  0
SECTION
  2
HEADER
  9
$ACADVER
  1
AC1009
  9
$DWGCODEPAGE
  3
iso8859-1
  9
$INSBASE
 10
0.0
 20
0.0
 30
0.0
  9
$EXTMIN
 10
1.0E20
 20
1.0E20
  9
$EXTMAX
 10
-1.0E20
 20
-1.0E20
  9
$LIMMIN
 10
0.0
 20
0.0
  9
$LIMMAX
 10
12.0
 20
9.0
  9
$ORTHOMODE
 70
     0
  9
$REGENMODE
 70
     1
  9
$FILLMODE
 70
     1
  9
$QTEXTMODE
 70
     0
  9
$MIRRTEXT
 70
     1
  9
$DRAGMODE
 70
     2
  9
$LTSCALE
 40
15.0
  9
$OSMODE
 70
     0
  9
$ATTMODE
 70
     1
  9
$TEXTSIZE
 40
0.2
  9
$TRACEWID
 40
0.05
  9
$TEXTSTYLE
  7
STANDARD
  9
$CLAYER
  8
0
  9
$CELTYPE
  6
DASHED
  9
$CECOLOR
 62
   256
  9
$DIMSCALE
 40
1.0
  9
$DIMASZ
 40
0.18
  9
$DIMEXO
 40
0.0625
  9
$DIMDLI
 40
0.38
  9
$DIMRND
 40
0.0
  9
$DIMDLE
 40
0.0
  9
$DIMEXE
 40
0.18
  9
$DIMTP
 40
0.0
  9
$DIMTM
 40
0.0
  9
$DIMTXT
 40
0.18
  9
$DIMCEN
 40
0.09
  9
$DIMTSZ
 40
0.0
  9
$DIMTOL
 70
     0
  9
$DIMLIM
 70
     0
  9
$DIMTIH
 70
     1
  9
$DIMTOH
 70
     1
  9
$DIMSE1
 70
     0
  9
$DIMSE2
 70
     0
  9
$DIMTAD
 70
     0
  9
$DIMZIN
 70
     0
  9
$DIMBLK
  1

  9
$DIMASO
 70
     1
  9
$DIMSHO
 70
     1
  9
$DIMPOST
  1

  9
$DIMAPOST
  1

  9
$DIMALT
 70
     0
  9
$DIMALTD
 70
     2
  9
$DIMALTF
 40
25.4
  9
$DIMLFAC
 40
1.0
  9
$DIMTOFL
 70
     0
  9
$DIMTVP
 40
0.0
  9
$DIMTIX
 70
     0
  9
$DIMSOXD
 70
     0
  9
$DIMSAH
 70
     0
  9
$DIMBLK1
  1

  9
$DIMBLK2
  1

  9
$DIMSTYLE
  2
STANDARD
  9
$DIMCLRD
 70
     0
  9
$DIMCLRE
 70
     0
  9
$DIMCLRT
 70
     0
  9
$DIMTFAC
 40
1.0
  9
$DIMGAP
 40
0.09
  9
$LUNITS
 70
     2
  9
$LUPREC
 70
     4
  9
$AXISMODE
 70
     0
  9
$AXISUNIT
 10
0.0
 20
0.0
  9
$SKETCHINC
 40
0.1
  9
$FILLETRAD
 40
0.0
  9
$AUNITS
 70
     0
  9
$AUPREC
 70
     0
  9
$MENU
  1
acad
  9
$ELEVATION
 40
0.0
  9
$PELEVATION
 40
0.0
  9
$THICKNESS
 40
0.0
  9
$LIMCHECK
 70
     0
  9
$BLIPMODE
 70
     1
  9
$CHAMFERA
 40
0.0
  9
$CHAMFERB
 40
0.0
  9
$SKPOLY
 70
     0
  9
$TDCREATE
 40
0.000000000
  9
$TDUPDATE
 40
0.000000000
  9
$TDINDWG
 40
0.0
  9
$TDUSRTIMER
 40
0.0
  9
$USRTIMER
 70
     1
  9
$ANGBASE
 50
0.0
  9
$ANGDIR
 70
     0
  9
$PDMODE
 70
     0
  9
$PDSIZE
 40
0.0
  9
$PLINEWID
 40
0.0
  9
$COORDS
 70
     1
  9
$SPLFRAME
 70
     0
  9
$SPLINETYPE
 70
     6
  9
$SPLINESEGS
 70
     8
  9
$ATTDIA
 70
     0
  9
$ATTREQ
 70
     1
  9
$HANDLING
 70
     1
  9
$HANDSEED
  5
   70E
  9
$SURFTAB1
 70
     6
  9
$SURFTAB2
 70
     6
  9
$SURFTYPE
 70
     6
  9
$SURFU
 70
     6
  9
$SURFV
 70
     6
  9
$UCSNAME
  2

  9
$UCSORG
 10
0.0
 20
0.0
 30
0.0
  9
$UCSXDIR
 10
1.0
 20
0.0
 30
0.0
  9
$UCSYDIR
 10
0.0
 20
1.0
 30
0.0
  9
$PUCSNAME
  2

  9
$PUCSORG
 10
0.0
 20
0.0
 30
0.0
  9
$PUCSXDIR
 10
1.0
 20
0.0
 30
0.0
  9
$PUCSYDIR
 10
0.0
 20
1.0
 30
0.0
  9
$USERI1
 70
     0
  9
$USERI2
 70
     0
  9
$USERI3
 70
     0
  9
$USERI4
 70
     0
  9
$USERI5
 70
     0
  9
$USERR1
 40
0.0
  9
$USERR2
 40
0.0
  9
$USERR3
 40
0.0
  9
$USERR4
 40
0.0
  9
$USERR5
 40
0.0
  9
$WORLDVIEW
 70
     1
  9
$SHADEDGE
 70
     3
  9
$SHADEDIF
 70
    70
  9
$TILEMODE
 70
     1
  9
$MAXACTVP
 70
    16
  9
$PINSBASE
 10
0.0
 20
0.0
 30
0.0
  9
$PLIMCHECK
 70
     0
  9
$PEXTMIN
 10
1.0E20
 20
1.0E20
 30
1.0E20
  9
$PEXTMAX
 10
-1.0E20
 20
-1.0E20
 30
-1.0E20
  9
$PLIMMIN
 10
0.0
 20
0.0
  9
$PLIMMAX
 10
12.0
 20
9.0
  9
$UNITMODE
 70
     0
  9
$VISRETAIN
 70
     0
  0
ENDSEC
  0
SECTION
  2
TABLES
  0
TABLE
  2
VPORT
 70
     1
  0
VPORT
  2
*ACTIVE
 70
     0
 10
0.0
 20
0.0
 11
1.0
 21
1.0
 12
6.801242
 22
4.5
 13
0.0
 23
0.0
 14
1.0
 24
1.0
 15
0.0
 25
0.0
 16
0.0
 26
0.0
 36
1.0
 17
0.0
 27
0.0
 37
0.0
 40
9.0
 41
1.511387
 42
50.0
 43
0.0
 44
0.0
 50
0.0
 51
0.0
 71
     0
 72
   100
 73
     1
 74
     1
 75
     0
 76
     0
 77
     0
 78
     0
  0
ENDTAB
  0
TABLE
  2
LTYPE
 70
    41
  0
LTYPE
  2
BYBLOCK
 70
     0
  3

 72
    65
 73
     0
 40
0.0
  0
LTYPE
  2
BYLAYER
 70
     0
  3

 72
    65
 73
     0
 40
0.0
  0
LTYPE
  2
CONTINUOUS
 70
     0
  3
Solid line
 72
    65
 73
     0
 40
0.0
  0
LTYPE
  2
BORDER
 70
    64
  3
__ __ . __ __ . __ __ . __ __ . __ __ . __ __ .
 72
    65
 73
     6
 40
1.75
 49
0.5
 49
-0.25
 49
0.5
 49
-0.25
 49
0.0
 49
-0.25
  0
LTYPE
  2
BORDER2
 70
    64
  3
__.__.__.__.__.__.__.__.__.__.__.__.__.__.__.__
 72
    65
 73
     6
 40
0.875
 49
0.25
 49
-0.125
 49
0.25
 49
-0.125
 49
0.0
 49
-0.125
  0
LTYPE
  2
BORDERX2
 70
    64
  3
____  ____  .  ____  ____  .  ____  ____  .  __
 72
    65
 73
     6
 40
3.5
 49
1.0
 49
-0.5
 49
1.0
 49
-0.5
 49
0.0
 49
-0.5
  0
LTYPE
  2
CENTER
 70
    64
  3
____ _ ____ _ ____ _ ____ _ ____ _ ____ _ ____
 72
    65
 73
     4
 40
2.0
 49
1.25
 49
-0.25
 49
0.25
 49
-0.25
  0
LTYPE
  2
CENTER2
 70
    64
  3
___ _ ___ _ ___ _ ___ _ ___ _ ___ _ ___ _ ___ _
 72
    65
 73
     4
 40
1.125
 49
0.75
 49
-0.125
 49
0.125
 49
-0.125
  0
LTYPE
  2
CENTERX2
 70
    64
  3
________  __  ________  __  ________  __  _____
 72
    65
 73
     4
 40
4.0
 49
2.5
 49
-0.5
 49
0.5
 49
-0.5
  0
LTYPE
  2
DASHDOT
 70
    64
  3
__ . __ . __ . __ . __ . __ . __ . __ . __ . __
 72
    65
 73
     4
 40
1.0
 49
0.5
 49
-0.25
 49
0.0
 49
-0.25
  0
LTYPE
  2
DASHDOT2
 70
    64
  3
_._._._._._._._._._._._._._._._._._._._._._._._
 72
    65
 73
     4
 40
0.5
 49
0.25
 49
-0.125
 49
0.0
 49
-0.125
  0
LTYPE
  2
DASHDOTX2
 70
    64
  3
____  .  ____  .  ____  .  ____  .  ____  .  __
 72
    65
 73
     4
 40
2.0
 49
1.0
 49
-0.5
 49
0.0
 49
-0.5
  0
LTYPE
  2
DASHED
 70
    64
  3
__ __ __ __ __ __ __ __ __ __ __ __ __ __ __ __
 72
    65
 73
     2
 40
0.75
 49
0.5
 49
-0.25
  0
LTYPE
  2
DASHED2
 70
    64
  3
_ _ _ _ _ _ _ _ _ _ _ _ _ _ _ _ _ _ _ _ _ _ _ _
 72
    65
 73
     2
 40
0.375
 49
0.25
 49
-0.125
  0
LTYPE
  2
DASHEDX2
 70
    64
  3
____  ____  ____  ____  ____  ____  ____  ____
 72
    65
 73
     2
 40
1.5
 49
1.0
 49
-0.5
  0
LTYPE
  2
DIVIDE
 70
    64
  3
____ . . ____ . . ____ . . ____ . . ____ . . __
 72
    65
 73
     6
 40
1.25
 49
0.5
 49
-0.25
 49
0.0
 49
-0.25
 49
0.0
 49
-0.25
  0
LTYPE
  2
DIVIDE2
 70
    64
  3
__..__..__..__..__..__..__..__..__..__..__..__.
 72
    65
 73
     6
 40
0.625
 49
0.25
 49
-0.125
 49
0.0
 49
-0.125
 49
0.0
 49
-0.125
  0
LTYPE
  2
DIVIDEX2
 70
    64
  3
________  .  .  ________  .  .  ________  .  .
 72
    65
 73
     6
 40
2.5
 49
1.0
 49
-0.5
 49
0.0
 49
-0.5
 49
0.0
 49
-0.5
  0
LTYPE
  2
DOT
 70
    64
  3
. . . . . . . . . . . . . . . . . . . . . . . .
 72
    65
 73
     2
 40
0.25
 49
0.0
 49
-0.25
  0
LTYPE
  2
DOT2
 70
    64
  3
...............................................
 72
    65
 73
     2
 40
0.125
 49
0.0
 49
-0.125
  0
LTYPE
  2
DOTX2
 70
    64
  3
.  .  .  .  .  .  .  .  .  .  .  .  .  .  .  .
 72
    65
 73
     2
 40
0.5
 49
0.0
 49
-0.5
  0
LTYPE
  2
HIDDEN
 70
    64
  3
__ __ __ __ __ __ __ __ __ __ __ __ __ __ __ __
 72
    65
 73
     2
 40
0.375
 49
0.25
 49
-0.125
  0
LTYPE
  2
HIDDEN2
 70
    64
  3
_ _ _ _ _ _ _ _ _ _ _ _ _ _ _ _ _ _ _ _ _ _ _ _
 72
    65
 73
     2
 40
0.1875
 49
0.125
 49
-0.0625
  0
LTYPE
  2
HIDDENX2
 70
    64
  3
____ ____ ____ ____ ____ ____ ____ ____ ____ __
 72
    65
 73
     2
 40
0.75
 49
0.5
 49
-0.25
  0
LTYPE
  2
PHANTOM
 70
    64
  3
______  __  __  ______  __  __  ______  __  __
 72
    65
 73
     6
 40
2.5
 49
1.25
 49
-0.25
 49
0.25
 49
-0.25
 49
0.25
 49
-0.25
  0
LTYPE
  2
PHANTOM2
 70
    64
  3
___ _ _ ___ _ _ ___ _ _ ___ _ _ ___ _ _ ___ _ _
 72
    65
 73
     6
 40
1.25
 49
0.625
 49
-0.125
 49
0.125
 49
-0.125
 49
0.125
 49
-0.125
  0
LTYPE
  2
PHANTOMX2
 70
    64
  3
____________    ____    ____    ____________
 72
    65
 73
     6
 40
5.0
 49
2.5
 49
-0.5
 49
0.5
 49
-0.5
 49
0.5
 49
-0.5
  0
LTYPE
  2
ACAD_ISO02W100
 70
    64
  3
__ __ __ __ __ __ __ __ __ __ __ __ __ __ __ __
 72
    65
 73
     2
 40
15.0
 49
12.0
 49
-3.0
  0
LTYPE
  2
ACAD_ISO03W100
 70
    64
  3
__    __    __    __    __    __    __    __
 72
    65
 73
     2
 40
30.0
 49
12.0
 49
-18.0
  0
LTYPE
  2
ACAD_ISO04W100
 70
    64
  3
____ . ____ . ____ . ____ . ____ . ____ . ____
 72
    65
 73
     4
 40
30.5
 49
24.0
 49
-3.0
 49
0.5
 49
-3.0
  0
LTYPE
  2
ACAD_ISO05W100
 70
    64
  3
____ .. ____ .. ____ .. ____ .. ____ .. ____ ..
 72
    65
 73
     6
 40
34.0
 49
24.0
 49
-3.0
 49
0.5
 49
-3.0
 49
0.5
 49
-3.0
  0
LTYPE
  2
ACAD_ISO06W100
 70
    64
  3
____ ... ____ ... ____ ... ____ ... ____ ... __
 72
    65
 73
     8
 40
37.5
 49
24.0
 49
-3.0
 49
0.5
 49
-3.0
 49
0.5
 49
-3.0
 49
0.5
 49
-3.0
  0
LTYPE
  2
ACAD_ISO07W100
 70
    64
  3
. . . . . . . . . . . . . . . . . . . . . . . .
 72
    65
 73
     2
 40
3.5
 49
0.5
 49
-3.0
  0
LTYPE
  2
ACAD_ISO08W100
 70
    64
  3
____ __ ____ __ ____ __ ____ ____ __ __ ____ __
 72
    65
 73
     4
 40
36.0
 49
24.0
 49
-3.0
 49
6.0
 49
-3.0
  0
LTYPE
  2
ACAD_ISO09W100
 70
    64
  3
____ __ __ ____ __ __ ____ __ __ ____ __ __ ___
 72
    65
 73
     6
 40
45.0
 49
24.0
 49
-3.0
 49
6.0
 49
-3.0
 49
6.0
 49
-3.0
  0
LTYPE
  2
ACAD_ISO10W100
 70
    64
  3
__ . __ . __ . __ . __ . __ . __ . __ . __ . __
 72
    65
 73
     4
 40
18.5
 49
12.0
 49
-3.0
 49
0.5
 49
-3.0
  0
LTYPE
  2
ACAD_ISO11W100
 70
    64
  3
__ __ . __ __ . __ __ . __ __ . __ __ . __ __ .
 72
    65
 73
     6
 40
33.5
 49
12.0
 49
-3.0
 49
12.0
 49
-3.0
 49
0.5
 49
-3.0
  0
LTYPE
  2
ACAD_ISO12W100
 70
    64
  3
__ . . __ . . __ . . __ . . __ . . __ . . __ .
 72
    65
 73
     6
 40
22.0
 49
12.0
 49
-3.0
 49
0.5
 49
-3.0
 49
0.5
 49
-3.0
  0
LTYPE
  2
ACAD_ISO13W100
 70
    64
  3
__ __ . . __ __ . . __ __ . . __ __ . . __ __ .
 72
    65
 73
     8
 40
37.0
 49
12.0
 49
-3.0
 49
12.0
 49
-3.0
 49
0.5
 49
-3.0
 49
0.5
 49
-3.0
  0
LTYPE
  2
ACAD_ISO14W100
 70
    64
  3
__ . . . __ . . . __ . . . __ . . . __ . . . __
 72
    65
 73
     8
 40
25.5
 49
12.0
 49
-3.0
 49
0.5
 49
-3.0
 49
0.5
 49
-3.0
 49
0.5
 49
-3.0
  0
LTYPE
  2
ACAD_ISO15W100
 70
    64
  3
__ __ . . . __ __ . . . __ __ . . . __ __ . . .
 72
    65
 73
    10
 40
40.5
 49
12.0
 49
-3.0
 49
12.0
 49
-3.0
 49
0.5
 49
-3.0
 49
0.5
 49
-3.0
 49
0.5
 49
-3.0
  0
ENDTAB
  0
TABLE
  2
STYLE
 70
     4
  0
STYLE
  2
STANDARD
 70
    64
 40
0.0
 41
1.0
 50
0.0
 71
     0
 42
0.2
  3
txt
  4

  0
STYLE
  2
TOLERANCE
 70
    64
 40
0.0
 41
1.0
 50
0.0
 71
     0
 42
0.2
  3
../igesfont/iges1003.shx
  4

  0
STYLE
  2
ROMANS
 70
    64
 40
0.0
 41
1.0
 50
0.0
 71
     0
 42
0.2
  3
romans.shx
  4

  0
STYLE
  2
ROMANC
 70
    64
 40
0.0
 41
1.0
 50
0.0
 71
     0
 42
0.2
  3
romanc.shx
  4

  0
ENDTAB
  0
TABLE
  2
DIMSTYLE
 70
     2
  0
DIMSTYLE
  2
UNNAMED
 70
     0
  3

  4

  5

  6

  7

 40
1.0
 41
0.18
 42
0.0625
 43
0.38
 44
0.18
 45
0.0
 46
0.0
 47
0.0
 48
0.0
140
0.18
141
0.09
142
0.0
143
25.4
144
1.0
145
0.0
146
1.0
147
0.09
 71
     0
 72
     0
 73
     1
 74
     1
 75
     0
 76
     0
 77
     0
 78
     0
170
     0
171
     2
172
     0
173
     0
174
     0
175
     0
176
     0
177
     0
178
     0
  0
DIMSTYLE
  2
STANDARD
 70
     0
  3

  4

  5

  6

  7

 40
1.0
 41
0.18
 42
0.0625
 43
0.38
 44
0.18
 45
0.0
 46
0.0
 47
0.0
 48
0.0
140
0.18
141
0.09
142
0.0
143
25.4
144
1.0
145
0.0
146
1.0
147
0.09
 71
     0
 72
     0
 73
     1
 74
     1
 75
     0
 76
     0
 77
     0
 78
     0
170
     0
171
     2
172
     0
173
     0
174
     0
175
     0
176
     0
177
     0
178
     0
  0
ENDTAB
  0
TABLE
  2
LAYER
 70
     2
  0
LAYER
  2
0
 70
     0
 62
     7
  6
CONTINUOUS
  0
LAYER
  2
255
 70
     0
 62
     7
  6
CONTINUOUS
  0
ENDTAB
  0
ENDSEC
  0
SECTION
  2
BLOCKS
  0
BLOCK
  5
     B
  8
0
  6
CONTINUOUS
 62
     7
  2
*UDIM2412
 70
    65
 10
0.0
 20
0.0
 30
0.0
  3
*UDIM2412
  0
TEXT
  5
     C
  8
0
  6
CONTINUOUS
 62
     7
 10
-526.417431688042
 20
-167.633300774195
 30
0.0
 40
3.00000002980232
  1
105
 50
359.999999896069
 41
0.933333333333333
 72
     1
 11
-522.517431646586
 21
-166.133300766349
 31
0.0
 73
     2
  0
LINE
  5
     D
  8
0
  6
CONTINUOUS
 62
     7
 10
-509.117431640625
 20
-156.90529893263
 30
0.0
 11
-509.117431640625
 21
-170.63330078125
 31
0.0
  0
LINE
  5
     E
  8
0
  6
CONTINUOUS
 62
     7
 10
-535.367431640625
 20
-156.90529893263
 30
0.0
 11
-535.367431640625
 21
-170.63330078125
 31
0.0
  0
LINE
  5
     F
  8
0
  6
CONTINUOUS
 62
     7
 10
-509.117431640625
 20
-168.63330078125
 30
0.0
 11
-535.367431640625
 21
-168.63330078125
 31
0.0
  0
LINE
  5
    10
  8
0
  6
CONTINUOUS
 62
     7
 10
-512.071854917832
 20
-169.154245211202
 30
0.0
 11
-509.117431640625
 21
-168.63330078125
 31
0.0
  0
LINE
  5
    11
  8
0
  6
CONTINUOUS
 62
     7
 10
-509.117431640625
 20
-168.63330078125
 30
0.0
 11
-512.071854917832
 21
-168.112356351298
 31
0.0
  0
LINE
  5
    12
  8
0
  6
CONTINUOUS
 62
     7
 10
-532.413008363418
 20
-168.112356351298
 30
0.0
 11
-535.367431640625
 21
-168.63330078125
 31
0.0
  0
LINE
  5
    13
  8
0
  6
CONTINUOUS
 62
     7
 10
-535.367431640625
 20
-168.63330078125
 30
0.0
 11
-532.413008363418
 21
-169.154245211202
 31
0.0
  0
ENDBLK
  5
    14
  8
0
  6
CONTINUOUS
 62
     7
  0
BLOCK
  5
    15
  8
0
  6
CONTINUOUS
 62
     7
  2
*UDIM2413
 70
    65
 10
0.0
 20
0.0
 30
0.0
  3
*UDIM2413
  0
TEXT
  5
    16
  8
0
  6
CONTINUOUS
 62
     7
 10
-515.855451998841
 20
-161.688060755976
 30
0.0
 40
3.00000002980232
  1
35
 50
359.999999896069
 41
0.933333333333333
 72
     1
 11
-513.355451971293
 21
-160.188060745597
 31
0.0
 73
     2
  0
LINE
  5
    17
  8
0
  6
CONTINUOUS
 62
     7
 10
-509.117431640625
 20
-156.90529893263
 30
0.0
 11
-509.117431640625
 21
-164.688060760498
 31
0.0
  0
LINE
  5
    18
  8
0
  6
CONTINUOUS
 62
     7
 10
-517.867431640625
 20
-156.158413794727
 30
0.0
 11
-517.867431640625
 21
-164.688060760498
 31
0.0
  0
LINE
  5
    19
  8
0
  6
CONTINUOUS
 62
     7
 10
-509.117431640625
 20
-162.688060760498
 30
0.0
 11
-517.867431640625
 21
-162.688060760498
 31
0.0
  0
LINE
  5
    1A
  8
0
  6
CONTINUOUS
 62
     7
 10
-506.163008363418
 20
-162.167116330546
 30
0.0
 11
-509.117431640625
 21
-162.688060760498
 31
0.0
  0
LINE
  5
    1B
  8
0
  6
CONTINUOUS
 62
     7
 10
-509.117431640625
 20
-162.688060760498
 30
0.0
 11
-506.163008363418
 21
-163.20900519045
 31
0.0
  0
LINE
  5
    1C
  8
0
  6
CONTINUOUS
 62
     7
 10
-520.821854917832
 20
-163.20900519045
 30
0.0
 11
-517.867431640625
 21
-162.688060760498
 31
0.0
  0
LINE
  5
    1D
  8
0
  6
CONTINUOUS
 62
     7
 10
-517.867431640625
 20
-162.688060760498
 30
0.0
 11
-520.821854917832
 21
-162.167116330546
 31
0.0
  0
ENDBLK
  5
    1E
  8
0
  6
CONTINUOUS
 62
     7
  0
BLOCK
  5
    1F
  8
0
  6
CONTINUOUS
 62
     7
  2
*UDIM2414
 70
    65
 10
0.0
 20
0.0
 30
0.0
  3
*UDIM2414
  0
TEXT
  5
    20
  8
0
  6
CONTINUOUS
 62
     7
 10
-526.417431688042
 20
-77.7340545583749
 30
0.0
 40
3.00000002980232
  1
117
 50
359.999999896069
 41
0.933333333333333
 72
     1
 11
-522.517431646586
 21
-76.2340545505285
 31
0.0
 73
     2
  0
LINE
  5
    21
  8
0
  6
CONTINUOUS
 62
     7
 10
-507.617431640625
 20
-99.3562699590534
 30
0.0
 11
-507.617431640625
 21
-76.7340545654297
 31
0.0
  0
LINE
  5
    22
  8
0
  6
CONTINUOUS
 62
     7
 10
-536.867431640625
 20
-99.0486120183855
 30
0.0
 11
-536.867431640625
 21
-76.7340545654297
 31
0.0
  0
LINE
  5
    23
  8
0
  6
CONTINUOUS
 62
     7
 10
-507.617431640625
 20
-78.7340545654297
 30
0.0
 11
-536.867431640625
 21
-78.7340545654297
 31
0.0
  0
LINE
  5
    24
  8
0
  6
CONTINUOUS
 62
     7
 10
-510.571854917832
 20
-79.2549989953814
 30
0.0
 11
-507.617431640625
 21
-78.7340545654297
 31
0.0
  0
LINE
  5
    25
  8
0
  6
CONTINUOUS
 62
     7
 10
-507.617431640625
 20
-78.7340545654297
 30
0.0
 11
-510.571854917832
 21
-78.213110135478
 31
0.0
  0
LINE
  5
    26
  8
0
  6
CONTINUOUS
 62
     7
 10
-533.913008363418
 20
-78.213110135478
 30
0.0
 11
-536.867431640625
 21
-78.7340545654297
 31
0.0
  0
LINE
  5
    27
  8
0
  6
CONTINUOUS
 62
     7
 10
-536.867431640625
 20
-78.7340545654297
 30
0.0
 11
-533.913008363418
 21
-79.2549989953814
 31
0.0
  0
ENDBLK
  5
    28
  8
0
  6
CONTINUOUS
 62
     7
  0
BLOCK
  5
    29
  8
0
  6
CONTINUOUS
 62
     7
  2
*UDIM2415
 70
    65
 10
0.0
 20
0.0
 30
0.0
  3
*UDIM2415
  0
TEXT
  5
    2A
  8
0
  6
CONTINUOUS
 62
     7
 10
-515.314975192379
 20
-114.66660928274
 30
0.0
 40
3.00000002980232
  1
41
 50
359.999999896069
 41
0.933333333333333
 72
     1
 11
-512.814975164831
 21
-113.166609272361
 31
0.0
 73
     2
  0
LINE
  5
    2B
  8
0
  6
CONTINUOUS
 62
     7
 10
-507.617431640625
 20
-115.666609287262
 30
0.0
 11
-517.867431640625
 21
-115.666609287262
 31
0.0
  0
LINE
  5
    2C
  8
0
  6
CONTINUOUS
 62
     7
 10
-504.663008363418
 20
-115.14566485731
 30
0.0
 11
-507.617431640625
 21
-115.666609287262
 31
0.0
  0
LINE
  5
    2D
  8
0
  6
CONTINUOUS
 62
     7
 10
-507.617431640625
 20
-115.666609287262
 30
0.0
 11
-504.663008363418
 21
-116.187553717214
 31
0.0
  0
LINE
  5
    2E
  8
0
  6
CONTINUOUS
 62
     7
 10
-520.821854917832
 20
-116.187553717214
 30
0.0
 11
-517.867431640625
 21
-115.666609287262
 31
0.0
  0
LINE
  5
    2F
  8
0
  6
CONTINUOUS
 62
     7
 10
-517.867431640625
 20
-115.666609287262
 30
0.0
 11
-520.821854917832
 21
-115.14566485731
 31
0.0
  0
ENDBLK
  5
    30
  8
0
  6
CONTINUOUS
 62
     7
  0
BLOCK
  5
    31
  8
0
  6
CONTINUOUS
 62
     7
  2
*UDIM2416
 70
    65
 10
0.0
 20
0.0
 30
0.0
  3
*UDIM2416
  0
TEXT
  5
    32
  8
0
  6
CONTINUOUS
 62
     7
 10
-491.612709060052
 20
-115.907905667752
 30
0.0
 40
3.00000002980232
  1
107,25
 50
449.999999896069
 41
0.933333333333333
 72
     1
 11
-493.112709060311
 21
-107.807905584574
 31
0.0
 73
     2
  0
LINE
  5
    33
  8
0
  6
CONTINUOUS
 62
     7
 10
-497.611716390068
 20
-94.1266555786133
 30
0.0
 11
-488.61270904541
 21
-94.1266555786133
 31
0.0
  0
LINE
  5
    34
  8
0
  6
CONTINUOUS
 62
     7
 10
-498.541965929953
 20
-120.939155578613
 30
0.0
 11
-488.61270904541
 21
-120.939155578613
 31
0.0
  0
LINE
  5
    35
  8
0
  6
CONTINUOUS
 62
     7
 10
-490.61270904541
 20
-94.1266555786133
 30
0.0
 11
-490.61270904541
 21
-120.939155578613
 31
0.0
  0
LINE
  5
    36
  8
0
  6
CONTINUOUS
 62
     7
 10
-490.091764615459
 20
-97.0810788558202
 30
0.0
 11
-490.61270904541
 21
-94.1266555786133
 31
0.0
  0
LINE
  5
    37
  8
0
  6
CONTINUOUS
 62
     7
 10
-490.61270904541
 20
-94.1266555786133
 30
0.0
 11
-491.133653475362
 21
-97.0810788558202
 31
0.0
  0
LINE
  5
    38
  8
0
  6
CONTINUOUS
 62
     7
 10
-491.133653475362
 20
-117.984732301406
 30
0.0
 11
-490.61270904541
 21
-120.939155578613
 31
0.0
  0
LINE
  5
    39
  8
0
  6
CONTINUOUS
 62
     7
 10
-490.61270904541
 20
-120.939155578613
 30
0.0
 11
-490.091764615459
 21
-117.984732301406
 31
0.0
  0
ENDBLK
  5
    3A
  8
0
  6
CONTINUOUS
 62
     7
  0
BLOCK
  5
    3B
  8
0
  6
CONTINUOUS
 62
     7
  2
*UDIM2417
 70
    65
 10
0.0
 20
0.0
 30
0.0
  3
*UDIM2417
  0
TEXT
  5
    3C
  8
0
  6
CONTINUOUS
 62
     7
 10
-553.822704327297
 20
-119.232823065648
 30
0.0
 40
3.00000002980232
  1
65,75
 50
449.999999896069
 41
0.933333333333333
 72
     1
 11
-555.322704330087
 21
-112.532822996378
 31
0.0
 73
     2
  0
LINE
  5
    3D
  8
0
  6
CONTINUOUS
 62
     7
 10
-538.288973159763
 20
-104.501655578613
 30
0.0
 11
-554.822704315186
 21
-104.501655578613
 31
0.0
  0
LINE
  5
    3E
  8
0
  6
CONTINUOUS
 62
     7
 10
-549.266009667473
 20
-120.939155578613
 30
0.0
 11
-554.822704315186
 21
-120.939155578613
 31
0.0
  0
LINE
  5
    3F
  8
0
  6
CONTINUOUS
 62
     7
 10
-552.822704315186
 20
-104.501655578613
 30
0.0
 11
-552.822704315186
 21
-120.939155578613
 31
0.0
  0
LINE
  5
    40
  8
0
  6
CONTINUOUS
 62
     7
 10
-552.301759885234
 20
-107.45607885582
 30
0.0
 11
-552.822704315186
 21
-104.501655578613
 31
0.0
  0
LINE
  5
    41
  8
0
  6
CONTINUOUS
 62
     7
 10
-552.822704315186
 20
-104.501655578613
 30
0.0
 11
-553.343648745137
 21
-107.45607885582
 31
0.0
  0
LINE
  5
    42
  8
0
  6
CONTINUOUS
 62
     7
 10
-553.343648745137
 20
-117.984732301406
 30
0.0
 11
-552.822704315186
 21
-120.939155578613
 31
0.0
  0
LINE
  5
    43
  8
0
  6
CONTINUOUS
 62
     7
 10
-552.822704315186
 20
-120.939155578613
 30
0.0
 11
-552.301759885234
 21
-117.984732301406
 31
0.0
  0
ENDBLK
  5
    44
  8
0
  6
CONTINUOUS
 62
     7
  0
BLOCK
  5
    45
  8
0
  6
CONTINUOUS
 62
     7
  2
*UDIM2418
 70
    65
 10
0.0
 20
0.0
 30
0.0
  3
*UDIM2418
  0
TEXT
  5
    46
  8
0
  6
CONTINUOUS
 62
     7
 10
-495.253588396291
 20
-79.7962996369362
 30
0.0
 40
3.00000002980232
  1
14
 50
403.073198876622
 41
0.933333333333333
 72
     1
 11
-494.451782091529
 21
-76.9932465124801
 31
0.0
 73
     2
  0
TEXT
  5
    47
  8
0
  6
CONTINUOUS
 62
     7
 10
-497.262413393956
 20
-81.6743630848857
 30
0.0
 40
3.00000002980232
  1
R
 50
403.073198876622
 41
0.933333333333334
 72
     1
 11
-497.483281633667
 21
-79.8274149834408
 31
0.0
 73
     2
  0
LINE
  5
    48
  8
0
  6
CONTINUOUS
 62
     7
 10
-490.918247156161
 20
-77.1121206443023
 30
0.0
 11
-517.517972444005
 21
-101.980375347662
 31
0.0
  0
LINE
  5
    49
  8
0
  6
CONTINUOUS
 62
     7
 10
-508.363128067644
 20
-94.1346041218106
 30
0.0
 11
-506.560745309162
 21
-91.736393040207
 31
0.0
  0
LINE
  5
    4A
  8
0
  6
CONTINUOUS
 62
     7
 10
-506.560745309162
 20
-91.736393040207
 30
0.0
 11
-509.074667470789
 21
-93.3735232626624
 31
0.0
  0
ENDBLK
  5
    4B
  8
0
  6
CONTINUOUS
 62
     7
  0
BLOCK
  5
    4C
  8
0
  6
CONTINUOUS
 62
     7
  2
*UDIM2419
 70
    65
 10
0.0
 20
0.0
 30
0.0
  3
*UDIM2419
  0
TEXT
  5
    4D
  8
0
  6
CONTINUOUS
 62
     7
 10
-484.696800238984
 20
-125.551655153503
 30
0.0
 40
3.00000002980232
  1
218
 50
449.999999896069
 41
0.933333333333333
 72
     1
 11
-486.196800246835
 21
-121.651655112049
 31
0.0
 73
     2
  0
LINE
  5
    4E
  8
0
  6
CONTINUOUS
 62
     7
 10
-497.611716390068
 20
-94.1266558925298
 30
0.0
 11
-481.696800231934
 21
-94.1266608884841
 31
0.0
  0
LINE
  5
    4F
  8
0
  6
CONTINUOUS
 62
     7
 10
-501.986716390068
 20
-148.62665589253
 30
0.0
 11
-481.696800231934
 21
-148.626662261869
 31
0.0
  0
LINE
  5
    50
  8
0
  6
CONTINUOUS
 62
     7
 10
-483.696800231934
 20
-94.1266602606512
 30
0.0
 11
-483.696800231934
 21
-148.626661634036
 31
0.0
  0
LINE
  5
    51
  8
0
  6
CONTINUOUS
 62
     7
 10
-483.175855801982
 20
-97.0810835378581
 30
0.0
 11
-483.696800231934
 21
-94.1266602606512
 31
0.0
  0
LINE
  5
    52
  8
0
  6
CONTINUOUS
 62
     7
 10
-483.696800231934
 20
-94.1266602606512
 30
0.0
 11
-484.217744661885
 21
-97.0810835378581
 31
0.0
  0
LINE
  5
    53
  8
0
  6
CONTINUOUS
 62
     7
 10
-484.217744661885
 20
-145.672238356829
 30
0.0
 11
-483.696800231934
 21
-148.626661634036
 31
0.0
  0
LINE
  5
    54
  8
0
  6
CONTINUOUS
 62
     7
 10
-483.696800231934
 20
-148.626661634036
 30
0.0
 11
-483.175855801982
 21
-145.672238356829
 31
0.0
  0
ENDBLK
  5
    55
  8
0
  6
CONTINUOUS
 62
     7
  0
BLOCK
  5
    56
  8
0
  6
CONTINUOUS
 62
     7
  2
*UDIM2420
 70
    65
 10
0.0
 20
0.0
 30
0.0
  3
*UDIM2420
  0
TEXT
  5
    57
  8
0
  6
CONTINUOUS
 62
     7
 10
-563.670749671357
 20
-125.551653243222
 30
0.0
 40
3.00000002980232
  1
135
 50
449.999999896069
 41
0.933333333333333
 72
     1
 11
-565.170749679208
 21
-121.651653201767
 31
0.0
 73
     2
  0
LINE
  5
    58
  8
0
  6
CONTINUOUS
 62
     7
 10
-538.288973159762
 20
-104.50165479785
 30
0.0
 11
-564.670749664306
 21
-104.501634199921
 31
0.0
  0
LINE
  5
    59
  8
0
  6
CONTINUOUS
 62
     7
 10
-537.673657278427
 20
-138.251654816329
 30
0.0
 11
-564.670749664306
 21
-138.25163423688
 31
0.0
  0
LINE
  5
    5A
  8
0
  6
CONTINUOUS
 62
     7
 10
-562.670749664307
 20
-104.501635761448
 30
0.0
 11
-562.670749664307
 21
-138.251635761448
 31
0.0
  0
LINE
  5
    5B
  8
0
  6
CONTINUOUS
 62
     7
 10
-562.149805234355
 20
-107.456059038655
 30
0.0
 11
-562.670749664307
 21
-104.501635761448
 31
0.0
  0
LINE
  5
    5C
  8
0
  6
CONTINUOUS
 62
     7
 10
-562.670749664307
 20
-104.501635761448
 30
0.0
 11
-563.191694094258
 21
-107.456059038655
 31
0.0
  0
LINE
  5
    5D
  8
0
  6
CONTINUOUS
 62
     7
 10
-563.191694094258
 20
-135.297212484241
 30
0.0
 11
-562.670749664307
 21
-138.251635761448
 31
0.0
  0
LINE
  5
    5E
  8
0
  6
CONTINUOUS
 62
     7
 10
-562.670749664307
 20
-138.251635761448
 30
0.0
 11
-562.149805234355
 21
-135.297212484241
 31
0.0
  0
ENDBLK
  5
    5F
  8
0
  6
CONTINUOUS
 62
     7
  0
BLOCK
  5
    60
  8
0
  6
CONTINUOUS
 62
     7
  2
*UDIM2421
 70
    65
 10
0.0
 20
0.0
 30
0.0
  3
*UDIM2421
  0
TEXT
  5
    61
  8
0
  6
CONTINUOUS
 62
     7
 10
-565.513044552689
 20
-152.935294865966
 30
0.0
 40
3.00000002980232
  1
5
 50
388.919740374985
 41
0.933333333333334
 72
     1
 11
-565.275592759512
 21
-151.090405515717
 31
0.0
 73
     2
  0
TEXT
  5
    62
  8
0
  6
CONTINUOUS
 62
     7
 10
-568.270233156465
 20
-154.458584420119
 30
0.0
 40
3.00000002980232
  1
Ø
 50
388.919740374985
 41
0.933333333333334
 72
     1
 11
-568.032781363289
 21
-152.61369506987
 31
0.0
 73
     2
  0
TEXT
  5
    63
  8
0
  6
CONTINUOUS
 62
     7
 10
-563.105975119619
 20
-151.605438884987
 30
0.0
 40
3.00000002980232
  1
 (M4)
 50
388.919740374985
 41
0.933333333333333
 72
     1
 11
-557.966854659373
 21
-147.052479206747
 31
0.0
 73
     2
  0
LINE
  5
    64
  8
0
  6
CONTINUOUS
 62
     7
 10
-536.320370411442
 20
-137.949415588663
 30
0.0
 11
-567.786649169209
 21
-155.333882387241
 31
0.0
  0
LINE
  5
    65
  8
0
  6
CONTINUOUS
 62
     7
 10
-533.986290106991
 20
-136.064722209788
 30
0.0
 11
-536.320370411442
 21
-137.949415588663
 31
0.0
  0
LINE
  5
    66
  8
0
  6
CONTINUOUS
 62
     7
 10
-536.320370411442
 20
-137.949415588663
 30
0.0
 11
-533.482449341317
 21
-136.976685410381
 31
0.0
  0
LINE
  5
    67
  8
0
  6
CONTINUOUS
 62
     7
 10
-539.748573174259
 20
-140.438588947438
 30
0.0
 11
-537.414492869808
 21
-138.553895568563
 31
0.0
  0
LINE
  5
    68
  8
0
  6
CONTINUOUS
 62
     7
 10
-537.414492869808
 20
-138.553895568563
 30
0.0
 11
-540.252413939933
 21
-139.526625746846
 31
0.0
  0
ENDBLK
  5
    69
  8
0
  6
CONTINUOUS
 62
     7
  0
BLOCK
  5
    6A
  8
0
  6
CONTINUOUS
 62
     7
  2
*HATCH1320
 70
    65
 10
0.0
 20
0.0
 30
0.0
  3
*HATCH1320
  0
LINE
  5
    6B
  8
0
  6
CONTINUOUS
 62
    52
 10
-40.0625
 20
-4.00005149841309
 30
0.0
 11
-42.0625
 21
-6.00005149841309
 31
0.0
  0
LINE
  5
    6C
  8
0
  6
CONTINUOUS
 62
    52
 10
-35.8198623657227
 20
-4.00005149841309
 30
0.0
 11
-37.8198623657227
 21
-6.00005149841309
 31
0.0
  0
LINE
  5
    6D
  8
0
  6
CONTINUOUS
 62
    52
 10
-31.5772228240967
 20
-4.00005149841309
 30
0.0
 11
-33.5772247314453
 21
-6.00005149841309
 31
0.0
  0
LINE
  5
    6E
  8
0
  6
CONTINUOUS
 62
    52
 10
-27.3345813751221
 20
-4.00005149841309
 30
0.0
 11
-29.3345832824707
 21
-6.00005149841309
 31
0.0
  0
LINE
  5
    6F
  8
0
  6
CONTINUOUS
 62
    52
 10
-23.0919399261475
 20
-4.00005149841309
 30
0.0
 11
-25.0919418334961
 21
-6.00005149841309
 31
0.0
  0
LINE
  5
    70
  8
0
  6
CONTINUOUS
 62
    52
 10
-18.8492984771729
 20
-4.00005149841309
 30
0.0
 11
-20.8493003845215
 21
-6.00005149841309
 31
0.0
  0
LINE
  5
    71
  8
0
  6
CONTINUOUS
 62
    52
 10
-14.6066570281982
 20
-4.00005149841309
 30
0.0
 11
-16.6066589355469
 21
-6.00005149841309
 31
0.0
  0
LINE
  5
    72
  8
0
  6
CONTINUOUS
 62
    52
 10
-10.3640155792236
 20
-4.00005149841309
 30
0.0
 11
-12.3640174865723
 21
-6.00005149841309
 31
0.0
  0
LINE
  5
    73
  8
0
  6
CONTINUOUS
 62
    52
 10
-6.12137413024902
 20
-4.00005149841309
 30
0.0
 11
-8.12137603759766
 21
-6.00005149841309
 31
0.0
  0
LINE
  5
    74
  8
0
  6
CONTINUOUS
 62
    52
 10
-1.87873291969299
 20
-4.00005149841309
 30
0.0
 11
-3.87873482704163
 21
-6.00005149841309
 31
0.0
  0
LINE
  5
    75
  8
0
  6
CONTINUOUS
 62
    52
 10
2.36390805244446
 20
-4.00005149841309
 30
0.0
 11
0.363906145095825
 21
-6.00005149841309
 31
0.0
  0
LINE
  5
    76
  8
0
  6
CONTINUOUS
 62
    52
 10
6.60654926300049
 20
-4.00005149841309
 30
0.0
 11
4.60654735565186
 21
-6.00005149841309
 31
0.0
  0
LINE
  5
    77
  8
0
  6
CONTINUOUS
 62
    52
 10
10.8491907119751
 20
-4.00005149841309
 30
0.0
 11
8.84918880462646
 21
-6.00005149841309
 31
0.0
  0
LINE
  5
    78
  8
0
  6
CONTINUOUS
 62
    52
 10
15.0918321609497
 20
-4.00005149841309
 30
0.0
 11
13.0918302536011
 21
-6.00005149841309
 31
0.0
  0
LINE
  5
    79
  8
0
  6
CONTINUOUS
 62
    52
 10
19.33447265625
 20
-4.00005149841309
 30
0.0
 11
17.3344707489014
 21
-6.00005149841309
 31
0.0
  0
LINE
  5
    7A
  8
0
  6
CONTINUOUS
 62
    52
 10
23.5771141052246
 20
-4.00005149841309
 30
0.0
 11
21.577112197876
 21
-6.00005149841309
 31
0.0
  0
LINE
  5
    7B
  8
0
  6
CONTINUOUS
 62
    52
 10
27.8197555541992
 20
-4.00005149841309
 30
0.0
 11
25.8197536468506
 21
-6.00005149841309
 31
0.0
  0
LINE
  5
    7C
  8
0
  6
CONTINUOUS
 62
    52
 10
32.0623970031738
 20
-4.00005149841309
 30
0.0
 11
30.0623950958252
 21
-6.00005149841309
 31
0.0
  0
LINE
  5
    7D
  8
0
  6
CONTINUOUS
 62
    52
 10
35.4806251525879
 20
-4.82446241378784
 30
0.0
 11
34.3050346374512
 21
-6.00005149841309
 31
0.0
  0
ENDBLK
  5
    7E
  8
0
  6
CONTINUOUS
 62
     7
  0
BLOCK
  5
    7F
  8
0
  6
CONTINUOUS
 62
     7
  2
*HATCH1321
 70
    65
 10
0.0
 20
0.0
 30
0.0
  3
*HATCH1321
  0
LINE
  5
    80
  8
0
  6
CONTINUOUS
 62
    52
 10
44.7903175354004
 20
-4.00005149841309
 30
0.0
 11
42.7903175354004
 21
-6.00005149841309
 31
0.0
  0
LINE
  5
    81
  8
0
  6
CONTINUOUS
 62
    52
 10
49.0329551696777
 20
-4.00005149841309
 30
0.0
 11
47.0329551696777
 21
-6.00005149841309
 31
0.0
  0
LINE
  5
    82
  8
0
  6
CONTINUOUS
 62
    52
 10
53.2755928039551
 20
-4.00005149841309
 30
0.0
 11
51.2755928039551
 21
-6.00005149841309
 31
0.0
  0
ENDBLK
  5
    83
  8
0
  6
CONTINUOUS
 62
     7
  0
BLOCK
  5
    84
  8
0
  6
CONTINUOUS
 62
     7
  2
*HATCH1322
 70
    65
 10
0.0
 20
0.0
 30
0.0
  3
*HATCH1322
  0
LINE
  5
    85
  8
0
  6
CONTINUOUS
 62
    52
 10
169.948226928711
 20
-4.00005149841309
 30
0.0
 11
167.948226928711
 21
-6.00005149841309
 31
0.0
  0
LINE
  5
    86
  8
0
  6
CONTINUOUS
 62
    52
 10
174.190872192383
 20
-4.00005149841309
 30
0.0
 11
172.190872192383
 21
-6.00005149841309
 31
0.0
  0
LINE
  5
    87
  8
0
  6
CONTINUOUS
 62
    52
 10
177.480621337891
 20
-4.95293474197388
 30
0.0
 11
176.433502197266
 21
-6.00005149841309
 31
0.0
  0
ENDBLK
  5
    88
  8
0
  6
CONTINUOUS
 62
     7
  0
BLOCK
  5
    89
  8
0
  6
CONTINUOUS
 62
     7
  2
*HATCH1323
 70
    65
 10
0.0
 20
0.0
 30
0.0
  3
*HATCH1323
  0
LINE
  5
    8A
  8
0
  6
CONTINUOUS
 62
    52
 10
186.918792724609
 20
-4.00005149841309
 30
0.0
 11
184.918792724609
 21
-6.00005149841309
 31
0.0
  0
LINE
  5
    8B
  8
0
  6
CONTINUOUS
 62
    52
 10
191.161437988281
 20
-4.00005149841309
 30
0.0
 11
189.161437988281
 21
-6.00005149841309
 31
0.0
  0
LINE
  5
    8C
  8
0
  6
CONTINUOUS
 62
    52
 10
195.404083251953
 20
-4.00005149841309
 30
0.0
 11
193.404083251953
 21
-6.00005149841309
 31
0.0
  0
LINE
  5
    8D
  8
0
  6
CONTINUOUS
 62
    52
 10
199.646728515625
 20
-4.00005149841309
 30
0.0
 11
197.646728515625
 21
-6.00005149841309
 31
0.0
  0
LINE
  5
    8E
  8
0
  6
CONTINUOUS
 62
    52
 10
203.889373779297
 20
-4.00005149841309
 30
0.0
 11
201.889373779297
 21
-6.00005149841309
 31
0.0
  0
LINE
  5
    8F
  8
0
  6
CONTINUOUS
 62
    52
 10
208.132019042969
 20
-4.00005149841309
 30
0.0
 11
206.132019042969
 21
-6.00005149841309
 31
0.0
  0
LINE
  5
    90
  8
0
  6
CONTINUOUS
 62
    52
 10
212.374664306641
 20
-4.00005149841309
 30
0.0
 11
210.374664306641
 21
-6.00005149841309
 31
0.0
  0
LINE
  5
    91
  8
0
  6
CONTINUOUS
 62
    52
 10
216.617309570313
 20
-4.00005149841309
 30
0.0
 11
214.617309570313
 21
-6.00005149841309
 31
0.0
  0
LINE
  5
    92
  8
0
  6
CONTINUOUS
 62
    52
 10
220.859954833984
 20
-4.00005149841309
 30
0.0
 11
218.859954833984
 21
-6.00005149841309
 31
0.0
  0
LINE
  5
    93
  8
0
  6
CONTINUOUS
 62
    52
 10
225.102600097656
 20
-4.00005149841309
 30
0.0
 11
223.102600097656
 21
-6.00005149841309
 31
0.0
  0
LINE
  5
    94
  8
0
  6
CONTINUOUS
 62
    52
 10
229.345245361328
 20
-4.00005149841309
 30
0.0
 11
227.345245361328
 21
-6.00005149841309
 31
0.0
  0
LINE
  5
    95
  8
0
  6
CONTINUOUS
 62
    52
 10
233.587890625
 20
-4.00005149841309
 30
0.0
 11
231.587890625
 21
-6.00005149841309
 31
0.0
  0
LINE
  5
    96
  8
0
  6
CONTINUOUS
 62
    52
 10
237.830535888672
 20
-4.00005149841309
 30
0.0
 11
235.830535888672
 21
-6.00005149841309
 31
0.0
  0
LINE
  5
    97
  8
0
  6
CONTINUOUS
 62
    52
 10
242.073181152344
 20
-4.00005149841309
 30
0.0
 11
240.073181152344
 21
-6.00005149841309
 31
0.0
  0
LINE
  5
    98
  8
0
  6
CONTINUOUS
 62
    52
 10
246.315826416016
 20
-4.00005149841309
 30
0.0
 11
244.315826416016
 21
-6.00005149841309
 31
0.0
  0
LINE
  5
    99
  8
0
  6
CONTINUOUS
 62
    52
 10
248.664093017578
 20
-5.89435720443726
 30
0.0
 11
248.558395385742
 21
-6.00005149841309
 31
0.0
  0
ENDBLK
  5
    9A
  8
0
  6
CONTINUOUS
 62
     7
  0
BLOCK
  5
    9B
  8
0
  6
CONTINUOUS
 62
     7
  2
*UDIM2422
 70
    65
 10
0.0
 20
0.0
 30
0.0
  3
*UDIM2422
  0
TEXT
  5
    9C
  8
0
  6
CONTINUOUS
 62
     7
 10
-427.589247163496
 20
10.2298774741787
 30
0.0
 40
3.00000002980232
  1
83
 50
359.999999948034
 41
0.933333333333333
 72
     1
 11
-425.089247137308
 21
11.729877486825
 31
0.0
 73
     2
  0
LINE
  5
    9D
  8
0
  6
CONTINUOUS
 62
     7
 10
-404.114250183106
 20
-19.9678421020508
 30
0.0
 11
-404.114250183106
 21
11.2298774719238
 31
0.0
  0
LINE
  5
    9E
  8
0
  6
CONTINUOUS
 62
     7
 10
-445.514236450195
 20
-31.4678802490234
 30
0.0
 11
-445.514236450195
 21
11.2298774719238
 31
0.0
  0
LINE
  5
    9F
  8
0
  6
CONTINUOUS
 62
     7
 10
-404.114250183106
 20
9.22987747192383
 30
0.0
 11
-445.514236450195
 21
9.22987747192383
 31
0.0
  0
LINE
  5
    A0
  8
0
  6
CONTINUOUS
 62
     7
 10
-407.068673460312
 20
8.70893304197217
 30
0.0
 11
-404.114250183106
 21
9.22987747192383
 31
0.0
  0
LINE
  5
    A1
  8
0
  6
CONTINUOUS
 62
     7
 10
-404.114250183106
 20
9.22987747192383
 30
0.0
 11
-407.068673460312
 21
9.75082190187549
 31
0.0
  0
LINE
  5
    A2
  8
0
  6
CONTINUOUS
 62
     7
 10
-442.559813172988
 20
9.75082190187549
 30
0.0
 11
-445.514236450195
 21
9.22987747192383
 31
0.0
  0
LINE
  5
    A3
  8
0
  6
CONTINUOUS
 62
     7
 10
-445.514236450195
 20
9.22987747192383
 30
0.0
 11
-442.559813172988
 21
8.70893304197217
 31
0.0
  0
ENDBLK
  5
    A4
  8
0
  6
CONTINUOUS
 62
     7
  0
BLOCK
  5
    A5
  8
0
  6
CONTINUOUS
 62
     7
  2
*UDIM2423
 70
    65
 10
0.0
 20
0.0
 30
0.0
  3
*UDIM2423
  0
TEXT
  5
    A6
  8
0
  6
CONTINUOUS
 62
     7
 10
-456.687309272473
 20
35.8446349136268
 30
0.0
 40
3.00000002980232
  1
107,25
 50
89.9999999480344
 41
0.933333333333333
 72
     1
 11
-458.187309280038
 21
43.9446349954517
 31
0.0
 73
     2
  0
LINE
  5
    A7
  8
0
  6
CONTINUOUS
 62
     7
 10
-416.949933655179
 20
17.4071444701972
 30
0.0
 11
-457.687309265137
 21
17.4071444701972
 31
0.0
  0
LINE
  5
    A8
  8
0
  6
CONTINUOUS
 62
     7
 10
-455.687309265137
 20
17.4071444701972
 30
0.0
 11
-455.687309265137
 21
71.0321197509766
 31
0.0
  0
LINE
  5
    A9
  8
0
  6
CONTINUOUS
 62
     7
 10
-456.208253695088
 20
20.3615677474041
 30
0.0
 11
-455.687309265137
 21
17.4071444701972
 31
0.0
  0
LINE
  5
    AA
  8
0
  6
CONTINUOUS
 62
     7
 10
-455.687309265137
 20
17.4071444701972
 30
0.0
 11
-455.166364835185
 21
20.3615677474041
 31
0.0
  0
LINE
  5
    AB
  8
0
  6
CONTINUOUS
 62
     7
 10
-455.166364835185
 20
68.0776964737696
 30
0.0
 11
-455.687309265137
 21
71.0321197509766
 31
0.0
  0
LINE
  5
    AC
  8
0
  6
CONTINUOUS
 62
     7
 10
-455.687309265137
 20
71.0321197509766
 30
0.0
 11
-456.208253695088
 21
68.0776964737696
 31
0.0
  0
ENDBLK
  5
    AD
  8
0
  6
CONTINUOUS
 62
     7
  0
BLOCK
  5
    AE
  8
0
  6
CONTINUOUS
 62
     7
  2
*UDIM2424
 70
    65
 10
0.0
 20
0.0
 30
0.0
  3
*UDIM2424
  0
TEXT
  5
    AF
  8
0
  6
CONTINUOUS
 62
     7
 10
-321.864232170941
 20
-57.3803863515469
 30
0.0
 40
3.00000002980232
  1
2
 50
359.999999948034
 41
0.933333333333334
 72
     1
 11
-320.764232158661
 21
-55.8803863376379
 31
0.0
 73
     2
  0
LINE
  5
    B0
  8
0
  6
CONTINUOUS
 62
     7
 10
-319.664232147733
 20
-58.3803863525391
 30
0.0
 11
-325.864232063294
 21
-58.3803863525391
 31
0.0
  0
LINE
  5
    B1
  8
0
  6
CONTINUOUS
 62
     7
 10
-321.909808786087
 20
-57.8594419225874
 30
0.0
 11
-324.864232063294
 21
-58.3803863525391
 31
0.0
  0
LINE
  5
    B2
  8
0
  6
CONTINUOUS
 62
     7
 10
-324.864232063294
 20
-58.3803863525391
 30
0.0
 11
-321.909808786087
 21
-58.9013307824907
 31
0.0
  0
LINE
  5
    B3
  8
0
  6
CONTINUOUS
 62
     7
 10
-328.8186553405
 20
-58.9013307824907
 30
0.0
 11
-325.864232063294
 21
-58.3803863525391
 31
0.0
  0
LINE
  5
    B4
  8
0
  6
CONTINUOUS
 62
     7
 10
-325.864232063294
 20
-58.3803863525391
 30
0.0
 11
-328.8186553405
 21
-57.8594419225874
 31
0.0
  0
ENDBLK
  5
    B5
  8
0
  6
CONTINUOUS
 62
     7
  0
BLOCK
  5
    B6
  8
0
  6
CONTINUOUS
 62
     7
  2
*UDIM2425
 70
    65
 10
0.0
 20
0.0
 30
0.0
  3
*UDIM2425
  0
TEXT
  5
    B7
  8
0
  6
CONTINUOUS
 62
     7
 10
-371.964238812886
 20
-57.380386346496
 30
0.0
 40
3.00000002980232
  1
156,5
 50
359.999999948034
 41
0.933333333333333
 72
     1
 11
-365.264238744974
 21
-55.8803863376379
 31
0.0
 73
     2
  0
LINE
  5
    B8
  8
0
  6
CONTINUOUS
 62
     7
 10
-325.864232063294
 20
-58.3803863525391
 30
0.0
 11
-404.114250183106
 21
-58.3803863525391
 31
0.0
  0
LINE
  5
    B9
  8
0
  6
CONTINUOUS
 62
     7
 10
-328.8186553405
 20
-58.9013307824907
 30
0.0
 11
-325.864232063294
 21
-58.3803863525391
 31
0.0
  0
LINE
  5
    BA
  8
0
  6
CONTINUOUS
 62
     7
 10
-325.864232063294
 20
-58.3803863525391
 30
0.0
 11
-328.8186553405
 21
-57.8594419225874
 31
0.0
  0
LINE
  5
    BB
  8
0
  6
CONTINUOUS
 62
     7
 10
-401.159826905899
 20
-57.8594419225874
 30
0.0
 11
-404.114250183106
 21
-58.3803863525391
 31
0.0
  0
LINE
  5
    BC
  8
0
  6
CONTINUOUS
 62
     7
 10
-404.114250183106
 20
-58.3803863525391
 30
0.0
 11
-401.159826905899
 21
-58.9013307824907
 31
0.0
  0
ENDBLK
  5
    BD
  8
0
  6
CONTINUOUS
 62
     7
  0
BLOCK
  5
    BE
  8
0
  6
CONTINUOUS
 62
     7
  2
*UDIM2426
 70
    65
 10
0.0
 20
0.0
 30
0.0
  3
*UDIM2426
  0
TEXT
  5
    BF
  8
0
  6
CONTINUOUS
 62
     7
 10
-413.580711410277
 20
-63.0031661977383
 30
0.0
 40
3.00000002980232
  1
3
 50
359.999999948034
 41
0.933333333333334
 72
     1
 11
-412.480711397997
 21
-61.5031661838293
 31
0.0
 73
     2
  0
LINE
  5
    C0
  8
0
  6
CONTINUOUS
 62
     7
 10
-404.114252792768
 20
-59.8264436196043
 30
0.0
 11
-404.114268911927
 21
-66.0031661987237
 31
0.0
  0
LINE
  5
    C1
  8
0
  6
CONTINUOUS
 62
     7
 10
-405.614250497022
 20
-59.8264436196076
 30
0.0
 11
-405.614252435997
 21
-66.0031661987304
 31
0.0
  0
LINE
  5
    C2
  8
0
  6
CONTINUOUS
 62
     7
 10
-404.114263692603
 20
-64.0031661987305
 30
0.0
 11
-413.580711408924
 21
-64.0031661987305
 31
0.0
  0
LINE
  5
    C3
  8
0
  6
CONTINUOUS
 62
     7
 10
-401.159840415396
 20
-63.4822217687788
 30
0.0
 11
-404.114263692603
 21
-64.0031661987305
 31
0.0
  0
LINE
  5
    C4
  8
0
  6
CONTINUOUS
 62
     7
 10
-404.114263692603
 20
-64.0031661987305
 30
0.0
 11
-401.159840415396
 21
-64.5241106286821
 31
0.0
  0
LINE
  5
    C5
  8
0
  6
CONTINUOUS
 62
     7
 10
-408.568675085371
 20
-64.5241106286821
 30
0.0
 11
-405.614251808164
 21
-64.0031661987305
 31
0.0
  0
LINE
  5
    C6
  8
0
  6
CONTINUOUS
 62
     7
 10
-405.614251808164
 20
-64.0031661987305
 30
0.0
 11
-408.568675085371
 21
-63.4822217687788
 31
0.0
  0
ENDBLK
  5
    C7
  8
0
  6
CONTINUOUS
 62
     7
  0
BLOCK
  5
    C8
  8
0
  6
CONTINUOUS
 62
     7
  2
*UDIM2427
 70
    65
 10
0.0
 20
0.0
 30
0.0
  3
*UDIM2427
  0
TEXT
  5
    C9
  8
0
  6
CONTINUOUS
 62
     7
 10
-464.078735355095
 20
12.357127334309
 30
0.0
 40
3.00000002980232
  1
218
 50
89.9999999480344
 41
0.933333333333333
 72
     1
 11
-465.578735366464
 21
16.2571273744106
 31
0.0
 73
     2
  0
LINE
  5
    CA
  8
0
  6
CONTINUOUS
 62
     7
 10
-458.590491500816
 20
-37.9678649902344
 30
0.0
 11
-465.078735351563
 21
-37.9678649902344
 31
0.0
  0
LINE
  5
    CB
  8
0
  6
CONTINUOUS
 62
     7
 10
-458.210796186306
 20
71.0321197509766
 30
0.0
 11
-465.078735351563
 21
71.0321197509766
 31
0.0
  0
LINE
  5
    CC
  8
0
  6
CONTINUOUS
 62
     7
 10
-463.078735351563
 20
-37.9678649902344
 30
0.0
 11
-463.078735351563
 21
71.0321197509766
 31
0.0
  0
LINE
  5
    CD
  8
0
  6
CONTINUOUS
 62
     7
 10
-463.599679781514
 20
-35.0134417130274
 30
0.0
 11
-463.078735351563
 21
-37.9678649902344
 31
0.0
  0
LINE
  5
    CE
  8
0
  6
CONTINUOUS
 62
     7
 10
-463.078735351563
 20
-37.9678649902344
 30
0.0
 11
-462.557790921611
 21
-35.0134417130274
 31
0.0
  0
LINE
  5
    CF
  8
0
  6
CONTINUOUS
 62
     7
 10
-462.557790921611
 20
68.0776964737696
 30
0.0
 11
-463.078735351563
 21
71.0321197509766
 31
0.0
  0
LINE
  5
    D0
  8
0
  6
CONTINUOUS
 62
     7
 10
-463.078735351563
 20
71.0321197509766
 30
0.0
 11
-463.599679781514
 21
68.0776964737696
 31
0.0
  0
ENDBLK
  5
    D1
  8
0
  6
CONTINUOUS
 62
     7
  0
BLOCK
  5
    D2
  8
0
  6
CONTINUOUS
 62
     7
  2
*UDIM2428
 70
    65
 10
0.0
 20
0.0
 30
0.0
  3
*UDIM2428
  0
TEXT
  5
    D3
  8
0
  6
CONTINUOUS
 62
     7
 10
-370.039227330512
 20
-51.5620326960674
 30
0.0
 40
3.00000002980232
  1
153
 50
359.999999948034
 41
0.933333333333333
 72
     1
 11
-366.139227290416
 21
-50.0620326846838
 31
0.0
 73
     2
  0
LINE
  5
    D4
  8
0
  6
CONTINUOUS
 62
     7
 10
-327.614235238233
 20
-9.8428402710137
 30
0.0
 11
-327.614249276324
 21
-54.5620326995849
 31
0.0
  0
LINE
  5
    D5
  8
0
  6
CONTINUOUS
 62
     7
 10
-327.614248648491
 20
-52.562032699585
 30
0.0
 11
-404.114260101042
 21
-52.562032699585
 31
0.0
  0
LINE
  5
    D6
  8
0
  6
CONTINUOUS
 62
     7
 10
-330.568671925698
 20
-53.0829771295366
 30
0.0
 11
-327.614248648491
 21
-52.562032699585
 31
0.0
  0
LINE
  5
    D7
  8
0
  6
CONTINUOUS
 62
     7
 10
-327.614248648491
 20
-52.562032699585
 30
0.0
 11
-330.568671925698
 21
-52.0410882696333
 31
0.0
  0
LINE
  5
    D8
  8
0
  6
CONTINUOUS
 62
     7
 10
-401.159836823835
 20
-52.0410882696333
 30
0.0
 11
-404.114260101042
 21
-52.562032699585
 31
0.0
  0
LINE
  5
    D9
  8
0
  6
CONTINUOUS
 62
     7
 10
-404.114260101042
 20
-52.562032699585
 30
0.0
 11
-401.159836823835
 21
-53.0829771295366
 31
0.0
  0
ENDBLK
  5
    DA
  8
0
  6
CONTINUOUS
 62
     7
  0
BLOCK
  5
    DB
  8
0
  6
CONTINUOUS
 62
     7
  2
*UDIM2429
 70
    65
 10
0.0
 20
0.0
 30
0.0
  3
*UDIM2429
  0
TEXT
  5
    DC
  8
0
  6
CONTINUOUS
 62
     7
 10
-364.953218147628
 20
-63.0031700073847
 30
0.0
 40
3.00000002980232
  1
184,5
 50
359.999999948034
 41
0.933333333333333
 72
     1
 11
-358.253218079716
 21
-61.5031699985266
 31
0.0
 73
     2
  0
LINE
  5
    DD
  8
0
  6
CONTINUOUS
 62
     7
 10
-311.842194022413
 20
11.2821597289863
 30
0.0
 11
-311.84222517677
 21
-66.0031700134276
 31
0.0
  0
LINE
  5
    DE
  8
0
  6
CONTINUOUS
 62
     7
 10
-404.114252792766
 20
-59.8264436196043
 30
0.0
 11
-404.114268911925
 21
-66.0031700134209
 31
0.0
  0
LINE
  5
    DF
  8
0
  6
CONTINUOUS
 62
     7
 10
-311.842224370554
 20
-64.0031700134277
 30
0.0
 11
-404.114263692604
 21
-64.0031700134277
 31
0.0
  0
LINE
  5
    E0
  8
0
  6
CONTINUOUS
 62
     7
 10
-314.796647647761
 20
-64.5241144433794
 30
0.0
 11
-311.842224370554
 21
-64.0031700134277
 31
0.0
  0
LINE
  5
    E1
  8
0
  6
CONTINUOUS
 62
     7
 10
-311.842224370554
 20
-64.0031700134277
 30
0.0
 11
-314.796647647761
 21
-63.4822255834761
 31
0.0
  0
LINE
  5
    E2
  8
0
  6
CONTINUOUS
 62
     7
 10
-401.159840415397
 20
-63.4822255834761
 30
0.0
 11
-404.114263692604
 21
-64.0031700134277
 31
0.0
  0
LINE
  5
    E3
  8
0
  6
CONTINUOUS
 62
     7
 10
-404.114263692604
 20
-64.0031700134277
 30
0.0
 11
-401.159840415397
 21
-64.5241144433794
 31
0.0
  0
ENDBLK
  5
    E4
  8
0
  6
CONTINUOUS
 62
     7
  0
BLOCK
  5
    E5
  8
0
  6
CONTINUOUS
 62
     7
  2
*UDIM2430
 70
    65
 10
0.0
 20
0.0
 30
0.0
  3
*UDIM2430
  0
TEXT
  5
    E6
  8
0
  6
CONTINUOUS
 62
     7
 10
-295.558361056999
 20
13.232150235588
 30
0.0
 40
3.00000002980232
  1
105
 50
89.9999999480344
 41
0.933333333333333
 72
     1
 11
-297.058361068368
 21
17.1321502756896
 31
0.0
 73
     2
  0
LINE
  5
    E7
  8
0
  6
CONTINUOUS
 62
     7
 10
-324.864232063294
 20
-8.84284027101375
 30
0.0
 11
-292.558361053467
 21
-8.84284027101375
 31
0.0
  0
LINE
  5
    E8
  8
0
  6
CONTINUOUS
 62
     7
 10
-324.864232063294
 20
43.6571444701972
 30
0.0
 11
-292.558361053467
 21
43.6571444701972
 31
0.0
  0
LINE
  5
    E9
  8
0
  6
CONTINUOUS
 62
     7
 10
-294.558361053467
 20
-8.84284027101375
 30
0.0
 11
-294.558361053467
 21
43.6571444701972
 31
0.0
  0
LINE
  5
    EA
  8
0
  6
CONTINUOUS
 62
     7
 10
-295.079305483418
 20
-5.88841699380678
 30
0.0
 11
-294.558361053467
 21
-8.84284027101375
 31
0.0
  0
LINE
  5
    EB
  8
0
  6
CONTINUOUS
 62
     7
 10
-294.558361053467
 20
-8.84284027101375
 30
0.0
 11
-294.037416623515
 21
-5.88841699380678
 31
0.0
  0
LINE
  5
    EC
  8
0
  6
CONTINUOUS
 62
     7
 10
-294.037416623515
 20
40.7027211929902
 30
0.0
 11
-294.558361053467
 21
43.6571444701972
 31
0.0
  0
LINE
  5
    ED
  8
0
  6
CONTINUOUS
 62
     7
 10
-294.558361053467
 20
43.6571444701972
 30
0.0
 11
-295.079305483418
 21
40.7027211929902
 31
0.0
  0
ENDBLK
  5
    EE
  8
0
  6
CONTINUOUS
 62
     7
  0
BLOCK
  5
    EF
  8
0
  6
CONTINUOUS
 62
     0
  2
ON-OFF
 70
    64
 10
0.0
 20
0.0
 30
0.0
  3
ON-OFF
  0
LINE
  5
    F0
  8
0
  6
CONTINUOUS
 62
     0
 10
5.09999999999999
 20
-29.65
 30
0.0
 11
5.54999999999999
 21
-29.65
 31
0.0
  0
LINE
  5
    F1
  8
0
  6
CONTINUOUS
 62
     0
 10
3.79999999999999
 20
-37.35
 30
0.0
 11
4.59999999999999
 21
-37.35
 31
0.0
  0
LINE
  5
    F2
  8
0
  6
CONTINUOUS
 62
     0
 10
-2.6
 20
-34.75
 30
0.0
 11
-2.6
 21
-34.25
 31
0.0
  0
LINE
  5
    F3
  8
0
  6
CONTINUOUS
 62
     0
 10
2.6
 20
-34.75
 30
0.0
 11
2.6
 21
-34.25
 31
0.0
  0
ARC
  5
    F4
  8
0
  6
CONTINUOUS
 62
     0
 10
-3.5527136788005E-15
 20
-34.25
 30
0.0
 40
2.6
 50
0.0
 51
180.0
  0
ARC
  5
    F5
  8
0
  6
CONTINUOUS
 62
     0
 10
-3.5527136788005E-15
 20
-34.75
 30
0.0
 40
2.6
 50
180.0
 51
360.0
  0
ARC
  5
    F6
  8
0
  6
CONTINUOUS
 62
     0
 10
-3.5527136788005E-15
 20
-34.25
 30
0.0
 40
1.8
 50
0.0
 51
180.0
  0
ARC
  5
    F7
  8
0
  6
CONTINUOUS
 62
     0
 10
-3.5527136788005E-15
 20
-34.75
 30
0.0
 40
1.8
 50
180.0
 51
360.0
  0
LINE
  5
    F8
  8
0
  6
CONTINUOUS
 62
     0
 10
-1.8
 20
-34.75
 30
0.0
 11
-1.8
 21
-34.25
 31
0.0
  0
LINE
  5
    F9
  8
0
  6
CONTINUOUS
 62
     0
 10
1.8
 20
-34.75
 30
0.0
 11
1.8
 21
-34.25
 31
0.0
  0
LINE
  5
    FA
  8
0
  6
CONTINUOUS
 62
     0
 10
2.84999999999999
 20
-32.85
 30
0.0
 11
2.84999999999999
 21
-32.05
 31
0.0
  0
LINE
  5
    FB
  8
0
  6
CONTINUOUS
 62
     0
 10
2.84999999999999
 20
-32.85
 30
0.0
 11
3.79999999999999
 21
-32.85
 31
0.0
  0
LINE
  5
    FC
  8
0
  6
CONTINUOUS
 62
     0
 10
5.54999999999999
 20
-32.85
 30
0.0
 11
5.54999999999999
 21
-32.05
 31
0.0
  0
LINE
  5
    FD
  8
0
  6
CONTINUOUS
 62
     0
 10
2.84999999999999
 20
-32.05
 30
0.0
 11
3.79999999999999
 21
-32.05
 31
0.0
  0
LINE
  5
    FE
  8
0
  6
CONTINUOUS
 62
     0
 10
3.79999999999999
 20
-37.35
 30
0.0
 11
3.79999999999999
 21
-32.85
 31
0.0
  0
LINE
  5
    FF
  8
0
  6
CONTINUOUS
 62
     0
 10
4.59999999999999
 20
-37.35
 30
0.0
 11
4.59999999999999
 21
-32.85
 31
0.0
  0
LINE
  5
   100
  8
0
  6
CONTINUOUS
 62
     0
 10
4.59999999999999
 20
-32.85
 30
0.0
 11
5.54999999999999
 21
-32.85
 31
0.0
  0
LINE
  5
   101
  8
0
  6
CONTINUOUS
 62
     0
 10
4.59999999999999
 20
-32.05
 30
0.0
 11
5.54999999999999
 21
-32.05
 31
0.0
  0
LINE
  5
   102
  8
0
  6
CONTINUOUS
 62
     0
 10
3.79999999999999
 20
-32.05
 30
0.0
 11
3.79999999999999
 21
-30.95
 31
0.0
  0
LINE
  5
   103
  8
0
  6
CONTINUOUS
 62
     0
 10
4.59999999999999
 20
-32.05
 30
0.0
 11
4.59999999999999
 21
-30.95
 31
0.0
  0
ARC
  5
   104
  8
0
  6
CONTINUOUS
 62
     0
 10
5.09999999999999
 20
-30.95
 30
0.0
 40
1.3
 50
89.9999999999999
 51
180.0
  0
ARC
  5
   105
  8
0
  6
CONTINUOUS
 62
     0
 10
5.09999999999999
 20
-30.95
 30
0.0
 40
0.5
 50
89.9999999999999
 51
180.0
  0
LINE
  5
   106
  8
0
  6
CONTINUOUS
 62
     0
 10
5.54999999999999
 20
-30.45
 30
0.0
 11
5.54999999999999
 21
-29.65
 31
0.0
  0
LINE
  5
   107
  8
0
  6
CONTINUOUS
 62
     0
 10
5.09999999999999
 20
-30.45
 30
0.0
 11
5.54999999999999
 21
-30.45
 31
0.0
  0
LINE
  5
   108
  8
0
  6
CONTINUOUS
 62
     0
 10
8.29999999999998
 20
-29.65
 30
0.0
 11
8.74999999999999
 21
-29.65
 31
0.0
  0
LINE
  5
   109
  8
0
  6
CONTINUOUS
 62
     0
 10
6.99999999999999
 20
-37.35
 30
0.0
 11
7.79999999999999
 21
-37.35
 31
0.0
  0
LINE
  5
   10A
  8
0
  6
CONTINUOUS
 62
     0
 10
6.04999999999999
 20
-32.85
 30
0.0
 11
6.04999999999999
 21
-32.05
 31
0.0
  0
LINE
  5
   10B
  8
0
  6
CONTINUOUS
 62
     0
 10
6.04999999999999
 20
-32.85
 30
0.0
 11
6.99999999999999
 21
-32.85
 31
0.0
  0
LINE
  5
   10C
  8
0
  6
CONTINUOUS
 62
     0
 10
8.74999999999999
 20
-32.85
 30
0.0
 11
8.74999999999999
 21
-32.05
 31
0.0
  0
LINE
  5
   10D
  8
0
  6
CONTINUOUS
 62
     0
 10
6.04999999999999
 20
-32.05
 30
0.0
 11
6.99999999999999
 21
-32.05
 31
0.0
  0
LINE
  5
   10E
  8
0
  6
CONTINUOUS
 62
     0
 10
6.99999999999999
 20
-37.35
 30
0.0
 11
6.99999999999999
 21
-32.85
 31
0.0
  0
LINE
  5
   10F
  8
0
  6
CONTINUOUS
 62
     0
 10
7.79999999999999
 20
-37.35
 30
0.0
 11
7.79999999999999
 21
-32.85
 31
0.0
  0
LINE
  5
   110
  8
0
  6
CONTINUOUS
 62
     0
 10
7.79999999999999
 20
-32.85
 30
0.0
 11
8.74999999999999
 21
-32.85
 31
0.0
  0
LINE
  5
   111
  8
0
  6
CONTINUOUS
 62
     0
 10
7.79999999999999
 20
-32.05
 30
0.0
 11
8.74999999999999
 21
-32.05
 31
0.0
  0
LINE
  5
   112
  8
0
  6
CONTINUOUS
 62
     0
 10
6.99999999999999
 20
-32.05
 30
0.0
 11
6.99999999999999
 21
-30.95
 31
0.0
  0
LINE
  5
   113
  8
0
  6
CONTINUOUS
 62
     0
 10
7.79999999999999
 20
-32.05
 30
0.0
 11
7.79999999999999
 21
-30.95
 31
0.0
  0
ARC
  5
   114
  8
0
  6
CONTINUOUS
 62
     0
 10
8.29999999999998
 20
-30.95
 30
0.0
 40
1.3
 50
89.9999999999999
 51
180.0
  0
ARC
  5
   115
  8
0
  6
CONTINUOUS
 62
     0
 10
8.29999999999998
 20
-30.95
 30
0.0
 40
0.5
 50
89.9999999999999
 51
180.0
  0
LINE
  5
   116
  8
0
  6
CONTINUOUS
 62
     0
 10
8.74999999999999
 20
-30.45
 30
0.0
 11
8.74999999999999
 21
-29.65
 31
0.0
  0
LINE
  5
   117
  8
0
  6
CONTINUOUS
 62
     0
 10
8.29999999999998
 20
-30.45
 30
0.0
 11
8.74999999999999
 21
-30.45
 31
0.0
  0
LINE
  5
   118
  8
0
  6
CONTINUOUS
 62
     0
 10
3.4
 20
-2.85000000000002
 30
0.0
 11
4.19999999999999
 21
-2.85000000000002
 31
0.0
  0
ARC
  5
   119
  8
0
  6
CONTINUOUS
 62
     0
 10
-3.5527136788005E-15
 20
0.249999999999979
 30
0.0
 40
2.6
 50
0.0
 51
180.0
  0
ARC
  5
   11A
  8
0
  6
CONTINUOUS
 62
     0
 10
-3.5527136788005E-15
 20
0.249999999999979
 30
0.0
 40
1.8
 50
0.0
 51
180.0
  0
ARC
  5
   11B
  8
0
  6
CONTINUOUS
 62
     0
 10
-3.5527136788005E-15
 20
-0.250000000000018
 30
0.0
 40
2.6
 50
180.0
 51
360.0
  0
ARC
  5
   11C
  8
0
  6
CONTINUOUS
 62
     0
 10
-3.5527136788005E-15
 20
-0.250000000000018
 30
0.0
 40
1.8
 50
180.0
 51
360.0
  0
LINE
  5
   11D
  8
0
  6
CONTINUOUS
 62
     0
 10
1.8
 20
-0.250000000000018
 30
0.0
 11
1.8
 21
0.249999999999979
 31
0.0
  0
LINE
  5
   11E
  8
0
  6
CONTINUOUS
 62
     0
 10
2.6
 20
-0.250000000000018
 30
0.0
 11
2.6
 21
0.249999999999979
 31
0.0
  0
LINE
  5
   11F
  8
0
  6
CONTINUOUS
 62
     0
 10
-1.8
 20
-0.250000000000032
 30
0.0
 11
-1.8
 21
0.249999999999964
 31
0.0
  0
LINE
  5
   120
  8
0
  6
CONTINUOUS
 62
     0
 10
-2.6
 20
-0.250000000000018
 30
0.0
 11
-2.6
 21
0.249999999999979
 31
0.0
  0
LINE
  5
   121
  8
0
  6
CONTINUOUS
 62
     0
 10
3.4
 20
-2.85000000000002
 30
0.0
 11
3.4
 21
2.84999999999998
 31
0.0
  0
LINE
  5
   122
  8
0
  6
CONTINUOUS
 62
     0
 10
4.19999999999999
 20
-2.85000000000002
 30
0.0
 11
4.19999999999999
 21
0.649999999999981
 31
0.0
  0
LINE
  5
   123
  8
0
  6
CONTINUOUS
 62
     0
 10
6.99999999999999
 20
-2.85000000000002
 30
0.0
 11
6.99999999999999
 21
0.649999999999981
 31
0.0
  0
LINE
  5
   124
  8
0
  6
CONTINUOUS
 62
     0
 10
7.79999999999999
 20
-2.85000000000002
 30
0.0
 11
7.79999999999999
 21
0.84999999999998
 31
0.0
  0
LINE
  5
   125
  8
0
  6
CONTINUOUS
 62
     0
 10
3.4
 20
2.84999999999998
 30
0.0
 11
4.19999999999999
 21
2.84999999999998
 31
0.0
  0
ARC
  5
   126
  8
0
  6
CONTINUOUS
 62
     0
 10
5.59999999999999
 20
0.649999999999981
 30
0.0
 40
1.4
 50
0.0
 51
180.0
  0
LINE
  5
   127
  8
0
  6
CONTINUOUS
 62
     0
 10
4.19999999999999
 20
2.05
 30
0.0
 11
4.19999999999999
 21
2.84999999999998
 31
0.0
  0
ARC
  5
   128
  8
0
  6
CONTINUOUS
 62
     0
 10
5.79999999999999
 20
0.84999999999998
 30
0.0
 40
2.0
 50
0.0
 51
143.130102354155
  0
LINE
  5
   129
  8
0
  6
CONTINUOUS
 62
     0
 10
6.99999999999999
 20
-2.85000000000002
 30
0.0
 11
7.79999999999999
 21
-2.85000000000002
 31
0.0
  0
ENDBLK
  5
   12A
  8
0
  6
CONTINUOUS
 62
     0
  0
BLOCK
  5
   12B
  8
0
  6
CONTINUOUS
 62
     7
  2
*UDIM2431
 70
    65
 10
0.0
 20
0.0
 30
0.0
  3
*UDIM2431
  0
TEXT
  5
   12C
  8
0
  6
CONTINUOUS
 62
     7
 10
-478.995712283806
 20
13.2321349637016
 30
0.0
 40
3.00000002980232
  1
161
 50
89.9999999480344
 41
0.933333333333333
 72
     1
 11
-480.495712295175
 21
17.1321350038032
 31
0.0
 73
     2
  0
LINE
  5
   12D
  8
0
  6
CONTINUOUS
 62
     7
 10
-488.242495846586
 20
-22.8428668975849
 30
0.0
 11
-475.995712280273
 21
-22.8428668975849
 31
0.0
  0
LINE
  5
   12E
  8
0
  6
CONTINUOUS
 62
     7
 10
-488.242495846586
 20
57.6571311950664
 30
0.0
 11
-475.995712280273
 21
57.6571311950664
 31
0.0
  0
LINE
  5
   12F
  8
0
  6
CONTINUOUS
 62
     7
 10
-477.995712280273
 20
-22.8428668975849
 30
0.0
 11
-477.995712280273
 21
57.6571311950664
 31
0.0
  0
LINE
  5
   130
  8
0
  6
CONTINUOUS
 62
     7
 10
-478.516656710225
 20
-19.888443620378
 30
0.0
 11
-477.995712280273
 21
-22.8428668975849
 31
0.0
  0
LINE
  5
   131
  8
0
  6
CONTINUOUS
 62
     7
 10
-477.995712280273
 20
-22.8428668975849
 30
0.0
 11
-477.474767850322
 21
-19.888443620378
 31
0.0
  0
LINE
  5
   132
  8
0
  6
CONTINUOUS
 62
     7
 10
-477.474767850322
 20
54.7027079178595
 30
0.0
 11
-477.995712280273
 21
57.6571311950664
 31
0.0
  0
LINE
  5
   133
  8
0
  6
CONTINUOUS
 62
     7
 10
-477.995712280273
 20
57.6571311950664
 30
0.0
 11
-478.516656710225
 21
54.7027079178595
 31
0.0
  0
ENDBLK
  5
   134
  8
0
  6
CONTINUOUS
 62
     7
  0
BLOCK
  5
   135
  8
0
  6
CONTINUOUS
 62
     7
  2
*UDIM2432
 70
    65
 10
0.0
 20
0.0
 30
0.0
  3
*UDIM2432
  0
TEXT
  5
   136
  8
0
  6
CONTINUOUS
 62
     7
 10
-522.042492703794
 20
-66.001186367332
 30
0.0
 40
3.00000002980232
  1
117
 50
359.999999948034
 41
0.933333333333333
 72
     1
 11
-518.142492663698
 21
-64.5011863559484
 31
0.0
 73
     2
  0
LINE
  5
   137
  8
0
  6
CONTINUOUS
 62
     7
 10
-488.617495846586
 20
-23.2178668975849
 30
0.0
 11
-488.617495846586
 21
-69.0011863708496
 31
0.0
  0
LINE
  5
   138
  8
0
  6
CONTINUOUS
 62
     7
 10
-547.117495846586
 20
-23.2178668975849
 30
0.0
 11
-547.117495846586
 21
-69.0011863708496
 31
0.0
  0
LINE
  5
   139
  8
0
  6
CONTINUOUS
 62
     7
 10
-488.617495846586
 20
-67.0011863708496
 30
0.0
 11
-547.117495846586
 21
-67.0011863708496
 31
0.0
  0
LINE
  5
   13A
  8
0
  6
CONTINUOUS
 62
     7
 10
-491.571919123793
 20
-67.5221308008013
 30
0.0
 11
-488.617495846586
 21
-67.0011863708496
 31
0.0
  0
LINE
  5
   13B
  8
0
  6
CONTINUOUS
 62
     7
 10
-488.617495846586
 20
-67.0011863708496
 30
0.0
 11
-491.571919123793
 21
-66.4802419408979
 31
0.0
  0
LINE
  5
   13C
  8
0
  6
CONTINUOUS
 62
     7
 10
-544.163072569379
 20
-66.4802419408979
 30
0.0
 11
-547.117495846586
 21
-67.0011863708496
 31
0.0
  0
LINE
  5
   13D
  8
0
  6
CONTINUOUS
 62
     7
 10
-547.117495846586
 20
-67.0011863708496
 30
0.0
 11
-544.163072569379
 21
-67.5221308008013
 31
0.0
  0
ENDBLK
  5
   13E
  8
0
  6
CONTINUOUS
 62
     7
  0
BLOCK
  5
   13F
  8
0
  6
CONTINUOUS
 62
     7
  2
*UDIM2433
 70
    65
 10
0.0
 20
0.0
 30
0.0
  3
*UDIM2433
  0
TEXT
  5
   140
  8
0
  6
CONTINUOUS
 62
     7
 10
-569.715566165631
 20
40.9696196631911
 30
0.0
 40
3.00000002980232
  1
127,75
 50
89.9999999480344
 41
0.933333333333333
 72
     1
 11
-571.215566173196
 21
49.069619745016
 31
0.0
 73
     2
  0
LINE
  5
   141
  8
0
  6
CONTINUOUS
 62
     7
 10
-561.992472020087
 20
81.2820892333982
 30
0.0
 11
-570.715566158295
 21
81.2820892333982
 31
0.0
  0
LINE
  5
   142
  8
0
  6
CONTINUOUS
 62
     7
 10
-568.715566158295
 20
17.4071502685547
 30
0.0
 11
-568.715566158295
 21
81.2820892333982
 31
0.0
  0
LINE
  5
   143
  8
0
  6
CONTINUOUS
 62
     7
 10
-569.236510588246
 20
20.3615735457616
 30
0.0
 11
-568.715566158295
 21
17.4071502685547
 31
0.0
  0
LINE
  5
   144
  8
0
  6
CONTINUOUS
 62
     7
 10
-568.715566158295
 20
17.4071502685547
 30
0.0
 11
-568.194621728343
 21
20.3615735457616
 31
0.0
  0
LINE
  5
   145
  8
0
  6
CONTINUOUS
 62
     7
 10
-568.194621728343
 20
78.3276659561912
 30
0.0
 11
-568.715566158295
 21
81.2820892333982
 31
0.0
  0
LINE
  5
   146
  8
0
  6
CONTINUOUS
 62
     7
 10
-568.715566158295
 20
81.2820892333982
 30
0.0
 11
-569.236510588246
 21
78.3276659561912
 31
0.0
  0
ENDBLK
  5
   147
  8
0
  6
CONTINUOUS
 62
     7
  0
BLOCK
  5
   148
  8
0
  6
CONTINUOUS
 62
     7
  2
*UDIM2434
 70
    65
 10
0.0
 20
0.0
 30
0.0
  3
*UDIM2434
  0
TEXT
  5
   149
  8
0
  6
CONTINUOUS
 62
     7
 10
-522.042458393008
 20
-57.8628349269023
 30
0.0
 40
3.00000002980232
  1
105
 50
359.999999948034
 41
0.933333333333333
 72
     1
 11
-518.142458352912
 21
-56.3628349155188
 31
0.0
 73
     2
  0
LINE
  5
   14A
  8
0
  6
CONTINUOUS
 62
     7
 10
-491.617458525772
 20
23.1571426391602
 30
0.0
 11
-491.617458525772
 21
-60.8628349304199
 31
0.0
  0
LINE
  5
   14B
  8
0
  6
CONTINUOUS
 62
     7
 10
-544.117450896364
 20
23.1571426391602
 30
0.0
 11
-544.117450896364
 21
-60.8628349304199
 31
0.0
  0
LINE
  5
   14C
  8
0
  6
CONTINUOUS
 62
     7
 10
-491.617458525772
 20
-58.8628349304199
 30
0.0
 11
-544.117450896364
 21
-58.8628349304199
 31
0.0
  0
LINE
  5
   14D
  8
0
  6
CONTINUOUS
 62
     7
 10
-494.57188180298
 20
-59.3837793603716
 30
0.0
 11
-491.617458525772
 21
-58.8628349304199
 31
0.0
  0
LINE
  5
   14E
  8
0
  6
CONTINUOUS
 62
     7
 10
-491.617458525772
 20
-58.8628349304199
 30
0.0
 11
-494.57188180298
 21
-58.3418905004683
 31
0.0
  0
LINE
  5
   14F
  8
0
  6
CONTINUOUS
 62
     7
 10
-541.163027619157
 20
-58.3418905004683
 30
0.0
 11
-544.117450896364
 21
-58.8628349304199
 31
0.0
  0
LINE
  5
   150
  8
0
  6
CONTINUOUS
 62
     7
 10
-544.117450896364
 20
-58.8628349304199
 30
0.0
 11
-541.163027619157
 21
-59.3837793603716
 31
0.0
  0
ENDBLK
  5
   151
  8
0
  6
CONTINUOUS
 62
     7
  0
BLOCK
  5
   152
  8
0
  6
CONTINUOUS
 62
     7
  2
*UDIM2435
 70
    65
 10
0.0
 20
0.0
 30
0.0
  3
*UDIM2435
  0
TEXT
  5
   153
  8
0
  6
CONTINUOUS
 62
     7
 10
-578.167341235832
 20
12.3571197049145
 30
0.0
 40
3.00000002980232
  1
259
 50
89.9999999480344
 41
0.933333333333333
 72
     1
 11
-579.667341247201
 21
16.2571197450161
 31
0.0
 73
     2
  0
LINE
  5
   154
  8
0
  6
CONTINUOUS
 62
     7
 10
-561.992472020087
 20
-48.2178497314451
 30
0.0
 11
-579.1673412323
 21
-48.2178497314451
 31
0.0
  0
LINE
  5
   155
  8
0
  6
CONTINUOUS
 62
     7
 10
-561.992472020087
 20
81.2820892333982
 30
0.0
 11
-579.1673412323
 21
81.2820892333982
 31
0.0
  0
LINE
  5
   156
  8
0
  6
CONTINUOUS
 62
     7
 10
-577.1673412323
 20
-48.2178497314451
 30
0.0
 11
-577.1673412323
 21
81.2820892333982
 31
0.0
  0
LINE
  5
   157
  8
0
  6
CONTINUOUS
 62
     7
 10
-577.688285662252
 20
-45.2634264542381
 30
0.0
 11
-577.1673412323
 21
-48.2178497314451
 31
0.0
  0
LINE
  5
   158
  8
0
  6
CONTINUOUS
 62
     7
 10
-577.1673412323
 20
-48.2178497314451
 30
0.0
 11
-576.646396802348
 21
-45.2634264542381
 31
0.0
  0
LINE
  5
   159
  8
0
  6
CONTINUOUS
 62
     7
 10
-576.646396802348
 20
78.3276659561912
 30
0.0
 11
-577.1673412323
 21
81.2820892333982
 31
0.0
  0
LINE
  5
   15A
  8
0
  6
CONTINUOUS
 62
     7
 10
-577.1673412323
 20
81.2820892333982
 30
0.0
 11
-577.688285662252
 21
78.3276659561912
 31
0.0
  0
ENDBLK
  5
   15B
  8
0
  6
CONTINUOUS
 62
     7
  0
BLOCK
  5
   15C
  8
0
  6
CONTINUOUS
 62
     7
  2
*UDIM2436
 70
    65
 10
0.0
 20
0.0
 30
0.0
  3
*UDIM2436
  0
TEXT
  5
   15D
  8
0
  6
CONTINUOUS
 62
     7
 10
-530.792481281641
 20
91.1045150792012
 30
0.0
 40
3.00000002980232
  1
140
 50
359.999999948034
 41
0.933333333333333
 72
     1
 11
-526.892481241545
 21
92.6045150905848
 31
0.0
 73
     2
  0
LINE
  5
   15E
  8
0
  6
CONTINUOUS
 62
     7
 10
-491.61748110004
 20
79.6321258544921
 30
0.0
 11
-491.617477184751
 21
92.1045150756835
 31
0.0
  0
LINE
  5
   15F
  8
0
  6
CONTINUOUS
 62
     7
 10
-561.61745791497
 20
79.6321182250975
 30
0.0
 11
-561.617450296797
 21
92.1045150756832
 31
0.0
  0
LINE
  5
   160
  8
0
  6
CONTINUOUS
 62
     7
 10
-491.617477812584
 20
90.1045150756836
 30
0.0
 11
-561.617451518402
 21
90.1045150756836
 31
0.0
  0
LINE
  5
   161
  8
0
  6
CONTINUOUS
 62
     7
 10
-494.571901089791
 20
89.5835706457319
 30
0.0
 11
-491.617477812584
 21
90.1045150756836
 31
0.0
  0
LINE
  5
   162
  8
0
  6
CONTINUOUS
 62
     7
 10
-491.617477812584
 20
90.1045150756836
 30
0.0
 11
-494.571901089791
 21
90.6254595056353
 31
0.0
  0
LINE
  5
   163
  8
0
  6
CONTINUOUS
 62
     7
 10
-558.663028241195
 20
90.6254595056353
 30
0.0
 11
-561.617451518402
 21
90.1045150756836
 31
0.0
  0
LINE
  5
   164
  8
0
  6
CONTINUOUS
 62
     7
 10
-561.617451518402
 20
90.1045150756836
 30
0.0
 11
-558.663028241195
 21
89.5835706457319
 31
0.0
  0
ENDBLK
  5
   165
  8
0
  6
CONTINUOUS
 62
     7
  0
BLOCK
  5
   166
  8
0
  6
CONTINUOUS
 62
     7
  2
MOSTRINA
 70
    64
 10
0.0
 20
0.0
 30
0.0
  3
MOSTRINA
  0
LINE
  5
   167
  8
0
  6
CONTINUOUS
 62
     3
 10
173.338256835938
 20
30.7306251525879
 30
0.0
 11
173.338256835938
 21
189.230621337891
 31
0.0
  0
LINE
  5
   168
  8
0
  6
CONTINUOUS
 62
     3
 10
57.5882568359375
 20
29.4806251525879
 30
0.0
 11
172.088256835938
 21
29.4806251525879
 31
0.0
  0
LINE
  5
   169
  8
0
  6
CONTINUOUS
 62
     3
 10
56.3382568359375
 20
30.7306251525879
 30
0.0
 11
56.3382568359375
 21
189.230621337891
 31
0.0
  0
LINE
  5
   16A
  8
0
  6
CONTINUOUS
 62
     3
 10
57.5882568359375
 20
190.480621337891
 30
0.0
 11
172.088256835938
 21
190.480621337891
 31
0.0
  0
LINE
  5
   16B
  8
0
  6
CONTINUOUS
 62
     3
 10
167.838256835938
 20
56.9806251525879
 30
0.0
 11
167.838256835938
 21
162.980625152588
 31
0.0
  0
LINE
  5
   16C
  8
0
  6
CONTINUOUS
 62
     3
 10
61.8382568359375
 20
56.9806251525879
 30
0.0
 11
167.838256835938
 21
56.9806251525879
 31
0.0
  0
LINE
  5
   16D
  8
0
  6
CONTINUOUS
 62
     3
 10
61.8382568359375
 20
56.9806251525879
 30
0.0
 11
61.8382568359375
 21
162.980625152588
 31
0.0
  0
LINE
  5
   16E
  8
0
  6
CONTINUOUS
 62
     3
 10
61.8382568359375
 20
162.980621337891
 30
0.0
 11
167.838256835938
 21
162.980621337891
 31
0.0
  0
LINE
  5
   16F
  8
0
  6
CONTINUOUS
 62
     3
 10
168.838256835938
 20
48.4806251525879
 30
0.0
 11
168.838256835938
 21
49.4806251525879
 31
0.0
  0
LINE
  5
   170
  8
0
  6
CONTINUOUS
 62
     3
 10
61.8382568359375
 20
50.4806251525879
 30
0.0
 11
167.838256835938
 21
50.4806251525879
 31
0.0
  0
LINE
  5
   171
  8
0
  6
CONTINUOUS
 62
     3
 10
60.8382568359375
 20
48.4806251525879
 30
0.0
 11
60.8382568359375
 21
49.4806251525879
 31
0.0
  0
LINE
  5
   172
  8
0
  6
CONTINUOUS
 62
     3
 10
61.8382568359375
 20
49.4806251525879
 30
0.0
 11
167.838256835938
 21
49.4806251525879
 31
0.0
  0
LINE
  5
   173
  8
0
  6
CONTINUOUS
 62
     3
 10
60.8382568359375
 20
29.4806251525879
 30
0.0
 11
60.8382568359375
 21
48.4806251525879
 31
0.0
  0
LINE
  5
   174
  8
0
  6
CONTINUOUS
 62
     3
 10
60.8382568359375
 20
49.4806213378906
 30
0.0
 11
60.8382568359375
 21
190.480621337891
 31
0.0
  0
LINE
  5
   175
  8
0
  6
CONTINUOUS
 62
     3
 10
61.8382568359375
 20
29.4806251525879
 30
0.0
 11
61.8382568359375
 21
49.4806251525879
 31
0.0
  0
LINE
  5
   176
  8
0
  6
CONTINUOUS
 62
     3
 10
61.8382568359375
 20
162.980621337891
 30
0.0
 11
61.8382568359375
 21
169.480621337891
 31
0.0
  0
LINE
  5
   177
  8
0
  6
CONTINUOUS
 62
     3
 10
61.8382568359375
 20
50.4806251525879
 30
0.0
 11
61.8382568359375
 21
56.9806251525879
 31
0.0
  0
LINE
  5
   178
  8
0
  6
CONTINUOUS
 62
     3
 10
168.838256835938
 20
29.4806251525879
 30
0.0
 11
168.838256835938
 21
48.4806251525879
 31
0.0
  0
LINE
  5
   179
  8
0
  6
CONTINUOUS
 62
     3
 10
168.838256835938
 20
49.4806251525879
 30
0.0
 11
168.838256835938
 21
190.480621337891
 31
0.0
  0
LINE
  5
   17A
  8
0
  6
CONTINUOUS
 62
     3
 10
167.838256835938
 20
50.4806251525879
 30
0.0
 11
167.838256835938
 21
56.9806251525879
 31
0.0
  0
LINE
  5
   17B
  8
0
  6
CONTINUOUS
 62
     3
 10
167.838256835938
 20
162.980621337891
 30
0.0
 11
167.838256835938
 21
169.480621337891
 31
0.0
  0
LINE
  5
   17C
  8
0
  6
CONTINUOUS
 62
     3
 10
167.838256835938
 20
29.4806251525879
 30
0.0
 11
167.838256835938
 21
49.4806251525879
 31
0.0
  0
LINE
  5
   17D
  8
0
  6
CONTINUOUS
 62
     3
 10
60.8382568359375
 20
170.480621337891
 30
0.0
 11
168.838256835938
 21
170.480621337891
 31
0.0
  0
LINE
  5
   17E
  8
0
  6
CONTINUOUS
 62
     3
 10
61.8382568359375
 20
169.480621337891
 30
0.0
 11
167.838256835938
 21
169.480621337891
 31
0.0
  0
ARC
  5
   17F
  8
0
  6
CONTINUOUS
 62
     3
 10
57.5882568359375
 20
30.7306251525879
 30
0.0
 40
1.25
 50
180.0
 51
270.0
  0
ARC
  5
   180
  8
0
  6
CONTINUOUS
 62
     3
 10
172.088256835938
 20
30.7306251525879
 30
0.0
 40
1.25
 50
270.0
 51
360.0
  0
ARC
  5
   181
  8
0
  6
CONTINUOUS
 62
     3
 10
172.088256835938
 20
189.230621337891
 30
0.0
 40
1.25
 50
0.0
 51
90.0
  0
ARC
  5
   182
  8
0
  6
CONTINUOUS
 62
     3
 10
57.5882568359375
 20
189.230621337891
 30
0.0
 40
1.25
 50
90.0
 51
180.0
  0
LINE
  5
   183
  8
0
  6
DOT
 62
     3
 10
60.3382577409677
 20
179.7306252571
 30
0.0
 11
60.8382568359375
 21
179.7306252571
 31
0.0
  0
LINE
  5
   184
  8
0
  6
DOT
 62
     3
 10
60.3382577409676
 20
181.2306252571
 30
0.0
 11
60.8382568359375
 21
181.2306252571
 31
0.0
  0
LINE
  5
   185
  8
0
  6
CONTINUOUS
 62
     3
 10
168.338257745313
 20
179.730625257273
 30
0.0
 11
168.838256835938
 21
179.730625257273
 31
0.0
  0
LINE
  5
   186
  8
0
  6
CONTINUOUS
 62
     3
 10
168.338257745314
 20
181.230625257273
 30
0.0
 11
168.838256835938
 21
181.230625257273
 31
0.0
  0
ARC
  5
   187
  8
0
  6
DOT
 62
     3
 10
60.3382577401871
 20
180.480625257147
 30
0.0
 40
0.749999999345164
 50
90.0
 51
270.0
  0
ARC
  5
   188
  8
0
  6
CONTINUOUS
 62
     3
 10
61.338257740822
 20
180.480625256974
 30
0.0
 40
0.750000000009701
 50
270.0
 51
450.0
  0
LINE
  5
   189
  8
0
  6
CONTINUOUS
 62
     3
 10
60.8382568359375
 20
181.2306252571
 30
0.0
 11
61.3382577409688
 21
181.2306252571
 31
0.0
  0
LINE
  5
   18A
  8
0
  6
CONTINUOUS
 62
     3
 10
60.8382568359375
 20
179.7306252571
 30
0.0
 11
61.3382577409689
 21
179.7306252571
 31
0.0
  0
ARC
  5
   18B
  8
0
  6
CONTINUOUS
 62
     3
 10
168.338257745503
 20
180.480625256952
 30
0.0
 40
0.750000000048506
 50
90.0000000038822
 51
269.999999996024
  0
ARC
  5
   18C
  8
0
  6
DOT
 62
     3
 10
169.338257745421
 20
180.480625256965
 30
0.0
 40
0.750000000029104
 50
270.000000002449
 51
449.999999997486
  0
LINE
  5
   18D
  8
0
  6
DOT
 62
     3
 10
168.838256835938
 20
181.230625257273
 30
0.0
 11
169.338257745315
 21
181.230625257273
 31
0.0
  0
LINE
  5
   18E
  8
0
  6
DOT
 62
     3
 10
168.838256835938
 20
179.730625257273
 30
0.0
 11
169.338257745315
 21
179.730625257273
 31
0.0
  0
POINT
  5
   18F
  8
0
  6
CONTINUOUS
 62
     3
 10
114.838256835938
 20
109.980621337891
 30
0.0
  0
ENDBLK
  5
   190
  8
0
  6
CONTINUOUS
 62
     7
  0
BLOCK
  5
   191
  8
0
  6
CONTINUOUS
 62
     7
  2
*UDIM2437
 70
    65
 10
0.0
 20
0.0
 30
0.0
  3
*UDIM2437
  0
TEXT
  5
   192
  8
0
  6
CONTINUOUS
 62
     7
 10
-414.589247164857
 20
-136.776995654352
 30
0.0
 40
3.00000002980232
  1
31
 50
359.999999896069
 41
0.933333333333333
 72
     1
 11
-412.089247137308
 21
-135.276995643973
 31
0.0
 73
     2
  0
LINE
  5
   193
  8
0
  6
CONTINUOUS
 62
     7
 10
-404.1142578125
 20
-134.906761169434
 30
0.0
 11
-404.1142578125
 21
-139.776995658875
 31
0.0
  0
LINE
  5
   194
  8
0
  6
CONTINUOUS
 62
     7
 10
-419.514236450195
 20
-116.156791687012
 30
0.0
 11
-419.514236450195
 21
-139.776995658875
 31
0.0
  0
LINE
  5
   195
  8
0
  6
CONTINUOUS
 62
     7
 10
-404.1142578125
 20
-137.776995658875
 30
0.0
 11
-419.514236450195
 21
-137.776995658875
 31
0.0
  0
LINE
  5
   196
  8
0
  6
CONTINUOUS
 62
     7
 10
-407.068681089707
 20
-138.297940088826
 30
0.0
 11
-404.1142578125
 21
-137.776995658875
 31
0.0
  0
LINE
  5
   197
  8
0
  6
CONTINUOUS
 62
     7
 10
-404.1142578125
 20
-137.776995658875
 30
0.0
 11
-407.068681089707
 21
-137.256051228923
 31
0.0
  0
LINE
  5
   198
  8
0
  6
CONTINUOUS
 62
     7
 10
-416.559813172988
 20
-137.256051228923
 30
0.0
 11
-419.514236450195
 21
-137.776995658875
 31
0.0
  0
LINE
  5
   199
  8
0
  6
CONTINUOUS
 62
     7
 10
-419.514236450195
 20
-137.776995658875
 30
0.0
 11
-416.559813172988
 21
-138.297940088826
 31
0.0
  0
ENDBLK
  5
   19A
  8
0
  6
CONTINUOUS
 62
     7
  0
BLOCK
  5
   19B
  8
0
  6
CONTINUOUS
 62
     7
  2
*UDIM2438
 70
    65
 10
0.0
 20
0.0
 30
0.0
  3
*UDIM2438
  0
TEXT
  5
   19C
  8
0
  6
CONTINUOUS
 62
     7
 10
-438.83440870616
 20
-148.172441684105
 30
0.0
 40
3.00000002980232
  1
100
 50
359.999999896069
 41
0.933333333333333
 72
     1
 11
-434.934408664703
 21
-146.672441676259
 31
0.0
 73
     2
  0
LINE
  5
   19D
  8
0
  6
CONTINUOUS
 62
     7
 10
-404.1142578125
 20
-134.906761169434
 30
0.0
 11
-404.1142578125
 21
-151.17244169116
 31
0.0
  0
LINE
  5
   19E
  8
0
  6
CONTINUOUS
 62
     7
 10
-454.114234924316
 20
-130.156776428223
 30
0.0
 11
-454.114234924316
 21
-151.17244169116
 31
0.0
  0
LINE
  5
   19F
  8
0
  6
CONTINUOUS
 62
     7
 10
-404.1142578125
 20
-149.17244169116
 30
0.0
 11
-454.114234924316
 21
-149.17244169116
 31
0.0
  0
LINE
  5
   1A0
  8
0
  6
CONTINUOUS
 62
     7
 10
-407.068681089707
 20
-149.693386121112
 30
0.0
 11
-404.1142578125
 21
-149.17244169116
 31
0.0
  0
LINE
  5
   1A1
  8
0
  6
CONTINUOUS
 62
     7
 10
-404.1142578125
 20
-149.17244169116
 30
0.0
 11
-407.068681089707
 21
-148.651497261209
 31
0.0
  0
LINE
  5
   1A2
  8
0
  6
CONTINUOUS
 62
     7
 10
-451.159811647109
 20
-148.651497261209
 30
0.0
 11
-454.114234924316
 21
-149.17244169116
 31
0.0
  0
LINE
  5
   1A3
  8
0
  6
CONTINUOUS
 62
     7
 10
-454.114234924316
 20
-149.17244169116
 30
0.0
 11
-451.159811647109
 21
-149.693386121112
 31
0.0
  0
ENDBLK
  5
   1A4
  8
0
  6
CONTINUOUS
 62
     7
  0
BLOCK
  5
   1A5
  8
0
  6
CONTINUOUS
 62
     7
  2
*UDIM2439
 70
    65
 10
0.0
 20
0.0
 30
0.0
  3
*UDIM2439
  0
TEXT
  5
   1A6
  8
0
  6
CONTINUOUS
 62
     7
 10
-418.88924258722
 20
-142.605200762995
 30
0.0
 40
3.00000002980232
  1
48
 50
359.999999896069
 41
0.933333333333333
 72
     1
 11
-416.389242559671
 21
-141.105200752616
 31
0.0
 73
     2
  0
LINE
  5
   1A7
  8
0
  6
CONTINUOUS
 62
     7
 10
-404.1142578125
 20
-134.906761169434
 30
0.0
 11
-404.1142578125
 21
-145.605200767517
 31
0.0
  0
LINE
  5
   1A8
  8
0
  6
CONTINUOUS
 62
     7
 10
-428.114234924316
 20
-112.656776428223
 30
0.0
 11
-428.114234924316
 21
-145.605200767517
 31
0.0
  0
LINE
  5
   1A9
  8
0
  6
CONTINUOUS
 62
     7
 10
-404.1142578125
 20
-143.605200767517
 30
0.0
 11
-428.114234924316
 21
-143.605200767517
 31
0.0
  0
LINE
  5
   1AA
  8
0
  6
CONTINUOUS
 62
     7
 10
-407.068681089707
 20
-144.126145197469
 30
0.0
 11
-404.1142578125
 21
-143.605200767517
 31
0.0
  0
LINE
  5
   1AB
  8
0
  6
CONTINUOUS
 62
     7
 10
-404.1142578125
 20
-143.605200767517
 30
0.0
 11
-407.068681089707
 21
-143.084256337565
 31
0.0
  0
LINE
  5
   1AC
  8
0
  6
CONTINUOUS
 62
     7
 10
-425.15981164711
 20
-143.084256337565
 30
0.0
 11
-428.114234924316
 21
-143.605200767517
 31
0.0
  0
LINE
  5
   1AD
  8
0
  6
CONTINUOUS
 62
     7
 10
-428.114234924316
 20
-143.605200767517
 30
0.0
 11
-425.15981164711
 21
-144.126145197469
 31
0.0
  0
ENDBLK
  5
   1AE
  8
0
  6
CONTINUOUS
 62
     7
  0
BLOCK
  5
   1AF
  8
0
  6
CONTINUOUS
 62
     7
  2
*UDIM2440
 70
    65
 10
0.0
 20
0.0
 30
0.0
  3
*UDIM2440
  0
TEXT
  5
   1B0
  8
0
  6
CONTINUOUS
 62
     7
 10
-461.307495121707
 20
-140.456404362787
 30
0.0
 40
3.00000002980232
  1
12
 50
449.999999896069
 41
0.933333333333333
 72
     1
 11
-462.807495132089
 21
-137.95640433524
 31
0.0
 73
     2
  0
TEXT
  5
   1B1
  8
0
  6
CONTINUOUS
 62
     7
 10
-461.307495119176
 20
-143.206404396563
 30
0.0
 40
3.00000002980232
  1
M
 50
449.999999896069
 41
0.933333333333334
 72
     1
 11
-462.807495132089
 21
-142.106404382924
 31
0.0
 73
     2
  0
LINE
  5
   1B2
  8
0
  6
CONTINUOUS
 62
     7
 10
-454.114234924316
 20
-124.156776114306
 30
0.0
 11
-462.307495117187
 21
-124.156773542307
 31
0.0
  0
LINE
  5
   1B3
  8
0
  6
CONTINUOUS
 62
     7
 10
-454.114234924316
 20
-130.156776114306
 30
0.0
 11
-462.307495117187
 21
-130.156773542307
 31
0.0
  0
LINE
  5
   1B4
  8
0
  6
CONTINUOUS
 62
     7
 10
-460.307495117188
 20
-124.15677417014
 30
0.0
 11
-460.307495117188
 21
-143.206404393851
 31
0.0
  0
LINE
  5
   1B5
  8
0
  6
CONTINUOUS
 62
     7
 10
-460.828439547139
 20
-121.202350892933
 30
0.0
 11
-460.307495117188
 21
-124.15677417014
 31
0.0
  0
LINE
  5
   1B6
  8
0
  6
CONTINUOUS
 62
     7
 10
-460.307495117188
 20
-124.15677417014
 30
0.0
 11
-459.786550687236
 21
-121.202350892933
 31
0.0
  0
LINE
  5
   1B7
  8
0
  6
CONTINUOUS
 62
     7
 10
-459.786550687236
 20
-133.111197447347
 30
0.0
 11
-460.307495117188
 21
-130.15677417014
 31
0.0
  0
LINE
  5
   1B8
  8
0
  6
CONTINUOUS
 62
     7
 10
-460.307495117188
 20
-130.15677417014
 30
0.0
 11
-460.828439547139
 21
-133.111197447347
 31
0.0
  0
ENDBLK
  5
   1B9
  8
0
  6
CONTINUOUS
 62
     7
  0
BLOCK
  5
   1BA
  8
0
  6
CONTINUOUS
 62
     7
  2
*UDIM2441
 70
    65
 10
0.0
 20
0.0
 30
0.0
  3
*UDIM2441
  0
TEXT
  5
   1BB
  8
0
  6
CONTINUOUS
 62
     7
 10
-468.748779301394
 20
-86.1817688363154
 30
0.0
 40
3.00000002980232
  1
35
 50
449.999999896069
 41
0.933333333333333
 72
     1
 11
-470.248779311776
 21
-83.6817688087686
 31
0.0
 73
     2
  0
LINE
  5
   1BC
  8
0
  6
CONTINUOUS
 62
     7
 10
-459.065110643949
 20
-74.6567655277653
 30
0.0
 11
-469.748779296864
 21
-74.6567305808138
 31
0.0
  0
LINE
  5
   1BD
  8
0
  6
CONTINUOUS
 62
     7
 10
-459.065110643949
 20
-92.1567655277653
 30
0.0
 11
-469.748779296864
 21
-92.1567305808138
 31
0.0
  0
LINE
  5
   1BE
  8
0
  6
CONTINUOUS
 62
     7
 10
-467.748779296875
 20
-74.6567371229395
 30
0.0
 11
-467.748779296875
 21
-92.1567371229395
 31
0.0
  0
LINE
  5
   1BF
  8
0
  6
CONTINUOUS
 62
     7
 10
-467.227834866923
 20
-77.6111604001465
 30
0.0
 11
-467.748779296875
 21
-74.6567371229395
 31
0.0
  0
LINE
  5
   1C0
  8
0
  6
CONTINUOUS
 62
     7
 10
-467.748779296875
 20
-74.6567371229395
 30
0.0
 11
-468.269723726827
 21
-77.6111604001465
 31
0.0
  0
LINE
  5
   1C1
  8
0
  6
CONTINUOUS
 62
     7
 10
-468.269723726827
 20
-89.2023138457325
 30
0.0
 11
-467.748779296875
 21
-92.1567371229395
 31
0.0
  0
LINE
  5
   1C2
  8
0
  6
CONTINUOUS
 62
     7
 10
-467.748779296875
 20
-92.1567371229395
 30
0.0
 11
-467.227834866923
 21
-89.2023138457325
 31
0.0
  0
ENDBLK
  5
   1C3
  8
0
  6
CONTINUOUS
 62
     7
  0
BLOCK
  5
   1C4
  8
0
  6
CONTINUOUS
 62
     7
  2
*UDIM2442
 70
    65
 10
0.0
 20
0.0
 30
0.0
  3
*UDIM2442
  0
TEXT
  5
   1C5
  8
0
  6
CONTINUOUS
 62
     7
 10
-468.748779301394
 20
-103.681768830622
 30
0.0
 40
3.00000002980232
  1
35
 50
449.999999896069
 41
0.933333333333333
 72
     1
 11
-470.248779311776
 21
-101.181768803076
 31
0.0
 73
     2
  0
LINE
  5
   1C6
  8
0
  6
CONTINUOUS
 62
     7
 10
-367.84331133281
 20
-109.656765527765
 30
0.0
 11
-469.748779296864
 21
-109.656432188576
 31
0.0
  0
LINE
  5
   1C7
  8
0
  6
CONTINUOUS
 62
     7
 10
-467.748779296875
 20
-92.1567371229395
 30
0.0
 11
-467.748779296875
 21
-109.656438730702
 31
0.0
  0
LINE
  5
   1C8
  8
0
  6
CONTINUOUS
 62
     7
 10
-467.227834866923
 20
-95.1111604001465
 30
0.0
 11
-467.748779296875
 21
-92.1567371229395
 31
0.0
  0
LINE
  5
   1C9
  8
0
  6
CONTINUOUS
 62
     7
 10
-467.748779296875
 20
-92.1567371229395
 30
0.0
 11
-468.269723726827
 21
-95.1111604001465
 31
0.0
  0
LINE
  5
   1CA
  8
0
  6
CONTINUOUS
 62
     7
 10
-468.269723726827
 20
-106.702015453495
 30
0.0
 11
-467.748779296875
 21
-109.656438730702
 31
0.0
  0
LINE
  5
   1CB
  8
0
  6
CONTINUOUS
 62
     7
 10
-467.748779296875
 20
-109.656438730702
 30
0.0
 11
-467.227834866923
 21
-106.702015453495
 31
0.0
  0
ENDBLK
  5
   1CC
  8
0
  6
CONTINUOUS
 62
     7
  0
BLOCK
  5
   1CD
  8
0
  6
CONTINUOUS
 62
     7
  2
*UDIM2443
 70
    65
 10
0.0
 20
0.0
 30
0.0
  3
*UDIM2443
  0
TEXT
  5
   1CE
  8
0
  6
CONTINUOUS
 62
     7
 10
-468.748779301394
 20
-121.181768824929
 30
0.0
 40
3.00000002980232
  1
35
 50
449.999999896069
 41
0.933333333333333
 72
     1
 11
-470.248779311776
 21
-118.681768797383
 31
0.0
 73
     2
  0
LINE
  5
   1CF
  8
0
  6
CONTINUOUS
 62
     7
 10
-367.84331133281
 20
-127.156765527765
 30
0.0
 11
-469.748779296864
 21
-127.156432188576
 31
0.0
  0
LINE
  5
   1D0
  8
0
  6
CONTINUOUS
 62
     7
 10
-467.748779296875
 20
-109.656438730702
 30
0.0
 11
-467.748779296875
 21
-127.156438730702
 31
0.0
  0
LINE
  5
   1D1
  8
0
  6
CONTINUOUS
 62
     7
 10
-467.227834866923
 20
-112.610862007909
 30
0.0
 11
-467.748779296875
 21
-109.656438730702
 31
0.0
  0
LINE
  5
   1D2
  8
0
  6
CONTINUOUS
 62
     7
 10
-467.748779296875
 20
-109.656438730702
 30
0.0
 11
-468.269723726827
 21
-112.610862007909
 31
0.0
  0
LINE
  5
   1D3
  8
0
  6
CONTINUOUS
 62
     7
 10
-468.269723726827
 20
-124.202015453495
 30
0.0
 11
-467.748779296875
 21
-127.156438730702
 31
0.0
  0
LINE
  5
   1D4
  8
0
  6
CONTINUOUS
 62
     7
 10
-467.748779296875
 20
-127.156438730702
 30
0.0
 11
-467.227834866923
 21
-124.202015453495
 31
0.0
  0
ENDBLK
  5
   1D5
  8
0
  6
CONTINUOUS
 62
     7
  0
BLOCK
  5
   1D6
  8
0
  6
CONTINUOUS
 62
     7
  2
*UDIM2444
 70
    65
 10
0.0
 20
0.0
 30
0.0
  3
*UDIM2444
  0
TEXT
  5
   1D7
  8
0
  6
CONTINUOUS
 62
     7
 10
-271.162768187637
 20
11.5912841527927
 30
0.0
 40
3.00000002980232
  1
7
 50
404.893139787217
 41
0.933333333333334
 72
     1
 11
-271.442181537174
 21
13.4302861236575
 31
0.0
 73
     2
  0
TEXT
  5
   1D8
  8
0
  6
CONTINUOUS
 62
     7
 10
-273.394304887912
 20
9.36805586538898
 30
0.0
 40
3.00000002980232
  1
Ø
 50
404.893139787217
 41
0.933333333333334
 72
     1
 11
-273.673718237449
 21
11.2070578362537
 31
0.0
 73
     2
  0
LINE
  5
   1D9
  8
0
  6
CONTINUOUS
 62
     7
 10
-256.690370395542
 20
24.5982152666889
 30
0.0
 11
-272.688518127238
 21
8.65963151908826
 31
0.0
  0
LINE
  5
   1DA
  8
0
  6
CONTINUOUS
 62
     7
 10
-254.965060693555
 20
27.0524578040573
 30
0.0
 11
-256.690370395542
 21
24.5982152666889
 31
0.0
  0
LINE
  5
   1DB
  8
0
  6
CONTINUOUS
 62
     7
 10
-256.690370395542
 20
24.5982152666889
 30
0.0
 11
-254.229709335344
 21
26.3143583687719
 31
0.0
  0
LINE
  5
   1DC
  8
0
  6
CONTINUOUS
 62
     7
 10
-259.655422704883
 20
20.9088459068802
 30
0.0
 11
-257.930113002896
 21
23.3630884442486
 31
0.0
  0
LINE
  5
   1DD
  8
0
  6
CONTINUOUS
 62
     7
 10
-257.930113002896
 20
23.3630884442486
 30
0.0
 11
-260.390774063093
 21
21.6469453421656
 31
0.0
  0
ENDBLK
  5
   1DE
  8
0
  6
CONTINUOUS
 62
     7
  0
BLOCK
  5
   1DF
  8
0
  6
CONTINUOUS
 62
     7
  2
*UDIM2445
 70
    65
 10
0.0
 20
0.0
 30
0.0
  3
*UDIM2445
  0
TEXT
  5
   1E0
  8
0
  6
CONTINUOUS
 62
     7
 10
-250.085241734088
 20
72.2668304511257
 30
0.0
 40
3.00000002980232
  1
80
 50
359.999999844103
 41
0.933333333333333
 72
     1
 11
-247.585241705179
 21
73.7668304592371
 31
0.0
 73
     2
  0
LINE
  5
   1E1
  8
0
  6
CONTINUOUS
 62
     7
 10
-257.310241699219
 20
62.1056518554688
 30
0.0
 11
-257.310241699219
 21
73.2668304443359
 31
0.0
  0
LINE
  5
   1E2
  8
0
  6
CONTINUOUS
 62
     7
 10
-237.310241699219
 20
62.1056518554688
 30
0.0
 11
-237.310241699219
 21
73.2668304443359
 31
0.0
  0
LINE
  5
   1E3
  8
0
  6
CONTINUOUS
 62
     7
 10
-257.310241699219
 20
71.2668304443359
 30
0.0
 11
-237.310241699219
 21
71.2668304443359
 31
0.0
  0
LINE
  5
   1E4
  8
0
  6
CONTINUOUS
 62
     7
 10
-254.355818422012
 20
71.7877748742876
 30
0.0
 11
-257.310241699219
 21
71.2668304443359
 31
0.0
  0
LINE
  5
   1E5
  8
0
  6
CONTINUOUS
 62
     7
 10
-257.310241699219
 20
71.2668304443359
 30
0.0
 11
-254.355818422012
 21
70.7458860143843
 31
0.0
  0
LINE
  5
   1E6
  8
0
  6
CONTINUOUS
 62
     7
 10
-240.264664976426
 20
70.7458860143843
 30
0.0
 11
-237.310241699219
 21
71.2668304443359
 31
0.0
  0
LINE
  5
   1E7
  8
0
  6
CONTINUOUS
 62
     7
 10
-237.310241699219
 20
71.2668304443359
 30
0.0
 11
-240.264664976426
 21
71.7877748742876
 31
0.0
  0
ENDBLK
  5
   1E8
  8
0
  6
CONTINUOUS
 62
     7
  0
BLOCK
  5
   1E9
  8
0
  6
CONTINUOUS
 62
     7
  2
*UDIM2446
 70
    65
 10
0.0
 20
0.0
 30
0.0
  3
*UDIM2446
  0
TEXT
  5
   1EA
  8
0
  6
CONTINUOUS
 62
     7
 10
-251.485241747996
 20
78.7064895735802
 30
0.0
 40
3.00000002980232
  1
112
 50
359.999999844103
 41
0.933333333333333
 72
     1
 11
-247.585241705179
 21
80.2064895778894
 31
0.0
 73
     2
  0
LINE
  5
   1EB
  8
0
  6
CONTINUOUS
 62
     7
 10
-261.310241699219
 20
56.7306518554688
 30
0.0
 11
-261.310241699219
 21
79.7064895629883
 31
0.0
  0
LINE
  5
   1EC
  8
0
  6
CONTINUOUS
 62
     7
 10
-233.310241699219
 20
56.7306518554688
 30
0.0
 11
-233.310241699219
 21
79.7064895629883
 31
0.0
  0
LINE
  5
   1ED
  8
0
  6
CONTINUOUS
 62
     7
 10
-261.310241699219
 20
77.7064895629883
 30
0.0
 11
-233.310241699219
 21
77.7064895629883
 31
0.0
  0
LINE
  5
   1EE
  8
0
  6
CONTINUOUS
 62
     7
 10
-258.355818422012
 20
78.22743399294
 30
0.0
 11
-261.310241699219
 21
77.7064895629883
 31
0.0
  0
LINE
  5
   1EF
  8
0
  6
CONTINUOUS
 62
     7
 10
-261.310241699219
 20
77.7064895629883
 30
0.0
 11
-258.355818422012
 21
77.1855451330366
 31
0.0
  0
LINE
  5
   1F0
  8
0
  6
CONTINUOUS
 62
     7
 10
-236.264664976426
 20
77.1855451330366
 30
0.0
 11
-233.310241699219
 21
77.7064895629883
 31
0.0
  0
LINE
  5
   1F1
  8
0
  6
CONTINUOUS
 62
     7
 10
-233.310241699219
 20
77.7064895629883
 30
0.0
 11
-236.264664976426
 21
78.22743399294
 31
0.0
  0
ENDBLK
  5
   1F2
  8
0
  6
CONTINUOUS
 62
     7
  0
BLOCK
  5
   1F3
  8
0
  6
CONTINUOUS
 62
     7
  2
*UDIM2447
 70
    65
 10
0.0
 20
0.0
 30
0.0
  3
*UDIM2447
  0
TEXT
  5
   1F4
  8
0
  6
CONTINUOUS
 62
     7
 10
-271.680795680143
 20
37.5556518066933
 30
0.0
 40
3.00000002980232
  1
112
 50
449.999999844103
 41
0.933333333333333
 72
     1
 11
-273.180795684457
 21
41.4556518495083
 31
0.0
 73
     2
  0
LINE
  5
   1F5
  8
0
  6
CONTINUOUS
 62
     7
 10
-262.310241699219
 20
55.7306518554688
 30
0.0
 11
-272.680795669556
 21
55.7306518554688
 31
0.0
  0
LINE
  5
   1F6
  8
0
  6
CONTINUOUS
 62
     7
 10
-262.310241699219
 20
27.7306518554688
 30
0.0
 11
-272.680795669556
 21
27.7306518554688
 31
0.0
  0
LINE
  5
   1F7
  8
0
  6
CONTINUOUS
 62
     7
 10
-270.680795669556
 20
55.7306518554688
 30
0.0
 11
-270.680795669556
 21
27.7306518554688
 31
0.0
  0
LINE
  5
   1F8
  8
0
  6
CONTINUOUS
 62
     7
 10
-270.159851239604
 20
52.7762285782618
 30
0.0
 11
-270.680795669556
 21
55.7306518554688
 31
0.0
  0
LINE
  5
   1F9
  8
0
  6
CONTINUOUS
 62
     7
 10
-270.680795669556
 20
55.7306518554688
 30
0.0
 11
-271.201740099507
 21
52.7762285782618
 31
0.0
  0
LINE
  5
   1FA
  8
0
  6
CONTINUOUS
 62
     7
 10
-271.201740099507
 20
30.6850751326757
 30
0.0
 11
-270.680795669556
 21
27.7306518554688
 31
0.0
  0
LINE
  5
   1FB
  8
0
  6
CONTINUOUS
 62
     7
 10
-270.680795669556
 20
27.7306518554688
 30
0.0
 11
-270.159851239604
 21
30.6850751326757
 31
0.0
  0
ENDBLK
  5
   1FC
  8
0
  6
CONTINUOUS
 62
     7
  0
BLOCK
  5
   1FD
  8
0
  6
CONTINUOUS
 62
     7
  2
*UDIM2448
 70
    65
 10
0.0
 20
0.0
 30
0.0
  3
*UDIM2448
  0
TEXT
  5
   1FE
  8
0
  6
CONTINUOUS
 62
     7
 10
-281.093952189542
 20
37.5556518066933
 30
0.0
 40
3.00000002980232
  1
142
 50
449.999999844103
 41
0.933333333333333
 72
     1
 11
-282.593952193856
 21
41.4556518495083
 31
0.0
 73
     2
  0
LINE
  5
   1FF
  8
0
  6
CONTINUOUS
 62
     7
 10
-259.935241699219
 20
59.4806518554688
 30
0.0
 11
-282.093952178955
 21
59.4806518554688
 31
0.0
  0
LINE
  5
   200
  8
0
  6
CONTINUOUS
 62
     7
 10
-259.935241699219
 20
23.9806518554688
 30
0.0
 11
-282.093952178955
 21
23.9806518554688
 31
0.0
  0
LINE
  5
   201
  8
0
  6
CONTINUOUS
 62
     7
 10
-280.093952178955
 20
59.4806518554688
 30
0.0
 11
-280.093952178955
 21
23.9806518554688
 31
0.0
  0
LINE
  5
   202
  8
0
  6
CONTINUOUS
 62
     7
 10
-279.573007749003
 20
56.5262285782618
 30
0.0
 11
-280.093952178955
 21
59.4806518554688
 31
0.0
  0
LINE
  5
   203
  8
0
  6
CONTINUOUS
 62
     7
 10
-280.093952178955
 20
59.4806518554688
 30
0.0
 11
-280.614896608907
 21
56.5262285782618
 31
0.0
  0
LINE
  5
   204
  8
0
  6
CONTINUOUS
 62
     7
 10
-280.614896608907
 20
26.9350751326757
 30
0.0
 11
-280.093952178955
 21
23.9806518554688
 31
0.0
  0
LINE
  5
   205
  8
0
  6
CONTINUOUS
 62
     7
 10
-280.093952178955
 20
23.9806518554688
 30
0.0
 11
-279.573007749003
 21
26.9350751326757
 31
0.0
  0
ENDBLK
  5
   206
  8
0
  6
CONTINUOUS
 62
     7
  0
ENDSEC
  0
SECTION
  2
ENTITIES
  0
LINE
  5
   207
  8
0
  6
DASHDOT
 62
     3
 10
-517.867431640625
 20
-87.812008968922
 30
0.0
 11
-517.867431640625
 21
-155.158413794727
 31
0.0
  0
LINE
  5
   208
  8
0
  6
CONTINUOUS
 62
     7
 10
-496.617431640625
 20
-84.2974728176394
 30
0.0
 11
-496.617431640625
 21
-158.097886010584
 31
0.0
  0
LINE
  5
   209
  8
0
  6
CONTINUOUS
 62
     7
 10
-494.678348377259
 20
-155.626655578613
 30
0.0
 11
-544.200308155401
 21
-155.626655578613
 31
0.0
  0
LINE
  5
   20A
  8
0
  6
CONTINUOUS
 62
     7
 10
-495.293664258595
 20
-87.1266555786133
 30
0.0
 11
-544.380466966495
 21
-87.1266555786133
 31
0.0
  0
LINE
  5
   20B
  8
0
  6
CONTINUOUS
 62
     7
 10
-542.181497471618
 20
-83.6716920387281
 30
0.0
 11
-542.181497471618
 21
-158.097886010584
 31
0.0
  0
CIRCLE
  5
   20C
  8
0
  6
CONTINUOUS
 62
     7
 10
-535.701416890141
 20
-92.0612617983059
 30
0.0
 40
0.05
  0
LINE
  5
   20D
  8
0
  6
DASHDOT
 62
     3
 10
-536.867431640625
 20
-100.048612018386
 30
0.0
 11
-536.867431640625
 21
-143.120723711891
 31
0.0
  0
LINE
  5
   20E
  8
0
  6
DASHDOT
 62
     3
 10
-507.617431640625
 20
-100.356269959053
 30
0.0
 11
-507.617431640625
 21
-143.582210622893
 31
0.0
  0
LINE
  5
   20F
  8
0
  6
DASHDOT
 62
     3
 10
-499.541965929953
 20
-104.501655578613
 30
0.0
 11
-537.288973159763
 21
-104.501655578613
 31
0.0
  0
LINE
  5
   210
  8
0
  6
DASHDOT
 62
     3
 10
-499.541965929953
 20
-138.251655578613
 30
0.0
 11
-536.673657278427
 21
-138.251655578613
 31
0.0
  0
CIRCLE
  5
   211
  8
0
  6
CONTINUOUS
 62
     7
 10
-536.867431640625
 20
-104.501655578613
 30
0.0
 40
0.625
  0
CIRCLE
  5
   212
  8
0
  6
CONTINUOUS
 62
     7
 10
-507.617431640625
 20
-104.501655578613
 30
0.0
 40
0.625
  0
CIRCLE
  5
   213
  8
0
  6
CONTINUOUS
 62
     7
 10
-536.867431640625
 20
-138.251655578613
 30
0.0
 40
0.625
  0
CIRCLE
  5
   214
  8
0
  6
CONTINUOUS
 62
     7
 10
-507.617431640625
 20
-138.251655578613
 30
0.0
 40
0.625
  0
LINE
  5
   215
  8
0
  6
DASHDOT
 62
     3
 10
-498.611716390068
 20
-94.1266555786133
 30
0.0
 11
-537.488299956647
 21
-94.1266555786133
 31
0.0
  0
LINE
  5
   216
  8
0
  6
DASHDOT
 62
     3
 10
-502.986716390068
 20
-148.626655578613
 30
0.0
 11
-542.352313586415
 21
-148.626655578613
 31
0.0
  0
LINE
  5
   217
  8
0
  6
DASHDOT
 62
     3
 10
-535.367431640625
 20
-87.812008968922
 30
0.0
 11
-535.367431640625
 21
-155.90529893263
 31
0.0
  0
LINE
  5
   218
  8
0
  6
DASHDOT
 62
     3
 10
-509.117431640625
 20
-87.812008968922
 30
0.0
 11
-509.117431640625
 21
-155.90529893263
 31
0.0
  0
ARC
  5
   219
  8
0
  6
CONTINUOUS
 62
     7
 10
-509.117431640625
 20
-94.1266555786133
 30
0.0
 40
3.5
 50
269.999999896069
 51
449.999999896069
  0
ARC
  5
   21A
  8
0
  6
CONTINUOUS
 62
     7
 10
-535.367431640625
 20
-94.1266555786133
 30
0.0
 40
3.5
 50
449.999999896069
 51
629.999999896069
  0
ARC
  5
   21B
  8
0
  6
CONTINUOUS
 62
     7
 10
-535.367431640625
 20
-148.626655578613
 30
0.0
 40
3.5
 50
449.999999896069
 51
629.999999896069
  0
ARC
  5
   21C
  8
0
  6
CONTINUOUS
 62
     7
 10
-509.117431640625
 20
-148.626655578613
 30
0.0
 40
3.5
 50
269.999999896069
 51
449.999999896069
  0
LINE
  5
   21D
  8
0
  6
CONTINUOUS
 62
     7
 10
-509.117431640625
 20
-90.6266555786133
 30
0.0
 11
-535.367431640625
 21
-90.6266555786133
 31
0.0
  0
LINE
  5
   21E
  8
0
  6
CONTINUOUS
 62
     7
 10
-509.117431640625
 20
-97.6266555786133
 30
0.0
 11
-535.367431640625
 21
-97.6266555786133
 31
0.0
  0
LINE
  5
   21F
  8
0
  6
CONTINUOUS
 62
     7
 10
-509.117431640625
 20
-145.126655578613
 30
0.0
 11
-535.367431640625
 21
-145.126655578613
 31
0.0
  0
LINE
  5
   220
  8
0
  6
CONTINUOUS
 62
     7
 10
-509.117431640625
 20
-152.126655578613
 30
0.0
 11
-535.367431640625
 21
-152.126655578613
 31
0.0
  0
LINE
  5
   221
  8
0
  6
DASHDOT
 62
     3
 10
-499.541965929953
 20
-120.939155578613
 30
0.0
 11
-548.266009667473
 21
-120.939155578613
 31
0.0
  0
INSERT
  5
   222
  8
0
  6
CONTINUOUS
 62
     7
  2
*UDIM2412
 10
0.0
 20
0.0
 30
0.0
  0
INSERT
  5
   223
  8
0
  6
CONTINUOUS
 62
     7
  2
*UDIM2413
 10
0.0
 20
0.0
 30
0.0
  0
INSERT
  5
   224
  8
0
  6
CONTINUOUS
 62
     7
  2
*UDIM2414
 10
0.0
 20
0.0
 30
0.0
  0
INSERT
  5
   225
  8
0
  6
CONTINUOUS
 62
     7
  2
*UDIM2415
 10
0.0
 20
0.0
 30
0.0
  0
INSERT
  5
   226
  8
0
  6
CONTINUOUS
 62
     7
  2
*UDIM2416
 10
0.0
 20
0.0
 30
0.0
  0
INSERT
  5
   227
  8
0
  6
CONTINUOUS
 62
     7
  2
*UDIM2417
 10
0.0
 20
0.0
 30
0.0
  0
INSERT
  5
   228
  8
0
  6
CONTINUOUS
 62
     7
  2
*UDIM2418
 10
0.0
 20
0.0
 30
0.0
  0
INSERT
  5
   229
  8
0
  6
CONTINUOUS
 62
     7
  2
*UDIM2419
 10
0.0
 20
0.0
 30
0.0
  0
INSERT
  5
   22A
  8
0
  6
CONTINUOUS
 62
     7
  2
*UDIM2420
 10
0.0
 20
0.0
 30
0.0
  0
INSERT
  5
   22B
  8
0
  6
CONTINUOUS
 62
     7
  2
*UDIM2421
 10
0.0
 20
0.0
 30
0.0
  0
TEXT
  5
   22C
  8
0
  6
CONTINUOUS
 62
     7
 10
-518.61775696549
 20
-74.5277023593555
 30
0.0
 40
3.00000002980232
  1
Y
 50
359.999999896069
 41
0.916666604744064
 72
     2
 11
-516.41775709662
 21
-74.5277023633351
 31
0.0
  0
TEXT
  5
   22D
  8
0
  6
CONTINUOUS
 62
     7
 10
-571.96376037869
 20
-120.517729071773
 30
0.0
 40
3.00000002980232
  1
X
 50
359.999999896069
 41
0.916666604744064
 72
     2
 11
-569.76376050982
 21
-120.517729075753
 31
0.0
  0
TEXT
  5
   22E
  8
0
  6
CONTINUOUS
 62
     7
 10
-480.51821136746
 20
-120.639982489742
 30
0.0
 40
3.00000002980232
  1
X
 50
359.999999896069
 41
0.916666604744064
 72
     2
 11
-478.31821149859
 21
-120.639982493721
 31
0.0
  0
TEXT
  5
   22F
  8
0
  6
CONTINUOUS
 62
     7
 10
-518.978074553342
 20
-173.254730252422
 30
0.0
 40
3.00000002980232
  1
Y
 50
359.999999896069
 41
0.916666604744064
 72
     2
 11
-516.778074684472
 21
-173.254730256402
 31
0.0
  0
LINE
  5
   230
  8
0
  6
CONTINUOUS
 62
     7
 10
-378.364242553711
 20
31.2821350097656
 30
0.0
 11
-378.364242553711
 21
31.5321197509766
 31
0.0
  0
LINE
  5
   231
  8
0
  6
CONTINUOUS
 62
     7
 10
-378.364242553711
 20
39.0321197509766
 30
0.0
 11
-378.364242553711
 21
49.0321044921875
 31
0.0
  0
LINE
  5
   232
  8
0
  6
CONTINUOUS
 62
     7
 10
-377.114227294922
 20
31.5321197509766
 30
0.0
 11
-377.114227294922
 21
39.0321197509766
 31
0.0
  0
LINE
  5
   233
  8
0
  6
CONTINUOUS
 62
     7
 10
-377.114227294922
 20
31.5321197509766
 30
0.0
 11
-378.364242553711
 21
31.5321197509766
 31
0.0
  0
LINE
  5
   234
  8
0
  6
CONTINUOUS
 62
     7
 10
-377.114227294922
 20
39.0321197509766
 30
0.0
 11
-378.364242553711
 21
39.0321197509766
 31
0.0
  0
LINE
  5
   235
  8
0
  6
CONTINUOUS
 62
     7
 10
-377.114227294922
 20
49.0321044921875
 30
0.0
 11
-377.114227294922
 21
56.5321044921875
 31
0.0
  0
LINE
  5
   236
  8
0
  6
CONTINUOUS
 62
     7
 10
-377.114227294922
 20
49.0321044921875
 30
0.0
 11
-378.364242553711
 21
49.0321044921875
 31
0.0
  0
LINE
  5
   237
  8
0
  6
CONTINUOUS
 62
     7
 10
-377.114227294922
 20
56.5321044921875
 30
0.0
 11
-378.364242553711
 21
56.5321044921875
 31
0.0
  0
LINE
  5
   238
  8
0
  6
CONTINUOUS
 62
     2
 10
-378.364239142987
 20
58.5321044921875
 30
0.0
 11
-378.36423174172
 21
68.8394165039062
 31
0.0
  0
LINE
  5
   239
  8
0
  6
CONTINUOUS
 62
     7
 10
-376.364242553711
 20
59.7821044921875
 30
0.0
 11
-378.364242553711
 21
59.7821044921875
 31
0.0
  0
LINE
  5
   23A
  8
0
  6
CONTINUOUS
 62
     7
 10
-376.364241282328
 20
59.7820981346579
 30
0.0
 11
-376.364193344236
 21
78.6321276855292
 31
0.0
  0
LINE
  5
   23B
  8
0
  6
CONTINUOUS
 62
     7
 10
-378.36423745405
 20
-3.96785990056332
 30
0.0
 11
-378.364222195261
 21
-3.82074234542188
 31
0.0
  0
LINE
  5
   23C
  8
0
  6
CONTINUOUS
 62
     7
 10
-378.364223175111
 20
3.88502075952942
 30
0.0
 11
-378.364238433899
 21
31.282130744881
 31
0.0
  0
LINE
  5
   23D
  8
0
  6
CONTINUOUS
 62
     7
 10
-342.864242553711
 20
2.78213500976563
 30
0.0
 11
-376.86425933838
 21
2.78213500976563
 31
0.0
  0
LINE
  5
   23E
  8
0
  6
CONTINUOUS
 62
     7
 10
-342.864242553711
 20
-2.71786499023438
 30
0.0
 11
-376.86425933838
 21
-2.71786499023438
 31
0.0
  0
LINE
  5
   23F
  8
0
  6
CONTINUOUS
 62
     7
 10
-374.248213055586
 20
2.78214009437699
 30
0.0
 11
-378.364225452591
 21
3.88502580744542
 31
0.0
  0
LINE
  5
   240
  8
0
  6
CONTINUOUS
 62
     7
 10
-378.3642231456
 20
-3.82074662027073
 30
0.0
 11
-374.248210653822
 21
-2.71786445587454
 31
0.0
  0
LINE
  5
   241
  8
0
  6
CONTINUOUS
 62
     7
 10
-342.364250183106
 20
4.28213500976563
 30
0.0
 11
-346.364250183106
 21
4.28213500976563
 31
0.0
  0
LINE
  5
   242
  8
0
  6
CONTINUOUS
 62
     7
 10
-346.364250183106
 20
4.28213500976563
 30
0.0
 11
-346.364250183106
 21
25.5321273803711
 31
0.0
  0
LINE
  5
   243
  8
0
  6
CONTINUOUS
 62
     7
 10
-377.864227294922
 20
0.282135009765625
 30
0.0
 11
-377.864227294922
 21
3.75104522705078
 31
0.0
  0
LINE
  5
   244
  8
0
  6
CONTINUOUS
 62
     7
 10
-377.864234337422
 20
-3.68677023684004
 30
0.0
 11
-377.864226708034
 21
-3.21786001955488
 31
0.0
  0
LINE
  5
   245
  8
0
  6
CONTINUOUS
 62
     2
 10
-378.364227294922
 20
4.28213500976563
 30
0.0
 11
-379.364227294922
 21
4.28213500976563
 31
0.0
  0
LINE
  5
   246
  8
0
  6
CONTINUOUS
 62
     2
 10
-378.364227294922
 20
7.03213500976563
 30
0.0
 11
-379.364227294922
 21
7.03213500976563
 31
0.0
  0
LINE
  5
   247
  8
0
  6
CONTINUOUS
 62
     7
 10
-342.364260988104
 20
-3.21784547713767
 30
0.0
 11
-342.864253342412
 21
-2.71785312283012
 31
0.0
  0
LINE
  5
   248
  8
0
  6
CONTINUOUS
 62
     7
 10
-342.864248871973
 20
2.78213571074397
 30
0.0
 11
-342.364248889088
 21
3.28213569362966
 31
0.0
  0
LINE
  5
   249
  8
0
  6
CONTINUOUS
 62
     2
 10
-377.364227294922
 20
-12.9678497314447
 30
0.0
 11
-379.364227294922
 21
-12.9678497314447
 31
0.0
  0
LINE
  5
   24A
  8
0
  6
CONTINUOUS
 62
     7
 10
-378.364242553711
 20
-5.96786499023438
 30
0.0
 11
-378.364242553711
 21
-3.96786499023438
 31
0.0
  0
LINE
  5
   24B
  8
0
  6
CONTINUOUS
 62
     7
 10
-342.364250183106
 20
-10.4678497314453
 30
0.0
 11
-347.364242553711
 21
-10.4678497314453
 31
0.0
  0
LINE
  5
   24C
  8
0
  6
CONTINUOUS
 62
     7
 10
-347.364242553711
 20
-12.9678497314453
 30
0.0
 11
-347.364242553711
 21
-10.4678497314453
 31
0.0
  0
LINE
  5
   24D
  8
0
  6
CONTINUOUS
 62
     7
 10
-378.364242553711
 20
-11.717840271014
 30
0.0
 11
-378.364242553711
 21
-5.96786499023438
 31
0.0
  0
LINE
  5
   24E
  8
0
  6
CONTINUOUS
 62
     2
 10
-378.364242553711
 20
58.5321044921875
 30
0.0
 11
-378.614227294922
 21
58.5321044921875
 31
0.0
  0
LINE
  5
   24F
  8
0
  6
CONTINUOUS
 62
     7
 10
-378.364234924316
 20
23.2821350097656
 30
0.0
 11
-378.614227294922
 21
23.2821350097656
 31
0.0
  0
LINE
  5
   250
  8
0
  6
CONTINUOUS
 62
     7
 10
-378.364227294922
 20
7.28213691711426
 30
0.0
 11
-378.614227294922
 21
7.28213691711426
 31
0.0
  0
LINE
  5
   251
  8
0
  6
CONTINUOUS
 62
     7
 10
-377.864227294922
 20
3.53213548660278
 30
0.0
 11
-378.614227294922
 21
3.53213548660278
 31
0.0
  0
LINE
  5
   252
  8
0
  6
CONTINUOUS
 62
     7
 10
-378.364242553711
 20
-4.46785736083984
 30
0.0
 11
-378.614227294922
 21
-4.46785736083984
 31
0.0
  0
LINE
  5
   253
  8
0
  6
CONTINUOUS
 62
     2
 10
-378.614227294922
 20
-11.2678449559891
 30
0.0
 11
-378.614227294922
 21
4.28212738037109
 31
0.0
  0
LINE
  5
   254
  8
0
  6
CONTINUOUS
 62
     2
 10
-378.614227294922
 20
7.03212738037109
 30
0.0
 11
-378.614227294922
 21
58.532096862793
 31
0.0
  0
LINE
  5
   255
  8
0
  6
CONTINUOUS
 62
     7
 10
-377.864227294922
 20
49.0321273803711
 30
0.0
 11
-377.864227294922
 21
56.5321044921875
 31
0.0
  0
LINE
  5
   256
  8
0
  6
CONTINUOUS
 62
     7
 10
-377.864227294922
 20
31.5321502685547
 30
0.0
 11
-377.864227294922
 21
39.0321426391602
 31
0.0
  0
LINE
  5
   257
  8
0
  6
CONTINUOUS
 62
     7
 10
-377.864227294922
 20
-3.21782684326172
 30
0.0
 11
-377.864227294922
 21
0.282173156738281
 31
0.0
  0
LINE
  5
   258
  8
0
  6
CONTINUOUS
 62
     2
 10
-378.414231199438
 20
-11.467841051473
 30
0.0
 11
-378.614228145375
 21
-11.2678441055361
 31
0.0
  0
LINE
  5
   259
  8
0
  6
CONTINUOUS
 62
     2
 10
-378.364227294922
 20
66.5321044921875
 30
0.0
 11
-379.364227294922
 21
66.5321044921875
 31
0.0
  0
LINE
  5
   25A
  8
0
  6
CONTINUOUS
 62
     2
 10
-378.364227294922
 20
72.0321044921875
 30
0.0
 11
-379.364227294922
 21
72.0321044921875
 31
0.0
  0
LINE
  5
   25B
  8
0
  6
CONTINUOUS
 62
     2
 10
-378.364227294922
 20
70.6879272460938
 30
0.0
 11
-379.364227294922
 21
70.6879272460938
 31
0.0
  0
LINE
  5
   25C
  8
0
  6
CONTINUOUS
 62
     2
 10
-378.364227294922
 20
68.8394165039063
 30
0.0
 11
-379.364227294922
 21
68.8394165039063
 31
0.0
  0
LINE
  5
   25D
  8
0
  6
CONTINUOUS
 62
     7
 10
-343.864257812501
 20
32.7821024035454
 30
0.0
 11
-343.864257812501
 21
60.032125291729
 31
0.0
  0
LINE
  5
   25E
  8
0
  6
CONTINUOUS
 62
     7
 10
-329.864280700689
 20
68.0321190389122
 30
0.0
 11
-329.864280700689
 21
80.0321190389123
 31
0.0
  0
LINE
  5
   25F
  8
0
  6
CONTINUOUS
 62
     7
 10
-329.864242553711
 20
68.0321215820136
 30
0.0
 11
-330.114242553711
 21
68.0321215820136
 31
0.0
  0
LINE
  5
   260
  8
0
  6
CONTINUOUS
 62
     7
 10
-330.114242553711
 20
67.7821215820136
 30
0.0
 11
-330.114242553711
 21
68.0321215820136
 31
0.0
  0
LINE
  5
   261
  8
0
  6
CONTINUOUS
 62
     7
 10
-342.364242553711
 20
67.2821139526191
 30
0.0
 11
-342.364242553711
 21
67.7821215820136
 31
0.0
  0
LINE
  5
   262
  8
0
  6
CONTINUOUS
 62
     7
 10
-329.864238739019
 20
80.0321368407945
 30
0.0
 11
-342.364238739019
 21
80.0321368407945
 31
0.0
  0
LINE
  5
   263
  8
0
  6
CONTINUOUS
 62
     7
 10
-331.114242553711
 20
67.7821215820136
 30
0.0
 11
-331.26424407959
 21
67.7821215820136
 31
0.0
  0
LINE
  5
   264
  8
0
  6
CONTINUOUS
 62
     7
 10
-342.364242553711
 20
67.2821292114081
 30
0.0
 11
-343.864242553711
 21
67.2821292114081
 31
0.0
  0
LINE
  5
   265
  8
0
  6
CONTINUOUS
 62
     7
 10
-343.864242553711
 20
60.0321292114081
 30
0.0
 11
-343.864242553711
 21
67.2821292114081
 31
0.0
  0
LINE
  5
   266
  8
0
  6
CONTINUOUS
 62
     7
 10
-342.364265441895
 20
-9.96786315919734
 30
0.0
 11
-342.364265441895
 21
-6.32955749513484
 31
0.0
  0
LINE
  5
   267
  8
0
  6
CONTINUOUS
 62
     7
 10
-343.864250183105
 20
26.7821215820136
 30
0.0
 11
-343.864250183105
 21
32.7821063232245
 31
0.0
  0
LINE
  5
   268
  8
0
  6
CONTINUOUS
 62
     7
 10
-343.864250183105
 20
25.5321063232245
 30
0.0
 11
-344.364250183106
 21
25.5321063232245
 31
0.0
  0
LINE
  5
   269
  8
0
  6
CONTINUOUS
 62
     7
 10
-331.264259716397
 20
-11.4678479003976
 30
0.0
 11
-342.364265819913
 21
-11.4678479003976
 31
0.0
  0
LINE
  5
   26A
  8
0
  6
CONTINUOUS
 62
     7
 10
-342.364265441895
 20
-11.4678631591973
 30
0.0
 11
-342.364265441895
 21
-9.96786315919734
 31
0.0
  0
LINE
  5
   26B
  8
0
  6
CONTINUOUS
 62
     7
 10
-342.3642578125
 20
-6.32955749513484
 30
0.0
 11
-342.3642578125
 21
-2.8428585540556
 31
0.0
  0
LINE
  5
   26C
  8
0
  6
CONTINUOUS
 62
     7
 10
-331.114265441895
 20
-12.9678707885919
 30
0.0
 11
-331.114265441895
 21
-11.4678707885919
 31
0.0
  0
LINE
  5
   26D
  8
0
  6
CONTINUOUS
 62
     7
 10
-331.114265441895
 20
-11.4678707885919
 30
0.0
 11
-331.264259308577
 21
-11.4678707885919
 31
0.0
  0
LINE
  5
   26E
  8
0
  6
CONTINUOUS
 62
     7
 10
-344.364250183106
 20
25.5321063232245
 30
0.0
 11
-346.364250183106
 21
25.5321063232245
 31
0.0
  0
LINE
  5
   26F
  8
0
  6
CONTINUOUS
 62
     7
 10
-343.864250183105
 20
25.5321063232245
 30
0.0
 11
-343.864250183105
 21
26.7821215820136
 31
0.0
  0
LINE
  5
   270
  8
0
  6
CONTINUOUS
 62
     7
 10
-331.264261417556
 20
-2.84284790039968
 30
0.0
 11
-342.364259891677
 21
-2.84284790039968
 31
0.0
  0
LINE
  5
   271
  8
0
  6
CONTINUOUS
 62
     7
 10
-331.264265094787
 20
2.90715209959895
 30
0.0
 11
-342.364263568908
 21
2.90715209959895
 31
0.0
  0
LINE
  5
   272
  8
0
  6
CONTINUOUS
 62
     7
 10
-341.714745088839
 20
-9.59285460086776
 30
0.0
 11
-341.614265978604
 21
-9.21785460604491
 31
0.0
  0
LINE
  5
   273
  8
0
  6
CONTINUOUS
 62
     7
 10
-341.989260770954
 20
-9.86737913359736
 30
0.0
 11
-341.714747544454
 21
-9.59285827087823
 31
0.0
  0
LINE
  5
   274
  8
0
  6
CONTINUOUS
 62
     7
 10
-342.364274084593
 20
-9.96785144135736
 30
0.0
 11
-341.989266470319
 21
-9.86737232347598
 31
0.0
  0
LINE
  5
   275
  8
0
  6
CONTINUOUS
 62
     7
 10
-341.989262292436
 20
-4.06834119695036
 30
0.0
 11
-342.364262289686
 21
-3.9678544504231
 31
0.0
  0
LINE
  5
   276
  8
0
  6
CONTINUOUS
 62
     7
 10
-341.714749702095
 20
-4.34285862565935
 30
0.0
 11
-341.989262932415
 21
-4.06834539533936
 31
0.0
  0
LINE
  5
   277
  8
0
  6
CONTINUOUS
 62
     7
 10
-341.614271168526
 20
-4.71785793049319
 30
0.0
 11
-341.714757915053
 21
-4.34285793324285
 31
0.0
  0
LINE
  5
   278
  8
0
  6
CONTINUOUS
 62
     7
 10
-341.61426968043
 20
-9.21786018983208
 30
0.0
 11
-341.614262051036
 21
-4.71786018983208
 31
0.0
  0
LINE
  5
   279
  8
0
  6
CONTINUOUS
 62
     7
 10
-331.26425933838
 20
-11.4678707885919
 30
0.0
 11
-331.26425933838
 21
67.782115325621
 31
0.0
  0
LINE
  5
   27A
  8
0
  6
CONTINUOUS
 62
     7
 10
-331.264236450195
 20
78.6321276855292
 30
0.0
 11
-378.364224709967
 21
78.6321276855292
 31
0.0
  0
LINE
  5
   27B
  8
0
  6
CONTINUOUS
 62
     7
 10
-331.264289855964
 20
67.7821181365306
 30
0.0
 11
-331.264289855964
 21
78.6321242400462
 31
0.0
  0
LINE
  5
   27C
  8
0
  6
CONTINUOUS
 62
     7
 10
-342.364242553711
 20
67.7821292114081
 30
0.0
 11
-342.364242553711
 21
78.6321276855292
 31
0.0
  0
LINE
  5
   27D
  8
0
  6
CONTINUOUS
 62
     7
 10
-323.114234924316
 20
42.5321444701972
 30
0.0
 11
-323.114234924316
 21
42.6571444701972
 31
0.0
  0
LINE
  5
   27E
  8
0
  6
CONTINUOUS
 62
     7
 10
-325.864232063294
 20
43.6571444701972
 30
0.0
 11
-327.614234924316
 21
43.6571444701972
 31
0.0
  0
LINE
  5
   27F
  8
0
  6
CONTINUOUS
 62
     7
 10
-325.864232063294
 20
-8.84284027101375
 30
0.0
 11
-327.614234924316
 21
-8.84284027101375
 31
0.0
  0
LINE
  5
   280
  8
0
  6
CONTINUOUS
 62
     7
 10
-331.114234924316
 20
-16.9678402710137
 30
0.0
 11
-331.114234924316
 21
-11.4678707885919
 31
0.0
  0
LINE
  5
   281
  8
0
  6
CONTINUOUS
 62
     7
 10
-328.614234924316
 20
-16.9678402710137
 30
0.0
 11
-328.614234924316
 21
-8.84284027101375
 31
0.0
  0
LINE
  5
   282
  8
0
  6
CONTINUOUS
 62
     7
 10
-328.614234924316
 20
43.6571444701972
 30
0.0
 11
-328.614234924316
 21
67.7821444701972
 31
0.0
  0
LINE
  5
   283
  8
0
  6
CONTINUOUS
 62
     7
 10
-328.614234924316
 20
67.7821444701972
 30
0.0
 11
-331.114234924316
 21
67.7821444701972
 31
0.0
  0
LINE
  5
   284
  8
0
  6
CONTINUOUS
 62
     7
 10
-328.614234924316
 20
-16.9678402710137
 30
0.0
 11
-331.114234924316
 21
-16.9678402710137
 31
0.0
  0
LINE
  5
   285
  8
0
  6
CONTINUOUS
 62
     7
 10
-327.614234924316
 20
-8.84284027101375
 30
0.0
 11
-327.614234924316
 21
43.6571444701972
 31
0.0
  0
LINE
  5
   286
  8
0
  6
CONTINUOUS
 62
     7
 10
-327.614234924316
 20
-8.84284027101375
 30
0.0
 11
-328.614234924316
 21
-8.84284027101375
 31
0.0
  0
LINE
  5
   287
  8
0
  6
CONTINUOUS
 62
     7
 10
-327.614234924316
 20
43.6571444701972
 30
0.0
 11
-328.614234924316
 21
43.6571444701972
 31
0.0
  0
LINE
  5
   288
  8
0
  6
CONTINUOUS
 62
     7
 10
-331.264270918494
 20
3.18212153361677
 30
0.0
 11
-331.114269399571
 21
3.19524409060417
 31
0.0
  0
LINE
  5
   289
  8
0
  6
CONTINUOUS
 62
     7
 10
-331.114243613535
 20
-3.13099118193863
 30
0.0
 11
-331.264245136653
 21
-3.11786099553225
 31
0.0
  0
LINE
  5
   28A
  8
0
  6
CONTINUOUS
 62
     7
 10
-342.3642578125
 20
2.90714144594576
 30
0.0
 11
-342.3642578125
 21
4.28212158201359
 31
0.0
  0
LINE
  5
   28B
  8
0
  6
CONTINUOUS
 62
   218
 10
-331.264236927032
 20
-45.5678406524837
 30
0.0
 11
-378.364227771759
 21
-45.5678406524837
 31
0.0
  0
LINE
  5
   28C
  8
0
  6
CONTINUOUS
 62
     2
 10
-377.364227294922
 20
-11.717840271014
 30
0.0
 11
-379.364227294922
 21
-11.717840271014
 31
0.0
  0
LINE
  5
   28D
  8
0
  6
CONTINUOUS
 62
     7
 10
-331.264228820801
 20
-11.717840271014
 30
0.0
 11
-339.864234924316
 21
-11.717840271014
 31
0.0
  0
LINE
  5
   28E
  8
0
  6
CONTINUOUS
 62
   218
 10
-329.864227294922
 20
-46.967840271014
 30
0.0
 11
-329.864227294922
 21
-34.9678479004085
 31
0.0
  0
LINE
  5
   28F
  8
0
  6
CONTINUOUS
 62
     2
 10
-377.364227294922
 20
-12.967840271014
 30
0.0
 11
-377.364227294922
 21
-11.717840271014
 31
0.0
  0
LINE
  5
   290
  8
0
  6
CONTINUOUS
 62
   218
 10
-331.264232921914
 20
-32.9678479008563
 30
0.0
 11
-331.114234924451
 21
-32.9678461402545
 31
0.0
  0
LINE
  5
   291
  8
0
  6
CONTINUOUS
 62
   218
 10
-329.114234924316
 20
-34.9678479004085
 30
0.0
 11
-331.264228820801
 21
-34.9678479004085
 31
0.0
  0
LINE
  5
   292
  8
0
  6
CONTINUOUS
 62
   218
 10
-331.264228820801
 20
-45.5678387451351
 30
0.0
 11
-331.264228820801
 21
-32.967840271014
 31
0.0
  0
LINE
  5
   293
  8
0
  6
CONTINUOUS
 62
   218
 10
-331.264228820801
 20
-32.967840271014
 30
0.0
 11
-331.264228820801
 21
-11.717840271014
 31
0.0
  0
LINE
  5
   294
  8
0
  6
CONTINUOUS
 62
     7
 10
-331.114234924316
 20
-17.467840271014
 30
0.0
 11
-331.264228820801
 21
-17.467840271014
 31
0.0
  0
LINE
  5
   295
  8
0
  6
CONTINUOUS
 62
   218
 10
-379.364227294964
 20
-29.9678478999138
 30
0.0
 11
-378.364227771824
 21
-29.9678402705192
 31
0.0
  0
LINE
  5
   296
  8
0
  6
CONTINUOUS
 62
   218
 10
-378.364227771759
 20
-48.2178402710137
 30
0.0
 11
-378.364227771759
 21
-29.9678479004083
 31
0.0
  0
LINE
  5
   297
  8
0
  6
CONTINUOUS
 62
   218
 10
-378.364227294922
 20
-35.3428479004085
 30
0.0
 11
-379.364227294922
 21
-35.3428479004085
 31
0.0
  0
LINE
  5
   298
  8
0
  6
CONTINUOUS
 62
     7
 10
-342.364240645286
 20
-11.7178402687587
 30
0.0
 11
-342.364233015891
 21
-10.7178402687358
 31
0.0
  0
LINE
  5
   299
  8
0
  6
CONTINUOUS
 62
     7
 10
-342.364227294922
 20
-10.717840271014
 30
0.0
 11
-347.364227294922
 21
-10.717840271014
 31
0.0
  0
LINE
  5
   29A
  8
0
  6
CONTINUOUS
 62
     7
 10
-339.864234924316
 20
-11.717840271014
 30
0.0
 11
-342.364234924316
 21
-11.717840271014
 31
0.0
  0
LINE
  5
   29B
  8
0
  6
CONTINUOUS
 62
   218
 10
-378.364227294922
 20
-39.7016435432613
 30
0.0
 11
-379.364227294922
 21
-39.7016435432613
 31
0.0
  0
LINE
  5
   29C
  8
0
  6
CONTINUOUS
 62
   218
 10
-378.364227294922
 20
-38.4751492309749
 30
0.0
 11
-379.364227294922
 21
-38.4751492309749
 31
0.0
  0
LINE
  5
   29D
  8
0
  6
CONTINUOUS
 62
     7
 10
-328.614234924316
 20
-17.2178402710137
 30
0.0
 11
-331.114234924316
 21
-17.2178402710137
 31
0.0
  0
LINE
  5
   29E
  8
0
  6
CONTINUOUS
 62
     7
 10
-328.614234924316
 20
-34.7178402710137
 30
0.0
 11
-331.114234924316
 21
-34.7178402710137
 31
0.0
  0
LINE
  5
   29F
  8
0
  6
CONTINUOUS
 62
     7
 10
-328.614234924316
 20
-34.7178402710137
 30
0.0
 11
-328.614234924316
 21
-17.2178402710137
 31
0.0
  0
LINE
  5
   2A0
  8
0
  6
CONTINUOUS
 62
     7
 10
-329.614234924316
 20
-34.7178402710137
 30
0.0
 11
-329.614234924316
 21
-17.2178402710137
 31
0.0
  0
LINE
  5
   2A1
  8
0
  6
CONTINUOUS
 62
     7
 10
-331.114234924316
 20
-34.7178402710137
 30
0.0
 11
-331.114234924316
 21
-17.2178402710137
 31
0.0
  0
ARC
  5
   2A2
  8
0
  6
CONTINUOUS
 62
     7
 10
-312.77670853906
 20
6.38521899645478
 30
0.0
 40
0.499999897877905
 50
348.623573369035
 51
436.688788706936
  0
ARC
  5
   2A3
  8
0
  6
CONTINUOUS
 62
     7
 10
-313.375080738978
 20
3.41131001245593
 30
0.0
 40
0.50000037262337
 50
260.593992196011
 51
348.623573369035
  0
LINE
  5
   2A4
  8
0
  6
DASHDOT
 62
     7
 10
-305.376416213286
 20
3.33088835855752
 30
0.0
 11
-330.43475944774
 21
8.37280852645577
 31
0.0
  0
LINE
  5
   2A5
  8
0
  6
CONTINUOUS
 62
     7
 10
-312.661588566713
 20
6.87178546615347
 30
0.0
 11
-323.114234924317
 21
9.34484605412531
 31
0.0
  0
LINE
  5
   2A6
  8
0
  6
CONTINUOUS
 62
     7
 10
-312.884904294098
 20
3.31268296117216
 30
0.0
 11
-312.286532258473
 21
6.286591978228
 31
0.0
  0
LINE
  5
   2A7
  8
0
  6
CONTINUOUS
 62
     7
 10
-313.456795477572
 20
2.91803228958453
 30
0.0
 11
-323.114234924317
 21
4.51785142448582
 31
0.0
  0
LINE
  5
   2A8
  8
0
  6
CONTINUOUS
 62
     7
 10
-376.86425933838
 20
-2.71786499023438
 30
0.0
 11
-376.86425933838
 21
2.78213500976563
 31
0.0
  0
LINE
  5
   2A9
  8
0
  6
CONTINUOUS
 62
     2
 10
-342.3642578125
 20
80.0321273803711
 30
0.0
 11
-378.364227294922
 21
80.0321273803711
 31
0.0
  0
ARC
  5
   2AA
  8
0
  6
CONTINUOUS
 62
     7
 10
-349.864234924316
 20
12.2821597289863
 30
0.0
 40
38.0220413050115
 50
333.082565820193
 51
379.93594827737
  0
LINE
  5
   2AB
  8
0
  6
CONTINUOUS
 62
     7
 10
-311.842193619305
 20
12.2821597289862
 30
0.0
 11
-311.842193619305
 21
33.9567992444185
 31
0.0
  0
LINE
  5
   2AC
  8
0
  6
CONTINUOUS
 62
   218
 10
-329.864227771759
 20
-46.9678402710137
 30
0.0
 11
-378.364227771759
 21
-46.9678402710137
 31
0.0
  0
LINE
  5
   2AD
  8
0
  6
CONTINUOUS
 62
     7
 10
-347.364242553711
 20
-12.9678497314447
 30
0.0
 11
-377.364227294922
 21
-12.9678497314447
 31
0.0
  0
LINE
  5
   2AE
  8
0
  6
CONTINUOUS
 62
     7
 10
-379.364227294981
 20
-29.9678479000317
 30
0.0
 11
-379.364227294981
 21
-11.7178402711319
 31
0.0
  0
LINE
  5
   2AF
  8
0
  6
CONTINUOUS
 62
     7
 10
-379.364227294922
 20
-39.701643543262
 30
0.0
 11
-379.364227294922
 21
-35.3428479004092
 31
0.0
  0
LINE
  5
   2B0
  8
0
  6
CONTINUOUS
 62
     7
 10
-379.364227294922
 20
4.28213500976562
 30
0.0
 11
-379.364227294922
 21
7.03213500976562
 31
0.0
  0
LINE
  5
   2B1
  8
0
  6
CONTINUOUS
 62
     7
 10
-379.364227294922
 20
66.5321044921875
 30
0.0
 11
-379.364227294922
 21
72.0321044921875
 31
0.0
  0
LINE
  5
   2B2
  8
0
  6
CONTINUOUS
 62
     7
 10
-403.364250183106
 20
64.7821273803711
 30
0.0
 11
-403.364250183106
 21
77.2821273803711
 31
0.0
  0
LINE
  5
   2B3
  8
0
  6
CONTINUOUS
 62
     7
 10
-403.364250183106
 20
-44.2178645133972
 30
0.0
 11
-403.364250183106
 21
-31.7178721427917
 31
0.0
  0
LINE
  5
   2B4
  8
0
  6
CONTINUOUS
 62
     7
 10
-379.364227294922
 20
-46.9678802490234
 30
0.0
 11
-386.114219665527
 21
-46.9678802490234
 31
0.0
  0
LINE
  5
   2B5
  8
0
  6
CONTINUOUS
 62
     7
 10
-397.864250074727
 20
-46.9678845790236
 30
0.0
 11
-386.114227294922
 21
-46.9678748876442
 31
0.0
  0
LINE
  5
   2B6
  8
0
  6
CONTINUOUS
 62
     7
 10
-379.364227294922
 20
80.0321273803711
 30
0.0
 11
-397.864250183106
 21
80.0321273803711
 31
0.0
  0
LINE
  5
   2B7
  8
0
  6
CONTINUOUS
 62
     7
 10
-379.364227294922
 20
-37.9678802490234
 30
0.0
 11
-379.364227294922
 21
-26.4678726196289
 31
0.0
  0
LINE
  5
   2B8
  8
0
  6
CONTINUOUS
 62
     7
 10
-379.364227294922
 20
-46.9678802490234
 30
0.0
 11
-379.364227294922
 21
-45.5678558349609
 31
0.0
  0
LINE
  5
   2B9
  8
0
  6
CONTINUOUS
 62
     7
 10
-379.364227294922
 20
78.6321411132813
 30
0.0
 11
-379.364227294922
 21
80.0321273803711
 31
0.0
  0
LINE
  5
   2BA
  8
0
  6
CONTINUOUS
 62
     7
 10
-379.364227294922
 20
59.5321273803711
 30
0.0
 11
-379.364227294922
 21
71.0321426391602
 31
0.0
  0
LINE
  5
   2BB
  8
0
  6
CONTINUOUS
 62
     7
 10
-379.364227294922
 20
26.5321273803711
 30
0.0
 11
-379.364227294922
 21
59.5321273803711
 31
0.0
  0
LINE
  5
   2BC
  8
0
  6
CONTINUOUS
 62
     7
 10
-379.364227294922
 20
6.53213500976563
 30
0.0
 11
-379.364227294922
 21
26.5321273803711
 31
0.0
  0
LINE
  5
   2BD
  8
0
  6
CONTINUOUS
 62
     7
 10
-379.364227294922
 20
-26.4678649902344
 30
0.0
 11
-379.364227294922
 21
6.53213500976563
 31
0.0
  0
LINE
  5
   2BE
  8
0
  6
CONTINUOUS
 62
     7
 10
-397.864250183106
 20
34.5321273803711
 30
0.0
 11
-397.864250183106
 21
46.5321273803711
 31
0.0
  0
LINE
  5
   2BF
  8
0
  6
CONTINUOUS
 62
     7
 10
-397.864250183106
 20
78.6321182250977
 30
0.0
 11
-397.864250183106
 21
80.0321273803711
 31
0.0
  0
LINE
  5
   2C0
  8
0
  6
CONTINUOUS
 62
     7
 10
-397.864250183106
 20
34.5321273803711
 30
0.0
 11
-401.114250183106
 21
34.5321273803711
 31
0.0
  0
LINE
  5
   2C1
  8
0
  6
CONTINUOUS
 62
     7
 10
-401.114257787393
 20
-1.46789524291061
 30
0.0
 11
-401.114257469502
 21
0.0321044921875
 31
0.0
  0
LINE
  5
   2C2
  8
0
  6
CONTINUOUS
 62
     7
 10
-397.864250183106
 20
-46.967887878418
 30
0.0
 11
-397.864250183106
 21
-45.5678668022156
 31
0.0
  0
LINE
  5
   2C3
  8
0
  6
CONTINUOUS
 62
     7
 10
-397.864250183106
 20
-44.2178645133972
 30
0.0
 11
-397.864250183106
 21
-31.7178649902344
 31
0.0
  0
LINE
  5
   2C4
  8
0
  6
CONTINUOUS
 62
     7
 10
-404.114250183106
 20
46.5321273803711
 30
0.0
 11
-404.114250183106
 21
54.0321273803711
 31
0.0
  0
LINE
  5
   2C5
  8
0
  6
CONTINUOUS
 62
     7
 10
-404.114250183106
 20
-20.9678421020508
 30
0.0
 11
-404.114250183106
 21
-13.4678421020508
 31
0.0
  0
LINE
  5
   2C6
  8
0
  6
CONTINUOUS
 62
     7
 10
-397.8642578125
 20
-4.9678955078125
 30
0.0
 11
-401.1142578125
 21
-4.9678955078125
 31
0.0
  0
LINE
  5
   2C7
  8
0
  6
CONTINUOUS
 62
     7
 10
-401.1142578125
 20
-4.9678955078125
 30
0.0
 11
-401.1142578125
 21
-1.4678955078125
 31
0.0
  0
LINE
  5
   2C8
  8
0
  6
CONTINUOUS
 62
     7
 10
-401.114250183106
 20
0.0321044921875
 30
0.0
 11
-403.114250183105
 21
0.0321044921875
 31
0.0
  0
LINE
  5
   2C9
  8
0
  6
CONTINUOUS
 62
     7
 10
-401.114250183106
 20
3.53209686279297
 30
0.0
 11
-403.114250183105
 21
3.53209686279297
 31
0.0
  0
LINE
  5
   2CA
  8
0
  6
CONTINUOUS
 62
     7
 10
-379.864205172047
 20
2.78211553231138
 30
0.0
 11
-401.114250948415
 21
2.78212316170499
 31
0.0
  0
LINE
  5
   2CB
  8
0
  6
CONTINUOUS
 62
     7
 10
-379.864207522787
 20
2.78211454921142
 30
0.0
 11
-379.364222796972
 21
3.28212216058866
 31
0.0
  0
LINE
  5
   2CC
  8
0
  6
CONTINUOUS
 62
     7
 10
-379.864212036133
 20
-2.71786499023438
 30
0.0
 11
-401.1142578125
 21
-2.71786499023438
 31
0.0
  0
LINE
  5
   2CD
  8
0
  6
CONTINUOUS
 62
     7
 10
-379.364218450339
 20
-3.21787954578087
 30
0.0
 11
-379.864203176154
 21
-2.71787193440363
 31
0.0
  0
LINE
  5
   2CE
  8
0
  6
CONTINUOUS
 62
     7
 10
-379.364227294922
 20
78.6321334838867
 30
0.0
 11
-397.864250183106
 21
78.6321334838867
 31
0.0
  0
LINE
  5
   2CF
  8
0
  6
CONTINUOUS
 62
     7
 10
-379.364227294922
 20
71.0321273803711
 30
0.0
 11
-379.364227294922
 21
78.6321334838867
 31
0.0
  0
LINE
  5
   2D0
  8
0
  6
CONTINUOUS
 62
     7
 10
-397.864250183106
 20
71.0321350097656
 30
0.0
 11
-397.864250183106
 21
77.2821273803711
 31
0.0
  0
LINE
  5
   2D1
  8
0
  6
CONTINUOUS
 62
     7
 10
-379.364227294922
 20
-45.5678648948669
 30
0.0
 11
-397.864250183106
 21
-45.5678648948669
 31
0.0
  0
LINE
  5
   2D2
  8
0
  6
CONTINUOUS
 62
     7
 10
-379.364227294922
 20
-45.5678648948669
 30
0.0
 11
-379.364227294922
 21
-37.967887878418
 31
0.0
  0
LINE
  5
   2D3
  8
0
  6
CONTINUOUS
 62
     7
 10
-397.864250183106
 20
-45.5678648948669
 30
0.0
 11
-397.864250183106
 21
-44.2178645133972
 31
0.0
  0
LINE
  5
   2D4
  8
0
  6
CONTINUOUS
 62
     3
 10
-403.114250183105
 20
-12.9678802490234
 30
0.0
 11
-403.864250183106
 21
-12.9678802490234
 31
0.0
  0
LINE
  5
   2D5
  8
0
  6
CONTINUOUS
 62
     3
 10
-403.114250183105
 20
-21.4678802490234
 30
0.0
 11
-403.864250183106
 21
-21.4678802490234
 31
0.0
  0
LINE
  5
   2D6
  8
0
  6
CONTINUOUS
 62
     3
 10
-403.114250183105
 20
-26.9678802490234
 30
0.0
 11
-403.864250183106
 21
-26.9678802490234
 31
0.0
  0
LINE
  5
   2D7
  8
0
  6
CONTINUOUS
 62
     3
 10
-403.114250183105
 20
60.0321197509766
 30
0.0
 11
-403.864250183106
 21
60.0321197509766
 31
0.0
  0
LINE
  5
   2D8
  8
0
  6
CONTINUOUS
 62
     3
 10
-403.114250183105
 20
54.5321197509766
 30
0.0
 11
-403.864250183106
 21
54.5321197509766
 31
0.0
  0
LINE
  5
   2D9
  8
0
  6
CONTINUOUS
 62
     3
 10
-403.114250183105
 20
46.0321197509766
 30
0.0
 11
-403.864250183106
 21
46.0321197509766
 31
0.0
  0
LINE
  5
   2DA
  8
0
  6
CONTINUOUS
 62
     3
 10
-403.114250183105
 20
54.0321273803711
 30
0.0
 11
-403.114250183105
 21
60.0321197509766
 31
0.0
  0
LINE
  5
   2DB
  8
0
  6
CONTINUOUS
 62
     3
 10
-403.114250183105
 20
-13.4678039550781
 30
0.0
 11
-403.114250183105
 21
46.5321426391602
 31
0.0
  0
LINE
  5
   2DC
  8
0
  6
CONTINUOUS
 62
     3
 10
-403.114250183105
 20
-26.9678802490234
 30
0.0
 11
-403.114250183105
 21
-20.9678039550781
 31
0.0
  0
LINE
  5
   2DD
  8
0
  6
CONTINUOUS
 62
     3
 10
-403.864250183106
 20
-26.9678802490234
 30
0.0
 11
-403.864250183106
 21
-20.9678497314453
 31
0.0
  0
LINE
  5
   2DE
  8
0
  6
CONTINUOUS
 62
     3
 10
-403.864250183106
 20
-13.4678573608398
 30
0.0
 11
-403.864250183106
 21
46.5320739746094
 31
0.0
  0
LINE
  5
   2DF
  8
0
  6
CONTINUOUS
 62
     3
 10
-403.864250183106
 20
54.0320892333984
 30
0.0
 11
-403.864250183106
 21
60.0321197509766
 31
0.0
  0
LINE
  5
   2E0
  8
0
  6
CONTINUOUS
 62
     7
 10
-397.864250183106
 20
77.2821273803711
 30
0.0
 11
-403.364250183106
 21
77.2821273803711
 31
0.0
  0
LINE
  5
   2E1
  8
0
  6
CONTINUOUS
 62
     7
 10
-397.864250183106
 20
64.7821273803711
 30
0.0
 11
-403.364250183106
 21
64.7821273803711
 31
0.0
  0
LINE
  5
   2E2
  8
0
  6
CONTINUOUS
 62
     7
 10
-397.864250183106
 20
-44.2178645133972
 30
0.0
 11
-403.364250183106
 21
-44.2178645133972
 31
0.0
  0
LINE
  5
   2E3
  8
0
  6
CONTINUOUS
 62
     7
 10
-397.864250183106
 20
-31.7178649902344
 30
0.0
 11
-403.364250183106
 21
-31.7178649902344
 31
0.0
  0
LINE
  5
   2E4
  8
0
  6
CONTINUOUS
 62
     7
 10
-397.864250183106
 20
54.0321273803711
 30
0.0
 11
-403.1142578125
 21
54.0321273803711
 31
0.0
  0
LINE
  5
   2E5
  8
0
  6
CONTINUOUS
 62
     7
 10
-397.864250183106
 20
46.5321273803711
 30
0.0
 11
-403.1142578125
 21
46.5321273803711
 31
0.0
  0
LINE
  5
   2E6
  8
0
  6
CONTINUOUS
 62
     7
 10
-397.864250183106
 20
-13.4678421020508
 30
0.0
 11
-403.1142578125
 21
-13.4678421020508
 31
0.0
  0
LINE
  5
   2E7
  8
0
  6
CONTINUOUS
 62
     7
 10
-397.864250183106
 20
-20.9678421020508
 30
0.0
 11
-403.1142578125
 21
-20.9678421020508
 31
0.0
  0
LINE
  5
   2E8
  8
0
  6
CONTINUOUS
 62
     7
 10
-397.864250183106
 20
77.2821273803711
 30
0.0
 11
-397.864250183106
 21
78.6321334838867
 31
0.0
  0
LINE
  5
   2E9
  8
0
  6
CONTINUOUS
 62
     7
 10
-397.864250183106
 20
64.7821273803711
 30
0.0
 11
-397.864250183106
 21
71.032096862793
 31
0.0
  0
LINE
  5
   2EA
  8
0
  6
CONTINUOUS
 62
     7
 10
-397.864250183106
 20
54.0321273803711
 30
0.0
 11
-397.864250183106
 21
64.7821273803711
 31
0.0
  0
LINE
  5
   2EB
  8
0
  6
CONTINUOUS
 62
     7
 10
-397.864250183106
 20
46.5321273803711
 30
0.0
 11
-397.864250183106
 21
54.0321273803711
 31
0.0
  0
LINE
  5
   2EC
  8
0
  6
CONTINUOUS
 62
     7
 10
-401.114256727757
 20
3.53209686279297
 30
0.0
 11
-401.114250158
 21
34.5321200158785
 31
0.0
  0
LINE
  5
   2ED
  8
0
  6
CONTINUOUS
 62
     7
 10
-401.114257469502
 20
0.0321044921875
 30
0.0
 11
-401.114256727757
 21
3.53209686279297
 31
0.0
  0
LINE
  5
   2EE
  8
0
  6
CONTINUOUS
 62
     7
 10
-397.864250183106
 20
-4.9678955078125
 30
0.0
 11
-397.864250183106
 21
-3.21788024902344
 31
0.0
  0
LINE
  5
   2EF
  8
0
  6
CONTINUOUS
 62
     7
 10
-397.864250183106
 20
-13.4678421020508
 30
0.0
 11
-397.864250183106
 21
-4.9678955078125
 31
0.0
  0
LINE
  5
   2F0
  8
0
  6
CONTINUOUS
 62
     7
 10
-397.864250183106
 20
-20.9678421020508
 30
0.0
 11
-397.864250183106
 21
-13.4678421020508
 31
0.0
  0
LINE
  5
   2F1
  8
0
  6
CONTINUOUS
 62
     7
 10
-397.864250183106
 20
-31.7178649902344
 30
0.0
 11
-397.864250183106
 21
-20.9678421020508
 31
0.0
  0
LINE
  5
   2F2
  8
0
  6
DASHDOT
 62
     7
 10
-391.490811464507
 20
50.2821273803711
 30
0.0
 11
-410.490812061864
 21
50.2821273803711
 31
0.0
  0
LINE
  5
   2F3
  8
0
  6
DASHDOT
 62
     7
 10
-391.073229033796
 20
-17.2178726196289
 30
0.0
 11
-410.908394492575
 21
-17.2178726196289
 31
0.0
  0
LINE
  5
   2F4
  8
0
  6
DASHDOT
 62
     7
 10
-404.114250183106
 20
54.0321273803711
 30
0.0
 11
-404.114250183106
 21
98.3237444713479
 31
0.0
  0
LINE
  5
   2F5
  8
0
  6
DASHDOT
 62
     7
 10
-404.114250183106
 20
-13.4678421020508
 30
0.0
 11
-404.114250183106
 21
46.5321273803711
 31
0.0
  0
LINE
  5
   2F6
  8
0
  6
DASHDOT
 62
     7
 10
-404.114250183106
 20
-58.8264436196077
 30
0.0
 11
-404.114250183106
 21
-20.9678421020508
 31
0.0
  0
LINE
  5
   2F7
  8
0
  6
DASHDOT
 62
     7
 10
-405.614250183106
 20
-58.8264436196077
 30
0.0
 11
-405.614250183106
 21
98.4629386149182
 31
0.0
  0
LINE
  5
   2F8
  8
0
  6
DASHDOT
 62
     7
 10
-400.79442395706
 20
97.2286970762133
 30
0.0
 11
-408.834034487051
 21
97.2286970762133
 31
0.0
  0
LINE
  5
   2F9
  8
0
  6
DASHDOT
 62
     7
 10
-399.313443069957
 20
-58.4858647678065
 30
0.0
 11
-408.410897090735
 21
-57.4280212770183
 31
0.0
  0
LINE
  5
   2FA
  8
0
  6
CONTINUOUS
 62
   253
 10
-403.3642578125
 20
65.0321197509766
 30
0.0
 11
-403.3642578125
 21
77.0321197509766
 31
0.0
  0
LINE
  5
   2FB
  8
0
  6
CONTINUOUS
 62
   253
 10
-411.3642578125
 20
-43.9678649902344
 30
0.0
 11
-411.3642578125
 21
-31.9678649902344
 31
0.0
  0
LINE
  5
   2FC
  8
0
  6
CONTINUOUS
 62
   253
 10
-403.364234924316
 20
-43.9678802490234
 30
0.0
 11
-403.364234924316
 21
-31.9678802490234
 31
0.0
  0
LINE
  5
   2FD
  8
0
  6
CONTINUOUS
 62
   253
 10
-411.364234924316
 20
65.5321197509766
 30
0.0
 11
-411.364234924316
 21
76.5321197509766
 31
0.0
  0
LINE
  5
   2FE
  8
0
  6
CONTINUOUS
 62
     7
 10
-444.264236450195
 20
73.8158645629883
 30
0.0
 11
-444.264236450195
 21
76.5321197509766
 31
0.0
  0
LINE
  5
   2FF
  8
0
  6
CONTINUOUS
 62
     7
 10
-444.264236450195
 20
68.3888778686523
 30
0.0
 11
-444.264236450195
 21
73.6753616333008
 31
0.0
  0
LINE
  5
   300
  8
0
  6
CONTINUOUS
 62
     7
 10
-444.264236450195
 20
65.5321197509766
 30
0.0
 11
-444.264236450195
 21
68.2483673095703
 31
0.0
  0
LINE
  5
   301
  8
0
  6
CONTINUOUS
 62
     7
 10
-445.514236450195
 20
65.5321197509766
 30
0.0
 11
-445.514236450195
 21
76.5321197509766
 31
0.0
  0
LINE
  5
   302
  8
0
  6
CONTINUOUS
 62
     7
 10
-448.514236450195
 20
65.5321197509766
 30
0.0
 11
-448.514236450195
 21
76.5321197509766
 31
0.0
  0
LINE
  5
   303
  8
0
  6
CONTINUOUS
 62
     7
 10
-449.764236450195
 20
65.5321197509766
 30
0.0
 11
-449.764236450195
 21
68.2483673095703
 31
0.0
  0
LINE
  5
   304
  8
0
  6
CONTINUOUS
 62
     7
 10
-449.764236450195
 20
68.3888778686523
 30
0.0
 11
-449.764236450195
 21
73.6753616333008
 31
0.0
  0
LINE
  5
   305
  8
0
  6
CONTINUOUS
 62
     7
 10
-449.764236450195
 20
73.8158645629883
 30
0.0
 11
-449.764236450195
 21
76.5321197509766
 31
0.0
  0
LINE
  5
   306
  8
0
  6
CONTINUOUS
 62
     7
 10
-423.764236450195
 20
65.5321197509766
 30
0.0
 11
-423.764236450195
 21
66.0321197509766
 31
0.0
  0
LINE
  5
   307
  8
0
  6
CONTINUOUS
 62
     7
 10
-423.764236450195
 20
76.0321197509766
 30
0.0
 11
-423.764236450195
 21
76.5321197509766
 31
0.0
  0
LINE
  5
   308
  8
0
  6
CONTINUOUS
 62
     7
 10
-418.264236450195
 20
76.0321197509766
 30
0.0
 11
-418.264236450195
 21
76.5321197509766
 31
0.0
  0
LINE
  5
   309
  8
0
  6
CONTINUOUS
 62
     7
 10
-418.264236450195
 20
65.5321197509766
 30
0.0
 11
-418.264236450195
 21
66.0321197509766
 31
0.0
  0
LINE
  5
   30A
  8
0
  6
CONTINUOUS
 62
     7
 10
-437.364234924316
 20
66.0321197509766
 30
0.0
 11
-437.364234924316
 21
76.0321197509766
 31
0.0
  0
LINE
  5
   30B
  8
0
  6
CONTINUOUS
 62
     7
 10
-437.764236450195
 20
66.2154083251953
 30
0.0
 11
-437.764236450195
 21
67.5952072143555
 31
0.0
  0
LINE
  5
   30C
  8
0
  6
CONTINUOUS
 62
     7
 10
-437.764236450195
 20
69.4766693115234
 30
0.0
 11
-437.764236450195
 21
72.5875701904297
 31
0.0
  0
LINE
  5
   30D
  8
0
  6
CONTINUOUS
 62
     7
 10
-437.764236450195
 20
74.4690170288086
 30
0.0
 11
-437.764236450195
 21
75.8488311767578
 31
0.0
  0
LINE
  5
   30E
  8
0
  6
CONTINUOUS
 62
     3
 10
-444.264236450195
 20
68.2483673095703
 30
0.0
 11
-444.264236450195
 21
68.3888778686523
 31
0.0
  0
LINE
  5
   30F
  8
0
  6
CONTINUOUS
 62
     3
 10
-444.264236450195
 20
73.6753616333008
 30
0.0
 11
-444.264236450195
 21
73.8158645629883
 31
0.0
  0
LINE
  5
   310
  8
0
  6
CONTINUOUS
 62
     3
 10
-441.264236450195
 20
65.5472946166992
 30
0.0
 11
-441.264236450195
 21
76.5169448852539
 31
0.0
  0
LINE
  5
   311
  8
0
  6
CONTINUOUS
 62
     3
 10
-449.764236450195
 20
73.6753616333008
 30
0.0
 11
-449.764236450195
 21
73.8158645629883
 31
0.0
  0
LINE
  5
   312
  8
0
  6
CONTINUOUS
 62
     3
 10
-449.764236450195
 20
68.2483673095703
 30
0.0
 11
-449.764236450195
 21
68.3888778686523
 31
0.0
  0
LINE
  5
   313
  8
0
  6
CONTINUOUS
 62
     3
 10
-452.764236450195
 20
65.5472946166992
 30
0.0
 11
-452.764236450195
 21
76.5169448852539
 31
0.0
  0
LINE
  5
   314
  8
0
  6
CONTINUOUS
 62
     3
 10
-440.764236450195
 20
65.5472946166992
 30
0.0
 11
-440.764236450195
 21
76.5169448852539
 31
0.0
  0
LINE
  5
   315
  8
0
  6
CONTINUOUS
 62
     3
 10
-437.764236450195
 20
75.8488388061523
 30
0.0
 11
-437.764236450195
 21
76.5169448852539
 31
0.0
  0
LINE
  5
   316
  8
0
  6
CONTINUOUS
 62
     3
 10
-437.764236450195
 20
72.5875701904297
 30
0.0
 11
-437.764236450195
 21
74.4690246582031
 31
0.0
  0
LINE
  5
   317
  8
0
  6
CONTINUOUS
 62
     3
 10
-437.764236450195
 20
67.5952072143555
 30
0.0
 11
-437.764236450195
 21
69.4766616821289
 31
0.0
  0
LINE
  5
   318
  8
0
  6
CONTINUOUS
 62
     3
 10
-437.764236450195
 20
65.5472946166992
 30
0.0
 11
-437.764236450195
 21
66.2154083251953
 31
0.0
  0
LINE
  5
   319
  8
0
  6
CONTINUOUS
 62
     3
 10
-411.764236450195
 20
76.0321197509766
 30
0.0
 11
-411.764236450195
 21
76.5169472694397
 31
0.0
  0
LINE
  5
   31A
  8
0
  6
CONTINUOUS
 62
     3
 10
-411.764236450195
 20
65.5472922325134
 30
0.0
 11
-411.764236450195
 21
66.0321197509766
 31
0.0
  0
LINE
  5
   31B
  8
0
  6
CONTINUOUS
 62
     3
 10
-403.1142578125
 20
-12.9678764343262
 30
0.0
 11
-403.8642578125
 21
-12.9678764343262
 31
0.0
  0
LINE
  5
   31C
  8
0
  6
CONTINUOUS
 62
     3
 10
-403.1142578125
 20
-21.4678764343262
 30
0.0
 11
-403.8642578125
 21
-21.4678764343262
 31
0.0
  0
LINE
  5
   31D
  8
0
  6
CONTINUOUS
 62
     3
 10
-403.1142578125
 20
-26.9678764343262
 30
0.0
 11
-403.8642578125
 21
-26.9678764343262
 31
0.0
  0
LINE
  5
   31E
  8
0
  6
CONTINUOUS
 62
     3
 10
-403.1142578125
 20
60.0321273803711
 30
0.0
 11
-403.8642578125
 21
60.0321273803711
 31
0.0
  0
LINE
  5
   31F
  8
0
  6
CONTINUOUS
 62
     3
 10
-403.1142578125
 20
54.5321273803711
 30
0.0
 11
-403.8642578125
 21
54.5321273803711
 31
0.0
  0
LINE
  5
   320
  8
0
  6
CONTINUOUS
 62
     3
 10
-403.1142578125
 20
46.0321273803711
 30
0.0
 11
-403.8642578125
 21
46.0321273803711
 31
0.0
  0
LINE
  5
   321
  8
0
  6
CONTINUOUS
 62
     3
 10
-403.1142578125
 20
-26.9678726196289
 30
0.0
 11
-403.1142578125
 21
60.0321273803711
 31
0.0
  0
LINE
  5
   322
  8
0
  6
CONTINUOUS
 62
     3
 10
-403.8642578125
 20
-26.9678764343262
 30
0.0
 11
-403.8642578125
 21
60.0321235656738
 31
0.0
  0
LINE
  5
   323
  8
0
  6
CONTINUOUS
 62
   212
 10
-454.114234924316
 20
69.0321197509766
 30
0.0
 11
-454.114234924316
 21
73.0321197509766
 31
0.0
  0
LINE
  5
   324
  8
0
  6
CONTINUOUS
 62
   253
 10
-411.3642578125
 20
65.0321197509766
 30
0.0
 11
-411.3642578125
 21
65.5321197509766
 31
0.0
  0
LINE
  5
   325
  8
0
  6
CONTINUOUS
 62
   253
 10
-411.3642578125
 20
76.5321202278137
 30
0.0
 11
-411.3642578125
 21
77.0321197509766
 31
0.0
  0
LINE
  5
   326
  8
0
  6
CONTINUOUS
 62
     7
 10
-444.264236450195
 20
-35.1841340065002
 30
0.0
 11
-444.264236450195
 21
-32.4678802490234
 31
0.0
  0
LINE
  5
   327
  8
0
  6
CONTINUOUS
 62
     7
 10
-444.264236450195
 20
-40.611123085022
 30
0.0
 11
-444.264236450195
 21
-35.3246383666992
 31
0.0
  0
LINE
  5
   328
  8
0
  6
CONTINUOUS
 62
     7
 10
-444.264236450195
 20
-43.4678802490234
 30
0.0
 11
-444.264236450195
 21
-40.7516272068024
 31
0.0
  0
LINE
  5
   329
  8
0
  6
CONTINUOUS
 62
     7
 10
-445.514236450195
 20
-43.4678802490234
 30
0.0
 11
-445.514236450195
 21
-32.4678802490234
 31
0.0
  0
LINE
  5
   32A
  8
0
  6
CONTINUOUS
 62
     7
 10
-448.514236450195
 20
-43.4678802490234
 30
0.0
 11
-448.514236450195
 21
-32.4678802490234
 31
0.0
  0
LINE
  5
   32B
  8
0
  6
CONTINUOUS
 62
     7
 10
-449.764236450195
 20
-43.4678802490234
 30
0.0
 11
-449.764236450195
 21
-40.7516262531281
 31
0.0
  0
LINE
  5
   32C
  8
0
  6
CONTINUOUS
 62
     7
 10
-449.764236450195
 20
-40.6111221313477
 30
0.0
 11
-449.764236450195
 21
-35.3246374130249
 31
0.0
  0
LINE
  5
   32D
  8
0
  6
CONTINUOUS
 62
     7
 10
-449.764236450195
 20
-35.1841332912445
 30
0.0
 11
-449.764236450195
 21
-32.4678802490234
 31
0.0
  0
LINE
  5
   32E
  8
0
  6
CONTINUOUS
 62
     7
 10
-437.364234924316
 20
-42.9678802490234
 30
0.0
 11
-437.364234924316
 21
-32.9678802490234
 31
0.0
  0
LINE
  5
   32F
  8
0
  6
CONTINUOUS
 62
     7
 10
-437.764236450195
 20
-42.7845973968506
 30
0.0
 11
-437.764236450195
 21
-41.4047837257385
 31
0.0
  0
LINE
  5
   330
  8
0
  6
CONTINUOUS
 62
     7
 10
-437.764236450195
 20
-39.5233340263367
 30
0.0
 11
-437.764236450195
 21
-36.4124255180359
 31
0.0
  0
LINE
  5
   331
  8
0
  6
CONTINUOUS
 62
     7
 10
-437.764236450195
 20
-34.5309767723084
 30
0.0
 11
-437.764236450195
 21
-33.151162147522
 31
0.0
  0
LINE
  5
   332
  8
0
  6
CONTINUOUS
 62
     3
 10
-449.764236450195
 20
-35.3246369361877
 30
0.0
 11
-449.764236450195
 21
-35.1841344833374
 31
0.0
  0
LINE
  5
   333
  8
0
  6
CONTINUOUS
 62
     3
 10
-449.764236450195
 20
-40.7516279220581
 30
0.0
 11
-449.764236450195
 21
-40.6111211776733
 31
0.0
  0
LINE
  5
   334
  8
0
  6
CONTINUOUS
 62
     3
 10
-452.764236450195
 20
-43.4527077674866
 30
0.0
 11
-452.764236450195
 21
-32.4830527305603
 31
0.0
  0
LINE
  5
   335
  8
0
  6
CONTINUOUS
 62
     3
 10
-440.764236450195
 20
-43.4527077674866
 30
0.0
 11
-440.764236450195
 21
-32.4830527305603
 31
0.0
  0
LINE
  5
   336
  8
0
  6
CONTINUOUS
 62
     3
 10
-437.764236450195
 20
-33.1511631011963
 30
0.0
 11
-437.764236450195
 21
-32.4830527305603
 31
0.0
  0
LINE
  5
   337
  8
0
  6
CONTINUOUS
 62
     3
 10
-437.764236450195
 20
-36.4124261140823
 30
0.0
 11
-437.764236450195
 21
-34.5309765338898
 31
0.0
  0
LINE
  5
   338
  8
0
  6
CONTINUOUS
 62
     3
 10
-437.764236450195
 20
-41.4047837257385
 30
0.0
 11
-437.764236450195
 21
-39.5233347415924
 31
0.0
  0
LINE
  5
   339
  8
0
  6
CONTINUOUS
 62
     3
 10
-437.764236450195
 20
-43.4527077674866
 30
0.0
 11
-437.764236450195
 21
-42.7845978736877
 31
0.0
  0
LINE
  5
   33A
  8
0
  6
CONTINUOUS
 62
     3
 10
-444.264236450195
 20
-40.7516276836395
 30
0.0
 11
-444.264236450195
 21
-40.6111209392548
 31
0.0
  0
LINE
  5
   33B
  8
0
  6
CONTINUOUS
 62
     3
 10
-444.264236450195
 20
-35.3246366977692
 30
0.0
 11
-444.264236450195
 21
-35.1841344833374
 31
0.0
  0
LINE
  5
   33C
  8
0
  6
CONTINUOUS
 62
     3
 10
-441.264236450195
 20
-43.4527077674866
 30
0.0
 11
-441.264236450195
 21
-32.4830527305603
 31
0.0
  0
LINE
  5
   33D
  8
0
  6
CONTINUOUS
 62
   212
 10
-454.114234924316
 20
-39.9678802490234
 30
0.0
 11
-454.114234924316
 21
-35.9678802490234
 31
0.0
  0
LINE
  5
   33E
  8
0
  6
CONTINUOUS
 62
   253
 10
-403.3642578125
 20
-43.9678649902344
 30
0.0
 11
-411.3642578125
 21
-43.9678649902344
 31
0.0
  0
LINE
  5
   33F
  8
0
  6
CONTINUOUS
 62
   253
 10
-403.3642578125
 20
-31.9678649902344
 30
0.0
 11
-411.3642578125
 21
-31.9678649902344
 31
0.0
  0
LINE
  5
   340
  8
0
  6
CONTINUOUS
 62
   253
 10
-411.764236450195
 20
-42.9678649902344
 30
0.0
 11
-436.8642578125
 21
-42.9678649902344
 31
0.0
  0
LINE
  5
   341
  8
0
  6
CONTINUOUS
 62
   253
 10
-411.764236450195
 20
-32.9678649902344
 30
0.0
 11
-436.8642578125
 21
-32.9678649902344
 31
0.0
  0
LINE
  5
   342
  8
0
  6
CONTINUOUS
 62
   253
 10
-437.217813345645
 20
75.8856745206063
 30
0.0
 11
-436.864259573611
 21
76.0321207488894
 31
0.0
  0
LINE
  5
   343
  8
0
  6
CONTINUOUS
 62
   253
 10
-437.364258740268
 20
75.5321216186173
 30
0.0
 11
-437.217812511985
 21
75.885675390652
 31
0.0
  0
LINE
  5
   344
  8
0
  6
CONTINUOUS
 62
   253
 10
-436.864260409243
 20
66.0321214627237
 30
0.0
 11
-437.217814181277
 21
66.1785676910068
 31
0.0
  0
LINE
  5
   345
  8
0
  6
CONTINUOUS
 62
   253
 10
-437.217813347617
 20
66.1785684922344
 30
0.0
 11
-437.3642595759
 21
66.532122264269
 31
0.0
  0
LINE
  5
   346
  8
0
  6
CONTINUOUS
 62
   253
 10
-403.364234924316
 20
77.0321197509766
 30
0.0
 11
-410.864234924316
 21
77.0321197509766
 31
0.0
  0
LINE
  5
   347
  8
0
  6
CONTINUOUS
 62
   253
 10
-403.364234924316
 20
65.0321197509766
 30
0.0
 11
-410.864234924316
 21
65.0321197509766
 31
0.0
  0
LINE
  5
   348
  8
0
  6
CONTINUOUS
 62
   253
 10
-411.364232824555
 20
76.5321203340977
 30
0.0
 11
-410.864232841669
 21
77.0321203169834
 31
0.0
  0
LINE
  5
   349
  8
0
  6
CONTINUOUS
 62
   253
 10
-410.864232848198
 20
65.0321192045562
 30
0.0
 11
-411.364232831083
 21
65.532119187442
 31
0.0
  0
LINE
  5
   34A
  8
0
  6
CONTINUOUS
 62
     7
 10
-444.264236450195
 20
76.5321197509766
 30
0.0
 11
-445.514236450195
 21
76.5321197509766
 31
0.0
  0
LINE
  5
   34B
  8
0
  6
CONTINUOUS
 62
     7
 10
-444.264236450195
 20
65.5321197509766
 30
0.0
 11
-445.514236450195
 21
65.5321197509766
 31
0.0
  0
LINE
  5
   34C
  8
0
  6
CONTINUOUS
 62
     7
 10
-448.514236450195
 20
76.5321197509766
 30
0.0
 11
-449.764236450195
 21
76.5321197509766
 31
0.0
  0
LINE
  5
   34D
  8
0
  6
CONTINUOUS
 62
     7
 10
-448.514236450195
 20
65.5321197509766
 30
0.0
 11
-449.764236450195
 21
65.5321197509766
 31
0.0
  0
LINE
  5
   34E
  8
0
  6
CONTINUOUS
 62
     7
 10
-422.514236450195
 20
76.5321197509766
 30
0.0
 11
-423.764236450195
 21
76.5321197509766
 31
0.0
  0
LINE
  5
   34F
  8
0
  6
CONTINUOUS
 62
     7
 10
-422.514236450195
 20
65.5321197509766
 30
0.0
 11
-423.764236450195
 21
65.5321197509766
 31
0.0
  0
LINE
  5
   350
  8
0
  6
CONTINUOUS
 62
     7
 10
-418.264236450195
 20
76.5321197509766
 30
0.0
 11
-419.514236450195
 21
76.5321197509766
 31
0.0
  0
LINE
  5
   351
  8
0
  6
CONTINUOUS
 62
     7
 10
-418.264236450195
 20
65.5321197509766
 30
0.0
 11
-419.514236450195
 21
65.5321197509766
 31
0.0
  0
LINE
  5
   352
  8
0
  6
CONTINUOUS
 62
     7
 10
-437.364234924316
 20
76.0321197509766
 30
0.0
 11
-437.764236450195
 21
76.0321197509766
 31
0.0
  0
LINE
  5
   353
  8
0
  6
CONTINUOUS
 62
     7
 10
-437.364234924316
 20
66.0321197509766
 30
0.0
 11
-437.764236450195
 21
66.0321197509766
 31
0.0
  0
LINE
  5
   354
  8
0
  6
CONTINUOUS
 62
     3
 10
-441.264236450195
 20
76.5169448852539
 30
0.0
 11
-444.264236450195
 21
76.5169448852539
 31
0.0
  0
LINE
  5
   355
  8
0
  6
CONTINUOUS
 62
     3
 10
-441.264236450195
 20
73.7745361328125
 30
0.0
 11
-444.264236450195
 21
73.7745361328125
 31
0.0
  0
LINE
  5
   356
  8
0
  6
CONTINUOUS
 62
     3
 10
-441.264236450195
 20
68.2897033691406
 30
0.0
 11
-444.264236450195
 21
68.2897033691406
 31
0.0
  0
LINE
  5
   357
  8
0
  6
CONTINUOUS
 62
     3
 10
-441.264236450195
 20
65.5472946166992
 30
0.0
 11
-444.264236450195
 21
65.5472946166992
 31
0.0
  0
LINE
  5
   358
  8
0
  6
CONTINUOUS
 62
     3
 10
-449.764236450195
 20
76.5169448852539
 30
0.0
 11
-452.764236450195
 21
76.5169448852539
 31
0.0
  0
LINE
  5
   359
  8
0
  6
CONTINUOUS
 62
     3
 10
-449.764236450195
 20
73.7745361328125
 30
0.0
 11
-452.764236450195
 21
73.7745361328125
 31
0.0
  0
LINE
  5
   35A
  8
0
  6
CONTINUOUS
 62
     3
 10
-449.764236450195
 20
68.2897033691406
 30
0.0
 11
-452.764236450195
 21
68.2897033691406
 31
0.0
  0
LINE
  5
   35B
  8
0
  6
CONTINUOUS
 62
     3
 10
-449.764236450195
 20
65.5472946166992
 30
0.0
 11
-452.764236450195
 21
65.5472946166992
 31
0.0
  0
LINE
  5
   35C
  8
0
  6
CONTINUOUS
 62
     3
 10
-437.764236450195
 20
76.5169448852539
 30
0.0
 11
-440.764236450195
 21
76.5169448852539
 31
0.0
  0
LINE
  5
   35D
  8
0
  6
CONTINUOUS
 62
     3
 10
-437.764236450195
 20
73.7745361328125
 30
0.0
 11
-440.764236450195
 21
73.7745361328125
 31
0.0
  0
LINE
  5
   35E
  8
0
  6
CONTINUOUS
 62
     3
 10
-437.764236450195
 20
68.2897033691406
 30
0.0
 11
-440.764236450195
 21
68.2897033691406
 31
0.0
  0
LINE
  5
   35F
  8
0
  6
CONTINUOUS
 62
     3
 10
-437.764236450195
 20
65.5472946166992
 30
0.0
 11
-440.764236450195
 21
65.5472946166992
 31
0.0
  0
LINE
  5
   360
  8
0
  6
CONTINUOUS
 62
     3
 10
-423.764236450195
 20
76.5169472694397
 30
0.0
 11
-426.764236450195
 21
76.5169472694397
 31
0.0
  0
LINE
  5
   361
  8
0
  6
CONTINUOUS
 62
     3
 10
-423.764236450195
 20
65.5472922325134
 30
0.0
 11
-426.764236450195
 21
65.5472922325134
 31
0.0
  0
LINE
  5
   362
  8
0
  6
CONTINUOUS
 62
     3
 10
-415.264236450195
 20
76.5169472694397
 30
0.0
 11
-418.264236450195
 21
76.5169472694397
 31
0.0
  0
LINE
  5
   363
  8
0
  6
CONTINUOUS
 62
     3
 10
-415.264236450195
 20
65.5472922325134
 30
0.0
 11
-418.264236450195
 21
65.5472922325134
 31
0.0
  0
LINE
  5
   364
  8
0
  6
CONTINUOUS
 62
     3
 10
-411.764236450195
 20
76.5169472694397
 30
0.0
 11
-414.764236450195
 21
76.5169472694397
 31
0.0
  0
LINE
  5
   365
  8
0
  6
CONTINUOUS
 62
     3
 10
-411.764236450195
 20
65.5472922325134
 30
0.0
 11
-414.764236450195
 21
65.5472922325134
 31
0.0
  0
LINE
  5
   366
  8
0
  6
CONTINUOUS
 62
   212
 10
-454.11423262988
 20
73.0321179915819
 30
0.0
 11
-453.114232664108
 21
74.0321179573533
 31
0.0
  0
LINE
  5
   367
  8
0
  6
CONTINUOUS
 62
   212
 10
-453.114230805182
 20
68.0321159678198
 30
0.0
 11
-454.114230770953
 21
69.0321159335912
 31
0.0
  0
LINE
  5
   368
  8
0
  6
CONTINUOUS
 62
   212
 10
-453.114234924316
 20
68.0321197509766
 30
0.0
 11
-453.114234924316
 21
74.0321197509766
 31
0.0
  0
LINE
  5
   369
  8
0
  6
CONTINUOUS
 62
   212
 10
-452.764236450195
 20
74.0321197509766
 30
0.0
 11
-453.114234924316
 21
74.0321197509766
 31
0.0
  0
LINE
  5
   36A
  8
0
  6
CONTINUOUS
 62
   212
 10
-445.514236450195
 20
74.0321197509766
 30
0.0
 11
-448.514236450195
 21
74.0321197509766
 31
0.0
  0
LINE
  5
   36B
  8
0
  6
CONTINUOUS
 62
   212
 10
-440.764236450195
 20
74.0321197509766
 30
0.0
 11
-441.264236450195
 21
74.0321197509766
 31
0.0
  0
LINE
  5
   36C
  8
0
  6
CONTINUOUS
 62
   212
 10
-452.764236450195
 20
68.0321197509766
 30
0.0
 11
-453.114234924316
 21
68.0321197509766
 31
0.0
  0
LINE
  5
   36D
  8
0
  6
CONTINUOUS
 62
   212
 10
-445.514236450195
 20
68.0321197509766
 30
0.0
 11
-448.514236450195
 21
68.0321197509766
 31
0.0
  0
LINE
  5
   36E
  8
0
  6
CONTINUOUS
 62
   212
 10
-440.764236450195
 20
68.0321197509766
 30
0.0
 11
-441.264236450195
 21
68.0321197509766
 31
0.0
  0
LINE
  5
   36F
  8
0
  6
CONTINUOUS
 62
   253
 10
-410.864234924316
 20
77.0321197509766
 30
0.0
 11
-411.3642578125
 21
77.0321197509766
 31
0.0
  0
LINE
  5
   370
  8
0
  6
CONTINUOUS
 62
   253
 10
-410.864234924316
 20
65.0321197509766
 30
0.0
 11
-411.3642578125
 21
65.0321197509766
 31
0.0
  0
LINE
  5
   371
  8
0
  6
CONTINUOUS
 62
   253
 10
-411.364234924316
 20
76.0321197509766
 30
0.0
 11
-436.8642578125
 21
76.0321197509766
 31
0.0
  0
LINE
  5
   372
  8
0
  6
CONTINUOUS
 62
   253
 10
-411.364234924316
 20
66.0321197509766
 30
0.0
 11
-436.8642578125
 21
66.0321197509766
 31
0.0
  0
LINE
  5
   373
  8
0
  6
CONTINUOUS
 62
   253
 10
-437.217805484254
 20
-33.1143259427146
 30
0.0
 11
-436.864251701961
 21
-32.9678792354274
 31
0.0
  0
LINE
  5
   374
  8
0
  6
CONTINUOUS
 62
   253
 10
-437.364251657751
 20
-33.4678787389842
 30
0.0
 11
-437.217805429467
 21
-33.1143254436612
 31
0.0
  0
LINE
  5
   375
  8
0
  6
CONTINUOUS
 62
   253
 10
-436.864251710186
 20
-42.9678812359488
 30
0.0
 11
-437.217805492479
 21
-42.8214345286616
 31
0.0
  0
LINE
  5
   376
  8
0
  6
CONTINUOUS
 62
   253
 10
-437.21780544288
 20
-42.8214349840677
 30
0.0
 11
-437.364251671163
 21
-42.4678816887447
 31
0.0
  0
LINE
  5
   377
  8
0
  6
CONTINUOUS
 62
     7
 10
-444.264236450195
 20
-32.4678802490234
 30
0.0
 11
-445.514236450195
 21
-32.4678802490234
 31
0.0
  0
LINE
  5
   378
  8
0
  6
CONTINUOUS
 62
     7
 10
-444.264236450195
 20
-43.4678802490234
 30
0.0
 11
-445.514236450195
 21
-43.4678802490234
 31
0.0
  0
LINE
  5
   379
  8
0
  6
CONTINUOUS
 62
     7
 10
-448.514236450195
 20
-32.4678802490234
 30
0.0
 11
-449.764236450195
 21
-32.4678802490234
 31
0.0
  0
LINE
  5
   37A
  8
0
  6
CONTINUOUS
 62
     7
 10
-448.514236450195
 20
-43.4678802490234
 30
0.0
 11
-449.764236450195
 21
-43.4678802490234
 31
0.0
  0
LINE
  5
   37B
  8
0
  6
CONTINUOUS
 62
     7
 10
-437.364234924316
 20
-32.9678802490234
 30
0.0
 11
-437.764236450195
 21
-32.9678802490234
 31
0.0
  0
LINE
  5
   37C
  8
0
  6
CONTINUOUS
 62
     7
 10
-437.364234924316
 20
-42.9678802490234
 30
0.0
 11
-437.764236450195
 21
-42.9678802490234
 31
0.0
  0
LINE
  5
   37D
  8
0
  6
CONTINUOUS
 62
     3
 10
-449.764236450195
 20
-32.4830527305603
 30
0.0
 11
-452.764236450195
 21
-32.4830527305603
 31
0.0
  0
LINE
  5
   37E
  8
0
  6
CONTINUOUS
 62
     3
 10
-449.764236450195
 20
-35.2254664897919
 30
0.0
 11
-452.764236450195
 21
-35.2254664897919
 31
0.0
  0
LINE
  5
   37F
  8
0
  6
CONTINUOUS
 62
     3
 10
-449.764236450195
 20
-40.710294008255
 30
0.0
 11
-452.764236450195
 21
-40.710294008255
 31
0.0
  0
LINE
  5
   380
  8
0
  6
CONTINUOUS
 62
     3
 10
-449.764236450195
 20
-43.4527077674866
 30
0.0
 11
-452.764236450195
 21
-43.4527077674866
 31
0.0
  0
LINE
  5
   381
  8
0
  6
CONTINUOUS
 62
     3
 10
-437.764236450195
 20
-32.4830527305603
 30
0.0
 11
-440.764236450195
 21
-32.4830527305603
 31
0.0
  0
LINE
  5
   382
  8
0
  6
CONTINUOUS
 62
     3
 10
-437.764236450195
 20
-35.2254664897919
 30
0.0
 11
-440.764236450195
 21
-35.2254664897919
 31
0.0
  0
LINE
  5
   383
  8
0
  6
CONTINUOUS
 62
     3
 10
-437.764236450195
 20
-40.710294008255
 30
0.0
 11
-440.764236450195
 21
-40.710294008255
 31
0.0
  0
LINE
  5
   384
  8
0
  6
CONTINUOUS
 62
     3
 10
-437.764236450195
 20
-43.4527077674866
 30
0.0
 11
-440.764236450195
 21
-43.4527077674866
 31
0.0
  0
LINE
  5
   385
  8
0
  6
CONTINUOUS
 62
     3
 10
-441.264236450195
 20
-32.4830527305603
 30
0.0
 11
-444.264236450195
 21
-32.4830527305603
 31
0.0
  0
LINE
  5
   386
  8
0
  6
CONTINUOUS
 62
     3
 10
-441.264236450195
 20
-35.2254664897919
 30
0.0
 11
-444.264236450195
 21
-35.2254664897919
 31
0.0
  0
LINE
  5
   387
  8
0
  6
CONTINUOUS
 62
     3
 10
-441.264236450195
 20
-40.710294008255
 30
0.0
 11
-444.264236450195
 21
-40.710294008255
 31
0.0
  0
LINE
  5
   388
  8
0
  6
CONTINUOUS
 62
     3
 10
-441.264236450195
 20
-43.4527077674866
 30
0.0
 11
-444.264236450195
 21
-43.4527077674866
 31
0.0
  0
LINE
  5
   389
  8
0
  6
CONTINUOUS
 62
   212
 10
-454.114231697152
 20
-35.9678792102348
 30
0.0
 11
-453.11423173138
 21
-34.9678792444634
 31
0.0
  0
LINE
  5
   38A
  8
0
  6
CONTINUOUS
 62
   212
 10
-453.114231737909
 20
-40.967881233997
 30
0.0
 11
-454.114231703681
 21
-39.9678812682255
 31
0.0
  0
LINE
  5
   38B
  8
0
  6
CONTINUOUS
 62
   212
 10
-453.114234924316
 20
-40.9678802490234
 30
0.0
 11
-453.114234924316
 21
-34.9678802490234
 31
0.0
  0
LINE
  5
   38C
  8
0
  6
CONTINUOUS
 62
   212
 10
-452.764236450195
 20
-34.9678802490234
 30
0.0
 11
-453.114234924316
 21
-34.9678802490234
 31
0.0
  0
LINE
  5
   38D
  8
0
  6
CONTINUOUS
 62
   212
 10
-445.514236450195
 20
-34.9678802490234
 30
0.0
 11
-448.514236450195
 21
-34.9678802490234
 31
0.0
  0
LINE
  5
   38E
  8
0
  6
CONTINUOUS
 62
   212
 10
-440.764236450195
 20
-34.9678802490234
 30
0.0
 11
-441.264236450195
 21
-34.9678802490234
 31
0.0
  0
LINE
  5
   38F
  8
0
  6
CONTINUOUS
 62
   212
 10
-452.764236450195
 20
-40.9678802490234
 30
0.0
 11
-453.114234924316
 21
-40.9678802490234
 31
0.0
  0
LINE
  5
   390
  8
0
  6
CONTINUOUS
 62
   212
 10
-445.514236450195
 20
-40.9678802490234
 30
0.0
 11
-448.514236450195
 21
-40.9678802490234
 31
0.0
  0
LINE
  5
   391
  8
0
  6
CONTINUOUS
 62
   212
 10
-440.764236450195
 20
-40.9678802490234
 30
0.0
 11
-441.264236450195
 21
-40.9678802490234
 31
0.0
  0
LINE
  5
   392
  8
0
  6
CONTINUOUS
 62
     2
 10
-379.364234924316
 20
76.2821350097656
 30
0.0
 11
-379.364234924316
 21
77.2821350097656
 31
0.0
  0
LINE
  5
   393
  8
0
  6
CONTINUOUS
 62
     2
 10
-379.364234924316
 20
67.0319290161133
 30
0.0
 11
-379.364234924316
 21
75.0323486328125
 31
0.0
  0
LINE
  5
   394
  8
0
  6
CONTINUOUS
 62
     2
 10
-379.364234924316
 20
64.7821350097656
 30
0.0
 11
-379.364234924316
 21
65.7821350097656
 31
0.0
  0
LINE
  5
   395
  8
0
  6
CONTINUOUS
 62
     2
 10
-379.364234924316
 20
77.2821350097656
 30
0.0
 11
-379.364234924316
 21
77.7821350097656
 31
0.0
  0
LINE
  5
   396
  8
0
  6
CONTINUOUS
 62
     2
 10
-379.364234924316
 20
75.0323486328125
 30
0.0
 11
-379.364234924316
 21
76.2821350097656
 31
0.0
  0
LINE
  5
   397
  8
0
  6
CONTINUOUS
 62
     2
 10
-379.364234924316
 20
65.7821350097656
 30
0.0
 11
-379.364234924316
 21
67.0319290161133
 31
0.0
  0
LINE
  5
   398
  8
0
  6
CONTINUOUS
 62
     2
 10
-379.364234924316
 20
64.2821350097656
 30
0.0
 11
-379.364234924316
 21
64.7821350097656
 31
0.0
  0
LINE
  5
   399
  8
0
  6
CONTINUOUS
 62
     2
 10
-379.364234924316
 20
-32.7178802490234
 30
0.0
 11
-379.364234924316
 21
-31.7178802490234
 31
0.0
  0
LINE
  5
   39A
  8
0
  6
CONTINUOUS
 62
     2
 10
-379.364234924316
 20
-41.9680919647217
 30
0.0
 11
-379.364234924316
 21
-33.9676723480225
 31
0.0
  0
LINE
  5
   39B
  8
0
  6
CONTINUOUS
 62
     2
 10
-379.364234924316
 20
-44.2178807258606
 30
0.0
 11
-379.364234924316
 21
-43.2178802490234
 31
0.0
  0
LINE
  5
   39C
  8
0
  6
CONTINUOUS
 62
     2
 10
-379.364234924316
 20
-44.7178802490234
 30
0.0
 11
-379.364234924316
 21
-44.2178802490234
 31
0.0
  0
LINE
  5
   39D
  8
0
  6
CONTINUOUS
 62
     2
 10
-379.364234924316
 20
-43.2178802490234
 30
0.0
 11
-379.364234924316
 21
-41.9680919647217
 31
0.0
  0
LINE
  5
   39E
  8
0
  6
CONTINUOUS
 62
     2
 10
-379.364234924316
 20
-33.9676723480225
 30
0.0
 11
-379.364234924316
 21
-32.7178802490234
 31
0.0
  0
LINE
  5
   39F
  8
0
  6
CONTINUOUS
 62
     2
 10
-379.364234924316
 20
-31.7178802490234
 30
0.0
 11
-379.364234924316
 21
-31.2178802490234
 31
0.0
  0
LINE
  5
   3A0
  8
0
  6
CONTINUOUS
 62
     2
 10
-379.364234593719
 20
64.7821345053493
 30
0.0
 11
-378.364234631156
 21
64.8154678351983
 31
0.0
  0
LINE
  5
   3A1
  8
0
  6
CONTINUOUS
 62
     2
 10
-378.364225703278
 20
77.2488007759586
 30
0.0
 11
-379.364234556734
 21
77.2821344021707
 31
0.0
  0
LINE
  5
   3A2
  8
0
  6
CONTINUOUS
 62
     2
 10
-378.364227771759
 20
-31.7512138565413
 30
0.0
 11
-379.364234575292
 21
-31.71788029866
 31
0.0
  0
LINE
  5
   3A3
  8
0
  6
CONTINUOUS
 62
     2
 10
-379.364234575162
 20
-44.2178801954813
 30
0.0
 11
-378.364227771759
 21
-44.1845466376043
 31
0.0
  0
LINE
  5
   3A4
  8
0
  6
CONTINUOUS
 62
     7
 10
-403.8642578125
 20
-13.4678421020508
 30
0.0
 11
-404.114250183106
 21
-13.4678421020508
 31
0.0
  0
LINE
  5
   3A5
  8
0
  6
CONTINUOUS
 62
     7
 10
-403.8642578125
 20
-20.9678421020508
 30
0.0
 11
-404.114250183106
 21
-20.9678421020508
 31
0.0
  0
LINE
  5
   3A6
  8
0
  6
CONTINUOUS
 62
     7
 10
-403.8642578125
 20
54.0321273803711
 30
0.0
 11
-404.114250183106
 21
54.0321273803711
 31
0.0
  0
LINE
  5
   3A7
  8
0
  6
CONTINUOUS
 62
     7
 10
-403.8642578125
 20
46.5321273803711
 30
0.0
 11
-404.114250183106
 21
46.5321273803711
 31
0.0
  0
LINE
  5
   3A8
  8
0
  6
DASHDOT
 62
     7
 10
-395.953285445284
 20
-37.9678649902344
 30
0.0
 11
-457.590491500816
 21
-37.9678649902344
 31
0.0
  0
LINE
  5
   3A9
  8
0
  6
DASHDOT
 62
     7
 10
-395.067329711426
 20
71.0321197509766
 30
0.0
 11
-457.210796186306
 21
71.0321197509766
 31
0.0
  0
LINE
  5
   3AA
  8
0
  6
CONTINUOUS
 62
     7
 10
-445.514236450195
 20
73.5321197509766
 30
0.0
 11
-448.514236450195
 21
73.5321197509766
 31
0.0
  0
LINE
  5
   3AB
  8
0
  6
CONTINUOUS
 62
     7
 10
-445.514236450195
 20
68.5321197509766
 30
0.0
 11
-448.514236450195
 21
68.5321197509766
 31
0.0
  0
LINE
  5
   3AC
  8
0
  6
CONTINUOUS
 62
     7
 10
-445.514236450195
 20
-35.4678802490234
 30
0.0
 11
-448.514236450195
 21
-35.4678802490234
 31
0.0
  0
LINE
  5
   3AD
  8
0
  6
CONTINUOUS
 62
     7
 10
-445.514236450195
 20
-40.4678802490234
 30
0.0
 11
-448.514236450195
 21
-40.4678802490234
 31
0.0
  0
CIRCLE
  5
   3AE
  8
0
  6
CONTINUOUS
 62
     7
 10
-430.850313828449
 20
-41.1198846541916
 30
0.0
 40
0.1
  0
CIRCLE
  5
   3AF
  8
0
  6
CONTINUOUS
 62
     7
 10
-369.228011350683
 20
74.3136203054302
 30
0.0
 40
0.1
  0
CIRCLE
  5
   3B0
  8
0
  6
CONTINUOUS
 62
     7
 10
-388.070236873806
 20
74.4947955508448
 30
0.0
 40
0.1
  0
LINE
  5
   3B1
  8
0
  6
CONTINUOUS
 62
     1
 10
-325.864232063294
 20
-10.0960826873779
 30
0.0
 11
-325.864232063294
 21
-9.09608268737793
 31
0.0
  0
LINE
  5
   3B2
  8
0
  6
CONTINUOUS
 62
     1
 10
-324.864232063294
 20
-10.0960826873779
 30
0.0
 11
-325.864232063294
 21
-10.0960826873779
 31
0.0
  0
LINE
  5
   3B3
  8
0
  6
CONTINUOUS
 62
     1
 10
-325.864232063294
 20
43.9039154052734
 30
0.0
 11
-325.864232063294
 21
44.9039154052734
 31
0.0
  0
LINE
  5
   3B4
  8
0
  6
CONTINUOUS
 62
     1
 10
-324.864232063294
 20
44.9039154052734
 30
0.0
 11
-325.864232063294
 21
44.9039154052734
 31
0.0
  0
LINE
  5
   3B5
  8
0
  6
CONTINUOUS
 62
     1
 10
-325.864232063294
 20
-9.09608268737793
 30
0.0
 11
-325.864232063294
 21
43.9039173126221
 31
0.0
  0
LINE
  5
   3B6
  8
0
  6
CONTINUOUS
 62
     1
 10
-328.114231973887
 20
51.6925888061524
 30
0.0
 11
-328.114231973887
 21
54.1152420043945
 31
0.0
  0
LINE
  5
   3B7
  8
0
  6
CONTINUOUS
 62
     1
 10
-328.114231973887
 20
-19.3074073791504
 30
0.0
 11
-328.114231973887
 21
-16.8847579956055
 31
0.0
  0
LINE
  5
   3B8
  8
0
  6
CONTINUOUS
 62
     1
 10
-324.864232063294
 20
-23.3460826873779
 30
0.0
 11
-324.864232063294
 21
58.1539173126221
 31
0.0
  0
LINE
  5
   3B9
  8
0
  6
CONTINUOUS
 62
     1
 10
-323.114232063293
 20
-23.3460826873779
 30
0.0
 11
-324.864232063294
 21
-23.3460826873779
 31
0.0
  0
LINE
  5
   3BA
  8
0
  6
CONTINUOUS
 62
     1
 10
-323.114232063293
 20
-23.3460845947266
 30
0.0
 11
-323.114232063293
 21
58.1539154052734
 31
0.0
  0
LINE
  5
   3BB
  8
0
  6
CONTINUOUS
 62
     1
 10
-323.114232063293
 20
58.1539154052734
 30
0.0
 11
-323.614232063293
 21
58.1539154052734
 31
0.0
  0
LINE
  5
   3BC
  8
0
  6
CONTINUOUS
 62
     1
 10
-324.114232063293
 20
58.1539154052734
 30
0.0
 11
-324.864232063294
 21
58.1539154052734
 31
0.0
  0
LINE
  5
   3BD
  8
0
  6
CONTINUOUS
 62
     1
 10
-324.864232063294
 20
51.4039154052734
 30
0.0
 11
-327.614233572201
 21
51.4039154052734
 31
0.0
  0
LINE
  5
   3BE
  8
0
  6
CONTINUOUS
 62
     1
 10
-324.864232063294
 20
54.4039154052734
 30
0.0
 11
-327.614230335623
 21
54.4039154052734
 31
0.0
  0
LINE
  5
   3BF
  8
0
  6
CONTINUOUS
 62
     1
 10
-327.614231980737
 20
51.4039154052734
 30
0.0
 11
-327.614231980737
 21
51.5180969238281
 31
0.0
  0
LINE
  5
   3C0
  8
0
  6
CONTINUOUS
 62
     1
 10
-327.614231582875
 20
51.4039142567427
 30
0.0
 11
-328.114231599338
 21
51.6925876612409
 31
0.0
  0
LINE
  5
   3C1
  8
0
  6
CONTINUOUS
 62
     1
 10
-327.614231980737
 20
51.5180969238281
 30
0.0
 11
-327.614231980737
 21
51.8432540893555
 31
0.0
  0
LINE
  5
   3C2
  8
0
  6
CONTINUOUS
 62
     1
 10
-327.614231980737
 20
51.8432540893555
 30
0.0
 11
-327.614231980737
 21
52.3298950195313
 31
0.0
  0
LINE
  5
   3C3
  8
0
  6
CONTINUOUS
 62
     1
 10
-327.614231980737
 20
52.3298950195313
 30
0.0
 11
-327.614231980737
 21
52.9039154052734
 31
0.0
  0
LINE
  5
   3C4
  8
0
  6
CONTINUOUS
 62
     1
 10
-327.614231980737
 20
52.9039154052734
 30
0.0
 11
-327.614231980737
 21
53.4779434204102
 31
0.0
  0
LINE
  5
   3C5
  8
0
  6
CONTINUOUS
 62
     1
 10
-327.614231980737
 20
53.4779434204102
 30
0.0
 11
-327.614231980737
 21
53.9645767211914
 31
0.0
  0
LINE
  5
   3C6
  8
0
  6
CONTINUOUS
 62
     1
 10
-327.614231980737
 20
53.9645767211914
 30
0.0
 11
-327.614231980737
 21
54.2897338867188
 31
0.0
  0
LINE
  5
   3C7
  8
0
  6
CONTINUOUS
 62
     1
 10
-327.614231980737
 20
54.2897338867188
 30
0.0
 11
-327.614231980737
 21
54.4039154052734
 31
0.0
  0
LINE
  5
   3C8
  8
0
  6
CONTINUOUS
 62
     1
 10
-328.114232408475
 20
54.1152408135255
 30
0.0
 11
-327.614232392012
 21
54.4039142180237
 31
0.0
  0
LINE
  5
   3C9
  8
0
  6
CONTINUOUS
 62
     1
 10
-324.864232063294
 20
-16.5960826873779
 30
0.0
 11
-327.614230978181
 21
-16.5960826873779
 31
0.0
  0
LINE
  5
   3CA
  8
0
  6
CONTINUOUS
 62
     1
 10
-324.864232063294
 20
-19.5960826873779
 30
0.0
 11
-327.614232819961
 21
-19.5960826873779
 31
0.0
  0
LINE
  5
   3CB
  8
0
  6
CONTINUOUS
 62
     1
 10
-328.114232234961
 20
-16.8847586957313
 30
0.0
 11
-327.614232218497
 21
-16.5960834034748
 31
0.0
  0
LINE
  5
   3CC
  8
0
  6
CONTINUOUS
 62
     1
 10
-327.614231964091
 20
-17.0354232788086
 30
0.0
 11
-327.614231964091
 21
-16.7102642059326
 31
0.0
  0
LINE
  5
   3CD
  8
0
  6
CONTINUOUS
 62
     1
 10
-327.614231964077
 20
-17.5220565795899
 30
0.0
 11
-327.614231964077
 21
-17.0354232788086
 31
0.0
  0
LINE
  5
   3CE
  8
0
  6
CONTINUOUS
 62
     1
 10
-327.614231964112
 20
-18.0960826873779
 30
0.0
 11
-327.614231964112
 21
-17.5220565795899
 31
0.0
  0
LINE
  5
   3CF
  8
0
  6
CONTINUOUS
 62
     1
 10
-327.61423196405
 20
-18.6701068878174
 30
0.0
 11
-327.61423196405
 21
-18.0960826873779
 31
0.0
  0
LINE
  5
   3D0
  8
0
  6
CONTINUOUS
 62
     1
 10
-327.614231964077
 20
-19.1567420959473
 30
0.0
 11
-327.614231964077
 21
-18.6701068878174
 31
0.0
  0
LINE
  5
   3D1
  8
0
  6
CONTINUOUS
 62
     1
 10
-327.61423196409
 20
-19.4819011688233
 30
0.0
 11
-327.61423196409
 21
-19.1567420959473
 31
0.0
  0
LINE
  5
   3D2
  8
0
  6
CONTINUOUS
 62
     1
 10
-327.614231756917
 20
-19.5960833011275
 30
0.0
 11
-328.114231773381
 21
-19.3074080088709
 31
0.0
  0
LINE
  5
   3D3
  8
0
  6
CONTINUOUS
 62
     1
 10
-323.614232063293
 20
58.1539154052734
 30
0.0
 11
-324.114232063293
 21
58.1539154052734
 31
0.0
  0
LINE
  5
   3D4
  8
0
  6
CONTINUOUS
 62
     7
 10
-324.864232063294
 20
58.1539154052734
 30
0.0
 11
-324.864232063294
 21
86.7341334413587
 31
0.0
  0
LINE
  5
   3D5
  8
0
  6
CONTINUOUS
 62
     7
 10
-325.864232063294
 20
44.9039154052734
 30
0.0
 11
-325.864232063294
 21
51.4039154052734
 31
0.0
  0
LINE
  5
   3D6
  8
0
  6
CONTINUOUS
 62
     7
 10
-324.864232063294
 20
-58.7166543923488
 30
0.0
 11
-324.864232063294
 21
-23.3460826873779
 31
0.0
  0
LINE
  5
   3D7
  8
0
  6
CONTINUOUS
 62
     7
 10
-325.864232063294
 20
-58.8729043923488
 30
0.0
 11
-325.864232063294
 21
-19.5960826873779
 31
0.0
  0
LINE
  5
   3D8
  8
0
  6
CONTINUOUS
 62
     7
 10
-317.727414338792
 20
85.17867316807
 30
0.0
 11
-330.558355065282
 21
87.9751602494844
 31
0.0
  0
LINE
  5
   3D9
  8
0
  6
CONTINUOUS
 62
     7
 10
-332.148514386086
 20
-59.8548235052852
 30
0.0
 11
-318.111245898986
 21
-57.6615003041758
 31
0.0
  0
LINE
  5
   3DA
  8
0
  6
CONTINUOUS
 62
     7
 10
-324.864232063294
 20
54.6539154052734
 30
0.0
 11
-325.864232063294
 21
54.6539154052734
 31
0.0
  0
LINE
  5
   3DB
  8
0
  6
CONTINUOUS
 62
     7
 10
-324.864232063294
 20
51.1539154052734
 30
0.0
 11
-325.864232063294
 21
51.1539154052734
 31
0.0
  0
LINE
  5
   3DC
  8
0
  6
CONTINUOUS
 62
     7
 10
-324.864232063294
 20
45.4039154052734
 30
0.0
 11
-325.864232063294
 21
45.4039154052734
 31
0.0
  0
LINE
  5
   3DD
  8
0
  6
CONTINUOUS
 62
     7
 10
-324.864232063294
 20
-10.5960826873779
 30
0.0
 11
-325.864232063294
 21
-10.5960826873779
 31
0.0
  0
LINE
  5
   3DE
  8
0
  6
CONTINUOUS
 62
     7
 10
-324.864232063294
 20
-16.3460826873779
 30
0.0
 11
-325.864232063294
 21
-16.3460826873779
 31
0.0
  0
LINE
  5
   3DF
  8
0
  6
CONTINUOUS
 62
     7
 10
-324.864232063294
 20
-19.8460826873779
 30
0.0
 11
-325.864232063294
 21
-19.8460826873779
 31
0.0
  0
LINE
  5
   3E0
  8
0
  6
CONTINUOUS
 62
     7
 10
-325.864232063294
 20
-16.5960826873779
 30
0.0
 11
-325.864232063294
 21
-10.0960826873779
 31
0.0
  0
LINE
  5
   3E1
  8
0
  6
CONTINUOUS
 62
     7
 10
-325.864232063294
 20
54.4039154052734
 30
0.0
 11
-325.864232063294
 21
86.9520821593074
 31
0.0
  0
INSERT
  5
   3E2
  8
0
  6
CONTINUOUS
 62
     7
  2
*HATCH1320
 10
-327.8642578125
 20
-37.5863952636719
 30
0.0
 41
0.5
 42
0.5
 50
89.9999999480344
 43
0.5
  0
INSERT
  5
   3E3
  8
0
  6
CONTINUOUS
 62
     7
  2
*HATCH1321
 10
-327.8642578125
 20
-37.5863952636719
 30
0.0
 41
0.5
 42
0.5
 50
89.9999999480344
 43
0.5
  0
INSERT
  5
   3E4
  8
0
  6
CONTINUOUS
 62
     7
  2
*HATCH1322
 10
-327.8642578125
 20
-37.5863952636719
 30
0.0
 41
0.5
 42
0.5
 50
89.9999999480344
 43
0.5
  0
INSERT
  5
   3E5
  8
0
  6
CONTINUOUS
 62
     7
  2
*HATCH1323
 10
-327.8642578125
 20
-37.5863952636719
 30
0.0
 41
0.5
 42
0.5
 50
89.9999999480344
 43
0.5
  0
LINE
  5
   3E6
  8
0
  6
DASHDOT
 62
     7
 10
-305.048642862167
 20
17.4071444701972
 30
0.0
 11
-415.949933655179
 21
17.4071444701972
 31
0.0
  0
LINE
  5
   3E7
  8
0
  6
CONTINUOUS
 62
     7
 10
-329.114234924316
 20
81.2821273803711
 30
0.0
 11
-378.364222807108
 21
81.2821273803711
 31
0.0
  0
LINE
  5
   3E8
  8
0
  6
CONTINUOUS
 62
     7
 10
-329.114234924316
 20
-48.2178402710137
 30
0.0
 11
-378.364227771759
 21
-48.2178402710137
 31
0.0
  0
LINE
  5
   3E9
  8
0
  6
CONTINUOUS
 62
     7
 10
-328.614234924316
 20
-47.7178402710137
 30
0.0
 11
-328.614234924316
 21
-35.4678479004085
 31
0.0
  0
LINE
  5
   3EA
  8
0
  6
CONTINUOUS
 62
     7
 10
-328.614234924316
 20
68.2821444701972
 30
0.0
 11
-328.614234924316
 21
80.7821273803711
 31
0.0
  0
LINE
  5
   3EB
  8
0
  6
CONTINUOUS
 62
     7
 10
-329.114234924316
 20
67.7821444701972
 30
0.0
 11
-329.114234924316
 21
68.2821444701972
 31
0.0
  0
LINE
  5
   3EC
  8
0
  6
CONTINUOUS
 62
     7
 10
-328.614234924316
 20
68.2821444701972
 30
0.0
 11
-329.114234924316
 21
68.2821444701972
 31
0.0
  0
LINE
  5
   3ED
  8
0
  6
CONTINUOUS
 62
     7
 10
-329.114234924316
 20
-35.4678479004085
 30
0.0
 11
-329.114234924316
 21
-34.9678479004085
 31
0.0
  0
LINE
  5
   3EE
  8
0
  6
CONTINUOUS
 62
     7
 10
-328.614234924316
 20
-35.4678479004085
 30
0.0
 11
-329.114234924316
 21
-35.4678479004085
 31
0.0
  0
ARC
  5
   3EF
  8
0
  6
CONTINUOUS
 62
     7
 10
-329.114234924316
 20
-47.7178402710137
 30
0.0
 40
0.5
 50
269.999999948034
 51
359.999999948034
  0
ARC
  5
   3F0
  8
0
  6
CONTINUOUS
 62
     7
 10
-329.114234924316
 20
80.7821273803711
 30
0.0
 40
0.5
 50
359.999999948034
 51
449.999999948034
  0
LINE
  5
   3F1
  8
0
  6
CONTINUOUS
 62
     7
 10
-378.364227294922
 20
70.6879272460938
 30
0.0
 11
-378.364222807108
 21
81.2821273803711
 31
0.0
  0
LINE
  5
   3F2
  8
0
  6
CONTINUOUS
 62
     3
 10
-426.764236450195
 20
-43.4527077674866
 30
0.0
 11
-426.764236450195
 21
-42.9678649902344
 31
0.0
  0
LINE
  5
   3F3
  8
0
  6
CONTINUOUS
 62
     3
 10
-423.764236450195
 20
-43.4527077674866
 30
0.0
 11
-426.764236450195
 21
-43.4527077674866
 31
0.0
  0
LINE
  5
   3F4
  8
0
  6
CONTINUOUS
 62
     3
 10
-423.764236450195
 20
-32.4830527305603
 30
0.0
 11
-426.764236450195
 21
-32.4830527305603
 31
0.0
  0
LINE
  5
   3F5
  8
0
  6
CONTINUOUS
 62
     7
 10
-423.764236450195
 20
-43.4678802490234
 30
0.0
 11
-423.764236450195
 21
-42.9678649902344
 31
0.0
  0
LINE
  5
   3F6
  8
0
  6
CONTINUOUS
 62
     7
 10
-422.514236450195
 20
-43.4678802490234
 30
0.0
 11
-422.514236450195
 21
-42.9678649902344
 31
0.0
  0
LINE
  5
   3F7
  8
0
  6
CONTINUOUS
 62
     7
 10
-422.514236450195
 20
-43.4678802490234
 30
0.0
 11
-423.764236450195
 21
-43.4678802490234
 31
0.0
  0
LINE
  5
   3F8
  8
0
  6
CONTINUOUS
 62
     7
 10
-422.514236450195
 20
-32.4678802490234
 30
0.0
 11
-423.764236450195
 21
-32.4678802490234
 31
0.0
  0
LINE
  5
   3F9
  8
0
  6
CONTINUOUS
 62
     7
 10
-419.514236450195
 20
-32.9678802490234
 30
0.0
 11
-419.514236450195
 21
-32.4678802490234
 31
0.0
  0
LINE
  5
   3FA
  8
0
  6
CONTINUOUS
 62
     7
 10
-418.264236450195
 20
-43.4678802490234
 30
0.0
 11
-419.514236450195
 21
-43.4678802490234
 31
0.0
  0
LINE
  5
   3FB
  8
0
  6
CONTINUOUS
 62
     7
 10
-418.264236450195
 20
-43.4678802490234
 30
0.0
 11
-418.264236450195
 21
-42.9678649902344
 31
0.0
  0
LINE
  5
   3FC
  8
0
  6
CONTINUOUS
 62
     7
 10
-418.264236450195
 20
-32.4678802490234
 30
0.0
 11
-419.514236450195
 21
-32.4678802490234
 31
0.0
  0
LINE
  5
   3FD
  8
0
  6
CONTINUOUS
 62
     3
 10
-415.264236450195
 20
-32.4830527305603
 30
0.0
 11
-418.264236450195
 21
-32.4830527305603
 31
0.0
  0
LINE
  5
   3FE
  8
0
  6
CONTINUOUS
 62
     3
 10
-415.264236450195
 20
-43.4527077674866
 30
0.0
 11
-418.264236450195
 21
-43.4527077674866
 31
0.0
  0
LINE
  5
   3FF
  8
0
  6
CONTINUOUS
 62
     3
 10
-415.264236450195
 20
-43.4527077674866
 30
0.0
 11
-415.264236450195
 21
-42.9678802490234
 31
0.0
  0
LINE
  5
   400
  8
0
  6
CONTINUOUS
 62
   253
 10
-414.764236450195
 20
-32.9678802490234
 30
0.0
 11
-415.264236450195
 21
-32.9678802490234
 31
0.0
  0
LINE
  5
   401
  8
0
  6
CONTINUOUS
 62
   253
 10
-414.764236450195
 20
-42.9678802490234
 30
0.0
 11
-415.264236450195
 21
-42.9678802490234
 31
0.0
  0
LINE
  5
   402
  8
0
  6
CONTINUOUS
 62
     3
 10
-414.764236450195
 20
-43.4527077674866
 30
0.0
 11
-414.764236450195
 21
-42.9678802490234
 31
0.0
  0
LINE
  5
   403
  8
0
  6
CONTINUOUS
 62
     3
 10
-411.764236450195
 20
-32.4830527305603
 30
0.0
 11
-414.764236450195
 21
-32.4830527305603
 31
0.0
  0
LINE
  5
   404
  8
0
  6
CONTINUOUS
 62
     3
 10
-411.764236450195
 20
-43.4527077674866
 30
0.0
 11
-414.764236450195
 21
-43.4527077674866
 31
0.0
  0
LINE
  5
   405
  8
0
  6
CONTINUOUS
 62
     7
 10
-411.764236450195
 20
-43.4527077674866
 30
0.0
 11
-411.764236450195
 21
-42.9678802490234
 31
0.0
  0
LINE
  5
   406
  8
0
  6
CONTINUOUS
 62
     7
 10
-411.364234924316
 20
-32.9678802490234
 30
0.0
 11
-411.764236450195
 21
-32.9678802490234
 31
0.0
  0
LINE
  5
   407
  8
0
  6
CONTINUOUS
 62
     7
 10
-411.364234924316
 20
-42.9678802490234
 30
0.0
 11
-411.764236450195
 21
-42.9678802490234
 31
0.0
  0
LINE
  5
   408
  8
0
  6
CONTINUOUS
 62
     7
 10
-426.764236450195
 20
76.0321197509766
 30
0.0
 11
-426.764236450195
 21
76.5169472694397
 31
0.0
  0
LINE
  5
   409
  8
0
  6
CONTINUOUS
 62
     7
 10
-422.514236450195
 20
76.0321197509766
 30
0.0
 11
-422.514236450195
 21
76.5321197509766
 31
0.0
  0
LINE
  5
   40A
  8
0
  6
CONTINUOUS
 62
     7
 10
-419.514236450195
 20
76.0321197509766
 30
0.0
 11
-419.514236450195
 21
76.5321197509766
 31
0.0
  0
LINE
  5
   40B
  8
0
  6
CONTINUOUS
 62
     7
 10
-415.264236450195
 20
76.0321197509766
 30
0.0
 11
-415.264236450195
 21
76.5169472694397
 31
0.0
  0
LINE
  5
   40C
  8
0
  6
CONTINUOUS
 62
     7
 10
-414.764236450195
 20
76.0321197509766
 30
0.0
 11
-414.764236450195
 21
76.5169472694397
 31
0.0
  0
LINE
  5
   40D
  8
0
  6
CONTINUOUS
 62
     7
 10
-414.764236450195
 20
65.5472922325134
 30
0.0
 11
-414.764236450195
 21
66.0321197509766
 31
0.0
  0
LINE
  5
   40E
  8
0
  6
CONTINUOUS
 62
     7
 10
-415.264236450195
 20
65.5472922325134
 30
0.0
 11
-415.264236450195
 21
66.0321197509766
 31
0.0
  0
LINE
  5
   40F
  8
0
  6
CONTINUOUS
 62
     7
 10
-419.514236450195
 20
65.5321197509766
 30
0.0
 11
-419.514236450195
 21
66.0321197509766
 31
0.0
  0
LINE
  5
   410
  8
0
  6
CONTINUOUS
 62
     7
 10
-422.514236450195
 20
65.5321197509766
 30
0.0
 11
-422.514236450195
 21
66.0321197509766
 31
0.0
  0
LINE
  5
   411
  8
0
  6
CONTINUOUS
 62
     7
 10
-426.764236450195
 20
65.5472922325134
 30
0.0
 11
-426.764236450195
 21
66.0321197509766
 31
0.0
  0
LINE
  5
   412
  8
0
  6
CONTINUOUS
 62
     7
 10
-405.614250183106
 20
52.2321273803711
 30
0.0
 11
-407.214250183106
 21
52.2321273803711
 31
0.0
  0
LINE
  5
   413
  8
0
  6
CONTINUOUS
 62
     7
 10
-405.614250183106
 20
48.3321273803711
 30
0.0
 11
-407.214250183106
 21
48.3321273803711
 31
0.0
  0
LINE
  5
   414
  8
0
  6
CONTINUOUS
 62
     7
 10
-405.614250183106
 20
51.2821273803711
 30
0.0
 11
-408.814250183106
 21
51.2821273803711
 31
0.0
  0
LINE
  5
   415
  8
0
  6
CONTINUOUS
 62
     7
 10
-405.614250183106
 20
49.2821273803711
 30
0.0
 11
-408.814250183106
 21
49.2821273803711
 31
0.0
  0
LINE
  5
   416
  8
0
  6
CONTINUOUS
 62
     7
 10
-407.214250183106
 20
48.3321273803711
 30
0.0
 11
-407.214250183106
 21
52.2321273803711
 31
0.0
  0
LINE
  5
   417
  8
0
  6
CONTINUOUS
 62
     7
 10
-408.814250183106
 20
49.2821273803711
 30
0.0
 11
-408.814250183106
 21
51.2821273803711
 31
0.0
  0
LINE
  5
   418
  8
0
  6
CONTINUOUS
 62
     7
 10
-405.614250183106
 20
-15.2678726196289
 30
0.0
 11
-407.214250183106
 21
-15.2678726196289
 31
0.0
  0
LINE
  5
   419
  8
0
  6
CONTINUOUS
 62
     7
 10
-405.614250183106
 20
-16.2178726196289
 30
0.0
 11
-408.814250183106
 21
-16.2178726196289
 31
0.0
  0
LINE
  5
   41A
  8
0
  6
CONTINUOUS
 62
     7
 10
-405.614250183106
 20
-18.2178726196289
 30
0.0
 11
-408.814250183106
 21
-18.2178726196289
 31
0.0
  0
LINE
  5
   41B
  8
0
  6
CONTINUOUS
 62
     7
 10
-405.614250183106
 20
-19.1678726196289
 30
0.0
 11
-407.214250183106
 21
-19.1678726196289
 31
0.0
  0
LINE
  5
   41C
  8
0
  6
CONTINUOUS
 62
     7
 10
-407.214250183106
 20
-19.1678726196289
 30
0.0
 11
-407.214250183106
 21
-15.2678726196289
 31
0.0
  0
LINE
  5
   41D
  8
0
  6
CONTINUOUS
 62
     7
 10
-408.814250183106
 20
-18.2178726196289
 30
0.0
 11
-408.814250183106
 21
-16.2178726196289
 31
0.0
  0
CIRCLE
  5
   41E
  8
0
  6
CONTINUOUS
 62
     7
 10
-406.601399146889
 20
50.9239495221045
 30
0.0
 40
0.1
  0
LINE
  5
   41F
  8
0
  6
CONTINUOUS
 62
     7
 10
-411.764236450195
 20
-32.9678802490234
 30
0.0
 11
-411.764236450195
 21
-32.4830527305603
 31
0.0
  0
LINE
  5
   420
  8
0
  6
CONTINUOUS
 62
     3
 10
-414.764236450195
 20
-32.9678802490234
 30
0.0
 11
-414.764236450195
 21
-32.4830527305603
 31
0.0
  0
LINE
  5
   421
  8
0
  6
CONTINUOUS
 62
     3
 10
-415.264236450195
 20
-32.9678802490234
 30
0.0
 11
-415.264236450195
 21
-32.4830527305603
 31
0.0
  0
LINE
  5
   422
  8
0
  6
CONTINUOUS
 62
     3
 10
-426.764236450195
 20
-32.9678649902344
 30
0.0
 11
-426.764236450195
 21
-32.4830527305603
 31
0.0
  0
LINE
  5
   423
  8
0
  6
CONTINUOUS
 62
     7
 10
-423.764236450195
 20
-32.9678649902344
 30
0.0
 11
-423.764236450195
 21
-32.4678802490234
 31
0.0
  0
LINE
  5
   424
  8
0
  6
CONTINUOUS
 62
     7
 10
-422.514236450195
 20
-32.9678649902344
 30
0.0
 11
-422.514236450195
 21
-32.4678802490234
 31
0.0
  0
LINE
  5
   425
  8
0
  6
CONTINUOUS
 62
     7
 10
-418.264236450195
 20
-32.9678802490234
 30
0.0
 11
-418.264236450195
 21
-32.4678802490234
 31
0.0
  0
LINE
  5
   426
  8
0
  6
CONTINUOUS
 62
     7
 10
-419.514236450195
 20
-43.4678802490234
 30
0.0
 11
-419.514236450195
 21
-42.9678649902344
 31
0.0
  0
INSERT
  5
   427
  8
0
  6
CONTINUOUS
 62
     7
  2
*UDIM2422
 10
0.0
 20
0.0
 30
0.0
  0
INSERT
  5
   428
  8
0
  6
CONTINUOUS
 62
     7
  2
*UDIM2423
 10
0.0
 20
0.0
 30
0.0
  0
TEXT
  5
   429
  8
0
  6
CONTINUOUS
 62
     7
 10
-290.752773299607
 20
0.965150846175771
 30
0.0
 40
3.00000002980232
  1
=          =
 50
89.9999999480344
 41
0.916666604744064
 72
     2
 11
-290.752773270217
 21
33.4151489721064
 31
0.0
  0
INSERT
  5
   42A
  8
0
  6
CONTINUOUS
 62
     7
  2
*UDIM2424
 10
0.0
 20
0.0
 30
0.0
  0
INSERT
  5
   42B
  8
0
  6
CONTINUOUS
 62
     7
  2
*UDIM2425
 10
0.0
 20
0.0
 30
0.0
  0
TEXT
  5
   42C
  8
0
  6
CONTINUOUS
 62
     7
 10
-418.464126880328
 20
-61.9933133526635
 30
0.0
 40
3.00000002980232
  1
_
 50
359.999999948034
 41
0.916666604744064
 72
     2
 11
-416.264127011458
 21
-61.9933133546477
 31
0.0
  0
INSERT
  5
   42D
  8
0
  6
CONTINUOUS
 62
     7
  2
*UDIM2426
 10
0.0
 20
0.0
 30
0.0
  0
INSERT
  5
   42E
  8
0
  6
CONTINUOUS
 62
     7
  2
*UDIM2427
 10
0.0
 20
0.0
 30
0.0
  0
INSERT
  5
   42F
  8
0
  6
CONTINUOUS
 62
     7
  2
*UDIM2428
 10
0.0
 20
0.0
 30
0.0
  0
INSERT
  5
   430
  8
0
  6
CONTINUOUS
 62
     7
  2
*UDIM2429
 10
0.0
 20
0.0
 30
0.0
  0
INSERT
  5
   431
  8
0
  6
CONTINUOUS
 62
     7
  2
*UDIM2430
 10
0.0
 20
0.0
 30
0.0
  0
TEXT
  5
   432
  8
0
  6
CONTINUOUS
 62
     7
 10
-288.373302371662
 20
16.8696599311606
 30
0.0
 40
3.00000002980232
  1
X
 50
359.999999948034
 41
0.916666604744064
 72
     1
 11
-287.273302435874
 21
18.3696599450696
 31
0.0
 73
     2
  0
LINE
  5
   433
  8
0
  6
CONTINUOUS
 62
     7
 10
-531.617450896378
 20
-8.84284973144532
 30
0.0
 11
-536.617450896378
 21
-8.84284973144532
 31
0.0
  0
LINE
  5
   434
  8
0
  6
CONTINUOUS
 62
     7
 10
-544.117450896378
 20
42.6571350097656
 30
0.0
 11
-544.117450896378
 21
43.6571350097656
 31
0.0
  0
LINE
  5
   435
  8
0
  6
CONTINUOUS
 62
     7
 10
-517.867466155167
 20
-8.84284973144532
 30
0.0
 11
-531.617450896378
 21
-8.84284973144532
 31
0.0
  0
LINE
  5
   436
  8
0
  6
CONTINUOUS
 62
    52
 10
-499.117481413956
 20
-8.84284973144532
 30
0.0
 11
-504.117481413956
 21
-8.84284973144532
 31
0.0
  0
LINE
  5
   437
  8
0
  6
CONTINUOUS
 62
    52
 10
-504.117481413956
 20
-8.84284973144532
 30
0.0
 11
-517.867466155167
 21
-8.84284973144532
 31
0.0
  0
LINE
  5
   438
  8
0
  6
CONTINUOUS
 62
     7
 10
-491.617481413956
 20
67.7821273803711
 30
0.0
 11
-491.617481413956
 21
78.6321258544922
 31
0.0
  0
LINE
  5
   439
  8
0
  6
CONTINUOUS
 62
     7
 10
-561.617458525772
 20
67.782112121582
 30
0.0
 11
-561.617458525772
 21
78.6321182250976
 31
0.0
  0
LINE
  5
   43A
  8
0
  6
CONTINUOUS
 62
     7
 10
-561.617450896378
 20
43.6571197509766
 30
0.0
 11
-561.617450896378
 21
67.7821350097656
 31
0.0
  0
LINE
  5
   43B
  8
0
  6
CONTINUOUS
 62
     7
 10
-491.617481413956
 20
57.6571311950664
 30
0.0
 11
-491.617481413956
 21
67.7821350097656
 31
0.0
  0
LINE
  5
   43C
  8
0
  6
DASHDOT
 62
     3
 10
-523.742456983667
 20
-8.71784119697723
 30
0.0
 11
-529.492444348169
 21
-8.71784119697723
 31
0.0
  0
LINE
  5
   43D
  8
0
  6
DASHDOT
 62
     3
 10
-506.242253896912
 20
-8.71806231998911
 30
0.0
 11
-511.992611474191
 21
-8.71806231998911
 31
0.0
  0
LINE
  5
   43E
  8
0
  6
CONTINUOUS
 62
     7
 10
-531.617458525773
 20
-8.84284973144532
 30
0.0
 11
-536.617450896378
 21
-8.84284973144532
 31
0.0
  0
LINE
  5
   43F
  8
0
  6
CONTINUOUS
 62
     7
 10
-499.117466155167
 20
-8.84284973144532
 30
0.0
 11
-504.117466155167
 21
-8.84284973144532
 31
0.0
  0
LINE
  5
   440
  8
0
  6
CONTINUOUS
 62
     7
 10
-491.617450896378
 20
-8.59284973144531
 30
0.0
 11
-491.617450896378
 21
0.407142639160156
 31
0.0
  0
LINE
  5
   441
  8
0
  6
CONTINUOUS
 62
     7
 10
-544.117450896378
 20
-8.59284973144531
 30
0.0
 11
-544.117450896378
 21
0.407142639160156
 31
0.0
  0
LINE
  5
   442
  8
0
  6
CONTINUOUS
 62
     7
 10
-491.867450896378
 20
43.6571502685547
 30
0.0
 11
-543.867450896364
 21
43.6571502685547
 31
0.0
  0
LINE
  5
   443
  8
0
  6
CONTINUOUS
 62
     7
 10
-536.617450896378
 20
-8.84284973144532
 30
0.0
 11
-543.867450896378
 21
-8.84284973144532
 31
0.0
  0
LINE
  5
   444
  8
0
  6
CONTINUOUS
 62
     7
 10
-504.117466155167
 20
-8.84284973144532
 30
0.0
 11
-531.617458525773
 21
-8.84284973144532
 31
0.0
  0
LINE
  5
   445
  8
0
  6
CONTINUOUS
 62
     7
 10
-491.867450896378
 20
-8.84284973144532
 30
0.0
 11
-499.117466155167
 21
-8.84284973144532
 31
0.0
  0
LINE
  5
   446
  8
0
  6
CONTINUOUS
 62
     7
 10
-512.492450896378
 20
2.28214263916016
 30
0.0
 11
-512.492450896378
 21
22.2821350097656
 31
0.0
  0
LINE
  5
   447
  8
0
  6
CONTINUOUS
 62
     7
 10
-523.242450896378
 20
2.28214263916016
 30
0.0
 11
-523.242450896378
 21
22.2821350097656
 31
0.0
  0
LINE
  5
   448
  8
0
  6
CONTINUOUS
 62
     7
 10
-491.617450896378
 20
37.6571350097656
 30
0.0
 11
-544.117450896378
 21
37.6571350097656
 31
0.0
  0
LINE
  5
   449
  8
0
  6
CONTINUOUS
 62
     7
 10
-491.617450896378
 20
42.6571350097656
 30
0.0
 11
-544.117450896378
 21
42.6571350097656
 31
0.0
  0
LINE
  5
   44A
  8
0
  6
CONTINUOUS
 62
     7
 10
-512.492450896378
 20
22.14990234375
 30
0.0
 11
-523.242450896378
 21
22.14990234375
 31
0.0
  0
LINE
  5
   44B
  8
0
  6
CONTINUOUS
 62
     7
 10
-512.492450896378
 20
22.2821350097656
 30
0.0
 11
-523.242450896378
 21
22.2821350097656
 31
0.0
  0
LINE
  5
   44C
  8
0
  6
CONTINUOUS
 62
     7
 10
-512.492450896378
 20
2.28214263916015
 30
0.0
 11
-523.242450896378
 21
2.28214263916015
 31
0.0
  0
LINE
  5
   44D
  8
0
  6
CONTINUOUS
 62
     7
 10
-512.492450896378
 20
2.41439056396484
 30
0.0
 11
-523.242450896378
 21
2.41439056396484
 31
0.0
  0
LINE
  5
   44E
  8
0
  6
DASHDOT
 62
     7
 10
-517.867450896378
 20
-61.3396544230689
 30
0.0
 11
-517.867450896378
 21
89.2309153786722
 31
0.0
  0
LINE
  5
   44F
  8
0
  6
CONTINUOUS
 62
     7
 10
-491.617458525772
 20
0.907142639160156
 30
0.0
 11
-491.617458525772
 21
6.9071386625409
 31
0.0
  0
LINE
  5
   450
  8
0
  6
CONTINUOUS
 62
     7
 10
-491.617458525772
 20
24.1571426391602
 30
0.0
 11
-491.617458525772
 21
43.4071502685547
 31
0.0
  0
LINE
  5
   451
  8
0
  6
CONTINUOUS
 62
     7
 10
-491.617458525772
 20
7.40713866254093
 30
0.0
 11
-491.617458525772
 21
17.1571426391602
 31
0.0
  0
LINE
  5
   452
  8
0
  6
CONTINUOUS
 62
     7
 10
-491.617458525772
 20
17.6571426391602
 30
0.0
 11
-491.617458525772
 21
23.6571426391602
 31
0.0
  0
LINE
  5
   453
  8
0
  6
CONTINUOUS
 62
     7
 10
-544.11745089638
 20
0.907142639160156
 30
0.0
 11
-544.11745089638
 21
6.90714263916124
 31
0.0
  0
LINE
  5
   454
  8
0
  6
CONTINUOUS
 62
     7
 10
-544.117450896389
 20
7.40714263916127
 30
0.0
 11
-544.117450896389
 21
17.1571426391602
 31
0.0
  0
LINE
  5
   455
  8
0
  6
CONTINUOUS
 62
     7
 10
-544.117450896375
 20
17.6571426391602
 30
0.0
 11
-544.117450896375
 21
23.6571426391602
 31
0.0
  0
LINE
  5
   456
  8
0
  6
CONTINUOUS
 62
     7
 10
-544.117450896364
 20
24.1571426391602
 30
0.0
 11
-544.117450896364
 21
43.4071502685547
 31
0.0
  0
LINE
  5
   457
  8
0
  6
CONTINUOUS
 62
     7
 10
-523.24245488324
 20
6.90714263915913
 30
0.0
 11
-543.61745092618
 21
6.90714263915913
 31
0.0
  0
LINE
  5
   458
  8
0
  6
CONTINUOUS
 62
     7
 10
-491.617458525772
 20
6.90715789794819
 30
0.0
 11
-492.117458525773
 21
6.90715789794819
 31
0.0
  0
LINE
  5
   459
  8
0
  6
CONTINUOUS
 62
     7
 10
-523.242464662784
 20
7.40714263915909
 30
0.0
 11
-543.61745092618
 21
7.40714263915909
 31
0.0
  0
LINE
  5
   45A
  8
0
  6
CONTINUOUS
 62
     7
 10
-491.617458525772
 20
7.40715789794815
 30
0.0
 11
-492.117458525773
 21
7.40715789794815
 31
0.0
  0
LINE
  5
   45B
  8
0
  6
CONTINUOUS
 62
     7
 10
-543.61745092618
 20
6.90714263916016
 30
0.0
 11
-543.61745092618
 21
7.40714263916016
 31
0.0
  0
LINE
  5
   45C
  8
0
  6
CONTINUOUS
 62
     7
 10
-492.117458525773
 20
6.90714263916016
 30
0.0
 11
-492.117458525773
 21
7.40714263916016
 31
0.0
  0
LINE
  5
   45D
  8
0
  6
CONTINUOUS
 62
     7
 10
-491.617450896378
 20
0.407142639160149
 30
0.0
 11
-492.117458525773
 21
0.407142639160149
 31
0.0
  0
LINE
  5
   45E
  8
0
  6
CONTINUOUS
 62
     7
 10
-491.617458525772
 20
0.907142639160149
 30
0.0
 11
-492.117458525773
 21
0.907142639160149
 31
0.0
  0
LINE
  5
   45F
  8
0
  6
CONTINUOUS
 62
     7
 10
-543.61745092618
 20
0.407142639160156
 30
0.0
 11
-543.61745092618
 21
0.907142639160156
 31
0.0
  0
LINE
  5
   460
  8
0
  6
CONTINUOUS
 62
     7
 10
-492.117458525773
 20
0.407142639160156
 30
0.0
 11
-492.117458525773
 21
0.907142639160156
 31
0.0
  0
LINE
  5
   461
  8
0
  6
CONTINUOUS
 62
     7
 10
-491.617458525772
 20
23.6571426391601
 30
0.0
 11
-492.117458525773
 21
23.6571426391601
 31
0.0
  0
LINE
  5
   462
  8
0
  6
CONTINUOUS
 62
     7
 10
-491.617458525772
 20
24.1571426391602
 30
0.0
 11
-492.117458525773
 21
24.1571426391602
 31
0.0
  0
LINE
  5
   463
  8
0
  6
CONTINUOUS
 62
     7
 10
-543.61745092618
 20
23.6571426391602
 30
0.0
 11
-543.61745092618
 21
24.1571426391602
 31
0.0
  0
LINE
  5
   464
  8
0
  6
CONTINUOUS
 62
     7
 10
-492.117458525773
 20
23.6571426391602
 30
0.0
 11
-492.117458525773
 21
24.1571426391602
 31
0.0
  0
LINE
  5
   465
  8
0
  6
CONTINUOUS
 62
     7
 10
-523.242454860087
 20
17.1571426391602
 30
0.0
 11
-543.61745092618
 21
17.1571426391602
 31
0.0
  0
LINE
  5
   466
  8
0
  6
CONTINUOUS
 62
     7
 10
-491.617458525772
 20
17.1571426391602
 30
0.0
 11
-492.117458525773
 21
17.1571426391602
 31
0.0
  0
LINE
  5
   467
  8
0
  6
CONTINUOUS
 62
     7
 10
-523.242450896378
 20
17.6571426391602
 30
0.0
 11
-543.61745092618
 21
17.6571426391602
 31
0.0
  0
LINE
  5
   468
  8
0
  6
CONTINUOUS
 62
     7
 10
-491.617458525772
 20
17.6571426391602
 30
0.0
 11
-492.117458525773
 21
17.6571426391602
 31
0.0
  0
LINE
  5
   469
  8
0
  6
CONTINUOUS
 62
     7
 10
-543.61745092618
 20
17.1571426391602
 30
0.0
 11
-543.61745092618
 21
17.6571426391602
 31
0.0
  0
LINE
  5
   46A
  8
0
  6
CONTINUOUS
 62
     7
 10
-492.117458525773
 20
17.1571426391602
 30
0.0
 11
-492.117458525773
 21
17.6571426391602
 31
0.0
  0
ARC
  5
   46B
  8
0
  6
CONTINUOUS
 62
     7
 10
-543.867450896378
 20
-8.59284973144532
 30
0.0
 40
0.25
 50
179.999999948034
 51
269.999999948034
  0
ARC
  5
   46C
  8
0
  6
CONTINUOUS
 62
     7
 10
-491.867450896378
 20
-8.59284973144531
 30
0.0
 40
0.25
 50
269.999999948034
 51
359.999999948034
  0
ARC
  5
   46D
  8
0
  6
CONTINUOUS
 62
     7
 10
-491.867450896378
 20
43.4071502685547
 30
0.0
 40
0.25
 50
359.999999948034
 51
449.999999948034
  0
ARC
  5
   46E
  8
0
  6
CONTINUOUS
 62
     7
 10
-543.867450896364
 20
43.4071502685547
 30
0.0
 40
0.25
 50
449.999999948034
 51
539.999999948034
  0
INSERT
  5
   46F
  8
255
  6
CONTINUOUS
 62
     7
  2
ON-OFF
 10
-507.867455779191
 20
20.6571426391602
 30
0.0
 41
0.5
 42
0.5
 50
359.999999792137
 43
0.5
  0
LINE
  5
   470
  8
0
  6
CONTINUOUS
 62
     7
 10
-529.117450896378
 20
22.9071426391602
 30
0.0
 11
-529.867450896378
 21
22.9071426391602
 31
0.0
  0
LINE
  5
   471
  8
0
  6
CONTINUOUS
 62
     7
 10
-529.117450896378
 20
18.4071426391602
 30
0.0
 11
-529.867450896378
 21
18.4071426391602
 31
0.0
  0
CIRCLE
  5
   472
  8
0
  6
CONTINUOUS
 62
     7
 10
-529.492450896378
 20
3.90714263916017
 30
0.0
 40
2.25
  0
CIRCLE
  5
   473
  8
0
  6
CONTINUOUS
 62
     7
 10
-529.492450896378
 20
3.90714263916017
 30
0.0
 40
1.5
  0
LINE
  5
   474
  8
0
  6
CONTINUOUS
 62
     7
 10
-529.867450896378
 20
18.4071426391602
 30
0.0
 11
-529.867450896378
 21
22.9071426391602
 31
0.0
  0
LINE
  5
   475
  8
0
  6
CONTINUOUS
 62
     7
 10
-529.117450896378
 20
18.4071426391602
 30
0.0
 11
-529.117450896378
 21
22.9071426391602
 31
0.0
  0
LINE
  5
   476
  8
0
  6
CONTINUOUS
 62
     7
 10
-524.617450896378
 20
0.907142639160156
 30
0.0
 11
-524.617450896378
 21
6.90714978374292
 31
0.0
  0
LINE
  5
   477
  8
0
  6
CONTINUOUS
 62
     7
 10
-511.117450896378
 20
0.907142639160156
 30
0.0
 11
-511.117450896378
 21
6.90714580711978
 31
0.0
  0
LINE
  5
   478
  8
0
  6
CONTINUOUS
 62
     7
 10
-511.117450896378
 20
17.6571426391602
 30
0.0
 11
-511.117450896378
 21
23.6571426391602
 31
0.0
  0
LINE
  5
   479
  8
0
  6
CONTINUOUS
 62
     7
 10
-524.617450896378
 20
17.6571426391602
 30
0.0
 11
-524.617450896378
 21
23.6571426391602
 31
0.0
  0
LINE
  5
   47A
  8
0
  6
CONTINUOUS
 62
     7
 10
-512.492450896378
 20
6.87178581688054
 30
0.0
 11
-523.242450896378
 21
6.87178581688054
 31
0.0
  0
LINE
  5
   47B
  8
0
  6
CONTINUOUS
 62
     7
 10
-512.492450896378
 20
2.91130963983256
 30
0.0
 11
-523.242450896378
 21
2.91130963983256
 31
0.0
  0
LINE
  5
   47C
  8
0
  6
CONTINUOUS
 62
     7
 10
-512.492450896378
 20
6.87178546615346
 30
0.0
 11
-523.242450896378
 21
6.87178546615346
 31
0.0
  0
LINE
  5
   47D
  8
0
  6
CONTINUOUS
 62
     7
 10
-512.492450896378
 20
9.34484605412531
 30
0.0
 11
-523.242450896378
 21
9.34484605412531
 31
0.0
  0
LINE
  5
   47E
  8
0
  6
CONTINUOUS
 62
     7
 10
-492.367481480501
 20
65.2821350097656
 30
0.0
 11
-543.367481480502
 21
65.2821350097656
 31
0.0
  0
LINE
  5
   47F
  8
0
  6
CONTINUOUS
 62
     7
 10
-543.36747945117
 20
57.6571311950664
 30
0.0
 11
-543.367481480502
 21
65.2821350097656
 31
0.0
  0
LINE
  5
   480
  8
0
  6
CONTINUOUS
 62
     7
 10
-492.367479451168
 20
57.6571311950664
 30
0.0
 11
-492.367481480501
 21
65.2821350097656
 31
0.0
  0
LINE
  5
   481
  8
0
  6
CONTINUOUS
 62
     7
 10
-543.61745092618
 20
24.1571426391602
 30
0.0
 11
-544.117450896364
 21
24.1571426391602
 31
0.0
  0
LINE
  5
   482
  8
0
  6
CONTINUOUS
 62
     7
 10
-543.61745092618
 20
23.6571426391601
 30
0.0
 11
-544.117450896375
 21
23.6571426391601
 31
0.0
  0
LINE
  5
   483
  8
0
  6
CONTINUOUS
 62
     7
 10
-543.61745092618
 20
17.6571426391602
 30
0.0
 11
-544.117450896375
 21
17.6571426391602
 31
0.0
  0
LINE
  5
   484
  8
0
  6
CONTINUOUS
 62
     7
 10
-543.61745092618
 20
17.1571426391602
 30
0.0
 11
-544.117450896389
 21
17.1571426391602
 31
0.0
  0
LINE
  5
   485
  8
0
  6
CONTINUOUS
 62
     7
 10
-543.61745092618
 20
7.40714263915909
 30
0.0
 11
-544.117450896389
 21
7.40714263915909
 31
0.0
  0
LINE
  5
   486
  8
0
  6
CONTINUOUS
 62
     7
 10
-543.61745092618
 20
6.90714263915913
 30
0.0
 11
-544.11745089638
 21
6.90714263915913
 31
0.0
  0
LINE
  5
   487
  8
0
  6
CONTINUOUS
 62
     7
 10
-543.61745092618
 20
0.907142639160149
 30
0.0
 11
-544.11745089638
 21
0.907142639160149
 31
0.0
  0
LINE
  5
   488
  8
0
  6
CONTINUOUS
 62
     7
 10
-543.61745092618
 20
0.407142639160149
 30
0.0
 11
-544.117450896378
 21
0.407142639160149
 31
0.0
  0
LINE
  5
   489
  8
0
  6
CONTINUOUS
 62
     7
 10
-492.117458525773
 20
0.907142639160149
 30
0.0
 11
-543.61745092618
 21
0.907142639160149
 31
0.0
  0
LINE
  5
   48A
  8
0
  6
CONTINUOUS
 62
     7
 10
-492.117458525773
 20
0.407142639160149
 30
0.0
 11
-543.61745092618
 21
0.407142639160149
 31
0.0
  0
LINE
  5
   48B
  8
0
  6
CONTINUOUS
 62
     7
 10
-492.117458525773
 20
7.40715789794815
 30
0.0
 11
-512.492452388757
 21
7.40715789794815
 31
0.0
  0
LINE
  5
   48C
  8
0
  6
CONTINUOUS
 62
     7
 10
-492.117458525773
 20
6.90715789794819
 30
0.0
 11
-512.492452571952
 21
6.90715789794819
 31
0.0
  0
LINE
  5
   48D
  8
0
  6
CONTINUOUS
 62
     7
 10
-492.117458525773
 20
17.6571426391602
 30
0.0
 11
-512.492450896378
 21
17.6571426391602
 31
0.0
  0
LINE
  5
   48E
  8
0
  6
CONTINUOUS
 62
     7
 10
-492.117458525773
 20
17.1571426391602
 30
0.0
 11
-512.492450896378
 21
17.1571426391602
 31
0.0
  0
LINE
  5
   48F
  8
0
  6
CONTINUOUS
 62
     7
 10
-492.117458525773
 20
24.1571426391602
 30
0.0
 11
-543.61745092618
 21
24.1571426391602
 31
0.0
  0
LINE
  5
   490
  8
0
  6
CONTINUOUS
 62
     7
 10
-492.117458525773
 20
23.6571426391601
 30
0.0
 11
-543.61745092618
 21
23.6571426391601
 31
0.0
  0
LINE
  5
   491
  8
0
  6
CONTINUOUS
 62
     7
 10
-552.117473928731
 20
36.907148782591
 30
0.0
 11
-552.117474594086
 21
39.4071487825909
 31
0.0
  0
LINE
  5
   492
  8
0
  6
CONTINUOUS
 62
     7
 10
-550.867473928731
 20
36.9071578979494
 30
0.0
 11
-552.117473928731
 21
36.9071578979494
 31
0.0
  0
LINE
  5
   493
  8
0
  6
CONTINUOUS
 62
     7
 10
-550.867473928731
 20
36.9071491152683
 30
0.0
 11
-550.867474594086
 21
39.4071491152682
 31
0.0
  0
LINE
  5
   494
  8
0
  6
CONTINUOUS
 62
     7
 10
-550.867474594086
 20
39.4071578979493
 30
0.0
 11
-552.117474594086
 21
39.4071578979493
 31
0.0
  0
LINE
  5
   495
  8
0
  6
CONTINUOUS
 62
     7
 10
-552.1174614866
 20
-9.84285121740738
 30
0.0
 11
-552.117462684238
 21
-5.34285121740754
 31
0.0
  0
LINE
  5
   496
  8
0
  6
CONTINUOUS
 62
     7
 10
-550.8674614866
 20
-9.84284210204889
 30
0.0
 11
-552.1174614866
 21
-9.84284210204889
 31
0.0
  0
LINE
  5
   497
  8
0
  6
CONTINUOUS
 62
     7
 10
-550.867465937063
 20
-9.84285125314594
 30
0.0
 11
-550.867474764095
 21
-5.34285125314813
 31
0.0
  0
LINE
  5
   498
  8
0
  6
CONTINUOUS
 62
     7
 10
-550.867470313633
 20
-5.34284210204905
 30
0.0
 11
-552.117462684238
 21
-5.34284210204905
 31
0.0
  0
LINE
  5
   499
  8
0
  6
CONTINUOUS
 62
     7
 10
-552.117461752739
 20
-8.84284973144346
 30
0.0
 11
-561.367461752739
 21
-8.84284973144346
 31
0.0
  0
LINE
  5
   49A
  8
0
  6
CONTINUOUS
 62
     2
 10
-561.617454999391
 20
-34.2178573608396
 30
0.0
 11
-561.617475725186
 21
43.6571386248486
 31
0.0
  0
LINE
  5
   49B
  8
0
  6
CONTINUOUS
 62
     2
 10
-561.617475725186
 20
43.6571386248486
 30
0.0
 11
-561.617482145861
 21
67.7821462542422
 31
0.0
  0
LINE
  5
   49C
  8
0
  6
CONTINUOUS
 62
     7
 10
-551.3674614866
 20
-9.84285101780099
 30
0.0
 11
-551.367462684238
 21
-5.34285101780115
 31
0.0
  0
LINE
  5
   49D
  8
0
  6
CONTINUOUS
 62
     7
 10
-551.367473928731
 20
36.9071489821973
 30
0.0
 11
-551.367474594086
 21
39.4071489821973
 31
0.0
  0
LINE
  5
   49E
  8
0
  6
CONTINUOUS
 62
     7
 10
-552.39246327862
 20
-8.84285129059683
 30
0.0
 11
-552.392477251066
 21
43.6571410800068
 31
0.0
  0
LINE
  5
   49F
  8
0
  6
CONTINUOUS
 62
     7
 10
-554.192462038844
 20
-8.84285176965183
 30
0.0
 11
-554.192476011289
 21
43.6571406009518
 31
0.0
  0
LINE
  5
   4A0
  8
0
  6
CONTINUOUS
 62
     7
 10
-555.992462229579
 20
-8.84285224870722
 30
0.0
 11
-555.992476202024
 21
43.6571401218964
 31
0.0
  0
LINE
  5
   4A1
  8
0
  6
CONTINUOUS
 62
     7
 10
-557.792455057056
 20
-34.7178497314453
 30
0.0
 11
-557.792475915921
 21
43.6571396428411
 31
0.0
  0
LINE
  5
   4A2
  8
0
  6
CONTINUOUS
 62
     7
 10
-545.192466330378
 20
-8.84284937437629
 30
0.0
 11
-545.192480302824
 21
43.6571429962273
 31
0.0
  0
LINE
  5
   4A3
  8
0
  6
CONTINUOUS
 62
     7
 10
-546.992469382136
 20
-8.84284985343244
 30
0.0
 11
-546.992483354581
 21
43.6571425171712
 31
0.0
  0
LINE
  5
   4A4
  8
0
  6
CONTINUOUS
 62
     7
 10
-548.792464804499
 20
-8.84285033248656
 30
0.0
 11
-548.792478776945
 21
43.657142038117
 31
0.0
  0
LINE
  5
   4A5
  8
0
  6
CONTINUOUS
 62
     7
 10
-550.592467856257
 20
-8.84285081154271
 30
0.0
 11
-550.592481828702
 21
43.6571415590609
 31
0.0
  0
LINE
  5
   4A6
  8
0
  6
CONTINUOUS
 62
     7
 10
-545.192459443958
 20
-34.7178497314453
 30
0.0
 11
-545.192462604388
 21
-22.8428668975849
 31
0.0
  0
LINE
  5
   4A7
  8
0
  6
CONTINUOUS
 62
     7
 10
-546.992462495716
 20
-34.7178497314453
 30
0.0
 11
-546.992469382136
 21
-8.8428494063976
 31
0.0
  0
LINE
  5
   4A8
  8
0
  6
CONTINUOUS
 62
     7
 10
-555.992455276623
 20
-34.9678497314453
 30
0.0
 11
-555.992462229579
 21
-8.84285180167239
 31
0.0
  0
LINE
  5
   4A9
  8
0
  6
CONTINUOUS
 62
     7
 10
-552.3924563922
 20
-34.7178497314453
 30
0.0
 11
-552.39246327862
 21
-8.84285084356199
 31
0.0
  0
LINE
  5
   4AA
  8
0
  6
CONTINUOUS
 62
     7
 10
-554.192455152424
 20
-34.7178497314453
 30
0.0
 11
-554.192462038844
 21
-8.842851322617
 31
0.0
  0
LINE
  5
   4AB
  8
0
  6
CONTINUOUS
 62
     7
 10
-548.792457918079
 20
-34.7178497314453
 30
0.0
 11
-548.7924648045
 21
-8.84284988545172
 31
0.0
  0
LINE
  5
   4AC
  8
0
  6
CONTINUOUS
 62
     7
 10
-550.592460969837
 20
-34.7178497314453
 30
0.0
 11
-550.592467856257
 21
-8.84285036450787
 31
0.0
  0
LINE
  5
   4AD
  8
0
  6
CONTINUOUS
 62
     7
 10
-545.192484028806
 20
57.6571311950664
 30
0.0
 11
-545.192486723496
 21
67.7821429962264
 31
0.0
  0
LINE
  5
   4AE
  8
0
  6
CONTINUOUS
 62
     7
 10
-546.992487014032
 20
57.407142971516
 30
0.0
 11
-546.992489775254
 21
67.7821425171703
 31
0.0
  0
LINE
  5
   4AF
  8
0
  6
CONTINUOUS
 62
     7
 10
-548.792478776945
 20
43.657142038117
 30
0.0
 11
-548.792485197617
 21
67.7821420381162
 31
0.0
  0
LINE
  5
   4B0
  8
0
  6
CONTINUOUS
 62
     7
 10
-550.592481828702
 20
43.6571415590609
 30
0.0
 11
-550.592488249375
 21
67.78214155906
 31
0.0
  0
LINE
  5
   4B1
  8
0
  6
CONTINUOUS
 62
     7
 10
-552.392477251066
 20
43.6571410800068
 30
0.0
 11
-552.392483671738
 21
67.7821410800059
 31
0.0
  0
LINE
  5
   4B2
  8
0
  6
CONTINUOUS
 62
     7
 10
-554.192476011289
 20
43.6571406009518
 30
0.0
 11
-554.192482431961
 21
67.7821406009509
 31
0.0
  0
LINE
  5
   4B3
  8
0
  6
CONTINUOUS
 62
     7
 10
-555.992476202024
 20
43.6571401218964
 30
0.0
 11
-555.992482622696
 21
67.7821401218955
 31
0.0
  0
LINE
  5
   4B4
  8
0
  6
CONTINUOUS
 62
     7
 10
-557.792475915921
 20
43.6571396428411
 30
0.0
 11
-557.792482336594
 21
67.7821396428403
 31
0.0
  0
ARC
  5
   4B5
  8
0
  6
CONTINUOUS
 62
     7
 10
-561.367475658651
 20
43.407138691384
 30
0.0
 40
0.25
 50
90.0000151968393
 51
180.000015196839
  0
ARC
  5
   4B6
  8
0
  6
CONTINUOUS
 62
     2
 10
-491.867483288048
 20
43.4071571882409
 30
0.0
 40
0.25
 50
360.000015196839
 51
450.000015196839
  0
ARC
  5
   4B7
  8
0
  6
CONTINUOUS
 62
     7
 10
-561.367461819275
 20
-8.5928613086141
 30
0.0
 40
0.25
 50
180.000015196839
 51
270.000015196839
  0
LINE
  5
   4B8
  8
0
  6
CONTINUOUS
 62
     7
 10
-547.117495846586
 20
43.6571386913841
 30
0.0
 11
-561.367475658651
 21
43.6571386913841
 31
0.0
  0
LINE
  5
   4B9
  8
0
  6
CONTINUOUS
 62
     7
 10
-547.117495846586
 20
-8.84284973144532
 30
0.0
 11
-550.867467898629
 21
-8.84284973144532
 31
0.0
  0
LINE
  5
   4BA
  8
0
  6
CONTINUOUS
 62
     7
 10
-547.117495846586
 20
-16.9678497314453
 30
0.0
 11
-561.617450896378
 21
-16.9678497314453
 31
0.0
  0
LINE
  5
   4BB
  8
0
  6
CONTINUOUS
 62
     7
 10
-492.242479964082
 20
-48.2178497314451
 30
0.0
 11
-560.992472020087
 21
-48.2178497314451
 31
0.0
  0
LINE
  5
   4BC
  8
0
  6
CONTINUOUS
 62
     7
 10
-492.117472020087
 20
-33.7178573608446
 30
0.0
 11
-561.117472020087
 21
-33.7178573608446
 31
0.0
  0
LINE
  5
   4BD
  8
0
  6
CONTINUOUS
 62
     7
 10
-491.617472020101
 20
-47.5928497314451
 30
0.0
 11
-491.617472020101
 21
-22.8428668975849
 31
0.0
  0
LINE
  5
   4BE
  8
0
  6
CONTINUOUS
 62
     7
 10
-561.617472020087
 20
-47.5928497314451
 30
0.0
 11
-561.617472020087
 21
-34.2178573608396
 31
0.0
  0
LINE
  5
   4BF
  8
0
  6
CONTINUOUS
 62
     7
 10
-491.742472020087
 20
-34.2178573608396
 30
0.0
 11
-561.492472020087
 21
-34.2178573608396
 31
0.0
  0
LINE
  5
   4C0
  8
0
  6
CONTINUOUS
 62
     7
 10
-492.117472020087
 20
-34.2178573608462
 30
0.0
 11
-492.117472020087
 21
-33.7178573608462
 31
0.0
  0
LINE
  5
   4C1
  8
0
  6
CONTINUOUS
 62
     7
 10
-491.617472020087
 20
-34.2178573608396
 30
0.0
 11
-491.742472020087
 21
-34.2178573608396
 31
0.0
  0
LINE
  5
   4C2
  8
0
  6
CONTINUOUS
 62
     7
 10
-561.117472020087
 20
-34.2178573608446
 30
0.0
 11
-561.117472020087
 21
-33.7178573608446
 31
0.0
  0
LINE
  5
   4C3
  8
0
  6
CONTINUOUS
 62
     7
 10
-561.492472049889
 20
-34.2178573608396
 30
0.0
 11
-561.617472020087
 21
-34.2178573608396
 31
0.0
  0
LINE
  5
   4C4
  8
0
  6
CONTINUOUS
 62
     7
 10
-557.792471733985
 20
-48.2178497314451
 30
0.0
 11
-557.792471733985
 21
-34.2178573608396
 31
0.0
  0
LINE
  5
   4C5
  8
0
  6
CONTINUOUS
 62
     7
 10
-555.992472020087
 20
-48.2178497314451
 30
0.0
 11
-555.992472020087
 21
-34.2178573608396
 31
0.0
  0
LINE
  5
   4C6
  8
0
  6
CONTINUOUS
 62
     7
 10
-554.192471829352
 20
-48.2178497314451
 30
0.0
 11
-554.192471829352
 21
-34.2178573608396
 31
0.0
  0
LINE
  5
   4C7
  8
0
  6
CONTINUOUS
 62
     7
 10
-552.392473545966
 20
-48.2178497314451
 30
0.0
 11
-552.392473545966
 21
-34.2178573608396
 31
0.0
  0
LINE
  5
   4C8
  8
0
  6
CONTINUOUS
 62
     7
 10
-550.592478123602
 20
-48.2178497314451
 30
0.0
 11
-550.592478123602
 21
-34.2178573608396
 31
0.0
  0
LINE
  5
   4C9
  8
0
  6
CONTINUOUS
 62
     7
 10
-548.792475071845
 20
-48.2178497314451
 30
0.0
 11
-548.792475071845
 21
-34.2178573608396
 31
0.0
  0
LINE
  5
   4CA
  8
0
  6
CONTINUOUS
 62
     7
 10
-546.992472020087
 20
-48.2178497314451
 30
0.0
 11
-546.992472020087
 21
-34.2178573608396
 31
0.0
  0
LINE
  5
   4CB
  8
0
  6
CONTINUOUS
 62
     7
 10
-545.192476597724
 20
-48.2178497314451
 30
0.0
 11
-545.192476597724
 21
-34.2178573608396
 31
0.0
  0
LINE
  5
   4CC
  8
0
  6
CONTINUOUS
 62
     7
 10
-543.392473545966
 20
-48.2178497314451
 30
0.0
 11
-543.392473545966
 21
-34.2178573608396
 31
0.0
  0
LINE
  5
   4CD
  8
0
  6
CONTINUOUS
 62
     7
 10
-541.592478123602
 20
-48.2178497314451
 30
0.0
 11
-541.592478123602
 21
-34.2178573608396
 31
0.0
  0
LINE
  5
   4CE
  8
0
  6
CONTINUOUS
 62
     7
 10
-539.792475071845
 20
-48.2178497314451
 30
0.0
 11
-539.792475071845
 21
-34.2178573608396
 31
0.0
  0
LINE
  5
   4CF
  8
0
  6
CONTINUOUS
 62
     7
 10
-537.992472020087
 20
-48.2178497314451
 30
0.0
 11
-537.992472020087
 21
-34.2178573608396
 31
0.0
  0
LINE
  5
   4D0
  8
0
  6
CONTINUOUS
 62
     7
 10
-536.192476597724
 20
-48.2178497314451
 30
0.0
 11
-536.192476597724
 21
-34.2178573608396
 31
0.0
  0
LINE
  5
   4D1
  8
0
  6
CONTINUOUS
 62
     7
 10
-534.392473545966
 20
-48.2178497314451
 30
0.0
 11
-534.392473545966
 21
-34.2178573608396
 31
0.0
  0
LINE
  5
   4D2
  8
0
  6
CONTINUOUS
 62
     7
 10
-532.592478123602
 20
-48.2178497314451
 30
0.0
 11
-532.592478123602
 21
-34.2178573608396
 31
0.0
  0
LINE
  5
   4D3
  8
0
  6
CONTINUOUS
 62
     7
 10
-530.792475071845
 20
-48.2178497314451
 30
0.0
 11
-530.792475071845
 21
-34.2178573608396
 31
0.0
  0
LINE
  5
   4D4
  8
0
  6
CONTINUOUS
 62
     7
 10
-528.992472020087
 20
-48.2178497314451
 30
0.0
 11
-528.992472020087
 21
-34.2178573608396
 31
0.0
  0
LINE
  5
   4D5
  8
0
  6
CONTINUOUS
 62
     7
 10
-527.192476597724
 20
-48.2178497314451
 30
0.0
 11
-527.192476597724
 21
-34.2178573608396
 31
0.0
  0
LINE
  5
   4D6
  8
0
  6
CONTINUOUS
 62
     7
 10
-525.392473545966
 20
-48.2178497314451
 30
0.0
 11
-525.392473545966
 21
-34.2178573608396
 31
0.0
  0
LINE
  5
   4D7
  8
0
  6
CONTINUOUS
 62
     7
 10
-523.592478123603
 20
-48.2178497314451
 30
0.0
 11
-523.592478123603
 21
-34.2178573608396
 31
0.0
  0
LINE
  5
   4D8
  8
0
  6
CONTINUOUS
 62
     7
 10
-521.792475071845
 20
-48.2178497314451
 30
0.0
 11
-521.792475071845
 21
-34.2178573608396
 31
0.0
  0
LINE
  5
   4D9
  8
0
  6
CONTINUOUS
 62
     7
 10
-519.992472020087
 20
-48.2178497314451
 30
0.0
 11
-519.992472020087
 21
-34.2178573608396
 31
0.0
  0
LINE
  5
   4DA
  8
0
  6
CONTINUOUS
 62
     7
 10
-518.192476597724
 20
-48.2178497314451
 30
0.0
 11
-518.192476597724
 21
-34.2178573608396
 31
0.0
  0
LINE
  5
   4DB
  8
0
  6
CONTINUOUS
 62
     7
 10
-516.392473545966
 20
-48.2178497314451
 30
0.0
 11
-516.392473545966
 21
-34.2178573608396
 31
0.0
  0
LINE
  5
   4DC
  8
0
  6
CONTINUOUS
 62
     7
 10
-514.592478123603
 20
-48.2178497314451
 30
0.0
 11
-514.592478123603
 21
-34.2178573608396
 31
0.0
  0
LINE
  5
   4DD
  8
0
  6
CONTINUOUS
 62
     7
 10
-512.792475071845
 20
-48.2178497314451
 30
0.0
 11
-512.792475071845
 21
-34.2178573608396
 31
0.0
  0
LINE
  5
   4DE
  8
0
  6
CONTINUOUS
 62
     7
 10
-510.992472020087
 20
-48.2178497314451
 30
0.0
 11
-510.992472020087
 21
-34.2178573608396
 31
0.0
  0
LINE
  5
   4DF
  8
0
  6
CONTINUOUS
 62
     7
 10
-509.192476597724
 20
-48.2178497314451
 30
0.0
 11
-509.192476597724
 21
-34.2178573608396
 31
0.0
  0
LINE
  5
   4E0
  8
0
  6
CONTINUOUS
 62
     7
 10
-507.392473545966
 20
-48.2178497314451
 30
0.0
 11
-507.392473545966
 21
-34.2178573608396
 31
0.0
  0
LINE
  5
   4E1
  8
0
  6
CONTINUOUS
 62
     7
 10
-505.592478123602
 20
-48.2178497314451
 30
0.0
 11
-505.592478123602
 21
-34.2178573608396
 31
0.0
  0
LINE
  5
   4E2
  8
0
  6
CONTINUOUS
 62
     7
 10
-503.792475071845
 20
-48.2178497314451
 30
0.0
 11
-503.792475071845
 21
-34.2178573608396
 31
0.0
  0
LINE
  5
   4E3
  8
0
  6
CONTINUOUS
 62
     7
 10
-501.992472020087
 20
-48.2178497314451
 30
0.0
 11
-501.992472020087
 21
-34.2178573608396
 31
0.0
  0
LINE
  5
   4E4
  8
0
  6
CONTINUOUS
 62
     7
 10
-500.192476597724
 20
-48.2178497314451
 30
0.0
 11
-500.192476597724
 21
-34.2178573608396
 31
0.0
  0
LINE
  5
   4E5
  8
0
  6
CONTINUOUS
 62
     7
 10
-498.392473545966
 20
-48.2178497314451
 30
0.0
 11
-498.392473545966
 21
-34.2178573608396
 31
0.0
  0
LINE
  5
   4E6
  8
0
  6
CONTINUOUS
 62
     7
 10
-496.592478123602
 20
-48.2178497314451
 30
0.0
 11
-496.592478123602
 21
-34.2178573608396
 31
0.0
  0
LINE
  5
   4E7
  8
0
  6
CONTINUOUS
 62
     7
 10
-494.792475071845
 20
-48.2178497314451
 30
0.0
 11
-494.792475071845
 21
-34.2178573608396
 31
0.0
  0
LINE
  5
   4E8
  8
0
  6
CONTINUOUS
 62
     7
 10
-492.992472020087
 20
-48.2178497314451
 30
0.0
 11
-492.992472020087
 21
-34.2178573608396
 31
0.0
  0
ARC
  5
   4E9
  8
0
  6
CONTINUOUS
 62
     7
 10
-560.992472020087
 20
-47.5928497314451
 30
0.0
 40
0.625
 50
179.999999948034
 51
269.999999948034
  0
ARC
  5
   4EA
  8
0
  6
CONTINUOUS
 62
     7
 10
-492.242479964082
 20
-47.5928497314451
 30
0.0
 40
0.625
 50
269.999999948034
 51
359.99996389588
  0
LINE
  5
   4EB
  8
0
  6
CONTINUOUS
 62
     7
 10
-492.242479964082
 20
81.2820892333982
 30
0.0
 11
-560.992472020087
 21
81.2820892333982
 31
0.0
  0
LINE
  5
   4EC
  8
0
  6
CONTINUOUS
 62
     7
 10
-492.117472020087
 20
66.7820968627977
 30
0.0
 11
-561.117472020087
 21
66.7820968627977
 31
0.0
  0
LINE
  5
   4ED
  8
0
  6
CONTINUOUS
 62
     7
 10
-491.617472020101
 20
67.2820968907781
 30
0.0
 11
-491.617472020101
 21
80.6570892333981
 31
0.0
  0
LINE
  5
   4EE
  8
0
  6
CONTINUOUS
 62
     7
 10
-561.617472020087
 20
67.2820968627927
 30
0.0
 11
-561.617472020087
 21
80.6570892333982
 31
0.0
  0
LINE
  5
   4EF
  8
0
  6
CONTINUOUS
 62
     7
 10
-491.742472020087
 20
67.2820968627927
 30
0.0
 11
-561.492472020087
 21
67.2820968627927
 31
0.0
  0
LINE
  5
   4F0
  8
0
  6
CONTINUOUS
 62
     7
 10
-492.117472020087
 20
66.7820968627994
 30
0.0
 11
-492.117472020087
 21
67.2820968627994
 31
0.0
  0
LINE
  5
   4F1
  8
0
  6
CONTINUOUS
 62
     7
 10
-491.617472020087
 20
67.2820968627927
 30
0.0
 11
-491.742472020087
 21
67.2820968627927
 31
0.0
  0
LINE
  5
   4F2
  8
0
  6
CONTINUOUS
 62
     7
 10
-561.117472020087
 20
66.7820968627978
 30
0.0
 11
-561.117472020087
 21
67.2820968627977
 31
0.0
  0
LINE
  5
   4F3
  8
0
  6
CONTINUOUS
 62
     7
 10
-561.492472049889
 20
67.2820968627927
 30
0.0
 11
-561.617472020087
 21
67.2820968627927
 31
0.0
  0
LINE
  5
   4F4
  8
0
  6
CONTINUOUS
 62
     7
 10
-559.59247192472
 20
-48.2178497314451
 30
0.0
 11
-559.59247192472
 21
81.2820892333982
 31
0.0
  0
LINE
  5
   4F5
  8
0
  6
CONTINUOUS
 62
     7
 10
-557.792471733985
 20
67.2820968627927
 30
0.0
 11
-557.792471733985
 21
81.2820892333982
 31
0.0
  0
LINE
  5
   4F6
  8
0
  6
CONTINUOUS
 62
     7
 10
-555.992472020087
 20
67.2820968627927
 30
0.0
 11
-555.992472020087
 21
81.2820892333982
 31
0.0
  0
LINE
  5
   4F7
  8
0
  6
CONTINUOUS
 62
     7
 10
-554.192471829352
 20
67.2820968627927
 30
0.0
 11
-554.192471829352
 21
81.2820892333982
 31
0.0
  0
LINE
  5
   4F8
  8
0
  6
CONTINUOUS
 62
     7
 10
-552.392473545966
 20
67.2820968627927
 30
0.0
 11
-552.392473545966
 21
81.2820892333982
 31
0.0
  0
LINE
  5
   4F9
  8
0
  6
CONTINUOUS
 62
     7
 10
-550.592478123603
 20
67.2820968627927
 30
0.0
 11
-550.592478123603
 21
81.2820892333982
 31
0.0
  0
LINE
  5
   4FA
  8
0
  6
CONTINUOUS
 62
     7
 10
-548.792475071845
 20
67.2820968627927
 30
0.0
 11
-548.792475071845
 21
81.2820892333982
 31
0.0
  0
LINE
  5
   4FB
  8
0
  6
CONTINUOUS
 62
     7
 10
-546.992472020087
 20
67.2820968627927
 30
0.0
 11
-546.992472020087
 21
81.2820892333982
 31
0.0
  0
LINE
  5
   4FC
  8
0
  6
CONTINUOUS
 62
     7
 10
-545.192476597724
 20
67.2820968627927
 30
0.0
 11
-545.192476597724
 21
81.2820892333982
 31
0.0
  0
LINE
  5
   4FD
  8
0
  6
CONTINUOUS
 62
     7
 10
-543.392473545966
 20
67.2820968627927
 30
0.0
 11
-543.392473545966
 21
81.2820892333982
 31
0.0
  0
LINE
  5
   4FE
  8
0
  6
CONTINUOUS
 62
     7
 10
-541.592478123603
 20
67.2820968627927
 30
0.0
 11
-541.592478123603
 21
81.2820892333982
 31
0.0
  0
LINE
  5
   4FF
  8
0
  6
CONTINUOUS
 62
     7
 10
-539.792475071845
 20
67.2820968627927
 30
0.0
 11
-539.792475071845
 21
81.2820892333982
 31
0.0
  0
LINE
  5
   500
  8
0
  6
CONTINUOUS
 62
     7
 10
-537.992472020087
 20
67.2820968627927
 30
0.0
 11
-537.992472020087
 21
81.2820892333982
 31
0.0
  0
LINE
  5
   501
  8
0
  6
CONTINUOUS
 62
     7
 10
-536.192476597724
 20
67.2820968627927
 30
0.0
 11
-536.192476597724
 21
81.2820892333982
 31
0.0
  0
LINE
  5
   502
  8
0
  6
CONTINUOUS
 62
     7
 10
-534.392473545966
 20
67.2820968627927
 30
0.0
 11
-534.392473545966
 21
81.2820892333982
 31
0.0
  0
LINE
  5
   503
  8
0
  6
CONTINUOUS
 62
     7
 10
-532.592478123603
 20
67.2820968627927
 30
0.0
 11
-532.592478123603
 21
81.2820892333982
 31
0.0
  0
LINE
  5
   504
  8
0
  6
CONTINUOUS
 62
     7
 10
-530.792475071845
 20
67.2820968627927
 30
0.0
 11
-530.792475071845
 21
81.2820892333982
 31
0.0
  0
LINE
  5
   505
  8
0
  6
CONTINUOUS
 62
     7
 10
-528.992472020087
 20
67.2820968627927
 30
0.0
 11
-528.992472020087
 21
81.2820892333982
 31
0.0
  0
LINE
  5
   506
  8
0
  6
CONTINUOUS
 62
     7
 10
-527.192476597724
 20
67.2820968627927
 30
0.0
 11
-527.192476597724
 21
81.2820892333982
 31
0.0
  0
LINE
  5
   507
  8
0
  6
CONTINUOUS
 62
     7
 10
-525.392473545966
 20
67.2820968627927
 30
0.0
 11
-525.392473545966
 21
81.2820892333982
 31
0.0
  0
LINE
  5
   508
  8
0
  6
CONTINUOUS
 62
     7
 10
-523.592478123603
 20
67.2820968627927
 30
0.0
 11
-523.592478123603
 21
81.2820892333982
 31
0.0
  0
LINE
  5
   509
  8
0
  6
CONTINUOUS
 62
     7
 10
-521.792475071845
 20
67.2820968627927
 30
0.0
 11
-521.792475071845
 21
81.2820892333982
 31
0.0
  0
LINE
  5
   50A
  8
0
  6
CONTINUOUS
 62
     7
 10
-519.992472020087
 20
67.2820968627927
 30
0.0
 11
-519.992472020087
 21
81.2820892333982
 31
0.0
  0
LINE
  5
   50B
  8
0
  6
CONTINUOUS
 62
     7
 10
-518.192476597724
 20
67.2820968627927
 30
0.0
 11
-518.192476597724
 21
79.6570892333982
 31
0.0
  0
LINE
  5
   50C
  8
0
  6
CONTINUOUS
 62
     7
 10
-516.392473545966
 20
67.2820968627927
 30
0.0
 11
-516.392473545966
 21
81.2820892333982
 31
0.0
  0
LINE
  5
   50D
  8
0
  6
CONTINUOUS
 62
     7
 10
-514.592478123603
 20
67.2820968627927
 30
0.0
 11
-514.592478123603
 21
81.2820892333982
 31
0.0
  0
LINE
  5
   50E
  8
0
  6
CONTINUOUS
 62
     7
 10
-512.792475071845
 20
67.2820968627927
 30
0.0
 11
-512.792475071845
 21
81.2820892333982
 31
0.0
  0
LINE
  5
   50F
  8
0
  6
CONTINUOUS
 62
     7
 10
-510.992472020087
 20
67.2820968627927
 30
0.0
 11
-510.992472020087
 21
81.2820892333982
 31
0.0
  0
LINE
  5
   510
  8
0
  6
CONTINUOUS
 62
     7
 10
-509.192476597724
 20
67.2820968627927
 30
0.0
 11
-509.192476597724
 21
81.2820892333982
 31
0.0
  0
LINE
  5
   511
  8
0
  6
CONTINUOUS
 62
     7
 10
-507.392473545966
 20
67.2820968627927
 30
0.0
 11
-507.392473545966
 21
81.2820892333982
 31
0.0
  0
LINE
  5
   512
  8
0
  6
CONTINUOUS
 62
     7
 10
-505.592478123603
 20
67.2820968627927
 30
0.0
 11
-505.592478123603
 21
81.2820892333982
 31
0.0
  0
LINE
  5
   513
  8
0
  6
CONTINUOUS
 62
     7
 10
-503.792475071845
 20
67.2820968627927
 30
0.0
 11
-503.792475071845
 21
81.2820892333982
 31
0.0
  0
LINE
  5
   514
  8
0
  6
CONTINUOUS
 62
     7
 10
-501.992472020087
 20
67.2820968627927
 30
0.0
 11
-501.992472020087
 21
81.2820892333982
 31
0.0
  0
LINE
  5
   515
  8
0
  6
CONTINUOUS
 62
     7
 10
-500.192476597724
 20
67.2820968627927
 30
0.0
 11
-500.192476597724
 21
81.2820892333982
 31
0.0
  0
LINE
  5
   516
  8
0
  6
CONTINUOUS
 62
     7
 10
-498.392473545966
 20
67.2820968627927
 30
0.0
 11
-498.392473545966
 21
81.2820892333982
 31
0.0
  0
LINE
  5
   517
  8
0
  6
CONTINUOUS
 62
     7
 10
-496.592478123603
 20
67.2820968627927
 30
0.0
 11
-496.592478123603
 21
81.2820892333982
 31
0.0
  0
LINE
  5
   518
  8
0
  6
CONTINUOUS
 62
     7
 10
-494.792475071845
 20
67.2820968627927
 30
0.0
 11
-494.792475071845
 21
81.2820892333982
 31
0.0
  0
LINE
  5
   519
  8
0
  6
CONTINUOUS
 62
     7
 10
-492.992472020087
 20
67.2820968627927
 30
0.0
 11
-492.992472020087
 21
81.2820892333982
 31
0.0
  0
ARC
  5
   51A
  8
0
  6
CONTINUOUS
 62
     7
 10
-560.992472020087
 20
80.6570892333982
 30
0.0
 40
0.625
 50
449.999999948034
 51
539.999999948034
  0
ARC
  5
   51B
  8
0
  6
CONTINUOUS
 62
     7
 10
-492.242479964082
 20
80.6570892333981
 30
0.0
 40
0.625
 50
360.000036000188
 51
449.999999948034
  0
LINE
  5
   51C
  8
0
  6
DASHDOT
 62
     7
 10
-483.285601648151
 20
17.4071502685547
 30
0.0
 11
-571.966378652248
 21
17.4071502685547
 31
0.0
  0
CIRCLE
  5
   51D
  8
0
  6
CONTINUOUS
 62
     7
 10
-490.146658592489
 20
54.3425015615205
 30
0.0
 40
0.1
  0
TEXT
  5
   51E
  8
0
  6
CONTINUOUS
 62
     7
 10
-474.795394897255
 20
0.381325727584379
 30
0.0
 40
3.00000002980232
  1
=          =
 50
89.9999999480344
 41
0.916666604744064
 72
     1
 11
-476.295394897461
 21
16.6063247919083
 31
0.0
 73
     2
  0
INSERT
  5
   51F
  8
0
  6
CONTINUOUS
 62
     7
  2
*UDIM2431
 10
0.0
 20
0.0
 30
0.0
  0
TEXT
  5
   520
  8
0
  6
CONTINUOUS
 62
     7
 10
-534.358798021189
 20
-70.0125827671771
 30
0.0
 40
3.00000002980232
  1
=          =
 50
359.999999948034
 41
0.916666604744064
 72
     1
 11
-518.133798956871
 21
-68.51258276691
 31
0.0
 73
     2
  0
INSERT
  5
   521
  8
0
  6
CONTINUOUS
 62
     7
  2
*UDIM2432
 10
0.0
 20
0.0
 30
0.0
  0
INSERT
  5
   522
  8
0
  6
CONTINUOUS
 62
     7
  2
*UDIM2433
 10
0.0
 20
0.0
 30
0.0
  0
TEXT
  5
   523
  8
0
  6
CONTINUOUS
 62
     7
 10
-534.265394132197
 20
-61.9251587064531
 30
0.0
 40
3.00000002980232
  1
=          =
 50
359.999999948034
 41
0.916666604744064
 72
     2
 11
-501.815396006266
 21
-61.9251587357212
 31
0.0
  0
INSERT
  5
   524
  8
0
  6
CONTINUOUS
 62
     7
  2
*UDIM2434
 10
0.0
 20
0.0
 30
0.0
  0
INSERT
  5
   525
  8
0
  6
CONTINUOUS
 62
     7
  2
*UDIM2435
 10
0.0
 20
0.0
 30
0.0
  0
TEXT
  5
   526
  8
0
  6
CONTINUOUS
 62
     7
 10
-590.198005993532
 20
16.601636534126
 30
0.0
 40
3.00000002980232
  1
X
 50
359.999999948034
 41
0.916666604744064
 72
     2
 11
-587.998006124662
 21
16.6016365321417
 31
0.0
  0
INSERT
  5
   527
  8
0
  6
CONTINUOUS
 62
     7
  2
*UDIM2436
 10
0.0
 20
0.0
 30
0.0
  0
TEXT
  5
   528
  8
0
  6
CONTINUOUS
 62
     7
 10
-473.514053256672
 20
16.137020356156
 30
0.0
 40
3.00000002980232
  1
X
 50
359.999999948034
 41
0.916666604744064
 72
     1
 11
-472.414053320885
 21
17.6370203700651
 31
0.0
 73
     2
  0
TEXT
  5
   529
  8
0
  6
CONTINUOUS
 62
     7
 10
-516.735435397786
 20
95.8917543954627
 30
0.0
 40
3.00000002980232
  1
Y
 50
359.999999948034
 41
0.916666604744064
 72
     1
 11
-515.635435461998
 21
97.3917544093717
 31
0.0
 73
     2
  0
INSERT
  5
   52A
  8
255
  6
CONTINUOUS
 62
     7
  2
MOSTRINA
 10
-575.286624264554
 20
-37.5831794738789
 30
0.0
 41
0.5
 42
0.5
 50
3.50835464724173E-15
 43
0.5
  0
LINE
  5
   52B
  8
0
  6
CONTINUOUS
 62
     7
 10
-403.3642578125
 20
-68.4067840576172
 30
0.0
 11
-403.3642578125
 21
-80.9067840576172
 31
0.0
  0
LINE
  5
   52C
  8
0
  6
CONTINUOUS
 62
     7
 10
-403.3642578125
 20
-85.9067687988281
 30
0.0
 11
-403.3642578125
 21
-98.4067687988281
 31
0.0
  0
LINE
  5
   52D
  8
0
  6
CONTINUOUS
 62
     7
 10
-403.3642578125
 20
-103.406761169434
 30
0.0
 11
-403.3642578125
 21
-115.906761169434
 31
0.0
  0
LINE
  5
   52E
  8
0
  6
CONTINUOUS
 62
     7
 10
-379.364234924316
 20
-135.906747817993
 30
0.0
 11
-401.1142578125
 21
-135.906747817993
 31
0.0
  0
LINE
  5
   52F
  8
0
  6
CONTINUOUS
 62
     7
 10
-397.864257812904
 20
-65.9067535398088
 30
0.0
 11
-401.114257812904
 21
-65.906745910414
 31
0.0
  0
LINE
  5
   530
  8
0
  6
CONTINUOUS
 62
     7
 10
-379.364234924316
 20
-65.9067611694336
 30
0.0
 11
-397.8642578125
 21
-65.9067611694336
 31
0.0
  0
LINE
  5
   531
  8
0
  6
CONTINUOUS
 62
     7
 10
-379.364234924316
 20
-65.9067611694336
 30
0.0
 11
-379.364234924316
 21
-68.4067615924638
 31
0.0
  0
LINE
  5
   532
  8
0
  6
CONTINUOUS
 62
     7
 10
-379.364234924316
 20
-80.9067615125578
 30
0.0
 11
-379.364234924316
 21
-83.4067687988281
 31
0.0
  0
LINE
  5
   533
  8
0
  6
CONTINUOUS
 62
     7
 10
-379.364234924316
 20
-98.4067614230766
 30
0.0
 11
-379.364234924316
 21
-100.906768798828
 31
0.0
  0
LINE
  5
   534
  8
0
  6
CONTINUOUS
 62
     7
 10
-379.364234924316
 20
-133.406761333596
 30
0.0
 11
-379.364234924316
 21
-135.906747817993
 31
0.0
  0
LINE
  5
   535
  8
0
  6
CONTINUOUS
 62
     7
 10
-397.8642578125
 20
-65.9067630767822
 30
0.0
 11
-397.8642578125
 21
-83.4067687988281
 31
0.0
  0
LINE
  5
   536
  8
0
  6
CONTINUOUS
 62
     7
 10
-401.1142578125
 20
-133.906761169434
 30
0.0
 11
-401.1142578125
 21
-135.906747817993
 31
0.0
  0
LINE
  5
   537
  8
0
  6
CONTINUOUS
 62
     7
 10
-401.1142578125
 20
-98.4067687988281
 30
0.0
 11
-401.1142578125
 21
-103.406761169434
 31
0.0
  0
LINE
  5
   538
  8
0
  6
CONTINUOUS
 62
     7
 10
-401.1142578125
 20
-80.9067840576172
 30
0.0
 11
-401.1142578125
 21
-85.9067687988281
 31
0.0
  0
LINE
  5
   539
  8
0
  6
CONTINUOUS
 62
     7
 10
-401.1142578125
 20
-65.9067459106445
 30
0.0
 11
-401.1142578125
 21
-67.9067306518555
 31
0.0
  0
LINE
  5
   53A
  8
0
  6
CONTINUOUS
 62
     7
 10
-404.1142578125
 20
-133.156768798828
 30
0.0
 11
-404.1142578125
 21
-133.906761169434
 31
0.0
  0
LINE
  5
   53B
  8
0
  6
CONTINUOUS
 62
     7
 10
-404.1142578125
 20
-67.9067306518555
 30
0.0
 11
-404.1142578125
 21
-68.6567687988281
 31
0.0
  0
LINE
  5
   53C
  8
0
  6
CONTINUOUS
 62
     7
 10
-388.614234924316
 20
-87.0317687988281
 30
0.0
 11
-388.614234924316
 21
-97.2817687988281
 31
0.0
  0
LINE
  5
   53D
  8
0
  6
CONTINUOUS
 62
     7
 10
-384.864234924316
 20
-97.2817687988281
 30
0.0
 11
-388.614234924316
 21
-97.2817687988281
 31
0.0
  0
LINE
  5
   53E
  8
0
  6
CONTINUOUS
 62
     7
 10
-384.864234924316
 20
-87.0317687988281
 30
0.0
 11
-388.614234924316
 21
-87.0317687988281
 31
0.0
  0
LINE
  5
   53F
  8
0
  6
CONTINUOUS
 62
     7
 10
-388.614234924316
 20
-104.531768798828
 30
0.0
 11
-388.614234924316
 21
-114.781768798828
 31
0.0
  0
LINE
  5
   540
  8
0
  6
CONTINUOUS
 62
     7
 10
-384.864234924316
 20
-114.781768798828
 30
0.0
 11
-388.614234924316
 21
-114.781768798828
 31
0.0
  0
LINE
  5
   541
  8
0
  6
CONTINUOUS
 62
     7
 10
-384.864234924316
 20
-104.531768798828
 30
0.0
 11
-388.614234924316
 21
-104.531768798828
 31
0.0
  0
LINE
  5
   542
  8
0
  6
CONTINUOUS
 62
     7
 10
-388.614234924316
 20
-69.5317687988281
 30
0.0
 11
-388.614234924316
 21
-79.7817687988281
 31
0.0
  0
LINE
  5
   543
  8
0
  6
CONTINUOUS
 62
     7
 10
-384.864234924316
 20
-79.7817687988281
 30
0.0
 11
-388.614234924316
 21
-79.7817687988281
 31
0.0
  0
LINE
  5
   544
  8
0
  6
CONTINUOUS
 62
     7
 10
-384.864234924316
 20
-69.5317687988281
 30
0.0
 11
-388.614234924316
 21
-69.5317687988281
 31
0.0
  0
LINE
  5
   545
  8
0
  6
CONTINUOUS
 62
     7
 10
-379.364234924316
 20
-67.1567611694336
 30
0.0
 11
-397.8642578125
 21
-67.1567611694336
 31
0.0
  0
LINE
  5
   546
  8
0
  6
CONTINUOUS
 62
     7
 10
-379.364234924316
 20
-134.656761169434
 30
0.0
 11
-397.8642578125
 21
-134.656761169434
 31
0.0
  0
LINE
  5
   547
  8
0
  6
CONTINUOUS
 62
     7
 10
-379.364234924316
 20
-99.6567611694336
 30
0.0
 11
-397.8642578125
 21
-99.6567611694336
 31
0.0
  0
LINE
  5
   548
  8
0
  6
CONTINUOUS
 62
     7
 10
-379.364234924316
 20
-102.156761169434
 30
0.0
 11
-397.8642578125
 21
-102.156761169434
 31
0.0
  0
LINE
  5
   549
  8
0
  6
CONTINUOUS
 62
     7
 10
-379.364234924316
 20
-84.6567306518555
 30
0.0
 11
-397.8642578125
 21
-84.6567306518555
 31
0.0
  0
LINE
  5
   54A
  8
0
  6
CONTINUOUS
 62
     7
 10
-379.364234924316
 20
-82.1567306518555
 30
0.0
 11
-397.8642578125
 21
-82.1567306518555
 31
0.0
  0
LINE
  5
   54B
  8
0
  6
CONTINUOUS
 62
   253
 10
-411.3642578125
 20
-103.656768798828
 30
0.0
 11
-411.3642578125
 21
-115.656768798828
 31
0.0
  0
LINE
  5
   54C
  8
0
  6
CONTINUOUS
 62
   253
 10
-411.3642578125
 20
-68.6567687988281
 30
0.0
 11
-411.3642578125
 21
-80.6567687988281
 31
0.0
  0
LINE
  5
   54D
  8
0
  6
CONTINUOUS
 62
   253
 10
-411.364234924316
 20
-86.6567764282227
 30
0.0
 11
-411.364234924316
 21
-97.6567764282227
 31
0.0
  0
LINE
  5
   54E
  8
0
  6
CONTINUOUS
 62
     7
 10
-422.514236450195
 20
-69.1567916870117
 30
0.0
 11
-422.514236450195
 21
-80.1567916870117
 31
0.0
  0
LINE
  5
   54F
  8
0
  6
CONTINUOUS
 62
     7
 10
-423.764236450195
 20
-79.4067916870117
 30
0.0
 11
-423.764236450195
 21
-80.1567916870117
 31
0.0
  0
LINE
  5
   550
  8
0
  6
CONTINUOUS
 62
     7
 10
-423.764236450195
 20
-69.978385925293
 30
0.0
 11
-423.764236450195
 21
-79.3351974487305
 31
0.0
  0
LINE
  5
   551
  8
0
  6
CONTINUOUS
 62
     7
 10
-423.764236450195
 20
-69.1567916870117
 30
0.0
 11
-423.764236450195
 21
-69.9067916870117
 31
0.0
  0
LINE
  5
   552
  8
0
  6
CONTINUOUS
 62
     7
 10
-418.264236450195
 20
-69.1567916870117
 30
0.0
 11
-418.264236450195
 21
-69.9067916870117
 31
0.0
  0
LINE
  5
   553
  8
0
  6
CONTINUOUS
 62
     7
 10
-418.264236450195
 20
-69.978385925293
 30
0.0
 11
-418.264236450195
 21
-79.3351974487305
 31
0.0
  0
LINE
  5
   554
  8
0
  6
CONTINUOUS
 62
     7
 10
-418.264236450195
 20
-79.4067916870117
 30
0.0
 11
-418.264236450195
 21
-80.1567916870117
 31
0.0
  0
LINE
  5
   555
  8
0
  6
CONTINUOUS
 62
     7
 10
-419.514236450195
 20
-69.1567916870117
 30
0.0
 11
-419.514236450195
 21
-80.1567916870117
 31
0.0
  0
LINE
  5
   556
  8
0
  6
CONTINUOUS
 62
     3
 10
-411.764236450195
 20
-69.9067916870117
 30
0.0
 11
-414.764236450195
 21
-69.9067916870117
 31
0.0
  0
LINE
  5
   557
  8
0
  6
CONTINUOUS
 62
     3
 10
-411.764236450195
 20
-79.4067916870117
 30
0.0
 11
-414.764236450195
 21
-79.4067916870117
 31
0.0
  0
LINE
  5
   558
  8
0
  6
CONTINUOUS
 62
     3
 10
-414.764236450195
 20
-69.9067916870117
 30
0.0
 11
-414.764236450195
 21
-79.4067916870117
 31
0.0
  0
LINE
  5
   559
  8
0
  6
CONTINUOUS
 62
     3
 10
-411.764236450195
 20
-69.9067916870117
 30
0.0
 11
-411.764236450195
 21
-71.1097030639649
 31
0.0
  0
LINE
  5
   55A
  8
0
  6
CONTINUOUS
 62
     3
 10
-411.764236450195
 20
-73.4995956420898
 30
0.0
 11
-411.764236450195
 21
-75.8139953613281
 31
0.0
  0
LINE
  5
   55B
  8
0
  6
CONTINUOUS
 62
     3
 10
-411.764236450195
 20
-78.2038993835449
 30
0.0
 11
-411.764236450195
 21
-79.4067916870117
 31
0.0
  0
LINE
  5
   55C
  8
0
  6
CONTINUOUS
 62
     3
 10
-415.264236450195
 20
-69.9067916870117
 30
0.0
 11
-418.264236450195
 21
-69.9067916870117
 31
0.0
  0
LINE
  5
   55D
  8
0
  6
CONTINUOUS
 62
     3
 10
-415.264236450195
 20
-79.4067916870117
 30
0.0
 11
-418.264236450195
 21
-79.4067916870117
 31
0.0
  0
LINE
  5
   55E
  8
0
  6
CONTINUOUS
 62
     3
 10
-418.264236450195
 20
-79.3351974487305
 30
0.0
 11
-418.264236450195
 21
-79.4067916870117
 31
0.0
  0
LINE
  5
   55F
  8
0
  6
CONTINUOUS
 62
     3
 10
-418.264236450195
 20
-69.9067916870117
 30
0.0
 11
-418.264236450195
 21
-69.9783897399902
 31
0.0
  0
LINE
  5
   560
  8
0
  6
CONTINUOUS
 62
     3
 10
-415.264236450195
 20
-69.9067916870117
 30
0.0
 11
-415.264236450195
 21
-79.4067916870117
 31
0.0
  0
LINE
  5
   561
  8
0
  6
CONTINUOUS
 62
     3
 10
-423.764236450195
 20
-69.9067916870117
 30
0.0
 11
-426.764236450195
 21
-69.9067916870117
 31
0.0
  0
LINE
  5
   562
  8
0
  6
CONTINUOUS
 62
     3
 10
-423.764236450195
 20
-79.4067916870117
 30
0.0
 11
-426.764236450195
 21
-79.4067916870117
 31
0.0
  0
LINE
  5
   563
  8
0
  6
CONTINUOUS
 62
     3
 10
-423.764236450195
 20
-69.9067916870117
 30
0.0
 11
-423.764236450195
 21
-69.9783897399902
 31
0.0
  0
LINE
  5
   564
  8
0
  6
CONTINUOUS
 62
     3
 10
-423.764236450195
 20
-79.3351974487305
 30
0.0
 11
-423.764236450195
 21
-79.4067916870117
 31
0.0
  0
LINE
  5
   565
  8
0
  6
CONTINUOUS
 62
     3
 10
-426.764236450195
 20
-69.9067916870117
 30
0.0
 11
-426.764236450195
 21
-79.4067916870117
 31
0.0
  0
LINE
  5
   566
  8
0
  6
CONTINUOUS
 62
   130
 10
-387.614234924316
 20
-87.1567764282227
 30
0.0
 11
-387.614234924316
 21
-97.1567764282227
 31
0.0
  0
LINE
  5
   567
  8
0
  6
CONTINUOUS
 62
   130
 10
-387.614234924316
 20
-104.656768798828
 30
0.0
 11
-387.614234924316
 21
-114.656768798828
 31
0.0
  0
LINE
  5
   568
  8
0
  6
CONTINUOUS
 62
     7
 10
-411.764236450195
 20
-79.4067916870117
 30
0.0
 11
-411.764236450195
 21
-79.6567916870117
 31
0.0
  0
LINE
  5
   569
  8
0
  6
CONTINUOUS
 62
     7
 10
-411.764236450195
 20
-75.8140029907227
 30
0.0
 11
-411.764236450195
 21
-78.2038879394531
 31
0.0
  0
LINE
  5
   56A
  8
0
  6
CONTINUOUS
 62
     7
 10
-411.764236450195
 20
-71.1096878051758
 30
0.0
 11
-411.764236450195
 21
-73.4995880126953
 31
0.0
  0
LINE
  5
   56B
  8
0
  6
CONTINUOUS
 62
     7
 10
-411.764236450195
 20
-69.6567916870117
 30
0.0
 11
-411.764236450195
 21
-69.9067916870117
 31
0.0
  0
LINE
  5
   56C
  8
0
  6
CONTINUOUS
 62
   130
 10
-387.614234924316
 20
-69.6567687988281
 30
0.0
 11
-387.614234924316
 21
-79.6567687988281
 31
0.0
  0
LINE
  5
   56D
  8
0
  6
CONTINUOUS
 62
   212
 10
-428.114234924316
 20
-72.6567764282227
 30
0.0
 11
-428.114234924316
 21
-76.6567764282227
 31
0.0
  0
LINE
  5
   56E
  8
0
  6
CONTINUOUS
 62
   212
 10
-387.364234924316
 20
-96.4067764282227
 30
0.0
 11
-387.614234924316
 21
-96.4067764282227
 31
0.0
  0
LINE
  5
   56F
  8
0
  6
CONTINUOUS
 62
   212
 10
-387.364234924316
 20
-87.9067764282227
 30
0.0
 11
-387.614234924316
 21
-87.9067764282227
 31
0.0
  0
LINE
  5
   570
  8
0
  6
CONTINUOUS
 62
   212
 10
-387.364234924316
 20
-90.4067764282227
 30
0.0
 11
-387.614234924316
 21
-90.4067764282227
 31
0.0
  0
LINE
  5
   571
  8
0
  6
CONTINUOUS
 62
   212
 10
-387.364234924316
 20
-93.9067764282227
 30
0.0
 11
-387.614234924316
 21
-93.9067764282227
 31
0.0
  0
LINE
  5
   572
  8
0
  6
CONTINUOUS
 62
   212
 10
-387.364234924316
 20
-78.9067764282227
 30
0.0
 11
-387.614234924316
 21
-78.9067764282227
 31
0.0
  0
LINE
  5
   573
  8
0
  6
CONTINUOUS
 62
   212
 10
-387.364234924316
 20
-70.4067764282227
 30
0.0
 11
-387.614234924316
 21
-70.4067764282227
 31
0.0
  0
LINE
  5
   574
  8
0
  6
CONTINUOUS
 62
   212
 10
-387.364234924316
 20
-76.4067764282227
 30
0.0
 11
-387.614234924316
 21
-76.4067764282227
 31
0.0
  0
LINE
  5
   575
  8
0
  6
CONTINUOUS
 62
   212
 10
-387.364234924316
 20
-72.9067764282227
 30
0.0
 11
-387.614234924316
 21
-72.9067764282227
 31
0.0
  0
LINE
  5
   576
  8
0
  6
CONTINUOUS
 62
   212
 10
-387.364234924316
 20
-113.906776428223
 30
0.0
 11
-387.614234924316
 21
-113.906776428223
 31
0.0
  0
LINE
  5
   577
  8
0
  6
CONTINUOUS
 62
   212
 10
-387.364234924316
 20
-105.406776428223
 30
0.0
 11
-387.614234924316
 21
-105.406776428223
 31
0.0
  0
LINE
  5
   578
  8
0
  6
CONTINUOUS
 62
   212
 10
-387.364234924316
 20
-111.406776428223
 30
0.0
 11
-387.614234924316
 21
-111.406776428223
 31
0.0
  0
LINE
  5
   579
  8
0
  6
CONTINUOUS
 62
   212
 10
-387.364234924316
 20
-107.906776428223
 30
0.0
 11
-387.614234924316
 21
-107.906776428223
 31
0.0
  0
LINE
  5
   57A
  8
0
  6
CONTINUOUS
 62
     3
 10
-403.1142578125
 20
-80.9067840576172
 30
0.0
 11
-403.1142578125
 21
-85.9067687988281
 31
0.0
  0
LINE
  5
   57B
  8
0
  6
CONTINUOUS
 62
     3
 10
-403.1142578125
 20
-98.4067726135254
 30
0.0
 11
-403.1142578125
 21
-103.406764984131
 31
0.0
  0
LINE
  5
   57C
  8
0
  6
CONTINUOUS
 62
     3
 10
-403.8642578125
 20
-98.1567764282227
 30
0.0
 11
-403.8642578125
 21
-103.656768798828
 31
0.0
  0
LINE
  5
   57D
  8
0
  6
CONTINUOUS
 62
     3
 10
-403.8642578125
 20
-80.6567687988281
 30
0.0
 11
-403.8642578125
 21
-86.1567764282227
 31
0.0
  0
LINE
  5
   57E
  8
0
  6
CONTINUOUS
 62
   253
 10
-411.3642578125
 20
-97.6567764282227
 30
0.0
 11
-411.3642578125
 21
-98.1567687988281
 31
0.0
  0
LINE
  5
   57F
  8
0
  6
CONTINUOUS
 62
   253
 10
-411.3642578125
 20
-86.1567687988281
 30
0.0
 11
-411.3642578125
 21
-86.6567764282227
 31
0.0
  0
LINE
  5
   580
  8
0
  6
CONTINUOUS
 62
     7
 10
-444.264236450195
 20
-86.6567764282227
 30
0.0
 11
-444.264236450195
 21
-87.4067764282227
 31
0.0
  0
LINE
  5
   581
  8
0
  6
CONTINUOUS
 62
     7
 10
-444.264236450195
 20
-87.4783706665039
 30
0.0
 11
-444.264236450195
 21
-96.8351860046387
 31
0.0
  0
LINE
  5
   582
  8
0
  6
CONTINUOUS
 62
     7
 10
-444.264236450195
 20
-96.9067764282227
 30
0.0
 11
-444.264236450195
 21
-97.6567764282227
 31
0.0
  0
LINE
  5
   583
  8
0
  6
CONTINUOUS
 62
     7
 10
-445.514236450195
 20
-86.6567764282227
 30
0.0
 11
-445.514236450195
 21
-97.6567764282227
 31
0.0
  0
LINE
  5
   584
  8
0
  6
CONTINUOUS
 62
     7
 10
-448.514236450195
 20
-86.6567764282227
 30
0.0
 11
-448.514236450195
 21
-97.6567764282227
 31
0.0
  0
LINE
  5
   585
  8
0
  6
CONTINUOUS
 62
     7
 10
-449.764236450195
 20
-96.9067764282227
 30
0.0
 11
-449.764236450195
 21
-97.6567764282227
 31
0.0
  0
LINE
  5
   586
  8
0
  6
CONTINUOUS
 62
     7
 10
-449.764236450195
 20
-87.4783706665039
 30
0.0
 11
-449.764236450195
 21
-96.8351860046387
 31
0.0
  0
LINE
  5
   587
  8
0
  6
CONTINUOUS
 62
     7
 10
-449.764236450195
 20
-86.6567764282227
 30
0.0
 11
-449.764236450195
 21
-87.4067764282227
 31
0.0
  0
LINE
  5
   588
  8
0
  6
CONTINUOUS
 62
     3
 10
-437.764236450195
 20
-96.9067764282227
 30
0.0
 11
-440.764236450195
 21
-96.9067764282227
 31
0.0
  0
LINE
  5
   589
  8
0
  6
CONTINUOUS
 62
     3
 10
-437.764236450195
 20
-87.4067764282227
 30
0.0
 11
-440.764236450195
 21
-87.4067764282227
 31
0.0
  0
LINE
  5
   58A
  8
0
  6
CONTINUOUS
 62
     3
 10
-440.764236450195
 20
-87.4067764282227
 30
0.0
 11
-440.764236450195
 21
-96.9067764282227
 31
0.0
  0
LINE
  5
   58B
  8
0
  6
CONTINUOUS
 62
     3
 10
-437.764236450195
 20
-87.4067764282227
 30
0.0
 11
-437.764236450195
 21
-88.609676361084
 31
0.0
  0
LINE
  5
   58C
  8
0
  6
CONTINUOUS
 62
     3
 10
-437.764236450195
 20
-90.9995727539063
 30
0.0
 11
-437.764236450195
 21
-93.3139762878418
 31
0.0
  0
LINE
  5
   58D
  8
0
  6
CONTINUOUS
 62
     3
 10
-437.764236450195
 20
-95.7038841247559
 30
0.0
 11
-437.764236450195
 21
-96.9067764282227
 31
0.0
  0
LINE
  5
   58E
  8
0
  6
CONTINUOUS
 62
     3
 10
-441.264236450195
 20
-96.9067764282227
 30
0.0
 11
-444.264236450195
 21
-96.9067764282227
 31
0.0
  0
LINE
  5
   58F
  8
0
  6
CONTINUOUS
 62
     3
 10
-441.264236450195
 20
-87.4067764282227
 30
0.0
 11
-444.264236450195
 21
-87.4067764282227
 31
0.0
  0
LINE
  5
   590
  8
0
  6
CONTINUOUS
 62
     3
 10
-444.264236450195
 20
-96.8351860046387
 30
0.0
 11
-444.264236450195
 21
-96.9067764282227
 31
0.0
  0
LINE
  5
   591
  8
0
  6
CONTINUOUS
 62
     3
 10
-444.264236450195
 20
-87.4067764282227
 30
0.0
 11
-444.264236450195
 21
-87.4783744812012
 31
0.0
  0
LINE
  5
   592
  8
0
  6
CONTINUOUS
 62
     3
 10
-441.264236450195
 20
-87.4067764282227
 30
0.0
 11
-441.264236450195
 21
-96.9067764282227
 31
0.0
  0
LINE
  5
   593
  8
0
  6
CONTINUOUS
 62
     3
 10
-449.764236450195
 20
-96.9067764282227
 30
0.0
 11
-452.764236450195
 21
-96.9067764282227
 31
0.0
  0
LINE
  5
   594
  8
0
  6
CONTINUOUS
 62
     3
 10
-449.764236450195
 20
-87.4067764282227
 30
0.0
 11
-452.764236450195
 21
-87.4067764282227
 31
0.0
  0
LINE
  5
   595
  8
0
  6
CONTINUOUS
 62
     3
 10
-449.764236450195
 20
-87.4067764282227
 30
0.0
 11
-449.764236450195
 21
-87.4783744812012
 31
0.0
  0
LINE
  5
   596
  8
0
  6
CONTINUOUS
 62
     3
 10
-449.764236450195
 20
-96.8351860046387
 30
0.0
 11
-449.764236450195
 21
-96.9067764282227
 31
0.0
  0
LINE
  5
   597
  8
0
  6
CONTINUOUS
 62
     3
 10
-452.764236450195
 20
-87.4067764282227
 30
0.0
 11
-452.764236450195
 21
-96.9067764282227
 31
0.0
  0
LINE
  5
   598
  8
0
  6
CONTINUOUS
 62
     7
 10
-437.364234924316
 20
-87.1567764282227
 30
0.0
 11
-437.364234924316
 21
-97.1567764282227
 31
0.0
  0
LINE
  5
   599
  8
0
  6
CONTINUOUS
 62
     7
 10
-437.764236450195
 20
-96.9067764282227
 30
0.0
 11
-437.764236450195
 21
-97.1567764282227
 31
0.0
  0
LINE
  5
   59A
  8
0
  6
CONTINUOUS
 62
     7
 10
-437.764236450195
 20
-93.3139801025391
 30
0.0
 11
-437.764236450195
 21
-95.7038879394531
 31
0.0
  0
LINE
  5
   59B
  8
0
  6
CONTINUOUS
 62
     7
 10
-437.764236450195
 20
-88.6096801757813
 30
0.0
 11
-437.764236450195
 21
-90.9995765686035
 31
0.0
  0
LINE
  5
   59C
  8
0
  6
CONTINUOUS
 62
     7
 10
-437.764236450195
 20
-87.1567764282227
 30
0.0
 11
-437.764236450195
 21
-87.4067764282227
 31
0.0
  0
LINE
  5
   59D
  8
0
  6
CONTINUOUS
 62
   212
 10
-454.114234924316
 20
-90.1567764282227
 30
0.0
 11
-454.114234924316
 21
-94.1567764282227
 31
0.0
  0
LINE
  5
   59E
  8
0
  6
CONTINUOUS
 62
     7
 10
-397.8642578125
 20
-80.9067840576172
 30
0.0
 11
-401.1142578125
 21
-80.9067840576172
 31
0.0
  0
LINE
  5
   59F
  8
0
  6
CONTINUOUS
 62
     7
 10
-397.8642578125
 20
-68.4067840576172
 30
0.0
 11
-403.3642578125
 21
-68.4067840576172
 31
0.0
  0
LINE
  5
   5A0
  8
0
  6
CONTINUOUS
 62
     7
 10
-397.8642578125
 20
-98.4067687988281
 30
0.0
 11
-401.1142578125
 21
-98.4067687988281
 31
0.0
  0
LINE
  5
   5A1
  8
0
  6
CONTINUOUS
 62
     7
 10
-397.8642578125
 20
-85.9067687988281
 30
0.0
 11
-401.1142578125
 21
-85.9067687988281
 31
0.0
  0
LINE
  5
   5A2
  8
0
  6
CONTINUOUS
 62
     7
 10
-397.8642578125
 20
-133.406761169434
 30
0.0
 11
-403.3642578125
 21
-133.406761169434
 31
0.0
  0
LINE
  5
   5A3
  8
0
  6
CONTINUOUS
 62
     7
 10
-397.8642578125
 20
-103.406761169434
 30
0.0
 11
-401.1142578125
 21
-103.406761169434
 31
0.0
  0
LINE
  5
   5A4
  8
0
  6
CONTINUOUS
 62
     7
 10
-397.8642578125
 20
-133.906761169434
 30
0.0
 11
-401.1142578125
 21
-133.906761169434
 31
0.0
  0
LINE
  5
   5A5
  8
0
  6
CONTINUOUS
 62
     7
 10
-397.8642578125
 20
-67.9067306518555
 30
0.0
 11
-401.1142578125
 21
-67.9067306518555
 31
0.0
  0
LINE
  5
   5A6
  8
0
  6
CONTINUOUS
 62
     7
 10
-379.364234924316
 20
-67.6567611694336
 30
0.0
 11
-397.8642578125
 21
-67.6567611694336
 31
0.0
  0
LINE
  5
   5A7
  8
0
  6
CONTINUOUS
 62
     7
 10
-379.364234924316
 20
-134.156761169434
 30
0.0
 11
-397.8642578125
 21
-134.156761169434
 31
0.0
  0
LINE
  5
   5A8
  8
0
  6
CONTINUOUS
 62
   253
 10
-403.3642578125
 20
-103.656768798828
 30
0.0
 11
-411.3642578125
 21
-103.656768798828
 31
0.0
  0
LINE
  5
   5A9
  8
0
  6
CONTINUOUS
 62
   253
 10
-403.3642578125
 20
-115.656768798828
 30
0.0
 11
-411.3642578125
 21
-115.656768798828
 31
0.0
  0
LINE
  5
   5AA
  8
0
  6
CONTINUOUS
 62
   253
 10
-403.3642578125
 20
-68.6567687988281
 30
0.0
 11
-411.3642578125
 21
-68.6567687988281
 31
0.0
  0
LINE
  5
   5AB
  8
0
  6
CONTINUOUS
 62
   253
 10
-403.3642578125
 20
-80.6567687988281
 30
0.0
 11
-411.3642578125
 21
-80.6567687988281
 31
0.0
  0
LINE
  5
   5AC
  8
0
  6
CONTINUOUS
 62
   253
 10
-403.364234924316
 20
-86.1567764282227
 30
0.0
 11
-410.864234924316
 21
-86.1567764282227
 31
0.0
  0
LINE
  5
   5AD
  8
0
  6
CONTINUOUS
 62
   253
 10
-403.364234924316
 20
-98.1567764282227
 30
0.0
 11
-410.864234924316
 21
-98.1567764282227
 31
0.0
  0
LINE
  5
   5AE
  8
0
  6
CONTINUOUS
 62
   253
 10
-410.864233336276
 20
-86.1567773460386
 30
0.0
 11
-411.364233319162
 21
-86.6567773289244
 31
0.0
  0
LINE
  5
   5AF
  8
0
  6
CONTINUOUS
 62
   253
 10
-410.86423235359
 20
-98.1567784584659
 30
0.0
 11
-411.364232336476
 21
-97.6567784755801
 31
0.0
  0
LINE
  5
   5B0
  8
0
  6
CONTINUOUS
 62
     7
 10
-422.514236450195
 20
-69.1567916870117
 30
0.0
 11
-423.764236450195
 21
-69.1567916870117
 31
0.0
  0
LINE
  5
   5B1
  8
0
  6
CONTINUOUS
 62
     7
 10
-422.514236450195
 20
-80.1567916870117
 30
0.0
 11
-423.764236450195
 21
-80.1567916870117
 31
0.0
  0
LINE
  5
   5B2
  8
0
  6
CONTINUOUS
 62
     7
 10
-418.264236450195
 20
-69.1567916870117
 30
0.0
 11
-419.514236450195
 21
-69.1567916870117
 31
0.0
  0
LINE
  5
   5B3
  8
0
  6
CONTINUOUS
 62
     7
 10
-418.264236450195
 20
-80.1567916870117
 30
0.0
 11
-419.514236450195
 21
-80.1567916870117
 31
0.0
  0
LINE
  5
   5B4
  8
0
  6
CONTINUOUS
 62
     3
 10
-411.764236450195
 20
-92.1567916870117
 30
0.0
 11
-414.764236450195
 21
-92.1567916870117
 31
0.0
  0
LINE
  5
   5B5
  8
0
  6
CONTINUOUS
 62
     3
 10
-415.264236450195
 20
-92.1567916870117
 30
0.0
 11
-418.264236450195
 21
-92.1567916870117
 31
0.0
  0
LINE
  5
   5B6
  8
0
  6
CONTINUOUS
 62
     3
 10
-423.764236450195
 20
-92.1567916870117
 30
0.0
 11
-426.764236450195
 21
-92.1567916870117
 31
0.0
  0
LINE
  5
   5B7
  8
0
  6
CONTINUOUS
 62
   130
 10
-387.614234924316
 20
-97.1567764282227
 30
0.0
 11
-388.614234924316
 21
-97.1567764282227
 31
0.0
  0
LINE
  5
   5B8
  8
0
  6
CONTINUOUS
 62
   130
 10
-387.614234924316
 20
-87.1567764282227
 30
0.0
 11
-388.614234924316
 21
-87.1567764282227
 31
0.0
  0
LINE
  5
   5B9
  8
0
  6
CONTINUOUS
 62
   130
 10
-387.614234924316
 20
-114.656768798828
 30
0.0
 11
-388.614234924316
 21
-114.656768798828
 31
0.0
  0
LINE
  5
   5BA
  8
0
  6
CONTINUOUS
 62
   130
 10
-387.614234924316
 20
-104.656768798828
 30
0.0
 11
-388.614234924316
 21
-104.656768798828
 31
0.0
  0
LINE
  5
   5BB
  8
0
  6
CONTINUOUS
 62
     7
 10
-411.364234924316
 20
-69.6567916870117
 30
0.0
 11
-411.764236450195
 21
-69.6567916870117
 31
0.0
  0
LINE
  5
   5BC
  8
0
  6
CONTINUOUS
 62
     7
 10
-411.364234924316
 20
-79.6567916870117
 30
0.0
 11
-411.764236450195
 21
-79.6567916870117
 31
0.0
  0
LINE
  5
   5BD
  8
0
  6
CONTINUOUS
 62
   130
 10
-387.614234924316
 20
-79.6567687988281
 30
0.0
 11
-388.614234924316
 21
-79.6567687988281
 31
0.0
  0
LINE
  5
   5BE
  8
0
  6
CONTINUOUS
 62
   130
 10
-387.614234924316
 20
-69.6567687988281
 30
0.0
 11
-388.614234924316
 21
-69.6567687988281
 31
0.0
  0
LINE
  5
   5BF
  8
0
  6
CONTINUOUS
 62
   212
 10
-427.114232893445
 20
-71.6567771299709
 30
0.0
 11
-428.114232859216
 21
-72.6567770957424
 31
0.0
  0
LINE
  5
   5C0
  8
0
  6
CONTINUOUS
 62
   212
 10
-427.114231910758
 20
-77.6567786745335
 30
0.0
 11
-428.11423187653
 21
-76.6567787087621
 31
0.0
  0
LINE
  5
   5C1
  8
0
  6
CONTINUOUS
 62
   212
 10
-426.764236450195
 20
-71.6567764282227
 30
0.0
 11
-427.114234924316
 21
-71.6567764282227
 31
0.0
  0
LINE
  5
   5C2
  8
0
  6
CONTINUOUS
 62
   212
 10
-419.514236450195
 20
-71.6567764282227
 30
0.0
 11
-422.514236450195
 21
-71.6567764282227
 31
0.0
  0
LINE
  5
   5C3
  8
0
  6
CONTINUOUS
 62
   212
 10
-414.764236450195
 20
-71.6567764282227
 30
0.0
 11
-415.264236450195
 21
-71.6567764282227
 31
0.0
  0
LINE
  5
   5C4
  8
0
  6
CONTINUOUS
 62
   212
 10
-427.114234924316
 20
-71.6567764282227
 30
0.0
 11
-427.114234924316
 21
-77.6567764282227
 31
0.0
  0
LINE
  5
   5C5
  8
0
  6
CONTINUOUS
 62
   212
 10
-426.764236450195
 20
-77.6567764282227
 30
0.0
 11
-427.114234924316
 21
-77.6567764282227
 31
0.0
  0
LINE
  5
   5C6
  8
0
  6
CONTINUOUS
 62
   212
 10
-419.514236450195
 20
-77.6567764282227
 30
0.0
 11
-422.514236450195
 21
-77.6567764282227
 31
0.0
  0
LINE
  5
   5C7
  8
0
  6
CONTINUOUS
 62
   212
 10
-414.764236450195
 20
-77.6567764282227
 30
0.0
 11
-415.264236450195
 21
-77.6567764282227
 31
0.0
  0
LINE
  5
   5C8
  8
0
  6
CONTINUOUS
 62
   253
 10
-410.864234924316
 20
-86.1567687988281
 30
0.0
 11
-411.3642578125
 21
-86.1567687988281
 31
0.0
  0
LINE
  5
   5C9
  8
0
  6
CONTINUOUS
 62
   253
 10
-410.864234924316
 20
-98.1567687988281
 30
0.0
 11
-411.3642578125
 21
-98.1567687988281
 31
0.0
  0
LINE
  5
   5CA
  8
0
  6
CONTINUOUS
 62
   253
 10
-411.364234924316
 20
-87.1567687988281
 30
0.0
 11
-436.8642578125
 21
-87.1567687988281
 31
0.0
  0
LINE
  5
   5CB
  8
0
  6
CONTINUOUS
 62
   253
 10
-411.364234924316
 20
-97.1567687988281
 30
0.0
 11
-436.8642578125
 21
-97.1567687988281
 31
0.0
  0
LINE
  5
   5CC
  8
0
  6
CONTINUOUS
 62
   253
 10
-436.864260028042
 20
-87.1567683922944
 30
0.0
 11
-437.217813803453
 21
-87.3032184298115
 31
0.0
  0
LINE
  5
   5CD
  8
0
  6
CONTINUOUS
 62
   253
 10
-437.217809514075
 20
-87.3032203793177
 30
0.0
 11
-437.364255742351
 21
-87.6567703321296
 31
0.0
  0
LINE
  5
   5CE
  8
0
  6
CONTINUOUS
 62
   253
 10
-436.864260212297
 20
-97.1567677257057
 30
0.0
 11
-437.217813984332
 21
-97.0103214974226
 31
0.0
  0
LINE
  5
   5CF
  8
0
  6
CONTINUOUS
 62
   253
 10
-437.217813150672
 20
-97.0103210900881
 30
0.0
 11
-437.364259378955
 21
-96.6567673180535
 31
0.0
  0
LINE
  5
   5D0
  8
0
  6
CONTINUOUS
 62
     7
 10
-444.264236450195
 20
-97.6567764282227
 30
0.0
 11
-445.514236450195
 21
-97.6567764282227
 31
0.0
  0
LINE
  5
   5D1
  8
0
  6
CONTINUOUS
 62
     7
 10
-444.264236450195
 20
-86.6567764282227
 30
0.0
 11
-445.514236450195
 21
-86.6567764282227
 31
0.0
  0
LINE
  5
   5D2
  8
0
  6
CONTINUOUS
 62
     7
 10
-448.514236450195
 20
-97.6567764282227
 30
0.0
 11
-449.764236450195
 21
-97.6567764282227
 31
0.0
  0
LINE
  5
   5D3
  8
0
  6
CONTINUOUS
 62
     7
 10
-448.514236450195
 20
-86.6567764282227
 30
0.0
 11
-449.764236450195
 21
-86.6567764282227
 31
0.0
  0
LINE
  5
   5D4
  8
0
  6
CONTINUOUS
 62
     3
 10
-437.764236450195
 20
-92.1567764282227
 30
0.0
 11
-440.764236450195
 21
-92.1567764282227
 31
0.0
  0
LINE
  5
   5D5
  8
0
  6
CONTINUOUS
 62
     3
 10
-441.264236450195
 20
-92.1567764282227
 30
0.0
 11
-444.264236450195
 21
-92.1567764282227
 31
0.0
  0
LINE
  5
   5D6
  8
0
  6
CONTINUOUS
 62
     3
 10
-449.764236450195
 20
-92.1567764282227
 30
0.0
 11
-452.764236450195
 21
-92.1567764282227
 31
0.0
  0
LINE
  5
   5D7
  8
0
  6
CONTINUOUS
 62
     7
 10
-437.364234924316
 20
-97.1567764282227
 30
0.0
 11
-437.764236450195
 21
-97.1567764282227
 31
0.0
  0
LINE
  5
   5D8
  8
0
  6
CONTINUOUS
 62
     7
 10
-437.364234924316
 20
-87.1567764282227
 30
0.0
 11
-437.764236450195
 21
-87.1567764282227
 31
0.0
  0
LINE
  5
   5D9
  8
0
  6
CONTINUOUS
 62
   212
 10
-453.114231243302
 20
-95.156778897019
 30
0.0
 11
-454.114231209073
 21
-94.1567789312476
 31
0.0
  0
LINE
  5
   5DA
  8
0
  6
CONTINUOUS
 62
   212
 10
-453.114232225988
 20
-89.1567769074855
 30
0.0
 11
-454.114232191759
 21
-90.1567768732569
 31
0.0
  0
LINE
  5
   5DB
  8
0
  6
CONTINUOUS
 62
   212
 10
-452.764236450195
 20
-95.1567764282227
 30
0.0
 11
-453.114234924316
 21
-95.1567764282227
 31
0.0
  0
LINE
  5
   5DC
  8
0
  6
CONTINUOUS
 62
   212
 10
-445.514236450195
 20
-95.1567764282227
 30
0.0
 11
-448.514236450195
 21
-95.1567764282227
 31
0.0
  0
LINE
  5
   5DD
  8
0
  6
CONTINUOUS
 62
   212
 10
-440.764236450195
 20
-95.1567764282227
 30
0.0
 11
-441.264236450195
 21
-95.1567764282227
 31
0.0
  0
LINE
  5
   5DE
  8
0
  6
CONTINUOUS
 62
   212
 10
-453.114234924316
 20
-89.1567764282227
 30
0.0
 11
-453.114234924316
 21
-95.1567764282227
 31
0.0
  0
LINE
  5
   5DF
  8
0
  6
CONTINUOUS
 62
   212
 10
-452.764236450195
 20
-89.1567764282227
 30
0.0
 11
-453.114234924316
 21
-89.1567764282227
 31
0.0
  0
LINE
  5
   5E0
  8
0
  6
CONTINUOUS
 62
   212
 10
-445.514236450195
 20
-89.1567764282227
 30
0.0
 11
-448.514236450195
 21
-89.1567764282227
 31
0.0
  0
LINE
  5
   5E1
  8
0
  6
CONTINUOUS
 62
   212
 10
-440.764236450195
 20
-89.1567764282227
 30
0.0
 11
-441.264236450195
 21
-89.1567764282227
 31
0.0
  0
LINE
  5
   5E2
  8
0
  6
CONTINUOUS
 62
     7
 10
-375.019787088548
 20
-83.4067687988281
 30
0.0
 11
-414.291983927325
 21
-83.4067687988281
 31
0.0
  0
LINE
  5
   5E3
  8
0
  6
CONTINUOUS
 62
     7
 10
-375.019787088548
 20
-100.906768798828
 30
0.0
 11
-414.494417931648
 21
-100.906768798828
 31
0.0
  0
LINE
  5
   5E4
  8
0
  6
CONTINUOUS
 62
     7
 10
-397.8642578125
 20
-83.4067687988281
 30
0.0
 11
-397.8642578125
 21
-100.906768798828
 31
0.0
  0
LINE
  5
   5E5
  8
0
  6
CONTINUOUS
 62
     7
 10
-397.8642578125
 20
-100.906768798828
 30
0.0
 11
-397.8642578125
 21
-118.406747817993
 31
0.0
  0
LINE
  5
   5E6
  8
0
  6
CONTINUOUS
 62
     7
 10
-379.364234924316
 20
-100.906768798828
 30
0.0
 11
-379.364234924316
 21
-103.406761413501
 31
0.0
  0
LINE
  5
   5E7
  8
0
  6
CONTINUOUS
 62
     7
 10
-379.364234924316
 20
-83.4067687988281
 30
0.0
 11
-379.364234924316
 21
-85.9067615029826
 31
0.0
  0
LINE
  5
   5E8
  8
0
  6
CONTINUOUS
 62
     7
 10
-401.1142578125
 20
-67.9067306518555
 30
0.0
 11
-404.1142578125
 21
-67.9067306518555
 31
0.0
  0
LINE
  5
   5E9
  8
0
  6
CONTINUOUS
 62
     7
 10
-401.1142578125
 20
-80.9067840576172
 30
0.0
 11
-403.3642578125
 21
-80.9067840576172
 31
0.0
  0
LINE
  5
   5EA
  8
0
  6
CONTINUOUS
 62
     7
 10
-401.1142578125
 20
-85.9067687988281
 30
0.0
 11
-403.3642578125
 21
-85.9067687988281
 31
0.0
  0
LINE
  5
   5EB
  8
0
  6
CONTINUOUS
 62
     7
 10
-401.1142578125
 20
-98.4067687988281
 30
0.0
 11
-403.3642578125
 21
-98.4067687988281
 31
0.0
  0
LINE
  5
   5EC
  8
0
  6
CONTINUOUS
 62
     7
 10
-401.1142578125
 20
-103.406761169434
 30
0.0
 11
-403.3642578125
 21
-103.406761169434
 31
0.0
  0
LINE
  5
   5ED
  8
0
  6
CONTINUOUS
 62
     7
 10
-401.1142578125
 20
-133.906761169434
 30
0.0
 11
-404.1142578125
 21
-133.906761169434
 31
0.0
  0
LINE
  5
   5EE
  8
0
  6
CONTINUOUS
 62
     2
 10
-384.864234924316
 20
-96.7817764282227
 30
0.0
 11
-387.364234924316
 21
-96.7817764282227
 31
0.0
  0
LINE
  5
   5EF
  8
0
  6
CONTINUOUS
 62
     2
 10
-384.864234924316
 20
-87.5317764282227
 30
0.0
 11
-387.364234924316
 21
-87.5317764282227
 31
0.0
  0
LINE
  5
   5F0
  8
0
  6
CONTINUOUS
 62
     2
 10
-387.364234924316
 20
-87.5317764282227
 30
0.0
 11
-387.364234924316
 21
-96.7817764282227
 31
0.0
  0
LINE
  5
   5F1
  8
0
  6
CONTINUOUS
 62
     2
 10
-379.864234924347
 20
-96.78177261351
 30
0.0
 11
-384.864234924347
 21
-96.7817764282074
 31
0.0
  0
LINE
  5
   5F2
  8
0
  6
CONTINUOUS
 62
     2
 10
-379.86423492435
 20
-87.5317726135073
 30
0.0
 11
-384.86423492435
 21
-87.5317764282046
 31
0.0
  0
LINE
  5
   5F3
  8
0
  6
CONTINUOUS
 62
     2
 10
-384.864234924316
 20
-96.7817649841309
 30
0.0
 11
-384.864234924316
 21
-98.6567611694336
 31
0.0
  0
LINE
  5
   5F4
  8
0
  6
CONTINUOUS
 62
     2
 10
-384.864234924316
 20
-85.6567611694336
 30
0.0
 11
-384.864234924316
 21
-87.5317611694336
 31
0.0
  0
LINE
  5
   5F5
  8
0
  6
CONTINUOUS
 62
     2
 10
-379.364234924316
 20
-85.6567611694336
 30
0.0
 11
-379.364234924316
 21
-87.1567611694336
 31
0.0
  0
LINE
  5
   5F6
  8
0
  6
CONTINUOUS
 62
     2
 10
-379.364234924316
 20
-97.1567611694336
 30
0.0
 11
-379.364234924316
 21
-98.6567611694336
 31
0.0
  0
LINE
  5
   5F7
  8
0
  6
CONTINUOUS
 62
     2
 10
-379.364234924316
 20
-97.1567611694336
 30
0.0
 11
-379.864234924316
 21
-97.1567611694336
 31
0.0
  0
LINE
  5
   5F8
  8
0
  6
CONTINUOUS
 62
     2
 10
-379.364234924316
 20
-87.1567611694336
 30
0.0
 11
-379.864234924316
 21
-87.1567611694336
 31
0.0
  0
LINE
  5
   5F9
  8
0
  6
CONTINUOUS
 62
     2
 10
-379.364234924316
 20
-87.1567611694336
 30
0.0
 11
-379.364234924316
 21
-97.1567611694336
 31
0.0
  0
LINE
  5
   5FA
  8
0
  6
CONTINUOUS
 62
     2
 10
-379.864234924316
 20
-87.1567611694336
 30
0.0
 11
-379.864234924316
 21
-87.5317764282227
 31
0.0
  0
LINE
  5
   5FB
  8
0
  6
CONTINUOUS
 62
     2
 10
-379.864234924316
 20
-96.7817764282227
 30
0.0
 11
-379.864234924316
 21
-97.1567611694336
 31
0.0
  0
LINE
  5
   5FC
  8
0
  6
CONTINUOUS
 62
     2
 10
-371.864234924316
 20
-86.1567611694336
 30
0.0
 11
-371.864234924316
 21
-98.1567611694336
 31
0.0
  0
LINE
  5
   5FD
  8
0
  6
CONTINUOUS
 62
     2
 10
-382.998210906982
 20
-96.7817764282227
 30
0.0
 11
-382.998210906982
 21
-97.2817535400391
 31
0.0
  0
LINE
  5
   5FE
  8
0
  6
CONTINUOUS
 62
     2
 10
-382.998209423118
 20
-97.2817544029672
 30
0.0
 11
-384.864233392706
 21
-96.7817658292168
 31
0.0
  0
LINE
  5
   5FF
  8
0
  6
CONTINUOUS
 62
     2
 10
-382.998210906982
 20
-87.0317497253418
 30
0.0
 11
-382.998210906982
 21
-87.5317497253418
 31
0.0
  0
LINE
  5
   600
  8
0
  6
CONTINUOUS
 62
     2
 10
-382.998207531193
 20
-87.0317516909512
 30
0.0
 11
-384.864231500785
 21
-87.5317631096259
 31
0.0
  0
LINE
  5
   601
  8
0
  6
CONTINUOUS
 62
     2
 10
-384.864234924316
 20
-79.2817764282227
 30
0.0
 11
-387.364234924316
 21
-79.2817764282227
 31
0.0
  0
LINE
  5
   602
  8
0
  6
CONTINUOUS
 62
     2
 10
-384.864234924316
 20
-70.0317764282227
 30
0.0
 11
-387.364234924316
 21
-70.0317764282227
 31
0.0
  0
LINE
  5
   603
  8
0
  6
CONTINUOUS
 62
     2
 10
-387.364234924316
 20
-70.0317764282227
 30
0.0
 11
-387.364234924316
 21
-79.2817764282227
 31
0.0
  0
LINE
  5
   604
  8
0
  6
CONTINUOUS
 62
     2
 10
-379.864234924316
 20
-79.2817764282227
 30
0.0
 11
-384.864234924316
 21
-79.2817764282227
 31
0.0
  0
LINE
  5
   605
  8
0
  6
CONTINUOUS
 62
     2
 10
-379.864234924316
 20
-70.0317764282227
 30
0.0
 11
-384.864234924316
 21
-70.0317764282227
 31
0.0
  0
LINE
  5
   606
  8
0
  6
CONTINUOUS
 62
     2
 10
-384.864234924316
 20
-79.2817611694336
 30
0.0
 11
-384.864234924316
 21
-81.1567611694336
 31
0.0
  0
LINE
  5
   607
  8
0
  6
CONTINUOUS
 62
     2
 10
-384.864234924316
 20
-68.1567611694336
 30
0.0
 11
-384.864234924316
 21
-70.0317611694336
 31
0.0
  0
LINE
  5
   608
  8
0
  6
CONTINUOUS
 62
     2
 10
-379.364234924316
 20
-68.1567611694336
 30
0.0
 11
-379.364234924316
 21
-69.6567611694336
 31
0.0
  0
LINE
  5
   609
  8
0
  6
CONTINUOUS
 62
     2
 10
-379.364234924316
 20
-79.6567611694336
 30
0.0
 11
-379.364234924316
 21
-81.1567611694336
 31
0.0
  0
LINE
  5
   60A
  8
0
  6
CONTINUOUS
 62
     2
 10
-379.364234924316
 20
-79.6567611694336
 30
0.0
 11
-379.864234924316
 21
-79.6567611694336
 31
0.0
  0
LINE
  5
   60B
  8
0
  6
CONTINUOUS
 62
     2
 10
-379.364234924316
 20
-69.6567611694336
 30
0.0
 11
-379.864234924316
 21
-69.6567611694336
 31
0.0
  0
LINE
  5
   60C
  8
0
  6
CONTINUOUS
 62
     2
 10
-379.364234924316
 20
-69.6567611694336
 30
0.0
 11
-379.364234924316
 21
-79.6567611694336
 31
0.0
  0
LINE
  5
   60D
  8
0
  6
CONTINUOUS
 62
     2
 10
-379.864234924316
 20
-69.6567611694336
 30
0.0
 11
-379.864234924316
 21
-70.0317764282227
 31
0.0
  0
LINE
  5
   60E
  8
0
  6
CONTINUOUS
 62
     2
 10
-379.864234924316
 20
-79.2817764282227
 30
0.0
 11
-379.864234924316
 21
-79.6567611694336
 31
0.0
  0
LINE
  5
   60F
  8
0
  6
CONTINUOUS
 62
     2
 10
-371.864234924316
 20
-68.6567611694336
 30
0.0
 11
-371.864234924316
 21
-80.6567611694336
 31
0.0
  0
LINE
  5
   610
  8
0
  6
CONTINUOUS
 62
     2
 10
-382.998210906982
 20
-79.2817764282227
 30
0.0
 11
-382.998210906982
 21
-79.7817535400391
 31
0.0
  0
LINE
  5
   611
  8
0
  6
CONTINUOUS
 62
     2
 10
-382.998211555795
 20
-79.7817530783554
 30
0.0
 11
-384.864235525386
 21
-79.28176068822
 31
0.0
  0
LINE
  5
   612
  8
0
  6
CONTINUOUS
 62
     2
 10
-382.998210906982
 20
-69.5317535400391
 30
0.0
 11
-382.998210906982
 21
-70.0317535400391
 31
0.0
  0
LINE
  5
   613
  8
0
  6
CONTINUOUS
 62
     2
 10
-382.998206165631
 20
-69.5317574630421
 30
0.0
 11
-384.864230135225
 21
-70.0317650653137
 31
0.0
  0
LINE
  5
   614
  8
0
  6
CONTINUOUS
 62
     2
 10
-384.864234924316
 20
-114.281776428223
 30
0.0
 11
-387.364234924316
 21
-114.281776428223
 31
0.0
  0
LINE
  5
   615
  8
0
  6
CONTINUOUS
 62
     2
 10
-384.864234924316
 20
-105.031776428223
 30
0.0
 11
-387.364234924316
 21
-105.031776428223
 31
0.0
  0
LINE
  5
   616
  8
0
  6
CONTINUOUS
 62
     2
 10
-387.364234924316
 20
-105.031776428223
 30
0.0
 11
-387.364234924316
 21
-114.281776428223
 31
0.0
  0
LINE
  5
   617
  8
0
  6
CONTINUOUS
 62
     2
 10
-379.864231109649
 20
-114.281772613515
 30
0.0
 11
-384.864234924347
 21
-114.281776428213
 31
0.0
  0
LINE
  5
   618
  8
0
  6
CONTINUOUS
 62
     2
 10
-379.864238739047
 20
-105.031772613512
 30
0.0
 11
-384.86423492435
 21
-105.03177642821
 31
0.0
  0
LINE
  5
   619
  8
0
  6
CONTINUOUS
 62
     2
 10
-384.864234924316
 20
-114.281764984131
 30
0.0
 11
-384.864234924316
 21
-116.156761169434
 31
0.0
  0
LINE
  5
   61A
  8
0
  6
CONTINUOUS
 62
     2
 10
-384.864234924316
 20
-103.156761169434
 30
0.0
 11
-384.864234924316
 21
-105.031761169434
 31
0.0
  0
LINE
  5
   61B
  8
0
  6
CONTINUOUS
 62
     2
 10
-379.364234924316
 20
-103.156761169434
 30
0.0
 11
-379.364234924316
 21
-104.656761169434
 31
0.0
  0
LINE
  5
   61C
  8
0
  6
CONTINUOUS
 62
     2
 10
-379.364234924316
 20
-114.656761169434
 30
0.0
 11
-379.364234924316
 21
-116.156761169434
 31
0.0
  0
LINE
  5
   61D
  8
0
  6
CONTINUOUS
 62
     2
 10
-379.364234924316
 20
-114.656761169434
 30
0.0
 11
-379.864234924316
 21
-114.656761169434
 31
0.0
  0
LINE
  5
   61E
  8
0
  6
CONTINUOUS
 62
     2
 10
-379.364234924316
 20
-104.656761169434
 30
0.0
 11
-379.864234924316
 21
-104.656761169434
 31
0.0
  0
LINE
  5
   61F
  8
0
  6
CONTINUOUS
 62
     2
 10
-379.364234924316
 20
-104.656761169434
 30
0.0
 11
-379.364234924316
 21
-114.656761169434
 31
0.0
  0
LINE
  5
   620
  8
0
  6
CONTINUOUS
 62
     2
 10
-379.864234924316
 20
-104.656761169434
 30
0.0
 11
-379.864234924316
 21
-105.031776428223
 31
0.0
  0
LINE
  5
   621
  8
0
  6
CONTINUOUS
 62
     2
 10
-379.864234924316
 20
-114.281776428223
 30
0.0
 11
-379.864234924316
 21
-114.656761169434
 31
0.0
  0
LINE
  5
   622
  8
0
  6
CONTINUOUS
 62
     2
 10
-371.864234924316
 20
-103.656761169434
 30
0.0
 11
-371.864234924316
 21
-115.656761169434
 31
0.0
  0
LINE
  5
   623
  8
0
  6
CONTINUOUS
 62
     2
 10
-382.998210906982
 20
-114.281776428223
 30
0.0
 11
-382.998210906982
 21
-114.781753540039
 31
0.0
  0
LINE
  5
   624
  8
0
  6
CONTINUOUS
 62
     2
 10
-382.998209477375
 20
-114.781754171396
 30
0.0
 11
-384.864233446964
 21
-114.281765597646
 31
0.0
  0
LINE
  5
   625
  8
0
  6
CONTINUOUS
 62
     2
 10
-382.998210906982
 20
-104.531749725342
 30
0.0
 11
-382.998210906982
 21
-105.031749725342
 31
0.0
  0
LINE
  5
   626
  8
0
  6
CONTINUOUS
 62
     2
 10
-382.998207368782
 20
-104.5317509978
 30
0.0
 11
-384.864231338374
 21
-105.031762416475
 31
0.0
  0
LINE
  5
   627
  8
0
  6
CONTINUOUS
 62
     2
 10
-379.364234924316
 20
-98.6567611694336
 30
0.0
 11
-384.864234924316
 21
-98.6567611694336
 31
0.0
  0
LINE
  5
   628
  8
0
  6
CONTINUOUS
 62
     2
 10
-379.364234924316
 20
-85.6567611694336
 30
0.0
 11
-384.864234924316
 21
-85.6567611694336
 31
0.0
  0
LINE
  5
   629
  8
0
  6
CONTINUOUS
 62
     2
 10
-371.864234463807
 20
-86.1567615015598
 30
0.0
 11
-379.364234565451
 21
-85.9067615149448
 31
0.0
  0
LINE
  5
   62A
  8
0
  6
CONTINUOUS
 62
     2
 10
-371.864234483358
 20
-98.1567614251511
 30
0.0
 11
-379.364234585002
 21
-98.4067614117662
 31
0.0
  0
LINE
  5
   62B
  8
0
  6
CONTINUOUS
 62
     2
 10
-379.364234924316
 20
-81.1567611694336
 30
0.0
 11
-384.864234924316
 21
-81.1567611694336
 31
0.0
  0
LINE
  5
   62C
  8
0
  6
CONTINUOUS
 62
     2
 10
-379.364234924316
 20
-68.1567611694336
 30
0.0
 11
-384.864234924316
 21
-68.1567611694336
 31
0.0
  0
LINE
  5
   62D
  8
0
  6
CONTINUOUS
 62
     2
 10
-371.864234460827
 20
-68.6567615911403
 30
0.0
 11
-379.364234562472
 21
-68.4067616045253
 31
0.0
  0
LINE
  5
   62E
  8
0
  6
CONTINUOUS
 62
     2
 10
-371.864234486338
 20
-80.6567615147316
 30
0.0
 11
-379.364234587982
 21
-80.9067615013466
 31
0.0
  0
LINE
  5
   62F
  8
0
  6
CONTINUOUS
 62
     2
 10
-379.364234924316
 20
-116.156761169434
 30
0.0
 11
-384.864234924316
 21
-116.156761169434
 31
0.0
  0
LINE
  5
   630
  8
0
  6
CONTINUOUS
 62
     2
 10
-379.364234924316
 20
-103.156761169434
 30
0.0
 11
-384.864234924316
 21
-103.156761169434
 31
0.0
  0
LINE
  5
   631
  8
0
  6
CONTINUOUS
 62
     2
 10
-371.864234466786
 20
-103.656761411979
 30
0.0
 11
-379.36423456843
 21
-103.406761425364
 31
0.0
  0
LINE
  5
   632
  8
0
  6
CONTINUOUS
 62
     2
 10
-371.864234480379
 20
-115.656761335571
 30
0.0
 11
-379.364234582023
 21
-115.906761322186
 31
0.0
  0
LINE
  5
   633
  8
0
  6
CONTINUOUS
 62
     7
 10
-388.614234924316
 20
-122.031768798828
 30
0.0
 11
-388.614234924316
 21
-132.281768798828
 31
0.0
  0
LINE
  5
   634
  8
0
  6
CONTINUOUS
 62
     7
 10
-384.864234924316
 20
-132.281768798828
 30
0.0
 11
-388.614234924316
 21
-132.281768798828
 31
0.0
  0
LINE
  5
   635
  8
0
  6
CONTINUOUS
 62
     7
 10
-384.864234924316
 20
-122.031768798828
 30
0.0
 11
-388.614234924316
 21
-122.031768798828
 31
0.0
  0
LINE
  5
   636
  8
0
  6
CONTINUOUS
 62
     7
 10
-379.364234924316
 20
-119.656761169434
 30
0.0
 11
-397.8642578125
 21
-119.656761169434
 31
0.0
  0
LINE
  5
   637
  8
0
  6
CONTINUOUS
 62
   130
 10
-387.614234924316
 20
-122.156768798828
 30
0.0
 11
-387.614234924316
 21
-132.156768798828
 31
0.0
  0
LINE
  5
   638
  8
0
  6
CONTINUOUS
 62
   212
 10
-387.364234924316
 20
-131.406776428223
 30
0.0
 11
-387.614234924316
 21
-131.406776428223
 31
0.0
  0
LINE
  5
   639
  8
0
  6
CONTINUOUS
 62
   212
 10
-387.364234924316
 20
-122.906776428223
 30
0.0
 11
-387.614234924316
 21
-122.906776428223
 31
0.0
  0
LINE
  5
   63A
  8
0
  6
CONTINUOUS
 62
   212
 10
-387.364234924316
 20
-128.906776428223
 30
0.0
 11
-387.614234924316
 21
-128.906776428223
 31
0.0
  0
LINE
  5
   63B
  8
0
  6
CONTINUOUS
 62
   212
 10
-387.364234924316
 20
-125.406776428223
 30
0.0
 11
-387.614234924316
 21
-125.406776428223
 31
0.0
  0
LINE
  5
   63C
  8
0
  6
CONTINUOUS
 62
   130
 10
-387.614234924316
 20
-132.156768798828
 30
0.0
 11
-388.614234924316
 21
-132.156768798828
 31
0.0
  0
LINE
  5
   63D
  8
0
  6
CONTINUOUS
 62
   130
 10
-387.614234924316
 20
-122.156768798828
 30
0.0
 11
-388.614234924316
 21
-122.156768798828
 31
0.0
  0
LINE
  5
   63E
  8
0
  6
CONTINUOUS
 62
     7
 10
-379.364234924316
 20
-118.406768798828
 30
0.0
 11
-379.364234924316
 21
-120.906761413501
 31
0.0
  0
LINE
  5
   63F
  8
0
  6
CONTINUOUS
 62
     2
 10
-384.864234924316
 20
-131.781776428223
 30
0.0
 11
-387.364234924316
 21
-131.781776428223
 31
0.0
  0
LINE
  5
   640
  8
0
  6
CONTINUOUS
 62
     2
 10
-384.864234924316
 20
-122.531776428223
 30
0.0
 11
-387.364234924316
 21
-122.531776428223
 31
0.0
  0
LINE
  5
   641
  8
0
  6
CONTINUOUS
 62
     2
 10
-387.364234924316
 20
-122.531776428223
 30
0.0
 11
-387.364234924316
 21
-131.781776428223
 31
0.0
  0
LINE
  5
   642
  8
0
  6
CONTINUOUS
 62
     2
 10
-379.864231109649
 20
-131.781772613515
 30
0.0
 11
-384.864234924347
 21
-131.781776428212
 31
0.0
  0
LINE
  5
   643
  8
0
  6
CONTINUOUS
 62
     2
 10
-379.864238739047
 20
-122.531772613512
 30
0.0
 11
-384.86423492435
 21
-122.53177642821
 31
0.0
  0
LINE
  5
   644
  8
0
  6
CONTINUOUS
 62
     2
 10
-384.864234924316
 20
-131.781764984131
 30
0.0
 11
-384.864234924316
 21
-133.656761169434
 31
0.0
  0
LINE
  5
   645
  8
0
  6
CONTINUOUS
 62
     2
 10
-384.864234924316
 20
-120.656761169434
 30
0.0
 11
-384.864234924316
 21
-122.531761169434
 31
0.0
  0
LINE
  5
   646
  8
0
  6
CONTINUOUS
 62
     2
 10
-379.364234924316
 20
-120.656761169434
 30
0.0
 11
-379.364234924316
 21
-122.156761169434
 31
0.0
  0
LINE
  5
   647
  8
0
  6
CONTINUOUS
 62
     2
 10
-379.364234924316
 20
-132.156761169434
 30
0.0
 11
-379.364234924316
 21
-133.656761169434
 31
0.0
  0
LINE
  5
   648
  8
0
  6
CONTINUOUS
 62
     2
 10
-379.364234924316
 20
-132.156761169434
 30
0.0
 11
-379.864234924316
 21
-132.156761169434
 31
0.0
  0
LINE
  5
   649
  8
0
  6
CONTINUOUS
 62
     2
 10
-379.364234924316
 20
-122.156761169434
 30
0.0
 11
-379.864234924316
 21
-122.156761169434
 31
0.0
  0
LINE
  5
   64A
  8
0
  6
CONTINUOUS
 62
     2
 10
-379.364234924316
 20
-122.156761169434
 30
0.0
 11
-379.364234924316
 21
-132.156761169434
 31
0.0
  0
LINE
  5
   64B
  8
0
  6
CONTINUOUS
 62
     2
 10
-379.864234924316
 20
-122.156761169434
 30
0.0
 11
-379.864234924316
 21
-122.531776428223
 31
0.0
  0
LINE
  5
   64C
  8
0
  6
CONTINUOUS
 62
     2
 10
-379.864234924316
 20
-131.781776428223
 30
0.0
 11
-379.864234924316
 21
-132.156761169434
 31
0.0
  0
LINE
  5
   64D
  8
0
  6
CONTINUOUS
 62
     2
 10
-371.864234924316
 20
-121.156761169434
 30
0.0
 11
-371.864234924316
 21
-133.156761169434
 31
0.0
  0
LINE
  5
   64E
  8
0
  6
CONTINUOUS
 62
     2
 10
-382.998210906982
 20
-131.781776428223
 30
0.0
 11
-382.998210906982
 21
-132.281753540039
 31
0.0
  0
LINE
  5
   64F
  8
0
  6
CONTINUOUS
 62
     2
 10
-382.998209477375
 20
-132.281754171396
 30
0.0
 11
-384.864233446964
 21
-131.781765597646
 31
0.0
  0
LINE
  5
   650
  8
0
  6
CONTINUOUS
 62
     2
 10
-382.998210906982
 20
-122.031749725342
 30
0.0
 11
-382.998210906982
 21
-122.531749725342
 31
0.0
  0
LINE
  5
   651
  8
0
  6
CONTINUOUS
 62
     2
 10
-382.998207368782
 20
-122.0317509978
 30
0.0
 11
-384.864231338374
 21
-122.531762416475
 31
0.0
  0
LINE
  5
   652
  8
0
  6
CONTINUOUS
 62
     2
 10
-379.364234924316
 20
-133.656761169434
 30
0.0
 11
-384.864234924316
 21
-133.656761169434
 31
0.0
  0
LINE
  5
   653
  8
0
  6
CONTINUOUS
 62
     2
 10
-379.364234924316
 20
-120.656761169434
 30
0.0
 11
-384.864234924316
 21
-120.656761169434
 31
0.0
  0
LINE
  5
   654
  8
0
  6
CONTINUOUS
 62
     2
 10
-371.864234466786
 20
-121.156761411979
 30
0.0
 11
-379.36423456843
 21
-120.906761425364
 31
0.0
  0
LINE
  5
   655
  8
0
  6
CONTINUOUS
 62
     2
 10
-371.864234480379
 20
-133.156761335571
 30
0.0
 11
-379.364234582023
 21
-133.406761322186
 31
0.0
  0
LINE
  5
   656
  8
0
  6
CONTINUOUS
 62
     7
 10
-379.364234924316
 20
-115.906761423077
 30
0.0
 11
-379.364234924316
 21
-118.406768798828
 31
0.0
  0
LINE
  5
   657
  8
0
  6
CONTINUOUS
 62
     7
 10
-379.364234924316
 20
-117.156761169434
 30
0.0
 11
-397.8642578125
 21
-117.156761169434
 31
0.0
  0
LINE
  5
   658
  8
0
  6
CONTINUOUS
 62
     7
 10
-375.019787088548
 20
-118.406768798828
 30
0.0
 11
-414.494417931648
 21
-118.406768798828
 31
0.0
  0
LINE
  5
   659
  8
0
  6
CONTINUOUS
 62
     7
 10
-397.8642578125
 20
-118.406768798828
 30
0.0
 11
-397.8642578125
 21
-135.906747817993
 31
0.0
  0
LINE
  5
   65A
  8
0
  6
CONTINUOUS
 62
   253
 10
-411.364234924316
 20
-121.656776428223
 30
0.0
 11
-411.364234924316
 21
-132.656776428223
 31
0.0
  0
LINE
  5
   65B
  8
0
  6
CONTINUOUS
 62
     7
 10
-422.514236450195
 20
-104.156791687012
 30
0.0
 11
-422.514236450195
 21
-115.156791687012
 31
0.0
  0
LINE
  5
   65C
  8
0
  6
CONTINUOUS
 62
     7
 10
-423.764236450195
 20
-114.406791687012
 30
0.0
 11
-423.764236450195
 21
-115.156791687012
 31
0.0
  0
LINE
  5
   65D
  8
0
  6
CONTINUOUS
 62
     7
 10
-423.764236450195
 20
-104.978385925293
 30
0.0
 11
-423.764236450195
 21
-114.33519744873
 31
0.0
  0
LINE
  5
   65E
  8
0
  6
CONTINUOUS
 62
     7
 10
-423.764236450195
 20
-104.156791687012
 30
0.0
 11
-423.764236450195
 21
-104.906791687012
 31
0.0
  0
LINE
  5
   65F
  8
0
  6
CONTINUOUS
 62
     7
 10
-418.264236450195
 20
-104.156791687012
 30
0.0
 11
-418.264236450195
 21
-104.906791687012
 31
0.0
  0
LINE
  5
   660
  8
0
  6
CONTINUOUS
 62
     7
 10
-418.264236450195
 20
-104.978385925293
 30
0.0
 11
-418.264236450195
 21
-114.33519744873
 31
0.0
  0
LINE
  5
   661
  8
0
  6
CONTINUOUS
 62
     7
 10
-418.264236450195
 20
-114.406791687012
 30
0.0
 11
-418.264236450195
 21
-115.156791687012
 31
0.0
  0
LINE
  5
   662
  8
0
  6
CONTINUOUS
 62
     7
 10
-419.514236450195
 20
-104.156791687012
 30
0.0
 11
-419.514236450195
 21
-115.156791687012
 31
0.0
  0
LINE
  5
   663
  8
0
  6
CONTINUOUS
 62
     3
 10
-411.764236450195
 20
-104.906791687012
 30
0.0
 11
-414.764236450195
 21
-104.906791687012
 31
0.0
  0
LINE
  5
   664
  8
0
  6
CONTINUOUS
 62
     3
 10
-411.764236450195
 20
-114.406791687012
 30
0.0
 11
-414.764236450195
 21
-114.406791687012
 31
0.0
  0
LINE
  5
   665
  8
0
  6
CONTINUOUS
 62
     3
 10
-414.764236450195
 20
-104.906791687012
 30
0.0
 11
-414.764236450195
 21
-114.406791687012
 31
0.0
  0
LINE
  5
   666
  8
0
  6
CONTINUOUS
 62
     3
 10
-411.764236450195
 20
-104.906791687012
 30
0.0
 11
-411.764236450195
 21
-106.109703063965
 31
0.0
  0
LINE
  5
   667
  8
0
  6
CONTINUOUS
 62
     3
 10
-411.764236450195
 20
-108.49959564209
 30
0.0
 11
-411.764236450195
 21
-110.813995361328
 31
0.0
  0
LINE
  5
   668
  8
0
  6
CONTINUOUS
 62
     3
 10
-411.764236450195
 20
-113.203899383545
 30
0.0
 11
-411.764236450195
 21
-114.406791687012
 31
0.0
  0
LINE
  5
   669
  8
0
  6
CONTINUOUS
 62
     3
 10
-415.264236450195
 20
-104.906791687012
 30
0.0
 11
-418.264236450195
 21
-104.906791687012
 31
0.0
  0
LINE
  5
   66A
  8
0
  6
CONTINUOUS
 62
     3
 10
-415.264236450195
 20
-114.406791687012
 30
0.0
 11
-418.264236450195
 21
-114.406791687012
 31
0.0
  0
LINE
  5
   66B
  8
0
  6
CONTINUOUS
 62
     3
 10
-418.264236450195
 20
-114.33519744873
 30
0.0
 11
-418.264236450195
 21
-114.406791687012
 31
0.0
  0
LINE
  5
   66C
  8
0
  6
CONTINUOUS
 62
     3
 10
-418.264236450195
 20
-104.906791687012
 30
0.0
 11
-418.264236450195
 21
-104.97838973999
 31
0.0
  0
LINE
  5
   66D
  8
0
  6
CONTINUOUS
 62
     3
 10
-415.264236450195
 20
-104.906791687012
 30
0.0
 11
-415.264236450195
 21
-114.406791687012
 31
0.0
  0
LINE
  5
   66E
  8
0
  6
CONTINUOUS
 62
     3
 10
-423.764236450195
 20
-104.906791687012
 30
0.0
 11
-426.764236450195
 21
-104.906791687012
 31
0.0
  0
LINE
  5
   66F
  8
0
  6
CONTINUOUS
 62
     3
 10
-423.764236450195
 20
-114.406791687012
 30
0.0
 11
-426.764236450195
 21
-114.406791687012
 31
0.0
  0
LINE
  5
   670
  8
0
  6
CONTINUOUS
 62
     3
 10
-423.764236450195
 20
-104.906791687012
 30
0.0
 11
-423.764236450195
 21
-104.97838973999
 31
0.0
  0
LINE
  5
   671
  8
0
  6
CONTINUOUS
 62
     3
 10
-423.764236450195
 20
-114.33519744873
 30
0.0
 11
-423.764236450195
 21
-114.406791687012
 31
0.0
  0
LINE
  5
   672
  8
0
  6
CONTINUOUS
 62
     3
 10
-426.764236450195
 20
-104.906791687012
 30
0.0
 11
-426.764236450195
 21
-114.406791687012
 31
0.0
  0
LINE
  5
   673
  8
0
  6
CONTINUOUS
 62
     7
 10
-411.764236450195
 20
-114.406791687012
 30
0.0
 11
-411.764236450195
 21
-114.656791687012
 31
0.0
  0
LINE
  5
   674
  8
0
  6
CONTINUOUS
 62
     7
 10
-411.764236450195
 20
-110.814002990723
 30
0.0
 11
-411.764236450195
 21
-113.203887939453
 31
0.0
  0
LINE
  5
   675
  8
0
  6
CONTINUOUS
 62
     7
 10
-411.764236450195
 20
-106.109687805176
 30
0.0
 11
-411.764236450195
 21
-108.499588012695
 31
0.0
  0
LINE
  5
   676
  8
0
  6
CONTINUOUS
 62
     7
 10
-411.764236450195
 20
-104.656791687012
 30
0.0
 11
-411.764236450195
 21
-104.906791687012
 31
0.0
  0
LINE
  5
   677
  8
0
  6
CONTINUOUS
 62
   212
 10
-428.114234924316
 20
-107.656776428223
 30
0.0
 11
-428.114234924316
 21
-111.656776428223
 31
0.0
  0
LINE
  5
   678
  8
0
  6
CONTINUOUS
 62
   253
 10
-411.3642578125
 20
-132.656776428223
 30
0.0
 11
-411.3642578125
 21
-133.156768798828
 31
0.0
  0
LINE
  5
   679
  8
0
  6
CONTINUOUS
 62
   253
 10
-411.3642578125
 20
-121.156768798828
 30
0.0
 11
-411.3642578125
 21
-121.656776428223
 31
0.0
  0
LINE
  5
   67A
  8
0
  6
CONTINUOUS
 62
     7
 10
-444.264236450195
 20
-121.656776428223
 30
0.0
 11
-444.264236450195
 21
-122.406776428223
 31
0.0
  0
LINE
  5
   67B
  8
0
  6
CONTINUOUS
 62
     7
 10
-444.264236450195
 20
-122.478370666504
 30
0.0
 11
-444.264236450195
 21
-131.835186004639
 31
0.0
  0
LINE
  5
   67C
  8
0
  6
CONTINUOUS
 62
     7
 10
-444.264236450195
 20
-131.906776428223
 30
0.0
 11
-444.264236450195
 21
-132.656776428223
 31
0.0
  0
LINE
  5
   67D
  8
0
  6
CONTINUOUS
 62
     7
 10
-445.514236450195
 20
-121.656776428223
 30
0.0
 11
-445.514236450195
 21
-132.656776428223
 31
0.0
  0
LINE
  5
   67E
  8
0
  6
CONTINUOUS
 62
     7
 10
-448.514236450195
 20
-121.656776428223
 30
0.0
 11
-448.514236450195
 21
-132.656776428223
 31
0.0
  0
LINE
  5
   67F
  8
0
  6
CONTINUOUS
 62
     7
 10
-449.764236450195
 20
-131.906776428223
 30
0.0
 11
-449.764236450195
 21
-132.656776428223
 31
0.0
  0
LINE
  5
   680
  8
0
  6
CONTINUOUS
 62
     7
 10
-449.764236450195
 20
-122.478370666504
 30
0.0
 11
-449.764236450195
 21
-131.835186004639
 31
0.0
  0
LINE
  5
   681
  8
0
  6
CONTINUOUS
 62
     7
 10
-449.764236450195
 20
-121.656776428223
 30
0.0
 11
-449.764236450195
 21
-122.406776428223
 31
0.0
  0
LINE
  5
   682
  8
0
  6
CONTINUOUS
 62
     3
 10
-437.764236450195
 20
-131.906776428223
 30
0.0
 11
-440.764236450195
 21
-131.906776428223
 31
0.0
  0
LINE
  5
   683
  8
0
  6
CONTINUOUS
 62
     3
 10
-437.764236450195
 20
-122.406776428223
 30
0.0
 11
-440.764236450195
 21
-122.406776428223
 31
0.0
  0
LINE
  5
   684
  8
0
  6
CONTINUOUS
 62
     3
 10
-440.764236450195
 20
-122.406776428223
 30
0.0
 11
-440.764236450195
 21
-131.906776428223
 31
0.0
  0
LINE
  5
   685
  8
0
  6
CONTINUOUS
 62
     3
 10
-437.764236450195
 20
-122.406776428223
 30
0.0
 11
-437.764236450195
 21
-123.609676361084
 31
0.0
  0
LINE
  5
   686
  8
0
  6
CONTINUOUS
 62
     3
 10
-437.764236450195
 20
-125.999572753906
 30
0.0
 11
-437.764236450195
 21
-128.313976287842
 31
0.0
  0
LINE
  5
   687
  8
0
  6
CONTINUOUS
 62
     3
 10
-437.764236450195
 20
-130.703884124756
 30
0.0
 11
-437.764236450195
 21
-131.906776428223
 31
0.0
  0
LINE
  5
   688
  8
0
  6
CONTINUOUS
 62
     3
 10
-441.264236450195
 20
-131.906776428223
 30
0.0
 11
-444.264236450195
 21
-131.906776428223
 31
0.0
  0
LINE
  5
   689
  8
0
  6
CONTINUOUS
 62
     3
 10
-441.264236450195
 20
-122.406776428223
 30
0.0
 11
-444.264236450195
 21
-122.406776428223
 31
0.0
  0
LINE
  5
   68A
  8
0
  6
CONTINUOUS
 62
     3
 10
-444.264236450195
 20
-131.835186004639
 30
0.0
 11
-444.264236450195
 21
-131.906776428223
 31
0.0
  0
LINE
  5
   68B
  8
0
  6
CONTINUOUS
 62
     3
 10
-444.264236450195
 20
-122.406776428223
 30
0.0
 11
-444.264236450195
 21
-122.478374481201
 31
0.0
  0
LINE
  5
   68C
  8
0
  6
CONTINUOUS
 62
     3
 10
-441.264236450195
 20
-122.406776428223
 30
0.0
 11
-441.264236450195
 21
-131.906776428223
 31
0.0
  0
LINE
  5
   68D
  8
0
  6
CONTINUOUS
 62
     3
 10
-449.764236450195
 20
-131.906776428223
 30
0.0
 11
-452.764236450195
 21
-131.906776428223
 31
0.0
  0
LINE
  5
   68E
  8
0
  6
CONTINUOUS
 62
     3
 10
-449.764236450195
 20
-122.406776428223
 30
0.0
 11
-452.764236450195
 21
-122.406776428223
 31
0.0
  0
LINE
  5
   68F
  8
0
  6
CONTINUOUS
 62
     3
 10
-449.764236450195
 20
-122.406776428223
 30
0.0
 11
-449.764236450195
 21
-122.478374481201
 31
0.0
  0
LINE
  5
   690
  8
0
  6
CONTINUOUS
 62
     3
 10
-449.764236450195
 20
-131.835186004639
 30
0.0
 11
-449.764236450195
 21
-131.906776428223
 31
0.0
  0
LINE
  5
   691
  8
0
  6
CONTINUOUS
 62
     3
 10
-452.764236450195
 20
-122.406776428223
 30
0.0
 11
-452.764236450195
 21
-131.906776428223
 31
0.0
  0
LINE
  5
   692
  8
0
  6
CONTINUOUS
 62
     7
 10
-437.364234924316
 20
-122.156776428223
 30
0.0
 11
-437.364234924316
 21
-132.156776428223
 31
0.0
  0
LINE
  5
   693
  8
0
  6
CONTINUOUS
 62
     7
 10
-437.764236450195
 20
-131.906776428223
 30
0.0
 11
-437.764236450195
 21
-132.156776428223
 31
0.0
  0
LINE
  5
   694
  8
0
  6
CONTINUOUS
 62
     7
 10
-437.764236450195
 20
-128.313980102539
 30
0.0
 11
-437.764236450195
 21
-130.703887939453
 31
0.0
  0
LINE
  5
   695
  8
0
  6
CONTINUOUS
 62
     7
 10
-437.764236450195
 20
-123.609680175781
 30
0.0
 11
-437.764236450195
 21
-125.999576568604
 31
0.0
  0
LINE
  5
   696
  8
0
  6
CONTINUOUS
 62
     7
 10
-437.764236450195
 20
-122.156776428223
 30
0.0
 11
-437.764236450195
 21
-122.406776428223
 31
0.0
  0
LINE
  5
   697
  8
0
  6
CONTINUOUS
 62
   212
 10
-454.114234924316
 20
-125.156776428223
 30
0.0
 11
-454.114234924316
 21
-129.156776428223
 31
0.0
  0
LINE
  5
   698
  8
0
  6
CONTINUOUS
 62
   253
 10
-403.364234924316
 20
-121.156776428223
 30
0.0
 11
-410.864234924316
 21
-121.156776428223
 31
0.0
  0
LINE
  5
   699
  8
0
  6
CONTINUOUS
 62
   253
 10
-403.364234924316
 20
-133.156776428223
 30
0.0
 11
-410.864234924316
 21
-133.156776428223
 31
0.0
  0
LINE
  5
   69A
  8
0
  6
CONTINUOUS
 62
   253
 10
-410.864233336276
 20
-121.156777346039
 30
0.0
 11
-411.364233319162
 21
-121.656777328924
 31
0.0
  0
LINE
  5
   69B
  8
0
  6
CONTINUOUS
 62
   253
 10
-410.86423235359
 20
-133.156778458466
 30
0.0
 11
-411.364232336476
 21
-132.65677847558
 31
0.0
  0
LINE
  5
   69C
  8
0
  6
CONTINUOUS
 62
     7
 10
-422.514236450195
 20
-104.156791687012
 30
0.0
 11
-423.764236450195
 21
-104.156791687012
 31
0.0
  0
LINE
  5
   69D
  8
0
  6
CONTINUOUS
 62
     7
 10
-422.514236450195
 20
-115.156791687012
 30
0.0
 11
-423.764236450195
 21
-115.156791687012
 31
0.0
  0
LINE
  5
   69E
  8
0
  6
CONTINUOUS
 62
     7
 10
-418.264236450195
 20
-104.156791687012
 30
0.0
 11
-419.514236450195
 21
-104.156791687012
 31
0.0
  0
LINE
  5
   69F
  8
0
  6
CONTINUOUS
 62
     7
 10
-418.264236450195
 20
-115.156791687012
 30
0.0
 11
-419.514236450195
 21
-115.156791687012
 31
0.0
  0
LINE
  5
   6A0
  8
0
  6
CONTINUOUS
 62
     3
 10
-411.764236450195
 20
-127.156791687012
 30
0.0
 11
-414.764236450195
 21
-127.156791687012
 31
0.0
  0
LINE
  5
   6A1
  8
0
  6
CONTINUOUS
 62
     3
 10
-415.264236450195
 20
-127.156791687012
 30
0.0
 11
-418.264236450195
 21
-127.156791687012
 31
0.0
  0
LINE
  5
   6A2
  8
0
  6
CONTINUOUS
 62
     3
 10
-423.764236450195
 20
-127.156791687012
 30
0.0
 11
-426.764236450195
 21
-127.156791687012
 31
0.0
  0
LINE
  5
   6A3
  8
0
  6
CONTINUOUS
 62
     7
 10
-411.364234924316
 20
-104.656791687012
 30
0.0
 11
-411.764236450195
 21
-104.656791687012
 31
0.0
  0
LINE
  5
   6A4
  8
0
  6
CONTINUOUS
 62
     7
 10
-411.364234924316
 20
-114.656791687012
 30
0.0
 11
-411.764236450195
 21
-114.656791687012
 31
0.0
  0
LINE
  5
   6A5
  8
0
  6
CONTINUOUS
 62
   212
 10
-427.114232893445
 20
-106.656777129971
 30
0.0
 11
-428.114232859216
 21
-107.656777095742
 31
0.0
  0
LINE
  5
   6A6
  8
0
  6
CONTINUOUS
 62
   212
 10
-427.114231910758
 20
-112.656778674534
 30
0.0
 11
-428.11423187653
 21
-111.656778708762
 31
0.0
  0
LINE
  5
   6A7
  8
0
  6
CONTINUOUS
 62
   212
 10
-426.764236450195
 20
-106.656776428223
 30
0.0
 11
-427.114234924316
 21
-106.656776428223
 31
0.0
  0
LINE
  5
   6A8
  8
0
  6
CONTINUOUS
 62
   212
 10
-419.514236450195
 20
-106.656776428223
 30
0.0
 11
-422.514236450195
 21
-106.656776428223
 31
0.0
  0
LINE
  5
   6A9
  8
0
  6
CONTINUOUS
 62
   212
 10
-414.764236450195
 20
-106.656776428223
 30
0.0
 11
-415.264236450195
 21
-106.656776428223
 31
0.0
  0
LINE
  5
   6AA
  8
0
  6
CONTINUOUS
 62
   212
 10
-427.114234924316
 20
-106.656776428223
 30
0.0
 11
-427.114234924316
 21
-112.656776428223
 31
0.0
  0
LINE
  5
   6AB
  8
0
  6
CONTINUOUS
 62
   212
 10
-426.764236450195
 20
-112.656776428223
 30
0.0
 11
-427.114234924316
 21
-112.656776428223
 31
0.0
  0
LINE
  5
   6AC
  8
0
  6
CONTINUOUS
 62
   212
 10
-419.514236450195
 20
-112.656776428223
 30
0.0
 11
-422.514236450195
 21
-112.656776428223
 31
0.0
  0
LINE
  5
   6AD
  8
0
  6
CONTINUOUS
 62
   212
 10
-414.764236450195
 20
-112.656776428223
 30
0.0
 11
-415.264236450195
 21
-112.656776428223
 31
0.0
  0
LINE
  5
   6AE
  8
0
  6
CONTINUOUS
 62
   253
 10
-410.864234924316
 20
-121.156768798828
 30
0.0
 11
-411.3642578125
 21
-121.156768798828
 31
0.0
  0
LINE
  5
   6AF
  8
0
  6
CONTINUOUS
 62
   253
 10
-410.864234924316
 20
-133.156768798828
 30
0.0
 11
-411.3642578125
 21
-133.156768798828
 31
0.0
  0
LINE
  5
   6B0
  8
0
  6
CONTINUOUS
 62
   253
 10
-411.364234924316
 20
-122.156768798828
 30
0.0
 11
-436.8642578125
 21
-122.156768798828
 31
0.0
  0
LINE
  5
   6B1
  8
0
  6
CONTINUOUS
 62
   253
 10
-411.364234924316
 20
-132.156768798828
 30
0.0
 11
-436.8642578125
 21
-132.156768798828
 31
0.0
  0
LINE
  5
   6B2
  8
0
  6
CONTINUOUS
 62
   253
 10
-436.864260028042
 20
-122.156768392294
 30
0.0
 11
-437.217813803453
 21
-122.303218429812
 31
0.0
  0
LINE
  5
   6B3
  8
0
  6
CONTINUOUS
 62
   253
 10
-437.217809514075
 20
-122.303220379318
 30
0.0
 11
-437.364255742351
 21
-122.65677033213
 31
0.0
  0
LINE
  5
   6B4
  8
0
  6
CONTINUOUS
 62
   253
 10
-436.864260212297
 20
-132.156767725706
 30
0.0
 11
-437.217813984332
 21
-132.010321497423
 31
0.0
  0
LINE
  5
   6B5
  8
0
  6
CONTINUOUS
 62
   253
 10
-437.217813150672
 20
-132.010321090088
 30
0.0
 11
-437.364259378955
 21
-131.656767318053
 31
0.0
  0
LINE
  5
   6B6
  8
0
  6
CONTINUOUS
 62
     7
 10
-444.264236450195
 20
-132.656776428223
 30
0.0
 11
-445.514236450195
 21
-132.656776428223
 31
0.0
  0
LINE
  5
   6B7
  8
0
  6
CONTINUOUS
 62
     7
 10
-444.264236450195
 20
-121.656776428223
 30
0.0
 11
-445.514236450195
 21
-121.656776428223
 31
0.0
  0
LINE
  5
   6B8
  8
0
  6
CONTINUOUS
 62
     7
 10
-448.514236450195
 20
-132.656776428223
 30
0.0
 11
-449.764236450195
 21
-132.656776428223
 31
0.0
  0
LINE
  5
   6B9
  8
0
  6
CONTINUOUS
 62
     7
 10
-448.514236450195
 20
-121.656776428223
 30
0.0
 11
-449.764236450195
 21
-121.656776428223
 31
0.0
  0
LINE
  5
   6BA
  8
0
  6
CONTINUOUS
 62
     3
 10
-437.764236450195
 20
-127.156776428223
 30
0.0
 11
-440.764236450195
 21
-127.156776428223
 31
0.0
  0
LINE
  5
   6BB
  8
0
  6
CONTINUOUS
 62
     3
 10
-441.264236450195
 20
-127.156776428223
 30
0.0
 11
-444.264236450195
 21
-127.156776428223
 31
0.0
  0
LINE
  5
   6BC
  8
0
  6
CONTINUOUS
 62
     3
 10
-449.764236450195
 20
-127.156776428223
 30
0.0
 11
-452.764236450195
 21
-127.156776428223
 31
0.0
  0
LINE
  5
   6BD
  8
0
  6
CONTINUOUS
 62
     7
 10
-437.364234924316
 20
-132.156776428223
 30
0.0
 11
-437.764236450195
 21
-132.156776428223
 31
0.0
  0
LINE
  5
   6BE
  8
0
  6
CONTINUOUS
 62
     7
 10
-437.364234924316
 20
-122.156776428223
 30
0.0
 11
-437.764236450195
 21
-122.156776428223
 31
0.0
  0
LINE
  5
   6BF
  8
0
  6
CONTINUOUS
 62
   212
 10
-453.114231243302
 20
-130.156778897019
 30
0.0
 11
-454.114231209073
 21
-129.156778931248
 31
0.0
  0
LINE
  5
   6C0
  8
0
  6
CONTINUOUS
 62
   212
 10
-453.114232225988
 20
-124.156776907485
 30
0.0
 11
-454.114232191759
 21
-125.156776873257
 31
0.0
  0
LINE
  5
   6C1
  8
0
  6
CONTINUOUS
 62
   212
 10
-452.764236450195
 20
-130.156776428223
 30
0.0
 11
-453.114234924316
 21
-130.156776428223
 31
0.0
  0
LINE
  5
   6C2
  8
0
  6
CONTINUOUS
 62
   212
 10
-445.514236450195
 20
-130.156776428223
 30
0.0
 11
-448.514236450195
 21
-130.156776428223
 31
0.0
  0
LINE
  5
   6C3
  8
0
  6
CONTINUOUS
 62
   212
 10
-440.764236450195
 20
-130.156776428223
 30
0.0
 11
-441.264236450195
 21
-130.156776428223
 31
0.0
  0
LINE
  5
   6C4
  8
0
  6
CONTINUOUS
 62
   212
 10
-453.114234924316
 20
-124.156776428223
 30
0.0
 11
-453.114234924316
 21
-130.156776428223
 31
0.0
  0
LINE
  5
   6C5
  8
0
  6
CONTINUOUS
 62
   212
 10
-452.764236450195
 20
-124.156776428223
 30
0.0
 11
-453.114234924316
 21
-124.156776428223
 31
0.0
  0
LINE
  5
   6C6
  8
0
  6
CONTINUOUS
 62
   212
 10
-445.514236450195
 20
-124.156776428223
 30
0.0
 11
-448.514236450195
 21
-124.156776428223
 31
0.0
  0
LINE
  5
   6C7
  8
0
  6
CONTINUOUS
 62
   212
 10
-440.764236450195
 20
-124.156776428223
 30
0.0
 11
-441.264236450195
 21
-124.156776428223
 31
0.0
  0
LINE
  5
   6C8
  8
0
  6
CONTINUOUS
 62
     3
 10
-403.8642578125
 20
-115.656768798828
 30
0.0
 11
-403.8642578125
 21
-121.156776428223
 31
0.0
  0
LINE
  5
   6C9
  8
0
  6
CONTINUOUS
 62
     3
 10
-403.1142578125
 20
-115.906784057617
 30
0.0
 11
-403.1142578125
 21
-120.906768798828
 31
0.0
  0
LINE
  5
   6CA
  8
0
  6
CONTINUOUS
 62
     7
 10
-401.1142578125
 20
-120.906768798828
 30
0.0
 11
-403.3642578125
 21
-120.906768798828
 31
0.0
  0
LINE
  5
   6CB
  8
0
  6
CONTINUOUS
 62
     7
 10
-401.1142578125
 20
-115.906784057617
 30
0.0
 11
-403.3642578125
 21
-115.906784057617
 31
0.0
  0
LINE
  5
   6CC
  8
0
  6
CONTINUOUS
 62
     7
 10
-401.1142578125
 20
-115.906784057617
 30
0.0
 11
-401.1142578125
 21
-120.906768798828
 31
0.0
  0
LINE
  5
   6CD
  8
0
  6
CONTINUOUS
 62
     7
 10
-403.3642578125
 20
-120.906768798828
 30
0.0
 11
-403.3642578125
 21
-133.406768798828
 31
0.0
  0
LINE
  5
   6CE
  8
0
  6
DASHDOT
 62
     7
 10
-366.843311332815
 20
-74.6567687988281
 30
0.0
 11
-458.065110643954
 21
-74.6567687988281
 31
0.0
  0
LINE
  5
   6CF
  8
0
  6
DASHDOT
 62
     7
 10
-366.843311332815
 20
-92.1567687988281
 30
0.0
 11
-458.065110643954
 21
-92.1567687988281
 31
0.0
  0
LINE
  5
   6D0
  8
0
  6
DASHDOT
 62
     7
 10
-366.843311332815
 20
-109.656768798828
 30
0.0
 11
-458.065110643954
 21
-109.656768798828
 31
0.0
  0
LINE
  5
   6D1
  8
0
  6
DASHDOT
 62
     7
 10
-366.843311332815
 20
-127.156768798828
 30
0.0
 11
-458.065110643954
 21
-127.156768798828
 31
0.0
  0
LINE
  5
   6D2
  8
0
  6
CONTINUOUS
 62
     7
 10
-445.514236450195
 20
-89.6567687988281
 30
0.0
 11
-448.514236450195
 21
-89.6567687988281
 31
0.0
  0
LINE
  5
   6D3
  8
0
  6
CONTINUOUS
 62
     7
 10
-445.514236450195
 20
-94.6567687988281
 30
0.0
 11
-448.514236450195
 21
-94.6567687988281
 31
0.0
  0
LINE
  5
   6D4
  8
0
  6
CONTINUOUS
 62
     7
 10
-445.514236450195
 20
-124.656768798828
 30
0.0
 11
-448.514236450195
 21
-124.656768798828
 31
0.0
  0
LINE
  5
   6D5
  8
0
  6
CONTINUOUS
 62
     7
 10
-445.514236450195
 20
-129.656768798828
 30
0.0
 11
-448.514236450195
 21
-129.656768798828
 31
0.0
  0
LINE
  5
   6D6
  8
0
  6
CONTINUOUS
 62
     7
 10
-419.514236450195
 20
-107.156768798828
 30
0.0
 11
-422.514236450195
 21
-107.156768798828
 31
0.0
  0
LINE
  5
   6D7
  8
0
  6
CONTINUOUS
 62
     7
 10
-419.514236450195
 20
-112.156768798828
 30
0.0
 11
-422.514236450195
 21
-112.156768798828
 31
0.0
  0
LINE
  5
   6D8
  8
0
  6
CONTINUOUS
 62
     7
 10
-419.514236450195
 20
-77.1567687988281
 30
0.0
 11
-422.514236450195
 21
-77.1567687988281
 31
0.0
  0
LINE
  5
   6D9
  8
0
  6
CONTINUOUS
 62
     7
 10
-419.514236450195
 20
-72.1567687988281
 30
0.0
 11
-422.514236450195
 21
-72.1567687988281
 31
0.0
  0
LINE
  5
   6DA
  8
0
  6
CONTINUOUS
 62
     7
 10
-404.114250183106
 20
-56.8780253532758
 30
0.0
 11
-404.114250183106
 21
-68.1864835294345
 31
0.0
  0
INSERT
  5
   6DB
  8
0
  6
CONTINUOUS
 62
     7
  2
*UDIM2437
 10
0.0
 20
0.0
 30
0.0
  0
INSERT
  5
   6DC
  8
0
  6
CONTINUOUS
 62
     7
  2
*UDIM2438
 10
0.0
 20
0.0
 30
0.0
  0
INSERT
  5
   6DD
  8
0
  6
CONTINUOUS
 62
     7
  2
*UDIM2439
 10
0.0
 20
0.0
 30
0.0
  0
INSERT
  5
   6DE
  8
0
  6
CONTINUOUS
 62
     7
  2
*UDIM2440
 10
0.0
 20
0.0
 30
0.0
  0
INSERT
  5
   6DF
  8
0
  6
CONTINUOUS
 62
     7
  2
*UDIM2441
 10
0.0
 20
0.0
 30
0.0
  0
INSERT
  5
   6E0
  8
0
  6
CONTINUOUS
 62
     7
  2
*UDIM2442
 10
0.0
 20
0.0
 30
0.0
  0
INSERT
  5
   6E1
  8
0
  6
CONTINUOUS
 62
     7
  2
*UDIM2443
 10
0.0
 20
0.0
 30
0.0
  0
LINE
  5
   6E2
  8
0
  6
CONTINUOUS
 62
     7
 10
-261.310241699219
 20
27.7306518554688
 30
0.0
 11
-233.310241699219
 21
27.7306518554688
 31
0.0
  0
LINE
  5
   6E3
  8
0
  6
CONTINUOUS
 62
     7
 10
-261.310241699219
 20
55.7306518554688
 30
0.0
 11
-233.310241699219
 21
55.7306518554688
 31
0.0
  0
LINE
  5
   6E4
  8
0
  6
CONTINUOUS
 62
     7
 10
-261.310241699219
 20
55.7306518554688
 30
0.0
 11
-261.310241699219
 21
27.7306518554688
 31
0.0
  0
LINE
  5
   6E5
  8
0
  6
CONTINUOUS
 62
     7
 10
-233.310241699219
 20
55.7306518554688
 30
0.0
 11
-233.310241699219
 21
27.7306518554688
 31
0.0
  0
CIRCLE
  5
   6E6
  8
0
  6
CONTINUOUS
 62
     7
 10
-257.310241699219
 20
59.4806518554688
 30
0.0
 40
0.875
  0
CIRCLE
  5
   6E7
  8
0
  6
CONTINUOUS
 62
     7
 10
-237.310241699219
 20
59.4806518554688
 30
0.0
 40
0.875
  0
CIRCLE
  5
   6E8
  8
0
  6
CONTINUOUS
 62
     7
 10
-257.310241699219
 20
23.9806518554688
 30
0.0
 40
0.875
  0
CIRCLE
  5
   6E9
  8
0
  6
CONTINUOUS
 62
     7
 10
-237.310241699219
 20
23.9806518554688
 30
0.0
 40
0.875
  0
LINE
  5
   6EA
  8
0
  6
DASHDOT
 62
     7
 10
-257.310241699219
 20
61.1056518554688
 30
0.0
 11
-257.310241699219
 21
57.8556518554688
 31
0.0
  0
LINE
  5
   6EB
  8
0
  6
DASHDOT
 62
     7
 10
-258.935241699219
 20
59.4806518554688
 30
0.0
 11
-255.685241699219
 21
59.4806518554688
 31
0.0
  0
LINE
  5
   6EC
  8
0
  6
DASHDOT
 62
     7
 10
-237.310241699219
 20
61.1056518554688
 30
0.0
 11
-237.310241699219
 21
57.8556518554688
 31
0.0
  0
LINE
  5
   6ED
  8
0
  6
DASHDOT
 62
     7
 10
-238.935241699219
 20
59.4806518554688
 30
0.0
 11
-235.685241699219
 21
59.4806518554688
 31
0.0
  0
LINE
  5
   6EE
  8
0
  6
DASHDOT
 62
     7
 10
-237.310241699219
 20
25.6056518554688
 30
0.0
 11
-237.310241699219
 21
22.3556518554688
 31
0.0
  0
LINE
  5
   6EF
  8
0
  6
DASHDOT
 62
     7
 10
-238.935241699219
 20
23.9806518554688
 30
0.0
 11
-235.685241699219
 21
23.9806518554688
 31
0.0
  0
LINE
  5
   6F0
  8
0
  6
DASHDOT
 62
     7
 10
-257.310241699219
 20
25.6056518554688
 30
0.0
 11
-257.310241699219
 21
22.3556518554688
 31
0.0
  0
LINE
  5
   6F1
  8
0
  6
DASHDOT
 62
     7
 10
-258.935241699219
 20
23.9806518554688
 30
0.0
 11
-255.685241699219
 21
23.9806518554688
 31
0.0
  0
LINE
  5
   6F2
  8
0
  6
DASHDOT
 62
     7
 10
-247.310241699219
 20
69.1007641408058
 30
0.0
 11
-247.310241699219
 21
12.6074010106477
 31
0.0
  0
LINE
  5
   6F3
  8
0
  6
CONTINUOUS
 62
     7
 10
-264.130818242885
 20
62.1318375106748
 30
0.0
 11
-230.176258019577
 21
62.1318375106748
 31
0.0
  0
LINE
  5
   6F4
  8
0
  6
CONTINUOUS
 62
     7
 10
-264.130818242885
 20
20.5667724097295
 30
0.0
 11
-230.176258019577
 21
20.5667724097295
 31
0.0
  0
LINE
  5
   6F5
  8
0
  6
CONTINUOUS
 62
     7
 10
-230.176258019577
 20
62.1318375106748
 30
0.0
 11
-230.176258019577
 21
20.5667724097295
 31
0.0
  0
LINE
  5
   6F6
  8
0
  6
CONTINUOUS
 62
     7
 10
-264.130818242885
 20
62.1318375106748
 30
0.0
 11
-264.130818242885
 21
20.5667724097295
 31
0.0
  0
CIRCLE
  5
   6F7
  8
0
  6
CONTINUOUS
 62
     7
 10
-262.257463196081
 20
60.3170248090842
 30
0.0
 40
0.0625
  0
LINE
  5
   6F8
  8
0
  6
DASHDOT
 62
     7
 10
-270.680794934124
 20
41.7306518554688
 30
0.0
 11
-224.471923770369
 21
41.7306518554688
 31
0.0
  0
TEXT
  5
   6F9
  8
0
  6
CONTINUOUS
 62
     1
 10
-360.399153083298
 20
-162.652404788389
 30
0.0
 40
2.00000008940697
  1
M 3076 95-01-16
 50
359.999999844103
 41
0.749999861419206
 72
     1
 11
-349.299154639244
 21
-161.652404773832
 31
0.0
 73
     2
  0
TEXT
  5
   6FA
  8
0
  6
CONTINUOUS
 62
     1
 10
-372.136764517158
 20
-148.459136845863
 30
0.0
 40
2.00000008940697
  1
93-04-05 FERRARI M.
 50
359.999999844103
 41
0.749999861419206
 72
     2
 11
-343.936768474907
 21
-148.459136922451
 31
0.0
  0
TEXT
  5
   6FB
  8
0
  6
CONTINUOUS
 62
     7
 10
-266.781922401525
 20
30.1598963582566
 30
0.0
 40
3.00000002980232
  1
=      =
 50
449.999999844103
 41
0.916666604744064
 72
     2
 11
-266.781922343296
 21
51.6098951179833
 31
0.0
  0
TEXT
  5
   6FC
  8
0
  6
CONTINUOUS
 62
     7
 10
-275.879294456579
 20
30.3042988622239
 30
0.0
 40
3.00000002980232
  1
=      =
 50
449.999999844103
 41
0.916666604744064
 72
     2
 11
-275.87929439835
 21
51.7542976219506
 31
0.0
  0
INSERT
  5
   6FD
  8
0
  6
CONTINUOUS
 62
     7
  2
*UDIM2444
 10
0.0
 20
0.0
 30
0.0
  0
TEXT
  5
   6FE
  8
0
  6
CONTINUOUS
 62
     7
 10
-254.210783692303
 20
74.9549977217458
 30
0.0
 40
3.00000002980232
  1
=   =
 50
359.999999844103
 41
0.916666604744064
 72
     2
 11
-241.010784457229
 21
74.9549976858961
 31
0.0
  0
TEXT
  5
   6FF
  8
0
  6
CONTINUOUS
 62
     7
 10
-254.26932594389
 20
68.3982560072683
 30
0.0
 40
3.00000002980232
  1
=   =
 50
359.999999844103
 41
0.916666604744064
 72
     2
 11
-241.069326708816
 21
68.3982559714186
 31
0.0
  0
INSERT
  5
   700
  8
0
  6
CONTINUOUS
 62
     7
  2
*UDIM2445
 10
0.0
 20
0.0
 30
0.0
  0
INSERT
  5
   701
  8
0
  6
CONTINUOUS
 62
     7
  2
*UDIM2446
 10
0.0
 20
0.0
 30
0.0
  0
INSERT
  5
   702
  8
0
  6
CONTINUOUS
 62
     7
  2
*UDIM2447
 10
0.0
 20
0.0
 30
0.0
  0
INSERT
  5
   703
  8
0
  6
CONTINUOUS
 62
     7
  2
*UDIM2448
 10
0.0
 20
0.0
 30
0.0
  0
TEXT
  5
   704
  8
0
  6
CONTINUOUS
 62
     7
 10
-248.498521695637
 20
5.7555579447797
 30
0.0
 40
3.00000002980232
  1
Y
 50
359.999999844103
 41
0.916666604744064
 72
     2
 11
-246.298521826767
 21
5.75555793880475
 31
0.0
  0
TEXT
  5
   705
  8
0
  6
CONTINUOUS
 62
     7
 10
-247.561844239734
 20
84.4950141215375
 30
0.0
 40
3.00000002980232
  1
Y
 50
359.999999844103
 41
0.916666604744064
 72
     2
 11
-245.361844370865
 21
84.4950141155626
 31
0.0
  0
TEXT
  5
   706
  8
0
  6
CONTINUOUS
 62
     7
 10
-223.178647885822
 20
40.1744690442136
 30
0.0
 40
3.00000002980232
  1
X
 50
359.999999844103
 41
0.916666604744064
 72
     2
 11
-220.978648016952
 21
40.1744690382387
 31
0.0
  0
TEXT
  5
   707
  8
0
  6
CONTINUOUS
 62
     7
 10
-289.478164563679
 20
39.8272039198926
 30
0.0
 40
3.00000002980232
  1
X
 50
359.999999844103
 41
0.916666604744064
 72
     2
 11
-287.278164694809
 21
39.8272039139177
 31
0.0
  0
TEXT
  5
   708
  8
0
  6
CONTINUOUS
 62
     1
 10
-265.271728497207
 20
-173.607894807251
 30
0.0
 40
4.00000017881393
  1
601812/271
 50
359.999999844103
 41
0.937499973922969
 72
     2
 11
-228.521727897435
 21
-173.60789490706
 31
0.0
  0
TEXT
  5
   709
  8
0
  6
CONTINUOUS
 62
     1
 10
-254.186035142437
 20
-164.626312249426
 30
0.0
 40
3.00000002980232
  1
S4
 50
359.999999844103
 41
0.916666604744064
 72
     2
 11
-249.236035432016
 21
-164.626312262869
 31
0.0
  0
TEXT
  5
   70A
  8
0
  6
CONTINUOUS
 62
     1
 10
-275.720454901198
 20
-146.316040006522
 30
0.0
 40
2.00000008940697
  1
4POLE LOW VOLTAGE M.C.C.B SERIES ISOMAX
 50
359.999999844103
 41
0.749999861419206
 72
     1
 11
-246.62045897842
 21
-145.316040040851
 31
0.0
 73
     2
  0
TEXT
  5
   70B
  8
0
  6
CONTINUOUS
 62
     1
 10
-268.970455810902
 20
-149.316040024855
 30
0.0
 40
2.00000008940697
  1
PLUG-IN VERSION REAR TERMINALS
 50
359.999999844103
 41
0.749999861419206
 72
     1
 11
-246.620458942646
 21
-148.316040040851
 31
0.0
 73
     2
  0
TEXT
  5
   70C
  8
0
  6
CONTINUOUS
 62
     1
 10
-272.518063268552
 20
-154.386306748488
 30
0.0
 40
2.00000008940697
  1
INTERR.AUTOMATICO SERIE ISOMAX
 50
359.999999844103
 41
0.749999861419206
 72
     1
 11
-250.168066400295
 21
-153.386306764484
 31
0.0
 73
     2
  0
TEXT
  5
   70D
  8
0
  6
CONTINUOUS
 62
     1
 10
-284.518061551926
 20
-157.386306715897
 30
0.0
 40
2.00000008940697
  1
TETRAP.ESECUZIONE RIMOVIBILE TERMIN.POSTERIORI
 50
359.999999844103
 41
0.749999861419206
 72
     1
 11
-250.168066364521
 21
-156.386306764484
 31
0.0
 73
     2
  0
ENDSEC
  0
EOF
