ISO-10303-21;
HEADER;
FILE_DESCRIPTION(('CATIA V5 STEP Exchange'),'2;1');

FILE_NAME('C:\\Users\\uff.tecnico\\Desktop\\STP\\1SDH001295R0338_1PA_001_00_XT2_4P_PLUG-IN_MOSTRINA_DIFFERENZI.stp','2014-11-11T15:26:56+00:00',('none'),('none'),'CATIA Version 5 Release 20 SP 1 (IN-10)','CATIA V5 STEP AP214','none');

FILE_SCHEMA(('AUTOMOTIVE_DESIGN { 1 0 10303 214 1 1 1 1 }'));

ENDSEC;
/* file written by CATIA V5R20 */
DATA;
#5=PRODUCT('1SDH001295R0338_1PA_001_00_XT2_4P_PLUG-IN_MOSTRINA_DIFFERENZI','','',(#2)) ;
#2=PRODUCT_CONTEXT(' ',#1,'mechanical') ;
#1=APPLICATION_CONTEXT('automotive design') ;
#10=PRODUCT_DEFINITION('',' ',#6,#3) ;
#3=PRODUCT_DEFINITION_CONTEXT('part definition',#1,' ') ;
#11=PRODUCT_DEFINITION_SHAPE(' ',' ',#10) ;
#658=MECHANICAL_DESIGN_GEOMETRIC_PRESENTATION_REPRESENTATION(' ',(#30),#17) ;
#20=SHAPE_REPRESENTATION(' ',(#19),#17) ;
#19=AXIS2_PLACEMENT_3D(' ',#18,$,$) ;
#35=AXIS2_PLACEMENT_3D('Plane Axis2P3D',#32,#33,#34) ;
#75=AXIS2_PLACEMENT_3D('Plane Axis2P3D',#72,#73,#74) ;
#106=AXIS2_PLACEMENT_3D('Plane Axis2P3D',#103,#104,#105) ;
#137=AXIS2_PLACEMENT_3D('Plane Axis2P3D',#134,#135,#136) ;
#159=AXIS2_PLACEMENT_3D('Plane Axis2P3D',#156,#157,#158) ;
#251=AXIS2_PLACEMENT_3D('Plane Axis2P3D',#248,#249,#250) ;
#273=AXIS2_PLACEMENT_3D('Cylinder Axis2P3D',#270,#271,#272) ;
#277=AXIS2_PLACEMENT_3D('Circle Axis2P3D',#275,#276,$) ;
#293=AXIS2_PLACEMENT_3D('Circle Axis2P3D',#291,#292,$) ;
#313=AXIS2_PLACEMENT_3D('Plane Axis2P3D',#310,#311,#312) ;
#317=AXIS2_PLACEMENT_3D('Circle Axis2P3D',#315,#316,$) ;
#360=AXIS2_PLACEMENT_3D('Plane Axis2P3D',#357,#358,#359) ;
#364=AXIS2_PLACEMENT_3D('Circle Axis2P3D',#362,#363,$) ;
#407=AXIS2_PLACEMENT_3D('Plane Axis2P3D',#404,#405,#406) ;
#436=AXIS2_PLACEMENT_3D('Cylinder Axis2P3D',#433,#434,#435) ;
#453=AXIS2_PLACEMENT_3D('Plane Axis2P3D',#450,#451,#452) ;
#470=AXIS2_PLACEMENT_3D('Plane Axis2P3D',#467,#468,#469) ;
#487=AXIS2_PLACEMENT_3D('Plane Axis2P3D',#484,#485,#486) ;
#539=AXIS2_PLACEMENT_3D('Plane Axis2P3D',#536,#537,#538) ;
#570=AXIS2_PLACEMENT_3D('Plane Axis2P3D',#567,#568,#569) ;
#601=AXIS2_PLACEMENT_3D('Plane Axis2P3D',#598,#599,#600) ;
#618=AXIS2_PLACEMENT_3D('Plane Axis2P3D',#615,#616,#617) ;
#635=AXIS2_PLACEMENT_3D('Plane Axis2P3D',#632,#633,#634) ;
#655=AXIS2_PLACEMENT_3D('Sistema di assi.1',#652,#653,#654) ;
#18=CARTESIAN_POINT(' ',(0.,0.,0.)) ;
#32=CARTESIAN_POINT('Axis2P3D Location',(73.,0.,-65.)) ;
#37=CARTESIAN_POINT('Line Origine',(15.,136.,-65.)) ;
#41=CARTESIAN_POINT('Vertex',(73.,136.,-65.)) ;
#43=CARTESIAN_POINT('Vertex',(-43.,136.,-65.)) ;
#46=CARTESIAN_POINT('Line Origine',(-43.,138.25,-65.)) ;
#50=CARTESIAN_POINT('Vertex',(-43.,140.5,-65.)) ;
#53=CARTESIAN_POINT('Line Origine',(15.,140.5,-65.)) ;
#57=CARTESIAN_POINT('Vertex',(73.,140.5,-65.)) ;
#60=CARTESIAN_POINT('Line Origine',(73.,138.25,-65.)) ;
#72=CARTESIAN_POINT('Axis2P3D Location',(-43.,0.,-49.8)) ;
#77=CARTESIAN_POINT('Line Origine',(-43.,138.25,-124.8)) ;
#81=CARTESIAN_POINT('Vertex',(-43.,136.,-124.8)) ;
#83=CARTESIAN_POINT('Vertex',(-43.,140.5,-124.8)) ;
#86=CARTESIAN_POINT('Line Origine',(-43.,140.5,-94.9)) ;
#91=CARTESIAN_POINT('Line Origine',(-43.,136.,-94.9)) ;
#103=CARTESIAN_POINT('Axis2P3D Location',(73.,0.,25.)) ;
#108=CARTESIAN_POINT('Line Origine',(73.,140.5,-94.9)) ;
#112=CARTESIAN_POINT('Vertex',(73.,140.5,-124.8)) ;
#115=CARTESIAN_POINT('Line Origine',(73.,138.25,-124.8)) ;
#119=CARTESIAN_POINT('Vertex',(73.,136.,-124.8)) ;
#122=CARTESIAN_POINT('Line Origine',(73.,136.,-94.9)) ;
#134=CARTESIAN_POINT('Axis2P3D Location',(-43.,0.,-124.8)) ;
#139=CARTESIAN_POINT('Line Origine',(15.,136.,-124.8)) ;
#144=CARTESIAN_POINT('Line Origine',(15.,140.5,-124.8)) ;
#156=CARTESIAN_POINT('Axis2P3D Location',(73.,0.,25.)) ;
#161=CARTESIAN_POINT('Line Origine',(15.,136.,25.)) ;
#165=CARTESIAN_POINT('Vertex',(73.,136.,25.)) ;
#167=CARTESIAN_POINT('Vertex',(-43.,136.,25.)) ;
#170=CARTESIAN_POINT('Line Origine',(-43.,138.25,25.)) ;
#174=CARTESIAN_POINT('Vertex',(-43.,140.5,25.)) ;
#177=CARTESIAN_POINT('Line Origine',(15.,140.5,25.)) ;
#181=CARTESIAN_POINT('Vertex',(73.,140.5,25.)) ;
#184=CARTESIAN_POINT('Line Origine',(73.,138.25,25.)) ;
#196=CARTESIAN_POINT('Line Origine',(-43.,138.25,-49.8)) ;
#200=CARTESIAN_POINT('Vertex',(-43.,136.,-49.8)) ;
#202=CARTESIAN_POINT('Vertex',(-43.,140.5,-49.8)) ;
#205=CARTESIAN_POINT('Line Origine',(-43.,140.5,-12.4)) ;
#210=CARTESIAN_POINT('Line Origine',(-43.,136.,-12.4)) ;
#222=CARTESIAN_POINT('Line Origine',(73.,140.5,-12.4)) ;
#226=CARTESIAN_POINT('Vertex',(73.,140.5,-49.8)) ;
#229=CARTESIAN_POINT('Line Origine',(73.,138.25,-49.8)) ;
#233=CARTESIAN_POINT('Vertex',(73.,136.,-49.8)) ;
#236=CARTESIAN_POINT('Line Origine',(73.,136.,-12.4)) ;
#248=CARTESIAN_POINT('Axis2P3D Location',(-43.,0.,-49.8)) ;
#253=CARTESIAN_POINT('Line Origine',(15.,136.,-49.8)) ;
#258=CARTESIAN_POINT('Line Origine',(15.,140.5,-49.8)) ;
#270=CARTESIAN_POINT('Axis2P3D Location',(78.,138.5,-49.9)) ;
#275=CARTESIAN_POINT('Axis2P3D Location',(78.,138.5,42.5)) ;
#279=CARTESIAN_POINT('Vertex',(78.,140.5,42.5)) ;
#281=CARTESIAN_POINT('Vertex',(80.,138.5,42.5)) ;
#284=CARTESIAN_POINT('Line Origine',(80.,138.5,-49.9)) ;
#288=CARTESIAN_POINT('Vertex',(80.,138.5,-142.3)) ;
#291=CARTESIAN_POINT('Axis2P3D Location',(78.,138.5,-142.3)) ;
#295=CARTESIAN_POINT('Vertex',(78.,140.5,-142.3)) ;
#298=CARTESIAN_POINT('Line Origine',(78.,140.5,-49.9)) ;
#310=CARTESIAN_POINT('Axis2P3D Location',(0.,140.5,-142.3)) ;
#315=CARTESIAN_POINT('Axis2P3D Location',(-48.,138.5,-142.3)) ;
#319=CARTESIAN_POINT('Vertex',(-48.,140.5,-142.3)) ;
#321=CARTESIAN_POINT('Vertex',(-50.,138.5,-142.3)) ;
#324=CARTESIAN_POINT('Line Origine',(15.,140.5,-142.3)) ;
#329=CARTESIAN_POINT('Line Origine',(80.,138.25,-142.3)) ;
#333=CARTESIAN_POINT('Vertex',(80.,138.,-142.3)) ;
#336=CARTESIAN_POINT('Line Origine',(15.,138.,-142.3)) ;
#340=CARTESIAN_POINT('Vertex',(-50.,138.,-142.3)) ;
#343=CARTESIAN_POINT('Line Origine',(-50.,138.25,-142.3)) ;
#357=CARTESIAN_POINT('Axis2P3D Location',(0.,138.,42.5)) ;
#362=CARTESIAN_POINT('Axis2P3D Location',(-48.,138.5,42.5)) ;
#366=CARTESIAN_POINT('Vertex',(-50.,138.5,42.5)) ;
#368=CARTESIAN_POINT('Vertex',(-48.,140.5,42.5)) ;
#371=CARTESIAN_POINT('Line Origine',(-50.,138.25,42.5)) ;
#375=CARTESIAN_POINT('Vertex',(-50.,138.,42.5)) ;
#378=CARTESIAN_POINT('Line Origine',(15.,138.,42.5)) ;
#382=CARTESIAN_POINT('Vertex',(80.,138.,42.5)) ;
#385=CARTESIAN_POINT('Line Origine',(80.,138.25,42.5)) ;
#390=CARTESIAN_POINT('Line Origine',(15.,140.5,42.5)) ;
#404=CARTESIAN_POINT('Axis2P3D Location',(0.,140.5,-142.3)) ;
#409=CARTESIAN_POINT('Line Origine',(-48.,140.5,-49.9)) ;
#433=CARTESIAN_POINT('Axis2P3D Location',(-48.,138.5,-49.9)) ;
#438=CARTESIAN_POINT('Line Origine',(-50.,138.5,-49.9)) ;
#450=CARTESIAN_POINT('Axis2P3D Location',(-50.,0.,0.)) ;
#455=CARTESIAN_POINT('Line Origine',(-50.,138.,-49.9)) ;
#467=CARTESIAN_POINT('Axis2P3D Location',(80.,0.,0.)) ;
#472=CARTESIAN_POINT('Line Origine',(80.,138.,-49.9)) ;
#484=CARTESIAN_POINT('Axis2P3D Location',(0.,136.,28.)) ;
#489=CARTESIAN_POINT('Line Origine',(-46.,136.,-50.)) ;
#493=CARTESIAN_POINT('Vertex',(-46.,136.,28.)) ;
#495=CARTESIAN_POINT('Vertex',(-46.,136.,-128.)) ;
#498=CARTESIAN_POINT('Line Origine',(15.,136.,-128.)) ;
#502=CARTESIAN_POINT('Vertex',(76.,136.,-128.)) ;
#505=CARTESIAN_POINT('Line Origine',(76.,136.,-50.)) ;
#509=CARTESIAN_POINT('Vertex',(76.,136.,28.)) ;
#512=CARTESIAN_POINT('Line Origine',(15.,136.,28.)) ;
#536=CARTESIAN_POINT('Axis2P3D Location',(0.,136.,-128.)) ;
#541=CARTESIAN_POINT('Line Origine',(-46.,137.,-128.)) ;
#545=CARTESIAN_POINT('Vertex',(-46.,138.,-128.)) ;
#548=CARTESIAN_POINT('Line Origine',(15.,138.,-128.)) ;
#552=CARTESIAN_POINT('Vertex',(76.,138.,-128.)) ;
#555=CARTESIAN_POINT('Line Origine',(76.,137.,-128.)) ;
#567=CARTESIAN_POINT('Axis2P3D Location',(0.,136.,28.)) ;
#572=CARTESIAN_POINT('Line Origine',(76.,137.,28.)) ;
#576=CARTESIAN_POINT('Vertex',(76.,138.,28.)) ;
#579=CARTESIAN_POINT('Line Origine',(15.,138.,28.)) ;
#583=CARTESIAN_POINT('Vertex',(-46.,138.,28.)) ;
#586=CARTESIAN_POINT('Line Origine',(-46.,137.,28.)) ;
#598=CARTESIAN_POINT('Axis2P3D Location',(-46.,113.,0.)) ;
#603=CARTESIAN_POINT('Line Origine',(-46.,138.,-50.)) ;
#615=CARTESIAN_POINT('Axis2P3D Location',(76.,138.,0.)) ;
#620=CARTESIAN_POINT('Line Origine',(76.,138.,-50.)) ;
#632=CARTESIAN_POINT('Axis2P3D Location',(0.,138.,42.5)) ;
#652=CARTESIAN_POINT('Axis2P3D Location',(0.,0.,0.)) ;
#33=DIRECTION('Axis2P3D Direction',(0.,0.,-1.)) ;
#34=DIRECTION('Axis2P3D XDirection',(-1.,0.,0.)) ;
#38=DIRECTION('Vector Direction',(-1.,0.,0.)) ;
#47=DIRECTION('Vector Direction',(0.,1.,0.)) ;
#54=DIRECTION('Vector Direction',(-1.,0.,0.)) ;
#61=DIRECTION('Vector Direction',(0.,1.,0.)) ;
#73=DIRECTION('Axis2P3D Direction',(-1.,0.,0.)) ;
#74=DIRECTION('Axis2P3D XDirection',(0.,0.,1.)) ;
#78=DIRECTION('Vector Direction',(0.,1.,0.)) ;
#87=DIRECTION('Vector Direction',(0.,0.,1.)) ;
#92=DIRECTION('Vector Direction',(0.,0.,1.)) ;
#104=DIRECTION('Axis2P3D Direction',(1.,-0.,0.)) ;
#105=DIRECTION('Axis2P3D XDirection',(0.,0.,-1.)) ;
#109=DIRECTION('Vector Direction',(0.,0.,-1.)) ;
#116=DIRECTION('Vector Direction',(0.,1.,0.)) ;
#123=DIRECTION('Vector Direction',(0.,0.,-1.)) ;
#135=DIRECTION('Axis2P3D Direction',(0.,0.,1.)) ;
#136=DIRECTION('Axis2P3D XDirection',(1.,0.,0.)) ;
#140=DIRECTION('Vector Direction',(1.,0.,0.)) ;
#145=DIRECTION('Vector Direction',(1.,0.,0.)) ;
#157=DIRECTION('Axis2P3D Direction',(0.,0.,-1.)) ;
#158=DIRECTION('Axis2P3D XDirection',(-1.,0.,0.)) ;
#162=DIRECTION('Vector Direction',(-1.,0.,0.)) ;
#171=DIRECTION('Vector Direction',(0.,1.,0.)) ;
#178=DIRECTION('Vector Direction',(-1.,0.,0.)) ;
#185=DIRECTION('Vector Direction',(0.,1.,0.)) ;
#197=DIRECTION('Vector Direction',(0.,1.,0.)) ;
#206=DIRECTION('Vector Direction',(0.,0.,1.)) ;
#211=DIRECTION('Vector Direction',(0.,0.,1.)) ;
#223=DIRECTION('Vector Direction',(0.,0.,-1.)) ;
#230=DIRECTION('Vector Direction',(0.,1.,0.)) ;
#237=DIRECTION('Vector Direction',(0.,0.,-1.)) ;
#249=DIRECTION('Axis2P3D Direction',(0.,0.,1.)) ;
#250=DIRECTION('Axis2P3D XDirection',(1.,0.,0.)) ;
#254=DIRECTION('Vector Direction',(1.,0.,0.)) ;
#259=DIRECTION('Vector Direction',(1.,0.,0.)) ;
#271=DIRECTION('Axis2P3D Direction',(0.,-0.,1.)) ;
#272=DIRECTION('Axis2P3D XDirection',(1.,-1.83697019872E-016,-0.)) ;
#276=DIRECTION('Axis2P3D Direction',(0.,-0.,1.)) ;
#285=DIRECTION('Vector Direction',(0.,0.,1.)) ;
#292=DIRECTION('Axis2P3D Direction',(0.,-0.,1.)) ;
#299=DIRECTION('Vector Direction',(0.,0.,1.)) ;
#311=DIRECTION('Axis2P3D Direction',(-0.,0.,1.)) ;
#312=DIRECTION('Axis2P3D XDirection',(0.,-1.,0.)) ;
#316=DIRECTION('Axis2P3D Direction',(-0.,0.,1.)) ;
#325=DIRECTION('Vector Direction',(1.,0.,0.)) ;
#330=DIRECTION('Vector Direction',(0.,-1.,0.)) ;
#337=DIRECTION('Vector Direction',(1.,0.,0.)) ;
#344=DIRECTION('Vector Direction',(0.,-1.,0.)) ;
#358=DIRECTION('Axis2P3D Direction',(0.,0.,-1.)) ;
#359=DIRECTION('Axis2P3D XDirection',(0.,1.,0.)) ;
#363=DIRECTION('Axis2P3D Direction',(0.,0.,-1.)) ;
#372=DIRECTION('Vector Direction',(0.,1.,0.)) ;
#379=DIRECTION('Vector Direction',(1.,0.,0.)) ;
#386=DIRECTION('Vector Direction',(0.,1.,0.)) ;
#391=DIRECTION('Vector Direction',(1.,0.,0.)) ;
#405=DIRECTION('Axis2P3D Direction',(0.,1.,0.)) ;
#406=DIRECTION('Axis2P3D XDirection',(0.,0.,1.)) ;
#410=DIRECTION('Vector Direction',(0.,0.,1.)) ;
#434=DIRECTION('Axis2P3D Direction',(0.,0.,1.)) ;
#435=DIRECTION('Axis2P3D XDirection',(1.83697019872E-016,1.,-0.)) ;
#439=DIRECTION('Vector Direction',(0.,0.,1.)) ;
#451=DIRECTION('Axis2P3D Direction',(1.,0.,0.)) ;
#452=DIRECTION('Axis2P3D XDirection',(0.,1.,0.)) ;
#456=DIRECTION('Vector Direction',(0.,0.,1.)) ;
#468=DIRECTION('Axis2P3D Direction',(1.,0.,0.)) ;
#469=DIRECTION('Axis2P3D XDirection',(0.,1.,0.)) ;
#473=DIRECTION('Vector Direction',(0.,0.,-1.)) ;
#485=DIRECTION('Axis2P3D Direction',(0.,-1.,0.)) ;
#486=DIRECTION('Axis2P3D XDirection',(0.,0.,-1.)) ;
#490=DIRECTION('Vector Direction',(0.,0.,-1.)) ;
#499=DIRECTION('Vector Direction',(1.,0.,0.)) ;
#506=DIRECTION('Vector Direction',(0.,0.,-1.)) ;
#513=DIRECTION('Vector Direction',(1.,0.,0.)) ;
#537=DIRECTION('Axis2P3D Direction',(0.,0.,-1.)) ;
#538=DIRECTION('Axis2P3D XDirection',(0.,1.,0.)) ;
#542=DIRECTION('Vector Direction',(0.,-1.,0.)) ;
#549=DIRECTION('Vector Direction',(1.,0.,0.)) ;
#556=DIRECTION('Vector Direction',(0.,-1.,0.)) ;
#568=DIRECTION('Axis2P3D Direction',(0.,0.,-1.)) ;
#569=DIRECTION('Axis2P3D XDirection',(0.,1.,0.)) ;
#573=DIRECTION('Vector Direction',(0.,-1.,0.)) ;
#580=DIRECTION('Vector Direction',(1.,0.,0.)) ;
#587=DIRECTION('Vector Direction',(0.,-1.,0.)) ;
#599=DIRECTION('Axis2P3D Direction',(-1.,0.,0.)) ;
#600=DIRECTION('Axis2P3D XDirection',(0.,1.,0.)) ;
#604=DIRECTION('Vector Direction',(0.,0.,-1.)) ;
#616=DIRECTION('Axis2P3D Direction',(1.,0.,0.)) ;
#617=DIRECTION('Axis2P3D XDirection',(0.,-1.,0.)) ;
#621=DIRECTION('Vector Direction',(0.,0.,-1.)) ;
#633=DIRECTION('Axis2P3D Direction',(0.,-1.,0.)) ;
#634=DIRECTION('Axis2P3D XDirection',(0.,0.,-1.)) ;
#653=DIRECTION('Axis2P3D Direction',(0.,0.,1.)) ;
#654=DIRECTION('Axis2P3D XDirection',(1.,0.,0.)) ;
#8=PRODUCT_RELATED_PRODUCT_CATEGORY('part',$,(#5)) ;
#7=PRODUCT_CATEGORY('part','specification') ;
#30=STYLED_ITEM(' ',(#29),#22) ;
#29=PRESENTATION_STYLE_ASSIGNMENT((#28)) ;
#28=SURFACE_STYLE_USAGE(.BOTH.,#27) ;
#27=SURFACE_SIDE_STYLE(' ',(#26)) ;
#26=SURFACE_STYLE_FILL_AREA(#25) ;
#25=FILL_AREA_STYLE(' ',(#24)) ;
#24=FILL_AREA_STYLE_COLOUR(' ',#23) ;
#39=VECTOR('Line Direction',#38,1.) ;
#48=VECTOR('Line Direction',#47,1.) ;
#55=VECTOR('Line Direction',#54,1.) ;
#62=VECTOR('Line Direction',#61,1.) ;
#79=VECTOR('Line Direction',#78,1.) ;
#88=VECTOR('Line Direction',#87,1.) ;
#93=VECTOR('Line Direction',#92,1.) ;
#110=VECTOR('Line Direction',#109,1.) ;
#117=VECTOR('Line Direction',#116,1.) ;
#124=VECTOR('Line Direction',#123,1.) ;
#141=VECTOR('Line Direction',#140,1.) ;
#146=VECTOR('Line Direction',#145,1.) ;
#163=VECTOR('Line Direction',#162,1.) ;
#172=VECTOR('Line Direction',#171,1.) ;
#179=VECTOR('Line Direction',#178,1.) ;
#186=VECTOR('Line Direction',#185,1.) ;
#198=VECTOR('Line Direction',#197,1.) ;
#207=VECTOR('Line Direction',#206,1.) ;
#212=VECTOR('Line Direction',#211,1.) ;
#224=VECTOR('Line Direction',#223,1.) ;
#231=VECTOR('Line Direction',#230,1.) ;
#238=VECTOR('Line Direction',#237,1.) ;
#255=VECTOR('Line Direction',#254,1.) ;
#260=VECTOR('Line Direction',#259,1.) ;
#286=VECTOR('Line Direction',#285,1.) ;
#300=VECTOR('Line Direction',#299,1.) ;
#326=VECTOR('Line Direction',#325,1.) ;
#331=VECTOR('Line Direction',#330,1.) ;
#338=VECTOR('Line Direction',#337,1.) ;
#345=VECTOR('Line Direction',#344,1.) ;
#373=VECTOR('Line Direction',#372,1.) ;
#380=VECTOR('Line Direction',#379,1.) ;
#387=VECTOR('Line Direction',#386,1.) ;
#392=VECTOR('Line Direction',#391,1.) ;
#411=VECTOR('Line Direction',#410,1.) ;
#440=VECTOR('Line Direction',#439,1.) ;
#457=VECTOR('Line Direction',#456,1.) ;
#474=VECTOR('Line Direction',#473,1.) ;
#491=VECTOR('Line Direction',#490,1.) ;
#500=VECTOR('Line Direction',#499,1.) ;
#507=VECTOR('Line Direction',#506,1.) ;
#514=VECTOR('Line Direction',#513,1.) ;
#543=VECTOR('Line Direction',#542,1.) ;
#550=VECTOR('Line Direction',#549,1.) ;
#557=VECTOR('Line Direction',#556,1.) ;
#574=VECTOR('Line Direction',#573,1.) ;
#581=VECTOR('Line Direction',#580,1.) ;
#588=VECTOR('Line Direction',#587,1.) ;
#605=VECTOR('Line Direction',#604,1.) ;
#622=VECTOR('Line Direction',#621,1.) ;
#16=UNCERTAINTY_MEASURE_WITH_UNIT(LENGTH_MEASURE(0.005),#12,'distance_accuracy_value','CONFUSED CURVE UNCERTAINTY') ;
#651=SHAPE_REPRESENTATION_RELATIONSHIP(' ',' ',#20,#650) ;
#66=ORIENTED_EDGE('',*,*,#45,.T.) ;
#67=ORIENTED_EDGE('',*,*,#52,.T.) ;
#68=ORIENTED_EDGE('',*,*,#59,.F.) ;
#69=ORIENTED_EDGE('',*,*,#64,.F.) ;
#97=ORIENTED_EDGE('',*,*,#85,.T.) ;
#98=ORIENTED_EDGE('',*,*,#90,.T.) ;
#99=ORIENTED_EDGE('',*,*,#52,.F.) ;
#100=ORIENTED_EDGE('',*,*,#95,.F.) ;
#128=ORIENTED_EDGE('',*,*,#64,.T.) ;
#129=ORIENTED_EDGE('',*,*,#114,.T.) ;
#130=ORIENTED_EDGE('',*,*,#121,.F.) ;
#131=ORIENTED_EDGE('',*,*,#126,.F.) ;
#150=ORIENTED_EDGE('',*,*,#143,.T.) ;
#151=ORIENTED_EDGE('',*,*,#121,.T.) ;
#152=ORIENTED_EDGE('',*,*,#148,.F.) ;
#153=ORIENTED_EDGE('',*,*,#85,.F.) ;
#190=ORIENTED_EDGE('',*,*,#169,.T.) ;
#191=ORIENTED_EDGE('',*,*,#176,.T.) ;
#192=ORIENTED_EDGE('',*,*,#183,.F.) ;
#193=ORIENTED_EDGE('',*,*,#188,.F.) ;
#216=ORIENTED_EDGE('',*,*,#204,.T.) ;
#217=ORIENTED_EDGE('',*,*,#209,.T.) ;
#218=ORIENTED_EDGE('',*,*,#176,.F.) ;
#219=ORIENTED_EDGE('',*,*,#214,.F.) ;
#242=ORIENTED_EDGE('',*,*,#188,.T.) ;
#243=ORIENTED_EDGE('',*,*,#228,.T.) ;
#244=ORIENTED_EDGE('',*,*,#235,.F.) ;
#245=ORIENTED_EDGE('',*,*,#240,.F.) ;
#264=ORIENTED_EDGE('',*,*,#257,.T.) ;
#265=ORIENTED_EDGE('',*,*,#235,.T.) ;
#266=ORIENTED_EDGE('',*,*,#262,.F.) ;
#267=ORIENTED_EDGE('',*,*,#204,.F.) ;
#304=ORIENTED_EDGE('',*,*,#283,.T.) ;
#305=ORIENTED_EDGE('',*,*,#290,.F.) ;
#306=ORIENTED_EDGE('',*,*,#297,.T.) ;
#307=ORIENTED_EDGE('',*,*,#302,.T.) ;
#349=ORIENTED_EDGE('',*,*,#323,.F.) ;
#350=ORIENTED_EDGE('',*,*,#328,.T.) ;
#351=ORIENTED_EDGE('',*,*,#297,.F.) ;
#352=ORIENTED_EDGE('',*,*,#335,.F.) ;
#353=ORIENTED_EDGE('',*,*,#342,.F.) ;
#354=ORIENTED_EDGE('',*,*,#347,.T.) ;
#396=ORIENTED_EDGE('',*,*,#370,.F.) ;
#397=ORIENTED_EDGE('',*,*,#377,.T.) ;
#398=ORIENTED_EDGE('',*,*,#384,.T.) ;
#399=ORIENTED_EDGE('',*,*,#389,.F.) ;
#400=ORIENTED_EDGE('',*,*,#283,.F.) ;
#401=ORIENTED_EDGE('',*,*,#394,.F.) ;
#415=ORIENTED_EDGE('',*,*,#394,.T.) ;
#416=ORIENTED_EDGE('',*,*,#302,.F.) ;
#417=ORIENTED_EDGE('',*,*,#328,.F.) ;
#418=ORIENTED_EDGE('',*,*,#413,.T.) ;
#421=ORIENTED_EDGE('',*,*,#209,.F.) ;
#422=ORIENTED_EDGE('',*,*,#262,.T.) ;
#423=ORIENTED_EDGE('',*,*,#228,.F.) ;
#424=ORIENTED_EDGE('',*,*,#183,.T.) ;
#427=ORIENTED_EDGE('',*,*,#90,.F.) ;
#428=ORIENTED_EDGE('',*,*,#148,.T.) ;
#429=ORIENTED_EDGE('',*,*,#114,.F.) ;
#430=ORIENTED_EDGE('',*,*,#59,.T.) ;
#444=ORIENTED_EDGE('',*,*,#370,.T.) ;
#445=ORIENTED_EDGE('',*,*,#413,.F.) ;
#446=ORIENTED_EDGE('',*,*,#323,.T.) ;
#447=ORIENTED_EDGE('',*,*,#442,.T.) ;
#461=ORIENTED_EDGE('',*,*,#377,.F.) ;
#462=ORIENTED_EDGE('',*,*,#442,.F.) ;
#463=ORIENTED_EDGE('',*,*,#347,.F.) ;
#464=ORIENTED_EDGE('',*,*,#459,.F.) ;
#478=ORIENTED_EDGE('',*,*,#476,.T.) ;
#479=ORIENTED_EDGE('',*,*,#335,.T.) ;
#480=ORIENTED_EDGE('',*,*,#290,.T.) ;
#481=ORIENTED_EDGE('',*,*,#389,.T.) ;
#518=ORIENTED_EDGE('',*,*,#497,.T.) ;
#519=ORIENTED_EDGE('',*,*,#504,.T.) ;
#520=ORIENTED_EDGE('',*,*,#511,.F.) ;
#521=ORIENTED_EDGE('',*,*,#516,.F.) ;
#524=ORIENTED_EDGE('',*,*,#169,.F.) ;
#525=ORIENTED_EDGE('',*,*,#240,.T.) ;
#526=ORIENTED_EDGE('',*,*,#257,.F.) ;
#527=ORIENTED_EDGE('',*,*,#214,.T.) ;
#530=ORIENTED_EDGE('',*,*,#45,.F.) ;
#531=ORIENTED_EDGE('',*,*,#126,.T.) ;
#532=ORIENTED_EDGE('',*,*,#143,.F.) ;
#533=ORIENTED_EDGE('',*,*,#95,.T.) ;
#561=ORIENTED_EDGE('',*,*,#547,.F.) ;
#562=ORIENTED_EDGE('',*,*,#554,.T.) ;
#563=ORIENTED_EDGE('',*,*,#559,.T.) ;
#564=ORIENTED_EDGE('',*,*,#504,.F.) ;
#592=ORIENTED_EDGE('',*,*,#516,.T.) ;
#593=ORIENTED_EDGE('',*,*,#578,.F.) ;
#594=ORIENTED_EDGE('',*,*,#585,.F.) ;
#595=ORIENTED_EDGE('',*,*,#590,.T.) ;
#609=ORIENTED_EDGE('',*,*,#607,.T.) ;
#610=ORIENTED_EDGE('',*,*,#547,.T.) ;
#611=ORIENTED_EDGE('',*,*,#497,.F.) ;
#612=ORIENTED_EDGE('',*,*,#590,.F.) ;
#626=ORIENTED_EDGE('',*,*,#624,.F.) ;
#627=ORIENTED_EDGE('',*,*,#578,.T.) ;
#628=ORIENTED_EDGE('',*,*,#511,.T.) ;
#629=ORIENTED_EDGE('',*,*,#559,.F.) ;
#638=ORIENTED_EDGE('',*,*,#342,.T.) ;
#639=ORIENTED_EDGE('',*,*,#476,.F.) ;
#640=ORIENTED_EDGE('',*,*,#384,.F.) ;
#641=ORIENTED_EDGE('',*,*,#459,.T.) ;
#644=ORIENTED_EDGE('',*,*,#624,.T.) ;
#645=ORIENTED_EDGE('',*,*,#554,.F.) ;
#646=ORIENTED_EDGE('',*,*,#607,.F.) ;
#647=ORIENTED_EDGE('',*,*,#585,.T.) ;
#425=FACE_BOUND('',#420,.T.) ;
#431=FACE_BOUND('',#426,.T.) ;
#528=FACE_BOUND('',#523,.T.) ;
#534=FACE_BOUND('',#529,.T.) ;
#648=FACE_BOUND('',#643,.T.) ;
#31=CLOSED_SHELL('Closed Shell',(#71,#102,#133,#155,#195,#221,#247,#269,#309,#356,#403,#432,#449,#466,#483,#535,#566,#597,#614,#631,#649)) ;
#650=ADVANCED_BREP_SHAPE_REPRESENTATION('NONE',(#22),#17) ;
#71=ADVANCED_FACE('Mostrina',(#70),#36,.T.) ;
#102=ADVANCED_FACE('Mostrina',(#101),#76,.F.) ;
#133=ADVANCED_FACE('Mostrina',(#132),#107,.F.) ;
#155=ADVANCED_FACE('Mostrina',(#154),#138,.T.) ;
#195=ADVANCED_FACE('Mostrina',(#194),#160,.T.) ;
#221=ADVANCED_FACE('Mostrina',(#220),#76,.F.) ;
#247=ADVANCED_FACE('Mostrina',(#246),#107,.F.) ;
#269=ADVANCED_FACE('Mostrina',(#268),#252,.T.) ;
#309=ADVANCED_FACE('Mostrina',(#308),#274,.T.) ;
#356=ADVANCED_FACE('Mostrina',(#355),#314,.F.) ;
#403=ADVANCED_FACE('Mostrina',(#402),#361,.F.) ;
#432=ADVANCED_FACE('Mostrina',(#419,#425,#431),#408,.T.) ;
#449=ADVANCED_FACE('Mostrina',(#448),#437,.T.) ;
#466=ADVANCED_FACE('Mostrina',(#465),#454,.F.) ;
#483=ADVANCED_FACE('Mostrina',(#482),#471,.T.) ;
#535=ADVANCED_FACE('Mostrina',(#522,#528,#534),#488,.T.) ;
#566=ADVANCED_FACE('Mostrina',(#565),#540,.T.) ;
#597=ADVANCED_FACE('Mostrina',(#596),#571,.F.) ;
#614=ADVANCED_FACE('Mostrina',(#613),#602,.T.) ;
#631=ADVANCED_FACE('Mostrina',(#630),#619,.T.) ;
#649=ADVANCED_FACE('Mostrina',(#642,#648),#636,.T.) ;
#4=APPLICATION_PROTOCOL_DEFINITION('international standard','automotive_design',2001,#1) ;
#22=MANIFOLD_SOLID_BREP('Mostrina',#31) ;
#278=CIRCLE('generated circle',#277,2.) ;
#294=CIRCLE('generated circle',#293,2.) ;
#318=CIRCLE('generated circle',#317,2.) ;
#365=CIRCLE('generated circle',#364,2.) ;
#23=COLOUR_RGB('Colour',0.341176470588,0.364705882353,0.36862745098) ;
#656=CONSTRUCTIVE_GEOMETRY_REPRESENTATION('supplemental geometry',(#655),#17) ;
#657=CONSTRUCTIVE_GEOMETRY_REPRESENTATION_RELATIONSHIP('supplemental geometry','',#20,#656) ;
#274=CYLINDRICAL_SURFACE('generated cylinder',#273,2.) ;
#437=CYLINDRICAL_SURFACE('generated cylinder',#436,2.) ;
#45=EDGE_CURVE('',#42,#44,#40,.T.) ;
#52=EDGE_CURVE('',#44,#51,#49,.T.) ;
#59=EDGE_CURVE('',#58,#51,#56,.T.) ;
#64=EDGE_CURVE('',#42,#58,#63,.T.) ;
#85=EDGE_CURVE('',#82,#84,#80,.T.) ;
#90=EDGE_CURVE('',#84,#51,#89,.T.) ;
#95=EDGE_CURVE('',#82,#44,#94,.T.) ;
#114=EDGE_CURVE('',#58,#113,#111,.T.) ;
#121=EDGE_CURVE('',#120,#113,#118,.T.) ;
#126=EDGE_CURVE('',#42,#120,#125,.T.) ;
#143=EDGE_CURVE('',#82,#120,#142,.T.) ;
#148=EDGE_CURVE('',#84,#113,#147,.T.) ;
#169=EDGE_CURVE('',#166,#168,#164,.T.) ;
#176=EDGE_CURVE('',#168,#175,#173,.T.) ;
#183=EDGE_CURVE('',#182,#175,#180,.T.) ;
#188=EDGE_CURVE('',#166,#182,#187,.T.) ;
#204=EDGE_CURVE('',#201,#203,#199,.T.) ;
#209=EDGE_CURVE('',#203,#175,#208,.T.) ;
#214=EDGE_CURVE('',#201,#168,#213,.T.) ;
#228=EDGE_CURVE('',#182,#227,#225,.T.) ;
#235=EDGE_CURVE('',#234,#227,#232,.T.) ;
#240=EDGE_CURVE('',#166,#234,#239,.T.) ;
#257=EDGE_CURVE('',#201,#234,#256,.T.) ;
#262=EDGE_CURVE('',#203,#227,#261,.T.) ;
#283=EDGE_CURVE('',#280,#282,#278,.F.) ;
#290=EDGE_CURVE('',#289,#282,#287,.T.) ;
#297=EDGE_CURVE('',#289,#296,#294,.T.) ;
#302=EDGE_CURVE('',#296,#280,#301,.T.) ;
#323=EDGE_CURVE('',#320,#322,#318,.T.) ;
#328=EDGE_CURVE('',#320,#296,#327,.T.) ;
#335=EDGE_CURVE('',#334,#289,#332,.F.) ;
#342=EDGE_CURVE('',#341,#334,#339,.T.) ;
#347=EDGE_CURVE('',#341,#322,#346,.F.) ;
#370=EDGE_CURVE('',#367,#369,#365,.T.) ;
#377=EDGE_CURVE('',#367,#376,#374,.F.) ;
#384=EDGE_CURVE('',#376,#383,#381,.T.) ;
#389=EDGE_CURVE('',#282,#383,#388,.F.) ;
#394=EDGE_CURVE('',#369,#280,#393,.T.) ;
#413=EDGE_CURVE('',#320,#369,#412,.T.) ;
#442=EDGE_CURVE('',#322,#367,#441,.T.) ;
#459=EDGE_CURVE('',#376,#341,#458,.F.) ;
#476=EDGE_CURVE('',#383,#334,#475,.T.) ;
#497=EDGE_CURVE('',#494,#496,#492,.T.) ;
#504=EDGE_CURVE('',#496,#503,#501,.T.) ;
#511=EDGE_CURVE('',#510,#503,#508,.T.) ;
#516=EDGE_CURVE('',#494,#510,#515,.T.) ;
#547=EDGE_CURVE('',#546,#496,#544,.T.) ;
#554=EDGE_CURVE('',#546,#553,#551,.T.) ;
#559=EDGE_CURVE('',#553,#503,#558,.T.) ;
#578=EDGE_CURVE('',#577,#510,#575,.T.) ;
#585=EDGE_CURVE('',#584,#577,#582,.T.) ;
#590=EDGE_CURVE('',#584,#494,#589,.T.) ;
#607=EDGE_CURVE('',#584,#546,#606,.T.) ;
#624=EDGE_CURVE('',#577,#553,#623,.T.) ;
#65=EDGE_LOOP('',(#66,#67,#68,#69)) ;
#96=EDGE_LOOP('',(#97,#98,#99,#100)) ;
#127=EDGE_LOOP('',(#128,#129,#130,#131)) ;
#149=EDGE_LOOP('',(#150,#151,#152,#153)) ;
#189=EDGE_LOOP('',(#190,#191,#192,#193)) ;
#215=EDGE_LOOP('',(#216,#217,#218,#219)) ;
#241=EDGE_LOOP('',(#242,#243,#244,#245)) ;
#263=EDGE_LOOP('',(#264,#265,#266,#267)) ;
#303=EDGE_LOOP('',(#304,#305,#306,#307)) ;
#348=EDGE_LOOP('',(#349,#350,#351,#352,#353,#354)) ;
#395=EDGE_LOOP('',(#396,#397,#398,#399,#400,#401)) ;
#414=EDGE_LOOP('',(#415,#416,#417,#418)) ;
#420=EDGE_LOOP('',(#421,#422,#423,#424)) ;
#426=EDGE_LOOP('',(#427,#428,#429,#430)) ;
#443=EDGE_LOOP('',(#444,#445,#446,#447)) ;
#460=EDGE_LOOP('',(#461,#462,#463,#464)) ;
#477=EDGE_LOOP('',(#478,#479,#480,#481)) ;
#517=EDGE_LOOP('',(#518,#519,#520,#521)) ;
#523=EDGE_LOOP('',(#524,#525,#526,#527)) ;
#529=EDGE_LOOP('',(#530,#531,#532,#533)) ;
#560=EDGE_LOOP('',(#561,#562,#563,#564)) ;
#591=EDGE_LOOP('',(#592,#593,#594,#595)) ;
#608=EDGE_LOOP('',(#609,#610,#611,#612)) ;
#625=EDGE_LOOP('',(#626,#627,#628,#629)) ;
#637=EDGE_LOOP('',(#638,#639,#640,#641)) ;
#643=EDGE_LOOP('',(#644,#645,#646,#647)) ;
#70=FACE_OUTER_BOUND('',#65,.T.) ;
#101=FACE_OUTER_BOUND('',#96,.T.) ;
#132=FACE_OUTER_BOUND('',#127,.T.) ;
#154=FACE_OUTER_BOUND('',#149,.T.) ;
#194=FACE_OUTER_BOUND('',#189,.T.) ;
#220=FACE_OUTER_BOUND('',#215,.T.) ;
#246=FACE_OUTER_BOUND('',#241,.T.) ;
#268=FACE_OUTER_BOUND('',#263,.T.) ;
#308=FACE_OUTER_BOUND('',#303,.T.) ;
#355=FACE_OUTER_BOUND('',#348,.T.) ;
#402=FACE_OUTER_BOUND('',#395,.T.) ;
#419=FACE_OUTER_BOUND('',#414,.T.) ;
#448=FACE_OUTER_BOUND('',#443,.T.) ;
#465=FACE_OUTER_BOUND('',#460,.T.) ;
#482=FACE_OUTER_BOUND('',#477,.T.) ;
#522=FACE_OUTER_BOUND('',#517,.T.) ;
#565=FACE_OUTER_BOUND('',#560,.T.) ;
#596=FACE_OUTER_BOUND('',#591,.T.) ;
#613=FACE_OUTER_BOUND('',#608,.T.) ;
#630=FACE_OUTER_BOUND('',#625,.T.) ;
#642=FACE_OUTER_BOUND('',#637,.T.) ;
#40=LINE('Line',#37,#39) ;
#49=LINE('Line',#46,#48) ;
#56=LINE('Line',#53,#55) ;
#63=LINE('Line',#60,#62) ;
#80=LINE('Line',#77,#79) ;
#89=LINE('Line',#86,#88) ;
#94=LINE('Line',#91,#93) ;
#111=LINE('Line',#108,#110) ;
#118=LINE('Line',#115,#117) ;
#125=LINE('Line',#122,#124) ;
#142=LINE('Line',#139,#141) ;
#147=LINE('Line',#144,#146) ;
#164=LINE('Line',#161,#163) ;
#173=LINE('Line',#170,#172) ;
#180=LINE('Line',#177,#179) ;
#187=LINE('Line',#184,#186) ;
#199=LINE('Line',#196,#198) ;
#208=LINE('Line',#205,#207) ;
#213=LINE('Line',#210,#212) ;
#225=LINE('Line',#222,#224) ;
#232=LINE('Line',#229,#231) ;
#239=LINE('Line',#236,#238) ;
#256=LINE('Line',#253,#255) ;
#261=LINE('Line',#258,#260) ;
#287=LINE('Line',#284,#286) ;
#301=LINE('Line',#298,#300) ;
#327=LINE('Line',#324,#326) ;
#332=LINE('Line',#329,#331) ;
#339=LINE('Line',#336,#338) ;
#346=LINE('Line',#343,#345) ;
#374=LINE('Line',#371,#373) ;
#381=LINE('Line',#378,#380) ;
#388=LINE('Line',#385,#387) ;
#393=LINE('Line',#390,#392) ;
#412=LINE('Line',#409,#411) ;
#441=LINE('Line',#438,#440) ;
#458=LINE('Line',#455,#457) ;
#475=LINE('Line',#472,#474) ;
#492=LINE('Line',#489,#491) ;
#501=LINE('Line',#498,#500) ;
#508=LINE('Line',#505,#507) ;
#515=LINE('Line',#512,#514) ;
#544=LINE('Line',#541,#543) ;
#551=LINE('Line',#548,#550) ;
#558=LINE('Line',#555,#557) ;
#575=LINE('Line',#572,#574) ;
#582=LINE('Line',#579,#581) ;
#589=LINE('Line',#586,#588) ;
#606=LINE('Line',#603,#605) ;
#623=LINE('Line',#620,#622) ;
#36=PLANE('',#35) ;
#76=PLANE('',#75) ;
#107=PLANE('',#106) ;
#138=PLANE('',#137) ;
#160=PLANE('',#159) ;
#252=PLANE('',#251) ;
#314=PLANE('',#313) ;
#361=PLANE('',#360) ;
#408=PLANE('',#407) ;
#454=PLANE('',#453) ;
#471=PLANE('',#470) ;
#488=PLANE('',#487) ;
#540=PLANE('',#539) ;
#571=PLANE('',#570) ;
#602=PLANE('',#601) ;
#619=PLANE('',#618) ;
#636=PLANE('',#635) ;
#14=PLANE_ANGLE_MEASURE_WITH_UNIT(PLANE_ANGLE_MEASURE(0.0174532925199),#13) ;
#9=PRODUCT_CATEGORY_RELATIONSHIP(' ',' ',#7,#8) ;
#6=PRODUCT_DEFINITION_FORMATION_WITH_SPECIFIED_SOURCE('',' ',#5,.NOT_KNOWN.) ;
#21=SHAPE_DEFINITION_REPRESENTATION(#11,#20) ;
#42=VERTEX_POINT('',#41) ;
#44=VERTEX_POINT('',#43) ;
#51=VERTEX_POINT('',#50) ;
#58=VERTEX_POINT('',#57) ;
#82=VERTEX_POINT('',#81) ;
#84=VERTEX_POINT('',#83) ;
#113=VERTEX_POINT('',#112) ;
#120=VERTEX_POINT('',#119) ;
#166=VERTEX_POINT('',#165) ;
#168=VERTEX_POINT('',#167) ;
#175=VERTEX_POINT('',#174) ;
#182=VERTEX_POINT('',#181) ;
#201=VERTEX_POINT('',#200) ;
#203=VERTEX_POINT('',#202) ;
#227=VERTEX_POINT('',#226) ;
#234=VERTEX_POINT('',#233) ;
#280=VERTEX_POINT('',#279) ;
#282=VERTEX_POINT('',#281) ;
#289=VERTEX_POINT('',#288) ;
#296=VERTEX_POINT('',#295) ;
#320=VERTEX_POINT('',#319) ;
#322=VERTEX_POINT('',#321) ;
#334=VERTEX_POINT('',#333) ;
#341=VERTEX_POINT('',#340) ;
#367=VERTEX_POINT('',#366) ;
#369=VERTEX_POINT('',#368) ;
#376=VERTEX_POINT('',#375) ;
#383=VERTEX_POINT('',#382) ;
#494=VERTEX_POINT('',#493) ;
#496=VERTEX_POINT('',#495) ;
#503=VERTEX_POINT('',#502) ;
#510=VERTEX_POINT('',#509) ;
#546=VERTEX_POINT('',#545) ;
#553=VERTEX_POINT('',#552) ;
#577=VERTEX_POINT('',#576) ;
#584=VERTEX_POINT('',#583) ;
#12=(LENGTH_UNIT()NAMED_UNIT(*)SI_UNIT(.MILLI.,.METRE.)) ;
#13=(NAMED_UNIT(*)PLANE_ANGLE_UNIT()SI_UNIT($,.RADIAN.)) ;
#15=(NAMED_UNIT(*)SI_UNIT($,.STERADIAN.)SOLID_ANGLE_UNIT()) ;
#17=(GEOMETRIC_REPRESENTATION_CONTEXT(3)GLOBAL_UNCERTAINTY_ASSIGNED_CONTEXT((#16))GLOBAL_UNIT_ASSIGNED_CONTEXT((#12,#13,#15))REPRESENTATION_CONTEXT(' ',' ')) ;
ENDSEC;
END-ISO-10303-21;
