  0
SECTION
  2
HEADER
  9
$ACADVER
  1
AC1024
  9
$ACADMAINTVER
 70
    63
  9
$DWGCODEPAGE
  3
ANSI_1252
  9
$LASTSAVEDBY
  1
SEVIAND4
  9
$INSBASE
 10
0.0
 20
0.0
 30
0.0
  9
$EXTMIN
 10
5.205066
 20
305.3671059000994
 30
-0.0000000000000025
  9
$EXTMAX
 10
1584.522357
 20
1242.428194
 30
0.0
  9
$LIMMIN
 10
-0.5
 20
-0.5
  9
$LIMMAX
 10
5.0
 20
5.0
  9
$ORTHOMODE
 70
     0
  9
$REGENMODE
 70
     1
  9
$FILLMODE
 70
     1
  9
$QTEXTMODE
 70
     0
  9
$MIRRTEXT
 70
     1
  9
$LTSCALE
 40
1.0
  9
$ATTMODE
 70
     1
  9
$TEXTSIZE
 40
0.2
  9
$TRACEWID
 40
0.05
  9
$TEXTSTYLE
  7
Standard
  9
$CLAYER
  8
0
  9
$CELTYPE
  6
BYLAYER
  9
$CECOLOR
 62
   256
  9
$CELTSCALE
 40
1.0
  9
$DISPSILH
 70
     0
  9
$DIMSCALE
 40
1.0
  9
$DIMASZ
 40
0.18
  9
$DIMEXO
 40
0.0625
  9
$DIMDLI
 40
0.38
  9
$DIMRND
 40
0.0
  9
$DIMDLE
 40
0.0
  9
$DIMEXE
 40
0.18
  9
$DIMTP
 40
0.0
  9
$DIMTM
 40
0.0
  9
$DIMTXT
 40
0.18
  9
$DIMCEN
 40
0.09
  9
$DIMTSZ
 40
0.0
  9
$DIMTOL
 70
     0
  9
$DIMLIM
 70
     0
  9
$DIMTIH
 70
     1
  9
$DIMTOH
 70
     1
  9
$DIMSE1
 70
     0
  9
$DIMSE2
 70
     0
  9
$DIMTAD
 70
     0
  9
$DIMZIN
 70
     0
  9
$DIMBLK
  1

  9
$DIMASO
 70
     1
  9
$DIMSHO
 70
     1
  9
$DIMPOST
  1

  9
$DIMAPOST
  1

  9
$DIMALT
 70
     0
  9
$DIMALTD
 70
     2
  9
$DIMALTF
 40
25.4
  9
$DIMLFAC
 40
1.0
  9
$DIMTOFL
 70
     0
  9
$DIMTVP
 40
0.0
  9
$DIMTIX
 70
     0
  9
$DIMSOXD
 70
     0
  9
$DIMSAH
 70
     0
  9
$DIMBLK1
  1

  9
$DIMBLK2
  1

  9
$DIMSTYLE
  2
Standard
  9
$DIMCLRD
 70
     0
  9
$DIMCLRE
 70
     0
  9
$DIMCLRT
 70
     0
  9
$DIMTFAC
 40
1.0
  9
$DIMGAP
 40
0.09
  9
$DIMJUST
 70
     0
  9
$DIMSD1
 70
     0
  9
$DIMSD2
 70
     0
  9
$DIMTOLJ
 70
     1
  9
$DIMTZIN
 70
     0
  9
$DIMALTZ
 70
     0
  9
$DIMALTTZ
 70
     0
  9
$DIMUPT
 70
     0
  9
$DIMDEC
 70
     4
  9
$DIMTDEC
 70
     4
  9
$DIMALTU
 70
     2
  9
$DIMALTTD
 70
     2
  9
$DIMTXSTY
  7
Standard
  9
$DIMAUNIT
 70
     0
  9
$DIMADEC
 70
     0
  9
$DIMALTRND
 40
0.0
  9
$DIMAZIN
 70
     0
  9
$DIMDSEP
 70
    46
  9
$DIMATFIT
 70
     3
  9
$DIMFRAC
 70
     0
  9
$DIMLDRBLK
  1

  9
$DIMLUNIT
 70
     2
  9
$DIMLWD
 70
    -2
  9
$DIMLWE
 70
    -2
  9
$DIMTMOVE
 70
     0
  9
$DIMFXL
 40
1.0
  9
$DIMFXLON
 70
     0
  9
$DIMJOGANG
 40
0.7853981633974483
  9
$DIMTFILL
 70
     0
  9
$DIMTFILLCLR
 70
     0
  9
$DIMARCSYM
 70
     0
  9
$DIMLTYPE
  6

  9
$DIMLTEX1
  6

  9
$DIMLTEX2
  6

  9
$DIMTXTDIRECTION
 70
     0
  9
$LUNITS
 70
     2
  9
$LUPREC
 70
     2
  9
$SKETCHINC
 40
0.1
  9
$FILLETRAD
 40
0.5
  9
$AUNITS
 70
     0
  9
$AUPREC
 70
     0
  9
$MENU
  1
.
  9
$ELEVATION
 40
0.0
  9
$PELEVATION
 40
0.0
  9
$THICKNESS
 40
0.0
  9
$LIMCHECK
 70
     0
  9
$CHAMFERA
 40
0.5
  9
$CHAMFERB
 40
0.5
  9
$CHAMFERC
 40
1.0
  9
$CHAMFERD
 40
0.0
  9
$SKPOLY
 70
     0
  9
$TDCREATE
 40
2456836.647289271
  9
$TDUCREATE
 40
2456836.563955938
  9
$TDUPDATE
 40
2456836.648429074
  9
$TDUUPDATE
 40
2456836.565095741
  9
$TDINDWG
 40
0.0010876852
  9
$TDUSRTIMER
 40
0.0010876852
  9
$USRTIMER
 70
     1
  9
$ANGBASE
 50
0.0
  9
$ANGDIR
 70
     0
  9
$PDMODE
 70
     0
  9
$PDSIZE
 40
0.0
  9
$PLINEWID
 40
0.0
  9
$SPLFRAME
 70
     0
  9
$SPLINETYPE
 70
     6
  9
$SPLINESEGS
 70
     8
  9
$HANDSEED
  5
440
  9
$SURFTAB1
 70
     6
  9
$SURFTAB2
 70
     6
  9
$SURFTYPE
 70
     6
  9
$SURFU
 70
     6
  9
$SURFV
 70
     6
  9
$UCSBASE
  2

  9
$UCSNAME
  2

  9
$UCSORG
 10
0.0
 20
0.0
 30
0.0
  9
$UCSXDIR
 10
1.0
 20
0.0
 30
0.0
  9
$UCSYDIR
 10
0.0
 20
1.0
 30
0.0
  9
$UCSORTHOREF
  2

  9
$UCSORTHOVIEW
 70
     0
  9
$UCSORGTOP
 10
0.0
 20
0.0
 30
0.0
  9
$UCSORGBOTTOM
 10
0.0
 20
0.0
 30
0.0
  9
$UCSORGLEFT
 10
0.0
 20
0.0
 30
0.0
  9
$UCSORGRIGHT
 10
0.0
 20
0.0
 30
0.0
  9
$UCSORGFRONT
 10
0.0
 20
0.0
 30
0.0
  9
$UCSORGBACK
 10
0.0
 20
0.0
 30
0.0
  9
$PUCSBASE
  2

  9
$PUCSNAME
  2

  9
$PUCSORG
 10
0.0
 20
0.0
 30
0.0
  9
$PUCSXDIR
 10
1.0
 20
0.0
 30
0.0
  9
$PUCSYDIR
 10
0.0
 20
1.0
 30
0.0
  9
$PUCSORTHOREF
  2

  9
$PUCSORTHOVIEW
 70
     0
  9
$PUCSORGTOP
 10
0.0
 20
0.0
 30
0.0
  9
$PUCSORGBOTTOM
 10
0.0
 20
0.0
 30
0.0
  9
$PUCSORGLEFT
 10
0.0
 20
0.0
 30
0.0
  9
$PUCSORGRIGHT
 10
0.0
 20
0.0
 30
0.0
  9
$PUCSORGFRONT
 10
0.0
 20
0.0
 30
0.0
  9
$PUCSORGBACK
 10
0.0
 20
0.0
 30
0.0
  9
$USERI1
 70
     0
  9
$USERI2
 70
     0
  9
$USERI3
 70
     0
  9
$USERI4
 70
     0
  9
$USERI5
 70
     0
  9
$USERR1
 40
0.0
  9
$USERR2
 40
0.0
  9
$USERR3
 40
0.0
  9
$USERR4
 40
0.0
  9
$USERR5
 40
0.0
  9
$WORLDVIEW
 70
     1
  9
$SHADEDGE
 70
     3
  9
$SHADEDIF
 70
    70
  9
$TILEMODE
 70
     1
  9
$MAXACTVP
 70
    64
  9
$PINSBASE
 10
0.0
 20
0.0
 30
0.0
  9
$PLIMCHECK
 70
     0
  9
$PEXTMIN
 10
-0.5
 20
-0.5
 30
-0.5
  9
$PEXTMAX
 10
5.0
 20
5.0
 30
5.0
  9
$PLIMMIN
 10
-0.5
 20
-0.5
  9
$PLIMMAX
 10
5.0
 20
5.0
  9
$UNITMODE
 70
     0
  9
$VISRETAIN
 70
     1
  9
$PLINEGEN
 70
     0
  9
$PSLTSCALE
 70
     1
  9
$TREEDEPTH
 70
  3020
  9
$CMLSTYLE
  2
Standard
  9
$CMLJUST
 70
     0
  9
$CMLSCALE
 40
1.0
  9
$PROXYGRAPHICS
 70
     1
  9
$MEASUREMENT
 70
     1
  9
$CELWEIGHT
370
    -1
  9
$ENDCAPS
280
     0
  9
$JOINSTYLE
280
     0
  9
$LWDISPLAY
290
     1
  9
$INSUNITS
 70
     4
  9
$HYPERLINKBASE
  1

  9
$STYLESHEET
  1

  9
$XEDIT
290
     1
  9
$CEPSNTYPE
380
     0
  9
$PSTYLEMODE
290
     1
  9
$FINGERPRINTGUID
  2
{F0686E1A-6B3C-4926-A28A-B38A1288705A}
  9
$VERSIONGUID
  2
{25479F8E-A1C4-442E-8E10-7BE394258467}
  9
$EXTNAMES
290
     1
  9
$PSVPSCALE
 40
0.0
  9
$OLESTARTUP
290
     0
  9
$SORTENTS
280
   127
  9
$INDEXCTL
280
     0
  9
$HIDETEXT
280
     1
  9
$XCLIPFRAME
280
     0
  9
$HALOGAP
280
     0
  9
$OBSCOLOR
 70
   257
  9
$OBSLTYPE
280
     0
  9
$INTERSECTIONDISPLAY
280
     0
  9
$INTERSECTIONCOLOR
 70
   257
  9
$DIMASSOC
280
     2
  9
$PROJECTNAME
  1

  9
$CAMERADISPLAY
290
     0
  9
$LENSLENGTH
 40
50.0
  9
$CAMERAHEIGHT
 40
0.0
  9
$STEPSPERSEC
 40
2.0
  9
$STEPSIZE
 40
6.0
  9
$3DDWFPREC
 40
2.0
  9
$PSOLWIDTH
 40
0.25
  9
$PSOLHEIGHT
 40
4.0
  9
$LOFTANG1
 40
1.570796326794896
  9
$LOFTANG2
 40
1.570796326794896
  9
$LOFTMAG1
 40
0.0
  9
$LOFTMAG2
 40
0.0
  9
$LOFTPARAM
 70
     7
  9
$LOFTNORMALS
280
     1
  9
$LATITUDE
 40
37.795
  9
$LONGITUDE
 40
-122.394
  9
$NORTHDIRECTION
 40
0.0
  9
$TIMEZONE
 70
 -8000
  9
$LIGHTGLYPHDISPLAY
280
     1
  9
$TILEMODELIGHTSYNCH
280
     1
  9
$CMATERIAL
347
3C
  9
$SOLIDHIST
280
     0
  9
$SHOWHIST
280
     1
  9
$DWFFRAME
280
     2
  9
$DGNFRAME
280
     0
  9
$REALWORLDSCALE
290
     1
  9
$INTERFERECOLOR
 62
     1
  9
$INTERFEREOBJVS
345
33
  9
$INTERFEREVPVS
346
234
  9
$CSHADOW
280
     0
  9
$SHADOWPLANELOCATION
 40
0.0
  0
ENDSEC
  0
SECTION
  2
CLASSES
  0
CLASS
  1
ACDBDICTIONARYWDFLT
  2
AcDbDictionaryWithDefault
  3
ObjectDBX Classes
 90
        0
 91
        1
280
     0
281
     0
  0
CLASS
  1
VISUALSTYLE
  2
AcDbVisualStyle
  3
ObjectDBX Classes
 90
     4095
 91
       26
280
     0
281
     0
  0
CLASS
  1
MATERIAL
  2
AcDbMaterial
  3
ObjectDBX Classes
 90
     1153
 91
        3
280
     0
281
     0
  0
CLASS
  1
TABLESTYLE
  2
AcDbTableStyle
  3
ObjectDBX Classes
 90
     4095
 91
        1
280
     0
281
     0
  0
CLASS
  1
SCALE
  2
AcDbScale
  3
ObjectDBX Classes
 90
     1153
 91
       17
280
     0
281
     0
  0
CLASS
  1
MLEADERSTYLE
  2
AcDbMLeaderStyle
  3
ACDB_MLEADERSTYLE_CLASS
 90
     4095
 91
        1
280
     0
281
     0
  0
CLASS
  1
AMGSETTINGSOBJ
  2
AmgSettingsObj
  3
"AcadM|Product Description: AutoCAD Mechanical|Company: Autodesk, Inc."
 90
     1024
 91
        2
280
     0
281
     0
  0
CLASS
  1
ACME_DOCUMENT
  2
AcMeDbDoc
  3
AcMeServices
 90
     1024
 91
        1
280
     0
281
     0
  0
CLASS
  1
ACMESCOPE
  2
AcMeScope
  3
AcMeServices
 90
     1024
 91
        1
280
     0
281
     0
  0
CLASS
  1
ACMECOMMANDHISTORY
  2
AcMeCommandHistory
  3
AcMeServices
 90
     1024
 91
        1
280
     0
281
     0
  0
CLASS
  1
ACIMSYSVARMAN
  2
AcImSysVarManager
  3
AcMeServices
 90
     1024
 91
        3
280
     0
281
     0
  0
CLASS
  1
ACIMINTSYSVAR
  2
AcImIntSysVar
  3
AcMeServices
 90
     1024
 91
        2
280
     0
281
     0
  0
CLASS
  1
ACMESTATEMGR
  2
AcMeStateMgr
  3
AcMeServices
 90
     1024
 91
        1
280
     0
281
     0
  0
CLASS
  1
ACDBENTITYCACHE
  2
AcMeEntityCache
  3
AcMeServices
 90
     1024
 91
        1
280
     0
281
     0
  0
CLASS
  1
ACGREFMASTER
  2
AcGrefMaster
  3
AcAttribServices
 90
     1024
 91
        1
280
     0
281
     0
  0
CLASS
  1
ACME_DATABASE
  2
AcMeDbDatabase
  3
AcMeServices
 90
     1024
 91
        4
280
     0
281
     0
  0
CLASS
  1
ACRFINSADJUSTERMGR
  2
AcRfInsAdjusterMgr
  3
AcMeServices
 90
     1024
 91
        1
280
     0
281
     0
  0
CLASS
  1
ACGREFACADMASTER
  2
AcGrefacadMaster
  3
AcGrefServices
 90
     1024
 91
        1
280
     0
281
     0
  0
CLASS
  1
AMDTMENUSTATEMGR
  2
AmdtMenuStateMgr
  3
McadcomServices
 90
     1024
 91
        1
280
     0
281
     0
  0
CLASS
  1
AMDTMCOMMENUSTATE
  2
AmdtMcomMenuState
  3
McadcomServices
 90
     1024
 91
        1
280
     0
281
     0
  0
CLASS
  1
AMIMASTER
  2
AmiMaster
  3
AmiServices
 90
     1024
 91
        1
280
     0
281
     0
  0
CLASS
  1
MAPIAMMOUDLE
  2
MApiAmModule
  3
MApiAmServices
 90
     1024
 91
        1
280
     0
281
     0
  0
CLASS
  1
ACIMSTRSYSVAR
  2
AcImStrSysVar
  3
AcMeServices
 90
     1024
 91
        5
280
     0
281
     0
  0
CLASS
  1
AMDTAMMENUSTATE
  2
AmdtAmMenuState
  3
DesignerAssemblies
 90
     1024
 91
        1
280
     0
281
     0
  0
CLASS
  1
ACAMPROJECT
  2
AcAmProject
  3
DesignerAssemblies
 90
     1024
 91
        1
280
     0
281
     0
  0
CLASS
  1
ACAMGRCOMPDEF
  2
AcAmGrCompDef
  3
DesignerAssemblies
 90
     1024
 91
        1
280
     0
281
     0
  0
CLASS
  1
ACAMCOMPDEF
  2
AcAmCompDef
  3
DesignerAssemblies
 90
     1024
 91
        1
280
     0
281
     0
  0
CLASS
  1
ACAMCOMPDEFMGR
  2
AcAmCompDefMgr
  3
DesignerAssemblies
 90
     1024
 91
        1
280
     0
281
     0
  0
CLASS
  1
AMCONTEXTMGR
  2
AcAmContextMgr
  3
DesignerAssemblies
 90
     1024
 91
        1
280
     0
281
     0
  0
CLASS
  1
ACAMCONTEXTMODELER
  2
AcAmContextModeler
  3
DesignerAssemblies
 90
     1024
 91
        1
280
     0
281
     0
  0
CLASS
  1
ACMDATADICTIONARY
  2
AcmDataDictionary
  3
"AcmSymBB|Product Description: AutoCAD Mechanical|Company: Autodesk, Inc."
 90
     1024
 91
        1
280
     0
281
     0
  0
CLASS
  1
ACAMGRCOMPDEFSET
  2
AcAmGrCompDefSet
  3
DesignerAssemblies
 90
     1024
 91
        1
280
     0
281
     0
  0
CLASS
  1
AMDTBROWSERDBTAB
  2
AmdtBrowserDbTab
  3
McadcomServices
 90
     1024
 91
        1
280
     0
281
     0
  0
CLASS
  1
CBROWSERAPPOBJECT
  2
CBrowserAppObject
  3
McadcomServices
 90
     1024
 91
        2
280
     0
281
     0
  0
CLASS
  1
DM_PLACEHOLDER
  2
AcDmSelsetPlaceholder
  3
McadcomServices
 90
     1024
 91
        1
280
     0
281
     0
  0
CLASS
  1
ACMSTANDARDISO
  2
AcmStandardISO
  3
"Amdt_StdImp|Product Description: AutoCAD Mechanical|Company: Autodesk, Inc."
 90
     1024
 91
        1
280
     0
281
     0
  0
CLASS
  1
AMDTEDGESTANDARDISO13715
  2
AmdtEdgeStdISO13715
  3
"Amdt_StdImp|Product Description: AutoCAD Mechanical|Company: Autodesk, Inc."
 90
     1024
 91
        1
280
     0
281
     0
  0
CLASS
  1
ACMSURFSTANDARDISO2002
  2
AcmSurfTextStdISO2002
  3
"Amdt_StdImp|Product Description: AutoCAD Mechanical|Company: Autodesk, Inc."
 90
     1024
 91
        1
280
     0
281
     0
  0
CLASS
  1
ACMFCFSTANDARDISO2004
  2
AcmFCFStdISO2004
  3
"Amdt_StdImp|Product Description: AutoCAD Mechanical|Company: Autodesk, Inc."
 90
     1024
 91
        1
280
     0
281
     0
  0
CLASS
  1
ACMWELDSTANDARDISO
  2
AcmWeldingStdISO
  3
"Amdt_StdImp|Product Description: AutoCAD Mechanical|Company: Autodesk, Inc."
 90
     1024
 91
        1
280
     0
281
     0
  0
CLASS
  1
ACMIDSTANDARDISO2004
  2
AcmIdStdISO2004
  3
"Amdt_StdImp|Product Description: AutoCAD Mechanical|Company: Autodesk, Inc."
 90
     1024
 91
        1
280
     0
281
     0
  0
CLASS
  1
ACMDATUMSTANDARDISO
  2
AcmDatumStdISO
  3
"Amdt_StdImp|Product Description: AutoCAD Mechanical|Company: Autodesk, Inc."
 90
     1024
 91
        1
280
     0
281
     0
  0
CLASS
  1
ACMBOMSTANDARDISO
  2
AcmBOMStdISO
  3
"Amdt_StdImp|Product Description: AutoCAD Mechanical|Company: Autodesk, Inc."
 90
     1024
 91
        1
280
     0
281
     0
  0
CLASS
  1
ACMDETAILSTANDARDISO
  2
AmdtDetailSymStdISO
  3
"Amdt_StdImp|Product Description: AutoCAD Mechanical|Company: Autodesk, Inc."
 90
     1024
 91
        1
280
     0
281
     0
  0
CLASS
  1
ACMSECTIONSTANDARDISO2001
  2
AmdtSectionSymStdISO2001
  3
"Amdt_StdImp|Product Description: AutoCAD Mechanical|Company: Autodesk, Inc."
 90
     1024
 91
        1
280
     0
281
     0
  0
CLASS
  1
ACMCENTERLINESTANDARDISO
  2
AmdtCenterLineStdISO
  3
"Amdt_StdImp|Product Description: AutoCAD Mechanical|Company: Autodesk, Inc."
 90
     1024
 91
        1
280
     0
281
     0
  0
CLASS
  1
ACMTHREADLINESTANDARDISO
  2
AmdtThreadLineStdISO
  3
"Amdt_StdImp|Product Description: AutoCAD Mechanical|Company: Autodesk, Inc."
 90
     1024
 91
        1
280
     0
281
     0
  0
CLASS
  1
ACMNOTESTANDARDISO
  2
AmdtNoteStdISO
  3
"Amdt_StdImp|Product Description: AutoCAD Mechanical|Company: Autodesk, Inc."
 90
     1024
 91
        1
280
     0
281
     0
  0
CLASS
  1
ACMTAPERSTANDARDISO
  2
AcmTaperStdISO
  3
"Amdt_StdImp|Product Description: AutoCAD Mechanical|Company: Autodesk, Inc."
 90
     1024
 91
        1
280
     0
281
     0
  0
CLASS
  1
ACMANOOTATIONVIEWSTANDARDISO
  2
AmdtAnViewStdISO
  3
"Amdt_StdImp|Product Description: AutoCAD Mechanical|Company: Autodesk, Inc."
 90
     1024
 91
        1
280
     0
281
     0
  0
CLASS
  1
ACAMGLAYSTD
  2
AcAmgLayStd
  3
"AmgLay|Product Description: AutoCAD Mechanical|Company: Autodesk, Inc."
 90
     1024
 91
        1
280
     0
281
     0
  0
CLASS
  1
ACAMGDIMSTD
  2
AcAmgDimStd
  3
"AmgDim|Product Description: AutoCAD Mechanical|Company: Autodesk, Inc."
 90
     1024
 91
        1
280
     0
281
     0
  0
CLASS
  1
AMGOBJPROPCFG
  2
AmgObjPropCfg
  3
"AmgLay|Product Description: AutoCAD Mechanical|Company: Autodesk, Inc."
 90
     1025
 91
        1
280
     0
281
     0
  0
CLASS
  1
ACAMGHOLECHARTSTDISO
  2
AcAmgHoleChartStdISO
  3
AmgDim|Product Description: AutoCAD Mechanical|Company: Autodesk, Inc.
 90
     1024
 91
        1
280
     0
281
     0
  0
CLASS
  1
ACAMGTITLESTD
  2
AcAmgTitleStd
  3
"AmgTitle|Product Description: AutoCAD Mechanical|Company: Autodesk, Inc."
 90
     4095
 91
        1
280
     0
281
     0
  0
CLASS
  1
AMDTNOTETEMPLATEDB
  2
AmdtNoteTemplateDB
  3
AcmSymBB|Product Description: AutoCAD Mechanical|Company: Autodesk, Inc.
 90
     1024
 91
        6
280
     0
281
     0
  0
CLASS
  1
ACAMGFILTERDAT
  2
AcAmgFilterDat
  3
"AcadM|Product Description: AutoCAD Mechanical|Company: Autodesk, Inc."
 90
     1024
 91
        6
280
     0
281
     0
  0
CLASS
  1
DICTIONARYVAR
  2
AcDbDictionaryVar
  3
ObjectDBX Classes
 90
        0
 91
        7
280
     0
281
     0
  0
CLASS
  1
CELLSTYLEMAP
  2
AcDbCellStyleMap
  3
ObjectDBX Classes
 90
     1152
 91
        1
280
     0
281
     0
  0
ENDSEC
  0
SECTION
  2
TABLES
  0
TABLE
  2
VPORT
  5
8
330
0
100
AcDbSymbolTable
 70
    17
  0
VPORT
  5
29
330
8
100
AcDbSymbolTableRecord
100
AcDbViewportTableRecord
  2
DUMMY
 70
     0
 10
0.0
 20
0.0
 11
1.0
 21
1.0
 12
10.429907
 22
4.5
 13
0.0
 23
0.0
 14
0.5
 24
0.5
 15
0.5
 25
0.5
 16
0.0
 26
0.0
 36
1.0
 17
0.0
 27
0.0
 37
0.0
 40
9.0
 41
1.972972999999999
 42
50.0
 43
0.0
 44
0.0
 50
0.0
 51
0.0
 71
     0
 72
   100
 73
     1
 74
     3
 75
     0
 76
     0
 77
     0
 78
     0
281
     0
 65
     1
110
0.0
120
0.0
130
0.0
111
1.0
121
0.0
131
0.0
112
0.0
122
1.0
132
0.0
 79
     0
146
0.0
348
2F
 60
     3
 61
     5
292
     1
282
     1
141
0.0
142
0.0
 63
   250
421
  3355443
  0
VPORT
  5
1FA
330
8
100
AcDbSymbolTableRecord
100
AcDbViewportTableRecord
  2
*ACTIVE
 70
     0
 10
0.0
 20
0.0
 11
1.0
 21
1.0
 12
907.6864238730916
 22
617.9598941793085
 13
0.0
 23
0.0
 14
0.5
 24
0.5
 15
0.5
 25
0.5
 16
0.0
 26
0.0
 36
1.0
 17
0.0
 27
0.0
 37
0.0
 40
1876.344003400553
 41
1.751648351648351
 42
50.0
 43
2816.767571000001
 44
-2816.767571000001
 50
0.0
 51
0.0
 71
     0
 72
   100
 73
     1
 74
     3
 75
     0
 76
     0
 77
     0
 78
     0
281
     0
 65
     0
110
0.0
120
0.0
130
0.0
111
1.0
121
0.0
131
0.0
112
0.0
122
1.0
132
0.0
 79
     0
146
0.0
348
2F
 60
     3
 61
     5
292
     1
282
     1
141
0.0
142
0.0
 63
   250
421
  3355443
1001
ACAD_NAV_VCDISPLAY
1070
     3
  0
VPORT
  5
1FB
330
8
100
AcDbSymbolTableRecord
100
AcDbViewportTableRecord
  2
L1
 70
     0
 10
0.0
 20
0.0
 11
1.0
 21
1.0
 12
794.863711
 22
823.9749450000001
 13
0.0
 23
0.0
 14
0.5
 24
0.5
 15
0.5
 25
0.5
 16
0.0
 26
0.0
 36
1.0
 17
0.0
 27
0.0
 37
0.0
 40
240.241667
 41
0.073912
 42
50.0
 43
2816.767571000001
 44
-2816.767571000001
 50
0.0
 51
0.0
 71
     0
 72
   100
 73
     1
 74
     3
 75
     0
 76
     0
 77
     0
 78
     0
281
     0
 65
     1
110
0.0
120
0.0
130
0.0
111
1.0
121
0.0
131
0.0
112
0.0
122
1.0
132
0.0
 79
     0
146
0.0
348
2F
 60
     3
 61
     5
292
     1
282
     1
141
0.0
142
0.0
 63
   250
421
  3355443
  0
VPORT
  5
1FC
330
8
100
AcDbSymbolTableRecord
100
AcDbViewportTableRecord
  2
L2
 70
     0
 10
0.0
 20
0.0
 11
0.5
 21
1.0
 12
0.0
 22
0.0
 13
0.0
 23
0.0
 14
0.5
 24
0.5
 15
0.5
 25
0.5
 16
0.0
 26
-1.0
 36
0.0
 17
0.0
 27
0.0
 37
0.0
 40
1510.242408
 41
0.011758
 42
50.0
 43
777.628737
 44
-777.628737
 50
0.0
 51
0.0
 71
     0
 72
   100
 73
     1
 74
     3
 75
     0
 76
     0
 77
     0
 78
     0
281
     0
 65
     1
110
0.0
120
0.0
130
0.0
111
1.0
121
0.0
131
0.0
112
0.0
122
1.0
132
0.0
 79
     0
146
0.0
348
2F
 60
     3
 61
     5
292
     1
282
     1
141
0.0
142
0.0
 63
   250
421
  3355443
  0
VPORT
  5
1FD
330
8
100
AcDbSymbolTableRecord
100
AcDbViewportTableRecord
  2
L2
 70
     0
 10
0.5
 20
0.0
 11
1.0
 21
1.0
 12
0.0
 22
0.0
 13
0.0
 23
0.0
 14
0.5
 24
0.5
 15
0.5
 25
0.5
 16
1.0
 26
0.0
 36
0.0
 17
0.0
 27
0.0
 37
0.0
 40
1510.242408
 41
0.011758
 42
50.0
 43
764.615621
 44
-764.615621
 50
0.0
 51
0.0
 71
     0
 72
   100
 73
     1
 74
     3
 75
     0
 76
     0
 77
     0
 78
     0
281
     0
 65
     1
110
0.0
120
0.0
130
0.0
111
1.0
121
0.0
131
0.0
112
0.0
122
1.0
132
0.0
 79
     0
146
0.0
348
2F
 60
     3
 61
     5
292
     1
282
     1
141
0.0
142
0.0
 63
   250
421
  3355443
  0
VPORT
  5
1FE
330
8
100
AcDbSymbolTableRecord
100
AcDbViewportTableRecord
  2
L3
 70
     0
 10
0.0
 20
0.5
 11
1.0
 21
1.0
 12
794.863711
 22
823.9749450000001
 13
0.0
 23
0.0
 14
0.5
 24
0.5
 15
0.5
 25
0.5
 16
0.0
 26
0.0
 36
1.0
 17
0.0
 27
0.0
 37
0.0
 40
240.241667
 41
0.073912
 42
50.0
 43
2816.767571000001
 44
-2816.767571000001
 50
0.0
 51
0.0
 71
     0
 72
   100
 73
     1
 74
     3
 75
     0
 76
     0
 77
     0
 78
     0
281
     0
 65
     1
110
0.0
120
0.0
130
0.0
111
1.0
121
0.0
131
0.0
112
0.0
122
1.0
132
0.0
 79
     0
146
0.0
348
2F
 60
     3
 61
     5
292
     1
282
     1
141
0.0
142
0.0
 63
   250
421
  3355443
  0
VPORT
  5
1FF
330
8
100
AcDbSymbolTableRecord
100
AcDbViewportTableRecord
  2
L3
 70
     0
 10
0.0
 20
0.0
 11
1.0
 21
0.5
 12
0.0
 22
0.0
 13
0.0
 23
0.0
 14
0.5
 24
0.5
 15
0.5
 25
0.5
 16
0.0
 26
-1.0
 36
0.0
 17
0.0
 27
0.0
 37
0.0
 40
1510.242408
 41
0.011758
 42
50.0
 43
777.628737
 44
-777.628737
 50
0.0
 51
0.0
 71
     0
 72
   100
 73
     1
 74
     3
 75
     0
 76
     0
 77
     0
 78
     0
281
     0
 65
     1
110
0.0
120
0.0
130
0.0
111
1.0
121
0.0
131
0.0
112
0.0
122
1.0
132
0.0
 79
     0
146
0.0
348
2F
 60
     3
 61
     5
292
     1
282
     1
141
0.0
142
0.0
 63
   250
421
  3355443
  0
VPORT
  5
200
330
8
100
AcDbSymbolTableRecord
100
AcDbViewportTableRecord
  2
L4
 70
     0
 10
0.0
 20
0.5
 11
0.5
 21
1.0
 12
794.863711
 22
823.9749450000001
 13
0.0
 23
0.0
 14
0.5
 24
0.5
 15
0.5
 25
0.5
 16
0.0
 26
0.0
 36
1.0
 17
0.0
 27
0.0
 37
0.0
 40
240.241667
 41
0.073912
 42
50.0
 43
2816.767571000001
 44
-2816.767571000001
 50
0.0
 51
0.0
 71
     0
 72
   100
 73
     1
 74
     3
 75
     0
 76
     0
 77
     0
 78
     0
281
     0
 65
     1
110
0.0
120
0.0
130
0.0
111
1.0
121
0.0
131
0.0
112
0.0
122
1.0
132
0.0
 79
     0
146
0.0
348
2F
 60
     3
 61
     5
292
     1
282
     1
141
0.0
142
0.0
 63
   250
421
  3355443
  0
VPORT
  5
201
330
8
100
AcDbSymbolTableRecord
100
AcDbViewportTableRecord
  2
L4
 70
     0
 10
0.0
 20
0.0
 11
0.5
 21
0.5
 12
0.0
 22
0.0
 13
0.0
 23
0.0
 14
0.5
 24
0.5
 15
0.5
 25
0.5
 16
0.0
 26
-1.0
 36
0.0
 17
0.0
 27
0.0
 37
0.0
 40
1510.242408
 41
0.011758
 42
50.0
 43
777.628737
 44
-777.628737
 50
0.0
 51
0.0
 71
     0
 72
   100
 73
     1
 74
     3
 75
     0
 76
     0
 77
     0
 78
     0
281
     0
 65
     1
110
0.0
120
0.0
130
0.0
111
1.0
121
0.0
131
0.0
112
0.0
122
1.0
132
0.0
 79
     0
146
0.0
348
2F
 60
     3
 61
     5
292
     1
282
     1
141
0.0
142
0.0
 63
   250
421
  3355443
  0
VPORT
  5
202
330
8
100
AcDbSymbolTableRecord
100
AcDbViewportTableRecord
  2
L4
 70
     0
 10
0.5
 20
0.0
 11
1.0
 21
0.5
 12
0.0
 22
0.0
 13
0.0
 23
0.0
 14
0.5
 24
0.5
 15
0.5
 25
0.5
 16
1.0
 26
0.0
 36
0.0
 17
0.0
 27
0.0
 37
0.0
 40
1510.242408
 41
0.011758
 42
50.0
 43
764.615621
 44
-764.615621
 50
0.0
 51
0.0
 71
     0
 72
   100
 73
     1
 74
     3
 75
     0
 76
     0
 77
     0
 78
     0
281
     0
 65
     1
110
0.0
120
0.0
130
0.0
111
1.0
121
0.0
131
0.0
112
0.0
122
1.0
132
0.0
 79
     0
146
0.0
348
2F
 60
     3
 61
     5
292
     1
282
     1
141
0.0
142
0.0
 63
   250
421
  3355443
  0
VPORT
  5
203
330
8
100
AcDbSymbolTableRecord
100
AcDbViewportTableRecord
  2
L4
 70
     0
 10
0.5
 20
0.5
 11
1.0
 21
1.0
 12
0.0
 22
0.0
 13
0.0
 23
0.0
 14
0.5
 24
0.5
 15
0.5
 25
0.5
 16
0.5773502691896259
 26
-0.5773502691896259
 36
0.5773502691896259
 17
0.0
 27
0.0
 37
0.0
 40
1482.840046
 41
0.011975
 42
50.0
 43
772.3200829999999
 44
-772.3200829999999
 50
0.0
 51
0.0
 71
     0
 72
   100
 73
     1
 74
     3
 75
     0
 76
     0
 77
     0
 78
     0
281
     0
 65
     1
110
0.0
120
0.0
130
0.0
111
1.0
121
0.0
131
0.0
112
0.0
122
1.0
132
0.0
 79
     0
146
0.0
348
2F
 60
     3
 61
     5
292
     1
282
     1
141
0.0
142
0.0
 63
   250
421
  3355443
  0
VPORT
  5
204
330
8
100
AcDbSymbolTableRecord
100
AcDbViewportTableRecord
  2
L6
 70
     0
 10
0.0
 20
0.5
 11
0.333333
 21
1.0
 12
0.0
 22
0.0
 13
0.0
 23
0.0
 14
0.5
 24
0.5
 15
0.5
 25
0.5
 16
0.7188730927569434
 26
-0.5850486126764433
 36
0.3754192287502549
 17
0.0
 27
0.0
 37
0.0
 40
1564.871325
 41
0.011347
 42
50.0
 43
810.232564
 44
-810.232564
 50
0.0
 51
0.0
 71
     0
 72
   100
 73
     1
 74
     3
 75
     0
 76
     0
 77
     0
 78
     0
281
     0
 65
     1
110
0.0
120
0.0
130
0.0
111
1.0
121
0.0
131
0.0
112
0.0
122
1.0
132
0.0
 79
     0
146
0.0
348
2F
 60
     3
 61
     5
292
     1
282
     1
141
0.0
142
0.0
 63
   250
421
  3355443
  0
VPORT
  5
205
330
8
100
AcDbSymbolTableRecord
100
AcDbViewportTableRecord
  2
L6
 70
     0
 10
0.0
 20
0.0
 11
0.333333
 21
0.5
 12
0.0
 22
0.0
 13
0.0
 23
0.0
 14
0.5
 24
0.5
 15
0.5
 25
0.5
 16
-1.0
 26
0.0
 36
0.0
 17
0.0
 27
0.0
 37
0.0
 40
1510.242408
 41
0.011758
 42
50.0
 43
764.615621
 44
-764.615621
 50
0.0
 51
0.0
 71
     0
 72
   100
 73
     1
 74
     3
 75
     0
 76
     0
 77
     0
 78
     0
281
     0
 65
     1
110
0.0
120
0.0
130
0.0
111
1.0
121
0.0
131
0.0
112
0.0
122
1.0
132
0.0
 79
     0
146
0.0
348
2F
 60
     3
 61
     5
292
     1
282
     1
141
0.0
142
0.0
 63
   250
421
  3355443
  0
VPORT
  5
206
330
8
100
AcDbSymbolTableRecord
100
AcDbViewportTableRecord
  2
L6
 70
     0
 10
0.333333
 20
0.5
 11
0.666667
 21
1.0
 12
794.863711
 22
823.9749450000001
 13
0.0
 23
0.0
 14
0.5
 24
0.5
 15
0.5
 25
0.5
 16
0.0
 26
0.0
 36
1.0
 17
0.0
 27
0.0
 37
0.0
 40
240.241667
 41
0.073912
 42
50.0
 43
2816.767571000001
 44
-2816.767571000001
 50
0.0
 51
0.0
 71
     0
 72
   100
 73
     1
 74
     3
 75
     0
 76
     0
 77
     0
 78
     0
281
     0
 65
     1
110
0.0
120
0.0
130
0.0
111
1.0
121
0.0
131
0.0
112
0.0
122
1.0
132
0.0
 79
     0
146
0.0
348
2F
 60
     3
 61
     5
292
     1
282
     1
141
0.0
142
0.0
 63
   250
421
  3355443
  0
VPORT
  5
207
330
8
100
AcDbSymbolTableRecord
100
AcDbViewportTableRecord
  2
L6
 70
     0
 10
0.333333
 20
0.0
 11
0.666667
 21
0.5
 12
0.0
 22
0.0
 13
0.0
 23
0.0
 14
0.5
 24
0.5
 15
0.5
 25
0.5
 16
0.0
 26
-1.0
 36
0.0
 17
0.0
 27
0.0
 37
0.0
 40
1510.242408
 41
0.011758
 42
50.0
 43
777.628737
 44
-777.628737
 50
0.0
 51
0.0
 71
     0
 72
   100
 73
     1
 74
     3
 75
     0
 76
     0
 77
     0
 78
     0
281
     0
 65
     1
110
0.0
120
0.0
130
0.0
111
1.0
121
0.0
131
0.0
112
0.0
122
1.0
132
0.0
 79
     0
146
0.0
348
2F
 60
     3
 61
     5
292
     1
282
     1
141
0.0
142
0.0
 63
   250
421
  3355443
  0
VPORT
  5
208
330
8
100
AcDbSymbolTableRecord
100
AcDbViewportTableRecord
  2
L6
 70
     0
 10
0.666667
 20
0.5
 11
1.0
 21
1.0
 12
0.0
 22
0.0
 13
0.0
 23
0.0
 14
0.5
 24
0.5
 15
0.5
 25
0.5
 16
0.5773502691896259
 26
-0.5773502691896259
 36
0.5773502691896259
 17
0.0
 27
0.0
 37
0.0
 40
1482.840046
 41
0.011975
 42
50.0
 43
772.3200829999999
 44
-772.3200829999999
 50
0.0
 51
0.0
 71
     0
 72
   100
 73
     1
 74
     3
 75
     0
 76
     0
 77
     0
 78
     0
281
     0
 65
     1
110
0.0
120
0.0
130
0.0
111
1.0
121
0.0
131
0.0
112
0.0
122
1.0
132
0.0
 79
     0
146
0.0
348
2F
 60
     3
 61
     5
292
     1
282
     1
141
0.0
142
0.0
 63
   250
421
  3355443
  0
VPORT
  5
209
330
8
100
AcDbSymbolTableRecord
100
AcDbViewportTableRecord
  2
L6
 70
     0
 10
0.666667
 20
0.0
 11
1.0
 21
0.5
 12
0.0
 22
0.0
 13
0.0
 23
0.0
 14
0.5
 24
0.5
 15
0.5
 25
0.5
 16
1.0
 26
0.0
 36
0.0
 17
0.0
 27
0.0
 37
0.0
 40
1510.242408
 41
0.011758
 42
50.0
 43
764.615621
 44
-764.615621
 50
0.0
 51
0.0
 71
     0
 72
   100
 73
     1
 74
     3
 75
     0
 76
     0
 77
     0
 78
     0
281
     0
 65
     1
110
0.0
120
0.0
130
0.0
111
1.0
121
0.0
131
0.0
112
0.0
122
1.0
132
0.0
 79
     0
146
0.0
348
2F
 60
     3
 61
     5
292
     1
282
     1
141
0.0
142
0.0
 63
   250
421
  3355443
  0
ENDTAB
  0
TABLE
  2
LTYPE
  5
5
330
0
100
AcDbSymbolTable
 70
    19
  0
LTYPE
  5
14
330
5
100
AcDbSymbolTableRecord
100
AcDbLinetypeTableRecord
  2
BYBLOCK
 70
     0
  3

 72
    65
 73
     0
 40
0.0
  0
LTYPE
  5
15
330
5
100
AcDbSymbolTableRecord
100
AcDbLinetypeTableRecord
  2
BYLAYER
 70
     0
  3

 72
    65
 73
     0
 40
0.0
  0
LTYPE
  5
16
330
5
100
AcDbSymbolTableRecord
100
AcDbLinetypeTableRecord
  2
CONTINUOUS
 70
     0
  3
Solid line
 72
    65
 73
     0
 40
0.0
  0
LTYPE
  5
3F
330
5
100
AcDbSymbolTableRecord
100
AcDbLinetypeTableRecord
  2
DASHED
 70
     0
  3
__ __ __ __ __ __ __ __ __
 72
    65
 73
     2
 40
25.72
 49
12.86
 74
     4
 75
     0
340
0
 46
0.0
 50
0.0
 44
0.0
 45
0.0
 49
-12.86
 74
     4
 75
     0
340
0
 46
0.0
 50
0.0
 44
0.0
 45
0.0
  0
LTYPE
  5
40
330
5
100
AcDbSymbolTableRecord
100
AcDbLinetypeTableRecord
  2
HIDDEN
 70
     0
  3
_ _ _ _ _ _ _ _ _ _ _ _ _ _ _
 72
    65
 73
     2
 40
0.5
 49
0.25
 74
     4
 75
     0
340
0
 46
0.0
 50
0.0
 44
0.0
 45
0.0
 49
-0.25
 74
     4
 75
     0
340
0
 46
0.0
 50
0.0
 44
0.0
 45
0.0
  0
LTYPE
  5
41
330
5
100
AcDbSymbolTableRecord
100
AcDbLinetypeTableRecord
  2
PHANTOM
 70
     0
  3
____ _ _ ____ _ _ _____ _ _ ____
 72
    65
 73
     6
 40
50.5
 49
18.0
 74
     4
 75
     0
340
0
 46
0.0
 50
0.0
 44
0.0
 45
0.0
 49
-6.5
 74
     4
 75
     0
340
0
 46
0.0
 50
0.0
 44
0.0
 45
0.0
 49
6.5
 74
     4
 75
     0
340
0
 46
0.0
 50
0.0
 44
0.0
 45
0.0
 49
-6.5
 74
     4
 75
     0
340
0
 46
0.0
 50
0.0
 44
0.0
 45
0.0
 49
6.5
 74
     4
 75
     0
340
0
 46
0.0
 50
0.0
 44
0.0
 45
0.0
 49
-6.5
 74
     4
 75
     0
340
0
 46
0.0
 50
0.0
 44
0.0
 45
0.0
  0
LTYPE
  5
42
330
5
100
AcDbSymbolTableRecord
100
AcDbLinetypeTableRecord
  2
CENTER
 70
     0
  3
____ _ ____ _ ____ _ ____
 72
    65
 73
     4
 40
47.4
 49
22.0
 74
     4
 75
     0
340
0
 46
0.0
 50
0.0
 44
0.0
 45
0.0
 49
-8.5
 74
     4
 75
     0
340
0
 46
0.0
 50
0.0
 44
0.0
 45
0.0
 49
8.5
 74
     4
 75
     0
340
0
 46
0.0
 50
0.0
 44
0.0
 45
0.0
 49
-8.5
 74
     4
 75
     0
340
0
 46
0.0
 50
0.0
 44
0.0
 45
0.0
  0
LTYPE
  5
43
330
5
100
AcDbSymbolTableRecord
100
AcDbLinetypeTableRecord
  2
DOT
 70
     0
  3
.........................
 72
    65
 73
     2
 40
10.0
 49
0.0
 74
     4
 75
     0
340
0
 46
0.0
 50
0.0
 44
0.0
 45
0.0
 49
-10.0
 74
     4
 75
     0
340
0
 46
0.0
 50
0.0
 44
0.0
 45
0.0
  0
LTYPE
  5
44
330
5
100
AcDbSymbolTableRecord
100
AcDbLinetypeTableRecord
  2
DASHDOT
 70
     0
  3
_._._._._._._._._._._._._._._._.
 72
    65
 73
     4
 40
70.0
 49
31.0
 74
     4
 75
     0
340
0
 46
0.0
 50
0.0
 44
0.0
 45
0.0
 49
-13.0
 74
     4
 75
     0
340
0
 46
0.0
 50
0.0
 44
0.0
 45
0.0
 49
13.0
 74
     4
 75
     0
340
0
 46
0.0
 50
0.0
 44
0.0
 45
0.0
 49
-13.0
 74
     4
 75
     0
340
0
 46
0.0
 50
0.0
 44
0.0
 45
0.0
  0
LTYPE
  5
262
330
5
100
AcDbSymbolTableRecord
100
AcDbLinetypeTableRecord
  2
PHANTOM2
 70
     0
  3
Phantom (.5x) ___ _ _ ___ _ _ ___ _ _ ___ _ _
 72
    65
 73
     6
 40
31.75
 49
15.875
 74
     0
 49
-3.174999999999999
 74
     0
 49
3.174999999999999
 74
     0
 49
-3.174999999999999
 74
     0
 49
3.174999999999999
 74
     0
 49
-3.174999999999999
 74
     0
  0
LTYPE
  5
29D
330
5
100
AcDbSymbolTableRecord
100
AcDbLinetypeTableRecord
  2
AM_ISO02W050
 70
     0
  3
__ __ __ __ __ __ __ __ __ __ __ __ __ __ __
 72
    65
 73
     2
 40
7.5
 49
6.0
 74
     0
 49
-1.5
 74
     0
  0
LTYPE
  5
29E
330
5
100
AcDbSymbolTableRecord
100
AcDbLinetypeTableRecord
  2
AM_ISO08W050
 70
     0
  3
____ . ____ . ____ . ____ . ____ . ____ . ____
 72
    65
 73
     4
 40
18.0
 49
12.0
 74
     0
 49
-1.5
 74
     0
 49
3.0
 74
     0
 49
-1.5
 74
     0
  0
LTYPE
  5
29F
330
5
100
AcDbSymbolTableRecord
100
AcDbLinetypeTableRecord
  2
AM_ISO09W050
 70
     0
  3
_____ . . _____ . . _____ . . ____ .. ____
 72
    65
 73
     6
 40
22.5
 49
12.0
 74
     0
 49
-1.5
 74
     0
 49
3.0
 74
     0
 49
-1.5
 74
     0
 49
3.0
 74
     0
 49
-1.5
 74
     0
  0
LTYPE
  5
2A0
330
5
100
AcDbSymbolTableRecord
100
AcDbLinetypeTableRecord
  2
Amconstr
 70
     0
  3
_______________________
 72
    65
 73
     2
 40
9999.0
 49
9999.0
 74
     0
 49
0.0
 74
     0
  0
LTYPE
  5
2A1
330
5
100
AcDbSymbolTableRecord
100
AcDbLinetypeTableRecord
  2
AM_ISO08W050x2
 70
     0
  3
__ . __ . __ . __ . __ . __
 72
    65
 73
     4
 40
9.0
 49
6.0
 74
     0
 49
-0.75
 74
     0
 49
1.5
 74
     0
 49
-0.75
 74
     0
  0
LTYPE
  5
2A2
330
5
100
AcDbSymbolTableRecord
100
AcDbLinetypeTableRecord
  2
AM_ISO02W050x2
 70
     0
  3
 _ _ _ _ _ _ _ _ _ _ _ _
 72
    65
 73
     2
 40
3.75
 49
3.0
 74
     0
 49
-0.75
 74
     0
  0
LTYPE
  5
2A5
330
5
100
AcDbSymbolTableRecord
100
AcDbLinetypeTableRecord
  2
Amzigzag
 70
     0
  3
/\/-/\/-/\/-/\/-/\/-/\/
 72
    65
 73
     2
 40
11.0001
 49
0.0001
 74
     4
 75
   136
340
2A4
 46
0.04
 50
0.0
 44
0.0
 45
0.0
 49
-11.0
 74
     0
  0
LTYPE
  5
2B4
330
5
100
AcDbSymbolTableRecord
100
AcDbLinetypeTableRecord
  2
ACISOWELD
 70
     0
  3
_ _ _ _ _
 72
    65
 73
     2
 40
2.0
 49
2.0
 74
     0
 49
-1.0
 74
     0
  0
LTYPE
  5
2B5
330
5
100
AcDbSymbolTableRecord
100
AcDbLinetypeTableRecord
  2
ACISOTGL
 70
     0
  3
_ _ _ _ _
 72
    65
 73
     2
 40
3.0
 49
2.0
 74
     0
 49
-1.0
 74
     0
  0
LTYPE
  5
2B6
330
5
100
AcDbSymbolTableRecord
100
AcDbLinetypeTableRecord
  2
ACISOTGB
 70
     0
  3
__ . . __ . .
 72
    65
 73
     6
 40
9.0
 49
4.0
 74
     0
 49
-1.0
 74
     0
 49
1.0
 74
     0
 49
-1.0
 74
     0
 49
1.0
 74
     0
 49
-1.0
 74
     0
  0
ENDTAB
  0
TABLE
  2
LAYER
  5
2
330
0
100
AcDbSymbolTable
 70
     2
  0
LAYER
  5
10
330
2
100
AcDbSymbolTableRecord
100
AcDbLayerTableRecord
  2
0
 70
     0
 62
     7
  6
CONTINUOUS
370
    -3
390
F
347
3E
  0
LAYER
  5
46
330
2
100
AcDbSymbolTableRecord
100
AcDbLayerTableRecord
  2
1
 70
     0
 62
     7
420
 16777215
  6
CONTINUOUS
370
    -3
390
F
347
3E
  0
ENDTAB
  0
TABLE
  2
STYLE
  5
3
330
0
100
AcDbSymbolTable
 70
     4
  0
STYLE
  5
11
330
3
100
AcDbSymbolTableRecord
100
AcDbTextStyleTableRecord
  2
Standard
 70
     0
 40
0.0
 41
1.0
 50
0.0
 71
     0
 42
0.2
  3
txt
  4

  0
STYLE
  5
2A4
330
3
100
AcDbSymbolTableRecord
100
AcDbTextStyleTableRecord
  2

 70
     1
 40
0.0
 41
1.0
 50
0.0
 71
     0
 42
0.2
  3
genltshp.shx
  4

  0
STYLE
  5
2B2
330
3
100
AcDbSymbolTableRecord
100
AcDbTextStyleTableRecord
  2
ACISOTS
 70
     0
 40
1.0
 41
1.0
 50
0.0
 71
     0
 42
0.2
  3
isocp.shx
  4

  0
STYLE
  5
2B3
330
3
100
AcDbSymbolTableRecord
100
AcDbTextStyleTableRecord
  2
ACISOGDT
 70
     0
 40
0.0
 41
1.0
 50
0.0
 71
     0
 42
0.2
  3
amgdt.shx
  4

  0
ENDTAB
  0
TABLE
  2
VIEW
  5
6
330
0
100
AcDbSymbolTable
 70
     0
  0
ENDTAB
  0
TABLE
  2
UCS
  5
7
330
0
100
AcDbSymbolTable
 70
     0
  0
ENDTAB
  0
TABLE
  2
APPID
  5
9
330
0
100
AcDbSymbolTable
 70
     9
  0
APPID
  5
12
330
9
100
AcDbSymbolTableRecord
100
AcDbRegAppTableRecord
  2
ACAD
 70
     0
  0
APPID
  5
25B
330
9
100
AcDbSymbolTableRecord
100
AcDbRegAppTableRecord
  2
MCAD_NO_VIS
 70
     0
  0
APPID
  5
25C
330
9
100
AcDbSymbolTableRecord
100
AcDbRegAppTableRecord
  2
ACAD_TEMP_GRAPHIC
 70
     0
  0
APPID
  5
267
330
9
100
AcDbSymbolTableRecord
100
AcDbRegAppTableRecord
  2
ACATTRIBSERVICES
 70
     0
  0
APPID
  5
27F
330
9
100
AcDbSymbolTableRecord
100
AcDbRegAppTableRecord
  2
DESIGNERASSEMBLIES
 70
     0
  0
APPID
  5
29A
330
9
100
AcDbSymbolTableRecord
100
AcDbRegAppTableRecord
  2
ACAD_DSTYLE_DIMJAG
 70
     0
  0
APPID
  5
29B
330
9
100
AcDbSymbolTableRecord
100
AcDbRegAppTableRecord
  2
ACAD_DSTYLE_DIMBREAK
 70
     0
  0
APPID
  5
2BD
330
9
100
AcDbSymbolTableRecord
100
AcDbRegAppTableRecord
  2
ACAD_NAV_VCDISPLAY
 70
     0
  0
APPID
  5
2C5
330
9
100
AcDbSymbolTableRecord
100
AcDbRegAppTableRecord
  2
ACAD_EXEMPT_FROM_CAD_STANDARDS
 70
     0
  0
ENDTAB
  0
TABLE
  2
DIMSTYLE
  5
A
330
0
100
AcDbSymbolTable
 70
     8
100
AcDbDimStyleTable
 71
     0
  0
DIMSTYLE
105
27
330
A
100
AcDbSymbolTableRecord
100
AcDbDimStyleTableRecord
  2
Standard
 70
     0
340
11
  0
DIMSTYLE
105
299
102
{ACAD_REACTORS
330
288
102
}
330
A
100
AcDbSymbolTableRecord
100
AcDbDimStyleTableRecord
  2
AM_ISO
 70
     0
  4
"
 41
3.5
 42
1.0
 43
10.0
 44
1.0
 47
0.1
 48
0.1
 73
     0
 74
     0
 77
     1
 78
     8
 79
     2
 90
     1
140
3.5
141
0.0
143
0.0393701
146
0.71
147
1.5
172
     1
176
   256
177
   256
178
     2
271
     2
272
     3
274
     4
283
     0
284
     8
340
11
345
14
346
14
347
14
371
    -1
372
    -1
1001
ACAD_DSTYLE_DIMJAG
1070
   388
1040
1.5
1001
ACAD_DSTYLE_DIMBREAK
1070
   391
1040
3.75
  0
DIMSTYLE
105
2A6
330
A
100
AcDbSymbolTableRecord
100
AcDbDimStyleTableRecord
  2
AM_ISO$3
 70
     0
  4
"
 41
3.5
 42
1.0
 43
10.0
 44
1.0
 47
0.1
 48
0.1
 73
     0
 77
     1
 78
     8
 79
     2
 90
     1
140
3.5
141
0.0
143
0.0393701
146
0.71
147
1.5
176
   256
177
   256
178
     2
271
     2
272
     3
274
     4
283
     0
284
     8
288
     1
289
     0
340
11
345
14
346
14
347
14
371
    -1
372
    -1
1001
ACAD_DSTYLE_DIMBREAK
1070
   391
1040
3.75
1001
ACAD_DSTYLE_DIMJAG
1070
   388
1040
1.5
  0
DIMSTYLE
105
2A7
330
A
100
AcDbSymbolTableRecord
100
AcDbDimStyleTableRecord
  2
AM_ISO$4
 70
     0
  4
"
 41
3.5
 42
1.0
 43
10.0
 44
1.0
 47
0.1
 48
0.1
 73
     0
 77
     1
 78
     8
 79
     2
 90
     1
140
3.5
141
0.0
143
0.0393701
146
0.71
147
1.5
176
   256
177
   256
178
     2
271
     2
272
     3
274
     4
283
     0
284
     8
288
     1
289
     0
340
11
345
14
346
14
347
14
371
    -1
372
    -1
1001
ACAD_DSTYLE_DIMBREAK
1070
   391
1040
3.75
1001
ACAD_DSTYLE_DIMJAG
1070
   388
1040
1.5
  0
DIMSTYLE
105
2A8
330
A
100
AcDbSymbolTableRecord
100
AcDbDimStyleTableRecord
  2
AM_ISO$6
 70
     0
  4
"
 41
3.5
 42
1.0
 43
10.0
 44
1.0
 47
0.1
 48
0.1
 73
     0
 74
     0
 78
     8
 79
     2
 90
     1
140
3.5
141
0.0
143
0.0393701
146
0.71
147
1.5
172
     1
176
   256
177
   256
178
     2
271
     2
272
     3
274
     4
283
     0
284
     8
340
11
345
14
346
14
347
14
371
    -1
372
    -1
1001
ACAD_DSTYLE_DIMBREAK
1070
   391
1040
3.75
1001
ACAD_DSTYLE_DIMJAG
1070
   388
1040
1.5
  0
DIMSTYLE
105
2A9
330
A
100
AcDbSymbolTableRecord
100
AcDbDimStyleTableRecord
  2
AM_ISO$7
 70
     0
  4
"
 41
3.5
 42
1.0
 43
10.0
 44
1.0
 47
0.1
 48
0.1
 73
     0
 74
     0
 77
     1
 78
     8
 79
     2
 90
     1
140
3.5
141
0.0
143
0.0393701
146
0.71
147
1.5
172
     1
176
   256
177
   256
178
     2
271
     2
272
     3
274
     4
283
     0
284
     8
340
11
345
14
346
14
347
14
371
    -1
372
    -1
1001
ACAD_DSTYLE_DIMBREAK
1070
   391
1040
3.75
1001
ACAD_DSTYLE_DIMJAG
1070
   388
1040
1.5
  0
DIMSTYLE
105
2AA
330
A
100
AcDbSymbolTableRecord
100
AcDbDimStyleTableRecord
  2
AM_ISO$SF
 70
     0
  4
"
 41
3.5
 42
1.0
 43
10.0
 44
1.0
 47
0.1
 48
0.1
 73
     0
 74
     0
 75
     1
 76
     1
 77
     1
 78
     8
 79
     2
 90
     1
140
3.5
141
0.0
143
0.0393701
146
0.71
147
1.5
172
     1
176
   256
177
   256
178
     2
271
     2
272
     3
274
     4
283
     0
284
     8
340
11
345
14
346
14
347
14
371
    -1
372
    -1
1001
ACAD_DSTYLE_DIMBREAK
1070
   391
1040
3.75
1001
ACAD_DSTYLE_DIMJAG
1070
   388
1040
1.5
  0
DIMSTYLE
105
2AF
330
A
100
AcDbSymbolTableRecord
100
AcDbDimStyleTableRecord
  2
AM_ISO$SH
 70
     0
  4
"
 41
3.5
 42
1.0
 43
10.0
 44
1.0
 47
0.1
 48
0.1
 73
     0
 74
     0
 75
     1
 76
     1
 77
     1
 78
     8
 79
     2
 90
     1
140
3.5
141
0.0
143
0.0393701
144
2.0
146
0.71
147
1.5
172
     1
173
     1
176
   256
177
   256
178
     2
271
     2
272
     3
274
     4
283
     0
284
     8
340
11
343
2AB
345
14
346
14
347
14
371
    -1
372
    -1
1001
ACAD_DSTYLE_DIMBREAK
1070
   391
1040
3.75
1001
ACAD_DSTYLE_DIMJAG
1070
   388
1040
1.5
  0
ENDTAB
  0
TABLE
  2
BLOCK_RECORD
  5
1
330
0
100
AcDbSymbolTable
 70
     6
  0
BLOCK_RECORD
  5
1F
330
1
100
AcDbSymbolTableRecord
100
AcDbBlockTableRecord
  2
*Model_Space
340
22
 70
     0
280
     1
281
     0
  0
BLOCK_RECORD
  5
1B
330
1
100
AcDbSymbolTableRecord
100
AcDbBlockTableRecord
  2
*Paper_Space
340
1E
 70
     0
280
     1
281
     0
  0
BLOCK_RECORD
  5
23
330
1
100
AcDbSymbolTableRecord
100
AcDbBlockTableRecord
  2
*Paper_Space0
340
26
 70
     0
280
     1
281
     0
  0
BLOCK_RECORD
  5
2AB
330
1
100
AcDbSymbolTableRecord
100
AcDbBlockTableRecord
  2
GENAXEH
340
0
 70
     0
280
     1
281
     0
  0
ENDTAB
  0
ENDSEC
  0
SECTION
  2
BLOCKS
  0
BLOCK
  5
20
330
1F
100
AcDbEntity
  8
0
100
AcDbBlockBegin
  2
*Model_Space
 70
     0
 10
0.0
 20
0.0
 30
0.0
  3
*Model_Space
  1

  0
ENDBLK
  5
21
330
1F
100
AcDbEntity
  8
0
100
AcDbBlockEnd
  0
BLOCK
  5
1C
330
1B
100
AcDbEntity
 67
     1
  8
0
100
AcDbBlockBegin
  2
*Paper_Space
 70
     0
 10
0.0
 20
0.0
 30
0.0
  3
*Paper_Space
  1

  0
ENDBLK
  5
1D
330
1B
100
AcDbEntity
 67
     1
  8
0
100
AcDbBlockEnd
  0
BLOCK
  5
24
330
23
100
AcDbEntity
 67
     1
  8
0
100
AcDbBlockBegin
  2
*Paper_Space0
 70
     0
 10
0.0
 20
0.0
 30
0.0
  3
*Paper_Space0
  1

  0
ENDBLK
  5
25
330
23
100
AcDbEntity
 67
     1
  8
0
100
AcDbBlockEnd
  0
BLOCK
  5
2AD
330
2AB
100
AcDbEntity
  8
0
100
AcDbBlockBegin
  2
GENAXEH
 70
     0
 10
0.0
 20
0.0
 30
0.0
  3
GENAXEH
  1

  0
LINE
  5
2AC
330
2AB
100
AcDbEntity
  8
0
100
AcDbLine
 10
-1.0
 20
0.0
 30
0.0
 11
1.0
 21
0.0
 31
0.0
  0
ENDBLK
  5
2AE
330
2AB
100
AcDbEntity
  8
0
100
AcDbBlockEnd
  0
ENDSEC
  0
SECTION
  2
ENTITIES
  0
LINE
  5
56
330
1F
100
AcDbEntity
  8
1
  6
Continuous
 62
     8
 60
     1
100
AcDbLine
 10
0.0
 20
0.0
 30
0.0
 11
0.0
 21
1300.0
 31
0.0
  0
LINE
  5
57
330
1F
100
AcDbEntity
  8
1
  6
Continuous
 62
     8
 60
     1
100
AcDbLine
 10
1600.0
 20
1300.0
 30
0.0
 11
0.0
 21
1300.0
 31
0.0
  0
LINE
  5
58
330
1F
100
AcDbEntity
  8
1
  6
Continuous
 62
     8
 60
     1
100
AcDbLine
 10
1600.0
 20
1300.0
 30
0.0
 11
1600.0
 21
0.0
 31
0.0
  0
LINE
  5
59
330
1F
100
AcDbEntity
  8
1
  6
Continuous
 62
     8
 60
     1
100
AcDbLine
 10
0.0
 20
0.0
 30
0.0
 11
1600.0
 21
0.0
 31
0.0
  0
LINE
  5
5A
330
1F
100
AcDbEntity
  8
1
  6
Continuous
 62
   155
100
AcDbLine
 10
814.9674989999999
 20
947.5781939999999
 30
0.0
 11
814.9674989999999
 21
961.0781939999998
 31
0.0
  0
LINE
  5
5B
330
1F
100
AcDbEntity
  8
1
  6
Continuous
 62
   155
100
AcDbLine
 10
814.9674989999999
 20
929.078194
 30
0.0
 11
814.9674989999999
 21
947.5781939999999
 31
0.0
  0
LINE
  5
5C
330
1F
100
AcDbEntity
  8
1
  6
Continuous
 62
   155
100
AcDbLine
 10
709.9674989999999
 20
947.5781939999999
 30
0.0
 11
814.9674989999999
 21
947.5781939999999
 31
0.0
  0
LINE
  5
5D
330
1F
100
AcDbEntity
  8
1
  6
Continuous
 62
   155
100
AcDbLine
 10
709.9674989999999
 20
929.078194
 30
0.0
 11
709.9674989999999
 21
947.5781939999999
 31
0.0
  0
LINE
  5
5E
330
1F
100
AcDbEntity
  8
1
  6
Continuous
 62
   155
100
AcDbLine
 10
709.9674989999999
 20
947.5781939999999
 30
0.0
 11
709.9674989999999
 21
961.0781939999998
 31
0.0
  0
LINE
  5
5F
330
1F
100
AcDbEntity
  8
1
  6
Continuous
 62
   155
100
AcDbLine
 10
838.467499
 20
1208.078194
 30
0.0
 11
676.4674989999999
 21
1208.078194
 31
0.0
  0
LINE
  5
60
330
1F
100
AcDbEntity
  8
1
  6
Continuous
 62
   155
100
AcDbLine
 10
602.967499
 20
1047.078194
 30
0.0
 11
602.967499
 21
982.0781939999999
 31
0.0
  0
LINE
  5
61
330
1F
100
AcDbEntity
  8
1
  6
Continuous
 62
   155
100
AcDbLine
 10
838.467499
 20
1202.078194
 30
0.0
 11
838.467499
 21
1208.078194
 31
0.0
  0
LINE
  5
62
330
1F
100
AcDbEntity
  8
1
  6
Continuous
 62
   155
100
AcDbLine
 10
672.4674989999999
 20
967.0781939999999
 30
0.0
 11
672.4674989999999
 21
961.0781939999998
 31
0.0
  0
LINE
  5
63
330
1F
100
AcDbEntity
  8
1
  6
Continuous
 62
   155
100
AcDbLine
 10
672.4674989999999
 20
961.0781939999998
 30
0.0
 11
993.4674989999999
 21
961.0781939999998
 31
0.0
  0
LINE
  5
64
330
1F
100
AcDbEntity
  8
1
  6
Continuous
 62
   155
100
AcDbLine
 10
1068.467499
 20
1047.078194
 30
0.0
 11
1068.467499
 21
944.0781939999999
 31
0.0
  0
LINE
  5
65
330
1F
100
AcDbEntity
  8
1
  6
Continuous
 62
   155
100
AcDbLine
 10
1023.967499
 20
1127.078194
 30
0.0
 11
672.4674989999999
 21
1127.078194
 31
0.0
  0
LINE
  5
66
330
1F
100
AcDbEntity
  8
1
  6
Continuous
 62
   155
100
AcDbLine
 10
993.4674989999999
 20
961.0781939999998
 30
0.0
 11
993.4674989999999
 21
916.578194
 31
0.0
  0
LINE
  5
67
330
1F
100
AcDbEntity
  8
1
  6
Continuous
 62
   155
100
AcDbLine
 10
1068.467499
 20
1047.078194
 30
0.0
 11
1068.467499
 21
1150.078194
 31
0.0
  0
LINE
  5
68
330
1F
100
AcDbEntity
  8
1
  6
Continuous
 62
   155
100
AcDbLine
 10
993.4674989999999
 20
916.578194
 30
0.0
 11
889.463499
 21
916.578194
 31
0.0
  0
LINE
  5
69
330
1F
100
AcDbEntity
  8
1
  6
Continuous
 62
   155
100
AcDbLine
 10
677.4680769999999
 20
916.578194
 30
0.0
 11
672.4674989999999
 21
916.578194
 31
0.0
  0
LINE
  5
6A
330
1F
100
AcDbEntity
  8
1
  6
Continuous
 62
   155
100
AcDbLine
 10
1023.967499
 20
967.0781939999999
 30
0.0
 11
1023.967499
 21
1127.078194
 31
0.0
  0
LINE
  5
6B
330
1F
100
AcDbEntity
  8
1
  6
Continuous
 62
   155
100
AcDbLine
 10
672.4674989999999
 20
1127.078194
 30
0.0
 11
672.4674989999999
 21
967.0781939999999
 31
0.0
  0
LINE
  5
6C
330
1F
100
AcDbEntity
  8
1
  6
Continuous
 62
   155
100
AcDbLine
 10
1023.967499
 20
1127.078194
 30
0.0
 11
1023.967499
 21
1177.578194
 31
0.0
  0
LINE
  5
6D
330
1F
100
AcDbEntity
  8
1
  6
Continuous
 62
   155
100
AcDbLine
 10
1023.967499
 20
916.578194
 30
0.0
 11
993.4674989999999
 21
916.578194
 31
0.0
  0
LINE
  5
6E
330
1F
100
AcDbEntity
  8
1
  6
Continuous
 62
   155
100
AcDbLine
 10
1076.467499
 20
1047.078194
 30
0.0
 11
1076.467499
 21
964.5781939999999
 31
0.0
  0
LINE
  5
6F
330
1F
100
AcDbEntity
  8
1
  6
Continuous
 62
   155
100
AcDbLine
 10
526.4674989999999
 20
1047.078194
 30
0.0
 11
526.4674989999999
 21
1066.078194
 31
0.0
  0
LINE
  5
70
330
1F
100
AcDbEntity
  8
1
  6
Continuous
 62
   155
100
AcDbLine
 10
993.4674989999999
 20
1177.578194
 30
0.0
 11
993.4674989999999
 21
1133.078194
 31
0.0
  0
LINE
  5
71
330
1F
100
AcDbEntity
  8
1
  6
Continuous
 62
   155
100
AcDbLine
 10
993.4674989999999
 20
1133.078194
 30
0.0
 11
672.4674989999999
 21
1133.078194
 31
0.0
  0
LINE
  5
72
330
1F
100
AcDbEntity
  8
1
  6
Continuous
 62
   155
100
AcDbLine
 10
1023.967499
 20
967.0781939999999
 30
0.0
 11
672.4674989999999
 21
967.0781939999999
 31
0.0
  0
LINE
  5
73
330
1F
100
AcDbEntity
  8
1
  6
Continuous
 62
   155
100
AcDbLine
 10
672.4674989999999
 20
1133.078194
 30
0.0
 11
672.4674989999999
 21
1127.078194
 31
0.0
  0
LINE
  5
74
330
1F
100
AcDbEntity
  8
1
  6
Continuous
 62
   155
100
AcDbLine
 10
1023.967499
 20
1177.578194
 30
0.0
 11
993.4674989999999
 21
1177.578194
 31
0.0
  0
LINE
  5
75
330
1F
100
AcDbEntity
  8
1
  6
Continuous
 62
   155
100
AcDbLine
 10
1023.967499
 20
916.578194
 30
0.0
 11
1023.967499
 21
967.0781939999999
 31
0.0
  0
LINE
  5
76
330
1F
100
AcDbEntity
  8
1
  6
Continuous
 62
   155
100
AcDbLine
 10
677.467499
 20
1177.578194
 30
0.0
 11
677.467499
 21
1202.078194
 31
0.0
  0
LINE
  5
77
330
1F
100
AcDbEntity
  8
1
  6
Continuous
 62
   155
100
AcDbLine
 10
606.467499
 20
1047.078194
 30
0.0
 11
606.467499
 21
947.078194
 31
0.0
  0
LINE
  5
78
330
1F
100
AcDbEntity
  8
1
  6
Continuous
 62
   155
100
AcDbLine
 10
614.4674989999999
 20
1047.078194
 30
0.0
 11
614.4674989999999
 21
1147.078194
 31
0.0
  0
LINE
  5
79
330
1F
100
AcDbEntity
  8
1
  6
Continuous
 62
   155
100
AcDbLine
 10
660.4674989999999
 20
1047.078194
 30
0.0
 11
660.4674989999999
 21
930.078194
 31
0.0
  0
LINE
  5
7A
330
1F
100
AcDbEntity
  8
1
  6
Continuous
 62
   155
100
AcDbLine
 10
606.467499
 20
1047.078194
 30
0.0
 11
606.467499
 21
1147.078194
 31
0.0
  0
LINE
  5
7B
330
1F
100
AcDbEntity
  8
1
  6
Continuous
 62
   155
100
AcDbLine
 10
660.4674989999999
 20
1164.078194
 30
0.0
 11
614.4674989999999
 21
1147.078194
 31
0.0
  0
LINE
  5
7C
330
1F
100
AcDbEntity
  8
1
  6
Continuous
 62
   155
100
AcDbLine
 10
993.4674989999999
 20
1177.578194
 30
0.0
 11
837.4674989999999
 21
1177.578194
 31
0.0
  0
LINE
  5
7D
330
1F
100
AcDbEntity
  8
1
  6
Continuous
 62
   155
100
AcDbLine
 10
837.4674989999999
 20
1177.578194
 30
0.0
 11
837.4674989999999
 21
1202.078194
 31
0.0
  0
LINE
  5
7E
330
1F
100
AcDbEntity
  8
1
  6
Continuous
 62
   155
100
AcDbLine
 10
672.4674989999999
 20
916.578194
 30
0.0
 11
672.4674989999999
 21
961.0781939999998
 31
0.0
  0
LINE
  5
7F
330
1F
100
AcDbEntity
  8
1
  6
Continuous
 62
   155
100
AcDbLine
 10
677.467499
 20
1177.578194
 30
0.0
 11
672.4674989999999
 21
1177.578194
 31
0.0
  0
LINE
  5
80
330
1F
100
AcDbEntity
  8
1
  6
Continuous
 62
   155
100
AcDbLine
 10
672.4674989999999
 20
1133.078194
 30
0.0
 11
672.4674989999999
 21
1177.578194
 31
0.0
  0
LINE
  5
81
330
1F
100
AcDbEntity
  8
1
  6
Continuous
 62
   155
100
AcDbLine
 10
1068.467499
 20
1150.078194
 30
0.0
 11
1023.967499
 21
1174.744947
 31
0.0
  0
LINE
  5
82
330
1F
100
AcDbEntity
  8
1
  6
Continuous
 62
   155
100
AcDbLine
 10
526.4674989999999
 20
1028.078194
 30
0.0
 11
602.967499
 21
1028.078194
 31
0.0
  0
LINE
  5
83
330
1F
100
AcDbEntity
  8
1
  6
Continuous
 62
   155
100
AcDbLine
 10
1076.467499
 20
1129.578194
 30
0.0
 11
1068.467499
 21
1129.578194
 31
0.0
  0
LINE
  5
84
330
1F
100
AcDbEntity
  8
1
  6
Continuous
 62
   155
100
AcDbLine
 10
606.467499
 20
947.078194
 30
0.0
 11
614.4674989999999
 21
947.078194
 31
0.0
  0
LINE
  5
85
330
1F
100
AcDbEntity
  8
1
  6
Continuous
 62
   155
100
AcDbLine
 10
672.4674989999999
 20
1164.078194
 30
0.0
 11
660.4674989999999
 21
1164.078194
 31
0.0
  0
LINE
  5
86
330
1F
100
AcDbEntity
  8
1
  6
Continuous
 62
   155
100
AcDbLine
 10
606.467499
 20
1112.078194
 30
0.0
 11
602.967499
 21
1112.078194
 31
0.0
  0
LINE
  5
87
330
1F
100
AcDbEntity
  8
1
  6
Continuous
 62
   155
100
AcDbLine
 10
756.20285
 20
1235.078194
 30
0.0
 11
756.20285
 21
1236.078194
 31
0.0
  0
LINE
  5
88
330
1F
100
AcDbEntity
  8
1
  6
Continuous
 62
   155
100
AcDbLine
 10
771.8229669999999
 20
1235.078194
 30
0.0
 11
771.8229669999999
 21
1236.078194
 31
0.0
  0
LINE
  5
89
330
1F
100
AcDbEntity
  8
1
  6
Continuous
 62
   155
100
AcDbLine
 10
756.20285
 20
1236.078194
 30
0.0
 11
771.8229669999999
 21
1236.078194
 31
0.0
  0
LINE
  5
8A
330
1F
100
AcDbEntity
  8
1
  6
Continuous
 62
   155
100
AcDbLine
 10
837.9674989999999
 20
1208.078194
 30
0.0
 11
810.967499
 21
1235.078194
 31
0.0
  0
LINE
  5
8B
330
1F
100
AcDbEntity
  8
1
  6
Continuous
 62
   155
100
AcDbLine
 10
739.967499
 20
1235.078194
 30
0.0
 11
739.967499
 21
1236.078194
 31
0.0
  0
LINE
  5
8C
330
1F
100
AcDbEntity
  8
1
  6
Continuous
 62
   155
100
AcDbLine
 10
676.9674989999999
 20
1208.078194
 30
0.0
 11
703.9674989999999
 21
1235.078194
 31
0.0
  0
LINE
  5
8D
330
1F
100
AcDbEntity
  8
1
  6
Continuous
 62
   155
100
AcDbLine
 10
755.587616
 20
1235.078194
 30
0.0
 11
755.587616
 21
1236.078194
 31
0.0
  0
LINE
  5
8E
330
1F
100
AcDbEntity
  8
1
  6
Continuous
 62
   155
100
AcDbLine
 10
810.967499
 20
1235.078194
 30
0.0
 11
703.9674989999999
 21
1235.078194
 31
0.0
  0
LINE
  5
8F
330
1F
100
AcDbEntity
  8
1
  6
Continuous
 62
   155
100
AcDbLine
 10
739.967499
 20
1236.078194
 30
0.0
 11
755.587616
 21
1236.078194
 31
0.0
  0
LINE
  5
90
330
1F
100
AcDbEntity
  8
1
  6
Continuous
 62
   155
370
     5
100
AcDbLine
 10
606.467499
 20
1047.078194
 30
0.0
 11
614.4674989999999
 21
1047.078194
 31
0.0
  0
LINE
  5
91
330
1F
100
AcDbEntity
  8
1
  6
Continuous
 62
   155
100
AcDbLine
 10
614.4674989999999
 20
947.078194
 30
0.0
 11
614.4674989999999
 21
1047.078194
 31
0.0
  0
LINE
  5
92
330
1F
100
AcDbEntity
  8
1
  6
Continuous
 62
   155
370
     5
100
AcDbLine
 10
1068.467499
 20
1047.078194
 30
0.0
 11
1023.967499
 21
1047.078194
 31
0.0
  0
LINE
  5
93
330
1F
100
AcDbEntity
  8
1
  6
Continuous
 62
   155
370
     5
100
AcDbLine
 10
1076.467499
 20
1047.078194
 30
0.0
 11
1068.467499
 21
1047.078194
 31
0.0
  0
LINE
  5
94
330
1F
100
AcDbEntity
  8
1
  6
Continuous
 62
   155
100
AcDbLine
 10
1076.467499
 20
1047.078194
 30
0.0
 11
1076.467499
 21
1129.578194
 31
0.0
  0
LINE
  5
95
330
1F
100
AcDbEntity
  8
1
  6
Continuous
 62
   155
370
     5
100
AcDbLine
 10
672.4674989999999
 20
1047.078194
 30
0.0
 11
660.4674989999999
 21
1047.078194
 31
0.0
  0
LINE
  5
96
330
1F
100
AcDbEntity
  8
1
  6
Continuous
 62
   155
100
AcDbLine
 10
602.967499
 20
1047.078194
 30
0.0
 11
602.967499
 21
1112.078194
 31
0.0
  0
LINE
  5
97
330
1F
100
AcDbEntity
  8
1
  6
Continuous
 62
   155
370
     5
100
AcDbLine
 10
526.4674989999999
 20
1047.078194
 30
0.0
 11
602.967499
 21
1047.078194
 31
0.0
  0
LINE
  5
98
330
1F
100
AcDbEntity
  8
1
  6
Continuous
 62
   155
100
AcDbLine
 10
660.4674989999999
 20
1164.078194
 30
0.0
 11
660.4674989999999
 21
1047.078194
 31
0.0
  0
LINE
  5
99
330
1F
100
AcDbEntity
  8
1
  6
Continuous
 62
   155
100
AcDbLine
 10
660.4674989999999
 20
930.078194
 30
0.0
 11
614.4674989999999
 21
947.078194
 31
0.0
  0
LINE
  5
9A
330
1F
100
AcDbEntity
  8
1
  6
Continuous
 62
   155
370
     5
100
AcDbLine
 10
606.467499
 20
1047.078194
 30
0.0
 11
602.967499
 21
1047.078194
 31
0.0
  0
LINE
  5
9B
330
1F
100
AcDbEntity
  8
1
  6
Continuous
 62
   155
100
AcDbLine
 10
526.4674989999999
 20
1047.078194
 30
0.0
 11
526.4674989999999
 21
1028.078194
 31
0.0
  0
LINE
  5
9C
330
1F
100
AcDbEntity
  8
1
  6
Continuous
 62
   155
100
AcDbLine
 10
838.467499
 20
1202.078194
 30
0.0
 11
676.4674989999999
 21
1202.078194
 31
0.0
  0
LINE
  5
9D
330
1F
100
AcDbEntity
  8
1
  6
Continuous
 62
   155
100
AcDbLine
 10
676.4674989999999
 20
1202.078194
 30
0.0
 11
676.4674989999999
 21
1208.078194
 31
0.0
  0
LINE
  5
9E
330
1F
100
AcDbEntity
  8
1
  6
Continuous
 62
   155
100
AcDbLine
 10
677.467499
 20
915.0781939999999
 30
0.0
 11
889.467499
 21
915.0781939999999
 31
0.0
  0
LINE
  5
9F
330
1F
100
AcDbEntity
  8
1
  6
Continuous
 62
   155
100
AcDbLine
 10
889.467499
 20
915.0781939999999
 30
0.0
 11
889.467499
 21
929.078194
 31
0.0
  0
LINE
  5
A0
330
1F
100
AcDbEntity
  8
1
  6
Continuous
 62
   155
100
AcDbLine
 10
677.467499
 20
915.0781939999999
 30
0.0
 11
677.467499
 21
929.078194
 31
0.0
  0
LINE
  5
A1
330
1F
100
AcDbEntity
  8
1
  6
Continuous
 62
   155
100
AcDbLine
 10
677.467499
 20
929.078194
 30
0.0
 11
889.467499
 21
929.078194
 31
0.0
  0
LINE
  5
A2
330
1F
100
AcDbEntity
  8
1
  6
Continuous
 62
   155
100
AcDbLine
 10
614.4674989999999
 20
1147.078194
 30
0.0
 11
606.467499
 21
1147.078194
 31
0.0
  0
LINE
  5
A3
330
1F
100
AcDbEntity
  8
1
  6
Continuous
 62
   155
100
AcDbLine
 10
602.967499
 20
982.0781939999999
 30
0.0
 11
606.467499
 21
982.0781939999999
 31
0.0
  0
LINE
  5
A4
330
1F
100
AcDbEntity
  8
1
  6
Continuous
 62
   155
100
AcDbLine
 10
1068.467499
 20
964.5781939999999
 30
0.0
 11
1076.467499
 21
964.5781939999999
 31
0.0
  0
LINE
  5
A5
330
1F
100
AcDbEntity
  8
1
  6
Continuous
 62
   155
100
AcDbLine
 10
660.4674989999999
 20
930.078194
 30
0.0
 11
672.4674989999999
 21
930.078194
 31
0.0
  0
LINE
  5
A6
330
1F
100
AcDbEntity
  8
1
  6
Continuous
 62
   155
100
AcDbLine
 10
1023.967499
 20
919.4114409999999
 30
0.0
 11
1068.467499
 21
944.0781939999999
 31
0.0
  0
LINE
  5
A7
330
1F
100
AcDbEntity
  8
1
  6
Continuous
 62
   155
100
AcDbLine
 10
602.967499
 20
1066.078194
 30
0.0
 11
526.4674989999999
 21
1066.078194
 31
0.0
  0
LINE
  5
A8
330
1F
100
AcDbEntity
  8
1
  6
Continuous
 62
   155
100
AcDbLine
 10
226.555066
 20
915.0781939999999
 30
0.0
 11
273.555066
 21
915.0781939999999
 31
0.0
  0
LINE
  5
A9
330
1F
100
AcDbEntity
  8
1
  6
Continuous
 62
   155
100
AcDbLine
 10
273.555066
 20
929.078194
 30
0.0
 11
235.055457
 21
929.078194
 31
0.0
  0
LINE
  5
AA
330
1F
100
AcDbEntity
  8
1
  6
Continuous
 62
   155
100
AcDbLine
 10
21.055066
 20
929.078194
 30
0.0
 11
35.555019
 21
943.578147
 31
0.0
  0
LINE
  5
AB
330
1F
100
AcDbEntity
  8
1
  6
Continuous
 62
   155
100
AcDbLine
 10
60.56819100000001
 20
918.5650289999998
 30
0.0
 11
58.555066
 21
915.0781939999999
 31
0.0
  0
LINE
  5
AC
330
1F
100
AcDbEntity
  8
1
  6
Continuous
 62
   155
100
AcDbLine
 10
226.555066
 20
920.578225
 30
0.0
 11
226.555066
 21
915.0781939999999
 31
0.0
  0
LINE
  5
AD
330
1F
100
AcDbEntity
  8
1
  6
Continuous
 62
   155
100
AcDbLine
 10
273.555066
 20
915.0781939999999
 30
0.0
 11
273.555066
 21
929.078194
 31
0.0
  0
LINE
  5
AE
330
1F
100
AcDbEntity
  8
1
  6
Continuous
 62
   155
100
AcDbLine
 10
223.555066
 20
1202.078194
 30
0.0
 11
223.555066
 21
1208.078194
 31
0.0
  0
LINE
  5
AF
330
1F
100
AcDbEntity
  8
1
  6
Continuous
 62
   155
100
AcDbLine
 10
223.555066
 20
1208.078194
 30
0.0
 11
61.555066
 21
1208.078194
 31
0.0
  0
LINE
  5
B0
330
1F
100
AcDbEntity
  8
1
  6
Continuous
 62
   155
100
AcDbLine
 10
61.555066
 20
1202.078194
 30
0.0
 11
61.555066
 21
1208.078194
 31
0.0
  0
LINE
  5
B1
330
1F
100
AcDbEntity
  8
1
  6
Continuous
 62
   155
100
AcDbLine
 10
224.541941
 20
918.5650289999998
 30
0.0
 11
226.555066
 21
915.0781939999999
 31
0.0
  0
LINE
  5
B2
330
1F
100
AcDbEntity
  8
1
  6
Continuous
 62
   155
100
AcDbLine
 10
264.055066
 20
929.078194
 30
0.0
 11
249.555113
 21
943.578147
 31
0.0
  0
LINE
  5
B3
330
1F
100
AcDbEntity
  8
1
  6
Continuous
 62
   155
100
AcDbLine
 10
222.555066
 20
916.578194
 30
0.0
 11
62.555066
 21
916.578194
 31
0.0
  0
LINE
  5
B4
330
1F
100
AcDbEntity
  8
1
  6
Continuous
 62
   155
100
AcDbLine
 10
222.555066
 20
1177.578194
 30
0.0
 11
222.555066
 21
1202.078194
 31
0.0
  0
LINE
  5
B5
330
1F
100
AcDbEntity
  8
1
  6
Continuous
 62
   155
370
     5
100
AcDbLine
 10
245.555066
 20
1047.078194
 30
0.0
 11
270.221819
 21
1047.078194
 31
0.0
  0
LINE
  5
B6
330
1F
100
AcDbEntity
  8
1
  6
Continuous
 62
   155
100
AcDbLine
 10
273.055066
 20
1127.078194
 30
0.0
 11
273.055066
 21
967.0781939999999
 31
0.0
  0
LINE
  5
B7
330
1F
100
AcDbEntity
  8
1
  6
Continuous
 62
   155
100
AcDbLine
 10
12.055066
 20
967.0781939999999
 30
0.0
 11
12.055066
 21
1127.078194
 31
0.0
  0
LINE
  5
B8
330
1F
100
AcDbEntity
  8
1
  6
Continuous
 62
   155
100
AcDbLine
 10
62.555066
 20
1177.578194
 30
0.0
 11
222.555066
 21
1177.578194
 31
0.0
  0
LINE
  5
B9
330
1F
100
AcDbEntity
  8
1
  6
Continuous
 62
   155
100
AcDbLine
 10
12.055066
 20
1127.078194
 30
0.0
 11
62.555066
 21
1177.578194
 31
0.0
  0
LINE
  5
BA
330
1F
100
AcDbEntity
  8
1
  6
Continuous
 62
   155
100
AcDbLine
 10
62.555066
 20
916.578194
 30
0.0
 11
12.055066
 21
967.0781939999999
 31
0.0
  0
LINE
  5
BB
330
1F
100
AcDbEntity
  8
1
  6
Continuous
 62
   155
100
AcDbLine
 10
222.555066
 20
1177.578194
 30
0.0
 11
273.055066
 21
1127.078194
 31
0.0
  0
LINE
  5
BC
330
1F
100
AcDbEntity
  8
1
  6
Continuous
 62
   155
100
AcDbLine
 10
273.055066
 20
967.0781939999999
 30
0.0
 11
222.555066
 21
916.578194
 31
0.0
  0
LINE
  5
BD
330
1F
100
AcDbEntity
  8
1
  6
Continuous
 62
   155
100
AcDbLine
 10
62.555066
 20
1177.578194
 30
0.0
 11
62.555066
 21
1202.078194
 31
0.0
  0
LINE
  5
BE
330
1F
100
AcDbEntity
  8
1
  6
Continuous
 62
   155
370
     5
100
AcDbLine
 10
148.847058
 20
1235.078194
 30
0.0
 11
148.847058
 21
1236.078194
 31
0.0
  0
LINE
  5
BF
330
1F
100
AcDbEntity
  8
1
  6
Continuous
 62
   155
100
AcDbLine
 10
136.115125
 20
1236.078194
 30
0.0
 11
145.34364
 21
1236.078194
 31
0.0
  0
LINE
  5
C0
330
1F
100
AcDbEntity
  8
1
  6
Continuous
 62
   155
100
AcDbLine
 10
112.274793
 20
1236.078194
 30
0.0
 11
117.692273
 21
1236.078194
 31
0.0
  0
LINE
  5
C1
330
1F
100
AcDbEntity
  8
1
  6
Continuous
 62
   155
100
AcDbLine
 10
112.274793
 20
1235.078194
 30
0.0
 11
112.274793
 21
1236.078194
 31
0.0
  0
LINE
  5
C2
330
1F
100
AcDbEntity
  8
1
  6
Continuous
 62
   155
100
AcDbLine
 10
183.248914
 20
1235.078194
 30
0.0
 11
183.248914
 21
1236.078194
 31
0.0
  0
LINE
  5
C3
330
1F
100
AcDbEntity
  8
1
  6
Continuous
 62
   155
100
AcDbLine
 10
170.807507
 20
1236.078194
 30
0.0
 11
173.661511
 21
1236.078194
 31
0.0
  0
LINE
  5
C4
330
1F
100
AcDbEntity
  8
1
  6
Continuous
 62
   155
100
AcDbLine
 10
145.993054
 20
1236.078194
 30
0.0
 11
148.847058
 21
1236.078194
 31
0.0
  0
LINE
  5
C5
330
1F
100
AcDbEntity
  8
1
  6
Continuous
 62
   155
100
AcDbLine
 10
117.692273
 20
1235.078194
 30
0.0
 11
117.692273
 21
1236.078194
 31
0.0
  0
LINE
  5
C6
330
1F
100
AcDbEntity
  8
1
  6
Continuous
 62
   155
100
AcDbLine
 10
110.036023
 20
1236.078194
 30
0.0
 11
112.274793
 21
1236.078194
 31
0.0
  0
LINE
  5
C7
330
1F
100
AcDbEntity
  8
1
  6
Continuous
 62
   155
100
AcDbLine
 10
145.34364
 20
1235.078194
 30
0.0
 11
145.34364
 21
1236.078194
 31
0.0
  0
LINE
  5
C8
330
1F
100
AcDbEntity
  8
1
  6
Continuous
 62
   155
100
AcDbLine
 10
110.036023
 20
1235.078194
 30
0.0
 11
110.036023
 21
1236.078194
 31
0.0
  0
LINE
  5
C9
330
1F
100
AcDbEntity
  8
1
  6
Continuous
 62
   155
100
AcDbLine
 10
102.072156
 20
1235.078194
 30
0.0
 11
102.072156
 21
1236.078194
 31
0.0
  0
LINE
  5
CA
330
1F
100
AcDbEntity
  8
1
  6
Continuous
 62
   155
370
     5
100
AcDbLine
 10
173.661511
 20
1235.078194
 30
0.0
 11
173.661511
 21
1236.078194
 31
0.0
  0
LINE
  5
CB
330
1F
100
AcDbEntity
  8
1
  6
Continuous
 62
   155
100
AcDbLine
 10
102.072156
 20
1236.078194
 30
0.0
 11
110.036023
 21
1236.078194
 31
0.0
  0
LINE
  5
CC
330
1F
100
AcDbEntity
  8
1
  6
Continuous
 62
   155
100
AcDbLine
 10
158.434461
 20
1235.078194
 30
0.0
 11
158.434461
 21
1236.078194
 31
0.0
  0
LINE
  5
CD
330
1F
100
AcDbEntity
  8
1
  6
Continuous
 62
   155
100
AcDbLine
 10
145.993054
 20
1235.078194
 30
0.0
 11
145.993054
 21
1236.078194
 31
0.0
  0
LINE
  5
CE
330
1F
100
AcDbEntity
  8
1
  6
Continuous
 62
   155
100
AcDbLine
 10
170.807507
 20
1235.078194
 30
0.0
 11
170.807507
 21
1236.078194
 31
0.0
  0
LINE
  5
CF
330
1F
100
AcDbEntity
  8
1
  6
Continuous
 62
   155
100
AcDbLine
 10
136.115125
 20
1235.078194
 30
0.0
 11
136.115125
 21
1236.078194
 31
0.0
  0
LINE
  5
D0
330
1F
100
AcDbEntity
  8
1
  6
Continuous
 62
   155
100
AcDbLine
 10
125.963757
 20
1235.078194
 30
0.0
 11
125.963757
 21
1236.078194
 31
0.0
  0
LINE
  5
D1
330
1F
100
AcDbEntity
  8
1
  6
Continuous
 62
   155
100
AcDbLine
 10
170.1580929999999
 20
1235.078194
 30
0.0
 11
170.1580929999999
 21
1236.078194
 31
0.0
  0
LINE
  5
D2
330
1F
100
AcDbEntity
  8
1
  6
Continuous
 62
   155
100
AcDbLine
 10
196.055066
 20
1235.078194
 30
0.0
 11
89.055066
 21
1235.078194
 31
0.0
  0
LINE
  5
D3
330
1F
100
AcDbEntity
  8
1
  6
Continuous
 62
   155
100
AcDbLine
 10
125.963757
 20
1236.078194
 30
0.0
 11
133.927625
 21
1236.078194
 31
0.0
  0
LINE
  5
D4
330
1F
100
AcDbEntity
  8
1
  6
Continuous
 62
   155
100
AcDbLine
 10
133.927625
 20
1235.078194
 30
0.0
 11
133.927625
 21
1236.078194
 31
0.0
  0
LINE
  5
D5
330
1F
100
AcDbEntity
  8
1
  6
Continuous
 62
   155
100
AcDbLine
 10
62.055066
 20
1208.078194
 30
0.0
 11
89.055066
 21
1235.078194
 31
0.0
  0
LINE
  5
D6
330
1F
100
AcDbEntity
  8
1
  6
Continuous
 62
   155
100
AcDbLine
 10
160.929578
 20
1235.078194
 30
0.0
 11
160.929578
 21
1236.078194
 31
0.0
  0
LINE
  5
D7
330
1F
100
AcDbEntity
  8
1
  6
Continuous
 62
   155
100
AcDbLine
 10
160.929578
 20
1236.078194
 30
0.0
 11
170.1580929999999
 21
1236.078194
 31
0.0
  0
LINE
  5
D8
330
1F
100
AcDbEntity
  8
1
  6
Continuous
 62
   155
100
AcDbLine
 10
118.307507
 20
1236.078194
 30
0.0
 11
123.724988
 21
1236.078194
 31
0.0
  0
LINE
  5
D9
330
1F
100
AcDbEntity
  8
1
  6
Continuous
 62
   155
100
AcDbLine
 10
223.055066
 20
1208.078194
 30
0.0
 11
196.055066
 21
1235.078194
 31
0.0
  0
LINE
  5
DA
330
1F
100
AcDbEntity
  8
1
  6
Continuous
 62
   155
100
AcDbLine
 10
118.307507
 20
1235.078194
 30
0.0
 11
118.307507
 21
1236.078194
 31
0.0
  0
LINE
  5
DB
330
1F
100
AcDbEntity
  8
1
  6
Continuous
 62
   155
100
AcDbLine
 10
123.724988
 20
1235.078194
 30
0.0
 11
123.724988
 21
1236.078194
 31
0.0
  0
LINE
  5
DC
330
1F
100
AcDbEntity
  8
1
  6
Continuous
 62
   155
100
AcDbLine
 10
123.724988
 20
1236.078194
 30
0.0
 11
125.963757
 21
1236.078194
 31
0.0
  0
LINE
  5
DD
330
1F
100
AcDbEntity
  8
1
  6
Continuous
 62
   155
370
     5
100
AcDbLine
 10
39.555066
 20
1047.078194
 30
0.0
 11
14.888313
 21
1047.078194
 31
0.0
  0
LINE
  5
DE
330
1F
100
AcDbEntity
  8
1
  6
Continuous
 62
   155
100
AcDbLine
 10
223.555066
 20
1202.078194
 30
0.0
 11
61.555066
 21
1202.078194
 31
0.0
  0
LINE
  5
DF
330
1F
100
AcDbEntity
  8
1
  6
Continuous
 62
   155
100
AcDbLine
 10
58.555066
 20
920.578225
 30
0.0
 11
58.555066
 21
915.0781939999999
 31
0.0
  0
LINE
  5
E0
330
1F
100
AcDbEntity
  8
1
  6
Continuous
 62
   155
100
AcDbLine
 10
58.555066
 20
915.0781939999999
 30
0.0
 11
11.555066
 21
915.0781939999999
 31
0.0
  0
LINE
  5
E1
330
1F
100
AcDbEntity
  8
1
  6
Continuous
 62
   155
100
AcDbLine
 10
11.555066
 20
929.078194
 30
0.0
 11
50.054675
 21
929.078194
 31
0.0
  0
LINE
  5
E2
330
1F
100
AcDbEntity
  8
1
  6
Continuous
 62
   155
100
AcDbLine
 10
11.555066
 20
915.0781939999999
 30
0.0
 11
11.555066
 21
929.078194
 31
0.0
  0
LINE
  5
E3
330
1F
100
AcDbEntity
  8
1
  6
Continuous
 62
   155
100
AcDbLine
 10
1363.172357
 20
915.0781939999999
 30
0.0
 11
1316.172357
 21
915.0781939999999
 31
0.0
  0
LINE
  5
E4
330
1F
100
AcDbEntity
  8
1
  6
Continuous
 62
   155
100
AcDbLine
 10
1316.172357
 20
915.0781939999999
 30
0.0
 11
1316.172357
 21
929.078194
 31
0.0
  0
LINE
  5
E5
330
1F
100
AcDbEntity
  8
1
  6
Continuous
 62
   155
100
AcDbLine
 10
1527.172357
 20
922.0063970000001
 30
0.0
 11
1531.172357
 21
915.0781939999999
 31
0.0
  0
LINE
  5
E6
330
1F
100
AcDbEntity
  8
1
  6
Continuous
 62
   155
100
AcDbLine
 10
1363.172357
 20
929.078194
 30
0.0
 11
1363.172357
 21
915.0781939999999
 31
0.0
  0
LINE
  5
E7
330
1F
100
AcDbEntity
  8
1
  6
Continuous
 62
   155
100
AcDbLine
 10
1568.672357
 20
929.078194
 30
0.0
 11
1550.172357
 21
947.5781939999999
 31
0.0
  0
LINE
  5
E8
330
1F
100
AcDbEntity
  8
1
  6
Continuous
 62
   155
100
AcDbLine
 10
1550.172357
 20
947.5781939999999
 30
0.0
 11
1550.172357
 21
961.0781939999998
 31
0.0
  0
LINE
  5
E9
330
1F
100
AcDbEntity
  8
1
  6
Continuous
 62
   155
370
     5
100
AcDbLine
 10
1510.758666
 20
1105.414503
 30
0.0
 11
1509.696666
 21
1105.414503
 31
0.0
  0
LINE
  5
EA
330
1F
100
AcDbEntity
  8
1
  6
Continuous
 62
   155
370
     5
100
AcDbLine
 10
1388.836047
 20
1110.664503
 30
0.0
 11
1388.836047
 21
1109.602503
 31
0.0
  0
LINE
  5
EB
330
1F
100
AcDbEntity
  8
1
  6
Continuous
 62
   155
370
     5
100
AcDbLine
 10
1384.648047
 20
988.741884
 30
0.0
 11
1383.586047
 21
988.741884
 31
0.0
  0
LINE
  5
EC
330
1F
100
AcDbEntity
  8
1
  6
Continuous
 62
   155
370
     5
100
AcDbLine
 10
1505.508666
 20
988.741884
 30
0.0
 11
1505.508666
 21
984.5538840000001
 31
0.0
  0
LINE
  5
ED
330
1F
100
AcDbEntity
  8
1
  6
Continuous
 62
   155
370
     5
100
AcDbLine
 10
1388.836047
 20
988.741884
 30
0.0
 11
1384.648047
 21
988.741884
 31
0.0
  0
LINE
  5
EE
330
1F
100
AcDbEntity
  8
1
  6
Continuous
 62
   155
370
     5
100
AcDbLine
 10
1505.508666
 20
984.5538840000001
 30
0.0
 11
1505.508666
 21
983.491884
 31
0.0
  0
LINE
  5
EF
330
1F
100
AcDbEntity
  8
1
  6
Continuous
 62
   155
100
AcDbLine
 10
1366.172357
 20
1202.078194
 30
0.0
 11
1366.172357
 21
1208.078194
 31
0.0
  0
LINE
  5
F0
330
1F
100
AcDbEntity
  8
1
  6
Continuous
 62
   155
370
     5
100
AcDbLine
 10
1509.696666
 20
1105.414503
 30
0.0
 11
1505.508666
 21
1105.414503
 31
0.0
  0
LINE
  5
F1
330
1F
100
AcDbEntity
  8
1
  6
Continuous
 62
   155
370
     5
100
AcDbLine
 10
1388.836047
 20
1109.602503
 30
0.0
 11
1388.836047
 21
1105.414503
 31
0.0
  0
LINE
  5
F2
330
1F
100
AcDbEntity
  8
1
  6
Continuous
 62
   155
100
AcDbLine
 10
1344.172357
 20
947.5781939999999
 30
0.0
 11
1344.172357
 21
961.0781939999998
 31
0.0
  0
LINE
  5
F3
330
1F
100
AcDbEntity
  8
1
  6
Continuous
 62
   155
370
     5
100
AcDbLine
 10
1500.258666
 20
1105.414503
 30
0.0
 11
1501.320666
 21
1105.414503
 31
0.0
  0
LINE
  5
F4
330
1F
100
AcDbEntity
  8
1
  6
Continuous
 62
   155
370
     5
100
AcDbLine
 10
1393.024047
 20
988.741884
 30
0.0
 11
1394.086047
 21
988.741884
 31
0.0
  0
LINE
  5
F5
330
1F
100
AcDbEntity
  8
1
  6
Continuous
 62
   155
370
     5
100
AcDbLine
 10
1505.508666
 20
988.741884
 30
0.0
 11
1505.508666
 21
992.9298839999999
 31
0.0
  0
LINE
  5
F6
330
1F
100
AcDbEntity
  8
1
  6
Continuous
 62
   155
370
     5
100
AcDbLine
 10
1505.508666
 20
992.9298839999999
 30
0.0
 11
1505.508666
 21
993.991884
 31
0.0
  0
LINE
  5
F7
330
1F
100
AcDbEntity
  8
1
  6
Continuous
 62
   155
370
     5
100
AcDbLine
 10
1388.836047
 20
1101.226503
 30
0.0
 11
1388.836047
 21
1105.414503
 31
0.0
  0
LINE
  5
F8
330
1F
100
AcDbEntity
  8
1
  6
Continuous
 62
   155
100
AcDbLine
 10
1367.172357
 20
922.0063970000001
 30
0.0
 11
1363.172357
 21
915.0781939999999
 31
0.0
  0
LINE
  5
F9
330
1F
100
AcDbEntity
  8
1
  6
Continuous
 62
   155
370
     5
100
AcDbLine
 10
1501.320666
 20
1105.414503
 30
0.0
 11
1505.508666
 21
1105.414503
 31
0.0
  0
LINE
  5
FA
330
1F
100
AcDbEntity
  8
1
  6
Continuous
 62
   155
370
     5
100
AcDbLine
 10
1388.836047
 20
988.741884
 30
0.0
 11
1393.024047
 21
988.741884
 31
0.0
  0
LINE
  5
FB
330
1F
100
AcDbEntity
  8
1
  6
Continuous
 62
   155
100
AcDbLine
 10
1316.172357
 20
929.078194
 30
0.0
 11
1363.172357
 21
929.078194
 31
0.0
  0
LINE
  5
FC
330
1F
100
AcDbEntity
  8
1
  6
Continuous
 62
   155
370
     5
100
AcDbLine
 10
1388.836047
 20
1100.164503
 30
0.0
 11
1388.836047
 21
1101.226503
 31
0.0
  0
LINE
  5
FD
330
1F
100
AcDbEntity
  8
1
  6
Continuous
 62
   155
100
AcDbLine
 10
1325.672357
 20
929.078194
 30
0.0
 11
1344.172357
 21
947.5781939999999
 31
0.0
  0
LINE
  5
FE
330
1F
100
AcDbEntity
  8
1
  6
Continuous
 62
   155
100
AcDbLine
 10
1577.672357
 20
967.0781939999999
 30
0.0
 11
1571.672357
 21
961.0781939999998
 31
0.0
  0
LINE
  5
FF
330
1F
100
AcDbEntity
  8
1
  6
Continuous
 62
   155
100
AcDbLine
 10
1571.672357
 20
961.0781939999998
 30
0.0
 11
1554.172037
 21
943.5778740000001
 31
0.0
  0
LINE
  5
100
330
1F
100
AcDbEntity
  8
1
  6
Continuous
 62
   155
100
AcDbLine
 10
1529.15956
 20
918.565397
 30
0.0
 11
1527.172357
 21
916.578194
 31
0.0
  0
LINE
  5
101
330
1F
100
AcDbEntity
  8
1
  6
Continuous
 62
   155
100
AcDbLine
 10
1367.172357
 20
1177.578194
 30
0.0
 11
1367.172357
 21
1202.078194
 31
0.0
  0
LINE
  5
102
330
1F
100
AcDbEntity
  8
1
  6
Continuous
 62
   155
100
AcDbLine
 10
1577.672357
 20
1127.078194
 30
0.0
 11
1577.672357
 21
967.0781939999999
 31
0.0
  0
LINE
  5
103
330
1F
100
AcDbEntity
  8
1
  6
Continuous
 62
   155
100
AcDbLine
 10
1527.172357
 20
916.578194
 30
0.0
 11
1367.172357
 21
916.578194
 31
0.0
  0
LINE
  5
104
330
1F
100
AcDbEntity
  8
1
  6
Continuous
 62
   155
100
AcDbLine
 10
1367.172357
 20
1177.578194
 30
0.0
 11
1527.172357
 21
1177.578194
 31
0.0
  0
LINE
  5
105
330
1F
100
AcDbEntity
  8
1
  6
Continuous
 62
   155
100
AcDbLine
 10
1527.172357
 20
1177.578194
 30
0.0
 11
1571.672357
 21
1133.078194
 31
0.0
  0
LINE
  5
106
330
1F
100
AcDbEntity
  8
1
  6
Continuous
 62
   155
100
AcDbLine
 10
1571.672357
 20
1133.078194
 30
0.0
 11
1577.672357
 21
1127.078194
 31
0.0
  0
LINE
  5
107
330
1F
100
AcDbEntity
  8
1
  6
Continuous
 62
   155
100
AcDbLine
 10
1316.672357
 20
967.0781939999999
 30
0.0
 11
1316.672357
 21
1127.078194
 31
0.0
  0
LINE
  5
108
330
1F
100
AcDbEntity
  8
1
  6
Continuous
 62
   155
100
AcDbLine
 10
1527.172357
 20
1177.578194
 30
0.0
 11
1527.172357
 21
1202.078194
 31
0.0
  0
LINE
  5
109
330
1F
100
AcDbEntity
  8
1
  6
Continuous
 62
   155
100
AcDbLine
 10
1322.672357
 20
961.0781939999998
 30
0.0
 11
1316.672357
 21
967.0781939999999
 31
0.0
  0
LINE
  5
10A
330
1F
100
AcDbEntity
  8
1
  6
Continuous
 62
   155
100
AcDbLine
 10
1367.172357
 20
961.0781939999998
 30
0.0
 11
1367.172357
 21
916.578194
 31
0.0
  0
LINE
  5
10B
330
1F
100
AcDbEntity
  8
1
  6
Continuous
 62
   155
370
     5
100
AcDbLine
 10
1447.172357
 20
1164.078194
 30
0.0
 11
1447.172357
 21
1147.078194
 31
0.0
  0
LINE
  5
10C
330
1F
100
AcDbEntity
  8
1
  6
Continuous
 62
   155
100
AcDbLine
 10
1571.672357
 20
1133.078194
 30
0.0
 11
1527.172357
 21
1133.078194
 31
0.0
  0
LINE
  5
10D
330
1F
100
AcDbEntity
  8
1
  6
Continuous
 62
   155
100
AcDbLine
 10
1527.172357
 20
961.0781939999998
 30
0.0
 11
1571.672357
 21
961.0781939999998
 31
0.0
  0
LINE
  5
10E
330
1F
100
AcDbEntity
  8
1
  6
Continuous
 62
   155
100
AcDbLine
 10
1367.172357
 20
1177.578194
 30
0.0
 11
1367.172357
 21
1133.078194
 31
0.0
  0
LINE
  5
10F
330
1F
100
AcDbEntity
  8
1
  6
Continuous
 62
   155
100
AcDbLine
 10
1527.172357
 20
916.578194
 30
0.0
 11
1527.172357
 21
961.0781939999998
 31
0.0
  0
LINE
  5
110
330
1F
100
AcDbEntity
  8
1
  6
Continuous
 62
   155
100
AcDbLine
 10
1367.172357
 20
916.578194
 30
0.0
 11
1365.185154
 21
918.565397
 31
0.0
  0
LINE
  5
111
330
1F
100
AcDbEntity
  8
1
  6
Continuous
 62
   155
100
AcDbLine
 10
1340.172677
 20
943.5778740000001
 30
0.0
 11
1322.672357
 21
961.0781939999998
 31
0.0
  0
LINE
  5
112
330
1F
100
AcDbEntity
  8
1
  6
Continuous
 62
   155
100
AcDbLine
 10
1367.172357
 20
1133.078194
 30
0.0
 11
1322.672357
 21
1133.078194
 31
0.0
  0
LINE
  5
113
330
1F
100
AcDbEntity
  8
1
  6
Continuous
 62
   155
100
AcDbLine
 10
1322.672357
 20
1133.078194
 30
0.0
 11
1367.172357
 21
1177.578194
 31
0.0
  0
LINE
  5
114
330
1F
100
AcDbEntity
  8
1
  6
Continuous
 62
   155
100
AcDbLine
 10
1316.672357
 20
1127.078194
 30
0.0
 11
1322.672357
 21
1133.078194
 31
0.0
  0
LINE
  5
115
330
1F
100
AcDbEntity
  8
1
  6
Continuous
 62
   155
100
AcDbLine
 10
1322.672357
 20
961.0781939999998
 30
0.0
 11
1367.172357
 21
961.0781939999998
 31
0.0
  0
LINE
  5
116
330
1F
100
AcDbEntity
  8
1
  6
Continuous
 62
   155
100
AcDbLine
 10
1527.172357
 20
1133.078194
 30
0.0
 11
1527.172357
 21
1177.578194
 31
0.0
  0
LINE
  5
117
330
1F
100
AcDbEntity
  8
1
  6
Continuous
 62
   155
100
AcDbLine
 10
1482.186517
 20
1235.078194
 30
0.0
 11
1482.186517
 21
1236.078194
 31
0.0
  0
LINE
  5
118
330
1F
100
AcDbEntity
  8
1
  6
Continuous
 62
   155
100
AcDbLine
 10
1408.666009
 20
1235.078194
 30
0.0
 11
1408.666009
 21
1236.078194
 31
0.0
  0
LINE
  5
119
330
1F
100
AcDbEntity
  8
1
  6
Continuous
 62
   155
100
AcDbLine
 10
1443.734369
 20
1235.078194
 30
0.0
 11
1443.734369
 21
1236.078194
 31
0.0
  0
LINE
  5
11A
330
1F
100
AcDbEntity
  8
1
  6
Continuous
 62
   155
100
AcDbLine
 10
1406.478509
 20
1235.078194
 30
0.0
 11
1406.478509
 21
1236.078194
 31
0.0
  0
LINE
  5
11B
330
1F
100
AcDbEntity
  8
1
  6
Continuous
 62
   155
100
AcDbLine
 10
1440.880365
 20
1236.078194
 30
0.0
 11
1443.734369
 21
1236.078194
 31
0.0
  0
LINE
  5
11C
330
1F
100
AcDbEntity
  8
1
  6
Continuous
 62
   155
100
AcDbLine
 10
1444.383783
 20
1235.078194
 30
0.0
 11
1444.383783
 21
1236.078194
 31
0.0
  0
LINE
  5
11D
330
1F
100
AcDbEntity
  8
1
  6
Continuous
 62
   155
100
AcDbLine
 10
1481.964297
 20
1236.078194
 30
0.0
 11
1482.186517
 21
1236.078194
 31
0.0
  0
LINE
  5
11E
330
1F
100
AcDbEntity
  8
1
  6
Continuous
 62
   155
100
AcDbLine
 10
1408.666009
 20
1236.078194
 30
0.0
 11
1408.7474
 21
1236.078194
 31
0.0
  0
LINE
  5
11F
330
1F
100
AcDbEntity
  8
1
  6
Continuous
 62
   155
100
AcDbLine
 10
1433.480462
 20
1236.078194
 30
0.0
 11
1433.561853
 21
1236.078194
 31
0.0
  0
LINE
  5
120
330
1F
100
AcDbEntity
  8
1
  6
Continuous
 62
   155
100
AcDbLine
 10
1433.480462
 20
1235.078194
 30
0.0
 11
1433.480462
 21
1236.078194
 31
0.0
  0
LINE
  5
121
330
1F
100
AcDbEntity
  8
1
  6
Continuous
 62
   155
100
AcDbLine
 10
1487.655267
 20
1235.078194
 30
0.0
 11
1487.655267
 21
1236.078194
 31
0.0
  0
LINE
  5
122
330
1F
100
AcDbEntity
  8
1
  6
Continuous
 62
   155
100
AcDbLine
 10
1453.612298
 20
1235.078194
 30
0.0
 11
1453.612298
 21
1236.078194
 31
0.0
  0
LINE
  5
123
330
1F
100
AcDbEntity
  8
1
  6
Continuous
 62
   155
370
     5
100
AcDbLine
 10
1440.880365
 20
1235.078194
 30
0.0
 11
1440.880365
 21
1236.078194
 31
0.0
  0
LINE
  5
124
330
1F
100
AcDbEntity
  8
1
  6
Continuous
 62
   155
100
AcDbLine
 10
1433.70263
 20
1235.078194
 30
0.0
 11
1433.70263
 21
1236.078194
 31
0.0
  0
LINE
  5
125
330
1F
100
AcDbEntity
  8
1
  6
Continuous
 62
   155
100
AcDbLine
 10
1431.292962
 20
1235.078194
 30
0.0
 11
1431.292962
 21
1236.078194
 31
0.0
  0
LINE
  5
126
330
1F
100
AcDbEntity
  8
1
  6
Continuous
 62
   155
100
AcDbLine
 10
1482.186517
 20
1236.078194
 30
0.0
 11
1487.655267
 21
1236.078194
 31
0.0
  0
LINE
  5
127
330
1F
100
AcDbEntity
  8
1
  6
Continuous
 62
   155
100
AcDbLine
 10
1444.383783
 20
1236.078194
 30
0.0
 11
1453.612298
 21
1236.078194
 31
0.0
  0
LINE
  5
128
330
1F
100
AcDbEntity
  8
1
  6
Continuous
 62
   155
100
AcDbLine
 10
1428.797845
 20
1235.078194
 30
0.0
 11
1428.797845
 21
1236.078194
 31
0.0
  0
LINE
  5
129
330
1F
100
AcDbEntity
  8
1
  6
Continuous
 62
   155
100
AcDbLine
 10
1472.03515
 20
1235.078194
 30
0.0
 11
1472.03515
 21
1236.078194
 31
0.0
  0
LINE
  5
12A
330
1F
100
AcDbEntity
  8
1
  6
Continuous
 62
   155
100
AcDbLine
 10
1366.672357
 20
1208.078194
 30
0.0
 11
1393.672357
 21
1235.078194
 31
0.0
  0
LINE
  5
12B
330
1F
100
AcDbEntity
  8
1
  6
Continuous
 62
   155
100
AcDbLine
 10
1471.419915
 20
1235.078194
 30
0.0
 11
1471.419915
 21
1236.078194
 31
0.0
  0
LINE
  5
12C
330
1F
100
AcDbEntity
  8
1
  6
Continuous
 62
   155
100
AcDbLine
 10
1461.268548
 20
1235.078194
 30
0.0
 11
1461.268548
 21
1236.078194
 31
0.0
  0
LINE
  5
12D
330
1F
100
AcDbEntity
  8
1
  6
Continuous
 62
   155
100
AcDbLine
 10
1455.799798
 20
1235.078194
 30
0.0
 11
1455.799798
 21
1236.078194
 31
0.0
  0
LINE
  5
12E
330
1F
100
AcDbEntity
  8
1
  6
Continuous
 62
   155
100
AcDbLine
 10
1461.490716
 20
1236.078194
 30
0.0
 11
1466.959466
 21
1236.078194
 31
0.0
  0
LINE
  5
12F
330
1F
100
AcDbEntity
  8
1
  6
Continuous
 62
   155
100
AcDbLine
 10
1455.799798
 20
1236.078194
 30
0.0
 11
1461.268548
 21
1236.078194
 31
0.0
  0
LINE
  5
130
330
1F
100
AcDbEntity
  8
1
  6
Continuous
 62
   155
100
AcDbLine
 10
1476.495599
 20
1235.078194
 30
0.0
 11
1476.495599
 21
1236.078194
 31
0.0
  0
LINE
  5
131
330
1F
100
AcDbEntity
  8
1
  6
Continuous
 62
   155
100
AcDbLine
 10
1527.672357
 20
1208.078194
 30
0.0
 11
1500.672357
 21
1235.078194
 31
0.0
  0
LINE
  5
132
330
1F
100
AcDbEntity
  8
1
  6
Continuous
 62
   155
100
AcDbLine
 10
1466.959466
 20
1236.078194
 30
0.0
 11
1471.419915
 21
1236.078194
 31
0.0
  0
LINE
  5
133
330
1F
100
AcDbEntity
  8
1
  6
Continuous
 62
   155
100
AcDbLine
 10
1461.268548
 20
1236.078194
 30
0.0
 11
1461.490768
 21
1236.078194
 31
0.0
  0
LINE
  5
134
330
1F
100
AcDbEntity
  8
1
  6
Continuous
 62
   155
100
AcDbLine
 10
1481.964349
 20
1235.078194
 30
0.0
 11
1481.964349
 21
1236.078194
 31
0.0
  0
LINE
  5
135
330
1F
100
AcDbEntity
  8
1
  6
Continuous
 62
   155
100
AcDbLine
 10
1416.065912
 20
1236.078194
 30
0.0
 11
1418.919915
 21
1236.078194
 31
0.0
  0
LINE
  5
136
330
1F
100
AcDbEntity
  8
1
  6
Continuous
 62
   155
100
AcDbLine
 10
1472.03515
 20
1236.078194
 30
0.0
 11
1476.495599
 21
1236.078194
 31
0.0
  0
LINE
  5
137
330
1F
100
AcDbEntity
  8
1
  6
Continuous
 62
   155
100
AcDbLine
 10
1461.490716
 20
1235.078194
 30
0.0
 11
1461.490716
 21
1236.078194
 31
0.0
  0
LINE
  5
138
330
1F
100
AcDbEntity
  8
1
  6
Continuous
 62
   155
100
AcDbLine
 10
1418.919915
 20
1235.078194
 30
0.0
 11
1418.919915
 21
1236.078194
 31
0.0
  0
LINE
  5
139
330
1F
100
AcDbEntity
  8
1
  6
Continuous
 62
   155
100
AcDbLine
 10
1500.672357
 20
1235.078194
 30
0.0
 11
1393.672357
 21
1235.078194
 31
0.0
  0
LINE
  5
13A
330
1F
100
AcDbEntity
  8
1
  6
Continuous
 62
   155
100
AcDbLine
 10
1466.959466
 20
1235.078194
 30
0.0
 11
1466.959466
 21
1236.078194
 31
0.0
  0
LINE
  5
13B
330
1F
100
AcDbEntity
  8
1
  6
Continuous
 62
   155
100
AcDbLine
 10
1476.495599
 20
1236.078194
 30
0.0
 11
1481.964349
 21
1236.078194
 31
0.0
  0
LINE
  5
13C
330
1F
100
AcDbEntity
  8
1
  6
Continuous
 62
   155
370
     5
100
AcDbLine
 10
1416.065912
 20
1235.078194
 30
0.0
 11
1416.065912
 21
1236.078194
 31
0.0
  0
LINE
  5
13D
330
1F
100
AcDbEntity
  8
1
  6
Continuous
 62
   155
100
AcDbLine
 10
1419.569329
 20
1235.078194
 30
0.0
 11
1419.569329
 21
1236.078194
 31
0.0
  0
LINE
  5
13E
330
1F
100
AcDbEntity
  8
1
  6
Continuous
 62
   155
100
AcDbLine
 10
1408.888177
 20
1235.078194
 30
0.0
 11
1408.888177
 21
1236.078194
 31
0.0
  0
LINE
  5
13F
330
1F
100
AcDbEntity
  8
1
  6
Continuous
 62
   155
100
AcDbLine
 10
1419.569329
 20
1236.078194
 30
0.0
 11
1428.797845
 21
1236.078194
 31
0.0
  0
LINE
  5
140
330
1F
100
AcDbEntity
  8
1
  6
Continuous
 62
   155
370
     5
100
AcDbLine
 10
1447.172357
 20
930.078194
 30
0.0
 11
1447.172357
 21
947.078194
 31
0.0
  0
LINE
  5
141
330
1F
100
AcDbEntity
  8
1
  6
Continuous
 62
   155
100
AcDbLine
 10
1528.172357
 20
1202.078194
 30
0.0
 11
1528.172357
 21
1208.078194
 31
0.0
  0
LINE
  5
142
330
1F
100
AcDbEntity
  8
1
  6
Continuous
 62
   155
100
AcDbLine
 10
1528.172357
 20
1202.078194
 30
0.0
 11
1366.172357
 21
1202.078194
 31
0.0
  0
LINE
  5
143
330
1F
100
AcDbEntity
  8
1
  6
Continuous
 62
   155
100
AcDbLine
 10
1528.172357
 20
1208.078194
 30
0.0
 11
1366.172357
 21
1208.078194
 31
0.0
  0
LINE
  5
144
330
1F
100
AcDbEntity
  8
1
  6
Continuous
 62
   155
100
AcDbLine
 10
1531.172357
 20
929.078194
 30
0.0
 11
1531.172357
 21
915.0781939999999
 31
0.0
  0
LINE
  5
145
330
1F
100
AcDbEntity
  8
1
  6
Continuous
 62
   155
100
AcDbLine
 10
1578.172357
 20
915.0781939999999
 30
0.0
 11
1578.172357
 21
929.078194
 31
0.0
  0
LINE
  5
146
330
1F
100
AcDbEntity
  8
1
  6
Continuous
 62
   155
100
AcDbLine
 10
1578.172357
 20
929.078194
 30
0.0
 11
1531.172357
 21
929.078194
 31
0.0
  0
LINE
  5
147
330
1F
100
AcDbEntity
  8
1
  6
Continuous
 62
   155
100
AcDbLine
 10
1531.172357
 20
915.0781939999999
 30
0.0
 11
1578.172357
 21
915.0781939999999
 31
0.0
  0
LINE
  5
148
330
1F
100
AcDbEntity
  8
1
  6
Continuous
 62
   155
100
AcDbLine
 10
889.467499
 20
673.871696
 30
0.0
 11
889.467499
 21
673.371587
 31
0.0
  0
LINE
  5
149
330
1F
100
AcDbEntity
  8
1
  6
Continuous
 62
   155
100
AcDbLine
 10
677.467499
 20
673.871696
 30
0.0
 11
889.467499
 21
673.871696
 31
0.0
  0
LINE
  5
14A
330
1F
100
AcDbEntity
  8
1
  6
Continuous
 62
   155
100
AcDbLine
 10
837.9674989999999
 20
623.371696
 30
0.0
 11
837.9674989999999
 21
462.371696
 31
0.0
  0
LINE
  5
14B
330
1F
100
AcDbEntity
  8
1
  6
Continuous
 62
   155
100
AcDbLine
 10
838.467499
 20
461.8716959999999
 30
0.0
 11
676.4674989999999
 21
461.8716959999999
 31
0.0
  0
LINE
  5
14C
330
1F
100
AcDbEntity
  8
1
  6
Continuous
 62
   155
100
AcDbLine
 10
838.467499
 20
623.871696
 30
0.0
 11
838.467499
 21
461.8716959999999
 31
0.0
  0
LINE
  5
14D
330
1F
100
AcDbEntity
  8
1
  6
Continuous
 62
   155
100
AcDbLine
 10
676.9674989999999
 20
623.371696
 30
0.0
 11
837.9674989999999
 21
623.371696
 31
0.0
  0
LINE
  5
14E
330
1F
100
AcDbEntity
  8
1
  6
Continuous
 62
   155
100
AcDbLine
 10
676.4674989999999
 20
623.871696
 30
0.0
 11
838.467499
 21
623.871696
 31
0.0
  0
LINE
  5
14F
330
1F
100
AcDbEntity
  8
1
  6
Continuous
 62
   155
100
AcDbLine
 10
606.467499
 20
607.871696
 30
0.0
 11
602.967499
 21
607.871696
 31
0.0
  0
LINE
  5
150
330
1F
100
AcDbEntity
  8
1
  6
Continuous
 62
   155
100
AcDbLine
 10
676.9674989999999
 20
462.371696
 30
0.0
 11
676.9674989999999
 21
623.371696
 31
0.0
  0
LINE
  5
151
330
1F
100
AcDbEntity
  8
1
  6
Continuous
 62
   155
100
AcDbLine
 10
837.9674989999999
 20
462.371696
 30
0.0
 11
676.9674989999999
 21
462.371696
 31
0.0
  0
LINE
  5
152
330
1F
100
AcDbEntity
  8
1
  6
Continuous
 62
   155
100
AcDbLine
 10
677.467499
 20
673.871696
 30
0.0
 11
677.467499
 21
673.371587
 31
0.0
  0
LINE
  5
153
330
1F
100
AcDbEntity
  8
1
  6
Continuous
 62
   155
100
AcDbLine
 10
1076.467499
 20
625.371696
 30
0.0
 11
1068.467499
 21
625.371696
 31
0.0
  0
LINE
  5
154
330
1F
100
AcDbEntity
  8
1
  6
Continuous
 62
   155
100
AcDbLine
 10
1023.967499
 20
412.371696
 30
0.0
 11
672.4674989999999
 21
412.371696
 31
0.0
  0
LINE
  5
155
330
1F
100
AcDbEntity
  8
1
  6
Continuous
 62
   155
100
AcDbLine
 10
1068.467499
 20
645.871696
 30
0.0
 11
1023.967499
 21
670.538449
 31
0.0
  0
LINE
  5
156
330
1F
100
AcDbEntity
  8
1
  6
Continuous
 62
   155
100
AcDbLine
 10
1068.467499
 20
645.871696
 30
0.0
 11
1068.467499
 21
439.8716959999999
 31
0.0
  0
LINE
  5
157
330
1F
100
AcDbEntity
  8
1
  6
Continuous
 62
   155
100
AcDbLine
 10
676.46742
 20
622.871696
 30
0.0
 11
672.4674989999999
 21
622.871696
 31
0.0
  0
LINE
  5
158
330
1F
100
AcDbEntity
  8
1
  6
Continuous
 62
   155
100
AcDbLine
 10
526.4674989999999
 20
561.871696
 30
0.0
 11
602.967499
 21
561.871696
 31
0.0
  0
LINE
  5
159
330
1F
100
AcDbEntity
  8
1
  6
Continuous
 62
   155
100
AcDbLine
 10
1023.967499
 20
622.871696
 30
0.0
 11
993.4674989999999
 21
622.871696
 31
0.0
  0
LINE
  5
15A
330
1F
100
AcDbEntity
  8
1
  6
Continuous
 62
   155
100
AcDbLine
 10
1023.967499
 20
462.871696
 30
0.0
 11
1023.967499
 21
622.871696
 31
0.0
  0
LINE
  5
15B
330
1F
100
AcDbEntity
  8
1
  6
Continuous
 62
   155
100
AcDbLine
 10
993.4674989999999
 20
622.871696
 30
0.0
 11
838.469311
 21
622.871696
 31
0.0
  0
LINE
  5
15C
330
1F
100
AcDbEntity
  8
1
  6
Continuous
 62
   155
100
AcDbLine
 10
1023.967499
 20
412.371696
 30
0.0
 11
1023.967499
 21
462.871696
 31
0.0
  0
LINE
  5
15D
330
1F
100
AcDbEntity
  8
1
  6
Continuous
 62
   155
100
AcDbLine
 10
672.4674989999999
 20
622.871696
 30
0.0
 11
672.4674989999999
 21
462.871696
 31
0.0
  0
LINE
  5
15E
330
1F
100
AcDbEntity
  8
1
  6
Continuous
 62
   155
100
AcDbLine
 10
526.4674989999999
 20
561.871696
 30
0.0
 11
526.4674989999999
 21
523.871696
 31
0.0
  0
LINE
  5
15F
330
1F
100
AcDbEntity
  8
1
  6
Continuous
 62
   155
100
AcDbLine
 10
993.4674989999999
 20
462.871696
 30
0.0
 11
993.4674989999999
 21
418.3716959999999
 31
0.0
  0
LINE
  5
160
330
1F
100
AcDbEntity
  8
1
  6
Continuous
 62
   155
100
AcDbLine
 10
993.4674989999999
 20
418.3716959999999
 30
0.0
 11
672.4674989999999
 21
418.3716959999999
 31
0.0
  0
LINE
  5
161
330
1F
100
AcDbEntity
  8
1
  6
Continuous
 62
   155
100
AcDbLine
 10
672.4674989999999
 20
418.3716959999999
 30
0.0
 11
672.4674989999999
 21
412.371696
 31
0.0
  0
LINE
  5
162
330
1F
100
AcDbEntity
  8
1
  6
Continuous
 62
   155
100
AcDbLine
 10
1023.967499
 20
462.871696
 30
0.0
 11
993.4674989999999
 21
462.871696
 31
0.0
  0
LINE
  5
163
330
1F
100
AcDbEntity
  8
1
  6
Continuous
 62
   155
100
AcDbLine
 10
672.4674989999999
 20
659.871696
 30
0.0
 11
660.4674989999999
 21
659.871696
 31
0.0
  0
LINE
  5
164
330
1F
100
AcDbEntity
  8
1
  6
Continuous
 62
   155
100
AcDbLine
 10
614.4674989999999
 20
442.871696
 30
0.0
 11
614.4674989999999
 21
542.871696
 31
0.0
  0
LINE
  5
165
330
1F
100
AcDbEntity
  8
1
  6
Continuous
 62
   155
100
AcDbLine
 10
606.467499
 20
442.871696
 30
0.0
 11
606.467499
 21
642.871696
 31
0.0
  0
LINE
  5
166
330
1F
100
AcDbEntity
  8
1
  6
Continuous
 62
   155
370
     5
100
AcDbLine
 10
660.4674989999999
 20
542.871696
 30
0.0
 11
614.4674989999999
 21
542.871696
 31
0.0
  0
LINE
  5
167
330
1F
100
AcDbEntity
  8
1
  6
Continuous
 62
   155
100
AcDbLine
 10
606.467499
 20
642.871696
 30
0.0
 11
614.4674989999999
 21
642.871696
 31
0.0
  0
LINE
  5
168
330
1F
100
AcDbEntity
  8
1
  6
Continuous
 62
   155
100
AcDbLine
 10
672.4674989999999
 20
418.3716959999999
 30
0.0
 11
672.4674989999999
 21
462.871696
 31
0.0
  0
LINE
  5
169
330
1F
100
AcDbEntity
  8
1
  6
Continuous
 62
   155
100
AcDbLine
 10
993.4674989999999
 20
462.871696
 30
0.0
 11
838.469311
 21
462.871696
 31
0.0
  0
LINE
  5
16A
330
1F
100
AcDbEntity
  8
1
  6
Continuous
 62
   155
100
AcDbLine
 10
1023.967499
 20
673.371696
 30
0.0
 11
672.4674989999999
 21
673.371696
 31
0.0
  0
LINE
  5
16B
330
1F
100
AcDbEntity
  8
1
  6
Continuous
 62
   155
100
AcDbLine
 10
614.4674989999999
 20
642.871696
 30
0.0
 11
614.4674989999999
 21
542.871696
 31
0.0
  0
LINE
  5
16C
330
1F
100
AcDbEntity
  8
1
  6
Continuous
 62
   155
100
AcDbLine
 10
1023.967499
 20
622.871696
 30
0.0
 11
1023.967499
 21
673.371696
 31
0.0
  0
LINE
  5
16D
330
1F
100
AcDbEntity
  8
1
  6
Continuous
 62
   155
100
AcDbLine
 10
672.4674989999999
 20
667.371696
 30
0.0
 11
993.4674989999999
 21
667.371696
 31
0.0
  0
LINE
  5
16E
330
1F
100
AcDbEntity
  8
1
  6
Continuous
 62
   155
100
AcDbLine
 10
672.4674989999999
 20
622.871696
 30
0.0
 11
672.4674989999999
 21
667.371696
 31
0.0
  0
LINE
  5
16F
330
1F
100
AcDbEntity
  8
1
  6
Continuous
 62
   155
100
AcDbLine
 10
676.46742
 20
462.871696
 30
0.0
 11
672.4674989999999
 21
462.871696
 31
0.0
  0
LINE
  5
170
330
1F
100
AcDbEntity
  8
1
  6
Continuous
 62
   155
100
AcDbLine
 10
993.4674989999999
 20
667.371696
 30
0.0
 11
993.4674989999999
 21
622.871696
 31
0.0
  0
LINE
  5
171
330
1F
100
AcDbEntity
  8
1
  6
Continuous
 62
   155
100
AcDbLine
 10
672.4674989999999
 20
673.371696
 30
0.0
 11
672.4674989999999
 21
667.371696
 31
0.0
  0
LINE
  5
172
330
1F
100
AcDbEntity
  8
1
  6
Continuous
 62
   155
100
AcDbLine
 10
614.4674989999999
 20
442.871696
 30
0.0
 11
660.4674989999999
 21
425.871696
 31
0.0
  0
LINE
  5
173
330
1F
100
AcDbEntity
  8
1
  6
Continuous
 62
   155
100
AcDbLine
 10
756.23703
 20
561.280387
 30
0.0
 11
756.23703
 21
545.6602699999999
 31
0.0
  0
LINE
  5
174
330
1F
100
AcDbEntity
  8
1
  6
Continuous
 62
   155
100
AcDbLine
 10
746.359101
 20
529.424919
 30
0.0
 11
755.587616
 21
529.424919
 31
0.0
  0
LINE
  5
175
330
1F
100
AcDbEntity
  8
1
  6
Continuous
 62
   155
100
AcDbLine
 10
727.9362490000001
 20
535.81652
 30
0.0
 11
727.9362490000001
 21
545.0450359999999
 31
0.0
  0
LINE
  5
176
330
1F
100
AcDbEntity
  8
1
  6
Continuous
 62
   155
100
AcDbLine
 10
755.587616
 20
545.0450359999999
 30
0.0
 11
746.359101
 21
545.0450359999999
 31
0.0
  0
LINE
  5
177
330
1F
100
AcDbEntity
  8
1
  6
Continuous
 62
   155
100
AcDbLine
 10
722.5187690000001
 20
535.81652
 30
0.0
 11
727.9362490000001
 21
535.81652
 31
0.0
  0
LINE
  5
178
330
1F
100
AcDbEntity
  8
1
  6
Continuous
 62
   155
100
AcDbLine
 10
759.091034
 20
561.280387
 30
0.0
 11
756.23703
 21
561.280387
 31
0.0
  0
LINE
  5
179
330
1F
100
AcDbEntity
  8
1
  6
Continuous
 62
   155
100
AcDbLine
 10
746.359101
 20
545.0450359999999
 30
0.0
 11
746.359101
 21
529.424919
 31
0.0
  0
LINE
  5
17A
330
1F
100
AcDbEntity
  8
1
  6
Continuous
 62
   155
100
AcDbLine
 10
756.23703
 20
545.6602699999999
 30
0.0
 11
765.909882
 21
545.6602699999999
 31
0.0
  0
LINE
  5
17B
330
1F
100
AcDbEntity
  8
1
  6
Continuous
 62
   155
100
AcDbLine
 10
746.359101
 20
561.280387
 30
0.0
 11
746.359101
 21
545.6602699999999
 31
0.0
  0
LINE
  5
17C
330
1F
100
AcDbEntity
  8
1
  6
Continuous
 62
   155
100
AcDbLine
 10
781.051483
 20
529.424919
 30
0.0
 11
783.905487
 21
529.424919
 31
0.0
  0
LINE
  5
17D
330
1F
100
AcDbEntity
  8
1
  6
Continuous
 62
   155
100
AcDbLine
 10
746.359101
 20
545.6602699999999
 30
0.0
 11
755.587616
 21
545.6602699999999
 31
0.0
  0
LINE
  5
17E
330
1F
100
AcDbEntity
  8
1
  6
Continuous
 62
   155
100
AcDbLine
 10
756.23703
 20
529.424919
 30
0.0
 11
759.091034
 21
529.424919
 31
0.0
  0
LINE
  5
17F
330
1F
100
AcDbEntity
  8
1
  6
Continuous
 62
   155
100
AcDbLine
 10
727.9362490000001
 20
545.0450359999999
 30
0.0
 11
717.7848820000001
 21
545.0450359999999
 31
0.0
  0
LINE
  5
180
330
1F
100
AcDbEntity
  8
1
  6
Continuous
 62
   155
100
AcDbLine
 10
755.587616
 20
529.424919
 30
0.0
 11
755.587616
 21
545.0450359999999
 31
0.0
  0
LINE
  5
181
330
1F
100
AcDbEntity
  8
1
  6
Continuous
 62
   155
100
AcDbLine
 10
791.3053900000001
 20
545.0450359999999
 30
0.0
 11
781.051483
 21
545.0450359999999
 31
0.0
  0
LINE
  5
182
330
1F
100
AcDbEntity
  8
1
  6
Continuous
 62
   155
100
AcDbLine
 10
720.279999
 20
529.424919
 30
0.0
 11
722.5187690000001
 21
535.81652
 31
0.0
  0
LINE
  5
183
330
1F
100
AcDbEntity
  8
1
  6
Continuous
 62
   155
100
AcDbLine
 10
781.051483
 20
545.0450359999999
 30
0.0
 11
781.051483
 21
529.424919
 31
0.0
  0
LINE
  5
184
330
1F
100
AcDbEntity
  8
1
  6
Continuous
 62
   155
100
AcDbLine
 10
766.490937
 20
545.0450359999999
 30
0.0
 11
756.23703
 21
545.0450359999999
 31
0.0
  0
LINE
  5
185
330
1F
100
AcDbEntity
  8
1
  6
Continuous
 62
   155
100
AcDbLine
 10
756.23703
 20
545.0450359999999
 30
0.0
 11
756.23703
 21
529.424919
 31
0.0
  0
LINE
  5
186
330
1F
100
AcDbEntity
  8
1
  6
Continuous
 62
   155
100
AcDbLine
 10
712.3161320000001
 20
529.424919
 30
0.0
 11
720.279999
 21
529.424919
 31
0.0
  0
LINE
  5
187
330
1F
100
AcDbEntity
  8
1
  6
Continuous
 62
   155
100
AcDbLine
 10
755.587616
 20
545.6602699999999
 30
0.0
 11
755.587616
 21
561.280387
 31
0.0
  0
LINE
  5
188
330
1F
100
AcDbEntity
  8
1
  6
Continuous
 62
   155
100
AcDbLine
 10
717.7848820000001
 20
545.0450359999999
 30
0.0
 11
712.3161320000001
 21
529.424919
 31
0.0
  0
LINE
  5
189
330
1F
100
AcDbEntity
  8
1
  6
Continuous
 62
   155
100
AcDbLine
 10
755.587616
 20
561.280387
 30
0.0
 11
746.359101
 21
561.280387
 31
0.0
  0
LINE
  5
18A
330
1F
100
AcDbEntity
  8
1
  6
Continuous
 62
   155
100
AcDbLine
 10
728.5514830000001
 20
561.280387
 30
0.0
 11
728.5514830000001
 21
545.6602699999999
 31
0.0
  0
LINE
  5
18B
330
1F
100
AcDbEntity
  8
1
  6
Continuous
 62
   155
100
AcDbLine
 10
718.00705
 20
545.6602699999999
 30
0.0
 11
727.9362490000001
 21
545.6602699999999
 31
0.0
  0
LINE
  5
18C
330
1F
100
AcDbEntity
  8
1
  6
Continuous
 62
   155
100
AcDbLine
 10
780.4020690000001
 20
545.6602699999999
 30
0.0
 11
780.4020690000001
 21
561.280387
 31
0.0
  0
LINE
  5
18D
330
1F
100
AcDbEntity
  8
1
  6
Continuous
 62
   155
100
AcDbLine
 10
781.051483
 20
561.280387
 30
0.0
 11
781.051483
 21
545.6602699999999
 31
0.0
  0
LINE
  5
18E
330
1F
100
AcDbEntity
  8
1
  6
Continuous
 62
   155
100
AcDbLine
 10
781.051483
 20
545.6602699999999
 30
0.0
 11
790.7243349999999
 21
545.6602699999999
 31
0.0
  0
LINE
  5
18F
330
1F
100
AcDbEntity
  8
1
  6
Continuous
 62
   155
100
AcDbLine
 10
676.9674989999999
 20
623.371696
 30
0.0
 11
703.9674989999999
 21
596.371696
 31
0.0
  0
LINE
  5
190
330
1F
100
AcDbEntity
  8
1
  6
Continuous
 62
   155
100
AcDbLine
 10
810.967499
 20
596.371696
 30
0.0
 11
810.967499
 21
489.3716959999999
 31
0.0
  0
LINE
  5
191
330
1F
100
AcDbEntity
  8
1
  6
Continuous
 62
   155
100
AcDbLine
 10
727.9362490000001
 20
545.6602699999999
 30
0.0
 11
727.9362490000001
 21
561.280387
 31
0.0
  0
LINE
  5
192
330
1F
100
AcDbEntity
  8
1
  6
Continuous
 62
   155
100
AcDbLine
 10
736.207733
 20
529.424919
 30
0.0
 11
744.171601
 21
529.424919
 31
0.0
  0
LINE
  5
193
330
1F
100
AcDbEntity
  8
1
  6
Continuous
 62
   155
100
AcDbLine
 10
780.4020690000001
 20
545.0450359999999
 30
0.0
 11
771.1735540000001
 21
545.0450359999999
 31
0.0
  0
LINE
  5
194
330
1F
100
AcDbEntity
  8
1
  6
Continuous
 62
   155
100
AcDbLine
 10
837.9674989999999
 20
462.371696
 30
0.0
 11
810.967499
 21
489.3716959999999
 31
0.0
  0
LINE
  5
195
330
1F
100
AcDbEntity
  8
1
  6
Continuous
 62
   155
100
AcDbLine
 10
738.4806830000001
 20
545.6602699999999
 30
0.0
 11
733.0119330000001
 21
561.280387
 31
0.0
  0
LINE
  5
196
330
1F
100
AcDbEntity
  8
1
  6
Continuous
 62
   155
100
AcDbLine
 10
744.171601
 20
529.424919
 30
0.0
 11
738.702851
 21
545.0450359999999
 31
0.0
  0
LINE
  5
197
330
1F
100
AcDbEntity
  8
1
  6
Continuous
 62
   155
100
AcDbLine
 10
771.1735540000001
 20
545.6602699999999
 30
0.0
 11
780.4020690000001
 21
545.6602699999999
 31
0.0
  0
LINE
  5
198
330
1F
100
AcDbEntity
  8
1
  6
Continuous
 62
   155
100
AcDbLine
 10
676.9674989999999
 20
462.371696
 30
0.0
 11
703.9674989999999
 21
489.3716959999999
 31
0.0
  0
LINE
  5
199
330
1F
100
AcDbEntity
  8
1
  6
Continuous
 62
   155
100
AcDbLine
 10
733.0119330000001
 20
561.280387
 30
0.0
 11
728.5514830000001
 21
561.280387
 31
0.0
  0
LINE
  5
19A
330
1F
100
AcDbEntity
  8
1
  6
Continuous
 62
   155
100
AcDbLine
 10
738.702851
 20
545.0450359999999
 30
0.0
 11
728.5514830000001
 21
545.0450359999999
 31
0.0
  0
LINE
  5
19B
330
1F
100
AcDbEntity
  8
1
  6
Continuous
 62
   155
100
AcDbLine
 10
771.1735540000001
 20
529.424919
 30
0.0
 11
780.4020690000001
 21
529.424919
 31
0.0
  0
LINE
  5
19C
330
1F
100
AcDbEntity
  8
1
  6
Continuous
 62
   155
100
AcDbLine
 10
771.1735540000001
 20
561.280387
 30
0.0
 11
771.1735540000001
 21
545.6602699999999
 31
0.0
  0
LINE
  5
19D
330
1F
100
AcDbEntity
  8
1
  6
Continuous
 62
   155
100
AcDbLine
 10
728.5514830000001
 20
545.6602699999999
 30
0.0
 11
738.4806830000001
 21
545.6602699999999
 31
0.0
  0
LINE
  5
19E
330
1F
100
AcDbEntity
  8
1
  6
Continuous
 62
   155
100
AcDbLine
 10
810.967499
 20
489.3716959999999
 30
0.0
 11
703.9674989999999
 21
489.3716959999999
 31
0.0
  0
LINE
  5
19F
330
1F
100
AcDbEntity
  8
1
  6
Continuous
 62
   155
100
AcDbLine
 10
783.905487
 20
561.280387
 30
0.0
 11
781.051483
 21
561.280387
 31
0.0
  0
LINE
  5
1A0
330
1F
100
AcDbEntity
  8
1
  6
Continuous
 62
   155
100
AcDbLine
 10
728.5514830000001
 20
545.0450359999999
 30
0.0
 11
728.5514830000001
 21
535.81652
 31
0.0
  0
LINE
  5
1A1
330
1F
100
AcDbEntity
  8
1
  6
Continuous
 62
   155
100
AcDbLine
 10
771.1735540000001
 20
545.0450359999999
 30
0.0
 11
771.1735540000001
 21
529.424919
 31
0.0
  0
LINE
  5
1A2
330
1F
100
AcDbEntity
  8
1
  6
Continuous
 62
   155
100
AcDbLine
 10
728.5514830000001
 20
535.81652
 30
0.0
 11
733.968964
 21
535.81652
 31
0.0
  0
LINE
  5
1A3
330
1F
100
AcDbEntity
  8
1
  6
Continuous
 62
   155
100
AcDbLine
 10
837.9674989999999
 20
623.371696
 30
0.0
 11
810.967499
 21
596.371696
 31
0.0
  0
LINE
  5
1A4
330
1F
100
AcDbEntity
  8
1
  6
Continuous
 62
   155
100
AcDbLine
 10
780.4020690000001
 20
529.424919
 30
0.0
 11
780.4020690000001
 21
545.0450359999999
 31
0.0
  0
LINE
  5
1A5
330
1F
100
AcDbEntity
  8
1
  6
Continuous
 62
   155
100
AcDbLine
 10
727.9362490000001
 20
561.280387
 30
0.0
 11
723.4758
 21
561.280387
 31
0.0
  0
LINE
  5
1A6
330
1F
100
AcDbEntity
  8
1
  6
Continuous
 62
   155
100
AcDbLine
 10
703.9674989999999
 20
596.371696
 30
0.0
 11
810.967499
 21
596.371696
 31
0.0
  0
LINE
  5
1A7
330
1F
100
AcDbEntity
  8
1
  6
Continuous
 62
   155
100
AcDbLine
 10
703.9674989999999
 20
489.3716959999999
 30
0.0
 11
703.9674989999999
 21
596.371696
 31
0.0
  0
LINE
  5
1A8
330
1F
100
AcDbEntity
  8
1
  6
Continuous
 62
   155
100
AcDbLine
 10
723.4758
 20
561.280387
 30
0.0
 11
718.00705
 21
545.6602699999999
 31
0.0
  0
LINE
  5
1A9
330
1F
100
AcDbEntity
  8
1
  6
Continuous
 62
   155
100
AcDbLine
 10
780.4020690000001
 20
561.280387
 30
0.0
 11
771.1735540000001
 21
561.280387
 31
0.0
  0
LINE
  5
1AA
330
1F
100
AcDbEntity
  8
1
  6
Continuous
 62
   155
100
AcDbLine
 10
733.968964
 20
535.81652
 30
0.0
 11
736.207733
 21
529.424919
 31
0.0
  0
LINE
  5
1AB
330
1F
100
AcDbEntity
  8
1
  6
Continuous
 62
   155
100
AcDbLine
 10
606.467499
 20
442.871696
 30
0.0
 11
614.4674989999999
 21
442.871696
 31
0.0
  0
LINE
  5
1AC
330
1F
100
AcDbEntity
  8
1
  6
Continuous
 62
   155
100
AcDbLine
 10
1068.467499
 20
439.8716959999999
 30
0.0
 11
1023.967499
 21
415.2049429999999
 31
0.0
  0
LINE
  5
1AD
330
1F
100
AcDbEntity
  8
1
  6
Continuous
 62
   155
100
AcDbLine
 10
1076.467499
 20
460.3716959999999
 30
0.0
 11
1068.467499
 21
460.3716959999999
 31
0.0
  0
LINE
  5
1AE
330
1F
100
AcDbEntity
  8
1
  6
Continuous
 62
   155
100
AcDbLine
 10
1076.467499
 20
460.3716959999999
 30
0.0
 11
1076.467499
 21
625.371696
 31
0.0
  0
LINE
  5
1AF
330
1F
100
AcDbEntity
  8
1
  6
Continuous
 62
   155
100
AcDbLine
 10
672.4674989999999
 20
425.871696
 30
0.0
 11
660.4674989999999
 21
425.871696
 31
0.0
  0
LINE
  5
1B0
330
1F
100
AcDbEntity
  8
1
  6
Continuous
 62
   155
100
AcDbLine
 10
602.967499
 20
607.871696
 30
0.0
 11
602.967499
 21
477.8716959999999
 31
0.0
  0
LINE
  5
1B1
330
1F
100
AcDbEntity
  8
1
  6
Continuous
 62
   155
100
AcDbLine
 10
526.4674989999999
 20
523.871696
 30
0.0
 11
602.967499
 21
523.871696
 31
0.0
  0
LINE
  5
1B2
330
1F
100
AcDbEntity
  8
1
  6
Continuous
 62
   155
100
AcDbLine
 10
660.4674989999999
 20
542.871696
 30
0.0
 11
660.4674989999999
 21
425.871696
 31
0.0
  0
LINE
  5
1B3
330
1F
100
AcDbEntity
  8
1
  6
Continuous
 62
   155
100
AcDbLine
 10
606.467499
 20
477.8716959999999
 30
0.0
 11
602.967499
 21
477.8716959999999
 31
0.0
  0
LINE
  5
1B4
330
1F
100
AcDbEntity
  8
1
  6
Continuous
 62
   155
100
AcDbLine
 10
660.4674989999999
 20
659.871696
 30
0.0
 11
660.4674989999999
 21
542.871696
 31
0.0
  0
LINE
  5
1B5
330
1F
100
AcDbEntity
  8
1
  6
Continuous
 62
   155
100
AcDbLine
 10
660.4674989999999
 20
659.871696
 30
0.0
 11
614.4674989999999
 21
642.871696
 31
0.0
  0
LINE
  5
1B6
330
1F
100
AcDbEntity
  8
1
  6
Continuous
 62
   155
100
AcDbLine
 10
676.4674989999999
 20
461.8716959999999
 30
0.0
 11
676.4674989999999
 21
623.871696
 31
0.0
  0
LINE
  5
1B7
330
1F
100
AcDbEntity
  8
1
  6
Continuous
 62
   155
100
AcDbLine
 10
889.467499
 20
411.8716959999999
 30
0.0
 11
889.467499
 21
412.3718049999999
 31
0.0
  0
LINE
  5
1B8
330
1F
100
AcDbEntity
  8
1
  6
Continuous
 62
   155
100
AcDbLine
 10
677.467499
 20
411.8716959999999
 30
0.0
 11
677.467499
 21
412.3718049999999
 31
0.0
  0
LINE
  5
1B9
330
1F
100
AcDbEntity
  8
1
  6
Continuous
 62
   155
100
AcDbLine
 10
677.467499
 20
411.8716959999999
 30
0.0
 11
889.467499
 21
411.8716959999999
 31
0.0
  0
ARC
  5
1BA
330
1F
100
AcDbEntity
  8
1
  6
Continuous
 62
   155
100
AcDbCircle
 10
-813.467499
 20
1190.478194
 30
0.0
 40
6.25
210
0.0
220
0.0
230
-1.0
100
AcDbArc
 50
270.0
 51
90.0
  0
ARC
  5
1BB
330
1F
100
AcDbEntity
  8
1
  6
Continuous
 62
   155
100
AcDbCircle
 10
-813.467499
 20
1190.478194
 30
0.0
 40
6.25
210
0.0
220
0.0
230
-1.0
100
AcDbArc
 50
90.0
 51
270.0
  0
ARC
  5
1BC
330
1F
100
AcDbEntity
  8
1
  6
Continuous
 62
   155
100
AcDbCircle
 10
-779.4674989999999
 20
1170.578194
 30
0.0
 40
16.25
210
0.0
220
0.0
230
-1.0
100
AcDbArc
 50
270.0
 51
90.0
  0
ARC
  5
1BD
330
1F
100
AcDbEntity
  8
1
  6
Continuous
 62
   155
100
AcDbCircle
 10
-719.467499
 20
1170.578194
 30
0.0
 40
20.25
210
0.0
220
0.0
230
-1.0
100
AcDbArc
 50
270.0
 51
90.0
  0
ARC
  5
1BE
330
1F
100
AcDbEntity
  8
1
  6
Continuous
 62
   155
100
AcDbCircle
 10
-719.467499
 20
1170.578194
 30
0.0
 40
20.25
210
0.0
220
0.0
230
-1.0
100
AcDbArc
 50
90.0
 51
270.0
  0
ARC
  5
1BF
330
1F
100
AcDbEntity
  8
1
  6
Continuous
 62
   155
100
AcDbCircle
 10
-779.4674989999999
 20
1170.578194
 30
0.0
 40
16.25
210
0.0
220
0.0
230
-1.0
100
AcDbArc
 50
90.0
 51
270.0
  0
ARC
  5
1C0
330
1F
100
AcDbEntity
  8
1
  6
Continuous
 62
   155
100
AcDbCircle
 10
142.555066
 20
1047.078194
 30
0.0
 40
103.0
100
AcDbArc
 50
180.0
 51
0.0
  0
ARC
  5
1C1
330
1F
100
AcDbEntity
  8
1
  6
Continuous
 62
   155
100
AcDbCircle
 10
142.555066
 20
1047.078194
 30
0.0
 40
103.0
100
AcDbArc
 50
0.0
 51
180.0
  0
ARC
  5
1C2
330
1F
100
AcDbEntity
  8
1
  6
Continuous
 62
   155
100
AcDbCircle
 10
-142.555066
 20
1047.078194
 30
0.0
 40
80.0
210
0.0
220
0.0
230
-1.0
100
AcDbArc
 50
0.0
 51
180.0
  0
ARC
  5
1C3
330
1F
100
AcDbEntity
  8
1
  6
Continuous
 62
   155
100
AcDbCircle
 10
-142.555066
 20
1047.078194
 30
0.0
 40
80.0
210
0.0
220
0.0
230
-1.0
100
AcDbArc
 50
180.0
 51
0.0
  0
ARC
  5
1C4
330
1F
100
AcDbEntity
  8
1
  6
Continuous
 62
   155
100
AcDbCircle
 10
-142.555066
 20
1047.078194
 30
0.0
 40
127.666752789648
210
0.0
220
0.0
230
-1.0
100
AcDbArc
 50
180.0
 51
0.0
  0
ARC
  5
1C5
330
1F
100
AcDbEntity
  8
1
  6
Continuous
 62
   155
100
AcDbCircle
 10
-142.555066
 20
1047.078194
 30
0.0
 40
82.5
210
0.0
220
0.0
230
-1.0
100
AcDbArc
 50
180.0
 51
0.0
  0
ARC
  5
1C6
330
1F
100
AcDbEntity
  8
1
  6
Continuous
 62
   155
100
AcDbCircle
 10
-142.555066
 20
1047.078194
 30
0.0
 40
127.666752789648
210
0.0
220
0.0
230
-1.0
100
AcDbArc
 50
0.0
 51
180.0
  0
ARC
  5
1C7
330
1F
100
AcDbEntity
  8
1
  6
Continuous
 62
   155
100
AcDbCircle
 10
-142.555066
 20
1047.078194
 30
0.0
 40
82.5
210
0.0
220
0.0
230
-1.0
100
AcDbArc
 50
0.0
 51
180.0
  0
ARC
  5
1C8
330
1F
100
AcDbEntity
  8
1
  6
Continuous
 62
   155
100
AcDbCircle
 10
-1447.172357
 20
1047.078194
 30
0.0
 40
61.0
210
0.0
220
0.0
230
-1.0
100
AcDbArc
 50
180.0
 51
0.0
  0
ARC
  5
1C9
330
1F
100
AcDbEntity
  8
1
  6
Continuous
 62
   155
100
AcDbCircle
 10
-1447.172357
 20
1047.078194
 30
0.0
 40
35.0
210
0.0
220
0.0
230
-1.0
100
AcDbArc
 50
180.0
 51
0.0
  0
ARC
  5
1CA
330
1F
100
AcDbEntity
  8
1
  6
Continuous
 62
   155
100
AcDbCircle
 10
1505.508666
 20
988.741884
 30
0.0
 40
4.187999999999999
100
AcDbArc
 50
90.0
 51
270.0
  0
ARC
  5
1CB
330
1F
100
AcDbEntity
  8
1
  6
Continuous
 62
   155
100
AcDbCircle
 10
-1447.172357
 20
1047.078194
 30
0.0
 40
31.0
210
0.0
220
0.0
230
-1.0
100
AcDbArc
 50
180.0
 51
0.0
  0
ARC
  5
1CC
330
1F
100
AcDbEntity
  8
1
  6
Continuous
 62
   155
100
AcDbCircle
 10
-1447.172357
 20
1047.078194
 30
0.0
 40
61.0
210
0.0
220
0.0
230
-1.0
100
AcDbArc
 50
0.0
 51
180.0
  0
ARC
  5
1CD
330
1F
100
AcDbEntity
  8
1
  6
Continuous
 62
   155
100
AcDbCircle
 10
1388.836047
 20
988.741884
 30
0.0
 40
4.187999999999999
100
AcDbArc
 50
0.0
 51
180.0
  0
ARC
  5
1CE
330
1F
100
AcDbEntity
  8
1
  6
Continuous
 62
   155
100
AcDbCircle
 10
-1447.172357
 20
1047.078194
 30
0.0
 40
65.0
210
0.0
220
0.0
230
-1.0
100
AcDbArc
 50
180.0
 51
0.0
  0
ARC
  5
1CF
330
1F
100
AcDbEntity
  8
1
  6
Continuous
 62
   155
100
AcDbCircle
 10
1505.508666
 20
1105.414503
 30
0.0
 40
4.187999999999999
100
AcDbArc
 50
180.0
 51
0.0
  0
ARC
  5
1D0
330
1F
100
AcDbEntity
  8
1
  6
Continuous
 62
   155
100
AcDbCircle
 10
1447.172357
 20
1047.078194
 30
0.0
 40
20.0
100
AcDbArc
 50
180.0
 51
0.0
  0
ARC
  5
1D1
330
1F
100
AcDbEntity
  8
1
  6
Continuous
 62
   155
100
AcDbCircle
 10
1388.836047
 20
1105.414503
 30
0.0
 40
4.187999999999999
100
AcDbArc
 50
270.0
 51
90.0
  0
ARC
  5
1D2
330
1F
100
AcDbEntity
  8
1
  6
Continuous
 62
   155
100
AcDbCircle
 10
1447.172357
 20
1047.078194
 30
0.0
 40
20.0
100
AcDbArc
 50
0.0
 51
180.0
  0
ARC
  5
1D3
330
1F
100
AcDbEntity
  8
1
  6
Continuous
 62
   155
100
AcDbCircle
 10
-1447.172357
 20
1047.078194
 30
0.0
 40
31.0
210
0.0
220
0.0
230
-1.0
100
AcDbArc
 50
0.0
 51
180.0
  0
ARC
  5
1D4
330
1F
100
AcDbEntity
  8
1
  6
Continuous
 62
   155
100
AcDbCircle
 10
1505.508666
 20
1105.414503
 30
0.0
 40
4.187999999999999
100
AcDbArc
 50
0.0
 51
180.0
  0
ARC
  5
1D5
330
1F
100
AcDbEntity
  8
1
  6
Continuous
 62
   155
100
AcDbCircle
 10
1505.508666
 20
988.741884
 30
0.0
 40
4.187999999999999
100
AcDbArc
 50
270.0
 51
90.0
  0
ARC
  5
1D6
330
1F
100
AcDbEntity
  8
1
  6
Continuous
 62
   155
100
AcDbCircle
 10
1388.836047
 20
1105.414503
 30
0.0
 40
4.187999999999999
100
AcDbArc
 50
90.0
 51
270.0
  0
ARC
  5
1D7
330
1F
100
AcDbEntity
  8
1
  6
Continuous
 62
   155
100
AcDbCircle
 10
1388.836047
 20
988.741884
 30
0.0
 40
4.187999999999999
100
AcDbArc
 50
180.0
 51
0.0
  0
ARC
  5
1D8
330
1F
100
AcDbEntity
  8
1
  6
Continuous
 62
   155
100
AcDbCircle
 10
-1447.172357
 20
1047.078194
 30
0.0
 40
19.0
210
0.0
220
0.0
230
-1.0
100
AcDbArc
 50
0.0
 51
180.0
  0
ARC
  5
1D9
330
1F
100
AcDbEntity
  8
1
  6
Continuous
 62
   155
100
AcDbCircle
 10
-1505.508666
 20
1105.414503
 30
0.0
 40
5.250000000000009
210
0.0
220
0.0
230
-1.0
100
AcDbArc
 50
0.0
 51
180.0
  0
ARC
  5
1DA
330
1F
100
AcDbEntity
  8
1
  6
Continuous
 62
   155
100
AcDbCircle
 10
1447.172357
 20
1047.078194
 30
0.0
 40
100.0
100
AcDbArc
 50
180.0
 51
0.0
  0
ARC
  5
1DB
330
1F
100
AcDbEntity
  8
1
  6
Continuous
 62
   155
100
AcDbCircle
 10
-1505.508666
 20
988.741884
 30
0.0
 40
5.250000000000009
210
0.0
220
0.0
230
-1.0
100
AcDbArc
 50
270.0
 51
90.0
  0
ARC
  5
1DC
330
1F
100
AcDbEntity
  8
1
  6
Continuous
 62
   155
100
AcDbCircle
 10
-1505.508666
 20
988.741884
 30
0.0
 40
5.250000000000009
210
0.0
220
0.0
230
-1.0
100
AcDbArc
 50
90.0
 51
270.0
  0
ARC
  5
1DD
330
1F
100
AcDbEntity
  8
1
  6
Continuous
 62
   155
100
AcDbCircle
 10
-1447.172357
 20
1047.078194
 30
0.0
 40
117.0
210
0.0
220
0.0
230
-1.0
100
AcDbArc
 50
180.0
 51
270.0
  0
ARC
  5
1DE
330
1F
100
AcDbEntity
  8
1
  6
Continuous
 62
   155
100
AcDbCircle
 10
1447.172357
 20
1047.078194
 30
0.0
 40
100.0
100
AcDbArc
 50
0.0
 51
180.0
  0
ARC
  5
1DF
330
1F
100
AcDbEntity
  8
1
  6
Continuous
 62
   155
100
AcDbCircle
 10
-1388.836047
 20
1105.414503
 30
0.0
 40
5.250000000000009
210
0.0
220
0.0
230
-1.0
100
AcDbArc
 50
270.0
 51
90.0
  0
ARC
  5
1E0
330
1F
100
AcDbEntity
  8
1
  6
Continuous
 62
   155
100
AcDbCircle
 10
-1388.836047
 20
988.741884
 30
0.0
 40
5.250000000000009
210
0.0
220
0.0
230
-1.0
100
AcDbArc
 50
180.0
 51
0.0
  0
ARC
  5
1E1
330
1F
100
AcDbEntity
  8
1
  6
Continuous
 62
   155
100
AcDbCircle
 10
-1388.836047
 20
988.741884
 30
0.0
 40
5.250000000000009
210
0.0
220
0.0
230
-1.0
100
AcDbArc
 50
0.0
 51
180.0
  0
ARC
  5
1E2
330
1F
100
AcDbEntity
  8
1
  6
Continuous
 62
   155
100
AcDbCircle
 10
-1447.172357
 20
1047.078194
 30
0.0
 40
117.0
210
0.0
220
0.0
230
-1.0
100
AcDbArc
 50
270.0
 51
0.0
  0
ARC
  5
1E3
330
1F
100
AcDbEntity
  8
1
  6
Continuous
 62
   155
100
AcDbCircle
 10
-1388.836047
 20
1105.414503
 30
0.0
 40
5.250000000000009
210
0.0
220
0.0
230
-1.0
100
AcDbArc
 50
90.0
 51
270.0
  0
ARC
  5
1E4
330
1F
100
AcDbEntity
  8
1
  6
Continuous
 62
   155
100
AcDbCircle
 10
-1505.508666
 20
1105.414503
 30
0.0
 40
5.250000000000009
210
0.0
220
0.0
230
-1.0
100
AcDbArc
 50
180.0
 51
0.0
  0
ARC
  5
1E5
330
1F
100
AcDbEntity
  8
1
  6
Continuous
 62
   155
100
AcDbCircle
 10
-1447.172357
 20
1047.078194
 30
0.0
 40
65.0
210
0.0
220
0.0
230
-1.0
100
AcDbArc
 50
0.0
 51
180.0
  0
ARC
  5
1E6
330
1F
100
AcDbEntity
  8
1
  6
Continuous
 62
   155
100
AcDbCircle
 10
-1447.172357
 20
1047.078194
 30
0.0
 40
117.0
210
0.0
220
0.0
230
-1.0
100
AcDbArc
 50
90.0
 51
180.0
  0
ARC
  5
1E7
330
1F
100
AcDbEntity
  8
1
  6
Continuous
 62
   155
100
AcDbCircle
 10
-1447.172357
 20
1047.078194
 30
0.0
 40
35.0
210
0.0
220
0.0
230
-1.0
100
AcDbArc
 50
0.0
 51
180.0
  0
ARC
  5
1E8
330
1F
100
AcDbEntity
  8
1
  6
Continuous
 62
   155
100
AcDbCircle
 10
-1447.172357
 20
1047.078194
 30
0.0
 40
19.0
210
0.0
220
0.0
230
-1.0
100
AcDbArc
 50
180.0
 51
0.0
  0
ARC
  5
1E9
330
1F
100
AcDbEntity
  8
1
  6
Continuous
 62
   155
100
AcDbCircle
 10
-1447.172357
 20
1047.078194
 30
0.0
 40
117.0
210
0.0
220
0.0
230
-1.0
100
AcDbArc
 50
0.0
 51
90.0
  0
SPLINE
  5
1EA
330
1F
100
AcDbEntity
  8
1
  6
Continuous
 62
   155
100
AcDbSpline
210
0.0
220
0.0
230
1.0
 70
    24
 71
     3
 72
    10
 73
     6
 74
     0
 42
0.0000000001
 43
0.0000000001
 40
0.0
 40
0.0
 40
0.0
 40
0.0
 40
0.4999999999999984
 40
0.4999999999999984
 40
1.0
 40
1.0
 40
1.0
 40
1.0
 10
148.8470582667951
 20
1236.078193832599
 30
0.0
 10
151.5814332667951
 20
1236.078193832599
 30
0.0
 10
153.8629274074201
 20
1236.078193832599
 30
0.0
 10
157.5201539699201
 20
1236.078193832599
 30
0.0
 10
158.4344716116451
 20
1236.078193832599
 30
0.0
 10
158.4344558600701
 20
1236.078193832599
 30
0.0
  0
SPLINE
  5
1EB
330
1F
100
AcDbEntity
  8
1
  6
Continuous
 62
   155
100
AcDbSpline
210
0.0
220
0.0
230
1.0
 70
    24
 71
     3
 72
    10
 73
     6
 74
     0
 42
0.0000000001
 43
0.0000000001
 40
0.0
 40
0.0
 40
0.0
 40
0.0
 40
0.4999999999999992
 40
0.4999999999999992
 40
1.0
 40
1.0
 40
1.0
 40
1.0
 10
173.6615113917951
 20
1236.078193832599
 30
0.0
 10
176.3958863917951
 20
1236.078193832599
 30
0.0
 10
178.6773805324201
 20
1236.078193832599
 30
0.0
 10
182.3346070949201
 20
1236.078193832599
 30
0.0
 10
183.2489247366451
 20
1236.078193832599
 30
0.0
 10
183.24890898507
 20
1236.078193832599
 30
0.0
  0
SPLINE
  5
1EC
330
1F
100
AcDbEntity
  8
1
  6
Continuous
 62
   155
100
AcDbSpline
210
0.0
220
0.0
230
1.0
 70
    24
 71
     3
 72
    10
 73
     6
 74
     0
 42
0.0000000001
 43
0.0000000001
 40
0.0
 40
0.0
 40
0.0
 40
0.0
 40
0.5
 40
0.5
 40
1.0
 40
1.0
 40
1.0
 40
1.0
 10
1433.702625265194
 20
1236.078193832599
 30
0.0
 10
1433.702635266193
 20
1236.078193832599
 30
0.0
 10
1434.403313859444
 20
1236.078193832599
 30
0.0
 10
1437.206048234444
 20
1236.078193832599
 30
0.0
 10
1438.897942765694
 20
1236.078193832599
 30
0.0
 10
1440.880364640694
 20
1236.078193832599
 30
0.0
  0
SPLINE
  5
1ED
330
1F
100
AcDbEntity
  8
1
  6
Continuous
 62
   155
100
AcDbSpline
210
0.0
220
0.0
230
1.0
 70
    24
 71
     3
 72
     8
 73
     4
 74
     0
 42
0.0000000001
 43
0.0000000001
 40
0.0
 40
0.0
 40
0.0
 40
0.0
 40
1.0
 40
1.0
 40
1.0
 40
1.0
 10
1406.478504171444
 20
1236.078193832599
 30
0.0
 10
1406.478514172444
 20
1236.078193832599
 30
0.0
 10
1407.20767583861
 20
1236.078193832599
 30
0.0
 10
1408.666009171944
 20
1236.078193832599
 30
0.0
  0
SPLINE
  5
1EE
330
1F
100
AcDbEntity
  8
1
  6
Continuous
 62
   155
100
AcDbSpline
210
0.0
220
0.0
230
1.0
 70
    24
 71
     3
 72
     8
 73
     4
 74
     0
 42
0.0000000001
 43
0.0000000001
 40
0.0
 40
0.0
 40
0.0
 40
0.0
 40
1.0
 40
1.0
 40
1.0
 40
1.0
 10
1431.292957296444
 20
1236.078193832599
 30
0.0
 10
1431.292967297444
 20
1236.078193832599
 30
0.0
 10
1432.02212896361
 20
1236.078193832599
 30
0.0
 10
1433.480462296944
 20
1236.078193832599
 30
0.0
  0
SPLINE
  5
1EF
330
1F
100
AcDbEntity
  8
1
  6
Continuous
 62
   155
100
AcDbSpline
210
0.0
220
0.0
230
1.0
 70
    24
 71
     3
 72
    10
 73
     6
 74
     0
 42
0.0000000001
 43
0.0000000001
 40
0.0
 40
0.0
 40
0.0
 40
0.0
 40
0.5
 40
0.5
 40
1.0
 40
1.0
 40
1.0
 40
1.0
 10
1408.888172140194
 20
1236.078193832599
 30
0.0
 10
1408.888182141194
 20
1236.078193832599
 30
0.0
 10
1409.588860734444
 20
1236.078193832599
 30
0.0
 10
1412.391595109444
 20
1236.078193832599
 30
0.0
 10
1414.083489640694
 20
1236.078193832599
 30
0.0
 10
1416.065911515694
 20
1236.078193832599
 30
0.0
  0
SPLINE
  5
1F0
330
1F
100
AcDbEntity
  8
1
  6
Continuous
 62
   155
100
AcDbSpline
210
0.0
220
0.0
230
1.0
 70
     8
 71
     3
 72
     8
 73
     4
 74
     0
 42
0.0000000001
 43
0.0000000001
 40
0.0
 40
0.0
 40
0.0
 40
0.0
 40
1.0
 40
1.0
 40
1.0
 40
1.0
 10
765.9098818789921
 20
545.6602702992841
 30
-0.0000000000000008
 10
765.0098167748254
 20
546.6173015492841
 30
-0.0000000000000007
 10
763.9160667748253
 20
547.3464682159511
 30
-0.0000000000000007
 10
762.6286318789921
 20
547.847770299284
 30
-0.0000000000000006
  0
SPLINE
  5
1F1
330
1F
100
AcDbEntity
  8
1
  6
Continuous
 62
   155
100
AcDbSpline
210
0.0
220
0.0
230
1.0
 70
     8
 71
     3
 72
     8
 73
     4
 74
     0
 42
0.0000000001
 43
0.0000000001
 40
0.0
 40
0.0
 40
0.0
 40
0.0
 40
1.0
 40
1.0
 40
1.0
 40
1.0
 10
762.6286318789921
 20
547.847770299284
 30
-0.0000000000000006
 10
765.0553896914921
 20
549.2491374867841
 30
-0.0000000000000008
 10
766.2687685977421
 20
551.3340984242841
 30
-0.0000000000000008
 10
766.2687685977421
 20
554.102653111784
 30
-0.0000000000000008
  0
SPLINE
  5
1F2
330
1F
100
AcDbEntity
  8
1
  6
Continuous
 62
   155
100
AcDbSpline
210
0.0
220
0.0
230
1.0
 70
     8
 71
     3
 72
    10
 73
     6
 74
     0
 42
0.0000000001
 43
0.0000000001
 40
0.0
 40
0.0
 40
0.0
 40
0.0
 40
0.4999999999999984
 40
0.4999999999999984
 40
1.0
 40
1.0
 40
1.0
 40
1.0
 10
759.0910342227421
 20
529.4249187367841
 30
-0.0000000000000004
 10
761.8254092227421
 20
529.4249187367841
 30
-0.0000000000000006
 10
764.106903363367
 20
530.3278321482432
 30
-0.0000000000000007
 10
767.7641299258671
 20
533.9394857940761
 30
-0.0000000000000009
 10
768.678436566492
 20
536.2152833201182
 30
-0.000000000000001
 10
768.678436566492
 20
538.961051549284
 30
-0.000000000000001
  0
SPLINE
  5
1F3
330
1F
100
AcDbEntity
  8
1
  6
Continuous
 62
   155
100
AcDbSpline
210
0.0
220
0.0
230
1.0
 70
     8
 71
     3
 72
    10
 73
     6
 74
     0
 42
0.0000000001
 43
0.0000000001
 40
0.0
 40
0.0
 40
0.0
 40
0.0
 40
0.5
 40
0.5
 40
1.0
 40
1.0
 40
1.0
 40
1.0
 10
766.2687685977421
 20
554.102653111784
 30
-0.0000000000000008
 10
766.2687685977421
 20
556.0850749867841
 30
-0.0000000000000008
 10
765.5680850039921
 20
557.776969518034
 30
-0.0000000000000008
 10
762.7653506289921
 20
560.579703893034
 30
-0.0000000000000006
 10
761.073456097742
 20
561.2803874867842
 30
-0.0000000000000005
 10
759.0910342227421
 20
561.2803874867842
 30
-0.0000000000000004
  0
SPLINE
  5
1F4
330
1F
100
AcDbEntity
  8
1
  6
Continuous
 62
   155
100
AcDbSpline
210
0.0
220
0.0
230
1.0
 70
     8
 71
     3
 72
     8
 73
     4
 74
     0
 42
0.0000000001
 43
0.0000000001
 40
0.0
 40
0.0
 40
0.0
 40
0.0
 40
1.0
 40
1.0
 40
1.0
 40
1.0
 10
793.4928896914921
 20
538.961051549284
 30
-0.0000000000000025
 10
793.4928896914921
 20
541.2396973826182
 30
-0.0000000000000025
 10
792.7637230248254
 20
543.2676921742841
 30
-0.0000000000000024
 10
791.3053896914921
 20
545.0450359242842
 30
-0.0000000000000024
  0
SPLINE
  5
1F5
330
1F
100
AcDbEntity
  8
1
  6
Continuous
 62
   155
100
AcDbSpline
210
0.0
220
0.0
230
1.0
 70
     8
 71
     3
 72
    10
 73
     6
 74
     0
 42
0.0000000001
 43
0.0000000001
 40
0.0
 40
0.0
 40
0.0
 40
0.0
 40
0.4999999999999992
 40
0.4999999999999992
 40
1.0
 40
1.0
 40
1.0
 40
1.0
 10
783.9054873477421
 20
529.4249187367841
 30
-0.0000000000000019
 10
786.6398623477421
 20
529.4249187367841
 30
-0.0000000000000021
 10
788.9213564883671
 20
530.3278321482432
 30
-0.0000000000000022
 10
792.5785830508671
 20
533.9394857940761
 30
-0.0000000000000024
 10
793.4928896914921
 20
536.2152833201182
 30
-0.0000000000000025
 10
793.4928896914921
 20
538.961051549284
 30
-0.0000000000000025
  0
SPLINE
  5
1F6
330
1F
100
AcDbEntity
  8
1
  6
Continuous
 62
   155
100
AcDbSpline
210
0.0
220
0.0
230
1.0
 70
     8
 71
     3
 72
     8
 73
     4
 74
     0
 42
0.0000000001
 43
0.0000000001
 40
0.0
 40
0.0
 40
0.0
 40
0.0
 40
1.0
 40
1.0
 40
1.0
 40
1.0
 10
768.678436566492
 20
538.961051549284
 30
-0.000000000000001
 10
768.678436566492
 20
541.2396973826182
 30
-0.000000000000001
 10
767.9492698998253
 20
543.2676921742841
 30
-0.0000000000000009
 10
766.4909365664921
 20
545.0450359242842
 30
-0.0000000000000008
  0
SPLINE
  5
1F7
330
1F
100
AcDbEntity
  8
1
  6
Continuous
 62
   155
100
AcDbSpline
210
0.0
220
0.0
230
1.0
 70
     8
 71
     3
 72
     8
 73
     4
 74
     0
 42
0.0000000001
 43
0.0000000001
 40
0.0
 40
0.0
 40
0.0
 40
0.0
 40
1.0
 40
1.0
 40
1.0
 40
1.0
 10
787.4430850039921
 20
547.847770299284
 30
-0.0000000000000021
 10
789.869842816492
 20
549.2491374867841
 30
-0.0000000000000023
 10
791.0832217227421
 20
551.3340984242841
 30
-0.0000000000000023
 10
791.0832217227421
 20
554.102653111784
 30
-0.0000000000000023
  0
SPLINE
  5
1F8
330
1F
100
AcDbEntity
  8
1
  6
Continuous
 62
   155
100
AcDbSpline
210
-0.0000000000000013
220
-0.0000000000000019
230
1.0
 70
     8
 71
     3
 72
     8
 73
     4
 74
     0
 42
0.0000000001
 43
0.0000000001
 40
0.0
 40
0.0
 40
0.0
 40
0.0
 40
1.0
 40
1.0
 40
1.0
 40
1.0
 10
790.724335003992
 20
545.6602702992841
 30
-0.0000000000000023
 10
789.8242698998253
 20
546.6173015492841
 30
-0.0000000000000023
 10
788.7305198998253
 20
547.3464682159511
 30
-0.0000000000000022
 10
787.4430850039921
 20
547.847770299284
 30
-0.0000000000000021
  0
SPLINE
  5
1F9
330
1F
100
AcDbEntity
  8
1
  6
Continuous
 62
   155
100
AcDbSpline
210
0.0
220
0.0
230
1.0
 70
     8
 71
     3
 72
    10
 73
     6
 74
     0
 42
0.0000000001
 43
0.0000000001
 40
0.0
 40
0.0
 40
0.0
 40
0.0
 40
0.5
 40
0.5
 40
1.0
 40
1.0
 40
1.0
 40
1.0
 10
791.0832217227421
 20
554.102653111784
 30
-0.0000000000000023
 10
791.0832217227421
 20
556.0850749867841
 30
-0.0000000000000023
 10
790.382538128992
 20
557.776969518034
 30
-0.0000000000000023
 10
787.5798037539921
 20
560.579703893034
 30
-0.0000000000000021
 10
785.8879092227421
 20
561.2803874867842
 30
-0.000000000000002
 10
783.9054873477421
 20
561.2803874867842
 30
-0.0000000000000019
  0
MTEXT
  5
2C7
330
1F
100
AcDbEntity
  8
0
100
AcDbMText
 10
681.9827469798887
 20
330.3671059000997
 30
0.0
 40
25.0
 41
374.4262943572731
 46
0.0
 71
     1
 72
     5
  1
M2AA 132L B34
 73
     1
 44
1.0
1001
ACAD
1000
ACAD_MTEXT_COLUMN_INFO_BEGIN
1070
    75
1070
     2
1070
    79
1070
     0
1070
    76
1070
     1
1070
    78
1070
     0
1070
    48
1040
374.4262943572731
1070
    49
1040
1.0
1070
    50
1070
     1
1040
0.0
1000
ACAD_MTEXT_COLUMN_INFO_END
  0
LINE
  5
309
330
1F
100
AcDbEntity
  8
1
  6
Continuous
 62
   155
100
AcDbLine
 10
142.6710559790933
 20
1065.017736471699
 30
0.0
 11
142.6710559790933
 21
1049.397619471699
 31
0.0
  0
LINE
  5
30A
330
1F
100
AcDbEntity
  8
1
  6
Continuous
 62
   155
100
AcDbLine
 10
132.7931269790933
 20
1033.162268471699
 30
0.0
 11
142.0216419790933
 21
1033.162268471699
 31
0.0
  0
LINE
  5
30B
330
1F
100
AcDbEntity
  8
1
  6
Continuous
 62
   155
100
AcDbLine
 10
114.3702749790934
 20
1039.553869471699
 30
0.0
 11
114.3702749790934
 21
1048.782385471699
 31
0.0
  0
LINE
  5
30C
330
1F
100
AcDbEntity
  8
1
  6
Continuous
 62
   155
100
AcDbLine
 10
142.0216419790933
 20
1048.782385471699
 30
0.0
 11
132.7931269790933
 21
1048.782385471699
 31
0.0
  0
LINE
  5
30D
330
1F
100
AcDbEntity
  8
1
  6
Continuous
 62
   155
100
AcDbLine
 10
108.9527949790935
 20
1039.553869471699
 30
0.0
 11
114.3702749790934
 21
1039.553869471699
 31
0.0
  0
LINE
  5
30E
330
1F
100
AcDbEntity
  8
1
  6
Continuous
 62
   155
100
AcDbLine
 10
145.5250599790934
 20
1065.017736471699
 30
0.0
 11
142.6710559790933
 21
1065.017736471699
 31
0.0
  0
LINE
  5
30F
330
1F
100
AcDbEntity
  8
1
  6
Continuous
 62
   155
100
AcDbLine
 10
132.7931269790933
 20
1048.782385471699
 30
0.0
 11
132.7931269790933
 21
1033.162268471699
 31
0.0
  0
LINE
  5
310
330
1F
100
AcDbEntity
  8
1
  6
Continuous
 62
   155
100
AcDbLine
 10
142.6710559790933
 20
1049.397619471699
 30
0.0
 11
152.3439079790934
 21
1049.397619471699
 31
0.0
  0
LINE
  5
311
330
1F
100
AcDbEntity
  8
1
  6
Continuous
 62
   155
100
AcDbLine
 10
132.7931269790933
 20
1065.017736471699
 30
0.0
 11
132.7931269790933
 21
1049.397619471699
 31
0.0
  0
LINE
  5
312
330
1F
100
AcDbEntity
  8
1
  6
Continuous
 62
   155
100
AcDbLine
 10
167.4855089790934
 20
1033.162268471699
 30
0.0
 11
170.3395129790934
 21
1033.162268471699
 31
0.0
  0
LINE
  5
313
330
1F
100
AcDbEntity
  8
1
  6
Continuous
 62
   155
100
AcDbLine
 10
132.7931269790933
 20
1049.397619471699
 30
0.0
 11
142.0216419790933
 21
1049.397619471699
 31
0.0
  0
LINE
  5
314
330
1F
100
AcDbEntity
  8
1
  6
Continuous
 62
   155
100
AcDbLine
 10
142.6710559790933
 20
1033.162268471699
 30
0.0
 11
145.5250599790934
 21
1033.162268471699
 31
0.0
  0
LINE
  5
315
330
1F
100
AcDbEntity
  8
1
  6
Continuous
 62
   155
100
AcDbLine
 10
114.3702749790934
 20
1048.782385471699
 30
0.0
 11
104.2189079790935
 21
1048.782385471699
 31
0.0
  0
LINE
  5
316
330
1F
100
AcDbEntity
  8
1
  6
Continuous
 62
   155
100
AcDbLine
 10
142.0216419790933
 20
1033.162268471699
 30
0.0
 11
142.0216419790933
 21
1048.782385471699
 31
0.0
  0
LINE
  5
317
330
1F
100
AcDbEntity
  8
1
  6
Continuous
 62
   155
100
AcDbLine
 10
177.7394159790934
 20
1048.782385471699
 30
0.0
 11
167.4855089790934
 21
1048.782385471699
 31
0.0
  0
LINE
  5
318
330
1F
100
AcDbEntity
  8
1
  6
Continuous
 62
   155
100
AcDbLine
 10
106.7140249790934
 20
1033.162268471699
 30
0.0
 11
108.9527949790935
 21
1039.553869471699
 31
0.0
  0
LINE
  5
319
330
1F
100
AcDbEntity
  8
1
  6
Continuous
 62
   155
100
AcDbLine
 10
167.4855089790934
 20
1048.782385471699
 30
0.0
 11
167.4855089790934
 21
1033.162268471699
 31
0.0
  0
LINE
  5
31A
330
1F
100
AcDbEntity
  8
1
  6
Continuous
 62
   155
100
AcDbLine
 10
152.9249629790934
 20
1048.782385471699
 30
0.0
 11
142.6710559790933
 21
1048.782385471699
 31
0.0
  0
LINE
  5
31B
330
1F
100
AcDbEntity
  8
1
  6
Continuous
 62
   155
100
AcDbLine
 10
142.6710559790933
 20
1048.782385471699
 30
0.0
 11
142.6710559790933
 21
1033.162268471699
 31
0.0
  0
LINE
  5
31C
330
1F
100
AcDbEntity
  8
1
  6
Continuous
 62
   155
100
AcDbLine
 10
98.7501579790935
 20
1033.162268471699
 30
0.0
 11
106.7140249790934
 21
1033.162268471699
 31
0.0
  0
LINE
  5
31D
330
1F
100
AcDbEntity
  8
1
  6
Continuous
 62
   155
100
AcDbLine
 10
142.0216419790933
 20
1049.397619471699
 30
0.0
 11
142.0216419790933
 21
1065.017736471699
 31
0.0
  0
LINE
  5
31E
330
1F
100
AcDbEntity
  8
1
  6
Continuous
 62
   155
100
AcDbLine
 10
104.2189079790935
 20
1048.782385471699
 30
0.0
 11
98.7501579790935
 21
1033.162268471699
 31
0.0
  0
LINE
  5
31F
330
1F
100
AcDbEntity
  8
1
  6
Continuous
 62
   155
100
AcDbLine
 10
142.0216419790933
 20
1065.017736471699
 30
0.0
 11
132.7931269790933
 21
1065.017736471699
 31
0.0
  0
LINE
  5
320
330
1F
100
AcDbEntity
  8
1
  6
Continuous
 62
   155
100
AcDbLine
 10
114.9855089790934
 20
1065.017736471699
 30
0.0
 11
114.9855089790934
 21
1049.397619471699
 31
0.0
  0
LINE
  5
321
330
1F
100
AcDbEntity
  8
1
  6
Continuous
 62
   155
100
AcDbLine
 10
104.4410759790934
 20
1049.397619471699
 30
0.0
 11
114.3702749790934
 21
1049.397619471699
 31
0.0
  0
LINE
  5
322
330
1F
100
AcDbEntity
  8
1
  6
Continuous
 62
   155
100
AcDbLine
 10
166.8360949790934
 20
1049.397619471699
 30
0.0
 11
166.8360949790934
 21
1065.017736471699
 31
0.0
  0
LINE
  5
323
330
1F
100
AcDbEntity
  8
1
  6
Continuous
 62
   155
100
AcDbLine
 10
167.4855089790934
 20
1065.017736471699
 30
0.0
 11
167.4855089790934
 21
1049.397619471699
 31
0.0
  0
LINE
  5
324
330
1F
100
AcDbEntity
  8
1
  6
Continuous
 62
   155
100
AcDbLine
 10
167.4855089790934
 20
1049.397619471699
 30
0.0
 11
177.1583609790933
 21
1049.397619471699
 31
0.0
  0
LINE
  5
325
330
1F
100
AcDbEntity
  8
1
  6
Continuous
 62
   155
100
AcDbLine
 10
114.3702749790934
 20
1049.397619471699
 30
0.0
 11
114.3702749790934
 21
1065.017736471699
 31
0.0
  0
LINE
  5
326
330
1F
100
AcDbEntity
  8
1
  6
Continuous
 62
   155
100
AcDbLine
 10
122.6417589790934
 20
1033.162268471699
 30
0.0
 11
130.6056269790933
 21
1033.162268471699
 31
0.0
  0
LINE
  5
327
330
1F
100
AcDbEntity
  8
1
  6
Continuous
 62
   155
100
AcDbLine
 10
166.8360949790934
 20
1048.782385471699
 30
0.0
 11
157.6075799790934
 21
1048.782385471699
 31
0.0
  0
LINE
  5
328
330
1F
100
AcDbEntity
  8
1
  6
Continuous
 62
   155
100
AcDbLine
 10
124.9147089790934
 20
1049.397619471699
 30
0.0
 11
119.4459589790934
 21
1065.017736471699
 31
0.0
  0
LINE
  5
329
330
1F
100
AcDbEntity
  8
1
  6
Continuous
 62
   155
100
AcDbLine
 10
130.6056269790933
 20
1033.162268471699
 30
0.0
 11
125.1368769790933
 21
1048.782385471699
 31
0.0
  0
LINE
  5
32A
330
1F
100
AcDbEntity
  8
1
  6
Continuous
 62
   155
100
AcDbLine
 10
157.6075799790934
 20
1049.397619471699
 30
0.0
 11
166.8360949790934
 21
1049.397619471699
 31
0.0
  0
LINE
  5
32B
330
1F
100
AcDbEntity
  8
1
  6
Continuous
 62
   155
100
AcDbLine
 10
119.4459589790934
 20
1065.017736471699
 30
0.0
 11
114.9855089790934
 21
1065.017736471699
 31
0.0
  0
LINE
  5
32C
330
1F
100
AcDbEntity
  8
1
  6
Continuous
 62
   155
100
AcDbLine
 10
125.1368769790933
 20
1048.782385471699
 30
0.0
 11
114.9855089790934
 21
1048.782385471699
 31
0.0
  0
LINE
  5
32D
330
1F
100
AcDbEntity
  8
1
  6
Continuous
 62
   155
100
AcDbLine
 10
157.6075799790934
 20
1033.162268471699
 30
0.0
 11
166.8360949790934
 21
1033.162268471699
 31
0.0
  0
LINE
  5
32E
330
1F
100
AcDbEntity
  8
1
  6
Continuous
 62
   155
100
AcDbLine
 10
157.6075799790934
 20
1065.017736471699
 30
0.0
 11
157.6075799790934
 21
1049.397619471699
 31
0.0
  0
LINE
  5
32F
330
1F
100
AcDbEntity
  8
1
  6
Continuous
 62
   155
100
AcDbLine
 10
114.9855089790934
 20
1049.397619471699
 30
0.0
 11
124.9147089790934
 21
1049.397619471699
 31
0.0
  0
LINE
  5
330
330
1F
100
AcDbEntity
  8
1
  6
Continuous
 62
   155
100
AcDbLine
 10
170.3395129790934
 20
1065.017736471699
 30
0.0
 11
167.4855089790934
 21
1065.017736471699
 31
0.0
  0
LINE
  5
331
330
1F
100
AcDbEntity
  8
1
  6
Continuous
 62
   155
100
AcDbLine
 10
114.9855089790934
 20
1048.782385471699
 30
0.0
 11
114.9855089790934
 21
1039.553869471699
 31
0.0
  0
LINE
  5
332
330
1F
100
AcDbEntity
  8
1
  6
Continuous
 62
   155
100
AcDbLine
 10
157.6075799790934
 20
1048.782385471699
 30
0.0
 11
157.6075799790934
 21
1033.162268471699
 31
0.0
  0
LINE
  5
333
330
1F
100
AcDbEntity
  8
1
  6
Continuous
 62
   155
100
AcDbLine
 10
114.9855089790934
 20
1039.553869471699
 30
0.0
 11
120.4029899790933
 21
1039.553869471699
 31
0.0
  0
LINE
  5
334
330
1F
100
AcDbEntity
  8
1
  6
Continuous
 62
   155
100
AcDbLine
 10
166.8360949790934
 20
1033.162268471699
 30
0.0
 11
166.8360949790934
 21
1048.782385471699
 31
0.0
  0
LINE
  5
335
330
1F
100
AcDbEntity
  8
1
  6
Continuous
 62
   155
100
AcDbLine
 10
114.3702749790934
 20
1065.017736471699
 30
0.0
 11
109.9098259790934
 21
1065.017736471699
 31
0.0
  0
LINE
  5
336
330
1F
100
AcDbEntity
  8
1
  6
Continuous
 62
   155
100
AcDbLine
 10
109.9098259790934
 20
1065.017736471699
 30
0.0
 11
104.4410759790934
 21
1049.397619471699
 31
0.0
  0
LINE
  5
337
330
1F
100
AcDbEntity
  8
1
  6
Continuous
 62
   155
100
AcDbLine
 10
166.8360949790934
 20
1065.017736471699
 30
0.0
 11
157.6075799790934
 21
1065.017736471699
 31
0.0
  0
LINE
  5
338
330
1F
100
AcDbEntity
  8
1
  6
Continuous
 62
   155
100
AcDbLine
 10
120.4029899790933
 20
1039.553869471699
 30
0.0
 11
122.6417589790934
 21
1033.162268471699
 31
0.0
  0
SPLINE
  5
339
330
1F
100
AcDbEntity
  8
1
  6
Continuous
 62
   155
100
AcDbSpline
210
0.0
220
0.0
230
1.0
 70
     8
 71
     3
 72
     8
 73
     4
 74
     0
 42
0.0000000001
 43
0.0000000001
 40
0.0
 40
0.0
 40
0.0
 40
0.0
 40
1.0
 40
1.0
 40
1.0
 40
1.0
 10
152.3439078580854
 20
1049.397619770983
 30
-0.0000000000000008
 10
151.4438427539187
 20
1050.354651020983
 30
-0.0000000000000007
 10
150.3500927539187
 20
1051.08381768765
 30
-0.0000000000000007
 10
149.0626578580854
 20
1051.585119770983
 30
-0.0000000000000006
  0
SPLINE
  5
33A
330
1F
100
AcDbEntity
  8
1
  6
Continuous
 62
   155
100
AcDbSpline
210
0.0
220
0.0
230
1.0
 70
     8
 71
     3
 72
     8
 73
     4
 74
     0
 42
0.0000000001
 43
0.0000000001
 40
0.0
 40
0.0
 40
0.0
 40
0.0
 40
1.0
 40
1.0
 40
1.0
 40
1.0
 10
149.0626578580854
 20
1051.585119770983
 30
-0.0000000000000006
 10
151.4894156705854
 20
1052.986486958483
 30
-0.0000000000000008
 10
152.7027945768354
 20
1055.071447895983
 30
-0.0000000000000008
 10
152.7027945768354
 20
1057.840002583483
 30
-0.0000000000000008
  0
SPLINE
  5
33B
330
1F
100
AcDbEntity
  8
1
  6
Continuous
 62
   155
100
AcDbSpline
210
0.0
220
0.0
230
1.0
 70
     8
 71
     3
 72
    10
 73
     6
 74
     0
 42
0.0000000001
 43
0.0000000001
 40
0.0
 40
0.0
 40
0.0
 40
0.0
 40
0.4999999999999984
 40
0.4999999999999984
 40
1.0
 40
1.0
 40
1.0
 40
1.0
 10
145.5250602018354
 20
1033.162268208483
 30
-0.0000000000000004
 10
148.2594352018354
 20
1033.162268208483
 30
-0.0000000000000006
 10
150.5409293424604
 20
1034.065181619942
 30
-0.0000000000000007
 10
154.1981559049604
 20
1037.676835265775
 30
-0.0000000000000009
 10
155.1124625455854
 20
1039.952632791817
 30
-0.000000000000001
 10
155.1124625455854
 20
1042.698401020983
 30
-0.000000000000001
  0
SPLINE
  5
33C
330
1F
100
AcDbEntity
  8
1
  6
Continuous
 62
   155
100
AcDbSpline
210
0.0
220
0.0
230
1.0
 70
     8
 71
     3
 72
    10
 73
     6
 74
     0
 42
0.0000000001
 43
0.0000000001
 40
0.0
 40
0.0
 40
0.0
 40
0.0
 40
0.5
 40
0.5
 40
1.0
 40
1.0
 40
1.0
 40
1.0
 10
152.7027945768354
 20
1057.840002583483
 30
-0.0000000000000008
 10
152.7027945768354
 20
1059.822424458483
 30
-0.0000000000000008
 10
152.0021109830854
 20
1061.514318989733
 30
-0.0000000000000008
 10
149.1993766080854
 20
1064.317053364733
 30
-0.0000000000000006
 10
147.5074820768354
 20
1065.017736958483
 30
-0.0000000000000005
 10
145.5250602018354
 20
1065.017736958483
 30
-0.0000000000000004
  0
SPLINE
  5
33D
330
1F
100
AcDbEntity
  8
1
  6
Continuous
 62
   155
100
AcDbSpline
210
0.0
220
0.0
230
1.0
 70
     8
 71
     3
 72
     8
 73
     4
 74
     0
 42
0.0000000001
 43
0.0000000001
 40
0.0
 40
0.0
 40
0.0
 40
0.0
 40
1.0
 40
1.0
 40
1.0
 40
1.0
 10
179.9269156705854
 20
1042.698401020983
 30
-0.0000000000000025
 10
179.9269156705854
 20
1044.977046854317
 30
-0.0000000000000025
 10
179.1977490039187
 20
1047.005041645983
 30
-0.0000000000000024
 10
177.7394156705854
 20
1048.782385395983
 30
-0.0000000000000024
  0
SPLINE
  5
33E
330
1F
100
AcDbEntity
  8
1
  6
Continuous
 62
   155
100
AcDbSpline
210
0.0
220
0.0
230
1.0
 70
     8
 71
     3
 72
    10
 73
     6
 74
     0
 42
0.0000000001
 43
0.0000000001
 40
0.0
 40
0.0
 40
0.0
 40
0.0
 40
0.4999999999999992
 40
0.4999999999999992
 40
1.0
 40
1.0
 40
1.0
 40
1.0
 10
170.3395133268354
 20
1033.162268208483
 30
-0.0000000000000019
 10
173.0738883268354
 20
1033.162268208483
 30
-0.0000000000000021
 10
175.3553824674604
 20
1034.065181619942
 30
-0.0000000000000022
 10
179.0126090299604
 20
1037.676835265775
 30
-0.0000000000000024
 10
179.9269156705854
 20
1039.952632791817
 30
-0.0000000000000025
 10
179.9269156705854
 20
1042.698401020983
 30
-0.0000000000000025
  0
SPLINE
  5
33F
330
1F
100
AcDbEntity
  8
1
  6
Continuous
 62
   155
100
AcDbSpline
210
0.0
220
0.0
230
1.0
 70
     8
 71
     3
 72
     8
 73
     4
 74
     0
 42
0.0000000001
 43
0.0000000001
 40
0.0
 40
0.0
 40
0.0
 40
0.0
 40
1.0
 40
1.0
 40
1.0
 40
1.0
 10
155.1124625455854
 20
1042.698401020983
 30
-0.000000000000001
 10
155.1124625455854
 20
1044.977046854317
 30
-0.000000000000001
 10
154.3832958789187
 20
1047.005041645983
 30
-0.0000000000000009
 10
152.9249625455854
 20
1048.782385395983
 30
-0.0000000000000008
  0
SPLINE
  5
340
330
1F
100
AcDbEntity
  8
1
  6
Continuous
 62
   155
100
AcDbSpline
210
0.0
220
0.0
230
1.0
 70
     8
 71
     3
 72
     8
 73
     4
 74
     0
 42
0.0000000001
 43
0.0000000001
 40
0.0
 40
0.0
 40
0.0
 40
0.0
 40
1.0
 40
1.0
 40
1.0
 40
1.0
 10
173.8771109830854
 20
1051.585119770983
 30
-0.0000000000000021
 10
176.3038687955854
 20
1052.986486958483
 30
-0.0000000000000023
 10
177.5172477018354
 20
1055.071447895983
 30
-0.0000000000000023
 10
177.5172477018354
 20
1057.840002583483
 30
-0.0000000000000023
  0
SPLINE
  5
341
330
1F
100
AcDbEntity
  8
1
  6
Continuous
 62
   155
100
AcDbSpline
210
0.0000000000000013
220
0.0000000000000019
230
-1.0
 70
     8
 71
     3
 72
     8
 73
     4
 74
     0
 42
0.0000000001
 43
0.0000000001
 40
0.0
 40
0.0
 40
0.0
 40
0.0
 40
1.0
 40
1.0
 40
1.0
 40
1.0
 10
177.1583609830854
 20
1049.397619770983
 30
-0.0000000000000023
 10
176.2582958789187
 20
1050.354651020983
 30
-0.0000000000000023
 10
175.1645458789187
 20
1051.08381768765
 30
-0.0000000000000022
 10
173.8771109830854
 20
1051.585119770983
 30
-0.0000000000000021
  0
SPLINE
  5
342
330
1F
100
AcDbEntity
  8
1
  6
Continuous
 62
   155
100
AcDbSpline
210
0.0
220
0.0
230
1.0
 70
     8
 71
     3
 72
    10
 73
     6
 74
     0
 42
0.0000000001
 43
0.0000000001
 40
0.0
 40
0.0
 40
0.0
 40
0.0
 40
0.5
 40
0.5
 40
1.0
 40
1.0
 40
1.0
 40
1.0
 10
177.5172477018354
 20
1057.840002583483
 30
-0.0000000000000023
 10
177.5172477018354
 20
1059.822424458483
 30
-0.0000000000000023
 10
176.8165641080854
 20
1061.514318989733
 30
-0.0000000000000023
 10
174.0138297330854
 20
1064.317053364733
 30
-0.0000000000000021
 10
172.3219352018354
 20
1065.017736958483
 30
-0.000000000000002
 10
170.3395133268354
 20
1065.017736958483
 30
-0.0000000000000019
  0
LINE
  5
382
330
1F
100
AcDbEntity
  8
1
  6
Continuous
 62
   155
100
AcDbLine
 10
850.6863458400969
 20
1065.017736471699
 30
0.0
 11
850.6863458400969
 21
1049.397619471699
 31
0.0
  0
LINE
  5
383
330
1F
100
AcDbEntity
  8
1
  6
Continuous
 62
   155
100
AcDbLine
 10
840.808416840097
 20
1033.162268471699
 30
0.0
 11
850.0369318400968
 21
1033.162268471699
 31
0.0
  0
LINE
  5
384
330
1F
100
AcDbEntity
  8
1
  6
Continuous
 62
   155
100
AcDbLine
 10
822.385564840097
 20
1039.553869471699
 30
0.0
 11
822.385564840097
 21
1048.782385471699
 31
0.0
  0
LINE
  5
385
330
1F
100
AcDbEntity
  8
1
  6
Continuous
 62
   155
100
AcDbLine
 10
850.0369318400968
 20
1048.782385471699
 30
0.0
 11
840.808416840097
 21
1048.782385471699
 31
0.0
  0
LINE
  5
386
330
1F
100
AcDbEntity
  8
1
  6
Continuous
 62
   155
100
AcDbLine
 10
816.968084840097
 20
1039.553869471699
 30
0.0
 11
822.385564840097
 21
1039.553869471699
 31
0.0
  0
LINE
  5
387
330
1F
100
AcDbEntity
  8
1
  6
Continuous
 62
   155
100
AcDbLine
 10
853.5403498400969
 20
1065.017736471699
 30
0.0
 11
850.6863458400969
 21
1065.017736471699
 31
0.0
  0
LINE
  5
388
330
1F
100
AcDbEntity
  8
1
  6
Continuous
 62
   155
100
AcDbLine
 10
840.808416840097
 20
1048.782385471699
 30
0.0
 11
840.808416840097
 21
1033.162268471699
 31
0.0
  0
LINE
  5
389
330
1F
100
AcDbEntity
  8
1
  6
Continuous
 62
   155
100
AcDbLine
 10
850.6863458400969
 20
1049.397619471699
 30
0.0
 11
860.3591978400968
 21
1049.397619471699
 31
0.0
  0
LINE
  5
38A
330
1F
100
AcDbEntity
  8
1
  6
Continuous
 62
   155
100
AcDbLine
 10
840.808416840097
 20
1065.017736471699
 30
0.0
 11
840.808416840097
 21
1049.397619471699
 31
0.0
  0
LINE
  5
38B
330
1F
100
AcDbEntity
  8
1
  6
Continuous
 62
   155
100
AcDbLine
 10
875.500798840097
 20
1033.162268471699
 30
0.0
 11
878.354802840097
 21
1033.162268471699
 31
0.0
  0
LINE
  5
38C
330
1F
100
AcDbEntity
  8
1
  6
Continuous
 62
   155
100
AcDbLine
 10
840.808416840097
 20
1049.397619471699
 30
0.0
 11
850.0369318400968
 21
1049.397619471699
 31
0.0
  0
LINE
  5
38D
330
1F
100
AcDbEntity
  8
1
  6
Continuous
 62
   155
100
AcDbLine
 10
850.6863458400969
 20
1033.162268471699
 30
0.0
 11
853.5403498400969
 21
1033.162268471699
 31
0.0
  0
LINE
  5
38E
330
1F
100
AcDbEntity
  8
1
  6
Continuous
 62
   155
100
AcDbLine
 10
822.385564840097
 20
1048.782385471699
 30
0.0
 11
812.2341978400971
 21
1048.782385471699
 31
0.0
  0
LINE
  5
38F
330
1F
100
AcDbEntity
  8
1
  6
Continuous
 62
   155
100
AcDbLine
 10
850.0369318400968
 20
1033.162268471699
 30
0.0
 11
850.0369318400968
 21
1048.782385471699
 31
0.0
  0
LINE
  5
390
330
1F
100
AcDbEntity
  8
1
  6
Continuous
 62
   155
100
AcDbLine
 10
885.7547058400969
 20
1048.782385471699
 30
0.0
 11
875.500798840097
 21
1048.782385471699
 31
0.0
  0
LINE
  5
391
330
1F
100
AcDbEntity
  8
1
  6
Continuous
 62
   155
100
AcDbLine
 10
814.729314840097
 20
1033.162268471699
 30
0.0
 11
816.968084840097
 21
1039.553869471699
 31
0.0
  0
LINE
  5
392
330
1F
100
AcDbEntity
  8
1
  6
Continuous
 62
   155
100
AcDbLine
 10
875.500798840097
 20
1048.782385471699
 30
0.0
 11
875.500798840097
 21
1033.162268471699
 31
0.0
  0
LINE
  5
393
330
1F
100
AcDbEntity
  8
1
  6
Continuous
 62
   155
100
AcDbLine
 10
860.940252840097
 20
1048.782385471699
 30
0.0
 11
850.6863458400969
 21
1048.782385471699
 31
0.0
  0
LINE
  5
394
330
1F
100
AcDbEntity
  8
1
  6
Continuous
 62
   155
100
AcDbLine
 10
850.6863458400969
 20
1048.782385471699
 30
0.0
 11
850.6863458400969
 21
1033.162268471699
 31
0.0
  0
LINE
  5
395
330
1F
100
AcDbEntity
  8
1
  6
Continuous
 62
   155
100
AcDbLine
 10
806.7654478400971
 20
1033.162268471699
 30
0.0
 11
814.729314840097
 21
1033.162268471699
 31
0.0
  0
LINE
  5
396
330
1F
100
AcDbEntity
  8
1
  6
Continuous
 62
   155
100
AcDbLine
 10
850.0369318400968
 20
1049.397619471699
 30
0.0
 11
850.0369318400968
 21
1065.017736471699
 31
0.0
  0
LINE
  5
397
330
1F
100
AcDbEntity
  8
1
  6
Continuous
 62
   155
100
AcDbLine
 10
812.2341978400971
 20
1048.782385471699
 30
0.0
 11
806.7654478400971
 21
1033.162268471699
 31
0.0
  0
LINE
  5
398
330
1F
100
AcDbEntity
  8
1
  6
Continuous
 62
   155
100
AcDbLine
 10
850.0369318400968
 20
1065.017736471699
 30
0.0
 11
840.808416840097
 21
1065.017736471699
 31
0.0
  0
LINE
  5
399
330
1F
100
AcDbEntity
  8
1
  6
Continuous
 62
   155
100
AcDbLine
 10
823.000798840097
 20
1065.017736471699
 30
0.0
 11
823.000798840097
 21
1049.397619471699
 31
0.0
  0
LINE
  5
39A
330
1F
100
AcDbEntity
  8
1
  6
Continuous
 62
   155
100
AcDbLine
 10
812.4563658400969
 20
1049.397619471699
 30
0.0
 11
822.385564840097
 21
1049.397619471699
 31
0.0
  0
LINE
  5
39B
330
1F
100
AcDbEntity
  8
1
  6
Continuous
 62
   155
100
AcDbLine
 10
874.8513848400969
 20
1049.397619471699
 30
0.0
 11
874.8513848400969
 21
1065.017736471699
 31
0.0
  0
LINE
  5
39C
330
1F
100
AcDbEntity
  8
1
  6
Continuous
 62
   155
100
AcDbLine
 10
875.500798840097
 20
1065.017736471699
 30
0.0
 11
875.500798840097
 21
1049.397619471699
 31
0.0
  0
LINE
  5
39D
330
1F
100
AcDbEntity
  8
1
  6
Continuous
 62
   155
100
AcDbLine
 10
875.500798840097
 20
1049.397619471699
 30
0.0
 11
885.173650840097
 21
1049.397619471699
 31
0.0
  0
LINE
  5
39E
330
1F
100
AcDbEntity
  8
1
  6
Continuous
 62
   155
100
AcDbLine
 10
822.385564840097
 20
1049.397619471699
 30
0.0
 11
822.385564840097
 21
1065.017736471699
 31
0.0
  0
LINE
  5
39F
330
1F
100
AcDbEntity
  8
1
  6
Continuous
 62
   155
100
AcDbLine
 10
830.657048840097
 20
1033.162268471699
 30
0.0
 11
838.6209168400968
 21
1033.162268471699
 31
0.0
  0
LINE
  5
3A0
330
1F
100
AcDbEntity
  8
1
  6
Continuous
 62
   155
100
AcDbLine
 10
874.8513848400969
 20
1048.782385471699
 30
0.0
 11
865.6228698400969
 21
1048.782385471699
 31
0.0
  0
LINE
  5
3A1
330
1F
100
AcDbEntity
  8
1
  6
Continuous
 62
   155
100
AcDbLine
 10
832.929998840097
 20
1049.397619471699
 30
0.0
 11
827.461248840097
 21
1065.017736471699
 31
0.0
  0
LINE
  5
3A2
330
1F
100
AcDbEntity
  8
1
  6
Continuous
 62
   155
100
AcDbLine
 10
838.6209168400968
 20
1033.162268471699
 30
0.0
 11
833.1521668400968
 21
1048.782385471699
 31
0.0
  0
LINE
  5
3A3
330
1F
100
AcDbEntity
  8
1
  6
Continuous
 62
   155
100
AcDbLine
 10
865.6228698400969
 20
1049.397619471699
 30
0.0
 11
874.8513848400969
 21
1049.397619471699
 31
0.0
  0
LINE
  5
3A4
330
1F
100
AcDbEntity
  8
1
  6
Continuous
 62
   155
100
AcDbLine
 10
827.461248840097
 20
1065.017736471699
 30
0.0
 11
823.000798840097
 21
1065.017736471699
 31
0.0
  0
LINE
  5
3A5
330
1F
100
AcDbEntity
  8
1
  6
Continuous
 62
   155
100
AcDbLine
 10
833.1521668400968
 20
1048.782385471699
 30
0.0
 11
823.000798840097
 21
1048.782385471699
 31
0.0
  0
LINE
  5
3A6
330
1F
100
AcDbEntity
  8
1
  6
Continuous
 62
   155
100
AcDbLine
 10
865.6228698400969
 20
1033.162268471699
 30
0.0
 11
874.8513848400969
 21
1033.162268471699
 31
0.0
  0
LINE
  5
3A7
330
1F
100
AcDbEntity
  8
1
  6
Continuous
 62
   155
100
AcDbLine
 10
865.6228698400969
 20
1065.017736471699
 30
0.0
 11
865.6228698400969
 21
1049.397619471699
 31
0.0
  0
LINE
  5
3A8
330
1F
100
AcDbEntity
  8
1
  6
Continuous
 62
   155
100
AcDbLine
 10
823.000798840097
 20
1049.397619471699
 30
0.0
 11
832.929998840097
 21
1049.397619471699
 31
0.0
  0
LINE
  5
3A9
330
1F
100
AcDbEntity
  8
1
  6
Continuous
 62
   155
100
AcDbLine
 10
878.354802840097
 20
1065.017736471699
 30
0.0
 11
875.500798840097
 21
1065.017736471699
 31
0.0
  0
LINE
  5
3AA
330
1F
100
AcDbEntity
  8
1
  6
Continuous
 62
   155
100
AcDbLine
 10
823.000798840097
 20
1048.782385471699
 30
0.0
 11
823.000798840097
 21
1039.553869471699
 31
0.0
  0
LINE
  5
3AB
330
1F
100
AcDbEntity
  8
1
  6
Continuous
 62
   155
100
AcDbLine
 10
865.6228698400969
 20
1048.782385471699
 30
0.0
 11
865.6228698400969
 21
1033.162268471699
 31
0.0
  0
LINE
  5
3AC
330
1F
100
AcDbEntity
  8
1
  6
Continuous
 62
   155
100
AcDbLine
 10
823.000798840097
 20
1039.553869471699
 30
0.0
 11
828.4182798400969
 21
1039.553869471699
 31
0.0
  0
LINE
  5
3AD
330
1F
100
AcDbEntity
  8
1
  6
Continuous
 62
   155
100
AcDbLine
 10
874.8513848400969
 20
1033.162268471699
 30
0.0
 11
874.8513848400969
 21
1048.782385471699
 31
0.0
  0
LINE
  5
3AE
330
1F
100
AcDbEntity
  8
1
  6
Continuous
 62
   155
100
AcDbLine
 10
822.385564840097
 20
1065.017736471699
 30
0.0
 11
817.9251158400969
 21
1065.017736471699
 31
0.0
  0
LINE
  5
3AF
330
1F
100
AcDbEntity
  8
1
  6
Continuous
 62
   155
100
AcDbLine
 10
817.9251158400969
 20
1065.017736471699
 30
0.0
 11
812.4563658400969
 21
1049.397619471699
 31
0.0
  0
LINE
  5
3B0
330
1F
100
AcDbEntity
  8
1
  6
Continuous
 62
   155
100
AcDbLine
 10
874.8513848400969
 20
1065.017736471699
 30
0.0
 11
865.6228698400969
 21
1065.017736471699
 31
0.0
  0
LINE
  5
3B1
330
1F
100
AcDbEntity
  8
1
  6
Continuous
 62
   155
100
AcDbLine
 10
828.4182798400969
 20
1039.553869471699
 30
0.0
 11
830.657048840097
 21
1033.162268471699
 31
0.0
  0
SPLINE
  5
3B2
330
1F
100
AcDbEntity
  8
1
  6
Continuous
 62
   155
100
AcDbSpline
210
0.0
220
0.0
230
1.0
 70
     8
 71
     3
 72
     8
 73
     4
 74
     0
 42
0.0000000001
 43
0.0000000001
 40
0.0
 40
0.0
 40
0.0
 40
0.0
 40
1.0
 40
1.0
 40
1.0
 40
1.0
 10
860.3591977190889
 20
1049.397619770983
 30
-0.0000000000000008
 10
859.4591326149222
 20
1050.354651020983
 30
-0.0000000000000007
 10
858.3653826149223
 20
1051.08381768765
 30
-0.0000000000000007
 10
857.0779477190891
 20
1051.585119770983
 30
-0.0000000000000006
  0
SPLINE
  5
3B3
330
1F
100
AcDbEntity
  8
1
  6
Continuous
 62
   155
100
AcDbSpline
210
0.0
220
0.0
230
1.0
 70
     8
 71
     3
 72
     8
 73
     4
 74
     0
 42
0.0000000001
 43
0.0000000001
 40
0.0
 40
0.0
 40
0.0
 40
0.0
 40
1.0
 40
1.0
 40
1.0
 40
1.0
 10
857.0779477190891
 20
1051.585119770983
 30
-0.0000000000000006
 10
859.5047055315889
 20
1052.986486958483
 30
-0.0000000000000008
 10
860.718084437839
 20
1055.071447895983
 30
-0.0000000000000008
 10
860.718084437839
 20
1057.840002583483
 30
-0.0000000000000008
  0
SPLINE
  5
3B4
330
1F
100
AcDbEntity
  8
1
  6
Continuous
 62
   155
100
AcDbSpline
210
0.0
220
0.0
230
1.0
 70
     8
 71
     3
 72
    10
 73
     6
 74
     0
 42
0.0000000001
 43
0.0000000001
 40
0.0
 40
0.0
 40
0.0
 40
0.0
 40
0.4999999999999984
 40
0.4999999999999984
 40
1.0
 40
1.0
 40
1.0
 40
1.0
 10
853.540350062839
 20
1033.162268208483
 30
-0.0000000000000004
 10
856.274725062839
 20
1033.162268208483
 30
-0.0000000000000006
 10
858.556219203464
 20
1034.065181619942
 30
-0.0000000000000007
 10
862.213445765964
 20
1037.676835265775
 30
-0.0000000000000009
 10
863.127752406589
 20
1039.952632791817
 30
-0.000000000000001
 10
863.127752406589
 20
1042.698401020983
 30
-0.000000000000001
  0
SPLINE
  5
3B5
330
1F
100
AcDbEntity
  8
1
  6
Continuous
 62
   155
100
AcDbSpline
210
0.0
220
0.0
230
1.0
 70
     8
 71
     3
 72
    10
 73
     6
 74
     0
 42
0.0000000001
 43
0.0000000001
 40
0.0
 40
0.0
 40
0.0
 40
0.0
 40
0.5
 40
0.5
 40
1.0
 40
1.0
 40
1.0
 40
1.0
 10
860.718084437839
 20
1057.840002583483
 30
-0.0000000000000008
 10
860.718084437839
 20
1059.822424458483
 30
-0.0000000000000008
 10
860.0174008440889
 20
1061.514318989733
 30
-0.0000000000000008
 10
857.214666469089
 20
1064.317053364733
 30
-0.0000000000000006
 10
855.522771937839
 20
1065.017736958483
 30
-0.0000000000000005
 10
853.540350062839
 20
1065.017736958483
 30
-0.0000000000000004
  0
SPLINE
  5
3B6
330
1F
100
AcDbEntity
  8
1
  6
Continuous
 62
   155
100
AcDbSpline
210
0.0
220
0.0
230
1.0
 70
     8
 71
     3
 72
     8
 73
     4
 74
     0
 42
0.0000000001
 43
0.0000000001
 40
0.0
 40
0.0
 40
0.0
 40
0.0
 40
1.0
 40
1.0
 40
1.0
 40
1.0
 10
887.942205531589
 20
1042.698401020983
 30
-0.0000000000000025
 10
887.942205531589
 20
1044.977046854317
 30
-0.0000000000000025
 10
887.2130388649223
 20
1047.005041645983
 30
-0.0000000000000024
 10
885.754705531589
 20
1048.782385395983
 30
-0.0000000000000024
  0
SPLINE
  5
3B7
330
1F
100
AcDbEntity
  8
1
  6
Continuous
 62
   155
100
AcDbSpline
210
0.0
220
0.0
230
1.0
 70
     8
 71
     3
 72
    10
 73
     6
 74
     0
 42
0.0000000001
 43
0.0000000001
 40
0.0
 40
0.0
 40
0.0
 40
0.0
 40
0.4999999999999992
 40
0.4999999999999992
 40
1.0
 40
1.0
 40
1.0
 40
1.0
 10
878.3548031878391
 20
1033.162268208483
 30
-0.0000000000000019
 10
881.0891781878391
 20
1033.162268208483
 30
-0.0000000000000021
 10
883.370672328464
 20
1034.065181619942
 30
-0.0000000000000022
 10
887.0278988909641
 20
1037.676835265775
 30
-0.0000000000000024
 10
887.942205531589
 20
1039.952632791817
 30
-0.0000000000000025
 10
887.942205531589
 20
1042.698401020983
 30
-0.0000000000000025
  0
SPLINE
  5
3B8
330
1F
100
AcDbEntity
  8
1
  6
Continuous
 62
   155
100
AcDbSpline
210
0.0
220
0.0
230
1.0
 70
     8
 71
     3
 72
     8
 73
     4
 74
     0
 42
0.0000000001
 43
0.0000000001
 40
0.0
 40
0.0
 40
0.0
 40
0.0
 40
1.0
 40
1.0
 40
1.0
 40
1.0
 10
863.127752406589
 20
1042.698401020983
 30
-0.000000000000001
 10
863.127752406589
 20
1044.977046854317
 30
-0.000000000000001
 10
862.3985857399222
 20
1047.005041645983
 30
-0.0000000000000009
 10
860.940252406589
 20
1048.782385395983
 30
-0.0000000000000008
  0
SPLINE
  5
3B9
330
1F
100
AcDbEntity
  8
1
  6
Continuous
 62
   155
100
AcDbSpline
210
0.0
220
0.0
230
1.0
 70
     8
 71
     3
 72
     8
 73
     4
 74
     0
 42
0.0000000001
 43
0.0000000001
 40
0.0
 40
0.0
 40
0.0
 40
0.0
 40
1.0
 40
1.0
 40
1.0
 40
1.0
 10
881.8924008440889
 20
1051.585119770983
 30
-0.0000000000000021
 10
884.319158656589
 20
1052.986486958483
 30
-0.0000000000000023
 10
885.5325375628391
 20
1055.071447895983
 30
-0.0000000000000023
 10
885.5325375628391
 20
1057.840002583483
 30
-0.0000000000000023
  0
SPLINE
  5
3BA
330
1F
100
AcDbEntity
  8
1
  6
Continuous
 62
   155
100
AcDbSpline
210
0.0000000000000013
220
0.0000000000000019
230
-1.0
 70
     8
 71
     3
 72
     8
 73
     4
 74
     0
 42
0.0000000001
 43
0.0000000001
 40
0.0
 40
0.0
 40
0.0
 40
0.0
 40
1.0
 40
1.0
 40
1.0
 40
1.0
 10
885.173650844089
 20
1049.397619770983
 30
-0.0000000000000023
 10
884.2735857399222
 20
1050.354651020983
 30
-0.0000000000000023
 10
883.1798357399222
 20
1051.08381768765
 30
-0.0000000000000022
 10
881.8924008440889
 20
1051.585119770983
 30
-0.0000000000000021
  0
SPLINE
  5
3BB
330
1F
100
AcDbEntity
  8
1
  6
Continuous
 62
   155
100
AcDbSpline
210
0.0
220
0.0
230
1.0
 70
     8
 71
     3
 72
    10
 73
     6
 74
     0
 42
0.0000000001
 43
0.0000000001
 40
0.0
 40
0.0
 40
0.0
 40
0.0
 40
0.5
 40
0.5
 40
1.0
 40
1.0
 40
1.0
 40
1.0
 10
885.5325375628391
 20
1057.840002583483
 30
-0.0000000000000023
 10
885.5325375628391
 20
1059.822424458483
 30
-0.0000000000000023
 10
884.831853969089
 20
1061.514318989733
 30
-0.0000000000000023
 10
882.0291195940891
 20
1064.317053364733
 30
-0.0000000000000021
 10
880.337225062839
 20
1065.017736958483
 30
-0.000000000000002
 10
878.3548031878391
 20
1065.017736958483
 30
-0.0000000000000019
  0
LINE
  5
3FB
330
1F
100
AcDbEntity
  8
1
  6
Continuous
 62
   155
100
AcDbLine
 10
1447.6918882
 20
1233.5625684
 30
0.0
 11
1447.6918882
 21
1221.066474799999
 31
0.0
  0
LINE
  5
3FC
330
1F
100
AcDbEntity
  8
1
  6
Continuous
 62
   155
100
AcDbLine
 10
1439.789545
 20
1208.078194
 30
0.0
 11
1447.172357
 21
1208.078194
 31
0.0
  0
LINE
  5
3FD
330
1F
100
AcDbEntity
  8
1
  6
Continuous
 62
   155
100
AcDbLine
 10
1425.0512634
 20
1213.1914748
 30
0.0
 11
1425.0512634
 21
1220.5742876
 31
0.0
  0
LINE
  5
3FE
330
1F
100
AcDbEntity
  8
1
  6
Continuous
 62
   155
100
AcDbLine
 10
1447.172357
 20
1220.5742876
 30
0.0
 11
1439.789545
 21
1220.5742876
 31
0.0
  0
LINE
  5
3FF
330
1F
100
AcDbEntity
  8
1
  6
Continuous
 62
   155
100
AcDbLine
 10
1420.717279399999
 20
1213.1914748
 30
0.0
 11
1425.0512634
 21
1213.1914748
 31
0.0
  0
LINE
  5
400
330
1F
100
AcDbEntity
  8
1
  6
Continuous
 62
   155
100
AcDbLine
 10
1449.975091399999
 20
1233.5625684
 30
0.0
 11
1447.6918882
 21
1233.5625684
 31
0.0
  0
LINE
  5
401
330
1F
100
AcDbEntity
  8
1
  6
Continuous
 62
   155
100
AcDbLine
 10
1439.789545
 20
1220.5742876
 30
0.0
 11
1439.789545
 21
1208.078194
 31
0.0
  0
LINE
  5
402
330
1F
100
AcDbEntity
  8
1
  6
Continuous
 62
   155
100
AcDbLine
 10
1447.6918882
 20
1221.066474799999
 30
0.0
 11
1455.4301698
 21
1221.066474799999
 31
0.0
  0
LINE
  5
403
330
1F
100
AcDbEntity
  8
1
  6
Continuous
 62
   155
100
AcDbLine
 10
1439.789545
 20
1233.5625684
 30
0.0
 11
1439.789545
 21
1221.066474799999
 31
0.0
  0
LINE
  5
404
330
1F
100
AcDbEntity
  8
1
  6
Continuous
 62
   155
100
AcDbLine
 10
1467.5434506
 20
1208.078194
 30
0.0
 11
1469.8266538
 21
1208.078194
 31
0.0
  0
LINE
  5
405
330
1F
100
AcDbEntity
  8
1
  6
Continuous
 62
   155
100
AcDbLine
 10
1439.789545
 20
1221.066474799999
 30
0.0
 11
1447.172357
 21
1221.066474799999
 31
0.0
  0
LINE
  5
406
330
1F
100
AcDbEntity
  8
1
  6
Continuous
 62
   155
100
AcDbLine
 10
1447.6918882
 20
1208.078194
 30
0.0
 11
1449.975091399999
 21
1208.078194
 31
0.0
  0
LINE
  5
407
330
1F
100
AcDbEntity
  8
1
  6
Continuous
 62
   155
100
AcDbLine
 10
1425.0512634
 20
1220.5742876
 30
0.0
 11
1416.9301698
 21
1220.5742876
 31
0.0
  0
LINE
  5
408
330
1F
100
AcDbEntity
  8
1
  6
Continuous
 62
   155
100
AcDbLine
 10
1447.172357
 20
1208.078194
 30
0.0
 11
1447.172357
 21
1220.5742876
 31
0.0
  0
LINE
  5
409
330
1F
100
AcDbEntity
  8
1
  6
Continuous
 62
   155
100
AcDbLine
 10
1475.746576199999
 20
1220.5742876
 30
0.0
 11
1467.5434506
 21
1220.5742876
 31
0.0
  0
LINE
  5
40A
330
1F
100
AcDbEntity
  8
1
  6
Continuous
 62
   155
100
AcDbLine
 10
1418.926263399999
 20
1208.078194
 30
0.0
 11
1420.717279399999
 21
1213.1914748
 31
0.0
  0
LINE
  5
40B
330
1F
100
AcDbEntity
  8
1
  6
Continuous
 62
   155
100
AcDbLine
 10
1467.5434506
 20
1220.5742876
 30
0.0
 11
1467.5434506
 21
1208.078194
 31
0.0
  0
LINE
  5
40C
330
1F
100
AcDbEntity
  8
1
  6
Continuous
 62
   155
100
AcDbLine
 10
1455.8950138
 20
1220.5742876
 30
0.0
 11
1447.6918882
 21
1220.5742876
 31
0.0
  0
LINE
  5
40D
330
1F
100
AcDbEntity
  8
1
  6
Continuous
 62
   155
100
AcDbLine
 10
1447.6918882
 20
1220.5742876
 30
0.0
 11
1447.6918882
 21
1208.078194
 31
0.0
  0
LINE
  5
40E
330
1F
100
AcDbEntity
  8
1
  6
Continuous
 62
   155
100
AcDbLine
 10
1412.5551698
 20
1208.078194
 30
0.0
 11
1418.926263399999
 21
1208.078194
 31
0.0
  0
LINE
  5
40F
330
1F
100
AcDbEntity
  8
1
  6
Continuous
 62
   155
100
AcDbLine
 10
1447.172357
 20
1221.066474799999
 30
0.0
 11
1447.172357
 21
1233.5625684
 31
0.0
  0
LINE
  5
410
330
1F
100
AcDbEntity
  8
1
  6
Continuous
 62
   155
100
AcDbLine
 10
1416.9301698
 20
1220.5742876
 30
0.0
 11
1412.5551698
 21
1208.078194
 31
0.0
  0
LINE
  5
411
330
1F
100
AcDbEntity
  8
1
  6
Continuous
 62
   155
100
AcDbLine
 10
1447.172357
 20
1233.5625684
 30
0.0
 11
1439.789545
 21
1233.5625684
 31
0.0
  0
LINE
  5
412
330
1F
100
AcDbEntity
  8
1
  6
Continuous
 62
   155
100
AcDbLine
 10
1425.5434506
 20
1233.5625684
 30
0.0
 11
1425.5434506
 21
1221.066474799999
 31
0.0
  0
LINE
  5
413
330
1F
100
AcDbEntity
  8
1
  6
Continuous
 62
   155
100
AcDbLine
 10
1417.1079042
 20
1221.066474799999
 30
0.0
 11
1425.0512634
 21
1221.066474799999
 31
0.0
  0
LINE
  5
414
330
1F
100
AcDbEntity
  8
1
  6
Continuous
 62
   155
100
AcDbLine
 10
1467.0239194
 20
1221.066474799999
 30
0.0
 11
1467.0239194
 21
1233.5625684
 31
0.0
  0
LINE
  5
415
330
1F
100
AcDbEntity
  8
1
  6
Continuous
 62
   155
100
AcDbLine
 10
1467.5434506
 20
1233.5625684
 30
0.0
 11
1467.5434506
 21
1221.066474799999
 31
0.0
  0
LINE
  5
416
330
1F
100
AcDbEntity
  8
1
  6
Continuous
 62
   155
100
AcDbLine
 10
1467.5434506
 20
1221.066474799999
 30
0.0
 11
1475.2817322
 21
1221.066474799999
 31
0.0
  0
LINE
  5
417
330
1F
100
AcDbEntity
  8
1
  6
Continuous
 62
   155
100
AcDbLine
 10
1425.0512634
 20
1221.066474799999
 30
0.0
 11
1425.0512634
 21
1233.5625684
 31
0.0
  0
LINE
  5
418
330
1F
100
AcDbEntity
  8
1
  6
Continuous
 62
   155
100
AcDbLine
 10
1431.6684506
 20
1208.078194
 30
0.0
 11
1438.039544999999
 21
1208.078194
 31
0.0
  0
LINE
  5
419
330
1F
100
AcDbEntity
  8
1
  6
Continuous
 62
   155
100
AcDbLine
 10
1467.0239194
 20
1220.5742876
 30
0.0
 11
1459.6411074
 21
1220.5742876
 31
0.0
  0
LINE
  5
41A
330
1F
100
AcDbEntity
  8
1
  6
Continuous
 62
   155
100
AcDbLine
 10
1433.4868106
 20
1221.066474799999
 30
0.0
 11
1429.1118106
 21
1233.5625684
 31
0.0
  0
LINE
  5
41B
330
1F
100
AcDbEntity
  8
1
  6
Continuous
 62
   155
100
AcDbLine
 10
1438.039544999999
 20
1208.078194
 30
0.0
 11
1433.664545
 21
1220.5742876
 31
0.0
  0
LINE
  5
41C
330
1F
100
AcDbEntity
  8
1
  6
Continuous
 62
   155
100
AcDbLine
 10
1459.6411074
 20
1221.066474799999
 30
0.0
 11
1467.0239194
 21
1221.066474799999
 31
0.0
  0
LINE
  5
41D
330
1F
100
AcDbEntity
  8
1
  6
Continuous
 62
   155
100
AcDbLine
 10
1429.1118106
 20
1233.5625684
 30
0.0
 11
1425.5434506
 21
1233.5625684
 31
0.0
  0
LINE
  5
41E
330
1F
100
AcDbEntity
  8
1
  6
Continuous
 62
   155
100
AcDbLine
 10
1433.664545
 20
1220.5742876
 30
0.0
 11
1425.5434506
 21
1220.5742876
 31
0.0
  0
LINE
  5
41F
330
1F
100
AcDbEntity
  8
1
  6
Continuous
 62
   155
100
AcDbLine
 10
1459.6411074
 20
1208.078194
 30
0.0
 11
1467.0239194
 21
1208.078194
 31
0.0
  0
LINE
  5
420
330
1F
100
AcDbEntity
  8
1
  6
Continuous
 62
   155
100
AcDbLine
 10
1459.6411074
 20
1233.5625684
 30
0.0
 11
1459.6411074
 21
1221.066474799999
 31
0.0
  0
LINE
  5
421
330
1F
100
AcDbEntity
  8
1
  6
Continuous
 62
   155
100
AcDbLine
 10
1425.5434506
 20
1221.066474799999
 30
0.0
 11
1433.4868106
 21
1221.066474799999
 31
0.0
  0
LINE
  5
422
330
1F
100
AcDbEntity
  8
1
  6
Continuous
 62
   155
100
AcDbLine
 10
1469.8266538
 20
1233.5625684
 30
0.0
 11
1467.5434506
 21
1233.5625684
 31
0.0
  0
LINE
  5
423
330
1F
100
AcDbEntity
  8
1
  6
Continuous
 62
   155
100
AcDbLine
 10
1425.5434506
 20
1220.5742876
 30
0.0
 11
1425.5434506
 21
1213.1914748
 31
0.0
  0
LINE
  5
424
330
1F
100
AcDbEntity
  8
1
  6
Continuous
 62
   155
100
AcDbLine
 10
1459.6411074
 20
1220.5742876
 30
0.0
 11
1459.6411074
 21
1208.078194
 31
0.0
  0
LINE
  5
425
330
1F
100
AcDbEntity
  8
1
  6
Continuous
 62
   155
100
AcDbLine
 10
1425.5434506
 20
1213.1914748
 30
0.0
 11
1429.8774354
 21
1213.1914748
 31
0.0
  0
LINE
  5
426
330
1F
100
AcDbEntity
  8
1
  6
Continuous
 62
   155
100
AcDbLine
 10
1467.0239194
 20
1208.078194
 30
0.0
 11
1467.0239194
 21
1220.5742876
 31
0.0
  0
LINE
  5
427
330
1F
100
AcDbEntity
  8
1
  6
Continuous
 62
   155
100
AcDbLine
 10
1425.0512634
 20
1233.5625684
 30
0.0
 11
1421.4829042
 21
1233.5625684
 31
0.0
  0
LINE
  5
428
330
1F
100
AcDbEntity
  8
1
  6
Continuous
 62
   155
100
AcDbLine
 10
1421.4829042
 20
1233.5625684
 30
0.0
 11
1417.1079042
 21
1221.066474799999
 31
0.0
  0
LINE
  5
429
330
1F
100
AcDbEntity
  8
1
  6
Continuous
 62
   155
100
AcDbLine
 10
1467.0239194
 20
1233.5625684
 30
0.0
 11
1459.6411074
 21
1233.5625684
 31
0.0
  0
LINE
  5
42A
330
1F
100
AcDbEntity
  8
1
  6
Continuous
 62
   155
100
AcDbLine
 10
1429.8774354
 20
1213.1914748
 30
0.0
 11
1431.6684506
 21
1208.078194
 31
0.0
  0
SPLINE
  5
42B
330
1F
100
AcDbEntity
  8
1
  6
Continuous
 62
   155
100
AcDbSpline
210
0.0000000000000011
220
0.0000000000000017
230
-1.0
 70
     8
 71
     3
 72
     8
 73
     4
 74
     0
 42
0.0000000001
 43
0.0000000001
 40
0.0
 40
0.0
 40
0.0
 40
0.0
 40
1.0
 40
1.0
 40
1.0
 40
1.0
 10
1455.430169703193
 20
1221.066475039427
 30
-0.0000000000000006
 10
1454.71011761986
 20
1221.832100039427
 30
-0.0000000000000006
 10
1453.83511761986
 20
1222.415433372761
 30
-0.0000000000000006
 10
1452.805169703193
 20
1222.816475039427
 30
-0.0000000000000005
  0
SPLINE
  5
42C
330
1F
100
AcDbEntity
  8
1
  6
Continuous
 62
   155
100
AcDbSpline
210
0.0
220
0.0
230
1.0
 70
     8
 71
     3
 72
     8
 73
     4
 74
     0
 42
0.0000000001
 43
0.0000000001
 40
0.0
 40
0.0
 40
0.0
 40
0.0
 40
1.0
 40
1.0
 40
1.0
 40
1.0
 10
1452.805169703193
 20
1222.816475039427
 30
-0.0000000000000005
 10
1454.746575953193
 20
1223.937568789427
 30
-0.0000000000000006
 10
1455.717279078193
 20
1225.605537539427
 30
-0.0000000000000006
 10
1455.717279078193
 20
1227.820381289427
 30
-0.0000000000000006
  0
SPLINE
  5
42D
330
1F
100
AcDbEntity
  8
1
  6
Continuous
 62
   155
100
AcDbSpline
210
0.0
220
0.0
230
1.0
 70
     8
 71
     3
 72
    10
 73
     6
 74
     0
 42
0.0000000001
 43
0.0000000001
 40
0.0
 40
0.0
 40
0.0
 40
0.0
 40
0.4999999999999984
 40
0.4999999999999984
 40
1.0
 40
1.0
 40
1.0
 40
1.0
 10
1449.975091578193
 20
1208.078193789427
 30
-0.0000000000000003
 10
1452.162591578193
 20
1208.078193789427
 30
-0.0000000000000005
 10
1453.987786890693
 20
1208.800524518594
 30
-0.0000000000000006
 10
1456.913568140693
 20
1211.689847435261
 30
-0.0000000000000007
 10
1457.645013453193
 20
1213.510485456094
 30
-0.0000000000000008
 10
1457.645013453193
 20
1215.707100039427
 30
-0.0000000000000008
  0
SPLINE
  5
42E
330
1F
100
AcDbEntity
  8
1
  6
Continuous
 62
   155
100
AcDbSpline
210
0.0
220
0.0
230
1.0
 70
     8
 71
     3
 72
    10
 73
     6
 74
     0
 42
0.0000000001
 43
0.0000000001
 40
0.0
 40
0.0
 40
0.0
 40
0.0
 40
0.5
 40
0.5
 40
1.0
 40
1.0
 40
1.0
 40
1.0
 10
1455.717279078193
 20
1227.820381289427
 30
-0.0000000000000006
 10
1455.717279078193
 20
1229.406318789427
 30
-0.0000000000000006
 10
1455.156732203193
 20
1230.759834414427
 30
-0.0000000000000006
 10
1452.914544703193
 20
1233.002021914427
 30
-0.0000000000000005
 10
1451.561029078193
 20
1233.562568789427
 30
-0.0000000000000004
 10
1449.975091578193
 20
1233.562568789427
 30
-0.0000000000000003
  0
SPLINE
  5
42F
330
1F
100
AcDbEntity
  8
1
  6
Continuous
 62
   155
100
AcDbSpline
210
0.0
220
0.0
230
1.0
 70
     8
 71
     3
 72
     8
 73
     4
 74
     0
 42
0.0000000001
 43
0.0000000001
 40
0.0
 40
0.0
 40
0.0
 40
0.0
 40
1.0
 40
1.0
 40
1.0
 40
1.0
 10
1477.496575953193
 20
1215.707100039427
 30
-0.000000000000002
 10
1477.496575953193
 20
1217.530016706094
 30
-0.000000000000002
 10
1476.91324261986
 20
1219.152412539427
 30
-0.0000000000000019
 10
1475.746575953193
 20
1220.574287539427
 30
-0.0000000000000019
  0
SPLINE
  5
430
330
1F
100
AcDbEntity
  8
1
  6
Continuous
 62
   155
100
AcDbSpline
210
0.0
220
0.0
230
1.0
 70
     8
 71
     3
 72
    10
 73
     6
 74
     0
 42
0.0000000001
 43
0.0000000001
 40
0.0
 40
0.0
 40
0.0
 40
0.0
 40
0.4999999999999992
 40
0.4999999999999992
 40
1.0
 40
1.0
 40
1.0
 40
1.0
 10
1469.826654078193
 20
1208.078193789427
 30
-0.0000000000000015
 10
1472.014154078193
 20
1208.078193789427
 30
-0.0000000000000017
 10
1473.839349390693
 20
1208.800524518594
 30
-0.0000000000000018
 10
1476.765130640693
 20
1211.689847435261
 30
-0.0000000000000019
 10
1477.496575953193
 20
1213.510485456094
 30
-0.000000000000002
 10
1477.496575953193
 20
1215.707100039427
 30
-0.000000000000002
  0
SPLINE
  5
431
330
1F
100
AcDbEntity
  8
1
  6
Continuous
 62
   155
100
AcDbSpline
210
0.0
220
0.0
230
1.0
 70
     8
 71
     3
 72
     8
 73
     4
 74
     0
 42
0.0000000001
 43
0.0000000001
 40
0.0
 40
0.0
 40
0.0
 40
0.0
 40
1.0
 40
1.0
 40
1.0
 40
1.0
 10
1457.645013453193
 20
1215.707100039427
 30
-0.0000000000000008
 10
1457.645013453193
 20
1217.530016706094
 30
-0.0000000000000008
 10
1457.06168011986
 20
1219.152412539427
 30
-0.0000000000000007
 10
1455.895013453193
 20
1220.574287539427
 30
-0.0000000000000006
  0
SPLINE
  5
432
330
1F
100
AcDbEntity
  8
1
  6
Continuous
 62
   155
100
AcDbSpline
210
0.0
220
0.0
230
1.0
 70
     8
 71
     3
 72
     8
 73
     4
 74
     0
 42
0.0000000001
 43
0.0000000001
 40
0.0
 40
0.0
 40
0.0
 40
0.0
 40
1.0
 40
1.0
 40
1.0
 40
1.0
 10
1472.656732203193
 20
1222.816475039427
 30
-0.0000000000000017
 10
1474.598138453193
 20
1223.937568789427
 30
-0.0000000000000018
 10
1475.568841578193
 20
1225.605537539427
 30
-0.0000000000000018
 10
1475.568841578193
 20
1227.820381289427
 30
-0.0000000000000018
  0
SPLINE
  5
433
330
1F
100
AcDbEntity
  8
1
  6
Continuous
 62
   155
100
AcDbSpline
210
-0.0000000000000013
220
-0.0000000000000019
230
1.0
 70
     8
 71
     3
 72
     8
 73
     4
 74
     0
 42
0.0000000001
 43
0.0000000001
 40
0.0
 40
0.0
 40
0.0
 40
0.0
 40
1.0
 40
1.0
 40
1.0
 40
1.0
 10
1475.281732203193
 20
1221.066475039427
 30
-0.0000000000000018
 10
1474.56168011986
 20
1221.832100039427
 30
-0.0000000000000018
 10
1473.68668011986
 20
1222.415433372761
 30
-0.0000000000000018
 10
1472.656732203193
 20
1222.816475039427
 30
-0.0000000000000017
  0
SPLINE
  5
434
330
1F
100
AcDbEntity
  8
1
  6
Continuous
 62
   155
100
AcDbSpline
210
0.0
220
0.0
230
1.0
 70
     8
 71
     3
 72
    10
 73
     6
 74
     0
 42
0.0000000001
 43
0.0000000001
 40
0.0
 40
0.0
 40
0.0
 40
0.0
 40
0.5
 40
0.5
 40
1.0
 40
1.0
 40
1.0
 40
1.0
 10
1475.568841578193
 20
1227.820381289427
 30
-0.0000000000000018
 10
1475.568841578193
 20
1229.406318789427
 30
-0.0000000000000018
 10
1475.008294703193
 20
1230.759834414427
 30
-0.0000000000000018
 10
1472.766107203193
 20
1233.002021914427
 30
-0.0000000000000017
 10
1471.412591578193
 20
1233.562568789427
 30
-0.0000000000000016
 10
1469.826654078193
 20
1233.562568789427
 30
-0.0000000000000015
  0
ENDSEC
  0
SECTION
  2
OBJECTS
  0
DICTIONARY
  5
C
330
0
100
AcDbDictionary
281
     1
  3
ACAD_CIP_PREVIOUS_PRODUCT_INFO
350
255
  3
ACAD_COLOR
350
23E
  3
ACAD_GROUP
350
D
  3
ACAD_LAYOUT
350
1A
  3
ACAD_MATERIAL
350
3B
  3
ACAD_MLEADERSTYLE
350
231
  3
ACAD_MLINESTYLE
350
17
  3
ACAD_PLOTSETTINGS
350
19
  3
ACAD_PLOTSTYLENAME
350
E
  3
ACAD_SCALELIST
350
240
  3
ACAD_TABLESTYLE
350
230
  3
ACAD_VISUALSTYLE
350
2A
  3
ACDB_RECOMPOSE_DATA
350
43F
  3
AcDbVariableDictionary
350
435
  3
AcmDictionary
350
280
  3
AMG
350
256
  3
AMGSNAPSETTINGS
350
2BE
  0
XRECORD
  5
255
102
{ACAD_REACTORS
330
C
102
}
330
C
100
AcDbXrecord
280
     1
300
AMECH_PP
300
2012
300
85794PDSS_2012_0F
  0
DICTIONARY
  5
23E
102
{ACAD_REACTORS
330
C
102
}
330
C
100
AcDbDictionary
281
     1
  0
DICTIONARY
  5
D
102
{ACAD_REACTORS
330
C
102
}
330
C
100
AcDbDictionary
281
     1
  0
DICTIONARY
  5
1A
102
{ACAD_REACTORS
330
C
102
}
330
C
100
AcDbDictionary
281
     1
  3
Layout1
350
1E
  3
Layout2
350
26
  3
Model
350
22
  0
DICTIONARY
  5
3B
102
{ACAD_REACTORS
330
C
102
}
330
C
100
AcDbDictionary
281
     1
  3
BYBLOCK
350
3D
  3
BYLAYER
350
3C
  3
Global
350
3E
  0
DICTIONARY
  5
231
102
{ACAD_REACTORS
330
C
102
}
330
C
100
AcDbDictionary
281
     1
  3
Standard
350
252
  0
DICTIONARY
  5
17
102
{ACAD_REACTORS
330
C
102
}
330
C
100
AcDbDictionary
281
     1
  3
Standard
350
18
  0
DICTIONARY
  5
19
102
{ACAD_REACTORS
330
C
102
}
330
C
100
AcDbDictionary
281
     1
  0
ACDBDICTIONARYWDFLT
  5
E
102
{ACAD_REACTORS
330
C
102
}
330
C
100
AcDbDictionary
281
     1
  3
Normal
350
F
100
AcDbDictionaryWithDefault
340
F
  0
DICTIONARY
  5
240
102
{ACAD_REACTORS
330
C
102
}
330
C
100
AcDbDictionary
281
     1
  3
A0
350
241
  3
A1
350
242
  3
A2
350
243
  3
A3
350
244
  3
A4
350
245
  3
A5
350
246
  3
A6
350
247
  3
A7
350
248
  3
A8
350
249
  3
A9
350
24A
  3
B0
350
24B
  3
B1
350
24C
  3
B2
350
24D
  3
B3
350
24E
  3
B4
350
24F
  3
B5
350
250
  3
B6
350
251
  0
DICTIONARY
  5
230
102
{ACAD_REACTORS
330
C
102
}
330
C
100
AcDbDictionary
281
     1
  3
Standard
350
23F
  0
DICTIONARY
  5
2A
102
{ACAD_REACTORS
330
C
102
}
330
C
100
AcDbDictionary
281
     1
  3
2dWireframe
350
2F
  3
3D Hidden
350
31
  3
3dWireframe
350
30
  3
Basic
350
32
  3
Brighten
350
36
  3
ColorChange
350
3A
  3
Conceptual
350
34
  3
Dim
350
35
  3
EdgeColorOff
350
23D
  3
Facepattern
350
39
  3
Flat
350
2B
  3
FlatWithEdges
350
2C
  3
Gouraud
350
2D
  3
GouraudWithEdges
350
2E
  3
Hidden
350
235
  3
JitterOff
350
23B
  3
Linepattern
350
38
  3
OverhangOff
350
23C
  3
Realistic
350
33
  3
Shaded
350
23A
  3
Shaded with edges
350
239
  3
Shades of Gray
350
236
  3
Sketchy
350
237
  3
Thicken
350
37
  3
Wireframe
350
234
  3
X-Ray
350
238
  0
XRECORD
  5
43F
102
{ACAD_REACTORS
330
C
102
}
330
C
100
AcDbXrecord
280
     1
 90
        1
330
23F
330
2C7
  0
DICTIONARY
  5
435
102
{ACAD_REACTORS
330
C
102
}
330
C
100
AcDbDictionary
281
     1
  3
CANNOSCALE
350
439
  3
CMLEADERSTYLE
350
437
  3
CTABLESTYLE
350
436
  3
LAYEREVAL
350
43B
  3
LAYERNOTIFY
350
43C
  3
LIGHTINGUNITS
350
43A
  3
MSLTSCALE
350
438
  0
DICTIONARY
  5
280
102
{ACAD_REACTORS
330
C
102
}
330
C
100
AcDbDictionary
281
     1
  3
AcmStdDictionary
350
287
  0
DICTIONARY
  5
256
102
{ACAD_REACTORS
330
C
102
}
330
C
100
AcDbDictionary
281
     1
  0
DICTIONARY
  5
2BE
102
{ACAD_REACTORS
330
C
102
}
330
C
100
AcDbDictionary
281
     1
  0
LAYOUT
  5
1E
102
{ACAD_REACTORS
330
1A
102
}
330
1A
100
AcDbPlotSettings
  1

  2
none_device
  4

  6

 40
0.0
 41
0.0
 42
0.0
 43
0.0
 44
0.0
 45
0.0
 46
0.0
 47
0.0
 48
0.0
 49
0.0
140
0.0
141
0.0
142
1.0
143
1.0
 70
   688
 72
     0
 73
     0
 74
     5
  7

 75
    16
147
1.0
 76
     0
 77
     2
 78
   300
148
0.0
149
0.0
100
AcDbLayout
  1
Layout1
 70
     1
 71
     1
 10
-0.5
 20
-0.5
 11
5.0
 21
5.0
 12
0.0
 22
0.0
 32
0.0
 14
-0.5
 24
-0.5
 34
-0.5
 15
5.0
 25
5.0
 35
5.0
146
0.0
 13
0.0
 23
0.0
 33
0.0
 16
1.0
 26
0.0
 36
0.0
 17
0.0
 27
1.0
 37
0.0
 76
     0
330
1B
  0
LAYOUT
  5
26
102
{ACAD_REACTORS
330
1A
102
}
330
1A
100
AcDbPlotSettings
  1

  2
none_device
  4

  6

 40
0.0
 41
0.0
 42
0.0
 43
0.0
 44
0.0
 45
0.0
 46
0.0
 47
0.0
 48
0.0
 49
0.0
140
0.0
141
0.0
142
1.0
143
1.0
 70
   688
 72
     0
 73
     0
 74
     5
  7

 75
    16
147
1.0
 76
     0
 77
     2
 78
   300
148
0.0
149
0.0
100
AcDbLayout
  1
Layout2
 70
     1
 71
     2
 10
0.0
 20
0.0
 11
0.0
 21
0.0
 12
0.0
 22
0.0
 32
0.0
 14
0.0
 24
0.0
 34
0.0
 15
0.0
 25
0.0
 35
0.0
146
0.0
 13
0.0
 23
0.0
 33
0.0
 16
1.0
 26
0.0
 36
0.0
 17
0.0
 27
1.0
 37
0.0
 76
     0
330
23
  0
LAYOUT
  5
22
102
{ACAD_REACTORS
330
1A
102
}
330
1A
100
AcDbPlotSettings
  1

  2
none_device
  4

  6

 40
0.0
 41
0.0
 42
0.0
 43
0.0
 44
0.0
 45
0.0
 46
0.0
 47
0.0
 48
0.0
 49
0.0
140
0.0
141
0.0
142
1.0
143
1.0
 70
  1712
 72
     0
 73
     0
 74
     0
  7

 75
     0
147
1.0
 76
     0
 77
     2
 78
   300
148
0.0
149
0.0
100
AcDbLayout
  1
Model
 70
     1
 71
     0
 10
-0.5
 20
-0.5
 11
5.0
 21
5.0
 12
0.0
 22
0.0
 32
0.0
 14
-0.5
 24
-0.5
 34
-0.5
 15
5.0
 25
5.0
 35
5.0
146
0.0
 13
0.0
 23
0.0
 33
0.0
 16
1.0
 26
0.0
 36
0.0
 17
0.0
 27
1.0
 37
0.0
 76
     0
330
1F
331
1FA
  0
MATERIAL
  5
3D
102
{ACAD_XDICTIONARY
360
22C
102
}
102
{ACAD_REACTORS
330
3B
102
}
330
3B
100
AcDbMaterial
  1
BYBLOCK
  0
MATERIAL
  5
3C
102
{ACAD_XDICTIONARY
360
22A
102
}
102
{ACAD_REACTORS
330
3B
102
}
330
3B
100
AcDbMaterial
  1
BYLAYER
  0
MATERIAL
  5
3E
102
{ACAD_XDICTIONARY
360
22E
102
}
102
{ACAD_REACTORS
330
3B
102
}
330
3B
100
AcDbMaterial
  1
Global
  0
MLEADERSTYLE
  5
252
102
{ACAD_REACTORS
330
231
102
}
330
231
100
AcDbMLeaderStyle
179
     2
170
     2
171
     1
172
     0
 90
        2
 40
0.0
 41
0.0
173
     1
 91
-1056964608
340
14
 92
       -2
290
     1
 42
2.0
291
     1
 43
0.36
  3
Standard
 44
4.0
300

342
11
174
     1
178
     6
175
     1
176
     0
 93
-1056964608
 45
4.0
292
     0
297
     0
 46
4.0
 94
-1056964608
 47
1.0
 49
1.0
140
1.0
293
     1
141
0.0
294
     1
177
     0
142
1.0
295
     0
296
     0
143
0.125
271
     0
272
     9
273
     9
  0
MLINESTYLE
  5
18
102
{ACAD_REACTORS
330
17
102
}
330
17
100
AcDbMlineStyle
  2
STANDARD
 70
     0
  3

 62
   256
 51
90.0
 52
90.0
 71
     2
 49
0.5
 62
   256
  6
BYLAYER
 49
-0.5
 62
   256
  6
BYLAYER
  0
ACDBPLACEHOLDER
  5
F
102
{ACAD_REACTORS
330
E
102
}
330
E
  0
SCALE
  5
241
102
{ACAD_REACTORS
330
240
102
}
330
240
100
AcDbScale
 70
     0
300
1:1
140
1.0
141
1.0
290
     1
  0
SCALE
  5
242
102
{ACAD_REACTORS
330
240
102
}
330
240
100
AcDbScale
 70
     0
300
1:2
140
1.0
141
2.0
290
     0
  0
SCALE
  5
243
102
{ACAD_REACTORS
330
240
102
}
330
240
100
AcDbScale
 70
     0
300
1:4
140
1.0
141
4.0
290
     0
  0
SCALE
  5
244
102
{ACAD_REACTORS
330
240
102
}
330
240
100
AcDbScale
 70
     0
300
1:5
140
1.0
141
5.0
290
     0
  0
SCALE
  5
245
102
{ACAD_REACTORS
330
240
102
}
330
240
100
AcDbScale
 70
     0
300
1:8
140
1.0
141
8.0
290
     0
  0
SCALE
  5
246
102
{ACAD_REACTORS
330
240
102
}
330
240
100
AcDbScale
 70
     0
300
1:10
140
1.0
141
10.0
290
     0
  0
SCALE
  5
247
102
{ACAD_REACTORS
330
240
102
}
330
240
100
AcDbScale
 70
     0
300
1:16
140
1.0
141
16.0
290
     0
  0
SCALE
  5
248
102
{ACAD_REACTORS
330
240
102
}
330
240
100
AcDbScale
 70
     0
300
1:20
140
1.0
141
20.0
290
     0
  0
SCALE
  5
249
102
{ACAD_REACTORS
330
240
102
}
330
240
100
AcDbScale
 70
     0
300
1:30
140
1.0
141
30.0
290
     0
  0
SCALE
  5
24A
102
{ACAD_REACTORS
330
240
102
}
330
240
100
AcDbScale
 70
     0
300
1:40
140
1.0
141
40.0
290
     0
  0
SCALE
  5
24B
102
{ACAD_REACTORS
330
240
102
}
330
240
100
AcDbScale
 70
     0
300
1:50
140
1.0
141
50.0
290
     0
  0
SCALE
  5
24C
102
{ACAD_REACTORS
330
240
102
}
330
240
100
AcDbScale
 70
     0
300
1:100
140
1.0
141
100.0
290
     0
  0
SCALE
  5
24D
102
{ACAD_REACTORS
330
240
102
}
330
240
100
AcDbScale
 70
     0
300
2:1
140
2.0
141
1.0
290
     0
  0
SCALE
  5
24E
102
{ACAD_REACTORS
330
240
102
}
330
240
100
AcDbScale
 70
     0
300
4:1
140
4.0
141
1.0
290
     0
  0
SCALE
  5
24F
102
{ACAD_REACTORS
330
240
102
}
330
240
100
AcDbScale
 70
     0
300
8:1
140
8.0
141
1.0
290
     0
  0
SCALE
  5
250
102
{ACAD_REACTORS
330
240
102
}
330
240
100
AcDbScale
 70
     0
300
10:1
140
10.0
141
1.0
290
     0
  0
SCALE
  5
251
102
{ACAD_REACTORS
330
240
102
}
330
240
100
AcDbScale
 70
     0
300
100:1
140
100.0
141
1.0
290
     0
  0
TABLESTYLE
  5
23F
102
{ACAD_XDICTIONARY
360
43D
102
}
102
{ACAD_REACTORS
330
230
102
}
330
230
100
AcDbTableStyle
280
     0
  3
Standard
 70
     0
 71
     0
 40
1.5
 41
1.5
280
     0
281
     0
  7
Standard
140
4.5
170
     2
 62
     0
 63
     7
283
     0
 90
      512
 91
        0
  1

274
    -2
284
     1
 64
     0
275
    -2
285
     1
 65
     0
276
    -2
286
     1
 66
     0
277
    -2
287
     1
 67
     0
278
    -2
288
     1
 68
     0
279
    -2
289
     1
 69
     0
  7
Standard
140
6.0
170
     5
 62
     0
 63
     7
283
     0
 90
      512
 91
        0
  1

274
    -2
284
     1
 64
     0
275
    -2
285
     1
 65
     0
276
    -2
286
     1
 66
     0
277
    -2
287
     1
 67
     0
278
    -2
288
     1
 68
     0
279
    -2
289
     1
 69
     0
  7
Standard
140
4.5
170
     5
 62
     0
 63
     7
283
     0
 90
      512
 91
        0
  1

274
    -2
284
     1
 64
     0
275
    -2
285
     1
 65
     0
276
    -2
286
     1
 66
     0
277
    -2
287
     1
 67
     0
278
    -2
288
     1
 68
     0
279
    -2
289
     1
 69
     0
  0
VISUALSTYLE
  5
2F
102
{ACAD_REACTORS
330
2A
102
}
330
2A
100
AcDbVisualStyle
  2

 70
     4
177
     2
291
     0
 71
     0
176
     1
 72
     2
176
     1
 73
     0
176
     1
 90
        0
176
     1
 40
0.6
176
     1
 41
30.0
176
     1
 63
     7
421
 16777215
176
     1
 74
     1
176
     1
 91
        4
176
     1
 64
     7
176
     1
 65
   257
176
     1
 75
     1
176
     1
175
     1
176
     1
 42
1.0
176
     1
 92
        0
176
     1
 66
   257
176
     1
 43
1.0
176
     1
 76
     1
176
     1
 77
     6
176
     1
 78
     2
176
     1
 67
     7
176
     1
 79
     5
176
     1
170
     0
176
     1
171
     0
176
     1
290
     0
176
     1
 93
        1
176
     1
 44
0.0
176
     1
173
     0
176
     1
1001
ACAD
1000
AcDbSavedByObjectVersion
1070
     0
  0
VISUALSTYLE
  5
31
102
{ACAD_REACTORS
330
2A
102
}
330
2A
100
AcDbVisualStyle
  2

 70
     6
177
     2
291
     0
 71
     1
176
     1
 72
     2
176
     1
 73
     2
176
     1
 90
        0
176
     1
 40
0.6
176
     1
 41
30.0
176
     1
 63
     7
421
 16777215
176
     1
 74
     2
176
     1
 91
        2
176
     1
 64
     7
176
     1
 65
   257
176
     1
 75
     2
176
     1
175
     1
176
     1
 42
40.0
176
     1
 92
        0
176
     1
 66
   257
176
     1
 43
1.0
176
     1
 76
     1
176
     1
 77
     6
176
     1
 78
     2
176
     1
 67
     7
176
     1
 79
     3
176
     1
170
     0
176
     1
171
     0
176
     1
290
     0
176
     1
 93
        1
176
     1
 44
0.0
176
     1
173
     0
176
     1
1001
ACAD
1000
AcDbSavedByObjectVersion
1070
     0
  0
VISUALSTYLE
  5
30
102
{ACAD_REACTORS
330
2A
102
}
330
2A
100
AcDbVisualStyle
  2

 70
     5
177
     2
291
     0
 71
     0
176
     1
 72
     2
176
     1
 73
     0
176
     1
 90
        0
176
     1
 40
0.6
176
     1
 41
30.0
176
     1
 63
     7
421
 16777215
176
     1
 74
     1
176
     1
 91
        4
176
     1
 64
     7
176
     1
 65
   257
176
     1
 75
     1
176
     1
175
     1
176
     1
 42
1.0
176
     1
 92
        0
176
     1
 66
   257
176
     1
 43
1.0
176
     1
 76
     1
176
     1
 77
     6
176
     1
 78
     2
176
     1
 67
     7
176
     1
 79
     5
176
     1
170
     0
176
     1
171
     0
176
     1
290
     0
176
     1
 93
        1
176
     1
 44
0.0
176
     1
173
     0
176
     1
1001
ACAD
1000
AcDbSavedByObjectVersion
1070
     0
  0
VISUALSTYLE
  5
32
102
{ACAD_REACTORS
330
2A
102
}
330
2A
100
AcDbVisualStyle
  2

 70
     7
177
     2
291
     1
 71
     1
176
     1
 72
     0
176
     1
 73
     1
176
     1
 90
        0
176
     1
 40
0.6
176
     1
 41
30.0
176
     1
 63
     7
421
 16777215
176
     1
 74
     0
176
     1
 91
        4
176
     1
 64
     7
176
     1
 65
   257
176
     1
 75
     1
176
     1
175
     1
176
     1
 42
1.0
176
     1
 92
        8
176
     1
 66
     7
176
     1
 43
1.0
176
     1
 76
     1
176
     1
 77
     6
176
     1
 78
     2
176
     1
 67
     7
176
     1
 79
     5
176
     1
170
     0
176
     1
171
     0
176
     1
290
     0
176
     1
 93
        1
176
     1
 44
0.0
176
     1
173
     0
176
     1
1001
ACAD
1000
AcDbSavedByObjectVersion
1070
     0
  0
VISUALSTYLE
  5
36
102
{ACAD_REACTORS
330
2A
102
}
330
2A
100
AcDbVisualStyle
  2

 70
    12
177
     2
291
     1
 71
     2
176
     1
 72
     2
176
     1
 73
     0
176
     1
 90
        0
176
     1
 40
0.6
176
     1
 41
30.0
176
     1
 63
     7
421
 16777215
176
     1
 74
     1
176
     1
 91
        4
176
     1
 64
     7
176
     1
 65
   257
176
     1
 75
     1
176
     1
175
     1
176
     1
 42
1.0
176
     1
 92
        8
176
     1
 66
     7
176
     1
 43
1.0
176
     1
 76
     1
176
     1
 77
     6
176
     1
 78
     2
176
     1
 67
     7
176
     1
 79
     5
176
     1
170
     0
176
     1
171
     0
176
     1
290
     0
176
     1
 93
        1
176
     1
 44
50.0
176
     1
173
     0
176
     1
1001
ACAD
1000
AcDbSavedByObjectVersion
1070
     0
  0
VISUALSTYLE
  5
3A
102
{ACAD_REACTORS
330
2A
102
}
330
2A
100
AcDbVisualStyle
  2

 70
    16
177
     2
291
     1
 71
     2
176
     1
 72
     2
176
     1
 73
     3
176
     1
 90
        0
176
     1
 40
0.6
176
     1
 41
30.0
176
     1
 63
     8
421
  8421504
176
     1
 74
     1
176
     1
 91
        4
176
     1
 64
     7
176
     1
 65
   257
176
     1
 75
     1
176
     1
175
     1
176
     1
 42
1.0
176
     1
 92
        8
176
     1
 66
     8
424
  8421504
176
     1
 43
1.0
176
     1
 76
     1
176
     1
 77
     6
176
     1
 78
     2
176
     1
 67
     7
176
     1
 79
     5
176
     1
170
     0
176
     1
171
     0
176
     1
290
     0
176
     1
 93
        1
176
     1
 44
0.0
176
     1
173
     0
176
     1
1001
ACAD
1000
AcDbSavedByObjectVersion
1070
     0
  0
VISUALSTYLE
  5
34
102
{ACAD_REACTORS
330
2A
102
}
330
2A
100
AcDbVisualStyle
  2

 70
     9
177
     2
291
     0
 71
     3
176
     1
 72
     2
176
     1
 73
     0
176
     1
 90
        0
176
     1
 40
0.6
176
     1
 41
30.0
176
     1
 63
     7
421
 16777215
176
     1
 74
     2
176
     1
 91
        2
176
     1
 64
     7
176
     1
 65
   257
176
     1
 75
     1
176
     1
175
     1
176
     1
 42
40.0
176
     1
 92
        8
176
     1
 66
     7
176
     1
 43
1.0
176
     1
 76
     1
176
     1
 77
     6
176
     1
 78
     2
176
     1
 67
     7
176
     1
 79
     3
176
     1
170
     0
176
     1
171
     0
176
     1
290
     0
176
     1
 93
        1
176
     1
 44
0.0
176
     1
173
     0
176
     1
1001
ACAD
1000
AcDbSavedByObjectVersion
1070
     0
  0
VISUALSTYLE
  5
35
102
{ACAD_REACTORS
330
2A
102
}
330
2A
100
AcDbVisualStyle
  2

 70
    11
177
     2
291
     1
 71
     2
176
     1
 72
     2
176
     1
 73
     0
176
     1
 90
        0
176
     1
 40
0.6
176
     1
 41
30.0
176
     1
 63
     7
421
 16777215
176
     1
 74
     1
176
     1
 91
        4
176
     1
 64
     7
176
     1
 65
   257
176
     1
 75
     1
176
     1
175
     1
176
     1
 42
1.0
176
     1
 92
        8
176
     1
 66
     7
176
     1
 43
1.0
176
     1
 76
     1
176
     1
 77
     6
176
     1
 78
     2
176
     1
 67
     7
176
     1
 79
     5
176
     1
170
     0
176
     1
171
     0
176
     1
290
     0
176
     1
 93
        1
176
     1
 44
-50.0
176
     1
173
     0
176
     1
1001
ACAD
1000
AcDbSavedByObjectVersion
1070
     0
  0
VISUALSTYLE
  5
23D
102
{ACAD_REACTORS
330
2A
102
}
330
2A
100
AcDbVisualStyle
  2
EdgeColorOff
 70
    22
177
     2
291
     1
 71
     2
176
     0
 72
     2
176
     0
 73
     0
176
     0
 90
        0
176
     0
 40
0.6
176
     0
 41
30.0
176
     0
 63
     7
421
 16777215
176
     0
 74
     1
176
     0
 91
        4
176
     0
 64
     7
176
     0
 65
   257
176
     0
 75
     1
176
     0
175
     1
176
     0
 42
1.0
176
     0
 92
        8
176
     2
 66
     7
176
     0
 43
1.0
176
     0
 76
     1
176
     0
 77
     6
176
     0
 78
     2
176
     0
 67
     7
176
     0
 79
     5
176
     0
170
     0
176
     0
171
     0
176
     0
290
     0
176
     0
 93
        1
176
     0
 44
0.0
176
     0
173
     0
176
     0
  0
VISUALSTYLE
  5
39
102
{ACAD_REACTORS
330
2A
102
}
330
2A
100
AcDbVisualStyle
  2

 70
    15
177
     2
291
     1
 71
     2
176
     1
 72
     2
176
     1
 73
     0
176
     1
 90
        0
176
     1
 40
0.6
176
     1
 41
30.0
176
     1
 63
     7
421
 16777215
176
     1
 74
     1
176
     1
 91
        4
176
     1
 64
     7
176
     1
 65
   257
176
     1
 75
     1
176
     1
175
     1
176
     1
 42
1.0
176
     1
 92
        8
176
     1
 66
     7
176
     1
 43
1.0
176
     1
 76
     1
176
     1
 77
     6
176
     1
 78
     2
176
     1
 67
     7
176
     1
 79
     5
176
     1
170
     0
176
     1
171
     0
176
     1
290
     0
176
     1
 93
        1
176
     1
 44
0.0
176
     1
173
     0
176
     1
1001
ACAD
1000
AcDbSavedByObjectVersion
1070
     0
  0
VISUALSTYLE
  5
2B
102
{ACAD_REACTORS
330
2A
102
}
330
2A
100
AcDbVisualStyle
  2

 70
     0
177
     2
291
     1
 71
     2
176
     1
 72
     1
176
     1
 73
     1
176
     1
 90
        2
176
     1
 40
0.6
176
     1
 41
30.0
176
     1
 63
     7
421
 16777215
176
     1
 74
     0
176
     1
 91
        4
176
     1
 64
     7
176
     1
 65
   257
176
     1
 75
     1
176
     1
175
     1
176
     1
 42
1.0
176
     1
 92
        8
176
     1
 66
     7
176
     1
 43
1.0
176
     1
 76
     1
176
     1
 77
     6
176
     1
 78
     2
176
     1
 67
     7
176
     1
 79
     5
176
     1
170
     0
176
     1
171
     0
176
     1
290
     0
176
     1
 93
       13
176
     1
 44
0.0
176
     1
173
     0
176
     1
1001
ACAD
1000
AcDbSavedByObjectVersion
1070
     0
  0
VISUALSTYLE
  5
2C
102
{ACAD_REACTORS
330
2A
102
}
330
2A
100
AcDbVisualStyle
  2

 70
     1
177
     2
291
     1
 71
     2
176
     1
 72
     1
176
     1
 73
     1
176
     1
 90
        2
176
     1
 40
0.6
176
     1
 41
30.0
176
     1
 63
     7
421
 16777215
176
     1
 74
     1
176
     1
 91
        4
176
     1
 64
     7
176
     1
 65
   257
176
     1
 75
     1
176
     1
175
     1
176
     1
 42
1.0
176
     1
 92
        0
176
     1
 66
   257
176
     1
 43
1.0
176
     1
 76
     1
176
     1
 77
     6
176
     1
 78
     2
176
     1
 67
     7
176
     1
 79
     5
176
     1
170
     0
176
     1
171
     0
176
     1
290
     0
176
     1
 93
       13
176
     1
 44
0.0
176
     1
173
     0
176
     1
1001
ACAD
1000
AcDbSavedByObjectVersion
1070
     0
  0
VISUALSTYLE
  5
2D
102
{ACAD_REACTORS
330
2A
102
}
330
2A
100
AcDbVisualStyle
  2

 70
     2
177
     2
291
     1
 71
     2
176
     1
 72
     2
176
     1
 73
     1
176
     1
 90
        2
176
     1
 40
0.6
176
     1
 41
30.0
176
     1
 63
     7
421
 16777215
176
     1
 74
     0
176
     1
 91
        4
176
     1
 64
     7
176
     1
 65
   257
176
     1
 75
     1
176
     1
175
     1
176
     1
 42
1.0
176
     1
 92
        0
176
     1
 66
     7
176
     1
 43
1.0
176
     1
 76
     1
176
     1
 77
     6
176
     1
 78
     2
176
     1
 67
     7
176
     1
 79
     5
176
     1
170
     0
176
     1
171
     0
176
     1
290
     0
176
     1
 93
       13
176
     1
 44
0.0
176
     1
173
     0
176
     1
1001
ACAD
1000
AcDbSavedByObjectVersion
1070
     0
  0
VISUALSTYLE
  5
2E
102
{ACAD_REACTORS
330
2A
102
}
330
2A
100
AcDbVisualStyle
  2

 70
     3
177
     2
291
     1
 71
     2
176
     1
 72
     2
176
     1
 73
     1
176
     1
 90
        2
176
     1
 40
0.6
176
     1
 41
30.0
176
     1
 63
     7
421
 16777215
176
     1
 74
     1
176
     1
 91
        4
176
     1
 64
     7
176
     1
 65
   257
176
     1
 75
     1
176
     1
175
     1
176
     1
 42
1.0
176
     1
 92
        0
176
     1
 66
   257
176
     1
 43
1.0
176
     1
 76
     1
176
     1
 77
     6
176
     1
 78
     2
176
     1
 67
     7
176
     1
 79
     5
176
     1
170
     0
176
     1
171
     0
176
     1
290
     0
176
     1
 93
       13
176
     1
 44
0.0
176
     1
173
     0
176
     1
1001
ACAD
1000
AcDbSavedByObjectVersion
1070
     0
  0
VISUALSTYLE
  5
235
102
{ACAD_REACTORS
330
2A
102
}
330
2A
100
AcDbVisualStyle
  2
Hidden
 70
     6
177
     2
291
     0
 71
     1
176
     1
 72
     2
176
     1
 73
     2
176
     1
 90
        0
176
     1
 40
0.6
176
     1
 41
30.0
176
     1
 63
     7
421
 16777215
176
     1
 74
     2
176
     1
 91
        2
176
     1
 64
     7
176
     1
 65
   257
176
     1
 75
     2
176
     1
175
     1
176
     1
 42
40.0
176
     1
 92
        0
176
     1
 66
   257
176
     1
 43
1.0
176
     1
 76
     1
176
     1
 77
     6
176
     1
 78
     2
176
     1
 67
     7
176
     1
 79
     3
176
     1
170
     0
176
     1
171
     0
176
     1
290
     0
176
     1
 93
        1
176
     1
 44
0.0
176
     1
173
     0
176
     1
  0
VISUALSTYLE
  5
23B
102
{ACAD_REACTORS
330
2A
102
}
330
2A
100
AcDbVisualStyle
  2
JitterOff
 70
    20
177
     2
291
     1
 71
     2
176
     0
 72
     2
176
     0
 73
     0
176
     0
 90
        0
176
     0
 40
0.6
176
     0
 41
30.0
176
     0
 63
     7
421
 16777215
176
     0
 74
     1
176
     0
 91
        4
176
     0
 64
     7
176
     0
 65
   257
176
     0
 75
     1
176
     0
175
     1
176
     0
 42
1.0
176
     0
 92
       10
176
     2
 66
     7
176
     0
 43
1.0
176
     0
 76
     1
176
     0
 77
     6
176
     0
 78
     2
176
     0
 67
     7
176
     0
 79
     5
176
     0
170
     0
176
     0
171
     0
176
     0
290
     0
176
     0
 93
        1
176
     0
 44
0.0
176
     0
173
     0
176
     0
  0
VISUALSTYLE
  5
38
102
{ACAD_REACTORS
330
2A
102
}
330
2A
100
AcDbVisualStyle
  2

 70
    14
177
     2
291
     1
 71
     2
176
     1
 72
     2
176
     1
 73
     0
176
     1
 90
        0
176
     1
 40
0.6
176
     1
 41
30.0
176
     1
 63
     7
421
 16777215
176
     1
 74
     1
176
     1
 91
        4
176
     1
 64
     7
176
     1
 65
   257
176
     1
 75
     7
176
     1
175
     7
176
     1
 42
1.0
176
     1
 92
        8
176
     1
 66
     7
176
     1
 43
1.0
176
     1
 76
     1
176
     1
 77
     6
176
     1
 78
     2
176
     1
 67
     7
176
     1
 79
     5
176
     1
170
     0
176
     1
171
     0
176
     1
290
     0
176
     1
 93
        1
176
     1
 44
0.0
176
     1
173
     0
176
     1
1001
ACAD
1000
AcDbSavedByObjectVersion
1070
     0
  0
VISUALSTYLE
  5
23C
102
{ACAD_REACTORS
330
2A
102
}
330
2A
100
AcDbVisualStyle
  2
OverhangOff
 70
    21
177
     2
291
     1
 71
     2
176
     0
 72
     2
176
     0
 73
     0
176
     0
 90
        0
176
     0
 40
0.6
176
     0
 41
30.0
176
     0
 63
     7
421
 16777215
176
     0
 74
     1
176
     0
 91
        4
176
     0
 64
     7
176
     0
 65
   257
176
     0
 75
     1
176
     0
175
     1
176
     0
 42
1.0
176
     0
 92
        9
176
     2
 66
     7
176
     0
 43
1.0
176
     0
 76
     1
176
     0
 77
     6
176
     0
 78
     2
176
     0
 67
     7
176
     0
 79
     5
176
     0
170
     0
176
     0
171
     0
176
     0
290
     0
176
     0
 93
        1
176
     0
 44
0.0
176
     0
173
     0
176
     0
  0
VISUALSTYLE
  5
33
102
{ACAD_REACTORS
330
2A
102
}
330
2A
100
AcDbVisualStyle
  2

 70
     8
177
     2
291
     0
 71
     2
176
     1
 72
     2
176
     1
 73
     0
176
     1
 90
        0
176
     1
 40
0.6
176
     1
 41
30.0
176
     1
 63
     7
421
 16777215
176
     1
 74
     1
176
     1
 91
        0
176
     1
 64
     7
176
     1
 65
   257
176
     1
 75
     1
176
     1
175
     1
176
     1
 42
1.0
176
     1
 92
        8
176
     1
 66
     8
424
  7895160
176
     1
 43
1.0
176
     1
 76
     1
176
     1
 77
     6
176
     1
 78
     2
176
     1
 67
     7
176
     1
 79
     5
176
     1
170
     0
176
     1
171
     0
176
     1
290
     0
176
     1
 93
       13
176
     1
 44
0.0
176
     1
173
     0
176
     1
1001
ACAD
1000
AcDbSavedByObjectVersion
1070
     0
  0
VISUALSTYLE
  5
23A
102
{ACAD_REACTORS
330
2A
102
}
330
2A
100
AcDbVisualStyle
  2
Shaded
 70
    27
177
     2
291
     0
 71
     2
176
     1
 72
     2
176
     1
 73
     1
176
     1
 90
        2
176
     1
 40
0.6
176
     1
 41
30.0
176
     1
 63
     7
421
 16777215
176
     1
 74
     0
176
     1
 91
        4
176
     1
 64
     7
176
     1
 65
   257
176
     1
 75
     1
176
     1
175
     1
176
     1
 42
1.0
176
     1
 92
        8
176
     1
 66
   257
176
     1
 43
1.0
176
     1
 76
     1
176
     1
 77
     6
176
     1
 78
     2
176
     1
 67
     8
425
  7895160
176
     1
 79
     3
176
     1
170
     0
176
     1
171
     0
176
     1
290
     0
176
     1
 93
        5
176
     1
 44
0.0
176
     1
173
     0
176
     1
  0
VISUALSTYLE
  5
239
102
{ACAD_REACTORS
330
2A
102
}
330
2A
100
AcDbVisualStyle
  2
Shaded with edges
 70
    26
177
     2
291
     0
 71
     2
176
     1
 72
     2
176
     1
 73
     1
176
     1
 90
        2
176
     1
 40
0.6
176
     1
 41
30.0
176
     1
 63
     7
421
 16777215
176
     1
 74
     1
176
     1
 91
       10
176
     1
 64
     7
176
     1
 65
   257
176
     1
 75
     2
176
     1
175
     1
176
     1
 42
1.0
176
     1
 92
        8
176
     1
 66
   257
176
     1
 43
1.0
176
     1
 76
     1
176
     1
 77
     6
176
     1
 78
     2
176
     1
 67
     7
176
     1
 79
     3
176
     1
170
     0
176
     1
171
     0
176
     1
290
     0
176
     1
 93
        5
176
     1
 44
0.0
176
     1
173
     0
176
     1
  0
VISUALSTYLE
  5
236
102
{ACAD_REACTORS
330
2A
102
}
330
2A
100
AcDbVisualStyle
  2
Shades of Gray
 70
    23
177
     2
291
     0
 71
     2
176
     1
 72
     2
176
     1
 73
     3
176
     1
 90
        0
176
     1
 40
0.6
176
     1
 41
30.0
176
     1
 63
     7
421
 16777215
176
     1
 74
     2
176
     1
 91
        2
176
     1
 64
     7
176
     1
 65
     7
176
     1
 75
     1
176
     1
175
     1
176
     1
 42
40.0
176
     1
 92
        8
176
     1
 66
     7
176
     1
 43
1.0
176
     1
 76
     1
176
     1
 77
     6
176
     1
 78
     2
176
     1
 67
     7
176
     1
 79
     3
176
     1
170
     0
176
     1
171
     0
176
     1
290
     0
176
     1
 93
        1
176
     1
 44
0.0
176
     1
173
     0
176
     1
  0
VISUALSTYLE
  5
237
102
{ACAD_REACTORS
330
2A
102
}
330
2A
100
AcDbVisualStyle
  2
Sketchy
 70
    24
177
     2
291
     0
 71
     1
176
     1
 72
     2
176
     1
 73
     2
176
     1
 90
        0
176
     1
 40
0.6
176
     1
 41
30.0
176
     1
 63
     7
421
 16777215
176
     1
 74
     2
176
     1
 91
        2
176
     1
 64
     7
176
     1
 65
     7
176
     1
 75
     1
176
     1
175
     1
176
     1
 42
40.0
176
     1
 92
       11
176
     1
 66
     7
176
     1
 43
1.0
176
     1
 76
     1
176
     1
 77
     6
176
     1
 78
     2
176
     1
 67
     7
176
     1
 79
     6
176
     1
170
     0
176
     1
171
     0
176
     1
290
     0
176
     1
 93
        1
176
     1
 44
0.0
176
     1
173
     0
176
     1
  0
VISUALSTYLE
  5
37
102
{ACAD_REACTORS
330
2A
102
}
330
2A
100
AcDbVisualStyle
  2

 70
    13
177
     2
291
     1
 71
     2
176
     1
 72
     2
176
     1
 73
     0
176
     1
 90
        0
176
     1
 40
0.6
176
     1
 41
30.0
176
     1
 63
     7
421
 16777215
176
     1
 74
     1
176
     1
 91
        4
176
     1
 64
     7
176
     1
 65
   257
176
     1
 75
     1
176
     1
175
     1
176
     1
 42
1.0
176
     1
 92
       12
176
     1
 66
     7
176
     1
 43
1.0
176
     1
 76
     1
176
     1
 77
     6
176
     1
 78
     2
176
     1
 67
     7
176
     1
 79
     5
176
     1
170
     0
176
     1
171
     0
176
     1
290
     0
176
     1
 93
        1
176
     1
 44
0.0
176
     1
173
     0
176
     1
1001
ACAD
1000
AcDbSavedByObjectVersion
1070
     0
  0
VISUALSTYLE
  5
234
102
{ACAD_REACTORS
330
2A
102
}
330
2A
100
AcDbVisualStyle
  2
Wireframe
 70
     5
177
     2
291
     0
 71
     0
176
     1
 72
     2
176
     1
 73
     0
176
     1
 90
        0
176
     1
 40
0.6
176
     1
 41
30.0
176
     1
 63
     7
421
 16777215
176
     1
 74
     1
176
     1
 91
        4
176
     1
 64
     7
176
     1
 65
   257
176
     1
 75
     1
176
     1
175
     1
176
     1
 42
1.0
176
     1
 92
        0
176
     1
 66
   257
176
     1
 43
1.0
176
     1
 76
     1
176
     1
 77
     6
176
     1
 78
     2
176
     1
 67
     7
176
     1
 79
     3
176
     1
170
     0
176
     1
171
     0
176
     1
290
     0
176
     1
 93
        1
176
     1
 44
0.0
176
     1
173
     0
176
     1
  0
VISUALSTYLE
  5
238
102
{ACAD_REACTORS
330
2A
102
}
330
2A
100
AcDbVisualStyle
  2
X-Ray
 70
    25
177
     2
291
     0
 71
     2
176
     1
 72
     2
176
     1
 73
     1
176
     1
 90
        1
176
     1
 40
0.5
176
     1
 41
30.0
176
     1
 63
     7
421
 16777215
176
     1
 74
     1
176
     1
 91
        0
176
     1
 64
     7
176
     1
 65
   257
176
     1
 75
     1
176
     1
175
     1
176
     1
 42
1.0
176
     1
 92
        8
176
     1
 66
     7
176
     1
 43
1.0
176
     1
 76
     1
176
     1
 77
     6
176
     1
 78
     2
176
     1
 67
     7
176
     1
 79
     3
176
     1
170
     0
176
     1
171
     0
176
     1
290
     0
176
     1
 93
       13
176
     1
 44
0.0
176
     1
173
     0
176
     1
  0
DICTIONARYVAR
  5
439
102
{ACAD_REACTORS
330
435
102
}
330
435
100
DictionaryVariables
280
     0
  1
1:1
  0
DICTIONARYVAR
  5
437
102
{ACAD_REACTORS
330
435
102
}
330
435
100
DictionaryVariables
280
     0
  1
STANDARD
  0
DICTIONARYVAR
  5
436
102
{ACAD_REACTORS
330
435
102
}
330
435
100
DictionaryVariables
280
     0
  1
STANDARD
  0
DICTIONARYVAR
  5
43B
102
{ACAD_REACTORS
330
435
102
}
330
435
100
DictionaryVariables
280
     0
  1
1
  0
DICTIONARYVAR
  5
43C
102
{ACAD_REACTORS
330
435
102
}
330
435
100
DictionaryVariables
280
     0
  1
15
  0
DICTIONARYVAR
  5
43A
102
{ACAD_REACTORS
330
435
102
}
330
435
100
DictionaryVariables
280
     0
  1
0
  0
DICTIONARYVAR
  5
438
102
{ACAD_REACTORS
330
435
102
}
330
435
100
DictionaryVariables
280
     0
  1
0
  0
DICTIONARY
  5
287
102
{ACAD_REACTORS
330
280
102
}
330
280
100
AcDbDictionary
281
     1
  0
DICTIONARY
  5
22C
330
3D
100
AcDbDictionary
280
     1
281
     1
  3
ACAD_XREC_ROUNDTRIP
360
22D
  0
DICTIONARY
  5
22A
330
3C
100
AcDbDictionary
280
     1
281
     1
  3
ACAD_XREC_ROUNDTRIP
360
22B
  0
DICTIONARY
  5
22E
330
3E
100
AcDbDictionary
280
     1
281
     1
  3
ACAD_XREC_ROUNDTRIP
360
22F
  0
DICTIONARY
  5
43D
330
23F
100
AcDbDictionary
280
     1
281
     1
  3
ACAD_ROUNDTRIP_2008_TABLESTYLE_CELLSTYLEMAP
360
43E
  0
XRECORD
  5
22D
102
{ACAD_REACTORS
330
22C
102
}
330
22C
100
AcDbXrecord
280
     1
102
MATERIAL
148
0.0
149
0.0
149
0.0
 93
        0
 94
      127
282
     0
 72
     1
 77
     1
171
     1
175
     1
179
     1
273
     0
  0
XRECORD
  5
22B
102
{ACAD_REACTORS
330
22A
102
}
330
22A
100
AcDbXrecord
280
     1
102
MATERIAL
148
0.0
149
0.0
149
0.0
 93
        0
 94
      127
282
     0
 72
     1
 77
     1
171
     1
175
     1
179
     1
273
     0
  0
XRECORD
  5
22F
102
{ACAD_REACTORS
330
22E
102
}
330
22E
100
AcDbXrecord
280
     1
102
MATERIAL
148
0.0
149
0.0
149
0.0
 93
        0
 94
      127
282
     0
 72
     1
 77
     1
171
     1
175
     1
179
     1
273
     0
  0
CELLSTYLEMAP
  5
43E
102
{ACAD_REACTORS
330
43D
102
}
330
43D
100
AcDbCellStyleMap
 90
        3
300
CELLSTYLE
  1
TABLEFORMAT_BEGIN
 90
        5
170
     1
 91
        0
 92
    32768
 62
   257
 93
        1
300
CONTENTFORMAT
  1
CONTENTFORMAT_BEGIN
 90
        0
 91
        0
 92
      512
 93
        0
300

 40
0.0
140
1.0
 94
        5
 62
     0
340
11
144
6.0
309
CONTENTFORMAT_END
171
     1
301
MARGIN
  1
CELLMARGIN_BEGIN
 40
1.5
 40
1.5
 40
1.5
 40
1.5
 40
4.5
 40
4.5
309
CELLMARGIN_END
 94
        6
 95
        1
302
GRIDFORMAT
  1
GRIDFORMAT_BEGIN
 90
        0
 91
        1
 62
     0
 92
       -2
340
0
 93
        0
 40
1.125
309
GRIDFORMAT_END
 95
        2
302
GRIDFORMAT
  1
GRIDFORMAT_BEGIN
 90
        0
 91
        1
 62
     0
 92
       -2
340
0
 93
        0
 40
1.125
309
GRIDFORMAT_END
 95
        4
302
GRIDFORMAT
  1
GRIDFORMAT_BEGIN
 90
        0
 91
        1
 62
     0
 92
       -2
340
0
 93
        0
 40
1.125
309
GRIDFORMAT_END
 95
        8
302
GRIDFORMAT
  1
GRIDFORMAT_BEGIN
 90
        0
 91
        1
 62
     0
 92
       -2
340
0
 93
        0
 40
1.125
309
GRIDFORMAT_END
 95
       16
302
GRIDFORMAT
  1
GRIDFORMAT_BEGIN
 90
        0
 91
        1
 62
     0
 92
       -2
340
0
 93
        0
 40
1.125
309
GRIDFORMAT_END
 95
       32
302
GRIDFORMAT
  1
GRIDFORMAT_BEGIN
 90
        0
 91
        1
 62
     0
 92
       -2
340
0
 93
        0
 40
1.125
309
GRIDFORMAT_END
309
TABLEFORMAT_END
  1
CELLSTYLE_BEGIN
 90
        1
 91
        1
300
_TITLE
309
CELLSTYLE_END
300
CELLSTYLE
  1
TABLEFORMAT_BEGIN
 90
        5
170
     1
 91
        0
 92
        0
 62
   257
 93
        1
300
CONTENTFORMAT
  1
CONTENTFORMAT_BEGIN
 90
        0
 91
        0
 92
      512
 93
        0
300

 40
0.0
140
1.0
 94
        5
 62
     0
340
11
144
4.5
309
CONTENTFORMAT_END
171
     1
301
MARGIN
  1
CELLMARGIN_BEGIN
 40
1.5
 40
1.5
 40
1.5
 40
1.5
 40
4.5
 40
4.5
309
CELLMARGIN_END
 94
        6
 95
        1
302
GRIDFORMAT
  1
GRIDFORMAT_BEGIN
 90
        0
 91
        1
 62
     0
 92
       -2
340
0
 93
        0
 40
1.125
309
GRIDFORMAT_END
 95
        2
302
GRIDFORMAT
  1
GRIDFORMAT_BEGIN
 90
        0
 91
        1
 62
     0
 92
       -2
340
0
 93
        0
 40
1.125
309
GRIDFORMAT_END
 95
        4
302
GRIDFORMAT
  1
GRIDFORMAT_BEGIN
 90
        0
 91
        1
 62
     0
 92
       -2
340
0
 93
        0
 40
1.125
309
GRIDFORMAT_END
 95
        8
302
GRIDFORMAT
  1
GRIDFORMAT_BEGIN
 90
        0
 91
        1
 62
     0
 92
       -2
340
0
 93
        0
 40
1.125
309
GRIDFORMAT_END
 95
       16
302
GRIDFORMAT
  1
GRIDFORMAT_BEGIN
 90
        0
 91
        1
 62
     0
 92
       -2
340
0
 93
        0
 40
1.125
309
GRIDFORMAT_END
 95
       32
302
GRIDFORMAT
  1
GRIDFORMAT_BEGIN
 90
        0
 91
        1
 62
     0
 92
       -2
340
0
 93
        0
 40
1.125
309
GRIDFORMAT_END
309
TABLEFORMAT_END
  1
CELLSTYLE_BEGIN
 90
        2
 91
        1
300
_HEADER
309
CELLSTYLE_END
300
CELLSTYLE
  1
TABLEFORMAT_BEGIN
 90
        5
170
     1
 91
        0
 92
        0
 62
   257
 93
        1
300
CONTENTFORMAT
  1
CONTENTFORMAT_BEGIN
 90
        0
 91
        0
 92
      512
 93
        0
300

 40
0.0
140
1.0
 94
        2
 62
     0
340
11
144
4.5
309
CONTENTFORMAT_END
171
     1
301
MARGIN
  1
CELLMARGIN_BEGIN
 40
1.5
 40
1.5
 40
1.5
 40
1.5
 40
4.5
 40
4.5
309
CELLMARGIN_END
 94
        6
 95
        1
302
GRIDFORMAT
  1
GRIDFORMAT_BEGIN
 90
        0
 91
        1
 62
     0
 92
       -2
340
0
 93
        0
 40
1.125
309
GRIDFORMAT_END
 95
        2
302
GRIDFORMAT
  1
GRIDFORMAT_BEGIN
 90
        0
 91
        1
 62
     0
 92
       -2
340
0
 93
        0
 40
1.125
309
GRIDFORMAT_END
 95
        4
302
GRIDFORMAT
  1
GRIDFORMAT_BEGIN
 90
        0
 91
        1
 62
     0
 92
       -2
340
0
 93
        0
 40
1.125
309
GRIDFORMAT_END
 95
        8
302
GRIDFORMAT
  1
GRIDFORMAT_BEGIN
 90
        0
 91
        1
 62
     0
 92
       -2
340
0
 93
        0
 40
1.125
309
GRIDFORMAT_END
 95
       16
302
GRIDFORMAT
  1
GRIDFORMAT_BEGIN
 90
        0
 91
        1
 62
     0
 92
       -2
340
0
 93
        0
 40
1.125
309
GRIDFORMAT_END
 95
       32
302
GRIDFORMAT
  1
GRIDFORMAT_BEGIN
 90
        0
 91
        1
 62
     0
 92
       -2
340
0
 93
        0
 40
1.125
309
GRIDFORMAT_END
309
TABLEFORMAT_END
  1
CELLSTYLE_BEGIN
 90
        3
 91
        2
300
_DATA
309
CELLSTYLE_END
  0
ENDSEC
  0
EOF
