  0
SECTION
  2
HEADER
  9
$ACADVER
  1
AC1009
  9
$DWGCODEPAGE
  3
iso8859-1
  9
$INSBASE
 10
0.0
 20
0.0
 30
0.0
  9
$EXTMIN
 10
1.0E20
 20
1.0E20
  9
$EXTMAX
 10
-1.0E20
 20
-1.0E20
  9
$LIMMIN
 10
0.0
 20
0.0
  9
$LIMMAX
 10
12.0
 20
9.0
  9
$ORTHOMODE
 70
     0
  9
$REGENMODE
 70
     1
  9
$FILLMODE
 70
     1
  9
$QTEXTMODE
 70
     0
  9
$MIRRTEXT
 70
     1
  9
$DRAGMODE
 70
     2
  9
$LTSCALE
 40
15.0
  9
$OSMODE
 70
     0
  9
$ATTMODE
 70
     1
  9
$TEXTSIZE
 40
0.2
  9
$TRACEWID
 40
0.05
  9
$TEXTSTYLE
  7
STANDARD
  9
$CLAYER
  8
0
  9
$CELTYPE
  6
DASHED
  9
$CECOLOR
 62
   256
  9
$DIMSCALE
 40
1.0
  9
$DIMASZ
 40
0.18
  9
$DIMEXO
 40
0.0625
  9
$DIMDLI
 40
0.38
  9
$DIMRND
 40
0.0
  9
$DIMDLE
 40
0.0
  9
$DIMEXE
 40
0.18
  9
$DIMTP
 40
0.0
  9
$DIMTM
 40
0.0
  9
$DIMTXT
 40
0.18
  9
$DIMCEN
 40
0.09
  9
$DIMTSZ
 40
0.0
  9
$DIMTOL
 70
     0
  9
$DIMLIM
 70
     0
  9
$DIMTIH
 70
     1
  9
$DIMTOH
 70
     1
  9
$DIMSE1
 70
     0
  9
$DIMSE2
 70
     0
  9
$DIMTAD
 70
     0
  9
$DIMZIN
 70
     0
  9
$DIMBLK
  1

  9
$DIMASO
 70
     1
  9
$DIMSHO
 70
     1
  9
$DIMPOST
  1

  9
$DIMAPOST
  1

  9
$DIMALT
 70
     0
  9
$DIMALTD
 70
     2
  9
$DIMALTF
 40
25.4
  9
$DIMLFAC
 40
1.0
  9
$DIMTOFL
 70
     0
  9
$DIMTVP
 40
0.0
  9
$DIMTIX
 70
     0
  9
$DIMSOXD
 70
     0
  9
$DIMSAH
 70
     0
  9
$DIMBLK1
  1

  9
$DIMBLK2
  1

  9
$DIMSTYLE
  2
STANDARD
  9
$DIMCLRD
 70
     0
  9
$DIMCLRE
 70
     0
  9
$DIMCLRT
 70
     0
  9
$DIMTFAC
 40
1.0
  9
$DIMGAP
 40
0.09
  9
$LUNITS
 70
     2
  9
$LUPREC
 70
     4
  9
$AXISMODE
 70
     0
  9
$AXISUNIT
 10
0.0
 20
0.0
  9
$SKETCHINC
 40
0.1
  9
$FILLETRAD
 40
0.0
  9
$AUNITS
 70
     0
  9
$AUPREC
 70
     0
  9
$MENU
  1
acad
  9
$ELEVATION
 40
0.0
  9
$PELEVATION
 40
0.0
  9
$THICKNESS
 40
0.0
  9
$LIMCHECK
 70
     0
  9
$BLIPMODE
 70
     1
  9
$CHAMFERA
 40
0.0
  9
$CHAMFERB
 40
0.0
  9
$SKPOLY
 70
     0
  9
$TDCREATE
 40
0.000000000
  9
$TDUPDATE
 40
0.000000000
  9
$TDINDWG
 40
0.0
  9
$TDUSRTIMER
 40
0.0
  9
$USRTIMER
 70
     1
  9
$ANGBASE
 50
0.0
  9
$ANGDIR
 70
     0
  9
$PDMODE
 70
     0
  9
$PDSIZE
 40
0.0
  9
$PLINEWID
 40
0.0
  9
$COORDS
 70
     1
  9
$SPLFRAME
 70
     0
  9
$SPLINETYPE
 70
     6
  9
$SPLINESEGS
 70
     8
  9
$ATTDIA
 70
     0
  9
$ATTREQ
 70
     1
  9
$HANDLING
 70
     1
  9
$HANDSEED
  5
   9FA
  9
$SURFTAB1
 70
     6
  9
$SURFTAB2
 70
     6
  9
$SURFTYPE
 70
     6
  9
$SURFU
 70
     6
  9
$SURFV
 70
     6
  9
$UCSNAME
  2

  9
$UCSORG
 10
0.0
 20
0.0
 30
0.0
  9
$UCSXDIR
 10
1.0
 20
0.0
 30
0.0
  9
$UCSYDIR
 10
0.0
 20
1.0
 30
0.0
  9
$PUCSNAME
  2

  9
$PUCSORG
 10
0.0
 20
0.0
 30
0.0
  9
$PUCSXDIR
 10
1.0
 20
0.0
 30
0.0
  9
$PUCSYDIR
 10
0.0
 20
1.0
 30
0.0
  9
$USERI1
 70
     0
  9
$USERI2
 70
     0
  9
$USERI3
 70
     0
  9
$USERI4
 70
     0
  9
$USERI5
 70
     0
  9
$USERR1
 40
0.0
  9
$USERR2
 40
0.0
  9
$USERR3
 40
0.0
  9
$USERR4
 40
0.0
  9
$USERR5
 40
0.0
  9
$WORLDVIEW
 70
     1
  9
$SHADEDGE
 70
     3
  9
$SHADEDIF
 70
    70
  9
$TILEMODE
 70
     1
  9
$MAXACTVP
 70
    16
  9
$PINSBASE
 10
0.0
 20
0.0
 30
0.0
  9
$PLIMCHECK
 70
     0
  9
$PEXTMIN
 10
1.0E20
 20
1.0E20
 30
1.0E20
  9
$PEXTMAX
 10
-1.0E20
 20
-1.0E20
 30
-1.0E20
  9
$PLIMMIN
 10
0.0
 20
0.0
  9
$PLIMMAX
 10
12.0
 20
9.0
  9
$UNITMODE
 70
     0
  9
$VISRETAIN
 70
     0
  0
ENDSEC
  0
SECTION
  2
TABLES
  0
TABLE
  2
VPORT
 70
     1
  0
VPORT
  2
*ACTIVE
 70
     0
 10
0.0
 20
0.0
 11
1.0
 21
1.0
 12
6.801242
 22
4.5
 13
0.0
 23
0.0
 14
1.0
 24
1.0
 15
0.0
 25
0.0
 16
0.0
 26
0.0
 36
1.0
 17
0.0
 27
0.0
 37
0.0
 40
9.0
 41
1.511387
 42
50.0
 43
0.0
 44
0.0
 50
0.0
 51
0.0
 71
     0
 72
   100
 73
     1
 74
     1
 75
     0
 76
     0
 77
     0
 78
     0
  0
ENDTAB
  0
TABLE
  2
LTYPE
 70
    41
  0
LTYPE
  2
BYBLOCK
 70
     0
  3

 72
    65
 73
     0
 40
0.0
  0
LTYPE
  2
BYLAYER
 70
     0
  3

 72
    65
 73
     0
 40
0.0
  0
LTYPE
  2
CONTINUOUS
 70
     0
  3
Solid line
 72
    65
 73
     0
 40
0.0
  0
LTYPE
  2
BORDER
 70
    64
  3
__ __ . __ __ . __ __ . __ __ . __ __ . __ __ .
 72
    65
 73
     6
 40
1.75
 49
0.5
 49
-0.25
 49
0.5
 49
-0.25
 49
0.0
 49
-0.25
  0
LTYPE
  2
BORDER2
 70
    64
  3
__.__.__.__.__.__.__.__.__.__.__.__.__.__.__.__
 72
    65
 73
     6
 40
0.875
 49
0.25
 49
-0.125
 49
0.25
 49
-0.125
 49
0.0
 49
-0.125
  0
LTYPE
  2
BORDERX2
 70
    64
  3
____  ____  .  ____  ____  .  ____  ____  .  __
 72
    65
 73
     6
 40
3.5
 49
1.0
 49
-0.5
 49
1.0
 49
-0.5
 49
0.0
 49
-0.5
  0
LTYPE
  2
CENTER
 70
    64
  3
____ _ ____ _ ____ _ ____ _ ____ _ ____ _ ____
 72
    65
 73
     4
 40
2.0
 49
1.25
 49
-0.25
 49
0.25
 49
-0.25
  0
LTYPE
  2
CENTER2
 70
    64
  3
___ _ ___ _ ___ _ ___ _ ___ _ ___ _ ___ _ ___ _
 72
    65
 73
     4
 40
1.125
 49
0.75
 49
-0.125
 49
0.125
 49
-0.125
  0
LTYPE
  2
CENTERX2
 70
    64
  3
________  __  ________  __  ________  __  _____
 72
    65
 73
     4
 40
4.0
 49
2.5
 49
-0.5
 49
0.5
 49
-0.5
  0
LTYPE
  2
DASHDOT
 70
    64
  3
__ . __ . __ . __ . __ . __ . __ . __ . __ . __
 72
    65
 73
     4
 40
1.0
 49
0.5
 49
-0.25
 49
0.0
 49
-0.25
  0
LTYPE
  2
DASHDOT2
 70
    64
  3
_._._._._._._._._._._._._._._._._._._._._._._._
 72
    65
 73
     4
 40
0.5
 49
0.25
 49
-0.125
 49
0.0
 49
-0.125
  0
LTYPE
  2
DASHDOTX2
 70
    64
  3
____  .  ____  .  ____  .  ____  .  ____  .  __
 72
    65
 73
     4
 40
2.0
 49
1.0
 49
-0.5
 49
0.0
 49
-0.5
  0
LTYPE
  2
DASHED
 70
    64
  3
__ __ __ __ __ __ __ __ __ __ __ __ __ __ __ __
 72
    65
 73
     2
 40
0.75
 49
0.5
 49
-0.25
  0
LTYPE
  2
DASHED2
 70
    64
  3
_ _ _ _ _ _ _ _ _ _ _ _ _ _ _ _ _ _ _ _ _ _ _ _
 72
    65
 73
     2
 40
0.375
 49
0.25
 49
-0.125
  0
LTYPE
  2
DASHEDX2
 70
    64
  3
____  ____  ____  ____  ____  ____  ____  ____
 72
    65
 73
     2
 40
1.5
 49
1.0
 49
-0.5
  0
LTYPE
  2
DIVIDE
 70
    64
  3
____ . . ____ . . ____ . . ____ . . ____ . . __
 72
    65
 73
     6
 40
1.25
 49
0.5
 49
-0.25
 49
0.0
 49
-0.25
 49
0.0
 49
-0.25
  0
LTYPE
  2
DIVIDE2
 70
    64
  3
__..__..__..__..__..__..__..__..__..__..__..__.
 72
    65
 73
     6
 40
0.625
 49
0.25
 49
-0.125
 49
0.0
 49
-0.125
 49
0.0
 49
-0.125
  0
LTYPE
  2
DIVIDEX2
 70
    64
  3
________  .  .  ________  .  .  ________  .  .
 72
    65
 73
     6
 40
2.5
 49
1.0
 49
-0.5
 49
0.0
 49
-0.5
 49
0.0
 49
-0.5
  0
LTYPE
  2
DOT
 70
    64
  3
. . . . . . . . . . . . . . . . . . . . . . . .
 72
    65
 73
     2
 40
0.25
 49
0.0
 49
-0.25
  0
LTYPE
  2
DOT2
 70
    64
  3
...............................................
 72
    65
 73
     2
 40
0.125
 49
0.0
 49
-0.125
  0
LTYPE
  2
DOTX2
 70
    64
  3
.  .  .  .  .  .  .  .  .  .  .  .  .  .  .  .
 72
    65
 73
     2
 40
0.5
 49
0.0
 49
-0.5
  0
LTYPE
  2
HIDDEN
 70
    64
  3
__ __ __ __ __ __ __ __ __ __ __ __ __ __ __ __
 72
    65
 73
     2
 40
0.375
 49
0.25
 49
-0.125
  0
LTYPE
  2
HIDDEN2
 70
    64
  3
_ _ _ _ _ _ _ _ _ _ _ _ _ _ _ _ _ _ _ _ _ _ _ _
 72
    65
 73
     2
 40
0.1875
 49
0.125
 49
-0.0625
  0
LTYPE
  2
HIDDENX2
 70
    64
  3
____ ____ ____ ____ ____ ____ ____ ____ ____ __
 72
    65
 73
     2
 40
0.75
 49
0.5
 49
-0.25
  0
LTYPE
  2
PHANTOM
 70
    64
  3
______  __  __  ______  __  __  ______  __  __
 72
    65
 73
     6
 40
2.5
 49
1.25
 49
-0.25
 49
0.25
 49
-0.25
 49
0.25
 49
-0.25
  0
LTYPE
  2
PHANTOM2
 70
    64
  3
___ _ _ ___ _ _ ___ _ _ ___ _ _ ___ _ _ ___ _ _
 72
    65
 73
     6
 40
1.25
 49
0.625
 49
-0.125
 49
0.125
 49
-0.125
 49
0.125
 49
-0.125
  0
LTYPE
  2
PHANTOMX2
 70
    64
  3
____________    ____    ____    ____________
 72
    65
 73
     6
 40
5.0
 49
2.5
 49
-0.5
 49
0.5
 49
-0.5
 49
0.5
 49
-0.5
  0
LTYPE
  2
ACAD_ISO02W100
 70
    64
  3
__ __ __ __ __ __ __ __ __ __ __ __ __ __ __ __
 72
    65
 73
     2
 40
15.0
 49
12.0
 49
-3.0
  0
LTYPE
  2
ACAD_ISO03W100
 70
    64
  3
__    __    __    __    __    __    __    __
 72
    65
 73
     2
 40
30.0
 49
12.0
 49
-18.0
  0
LTYPE
  2
ACAD_ISO04W100
 70
    64
  3
____ . ____ . ____ . ____ . ____ . ____ . ____
 72
    65
 73
     4
 40
30.5
 49
24.0
 49
-3.0
 49
0.5
 49
-3.0
  0
LTYPE
  2
ACAD_ISO05W100
 70
    64
  3
____ .. ____ .. ____ .. ____ .. ____ .. ____ ..
 72
    65
 73
     6
 40
34.0
 49
24.0
 49
-3.0
 49
0.5
 49
-3.0
 49
0.5
 49
-3.0
  0
LTYPE
  2
ACAD_ISO06W100
 70
    64
  3
____ ... ____ ... ____ ... ____ ... ____ ... __
 72
    65
 73
     8
 40
37.5
 49
24.0
 49
-3.0
 49
0.5
 49
-3.0
 49
0.5
 49
-3.0
 49
0.5
 49
-3.0
  0
LTYPE
  2
ACAD_ISO07W100
 70
    64
  3
. . . . . . . . . . . . . . . . . . . . . . . .
 72
    65
 73
     2
 40
3.5
 49
0.5
 49
-3.0
  0
LTYPE
  2
ACAD_ISO08W100
 70
    64
  3
____ __ ____ __ ____ __ ____ ____ __ __ ____ __
 72
    65
 73
     4
 40
36.0
 49
24.0
 49
-3.0
 49
6.0
 49
-3.0
  0
LTYPE
  2
ACAD_ISO09W100
 70
    64
  3
____ __ __ ____ __ __ ____ __ __ ____ __ __ ___
 72
    65
 73
     6
 40
45.0
 49
24.0
 49
-3.0
 49
6.0
 49
-3.0
 49
6.0
 49
-3.0
  0
LTYPE
  2
ACAD_ISO10W100
 70
    64
  3
__ . __ . __ . __ . __ . __ . __ . __ . __ . __
 72
    65
 73
     4
 40
18.5
 49
12.0
 49
-3.0
 49
0.5
 49
-3.0
  0
LTYPE
  2
ACAD_ISO11W100
 70
    64
  3
__ __ . __ __ . __ __ . __ __ . __ __ . __ __ .
 72
    65
 73
     6
 40
33.5
 49
12.0
 49
-3.0
 49
12.0
 49
-3.0
 49
0.5
 49
-3.0
  0
LTYPE
  2
ACAD_ISO12W100
 70
    64
  3
__ . . __ . . __ . . __ . . __ . . __ . . __ .
 72
    65
 73
     6
 40
22.0
 49
12.0
 49
-3.0
 49
0.5
 49
-3.0
 49
0.5
 49
-3.0
  0
LTYPE
  2
ACAD_ISO13W100
 70
    64
  3
__ __ . . __ __ . . __ __ . . __ __ . . __ __ .
 72
    65
 73
     8
 40
37.0
 49
12.0
 49
-3.0
 49
12.0
 49
-3.0
 49
0.5
 49
-3.0
 49
0.5
 49
-3.0
  0
LTYPE
  2
ACAD_ISO14W100
 70
    64
  3
__ . . . __ . . . __ . . . __ . . . __ . . . __
 72
    65
 73
     8
 40
25.5
 49
12.0
 49
-3.0
 49
0.5
 49
-3.0
 49
0.5
 49
-3.0
 49
0.5
 49
-3.0
  0
LTYPE
  2
ACAD_ISO15W100
 70
    64
  3
__ __ . . . __ __ . . . __ __ . . . __ __ . . .
 72
    65
 73
    10
 40
40.5
 49
12.0
 49
-3.0
 49
12.0
 49
-3.0
 49
0.5
 49
-3.0
 49
0.5
 49
-3.0
 49
0.5
 49
-3.0
  0
ENDTAB
  0
TABLE
  2
STYLE
 70
     4
  0
STYLE
  2
STANDARD
 70
    64
 40
0.0
 41
1.0
 50
0.0
 71
     0
 42
0.2
  3
txt
  4

  0
STYLE
  2
TOLERANCE
 70
    64
 40
0.0
 41
1.0
 50
0.0
 71
     0
 42
0.2
  3
../igesfont/iges1003.shx
  4

  0
STYLE
  2
ROMANS
 70
    64
 40
0.0
 41
1.0
 50
0.0
 71
     0
 42
0.2
  3
romans.shx
  4

  0
STYLE
  2
ROMANC
 70
    64
 40
0.0
 41
1.0
 50
0.0
 71
     0
 42
0.2
  3
romanc.shx
  4

  0
ENDTAB
  0
TABLE
  2
DIMSTYLE
 70
     2
  0
DIMSTYLE
  2
UNNAMED
 70
     0
  3

  4

  5

  6

  7

 40
1.0
 41
0.18
 42
0.0625
 43
0.38
 44
0.18
 45
0.0
 46
0.0
 47
0.0
 48
0.0
140
0.18
141
0.09
142
0.0
143
25.4
144
1.0
145
0.0
146
1.0
147
0.09
 71
     0
 72
     0
 73
     1
 74
     1
 75
     0
 76
     0
 77
     0
 78
     0
170
     0
171
     2
172
     0
173
     0
174
     0
175
     0
176
     0
177
     0
178
     0
  0
DIMSTYLE
  2
STANDARD
 70
     0
  3

  4

  5

  6

  7

 40
1.0
 41
0.18
 42
0.0625
 43
0.38
 44
0.18
 45
0.0
 46
0.0
 47
0.0
 48
0.0
140
0.18
141
0.09
142
0.0
143
25.4
144
1.0
145
0.0
146
1.0
147
0.09
 71
     0
 72
     0
 73
     1
 74
     1
 75
     0
 76
     0
 77
     0
 78
     0
170
     0
171
     2
172
     0
173
     0
174
     0
175
     0
176
     0
177
     0
178
     0
  0
ENDTAB
  0
TABLE
  2
LAYER
 70
     2
  0
LAYER
  2
0
 70
     0
 62
     7
  6
CONTINUOUS
  0
LAYER
  2
255
 70
     0
 62
     7
  6
CONTINUOUS
  0
ENDTAB
  0
ENDSEC
  0
SECTION
  2
BLOCKS
  0
BLOCK
  5
     B
  8
0
  6
CONTINUOUS
 62
     7
  2
*UDIM780
 70
    65
 10
0.0
 20
0.0
 30
0.0
  3
*UDIM780
  0
TEXT
  5
     C
  8
0
  6
CONTINUOUS
 62
     7
 10
-357.912213607017
 20
-37.0358613425383
 30
0.0
 40
3.00000002980232
  1
6
 50
378.15626938813
 41
0.933333333333334
 72
     1
 11
-357.334397074669
 21
-35.2677753367994
 31
0.0
 73
     2
  0
TEXT
  5
     D
  8
0
  6
CONTINUOUS
 62
     7
 10
-360.905375625901
 20
-38.0174321200658
 30
0.0
 40
3.00000002980232
  1
Ø
 50
378.15626938813
 41
0.933333333333334
 72
     1
 11
-360.327559093553
 21
-36.2493461143269
 31
0.0
 73
     2
  0
TEXT
  5
     E
  8
0
  6
CONTINUOUS
 62
     7
 10
-355.299135633326
 20
-36.1789344558216
 30
0.0
 40
3.00000002980232
  1
 (M5)
 50
378.15626938813
 41
0.933333333333333
 72
     1
 11
-349.400142139282
 21
-32.6658337322704
 31
0.0
 73
     2
  0
LINE
  5
     F
  8
0
  6
CONTINUOUS
 62
     7
 10
-342.254709563662
 20
-32.953573673282
 30
0.0
 11
-366.939037015828
 21
-41.0484961456051
 31
0.0
  0
LINE
  5
    10
  8
0
  6
CONTINUOUS
 62
     7
 10
-362.86873012701
 20
-39.1654476431864
 30
0.0
 11
-365.513721773235
 21
-40.5810814911137
 31
0.0
  0
LINE
  5
    11
  8
0
  6
CONTINUOUS
 62
     7
 10
-365.513721773235
 20
-40.5810814911137
 30
0.0
 11
-362.544067379363
 21
-40.1554610252581
 31
0.0
  0
LINE
  5
    12
  8
0
  6
CONTINUOUS
 62
     7
 10
-369.584028662053
 20
-42.4641299935323
 30
0.0
 11
-366.939037015828
 21
-41.0484961456051
 31
0.0
  0
LINE
  5
    13
  8
0
  6
CONTINUOUS
 62
     7
 10
-366.939037015828
 20
-41.0484961456051
 30
0.0
 11
-369.9086914097
 21
-41.4741166114606
 31
0.0
  0
ENDBLK
  5
    14
  8
0
  6
CONTINUOUS
 62
     7
  0
BLOCK
  5
    15
  8
0
  6
CONTINUOUS
 62
     7
  2
*UDIM781
 70
    65
 10
0.0
 20
0.0
 30
0.0
  3
*UDIM781
  0
TEXT
  5
    16
  8
0
  6
CONTINUOUS
 62
     7
 10
-317.814624790896
 20
1.0352111481334
 30
0.0
 40
3.00000002980232
  1
52
 50
449.999999896069
 41
0.933333333333333
 72
     1
 11
-319.314624801278
 21
3.53521117568016
 31
0.0
 73
     2
  0
LINE
  5
    17
  8
0
  6
CONTINUOUS
 62
     7
 10
-335.288879394531
 20
10.3102111816406
 30
0.0
 11
-314.814624786377
 21
10.3102111816406
 31
0.0
  0
LINE
  5
    18
  8
0
  6
CONTINUOUS
 62
     7
 10
-335.288879394531
 20
-2.68978881835938
 30
0.0
 11
-314.814624786377
 21
-2.68978881835938
 31
0.0
  0
LINE
  5
    19
  8
0
  6
CONTINUOUS
 62
     7
 10
-316.814624786377
 20
10.3102111816406
 30
0.0
 11
-316.814624786377
 21
-2.68978881835938
 31
0.0
  0
LINE
  5
    1A
  8
0
  6
CONTINUOUS
 62
     7
 10
-316.293680356425
 20
7.35578790443366
 30
0.0
 11
-316.814624786377
 21
10.3102111816406
 31
0.0
  0
LINE
  5
    1B
  8
0
  6
CONTINUOUS
 62
     7
 10
-316.814624786377
 20
10.3102111816406
 30
0.0
 11
-317.335569216329
 21
7.35578790443366
 31
0.0
  0
LINE
  5
    1C
  8
0
  6
CONTINUOUS
 62
     7
 10
-317.335569216329
 20
0.264634458847585
 30
0.0
 11
-316.814624786377
 21
-2.68978881835938
 31
0.0
  0
LINE
  5
    1D
  8
0
  6
CONTINUOUS
 62
     7
 10
-316.814624786377
 20
-2.68978881835938
 30
0.0
 11
-316.293680356425
 21
0.264634458847585
 31
0.0
  0
ENDBLK
  5
    1E
  8
0
  6
CONTINUOUS
 62
     7
  0
BLOCK
  5
    1F
  8
0
  6
CONTINUOUS
 62
     7
  2
*UDIM782
 70
    65
 10
0.0
 20
0.0
 30
0.0
  3
*UDIM782
  0
TEXT
  5
    20
  8
0
  6
CONTINUOUS
 62
     7
 10
-317.814624798488
 20
-20.0710388935899
 30
0.0
 40
3.00000002980232
  1
83,25
 50
449.999999896069
 41
0.933333333333333
 72
     1
 11
-319.314624801278
 21
-13.3710388243198
 31
0.0
 73
     2
  0
LINE
  5
    21
  8
0
  6
CONTINUOUS
 62
     7
 10
-324.408148701343
 20
-23.5022888183594
 30
0.0
 11
-314.814624786377
 21
-23.5022888183594
 31
0.0
  0
LINE
  5
    22
  8
0
  6
CONTINUOUS
 62
     7
 10
-316.814624786377
 20
-2.68978881835938
 30
0.0
 11
-316.814624786377
 21
-23.5022888183594
 31
0.0
  0
LINE
  5
    23
  8
0
  6
CONTINUOUS
 62
     7
 10
-316.293680356425
 20
-5.64421209556634
 30
0.0
 11
-316.814624786377
 21
-2.68978881835938
 31
0.0
  0
LINE
  5
    24
  8
0
  6
CONTINUOUS
 62
     7
 10
-316.814624786377
 20
-2.68978881835938
 30
0.0
 11
-317.335569216329
 21
-5.64421209556634
 31
0.0
  0
LINE
  5
    25
  8
0
  6
CONTINUOUS
 62
     7
 10
-317.335569216329
 20
-20.5478655411524
 30
0.0
 11
-316.814624786377
 21
-23.5022888183594
 31
0.0
  0
LINE
  5
    26
  8
0
  6
CONTINUOUS
 62
     7
 10
-316.814624786377
 20
-23.5022888183594
 30
0.0
 11
-316.293680356425
 21
-20.5478655411524
 31
0.0
  0
ENDBLK
  5
    27
  8
0
  6
CONTINUOUS
 62
     7
  0
BLOCK
  5
    28
  8
0
  6
CONTINUOUS
 62
     7
  2
*UDIM783
 70
    65
 10
0.0
 20
0.0
 30
0.0
  3
*UDIM783
  0
TEXT
  5
    29
  8
0
  6
CONTINUOUS
 62
     7
 10
-317.814624798488
 20
-41.3210388935899
 30
0.0
 40
3.00000002980232
  1
86,75
 50
449.999999896069
 41
0.933333333333333
 72
     1
 11
-319.314624801278
 21
-34.6210388243198
 31
0.0
 73
     2
  0
LINE
  5
    2A
  8
0
  6
CONTINUOUS
 62
     7
 10
-335.288879394531
 20
-45.1897888183594
 30
0.0
 11
-314.814624786377
 21
-45.1897888183594
 31
0.0
  0
LINE
  5
    2B
  8
0
  6
CONTINUOUS
 62
     7
 10
-316.814624786377
 20
-23.5022888183594
 30
0.0
 11
-316.814624786377
 21
-45.1897888183594
 31
0.0
  0
LINE
  5
    2C
  8
0
  6
CONTINUOUS
 62
     7
 10
-316.293680356425
 20
-26.4567120955663
 30
0.0
 11
-316.814624786377
 21
-23.5022888183594
 31
0.0
  0
LINE
  5
    2D
  8
0
  6
CONTINUOUS
 62
     7
 10
-316.814624786377
 20
-23.5022888183594
 30
0.0
 11
-317.335569216329
 21
-26.4567120955663
 31
0.0
  0
LINE
  5
    2E
  8
0
  6
CONTINUOUS
 62
     7
 10
-317.335569216329
 20
-42.2353655411524
 30
0.0
 11
-316.814624786377
 21
-45.1897888183594
 31
0.0
  0
LINE
  5
    2F
  8
0
  6
CONTINUOUS
 62
     7
 10
-316.814624786377
 20
-45.1897888183594
 30
0.0
 11
-316.293680356425
 21
-42.2353655411524
 31
0.0
  0
ENDBLK
  5
    30
  8
0
  6
CONTINUOUS
 62
     7
  0
BLOCK
  5
    31
  8
0
  6
CONTINUOUS
 62
     7
  2
*UDIM784
 70
    65
 10
0.0
 20
0.0
 30
0.0
  3
*UDIM784
  0
TEXT
  5
    32
  8
0
  6
CONTINUOUS
 62
     7
 10
-317.814624790896
 20
-54.4647888518666
 30
0.0
 40
3.00000002980232
  1
52
 50
449.999999896069
 41
0.933333333333333
 72
     1
 11
-319.314624801278
 21
-51.9647888243198
 31
0.0
 73
     2
  0
LINE
  5
    33
  8
0
  6
CONTINUOUS
 62
     7
 10
-335.288879394531
 20
-58.1897888183594
 30
0.0
 11
-314.814624786377
 21
-58.1897888183594
 31
0.0
  0
LINE
  5
    34
  8
0
  6
CONTINUOUS
 62
     7
 10
-316.814624786377
 20
-45.1897888183594
 30
0.0
 11
-316.814624786377
 21
-58.1897888183594
 31
0.0
  0
LINE
  5
    35
  8
0
  6
CONTINUOUS
 62
     7
 10
-316.293680356425
 20
-48.1442120955663
 30
0.0
 11
-316.814624786377
 21
-45.1897888183594
 31
0.0
  0
LINE
  5
    36
  8
0
  6
CONTINUOUS
 62
     7
 10
-316.814624786377
 20
-45.1897888183594
 30
0.0
 11
-317.335569216329
 21
-48.1442120955663
 31
0.0
  0
LINE
  5
    37
  8
0
  6
CONTINUOUS
 62
     7
 10
-317.335569216329
 20
-55.2353655411524
 30
0.0
 11
-316.814624786377
 21
-58.1897888183594
 31
0.0
  0
LINE
  5
    38
  8
0
  6
CONTINUOUS
 62
     7
 10
-316.814624786377
 20
-58.1897888183594
 30
0.0
 11
-316.293680356425
 21
-55.2353655411524
 31
0.0
  0
ENDBLK
  5
    39
  8
0
  6
CONTINUOUS
 62
     7
  0
BLOCK
  5
    3A
  8
0
  6
CONTINUOUS
 62
     7
  2
*UDIM785
 70
    65
 10
0.0
 20
0.0
 30
0.0
  3
*UDIM785
  0
TEXT
  5
    3B
  8
0
  6
CONTINUOUS
 62
     7
 10
-358.826379469764
 20
-81.1801605103412
 30
0.0
 40
3.00000002980232
  1
132,5
 50
359.999999896069
 41
0.933333333333333
 72
     1
 11
-352.126379400492
 21
-79.6801605075598
 31
0.0
 73
     2
  0
LINE
  5
    3C
  8
0
  6
CONTINUOUS
 62
     7
 10
-335.288879394531
 20
-58.1897888183594
 30
0.0
 11
-335.288879394531
 21
-84.1801605224609
 31
0.0
  0
LINE
  5
    3D
  8
0
  6
CONTINUOUS
 62
     7
 10
-368.413879394531
 20
-58.1897888183594
 30
0.0
 11
-368.413879394531
 21
-84.1801605224609
 31
0.0
  0
LINE
  5
    3E
  8
0
  6
CONTINUOUS
 62
     7
 10
-335.288879394531
 20
-82.1801605224609
 30
0.0
 11
-368.413879394531
 21
-82.1801605224609
 31
0.0
  0
LINE
  5
    3F
  8
0
  6
CONTINUOUS
 62
     7
 10
-338.243302671738
 20
-82.7011049524126
 30
0.0
 11
-335.288879394531
 21
-82.1801605224609
 31
0.0
  0
LINE
  5
    40
  8
0
  6
CONTINUOUS
 62
     7
 10
-335.288879394531
 20
-82.1801605224609
 30
0.0
 11
-338.243302671738
 21
-81.6592160925093
 31
0.0
  0
LINE
  5
    41
  8
0
  6
CONTINUOUS
 62
     7
 10
-365.459456117324
 20
-81.6592160925093
 30
0.0
 11
-368.413879394531
 21
-82.1801605224609
 31
0.0
  0
LINE
  5
    42
  8
0
  6
CONTINUOUS
 62
     7
 10
-368.413879394531
 20
-82.1801605224609
 30
0.0
 11
-365.459456117324
 21
-82.7011049524126
 31
0.0
  0
ENDBLK
  5
    43
  8
0
  6
CONTINUOUS
 62
     7
  0
BLOCK
  5
    44
  8
0
  6
CONTINUOUS
 62
     5
  2
*UDIM786
 70
    65
 10
0.0
 20
0.0
 30
0.0
  3
*UDIM786
  0
TEXT
  5
    45
  8
0
  6
CONTINUOUS
 62
     5
 10
-381.622552883815
 20
-21.7086788929795
 30
0.0
 40
3.00000002980232
  1
65,75
 50
449.999999896069
 41
0.933333333333333
 72
     1
 11
-383.122552886605
 21
-15.0086788237095
 31
0.0
 73
     2
  0
LINE
  5
    46
  8
0
  6
CONTINUOUS
 62
     5
 10
-370.222592203487
 20
-7.06478881835938
 30
0.0
 11
-382.622552871704
 21
-7.06478881835938
 31
0.0
  0
LINE
  5
    47
  8
0
  6
CONTINUOUS
 62
     5
 10
-380.622552871704
 20
-7.06478881835938
 30
0.0
 11
-380.622552871704
 21
-23.5022888183594
 31
0.0
  0
LINE
  5
    48
  8
0
  6
CONTINUOUS
 62
     5
 10
-380.101608441752
 20
-10.0192120955663
 30
0.0
 11
-380.622552871704
 21
-7.06478881835938
 31
0.0
  0
LINE
  5
    49
  8
0
  6
CONTINUOUS
 62
     5
 10
-380.622552871704
 20
-7.06478881835938
 30
0.0
 11
-381.143497301656
 21
-10.0192120955663
 31
0.0
  0
LINE
  5
    4A
  8
0
  6
CONTINUOUS
 62
     5
 10
-381.143497301656
 20
-20.5478655411524
 30
0.0
 11
-380.622552871704
 21
-23.5022888183594
 31
0.0
  0
LINE
  5
    4B
  8
0
  6
CONTINUOUS
 62
     5
 10
-380.622552871704
 20
-23.5022888183594
 30
0.0
 11
-380.101608441752
 21
-20.5478655411524
 31
0.0
  0
ENDBLK
  5
    4C
  8
0
  6
CONTINUOUS
 62
     5
  0
BLOCK
  5
    4D
  8
0
  6
CONTINUOUS
 62
     7
  2
*UDIM787
 70
    65
 10
0.0
 20
0.0
 30
0.0
  3
*UDIM787
  0
TEXT
  5
    4E
  8
0
  6
CONTINUOUS
 62
     7
 10
-354.453957384558
 20
-74.7287063528085
 30
0.0
 40
3.00000002980232
  1
115
 50
359.999999896069
 41
0.933333333333333
 72
     1
 11
-350.553957343102
 21
-73.2287063449621
 31
0.0
 73
     2
  0
LINE
  5
    4F
  8
0
  6
CONTINUOUS
 62
     7
 10
-337.476379394531
 20
-46.6038370573083
 30
0.0
 11
-337.476379394531
 21
-77.7287063598633
 31
0.0
  0
LINE
  5
    50
  8
0
  6
CONTINUOUS
 62
     7
 10
-366.226379394531
 20
-45.7754842815427
 30
0.0
 11
-366.226379394531
 21
-77.7287063598633
 31
0.0
  0
LINE
  5
    51
  8
0
  6
CONTINUOUS
 62
     7
 10
-337.476379394531
 20
-75.7287063598633
 30
0.0
 11
-366.226379394531
 21
-75.7287063598633
 31
0.0
  0
LINE
  5
    52
  8
0
  6
CONTINUOUS
 62
     7
 10
-340.430802671738
 20
-76.249650789815
 30
0.0
 11
-337.476379394531
 21
-75.7287063598633
 31
0.0
  0
LINE
  5
    53
  8
0
  6
CONTINUOUS
 62
     7
 10
-337.476379394531
 20
-75.7287063598633
 30
0.0
 11
-340.430802671738
 21
-75.2077619299116
 31
0.0
  0
LINE
  5
    54
  8
0
  6
CONTINUOUS
 62
     7
 10
-363.271956117324
 20
-75.2077619299116
 30
0.0
 11
-366.226379394531
 21
-75.7287063598633
 31
0.0
  0
LINE
  5
    55
  8
0
  6
CONTINUOUS
 62
     7
 10
-366.226379394531
 20
-75.7287063598633
 30
0.0
 11
-363.271956117324
 21
-76.249650789815
 31
0.0
  0
ENDBLK
  5
    56
  8
0
  6
CONTINUOUS
 62
     7
  0
BLOCK
  5
    57
  8
0
  6
CONTINUOUS
 62
     7
  2
*UDIM788
 70
    65
 10
0.0
 20
0.0
 30
0.0
  3
*UDIM788
  0
TEXT
  5
    58
  8
0
  6
CONTINUOUS
 62
     7
 10
-388.311668403046
 20
-28.114788392551
 30
0.0
 40
3.00000002980232
  1
135
 50
449.999999896069
 41
0.933333333333333
 72
     1
 11
-389.811668410897
 21
-24.2147883510965
 31
0.0
 73
     2
  0
LINE
  5
    59
  8
0
  6
CONTINUOUS
 62
     7
 10
-370.222592203487
 20
-7.06478789594153
 30
0.0
 11
-389.311668395995
 21
-7.06477028783691
 31
0.0
  0
LINE
  5
    5A
  8
0
  6
CONTINUOUS
 62
     7
 10
-370.274364251972
 20
-40.8147878932939
 30
0.0
 11
-389.311668395995
 21
-40.8147702825417
 31
0.0
  0
LINE
  5
    5B
  8
0
  6
CONTINUOUS
 62
     7
 10
-387.311668395996
 20
-7.06477213267261
 30
0.0
 11
-387.311668395996
 21
-40.8147721326726
 31
0.0
  0
LINE
  5
    5C
  8
0
  6
CONTINUOUS
 62
     7
 10
-386.790723966045
 20
-10.0191954098796
 30
0.0
 11
-387.311668395996
 21
-7.06477213267261
 31
0.0
  0
LINE
  5
    5D
  8
0
  6
CONTINUOUS
 62
     7
 10
-387.311668395996
 20
-7.06477213267261
 30
0.0
 11
-387.832612825948
 21
-10.0191954098796
 31
0.0
  0
LINE
  5
    5E
  8
0
  6
CONTINUOUS
 62
     7
 10
-387.832612825948
 20
-37.8603488554656
 30
0.0
 11
-387.311668395996
 21
-40.8147721326726
 31
0.0
  0
LINE
  5
    5F
  8
0
  6
CONTINUOUS
 62
     7
 10
-387.311668395996
 20
-40.8147721326726
 30
0.0
 11
-386.790723966045
 21
-37.8603488554656
 31
0.0
  0
ENDBLK
  5
    60
  8
0
  6
CONTINUOUS
 62
     7
  0
BLOCK
  5
    61
  8
0
  6
CONTINUOUS
 62
     7
  2
MOSTRA
 70
    64
 10
0.0
 20
0.0
 30
0.0
  3
MOSTRA
  0
LINE
  5
    62
  8
0
  6
CONTINUOUS
 62
     2
 10
175.338317871094
 20
34.312744140625
 30
0.0
 11
210.838317871094
 21
34.312744140625
 31
0.0
  0
LINE
  5
    63
  8
0
  6
CONTINUOUS
 62
     2
 10
175.338317871094
 20
49.312744140625
 30
0.0
 11
210.838317871094
 21
49.312744140625
 31
0.0
  0
LINE
  5
    64
  8
0
  6
CONTINUOUS
 62
     2
 10
210.838317871094
 20
33.312744140625
 30
0.0
 11
210.838317871094
 21
50.312744140625
 31
0.0
  0
LINE
  5
    65
  8
0
  6
CONTINUOUS
 62
     2
 10
175.338317871094
 20
34.312744140625
 30
0.0
 11
175.338317871094
 21
49.312744140625
 31
0.0
  0
LINE
  5
    66
  8
0
  6
CONTINUOUS
 62
     2
 10
210.838317871094
 20
50.312744140625
 30
0.0
 11
210.838317871094
 21
148.306442260742
 31
0.0
  0
LINE
  5
    67
  8
0
  6
CONTINUOUS
 62
     2
 10
210.838317871094
 20
-10.187255859375
 30
0.0
 11
210.838317871094
 21
33.3127403259278
 31
0.0
  0
LINE
  5
    68
  8
0
  6
CONTINUOUS
 62
     2
 10
37.5883140563965
 20
-11.437255859375
 30
0.0
 11
209.588317871094
 21
-11.437255859375
 31
0.0
  0
LINE
  5
    69
  8
0
  6
CONTINUOUS
 62
     2
 10
36.3383140563965
 20
-10.187255859375
 30
0.0
 11
36.3383140563965
 21
148.306442260742
 31
0.0
  0
LINE
  5
    6A
  8
0
  6
CONTINUOUS
 62
     2
 10
175.338317871094
 20
128.562744140625
 30
0.0
 11
175.338317871094
 21
129.562744140625
 31
0.0
  0
LINE
  5
    6B
  8
0
  6
CONTINUOUS
 62
     2
 10
45.3383140563965
 20
128.562744140625
 30
0.0
 11
45.3383140563965
 21
129.562744140625
 31
0.0
  0
LINE
  5
    6C
  8
0
  6
CONTINUOUS
 62
     2
 10
175.338317871094
 20
8.56274414062501
 30
0.0
 11
175.338317871094
 21
9.56274414062501
 31
0.0
  0
LINE
  5
    6D
  8
0
  6
CONTINUOUS
 62
     2
 10
46.3383140563965
 20
8.562744140625
 30
0.0
 11
174.338314056396
 21
8.56274414062501
 31
0.0
  0
LINE
  5
    6E
  8
0
  6
CONTINUOUS
 62
     2
 10
45.3383140563965
 20
8.562744140625
 30
0.0
 11
45.3383140563965
 21
9.562744140625
 31
0.0
  0
LINE
  5
    6F
  8
0
  6
CONTINUOUS
 62
     2
 10
174.338317871094
 20
-11.437255859375
 30
0.0
 11
174.338317871094
 21
8.56274414062501
 31
0.0
  0
LINE
  5
    70
  8
0
  6
CONTINUOUS
 62
     2
 10
175.338317871094
 20
129.562744140625
 30
0.0
 11
175.338317871094
 21
149.562744140625
 31
0.0
  0
LINE
  5
    71
  8
0
  6
CONTINUOUS
 62
     2
 10
175.338317871094
 20
9.56274414062501
 30
0.0
 11
175.338317871094
 21
33.312744140625
 31
0.0
  0
LINE
  5
    72
  8
0
  6
CONTINUOUS
 62
     2
 10
175.338317871094
 20
50.312744140625
 30
0.0
 11
175.338317871094
 21
128.562744140625
 31
0.0
  0
LINE
  5
    73
  8
0
  6
CONTINUOUS
 62
     2
 10
175.338317871094
 20
-11.437255859375
 30
0.0
 11
175.338317871094
 21
8.56274414062501
 31
0.0
  0
LINE
  5
    74
  8
0
  6
CONTINUOUS
 62
     2
 10
45.3383140563965
 20
129.562744140625
 30
0.0
 11
45.3383140563965
 21
149.562744140625
 31
0.0
  0
LINE
  5
    75
  8
0
  6
CONTINUOUS
 62
     2
 10
45.3383140563965
 20
9.562744140625
 30
0.0
 11
45.3383140563965
 21
128.562744140625
 31
0.0
  0
LINE
  5
    76
  8
0
  6
CONTINUOUS
 62
     2
 10
45.3383140563965
 20
-11.437255859375
 30
0.0
 11
45.3383140563965
 21
8.562744140625
 31
0.0
  0
LINE
  5
    77
  8
0
  6
CONTINUOUS
 62
     2
 10
46.3383140563965
 20
-11.437255859375
 30
0.0
 11
46.3383140563965
 21
8.562744140625
 31
0.0
  0
LINE
  5
    78
  8
0
  6
CONTINUOUS
 62
     2
 10
175.338317871094
 20
33.312744140625
 30
0.0
 11
210.838317871094
 21
33.312744140625
 31
0.0
  0
LINE
  5
    79
  8
0
  6
CONTINUOUS
 62
     2
 10
175.338317871094
 20
50.312744140625
 30
0.0
 11
210.838317871094
 21
50.312744140625
 31
0.0
  0
LINE
  5
    7A
  8
0
  6
CONTINUOUS
 62
     2
 10
175.388320922852
 20
49.312744140625
 30
0.0
 11
175.388320922852
 21
50.312744140625
 31
0.0
  0
LINE
  5
    7B
  8
0
  6
CONTINUOUS
 62
     2
 10
175.388320922852
 20
33.312744140625
 30
0.0
 11
175.388320922852
 21
34.312744140625
 31
0.0
  0
LINE
  5
    7C
  8
0
  6
CONTINUOUS
 62
     2
 10
46.3383140563965
 20
128.562744140625
 30
0.0
 11
174.338314056396
 21
128.562744140625
 31
0.0
  0
LINE
  5
    7D
  8
0
  6
CONTINUOUS
 62
     2
 10
46.3383140563965
 20
9.562744140625
 30
0.0
 11
174.338314056396
 21
9.56274414062501
 31
0.0
  0
LINE
  5
    7E
  8
0
  6
CONTINUOUS
 62
     2
 10
174.338317871094
 20
9.56274414062501
 30
0.0
 11
174.338317871094
 21
128.562744140625
 31
0.0
  0
LINE
  5
    7F
  8
0
  6
CONTINUOUS
 62
     2
 10
46.3383140563965
 20
9.562744140625
 30
0.0
 11
46.3383140563965
 21
128.562744140625
 31
0.0
  0
LINE
  5
    80
  8
0
  6
CONTINUOUS
 62
     2
 10
167.338315963745
 20
121.562743016692
 30
0.0
 11
174.338312295455
 21
128.562739348402
 31
0.0
  0
LINE
  5
    81
  8
0
  6
CONTINUOUS
 62
     2
 10
46.3383156391412
 20
128.562746004959
 30
0.0
 11
62.3383159637451
 21
121.033336629486
 31
0.0
  0
LINE
  5
    82
  8
0
  6
CONTINUOUS
 62
     2
 10
167.338315963745
 20
16.5627619426901
 30
0.0
 11
174.338335117812
 21
9.56273924827786
 31
0.0
  0
LINE
  5
    83
  8
0
  6
CONTINUOUS
 62
     2
 10
46.3383186567184
 20
9.56274576222224
 30
0.0
 11
62.3383159637451
 21
17.092157375641
 31
0.0
  0
LINE
  5
    84
  8
0
  6
CONTINUOUS
 62
     2
 10
174.338256835938
 20
129.556442260742
 30
0.0
 11
174.338256835938
 21
149.556442260742
 31
0.0
  0
LINE
  5
    85
  8
0
  6
CONTINUOUS
 62
     2
 10
45.3383140563965
 20
129.556442260742
 30
0.0
 11
175.338317871094
 21
129.556442260742
 31
0.0
  0
LINE
  5
    86
  8
0
  6
CONTINUOUS
 62
     2
 10
37.5883140563965
 20
149.556442260742
 30
0.0
 11
45.3383140563965
 21
149.556442260742
 31
0.0
  0
LINE
  5
    87
  8
0
  6
CONTINUOUS
 62
     2
 10
115.343585020102
 20
149.556442260742
 30
0.0
 11
175.338317871094
 21
149.556442260742
 31
0.0
  0
ARC
  5
    88
  8
0
  6
CONTINUOUS
 62
     2
 10
110.338285446167
 20
153.703627621259
 30
0.0
 40
6.50016693934245
 50
219.643748317915
 51
320.356251682085
  0
LINE
  5
    89
  8
0
  6
CONTINUOUS
 62
     2
 10
105.332985872232
 20
149.556442260742
 30
0.0
 11
115.343585020102
 21
149.556442260742
 31
0.0
  0
LINE
  5
    8A
  8
0
  6
CONTINUOUS
 62
     2
 10
46.3383140563965
 20
129.562744140625
 30
0.0
 11
46.3383140563965
 21
149.562744140625
 31
0.0
  0
LINE
  5
    8B
  8
0
  6
CONTINUOUS
 62
     2
 10
45.3383140563965
 20
149.556442260742
 30
0.0
 11
105.332985872232
 21
149.556442260742
 31
0.0
  0
LINE
  5
    8C
  8
0
  6
CONTINUOUS
 62
     2
 10
175.338317871094
 20
149.556442260742
 30
0.0
 11
209.588317871094
 21
149.556442260742
 31
0.0
  0
POINT
  5
    8D
  8
0
  6
CONTINUOUS
 62
     2
 10
114.838315963745
 20
69.062744140625
 30
0.0
  0
ARC
  5
    8E
  8
0
  6
CONTINUOUS
 62
     2
 10
37.5883140563965
 20
148.306442260742
 30
0.0
 40
1.25
 50
90.0
 51
180.0
  0
ARC
  5
    8F
  8
0
  6
CONTINUOUS
 62
     2
 10
37.5883140563965
 20
-10.187255859375
 30
0.0
 40
1.25
 50
180.0
 51
270.0
  0
ARC
  5
    90
  8
0
  6
CONTINUOUS
 62
     2
 10
209.588317871094
 20
-10.187255859375
 30
0.0
 40
1.25
 50
270.0
 51
360.0
  0
ARC
  5
    91
  8
0
  6
CONTINUOUS
 62
     2
 10
209.588317871094
 20
148.306442260742
 30
0.0
 40
1.25
 50
0.0
 51
90.0
  0
ENDBLK
  5
    92
  8
0
  6
CONTINUOUS
 62
     7
  0
BLOCK
  5
    93
  8
0
  6
CONTINUOUS
 62
     7
  2
*UDIM789
 70
    65
 10
0.0
 20
0.0
 30
0.0
  3
*UDIM789
  0
TEXT
  5
    94
  8
0
  6
CONTINUOUS
 62
     7
 10
-303.264273339331
 20
160.192519208572
 30
0.0
 40
2.99999997871263
  1
270
 50
89.9999999480344
 41
0.933333333333333
 72
     1
 11
-304.764273325155
 21
164.092519182257
 31
0.0
 73
     2
  0
LINE
  5
    95
  8
0
  6
CONTINUOUS
 62
     7
 10
-327.576352228661
 20
117.117540780463
 30
0.0
 11
-300.264273335799
 21
117.117540780463
 31
0.0
  0
LINE
  5
    96
  8
0
  6
CONTINUOUS
 62
     7
 10
-327.576352228661
 20
211.617496686574
 30
0.0
 11
-300.264273335799
 21
211.617496686574
 31
0.0
  0
LINE
  5
    97
  8
0
  6
CONTINUOUS
 62
     7
 10
-302.264273335799
 20
117.117540780463
 30
0.0
 11
-302.264273335799
 21
211.617496686574
 31
0.0
  0
LINE
  5
    98
  8
0
  6
CONTINUOUS
 62
     7
 10
-302.785217765751
 20
120.07196405767
 30
0.0
 11
-302.264273335799
 21
117.117540780463
 31
0.0
  0
LINE
  5
    99
  8
0
  6
CONTINUOUS
 62
     7
 10
-302.264273335799
 20
117.117540780463
 30
0.0
 11
-301.743328905847
 21
120.07196405767
 31
0.0
  0
LINE
  5
    9A
  8
0
  6
CONTINUOUS
 62
     7
 10
-301.743328905847
 20
208.663073409367
 30
0.0
 11
-302.264273335799
 21
211.617496686574
 31
0.0
  0
LINE
  5
    9B
  8
0
  6
CONTINUOUS
 62
     7
 10
-302.264273335799
 20
211.617496686574
 30
0.0
 11
-302.785217765751
 21
208.663073409367
 31
0.0
  0
ENDBLK
  5
    9C
  8
0
  6
CONTINUOUS
 62
     7
  0
BLOCK
  5
    9D
  8
0
  6
CONTINUOUS
 62
     7
  2
*UDIM790
 70
    65
 10
0.0
 20
0.0
 30
0.0
  3
*UDIM790
  0
TEXT
  5
    9E
  8
0
  6
CONTINUOUS
 62
     7
 10
-309.666716166231
 20
179.923758605062
 30
0.0
 40
2.99999997871263
  1
133,25
 50
89.9999999480344
 41
0.933333333333333
 72
     1
 11
-311.166716148251
 21
188.023758548945
 31
0.0
 73
     2
  0
LINE
  5
    9F
  8
0
  6
CONTINUOUS
 62
     7
 10
-310.329759678457
 20
164.980027149195
 30
0.0
 11
-306.666716158895
 21
164.980027149195
 31
0.0
  0
LINE
  5
    A0
  8
0
  6
CONTINUOUS
 62
     7
 10
-327.576352228661
 20
211.617496686574
 30
0.0
 11
-306.666716158895
 21
211.617496686574
 31
0.0
  0
LINE
  5
    A1
  8
0
  6
CONTINUOUS
 62
     7
 10
-308.666716158895
 20
164.980027149195
 30
0.0
 11
-308.666716158895
 21
211.617496686574
 31
0.0
  0
LINE
  5
    A2
  8
0
  6
CONTINUOUS
 62
     7
 10
-309.187660588847
 20
167.934450426402
 30
0.0
 11
-308.666716158895
 21
164.980027149195
 31
0.0
  0
LINE
  5
    A3
  8
0
  6
CONTINUOUS
 62
     7
 10
-308.666716158895
 20
164.980027149195
 30
0.0
 11
-308.145771728943
 21
167.934450426402
 31
0.0
  0
LINE
  5
    A4
  8
0
  6
CONTINUOUS
 62
     7
 10
-308.145771728943
 20
208.663073409367
 30
0.0
 11
-308.666716158895
 21
211.617496686574
 31
0.0
  0
LINE
  5
    A5
  8
0
  6
CONTINUOUS
 62
     7
 10
-308.666716158895
 20
211.617496686574
 30
0.0
 11
-309.187660588847
 21
208.663073409367
 31
0.0
  0
ENDBLK
  5
    A6
  8
0
  6
CONTINUOUS
 62
     7
  0
BLOCK
  5
    A7
  8
0
  6
CONTINUOUS
 62
     7
  2
*UDIM791
 70
    65
 10
0.0
 20
0.0
 30
0.0
  3
*UDIM791
  0
TEXT
  5
    A8
  8
0
  6
CONTINUOUS
 62
     7
 10
-356.026364217059
 20
222.14150077189
 30
0.0
 40
2.99999997871263
  1
140
 50
359.999999948034
 41
0.933333333333333
 72
     1
 11
-352.12636424338
 21
223.641500757729
 31
0.0
 73
     2
  0
LINE
  5
    A9
  8
0
  6
CONTINUOUS
 62
     7
 10
-327.351365422279
 20
210.255006498966
 30
0.0
 11
-327.351365422279
 21
223.141500768373
 31
0.0
  0
LINE
  5
    AA
  8
0
  6
CONTINUOUS
 62
     7
 10
-376.351364587804
 20
210.255007385643
 30
0.0
 11
-376.351364587804
 21
223.141500768373
 31
0.0
  0
LINE
  5
    AB
  8
0
  6
CONTINUOUS
 62
     7
 10
-327.351365422279
 20
221.141500768373
 30
0.0
 11
-376.351364587804
 21
221.141500768373
 31
0.0
  0
LINE
  5
    AC
  8
0
  6
CONTINUOUS
 62
     7
 10
-330.305788699486
 20
220.620556338421
 30
0.0
 11
-327.351365422279
 21
221.141500768373
 31
0.0
  0
LINE
  5
    AD
  8
0
  6
CONTINUOUS
 62
     7
 10
-327.351365422279
 20
221.141500768373
 30
0.0
 11
-330.305788699486
 21
221.662445198324
 31
0.0
  0
LINE
  5
    AE
  8
0
  6
CONTINUOUS
 62
     7
 10
-373.396941310597
 20
221.662445198324
 30
0.0
 11
-376.351364587804
 21
221.141500768373
 31
0.0
  0
LINE
  5
    AF
  8
0
  6
CONTINUOUS
 62
     7
 10
-376.351364587804
 20
221.141500768373
 30
0.0
 11
-373.396941310597
 21
220.620556338421
 31
0.0
  0
ENDBLK
  5
    B0
  8
0
  6
CONTINUOUS
 62
     7
  0
BLOCK
  5
    B1
  8
0
  6
CONTINUOUS
 62
     3
  2
*UDIM792
 70
    65
 10
0.0
 20
0.0
 30
0.0
  3
*UDIM792
  0
TEXT
  5
    B2
  8
0
  6
CONTINUOUS
 62
     3
 10
-383.997815360443
 20
160.803924378054
 30
0.0
 40
2.99999997871263
  1
161
 50
89.9999999480344
 41
0.933333333333333
 72
     1
 11
-385.497815346267
 21
164.703924351739
 31
0.0
 73
     2
  0
LINE
  5
    B3
  8
0
  6
CONTINUOUS
 62
     3
 10
-379.888862717443
 20
136.805027629012
 30
0.0
 11
-384.997815356911
 21
136.805027629012
 31
0.0
  0
LINE
  5
    B4
  8
0
  6
CONTINUOUS
 62
     3
 10
-377.176362763636
 20
193.152821011456
 30
0.0
 11
-384.997815356911
 21
193.152821011456
 31
0.0
  0
LINE
  5
    B5
  8
0
  6
CONTINUOUS
 62
     3
 10
-382.997815356911
 20
136.805027629012
 30
0.0
 11
-382.997815356911
 21
193.152821011456
 31
0.0
  0
LINE
  5
    B6
  8
0
  6
CONTINUOUS
 62
     3
 10
-383.518759786863
 20
139.759450906219
 30
0.0
 11
-382.997815356911
 21
136.805027629012
 31
0.0
  0
LINE
  5
    B7
  8
0
  6
CONTINUOUS
 62
     3
 10
-382.997815356911
 20
136.805027629012
 30
0.0
 11
-382.476870926959
 21
139.759450906219
 31
0.0
  0
LINE
  5
    B8
  8
0
  6
CONTINUOUS
 62
     3
 10
-382.476870926959
 20
190.198397734249
 30
0.0
 11
-382.997815356911
 21
193.152821011456
 31
0.0
  0
LINE
  5
    B9
  8
0
  6
CONTINUOUS
 62
     3
 10
-382.997815356911
 20
193.152821011456
 30
0.0
 11
-383.518759786863
 21
190.198397734249
 31
0.0
  0
ENDBLK
  5
    BA
  8
0
  6
CONTINUOUS
 62
     3
  0
BLOCK
  5
    BB
  8
0
  6
CONTINUOUS
 62
     7
  2
*UDIM793
 70
    65
 10
0.0
 20
0.0
 30
0.0
  3
*UDIM793
  0
TEXT
  5
    BC
  8
0
  6
CONTINUOUS
 62
     7
 10
-337.826362435603
 20
109.880554119798
 30
0.0
 40
2.99999997871263
  1
96
 50
359.999999948034
 41
0.933333333333333
 72
     1
 11
-335.326362451989
 21
111.380554106899
 31
0.0
 73
     2
  0
LINE
  5
    BD
  8
0
  6
CONTINUOUS
 62
     7
 10
-318.251362414949
 20
136.242527621562
 30
0.0
 11
-318.251362414949
 21
106.880554117543
 31
0.0
  0
LINE
  5
    BE
  8
0
  6
CONTINUOUS
 62
     7
 10
-318.251362414949
 20
108.880554117543
 30
0.0
 11
-351.851362510316
 21
108.880554117543
 31
0.0
  0
LINE
  5
    BF
  8
0
  6
CONTINUOUS
 62
     7
 10
-321.205785692156
 20
108.359609687592
 30
0.0
 11
-318.251362414949
 21
108.880554117543
 31
0.0
  0
LINE
  5
    C0
  8
0
  6
CONTINUOUS
 62
     7
 10
-318.251362414949
 20
108.880554117543
 30
0.0
 11
-321.205785692156
 21
109.401498547495
 31
0.0
  0
LINE
  5
    C1
  8
0
  6
CONTINUOUS
 62
     7
 10
-348.89693923311
 20
109.401498547495
 30
0.0
 11
-351.851362510316
 21
108.880554117543
 31
0.0
  0
LINE
  5
    C2
  8
0
  6
CONTINUOUS
 62
     7
 10
-351.851362510316
 20
108.880554117543
 30
0.0
 11
-348.89693923311
 21
108.359609687592
 31
0.0
  0
ENDBLK
  5
    C3
  8
0
  6
CONTINUOUS
 62
     7
  0
BLOCK
  5
    C4
  8
0
  6
CONTINUOUS
 62
     7
  2
*UDIM794
 70
    65
 10
0.0
 20
0.0
 30
0.0
  3
*UDIM794
  0
TEXT
  5
    C5
  8
0
  6
CONTINUOUS
 62
     7
 10
-371.163859371427
 20
109.880554122323
 30
0.0
 40
2.99999997871263
  1
78,5
 50
359.999999948034
 41
0.933333333333333
 72
     1
 11
-365.863859407682
 21
111.380554106899
 31
0.0
 73
     2
  0
LINE
  5
    C6
  8
0
  6
CONTINUOUS
 62
     7
 10
-379.326362709992
 20
136.242527621562
 30
0.0
 11
-379.326362709992
 21
106.880554117543
 31
0.0
  0
LINE
  5
    C7
  8
0
  6
CONTINUOUS
 62
     7
 10
-351.851362510316
 20
108.880554117543
 30
0.0
 11
-379.326362709992
 21
108.880554117543
 31
0.0
  0
LINE
  5
    C8
  8
0
  6
CONTINUOUS
 62
     7
 10
-354.805785787523
 20
108.359609687592
 30
0.0
 11
-351.851362510316
 21
108.880554117543
 31
0.0
  0
LINE
  5
    C9
  8
0
  6
CONTINUOUS
 62
     7
 10
-351.851362510316
 20
108.880554117543
 30
0.0
 11
-354.805785787523
 21
109.401498547495
 31
0.0
  0
LINE
  5
    CA
  8
0
  6
CONTINUOUS
 62
     7
 10
-376.371939432785
 20
109.401498547495
 30
0.0
 11
-379.326362709992
 21
108.880554117543
 31
0.0
  0
LINE
  5
    CB
  8
0
  6
CONTINUOUS
 62
     7
 10
-379.326362709992
 20
108.880554117543
 30
0.0
 11
-376.371939432785
 21
108.359609687592
 31
0.0
  0
ENDBLK
  5
    CC
  8
0
  6
CONTINUOUS
 62
     7
  0
BLOCK
  5
    CD
  8
0
  6
CONTINUOUS
 62
     5
  2
*UDIM795
 70
    65
 10
0.0
 20
0.0
 30
0.0
  3
*UDIM795
  0
TEXT
  5
    CE
  8
0
  6
CONTINUOUS
 62
     5
 10
-390.42828019004
 20
178.961258621454
 30
0.0
 40
2.99999997871263
  1
127,75
 50
89.9999999480344
 41
0.933333333333333
 72
     1
 11
-391.92828017206
 21
187.061258565336
 31
0.0
 73
     2
  0
LINE
  5
    CF
  8
0
  6
CONTINUOUS
 62
     5
 10
-376.913864172396
 20
209.692496719357
 30
0.0
 11
-391.428280182704
 21
209.692496719357
 31
0.0
  0
LINE
  5
    D0
  8
0
  6
CONTINUOUS
 62
     5
 10
-389.428280182704
 20
164.980027149195
 30
0.0
 11
-389.428280182704
 21
209.692496719357
 31
0.0
  0
LINE
  5
    D1
  8
0
  6
CONTINUOUS
 62
     5
 10
-389.949224612655
 20
167.934450426402
 30
0.0
 11
-389.428280182704
 21
164.980027149195
 31
0.0
  0
LINE
  5
    D2
  8
0
  6
CONTINUOUS
 62
     5
 10
-389.428280182704
 20
164.980027149195
 30
0.0
 11
-388.907335752752
 21
167.934450426402
 31
0.0
  0
LINE
  5
    D3
  8
0
  6
CONTINUOUS
 62
     5
 10
-388.907335752752
 20
206.73807344215
 30
0.0
 11
-389.428280182704
 21
209.692496719357
 31
0.0
  0
LINE
  5
    D4
  8
0
  6
CONTINUOUS
 62
     5
 10
-389.428280182704
 20
209.692496719357
 30
0.0
 11
-389.949224612655
 21
206.73807344215
 31
0.0
  0
ENDBLK
  5
    D5
  8
0
  6
CONTINUOUS
 62
     5
  0
BLOCK
  5
    D6
  8
0
  6
CONTINUOUS
 62
     7
  2
*UDIM796
 70
    65
 10
0.0
 20
0.0
 30
0.0
  3
*UDIM796
  0
TEXT
  5
    D7
  8
0
  6
CONTINUOUS
 62
     7
 10
-341.06385796794
 20
104.199468252317
 30
0.0
 40
2.99999997871263
  1
101,5
 50
359.999999948034
 41
0.933333333333333
 72
     1
 11
-334.363858014129
 21
105.69946823563
 31
0.0
 73
     2
  0
LINE
  5
    D8
  8
0
  6
CONTINUOUS
 62
     7
 10
-316.326348615885
 20
159.867505441683
 30
0.0
 11
-316.326348615885
 21
101.199468246274
 31
0.0
  0
LINE
  5
    D9
  8
0
  6
CONTINUOUS
 62
     7
 10
-351.851362510316
 20
106.956534753972
 30
0.0
 11
-351.851362510316
 21
101.199468246274
 31
0.0
  0
LINE
  5
    DA
  8
0
  6
CONTINUOUS
 62
     7
 10
-316.326348615885
 20
103.199468246274
 30
0.0
 11
-351.851362510316
 21
103.199468246274
 31
0.0
  0
LINE
  5
    DB
  8
0
  6
CONTINUOUS
 62
     7
 10
-319.280771893092
 20
102.678523816322
 30
0.0
 11
-316.326348615885
 21
103.199468246274
 31
0.0
  0
LINE
  5
    DC
  8
0
  6
CONTINUOUS
 62
     7
 10
-316.326348615885
 20
103.199468246274
 30
0.0
 11
-319.280771893092
 21
103.720412676226
 31
0.0
  0
LINE
  5
    DD
  8
0
  6
CONTINUOUS
 62
     7
 10
-348.89693923311
 20
103.720412676226
 30
0.0
 11
-351.851362510316
 21
103.199468246274
 31
0.0
  0
LINE
  5
    DE
  8
0
  6
CONTINUOUS
 62
     7
 10
-351.851362510316
 20
103.199468246274
 30
0.0
 11
-348.89693923311
 21
102.678523816322
 31
0.0
  0
ENDBLK
  5
    DF
  8
0
  6
CONTINUOUS
 62
     7
  0
BLOCK
  5
    E0
  8
0
  6
CONTINUOUS
 62
     7
  2
*UDIM797
 70
    65
 10
0.0
 20
0.0
 30
0.0
  3
*UDIM797
  0
TEXT
  5
    E1
  8
0
  6
CONTINUOUS
 62
     7
 10
-397.074296003231
 20
159.056722809128
 30
0.0
 40
2.99999997871263
  1
259
 50
89.9999999480344
 41
0.933333333333333
 72
     1
 11
-398.574295989055
 21
162.956722782813
 31
0.0
 73
     2
  0
LINE
  5
    E2
  8
0
  6
CONTINUOUS
 62
     7
 10
-376.913864172396
 20
119.042540747681
 30
0.0
 11
-398.074295999698
 21
119.042540747681
 31
0.0
  0
LINE
  5
    E3
  8
0
  6
CONTINUOUS
 62
     7
 10
-376.913864172396
 20
209.692496719357
 30
0.0
 11
-398.074295999698
 21
209.692496719357
 31
0.0
  0
LINE
  5
    E4
  8
0
  6
CONTINUOUS
 62
     7
 10
-396.074295999698
 20
119.042540747681
 30
0.0
 11
-396.074295999698
 21
209.692496719357
 31
0.0
  0
LINE
  5
    E5
  8
0
  6
CONTINUOUS
 62
     7
 10
-396.59524042965
 20
121.996964024888
 30
0.0
 11
-396.074295999698
 21
119.042540747681
 31
0.0
  0
LINE
  5
    E6
  8
0
  6
CONTINUOUS
 62
     7
 10
-396.074295999698
 20
119.042540747681
 30
0.0
 11
-395.553351569747
 21
121.996964024888
 31
0.0
  0
LINE
  5
    E7
  8
0
  6
CONTINUOUS
 62
     7
 10
-395.553351569747
 20
206.73807344215
 30
0.0
 11
-396.074295999698
 21
209.692496719357
 31
0.0
  0
LINE
  5
    E8
  8
0
  6
CONTINUOUS
 62
     7
 10
-396.074295999698
 20
209.692496719357
 30
0.0
 11
-396.59524042965
 21
206.73807344215
 31
0.0
  0
ENDBLK
  5
    E9
  8
0
  6
CONTINUOUS
 62
     7
  0
BLOCK
  5
    EA
  8
0
  6
CONTINUOUS
 62
     7
  2
*HATCH185
 70
    65
 10
0.0
 20
0.0
 30
0.0
  3
*HATCH185
  0
LINE
  5
    EB
  8
0
  6
CONTINUOUS
 62
    52
 10
187.992431640625
 20
39.5
 30
0.0
 11
185.992431640625
 21
37.5
 31
0.0
  0
LINE
  5
    EC
  8
0
  6
CONTINUOUS
 62
    52
 10
192.235076904297
 20
39.5
 30
0.0
 11
190.235076904297
 21
37.5
 31
0.0
  0
LINE
  5
    ED
  8
0
  6
CONTINUOUS
 62
    52
 10
196.477722167969
 20
39.5
 30
0.0
 11
194.477722167969
 21
37.5
 31
0.0
  0
LINE
  5
    EE
  8
0
  6
CONTINUOUS
 62
    52
 10
200.720367431641
 20
39.5
 30
0.0
 11
198.720367431641
 21
37.5
 31
0.0
  0
LINE
  5
    EF
  8
0
  6
CONTINUOUS
 62
    52
 10
204.963012695313
 20
39.5
 30
0.0
 11
202.963012695313
 21
37.5
 31
0.0
  0
LINE
  5
    F0
  8
0
  6
CONTINUOUS
 62
    52
 10
209.205657958984
 20
39.5
 30
0.0
 11
207.205657958984
 21
37.5
 31
0.0
  0
LINE
  5
    F1
  8
0
  6
CONTINUOUS
 62
    52
 10
213.448303222656
 20
39.5
 30
0.0
 11
211.448303222656
 21
37.5
 31
0.0
  0
LINE
  5
    F2
  8
0
  6
CONTINUOUS
 62
    52
 10
217.690948486328
 20
39.5
 30
0.0
 11
215.690948486328
 21
37.5
 31
0.0
  0
LINE
  5
    F3
  8
0
  6
CONTINUOUS
 62
    52
 10
221.93359375
 20
39.5
 30
0.0
 11
219.93359375
 21
37.5
 31
0.0
  0
LINE
  5
    F4
  8
0
  6
CONTINUOUS
 62
    52
 10
226.176239013672
 20
39.5
 30
0.0
 11
224.176239013672
 21
37.5
 31
0.0
  0
LINE
  5
    F5
  8
0
  6
CONTINUOUS
 62
    52
 10
229.369522094727
 20
38.4506874084473
 30
0.0
 11
228.418838500977
 21
37.5
 31
0.0
  0
ENDBLK
  5
    F6
  8
0
  6
CONTINUOUS
 62
     7
  0
BLOCK
  5
    F7
  8
0
  6
CONTINUOUS
 62
     7
  2
*HATCH186
 70
    65
 10
0.0
 20
0.0
 30
0.0
  3
*HATCH186
  0
LINE
  5
    F8
  8
0
  6
CONTINUOUS
 62
    52
 10
115.867530822754
 20
39.4999961853027
 30
0.0
 11
113.867530822754
 21
37.4999961853027
 31
0.0
  0
LINE
  5
    F9
  8
0
  6
CONTINUOUS
 62
    52
 10
120.110176086426
 20
39.4999961853027
 30
0.0
 11
118.110176086426
 21
37.4999961853027
 31
0.0
  0
LINE
  5
    FA
  8
0
  6
CONTINUOUS
 62
    52
 10
124.352821350098
 20
39.4999961853027
 30
0.0
 11
122.352821350098
 21
37.4999961853027
 31
0.0
  0
LINE
  5
    FB
  8
0
  6
CONTINUOUS
 62
    52
 10
128.595458984375
 20
39.4999961853027
 30
0.0
 11
126.59546661377
 21
37.4999961853027
 31
0.0
  0
LINE
  5
    FC
  8
0
  6
CONTINUOUS
 62
    52
 10
132.838104248047
 20
39.4999961853027
 30
0.0
 11
130.838104248047
 21
37.4999961853027
 31
0.0
  0
LINE
  5
    FD
  8
0
  6
CONTINUOUS
 62
    52
 10
137.080749511719
 20
39.4999961853027
 30
0.0
 11
135.080749511719
 21
37.4999961853027
 31
0.0
  0
LINE
  5
    FE
  8
0
  6
CONTINUOUS
 62
    52
 10
141.323394775391
 20
39.4999961853027
 30
0.0
 11
139.323394775391
 21
37.4999961853027
 31
0.0
  0
LINE
  5
    FF
  8
0
  6
CONTINUOUS
 62
    52
 10
145.566040039063
 20
39.4999961853027
 30
0.0
 11
143.566040039063
 21
37.4999961853027
 31
0.0
  0
LINE
  5
   100
  8
0
  6
CONTINUOUS
 62
    52
 10
149.808685302734
 20
39.4999961853027
 30
0.0
 11
147.808685302734
 21
37.4999961853027
 31
0.0
  0
LINE
  5
   101
  8
0
  6
CONTINUOUS
 62
    52
 10
154.051330566406
 20
39.4999961853027
 30
0.0
 11
152.051330566406
 21
37.4999961853027
 31
0.0
  0
LINE
  5
   102
  8
0
  6
CONTINUOUS
 62
    52
 10
158.293975830078
 20
39.4999961853027
 30
0.0
 11
156.293975830078
 21
37.4999961853027
 31
0.0
  0
LINE
  5
   103
  8
0
  6
CONTINUOUS
 62
    52
 10
162.53662109375
 20
39.4999961853027
 30
0.0
 11
160.53662109375
 21
37.4999961853027
 31
0.0
  0
LINE
  5
   104
  8
0
  6
CONTINUOUS
 62
    52
 10
166.779266357422
 20
39.4999961853027
 30
0.0
 11
164.779266357422
 21
37.4999961853027
 31
0.0
  0
LINE
  5
   105
  8
0
  6
CONTINUOUS
 62
    52
 10
171.021911621094
 20
39.4999961853027
 30
0.0
 11
169.021911621094
 21
37.4999961853027
 31
0.0
  0
LINE
  5
   106
  8
0
  6
CONTINUOUS
 62
    52
 10
175.264556884766
 20
39.4999961853027
 30
0.0
 11
173.264556884766
 21
37.4999961853027
 31
0.0
  0
ENDBLK
  5
   107
  8
0
  6
CONTINUOUS
 62
     7
  0
BLOCK
  5
   108
  8
0
  6
CONTINUOUS
 62
     7
  2
*HATCH187
 70
    65
 10
0.0
 20
0.0
 30
0.0
  3
*HATCH187
  0
LINE
  5
   109
  8
0
  6
CONTINUOUS
 62
    52
 10
92.5330123901367
 20
39.4999961853027
 30
0.0
 11
90.5330123901367
 21
37.4999961853027
 31
0.0
  0
LINE
  5
   10A
  8
0
  6
CONTINUOUS
 62
    52
 10
96.7756576538086
 20
39.4999961853027
 30
0.0
 11
94.7756576538086
 21
37.4999961853027
 31
0.0
  0
LINE
  5
   10B
  8
0
  6
CONTINUOUS
 62
    52
 10
101.01830291748
 20
39.4999961853027
 30
0.0
 11
99.0183029174805
 21
37.4999961853027
 31
0.0
  0
LINE
  5
   10C
  8
0
  6
CONTINUOUS
 62
    52
 10
105.260948181152
 20
39.4999961853027
 30
0.0
 11
103.260948181152
 21
37.4999961853027
 31
0.0
  0
ENDBLK
  5
   10D
  8
0
  6
CONTINUOUS
 62
     7
  0
BLOCK
  5
   10E
  8
0
  6
CONTINUOUS
 62
     7
  2
*HATCH188
 70
    65
 10
0.0
 20
0.0
 30
0.0
  3
*HATCH188
  0
LINE
  5
   10F
  8
0
  6
CONTINUOUS
 62
    52
 10
45.8639602661133
 20
39.4999961853027
 30
0.0
 11
43.8639640808105
 21
37.5
 31
0.0
  0
LINE
  5
   110
  8
0
  6
CONTINUOUS
 62
    52
 10
50.1065979003906
 20
39.4999961853027
 30
0.0
 11
48.1066017150879
 21
37.5
 31
0.0
  0
LINE
  5
   111
  8
0
  6
CONTINUOUS
 62
    52
 10
54.349235534668
 20
39.4999961853027
 30
0.0
 11
52.3492393493652
 21
37.5
 31
0.0
  0
LINE
  5
   112
  8
0
  6
CONTINUOUS
 62
    52
 10
58.5918731689453
 20
39.4999961853027
 30
0.0
 11
56.5918769836426
 21
37.5
 31
0.0
  0
LINE
  5
   113
  8
0
  6
CONTINUOUS
 62
    52
 10
62.8345108032227
 20
39.4999961853027
 30
0.0
 11
60.8345146179199
 21
37.5
 31
0.0
  0
LINE
  5
   114
  8
0
  6
CONTINUOUS
 62
    52
 10
67.0771560668945
 20
39.4999961853027
 30
0.0
 11
65.0771560668945
 21
37.5
 31
0.0
  0
LINE
  5
   115
  8
0
  6
CONTINUOUS
 62
    52
 10
71.3198013305664
 20
39.4999961853027
 30
0.0
 11
69.3198013305664
 21
37.5
 31
0.0
  0
LINE
  5
   116
  8
0
  6
CONTINUOUS
 62
    52
 10
75.2370758056641
 20
39.1746253967285
 30
0.0
 11
73.5624465942383
 21
37.4999961853027
 31
0.0
  0
ENDBLK
  5
   117
  8
0
  6
CONTINUOUS
 62
     7
  0
BLOCK
  5
   118
  8
0
  6
CONTINUOUS
 62
     7
  2
*HATCH189
 70
    65
 10
0.0
 20
0.0
 30
0.0
  3
*HATCH189
  0
LINE
  5
   119
  8
0
  6
CONTINUOUS
 62
    52
 10
-34.7462120056152
 20
39.5
 30
0.0
 11
-36.7462120056152
 21
37.5
 31
0.0
  0
LINE
  5
   11A
  8
0
  6
CONTINUOUS
 62
    52
 10
-30.5035724639893
 20
39.5
 30
0.0
 11
-32.5035743713379
 21
37.5
 31
0.0
  0
LINE
  5
   11B
  8
0
  6
CONTINUOUS
 62
    52
 10
-26.2609310150147
 20
39.5
 30
0.0
 11
-28.2609329223633
 21
37.5
 31
0.0
  0
LINE
  5
   11C
  8
0
  6
CONTINUOUS
 62
    52
 10
-22.01828956604
 20
39.5
 30
0.0
 11
-24.0182914733887
 21
37.5
 31
0.0
  0
LINE
  5
   11D
  8
0
  6
CONTINUOUS
 62
    52
 10
-17.7756481170654
 20
39.5
 30
0.0
 11
-19.7756500244141
 21
37.5
 31
0.0
  0
LINE
  5
   11E
  8
0
  6
CONTINUOUS
 62
    52
 10
-13.5330066680908
 20
39.5
 30
0.0
 11
-15.5330085754395
 21
37.5
 31
0.0
  0
LINE
  5
   11F
  8
0
  6
CONTINUOUS
 62
    52
 10
-9.29036521911621
 20
39.5
 30
0.0
 11
-11.2903671264648
 21
37.5
 31
0.0
  0
LINE
  5
   120
  8
0
  6
CONTINUOUS
 62
    52
 10
-5.0477237701416
 20
39.5
 30
0.0
 11
-7.04772567749023
 21
37.5
 31
0.0
  0
LINE
  5
   121
  8
0
  6
CONTINUOUS
 62
    52
 10
-0.80508279800415
 20
39.5
 30
0.0
 11
-2.8050844669342
 21
37.5
 31
0.0
  0
LINE
  5
   122
  8
0
  6
CONTINUOUS
 62
    52
 10
3.4375581741333
 20
39.5
 30
0.0
 11
1.43755650520325
 21
37.5
 31
0.0
  0
LINE
  5
   123
  8
0
  6
CONTINUOUS
 62
    52
 10
7.68019962310791
 20
39.5
 30
0.0
 11
5.68019771575928
 21
37.5
 31
0.0
  0
LINE
  5
   124
  8
0
  6
CONTINUOUS
 62
    52
 10
11.9228410720825
 20
39.5
 30
0.0
 11
9.92283916473389
 21
37.5
 31
0.0
  0
LINE
  5
   125
  8
0
  6
CONTINUOUS
 62
    52
 10
16.1654815673828
 20
39.5
 30
0.0
 11
14.1654806137085
 21
37.5
 31
0.0
  0
LINE
  5
   126
  8
0
  6
CONTINUOUS
 62
    52
 10
20.4081230163574
 20
39.5
 30
0.0
 11
18.4081211090088
 21
37.5
 31
0.0
  0
LINE
  5
   127
  8
0
  6
CONTINUOUS
 62
    52
 10
24.650764465332
 20
39.5
 30
0.0
 11
22.6507625579834
 21
37.5
 31
0.0
  0
LINE
  5
   128
  8
0
  6
CONTINUOUS
 62
    52
 10
28.8934059143066
 20
39.5
 30
0.0
 11
26.893404006958
 21
37.5
 31
0.0
  0
LINE
  5
   129
  8
0
  6
CONTINUOUS
 62
    52
 10
33.1360473632813
 20
39.5
 30
0.0
 11
31.1360454559326
 21
37.5
 31
0.0
  0
LINE
  5
   12A
  8
0
  6
CONTINUOUS
 62
    52
 10
35.486873626709
 20
37.6081924438477
 30
0.0
 11
35.3786811828613
 21
37.5
 31
0.0
  0
ENDBLK
  5
   12B
  8
0
  6
CONTINUOUS
 62
     7
  0
BLOCK
  5
   12C
  8
0
  6
CONTINUOUS
 62
     7
  2
*HATCH190
 70
    65
 10
0.0
 20
0.0
 30
0.0
  3
*HATCH190
  0
LINE
  5
   12D
  8
0
  6
CONTINUOUS
 62
    52
 10
166.264526367187
 20
30.5000076293945
 30
0.0
 11
163.987060546875
 21
28.2225513458252
 31
0.0
  0
LINE
  5
   12E
  8
0
  6
CONTINUOUS
 62
    52
 10
170.50715637207
 20
30.5000076293945
 30
0.0
 11
168.00715637207
 21
28.0000019073486
 31
0.0
  0
LINE
  5
   12F
  8
0
  6
CONTINUOUS
 62
    52
 10
172.987060546875
 20
28.7372703552246
 30
0.0
 11
172.249786376953
 21
28.0000019073486
 31
0.0
  0
ENDBLK
  5
   130
  8
0
  6
CONTINUOUS
 62
     7
  0
BLOCK
  5
   131
  8
0
  6
CONTINUOUS
 62
     7
  2
*UDIM798
 70
    65
 10
0.0
 20
0.0
 30
0.0
  3
*UDIM798
  0
TEXT
  5
   132
  8
0
  6
CONTINUOUS
 62
     7
 10
-408.234219773455
 20
160.698033344861
 30
0.0
 40
2.99999997871263
  1
222
 50
89.9999999480344
 41
0.933333333333333
 72
     1
 11
-409.734219759279
 21
164.598033318546
 31
0.0
 73
     2
  0
LINE
  5
   133
  8
0
  6
CONTINUOUS
 62
     7
 10
-414.009374017384
 20
125.517531983631
 30
0.0
 11
-405.234219769923
 21
125.517531983631
 31
0.0
  0
LINE
  5
   134
  8
0
  6
CONTINUOUS
 62
     7
 10
-414.009374017384
 20
203.21752799012
 30
0.0
 11
-405.234219769923
 21
203.21752799012
 31
0.0
  0
LINE
  5
   135
  8
0
  6
CONTINUOUS
 62
     7
 10
-407.234219769923
 20
125.517531983631
 30
0.0
 11
-407.234219769923
 21
203.21752799012
 31
0.0
  0
LINE
  5
   136
  8
0
  6
CONTINUOUS
 62
     7
 10
-407.755164199874
 20
128.471955260838
 30
0.0
 11
-407.234219769923
 21
125.517531983631
 31
0.0
  0
LINE
  5
   137
  8
0
  6
CONTINUOUS
 62
     7
 10
-407.234219769923
 20
125.517531983631
 30
0.0
 11
-406.713275339971
 21
128.471955260838
 31
0.0
  0
LINE
  5
   138
  8
0
  6
CONTINUOUS
 62
     7
 10
-406.713275339971
 20
200.263104712913
 30
0.0
 11
-407.234219769923
 21
203.21752799012
 31
0.0
  0
LINE
  5
   139
  8
0
  6
CONTINUOUS
 62
     7
 10
-407.234219769923
 20
203.21752799012
 30
0.0
 11
-407.755164199874
 21
200.263104712913
 31
0.0
  0
ENDBLK
  5
   13A
  8
0
  6
CONTINUOUS
 62
     7
  0
BLOCK
  5
   13B
  8
0
  6
CONTINUOUS
 62
     7
  2
*UDIM799
 70
    65
 10
0.0
 20
0.0
 30
0.0
  3
*UDIM799
  0
TEXT
  5
   13C
  8
0
  6
CONTINUOUS
 62
     7
 10
-414.254426889091
 20
174.978448460806
 30
0.0
 40
2.99999997871263
  1
109,25
 50
89.9999999480344
 41
0.933333333333333
 72
     1
 11
-415.754426871111
 21
183.078448404689
 31
0.0
 73
     2
  0
LINE
  5
   13D
  8
0
  6
CONTINUOUS
 62
     7
 10
-458.949770153022
 20
164.980028641301
 30
0.0
 11
-411.254426881755
 21
164.980028641301
 31
0.0
  0
LINE
  5
   13E
  8
0
  6
CONTINUOUS
 62
     7
 10
-414.009374017384
 20
203.21752799012
 30
0.0
 11
-411.254426881755
 21
203.21752799012
 31
0.0
  0
LINE
  5
   13F
  8
0
  6
CONTINUOUS
 62
     7
 10
-413.254426881755
 20
164.980028641301
 30
0.0
 11
-413.254426881755
 21
203.21752799012
 31
0.0
  0
LINE
  5
   140
  8
0
  6
CONTINUOUS
 62
     7
 10
-413.775371311706
 20
167.934451918508
 30
0.0
 11
-413.254426881755
 21
164.980028641301
 31
0.0
  0
LINE
  5
   141
  8
0
  6
CONTINUOUS
 62
     7
 10
-413.254426881755
 20
164.980028641301
 30
0.0
 11
-412.733482451803
 21
167.934451918508
 31
0.0
  0
LINE
  5
   142
  8
0
  6
CONTINUOUS
 62
     7
 10
-412.733482451803
 20
200.263104712913
 30
0.0
 11
-413.254426881755
 21
203.21752799012
 31
0.0
  0
LINE
  5
   143
  8
0
  6
CONTINUOUS
 62
     7
 10
-413.254426881755
 20
203.21752799012
 30
0.0
 11
-413.775371311706
 21
200.263104712913
 31
0.0
  0
ENDBLK
  5
   144
  8
0
  6
CONTINUOUS
 62
     7
  0
BLOCK
  5
   145
  8
0
  6
CONTINUOUS
 62
     7
  2
*UDIM800
 70
    65
 10
0.0
 20
0.0
 30
0.0
  3
*UDIM800
  0
TEXT
  5
   146
  8
0
  6
CONTINUOUS
 62
     7
 10
-520.129921559511
 20
158.113941000356
 30
0.0
 40
2.99999997871263
  1
5,5
 50
306.27250751355
 41
0.933333333333333
 72
     1
 11
-516.613260243518
 21
155.857152808963
 31
0.0
 73
     2
  0
TEXT
  5
   147
  8
0
  6
CONTINUOUS
 62
     7
 10
-521.993544702968
 20
160.653509586892
 30
0.0
 40
2.99999997871263
  1
Ø
 50
306.27250751355
 41
0.933333333333333
 72
     1
 11
-520.133437291144
 21
160.65411570118
 31
0.0
 73
     2
  0
LINE
  5
   148
  8
0
  6
CONTINUOUS
 62
     7
 10
-516.321447937186
 20
151.233859036251
 30
0.0
 11
-526.528800152679
 21
165.143469019798
 31
0.0
  0
LINE
  5
   149
  8
0
  6
CONTINUOUS
 62
     7
 10
-523.222011089738
 20
161.517820388742
 30
0.0
 11
-525.389917679913
 21
163.591508170515
 31
0.0
  0
LINE
  5
   14A
  8
0
  6
CONTINUOUS
 62
     7
 10
-525.389917679913
 20
163.591508170515
 30
0.0
 11
-524.061994659248
 21
160.901411434115
 31
0.0
  0
LINE
  5
   14B
  8
0
  6
CONTINUOUS
 62
     7
 10
-528.696706742854
 20
167.217156801571
 30
0.0
 11
-526.528800152679
 21
165.143469019798
 31
0.0
  0
LINE
  5
   14C
  8
0
  6
CONTINUOUS
 62
     7
 10
-526.528800152679
 20
165.143469019798
 30
0.0
 11
-527.856723173344
 21
167.833565756197
 31
0.0
  0
ENDBLK
  5
   14D
  8
0
  6
CONTINUOUS
 62
     7
  0
BLOCK
  5
   14E
  8
0
  6
CONTINUOUS
 62
     7
  2
*UDIM801
 70
    65
 10
0.0
 20
0.0
 30
0.0
  3
*UDIM801
  0
TEXT
  5
   14F
  8
0
  6
CONTINUOUS
 62
     7
 10
-546.310668470941
 20
212.502897726848
 30
0.0
 40
2.99999997871263
  1
27,5
 50
359.999999948034
 41
0.933333333333333
 72
     1
 11
-541.010668507196
 21
214.002897711424
 31
0.0
 73
     2
  0
LINE
  5
   150
  8
0
  6
CONTINUOUS
 62
     7
 10
-535.934336787462
 20
194.154964074571
 30
0.0
 11
-535.934336787462
 21
213.502897722068
 31
0.0
  0
LINE
  5
   151
  8
0
  6
CONTINUOUS
 62
     7
 10
-545.55933662355
 20
184.355028328377
 30
0.0
 11
-545.55933662355
 21
213.502897722068
 31
0.0
  0
LINE
  5
   152
  8
0
  6
CONTINUOUS
 62
     7
 10
-535.710668544803
 20
211.502897722068
 30
0.0
 11
-546.310668469588
 21
211.502897722068
 31
0.0
  0
LINE
  5
   153
  8
0
  6
CONTINUOUS
 62
     7
 10
-532.979913510255
 20
212.02384215202
 30
0.0
 11
-535.934336787462
 21
211.502897722068
 31
0.0
  0
LINE
  5
   154
  8
0
  6
CONTINUOUS
 62
     7
 10
-535.934336787462
 20
211.502897722068
 30
0.0
 11
-532.979913510255
 21
210.981953292116
 31
0.0
  0
LINE
  5
   155
  8
0
  6
CONTINUOUS
 62
     7
 10
-548.513759900757
 20
210.981953292116
 30
0.0
 11
-545.55933662355
 21
211.502897722068
 31
0.0
  0
LINE
  5
   156
  8
0
  6
CONTINUOUS
 62
     7
 10
-545.55933662355
 20
211.502897722068
 30
0.0
 11
-548.513759900757
 21
212.02384215202
 31
0.0
  0
ENDBLK
  5
   157
  8
0
  6
CONTINUOUS
 62
     7
  0
BLOCK
  5
   158
  8
0
  6
CONTINUOUS
 62
     7
  2
*UDIM802
 70
    65
 10
0.0
 20
0.0
 30
0.0
  3
*UDIM802
  0
TEXT
  5
   159
  8
0
  6
CONTINUOUS
 62
     7
 10
-508.251128563217
 20
92.3100633949781
 30
0.0
 40
2.99999997871263
  1
195,5
 50
359.999999948034
 41
0.933333333333333
 72
     1
 11
-501.551128609405
 21
93.8100633782914
 31
0.0
 73
     2
  0
LINE
  5
   15A
  8
0
  6
CONTINUOUS
 62
     7
 10
-467.509339287877
 20
106.798741571365
 30
0.0
 11
-467.509339287877
 21
89.3100633889351
 31
0.0
  0
LINE
  5
   15B
  8
0
  6
CONTINUOUS
 62
     7
 10
-535.934336787462
 20
135.804963031489
 30
0.0
 11
-535.934336787462
 21
89.3100633889351
 31
0.0
  0
LINE
  5
   15C
  8
0
  6
CONTINUOUS
 62
     7
 10
-467.509339287877
 20
91.3100633889351
 30
0.0
 11
-535.934336787462
 21
91.3100633889351
 31
0.0
  0
LINE
  5
   15D
  8
0
  6
CONTINUOUS
 62
     7
 10
-470.463762565084
 20
90.7891189589834
 30
0.0
 11
-467.509339287877
 21
91.3100633889351
 31
0.0
  0
LINE
  5
   15E
  8
0
  6
CONTINUOUS
 62
     7
 10
-467.509339287877
 20
91.3100633889351
 30
0.0
 11
-470.463762565084
 21
91.8310078188867
 31
0.0
  0
LINE
  5
   15F
  8
0
  6
CONTINUOUS
 62
     7
 10
-532.979913510255
 20
91.8310078188867
 30
0.0
 11
-535.934336787462
 21
91.3100633889351
 31
0.0
  0
LINE
  5
   160
  8
0
  6
CONTINUOUS
 62
     7
 10
-535.934336787462
 20
91.3100633889351
 30
0.0
 11
-532.979913510255
 21
90.7891189589834
 31
0.0
  0
ENDBLK
  5
   161
  8
0
  6
CONTINUOUS
 62
     7
  0
BLOCK
  5
   162
  8
0
  6
CONTINUOUS
 62
     7
  2
*UDIM803
 70
    65
 10
0.0
 20
0.0
 30
0.0
  3
*UDIM803
  0
TEXT
  5
   163
  8
0
  6
CONTINUOUS
 62
     7
 10
-504.794158805602
 20
98.7125062155486
 30
0.0
 40
2.99999997871263
  1
190
 50
359.999999948034
 41
0.933333333333333
 72
     1
 11
-500.894158831923
 21
100.212506201387
 31
0.0
 73
     2
  0
LINE
  5
   164
  8
0
  6
CONTINUOUS
 62
     7
 10
-467.509339287877
 20
106.798741571365
 30
0.0
 11
-467.509339287877
 21
95.712506212031
 31
0.0
  0
LINE
  5
   165
  8
0
  6
CONTINUOUS
 62
     7
 10
-534.009338155389
 20
112.015914611084
 30
0.0
 11
-534.009338155389
 21
95.712506212031
 31
0.0
  0
LINE
  5
   166
  8
0
  6
CONTINUOUS
 62
     7
 10
-467.509339287877
 20
97.712506212031
 30
0.0
 11
-534.009338155389
 21
97.712506212031
 31
0.0
  0
LINE
  5
   167
  8
0
  6
CONTINUOUS
 62
     7
 10
-470.463762565084
 20
97.1915617820794
 30
0.0
 11
-467.509339287877
 21
97.712506212031
 31
0.0
  0
LINE
  5
   168
  8
0
  6
CONTINUOUS
 62
     7
 10
-467.509339287877
 20
97.712506212031
 30
0.0
 11
-470.463762565084
 21
98.2334506419827
 31
0.0
  0
LINE
  5
   169
  8
0
  6
CONTINUOUS
 62
     7
 10
-531.054914878182
 20
98.2334506419827
 30
0.0
 11
-534.009338155389
 21
97.712506212031
 31
0.0
  0
LINE
  5
   16A
  8
0
  6
CONTINUOUS
 62
     7
 10
-534.009338155389
 20
97.712506212031
 30
0.0
 11
-531.054914878182
 21
97.1915617820794
 31
0.0
  0
ENDBLK
  5
   16B
  8
0
  6
CONTINUOUS
 62
     7
  0
BLOCK
  5
   16C
  8
0
  6
CONTINUOUS
 62
     7
  2
*UDIM804
 70
    65
 10
0.0
 20
0.0
 30
0.0
  3
*UDIM804
  0
TEXT
  5
   16D
  8
0
  6
CONTINUOUS
 62
     7
 10
-530.436513988783
 20
98.7125062130232
 30
0.0
 40
2.99999997871263
  1
2
 50
359.999999948034
 41
0.933333333333333
 72
     1
 11
-529.336513995236
 21
100.212506201387
 31
0.0
 73
     2
  0
LINE
  5
   16E
  8
0
  6
CONTINUOUS
 62
     7
 10
-534.709338143468
 20
111.897937085003
 30
0.0
 11
-534.709338143468
 21
95.712506212031
 31
0.0
  0
LINE
  5
   16F
  8
0
  6
CONTINUOUS
 62
     7
 10
-528.236514003041
 20
97.712506212031
 30
0.0
 11
-534.709338143468
 21
97.712506212031
 31
0.0
  0
LINE
  5
   170
  8
0
  6
CONTINUOUS
 62
     7
 10
-531.054914878182
 20
98.2334506419827
 30
0.0
 11
-534.009338155389
 21
97.712506212031
 31
0.0
  0
LINE
  5
   171
  8
0
  6
CONTINUOUS
 62
     7
 10
-534.009338155389
 20
97.712506212031
 30
0.0
 11
-531.054914878182
 21
97.1915617820794
 31
0.0
  0
LINE
  5
   172
  8
0
  6
CONTINUOUS
 62
     7
 10
-537.663761420675
 20
97.1915617820794
 30
0.0
 11
-534.709338143468
 21
97.712506212031
 31
0.0
  0
LINE
  5
   173
  8
0
  6
CONTINUOUS
 62
     7
 10
-534.709338143468
 20
97.712506212031
 30
0.0
 11
-537.663761420675
 21
98.2334506419827
 31
0.0
  0
ENDBLK
  5
   174
  8
0
  6
CONTINUOUS
 62
     7
  0
BLOCK
  5
   175
  8
0
  6
CONTINUOUS
 62
     7
  2
*UDIM805
 70
    65
 10
0.0
 20
0.0
 30
0.0
  3
*UDIM805
  0
TEXT
  5
   176
  8
0
  6
CONTINUOUS
 62
     7
 10
-500.909349001079
 20
104.780492791289
 30
0.0
 40
2.99999997871263
  1
167
 50
359.999999948034
 41
0.933333333333333
 72
     1
 11
-497.0093490274
 21
106.280492777127
 31
0.0
 73
     2
  0
LINE
  5
   177
  8
0
  6
CONTINUOUS
 62
     7
 10
-467.509339287877
 20
106.798741571365
 30
0.0
 11
-467.509339287877
 21
101.780492787771
 31
0.0
  0
LINE
  5
   178
  8
0
  6
CONTINUOUS
 62
     7
 10
-525.959361959177
 20
159.517493737798
 30
0.0
 11
-525.959361959177
 21
101.780492787771
 31
0.0
  0
LINE
  5
   179
  8
0
  6
CONTINUOUS
 62
     7
 10
-467.509339287877
 20
103.780492787771
 30
0.0
 11
-525.959361959177
 21
103.780492787771
 31
0.0
  0
LINE
  5
   17A
  8
0
  6
CONTINUOUS
 62
     7
 10
-470.463762565084
 20
103.259548357819
 30
0.0
 11
-467.509339287877
 21
103.780492787771
 31
0.0
  0
LINE
  5
   17B
  8
0
  6
CONTINUOUS
 62
     7
 10
-467.509339287877
 20
103.780492787771
 30
0.0
 11
-470.463762565084
 21
104.301437217723
 31
0.0
  0
LINE
  5
   17C
  8
0
  6
CONTINUOUS
 62
     7
 10
-523.00493868197
 20
104.301437217723
 30
0.0
 11
-525.959361959177
 21
103.780492787771
 31
0.0
  0
LINE
  5
   17D
  8
0
  6
CONTINUOUS
 62
     7
 10
-525.959361959177
 20
103.780492787771
 30
0.0
 11
-523.00493868197
 21
103.259548357819
 31
0.0
  0
ENDBLK
  5
   17E
  8
0
  6
CONTINUOUS
 62
     7
  0
BLOCK
  5
   17F
  8
0
  6
CONTINUOUS
 62
     7
  2
*UDIM806
 70
    65
 10
0.0
 20
0.0
 30
0.0
  3
*UDIM806
  0
TEXT
  5
   180
  8
0
  6
CONTINUOUS
 62
     7
 10
-553.448534240778
 20
160.80502110549
 30
0.0
 40
2.99999997871263
  1
105
 50
89.9999999480344
 41
0.933333333333333
 72
     1
 11
-554.948534226602
 21
164.705021079175
 31
0.0
 73
     2
  0
LINE
  5
   181
  8
0
  6
CONTINUOUS
 62
     7
 10
-535.009336820245
 20
146.605011597353
 30
0.0
 11
-554.448534237245
 21
146.605011597353
 31
0.0
  0
LINE
  5
   182
  8
0
  6
CONTINUOUS
 62
     7
 10
-535.009336820245
 20
183.355028328377
 30
0.0
 11
-554.448534237245
 21
183.355028328377
 31
0.0
  0
LINE
  5
   183
  8
0
  6
CONTINUOUS
 62
     7
 10
-552.448534237245
 20
146.605011597353
 30
0.0
 11
-552.448534237245
 21
183.355028328377
 31
0.0
  0
LINE
  5
   184
  8
0
  6
CONTINUOUS
 62
     7
 10
-552.969478667197
 20
149.55943487456
 30
0.0
 11
-552.448534237245
 21
146.605011597353
 31
0.0
  0
LINE
  5
   185
  8
0
  6
CONTINUOUS
 62
     7
 10
-552.448534237245
 20
146.605011597353
 30
0.0
 11
-551.927589807294
 21
149.55943487456
 31
0.0
  0
LINE
  5
   186
  8
0
  6
CONTINUOUS
 62
     7
 10
-551.927589807294
 20
180.40060505117
 30
0.0
 11
-552.448534237245
 21
183.355028328377
 31
0.0
  0
LINE
  5
   187
  8
0
  6
CONTINUOUS
 62
     7
 10
-552.448534237245
 20
183.355028328377
 30
0.0
 11
-552.969478667197
 21
180.40060505117
 31
0.0
  0
ENDBLK
  5
   188
  8
0
  6
CONTINUOUS
 62
     7
  0
BLOCK
  5
   189
  8
0
  6
CONTINUOUS
 62
     7
  2
*UDIM807
 70
    65
 10
0.0
 20
0.0
 30
0.0
  3
*UDIM807
  0
TEXT
  5
   18A
  8
0
  6
CONTINUOUS
 62
     7
 10
-508.166956567752
 20
153.336940061381
 30
0.0
 40
2.99999997871263
  1
1,75
 50
89.9999999480344
 41
0.933333333333333
 72
     1
 11
-509.666956552308
 21
158.636940025132
 31
0.0
 73
     2
  0
LINE
  5
   18B
  8
0
  6
CONTINUOUS
 62
     7
 10
-521.109365005405
 20
164.36749069157
 30
0.0
 11
-505.166956562951
 21
164.36749069157
 31
0.0
  0
LINE
  5
   18C
  8
0
  6
CONTINUOUS
 62
     7
 10
-507.166956562951
 20
153.336940062739
 30
0.0
 11
-507.166956562951
 21
164.980028641301
 31
0.0
  0
LINE
  5
   18D
  8
0
  6
CONTINUOUS
 62
     7
 10
-506.646012133
 20
161.413067414363
 30
0.0
 11
-507.166956562951
 21
164.36749069157
 31
0.0
  0
LINE
  5
   18E
  8
0
  6
CONTINUOUS
 62
     7
 10
-507.166956562951
 20
164.36749069157
 30
0.0
 11
-507.687900992903
 21
161.413067414363
 31
0.0
  0
LINE
  5
   18F
  8
0
  6
CONTINUOUS
 62
     7
 10
-507.687900992903
 20
167.934451918508
 30
0.0
 11
-507.166956562951
 21
164.980028641301
 31
0.0
  0
LINE
  5
   190
  8
0
  6
CONTINUOUS
 62
     7
 10
-507.166956562951
 20
164.980028641301
 30
0.0
 11
-506.646012133
 21
167.934451918508
 31
0.0
  0
ENDBLK
  5
   191
  8
0
  6
CONTINUOUS
 62
     7
  0
BLOCK
  5
   192
  8
0
  6
CONTINUOUS
 62
     7
  2
*UDIM808
 70
    65
 10
0.0
 20
0.0
 30
0.0
  3
*UDIM808
  0
TEXT
  5
   193
  8
0
  6
CONTINUOUS
 62
     7
 10
-510.683120219004
 20
11.748005546604
 30
0.0
 40
3.50000458955765
  1
PART. Z
 50
359.999999844103
 41
0.933333333333333
 72
     1
 11
-499.599772347319
 21
13.4980078112817
 31
0.0
 73
     2
  0
LINE
  5
   194
  8
0
  6
CONTINUOUS
 62
     7
 10
-472.932514913697
 20
-4.81083476716125
 30
0.0
 11
-483.516424525104
 21
9.7480053247109
 31
0.0
  0
LINE
  5
   195
  8
0
  6
CONTINUOUS
 62
     7
 10
-510.683120258969
 20
9.7480056486705
 30
0.0
 11
-483.516424525104
 21
9.7480053247109
 31
0.0
  0
LINE
  5
   196
  8
0
  6
CONTINUOUS
 62
     7
 10
-475.264486740045
 20
-2.92353314815161
 30
0.0
 11
-472.932514913697
 21
-4.81083476716125
 31
0.0
  0
LINE
  5
   197
  8
0
  6
CONTINUOUS
 62
     7
 10
-472.932514913697
 20
-4.81083476716125
 30
0.0
 11
-474.008410905916
 21
-2.0103976916448
 31
0.0
  0
ENDBLK
  5
   198
  8
0
  6
CONTINUOUS
 62
     7
  0
BLOCK
  5
   199
  8
0
  6
CONTINUOUS
 62
     7
  2
*UDIM809
 70
    65
 10
0.0
 20
0.0
 30
0.0
  3
*UDIM809
  0
TEXT
  5
   19A
  8
0
  6
CONTINUOUS
 62
     7
 10
-488.214808130258
 20
2.19894436864749
 30
0.0
 40
3.00000002980232
  1
7
 50
327.528951193162
 41
0.933333333333334
 72
     1
 11
-486.481468928456
 21
2.87387790629465
 31
0.0
 73
     2
  0
TEXT
  5
   19B
  8
0
  6
CONTINUOUS
 62
     7
 10
-491.5894594895
 20
4.34643789412876
 30
0.0
 40
3.00000002980232
  1
Ø
 50
327.528951193162
 41
1.2
 72
     1
 11
-489.51865515146
 21
4.80662207786945
 31
0.0
 73
     2
  0
LINE
  5
   19C
  8
0
  6
CONTINUOUS
 62
     7
 10
-492.126332865391
 20
3.50277505483317
 30
0.0
 11
-472.626061418592
 21
-8.90641990906348
 31
0.0
  0
LINE
  5
   19D
  8
0
  6
CONTINUOUS
 62
     7
 10
-481.182391876035
 20
-4.38185307992276
 30
0.0
 11
-478.320785545868
 21
-5.28252461336092
 31
0.0
  0
LINE
  5
   19E
  8
0
  6
CONTINUOUS
 62
     7
 10
-478.320785545868
 20
-5.28252461336092
 30
0.0
 11
-480.348673524492
 21
-3.07171699030702
 31
0.0
  0
LINE
  5
   19F
  8
0
  6
CONTINUOUS
 62
     7
 10
-473.982769256777
 20
-7.12272455679599
 30
0.0
 11
-476.844375586945
 21
-6.22205302335783
 31
0.0
  0
LINE
  5
   1A0
  8
0
  6
CONTINUOUS
 62
     7
 10
-476.844375586945
 20
-6.22205302335783
 30
0.0
 11
-474.816487608321
 21
-8.43286064641174
 31
0.0
  0
ENDBLK
  5
   1A1
  8
0
  6
CONTINUOUS
 62
     7
  0
BLOCK
  5
   1A2
  8
0
  6
CONTINUOUS
 62
     7
  2
*UDIM810
 70
    65
 10
0.0
 20
0.0
 30
0.0
  3
*UDIM810
  0
TEXT
  5
   1A3
  8
0
  6
CONTINUOUS
 62
     7
 10
-432.292593628722
 20
-47.0042692295613
 30
0.0
 40
3.00000002980232
  1
7
 50
333.942777816005
 41
0.933333333333334
 72
     1
 11
-430.645499391929
 21
-46.1399309602074
 31
0.0
 73
     2
  0
TEXT
  5
   1A4
  8
0
  6
CONTINUOUS
 62
     7
 10
-435.886016820049
 20
-45.2471949549648
 30
0.0
 40
3.00000002980232
  1
Ø
 50
333.942777816005
 41
1.2
 72
     1
 11
-433.879580263661
 21
-44.5585641143854
 31
0.0
 73
     2
  0
LINE
  5
   1A5
  8
0
  6
CONTINUOUS
 62
     7
 10
-451.610420840046
 20
-38.6715859982071
 30
0.0
 11
-430.755479431105
 21
-48.8690158781844
 31
0.0
  0
LINE
  5
   1A6
  8
0
  6
CONTINUOUS
 62
     7
 10
-450.062950279579
 20
-40.2925610542709
 30
0.0
 11
-447.118641883757
 21
-40.8679288238686
 31
0.0
  0
LINE
  5
   1A7
  8
0
  6
CONTINUOUS
 62
     7
 10
-447.118641883757
 20
-40.8679288238686
 30
0.0
 11
-449.380803837606
 21
-38.8974914880065
 31
0.0
  0
LINE
  5
   1A8
  8
0
  6
CONTINUOUS
 62
     7
 10
-442.602210853234
 20
-42.2120165824478
 30
0.0
 11
-445.546519249056
 21
-41.6366488128501
 31
0.0
  0
LINE
  5
   1A9
  8
0
  6
CONTINUOUS
 62
     7
 10
-445.546519249056
 20
-41.6366488128501
 30
0.0
 11
-443.284357295207
 21
-43.6070861487123
 31
0.0
  0
ENDBLK
  5
   1AA
  8
0
  6
CONTINUOUS
 62
     7
  0
BLOCK
  5
   1AB
  8
0
  6
CONTINUOUS
 62
     7
  2
*UDIM811
 70
    65
 10
0.0
 20
0.0
 30
0.0
  3
*UDIM811
  0
TEXT
  5
   1AC
  8
0
  6
CONTINUOUS
 62
     7
 10
-425.840986151967
 20
8.649833780882
 30
0.0
 40
3.00000002980232
  1
8
 50
392.812542019881
 41
0.933333333333334
 72
     1
 11
-425.729331642242
 21
10.506587221488
 31
0.0
 73
     2
  0
TEXT
  5
   1AD
  8
0
  6
CONTINUOUS
 62
     7
 10
-428.48839736726
 20
6.94287334791208
 30
0.0
 40
3.00000002980232
  1
Ø
 50
392.812542019881
 41
0.933333333333334
 72
     1
 11
-428.376742857535
 21
8.79962678851804
 31
0.0
 73
     2
  0
TEXT
  5
   1AE
  8
0
  6
CONTINUOUS
 62
     7
 10
-442.565901559759
 20
-2.13382106694803
 30
0.0
 40
3.00000002980232
  1
3 fori
 50
392.812542019881
 41
0.933333333333333
 72
     1
 11
-436.571110965859
 21
3.51617779000232
 31
0.0
 73
     2
  0
LINE
  5
   1AF
  8
0
  6
CONTINUOUS
 62
     7
 10
-423.450108324473
 20
9.00154862853194
 30
0.0
 11
-447.173028568611
 21
-6.29418101759326
 31
0.0
  0
LINE
  5
   1B0
  8
0
  6
CONTINUOUS
 62
     7
 10
-443.291389146032
 20
-3.17159098655964
 30
0.0
 11
-445.492132564202
 21
-5.21039661912549
 31
0.0
  0
LINE
  5
   1B1
  8
0
  6
CONTINUOUS
 62
     7
 10
-445.492132564202
 20
-5.21039661912549
 30
0.0
 11
-442.726797700382
 21
-4.04724439738448
 31
0.0
  0
LINE
  5
   1B2
  8
0
  6
CONTINUOUS
 62
     7
 10
-449.373771986781
 20
-8.33298665015911
 30
0.0
 11
-447.173028568611
 21
-6.29418101759326
 31
0.0
  0
LINE
  5
   1B3
  8
0
  6
CONTINUOUS
 62
     7
 10
-447.173028568611
 20
-6.29418101759326
 30
0.0
 11
-449.938363432431
 21
-7.45733323933427
 31
0.0
  0
ENDBLK
  5
   1B4
  8
0
  6
CONTINUOUS
 62
     7
  0
BLOCK
  5
   1B5
  8
0
  6
CONTINUOUS
 62
     7
  2
*UDIM812
 70
    65
 10
0.0
 20
0.0
 30
0.0
  3
*UDIM812
  0
TEXT
  5
   1B6
  8
0
  6
CONTINUOUS
 62
     7
 10
-464.588422139163
 20
-62.0828818940848
 30
0.0
 40
3.00000002980232
  1
R min.200
 50
359.999999844103
 41
0.933333333333333
 72
     1
 11
-452.2884220129
 21
-60.5828819125891
 31
0.0
 73
     2
  0
LINE
  5
   1B7
  8
0
  6
CONTINUOUS
 62
     7
 10
-466.582580566406
 20
-47.6474701359108
 30
0.0
 11
-466.582580566406
 21
-65.0828819274902
 31
0.0
  0
LINE
  5
   1B8
  8
0
  6
CONTINUOUS
 62
     7
 10
-437.940204602131
 20
-60.0831506267515
 30
0.0
 11
-437.940204602131
 21
-65.0828819274902
 31
0.0
  0
LINE
  5
   1B9
  8
0
  6
CONTINUOUS
 62
     7
 10
-466.582580566406
 20
-63.0828819274902
 30
0.0
 11
-437.940204602131
 21
-63.0828819274902
 31
0.0
  0
LINE
  5
   1BA
  8
0
  6
CONTINUOUS
 62
     7
 10
-469.537003843613
 20
-63.6038263574419
 30
0.0
 11
-466.582580566406
 21
-63.0828819274902
 31
0.0
  0
LINE
  5
   1BB
  8
0
  6
CONTINUOUS
 62
     7
 10
-466.582580566406
 20
-63.0828819274902
 30
0.0
 11
-469.537003843613
 21
-62.5619374975386
 31
0.0
  0
LINE
  5
   1BC
  8
0
  6
CONTINUOUS
 62
     7
 10
-434.985781324924
 20
-62.5619374975386
 30
0.0
 11
-437.940204602131
 21
-63.0828819274902
 31
0.0
  0
LINE
  5
   1BD
  8
0
  6
CONTINUOUS
 62
     7
 10
-437.940204602131
 20
-63.0828819274902
 30
0.0
 11
-434.985781324924
 21
-63.6038263574419
 31
0.0
  0
ENDBLK
  5
   1BE
  8
0
  6
CONTINUOUS
 62
     7
  0
BLOCK
  5
   1BF
  8
0
  6
CONTINUOUS
 62
     7
  2
*UDIM813
 70
    65
 10
0.0
 20
0.0
 30
0.0
  3
*UDIM813
  0
TEXT
  5
   1C0
  8
0
  6
CONTINUOUS
 62
     7
 10
-504.122501387679
 20
-20.0147888810426
 30
0.0
 40
3.00000002980232
  1
72,5
 50
449.999999844103
 41
0.933333333333333
 72
     1
 11
-505.622501388192
 21
-14.7147888243198
 31
0.0
 73
     2
  0
LINE
  5
   1C1
  8
0
  6
CONTINUOUS
 62
     7
 10
-474.877580566406
 20
-5.37728881835938
 30
0.0
 11
-505.122501373291
 21
-5.37728881835938
 31
0.0
  0
LINE
  5
   1C2
  8
0
  6
CONTINUOUS
 62
     7
 10
-495.04330532955
 20
-23.5022888183594
 30
0.0
 11
-505.122501373291
 21
-23.5022888183594
 31
0.0
  0
LINE
  5
   1C3
  8
0
  6
CONTINUOUS
 62
     7
 10
-503.122501373291
 20
-5.37728881835938
 30
0.0
 11
-503.122501373291
 21
-23.5022888183594
 31
0.0
  0
LINE
  5
   1C4
  8
0
  6
CONTINUOUS
 62
     7
 10
-502.601556943339
 20
-8.33171209556634
 30
0.0
 11
-503.122501373291
 21
-5.37728881835938
 31
0.0
  0
LINE
  5
   1C5
  8
0
  6
CONTINUOUS
 62
     7
 10
-503.122501373291
 20
-5.37728881835938
 30
0.0
 11
-503.643445803243
 21
-8.33171209556634
 31
0.0
  0
LINE
  5
   1C6
  8
0
  6
CONTINUOUS
 62
     7
 10
-503.643445803243
 20
-20.5478655411524
 30
0.0
 11
-503.122501373291
 21
-23.5022888183594
 31
0.0
  0
LINE
  5
   1C7
  8
0
  6
CONTINUOUS
 62
     7
 10
-503.122501373291
 20
-23.5022888183594
 30
0.0
 11
-502.601556943339
 21
-20.5478655411524
 31
0.0
  0
ENDBLK
  5
   1C8
  8
0
  6
CONTINUOUS
 62
     7
  0
BLOCK
  5
   1C9
  8
0
  6
CONTINUOUS
 62
     7
  2
*UDIM814
 70
    65
 10
0.0
 20
0.0
 30
0.0
  3
*UDIM814
  0
TEXT
  5
   1CA
  8
0
  6
CONTINUOUS
 62
     7
 10
-457.278561621011
 20
5.35526848518327
 30
0.0
 40
3.00000002980232
  1
45
 50
359.999999844103
 41
0.933333333333333
 72
     1
 11
-454.778561592102
 21
6.85526849329472
 31
0.0
 73
     2
  0
LINE
  5
   1CB
  8
0
  6
CONTINUOUS
 62
     7
 10
-472.207580566406
 20
-2.70728881835937
 30
0.0
 11
-472.207580566406
 21
6.35526847839355
 31
0.0
  0
LINE
  5
   1CC
  8
0
  6
CONTINUOUS
 62
     7
 10
-460.957580566406
 20
-2.70728881835937
 30
0.0
 11
-460.957580566406
 21
6.35526847839355
 31
0.0
  0
LINE
  5
   1CD
  8
0
  6
CONTINUOUS
 62
     7
 10
-472.207580566406
 20
4.35526847839355
 30
0.0
 11
-452.278561567267
 21
4.35526847839355
 31
0.0
  0
LINE
  5
   1CE
  8
0
  6
CONTINUOUS
 62
     7
 10
-475.162003843613
 20
3.83432404844189
 30
0.0
 11
-472.207580566406
 21
4.35526847839355
 31
0.0
  0
LINE
  5
   1CF
  8
0
  6
CONTINUOUS
 62
     7
 10
-472.207580566406
 20
4.35526847839355
 30
0.0
 11
-475.162003843613
 21
4.87621290834522
 31
0.0
  0
LINE
  5
   1D0
  8
0
  6
CONTINUOUS
 62
     7
 10
-458.003157289199
 20
4.87621290834522
 30
0.0
 11
-460.957580566406
 21
4.35526847839355
 31
0.0
  0
LINE
  5
   1D1
  8
0
  6
CONTINUOUS
 62
     7
 10
-460.957580566406
 20
4.35526847839355
 30
0.0
 11
-458.003157289199
 21
3.83432404844189
 31
0.0
  0
ENDBLK
  5
   1D2
  8
0
  6
CONTINUOUS
 62
     7
  0
BLOCK
  5
   1D3
  8
0
  6
CONTINUOUS
 62
     7
  2
*UDIM815
 70
    65
 10
0.0
 20
0.0
 30
0.0
  3
*UDIM815
  0
TEXT
  5
   1D4
  8
0
  6
CONTINUOUS
 62
     7
 10
-428.290924090454
 20
-20.6022885075201
 30
0.0
 40
3.00000002980232
  1
27,25
 50
449.999999844103
 41
0.933333333333333
 72
     1
 11
-429.790924087167
 21
-13.9022884368896
 31
0.0
 73
     2
  0
LINE
  5
   1D5
  8
0
  6
CONTINUOUS
 62
     7
 10
-437.589852266269
 20
-23.5022888183594
 30
0.0
 11
-425.290924072266
 21
-23.5022888183594
 31
0.0
  0
LINE
  5
   1D6
  8
0
  6
CONTINUOUS
 62
     7
 10
-440.327274166965
 20
-30.3147888183594
 30
0.0
 11
-425.290924072266
 21
-30.3147888183594
 31
0.0
  0
LINE
  5
   1D7
  8
0
  6
CONTINUOUS
 62
     7
 10
-427.290924072266
 20
-7.20228837033113
 30
0.0
 11
-427.290924072266
 21
-30.3147888183594
 31
0.0
  0
LINE
  5
   1D8
  8
0
  6
CONTINUOUS
 62
     7
 10
-427.811868502217
 20
-20.5478655411524
 30
0.0
 11
-427.290924072266
 21
-23.5022888183594
 31
0.0
  0
LINE
  5
   1D9
  8
0
  6
CONTINUOUS
 62
     7
 10
-427.290924072266
 20
-23.5022888183594
 30
0.0
 11
-426.769979642314
 21
-20.5478655411524
 31
0.0
  0
LINE
  5
   1DA
  8
0
  6
CONTINUOUS
 62
     7
 10
-426.769979642314
 20
-33.2692120955663
 30
0.0
 11
-427.290924072266
 21
-30.3147888183594
 31
0.0
  0
LINE
  5
   1DB
  8
0
  6
CONTINUOUS
 62
     7
 10
-427.290924072266
 20
-30.3147888183594
 30
0.0
 11
-427.811868502217
 21
-33.2692120955663
 31
0.0
  0
ENDBLK
  5
   1DC
  8
0
  6
CONTINUOUS
 62
     7
  0
BLOCK
  5
   1DD
  8
0
  6
CONTINUOUS
 62
     7
  2
*UDIM816
 70
    65
 10
0.0
 20
0.0
 30
0.0
  3
*UDIM816
  0
TEXT
  5
   1DE
  8
0
  6
CONTINUOUS
 62
     7
 10
-422.873447421199
 20
-15.0690231234818
 30
0.0
 40
3.00000002980232
  1
=
 50
449.999999844103
 41
0.933333333333334
 72
     1
 11
-424.373447433114
 21
-13.9690231084824
 31
0.0
 73
     2
  0
LINE
  5
   1DF
  8
0
  6
CONTINUOUS
 62
     7
 10
-443.707580566406
 20
-5.75228881835938
 30
0.0
 11
-419.873447418213
 21
-5.75228881835938
 31
0.0
  0
LINE
  5
   1E0
  8
0
  6
CONTINUOUS
 62
     7
 10
-443.707580566406
 20
-23.5022888183594
 30
0.0
 11
-419.873447418213
 21
-23.5022888183594
 31
0.0
  0
LINE
  5
   1E1
  8
0
  6
CONTINUOUS
 62
     7
 10
-421.873447418213
 20
-5.75228881835938
 30
0.0
 11
-421.873447418213
 21
-23.5022888183594
 31
0.0
  0
LINE
  5
   1E2
  8
0
  6
CONTINUOUS
 62
     7
 10
-421.352502988261
 20
-8.70671209556634
 30
0.0
 11
-421.873447418213
 21
-5.75228881835938
 31
0.0
  0
LINE
  5
   1E3
  8
0
  6
CONTINUOUS
 62
     7
 10
-421.873447418213
 20
-5.75228881835938
 30
0.0
 11
-422.394391848165
 21
-8.70671209556634
 31
0.0
  0
LINE
  5
   1E4
  8
0
  6
CONTINUOUS
 62
     7
 10
-422.394391848165
 20
-20.5478655411524
 30
0.0
 11
-421.873447418213
 21
-23.5022888183594
 31
0.0
  0
LINE
  5
   1E5
  8
0
  6
CONTINUOUS
 62
     7
 10
-421.873447418213
 20
-23.5022888183594
 30
0.0
 11
-421.352502988261
 21
-20.5478655411524
 31
0.0
  0
ENDBLK
  5
   1E6
  8
0
  6
CONTINUOUS
 62
     7
  0
BLOCK
  5
   1E7
  8
0
  6
CONTINUOUS
 62
     7
  2
*UDIM817
 70
    65
 10
0.0
 20
0.0
 30
0.0
  3
*UDIM817
  0
TEXT
  5
   1E8
  8
0
  6
CONTINUOUS
 62
     7
 10
-422.873447421199
 20
-32.8190231234818
 30
0.0
 40
3.00000002980232
  1
=
 50
449.999999844103
 41
0.933333333333334
 72
     1
 11
-424.373447433114
 21
-31.7190231084824
 31
0.0
 73
     2
  0
LINE
  5
   1E9
  8
0
  6
CONTINUOUS
 62
     7
 10
-443.707580566406
 20
-41.2522888183594
 30
0.0
 11
-419.873447418213
 21
-41.2522888183594
 31
0.0
  0
LINE
  5
   1EA
  8
0
  6
CONTINUOUS
 62
     7
 10
-421.873447418213
 20
-23.5022888183594
 30
0.0
 11
-421.873447418213
 21
-41.2522888183594
 31
0.0
  0
LINE
  5
   1EB
  8
0
  6
CONTINUOUS
 62
     7
 10
-421.352502988261
 20
-26.4567120955663
 30
0.0
 11
-421.873447418213
 21
-23.5022888183594
 31
0.0
  0
LINE
  5
   1EC
  8
0
  6
CONTINUOUS
 62
     7
 10
-421.873447418213
 20
-23.5022888183594
 30
0.0
 11
-422.394391848165
 21
-26.4567120955663
 31
0.0
  0
LINE
  5
   1ED
  8
0
  6
CONTINUOUS
 62
     7
 10
-422.394391848165
 20
-38.2978655411524
 30
0.0
 11
-421.873447418213
 21
-41.2522888183594
 31
0.0
  0
LINE
  5
   1EE
  8
0
  6
CONTINUOUS
 62
     7
 10
-421.873447418213
 20
-41.2522888183594
 30
0.0
 11
-421.352502988261
 21
-38.2978655411524
 31
0.0
  0
ENDBLK
  5
   1EF
  8
0
  6
CONTINUOUS
 62
     7
  0
BLOCK
  5
   1F0
  8
0
  6
CONTINUOUS
 62
     7
  2
*UDIM818
 70
    65
 10
0.0
 20
0.0
 30
0.0
  3
*UDIM818
  0
TEXT
  5
   1F1
  8
0
  6
CONTINUOUS
 62
     7
 10
-496.725919734098
 20
-27.6772888671348
 30
0.0
 40
3.00000002980232
  1
126
 50
449.999999844103
 41
0.933333333333333
 72
     1
 11
-498.225919738412
 21
-23.7772888243198
 31
0.0
 73
     2
  0
LINE
  5
   1F2
  8
0
  6
CONTINUOUS
 62
     7
 10
-485.582580566406
 20
-7.75228881835938
 30
0.0
 11
-497.725919723511
 21
-7.75228881835938
 31
0.0
  0
LINE
  5
   1F3
  8
0
  6
CONTINUOUS
 62
     7
 10
-485.582580566406
 20
-39.2522888183594
 30
0.0
 11
-497.725919723511
 21
-39.2522888183594
 31
0.0
  0
LINE
  5
   1F4
  8
0
  6
CONTINUOUS
 62
     7
 10
-495.725919723511
 20
-7.75228881835938
 30
0.0
 11
-495.725919723511
 21
-39.2522888183594
 31
0.0
  0
LINE
  5
   1F5
  8
0
  6
CONTINUOUS
 62
     7
 10
-495.204975293559
 20
-10.7067120955663
 30
0.0
 11
-495.725919723511
 21
-7.75228881835938
 31
0.0
  0
LINE
  5
   1F6
  8
0
  6
CONTINUOUS
 62
     7
 10
-495.725919723511
 20
-7.75228881835938
 30
0.0
 11
-496.246864153462
 21
-10.7067120955663
 31
0.0
  0
LINE
  5
   1F7
  8
0
  6
CONTINUOUS
 62
     7
 10
-496.246864153462
 20
-36.2978655411524
 30
0.0
 11
-495.725919723511
 21
-39.2522888183594
 31
0.0
  0
LINE
  5
   1F8
  8
0
  6
CONTINUOUS
 62
     7
 10
-495.725919723511
 20
-39.2522888183594
 30
0.0
 11
-495.204975293559
 21
-36.2978655411524
 31
0.0
  0
ENDBLK
  5
   1F9
  8
0
  6
CONTINUOUS
 62
     7
  0
BLOCK
  5
   1FA
  8
0
  6
CONTINUOUS
 62
     7
  2
*UDIM819
 70
    65
 10
0.0
 20
0.0
 30
0.0
  3
*UDIM819
  0
TEXT
  5
   1FB
  8
0
  6
CONTINUOUS
 62
     7
 10
-416.17643357382
 20
-27.6772888671348
 30
0.0
 40
3.00000002980232
  1
142
 50
449.999999844103
 41
0.933333333333333
 72
     1
 11
-417.676433578134
 21
-23.7772888243198
 31
0.0
 73
     2
  0
LINE
  5
   1FC
  8
0
  6
CONTINUOUS
 62
     7
 10
-474.957580566406
 20
-5.75228881835938
 30
0.0
 11
-413.176433563233
 21
-5.75228881835938
 31
0.0
  0
LINE
  5
   1FD
  8
0
  6
CONTINUOUS
 62
     7
 10
-443.707580566406
 20
-41.2522888183594
 30
0.0
 11
-413.176433563233
 21
-41.2522888183594
 31
0.0
  0
LINE
  5
   1FE
  8
0
  6
CONTINUOUS
 62
     7
 10
-415.176433563232
 20
-5.75228881835938
 30
0.0
 11
-415.176433563232
 21
-41.2522888183594
 31
0.0
  0
LINE
  5
   1FF
  8
0
  6
CONTINUOUS
 62
     7
 10
-414.655489133281
 20
-8.70671209556634
 30
0.0
 11
-415.176433563232
 21
-5.75228881835938
 31
0.0
  0
LINE
  5
   200
  8
0
  6
CONTINUOUS
 62
     7
 10
-415.176433563232
 20
-5.75228881835938
 30
0.0
 11
-415.697377993184
 21
-8.70671209556634
 31
0.0
  0
LINE
  5
   201
  8
0
  6
CONTINUOUS
 62
     7
 10
-415.697377993184
 20
-38.2978655411524
 30
0.0
 11
-415.176433563232
 21
-41.2522888183594
 31
0.0
  0
LINE
  5
   202
  8
0
  6
CONTINUOUS
 62
     7
 10
-415.176433563232
 20
-41.2522888183594
 30
0.0
 11
-414.655489133281
 21
-38.2978655411524
 31
0.0
  0
ENDBLK
  5
   203
  8
0
  6
CONTINUOUS
 62
     7
  0
BLOCK
  5
   204
  8
0
  6
CONTINUOUS
 62
     7
  2
*UDIM820
 70
    65
 10
0.0
 20
0.0
 30
0.0
  3
*UDIM820
  0
TEXT
  5
   205
  8
0
  6
CONTINUOUS
 62
     7
 10
-459.565111167065
 20
-33.0045265546431
 30
0.0
 40
3.00000002980232
  1
16
 50
449.999999844103
 41
0.933333333333333
 72
     1
 11
-461.06511117518
 21
-30.5045265257359
 31
0.0
 73
     2
  0
LINE
  5
   206
  8
0
  6
CONTINUOUS
 62
     7
 10
-451.832580566406
 20
-28.3147888183594
 30
0.0
 11
-460.565111160278
 21
-28.3147888183594
 31
0.0
  0
LINE
  5
   207
  8
0
  6
CONTINUOUS
 62
     7
 10
-451.832580566406
 20
-32.3147888183594
 30
0.0
 11
-460.565111160278
 21
-32.3147888183594
 31
0.0
  0
LINE
  5
   208
  8
0
  6
CONTINUOUS
 62
     7
 10
-458.565111160278
 20
-28.0045265009006
 30
0.0
 11
-458.565111160278
 21
-33.0045265505711
 31
0.0
  0
LINE
  5
   209
  8
0
  6
CONTINUOUS
 62
     7
 10
-459.08605559023
 20
-25.3603655411524
 30
0.0
 11
-458.565111160278
 21
-28.3147888183594
 31
0.0
  0
LINE
  5
   20A
  8
0
  6
CONTINUOUS
 62
     7
 10
-458.565111160278
 20
-28.3147888183594
 30
0.0
 11
-458.044166730327
 21
-25.3603655411524
 31
0.0
  0
LINE
  5
   20B
  8
0
  6
CONTINUOUS
 62
     7
 10
-458.044166730327
 20
-35.2692120955663
 30
0.0
 11
-458.565111160278
 21
-32.3147888183594
 31
0.0
  0
LINE
  5
   20C
  8
0
  6
CONTINUOUS
 62
     7
 10
-458.565111160278
 20
-32.3147888183594
 30
0.0
 11
-459.08605559023
 21
-35.2692120955663
 31
0.0
  0
ENDBLK
  5
   20D
  8
0
  6
CONTINUOUS
 62
     7
  0
BLOCK
  5
   20E
  8
0
  6
CONTINUOUS
 62
     7
  2
*UDIM821
 70
    65
 10
0.0
 20
0.0
 30
0.0
  3
*UDIM821
  0
TEXT
  5
   20F
  8
0
  6
CONTINUOUS
 62
     7
 10
-457.607580601276
 20
-18.953707449799
 30
0.0
 40
3.00000002980232
  1
94
 50
359.999999844103
 41
0.933333333333333
 72
     1
 11
-455.107580572367
 21
-17.4537074416876
 31
0.0
 73
     2
  0
LINE
  5
   210
  8
0
  6
CONTINUOUS
 62
     7
 10
-443.082580566406
 20
-29.4397888183594
 30
0.0
 11
-443.082580566406
 21
-17.9537074565887
 31
0.0
  0
LINE
  5
   211
  8
0
  6
CONTINUOUS
 62
     7
 10
-466.582580566406
 20
-19.9537074565887
 30
0.0
 11
-443.082580566406
 21
-19.9537074565887
 31
0.0
  0
LINE
  5
   212
  8
0
  6
CONTINUOUS
 62
     7
 10
-463.628157289199
 20
-19.4327630266371
 30
0.0
 11
-466.582580566406
 21
-19.9537074565887
 31
0.0
  0
LINE
  5
   213
  8
0
  6
CONTINUOUS
 62
     7
 10
-466.582580566406
 20
-19.9537074565887
 30
0.0
 11
-463.628157289199
 21
-20.4746518865404
 31
0.0
  0
LINE
  5
   214
  8
0
  6
CONTINUOUS
 62
     7
 10
-446.037003843613
 20
-20.4746518865404
 30
0.0
 11
-443.082580566406
 21
-19.9537074565887
 31
0.0
  0
LINE
  5
   215
  8
0
  6
CONTINUOUS
 62
     7
 10
-443.082580566406
 20
-19.9537074565887
 30
0.0
 11
-446.037003843613
 21
-19.4327630266371
 31
0.0
  0
ENDBLK
  5
   216
  8
0
  6
CONTINUOUS
 62
     7
  0
BLOCK
  5
   217
  8
0
  6
CONTINUOUS
 62
     7
  2
*UDIM822
 70
    65
 10
0.0
 20
0.0
 30
0.0
  3
*UDIM822
  0
TEXT
  5
   218
  8
0
  6
CONTINUOUS
 62
     7
 10
-466.132580644986
 20
-56.0251502884803
 30
0.0
 40
3.00000002980232
  1
125
 50
359.999999844103
 41
0.933333333333333
 72
     1
 11
-462.232580602169
 21
-54.5251502841711
 31
0.0
 73
     2
  0
LINE
  5
   219
  8
0
  6
CONTINUOUS
 62
     7
 10
-477.582580566406
 20
-43.8772888183594
 30
0.0
 11
-477.582580566406
 21
-59.0251502990723
 31
0.0
  0
LINE
  5
   21A
  8
0
  6
CONTINUOUS
 62
     7
 10
-446.332580566406
 20
-43.8772888183594
 30
0.0
 11
-446.332580566406
 21
-59.0251502990723
 31
0.0
  0
LINE
  5
   21B
  8
0
  6
CONTINUOUS
 62
     7
 10
-477.582580566406
 20
-57.0251502990723
 30
0.0
 11
-446.332580566406
 21
-57.0251502990723
 31
0.0
  0
LINE
  5
   21C
  8
0
  6
CONTINUOUS
 62
     7
 10
-474.628157289199
 20
-56.5042058691206
 30
0.0
 11
-477.582580566406
 21
-57.0251502990723
 31
0.0
  0
LINE
  5
   21D
  8
0
  6
CONTINUOUS
 62
     7
 10
-477.582580566406
 20
-57.0251502990723
 30
0.0
 11
-474.628157289199
 21
-57.5460947290239
 31
0.0
  0
LINE
  5
   21E
  8
0
  6
CONTINUOUS
 62
     7
 10
-449.287003843613
 20
-57.5460947290239
 30
0.0
 11
-446.332580566406
 21
-57.0251502990723
 31
0.0
  0
LINE
  5
   21F
  8
0
  6
CONTINUOUS
 62
     7
 10
-446.332580566406
 20
-57.0251502990723
 30
0.0
 11
-449.287003843613
 21
-56.5042058691206
 31
0.0
  0
ENDBLK
  5
   220
  8
0
  6
CONTINUOUS
 62
     7
  0
BLOCK
  5
   221
  8
0
  6
CONTINUOUS
 62
     7
  2
*UDIM823
 70
    65
 10
0.0
 20
0.0
 30
0.0
  3
*UDIM823
  0
TEXT
  5
   222
  8
0
  6
CONTINUOUS
 62
     7
 10
-459.232580601276
 20
-49.7460594109349
 30
0.0
 40
3.00000002980232
  1
81
 50
359.999999844103
 41
0.933333333333333
 72
     1
 11
-456.732580572367
 21
-48.2460594028235
 31
0.0
 73
     2
  0
LINE
  5
   223
  8
0
  6
CONTINUOUS
 62
     7
 10
-466.582580566406
 20
-47.6474701359108
 30
0.0
 11
-466.582580566406
 21
-52.7460594177246
 31
0.0
  0
LINE
  5
   224
  8
0
  6
CONTINUOUS
 62
     7
 10
-446.332580566406
 20
-43.8772888183594
 30
0.0
 11
-446.332580566406
 21
-52.7460594177246
 31
0.0
  0
LINE
  5
   225
  8
0
  6
CONTINUOUS
 62
     7
 10
-466.582580566406
 20
-50.7460594177246
 30
0.0
 11
-446.332580566406
 21
-50.7460594177246
 31
0.0
  0
LINE
  5
   226
  8
0
  6
CONTINUOUS
 62
     7
 10
-463.628157289199
 20
-50.2251149877729
 30
0.0
 11
-466.582580566406
 21
-50.7460594177246
 31
0.0
  0
LINE
  5
   227
  8
0
  6
CONTINUOUS
 62
     7
 10
-466.582580566406
 20
-50.7460594177246
 30
0.0
 11
-463.628157289199
 21
-51.2670038476763
 31
0.0
  0
LINE
  5
   228
  8
0
  6
CONTINUOUS
 62
     7
 10
-449.287003843613
 20
-51.2670038476763
 30
0.0
 11
-446.332580566406
 21
-50.7460594177246
 31
0.0
  0
LINE
  5
   229
  8
0
  6
CONTINUOUS
 62
     7
 10
-446.332580566406
 20
-50.7460594177246
 30
0.0
 11
-449.287003843613
 21
-50.2251149877729
 31
0.0
  0
ENDBLK
  5
   22A
  8
0
  6
CONTINUOUS
 62
     7
  0
BLOCK
  5
   22B
  8
0
  6
CONTINUOUS
 62
     7
  2
*UDIM824
 70
    65
 10
0.0
 20
0.0
 30
0.0
  3
*UDIM824
  0
TEXT
  5
   22C
  8
0
  6
CONTINUOUS
 62
     7
 10
-471.882580615184
 20
20.1823387251916
 30
0.0
 40
3.00000002980232
  1
135
 50
359.999999844103
 41
0.933333333333333
 72
     1
 11
-467.982580572367
 21
21.6823387295008
 31
0.0
 73
     2
  0
LINE
  5
   22D
  8
0
  6
CONTINUOUS
 62
     7
 10
-484.582580566406
 20
-6.75228881835938
 30
0.0
 11
-484.582580566406
 21
21.1823387145996
 31
0.0
  0
LINE
  5
   22E
  8
0
  6
CONTINUOUS
 62
     7
 10
-450.832580566406
 20
-6.75228881835938
 30
0.0
 11
-450.832580566406
 21
21.1823387145996
 31
0.0
  0
LINE
  5
   22F
  8
0
  6
CONTINUOUS
 62
     7
 10
-484.582580566406
 20
19.1823387145996
 30
0.0
 11
-450.832580566406
 21
19.1823387145996
 31
0.0
  0
LINE
  5
   230
  8
0
  6
CONTINUOUS
 62
     7
 10
-481.628157289199
 20
19.7032831445513
 30
0.0
 11
-484.582580566406
 21
19.1823387145996
 31
0.0
  0
LINE
  5
   231
  8
0
  6
CONTINUOUS
 62
     7
 10
-484.582580566406
 20
19.1823387145996
 30
0.0
 11
-481.628157289199
 21
18.6613942846479
 31
0.0
  0
LINE
  5
   232
  8
0
  6
CONTINUOUS
 62
     7
 10
-453.787003843613
 20
18.6613942846479
 30
0.0
 11
-450.832580566406
 21
19.1823387145996
 31
0.0
  0
LINE
  5
   233
  8
0
  6
CONTINUOUS
 62
     7
 10
-450.832580566406
 20
19.1823387145996
 30
0.0
 11
-453.787003843613
 21
19.7032831445513
 31
0.0
  0
ENDBLK
  5
   234
  8
0
  6
CONTINUOUS
 62
     7
  0
BLOCK
  5
   235
  8
0
  6
CONTINUOUS
 62
     7
  2
*UDIM825
 70
    65
 10
0.0
 20
0.0
 30
0.0
  3
*UDIM825
  0
TEXT
  5
   236
  8
0
  6
CONTINUOUS
 62
     7
 10
-461.482581078113
 20
12.7938766547389
 30
0.0
 40
3.00000002980232
  1
63
 50
359.999999844103
 41
0.933333333333333
 72
     1
 11
-458.982581049204
 21
14.2938766628504
 31
0.0
 73
     2
  0
LINE
  5
   237
  8
0
  6
CONTINUOUS
 62
     7
 10
-466.582580566406
 20
3.12520234249573
 30
0.0
 11
-466.582580566406
 21
13.7938766479492
 31
0.0
  0
LINE
  5
   238
  8
0
  6
CONTINUOUS
 62
     7
 10
-450.832580566406
 20
-6.75228881835938
 30
0.0
 11
-450.832580566406
 21
13.7938766479492
 31
0.0
  0
LINE
  5
   239
  8
0
  6
CONTINUOUS
 62
     7
 10
-466.582580566406
 20
11.7938766479492
 30
0.0
 11
-450.832580566406
 21
11.7938766479492
 31
0.0
  0
LINE
  5
   23A
  8
0
  6
CONTINUOUS
 62
     7
 10
-463.628157289199
 20
12.3148210779009
 30
0.0
 11
-466.582580566406
 21
11.7938766479492
 31
0.0
  0
LINE
  5
   23B
  8
0
  6
CONTINUOUS
 62
     7
 10
-466.582580566406
 20
11.7938766479492
 30
0.0
 11
-463.628157289199
 21
11.2729322179976
 31
0.0
  0
LINE
  5
   23C
  8
0
  6
CONTINUOUS
 62
     7
 10
-453.787003843613
 20
11.2729322179976
 30
0.0
 11
-450.832580566406
 21
11.7938766479492
 31
0.0
  0
LINE
  5
   23D
  8
0
  6
CONTINUOUS
 62
     7
 10
-450.832580566406
 20
11.7938766479492
 30
0.0
 11
-453.787003843613
 21
12.3148210779009
 31
0.0
  0
ENDBLK
  5
   23E
  8
0
  6
CONTINUOUS
 62
     7
  0
BLOCK
  5
   23F
  8
0
  6
CONTINUOUS
 62
     7
  2
*HATCH191
 70
    65
 10
0.0
 20
0.0
 30
0.0
  3
*HATCH191
  0
LINE
  5
   240
  8
0
  6
CONTINUOUS
 62
    52
 10
-11.7279224395752
 20
1.0
 30
0.0
 11
-11.9763488769531
 21
0.75157368183136
 31
0.0
  0
LINE
  5
   241
  8
0
  6
CONTINUOUS
 62
    52
 10
-9.60660171508789
 20
1.0
 30
0.0
 11
-11.6066026687622
 21
-1.0
 31
0.0
  0
LINE
  5
   242
  8
0
  6
CONTINUOUS
 62
    52
 10
-7.48528146743774
 20
1.0
 30
0.0
 11
-9.48528289794922
 21
-1.0
 31
0.0
  0
LINE
  5
   243
  8
0
  6
CONTINUOUS
 62
    52
 10
-5.3639612197876
 20
1.0
 30
0.0
 11
-7.36396265029907
 21
-1.0
 31
0.0
  0
LINE
  5
   244
  8
0
  6
CONTINUOUS
 62
    52
 10
-3.47947335243225
 20
0.763167560100555
 30
0.0
 11
-5.24264097213745
 21
-1.0
 31
0.0
  0
LINE
  5
   245
  8
0
  6
CONTINUOUS
 62
    52
 10
-2.51160907745361
 20
-0.390288293361664
 30
0.0
 11
-3.1213207244873
 21
-1.0
 31
0.0
  0
ENDBLK
  5
   246
  8
0
  6
CONTINUOUS
 62
     7
  0
BLOCK
  5
   247
  8
0
  6
CONTINUOUS
 62
     7
  2
*HATCH192
 70
    65
 10
0.0
 20
0.0
 30
0.0
  3
*HATCH192
  0
LINE
  5
   248
  8
0
  6
CONTINUOUS
 62
    52
 10
5.24264097213745
 20
1.0
 30
0.0
 11
3.24264073371887
 21
-1.0
 31
0.0
  0
LINE
  5
   249
  8
0
  6
CONTINUOUS
 62
    52
 10
7.3639612197876
 20
1.0
 30
0.0
 11
5.3639612197876
 21
-1.0
 31
0.0
  0
LINE
  5
   24A
  8
0
  6
CONTINUOUS
 62
    52
 10
9.48528099060059
 20
1.0
 30
0.0
 11
7.4852819442749
 21
-1.0
 31
0.0
  0
ENDBLK
  5
   24B
  8
0
  6
CONTINUOUS
 62
     7
  0
BLOCK
  5
   24C
  8
0
  6
CONTINUOUS
 62
     7
  2
*UDIM826
 70
    65
 10
0.0
 20
0.0
 30
0.0
  3
*UDIM826
  0
TEXT
  5
   24D
  8
0
  6
CONTINUOUS
 62
     7
 10
-518.30543732269
 20
-20.8965225947602
 30
0.0
 40
3.00000002980232
  1
80
 50
449.241125536518
 41
0.933333333333333
 72
     1
 11
-519.772194592625
 21
-18.3768751432358
 31
0.0
 73
     2
  0
TEXT
  5
   24E
  8
0
  6
CONTINUOUS
 62
     7
 10
-518.839162356951
 20
-15.8890144233141
 30
0.0
 40
3.00000002980232
  1
°
 50
449.241125536518
 41
0.933333333333334
 72
     1
 11
-520.324461886113
 21
-14.7692441891072
 31
0.0
 73
     2
  0
LINE
  5
   24F
  8
0
  6
CONTINUOUS
 62
     7
 10
-535.367866689694
 20
-21.322981958711
 30
0.0
 11
-521.165899523463
 21
-33.2398473698869
 31
0.0
  0
LINE
  5
   250
  8
0
  6
CONTINUOUS
 62
     7
 10
-535.367866689694
 20
-12.6810082146288
 30
0.0
 11
-521.165899523463
 21
-0.764142803452966
 31
0.0
  0
ARC
  5
   251
  8
0
  6
CONTINUOUS
 62
     7
 10
-540.517418318001
 20
-17.0019950866699
 30
0.0
 40
23.2616136940404
 50
319.999999815233
 51
399.999999769042
  0
LINE
  5
   252
  8
0
  6
CONTINUOUS
 62
     7
 10
-521.197988319081
 20
-29.3561959914799
 30
0.0
 11
-522.697988409701
 21
-31.9542721505138
 31
0.0
  0
LINE
  5
   253
  8
0
  6
CONTINUOUS
 62
     7
 10
-522.697988409701
 20
-31.9542721505138
 30
0.0
 11
-520.399855147605
 21
-30.0259092412962
 31
0.0
  0
LINE
  5
   254
  8
0
  6
CONTINUOUS
 62
     7
 10
-520.399855147605
 20
-3.97808093204365
 30
0.0
 11
-522.697988409701
 21
-2.04971802282605
 31
0.0
  0
LINE
  5
   255
  8
0
  6
CONTINUOUS
 62
     7
 10
-522.697988409701
 20
-2.04971802282605
 30
0.0
 11
-521.197988319081
 21
-4.64779418185995
 31
0.0
  0
ENDBLK
  5
   256
  8
0
  6
CONTINUOUS
 62
     7
  0
BLOCK
  5
   257
  8
0
  6
CONTINUOUS
 62
     7
  2
*UDIM827
 70
    65
 10
0.0
 20
0.0
 30
0.0
  3
*UDIM827
  0
TEXT
  5
   258
  8
0
  6
CONTINUOUS
 62
     7
 10
-558.579578406445
 20
-11.1169281294932
 30
0.0
 40
3.00000002980232
  1
Ø4
 50
449.999999844103
 41
0.933333333333333
 72
     1
 11
-560.079578414559
 21
-8.61692810058594
 31
0.0
 73
     2
  0
LINE
  5
   259
  8
0
  6
CONTINUOUS
 62
     7
 10
-539.133911132813
 20
-15.0019950866699
 30
0.0
 11
-559.579578399658
 21
-15.0019950866699
 31
0.0
  0
LINE
  5
   25A
  8
0
  6
CONTINUOUS
 62
     7
 10
-539.133911132813
 20
-19.0019950866699
 30
0.0
 11
-559.579578399658
 21
-19.0019950866699
 31
0.0
  0
LINE
  5
   25B
  8
0
  6
CONTINUOUS
 62
     7
 10
-557.579578399658
 20
-6.11692807575067
 30
0.0
 11
-557.579578399658
 21
-19.0019950866699
 31
0.0
  0
LINE
  5
   25C
  8
0
  6
CONTINUOUS
 62
     7
 10
-558.10052282961
 20
-12.047571809463
 30
0.0
 11
-557.579578399658
 21
-15.0019950866699
 31
0.0
  0
LINE
  5
   25D
  8
0
  6
CONTINUOUS
 62
     7
 10
-557.579578399658
 20
-15.0019950866699
 30
0.0
 11
-557.058633969707
 21
-12.047571809463
 31
0.0
  0
LINE
  5
   25E
  8
0
  6
CONTINUOUS
 62
     7
 10
-557.058633969707
 20
-21.9564183638769
 30
0.0
 11
-557.579578399658
 21
-19.0019950866699
 31
0.0
  0
LINE
  5
   25F
  8
0
  6
CONTINUOUS
 62
     7
 10
-557.579578399658
 20
-19.0019950866699
 30
0.0
 11
-558.10052282961
 21
-21.9564183638769
 31
0.0
  0
ENDBLK
  5
   260
  8
0
  6
CONTINUOUS
 62
     7
  0
BLOCK
  5
   261
  8
0
  6
CONTINUOUS
 62
     7
  2
*UDIM828
 70
    65
 10
0.0
 20
0.0
 30
0.0
  3
*UDIM828
  0
TEXT
  5
   262
  8
0
  6
CONTINUOUS
 62
     7
 10
-385.773511710176
 20
77.0372858828176
 30
0.0
 40
2.99999997871263
  1
24
 50
359.999999896069
 41
0.933333333333333
 72
     1
 11
-383.273511725202
 21
78.5372858676516
 31
0.0
 73
     2
  0
TEXT
  5
   263
  8
0
  6
CONTINUOUS
 62
     7
 10
-388.523511706486
 20
77.0372858802851
 30
0.0
 40
2.99999997871263
  1
M
 50
359.999999896069
 41
0.933333333333333
 72
     1
 11
-387.423511711578
 21
78.5372858676516
 31
0.0
 73
     2
  0
TEXT
  5
   264
  8
0
  6
CONTINUOUS
 62
     7
 10
-379.773511745655
 20
77.0372858828176
 30
0.0
 40
2.99999997871263
  1
x2
 50
359.999999896069
 41
0.933333333333333
 72
     1
 11
-377.273511760681
 21
78.5372858676516
 31
0.0
 73
     2
  0
LINE
  5
   265
  8
0
  6
CONTINUOUS
 62
     7
 10
-362.963876336515
 20
71.2059696018696
 30
0.0
 11
-362.963876336515
 21
78.0372858782953
 31
0.0
  0
LINE
  5
   266
  8
0
  6
CONTINUOUS
 62
     7
 10
-371.363876193464
 20
71.2059696018696
 30
0.0
 11
-371.363876193464
 21
78.0372858782953
 31
0.0
  0
LINE
  5
   267
  8
0
  6
CONTINUOUS
 62
     7
 10
-362.963876336515
 20
76.0372858782953
 30
0.0
 11
-388.523511703773
 21
76.0372858782953
 31
0.0
  0
LINE
  5
   268
  8
0
  6
CONTINUOUS
 62
     7
 10
-360.009453059308
 20
76.558230308247
 30
0.0
 11
-362.963876336515
 21
76.0372858782953
 31
0.0
  0
LINE
  5
   269
  8
0
  6
CONTINUOUS
 62
     7
 10
-362.963876336515
 20
76.0372858782953
 30
0.0
 11
-360.009453059308
 21
75.5163414483436
 31
0.0
  0
LINE
  5
   26A
  8
0
  6
CONTINUOUS
 62
     7
 10
-374.318299470671
 20
75.5163414483436
 30
0.0
 11
-371.363876193464
 21
76.0372858782953
 31
0.0
  0
LINE
  5
   26B
  8
0
  6
CONTINUOUS
 62
     7
 10
-371.363876193464
 20
76.0372858782953
 30
0.0
 11
-374.318299470671
 21
76.558230308247
 31
0.0
  0
ENDBLK
  5
   26C
  8
0
  6
CONTINUOUS
 62
     7
  0
BLOCK
  5
   26D
  8
0
  6
CONTINUOUS
 62
     7
  2
*UDIM829
 70
    65
 10
0.0
 20
0.0
 30
0.0
  3
*UDIM829
  0
TEXT
  5
   26E
  8
0
  6
CONTINUOUS
 62
     7
 10
-304.268786112608
 20
58.6809702007393
 30
0.0
 40
2.99999997871263
  1
115
 50
449.999999896069
 41
0.933333333333333
 72
     1
 11
-305.768786094914
 21
62.5809701757772
 31
0.0
 73
     2
  0
LINE
  5
   26F
  8
0
  6
CONTINUOUS
 62
     7
 10
-344.060860741743
 20
82.9809693843126
 30
0.0
 11
-301.268786105558
 21
82.9809693843126
 31
0.0
  0
LINE
  5
   270
  8
0
  6
CONTINUOUS
 62
     7
 10
-310.081774457077
 20
42.730970069766
 30
0.0
 11
-301.268786105558
 21
42.730970069766
 31
0.0
  0
LINE
  5
   271
  8
0
  6
CONTINUOUS
 62
     7
 10
-303.268786105558
 20
82.9809693843126
 30
0.0
 11
-303.268786105558
 21
42.730970069766
 31
0.0
  0
LINE
  5
   272
  8
0
  6
CONTINUOUS
 62
     7
 10
-302.747841675606
 20
80.0265461071057
 30
0.0
 11
-303.268786105558
 21
82.9809693843126
 31
0.0
  0
LINE
  5
   273
  8
0
  6
CONTINUOUS
 62
     7
 10
-303.268786105558
 20
82.9809693843126
 30
0.0
 11
-303.78973053551
 21
80.0265461071057
 31
0.0
  0
LINE
  5
   274
  8
0
  6
CONTINUOUS
 62
     7
 10
-303.78973053551
 20
45.685393346973
 30
0.0
 11
-303.268786105558
 21
42.730970069766
 31
0.0
  0
LINE
  5
   275
  8
0
  6
CONTINUOUS
 62
     7
 10
-303.268786105558
 20
42.730970069766
 30
0.0
 11
-302.747841675606
 21
45.685393346973
 31
0.0
  0
ENDBLK
  5
   276
  8
0
  6
CONTINUOUS
 62
     7
  0
BLOCK
  5
   277
  8
0
  6
CONTINUOUS
 62
     7
  2
*UDIM830
 70
    65
 10
0.0
 20
0.0
 30
0.0
  3
*UDIM830
  0
TEXT
  5
   278
  8
0
  6
CONTINUOUS
 62
     7
 10
-310.996381234485
 20
46.1684683346172
 30
0.0
 40
2.99999997871263
  1
51,5
 50
449.999999896069
 41
0.933333333333333
 72
     1
 11
-312.496381214261
 21
51.468468299721
 31
0.0
 73
     2
  0
LINE
  5
   279
  8
0
  6
CONTINUOUS
 62
     7
 10
-329.427575468486
 20
60.7559670925141
 30
0.0
 11
-307.996381224905
 21
60.7559670925141
 31
0.0
  0
LINE
  5
   27A
  8
0
  6
CONTINUOUS
 62
     7
 10
-310.081774457077
 20
42.730970069766
 30
0.0
 11
-307.996381224905
 21
42.730970069766
 31
0.0
  0
LINE
  5
   27B
  8
0
  6
CONTINUOUS
 62
     7
 10
-309.996381224905
 20
60.7559670925141
 30
0.0
 11
-309.996381224905
 21
42.730970069766
 31
0.0
  0
LINE
  5
   27C
  8
0
  6
CONTINUOUS
 62
     7
 10
-309.475436794953
 20
57.8015438153071
 30
0.0
 11
-309.996381224905
 21
60.7559670925141
 31
0.0
  0
LINE
  5
   27D
  8
0
  6
CONTINUOUS
 62
     7
 10
-309.996381224905
 20
60.7559670925141
 30
0.0
 11
-310.517325654857
 21
57.8015438153071
 31
0.0
  0
LINE
  5
   27E
  8
0
  6
CONTINUOUS
 62
     7
 10
-310.517325654857
 20
45.685393346973
 30
0.0
 11
-309.996381224905
 21
42.730970069766
 31
0.0
  0
LINE
  5
   27F
  8
0
  6
CONTINUOUS
 62
     7
 10
-309.996381224905
 20
42.730970069766
 30
0.0
 11
-309.475436794953
 21
45.685393346973
 31
0.0
  0
ENDBLK
  5
   280
  8
0
  6
CONTINUOUS
 62
     7
  0
BLOCK
  5
   281
  8
0
  6
CONTINUOUS
 62
     7
  2
*UDIM831
 70
    65
 10
0.0
 20
0.0
 30
0.0
  3
*UDIM831
  0
TEXT
  5
   282
  8
0
  6
CONTINUOUS
 62
     7
 10
-392.496128360105
 20
63.5809701172927
 30
0.0
 40
2.99999997871263
  1
143
 50
449.999999896069
 41
0.933333333333333
 72
     1
 11
-393.996128342411
 21
67.4809700923307
 31
0.0
 73
     2
  0
LINE
  5
   283
  8
0
  6
CONTINUOUS
 62
     7
 10
-355.449994035217
 20
92.7809692174196
 30
0.0
 11
-393.496128353055
 21
92.7809692174196
 31
0.0
  0
LINE
  5
   284
  8
0
  6
CONTINUOUS
 62
     7
 10
-391.496128353055
 20
92.7809692174196
 30
0.0
 11
-391.496128353055
 21
42.730970069766
 31
0.0
  0
LINE
  5
   285
  8
0
  6
CONTINUOUS
 62
     7
 10
-390.975183923103
 20
89.8265459402127
 30
0.0
 11
-391.496128353055
 21
92.7809692174196
 31
0.0
  0
LINE
  5
   286
  8
0
  6
CONTINUOUS
 62
     7
 10
-391.496128353055
 20
92.7809692174196
 30
0.0
 11
-392.017072783007
 21
89.8265459402127
 31
0.0
  0
LINE
  5
   287
  8
0
  6
CONTINUOUS
 62
     7
 10
-392.017072783007
 20
45.685393346973
 30
0.0
 11
-391.496128353055
 21
42.730970069766
 31
0.0
  0
LINE
  5
   288
  8
0
  6
CONTINUOUS
 62
     7
 10
-391.496128353055
 20
42.730970069766
 30
0.0
 11
-390.975183923103
 21
45.685393346973
 31
0.0
  0
ENDBLK
  5
   289
  8
0
  6
CONTINUOUS
 62
     7
  0
BLOCK
  5
   28A
  8
0
  6
CONTINUOUS
 62
     7
  2
*UDIM832
 70
    65
 10
0.0
 20
0.0
 30
0.0
  3
*UDIM832
  0
TEXT
  5
   28B
  8
0
  6
CONTINUOUS
 62
     7
 10
-386.067538073986
 20
53.9559683758437
 30
0.0
 40
2.99999997871263
  1
80
 50
449.999999896069
 41
0.933333333333333
 72
     1
 11
-387.567538058823
 21
56.4559683608158
 31
0.0
 73
     2
  0
LINE
  5
   28C
  8
0
  6
CONTINUOUS
 62
     7
 10
-370.205594522456
 20
70.7309695929289
 30
0.0
 11
-387.067538069467
 21
70.7309695929289
 31
0.0
  0
LINE
  5
   28D
  8
0
  6
CONTINUOUS
 62
     7
 10
-385.067538069467
 20
70.7309695929289
 30
0.0
 11
-385.067538069467
 21
42.730970069766
 31
0.0
  0
LINE
  5
   28E
  8
0
  6
CONTINUOUS
 62
     7
 10
-384.546593639515
 20
67.7765463157219
 30
0.0
 11
-385.067538069467
 21
70.7309695929289
 31
0.0
  0
LINE
  5
   28F
  8
0
  6
CONTINUOUS
 62
     7
 10
-385.067538069467
 20
70.7309695929289
 30
0.0
 11
-385.588482499419
 21
67.7765463157219
 31
0.0
  0
LINE
  5
   290
  8
0
  6
CONTINUOUS
 62
     7
 10
-385.588482499419
 20
45.685393346973
 30
0.0
 11
-385.067538069467
 21
42.730970069766
 31
0.0
  0
LINE
  5
   291
  8
0
  6
CONTINUOUS
 62
     7
 10
-385.067538069467
 20
42.730970069766
 30
0.0
 11
-384.546593639515
 21
45.685393346973
 31
0.0
  0
ENDBLK
  5
   292
  8
0
  6
CONTINUOUS
 62
     7
  0
BLOCK
  5
   293
  8
0
  6
CONTINUOUS
 62
     7
  2
*UDIM833
 70
    65
 10
0.0
 20
0.0
 30
0.0
  3
*UDIM833
  0
TEXT
  5
   294
  8
0
  6
CONTINUOUS
 62
     7
 10
-333.638878812537
 20
30.819248213911
 30
0.0
 40
2.99999997871263
  1
43,75
 50
359.999999896069
 41
0.933333333333333
 72
     1
 11
-326.938878857366
 21
32.3192481911476
 31
0.0
 73
     2
  0
LINE
  5
   295
  8
0
  6
CONTINUOUS
 62
     7
 10
-336.53887678653
 20
35.8076063015676
 30
0.0
 11
-336.53887678653
 21
27.8192482017913
 31
0.0
  0
LINE
  5
   296
  8
0
  6
CONTINUOUS
 62
     7
 10
-351.85137652576
 20
35.7588883521476
 30
0.0
 11
-351.85137652576
 21
27.8192482017913
 31
0.0
  0
LINE
  5
   297
  8
0
  6
CONTINUOUS
 62
     7
 10
-320.238878904908
 20
29.8192482017913
 30
0.0
 11
-351.85137652576
 21
29.8192482017913
 31
0.0
  0
LINE
  5
   298
  8
0
  6
CONTINUOUS
 62
     7
 10
-339.493300063737
 20
29.2983037718396
 30
0.0
 11
-336.53887678653
 21
29.8192482017913
 31
0.0
  0
LINE
  5
   299
  8
0
  6
CONTINUOUS
 62
     7
 10
-336.53887678653
 20
29.8192482017913
 30
0.0
 11
-339.493300063737
 21
30.3401926317429
 31
0.0
  0
LINE
  5
   29A
  8
0
  6
CONTINUOUS
 62
     7
 10
-348.896953248553
 20
30.3401926317429
 30
0.0
 11
-351.85137652576
 21
29.8192482017913
 31
0.0
  0
LINE
  5
   29B
  8
0
  6
CONTINUOUS
 62
     7
 10
-351.85137652576
 20
29.8192482017913
 30
0.0
 11
-348.896953248553
 21
29.2983037718396
 31
0.0
  0
ENDBLK
  5
   29C
  8
0
  6
CONTINUOUS
 62
     7
  0
BLOCK
  5
   29D
  8
0
  6
CONTINUOUS
 62
     7
  2
*UDIM834
 70
    65
 10
0.0
 20
0.0
 30
0.0
  3
*UDIM834
  0
TEXT
  5
   29E
  8
0
  6
CONTINUOUS
 62
     7
 10
-384.013877382452
 20
30.819248213911
 30
0.0
 40
2.99999997871263
  1
43,75
 50
359.999999896069
 41
0.933333333333333
 72
     1
 11
-377.31387742728
 21
32.3192481911476
 31
0.0
 73
     2
  0
LINE
  5
   29F
  8
0
  6
CONTINUOUS
 62
     7
 10
-367.16387626499
 20
35.8076063015676
 30
0.0
 11
-367.16387626499
 21
27.8192482017913
 31
0.0
  0
LINE
  5
   2A0
  8
0
  6
CONTINUOUS
 62
     7
 10
-351.85137652576
 20
29.8192482017913
 30
0.0
 11
-384.013877379738
 21
29.8192482017913
 31
0.0
  0
LINE
  5
   2A1
  8
0
  6
CONTINUOUS
 62
     7
 10
-354.805799802967
 20
29.2983037718396
 30
0.0
 11
-351.85137652576
 21
29.8192482017913
 31
0.0
  0
LINE
  5
   2A2
  8
0
  6
CONTINUOUS
 62
     7
 10
-351.85137652576
 20
29.8192482017913
 30
0.0
 11
-354.805799802967
 21
30.3401926317429
 31
0.0
  0
LINE
  5
   2A3
  8
0
  6
CONTINUOUS
 62
     7
 10
-364.209452987783
 20
30.3401926317429
 30
0.0
 11
-367.16387626499
 21
29.8192482017913
 31
0.0
  0
LINE
  5
   2A4
  8
0
  6
CONTINUOUS
 62
     7
 10
-367.16387626499
 20
29.8192482017913
 30
0.0
 11
-364.209452987783
 21
29.2983037718396
 31
0.0
  0
ENDBLK
  5
   2A5
  8
0
  6
CONTINUOUS
 62
     7
  0
ENDSEC
  0
SECTION
  2
ENTITIES
  0
LINE
  5
   2A6
  8
0
  6
DASHDOT
 62
     7
 10
-351.851379394531
 20
18.625818599694
 30
0.0
 11
-351.851379394531
 21
-69.262315174265
 31
0.0
  0
LINE
  5
   2A7
  8
0
  6
CONTINUOUS
 62
     7
 10
-372.538879394531
 20
15.7296080321079
 30
0.0
 11
-372.538879394531
 21
-65.6897888183594
 31
0.0
  0
LINE
  5
   2A8
  8
0
  6
CONTINUOUS
 62
     7
 10
-331.163879394531
 20
15.7296080321079
 30
0.0
 11
-331.163879394531
 21
-65.6897888183594
 31
0.0
  0
LINE
  5
   2A9
  8
0
  6
CONTINUOUS
 62
     7
 10
-327.984602910185
 20
-65.6897888183594
 30
0.0
 11
-373.972171993739
 21
-65.6897888183594
 31
0.0
  0
LINE
  5
   2AA
  8
0
  6
DASHDOT
 62
     7
 10
-334.158399347814
 20
-7.06478881835938
 30
0.0
 11
-369.222592203487
 21
-7.06478881835938
 31
0.0
  0
LINE
  5
   2AB
  8
0
  6
DASHDOT
 62
     7
 10
-334.158399347814
 20
-40.8147888183594
 30
0.0
 11
-369.274364251972
 21
-40.8147888183594
 31
0.0
  0
LINE
  5
   2AC
  8
0
  6
DASHDOT
 62
     7
 10
-366.226379394531
 20
-3.31470211952505
 30
0.0
 11
-366.226379394531
 21
-44.7754842815427
 31
0.0
  0
LINE
  5
   2AD
  8
0
  6
DASHDOT
 62
     7
 10
-337.476379394531
 20
-4.08265417205774
 30
0.0
 11
-337.476379394531
 21
-45.6038370573083
 31
0.0
  0
CIRCLE
  5
   2AE
  8
0
  6
CONTINUOUS
 62
     7
 10
-366.226379394531
 20
-7.06478881835938
 30
0.0
 40
0.75
  0
CIRCLE
  5
   2AF
  8
0
  6
CONTINUOUS
 62
     7
 10
-337.476379394531
 20
-7.06478881835938
 30
0.0
 40
0.75
  0
CIRCLE
  5
   2B0
  8
0
  6
CONTINUOUS
 62
     7
 10
-366.226379394531
 20
-40.8147888183594
 30
0.0
 40
0.75
  0
CIRCLE
  5
   2B1
  8
0
  6
CONTINUOUS
 62
     7
 10
-337.476379394531
 20
-40.8147888183594
 30
0.0
 40
0.75
  0
LINE
  5
   2B2
  8
0
  6
CONTINUOUS
 62
     7
 10
-329.292802521848
 20
15.7296080321079
 30
0.0
 11
-373.806251945421
 21
15.7296080321079
 31
0.0
  0
LINE
  5
   2B3
  8
0
  6
DASHDOT
 62
     7
 10
-325.408148701343
 20
-23.5022888183594
 30
0.0
 11
-391.49385133222
 21
-23.5022888183594
 31
0.0
  0
TEXT
  5
   2B4
  8
0
  6
CONTINUOUS
 62
     1
 10
-455.522125475568
 20
-159.787588565834
 30
0.0
 40
2.00000008940697
  1
M 4329 96-09-24
 50
359.999999896069
 41
0.749999861419206
 72
     1
 11
-444.42212703242
 21
-158.78758854121
 31
0.0
 73
     2
  0
LINE
  5
   2B5
  8
0
  6
CONTINUOUS
 62
     7
 10
-336.288879394531
 20
-45.1897888183594
 30
0.0
 11
-367.413879394531
 21
-45.1897888183594
 31
0.0
  0
LINE
  5
   2B6
  8
0
  6
CONTINUOUS
 62
     7
 10
-368.413879394531
 20
-46.1897888183594
 30
0.0
 11
-368.413879394531
 21
-57.1897888183594
 31
0.0
  0
LINE
  5
   2B7
  8
0
  6
CONTINUOUS
 62
     7
 10
-335.288879394531
 20
-46.1897888183594
 30
0.0
 11
-335.288879394531
 21
-57.1897888183594
 31
0.0
  0
ARC
  5
   2B8
  8
0
  6
CONTINUOUS
 62
     7
 10
-336.288879394531
 20
-46.1897888183594
 30
0.0
 40
1.0
 50
359.999999896069
 51
449.999999896069
  0
ARC
  5
   2B9
  8
0
  6
CONTINUOUS
 62
     7
 10
-367.413879394531
 20
-46.1897888183594
 30
0.0
 40
1.0
 50
449.999999896069
 51
539.999999896069
  0
LINE
  5
   2BA
  8
0
  6
CONTINUOUS
 62
     7
 10
-336.288879394531
 20
-2.68978881835938
 30
0.0
 11
-367.413879394531
 21
-2.68978881835938
 31
0.0
  0
LINE
  5
   2BB
  8
0
  6
CONTINUOUS
 62
     7
 10
-336.288879394531
 20
10.3102111816406
 30
0.0
 11
-367.413879394531
 21
10.3102111816406
 31
0.0
  0
LINE
  5
   2BC
  8
0
  6
CONTINUOUS
 62
     7
 10
-335.288879394531
 20
9.31021118164063
 30
0.0
 11
-335.288879394531
 21
-1.68978881835938
 31
0.0
  0
LINE
  5
   2BD
  8
0
  6
CONTINUOUS
 62
     7
 10
-368.413879394531
 20
9.31021118164063
 30
0.0
 11
-368.413879394531
 21
-1.68978881835938
 31
0.0
  0
ARC
  5
   2BE
  8
0
  6
CONTINUOUS
 62
     7
 10
-367.413879394531
 20
9.31021118164063
 30
0.0
 40
1.0
 50
449.999999896069
 51
539.999999896069
  0
ARC
  5
   2BF
  8
0
  6
CONTINUOUS
 62
     7
 10
-367.413879394531
 20
-1.68978881835938
 30
0.0
 40
1.0
 50
179.999999896069
 51
269.999999896069
  0
ARC
  5
   2C0
  8
0
  6
CONTINUOUS
 62
     7
 10
-336.288879394531
 20
-1.68978881835938
 30
0.0
 40
1.0
 50
269.999999896069
 51
359.999999896069
  0
ARC
  5
   2C1
  8
0
  6
CONTINUOUS
 62
     7
 10
-336.288879394531
 20
9.31021118164063
 30
0.0
 40
1.0
 50
359.999999896069
 51
449.999999896069
  0
LINE
  5
   2C2
  8
0
  6
CONTINUOUS
 62
     7
 10
-336.288879394531
 20
-58.1897888183594
 30
0.0
 11
-367.413879394531
 21
-58.1897888183594
 31
0.0
  0
ARC
  5
   2C3
  8
0
  6
CONTINUOUS
 62
     7
 10
-367.413879394531
 20
-57.1897888183594
 30
0.0
 40
1.0
 50
179.999999896069
 51
269.999999896069
  0
ARC
  5
   2C4
  8
0
  6
CONTINUOUS
 62
     7
 10
-336.288879394531
 20
-57.1897888183594
 30
0.0
 40
1.0
 50
269.999999896069
 51
359.999999896069
  0
TEXT
  5
   2C5
  8
0
  6
CONTINUOUS
 62
     1
 10
-430.682125475568
 20
-159.787588565834
 30
0.0
 40
2.00000008940697
  1
M 4504 98-11-17
 50
359.999999896069
 41
0.749999861419206
 72
     1
 11
-419.58212703242
 21
-158.78758854121
 31
0.0
 73
     2
  0
TEXT
  5
   2C6
  8
0
  6
CONTINUOUS
 62
     1
 10
-469.410064699075
 20
-153.722269132982
 30
0.0
 40
2.00000008940697
  1
SCARPELLINI
 50
359.999999896069
 41
0.749999861419206
 72
     2
 11
-453.210066975972
 21
-153.722269162287
 31
0.0
  0
INSERT
  5
   2C7
  8
0
  6
CONTINUOUS
 62
     7
  2
*UDIM780
 10
0.0
 20
0.0
 30
0.0
  0
INSERT
  5
   2C8
  8
0
  6
CONTINUOUS
 62
     7
  2
*UDIM781
 10
0.0
 20
0.0
 30
0.0
  0
INSERT
  5
   2C9
  8
0
  6
CONTINUOUS
 62
     7
  2
*UDIM782
 10
0.0
 20
0.0
 30
0.0
  0
INSERT
  5
   2CA
  8
0
  6
CONTINUOUS
 62
     7
  2
*UDIM783
 10
0.0
 20
0.0
 30
0.0
  0
INSERT
  5
   2CB
  8
0
  6
CONTINUOUS
 62
     7
  2
*UDIM784
 10
0.0
 20
0.0
 30
0.0
  0
INSERT
  5
   2CC
  8
0
  6
CONTINUOUS
 62
     7
  2
*UDIM785
 10
0.0
 20
0.0
 30
0.0
  0
TEXT
  5
   2CD
  8
0
  6
CONTINUOUS
 62
     1
 10
-469.410064699075
 20
-145.255523745542
 30
0.0
 40
2.00000008940697
  1
96-11-29 M.COLLEONI
 50
359.999999896069
 41
0.749999861419206
 72
     2
 11
-441.210068656823
 21
-145.255523796553
 31
0.0
  0
TEXT
  5
   2CE
  8
0
  6
CONTINUOUS
 62
     5
 10
-350.093297722669
 20
17.1894187649121
 30
0.0
 40
3.00000002980232
  1
Y
 50
359.999999896069
 41
0.916666604744064
 72
     2
 11
-347.893297853799
 21
17.1894187609325
 31
0.0
  0
INSERT
  5
   2CF
  8
0
  6
CONTINUOUS
 62
     5
  2
*UDIM786
 10
0.0
 20
0.0
 30
0.0
  0
TEXT
  5
   2D0
  8
0
  6
CONTINUOUS
 62
     7
 10
-359.989910128446
 20
-78.4020729218704
 30
0.0
 40
3.00000002980232
  1
=    =
 50
359.999999896069
 41
0.916666604744064
 72
     2
 11
-344.039911051821
 21
-78.4020729507226
 31
0.0
  0
INSERT
  5
   2D1
  8
0
  6
CONTINUOUS
 62
     7
  2
*UDIM787
 10
0.0
 20
0.0
 30
0.0
  0
INSERT
  5
   2D2
  8
0
  6
CONTINUOUS
 62
     7
  2
*UDIM788
 10
0.0
 20
0.0
 30
0.0
  0
TEXT
  5
   2D3
  8
0
  6
CONTINUOUS
 62
     7
 10
-377.434919360013
 20
-21.8861494342456
 30
0.0
 40
3.00000002980232
  1
X
 50
359.999999896069
 41
0.916666604744064
 72
     2
 11
-375.234919491143
 21
-21.8861494382252
 31
0.0
  0
TEXT
  5
   2D4
  8
0
  6
CONTINUOUS
 62
     7
 10
-310.960350039334
 20
-27.2504264394412
 30
0.0
 40
3.00000002980232
  1
X
 50
359.999999896069
 41
0.916666604744064
 72
     2
 11
-308.760350170465
 21
-27.2504264434209
 31
0.0
  0
TEXT
  5
   2D5
  8
0
  6
CONTINUOUS
 62
     7
 10
-355.81101393971
 20
-70.6060676852832
 30
0.0
 40
3.00000002980232
  1
Y
 50
359.999999896069
 41
0.916666604744064
 72
     2
 11
-353.61101407084
 21
-70.6060676892628
 31
0.0
  0
TEXT
  5
   2D6
  8
0
  6
CONTINUOUS
 62
     1
 10
-360.440429691118
 20
-170.888488915106
 30
0.0
 40
4.00000017881393
  1
601812/931
 50
359.999999896069
 41
0.937499973922969
 72
     2
 11
-323.690429091346
 21
-170.888488981584
 31
0.0
  0
TEXT
  5
   2D7
  8
0
  6
CONTINUOUS
 62
     1
 10
-349.354736330838
 20
-161.906906143306
 30
0.0
 40
3.00000002980232
  1
S5/630
 50
359.999999896069
 41
0.916666604744064
 72
     2
 11
-333.404737254214
 21
-161.906906172158
 31
0.0
  0
TEXT
  5
   2D8
  8
0
  6
CONTINUOUS
 62
     1
 10
-370.889156054279
 20
-143.596633903197
 30
0.0
 40
2.00000008940697
  1
3POLE LOW VOLTAGE M.C.C.B SERIES ISOMAX
 50
359.999999896069
 41
0.749999861419206
 72
     1
 11
-341.789160132408
 21
-142.596633911133
 31
0.0
 73
     2
  0
TEXT
  5
   2D9
  8
0
  6
CONTINUOUS
 62
     1
 10
-367.889156474492
 20
-146.596633908624
 30
0.0
 40
2.00000008940697
  1
WITHDRAWABLE VERSION REAR TERMINALS
 50
359.999999896069
 41
0.749999861419206
 72
     1
 11
-341.789160132408
 21
-145.596633911133
 31
0.0
 73
     2
  0
TEXT
  5
   2DA
  8
0
  6
CONTINUOUS
 62
     1
 10
-367.686764421633
 20
-151.66690063904
 30
0.0
 40
2.00000008940697
  1
INTERR.AUTOMATICO SERIE ISOMAX
 50
359.999999896069
 41
0.749999861419206
 72
     1
 11
-345.336767554283
 21
-150.666900634766
 31
0.0
 73
     2
  0
TEXT
  5
   2DB
  8
0
  6
CONTINUOUS
 62
     1
 10
-379.686762740782
 20
-154.666900617333
 30
0.0
 40
2.00000008940697
  1
TRIPOL.ESECUZIONE ESTRAIBILE TERMIN.POSTERIORI
 50
359.999999896069
 41
0.749999861419206
 72
     1
 11
-345.336767554283
 21
-153.666900634766
 31
0.0
 73
     2
  0
LINE
  5
   2DC
  8
0
  6
CONTINUOUS
 62
     7
 10
-376.351345592422
 20
200.417523460167
 30
0.0
 11
-376.351345592422
 21
207.837517993229
 31
0.0
  0
LINE
  5
   2DD
  8
0
  6
CONTINUOUS
 62
     7
 10
-327.35136279061
 20
120.897537845378
 30
0.0
 11
-327.35136279061
 21
136.805027629012
 31
0.0
  0
LINE
  5
   2DE
  8
0
  6
CONTINUOUS
 62
     7
 10
-376.351361956145
 20
120.897536760573
 30
0.0
 11
-376.351361956145
 21
136.805027629012
 31
0.0
  0
LINE
  5
   2DF
  8
0
  6
CONTINUOUS
 62
     1
 10
-327.351362927549
 20
193.152821011456
 30
0.0
 11
-327.351362927549
 21
200.417523460167
 31
0.0
  0
LINE
  5
   2E0
  8
0
  6
CONTINUOUS
 62
     1
 10
-376.351362093084
 20
193.152821011456
 30
0.0
 11
-376.351362093084
 21
200.417523460167
 31
0.0
  0
LINE
  5
   2E1
  8
0
  6
DOT
 62
     1
 10
-327.351362927549
 20
136.805027629012
 30
0.0
 11
-327.351362927549
 21
193.152821011456
 31
0.0
  0
LINE
  5
   2E2
  8
0
  6
CONTINUOUS
 62
     1
 10
-333.353866029673
 20
146.780019033032
 30
0.0
 11
-333.353866029673
 21
183.530018407183
 31
0.0
  0
LINE
  5
   2E3
  8
0
  6
CONTINUOUS
 62
     1
 10
-333.353866029673
 20
193.152821011456
 30
0.0
 11
-333.353866029673
 21
200.417518119591
 31
0.0
  0
LINE
  5
   2E4
  8
0
  6
CONTINUOUS
 62
     1
 10
-333.353866029673
 20
119.042540747681
 30
0.0
 11
-333.353866029673
 21
136.805027629012
 31
0.0
  0
LINE
  5
   2E5
  8
0
  6
CONTINUOUS
 62
     1
 10
-369.701362206333
 20
193.152821011456
 30
0.0
 11
-369.701362206333
 21
198.667523489969
 31
0.0
  0
LINE
  5
   2E6
  8
0
  6
CONTINUOUS
 62
     1
 10
-334.0013628143
 20
193.152821011456
 30
0.0
 11
-334.0013628143
 21
198.667523489969
 31
0.0
  0
LINE
  5
   2E7
  8
0
  6
CONTINUOUS
 62
     1
 10
-334.0013628143
 20
198.667523489969
 30
0.0
 11
-369.701362206333
 21
198.667523489969
 31
0.0
  0
LINE
  5
   2E8
  8
0
  6
DASHDOT
 62
     3
 10
-351.851362510316
 20
107.956534753972
 30
0.0
 11
-351.851362510316
 21
175.900865378375
 31
0.0
  0
LINE
  5
   2E9
  8
0
  6
DASHDOT
 62
     3
 10
-351.851362510316
 20
175.630408933599
 30
0.0
 11
-351.851362510316
 21
219.066333345156
 31
0.0
  0
LINE
  5
   2EA
  8
0
  6
CONTINUOUS
 62
     7
 10
-348.088862574392
 20
157.429829671138
 30
0.0
 11
-355.613862446241
 21
157.429829671138
 31
0.0
  0
LINE
  5
   2EB
  8
0
  6
CONTINUOUS
 62
     7
 10
-348.088862574392
 20
159.160972053238
 30
0.0
 11
-355.613862446241
 21
159.160972053238
 31
0.0
  0
LINE
  5
   2EC
  8
0
  6
CONTINUOUS
 62
     7
 10
-348.088862574392
 20
154.657496639926
 30
0.0
 11
-355.613862446241
 21
154.657496639926
 31
0.0
  0
LINE
  5
   2ED
  8
0
  6
CONTINUOUS
 62
     3
 10
-376.351364587804
 20
199.89250614479
 30
0.0
 11
-376.351364587804
 21
209.255007385643
 31
0.0
  0
LINE
  5
   2EE
  8
0
  6
CONTINUOUS
 62
     3
 10
-327.701365416309
 20
199.54250617161
 30
0.0
 11
-376.001364593765
 21
199.54250617161
 31
0.0
  0
LINE
  5
   2EF
  8
0
  6
CONTINUOUS
 62
     3
 10
-327.351365422279
 20
199.892506185241
 30
0.0
 11
-327.351365422279
 21
209.255006498966
 31
0.0
  0
LINE
  5
   2F0
  8
0
  6
CONTINUOUS
 62
     3
 10
-373.673864766917
 20
119.042540747681
 30
0.0
 11
-373.673864766917
 21
136.805027629012
 31
0.0
  0
LINE
  5
   2F1
  8
0
  6
CONTINUOUS
 62
     3
 10
-372.413864988646
 20
119.042540747681
 30
0.0
 11
-372.413864988646
 21
136.805027629012
 31
0.0
  0
LINE
  5
   2F2
  8
0
  6
CONTINUOUS
 62
     3
 10
-369.893865765891
 20
199.89250614479
 30
0.0
 11
-369.893865765891
 21
209.692496719357
 31
0.0
  0
LINE
  5
   2F3
  8
0
  6
CONTINUOUS
 62
     3
 10
-368.633868991694
 20
199.89250614479
 30
0.0
 11
-368.633868991694
 21
209.692496719357
 31
0.0
  0
LINE
  5
   2F4
  8
0
  6
CONTINUOUS
 62
     3
 10
-367.373866876921
 20
199.89250614479
 30
0.0
 11
-367.373866876921
 21
209.692496719357
 31
0.0
  0
LINE
  5
   2F5
  8
0
  6
CONTINUOUS
 62
     3
 10
-366.113870102724
 20
199.89250614479
 30
0.0
 11
-366.113870102724
 21
209.692496719357
 31
0.0
  0
LINE
  5
   2F6
  8
0
  6
CONTINUOUS
 62
     3
 10
-364.853867987952
 20
199.89250614479
 30
0.0
 11
-364.853867987952
 21
209.692496719357
 31
0.0
  0
LINE
  5
   2F7
  8
0
  6
CONTINUOUS
 62
     3
 10
-363.593865873179
 20
199.89250614479
 30
0.0
 11
-363.593865873179
 21
209.692496719357
 31
0.0
  0
LINE
  5
   2F8
  8
0
  6
CONTINUOUS
 62
     3
 10
-362.333869098982
 20
199.89250614479
 30
0.0
 11
-362.333869098982
 21
209.692496719357
 31
0.0
  0
LINE
  5
   2F9
  8
0
  6
CONTINUOUS
 62
     3
 10
-361.073866984209
 20
199.89250614479
 30
0.0
 11
-361.073866984209
 21
209.692496719357
 31
0.0
  0
LINE
  5
   2FA
  8
0
  6
CONTINUOUS
 62
     3
 10
-359.813870210013
 20
199.89250614479
 30
0.0
 11
-359.813870210013
 21
209.692496719357
 31
0.0
  0
LINE
  5
   2FB
  8
0
  6
CONTINUOUS
 62
     3
 10
-358.55386809524
 20
199.89250614479
 30
0.0
 11
-358.55386809524
 21
209.692496719357
 31
0.0
  0
LINE
  5
   2FC
  8
0
  6
CONTINUOUS
 62
     3
 10
-357.293865980467
 20
199.89250614479
 30
0.0
 11
-357.293865980467
 21
209.692496719357
 31
0.0
  0
LINE
  5
   2FD
  8
0
  6
CONTINUOUS
 62
     3
 10
-356.033869206271
 20
199.89250614479
 30
0.0
 11
-356.033869206271
 21
209.692496719357
 31
0.0
  0
LINE
  5
   2FE
  8
0
  6
CONTINUOUS
 62
     3
 10
-354.773867091498
 20
199.89250614479
 30
0.0
 11
-354.773867091498
 21
209.692496719357
 31
0.0
  0
LINE
  5
   2FF
  8
0
  6
CONTINUOUS
 62
     3
 10
-353.513870317301
 20
199.89250614479
 30
0.0
 11
-353.513870317301
 21
209.692496719357
 31
0.0
  0
LINE
  5
   300
  8
0
  6
CONTINUOUS
 62
     3
 10
-352.253868202528
 20
199.89250614479
 30
0.0
 11
-352.253868202528
 21
209.692496719357
 31
0.0
  0
LINE
  5
   301
  8
0
  6
CONTINUOUS
 62
     3
 10
-350.993866087756
 20
199.89250614479
 30
0.0
 11
-350.993866087756
 21
209.692496719357
 31
0.0
  0
LINE
  5
   302
  8
0
  6
CONTINUOUS
 62
     3
 10
-349.733869313559
 20
199.89250614479
 30
0.0
 11
-349.733869313559
 21
209.692496719357
 31
0.0
  0
LINE
  5
   303
  8
0
  6
CONTINUOUS
 62
     3
 10
-348.473867198786
 20
199.89250614479
 30
0.0
 11
-348.473867198786
 21
209.692496719357
 31
0.0
  0
LINE
  5
   304
  8
0
  6
CONTINUOUS
 62
     3
 10
-347.213870424589
 20
199.89250614479
 30
0.0
 11
-347.213870424589
 21
209.692496719357
 31
0.0
  0
LINE
  5
   305
  8
0
  6
CONTINUOUS
 62
     3
 10
-345.953868309817
 20
199.89250614479
 30
0.0
 11
-345.953868309817
 21
209.692496719357
 31
0.0
  0
LINE
  5
   306
  8
0
  6
CONTINUOUS
 62
     3
 10
-344.693866195044
 20
199.89250614479
 30
0.0
 11
-344.693866195044
 21
209.692496719357
 31
0.0
  0
LINE
  5
   307
  8
0
  6
CONTINUOUS
 62
     3
 10
-343.433869420847
 20
199.89250614479
 30
0.0
 11
-343.433869420847
 21
209.692496719357
 31
0.0
  0
LINE
  5
   308
  8
0
  6
CONTINUOUS
 62
     3
 10
-342.173867306074
 20
199.89250614479
 30
0.0
 11
-342.173867306074
 21
209.692496719357
 31
0.0
  0
LINE
  5
   309
  8
0
  6
CONTINUOUS
 62
     3
 10
-340.913870531878
 20
199.89250614479
 30
0.0
 11
-340.913870531878
 21
209.692496719357
 31
0.0
  0
LINE
  5
   30A
  8
0
  6
CONTINUOUS
 62
     3
 10
-339.653868417105
 20
199.89250614479
 30
0.0
 11
-339.653868417105
 21
209.692496719357
 31
0.0
  0
LINE
  5
   30B
  8
0
  6
CONTINUOUS
 62
     3
 10
-338.393866302332
 20
199.89250614479
 30
0.0
 11
-338.393866302332
 21
209.692496719357
 31
0.0
  0
LINE
  5
   30C
  8
0
  6
CONTINUOUS
 62
     3
 10
-337.133869528136
 20
199.89250614479
 30
0.0
 11
-337.133869528136
 21
209.692496719357
 31
0.0
  0
LINE
  5
   30D
  8
0
  6
CONTINUOUS
 62
     3
 10
-335.873867413363
 20
199.89250614479
 30
0.0
 11
-335.873867413363
 21
209.692496719357
 31
0.0
  0
LINE
  5
   30E
  8
0
  6
CONTINUOUS
 62
     3
 10
-334.613870639166
 20
199.89250614479
 30
0.0
 11
-334.613870639166
 21
209.692496719357
 31
0.0
  0
LINE
  5
   30F
  8
0
  6
CONTINUOUS
 62
     3
 10
-333.353868524393
 20
199.89250614479
 30
0.0
 11
-333.353868524393
 21
209.692496719357
 31
0.0
  0
LINE
  5
   310
  8
0
  6
CONTINUOUS
 62
     3
 10
-332.093866409621
 20
119.042540747681
 30
0.0
 11
-332.093866409621
 21
136.805027629012
 31
0.0
  0
LINE
  5
   311
  8
0
  6
CONTINUOUS
 62
     3
 10
-329.573867520651
 20
119.042540747681
 30
0.0
 11
-329.573867520651
 21
136.805027629012
 31
0.0
  0
LINE
  5
   312
  8
0
  6
CONTINUOUS
 62
     3
 10
-327.38761472845
 20
199.89250614479
 30
0.0
 11
-376.315120914263
 21
199.89250614479
 31
0.0
  0
LINE
  5
   313
  8
0
  6
CONTINUOUS
 62
     3
 10
-327.351365479249
 20
199.892502164276
 30
0.0
 11
-327.479507261735
 21
199.892502164276
 31
0.0
  0
LINE
  5
   314
  8
0
  6
CONTINUOUS
 62
     3
 10
-327.701365416309
 20
199.542506171612
 30
0.0
 11
-327.701365416309
 21
199.89250614479
 31
0.0
  0
LINE
  5
   315
  8
0
  6
CONTINUOUS
 62
     3
 10
-376.315120914262
 20
199.89250614479
 30
0.0
 11
-376.351364587804
 21
199.89250614479
 31
0.0
  0
LINE
  5
   316
  8
0
  6
CONTINUOUS
 62
     3
 10
-376.001364593765
 20
199.54250617161
 30
0.0
 11
-376.001364593765
 21
199.892506144788
 31
0.0
  0
ARC
  5
   317
  8
0
  6
CONTINUOUS
 62
     3
 10
-375.913874414445
 20
209.255007385643
 30
0.0
 40
0.437490505257948
 50
449.998658602021
 51
540.001080379242
  0
ARC
  5
   318
  8
0
  6
CONTINUOUS
 62
     3
 10
-327.788861146324
 20
209.255006498966
 30
0.0
 40
0.43748904916687
 50
359.998931305817
 51
450.001731127297
  0
LINE
  5
   319
  8
0
  6
CONTINUOUS
 62
     7
 10
-327.788874364959
 20
209.692496719357
 30
0.0
 11
-375.913864172396
 21
209.692496719357
 31
0.0
  0
LINE
  5
   31A
  8
0
  6
CONTINUOUS
 62
     3
 10
-376.351364587804
 20
119.480030081395
 30
0.0
 11
-376.351364587804
 21
128.842531322248
 31
0.0
  0
LINE
  5
   31B
  8
0
  6
CONTINUOUS
 62
     3
 10
-327.701365416309
 20
129.192531295428
 30
0.0
 11
-376.001364593765
 21
129.192531295428
 31
0.0
  0
LINE
  5
   31C
  8
0
  6
CONTINUOUS
 62
     3
 10
-327.351365422279
 20
119.480030968072
 30
0.0
 11
-327.351365422279
 21
128.842531281797
 31
0.0
  0
LINE
  5
   31D
  8
0
  6
CONTINUOUS
 62
     3
 10
-374.933864878973
 20
119.042540747681
 30
0.0
 11
-374.933864878973
 21
136.805027629012
 31
0.0
  0
LINE
  5
   31E
  8
0
  6
CONTINUOUS
 62
     3
 10
-371.153864876589
 20
119.042540747681
 30
0.0
 11
-371.153864876589
 21
136.805027629012
 31
0.0
  0
LINE
  5
   31F
  8
0
  6
CONTINUOUS
 62
     3
 10
-369.89386576589
 20
119.042540747681
 30
0.0
 11
-369.89386576589
 21
128.842531322248
 31
0.0
  0
LINE
  5
   320
  8
0
  6
CONTINUOUS
 62
     3
 10
-368.633868991694
 20
119.042540747681
 30
0.0
 11
-368.633868991694
 21
128.842531322248
 31
0.0
  0
LINE
  5
   321
  8
0
  6
CONTINUOUS
 62
     3
 10
-367.373866876921
 20
119.042540747681
 30
0.0
 11
-367.373866876921
 21
128.842531322248
 31
0.0
  0
LINE
  5
   322
  8
0
  6
CONTINUOUS
 62
     3
 10
-366.113870102724
 20
119.042540747681
 30
0.0
 11
-366.113870102724
 21
128.842531322248
 31
0.0
  0
LINE
  5
   323
  8
0
  6
CONTINUOUS
 62
     3
 10
-364.853867987952
 20
119.042540747681
 30
0.0
 11
-364.853867987952
 21
128.842531322248
 31
0.0
  0
LINE
  5
   324
  8
0
  6
CONTINUOUS
 62
     3
 10
-363.593865873179
 20
119.042540747681
 30
0.0
 11
-363.593865873179
 21
128.842531322248
 31
0.0
  0
LINE
  5
   325
  8
0
  6
CONTINUOUS
 62
     3
 10
-362.333869098982
 20
119.042540747681
 30
0.0
 11
-362.333869098982
 21
128.842531322248
 31
0.0
  0
LINE
  5
   326
  8
0
  6
CONTINUOUS
 62
     3
 10
-361.073866984209
 20
119.042540747681
 30
0.0
 11
-361.073866984209
 21
128.842531322248
 31
0.0
  0
LINE
  5
   327
  8
0
  6
CONTINUOUS
 62
     3
 10
-359.813870210013
 20
119.042540747681
 30
0.0
 11
-359.813870210013
 21
128.842531322248
 31
0.0
  0
LINE
  5
   328
  8
0
  6
CONTINUOUS
 62
     3
 10
-358.55386809524
 20
119.042540747681
 30
0.0
 11
-358.55386809524
 21
128.842531322248
 31
0.0
  0
LINE
  5
   329
  8
0
  6
CONTINUOUS
 62
     3
 10
-357.293865980467
 20
119.042540747681
 30
0.0
 11
-357.293865980467
 21
128.842531322248
 31
0.0
  0
LINE
  5
   32A
  8
0
  6
CONTINUOUS
 62
     3
 10
-356.03386920627
 20
119.042540747681
 30
0.0
 11
-356.03386920627
 21
128.842531322248
 31
0.0
  0
LINE
  5
   32B
  8
0
  6
CONTINUOUS
 62
     3
 10
-354.773867091498
 20
119.042540747681
 30
0.0
 11
-354.773867091498
 21
128.842531322248
 31
0.0
  0
LINE
  5
   32C
  8
0
  6
CONTINUOUS
 62
     3
 10
-353.513870317301
 20
119.042540747681
 30
0.0
 11
-353.513870317301
 21
128.842531322248
 31
0.0
  0
LINE
  5
   32D
  8
0
  6
CONTINUOUS
 62
     3
 10
-352.253868202528
 20
119.042540747681
 30
0.0
 11
-352.253868202528
 21
128.842531322248
 31
0.0
  0
LINE
  5
   32E
  8
0
  6
CONTINUOUS
 62
     3
 10
-350.993866087755
 20
119.042540747681
 30
0.0
 11
-350.993866087755
 21
128.842531322248
 31
0.0
  0
LINE
  5
   32F
  8
0
  6
CONTINUOUS
 62
     3
 10
-349.733869313559
 20
119.042540747681
 30
0.0
 11
-349.733869313559
 21
128.842531322248
 31
0.0
  0
LINE
  5
   330
  8
0
  6
CONTINUOUS
 62
     3
 10
-348.473867198786
 20
119.042540747681
 30
0.0
 11
-348.473867198786
 21
128.842531322248
 31
0.0
  0
LINE
  5
   331
  8
0
  6
CONTINUOUS
 62
     3
 10
-347.213870424589
 20
119.042540747681
 30
0.0
 11
-347.213870424589
 21
128.842531322248
 31
0.0
  0
LINE
  5
   332
  8
0
  6
CONTINUOUS
 62
     3
 10
-345.953868309817
 20
119.042540747681
 30
0.0
 11
-345.953868309817
 21
128.842531322248
 31
0.0
  0
LINE
  5
   333
  8
0
  6
CONTINUOUS
 62
     3
 10
-344.693866195044
 20
119.042540747681
 30
0.0
 11
-344.693866195044
 21
128.842531322248
 31
0.0
  0
LINE
  5
   334
  8
0
  6
CONTINUOUS
 62
     3
 10
-343.433869420847
 20
119.042540747681
 30
0.0
 11
-343.433869420847
 21
128.842531322248
 31
0.0
  0
LINE
  5
   335
  8
0
  6
CONTINUOUS
 62
     3
 10
-342.173867306074
 20
119.042540747681
 30
0.0
 11
-342.173867306074
 21
128.842531322248
 31
0.0
  0
LINE
  5
   336
  8
0
  6
CONTINUOUS
 62
     3
 10
-340.913870531878
 20
119.042540747681
 30
0.0
 11
-340.913870531878
 21
128.842531322248
 31
0.0
  0
LINE
  5
   337
  8
0
  6
CONTINUOUS
 62
     3
 10
-339.653868417105
 20
119.042540747681
 30
0.0
 11
-339.653868417105
 21
128.842531322248
 31
0.0
  0
LINE
  5
   338
  8
0
  6
CONTINUOUS
 62
     3
 10
-338.393866302332
 20
119.042540747681
 30
0.0
 11
-338.393866302332
 21
128.842531322248
 31
0.0
  0
LINE
  5
   339
  8
0
  6
CONTINUOUS
 62
     3
 10
-337.133869528136
 20
119.042540747681
 30
0.0
 11
-337.133869528136
 21
128.842531322248
 31
0.0
  0
LINE
  5
   33A
  8
0
  6
CONTINUOUS
 62
     3
 10
-335.873867413363
 20
119.042540747681
 30
0.0
 11
-335.873867413363
 21
128.842531322248
 31
0.0
  0
LINE
  5
   33B
  8
0
  6
CONTINUOUS
 62
     3
 10
-334.613870639166
 20
119.042540747681
 30
0.0
 11
-334.613870639166
 21
128.842531322248
 31
0.0
  0
LINE
  5
   33C
  8
0
  6
CONTINUOUS
 62
     3
 10
-330.833869635424
 20
119.042540747681
 30
0.0
 11
-330.833869635424
 21
136.805027629012
 31
0.0
  0
LINE
  5
   33D
  8
0
  6
CONTINUOUS
 62
     3
 10
-328.313870746454
 20
119.042540747681
 30
0.0
 11
-328.313870746454
 21
136.805027629012
 31
0.0
  0
LINE
  5
   33E
  8
0
  6
CONTINUOUS
 62
     3
 10
-327.38761472845
 20
128.842531322248
 30
0.0
 11
-376.315120914263
 21
128.842531322248
 31
0.0
  0
LINE
  5
   33F
  8
0
  6
CONTINUOUS
 62
     3
 10
-327.351365479249
 20
128.842535302762
 30
0.0
 11
-327.479507261735
 21
128.842535302762
 31
0.0
  0
LINE
  5
   340
  8
0
  6
CONTINUOUS
 62
     3
 10
-327.701365416309
 20
128.842531322248
 30
0.0
 11
-327.701365416309
 21
129.192531295426
 31
0.0
  0
LINE
  5
   341
  8
0
  6
CONTINUOUS
 62
     3
 10
-376.315120914262
 20
128.842531322248
 30
0.0
 11
-376.351364587804
 21
128.842531322248
 31
0.0
  0
LINE
  5
   342
  8
0
  6
CONTINUOUS
 62
     3
 10
-376.001364593765
 20
128.84253132225
 30
0.0
 11
-376.001364593765
 21
129.192531295428
 31
0.0
  0
ARC
  5
   343
  8
0
  6
CONTINUOUS
 62
     3
 10
-375.913874414445
 20
119.480030081395
 30
0.0
 40
0.437490505257948
 50
179.998919516826
 51
270.001341294048
  0
ARC
  5
   344
  8
0
  6
CONTINUOUS
 62
     3
 10
-327.788861146324
 20
119.480030968072
 30
0.0
 40
0.43748904916687
 50
269.998268768772
 51
360.001068590252
  0
LINE
  5
   345
  8
0
  6
CONTINUOUS
 62
     7
 10
-327.788874364959
 20
119.042540747681
 30
0.0
 11
-375.913864172396
 21
119.042540747681
 31
0.0
  0
LINE
  5
   346
  8
0
  6
CONTINUOUS
 62
   130
 10
-316.676350529194
 20
191.317523615139
 30
0.0
 11
-318.251362414949
 21
191.317523615139
 31
0.0
  0
LINE
  5
   347
  8
0
  6
CONTINUOUS
 62
   130
 10
-316.676345438957
 20
140.655017802196
 30
0.0
 11
-318.251362414949
 21
140.655017802196
 31
0.0
  0
LINE
  5
   348
  8
0
  6
CONTINUOUS
 62
   130
 10
-316.676345438957
 20
140.655017802196
 30
0.0
 11
-316.67634560585
 21
142.317515103596
 31
0.0
  0
LINE
  5
   349
  8
0
  6
CONTINUOUS
 62
   130
 10
-316.676345605851
 20
142.317513768453
 30
0.0
 11
-316.676350529194
 21
191.31752361514
 31
0.0
  0
LINE
  5
   34A
  8
0
  6
CONTINUOUS
 62
   130
 10
-316.326348615885
 20
160.867505441683
 30
0.0
 11
-316.326348282099
 21
167.867505322474
 31
0.0
  0
LINE
  5
   34B
  8
0
  6
CONTINUOUS
 62
   130
 10
-316.326348282099
 20
167.867505322474
 30
0.0
 11
-316.676347358227
 21
167.867505322474
 31
0.0
  0
LINE
  5
   34C
  8
0
  6
CONTINUOUS
 62
   130
 10
-316.326348615885
 20
160.867505441683
 30
0.0
 11
-316.676347692013
 21
160.867505441683
 31
0.0
  0
CIRCLE
  5
   34D
  8
0
  6
CONTINUOUS
 62
   130
 10
-321.401294106243
 20
155.442509576479
 30
0.0
 40
1.8374785624272
  0
LINE
  5
   34E
  8
0
  6
DASHDOT
 62
     7
 10
-321.401294106243
 20
153.255031020012
 30
0.0
 11
-321.401294106243
 21
157.629988132946
 31
0.0
  0
LINE
  5
   34F
  8
0
  6
DASHDOT
 62
     7
 10
-319.213815549776
 20
155.442509576479
 30
0.0
 11
-323.58877266271
 21
155.442509576479
 31
0.0
  0
LINE
  5
   350
  8
0
  6
CONTINUOUS
 62
   150
 10
-345.026343934519
 20
147.829991341014
 30
0.0
 11
-345.026343934519
 21
178.104990825434
 31
0.0
  0
LINE
  5
   351
  8
0
  6
CONTINUOUS
 62
   150
 10
-370.175102300117
 20
183.303767064671
 30
0.0
 11
-370.051355809536
 21
183.355031255278
 31
0.0
  0
LINE
  5
   352
  8
0
  6
CONTINUOUS
 62
   150
 10
-370.226358919464
 20
183.180024312982
 30
0.0
 11
-370.175102740459
 21
183.303770804554
 31
0.0
  0
LINE
  5
   353
  8
0
  6
CONTINUOUS
 62
   150
 10
-370.226367537958
 20
146.790319578011
 30
0.0
 11
-370.226367537958
 21
147.130457215232
 31
0.0
  0
LINE
  5
   354
  8
0
  6
CONTINUOUS
 62
   150
 10
-370.226362197382
 20
179.154989472409
 30
0.0
 11
-370.226362197382
 21
183.180016106744
 31
0.0
  0
LINE
  5
   355
  8
0
  6
CONTINUOUS
 62
   150
 10
-370.175106290153
 20
146.656257772827
 30
0.0
 11
-370.226367810142
 21
146.780001587653
 31
0.0
  0
LINE
  5
   356
  8
0
  6
CONTINUOUS
 62
   150
 10
-370.051367603952
 20
146.605023983316
 30
0.0
 11
-370.17510474905
 21
146.656258800477
 31
0.0
  0
LINE
  5
   357
  8
0
  6
CONTINUOUS
 62
   150
 10
-369.876362203343
 20
146.605023405332
 30
0.0
 11
-370.051368876083
 21
146.605023405332
 31
0.0
  0
LINE
  5
   358
  8
0
  6
CONTINUOUS
 62
   150
 10
-333.621650117244
 20
146.604645216087
 30
0.0
 11
-333.476336917711
 21
146.955445334562
 31
0.0
  0
LINE
  5
   359
  8
0
  6
CONTINUOUS
 62
   150
 10
-333.476335812907
 20
146.955445201917
 30
0.0
 11
-333.476335812907
 21
183.355460603757
 31
0.0
  0
LINE
  5
   35A
  8
0
  6
CONTINUOUS
 62
   150
 10
-333.476342385562
 20
183.18001923383
 30
0.0
 11
-333.52761191741
 21
183.303765721017
 31
0.0
  0
LINE
  5
   35B
  8
0
  6
CONTINUOUS
 62
   150
 10
-333.52761432846
 20
183.303762256831
 30
0.0
 11
-333.651360819326
 21
183.355015765372
 31
0.0
  0
LINE
  5
   35C
  8
0
  6
CONTINUOUS
 62
   150
 10
-333.651360149961
 20
183.35502683627
 30
0.0
 11
-370.051359530073
 21
183.35502683627
 31
0.0
  0
LINE
  5
   35D
  8
0
  6
CONTINUOUS
 62
     3
 10
-343.031366398914
 20
150.255690342979
 30
0.0
 11
-343.031366398914
 21
153.104268175327
 31
0.0
  0
LINE
  5
   35E
  8
0
  6
CONTINUOUS
 62
     3
 10
-342.542114916609
 20
149.693332213027
 30
0.0
 11
-343.03137041408
 21
150.255689529453
 31
0.0
  0
LINE
  5
   35F
  8
0
  6
CONTINUOUS
 62
     3
 10
-341.914477100778
 20
149.291150608533
 30
0.0
 11
-342.54210695371
 21
149.69333335815
 31
0.0
  0
LINE
  5
   360
  8
0
  6
CONTINUOUS
 62
     3
 10
-341.199100182485
 20
149.081607417626
 30
0.0
 11
-341.914481043802
 21
149.29115025175
 31
0.0
  0
LINE
  5
   361
  8
0
  6
CONTINUOUS
 62
     3
 10
-340.453667925966
 20
149.081607416196
 30
0.0
 11
-341.199100194765
 21
149.081607416196
 31
0.0
  0
LINE
  5
   362
  8
0
  6
CONTINUOUS
 62
     3
 10
-340.453668586882
 20
149.081607171315
 30
0.0
 11
-339.738287735398
 21
149.291147350594
 31
0.0
  0
LINE
  5
   363
  8
0
  6
CONTINUOUS
 62
     3
 10
-339.738279799593
 20
149.291151473573
 30
0.0
 11
-339.110644597561
 21
149.693334255067
 31
0.0
  0
LINE
  5
   364
  8
0
  6
CONTINUOUS
 62
     3
 10
-339.110655743516
 20
149.693327589875
 30
0.0
 11
-338.621384188567
 21
150.255719626813
 31
0.0
  0
LINE
  5
   365
  8
0
  6
CONTINUOUS
 62
     3
 10
-338.621380358668
 20
150.25572238326
 30
0.0
 11
-338.621364336941
 21
153.104284194478
 31
0.0
  0
LINE
  5
   366
  8
0
  6
CONTINUOUS
 62
     3
 10
-338.621365338165
 20
153.104283954833
 30
0.0
 11
-339.110636886023
 21
153.666662642514
 31
0.0
  0
LINE
  5
   367
  8
0
  6
CONTINUOUS
 62
     3
 10
-339.110630230051
 20
153.666663678531
 30
0.0
 11
-339.738265432083
 21
154.068846460024
 31
0.0
  0
LINE
  5
   368
  8
0
  6
CONTINUOUS
 62
     3
 10
-339.73826886512
 20
154.068846011817
 30
0.0
 11
-340.453644351647
 21
154.278386180803
 31
0.0
  0
LINE
  5
   369
  8
0
  6
CONTINUOUS
 62
     3
 10
-340.453646563662
 20
154.278385815854
 30
0.0
 11
-341.199084173037
 21
154.278385815854
 31
0.0
  0
LINE
  5
   36A
  8
0
  6
CONTINUOUS
 62
     3
 10
-341.914457181797
 20
154.068846676561
 30
0.0
 11
-341.19908169527
 21
154.278386845547
 31
0.0
  0
LINE
  5
   36B
  8
0
  6
CONTINUOUS
 62
     3
 10
-342.542087785275
 20
153.666667080859
 30
0.0
 11
-341.914452583243
 21
154.068849862352
 31
0.0
  0
LINE
  5
   36C
  8
0
  6
CONTINUOUS
 62
     3
 10
-343.031370445428
 20
153.10426496754
 30
0.0
 11
-342.542098908923
 21
153.666659670643
 31
0.0
  0
LINE
  5
   36D
  8
0
  6
CONTINUOUS
 62
     3
 10
-344.326343943938
 20
179.154994813087
 30
0.0
 11
-333.476344128712
 21
179.15501617539
 31
0.0
  0
LINE
  5
   36E
  8
0
  6
CONTINUOUS
 62
     3
 10
-333.476344131215
 20
182.655016115684
 30
0.0
 11
-370.22636486767
 21
182.655016115684
 31
0.0
  0
LINE
  5
   36F
  8
0
  6
CONTINUOUS
 62
     3
 10
-337.499802024536
 20
176.617470898322
 30
0.0
 11
-337.539765553839
 21
176.818383368856
 31
0.0
  0
LINE
  5
   370
  8
0
  6
CONTINUOUS
 62
     3
 10
-337.539763536748
 20
176.818386752014
 30
0.0
 11
-337.653565878167
 21
176.988708403969
 31
0.0
  0
LINE
  5
   371
  8
0
  6
CONTINUOUS
 62
     3
 10
-337.653567762208
 20
176.988706867003
 30
0.0
 11
-337.823894757176
 21
177.102509198474
 31
0.0
  0
LINE
  5
   372
  8
0
  6
CONTINUOUS
 62
     3
 10
-337.823898277998
 20
177.102507868454
 30
0.0
 11
-338.024805405312
 21
177.142471398778
 31
0.0
  0
LINE
  5
   373
  8
0
  6
CONTINUOUS
 62
     3
 10
-338.225713475857
 20
177.102506842527
 30
0.0
 11
-338.024806348543
 21
177.142470372851
 31
0.0
  0
LINE
  5
   374
  8
0
  6
CONTINUOUS
 62
     3
 10
-338.396027910973
 20
176.988708806993
 30
0.0
 11
-338.225706259018
 21
177.102511148413
 31
0.0
  0
LINE
  5
   375
  8
0
  6
CONTINUOUS
 62
     3
 10
-338.509836837926
 20
176.818386259884
 30
0.0
 11
-338.396029163401
 21
176.988707908596
 31
0.0
  0
LINE
  5
   376
  8
0
  6
CONTINUOUS
 62
     3
 10
-338.549802540844
 20
176.617470288042
 30
0.0
 11
-338.50983901154
 21
176.818382758576
 31
0.0
  0
LINE
  5
   377
  8
0
  6
CONTINUOUS
 62
     3
 10
-338.549800618301
 20
175.567473511775
 30
0.0
 11
-338.549800618301
 21
176.617473493894
 31
0.0
  0
LINE
  5
   378
  8
0
  6
CONTINUOUS
 62
     3
 10
-338.509839373458
 20
175.366562143504
 30
0.0
 11
-338.549802903782
 21
175.567469270818
 31
0.0
  0
LINE
  5
   379
  8
0
  6
CONTINUOUS
 62
     3
 10
-338.396029283612
 20
175.196244881879
 30
0.0
 11
-338.509836958137
 21
175.366566530592
 31
0.0
  0
LINE
  5
   37A
  8
0
  6
CONTINUOUS
 62
     3
 10
-338.225707575421
 20
175.082437155132
 30
0.0
 11
-338.396029224133
 21
175.196244829658
 31
0.0
  0
LINE
  5
   37B
  8
0
  6
CONTINUOUS
 62
     3
 10
-338.024805409587
 20
175.042471538895
 30
0.0
 11
-338.225712536901
 21
175.082435069219
 31
0.0
  0
LINE
  5
   37C
  8
0
  6
CONTINUOUS
 62
     3
 10
-338.024806344268
 20
175.042470512968
 30
0.0
 11
-337.823899216954
 21
175.082434043292
 31
0.0
  0
LINE
  5
   37D
  8
0
  6
CONTINUOUS
 62
     3
 10
-337.823893033839
 20
175.082437408471
 30
0.0
 11
-337.653566042143
 21
175.196245085302
 31
0.0
  0
LINE
  5
   37E
  8
0
  6
CONTINUOUS
 62
     3
 10
-337.653565274628
 20
175.196246137234
 30
0.0
 11
-337.539762933209
 21
175.366567789189
 31
0.0
  0
LINE
  5
   37F
  8
0
  6
CONTINUOUS
 62
     3
 10
-337.539767427988
 20
175.36656112104
 30
0.0
 11
-337.499803897664
 21
175.567468248354
 31
0.0
  0
LINE
  5
   380
  8
0
  6
CONTINUOUS
 62
     3
 10
-337.499800636182
 20
175.567473511775
 30
0.0
 11
-337.499800636182
 21
176.617473493894
 31
0.0
  0
LINE
  5
   381
  8
0
  6
CONTINUOUS
 62
     3
 10
-337.50134406267
 20
168.042481650789
 30
0.0
 11
-338.551344044788
 21
168.042481650789
 31
0.0
  0
LINE
  5
   382
  8
0
  6
CONTINUOUS
 62
     3
 10
-338.551344044788
 20
158.592481811722
 30
0.0
 11
-338.551344044788
 21
168.042481650789
 31
0.0
  0
LINE
  5
   383
  8
0
  6
CONTINUOUS
 62
     3
 10
-337.50134406267
 20
158.592481811722
 30
0.0
 11
-338.551344044788
 21
158.592481811722
 31
0.0
  0
LINE
  5
   384
  8
0
  6
CONTINUOUS
 62
     3
 10
-337.50134406267
 20
158.592481811722
 30
0.0
 11
-337.50134406267
 21
168.042481650789
 31
0.0
  0
LINE
  5
   385
  8
0
  6
CONTINUOUS
 62
     3
 10
-344.32634394644
 20
179.154989472409
 30
0.0
 11
-369.001372899396
 21
179.154989472409
 31
0.0
  0
LINE
  5
   386
  8
0
  6
CONTINUOUS
 62
   150
 10
-345.376343928559
 20
178.454989484329
 30
0.0
 11
-369.001372899396
 21
178.454989484329
 31
0.0
  0
LINE
  5
   387
  8
0
  6
CONTINUOUS
 62
   150
 10
-345.026344699825
 20
178.104988567463
 30
0.0
 11
-345.376344681884
 21
178.454988549523
 31
0.0
  0
LINE
  5
   388
  8
0
  6
CONTINUOUS
 62
   150
 10
-369.351372411809
 20
178.104990618592
 30
0.0
 11
-369.248860053757
 21
178.352478254802
 31
0.0
  0
LINE
  5
   389
  8
0
  6
CONTINUOUS
 62
   150
 10
-369.248859870988
 20
178.352477863159
 30
0.0
 11
-369.001372234778
 21
178.454990221211
 31
0.0
  0
LINE
  5
   38A
  8
0
  6
CONTINUOUS
 62
     3
 10
-369.001372888179
 20
179.154989472909
 30
0.0
 11
-370.226363521381
 21
179.154994813485
 31
0.0
  0
LINE
  5
   38B
  8
0
  6
CONTINUOUS
 62
   150
 10
-370.226365716461
 20
147.130457215232
 30
0.0
 11
-370.226365716461
 21
179.330440645141
 31
0.0
  0
LINE
  5
   38C
  8
0
  6
CONTINUOUS
 62
   150
 10
-345.128855626041
 20
147.582504310791
 30
0.0
 11
-345.026343267989
 21
147.829991947
 31
0.0
  0
LINE
  5
   38D
  8
0
  6
CONTINUOUS
 62
   150
 10
-345.376342901312
 20
147.479991790425
 30
0.0
 11
-345.128855265102
 21
147.582504148478
 31
0.0
  0
LINE
  5
   38E
  8
0
  6
CONTINUOUS
 62
   150
 10
-345.376343928559
 20
147.479991346975
 30
0.0
 11
-369.001372899396
 21
147.479991346975
 31
0.0
  0
LINE
  5
   38F
  8
0
  6
CONTINUOUS
 62
   150
 10
-369.001372515452
 20
147.479991520217
 30
0.0
 11
-369.248860151661
 21
147.58250387827
 31
0.0
  0
LINE
  5
   390
  8
0
  6
CONTINUOUS
 62
   150
 10
-369.248860332379
 20
147.582504042635
 30
0.0
 11
-369.351372690431
 21
147.829991678844
 31
0.0
  0
LINE
  5
   391
  8
0
  6
CONTINUOUS
 62
   150
 10
-369.351372893436
 20
147.829991341014
 30
0.0
 11
-369.351372893436
 21
178.104990825434
 31
0.0
  0
LINE
  5
   392
  8
0
  6
CONTINUOUS
 62
   150
 10
-355.61385176508
 20
154.017346467883
 30
0.0
 11
-355.61385176508
 21
168.639339093017
 31
0.0
  0
LINE
  5
   393
  8
0
  6
CONTINUOUS
 62
   150
 10
-348.08885189323
 20
154.017346467883
 30
0.0
 11
-348.08885189323
 21
168.639339093017
 31
0.0
  0
LINE
  5
   394
  8
0
  6
CONTINUOUS
 62
     3
 10
-335.226338760836
 20
156.027128080385
 30
0.0
 11
-335.926338748916
 21
156.027128080385
 31
0.0
  0
LINE
  5
   395
  8
0
  6
CONTINUOUS
 62
     3
 10
-336.050076913397
 20
155.975875808672
 30
0.0
 11
-335.926330421825
 21
156.027131987677
 31
0.0
  0
LINE
  5
   396
  8
0
  6
CONTINUOUS
 62
     3
 10
-336.101338979357
 20
155.852127850899
 30
0.0
 11
-336.05008547076
 21
155.975871666629
 31
0.0
  0
LINE
  5
   397
  8
0
  6
CONTINUOUS
 62
     3
 10
-336.101338745935
 20
152.00212814893
 30
0.0
 11
-336.101338745935
 21
155.852128083365
 31
0.0
  0
LINE
  5
   398
  8
0
  6
CONTINUOUS
 62
     3
 10
-336.050085410248
 20
151.878384245417
 30
0.0
 11
-336.101338918845
 21
152.002128061148
 31
0.0
  0
LINE
  5
   399
  8
0
  6
CONTINUOUS
 62
     3
 10
-335.92633183348
 20
151.827128822166
 30
0.0
 11
-336.050078325052
 21
151.878385001171
 31
0.0
  0
LINE
  5
   39A
  8
0
  6
CONTINUOUS
 62
     3
 10
-335.226338760836
 20
151.827128151911
 30
0.0
 11
-335.926338748916
 21
151.827128151911
 31
0.0
  0
LINE
  5
   39B
  8
0
  6
CONTINUOUS
 62
     3
 10
-334.701338769777
 20
151.827128151911
 30
0.0
 11
-335.226338760836
 21
151.827128151911
 31
0.0
  0
LINE
  5
   39C
  8
0
  6
CONTINUOUS
 62
     3
 10
-334.701344648932
 20
151.827125634297
 30
0.0
 11
-334.57760350428
 21
151.878381813309
 31
0.0
  0
LINE
  5
   39D
  8
0
  6
CONTINUOUS
 62
     3
 10
-334.577595733106
 20
151.878386031115
 30
0.0
 11
-334.526336883616
 21
152.002129851579
 31
0.0
  0
LINE
  5
   39E
  8
0
  6
CONTINUOUS
 62
     3
 10
-334.526338772757
 20
152.00212814893
 30
0.0
 11
-334.526338772757
 21
155.852128083365
 31
0.0
  0
LINE
  5
   39F
  8
0
  6
CONTINUOUS
 62
     3
 10
-334.526337370923
 20
155.852128943694
 30
0.0
 11
-334.577596220414
 21
155.975872764158
 31
0.0
  0
LINE
  5
   3A0
  8
0
  6
CONTINUOUS
 62
     3
 10
-334.577602515967
 20
155.975871214271
 30
0.0
 11
-334.701343660619
 21
156.027127393284
 31
0.0
  0
LINE
  5
   3A1
  8
0
  6
CONTINUOUS
 62
     3
 10
-334.701338769777
 20
156.027128080385
 30
0.0
 11
-335.226338760836
 21
156.027128080385
 31
0.0
  0
LINE
  5
   3A2
  8
0
  6
CONTINUOUS
 62
   150
 10
-345.026359956248
 20
169.880442141217
 30
0.0
 11
-345.026359956248
 21
170.230442135257
 31
0.0
  0
LINE
  5
   3A3
  8
0
  6
CONTINUOUS
 62
     3
 10
-345.026359956248
 20
170.054997638245
 30
0.0
 11
-369.351375563724
 21
170.054997638245
 31
0.0
  0
LINE
  5
   3A4
  8
0
  6
CONTINUOUS
 62
     3
 10
-345.026359956248
 20
169.704997644205
 30
0.0
 11
-369.351375563724
 21
169.704997644205
 31
0.0
  0
LINE
  5
   3A5
  8
0
  6
CONTINUOUS
 62
   150
 10
-345.026359956248
 20
152.73044243328
 30
0.0
 11
-345.026359956248
 21
153.08044242732
 31
0.0
  0
LINE
  5
   3A6
  8
0
  6
CONTINUOUS
 62
     3
 10
-345.026359956248
 20
152.904997930307
 30
0.0
 11
-369.351375563724
 21
152.904997930307
 31
0.0
  0
LINE
  5
   3A7
  8
0
  6
CONTINUOUS
 62
     3
 10
-345.026359956248
 20
152.554997936268
 30
0.0
 11
-369.351375563724
 21
152.554997936268
 31
0.0
  0
LINE
  5
   3A8
  8
0
  6
CONTINUOUS
 62
     3
 10
-355.613862446232
 20
165.504997715731
 30
0.0
 11
-369.351375563724
 21
165.504997715731
 31
0.0
  0
LINE
  5
   3A9
  8
0
  6
CONTINUOUS
 62
     3
 10
-355.613862446232
 20
165.154997721691
 30
0.0
 11
-369.351375563724
 21
165.154997721691
 31
0.0
  0
LINE
  5
   3AA
  8
0
  6
CONTINUOUS
 62
     3
 10
-355.61386511652
 20
157.454997852821
 30
0.0
 11
-369.351375563724
 21
157.454997852821
 31
0.0
  0
LINE
  5
   3AB
  8
0
  6
CONTINUOUS
 62
     3
 10
-355.61386511652
 20
157.104997858782
 30
0.0
 11
-369.351375563724
 21
157.104997858782
 31
0.0
  0
LINE
  5
   3AC
  8
0
  6
CONTINUOUS
 62
   150
 10
-345.026359956248
 20
165.330442218703
 30
0.0
 11
-345.026359956248
 21
165.680442212743
 31
0.0
  0
LINE
  5
   3AD
  8
0
  6
CONTINUOUS
 62
     3
 10
-345.026359956248
 20
165.504997715731
 30
0.0
 11
-348.08885189323
 21
165.504997715731
 31
0.0
  0
LINE
  5
   3AE
  8
0
  6
CONTINUOUS
 62
     3
 10
-345.026359956248
 20
165.154997721691
 30
0.0
 11
-348.08885189323
 21
165.154997721691
 31
0.0
  0
LINE
  5
   3AF
  8
0
  6
CONTINUOUS
 62
   150
 10
-345.026359956248
 20
157.280442355794
 30
0.0
 11
-345.026359956248
 21
157.630442349834
 31
0.0
  0
LINE
  5
   3B0
  8
0
  6
CONTINUOUS
 62
     3
 10
-345.026359956248
 20
157.454997852821
 30
0.0
 11
-348.088854563518
 21
157.454997852821
 31
0.0
  0
LINE
  5
   3B1
  8
0
  6
CONTINUOUS
 62
     3
 10
-345.026359956248
 20
157.104997858782
 30
0.0
 11
-348.088854563518
 21
157.104997858782
 31
0.0
  0
LINE
  5
   3B2
  8
0
  6
CONTINUOUS
 62
   150
 10
-333.621650117244
 20
146.604645216087
 30
0.0
 11
-370.052605206001
 21
146.605530766004
 31
0.0
  0
LINE
  5
   3B3
  8
0
  6
CONTINUOUS
 62
   150
 10
-348.08885189323
 20
168.485052520327
 30
0.0
 11
-355.61385176508
 21
168.485052520327
 31
0.0
  0
LINE
  5
   3B4
  8
0
  6
CONTINUOUS
 62
   150
 10
-348.08885189323
 20
168.639339093017
 30
0.0
 11
-355.61385176508
 21
168.639339093017
 31
0.0
  0
LINE
  5
   3B5
  8
0
  6
CONTINUOUS
 62
   150
 10
-348.08885189323
 20
154.192790964895
 30
0.0
 11
-355.61385176508
 21
154.192790964895
 31
0.0
  0
LINE
  5
   3B6
  8
0
  6
CONTINUOUS
 62
   150
 10
-348.08885189323
 20
154.251803098412
 30
0.0
 11
-355.61385176508
 21
154.251803098412
 31
0.0
  0
LINE
  5
   3B7
  8
0
  6
DASHDOT
 62
     3
 10
-311.329759678457
 20
164.980027149195
 30
0.0
 11
-400.042428474645
 21
164.980027149195
 31
0.0
  0
INSERT
  5
   3B8
  8
255
  6
CONTINUOUS
 62
     7
  2
MOSTRA
 10
-392.044772413138
 20
140.808067111622
 30
0.0
 41
0.349999994039536
 42
0.349999994039536
 50
359.999999792138
 43
0.349999994039536
  0
LINE
  5
   3B9
  8
0
  6
CONTINUOUS
 62
     3
 10
-374.933864878973
 20
193.152821011456
 30
0.0
 11
-374.933864878973
 21
209.692496719357
 31
0.0
  0
LINE
  5
   3BA
  8
0
  6
CONTINUOUS
 62
     3
 10
-373.673864766917
 20
193.152821011456
 30
0.0
 11
-373.673864766917
 21
209.692496719357
 31
0.0
  0
LINE
  5
   3BB
  8
0
  6
CONTINUOUS
 62
     3
 10
-372.413864988646
 20
193.152821011456
 30
0.0
 11
-372.413864988646
 21
209.692496719357
 31
0.0
  0
LINE
  5
   3BC
  8
0
  6
CONTINUOUS
 62
     3
 10
-371.153864876589
 20
193.152821011456
 30
0.0
 11
-371.153864876589
 21
209.692496719357
 31
0.0
  0
LINE
  5
   3BD
  8
0
  6
CONTINUOUS
 62
     3
 10
-332.093866409621
 20
193.152821011456
 30
0.0
 11
-332.093866409621
 21
209.692496719357
 31
0.0
  0
LINE
  5
   3BE
  8
0
  6
CONTINUOUS
 62
     3
 10
-330.833869635424
 20
193.152821011456
 30
0.0
 11
-330.833869635424
 21
209.692496719357
 31
0.0
  0
LINE
  5
   3BF
  8
0
  6
CONTINUOUS
 62
     3
 10
-329.573867520651
 20
193.152821011456
 30
0.0
 11
-329.573867520651
 21
209.692496719357
 31
0.0
  0
LINE
  5
   3C0
  8
0
  6
CONTINUOUS
 62
     3
 10
-328.313870746454
 20
193.152821011456
 30
0.0
 11
-328.313870746454
 21
209.692496719357
 31
0.0
  0
LINE
  5
   3C1
  8
0
  6
DOT
 62
     1
 10
-318.251362414949
 20
191.317523615139
 30
0.0
 11
-327.351355771422
 21
191.317523615139
 31
0.0
  0
LINE
  5
   3C2
  8
0
  6
DOT
 62
     1
 10
-318.251362414949
 20
140.655017802196
 30
0.0
 11
-327.351362927549
 21
140.655017802196
 31
0.0
  0
LINE
  5
   3C3
  8
0
  6
CONTINUOUS
 62
   210
 10
-328.576352228661
 20
211.617496686574
 30
0.0
 11
-375.126343206636
 21
211.617496686574
 31
0.0
  0
LINE
  5
   3C4
  8
0
  6
CONTINUOUS
 62
   210
 10
-328.226352234622
 20
209.692496719357
 30
0.0
 11
-328.226352234622
 21
211.267496692535
 31
0.0
  0
LINE
  5
   3C5
  8
0
  6
CONTINUOUS
 62
   210
 10
-375.476343200676
 20
209.692496719357
 30
0.0
 11
-375.476343200676
 21
211.267496692535
 31
0.0
  0
ARC
  5
   3C6
  8
0
  6
CONTINUOUS
 62
   210
 10
-375.126343206636
 20
211.267496692535
 30
0.0
 40
0.349999994039536
 50
89.9999999480344
 51
179.999999948034
  0
ARC
  5
   3C7
  8
0
  6
CONTINUOUS
 62
   210
 10
-328.576352228661
 20
211.267496692535
 30
0.0
 40
0.349999994039536
 50
359.999999948034
 51
449.999999948034
  0
LINE
  5
   3C8
  8
0
  6
DASHDOT
 62
     7
 10
-351.851343603007
 20
99.1924729914141
 30
0.0
 11
-351.851343603007
 21
107.306025232855
 31
0.0
  0
LINE
  5
   3C9
  8
0
  6
CONTINUOUS
 62
   210
 10
-375.476343200676
 20
117.467540774503
 30
0.0
 11
-375.476343200676
 21
119.042540747681
 31
0.0
  0
ARC
  5
   3CA
  8
0
  6
CONTINUOUS
 62
   210
 10
-375.126343206636
 20
117.467540774503
 30
0.0
 40
0.349999994039536
 50
179.999999948034
 51
269.999999948034
  0
LINE
  5
   3CB
  8
0
  6
CONTINUOUS
 62
   210
 10
-328.576352228661
 20
117.117540780463
 30
0.0
 11
-375.126343206636
 21
117.117540780463
 31
0.0
  0
ARC
  5
   3CC
  8
0
  6
CONTINUOUS
 62
   210
 10
-328.576352228661
 20
117.467540774503
 30
0.0
 40
0.349999994039536
 50
269.999999948034
 51
359.999999948034
  0
LINE
  5
   3CD
  8
0
  6
CONTINUOUS
 62
   210
 10
-328.226352234622
 20
117.467540774503
 30
0.0
 11
-328.226352234622
 21
119.042540747681
 31
0.0
  0
LINE
  5
   3CE
  8
0
  6
DASHDOT
 62
     3
 10
-351.851315196134
 20
101.892509942593
 30
0.0
 11
-351.851315196134
 21
107.842583821922
 31
0.0
  0
INSERT
  5
   3CF
  8
0
  6
CONTINUOUS
 62
     7
  2
*UDIM789
 10
0.0
 20
0.0
 30
0.0
  0
INSERT
  5
   3D0
  8
0
  6
CONTINUOUS
 62
     7
  2
*UDIM790
 10
0.0
 20
0.0
 30
0.0
  0
INSERT
  5
   3D1
  8
0
  6
CONTINUOUS
 62
     7
  2
*UDIM791
 10
0.0
 20
0.0
 30
0.0
  0
TEXT
  5
   3D2
  8
0
  6
CONTINUOUS
 62
     3
 10
-379.920580768126
 20
155.601972854185
 30
0.0
 40
2.99999997871263
  1
=     =
 50
89.9999999480344
 41
0.91666663951344
 72
     2
 11
-379.920580751189
 21
174.301972184059
 31
0.0
  0
INSERT
  5
   3D3
  8
0
  6
CONTINUOUS
 62
     3
  2
*UDIM792
 10
0.0
 20
0.0
 30
0.0
  0
INSERT
  5
   3D4
  8
0
  6
CONTINUOUS
 62
     7
  2
*UDIM793
 10
0.0
 20
0.0
 30
0.0
  0
INSERT
  5
   3D5
  8
0
  6
CONTINUOUS
 62
     7
  2
*UDIM794
 10
0.0
 20
0.0
 30
0.0
  0
INSERT
  5
   3D6
  8
0
  6
CONTINUOUS
 62
     5
  2
*UDIM795
 10
0.0
 20
0.0
 30
0.0
  0
INSERT
  5
   3D7
  8
0
  6
CONTINUOUS
 62
     7
  2
*UDIM796
 10
0.0
 20
0.0
 30
0.0
  0
INSERT
  5
   3D8
  8
0
  6
CONTINUOUS
 62
     7
  2
*UDIM797
 10
0.0
 20
0.0
 30
0.0
  0
TEXT
  5
   3D9
  8
0
  6
CONTINUOUS
 62
     7
 10
-351.280194310128
 20
95.5317115885226
 30
0.0
 40
2.99999997871263
  1
Y
 50
359.999999948034
 41
0.91666663951344
 72
     2
 11
-349.080194374416
 21
95.5317115865383
 31
0.0
  0
TEXT
  5
   3DA
  8
0
  6
CONTINUOUS
 62
     7
 10
-402.764247941955
 20
166.926044401938
 30
0.0
 40
2.99999997871263
  1
X
 50
359.999999948034
 41
0.91666663951344
 72
     1
 11
-401.664247972746
 21
168.426044390303
 31
0.0
 73
     2
  0
TEXT
  5
   3DB
  8
0
  6
CONTINUOUS
 62
     7
 10
-350.111324110235
 20
215.177366898705
 30
0.0
 40
2.99999997871263
  1
Y
 50
359.999999948034
 41
0.91666663951344
 72
     1
 11
-349.011324141026
 21
216.677366887069
 31
0.0
 73
     2
  0
LINE
  5
   3DC
  8
0
  6
DASHDOT
 62
     3
 10
-459.949770153022
 20
164.980028641301
 30
0.0
 11
-550.733650207809
 21
164.980028641301
 31
0.0
  0
LINE
  5
   3DD
  8
0
  6
CONTINUOUS
 62
     5
 10
-485.534355002642
 20
209.692511858123
 30
0.0
 11
-520.00934907496
 21
209.692511858123
 31
0.0
  0
LINE
  5
   3DE
  8
0
  6
CONTINUOUS
 62
     5
 10
-520.359349068999
 20
200.592523975974
 30
0.0
 11
-520.359349068999
 21
209.342511864084
 31
0.0
  0
ARC
  5
   3DF
  8
0
  6
CONTINUOUS
 62
     5
 10
-520.00934907496
 20
209.342511864084
 30
0.0
 40
0.349999994039536
 50
89.9999999480344
 51
179.999999948034
  0
LINE
  5
   3E0
  8
0
  6
CONTINUOUS
 62
     5
 10
-520.00934907496
 20
200.242523981934
 30
0.0
 11
-520.00934907496
 21
200.592523975974
 31
0.0
  0
LINE
  5
   3E1
  8
0
  6
CONTINUOUS
 62
     5
 10
-520.00934907496
 20
200.592523975974
 30
0.0
 11
-520.359349068999
 21
200.592523975974
 31
0.0
  0
LINE
  5
   3E2
  8
0
  6
CONTINUOUS
 62
     5
 10
-485.534354668855
 20
119.042536045914
 30
0.0
 11
-520.00934907496
 21
119.042536045914
 31
0.0
  0
LINE
  5
   3E3
  8
0
  6
CONTINUOUS
 62
     5
 10
-520.359349068999
 20
119.392536039954
 30
0.0
 11
-520.359349068999
 21
127.967530553346
 31
0.0
  0
ARC
  5
   3E4
  8
0
  6
CONTINUOUS
 62
     5
 10
-520.00934907496
 20
119.392536039954
 30
0.0
 40
0.349999994039536
 50
179.999999948034
 51
269.999999948034
  0
LINE
  5
   3E5
  8
0
  6
CONTINUOUS
 62
     5
 10
-520.00934907496
 20
127.967530553346
 30
0.0
 11
-520.359349068999
 21
127.967530553346
 31
0.0
  0
LINE
  5
   3E6
  8
0
  6
CONTINUOUS
 62
     5
 10
-520.00934907496
 20
127.967530553346
 30
0.0
 11
-520.00934907496
 21
128.317530547385
 31
0.0
  0
LINE
  5
   3E7
  8
0
  6
CONTINUOUS
 62
     2
 10
-485.534322959023
 20
193.767496107596
 30
0.0
 11
-485.534322959023
 21
200.982614392927
 31
0.0
  0
LINE
  5
   3E8
  8
0
  6
CONTINUOUS
 62
     7
 10
-509.509343913198
 20
200.067496000308
 30
0.0
 11
-510.734343892336
 21
200.067496000308
 31
0.0
  0
LINE
  5
   3E9
  8
0
  6
CONTINUOUS
 62
     7
 10
-509.509306528916
 20
193.942493052891
 30
0.0
 11
-509.509306528916
 21
200.067492948583
 31
0.0
  0
LINE
  5
   3EA
  8
0
  6
CONTINUOUS
 62
     7
 10
-485.534344321489
 20
194.642496092695
 30
0.0
 11
-486.934344297647
 21
194.642496092695
 31
0.0
  0
LINE
  5
   3EB
  8
0
  6
CONTINUOUS
 62
     7
 10
-486.934345187615
 20
194.64249164893
 30
0.0
 11
-486.93437874428
 21
207.837512103325
 31
0.0
  0
LINE
  5
   3EC
  8
0
  6
CONTINUOUS
 62
     2
 10
-485.359355005622
 20
193.767496107596
 30
0.0
 11
-485.534344321489
 21
193.767496107596
 31
0.0
  0
LINE
  5
   3ED
  8
0
  6
CONTINUOUS
 62
     2
 10
-484.834355014562
 20
199.367496012229
 30
0.0
 11
-485.534355002642
 21
199.367496012229
 31
0.0
  0
LINE
  5
   3EE
  8
0
  6
CONTINUOUS
 62
     2
 10
-484.834355014562
 20
203.217495946664
 30
0.0
 11
-485.534355002642
 21
203.217495946664
 31
0.0
  0
LINE
  5
   3EF
  8
0
  6
CONTINUOUS
 62
     2
 10
-484.834355014562
 20
202.276571890422
 30
0.0
 11
-485.534355002642
 21
202.276571890422
 31
0.0
  0
LINE
  5
   3F0
  8
0
  6
CONTINUOUS
 62
     2
 10
-484.834355014562
 20
200.982614392927
 30
0.0
 11
-485.534355002642
 21
200.982614392927
 31
0.0
  0
LINE
  5
   3F1
  8
0
  6
CONTINUOUS
 62
     7
 10
-510.734343892336
 20
199.89250262559
 30
0.0
 11
-510.734343892336
 21
200.242507960206
 31
0.0
  0
LINE
  5
   3F2
  8
0
  6
CONTINUOUS
 62
     7
 10
-518.504342691898
 20
200.242507960206
 30
0.0
 11
-518.609343758225
 21
200.242507960206
 31
0.0
  0
LINE
  5
   3F3
  8
0
  6
CONTINUOUS
 62
     7
 10
-509.684343910217
 20
199.892513306742
 30
0.0
 11
-510.734343892336
 21
199.892513306742
 31
0.0
  0
LINE
  5
   3F4
  8
0
  6
CONTINUOUS
 62
     7
 10
-509.684343910217
 20
191.317506830472
 30
0.0
 11
-509.684343910217
 21
199.892513306742
 31
0.0
  0
LINE
  5
   3F5
  8
0
  6
CONTINUOUS
 62
     7
 10
-518.504332010746
 20
191.317506830472
 30
0.0
 11
-518.504332010746
 21
200.242503580731
 31
0.0
  0
LINE
  5
   3F6
  8
0
  6
CONTINUOUS
 62
     2
 10
-485.534322959023
 20
207.837512103325
 30
0.0
 11
-518.504348032474
 21
207.837512103325
 31
0.0
  0
LINE
  5
   3F7
  8
0
  6
CONTINUOUS
 62
     2
 10
-518.504310648437
 20
200.242505548368
 30
0.0
 11
-518.504310648437
 21
207.837509691487
 31
0.0
  0
LINE
  5
   3F8
  8
0
  6
CONTINUOUS
 62
     7
 10
-510.734343892336
 20
200.242513300782
 30
0.0
 11
-510.734343892336
 21
207.837512103325
 31
0.0
  0
LINE
  5
   3F9
  8
0
  6
CONTINUOUS
 62
     7
 10
-520.359349068999
 20
140.917535673385
 30
0.0
 11
-520.359349068999
 21
142.317499654073
 31
0.0
  0
LINE
  5
   3FA
  8
0
  6
CONTINUOUS
 62
     7
 10
-520.359349068999
 20
191.317506830472
 30
0.0
 11
-520.359349068999
 21
200.242523981934
 31
0.0
  0
LINE
  5
   3FB
  8
0
  6
CONTINUOUS
 62
     7
 10
-518.609349098801
 20
200.242523981934
 30
0.0
 11
-520.359349068999
 21
200.242523981934
 31
0.0
  0
LINE
  5
   3FC
  8
0
  6
CONTINUOUS
 62
     7
 10
-518.609349098801
 20
140.917535673385
 30
0.0
 11
-520.359349068999
 21
140.917535673385
 31
0.0
  0
LINE
  5
   3FD
  8
0
  6
CONTINUOUS
 62
   218
 10
-485.534354668855
 20
120.897535747295
 30
0.0
 11
-518.504347698688
 21
120.897535747295
 31
0.0
  0
LINE
  5
   3FE
  8
0
  6
CONTINUOUS
 62
   218
 10
-518.50435050205
 20
129.71753052323
 30
0.0
 11
-518.609349098486
 21
129.717531755651
 31
0.0
  0
LINE
  5
   3FF
  8
0
  6
CONTINUOUS
 62
   218
 10
-518.50435337305
 20
128.317530547385
 30
0.0
 11
-520.00934907496
 21
128.317530547385
 31
0.0
  0
LINE
  5
   400
  8
0
  6
CONTINUOUS
 62
   218
 10
-518.50435337305
 20
120.897537082439
 30
0.0
 11
-518.50435337305
 21
129.71753586412
 31
0.0
  0
LINE
  5
   401
  8
0
  6
CONTINUOUS
 62
   218
 10
-518.50435337305
 20
129.71753586412
 30
0.0
 11
-518.50435337305
 21
140.917501013059
 31
0.0
  0
LINE
  5
   402
  8
0
  6
CONTINUOUS
 62
     7
 10
-518.50435337305
 20
140.567535679345
 30
0.0
 11
-518.609349098801
 21
140.567535679345
 31
0.0
  0
LINE
  5
   403
  8
0
  6
CONTINUOUS
 62
   218
 10
-484.834355014449
 20
131.817530488127
 30
0.0
 11
-485.534354668726
 21
131.817535828703
 31
0.0
  0
LINE
  5
   404
  8
0
  6
CONTINUOUS
 62
   218
 10
-485.534354668855
 20
119.042536045914
 30
0.0
 11
-485.534354668855
 21
131.817530487781
 31
0.0
  0
LINE
  5
   405
  8
0
  6
CONTINUOUS
 62
   218
 10
-484.834355014562
 20
128.055030551856
 30
0.0
 11
-485.534355002642
 21
128.055030551856
 31
0.0
  0
LINE
  5
   406
  8
0
  6
CONTINUOUS
 62
   218
 10
-484.834355014562
 20
125.00387365382
 30
0.0
 11
-485.534355002641
 21
125.00387365382
 31
0.0
  0
LINE
  5
   407
  8
0
  6
CONTINUOUS
 62
   218
 10
-484.834355014562
 20
125.862419657799
 30
0.0
 11
-485.534355002642
 21
125.862419657799
 31
0.0
  0
LINE
  5
   408
  8
0
  6
CONTINUOUS
 62
     7
 10
-518.609349098801
 20
140.742535676365
 30
0.0
 11
-520.359349068999
 21
140.742535676365
 31
0.0
  0
LINE
  5
   409
  8
0
  6
CONTINUOUS
 62
     7
 10
-518.609349098801
 20
128.492535884981
 30
0.0
 11
-520.359349068999
 21
128.492535884981
 31
0.0
  0
LINE
  5
   40A
  8
0
  6
CONTINUOUS
 62
     7
 10
-520.359349068999
 20
128.492535884981
 30
0.0
 11
-520.359349068999
 21
140.742535676365
 31
0.0
  0
LINE
  5
   40B
  8
0
  6
CONTINUOUS
 62
     7
 10
-519.65934908092
 20
128.492535884981
 30
0.0
 11
-519.65934908092
 21
140.742535676365
 31
0.0
  0
LINE
  5
   40C
  8
0
  6
CONTINUOUS
 62
     7
 10
-518.609349098801
 20
128.492535884981
 30
0.0
 11
-518.609349098801
 21
140.742535676365
 31
0.0
  0
LINE
  5
   40D
  8
0
  6
CONTINUOUS
 62
     2
 10
-485.534322959023
 20
202.276571890422
 30
0.0
 11
-485.534322959023
 21
209.692511858123
 31
0.0
  0
LINE
  5
   40E
  8
0
  6
CONTINUOUS
 62
     7
 10
-484.834355014562
 20
199.367496012229
 30
0.0
 11
-484.834355014562
 21
203.217495946664
 31
0.0
  0
LINE
  5
   40F
  8
0
  6
CONTINUOUS
 62
     7
 10
-484.834355014562
 20
125.003873653819
 30
0.0
 11
-484.834355014562
 21
128.055030551855
 31
0.0
  0
LINE
  5
   410
  8
0
  6
CONTINUOUS
 62
     7
 10
-468.209339275956
 20
152.817496804971
 30
0.0
 11
-468.909340050632
 21
152.817496804971
 31
0.0
  0
LINE
  5
   411
  8
0
  6
CONTINUOUS
 62
     7
 10
-468.209339275956
 20
155.267491422671
 30
0.0
 11
-468.90934034043
 21
155.267491422671
 31
0.0
  0
LINE
  5
   412
  8
0
  6
CONTINUOUS
 62
     7
 10
-484.834355014562
 20
120.897518777627
 30
0.0
 11
-484.834355014562
 21
126.217502598542
 31
0.0
  0
LINE
  5
   413
  8
0
  6
CONTINUOUS
 62
     3
 10
-467.684339284897
 20
143.717507641095
 30
0.0
 11
-468.209339275956
 21
143.717507641095
 31
0.0
  0
LINE
  5
   414
  8
0
  6
CONTINUOUS
 62
     3
 10
-467.684339284897
 20
137.767507742423
 30
0.0
 11
-468.209339275956
 21
137.767507742423
 31
0.0
  0
LINE
  5
   415
  8
0
  6
CONTINUOUS
 62
     3
 10
-467.684339284897
 20
133.917507807988
 30
0.0
 11
-468.209339275956
 21
133.917507807988
 31
0.0
  0
LINE
  5
   416
  8
0
  6
CONTINUOUS
 62
     3
 10
-467.684339284897
 20
194.817506770867
 30
0.0
 11
-468.209339275956
 21
194.817506770867
 31
0.0
  0
LINE
  5
   417
  8
0
  6
CONTINUOUS
 62
     3
 10
-467.684339284897
 20
190.967506836432
 30
0.0
 11
-468.209339275956
 21
190.967506836432
 31
0.0
  0
LINE
  5
   418
  8
0
  6
CONTINUOUS
 62
     3
 10
-467.684339284897
 20
185.01750693776
 30
0.0
 11
-468.209339275956
 21
185.01750693776
 31
0.0
  0
LINE
  5
   419
  8
0
  6
CONTINUOUS
 62
     3
 10
-468.209339275956
 20
190.617512182969
 30
0.0
 11
-468.209339275956
 21
194.817506770867
 31
0.0
  0
LINE
  5
   41A
  8
0
  6
CONTINUOUS
 62
     3
 10
-468.209339275956
 20
143.367561052816
 30
0.0
 11
-468.209339275956
 21
185.367522953528
 31
0.0
  0
LINE
  5
   41B
  8
0
  6
CONTINUOUS
 62
     3
 10
-468.209339275956
 20
133.917507807988
 30
0.0
 11
-468.209339275956
 21
138.117561142223
 31
0.0
  0
LINE
  5
   41C
  8
0
  6
CONTINUOUS
 62
     3
 10
-467.684339284897
 20
133.917507807988
 30
0.0
 11
-467.684339284897
 21
138.117529098767
 31
0.0
  0
LINE
  5
   41D
  8
0
  6
CONTINUOUS
 62
     3
 10
-467.684339284897
 20
143.367523668784
 30
0.0
 11
-467.684339284897
 21
185.367474888343
 31
0.0
  0
LINE
  5
   41E
  8
0
  6
CONTINUOUS
 62
     3
 10
-467.684339284897
 20
190.617485480088
 30
0.0
 11
-467.684339284897
 21
194.817506770867
 31
0.0
  0
LINE
  5
   41F
  8
0
  6
DASHDOT
 62
     7
 10
-467.509339287877
 20
143.367534349936
 30
0.0
 11
-467.509339287877
 21
185.367512272376
 31
0.0
  0
LINE
  5
   420
  8
0
  6
DASHDOT
 62
     7
 10
-467.509339287877
 20
107.798741571365
 30
0.0
 11
-467.509339287877
 21
138.117534439343
 31
0.0
  0
LINE
  5
   421
  8
0
  6
DASHDOT
 62
     7
 10
-467.509339287877
 20
190.617512182969
 30
0.0
 11
-467.509339287877
 21
219.255283386838
 31
0.0
  0
LINE
  5
   422
  8
0
  6
DASHDOT
 62
     7
 10
-466.459339305759
 20
109.21000721464
 30
0.0
 11
-466.459339305759
 21
219.40745729729
 31
0.0
  0
LINE
  5
   423
  8
0
  6
CONTINUOUS
 62
     7
 10
-468.920516720794
 20
219.050764918299
 30
0.0
 11
-465.047637364133
 21
219.612051781583
 31
0.0
  0
LINE
  5
   424
  8
0
  6
CONTINUOUS
 62
     7
 10
-468.970775962017
 20
107.97360763002
 30
0.0
 11
-465.221827746344
 21
109.819243674659
 31
0.0
  0
LINE
  5
   425
  8
0
  6
DASHDOT
 62
     7
 10
-463.026328276099
 20
187.992512227672
 30
0.0
 11
-473.784655331406
 21
187.992512227672
 31
0.0
  0
LINE
  5
   426
  8
0
  6
DASHDOT
 62
     7
 10
-463.223728772526
 20
140.742513032335
 30
0.0
 11
-474.574257317116
 21
140.742513032335
 31
0.0
  0
LINE
  5
   427
  8
0
  6
CONTINUOUS
 62
   130
 10
-530.159314856702
 20
146.167495586338
 30
0.0
 11
-530.159332881147
 21
147.567504908504
 31
0.0
  0
LINE
  5
   428
  8
0
  6
CONTINUOUS
 62
   130
 10
-530.159332881091
 20
142.317496986218
 30
0.0
 11
-530.159315524218
 21
143.7174916218
 31
0.0
  0
LINE
  5
   429
  8
0
  6
CONTINUOUS
 62
   130
 10
-484.134354880891
 20
142.317455625678
 30
0.0
 11
-484.83435486897
 21
142.317499685431
 31
0.0
  0
LINE
  5
   42A
  8
0
  6
CONTINUOUS
 62
   130
 10
-486.584360325336
 20
142.317499654073
 30
0.0
 11
-528.40933291018
 21
142.317499654073
 31
0.0
  0
LINE
  5
   42B
  8
0
  6
CONTINUOUS
 62
   130
 10
-468.909344604611
 20
191.317506830472
 30
0.0
 11
-484.134360367059
 21
191.317506830472
 31
0.0
  0
LINE
  5
   42C
  8
0
  6
CONTINUOUS
 62
   130
 10
-468.909344604176
 20
142.317411534634
 30
0.0
 11
-484.134355026048
 21
142.317455594385
 31
0.0
  0
LINE
  5
   42D
  8
0
  6
CONTINUOUS
 62
   130
 10
-468.909344604561
 20
142.317411534598
 30
0.0
 11
-468.909339263985
 21
146.167487572242
 31
0.0
  0
LINE
  5
   42E
  8
0
  6
CONTINUOUS
 62
     7
 10
-498.484338760376
 20
180.117512361783
 30
0.0
 11
-530.159332880378
 21
180.117512361783
 31
0.0
  0
LINE
  5
   42F
  8
0
  6
CONTINUOUS
 62
     7
 10
-498.484338760376
 20
169.61749384858
 30
0.0
 11
-530.159332880378
 21
169.61749384858
 31
0.0
  0
LINE
  5
   430
  8
0
  6
CONTINUOUS
 62
   130
 10
-530.159315523506
 20
143.717491619368
 30
0.0
 11
-530.159314855934
 21
146.167495583077
 31
0.0
  0
LINE
  5
   431
  8
0
  6
CONTINUOUS
 62
   130
 10
-484.134360367059
 20
191.317506830472
 30
0.0
 11
-530.159332880378
 21
191.317506830472
 31
0.0
  0
LINE
  5
   432
  8
0
  6
CONTINUOUS
 62
   130
 10
-530.159332880378
 20
180.117512361783
 30
0.0
 11
-530.159332880378
 21
191.317506830472
 31
0.0
  0
LINE
  5
   433
  8
0
  6
CONTINUOUS
 62
     7
 10
-494.3718601926
 20
143.717512981699
 30
0.0
 11
-485.534355002525
 21
143.717529003428
 31
0.0
  0
LINE
  5
   434
  8
0
  6
CONTINUOUS
 62
     7
 10
-508.678088586768
 20
143.717504970811
 30
0.0
 11
-495.771860168864
 21
143.717512981674
 31
0.0
  0
LINE
  5
   435
  8
0
  6
CONTINUOUS
 62
     7
 10
-528.759294852611
 20
143.717492954515
 30
0.0
 11
-510.078087895359
 21
143.71750497081
 31
0.0
  0
LINE
  5
   436
  8
0
  6
CONTINUOUS
 62
     7
 10
-528.759291514751
 20
145.29249559798
 30
0.0
 11
-510.078087227787
 21
145.292507614277
 31
0.0
  0
LINE
  5
   437
  8
0
  6
CONTINUOUS
 62
     7
 10
-508.678087251624
 20
145.292508949421
 30
0.0
 11
-495.771857498576
 21
145.292516960285
 31
0.0
  0
LINE
  5
   438
  8
0
  6
CONTINUOUS
 62
     7
 10
-494.371857522415
 20
145.292518295428
 30
0.0
 11
-485.534355002629
 21
145.292523636005
 31
0.0
  0
LINE
  5
   439
  8
0
  6
CONTINUOUS
 62
     7
 10
-528.759294852626
 20
143.71749295456
 30
0.0
 11
-528.759292182338
 21
145.292495598026
 31
0.0
  0
LINE
  5
   43A
  8
0
  6
CONTINUOUS
 62
     7
 10
-485.534355002642
 20
143.717529003399
 30
0.0
 11
-485.534355002642
 21
145.292523636001
 31
0.0
  0
LINE
  5
   43B
  8
0
  6
CONTINUOUS
 62
     7
 10
-494.371860192678
 20
143.717512981725
 30
0.0
 11
-494.37185752239
 21
145.292526306343
 31
0.0
  0
LINE
  5
   43C
  8
0
  6
CONTINUOUS
 62
     7
 10
-495.771860168838
 20
143.717512981721
 30
0.0
 11
-495.77185749855
 21
145.292524971195
 31
0.0
  0
LINE
  5
   43D
  8
0
  6
CONTINUOUS
 62
     7
 10
-508.678088586773
 20
143.71750497082
 30
0.0
 11
-508.678087251629
 21
145.292516960295
 31
0.0
  0
LINE
  5
   43E
  8
0
  6
CONTINUOUS
 62
     7
 10
-510.07808789536
 20
143.717504970819
 30
0.0
 11
-510.078086560216
 21
145.292515625149
 31
0.0
  0
LINE
  5
   43F
  8
0
  6
CONTINUOUS
 62
   130
 10
-518.959333571792
 20
140.917501013059
 30
0.0
 11
-518.959333571792
 21
142.317500989217
 31
0.0
  0
LINE
  5
   440
  8
0
  6
CONTINUOUS
 62
   130
 10
-517.559333428741
 20
140.917501013059
 30
0.0
 11
-517.559333428741
 21
142.317500989217
 31
0.0
  0
LINE
  5
   441
  8
0
  6
CONTINUOUS
 62
   130
 10
-517.559333428741
 20
140.917501013059
 30
0.0
 11
-518.959333571792
 21
140.917501013059
 31
0.0
  0
LINE
  5
   442
  8
0
  6
CONTINUOUS
 62
   130
 10
-489.646833570302
 20
140.917519705075
 30
0.0
 11
-489.646833570302
 21
142.317494313497
 31
0.0
  0
LINE
  5
   443
  8
0
  6
CONTINUOUS
 62
   130
 10
-488.246833594144
 20
140.917519705075
 30
0.0
 11
-488.246833594144
 21
142.317494313497
 31
0.0
  0
LINE
  5
   444
  8
0
  6
CONTINUOUS
 62
   130
 10
-488.246833594144
 20
140.917519705075
 30
0.0
 11
-489.646833570302
 21
140.917519705075
 31
0.0
  0
LINE
  5
   445
  8
0
  6
CONTINUOUS
 62
   130
 10
-528.40933291018
 20
140.654999682385
 30
0.0
 11
-528.40933291018
 21
141.529999667484
 31
0.0
  0
LINE
  5
   446
  8
0
  6
CONTINUOUS
 62
   130
 10
-530.159332880378
 20
140.654999682385
 30
0.0
 11
-530.159332880378
 21
142.317496983785
 31
0.0
  0
LINE
  5
   447
  8
0
  6
CONTINUOUS
 62
   130
 10
-528.40933291018
 20
140.654999682385
 30
0.0
 11
-530.159332880378
 21
140.654999682385
 31
0.0
  0
LINE
  5
   448
  8
0
  6
CONTINUOUS
 62
   130
 10
-528.40933291018
 20
141.529999667484
 30
0.0
 11
-528.40933291018
 21
142.317499654073
 31
0.0
  0
LINE
  5
   449
  8
0
  6
CONTINUOUS
 62
   130
 10
-486.584365665912
 20
140.654999682385
 30
0.0
 11
-486.584365665912
 21
141.529999667484
 31
0.0
  0
LINE
  5
   44A
  8
0
  6
CONTINUOUS
 62
   130
 10
-484.834365695715
 20
140.654999682385
 30
0.0
 11
-486.584365665912
 21
140.654999682385
 31
0.0
  0
LINE
  5
   44B
  8
0
  6
CONTINUOUS
 62
   130
 10
-484.834365694971
 20
140.65499968297
 30
0.0
 11
-484.834355013818
 21
142.317499654658
 31
0.0
  0
LINE
  5
   44C
  8
0
  6
CONTINUOUS
 62
   130
 10
-486.584365665123
 20
141.529999668176
 30
0.0
 11
-486.584360324547
 21
142.317494314189
 31
0.0
  0
LINE
  5
   44D
  8
0
  6
CONTINUOUS
 62
     7
 10
-527.709335546564
 20
184.14251833263
 30
0.0
 11
-528.759335551748
 21
185.192518337814
 31
0.0
  0
LINE
  5
   44E
  8
0
  6
CONTINUOUS
 62
   130
 10
-530.159332880378
 20
147.567504905242
 30
0.0
 11
-530.159332880378
 21
169.617501859445
 31
0.0
  0
LINE
  5
   44F
  8
0
  6
CONTINUOUS
 62
     7
 10
-498.484338760376
 20
169.61749384858
 30
0.0
 11
-498.484338760376
 21
180.117512361783
 31
0.0
  0
LINE
  5
   450
  8
0
  6
CONTINUOUS
 62
     7
 10
-524.734333306551
 20
179.942512364763
 30
0.0
 11
-524.734333306551
 21
180.117512361783
 31
0.0
  0
LINE
  5
   451
  8
0
  6
CONTINUOUS
 62
     7
 10
-494.371860192703
 20
186.680006909459
 30
0.0
 11
-485.534355002629
 21
186.680012250035
 31
0.0
  0
LINE
  5
   452
  8
0
  6
CONTINUOUS
 62
     7
 10
-494.371860192716
 20
184.142506952661
 30
0.0
 11
-494.371860192716
 21
186.680006909448
 31
0.0
  0
LINE
  5
   453
  8
0
  6
CONTINUOUS
 62
     7
 10
-494.371860192703
 20
184.142506952672
 30
0.0
 11
-485.534355002629
 21
184.142512293248
 31
0.0
  0
LINE
  5
   454
  8
0
  6
CONTINUOUS
 62
     7
 10
-485.534355002642
 20
184.142512293237
 30
0.0
 11
-485.534355002642
 21
186.680012250024
 31
0.0
  0
LINE
  5
   455
  8
0
  6
CONTINUOUS
 62
     7
 10
-510.078087895364
 20
184.142512293237
 30
0.0
 11
-510.078087895364
 21
186.680012250024
 31
0.0
  0
LINE
  5
   456
  8
0
  6
CONTINUOUS
 62
     7
 10
-495.771860168874
 20
184.142512293237
 30
0.0
 11
-510.078088562936
 21
184.142512293237
 31
0.0
  0
LINE
  5
   457
  8
0
  6
CONTINUOUS
 62
     7
 10
-495.771860168874
 20
184.142512293237
 30
0.0
 11
-495.771860168874
 21
186.680012250024
 31
0.0
  0
LINE
  5
   458
  8
0
  6
CONTINUOUS
 62
     7
 10
-495.771860168874
 20
186.680012250024
 30
0.0
 11
-510.078088562936
 21
186.680012250024
 31
0.0
  0
LINE
  5
   459
  8
0
  6
CONTINUOUS
 62
     7
 10
-511.478087871522
 20
184.142512293237
 30
0.0
 11
-528.759332236648
 21
184.142512293237
 31
0.0
  0
LINE
  5
   45A
  8
0
  6
CONTINUOUS
 62
     7
 10
-511.478087871522
 20
184.142512293237
 30
0.0
 11
-511.478087871522
 21
186.680012250024
 31
0.0
  0
LINE
  5
   45B
  8
0
  6
CONTINUOUS
 62
     7
 10
-511.478087871522
 20
186.680012250024
 30
0.0
 11
-528.759332236648
 21
186.680012250024
 31
0.0
  0
LINE
  5
   45C
  8
0
  6
CONTINUOUS
 62
     7
 10
-528.75933290422
 20
184.142512293237
 30
0.0
 11
-528.75933290422
 21
186.680012250024
 31
0.0
  0
LINE
  5
   45D
  8
0
  6
CONTINUOUS
 62
     7
 10
-525.25933329761
 20
143.717495624799
 30
0.0
 11
-525.25933329761
 21
145.292506279129
 31
0.0
  0
LINE
  5
   45E
  8
0
  6
CONTINUOUS
 62
     7
 10
-523.859332320094
 20
143.717496959943
 30
0.0
 11
-523.859332320094
 21
145.292506279129
 31
0.0
  0
LINE
  5
   45F
  8
0
  6
CONTINUOUS
 62
     7
 10
-528.759196051958
 20
143.71748494365
 30
0.0
 11
-528.759195384386
 21
145.29249559798
 31
0.0
  0
LINE
  5
   460
  8
0
  6
CONTINUOUS
 62
   130
 10
-530.159332880445
 20
142.317480962287
 30
0.0
 11
-530.159331545301
 21
142.667506324063
 31
0.0
  0
LINE
  5
   461
  8
0
  6
CONTINUOUS
 62
   130
 10
-484.134357688215
 20
142.317458266451
 30
0.0
 11
-484.834355006006
 21
142.317468947603
 31
0.0
  0
LINE
  5
   462
  8
0
  6
CONTINUOUS
 62
   130
 10
-468.909339264035
 20
146.167487572212
 30
0.0
 11
-468.909344604611
 21
191.317508165616
 31
0.0
  0
LINE
  5
   463
  8
0
  6
CONTINUOUS
 62
     7
 10
-494.353638147128
 20
143.717507641095
 30
0.0
 11
-494.353638147128
 21
145.292518295425
 31
0.0
  0
LINE
  5
   464
  8
0
  6
CONTINUOUS
 62
     7
 10
-495.772284744672
 20
143.717491619367
 30
0.0
 11
-495.772284744672
 21
145.292516960281
 31
0.0
  0
LINE
  5
   465
  8
0
  6
CONTINUOUS
 62
     7
 10
-503.559333333373
 20
179.942512364763
 30
0.0
 11
-530.159332880378
 21
179.942512364763
 31
0.0
  0
LINE
  5
   466
  8
0
  6
CONTINUOUS
 62
     7
 10
-503.559333333373
 20
169.61749384858
 30
0.0
 11
-503.559333333373
 21
179.942512364763
 31
0.0
  0
LINE
  5
   467
  8
0
  6
CONTINUOUS
 62
     7
 10
-530.159332880378
 20
169.617501859445
 30
0.0
 11
-530.159332880378
 21
179.942512364763
 31
0.0
  0
LINE
  5
   468
  8
0
  6
CONTINUOUS
 62
   150
 10
-530.15932019651
 20
146.605011597353
 30
0.0
 11
-534.009336820245
 21
146.605011597353
 31
0.0
  0
LINE
  5
   469
  8
0
  6
CONTINUOUS
 62
   150
 10
-530.159332880378
 20
183.355028328377
 30
0.0
 11
-534.009336820245
 21
183.355028328377
 31
0.0
  0
LINE
  5
   46A
  8
0
  6
CONTINUOUS
 62
   150
 10
-535.934438410986
 20
146.779821131695
 30
0.0
 11
-535.934338275181
 21
146.78054611491
 31
0.0
  0
LINE
  5
   46B
  8
0
  6
CONTINUOUS
 62
     7
 10
-527.709291532637
 20
143.717502300522
 30
0.0
 11
-527.709292200209
 21
145.292504943988
 31
0.0
  0
LINE
  5
   46C
  8
0
  6
CONTINUOUS
 62
     7
 10
-485.534355002642
 20
184.667512284297
 30
0.0
 11
-494.37185485214
 21
184.667512284297
 31
0.0
  0
LINE
  5
   46D
  8
0
  6
CONTINUOUS
 62
     7
 10
-495.771857498586
 20
184.667512284297
 30
0.0
 11
-510.078084557504
 21
184.667512284297
 31
0.0
  0
LINE
  5
   46E
  8
0
  6
CONTINUOUS
 62
     7
 10
-511.478084533662
 20
184.667512284297
 30
0.0
 11
-527.709332922101
 21
184.667512284297
 31
0.0
  0
LINE
  5
   46F
  8
0
  6
CONTINUOUS
 62
     7
 10
-527.971831656797
 20
184.405017916797
 30
0.0
 11
-527.709331655501
 21
184.667517918093
 31
0.0
  0
LINE
  5
   470
  8
0
  6
CONTINUOUS
 62
     7
 10
-527.709332922101
 20
184.667512284297
 30
0.0
 11
-527.709332922101
 21
186.680012250024
 31
0.0
  0
CIRCLE
  5
   471
  8
0
  6
CONTINUOUS
 62
   130
 10
-525.959361959177
 20
164.36749069157
 30
0.0
 40
3.49999695973229
  0
CIRCLE
  5
   472
  8
0
  6
CONTINUOUS
 62
   130
 10
-525.959358916296
 20
164.367488595156
 30
0.0
 40
0.962501397983491
  0
CIRCLE
  5
   473
  8
0
  6
CONTINUOUS
 62
   130
 10
-476.084342047787
 20
183.267484679078
 30
0.0
 40
2.10002360565626
  0
CIRCLE
  5
   474
  8
0
  6
CONTINUOUS
 62
   130
 10
-476.084355692209
 20
183.267500269725
 30
0.0
 40
1.13750330518346
  0
CIRCLE
  5
   475
  8
0
  6
CONTINUOUS
 62
   130
 10
-476.084356513939
 20
148.267502677228
 30
0.0
 40
2.10000079410038
  0
CIRCLE
  5
   476
  8
0
  6
CONTINUOUS
 62
   130
 10
-476.08435311777
 20
148.267505660043
 30
0.0
 40
1.1375029235037
  0
LINE
  5
   477
  8
0
  6
DASHDOT
 62
     7
 10
-476.084342047787
 20
180.817461079382
 30
0.0
 11
-476.084342047787
 21
185.717508278774
 31
0.0
  0
LINE
  5
   478
  8
0
  6
DASHDOT
 62
     7
 10
-473.634318448091
 20
183.267484679078
 30
0.0
 11
-478.534365647482
 21
183.267484679078
 31
0.0
  0
LINE
  5
   479
  8
0
  6
DASHDOT
 62
     7
 10
-476.084356513939
 20
145.817501889088
 30
0.0
 11
-476.084356513939
 21
150.717503465368
 31
0.0
  0
LINE
  5
   47A
  8
0
  6
DASHDOT
 62
     7
 10
-473.634355725799
 20
148.267502677228
 30
0.0
 11
-478.534357302079
 21
148.267502677228
 31
0.0
  0
LINE
  5
   47B
  8
0
  6
CONTINUOUS
 62
     7
 10
-485.359355005622
 20
191.317506830472
 30
0.0
 11
-485.359355005622
 21
193.767496107596
 31
0.0
  0
LINE
  5
   47C
  8
0
  6
CONTINUOUS
 62
     7
 10
-534.009338155389
 20
113.015914611084
 30
0.0
 11
-534.009338155389
 21
139.079963660318
 31
0.0
  0
LINE
  5
   47D
  8
0
  6
CONTINUOUS
 62
     7
 10
-534.709338143468
 20
112.897937085003
 30
0.0
 11
-534.709338143468
 21
146.605011597353
 31
0.0
  0
LINE
  5
   47E
  8
0
  6
CONTINUOUS
 62
     7
 10
-536.528076493092
 20
112.591408149673
 30
0.0
 11
-531.988924346979
 21
113.356433792276
 31
0.0
  0
LINE
  5
   47F
  8
0
  6
CONTINUOUS
 62
     7
 10
-532.396938023034
 20
206.230546804327
 30
0.0
 11
-535.559044012462
 21
207.097575865945
 31
0.0
  0
LINE
  5
   480
  8
0
  6
CONTINUOUS
 62
     7
 10
-534.709338143468
 20
183.355028328377
 30
0.0
 11
-534.709338143468
 21
206.86459199864
 31
0.0
  0
LINE
  5
   481
  8
0
  6
DASHDOT
 62
     7
 10
-525.959361959177
 20
160.517493737798
 30
0.0
 11
-525.959361959177
 21
168.217487645342
 31
0.0
  0
LINE
  5
   482
  8
0
  6
DASHDOT
 62
     7
 10
-522.109365005405
 20
164.36749069157
 30
0.0
 11
-529.809358912949
 21
164.36749069157
 31
0.0
  0
LINE
  5
   483
  8
0
  6
CONTINUOUS
 62
     7
 10
-531.209336867929
 20
153.167534183043
 30
0.0
 11
-531.209336867929
 21
157.71746200778
 31
0.0
  0
LINE
  5
   484
  8
0
  6
CONTINUOUS
 62
     1
 10
-534.709336808324
 20
136.804963031489
 30
0.0
 11
-534.709336808324
 21
193.154962071855
 31
0.0
  0
LINE
  5
   485
  8
0
  6
CONTINUOUS
 62
     1
 10
-534.709336808324
 20
136.804963031489
 30
0.0
 11
-535.934336787462
 21
136.804963031489
 31
0.0
  0
LINE
  5
   486
  8
0
  6
CONTINUOUS
 62
     1
 10
-535.934336787462
 20
136.804963031489
 30
0.0
 11
-535.934336787462
 21
152.467462764759
 31
0.0
  0
LINE
  5
   487
  8
0
  6
CONTINUOUS
 62
     1
 10
-535.934336787462
 20
158.417461995859
 30
0.0
 11
-535.934336787462
 21
193.154964074571
 31
0.0
  0
LINE
  5
   488
  8
0
  6
CONTINUOUS
 62
     1
 10
-534.709336808324
 20
193.154964074571
 30
0.0
 11
-535.934336787462
 21
193.154964074571
 31
0.0
  0
LINE
  5
   489
  8
0
  6
CONTINUOUS
 62
     1
 10
-534.009336820245
 20
166.029964536507
 30
0.0
 11
-534.009336820245
 21
188.779964149076
 31
0.0
  0
LINE
  5
   48A
  8
0
  6
CONTINUOUS
 62
     1
 10
-534.009336820245
 20
157.717464678068
 30
0.0
 11
-534.009336820245
 21
163.929967242558
 31
0.0
  0
LINE
  5
   48B
  8
0
  6
CONTINUOUS
 62
     7
 10
-532.434336847067
 20
139.282036372636
 30
0.0
 11
-532.434336847067
 21
140.977890912238
 31
0.0
  0
LINE
  5
   48C
  8
0
  6
CONTINUOUS
 62
     7
 10
-532.434336847067
 20
188.98203552625
 30
0.0
 11
-532.434336847067
 21
190.67789273614
 31
0.0
  0
LINE
  5
   48D
  8
0
  6
CONTINUOUS
 62
     7
 10
-532.434336847067
 20
164.132035949443
 30
0.0
 11
-532.434336847067
 21
165.827890489045
 31
0.0
  0
LINE
  5
   48E
  8
0
  6
CONTINUOUS
 62
     1
 10
-535.584336793423
 20
152.467462097187
 30
0.0
 11
-535.934336787462
 21
152.467462097187
 31
0.0
  0
LINE
  5
   48F
  8
0
  6
CONTINUOUS
 62
     1
 10
-535.584336793423
 20
158.417461995859
 30
0.0
 11
-535.934336787462
 21
158.417461995859
 31
0.0
  0
LINE
  5
   490
  8
0
  6
CONTINUOUS
 62
     3
 10
-535.934336787462
 20
152.817462091226
 30
0.0
 11
-535.934336787462
 21
158.067462001819
 31
0.0
  0
LINE
  5
   491
  8
0
  6
CONTINUOUS
 62
     7
 10
-535.584336793423
 20
152.817462091226
 30
0.0
 11
-535.934336787462
 21
152.817462091226
 31
0.0
  0
LINE
  5
   492
  8
0
  6
CONTINUOUS
 62
     7
 10
-535.584336793423
 20
151.417462115068
 30
0.0
 11
-535.584336793423
 21
152.817462091226
 31
0.0
  0
LINE
  5
   493
  8
0
  6
CONTINUOUS
 62
     7
 10
-535.234336799383
 20
151.417462115068
 30
0.0
 11
-535.584336793423
 21
151.417462115068
 31
0.0
  0
LINE
  5
   494
  8
0
  6
CONTINUOUS
 62
     7
 10
-535.234336799383
 20
151.417462115068
 30
0.0
 11
-535.234336799383
 21
159.467461977977
 31
0.0
  0
LINE
  5
   495
  8
0
  6
CONTINUOUS
 62
     7
 10
-535.234336799383
 20
159.467461977977
 30
0.0
 11
-535.584336793423
 21
159.467461977977
 31
0.0
  0
LINE
  5
   496
  8
0
  6
CONTINUOUS
 62
     7
 10
-535.584336793423
 20
158.067462001819
 30
0.0
 11
-535.584336793423
 21
159.467461977977
 31
0.0
  0
LINE
  5
   497
  8
0
  6
CONTINUOUS
 62
     7
 10
-535.584336793423
 20
158.067462001819
 30
0.0
 11
-535.934336787462
 21
158.067462001819
 31
0.0
  0
LINE
  5
   498
  8
0
  6
CONTINUOUS
 62
     7
 10
-531.209336867929
 20
153.167534183043
 30
0.0
 11
-534.709336808324
 21
153.167534183043
 31
0.0
  0
LINE
  5
   499
  8
0
  6
CONTINUOUS
 62
     7
 10
-531.209336867929
 20
157.71746200778
 30
0.0
 11
-534.709336808324
 21
157.71746200778
 31
0.0
  0
LINE
  5
   49A
  8
0
  6
CONTINUOUS
 62
     1
 10
-535.934336787462
 20
152.467464767475
 30
0.0
 11
-535.934336787462
 21
152.817462091226
 31
0.0
  0
LINE
  5
   49B
  8
0
  6
CONTINUOUS
 62
     1
 10
-535.934336787462
 20
158.067462001819
 30
0.0
 11
-535.934336787462
 21
158.417464666147
 31
0.0
  0
LINE
  5
   49C
  8
0
  6
CONTINUOUS
 62
     7
 10
-532.784336841106
 20
139.079963660318
 30
0.0
 11
-534.709336808324
 21
139.079963660318
 31
0.0
  0
LINE
  5
   49D
  8
0
  6
CONTINUOUS
 62
     7
 10
-532.784336841106
 20
141.179963624556
 30
0.0
 11
-534.709336808324
 21
141.179963624556
 31
0.0
  0
LINE
  5
   49E
  8
0
  6
CONTINUOUS
 62
     7
 10
-532.784336841106
 20
141.100037898073
 30
0.0
 11
-532.784336841106
 21
141.179963624556
 31
0.0
  0
LINE
  5
   49F
  8
0
  6
CONTINUOUS
 62
     7
 10
-532.784336841106
 20
140.872426550936
 30
0.0
 11
-532.784336841106
 21
141.100037898073
 31
0.0
  0
LINE
  5
   4A0
  8
0
  6
CONTINUOUS
 62
     7
 10
-532.784336841106
 20
140.531781911046
 30
0.0
 11
-532.784336841106
 21
140.872426550936
 31
0.0
  0
LINE
  5
   4A1
  8
0
  6
CONTINUOUS
 62
     7
 10
-532.784336841106
 20
140.129963642437
 30
0.0
 11
-532.784336841106
 21
140.531781911046
 31
0.0
  0
LINE
  5
   4A2
  8
0
  6
CONTINUOUS
 62
     7
 10
-532.784336841106
 20
139.728146708972
 30
0.0
 11
-532.784336841106
 21
140.129963642437
 31
0.0
  0
LINE
  5
   4A3
  8
0
  6
CONTINUOUS
 62
     7
 10
-532.784336841106
 20
139.387502069083
 30
0.0
 11
-532.784336841106
 21
139.728146708972
 31
0.0
  0
LINE
  5
   4A4
  8
0
  6
CONTINUOUS
 62
     7
 10
-532.784336841106
 20
139.159890721946
 30
0.0
 11
-532.784336841106
 21
139.387502069083
 31
0.0
  0
LINE
  5
   4A5
  8
0
  6
CONTINUOUS
 62
     7
 10
-532.784336841106
 20
139.079963660318
 30
0.0
 11
-532.784336841106
 21
139.159890721946
 31
0.0
  0
LINE
  5
   4A6
  8
0
  6
CONTINUOUS
 62
     7
 10
-532.784336421594
 20
139.079963371253
 30
0.0
 11
-532.434336416029
 21
139.282036072391
 31
0.0
  0
LINE
  5
   4A7
  8
0
  6
CONTINUOUS
 62
     7
 10
-532.434336093506
 20
140.977890281441
 30
0.0
 11
-532.784336099071
 21
141.179962982579
 31
0.0
  0
LINE
  5
   4A8
  8
0
  6
CONTINUOUS
 62
     7
 10
-532.784336841106
 20
188.779964149076
 30
0.0
 11
-534.709336808324
 21
188.779964149076
 31
0.0
  0
LINE
  5
   4A9
  8
0
  6
CONTINUOUS
 62
     7
 10
-532.784336841106
 20
190.879964113314
 30
0.0
 11
-534.709336808324
 21
190.879964113314
 31
0.0
  0
LINE
  5
   4AA
  8
0
  6
CONTINUOUS
 62
     7
 10
-532.784336841106
 20
190.800037051687
 30
0.0
 11
-532.784336841106
 21
190.879964113314
 31
0.0
  0
LINE
  5
   4AB
  8
0
  6
CONTINUOUS
 62
     7
 10
-532.784336841106
 20
190.572427039694
 30
0.0
 11
-532.784336841106
 21
190.800037051687
 31
0.0
  0
LINE
  5
   4AC
  8
0
  6
CONTINUOUS
 62
     7
 10
-532.784336841106
 20
190.231778394372
 30
0.0
 11
-532.784336841106
 21
190.572427039694
 31
0.0
  0
LINE
  5
   4AD
  8
0
  6
CONTINUOUS
 62
     7
 10
-532.784336841106
 20
189.829964131195
 30
0.0
 11
-532.784336841106
 21
190.231778394372
 31
0.0
  0
LINE
  5
   4AE
  8
0
  6
CONTINUOUS
 62
     7
 10
-532.784336841106
 20
189.428144527442
 30
0.0
 11
-532.784336841106
 21
189.829964131195
 31
0.0
  0
LINE
  5
   4AF
  8
0
  6
CONTINUOUS
 62
     7
 10
-532.784336841106
 20
189.087501222697
 30
0.0
 11
-532.784336841106
 21
189.428144527442
 31
0.0
  0
LINE
  5
   4B0
  8
0
  6
CONTINUOUS
 62
     7
 10
-532.784336841106
 20
188.859891210704
 30
0.0
 11
-532.784336841106
 21
189.087501222697
 31
0.0
  0
LINE
  5
   4B1
  8
0
  6
CONTINUOUS
 62
     7
 10
-532.784336841106
 20
188.779964149076
 30
0.0
 11
-532.784336841106
 21
188.859891210704
 31
0.0
  0
LINE
  5
   4B2
  8
0
  6
CONTINUOUS
 62
     7
 10
-532.784336904601
 20
188.77996339828
 30
0.0
 11
-532.434336899037
 21
188.982034777987
 31
0.0
  0
LINE
  5
   4B3
  8
0
  6
CONTINUOUS
 62
     7
 10
-532.434336332622
 20
190.6778918493
 30
0.0
 11
-532.784336338186
 21
190.879963229008
 31
0.0
  0
LINE
  5
   4B4
  8
0
  6
CONTINUOUS
 62
     7
 10
-532.784336841106
 20
163.929964572269
 30
0.0
 11
-534.709336808324
 21
163.929964572269
 31
0.0
  0
LINE
  5
   4B5
  8
0
  6
CONTINUOUS
 62
     7
 10
-532.784336841106
 20
166.029964536507
 30
0.0
 11
-534.709336808324
 21
166.029964536507
 31
0.0
  0
LINE
  5
   4B6
  8
0
  6
CONTINUOUS
 62
     7
 10
-532.784336841106
 20
165.95003747488
 30
0.0
 11
-532.784336841106
 21
166.029964536507
 31
0.0
  0
LINE
  5
   4B7
  8
0
  6
CONTINUOUS
 62
     7
 10
-532.784336841106
 20
165.722424792599
 30
0.0
 11
-532.784336841106
 21
165.95003747488
 31
0.0
  0
LINE
  5
   4B8
  8
0
  6
CONTINUOUS
 62
     7
 10
-532.784336841106
 20
165.381781487853
 30
0.0
 11
-532.784336841106
 21
165.722424792599
 31
0.0
  0
LINE
  5
   4B9
  8
0
  6
CONTINUOUS
 62
     7
 10
-532.784336841106
 20
164.979964554388
 30
0.0
 11
-532.784336841106
 21
165.381781487853
 31
0.0
  0
LINE
  5
   4BA
  8
0
  6
CONTINUOUS
 62
     7
 10
-532.784336841106
 20
164.578144950635
 30
0.0
 11
-532.784336841106
 21
164.979964554388
 31
0.0
  0
LINE
  5
   4BB
  8
0
  6
CONTINUOUS
 62
     7
 10
-532.784336841106
 20
164.23750164589
 30
0.0
 11
-532.784336841106
 21
164.578144950635
 31
0.0
  0
LINE
  5
   4BC
  8
0
  6
CONTINUOUS
 62
     7
 10
-532.784336841106
 20
164.009888963609
 30
0.0
 11
-532.784336841106
 21
164.23750164589
 31
0.0
  0
LINE
  5
   4BD
  8
0
  6
CONTINUOUS
 62
     7
 10
-532.784336841106
 20
163.929964572269
 30
0.0
 11
-532.784336841106
 21
164.009888963609
 31
0.0
  0
LINE
  5
   4BE
  8
0
  6
CONTINUOUS
 62
     7
 10
-532.784336793501
 20
163.929964142193
 30
0.0
 11
-532.434336787937
 21
164.1320355219
 31
0.0
  0
LINE
  5
   4BF
  8
0
  6
CONTINUOUS
 62
     7
 10
-532.434336287207
 20
165.827889701129
 30
0.0
 11
-532.784336292771
 21
166.02996374779
 31
0.0
  0
LINE
  5
   4C0
  8
0
  6
CONTINUOUS
 62
     7
 10
-534.009338155389
 20
141.354963621575
 30
0.0
 11
-534.709336808324
 21
141.354963621575
 31
0.0
  0
LINE
  5
   4C1
  8
0
  6
CONTINUOUS
 62
     7
 10
-534.009338155389
 20
138.904963663299
 30
0.0
 11
-534.709336808324
 21
138.904963663299
 31
0.0
  0
LINE
  5
   4C2
  8
0
  6
CONTINUOUS
 62
     7
 10
-534.009338155389
 20
141.179963624556
 30
0.0
 11
-534.009338155389
 21
153.167467425842
 31
0.0
  0
LINE
  5
   4C3
  8
0
  6
CONTINUOUS
 62
     7
 10
-534.009336820245
 20
152.817534189003
 30
0.0
 11
-534.709336808324
 21
152.817534189003
 31
0.0
  0
LINE
  5
   4C4
  8
0
  6
CONTINUOUS
 62
     7
 10
-534.009336820245
 20
158.067462001819
 30
0.0
 11
-534.709336808324
 21
158.067462001819
 31
0.0
  0
LINE
  5
   4C5
  8
0
  6
CONTINUOUS
 62
     7
 10
-534.009336820245
 20
166.204964533526
 30
0.0
 11
-534.709336808324
 21
166.204964533526
 31
0.0
  0
LINE
  5
   4C6
  8
0
  6
CONTINUOUS
 62
     7
 10
-534.009336820245
 20
163.75496457525
 30
0.0
 11
-534.709336808324
 21
163.75496457525
 31
0.0
  0
LINE
  5
   4C7
  8
0
  6
CONTINUOUS
 62
     7
 10
-534.009338155389
 20
190.879964113314
 30
0.0
 11
-534.009338155389
 21
206.672656518038
 31
0.0
  0
LINE
  5
   4C8
  8
0
  6
CONTINUOUS
 62
     7
 10
-534.009338155389
 20
191.054964110333
 30
0.0
 11
-534.709336808324
 21
191.054964110333
 31
0.0
  0
LINE
  5
   4C9
  8
0
  6
CONTINUOUS
 62
     7
 10
-534.009338155389
 20
188.604964152057
 30
0.0
 11
-534.709336808324
 21
188.604964152057
 31
0.0
  0
INSERT
  5
   4CA
  8
0
  6
CONTINUOUS
 62
     7
  2
*HATCH185
 10
-520.884338378906
 20
126.484558105469
 30
0.0
 41
0.349999994039536
 42
0.349999994039536
 50
89.9999999480344
 43
0.349999994039536
  0
INSERT
  5
   4CB
  8
0
  6
CONTINUOUS
 62
     7
  2
*HATCH186
 10
-520.884338378906
 20
126.484558105469
 30
0.0
 41
0.349999994039536
 42
0.349999994039536
 50
89.9999999480344
 43
0.349999994039536
  0
INSERT
  5
   4CC
  8
0
  6
CONTINUOUS
 62
     7
  2
*HATCH187
 10
-520.884338378906
 20
126.484558105469
 30
0.0
 41
0.349999994039536
 42
0.349999994039536
 50
89.9999999480344
 43
0.349999994039536
  0
INSERT
  5
   4CD
  8
0
  6
CONTINUOUS
 62
     7
  2
*HATCH188
 10
-520.884338378906
 20
126.484558105469
 30
0.0
 41
0.349999994039536
 42
0.349999994039536
 50
89.9999999480344
 43
0.349999994039536
  0
INSERT
  5
   4CE
  8
0
  6
CONTINUOUS
 62
     7
  2
*HATCH189
 10
-520.884338378906
 20
126.484558105469
 30
0.0
 41
0.349999994039536
 42
0.349999994039536
 50
89.9999999480344
 43
0.349999994039536
  0
CIRCLE
  5
   4CF
  8
0
  6
CONTINUOUS
 62
     7
 10
-534.568153378262
 20
114.693490721154
 30
0.0
 40
8.74999985098839E-2
  0
LINE
  5
   4D0
  8
0
  6
CONTINUOUS
 62
     3
 10
-532.784336841106
 20
183.355028328377
 30
0.0
 11
-532.784336841106
 21
185.805028286653
 31
0.0
  0
LINE
  5
   4D1
  8
0
  6
CONTINUOUS
 62
     3
 10
-532.084336853027
 20
183.355028328377
 30
0.0
 11
-532.084336853027
 21
185.805028286653
 31
0.0
  0
LINE
  5
   4D2
  8
0
  6
CONTINUOUS
 62
     3
 10
-532.084336853027
 20
185.805028286653
 30
0.0
 11
-532.784336841106
 21
185.805028286653
 31
0.0
  0
LINE
  5
   4D3
  8
0
  6
CONTINUOUS
 62
     7
 10
-530.684338879585
 20
183.880028319436
 30
0.0
 11
-531.5593408674
 21
183.880028319436
 31
0.0
  0
LINE
  5
   4D4
  8
0
  6
CONTINUOUS
 62
     7
 10
-530.684338879585
 20
183.880028319436
 30
0.0
 11
-530.684338879585
 21
187.555028256851
 31
0.0
  0
LINE
  5
   4D5
  8
0
  6
CONTINUOUS
 62
     7
 10
-531.90934086144
 20
188.780028235989
 30
0.0
 11
-532.784340846539
 21
188.780028235989
 31
0.0
  0
LINE
  5
   4D6
  8
0
  6
CONTINUOUS
 62
     7
 10
-533.134340840578
 20
190.879964113314
 30
0.0
 11
-533.134340840578
 21
191.930028182345
 31
0.0
  0
LINE
  5
   4D7
  8
0
  6
CONTINUOUS
 62
     7
 10
-533.134340840578
 20
191.930028182345
 30
0.0
 11
-534.009338155389
 21
191.930028182345
 31
0.0
  0
LINE
  5
   4D8
  8
0
  6
CONTINUOUS
 62
     7
 10
-531.90934086144
 20
187.905028250891
 30
0.0
 11
-532.784340846539
 21
187.905028250891
 31
0.0
  0
LINE
  5
   4D9
  8
0
  6
CONTINUOUS
 62
     7
 10
-531.5593408674
 20
183.880028319436
 30
0.0
 11
-531.5593408674
 21
187.555028256851
 31
0.0
  0
ARC
  5
   4DA
  8
0
  6
CONTINUOUS
 62
     7
 10
-531.909345990167
 20
187.555023816645
 30
0.0
 40
1.2250064377287
 50
360.000319242658
 51
449.999813057862
  0
ARC
  5
   4DB
  8
0
  6
CONTINUOUS
 62
     7
 10
-531.909325374587
 20
187.555042570025
 30
0.0
 40
0.349982431475061
 50
359.998830132094
 51
450.002235749312
  0
ARC
  5
   4DC
  8
0
  6
CONTINUOUS
 62
     7
 10
-532.784347619872
 20
189.130017013602
 30
0.0
 40
1.22498984871903
 50
196.604271282219
 51
270.000346548696
  0
LINE
  5
   4DD
  8
0
  6
CONTINUOUS
 62
     7
 10
-530.684338879585
 20
187.030028265792
 30
0.0
 11
-531.5593408674
 21
187.030028265792
 31
0.0
  0
INSERT
  5
   4DE
  8
0
  6
CONTINUOUS
 62
     7
  2
*HATCH190
 10
-520.884338378906
 20
126.484558105469
 30
0.0
 41
0.349999994039536
 42
0.349999994039536
 50
89.9999999480344
 43
0.349999994039536
  0
LINE
  5
   4DF
  8
0
  6
DOT
 62
     3
 10
-545.55933662355
 20
146.605011597353
 30
0.0
 11
-545.55933662355
 21
183.355028328377
 31
0.0
  0
LINE
  5
   4E0
  8
0
  6
DOT
 62
     3
 10
-538.974442922378
 20
183.355028328377
 30
0.0
 11
-545.55933662355
 21
183.355028328377
 31
0.0
  0
LINE
  5
   4E1
  8
0
  6
DOT
 62
     3
 10
-539.709393377718
 20
146.605011597353
 30
0.0
 11
-545.55933662355
 21
146.605011597353
 31
0.0
  0
LINE
  5
   4E2
  8
0
  6
CONTINUOUS
 62
     3
 10
-465.0593393296
 20
186.592512251514
 30
0.0
 11
-465.0593393296
 21
189.39251220383
 31
0.0
  0
LINE
  5
   4E3
  8
0
  6
CONTINUOUS
 62
     3
 10
-463.659339353442
 20
187.117512242573
 30
0.0
 11
-463.659339353442
 21
188.867512212771
 31
0.0
  0
LINE
  5
   4E4
  8
0
  6
CONTINUOUS
 62
     3
 10
-465.0593393296
 20
189.39251220383
 30
0.0
 11
-466.459339305759
 21
189.39251220383
 31
0.0
  0
LINE
  5
   4E5
  8
0
  6
CONTINUOUS
 62
     3
 10
-465.0593393296
 20
186.592512251514
 30
0.0
 11
-466.459339305759
 21
186.592512251514
 31
0.0
  0
LINE
  5
   4E6
  8
0
  6
CONTINUOUS
 62
     3
 10
-463.659339353442
 20
188.867512212771
 30
0.0
 11
-466.459339305759
 21
188.867512212771
 31
0.0
  0
LINE
  5
   4E7
  8
0
  6
CONTINUOUS
 62
     3
 10
-463.659339353442
 20
187.117512242573
 30
0.0
 11
-466.459339305759
 21
187.117512242573
 31
0.0
  0
LINE
  5
   4E8
  8
0
  6
CONTINUOUS
 62
     3
 10
-465.0593393296
 20
142.142513008493
 30
0.0
 11
-466.459339305759
 21
142.142513008493
 31
0.0
  0
LINE
  5
   4E9
  8
0
  6
CONTINUOUS
 62
     3
 10
-463.659339353442
 20
141.617513017434
 30
0.0
 11
-466.459339305759
 21
141.617513017434
 31
0.0
  0
LINE
  5
   4EA
  8
0
  6
CONTINUOUS
 62
     3
 10
-463.659339353442
 20
139.867513047236
 30
0.0
 11
-466.459339305759
 21
139.867513047236
 31
0.0
  0
LINE
  5
   4EB
  8
0
  6
CONTINUOUS
 62
     3
 10
-465.0593393296
 20
139.342513056177
 30
0.0
 11
-466.459339305759
 21
139.342513056177
 31
0.0
  0
LINE
  5
   4EC
  8
0
  6
CONTINUOUS
 62
     3
 10
-465.0593393296
 20
139.342513056177
 30
0.0
 11
-465.0593393296
 21
142.142513008493
 31
0.0
  0
LINE
  5
   4ED
  8
0
  6
CONTINUOUS
 62
     3
 10
-463.659339353442
 20
139.867513047236
 30
0.0
 11
-463.659339353442
 21
141.617513017434
 31
0.0
  0
LINE
  5
   4EE
  8
0
  6
CONTINUOUS
 62
     3
 10
-466.459339305759
 20
212.317527835148
 30
0.0
 11
-467.509339287877
 21
212.317527835148
 31
0.0
  0
LINE
  5
   4EF
  8
0
  6
CONTINUOUS
 62
     3
 10
-466.459339305759
 20
194.117528145092
 30
0.0
 11
-467.509339287877
 21
194.117528145092
 31
0.0
  0
LINE
  5
   4F0
  8
0
  6
CONTINUOUS
 62
   210
 10
-484.834354221032
 20
129.717540590542
 30
0.0
 11
-484.834354221032
 21
140.654999682385
 31
0.0
  0
LINE
  5
   4F1
  8
0
  6
CONTINUOUS
 62
   210
 10
-484.834359661653
 20
191.317506830472
 30
0.0
 11
-484.834359661653
 21
193.767528151053
 31
0.0
  0
LINE
  5
   4F2
  8
0
  6
CONTINUOUS
 62
   210
 10
-471.884357905388
 20
133.91753184058
 30
0.0
 11
-471.884357905388
 21
142.317420144043
 31
0.0
  0
LINE
  5
   4F3
  8
0
  6
CONTINUOUS
 62
   210
 10
-471.884357905388
 20
191.317506830472
 30
0.0
 11
-471.884357905388
 21
194.817528133171
 31
0.0
  0
LINE
  5
   4F4
  8
0
  6
CONTINUOUS
 62
   210
 10
-468.209357967972
 20
152.817526178139
 30
0.0
 11
-468.909340050636
 21
152.817526178139
 31
0.0
  0
LINE
  5
   4F5
  8
0
  6
CONTINUOUS
 62
   210
 10
-468.209357967972
 20
155.267526136416
 30
0.0
 11
-468.909340340434
 21
155.267526136416
 31
0.0
  0
LINE
  5
   4F6
  8
0
  6
CONTINUOUS
 62
   210
 10
-468.209357967972
 20
152.817526178139
 30
0.0
 11
-468.209357967972
 21
155.267526136416
 31
0.0
  0
LINE
  5
   4F7
  8
0
  6
CONTINUOUS
 62
   210
 10
-467.509357979893
 20
185.36753363468
 30
0.0
 11
-467.509357979893
 21
190.617533545273
 31
0.0
  0
LINE
  5
   4F8
  8
0
  6
CONTINUOUS
 62
   210
 10
-467.509357979893
 20
138.117535774487
 30
0.0
 11
-467.509357979893
 21
143.36753568508
 31
0.0
  0
LINE
  5
   4F9
  8
0
  6
CONTINUOUS
 62
   210
 10
-467.509357979893
 20
190.617533545273
 30
0.0
 11
-468.909344521814
 21
190.617533545273
 31
0.0
  0
LINE
  5
   4FA
  8
0
  6
CONTINUOUS
 62
   210
 10
-467.509357979893
 20
185.36753363468
 30
0.0
 11
-468.909343900817
 21
185.36753363468
 31
0.0
  0
LINE
  5
   4FB
  8
0
  6
CONTINUOUS
 62
   210
 10
-467.509357979893
 20
143.36753568508
 30
0.0
 11
-468.909343147897
 21
143.36753568508
 31
0.0
  0
LINE
  5
   4FC
  8
0
  6
CONTINUOUS
 62
   210
 10
-467.509357979893
 20
138.117535774487
 30
0.0
 11
-471.884357905388
 21
138.117535774487
 31
0.0
  0
LINE
  5
   4FD
  8
0
  6
DASHDOT
 62
   210
 10
-476.08435771401
 20
113.167469182521
 30
0.0
 11
-476.08435771401
 21
150.10503604687
 31
0.0
  0
LINE
  5
   4FE
  8
0
  6
DASHDOT
 62
   210
 10
-474.246857968571
 20
148.267536301431
 30
0.0
 11
-477.921857459449
 21
148.267536301431
 31
0.0
  0
LINE
  5
   4FF
  8
0
  6
DASHDOT
 62
   210
 10
-476.084354977801
 20
150.297062967919
 30
0.0
 11
-476.084354977801
 21
214.509419279138
 31
0.0
  0
LINE
  5
   500
  8
0
  6
DASHDOT
 62
   210
 10
-474.246851981341
 20
183.267536481334
 30
0.0
 11
-477.921857974261
 21
183.267536481334
 31
0.0
  0
LINE
  5
   501
  8
0
  6
DASHDOT
 62
   210
 10
-464.7089798912
 20
187.992533589977
 30
0.0
 11
-473.191934642104
 21
187.992533589977
 31
0.0
  0
LINE
  5
   502
  8
0
  6
DASHDOT
 62
   210
 10
-466.007391332665
 20
140.742535729783
 30
0.0
 11
-474.533626464951
 21
140.742535729783
 31
0.0
  0
LINE
  5
   503
  8
0
  6
CONTINUOUS
 62
   210
 10
-471.884357905388
 20
192.017536332322
 30
0.0
 11
-484.834354197424
 21
192.017536332322
 31
0.0
  0
LINE
  5
   504
  8
0
  6
CONTINUOUS
 62
   210
 10
-471.884357905388
 20
139.517536450442
 30
0.0
 11
-484.834356260698
 21
139.517536450442
 31
0.0
  0
LINE
  5
   505
  8
0
  6
CONTINUOUS
 62
   210
 10
-467.859352633357
 20
117.117533461827
 30
0.0
 11
-484.834356997682
 21
117.117533461827
 31
0.0
  0
LINE
  5
   506
  8
0
  6
CONTINUOUS
 62
   210
 10
-467.859352633357
 20
120.897535800713
 30
0.0
 11
-484.83435768485
 21
120.897535800713
 31
0.0
  0
LINE
  5
   507
  8
0
  6
CONTINUOUS
 62
   210
 10
-467.859352633357
 20
207.837532183903
 30
0.0
 11
-484.83435768485
 21
207.837532183903
 31
0.0
  0
LINE
  5
   508
  8
0
  6
CONTINUOUS
 62
   210
 10
-467.859352633357
 20
117.117533461827
 30
0.0
 11
-467.859352633357
 21
133.91753184058
 31
0.0
  0
LINE
  5
   509
  8
0
  6
CONTINUOUS
 62
   210
 10
-467.859352633357
 20
194.817528133171
 30
0.0
 11
-467.859352633357
 21
211.617527847069
 31
0.0
  0
LINE
  5
   50A
  8
0
  6
CONTINUOUS
 62
   210
 10
-467.859352633357
 20
133.91753184058
 30
0.0
 11
-471.884357905388
 21
133.91753184058
 31
0.0
  0
LINE
  5
   50B
  8
0
  6
CONTINUOUS
 62
   210
 10
-467.859352633357
 20
194.817528133171
 30
0.0
 11
-471.884357905388
 21
194.817528133171
 31
0.0
  0
LINE
  5
   50C
  8
0
  6
CONTINUOUS
 62
   210
 10
-461.384358084202
 20
194.817528133171
 30
0.0
 11
-467.859355303645
 21
194.817528133171
 31
0.0
  0
LINE
  5
   50D
  8
0
  6
CONTINUOUS
 62
   210
 10
-466.109356668591
 20
211.617527847069
 30
0.0
 11
-467.859355303645
 21
211.617527847069
 31
0.0
  0
LINE
  5
   50E
  8
0
  6
CONTINUOUS
 62
   210
 10
-466.109358003735
 20
194.817528133171
 30
0.0
 11
-466.109358003735
 21
198.574249565777
 31
0.0
  0
LINE
  5
   50F
  8
0
  6
CONTINUOUS
 62
   210
 10
-466.109386924925
 20
207.860801073898
 30
0.0
 11
-466.109386924925
 21
211.61752784708
 31
0.0
  0
LINE
  5
   510
  8
0
  6
CONTINUOUS
 62
   210
 10
-461.384358084202
 20
194.817528133171
 30
0.0
 11
-461.384358084202
 21
211.617522506493
 31
0.0
  0
LINE
  5
   511
  8
0
  6
CONTINUOUS
 62
   210
 10
-461.384358083271
 20
133.91752176024
 30
0.0
 11
-467.85935530337
 21
133.917529170297
 31
0.0
  0
LINE
  5
   512
  8
0
  6
CONTINUOUS
 62
   210
 10
-466.10935800359
 20
117.117527453668
 30
0.0
 11
-467.85935530334
 21
117.117530123956
 31
0.0
  0
LINE
  5
   513
  8
0
  6
CONTINUOUS
 62
   210
 10
-466.109358003735
 20
117.117527453679
 30
0.0
 11
-466.109358003735
 21
120.874252224144
 31
0.0
  0
LINE
  5
   514
  8
0
  6
CONTINUOUS
 62
   210
 10
-466.109358003735
 20
130.160803398469
 30
0.0
 11
-466.109358003735
 21
133.917527167576
 31
0.0
  0
LINE
  5
   515
  8
0
  6
CONTINUOUS
 62
   210
 10
-461.384358084202
 20
117.117525450963
 30
0.0
 11
-461.384358084202
 21
133.91752176024
 31
0.0
  0
LINE
  5
   516
  8
0
  6
CONTINUOUS
 62
   210
 10
-461.384358084202
 20
211.617522506493
 30
0.0
 11
-466.109356668591
 21
211.617522506493
 31
0.0
  0
LINE
  5
   517
  8
0
  6
CONTINUOUS
 62
   210
 10
-461.384358084202
 20
198.574249565777
 30
0.0
 11
-466.109358003735
 21
198.574249565777
 31
0.0
  0
LINE
  5
   518
  8
0
  6
CONTINUOUS
 62
   210
 10
-461.384358084202
 20
207.860801073888
 30
0.0
 11
-466.109358003735
 21
207.860801073888
 31
0.0
  0
LINE
  5
   519
  8
0
  6
CONTINUOUS
 62
   210
 10
-461.384358084202
 20
117.117525450963
 30
0.0
 11
-466.109358003735
 21
117.117525450963
 31
0.0
  0
LINE
  5
   51A
  8
0
  6
CONTINUOUS
 62
   210
 10
-461.384358084202
 20
120.874252224144
 30
0.0
 11
-466.109358003735
 21
120.874252224144
 31
0.0
  0
LINE
  5
   51B
  8
0
  6
CONTINUOUS
 62
   210
 10
-461.384358084202
 20
130.160803398469
 30
0.0
 11
-466.109358003735
 21
130.160803398469
 31
0.0
  0
LINE
  5
   51C
  8
0
  6
DASHDOT
 62
   210
 10
-459.741937501079
 20
203.21752799012
 30
0.0
 11
-486.507004519455
 21
203.21752799012
 31
0.0
  0
LINE
  5
   51D
  8
0
  6
DASHDOT
 62
   210
 10
-459.405270426369
 20
125.517523209911
 30
0.0
 11
-486.563116462843
 21
125.517554289647
 31
0.0
  0
LINE
  5
   51E
  8
0
  6
CONTINUOUS
 62
   210
 10
-467.859352633355
 20
211.617522276786
 30
0.0
 11
-484.83435768485
 21
211.617522276786
 31
0.0
  0
LINE
  5
   51F
  8
0
  6
CONTINUOUS
 62
   210
 10
-484.134356027841
 20
193.767528151053
 30
0.0
 11
-484.834356600046
 21
193.767528151053
 31
0.0
  0
LINE
  5
   520
  8
0
  6
CONTINUOUS
 62
   210
 10
-484.134356027841
 20
199.017528061646
 30
0.0
 11
-484.834356600046
 21
199.017528061646
 31
0.0
  0
LINE
  5
   521
  8
0
  6
CONTINUOUS
 62
   210
 10
-484.134356027841
 20
193.767528151053
 30
0.0
 11
-484.134356027841
 21
199.017528061646
 31
0.0
  0
LINE
  5
   522
  8
0
  6
CONTINUOUS
 62
   210
 10
-484.134355944395
 20
207.837516162175
 30
0.0
 11
-484.134355944395
 21
211.617522506493
 31
0.0
  0
LINE
  5
   523
  8
0
  6
CONTINUOUS
 62
   210
 10
-484.134355944395
 20
134.967540501135
 30
0.0
 11
-484.834356600046
 21
134.967540501135
 31
0.0
  0
LINE
  5
   524
  8
0
  6
CONTINUOUS
 62
   210
 10
-484.134355944395
 20
129.717540590542
 30
0.0
 11
-484.834356600046
 21
129.717540590542
 31
0.0
  0
LINE
  5
   525
  8
0
  6
CONTINUOUS
 62
   210
 10
-484.134355860948
 20
117.117538802403
 30
0.0
 11
-484.134355860948
 21
120.897537469643
 31
0.0
  0
LINE
  5
   526
  8
0
  6
CONTINUOUS
 62
   210
 10
-484.134355944395
 20
129.717540256756
 30
0.0
 11
-484.134355944395
 21
134.967540501135
 31
0.0
  0
LINE
  5
   527
  8
0
  6
CONTINUOUS
 62
   210
 10
-484.83435768485
 20
193.767528151053
 30
0.0
 11
-484.83435768485
 21
211.617522276786
 31
0.0
  0
LINE
  5
   528
  8
0
  6
CONTINUOUS
 62
   210
 10
-484.834356997682
 20
117.117533461827
 30
0.0
 11
-484.834356997682
 21
129.717540590542
 31
0.0
  0
LINE
  5
   529
  8
0
  6
CONTINUOUS
 62
     3
 10
-466.459339305759
 20
134.617531127698
 30
0.0
 11
-467.509339287877
 21
134.61753232933
 31
0.0
  0
LINE
  5
   52A
  8
0
  6
DASHDOT
 62
     7
 10
-465.813459947528
 20
203.217381125794
 30
0.0
 11
-474.433059862551
 21
203.217381125794
 31
0.0
  0
LINE
  5
   52B
  8
0
  6
DASHDOT
 62
     7
 10
-465.813459947528
 20
125.517666831662
 30
0.0
 11
-474.433059862551
 21
125.517666831662
 31
0.0
  0
LINE
  5
   52C
  8
0
  6
CONTINUOUS
 62
     3
 10
-466.459344514309
 20
116.417531437634
 30
0.0
 11
-467.509344496427
 21
116.417532639265
 31
0.0
  0
LINE
  5
   52D
  8
0
  6
DASHDOT
 62
     7
 10
-449.659359210349
 20
125.517510194936
 30
0.0
 11
-455.609351873351
 21
125.517510194936
 31
0.0
  0
LINE
  5
   52E
  8
0
  6
DASHDOT
 62
     7
 10
-432.684359499432
 20
125.517510194936
 30
0.0
 11
-438.634352162433
 21
125.517510194936
 31
0.0
  0
LINE
  5
   52F
  8
0
  6
CONTINUOUS
 62
     2
 10
-443.884358382225
 20
210.567527864951
 30
0.0
 11
-444.934358364343
 21
210.567527864951
 31
0.0
  0
LINE
  5
   530
  8
0
  6
CONTINUOUS
 62
     2
 10
-443.884358382225
 20
195.86752811529
 30
0.0
 11
-444.934358364343
 21
195.86752811529
 31
0.0
  0
LINE
  5
   531
  8
0
  6
CONTINUOUS
 62
     2
 10
-443.884358382225
 20
210.426299668351
 30
0.0
 11
-443.884358382225
 21
210.567527864951
 31
0.0
  0
LINE
  5
   532
  8
0
  6
CONTINUOUS
 62
     2
 10
-443.884358382225
 20
210.008042438993
 30
0.0
 11
-443.884358382225
 21
210.426299668351
 31
0.0
  0
LINE
  5
   533
  8
0
  6
CONTINUOUS
 62
     2
 10
-443.884358382225
 20
209.328829641951
 30
0.0
 11
-443.884358382225
 21
210.008042438993
 31
0.0
  0
LINE
  5
   534
  8
0
  6
CONTINUOUS
 62
     2
 10
-443.884358382225
 20
208.414762675248
 30
0.0
 11
-443.884358382225
 21
209.328829641951
 31
0.0
  0
LINE
  5
   535
  8
0
  6
CONTINUOUS
 62
     2
 10
-443.884358382225
 20
207.300969178057
 30
0.0
 11
-443.884358382225
 21
208.414762675248
 31
0.0
  0
LINE
  5
   536
  8
0
  6
CONTINUOUS
 62
     2
 10
-443.884358382225
 20
206.030251197377
 30
0.0
 11
-443.884358382225
 21
207.300969178057
 31
0.0
  0
LINE
  5
   537
  8
0
  6
CONTINUOUS
 62
     2
 10
-443.884358382225
 20
204.651441834367
 30
0.0
 11
-443.884358382225
 21
206.030251197377
 31
0.0
  0
LINE
  5
   538
  8
0
  6
CONTINUOUS
 62
     2
 10
-443.884358382225
 20
203.21752799012
 30
0.0
 11
-443.884358382225
 21
204.651441834367
 31
0.0
  0
LINE
  5
   539
  8
0
  6
CONTINUOUS
 62
     2
 10
-443.884358382225
 20
201.783614187597
 30
0.0
 11
-443.884358382225
 21
203.21752799012
 31
0.0
  0
LINE
  5
   53A
  8
0
  6
CONTINUOUS
 62
     2
 10
-443.884358382225
 20
200.404804782863
 30
0.0
 11
-443.884358382225
 21
201.783614187597
 31
0.0
  0
LINE
  5
   53B
  8
0
  6
CONTINUOUS
 62
     2
 10
-443.884358382225
 20
199.134086802184
 30
0.0
 11
-443.884358382225
 21
200.404804782863
 31
0.0
  0
LINE
  5
   53C
  8
0
  6
CONTINUOUS
 62
     2
 10
-443.884358382225
 20
198.020292971207
 30
0.0
 11
-443.884358382225
 21
199.134086802184
 31
0.0
  0
LINE
  5
   53D
  8
0
  6
CONTINUOUS
 62
     2
 10
-443.884358382225
 20
197.106226672076
 30
0.0
 11
-443.884358382225
 21
198.020292971207
 31
0.0
  0
LINE
  5
   53E
  8
0
  6
CONTINUOUS
 62
     2
 10
-443.884358382225
 20
196.427013541248
 30
0.0
 11
-443.884358382225
 21
197.106226672076
 31
0.0
  0
LINE
  5
   53F
  8
0
  6
CONTINUOUS
 62
     2
 10
-443.884358382225
 20
196.00875631189
 30
0.0
 11
-443.884358382225
 21
196.427013541248
 31
0.0
  0
LINE
  5
   540
  8
0
  6
CONTINUOUS
 62
     2
 10
-443.884358382225
 20
195.86752811529
 30
0.0
 11
-443.884358382225
 21
196.00875631189
 31
0.0
  0
LINE
  5
   541
  8
0
  6
CONTINUOUS
 62
     2
 10
-444.934358364343
 20
204.651441834367
 30
0.0
 11
-444.934358364343
 21
206.030251197377
 31
0.0
  0
LINE
  5
   542
  8
0
  6
CONTINUOUS
 62
     2
 10
-444.934358364343
 20
210.426299668351
 30
0.0
 11
-444.934358364343
 21
210.567527864951
 31
0.0
  0
LINE
  5
   543
  8
0
  6
CONTINUOUS
 62
     2
 10
-444.934358364343
 20
198.020292971207
 30
0.0
 11
-444.934358364343
 21
199.134086802184
 31
0.0
  0
LINE
  5
   544
  8
0
  6
CONTINUOUS
 62
     2
 10
-444.934358364343
 20
207.300969178057
 30
0.0
 11
-444.934358364343
 21
208.414762675248
 31
0.0
  0
LINE
  5
   545
  8
0
  6
CONTINUOUS
 62
     2
 10
-444.934358364343
 20
210.008042438993
 30
0.0
 11
-444.934358364343
 21
210.426299668351
 31
0.0
  0
LINE
  5
   546
  8
0
  6
CONTINUOUS
 62
     2
 10
-444.934358364343
 20
209.328829641951
 30
0.0
 11
-444.934358364343
 21
210.008042438993
 31
0.0
  0
LINE
  5
   547
  8
0
  6
CONTINUOUS
 62
     2
 10
-444.934358364343
 20
208.414762675248
 30
0.0
 11
-444.934358364343
 21
209.328829641951
 31
0.0
  0
LINE
  5
   548
  8
0
  6
CONTINUOUS
 62
     2
 10
-444.934358364343
 20
197.106226672076
 30
0.0
 11
-444.934358364343
 21
198.020292971207
 31
0.0
  0
LINE
  5
   549
  8
0
  6
CONTINUOUS
 62
     2
 10
-444.934358364343
 20
200.404804782863
 30
0.0
 11
-444.934358364343
 21
201.783614187597
 31
0.0
  0
LINE
  5
   54A
  8
0
  6
CONTINUOUS
 62
     2
 10
-444.934358364343
 20
206.030251197377
 30
0.0
 11
-444.934358364343
 21
207.300969178057
 31
0.0
  0
LINE
  5
   54B
  8
0
  6
CONTINUOUS
 62
     2
 10
-444.934358364343
 20
195.86752811529
 30
0.0
 11
-444.934358364343
 21
196.00875631189
 31
0.0
  0
LINE
  5
   54C
  8
0
  6
CONTINUOUS
 62
     2
 10
-444.934358364343
 20
203.21752799012
 30
0.0
 11
-444.934358364343
 21
204.651441834367
 31
0.0
  0
LINE
  5
   54D
  8
0
  6
CONTINUOUS
 62
     2
 10
-444.934358364343
 20
201.783614187597
 30
0.0
 11
-444.934358364343
 21
203.21752799012
 31
0.0
  0
LINE
  5
   54E
  8
0
  6
CONTINUOUS
 62
     2
 10
-444.934358364343
 20
196.427013541248
 30
0.0
 11
-444.934358364343
 21
197.106226672076
 31
0.0
  0
LINE
  5
   54F
  8
0
  6
CONTINUOUS
 62
     2
 10
-444.934358364343
 20
199.134086802184
 30
0.0
 11
-444.934358364343
 21
200.404804782863
 31
0.0
  0
LINE
  5
   550
  8
0
  6
CONTINUOUS
 62
     2
 10
-444.934358364343
 20
196.00875631189
 30
0.0
 11
-444.934358364343
 21
196.427013541248
 31
0.0
  0
LINE
  5
   551
  8
0
  6
CONTINUOUS
 62
     2
 10
-448.434358304739
 20
210.567527864951
 30
0.0
 11
-449.484358286857
 21
210.567527864951
 31
0.0
  0
LINE
  5
   552
  8
0
  6
CONTINUOUS
 62
     2
 10
-448.434358304739
 20
195.86752811529
 30
0.0
 11
-449.484358286857
 21
195.86752811529
 31
0.0
  0
LINE
  5
   553
  8
0
  6
CONTINUOUS
 62
     2
 10
-448.434358304739
 20
210.426299668351
 30
0.0
 11
-448.434358304739
 21
210.567527864951
 31
0.0
  0
LINE
  5
   554
  8
0
  6
CONTINUOUS
 62
     2
 10
-448.434358304739
 20
210.008042438993
 30
0.0
 11
-448.434358304739
 21
210.426299668351
 31
0.0
  0
LINE
  5
   555
  8
0
  6
CONTINUOUS
 62
     2
 10
-448.434358304739
 20
209.328829641951
 30
0.0
 11
-448.434358304739
 21
210.008042438993
 31
0.0
  0
LINE
  5
   556
  8
0
  6
CONTINUOUS
 62
     2
 10
-448.434358304739
 20
208.414762675248
 30
0.0
 11
-448.434358304739
 21
209.328829641951
 31
0.0
  0
LINE
  5
   557
  8
0
  6
CONTINUOUS
 62
     2
 10
-448.434358304739
 20
207.300969178057
 30
0.0
 11
-448.434358304739
 21
208.414762675248
 31
0.0
  0
LINE
  5
   558
  8
0
  6
CONTINUOUS
 62
     2
 10
-448.434358304739
 20
206.030251197377
 30
0.0
 11
-448.434358304739
 21
207.300969178057
 31
0.0
  0
LINE
  5
   559
  8
0
  6
CONTINUOUS
 62
     2
 10
-448.434358304739
 20
204.651441834367
 30
0.0
 11
-448.434358304739
 21
206.030251197377
 31
0.0
  0
LINE
  5
   55A
  8
0
  6
CONTINUOUS
 62
     2
 10
-448.434358304739
 20
203.21752799012
 30
0.0
 11
-448.434358304739
 21
204.651441834367
 31
0.0
  0
LINE
  5
   55B
  8
0
  6
CONTINUOUS
 62
     2
 10
-448.434358304739
 20
201.783614187597
 30
0.0
 11
-448.434358304739
 21
203.21752799012
 31
0.0
  0
LINE
  5
   55C
  8
0
  6
CONTINUOUS
 62
     2
 10
-448.434358304739
 20
200.404804782863
 30
0.0
 11
-448.434358304739
 21
201.783614187597
 31
0.0
  0
LINE
  5
   55D
  8
0
  6
CONTINUOUS
 62
     2
 10
-448.434358304739
 20
199.134086802184
 30
0.0
 11
-448.434358304739
 21
200.404804782863
 31
0.0
  0
LINE
  5
   55E
  8
0
  6
CONTINUOUS
 62
     2
 10
-448.434358304739
 20
198.020292971207
 30
0.0
 11
-448.434358304739
 21
199.134086802184
 31
0.0
  0
LINE
  5
   55F
  8
0
  6
CONTINUOUS
 62
     2
 10
-448.434358304739
 20
197.106226672076
 30
0.0
 11
-448.434358304739
 21
198.020292971207
 31
0.0
  0
LINE
  5
   560
  8
0
  6
CONTINUOUS
 62
     2
 10
-448.434358304739
 20
196.427013541248
 30
0.0
 11
-448.434358304739
 21
197.106226672076
 31
0.0
  0
LINE
  5
   561
  8
0
  6
CONTINUOUS
 62
     2
 10
-448.434358304739
 20
196.00875631189
 30
0.0
 11
-448.434358304739
 21
196.427013541248
 31
0.0
  0
LINE
  5
   562
  8
0
  6
CONTINUOUS
 62
     2
 10
-448.434358304739
 20
195.86752811529
 30
0.0
 11
-448.434358304739
 21
196.00875631189
 31
0.0
  0
LINE
  5
   563
  8
0
  6
CONTINUOUS
 62
     2
 10
-449.484358286857
 20
204.651441834367
 30
0.0
 11
-449.484358286857
 21
206.030251197377
 31
0.0
  0
LINE
  5
   564
  8
0
  6
CONTINUOUS
 62
     2
 10
-449.484358286857
 20
210.426299668351
 30
0.0
 11
-449.484358286857
 21
210.567527864951
 31
0.0
  0
LINE
  5
   565
  8
0
  6
CONTINUOUS
 62
     2
 10
-449.484358286857
 20
198.020292971207
 30
0.0
 11
-449.484358286857
 21
199.134086802184
 31
0.0
  0
LINE
  5
   566
  8
0
  6
CONTINUOUS
 62
     2
 10
-449.484358286857
 20
207.300969178057
 30
0.0
 11
-449.484358286857
 21
208.414762675248
 31
0.0
  0
LINE
  5
   567
  8
0
  6
CONTINUOUS
 62
     2
 10
-449.484358286857
 20
210.008042438993
 30
0.0
 11
-449.484358286857
 21
210.426299668351
 31
0.0
  0
LINE
  5
   568
  8
0
  6
CONTINUOUS
 62
     2
 10
-449.484358286857
 20
209.328829641951
 30
0.0
 11
-449.484358286857
 21
210.008042438993
 31
0.0
  0
LINE
  5
   569
  8
0
  6
CONTINUOUS
 62
     2
 10
-449.484358286857
 20
208.414762675248
 30
0.0
 11
-449.484358286857
 21
209.328829641951
 31
0.0
  0
LINE
  5
   56A
  8
0
  6
CONTINUOUS
 62
     2
 10
-449.484358286857
 20
197.106226672076
 30
0.0
 11
-449.484358286857
 21
198.020292971207
 31
0.0
  0
LINE
  5
   56B
  8
0
  6
CONTINUOUS
 62
     2
 10
-449.484358286857
 20
200.404804782863
 30
0.0
 11
-449.484358286857
 21
201.783614187597
 31
0.0
  0
LINE
  5
   56C
  8
0
  6
CONTINUOUS
 62
     2
 10
-449.484358286857
 20
206.030251197377
 30
0.0
 11
-449.484358286857
 21
207.300969178057
 31
0.0
  0
LINE
  5
   56D
  8
0
  6
CONTINUOUS
 62
     2
 10
-449.484358286857
 20
195.86752811529
 30
0.0
 11
-449.484358286857
 21
196.00875631189
 31
0.0
  0
LINE
  5
   56E
  8
0
  6
CONTINUOUS
 62
     2
 10
-449.484358286857
 20
203.21752799012
 30
0.0
 11
-449.484358286857
 21
204.651441834367
 31
0.0
  0
LINE
  5
   56F
  8
0
  6
CONTINUOUS
 62
     2
 10
-449.484358286857
 20
201.783614187597
 30
0.0
 11
-449.484358286857
 21
203.21752799012
 31
0.0
  0
LINE
  5
   570
  8
0
  6
CONTINUOUS
 62
     2
 10
-449.484358286857
 20
196.427013541248
 30
0.0
 11
-449.484358286857
 21
197.106226672076
 31
0.0
  0
LINE
  5
   571
  8
0
  6
CONTINUOUS
 62
     2
 10
-449.484358286857
 20
199.134086802184
 30
0.0
 11
-449.484358286857
 21
200.404804782863
 31
0.0
  0
LINE
  5
   572
  8
0
  6
CONTINUOUS
 62
     2
 10
-449.484358286857
 20
196.00875631189
 30
0.0
 11
-449.484358286857
 21
196.427013541248
 31
0.0
  0
LINE
  5
   573
  8
0
  6
CONTINUOUS
 62
   210
 10
-453.684358215332
 20
208.642527897733
 30
0.0
 11
-454.209358206391
 21
208.642527897733
 31
0.0
  0
LINE
  5
   574
  8
0
  6
CONTINUOUS
 62
   210
 10
-453.684358215332
 20
197.792528082508
 30
0.0
 11
-454.209358206391
 21
197.792528082508
 31
0.0
  0
LINE
  5
   575
  8
0
  6
CONTINUOUS
 62
   130
 10
-439.684355783462
 20
200.18643897428
 30
0.0
 11
-443.884358382225
 21
200.18643897428
 31
0.0
  0
LINE
  5
   576
  8
0
  6
CONTINUOUS
 62
   130
 10
-439.684355783462
 20
197.15534995844
 30
0.0
 11
-443.884358382225
 21
197.15534995844
 31
0.0
  0
LINE
  5
   577
  8
0
  6
CONTINUOUS
 62
   130
 10
-439.684355783462
 20
206.248616839067
 30
0.0
 11
-443.884358382225
 21
206.248616839067
 31
0.0
  0
LINE
  5
   578
  8
0
  6
CONTINUOUS
 62
   130
 10
-439.684355783462
 20
209.279705688014
 30
0.0
 11
-443.884358382225
 21
209.279705688014
 31
0.0
  0
LINE
  5
   579
  8
0
  6
CONTINUOUS
 62
   130
 10
-439.684355783462
 20
200.18643897428
 30
0.0
 11
-439.684355783462
 21
206.248616839067
 31
0.0
  0
LINE
  5
   57A
  8
0
  6
CONTINUOUS
 62
   130
 10
-439.684355783462
 20
197.15534995844
 30
0.0
 11
-439.684355783462
 21
200.18643897428
 31
0.0
  0
LINE
  5
   57B
  8
0
  6
CONTINUOUS
 62
   130
 10
-439.684355783462
 20
206.248616839067
 30
0.0
 11
-439.684355783462
 21
209.279705688014
 31
0.0
  0
LINE
  5
   57C
  8
0
  6
CONTINUOUS
 62
   130
 10
-449.484358286857
 20
200.18643897428
 30
0.0
 11
-453.684358215332
 21
200.18643897428
 31
0.0
  0
LINE
  5
   57D
  8
0
  6
CONTINUOUS
 62
   130
 10
-449.484358286857
 20
197.15534995844
 30
0.0
 11
-453.684358215332
 21
197.15534995844
 31
0.0
  0
LINE
  5
   57E
  8
0
  6
CONTINUOUS
 62
   130
 10
-449.484358286857
 20
206.248616839067
 30
0.0
 11
-453.684358215332
 21
206.248616839067
 31
0.0
  0
LINE
  5
   57F
  8
0
  6
CONTINUOUS
 62
   130
 10
-449.484358286857
 20
209.279705688014
 30
0.0
 11
-453.684358215332
 21
209.279705688014
 31
0.0
  0
LINE
  5
   580
  8
0
  6
CONTINUOUS
 62
   130
 10
-453.684358215332
 20
197.15534995844
 30
0.0
 11
-453.684358215332
 21
209.279705688014
 31
0.0
  0
LINE
  5
   581
  8
0
  6
CONTINUOUS
 62
     2
 10
-421.659356090426
 20
210.567527864951
 30
0.0
 11
-422.709356072545
 21
210.567527864951
 31
0.0
  0
LINE
  5
   582
  8
0
  6
CONTINUOUS
 62
     2
 10
-421.659356090426
 20
195.86752811529
 30
0.0
 11
-422.709356072545
 21
195.86752811529
 31
0.0
  0
LINE
  5
   583
  8
0
  6
CONTINUOUS
 62
     2
 10
-421.659356090426
 20
210.426299668351
 30
0.0
 11
-421.659356090426
 21
210.567527864951
 31
0.0
  0
LINE
  5
   584
  8
0
  6
CONTINUOUS
 62
     2
 10
-421.659356090426
 20
210.008042438993
 30
0.0
 11
-421.659356090426
 21
210.426299668351
 31
0.0
  0
LINE
  5
   585
  8
0
  6
CONTINUOUS
 62
     2
 10
-421.659356090426
 20
209.328829641951
 30
0.0
 11
-421.659356090426
 21
210.008042438993
 31
0.0
  0
LINE
  5
   586
  8
0
  6
CONTINUOUS
 62
     2
 10
-421.659356090426
 20
208.414762675248
 30
0.0
 11
-421.659356090426
 21
209.328829641951
 31
0.0
  0
LINE
  5
   587
  8
0
  6
CONTINUOUS
 62
     2
 10
-421.659356090426
 20
207.300969178057
 30
0.0
 11
-421.659356090426
 21
208.414762675248
 31
0.0
  0
LINE
  5
   588
  8
0
  6
CONTINUOUS
 62
     2
 10
-421.659356090426
 20
206.030251197377
 30
0.0
 11
-421.659356090426
 21
207.300969178057
 31
0.0
  0
LINE
  5
   589
  8
0
  6
CONTINUOUS
 62
     2
 10
-421.659356090426
 20
204.651441834367
 30
0.0
 11
-421.659356090426
 21
206.030251197377
 31
0.0
  0
LINE
  5
   58A
  8
0
  6
CONTINUOUS
 62
     2
 10
-421.659356090426
 20
203.21752799012
 30
0.0
 11
-421.659356090426
 21
204.651441834367
 31
0.0
  0
LINE
  5
   58B
  8
0
  6
CONTINUOUS
 62
     2
 10
-421.659356090426
 20
201.783614187597
 30
0.0
 11
-421.659356090426
 21
203.21752799012
 31
0.0
  0
LINE
  5
   58C
  8
0
  6
CONTINUOUS
 62
     2
 10
-421.659356090426
 20
200.404804782863
 30
0.0
 11
-421.659356090426
 21
201.783614187597
 31
0.0
  0
LINE
  5
   58D
  8
0
  6
CONTINUOUS
 62
     2
 10
-421.659356090426
 20
199.134086802184
 30
0.0
 11
-421.659356090426
 21
200.404804782863
 31
0.0
  0
LINE
  5
   58E
  8
0
  6
CONTINUOUS
 62
     2
 10
-421.659356090426
 20
198.020292971207
 30
0.0
 11
-421.659356090426
 21
199.134086802184
 31
0.0
  0
LINE
  5
   58F
  8
0
  6
CONTINUOUS
 62
     2
 10
-421.659356090426
 20
197.106226672076
 30
0.0
 11
-421.659356090426
 21
198.020292971207
 31
0.0
  0
LINE
  5
   590
  8
0
  6
CONTINUOUS
 62
     2
 10
-421.659356090426
 20
196.427013541248
 30
0.0
 11
-421.659356090426
 21
197.106226672076
 31
0.0
  0
LINE
  5
   591
  8
0
  6
CONTINUOUS
 62
     2
 10
-421.659356090426
 20
196.00875631189
 30
0.0
 11
-421.659356090426
 21
196.427013541248
 31
0.0
  0
LINE
  5
   592
  8
0
  6
CONTINUOUS
 62
     2
 10
-421.659356090426
 20
195.86752811529
 30
0.0
 11
-421.659356090426
 21
196.00875631189
 31
0.0
  0
LINE
  5
   593
  8
0
  6
CONTINUOUS
 62
     2
 10
-422.709356072545
 20
204.651441834367
 30
0.0
 11
-422.709356072545
 21
206.030251197377
 31
0.0
  0
LINE
  5
   594
  8
0
  6
CONTINUOUS
 62
     2
 10
-422.709356072545
 20
210.426299668351
 30
0.0
 11
-422.709356072545
 21
210.567527864951
 31
0.0
  0
LINE
  5
   595
  8
0
  6
CONTINUOUS
 62
     2
 10
-422.709356072545
 20
198.020292971207
 30
0.0
 11
-422.709356072545
 21
199.134086802184
 31
0.0
  0
LINE
  5
   596
  8
0
  6
CONTINUOUS
 62
     2
 10
-422.709356072545
 20
207.300969178057
 30
0.0
 11
-422.709356072545
 21
208.414762675248
 31
0.0
  0
LINE
  5
   597
  8
0
  6
CONTINUOUS
 62
     2
 10
-422.709356072545
 20
210.008042438993
 30
0.0
 11
-422.709356072545
 21
210.426299668351
 31
0.0
  0
LINE
  5
   598
  8
0
  6
CONTINUOUS
 62
     2
 10
-422.709356072545
 20
209.328829641951
 30
0.0
 11
-422.709356072545
 21
210.008042438993
 31
0.0
  0
LINE
  5
   599
  8
0
  6
CONTINUOUS
 62
     2
 10
-422.709356072545
 20
208.414762675248
 30
0.0
 11
-422.709356072545
 21
209.328829641951
 31
0.0
  0
LINE
  5
   59A
  8
0
  6
CONTINUOUS
 62
     2
 10
-422.709356072545
 20
197.106226672076
 30
0.0
 11
-422.709356072545
 21
198.020292971207
 31
0.0
  0
LINE
  5
   59B
  8
0
  6
CONTINUOUS
 62
     2
 10
-422.709356072545
 20
200.404804782863
 30
0.0
 11
-422.709356072545
 21
201.783614187597
 31
0.0
  0
LINE
  5
   59C
  8
0
  6
CONTINUOUS
 62
     2
 10
-422.709356072545
 20
206.030251197377
 30
0.0
 11
-422.709356072545
 21
207.300969178057
 31
0.0
  0
LINE
  5
   59D
  8
0
  6
CONTINUOUS
 62
     2
 10
-422.709356072545
 20
195.86752811529
 30
0.0
 11
-422.709356072545
 21
196.00875631189
 31
0.0
  0
LINE
  5
   59E
  8
0
  6
CONTINUOUS
 62
     2
 10
-422.709356072545
 20
203.21752799012
 30
0.0
 11
-422.709356072545
 21
204.651441834367
 31
0.0
  0
LINE
  5
   59F
  8
0
  6
CONTINUOUS
 62
     2
 10
-422.709356072545
 20
201.783614187597
 30
0.0
 11
-422.709356072545
 21
203.21752799012
 31
0.0
  0
LINE
  5
   5A0
  8
0
  6
CONTINUOUS
 62
     2
 10
-422.709356072545
 20
196.427013541248
 30
0.0
 11
-422.709356072545
 21
197.106226672076
 31
0.0
  0
LINE
  5
   5A1
  8
0
  6
CONTINUOUS
 62
     2
 10
-422.709356072545
 20
199.134086802184
 30
0.0
 11
-422.709356072545
 21
200.404804782863
 31
0.0
  0
LINE
  5
   5A2
  8
0
  6
CONTINUOUS
 62
     2
 10
-422.709356072545
 20
196.00875631189
 30
0.0
 11
-422.709356072545
 21
196.427013541248
 31
0.0
  0
LINE
  5
   5A3
  8
0
  6
CONTINUOUS
 62
     2
 10
-426.20935601294
 20
210.567527864951
 30
0.0
 11
-427.259355995059
 21
210.567527864951
 31
0.0
  0
LINE
  5
   5A4
  8
0
  6
CONTINUOUS
 62
     2
 10
-426.20935601294
 20
195.86752811529
 30
0.0
 11
-427.259355995059
 21
195.86752811529
 31
0.0
  0
LINE
  5
   5A5
  8
0
  6
CONTINUOUS
 62
     2
 10
-426.20935601294
 20
210.426299668351
 30
0.0
 11
-426.20935601294
 21
210.567527864951
 31
0.0
  0
LINE
  5
   5A6
  8
0
  6
CONTINUOUS
 62
     2
 10
-426.20935601294
 20
210.008042438993
 30
0.0
 11
-426.20935601294
 21
210.426299668351
 31
0.0
  0
LINE
  5
   5A7
  8
0
  6
CONTINUOUS
 62
     2
 10
-426.20935601294
 20
209.328829641951
 30
0.0
 11
-426.20935601294
 21
210.008042438993
 31
0.0
  0
LINE
  5
   5A8
  8
0
  6
CONTINUOUS
 62
     2
 10
-426.20935601294
 20
208.414762675248
 30
0.0
 11
-426.20935601294
 21
209.328829641951
 31
0.0
  0
LINE
  5
   5A9
  8
0
  6
CONTINUOUS
 62
     2
 10
-426.20935601294
 20
207.300969178057
 30
0.0
 11
-426.20935601294
 21
208.414762675248
 31
0.0
  0
LINE
  5
   5AA
  8
0
  6
CONTINUOUS
 62
     2
 10
-426.20935601294
 20
206.030251197377
 30
0.0
 11
-426.20935601294
 21
207.300969178057
 31
0.0
  0
LINE
  5
   5AB
  8
0
  6
CONTINUOUS
 62
     2
 10
-426.20935601294
 20
204.651441834367
 30
0.0
 11
-426.20935601294
 21
206.030251197377
 31
0.0
  0
LINE
  5
   5AC
  8
0
  6
CONTINUOUS
 62
     2
 10
-426.20935601294
 20
203.21752799012
 30
0.0
 11
-426.20935601294
 21
204.651441834367
 31
0.0
  0
LINE
  5
   5AD
  8
0
  6
CONTINUOUS
 62
     2
 10
-426.20935601294
 20
201.783614187597
 30
0.0
 11
-426.20935601294
 21
203.21752799012
 31
0.0
  0
LINE
  5
   5AE
  8
0
  6
CONTINUOUS
 62
     2
 10
-426.20935601294
 20
200.404804782863
 30
0.0
 11
-426.20935601294
 21
201.783614187597
 31
0.0
  0
LINE
  5
   5AF
  8
0
  6
CONTINUOUS
 62
     2
 10
-426.20935601294
 20
199.134086802184
 30
0.0
 11
-426.20935601294
 21
200.404804782863
 31
0.0
  0
LINE
  5
   5B0
  8
0
  6
CONTINUOUS
 62
     2
 10
-426.20935601294
 20
198.020292971207
 30
0.0
 11
-426.20935601294
 21
199.134086802184
 31
0.0
  0
LINE
  5
   5B1
  8
0
  6
CONTINUOUS
 62
     2
 10
-426.20935601294
 20
197.106226672076
 30
0.0
 11
-426.20935601294
 21
198.020292971207
 31
0.0
  0
LINE
  5
   5B2
  8
0
  6
CONTINUOUS
 62
     2
 10
-426.20935601294
 20
196.427013541248
 30
0.0
 11
-426.20935601294
 21
197.106226672076
 31
0.0
  0
LINE
  5
   5B3
  8
0
  6
CONTINUOUS
 62
     2
 10
-426.20935601294
 20
196.00875631189
 30
0.0
 11
-426.20935601294
 21
196.427013541248
 31
0.0
  0
LINE
  5
   5B4
  8
0
  6
CONTINUOUS
 62
     2
 10
-426.20935601294
 20
195.86752811529
 30
0.0
 11
-426.20935601294
 21
196.00875631189
 31
0.0
  0
LINE
  5
   5B5
  8
0
  6
CONTINUOUS
 62
     2
 10
-427.259355995059
 20
204.651441834367
 30
0.0
 11
-427.259355995059
 21
206.030251197377
 31
0.0
  0
LINE
  5
   5B6
  8
0
  6
CONTINUOUS
 62
     2
 10
-427.259355995059
 20
210.426299668351
 30
0.0
 11
-427.259355995059
 21
210.567527864951
 31
0.0
  0
LINE
  5
   5B7
  8
0
  6
CONTINUOUS
 62
     2
 10
-427.259355995059
 20
198.020292971207
 30
0.0
 11
-427.259355995059
 21
199.134086802184
 31
0.0
  0
LINE
  5
   5B8
  8
0
  6
CONTINUOUS
 62
     2
 10
-427.259355995059
 20
207.300969178057
 30
0.0
 11
-427.259355995059
 21
208.414762675248
 31
0.0
  0
LINE
  5
   5B9
  8
0
  6
CONTINUOUS
 62
     2
 10
-427.259355995059
 20
210.008042438993
 30
0.0
 11
-427.259355995059
 21
210.426299668351
 31
0.0
  0
LINE
  5
   5BA
  8
0
  6
CONTINUOUS
 62
     2
 10
-427.259355995059
 20
209.328829641951
 30
0.0
 11
-427.259355995059
 21
210.008042438993
 31
0.0
  0
LINE
  5
   5BB
  8
0
  6
CONTINUOUS
 62
     2
 10
-427.259355995059
 20
208.414762675248
 30
0.0
 11
-427.259355995059
 21
209.328829641951
 31
0.0
  0
LINE
  5
   5BC
  8
0
  6
CONTINUOUS
 62
     2
 10
-427.259355995059
 20
197.106226672076
 30
0.0
 11
-427.259355995059
 21
198.020292971207
 31
0.0
  0
LINE
  5
   5BD
  8
0
  6
CONTINUOUS
 62
     2
 10
-427.259355995059
 20
200.404804782863
 30
0.0
 11
-427.259355995059
 21
201.783614187597
 31
0.0
  0
LINE
  5
   5BE
  8
0
  6
CONTINUOUS
 62
     2
 10
-427.259355995059
 20
206.030251197377
 30
0.0
 11
-427.259355995059
 21
207.300969178057
 31
0.0
  0
LINE
  5
   5BF
  8
0
  6
CONTINUOUS
 62
     2
 10
-427.259355995059
 20
195.86752811529
 30
0.0
 11
-427.259355995059
 21
196.00875631189
 31
0.0
  0
LINE
  5
   5C0
  8
0
  6
CONTINUOUS
 62
     2
 10
-427.259355995059
 20
203.21752799012
 30
0.0
 11
-427.259355995059
 21
204.651441834367
 31
0.0
  0
LINE
  5
   5C1
  8
0
  6
CONTINUOUS
 62
     2
 10
-427.259355995059
 20
201.783614187597
 30
0.0
 11
-427.259355995059
 21
203.21752799012
 31
0.0
  0
LINE
  5
   5C2
  8
0
  6
CONTINUOUS
 62
     2
 10
-427.259355995059
 20
196.427013541248
 30
0.0
 11
-427.259355995059
 21
197.106226672076
 31
0.0
  0
LINE
  5
   5C3
  8
0
  6
CONTINUOUS
 62
     2
 10
-427.259355995059
 20
199.134086802184
 30
0.0
 11
-427.259355995059
 21
200.404804782863
 31
0.0
  0
LINE
  5
   5C4
  8
0
  6
CONTINUOUS
 62
     2
 10
-427.259355995059
 20
196.00875631189
 30
0.0
 11
-427.259355995059
 21
196.427013541248
 31
0.0
  0
LINE
  5
   5C5
  8
0
  6
CONTINUOUS
 62
     5
 10
-431.984355914593
 20
208.992527891773
 30
0.0
 11
-432.334355908632
 21
209.342527885812
 31
0.0
  0
LINE
  5
   5C6
  8
0
  6
CONTINUOUS
 62
     5
 10
-432.334355908632
 20
197.092528094428
 30
0.0
 11
-431.984355914593
 21
197.442528088468
 31
0.0
  0
LINE
  5
   5C7
  8
0
  6
CONTINUOUS
 62
     5
 10
-432.334355908632
 20
209.342527885812
 30
0.0
 11
-443.884358382225
 21
209.342527885812
 31
0.0
  0
LINE
  5
   5C8
  8
0
  6
CONTINUOUS
 62
     5
 10
-444.934358364343
 20
209.342527885812
 30
0.0
 11
-448.434358304739
 21
209.342527885812
 31
0.0
  0
LINE
  5
   5C9
  8
0
  6
CONTINUOUS
 62
     5
 10
-449.484358286857
 20
209.342527885812
 30
0.0
 11
-454.559358200431
 21
209.342527885812
 31
0.0
  0
LINE
  5
   5CA
  8
0
  6
CONTINUOUS
 62
     5
 10
-432.334355908632
 20
197.092528094428
 30
0.0
 11
-443.884358382225
 21
197.092528094428
 31
0.0
  0
LINE
  5
   5CB
  8
0
  6
CONTINUOUS
 62
     5
 10
-444.934358364343
 20
197.092528094428
 30
0.0
 11
-448.434358304739
 21
197.092528094428
 31
0.0
  0
LINE
  5
   5CC
  8
0
  6
CONTINUOUS
 62
     5
 10
-449.484358286857
 20
197.092528094428
 30
0.0
 11
-454.559358200431
 21
197.092528094428
 31
0.0
  0
LINE
  5
   5CD
  8
0
  6
CONTINUOUS
 62
     5
 10
-431.984355914593
 20
207.301069647644
 30
0.0
 11
-431.984355914593
 21
208.019264978431
 31
0.0
  0
LINE
  5
   5CE
  8
0
  6
CONTINUOUS
 62
     5
 10
-431.984355914593
 20
205.427524795822
 30
0.0
 11
-431.984355914593
 21
206.42594599483
 31
0.0
  0
LINE
  5
   5CF
  8
0
  6
CONTINUOUS
 62
     5
 10
-431.984355914593
 20
208.019264978431
 30
0.0
 11
-431.984355914593
 21
208.552932056897
 31
0.0
  0
LINE
  5
   5D0
  8
0
  6
CONTINUOUS
 62
     5
 10
-431.984355914593
 20
208.552932056897
 30
0.0
 11
-431.984355914593
 21
208.881562737107
 31
0.0
  0
LINE
  5
   5D1
  8
0
  6
CONTINUOUS
 62
     5
 10
-431.984355914593
 20
206.42594599483
 30
0.0
 11
-431.984355914593
 21
207.301069647644
 31
0.0
  0
LINE
  5
   5D2
  8
0
  6
CONTINUOUS
 62
     5
 10
-431.984355914593
 20
203.21752799012
 30
0.0
 11
-431.984355914593
 21
204.344174585008
 31
0.0
  0
LINE
  5
   5D3
  8
0
  6
CONTINUOUS
 62
     5
 10
-431.984355914593
 20
201.007531184418
 30
0.0
 11
-431.984355914593
 21
202.090881395232
 31
0.0
  0
LINE
  5
   5D4
  8
0
  6
CONTINUOUS
 62
     5
 10
-431.984355914593
 20
208.881562737107
 30
0.0
 11
-431.984355914593
 21
208.992527891773
 31
0.0
  0
LINE
  5
   5D5
  8
0
  6
CONTINUOUS
 62
     5
 10
-431.984355914593
 20
202.090881395232
 30
0.0
 11
-431.984355914593
 21
203.21752799012
 31
0.0
  0
LINE
  5
   5D6
  8
0
  6
CONTINUOUS
 62
     5
 10
-431.984355914593
 20
200.009109818517
 30
0.0
 11
-431.984355914593
 21
201.007531184418
 31
0.0
  0
LINE
  5
   5D7
  8
0
  6
CONTINUOUS
 62
     5
 10
-431.984355914593
 20
204.344174585008
 30
0.0
 11
-431.984355914593
 21
205.427524795822
 31
0.0
  0
LINE
  5
   5D8
  8
0
  6
CONTINUOUS
 62
     5
 10
-431.984355914593
 20
199.133986332597
 30
0.0
 11
-431.984355914593
 21
200.009109818517
 31
0.0
  0
LINE
  5
   5D9
  8
0
  6
CONTINUOUS
 62
     5
 10
-431.984355914593
 20
197.553493243133
 30
0.0
 11
-431.984355914593
 21
197.882123589557
 31
0.0
  0
LINE
  5
   5DA
  8
0
  6
CONTINUOUS
 62
     5
 10
-431.984355914593
 20
198.415791335596
 30
0.0
 11
-431.984355914593
 21
199.133986332597
 31
0.0
  0
LINE
  5
   5DB
  8
0
  6
CONTINUOUS
 62
     5
 10
-431.984355914593
 20
197.882123589557
 30
0.0
 11
-431.984355914593
 21
198.415791335596
 31
0.0
  0
LINE
  5
   5DC
  8
0
  6
CONTINUOUS
 62
     5
 10
-431.984355914593
 20
197.442528088468
 30
0.0
 11
-431.984355914593
 21
197.553493243133
 31
0.0
  0
LINE
  5
   5DD
  8
0
  6
CONTINUOUS
 62
     5
 10
-432.334355908632
 20
197.210218369524
 30
0.0
 11
-432.334355908632
 21
197.558765726869
 31
0.0
  0
LINE
  5
   5DE
  8
0
  6
CONTINUOUS
 62
     5
 10
-432.334355908632
 20
209.224837610717
 30
0.0
 11
-432.334355908632
 21
209.342527885812
 31
0.0
  0
LINE
  5
   5DF
  8
0
  6
CONTINUOUS
 62
     5
 10
-432.334355908632
 20
198.124776669226
 30
0.0
 11
-432.334355908632
 21
198.886499030216
 31
0.0
  0
LINE
  5
   5E0
  8
0
  6
CONTINUOUS
 62
     5
 10
-432.334355908632
 20
199.814660444769
 30
0.0
 11
-432.334355908632
 21
200.873591872811
 31
0.0
  0
LINE
  5
   5E1
  8
0
  6
CONTINUOUS
 62
     5
 10
-432.334355908632
 20
203.21752799012
 30
0.0
 11
-432.334355908632
 21
204.412456186705
 31
0.0
  0
LINE
  5
   5E2
  8
0
  6
CONTINUOUS
 62
     5
 10
-432.334355908632
 20
208.876289919585
 30
0.0
 11
-432.334355908632
 21
209.224837610717
 31
0.0
  0
LINE
  5
   5E3
  8
0
  6
CONTINUOUS
 62
     5
 10
-432.334355908632
 20
197.558765726869
 30
0.0
 11
-432.334355908632
 21
198.124776669226
 31
0.0
  0
LINE
  5
   5E4
  8
0
  6
CONTINUOUS
 62
     5
 10
-432.334355908632
 20
208.310279311015
 30
0.0
 11
-432.334355908632
 21
208.876289919585
 31
0.0
  0
LINE
  5
   5E5
  8
0
  6
CONTINUOUS
 62
     5
 10
-432.334355908632
 20
204.412456186705
 30
0.0
 11
-432.334355908632
 21
205.561463940537
 31
0.0
  0
LINE
  5
   5E6
  8
0
  6
CONTINUOUS
 62
     5
 10
-432.334355908632
 20
200.873591872811
 30
0.0
 11
-432.334355908632
 21
202.022599793536
 31
0.0
  0
LINE
  5
   5E7
  8
0
  6
CONTINUOUS
 62
     5
 10
-432.334355908632
 20
197.092528094428
 30
0.0
 11
-432.334355908632
 21
197.210218369524
 31
0.0
  0
LINE
  5
   5E8
  8
0
  6
CONTINUOUS
 62
     5
 10
-432.334355908632
 20
202.022599793536
 30
0.0
 11
-432.334355908632
 21
203.21752799012
 31
0.0
  0
LINE
  5
   5E9
  8
0
  6
CONTINUOUS
 62
     5
 10
-432.334355908632
 20
205.561463940537
 30
0.0
 11
-432.334355908632
 21
206.620395535472
 31
0.0
  0
LINE
  5
   5EA
  8
0
  6
CONTINUOUS
 62
     5
 10
-432.334355908632
 20
198.886499030216
 30
0.0
 11
-432.334355908632
 21
199.814660444769
 31
0.0
  0
LINE
  5
   5EB
  8
0
  6
CONTINUOUS
 62
     5
 10
-432.334355908632
 20
206.620395535472
 30
0.0
 11
-432.334355908632
 21
207.548556950024
 31
0.0
  0
LINE
  5
   5EC
  8
0
  6
CONTINUOUS
 62
     5
 10
-432.334355908632
 20
207.548556950024
 30
0.0
 11
-432.334355908632
 21
208.310279311015
 31
0.0
  0
LINE
  5
   5ED
  8
0
  6
CONTINUOUS
 62
   210
 10
-431.459355923533
 20
208.642527897733
 30
0.0
 11
-431.984355914593
 21
208.642527897733
 31
0.0
  0
LINE
  5
   5EE
  8
0
  6
CONTINUOUS
 62
   210
 10
-431.459355923533
 20
197.792528082508
 30
0.0
 11
-431.984355914593
 21
197.792528082508
 31
0.0
  0
LINE
  5
   5EF
  8
0
  6
CONTINUOUS
 62
   130
 10
-427.259355995059
 20
200.18643897428
 30
0.0
 11
-431.459355923533
 21
200.18643897428
 31
0.0
  0
LINE
  5
   5F0
  8
0
  6
CONTINUOUS
 62
   130
 10
-427.259355995059
 20
197.15534995844
 30
0.0
 11
-431.459355923533
 21
197.15534995844
 31
0.0
  0
LINE
  5
   5F1
  8
0
  6
CONTINUOUS
 62
   130
 10
-427.259355995059
 20
206.248616839067
 30
0.0
 11
-431.459355923533
 21
206.248616839067
 31
0.0
  0
LINE
  5
   5F2
  8
0
  6
CONTINUOUS
 62
   130
 10
-427.259355995059
 20
209.279705688014
 30
0.0
 11
-431.459355923533
 21
209.279705688014
 31
0.0
  0
LINE
  5
   5F3
  8
0
  6
CONTINUOUS
 62
   130
 10
-431.459355923533
 20
197.15534995844
 30
0.0
 11
-431.459355923533
 21
209.279705688014
 31
0.0
  0
LINE
  5
   5F4
  8
0
  6
CONTINUOUS
 62
   130
 10
-417.459356161952
 20
200.18643897428
 30
0.0
 11
-421.659356090426
 21
200.18643897428
 31
0.0
  0
LINE
  5
   5F5
  8
0
  6
CONTINUOUS
 62
   130
 10
-417.459356161952
 20
197.15534995844
 30
0.0
 11
-421.659356090426
 21
197.15534995844
 31
0.0
  0
LINE
  5
   5F6
  8
0
  6
CONTINUOUS
 62
   130
 10
-417.459356161952
 20
206.248616839067
 30
0.0
 11
-421.659356090426
 21
206.248616839067
 31
0.0
  0
LINE
  5
   5F7
  8
0
  6
CONTINUOUS
 62
   130
 10
-417.459356161952
 20
209.279705688014
 30
0.0
 11
-421.659356090426
 21
209.279705688014
 31
0.0
  0
LINE
  5
   5F8
  8
0
  6
CONTINUOUS
 62
   130
 10
-417.459356161952
 20
200.18643897428
 30
0.0
 11
-417.459356161952
 21
206.248616839067
 31
0.0
  0
LINE
  5
   5F9
  8
0
  6
CONTINUOUS
 62
   130
 10
-417.459356161952
 20
197.15534995844
 30
0.0
 11
-417.459356161952
 21
200.18643897428
 31
0.0
  0
LINE
  5
   5FA
  8
0
  6
CONTINUOUS
 62
   130
 10
-417.459356161952
 20
206.248616839067
 30
0.0
 11
-417.459356161952
 21
209.279705688014
 31
0.0
  0
LINE
  5
   5FB
  8
0
  6
CONTINUOUS
 62
     2
 10
-416.409356179833
 20
206.892527927535
 30
0.0
 11
-416.934356170892
 21
207.417527918595
 31
0.0
  0
LINE
  5
   5FC
  8
0
  6
CONTINUOUS
 62
     2
 10
-416.934356170893
 20
199.017528061646
 30
0.0
 11
-416.409356179833
 21
199.542528052705
 31
0.0
  0
LINE
  5
   5FD
  8
0
  6
CONTINUOUS
 62
     2
 10
-416.934356170893
 20
207.417527918595
 30
0.0
 11
-417.459356161952
 21
207.417527918595
 31
0.0
  0
LINE
  5
   5FE
  8
0
  6
CONTINUOUS
 62
     2
 10
-422.709356072545
 20
207.417527918595
 30
0.0
 11
-426.20935601294
 21
207.417527918595
 31
0.0
  0
LINE
  5
   5FF
  8
0
  6
CONTINUOUS
 62
     2
 10
-416.934356170893
 20
199.017528061646
 30
0.0
 11
-417.459356161952
 21
199.017528061646
 31
0.0
  0
LINE
  5
   600
  8
0
  6
CONTINUOUS
 62
     2
 10
-422.709356072545
 20
199.017528061646
 30
0.0
 11
-426.20935601294
 21
199.017528061646
 31
0.0
  0
LINE
  5
   601
  8
0
  6
CONTINUOUS
 62
     2
 10
-416.409356179833
 20
200.161877331098
 30
0.0
 11
-416.409356179833
 21
200.618910480664
 31
0.0
  0
LINE
  5
   602
  8
0
  6
CONTINUOUS
 62
     2
 10
-416.409356179833
 20
206.821913829235
 30
0.0
 11
-416.409356179833
 21
206.892527927535
 31
0.0
  0
LINE
  5
   603
  8
0
  6
CONTINUOUS
 62
     2
 10
-416.409356179833
 20
206.612785214557
 30
0.0
 11
-416.409356179833
 21
206.821913829235
 31
0.0
  0
LINE
  5
   604
  8
0
  6
CONTINUOUS
 62
     2
 10
-416.409356179833
 20
202.500571005412
 30
0.0
 11
-416.409356179833
 21
203.21752799012
 31
0.0
  0
LINE
  5
   605
  8
0
  6
CONTINUOUS
 62
     2
 10
-416.409356179833
 20
206.273178816035
 30
0.0
 11
-416.409356179833
 21
206.612785214557
 31
0.0
  0
LINE
  5
   606
  8
0
  6
CONTINUOUS
 62
     2
 10
-416.409356179833
 20
205.816145332684
 30
0.0
 11
-416.409356179833
 21
206.273178816035
 31
0.0
  0
LINE
  5
   607
  8
0
  6
CONTINUOUS
 62
     2
 10
-416.409356179833
 20
203.934484912243
 30
0.0
 11
-416.409356179833
 21
204.623889593749
 31
0.0
  0
LINE
  5
   608
  8
0
  6
CONTINUOUS
 62
     2
 10
-416.409356179833
 20
205.259248584088
 30
0.0
 11
-416.409356179833
 21
205.816145332684
 31
0.0
  0
LINE
  5
   609
  8
0
  6
CONTINUOUS
 62
     2
 10
-416.409356179833
 20
199.542528052705
 30
0.0
 11
-416.409356179833
 21
199.613142151005
 31
0.0
  0
LINE
  5
   60A
  8
0
  6
CONTINUOUS
 62
     2
 10
-416.409356179833
 20
204.623889593749
 30
0.0
 11
-416.409356179833
 21
205.259248584088
 31
0.0
  0
LINE
  5
   60B
  8
0
  6
CONTINUOUS
 62
     2
 10
-416.409356179833
 20
199.613142151005
 30
0.0
 11
-416.409356179833
 21
199.822270765684
 31
0.0
  0
LINE
  5
   60C
  8
0
  6
CONTINUOUS
 62
     2
 10
-416.409356179833
 20
201.811166386492
 30
0.0
 11
-416.409356179833
 21
202.500571005412
 31
0.0
  0
LINE
  5
   60D
  8
0
  6
CONTINUOUS
 62
     2
 10
-416.409356179833
 20
203.21752799012
 30
0.0
 11
-416.409356179833
 21
203.934484912243
 31
0.0
  0
LINE
  5
   60E
  8
0
  6
CONTINUOUS
 62
     2
 10
-416.409356179833
 20
201.175807396152
 30
0.0
 11
-416.409356179833
 21
201.811166386492
 31
0.0
  0
LINE
  5
   60F
  8
0
  6
CONTINUOUS
 62
     2
 10
-416.409356179833
 20
200.618910480664
 30
0.0
 11
-416.409356179833
 21
201.175807396152
 31
0.0
  0
LINE
  5
   610
  8
0
  6
CONTINUOUS
 62
     2
 10
-416.409356179833
 20
199.822270765684
 30
0.0
 11
-416.409356179833
 21
200.161877331098
 31
0.0
  0
LINE
  5
   611
  8
0
  6
CONTINUOUS
 62
     2
 10
-416.934356170893
 20
205.550922895051
 30
0.0
 11
-416.934356170893
 21
206.187376453147
 31
0.0
  0
LINE
  5
   612
  8
0
  6
CONTINUOUS
 62
     2
 10
-416.934356170893
 20
206.709700314911
 30
0.0
 11
-416.934356170893
 21
207.097822008588
 31
0.0
  0
LINE
  5
   613
  8
0
  6
CONTINUOUS
 62
     2
 10
-416.934356170893
 20
200.247679693986
 30
0.0
 11
-416.934356170893
 21
200.884133168636
 31
0.0
  0
LINE
  5
   614
  8
0
  6
CONTINUOUS
 62
     2
 10
-416.934356170893
 20
202.398148602867
 30
0.0
 11
-416.934356170893
 21
203.21752799012
 31
0.0
  0
LINE
  5
   615
  8
0
  6
CONTINUOUS
 62
     2
 10
-416.934356170893
 20
203.21752799012
 30
0.0
 11
-416.934356170893
 21
204.036907325219
 31
0.0
  0
LINE
  5
   616
  8
0
  6
CONTINUOUS
 62
     2
 10
-416.934356170893
 20
204.036907325219
 30
0.0
 11
-416.934356170893
 21
204.824798394267
 31
0.0
  0
LINE
  5
   617
  8
0
  6
CONTINUOUS
 62
     2
 10
-416.934356170893
 20
207.097822008588
 30
0.0
 11
-416.934356170893
 21
207.33682613965
 31
0.0
  0
LINE
  5
   618
  8
0
  6
CONTINUOUS
 62
     2
 10
-416.934356170893
 20
199.72535566533
 30
0.0
 11
-416.934356170893
 21
200.247679693986
 31
0.0
  0
LINE
  5
   619
  8
0
  6
CONTINUOUS
 62
     2
 10
-416.934356170893
 20
207.33682613965
 30
0.0
 11
-416.934356170893
 21
207.417527918595
 31
0.0
  0
LINE
  5
   61A
  8
0
  6
CONTINUOUS
 62
     2
 10
-416.934356170893
 20
200.884133168636
 30
0.0
 11
-416.934356170893
 21
201.610257585973
 31
0.0
  0
LINE
  5
   61B
  8
0
  6
CONTINUOUS
 62
     2
 10
-416.934356170893
 20
201.610257585973
 30
0.0
 11
-416.934356170893
 21
202.398148602867
 31
0.0
  0
LINE
  5
   61C
  8
0
  6
CONTINUOUS
 62
     2
 10
-416.934356170893
 20
199.098229840591
 30
0.0
 11
-416.934356170893
 21
199.337233971652
 31
0.0
  0
LINE
  5
   61D
  8
0
  6
CONTINUOUS
 62
     2
 10
-416.934356170893
 20
206.187376453147
 30
0.0
 11
-416.934356170893
 21
206.709700314911
 31
0.0
  0
LINE
  5
   61E
  8
0
  6
CONTINUOUS
 62
     2
 10
-416.934356170893
 20
199.017528061646
 30
0.0
 11
-416.934356170893
 21
199.098229840591
 31
0.0
  0
LINE
  5
   61F
  8
0
  6
CONTINUOUS
 62
     2
 10
-416.934356170893
 20
204.824798394267
 30
0.0
 11
-416.934356170893
 21
205.550922895051
 31
0.0
  0
LINE
  5
   620
  8
0
  6
CONTINUOUS
 62
     2
 10
-416.934356170893
 20
199.337233971652
 30
0.0
 11
-416.934356170893
 21
199.72535566533
 31
0.0
  0
LINE
  5
   621
  8
0
  6
CONTINUOUS
 62
     5
 10
-476.084355163574
 20
205.842527945417
 30
0.0
 11
-476.084355163574
 21
205.843580539584
 31
0.0
  0
LINE
  5
   622
  8
0
  6
CONTINUOUS
 62
     5
 10
-476.084355163574
 20
200.59147560755
 30
0.0
 11
-476.084355163574
 21
200.592528034824
 31
0.0
  0
LINE
  5
   623
  8
0
  6
CONTINUOUS
 62
     2
 10
-438.459355804324
 20
199.542528052705
 30
0.0
 11
-438.459355804324
 21
206.892527927535
 31
0.0
  0
LINE
  5
   624
  8
0
  6
CONTINUOUS
 62
     2
 10
-438.459355804324
 20
206.892527927535
 30
0.0
 11
-438.984355795383
 21
207.417527918595
 31
0.0
  0
LINE
  5
   625
  8
0
  6
CONTINUOUS
 62
     2
 10
-438.984355795383
 20
199.017528061646
 30
0.0
 11
-438.459355804324
 21
199.542528052705
 31
0.0
  0
LINE
  5
   626
  8
0
  6
CONTINUOUS
 62
     2
 10
-438.984355795383
 20
207.417527918595
 30
0.0
 11
-439.684355783462
 21
207.417527918595
 31
0.0
  0
LINE
  5
   627
  8
0
  6
CONTINUOUS
 62
     2
 10
-438.984355795383
 20
199.017528061646
 30
0.0
 11
-439.684355783462
 21
199.017528061646
 31
0.0
  0
LINE
  5
   628
  8
0
  6
CONTINUOUS
 62
     2
 10
-438.739355866313
 20
207.172527989524
 30
0.0
 11
-439.684355783462
 21
207.172527989524
 31
0.0
  0
LINE
  5
   629
  8
0
  6
CONTINUOUS
 62
     2
 10
-438.739355866313
 20
199.262527990716
 30
0.0
 11
-439.684355783462
 21
199.262527990716
 31
0.0
  0
LINE
  5
   62A
  8
0
  6
CONTINUOUS
 62
     3
 10
-454.209358206391
 20
207.417527918595
 30
0.0
 11
-454.209358206391
 21
207.422644858052
 31
0.0
  0
LINE
  5
   62B
  8
0
  6
CONTINUOUS
 62
     3
 10
-454.209358206391
 20
199.012411122188
 30
0.0
 11
-454.209358206391
 21
199.017528061646
 31
0.0
  0
LINE
  5
   62C
  8
0
  6
CONTINUOUS
 62
     3
 10
-454.209358206391
 20
208.992527891773
 30
0.0
 11
-454.559358200431
 21
209.342527885812
 31
0.0
  0
LINE
  5
   62D
  8
0
  6
CONTINUOUS
 62
     3
 10
-454.559358200431
 20
209.342527885812
 30
0.0
 11
-461.384358084202
 21
209.342527885812
 31
0.0
  0
LINE
  5
   62E
  8
0
  6
CONTINUOUS
 62
     3
 10
-454.209358206391
 20
197.442528088468
 30
0.0
 11
-454.209358206391
 21
208.992527891773
 31
0.0
  0
LINE
  5
   62F
  8
0
  6
CONTINUOUS
 62
     3
 10
-454.559358200431
 20
197.092528094428
 30
0.0
 11
-454.209358206391
 21
197.442528088468
 31
0.0
  0
LINE
  5
   630
  8
0
  6
CONTINUOUS
 62
     3
 10
-454.559358200431
 20
197.092528094428
 30
0.0
 11
-461.384358084202
 21
197.092528094428
 31
0.0
  0
LINE
  5
   631
  8
0
  6
CONTINUOUS
 62
     2
 10
-438.984355795383
 20
199.017528061646
 30
0.0
 11
-438.984355795383
 21
207.417527918595
 31
0.0
  0
LINE
  5
   632
  8
0
  6
CONTINUOUS
 62
     2
 10
-444.934358364343
 20
199.017528061646
 30
0.0
 11
-448.434358304739
 21
199.017528061646
 31
0.0
  0
LINE
  5
   633
  8
0
  6
CONTINUOUS
 62
     2
 10
-444.934358364343
 20
199.262527990716
 30
0.0
 11
-448.434358304739
 21
199.262527990716
 31
0.0
  0
LINE
  5
   634
  8
0
  6
CONTINUOUS
 62
     2
 10
-444.934358364343
 20
207.172527989524
 30
0.0
 11
-448.434358304739
 21
207.172527989524
 31
0.0
  0
LINE
  5
   635
  8
0
  6
CONTINUOUS
 62
     2
 10
-444.934358364343
 20
207.417527918595
 30
0.0
 11
-448.434358304739
 21
207.417527918595
 31
0.0
  0
LINE
  5
   636
  8
0
  6
DASHDOT
 62
     7
 10
-415.009374017384
 20
203.21752799012
 30
0.0
 11
-480.412303252397
 21
203.21752799012
 31
0.0
  0
LINE
  5
   637
  8
0
  6
CONTINUOUS
 62
     2
 10
-422.709356072545
 20
207.172527989524
 30
0.0
 11
-426.20935601294
 21
207.172527989524
 31
0.0
  0
LINE
  5
   638
  8
0
  6
CONTINUOUS
 62
     2
 10
-422.709356072545
 20
199.262527990716
 30
0.0
 11
-426.20935601294
 21
199.262527990716
 31
0.0
  0
LINE
  5
   639
  8
0
  6
CONTINUOUS
 62
     2
 10
-416.689356241822
 20
207.172527989524
 30
0.0
 11
-417.459356161952
 21
207.172527989524
 31
0.0
  0
LINE
  5
   63A
  8
0
  6
CONTINUOUS
 62
     2
 10
-416.689356241822
 20
199.262527990716
 30
0.0
 11
-417.459356161952
 21
199.262527990716
 31
0.0
  0
LINE
  5
   63B
  8
0
  6
CONTINUOUS
 62
     3
 10
-454.559358200431
 20
197.092528094429
 30
0.0
 11
-454.559358200431
 21
209.342527885812
 31
0.0
  0
LINE
  5
   63C
  8
0
  6
CONTINUOUS
 62
     2
 10
-443.884358382225
 20
132.867531858462
 30
0.0
 11
-444.934358364343
 21
132.867531858462
 31
0.0
  0
LINE
  5
   63D
  8
0
  6
CONTINUOUS
 62
     2
 10
-443.884358382225
 20
118.167532108801
 30
0.0
 11
-444.934358364343
 21
118.167532108801
 31
0.0
  0
LINE
  5
   63E
  8
0
  6
CONTINUOUS
 62
     2
 10
-443.884358382225
 20
132.726303661862
 30
0.0
 11
-443.884358382225
 21
132.867531858462
 31
0.0
  0
LINE
  5
   63F
  8
0
  6
CONTINUOUS
 62
     2
 10
-443.884358382225
 20
132.308046432504
 30
0.0
 11
-443.884358382225
 21
132.726303661862
 31
0.0
  0
LINE
  5
   640
  8
0
  6
CONTINUOUS
 62
     2
 10
-443.884358382225
 20
131.628833635462
 30
0.0
 11
-443.884358382225
 21
132.308046432504
 31
0.0
  0
LINE
  5
   641
  8
0
  6
CONTINUOUS
 62
     2
 10
-443.884358382225
 20
130.714766668759
 30
0.0
 11
-443.884358382225
 21
131.628833635462
 31
0.0
  0
LINE
  5
   642
  8
0
  6
CONTINUOUS
 62
     2
 10
-443.884358382225
 20
129.600973171568
 30
0.0
 11
-443.884358382225
 21
130.714766668759
 31
0.0
  0
LINE
  5
   643
  8
0
  6
CONTINUOUS
 62
     2
 10
-443.884358382225
 20
128.330255190889
 30
0.0
 11
-443.884358382225
 21
129.600973171568
 31
0.0
  0
LINE
  5
   644
  8
0
  6
CONTINUOUS
 62
     2
 10
-443.884358382225
 20
126.951445827878
 30
0.0
 11
-443.884358382225
 21
128.330255190889
 31
0.0
  0
LINE
  5
   645
  8
0
  6
CONTINUOUS
 62
     2
 10
-443.884358382225
 20
125.517531983631
 30
0.0
 11
-443.884358382225
 21
126.951445827878
 31
0.0
  0
LINE
  5
   646
  8
0
  6
CONTINUOUS
 62
     2
 10
-443.884358382225
 20
124.083618181108
 30
0.0
 11
-443.884358382225
 21
125.517531983631
 31
0.0
  0
LINE
  5
   647
  8
0
  6
CONTINUOUS
 62
     2
 10
-443.884358382225
 20
122.704808776374
 30
0.0
 11
-443.884358382225
 21
124.083618181108
 31
0.0
  0
LINE
  5
   648
  8
0
  6
CONTINUOUS
 62
     2
 10
-443.884358382225
 20
121.434090795695
 30
0.0
 11
-443.884358382225
 21
122.704808776374
 31
0.0
  0
LINE
  5
   649
  8
0
  6
CONTINUOUS
 62
     2
 10
-443.884358382225
 20
120.320296964718
 30
0.0
 11
-443.884358382225
 21
121.434090795695
 31
0.0
  0
LINE
  5
   64A
  8
0
  6
CONTINUOUS
 62
     2
 10
-443.884358382225
 20
119.406230665587
 30
0.0
 11
-443.884358382225
 21
120.320296964718
 31
0.0
  0
LINE
  5
   64B
  8
0
  6
CONTINUOUS
 62
     2
 10
-443.884358382225
 20
118.727017534759
 30
0.0
 11
-443.884358382225
 21
119.406230665587
 31
0.0
  0
LINE
  5
   64C
  8
0
  6
CONTINUOUS
 62
     2
 10
-443.884358382225
 20
118.308760305401
 30
0.0
 11
-443.884358382225
 21
118.727017534759
 31
0.0
  0
LINE
  5
   64D
  8
0
  6
CONTINUOUS
 62
     2
 10
-443.884358382225
 20
118.167532108801
 30
0.0
 11
-443.884358382225
 21
118.308760305401
 31
0.0
  0
LINE
  5
   64E
  8
0
  6
CONTINUOUS
 62
     2
 10
-444.934358364343
 20
126.951445827878
 30
0.0
 11
-444.934358364343
 21
128.330255190889
 31
0.0
  0
LINE
  5
   64F
  8
0
  6
CONTINUOUS
 62
     2
 10
-444.934358364343
 20
132.726303661862
 30
0.0
 11
-444.934358364343
 21
132.867531858462
 31
0.0
  0
LINE
  5
   650
  8
0
  6
CONTINUOUS
 62
     2
 10
-444.934358364343
 20
120.320296964718
 30
0.0
 11
-444.934358364343
 21
121.434090795695
 31
0.0
  0
LINE
  5
   651
  8
0
  6
CONTINUOUS
 62
     2
 10
-444.934358364343
 20
129.600973171568
 30
0.0
 11
-444.934358364343
 21
130.714766668759
 31
0.0
  0
LINE
  5
   652
  8
0
  6
CONTINUOUS
 62
     2
 10
-444.934358364343
 20
132.308046432504
 30
0.0
 11
-444.934358364343
 21
132.726303661862
 31
0.0
  0
LINE
  5
   653
  8
0
  6
CONTINUOUS
 62
     2
 10
-444.934358364343
 20
131.628833635462
 30
0.0
 11
-444.934358364343
 21
132.308046432504
 31
0.0
  0
LINE
  5
   654
  8
0
  6
CONTINUOUS
 62
     2
 10
-444.934358364343
 20
130.714766668759
 30
0.0
 11
-444.934358364343
 21
131.628833635462
 31
0.0
  0
LINE
  5
   655
  8
0
  6
CONTINUOUS
 62
     2
 10
-444.934358364343
 20
119.406230665587
 30
0.0
 11
-444.934358364343
 21
120.320296964718
 31
0.0
  0
LINE
  5
   656
  8
0
  6
CONTINUOUS
 62
     2
 10
-444.934358364343
 20
122.704808776374
 30
0.0
 11
-444.934358364343
 21
124.083618181108
 31
0.0
  0
LINE
  5
   657
  8
0
  6
CONTINUOUS
 62
     2
 10
-444.934358364343
 20
128.330255190889
 30
0.0
 11
-444.934358364343
 21
129.600973171568
 31
0.0
  0
LINE
  5
   658
  8
0
  6
CONTINUOUS
 62
     2
 10
-444.934358364343
 20
118.167532108801
 30
0.0
 11
-444.934358364343
 21
118.308760305401
 31
0.0
  0
LINE
  5
   659
  8
0
  6
CONTINUOUS
 62
     2
 10
-444.934358364343
 20
125.517531983631
 30
0.0
 11
-444.934358364343
 21
126.951445827878
 31
0.0
  0
LINE
  5
   65A
  8
0
  6
CONTINUOUS
 62
     2
 10
-444.934358364343
 20
124.083618181108
 30
0.0
 11
-444.934358364343
 21
125.517531983631
 31
0.0
  0
LINE
  5
   65B
  8
0
  6
CONTINUOUS
 62
     2
 10
-444.934358364343
 20
118.727017534759
 30
0.0
 11
-444.934358364343
 21
119.406230665587
 31
0.0
  0
LINE
  5
   65C
  8
0
  6
CONTINUOUS
 62
     2
 10
-444.934358364343
 20
121.434090795695
 30
0.0
 11
-444.934358364343
 21
122.704808776374
 31
0.0
  0
LINE
  5
   65D
  8
0
  6
CONTINUOUS
 62
     2
 10
-444.934358364343
 20
118.308760305401
 30
0.0
 11
-444.934358364343
 21
118.727017534759
 31
0.0
  0
LINE
  5
   65E
  8
0
  6
CONTINUOUS
 62
     2
 10
-448.434358304739
 20
132.867531858462
 30
0.0
 11
-449.484358286857
 21
132.867531858462
 31
0.0
  0
LINE
  5
   65F
  8
0
  6
CONTINUOUS
 62
     2
 10
-448.434358304739
 20
118.167532108801
 30
0.0
 11
-449.484358286857
 21
118.167532108801
 31
0.0
  0
LINE
  5
   660
  8
0
  6
CONTINUOUS
 62
     2
 10
-448.434358304739
 20
132.726303661862
 30
0.0
 11
-448.434358304739
 21
132.867531858462
 31
0.0
  0
LINE
  5
   661
  8
0
  6
CONTINUOUS
 62
     2
 10
-448.434358304739
 20
132.308046432504
 30
0.0
 11
-448.434358304739
 21
132.726303661862
 31
0.0
  0
LINE
  5
   662
  8
0
  6
CONTINUOUS
 62
     2
 10
-448.434358304739
 20
131.628833635462
 30
0.0
 11
-448.434358304739
 21
132.308046432504
 31
0.0
  0
LINE
  5
   663
  8
0
  6
CONTINUOUS
 62
     2
 10
-448.434358304739
 20
130.714766668759
 30
0.0
 11
-448.434358304739
 21
131.628833635462
 31
0.0
  0
LINE
  5
   664
  8
0
  6
CONTINUOUS
 62
     2
 10
-448.434358304739
 20
129.600973171568
 30
0.0
 11
-448.434358304739
 21
130.714766668759
 31
0.0
  0
LINE
  5
   665
  8
0
  6
CONTINUOUS
 62
     2
 10
-448.434358304739
 20
128.330255190889
 30
0.0
 11
-448.434358304739
 21
129.600973171568
 31
0.0
  0
LINE
  5
   666
  8
0
  6
CONTINUOUS
 62
     2
 10
-448.434358304739
 20
126.951445827878
 30
0.0
 11
-448.434358304739
 21
128.330255190889
 31
0.0
  0
LINE
  5
   667
  8
0
  6
CONTINUOUS
 62
     2
 10
-448.434358304739
 20
125.517531983631
 30
0.0
 11
-448.434358304739
 21
126.951445827878
 31
0.0
  0
LINE
  5
   668
  8
0
  6
CONTINUOUS
 62
     2
 10
-448.434358304739
 20
124.083618181108
 30
0.0
 11
-448.434358304739
 21
125.517531983631
 31
0.0
  0
LINE
  5
   669
  8
0
  6
CONTINUOUS
 62
     2
 10
-448.434358304739
 20
122.704808776374
 30
0.0
 11
-448.434358304739
 21
124.083618181108
 31
0.0
  0
LINE
  5
   66A
  8
0
  6
CONTINUOUS
 62
     2
 10
-448.434358304739
 20
121.434090795695
 30
0.0
 11
-448.434358304739
 21
122.704808776374
 31
0.0
  0
LINE
  5
   66B
  8
0
  6
CONTINUOUS
 62
     2
 10
-448.434358304739
 20
120.320296964718
 30
0.0
 11
-448.434358304739
 21
121.434090795695
 31
0.0
  0
LINE
  5
   66C
  8
0
  6
CONTINUOUS
 62
     2
 10
-448.434358304739
 20
119.406230665587
 30
0.0
 11
-448.434358304739
 21
120.320296964718
 31
0.0
  0
LINE
  5
   66D
  8
0
  6
CONTINUOUS
 62
     2
 10
-448.434358304739
 20
118.727017534759
 30
0.0
 11
-448.434358304739
 21
119.406230665587
 31
0.0
  0
LINE
  5
   66E
  8
0
  6
CONTINUOUS
 62
     2
 10
-448.434358304739
 20
118.308760305401
 30
0.0
 11
-448.434358304739
 21
118.727017534759
 31
0.0
  0
LINE
  5
   66F
  8
0
  6
CONTINUOUS
 62
     2
 10
-448.434358304739
 20
118.167532108801
 30
0.0
 11
-448.434358304739
 21
118.308760305401
 31
0.0
  0
LINE
  5
   670
  8
0
  6
CONTINUOUS
 62
     2
 10
-449.484358286857
 20
126.951445827878
 30
0.0
 11
-449.484358286857
 21
128.330255190889
 31
0.0
  0
LINE
  5
   671
  8
0
  6
CONTINUOUS
 62
     2
 10
-449.484358286857
 20
132.726303661862
 30
0.0
 11
-449.484358286857
 21
132.867531858462
 31
0.0
  0
LINE
  5
   672
  8
0
  6
CONTINUOUS
 62
     2
 10
-449.484358286857
 20
120.320296964718
 30
0.0
 11
-449.484358286857
 21
121.434090795695
 31
0.0
  0
LINE
  5
   673
  8
0
  6
CONTINUOUS
 62
     2
 10
-449.484358286857
 20
129.600973171568
 30
0.0
 11
-449.484358286857
 21
130.714766668759
 31
0.0
  0
LINE
  5
   674
  8
0
  6
CONTINUOUS
 62
     2
 10
-449.484358286857
 20
132.308046432504
 30
0.0
 11
-449.484358286857
 21
132.726303661862
 31
0.0
  0
LINE
  5
   675
  8
0
  6
CONTINUOUS
 62
     2
 10
-449.484358286857
 20
131.628833635462
 30
0.0
 11
-449.484358286857
 21
132.308046432504
 31
0.0
  0
LINE
  5
   676
  8
0
  6
CONTINUOUS
 62
     2
 10
-449.484358286857
 20
130.714766668759
 30
0.0
 11
-449.484358286857
 21
131.628833635462
 31
0.0
  0
LINE
  5
   677
  8
0
  6
CONTINUOUS
 62
     2
 10
-449.484358286857
 20
119.406230665587
 30
0.0
 11
-449.484358286857
 21
120.320296964718
 31
0.0
  0
LINE
  5
   678
  8
0
  6
CONTINUOUS
 62
     2
 10
-449.484358286857
 20
122.704808776374
 30
0.0
 11
-449.484358286857
 21
124.083618181108
 31
0.0
  0
LINE
  5
   679
  8
0
  6
CONTINUOUS
 62
     2
 10
-449.484358286857
 20
128.330255190889
 30
0.0
 11
-449.484358286857
 21
129.600973171568
 31
0.0
  0
LINE
  5
   67A
  8
0
  6
CONTINUOUS
 62
     2
 10
-449.484358286857
 20
118.167532108801
 30
0.0
 11
-449.484358286857
 21
118.308760305401
 31
0.0
  0
LINE
  5
   67B
  8
0
  6
CONTINUOUS
 62
     2
 10
-449.484358286857
 20
125.517531983631
 30
0.0
 11
-449.484358286857
 21
126.951445827878
 31
0.0
  0
LINE
  5
   67C
  8
0
  6
CONTINUOUS
 62
     2
 10
-449.484358286857
 20
124.083618181108
 30
0.0
 11
-449.484358286857
 21
125.517531983631
 31
0.0
  0
LINE
  5
   67D
  8
0
  6
CONTINUOUS
 62
     2
 10
-449.484358286857
 20
118.727017534759
 30
0.0
 11
-449.484358286857
 21
119.406230665587
 31
0.0
  0
LINE
  5
   67E
  8
0
  6
CONTINUOUS
 62
     2
 10
-449.484358286857
 20
121.434090795695
 30
0.0
 11
-449.484358286857
 21
122.704808776374
 31
0.0
  0
LINE
  5
   67F
  8
0
  6
CONTINUOUS
 62
     2
 10
-449.484358286857
 20
118.308760305401
 30
0.0
 11
-449.484358286857
 21
118.727017534759
 31
0.0
  0
LINE
  5
   680
  8
0
  6
CONTINUOUS
 62
   210
 10
-453.684358215332
 20
130.942531891244
 30
0.0
 11
-454.209358206391
 21
130.942531891244
 31
0.0
  0
LINE
  5
   681
  8
0
  6
CONTINUOUS
 62
   210
 10
-453.684358215332
 20
120.092532076019
 30
0.0
 11
-454.209358206391
 21
120.092532076019
 31
0.0
  0
LINE
  5
   682
  8
0
  6
CONTINUOUS
 62
   130
 10
-439.684355783462
 20
122.486442967791
 30
0.0
 11
-443.884358382225
 21
122.486442967791
 31
0.0
  0
LINE
  5
   683
  8
0
  6
CONTINUOUS
 62
   130
 10
-439.684355783462
 20
119.455353951952
 30
0.0
 11
-443.884358382225
 21
119.455353951952
 31
0.0
  0
LINE
  5
   684
  8
0
  6
CONTINUOUS
 62
   130
 10
-439.684355783462
 20
128.548620832578
 30
0.0
 11
-443.884358382225
 21
128.548620832578
 31
0.0
  0
LINE
  5
   685
  8
0
  6
CONTINUOUS
 62
   130
 10
-439.684355783462
 20
131.579709681525
 30
0.0
 11
-443.884358382225
 21
131.579709681525
 31
0.0
  0
LINE
  5
   686
  8
0
  6
CONTINUOUS
 62
   130
 10
-439.684355783462
 20
122.486442967791
 30
0.0
 11
-439.684355783462
 21
128.548620832578
 31
0.0
  0
LINE
  5
   687
  8
0
  6
CONTINUOUS
 62
   130
 10
-439.684355783462
 20
119.455353951952
 30
0.0
 11
-439.684355783462
 21
122.486442967791
 31
0.0
  0
LINE
  5
   688
  8
0
  6
CONTINUOUS
 62
   130
 10
-439.684355783462
 20
128.548620832578
 30
0.0
 11
-439.684355783462
 21
131.579709681525
 31
0.0
  0
LINE
  5
   689
  8
0
  6
CONTINUOUS
 62
   130
 10
-449.484358286857
 20
122.486442967791
 30
0.0
 11
-453.684358215332
 21
122.486442967791
 31
0.0
  0
LINE
  5
   68A
  8
0
  6
CONTINUOUS
 62
   130
 10
-449.484358286857
 20
119.455353951952
 30
0.0
 11
-453.684358215332
 21
119.455353951952
 31
0.0
  0
LINE
  5
   68B
  8
0
  6
CONTINUOUS
 62
   130
 10
-449.484358286857
 20
128.548620832578
 30
0.0
 11
-453.684358215332
 21
128.548620832578
 31
0.0
  0
LINE
  5
   68C
  8
0
  6
CONTINUOUS
 62
   130
 10
-449.484358286857
 20
131.579709681525
 30
0.0
 11
-453.684358215332
 21
131.579709681525
 31
0.0
  0
LINE
  5
   68D
  8
0
  6
CONTINUOUS
 62
   130
 10
-453.684358215332
 20
119.455353951952
 30
0.0
 11
-453.684358215332
 21
131.579709681525
 31
0.0
  0
LINE
  5
   68E
  8
0
  6
CONTINUOUS
 62
     2
 10
-421.659356090426
 20
132.867531858462
 30
0.0
 11
-422.709356072545
 21
132.867531858462
 31
0.0
  0
LINE
  5
   68F
  8
0
  6
CONTINUOUS
 62
     2
 10
-421.659356090426
 20
118.167532108801
 30
0.0
 11
-422.709356072545
 21
118.167532108801
 31
0.0
  0
LINE
  5
   690
  8
0
  6
CONTINUOUS
 62
     2
 10
-421.659356090426
 20
132.726303661862
 30
0.0
 11
-421.659356090426
 21
132.867531858462
 31
0.0
  0
LINE
  5
   691
  8
0
  6
CONTINUOUS
 62
     2
 10
-421.659356090426
 20
132.308046432504
 30
0.0
 11
-421.659356090426
 21
132.726303661862
 31
0.0
  0
LINE
  5
   692
  8
0
  6
CONTINUOUS
 62
     2
 10
-421.659356090426
 20
131.628833635462
 30
0.0
 11
-421.659356090426
 21
132.308046432504
 31
0.0
  0
LINE
  5
   693
  8
0
  6
CONTINUOUS
 62
     2
 10
-421.659356090426
 20
130.714766668759
 30
0.0
 11
-421.659356090426
 21
131.628833635462
 31
0.0
  0
LINE
  5
   694
  8
0
  6
CONTINUOUS
 62
     2
 10
-421.659356090426
 20
129.600973171568
 30
0.0
 11
-421.659356090426
 21
130.714766668759
 31
0.0
  0
LINE
  5
   695
  8
0
  6
CONTINUOUS
 62
     2
 10
-421.659356090426
 20
128.330255190889
 30
0.0
 11
-421.659356090426
 21
129.600973171568
 31
0.0
  0
LINE
  5
   696
  8
0
  6
CONTINUOUS
 62
     2
 10
-421.659356090426
 20
126.951445827878
 30
0.0
 11
-421.659356090426
 21
128.330255190889
 31
0.0
  0
LINE
  5
   697
  8
0
  6
CONTINUOUS
 62
     2
 10
-421.659356090426
 20
125.517531983631
 30
0.0
 11
-421.659356090426
 21
126.951445827878
 31
0.0
  0
LINE
  5
   698
  8
0
  6
CONTINUOUS
 62
     2
 10
-421.659356090426
 20
124.083618181108
 30
0.0
 11
-421.659356090426
 21
125.517531983631
 31
0.0
  0
LINE
  5
   699
  8
0
  6
CONTINUOUS
 62
     2
 10
-421.659356090426
 20
122.704808776374
 30
0.0
 11
-421.659356090426
 21
124.083618181108
 31
0.0
  0
LINE
  5
   69A
  8
0
  6
CONTINUOUS
 62
     2
 10
-421.659356090426
 20
121.434090795695
 30
0.0
 11
-421.659356090426
 21
122.704808776374
 31
0.0
  0
LINE
  5
   69B
  8
0
  6
CONTINUOUS
 62
     2
 10
-421.659356090426
 20
120.320296964718
 30
0.0
 11
-421.659356090426
 21
121.434090795695
 31
0.0
  0
LINE
  5
   69C
  8
0
  6
CONTINUOUS
 62
     2
 10
-421.659356090426
 20
119.406230665587
 30
0.0
 11
-421.659356090426
 21
120.320296964718
 31
0.0
  0
LINE
  5
   69D
  8
0
  6
CONTINUOUS
 62
     2
 10
-421.659356090426
 20
118.727017534759
 30
0.0
 11
-421.659356090426
 21
119.406230665587
 31
0.0
  0
LINE
  5
   69E
  8
0
  6
CONTINUOUS
 62
     2
 10
-421.659356090426
 20
118.308760305401
 30
0.0
 11
-421.659356090426
 21
118.727017534759
 31
0.0
  0
LINE
  5
   69F
  8
0
  6
CONTINUOUS
 62
     2
 10
-421.659356090426
 20
118.167532108801
 30
0.0
 11
-421.659356090426
 21
118.308760305401
 31
0.0
  0
LINE
  5
   6A0
  8
0
  6
CONTINUOUS
 62
     2
 10
-422.709356072545
 20
126.951445827878
 30
0.0
 11
-422.709356072545
 21
128.330255190889
 31
0.0
  0
LINE
  5
   6A1
  8
0
  6
CONTINUOUS
 62
     2
 10
-422.709356072545
 20
132.726303661862
 30
0.0
 11
-422.709356072545
 21
132.867531858462
 31
0.0
  0
LINE
  5
   6A2
  8
0
  6
CONTINUOUS
 62
     2
 10
-422.709356072545
 20
120.320296964718
 30
0.0
 11
-422.709356072545
 21
121.434090795695
 31
0.0
  0
LINE
  5
   6A3
  8
0
  6
CONTINUOUS
 62
     2
 10
-422.709356072545
 20
129.600973171568
 30
0.0
 11
-422.709356072545
 21
130.714766668759
 31
0.0
  0
LINE
  5
   6A4
  8
0
  6
CONTINUOUS
 62
     2
 10
-422.709356072545
 20
132.308046432504
 30
0.0
 11
-422.709356072545
 21
132.726303661862
 31
0.0
  0
LINE
  5
   6A5
  8
0
  6
CONTINUOUS
 62
     2
 10
-422.709356072545
 20
131.628833635462
 30
0.0
 11
-422.709356072545
 21
132.308046432504
 31
0.0
  0
LINE
  5
   6A6
  8
0
  6
CONTINUOUS
 62
     2
 10
-422.709356072545
 20
130.714766668759
 30
0.0
 11
-422.709356072545
 21
131.628833635462
 31
0.0
  0
LINE
  5
   6A7
  8
0
  6
CONTINUOUS
 62
     2
 10
-422.709356072545
 20
119.406230665587
 30
0.0
 11
-422.709356072545
 21
120.320296964718
 31
0.0
  0
LINE
  5
   6A8
  8
0
  6
CONTINUOUS
 62
     2
 10
-422.709356072545
 20
122.704808776374
 30
0.0
 11
-422.709356072545
 21
124.083618181108
 31
0.0
  0
LINE
  5
   6A9
  8
0
  6
CONTINUOUS
 62
     2
 10
-422.709356072545
 20
128.330255190889
 30
0.0
 11
-422.709356072545
 21
129.600973171568
 31
0.0
  0
LINE
  5
   6AA
  8
0
  6
CONTINUOUS
 62
     2
 10
-422.709356072545
 20
118.167532108801
 30
0.0
 11
-422.709356072545
 21
118.308760305401
 31
0.0
  0
LINE
  5
   6AB
  8
0
  6
CONTINUOUS
 62
     2
 10
-422.709356072545
 20
125.517531983631
 30
0.0
 11
-422.709356072545
 21
126.951445827878
 31
0.0
  0
LINE
  5
   6AC
  8
0
  6
CONTINUOUS
 62
     2
 10
-422.709356072545
 20
124.083618181108
 30
0.0
 11
-422.709356072545
 21
125.517531983631
 31
0.0
  0
LINE
  5
   6AD
  8
0
  6
CONTINUOUS
 62
     2
 10
-422.709356072545
 20
118.727017534759
 30
0.0
 11
-422.709356072545
 21
119.406230665587
 31
0.0
  0
LINE
  5
   6AE
  8
0
  6
CONTINUOUS
 62
     2
 10
-422.709356072545
 20
121.434090795695
 30
0.0
 11
-422.709356072545
 21
122.704808776374
 31
0.0
  0
LINE
  5
   6AF
  8
0
  6
CONTINUOUS
 62
     2
 10
-422.709356072545
 20
118.308760305401
 30
0.0
 11
-422.709356072545
 21
118.727017534759
 31
0.0
  0
LINE
  5
   6B0
  8
0
  6
CONTINUOUS
 62
     2
 10
-426.20935601294
 20
132.867531858462
 30
0.0
 11
-427.259355995059
 21
132.867531858462
 31
0.0
  0
LINE
  5
   6B1
  8
0
  6
CONTINUOUS
 62
     2
 10
-426.20935601294
 20
118.167532108801
 30
0.0
 11
-427.259355995059
 21
118.167532108801
 31
0.0
  0
LINE
  5
   6B2
  8
0
  6
CONTINUOUS
 62
     2
 10
-426.20935601294
 20
132.726303661862
 30
0.0
 11
-426.20935601294
 21
132.867531858462
 31
0.0
  0
LINE
  5
   6B3
  8
0
  6
CONTINUOUS
 62
     2
 10
-426.20935601294
 20
132.308046432504
 30
0.0
 11
-426.20935601294
 21
132.726303661862
 31
0.0
  0
LINE
  5
   6B4
  8
0
  6
CONTINUOUS
 62
     2
 10
-426.20935601294
 20
131.628833635462
 30
0.0
 11
-426.20935601294
 21
132.308046432504
 31
0.0
  0
LINE
  5
   6B5
  8
0
  6
CONTINUOUS
 62
     2
 10
-426.20935601294
 20
130.714766668759
 30
0.0
 11
-426.20935601294
 21
131.628833635462
 31
0.0
  0
LINE
  5
   6B6
  8
0
  6
CONTINUOUS
 62
     2
 10
-426.20935601294
 20
129.600973171568
 30
0.0
 11
-426.20935601294
 21
130.714766668759
 31
0.0
  0
LINE
  5
   6B7
  8
0
  6
CONTINUOUS
 62
     2
 10
-426.20935601294
 20
128.330255190889
 30
0.0
 11
-426.20935601294
 21
129.600973171568
 31
0.0
  0
LINE
  5
   6B8
  8
0
  6
CONTINUOUS
 62
     2
 10
-426.20935601294
 20
126.951445827878
 30
0.0
 11
-426.20935601294
 21
128.330255190889
 31
0.0
  0
LINE
  5
   6B9
  8
0
  6
CONTINUOUS
 62
     2
 10
-426.20935601294
 20
125.517531983631
 30
0.0
 11
-426.20935601294
 21
126.951445827878
 31
0.0
  0
LINE
  5
   6BA
  8
0
  6
CONTINUOUS
 62
     2
 10
-426.20935601294
 20
124.083618181108
 30
0.0
 11
-426.20935601294
 21
125.517531983631
 31
0.0
  0
LINE
  5
   6BB
  8
0
  6
CONTINUOUS
 62
     2
 10
-426.20935601294
 20
122.704808776374
 30
0.0
 11
-426.20935601294
 21
124.083618181108
 31
0.0
  0
LINE
  5
   6BC
  8
0
  6
CONTINUOUS
 62
     2
 10
-426.20935601294
 20
121.434090795695
 30
0.0
 11
-426.20935601294
 21
122.704808776374
 31
0.0
  0
LINE
  5
   6BD
  8
0
  6
CONTINUOUS
 62
     2
 10
-426.20935601294
 20
120.320296964718
 30
0.0
 11
-426.20935601294
 21
121.434090795695
 31
0.0
  0
LINE
  5
   6BE
  8
0
  6
CONTINUOUS
 62
     2
 10
-426.20935601294
 20
119.406230665587
 30
0.0
 11
-426.20935601294
 21
120.320296964718
 31
0.0
  0
LINE
  5
   6BF
  8
0
  6
CONTINUOUS
 62
     2
 10
-426.20935601294
 20
118.727017534759
 30
0.0
 11
-426.20935601294
 21
119.406230665587
 31
0.0
  0
LINE
  5
   6C0
  8
0
  6
CONTINUOUS
 62
     2
 10
-426.20935601294
 20
118.308760305401
 30
0.0
 11
-426.20935601294
 21
118.727017534759
 31
0.0
  0
LINE
  5
   6C1
  8
0
  6
CONTINUOUS
 62
     2
 10
-426.20935601294
 20
118.167532108801
 30
0.0
 11
-426.20935601294
 21
118.308760305401
 31
0.0
  0
LINE
  5
   6C2
  8
0
  6
CONTINUOUS
 62
     2
 10
-427.259355995059
 20
126.951445827878
 30
0.0
 11
-427.259355995059
 21
128.330255190889
 31
0.0
  0
LINE
  5
   6C3
  8
0
  6
CONTINUOUS
 62
     2
 10
-427.259355995059
 20
132.726303661862
 30
0.0
 11
-427.259355995059
 21
132.867531858462
 31
0.0
  0
LINE
  5
   6C4
  8
0
  6
CONTINUOUS
 62
     2
 10
-427.259355995059
 20
120.320296964718
 30
0.0
 11
-427.259355995059
 21
121.434090795695
 31
0.0
  0
LINE
  5
   6C5
  8
0
  6
CONTINUOUS
 62
     2
 10
-427.259355995059
 20
129.600973171568
 30
0.0
 11
-427.259355995059
 21
130.714766668759
 31
0.0
  0
LINE
  5
   6C6
  8
0
  6
CONTINUOUS
 62
     2
 10
-427.259355995059
 20
132.308046432504
 30
0.0
 11
-427.259355995059
 21
132.726303661862
 31
0.0
  0
LINE
  5
   6C7
  8
0
  6
CONTINUOUS
 62
     2
 10
-427.259355995059
 20
131.628833635462
 30
0.0
 11
-427.259355995059
 21
132.308046432504
 31
0.0
  0
LINE
  5
   6C8
  8
0
  6
CONTINUOUS
 62
     2
 10
-427.259355995059
 20
130.714766668759
 30
0.0
 11
-427.259355995059
 21
131.628833635462
 31
0.0
  0
LINE
  5
   6C9
  8
0
  6
CONTINUOUS
 62
     2
 10
-427.259355995059
 20
119.406230665587
 30
0.0
 11
-427.259355995059
 21
120.320296964718
 31
0.0
  0
LINE
  5
   6CA
  8
0
  6
CONTINUOUS
 62
     2
 10
-427.259355995059
 20
122.704808776374
 30
0.0
 11
-427.259355995059
 21
124.083618181108
 31
0.0
  0
LINE
  5
   6CB
  8
0
  6
CONTINUOUS
 62
     2
 10
-427.259355995059
 20
128.330255190889
 30
0.0
 11
-427.259355995059
 21
129.600973171568
 31
0.0
  0
LINE
  5
   6CC
  8
0
  6
CONTINUOUS
 62
     2
 10
-427.259355995059
 20
118.167532108801
 30
0.0
 11
-427.259355995059
 21
118.308760305401
 31
0.0
  0
LINE
  5
   6CD
  8
0
  6
CONTINUOUS
 62
     2
 10
-427.259355995059
 20
125.517531983631
 30
0.0
 11
-427.259355995059
 21
126.951445827878
 31
0.0
  0
LINE
  5
   6CE
  8
0
  6
CONTINUOUS
 62
     2
 10
-427.259355995059
 20
124.083618181108
 30
0.0
 11
-427.259355995059
 21
125.517531983631
 31
0.0
  0
LINE
  5
   6CF
  8
0
  6
CONTINUOUS
 62
     2
 10
-427.259355995059
 20
118.727017534759
 30
0.0
 11
-427.259355995059
 21
119.406230665587
 31
0.0
  0
LINE
  5
   6D0
  8
0
  6
CONTINUOUS
 62
     2
 10
-427.259355995059
 20
121.434090795695
 30
0.0
 11
-427.259355995059
 21
122.704808776374
 31
0.0
  0
LINE
  5
   6D1
  8
0
  6
CONTINUOUS
 62
     2
 10
-427.259355995059
 20
118.308760305401
 30
0.0
 11
-427.259355995059
 21
118.727017534759
 31
0.0
  0
LINE
  5
   6D2
  8
0
  6
CONTINUOUS
 62
     5
 10
-431.984355914593
 20
131.292531885284
 30
0.0
 11
-432.334355908632
 21
131.642531879323
 31
0.0
  0
LINE
  5
   6D3
  8
0
  6
CONTINUOUS
 62
     5
 10
-432.334355908632
 20
119.39253208794
 30
0.0
 11
-431.984355914593
 21
119.742532081979
 31
0.0
  0
LINE
  5
   6D4
  8
0
  6
CONTINUOUS
 62
     5
 10
-432.334355908632
 20
131.642531879323
 30
0.0
 11
-443.884358382225
 21
131.642531879323
 31
0.0
  0
LINE
  5
   6D5
  8
0
  6
CONTINUOUS
 62
     5
 10
-444.934358364343
 20
131.642531879323
 30
0.0
 11
-448.434358304739
 21
131.642531879323
 31
0.0
  0
LINE
  5
   6D6
  8
0
  6
CONTINUOUS
 62
     5
 10
-449.484358286857
 20
131.642531879323
 30
0.0
 11
-454.559358200431
 21
131.642531879323
 31
0.0
  0
LINE
  5
   6D7
  8
0
  6
CONTINUOUS
 62
     5
 10
-432.334355908632
 20
119.39253208794
 30
0.0
 11
-443.884358382225
 21
119.39253208794
 31
0.0
  0
LINE
  5
   6D8
  8
0
  6
CONTINUOUS
 62
     5
 10
-444.934358364343
 20
119.39253208794
 30
0.0
 11
-448.434358304739
 21
119.39253208794
 31
0.0
  0
LINE
  5
   6D9
  8
0
  6
CONTINUOUS
 62
     5
 10
-449.484358286857
 20
119.39253208794
 30
0.0
 11
-454.559358200431
 21
119.39253208794
 31
0.0
  0
LINE
  5
   6DA
  8
0
  6
CONTINUOUS
 62
     5
 10
-431.984355914593
 20
129.601073641155
 30
0.0
 11
-431.984355914593
 21
130.319268971942
 31
0.0
  0
LINE
  5
   6DB
  8
0
  6
CONTINUOUS
 62
     5
 10
-431.984355914593
 20
127.727528789333
 30
0.0
 11
-431.984355914593
 21
128.725949988341
 31
0.0
  0
LINE
  5
   6DC
  8
0
  6
CONTINUOUS
 62
     5
 10
-431.984355914593
 20
130.319268971942
 30
0.0
 11
-431.984355914593
 21
130.852936050409
 31
0.0
  0
LINE
  5
   6DD
  8
0
  6
CONTINUOUS
 62
     5
 10
-431.984355914593
 20
130.852936050409
 30
0.0
 11
-431.984355914593
 21
131.181566730618
 31
0.0
  0
LINE
  5
   6DE
  8
0
  6
CONTINUOUS
 62
     5
 10
-431.984355914593
 20
128.725949988341
 30
0.0
 11
-431.984355914593
 21
129.601073641155
 31
0.0
  0
LINE
  5
   6DF
  8
0
  6
CONTINUOUS
 62
     5
 10
-431.984355914593
 20
125.517531983631
 30
0.0
 11
-431.984355914593
 21
126.644178578519
 31
0.0
  0
LINE
  5
   6E0
  8
0
  6
CONTINUOUS
 62
     5
 10
-431.984355914593
 20
123.307535177929
 30
0.0
 11
-431.984355914593
 21
124.390885388743
 31
0.0
  0
LINE
  5
   6E1
  8
0
  6
CONTINUOUS
 62
     5
 10
-431.984355914593
 20
131.181566730618
 30
0.0
 11
-431.984355914593
 21
131.292531885284
 31
0.0
  0
LINE
  5
   6E2
  8
0
  6
CONTINUOUS
 62
     5
 10
-431.984355914593
 20
124.390885388743
 30
0.0
 11
-431.984355914593
 21
125.517531983631
 31
0.0
  0
LINE
  5
   6E3
  8
0
  6
CONTINUOUS
 62
     5
 10
-431.984355914593
 20
122.309113812028
 30
0.0
 11
-431.984355914593
 21
123.307535177929
 31
0.0
  0
LINE
  5
   6E4
  8
0
  6
CONTINUOUS
 62
     5
 10
-431.984355914593
 20
126.644178578519
 30
0.0
 11
-431.984355914593
 21
127.727528789333
 31
0.0
  0
LINE
  5
   6E5
  8
0
  6
CONTINUOUS
 62
     5
 10
-431.984355914593
 20
121.433990326108
 30
0.0
 11
-431.984355914593
 21
122.309113812028
 31
0.0
  0
LINE
  5
   6E6
  8
0
  6
CONTINUOUS
 62
     5
 10
-431.984355914593
 20
119.853497236645
 30
0.0
 11
-431.984355914593
 21
120.182127583068
 31
0.0
  0
LINE
  5
   6E7
  8
0
  6
CONTINUOUS
 62
     5
 10
-431.984355914593
 20
120.715795329107
 30
0.0
 11
-431.984355914593
 21
121.433990326108
 31
0.0
  0
LINE
  5
   6E8
  8
0
  6
CONTINUOUS
 62
     5
 10
-431.984355914593
 20
120.182127583068
 30
0.0
 11
-431.984355914593
 21
120.715795329107
 31
0.0
  0
LINE
  5
   6E9
  8
0
  6
CONTINUOUS
 62
     5
 10
-431.984355914593
 20
119.742532081979
 30
0.0
 11
-431.984355914593
 21
119.853497236645
 31
0.0
  0
LINE
  5
   6EA
  8
0
  6
CONTINUOUS
 62
     5
 10
-432.334355908632
 20
119.510222363035
 30
0.0
 11
-432.334355908632
 21
119.85876972038
 31
0.0
  0
LINE
  5
   6EB
  8
0
  6
CONTINUOUS
 62
     5
 10
-432.334355908632
 20
131.524841604228
 30
0.0
 11
-432.334355908632
 21
131.642531879323
 31
0.0
  0
LINE
  5
   6EC
  8
0
  6
CONTINUOUS
 62
     5
 10
-432.334355908632
 20
120.424780662737
 30
0.0
 11
-432.334355908632
 21
121.186503023728
 31
0.0
  0
LINE
  5
   6ED
  8
0
  6
CONTINUOUS
 62
     5
 10
-432.334355908632
 20
122.11466443828
 30
0.0
 11
-432.334355908632
 21
123.173595866322
 31
0.0
  0
LINE
  5
   6EE
  8
0
  6
CONTINUOUS
 62
     5
 10
-432.334355908632
 20
125.517531983631
 30
0.0
 11
-432.334355908632
 21
126.712460180216
 31
0.0
  0
LINE
  5
   6EF
  8
0
  6
CONTINUOUS
 62
     5
 10
-432.334355908632
 20
131.176293913096
 30
0.0
 11
-432.334355908632
 21
131.524841604228
 31
0.0
  0
LINE
  5
   6F0
  8
0
  6
CONTINUOUS
 62
     5
 10
-432.334355908632
 20
119.85876972038
 30
0.0
 11
-432.334355908632
 21
120.424780662737
 31
0.0
  0
LINE
  5
   6F1
  8
0
  6
CONTINUOUS
 62
     5
 10
-432.334355908632
 20
130.610283304526
 30
0.0
 11
-432.334355908632
 21
131.176293913096
 31
0.0
  0
LINE
  5
   6F2
  8
0
  6
CONTINUOUS
 62
     5
 10
-432.334355908632
 20
126.712460180216
 30
0.0
 11
-432.334355908632
 21
127.861467934048
 31
0.0
  0
LINE
  5
   6F3
  8
0
  6
CONTINUOUS
 62
     5
 10
-432.334355908632
 20
123.173595866322
 30
0.0
 11
-432.334355908632
 21
124.322603787047
 31
0.0
  0
LINE
  5
   6F4
  8
0
  6
CONTINUOUS
 62
     5
 10
-432.334355908632
 20
119.39253208794
 30
0.0
 11
-432.334355908632
 21
119.510222363035
 31
0.0
  0
LINE
  5
   6F5
  8
0
  6
CONTINUOUS
 62
     5
 10
-432.334355908632
 20
124.322603787047
 30
0.0
 11
-432.334355908632
 21
125.517531983631
 31
0.0
  0
LINE
  5
   6F6
  8
0
  6
CONTINUOUS
 62
     5
 10
-432.334355908632
 20
127.861467934048
 30
0.0
 11
-432.334355908632
 21
128.920399528983
 31
0.0
  0
LINE
  5
   6F7
  8
0
  6
CONTINUOUS
 62
     5
 10
-432.334355908632
 20
121.186503023728
 30
0.0
 11
-432.334355908632
 21
122.11466443828
 31
0.0
  0
LINE
  5
   6F8
  8
0
  6
CONTINUOUS
 62
     5
 10
-432.334355908632
 20
128.920399528983
 30
0.0
 11
-432.334355908632
 21
129.848560943535
 31
0.0
  0
LINE
  5
   6F9
  8
0
  6
CONTINUOUS
 62
     5
 10
-432.334355908632
 20
129.848560943535
 30
0.0
 11
-432.334355908632
 21
130.610283304526
 31
0.0
  0
LINE
  5
   6FA
  8
0
  6
CONTINUOUS
 62
   210
 10
-431.459355923533
 20
130.942531891244
 30
0.0
 11
-431.984355914593
 21
130.942531891244
 31
0.0
  0
LINE
  5
   6FB
  8
0
  6
CONTINUOUS
 62
   210
 10
-431.459355923533
 20
120.092532076019
 30
0.0
 11
-431.984355914593
 21
120.092532076019
 31
0.0
  0
LINE
  5
   6FC
  8
0
  6
CONTINUOUS
 62
   130
 10
-427.259355995059
 20
122.486442967791
 30
0.0
 11
-431.459355923533
 21
122.486442967791
 31
0.0
  0
LINE
  5
   6FD
  8
0
  6
CONTINUOUS
 62
   130
 10
-427.259355995059
 20
119.455353951952
 30
0.0
 11
-431.459355923533
 21
119.455353951952
 31
0.0
  0
LINE
  5
   6FE
  8
0
  6
CONTINUOUS
 62
   130
 10
-427.259355995059
 20
128.548620832578
 30
0.0
 11
-431.459355923533
 21
128.548620832578
 31
0.0
  0
LINE
  5
   6FF
  8
0
  6
CONTINUOUS
 62
   130
 10
-427.259355995059
 20
131.579709681525
 30
0.0
 11
-431.459355923533
 21
131.579709681525
 31
0.0
  0
LINE
  5
   700
  8
0
  6
CONTINUOUS
 62
   130
 10
-431.459355923533
 20
119.455353951952
 30
0.0
 11
-431.459355923533
 21
131.579709681525
 31
0.0
  0
LINE
  5
   701
  8
0
  6
CONTINUOUS
 62
   130
 10
-417.459356161952
 20
122.486442967791
 30
0.0
 11
-421.659356090426
 21
122.486442967791
 31
0.0
  0
LINE
  5
   702
  8
0
  6
CONTINUOUS
 62
   130
 10
-417.459356161952
 20
119.455353951952
 30
0.0
 11
-421.659356090426
 21
119.455353951952
 31
0.0
  0
LINE
  5
   703
  8
0
  6
CONTINUOUS
 62
   130
 10
-417.459356161952
 20
128.548620832578
 30
0.0
 11
-421.659356090426
 21
128.548620832578
 31
0.0
  0
LINE
  5
   704
  8
0
  6
CONTINUOUS
 62
   130
 10
-417.459356161952
 20
131.579709681525
 30
0.0
 11
-421.659356090426
 21
131.579709681525
 31
0.0
  0
LINE
  5
   705
  8
0
  6
CONTINUOUS
 62
   130
 10
-417.459356161952
 20
122.486442967791
 30
0.0
 11
-417.459356161952
 21
128.548620832578
 31
0.0
  0
LINE
  5
   706
  8
0
  6
CONTINUOUS
 62
   130
 10
-417.459356161952
 20
119.455353951952
 30
0.0
 11
-417.459356161952
 21
122.486442967791
 31
0.0
  0
LINE
  5
   707
  8
0
  6
CONTINUOUS
 62
   130
 10
-417.459356161952
 20
128.548620832578
 30
0.0
 11
-417.459356161952
 21
131.579709681525
 31
0.0
  0
LINE
  5
   708
  8
0
  6
CONTINUOUS
 62
     2
 10
-416.409356179833
 20
129.192531921047
 30
0.0
 11
-416.934356170892
 21
129.717531912106
 31
0.0
  0
LINE
  5
   709
  8
0
  6
CONTINUOUS
 62
     2
 10
-416.934356170893
 20
121.317532055157
 30
0.0
 11
-416.409356179833
 21
121.842532046216
 31
0.0
  0
LINE
  5
   70A
  8
0
  6
CONTINUOUS
 62
     2
 10
-416.934356170893
 20
129.717531912106
 30
0.0
 11
-417.459356161952
 21
129.717531912106
 31
0.0
  0
LINE
  5
   70B
  8
0
  6
CONTINUOUS
 62
     2
 10
-422.709356072545
 20
129.717531912106
 30
0.0
 11
-426.20935601294
 21
129.717531912106
 31
0.0
  0
LINE
  5
   70C
  8
0
  6
CONTINUOUS
 62
     2
 10
-416.934356170893
 20
121.317532055157
 30
0.0
 11
-417.459356161952
 21
121.317532055157
 31
0.0
  0
LINE
  5
   70D
  8
0
  6
CONTINUOUS
 62
     2
 10
-422.709356072545
 20
121.317532055157
 30
0.0
 11
-426.20935601294
 21
121.317532055157
 31
0.0
  0
LINE
  5
   70E
  8
0
  6
CONTINUOUS
 62
     2
 10
-416.409356179833
 20
122.461881324609
 30
0.0
 11
-416.409356179833
 21
122.918914474175
 31
0.0
  0
LINE
  5
   70F
  8
0
  6
CONTINUOUS
 62
     2
 10
-416.409356179833
 20
129.121917822747
 30
0.0
 11
-416.409356179833
 21
129.192531921047
 31
0.0
  0
LINE
  5
   710
  8
0
  6
CONTINUOUS
 62
     2
 10
-416.409356179833
 20
128.912789208068
 30
0.0
 11
-416.409356179833
 21
129.121917822747
 31
0.0
  0
LINE
  5
   711
  8
0
  6
CONTINUOUS
 62
     2
 10
-416.409356179833
 20
124.800574998923
 30
0.0
 11
-416.409356179833
 21
125.517531983631
 31
0.0
  0
LINE
  5
   712
  8
0
  6
CONTINUOUS
 62
     2
 10
-416.409356179833
 20
128.573182809547
 30
0.0
 11
-416.409356179833
 21
128.912789208068
 31
0.0
  0
LINE
  5
   713
  8
0
  6
CONTINUOUS
 62
     2
 10
-416.409356179833
 20
128.116149326195
 30
0.0
 11
-416.409356179833
 21
128.573182809547
 31
0.0
  0
LINE
  5
   714
  8
0
  6
CONTINUOUS
 62
     2
 10
-416.409356179833
 20
126.234488905755
 30
0.0
 11
-416.409356179833
 21
126.92389358726
 31
0.0
  0
LINE
  5
   715
  8
0
  6
CONTINUOUS
 62
     2
 10
-416.409356179833
 20
127.5592525776
 30
0.0
 11
-416.409356179833
 21
128.116149326195
 31
0.0
  0
LINE
  5
   716
  8
0
  6
CONTINUOUS
 62
     2
 10
-416.409356179833
 20
121.842532046216
 30
0.0
 11
-416.409356179833
 21
121.913146144516
 31
0.0
  0
LINE
  5
   717
  8
0
  6
CONTINUOUS
 62
     2
 10
-416.409356179833
 20
126.92389358726
 30
0.0
 11
-416.409356179833
 21
127.5592525776
 31
0.0
  0
LINE
  5
   718
  8
0
  6
CONTINUOUS
 62
     2
 10
-416.409356179833
 20
121.913146144516
 30
0.0
 11
-416.409356179833
 21
122.122274759195
 31
0.0
  0
LINE
  5
   719
  8
0
  6
CONTINUOUS
 62
     2
 10
-416.409356179833
 20
124.111170380003
 30
0.0
 11
-416.409356179833
 21
124.800574998923
 31
0.0
  0
LINE
  5
   71A
  8
0
  6
CONTINUOUS
 62
     2
 10
-416.409356179833
 20
125.517531983631
 30
0.0
 11
-416.409356179833
 21
126.234488905755
 31
0.0
  0
LINE
  5
   71B
  8
0
  6
CONTINUOUS
 62
     2
 10
-416.409356179833
 20
123.475811389663
 30
0.0
 11
-416.409356179833
 21
124.111170380003
 31
0.0
  0
LINE
  5
   71C
  8
0
  6
CONTINUOUS
 62
     2
 10
-416.409356179833
 20
122.918914474175
 30
0.0
 11
-416.409356179833
 21
123.475811389663
 31
0.0
  0
LINE
  5
   71D
  8
0
  6
CONTINUOUS
 62
     2
 10
-416.409356179833
 20
122.122274759195
 30
0.0
 11
-416.409356179833
 21
122.461881324609
 31
0.0
  0
LINE
  5
   71E
  8
0
  6
CONTINUOUS
 62
     2
 10
-416.934356170893
 20
127.850926888562
 30
0.0
 11
-416.934356170893
 21
128.487380446658
 31
0.0
  0
LINE
  5
   71F
  8
0
  6
CONTINUOUS
 62
     2
 10
-416.934356170893
 20
129.009704308422
 30
0.0
 11
-416.934356170893
 21
129.397826002099
 31
0.0
  0
LINE
  5
   720
  8
0
  6
CONTINUOUS
 62
     2
 10
-416.934356170893
 20
122.547683687497
 30
0.0
 11
-416.934356170893
 21
123.184137162148
 31
0.0
  0
LINE
  5
   721
  8
0
  6
CONTINUOUS
 62
     2
 10
-416.934356170893
 20
124.698152596378
 30
0.0
 11
-416.934356170893
 21
125.517531983631
 31
0.0
  0
LINE
  5
   722
  8
0
  6
CONTINUOUS
 62
     2
 10
-416.934356170893
 20
125.517531983631
 30
0.0
 11
-416.934356170893
 21
126.33691131873
 31
0.0
  0
LINE
  5
   723
  8
0
  6
CONTINUOUS
 62
     2
 10
-416.934356170893
 20
126.33691131873
 30
0.0
 11
-416.934356170893
 21
127.124802387778
 31
0.0
  0
LINE
  5
   724
  8
0
  6
CONTINUOUS
 62
     2
 10
-416.934356170893
 20
129.397826002099
 30
0.0
 11
-416.934356170893
 21
129.636830133161
 31
0.0
  0
LINE
  5
   725
  8
0
  6
CONTINUOUS
 62
     2
 10
-416.934356170893
 20
122.025359658841
 30
0.0
 11
-416.934356170893
 21
122.547683687497
 31
0.0
  0
LINE
  5
   726
  8
0
  6
CONTINUOUS
 62
     2
 10
-416.934356170893
 20
129.636830133161
 30
0.0
 11
-416.934356170893
 21
129.717531912106
 31
0.0
  0
LINE
  5
   727
  8
0
  6
CONTINUOUS
 62
     2
 10
-416.934356170893
 20
123.184137162148
 30
0.0
 11
-416.934356170893
 21
123.910261579485
 31
0.0
  0
LINE
  5
   728
  8
0
  6
CONTINUOUS
 62
     2
 10
-416.934356170893
 20
123.910261579485
 30
0.0
 11
-416.934356170893
 21
124.698152596378
 31
0.0
  0
LINE
  5
   729
  8
0
  6
CONTINUOUS
 62
     2
 10
-416.934356170893
 20
121.398233834102
 30
0.0
 11
-416.934356170893
 21
121.637237965164
 31
0.0
  0
LINE
  5
   72A
  8
0
  6
CONTINUOUS
 62
     2
 10
-416.934356170893
 20
128.487380446658
 30
0.0
 11
-416.934356170893
 21
129.009704308422
 31
0.0
  0
LINE
  5
   72B
  8
0
  6
CONTINUOUS
 62
     2
 10
-416.934356170893
 20
121.317532055157
 30
0.0
 11
-416.934356170893
 21
121.398233834102
 31
0.0
  0
LINE
  5
   72C
  8
0
  6
CONTINUOUS
 62
     2
 10
-416.934356170893
 20
127.124802387778
 30
0.0
 11
-416.934356170893
 21
127.850926888562
 31
0.0
  0
LINE
  5
   72D
  8
0
  6
CONTINUOUS
 62
     2
 10
-416.934356170893
 20
121.637237965164
 30
0.0
 11
-416.934356170893
 21
122.025359658841
 31
0.0
  0
LINE
  5
   72E
  8
0
  6
CONTINUOUS
 62
     5
 10
-476.084355163574
 20
128.142531938928
 30
0.0
 11
-476.084355163574
 21
128.143584533095
 31
0.0
  0
LINE
  5
   72F
  8
0
  6
CONTINUOUS
 62
     5
 10
-476.084355163574
 20
122.891479601061
 30
0.0
 11
-476.084355163574
 21
122.892532028335
 31
0.0
  0
LINE
  5
   730
  8
0
  6
CONTINUOUS
 62
     2
 10
-438.459355804324
 20
121.842532046216
 30
0.0
 11
-438.459355804324
 21
129.192531921047
 31
0.0
  0
LINE
  5
   731
  8
0
  6
CONTINUOUS
 62
     2
 10
-438.459355804324
 20
129.192531921047
 30
0.0
 11
-438.984355795383
 21
129.717531912106
 31
0.0
  0
LINE
  5
   732
  8
0
  6
CONTINUOUS
 62
     2
 10
-438.984355795383
 20
121.317532055157
 30
0.0
 11
-438.459355804324
 21
121.842532046216
 31
0.0
  0
LINE
  5
   733
  8
0
  6
CONTINUOUS
 62
     2
 10
-438.984355795383
 20
129.717531912106
 30
0.0
 11
-439.684355783462
 21
129.717531912106
 31
0.0
  0
LINE
  5
   734
  8
0
  6
CONTINUOUS
 62
     2
 10
-438.984355795383
 20
121.317532055157
 30
0.0
 11
-439.684355783462
 21
121.317532055157
 31
0.0
  0
LINE
  5
   735
  8
0
  6
CONTINUOUS
 62
     2
 10
-438.739355866313
 20
129.472531983035
 30
0.0
 11
-439.684355783462
 21
129.472531983035
 31
0.0
  0
LINE
  5
   736
  8
0
  6
CONTINUOUS
 62
     2
 10
-438.739355866313
 20
121.562531984228
 30
0.0
 11
-439.684355783462
 21
121.562531984228
 31
0.0
  0
LINE
  5
   737
  8
0
  6
CONTINUOUS
 62
     3
 10
-454.209358206391
 20
129.717531912106
 30
0.0
 11
-454.209358206391
 21
129.722648851563
 31
0.0
  0
LINE
  5
   738
  8
0
  6
CONTINUOUS
 62
     3
 10
-454.209358206391
 20
121.312415115699
 30
0.0
 11
-454.209358206391
 21
121.317532055157
 31
0.0
  0
LINE
  5
   739
  8
0
  6
CONTINUOUS
 62
     3
 10
-454.209358206391
 20
131.292531885284
 30
0.0
 11
-454.559358200431
 21
131.642531879323
 31
0.0
  0
LINE
  5
   73A
  8
0
  6
CONTINUOUS
 62
     3
 10
-454.559358200431
 20
131.642531879323
 30
0.0
 11
-461.384358084202
 21
131.642531879323
 31
0.0
  0
LINE
  5
   73B
  8
0
  6
CONTINUOUS
 62
     3
 10
-454.209358206391
 20
119.742532081979
 30
0.0
 11
-454.209358206391
 21
131.292531885284
 31
0.0
  0
LINE
  5
   73C
  8
0
  6
CONTINUOUS
 62
     3
 10
-454.559358200431
 20
119.39253208794
 30
0.0
 11
-454.209358206391
 21
119.742532081979
 31
0.0
  0
LINE
  5
   73D
  8
0
  6
CONTINUOUS
 62
     3
 10
-454.559358200431
 20
119.39253208794
 30
0.0
 11
-461.384358084202
 21
119.39253208794
 31
0.0
  0
LINE
  5
   73E
  8
0
  6
CONTINUOUS
 62
     2
 10
-438.984355795383
 20
121.317532055157
 30
0.0
 11
-438.984355795383
 21
129.717531912106
 31
0.0
  0
LINE
  5
   73F
  8
0
  6
CONTINUOUS
 62
     2
 10
-444.934358364343
 20
121.317532055157
 30
0.0
 11
-448.434358304739
 21
121.317532055157
 31
0.0
  0
LINE
  5
   740
  8
0
  6
CONTINUOUS
 62
     2
 10
-444.934358364343
 20
121.562531984228
 30
0.0
 11
-448.434358304739
 21
121.562531984228
 31
0.0
  0
LINE
  5
   741
  8
0
  6
CONTINUOUS
 62
     2
 10
-444.934358364343
 20
129.472531983035
 30
0.0
 11
-448.434358304739
 21
129.472531983035
 31
0.0
  0
LINE
  5
   742
  8
0
  6
CONTINUOUS
 62
     2
 10
-444.934358364343
 20
129.717531912106
 30
0.0
 11
-448.434358304739
 21
129.717531912106
 31
0.0
  0
LINE
  5
   743
  8
0
  6
DASHDOT
 62
     7
 10
-415.009374017384
 20
125.517531983631
 30
0.0
 11
-480.412303252397
 21
125.517531983631
 31
0.0
  0
LINE
  5
   744
  8
0
  6
CONTINUOUS
 62
     2
 10
-422.709356072545
 20
129.472531983035
 30
0.0
 11
-426.20935601294
 21
129.472531983035
 31
0.0
  0
LINE
  5
   745
  8
0
  6
CONTINUOUS
 62
     2
 10
-422.709356072545
 20
121.562531984228
 30
0.0
 11
-426.20935601294
 21
121.562531984228
 31
0.0
  0
LINE
  5
   746
  8
0
  6
CONTINUOUS
 62
     2
 10
-416.689356241822
 20
129.472531983035
 30
0.0
 11
-417.459356161952
 21
129.472531983035
 31
0.0
  0
LINE
  5
   747
  8
0
  6
CONTINUOUS
 62
     2
 10
-416.689356241822
 20
121.562531984227
 30
0.0
 11
-417.459356161952
 21
121.562531984227
 31
0.0
  0
LINE
  5
   748
  8
0
  6
CONTINUOUS
 62
     3
 10
-454.559358200431
 20
119.39253208794
 30
0.0
 11
-454.559358200431
 21
131.642531879323
 31
0.0
  0
INSERT
  5
   749
  8
0
  6
CONTINUOUS
 62
     7
  2
*UDIM798
 10
0.0
 20
0.0
 30
0.0
  0
INSERT
  5
   74A
  8
0
  6
CONTINUOUS
 62
     7
  2
*UDIM799
 10
0.0
 20
0.0
 30
0.0
  0
TEXT
  5
   74B
  8
0
  6
CONTINUOUS
 62
     7
 10
-561.317202278947
 20
220.444287105764
 30
0.0
 40
2.4999999335834
  1
INSULATING DISTANCE
 50
359.999999948034
 41
0.899999947857856
 72
     1
 11
-540.167204068394
 21
221.694287053479
 31
0.0
 73
     2
  0
TEXT
  5
   74C
  8
0
  6
CONTINUOUS
 62
     7
 10
-563.567202241806
 20
216.944287107793
 30
0.0
 40
2.4999999335834
  1
CORSA DI SEZIONAMENTO
 50
359.999999948034
 41
0.899999947857856
 72
     1
 11
-540.167204221384
 21
218.194287053479
 31
0.0
 73
     2
  0
INSERT
  5
   74D
  8
0
  6
CONTINUOUS
 62
     7
  2
*UDIM800
 10
0.0
 20
0.0
 30
0.0
  0
INSERT
  5
   74E
  8
0
  6
CONTINUOUS
 62
     7
  2
*UDIM801
 10
0.0
 20
0.0
 30
0.0
  0
INSERT
  5
   74F
  8
0
  6
CONTINUOUS
 62
     7
  2
*UDIM802
 10
0.0
 20
0.0
 30
0.0
  0
INSERT
  5
   750
  8
0
  6
CONTINUOUS
 62
     7
  2
*UDIM803
 10
0.0
 20
0.0
 30
0.0
  0
INSERT
  5
   751
  8
0
  6
CONTINUOUS
 62
     7
  2
*UDIM804
 10
0.0
 20
0.0
 30
0.0
  0
TEXT
  5
   752
  8
0
  6
CONTINUOUS
 62
     7
 10
-562.12806771075
 20
163.856705292995
 30
0.0
 40
2.99999997871263
  1
X
 50
359.999999948034
 41
0.91666663951344
 72
     2
 11
-559.928067775038
 21
163.856705291011
 31
0.0
  0
INSERT
  5
   753
  8
0
  6
CONTINUOUS
 62
     7
  2
*UDIM805
 10
0.0
 20
0.0
 30
0.0
  0
TEXT
  5
   754
  8
0
  6
CONTINUOUS
 62
     5
 10
-549.928703587381
 20
153.94598544184
 30
0.0
 40
2.99999997871263
  1
=       =
 50
89.9999999480344
 41
0.91666663951344
 72
     2
 11
-549.928703565463
 21
178.145984569768
 31
0.0
  0
INSERT
  5
   755
  8
0
  6
CONTINUOUS
 62
     7
  2
*UDIM806
 10
0.0
 20
0.0
 30
0.0
  0
INSERT
  5
   756
  8
0
  6
CONTINUOUS
 62
     7
  2
*UDIM807
 10
0.0
 20
0.0
 30
0.0
  0
LINE
  5
   757
  8
0
  6
CONTINUOUS
 62
     7
 10
-484.582580566406
 20
-39.2522888183594
 30
0.0
 11
-450.832580566406
 21
-39.2522888183594
 31
0.0
  0
LINE
  5
   758
  8
0
  6
CONTINUOUS
 62
     7
 10
-484.582580566406
 20
-7.75228881835938
 30
0.0
 11
-450.832580566406
 21
-7.75228881835938
 31
0.0
  0
LINE
  5
   759
  8
0
  6
CONTINUOUS
 62
     7
 10
-450.832580566406
 20
-7.75228881835938
 30
0.0
 11
-450.832580566406
 21
-28.3147888183594
 31
0.0
  0
LINE
  5
   75A
  8
0
  6
CONTINUOUS
 62
     7
 10
-484.582580566406
 20
-7.75228881835938
 30
0.0
 11
-484.582580566406
 21
-39.2522888183594
 31
0.0
  0
LINE
  5
   75B
  8
0
  6
DASHDOT
 62
     7
 10
-455.307567113001
 20
-30.3147888183594
 30
0.0
 11
-441.327274166965
 21
-30.3147888183594
 31
0.0
  0
LINE
  5
   75C
  8
0
  6
CONTINUOUS
 62
     7
 10
-450.832580566406
 20
-28.3147888183594
 30
0.0
 11
-445.082580566406
 21
-28.3147888183594
 31
0.0
  0
LINE
  5
   75D
  8
0
  6
CONTINUOUS
 62
     7
 10
-450.832580566406
 20
-32.3147888183594
 30
0.0
 11
-445.082580566406
 21
-32.3147888183594
 31
0.0
  0
ARC
  5
   75E
  8
0
  6
CONTINUOUS
 62
     7
 10
-445.082580566406
 20
-30.3147888183594
 30
0.0
 40
2.0
 50
269.999999844103
 51
449.999999844103
  0
LINE
  5
   75F
  8
0
  6
CONTINUOUS
 62
     7
 10
-450.832580566406
 20
-32.3147888183594
 30
0.0
 11
-450.832580566406
 21
-39.2522888183594
 31
0.0
  0
LINE
  5
   760
  8
0
  6
DASHDOT
 62
     7
 10
-466.582580566406
 20
2.12520234249573
 30
0.0
 11
-466.582580566406
 21
-46.6474701359108
 31
0.0
  0
CIRCLE
  5
   761
  8
0
  6
CONTINUOUS
 62
     7
 10
-477.582580566406
 20
-5.75228881835938
 30
0.0
 40
0.875
  0
CIRCLE
  5
   762
  8
0
  6
CONTINUOUS
 62
     7
 10
-446.332580566406
 20
-5.75228881835938
 30
0.0
 40
1.0
  0
CIRCLE
  5
   763
  8
0
  6
CONTINUOUS
 62
     7
 10
-446.332580566406
 20
-23.5022888183594
 30
0.0
 40
1.0
  0
CIRCLE
  5
   764
  8
0
  6
CONTINUOUS
 62
     7
 10
-446.332580566406
 20
-41.2522888183594
 30
0.0
 40
0.875
  0
CIRCLE
  5
   765
  8
0
  6
CONTINUOUS
 62
     7
 10
-477.582580566406
 20
-41.2522888183594
 30
0.0
 40
1.0
  0
LINE
  5
   766
  8
0
  6
DASHDOT
 62
     7
 10
-477.582580566406
 20
-4.12728881835938
 30
0.0
 11
-477.582580566406
 21
-7.37728881835938
 31
0.0
  0
LINE
  5
   767
  8
0
  6
DASHDOT
 62
     7
 10
-479.207580566406
 20
-5.75228881835938
 30
0.0
 11
-475.957580566406
 21
-5.75228881835938
 31
0.0
  0
LINE
  5
   768
  8
0
  6
DASHDOT
 62
     7
 10
-446.332580566406
 20
-4.12728881835938
 30
0.0
 11
-446.332580566406
 21
-7.37728881835938
 31
0.0
  0
LINE
  5
   769
  8
0
  6
DASHDOT
 62
     7
 10
-447.957580566406
 20
-5.75228881835938
 30
0.0
 11
-444.707580566406
 21
-5.75228881835938
 31
0.0
  0
LINE
  5
   76A
  8
0
  6
DASHDOT
 62
     7
 10
-446.332580566406
 20
-21.8772888183594
 30
0.0
 11
-446.332580566406
 21
-25.1272888183594
 31
0.0
  0
LINE
  5
   76B
  8
0
  6
DASHDOT
 62
     7
 10
-447.957580566406
 20
-23.5022888183594
 30
0.0
 11
-444.707580566406
 21
-23.5022888183594
 31
0.0
  0
LINE
  5
   76C
  8
0
  6
DASHDOT
 62
     7
 10
-446.332580566406
 20
-39.6272888183594
 30
0.0
 11
-446.332580566406
 21
-42.8772888183594
 31
0.0
  0
LINE
  5
   76D
  8
0
  6
DASHDOT
 62
     7
 10
-447.957580566406
 20
-41.2522888183594
 30
0.0
 11
-444.707580566406
 21
-41.2522888183594
 31
0.0
  0
LINE
  5
   76E
  8
0
  6
DASHDOT
 62
     7
 10
-477.582580566406
 20
-39.6272888183594
 30
0.0
 11
-477.582580566406
 21
-42.8772888183594
 31
0.0
  0
LINE
  5
   76F
  8
0
  6
DASHDOT
 62
     7
 10
-479.207580566406
 20
-41.2522888183594
 30
0.0
 11
-475.957580566406
 21
-41.2522888183594
 31
0.0
  0
LINE
  5
   770
  8
0
  6
CONTINUOUS
 62
     7
 10
-490.507139643799
 20
-2.75228881835938
 30
0.0
 11
-440.920081168536
 21
-2.75228881835938
 31
0.0
  0
LINE
  5
   771
  8
0
  6
CONTINUOUS
 62
     7
 10
-491.140550974688
 20
-44.2522888183594
 30
0.0
 11
-440.467644503616
 21
-44.2522888183594
 31
0.0
  0
LINE
  5
   772
  8
0
  6
CONTINUOUS
 62
     7
 10
-441.332580566406
 20
-1.92224377076258
 30
0.0
 11
-441.332580566406
 21
-45.1751889371417
 31
0.0
  0
LINE
  5
   773
  8
0
  6
CONTINUOUS
 62
     7
 10
-489.582580566406
 20
-1.92224377076258
 30
0.0
 11
-489.582580566406
 21
-45.763356601538
 31
0.0
  0
POINT
  5
   774
  8
0
  6
CONTINUOUS
 62
     7
 10
-443.082580566406
 20
-30.4397888183594
 30
0.0
  0
LINE
  5
   775
  8
0
  6
DASHDOT
 62
     7
 10
-494.04330532955
 20
-23.5022888183594
 30
0.0
 11
-438.589852266269
 21
-23.5022888183594
 31
0.0
  0
CIRCLE
  5
   776
  8
0
  6
CONTINUOUS
 62
     7
 10
-460.957580566406
 20
-5.37728881835938
 30
0.0
 40
0.5
  0
CIRCLE
  5
   777
  8
0
  6
CONTINUOUS
 62
     7
 10
-472.207580566406
 20
-5.37728881835938
 30
0.0
 40
0.5
  0
CIRCLE
  5
   778
  8
0
  6
CONTINUOUS
 62
     7
 10
-460.957580566406
 20
-5.37728881835938
 30
0.0
 40
0.92
  0
CIRCLE
  5
   779
  8
0
  6
CONTINUOUS
 62
     7
 10
-472.207580566406
 20
-5.37728881835938
 30
0.0
 40
0.92
  0
LINE
  5
   77A
  8
0
  6
DASHDOT
 62
     7
 10
-460.957580566406
 20
-3.70728881835937
 30
0.0
 11
-460.957580566406
 21
-7.04728881835937
 31
0.0
  0
LINE
  5
   77B
  8
0
  6
DASHDOT
 62
     7
 10
-462.627580566406
 20
-5.37728881835938
 30
0.0
 11
-459.287580566406
 21
-5.37728881835938
 31
0.0
  0
LINE
  5
   77C
  8
0
  6
DASHDOT
 62
     7
 10
-472.207580566406
 20
-3.70728881835937
 30
0.0
 11
-472.207580566406
 21
-7.04728881835937
 31
0.0
  0
LINE
  5
   77D
  8
0
  6
DASHDOT
 62
     7
 10
-473.877580566406
 20
-5.37728881835938
 30
0.0
 11
-470.537580566406
 21
-5.37728881835938
 31
0.0
  0
LINE
  5
   77E
  8
0
  6
CONTINUOUS
 62
     7
 10
-439.240116994257
 20
-7.03665831126455
 30
0.0
 11
-439.240116994257
 21
-15.3360989686813
 31
0.0
  0
LINE
  5
   77F
  8
0
  6
CONTINUOUS
 62
     7
 10
-436.640292210005
 20
-7.03665831126455
 30
0.0
 11
-436.640292210005
 21
-15.3360989686813
 31
0.0
  0
LINE
  5
   780
  8
0
  6
CONTINUOUS
 62
     7
 10
-439.240116994257
 20
-7.03665831126455
 30
0.0
 11
-436.640292210005
 21
-7.03665831126455
 31
0.0
  0
LINE
  5
   781
  8
0
  6
CONTINUOUS
 62
     7
 10
-439.240116994257
 20
-15.3360989686813
 30
0.0
 11
-436.640292210005
 21
-15.3360989686813
 31
0.0
  0
LINE
  5
   782
  8
0
  6
CONTINUOUS
 62
     7
 10
-439.240116994257
 20
-39.9679193254542
 30
0.0
 11
-436.640292210005
 21
-39.9679193254542
 31
0.0
  0
LINE
  5
   783
  8
0
  6
CONTINUOUS
 62
     7
 10
-436.640292210005
 20
-31.6684786680374
 30
0.0
 11
-436.640292210005
 21
-39.9679193254542
 31
0.0
  0
LINE
  5
   784
  8
0
  6
CONTINUOUS
 62
     7
 10
-439.240116994257
 20
-31.6684786680374
 30
0.0
 11
-436.640292210005
 21
-31.6684786680374
 31
0.0
  0
LINE
  5
   785
  8
0
  6
CONTINUOUS
 62
     7
 10
-439.240116994257
 20
-31.6684786680374
 30
0.0
 11
-439.240116994257
 21
-39.9679193254542
 31
0.0
  0
LINE
  5
   786
  8
0
  6
DASHDOT
 62
     7
 10
-437.940204602131
 20
-2.63695483022435
 30
0.0
 11
-437.940204602131
 21
-59.0831506267515
 31
0.0
  0
INSERT
  5
   787
  8
0
  6
CONTINUOUS
 62
     7
  2
*UDIM808
 10
0.0
 20
0.0
 30
0.0
  0
INSERT
  5
   788
  8
0
  6
CONTINUOUS
 62
     7
  2
*UDIM809
 10
0.0
 20
0.0
 30
0.0
  0
INSERT
  5
   789
  8
0
  6
CONTINUOUS
 62
     7
  2
*UDIM810
 10
0.0
 20
0.0
 30
0.0
  0
INSERT
  5
   78A
  8
0
  6
CONTINUOUS
 62
     7
  2
*UDIM811
 10
0.0
 20
0.0
 30
0.0
  0
INSERT
  5
   78B
  8
0
  6
CONTINUOUS
 62
     7
  2
*UDIM812
 10
0.0
 20
0.0
 30
0.0
  0
INSERT
  5
   78C
  8
0
  6
CONTINUOUS
 62
     7
  2
*UDIM813
 10
0.0
 20
0.0
 30
0.0
  0
INSERT
  5
   78D
  8
0
  6
CONTINUOUS
 62
     7
  2
*UDIM814
 10
0.0
 20
0.0
 30
0.0
  0
TEXT
  5
   78E
  8
0
  6
CONTINUOUS
 62
     7
 10
-492.103709158079
 20
-32.6927544425874
 30
0.0
 40
3.00000002980232
  1
=     =
 50
449.999999844103
 41
0.916666604744064
 72
     2
 11
-492.103709107316
 21
-13.9927555244117
 31
0.0
  0
INSERT
  5
   78F
  8
0
  6
CONTINUOUS
 62
     7
  2
*UDIM815
 10
0.0
 20
0.0
 30
0.0
  0
INSERT
  5
   790
  8
0
  6
CONTINUOUS
 62
     7
  2
*UDIM816
 10
0.0
 20
0.0
 30
0.0
  0
INSERT
  5
   791
  8
0
  6
CONTINUOUS
 62
     7
  2
*UDIM817
 10
0.0
 20
0.0
 30
0.0
  0
INSERT
  5
   792
  8
0
  6
CONTINUOUS
 62
     7
  2
*UDIM818
 10
0.0
 20
0.0
 30
0.0
  0
INSERT
  5
   793
  8
0
  6
CONTINUOUS
 62
     7
  2
*UDIM819
 10
0.0
 20
0.0
 30
0.0
  0
INSERT
  5
   794
  8
0
  6
CONTINUOUS
 62
     7
  2
*UDIM820
 10
0.0
 20
0.0
 30
0.0
  0
INSERT
  5
   795
  8
0
  6
CONTINUOUS
 62
     7
  2
*UDIM821
 10
0.0
 20
0.0
 30
0.0
  0
INSERT
  5
   796
  8
0
  6
CONTINUOUS
 62
     7
  2
*UDIM822
 10
0.0
 20
0.0
 30
0.0
  0
INSERT
  5
   797
  8
0
  6
CONTINUOUS
 62
     7
  2
*UDIM823
 10
0.0
 20
0.0
 30
0.0
  0
INSERT
  5
   798
  8
0
  6
CONTINUOUS
 62
     7
  2
*UDIM824
 10
0.0
 20
0.0
 30
0.0
  0
INSERT
  5
   799
  8
0
  6
CONTINUOUS
 62
     7
  2
*UDIM825
 10
0.0
 20
0.0
 30
0.0
  0
TEXT
  5
   79A
  8
0
  6
CONTINUOUS
 62
     7
 10
-467.388405213856
 20
-68.1325417256305
 30
0.0
 40
3.00000002980232
  1
Y
 50
359.999999844103
 41
0.916666604744064
 72
     2
 11
-465.188405344986
 21
-68.1325417316054
 31
0.0
  0
TEXT
  5
   79B
  8
0
  6
CONTINUOUS
 62
     7
 10
-467.880969653629
 20
27.6376876139692
 30
0.0
 40
3.00000002980232
  1
Y
 50
359.999999844103
 41
0.916666604744064
 72
     2
 11
-465.680969784759
 21
27.6376876079942
 31
0.0
  0
TEXT
  5
   79C
  8
0
  6
CONTINUOUS
 62
     7
 10
-414.080722699665
 20
-24.2066115832278
 30
0.0
 40
3.00000002980232
  1
X
 50
359.999999844103
 41
0.916666604744064
 72
     2
 11
-411.880722830795
 21
-24.2066115892028
 31
0.0
  0
TEXT
  5
   79D
  8
0
  6
CONTINUOUS
 62
     7
 10
-511.264118085407
 20
-24.7495356297442
 30
0.0
 40
3.00000002980232
  1
X
 50
359.999999844103
 41
0.916666604744064
 72
     2
 11
-509.064118216537
 21
-24.7495356357192
 31
0.0
  0
LINE
  5
   79E
  8
0
  6
CONTINUOUS
 62
     7
 10
-536.133911132813
 20
-5.04373434356852
 30
0.0
 11
-536.133911132813
 21
-28.9602558297713
 31
0.0
  0
LINE
  5
   79F
  8
0
  6
CONTINUOUS
 62
     7
 10
-538.133911132813
 20
-5.04373434356852
 30
0.0
 11
-538.133911132813
 21
-28.9602558297713
 31
0.0
  0
LINE
  5
   7A0
  8
0
  6
DASHDOT
 62
     7
 10
-541.33651423521
 20
-17.0019950866699
 30
0.0
 11
-532.910295042772
 21
-17.0019950866699
 31
0.0
  0
POINT
  5
   7A1
  8
0
  6
CONTINUOUS
 62
     7
 10
-538.133911132813
 20
-15.0019950866699
 30
0.0
  0
POINT
  5
   7A2
  8
0
  6
CONTINUOUS
 62
     7
 10
-538.133911132813
 20
-19.0019950866699
 30
0.0
  0
LINE
  5
   7A3
  8
0
  6
CONTINUOUS
 62
     7
 10
-536.133911132813
 20
-13.3237958243154
 30
0.0
 11
-538.133911132813
 21
-15.0019950866699
 31
0.0
  0
LINE
  5
   7A4
  8
0
  6
CONTINUOUS
 62
     7
 10
-538.133911132813
 20
-19.0019950866699
 30
0.0
 11
-536.133911132813
 21
-20.6801943490245
 31
0.0
  0
LINE
  5
   7A5
  8
0
  6
CONTINUOUS
 62
     7
 10
-538.133911132813
 20
-26.5019950866699
 30
0.0
 11
-536.133911132813
 21
-26.5019950866699
 31
0.0
  0
CIRCLE
  5
   7A6
  8
0
  6
CONTINUOUS
 62
     7
 10
-537.133911132813
 20
-17.0019950866699
 30
0.0
 40
12.0
  0
LINE
  5
   7A7
  8
0
  6
CONTINUOUS
 62
     7
 10
-544.133903503418
 20
-21.5019950866699
 30
0.0
 11
-541.633903503418
 21
-21.5019950866699
 31
0.0
  0
LINE
  5
   7A8
  8
0
  6
CONTINUOUS
 62
     7
 10
-540.633903503418
 20
-12.5019950866699
 30
0.0
 11
-540.633903503418
 21
-20.5019950866699
 31
0.0
  0
LINE
  5
   7A9
  8
0
  6
CONTINUOUS
 62
     7
 10
-540.633903503418
 20
-12.5019950866699
 30
0.0
 11
-538.133911132813
 21
-12.5019950866699
 31
0.0
  0
LINE
  5
   7AA
  8
0
  6
CONTINUOUS
 62
     7
 10
-544.133903503418
 20
-24.0019950866699
 30
0.0
 11
-541.633903503418
 21
-24.0019950866699
 31
0.0
  0
LINE
  5
   7AB
  8
0
  6
CONTINUOUS
 62
     7
 10
-545.133903503418
 20
-25.0019950866699
 30
0.0
 11
-545.133903503418
 21
-25.9462738206011
 31
0.0
  0
ARC
  5
   7AC
  8
0
  6
CONTINUOUS
 62
     7
 10
-541.633899356138
 20
-20.5019957580086
 30
0.0
 40
0.999996977799109
 50
629.999840735313
 51
720.000252836193
  0
ARC
  5
   7AD
  8
0
  6
CONTINUOUS
 62
     7
 10
-544.133888849911
 20
-25.0020077729744
 30
0.0
 40
3.50001845311552
 50
450.000186734275
 51
513.408761128067
  0
ARC
  5
   7AE
  8
0
  6
CONTINUOUS
 62
     7
 10
-544.133947751568
 20
-25.0019541918875
 30
0.0
 40
0.999949821243504
 50
449.997764042825
 51
540.001169660043
  0
ARC
  5
   7AF
  8
0
  6
CONTINUOUS
 62
     7
 10
-541.633884151036
 20
-20.5020271336042
 30
0.0
 40
3.49997105594423
 50
629.999653243441
 51
720.000420168909
  0
INSERT
  5
   7B0
  8
0
  6
CONTINUOUS
 62
     7
  2
*HATCH191
 10
-537.133911132813
 20
-17.0019950866699
 30
0.0
 50
269.999999844103
  0
INSERT
  5
   7B1
  8
0
  6
CONTINUOUS
 62
     7
  2
*HATCH192
 10
-537.133911132813
 20
-17.0019950866699
 30
0.0
 50
269.999999844103
  0
TEXT
  5
   7B2
  8
0
  6
CONTINUOUS
 62
     7
 10
-549.521506875113
 20
-43.8500061634705
 30
0.0
 40
4.00000017881393
  1
PART. Z
 50
359.999999844103
 41
0.915624995566905
 72
     1
 11
-537.069006383419
 21
-41.8500061078831
 31
0.0
 73
     2
  0
INSERT
  5
   7B3
  8
0
  6
CONTINUOUS
 62
     7
  2
*UDIM826
 10
0.0
 20
0.0
 30
0.0
  0
INSERT
  5
   7B4
  8
0
  6
CONTINUOUS
 62
     7
  2
*UDIM827
 10
0.0
 20
0.0
 30
0.0
  0
LINE
  5
   7B5
  8
0
  6
CONTINUOUS
 62
     2
 10
-359.813876390159
 20
60.7559670925141
 30
0.0
 11
-359.813876390159
 21
59.7059671103955
 31
0.0
  0
LINE
  5
   7B6
  8
0
  6
CONTINUOUS
 62
     2
 10
-374.51387613982
 20
60.7559670925141
 30
0.0
 11
-374.51387613982
 21
59.7059671103955
 31
0.0
  0
LINE
  5
   7B7
  8
0
  6
CONTINUOUS
 62
     2
 10
-367.16387626499
 20
60.7559670925141
 30
0.0
 11
-368.597788899262
 21
60.7559670925141
 31
0.0
  0
LINE
  5
   7B8
  8
0
  6
CONTINUOUS
 62
     2
 10
-368.597788899262
 20
60.7559670925141
 30
0.0
 11
-369.976597469531
 21
60.7559670925141
 31
0.0
  0
LINE
  5
   7B9
  8
0
  6
CONTINUOUS
 62
     2
 10
-369.976597469531
 20
60.7559670925141
 30
0.0
 11
-371.247318120498
 21
60.7559670925141
 31
0.0
  0
LINE
  5
   7BA
  8
0
  6
CONTINUOUS
 62
     2
 10
-365.729963630718
 20
60.7559670925141
 30
0.0
 11
-367.16387626499
 21
60.7559670925141
 31
0.0
  0
LINE
  5
   7BB
  8
0
  6
CONTINUOUS
 62
     2
 10
-371.247318120498
 20
60.7559670925141
 30
0.0
 11
-372.361111283903
 21
60.7559670925141
 31
0.0
  0
LINE
  5
   7BC
  8
0
  6
CONTINUOUS
 62
     2
 10
-361.052574946945
 20
60.7559670925141
 30
0.0
 11
-361.966641246076
 21
60.7559670925141
 31
0.0
  0
LINE
  5
   7BD
  8
0
  6
CONTINUOUS
 62
     2
 10
-372.361111283903
 20
60.7559670925141
 30
0.0
 11
-373.275177583034
 21
60.7559670925141
 31
0.0
  0
LINE
  5
   7BE
  8
0
  6
CONTINUOUS
 62
     2
 10
-373.275177583034
 20
60.7559670925141
 30
0.0
 11
-373.954392049006
 21
60.7559670925141
 31
0.0
  0
LINE
  5
   7BF
  8
0
  6
CONTINUOUS
 62
     2
 10
-373.954392049006
 20
60.7559670925141
 30
0.0
 11
-374.372649945936
 21
60.7559670925141
 31
0.0
  0
LINE
  5
   7C0
  8
0
  6
CONTINUOUS
 62
     2
 10
-364.351155060449
 20
60.7559670925141
 30
0.0
 11
-365.729963630718
 21
60.7559670925141
 31
0.0
  0
LINE
  5
   7C1
  8
0
  6
CONTINUOUS
 62
     2
 10
-374.372649945936
 20
60.7559670925141
 30
0.0
 11
-374.51387613982
 21
60.7559670925141
 31
0.0
  0
LINE
  5
   7C2
  8
0
  6
CONTINUOUS
 62
     2
 10
-363.080434409481
 20
60.7559670925141
 30
0.0
 11
-364.351155060449
 21
60.7559670925141
 31
0.0
  0
LINE
  5
   7C3
  8
0
  6
CONTINUOUS
 62
     2
 10
-361.966641246076
 20
60.7559670925141
 30
0.0
 11
-363.080434409481
 21
60.7559670925141
 31
0.0
  0
LINE
  5
   7C4
  8
0
  6
CONTINUOUS
 62
     2
 10
-360.373360480973
 20
60.7559670925141
 30
0.0
 11
-361.052574946945
 21
60.7559670925141
 31
0.0
  0
LINE
  5
   7C5
  8
0
  6
CONTINUOUS
 62
     2
 10
-359.955105254331
 20
60.7559670925141
 30
0.0
 11
-360.373360480973
 21
60.7559670925141
 31
0.0
  0
LINE
  5
   7C6
  8
0
  6
CONTINUOUS
 62
     2
 10
-359.813876390159
 20
60.7559670925141
 30
0.0
 11
-359.955105254331
 21
60.7559670925141
 31
0.0
  0
LINE
  5
   7C7
  8
0
  6
CONTINUOUS
 62
     2
 10
-359.813876390159
 20
59.7059671103955
 30
0.0
 11
-359.955105254331
 21
59.7059671103955
 31
0.0
  0
LINE
  5
   7C8
  8
0
  6
CONTINUOUS
 62
     2
 10
-360.373360480973
 20
59.7059671103955
 30
0.0
 11
-361.052574946945
 21
59.7059671103955
 31
0.0
  0
LINE
  5
   7C9
  8
0
  6
CONTINUOUS
 62
     2
 10
-373.954392049006
 20
59.7059671103955
 30
0.0
 11
-374.372649945936
 21
59.7059671103955
 31
0.0
  0
LINE
  5
   7CA
  8
0
  6
CONTINUOUS
 62
     2
 10
-364.351155060449
 20
59.7059671103955
 30
0.0
 11
-365.729963630718
 21
59.7059671103955
 31
0.0
  0
LINE
  5
   7CB
  8
0
  6
CONTINUOUS
 62
     2
 10
-361.052574946945
 20
59.7059671103955
 30
0.0
 11
-361.966641246076
 21
59.7059671103955
 31
0.0
  0
LINE
  5
   7CC
  8
0
  6
CONTINUOUS
 62
     2
 10
-367.16387626499
 20
59.7059671103955
 30
0.0
 11
-368.597788899262
 21
59.7059671103955
 31
0.0
  0
LINE
  5
   7CD
  8
0
  6
CONTINUOUS
 62
     2
 10
-365.729963630718
 20
59.7059671103955
 30
0.0
 11
-367.16387626499
 21
59.7059671103955
 31
0.0
  0
LINE
  5
   7CE
  8
0
  6
CONTINUOUS
 62
     2
 10
-359.955105254331
 20
59.7059671103955
 30
0.0
 11
-360.373360480973
 21
59.7059671103955
 31
0.0
  0
LINE
  5
   7CF
  8
0
  6
CONTINUOUS
 62
     2
 10
-372.361111283903
 20
59.7059671103955
 30
0.0
 11
-373.275177583034
 21
59.7059671103955
 31
0.0
  0
LINE
  5
   7D0
  8
0
  6
CONTINUOUS
 62
     2
 10
-368.597788899262
 20
59.7059671103955
 30
0.0
 11
-369.976597469531
 21
59.7059671103955
 31
0.0
  0
LINE
  5
   7D1
  8
0
  6
CONTINUOUS
 62
     2
 10
-369.976597469531
 20
59.7059671103955
 30
0.0
 11
-371.247318120498
 21
59.7059671103955
 31
0.0
  0
LINE
  5
   7D2
  8
0
  6
CONTINUOUS
 62
     2
 10
-371.247318120498
 20
59.7059671103955
 30
0.0
 11
-372.361111283903
 21
59.7059671103955
 31
0.0
  0
LINE
  5
   7D3
  8
0
  6
CONTINUOUS
 62
     2
 10
-373.275177583034
 20
59.7059671103955
 30
0.0
 11
-373.954392049006
 21
59.7059671103955
 31
0.0
  0
LINE
  5
   7D4
  8
0
  6
CONTINUOUS
 62
     2
 10
-374.372649945936
 20
59.7059671103955
 30
0.0
 11
-374.51387613982
 21
59.7059671103955
 31
0.0
  0
LINE
  5
   7D5
  8
0
  6
CONTINUOUS
 62
     2
 10
-363.080434409481
 20
59.7059671103955
 30
0.0
 11
-364.351155060449
 21
59.7059671103955
 31
0.0
  0
LINE
  5
   7D6
  8
0
  6
CONTINUOUS
 62
     2
 10
-361.966641246076
 20
59.7059671103955
 30
0.0
 11
-363.080434409481
 21
59.7059671103955
 31
0.0
  0
LINE
  5
   7D7
  8
0
  6
CONTINUOUS
 62
     2
 10
-344.50137665093
 20
87.5309693068266
 30
0.0
 11
-344.50137665093
 21
86.480969324708
 31
0.0
  0
LINE
  5
   7D8
  8
0
  6
CONTINUOUS
 62
     2
 10
-359.20137640059
 20
87.5309693068266
 30
0.0
 11
-359.20137640059
 21
86.480969324708
 31
0.0
  0
LINE
  5
   7D9
  8
0
  6
CONTINUOUS
 62
     2
 10
-351.85137652576
 20
87.5309693068266
 30
0.0
 11
-353.285289160032
 21
87.5309693068266
 31
0.0
  0
LINE
  5
   7DA
  8
0
  6
CONTINUOUS
 62
     2
 10
-353.285289160032
 20
87.5309693068266
 30
0.0
 11
-354.664100400589
 21
87.5309693068266
 31
0.0
  0
LINE
  5
   7DB
  8
0
  6
CONTINUOUS
 62
     2
 10
-354.664100400589
 20
87.5309693068266
 30
0.0
 11
-355.934818381268
 21
87.5309693068266
 31
0.0
  0
LINE
  5
   7DC
  8
0
  6
CONTINUOUS
 62
     2
 10
-350.4174612212
 20
87.5309693068266
 30
0.0
 11
-351.85137652576
 21
87.5309693068266
 31
0.0
  0
LINE
  5
   7DD
  8
0
  6
CONTINUOUS
 62
     2
 10
-355.934818381268
 20
87.5309693068266
 30
0.0
 11
-357.048611544673
 21
87.5309693068266
 31
0.0
  0
LINE
  5
   7DE
  8
0
  6
CONTINUOUS
 62
     2
 10
-345.740075207716
 20
87.5309693068266
 30
0.0
 11
-346.654141506846
 21
87.5309693068266
 31
0.0
  0
LINE
  5
   7DF
  8
0
  6
CONTINUOUS
 62
     2
 10
-357.048611544673
 20
87.5309693068266
 30
0.0
 11
-357.962677843804
 21
87.5309693068266
 31
0.0
  0
LINE
  5
   7E0
  8
0
  6
CONTINUOUS
 62
     2
 10
-357.962677843804
 20
87.5309693068266
 30
0.0
 11
-358.641889639488
 21
87.5309693068266
 31
0.0
  0
LINE
  5
   7E1
  8
0
  6
CONTINUOUS
 62
     2
 10
-358.641889639488
 20
87.5309693068266
 30
0.0
 11
-359.060147536418
 21
87.5309693068266
 31
0.0
  0
LINE
  5
   7E2
  8
0
  6
CONTINUOUS
 62
     2
 10
-349.038652650931
 20
87.5309693068266
 30
0.0
 11
-350.4174612212
 21
87.5309693068266
 31
0.0
  0
LINE
  5
   7E3
  8
0
  6
CONTINUOUS
 62
     2
 10
-359.060147536418
 20
87.5309693068266
 30
0.0
 11
-359.20137640059
 21
87.5309693068266
 31
0.0
  0
LINE
  5
   7E4
  8
0
  6
CONTINUOUS
 62
     2
 10
-347.767934670252
 20
87.5309693068266
 30
0.0
 11
-349.038652650931
 21
87.5309693068266
 31
0.0
  0
LINE
  5
   7E5
  8
0
  6
CONTINUOUS
 62
     2
 10
-346.654141506846
 20
87.5309693068266
 30
0.0
 11
-347.767934670252
 21
87.5309693068266
 31
0.0
  0
LINE
  5
   7E6
  8
0
  6
CONTINUOUS
 62
     2
 10
-345.060860741743
 20
87.5309693068266
 30
0.0
 11
-345.740075207716
 21
87.5309693068266
 31
0.0
  0
LINE
  5
   7E7
  8
0
  6
CONTINUOUS
 62
     2
 10
-344.642605515102
 20
87.5309693068266
 30
0.0
 11
-345.060860741743
 21
87.5309693068266
 31
0.0
  0
LINE
  5
   7E8
  8
0
  6
CONTINUOUS
 62
     2
 10
-344.50137665093
 20
87.5309693068266
 30
0.0
 11
-344.642605515102
 21
87.5309693068266
 31
0.0
  0
LINE
  5
   7E9
  8
0
  6
CONTINUOUS
 62
     2
 10
-344.50137665093
 20
86.480969324708
 30
0.0
 11
-344.642605515102
 21
86.480969324708
 31
0.0
  0
LINE
  5
   7EA
  8
0
  6
CONTINUOUS
 62
     2
 10
-345.060860741743
 20
86.480969324708
 30
0.0
 11
-345.740075207716
 21
86.480969324708
 31
0.0
  0
LINE
  5
   7EB
  8
0
  6
CONTINUOUS
 62
     2
 10
-358.641889639488
 20
86.480969324708
 30
0.0
 11
-359.060147536418
 21
86.480969324708
 31
0.0
  0
LINE
  5
   7EC
  8
0
  6
CONTINUOUS
 62
     2
 10
-349.038652650931
 20
86.480969324708
 30
0.0
 11
-350.4174612212
 21
86.480969324708
 31
0.0
  0
LINE
  5
   7ED
  8
0
  6
CONTINUOUS
 62
     2
 10
-345.740075207716
 20
86.480969324708
 30
0.0
 11
-346.654141506846
 21
86.480969324708
 31
0.0
  0
LINE
  5
   7EE
  8
0
  6
CONTINUOUS
 62
     2
 10
-351.85137652576
 20
86.480969324708
 30
0.0
 11
-353.285289160032
 21
86.480969324708
 31
0.0
  0
LINE
  5
   7EF
  8
0
  6
CONTINUOUS
 62
     2
 10
-350.4174612212
 20
86.480969324708
 30
0.0
 11
-351.85137652576
 21
86.480969324708
 31
0.0
  0
LINE
  5
   7F0
  8
0
  6
CONTINUOUS
 62
     2
 10
-344.642605515102
 20
86.480969324708
 30
0.0
 11
-345.060860741743
 21
86.480969324708
 31
0.0
  0
LINE
  5
   7F1
  8
0
  6
CONTINUOUS
 62
     2
 10
-357.048611544673
 20
86.480969324708
 30
0.0
 11
-357.962677843804
 21
86.480969324708
 31
0.0
  0
LINE
  5
   7F2
  8
0
  6
CONTINUOUS
 62
     2
 10
-353.285289160032
 20
86.480969324708
 30
0.0
 11
-354.664100400589
 21
86.480969324708
 31
0.0
  0
LINE
  5
   7F3
  8
0
  6
CONTINUOUS
 62
     2
 10
-354.664100400589
 20
86.480969324708
 30
0.0
 11
-355.934818381268
 21
86.480969324708
 31
0.0
  0
LINE
  5
   7F4
  8
0
  6
CONTINUOUS
 62
     2
 10
-355.934818381268
 20
86.480969324708
 30
0.0
 11
-357.048611544673
 21
86.480969324708
 31
0.0
  0
LINE
  5
   7F5
  8
0
  6
CONTINUOUS
 62
     2
 10
-357.962677843804
 20
86.480969324708
 30
0.0
 11
-358.641889639488
 21
86.480969324708
 31
0.0
  0
LINE
  5
   7F6
  8
0
  6
CONTINUOUS
 62
     2
 10
-359.060147536418
 20
86.480969324708
 30
0.0
 11
-359.20137640059
 21
86.480969324708
 31
0.0
  0
LINE
  5
   7F7
  8
0
  6
CONTINUOUS
 62
     2
 10
-347.767934670252
 20
86.480969324708
 30
0.0
 11
-349.038652650931
 21
86.480969324708
 31
0.0
  0
LINE
  5
   7F8
  8
0
  6
CONTINUOUS
 62
     2
 10
-346.654141506846
 20
86.480969324708
 30
0.0
 11
-347.767934670252
 21
86.480969324708
 31
0.0
  0
LINE
  5
   7F9
  8
0
  6
CONTINUOUS
 62
     2
 10
-359.813876390159
 20
65.3059670150281
 30
0.0
 11
-359.813876390159
 21
64.2559670329094
 31
0.0
  0
LINE
  5
   7FA
  8
0
  6
CONTINUOUS
 62
     2
 10
-374.51387613982
 20
65.3059670150281
 30
0.0
 11
-374.51387613982
 21
64.2559670329094
 31
0.0
  0
LINE
  5
   7FB
  8
0
  6
CONTINUOUS
 62
     2
 10
-367.16387626499
 20
65.3059670150281
 30
0.0
 11
-368.597788899262
 21
65.3059670150281
 31
0.0
  0
LINE
  5
   7FC
  8
0
  6
CONTINUOUS
 62
     2
 10
-368.597788899262
 20
65.3059670150281
 30
0.0
 11
-369.976597469531
 21
65.3059670150281
 31
0.0
  0
LINE
  5
   7FD
  8
0
  6
CONTINUOUS
 62
     2
 10
-369.976597469531
 20
65.3059670150281
 30
0.0
 11
-371.247318120498
 21
65.3059670150281
 31
0.0
  0
LINE
  5
   7FE
  8
0
  6
CONTINUOUS
 62
     2
 10
-365.729963630718
 20
65.3059670150281
 30
0.0
 11
-367.16387626499
 21
65.3059670150281
 31
0.0
  0
LINE
  5
   7FF
  8
0
  6
CONTINUOUS
 62
     2
 10
-371.247318120498
 20
65.3059670150281
 30
0.0
 11
-372.361111283903
 21
65.3059670150281
 31
0.0
  0
LINE
  5
   800
  8
0
  6
CONTINUOUS
 62
     2
 10
-361.052574946945
 20
65.3059670150281
 30
0.0
 11
-361.966641246076
 21
65.3059670150281
 31
0.0
  0
LINE
  5
   801
  8
0
  6
CONTINUOUS
 62
     2
 10
-372.361111283903
 20
65.3059670150281
 30
0.0
 11
-373.275177583034
 21
65.3059670150281
 31
0.0
  0
LINE
  5
   802
  8
0
  6
CONTINUOUS
 62
     2
 10
-373.275177583034
 20
65.3059670150281
 30
0.0
 11
-373.954392049006
 21
65.3059670150281
 31
0.0
  0
LINE
  5
   803
  8
0
  6
CONTINUOUS
 62
     2
 10
-373.954392049006
 20
65.3059670150281
 30
0.0
 11
-374.372649945936
 21
65.3059670150281
 31
0.0
  0
LINE
  5
   804
  8
0
  6
CONTINUOUS
 62
     2
 10
-364.351155060449
 20
65.3059670150281
 30
0.0
 11
-365.729963630718
 21
65.3059670150281
 31
0.0
  0
LINE
  5
   805
  8
0
  6
CONTINUOUS
 62
     2
 10
-374.372649945936
 20
65.3059670150281
 30
0.0
 11
-374.51387613982
 21
65.3059670150281
 31
0.0
  0
LINE
  5
   806
  8
0
  6
CONTINUOUS
 62
     2
 10
-363.080434409481
 20
65.3059670150281
 30
0.0
 11
-364.351155060449
 21
65.3059670150281
 31
0.0
  0
LINE
  5
   807
  8
0
  6
CONTINUOUS
 62
     2
 10
-361.966641246076
 20
65.3059670150281
 30
0.0
 11
-363.080434409481
 21
65.3059670150281
 31
0.0
  0
LINE
  5
   808
  8
0
  6
CONTINUOUS
 62
     2
 10
-360.373360480973
 20
65.3059670150281
 30
0.0
 11
-361.052574946945
 21
65.3059670150281
 31
0.0
  0
LINE
  5
   809
  8
0
  6
CONTINUOUS
 62
     2
 10
-359.955105254331
 20
65.3059670150281
 30
0.0
 11
-360.373360480973
 21
65.3059670150281
 31
0.0
  0
LINE
  5
   80A
  8
0
  6
CONTINUOUS
 62
     2
 10
-359.813876390159
 20
65.3059670150281
 30
0.0
 11
-359.955105254331
 21
65.3059670150281
 31
0.0
  0
LINE
  5
   80B
  8
0
  6
CONTINUOUS
 62
     2
 10
-359.813876390159
 20
64.2559670329094
 30
0.0
 11
-359.955105254331
 21
64.2559670329094
 31
0.0
  0
LINE
  5
   80C
  8
0
  6
CONTINUOUS
 62
     2
 10
-360.373360480973
 20
64.2559670329094
 30
0.0
 11
-361.052574946945
 21
64.2559670329094
 31
0.0
  0
LINE
  5
   80D
  8
0
  6
CONTINUOUS
 62
     2
 10
-373.954392049006
 20
64.2559670329094
 30
0.0
 11
-374.372649945936
 21
64.2559670329094
 31
0.0
  0
LINE
  5
   80E
  8
0
  6
CONTINUOUS
 62
     2
 10
-364.351155060449
 20
64.2559670329094
 30
0.0
 11
-365.729963630718
 21
64.2559670329094
 31
0.0
  0
LINE
  5
   80F
  8
0
  6
CONTINUOUS
 62
     2
 10
-361.052574946945
 20
64.2559670329094
 30
0.0
 11
-361.966641246076
 21
64.2559670329094
 31
0.0
  0
LINE
  5
   810
  8
0
  6
CONTINUOUS
 62
     2
 10
-367.16387626499
 20
64.2559670329094
 30
0.0
 11
-368.597788899262
 21
64.2559670329094
 31
0.0
  0
LINE
  5
   811
  8
0
  6
CONTINUOUS
 62
     2
 10
-365.729963630718
 20
64.2559670329094
 30
0.0
 11
-367.16387626499
 21
64.2559670329094
 31
0.0
  0
LINE
  5
   812
  8
0
  6
CONTINUOUS
 62
     2
 10
-359.955105254331
 20
64.2559670329094
 30
0.0
 11
-360.373360480973
 21
64.2559670329094
 31
0.0
  0
LINE
  5
   813
  8
0
  6
CONTINUOUS
 62
     2
 10
-372.361111283903
 20
64.2559670329094
 30
0.0
 11
-373.275177583034
 21
64.2559670329094
 31
0.0
  0
LINE
  5
   814
  8
0
  6
CONTINUOUS
 62
     2
 10
-368.597788899262
 20
64.2559670329094
 30
0.0
 11
-369.976597469531
 21
64.2559670329094
 31
0.0
  0
LINE
  5
   815
  8
0
  6
CONTINUOUS
 62
     2
 10
-369.976597469531
 20
64.2559670329094
 30
0.0
 11
-371.247318120498
 21
64.2559670329094
 31
0.0
  0
LINE
  5
   816
  8
0
  6
CONTINUOUS
 62
     2
 10
-371.247318120498
 20
64.2559670329094
 30
0.0
 11
-372.361111283903
 21
64.2559670329094
 31
0.0
  0
LINE
  5
   817
  8
0
  6
CONTINUOUS
 62
     2
 10
-373.275177583034
 20
64.2559670329094
 30
0.0
 11
-373.954392049006
 21
64.2559670329094
 31
0.0
  0
LINE
  5
   818
  8
0
  6
CONTINUOUS
 62
     2
 10
-374.372649945936
 20
64.2559670329094
 30
0.0
 11
-374.51387613982
 21
64.2559670329094
 31
0.0
  0
LINE
  5
   819
  8
0
  6
CONTINUOUS
 62
     2
 10
-363.080434409481
 20
64.2559670329094
 30
0.0
 11
-364.351155060449
 21
64.2559670329094
 31
0.0
  0
LINE
  5
   81A
  8
0
  6
CONTINUOUS
 62
     2
 10
-361.966641246076
 20
64.2559670329094
 30
0.0
 11
-363.080434409481
 21
64.2559670329094
 31
0.0
  0
LINE
  5
   81B
  8
0
  6
CONTINUOUS
 62
     2
 10
-344.50137665093
 20
82.9809693843126
 30
0.0
 11
-344.50137665093
 21
81.930969402194
 31
0.0
  0
LINE
  5
   81C
  8
0
  6
CONTINUOUS
 62
     2
 10
-359.20137640059
 20
82.9809693843126
 30
0.0
 11
-359.20137640059
 21
81.930969402194
 31
0.0
  0
LINE
  5
   81D
  8
0
  6
CONTINUOUS
 62
     2
 10
-351.85137652576
 20
82.9809693843126
 30
0.0
 11
-353.285289160032
 21
82.9809693843126
 31
0.0
  0
LINE
  5
   81E
  8
0
  6
CONTINUOUS
 62
     2
 10
-353.285289160032
 20
82.9809693843126
 30
0.0
 11
-354.664100400589
 21
82.9809693843126
 31
0.0
  0
LINE
  5
   81F
  8
0
  6
CONTINUOUS
 62
     2
 10
-354.664100400589
 20
82.9809693843126
 30
0.0
 11
-355.934818381268
 21
82.9809693843126
 31
0.0
  0
LINE
  5
   820
  8
0
  6
CONTINUOUS
 62
     2
 10
-350.4174612212
 20
82.9809693843126
 30
0.0
 11
-351.85137652576
 21
82.9809693843126
 31
0.0
  0
LINE
  5
   821
  8
0
  6
CONTINUOUS
 62
     2
 10
-355.934818381268
 20
82.9809693843126
 30
0.0
 11
-357.048611544673
 21
82.9809693843126
 31
0.0
  0
LINE
  5
   822
  8
0
  6
CONTINUOUS
 62
     2
 10
-345.740075207716
 20
82.9809693843126
 30
0.0
 11
-346.654141506846
 21
82.9809693843126
 31
0.0
  0
LINE
  5
   823
  8
0
  6
CONTINUOUS
 62
     2
 10
-357.048611544673
 20
82.9809693843126
 30
0.0
 11
-357.962677843804
 21
82.9809693843126
 31
0.0
  0
LINE
  5
   824
  8
0
  6
CONTINUOUS
 62
     2
 10
-357.962677843804
 20
82.9809693843126
 30
0.0
 11
-358.641889639488
 21
82.9809693843126
 31
0.0
  0
LINE
  5
   825
  8
0
  6
CONTINUOUS
 62
     2
 10
-358.641889639488
 20
82.9809693843126
 30
0.0
 11
-359.060147536418
 21
82.9809693843126
 31
0.0
  0
LINE
  5
   826
  8
0
  6
CONTINUOUS
 62
     2
 10
-349.038652650931
 20
82.9809693843126
 30
0.0
 11
-350.4174612212
 21
82.9809693843126
 31
0.0
  0
LINE
  5
   827
  8
0
  6
CONTINUOUS
 62
     2
 10
-359.060147536418
 20
82.9809693843126
 30
0.0
 11
-359.20137640059
 21
82.9809693843126
 31
0.0
  0
LINE
  5
   828
  8
0
  6
CONTINUOUS
 62
     2
 10
-347.767934670252
 20
82.9809693843126
 30
0.0
 11
-349.038652650931
 21
82.9809693843126
 31
0.0
  0
LINE
  5
   829
  8
0
  6
CONTINUOUS
 62
     2
 10
-346.654141506846
 20
82.9809693843126
 30
0.0
 11
-347.767934670252
 21
82.9809693843126
 31
0.0
  0
LINE
  5
   82A
  8
0
  6
CONTINUOUS
 62
     2
 10
-345.060860741743
 20
82.9809693843126
 30
0.0
 11
-345.740075207716
 21
82.9809693843126
 31
0.0
  0
LINE
  5
   82B
  8
0
  6
CONTINUOUS
 62
     2
 10
-344.642605515102
 20
82.9809693843126
 30
0.0
 11
-345.060860741743
 21
82.9809693843126
 31
0.0
  0
LINE
  5
   82C
  8
0
  6
CONTINUOUS
 62
     2
 10
-344.50137665093
 20
82.9809693843126
 30
0.0
 11
-344.642605515102
 21
82.9809693843126
 31
0.0
  0
LINE
  5
   82D
  8
0
  6
CONTINUOUS
 62
     2
 10
-344.50137665093
 20
81.930969402194
 30
0.0
 11
-344.642605515102
 21
81.930969402194
 31
0.0
  0
LINE
  5
   82E
  8
0
  6
CONTINUOUS
 62
     2
 10
-345.060860741743
 20
81.930969402194
 30
0.0
 11
-345.740075207716
 21
81.930969402194
 31
0.0
  0
LINE
  5
   82F
  8
0
  6
CONTINUOUS
 62
     2
 10
-358.641889639488
 20
81.930969402194
 30
0.0
 11
-359.060147536418
 21
81.930969402194
 31
0.0
  0
LINE
  5
   830
  8
0
  6
CONTINUOUS
 62
     2
 10
-349.038652650931
 20
81.930969402194
 30
0.0
 11
-350.4174612212
 21
81.930969402194
 31
0.0
  0
LINE
  5
   831
  8
0
  6
CONTINUOUS
 62
     2
 10
-345.740075207716
 20
81.930969402194
 30
0.0
 11
-346.654141506846
 21
81.930969402194
 31
0.0
  0
LINE
  5
   832
  8
0
  6
CONTINUOUS
 62
     2
 10
-351.85137652576
 20
81.930969402194
 30
0.0
 11
-353.285289160032
 21
81.930969402194
 31
0.0
  0
LINE
  5
   833
  8
0
  6
CONTINUOUS
 62
     2
 10
-350.4174612212
 20
81.930969402194
 30
0.0
 11
-351.85137652576
 21
81.930969402194
 31
0.0
  0
LINE
  5
   834
  8
0
  6
CONTINUOUS
 62
     2
 10
-344.642605515102
 20
81.930969402194
 30
0.0
 11
-345.060860741743
 21
81.930969402194
 31
0.0
  0
LINE
  5
   835
  8
0
  6
CONTINUOUS
 62
     2
 10
-357.048611544673
 20
81.930969402194
 30
0.0
 11
-357.962677843804
 21
81.930969402194
 31
0.0
  0
LINE
  5
   836
  8
0
  6
CONTINUOUS
 62
     2
 10
-353.285289160032
 20
81.930969402194
 30
0.0
 11
-354.664100400589
 21
81.930969402194
 31
0.0
  0
LINE
  5
   837
  8
0
  6
CONTINUOUS
 62
     2
 10
-354.664100400589
 20
81.930969402194
 30
0.0
 11
-355.934818381268
 21
81.930969402194
 31
0.0
  0
LINE
  5
   838
  8
0
  6
CONTINUOUS
 62
     2
 10
-355.934818381268
 20
81.930969402194
 30
0.0
 11
-357.048611544673
 21
81.930969402194
 31
0.0
  0
LINE
  5
   839
  8
0
  6
CONTINUOUS
 62
     2
 10
-357.962677843804
 20
81.930969402194
 30
0.0
 11
-358.641889639488
 21
81.930969402194
 31
0.0
  0
LINE
  5
   83A
  8
0
  6
CONTINUOUS
 62
     2
 10
-359.060147536418
 20
81.930969402194
 30
0.0
 11
-359.20137640059
 21
81.930969402194
 31
0.0
  0
LINE
  5
   83B
  8
0
  6
CONTINUOUS
 62
     2
 10
-347.767934670252
 20
81.930969402194
 30
0.0
 11
-349.038652650931
 21
81.930969402194
 31
0.0
  0
LINE
  5
   83C
  8
0
  6
CONTINUOUS
 62
     2
 10
-346.654141506846
 20
81.930969402194
 30
0.0
 11
-347.767934670252
 21
81.930969402194
 31
0.0
  0
LINE
  5
   83D
  8
0
  6
CONTINUOUS
 62
     5
 10
-345.726376630068
 20
76.8559694886208
 30
0.0
 11
-346.076376624108
 21
77.2059694826603
 31
0.0
  0
LINE
  5
   83E
  8
0
  6
CONTINUOUS
 62
     5
 10
-357.626376427412
 20
77.2059694826603
 30
0.0
 11
-357.976376421452
 21
76.8559694886208
 31
0.0
  0
LINE
  5
   83F
  8
0
  6
CONTINUOUS
 62
     5
 10
-345.726376630068
 20
76.8559694886208
 30
0.0
 11
-345.726376630068
 21
47.8059699833393
 31
0.0
  0
LINE
  5
   840
  8
0
  6
CONTINUOUS
 62
     5
 10
-357.976376421452
 20
76.8559694886208
 30
0.0
 11
-357.976376421452
 21
47.8059699833393
 31
0.0
  0
LINE
  5
   841
  8
0
  6
CONTINUOUS
 62
     5
 10
-349.641379386272
 20
77.2059694826603
 30
0.0
 11
-350.724728595728
 21
77.2059694826603
 31
0.0
  0
LINE
  5
   842
  8
0
  6
CONTINUOUS
 62
     5
 10
-355.059794363577
 20
77.2059694826603
 30
0.0
 11
-355.934917181926
 21
77.2059694826603
 31
0.0
  0
LINE
  5
   843
  8
0
  6
CONTINUOUS
 62
     5
 10
-356.653112512712
 20
77.2059694826603
 30
0.0
 11
-357.186780258751
 21
77.2059694826603
 31
0.0
  0
LINE
  5
   844
  8
0
  6
CONTINUOUS
 62
     5
 10
-354.061373665248
 20
77.2059694826603
 30
0.0
 11
-355.059794363577
 21
77.2059694826603
 31
0.0
  0
LINE
  5
   845
  8
0
  6
CONTINUOUS
 62
     5
 10
-352.978021785504
 20
77.2059694826603
 30
0.0
 11
-354.061373665248
 21
77.2059694826603
 31
0.0
  0
LINE
  5
   846
  8
0
  6
CONTINUOUS
 62
     5
 10
-355.934917181926
 20
77.2059694826603
 30
0.0
 11
-356.653112512712
 21
77.2059694826603
 31
0.0
  0
LINE
  5
   847
  8
0
  6
CONTINUOUS
 62
     5
 10
-357.515409937603
 20
77.2059694826603
 30
0.0
 11
-357.626376427412
 21
77.2059694826603
 31
0.0
  0
LINE
  5
   848
  8
0
  6
CONTINUOUS
 62
     5
 10
-350.724728595728
 20
77.2059694826603
 30
0.0
 11
-351.85137652576
 21
77.2059694826603
 31
0.0
  0
LINE
  5
   849
  8
0
  6
CONTINUOUS
 62
     5
 10
-351.85137652576
 20
77.2059694826603
 30
0.0
 11
-352.978021785504
 21
77.2059694826603
 31
0.0
  0
LINE
  5
   84A
  8
0
  6
CONTINUOUS
 62
     5
 10
-348.642958687943
 20
77.2059694826603
 30
0.0
 11
-349.641379386272
 21
77.2059694826603
 31
0.0
  0
LINE
  5
   84B
  8
0
  6
CONTINUOUS
 62
     5
 10
-357.186780258751
 20
77.2059694826603
 30
0.0
 11
-357.515409937603
 21
77.2059694826603
 31
0.0
  0
LINE
  5
   84C
  8
0
  6
CONTINUOUS
 62
     5
 10
-347.767833199306
 20
77.2059694826603
 30
0.0
 11
-348.642958687943
 21
77.2059694826603
 31
0.0
  0
LINE
  5
   84D
  8
0
  6
CONTINUOUS
 62
     5
 10
-346.187340443629
 20
77.2059694826603
 30
0.0
 11
-346.515972792769
 21
77.2059694826603
 31
0.0
  0
LINE
  5
   84E
  8
0
  6
CONTINUOUS
 62
     5
 10
-346.076376624108
 20
77.2059694826603
 30
0.0
 11
-346.187340443629
 21
77.2059694826603
 31
0.0
  0
LINE
  5
   84F
  8
0
  6
CONTINUOUS
 62
     5
 10
-347.049637868519
 20
77.2059694826603
 30
0.0
 11
-347.767833199306
 21
77.2059694826603
 31
0.0
  0
LINE
  5
   850
  8
0
  6
CONTINUOUS
 62
     5
 10
-346.515972792769
 20
77.2059694826603
 30
0.0
 11
-347.049637868519
 21
77.2059694826603
 31
0.0
  0
LINE
  5
   851
  8
0
  6
CONTINUOUS
 62
     5
 10
-348.448508312836
 20
76.8559694886208
 30
0.0
 11
-349.50744040845
 21
76.8559694886208
 31
0.0
  0
LINE
  5
   852
  8
0
  6
CONTINUOUS
 62
     5
 10
-351.85137652576
 20
76.8559694886208
 30
0.0
 11
-353.046303720987
 21
76.8559694886208
 31
0.0
  0
LINE
  5
   853
  8
0
  6
CONTINUOUS
 62
     5
 10
-357.858686146356
 20
76.8559694886208
 30
0.0
 11
-357.976376421452
 21
76.8559694886208
 31
0.0
  0
LINE
  5
   854
  8
0
  6
CONTINUOUS
 62
     5
 10
-353.046303720987
 20
76.8559694886208
 30
0.0
 11
-354.195312643069
 21
76.8559694886208
 31
0.0
  0
LINE
  5
   855
  8
0
  6
CONTINUOUS
 62
     5
 10
-346.192614262509
 20
76.8559694886208
 30
0.0
 11
-346.758624537294
 21
76.8559694886208
 31
0.0
  0
LINE
  5
   856
  8
0
  6
CONTINUOUS
 62
     5
 10
-346.758624537294
 20
76.8559694886208
 30
0.0
 11
-347.520348233428
 21
76.8559694886208
 31
0.0
  0
LINE
  5
   857
  8
0
  6
CONTINUOUS
 62
     5
 10
-354.195312643069
 20
76.8559694886208
 30
0.0
 11
-355.254244738683
 21
76.8559694886208
 31
0.0
  0
LINE
  5
   858
  8
0
  6
CONTINUOUS
 62
     5
 10
-357.510138789011
 20
76.8559694886208
 30
0.0
 11
-357.858686146356
 21
76.8559694886208
 31
0.0
  0
LINE
  5
   859
  8
0
  6
CONTINUOUS
 62
     5
 10
-349.50744040845
 20
76.8559694886208
 30
0.0
 11
-350.656446660245
 21
76.8559694886208
 31
0.0
  0
LINE
  5
   85A
  8
0
  6
CONTINUOUS
 62
     5
 10
-356.944128514226
 20
76.8559694886208
 30
0.0
 11
-357.510138789011
 21
76.8559694886208
 31
0.0
  0
LINE
  5
   85B
  8
0
  6
CONTINUOUS
 62
     5
 10
-347.520348233428
 20
76.8559694886208
 30
0.0
 11
-348.448508312836
 21
76.8559694886208
 31
0.0
  0
LINE
  5
   85C
  8
0
  6
CONTINUOUS
 62
     5
 10
-345.844066905163
 20
76.8559694886208
 30
0.0
 11
-346.192614262509
 21
76.8559694886208
 31
0.0
  0
LINE
  5
   85D
  8
0
  6
CONTINUOUS
 62
     5
 10
-350.656446660245
 20
76.8559694886208
 30
0.0
 11
-351.85137652576
 21
76.8559694886208
 31
0.0
  0
LINE
  5
   85E
  8
0
  6
CONTINUOUS
 62
     5
 10
-356.182404818092
 20
76.8559694886208
 30
0.0
 11
-356.944128514226
 21
76.8559694886208
 31
0.0
  0
LINE
  5
   85F
  8
0
  6
CONTINUOUS
 62
     5
 10
-355.254244738683
 20
76.8559694886208
 30
0.0
 11
-356.182404818092
 21
76.8559694886208
 31
0.0
  0
LINE
  5
   860
  8
0
  6
CONTINUOUS
 62
     5
 10
-345.726376630068
 20
76.8559694886208
 30
0.0
 11
-345.844066905163
 21
76.8559694886208
 31
0.0
  0
LINE
  5
   861
  8
0
  6
CONTINUOUS
 62
     3
 10
-361.038876369298
 20
54.6309671968222
 30
0.0
 11
-361.388876363337
 21
54.9809671908617
 31
0.0
  0
LINE
  5
   862
  8
0
  6
CONTINUOUS
 62
     3
 10
-372.938876166642
 20
54.9809671908618
 30
0.0
 11
-373.288876160681
 21
54.6309671968222
 31
0.0
  0
LINE
  5
   863
  8
0
  6
CONTINUOUS
 62
     3
 10
-361.038876369298
 20
54.6309671968222
 30
0.0
 11
-361.038876369298
 21
47.8059699833393
 31
0.0
  0
LINE
  5
   864
  8
0
  6
CONTINUOUS
 62
     3
 10
-373.288876160681
 20
54.6309671968222
 30
0.0
 11
-373.288876160681
 21
47.8059699833393
 31
0.0
  0
LINE
  5
   865
  8
0
  6
CONTINUOUS
 62
     3
 10
-367.16387626499
 20
54.9809671908617
 30
0.0
 11
-368.290524195022
 21
54.9809671908617
 31
0.0
  0
LINE
  5
   866
  8
0
  6
CONTINUOUS
 62
     3
 10
-370.372291432519
 20
54.9809671908617
 30
0.0
 11
-371.247419591443
 21
54.9809671908617
 31
0.0
  0
LINE
  5
   867
  8
0
  6
CONTINUOUS
 62
     3
 10
-366.037228334958
 20
54.9809671908617
 30
0.0
 11
-367.16387626499
 21
54.9809671908617
 31
0.0
  0
LINE
  5
   868
  8
0
  6
CONTINUOUS
 62
     3
 10
-371.247419591443
 20
54.9809671908617
 30
0.0
 11
-371.96561492223
 21
54.9809671908617
 31
0.0
  0
LINE
  5
   869
  8
0
  6
CONTINUOUS
 62
     3
 10
-364.953876455214
 20
54.9809671908617
 30
0.0
 11
-366.037228334958
 21
54.9809671908617
 31
0.0
  0
LINE
  5
   86A
  8
0
  6
CONTINUOUS
 62
     3
 10
-361.499840182859
 20
54.9809671908617
 30
0.0
 11
-361.828472531998
 21
54.9809671908617
 31
0.0
  0
LINE
  5
   86B
  8
0
  6
CONTINUOUS
 62
     3
 10
-368.290524195022
 20
54.9809671908617
 30
0.0
 11
-369.37387073419
 21
54.9809671908617
 31
0.0
  0
LINE
  5
   86C
  8
0
  6
CONTINUOUS
 62
     3
 10
-363.955455756885
 20
54.9809671908617
 30
0.0
 11
-364.953876455214
 21
54.9809671908617
 31
0.0
  0
LINE
  5
   86D
  8
0
  6
CONTINUOUS
 62
     3
 10
-361.828472531998
 20
54.9809671908617
 30
0.0
 11
-362.362137607749
 21
54.9809671908617
 31
0.0
  0
LINE
  5
   86E
  8
0
  6
CONTINUOUS
 62
     3
 10
-369.37387073419
 20
54.9809671908617
 30
0.0
 11
-370.372291432519
 21
54.9809671908617
 31
0.0
  0
LINE
  5
   86F
  8
0
  6
CONTINUOUS
 62
     3
 10
-372.499277327693
 20
54.9809671908617
 30
0.0
 11
-372.827909676832
 21
54.9809671908617
 31
0.0
  0
LINE
  5
   870
  8
0
  6
CONTINUOUS
 62
     3
 10
-363.080332938536
 20
54.9809671908617
 30
0.0
 11
-363.955455756885
 21
54.9809671908617
 31
0.0
  0
LINE
  5
   871
  8
0
  6
CONTINUOUS
 62
     3
 10
-362.362137607749
 20
54.9809671908617
 30
0.0
 11
-363.080332938536
 21
54.9809671908617
 31
0.0
  0
LINE
  5
   872
  8
0
  6
CONTINUOUS
 62
     3
 10
-372.827909676832
 20
54.9809671908617
 30
0.0
 11
-372.938876166642
 21
54.9809671908617
 31
0.0
  0
LINE
  5
   873
  8
0
  6
CONTINUOUS
 62
     3
 10
-371.96561492223
 20
54.9809671908617
 30
0.0
 11
-372.499277327693
 21
54.9809671908617
 31
0.0
  0
LINE
  5
   874
  8
0
  6
CONTINUOUS
 62
     3
 10
-361.388876363337
 20
54.9809671908617
 30
0.0
 11
-361.499840182859
 21
54.9809671908617
 31
0.0
  0
LINE
  5
   875
  8
0
  6
CONTINUOUS
 62
     3
 10
-364.81994014768
 20
54.6309671968222
 30
0.0
 11
-365.968949069763
 21
54.6309671968222
 31
0.0
  0
LINE
  5
   876
  8
0
  6
CONTINUOUS
 62
     3
 10
-370.566741807625
 20
54.6309671968222
 30
0.0
 11
-371.49490722761
 21
54.6309671968222
 31
0.0
  0
LINE
  5
   877
  8
0
  6
CONTINUOUS
 62
     3
 10
-368.358803460216
 20
54.6309671968222
 30
0.0
 11
-369.507812382299
 21
54.6309671968222
 31
0.0
  0
LINE
  5
   878
  8
0
  6
CONTINUOUS
 62
     3
 10
-365.968949069763
 20
54.6309671968222
 30
0.0
 11
-367.16387626499
 21
54.6309671968222
 31
0.0
  0
LINE
  5
   879
  8
0
  6
CONTINUOUS
 62
     3
 10
-372.256628253456
 20
54.6309671968222
 30
0.0
 11
-372.822638528241
 21
54.6309671968222
 31
0.0
  0
LINE
  5
   87A
  8
0
  6
CONTINUOUS
 62
     3
 10
-371.49490722761
 20
54.6309671968222
 30
0.0
 11
-372.256628253456
 21
54.6309671968222
 31
0.0
  0
LINE
  5
   87B
  8
0
  6
CONTINUOUS
 62
     3
 10
-367.16387626499
 20
54.6309671968222
 30
0.0
 11
-368.358803460216
 21
54.6309671968222
 31
0.0
  0
LINE
  5
   87C
  8
0
  6
CONTINUOUS
 62
     3
 10
-369.507812382299
 20
54.6309671968222
 30
0.0
 11
-370.566741807625
 21
54.6309671968222
 31
0.0
  0
LINE
  5
   87D
  8
0
  6
CONTINUOUS
 62
     3
 10
-362.83284530237
 20
54.6309671968222
 30
0.0
 11
-363.761010722354
 21
54.6309671968222
 31
0.0
  0
LINE
  5
   87E
  8
0
  6
CONTINUOUS
 62
     3
 10
-373.171185885586
 20
54.6309671968222
 30
0.0
 11
-373.288876160681
 21
54.6309671968222
 31
0.0
  0
LINE
  5
   87F
  8
0
  6
CONTINUOUS
 62
     3
 10
-372.822638528241
 20
54.6309671968222
 30
0.0
 11
-373.171185885586
 21
54.6309671968222
 31
0.0
  0
LINE
  5
   880
  8
0
  6
CONTINUOUS
 62
     3
 10
-363.761010722354
 20
54.6309671968222
 30
0.0
 11
-364.81994014768
 21
54.6309671968222
 31
0.0
  0
LINE
  5
   881
  8
0
  6
CONTINUOUS
 62
     3
 10
-361.038876369298
 20
54.6309671968222
 30
0.0
 11
-361.156566644393
 21
54.6309671968222
 31
0.0
  0
LINE
  5
   882
  8
0
  6
CONTINUOUS
 62
     3
 10
-361.505114001739
 20
54.6309671968222
 30
0.0
 11
-362.071124276523
 21
54.6309671968222
 31
0.0
  0
LINE
  5
   883
  8
0
  6
CONTINUOUS
 62
     3
 10
-362.071124276523
 20
54.6309671968222
 30
0.0
 11
-362.83284530237
 21
54.6309671968222
 31
0.0
  0
LINE
  5
   884
  8
0
  6
CONTINUOUS
 62
     3
 10
-361.156566644393
 20
54.6309671968222
 30
0.0
 11
-361.505114001739
 21
54.6309671968222
 31
0.0
  0
LINE
  5
   885
  8
0
  6
CONTINUOUS
 62
   130
 10
-346.601376615167
 20
91.730969235301
 30
0.0
 11
-346.601376615167
 21
87.5309693068266
 31
0.0
  0
LINE
  5
   886
  8
0
  6
CONTINUOUS
 62
   130
 10
-357.101376436353
 20
91.730969235301
 30
0.0
 11
-357.101376436353
 21
87.5309693068266
 31
0.0
  0
LINE
  5
   887
  8
0
  6
CONTINUOUS
 62
   130
 10
-351.85137652576
 20
91.730969235301
 30
0.0
 11
-351.85137652576
 21
87.5309693068266
 31
0.0
  0
LINE
  5
   888
  8
0
  6
CONTINUOUS
 62
   130
 10
-346.601376615167
 20
91.730969235301
 30
0.0
 11
-351.85137652576
 21
91.730969235301
 31
0.0
  0
LINE
  5
   889
  8
0
  6
CONTINUOUS
 62
   130
 10
-351.85137652576
 20
91.730969235301
 30
0.0
 11
-357.101376436353
 21
91.730969235301
 31
0.0
  0
LINE
  5
   88A
  8
0
  6
CONTINUOUS
 62
   130
 10
-361.913876354397
 20
59.7059671103955
 30
0.0
 11
-361.913876354397
 21
55.5059671819211
 31
0.0
  0
LINE
  5
   88B
  8
0
  6
CONTINUOUS
 62
   130
 10
-372.413876175583
 20
59.7059671103955
 30
0.0
 11
-372.413876175583
 21
55.5059671819211
 31
0.0
  0
LINE
  5
   88C
  8
0
  6
CONTINUOUS
 62
   130
 10
-367.16387626499
 20
59.7059671103955
 30
0.0
 11
-367.16387626499
 21
55.5059671819211
 31
0.0
  0
LINE
  5
   88D
  8
0
  6
CONTINUOUS
 62
   130
 10
-361.913876354397
 20
55.5059671819211
 30
0.0
 11
-363.374577318291
 21
55.5059671819211
 31
0.0
  0
LINE
  5
   88E
  8
0
  6
CONTINUOUS
 62
   130
 10
-365.629710336526
 20
55.5059671819211
 30
0.0
 11
-367.16387626499
 21
55.5059671819211
 31
0.0
  0
LINE
  5
   88F
  8
0
  6
CONTINUOUS
 62
   130
 10
-367.16387626499
 20
55.5059671819211
 30
0.0
 11
-368.698036852877
 21
55.5059671819211
 31
0.0
  0
LINE
  5
   890
  8
0
  6
CONTINUOUS
 62
   130
 10
-370.953175211689
 20
55.5059671819211
 30
0.0
 11
-372.413876175583
 21
55.5059671819211
 31
0.0
  0
LINE
  5
   891
  8
0
  6
CONTINUOUS
 62
   130
 10
-346.601376615167
 20
81.930969402194
 30
0.0
 11
-346.601376615167
 21
77.7309694737196
 31
0.0
  0
LINE
  5
   892
  8
0
  6
CONTINUOUS
 62
   130
 10
-357.101376436353
 20
81.930969402194
 30
0.0
 11
-357.101376436353
 21
77.7309694737196
 31
0.0
  0
LINE
  5
   893
  8
0
  6
CONTINUOUS
 62
   130
 10
-351.85137652576
 20
81.930969402194
 30
0.0
 11
-351.85137652576
 21
77.7309694737196
 31
0.0
  0
LINE
  5
   894
  8
0
  6
CONTINUOUS
 62
   130
 10
-346.601376615167
 20
77.7309694737196
 30
0.0
 11
-348.062074908773
 21
77.7309694737196
 31
0.0
  0
LINE
  5
   895
  8
0
  6
CONTINUOUS
 62
   130
 10
-350.317213267585
 20
77.7309694737196
 30
0.0
 11
-351.85137652576
 21
77.7309694737196
 31
0.0
  0
LINE
  5
   896
  8
0
  6
CONTINUOUS
 62
   130
 10
-351.85137652576
 20
77.7309694737196
 30
0.0
 11
-353.385539783935
 21
77.7309694737196
 31
0.0
  0
LINE
  5
   897
  8
0
  6
CONTINUOUS
 62
   130
 10
-355.640675472459
 20
77.7309694737196
 30
0.0
 11
-357.101376436353
 21
77.7309694737196
 31
0.0
  0
LINE
  5
   898
  8
0
  6
CONTINUOUS
 62
   130
 10
-361.913876354397
 20
69.5059696137905
 30
0.0
 11
-361.913876354397
 21
65.3059670150281
 31
0.0
  0
LINE
  5
   899
  8
0
  6
CONTINUOUS
 62
   130
 10
-372.413876175583
 20
69.5059696137905
 30
0.0
 11
-372.413876175583
 21
65.3059670150281
 31
0.0
  0
LINE
  5
   89A
  8
0
  6
CONTINUOUS
 62
   130
 10
-367.16387626499
 20
69.5059696137905
 30
0.0
 11
-367.16387626499
 21
65.3059670150281
 31
0.0
  0
LINE
  5
   89B
  8
0
  6
CONTINUOUS
 62
   130
 10
-361.913876354397
 20
69.5059696137905
 30
0.0
 11
-367.16387626499
 21
69.5059696137905
 31
0.0
  0
LINE
  5
   89C
  8
0
  6
CONTINUOUS
 62
   130
 10
-367.16387626499
 20
69.5059696137905
 30
0.0
 11
-372.413876175583
 21
69.5059696137905
 31
0.0
  0
LINE
  5
   89D
  8
0
  6
CONTINUOUS
 62
    90
 10
-361.738876357377
 20
55.5059671819211
 30
0.0
 11
-361.738876357377
 21
54.9809671908617
 31
0.0
  0
LINE
  5
   89E
  8
0
  6
CONTINUOUS
 62
    90
 10
-372.588876172602
 20
55.5059671819211
 30
0.0
 11
-372.588876172602
 21
54.9809671908617
 31
0.0
  0
LINE
  5
   89F
  8
0
  6
CONTINUOUS
 62
    90
 10
-361.738876357377
 20
55.5059671819211
 30
0.0
 11
-361.843116391612
 21
55.5059671819211
 31
0.0
  0
LINE
  5
   8A0
  8
0
  6
CONTINUOUS
 62
    90
 10
-372.413876175583
 20
55.5059671819211
 30
0.0
 11
-372.484633468079
 21
55.5059671819211
 31
0.0
  0
LINE
  5
   8A1
  8
0
  6
CONTINUOUS
 62
    90
 10
-365.087818103323
 20
55.5059671819211
 30
0.0
 11
-365.629710336526
 21
55.5059671819211
 31
0.0
  0
LINE
  5
   8A2
  8
0
  6
CONTINUOUS
 62
    90
 10
-361.843116391612
 20
55.5059671819211
 30
0.0
 11
-361.913876354397
 21
55.5059671819211
 31
0.0
  0
LINE
  5
   8A3
  8
0
  6
CONTINUOUS
 62
    90
 10
-368.698036852877
 20
55.5059671819211
 30
0.0
 11
-369.239934426656
 21
55.5059671819211
 31
0.0
  0
LINE
  5
   8A4
  8
0
  6
CONTINUOUS
 62
    90
 10
-369.239934426656
 20
55.5059671819211
 30
0.0
 11
-370.177846397988
 21
55.5059671819211
 31
0.0
  0
LINE
  5
   8A5
  8
0
  6
CONTINUOUS
 62
    90
 10
-370.177846397988
 20
55.5059671819211
 30
0.0
 11
-370.953175211689
 21
55.5059671819211
 31
0.0
  0
LINE
  5
   8A6
  8
0
  6
CONTINUOUS
 62
    90
 10
-372.484633468079
 20
55.5059671819211
 30
0.0
 11
-372.588876172602
 21
55.5059671819211
 31
0.0
  0
LINE
  5
   8A7
  8
0
  6
CONTINUOUS
 62
    90
 10
-364.149906131991
 20
55.5059671819211
 30
0.0
 11
-365.087818103323
 21
55.5059671819211
 31
0.0
  0
LINE
  5
   8A8
  8
0
  6
CONTINUOUS
 62
    90
 10
-363.374577318291
 20
55.5059671819211
 30
0.0
 11
-364.149906131991
 21
55.5059671819211
 31
0.0
  0
LINE
  5
   8A9
  8
0
  6
CONTINUOUS
 62
    90
 10
-346.426376618147
 20
77.7309694737196
 30
0.0
 11
-346.426376618147
 21
77.2059694826603
 31
0.0
  0
LINE
  5
   8AA
  8
0
  6
CONTINUOUS
 62
    90
 10
-357.276376433373
 20
77.7309694737196
 30
0.0
 11
-357.276376433373
 21
77.2059694826603
 31
0.0
  0
LINE
  5
   8AB
  8
0
  6
CONTINUOUS
 62
    90
 10
-346.426376618147
 20
77.7309694737196
 30
0.0
 11
-346.530616652383
 21
77.7309694737196
 31
0.0
  0
LINE
  5
   8AC
  8
0
  6
CONTINUOUS
 62
    90
 10
-357.101376436353
 20
77.7309694737196
 30
0.0
 11
-357.172136399137
 21
77.7309694737196
 31
0.0
  0
LINE
  5
   8AD
  8
0
  6
CONTINUOUS
 62
    90
 10
-349.775318364093
 20
77.7309694737196
 30
0.0
 11
-350.317213267585
 21
77.7309694737196
 31
0.0
  0
LINE
  5
   8AE
  8
0
  6
CONTINUOUS
 62
    90
 10
-346.530616652383
 20
77.7309694737196
 30
0.0
 11
-346.601376615167
 21
77.7309694737196
 31
0.0
  0
LINE
  5
   8AF
  8
0
  6
CONTINUOUS
 62
    90
 10
-353.385539783935
 20
77.7309694737196
 30
0.0
 11
-353.927434687426
 21
77.7309694737196
 31
0.0
  0
LINE
  5
   8B0
  8
0
  6
CONTINUOUS
 62
    90
 10
-353.927434687426
 20
77.7309694737196
 30
0.0
 11
-354.86534398847
 21
77.7309694737196
 31
0.0
  0
LINE
  5
   8B1
  8
0
  6
CONTINUOUS
 62
    90
 10
-354.86534398847
 20
77.7309694737196
 30
0.0
 11
-355.640675472459
 21
77.7309694737196
 31
0.0
  0
LINE
  5
   8B2
  8
0
  6
CONTINUOUS
 62
    90
 10
-357.172136399137
 20
77.7309694737196
 30
0.0
 11
-357.276376433373
 21
77.7309694737196
 31
0.0
  0
LINE
  5
   8B3
  8
0
  6
CONTINUOUS
 62
    90
 10
-348.837406392761
 20
77.7309694737196
 30
0.0
 11
-349.775318364093
 21
77.7309694737196
 31
0.0
  0
LINE
  5
   8B4
  8
0
  6
CONTINUOUS
 62
    90
 10
-348.062074908773
 20
77.7309694737196
 30
0.0
 11
-348.837406392761
 21
77.7309694737196
 31
0.0
  0
LINE
  5
   8B5
  8
0
  6
CONTINUOUS
 62
     2
 10
-362.963876336515
 20
70.2059696018696
 30
0.0
 11
-363.488876327574
 21
70.7309695929289
 31
0.0
  0
LINE
  5
   8B6
  8
0
  6
CONTINUOUS
 62
     2
 10
-370.838876202405
 20
70.7309695929289
 30
0.0
 11
-371.363876193464
 21
70.2059696018696
 31
0.0
  0
LINE
  5
   8B7
  8
0
  6
CONTINUOUS
 62
     2
 10
-362.963876336515
 20
70.2059696018696
 30
0.0
 11
-362.963876336515
 21
69.5059696137905
 31
0.0
  0
LINE
  5
   8B8
  8
0
  6
CONTINUOUS
 62
     2
 10
-362.963876336515
 20
64.2559670329094
 30
0.0
 11
-362.963876336515
 21
60.7559670925141
 31
0.0
  0
LINE
  5
   8B9
  8
0
  6
CONTINUOUS
 62
     2
 10
-371.363876193464
 20
70.2059696018696
 30
0.0
 11
-371.363876193464
 21
69.5059696137905
 31
0.0
  0
LINE
  5
   8BA
  8
0
  6
CONTINUOUS
 62
     2
 10
-371.363876193464
 20
64.2559670329094
 30
0.0
 11
-371.363876193464
 21
60.7559670925141
 31
0.0
  0
LINE
  5
   8BB
  8
0
  6
CONTINUOUS
 62
     2
 10
-367.16387626499
 20
70.7309695929289
 30
0.0
 11
-367.880832582126
 21
70.7309695929289
 31
0.0
  0
LINE
  5
   8BC
  8
0
  6
CONTINUOUS
 62
     2
 10
-366.446919947854
 20
70.7309695929289
 30
0.0
 11
-367.16387626499
 21
70.7309695929289
 31
0.0
  0
LINE
  5
   8BD
  8
0
  6
CONTINUOUS
 62
     2
 10
-367.880832582126
 20
70.7309695929289
 30
0.0
 11
-368.57023686726
 21
70.7309695929289
 31
0.0
  0
LINE
  5
   8BE
  8
0
  6
CONTINUOUS
 62
     2
 10
-368.57023686726
 20
70.7309695929289
 30
0.0
 11
-369.205594522456
 21
70.7309695929289
 31
0.0
  0
LINE
  5
   8BF
  8
0
  6
CONTINUOUS
 62
     2
 10
-363.559489424516
 20
70.7309695929289
 30
0.0
 11
-363.768621043269
 21
70.7309695929289
 31
0.0
  0
LINE
  5
   8C0
  8
0
  6
CONTINUOUS
 62
     2
 10
-369.205594522456
 20
70.7309695929289
 30
0.0
 11
-369.762493774446
 21
70.7309695929289
 31
0.0
  0
LINE
  5
   8C1
  8
0
  6
CONTINUOUS
 62
     2
 10
-365.757515662719
 20
70.7309695929289
 30
0.0
 11
-366.446919947854
 21
70.7309695929289
 31
0.0
  0
LINE
  5
   8C2
  8
0
  6
CONTINUOUS
 62
     2
 10
-364.108222935679
 20
70.7309695929289
 30
0.0
 11
-364.565258755533
 21
70.7309695929289
 31
0.0
  0
LINE
  5
   8C3
  8
0
  6
CONTINUOUS
 62
     2
 10
-370.55913148671
 20
70.7309695929289
 30
0.0
 11
-370.768263105463
 21
70.7309695929289
 31
0.0
  0
LINE
  5
   8C4
  8
0
  6
CONTINUOUS
 62
     2
 10
-369.762493774446
 20
70.7309695929289
 30
0.0
 11
-370.219524253724
 21
70.7309695929289
 31
0.0
  0
LINE
  5
   8C5
  8
0
  6
CONTINUOUS
 62
     2
 10
-370.219524253724
 20
70.7309695929289
 30
0.0
 11
-370.55913148671
 21
70.7309695929289
 31
0.0
  0
LINE
  5
   8C6
  8
0
  6
CONTINUOUS
 62
     2
 10
-365.122152666947
 20
70.7309695929289
 30
0.0
 11
-365.757515662719
 21
70.7309695929289
 31
0.0
  0
LINE
  5
   8C7
  8
0
  6
CONTINUOUS
 62
     2
 10
-370.768263105463
 20
70.7309695929289
 30
0.0
 11
-370.838876202405
 21
70.7309695929289
 31
0.0
  0
LINE
  5
   8C8
  8
0
  6
CONTINUOUS
 62
     2
 10
-363.768621043269
 20
70.7309695929289
 30
0.0
 11
-364.108222935679
 21
70.7309695929289
 31
0.0
  0
LINE
  5
   8C9
  8
0
  6
CONTINUOUS
 62
     2
 10
-364.565258755533
 20
70.7309695929289
 30
0.0
 11
-365.122152666947
 21
70.7309695929289
 31
0.0
  0
LINE
  5
   8CA
  8
0
  6
CONTINUOUS
 62
     2
 10
-363.488876327574
 20
70.7309695929289
 30
0.0
 11
-363.559489424516
 21
70.7309695929289
 31
0.0
  0
LINE
  5
   8CB
  8
0
  6
CONTINUOUS
 62
     2
 10
-370.133722558408
 20
70.2059696018696
 30
0.0
 11
-370.65604692085
 21
70.2059696018696
 31
0.0
  0
LINE
  5
   8CC
  8
0
  6
CONTINUOUS
 62
     2
 10
-368.771143998848
 20
70.2059696018696
 30
0.0
 11
-369.497270085115
 21
70.2059696018696
 31
0.0
  0
LINE
  5
   8CD
  8
0
  6
CONTINUOUS
 62
     2
 10
-371.283174748305
 20
70.2059696018696
 30
0.0
 11
-371.363876193464
 21
70.2059696018696
 31
0.0
  0
LINE
  5
   8CE
  8
0
  6
CONTINUOUS
 62
     2
 10
-371.044167946955
 20
70.2059696018696
 30
0.0
 11
-371.283174748305
 21
70.2059696018696
 31
0.0
  0
LINE
  5
   8CF
  8
0
  6
CONTINUOUS
 62
     2
 10
-367.983254150206
 20
70.2059696018696
 30
0.0
 11
-368.771143998848
 21
70.2059696018696
 31
0.0
  0
LINE
  5
   8D0
  8
0
  6
CONTINUOUS
 62
     2
 10
-367.16387626499
 20
70.2059696018696
 30
0.0
 11
-367.983254150206
 21
70.2059696018696
 31
0.0
  0
LINE
  5
   8D1
  8
0
  6
CONTINUOUS
 62
     2
 10
-365.556603190555
 20
70.2059696018696
 30
0.0
 11
-366.344498379774
 21
70.2059696018696
 31
0.0
  0
LINE
  5
   8D2
  8
0
  6
CONTINUOUS
 62
     2
 10
-363.283579242448
 20
70.2059696018696
 30
0.0
 11
-363.671705609129
 21
70.2059696018696
 31
0.0
  0
LINE
  5
   8D3
  8
0
  6
CONTINUOUS
 62
     2
 10
-369.497270085115
 20
70.2059696018696
 30
0.0
 11
-370.133722558408
 21
70.2059696018696
 31
0.0
  0
LINE
  5
   8D4
  8
0
  6
CONTINUOUS
 62
     2
 10
-364.830482444864
 20
70.2059696018696
 30
0.0
 11
-365.556603190555
 21
70.2059696018696
 31
0.0
  0
LINE
  5
   8D5
  8
0
  6
CONTINUOUS
 62
     2
 10
-370.65604692085
 20
70.2059696018696
 30
0.0
 11
-371.044167946955
 21
70.2059696018696
 31
0.0
  0
LINE
  5
   8D6
  8
0
  6
CONTINUOUS
 62
     2
 10
-366.344498379774
 20
70.2059696018696
 30
0.0
 11
-367.16387626499
 21
70.2059696018696
 31
0.0
  0
LINE
  5
   8D7
  8
0
  6
CONTINUOUS
 62
     2
 10
-363.044577781674
 20
70.2059696018696
 30
0.0
 11
-363.283579242448
 21
70.2059696018696
 31
0.0
  0
LINE
  5
   8D8
  8
0
  6
CONTINUOUS
 62
     2
 10
-364.194024630996
 20
70.2059696018696
 30
0.0
 11
-364.830482444864
 21
70.2059696018696
 31
0.0
  0
LINE
  5
   8D9
  8
0
  6
CONTINUOUS
 62
     2
 10
-363.671705609129
 20
70.2059696018696
 30
0.0
 11
-364.194024630996
 21
70.2059696018696
 31
0.0
  0
LINE
  5
   8DA
  8
0
  6
CONTINUOUS
 62
     2
 10
-362.963876336515
 20
70.2059696018696
 30
0.0
 11
-363.044577781674
 21
70.2059696018696
 31
0.0
  0
LINE
  5
   8DB
  8
0
  6
CONTINUOUS
 62
     2
 10
-347.651376597285
 20
92.2559692263603
 30
0.0
 11
-348.176376588345
 21
92.7809692174196
 31
0.0
  0
LINE
  5
   8DC
  8
0
  6
CONTINUOUS
 62
     2
 10
-355.526376463175
 20
92.7809692174196
 30
0.0
 11
-356.051376454234
 21
92.2559692263603
 31
0.0
  0
LINE
  5
   8DD
  8
0
  6
CONTINUOUS
 62
     2
 10
-347.651376597285
 20
92.2559692263603
 30
0.0
 11
-347.651376597285
 21
91.730969235301
 31
0.0
  0
LINE
  5
   8DE
  8
0
  6
CONTINUOUS
 62
     2
 10
-347.651376597285
 20
86.480969324708
 30
0.0
 11
-347.651376597285
 21
82.9809693843126
 31
0.0
  0
LINE
  5
   8DF
  8
0
  6
CONTINUOUS
 62
     2
 10
-356.051376454234
 20
92.2559692263603
 30
0.0
 11
-356.051376454234
 21
91.730969235301
 31
0.0
  0
LINE
  5
   8E0
  8
0
  6
CONTINUOUS
 62
     2
 10
-356.051376454234
 20
86.480969324708
 30
0.0
 11
-356.051376454234
 21
82.9809693843126
 31
0.0
  0
LINE
  5
   8E1
  8
0
  6
CONTINUOUS
 62
     2
 10
-351.85137652576
 20
92.7809692174196
 30
0.0
 11
-352.568332842896
 21
92.7809692174196
 31
0.0
  0
LINE
  5
   8E2
  8
0
  6
CONTINUOUS
 62
     2
 10
-351.134420208624
 20
92.7809692174196
 30
0.0
 11
-351.85137652576
 21
92.7809692174196
 31
0.0
  0
LINE
  5
   8E3
  8
0
  6
CONTINUOUS
 62
     2
 10
-352.568332842896
 20
92.7809692174196
 30
0.0
 11
-353.25773712803
 21
92.7809692174196
 31
0.0
  0
LINE
  5
   8E4
  8
0
  6
CONTINUOUS
 62
     2
 10
-353.25773712803
 20
92.7809692174196
 30
0.0
 11
-353.893097453514
 21
92.7809692174196
 31
0.0
  0
LINE
  5
   8E5
  8
0
  6
CONTINUOUS
 62
     2
 10
-348.246989685287
 20
92.7809692174196
 30
0.0
 11
-348.456118633752
 21
92.7809692174196
 31
0.0
  0
LINE
  5
   8E6
  8
0
  6
CONTINUOUS
 62
     2
 10
-353.893097453514
 20
92.7809692174196
 30
0.0
 11
-354.449994035217
 21
92.7809692174196
 31
0.0
  0
LINE
  5
   8E7
  8
0
  6
CONTINUOUS
 62
     2
 10
-350.445013253201
 20
92.7809692174196
 30
0.0
 11
-351.134420208624
 21
92.7809692174196
 31
0.0
  0
LINE
  5
   8E8
  8
0
  6
CONTINUOUS
 62
     2
 10
-348.795725866738
 20
92.7809692174196
 30
0.0
 11
-349.252759016303
 21
92.7809692174196
 31
0.0
  0
LINE
  5
   8E9
  8
0
  6
CONTINUOUS
 62
     2
 10
-355.246634417768
 20
92.7809692174196
 30
0.0
 11
-355.455760695945
 21
92.7809692174196
 31
0.0
  0
LINE
  5
   8EA
  8
0
  6
CONTINUOUS
 62
     2
 10
-354.449994035217
 20
92.7809692174196
 30
0.0
 11
-354.907027184782
 21
92.7809692174196
 31
0.0
  0
LINE
  5
   8EB
  8
0
  6
CONTINUOUS
 62
     2
 10
-354.907027184782
 20
92.7809692174196
 30
0.0
 11
-355.246634417768
 21
92.7809692174196
 31
0.0
  0
LINE
  5
   8EC
  8
0
  6
CONTINUOUS
 62
     2
 10
-349.809655598006
 20
92.7809692174196
 30
0.0
 11
-350.445013253201
 21
92.7809692174196
 31
0.0
  0
LINE
  5
   8ED
  8
0
  6
CONTINUOUS
 62
     2
 10
-355.455760695945
 20
92.7809692174196
 30
0.0
 11
-355.526376463175
 21
92.7809692174196
 31
0.0
  0
LINE
  5
   8EE
  8
0
  6
CONTINUOUS
 62
     2
 10
-348.456118633752
 20
92.7809692174196
 30
0.0
 11
-348.795725866738
 21
92.7809692174196
 31
0.0
  0
LINE
  5
   8EF
  8
0
  6
CONTINUOUS
 62
     2
 10
-349.252759016303
 20
92.7809692174196
 30
0.0
 11
-349.809655598006
 21
92.7809692174196
 31
0.0
  0
LINE
  5
   8F0
  8
0
  6
CONTINUOUS
 62
     2
 10
-348.176376588345
 20
92.7809692174196
 30
0.0
 11
-348.246989685287
 21
92.7809692174196
 31
0.0
  0
LINE
  5
   8F1
  8
0
  6
CONTINUOUS
 62
     2
 10
-354.821225489466
 20
92.2559692263603
 30
0.0
 11
-355.343547181621
 21
92.2559692263603
 31
0.0
  0
LINE
  5
   8F2
  8
0
  6
CONTINUOUS
 62
     2
 10
-353.458646929907
 20
92.2559692263603
 30
0.0
 11
-354.184770345886
 21
92.2559692263603
 31
0.0
  0
LINE
  5
   8F3
  8
0
  6
CONTINUOUS
 62
     2
 10
-355.970675009075
 20
92.2559692263603
 30
0.0
 11
-356.051376454234
 21
92.2559692263603
 31
0.0
  0
LINE
  5
   8F4
  8
0
  6
CONTINUOUS
 62
     2
 10
-355.731670878014
 20
92.2559692263603
 30
0.0
 11
-355.970675009075
 21
92.2559692263603
 31
0.0
  0
LINE
  5
   8F5
  8
0
  6
CONTINUOUS
 62
     2
 10
-352.670754410976
 20
92.2559692263603
 30
0.0
 11
-353.458646929907
 21
92.2559692263603
 31
0.0
  0
LINE
  5
   8F6
  8
0
  6
CONTINUOUS
 62
     2
 10
-351.85137652576
 20
92.2559692263603
 30
0.0
 11
-352.670754410976
 21
92.2559692263603
 31
0.0
  0
LINE
  5
   8F7
  8
0
  6
CONTINUOUS
 62
     2
 10
-350.244106121613
 20
92.2559692263603
 30
0.0
 11
-351.031995970256
 21
92.2559692263603
 31
0.0
  0
LINE
  5
   8F8
  8
0
  6
CONTINUOUS
 62
     2
 10
-347.971082173506
 20
92.2559692263603
 30
0.0
 11
-348.359203199611
 21
92.2559692263603
 31
0.0
  0
LINE
  5
   8F9
  8
0
  6
CONTINUOUS
 62
     2
 10
-354.184770345886
 20
92.2559692263603
 30
0.0
 11
-354.821225489466
 21
92.2559692263603
 31
0.0
  0
LINE
  5
   8FA
  8
0
  6
CONTINUOUS
 62
     2
 10
-349.517980035346
 20
92.2559692263603
 30
0.0
 11
-350.244106121613
 21
92.2559692263603
 31
0.0
  0
LINE
  5
   8FB
  8
0
  6
CONTINUOUS
 62
     2
 10
-355.343547181621
 20
92.2559692263603
 30
0.0
 11
-355.731670878014
 21
92.2559692263603
 31
0.0
  0
LINE
  5
   8FC
  8
0
  6
CONTINUOUS
 62
     2
 10
-351.031995970256
 20
92.2559692263603
 30
0.0
 11
-351.85137652576
 21
92.2559692263603
 31
0.0
  0
LINE
  5
   8FD
  8
0
  6
CONTINUOUS
 62
     2
 10
-347.732078042444
 20
92.2559692263603
 30
0.0
 11
-347.971082173506
 21
92.2559692263603
 31
0.0
  0
LINE
  5
   8FE
  8
0
  6
CONTINUOUS
 62
     2
 10
-348.881527562054
 20
92.2559692263603
 30
0.0
 11
-349.517980035346
 21
92.2559692263603
 31
0.0
  0
LINE
  5
   8FF
  8
0
  6
CONTINUOUS
 62
     2
 10
-348.359203199611
 20
92.2559692263603
 30
0.0
 11
-348.881527562054
 21
92.2559692263603
 31
0.0
  0
LINE
  5
   900
  8
0
  6
CONTINUOUS
 62
     2
 10
-347.651376597285
 20
92.2559692263603
 30
0.0
 11
-347.732078042444
 21
92.2559692263603
 31
0.0
  0
LINE
  5
   901
  8
0
  6
CONTINUOUS
 62
     2
 10
-332.338876858056
 20
70.2059696018696
 30
0.0
 11
-332.419578303215
 21
70.2059696018696
 31
0.0
  0
LINE
  5
   902
  8
0
  6
CONTINUOUS
 62
     2
 10
-333.046706130669
 20
70.2059696018696
 30
0.0
 11
-333.569025152536
 21
70.2059696018696
 31
0.0
  0
LINE
  5
   903
  8
0
  6
CONTINUOUS
 62
     2
 10
-333.569025152536
 20
70.2059696018696
 30
0.0
 11
-334.205482966404
 21
70.2059696018696
 31
0.0
  0
LINE
  5
   904
  8
0
  6
CONTINUOUS
 62
     2
 10
-332.419578303215
 20
70.2059696018696
 30
0.0
 11
-332.658579763988
 21
70.2059696018696
 31
0.0
  0
LINE
  5
   905
  8
0
  6
CONTINUOUS
 62
     2
 10
-335.719498901314
 20
70.2059696018696
 30
0.0
 11
-336.53887678653
 21
70.2059696018696
 31
0.0
  0
LINE
  5
   906
  8
0
  6
CONTINUOUS
 62
     2
 10
-340.031047442391
 20
70.2059696018696
 30
0.0
 11
-340.419168468496
 21
70.2059696018696
 31
0.0
  0
LINE
  5
   907
  8
0
  6
CONTINUOUS
 62
     2
 10
-334.205482966404
 20
70.2059696018696
 30
0.0
 11
-334.931603712095
 21
70.2059696018696
 31
0.0
  0
LINE
  5
   908
  8
0
  6
CONTINUOUS
 62
     2
 10
-338.872270606656
 20
70.2059696018696
 30
0.0
 11
-339.508723079948
 21
70.2059696018696
 31
0.0
  0
LINE
  5
   909
  8
0
  6
CONTINUOUS
 62
     2
 10
-332.658579763988
 20
70.2059696018696
 30
0.0
 11
-333.046706130669
 21
70.2059696018696
 31
0.0
  0
LINE
  5
   90A
  8
0
  6
CONTINUOUS
 62
     2
 10
-334.931603712095
 20
70.2059696018696
 30
0.0
 11
-335.719498901314
 21
70.2059696018696
 31
0.0
  0
LINE
  5
   90B
  8
0
  6
CONTINUOUS
 62
     2
 10
-336.53887678653
 20
70.2059696018696
 30
0.0
 11
-337.358254671746
 21
70.2059696018696
 31
0.0
  0
LINE
  5
   90C
  8
0
  6
CONTINUOUS
 62
     2
 10
-337.358254671746
 20
70.2059696018696
 30
0.0
 11
-338.146144520389
 21
70.2059696018696
 31
0.0
  0
LINE
  5
   90D
  8
0
  6
CONTINUOUS
 62
     2
 10
-340.419168468496
 20
70.2059696018696
 30
0.0
 11
-340.658175269846
 21
70.2059696018696
 31
0.0
  0
LINE
  5
   90E
  8
0
  6
CONTINUOUS
 62
     2
 10
-340.658175269846
 20
70.2059696018696
 30
0.0
 11
-340.738876715005
 21
70.2059696018696
 31
0.0
  0
LINE
  5
   90F
  8
0
  6
CONTINUOUS
 62
     2
 10
-338.146144520389
 20
70.2059696018696
 30
0.0
 11
-338.872270606656
 21
70.2059696018696
 31
0.0
  0
LINE
  5
   910
  8
0
  6
CONTINUOUS
 62
     2
 10
-339.508723079948
 20
70.2059696018696
 30
0.0
 11
-340.031047442391
 21
70.2059696018696
 31
0.0
  0
LINE
  5
   911
  8
0
  6
CONTINUOUS
 62
     2
 10
-332.863876849115
 20
70.7309695929289
 30
0.0
 11
-332.934489946057
 21
70.7309695929289
 31
0.0
  0
LINE
  5
   912
  8
0
  6
CONTINUOUS
 62
     2
 10
-333.940259277073
 20
70.7309695929289
 30
0.0
 11
-334.497153188488
 21
70.7309695929289
 31
0.0
  0
LINE
  5
   913
  8
0
  6
CONTINUOUS
 62
     2
 10
-333.14362156481
 20
70.7309695929289
 30
0.0
 11
-333.48322345722
 21
70.7309695929289
 31
0.0
  0
LINE
  5
   914
  8
0
  6
CONTINUOUS
 62
     2
 10
-340.143263627003
 20
70.7309695929289
 30
0.0
 11
-340.213876723945
 21
70.7309695929289
 31
0.0
  0
LINE
  5
   915
  8
0
  6
CONTINUOUS
 62
     2
 10
-334.497153188488
 20
70.7309695929289
 30
0.0
 11
-335.13251618426
 21
70.7309695929289
 31
0.0
  0
LINE
  5
   916
  8
0
  6
CONTINUOUS
 62
     2
 10
-339.594524775264
 20
70.7309695929289
 30
0.0
 11
-339.93413200825
 21
70.7309695929289
 31
0.0
  0
LINE
  5
   917
  8
0
  6
CONTINUOUS
 62
     2
 10
-339.137494295987
 20
70.7309695929289
 30
0.0
 11
-339.594524775264
 21
70.7309695929289
 31
0.0
  0
LINE
  5
   918
  8
0
  6
CONTINUOUS
 62
     2
 10
-339.93413200825
 20
70.7309695929289
 30
0.0
 11
-340.143263627003
 21
70.7309695929289
 31
0.0
  0
LINE
  5
   919
  8
0
  6
CONTINUOUS
 62
     2
 10
-333.48322345722
 20
70.7309695929289
 30
0.0
 11
-333.940259277073
 21
70.7309695929289
 31
0.0
  0
LINE
  5
   91A
  8
0
  6
CONTINUOUS
 62
     2
 10
-335.13251618426
 20
70.7309695929289
 30
0.0
 11
-335.821920469394
 21
70.7309695929289
 31
0.0
  0
LINE
  5
   91B
  8
0
  6
CONTINUOUS
 62
     2
 10
-338.580595043996
 20
70.7309695929289
 30
0.0
 11
-339.137494295987
 21
70.7309695929289
 31
0.0
  0
LINE
  5
   91C
  8
0
  6
CONTINUOUS
 62
     2
 10
-332.934489946057
 20
70.7309695929289
 30
0.0
 11
-333.14362156481
 21
70.7309695929289
 31
0.0
  0
LINE
  5
   91D
  8
0
  6
CONTINUOUS
 62
     2
 10
-337.945237388801
 20
70.7309695929289
 30
0.0
 11
-338.580595043996
 21
70.7309695929289
 31
0.0
  0
LINE
  5
   91E
  8
0
  6
CONTINUOUS
 62
     2
 10
-337.255833103666
 20
70.7309695929289
 30
0.0
 11
-337.945237388801
 21
70.7309695929289
 31
0.0
  0
LINE
  5
   91F
  8
0
  6
CONTINUOUS
 62
     2
 10
-335.821920469394
 20
70.7309695929289
 30
0.0
 11
-336.53887678653
 21
70.7309695929289
 31
0.0
  0
LINE
  5
   920
  8
0
  6
CONTINUOUS
 62
     2
 10
-336.53887678653
 20
70.7309695929289
 30
0.0
 11
-337.255833103666
 21
70.7309695929289
 31
0.0
  0
LINE
  5
   921
  8
0
  6
CONTINUOUS
 62
     2
 10
-340.738876715005
 20
64.2559670329094
 30
0.0
 11
-340.738876715005
 21
60.7559670925141
 31
0.0
  0
LINE
  5
   922
  8
0
  6
CONTINUOUS
 62
     2
 10
-340.738876715005
 20
70.2059696018696
 30
0.0
 11
-340.738876715005
 21
69.5059696137905
 31
0.0
  0
LINE
  5
   923
  8
0
  6
CONTINUOUS
 62
     2
 10
-332.338876858056
 20
64.2559670329094
 30
0.0
 11
-332.338876858056
 21
60.7559670925141
 31
0.0
  0
LINE
  5
   924
  8
0
  6
CONTINUOUS
 62
     2
 10
-332.338876858056
 20
70.2059696018696
 30
0.0
 11
-332.338876858056
 21
69.5059696137905
 31
0.0
  0
LINE
  5
   925
  8
0
  6
CONTINUOUS
 62
     2
 10
-340.213876723945
 20
70.7309695929289
 30
0.0
 11
-340.738876715005
 21
70.2059696018696
 31
0.0
  0
LINE
  5
   926
  8
0
  6
CONTINUOUS
 62
     2
 10
-332.338876858056
 20
70.2059696018696
 30
0.0
 11
-332.863876849115
 21
70.7309695929289
 31
0.0
  0
LINE
  5
   927
  8
0
  6
CONTINUOUS
 62
    90
 10
-332.749577839831
 20
55.5059671819211
 30
0.0
 11
-333.524906653532
 21
55.5059671819211
 31
0.0
  0
LINE
  5
   928
  8
0
  6
CONTINUOUS
 62
    90
 10
-333.524906653532
 20
55.5059671819211
 30
0.0
 11
-334.462818624864
 21
55.5059671819211
 31
0.0
  0
LINE
  5
   929
  8
0
  6
CONTINUOUS
 62
    90
 10
-341.859633989619
 20
55.5059671819211
 30
0.0
 11
-341.963876694143
 21
55.5059671819211
 31
0.0
  0
LINE
  5
   92A
  8
0
  6
CONTINUOUS
 62
    90
 10
-339.552846919529
 20
55.5059671819211
 30
0.0
 11
-340.328175733229
 21
55.5059671819211
 31
0.0
  0
LINE
  5
   92B
  8
0
  6
CONTINUOUS
 62
    90
 10
-338.614934948197
 20
55.5059671819211
 30
0.0
 11
-339.552846919529
 21
55.5059671819211
 31
0.0
  0
LINE
  5
   92C
  8
0
  6
CONTINUOUS
 62
    90
 10
-338.073037374417
 20
55.5059671819211
 30
0.0
 11
-338.614934948197
 21
55.5059671819211
 31
0.0
  0
LINE
  5
   92D
  8
0
  6
CONTINUOUS
 62
    90
 10
-331.218116913153
 20
55.5059671819211
 30
0.0
 11
-331.288876875937
 21
55.5059671819211
 31
0.0
  0
LINE
  5
   92E
  8
0
  6
CONTINUOUS
 62
    90
 10
-334.462818624864
 20
55.5059671819211
 30
0.0
 11
-335.004710858067
 21
55.5059671819211
 31
0.0
  0
LINE
  5
   92F
  8
0
  6
CONTINUOUS
 62
    90
 10
-341.788876697123
 20
55.5059671819211
 30
0.0
 11
-341.859633989619
 21
55.5059671819211
 31
0.0
  0
LINE
  5
   930
  8
0
  6
CONTINUOUS
 62
    90
 10
-331.113876878917
 20
55.5059671819211
 30
0.0
 11
-331.218116913153
 21
55.5059671819211
 31
0.0
  0
LINE
  5
   931
  8
0
  6
CONTINUOUS
 62
    90
 10
-341.963876694143
 20
55.5059671819211
 30
0.0
 11
-341.963876694143
 21
54.9809671908617
 31
0.0
  0
LINE
  5
   932
  8
0
  6
CONTINUOUS
 62
    90
 10
-331.113876878917
 20
55.5059671819211
 30
0.0
 11
-331.113876878917
 21
54.9809671908617
 31
0.0
  0
LINE
  5
   933
  8
0
  6
CONTINUOUS
 62
   130
 10
-336.53887678653
 20
69.5059696137905
 30
0.0
 11
-341.788876697123
 21
69.5059696137905
 31
0.0
  0
LINE
  5
   934
  8
0
  6
CONTINUOUS
 62
   130
 10
-331.288876875937
 20
69.5059696137905
 30
0.0
 11
-336.53887678653
 21
69.5059696137905
 31
0.0
  0
LINE
  5
   935
  8
0
  6
CONTINUOUS
 62
   130
 10
-336.53887678653
 20
69.5059696137905
 30
0.0
 11
-336.53887678653
 21
65.3059670150281
 31
0.0
  0
LINE
  5
   936
  8
0
  6
CONTINUOUS
 62
   130
 10
-341.788876697123
 20
69.5059696137905
 30
0.0
 11
-341.788876697123
 21
65.3059670150281
 31
0.0
  0
LINE
  5
   937
  8
0
  6
CONTINUOUS
 62
   130
 10
-331.288876875937
 20
69.5059696137905
 30
0.0
 11
-331.288876875937
 21
65.3059670150281
 31
0.0
  0
LINE
  5
   938
  8
0
  6
CONTINUOUS
 62
   130
 10
-340.328175733229
 20
55.5059671819211
 30
0.0
 11
-341.788876697123
 21
55.5059671819211
 31
0.0
  0
LINE
  5
   939
  8
0
  6
CONTINUOUS
 62
   130
 10
-336.53887678653
 20
55.5059671819211
 30
0.0
 11
-338.073037374417
 21
55.5059671819211
 31
0.0
  0
LINE
  5
   93A
  8
0
  6
CONTINUOUS
 62
   130
 10
-335.004710858067
 20
55.5059671819211
 30
0.0
 11
-336.53887678653
 21
55.5059671819211
 31
0.0
  0
LINE
  5
   93B
  8
0
  6
CONTINUOUS
 62
   130
 10
-331.288876875937
 20
55.5059671819211
 30
0.0
 11
-332.749577839831
 21
55.5059671819211
 31
0.0
  0
LINE
  5
   93C
  8
0
  6
CONTINUOUS
 62
   130
 10
-336.53887678653
 20
59.7059671103955
 30
0.0
 11
-336.53887678653
 21
55.5059671819211
 31
0.0
  0
LINE
  5
   93D
  8
0
  6
CONTINUOUS
 62
   130
 10
-341.788876697123
 20
59.7059671103955
 30
0.0
 11
-341.788876697123
 21
55.5059671819211
 31
0.0
  0
LINE
  5
   93E
  8
0
  6
CONTINUOUS
 62
   130
 10
-331.288876875937
 20
59.7059671103955
 30
0.0
 11
-331.288876875937
 21
55.5059671819211
 31
0.0
  0
LINE
  5
   93F
  8
0
  6
CONTINUOUS
 62
     3
 10
-330.531567165934
 20
54.6309671968222
 30
0.0
 11
-330.880114523279
 21
54.6309671968222
 31
0.0
  0
LINE
  5
   940
  8
0
  6
CONTINUOUS
 62
     3
 10
-331.446124798064
 20
54.6309671968222
 30
0.0
 11
-332.20784582391
 21
54.6309671968222
 31
0.0
  0
LINE
  5
   941
  8
0
  6
CONTINUOUS
 62
     3
 10
-330.880114523279
 20
54.6309671968222
 30
0.0
 11
-331.446124798064
 21
54.6309671968222
 31
0.0
  0
LINE
  5
   942
  8
0
  6
CONTINUOUS
 62
     3
 10
-330.413876890838
 20
54.6309671968222
 30
0.0
 11
-330.531567165934
 21
54.6309671968222
 31
0.0
  0
LINE
  5
   943
  8
0
  6
CONTINUOUS
 62
     3
 10
-333.136011243895
 20
54.6309671968222
 30
0.0
 11
-334.194940669221
 21
54.6309671968222
 31
0.0
  0
LINE
  5
   944
  8
0
  6
CONTINUOUS
 62
     3
 10
-342.197639049781
 20
54.6309671968222
 30
0.0
 11
-342.546186407127
 21
54.6309671968222
 31
0.0
  0
LINE
  5
   945
  8
0
  6
CONTINUOUS
 62
     3
 10
-342.546186407127
 20
54.6309671968222
 30
0.0
 11
-342.663876682222
 21
54.6309671968222
 31
0.0
  0
LINE
  5
   946
  8
0
  6
CONTINUOUS
 62
     3
 10
-332.20784582391
 20
54.6309671968222
 30
0.0
 11
-333.136011243895
 21
54.6309671968222
 31
0.0
  0
LINE
  5
   947
  8
0
  6
CONTINUOUS
 62
     3
 10
-338.88281290384
 20
54.6309671968222
 30
0.0
 11
-339.941742329166
 21
54.6309671968222
 31
0.0
  0
LINE
  5
   948
  8
0
  6
CONTINUOUS
 62
     3
 10
-336.53887678653
 20
54.6309671968222
 30
0.0
 11
-337.733803981757
 21
54.6309671968222
 31
0.0
  0
LINE
  5
   949
  8
0
  6
CONTINUOUS
 62
     3
 10
-340.86990774915
 20
54.6309671968222
 30
0.0
 11
-341.631628774996
 21
54.6309671968222
 31
0.0
  0
LINE
  5
   94A
  8
0
  6
CONTINUOUS
 62
     3
 10
-341.631628774996
 20
54.6309671968222
 30
0.0
 11
-342.197639049781
 21
54.6309671968222
 31
0.0
  0
LINE
  5
   94B
  8
0
  6
CONTINUOUS
 62
     3
 10
-335.343949591304
 20
54.6309671968222
 30
0.0
 11
-336.53887678653
 21
54.6309671968222
 31
0.0
  0
LINE
  5
   94C
  8
0
  6
CONTINUOUS
 62
     3
 10
-337.733803981757
 20
54.6309671968222
 30
0.0
 11
-338.88281290384
 21
54.6309671968222
 31
0.0
  0
LINE
  5
   94D
  8
0
  6
CONTINUOUS
 62
     3
 10
-339.941742329166
 20
54.6309671968222
 30
0.0
 11
-340.86990774915
 21
54.6309671968222
 31
0.0
  0
LINE
  5
   94E
  8
0
  6
CONTINUOUS
 62
     3
 10
-334.194940669221
 20
54.6309671968222
 30
0.0
 11
-335.343949591304
 21
54.6309671968222
 31
0.0
  0
LINE
  5
   94F
  8
0
  6
CONTINUOUS
 62
     3
 10
-330.763876884878
 20
54.9809671908617
 30
0.0
 11
-330.874840704399
 21
54.9809671908617
 31
0.0
  0
LINE
  5
   950
  8
0
  6
CONTINUOUS
 62
     3
 10
-341.340615443771
 20
54.9809671908617
 30
0.0
 11
-341.874277849233
 21
54.9809671908617
 31
0.0
  0
LINE
  5
   951
  8
0
  6
CONTINUOUS
 62
     3
 10
-342.202910198373
 20
54.9809671908617
 30
0.0
 11
-342.313876688183
 21
54.9809671908617
 31
0.0
  0
LINE
  5
   952
  8
0
  6
CONTINUOUS
 62
     3
 10
-331.73713812929
 20
54.9809671908617
 30
0.0
 11
-332.455333460076
 21
54.9809671908617
 31
0.0
  0
LINE
  5
   953
  8
0
  6
CONTINUOUS
 62
     3
 10
-332.455333460076
 20
54.9809671908617
 30
0.0
 11
-333.330456278425
 21
54.9809671908617
 31
0.0
  0
LINE
  5
   954
  8
0
  6
CONTINUOUS
 62
     3
 10
-341.874277849233
 20
54.9809671908617
 30
0.0
 11
-342.202910198373
 21
54.9809671908617
 31
0.0
  0
LINE
  5
   955
  8
0
  6
CONTINUOUS
 62
     3
 10
-338.74887125573
 20
54.9809671908617
 30
0.0
 11
-339.747291954059
 21
54.9809671908617
 31
0.0
  0
LINE
  5
   956
  8
0
  6
CONTINUOUS
 62
     3
 10
-331.203473053539
 20
54.9809671908617
 30
0.0
 11
-331.73713812929
 21
54.9809671908617
 31
0.0
  0
LINE
  5
   957
  8
0
  6
CONTINUOUS
 62
     3
 10
-333.330456278425
 20
54.9809671908617
 30
0.0
 11
-334.328876976754
 21
54.9809671908617
 31
0.0
  0
LINE
  5
   958
  8
0
  6
CONTINUOUS
 62
     3
 10
-337.665524716562
 20
54.9809671908617
 30
0.0
 11
-338.74887125573
 21
54.9809671908617
 31
0.0
  0
LINE
  5
   959
  8
0
  6
CONTINUOUS
 62
     3
 10
-330.874840704399
 20
54.9809671908617
 30
0.0
 11
-331.203473053539
 21
54.9809671908617
 31
0.0
  0
LINE
  5
   95A
  8
0
  6
CONTINUOUS
 62
     3
 10
-334.328876976754
 20
54.9809671908617
 30
0.0
 11
-335.412228856498
 21
54.9809671908617
 31
0.0
  0
LINE
  5
   95B
  8
0
  6
CONTINUOUS
 62
     3
 10
-340.622420112984
 20
54.9809671908617
 30
0.0
 11
-341.340615443771
 21
54.9809671908617
 31
0.0
  0
LINE
  5
   95C
  8
0
  6
CONTINUOUS
 62
     3
 10
-335.412228856498
 20
54.9809671908617
 30
0.0
 11
-336.53887678653
 21
54.9809671908617
 31
0.0
  0
LINE
  5
   95D
  8
0
  6
CONTINUOUS
 62
     3
 10
-339.747291954059
 20
54.9809671908617
 30
0.0
 11
-340.622420112984
 21
54.9809671908617
 31
0.0
  0
LINE
  5
   95E
  8
0
  6
CONTINUOUS
 62
     3
 10
-336.53887678653
 20
54.9809671908617
 30
0.0
 11
-337.665524716562
 21
54.9809671908617
 31
0.0
  0
LINE
  5
   95F
  8
0
  6
CONTINUOUS
 62
     3
 10
-342.663876682222
 20
54.6309671968222
 30
0.0
 11
-342.663876682222
 21
47.8059699833393
 31
0.0
  0
LINE
  5
   960
  8
0
  6
CONTINUOUS
 62
     3
 10
-330.413876890838
 20
54.6309671968222
 30
0.0
 11
-330.413876890838
 21
47.8059699833393
 31
0.0
  0
LINE
  5
   961
  8
0
  6
CONTINUOUS
 62
     3
 10
-342.313876688183
 20
54.9809671908618
 30
0.0
 11
-342.663876682222
 21
54.6309671968222
 31
0.0
  0
LINE
  5
   962
  8
0
  6
CONTINUOUS
 62
     3
 10
-330.413876890838
 20
54.6309671968222
 30
0.0
 11
-330.763876884878
 21
54.9809671908618
 31
0.0
  0
LINE
  5
   963
  8
0
  6
CONTINUOUS
 62
     2
 10
-331.341641767617
 20
64.2559670329094
 30
0.0
 11
-332.455434931022
 21
64.2559670329094
 31
0.0
  0
LINE
  5
   964
  8
0
  6
CONTINUOUS
 62
     2
 10
-332.455434931022
 20
64.2559670329094
 30
0.0
 11
-333.726155581989
 21
64.2559670329094
 31
0.0
  0
LINE
  5
   965
  8
0
  6
CONTINUOUS
 62
     2
 10
-343.747650467476
 20
64.2559670329094
 30
0.0
 11
-343.88887666136
 21
64.2559670329094
 31
0.0
  0
LINE
  5
   966
  8
0
  6
CONTINUOUS
 62
     2
 10
-342.650178104575
 20
64.2559670329094
 30
0.0
 11
-343.329392570547
 21
64.2559670329094
 31
0.0
  0
LINE
  5
   967
  8
0
  6
CONTINUOUS
 62
     2
 10
-340.622318642038
 20
64.2559670329094
 30
0.0
 11
-341.736111805444
 21
64.2559670329094
 31
0.0
  0
LINE
  5
   968
  8
0
  6
CONTINUOUS
 62
     2
 10
-339.351597991071
 20
64.2559670329094
 30
0.0
 11
-340.622318642038
 21
64.2559670329094
 31
0.0
  0
LINE
  5
   969
  8
0
  6
CONTINUOUS
 62
     2
 10
-337.972789420802
 20
64.2559670329094
 30
0.0
 11
-339.351597991071
 21
64.2559670329094
 31
0.0
  0
LINE
  5
   96A
  8
0
  6
CONTINUOUS
 62
     2
 10
-341.736111805444
 20
64.2559670329094
 30
0.0
 11
-342.650178104575
 21
64.2559670329094
 31
0.0
  0
LINE
  5
   96B
  8
0
  6
CONTINUOUS
 62
     2
 10
-329.330105775872
 20
64.2559670329094
 30
0.0
 11
-329.748361002514
 21
64.2559670329094
 31
0.0
  0
LINE
  5
   96C
  8
0
  6
CONTINUOUS
 62
     2
 10
-335.104964152258
 20
64.2559670329094
 30
0.0
 11
-336.53887678653
 21
64.2559670329094
 31
0.0
  0
LINE
  5
   96D
  8
0
  6
CONTINUOUS
 62
     2
 10
-336.53887678653
 20
64.2559670329094
 30
0.0
 11
-337.972789420802
 21
64.2559670329094
 31
0.0
  0
LINE
  5
   96E
  8
0
  6
CONTINUOUS
 62
     2
 10
-330.427575468486
 20
64.2559670329094
 30
0.0
 11
-331.341641767617
 21
64.2559670329094
 31
0.0
  0
LINE
  5
   96F
  8
0
  6
CONTINUOUS
 62
     2
 10
-333.726155581989
 20
64.2559670329094
 30
0.0
 11
-335.104964152258
 21
64.2559670329094
 31
0.0
  0
LINE
  5
   970
  8
0
  6
CONTINUOUS
 62
     2
 10
-343.329392570547
 20
64.2559670329094
 30
0.0
 11
-343.747650467476
 21
64.2559670329094
 31
0.0
  0
LINE
  5
   971
  8
0
  6
CONTINUOUS
 62
     2
 10
-329.748361002514
 20
64.2559670329094
 30
0.0
 11
-330.427575468486
 21
64.2559670329094
 31
0.0
  0
LINE
  5
   972
  8
0
  6
CONTINUOUS
 62
     2
 10
-329.1888769117
 20
64.2559670329094
 30
0.0
 11
-329.330105775872
 21
64.2559670329094
 31
0.0
  0
LINE
  5
   973
  8
0
  6
CONTINUOUS
 62
     2
 10
-329.1888769117
 20
65.3059670150281
 30
0.0
 11
-329.330105775872
 21
65.3059670150281
 31
0.0
  0
LINE
  5
   974
  8
0
  6
CONTINUOUS
 62
     2
 10
-329.330105775872
 20
65.3059670150281
 30
0.0
 11
-329.748361002514
 21
65.3059670150281
 31
0.0
  0
LINE
  5
   975
  8
0
  6
CONTINUOUS
 62
     2
 10
-329.748361002514
 20
65.3059670150281
 30
0.0
 11
-330.427575468486
 21
65.3059670150281
 31
0.0
  0
LINE
  5
   976
  8
0
  6
CONTINUOUS
 62
     2
 10
-331.341641767617
 20
65.3059670150281
 30
0.0
 11
-332.455434931022
 21
65.3059670150281
 31
0.0
  0
LINE
  5
   977
  8
0
  6
CONTINUOUS
 62
     2
 10
-332.455434931022
 20
65.3059670150281
 30
0.0
 11
-333.726155581989
 21
65.3059670150281
 31
0.0
  0
LINE
  5
   978
  8
0
  6
CONTINUOUS
 62
     2
 10
-343.747650467476
 20
65.3059670150281
 30
0.0
 11
-343.88887666136
 21
65.3059670150281
 31
0.0
  0
LINE
  5
   979
  8
0
  6
CONTINUOUS
 62
     2
 10
-333.726155581989
 20
65.3059670150281
 30
0.0
 11
-335.104964152258
 21
65.3059670150281
 31
0.0
  0
LINE
  5
   97A
  8
0
  6
CONTINUOUS
 62
     2
 10
-343.329392570547
 20
65.3059670150281
 30
0.0
 11
-343.747650467476
 21
65.3059670150281
 31
0.0
  0
LINE
  5
   97B
  8
0
  6
CONTINUOUS
 62
     2
 10
-342.650178104575
 20
65.3059670150281
 30
0.0
 11
-343.329392570547
 21
65.3059670150281
 31
0.0
  0
LINE
  5
   97C
  8
0
  6
CONTINUOUS
 62
     2
 10
-341.736111805444
 20
65.3059670150281
 30
0.0
 11
-342.650178104575
 21
65.3059670150281
 31
0.0
  0
LINE
  5
   97D
  8
0
  6
CONTINUOUS
 62
     2
 10
-330.427575468486
 20
65.3059670150281
 30
0.0
 11
-331.341641767617
 21
65.3059670150281
 31
0.0
  0
LINE
  5
   97E
  8
0
  6
CONTINUOUS
 62
     2
 10
-340.622318642038
 20
65.3059670150281
 30
0.0
 11
-341.736111805444
 21
65.3059670150281
 31
0.0
  0
LINE
  5
   97F
  8
0
  6
CONTINUOUS
 62
     2
 10
-335.104964152258
 20
65.3059670150281
 30
0.0
 11
-336.53887678653
 21
65.3059670150281
 31
0.0
  0
LINE
  5
   980
  8
0
  6
CONTINUOUS
 62
     2
 10
-339.351597991071
 20
65.3059670150281
 30
0.0
 11
-340.622318642038
 21
65.3059670150281
 31
0.0
  0
LINE
  5
   981
  8
0
  6
CONTINUOUS
 62
     2
 10
-337.972789420802
 20
65.3059670150281
 30
0.0
 11
-339.351597991071
 21
65.3059670150281
 31
0.0
  0
LINE
  5
   982
  8
0
  6
CONTINUOUS
 62
     2
 10
-336.53887678653
 20
65.3059670150281
 30
0.0
 11
-337.972789420802
 21
65.3059670150281
 31
0.0
  0
LINE
  5
   983
  8
0
  6
CONTINUOUS
 62
     2
 10
-343.88887666136
 20
65.3059670150281
 30
0.0
 11
-343.88887666136
 21
64.2559670329094
 31
0.0
  0
LINE
  5
   984
  8
0
  6
CONTINUOUS
 62
     2
 10
-329.1888769117
 20
65.3059670150281
 30
0.0
 11
-329.1888769117
 21
64.2559670329094
 31
0.0
  0
LINE
  5
   985
  8
0
  6
CONTINUOUS
 62
     2
 10
-331.341641767617
 20
59.7059671103955
 30
0.0
 11
-332.455434931022
 21
59.7059671103955
 31
0.0
  0
LINE
  5
   986
  8
0
  6
CONTINUOUS
 62
     2
 10
-332.455434931022
 20
59.7059671103955
 30
0.0
 11
-333.726155581989
 21
59.7059671103955
 31
0.0
  0
LINE
  5
   987
  8
0
  6
CONTINUOUS
 62
     2
 10
-343.747650467476
 20
59.7059671103955
 30
0.0
 11
-343.88887666136
 21
59.7059671103955
 31
0.0
  0
LINE
  5
   988
  8
0
  6
CONTINUOUS
 62
     2
 10
-342.650178104575
 20
59.7059671103955
 30
0.0
 11
-343.329392570547
 21
59.7059671103955
 31
0.0
  0
LINE
  5
   989
  8
0
  6
CONTINUOUS
 62
     2
 10
-340.622318642038
 20
59.7059671103955
 30
0.0
 11
-341.736111805444
 21
59.7059671103955
 31
0.0
  0
LINE
  5
   98A
  8
0
  6
CONTINUOUS
 62
     2
 10
-339.351597991071
 20
59.7059671103955
 30
0.0
 11
-340.622318642038
 21
59.7059671103955
 31
0.0
  0
LINE
  5
   98B
  8
0
  6
CONTINUOUS
 62
     2
 10
-337.972789420802
 20
59.7059671103955
 30
0.0
 11
-339.351597991071
 21
59.7059671103955
 31
0.0
  0
LINE
  5
   98C
  8
0
  6
CONTINUOUS
 62
     2
 10
-341.736111805444
 20
59.7059671103955
 30
0.0
 11
-342.650178104575
 21
59.7059671103955
 31
0.0
  0
LINE
  5
   98D
  8
0
  6
CONTINUOUS
 62
     2
 10
-329.330105775872
 20
59.7059671103955
 30
0.0
 11
-329.748361002514
 21
59.7059671103955
 31
0.0
  0
LINE
  5
   98E
  8
0
  6
CONTINUOUS
 62
     2
 10
-335.104964152258
 20
59.7059671103955
 30
0.0
 11
-336.53887678653
 21
59.7059671103955
 31
0.0
  0
LINE
  5
   98F
  8
0
  6
CONTINUOUS
 62
     2
 10
-336.53887678653
 20
59.7059671103955
 30
0.0
 11
-337.972789420802
 21
59.7059671103955
 31
0.0
  0
LINE
  5
   990
  8
0
  6
CONTINUOUS
 62
     2
 10
-330.427575468486
 20
59.7059671103955
 30
0.0
 11
-331.341641767617
 21
59.7059671103955
 31
0.0
  0
LINE
  5
   991
  8
0
  6
CONTINUOUS
 62
     2
 10
-333.726155581989
 20
59.7059671103955
 30
0.0
 11
-335.104964152258
 21
59.7059671103955
 31
0.0
  0
LINE
  5
   992
  8
0
  6
CONTINUOUS
 62
     2
 10
-343.329392570547
 20
59.7059671103955
 30
0.0
 11
-343.747650467476
 21
59.7059671103955
 31
0.0
  0
LINE
  5
   993
  8
0
  6
CONTINUOUS
 62
     2
 10
-329.748361002514
 20
59.7059671103955
 30
0.0
 11
-330.427575468486
 21
59.7059671103955
 31
0.0
  0
LINE
  5
   994
  8
0
  6
CONTINUOUS
 62
     2
 10
-329.1888769117
 20
59.7059671103955
 30
0.0
 11
-329.330105775872
 21
59.7059671103955
 31
0.0
  0
LINE
  5
   995
  8
0
  6
CONTINUOUS
 62
     2
 10
-329.1888769117
 20
60.7559670925141
 30
0.0
 11
-329.330105775872
 21
60.7559670925141
 31
0.0
  0
LINE
  5
   996
  8
0
  6
CONTINUOUS
 62
     2
 10
-329.330105775872
 20
60.7559670925141
 30
0.0
 11
-329.748361002514
 21
60.7559670925141
 31
0.0
  0
LINE
  5
   997
  8
0
  6
CONTINUOUS
 62
     2
 10
-329.748361002514
 20
60.7559670925141
 30
0.0
 11
-330.427575468486
 21
60.7559670925141
 31
0.0
  0
LINE
  5
   998
  8
0
  6
CONTINUOUS
 62
     2
 10
-331.341641767617
 20
60.7559670925141
 30
0.0
 11
-332.455434931022
 21
60.7559670925141
 31
0.0
  0
LINE
  5
   999
  8
0
  6
CONTINUOUS
 62
     2
 10
-332.455434931022
 20
60.7559670925141
 30
0.0
 11
-333.726155581989
 21
60.7559670925141
 31
0.0
  0
LINE
  5
   99A
  8
0
  6
CONTINUOUS
 62
     2
 10
-343.747650467476
 20
60.7559670925141
 30
0.0
 11
-343.88887666136
 21
60.7559670925141
 31
0.0
  0
LINE
  5
   99B
  8
0
  6
CONTINUOUS
 62
     2
 10
-333.726155581989
 20
60.7559670925141
 30
0.0
 11
-335.104964152258
 21
60.7559670925141
 31
0.0
  0
LINE
  5
   99C
  8
0
  6
CONTINUOUS
 62
     2
 10
-343.329392570547
 20
60.7559670925141
 30
0.0
 11
-343.747650467476
 21
60.7559670925141
 31
0.0
  0
LINE
  5
   99D
  8
0
  6
CONTINUOUS
 62
     2
 10
-342.650178104575
 20
60.7559670925141
 30
0.0
 11
-343.329392570547
 21
60.7559670925141
 31
0.0
  0
LINE
  5
   99E
  8
0
  6
CONTINUOUS
 62
     2
 10
-341.736111805444
 20
60.7559670925141
 30
0.0
 11
-342.650178104575
 21
60.7559670925141
 31
0.0
  0
LINE
  5
   99F
  8
0
  6
CONTINUOUS
 62
     2
 10
-330.427575468486
 20
60.7559670925141
 30
0.0
 11
-331.341641767617
 21
60.7559670925141
 31
0.0
  0
LINE
  5
   9A0
  8
0
  6
CONTINUOUS
 62
     2
 10
-340.622318642038
 20
60.7559670925141
 30
0.0
 11
-341.736111805444
 21
60.7559670925141
 31
0.0
  0
LINE
  5
   9A1
  8
0
  6
CONTINUOUS
 62
     2
 10
-335.104964152258
 20
60.7559670925141
 30
0.0
 11
-336.53887678653
 21
60.7559670925141
 31
0.0
  0
LINE
  5
   9A2
  8
0
  6
CONTINUOUS
 62
     2
 10
-339.351597991071
 20
60.7559670925141
 30
0.0
 11
-340.622318642038
 21
60.7559670925141
 31
0.0
  0
LINE
  5
   9A3
  8
0
  6
CONTINUOUS
 62
     2
 10
-337.972789420802
 20
60.7559670925141
 30
0.0
 11
-339.351597991071
 21
60.7559670925141
 31
0.0
  0
LINE
  5
   9A4
  8
0
  6
CONTINUOUS
 62
     2
 10
-336.53887678653
 20
60.7559670925141
 30
0.0
 11
-337.972789420802
 21
60.7559670925141
 31
0.0
  0
LINE
  5
   9A5
  8
0
  6
CONTINUOUS
 62
     2
 10
-343.88887666136
 20
60.7559670925141
 30
0.0
 11
-343.88887666136
 21
59.7059671103955
 31
0.0
  0
LINE
  5
   9A6
  8
0
  6
CONTINUOUS
 62
     2
 10
-329.1888769117
 20
60.7559670925141
 30
0.0
 11
-329.1888769117
 21
59.7059671103955
 31
0.0
  0
LINE
  5
   9A7
  8
0
  6
CONTINUOUS
 62
   210
 10
-374.601384149194
 20
41.6809700876474
 30
0.0
 11
-374.601384149194
 21
41.330975434184
 31
0.0
  0
LINE
  5
   9A8
  8
0
  6
CONTINUOUS
 62
   210
 10
-329.101386259198
 20
41.6809700876474
 30
0.0
 11
-329.101386259198
 21
41.330975434184
 31
0.0
  0
LINE
  5
   9A9
  8
0
  6
CONTINUOUS
 62
   210
 10
-375.476368112564
 20
41.330975434184
 30
0.0
 11
-375.476368112564
 21
38.7563242783664
 31
0.0
  0
LINE
  5
   9AA
  8
0
  6
CONTINUOUS
 62
   210
 10
-376.351373438239
 20
41.330975434184
 30
0.0
 11
-376.351373438239
 21
38.7563242783664
 31
0.0
  0
LINE
  5
   9AB
  8
0
  6
CONTINUOUS
 62
   210
 10
-327.351386289001
 20
41.330975434184
 30
0.0
 11
-327.351386289001
 21
38.7563242783664
 31
0.0
  0
LINE
  5
   9AC
  8
0
  6
CONTINUOUS
 62
   210
 10
-328.226382268667
 20
41.330975434184
 30
0.0
 11
-328.226382268667
 21
38.7563242783664
 31
0.0
  0
LINE
  5
   9AD
  8
0
  6
CONTINUOUS
 62
   210
 10
-375.126368118525
 20
41.330975434184
 30
0.0
 11
-375.126368118525
 21
38.7563242783664
 31
0.0
  0
LINE
  5
   9AE
  8
0
  6
CONTINUOUS
 62
   210
 10
-328.576382262707
 20
41.330975434184
 30
0.0
 11
-328.576382262707
 21
38.7563242783664
 31
0.0
  0
LINE
  5
   9AF
  8
0
  6
CONTINUOUS
 62
   210
 10
-375.126368118525
 20
41.330975434184
 30
0.0
 11
-375.476368112564
 21
41.330975434184
 31
0.0
  0
LINE
  5
   9B0
  8
0
  6
CONTINUOUS
 62
   210
 10
-375.476368112564
 20
41.330975434184
 30
0.0
 11
-376.351373438239
 21
41.330975434184
 31
0.0
  0
LINE
  5
   9B1
  8
0
  6
CONTINUOUS
 62
   210
 10
-327.351386289001
 20
41.330975434184
 30
0.0
 11
-328.226382268667
 21
41.330975434184
 31
0.0
  0
LINE
  5
   9B2
  8
0
  6
CONTINUOUS
 62
   210
 10
-328.226382268667
 20
41.330975434184
 30
0.0
 11
-328.253024400019
 21
41.330975434184
 31
0.0
  0
LINE
  5
   9B3
  8
0
  6
CONTINUOUS
 62
   210
 10
-328.328894626541
 20
41.330975434184
 30
0.0
 11
-328.442443284885
 21
41.330975434184
 31
0.0
  0
LINE
  5
   9B4
  8
0
  6
CONTINUOUS
 62
   210
 10
-328.442443284885
 20
41.330975434184
 30
0.0
 11
-328.576382262707
 21
41.330975434184
 31
0.0
  0
LINE
  5
   9B5
  8
0
  6
CONTINUOUS
 62
   210
 10
-328.253024400019
 20
41.330975434184
 30
0.0
 11
-328.328894626541
 21
41.330975434184
 31
0.0
  0
LINE
  5
   9B6
  8
0
  6
CONTINUOUS
 62
   210
 10
-373.463873487413
 20
41.3309727638959
 30
0.0
 11
-375.126368118525
 21
41.330975434184
 31
0.0
  0
LINE
  5
   9B7
  8
0
  6
CONTINUOUS
 62
   210
 10
-328.576382262707
 20
41.330975434184
 30
0.0
 11
-330.238875558675
 21
41.3309727638959
 31
0.0
  0
LINE
  5
   9B8
  8
0
  6
CONTINUOUS
 62
   210
 10
-329.538872900307
 20
43.0809713989496
 30
0.0
 11
-329.538872900307
 21
41.33097409904
 31
0.0
  0
LINE
  5
   9B9
  8
0
  6
CONTINUOUS
 62
   210
 10
-329.538872900307
 20
43.0809713989496
 30
0.0
 11
-329.573136701299
 21
43.0809713989496
 31
0.0
  0
LINE
  5
   9BA
  8
0
  6
CONTINUOUS
 62
   210
 10
-330.022563535381
 20
43.0809713989496
 30
0.0
 11
-330.238875558675
 21
43.0809713989496
 31
0.0
  0
LINE
  5
   9BB
  8
0
  6
CONTINUOUS
 62
   210
 10
-329.573136701299
 20
43.0809713989496
 30
0.0
 11
-329.672563541341
 21
43.0809713989496
 31
0.0
  0
LINE
  5
   9BC
  8
0
  6
CONTINUOUS
 62
   210
 10
-329.672563541341
 20
43.0809713989496
 30
0.0
 11
-329.827426896248
 21
43.0809713989496
 31
0.0
  0
LINE
  5
   9BD
  8
0
  6
CONTINUOUS
 62
   210
 10
-329.827426896248
 20
43.0809713989496
 30
0.0
 11
-330.022563535381
 21
43.0809713989496
 31
0.0
  0
LINE
  5
   9BE
  8
0
  6
CONTINUOUS
 62
   210
 10
-336.538875451386
 20
43.0809713989496
 30
0.0
 11
-343.582621326
 21
43.0809713989496
 31
0.0
  0
LINE
  5
   9BF
  8
0
  6
CONTINUOUS
 62
   210
 10
-344.807621305138
 20
43.0809713989496
 30
0.0
 11
-351.85137652576
 21
43.0809713989496
 31
0.0
  0
LINE
  5
   9C0
  8
0
  6
CONTINUOUS
 62
   210
 10
-330.238875558675
 20
43.0809713989496
 30
0.0
 11
-336.538875451386
 21
43.0809713989496
 31
0.0
  0
LINE
  5
   9C1
  8
0
  6
CONTINUOUS
 62
   210
 10
-351.85137652576
 20
43.0809713989496
 30
0.0
 11
-358.895121065229
 21
43.0809713989496
 31
0.0
  0
LINE
  5
   9C2
  8
0
  6
CONTINUOUS
 62
   210
 10
-360.163873713911
 20
47.8059699833393
 30
0.0
 11
-374.163873475492
 21
47.8059699833393
 31
0.0
  0
LINE
  5
   9C3
  8
0
  6
CONTINUOUS
 62
   210
 10
-358.851373736263
 20
47.8059699833393
 30
0.0
 11
-358.851373736263
 21
43.0809713989496
 31
0.0
  0
LINE
  5
   9C4
  8
0
  6
CONTINUOUS
 62
   210
 10
-344.851373974681
 20
47.8059699833393
 30
0.0
 11
-344.851373974681
 21
43.0809713989496
 31
0.0
  0
LINE
  5
   9C5
  8
0
  6
CONTINUOUS
 62
   210
 10
-344.851373974681
 20
47.8059699833393
 30
0.0
 11
-358.851373736263
 21
47.8059699833393
 31
0.0
  0
LINE
  5
   9C6
  8
0
  6
CONTINUOUS
 62
   210
 10
-343.538873997033
 20
47.8059699833393
 30
0.0
 11
-343.538873997033
 21
43.0809713989496
 31
0.0
  0
LINE
  5
   9C7
  8
0
  6
CONTINUOUS
 62
   210
 10
-329.538874235451
 20
43.0809713989496
 30
0.0
 11
-329.538875570595
 21
47.8059699833393
 31
0.0
  0
LINE
  5
   9C8
  8
0
  6
CONTINUOUS
 62
   210
 10
-329.538875570595
 20
47.8059699833393
 30
0.0
 11
-343.538873997033
 21
47.8059699833393
 31
0.0
  0
LINE
  5
   9C9
  8
0
  6
CONTINUOUS
 62
   210
 10
-374.472905910415
 20
41.6809700876474
 30
0.0
 11
-374.601384149194
 21
41.6809700876474
 31
0.0
  0
LINE
  5
   9CA
  8
0
  6
CONTINUOUS
 62
   210
 10
-374.163873475492
 20
41.6809700876474
 30
0.0
 11
-374.472905910415
 21
41.6809700876474
 31
0.0
  0
LINE
  5
   9CB
  8
0
  6
CONTINUOUS
 62
   210
 10
-329.101386259198
 20
41.6809700876474
 30
0.0
 11
-329.229863162833
 21
41.6809700876474
 31
0.0
  0
LINE
  5
   9CC
  8
0
  6
CONTINUOUS
 62
   210
 10
-329.229863162833
 20
41.6809700876474
 30
0.0
 11
-329.538872900307
 21
41.6809700876474
 31
0.0
  0
LINE
  5
   9CD
  8
0
  6
CONTINUOUS
 62
   210
 10
-344.807621305138
 20
41.3309727638959
 30
0.0
 11
-344.807621305138
 21
38.7563242783664
 31
0.0
  0
LINE
  5
   9CE
  8
0
  6
CONTINUOUS
 62
   210
 10
-344.807621305138
 20
43.0809713989496
 30
0.0
 11
-344.807621305138
 21
41.3309727638959
 31
0.0
  0
LINE
  5
   9CF
  8
0
  6
CONTINUOUS
 62
   210
 10
-343.582621326
 20
41.3309727638959
 30
0.0
 11
-343.582621326
 21
38.7563242783664
 31
0.0
  0
LINE
  5
   9D0
  8
0
  6
CONTINUOUS
 62
   210
 10
-343.582621326
 20
43.0809713989496
 30
0.0
 11
-343.582621326
 21
41.3309727638959
 31
0.0
  0
LINE
  5
   9D1
  8
0
  6
CONTINUOUS
 62
   210
 10
-343.582621326
 20
41.5059700906277
 30
0.0
 11
-344.807621305138
 21
41.5059700906277
 31
0.0
  0
LINE
  5
   9D2
  8
0
  6
CONTINUOUS
 62
   210
 10
-343.582621326
 20
43.0809700638056
 30
0.0
 11
-344.807621305138
 21
43.0809700638056
 31
0.0
  0
LINE
  5
   9D3
  8
0
  6
CONTINUOUS
 62
   210
 10
-343.582621326
 20
42.3809700757265
 30
0.0
 11
-344.807621305138
 21
42.3809700757265
 31
0.0
  0
LINE
  5
   9D4
  8
0
  6
CONTINUOUS
 62
   210
 10
-358.895121065229
 20
41.3309727638959
 30
0.0
 11
-358.895121065229
 21
38.7563242783664
 31
0.0
  0
LINE
  5
   9D5
  8
0
  6
CONTINUOUS
 62
   210
 10
-358.895121065229
 20
43.0809713989496
 30
0.0
 11
-358.895121065229
 21
41.3309727638959
 31
0.0
  0
LINE
  5
   9D6
  8
0
  6
CONTINUOUS
 62
   210
 10
-357.451373760104
 20
40.2809714466333
 30
0.0
 11
-357.451373760104
 21
38.7563242783664
 31
0.0
  0
LINE
  5
   9D7
  8
0
  6
CONTINUOUS
 62
   210
 10
-346.251373950839
 20
40.2809714466333
 30
0.0
 11
-346.251373950839
 21
38.7563242783664
 31
0.0
  0
LINE
  5
   9D8
  8
0
  6
CONTINUOUS
 62
   210
 10
-346.251373950839
 20
40.2809714466333
 30
0.0
 11
-357.451373760104
 21
40.2809714466333
 31
0.0
  0
LINE
  5
   9D9
  8
0
  6
CONTINUOUS
 62
   210
 10
-342.138874020875
 20
40.2809714466333
 30
0.0
 11
-342.138874020875
 21
38.7563242783664
 31
0.0
  0
LINE
  5
   9DA
  8
0
  6
CONTINUOUS
 62
   210
 10
-330.93887421161
 20
40.2809714466333
 30
0.0
 11
-330.93887421161
 21
38.7563242783664
 31
0.0
  0
LINE
  5
   9DB
  8
0
  6
CONTINUOUS
 62
   210
 10
-330.93887421161
 20
40.2809714466333
 30
0.0
 11
-342.138874020875
 21
40.2809714466333
 31
0.0
  0
LINE
  5
   9DC
  8
0
  6
CONTINUOUS
 62
     7
 10
-323.715617573276
 20
38.7563242783664
 30
0.0
 11
-379.858050732144
 21
38.7563242783664
 31
0.0
  0
LINE
  5
   9DD
  8
0
  6
DASHDOT
 62
     7
 10
-351.85137652576
 20
84.5594880097075
 30
0.0
 11
-351.85137652576
 21
36.7588883521476
 31
0.0
  0
LINE
  5
   9DE
  8
0
  6
DASHDOT
 62
     7
 10
-336.53887678653
 20
72.5178632264058
 30
0.0
 11
-336.53887678653
 21
36.8076063015676
 31
0.0
  0
LINE
  5
   9DF
  8
0
  6
DASHDOT
 62
     7
 10
-367.16387626499
 20
72.5178632264058
 30
0.0
 11
-367.16387626499
 21
36.8076063015676
 31
0.0
  0
LINE
  5
   9E0
  8
0
  6
CONTINUOUS
 62
   210
 10
-361.563873690069
 20
40.2809714466333
 30
0.0
 11
-372.763873499334
 21
40.2809714466333
 31
0.0
  0
LINE
  5
   9E1
  8
0
  6
CONTINUOUS
 62
   210
 10
-361.563873690069
 20
40.2809714466333
 30
0.0
 11
-361.563873690069
 21
38.7563242783664
 31
0.0
  0
LINE
  5
   9E2
  8
0
  6
CONTINUOUS
 62
   210
 10
-372.763873499334
 20
40.2809714466333
 30
0.0
 11
-372.763873499334
 21
38.7563242783664
 31
0.0
  0
LINE
  5
   9E3
  8
0
  6
CONTINUOUS
 62
   210
 10
-374.207620804459
 20
43.0809713989496
 30
0.0
 11
-374.207620804459
 21
41.3309727638959
 31
0.0
  0
LINE
  5
   9E4
  8
0
  6
CONTINUOUS
 62
   210
 10
-358.895121065229
 20
42.3809700757265
 30
0.0
 11
-360.120121044368
 21
42.3809700757265
 31
0.0
  0
LINE
  5
   9E5
  8
0
  6
CONTINUOUS
 62
   210
 10
-358.895121065229
 20
43.0809700638056
 30
0.0
 11
-360.120121044368
 21
43.0809700638056
 31
0.0
  0
LINE
  5
   9E6
  8
0
  6
CONTINUOUS
 62
   210
 10
-358.895121065229
 20
41.5059700906277
 30
0.0
 11
-360.120121044368
 21
41.5059700906277
 31
0.0
  0
LINE
  5
   9E7
  8
0
  6
CONTINUOUS
 62
   210
 10
-360.120121044368
 20
43.0809713989496
 30
0.0
 11
-360.120121044368
 21
41.3309727638959
 31
0.0
  0
LINE
  5
   9E8
  8
0
  6
CONTINUOUS
 62
   210
 10
-360.120121044368
 20
41.3309727638959
 30
0.0
 11
-360.120121044368
 21
38.7563242783664
 31
0.0
  0
LINE
  5
   9E9
  8
0
  6
CONTINUOUS
 62
   210
 10
-360.163873713911
 20
47.8059699833393
 30
0.0
 11
-360.163873713911
 21
43.0809713989496
 31
0.0
  0
LINE
  5
   9EA
  8
0
  6
CONTINUOUS
 62
   210
 10
-374.163873475492
 20
47.8059699833393
 30
0.0
 11
-374.163873475492
 21
43.0809713989496
 31
0.0
  0
LINE
  5
   9EB
  8
0
  6
CONTINUOUS
 62
   210
 10
-367.16387626499
 20
43.0809713989496
 30
0.0
 11
-374.207620804459
 21
43.0809713989496
 31
0.0
  0
LINE
  5
   9EC
  8
0
  6
CONTINUOUS
 62
   210
 10
-360.120121044368
 20
43.0809713989496
 30
0.0
 11
-367.16387626499
 21
43.0809713989496
 31
0.0
  0
LINE
  5
   9ED
  8
0
  6
DASHDOT
 62
     7
 10
-374.163873475492
 20
42.730970069766
 30
0.0
 11
-392.366619029223
 21
42.730970069766
 31
0.0
  0
LINE
  5
   9EE
  8
0
  6
DASHDOT
 62
     7
 10
-374.163873475492
 20
41.6809700876474
 30
0.0
 11
-392.65298266071
 21
41.6809700876474
 31
0.0
  0
LINE
  5
   9EF
  8
0
  6
CONTINUOUS
 62
     7
 10
-392.073043902612
 20
43.8074122006716
 30
0.0
 11
-392.970056611766
 21
40.5183656004404
 31
0.0
  0
LINE
  5
   9F0
  8
0
  6
DASHDOT
 62
     7
 10
-311.081774457077
 20
42.730970069766
 30
0.0
 11
-329.538879576028
 21
42.730970069766
 31
0.0
  0
LINE
  5
   9F1
  8
0
  6
DASHDOT
 62
     7
 10
-311.396774451713
 20
41.6809700876474
 30
0.0
 11
-329.538879576028
 21
41.6809700876474
 31
0.0
  0
LINE
  5
   9F2
  8
0
  6
CONTINUOUS
 62
     7
 10
-310.893393724178
 20
43.3589058460946
 30
0.0
 11
-311.790406433332
 21
40.3688634822481
 31
0.0
  0
INSERT
  5
   9F3
  8
0
  6
CONTINUOUS
 62
     7
  2
*UDIM828
 10
0.0
 20
0.0
 30
0.0
  0
INSERT
  5
   9F4
  8
0
  6
CONTINUOUS
 62
     7
  2
*UDIM829
 10
0.0
 20
0.0
 30
0.0
  0
INSERT
  5
   9F5
  8
0
  6
CONTINUOUS
 62
     7
  2
*UDIM830
 10
0.0
 20
0.0
 30
0.0
  0
INSERT
  5
   9F6
  8
0
  6
CONTINUOUS
 62
     7
  2
*UDIM831
 10
0.0
 20
0.0
 30
0.0
  0
INSERT
  5
   9F7
  8
0
  6
CONTINUOUS
 62
     7
  2
*UDIM832
 10
0.0
 20
0.0
 30
0.0
  0
INSERT
  5
   9F8
  8
0
  6
CONTINUOUS
 62
     7
  2
*UDIM833
 10
0.0
 20
0.0
 30
0.0
  0
INSERT
  5
   9F9
  8
0
  6
CONTINUOUS
 62
     7
  2
*UDIM834
 10
0.0
 20
0.0
 30
0.0
  0
ENDSEC
  0
EOF
