ISO-10303-21;
HEADER;
FILE_DESCRIPTION(('CATIA V5 STEP Exchange'),'2;1');

FILE_NAME('C:\\Users\\uff.tecnico\\Desktop\\STP\\1SDH001295R0733_1PA_001_00_XT4_4P_PLUG-IN_MOSTRINA_MOE.stp','2014-11-11T15:34:26+00:00',('none'),('none'),'CATIA Version 5 Release 20 SP 1 (IN-10)','CATIA V5 STEP AP214','none');

FILE_SCHEMA(('AUTOMOTIVE_DESIGN { 1 0 10303 214 1 1 1 1 }'));

ENDSEC;
/* file written by CATIA V5R20 */
DATA;
#5=PRODUCT('1SDH001295R0733_1PA_001_00_XT4_4P_PLUG-IN_MOSTRINA_MOE','','',(#2)) ;
#2=PRODUCT_CONTEXT(' ',#1,'mechanical') ;
#1=APPLICATION_CONTEXT('automotive design') ;
#10=PRODUCT_DEFINITION('',' ',#6,#3) ;
#3=PRODUCT_DEFINITION_CONTEXT('part definition',#1,' ') ;
#11=PRODUCT_DEFINITION_SHAPE(' ',' ',#10) ;
#532=MECHANICAL_DESIGN_GEOMETRIC_PRESENTATION_REPRESENTATION(' ',(#30),#17) ;
#20=SHAPE_REPRESENTATION(' ',(#19),#17) ;
#19=AXIS2_PLACEMENT_3D(' ',#18,$,$) ;
#35=AXIS2_PLACEMENT_3D('Plane Axis2P3D',#32,#33,#34) ;
#62=AXIS2_PLACEMENT_3D('Circle Axis2P3D',#60,#61,$) ;
#75=AXIS2_PLACEMENT_3D('Plane Axis2P3D',#72,#73,#74) ;
#106=AXIS2_PLACEMENT_3D('Plane Axis2P3D',#103,#104,#105) ;
#137=AXIS2_PLACEMENT_3D('Plane Axis2P3D',#134,#135,#136) ;
#146=AXIS2_PLACEMENT_3D('Circle Axis2P3D',#144,#145,$) ;
#159=AXIS2_PLACEMENT_3D('Plane Axis2P3D',#156,#157,#158) ;
#205=AXIS2_PLACEMENT_3D('Plane Axis2P3D',#202,#203,#204) ;
#236=AXIS2_PLACEMENT_3D('Plane Axis2P3D',#233,#234,#235) ;
#267=AXIS2_PLACEMENT_3D('Plane Axis2P3D',#264,#265,#266) ;
#284=AXIS2_PLACEMENT_3D('Plane Axis2P3D',#281,#282,#283) ;
#301=AXIS2_PLACEMENT_3D('Plane Axis2P3D',#298,#299,#300) ;
#347=AXIS2_PLACEMENT_3D('Plane Axis2P3D',#344,#345,#346) ;
#378=AXIS2_PLACEMENT_3D('Cylinder Axis2P3D',#375,#376,#377) ;
#382=AXIS2_PLACEMENT_3D('Circle Axis2P3D',#380,#381,$) ;
#389=AXIS2_PLACEMENT_3D('Circle Axis2P3D',#387,#388,$) ;
#409=AXIS2_PLACEMENT_3D('Plane Axis2P3D',#406,#407,#408) ;
#440=AXIS2_PLACEMENT_3D('Plane Axis2P3D',#437,#438,#439) ;
#444=AXIS2_PLACEMENT_3D('Circle Axis2P3D',#442,#443,$) ;
#451=AXIS2_PLACEMENT_3D('Circle Axis2P3D',#449,#450,$) ;
#466=AXIS2_PLACEMENT_3D('Plane Axis2P3D',#463,#464,#465) ;
#470=AXIS2_PLACEMENT_3D('Circle Axis2P3D',#468,#469,$) ;
#477=AXIS2_PLACEMENT_3D('Circle Axis2P3D',#475,#476,$) ;
#492=AXIS2_PLACEMENT_3D('Cylinder Axis2P3D',#489,#490,#491) ;
#515=AXIS2_PLACEMENT_3D('Cylinder Axis2P3D',#512,#513,#514) ;
#529=AXIS2_PLACEMENT_3D('Sistema di assi.1',#526,#527,#528) ;
#18=CARTESIAN_POINT(' ',(0.,0.,0.)) ;
#32=CARTESIAN_POINT('Axis2P3D Location',(-45.258,0.,-30.4)) ;
#37=CARTESIAN_POINT('Line Origine',(-45.258,224.574376113,-30.4)) ;
#41=CARTESIAN_POINT('Vertex',(-45.258,222.,-30.4)) ;
#43=CARTESIAN_POINT('Vertex',(-45.258,227.148752227,-30.4)) ;
#46=CARTESIAN_POINT('Line Origine',(-0.00799999999997,222.,-30.4)) ;
#50=CARTESIAN_POINT('Vertex',(45.242,222.,-30.4)) ;
#53=CARTESIAN_POINT('Line Origine',(45.242,224.575209447,-30.4)) ;
#57=CARTESIAN_POINT('Vertex',(45.242,227.150418895,-30.4)) ;
#60=CARTESIAN_POINT('Axis2P3D Location',(1.7763568394E-013,-207.25,-30.4)) ;
#72=CARTESIAN_POINT('Axis2P3D Location',(45.242,0.,48.9)) ;
#77=CARTESIAN_POINT('Line Origine',(45.242,227.150418895,9.25)) ;
#81=CARTESIAN_POINT('Vertex',(45.242,227.150418895,48.9)) ;
#84=CARTESIAN_POINT('Line Origine',(45.242,222.,9.25)) ;
#88=CARTESIAN_POINT('Vertex',(45.242,222.,48.9)) ;
#91=CARTESIAN_POINT('Line Origine',(45.242,224.575209447,48.9)) ;
#103=CARTESIAN_POINT('Axis2P3D Location',(-45.258,0.,-30.4)) ;
#108=CARTESIAN_POINT('Line Origine',(-45.258,227.148752227,9.25)) ;
#112=CARTESIAN_POINT('Vertex',(-45.258,227.148752227,48.9)) ;
#115=CARTESIAN_POINT('Line Origine',(-45.258,224.574376113,48.9)) ;
#119=CARTESIAN_POINT('Vertex',(-45.258,222.,48.9)) ;
#122=CARTESIAN_POINT('Line Origine',(-45.258,222.,9.25)) ;
#134=CARTESIAN_POINT('Axis2P3D Location',(45.242,0.,48.9)) ;
#139=CARTESIAN_POINT('Line Origine',(-0.008,222.,48.9)) ;
#144=CARTESIAN_POINT('Axis2P3D Location',(1.7763568394E-013,-207.25,48.9)) ;
#156=CARTESIAN_POINT('Axis2P3D Location',(0.,222.,53.75)) ;
#161=CARTESIAN_POINT('Line Origine',(-49.5,222.,9.25)) ;
#165=CARTESIAN_POINT('Vertex',(-49.5,222.,53.75)) ;
#167=CARTESIAN_POINT('Vertex',(-49.5,222.,-35.25)) ;
#170=CARTESIAN_POINT('Line Origine',(0.,222.,-35.25)) ;
#174=CARTESIAN_POINT('Vertex',(49.5,222.,-35.25)) ;
#177=CARTESIAN_POINT('Line Origine',(49.5,222.,9.25)) ;
#181=CARTESIAN_POINT('Vertex',(49.5,222.,53.75)) ;
#184=CARTESIAN_POINT('Line Origine',(0.,222.,53.75)) ;
#202=CARTESIAN_POINT('Axis2P3D Location',(0.,222.,-35.25)) ;
#207=CARTESIAN_POINT('Line Origine',(-49.5,223.,-35.25)) ;
#211=CARTESIAN_POINT('Vertex',(-49.5,224.,-35.25)) ;
#214=CARTESIAN_POINT('Line Origine',(2.84217094304E-014,224.,-35.25)) ;
#218=CARTESIAN_POINT('Vertex',(49.5,224.,-35.25)) ;
#221=CARTESIAN_POINT('Line Origine',(49.5,223.,-35.25)) ;
#233=CARTESIAN_POINT('Axis2P3D Location',(0.,222.,53.75)) ;
#238=CARTESIAN_POINT('Line Origine',(49.5,223.,53.75)) ;
#242=CARTESIAN_POINT('Vertex',(49.5,224.,53.75)) ;
#245=CARTESIAN_POINT('Line Origine',(2.13162820728E-014,224.,53.75)) ;
#249=CARTESIAN_POINT('Vertex',(-49.5,224.,53.75)) ;
#252=CARTESIAN_POINT('Line Origine',(-49.5,223.,53.75)) ;
#264=CARTESIAN_POINT('Axis2P3D Location',(-49.5,199.,0.)) ;
#269=CARTESIAN_POINT('Line Origine',(-49.5,224.,9.25)) ;
#281=CARTESIAN_POINT('Axis2P3D Location',(49.5,199.,0.)) ;
#286=CARTESIAN_POINT('Line Origine',(49.5,224.,9.25)) ;
#298=CARTESIAN_POINT('Axis2P3D Location',(0.,224.,66.4)) ;
#303=CARTESIAN_POINT('Line Origine',(0.,224.,-47.9)) ;
#307=CARTESIAN_POINT('Vertex',(-52.25,224.,-47.9)) ;
#309=CARTESIAN_POINT('Vertex',(52.25,224.,-47.9)) ;
#312=CARTESIAN_POINT('Line Origine',(52.25,224.,9.25)) ;
#316=CARTESIAN_POINT('Vertex',(52.25,224.,66.4)) ;
#319=CARTESIAN_POINT('Line Origine',(0.,224.,66.4)) ;
#323=CARTESIAN_POINT('Vertex',(-52.25,224.,66.4)) ;
#326=CARTESIAN_POINT('Line Origine',(-52.25,224.,9.25)) ;
#344=CARTESIAN_POINT('Axis2P3D Location',(52.25,0.,0.)) ;
#349=CARTESIAN_POINT('Line Origine',(52.25,224.737831836,66.4)) ;
#353=CARTESIAN_POINT('Vertex',(52.25,225.475663672,66.4)) ;
#356=CARTESIAN_POINT('Line Origine',(52.25,224.737831836,-47.9)) ;
#360=CARTESIAN_POINT('Vertex',(52.25,225.475663672,-47.9)) ;
#363=CARTESIAN_POINT('Line Origine',(52.25,225.475663672,9.25)) ;
#375=CARTESIAN_POINT('Axis2P3D Location',(51.25,225.475663672,9.25)) ;
#380=CARTESIAN_POINT('Axis2P3D Location',(51.25,225.475663672,66.4)) ;
#384=CARTESIAN_POINT('Vertex',(51.3676133104,226.468723141,66.4)) ;
#387=CARTESIAN_POINT('Axis2P3D Location',(51.25,225.475663672,-47.9)) ;
#391=CARTESIAN_POINT('Vertex',(51.3676133104,226.468723141,-47.9)) ;
#394=CARTESIAN_POINT('Line Origine',(51.3676133104,226.468723141,9.25)) ;
#406=CARTESIAN_POINT('Axis2P3D Location',(-52.25,0.,0.)) ;
#411=CARTESIAN_POINT('Line Origine',(-52.25,225.475663672,9.25)) ;
#415=CARTESIAN_POINT('Vertex',(-52.25,225.475663672,-47.9)) ;
#417=CARTESIAN_POINT('Vertex',(-52.25,225.475663672,66.4)) ;
#420=CARTESIAN_POINT('Line Origine',(-52.25,224.737831836,-47.9)) ;
#425=CARTESIAN_POINT('Line Origine',(-52.25,224.737831836,66.4)) ;
#437=CARTESIAN_POINT('Axis2P3D Location',(0.,224.,66.4)) ;
#442=CARTESIAN_POINT('Axis2P3D Location',(-51.25,225.475663672,66.4)) ;
#446=CARTESIAN_POINT('Vertex',(-51.3676133104,226.468723141,66.4)) ;
#449=CARTESIAN_POINT('Axis2P3D Location',(-1.24344978758E-013,-207.25,66.4)) ;
#463=CARTESIAN_POINT('Axis2P3D Location',(0.,229.5,-47.9)) ;
#468=CARTESIAN_POINT('Axis2P3D Location',(-51.25,225.475663672,-47.9)) ;
#472=CARTESIAN_POINT('Vertex',(-51.3676133104,226.468723141,-47.9)) ;
#475=CARTESIAN_POINT('Axis2P3D Location',(-1.24344978758E-013,-207.25,-47.9)) ;
#489=CARTESIAN_POINT('Axis2P3D Location',(0.,-207.25,0.)) ;
#494=CARTESIAN_POINT('Line Origine',(-51.3676133104,226.468723141,0.)) ;
#512=CARTESIAN_POINT('Axis2P3D Location',(-51.25,225.475663672,9.25)) ;
#526=CARTESIAN_POINT('Axis2P3D Location',(0.,0.,0.)) ;
#33=DIRECTION('Axis2P3D Direction',(0.,0.,1.)) ;
#34=DIRECTION('Axis2P3D XDirection',(1.,0.,0.)) ;
#38=DIRECTION('Vector Direction',(0.,1.,0.)) ;
#47=DIRECTION('Vector Direction',(1.,0.,0.)) ;
#54=DIRECTION('Vector Direction',(0.,1.,0.)) ;
#61=DIRECTION('Axis2P3D Direction',(0.,0.,1.)) ;
#73=DIRECTION('Axis2P3D Direction',(1.,-0.,0.)) ;
#74=DIRECTION('Axis2P3D XDirection',(0.,0.,-1.)) ;
#78=DIRECTION('Vector Direction',(0.,0.,-1.)) ;
#85=DIRECTION('Vector Direction',(0.,0.,-1.)) ;
#92=DIRECTION('Vector Direction',(0.,1.,0.)) ;
#104=DIRECTION('Axis2P3D Direction',(-1.,0.,0.)) ;
#105=DIRECTION('Axis2P3D XDirection',(0.,0.,1.)) ;
#109=DIRECTION('Vector Direction',(0.,0.,1.)) ;
#116=DIRECTION('Vector Direction',(0.,1.,0.)) ;
#123=DIRECTION('Vector Direction',(0.,0.,1.)) ;
#135=DIRECTION('Axis2P3D Direction',(0.,0.,-1.)) ;
#136=DIRECTION('Axis2P3D XDirection',(-1.,0.,0.)) ;
#140=DIRECTION('Vector Direction',(-1.,0.,0.)) ;
#145=DIRECTION('Axis2P3D Direction',(0.,0.,-1.)) ;
#157=DIRECTION('Axis2P3D Direction',(0.,-1.,0.)) ;
#158=DIRECTION('Axis2P3D XDirection',(0.,0.,-1.)) ;
#162=DIRECTION('Vector Direction',(0.,0.,-1.)) ;
#171=DIRECTION('Vector Direction',(1.,0.,0.)) ;
#178=DIRECTION('Vector Direction',(0.,0.,-1.)) ;
#185=DIRECTION('Vector Direction',(1.,0.,0.)) ;
#203=DIRECTION('Axis2P3D Direction',(0.,0.,-1.)) ;
#204=DIRECTION('Axis2P3D XDirection',(0.,1.,0.)) ;
#208=DIRECTION('Vector Direction',(0.,-1.,0.)) ;
#215=DIRECTION('Vector Direction',(1.,0.,0.)) ;
#222=DIRECTION('Vector Direction',(0.,-1.,0.)) ;
#234=DIRECTION('Axis2P3D Direction',(0.,0.,-1.)) ;
#235=DIRECTION('Axis2P3D XDirection',(0.,1.,0.)) ;
#239=DIRECTION('Vector Direction',(0.,-1.,0.)) ;
#246=DIRECTION('Vector Direction',(1.,0.,0.)) ;
#253=DIRECTION('Vector Direction',(0.,-1.,0.)) ;
#265=DIRECTION('Axis2P3D Direction',(-1.,0.,0.)) ;
#266=DIRECTION('Axis2P3D XDirection',(0.,1.,0.)) ;
#270=DIRECTION('Vector Direction',(0.,0.,-1.)) ;
#282=DIRECTION('Axis2P3D Direction',(-1.,0.,0.)) ;
#283=DIRECTION('Axis2P3D XDirection',(0.,1.,0.)) ;
#287=DIRECTION('Vector Direction',(0.,0.,-1.)) ;
#299=DIRECTION('Axis2P3D Direction',(0.,-1.,0.)) ;
#300=DIRECTION('Axis2P3D XDirection',(0.,0.,-1.)) ;
#304=DIRECTION('Vector Direction',(1.,0.,0.)) ;
#313=DIRECTION('Vector Direction',(0.,0.,-1.)) ;
#320=DIRECTION('Vector Direction',(1.,0.,0.)) ;
#327=DIRECTION('Vector Direction',(0.,0.,1.)) ;
#345=DIRECTION('Axis2P3D Direction',(1.,0.,0.)) ;
#346=DIRECTION('Axis2P3D XDirection',(0.,1.,0.)) ;
#350=DIRECTION('Vector Direction',(0.,1.,0.)) ;
#357=DIRECTION('Vector Direction',(0.,-1.,0.)) ;
#364=DIRECTION('Vector Direction',(0.,0.,-1.)) ;
#376=DIRECTION('Axis2P3D Direction',(0.,0.,-1.)) ;
#377=DIRECTION('Axis2P3D XDirection',(0.117613310384,0.993059469126,0.)) ;
#381=DIRECTION('Axis2P3D Direction',(0.,0.,-1.)) ;
#388=DIRECTION('Axis2P3D Direction',(0.,0.,-1.)) ;
#395=DIRECTION('Vector Direction',(0.,0.,-1.)) ;
#407=DIRECTION('Axis2P3D Direction',(1.,0.,0.)) ;
#408=DIRECTION('Axis2P3D XDirection',(0.,1.,0.)) ;
#412=DIRECTION('Vector Direction',(0.,0.,1.)) ;
#421=DIRECTION('Vector Direction',(0.,-1.,0.)) ;
#426=DIRECTION('Vector Direction',(0.,1.,0.)) ;
#438=DIRECTION('Axis2P3D Direction',(0.,0.,-1.)) ;
#439=DIRECTION('Axis2P3D XDirection',(0.,1.,0.)) ;
#443=DIRECTION('Axis2P3D Direction',(0.,0.,-1.)) ;
#450=DIRECTION('Axis2P3D Direction',(0.,0.,-1.)) ;
#464=DIRECTION('Axis2P3D Direction',(-0.,0.,1.)) ;
#465=DIRECTION('Axis2P3D XDirection',(0.,-1.,0.)) ;
#469=DIRECTION('Axis2P3D Direction',(-0.,0.,1.)) ;
#476=DIRECTION('Axis2P3D Direction',(-0.,0.,1.)) ;
#490=DIRECTION('Axis2P3D Direction',(0.,0.,1.)) ;
#491=DIRECTION('Axis2P3D XDirection',(0.143102461362,0.989707878898,-0.)) ;
#495=DIRECTION('Vector Direction',(0.,0.,1.)) ;
#513=DIRECTION('Axis2P3D Direction',(0.,0.,1.)) ;
#514=DIRECTION('Axis2P3D XDirection',(-0.117613310384,0.993059469126,0.)) ;
#527=DIRECTION('Axis2P3D Direction',(0.,0.,1.)) ;
#528=DIRECTION('Axis2P3D XDirection',(1.,0.,0.)) ;
#8=PRODUCT_RELATED_PRODUCT_CATEGORY('part',$,(#5)) ;
#7=PRODUCT_CATEGORY('part','specification') ;
#30=STYLED_ITEM(' ',(#29),#22) ;
#29=PRESENTATION_STYLE_ASSIGNMENT((#28)) ;
#28=SURFACE_STYLE_USAGE(.BOTH.,#27) ;
#27=SURFACE_SIDE_STYLE(' ',(#26)) ;
#26=SURFACE_STYLE_FILL_AREA(#25) ;
#25=FILL_AREA_STYLE(' ',(#24)) ;
#24=FILL_AREA_STYLE_COLOUR(' ',#23) ;
#39=VECTOR('Line Direction',#38,1.) ;
#48=VECTOR('Line Direction',#47,1.) ;
#55=VECTOR('Line Direction',#54,1.) ;
#79=VECTOR('Line Direction',#78,1.) ;
#86=VECTOR('Line Direction',#85,1.) ;
#93=VECTOR('Line Direction',#92,1.) ;
#110=VECTOR('Line Direction',#109,1.) ;
#117=VECTOR('Line Direction',#116,1.) ;
#124=VECTOR('Line Direction',#123,1.) ;
#141=VECTOR('Line Direction',#140,1.) ;
#163=VECTOR('Line Direction',#162,1.) ;
#172=VECTOR('Line Direction',#171,1.) ;
#179=VECTOR('Line Direction',#178,1.) ;
#186=VECTOR('Line Direction',#185,1.) ;
#209=VECTOR('Line Direction',#208,1.) ;
#216=VECTOR('Line Direction',#215,1.) ;
#223=VECTOR('Line Direction',#222,1.) ;
#240=VECTOR('Line Direction',#239,1.) ;
#247=VECTOR('Line Direction',#246,1.) ;
#254=VECTOR('Line Direction',#253,1.) ;
#271=VECTOR('Line Direction',#270,1.) ;
#288=VECTOR('Line Direction',#287,1.) ;
#305=VECTOR('Line Direction',#304,1.) ;
#314=VECTOR('Line Direction',#313,1.) ;
#321=VECTOR('Line Direction',#320,1.) ;
#328=VECTOR('Line Direction',#327,1.) ;
#351=VECTOR('Line Direction',#350,1.) ;
#358=VECTOR('Line Direction',#357,1.) ;
#365=VECTOR('Line Direction',#364,1.) ;
#396=VECTOR('Line Direction',#395,1.) ;
#413=VECTOR('Line Direction',#412,1.) ;
#422=VECTOR('Line Direction',#421,1.) ;
#427=VECTOR('Line Direction',#426,1.) ;
#496=VECTOR('Line Direction',#495,1.) ;
#16=UNCERTAINTY_MEASURE_WITH_UNIT(LENGTH_MEASURE(0.005),#12,'distance_accuracy_value','CONFUSED CURVE UNCERTAINTY') ;
#525=SHAPE_REPRESENTATION_RELATIONSHIP(' ',' ',#20,#524) ;
#66=ORIENTED_EDGE('',*,*,#45,.F.) ;
#67=ORIENTED_EDGE('',*,*,#52,.T.) ;
#68=ORIENTED_EDGE('',*,*,#59,.T.) ;
#69=ORIENTED_EDGE('',*,*,#64,.T.) ;
#97=ORIENTED_EDGE('',*,*,#83,.T.) ;
#98=ORIENTED_EDGE('',*,*,#59,.F.) ;
#99=ORIENTED_EDGE('',*,*,#90,.F.) ;
#100=ORIENTED_EDGE('',*,*,#95,.T.) ;
#128=ORIENTED_EDGE('',*,*,#114,.T.) ;
#129=ORIENTED_EDGE('',*,*,#121,.F.) ;
#130=ORIENTED_EDGE('',*,*,#126,.F.) ;
#131=ORIENTED_EDGE('',*,*,#45,.T.) ;
#150=ORIENTED_EDGE('',*,*,#95,.F.) ;
#151=ORIENTED_EDGE('',*,*,#143,.T.) ;
#152=ORIENTED_EDGE('',*,*,#121,.T.) ;
#153=ORIENTED_EDGE('',*,*,#148,.T.) ;
#190=ORIENTED_EDGE('',*,*,#169,.T.) ;
#191=ORIENTED_EDGE('',*,*,#176,.T.) ;
#192=ORIENTED_EDGE('',*,*,#183,.F.) ;
#193=ORIENTED_EDGE('',*,*,#188,.F.) ;
#196=ORIENTED_EDGE('',*,*,#143,.F.) ;
#197=ORIENTED_EDGE('',*,*,#90,.T.) ;
#198=ORIENTED_EDGE('',*,*,#52,.F.) ;
#199=ORIENTED_EDGE('',*,*,#126,.T.) ;
#227=ORIENTED_EDGE('',*,*,#213,.F.) ;
#228=ORIENTED_EDGE('',*,*,#220,.T.) ;
#229=ORIENTED_EDGE('',*,*,#225,.T.) ;
#230=ORIENTED_EDGE('',*,*,#176,.F.) ;
#258=ORIENTED_EDGE('',*,*,#188,.T.) ;
#259=ORIENTED_EDGE('',*,*,#244,.F.) ;
#260=ORIENTED_EDGE('',*,*,#251,.F.) ;
#261=ORIENTED_EDGE('',*,*,#256,.T.) ;
#275=ORIENTED_EDGE('',*,*,#273,.T.) ;
#276=ORIENTED_EDGE('',*,*,#213,.T.) ;
#277=ORIENTED_EDGE('',*,*,#169,.F.) ;
#278=ORIENTED_EDGE('',*,*,#256,.F.) ;
#292=ORIENTED_EDGE('',*,*,#244,.T.) ;
#293=ORIENTED_EDGE('',*,*,#183,.T.) ;
#294=ORIENTED_EDGE('',*,*,#225,.F.) ;
#295=ORIENTED_EDGE('',*,*,#290,.F.) ;
#332=ORIENTED_EDGE('',*,*,#311,.T.) ;
#333=ORIENTED_EDGE('',*,*,#318,.F.) ;
#334=ORIENTED_EDGE('',*,*,#325,.F.) ;
#335=ORIENTED_EDGE('',*,*,#330,.T.) ;
#338=ORIENTED_EDGE('',*,*,#290,.T.) ;
#339=ORIENTED_EDGE('',*,*,#220,.F.) ;
#340=ORIENTED_EDGE('',*,*,#273,.F.) ;
#341=ORIENTED_EDGE('',*,*,#251,.T.) ;
#369=ORIENTED_EDGE('',*,*,#355,.T.) ;
#370=ORIENTED_EDGE('',*,*,#318,.T.) ;
#371=ORIENTED_EDGE('',*,*,#362,.T.) ;
#372=ORIENTED_EDGE('',*,*,#367,.T.) ;
#400=ORIENTED_EDGE('',*,*,#386,.T.) ;
#401=ORIENTED_EDGE('',*,*,#367,.F.) ;
#402=ORIENTED_EDGE('',*,*,#393,.T.) ;
#403=ORIENTED_EDGE('',*,*,#398,.T.) ;
#431=ORIENTED_EDGE('',*,*,#419,.F.) ;
#432=ORIENTED_EDGE('',*,*,#424,.F.) ;
#433=ORIENTED_EDGE('',*,*,#330,.F.) ;
#434=ORIENTED_EDGE('',*,*,#429,.F.) ;
#455=ORIENTED_EDGE('',*,*,#448,.F.) ;
#456=ORIENTED_EDGE('',*,*,#429,.T.) ;
#457=ORIENTED_EDGE('',*,*,#325,.T.) ;
#458=ORIENTED_EDGE('',*,*,#355,.F.) ;
#459=ORIENTED_EDGE('',*,*,#386,.F.) ;
#460=ORIENTED_EDGE('',*,*,#453,.F.) ;
#481=ORIENTED_EDGE('',*,*,#474,.F.) ;
#482=ORIENTED_EDGE('',*,*,#479,.F.) ;
#483=ORIENTED_EDGE('',*,*,#393,.F.) ;
#484=ORIENTED_EDGE('',*,*,#362,.F.) ;
#485=ORIENTED_EDGE('',*,*,#311,.F.) ;
#486=ORIENTED_EDGE('',*,*,#424,.T.) ;
#500=ORIENTED_EDGE('',*,*,#453,.T.) ;
#501=ORIENTED_EDGE('',*,*,#398,.F.) ;
#502=ORIENTED_EDGE('',*,*,#479,.T.) ;
#503=ORIENTED_EDGE('',*,*,#498,.T.) ;
#506=ORIENTED_EDGE('',*,*,#64,.F.) ;
#507=ORIENTED_EDGE('',*,*,#83,.F.) ;
#508=ORIENTED_EDGE('',*,*,#148,.F.) ;
#509=ORIENTED_EDGE('',*,*,#114,.F.) ;
#518=ORIENTED_EDGE('',*,*,#448,.T.) ;
#519=ORIENTED_EDGE('',*,*,#498,.F.) ;
#520=ORIENTED_EDGE('',*,*,#474,.T.) ;
#521=ORIENTED_EDGE('',*,*,#419,.T.) ;
#200=FACE_BOUND('',#195,.T.) ;
#342=FACE_BOUND('',#337,.T.) ;
#510=FACE_BOUND('',#505,.T.) ;
#31=CLOSED_SHELL('Closed Shell',(#71,#102,#133,#155,#201,#232,#263,#280,#297,#343,#374,#405,#436,#462,#488,#511,#523)) ;
#524=ADVANCED_BREP_SHAPE_REPRESENTATION('NONE',(#22),#17) ;
#71=ADVANCED_FACE('Mostrina',(#70),#36,.T.) ;
#102=ADVANCED_FACE('Mostrina',(#101),#76,.F.) ;
#133=ADVANCED_FACE('Mostrina',(#132),#107,.F.) ;
#155=ADVANCED_FACE('Mostrina',(#154),#138,.T.) ;
#201=ADVANCED_FACE('Mostrina',(#194,#200),#160,.T.) ;
#232=ADVANCED_FACE('Mostrina',(#231),#206,.T.) ;
#263=ADVANCED_FACE('Mostrina',(#262),#237,.F.) ;
#280=ADVANCED_FACE('Mostrina',(#279),#268,.T.) ;
#297=ADVANCED_FACE('Mostrina',(#296),#285,.F.) ;
#343=ADVANCED_FACE('Mostrina',(#336,#342),#302,.T.) ;
#374=ADVANCED_FACE('Mostrina',(#373),#348,.T.) ;
#405=ADVANCED_FACE('Mostrina',(#404),#379,.T.) ;
#436=ADVANCED_FACE('Mostrina',(#435),#410,.F.) ;
#462=ADVANCED_FACE('Mostrina',(#461),#441,.F.) ;
#488=ADVANCED_FACE('Mostrina',(#487),#467,.F.) ;
#511=ADVANCED_FACE('Mostrina',(#504,#510),#493,.T.) ;
#523=ADVANCED_FACE('Mostrina',(#522),#516,.T.) ;
#4=APPLICATION_PROTOCOL_DEFINITION('international standard','automotive_design',2001,#1) ;
#22=MANIFOLD_SOLID_BREP('Mostrina',#31) ;
#63=CIRCLE('generated circle',#62,436.75) ;
#147=CIRCLE('generated circle',#146,436.75) ;
#383=CIRCLE('generated circle',#382,1.) ;
#390=CIRCLE('generated circle',#389,1.) ;
#445=CIRCLE('generated circle',#444,1.) ;
#452=CIRCLE('generated circle',#451,436.75) ;
#471=CIRCLE('generated circle',#470,1.) ;
#478=CIRCLE('generated circle',#477,436.75) ;
#23=COLOUR_RGB('Colour',0.341176470588,0.364705882353,0.36862745098) ;
#530=CONSTRUCTIVE_GEOMETRY_REPRESENTATION('supplemental geometry',(#529),#17) ;
#531=CONSTRUCTIVE_GEOMETRY_REPRESENTATION_RELATIONSHIP('supplemental geometry','',#20,#530) ;
#379=CYLINDRICAL_SURFACE('generated cylinder',#378,1.) ;
#493=CYLINDRICAL_SURFACE('generated cylinder',#492,436.75) ;
#516=CYLINDRICAL_SURFACE('generated cylinder',#515,1.) ;
#45=EDGE_CURVE('',#42,#44,#40,.T.) ;
#52=EDGE_CURVE('',#42,#51,#49,.T.) ;
#59=EDGE_CURVE('',#51,#58,#56,.T.) ;
#64=EDGE_CURVE('',#58,#44,#63,.T.) ;
#83=EDGE_CURVE('',#82,#58,#80,.T.) ;
#90=EDGE_CURVE('',#89,#51,#87,.T.) ;
#95=EDGE_CURVE('',#89,#82,#94,.T.) ;
#114=EDGE_CURVE('',#44,#113,#111,.T.) ;
#121=EDGE_CURVE('',#120,#113,#118,.T.) ;
#126=EDGE_CURVE('',#42,#120,#125,.T.) ;
#143=EDGE_CURVE('',#89,#120,#142,.T.) ;
#148=EDGE_CURVE('',#113,#82,#147,.T.) ;
#169=EDGE_CURVE('',#166,#168,#164,.T.) ;
#176=EDGE_CURVE('',#168,#175,#173,.T.) ;
#183=EDGE_CURVE('',#182,#175,#180,.T.) ;
#188=EDGE_CURVE('',#166,#182,#187,.T.) ;
#213=EDGE_CURVE('',#212,#168,#210,.T.) ;
#220=EDGE_CURVE('',#212,#219,#217,.T.) ;
#225=EDGE_CURVE('',#219,#175,#224,.T.) ;
#244=EDGE_CURVE('',#243,#182,#241,.T.) ;
#251=EDGE_CURVE('',#250,#243,#248,.T.) ;
#256=EDGE_CURVE('',#250,#166,#255,.T.) ;
#273=EDGE_CURVE('',#250,#212,#272,.T.) ;
#290=EDGE_CURVE('',#243,#219,#289,.T.) ;
#311=EDGE_CURVE('',#308,#310,#306,.T.) ;
#318=EDGE_CURVE('',#317,#310,#315,.T.) ;
#325=EDGE_CURVE('',#324,#317,#322,.T.) ;
#330=EDGE_CURVE('',#324,#308,#329,.F.) ;
#355=EDGE_CURVE('',#354,#317,#352,.F.) ;
#362=EDGE_CURVE('',#310,#361,#359,.F.) ;
#367=EDGE_CURVE('',#361,#354,#366,.F.) ;
#386=EDGE_CURVE('',#385,#354,#383,.T.) ;
#393=EDGE_CURVE('',#361,#392,#390,.F.) ;
#398=EDGE_CURVE('',#392,#385,#397,.F.) ;
#419=EDGE_CURVE('',#416,#418,#414,.T.) ;
#424=EDGE_CURVE('',#308,#416,#423,.F.) ;
#429=EDGE_CURVE('',#418,#324,#428,.F.) ;
#448=EDGE_CURVE('',#418,#447,#445,.T.) ;
#453=EDGE_CURVE('',#447,#385,#452,.T.) ;
#474=EDGE_CURVE('',#473,#416,#471,.T.) ;
#479=EDGE_CURVE('',#392,#473,#478,.T.) ;
#498=EDGE_CURVE('',#473,#447,#497,.T.) ;
#65=EDGE_LOOP('',(#66,#67,#68,#69)) ;
#96=EDGE_LOOP('',(#97,#98,#99,#100)) ;
#127=EDGE_LOOP('',(#128,#129,#130,#131)) ;
#149=EDGE_LOOP('',(#150,#151,#152,#153)) ;
#189=EDGE_LOOP('',(#190,#191,#192,#193)) ;
#195=EDGE_LOOP('',(#196,#197,#198,#199)) ;
#226=EDGE_LOOP('',(#227,#228,#229,#230)) ;
#257=EDGE_LOOP('',(#258,#259,#260,#261)) ;
#274=EDGE_LOOP('',(#275,#276,#277,#278)) ;
#291=EDGE_LOOP('',(#292,#293,#294,#295)) ;
#331=EDGE_LOOP('',(#332,#333,#334,#335)) ;
#337=EDGE_LOOP('',(#338,#339,#340,#341)) ;
#368=EDGE_LOOP('',(#369,#370,#371,#372)) ;
#399=EDGE_LOOP('',(#400,#401,#402,#403)) ;
#430=EDGE_LOOP('',(#431,#432,#433,#434)) ;
#454=EDGE_LOOP('',(#455,#456,#457,#458,#459,#460)) ;
#480=EDGE_LOOP('',(#481,#482,#483,#484,#485,#486)) ;
#499=EDGE_LOOP('',(#500,#501,#502,#503)) ;
#505=EDGE_LOOP('',(#506,#507,#508,#509)) ;
#517=EDGE_LOOP('',(#518,#519,#520,#521)) ;
#70=FACE_OUTER_BOUND('',#65,.T.) ;
#101=FACE_OUTER_BOUND('',#96,.T.) ;
#132=FACE_OUTER_BOUND('',#127,.T.) ;
#154=FACE_OUTER_BOUND('',#149,.T.) ;
#194=FACE_OUTER_BOUND('',#189,.T.) ;
#231=FACE_OUTER_BOUND('',#226,.T.) ;
#262=FACE_OUTER_BOUND('',#257,.T.) ;
#279=FACE_OUTER_BOUND('',#274,.T.) ;
#296=FACE_OUTER_BOUND('',#291,.T.) ;
#336=FACE_OUTER_BOUND('',#331,.T.) ;
#373=FACE_OUTER_BOUND('',#368,.T.) ;
#404=FACE_OUTER_BOUND('',#399,.T.) ;
#435=FACE_OUTER_BOUND('',#430,.T.) ;
#461=FACE_OUTER_BOUND('',#454,.T.) ;
#487=FACE_OUTER_BOUND('',#480,.T.) ;
#504=FACE_OUTER_BOUND('',#499,.T.) ;
#522=FACE_OUTER_BOUND('',#517,.T.) ;
#40=LINE('Line',#37,#39) ;
#49=LINE('Line',#46,#48) ;
#56=LINE('Line',#53,#55) ;
#80=LINE('Line',#77,#79) ;
#87=LINE('Line',#84,#86) ;
#94=LINE('Line',#91,#93) ;
#111=LINE('Line',#108,#110) ;
#118=LINE('Line',#115,#117) ;
#125=LINE('Line',#122,#124) ;
#142=LINE('Line',#139,#141) ;
#164=LINE('Line',#161,#163) ;
#173=LINE('Line',#170,#172) ;
#180=LINE('Line',#177,#179) ;
#187=LINE('Line',#184,#186) ;
#210=LINE('Line',#207,#209) ;
#217=LINE('Line',#214,#216) ;
#224=LINE('Line',#221,#223) ;
#241=LINE('Line',#238,#240) ;
#248=LINE('Line',#245,#247) ;
#255=LINE('Line',#252,#254) ;
#272=LINE('Line',#269,#271) ;
#289=LINE('Line',#286,#288) ;
#306=LINE('Line',#303,#305) ;
#315=LINE('Line',#312,#314) ;
#322=LINE('Line',#319,#321) ;
#329=LINE('Line',#326,#328) ;
#352=LINE('Line',#349,#351) ;
#359=LINE('Line',#356,#358) ;
#366=LINE('Line',#363,#365) ;
#397=LINE('Line',#394,#396) ;
#414=LINE('Line',#411,#413) ;
#423=LINE('Line',#420,#422) ;
#428=LINE('Line',#425,#427) ;
#497=LINE('Line',#494,#496) ;
#36=PLANE('',#35) ;
#76=PLANE('',#75) ;
#107=PLANE('',#106) ;
#138=PLANE('',#137) ;
#160=PLANE('',#159) ;
#206=PLANE('',#205) ;
#237=PLANE('',#236) ;
#268=PLANE('',#267) ;
#285=PLANE('',#284) ;
#302=PLANE('',#301) ;
#348=PLANE('',#347) ;
#410=PLANE('',#409) ;
#441=PLANE('',#440) ;
#467=PLANE('',#466) ;
#14=PLANE_ANGLE_MEASURE_WITH_UNIT(PLANE_ANGLE_MEASURE(0.0174532925199),#13) ;
#9=PRODUCT_CATEGORY_RELATIONSHIP(' ',' ',#7,#8) ;
#6=PRODUCT_DEFINITION_FORMATION_WITH_SPECIFIED_SOURCE('',' ',#5,.NOT_KNOWN.) ;
#21=SHAPE_DEFINITION_REPRESENTATION(#11,#20) ;
#42=VERTEX_POINT('',#41) ;
#44=VERTEX_POINT('',#43) ;
#51=VERTEX_POINT('',#50) ;
#58=VERTEX_POINT('',#57) ;
#82=VERTEX_POINT('',#81) ;
#89=VERTEX_POINT('',#88) ;
#113=VERTEX_POINT('',#112) ;
#120=VERTEX_POINT('',#119) ;
#166=VERTEX_POINT('',#165) ;
#168=VERTEX_POINT('',#167) ;
#175=VERTEX_POINT('',#174) ;
#182=VERTEX_POINT('',#181) ;
#212=VERTEX_POINT('',#211) ;
#219=VERTEX_POINT('',#218) ;
#243=VERTEX_POINT('',#242) ;
#250=VERTEX_POINT('',#249) ;
#308=VERTEX_POINT('',#307) ;
#310=VERTEX_POINT('',#309) ;
#317=VERTEX_POINT('',#316) ;
#324=VERTEX_POINT('',#323) ;
#354=VERTEX_POINT('',#353) ;
#361=VERTEX_POINT('',#360) ;
#385=VERTEX_POINT('',#384) ;
#392=VERTEX_POINT('',#391) ;
#416=VERTEX_POINT('',#415) ;
#418=VERTEX_POINT('',#417) ;
#447=VERTEX_POINT('',#446) ;
#473=VERTEX_POINT('',#472) ;
#12=(LENGTH_UNIT()NAMED_UNIT(*)SI_UNIT(.MILLI.,.METRE.)) ;
#13=(NAMED_UNIT(*)PLANE_ANGLE_UNIT()SI_UNIT($,.RADIAN.)) ;
#15=(NAMED_UNIT(*)SI_UNIT($,.STERADIAN.)SOLID_ANGLE_UNIT()) ;
#17=(GEOMETRIC_REPRESENTATION_CONTEXT(3)GLOBAL_UNCERTAINTY_ASSIGNED_CONTEXT((#16))GLOBAL_UNIT_ASSIGNED_CONTEXT((#12,#13,#15))REPRESENTATION_CONTEXT(' ',' ')) ;
ENDSEC;
END-ISO-10303-21;
