  0
SECTION
  2
HEADER
  9
$ACADVER
  1
AC1009
  9
$INSBASE
 10
0.0
 20
0.0
 30
0.0
  9
$EXTMIN
 10
-272.5283294464142
 20
329.19295519685028
 30
0.0
  9
$EXTMAX
 10
1032.9431
 20
796.91885200000002
 30
0.0
  9
$LIMMIN
 10
0.0
 20
0.0
  9
$LIMMAX
 10
420.0
 20
297.0
  9
$ORTHOMODE
 70
     0
  9
$REGENMODE
 70
     1
  9
$FILLMODE
 70
     1
  9
$QTEXTMODE
 70
     0
  9
$MIRRTEXT
 70
     1
  9
$DRAGMODE
 70
     2
  9
$LTSCALE
 40
1.0
  9
$OSMODE
 70
    47
  9
$ATTMODE
 70
     1
  9
$TEXTSIZE
 40
0.0
  9
$TRACEWID
 40
1.0
  9
$TEXTSTYLE
  7
STANDARD
  9
$CLAYER
  8
0
  9
$CELTYPE
  6
BYLAYER
  9
$CECOLOR
 62
   256
  9
$DIMSCALE
 40
1.0
  9
$DIMASZ
 40
2.5
  9
$DIMEXO
 40
0.625
  9
$DIMDLI
 40
3.75
  9
$DIMRND
 40
0.0
  9
$DIMDLE
 40
0.0
  9
$DIMEXE
 40
1.25
  9
$DIMTP
 40
0.0
  9
$DIMTM
 40
0.0
  9
$DIMTXT
 40
2.5
  9
$DIMCEN
 40
2.5
  9
$DIMTSZ
 40
0.0
  9
$DIMTOL
 70
     0
  9
$DIMLIM
 70
     0
  9
$DIMTIH
 70
     0
  9
$DIMTOH
 70
     0
  9
$DIMSE1
 70
     0
  9
$DIMSE2
 70
     0
  9
$DIMTAD
 70
     1
  9
$DIMZIN
 70
     8
  9
$DIMBLK
  1

  9
$DIMASO
 70
     1
  9
$DIMSHO
 70
     1
  9
$DIMPOST
  1

  9
$DIMAPOST
  1

  9
$DIMALT
 70
     0
  9
$DIMALTD
 70
     3
  9
$DIMALTF
 40
0.03937
  9
$DIMLFAC
 40
1.0
  9
$DIMTOFL
 70
     1
  9
$DIMTVP
 40
0.0
  9
$DIMTIX
 70
     0
  9
$DIMSOXD
 70
     0
  9
$DIMSAH
 70
     0
  9
$DIMBLK1
  1

  9
$DIMBLK2
  1

  9
$DIMSTYLE
  2
STANDARD
  9
$DIMCLRD
 70
     0
  9
$DIMCLRE
 70
     0
  9
$DIMCLRT
 70
     0
  9
$DIMTFAC
 40
1.0
  9
$DIMGAP
 40
0.625
  9
$LUNITS
 70
     2
  9
$LUPREC
 70
     4
  9
$SKETCHINC
 40
1.0
  9
$FILLETRAD
 40
2.5
  9
$AUNITS
 70
     0
  9
$AUPREC
 70
     0
  9
$MENU
  1
.
  9
$ELEVATION
 40
0.0
  9
$PELEVATION
 40
0.0
  9
$THICKNESS
 40
0.0
  9
$LIMCHECK
 70
     0
  9
$BLIPMODE
 70
     0
  9
$CHAMFERA
 40
2.5
  9
$CHAMFERB
 40
2.5
  9
$SKPOLY
 70
     0
  9
$TDCREATE
 40
2311942.6598650231
  9
$TDUPDATE
 40
2454455.384277117
  9
$TDINDWG
 40
0.0005862384
  9
$TDUSRTIMER
 40
0.0005860648
  9
$USRTIMER
 70
     1
  9
$ANGBASE
 50
0.0
  9
$ANGDIR
 70
     0
  9
$PDMODE
 70
     0
  9
$PDSIZE
 40
0.0
  9
$PLINEWID
 40
0.0
  9
$COORDS
 70
     1
  9
$SPLFRAME
 70
     0
  9
$SPLINETYPE
 70
     6
  9
$SPLINESEGS
 70
     8
  9
$ATTDIA
 70
     0
  9
$ATTREQ
 70
     1
  9
$HANDLING
 70
 22529
  9
$HANDSEED
  5
B01
  9
$SURFTAB1
 70
     6
  9
$SURFTAB2
 70
     6
  9
$SURFTYPE
 70
     6
  9
$SURFU
 70
     6
  9
$SURFV
 70
     6
  9
$UCSNAME
  2

  9
$UCSORG
 10
0.0
 20
0.0
 30
0.0
  9
$UCSXDIR
 10
1.0
 20
0.0
 30
0.0
  9
$UCSYDIR
 10
0.0
 20
1.0
 30
0.0
  9
$PUCSNAME
  2

  9
$PUCSORG
 10
0.0
 20
0.0
 30
0.0
  9
$PUCSXDIR
 10
1.0
 20
0.0
 30
0.0
  9
$PUCSYDIR
 10
0.0
 20
1.0
 30
0.0
  9
$USERI1
 70
     0
  9
$USERI2
 70
     0
  9
$USERI3
 70
     0
  9
$USERI4
 70
     0
  9
$USERI5
 70
     0
  9
$USERR1
 40
0.0
  9
$USERR2
 40
0.0
  9
$USERR3
 40
0.0
  9
$USERR4
 40
0.0
  9
$USERR5
 40
0.0
  9
$WORLDVIEW
 70
     1
  9
$SHADEDGE
 70
     3
  9
$SHADEDIF
 70
    70
  9
$TILEMODE
 70
     1
  9
$MAXACTVP
 70
    48
  9
$PLIMCHECK
 70
     0
  9
$PEXTMIN
 10
0.0
 20
0.0
 30
0.0
  9
$PEXTMAX
 10
308.03411899999992
 20
200.0
 30
2.0
  9
$PLIMMIN
 10
0.0
 20
0.0
  9
$PLIMMAX
 10
420.0
 20
297.0
  9
$UNITMODE
 70
     0
  9
$VISRETAIN
 70
     0
  9
$PLINEGEN
 70
     0
  9
$PSLTSCALE
 70
     1
  0
ENDSEC
  0
SECTION
  2
TABLES
  0
TABLE
  2
VPORT
 70
     2
  0
VPORT
  2
*ACTIVE
 70
     0
 10
0.0
 20
0.0
 11
1.0
 21
1.0
 12
380.20738527679282
 22
563.05590359842506
 13
0.0
 23
0.0
 14
1.0
 24
1.0
 15
0.0
 25
0.0
 16
0.0
 26
0.0
 36
1.0
 17
0.0
 27
0.0
 37
0.0
 40
846.13189903872922
 41
1.550724637681159
 42
50.0
 43
0.0
 44
0.0
 50
0.0
 51
0.0
 71
     0
 72
   100
 73
     1
 74
     1
 75
     0
 76
     0
 77
     0
 78
     0
  0
ENDTAB
  0
TABLE
  2
LTYPE
 70
     8
  0
LTYPE
  2
CONTINUOUS
 70
     0
  3
Solid line
 72
    65
 73
     0
 40
0.0
  0
LTYPE
  2
DASHED
 70
     0
  3
__ __ __ __ __ __ __ __ __ __ __ __ __ __ __ __
 72
    65
 73
     2
 40
15.0
 49
12.0
 49
-3.0
  0
LTYPE
  2
DASHDOT
 70
     0
  3
 __ . __ . __ . __ . __ . __ . __ . 
 72
    65
 73
     4
 40
18.5
 49
12.0
 49
-3.0
 49
0.5
 49
-3.0
  0
LTYPE
  2
DOT
 70
     0
  3
 . . . . . . . . . . . . . . . .
 72
    65
 73
     2
 40
3.5
 49
0.5
 49
-3.0
  0
LTYPE
  2
DASHSPACE
 70
     0
  3
__    __    __    __    __   
 72
    65
 73
     2
 40
30.0
 49
12.0
 49
-18.0
  0
LTYPE
  2
DASHDOT2
 70
     0
  3
__ . . __ . . __ . . __ 
 72
    65
 73
     6
 40
22.0
 49
12.0
 49
-3.0
 49
0.5
 49
-3.0
 49
0.5
 49
-3.0
  0
LTYPE
  2
PHANTOM
 70
     0
  3
____________    ____    ____   _
 72
    65
 73
     6
 40
20.0
 49
10.0
 49
-2.0
 49
2.0
 49
-2.0
 49
2.0
 49
-2.0
  0
LTYPE
  2
AXES
 70
     0
  3
________  __  ________  __  _____
 72
    65
 73
     4
 40
24.0
 49
15.0
 49
-3.0
 49
3.0
 49
-3.0
  0
ENDTAB
  0
TABLE
  2
LAYER
 70
     1
  0
LAYER
  2
0
 70
     0
 62
     7
  6
CONTINUOUS
  0
ENDTAB
  0
TABLE
  2
STYLE
 70
     2
  0
STYLE
  2
STANDARD
 70
     0
 40
0.0
 41
1.0
 50
0.0
 71
     0
 42
0.0
  3
isocp.shx
  4

  0
STYLE
  2
GDT
 70
     0
 40
0.0
 41
1.0
 50
0.0
 71
     0
 42
0.0
  3
amgdt.shx
  4

  0
ENDTAB
  0
TABLE
  2
VIEW
 70
     0
  0
ENDTAB
  0
TABLE
  2
UCS
 70
     0
  0
ENDTAB
  0
TABLE
  2
APPID
 70
     1
  0
APPID
  2
ACAD
 70
     0
  0
ENDTAB
  0
TABLE
  2
DIMSTYLE
 70
     1
  0
DIMSTYLE
  2
STANDARD
 70
     0
  3

  4

  5

  6

  7

 40
1.0
 41
2.5
 42
0.625
 43
3.75
 44
1.25
 45
0.0
 46
0.0
 47
0.0
 48
0.0
140
2.5
141
2.5
142
0.0
143
0.03937
144
1.0
145
0.0
146
1.0
147
0.625
 71
     0
 72
     0
 73
     0
 74
     0
 75
     0
 76
     0
 77
     1
 78
     8
170
     0
171
     3
172
     1
173
     0
174
     0
175
     0
176
     0
177
     0
178
     0
  0
ENDTAB
  0
ENDSEC
  0
SECTION
  2
BLOCKS
  0
BLOCK
  8
0
  2
$MODEL_SPACE
 70
     0
 10
0.0
 20
0.0
 30
0.0
  3
$MODEL_SPACE
  1

  0
ENDBLK
  5
E
  8
0
  0
BLOCK
 67
     1
  8
0
  2
$PAPER_SPACE
 70
     0
 10
0.0
 20
0.0
 30
0.0
  3
$PAPER_SPACE
  1

  0
ENDBLK
  5
10
 67
     1
  8
0
  0
BLOCK
  8
0
  2
BLOCK0
 70
     0
 10
0.0
 20
0.0
 30
0.0
  3
BLOCK0
  1

  0
TEXT
  5
686
  8
0
 62
     1
 10
-563.0
 20
-44.0
 30
0.0
 40
3.0
  1
Ts3
 50
180.0
 41
1.225762527177944
 72
     5
 11
-570.69995099999994
 21
-44.0
 31
0.0
  0
ENDBLK
  5
687
  8
0
  0
BLOCK
  8
0
  2
BLOCK1
 70
     0
 10
0.0
 20
0.0
 30
0.0
  3
BLOCK1
  1

  0
TEXT
  5
689
  8
0
 62
     1
 10
-483.30425999999989
 20
-43.000003999999997
 30
0.0
 40
2.0
  1
N0204 2007-09-17
 50
179.9999903280877
 41
1.1017693073406409
 72
     5
 11
-507.0
 21
-43.0
 31
0.0
  0
ENDBLK
  5
68A
  8
0
  0
BLOCK
  8
0
  2
BLOCK2
 70
     0
 10
0.0
 20
0.0
 30
0.0
  3
BLOCK2
  1

  0
TEXT
  5
68C
  8
0
 62
     1
 10
-535.0
 20
-33.0
 30
0.0
 40
4.0
  1
1SDH000637R0.104
 50
180.0
 41
1.3782050465116269
 72
     5
 11
-594.26281700000004
 21
-33.0
 31
0.0
  0
ENDBLK
  5
68D
  8
0
  0
BLOCK
  8
0
  2
BLOCK3
 70
     0
 10
0.0
 20
0.0
 30
0.0
  3
BLOCK3
  1

  0
TEXT
  5
68F
  8
0
 62
     1
 10
-542.0
 20
-61.0
 30
0.0
 40
2.0
  1
INTERR.AUTOMATICO SERIE ISOMAX
 50
179.99999487194501
 41
1.0769160722891591
 72
     5
 11
-586.69201699999985
 21
-60.999996000000003
 31
0.0
  0
ENDBLK
  5
690
  8
0
  0
BLOCK
  8
0
  2
BLOCK4
 70
     0
 10
0.0
 20
0.0
 30
0.0
  3
BLOCK4
  1

  0
TEXT
  5
692
  8
0
 62
     1
 10
-528.0
 20
-55.0
 30
0.0
 40
2.0
  1
TETRAP.ESECUZIONE FISSA TERMINALI ANT.E ANT.PROL.
 50
179.99999373704441
 41
1.1072146747352589
 72
     5
 11
-601.18688999999995
 21
-54.999992000000013
 31
0.0
  0
ENDBLK
  5
693
  8
0
  0
BLOCK
  8
0
  2
BLOCK5
 70
     0
 10
0.0
 20
0.0
 30
0.0
  3
BLOCK5
  1

  0
TEXT
  5
695
  8
0
 62
     1
 10
-533.0
 20
-74.0
 30
0.0
 40
2.0
  1
4POLE LOW VOLTAGE M.C.C.B SERIES ISOMAX
 50
179.9999921228804
 41
1.095848870056507
 72
     5
 11
-591.18957499999999
 21
-73.999992000000006
 31
0.0
  0
ENDBLK
  5
696
  8
0
  0
BLOCK
  8
0
  2
BLOCK6
 70
     0
 10
0.0
 20
0.0
 30
0.0
  3
BLOCK6
  1

  0
TEXT
  5
698
  8
0
 62
     1
 10
-530.0
 20
-69.0
 30
0.0
 40
2.0
  1
FIXED VERSION FRONT+EXTENDED FRONT TERMINALS
 50
179.99999302209511
 41
1.046337303084435
 72
     5
 11
-595.68823199999997
 21
-68.999992000000006
 31
0.0
  0
ENDBLK
  5
699
  8
0
  0
BLOCK
  8
0
  2
BLOCK7
 70
     0
 10
0.0
 20
0.0
 30
0.0
  3
BLOCK7
  1

  0
TEXT
  5
69B
  8
0
 62
     7
 10
-119.0
 20
-8.0
 30
0.0
 40
3.0
  1
X
 50
180.0
 41
0.9777764444444425
 72
     5
 11
-121.1999969999999
 21
-8.0
 31
0.0
  0
ENDBLK
  5
69C
  8
0
  0
BLOCK
  8
0
  2
BLOCK8
 70
     0
 10
0.0
 20
0.0
 30
0.0
  3
BLOCK8
  1

  0
TEXT
  5
69E
  8
0
 62
     7
 10
193.0
 20
-6.0
 30
0.0
 40
3.0
  1
X
 50
180.0
 41
0.9777764444444425
 72
     5
 11
190.800003
 21
-6.0
 31
0.0
  0
ENDBLK
  5
69F
  8
0
  0
BLOCK
  8
0
  2
BLOCK9
 70
     0
 10
0.0
 20
0.0
 30
0.0
  3
BLOCK9
  1

  0
TEXT
  5
6A1
  8
0
 62
     7
 10
2.0
 20
-148.0
 30
0.0
 40
3.0
  1
Y
 50
180.0
 41
0.9777777777777778
 72
     5
 11
-0.2
 21
-148.0
 31
0.0
  0
ENDBLK
  5
6A2
  8
0
  0
BLOCK
  8
0
  2
BLOCK10
 70
     0
 10
0.0
 20
0.0
 30
0.0
  3
BLOCK10
  1

  0
TEXT
  5
6A4
  8
0
 62
     7
 10
0.0
 20
157.0
 30
0.0
 40
3.0
  1
Y
 50
180.0
 41
0.9777777777777778
 72
     5
 11
-2.2000000000000002
 21
157.0
 31
0.0
  0
ENDBLK
  5
6A5
  8
0
  0
BLOCK
  8
0
  2
BLOCK11
 70
     0
 10
0.0
 20
0.0
 30
0.0
  3
BLOCK11
  1

  0
TEXT
  5
6A7
  8
0
 62
     7
 10
-12.0
 20
135.0601199999999
 30
0.0
 40
3.0
  1
52,5
 50
180.0
 41
1.4876960629295159
 72
     5
 11
-22.44997
 21
135.0601199999999
 31
0.0
  0
ENDBLK
  5
6A8
  8
0
  0
BLOCK
  8
0
  2
BLOCK12
 70
     0
 10
0.0
 20
0.0
 30
0.0
  3
BLOCK12
  1

  0
TEXT
  5
6AA
  8
0
 62
     7
 10
-29.5
 20
-137.22454799999991
 30
0.0
 40
3.0
  1
17,5
 50
180.0
 41
1.626640793129045
 72
     5
 11
-39.94997
 21
-137.22454799999991
 31
0.0
  0
ENDBLK
  5
6AB
  8
0
  0
BLOCK
  8
0
  2
BLOCK13
 70
     0
 10
0.0
 20
0.0
 30
0.0
  3
BLOCK13
  1

  0
TEXT
  5
6AD
  8
0
 62
     5
 10
-87.508789000000007
 20
-11.495056
 30
0.0
 40
3.0
  1
71,75
 50
270.0000347248174
 41
1.548516199592233
 72
     5
 11
-87.508780999999985
 21
-24.695017
 31
0.0
  0
ENDBLK
  5
6AE
  8
0
  0
BLOCK
  8
0
  2
BLOCK14
 70
     0
 10
0.0
 20
0.0
 30
0.0
  3
BLOCK14
  1

  0
TEXT
  5
6B0
  8
0
 62
     5
 10
137.58520499999989
 20
14.25
 30
0.0
 40
3.0
  1
139
 50
270.0
 41
1.40901909761257
 72
     5
 11
137.58520499999989
 21
6.5500199999999991
 31
0.0
  0
ENDBLK
  5
6B1
  8
0
  0
BLOCK
  8
0
  2
BLOCK15
 70
     0
 10
0.0
 20
0.0
 30
0.0
  3
BLOCK15
  1

  0
TEXT
  5
6B3
  8
0
 62
     5
 10
-67.003174000000001
 20
58.306888999999998
 30
0.0
 40
3.0
  1
 5,5
 50
185.6797381297088
 41
1.706322365814638
 72
     5
 11
-77.401840000000007
 21
57.272677999999999
 31
0.0
  0
ENDBLK
  5
6B4
  8
0
  0
BLOCK
  8
0
  2
BLOCK16
 70
     0
 10
0.0
 20
0.0
 30
0.0
  3
BLOCK16
  1

  0
TEXT
  5
6B6
  8
0
 62
     5
 10
-65.411140000000003
 20
58.465243999999991
 30
0.0
 40
3.0
  1
%%c
 50
185.679672242078
 41
0.9777788326593269
 72
     5
 11
-67.600341999999983
 21
58.247517000000002
 31
0.0
  0
ENDBLK
  5
6B7
  8
0
  0
BLOCK
  8
0
  2
BLOCK17
 70
     0
 10
0.0
 20
0.0
 30
0.0
  3
BLOCK17
  1

  0
TEXT
  5
6B9
  8
0
 62
     5
 10
-110.787361
 20
53.952300999999999
 30
0.0
 40
3.0
  1
 - M5
 50
185.67973128221669
 41
1.4708680523999531
 72
     5
 11
-123.9225159999999
 21
52.645930999999997
 31
0.0
  0
ENDBLK
  5
6BA
  8
0
  0
BLOCK
  8
0
  2
BLOCK18
 70
     0
 10
0.0
 20
0.0
 30
0.0
  3
BLOCK18
  1

  0
LINE
  5
6BC
  8
0
 62
     3
 10
30.737057
 20
-173.338257
 30
0.0
 11
189.23706100000001
 21
-173.338257
 31
0.0
  0
LINE
  5
6BD
  8
0
 62
     3
 10
29.487057
 20
-57.588248999999998
 30
0.0
 11
29.487057
 21
-172.088257
 31
0.0
  0
LINE
  5
6BE
  8
0
 62
     3
 10
30.737057
 20
-56.338248999999998
 30
0.0
 11
189.23706100000001
 21
-56.338248999999998
 31
0.0
  0
LINE
  5
6BF
  8
0
 62
     3
 10
190.48706100000001
 20
-57.588248999999998
 30
0.0
 11
190.48706100000001
 21
-172.088257
 31
0.0
  0
LINE
  5
6C0
  8
0
 62
     3
 10
56.987056999999993
 20
-167.838257
 30
0.0
 11
162.98706100000001
 21
-167.838257
 31
0.0
  0
LINE
  5
6C1
  8
0
 62
     3
 10
56.987056999999993
 20
-61.838248999999998
 30
0.0
 11
56.987056999999993
 21
-167.838257
 31
0.0
  0
LINE
  5
6C2
  8
0
 62
     3
 10
56.987056999999993
 20
-61.838248999999998
 30
0.0
 11
162.98706100000001
 21
-61.838248999999998
 31
0.0
  0
LINE
  5
6C3
  8
0
 62
     3
 10
162.98706100000001
 20
-61.838248999999998
 30
0.0
 11
162.98706100000001
 21
-167.838257
 31
0.0
  0
LINE
  5
6C4
  8
0
 62
     3
 10
48.487057
 20
-168.83825699999991
 30
0.0
 11
49.487057
 21
-168.83825699999991
 31
0.0
  0
LINE
  5
6C5
  8
0
 62
     3
 10
50.487057
 20
-61.838248999999998
 30
0.0
 11
50.487057
 21
-167.838257
 31
0.0
  0
LINE
  5
6C6
  8
0
 62
     3
 10
48.487057
 20
-60.83824899999999
 30
0.0
 11
49.487057
 21
-60.83824899999999
 31
0.0
  0
LINE
  5
6C7
  8
0
 62
     3
 10
49.487057
 20
-61.838248999999998
 30
0.0
 11
49.487057
 21
-167.838257
 31
0.0
  0
LINE
  5
6C8
  8
0
 62
     3
 10
29.487057
 20
-60.83824899999999
 30
0.0
 11
48.487057
 21
-60.83824899999999
 31
0.0
  0
LINE
  5
6C9
  8
0
 62
     3
 10
49.487053000000003
 20
-60.83824899999999
 30
0.0
 11
190.48706100000001
 21
-60.83824899999999
 31
0.0
  0
LINE
  5
6CA
  8
0
 62
     3
 10
29.487057
 20
-61.838248999999998
 30
0.0
 11
49.487057
 21
-61.838248999999998
 31
0.0
  0
LINE
  5
6CB
  8
0
 62
     3
 10
162.98706100000001
 20
-61.838248999999998
 30
0.0
 11
169.48706100000001
 21
-61.838248999999998
 31
0.0
  0
LINE
  5
6CC
  8
0
 62
     3
 10
50.487057
 20
-61.838248999999998
 30
0.0
 11
56.987056999999993
 21
-61.838248999999998
 31
0.0
  0
LINE
  5
6CD
  8
0
 62
     3
 10
29.487057
 20
-168.83825699999991
 30
0.0
 11
48.487057
 21
-168.83825699999991
 31
0.0
  0
LINE
  5
6CE
  8
0
 62
     3
 10
49.487057
 20
-168.83825699999991
 30
0.0
 11
190.48706100000001
 21
-168.83825699999991
 31
0.0
  0
LINE
  5
6CF
  8
0
 62
     3
 10
50.487057
 20
-167.838257
 30
0.0
 11
56.987056999999993
 21
-167.838257
 31
0.0
  0
LINE
  5
6D0
  8
0
 62
     3
 10
162.98706100000001
 20
-167.838257
 30
0.0
 11
169.48706100000001
 21
-167.838257
 31
0.0
  0
LINE
  5
6D1
  8
0
 62
     3
 10
29.487057
 20
-167.838257
 30
0.0
 11
49.487057
 21
-167.838257
 31
0.0
  0
LINE
  5
6D2
  8
0
 62
     3
 10
170.48706100000001
 20
-60.83824899999999
 30
0.0
 11
170.48706100000001
 21
-168.83825699999991
 31
0.0
  0
LINE
  5
6D3
  8
0
 62
     3
 10
169.48706100000001
 20
-61.838248999999998
 30
0.0
 11
169.48706100000001
 21
-167.838257
 31
0.0
  0
ARC
  5
6D4
  8
0
 62
     3
 10
30.737057
 20
-57.588248999999998
 30
0.0
 40
1.25
 50
90.000005000000002
 51
180.00000099999991
  0
ARC
  5
6D5
  8
0
 62
     3
 10
30.737057
 20
-172.088257
 30
0.0
 40
1.25
 50
180.00000099999991
 51
270.0
  0
ARC
  5
6D6
  8
0
 62
     3
 10
189.23706100000001
 20
-172.088257
 30
0.0
 40
1.25
 50
270.0
 51
0.000003
  0
ARC
  5
6D7
  8
0
 62
     3
 10
189.23706100000001
 20
-57.588248999999998
 30
0.0
 40
1.25
 50
0.000003
 51
90.000005000000002
  0
LINE
  5
6D8
  8
0
  6
DASHSPACE
 62
     3
 10
179.73706100000001
 20
-60.33824899999999
 30
0.0
 11
179.73706100000001
 21
-60.83824899999999
 31
0.0
  0
LINE
  5
6D9
  8
0
  6
DASHSPACE
 62
     3
 10
181.23706100000001
 20
-60.33824899999999
 30
0.0
 11
181.23706100000001
 21
-60.83824899999999
 31
0.0
  0
LINE
  5
6DA
  8
0
 62
     3
 10
179.73706100000001
 20
-168.338257
 30
0.0
 11
179.73706100000001
 21
-168.83825699999991
 31
0.0
  0
LINE
  5
6DB
  8
0
 62
     3
 10
181.23706100000001
 20
-168.338257
 30
0.0
 11
181.23706100000001
 21
-168.83825699999991
 31
0.0
  0
ARC
  5
6DC
  8
0
  6
DASHSPACE
 62
     3
 10
180.48706100000001
 20
-60.33824899999999
 30
0.0
 40
0.75
 50
0.000003
 51
180.00000099999991
  0
ARC
  5
6DD
  8
0
 62
     3
 10
180.48706100000001
 20
-61.338248999999998
 30
0.0
 40
0.75
 50
180.00000099999991
 51
0.000003
  0
LINE
  5
6DE
  8
0
 62
     3
 10
181.23706100000001
 20
-60.83824899999999
 30
0.0
 11
181.23706100000001
 21
-61.338248999999998
 31
0.0
  0
LINE
  5
6DF
  8
0
 62
     3
 10
179.73706100000001
 20
-60.83824899999999
 30
0.0
 11
179.73706100000001
 21
-61.338248999999998
 31
0.0
  0
ARC
  5
6E0
  8
0
 62
     3
 10
180.48706100000001
 20
-168.338257
 30
0.0
 40
0.75
 50
0.000003
 51
180.00000099999991
  0
ARC
  5
6E1
  8
0
  6
DASHSPACE
 62
     3
 10
180.48706100000001
 20
-169.33825699999991
 30
0.0
 40
0.75
 50
180.00000099999991
 51
0.000003
  0
LINE
  5
6E2
  8
0
  6
DASHSPACE
 62
     3
 10
181.23706100000001
 20
-168.83825699999991
 30
0.0
 11
181.23706100000001
 21
-169.33825699999991
 31
0.0
  0
LINE
  5
6E3
  8
0
  6
DASHSPACE
 62
     3
 10
179.73706100000001
 20
-168.83825699999991
 30
0.0
 11
179.73706100000001
 21
-169.33825699999991
 31
0.0
  0
POINT
  5
6E4
  8
0
 62
     3
 10
109.987053
 20
-114.838249
 30
0.0
  0
ENDBLK
  5
6E5
  8
0
  0
BLOCK
  8
0
  2
BLOCK19
 70
     0
 10
0.0
 20
0.0
 30
0.0
  3
BLOCK19
  1

  0
TEXT
  5
6E7
  8
0
 62
     7
 10
291.98364299999997
 20
-114.698128
 30
0.0
 40
3.0
  1
Y
 50
270.0
 41
0.9777764444444427
 72
     5
 11
291.98364299999997
 21
-116.89812499999989
 31
0.0
  0
ENDBLK
  5
6E8
  8
0
  0
BLOCK
  8
0
  2
BLOCK20
 70
     0
 10
0.0
 20
0.0
 30
0.0
  3
BLOCK20
  1

  0
TEXT
  5
6EA
  8
0
 62
     7
 10
116.0
 20
7.0
 30
0.0
 40
3.0
  1
X
 50
270.0
 41
0.9777777777777776
 72
     5
 11
116.0
 21
4.7999999999999989
 31
0.0
  0
ENDBLK
  5
6EB
  8
0
  0
BLOCK
  8
0
  2
BLOCK21
 70
     0
 10
0.0
 20
0.0
 30
0.0
  3
BLOCK21
  1

  0
TEXT
  5
6ED
  8
0
 62
     7
 10
103.98703
 20
15.754882999999991
 30
0.0
 40
3.0
  1
170
 50
359.99997767691679
 41
1.4660036189192329
 72
     5
 11
111.687012
 21
15.754879999999989
 31
0.0
  0
ENDBLK
  5
6EE
  8
0
  0
BLOCK
  8
0
  2
BLOCK22
 70
     0
 10
0.0
 20
0.0
 30
0.0
  3
BLOCK22
  1

  0
TEXT
  5
6F0
  8
0
 62
     7
 10
-36.130790999999988
 20
-89.088256999999984
 30
0.0
 40
3.0
  1
140
 50
269.99997023588912
 41
1.3867938934980251
 72
     5
 11
-36.130794999999992
 21
-96.788239000000004
 31
0.0
  0
ENDBLK
  5
6F1
  8
0
  0
BLOCK
  8
0
  2
BLOCK23
 70
     0
 10
0.0
 20
0.0
 30
0.0
  3
BLOCK23
  1

  0
TEXT
  5
6F3
  8
0
 62
     7
 10
-4.5487060000000001
 20
-130.08825699999991
 30
0.0
 40
3.0
  1
52,5
 50
269.99997258566219
 41
1.4876954934750111
 72
     5
 11
-4.5487109999999991
 21
-140.5382229999999
 31
0.0
  0
ENDBLK
  5
6F4
  8
0
  0
BLOCK
  8
0
  2
BLOCK24
 70
     0
 10
0.0
 20
0.0
 30
0.0
  3
BLOCK24
  1

  0
TEXT
  5
6F6
  8
0
 62
     7
 10
8.0841180000000001
 20
-126.838257
 30
0.0
 40
3.0
  1
35
 50
269.99997685017598
 41
1.2776612311938
 72
     5
 11
8.0841159999999999
 21
-131.78825399999999
 31
0.0
  0
ENDBLK
  5
6F7
  8
0
  0
BLOCK
  8
0
  2
BLOCK25
 70
     0
 10
0.0
 20
0.0
 30
0.0
  3
BLOCK25
  1

  0
TEXT
  5
6F9
  8
0
 62
     7
 10
8.084128999999999
 20
-91.838256999999984
 30
0.0
 40
3.0
  1
35
 50
269.99997685013858
 41
1.2776591662855139
 72
     5
 11
8.0841270000000005
 21
-96.788246000000001
 31
0.0
  0
ENDBLK
  5
6FA
  8
0
  0
BLOCK
  8
0
  2
BLOCK26
 70
     0
 10
0.0
 20
0.0
 30
0.0
  3
BLOCK26
  1

  0
TEXT
  5
6FC
  8
0
 62
     7
 10
8.0841410000000007
 20
-56.838256999999992
 30
0.0
 40
3.0
  1
35
 50
269.99997685013858
 41
1.2776591662855139
 72
     5
 11
8.0841390000000004
 21
-61.788245999999987
 31
0.0
  0
ENDBLK
  5
6FD
  8
0
  0
BLOCK
  8
0
  2
BLOCK27
 70
     0
 10
0.0
 20
0.0
 30
0.0
  3
BLOCK27
  1

  0
TEXT
  5
6FF
  8
0
 62
     7
 10
-19.125060999999992
 20
-106.588257
 30
0.0
 40
3.0
  1
105
 50
270.00001488205538
 41
1.432750959304038
 72
     5
 11
-19.125059
 21
-114.288239
 31
0.0
  0
ENDBLK
  5
700
  8
0
  0
BLOCK
  8
0
  2
BLOCK28
 70
     0
 10
0.0
 20
0.0
 30
0.0
  3
BLOCK28
  1

  0
TEXT
  5
702
  8
0
 62
     5
 10
139.86206100000001
 20
-2.6002200000000002
 30
0.0
 40
3.0
  1
87,25
 50
359.99998263759778
 41
1.4466882918551951
 72
     5
 11
153.062027
 21
-2.6002239999999999
 31
0.0
  0
ENDBLK
  5
703
  8
0
  0
BLOCK
  8
0
  2
BLOCK29
 70
     0
 10
0.0
 20
0.0
 30
0.0
  3
BLOCK29
  1

  0
TEXT
  5
705
  8
0
 62
     7
 10
112.0
 20
-237.0
 30
0.0
 40
3.0
  1
X
 50
270.0
 41
0.9777764444444551
 72
     5
 11
112.0
 21
-239.199997
 31
0.0
  0
ENDBLK
  5
706
  8
0
  0
BLOCK
  8
0
  2
BLOCK30
 70
     0
 10
0.0
 20
0.0
 30
0.0
  3
BLOCK30
  1

  0
TEXT
  5
708
  8
0
 62
     7
 10
103.98704499999999
 20
-220.62866199999999
 30
0.0
 40
3.0
  1
175
 41
1.432750959303994
 72
     5
 11
111.6870269999999
 21
-220.62866199999999
 31
0.0
  0
ENDBLK
  5
709
  8
0
  0
BLOCK
  8
0
  2
BLOCK31
 70
     0
 10
0.0
 20
0.0
 30
0.0
  3
BLOCK31
  1

  0
TEXT
  5
70B
  8
0
 62
     7
 10
141.11206100000001
 20
-184.86535599999999
 30
0.0
 40
3.0
  1
89,75
 41
1.445028079378321
 72
     5
 11
154.312027
 21
-184.86535599999999
 31
0.0
  0
ENDBLK
  5
70C
  8
0
  0
BLOCK
  8
0
  2
BLOCK32
 70
     0
 10
0.0
 20
0.0
 30
0.0
  3
BLOCK32
  1

  0
TEXT
  5
70E
  8
0
 62
     7
 10
241.4870609999999
 20
-220.08618199999989
 30
0.0
 40
3.0
  1
100
 41
1.466003428528597
 72
     5
 11
249.18704199999999
 21
-220.08618199999989
 31
0.0
  0
ENDBLK
  5
70F
  8
0
  0
BLOCK
  8
0
  2
BLOCK33
 70
     0
 10
0.0
 20
0.0
 30
0.0
  3
BLOCK33
  1

  0
TEXT
  5
711
  8
0
 62
     7
 10
245.19268799999989
 20
-39.883544999999991
 30
0.0
 40
3.0
  1
20
 50
270.0
 41
1.319166095897597
 72
     5
 11
245.19268799999989
 21
-44.833534
 31
0.0
  0
ENDBLK
  5
712
  8
0
  0
BLOCK
  8
0
  2
BLOCK34
 70
     0
 10
0.0
 20
0.0
 30
0.0
  3
BLOCK34
  1

  0
TEXT
  5
714
  8
0
 62
     7
 10
232.348816
 20
-0.7832020000000001
 30
0.0
 40
3.0
  1
 8,5
 50
254.71650076731291
 41
1.706322264798865
 72
     5
 11
229.59425399999989
 21
-10.86359
 31
0.0
  0
ENDBLK
  5
715
  8
0
  0
BLOCK
  8
0
  2
BLOCK35
 70
     0
 10
0.0
 20
0.0
 30
0.0
  3
BLOCK35
  1

  0
TEXT
  5
717
  8
0
 62
     7
 10
232.5596919999999
 20
-0.011474
 30
0.0
 40
3.0
  1
%%c
 50
254.7164867844713
 41
0.9777776502372656
 72
     5
 11
231.97978199999989
 21
-2.1336669999999991
 31
0.0
  0
ENDBLK
  5
718
  8
0
  0
BLOCK
  8
0
  2
BLOCK36
 70
     0
 10
0.0
 20
0.0
 30
0.0
  3
BLOCK36
  1

  0
TEXT
  5
71A
  8
0
 62
     7
 10
101.7370609999999
 20
-201.34899899999999
 30
0.0
 40
3.0
  1
161
 41
1.655909892473117
 72
     5
 11
109.43704199999991
 21
-201.34899899999999
 31
0.0
  0
ENDBLK
  5
71B
  8
0
  0
BLOCK
  8
0
  2
BLOCK37
 70
     0
 10
0.0
 20
0.0
 30
0.0
  3
BLOCK37
  1

  0
TEXT
  5
71D
  8
0
 62
     7
 10
305.03411899999992
 20
-110.38825199999999
 30
0.0
 40
3.0
  1
117
 50
270.0
 41
1.677419999999997
 72
     5
 11
305.03411899999992
 21
-118.188255
 31
0.0
  0
LINE
  5
71E
  8
0
 62
     7
 10
190.23704499999999
 20
-173.338257
 30
0.0
 11
306.03411899999992
 21
-173.338257
 31
0.0
  0
LINE
  5
71F
  8
0
 62
     7
 10
190.23704499999999
 20
-56.338248999999998
 30
0.0
 11
306.03411899999992
 21
-56.338248999999998
 31
0.0
  0
POLYLINE
  5
720
  8
0
 62
     7
 66
     1
 10
0.0
 20
0.0
 30
0.0
  0
VERTEX
  5
AF9
  8
0
 62
     7
 10
303.516479
 20
-171.40640300000001
 30
0.0
  0
VERTEX
  5
AFA
  8
0
 62
     7
 10
304.03411899999992
 20
-173.338257
 30
0.0
  0
VERTEX
  5
AFB
  8
0
 62
     7
 10
304.55175800000001
 20
-171.40640300000001
 30
0.0
  0
SEQEND
  5
AFC
  8
0
 62
     7
  0
POLYLINE
  5
725
  8
0
 62
     7
 66
     1
 10
0.0
 20
0.0
 30
0.0
  0
VERTEX
  5
AFD
  8
0
 62
     7
 10
304.55175800000001
 20
-58.270103000000013
 30
0.0
  0
VERTEX
  5
AFE
  8
0
 62
     7
 10
304.03411899999992
 20
-56.338248999999998
 30
0.0
  0
VERTEX
  5
AFF
  8
0
 62
     7
 10
303.516479
 20
-58.270103000000013
 30
0.0
  0
SEQEND
  5
B00
  8
0
 62
     7
  0
LINE
  5
72A
  8
0
 62
     7
 10
304.03411899999992
 20
-173.338257
 30
0.0
 11
304.03411899999992
 21
-56.338248999999998
 31
0.0
  0
ENDBLK
  5
72B
  8
0
  0
BLOCK
  8
0
  2
BLOCK38
 70
     0
 10
0.0
 20
0.0
 30
0.0
  3
BLOCK38
  1

  0
TEXT
  5
72D
  8
0
 62
     7
 10
-1.0
 20
-140.0
 30
0.0
 40
3.0
  1
X
 50
90.0
 41
0.9777764444444425
 72
     5
 11
-1.0
 21
-137.800003
 31
0.0
  0
ENDBLK
  5
72E
  8
0
  0
BLOCK
  8
0
  2
BLOCK39
 70
     0
 10
0.0
 20
0.0
 30
0.0
  3
BLOCK39
  1

  0
TEXT
  5
730
  8
0
 62
     7
 10
5.0250240000000002
 20
165.37866199999999
 30
0.0
 40
3.0
  1
X
 50
90.0
 41
0.9777764444444425
 72
     5
 11
5.0250240000000002
 21
167.57865899999999
 31
0.0
  0
ENDBLK
  5
731
  8
0
  0
BLOCK
  8
0
  2
BLOCK40
 70
     0
 10
0.0
 20
0.0
 30
0.0
  3
BLOCK40
  1

  0
TEXT
  5
733
  8
0
 62
     7
 10
-140.0
 20
-2.0
 30
0.0
 40
3.0
  1
Y
 50
90.0
 41
0.9777777777777778
 72
     5
 11
-140.0
 21
0.2
 31
0.0
  0
ENDBLK
  5
734
  8
0
  0
BLOCK
  8
0
  2
BLOCK41
 70
     0
 10
0.0
 20
0.0
 30
0.0
  3
BLOCK41
  1

  0
TEXT
  5
736
  8
0
 62
     7
 10
113.0
 20
-2.0
 30
0.0
 40
3.0
  1
Y
 50
90.0
 41
0.9777777777777778
 72
     5
 11
113.0
 21
0.2
 31
0.0
  0
ENDBLK
  5
737
  8
0
  0
BLOCK
  8
0
  2
BLOCK42
 70
     0
 10
0.0
 20
0.0
 30
0.0
  3
BLOCK42
  1

  0
TEXT
  5
739
  8
0
 62
     7
 10
-107.01321399999991
 20
-11.0
 30
0.0
 40
3.0
  1
80
 50
90.0
 41
1.3191663623963901
 72
     5
 11
-107.01321399999991
 21
-6.0500099999999994
 31
0.0
  0
ENDBLK
  5
73A
  8
0
  0
BLOCK
  8
0
  2
BLOCK43
 70
     0
 10
0.0
 20
0.0
 30
0.0
  3
BLOCK43
  1

  0
TEXT
  5
73C
  8
0
 62
     7
 10
-133.64590499999991
 20
-16.5
 30
0.0
 40
3.0
  1
112
 50
90.0
 41
1.594140284383367
 72
     5
 11
-133.64590499999991
 21
-8.8000199999999982
 31
0.0
  0
ENDBLK
  5
73D
  8
0
  0
BLOCK
  8
0
  2
BLOCK44
 70
     0
 10
0.0
 20
0.0
 30
0.0
  3
BLOCK44
  1

  0
TEXT
  5
73F
  8
0
 62
     7
 10
16.5
 20
-98.844482000000013
 30
0.0
 40
3.0
  1
112
 50
179.99994791279241
 41
1.594140284384026
 72
     5
 11
8.8000199999999982
 21
-98.844475000000003
 31
0.0
  0
ENDBLK
  5
740
  8
0
  0
BLOCK
  8
0
  2
BLOCK45
 70
     0
 10
0.0
 20
0.0
 30
0.0
  3
BLOCK45
  1

  0
TEXT
  5
742
  8
0
 62
     7
 10
16.5
 20
-129.17919900000001
 30
0.0
 40
3.0
  1
142
 50
180.0
 41
1.3437594995413831
 72
     5
 11
8.8000199999999982
 21
-129.17919900000001
 31
0.0
  0
ENDBLK
  5
743
  8
0
  0
BLOCK
  8
0
  2
BLOCK46
 70
     0
 10
0.0
 20
0.0
 30
0.0
  3
BLOCK46
  1

  0
TEXT
  5
745
  8
0
 62
     7
 10
110.19441999999989
 20
-95.588736999999995
 30
0.0
 40
3.0
  1
 7
 50
128.5582967947247
 41
1.736838475997835
 72
     5
 11
107.1090389999999
 21
-91.717972000000003
 31
0.0
  0
ENDBLK
  5
746
  8
0
  0
BLOCK
  8
0
  2
BLOCK47
 70
     0
 10
0.0
 20
0.0
 30
0.0
  3
BLOCK47
  1

  0
TEXT
  5
748
  8
0
 62
     7
 10
111.1917269999999
 20
-96.839836000000005
 30
0.0
 40
3.0
  1
%%c
 50
128.5583246374683
 41
0.9777783868241566
 72
     5
 11
109.8204419999999
 21
-95.119492000000008
 31
0.0
  0
ENDBLK
  5
749
  8
0
  0
BLOCK
  8
0
  2
BLOCK48
 70
     0
 10
0.0
 20
0.0
 30
0.0
  3
BLOCK48
  1

  0
TEXT
  5
74B
  8
0
 62
     7
 10
127.725159
 20
73.336189000000005
 30
0.0
 40
3.0
  1
10
 50
90.0
 41
1.570247858124141
 72
     5
 11
127.725159
 21
78.286179000000004
 31
0.0
  0
ENDBLK
  5
74C
  8
0
  0
BLOCK
  8
0
  2
BLOCK49
 70
     0
 10
0.0
 20
0.0
 30
0.0
  3
BLOCK49
  1

  0
TEXT
  5
74E
  8
0
 62
     7
 10
-45.651671999999998
 20
-76.0
 30
0.0
 40
3.0
  1
10
 50
90.0
 41
1.570247540901712
 72
     5
 11
-45.651671999999998
 21
-71.050010999999984
 31
0.0
  0
ENDBLK
  5
74F
  8
0
  0
BLOCK
  8
0
  2
BLOCK50
 70
     0
 10
0.0
 20
0.0
 30
0.0
  3
BLOCK50
  1

  0
TEXT
  5
751
  8
0
 62
     7
 10
-16.5
 20
-169.87655599999999
 30
0.0
 40
3.0
  1
3
 41
1.239950714662865
 72
     5
 11
-14.300000000000001
 21
-169.87655599999999
 31
0.0
  0
ENDBLK
  5
752
  8
0
  0
BLOCK
  8
0
  2
BLOCK51
 70
     0
 10
0.0
 20
0.0
 30
0.0
  3
BLOCK51
  1

  0
TEXT
  5
754
  8
0
 62
     7
 10
-22.0
 20
-169.87655599999999
 30
0.0
 40
3.0
  1
\U+2265
 41
1.2422338279591401
 72
     5
 11
-19.799999
 21
-169.87655599999999
 31
0.0
  0
ENDBLK
  5
755
  8
0
  0
BLOCK
  8
0
  2
BLOCK52
 70
     0
 10
0.0
 20
0.0
 30
0.0
  3
BLOCK52
  1

  0
TEXT
  5
757
  8
0
 62
     7
 10
57.272521999999988
 20
-169.87655599999999
 30
0.0
 40
3.0
  1
135
 41
1.432750959303994
 72
     5
 11
64.972504000000001
 21
-169.87655599999999
 31
0.0
  0
ENDBLK
  5
758
  8
0
  0
BLOCK
  8
0
  2
BLOCK53
 70
     0
 10
0.0
 20
0.0
 30
0.0
  3
BLOCK53
  1

  0
TEXT
  5
75A
  8
0
 62
     7
 10
36.000670999999997
 20
-140.48271199999999
 30
0.0
 40
3.0
  1
103,5
 41
1.5485159649675879
 72
     5
 11
49.20062999999999
 21
-140.48271199999999
 31
0.0
  0
ENDBLK
  5
75B
  8
0
  0
BLOCK
  8
0
  2
BLOCK54
 70
     0
 10
0.0
 20
0.0
 30
0.0
  3
BLOCK54
  1

  0
TEXT
  5
75D
  8
0
 62
     7
 10
35.0
 20
-123.46820099999989
 30
0.0
 40
3.0
  1
101,5
 41
1.665764654678604
 72
     5
 11
48.199959
 21
-123.46820099999989
 31
0.0
  0
ENDBLK
  5
75E
  8
0
  0
BLOCK
  8
0
  2
BLOCK55
 70
     0
 10
0.0
 20
0.0
 30
0.0
  3
BLOCK55
  1

  0
TEXT
  5
760
  8
0
 62
     7
 10
149.47582999999989
 20
2.0000079999999998
 30
0.0
 40
3.0
  1
105
 50
90.0
 41
1.432750401088029
 72
     5
 11
149.47582999999989
 21
9.6999870000000001
 31
0.0
  0
ENDBLK
  5
761
  8
0
  0
BLOCK
  8
0
  2
BLOCK56
 70
     0
 10
0.0
 20
0.0
 30
0.0
  3
BLOCK56
  1

  0
TEXT
  5
763
  8
0
 62
     7
 10
145.0
 20
13.0
 30
0.0
 40
3.0
  1
X
 50
0.0000260435716368
 41
0.9777764444445436
 72
     5
 11
147.19999699999991
 21
13.000000999999999
 31
0.0
  0
ENDBLK
  5
764
  8
0
  0
BLOCK
  8
0
  2
BLOCK57
 70
     0
 10
0.0
 20
0.0
 30
0.0
  3
BLOCK57
  1

  0
TEXT
  5
766
  8
0
 62
     7
 10
-75.800415000000001
 20
4.25
 30
0.0
 40
3.0
  1
143
 50
90.0
 41
1.357000644798668
 72
     5
 11
-75.800415000000001
 21
11.94998
 31
0.0
  0
ENDBLK
  5
767
  8
0
  0
BLOCK
  8
0
  2
BLOCK58
 70
     0
 10
0.0
 20
0.0
 30
0.0
  3
BLOCK58
  1

  0
TEXT
  5
769
  8
0
 62
     7
 10
43.250609999999988
 20
-156.98036200000001
 30
0.0
 40
3.0
  1
107
 41
1.4666632380952389
 72
     5
 11
50.950592
 21
-156.98036200000001
 31
0.0
  0
ENDBLK
  5
76A
  8
0
  0
BLOCK
  8
0
  2
BLOCK59
 70
     0
 10
0.0
 20
0.0
 30
0.0
  3
BLOCK59
  1

  0
TEXT
  5
76C
  8
0
 62
     7
 10
113.00116
 20
-156.98036200000001
 30
0.0
 40
3.0
  1
2
 41
1.202067778817504
 72
     5
 11
115.20115699999999
 21
-156.98036200000001
 31
0.0
  0
ENDBLK
  5
76D
  8
0
  0
BLOCK
  8
0
  2
BLOCK60
 70
     0
 10
0.0
 20
0.0
 30
0.0
  3
BLOCK60
  1

  0
TEXT
  5
76F
  8
0
 62
     5
 10
-59.100646999999988
 20
33.375
 30
0.0
 40
3.0
  1
73,75
 50
89.999982637588687
 41
1.446687524670035
 72
     5
 11
-59.100643000000012
 21
46.574958999999993
 31
0.0
  0
ENDBLK
  5
770
  8
0
  0
BLOCK
  8
0
  2
BLOCK61
 70
     0
 10
0.0
 20
0.0
 30
0.0
  3
BLOCK61
  1

  0
TEXT
  5
772
  8
0
 62
     7
 10
-19.0
 20
-97.048500000000004
 30
0.0
 40
3.0
  1
20
 41
1.3191663623963901
 72
     5
 11
-14.05001
 21
-97.048500000000004
 31
0.0
  0
ENDBLK
  5
773
  8
0
  0
BLOCK
  8
0
  2
BLOCK62
 70
     0
 10
0.0
 20
0.0
 30
0.0
  3
BLOCK62
  1

  0
TEXT
  5
775
  8
0
 62
     7
 10
6.5
 20
-109.106331
 30
0.0
 40
3.0
  1
5
 41
1.239950714662865
 72
     5
 11
8.6999999999999993
 21
-109.106331
 31
0.0
  0
ENDBLK
  5
776
  8
0
  0
BLOCK
  8
0
  2
BLOCK63
 70
     0
 10
0.0
 20
0.0
 30
0.0
  3
BLOCK63
  1

  0
TEXT
  5
778
  8
0
 62
     7
 10
58.810668999999997
 20
-109.106331
 30
0.0
 40
3.0
  1
5
 41
1.2399512782768269
 72
     5
 11
61.010669999999998
 21
-109.106331
 31
0.0
  0
ENDBLK
  5
779
  8
0
  0
BLOCK
  8
0
  2
BLOCK64
 70
     0
 10
0.0
 20
0.0
 30
0.0
  3
BLOCK64
  1

  0
TEXT
  5
77B
  8
0
 62
     7
 10
36.81066899999999
 20
-109.106331
 30
0.0
 40
3.0
  1
min.
 41
1.6991821138211389
 72
     5
 11
47.260638999999998
 21
-109.106331
 31
0.0
  0
ENDBLK
  5
77C
  8
0
  0
BLOCK
  8
0
  2
BLOCK65
 70
     0
 10
0.0
 20
0.0
 30
0.0
  3
BLOCK65
  1

  0
TEXT
  5
77E
  8
0
 62
     7
 10
-59.441161999999991
 20
90.948479000000006
 30
0.0
 40
3.0
  1
33,5
 50
89.999978068546554
 41
1.4876966323842971
 72
     5
 11
-59.441157999999987
 21
101.398453
 31
0.0
  0
ENDBLK
  5
77F
  8
0
  0
BLOCK
  8
0
  2
BLOCK66
 70
     0
 10
0.0
 20
0.0
 30
0.0
  3
BLOCK66
  1

  0
TEXT
  5
781
  8
0
 62
     7
 10
-59.441161999999991
 20
136.0
 30
0.0
 40
3.0
  1
12,5
 50
89.999978068529771
 41
1.62664017048975
 72
     5
 11
-59.441157999999987
 21
146.4499659999999
 31
0.0
  0
ENDBLK
  5
782
  8
0
  0
BLOCK
  8
0
  2
BLOCK67
 70
     0
 10
0.0
 20
0.0
 30
0.0
  3
BLOCK67
  1

  0
TEXT
  5
784
  8
0
 62
     7
 10
5.0
 20
153.298676
 30
0.0
 40
3.0
  1
25
 41
1.277659424398945
 72
     5
 11
9.9499899999999997
 21
153.298676
 31
0.0
  0
ENDBLK
  5
785
  8
0
  0
BLOCK
  8
0
  2
BLOCK68
 70
     0
 10
0.0
 20
0.0
 30
0.0
  3
BLOCK68
  1

  0
TEXT
  5
787
  8
0
 62
     7
 10
35.0
 20
153.298676
 30
0.0
 40
3.0
  1
6
 41
1.2230252878091481
 72
     5
 11
37.200001
 21
153.298676
 31
0.0
  0
ENDBLK
  5
788
  8
0
  0
BLOCK
  8
0
  2
BLOCK69
 70
     0
 10
0.0
 20
0.0
 30
0.0
  3
BLOCK69
  1

  0
TEXT
  5
78A
  8
0
 62
     2
 10
-30.725463999999999
 20
-74.5
 30
0.0
 40
3.0
  1
8
 50
90.0
 41
1.3333315151515119
 72
     5
 11
-30.725463999999999
 21
-72.300003000000004
 31
0.0
  0
ENDBLK
  5
78B
  8
0
  0
BLOCK
  8
0
  2
BLOCK70
 70
     0
 10
0.0
 20
0.0
 30
0.0
  3
BLOCK70
  1

  0
TEXT
  5
78D
  8
0
 62
     2
 10
-30.725463999999999
 20
-80.0
 30
0.0
 40
3.0
  1
M
 50
90.0
 41
0.9777764444444427
 72
     5
 11
-30.725463999999999
 21
-77.800003000000004
 31
0.0
  0
ENDBLK
  5
78E
  8
0
  0
BLOCK
  8
0
  2
BLOCK71
 70
     0
 10
0.0
 20
0.0
 30
0.0
  3
BLOCK71
  1

  0
LINE
  5
790
  8
0
 62
     6
 10
9.0000020000000003
 20
69.488883999999999
 30
0.0
 11
11.054437999999999
 21
67.434448000000003
 31
0.0
  0
LINE
  5
791
  8
0
 62
     6
 10
9.1102070000000008
 20
71.5
 30
0.0
 11
13.000002
 21
67.610198999999994
 31
0.0
  0
LINE
  5
792
  8
0
 62
     6
 10
11.231524999999991
 20
71.5
 30
0.0
 11
13.000002
 21
69.731521999999998
 31
0.0
  0
ENDBLK
  5
793
  8
0
  0
BLOCK
  8
0
  2
BLOCK72
 70
     0
 10
0.0
 20
0.0
 30
0.0
  3
BLOCK72
  1

  0
LINE
  5
795
  8
0
 62
     6
 10
14.000002
 20
-47.941161999999998
 30
0.0
 11
15.058828
 21
-48.999988999999992
 31
0.0
  0
LINE
  5
796
  8
0
 62
     6
 10
14.196956
 20
-46.016791999999988
 30
0.0
 11
17.180147000000002
 21
-48.999988999999992
 31
0.0
  0
LINE
  5
797
  8
0
 62
     6
 10
16.318274999999989
 20
-46.016791999999988
 30
0.0
 11
18.000001999999991
 21
-47.698521
 31
0.0
  0
ENDBLK
  5
798
  8
0
  0
BLOCK
  8
0
  2
BLOCK73
 70
     0
 10
0.0
 20
0.0
 30
0.0
  3
BLOCK73
  1

  0
LINE
  5
79A
  8
0
 62
     6
 10
19.346209999999989
 20
-54.900002000000001
 30
0.0
 11
21.0
 21
-53.246207999999989
 31
0.0
  0
LINE
  5
79B
  8
0
 62
     6
 10
18.000001999999991
 20
-54.124885999999989
 30
0.0
 11
21.0
 21
-51.124889000000003
 31
0.0
  0
LINE
  5
79C
  8
0
 62
     6
 10
18.000001999999991
 20
-52.003566999999997
 30
0.0
 11
21.0
 21
-49.00356699999999
 31
0.0
  0
LINE
  5
79D
  8
0
 62
     6
 10
18.000001999999991
 20
-49.882247999999997
 30
0.0
 11
21.0
 21
-46.88224799999999
 31
0.0
  0
LINE
  5
79E
  8
0
 62
     6
 10
18.000001999999991
 20
-47.760924999999993
 30
0.0
 11
20.744134999999989
 21
-45.016791999999988
 31
0.0
  0
LINE
  5
79F
  8
0
 62
     6
 10
18.000001999999991
 20
-45.639606000000001
 30
0.0
 11
18.622816
 21
-45.016791999999988
 31
0.0
  0
ENDBLK
  5
7A0
  8
0
  0
BLOCK
  8
0
  2
BLOCK74
 70
     0
 10
0.0
 20
0.0
 30
0.0
  3
BLOCK74
  1

  0
LINE
  5
7A2
  8
0
 62
     6
 10
21.095462999999992
 20
-67.999984999999995
 30
0.0
 11
23.0
 21
-66.095450999999997
 31
0.0
  0
LINE
  5
7A3
  8
0
 62
     6
 10
18.974143999999988
 20
-67.999984999999995
 30
0.0
 11
23.0
 21
-63.974128999999998
 31
0.0
  0
LINE
  5
7A4
  8
0
 62
     6
 10
18.000001999999991
 20
-66.852806000000001
 30
0.0
 11
21.752810999999991
 21
-63.099997999999992
 31
0.0
  0
LINE
  5
7A5
  8
0
 62
     6
 10
18.000001999999991
 20
-64.731491000000005
 30
0.0
 11
19.631491
 21
-63.099997999999992
 31
0.0
  0
ENDBLK
  5
7A6
  8
0
  0
BLOCK
  8
0
  2
BLOCK75
 70
     0
 10
0.0
 20
0.0
 30
0.0
  3
BLOCK75
  1

  0
LINE
  5
7A8
  8
0
 62
     6
 10
22.467531000000001
 20
-53.900002000000001
 30
0.0
 11
23.0
 21
-53.367531000000007
 31
0.0
  0
LINE
  5
7A9
  8
0
 62
     6
 10
21.0
 20
-53.246207999999989
 30
0.0
 11
23.0
 21
-51.246208000000003
 31
0.0
  0
LINE
  5
7AA
  8
0
 62
     6
 10
21.0
 20
-51.124889000000003
 30
0.0
 11
23.0
 21
-49.124889000000003
 31
0.0
  0
LINE
  5
7AB
  8
0
 62
     6
 10
21.0
 20
-49.00356699999999
 30
0.0
 11
23.0
 21
-47.003571000000001
 31
0.0
  0
LINE
  5
7AC
  8
0
 62
     6
 10
21.0
 20
-46.88224799999999
 30
0.0
 11
21.882255999999991
 21
-45.999996000000003
 31
0.0
  0
ENDBLK
  5
7AD
  8
0
  0
BLOCK
  8
0
  2
BLOCK76
 70
     0
 10
0.0
 20
0.0
 30
0.0
  3
BLOCK76
  1

  0
LINE
  5
7AF
  8
0
 62
     6
 10
23.000001999999991
 20
72.45944200000001
 30
0.0
 11
23.959440000000001
 21
71.5
 31
0.0
  0
LINE
  5
7B0
  8
0
 62
     6
 10
23.580763000000001
 20
74.0
 30
0.0
 11
26.080759
 21
71.5
 31
0.0
  0
LINE
  5
7B1
  8
0
 62
     6
 10
25.702082000000001
 20
74.0
 30
0.0
 11
28.202079999999999
 21
71.5
 31
0.0
  0
LINE
  5
7B2
  8
0
 62
     6
 10
27.823399999999999
 20
74.0
 30
0.0
 11
30.323398999999998
 21
71.5
 31
0.0
  0
LINE
  5
7B3
  8
0
 62
     6
 10
29.944721000000001
 20
74.0
 30
0.0
 11
32.444716999999997
 21
71.5
 31
0.0
  0
LINE
  5
7B4
  8
0
 62
     6
 10
32.066040000000001
 20
74.0
 30
0.0
 11
34.56603599999999
 21
71.5
 31
0.0
  0
LINE
  5
7B5
  8
0
 62
     6
 10
34.187359000000001
 20
74.0
 30
0.0
 11
34.822902999999997
 21
73.364456000000004
 31
0.0
  0
ENDBLK
  5
7B6
  8
0
  0
BLOCK
  8
0
  2
BLOCK77
 70
     0
 10
0.0
 20
0.0
 30
0.0
  3
BLOCK77
  1

  0
LINE
  5
7B8
  8
0
 62
     2
 10
105.2698899999999
 20
-117.46875
 30
0.0
 11
107.0011669999999
 21
-115.7374649999999
 31
0.0
  0
LINE
  5
7B9
  8
0
 62
     2
 10
105.0011669999999
 20
-115.6161419999999
 30
0.0
 11
107.0011669999999
 21
-113.616142
 31
0.0
  0
LINE
  5
7BA
  8
0
 62
     2
 10
105.0011669999999
 20
-113.4948269999999
 30
0.0
 11
107.0011669999999
 21
-111.4948269999999
 31
0.0
  0
LINE
  5
7BB
  8
0
 62
     2
 10
105.0011669999999
 20
-111.37350499999999
 30
0.0
 11
107.0011669999999
 21
-109.37350499999999
 31
0.0
  0
LINE
  5
7BC
  8
0
 62
     2
 10
105.0011669999999
 20
-109.25218199999991
 30
0.0
 11
107.0011669999999
 21
-107.252182
 31
0.0
  0
LINE
  5
7BD
  8
0
 62
     2
 10
105.0011669999999
 20
-107.13086699999999
 30
0.0
 11
107.0011669999999
 21
-105.13086699999999
 31
0.0
  0
LINE
  5
7BE
  8
0
 62
     2
 10
105.0011669999999
 20
-105.00954399999991
 30
0.0
 11
107.0011669999999
 21
-103.00954399999991
 31
0.0
  0
LINE
  5
7BF
  8
0
 62
     2
 10
105.0011669999999
 20
-102.888222
 30
0.0
 11
107.0011669999999
 21
-100.888222
 31
0.0
  0
LINE
  5
7C0
  8
0
 62
     2
 10
105.0011669999999
 20
-100.7669069999999
 30
0.0
 11
107.0011669999999
 21
-98.766906999999989
 31
0.0
  0
LINE
  5
7C1
  8
0
 62
     2
 10
105.0011669999999
 20
-98.645583999999985
 30
0.0
 11
107.0011669999999
 21
-96.645583999999999
 31
0.0
  0
LINE
  5
7C2
  8
0
 62
     2
 10
105.0011669999999
 20
-96.524260999999996
 30
0.0
 11
107.0011669999999
 21
-94.524260999999996
 31
0.0
  0
LINE
  5
7C3
  8
0
 62
     2
 10
105.0011669999999
 20
-94.402939000000003
 30
0.0
 11
107.0011669999999
 21
-92.402946
 31
0.0
  0
LINE
  5
7C4
  8
0
 62
     2
 10
105.0011669999999
 20
-92.281623999999994
 30
0.0
 11
107.0011669999999
 21
-90.281623999999994
 31
0.0
  0
LINE
  5
7C5
  8
0
 62
     2
 10
105.0011669999999
 20
-90.160301000000004
 30
0.0
 11
107.0011669999999
 21
-88.160301000000004
 31
0.0
  0
LINE
  5
7C6
  8
0
 62
     2
 10
105.0011669999999
 20
-88.038978999999998
 30
0.0
 11
107.0011669999999
 21
-86.038978999999983
 31
0.0
  0
LINE
  5
7C7
  8
0
 62
     2
 10
105.0011669999999
 20
-85.917664000000002
 30
0.0
 11
107.0011669999999
 21
-83.917663999999988
 31
0.0
  0
LINE
  5
7C8
  8
0
 62
     2
 10
105.0011669999999
 20
-83.796340999999998
 30
0.0
 11
107.0011669999999
 21
-81.796340999999984
 31
0.0
  0
LINE
  5
7C9
  8
0
 62
     2
 10
105.0011669999999
 20
-81.675018000000009
 30
0.0
 11
107.0011669999999
 21
-79.675017999999994
 31
0.0
  0
LINE
  5
7CA
  8
0
 62
     2
 10
105.0011669999999
 20
-79.553702999999999
 30
0.0
 11
107.0011669999999
 21
-77.553702999999999
 31
0.0
  0
LINE
  5
7CB
  8
0
 62
     2
 10
105.0011669999999
 20
-77.432381000000007
 30
0.0
 11
107.0011669999999
 21
-75.432381000000007
 31
0.0
  0
LINE
  5
7CC
  8
0
 62
     2
 10
105.0011669999999
 20
-75.311058000000003
 30
0.0
 11
107.0011669999999
 21
-73.311058000000003
 31
0.0
  0
LINE
  5
7CD
  8
0
 62
     2
 10
105.0011669999999
 20
-73.189743000000007
 30
0.0
 11
107.0011669999999
 21
-71.189743000000007
 31
0.0
  0
LINE
  5
7CE
  8
0
 62
     2
 10
105.0011669999999
 20
-71.068419999999989
 30
0.0
 11
107.0011669999999
 21
-69.068419999999989
 31
0.0
  0
LINE
  5
7CF
  8
0
 62
     2
 10
105.0011669999999
 20
-68.947097999999997
 30
0.0
 11
107.0011669999999
 21
-66.947097999999997
 31
0.0
  0
LINE
  5
7D0
  8
0
 62
     2
 10
105.0011669999999
 20
-66.825783000000001
 30
0.0
 11
107.0011669999999
 21
-64.825783000000001
 31
0.0
  0
LINE
  5
7D1
  8
0
 62
     2
 10
105.0011669999999
 20
-64.704459999999983
 30
0.0
 11
105.45562700000001
 21
-64.25
 31
0.0
  0
ENDBLK
  5
7D2
  8
0
  0
BLOCK
  8
0
  2
BLOCK78
 70
     0
 10
0.0
 20
0.0
 30
0.0
  3
BLOCK78
  1

  0
LINE
  5
7D4
  8
0
 62
     2
 10
106.0916669999999
 20
-57.25
 30
0.0
 11
107.0011669999999
 21
-56.340499999999999
 31
0.0
  0
LINE
  5
7D5
  8
0
 62
     2
 10
105.0011669999999
 20
-56.219177000000002
 30
0.0
 11
107.0011669999999
 21
-54.219180999999999
 31
0.0
  0
LINE
  5
7D6
  8
0
 62
     2
 10
105.0011669999999
 20
-54.097857999999988
 30
0.0
 11
107.0011669999999
 21
-52.097858000000002
 31
0.0
  0
LINE
  5
7D7
  8
0
 62
     2
 10
105.0011669999999
 20
-51.976539999999993
 30
0.0
 11
107.0011669999999
 21
-49.97654
 31
0.0
  0
LINE
  5
7D8
  8
0
 62
     2
 10
105.0011669999999
 20
-49.855216999999989
 30
0.0
 11
107.0011669999999
 21
-47.855216999999989
 31
0.0
  0
LINE
  5
7D9
  8
0
 62
     2
 10
105.0011669999999
 20
-47.733897999999989
 30
0.0
 11
106.9850689999999
 21
-45.75
 31
0.0
  0
ENDBLK
  5
7DA
  8
0
  0
BLOCK
  8
0
  2
BLOCK79
 70
     0
 10
0.0
 20
0.0
 30
0.0
  3
BLOCK79
  1

  0
LINE
  5
7DC
  8
0
 62
     2
 10
106.5550919999999
 20
66.249992000000006
 30
0.0
 11
107.0011669999999
 21
66.696074999999993
 31
0.0
  0
LINE
  5
7DD
  8
0
 62
     2
 10
105.0011669999999
 20
66.817390000000003
 30
0.0
 11
107.0011669999999
 21
68.817390000000003
 31
0.0
  0
LINE
  5
7DE
  8
0
 62
     2
 10
105.0011669999999
 20
68.938713000000007
 30
0.0
 11
107.0011669999999
 21
70.938713000000007
 31
0.0
  0
LINE
  5
7DF
  8
0
 62
     2
 10
105.0011669999999
 20
71.060035999999997
 30
0.0
 11
107.0011669999999
 21
73.060035999999997
 31
0.0
  0
LINE
  5
7E0
  8
0
 62
     2
 10
105.0011669999999
 20
73.181351000000006
 30
0.0
 11
107.0011669999999
 21
75.181351000000006
 31
0.0
  0
LINE
  5
7E1
  8
0
 62
     2
 10
105.0011669999999
 20
75.302672999999999
 30
0.0
 11
107.0011669999999
 21
77.302672999999999
 31
0.0
  0
LINE
  5
7E2
  8
0
 62
     2
 10
105.0011669999999
 20
77.423996000000002
 30
0.0
 11
105.32717099999989
 21
77.749992000000006
 31
0.0
  0
ENDBLK
  5
7E3
  8
0
  0
BLOCK
  8
0
  2
BLOCK80
 70
     0
 10
0.0
 20
0.0
 30
0.0
  3
BLOCK80
  1

  0
LINE
  5
7E5
  8
0
 62
     2
 10
105.963211
 20
84.749992000000006
 30
0.0
 11
107.0011669999999
 21
85.787956000000008
 31
0.0
  0
LINE
  5
7E6
  8
0
 62
     2
 10
105.0011669999999
 20
85.909271000000004
 30
0.0
 11
107.0011669999999
 21
87.90927099999999
 31
0.0
  0
LINE
  5
7E7
  8
0
 62
     2
 10
105.0011669999999
 20
88.030593999999994
 30
0.0
 11
107.0011669999999
 21
90.030593999999994
 31
0.0
  0
LINE
  5
7E8
  8
0
 62
     2
 10
105.0011669999999
 20
90.151916999999997
 30
0.0
 11
107.0011669999999
 21
92.151916999999997
 31
0.0
  0
LINE
  5
7E9
  8
0
 62
     2
 10
105.0011669999999
 20
92.273231999999979
 30
0.0
 11
107.0011669999999
 21
94.273231999999993
 31
0.0
  0
LINE
  5
7EA
  8
0
 62
     2
 10
105.0011669999999
 20
94.394553999999985
 30
0.0
 11
107.0011669999999
 21
96.394554000000014
 31
0.0
  0
LINE
  5
7EB
  8
0
 62
     2
 10
105.0011669999999
 20
96.515877000000003
 30
0.0
 11
107.0011669999999
 21
98.515877000000003
 31
0.0
  0
LINE
  5
7EC
  8
0
 62
     2
 10
105.0011669999999
 20
98.637198999999995
 30
0.0
 11
107.0011669999999
 21
100.637192
 31
0.0
  0
LINE
  5
7ED
  8
0
 62
     2
 10
105.0011669999999
 20
100.75851399999991
 30
0.0
 11
107.0011669999999
 21
102.75851400000001
 31
0.0
  0
LINE
  5
7EE
  8
0
 62
     2
 10
105.0011669999999
 20
102.87983699999999
 30
0.0
 11
107.0011669999999
 21
104.87983699999999
 31
0.0
  0
LINE
  5
7EF
  8
0
 62
     2
 10
105.0011669999999
 20
105.00116
 30
0.0
 11
107.0011669999999
 21
107.00116
 31
0.0
  0
LINE
  5
7F0
  8
0
 62
     2
 10
105.0011669999999
 20
107.12247499999999
 30
0.0
 11
107.0011669999999
 21
109.12247499999999
 31
0.0
  0
LINE
  5
7F1
  8
0
 62
     2
 10
105.0011669999999
 20
109.2437969999999
 30
0.0
 11
107.0011669999999
 21
111.2437969999999
 31
0.0
  0
LINE
  5
7F2
  8
0
 62
     2
 10
105.0011669999999
 20
111.36511999999991
 30
0.0
 11
107.0011669999999
 21
113.36511999999991
 31
0.0
  0
LINE
  5
7F3
  8
0
 62
     2
 10
105.0011669999999
 20
113.486435
 30
0.0
 11
107.0011669999999
 21
115.486435
 31
0.0
  0
LINE
  5
7F4
  8
0
 62
     2
 10
105.0011669999999
 20
115.607758
 30
0.0
 11
107.0011669999999
 21
117.607758
 31
0.0
  0
LINE
  5
7F5
  8
0
 62
     2
 10
105.0011669999999
 20
117.72908
 30
0.0
 11
107.0011669999999
 21
119.72908
 31
0.0
  0
LINE
  5
7F6
  8
0
 62
     2
 10
105.0011669999999
 20
119.85039499999991
 30
0.0
 11
107.0011669999999
 21
121.85039499999991
 31
0.0
  0
LINE
  5
7F7
  8
0
 62
     2
 10
105.0011669999999
 20
121.9717179999999
 30
0.0
 11
107.0011669999999
 21
123.9717179999999
 31
0.0
  0
LINE
  5
7F8
  8
0
 62
     2
 10
105.0011669999999
 20
124.0930399999999
 30
0.0
 11
107.0011669999999
 21
126.0930399999999
 31
0.0
  0
LINE
  5
7F9
  8
0
 62
     2
 10
105.0011669999999
 20
126.214355
 30
0.0
 11
107.0011669999999
 21
128.21435500000001
 31
0.0
  0
LINE
  5
7FA
  8
0
 62
     2
 10
105.0011669999999
 20
128.335678
 30
0.0
 11
107.0011669999999
 21
130.335678
 31
0.0
  0
LINE
  5
7FB
  8
0
 62
     2
 10
105.0011669999999
 20
130.45700099999991
 30
0.0
 11
107.0011669999999
 21
132.45700099999991
 31
0.0
  0
LINE
  5
7FC
  8
0
 62
     2
 10
105.0011669999999
 20
132.57832300000001
 30
0.0
 11
107.0011669999999
 21
134.57832300000001
 31
0.0
  0
LINE
  5
7FD
  8
0
 62
     2
 10
105.0011669999999
 20
134.69964599999989
 30
0.0
 11
107.0011669999999
 21
136.69964599999989
 31
0.0
  0
LINE
  5
7FE
  8
0
 62
     2
 10
105.0011669999999
 20
136.820953
 30
0.0
 11
107.0011669999999
 21
138.820953
 31
0.0
  0
LINE
  5
7FF
  8
0
 62
     2
 10
105.0011669999999
 20
138.94227599999991
 30
0.0
 11
107.0011669999999
 21
140.94227599999991
 31
0.0
  0
LINE
  5
800
  8
0
 62
     2
 10
105.0011669999999
 20
141.06359900000001
 30
0.0
 11
107.0011669999999
 21
143.06359900000001
 31
0.0
  0
LINE
  5
801
  8
0
 62
     2
 10
105.0011669999999
 20
143.184921
 30
0.0
 11
107.0011669999999
 21
145.18492099999989
 31
0.0
  0
LINE
  5
802
  8
0
 62
     2
 10
105.0011669999999
 20
145.30624399999991
 30
0.0
 11
107.0011669999999
 21
147.30624399999991
 31
0.0
  0
LINE
  5
803
  8
0
 62
     2
 10
105.0011669999999
 20
147.4275669999999
 30
0.0
 11
107.0011669999999
 21
149.4275669999999
 31
0.0
  0
LINE
  5
804
  8
0
 62
     2
 10
105.0011669999999
 20
149.54887400000001
 30
0.0
 11
107.0011669999999
 21
151.54887400000001
 31
0.0
  0
LINE
  5
805
  8
0
 62
     2
 10
105.0011669999999
 20
151.67019699999989
 30
0.0
 11
107.0011669999999
 21
153.670197
 31
0.0
  0
LINE
  5
806
  8
0
 62
     2
 10
105.0011669999999
 20
153.79151899999991
 30
0.0
 11
107.0011669999999
 21
155.79151899999991
 31
0.0
  0
LINE
  5
807
  8
0
 62
     2
 10
105.0011669999999
 20
155.9128419999999
 30
0.0
 11
107.0011669999999
 21
157.9128419999999
 31
0.0
  0
LINE
  5
808
  8
0
 62
     2
 10
105.0011669999999
 20
158.03416399999989
 30
0.0
 11
107.0011669999999
 21
160.03416399999989
 31
0.0
  0
LINE
  5
809
  8
0
 62
     2
 10
105.0011669999999
 20
160.15548699999999
 30
0.0
 11
107.0011669999999
 21
162.15548699999999
 31
0.0
  0
LINE
  5
80A
  8
0
 62
     2
 10
105.0011669999999
 20
162.27679399999991
 30
0.0
 11
105.8391419999999
 21
163.114777
 31
0.0
  0
ENDBLK
  5
80B
  8
0
  0
BLOCK
  8
0
  2
BLOCK81
 70
     0
 10
0.0
 20
0.0
 30
0.0
  3
BLOCK81
  1

  0
LINE
  5
80D
  8
0
 62
     6
 10
24.000001999999999
 20
-47.334564
 30
0.0
 11
25.665423999999991
 21
-48.999988999999992
 31
0.0
  0
LINE
  5
80E
  8
0
 62
     6
 10
24.803553000000001
 20
-46.016791999999988
 30
0.0
 11
27.786743000000001
 21
-48.999988999999992
 31
0.0
  0
LINE
  5
80F
  8
0
 62
     6
 10
26.924871
 20
-46.016791999999988
 30
0.0
 11
29.908062000000001
 21
-48.999988999999992
 31
0.0
  0
LINE
  5
810
  8
0
 62
     6
 10
29.046189999999999
 20
-46.016791999999988
 30
0.0
 11
32.029381000000001
 21
-48.999988999999992
 31
0.0
  0
LINE
  5
811
  8
0
 62
     6
 10
31.167508999999999
 20
-46.016791999999988
 30
0.0
 11
34.150700000000001
 21
-48.999988999999992
 31
0.0
  0
LINE
  5
812
  8
0
 62
     6
 10
33.28882999999999
 20
-46.016791999999988
 30
0.0
 11
36.272018000000003
 21
-48.999988999999992
 31
0.0
  0
LINE
  5
813
  8
0
 62
     6
 10
35.41014899999999
 20
-46.016791999999988
 30
0.0
 11
38.393340999999999
 21
-48.999988999999992
 31
0.0
  0
LINE
  5
814
  8
0
 62
     6
 10
37.531466999999999
 20
-46.016791999999988
 30
0.0
 11
40.514659999999999
 21
-48.999988999999992
 31
0.0
  0
LINE
  5
815
  8
0
 62
     6
 10
39.652785999999992
 20
-46.016791999999988
 30
0.0
 11
42.635978999999992
 21
-48.999988999999992
 31
0.0
  0
LINE
  5
816
  8
0
 62
     6
 10
41.774104999999992
 20
-46.016791999999988
 30
0.0
 11
44.757297999999992
 21
-48.999988999999992
 31
0.0
  0
LINE
  5
817
  8
0
 62
     6
 10
43.895423999999991
 20
-46.016791999999988
 30
0.0
 11
46.878616000000001
 21
-48.999988999999992
 31
0.0
  0
LINE
  5
818
  8
0
 62
     6
 10
46.016742999999991
 20
-46.016791999999988
 30
0.0
 11
46.961486999999998
 21
-46.961535999999988
 31
0.0
  0
ENDBLK
  5
819
  8
0
  0
BLOCK
  8
0
  2
BLOCK82
 70
     0
 10
0.0
 20
0.0
 30
0.0
  3
BLOCK82
  1

  0
LINE
  5
81B
  8
0
 62
     6
 10
20.317757
 20
88.199996999999996
 30
0.0
 11
22.000001999999991
 21
89.882248000000004
 31
0.0
  0
LINE
  5
81C
  8
0
 62
     6
 10
18.196435999999999
 20
88.199996999999996
 30
0.0
 11
22.000001999999991
 21
92.003563000000014
 31
0.0
  0
LINE
  5
81D
  8
0
 62
     6
 10
18.000001999999991
 20
90.124886000000004
 30
0.0
 11
20.875115999999998
 21
93.0
 31
0.0
  0
LINE
  5
81E
  8
0
 62
     6
 10
18.000001999999991
 20
92.246207999999996
 30
0.0
 11
18.753795999999991
 21
93.0
 31
0.0
  0
ENDBLK
  5
81F
  8
0
  0
BLOCK
  8
0
  2
BLOCK83
 70
     0
 10
0.0
 20
0.0
 30
0.0
  3
BLOCK83
  1

  0
LINE
  5
821
  8
0
 62
     6
 10
16.522762
 20
67.434448000000003
 30
0.0
 11
22.986409999999989
 21
73.898094
 31
0.0
  0
LINE
  5
822
  8
0
 62
     6
 10
14.401443
 20
67.434448000000003
 30
0.0
 11
22.000001999999991
 21
75.033005000000003
 31
0.0
  0
LINE
  5
823
  8
0
 62
     6
 10
13.212966
 20
68.367287000000005
 30
0.0
 11
22.000001999999991
 21
77.154326999999995
 31
0.0
  0
LINE
  5
824
  8
0
 62
     6
 10
18.000001999999991
 20
75.275642000000005
 30
0.0
 11
22.000001999999991
 21
79.275642000000005
 31
0.0
  0
LINE
  5
825
  8
0
 62
     6
 10
18.000001999999991
 20
77.396964999999994
 30
0.0
 11
20.403036
 21
79.800003000000004
 31
0.0
  0
LINE
  5
826
  8
0
 62
     6
 10
18.000001999999991
 20
79.518287999999998
 30
0.0
 11
18.281717
 21
79.800003000000004
 31
0.0
  0
ENDBLK
  5
827
  8
0
  0
BLOCK
  8
0
  2
BLOCK84
 70
     0
 10
0.0
 20
0.0
 30
0.0
  3
BLOCK84
  1

  0
LINE
  5
829
  8
0
 62
     6
 10
23.000001999999991
 20
74.580765
 30
0.0
 11
23.580763000000001
 21
74.0
 31
0.0
  0
LINE
  5
82A
  8
0
 62
     6
 10
23.000001999999991
 20
76.702080000000009
 30
0.0
 11
25.702082000000001
 21
74.0
 31
0.0
  0
LINE
  5
82B
  8
0
 62
     6
 10
23.000001999999991
 20
78.823402000000002
 30
0.0
 11
27.823399999999999
 21
74.0
 31
0.0
  0
LINE
  5
82C
  8
0
 62
     6
 10
24.194727
 20
79.75
 30
0.0
 11
29.000001999999999
 21
74.944716999999997
 31
0.0
  0
LINE
  5
82D
  8
0
 62
     6
 10
26.316046
 20
79.75
 30
0.0
 11
29.000001999999999
 21
77.066040000000001
 31
0.0
  0
LINE
  5
82E
  8
0
 62
     6
 10
28.437365
 20
79.75
 30
0.0
 11
29.000001999999999
 21
79.187363000000005
 31
0.0
  0
ENDBLK
  5
82F
  8
0
  0
BLOCK
  8
0
  2
BLOCK85
 70
     0
 10
0.0
 20
0.0
 30
0.0
  3
BLOCK85
  1

  0
LINE
  5
831
  8
0
 62
     6
 10
23.000001999999991
 20
89.430008000000001
 30
0.0
 11
24.180011999999991
 21
88.250000000000014
 31
0.0
  0
LINE
  5
832
  8
0
 62
     6
 10
23.000001999999991
 20
91.551331000000005
 30
0.0
 11
26.301331999999999
 21
88.250000000000014
 31
0.0
  0
LINE
  5
833
  8
0
 62
     6
 10
23.000001999999991
 20
93.672652999999997
 30
0.0
 11
28.422650999999998
 21
88.250000000000014
 31
0.0
  0
LINE
  5
834
  8
0
 62
     6
 10
23.000001999999991
 20
95.793976000000001
 30
0.0
 11
29.000001999999999
 21
89.793968000000007
 31
0.0
  0
LINE
  5
835
  8
0
 62
     6
 10
23.000001999999991
 20
97.915297999999993
 30
0.0
 11
29.000001999999999
 21
91.915290999999996
 31
0.0
  0
LINE
  5
836
  8
0
 62
     6
 10
23.000001999999991
 20
100.0366209999999
 30
0.0
 11
29.000001999999999
 21
94.036613000000017
 31
0.0
  0
LINE
  5
837
  8
0
 62
     6
 10
23.000001999999991
 20
102.157944
 30
0.0
 11
29.000001999999999
 21
96.157935999999992
 31
0.0
  0
LINE
  5
838
  8
0
 62
     6
 10
23.000001999999991
 20
104.2792589999999
 30
0.0
 11
29.000001999999999
 21
98.279258999999996
 31
0.0
  0
LINE
  5
839
  8
0
 62
     6
 10
23.000001999999991
 20
106.400581
 30
0.0
 11
29.000001999999999
 21
100.40057399999991
 31
0.0
  0
LINE
  5
83A
  8
0
 62
     6
 10
23.000001999999991
 20
108.52190400000001
 30
0.0
 11
29.000001999999999
 21
102.5218959999999
 31
0.0
  0
LINE
  5
83B
  8
0
 62
     6
 10
23.000001999999991
 20
110.6432269999999
 30
0.0
 11
29.000001999999999
 21
104.6432189999999
 31
0.0
  0
LINE
  5
83C
  8
0
 62
     6
 10
23.000001999999991
 20
112.764549
 30
0.0
 11
29.000001999999999
 21
106.76454199999991
 31
0.0
  0
LINE
  5
83D
  8
0
 62
     6
 10
24.635870000000001
 20
113.25
 30
0.0
 11
29.000001999999999
 21
108.8858639999999
 31
0.0
  0
LINE
  5
83E
  8
0
 62
     6
 10
26.757189
 20
113.25
 30
0.0
 11
29.000001999999999
 21
111.007187
 31
0.0
  0
LINE
  5
83F
  8
0
 62
     6
 10
28.878508
 20
113.25
 30
0.0
 11
29.000001999999999
 21
113.12851000000001
 31
0.0
  0
ENDBLK
  5
840
  8
0
  0
BLOCK
  8
0
  2
BLOCK86
 70
     0
 10
0.0
 20
0.0
 30
0.0
  3
BLOCK86
  1

  0
LINE
  5
842
  8
0
 62
     6
 10
23.000001999999991
 20
123.3711549999999
 30
0.0
 11
24.621154999999991
 21
121.75
 31
0.0
  0
LINE
  5
843
  8
0
 62
     6
 10
23.000001999999991
 20
125.49247699999999
 30
0.0
 11
26.742476
 21
121.75
 31
0.0
  0
LINE
  5
844
  8
0
 62
     6
 10
23.000001999999991
 20
127.6137999999999
 30
0.0
 11
28.863793999999999
 21
121.75
 31
0.0
  0
LINE
  5
845
  8
0
 62
     6
 10
23.000001999999991
 20
129.7351229999999
 30
0.0
 11
29.000001999999999
 21
123.73511499999999
 31
0.0
  0
LINE
  5
846
  8
0
 62
     6
 10
24.856441
 20
130.0
 30
0.0
 11
29.000001999999999
 21
125.8564379999999
 31
0.0
  0
LINE
  5
847
  8
0
 62
     6
 10
26.977759999999989
 20
130.0
 30
0.0
 11
29.000001999999999
 21
127.97775300000001
 31
0.0
  0
ENDBLK
  5
848
  8
0
  0
ENDSEC
  0
SECTION
  2
ENTITIES
  0
LINE
  5
25
  8
0
  6
DASHDOT
 62
     7
 10
528.62054399999988
 20
715.59276199999988
 30
0.0
 11
528.62054399999988
 21
472.71013299999993
 31
0.0
  0
LINE
  5
26
  8
0
  6
DASHDOT
 62
     7
 10
642.82468399999993
 20
599.02178600000002
 30
0.0
 11
421.44544999999999
 21
599.02178600000002
 31
0.0
  0
LINE
  5
27
  8
0
  6
DASHDOT
 62
     7
 10
546.12054399999988
 20
681.75134700000001
 30
0.0
 11
546.12054399999988
 21
513.95434999999998
 31
0.0
  0
POLYLINE
  5
28
  8
0
 62
     3
 66
     1
 10
0.0
 20
0.0
 30
0.0
  0
VERTEX
  5
8B3
  8
0
 62
     3
 10
576.120544
 20
709.95252600000003
 30
0.0
  0
VERTEX
  5
8B4
  8
0
 62
     3
 10
576.120544
 20
693.95252600000003
 30
0.0
  0
VERTEX
  5
8B5
  8
0
 62
     3
 10
578.12054399999988
 20
692.95252600000003
 30
0.0
  0
VERTEX
  5
8B6
  8
0
 62
     3
 10
574.12054399999988
 20
691.95252600000003
 30
0.0
  0
VERTEX
  5
8B7
  8
0
 62
     3
 10
576.120544
 20
690.95252600000003
 30
0.0
  0
VERTEX
  5
8B8
  8
0
 62
     3
 10
576.120544
 20
674.95252600000003
 30
0.0
  0
VERTEX
  5
8B9
  8
0
 62
     3
 10
578.12054399999988
 20
673.95252600000003
 30
0.0
  0
VERTEX
  5
8BA
  8
0
 62
     3
 10
574.12054399999988
 20
672.95252600000003
 30
0.0
  0
VERTEX
  5
8BB
  8
0
 62
     3
 10
576.120544
 20
671.95252600000003
 30
0.0
  0
VERTEX
  5
8BC
  8
0
 62
     3
 10
576.120544
 20
655.95252600000003
 30
0.0
  0
VERTEX
  5
8BD
  8
0
 62
     3
 10
578.12054399999988
 20
654.95252600000003
 30
0.0
  0
VERTEX
  5
8BE
  8
0
 62
     3
 10
574.12054399999988
 20
653.95252600000003
 30
0.0
  0
VERTEX
  5
8BF
  8
0
 62
     3
 10
576.120544
 20
652.95252600000003
 30
0.0
  0
VERTEX
  5
8C0
  8
0
 62
     3
 10
576.120544
 20
636.95252600000003
 30
0.0
  0
VERTEX
  5
8C1
  8
0
 62
     3
 10
578.12054399999988
 20
635.95252600000003
 30
0.0
  0
VERTEX
  5
8C2
  8
0
 62
     3
 10
574.12054399999988
 20
634.95252600000003
 30
0.0
  0
VERTEX
  5
8C3
  8
0
 62
     3
 10
576.120544
 20
633.95252600000003
 30
0.0
  0
VERTEX
  5
8C4
  8
0
 62
     3
 10
576.120544
 20
617.95252600000003
 30
0.0
  0
VERTEX
  5
8C5
  8
0
 62
     3
 10
578.12054399999988
 20
616.95252600000003
 30
0.0
  0
VERTEX
  5
8C6
  8
0
 62
     3
 10
574.12054399999988
 20
615.95252600000003
 30
0.0
  0
VERTEX
  5
8C7
  8
0
 62
     3
 10
576.120544
 20
614.95252600000003
 30
0.0
  0
VERTEX
  5
8C8
  8
0
 62
     3
 10
576.120544
 20
598.95252600000003
 30
0.0
  0
VERTEX
  5
8C9
  8
0
 62
     3
 10
578.12054399999988
 20
597.95252600000003
 30
0.0
  0
VERTEX
  5
8CA
  8
0
 62
     3
 10
574.12054399999988
 20
596.95252600000003
 30
0.0
  0
VERTEX
  5
8CB
  8
0
 62
     3
 10
576.120544
 20
595.95252600000003
 30
0.0
  0
VERTEX
  5
8CC
  8
0
 62
     3
 10
576.120544
 20
579.95252600000003
 30
0.0
  0
VERTEX
  5
8CD
  8
0
 62
     3
 10
578.12054399999988
 20
578.95252600000003
 30
0.0
  0
VERTEX
  5
8CE
  8
0
 62
     3
 10
574.12054399999988
 20
577.95252600000003
 30
0.0
  0
VERTEX
  5
8CF
  8
0
 62
     3
 10
576.120544
 20
576.95252600000003
 30
0.0
  0
VERTEX
  5
8D0
  8
0
 62
     3
 10
576.120544
 20
560.95252600000003
 30
0.0
  0
VERTEX
  5
8D1
  8
0
 62
     3
 10
578.12054399999988
 20
559.95252600000003
 30
0.0
  0
VERTEX
  5
8D2
  8
0
 62
     3
 10
574.12054399999988
 20
558.95252600000003
 30
0.0
  0
VERTEX
  5
8D3
  8
0
 62
     3
 10
576.120544
 20
557.95252600000003
 30
0.0
  0
VERTEX
  5
8D4
  8
0
 62
     3
 10
576.120544
 20
541.95252600000003
 30
0.0
  0
VERTEX
  5
8D5
  8
0
 62
     3
 10
578.12054399999988
 20
540.95252600000003
 30
0.0
  0
VERTEX
  5
8D6
  8
0
 62
     3
 10
574.12054399999988
 20
539.95252600000003
 30
0.0
  0
VERTEX
  5
8D7
  8
0
 62
     3
 10
576.120544
 20
538.95252600000003
 30
0.0
  0
VERTEX
  5
8D8
  8
0
 62
     3
 10
576.120544
 20
522.95252600000003
 30
0.0
  0
VERTEX
  5
8D9
  8
0
 62
     3
 10
578.12054399999988
 20
521.95252600000003
 30
0.0
  0
VERTEX
  5
8DA
  8
0
 62
     3
 10
574.12054399999988
 20
520.95252600000003
 30
0.0
  0
VERTEX
  5
8DB
  8
0
 62
     3
 10
576.120544
 20
519.95252600000003
 30
0.0
  0
VERTEX
  5
8DC
  8
0
 62
     3
 10
576.120544
 20
503.95252599999992
 30
0.0
  0
VERTEX
  5
8DD
  8
0
 62
     3
 10
578.12054399999988
 20
502.95252599999992
 30
0.0
  0
VERTEX
  5
8DE
  8
0
 62
     3
 10
574.12054399999988
 20
501.95252599999992
 30
0.0
  0
VERTEX
  5
8DF
  8
0
 62
     3
 10
576.120544
 20
500.95252599999998
 30
0.0
  0
VERTEX
  5
8E0
  8
0
 62
     3
 10
576.120544
 20
487.51575100000002
 30
0.0
  0
SEQEND
  5
8E1
  8
0
 62
     3
  0
POLYLINE
  5
58
  8
0
 62
     3
 66
     1
 10
0.0
 20
0.0
 30
0.0
  0
VERTEX
  5
8E2
  8
0
 62
     3
 10
589.24244699999986
 20
499.52178600000002
 30
0.0
  0
VERTEX
  5
8E3
  8
0
 62
     3
 10
573.24244699999986
 20
499.52178600000002
 30
0.0
  0
VERTEX
  5
8E4
  8
0
 62
     3
 10
572.24244699999986
 20
497.52178599999991
 30
0.0
  0
VERTEX
  5
8E5
  8
0
 62
     3
 10
571.24244699999997
 20
501.52178599999991
 30
0.0
  0
VERTEX
  5
8E6
  8
0
 62
     3
 10
570.24244699999986
 20
499.52178600000002
 30
0.0
  0
VERTEX
  5
8E7
  8
0
 62
     3
 10
554.24244699999986
 20
499.52178600000002
 30
0.0
  0
VERTEX
  5
8E8
  8
0
 62
     3
 10
553.24244699999986
 20
497.52178599999991
 30
0.0
  0
VERTEX
  5
8E9
  8
0
 62
     3
 10
552.24244699999986
 20
501.52178599999991
 30
0.0
  0
VERTEX
  5
8EA
  8
0
 62
     3
 10
551.24244699999997
 20
499.52178600000002
 30
0.0
  0
VERTEX
  5
8EB
  8
0
 62
     3
 10
535.24244699999986
 20
499.52178600000002
 30
0.0
  0
VERTEX
  5
8EC
  8
0
 62
     3
 10
534.24244699999997
 20
497.52178599999991
 30
0.0
  0
VERTEX
  5
8ED
  8
0
 62
     3
 10
533.24244699999986
 20
501.52178599999991
 30
0.0
  0
VERTEX
  5
8EE
  8
0
 62
     3
 10
532.24244699999986
 20
499.52178600000002
 30
0.0
  0
VERTEX
  5
8EF
  8
0
 62
     3
 10
516.24244699999986
 20
499.52178600000002
 30
0.0
  0
VERTEX
  5
8F0
  8
0
 62
     3
 10
515.24244699999986
 20
497.52178599999991
 30
0.0
  0
VERTEX
  5
8F1
  8
0
 62
     3
 10
514.24244699999986
 20
501.52178599999991
 30
0.0
  0
VERTEX
  5
8F2
  8
0
 62
     3
 10
513.24244699999997
 20
499.52178600000002
 30
0.0
  0
VERTEX
  5
8F3
  8
0
 62
     3
 10
497.24244699999991
 20
499.52178600000002
 30
0.0
  0
VERTEX
  5
8F4
  8
0
 62
     3
 10
496.24244700000003
 20
497.52178599999991
 30
0.0
  0
VERTEX
  5
8F5
  8
0
 62
     3
 10
495.24244699999991
 20
501.52178599999991
 30
0.0
  0
VERTEX
  5
8F6
  8
0
 62
     3
 10
494.24244699999991
 20
499.52178600000002
 30
0.0
  0
VERTEX
  5
8F7
  8
0
 62
     3
 10
478.24244699999991
 20
499.52178600000002
 30
0.0
  0
VERTEX
  5
8F8
  8
0
 62
     3
 10
477.24244699999991
 20
497.52178599999991
 30
0.0
  0
VERTEX
  5
8F9
  8
0
 62
     3
 10
476.24244700000003
 20
501.52178599999991
 30
0.0
  0
VERTEX
  5
8FA
  8
0
 62
     3
 10
475.24244700000003
 20
499.52178600000002
 30
0.0
  0
VERTEX
  5
8FB
  8
0
 62
     3
 10
459.24244700000003
 20
499.52178600000002
 30
0.0
  0
VERTEX
  5
8FC
  8
0
 62
     3
 10
458.24244699999991
 20
497.52178599999991
 30
0.0
  0
VERTEX
  5
8FD
  8
0
 62
     3
 10
457.24244699999991
 20
501.52178599999991
 30
0.0
  0
VERTEX
  5
8FE
  8
0
 62
     3
 10
456.24244699999991
 20
499.52178600000002
 30
0.0
  0
VERTEX
  5
8FF
  8
0
 62
     3
 10
440.59920499999998
 20
499.52178600000002
 30
0.0
  0
SEQEND
  5
900
  8
0
 62
     3
  0
LINE
  5
78
  8
0
  6
DASHDOT
 62
     7
 10
364.70049999999998
 20
599.02178600000002
 30
0.0
 11
327.99031099999991
 21
599.02178600000002
 31
0.0
  0
LINE
  5
79
  8
0
  6
DASHDOT
 62
     7
 10
476.120544
 20
680.34128999999996
 30
0.0
 11
476.120544
 21
512.89680899999985
 31
0.0
  0
POLYLINE
  5
7A
  8
0
 62
     3
 66
     1
 10
0.0
 20
0.0
 30
0.0
  0
VERTEX
  5
901
  8
0
 62
     3
 10
446.120544
 20
710.33594100000005
 30
0.0
  0
VERTEX
  5
902
  8
0
 62
     3
 10
446.120544
 20
694.33594100000005
 30
0.0
  0
VERTEX
  5
903
  8
0
 62
     3
 10
448.120544
 20
693.33594100000005
 30
0.0
  0
VERTEX
  5
904
  8
0
 62
     3
 10
444.120544
 20
692.33594100000005
 30
0.0
  0
VERTEX
  5
905
  8
0
 62
     3
 10
446.120544
 20
691.33594100000005
 30
0.0
  0
VERTEX
  5
906
  8
0
 62
     3
 10
446.120544
 20
675.33594100000005
 30
0.0
  0
VERTEX
  5
907
  8
0
 62
     3
 10
448.120544
 20
674.33594100000005
 30
0.0
  0
VERTEX
  5
908
  8
0
 62
     3
 10
444.120544
 20
673.33594100000005
 30
0.0
  0
VERTEX
  5
909
  8
0
 62
     3
 10
446.120544
 20
672.33594100000005
 30
0.0
  0
VERTEX
  5
90A
  8
0
 62
     3
 10
446.120544
 20
656.33594100000005
 30
0.0
  0
VERTEX
  5
90B
  8
0
 62
     3
 10
448.120544
 20
655.33594100000005
 30
0.0
  0
VERTEX
  5
90C
  8
0
 62
     3
 10
444.120544
 20
654.33594100000005
 30
0.0
  0
VERTEX
  5
90D
  8
0
 62
     3
 10
446.120544
 20
653.33594100000005
 30
0.0
  0
VERTEX
  5
90E
  8
0
 62
     3
 10
446.120544
 20
637.33594100000005
 30
0.0
  0
VERTEX
  5
90F
  8
0
 62
     3
 10
448.120544
 20
636.33594100000005
 30
0.0
  0
VERTEX
  5
910
  8
0
 62
     3
 10
444.120544
 20
635.33594100000005
 30
0.0
  0
VERTEX
  5
911
  8
0
 62
     3
 10
446.120544
 20
634.33594100000005
 30
0.0
  0
VERTEX
  5
912
  8
0
 62
     3
 10
446.120544
 20
618.33594100000005
 30
0.0
  0
VERTEX
  5
913
  8
0
 62
     3
 10
448.120544
 20
617.33594299999993
 30
0.0
  0
VERTEX
  5
914
  8
0
 62
     3
 10
444.120544
 20
616.33594299999993
 30
0.0
  0
VERTEX
  5
915
  8
0
 62
     3
 10
446.120544
 20
615.33594100000005
 30
0.0
  0
VERTEX
  5
916
  8
0
 62
     3
 10
446.120544
 20
599.33594200000005
 30
0.0
  0
VERTEX
  5
917
  8
0
 62
     3
 10
448.120544
 20
598.33594200000005
 30
0.0
  0
VERTEX
  5
918
  8
0
 62
     3
 10
444.120544
 20
597.33594200000005
 30
0.0
  0
VERTEX
  5
919
  8
0
 62
     3
 10
446.120544
 20
596.33594200000005
 30
0.0
  0
VERTEX
  5
91A
  8
0
 62
     3
 10
446.120544
 20
580.33594100000005
 30
0.0
  0
VERTEX
  5
91B
  8
0
 62
     3
 10
448.120544
 20
579.33594299999993
 30
0.0
  0
VERTEX
  5
91C
  8
0
 62
     3
 10
444.120544
 20
578.33594299999993
 30
0.0
  0
VERTEX
  5
91D
  8
0
 62
     3
 10
446.120544
 20
577.33594100000005
 30
0.0
  0
VERTEX
  5
91E
  8
0
 62
     3
 10
446.120544
 20
561.33594100000005
 30
0.0
  0
VERTEX
  5
91F
  8
0
 62
     3
 10
448.120544
 20
560.33594100000005
 30
0.0
  0
VERTEX
  5
920
  8
0
 62
     3
 10
444.120544
 20
559.33594100000005
 30
0.0
  0
VERTEX
  5
921
  8
0
 62
     3
 10
446.120544
 20
558.33594100000005
 30
0.0
  0
VERTEX
  5
922
  8
0
 62
     3
 10
446.120544
 20
542.33594100000005
 30
0.0
  0
VERTEX
  5
923
  8
0
 62
     3
 10
448.120544
 20
541.33594100000005
 30
0.0
  0
VERTEX
  5
924
  8
0
 62
     3
 10
444.120544
 20
540.33594100000005
 30
0.0
  0
VERTEX
  5
925
  8
0
 62
     3
 10
446.120544
 20
539.33594100000005
 30
0.0
  0
VERTEX
  5
926
  8
0
 62
     3
 10
446.120544
 20
523.33594100000005
 30
0.0
  0
VERTEX
  5
927
  8
0
 62
     3
 10
448.120544
 20
522.33594100000005
 30
0.0
  0
VERTEX
  5
928
  8
0
 62
     3
 10
444.120544
 20
521.33594100000005
 30
0.0
  0
VERTEX
  5
929
  8
0
 62
     3
 10
446.120544
 20
520.33594100000005
 30
0.0
  0
VERTEX
  5
92A
  8
0
 62
     3
 10
446.120544
 20
504.33594099999988
 30
0.0
  0
VERTEX
  5
92B
  8
0
 62
     3
 10
448.120544
 20
503.33594099999999
 30
0.0
  0
VERTEX
  5
92C
  8
0
 62
     3
 10
444.120544
 20
502.33594099999999
 30
0.0
  0
VERTEX
  5
92D
  8
0
 62
     3
 10
446.120544
 20
501.33594099999988
 30
0.0
  0
VERTEX
  5
92E
  8
0
 62
     3
 10
446.120544
 20
487.61560400000002
 30
0.0
  0
SEQEND
  5
92F
  8
0
 62
     3
  0
POLYLINE
  5
AA
  8
0
 62
     3
 66
     1
 10
0.0
 20
0.0
 30
0.0
  0
VERTEX
  5
930
  8
0
 62
     3
 10
579.9323730000001
 20
704.59244200000001
 30
0.0
  0
VERTEX
  5
931
  8
0
 62
     3
 10
563.93237299999998
 20
704.59244200000001
 30
0.0
  0
VERTEX
  5
932
  8
0
 62
     3
 10
562.9323730000001
 20
702.59244199999989
 30
0.0
  0
VERTEX
  5
933
  8
0
 62
     3
 10
561.9323730000001
 20
706.59244199999989
 30
0.0
  0
VERTEX
  5
934
  8
0
 62
     3
 10
560.93237299999998
 20
704.59244200000001
 30
0.0
  0
VERTEX
  5
935
  8
0
 62
     3
 10
544.9323730000001
 20
704.59244200000001
 30
0.0
  0
VERTEX
  5
936
  8
0
 62
     3
 10
543.93237299999998
 20
702.59244199999989
 30
0.0
  0
VERTEX
  5
937
  8
0
 62
     3
 10
542.9323730000001
 20
706.59244199999989
 30
0.0
  0
VERTEX
  5
938
  8
0
 62
     3
 10
541.9323730000001
 20
704.59244200000001
 30
0.0
  0
VERTEX
  5
939
  8
0
 62
     3
 10
525.9323730000001
 20
704.59244200000001
 30
0.0
  0
VERTEX
  5
93A
  8
0
 62
     3
 10
524.9323730000001
 20
702.59244199999989
 30
0.0
  0
VERTEX
  5
93B
  8
0
 62
     3
 10
523.9323730000001
 20
706.59244199999989
 30
0.0
  0
VERTEX
  5
93C
  8
0
 62
     3
 10
522.93237299999998
 20
704.59244200000001
 30
0.0
  0
VERTEX
  5
93D
  8
0
 62
     3
 10
506.93237299999998
 20
704.59244200000001
 30
0.0
  0
VERTEX
  5
93E
  8
0
 62
     3
 10
505.93237299999998
 20
702.59244199999989
 30
0.0
  0
VERTEX
  5
93F
  8
0
 62
     3
 10
504.93237299999998
 20
706.59244199999989
 30
0.0
  0
VERTEX
  5
940
  8
0
 62
     3
 10
503.93237299999998
 20
704.59244200000001
 30
0.0
  0
VERTEX
  5
941
  8
0
 62
     3
 10
487.93237299999998
 20
704.59244200000001
 30
0.0
  0
VERTEX
  5
942
  8
0
 62
     3
 10
486.93237299999998
 20
702.59244199999989
 30
0.0
  0
VERTEX
  5
943
  8
0
 62
     3
 10
485.93237299999998
 20
706.59244199999989
 30
0.0
  0
VERTEX
  5
944
  8
0
 62
     3
 10
484.93237299999998
 20
704.59244200000001
 30
0.0
  0
VERTEX
  5
945
  8
0
 62
     3
 10
468.93237299999998
 20
704.59244200000001
 30
0.0
  0
VERTEX
  5
946
  8
0
 62
     3
 10
467.93237299999998
 20
702.59244199999989
 30
0.0
  0
VERTEX
  5
947
  8
0
 62
     3
 10
466.93237299999998
 20
706.59244199999989
 30
0.0
  0
VERTEX
  5
948
  8
0
 62
     3
 10
465.93237299999998
 20
704.59244200000001
 30
0.0
  0
VERTEX
  5
949
  8
0
 62
     3
 10
449.93237299999998
 20
704.59244200000001
 30
0.0
  0
VERTEX
  5
94A
  8
0
 62
     3
 10
448.93237299999998
 20
702.59244199999989
 30
0.0
  0
VERTEX
  5
94B
  8
0
 62
     3
 10
447.93237299999998
 20
706.59244199999989
 30
0.0
  0
VERTEX
  5
94C
  8
0
 62
     3
 10
446.93237299999998
 20
704.59244200000001
 30
0.0
  0
VERTEX
  5
94D
  8
0
 62
     3
 10
439.53559100000001
 20
704.59244200000001
 30
0.0
  0
SEQEND
  5
94E
  8
0
 62
     3
  0
CIRCLE
  5
CA
  8
0
 62
   150
 10
476.120544
 20
670.77178600000002
 30
0.0
 40
2.75
  0
CIRCLE
  5
CB
  8
0
 62
   150
 10
546.12054399999988
 20
670.77178600000002
 30
0.0
 40
2.75
  0
CIRCLE
  5
CC
  8
0
 62
   150
 10
546.12054399999988
 20
531.77178600000002
 30
0.0
 40
2.75
  0
CIRCLE
  5
CD
  8
0
 62
   150
 10
476.120544
 20
531.77178600000002
 30
0.0
 40
2.75
  0
LINE
  5
CE
  8
0
  6
DASHDOT
 62
   150
 10
546.12054399999988
 20
678.52178600000002
 30
0.0
 11
546.12054399999988
 21
663.02178600000002
 31
0.0
  0
LINE
  5
CF
  8
0
  6
DASHDOT
 62
   150
 10
553.870544
 20
670.77178600000002
 30
0.0
 11
538.37054399999988
 21
670.77178600000002
 31
0.0
  0
LINE
  5
D0
  8
0
  6
DASHDOT
 62
   150
 10
476.120544
 20
678.52178600000002
 30
0.0
 11
476.120544
 21
663.02178600000002
 31
0.0
  0
LINE
  5
D1
  8
0
  6
DASHDOT
 62
   150
 10
483.870544
 20
670.77178600000002
 30
0.0
 11
468.370544
 21
670.77178600000002
 31
0.0
  0
LINE
  5
D2
  8
0
  6
DASHDOT
 62
   150
 10
476.120544
 20
539.52178600000002
 30
0.0
 11
476.120544
 21
524.02178600000002
 31
0.0
  0
LINE
  5
D3
  8
0
  6
DASHDOT
 62
   150
 10
483.870544
 20
531.77178600000002
 30
0.0
 11
468.370544
 21
531.77178600000002
 31
0.0
  0
LINE
  5
D4
  8
0
  6
DASHDOT
 62
   150
 10
546.12054399999988
 20
539.52178600000002
 30
0.0
 11
546.12054399999988
 21
524.02178600000002
 31
0.0
  0
LINE
  5
D5
  8
0
  6
DASHDOT
 62
   150
 10
553.870544
 20
531.77178600000002
 30
0.0
 11
538.37054399999988
 21
531.77178600000002
 31
0.0
  0
CIRCLE
  5
D6
  8
0
 62
     7
 10
457.17774200000002
 20
690.16239500000006
 30
0.0
 40
0.35
  0
LINE
  5
D7
  8
0
 62
     7
 10
528.62054399999988
 20
459.96166599999998
 30
0.0
 11
540.43817100000001
 21
457.877926
 31
0.0
  0
LINE
  5
D8
  8
0
 62
     7
 10
528.62054399999988
 20
459.96166599999998
 30
0.0
 11
540.43817100000001
 21
462.04546699999992
 31
0.0
  0
LINE
  5
D9
  8
0
 62
     7
 10
476.120544
 20
459.96166599999998
 30
0.0
 11
464.30291699999998
 21
462.04546699999992
 31
0.0
  0
LINE
  5
DA
  8
0
 62
     7
 10
476.120544
 20
459.96166599999998
 30
0.0
 11
464.30291699999998
 21
457.877926
 31
0.0
  0
LINE
  5
DB
  8
0
 62
     7
 10
584.620544
 20
459.96166599999998
 30
0.0
 11
476.120544
 21
459.96166599999998
 31
0.0
  0
LINE
  5
DC
  8
0
 62
     7
 10
528.62054399999988
 20
451.96166599999998
 30
0.0
 11
528.62054399999988
 21
472.71014000000002
 31
0.0
  0
LINE
  5
DD
  8
0
 62
     7
 10
476.120544
 20
451.96166599999998
 30
0.0
 11
476.120544
 21
512.89678600000002
 31
0.0
  0
LINE
  5
DE
  8
0
 62
     7
 10
546.12054399999988
 20
732.24633399999993
 30
0.0
 11
557.9381709999999
 21
730.16256299999998
 31
0.0
  0
LINE
  5
DF
  8
0
 62
     7
 10
546.12054399999988
 20
732.24633399999993
 30
0.0
 11
557.9381709999999
 21
734.33013499999993
 31
0.0
  0
LINE
  5
E0
  8
0
 62
     7
 10
528.62054399999988
 20
732.24633399999993
 30
0.0
 11
516.80291699999987
 21
734.33013499999993
 31
0.0
  0
LINE
  5
E1
  8
0
 62
     7
 10
528.62054399999988
 20
732.24633399999993
 30
0.0
 11
516.80291699999987
 21
730.16256299999998
 31
0.0
  0
LINE
  5
E2
  8
0
 62
     7
 10
602.120544
 20
732.24633399999993
 30
0.0
 11
528.62054399999988
 21
732.24633399999993
 31
0.0
  0
LINE
  5
E3
  8
0
 62
     7
 10
546.12054399999988
 20
740.24633399999993
 30
0.0
 11
546.12054399999988
 21
681.75136900000007
 31
0.0
  0
LINE
  5
E4
  8
0
 62
     7
 10
528.62054399999988
 20
740.24633399999993
 30
0.0
 11
528.62054399999988
 21
715.59276999999986
 31
0.0
  0
LINE
  5
E5
  8
0
 62
     5
 10
620.12933299999986
 20
670.77178600000002
 30
0.0
 11
618.04559299999994
 21
658.95409800000004
 31
0.0
  0
LINE
  5
E6
  8
0
 62
     5
 10
620.12933299999986
 20
670.77178600000002
 30
0.0
 11
622.21307399999989
 21
658.95409800000004
 31
0.0
  0
LINE
  5
E7
  8
0
 62
     5
 10
620.12933299999986
 20
599.02178600000002
 30
0.0
 11
622.21307399999989
 21
610.839474
 31
0.0
  0
LINE
  5
E8
  8
0
 62
     5
 10
620.12933299999986
 20
599.02178600000002
 30
0.0
 11
618.04559299999994
 21
610.839474
 31
0.0
  0
LINE
  5
E9
  8
0
 62
     5
 10
620.12933299999986
 20
670.77178600000002
 30
0.0
 11
620.12933299999986
 21
599.02178600000002
 31
0.0
  0
LINE
  5
EA
  8
0
 62
     5
 10
628.12933299999986
 20
670.77178600000002
 30
0.0
 11
468.370544
 21
670.77178600000002
 31
0.0
  0
LINE
  5
EB
  8
0
 62
     5
 10
628.12933299999986
 20
599.02178600000002
 30
0.0
 11
421.44549599999999
 21
599.02178600000002
 31
0.0
  0
LINE
  5
EC
  8
0
 62
     5
 10
395.03533900000002
 20
670.77178600000002
 30
0.0
 11
392.95135499999992
 21
658.95409800000004
 31
0.0
  0
LINE
  5
ED
  8
0
 62
     5
 10
395.03533900000002
 20
670.77178600000002
 30
0.0
 11
397.11908
 21
658.95409800000004
 31
0.0
  0
LINE
  5
EE
  8
0
 62
     5
 10
395.03533900000002
 20
531.77178600000002
 30
0.0
 11
397.11908
 21
543.589474
 31
0.0
  0
LINE
  5
EF
  8
0
 62
     5
 10
395.03533900000002
 20
531.77178600000002
 30
0.0
 11
392.95135499999992
 21
543.589474
 31
0.0
  0
LINE
  5
F0
  8
0
 62
     5
 10
395.03533900000002
 20
670.77178600000002
 30
0.0
 11
395.03533900000002
 21
531.77178600000002
 31
0.0
  0
LINE
  5
F1
  8
0
 62
     5
 10
387.03533900000002
 20
670.77178600000002
 30
0.0
 11
468.370544
 21
670.77178600000002
 31
0.0
  0
LINE
  5
F2
  8
0
 62
     5
 10
387.03533900000002
 20
531.77178600000002
 30
0.0
 11
468.370544
 21
531.77178600000002
 31
0.0
  0
LINE
  5
F3
  8
0
 62
     5
 10
548.85711700000002
 20
532.04394100000002
 30
0.0
 11
560.82293700000002
 21
531.13998000000004
 31
0.0
  0
LINE
  5
F4
  8
0
 62
     5
 10
548.85711700000002
 20
532.04394100000002
 30
0.0
 11
560.41058299999986
 21
535.28707499999996
 31
0.0
  0
LINE
  5
F5
  8
0
 62
     5
 10
543.38397199999986
 20
531.49963000000002
 30
0.0
 11
531.41815199999985
 21
532.40359100000001
 31
0.0
  0
LINE
  5
F6
  8
0
 62
     5
 10
543.38397199999986
 20
531.49963000000002
 30
0.0
 11
531.83050500000002
 21
528.25649599999997
 31
0.0
  0
LINE
  5
F7
  8
0
 62
     5
 10
543.38397199999986
 20
531.49963000000002
 30
0.0
 11
697.27020300000004
 21
546.80447000000004
 31
0.0
  0
LINE
  5
F8
  8
0
 62
     7
 10
-188.15220999999991
 20
686.27177800000004
 30
0.0
 11
-189.83404899999999
 21
686.27177800000004
 31
0.0
  0
LINE
  5
F9
  8
0
 62
     7
 10
-224.084047
 20
683.47177499999998
 30
0.0
 11
-224.084047
 21
685.27177800000004
 31
0.0
  0
LINE
  5
FA
  8
0
 62
     7
 10
-224.084047
 20
683.47177499999998
 30
0.0
 11
-226.584047
 21
683.47177499999998
 31
0.0
  0
LINE
  5
FB
  8
0
 62
     7
 10
-226.58405899999991
 20
519.071777
 30
0.0
 11
-226.58405899999991
 21
683.47177499999998
 31
0.0
  0
LINE
  5
FC
  8
0
 62
     7
 10
-224.084047
 20
519.071777
 30
0.0
 11
-226.584047
 21
519.071777
 31
0.0
  0
LINE
  5
FD
  8
0
 62
     7
 10
-224.084047
 20
517.27177800000004
 30
0.0
 11
-224.084047
 21
519.071777
 31
0.0
  0
LINE
  5
FE
  8
0
 62
     7
 10
-158.33404899999991
 20
516.27177800000004
 30
0.0
 11
-189.83404899999999
 21
516.27177800000004
 31
0.0
  0
LINE
  5
FF
  8
0
 62
     7
 10
-123.33398099999999
 20
516.27177800000004
 30
0.0
 11
-154.83404899999999
 21
516.27177800000004
 31
0.0
  0
LINE
  5
100
  8
0
 62
     7
 10
-90.084042000000011
 20
516.27177800000004
 30
0.0
 11
-119.83398099999999
 21
516.27177800000004
 31
0.0
  0
LINE
  5
101
  8
0
 62
     7
 10
-89.084042000000011
 20
517.27177800000004
 30
0.0
 11
-89.084042000000011
 21
518.52179000000001
 31
0.0
  0
LINE
  5
102
  8
0
 62
     7
 10
-217.334045
 20
662.02177800000004
 30
0.0
 11
-217.334045
 21
666.27177800000004
 31
0.0
  0
LINE
  5
103
  8
0
 62
     7
 10
-221.084045
 20
670.02177800000004
 30
0.0
 11
-224.084047
 21
670.02177800000004
 31
0.0
  0
LINE
  5
104
  8
0
 62
     7
 10
-224.0840529999999
 20
670.02177800000004
 30
0.0
 11
-224.0840529999999
 21
683.47177499999998
 31
0.0
  0
LINE
  5
105
  8
0
 62
     7
 10
-217.334045
 20
536.27177800000004
 30
0.0
 11
-217.334045
 21
540.27177800000004
 31
0.0
  0
LINE
  5
106
  8
0
 62
     7
 10
-197.5840189999999
 20
540.27177800000004
 30
0.0
 11
-217.334045
 21
540.27177800000004
 31
0.0
  0
LINE
  5
107
  8
0
 62
     7
 10
-221.084045
 20
532.52177800000004
 30
0.0
 11
-224.084047
 21
532.52177800000004
 31
0.0
  0
LINE
  5
108
  8
0
 62
     7
 10
-224.084047
 20
519.071777
 30
0.0
 11
-224.084047
 21
532.52177800000004
 31
0.0
  0
LINE
  5
109
  8
0
 62
     7
 10
-104.584042
 20
540.27177800000004
 30
0.0
 11
-104.584042
 21
542.77177800000004
 31
0.0
  0
CIRCLE
  5
10A
  8
0
 62
     7
 10
-221.0840419999999
 20
666.27177800000004
 30
0.0
 40
1.750006
  0
ARC
  5
10B
  8
0
 62
     7
 10
-221.0840189999999
 20
666.27168700000004
 30
0.0
 40
3.749919999999999
 50
269.99955399999988
 51
90.000409000000005
  0
ARC
  5
10C
  8
0
 62
     7
 10
-223.08404400000001
 20
685.27177800000004
 30
0.0
 40
1.0000039999999999
 50
90.000046999999995
 51
180.00048100000001
  0
CIRCLE
  5
10D
  8
0
 62
     7
 10
-221.084045
 20
536.27178200000003
 30
0.0
 40
1.7499990000000001
  0
CIRCLE
  5
10E
  8
0
  6
DASHSPACE
 62
     7
 10
-174.084034
 20
528.77178200000003
 30
0.0
 40
5.4999969999999996
  0
CIRCLE
  5
10F
  8
0
  6
DASHSPACE
 62
     7
 10
-156.584034
 20
531.77178200000003
 30
0.0
 40
4.4999979999999997
  0
CIRCLE
  5
110
  8
0
  6
DASHSPACE
 62
     7
 10
-139.0840419999999
 20
528.77177800000004
 30
0.0
 40
5.4999969999999996
  0
ARC
  5
111
  8
0
 62
     7
 10
-223.084047
 20
517.27177800000004
 30
0.0
 40
1.0
 50
180.00000900000001
 51
269.99999100000002
  0
CIRCLE
  5
112
  8
0
  6
DASHSPACE
 62
     7
 10
-121.58402599999999
 20
531.77175499999998
 30
0.0
 40
4.4999789999999988
  0
CIRCLE
  5
113
  8
0
  6
DASHSPACE
 62
     7
 10
-104.08398099999999
 20
528.77165599999989
 30
0.0
 40
5.5001319999999989
  0
ARC
  5
114
  8
0
 62
     7
 10
-90.084042000000011
 20
517.27176899999995
 30
0.0
 40
0.9999900000000001
 50
269.999773
 51
0.000465
  0
LINE
  5
115
  8
0
  6
DASHDOT
 62
     7
 10
-221.0840189999999
 20
659.52177800000004
 30
0.0
 11
-221.0840189999999
 21
673.0216099999999
 31
0.0
  0
LINE
  5
116
  8
0
  6
DASHDOT
 62
     7
 10
-214.33409900000001
 20
666.27168700000004
 30
0.0
 11
-227.83393899999999
 21
666.27168700000004
 31
0.0
  0
LINE
  5
117
  8
0
  6
DASHDOT
 62
     7
 10
-174.084034
 20
520.27178400000003
 30
0.0
 11
-174.084034
 21
537.27177800000004
 31
0.0
  0
LINE
  5
118
  8
0
  6
DASHDOT
 62
     7
 10
-165.584034
 20
528.77178200000003
 30
0.0
 11
-182.58402599999991
 21
528.77178200000003
 31
0.0
  0
LINE
  5
119
  8
0
  6
DASHDOT
 62
     7
 10
-156.584034
 20
513.84460399999989
 30
0.0
 11
-156.584034
 21
539.27177800000004
 31
0.0
  0
LINE
  5
11A
  8
0
  6
DASHDOT
 62
     7
 10
-149.084034
 20
531.77178200000003
 30
0.0
 11
-164.084034
 21
531.77178200000003
 31
0.0
  0
LINE
  5
11B
  8
0
  6
DASHDOT
 62
     7
 10
-130.5840419999999
 20
528.77177800000004
 30
0.0
 11
-147.58403399999989
 21
528.77177800000004
 31
0.0
  0
LINE
  5
11C
  8
0
  6
DASHDOT
 62
     7
 10
-104.08398099999999
 20
520.27152399999989
 30
0.0
 11
-104.08398099999999
 21
537.27179000000001
 31
0.0
  0
LINE
  5
11D
  8
0
  6
DASHDOT
 62
     7
 10
-95.583843000000002
 20
528.77165599999989
 30
0.0
 11
-112.5841029999999
 21
528.77165599999989
 31
0.0
  0
LINE
  5
11E
  8
0
  6
DASHDOT
 62
     7
 10
-104.08402599999989
 20
515.87179000000003
 30
0.0
 11
-104.08402599999989
 21
524.67177600000002
 31
0.0
  0
LINE
  5
11F
  8
0
  6
DASHDOT
 62
     7
 10
-174.084034
 20
515.87177799999995
 30
0.0
 11
-174.084034
 21
524.6717799999999
 31
0.0
  0
CIRCLE
  5
120
  8
0
 62
     7
 10
-221.08404899999999
 20
536.27177400000005
 30
0.0
 40
3.7500010000000001
  0
LINE
  5
121
  8
0
  6
DASHDOT
 62
     7
 10
-221.08404899999999
 20
529.52177400000005
 30
0.0
 11
-221.08404899999999
 21
543.02177800000004
 31
0.0
  0
LINE
  5
122
  8
0
  6
DASHDOT
 62
     7
 10
-214.334045
 20
536.27177400000005
 30
0.0
 11
-227.83404899999999
 21
536.27177400000005
 31
0.0
  0
LINE
  5
123
  8
0
 62
     7
 10
-197.5840189999999
 20
541.02180099999998
 30
0.0
 11
-225.5840169999999
 21
541.02180099999998
 31
0.0
  0
LINE
  5
124
  8
0
 62
     3
 10
-87.084025999999994
 20
651.52177800000004
 30
0.0
 11
-191.0840189999999
 21
651.52177800000004
 31
0.0
  0
LINE
  5
125
  8
0
 62
     3
 10
-87.084025999999994
 20
546.52180099999998
 30
0.0
 11
-100.58402599999999
 21
546.52180099999998
 31
0.0
  0
LINE
  5
126
  8
0
 62
     3
 10
-112.08402599999999
 20
546.52180099999998
 30
0.0
 11
-136.634739
 21
546.52180099999998
 31
0.0
  0
LINE
  5
127
  8
0
 62
     3
 10
-177.5840189999999
 20
546.52180099999998
 30
0.0
 11
-191.0840189999999
 21
546.52180099999998
 31
0.0
  0
LINE
  5
128
  8
0
 62
     7
 10
-225.5840169999999
 20
541.02180099999998
 30
0.0
 11
-225.5840169999999
 21
542.02180099999998
 31
0.0
  0
LINE
  5
129
  8
0
 62
     7
 10
-197.5840189999999
 20
542.02180099999998
 30
0.0
 11
-226.58405899999991
 21
542.02180099999998
 31
0.0
  0
LINE
  5
12A
  8
0
 62
     3
 10
-166.0840189999999
 20
546.52180099999998
 30
0.0
 11
-177.5840189999999
 21
546.52180099999998
 31
0.0
  0
LINE
  5
12B
  8
0
 62
     3
 10
-100.58402599999999
 20
546.52180099999998
 30
0.0
 11
-112.08402599999999
 21
546.52180099999998
 31
0.0
  0
ARC
  5
12C
  8
0
 62
     3
 10
-191.0840189999999
 20
547.02180099999987
 30
0.0
 40
0.5
 50
180.00000299999991
 51
270.00000499999987
  0
ARC
  5
12D
  8
0
 62
     3
 10
-191.0840189999999
 20
651.02177800000004
 30
0.0
 40
0.5
 50
90.0
 51
180.00000299999991
  0
ARC
  5
12E
  8
0
 62
     3
 10
-87.084025999999994
 20
651.02177800000004
 30
0.0
 40
0.5
 50
0.000001
 51
90.0
  0
ARC
  5
12F
  8
0
 62
     3
 10
-87.084025999999994
 20
547.02180099999987
 30
0.0
 40
0.5
 50
270.00000499999987
 51
0.000001
  0
LINE
  5
130
  8
0
  6
DASHDOT
 62
     7
 10
-139.0840189999999
 20
637.47510099999988
 30
0.0
 11
-139.0840189999999
 21
666.38536499999998
 31
0.0
  0
LINE
  5
131
  8
0
 62
     3
 10
-141.533466
 20
546.52180099999998
 30
0.0
 11
-166.0840189999999
 21
546.52180099999998
 31
0.0
  0
LINE
  5
132
  8
0
 62
     7
 10
-166.584034
 20
546.52178600000002
 30
0.0
 11
-176.5840189999999
 21
546.52178600000002
 31
0.0
  0
LINE
  5
133
  8
0
 62
     7
 10
-101.584042
 20
546.52178600000002
 30
0.0
 11
-111.584042
 21
546.52178600000002
 31
0.0
  0
LINE
  5
134
  8
0
 62
     7
 10
-86.584011000000004
 20
547.02178599999991
 30
0.0
 11
-86.584011000000004
 21
565.02176999999995
 31
0.0
  0
LINE
  5
135
  8
0
 62
     7
 10
-191.5840189999999
 20
547.02178599999991
 30
0.0
 11
-191.5840189999999
 21
565.02176999999995
 31
0.0
  0
LINE
  5
136
  8
0
 62
     7
 10
-87.084011000000004
 20
651.52177800000004
 30
0.0
 11
-191.0840189999999
 21
651.52177800000004
 31
0.0
  0
LINE
  5
137
  8
0
 62
     7
 10
-176.5840189999999
 20
546.52178600000002
 30
0.0
 11
-191.5840189999999
 21
546.52178600000002
 31
0.0
  0
LINE
  5
138
  8
0
 62
     7
 10
-111.584042
 20
546.52178600000002
 30
0.0
 11
-166.584034
 21
546.52178600000002
 31
0.0
  0
LINE
  5
139
  8
0
 62
     7
 10
-87.084011000000004
 20
546.52178600000002
 30
0.0
 11
-101.584042
 21
546.52178600000002
 31
0.0
  0
LINE
  5
13A
  8
0
 62
     7
 10
-128.3340189999999
 20
568.77176999999995
 30
0.0
 11
-128.3340189999999
 21
608.77175499999987
 31
0.0
  0
LINE
  5
13B
  8
0
 62
     7
 10
-149.8340189999999
 20
568.77176999999995
 30
0.0
 11
-149.8340189999999
 21
608.77175499999987
 31
0.0
  0
LINE
  5
13C
  8
0
 62
     7
 10
-86.584011000000004
 20
639.521748
 30
0.0
 11
-191.5840189999999
 21
639.521748
 31
0.0
  0
LINE
  5
13D
  8
0
 62
     7
 10
-86.584011000000004
 20
649.52174799999989
 30
0.0
 11
-191.5840189999999
 21
649.52174799999989
 31
0.0
  0
LINE
  5
13E
  8
0
 62
     7
 10
-128.3340189999999
 20
608.50729000000001
 30
0.0
 11
-149.8340189999999
 21
608.50729000000001
 31
0.0
  0
LINE
  5
13F
  8
0
 62
     7
 10
-128.3340189999999
 20
608.77175499999987
 30
0.0
 11
-149.8340189999999
 21
608.77175499999987
 31
0.0
  0
LINE
  5
140
  8
0
 62
     7
 10
-128.3340189999999
 20
568.77176999999995
 30
0.0
 11
-149.8340189999999
 21
568.77176999999995
 31
0.0
  0
LINE
  5
141
  8
0
 62
     7
 10
-128.3340189999999
 20
569.03626599999996
 30
0.0
 11
-149.8340189999999
 21
569.03626599999996
 31
0.0
  0
LINE
  5
142
  8
0
  6
DASHDOT
 62
     7
 10
-139.0840189999999
 20
439.13748199999998
 30
0.0
 11
-139.0840189999999
 21
629.72418600000003
 31
0.0
  0
LINE
  5
143
  8
0
  6
DASHDOT
 62
     7
 10
-139.0840189999999
 20
628.95145000000002
 30
0.0
 11
-139.0840189999999
 21
777.96350499999994
 31
0.0
  0
LINE
  5
144
  8
0
 62
     7
 10
-86.584025999999994
 20
566.02176999999995
 30
0.0
 11
-86.584025999999994
 21
578.02176299999996
 31
0.0
  0
LINE
  5
145
  8
0
 62
     7
 10
-86.584025999999994
 20
547.01787899999999
 30
0.0
 11
-86.584025999999994
 21
652.02177800000004
 31
0.0
  0
LINE
  5
146
  8
0
 62
     7
 10
-86.584025999999994
 20
579.02176299999985
 30
0.0
 11
-86.584025999999994
 21
598.52176999999995
 31
0.0
  0
LINE
  5
147
  8
0
 62
     7
 10
-86.584025999999994
 20
599.52176999999995
 30
0.0
 11
-86.584025999999994
 21
611.52176999999995
 31
0.0
  0
LINE
  5
148
  8
0
 62
     7
 10
-191.5840189999999
 20
566.02176999999995
 30
0.0
 11
-191.5840189999999
 21
578.02176999999995
 31
0.0
  0
LINE
  5
149
  8
0
 62
     7
 10
-191.5840189999999
 20
579.02176999999995
 30
0.0
 11
-191.5840189999999
 21
598.52176999999995
 31
0.0
  0
LINE
  5
14A
  8
0
 62
     7
 10
-191.5840189999999
 20
599.52176999999995
 30
0.0
 11
-191.5840189999999
 21
611.52176999999995
 31
0.0
  0
LINE
  5
14B
  8
0
 62
     7
 10
-191.5840189999999
 20
546.52178600000002
 30
0.0
 11
-191.5840189999999
 21
651.02177800000004
 31
0.0
  0
ARC
  5
14C
  8
0
 62
     7
 10
-191.0840189999999
 20
547.02178599999991
 30
0.0
 40
0.5
 50
180.00000299999991
 51
270.00000499999987
  0
ARC
  5
14D
  8
0
 62
     7
 10
-87.084011000000004
 20
547.02178599999991
 30
0.0
 40
0.5
 50
270.00000499999987
 51
359.55237699999992
  0
ARC
  5
14E
  8
0
 62
     7
 10
-87.084011000000004
 20
651.02177800000004
 30
0.0
 40
0.5
 50
0.000001
 51
90.0
  0
ARC
  5
14F
  8
0
 62
     7
 10
-191.0840189999999
 20
651.02177800000004
 30
0.0
 40
0.5
 50
90.0
 51
180.00000299999991
  0
LINE
  5
150
  8
0
 62
     7
 10
-161.5840189999999
 20
610.02176999999995
 30
0.0
 11
-163.0840189999999
 21
610.02176999999995
 31
0.0
  0
LINE
  5
151
  8
0
 62
     7
 10
-161.5840189999999
 20
601.02176999999995
 30
0.0
 11
-163.0840189999999
 21
601.02176999999995
 31
0.0
  0
CIRCLE
  5
152
  8
0
 62
     7
 10
-162.3340189999999
 20
572.02176999999995
 30
0.0
 40
4.5
  0
CIRCLE
  5
153
  8
0
 62
     7
 10
-162.3340189999999
 20
572.02176999999995
 30
0.0
 40
3.0
  0
LINE
  5
154
  8
0
 62
     7
 10
-163.0840189999999
 20
601.02176999999995
 30
0.0
 11
-163.0840189999999
 21
610.02176999999995
 31
0.0
  0
LINE
  5
155
  8
0
 62
     7
 10
-161.5840189999999
 20
601.02176999999995
 30
0.0
 11
-161.5840189999999
 21
610.02176999999995
 31
0.0
  0
LINE
  5
156
  8
0
 62
     7
 10
-113.534023
 20
575.87176899999997
 30
0.0
 11
-113.98402
 21
575.87176899999997
 31
0.0
  0
LINE
  5
157
  8
0
 62
     7
 10
-114.4840199999999
 20
568.17177199999992
 30
0.0
 11
-115.284023
 21
568.17177199999992
 31
0.0
  0
LINE
  5
158
  8
0
 62
     7
 10
-121.6840319999999
 20
570.77176999999995
 30
0.0
 11
-121.6840319999999
 21
571.27176999999995
 31
0.0
  0
LINE
  5
159
  8
0
 62
     7
 10
-116.4840199999999
 20
570.77176999999995
 30
0.0
 11
-116.4840199999999
 21
571.27176999999995
 31
0.0
  0
ARC
  5
15A
  8
0
 62
     7
 10
-119.08402599999989
 20
571.27176999999995
 30
0.0
 40
2.6000000000000001
 50
0.000001
 51
180.00000299999991
  0
ARC
  5
15B
  8
0
 62
     7
 10
-119.08402599999989
 20
570.77176999999995
 30
0.0
 40
2.6000000000000001
 50
180.00000299999991
 51
0.000001
  0
ARC
  5
15C
  8
0
 62
     7
 10
-119.08402599999989
 20
571.27176999999995
 30
0.0
 40
1.8
 50
0.000001
 51
180.00000299999991
  0
ARC
  5
15D
  8
0
 62
     7
 10
-119.08402599999989
 20
570.77176999999995
 30
0.0
 40
1.8
 50
180.00000299999991
 51
0.000001
  0
LINE
  5
15E
  8
0
 62
     7
 10
-120.8840289999999
 20
570.77176999999995
 30
0.0
 11
-120.8840289999999
 21
571.27176999999995
 31
0.0
  0
LINE
  5
15F
  8
0
 62
     7
 10
-117.284023
 20
570.77176999999995
 30
0.0
 11
-117.284023
 21
571.27176999999995
 31
0.0
  0
LINE
  5
160
  8
0
 62
     7
 10
-116.23402
 20
572.67177199999992
 30
0.0
 11
-116.23402
 21
573.471767
 31
0.0
  0
LINE
  5
161
  8
0
 62
     7
 10
-115.284023
 20
572.67177199999992
 30
0.0
 11
-116.23402
 21
572.67177199999992
 31
0.0
  0
LINE
  5
162
  8
0
 62
     7
 10
-113.534023
 20
572.67177199999992
 30
0.0
 11
-113.534023
 21
573.471767
 31
0.0
  0
LINE
  5
163
  8
0
 62
     7
 10
-115.284023
 20
573.471767
 30
0.0
 11
-116.23402
 21
573.471767
 31
0.0
  0
LINE
  5
164
  8
0
 62
     7
 10
-115.284023
 20
568.17177199999992
 30
0.0
 11
-115.284023
 21
572.67177199999992
 31
0.0
  0
LINE
  5
165
  8
0
 62
     7
 10
-114.4840199999999
 20
568.17177199999992
 30
0.0
 11
-114.4840199999999
 21
572.67177199999992
 31
0.0
  0
LINE
  5
166
  8
0
 62
     7
 10
-113.534023
 20
572.67177199999992
 30
0.0
 11
-114.4840199999999
 21
572.67177199999992
 31
0.0
  0
LINE
  5
167
  8
0
 62
     7
 10
-113.534023
 20
573.471767
 30
0.0
 11
-114.4840199999999
 21
573.471767
 31
0.0
  0
LINE
  5
168
  8
0
 62
     7
 10
-115.284023
 20
573.471767
 30
0.0
 11
-115.284023
 21
574.57177399999989
 31
0.0
  0
LINE
  5
169
  8
0
 62
     7
 10
-114.4840199999999
 20
573.471767
 30
0.0
 11
-114.4840199999999
 21
574.57177399999989
 31
0.0
  0
ARC
  5
16A
  8
0
 62
     7
 10
-113.98402
 20
574.57177399999989
 30
0.0
 40
1.3
 50
90.0
 51
180.00000299999991
  0
ARC
  5
16B
  8
0
 62
     7
 10
-113.98402
 20
574.57177399999989
 30
0.0
 40
0.5
 50
90.0
 51
180.00000299999991
  0
LINE
  5
16C
  8
0
 62
     7
 10
-113.534023
 20
575.07177399999989
 30
0.0
 11
-113.534023
 21
575.87176899999997
 31
0.0
  0
LINE
  5
16D
  8
0
 62
     7
 10
-113.534023
 20
575.07177399999989
 30
0.0
 11
-113.98402
 21
575.07177399999989
 31
0.0
  0
LINE
  5
16E
  8
0
 62
     7
 10
-110.33402599999989
 20
575.87176899999997
 30
0.0
 11
-110.784023
 21
575.87176899999997
 31
0.0
  0
LINE
  5
16F
  8
0
 62
     7
 10
-111.28402299999991
 20
568.17177199999992
 30
0.0
 11
-112.08402599999999
 21
568.17177199999992
 31
0.0
  0
LINE
  5
170
  8
0
 62
     7
 10
-113.034023
 20
572.67177199999992
 30
0.0
 11
-113.034023
 21
573.471767
 31
0.0
  0
LINE
  5
171
  8
0
 62
     7
 10
-112.08402599999999
 20
572.67177199999992
 30
0.0
 11
-113.034023
 21
572.67177199999992
 31
0.0
  0
LINE
  5
172
  8
0
 62
     7
 10
-110.33402599999989
 20
572.67177199999992
 30
0.0
 11
-110.33402599999989
 21
573.471767
 31
0.0
  0
LINE
  5
173
  8
0
 62
     7
 10
-112.08402599999999
 20
573.471767
 30
0.0
 11
-113.034023
 21
573.471767
 31
0.0
  0
LINE
  5
174
  8
0
 62
     7
 10
-112.08402599999999
 20
568.17177199999992
 30
0.0
 11
-112.08402599999999
 21
572.67177199999992
 31
0.0
  0
LINE
  5
175
  8
0
 62
     7
 10
-111.28402299999991
 20
568.17177199999992
 30
0.0
 11
-111.28402299999991
 21
572.67177199999992
 31
0.0
  0
LINE
  5
176
  8
0
 62
     7
 10
-110.33402599999989
 20
572.67177199999992
 30
0.0
 11
-111.28402299999991
 21
572.67177199999992
 31
0.0
  0
LINE
  5
177
  8
0
 62
     7
 10
-110.33402599999989
 20
573.471767
 30
0.0
 11
-111.28402299999991
 21
573.471767
 31
0.0
  0
LINE
  5
178
  8
0
 62
     7
 10
-112.08402599999999
 20
573.471767
 30
0.0
 11
-112.08402599999999
 21
574.57177399999989
 31
0.0
  0
LINE
  5
179
  8
0
 62
     7
 10
-111.28402299999991
 20
573.471767
 30
0.0
 11
-111.28402299999991
 21
574.57177399999989
 31
0.0
  0
ARC
  5
17A
  8
0
 62
     7
 10
-110.784023
 20
574.57177399999989
 30
0.0
 40
1.3
 50
90.0
 51
180.00000299999991
  0
ARC
  5
17B
  8
0
 62
     7
 10
-110.784023
 20
574.57177399999989
 30
0.0
 40
0.5
 50
90.0
 51
180.00000299999991
  0
LINE
  5
17C
  8
0
 62
     7
 10
-110.33402599999989
 20
575.07177399999989
 30
0.0
 11
-110.33402599999989
 21
575.87176899999997
 31
0.0
  0
LINE
  5
17D
  8
0
 62
     7
 10
-110.33402599999989
 20
575.07177399999989
 30
0.0
 11
-110.784023
 21
575.07177399999989
 31
0.0
  0
LINE
  5
17E
  8
0
 62
     7
 10
-114.884029
 20
602.67177199999992
 30
0.0
 11
-115.684032
 21
602.67177199999992
 31
0.0
  0
ARC
  5
17F
  8
0
 62
     7
 10
-119.08402599999989
 20
605.77176999999995
 30
0.0
 40
2.6000000000000001
 50
0.000001
 51
180.00000299999991
  0
ARC
  5
180
  8
0
 62
     7
 10
-119.08402599999989
 20
605.77176999999995
 30
0.0
 40
1.8
 50
0.000001
 51
180.00000299999991
  0
ARC
  5
181
  8
0
 62
     7
 10
-119.08402599999989
 20
605.27176999999995
 30
0.0
 40
2.6000000000000001
 50
180.00000299999991
 51
0.000001
  0
ARC
  5
182
  8
0
 62
     7
 10
-119.08402599999989
 20
605.27176999999995
 30
0.0
 40
1.8
 50
180.00000299999991
 51
0.000001
  0
LINE
  5
183
  8
0
 62
     7
 10
-117.284023
 20
605.27176999999995
 30
0.0
 11
-117.284023
 21
605.77176999999995
 31
0.0
  0
LINE
  5
184
  8
0
 62
     7
 10
-116.4840199999999
 20
605.27176999999995
 30
0.0
 11
-116.4840199999999
 21
605.77176999999995
 31
0.0
  0
LINE
  5
185
  8
0
 62
     7
 10
-120.8840289999999
 20
605.27176999999995
 30
0.0
 11
-120.8840289999999
 21
605.77176999999995
 31
0.0
  0
LINE
  5
186
  8
0
 62
     7
 10
-121.6840319999999
 20
605.27176999999995
 30
0.0
 11
-121.6840319999999
 21
605.77176999999995
 31
0.0
  0
LINE
  5
187
  8
0
 62
     7
 10
-115.684032
 20
602.67177199999992
 30
0.0
 11
-115.684032
 21
608.37176900000009
 31
0.0
  0
LINE
  5
188
  8
0
 62
     7
 10
-114.884029
 20
602.67177199999992
 30
0.0
 11
-114.884029
 21
606.17177199999981
 31
0.0
  0
LINE
  5
189
  8
0
 62
     7
 10
-112.08402599999999
 20
602.67177199999992
 30
0.0
 11
-112.08402599999999
 21
606.17177199999981
 31
0.0
  0
LINE
  5
18A
  8
0
 62
     7
 10
-111.28402299999991
 20
602.67177199999992
 30
0.0
 11
-111.28402299999991
 21
606.37176899999997
 31
0.0
  0
LINE
  5
18B
  8
0
 62
     7
 10
-114.884029
 20
608.37176900000009
 30
0.0
 11
-115.684032
 21
608.37176900000009
 31
0.0
  0
ARC
  5
18C
  8
0
 62
     7
 10
-113.4840199999999
 20
606.17177199999981
 30
0.0
 40
1.399999999999999
 50
0.000001
 51
180.00000299999991
  0
LINE
  5
18D
  8
0
 62
     7
 10
-114.884029
 20
607.57177399999989
 30
0.0
 11
-114.884029
 21
608.37176900000009
 31
0.0
  0
ARC
  5
18E
  8
0
 62
     7
 10
-113.284023
 20
606.37176899999997
 30
0.0
 40
2.0
 50
0.000001
 51
143.13010199999999
  0
LINE
  5
18F
  8
0
 62
     7
 10
-111.28402299999991
 20
602.67177199999992
 30
0.0
 11
-112.08402599999999
 21
602.67177199999992
 31
0.0
  0
LINE
  5
190
  8
0
 62
     7
 10
-119.83398099999999
 20
516.27177800000004
 30
0.0
 11
-119.83398099999999
 21
518.52179000000001
 31
0.0
  0
LINE
  5
191
  8
0
 62
     7
 10
-123.33398099999999
 20
516.27177800000004
 30
0.0
 11
-123.33398099999999
 21
518.52179000000001
 31
0.0
  0
LINE
  5
192
  8
0
 62
     7
 10
-154.83404899999999
 20
516.27177800000004
 30
0.0
 11
-154.83404899999999
 21
518.52179000000001
 31
0.0
  0
LINE
  5
193
  8
0
 62
     7
 10
-158.33404899999991
 20
516.27177800000004
 30
0.0
 11
-158.33404899999991
 21
518.52179000000001
 31
0.0
  0
LINE
  5
194
  8
0
 62
     7
 10
-128.3340189999999
 20
582.89709100000005
 30
0.0
 11
-149.8340189999999
 21
582.89709100000005
 31
0.0
  0
LINE
  5
195
  8
0
 62
     7
 10
-128.3340189999999
 20
576.78062799999998
 30
0.0
 11
-149.8340189999999
 21
576.78062799999998
 31
0.0
  0
LINE
  5
196
  8
0
 62
     7
 10
-128.3340189999999
 20
570.83280600000001
 30
0.0
 11
-149.8340189999999
 21
570.83280600000001
 31
0.0
  0
LINE
  5
197
  8
0
 62
     7
 10
-128.3340189999999
 20
570.03006399999992
 30
0.0
 11
-149.8340189999999
 21
570.03006399999992
 31
0.0
  0
ARC
  5
198
  8
0
 62
     7
 10
-221.08395400000001
 20
666.27171699999985
 30
0.0
 40
3.7501059999999988
 50
90.001423999999986
 51
269.99857099999991
  0
LINE
  5
199
  8
0
 62
     7
 10
-193.33405300000001
 20
686.27177800000004
 30
0.0
 11
-223.084047
 21
686.27177800000004
 31
0.0
  0
LINE
  5
19A
  8
0
 62
     7
 10
-191.18480699999989
 20
679.77177800000004
 30
0.0
 11
-194.08405300000001
 21
679.77177800000004
 31
0.0
  0
CIRCLE
  5
19B
  8
0
 62
     7
 10
-209.08404899999999
 20
673.77176299999985
 30
0.0
 40
5.5000010000000001
  0
CIRCLE
  5
19C
  8
0
 62
     7
 10
-209.08405300000001
 20
682.271793
 30
0.0
 40
1.4000049999999991
  0
LINE
  5
19D
  8
0
 62
     7
 10
-193.33405300000001
 20
683.27177800000004
 30
0.0
 11
-193.33405300000001
 21
686.27177800000004
 31
0.0
  0
LINE
  5
19E
  8
0
 62
     7
 10
-189.83404899999999
 20
683.27177800000004
 30
0.0
 11
-189.83404899999999
 21
686.27177800000004
 31
0.0
  0
LINE
  5
19F
  8
0
 62
     7
 10
-194.08405300000001
 20
679.77177800000004
 30
0.0
 11
-194.08405300000001
 21
683.27177800000004
 31
0.0
  0
LINE
  5
1A0
  8
0
 62
     7
 10
-189.08404899999999
 20
681.94482800000003
 30
0.0
 11
-189.08404899999999
 21
683.27177800000004
 31
0.0
  0
LINE
  5
1A1
  8
0
 62
     7
 10
-189.08404899999999
 20
683.27177800000004
 30
0.0
 11
-189.83404899999999
 21
683.27177800000004
 31
0.0
  0
LINE
  5
1A2
  8
0
 62
     7
 10
-193.33405300000001
 20
683.27177800000004
 30
0.0
 11
-194.08405300000001
 21
683.27177800000004
 31
0.0
  0
LINE
  5
1A3
  8
0
 62
     7
 10
-193.33405300000001
 20
516.27177800000004
 30
0.0
 11
-223.084047
 21
516.27177800000004
 31
0.0
  0
CIRCLE
  5
1A4
  8
0
 62
     7
 10
-209.0840299999999
 20
528.77178200000003
 30
0.0
 40
5.4999969999999996
  0
CIRCLE
  5
1A5
  8
0
 62
     7
 10
-209.084034
 20
520.27177800000004
 30
0.0
 40
1.399999999999999
  0
CIRCLE
  5
1A6
  8
0
  6
DASHSPACE
 62
     7
 10
-191.584034
 20
531.77178200000003
 30
0.0
 40
4.4999979999999997
  0
LINE
  5
1A7
  8
0
  6
DASHDOT
 62
     7
 10
-209.0840299999999
 20
520.27178400000003
 30
0.0
 11
-209.0840299999999
 21
537.27177800000004
 31
0.0
  0
LINE
  5
1A8
  8
0
  6
DASHDOT
 62
     7
 10
-209.084034
 20
515.87177799999995
 30
0.0
 11
-209.084034
 21
524.6717799999999
 31
0.0
  0
LINE
  5
1A9
  8
0
 62
     7
 10
-189.83404899999999
 20
516.27177800000004
 30
0.0
 11
-189.83404899999999
 21
518.52179000000001
 31
0.0
  0
LINE
  5
1AA
  8
0
 62
     7
 10
-193.33405300000001
 20
516.27177800000004
 30
0.0
 11
-193.33405300000001
 21
518.52179000000001
 31
0.0
  0
LINE
  5
1AB
  8
0
  6
DASHDOT
 62
     7
 10
-209.08405300000001
 20
670.87178399999993
 30
0.0
 11
-209.08405300000001
 21
693.67178699999988
 31
0.0
  0
LINE
  5
1AC
  8
0
  6
DASHDOT
 62
     7
 10
-197.6840479999999
 20
682.271793
 30
0.0
 11
-220.48405799999989
 21
682.271793
 31
0.0
  0
LINE
  5
1AD
  8
0
  6
DASHDOT
 62
     7
 10
-209.08404899999999
 20
663.69728499999985
 30
0.0
 11
-209.08404899999999
 21
689.27176299999985
 31
0.0
  0
LINE
  5
1AE
  8
0
  6
DASHDOT
 62
     7
 10
-198.73540499999999
 20
673.77176299999985
 30
0.0
 11
-218.265423
 21
673.77176299999985
 31
0.0
  0
LINE
  5
1AF
  8
0
  6
DASHDOT
 62
     7
 10
-193.584034
 20
528.77178200000003
 30
0.0
 11
-224.5840279999999
 21
528.77178200000003
 31
0.0
  0
LINE
  5
1B0
  8
0
  6
DASHDOT
 62
     7
 10
-197.68403199999989
 20
520.27177800000004
 30
0.0
 11
-220.48403500000001
 21
520.27177800000004
 31
0.0
  0
LINE
  5
1B1
  8
0
  6
DASHDOT
 62
     7
 10
-177.084034
 20
531.77178200000003
 30
0.0
 11
-206.08403399999989
 21
531.77178200000003
 31
0.0
  0
LINE
  5
1B2
  8
0
 62
     7
 10
-198.78401599999989
 20
542.02180099999998
 30
0.0
 11
-198.78401599999989
 21
662.02177800000004
 31
0.0
  0
LINE
  5
1B3
  8
0
 62
     7
 10
-202.384018
 20
542.02180099999998
 30
0.0
 11
-202.384018
 21
662.02177800000004
 31
0.0
  0
LINE
  5
1B4
  8
0
 62
     7
 10
-205.98401599999991
 20
542.02180099999998
 30
0.0
 11
-205.98401599999991
 21
662.02177800000004
 31
0.0
  0
LINE
  5
1B5
  8
0
 62
     7
 10
-209.5840189999999
 20
542.02180099999998
 30
0.0
 11
-209.5840189999999
 21
662.02177800000004
 31
0.0
  0
LINE
  5
1B6
  8
0
 62
     7
 10
-213.1840169999999
 20
542.02180099999998
 30
0.0
 11
-213.1840169999999
 21
662.02177800000004
 31
0.0
  0
LINE
  5
1B7
  8
0
 62
     7
 10
-216.78401600000001
 20
542.02180099999998
 30
0.0
 11
-216.78401600000001
 21
662.02177800000004
 31
0.0
  0
LINE
  5
1B8
  8
0
 62
     7
 10
-220.384018
 20
542.02180099999998
 30
0.0
 11
-220.384018
 21
662.02177800000004
 31
0.0
  0
LINE
  5
1B9
  8
0
 62
     7
 10
-223.98401799999999
 20
542.02180099999998
 30
0.0
 11
-223.98401799999999
 21
662.02177800000004
 31
0.0
  0
LINE
  5
1BA
  8
0
 62
     7
 10
-191.0840189999999
 20
651.52177800000004
 30
0.0
 11
-226.58405899999991
 21
651.52177800000004
 31
0.0
  0
LINE
  5
1BB
  8
0
 62
     7
 10
-197.5840189999999
 20
546.52178600000002
 30
0.0
 11
-226.58405899999991
 21
546.52178600000002
 31
0.0
  0
LINE
  5
1BC
  8
0
  6
DASHDOT
 62
   150
 10
-72.823391000000001
 20
599.02178600000002
 30
0.0
 11
-236.30303399999991
 21
599.02178600000002
 31
0.0
  0
LINE
  5
1BD
  8
0
 62
     7
 10
-219.08404899999999
 20
686.27177800000004
 30
0.0
 11
-219.08404899999999
 21
718.77177800000004
 31
0.0
  0
LINE
  5
1BE
  8
0
 62
     7
 10
-199.08404899999999
 20
686.27177800000004
 30
0.0
 11
-199.08404899999999
 21
718.77177800000004
 31
0.0
  0
LINE
  5
1BF
  8
0
 62
     7
 10
-92.584011000000004
 20
513.77177800000004
 30
0.0
 11
-92.584011000000004
 21
516.27177800000004
 31
0.0
  0
LINE
  5
1C0
  8
0
 62
     7
 10
-220.58405699999989
 20
513.77177800000004
 30
0.0
 11
-220.58405699999989
 21
516.27177800000004
 31
0.0
  0
LINE
  5
1C1
  8
0
 62
     7
 10
-199.08404899999999
 20
718.77177800000004
 30
0.0
 11
-219.08404899999999
 21
718.77177800000004
 31
0.0
  0
CIRCLE
  5
1C2
  8
0
 62
     7
 10
-209.08405300000001
 20
707.27177800000004
 30
0.0
 40
4.25
  0
LINE
  5
1C3
  8
0
 62
     7
 10
-92.584011000000004
 20
513.77177800000004
 30
0.0
 11
-220.58405699999989
 21
513.77177800000004
 31
0.0
  0
LINE
  5
1C4
  8
0
  6
DASHDOT
 62
     7
 10
-209.08405300000001
 20
702.02177800000004
 30
0.0
 11
-209.08405300000001
 21
712.52177800000004
 31
0.0
  0
LINE
  5
1C5
  8
0
  6
DASHDOT
 62
     7
 10
-203.83405300000001
 20
707.27177800000004
 30
0.0
 11
-214.3340529999999
 21
707.27177800000004
 31
0.0
  0
LINE
  5
1C6
  8
0
 62
     7
 10
-164.08404899999991
 20
718.77177800000004
 30
0.0
 11
-184.08404899999991
 21
718.77177800000004
 31
0.0
  0
LINE
  5
1C7
  8
0
 62
     7
 10
-129.08404899999991
 20
718.77177800000004
 30
0.0
 11
-149.08404899999991
 21
718.77177800000004
 31
0.0
  0
LINE
  5
1C8
  8
0
 62
     7
 10
-94.084042000000011
 20
718.77177800000004
 30
0.0
 11
-114.0840419999999
 21
718.77177800000004
 31
0.0
  0
LINE
  5
1C9
  8
0
 62
     7
 10
-164.08404899999991
 20
688.77177800000004
 30
0.0
 11
-164.08404899999991
 21
718.77177800000004
 31
0.0
  0
LINE
  5
1CA
  8
0
 62
     7
 10
-129.08404899999991
 20
688.77177800000004
 30
0.0
 11
-129.08404899999991
 21
718.77177800000004
 31
0.0
  0
LINE
  5
1CB
  8
0
 62
     7
 10
-94.084042000000011
 20
688.77177800000004
 30
0.0
 11
-94.084042000000011
 21
718.77177800000004
 31
0.0
  0
LINE
  5
1CC
  8
0
 62
     7
 10
-184.08404899999991
 20
688.77177800000004
 30
0.0
 11
-184.08404899999991
 21
718.77177800000004
 31
0.0
  0
LINE
  5
1CD
  8
0
 62
     7
 10
-149.08404899999991
 20
688.77177800000004
 30
0.0
 11
-149.08404899999991
 21
718.77177800000004
 31
0.0
  0
LINE
  5
1CE
  8
0
 62
     7
 10
-114.0840419999999
 20
688.77177800000004
 30
0.0
 11
-114.0840419999999
 21
718.77177800000004
 31
0.0
  0
CIRCLE
  5
1CF
  8
0
 62
     7
 10
-174.08404899999999
 20
707.27177800000004
 30
0.0
 40
4.25
  0
CIRCLE
  5
1D0
  8
0
 62
     7
 10
-139.08404899999991
 20
707.27177800000004
 30
0.0
 40
4.25
  0
CIRCLE
  5
1D1
  8
0
 62
     7
 10
-104.084057
 20
707.27177800000004
 30
0.0
 40
4.25
  0
LINE
  5
1D2
  8
0
  6
DASHDOT
 62
     7
 10
-174.08404899999999
 20
702.02177800000004
 30
0.0
 11
-174.08404899999999
 21
712.52177800000004
 31
0.0
  0
LINE
  5
1D3
  8
0
  6
DASHDOT
 62
     7
 10
-168.83404899999991
 20
707.27177800000004
 30
0.0
 11
-179.33404899999999
 21
707.27177800000004
 31
0.0
  0
LINE
  5
1D4
  8
0
  6
DASHDOT
 62
     7
 10
-139.08404899999991
 20
702.02177800000004
 30
0.0
 11
-139.08404899999991
 21
712.52177800000004
 31
0.0
  0
LINE
  5
1D5
  8
0
  6
DASHDOT
 62
     7
 10
-133.83404899999991
 20
707.27177800000004
 30
0.0
 11
-144.33404899999991
 21
707.27177800000004
 31
0.0
  0
LINE
  5
1D6
  8
0
  6
DASHDOT
 62
     7
 10
-104.084057
 20
702.02177800000004
 30
0.0
 11
-104.084057
 21
712.52177800000004
 31
0.0
  0
LINE
  5
1D7
  8
0
  6
DASHDOT
 62
     7
 10
-98.834057000000001
 20
707.27177800000004
 30
0.0
 11
-109.334057
 21
707.27177800000004
 31
0.0
  0
LINE
  5
1D8
  8
0
 62
     1
 10
-116.0840569999999
 20
688.77177800000004
 30
0.0
 11
-116.0840569999999
 21
691.77177800000004
 31
0.0
  0
LINE
  5
1D9
  8
0
 62
     1
 10
-123.084057
 20
691.77177800000004
 30
0.0
 11
-127.08404899999989
 21
691.77177800000004
 31
0.0
  0
LINE
  5
1DA
  8
0
 62
     1
 10
-116.0840569999999
 20
691.77177800000004
 30
0.0
 11
-120.0840569999999
 21
691.77177800000004
 31
0.0
  0
LINE
  5
1DB
  8
0
 62
     1
 10
-127.08404899999989
 20
688.77177800000004
 30
0.0
 11
-127.08404899999989
 21
691.77177800000004
 31
0.0
  0
LINE
  5
1DC
  8
0
 62
     1
 10
-116.0840569999999
 20
689.77177800000004
 30
0.0
 11
-127.08404899999989
 21
689.77177800000004
 31
0.0
  0
LINE
  5
1DD
  8
0
 62
     1
 10
-120.690304
 20
788.77179299999989
 30
0.0
 11
-122.47780999999991
 21
788.77179299999989
 31
0.0
  0
LINE
  5
1DE
  8
0
 62
     1
 10
-120.0840569999999
 20
691.77177800000004
 30
0.0
 11
-120.690304
 21
788.77179299999989
 31
0.0
  0
LINE
  5
1DF
  8
0
 62
     1
 10
-123.084057
 20
691.77177800000004
 30
0.0
 11
-122.47780999999991
 21
788.77179299999989
 31
0.0
  0
LINE
  5
1E0
  8
0
 62
     1
 10
-151.08404899999991
 20
688.77177800000004
 30
0.0
 11
-151.08404899999991
 21
691.77177800000004
 31
0.0
  0
LINE
  5
1E1
  8
0
 62
     1
 10
-158.08404899999991
 20
691.77177800000004
 30
0.0
 11
-162.08404899999991
 21
691.77177800000004
 31
0.0
  0
LINE
  5
1E2
  8
0
 62
     1
 10
-151.08404899999991
 20
691.77177800000004
 30
0.0
 11
-155.08404899999991
 21
691.77177800000004
 31
0.0
  0
LINE
  5
1E3
  8
0
 62
     1
 10
-162.08404899999991
 20
688.77177800000004
 30
0.0
 11
-162.08404899999991
 21
691.77177800000004
 31
0.0
  0
LINE
  5
1E4
  8
0
 62
     1
 10
-151.08404899999991
 20
689.77177800000004
 30
0.0
 11
-162.08404899999991
 21
689.77177800000004
 31
0.0
  0
LINE
  5
1E5
  8
0
 62
     1
 10
-155.69030399999991
 20
788.77179299999989
 30
0.0
 11
-157.477802
 21
788.77179299999989
 31
0.0
  0
LINE
  5
1E6
  8
0
 62
     1
 10
-155.08404899999991
 20
691.77177800000004
 30
0.0
 11
-155.69030399999991
 21
788.77179299999989
 31
0.0
  0
LINE
  5
1E7
  8
0
 62
     1
 10
-158.08404899999991
 20
691.77177800000004
 30
0.0
 11
-157.477802
 21
788.77179299999989
 31
0.0
  0
LINE
  5
1E8
  8
0
 62
     1
 10
-186.08404899999999
 20
688.77177800000004
 30
0.0
 11
-186.08404899999999
 21
691.77177800000004
 31
0.0
  0
LINE
  5
1E9
  8
0
 62
     1
 10
-193.08405300000001
 20
691.77177800000004
 30
0.0
 11
-197.08405300000001
 21
691.77177800000004
 31
0.0
  0
LINE
  5
1EA
  8
0
 62
     1
 10
-186.08404899999999
 20
691.77177800000004
 30
0.0
 11
-190.08405300000001
 21
691.77177800000004
 31
0.0
  0
LINE
  5
1EB
  8
0
 62
     1
 10
-197.08405300000001
 20
686.27177800000004
 30
0.0
 11
-197.08405300000001
 21
691.77177800000004
 31
0.0
  0
LINE
  5
1EC
  8
0
 62
     1
 10
-187.28825000000001
 20
688.77177800000004
 30
0.0
 11
-197.08405300000001
 21
688.77177800000004
 31
0.0
  0
LINE
  5
1ED
  8
0
 62
     1
 10
-193.08405300000001
 20
683.47177499999998
 30
0.0
 11
-193.8340529999999
 21
683.47177499999998
 31
0.0
  0
LINE
  5
1EE
  8
0
 62
     1
 10
-193.8340529999999
 20
680.27177800000004
 30
0.0
 11
-193.8340529999999
 21
683.47177499999998
 31
0.0
  0
LINE
  5
1EF
  8
0
 62
     1
 10
-189.33404899999991
 20
680.27177800000004
 30
0.0
 11
-193.8340529999999
 21
680.27177800000004
 31
0.0
  0
LINE
  5
1F0
  8
0
 62
     1
 10
-189.33404899999991
 20
680.27177800000004
 30
0.0
 11
-189.33404899999991
 21
683.47177499999998
 31
0.0
  0
LINE
  5
1F1
  8
0
 62
     1
 10
-189.33404899999991
 20
683.47177499999998
 30
0.0
 11
-190.08405300000001
 21
683.47177499999998
 31
0.0
  0
LINE
  5
1F2
  8
0
 62
     1
 10
-190.08405300000001
 20
683.47177499999998
 30
0.0
 11
-190.08405300000001
 21
688.77177800000004
 31
0.0
  0
LINE
  5
1F3
  8
0
 62
     1
 10
-193.08405300000001
 20
683.47177499999998
 30
0.0
 11
-193.08405300000001
 21
688.77177800000004
 31
0.0
  0
LINE
  5
1F4
  8
0
 62
     1
 10
-193.08405300000001
 20
682.47177499999987
 30
0.0
 11
-193.08405300000001
 21
683.47177499999998
 31
0.0
  0
LINE
  5
1F5
  8
0
 62
     1
 10
-190.08405300000001
 20
682.47177499999987
 30
0.0
 11
-190.08405300000001
 21
683.47177499999998
 31
0.0
  0
LINE
  5
1F6
  8
0
 62
     1
 10
-193.08405300000001
 20
682.47177499999987
 30
0.0
 11
-193.8340529999999
 21
682.47177499999987
 31
0.0
  0
LINE
  5
1F7
  8
0
 62
     1
 10
-189.33404899999991
 20
682.47177499999987
 30
0.0
 11
-190.08405300000001
 21
682.47177499999987
 31
0.0
  0
LINE
  5
1F8
  8
0
 62
     1
 10
-186.08404899999999
 20
689.77177800000004
 30
0.0
 11
-197.08405300000001
 21
689.77177800000004
 31
0.0
  0
LINE
  5
1F9
  8
0
 62
     1
 10
-188.15220999999991
 20
686.27177800000004
 30
0.0
 11
-190.08405300000001
 21
686.27177800000004
 31
0.0
  0
LINE
  5
1FA
  8
0
 62
     1
 10
-193.08405300000001
 20
686.27177800000004
 30
0.0
 11
-197.08405300000001
 21
686.27177800000004
 31
0.0
  0
LINE
  5
1FB
  8
0
 62
     1
 10
-190.69030399999991
 20
788.77179299999989
 30
0.0
 11
-192.47780199999991
 21
788.77179299999989
 31
0.0
  0
LINE
  5
1FC
  8
0
 62
     1
 10
-190.08405300000001
 20
691.77177800000004
 30
0.0
 11
-190.69030399999991
 21
788.77179299999989
 31
0.0
  0
LINE
  5
1FD
  8
0
 62
     1
 10
-193.08405300000001
 20
691.77177800000004
 30
0.0
 11
-192.47780199999991
 21
788.77179299999989
 31
0.0
  0
CIRCLE
  5
1FE
  8
0
 62
     7
 10
-122.304333
 20
740.77570000000003
 30
0.0
 40
0.5
  0
CIRCLE
  5
1FF
  8
0
 62
     7
 10
-156.495968
 20
746.57788499999992
 30
0.0
 40
0.5
  0
CIRCLE
  5
200
  8
0
 62
     7
 10
-192.10089500000001
 20
752.68158300000005
 30
0.0
 40
0.5
  0
LINE
  5
201
  8
0
 62
     3
 10
-87.834042000000011
 20
688.77177800000004
 30
0.0
 11
-187.28825000000001
 21
688.77177800000004
 31
0.0
  0
LINE
  5
202
  8
0
 62
     3
 10
-86.583981000000009
 20
679.52177800000004
 30
0.0
 11
-86.583981000000009
 21
687.52177800000004
 31
0.0
  0
LINE
  5
203
  8
0
 62
     3
 10
-86.950145999999975
 20
688.40565900000001
 30
0.0
 11
-87.834025999999994
 21
688.77177800000004
 31
0.0
  0
LINE
  5
204
  8
0
 62
     3
 10
-86.584025999999994
 20
687.52179299999989
 30
0.0
 11
-86.950145999999975
 21
688.40567399999998
 31
0.0
  0
LINE
  5
205
  8
0
 62
     3
 10
-90.734034999999992
 20
679.52177800000004
 30
0.0
 11
-90.734034999999992
 21
688.46112400000004
 31
0.0
  0
LINE
  5
206
  8
0
 62
     3
 10
-94.334042000000011
 20
679.52177800000004
 30
0.0
 11
-94.334042000000011
 21
688.46112400000004
 31
0.0
  0
LINE
  5
207
  8
0
 62
     3
 10
-97.934032000000002
 20
679.52177800000004
 30
0.0
 11
-97.934032000000002
 21
688.46112400000004
 31
0.0
  0
LINE
  5
208
  8
0
 62
     3
 10
-101.53403899999989
 20
679.52177800000004
 30
0.0
 11
-101.53403899999989
 21
688.46112400000004
 31
0.0
  0
LINE
  5
209
  8
0
 62
     3
 10
-105.1340289999999
 20
679.52177800000004
 30
0.0
 11
-105.1340289999999
 21
688.46112400000004
 31
0.0
  0
LINE
  5
20A
  8
0
 62
     3
 10
-108.73403500000001
 20
679.52177800000004
 30
0.0
 11
-108.73403500000001
 21
688.46112400000004
 31
0.0
  0
LINE
  5
20B
  8
0
 62
     3
 10
-112.3340419999999
 20
679.52177800000004
 30
0.0
 11
-112.3340419999999
 21
688.46112400000004
 31
0.0
  0
LINE
  5
20C
  8
0
 62
     3
 10
-115.934032
 20
679.52177800000004
 30
0.0
 11
-115.934032
 21
688.46112400000004
 31
0.0
  0
LINE
  5
20D
  8
0
 62
     3
 10
-119.53403899999989
 20
679.52177800000004
 30
0.0
 11
-119.53403899999989
 21
688.46112400000004
 31
0.0
  0
LINE
  5
20E
  8
0
 62
     3
 10
-123.134029
 20
679.52177800000004
 30
0.0
 11
-123.134029
 21
688.46112400000004
 31
0.0
  0
LINE
  5
20F
  8
0
 62
     3
 10
-126.734028
 20
679.52177800000004
 30
0.0
 11
-126.734028
 21
688.46112400000004
 31
0.0
  0
LINE
  5
210
  8
0
 62
     3
 10
-130.334034
 20
679.52177800000004
 30
0.0
 11
-130.334034
 21
688.46112400000004
 31
0.0
  0
LINE
  5
211
  8
0
 62
     3
 10
-133.934032
 20
679.52177800000004
 30
0.0
 11
-133.934032
 21
688.46112400000004
 31
0.0
  0
LINE
  5
212
  8
0
 62
     3
 10
-137.534031
 20
679.52177800000004
 30
0.0
 11
-137.534031
 21
688.46112400000004
 31
0.0
  0
LINE
  5
213
  8
0
 62
     3
 10
-141.134029
 20
679.52177800000004
 30
0.0
 11
-141.134029
 21
688.46112400000004
 31
0.0
  0
LINE
  5
214
  8
0
 62
     3
 10
-144.73403500000001
 20
679.52177800000004
 30
0.0
 11
-144.73403500000001
 21
688.46112400000004
 31
0.0
  0
LINE
  5
215
  8
0
 62
     3
 10
-148.33403399999989
 20
679.52177800000004
 30
0.0
 11
-148.33403399999989
 21
688.46112400000004
 31
0.0
  0
LINE
  5
216
  8
0
 62
     3
 10
-170.134029
 20
679.52177800000004
 30
0.0
 11
-170.134029
 21
688.46112400000004
 31
0.0
  0
LINE
  5
217
  8
0
 62
     3
 10
-199.134029
 20
663.27177800000004
 30
0.0
 11
-199.134029
 21
668.56341899999995
 31
0.0
  0
LINE
  5
218
  8
0
 62
     3
 10
-202.7340319999999
 20
663.27177800000004
 30
0.0
 11
-202.7340319999999
 21
666.08049400000004
 31
0.0
  0
LINE
  5
219
  8
0
 62
     3
 10
-166.53403099999991
 20
679.52177800000004
 30
0.0
 11
-166.53403099999991
 21
688.46112400000004
 31
0.0
  0
LINE
  5
21A
  8
0
 62
     3
 10
-162.934032
 20
679.52177800000004
 30
0.0
 11
-162.934032
 21
688.46112400000004
 31
0.0
  0
LINE
  5
21B
  8
0
 62
     3
 10
-159.334034
 20
679.52177800000004
 30
0.0
 11
-159.334034
 21
688.46112400000004
 31
0.0
  0
LINE
  5
21C
  8
0
 62
     3
 10
-155.734028
 20
679.52177800000004
 30
0.0
 11
-155.734028
 21
688.46112400000004
 31
0.0
  0
LINE
  5
21D
  8
0
 62
     3
 10
-152.13402899999991
 20
679.52177800000004
 30
0.0
 11
-152.13402899999991
 21
688.46112400000004
 31
0.0
  0
LINE
  5
21E
  8
0
 62
     3
 10
-173.73402799999991
 20
679.52177800000004
 30
0.0
 11
-173.73402799999991
 21
688.46112400000004
 31
0.0
  0
LINE
  5
21F
  8
0
 62
     3
 10
-177.334034
 20
679.52177800000004
 30
0.0
 11
-177.334034
 21
688.46112400000004
 31
0.0
  0
LINE
  5
220
  8
0
 62
     3
 10
-180.934032
 20
679.52177800000004
 30
0.0
 11
-180.934032
 21
688.46112400000004
 31
0.0
  0
LINE
  5
221
  8
0
 62
     3
 10
-184.534031
 20
679.52177800000004
 30
0.0
 11
-184.534031
 21
688.46112400000004
 31
0.0
  0
LINE
  5
222
  8
0
 62
     3
 10
-188.13402899999991
 20
679.52177800000004
 30
0.0
 11
-188.13402899999991
 21
682.71870799999988
 31
0.0
  0
POLYLINE
  5
223
  8
0
 62
     3
 66
     1
 10
0.0
 20
0.0
 30
0.0
  0
VERTEX
  5
94F
  8
0
 62
     3
 10
-185.96080399999991
 20
689.62634700000001
 30
0.0
  0
VERTEX
  5
950
  8
0
 62
     3
 10
-186.13629499999999
 20
689.550434
 30
0.0
  0
VERTEX
  5
951
  8
0
 62
     3
 10
-186.2236979999999
 20
689.50934199999995
 30
0.0
  0
VERTEX
  5
952
  8
0
 62
     3
 10
-186.310642
 20
689.46625099999994
 30
0.0
  0
VERTEX
  5
953
  8
0
 62
     3
 10
-186.396412
 20
689.42148200000008
 30
0.0
  0
VERTEX
  5
954
  8
0
 62
     3
 10
-186.48159399999989
 20
689.374729
 30
0.0
  0
VERTEX
  5
955
  8
0
 62
     3
 10
-186.56450299999989
 20
689.326908
 30
0.0
  0
VERTEX
  5
956
  8
0
 62
     3
 10
-186.64665600000001
 20
689.27714900000001
 30
0.0
  0
VERTEX
  5
957
  8
0
 62
     3
 10
-186.72552899999991
 20
689.22700899999995
 30
0.0
  0
VERTEX
  5
958
  8
0
 62
     3
 10
-186.80345500000001
 20
689.17499199999986
 30
0.0
  0
VERTEX
  5
959
  8
0
 62
     3
 10
-186.88336599999991
 20
689.11888499999986
 30
0.0
  0
VERTEX
  5
95A
  8
0
 62
     3
 10
-186.95428799999999
 20
689.06648600000005
 30
0.0
  0
VERTEX
  5
95B
  8
0
 62
     3
 10
-187.023808
 20
689.01236299999994
 30
0.0
  0
VERTEX
  5
95C
  8
0
 62
     3
 10
-187.08526199999989
 20
688.96185700000001
 30
0.0
  0
VERTEX
  5
95D
  8
0
 62
     3
 10
-187.145138
 20
688.9098849999998
 30
0.0
  0
VERTEX
  5
95E
  8
0
 62
     3
 10
-187.19962699999991
 20
688.85985199999993
 30
0.0
  0
VERTEX
  5
95F
  8
0
 62
     3
 10
-187.25245299999989
 20
688.80850599999985
 30
0.0
  0
VERTEX
  5
960
  8
0
 62
     3
 10
-187.30131899999989
 20
688.75816699999984
 30
0.0
  0
VERTEX
  5
961
  8
0
 62
     3
 10
-187.34848400000001
 20
688.70662300000004
 30
0.0
  0
VERTEX
  5
962
  8
0
 62
     3
 10
-187.3925899999999
 20
688.65541500000006
 30
0.0
  0
VERTEX
  5
963
  8
0
 62
     3
 10
-187.43498600000001
 20
688.60307699999987
 30
0.0
  0
VERTEX
  5
964
  8
0
 62
     3
 10
-187.47497200000001
 20
688.55050999999992
 30
0.0
  0
VERTEX
  5
965
  8
0
 62
     3
 10
-187.51324799999989
 20
688.49687599999993
 30
0.0
  0
VERTEX
  5
966
  8
0
 62
     3
 10
-187.52940799999999
 20
688.47314800000004
 30
0.0
  0
VERTEX
  5
967
  8
0
 62
     3
 10
-187.5992699999999
 20
688.36232399999994
 30
0.0
  0
VERTEX
  5
968
  8
0
 62
     3
 10
-187.67041399999999
 20
688.23526399999992
 30
0.0
  0
VERTEX
  5
969
  8
0
 62
     3
 10
-187.746128
 20
688.08481200000006
 30
0.0
  0
VERTEX
  5
96A
  8
0
 62
     3
 10
-187.833393
 20
687.89555700000005
 30
0.0
  0
VERTEX
  5
96B
  8
0
 62
     3
 10
-187.944096
 20
687.64252099999987
 30
0.0
  0
VERTEX
  5
96C
  8
0
 62
     3
 10
-188.12450000000001
 20
687.19485899999995
 30
0.0
  0
VERTEX
  5
96D
  8
0
 62
     3
 10
-188.22018099999991
 20
686.74455599999999
 30
0.0
  0
VERTEX
  5
96E
  8
0
 62
     3
 10
-188.221912
 20
686.67396900000006
 30
0.0
  0
VERTEX
  5
96F
  8
0
 62
     3
 10
-188.217365
 20
686.57973099999992
 30
0.0
  0
VERTEX
  5
970
  8
0
 62
     3
 10
-188.20479199999991
 20
686.48274600000002
 30
0.0
  0
VERTEX
  5
971
  8
0
 62
     3
 10
-188.183796
 20
686.38191600000005
 30
0.0
  0
VERTEX
  5
972
  8
0
 62
     3
 10
-188.1537129999999
 20
686.27574500000003
 30
0.0
  0
VERTEX
  5
973
  8
0
 62
     3
 10
-188.11343799999989
 20
686.16200599999991
 30
0.0
  0
VERTEX
  5
974
  8
0
 62
     3
 10
-188.06103899999999
 20
686.03676199999995
 30
0.0
  0
VERTEX
  5
975
  8
0
 62
     3
 10
-187.992321
 20
685.89140699999996
 30
0.0
  0
VERTEX
  5
976
  8
0
 62
     3
 10
-187.89797599999989
 20
685.7052799999999
 30
0.0
  0
VERTEX
  5
977
  8
0
 62
     3
 10
-187.79841999999999
 20
685.50632099999984
 30
0.0
  0
VERTEX
  5
978
  8
0
 62
     3
 10
-187.7067909999999
 20
685.30759
 30
0.0
  0
VERTEX
  5
979
  8
0
 62
     3
 10
-187.671345
 20
685.22324000000003
 30
0.0
  0
VERTEX
  5
97A
  8
0
 62
     3
 10
-187.638126
 20
685.13841600000001
 30
0.0
  0
VERTEX
  5
97B
  8
0
 62
     3
 10
-187.610264
 20
685.06149699999992
 30
0.0
  0
VERTEX
  5
97C
  8
0
 62
     3
 10
-187.58445399999991
 20
684.98399699999993
 30
0.0
  0
VERTEX
  5
97D
  8
0
 62
     3
 10
-187.5619999999999
 20
684.91006900000002
 30
0.0
  0
VERTEX
  5
97E
  8
0
 62
     3
 10
-187.54150799999999
 20
684.83548399999995
 30
0.0
  0
VERTEX
  5
97F
  8
0
 62
     3
 10
-187.52347199999991
 20
684.76219600000002
 30
0.0
  0
VERTEX
  5
980
  8
0
 62
     3
 10
-187.50735099999989
 20
684.68820599999992
 30
0.0
  0
VERTEX
  5
981
  8
0
 62
     3
 10
-187.482944
 20
684.55188399999986
 30
0.0
  0
VERTEX
  5
982
  8
0
 62
     3
 10
-187.472126
 20
684.47525399999995
 30
0.0
  0
VERTEX
  5
983
  8
0
 62
     3
 10
-187.46335999999999
 20
684.39798399999995
 30
0.0
  0
VERTEX
  5
984
  8
0
 62
     3
 10
-187.45710399999999
 20
684.32451200000003
 30
0.0
  0
VERTEX
  5
985
  8
0
 62
     3
 10
-187.45293000000001
 20
684.25078199999996
 30
0.0
  0
VERTEX
  5
986
  8
0
 62
     3
 10
-187.451008
 20
684.18039299999998
 30
0.0
  0
VERTEX
  5
987
  8
0
 62
     3
 10
-187.45116799999991
 20
684.11001999999985
 30
0.0
  0
VERTEX
  5
988
  8
0
 62
     3
 10
-187.45335799999989
 20
684.04268300000001
 30
0.0
  0
VERTEX
  5
989
  8
0
 62
     3
 10
-187.45762300000001
 20
683.97557400000005
 30
0.0
  0
VERTEX
  5
98A
  8
0
 62
     3
 10
-187.46374899999989
 20
683.91125899999997
 30
0.0
  0
VERTEX
  5
98B
  8
0
 62
     3
 10
-187.47190499999991
 20
683.84735499999988
 30
0.0
  0
VERTEX
  5
98C
  8
0
 62
     3
 10
-187.481785
 20
683.78605999999991
 30
0.0
  0
VERTEX
  5
98D
  8
0
 62
     3
 10
-187.49365599999999
 20
683.72531500000002
 30
0.0
  0
VERTEX
  5
98E
  8
0
 62
     3
 10
-187.507114
 20
683.667011
 30
0.0
  0
VERTEX
  5
98F
  8
0
 62
     3
 10
-187.52251799999991
 20
683.60940900000003
 30
0.0
  0
VERTEX
  5
990
  8
0
 62
     3
 10
-187.53941
 20
683.554081
 30
0.0
  0
VERTEX
  5
991
  8
0
 62
     3
 10
-187.5581929999999
 20
683.49957699999993
 30
0.0
  0
VERTEX
  5
992
  8
0
 62
     3
 10
-187.578373
 20
683.44722400000001
 30
0.0
  0
VERTEX
  5
993
  8
0
 62
     3
 10
-187.600391
 20
683.39577099999985
 30
0.0
  0
VERTEX
  5
994
  8
0
 62
     3
 10
-187.62086099999999
 20
683.35220700000002
 30
0.0
  0
VERTEX
  5
995
  8
0
 62
     3
 10
-187.671886
 20
683.25693100000001
 30
0.0
  0
VERTEX
  5
996
  8
0
 62
     3
 10
-187.73162499999989
 20
683.16199099999994
 30
0.0
  0
VERTEX
  5
997
  8
0
 62
     3
 10
-187.80078499999999
 20
683.06677599999989
 30
0.0
  0
VERTEX
  5
998
  8
0
 62
     3
 10
-187.88033699999991
 20
682.97052399999995
 30
0.0
  0
VERTEX
  5
999
  8
0
 62
     3
 10
-187.97176699999989
 20
682.87205900000004
 30
0.0
  0
VERTEX
  5
99A
  8
0
 62
     3
 10
-188.07745
 20
682.76950499999987
 30
0.0
  0
VERTEX
  5
99B
  8
0
 62
     3
 10
-188.20170999999999
 20
682.65941199999997
 30
0.0
  0
VERTEX
  5
99C
  8
0
 62
     3
 10
-188.35442
 20
682.533726
 30
0.0
  0
VERTEX
  5
99D
  8
0
 62
     3
 10
-188.54436100000001
 20
682.383915
 30
0.0
  0
VERTEX
  5
99E
  8
0
 62
     3
 10
-188.75159099999991
 20
682.21943999999996
 30
0.0
  0
VERTEX
  5
99F
  8
0
 62
     3
 10
-188.95503600000001
 20
682.05327199999999
 30
0.0
  0
VERTEX
  5
9A0
  8
0
 62
     3
 10
-189.21803700000001
 20
681.82956300000001
 30
0.0
  0
VERTEX
  5
9A1
  8
0
 62
     3
 10
-189.37454600000001
 20
681.69173000000001
 30
0.0
  0
VERTEX
  5
9A2
  8
0
 62
     3
 10
-189.53033099999999
 20
681.55136500000003
 30
0.0
  0
VERTEX
  5
9A3
  8
0
 62
     3
 10
-189.68385699999999
 20
681.40848200000005
 30
0.0
  0
VERTEX
  5
9A4
  8
0
 62
     3
 10
-189.78483199999991
 20
681.31117599999993
 30
0.0
  0
VERTEX
  5
9A5
  8
0
 62
     3
 10
-189.88422800000001
 20
681.21232999999995
 30
0.0
  0
VERTEX
  5
9A6
  8
0
 62
     3
 10
-189.97382399999989
 20
681.12028899999984
 30
0.0
  0
VERTEX
  5
9A7
  8
0
 62
     3
 10
-190.06184400000001
 20
681.02689000000009
 30
0.0
  0
VERTEX
  5
9A8
  8
0
 62
     3
 10
-190.2294959999999
 20
680.84028999999987
 30
0.0
  0
VERTEX
  5
9A9
  8
0
 62
     3
 10
-190.25123199999999
 20
680.81523499999992
 30
0.0
  0
VERTEX
  5
9AA
  8
0
 62
     3
 10
-190.41817099999989
 20
680.61832000000004
 30
0.0
  0
VERTEX
  5
9AB
  8
0
 62
     3
 10
-190.673351
 20
680.321552
 30
0.0
  0
VERTEX
  5
9AC
  8
0
 62
     3
 10
-190.94263799999999
 20
680.03052100000002
 30
0.0
  0
VERTEX
  5
9AD
  8
0
 62
     3
 10
-191.06467399999991
 20
679.9030489999999
 30
0.0
  0
VERTEX
  5
9AE
  8
0
 62
     3
 10
-191.18337600000001
 20
679.77310599999998
 30
0.0
  0
VERTEX
  5
9AF
  8
0
 62
     3
 10
-191.2342449999999
 20
679.71315400000003
 30
0.0
  0
VERTEX
  5
9B0
  8
0
 62
     3
 10
-191.28293199999999
 20
679.65192000000002
 30
0.0
  0
VERTEX
  5
9B1
  8
0
 62
     3
 10
-191.32094599999999
 20
679.60060499999986
 30
0.0
  0
VERTEX
  5
9B2
  8
0
 62
     3
 10
-191.356987
 20
679.54816100000005
 30
0.0
  0
VERTEX
  5
9B3
  8
0
 62
     3
 10
-191.37419099999991
 20
679.52148799999986
 30
0.0
  0
SEQEND
  5
9B4
  8
0
 62
     3
  0
POLYLINE
  5
28A
  8
0
 62
     3
 66
     1
 10
0.0
 20
0.0
 30
0.0
  0
VERTEX
  5
9B5
  8
0
 62
     3
 10
-197.58404899999991
 20
675.052097
 30
0.0
  0
VERTEX
  5
9B6
  8
0
 62
     3
 10
-197.63774099999989
 20
674.95576900000003
 30
0.0
  0
VERTEX
  5
9B7
  8
0
 62
     3
 10
-197.68893799999989
 20
674.84813299999985
 30
0.0
  0
VERTEX
  5
9B8
  8
0
 62
     3
 10
-197.73867799999991
 20
674.72584900000004
 30
0.0
  0
VERTEX
  5
9B9
  8
0
 62
     3
 10
-197.78868499999999
 20
674.58307300000001
 30
0.0
  0
VERTEX
  5
9BA
  8
0
 62
     3
 10
-197.84258700000001
 20
674.40744400000005
 30
0.0
  0
VERTEX
  5
9BB
  8
0
 62
     3
 10
-197.91256299999989
 20
674.15832899999998
 30
0.0
  0
VERTEX
  5
9BC
  8
0
 62
     3
 10
-197.97639499999991
 20
673.93355199999996
 30
0.0
  0
VERTEX
  5
9BD
  8
0
 62
     3
 10
-198.04650099999989
 20
673.71068200000002
 30
0.0
  0
VERTEX
  5
9BE
  8
0
 62
     3
 10
-198.11172500000001
 20
673.52782100000002
 30
0.0
  0
VERTEX
  5
9BF
  8
0
 62
     3
 10
-198.2174259999999
 20
673.24583799999994
 30
0.0
  0
VERTEX
  5
9C0
  8
0
 62
     3
 10
-198.26394999999991
 20
673.11572599999988
 30
0.0
  0
VERTEX
  5
9C1
  8
0
 62
     3
 10
-198.3067439999999
 20
672.98515700000007
 30
0.0
  0
VERTEX
  5
9C2
  8
0
 62
     3
 10
-198.33048199999999
 20
672.90462099999991
 30
0.0
  0
VERTEX
  5
9C3
  8
0
 62
     3
 10
-198.35189099999991
 20
672.82362699999999
 30
0.0
  0
VERTEX
  5
9C4
  8
0
 62
     3
 10
-198.3705709999999
 20
672.74231299999997
 30
0.0
  0
VERTEX
  5
9C5
  8
0
 62
     3
 10
-198.3946149999999
 20
672.60954700000002
 30
0.0
  0
VERTEX
  5
9C6
  8
0
 62
     3
 10
-198.412071
 20
672.46930299999997
 30
0.0
  0
VERTEX
  5
9C7
  8
0
 62
     3
 10
-198.423023
 20
672.31865300000004
 30
0.0
  0
VERTEX
  5
9C8
  8
0
 62
     3
 10
-198.4274979999999
 20
672.15230199999985
 30
0.0
  0
VERTEX
  5
9C9
  8
0
 62
     3
 10
-198.42542299999991
 20
671.95840799999985
 30
0.0
  0
VERTEX
  5
9CA
  8
0
 62
     3
 10
-198.41653400000001
 20
671.69366799999989
 30
0.0
  0
VERTEX
  5
9CB
  8
0
 62
     3
 10
-198.4161
 20
671.68114100000003
 30
0.0
  0
VERTEX
  5
9CC
  8
0
 62
     3
 10
-198.41051100000001
 20
671.48549300000002
 30
0.0
  0
VERTEX
  5
9CD
  8
0
 62
     3
 10
-198.407768
 20
671.29033300000003
 30
0.0
  0
VERTEX
  5
9CE
  8
0
 62
     3
 10
-198.4079669999999
 20
671.14207799999997
 30
0.0
  0
VERTEX
  5
9CF
  8
0
 62
     3
 10
-198.4103089999999
 20
670.99383899999987
 30
0.0
  0
VERTEX
  5
9D0
  8
0
 62
     3
 10
-198.41651899999991
 20
670.80469100000005
 30
0.0
  0
VERTEX
  5
9D1
  8
0
 62
     3
 10
-198.4237169999999
 20
670.66220499999997
 30
0.0
  0
VERTEX
  5
9D2
  8
0
 62
     3
 10
-198.43390299999999
 20
670.51977899999986
 30
0.0
  0
VERTEX
  5
9D3
  8
0
 62
     3
 10
-198.4435039999999
 20
670.41833899999995
 30
0.0
  0
VERTEX
  5
9D4
  8
0
 62
     3
 10
-198.45540600000001
 20
670.31724899999995
 30
0.0
  0
VERTEX
  5
9D5
  8
0
 62
     3
 10
-198.46788399999991
 20
670.22954200000004
 30
0.0
  0
VERTEX
  5
9D6
  8
0
 62
     3
 10
-198.48250999999999
 20
670.14232300000003
 30
0.0
  0
VERTEX
  5
9D7
  8
0
 62
     3
 10
-198.49792099999991
 20
670.06300699999997
 30
0.0
  0
VERTEX
  5
9D8
  8
0
 62
     3
 10
-198.51540800000001
 20
669.98425700000007
 30
0.0
  0
VERTEX
  5
9D9
  8
0
 62
     3
 10
-198.533772
 20
669.91104499999994
 30
0.0
  0
VERTEX
  5
9DA
  8
0
 62
     3
 10
-198.55414999999999
 20
669.83847400000002
 30
0.0
  0
VERTEX
  5
9DB
  8
0
 62
     3
 10
-198.57545899999991
 20
669.77016100000003
 30
0.0
  0
VERTEX
  5
9DC
  8
0
 62
     3
 10
-198.59873200000001
 20
669.70256399999994
 30
0.0
  0
VERTEX
  5
9DD
  8
0
 62
     3
 10
-198.60062799999989
 20
669.69732999999985
 30
0.0
  0
VERTEX
  5
9DE
  8
0
 62
     3
 10
-198.651093
 20
669.57001100000002
 30
0.0
  0
VERTEX
  5
9DF
  8
0
 62
     3
 10
-198.71114
 20
669.43971599999998
 30
0.0
  0
VERTEX
  5
9E0
  8
0
 62
     3
 10
-198.78188700000001
 20
669.30479800000001
 30
0.0
  0
VERTEX
  5
9E1
  8
0
 62
     3
 10
-198.86499399999991
 20
669.16290700000002
 30
0.0
  0
VERTEX
  5
9E2
  8
0
 62
     3
 10
-198.963131
 20
669.01039500000002
 30
0.0
  0
VERTEX
  5
9E3
  8
0
 62
     3
 10
-199.06220200000001
 20
668.86716100000001
 30
0.0
  0
VERTEX
  5
9E4
  8
0
 62
     3
 10
-199.134289
 20
668.76752099999999
 30
0.0
  0
VERTEX
  5
9E5
  8
0
 62
     3
 10
-199.20780199999999
 20
668.66934600000002
 30
0.0
  0
VERTEX
  5
9E6
  8
0
 62
     3
 10
-199.357979
 20
668.47877900000003
 30
0.0
  0
VERTEX
  5
9E7
  8
0
 62
     3
 10
-199.5134929999999
 20
668.29428499999995
 30
0.0
  0
VERTEX
  5
9E8
  8
0
 62
     3
 10
-199.66186099999999
 20
668.12900199999979
 30
0.0
  0
VERTEX
  5
9E9
  8
0
 62
     3
 10
-199.83307999999991
 20
667.94746799999984
 30
0.0
  0
VERTEX
  5
9EA
  8
0
 62
     3
 10
-200.04812599999991
 20
667.71927300000004
 30
0.0
  0
VERTEX
  5
9EB
  8
0
 62
     3
 10
-200.26175699999999
 20
667.48331099999996
 30
0.0
  0
VERTEX
  5
9EC
  8
0
 62
     3
 10
-200.40080599999999
 20
667.3275789999999
 30
0.0
  0
VERTEX
  5
9ED
  8
0
 62
     3
 10
-200.54423899999989
 20
667.17796699999985
 30
0.0
  0
VERTEX
  5
9EE
  8
0
 62
     3
 10
-200.59627900000001
 20
667.12859000000003
 30
0.0
  0
VERTEX
  5
9EF
  8
0
 62
     3
 10
-200.64953999999989
 20
667.08130300000005
 30
0.0
  0
VERTEX
  5
9F0
  8
0
 62
     3
 10
-200.696213
 20
667.04272800000001
 30
0.0
  0
VERTEX
  5
9F1
  8
0
 62
     3
 10
-200.74399899999989
 20
667.00612299999989
 30
0.0
  0
VERTEX
  5
9F2
  8
0
 62
     3
 10
-200.78833399999999
 20
666.97479599999986
 30
0.0
  0
VERTEX
  5
9F3
  8
0
 62
     3
 10
-200.83373599999999
 20
666.94534699999986
 30
0.0
  0
VERTEX
  5
9F4
  8
0
 62
     3
 10
-200.860939
 20
666.92897400000004
 30
0.0
  0
VERTEX
  5
9F5
  8
0
 62
     3
 10
-200.94825399999999
 20
666.88237400000003
 30
0.0
  0
VERTEX
  5
9F6
  8
0
 62
     3
 10
-201.045593
 20
666.83917599999995
 30
0.0
  0
VERTEX
  5
9F7
  8
0
 62
     3
 10
-201.15642899999989
 20
666.79831300000001
 30
0.0
  0
VERTEX
  5
9F8
  8
0
 62
     3
 10
-201.28766599999989
 20
666.75783200000001
 30
0.0
  0
VERTEX
  5
9F9
  8
0
 62
     3
 10
-201.45876699999999
 20
666.71210099999985
 30
0.0
  0
VERTEX
  5
9FA
  8
0
 62
     3
 10
-201.646107
 20
666.66328799999985
 30
0.0
  0
VERTEX
  5
9FB
  8
0
 62
     3
 10
-201.83026899999999
 20
666.607304
 30
0.0
  0
VERTEX
  5
9FC
  8
0
 62
     3
 10
-201.89017100000001
 20
666.58552899999995
 30
0.0
  0
VERTEX
  5
9FD
  8
0
 62
     3
 10
-201.949127
 20
666.56195400000001
 30
0.0
  0
VERTEX
  5
9FE
  8
0
 62
     3
 10
-202.06348799999989
 20
666.50980000000004
 30
0.0
  0
VERTEX
  5
9FF
  8
0
 62
     3
 10
-202.17564399999989
 20
666.44994000000008
 30
0.0
  0
VERTEX
  5
A00
  8
0
 62
     3
 10
-202.288105
 20
666.38106200000004
 30
0.0
  0
VERTEX
  5
A01
  8
0
 62
     3
 10
-202.40441899999999
 20
666.30079999999987
 30
0.0
  0
VERTEX
  5
A02
  8
0
 62
     3
 10
-202.53123500000001
 20
666.20427299999994
 30
0.0
  0
VERTEX
  5
A03
  8
0
 62
     3
 10
-202.66053400000001
 20
666.09932300000003
 30
0.0
  0
VERTEX
  5
A04
  8
0
 62
     3
 10
-202.82804899999991
 20
665.96123099999988
 30
0.0
  0
VERTEX
  5
A05
  8
0
 62
     3
 10
-202.99734499999991
 20
665.82661799999994
 30
0.0
  0
VERTEX
  5
A06
  8
0
 62
     3
 10
-203.08292399999999
 20
665.76211899999998
 30
0.0
  0
VERTEX
  5
A07
  8
0
 62
     3
 10
-203.169849
 20
665.69949699999995
 30
0.0
  0
VERTEX
  5
A08
  8
0
 62
     3
 10
-203.260017
 20
665.63777500000003
 30
0.0
  0
VERTEX
  5
A09
  8
0
 62
     3
 10
-203.417473
 20
665.53673200000003
 30
0.0
  0
VERTEX
  5
A0A
  8
0
 62
     3
 10
-203.655979
 20
665.390308
 30
0.0
  0
VERTEX
  5
A0B
  8
0
 62
     3
 10
-203.81642500000001
 20
665.28981399999986
 30
0.0
  0
VERTEX
  5
A0C
  8
0
 62
     3
 10
-203.97370499999991
 20
665.18526099999997
 30
0.0
  0
VERTEX
  5
A0D
  8
0
 62
     3
 10
-204.05171599999991
 20
665.13003900000001
 30
0.0
  0
VERTEX
  5
A0E
  8
0
 62
     3
 10
-204.128311
 20
665.07301699999994
 30
0.0
  0
VERTEX
  5
A0F
  8
0
 62
     3
 10
-204.229412
 20
664.99266399999999
 30
0.0
  0
VERTEX
  5
A10
  8
0
 62
     3
 10
-204.35158200000001
 20
664.88765299999989
 30
0.0
  0
VERTEX
  5
A11
  8
0
 62
     3
 10
-204.55478999999991
 20
664.70709599999986
 30
0.0
  0
VERTEX
  5
A12
  8
0
 62
     3
 10
-204.648571
 20
664.62675899999988
 30
0.0
  0
VERTEX
  5
A13
  8
0
 62
     3
 10
-204.744415
 20
664.54863399999988
 30
0.0
  0
VERTEX
  5
A14
  8
0
 62
     3
 10
-204.82822400000001
 20
664.48408899999993
 30
0.0
  0
SEQEND
  5
A15
  8
0
 62
     3
  0
POLYLINE
  5
2EC
  8
0
 62
     3
 66
     1
 10
0.0
 20
0.0
 30
0.0
  0
VERTEX
  5
A16
  8
0
 62
     3
 10
-204.82822400000001
 20
664.48408899999993
 30
0.0
  0
VERTEX
  5
A17
  8
0
 62
     3
 10
-204.9323959999999
 20
664.410664
 30
0.0
  0
VERTEX
  5
A18
  8
0
 62
     3
 10
-205.05939499999999
 20
664.33006699999999
 30
0.0
  0
VERTEX
  5
A19
  8
0
 62
     3
 10
-205.23141499999991
 20
664.22857999999985
 30
0.0
  0
VERTEX
  5
A1A
  8
0
 62
     3
 10
-205.44668200000001
 20
664.10101699999996
 30
0.0
  0
VERTEX
  5
A1B
  8
0
 62
     3
 10
-205.6505469999999
 20
663.96338300000002
 30
0.0
  0
VERTEX
  5
A1C
  8
0
 62
     3
 10
-205.70015699999999
 20
663.92477799999995
 30
0.0
  0
VERTEX
  5
A1D
  8
0
 62
     3
 10
-205.748131
 20
663.8845859999999
 30
0.0
  0
VERTEX
  5
A1E
  8
0
 62
     3
 10
-205.78928400000001
 20
663.84735499999999
 30
0.0
  0
VERTEX
  5
A1F
  8
0
 62
     3
 10
-205.82888399999999
 20
663.808582
 30
0.0
  0
VERTEX
  5
A20
  8
0
 62
     3
 10
-205.84387599999999
 20
663.79303400000003
 30
0.0
  0
VERTEX
  5
A21
  8
0
 62
     3
 10
-205.91024799999991
 20
663.71724299999994
 30
0.0
  0
VERTEX
  5
A22
  8
0
 62
     3
 10
-205.9727749999999
 20
663.63383899999985
 30
0.0
  0
VERTEX
  5
A23
  8
0
 62
     3
 10
-206.031834
 20
663.54193499999985
 30
0.0
  0
VERTEX
  5
A24
  8
0
 62
     3
 10
-206.08783299999999
 20
663.44029599999999
 30
0.0
  0
VERTEX
  5
A25
  8
0
 62
     3
 10
-206.14134599999991
 20
663.32707600000003
 30
0.0
  0
VERTEX
  5
A26
  8
0
 62
     3
 10
-206.19327200000001
 20
663.19926799999985
 30
0.0
  0
VERTEX
  5
A27
  8
0
 62
     3
 10
-206.21257
 20
663.14676299999985
 30
0.0
  0
VERTEX
  5
A28
  8
0
 62
     3
 10
-206.26557199999991
 20
662.987934
 30
0.0
  0
VERTEX
  5
A29
  8
0
 62
     3
 10
-206.319298
 20
662.80347099999994
 30
0.0
  0
VERTEX
  5
A2A
  8
0
 62
     3
 10
-206.37512199999989
 20
662.58575800000006
 30
0.0
  0
VERTEX
  5
A2B
  8
0
 62
     3
 10
-206.43484499999991
 20
662.32410000000004
 30
0.0
  0
VERTEX
  5
A2C
  8
0
 62
     3
 10
-206.498062
 20
662.01430099999993
 30
0.0
  0
VERTEX
  5
A2D
  8
0
 62
     3
 10
-206.53549199999989
 20
661.80899399999987
 30
0.0
  0
SEQEND
  5
A2E
  8
0
 62
     3
  0
LINE
  5
306
  8
0
 62
     3
 10
-197.5840189999999
 20
663.27177800000004
 30
0.0
 11
-206.16493199999991
 21
663.27177800000004
 31
0.0
  0
LINE
  5
307
  8
0
 62
     3
 10
-197.5840189999999
 20
662.02177800000004
 30
0.0
 11
-226.58405899999991
 21
662.02177800000004
 31
0.0
  0
LINE
  5
308
  8
0
  6
DASHDOT
 62
     7
 10
-121.58402599999999
 20
524.27177400000005
 30
0.0
 11
-121.58402599999999
 21
539.27173200000004
 31
0.0
  0
LINE
  5
309
  8
0
  6
DASHDOT
 62
     7
 10
-114.0840569999999
 20
531.77175499999998
 30
0.0
 11
-129.08401099999989
 21
531.77175499999998
 31
0.0
  0
CIRCLE
  5
30A
  8
0
 62
     7
 10
-83.662884000000005
 20
674.36188099999993
 30
0.0
 40
0.2
  0
LINE
  5
30B
  8
0
 62
     7
 10
-267.67715099999998
 20
516.27176299999985
 30
0.0
 11
-266.63528100000002
 21
522.180611
 31
0.0
  0
LINE
  5
30C
  8
0
 62
     7
 10
-267.67715099999998
 20
516.27176299999985
 30
0.0
 11
-268.719021
 21
522.180611
 31
0.0
  0
LINE
  5
30D
  8
0
 62
     7
 10
-267.67715099999998
 20
686.27176299999985
 30
0.0
 11
-268.719021
 21
680.36291900000003
 31
0.0
  0
LINE
  5
30E
  8
0
 62
     7
 10
-267.67715099999998
 20
686.27176299999985
 30
0.0
 11
-266.63528100000002
 21
680.36291900000003
 31
0.0
  0
LINE
  5
30F
  8
0
 62
     7
 10
-267.67715099999998
 20
516.27176299999985
 30
0.0
 11
-267.67715099999998
 21
686.27176299999985
 31
0.0
  0
LINE
  5
310
  8
0
 62
     7
 10
-271.67715099999998
 20
516.27176299999985
 30
0.0
 11
-223.08401099999989
 21
516.27176699999995
 31
0.0
  0
LINE
  5
311
  8
0
 62
     7
 10
-271.67715099999998
 20
686.27176299999985
 30
0.0
 11
-223.08401099999989
 21
686.27176299999985
 31
0.0
  0
LINE
  5
312
  8
0
 62
     7
 10
-86.584011000000004
 20
450.90391899999997
 30
0.0
 11
-92.492824999999996
 21
451.94580499999989
 31
0.0
  0
LINE
  5
313
  8
0
 62
     7
 10
-86.584011000000004
 20
450.90391899999997
 30
0.0
 11
-92.492824999999996
 21
449.86202600000001
 31
0.0
  0
LINE
  5
314
  8
0
 62
     7
 10
-226.58401099999989
 20
450.90396500000003
 30
0.0
 11
-220.67519799999991
 21
449.8620719999999
 31
0.0
  0
LINE
  5
315
  8
0
 62
     7
 10
-226.58401099999989
 20
450.90396500000003
 30
0.0
 11
-220.67519799999991
 21
451.94584999999989
 31
0.0
  0
LINE
  5
316
  8
0
 62
     7
 10
-86.584011000000004
 20
450.90391899999997
 30
0.0
 11
-226.58401099999989
 21
450.90396500000003
 31
0.0
  0
LINE
  5
317
  8
0
 62
     7
 10
-86.584011000000004
 20
446.90391899999997
 30
0.0
 11
-86.584011000000004
 21
547.01787899999999
 31
0.0
  0
LINE
  5
318
  8
0
 62
     7
 10
-226.58401099999989
 20
446.90396500000003
 30
0.0
 11
-226.58401099999989
 21
519.07182699999987
 31
0.0
  0
LINE
  5
319
  8
0
 62
     7
 10
-86.584011000000004
 20
482.486019
 30
0.0
 11
-92.492824999999996
 21
483.52790499999992
 31
0.0
  0
LINE
  5
31A
  8
0
 62
     7
 10
-86.584011000000004
 20
482.486019
 30
0.0
 11
-92.492824999999996
 21
481.44412599999993
 31
0.0
  0
LINE
  5
31B
  8
0
 62
     7
 10
-139.084011
 20
482.4860339999999
 30
0.0
 11
-133.17519799999991
 21
481.44414099999989
 31
0.0
  0
LINE
  5
31C
  8
0
 62
     7
 10
-139.084011
 20
482.4860339999999
 30
0.0
 11
-133.17519799999991
 21
483.52791999999999
 31
0.0
  0
LINE
  5
31D
  8
0
 62
     7
 10
-86.584011000000004
 20
482.486019
 30
0.0
 11
-139.084011
 21
482.4860339999999
 31
0.0
  0
LINE
  5
31E
  8
0
 62
     7
 10
-86.584011000000004
 20
478.486019
 30
0.0
 11
-86.584011000000004
 21
547.01787899999999
 31
0.0
  0
LINE
  5
31F
  8
0
 62
     7
 10
-139.084011
 20
478.4860339999999
 30
0.0
 11
-139.084011
 21
628.95148099999994
 31
0.0
  0
LINE
  5
320
  8
0
 62
     7
 10
-104.0840109999999
 20
495.11883899999992
 30
0.0
 11
-109.9929469999999
 21
496.160732
 31
0.0
  0
LINE
  5
321
  8
0
 62
     7
 10
-104.0840109999999
 20
495.11883899999992
 30
0.0
 11
-109.9929469999999
 21
494.07695399999989
 31
0.0
  0
LINE
  5
322
  8
0
 62
     7
 10
-139.084011
 20
495.118855
 30
0.0
 11
-133.17519799999991
 21
494.07696199999998
 31
0.0
  0
LINE
  5
323
  8
0
 62
     7
 10
-139.084011
 20
495.118855
 30
0.0
 11
-133.17519799999991
 21
496.16073999999998
 31
0.0
  0
LINE
  5
324
  8
0
 62
     7
 10
-139.084011
 20
495.118855
 30
0.0
 11
-144.99282500000001
 21
496.16074400000002
 31
0.0
  0
LINE
  5
325
  8
0
 62
     7
 10
-139.084011
 20
495.118855
 30
0.0
 11
-144.99282500000001
 21
494.07696199999998
 31
0.0
  0
LINE
  5
326
  8
0
 62
     7
 10
-174.084011
 20
495.11886199999998
 30
0.0
 11
-168.17519799999999
 21
494.07697699999989
 31
0.0
  0
LINE
  5
327
  8
0
 62
     7
 10
-174.084011
 20
495.11886199999998
 30
0.0
 11
-168.17519799999999
 21
496.160751
 31
0.0
  0
LINE
  5
328
  8
0
 62
     7
 10
-174.084011
 20
495.11886199999998
 30
0.0
 11
-179.9929469999999
 21
496.160751
 31
0.0
  0
LINE
  5
329
  8
0
 62
     7
 10
-174.084011
 20
495.11886199999998
 30
0.0
 11
-179.9929469999999
 21
494.07697699999989
 31
0.0
  0
LINE
  5
32A
  8
0
 62
     7
 10
-209.084011
 20
495.11887699999988
 30
0.0
 11
-203.17519799999999
 21
494.07698399999992
 31
0.0
  0
LINE
  5
32B
  8
0
 62
     7
 10
-209.084011
 20
495.11887699999988
 30
0.0
 11
-203.17519799999999
 21
496.16076299999992
 31
0.0
  0
LINE
  5
32C
  8
0
 62
     7
 10
-104.0840109999999
 20
495.11883899999992
 30
0.0
 11
-209.084011
 21
495.11887699999988
 31
0.0
  0
LINE
  5
32D
  8
0
 62
     7
 10
-104.0840109999999
 20
491.11883899999992
 30
0.0
 11
-104.0840109999999
 21
515.87177999999994
 31
0.0
  0
LINE
  5
32E
  8
0
 62
     7
 10
-139.084011
 20
499.118855
 30
0.0
 11
-139.084011
 21
483.0972099999999
 31
0.0
  0
LINE
  5
32F
  8
0
 62
     7
 10
-174.084011
 20
491.11886199999998
 30
0.0
 11
-174.084011
 21
515.87178800000004
 31
0.0
  0
LINE
  5
330
  8
0
 62
     7
 10
-209.084011
 20
491.11887699999988
 30
0.0
 11
-209.084011
 21
520.27180899999985
 31
0.0
  0
LINE
  5
331
  8
0
 62
     7
 10
-86.584011000000004
 20
467.90967899999998
 30
0.0
 11
-92.492824999999996
 21
468.95156500000002
 31
0.0
  0
LINE
  5
332
  8
0
 62
     7
 10
-86.584011000000004
 20
467.90967899999998
 30
0.0
 11
-92.492824999999996
 21
466.86778600000002
 31
0.0
  0
LINE
  5
333
  8
0
 62
     7
 10
-191.58401099999989
 20
467.909672
 30
0.0
 11
-185.67519799999999
 21
466.86778600000002
 31
0.0
  0
LINE
  5
334
  8
0
 62
     7
 10
-191.58401099999989
 20
467.909672
 30
0.0
 11
-185.67519799999999
 21
468.95156500000002
 31
0.0
  0
LINE
  5
335
  8
0
 62
     7
 10
-86.584011000000004
 20
467.90967899999998
 30
0.0
 11
-191.58401099999989
 21
467.909672
 31
0.0
  0
LINE
  5
336
  8
0
 62
     7
 10
-86.584011000000004
 20
463.90967899999993
 30
0.0
 11
-86.584011000000004
 21
547.01788299999998
 31
0.0
  0
LINE
  5
337
  8
0
 62
     7
 10
-191.58401099999989
 20
463.909672
 30
0.0
 11
-191.58401099999989
 21
546.52177800000004
 31
0.0
  0
LINE
  5
338
  8
0
 62
     5
 10
-249.322048
 20
599.02178600000002
 30
0.0
 11
-248.28017799999989
 21
604.93062999999995
 31
0.0
  0
LINE
  5
339
  8
0
 62
     5
 10
-249.322048
 20
599.02178600000002
 30
0.0
 11
-250.3639179999999
 21
604.93062999999995
 31
0.0
  0
LINE
  5
33A
  8
0
 62
     5
 10
-249.322048
 20
686.27177800000004
 30
0.0
 11
-250.3639179999999
 21
680.362934
 31
0.0
  0
LINE
  5
33B
  8
0
 62
     5
 10
-249.322048
 20
686.27177800000004
 30
0.0
 11
-248.28017799999989
 21
680.362934
 31
0.0
  0
LINE
  5
33C
  8
0
 62
     5
 10
-249.322048
 20
599.02178600000002
 30
0.0
 11
-249.322048
 21
686.27177800000004
 31
0.0
  0
LINE
  5
33D
  8
0
 62
     5
 10
-253.322048
 20
599.02178600000002
 30
0.0
 11
-236.3030049999999
 21
599.02178600000002
 31
0.0
  0
LINE
  5
33E
  8
0
 62
     5
 10
-253.322048
 20
686.27177800000004
 30
0.0
 11
-189.834011
 21
686.27177800000004
 31
0.0
  0
LINE
  5
33F
  8
0
 62
     7
 10
-31.293606
 20
513.77177800000004
 30
0.0
 11
-30.251736000000001
 21
519.68062599999985
 31
0.0
  0
LINE
  5
340
  8
0
 62
     7
 10
-31.293606
 20
513.77177800000004
 30
0.0
 11
-32.335476
 21
519.68062599999985
 31
0.0
  0
LINE
  5
341
  8
0
 62
     7
 10
-31.293606
 20
688.77179299999989
 30
0.0
 11
-32.335476
 21
682.86293399999988
 31
0.0
  0
LINE
  5
342
  8
0
 62
     7
 10
-31.293606
 20
688.77179299999989
 30
0.0
 11
-30.251736000000001
 21
682.86293399999988
 31
0.0
  0
LINE
  5
343
  8
0
 62
     7
 10
-31.293606
 20
513.77177800000004
 30
0.0
 11
-31.293606
 21
688.77179299999989
 31
0.0
  0
LINE
  5
344
  8
0
 62
     7
 10
-27.293606
 20
513.77177800000004
 30
0.0
 11
-92.584011000000004
 21
513.77177400000005
 31
0.0
  0
LINE
  5
345
  8
0
 62
     7
 10
-27.293606
 20
688.77179299999989
 30
0.0
 11
-87.834011000000004
 21
688.77177800000004
 31
0.0
  0
LINE
  5
346
  8
0
 62
     7
 10
-67.056910999999999
 20
599.02178600000002
 30
0.0
 11
-66.015040999999997
 21
604.93063700000005
 31
0.0
  0
LINE
  5
347
  8
0
 62
     7
 10
-67.056910999999999
 20
599.02178600000002
 30
0.0
 11
-68.098781999999986
 21
604.93063700000005
 31
0.0
  0
LINE
  5
348
  8
0
 62
     7
 10
-67.056910999999999
 20
688.77179299999989
 30
0.0
 11
-68.098781999999986
 21
682.86293399999988
 31
0.0
  0
LINE
  5
349
  8
0
 62
     7
 10
-67.056910999999999
 20
688.77179299999989
 30
0.0
 11
-66.015040999999997
 21
682.86293399999988
 31
0.0
  0
LINE
  5
34A
  8
0
 62
     7
 10
-67.056910999999999
 20
599.02178600000002
 30
0.0
 11
-67.056910999999999
 21
688.77179299999989
 31
0.0
  0
LINE
  5
34B
  8
0
 62
     7
 10
-63.056910999999999
 20
599.02178600000002
 30
0.0
 11
-72.823391000000001
 21
599.02178600000002
 31
0.0
  0
LINE
  5
34C
  8
0
 62
     7
 10
-63.056910999999999
 20
688.77179299999989
 30
0.0
 11
-87.834011000000004
 21
688.77177800000004
 31
0.0
  0
LINE
  5
34D
  8
0
 62
     7
 10
-31.836085999999991
 20
688.77179299999989
 30
0.0
 11
-30.794215999999992
 21
694.68063700000005
 31
0.0
  0
LINE
  5
34E
  8
0
 62
     7
 10
-31.836085999999991
 20
688.77179299999989
 30
0.0
 11
-32.878017
 21
694.68063700000005
 31
0.0
  0
LINE
  5
34F
  8
0
 62
     7
 10
-31.836085999999991
 20
788.77179299999989
 30
0.0
 11
-32.878017
 21
782.86294899999996
 31
0.0
  0
LINE
  5
350
  8
0
 62
     7
 10
-31.836085999999991
 20
788.77179299999989
 30
0.0
 11
-30.794215999999992
 21
782.86294899999996
 31
0.0
  0
LINE
  5
351
  8
0
 62
     7
 10
-31.836085999999991
 20
688.77179299999989
 30
0.0
 11
-31.836085999999991
 21
788.77179299999989
 31
0.0
  0
LINE
  5
352
  8
0
 62
     7
 10
-27.836085999999991
 20
688.77179299999989
 30
0.0
 11
-87.834011000000004
 21
688.77177800000004
 31
0.0
  0
LINE
  5
353
  8
0
 62
     7
 10
-27.836085999999991
 20
788.77179299999989
 30
0.0
 11
-190.69033400000001
 21
788.77179299999989
 31
0.0
  0
LINE
  5
354
  8
0
 62
     7
 10
-199.084011
 20
732.22745099999986
 30
0.0
 11
-204.9929469999999
 21
733.26932099999999
 31
0.0
  0
LINE
  5
355
  8
0
 62
     7
 10
-199.084011
 20
732.22745099999986
 30
0.0
 11
-204.9929469999999
 21
731.18555100000003
 31
0.0
  0
LINE
  5
356
  8
0
 62
     7
 10
-219.08401099999989
 20
732.22745099999986
 30
0.0
 11
-213.17519799999991
 21
731.18555100000003
 31
0.0
  0
LINE
  5
357
  8
0
 62
     7
 10
-219.08401099999989
 20
732.22745099999986
 30
0.0
 11
-213.17519799999991
 21
733.26933700000006
 31
0.0
  0
LINE
  5
358
  8
0
 62
     7
 10
-199.084011
 20
732.22745099999986
 30
0.0
 11
-219.08401099999989
 21
732.22742100000005
 31
0.0
  0
LINE
  5
359
  8
0
 62
     7
 10
-199.084011
 20
736.22745099999986
 30
0.0
 11
-199.084011
 21
718.77177800000004
 31
0.0
  0
LINE
  5
35A
  8
0
 62
     7
 10
-219.08401099999989
 20
736.22745099999986
 30
0.0
 11
-219.08401099999989
 21
718.77176299999985
 31
0.0
  0
LINE
  5
35B
  8
0
 62
     7
 10
-213.18374299999999
 20
708.39206300000001
 30
0.0
 11
-218.60903500000001
 21
710.954655
 31
0.0
  0
LINE
  5
35C
  8
0
 62
     7
 10
-213.18374299999999
 20
708.39206300000001
 30
0.0
 11
-219.15822999999989
 21
708.94455300000004
 31
0.0
  0
LINE
  5
35D
  8
0
 62
     7
 10
-204.98440199999999
 20
706.15149299999985
 30
0.0
 11
-199.55910899999989
 21
703.58890199999985
 31
0.0
  0
LINE
  5
35E
  8
0
 62
     7
 10
-204.98440199999999
 20
706.15149299999985
 30
0.0
 11
-199.009792
 21
705.59900300000004
 31
0.0
  0
LINE
  5
35F
  8
0
 62
     7
 10
-204.98440199999999
 20
706.15149299999985
 30
0.0
 11
-256.31899599999991
 21
720.17917299999999
 31
0.0
  0
LINE
  5
360
  8
0
 62
     7
 10
-50.573269000000003
 20
518.52179000000001
 30
0.0
 11
-49.531337999999991
 21
524.43063700000005
 31
0.0
  0
LINE
  5
361
  8
0
 62
     7
 10
-50.573269000000003
 20
518.52179000000001
 30
0.0
 11
-51.615138999999999
 21
524.43063700000005
 31
0.0
  0
LINE
  5
362
  8
0
 62
     7
 10
-50.573269000000003
 20
679.52179299999989
 30
0.0
 11
-51.615138999999999
 21
673.61294899999996
 31
0.0
  0
LINE
  5
363
  8
0
 62
     7
 10
-50.573269000000003
 20
679.52179299999989
 30
0.0
 11
-49.531337999999991
 21
673.61294899999996
 31
0.0
  0
LINE
  5
364
  8
0
 62
     7
 10
-50.573269000000003
 20
518.52179000000001
 30
0.0
 11
-50.573269000000003
 21
679.52179299999989
 31
0.0
  0
LINE
  5
365
  8
0
 62
     7
 10
-46.573269000000003
 20
518.52179000000001
 30
0.0
 11
-81.834011000000004
 21
518.52179000000001
 31
0.0
  0
LINE
  5
366
  8
0
 62
     7
 10
-46.573269000000003
 20
679.52179299999989
 30
0.0
 11
-81.834011000000004
 21
679.52179299999989
 31
0.0
  0
LINE
  5
367
  8
0
 62
     7
 10
809.36444100000006
 20
655.02178600000002
 30
0.0
 11
809.36444100000006
 21
543.02178599999991
 31
0.0
  0
LINE
  5
368
  8
0
 62
     7
 10
921.36444100000006
 20
655.02178600000002
 30
0.0
 11
921.36444100000006
 21
543.02178599999991
 31
0.0
  0
LINE
  5
369
  8
0
  6
DASHDOT
 62
     7
 10
781.44637299999988
 20
599.02178600000002
 30
0.0
 11
995.01031499999999
 21
599.02178600000002
 31
0.0
  0
LINE
  5
36A
  8
0
  6
DASHDOT
 62
     7
 10
865.36444100000006
 20
726.65765799999986
 30
0.0
 11
865.36444100000006
 21
499.28477099999992
 31
0.0
  0
POLYLINE
  5
36B
  8
0
 62
     3
 66
     1
 10
0.0
 20
0.0
 30
0.0
  0
VERTEX
  5
A2F
  8
0
 62
     3
 10
793.50645399999985
 20
677.17098600000008
 30
0.0
  0
VERTEX
  5
A30
  8
0
 62
     3
 10
809.50645399999985
 20
677.17098600000008
 30
0.0
  0
VERTEX
  5
A31
  8
0
 62
     3
 10
810.50645399999985
 20
679.17098599999997
 30
0.0
  0
VERTEX
  5
A32
  8
0
 62
     3
 10
811.50645399999996
 20
675.17098599999997
 30
0.0
  0
VERTEX
  5
A33
  8
0
 62
     3
 10
812.50645399999996
 20
677.17098600000008
 30
0.0
  0
VERTEX
  5
A34
  8
0
 62
     3
 10
828.50645399999996
 20
677.17098600000008
 30
0.0
  0
VERTEX
  5
A35
  8
0
 62
     3
 10
829.50645399999996
 20
679.17098599999997
 30
0.0
  0
VERTEX
  5
A36
  8
0
 62
     3
 10
830.50645399999996
 20
675.17098599999997
 30
0.0
  0
VERTEX
  5
A37
  8
0
 62
     3
 10
831.50645399999985
 20
677.17098600000008
 30
0.0
  0
VERTEX
  5
A38
  8
0
 62
     3
 10
847.50645399999985
 20
677.17098600000008
 30
0.0
  0
VERTEX
  5
A39
  8
0
 62
     3
 10
848.50645399999985
 20
679.17098599999997
 30
0.0
  0
VERTEX
  5
A3A
  8
0
 62
     3
 10
849.50645399999985
 20
675.17098599999997
 30
0.0
  0
VERTEX
  5
A3B
  8
0
 62
     3
 10
850.50645399999985
 20
677.17098600000008
 30
0.0
  0
VERTEX
  5
A3C
  8
0
 62
     3
 10
866.50645399999985
 20
677.17098600000008
 30
0.0
  0
VERTEX
  5
A3D
  8
0
 62
     3
 10
867.50645399999985
 20
679.17098599999997
 30
0.0
  0
VERTEX
  5
A3E
  8
0
 62
     3
 10
868.50645399999985
 20
675.17098599999997
 30
0.0
  0
VERTEX
  5
A3F
  8
0
 62
     3
 10
869.50645399999996
 20
677.17098600000008
 30
0.0
  0
VERTEX
  5
A40
  8
0
 62
     3
 10
885.50645399999985
 20
677.17098600000008
 30
0.0
  0
VERTEX
  5
A41
  8
0
 62
     3
 10
886.50645399999996
 20
679.17098599999997
 30
0.0
  0
VERTEX
  5
A42
  8
0
 62
     3
 10
887.50645399999996
 20
675.17098599999997
 30
0.0
  0
VERTEX
  5
A43
  8
0
 62
     3
 10
888.50645399999996
 20
677.17098600000008
 30
0.0
  0
VERTEX
  5
A44
  8
0
 62
     3
 10
904.50645399999996
 20
677.17098600000008
 30
0.0
  0
VERTEX
  5
A45
  8
0
 62
     3
 10
905.50645399999996
 20
679.17098599999997
 30
0.0
  0
VERTEX
  5
A46
  8
0
 62
     3
 10
906.50645399999985
 20
675.17098599999997
 30
0.0
  0
VERTEX
  5
A47
  8
0
 62
     3
 10
907.50645399999985
 20
677.17098600000008
 30
0.0
  0
VERTEX
  5
A48
  8
0
 62
     3
 10
923.50645399999985
 20
677.17098600000008
 30
0.0
  0
VERTEX
  5
A49
  8
0
 62
     3
 10
924.50645399999985
 20
679.17098599999997
 30
0.0
  0
VERTEX
  5
A4A
  8
0
 62
     3
 10
925.50645399999985
 20
675.17098599999997
 30
0.0
  0
VERTEX
  5
A4B
  8
0
 62
     3
 10
926.50645399999985
 20
677.17098600000008
 30
0.0
  0
VERTEX
  5
A4C
  8
0
 62
     3
 10
936.71993299999997
 20
677.17098600000008
 30
0.0
  0
SEQEND
  5
A4D
  8
0
 62
     3
  0
POLYLINE
  5
38B
  8
0
 62
     3
 66
     1
 10
0.0
 20
0.0
 30
0.0
  0
VERTEX
  5
A4E
  8
0
 62
     3
 10
793.50645399999985
 20
512.34986500000002
 30
0.0
  0
VERTEX
  5
A4F
  8
0
 62
     3
 10
809.50645399999985
 20
512.34986500000002
 30
0.0
  0
VERTEX
  5
A50
  8
0
 62
     3
 10
810.50645399999985
 20
514.34986500000002
 30
0.0
  0
VERTEX
  5
A51
  8
0
 62
     3
 10
811.50645399999996
 20
510.34986500000002
 30
0.0
  0
VERTEX
  5
A52
  8
0
 62
     3
 10
812.50645399999996
 20
512.34986500000002
 30
0.0
  0
VERTEX
  5
A53
  8
0
 62
     3
 10
828.50645399999996
 20
512.34986500000002
 30
0.0
  0
VERTEX
  5
A54
  8
0
 62
     3
 10
829.50645399999996
 20
514.34986500000002
 30
0.0
  0
VERTEX
  5
A55
  8
0
 62
     3
 10
830.50645399999996
 20
510.34986500000002
 30
0.0
  0
VERTEX
  5
A56
  8
0
 62
     3
 10
831.50645399999985
 20
512.34986500000002
 30
0.0
  0
VERTEX
  5
A57
  8
0
 62
     3
 10
847.50645399999985
 20
512.34986500000002
 30
0.0
  0
VERTEX
  5
A58
  8
0
 62
     3
 10
848.50645399999985
 20
514.34986500000002
 30
0.0
  0
VERTEX
  5
A59
  8
0
 62
     3
 10
849.50645399999985
 20
510.34986500000002
 30
0.0
  0
VERTEX
  5
A5A
  8
0
 62
     3
 10
850.50645399999985
 20
512.34986500000002
 30
0.0
  0
VERTEX
  5
A5B
  8
0
 62
     3
 10
866.50645399999985
 20
512.34986500000002
 30
0.0
  0
VERTEX
  5
A5C
  8
0
 62
     3
 10
867.50645399999985
 20
514.34986500000002
 30
0.0
  0
VERTEX
  5
A5D
  8
0
 62
     3
 10
868.50645399999985
 20
510.34986500000002
 30
0.0
  0
VERTEX
  5
A5E
  8
0
 62
     3
 10
869.50645399999996
 20
512.34986500000002
 30
0.0
  0
VERTEX
  5
A5F
  8
0
 62
     3
 10
885.50645399999985
 20
512.34986500000002
 30
0.0
  0
VERTEX
  5
A60
  8
0
 62
     3
 10
886.50645399999996
 20
514.34986500000002
 30
0.0
  0
VERTEX
  5
A61
  8
0
 62
     3
 10
887.50645399999996
 20
510.34986500000002
 30
0.0
  0
VERTEX
  5
A62
  8
0
 62
     3
 10
888.50645399999996
 20
512.34986500000002
 30
0.0
  0
VERTEX
  5
A63
  8
0
 62
     3
 10
904.50645399999996
 20
512.34986500000002
 30
0.0
  0
VERTEX
  5
A64
  8
0
 62
     3
 10
905.50645399999996
 20
514.34986500000002
 30
0.0
  0
VERTEX
  5
A65
  8
0
 62
     3
 10
906.50645399999985
 20
510.34986500000002
 30
0.0
  0
VERTEX
  5
A66
  8
0
 62
     3
 10
907.50645399999985
 20
512.34986500000002
 30
0.0
  0
VERTEX
  5
A67
  8
0
 62
     3
 10
923.50645399999985
 20
512.34986500000002
 30
0.0
  0
VERTEX
  5
A68
  8
0
 62
     3
 10
924.50645399999985
 20
514.34986500000002
 30
0.0
  0
VERTEX
  5
A69
  8
0
 62
     3
 10
925.50645399999985
 20
510.34986500000002
 30
0.0
  0
VERTEX
  5
A6A
  8
0
 62
     3
 10
926.50645399999985
 20
512.34986500000002
 30
0.0
  0
VERTEX
  5
A6B
  8
0
 62
     3
 10
936.71993299999997
 20
512.34986500000002
 30
0.0
  0
SEQEND
  5
A6C
  8
0
 62
     3
  0
POLYLINE
  5
3AB
  8
0
 62
     3
 66
     1
 10
0.0
 20
0.0
 30
0.0
  0
VERTEX
  5
A6D
  8
0
 62
     3
 10
936.71993299999997
 20
677.17098600000008
 30
0.0
  0
VERTEX
  5
A6E
  8
0
 62
     3
 10
936.71993299999997
 20
661.17098600000008
 30
0.0
  0
VERTEX
  5
A6F
  8
0
 62
     3
 10
938.71993299999986
 20
660.17098599999997
 30
0.0
  0
VERTEX
  5
A70
  8
0
 62
     3
 10
934.71993299999997
 20
659.17098599999997
 30
0.0
  0
VERTEX
  5
A71
  8
0
 62
     3
 10
936.71993299999997
 20
658.17098600000008
 30
0.0
  0
VERTEX
  5
A72
  8
0
 62
     3
 10
936.71993299999997
 20
642.17098599999997
 30
0.0
  0
VERTEX
  5
A73
  8
0
 62
     3
 10
938.71993299999986
 20
641.17098600000008
 30
0.0
  0
VERTEX
  5
A74
  8
0
 62
     3
 10
934.71993299999997
 20
640.17098600000008
 30
0.0
  0
VERTEX
  5
A75
  8
0
 62
     3
 10
936.71993299999997
 20
639.17098599999997
 30
0.0
  0
VERTEX
  5
A76
  8
0
 62
     3
 10
936.71993299999997
 20
623.17098600000008
 30
0.0
  0
VERTEX
  5
A77
  8
0
 62
     3
 10
938.71993299999986
 20
622.17098599999997
 30
0.0
  0
VERTEX
  5
A78
  8
0
 62
     3
 10
934.71993299999997
 20
621.17098599999997
 30
0.0
  0
VERTEX
  5
A79
  8
0
 62
     3
 10
936.71993299999997
 20
620.17098600000008
 30
0.0
  0
VERTEX
  5
A7A
  8
0
 62
     3
 10
936.71993299999997
 20
604.17098599999997
 30
0.0
  0
VERTEX
  5
A7B
  8
0
 62
     3
 10
938.71993299999986
 20
603.17098600000008
 30
0.0
  0
VERTEX
  5
A7C
  8
0
 62
     3
 10
934.71993299999997
 20
602.17098600000008
 30
0.0
  0
VERTEX
  5
A7D
  8
0
 62
     3
 10
936.71993299999997
 20
601.17098599999997
 30
0.0
  0
VERTEX
  5
A7E
  8
0
 62
     3
 10
936.71993299999997
 20
585.17098599999997
 30
0.0
  0
VERTEX
  5
A7F
  8
0
 62
     3
 10
938.71993299999986
 20
584.17098599999997
 30
0.0
  0
VERTEX
  5
A80
  8
0
 62
     3
 10
934.71993299999997
 20
583.17098600000008
 30
0.0
  0
VERTEX
  5
A81
  8
0
 62
     3
 10
936.71993299999997
 20
582.17098600000008
 30
0.0
  0
VERTEX
  5
A82
  8
0
 62
     3
 10
936.71993299999997
 20
566.17098600000008
 30
0.0
  0
VERTEX
  5
A83
  8
0
 62
     3
 10
938.71993299999986
 20
565.17098600000008
 30
0.0
  0
VERTEX
  5
A84
  8
0
 62
     3
 10
934.71993299999997
 20
564.17098599999997
 30
0.0
  0
VERTEX
  5
A85
  8
0
 62
     3
 10
936.71993299999997
 20
563.17098599999997
 30
0.0
  0
VERTEX
  5
A86
  8
0
 62
     3
 10
936.71993299999997
 20
547.17098599999997
 30
0.0
  0
VERTEX
  5
A87
  8
0
 62
     3
 10
938.71993299999986
 20
546.17098599999997
 30
0.0
  0
VERTEX
  5
A88
  8
0
 62
     3
 10
934.71993299999997
 20
545.17098600000008
 30
0.0
  0
VERTEX
  5
A89
  8
0
 62
     3
 10
936.71993299999997
 20
544.17098600000008
 30
0.0
  0
VERTEX
  5
A8A
  8
0
 62
     3
 10
936.71993299999997
 20
528.17098600000008
 30
0.0
  0
VERTEX
  5
A8B
  8
0
 62
     3
 10
938.71993299999986
 20
527.17098599999997
 30
0.0
  0
VERTEX
  5
A8C
  8
0
 62
     3
 10
934.71993299999997
 20
526.17098599999997
 30
0.0
  0
VERTEX
  5
A8D
  8
0
 62
     3
 10
936.71993299999997
 20
525.17098599999997
 30
0.0
  0
VERTEX
  5
A8E
  8
0
 62
     3
 10
936.71993299999997
 20
512.34986500000002
 30
0.0
  0
SEQEND
  5
A8F
  8
0
 62
     3
  0
POLYLINE
  5
3CF
  8
0
 62
     3
 66
     1
 10
0.0
 20
0.0
 30
0.0
  0
VERTEX
  5
A90
  8
0
 62
     3
 10
793.50645399999985
 20
677.17098600000008
 30
0.0
  0
VERTEX
  5
A91
  8
0
 62
     3
 10
793.50645399999985
 20
661.17098600000008
 30
0.0
  0
VERTEX
  5
A92
  8
0
 62
     3
 10
795.50645399999985
 20
660.17098599999997
 30
0.0
  0
VERTEX
  5
A93
  8
0
 62
     3
 10
791.50645399999985
 20
659.17098599999997
 30
0.0
  0
VERTEX
  5
A94
  8
0
 62
     3
 10
793.50645399999985
 20
658.17098600000008
 30
0.0
  0
VERTEX
  5
A95
  8
0
 62
     3
 10
793.50645399999985
 20
642.17098599999997
 30
0.0
  0
VERTEX
  5
A96
  8
0
 62
     3
 10
795.50645399999985
 20
641.17098600000008
 30
0.0
  0
VERTEX
  5
A97
  8
0
 62
     3
 10
791.50645399999985
 20
640.17098600000008
 30
0.0
  0
VERTEX
  5
A98
  8
0
 62
     3
 10
793.50645399999985
 20
639.17098599999997
 30
0.0
  0
VERTEX
  5
A99
  8
0
 62
     3
 10
793.50645399999985
 20
623.17098600000008
 30
0.0
  0
VERTEX
  5
A9A
  8
0
 62
     3
 10
795.50645399999985
 20
622.17098599999997
 30
0.0
  0
VERTEX
  5
A9B
  8
0
 62
     3
 10
791.50645399999985
 20
621.17098599999997
 30
0.0
  0
VERTEX
  5
A9C
  8
0
 62
     3
 10
793.50645399999985
 20
620.17098600000008
 30
0.0
  0
VERTEX
  5
A9D
  8
0
 62
     3
 10
793.50645399999985
 20
604.17098599999997
 30
0.0
  0
VERTEX
  5
A9E
  8
0
 62
     3
 10
795.50645399999985
 20
603.17098600000008
 30
0.0
  0
VERTEX
  5
A9F
  8
0
 62
     3
 10
791.50645399999985
 20
602.17098600000008
 30
0.0
  0
VERTEX
  5
AA0
  8
0
 62
     3
 10
793.50645399999985
 20
601.17098599999997
 30
0.0
  0
VERTEX
  5
AA1
  8
0
 62
     3
 10
793.50645399999985
 20
585.17098599999997
 30
0.0
  0
VERTEX
  5
AA2
  8
0
 62
     3
 10
795.50645399999985
 20
584.17098599999997
 30
0.0
  0
VERTEX
  5
AA3
  8
0
 62
     3
 10
791.50645399999985
 20
583.17098600000008
 30
0.0
  0
VERTEX
  5
AA4
  8
0
 62
     3
 10
793.50645399999985
 20
582.17098600000008
 30
0.0
  0
VERTEX
  5
AA5
  8
0
 62
     3
 10
793.50645399999985
 20
566.17098600000008
 30
0.0
  0
VERTEX
  5
AA6
  8
0
 62
     3
 10
795.50645399999985
 20
565.17098600000008
 30
0.0
  0
VERTEX
  5
AA7
  8
0
 62
     3
 10
791.50645399999985
 20
564.17098599999997
 30
0.0
  0
VERTEX
  5
AA8
  8
0
 62
     3
 10
793.50645399999985
 20
563.17098599999997
 30
0.0
  0
VERTEX
  5
AA9
  8
0
 62
     3
 10
793.50645399999985
 20
547.17098599999997
 30
0.0
  0
VERTEX
  5
AAA
  8
0
 62
     3
 10
795.50645399999985
 20
546.17098599999997
 30
0.0
  0
VERTEX
  5
AAB
  8
0
 62
     3
 10
791.50645399999985
 20
545.17098600000008
 30
0.0
  0
VERTEX
  5
AAC
  8
0
 62
     3
 10
793.50645399999985
 20
544.17098600000008
 30
0.0
  0
VERTEX
  5
AAD
  8
0
 62
     3
 10
793.50645399999985
 20
528.17098600000008
 30
0.0
  0
VERTEX
  5
AAE
  8
0
 62
     3
 10
795.50645399999985
 20
527.17098599999997
 30
0.0
  0
VERTEX
  5
AAF
  8
0
 62
     3
 10
791.50645399999985
 20
526.17098599999997
 30
0.0
  0
VERTEX
  5
AB0
  8
0
 62
     3
 10
793.50645399999985
 20
525.17098599999997
 30
0.0
  0
VERTEX
  5
AB1
  8
0
 62
     3
 10
793.50645399999985
 20
512.34986500000002
 30
0.0
  0
SEQEND
  5
AB2
  8
0
 62
     3
  0
LINE
  5
3F3
  8
0
  6
DASHDOT
 62
     7
 10
905.36444100000006
 20
674.27178599999991
 30
0.0
 11
905.36444100000006
 21
661.27178600000002
 31
0.0
  0
LINE
  5
3F4
  8
0
  6
DASHDOT
 62
     7
 10
825.36444100000006
 20
674.27178599999991
 30
0.0
 11
825.36444100000006
 21
661.27178600000002
 31
0.0
  0
CIRCLE
  5
3F5
  8
0
 62
     7
 10
800.03898600000002
 20
671.88478499999985
 30
0.0
 40
0.25
  0
LINE
  5
3F6
  8
0
 62
   150
 10
809.36444100000006
 20
655.02178600000002
 30
0.0
 11
921.36444100000006
 21
655.02178600000002
 31
0.0
  0
LINE
  5
3F7
  8
0
 62
   150
 10
809.36444100000006
 20
543.02178599999991
 30
0.0
 11
921.36444100000006
 21
543.02178599999991
 31
0.0
  0
CIRCLE
  5
3F8
  8
0
 62
   150
 10
905.36444100000006
 20
670.02178600000002
 30
0.0
 40
3.5
  0
CIRCLE
  5
3F9
  8
0
 62
   150
 10
825.36444100000006
 20
670.02178600000002
 30
0.0
 40
3.5
  0
CIRCLE
  5
3FA
  8
0
 62
   150
 10
905.36444100000006
 20
528.02178600000002
 30
0.0
 40
3.5
  0
CIRCLE
  5
3FB
  8
0
 62
   150
 10
825.36444100000006
 20
528.02178600000002
 30
0.0
 40
3.5
  0
LINE
  5
3FC
  8
0
  6
DASHDOT
 62
   150
 10
905.36444100000006
 20
678.52178600000002
 30
0.0
 11
905.36444100000006
 21
661.52178600000002
 31
0.0
  0
LINE
  5
3FD
  8
0
  6
DASHDOT
 62
   150
 10
896.86444100000006
 20
670.02178600000002
 30
0.0
 11
913.86444100000006
 21
670.02178600000002
 31
0.0
  0
LINE
  5
3FE
  8
0
  6
DASHDOT
 62
   150
 10
825.36444100000006
 20
678.52178600000002
 30
0.0
 11
825.36444100000006
 21
661.52178600000002
 31
0.0
  0
LINE
  5
3FF
  8
0
  6
DASHDOT
 62
   150
 10
816.86444100000006
 20
670.02178600000002
 30
0.0
 11
833.86444100000006
 21
670.02178600000002
 31
0.0
  0
LINE
  5
400
  8
0
  6
DASHDOT
 62
   150
 10
825.36444100000006
 20
536.52178600000002
 30
0.0
 11
825.36444100000006
 21
519.52178600000002
 31
0.0
  0
LINE
  5
401
  8
0
  6
DASHDOT
 62
   150
 10
816.86444100000006
 20
528.02178600000002
 30
0.0
 11
833.86444100000006
 21
528.02178600000002
 31
0.0
  0
LINE
  5
402
  8
0
  6
DASHDOT
 62
   150
 10
905.36444100000006
 20
536.52178600000002
 30
0.0
 11
905.36444100000006
 21
519.52178600000002
 31
0.0
  0
LINE
  5
403
  8
0
  6
DASHDOT
 62
   150
 10
896.86444100000006
 20
528.02178600000002
 30
0.0
 11
913.86444100000006
 21
528.02178600000002
 31
0.0
  0
LINE
  5
404
  8
0
 62
     7
 10
825.36444100000006
 20
702.03499999999985
 30
0.0
 11
837.18218999999999
 21
699.95122900000001
 31
0.0
  0
LINE
  5
405
  8
0
 62
     7
 10
825.36444100000006
 20
702.03499999999985
 30
0.0
 11
837.18218999999999
 21
704.11877100000004
 31
0.0
  0
LINE
  5
406
  8
0
 62
     7
 10
905.36444100000006
 20
702.03499999999985
 30
0.0
 11
893.54669199999989
 21
704.11877100000004
 31
0.0
  0
LINE
  5
407
  8
0
 62
     7
 10
905.36444100000006
 20
702.03499999999985
 30
0.0
 11
893.54669199999989
 21
699.95119899999997
 31
0.0
  0
LINE
  5
408
  8
0
 62
     7
 10
825.36444100000006
 20
702.03499999999985
 30
0.0
 11
905.36444100000006
 21
702.03499999999985
 31
0.0
  0
LINE
  5
409
  8
0
 62
     7
 10
825.36444100000006
 20
710.03499999999985
 30
0.0
 11
825.36444100000006
 21
674.27178599999991
 31
0.0
  0
LINE
  5
40A
  8
0
 62
     7
 10
905.36444100000006
 20
710.03499999999985
 30
0.0
 11
905.36444100000006
 21
674.27178599999991
 31
0.0
  0
LINE
  5
40B
  8
0
 62
     7
 10
809.36444100000006
 20
728.66765999999996
 30
0.0
 11
821.18218999999999
 21
726.583889
 31
0.0
  0
LINE
  5
40C
  8
0
 62
     7
 10
809.36444100000006
 20
728.66765999999996
 30
0.0
 11
821.18218999999999
 21
730.75146100000006
 31
0.0
  0
LINE
  5
40D
  8
0
 62
     7
 10
921.36444100000006
 20
728.66765999999996
 30
0.0
 11
909.54669199999989
 21
730.75146100000006
 31
0.0
  0
LINE
  5
40E
  8
0
 62
     7
 10
921.36444100000006
 20
728.66765999999996
 30
0.0
 11
909.54669199999989
 21
726.583889
 31
0.0
  0
LINE
  5
40F
  8
0
 62
     7
 10
809.36444100000006
 20
728.66765999999996
 30
0.0
 11
921.36444100000006
 21
728.66768999999988
 31
0.0
  0
LINE
  5
410
  8
0
 62
     7
 10
809.36444100000006
 20
736.66765999999996
 30
0.0
 11
809.36444100000006
 21
655.02178600000002
 31
0.0
  0
LINE
  5
411
  8
0
 62
     7
 10
921.36444100000006
 20
736.66765999999996
 30
0.0
 11
921.36444100000006
 21
655.02178600000002
 31
0.0
  0
LINE
  5
412
  8
0
 62
     7
 10
770.51995799999986
 20
655.02178600000002
 30
0.0
 11
768.43621799999994
 21
643.20409800000004
 31
0.0
  0
LINE
  5
413
  8
0
 62
     7
 10
770.51995799999986
 20
655.02178600000002
 30
0.0
 11
772.60382100000004
 21
643.20409800000004
 31
0.0
  0
LINE
  5
414
  8
0
 62
     7
 10
770.51995799999986
 20
543.02178599999991
 30
0.0
 11
772.60369899999989
 21
554.83947399999988
 31
0.0
  0
LINE
  5
415
  8
0
 62
     7
 10
770.51995799999986
 20
543.02178599999991
 30
0.0
 11
768.43621799999994
 21
554.83947399999988
 31
0.0
  0
LINE
  5
416
  8
0
 62
     7
 10
770.51995799999986
 20
655.02178600000002
 30
0.0
 11
770.51995799999986
 21
543.02178599999991
 31
0.0
  0
LINE
  5
417
  8
0
 62
     7
 10
762.51995799999997
 20
655.02178600000002
 30
0.0
 11
809.36444100000006
 21
655.02178600000002
 31
0.0
  0
LINE
  5
418
  8
0
 62
     7
 10
762.51995799999997
 20
543.02178599999991
 30
0.0
 11
809.36444100000006
 21
543.02178599999991
 31
0.0
  0
LINE
  5
419
  8
0
 62
     7
 10
740.1852419999999
 20
670.02178600000002
 30
0.0
 11
738.10150099999987
 21
658.20409800000004
 31
0.0
  0
LINE
  5
41A
  8
0
 62
     7
 10
740.1852419999999
 20
670.02178600000002
 30
0.0
 11
742.26898200000005
 21
658.20409800000004
 31
0.0
  0
LINE
  5
41B
  8
0
 62
     7
 10
740.1852419999999
 20
528.02178600000002
 30
0.0
 11
742.26898200000005
 21
539.83947399999988
 31
0.0
  0
LINE
  5
41C
  8
0
 62
     7
 10
740.1852419999999
 20
528.02178600000002
 30
0.0
 11
738.10150099999987
 21
539.83947399999988
 31
0.0
  0
LINE
  5
41D
  8
0
 62
     7
 10
740.1852419999999
 20
670.02178600000002
 30
0.0
 11
740.1852419999999
 21
528.02178600000002
 31
0.0
  0
LINE
  5
41E
  8
0
 62
     7
 10
732.1852419999999
 20
670.02178600000002
 30
0.0
 11
896.86444100000006
 21
670.02178600000002
 31
0.0
  0
LINE
  5
41F
  8
0
 62
     7
 10
732.1852419999999
 20
528.02178600000002
 30
0.0
 11
896.86444100000006
 21
528.02178600000002
 31
0.0
  0
LINE
  5
420
  8
0
 62
     7
 10
822.62750199999994
 20
525.84020599999985
 30
0.0
 11
812.08758499999999
 21
520.10357299999998
 31
0.0
  0
LINE
  5
421
  8
0
 62
     7
 10
822.62750199999994
 20
525.84020599999985
 30
0.0
 11
814.68524200000002
 21
516.84464600000001
 31
0.0
  0
LINE
  5
422
  8
0
 62
     7
 10
828.10137899999995
 20
530.20336500000008
 30
0.0
 11
838.6412959999999
 21
535.94001399999991
 31
0.0
  0
LINE
  5
423
  8
0
 62
     7
 10
828.10137899999995
 20
530.20336500000008
 30
0.0
 11
836.04363999999987
 21
539.19892500000003
 31
0.0
  0
LINE
  5
424
  8
0
 62
     7
 10
828.10137899999995
 20
530.20336500000008
 30
0.0
 11
770.11859100000004
 21
483.98534799999999
 31
0.0
  0
LINE
  5
425
  8
0
 62
     3
 10
169.12594599999991
 20
519.07180400000004
 30
0.0
 11
191.41384099999991
 21
519.07180400000004
 31
0.0
  0
LINE
  5
426
  8
0
 62
     7
 10
119.4138429999999
 20
516.27180099999987
 30
0.0
 11
119.4138429999999
 21
556.56601699999999
 31
0.0
  0
LINE
  5
427
  8
0
 62
     7
 10
119.4138429999999
 20
556.56599000000006
 30
0.0
 11
119.4138429999999
 21
686.27177000000006
 31
0.0
  0
LINE
  5
428
  8
0
  6
DASHDOT
 62
     7
 10
117.4138429999999
 20
505.44233300000002
 30
0.0
 11
117.4138429999999
 21
696.30009099999995
 31
0.0
  0
LINE
  5
429
  8
0
 62
     7
 10
117.4138429999999
 20
675.60139100000004
 30
0.0
 11
117.4138429999999
 21
675.77175499999987
 31
0.0
  0
LINE
  5
42A
  8
0
 62
     7
 10
187.91381799999991
 20
623.52178200000003
 30
0.0
 11
187.91384099999991
 21
615.27175899999986
 31
0.0
  0
LINE
  5
42B
  8
0
 62
     7
 10
190.41377999999989
 20
669.77177800000004
 30
0.0
 11
191.120903
 21
670.06467099999998
 31
0.0
  0
LINE
  5
42C
  8
0
 62
     7
 10
191.1209179999999
 20
670.06464800000003
 30
0.0
 11
191.41381100000001
 21
670.77175499999987
 31
0.0
  0
LINE
  5
42D
  8
0
 62
     7
 10
187.91382599999989
 20
662.77178600000002
 30
0.0
 11
187.91384099999991
 21
669.77178600000002
 31
0.0
  0
LINE
  5
42E
  8
0
 62
     7
 10
187.91384099999991
 20
669.77178600000002
 30
0.0
 11
190.41381100000001
 21
669.77178600000002
 31
0.0
  0
LINE
  5
42F
  8
0
 62
     7
 10
187.91382599999989
 20
623.52178600000002
 30
0.0
 11
187.91382599999989
 21
662.77178600000002
 31
0.0
  0
LINE
  5
430
  8
0
 62
     7
 10
183.41384099999991
 20
572.77178600000002
 30
0.0
 11
183.41384099999991
 21
613.27178600000002
 31
0.0
  0
LINE
  5
431
  8
0
 62
     7
 10
183.413872
 20
613.27184099999988
 30
0.0
 11
183.68181599999991
 21
614.27184099999999
 31
0.0
  0
LINE
  5
432
  8
0
 62
     7
 10
183.68185399999999
 20
614.2718789999999
 30
0.0
 11
184.41389499999991
 21
615.00393499999996
 31
0.0
  0
LINE
  5
433
  8
0
 62
     7
 10
184.4137879999999
 20
615.00381500000003
 30
0.0
 11
185.413803
 21
615.27175899999986
 31
0.0
  0
LINE
  5
434
  8
0
 62
     7
 10
183.41384099999991
 20
572.77178600000002
 30
0.0
 11
191.41384099999991
 21
572.77178600000002
 31
0.0
  0
LINE
  5
435
  8
0
 62
     7
 10
190.41372699999991
 20
558.77177199999994
 30
0.0
 11
191.413803
 21
557.77177199999994
 31
0.0
  0
LINE
  5
436
  8
0
 62
     7
 10
190.41374999999999
 20
569.77179699999999
 30
0.0
 11
191.41384099999991
 21
570.77179699999999
 31
0.0
  0
LINE
  5
437
  8
0
 62
     7
 10
127.645928
 20
569.77176099999997
 30
0.0
 11
190.41373400000001
 21
569.77179100000001
 31
0.0
  0
LINE
  5
438
  8
0
 62
     7
 10
127.6458819999999
 20
558.77178600000002
 30
0.0
 11
190.41374999999999
 21
558.77178600000002
 31
0.0
  0
LINE
  5
439
  8
0
 62
     7
 10
123.9138389999999
 20
570.77175699999987
 30
0.0
 11
127.64592399999989
 21
569.77174200000002
 31
0.0
  0
LINE
  5
43A
  8
0
 62
     7
 10
120.413839
 20
571.70958099999996
 30
0.0
 11
123.9138709999999
 21
570.77174600000001
 31
0.0
  0
LINE
  5
43B
  8
0
 62
     7
 10
119.4138439999999
 20
556.56602099999986
 30
0.0
 11
127.645884
 21
558.77178600000002
 31
0.0
  0
LINE
  5
43C
  8
0
 62
     7
 10
119.413856
 20
574.06609000000003
 30
0.0
 11
120.413853
 21
574.33403399999986
 31
0.0
  0
LINE
  5
43D
  8
0
 62
     7
 10
119.4138429999999
 20
550.27176999999995
 30
0.0
 11
123.4138419999999
 21
550.27176999999995
 31
0.0
  0
LINE
  5
43E
  8
0
 62
     7
 10
123.4138419999999
 20
542.75499300000001
 30
0.0
 11
123.4138419999999
 21
550.27176999999995
 31
0.0
  0
LINE
  5
43F
  8
0
 62
     7
 10
120.4138429999999
 20
556.83394999999985
 30
0.0
 11
120.4138429999999
 21
601.27176999999995
 31
0.0
  0
LINE
  5
440
  8
0
 62
     7
 10
123.913843
 20
570.77178600000002
 30
0.0
 11
123.913843
 21
595.77178600000002
 31
0.0
  0
LINE
  5
441
  8
0
 62
     7
 10
119.4138419999999
 20
601.27176999999995
 30
0.0
 11
122.41384099999991
 21
601.27176999999995
 31
0.0
  0
LINE
  5
442
  8
0
 62
     7
 10
122.41385099999989
 20
601.27176100000008
 30
0.0
 11
123.163853
 21
601.07080299999996
 31
0.0
  0
LINE
  5
443
  8
0
 62
     7
 10
122.41385099999989
 20
601.27176100000008
 30
0.0
 11
123.163853
 21
601.07080299999996
 31
0.0
  0
LINE
  5
444
  8
0
 62
     7
 10
123.16384599999989
 20
601.07079699999986
 30
0.0
 11
123.712884
 21
600.52175499999998
 31
0.0
  0
LINE
  5
445
  8
0
 62
     7
 10
123.7128669999999
 20
600.52174300000001
 30
0.0
 11
123.913828
 21
599.77174300000001
 31
0.0
  0
LINE
  5
446
  8
0
 62
     7
 10
123.913861
 20
595.77177199999994
 30
0.0
 11
123.913861
 21
599.77175699999987
 31
0.0
  0
LINE
  5
447
  8
0
 62
     7
 10
123.7128889999999
 20
595.02176399999985
 30
0.0
 11
123.808111
 21
595.37714100000005
 31
0.0
  0
LINE
  5
448
  8
0
 62
     7
 10
123.80811
 20
595.37713099999985
 30
0.0
 11
123.913848
 21
595.77176999999995
 31
0.0
  0
LINE
  5
449
  8
0
 62
     7
 10
123.163843
 20
594.47269199999994
 30
0.0
 11
123.71288199999999
 21
595.02173400000004
 31
0.0
  0
LINE
  5
44A
  8
0
 62
     7
 10
122.41383
 20
594.27174899999989
 30
0.0
 11
123.1638299999999
 21
594.4727079999999
 31
0.0
  0
LINE
  5
44B
  8
0
 62
     7
 10
120.4138429999999
 20
594.27177000000006
 30
0.0
 11
122.4138419999999
 21
594.27177000000006
 31
0.0
  0
LINE
  5
44C
  8
0
 62
     7
 10
117.4138429999999
 20
526.77176999999995
 30
0.0
 11
119.4138429999999
 21
526.77176999999995
 31
0.0
  0
LINE
  5
44D
  8
0
 62
     7
 10
117.4138429999999
 20
675.77175499999987
 30
0.0
 11
119.4138429999999
 21
675.77175499999987
 31
0.0
  0
LINE
  5
44E
  8
0
 62
     7
 10
117.4138429999999
 20
665.90340800000001
 30
0.0
 11
119.4138429999999
 21
665.90340800000001
 31
0.0
  0
LINE
  5
44F
  8
0
 62
     7
 10
123.9138199999999
 20
559.27177400000005
 30
0.0
 11
126.7128559999999
 21
558.52177400000005
 31
0.0
  0
LINE
  5
450
  8
0
 62
     7
 10
123.91381
 20
559.27178400000003
 30
0.0
 11
123.91381
 21
569.27178400000003
 31
0.0
  0
LINE
  5
451
  8
0
 62
     7
 10
123.91381
 20
569.27177000000006
 30
0.0
 11
126.71287099999989
 21
570.02176999999995
 31
0.0
  0
LINE
  5
452
  8
0
 62
     7
 10
117.4138429999999
 20
536.55639299999984
 30
0.0
 11
119.4138429999999
 21
536.55639299999984
 31
0.0
  0
LINE
  5
453
  8
0
 62
     7
 10
117.4138429999999
 20
536.77176999999995
 30
0.0
 11
119.4138429999999
 21
536.77176999999995
 31
0.0
  0
LINE
  5
454
  8
0
 62
     7
 10
123.71289299999989
 20
594.49247200000002
 30
0.0
 11
123.9138529999999
 21
595.37714600000004
 31
0.0
  0
LINE
  5
455
  8
0
 62
     7
 10
123.8081039999999
 20
595.37714800000003
 30
0.0
 11
123.91384100000001
 21
595.37714800000003
 31
0.0
  0
LINE
  5
456
  8
0
 62
     7
 10
123.7798659999999
 20
581.27175999999997
 30
0.0
 11
123.9138379999999
 21
581.371217
 31
0.0
  0
LINE
  5
457
  8
0
 62
     7
 10
123.712886
 20
581.32145400000002
 30
0.0
 11
123.779875
 21
581.27172499999995
 31
0.0
  0
LINE
  5
458
  8
0
 62
     7
 10
123.712881
 20
591.27178599999991
 30
0.0
 11
123.9138419999999
 21
591.27178599999991
 31
0.0
  0
LINE
  5
459
  8
0
 62
     7
 10
123.71287599999999
 20
585.22199899999998
 30
0.0
 11
123.779865
 21
585.27172800000005
 31
0.0
  0
LINE
  5
45A
  8
0
 62
     7
 10
123.77987399999989
 20
585.27175299999988
 30
0.0
 11
123.91384599999989
 21
585.17229699999984
 31
0.0
  0
LINE
  5
45B
  8
0
 62
     7
 10
123.7128749999999
 20
593.60362999999995
 30
0.0
 11
123.82204900000001
 21
592.99385800000005
 31
0.0
  0
LINE
  5
45C
  8
0
 62
     7
 10
123.82205399999999
 20
592.99386500000003
 30
0.0
 11
123.91384100000001
 21
591.27178900000001
 31
0.0
  0
LINE
  5
45D
  8
0
 62
     7
 10
123.19751699999991
 20
581.423992
 30
0.0
 11
123.71287699999991
 21
581.32148299999994
 31
0.0
  0
LINE
  5
45E
  8
0
 62
     7
 10
123.16384099999991
 20
581.44650399999989
 30
0.0
 11
123.1975199999999
 21
581.42399699999999
 31
0.0
  0
LINE
  5
45F
  8
0
 62
     7
 10
123.1638259999999
 20
585.09701199999995
 30
0.0
 11
123.197507
 21
585.11951799999986
 31
0.0
  0
LINE
  5
460
  8
0
 62
     7
 10
123.1975129999999
 20
585.11951399999987
 30
0.0
 11
123.71287099999989
 21
585.22202199999992
 31
0.0
  0
LINE
  5
461
  8
0
 62
     7
 10
123.1638419999999
 20
591.27178599999991
 30
0.0
 11
123.712881
 21
591.27178599999991
 31
0.0
  0
LINE
  5
462
  8
0
 62
     7
 10
122.4138379999999
 20
581.58076799999981
 30
0.0
 11
123.1638379999999
 21
581.44649000000004
 31
0.0
  0
LINE
  5
463
  8
0
 62
     7
 10
122.4138359999999
 20
584.96273699999995
 30
0.0
 11
123.163836
 21
585.09701500000006
 31
0.0
  0
LINE
  5
464
  8
0
 62
     7
 10
122.4138419999999
 20
591.27178599999991
 30
0.0
 11
123.1638419999999
 21
591.27178599999991
 31
0.0
  0
LINE
  5
465
  8
0
 62
     7
 10
120.4138429999999
 20
584.96274900000003
 30
0.0
 11
122.4138419999999
 21
584.96274900000003
 31
0.0
  0
LINE
  5
466
  8
0
 62
     7
 10
120.4138429999999
 20
591.27178599999991
 30
0.0
 11
122.4138419999999
 21
591.27178599999991
 31
0.0
  0
LINE
  5
467
  8
0
 62
     7
 10
120.4138429999999
 20
581.58079099999998
 30
0.0
 11
122.4138419999999
 21
581.58079099999998
 31
0.0
  0
LINE
  5
468
  8
0
 62
     3
 10
148.6638429999999
 20
686.27178600000002
 30
0.0
 11
216.41384099999999
 21
686.27178600000002
 31
0.0
  0
LINE
  5
469
  8
0
 62
     3
 10
184.7329639999999
 20
683.47179800000004
 30
0.0
 11
213.6138379999999
 21
683.47179800000004
 31
0.0
  0
LINE
  5
46A
  8
0
 62
     3
 10
191.41384099999991
 20
519.07180400000004
 30
0.0
 11
213.6138379999999
 21
519.07180400000004
 31
0.0
  0
LINE
  5
46B
  8
0
 62
     3
 10
191.41384099999991
 20
516.27180099999987
 30
0.0
 11
216.41384099999999
 21
516.27180099999987
 31
0.0
  0
LINE
  5
46C
  8
0
 62
     3
 10
191.41384099999991
 20
516.27180099999987
 30
0.0
 11
191.41384099999991
 21
558.52178600000002
 31
0.0
  0
LINE
  5
46D
  8
0
 62
     3
 10
191.41384099999991
 20
570.02176999999995
 30
0.0
 11
191.41384099999991
 21
572.77184699999998
 31
0.0
  0
LINE
  5
46E
  8
0
 62
     3
 10
191.41384099999991
 20
670.77183200000002
 30
0.0
 11
191.41384099999991
 21
686.27178600000002
 31
0.0
  0
LINE
  5
46F
  8
0
 62
     3
 10
220.91384099999999
 20
614.22065399999997
 30
0.0
 11
220.91384099999999
 21
623.77146500000003
 31
0.0
  0
LINE
  5
470
  8
0
 62
     3
 10
220.9137879999999
 20
563.32220800000005
 30
0.0
 11
220.91383399999989
 21
556.77148799999986
 31
0.0
  0
LINE
  5
471
  8
0
 62
     3
 10
216.41384099999999
 20
662.02178600000002
 30
0.0
 11
216.41384099999999
 21
686.27178600000002
 31
0.0
  0
LINE
  5
472
  8
0
 62
     3
 10
213.6138379999999
 20
670.02180099999998
 30
0.0
 11
216.41384099999999
 21
670.02180099999998
 31
0.0
  0
LINE
  5
473
  8
0
 62
     3
 10
216.41384099999999
 20
516.27180099999987
 30
0.0
 11
216.41384099999999
 21
541.02180099999998
 31
0.0
  0
LINE
  5
474
  8
0
 62
     3
 10
213.6138379999999
 20
532.52180099999987
 30
0.0
 11
216.41384099999999
 21
532.52180099999987
 31
0.0
  0
LINE
  5
475
  8
0
 62
     3
 10
213.6138379999999
 20
519.07180400000004
 30
0.0
 11
213.6138379999999
 21
541.02180499999997
 31
0.0
  0
LINE
  5
476
  8
0
 62
     3
 10
191.41384099999991
 20
570.02178600000002
 30
0.0
 11
213.6138379999999
 21
570.02178600000002
 31
0.0
  0
LINE
  5
477
  8
0
 62
     3
 10
191.41384099999991
 20
558.52178600000002
 30
0.0
 11
213.6138379999999
 21
558.52178600000002
 31
0.0
  0
LINE
  5
478
  8
0
 62
     1
 10
213.6138379999999
 20
662.02178600000002
 30
0.0
 11
218.91384099999999
 21
662.02178600000002
 31
0.0
  0
LINE
  5
479
  8
0
 62
     1
 10
215.91384099999999
 20
541.02180099999998
 30
0.0
 11
216.41384099999999
 21
541.02180099999998
 31
0.0
  0
LINE
  5
47A
  8
0
 62
     1
 10
213.6138379999999
 20
541.02180499999997
 30
0.0
 11
218.91384099999999
 21
541.02180099999998
 31
0.0
  0
LINE
  5
47B
  8
0
 62
     2
 10
229.91515399999989
 20
547.02178599999991
 30
0.0
 11
229.91515399999989
 21
549.02178600000002
 31
0.0
  0
LINE
  5
47C
  8
0
 62
     2
 10
220.915154
 20
546.52178600000002
 30
0.0
 11
220.915154
 21
651.52178599999991
 31
0.0
  0
LINE
  5
47D
  8
0
 62
     2
 10
218.91384099999999
 20
651.52178599999991
 30
0.0
 11
224.415009
 21
651.52178599999991
 31
0.0
  0
LINE
  5
47E
  8
0
 62
     2
 10
218.91384099999999
 20
546.52178600000002
 30
0.0
 11
224.415009
 21
546.52178600000002
 31
0.0
  0
LINE
  5
47F
  8
0
 62
     2
 10
229.9151
 20
565.02176999999995
 30
0.0
 11
229.91515399999989
 21
547.02178599999991
 31
0.0
  0
LINE
  5
480
  8
0
 62
     2
 10
229.91495499999999
 20
578.02176999999995
 30
0.0
 11
229.9150919999999
 21
566.02176999999995
 31
0.0
  0
LINE
  5
481
  8
0
 62
     2
 10
229.91515399999989
 20
579.02178600000002
 30
0.0
 11
229.91515399999989
 21
598.52176999999995
 31
0.0
  0
LINE
  5
482
  8
0
 62
     2
 10
229.91495499999999
 20
579.02175999999997
 30
0.0
 11
229.91500899999991
 21
598.52175999999986
 31
0.0
  0
LINE
  5
483
  8
0
 62
     2
 10
229.914795
 20
611.52176699999995
 30
0.0
 11
229.9150009999999
 21
599.52176799999995
 31
0.0
  0
LINE
  5
484
  8
0
 62
     7
 10
185.413803
 20
615.27175899999986
 30
0.0
 11
187.91383400000001
 21
615.27175899999986
 31
0.0
  0
LINE
  5
485
  8
0
 62
     7
 10
218.91384099999999
 20
651.52178599999991
 30
0.0
 11
218.91384099999999
 21
662.02178600000002
 31
0.0
  0
LINE
  5
486
  8
0
 62
     7
 10
218.91384099999999
 20
541.02180099999998
 30
0.0
 11
218.91384099999999
 21
546.52178600000002
 31
0.0
  0
LINE
  5
487
  8
0
 62
     3
 10
213.6138379999999
 20
662.02178600000002
 30
0.0
 11
213.6138379999999
 21
683.47179800000004
 31
0.0
  0
LINE
  5
488
  8
0
 62
     3
 10
213.6138379999999
 20
541.02180499999997
 30
0.0
 11
213.6138379999999
 21
662.02178600000002
 31
0.0
  0
ARC
  5
489
  8
0
 62
     7
 10
250.58988199999999
 20
576.97790399999985
 30
0.0
 40
1.0
 50
348.62359199999992
 51
76.688818000000012
  0
ARC
  5
48A
  8
0
 62
     7
 10
249.39313499999989
 20
571.03008499999999
 30
0.0
 40
1.000000999999999
 50
260.59401099999991
 51
348.62359199999992
  0
LINE
  5
48B
  8
0
  6
DASHDOT
 62
     7
 10
215.27378100000001
 20
580.95306600000004
 30
0.0
 11
265.39046500000001
 21
570.86924899999985
 31
0.0
  0
LINE
  5
48C
  8
0
 62
     7
 10
229.914963
 20
582.89711599999998
 30
0.0
 11
250.820122
 21
577.95103700000004
 31
0.0
  0
LINE
  5
48D
  8
0
 62
     7
 10
250.37349699999999
 20
570.83283200000005
 30
0.0
 11
251.57022900000001
 21
576.78065000000004
 31
0.0
  0
LINE
  5
48E
  8
0
 62
     7
 10
229.91500899999991
 20
573.24312899999995
 30
0.0
 11
249.22971299999989
 21
570.04353000000003
 31
0.0
  0
LINE
  5
48F
  8
0
  6
DASHDOT
 62
     7
 10
114.4138429999999
 20
505.44233300000002
 30
0.0
 11
114.4138429999999
 21
696.30009099999995
 31
0.0
  0
LINE
  5
490
  8
0
 62
     7
 10
141.4138429999999
 20
662.77178600000002
 30
0.0
 11
154.31313700000001
 21
662.77178600000002
 31
0.0
  0
LINE
  5
491
  8
0
 62
     7
 10
141.7439709999999
 20
660.27178600000002
 30
0.0
 11
154.89735400000001
 21
660.27178600000002
 31
0.0
  0
LINE
  5
492
  8
0
 62
     7
 10
128.4138429999999
 20
656.20623399999988
 30
0.0
 11
128.4138429999999
 21
660.27178600000002
 31
0.0
  0
LINE
  5
493
  8
0
 62
     7
 10
132.4138429999999
 20
656.20623399999988
 30
0.0
 11
132.4138429999999
 21
660.27178600000002
 31
0.0
  0
LINE
  5
494
  8
0
 62
     7
 10
142.4138429999999
 20
660.27178600000002
 30
0.0
 11
142.4138429999999
 21
662.77178600000002
 31
0.0
  0
LINE
  5
495
  8
0
 62
     7
 10
128.4138429999999
 20
660.27178600000002
 30
0.0
 11
134.86229
 21
660.27178600000002
 31
0.0
  0
POLYLINE
  5
496
  8
0
 62
     3
 66
     1
 10
0.0
 20
0.0
 30
0.0
  0
VERTEX
  5
AB3
  8
0
 62
     3
 10
112.1850019999999
 20
656.20623399999988
 30
0.0
  0
VERTEX
  5
AB4
  8
0
 62
     3
 10
128.185001
 20
656.20623399999988
 30
0.0
  0
VERTEX
  5
AB5
  8
0
 62
     3
 10
129.185001
 20
658.20623399999999
 30
0.0
  0
VERTEX
  5
AB6
  8
0
 62
     3
 10
130.185001
 20
654.20623399999999
 30
0.0
  0
VERTEX
  5
AB7
  8
0
 62
     3
 10
131.185001
 20
656.20623399999988
 30
0.0
  0
VERTEX
  5
AB8
  8
0
 62
     3
 10
147.18500099999989
 20
656.20623399999988
 30
0.0
  0
VERTEX
  5
AB9
  8
0
 62
     3
 10
148.185001
 20
658.20623399999999
 30
0.0
  0
VERTEX
  5
ABA
  8
0
 62
     3
 10
149.185001
 20
654.20623399999999
 30
0.0
  0
VERTEX
  5
ABB
  8
0
 62
     3
 10
150.185001
 20
656.20623399999988
 30
0.0
  0
VERTEX
  5
ABC
  8
0
 62
     3
 10
154.89735400000001
 20
656.20623399999988
 30
0.0
  0
SEQEND
  5
ABD
  8
0
 62
     3
  0
LINE
  5
4A2
  8
0
 62
     7
 10
137.4138429999999
 20
681.77178600000002
 30
0.0
 11
142.4138429999999
 21
681.77178600000002
 31
0.0
  0
LINE
  5
4A3
  8
0
 62
     7
 10
136.83662599999991
 20
655.20623399999988
 30
0.0
 11
140.9131129999999
 21
659.20035199999995
 31
0.0
  0
LINE
  5
4A4
  8
0
 62
     7
 10
133.91457199999991
 20
659.34321999999986
 30
0.0
 11
137.4138429999999
 21
662.77178600000002
 31
0.0
  0
LINE
  5
4A5
  8
0
 62
     7
 10
137.4138429999999
 20
662.77178600000002
 30
0.0
 11
137.4138429999999
 21
668.57178899999985
 31
0.0
  0
ARC
  5
4A6
  8
0
 62
     7
 10
137.4138429999999
 20
655.77178600000002
 30
0.0
 40
4.999998999999999
 50
134.4152949999999
 51
180.00000499999999
  0
ARC
  5
4A7
  8
0
 62
     7
 10
137.4138429999999
 20
662.77178600000002
 30
0.0
 40
5.0
 50
314.415302
 51
360.0
  0
LINE
  5
4A8
  8
0
  6
DASHDOT
 62
     7
 10
132.086815
 20
672.77178600000002
 30
0.0
 11
148.74646200000001
 21
672.77178600000002
 31
0.0
  0
LINE
  5
4A9
  8
0
 62
     7
 10
119.4138429999999
 20
539.77179699999999
 30
0.0
 11
137.4138429999999
 21
539.77179699999999
 31
0.0
  0
LINE
  5
4AA
  8
0
 62
     7
 10
133.4138429999999
 20
539.77179699999999
 30
0.0
 11
133.4138429999999
 21
542.75499300000001
 31
0.0
  0
LINE
  5
4AB
  8
0
 62
     7
 10
137.4138429999999
 20
539.77179699999999
 30
0.0
 11
137.4138429999999
 21
542.75499300000001
 31
0.0
  0
LINE
  5
4AC
  8
0
 62
     7
 10
143.4138429999999
 20
539.77179699999999
 30
0.0
 11
143.4138429999999
 21
542.75499300000001
 31
0.0
  0
LINE
  5
4AD
  8
0
 62
     7
 10
143.4138429999999
 20
539.77179699999999
 30
0.0
 11
166.621914
 21
539.77179699999999
 31
0.0
  0
POLYLINE
  5
4AE
  8
0
 62
     3
 66
     1
 10
0.0
 20
0.0
 30
0.0
  0
VERTEX
  5
ABE
  8
0
 62
     3
 10
118.0260209999999
 20
542.75499300000001
 30
0.0
  0
VERTEX
  5
ABF
  8
0
 62
     3
 10
134.0260209999999
 20
542.75499300000001
 30
0.0
  0
VERTEX
  5
AC0
  8
0
 62
     3
 10
135.0260209999999
 20
544.75499300000001
 30
0.0
  0
VERTEX
  5
AC1
  8
0
 62
     3
 10
136.0260199999999
 20
540.75499300000001
 30
0.0
  0
VERTEX
  5
AC2
  8
0
 62
     3
 10
137.0260199999999
 20
542.75499300000001
 30
0.0
  0
VERTEX
  5
AC3
  8
0
 62
     3
 10
153.0260199999999
 20
542.75499300000001
 30
0.0
  0
VERTEX
  5
AC4
  8
0
 62
     3
 10
154.0260199999999
 20
544.75499300000001
 30
0.0
  0
VERTEX
  5
AC5
  8
0
 62
     3
 10
155.0260199999999
 20
540.75499300000001
 30
0.0
  0
VERTEX
  5
AC6
  8
0
 62
     3
 10
156.0260199999999
 20
542.75499300000001
 30
0.0
  0
VERTEX
  5
AC7
  8
0
 62
     3
 10
166.26104399999991
 20
542.75499300000001
 30
0.0
  0
SEQEND
  5
AC8
  8
0
 62
     3
  0
LINE
  5
4BA
  8
0
 62
     7
 10
137.4138429999999
 20
520.77180099999987
 30
0.0
 11
140.4138429999999
 21
520.77180099999987
 31
0.0
  0
LINE
  5
4BB
  8
0
 62
     7
 10
140.41384099999991
 20
520.77180099999987
 30
0.0
 11
140.41384099999991
 21
525.77178600000002
 31
0.0
  0
LINE
  5
4BC
  8
0
 62
     7
 10
137.4138429999999
 20
520.77180099999987
 30
0.0
 11
137.4138429999999
 21
542.75499300000001
 31
0.0
  0
LINE
  5
4BD
  8
0
 62
     7
 10
140.4138429999999
 20
520.77180099999987
 30
0.0
 11
142.4138429999999
 21
520.77180099999987
 31
0.0
  0
LINE
  5
4BE
  8
0
 62
     7
 10
140.41384099999991
 20
541.77179699999988
 30
0.0
 11
142.41384099999991
 21
541.77179699999988
 31
0.0
  0
LINE
  5
4BF
  8
0
  6
DASHDOT
 62
     7
 10
132.086815
 20
529.77178600000002
 30
0.0
 11
153.505989
 21
529.77178600000002
 31
0.0
  0
LINE
  5
4C0
  8
0
 62
     7
 10
137.4138429999999
 20
533.87178399999993
 30
0.0
 11
142.41384099999991
 21
533.87178399999993
 31
0.0
  0
LINE
  5
4C1
  8
0
 62
     7
 10
137.4138429999999
 20
525.67178699999999
 30
0.0
 11
142.41384099999991
 21
525.67178699999999
 31
0.0
  0
ARC
  5
4C2
  8
0
  6
DASHDOT
 62
     7
 10
176.4146419999999
 20
588.77178600000002
 30
0.0
 40
76.044273000000004
 50
337.492324
 51
0.00001
  0
LINE
  5
4C3
  8
0
  6
DASHDOT
 62
     7
 10
252.45891599999999
 20
588.77178600000002
 30
0.0
 11
252.45891599999999
 21
594.52198599999997
 31
0.0
  0
LINE
  5
4C4
  8
0
 62
     7
 10
137.4138429999999
 20
676.97178299999985
 30
0.0
 11
141.4138429999999
 21
676.97178299999985
 31
0.0
  0
LINE
  5
4C5
  8
0
 62
     7
 10
137.4138429999999
 20
668.57178899999985
 30
0.0
 11
141.4138429999999
 21
668.57178899999985
 31
0.0
  0
LINE
  5
4C6
  8
0
 62
     7
 10
119.4138429999999
 20
686.27177000000006
 30
0.0
 11
120.913843
 21
686.27177000000006
 31
0.0
  0
LINE
  5
4C7
  8
0
 62
     1
 10
224.415009
 20
544.02178600000002
 30
0.0
 11
224.415009
 21
546.02178600000002
 31
0.0
  0
LINE
  5
4C8
  8
0
 62
     1
 10
224.415009
 20
544.02178600000002
 30
0.0
 11
226.415009
 21
544.02178600000002
 31
0.0
  0
LINE
  5
4C9
  8
0
 62
     1
 10
224.415009
 20
652.02178200000003
 30
0.0
 11
224.415009
 21
654.02178600000002
 31
0.0
  0
LINE
  5
4CA
  8
0
 62
     1
 10
224.415009
 20
654.02178600000002
 30
0.0
 11
226.415009
 21
654.02178600000002
 31
0.0
  0
LINE
  5
4CB
  8
0
 62
     1
 10
224.415009
 20
546.02178600000002
 30
0.0
 11
224.415009
 21
652.02178600000002
 31
0.0
  0
LINE
  5
4CC
  8
0
 62
     1
 10
219.91500899999991
 20
667.59913300000005
 30
0.0
 11
219.91500899999991
 21
672.44443899999999
 31
0.0
  0
LINE
  5
4CD
  8
0
 62
     1
 10
219.91500899999991
 20
525.59913600000004
 30
0.0
 11
219.91500899999991
 21
530.44443499999988
 31
0.0
  0
LINE
  5
4CE
  8
0
 62
     1
 10
226.415009
 20
517.52178600000002
 30
0.0
 11
226.415009
 21
680.52178599999991
 31
0.0
  0
LINE
  5
4CF
  8
0
 62
     1
 10
226.415009
 20
517.52178600000002
 30
0.0
 11
229.91500899999991
 21
517.52178600000002
 31
0.0
  0
LINE
  5
4D0
  8
0
 62
     1
 10
229.91500899999991
 20
517.52178600000002
 30
0.0
 11
229.91500899999991
 21
680.52178599999991
 31
0.0
  0
LINE
  5
4D1
  8
0
 62
     1
 10
226.415009
 20
680.52178599999991
 30
0.0
 11
227.91500899999991
 21
680.52178599999991
 31
0.0
  0
LINE
  5
4D2
  8
0
 62
     1
 10
228.915009
 20
680.52178599999991
 30
0.0
 11
229.91500899999991
 21
680.52178599999991
 31
0.0
  0
LINE
  5
4D3
  8
0
 62
     1
 10
220.915009
 20
667.02178600000002
 30
0.0
 11
226.415009
 21
667.02178600000002
 31
0.0
  0
LINE
  5
4D4
  8
0
 62
     1
 10
220.915009
 20
673.02178600000002
 30
0.0
 11
226.415009
 21
673.02178600000002
 31
0.0
  0
LINE
  5
4D5
  8
0
 62
     1
 10
219.91501600000001
 20
667.59912499999996
 30
0.0
 11
220.91501600000001
 21
667.02177800000004
 31
0.0
  0
LINE
  5
4D6
  8
0
 62
     1
 10
220.915009
 20
667.02178600000002
 30
0.0
 11
220.915009
 21
667.25014900000008
 31
0.0
  0
LINE
  5
4D7
  8
0
 62
     1
 10
220.915009
 20
667.02178600000002
 30
0.0
 11
220.915009
 21
667.90046299999995
 31
0.0
  0
LINE
  5
4D8
  8
0
 62
     1
 10
220.915009
 20
667.90046299999995
 30
0.0
 11
220.915009
 21
668.87374499999987
 31
0.0
  0
LINE
  5
4D9
  8
0
 62
     1
 10
220.915009
 20
668.87374499999987
 30
0.0
 11
220.915009
 21
670.02178600000002
 31
0.0
  0
LINE
  5
4DA
  8
0
 62
     1
 10
220.915009
 20
670.02178600000002
 30
0.0
 11
220.915009
 21
671.16984200000002
 31
0.0
  0
LINE
  5
4DB
  8
0
 62
     1
 10
220.915009
 20
671.16984200000002
 30
0.0
 11
220.915009
 21
673.02178600000002
 31
0.0
  0
LINE
  5
4DC
  8
0
 62
     1
 10
220.915009
 20
672.14310099999989
 30
0.0
 11
220.915009
 21
672.79341499999998
 31
0.0
  0
LINE
  5
4DD
  8
0
 62
     1
 10
219.91500899999991
 20
672.44443099999989
 30
0.0
 11
220.915009
 21
673.02177800000004
 31
0.0
  0
LINE
  5
4DE
  8
0
 62
     1
 10
220.915009
 20
672.79341499999998
 30
0.0
 11
220.915009
 21
673.02177800000004
 31
0.0
  0
LINE
  5
4DF
  8
0
 62
     1
 10
220.91501600000001
 20
531.02178600000002
 30
0.0
 11
226.415009
 21
531.02178600000002
 31
0.0
  0
LINE
  5
4E0
  8
0
 62
     1
 10
220.915009
 20
525.02178600000002
 30
0.0
 11
226.415009
 21
525.02178600000002
 31
0.0
  0
LINE
  5
4E1
  8
0
 62
     1
 10
220.915009
 20
530.79342299999996
 30
0.0
 11
220.915009
 21
531.02178600000002
 31
0.0
  0
LINE
  5
4E2
  8
0
 62
     1
 10
219.91500899999991
 20
530.44443499999988
 30
0.0
 11
220.915009
 21
531.02178600000002
 31
0.0
  0
LINE
  5
4E3
  8
0
 62
     1
 10
220.915009
 20
530.14310499999988
 30
0.0
 11
220.915009
 21
530.79342299999996
 31
0.0
  0
LINE
  5
4E4
  8
0
 62
     1
 10
220.915009
 20
529.16983800000003
 30
0.0
 11
220.915009
 21
530.14310499999988
 31
0.0
  0
LINE
  5
4E5
  8
0
 62
     1
 10
220.915009
 20
528.02178600000002
 30
0.0
 11
220.915009
 21
529.16983800000003
 31
0.0
  0
LINE
  5
4E6
  8
0
 62
     1
 10
220.915009
 20
526.87373700000001
 30
0.0
 11
220.915009
 21
528.02178600000002
 31
0.0
  0
LINE
  5
4E7
  8
0
 62
     1
 10
220.915009
 20
525.90046700000005
 30
0.0
 11
220.915009
 21
526.87373700000001
 31
0.0
  0
LINE
  5
4E8
  8
0
 62
     1
 10
220.915009
 20
525.25014900000008
 30
0.0
 11
220.915009
 21
525.90046700000005
 31
0.0
  0
LINE
  5
4E9
  8
0
 62
     1
 10
220.915009
 20
525.02178600000002
 30
0.0
 11
220.915009
 21
525.25014900000008
 31
0.0
  0
LINE
  5
4EA
  8
0
 62
     1
 10
219.91500899999991
 20
525.59913600000004
 30
0.0
 11
220.915009
 21
525.02178600000002
 31
0.0
  0
LINE
  5
4EB
  8
0
 62
     1
 10
227.91500899999991
 20
680.52178599999991
 30
0.0
 11
228.915009
 21
680.52178599999991
 31
0.0
  0
LINE
  5
4EC
  8
0
 62
     7
 10
226.415009
 20
680.52178599999991
 30
0.0
 11
226.415009
 21
751.33037899999999
 31
0.0
  0
LINE
  5
4ED
  8
0
 62
     7
 10
224.415009
 20
652.02178600000002
 30
0.0
 11
224.415009
 21
667.02178600000002
 31
0.0
  0
LINE
  5
4EE
  8
0
 62
     7
 10
226.415009
 20
472.54891600000002
 30
0.0
 11
226.415009
 21
517.52178600000002
 31
0.0
  0
LINE
  5
4EF
  8
0
 62
     7
 10
224.415009
 20
471.10966100000002
 30
0.0
 11
224.415009
 21
525.02178600000002
 31
0.0
  0
POLYLINE
  5
4F0
  8
0
 62
     3
 66
     1
 10
0.0
 20
0.0
 30
0.0
  0
VERTEX
  5
AC9
  8
0
 62
     3
 10
220.64485199999999
 20
468.39655699999997
 30
0.0
  0
VERTEX
  5
ACA
  8
0
 62
     3
 10
227.933739
 20
473.64182699999992
 30
0.0
  0
VERTEX
  5
ACB
  8
0
 62
     3
 10
227.5772089999999
 20
475.84929299999999
 30
0.0
  0
VERTEX
  5
ACC
  8
0
 62
     3
 10
230.72530399999991
 20
473.18667999999991
 30
0.0
  0
VERTEX
  5
ACD
  8
0
 62
     3
 10
230.368774
 20
475.39413799999988
 30
0.0
  0
SEQEND
  5
ACE
  8
0
 62
     3
  0
POLYLINE
  5
4F7
  8
0
 62
     3
 66
     1
 10
0.0
 20
0.0
 30
0.0
  0
VERTEX
  5
ACF
  8
0
 62
     3
 10
219.645195
 20
754.57062900000005
 30
0.0
  0
VERTEX
  5
AD0
  8
0
 62
     3
 10
227.5718839999999
 20
750.77665300000001
 30
0.0
  0
VERTEX
  5
AD1
  8
0
 62
     3
 10
229.33734100000001
 20
752.14893700000005
 30
0.0
  0
VERTEX
  5
AD2
  8
0
 62
     3
 10
228.51243599999989
 20
748.10918800000002
 30
0.0
  0
VERTEX
  5
AD3
  8
0
 62
     3
 10
230.27789300000001
 20
749.48147199999994
 30
0.0
  0
SEQEND
  5
AD4
  8
0
 62
     3
  0
LINE
  5
4FE
  8
0
 62
     7
 10
224.415009
 20
673.52177800000004
 30
0.0
 11
226.415009
 21
673.52177800000004
 31
0.0
  0
LINE
  5
4FF
  8
0
 62
     7
 10
224.415009
 20
666.52178600000002
 30
0.0
 11
226.415009
 21
666.52178600000002
 31
0.0
  0
LINE
  5
500
  8
0
 62
     7
 10
224.415009
 20
655.02178600000002
 30
0.0
 11
226.415009
 21
655.02178600000002
 31
0.0
  0
LINE
  5
501
  8
0
 62
     7
 10
224.415009
 20
543.02178599999991
 30
0.0
 11
226.415009
 21
543.02178599999991
 31
0.0
  0
LINE
  5
502
  8
0
 62
     7
 10
224.415009
 20
531.52178600000002
 30
0.0
 11
226.415009
 21
531.52178600000002
 31
0.0
  0
LINE
  5
503
  8
0
 62
     7
 10
224.415009
 20
524.52178600000002
 30
0.0
 11
226.415009
 21
524.52178600000002
 31
0.0
  0
LINE
  5
504
  8
0
 62
     7
 10
224.415009
 20
531.02178600000002
 30
0.0
 11
224.415009
 21
544.02178600000002
 31
0.0
  0
LINE
  5
505
  8
0
 62
     7
 10
224.415009
 20
673.02178600000002
 30
0.0
 11
224.415009
 21
752.28764000000001
 31
0.0
  0
LINE
  5
506
  8
0
  6
DASHDOT
 62
     7
 10
96.735144000000005
 20
599.02178600000002
 30
0.0
 11
258.62049100000002
 21
599.02178600000002
 31
0.0
  0
LINE
  5
507
  8
0
  6
DASHDOT
 62
     7
 10
21.952148000000001
 20
599.02178600000002
 30
0.0
 11
35.389113999999992
 21
599.02178600000002
 31
0.0
  0
POLYLINE
  5
508
  8
0
 62
     3
 66
     1
 10
0.0
 20
0.0
 30
0.0
  0
VERTEX
  5
AD5
  8
0
 62
     3
 10
166.26104399999991
 20
542.75499300000001
 30
0.0
  0
VERTEX
  5
AD6
  8
0
 62
     3
 10
168.1825179999999
 20
526.87078899999995
 30
0.0
  0
VERTEX
  5
AD7
  8
0
 62
     3
 10
170.28813899999989
 20
526.11820999999998
 30
0.0
  0
VERTEX
  5
AD8
  8
0
 62
     3
 10
166.43718000000001
 20
524.6450769999999
 30
0.0
  0
VERTEX
  5
AD9
  8
0
 62
     3
 10
168.54279700000001
 20
523.89249800000005
 30
0.0
  0
VERTEX
  5
ADA
  8
0
 62
     3
 10
169.8186189999999
 20
513.34569899999985
 30
0.0
  0
SEQEND
  5
ADB
  8
0
 62
     3
  0
LINE
  5
510
  8
0
 62
     7
 10
119.4138429999999
 20
516.27180099999987
 30
0.0
 11
120.913843
 21
516.27180099999987
 31
0.0
  0
POLYLINE
  5
511
  8
0
 62
     3
 66
     1
 10
0.0
 20
0.0
 30
0.0
  0
VERTEX
  5
ADC
  8
0
 62
     3
 10
183.5753169999999
 20
662.03018599999996
 30
0.0
  0
VERTEX
  5
ADD
  8
0
 62
     3
 10
184.43791200000001
 20
678.00691600000005
 30
0.0
  0
VERTEX
  5
ADE
  8
0
 62
     3
 10
182.49473199999991
 20
679.11328500000002
 30
0.0
  0
VERTEX
  5
ADF
  8
0
 62
     3
 10
186.54282399999991
 20
679.89618299999995
 30
0.0
  0
VERTEX
  5
AE0
  8
0
 62
     3
 10
184.599648
 20
681.00255199999992
 30
0.0
  0
VERTEX
  5
AE1
  8
0
 62
     3
 10
185.04891199999989
 20
689.32377199999996
 30
0.0
  0
SEQEND
  5
AE2
  8
0
 62
     3
  0
POLYLINE
  5
519
  8
0
 62
     3
 66
     1
 10
0.0
 20
0.0
 30
0.0
  0
VERTEX
  5
AE3
  8
0
 62
     3
 10
154.89735400000001
 20
662.03018599999996
 30
0.0
  0
VERTEX
  5
AE4
  8
0
 62
     3
 10
170.89735400000001
 20
662.03018599999996
 30
0.0
  0
VERTEX
  5
AE5
  8
0
 62
     3
 10
171.89735400000001
 20
664.03018599999996
 30
0.0
  0
VERTEX
  5
AE6
  8
0
 62
     3
 10
172.89735400000001
 20
660.03018599999996
 30
0.0
  0
VERTEX
  5
AE7
  8
0
 62
     3
 10
173.89735400000001
 20
662.03018599999996
 30
0.0
  0
VERTEX
  5
AE8
  8
0
 62
     3
 10
183.5753169999999
 20
662.03018599999996
 30
0.0
  0
SEQEND
  5
AE9
  8
0
 62
     3
  0
POLYLINE
  5
521
  8
0
 62
     3
 66
     1
 10
0.0
 20
0.0
 30
0.0
  0
VERTEX
  5
AEA
  8
0
 62
     3
 10
154.89735400000001
 20
656.20623399999988
 30
0.0
  0
VERTEX
  5
AEB
  8
0
 62
     3
 10
154.89735400000001
 20
659.03019299999994
 30
0.0
  0
VERTEX
  5
AEC
  8
0
 62
     3
 10
152.89735400000001
 20
660.03019299999994
 30
0.0
  0
VERTEX
  5
AED
  8
0
 62
     3
 10
156.89735399999989
 20
661.03019299999994
 30
0.0
  0
VERTEX
  5
AEE
  8
0
 62
     3
 10
154.89735400000001
 20
662.03019299999994
 30
0.0
  0
SEQEND
  5
AEF
  8
0
 62
     3
  0
LINE
  5
528
  8
0
 62
     7
 10
142.4138429999999
 20
520.77180099999987
 30
0.0
 11
142.4138429999999
 21
525.77178600000002
 31
0.0
  0
LINE
  5
529
  8
0
 62
     2
 10
148.4138429999999
 20
662.77178600000002
 30
0.0
 11
148.4138429999999
 21
718.77178600000002
 31
0.0
  0
LINE
  5
52A
  8
0
 62
     2
 10
141.4138429999999
 20
662.77178600000002
 30
0.0
 11
141.4138429999999
 21
668.77178600000002
 31
0.0
  0
LINE
  5
52B
  8
0
  6
DASHDOT
 62
     7
 10
132.086815
 20
706.27178600000002
 30
0.0
 11
153.0027199999999
 21
706.27178600000002
 31
0.0
  0
LINE
  5
52C
  8
0
 62
     2
 10
142.4138429999999
 20
718.77178600000002
 30
0.0
 11
148.4138429999999
 21
718.77178600000002
 31
0.0
  0
LINE
  5
52D
  8
0
 62
     2
 10
142.4138429999999
 20
710.52178600000002
 30
0.0
 11
148.4138429999999
 21
710.52178600000002
 31
0.0
  0
LINE
  5
52E
  8
0
 62
     2
 10
142.4138429999999
 20
702.02178600000002
 30
0.0
 11
148.4138429999999
 21
702.02178600000002
 31
0.0
  0
LINE
  5
52F
  8
0
 62
     2
 10
141.4138429999999
 20
677.02178600000002
 30
0.0
 11
148.4138429999999
 21
677.02178600000002
 31
0.0
  0
LINE
  5
530
  8
0
 62
     2
 10
141.4138429999999
 20
668.52178600000002
 30
0.0
 11
148.4138429999999
 21
668.52178600000002
 31
0.0
  0
LINE
  5
531
  8
0
 62
     7
 10
137.4138429999999
 20
679.27178600000002
 30
0.0
 11
137.4138429999999
 21
681.77178600000002
 31
0.0
  0
LINE
  5
532
  8
0
 62
     2
 10
139.4138429999999
 20
686.27178600000002
 30
0.0
 11
139.4138429999999
 21
687.77178600000002
 31
0.0
  0
LINE
  5
533
  8
0
 62
     2
 10
136.4138429999999
 20
686.27178600000002
 30
0.0
 11
139.4138429999999
 21
686.27178600000002
 31
0.0
  0
LINE
  5
534
  8
0
 62
     2
 10
136.4138429999999
 20
688.77178600000002
 30
0.0
 11
138.4138429999999
 21
688.77178600000002
 31
0.0
  0
LINE
  5
535
  8
0
 62
     2
 10
120.913843
 20
662.77178600000002
 30
0.0
 11
122.4138429999999
 21
662.77178600000002
 31
0.0
  0
LINE
  5
536
  8
0
 62
     2
 10
120.913843
 20
688.77178600000002
 30
0.0
 11
136.4138429999999
 21
688.77178600000002
 31
0.0
  0
LINE
  5
537
  8
0
 62
     2
 10
120.913843
 20
662.77178600000002
 30
0.0
 11
120.913843
 21
688.77178600000002
 31
0.0
  0
LINE
  5
538
  8
0
 62
     2
 10
136.4138429999999
 20
686.27178600000002
 30
0.0
 11
136.4138429999999
 21
688.77178600000002
 31
0.0
  0
LINE
  5
539
  8
0
 62
     2
 10
135.828056
 20
683.07178099999999
 30
0.0
 11
136.4138429999999
 21
683.07178099999999
 31
0.0
  0
LINE
  5
53A
  8
0
 62
     2
 10
136.4138429999999
 20
681.27178600000002
 30
0.0
 11
136.4138429999999
 21
686.27178600000002
 31
0.0
  0
LINE
  5
53B
  8
0
 62
     2
 10
134.74575799999991
 20
683.47178299999985
 30
0.0
 11
135.428057
 21
683.47178299999985
 31
0.0
  0
LINE
  5
53C
  8
0
 62
     2
 10
135.428057
 20
683.47178299999985
 30
0.0
 11
135.828056
 21
683.07178099999999
 31
0.0
  0
LINE
  5
53D
  8
0
 62
     2
 10
122.4138429999999
 20
662.77178600000002
 30
0.0
 11
136.4138429999999
 21
686.27178600000002
 31
0.0
  0
LINE
  5
53E
  8
0
 62
     2
 10
136.9138429999999
 20
664.27178600000002
 30
0.0
 11
136.9138429999999
 21
681.27178600000002
 31
0.0
  0
LINE
  5
53F
  8
0
 62
     2
 10
138.4138429999999
 20
688.77178600000002
 30
0.0
 11
139.4138429999999
 21
687.77178600000002
 31
0.0
  0
LINE
  5
540
  8
0
 62
     6
 10
137.4138429999999
 20
666.27178600000002
 30
0.0
 11
137.4138429999999
 21
679.27178600000002
 31
0.0
  0
LINE
  5
541
  8
0
 62
     1
 10
218.91384099999999
 20
689.77178600000002
 30
0.0
 11
218.91384099999999
 21
691.77178600000002
 31
0.0
  0
LINE
  5
542
  8
0
 62
     1
 10
117.913844
 20
691.77178600000002
 30
0.0
 11
142.4138429999999
 21
691.77178600000002
 31
0.0
  0
LINE
  5
543
  8
0
 62
     1
 10
117.913844
 20
689.77178600000002
 30
0.0
 11
117.913844
 21
691.77178600000002
 31
0.0
  0
LINE
  5
544
  8
0
 62
     1
 10
118.913844
 20
688.77178600000002
 30
0.0
 11
120.913843
 21
688.77178600000002
 31
0.0
  0
LINE
  5
545
  8
0
 62
     1
 10
138.4138429999999
 20
688.77178600000002
 30
0.0
 11
142.4138429999999
 21
688.77178600000002
 31
0.0
  0
LINE
  5
546
  8
0
 62
     1
 10
138.1638429999999
 20
683.47178299999985
 30
0.0
 11
142.4138429999999
 21
683.47178299999985
 31
0.0
  0
LINE
  5
547
  8
0
 62
     1
 10
137.1638429999999
 20
680.27178600000002
 30
0.0
 11
137.4138429999999
 21
680.27178600000002
 31
0.0
  0
LINE
  5
548
  8
0
 62
     1
 10
148.6638429999999
 20
681.77178600000002
 30
0.0
 11
148.6638429999999
 21
688.77178600000002
 31
0.0
  0
LINE
  5
549
  8
0
 62
     1
 10
137.1638429999999
 20
680.27178600000002
 30
0.0
 11
137.1638429999999
 21
686.27178600000002
 31
0.0
  0
LINE
  5
54A
  8
0
 62
     1
 10
117.913844
 20
691.77178600000002
 30
0.0
 11
117.913844
 21
788.77178600000002
 31
0.0
  0
LINE
  5
54B
  8
0
 62
     1
 10
218.91384099999999
 20
691.77178600000002
 30
0.0
 11
218.91384099999999
 21
788.77178600000002
 31
0.0
  0
LINE
  5
54C
  8
0
 62
     1
 10
148.4138429999999
 20
682.72178299999985
 30
0.0
 11
148.6638429999999
 21
682.47178299999985
 31
0.0
  0
LINE
  5
54D
  8
0
 62
     1
 10
137.1638429999999
 20
682.47178299999985
 30
0.0
 11
138.1638429999999
 21
683.47178299999985
 31
0.0
  0
LINE
  5
54E
  8
0
 62
     1
 10
217.91384099999999
 20
688.77178600000002
 30
0.0
 11
218.91384099999999
 21
689.77178600000002
 31
0.0
  0
LINE
  5
54F
  8
0
 62
     1
 10
117.913844
 20
689.77178600000002
 30
0.0
 11
118.913844
 21
688.77178600000002
 31
0.0
  0
LINE
  5
550
  8
0
 62
     2
 10
120.913843
 20
687.77178600000002
 30
0.0
 11
136.4138429999999
 21
687.77178600000002
 31
0.0
  0
LINE
  5
551
  8
0
 62
     2
 10
120.913843
 20
663.77178600000002
 30
0.0
 11
123.00958799999989
 21
663.77178600000002
 31
0.0
  0
LINE
  5
552
  8
0
 62
     2
 10
123.307461
 20
664.27178600000002
 30
0.0
 11
136.9138429999999
 21
664.27178600000002
 31
0.0
  0
LINE
  5
553
  8
0
 62
     2
 10
133.4351199999999
 20
681.27178600000002
 30
0.0
 11
136.9138429999999
 21
681.27178600000002
 31
0.0
  0
LINE
  5
554
  8
0
 62
     6
 10
136.9138429999999
 20
679.27178600000002
 30
0.0
 11
137.4138429999999
 21
679.27178600000002
 31
0.0
  0
LINE
  5
555
  8
0
 62
     6
 10
136.9138429999999
 20
666.27178600000002
 30
0.0
 11
137.4138429999999
 21
666.27178600000002
 31
0.0
  0
LINE
  5
556
  8
0
 62
     1
 10
117.913844
 20
788.77178600000002
 30
0.0
 11
218.91384099999999
 21
788.77178600000002
 31
0.0
  0
LINE
  5
557
  8
0
 62
     1
 10
148.4138429999999
 20
691.77178600000002
 30
0.0
 11
218.91384099999999
 21
691.77178600000002
 31
0.0
  0
LINE
  5
558
  8
0
 62
     1
 10
148.4138429999999
 20
688.77178600000002
 30
0.0
 11
217.91384099999999
 21
688.77178600000002
 31
0.0
  0
LINE
  5
559
  8
0
 62
     2
 10
218.91384099999999
 20
663.02178600000002
 30
0.0
 11
218.91384099999999
 21
687.52178600000002
 31
0.0
  0
LINE
  5
55A
  8
0
 62
     2
 10
166.91384500000001
 20
688.77178600000002
 30
0.0
 11
217.66384099999999
 21
688.77178600000002
 31
0.0
  0
ARC
  5
55B
  8
0
 62
     2
 10
217.66384099999999
 20
687.52178600000002
 30
0.0
 40
1.25
 50
0.0
 51
90.000003000000007
  0
LINE
  5
55C
  8
0
 62
     2
 10
217.91384099999999
 20
663.02178600000002
 30
0.0
 11
218.91384099999999
 21
663.02178600000002
 31
0.0
  0
LINE
  5
55D
  8
0
 62
     2
 10
217.91384099999999
 20
662.02178600000002
 30
0.0
 11
217.91384099999999
 21
663.02178600000002
 31
0.0
  0
LINE
  5
55E
  8
0
 62
     7
 10
149.4138429999999
 20
663.77178600000002
 30
0.0
 11
149.4138429999999
 21
681.77178600000002
 31
0.0
  0
LINE
  5
55F
  8
0
 62
     7
 10
148.4138429999999
 20
681.77178600000002
 30
0.0
 11
149.4138429999999
 21
681.77178600000002
 31
0.0
  0
LINE
  5
560
  8
0
 62
     7
 10
148.4138429999999
 20
663.77178600000002
 30
0.0
 11
149.4138429999999
 21
663.77178600000002
 31
0.0
  0
LINE
  5
561
  8
0
 62
     2
 10
142.4138429999999
 20
676.77178600000002
 30
0.0
 11
142.4138429999999
 21
718.77178600000002
 31
0.0
  0
LINE
  5
562
  8
0
 62
     2
 10
139.4138429999999
 20
514.77178600000002
 30
0.0
 11
139.4138429999999
 21
516.27178599999991
 31
0.0
  0
LINE
  5
563
  8
0
 62
     2
 10
136.4138429999999
 20
516.27178599999991
 30
0.0
 11
139.4138429999999
 21
516.27178599999991
 31
0.0
  0
LINE
  5
564
  8
0
 62
     2
 10
136.4138429999999
 20
513.77178600000002
 30
0.0
 11
138.4138429999999
 21
513.77178600000002
 31
0.0
  0
LINE
  5
565
  8
0
 62
     2
 10
120.913843
 20
539.77178600000002
 30
0.0
 11
122.4138429999999
 21
539.77178600000002
 31
0.0
  0
LINE
  5
566
  8
0
 62
     2
 10
120.913843
 20
513.77178600000002
 30
0.0
 11
136.4138429999999
 21
513.77178600000002
 31
0.0
  0
LINE
  5
567
  8
0
 62
     2
 10
120.913843
 20
513.77178600000002
 30
0.0
 11
120.913843
 21
539.77178600000002
 31
0.0
  0
LINE
  5
568
  8
0
 62
     2
 10
136.4138429999999
 20
513.77178600000002
 30
0.0
 11
136.4138429999999
 21
516.27178599999991
 31
0.0
  0
LINE
  5
569
  8
0
 62
     2
 10
135.828056
 20
519.47179000000006
 30
0.0
 11
136.4138429999999
 21
519.47179000000006
 31
0.0
  0
LINE
  5
56A
  8
0
 62
     2
 10
136.4138429999999
 20
516.27178599999991
 30
0.0
 11
136.4138429999999
 21
521.27178600000002
 31
0.0
  0
LINE
  5
56B
  8
0
 62
     2
 10
134.74575799999991
 20
519.07178899999997
 30
0.0
 11
135.428057
 21
519.07178899999997
 31
0.0
  0
LINE
  5
56C
  8
0
 62
     2
 10
135.428057
 20
519.07178899999997
 30
0.0
 11
135.828056
 21
519.47179000000006
 31
0.0
  0
LINE
  5
56D
  8
0
 62
     2
 10
122.4138429999999
 20
539.77178600000002
 30
0.0
 11
136.4138429999999
 21
516.27178599999991
 31
0.0
  0
LINE
  5
56E
  8
0
 62
     2
 10
136.9138429999999
 20
521.27178600000002
 30
0.0
 11
136.9138429999999
 21
538.27178600000002
 31
0.0
  0
LINE
  5
56F
  8
0
 62
     2
 10
138.4138429999999
 20
513.77178600000002
 30
0.0
 11
139.4138429999999
 21
514.77178600000002
 31
0.0
  0
LINE
  5
570
  8
0
 62
     6
 10
137.4138429999999
 20
523.27178600000002
 30
0.0
 11
137.4138429999999
 21
536.27178600000002
 31
0.0
  0
LINE
  5
571
  8
0
 62
     2
 10
120.913843
 20
514.77178600000002
 30
0.0
 11
136.4138429999999
 21
514.77178600000002
 31
0.0
  0
LINE
  5
572
  8
0
 62
     2
 10
120.913843
 20
538.77178600000002
 30
0.0
 11
123.00958799999989
 21
538.77178600000002
 31
0.0
  0
LINE
  5
573
  8
0
 62
     2
 10
123.307461
 20
538.27178600000002
 30
0.0
 11
136.9138429999999
 21
538.27178600000002
 31
0.0
  0
LINE
  5
574
  8
0
 62
     2
 10
133.4351199999999
 20
521.27178600000002
 30
0.0
 11
136.9138429999999
 21
521.27178600000002
 31
0.0
  0
LINE
  5
575
  8
0
 62
     6
 10
136.9138429999999
 20
523.27178600000002
 30
0.0
 11
137.4138429999999
 21
523.27178600000002
 31
0.0
  0
LINE
  5
576
  8
0
 62
     6
 10
136.9138429999999
 20
536.27178600000002
 30
0.0
 11
137.4138429999999
 21
536.27178600000002
 31
0.0
  0
LINE
  5
577
  8
0
 62
     7
 10
136.4138429999999
 20
516.27180099999987
 30
0.0
 11
191.41384099999991
 21
516.27180099999987
 31
0.0
  0
LINE
  5
578
  8
0
 62
     7
 10
147.4138429999999
 20
520.77178600000002
 30
0.0
 11
148.4138429999999
 21
520.77178600000002
 31
0.0
  0
LINE
  5
579
  8
0
 62
     7
 10
148.4138429999999
 20
520.77178600000002
 30
0.0
 11
148.4138429999999
 21
538.77178600000002
 31
0.0
  0
LINE
  5
57A
  8
0
 62
     7
 10
147.4138429999999
 20
538.77178600000002
 30
0.0
 11
148.4138429999999
 21
538.77178600000002
 31
0.0
  0
LINE
  5
57B
  8
0
 62
     7
 10
147.4138429999999
 20
520.77178600000002
 30
0.0
 11
147.4138429999999
 21
538.77178600000002
 31
0.0
  0
LINE
  5
57C
  8
0
 62
     7
 10
142.4138429999999
 20
533.77178600000002
 30
0.0
 11
142.4138429999999
 21
541.77179699999988
 31
0.0
  0
LINE
  5
57D
  8
0
 62
     7
 10
140.41384099999991
 20
533.77178600000002
 30
0.0
 11
140.41384099999991
 21
542.75499300000001
 31
0.0
  0
LINE
  5
57E
  8
0
 62
     1
 10
148.81384299999999
 20
522.58178299999986
 30
0.0
 11
148.81384299999999
 21
536.96178399999997
 31
0.0
  0
ARC
  5
57F
  8
0
 62
     1
 10
151.167507
 20
524.37928399999998
 30
0.0
 40
2.746335999999999
 50
319.117614
 51
40.882390999999998
  0
ARC
  5
580
  8
0
 62
     1
 10
151.167507
 20
535.16428799999994
 30
0.0
 40
2.746335999999999
 50
319.117614
 51
40.882390999999998
  0
LINE
  5
581
  8
0
 62
     1
 10
148.81384299999999
 20
526.176785
 30
0.0
 11
153.2970389999999
 21
526.176785
 31
0.0
  0
ARC
  5
582
  8
0
 62
     1
 10
143.1288429999999
 20
529.77178600000002
 30
0.0
 40
10.785
 50
340.52878099999992
 51
19.471219000000001
  0
LINE
  5
583
  8
0
 62
     1
 10
148.81384299999999
 20
533.36678700000004
 30
0.0
 11
153.2970389999999
 21
533.36678700000004
 31
0.0
  0
LINE
  5
584
  8
0
 62
     1
 10
148.81384299999999
 20
522.58178299999986
 30
0.0
 11
153.24388899999991
 21
522.58178299999986
 31
0.0
  0
LINE
  5
585
  8
0
 62
     1
 10
148.81384299999999
 20
536.96178399999997
 30
0.0
 11
153.24388899999991
 21
536.96178399999997
 31
0.0
  0
LINE
  5
586
  8
0
 62
     1
 10
148.4138429999999
 20
523.67178699999988
 30
0.0
 11
148.81384299999999
 21
523.67178699999988
 31
0.0
  0
LINE
  5
587
  8
0
 62
     1
 10
148.4138429999999
 20
535.87178399999993
 30
0.0
 11
148.81384299999999
 21
535.87178399999993
 31
0.0
  0
LINE
  5
588
  8
0
 62
     7
 10
137.4138429999999
 20
526.53857400000004
 30
0.0
 11
145.9138429999999
 21
526.53857400000004
 31
0.0
  0
LINE
  5
589
  8
0
 62
     7
 10
137.4138429999999
 20
533.004997
 30
0.0
 11
145.9138429999999
 21
533.004997
 31
0.0
  0
LINE
  5
58A
  8
0
 62
     1
 10
137.4138429999999
 20
533.77178600000002
 30
0.0
 11
147.4138429999999
 21
533.77178600000002
 31
0.0
  0
LINE
  5
58B
  8
0
 62
     1
 10
137.4138429999999
 20
525.77178600000002
 30
0.0
 11
147.4138429999999
 21
525.77178600000002
 31
0.0
  0
LINE
  5
58C
  8
0
 62
     1
 10
145.9138429999999
 20
525.77178600000002
 30
0.0
 11
145.9138429999999
 21
533.77178600000002
 31
0.0
  0
LINE
  5
58D
  8
0
 62
     1
 10
148.4138429999999
 20
523.67178699999988
 30
0.0
 11
148.4138429999999
 21
535.87178399999993
 31
0.0
  0
LINE
  5
58E
  8
0
 62
     1
 10
153.91384099999991
 20
524.37928399999998
 30
0.0
 11
153.91384099999991
 21
535.16428799999994
 31
0.0
  0
LINE
  5
58F
  8
0
  6
DASHDOT
 62
     7
 10
134.4138429999999
 20
529.77178600000002
 30
0.0
 11
157.91384500000001
 21
529.77178600000002
 31
0.0
  0
LINE
  5
590
  8
0
 62
     1
 10
149.81384299999999
 20
665.58178299999997
 30
0.0
 11
149.81384299999999
 21
679.96178799999996
 31
0.0
  0
ARC
  5
591
  8
0
 62
     1
 10
152.167507
 20
667.37928399999987
 30
0.0
 40
2.746335999999999
 50
319.117614
 51
40.882390999999998
  0
ARC
  5
592
  8
0
 62
     1
 10
152.167507
 20
678.16428799999994
 30
0.0
 40
2.746335999999999
 50
319.117614
 51
40.882390999999998
  0
LINE
  5
593
  8
0
 62
     1
 10
149.81384299999999
 20
669.17678499999988
 30
0.0
 11
154.2970389999999
 21
669.17678499999988
 31
0.0
  0
ARC
  5
594
  8
0
 62
     1
 10
144.1288429999999
 20
672.77178600000002
 30
0.0
 40
10.785
 50
340.52878099999992
 51
19.471219000000001
  0
LINE
  5
595
  8
0
 62
     1
 10
149.81384299999999
 20
676.36678700000004
 30
0.0
 11
154.2970389999999
 21
676.36678700000004
 31
0.0
  0
LINE
  5
596
  8
0
 62
     1
 10
149.81384299999999
 20
665.58178299999997
 30
0.0
 11
154.24388899999991
 21
665.58178299999997
 31
0.0
  0
LINE
  5
597
  8
0
 62
     1
 10
149.81384299999999
 20
679.96178799999996
 30
0.0
 11
154.24388899999991
 21
679.96178799999996
 31
0.0
  0
LINE
  5
598
  8
0
 62
     1
 10
149.4138429999999
 20
666.67178699999999
 30
0.0
 11
149.81384299999999
 21
666.67178699999999
 31
0.0
  0
LINE
  5
599
  8
0
 62
     1
 10
149.4138429999999
 20
678.87178399999993
 30
0.0
 11
149.81384299999999
 21
678.87178399999993
 31
0.0
  0
LINE
  5
59A
  8
0
 62
     7
 10
137.4138429999999
 20
669.53857000000005
 30
0.0
 11
145.9138429999999
 21
669.53857000000005
 31
0.0
  0
LINE
  5
59B
  8
0
 62
     7
 10
137.4138429999999
 20
676.00500099999999
 30
0.0
 11
145.9138429999999
 21
676.00500099999999
 31
0.0
  0
LINE
  5
59C
  8
0
 62
     1
 10
137.4138429999999
 20
676.77178600000002
 30
0.0
 11
148.4138429999999
 21
676.77178600000002
 31
0.0
  0
LINE
  5
59D
  8
0
 62
     1
 10
137.4138429999999
 20
668.77178600000002
 30
0.0
 11
148.4138429999999
 21
668.77178600000002
 31
0.0
  0
LINE
  5
59E
  8
0
 62
     1
 10
145.9138429999999
 20
668.77178600000002
 30
0.0
 11
145.9138429999999
 21
676.77178600000002
 31
0.0
  0
LINE
  5
59F
  8
0
 62
     1
 10
149.4138429999999
 20
666.67178699999999
 30
0.0
 11
149.4138429999999
 21
678.87178399999993
 31
0.0
  0
LINE
  5
5A0
  8
0
 62
     1
 10
154.91384099999991
 20
667.37928399999987
 30
0.0
 11
154.91384099999991
 21
678.16428799999994
 31
0.0
  0
CIRCLE
  5
5A1
  8
0
 62
     2
 10
144.22969599999999
 20
714.54100400000004
 30
0.0
 40
0.3
  0
CIRCLE
  5
5A2
  8
0
 62
     2
 10
138.81415000000001
 20
539.37609499999985
 30
0.0
 40
0.3
  0
LINE
  5
5A3
  8
0
 62
     7
 10
141.4138429999999
 20
676.77178600000002
 30
0.0
 11
141.4138429999999
 21
681.77178600000002
 31
0.0
  0
LINE
  5
5A4
  8
0
 62
     7
 10
142.4138429999999
 20
662.77178600000002
 30
0.0
 11
142.4138429999999
 21
668.77178600000002
 31
0.0
  0
LINE
  5
5A5
  8
0
  6
DASHDOT
 62
     7
 10
97.641863000000001
 20
670.77178600000002
 30
0.0
 11
124.3477649999999
 21
670.77178600000002
 31
0.0
  0
LINE
  5
5A6
  8
0
 62
     7
 10
110.413843
 20
666.77178600000002
 30
0.0
 11
110.413843
 21
674.77178600000002
 31
0.0
  0
LINE
  5
5A7
  8
0
 62
     7
 10
106.413843
 20
668.27178600000002
 30
0.0
 11
106.413843
 21
673.27178600000002
 31
0.0
  0
LINE
  5
5A8
  8
0
 62
     7
 10
110.413843
 20
666.77178600000002
 30
0.0
 11
114.4138429999999
 21
666.77178600000002
 31
0.0
  0
LINE
  5
5A9
  8
0
 62
     7
 10
110.413843
 20
674.77178600000002
 30
0.0
 11
114.4138429999999
 21
674.77178600000002
 31
0.0
  0
LINE
  5
5AA
  8
0
 62
     7
 10
106.413843
 20
673.27178600000002
 30
0.0
 11
114.4138429999999
 21
673.27178600000002
 31
0.0
  0
LINE
  5
5AB
  8
0
 62
     7
 10
106.413843
 20
668.27178600000002
 30
0.0
 11
114.4138429999999
 21
668.27178600000002
 31
0.0
  0
LINE
  5
5AC
  8
0
 62
     7
 10
110.413843
 20
535.77178600000002
 30
0.0
 11
114.4138429999999
 21
535.77178600000002
 31
0.0
  0
LINE
  5
5AD
  8
0
 62
     7
 10
106.413843
 20
534.27178600000002
 30
0.0
 11
114.4138429999999
 21
534.27178600000002
 31
0.0
  0
LINE
  5
5AE
  8
0
  6
DASHDOT
 62
     7
 10
97.641863000000001
 20
531.77178600000002
 30
0.0
 11
124.3477649999999
 21
531.77178600000002
 31
0.0
  0
LINE
  5
5AF
  8
0
 62
     7
 10
106.413843
 20
529.27178600000002
 30
0.0
 11
114.4138429999999
 21
529.27178600000002
 31
0.0
  0
LINE
  5
5B0
  8
0
 62
     7
 10
110.413843
 20
527.77178600000002
 30
0.0
 11
114.4138429999999
 21
527.77178600000002
 31
0.0
  0
LINE
  5
5B1
  8
0
 62
     7
 10
110.413843
 20
527.77178600000002
 30
0.0
 11
110.413843
 21
535.77178600000002
 31
0.0
  0
LINE
  5
5B2
  8
0
 62
     7
 10
106.413843
 20
529.27178600000002
 30
0.0
 11
106.413843
 21
534.27178600000002
 31
0.0
  0
CIRCLE
  5
5B3
  8
0
 62
     7
 10
111.5630249999999
 20
531.31483500000002
 30
0.0
 40
0.2
  0
LINE
  5
5B4
  8
0
 62
     7
 10
249.1389999999999
 20
662.77178600000002
 30
0.0
 11
248.09712999999991
 21
656.86294199999986
 31
0.0
  0
LINE
  5
5B5
  8
0
 62
     7
 10
249.1389999999999
 20
662.77178600000002
 30
0.0
 11
250.18093099999999
 21
656.86294199999986
 31
0.0
  0
LINE
  5
5B6
  8
0
 62
     7
 10
249.1389999999999
 20
672.77178600000002
 30
0.0
 11
250.18093099999999
 21
678.68062999999995
 31
0.0
  0
LINE
  5
5B7
  8
0
 62
     7
 10
249.1389999999999
 20
672.77178600000002
 30
0.0
 11
248.09712999999991
 21
678.68062999999995
 31
0.0
  0
LINE
  5
5B8
  8
0
 62
     7
 10
249.1389999999999
 20
662.1079749999999
 30
0.0
 11
249.1389999999999
 21
673.10797500000001
 31
0.0
  0
LINE
  5
5B9
  8
0
 62
     7
 10
253.13900000000001
 20
662.77178600000002
 30
0.0
 11
154.31313299999999
 21
662.77180899999996
 31
0.0
  0
LINE
  5
5BA
  8
0
 62
     7
 10
253.13900000000001
 20
672.77178600000002
 30
0.0
 11
148.74648300000001
 21
672.77181600000006
 31
0.0
  0
LINE
  5
5BB
  8
0
 62
     7
 10
75.762169
 20
529.77178600000002
 30
0.0
 11
74.720298999999983
 21
523.86294199999986
 31
0.0
  0
LINE
  5
5BC
  8
0
 62
     7
 10
75.762169
 20
529.77178600000002
 30
0.0
 11
76.804039000000003
 21
523.86294199999986
 31
0.0
  0
LINE
  5
5BD
  8
0
 62
     7
 10
75.762169
 20
539.77179699999999
 30
0.0
 11
76.804039000000003
 21
545.68064500000003
 31
0.0
  0
LINE
  5
5BE
  8
0
 62
     7
 10
75.762169
 20
539.77179699999999
 30
0.0
 11
74.720298999999983
 21
545.68064500000003
 31
0.0
  0
LINE
  5
5BF
  8
0
 62
     7
 10
75.762169
 20
512.77178600000002
 30
0.0
 11
75.762169
 21
539.77179699999999
 31
0.0
  0
LINE
  5
5C0
  8
0
 62
     7
 10
71.762169
 20
529.77178600000002
 30
0.0
 11
132.086815
 21
529.77176999999995
 31
0.0
  0
LINE
  5
5C1
  8
0
 62
     7
 10
71.762169
 20
539.77180099999998
 30
0.0
 11
119.41384099999991
 21
539.77178600000002
 31
0.0
  0
LINE
  5
5C2
  8
0
 62
     7
 10
114.41384099999991
 20
416.89522899999997
 30
0.0
 11
108.5050279999999
 21
417.93711499999989
 31
0.0
  0
LINE
  5
5C3
  8
0
 62
     7
 10
114.41384099999991
 20
416.89522899999997
 30
0.0
 11
108.5050279999999
 21
415.85334399999999
 31
0.0
  0
LINE
  5
5C4
  8
0
 62
     7
 10
117.41384099999991
 20
416.89522899999997
 30
0.0
 11
123.3227159999999
 21
415.85334399999999
 31
0.0
  0
LINE
  5
5C5
  8
0
 62
     7
 10
117.41384099999991
 20
416.89522899999997
 30
0.0
 11
123.3227159999999
 21
417.93711499999989
 31
0.0
  0
LINE
  5
5C6
  8
0
 62
     7
 10
252.45888500000001
 20
416.89522899999997
 30
0.0
 11
246.550072
 21
417.93711499999989
 31
0.0
  0
LINE
  5
5C7
  8
0
 62
     7
 10
252.45888500000001
 20
416.89522899999997
 30
0.0
 11
246.550072
 21
415.85334399999999
 31
0.0
  0
LINE
  5
5C8
  8
0
 62
     7
 10
97.413841000000005
 20
416.89522899999997
 30
0.0
 11
252.45888500000001
 21
416.89522899999997
 31
0.0
  0
LINE
  5
5C9
  8
0
 62
     7
 10
114.41384099999991
 20
412.89522899999992
 30
0.0
 11
114.41384099999991
 21
505.44233300000002
 31
0.0
  0
LINE
  5
5CA
  8
0
 62
     7
 10
117.41384099999991
 20
412.89522899999992
 30
0.0
 11
117.41384099999991
 21
505.44233300000002
 31
0.0
  0
LINE
  5
5CB
  8
0
 62
     7
 10
252.45888500000001
 20
412.89522899999992
 30
0.0
 11
252.45888500000001
 21
588.77178600000002
 31
0.0
  0
LINE
  5
5CC
  8
0
 62
     7
 10
117.41384099999991
 20
446.28907400000003
 30
0.0
 11
123.3227159999999
 21
445.24718899999988
 31
0.0
  0
LINE
  5
5CD
  8
0
 62
     7
 10
117.41384099999991
 20
446.28907400000003
 30
0.0
 11
123.3227159999999
 21
447.33095900000001
 31
0.0
  0
LINE
  5
5CE
  8
0
 62
     7
 10
220.91512299999991
 20
446.28907400000003
 30
0.0
 11
215.00631000000001
 21
447.33095900000001
 31
0.0
  0
LINE
  5
5CF
  8
0
 62
     7
 10
220.91512299999991
 20
446.28907400000003
 30
0.0
 11
215.00631000000001
 21
445.24718899999988
 31
0.0
  0
LINE
  5
5D0
  8
0
 62
     7
 10
117.41384099999991
 20
446.28907400000003
 30
0.0
 11
220.91512299999991
 21
446.28907400000003
 31
0.0
  0
LINE
  5
5D1
  8
0
 62
     7
 10
117.41384099999991
 20
442.28907400000003
 30
0.0
 11
117.41384099999991
 21
505.44233300000002
 31
0.0
  0
LINE
  5
5D2
  8
0
 62
     7
 10
220.91512299999991
 20
442.28907400000003
 30
0.0
 11
220.91512299999991
 21
546.52178600000002
 31
0.0
  0
LINE
  5
5D3
  8
0
 62
     7
 10
117.41384099999991
 20
463.30358499999988
 30
0.0
 11
123.3227159999999
 21
462.26169999999991
 31
0.0
  0
LINE
  5
5D4
  8
0
 62
     7
 10
117.41384099999991
 20
463.30358499999988
 30
0.0
 11
123.3227159999999
 21
464.3454779999999
 31
0.0
  0
LINE
  5
5D5
  8
0
 62
     7
 10
218.91384099999999
 20
463.30358499999988
 30
0.0
 11
213.00496699999999
 21
464.34546999999998
 31
0.0
  0
LINE
  5
5D6
  8
0
 62
     7
 10
218.91384099999999
 20
463.30358499999988
 30
0.0
 11
213.00496699999999
 21
462.26169199999993
 31
0.0
  0
LINE
  5
5D7
  8
0
 62
     7
 10
117.41384099999991
 20
463.30358499999988
 30
0.0
 11
218.91384099999999
 21
463.30358499999988
 31
0.0
  0
LINE
  5
5D8
  8
0
 62
     7
 10
117.41384099999991
 20
459.30358499999988
 30
0.0
 11
117.41384099999991
 21
696.30009099999995
 31
0.0
  0
LINE
  5
5D9
  8
0
 62
     7
 10
218.91384099999999
 20
459.30358499999988
 30
0.0
 11
218.91384099999999
 21
662.02178600000002
 31
0.0
  0
LINE
  5
5DA
  8
0
 62
     7
 10
270.88967100000002
 20
546.521793
 30
0.0
 11
271.93154099999998
 21
552.43064100000004
 31
0.0
  0
LINE
  5
5DB
  8
0
 62
     7
 10
270.88967100000002
 20
546.521793
 30
0.0
 11
269.847801
 21
552.43064100000004
 31
0.0
  0
LINE
  5
5DC
  8
0
 62
     7
 10
270.88973199999992
 20
651.521793
 30
0.0
 11
269.847801
 21
645.61294900000007
 31
0.0
  0
LINE
  5
5DD
  8
0
 62
     7
 10
270.88973199999992
 20
651.521793
 30
0.0
 11
271.93160199999988
 21
645.61294900000007
 31
0.0
  0
LINE
  5
5DE
  8
0
 62
     7
 10
270.88967100000002
 20
546.521793
 30
0.0
 11
270.88973199999992
 21
651.521793
 31
0.0
  0
LINE
  5
5DF
  8
0
 62
     7
 10
274.88967100000002
 20
546.521793
 30
0.0
 11
224.4150009999999
 21
546.52180499999986
 31
0.0
  0
LINE
  5
5E0
  8
0
 62
     7
 10
274.88973199999992
 20
651.521793
 30
0.0
 11
224.41506200000001
 21
651.52180899999985
 31
0.0
  0
LINE
  5
5E1
  8
0
 62
     7
 10
45.613425999999997
 20
529.77178600000002
 30
0.0
 11
46.655296
 21
535.68062999999995
 31
0.0
  0
LINE
  5
5E2
  8
0
 62
     7
 10
45.613425999999997
 20
529.77178600000002
 30
0.0
 11
44.571556000000001
 21
535.68062999999995
 31
0.0
  0
LINE
  5
5E3
  8
0
 62
     7
 10
45.613486999999992
 20
672.77178600000002
 30
0.0
 11
44.571556000000001
 21
666.86294199999998
 31
0.0
  0
LINE
  5
5E4
  8
0
 62
     7
 10
45.613486999999992
 20
672.77178600000002
 30
0.0
 11
46.655357000000002
 21
666.86294199999998
 31
0.0
  0
LINE
  5
5E5
  8
0
 62
     7
 10
45.613425999999997
 20
529.77178600000002
 30
0.0
 11
45.613486999999992
 21
672.77178600000002
 31
0.0
  0
LINE
  5
5E6
  8
0
 62
     7
 10
41.613425999999997
 20
529.77178600000002
 30
0.0
 11
132.086815
 21
529.77176299999996
 31
0.0
  0
LINE
  5
5E7
  8
0
 62
     7
 10
41.613486999999999
 20
672.77178600000002
 30
0.0
 11
132.0868759999999
 21
672.77176299999985
 31
0.0
  0
LINE
  5
5E8
  8
0
 62
     7
 10
117.41384099999991
 20
429.79142399999989
 30
0.0
 11
123.3227159999999
 21
428.74953799999997
 31
0.0
  0
LINE
  5
5E9
  8
0
 62
     7
 10
117.41384099999991
 20
429.79142399999989
 30
0.0
 11
123.3227159999999
 21
430.83330899999987
 31
0.0
  0
LINE
  5
5EA
  8
0
 62
     7
 10
224.4150009999999
 20
429.79142399999989
 30
0.0
 11
218.50618700000001
 21
430.83330899999987
 31
0.0
  0
LINE
  5
5EB
  8
0
 62
     7
 10
224.4150009999999
 20
429.79142399999989
 30
0.0
 11
218.50618700000001
 21
428.74953799999997
 31
0.0
  0
LINE
  5
5EC
  8
0
 62
     7
 10
226.4150009999999
 20
429.79142399999989
 30
0.0
 11
232.3238749999999
 21
428.74953799999997
 31
0.0
  0
LINE
  5
5ED
  8
0
 62
     7
 10
226.4150009999999
 20
429.79142399999989
 30
0.0
 11
232.3238749999999
 21
430.83330899999987
 31
0.0
  0
LINE
  5
5EE
  8
0
 62
     7
 10
117.41384099999991
 20
429.79142399999989
 30
0.0
 11
237.91500099999999
 21
429.79142399999989
 31
0.0
  0
LINE
  5
5EF
  8
0
 62
     7
 10
117.41384099999991
 20
425.79142399999989
 30
0.0
 11
117.41384099999991
 21
505.44233300000002
 31
0.0
  0
LINE
  5
5F0
  8
0
 62
     7
 10
224.4150009999999
 20
425.79142399999989
 30
0.0
 11
224.4150009999999
 21
471.10966100000002
 31
0.0
  0
LINE
  5
5F1
  8
0
 62
     7
 10
226.4150009999999
 20
425.79142399999989
 30
0.0
 11
226.4150009999999
 21
472.54891600000002
 31
0.0
  0
LINE
  5
5F2
  8
0
 62
     5
 10
62.313194000000003
 20
599.02178600000002
 30
0.0
 11
63.355063999999992
 21
604.93063399999994
 31
0.0
  0
LINE
  5
5F3
  8
0
 62
     5
 10
62.313194000000003
 20
599.02178600000002
 30
0.0
 11
61.271324
 21
604.93063399999994
 31
0.0
  0
LINE
  5
5F4
  8
0
 62
     5
 10
62.313194000000003
 20
672.77178600000002
 30
0.0
 11
61.271324
 21
666.86294199999998
 31
0.0
  0
LINE
  5
5F5
  8
0
 62
     5
 10
62.313194000000003
 20
672.77178600000002
 30
0.0
 11
63.355063999999992
 21
666.86294199999998
 31
0.0
  0
LINE
  5
5F6
  8
0
 62
     5
 10
62.313194000000003
 20
599.02178600000002
 30
0.0
 11
62.313194000000003
 21
672.77178600000002
 31
0.0
  0
LINE
  5
5F7
  8
0
 62
     5
 10
58.313193999999989
 20
599.02178600000002
 30
0.0
 11
96.735129999999984
 21
599.02179000000001
 31
0.0
  0
LINE
  5
5F8
  8
0
 62
     5
 10
58.313193999999989
 20
672.77178600000002
 30
0.0
 11
132.086815
 21
672.77179299999989
 31
0.0
  0
LINE
  5
5F9
  8
0
 62
     7
 10
117.41384099999991
 20
489.72328599999997
 30
0.0
 11
123.3227159999999
 21
488.6814
 31
0.0
  0
LINE
  5
5FA
  8
0
 62
     7
 10
117.41384099999991
 20
489.72328599999997
 30
0.0
 11
123.3227159999999
 21
490.76517899999999
 31
0.0
  0
LINE
  5
5FB
  8
0
 62
     7
 10
137.41384099999999
 20
489.72328599999997
 30
0.0
 11
131.50496699999999
 21
490.76517100000001
 31
0.0
  0
LINE
  5
5FC
  8
0
 62
     7
 10
137.41384099999999
 20
489.72328599999997
 30
0.0
 11
131.50496699999999
 21
488.6813929999999
 31
0.0
  0
LINE
  5
5FD
  8
0
 62
     7
 10
100.41384100000001
 20
489.72328599999997
 30
0.0
 11
137.41384099999999
 21
489.72328599999997
 31
0.0
  0
LINE
  5
5FE
  8
0
 62
     7
 10
117.41384099999991
 20
485.72328599999997
 30
0.0
 11
117.41384099999991
 21
505.44233300000002
 31
0.0
  0
LINE
  5
5FF
  8
0
 62
     7
 10
137.41384099999999
 20
485.72328599999997
 30
0.0
 11
137.41384099999999
 21
520.77180099999987
 31
0.0
  0
LINE
  5
600
  8
0
 62
     7
 10
137.41384099999999
 20
477.66545499999989
 30
0.0
 11
131.50496699999999
 21
478.70733999999999
 31
0.0
  0
LINE
  5
601
  8
0
 62
     7
 10
137.41384099999999
 20
477.66545499999989
 30
0.0
 11
131.50496699999999
 21
476.62356199999988
 31
0.0
  0
POLYLINE
  5
602
  8
0
 62
     7
 66
     1
 10
0.0
 20
0.0
 30
0.0
 70
     1
  0
VERTEX
  5
AF0
  8
0
 62
     7
 10
143.41384099999991
 20
477.66545499999989
 30
0.0
  0
VERTEX
  5
AF1
  8
0
 62
     7
 10
143.12093400000001
 20
478.37256200000002
 30
0.0
  0
VERTEX
  5
AF2
  8
0
 62
     7
 10
142.41384099999991
 20
478.66545500000001
 30
0.0
  0
VERTEX
  5
AF3
  8
0
 62
     7
 10
141.70674899999989
 20
478.37256200000002
 30
0.0
  0
VERTEX
  5
AF4
  8
0
 62
     7
 10
141.41384099999991
 20
477.66545499999989
 30
0.0
  0
VERTEX
  5
AF5
  8
0
 62
     7
 10
141.70674899999989
 20
476.95834699999989
 30
0.0
  0
VERTEX
  5
AF6
  8
0
 62
     7
 10
142.41384099999991
 20
476.66545500000001
 30
0.0
  0
VERTEX
  5
AF7
  8
0
 62
     7
 10
143.12093400000001
 20
476.95834699999989
 30
0.0
  0
SEQEND
  5
AF8
  8
0
 62
     7
  0
LINE
  5
60C
  8
0
 62
     7
 10
147.41384099999991
 20
477.66545499999989
 30
0.0
 11
153.3227159999999
 21
476.62356899999997
 31
0.0
  0
LINE
  5
60D
  8
0
 62
     7
 10
147.41384099999991
 20
477.66545499999989
 30
0.0
 11
153.3227159999999
 21
478.70734800000002
 31
0.0
  0
LINE
  5
60E
  8
0
 62
     7
 10
125.91384100000001
 20
477.66545499999989
 30
0.0
 11
183.72451000000001
 21
477.66545499999989
 31
0.0
  0
LINE
  5
60F
  8
0
 62
     7
 10
137.41384099999999
 20
473.66545499999989
 30
0.0
 11
137.41384099999999
 21
520.77180099999987
 31
0.0
  0
LINE
  5
610
  8
0
 62
     7
 10
142.41384099999991
 20
473.66545499999989
 30
0.0
 11
142.41384099999991
 21
520.77180099999987
 31
0.0
  0
LINE
  5
611
  8
0
 62
     7
 10
147.41384099999991
 20
473.66545499999989
 30
0.0
 11
147.41384099999991
 21
520.77180099999987
 31
0.0
  0
LINE
  5
612
  8
0
 62
     7
 10
61.972678999999999
 20
672.77178600000002
 30
0.0
 11
63.01460999999999
 21
678.68062999999995
 31
0.0
  0
LINE
  5
613
  8
0
 62
     7
 10
61.972678999999999
 20
672.77178600000002
 30
0.0
 11
60.930809000000004
 21
678.68062999999995
 31
0.0
  0
LINE
  5
614
  8
0
 62
     7
 10
61.972678999999999
 20
706.27178600000002
 30
0.0
 11
60.930809000000004
 21
700.36294199999998
 31
0.0
  0
LINE
  5
615
  8
0
 62
     7
 10
61.972678999999999
 20
706.27178600000002
 30
0.0
 11
63.01460999999999
 21
700.36294199999998
 31
0.0
  0
LINE
  5
616
  8
0
 62
     7
 10
61.972678999999999
 20
718.77178600000002
 30
0.0
 11
63.01460999999999
 21
724.68062999999995
 31
0.0
  0
LINE
  5
617
  8
0
 62
     7
 10
61.972678999999999
 20
718.77178600000002
 30
0.0
 11
60.930809000000004
 21
724.68062999999995
 31
0.0
  0
LINE
  5
618
  8
0
 62
     7
 10
61.972678999999999
 20
672.77178600000002
 30
0.0
 11
61.972678999999999
 21
746.77178600000002
 31
0.0
  0
LINE
  5
619
  8
0
 62
     7
 10
57.972679000000007
 20
672.77178600000002
 30
0.0
 11
132.086815
 21
672.77179299999989
 31
0.0
  0
LINE
  5
61A
  8
0
 62
     7
 10
57.972679000000007
 20
706.27178600000002
 30
0.0
 11
132.086815
 21
706.27178600000002
 31
0.0
  0
LINE
  5
61B
  8
0
 62
     7
 10
57.972679000000007
 20
718.77178600000002
 30
0.0
 11
142.41384099999991
 21
718.77178600000002
 31
0.0
  0
LINE
  5
61C
  8
0
 62
     7
 10
117.41384099999991
 20
740.07046100000002
 30
0.0
 11
123.3227159999999
 21
739.02857599999993
 31
0.0
  0
LINE
  5
61D
  8
0
 62
     7
 10
117.41384099999991
 20
740.07046100000002
 30
0.0
 11
123.3227159999999
 21
741.11234699999989
 31
0.0
  0
LINE
  5
61E
  8
0
 62
     7
 10
142.41384099999991
 20
740.07046100000002
 30
0.0
 11
136.50496699999991
 21
741.11234699999989
 31
0.0
  0
LINE
  5
61F
  8
0
 62
     7
 10
142.41384099999991
 20
740.07046100000002
 30
0.0
 11
136.50496699999991
 21
739.02857599999993
 31
0.0
  0
LINE
  5
620
  8
0
 62
     7
 10
148.41384099999991
 20
740.07046100000002
 30
0.0
 11
154.3227159999999
 21
739.02857599999993
 31
0.0
  0
LINE
  5
621
  8
0
 62
     7
 10
148.41384099999991
 20
740.07046100000002
 30
0.0
 11
154.3227159999999
 21
741.11234699999989
 31
0.0
  0
LINE
  5
622
  8
0
 62
     7
 10
117.41384099999991
 20
740.07046100000002
 30
0.0
 11
159.91384099999991
 21
740.07046100000002
 31
0.0
  0
LINE
  5
623
  8
0
 62
     7
 10
117.41384099999991
 20
744.07046100000002
 30
0.0
 11
117.41384099999991
 21
696.30009099999995
 31
0.0
  0
LINE
  5
624
  8
0
 62
     7
 10
142.41384099999991
 20
744.07046100000002
 30
0.0
 11
142.41384099999991
 21
718.77178600000002
 31
0.0
  0
LINE
  5
625
  8
0
 62
     7
 10
148.41384099999991
 20
744.07046100000002
 30
0.0
 11
148.41384099999991
 21
718.77178600000002
 31
0.0
  0
LINE
  5
626
  8
0
 62
     2
 10
90.688377000000017
 20
525.77178600000002
 30
0.0
 11
89.646506999999986
 21
519.86294199999986
 31
0.0
  0
LINE
  5
627
  8
0
 62
     2
 10
90.688377000000017
 20
525.77178600000002
 30
0.0
 11
91.730308999999977
 21
519.86294199999986
 31
0.0
  0
LINE
  5
628
  8
0
 62
     2
 10
90.688377000000017
 20
533.77178600000002
 30
0.0
 11
91.730308999999977
 21
539.68062999999995
 31
0.0
  0
LINE
  5
629
  8
0
 62
     2
 10
90.688377000000017
 20
533.77178600000002
 30
0.0
 11
89.646506999999986
 21
539.68062999999995
 31
0.0
  0
LINE
  5
62A
  8
0
 62
     2
 10
90.688377000000017
 20
508.77178600000002
 30
0.0
 11
90.688377000000017
 21
533.77178600000002
 31
0.0
  0
LINE
  5
62B
  8
0
 62
     2
 10
86.688377000000003
 20
525.77178600000002
 30
0.0
 11
137.41384099999999
 21
525.77179000000001
 31
0.0
  0
LINE
  5
62C
  8
0
 62
     2
 10
86.688377000000003
 20
533.77178600000002
 30
0.0
 11
137.41384099999999
 21
533.77179000000001
 31
0.0
  0
INSERT
  5
849
  8
0
  2
BLOCK0
 10
-18.378723000000001
 20
295.99453
 30
0.0
 50
180.0
  0
INSERT
  5
84A
  8
0
  2
BLOCK1
 10
-18.378723000000001
 20
295.99453
 30
0.0
 50
180.0
  0
INSERT
  5
84B
  8
0
  2
BLOCK2
 10
-18.378723000000001
 20
295.99453
 30
0.0
 50
180.0
  0
INSERT
  5
84C
  8
0
  2
BLOCK3
 10
-18.378723000000001
 20
295.99453
 30
0.0
 50
180.0
  0
INSERT
  5
84D
  8
0
  2
BLOCK4
 10
-18.378723000000001
 20
295.99453
 30
0.0
 50
180.0
  0
INSERT
  5
84E
  8
0
  2
BLOCK5
 10
-18.378723000000001
 20
295.99453
 30
0.0
 50
180.0
  0
INSERT
  5
84F
  8
0
  2
BLOCK6
 10
-18.378723000000001
 20
295.99453
 30
0.0
 50
180.0
  0
INSERT
  5
850
  8
0
  2
BLOCK7
 10
528.62054399999988
 20
599.02178600000002
 30
0.0
 50
180.0
  0
INSERT
  5
851
  8
0
  2
BLOCK8
 10
528.62054399999988
 20
599.02178600000002
 30
0.0
 50
180.0
  0
INSERT
  5
852
  8
0
  2
BLOCK9
 10
528.62054399999988
 20
599.02178600000002
 30
0.0
 50
180.0
  0
INSERT
  5
853
  8
0
  2
BLOCK10
 10
528.62054399999988
 20
599.02178600000002
 30
0.0
 50
180.0
  0
INSERT
  5
854
  8
0
  2
BLOCK11
 10
528.62054399999988
 20
599.02178600000002
 30
0.0
 50
180.0
  0
INSERT
  5
855
  8
0
  2
BLOCK12
 10
528.62054399999988
 20
599.02178600000002
 30
0.0
 50
180.0
  0
INSERT
  5
856
  8
0
  2
BLOCK13
 10
528.62054399999988
 20
599.02178600000002
 30
0.0
 50
180.0
  0
INSERT
  5
857
  8
0
  2
BLOCK14
 10
528.62054399999988
 20
599.02178600000002
 30
0.0
 50
180.0
  0
INSERT
  5
858
  8
0
  2
BLOCK15
 10
528.62054399999988
 20
599.02178600000002
 30
0.0
 50
180.0
  0
INSERT
  5
859
  8
0
  2
BLOCK16
 10
528.62054399999988
 20
599.02178600000002
 30
0.0
 50
180.0
  0
INSERT
  5
85A
  8
0
  2
BLOCK17
 10
528.62054399999988
 20
599.02178600000002
 30
0.0
 50
180.0
  0
INSERT
  5
85B
  8
0
  2
BLOCK18
 10
-253.922268
 20
489.0347329999999
 30
0.0
 50
90.0
  0
INSERT
  5
85C
  8
0
  2
BLOCK19
 10
-253.922268
 20
489.0347329999999
 30
0.0
 50
90.0
  0
INSERT
  5
85D
  8
0
  2
BLOCK20
 10
-253.922268
 20
489.0347329999999
 30
0.0
 50
90.0
  0
INSERT
  5
85E
  8
0
  2
BLOCK21
 10
-253.922268
 20
489.0347329999999
 30
0.0
 50
90.0
  0
INSERT
  5
85F
  8
0
  2
BLOCK22
 10
-253.922268
 20
489.0347329999999
 30
0.0
 50
90.0
  0
INSERT
  5
860
  8
0
  2
BLOCK23
 10
-253.922268
 20
489.0347329999999
 30
0.0
 50
90.0
  0
INSERT
  5
861
  8
0
  2
BLOCK24
 10
-253.922268
 20
489.0347329999999
 30
0.0
 50
90.0
  0
INSERT
  5
862
  8
0
  2
BLOCK25
 10
-253.922268
 20
489.0347329999999
 30
0.0
 50
90.0
  0
INSERT
  5
863
  8
0
  2
BLOCK26
 10
-253.922268
 20
489.0347329999999
 30
0.0
 50
90.0
  0
INSERT
  5
864
  8
0
  2
BLOCK27
 10
-253.922268
 20
489.0347329999999
 30
0.0
 50
90.0
  0
INSERT
  5
865
  8
0
  2
BLOCK28
 10
-253.922268
 20
489.0347329999999
 30
0.0
 50
90.0
  0
INSERT
  5
866
  8
0
  2
BLOCK29
 10
-253.922268
 20
489.0347329999999
 30
0.0
 50
90.0
  0
INSERT
  5
867
  8
0
  2
BLOCK30
 10
-253.922268
 20
489.0347329999999
 30
0.0
 50
90.0
  0
INSERT
  5
868
  8
0
  2
BLOCK31
 10
-253.922268
 20
489.0347329999999
 30
0.0
 50
90.0
  0
INSERT
  5
869
  8
0
  2
BLOCK32
 10
-253.922268
 20
489.0347329999999
 30
0.0
 50
90.0
  0
INSERT
  5
86A
  8
0
  2
BLOCK33
 10
-253.922268
 20
489.0347329999999
 30
0.0
 50
90.0
  0
INSERT
  5
86B
  8
0
  2
BLOCK34
 10
-253.922268
 20
489.0347329999999
 30
0.0
 50
90.0
  0
INSERT
  5
86C
  8
0
  2
BLOCK35
 10
-253.922268
 20
489.0347329999999
 30
0.0
 50
90.0
  0
INSERT
  5
86D
  8
0
  2
BLOCK36
 10
-253.922268
 20
489.0347329999999
 30
0.0
 50
90.0
  0
INSERT
  5
86E
  8
0
  2
BLOCK37
 10
-253.922268
 20
489.0347329999999
 30
0.0
 50
90.0
  0
INSERT
  5
86F
  8
0
  2
BLOCK38
 10
865.36444100000006
 20
599.02178600000002
 30
0.0
 50
270.0
  0
INSERT
  5
870
  8
0
  2
BLOCK39
 10
865.36444100000006
 20
599.02178600000002
 30
0.0
 50
270.0
  0
INSERT
  5
871
  8
0
  2
BLOCK40
 10
865.36444100000006
 20
599.02178600000002
 30
0.0
 50
270.0
  0
INSERT
  5
872
  8
0
  2
BLOCK41
 10
865.36444100000006
 20
599.02178600000002
 30
0.0
 50
270.0
  0
INSERT
  5
873
  8
0
  2
BLOCK42
 10
865.36444100000006
 20
599.02178600000002
 30
0.0
 50
270.0
  0
INSERT
  5
874
  8
0
  2
BLOCK43
 10
865.36444100000006
 20
599.02178600000002
 30
0.0
 50
270.0
  0
INSERT
  5
875
  8
0
  2
BLOCK44
 10
865.36444100000006
 20
599.02178600000002
 30
0.0
 50
270.0
  0
INSERT
  5
876
  8
0
  2
BLOCK45
 10
865.36444100000006
 20
599.02178600000002
 30
0.0
 50
270.0
  0
INSERT
  5
877
  8
0
  2
BLOCK46
 10
865.36444100000006
 20
599.02178600000002
 30
0.0
 50
270.0
  0
INSERT
  5
878
  8
0
  2
BLOCK47
 10
865.36444100000006
 20
599.02178600000002
 30
0.0
 50
270.0
  0
INSERT
  5
879
  8
0
  2
BLOCK48
 10
119.41384099999991
 20
588.77178600000002
 30
0.0
  0
INSERT
  5
87A
  8
0
  2
BLOCK49
 10
119.41384099999991
 20
588.77178600000002
 30
0.0
  0
INSERT
  5
87B
  8
0
  2
BLOCK50
 10
119.41384099999991
 20
588.77178600000002
 30
0.0
  0
INSERT
  5
87C
  8
0
  2
BLOCK51
 10
119.41384099999991
 20
588.77178600000002
 30
0.0
  0
INSERT
  5
87D
  8
0
  2
BLOCK52
 10
119.41384099999991
 20
588.77178600000002
 30
0.0
  0
INSERT
  5
87E
  8
0
  2
BLOCK53
 10
119.41384099999991
 20
588.77178600000002
 30
0.0
  0
INSERT
  5
87F
  8
0
  2
BLOCK54
 10
119.41384099999991
 20
588.77178600000002
 30
0.0
  0
INSERT
  5
880
  8
0
  2
BLOCK55
 10
119.41384099999991
 20
588.77178600000002
 30
0.0
  0
INSERT
  5
881
  8
0
  2
BLOCK56
 10
119.41384099999991
 20
588.77178600000002
 30
0.0
  0
INSERT
  5
882
  8
0
  2
BLOCK57
 10
119.41384099999991
 20
588.77178600000002
 30
0.0
  0
INSERT
  5
883
  8
0
  2
BLOCK58
 10
119.41384099999991
 20
588.77178600000002
 30
0.0
  0
INSERT
  5
884
  8
0
  2
BLOCK59
 10
119.41384099999991
 20
588.77178600000002
 30
0.0
  0
INSERT
  5
885
  8
0
  2
BLOCK60
 10
119.41384099999991
 20
588.77178600000002
 30
0.0
  0
INSERT
  5
886
  8
0
  2
BLOCK61
 10
119.41384099999991
 20
588.77178600000002
 30
0.0
  0
INSERT
  5
887
  8
0
  2
BLOCK62
 10
119.41384099999991
 20
588.77178600000002
 30
0.0
  0
INSERT
  5
888
  8
0
  2
BLOCK63
 10
119.41384099999991
 20
588.77178600000002
 30
0.0
  0
INSERT
  5
889
  8
0
  2
BLOCK64
 10
119.41384099999991
 20
588.77178600000002
 30
0.0
  0
INSERT
  5
88A
  8
0
  2
BLOCK65
 10
119.41384099999991
 20
588.77178600000002
 30
0.0
  0
INSERT
  5
88B
  8
0
  2
BLOCK66
 10
119.41384099999991
 20
588.77178600000002
 30
0.0
  0
INSERT
  5
88C
  8
0
  2
BLOCK67
 10
119.41384099999991
 20
588.77178600000002
 30
0.0
  0
INSERT
  5
88D
  8
0
  2
BLOCK68
 10
119.41384099999991
 20
588.77178600000002
 30
0.0
  0
INSERT
  5
88E
  8
0
  2
BLOCK69
 10
119.41384099999991
 20
588.77178600000002
 30
0.0
  0
INSERT
  5
88F
  8
0
  2
BLOCK70
 10
119.41384099999991
 20
588.77178600000002
 30
0.0
  0
INSERT
  5
890
  8
0
  2
BLOCK71
 10
119.41384099999991
 20
588.77178600000002
 30
0.0
  0
INSERT
  5
891
  8
0
  2
BLOCK72
 10
119.41384099999991
 20
588.77178600000002
 30
0.0
  0
INSERT
  5
892
  8
0
  2
BLOCK73
 10
119.41384099999991
 20
588.77178600000002
 30
0.0
  0
INSERT
  5
893
  8
0
  2
BLOCK74
 10
119.41384099999991
 20
588.77178600000002
 30
0.0
  0
INSERT
  5
894
  8
0
  2
BLOCK75
 10
119.41384099999991
 20
588.77178600000002
 30
0.0
  0
INSERT
  5
895
  8
0
  2
BLOCK76
 10
119.41384099999991
 20
588.77178600000002
 30
0.0
  0
INSERT
  5
896
  8
0
  2
BLOCK77
 10
119.41384099999991
 20
588.77178600000002
 30
0.0
  0
INSERT
  5
897
  8
0
  2
BLOCK78
 10
119.41384099999991
 20
588.77178600000002
 30
0.0
  0
INSERT
  5
898
  8
0
  2
BLOCK79
 10
119.41384099999991
 20
588.77178600000002
 30
0.0
  0
INSERT
  5
899
  8
0
  2
BLOCK80
 10
119.41384099999991
 20
588.77178600000002
 30
0.0
  0
INSERT
  5
89A
  8
0
  2
BLOCK81
 10
119.41384099999991
 20
588.77178600000002
 30
0.0
  0
INSERT
  5
89B
  8
0
  2
BLOCK82
 10
119.41384099999991
 20
588.77178600000002
 30
0.0
  0
INSERT
  5
89C
  8
0
  2
BLOCK83
 10
119.41384099999991
 20
588.77178600000002
 30
0.0
  0
INSERT
  5
89D
  8
0
  2
BLOCK84
 10
119.41384099999991
 20
588.77178600000002
 30
0.0
  0
INSERT
  5
89E
  8
0
  2
BLOCK85
 10
119.41384099999991
 20
588.77178600000002
 30
0.0
  0
INSERT
  5
89F
  8
0
  2
BLOCK86
 10
119.41384099999991
 20
588.77178600000002
 30
0.0
  0
VIEWPORT
  5
62D
 67
     1
  8
0
 62
     0
 10
0.0
 20
0.0
 30
0.0
 40
1000.0
 41
1000.0
 68
     1
 69
     1
1001
ACAD
1000
MVIEW
1002
{
1070
    16
1010
0.0
1020
0.0
1030
0.0
1010
0.0
1020
0.0
1030
1.0
1040
0.0
1040
1000.0
1040
0.0
1040
0.0
1040
50.0
1040
0.0
1040
0.0
1070
     0
1070
   100
1070
     1
1070
     1
1070
     0
1070
     0
1070
     0
1070
     0
1040
0.0
1040
0.0
1040
0.0
1040
1.0
1040
1.0
1040
1.0
1040
1.0
1070
     0
1002
{
1002
}
1002
}
  0
ENDSEC
  0
EOF
