  0
SECTION
  2
HEADER
  9
$ACADVER
  1
AC1009
  9
$INSBASE
 10
0.0
 20
0.0
 30
0.0
  9
$EXTMIN
 10
0.237099
 20
0.237999
 30
0.0
  9
$EXTMAX
 10
392.237099
 20
262.737999
 30
0.0
  9
$LIMMIN
 10
0.0
 20
0.0
  9
$LIMMAX
 10
12.0
 20
9.0
  9
$ORTHOMODE
 70
     1
  9
$REGENMODE
 70
     1
  9
$FILLMODE
 70
     1
  9
$QTEXTMODE
 70
     0
  9
$MIRRTEXT
 70
     1
  9
$DRAGMODE
 70
     2
  9
$LTSCALE
 40
5.0
  9
$OSMODE
 70
     0
  9
$ATTMODE
 70
     1
  9
$TEXTSIZE
 40
2.0
  9
$TRACEWID
 40
0.05
  9
$TEXTSTYLE
  7
ROMANS
  9
$CLAYER
  8
0
  9
$CELTYPE
  6
CONTINUOUS
  9
$CECOLOR
 62
   256
  9
$DIMSCALE
 40
1.0
  9
$DIMASZ
 40
0.18
  9
$DIMEXO
 40
0.0625
  9
$DIMDLI
 40
0.38
  9
$DIMRND
 40
0.0
  9
$DIMDLE
 40
0.0
  9
$DIMEXE
 40
0.18
  9
$DIMTP
 40
0.0
  9
$DIMTM
 40
0.0
  9
$DIMTXT
 40
0.18
  9
$DIMCEN
 40
0.09
  9
$DIMTSZ
 40
0.0
  9
$DIMTOL
 70
     0
  9
$DIMLIM
 70
     0
  9
$DIMTIH
 70
     1
  9
$DIMTOH
 70
     1
  9
$DIMSE1
 70
     0
  9
$DIMSE2
 70
     0
  9
$DIMTAD
 70
     0
  9
$DIMZIN
 70
     0
  9
$DIMBLK
  1

  9
$DIMASO
 70
     1
  9
$DIMSHO
 70
     1
  9
$DIMPOST
  1

  9
$DIMAPOST
  1

  9
$DIMALT
 70
     0
  9
$DIMALTD
 70
     2
  9
$DIMALTF
 40
25.4
  9
$DIMLFAC
 40
1.0
  9
$DIMTOFL
 70
     0
  9
$DIMTVP
 40
0.0
  9
$DIMTIX
 70
     0
  9
$DIMSOXD
 70
     0
  9
$DIMSAH
 70
     0
  9
$DIMBLK1
  1

  9
$DIMBLK2
  1

  9
$DIMSTYLE
  2
*UNNAMED
  9
$DIMCLRD
 70
     0
  9
$DIMCLRE
 70
     0
  9
$DIMCLRT
 70
     0
  9
$DIMTFAC
 40
1.0
  9
$DIMGAP
 40
0.09
  9
$LUNITS
 70
     2
  9
$LUPREC
 70
     4
  9
$SKETCHINC
 40
0.1
  9
$FILLETRAD
 40
2.0
  9
$AUNITS
 70
     0
  9
$AUPREC
 70
     0
  9
$MENU
  1
acad
  9
$ELEVATION
 40
0.0
  9
$PELEVATION
 40
0.0
  9
$THICKNESS
 40
0.0
  9
$LIMCHECK
 70
     0
  9
$BLIPMODE
 70
     1
  9
$CHAMFERA
 40
0.0
  9
$CHAMFERB
 40
0.0
  9
$SKPOLY
 70
     0
  9
$TDCREATE
 40
2449525.364475694
  9
$TDUPDATE
 40
2449660.440693055
  9
$TDINDWG
 40
0.0342075231
  9
$TDUSRTIMER
 40
0.0342075231
  9
$USRTIMER
 70
     1
  9
$ANGBASE
 50
0.0
  9
$ANGDIR
 70
     0
  9
$PDMODE
 70
     0
  9
$PDSIZE
 40
0.0
  9
$PLINEWID
 40
0.0
  9
$COORDS
 70
     2
  9
$SPLFRAME
 70
     0
  9
$SPLINETYPE
 70
     6
  9
$SPLINESEGS
 70
     8
  9
$ATTDIA
 70
     0
  9
$ATTREQ
 70
     1
  9
$HANDLING
 70
     0
  9
$HANDSEED
  5
0
  9
$SURFTAB1
 70
   250
  9
$SURFTAB2
 70
   250
  9
$SURFTYPE
 70
     6
  9
$SURFU
 70
     6
  9
$SURFV
 70
     6
  9
$UCSNAME
  2

  9
$UCSORG
 10
0.0
 20
0.0
 30
0.0
  9
$UCSXDIR
 10
1.0
 20
0.0
 30
0.0
  9
$UCSYDIR
 10
0.0
 20
1.0
 30
0.0
  9
$PUCSNAME
  2

  9
$PUCSORG
 10
0.0
 20
0.0
 30
0.0
  9
$PUCSXDIR
 10
1.0
 20
0.0
 30
0.0
  9
$PUCSYDIR
 10
0.0
 20
1.0
 30
0.0
  9
$USERI1
 70
     0
  9
$USERI2
 70
     0
  9
$USERI3
 70
     0
  9
$USERI4
 70
     0
  9
$USERI5
 70
     0
  9
$USERR1
 40
0.0
  9
$USERR2
 40
0.0
  9
$USERR3
 40
0.0
  9
$USERR4
 40
0.0
  9
$USERR5
 40
0.0
  9
$WORLDVIEW
 70
     1
  9
$SHADEDGE
 70
     3
  9
$SHADEDIF
 70
    70
  9
$TILEMODE
 70
     1
  9
$MAXACTVP
 70
    16
  9
$PINSBASE
 10
0.0
 20
0.0
 30
0.0
  9
$PLIMCHECK
 70
     0
  9
$PEXTMIN
 10
1.000000E+20
 20
1.000000E+20
 30
1.000000E+20
  9
$PEXTMAX
 10
-1.000000E+20
 20
-1.000000E+20
 30
-1.000000E+20
  9
$PLIMMIN
 10
0.0
 20
0.0
  9
$PLIMMAX
 10
12.0
 20
9.0
  9
$UNITMODE
 70
     0
  9
$VISRETAIN
 70
     0
  9
$PLINEGEN
 70
     0
  9
$PSLTSCALE
 70
     0
  9
$TREEDEPTH
 70
  3020
  9
$DWGCODEPAGE
  3
undefined
  0
ENDSEC
  0
SECTION
  2
TABLES
  0
TABLE
  2
VPORT
 70
     2
  0
VPORT
  2
*ACTIVE
 70
     0
 10
0.0
 20
0.0
 11
1.0
 21
1.0
 12
222.522843
 22
142.040485
 13
0.0
 23
0.0
 14
2.5
 24
2.5
 15
0.0
 25
0.0
 16
0.0
 26
0.0
 36
1.0
 17
0.0
 27
0.0
 37
0.0
 40
284.080971
 41
1.566616
 42
50.0
 43
0.0
 44
0.0
 50
0.0
 51
0.0
 71
     0
 72
   100
 73
     1
 74
     1
 75
     1
 76
     0
 77
     0
 78
     0
  0
ENDTAB
  0
TABLE
  2
LTYPE
 70
     7
  0
LTYPE
  2
CONTINUOUS
 70
    64
  3
Solid line
 72
    65
 73
     0
 40
0.0
  0
LTYPE
  2
DASHED
 70
    64
  3
__ __ __ __ __ __ __ __ __ __ __ __ __ __ __ __
 72
    65
 73
     2
 40
0.75
 49
0.5
 49
-0.25
  0
LTYPE
  2
CENTER
 70
    64
  3
____ _ ____ _ ____ _ ____ _ ____ _ ____ _ ____ 
 72
    65
 73
     4
 40
2.0
 49
1.25
 49
-0.25
 49
0.25
 49
-0.25
  0
LTYPE
  2
HIDDEN
 70
    64
  3
__ __ __ __ __ __ __ __ __ __ __ __ __ __ __ __
 72
    65
 73
     2
 40
0.375
 49
0.25
 49
-0.125
  0
LTYPE
  2
DOT
 70
     0
  3
. . . . . . . . . . . . . . . . . . . . . . . .
 72
    65
 73
     2
 40
0.25
 49
0.0
 49
-0.25
  0
LTYPE
  2
DASHDOT
 70
     0
  3
__ . __ . __ . __ . __ . __ . __ . __ . __ . __
 72
    65
 73
     4
 40
1.0
 49
0.5
 49
-0.25
 49
0.0
 49
-0.25
  0
LTYPE
  2
PHANTOM
 70
     0
  3
______  __  __  ______  __  __  ______  __  __ 
 72
    65
 73
     6
 40
2.5
 49
1.25
 49
-0.25
 49
0.25
 49
-0.25
 49
0.25
 49
-0.25
  0
ENDTAB
  0
TABLE
  2
LAYER
 70
    14
  0
LAYER
  2
0
 70
    64
 62
     7
  6
CONTINUOUS
  0
LAYER
  2
RAAMI
 70
    64
 62
    -4
  6
CONTINUOUS
  0
LAYER
  2
PAKSU
 70
    64
 62
    -3
  6
CONTINUOUS
  0
LAYER
  2
OHUT
 70
    64
 62
    -6
  6
CONTINUOUS
  0
LAYER
  2
SWEDEN
 70
    64
 62
    -7
  6
CONTINUOUS
  0
LAYER
  2
SWEDEN2
 70
    64
 62
    -5
  6
CONTINUOUS
  0
LAYER
  2
BASE
 70
    64
 62
    -7
  6
CONTINUOUS
  0
LAYER
  2
21
 70
    64
 62
    -2
  6
CONTINUOUS
  0
LAYER
  2
HEL035
 70
    64
 62
    -7
  6
CONTINUOUS
  0
LAYER
  2
MUO
 70
    64
 62
    -7
  6
CONTINUOUS
  0
LAYER
  2
1
 70
    64
 62
    -2
  6
CONTINUOUS
  0
LAYER
  2
BASE1
 70
    64
 62
    -5
  6
CONTINUOUS
  0
LAYER
  2
TEKS
 70
    64
 62
    -5
  6
CONTINUOUS
  0
LAYER
  2
DEFPOINTS
 70
    64
 62
    -7
  6
CONTINUOUS
  0
ENDTAB
  0
TABLE
  2
STYLE
 70
     4
  0
STYLE
  2
STANDARD
 70
    64
 40
0.0
 41
1.0
 50
0.0
 71
     0
 42
2.5
  3
txt
  4

  0
STYLE
  2
ROMANS
 70
    64
 40
0.0
 41
1.0
 50
0.0
 71
     0
 42
2.0
  3
romans
  4

  0
STYLE
  2
GREEKC
 70
    64
 40
0.0
 41
1.0
 50
0.0
 71
     0
 42
1.5
  3
GREEKC
  4

  0
STYLE
  2
GREEKS
 70
    64
 40
0.0
 41
1.0
 50
0.0
 71
     0
 42
2.0
  3
TXT
  4

  0
ENDTAB
  0
TABLE
  2
VIEW
 70
     0
  0
ENDTAB
  0
TABLE
  2
UCS
 70
     0
  0
ENDTAB
  0
TABLE
  2
APPID
 70
     1
  0
APPID
  2
ACAD
 70
    64
  0
ENDTAB
  0
TABLE
  2
DIMSTYLE
 70
     0
  0
ENDTAB
  0
ENDSEC
  0
SECTION
  2
BLOCKS
  0
BLOCK
  8
0
  2
1
 70
    64
 10
0.0
 20
0.0
 30
0.0
  3
1
  0
ENDBLK
  8
0
  0
BLOCK
  8
0
  2
BLC27
 70
    64
 10
0.0
 20
0.0
 30
0.0
  3
BLC27
  0
INSERT
  8
SWEDEN2
  6
CENTER
  2
BLC26
 10
0.08063
 20
0.037985
 30
0.0
 41
1.006225
 42
1.006225
 43
1.006225
  0
ENDBLK
  8
0
  0
BLOCK
  8
0
  2
BLC26
 70
    64
 10
0.0
 20
0.0
 30
0.0
  3
BLC26
  0
ARC
  8
0
  6
CONTINUOUS
 10
-0.180576
 20
1.17922
 30
0.0
 40
1.196859
 50
90.0
 51
265.706237
  0
LINE
  8
0
  6
CONTINUOUS
 10
-0.186638
 20
-0.01092
 30
0.0
 11
0.458942
 21
-0.01092
 31
0.0
  0
LINE
  8
0
  6
CONTINUOUS
 10
-0.186638
 20
2.375671
 30
0.0
 11
0.45288
 21
2.375671
 31
0.0
  0
LINE
  8
0
  6
CONTINUOUS
 10
-0.185509
 20
-2.404629
 30
0.0
 11
0.460071
 21
-2.404629
 31
0.0
  0
ARC
  8
0
  6
CONTINUOUS
 10
-0.180576
 20
-1.207779
 30
0.0
 40
1.196859
 50
90.0
 51
270.0
  0
LINE
  8
0
  6
CONTINUOUS
 10
0.451525
 20
-2.404586
 30
0.0
 11
1.401805
 21
-2.404586
 31
0.0
  0
LINE
  8
0
  6
CONTINUOUS
 10
0.446785
 20
2.375674
 30
0.0
 11
1.418544
 21
2.375674
 31
0.0
  0
LINE
  8
0
  6
CONTINUOUS
 10
0.456627
 20
-0.010911
 30
0.0
 11
1.422749
 21
-0.010911
 31
0.0
  0
ENDBLK
  8
0
  0
BLOCK
  8
0
  2
BLC29
 70
    64
 10
0.0
 20
0.0
 30
0.0
  3
BLC29
  0
LINE
  8
0
  6
CONTINUOUS
 10
0.004865
 20
1.206889
 30
0.0
 11
2.350631
 21
-0.128465
 31
0.0
  0
LINE
  8
0
  6
CONTINUOUS
 10
2.350631
 20
-0.128465
 30
0.0
 11
0.004865
 21
-1.318384
 31
0.0
  0
ENDBLK
  8
0
  0
BLOCK
  8
0
  2
WKU130
 70
    64
 10
190.0
 20
250.0
 30
0.0
  3
WKU130
  0
ARC
  8
21
 10
191.083333
 20
249.916667
 30
0.0
 40
1.086534
 50
32.471192
 51
175.601295
  0
ARC
  8
21
 10
192.916667
 20
251.083333
 30
0.0
 40
1.086534
 50
212.471192
 51
355.601295
  0
ENDBLK
  8
0
  0
BLOCK
  8
0
  2
*X5
 70
    65
 10
0.0
 20
0.0
 30
0.0
  3
*X
  0
LINE
  8
0
 62
     0
 10
2.284499
 20
6.52714
 30
0.0
 11
4.8
 21
9.042641
 31
0.0
  0
LINE
  8
0
 62
     0
 10
2.379686
 20
6.799104
 30
0.0
 11
4.8
 21
9.219417
 31
0.0
  0
LINE
  8
0
 62
     0
 10
2.474874
 20
7.071068
 30
0.0
 11
4.8
 21
9.396194
 31
0.0
  0
LINE
  8
0
 62
     0
 10
2.570061
 20
7.343032
 30
0.0
 11
4.8
 21
9.572971
 31
0.0
  0
LINE
  8
0
 62
     0
 10
2.665249
 20
7.614996
 30
0.0
 11
4.8
 21
9.749747
 31
0.0
  0
LINE
  8
0
 62
     0
 10
2.760436
 20
7.88696
 30
0.0
 11
4.8
 21
9.926524
 31
0.0
  0
LINE
  8
0
 62
     0
 10
2.855624
 20
8.158924
 30
0.0
 11
4.696699
 21
10.0
 31
0.0
  0
LINE
  8
0
 62
     0
 10
2.950811
 20
8.430889
 30
0.0
 11
4.519922
 21
10.0
 31
0.0
  0
LINE
  8
0
 62
     0
 10
3.045998
 20
8.702853
 30
0.0
 11
4.343146
 21
10.0
 31
0.0
  0
LINE
  8
0
 62
     0
 10
3.141186
 20
8.974817
 30
0.0
 11
4.166369
 21
10.0
 31
0.0
  0
LINE
  8
0
 62
     0
 10
3.236373
 20
9.246781
 30
0.0
 11
3.989592
 21
10.0
 31
0.0
  0
LINE
  8
0
 62
     0
 10
3.331561
 20
9.518745
 30
0.0
 11
3.812816
 21
10.0
 31
0.0
  0
LINE
  8
0
 62
     0
 10
3.426748
 20
9.790709
 30
0.0
 11
3.636039
 21
10.0
 31
0.0
  0
LINE
  8
0
 62
     0
 10
2.189311
 20
6.255175
 30
0.0
 11
4.8
 21
8.865864
 31
0.0
  0
LINE
  8
0
 62
     0
 10
2.094124
 20
5.983211
 30
0.0
 11
4.8
 21
8.689087
 31
0.0
  0
LINE
  8
0
 62
     0
 10
1.998936
 20
5.711247
 30
0.0
 11
4.8
 21
8.512311
 31
0.0
  0
LINE
  8
0
 62
     0
 10
1.903749
 20
5.439283
 30
0.0
 11
4.8
 21
8.335534
 31
0.0
  0
LINE
  8
0
 62
     0
 10
1.841243
 20
5.2
 30
0.0
 11
4.8
 21
8.158757
 31
0.0
  0
LINE
  8
0
 62
     0
 10
2.018019
 20
5.2
 30
0.0
 11
4.8
 21
7.981981
 31
0.0
  0
LINE
  8
0
 62
     0
 10
2.194796
 20
5.2
 30
0.0
 11
4.8
 21
7.805204
 31
0.0
  0
LINE
  8
0
 62
     0
 10
2.371573
 20
5.2
 30
0.0
 11
4.8
 21
7.628427
 31
0.0
  0
LINE
  8
0
 62
     0
 10
2.54835
 20
5.2
 30
0.0
 11
4.8
 21
7.45165
 31
0.0
  0
LINE
  8
0
 62
     0
 10
2.725126
 20
5.2
 30
0.0
 11
4.8
 21
7.274874
 31
0.0
  0
LINE
  8
0
 62
     0
 10
2.901903
 20
5.2
 30
0.0
 11
4.8
 21
7.098097
 31
0.0
  0
LINE
  8
0
 62
     0
 10
3.07868
 20
5.2
 30
0.0
 11
4.8
 21
6.92132
 31
0.0
  0
LINE
  8
0
 62
     0
 10
3.255456
 20
5.2
 30
0.0
 11
4.8
 21
6.744544
 31
0.0
  0
LINE
  8
0
 62
     0
 10
3.432233
 20
5.2
 30
0.0
 11
4.8
 21
6.567767
 31
0.0
  0
LINE
  8
0
 62
     0
 10
3.60901
 20
5.2
 30
0.0
 11
4.8
 21
6.39099
 31
0.0
  0
LINE
  8
0
 62
     0
 10
3.785786
 20
5.2
 30
0.0
 11
4.8
 21
6.214214
 31
0.0
  0
LINE
  8
0
 62
     0
 10
3.962563
 20
5.2
 30
0.0
 11
4.8
 21
6.037437
 31
0.0
  0
LINE
  8
0
 62
     0
 10
4.13934
 20
5.2
 30
0.0
 11
4.8
 21
5.86066
 31
0.0
  0
LINE
  8
0
 62
     0
 10
4.316117
 20
5.2
 30
0.0
 11
4.8
 21
5.683883
 31
0.0
  0
LINE
  8
0
 62
     0
 10
4.492893
 20
5.2
 30
0.0
 11
4.8
 21
5.507107
 31
0.0
  0
LINE
  8
0
 62
     0
 10
4.66967
 20
5.2
 30
0.0
 11
4.8
 21
5.33033
 31
0.0
  0
ENDBLK
  8
0
  0
BLOCK
  8
0
  2
*X6
 70
    65
 10
0.0
 20
0.0
 30
0.0
  3
*X
  0
LINE
  8
0
 62
     0
 10
5.2
 20
6.083883
 30
0.0
 11
7.178252
 21
8.062136
 31
0.0
  0
LINE
  8
0
 62
     0
 10
5.2
 20
6.26066
 30
0.0
 11
7.132421
 21
8.193082
 31
0.0
  0
LINE
  8
0
 62
     0
 10
5.2
 20
6.437437
 30
0.0
 11
7.08659
 21
8.324027
 31
0.0
  0
LINE
  8
0
 62
     0
 10
5.2
 20
6.614214
 30
0.0
 11
7.040759
 21
8.454973
 31
0.0
  0
LINE
  8
0
 62
     0
 10
5.2
 20
6.79099
 30
0.0
 11
6.994928
 21
8.585919
 31
0.0
  0
LINE
  8
0
 62
     0
 10
5.2
 20
6.967767
 30
0.0
 11
6.949097
 21
8.716864
 31
0.0
  0
LINE
  8
0
 62
     0
 10
5.2
 20
7.144544
 30
0.0
 11
6.903266
 21
8.84781
 31
0.0
  0
LINE
  8
0
 62
     0
 10
5.2
 20
7.32132
 30
0.0
 11
6.857435
 21
8.978756
 31
0.0
  0
LINE
  8
0
 62
     0
 10
5.2
 20
7.498097
 30
0.0
 11
6.811604
 21
9.109702
 31
0.0
  0
LINE
  8
0
 62
     0
 10
5.2
 20
7.674874
 30
0.0
 11
6.765773
 21
9.240647
 31
0.0
  0
LINE
  8
0
 62
     0
 10
5.2
 20
7.85165
 30
0.0
 11
6.719942
 21
9.371593
 31
0.0
  0
LINE
  8
0
 62
     0
 10
5.2
 20
8.028427
 30
0.0
 11
6.674111
 21
9.502539
 31
0.0
  0
LINE
  8
0
 62
     0
 10
5.2
 20
8.205204
 30
0.0
 11
6.62828
 21
9.633484
 31
0.0
  0
LINE
  8
0
 62
     0
 10
5.2
 20
8.381981
 30
0.0
 11
6.582449
 21
9.76443
 31
0.0
  0
LINE
  8
0
 62
     0
 10
5.2
 20
8.558757
 30
0.0
 11
6.536619
 21
9.895376
 31
0.0
  0
LINE
  8
0
 62
     0
 10
5.2
 20
8.735534
 30
0.0
 11
6.464466
 21
10.0
 31
0.0
  0
LINE
  8
0
 62
     0
 10
5.2
 20
8.912311
 30
0.0
 11
6.287689
 21
10.0
 31
0.0
  0
LINE
  8
0
 62
     0
 10
5.2
 20
9.089087
 30
0.0
 11
6.110913
 21
10.0
 31
0.0
  0
LINE
  8
0
 62
     0
 10
5.2
 20
9.265864
 30
0.0
 11
5.934136
 21
10.0
 31
0.0
  0
LINE
  8
0
 62
     0
 10
5.2
 20
9.442641
 30
0.0
 11
5.757359
 21
10.0
 31
0.0
  0
LINE
  8
0
 62
     0
 10
5.2
 20
9.619417
 30
0.0
 11
5.580583
 21
10.0
 31
0.0
  0
LINE
  8
0
 62
     0
 10
5.2
 20
9.796194
 30
0.0
 11
5.403806
 21
10.0
 31
0.0
  0
LINE
  8
0
 62
     0
 10
5.2
 20
9.972971
 30
0.0
 11
5.227029
 21
10.0
 31
0.0
  0
LINE
  8
0
 62
     0
 10
5.2
 20
5.907107
 30
0.0
 11
7.224083
 21
7.93119
 31
0.0
  0
LINE
  8
0
 62
     0
 10
5.2
 20
5.73033
 30
0.0
 11
7.269914
 21
7.800245
 31
0.0
  0
LINE
  8
0
 62
     0
 10
5.2
 20
5.553553
 30
0.0
 11
7.315745
 21
7.669299
 31
0.0
  0
LINE
  8
0
 62
     0
 10
5.2
 20
5.376777
 30
0.0
 11
7.361576
 21
7.538353
 31
0.0
  0
LINE
  8
0
 62
     0
 10
5.2
 20
5.2
 30
0.0
 11
7.407407
 21
7.407407
 31
0.0
  0
LINE
  8
0
 62
     0
 10
5.376777
 20
5.2
 30
0.0
 11
7.453238
 21
7.276462
 31
0.0
  0
LINE
  8
0
 62
     0
 10
5.553553
 20
5.2
 30
0.0
 11
7.499069
 21
7.145516
 31
0.0
  0
LINE
  8
0
 62
     0
 10
5.73033
 20
5.2
 30
0.0
 11
7.5449
 21
7.01457
 31
0.0
  0
LINE
  8
0
 62
     0
 10
5.907107
 20
5.2
 30
0.0
 11
7.590731
 21
6.883625
 31
0.0
  0
LINE
  8
0
 62
     0
 10
6.083883
 20
5.2
 30
0.0
 11
7.636562
 21
6.752679
 31
0.0
  0
LINE
  8
0
 62
     0
 10
6.26066
 20
5.2
 30
0.0
 11
7.682393
 21
6.621733
 31
0.0
  0
LINE
  8
0
 62
     0
 10
6.437437
 20
5.2
 30
0.0
 11
7.728224
 21
6.490788
 31
0.0
  0
LINE
  8
0
 62
     0
 10
6.614214
 20
5.2
 30
0.0
 11
7.774055
 21
6.359842
 31
0.0
  0
LINE
  8
0
 62
     0
 10
6.79099
 20
5.2
 30
0.0
 11
7.819886
 21
6.228896
 31
0.0
  0
LINE
  8
0
 62
     0
 10
6.967767
 20
5.2
 30
0.0
 11
7.865717
 21
6.09795
 31
0.0
  0
LINE
  8
0
 62
     0
 10
7.144544
 20
5.2
 30
0.0
 11
7.911548
 21
5.967005
 31
0.0
  0
LINE
  8
0
 62
     0
 10
7.32132
 20
5.2
 30
0.0
 11
7.957379
 21
5.836059
 31
0.0
  0
LINE
  8
0
 62
     0
 10
7.498097
 20
5.2
 30
0.0
 11
8.00321
 21
5.705113
 31
0.0
  0
LINE
  8
0
 62
     0
 10
7.674874
 20
5.2
 30
0.0
 11
8.049041
 21
5.574168
 31
0.0
  0
LINE
  8
0
 62
     0
 10
7.85165
 20
5.2
 30
0.0
 11
8.094872
 21
5.443222
 31
0.0
  0
LINE
  8
0
 62
     0
 10
8.028427
 20
5.2
 30
0.0
 11
8.140703
 21
5.312276
 31
0.0
  0
ENDBLK
  8
0
  0
BLOCK
  8
0
  2
*X7
 70
    65
 10
0.0
 20
0.0
 30
0.0
  3
*X
  0
LINE
  8
0
 62
     0
 10
0.0
 20
0.0
 30
0.0
 11
4.8
 21
4.8
 31
0.0
  0
LINE
  8
0
 62
     0
 10
0.095187
 20
0.271964
 30
0.0
 11
4.623223
 21
4.8
 31
0.0
  0
LINE
  8
0
 62
     0
 10
0.190375
 20
0.543928
 30
0.0
 11
4.446447
 21
4.8
 31
0.0
  0
LINE
  8
0
 62
     0
 10
0.285562
 20
0.815892
 30
0.0
 11
4.26967
 21
4.8
 31
0.0
  0
LINE
  8
0
 62
     0
 10
0.38075
 20
1.087857
 30
0.0
 11
4.092893
 21
4.8
 31
0.0
  0
LINE
  8
0
 62
     0
 10
0.475937
 20
1.359821
 30
0.0
 11
3.916117
 21
4.8
 31
0.0
  0
LINE
  8
0
 62
     0
 10
0.571125
 20
1.631785
 30
0.0
 11
3.73934
 21
4.8
 31
0.0
  0
LINE
  8
0
 62
     0
 10
0.666312
 20
1.903749
 30
0.0
 11
3.562563
 21
4.8
 31
0.0
  0
LINE
  8
0
 62
     0
 10
0.7615
 20
2.175713
 30
0.0
 11
3.385786
 21
4.8
 31
0.0
  0
LINE
  8
0
 62
     0
 10
0.856687
 20
2.447677
 30
0.0
 11
3.20901
 21
4.8
 31
0.0
  0
LINE
  8
0
 62
     0
 10
0.951875
 20
2.719641
 30
0.0
 11
3.032233
 21
4.8
 31
0.0
  0
LINE
  8
0
 62
     0
 10
1.047062
 20
2.991606
 30
0.0
 11
2.855456
 21
4.8
 31
0.0
  0
LINE
  8
0
 62
     0
 10
1.142249
 20
3.26357
 30
0.0
 11
2.67868
 21
4.8
 31
0.0
  0
LINE
  8
0
 62
     0
 10
1.237437
 20
3.535534
 30
0.0
 11
2.501903
 21
4.8
 31
0.0
  0
LINE
  8
0
 62
     0
 10
1.332624
 20
3.807498
 30
0.0
 11
2.325126
 21
4.8
 31
0.0
  0
LINE
  8
0
 62
     0
 10
1.427812
 20
4.079462
 30
0.0
 11
2.14835
 21
4.8
 31
0.0
  0
LINE
  8
0
 62
     0
 10
1.522999
 20
4.351426
 30
0.0
 11
1.971573
 21
4.8
 31
0.0
  0
LINE
  8
0
 62
     0
 10
1.618187
 20
4.62339
 30
0.0
 11
1.794796
 21
4.8
 31
0.0
  0
LINE
  8
0
 62
     0
 10
0.176777
 20
0.0
 30
0.0
 11
4.8
 21
4.623223
 31
0.0
  0
LINE
  8
0
 62
     0
 10
0.353553
 20
0.0
 30
0.0
 11
4.8
 21
4.446447
 31
0.0
  0
LINE
  8
0
 62
     0
 10
0.53033
 20
0.0
 30
0.0
 11
4.8
 21
4.26967
 31
0.0
  0
LINE
  8
0
 62
     0
 10
0.707107
 20
0.0
 30
0.0
 11
4.8
 21
4.092893
 31
0.0
  0
LINE
  8
0
 62
     0
 10
0.883883
 20
0.0
 30
0.0
 11
4.8
 21
3.916117
 31
0.0
  0
LINE
  8
0
 62
     0
 10
1.06066
 20
0.0
 30
0.0
 11
4.8
 21
3.73934
 31
0.0
  0
LINE
  8
0
 62
     0
 10
1.237437
 20
0.0
 30
0.0
 11
3.179842
 21
1.942405
 31
0.0
  0
LINE
  8
0
 62
     0
 10
3.237437
 20
2.0
 30
0.0
 11
4.8
 21
3.562563
 31
0.0
  0
LINE
  8
0
 62
     0
 10
1.414214
 20
0.0
 30
0.0
 11
3.084654
 21
1.670441
 31
0.0
  0
LINE
  8
0
 62
     0
 10
3.414214
 20
2.0
 30
0.0
 11
4.8
 21
3.385786
 31
0.0
  0
LINE
  8
0
 62
     0
 10
1.59099
 20
0.0
 30
0.0
 11
2.989467
 21
1.398477
 31
0.0
  0
LINE
  8
0
 62
     0
 10
3.59099
 20
2.0
 30
0.0
 11
4.8
 21
3.20901
 31
0.0
  0
LINE
  8
0
 62
     0
 10
1.767767
 20
0.0
 30
0.0
 11
2.894279
 21
1.126512
 31
0.0
  0
LINE
  8
0
 62
     0
 10
3.767767
 20
2.0
 30
0.0
 11
4.8
 21
3.032233
 31
0.0
  0
LINE
  8
0
 62
     0
 10
1.944544
 20
0.0
 30
0.0
 11
2.799092
 21
0.854548
 31
0.0
  0
LINE
  8
0
 62
     0
 10
3.944544
 20
2.0
 30
0.0
 11
4.8
 21
2.855456
 31
0.0
  0
LINE
  8
0
 62
     0
 10
2.12132
 20
0.0
 30
0.0
 11
2.703904
 21
0.582584
 31
0.0
  0
LINE
  8
0
 62
     0
 10
4.12132
 20
2.0
 30
0.0
 11
4.8
 21
2.67868
 31
0.0
  0
LINE
  8
0
 62
     0
 10
2.298097
 20
0.0
 30
0.0
 11
2.608717
 21
0.31062
 31
0.0
  0
LINE
  8
0
 62
     0
 10
4.298097
 20
2.0
 30
0.0
 11
4.8
 21
2.501903
 31
0.0
  0
LINE
  8
0
 62
     0
 10
2.474874
 20
0.0
 30
0.0
 11
2.51353
 21
0.038656
 31
0.0
  0
LINE
  8
0
 62
     0
 10
4.474874
 20
2.0
 30
0.0
 11
4.8
 21
2.325126
 31
0.0
  0
LINE
  8
0
 62
     0
 10
4.65165
 20
2.0
 30
0.0
 11
4.8
 21
2.14835
 31
0.0
  0
ENDBLK
  8
0
  0
BLOCK
  8
0
  2
*X8
 70
    65
 10
0.0
 20
0.0
 30
0.0
  3
*X
  0
LINE
  8
0
 62
     0
 10
6.884654
 20
1.75813
 30
0.0
 11
8.736506
 21
3.609982
 31
0.0
  0
LINE
  8
0
 62
     0
 10
6.838823
 20
1.889076
 30
0.0
 11
8.690675
 21
3.740928
 31
0.0
  0
LINE
  8
0
 62
     0
 10
6.772971
 20
2.0
 30
0.0
 11
8.644844
 21
3.871874
 31
0.0
  0
LINE
  8
0
 62
     0
 10
6.596194
 20
2.0
 30
0.0
 11
8.599013
 21
4.002819
 31
0.0
  0
LINE
  8
0
 62
     0
 10
6.419417
 20
2.0
 30
0.0
 11
8.553182
 21
4.133765
 31
0.0
  0
LINE
  8
0
 62
     0
 10
6.242641
 20
2.0
 30
0.0
 11
8.507351
 21
4.264711
 31
0.0
  0
LINE
  8
0
 62
     0
 10
6.065864
 20
2.0
 30
0.0
 11
8.46152
 21
4.395656
 31
0.0
  0
LINE
  8
0
 62
     0
 10
5.889087
 20
2.0
 30
0.0
 11
8.415689
 21
4.526602
 31
0.0
  0
LINE
  8
0
 62
     0
 10
5.712311
 20
2.0
 30
0.0
 11
8.369858
 21
4.657548
 31
0.0
  0
LINE
  8
0
 62
     0
 10
5.535534
 20
2.0
 30
0.0
 11
8.324027
 21
4.788493
 31
0.0
  0
LINE
  8
0
 62
     0
 10
5.358757
 20
2.0
 30
0.0
 11
8.158757
 21
4.8
 31
0.0
  0
LINE
  8
0
 62
     0
 10
5.2
 20
2.018019
 30
0.0
 11
7.981981
 21
4.8
 31
0.0
  0
LINE
  8
0
 62
     0
 10
5.2
 20
2.194796
 30
0.0
 11
7.805204
 21
4.8
 31
0.0
  0
LINE
  8
0
 62
     0
 10
5.2
 20
2.371573
 30
0.0
 11
7.628427
 21
4.8
 31
0.0
  0
LINE
  8
0
 62
     0
 10
5.2
 20
2.54835
 30
0.0
 11
7.45165
 21
4.8
 31
0.0
  0
LINE
  8
0
 62
     0
 10
5.2
 20
2.725126
 30
0.0
 11
7.274874
 21
4.8
 31
0.0
  0
LINE
  8
0
 62
     0
 10
5.2
 20
2.901903
 30
0.0
 11
7.098097
 21
4.8
 31
0.0
  0
LINE
  8
0
 62
     0
 10
5.2
 20
3.07868
 30
0.0
 11
6.92132
 21
4.8
 31
0.0
  0
LINE
  8
0
 62
     0
 10
5.2
 20
3.255456
 30
0.0
 11
6.744544
 21
4.8
 31
0.0
  0
LINE
  8
0
 62
     0
 10
5.2
 20
3.432233
 30
0.0
 11
6.567767
 21
4.8
 31
0.0
  0
LINE
  8
0
 62
     0
 10
5.2
 20
3.60901
 30
0.0
 11
6.39099
 21
4.8
 31
0.0
  0
LINE
  8
0
 62
     0
 10
5.2
 20
3.785786
 30
0.0
 11
6.214214
 21
4.8
 31
0.0
  0
LINE
  8
0
 62
     0
 10
5.2
 20
3.962563
 30
0.0
 11
6.037437
 21
4.8
 31
0.0
  0
LINE
  8
0
 62
     0
 10
5.2
 20
4.13934
 30
0.0
 11
5.86066
 21
4.8
 31
0.0
  0
LINE
  8
0
 62
     0
 10
5.2
 20
4.316117
 30
0.0
 11
5.683883
 21
4.8
 31
0.0
  0
LINE
  8
0
 62
     0
 10
5.2
 20
4.492893
 30
0.0
 11
5.507107
 21
4.8
 31
0.0
  0
LINE
  8
0
 62
     0
 10
5.2
 20
4.66967
 30
0.0
 11
5.33033
 21
4.8
 31
0.0
  0
LINE
  8
0
 62
     0
 10
6.930485
 20
1.627185
 30
0.0
 11
8.782337
 21
3.479036
 31
0.0
  0
LINE
  8
0
 62
     0
 10
6.976316
 20
1.496239
 30
0.0
 11
8.828168
 21
3.348091
 31
0.0
  0
LINE
  8
0
 62
     0
 10
7.022147
 20
1.365293
 30
0.0
 11
8.873999
 21
3.217145
 31
0.0
  0
LINE
  8
0
 62
     0
 10
7.067978
 20
1.234347
 30
0.0
 11
8.91983
 21
3.086199
 31
0.0
  0
LINE
  8
0
 62
     0
 10
7.113809
 20
1.103402
 30
0.0
 11
8.965661
 21
2.955254
 31
0.0
  0
LINE
  8
0
 62
     0
 10
7.15964
 20
0.972456
 30
0.0
 11
9.011492
 21
2.824308
 31
0.0
  0
LINE
  8
0
 62
     0
 10
7.205471
 20
0.84151
 30
0.0
 11
9.057323
 21
2.693362
 31
0.0
  0
LINE
  8
0
 62
     0
 10
7.251302
 20
0.710565
 30
0.0
 11
9.103154
 21
2.562416
 31
0.0
  0
LINE
  8
0
 62
     0
 10
7.297133
 20
0.579619
 30
0.0
 11
9.148985
 21
2.431471
 31
0.0
  0
LINE
  8
0
 62
     0
 10
7.342964
 20
0.448673
 30
0.0
 11
9.194816
 21
2.300525
 31
0.0
  0
LINE
  8
0
 62
     0
 10
7.388795
 20
0.317728
 30
0.0
 11
9.240647
 21
2.169579
 31
0.0
  0
LINE
  8
0
 62
     0
 10
7.434626
 20
0.186782
 30
0.0
 11
9.286478
 21
2.038634
 31
0.0
  0
LINE
  8
0
 62
     0
 10
7.480457
 20
0.055836
 30
0.0
 11
9.332309
 21
1.907688
 31
0.0
  0
LINE
  8
0
 62
     0
 10
7.601398
 20
0.0
 30
0.0
 11
9.37814
 21
1.776742
 31
0.0
  0
LINE
  8
0
 62
     0
 10
7.778175
 20
0.0
 30
0.0
 11
9.423971
 21
1.645797
 31
0.0
  0
LINE
  8
0
 62
     0
 10
7.954951
 20
0.0
 30
0.0
 11
9.469802
 21
1.514851
 31
0.0
  0
LINE
  8
0
 62
     0
 10
8.131728
 20
0.0
 30
0.0
 11
9.515633
 21
1.383905
 31
0.0
  0
LINE
  8
0
 62
     0
 10
8.308505
 20
0.0
 30
0.0
 11
9.561464
 21
1.252959
 31
0.0
  0
LINE
  8
0
 62
     0
 10
8.485281
 20
0.0
 30
0.0
 11
9.607295
 21
1.122014
 31
0.0
  0
LINE
  8
0
 62
     0
 10
8.662058
 20
0.0
 30
0.0
 11
9.653126
 21
0.991068
 31
0.0
  0
LINE
  8
0
 62
     0
 10
8.838835
 20
0.0
 30
0.0
 11
9.698957
 21
0.860122
 31
0.0
  0
LINE
  8
0
 62
     0
 10
9.015611
 20
0.0
 30
0.0
 11
9.744788
 21
0.729177
 31
0.0
  0
LINE
  8
0
 62
     0
 10
9.192388
 20
0.0
 30
0.0
 11
9.790619
 21
0.598231
 31
0.0
  0
LINE
  8
0
 62
     0
 10
9.369165
 20
0.0
 30
0.0
 11
9.83645
 21
0.467285
 31
0.0
  0
LINE
  8
0
 62
     0
 10
9.545942
 20
0.0
 30
0.0
 11
9.882281
 21
0.33634
 31
0.0
  0
LINE
  8
0
 62
     0
 10
9.722718
 20
0.0
 30
0.0
 11
9.928112
 21
0.205394
 31
0.0
  0
LINE
  8
0
 62
     0
 10
9.899495
 20
0.0
 30
0.0
 11
9.973943
 21
0.074448
 31
0.0
  0
ENDBLK
  8
0
  0
BLOCK
  8
0
  2
*X9
 70
    65
 10
0.0
 20
0.0
 30
0.0
  3
*X
  0
LINE
  8
0
 62
     0
 10
10.7
 20
6.280583
 30
0.0
 11
13.5
 21
9.080583
 31
0.0
  0
LINE
  8
0
 62
     0
 10
10.7
 20
6.457359
 30
0.0
 11
13.5
 21
9.257359
 31
0.0
  0
LINE
  8
0
 62
     0
 10
10.7
 20
6.634136
 30
0.0
 11
13.5
 21
9.434136
 31
0.0
  0
LINE
  8
0
 62
     0
 10
10.7
 20
6.810913
 30
0.0
 11
13.5
 21
9.610913
 31
0.0
  0
LINE
  8
0
 62
     0
 10
10.7
 20
6.987689
 30
0.0
 11
13.5
 21
9.787689
 31
0.0
  0
LINE
  8
0
 62
     0
 10
10.7
 20
7.164466
 30
0.0
 11
13.5
 21
9.964466
 31
0.0
  0
LINE
  8
0
 62
     0
 10
10.7
 20
7.341243
 30
0.0
 11
13.358757
 21
10.0
 31
0.0
  0
LINE
  8
0
 62
     0
 10
10.7
 20
7.518019
 30
0.0
 11
13.181981
 21
10.0
 31
0.0
  0
LINE
  8
0
 62
     0
 10
10.7
 20
7.694796
 30
0.0
 11
13.005204
 21
10.0
 31
0.0
  0
LINE
  8
0
 62
     0
 10
10.7
 20
7.871573
 30
0.0
 11
12.828427
 21
10.0
 31
0.0
  0
LINE
  8
0
 62
     0
 10
10.7
 20
8.04835
 30
0.0
 11
12.65165
 21
10.0
 31
0.0
  0
LINE
  8
0
 62
     0
 10
10.7
 20
8.225126
 30
0.0
 11
12.474874
 21
10.0
 31
0.0
  0
LINE
  8
0
 62
     0
 10
10.7
 20
8.401903
 30
0.0
 11
12.298097
 21
10.0
 31
0.0
  0
LINE
  8
0
 62
     0
 10
10.7
 20
8.57868
 30
0.0
 11
12.12132
 21
10.0
 31
0.0
  0
LINE
  8
0
 62
     0
 10
10.7
 20
8.755456
 30
0.0
 11
11.944544
 21
10.0
 31
0.0
  0
LINE
  8
0
 62
     0
 10
10.7
 20
8.932233
 30
0.0
 11
11.767767
 21
10.0
 31
0.0
  0
LINE
  8
0
 62
     0
 10
10.7
 20
9.10901
 30
0.0
 11
11.59099
 21
10.0
 31
0.0
  0
LINE
  8
0
 62
     0
 10
10.7
 20
9.285786
 30
0.0
 11
11.414214
 21
10.0
 31
0.0
  0
LINE
  8
0
 62
     0
 10
10.7
 20
9.462563
 30
0.0
 11
11.237437
 21
10.0
 31
0.0
  0
LINE
  8
0
 62
     0
 10
10.7
 20
9.63934
 30
0.0
 11
11.06066
 21
10.0
 31
0.0
  0
LINE
  8
0
 62
     0
 10
10.7
 20
9.816117
 30
0.0
 11
10.883883
 21
10.0
 31
0.0
  0
LINE
  8
0
 62
     0
 10
10.7
 20
9.992893
 30
0.0
 11
10.707107
 21
10.0
 31
0.0
  0
LINE
  8
0
 62
     0
 10
10.7
 20
6.103806
 30
0.0
 11
13.5
 21
8.903806
 31
0.0
  0
LINE
  8
0
 62
     0
 10
10.7
 20
5.927029
 30
0.0
 11
13.5
 21
8.727029
 31
0.0
  0
LINE
  8
0
 62
     0
 10
10.7
 20
5.750253
 30
0.0
 11
13.5
 21
8.550253
 31
0.0
  0
LINE
  8
0
 62
     0
 10
10.7
 20
5.573476
 30
0.0
 11
13.5
 21
8.373476
 31
0.0
  0
LINE
  8
0
 62
     0
 10
10.7
 20
5.396699
 30
0.0
 11
13.5
 21
8.196699
 31
0.0
  0
LINE
  8
0
 62
     0
 10
10.7
 20
5.219922
 30
0.0
 11
13.5
 21
8.019922
 31
0.0
  0
LINE
  8
0
 62
     0
 10
10.856854
 20
5.2
 30
0.0
 11
13.5
 21
7.843146
 31
0.0
  0
LINE
  8
0
 62
     0
 10
11.033631
 20
5.2
 30
0.0
 11
13.5
 21
7.666369
 31
0.0
  0
LINE
  8
0
 62
     0
 10
11.210408
 20
5.2
 30
0.0
 11
13.5
 21
7.489592
 31
0.0
  0
LINE
  8
0
 62
     0
 10
11.387184
 20
5.2
 30
0.0
 11
13.5
 21
7.312816
 31
0.0
  0
LINE
  8
0
 62
     0
 10
11.563961
 20
5.2
 30
0.0
 11
13.5
 21
7.136039
 31
0.0
  0
LINE
  8
0
 62
     0
 10
11.740738
 20
5.2
 30
0.0
 11
13.5
 21
6.959262
 31
0.0
  0
LINE
  8
0
 62
     0
 10
11.917514
 20
5.2
 30
0.0
 11
13.5
 21
6.782486
 31
0.0
  0
LINE
  8
0
 62
     0
 10
12.094291
 20
5.2
 30
0.0
 11
13.5
 21
6.605709
 31
0.0
  0
LINE
  8
0
 62
     0
 10
12.271068
 20
5.2
 30
0.0
 11
13.5
 21
6.428932
 31
0.0
  0
LINE
  8
0
 62
     0
 10
12.447845
 20
5.2
 30
0.0
 11
13.5
 21
6.252155
 31
0.0
  0
LINE
  8
0
 62
     0
 10
12.624621
 20
5.2
 30
0.0
 11
13.5
 21
6.075379
 31
0.0
  0
LINE
  8
0
 62
     0
 10
12.801398
 20
5.2
 30
0.0
 11
13.5
 21
5.898602
 31
0.0
  0
LINE
  8
0
 62
     0
 10
12.978175
 20
5.2
 30
0.0
 11
13.5
 21
5.721825
 31
0.0
  0
LINE
  8
0
 62
     0
 10
13.154951
 20
5.2
 30
0.0
 11
13.5
 21
5.545049
 31
0.0
  0
LINE
  8
0
 62
     0
 10
13.331728
 20
5.2
 30
0.0
 11
13.5
 21
5.368272
 31
0.0
  0
ENDBLK
  8
0
  0
BLOCK
  8
0
  2
*X10
 70
    65
 10
0.0
 20
0.0
 30
0.0
  3
*X
  0
LINE
  8
0
 62
     0
 10
10.7
 20
1.154058
 30
0.0
 11
13.5
 21
3.954058
 31
0.0
  0
LINE
  8
0
 62
     0
 10
10.7
 20
1.330835
 30
0.0
 11
13.5
 21
4.130835
 31
0.0
  0
LINE
  8
0
 62
     0
 10
10.7
 20
1.507612
 30
0.0
 11
13.5
 21
4.307612
 31
0.0
  0
LINE
  8
0
 62
     0
 10
10.7
 20
1.684389
 30
0.0
 11
13.5
 21
4.484389
 31
0.0
  0
LINE
  8
0
 62
     0
 10
10.7
 20
1.861165
 30
0.0
 11
13.5
 21
4.661165
 31
0.0
  0
LINE
  8
0
 62
     0
 10
10.7
 20
2.037942
 30
0.0
 11
13.462058
 21
4.8
 31
0.0
  0
LINE
  8
0
 62
     0
 10
10.7
 20
2.214719
 30
0.0
 11
13.285281
 21
4.8
 31
0.0
  0
LINE
  8
0
 62
     0
 10
10.7
 20
2.391495
 30
0.0
 11
13.108505
 21
4.8
 31
0.0
  0
LINE
  8
0
 62
     0
 10
10.7
 20
2.568272
 30
0.0
 11
12.931728
 21
4.8
 31
0.0
  0
LINE
  8
0
 62
     0
 10
10.7
 20
2.745049
 30
0.0
 11
12.754951
 21
4.8
 31
0.0
  0
LINE
  8
0
 62
     0
 10
10.7
 20
2.921825
 30
0.0
 11
12.578175
 21
4.8
 31
0.0
  0
LINE
  8
0
 62
     0
 10
10.7
 20
3.098602
 30
0.0
 11
12.401398
 21
4.8
 31
0.0
  0
LINE
  8
0
 62
     0
 10
10.7
 20
3.275379
 30
0.0
 11
12.224621
 21
4.8
 31
0.0
  0
LINE
  8
0
 62
     0
 10
10.7
 20
3.452155
 30
0.0
 11
12.047845
 21
4.8
 31
0.0
  0
LINE
  8
0
 62
     0
 10
10.7
 20
3.628932
 30
0.0
 11
11.871068
 21
4.8
 31
0.0
  0
LINE
  8
0
 62
     0
 10
10.7
 20
3.805709
 30
0.0
 11
11.694291
 21
4.8
 31
0.0
  0
LINE
  8
0
 62
     0
 10
10.7
 20
3.982486
 30
0.0
 11
11.517514
 21
4.8
 31
0.0
  0
LINE
  8
0
 62
     0
 10
10.7
 20
4.159262
 30
0.0
 11
11.340738
 21
4.8
 31
0.0
  0
LINE
  8
0
 62
     0
 10
10.7
 20
4.336039
 30
0.0
 11
11.163961
 21
4.8
 31
0.0
  0
LINE
  8
0
 62
     0
 10
10.7
 20
4.512816
 30
0.0
 11
10.987184
 21
4.8
 31
0.0
  0
LINE
  8
0
 62
     0
 10
10.7
 20
4.689592
 30
0.0
 11
10.810408
 21
4.8
 31
0.0
  0
LINE
  8
0
 62
     0
 10
10.7
 20
0.977282
 30
0.0
 11
13.5
 21
3.777282
 31
0.0
  0
LINE
  8
0
 62
     0
 10
10.7
 20
0.800505
 30
0.0
 11
13.5
 21
3.600505
 31
0.0
  0
LINE
  8
0
 62
     0
 10
10.7
 20
0.623728
 30
0.0
 11
13.5
 21
3.423728
 31
0.0
  0
LINE
  8
0
 62
     0
 10
10.7
 20
0.446952
 30
0.0
 11
13.5
 21
3.246952
 31
0.0
  0
LINE
  8
0
 62
     0
 10
10.7
 20
0.270175
 30
0.0
 11
13.5
 21
3.070175
 31
0.0
  0
LINE
  8
0
 62
     0
 10
10.7
 20
0.093398
 30
0.0
 11
13.5
 21
2.893398
 31
0.0
  0
LINE
  8
0
 62
     0
 10
10.783378
 20
0.0
 30
0.0
 11
13.5
 21
2.716622
 31
0.0
  0
LINE
  8
0
 62
     0
 10
10.960155
 20
0.0
 30
0.0
 11
13.5
 21
2.539845
 31
0.0
  0
LINE
  8
0
 62
     0
 10
11.136932
 20
0.0
 30
0.0
 11
13.5
 21
2.363068
 31
0.0
  0
LINE
  8
0
 62
     0
 10
11.313708
 20
0.0
 30
0.0
 11
13.5
 21
2.186292
 31
0.0
  0
LINE
  8
0
 62
     0
 10
11.490485
 20
0.0
 30
0.0
 11
13.5
 21
2.009515
 31
0.0
  0
LINE
  8
0
 62
     0
 10
11.667262
 20
0.0
 30
0.0
 11
13.5
 21
1.832738
 31
0.0
  0
LINE
  8
0
 62
     0
 10
11.844039
 20
0.0
 30
0.0
 11
13.5
 21
1.655961
 31
0.0
  0
LINE
  8
0
 62
     0
 10
12.020815
 20
0.0
 30
0.0
 11
13.5
 21
1.479185
 31
0.0
  0
LINE
  8
0
 62
     0
 10
12.197592
 20
0.0
 30
0.0
 11
13.5
 21
1.302408
 31
0.0
  0
LINE
  8
0
 62
     0
 10
12.374369
 20
0.0
 30
0.0
 11
13.5
 21
1.125631
 31
0.0
  0
LINE
  8
0
 62
     0
 10
12.551145
 20
0.0
 30
0.0
 11
13.5
 21
0.948855
 31
0.0
  0
LINE
  8
0
 62
     0
 10
12.727922
 20
0.0
 30
0.0
 11
13.5
 21
0.772078
 31
0.0
  0
LINE
  8
0
 62
     0
 10
12.904699
 20
0.0
 30
0.0
 11
13.5
 21
0.595301
 31
0.0
  0
LINE
  8
0
 62
     0
 10
13.081475
 20
0.0
 30
0.0
 11
13.5
 21
0.418525
 31
0.0
  0
LINE
  8
0
 62
     0
 10
13.258252
 20
0.0
 30
0.0
 11
13.5
 21
0.241748
 31
0.0
  0
LINE
  8
0
 62
     0
 10
13.435029
 20
0.0
 30
0.0
 11
13.5
 21
0.064971
 31
0.0
  0
ENDBLK
  8
0
  0
BLOCK
  8
0
  2
*X11
 70
    65
 10
0.0
 20
0.0
 30
0.0
  3
*X
  0
LINE
  8
0
 62
     0
 10
13.9
 20
6.298602
 30
0.0
 11
16.582995
 21
8.981597
 31
0.0
  0
LINE
  8
0
 62
     0
 10
13.9
 20
6.475379
 30
0.0
 11
16.510503
 21
9.085882
 31
0.0
  0
LINE
  8
0
 62
     0
 10
13.9
 20
6.652155
 30
0.0
 11
16.432927
 21
9.185083
 31
0.0
  0
LINE
  8
0
 62
     0
 10
13.9
 20
6.828932
 30
0.0
 11
16.350372
 21
9.279304
 31
0.0
  0
LINE
  8
0
 62
     0
 10
13.9
 20
7.005709
 30
0.0
 11
16.262892
 21
9.368601
 31
0.0
  0
LINE
  8
0
 62
     0
 10
13.9
 20
7.182486
 30
0.0
 11
16.170495
 21
9.452981
 31
0.0
  0
LINE
  8
0
 62
     0
 10
13.9
 20
7.359262
 30
0.0
 11
16.073145
 21
9.532407
 31
0.0
  0
LINE
  8
0
 62
     0
 10
13.9
 20
7.536039
 30
0.0
 11
15.970755
 21
9.606794
 31
0.0
  0
LINE
  8
0
 62
     0
 10
13.9
 20
7.712816
 30
0.0
 11
15.863189
 21
9.676004
 31
0.0
  0
LINE
  8
0
 62
     0
 10
13.9
 20
7.889592
 30
0.0
 11
15.75025
 21
9.739843
 31
0.0
  0
LINE
  8
0
 62
     0
 10
13.9
 20
8.066369
 30
0.0
 11
15.631675
 21
9.798044
 31
0.0
  0
LINE
  8
0
 62
     0
 10
13.9
 20
8.243146
 30
0.0
 11
15.50711
 21
9.850256
 31
0.0
  0
LINE
  8
0
 62
     0
 10
13.9
 20
8.419922
 30
0.0
 11
15.376096
 21
9.896018
 31
0.0
  0
LINE
  8
0
 62
     0
 10
13.9
 20
8.596699
 30
0.0
 11
15.238027
 21
9.934726
 31
0.0
  0
LINE
  8
0
 62
     0
 10
13.9
 20
8.773476
 30
0.0
 11
15.092096
 21
9.965572
 31
0.0
  0
LINE
  8
0
 62
     0
 10
13.9
 20
8.950253
 30
0.0
 11
14.937209
 21
9.987461
 31
0.0
  0
LINE
  8
0
 62
     0
 10
13.9
 20
9.127029
 30
0.0
 11
14.771824
 21
9.998853
 31
0.0
  0
LINE
  8
0
 62
     0
 10
13.9
 20
9.303806
 30
0.0
 11
14.596193
 21
9.999999
 31
0.0
  0
LINE
  8
0
 62
     0
 10
13.9
 20
9.480583
 30
0.0
 11
14.419417
 21
9.999999
 31
0.0
  0
LINE
  8
0
 62
     0
 10
13.9
 20
9.657359
 30
0.0
 11
14.24264
 21
10.0
 31
0.0
  0
LINE
  8
0
 62
     0
 10
13.9
 20
9.834136
 30
0.0
 11
14.065864
 21
10.0
 31
0.0
  0
LINE
  8
0
 62
     0
 10
13.9
 20
6.121825
 30
0.0
 11
16.650245
 21
8.872071
 31
0.0
  0
LINE
  8
0
 62
     0
 10
13.9
 20
5.945049
 30
0.0
 11
16.712035
 21
8.757083
 31
0.0
  0
LINE
  8
0
 62
     0
 10
13.9
 20
5.768272
 30
0.0
 11
16.768067
 21
8.636339
 31
0.0
  0
LINE
  8
0
 62
     0
 10
13.9
 20
5.591495
 30
0.0
 11
16.817955
 21
8.509451
 31
0.0
  0
LINE
  8
0
 62
     0
 10
13.9
 20
5.414719
 30
0.0
 11
16.861189
 21
8.375908
 31
0.0
  0
LINE
  8
0
 62
     0
 10
13.9
 20
5.237942
 30
0.0
 11
16.897097
 21
8.235039
 31
0.0
  0
LINE
  8
0
 62
     0
 10
14.038835
 20
5.2
 30
0.0
 11
16.924779
 21
8.085944
 31
0.0
  0
LINE
  8
0
 62
     0
 10
14.215611
 20
5.2
 30
0.0
 11
16.942997
 21
7.927385
 31
0.0
  0
LINE
  8
0
 62
     0
 10
14.392388
 20
5.2
 30
0.0
 11
16.949987
 21
7.757599
 31
0.0
  0
LINE
  8
0
 62
     0
 10
14.569165
 20
5.2
 30
0.0
 11
16.943101
 21
7.573936
 31
0.0
  0
LINE
  8
0
 62
     0
 10
14.745942
 20
5.2
 30
0.0
 11
16.918037
 21
7.372095
 31
0.0
  0
LINE
  8
0
 62
     0
 10
14.922718
 20
5.2
 30
0.0
 11
16.866909
 21
7.144191
 31
0.0
  0
LINE
  8
0
 62
     0
 10
15.099495
 20
5.2
 30
0.0
 11
16.771715
 21
6.87222
 31
0.0
  0
LINE
  8
0
 62
     0
 10
15.276272
 20
5.2
 30
0.0
 11
15.847951
 21
5.77168
 31
0.0
  0
LINE
  8
0
 62
     0
 10
15.96673
 20
5.890458
 30
0.0
 11
16.559542
 21
6.48327
 31
0.0
  0
LINE
  8
0
 62
     0
 10
15.453048
 20
5.2
 30
0.0
 11
15.970661
 21
5.717613
 31
0.0
  0
LINE
  8
0
 62
     0
 10
15.629825
 20
5.2
 30
0.0
 11
16.088934
 21
5.659109
 31
0.0
  0
LINE
  8
0
 62
     0
 10
15.806602
 20
5.2
 30
0.0
 11
16.202964
 21
5.596363
 31
0.0
  0
LINE
  8
0
 62
     0
 10
15.983378
 20
5.2
 30
0.0
 11
16.312909
 21
5.529531
 31
0.0
  0
LINE
  8
0
 62
     0
 10
16.160155
 20
5.2
 30
0.0
 11
16.418895
 21
5.45874
 31
0.0
  0
LINE
  8
0
 62
     0
 10
16.336932
 20
5.2
 30
0.0
 11
16.521021
 21
5.384089
 31
0.0
  0
LINE
  8
0
 62
     0
 10
16.513708
 20
5.2
 30
0.0
 11
16.619363
 21
5.305655
 31
0.0
  0
LINE
  8
0
 62
     0
 10
16.690485
 20
5.2
 30
0.0
 11
16.713975
 21
5.22349
 31
0.0
  0
ENDBLK
  8
0
  0
BLOCK
  8
0
  2
*X12
 70
    65
 10
0.0
 20
0.0
 30
0.0
  3
*X
  0
LINE
  8
0
 62
     0
 10
13.9
 20
0.818525
 30
0.0
 11
17.39645
 21
4.314974
 31
0.0
  0
LINE
  8
0
 62
     0
 10
13.9
 20
0.995301
 30
0.0
 11
17.336354
 21
4.431655
 31
0.0
  0
LINE
  8
0
 62
     0
 10
13.9
 20
1.172078
 30
0.0
 11
17.272078
 21
4.544156
 31
0.0
  0
LINE
  8
0
 62
     0
 10
13.9
 20
1.348855
 30
0.0
 11
17.203766
 21
4.652621
 31
0.0
  0
LINE
  8
0
 62
     0
 10
13.9
 20
1.525631
 30
0.0
 11
17.131535
 21
4.757167
 31
0.0
  0
LINE
  8
0
 62
     0
 10
13.9
 20
1.702408
 30
0.0
 11
16.997592
 21
4.8
 31
0.0
  0
LINE
  8
0
 62
     0
 10
13.9
 20
1.879185
 30
0.0
 11
16.820815
 21
4.8
 31
0.0
  0
LINE
  8
0
 62
     0
 10
13.9
 20
2.055961
 30
0.0
 11
16.644039
 21
4.8
 31
0.0
  0
LINE
  8
0
 62
     0
 10
13.9
 20
2.232738
 30
0.0
 11
16.467262
 21
4.8
 31
0.0
  0
LINE
  8
0
 62
     0
 10
13.9
 20
2.409515
 30
0.0
 11
16.290485
 21
4.8
 31
0.0
  0
LINE
  8
0
 62
     0
 10
13.9
 20
2.586292
 30
0.0
 11
16.113708
 21
4.8
 31
0.0
  0
LINE
  8
0
 62
     0
 10
13.9
 20
2.763068
 30
0.0
 11
15.936932
 21
4.8
 31
0.0
  0
LINE
  8
0
 62
     0
 10
13.9
 20
2.939845
 30
0.0
 11
15.760155
 21
4.8
 31
0.0
  0
LINE
  8
0
 62
     0
 10
13.9
 20
3.116622
 30
0.0
 11
15.583378
 21
4.8
 31
0.0
  0
LINE
  8
0
 62
     0
 10
13.9
 20
3.293398
 30
0.0
 11
15.406602
 21
4.8
 31
0.0
  0
LINE
  8
0
 62
     0
 10
13.9
 20
3.470175
 30
0.0
 11
15.229825
 21
4.8
 31
0.0
  0
LINE
  8
0
 62
     0
 10
13.9
 20
3.646952
 30
0.0
 11
15.053048
 21
4.8
 31
0.0
  0
LINE
  8
0
 62
     0
 10
13.9
 20
3.823728
 30
0.0
 11
14.876272
 21
4.8
 31
0.0
  0
LINE
  8
0
 62
     0
 10
13.9
 20
4.000505
 30
0.0
 11
14.699495
 21
4.8
 31
0.0
  0
LINE
  8
0
 62
     0
 10
13.9
 20
4.177282
 30
0.0
 11
14.522718
 21
4.8
 31
0.0
  0
LINE
  8
0
 62
     0
 10
13.9
 20
4.354058
 30
0.0
 11
14.345942
 21
4.8
 31
0.0
  0
LINE
  8
0
 62
     0
 10
13.9
 20
4.530835
 30
0.0
 11
14.169165
 21
4.8
 31
0.0
  0
LINE
  8
0
 62
     0
 10
13.9
 20
4.707612
 30
0.0
 11
13.992388
 21
4.8
 31
0.0
  0
LINE
  8
0
 62
     0
 10
13.9
 20
0.641748
 30
0.0
 11
17.452185
 21
4.193933
 31
0.0
  0
LINE
  8
0
 62
     0
 10
13.9
 20
0.464971
 30
0.0
 11
17.503339
 21
4.068311
 31
0.0
  0
LINE
  8
0
 62
     0
 10
13.9
 20
0.288194
 30
0.0
 11
17.549642
 21
3.937837
 31
0.0
  0
LINE
  8
0
 62
     0
 10
13.9
 20
0.111418
 30
0.0
 11
17.590762
 21
3.80218
 31
0.0
  0
LINE
  8
0
 62
     0
 10
13.965359
 20
0.0
 30
0.0
 11
17.62629
 21
3.660931
 31
0.0
  0
LINE
  8
0
 62
     0
 10
14.142136
 20
0.000001
 30
0.0
 11
17.655713
 21
3.513577
 31
0.0
  0
LINE
  8
0
 62
     0
 10
14.318913
 20
0.000001
 30
0.0
 11
17.678385
 21
3.359473
 31
0.0
  0
LINE
  8
0
 62
     0
 10
14.49569
 20
0.000001
 30
0.0
 11
17.693473
 21
3.197784
 31
0.0
  0
LINE
  8
0
 62
     0
 10
14.672467
 20
0.000002
 30
0.0
 11
17.699875
 21
3.027409
 31
0.0
  0
LINE
  8
0
 62
     0
 10
14.853154
 20
0.003912
 30
0.0
 11
17.696088
 21
2.846846
 31
0.0
  0
LINE
  8
0
 62
     0
 10
15.046044
 20
0.020025
 30
0.0
 11
17.679975
 21
2.653956
 31
0.0
  0
LINE
  8
0
 62
     0
 10
15.254483
 20
0.051687
 30
0.0
 11
17.648313
 21
2.445517
 31
0.0
  0
LINE
  8
0
 62
     0
 10
15.483762
 20
0.10419
 30
0.0
 11
17.59581
 21
2.216238
 31
0.0
  0
LINE
  8
0
 62
     0
 10
15.743786
 20
0.187437
 30
0.0
 11
17.512563
 21
1.956214
 31
0.0
  0
LINE
  8
0
 62
     0
 10
16.058176
 20
0.32505
 30
0.0
 11
17.37495
 21
1.641824
 31
0.0
  0
LINE
  8
0
 62
     0
 10
16.54193
 20
0.632028
 30
0.0
 11
17.067972
 21
1.15807
 31
0.0
  0
ENDBLK
  8
0
  0
BLOCK
  8
0
  2
BLC15
 70
    64
 10
0.0
 20
0.0
 30
0.0
  3
BLC15
  0
LINE
  8
0
  6
CONTINUOUS
 10
0.142084
 20
3.490022
 30
0.0
 11
0.142084
 21
0.844365
 31
0.0
  0
LINE
  8
0
  6
CONTINUOUS
 10
-0.461611
 20
-0.937188
 30
0.0
 11
0.745779
 21
-0.937188
 31
0.0
  0
LINE
  8
0
  6
CONTINUOUS
 10
-0.894108
 20
-0.049675
 30
0.0
 11
1.169267
 21
-0.049675
 31
0.0
  0
LINE
  8
0
  6
CONTINUOUS
 10
-1.389679
 20
0.844365
 30
0.0
 11
1.673848
 21
0.844365
 31
0.0
  0
ENDBLK
  8
0
  0
BLOCK
  8
0
  2
BLC55
 70
    64
 10
0.0
 20
0.0
 30
0.0
  3
BLC55
  0
INSERT
  8
SWEDEN
  6
CENTER
  2
BLC5
 10
0.087066
 20
-0.756831
 30
0.0
 41
0.6
 42
0.6
 43
0.6
  0
ENDBLK
  8
0
  0
BLOCK
  8
0
  2
BLC5
 70
    64
 10
0.0
 20
0.0
 30
0.0
  3
BLC5
  0
TEXT
  8
0
 10
-3.043704
 20
-6.645912
 30
0.0
 40
3.2
  1
PE
  0
LINE
  8
0
 10
-2.946392
 20
1.181176
 30
0.0
 11
2.135458
 21
1.181176
 31
0.0
  0
LINE
  8
0
 10
-0.48656
 20
2.238362
 30
0.0
 11
-0.48656
 21
6.930438
 31
0.0
  0
LINE
  8
0
 10
-1.973271
 20
0.065258
 30
0.0
 11
1.225411
 21
0.065258
 31
0.0
  0
LINE
  8
0
 10
2.685091
 20
2.238362
 30
0.0
 11
1.68494
 21
2.238362
 31
0.0
  0
LINE
  8
0
 10
-3.505035
 20
2.238362
 30
0.0
 11
2.649049
 21
2.238362
 31
0.0
  0
CIRCLE
  8
0
 10
-0.47755
 20
1.422632
 30
0.0
 40
3.804563
  0
ENDBLK
  8
0
  0
BLOCK
  8
0
  2
BLC43
 70
    64
 10
0.0
 20
0.0
 30
0.0
  3
BLC43
  0
TEXT
  8
SWEDEN2
  6
CONTINUOUS
 10
-0.646672
 20
-0.986365
 30
0.0
 40
2.0
  1
+
  0
ENDBLK
  8
0
  0
BLOCK
  8
0
  2
BLC42
 70
    64
 10
0.0
 20
0.0
 30
0.0
  3
BLC42
  0
TEXT
  8
SWEDEN2
  6
CONTINUOUS
 10
-0.655237
 20
-0.99442
 30
0.0
 40
2.0
  1
-
  0
ENDBLK
  8
0
  0
BLOCK
  8
0
  2
BLC44
 70
    64
 10
0.0
 20
0.0
 30
0.0
  3
BLC44
  0
LINE
  8
HEL035
 10
-2.520993
 20
1.697877
 30
0.0
 11
1.479007
 21
1.697877
 31
0.0
  0
INSERT
  8
HEL035
  2
WKU130
 10
-2.181043
 20
-0.027675
 30
0.0
 41
0.8
 42
0.8
 43
0.8
  0
ENDBLK
  8
0
  0
BLOCK
  8
0
  2
B39
 70
     0
 10
0.0
 20
0.0
 30
0.0
  3
B39
  0
LINE
  8
0
 10
-10.0
 20
2.5
 30
0.0
 11
-11.519867
 21
2.5
 31
0.0
  0
ARC
  8
0
 10
-9.934151
 20
3.75
 30
0.0
 40
1.251733
 50
266.984476
 51
93.015524
  0
LINE
  8
0
 10
-10.0
 20
5.0
 30
0.0
 11
-11.519867
 21
5.0
 31
0.0
  0
LINE
  8
0
 10
-10.0
 20
7.5
 30
0.0
 11
-11.519867
 21
7.5
 31
0.0
  0
ARC
  8
0
 10
-9.934151
 20
6.25
 30
0.0
 40
1.251733
 50
266.984476
 51
93.015524
  0
LINE
  8
0
 10
-5.0
 20
0.0
 30
0.0
 11
-2.5
 21
0.0
 31
0.0
  0
ARC
  8
0
 10
-5.065849
 20
1.25
 30
0.0
 40
1.251733
 50
86.984476
 51
273.015524
  0
ARC
  8
0
 10
-5.065849
 20
3.75
 30
0.0
 40
1.251733
 50
86.984476
 51
273.015524
  0
LINE
  8
0
 10
-5.0
 20
2.5
 30
0.0
 11
-2.5
 21
2.5
 31
0.0
  0
LINE
  8
0
 10
-5.0
 20
5.0
 30
0.0
 11
-2.5
 21
5.0
 31
0.0
  0
LINE
  8
0
 10
-2.5
 20
5.0
 30
0.0
 11
0.0
 21
5.0
 31
0.0
  0
LINE
  8
0
 10
-2.5
 20
0.0
 30
0.0
 11
0.0
 21
0.0
 31
0.0
  0
LINE
  8
0
 10
-2.5
 20
5.0
 30
0.0
 11
0.0
 21
5.0
 31
0.0
  0
LINE
  8
0
 10
-2.5
 20
10.0
 30
0.0
 11
0.0
 21
10.0
 31
0.0
  0
LINE
  8
0
 10
-5.0
 20
10.0
 30
0.0
 11
-2.5
 21
10.0
 31
0.0
  0
LINE
  8
0
 10
-5.0
 20
7.5
 30
0.0
 11
-2.5
 21
7.5
 31
0.0
  0
ARC
  8
0
 10
-5.065849
 20
8.75
 30
0.0
 40
1.251733
 50
86.984476
 51
273.015524
  0
ARC
  8
0
 10
-5.065849
 20
6.25
 30
0.0
 40
1.251733
 50
86.984476
 51
273.015524
  0
LINE
  8
0
 10
-5.0
 20
5.0
 30
0.0
 11
-2.5
 21
5.0
 31
0.0
  0
ENDBLK
  8
0
  0
BLOCK
  8
0
  2
SPADNET
 70
     0
 10
0.0
 20
0.0
 30
0.0
  3
SPADNET
  0
LINE
  8
0
  6
DASHED
 10
0.0
 20
-7.95366
 30
0.0
 11
0.0
 21
-37.5
 31
0.0
  0
LINE
  8
0
  6
DASHED
 10
0.0
 20
40.0
 30
0.0
 11
0.0
 21
7.632058
 31
0.0
  0
LINE
  8
0
  6
DASHED
 10
-15.0
 20
-40.0
 30
0.0
 11
-15.0
 21
-25.0
 31
0.0
  0
CIRCLE
  8
0
  6
CONTINUOUS
 10
0.0
 20
-25.059993
 30
0.0
 40
4.398585
  0
LINE
  8
0
  6
DASHED
 10
-4.398585
 20
-25.059993
 30
0.0
 11
-15.0
 21
-25.059993
 31
0.0
  0
CIRCLE
  8
0
  6
CONTINUOUS
 10
0.0
 20
24.940007
 30
0.0
 40
4.398585
  0
CIRCLE
  8
0
  6
CONTINUOUS
 10
0.0
 20
-3.555075
 30
0.0
 40
4.398585
  0
INSERT
  8
0
  6
DASHED
  2
B97
 10
14.158425
 20
3.233484
 30
0.0
 50
90.0
  0
LINE
  8
0
  6
DASHED
 10
0.0
 20
3.233473
 30
0.0
 11
12.5
 21
3.233473
 31
0.0
  0
CIRCLE
  8
0
  6
CONTINUOUS
 10
0.0
 20
3.233473
 30
0.0
 40
4.398585
  0
LINE
  8
0
  6
CONTINUOUS
 10
2.330189
 20
0.899953
 30
0.0
 11
-0.003212
 21
3.233355
 31
0.0
  0
LINE
  8
0
  6
CONTINUOUS
 10
-0.003212
 20
3.233355
 30
0.0
 11
-2.336614
 21
0.899953
 31
0.0
  0
LINE
  8
0
  6
CONTINUOUS
 10
-0.003212
 20
3.233355
 30
0.0
 11
-0.003212
 21
5.566756
 31
0.0
  0
ENDBLK
  8
0
  0
BLOCK
  8
0
  2
B97
 70
    64
 10
0.0
 20
0.0
 30
0.0
  3
B97
  0
INSERT
  8
0
  6
DASHED
  2
BLC15
 10
-0.142087
 20
-2.191142
 30
0.0
  0
ENDBLK
  8
0
  0
BLOCK
  8
0
  2
B63
 70
     0
 10
0.0
 20
0.0
 30
0.0
  3
B63
  0
LINE
  8
BASE
  6
CONTINUOUS
 10
10.740939
 20
0.0
 30
0.0
 11
15.0
 21
0.0
 31
0.0
  0
LINE
  8
BASE
  6
CONTINUOUS
 10
0.0
 20
0.0
 30
0.0
 11
5.0
 21
0.0
 31
0.0
  0
LINE
  8
BASE
  6
CONTINUOUS
 10
9.353436
 20
-0.361863
 30
0.0
 11
4.256076
 21
-3.214703
 31
0.0
  0
LINE
  8
BASE
  6
CONTINUOUS
 10
5.0
 20
-5.0
 30
0.0
 11
0.0
 21
-5.0
 31
0.0
  0
LINE
  8
BASE
  6
CONTINUOUS
 10
5.0
 20
-5.0
 30
0.0
 11
5.0
 21
-2.5
 31
0.0
  0
CIRCLE
  8
BASE
  6
CONTINUOUS
 10
10.0
 20
0.0
 30
0.0
 40
0.740939
  0
ENDBLK
  8
0
  0
BLOCK
  8
0
  2
B503
 70
     0
 10
0.0
 20
0.0
 30
0.0
  3
B503
  0
TEXT
  8
0
  6
DASHED
 10
-0.023606
 20
-24.320351
 30
0.0
 40
2.0
  1
SPAA 323 C
  0
TEXT
  8
0
  6
DASHED
 10
25.173575
 20
-9.654986
 30
0.0
 40
1.8
  1
162 mm
  0
TEXT
  8
0
  6
DASHED
 10
4.709103
 20
1.339698
 30
0.0
 40
1.8
  1
226 mm
  0
LINE
  8
0
  6
CONTINUOUS
 10
-2.051187
 20
-19.443928
 30
0.0
 11
21.294585
 21
-19.443928
 31
0.0
  0
LINE
  8
0
  6
CONTINUOUS
 10
23.294585
 20
-17.443928
 30
0.0
 11
23.294585
 21
-1.945115
 31
0.0
  0
LINE
  8
0
  6
CONTINUOUS
 10
21.294585
 20
0.054885
 30
0.0
 11
-2.051187
 21
0.054885
 31
0.0
  0
LINE
  8
0
  6
CONTINUOUS
 10
-4.051187
 20
-1.945115
 30
0.0
 11
-4.051187
 21
-17.443928
 31
0.0
  0
ARC
  8
0
  6
CONTINUOUS
 10
21.294585
 20
-1.945115
 30
0.0
 40
2.0
 50
0.0
 51
90.0
  0
ARC
  8
0
  6
CONTINUOUS
 10
-2.051187
 20
-1.945115
 30
0.0
 40
2.0
 50
90.0
 51
180.0
  0
ARC
  8
0
  6
CONTINUOUS
 10
-2.051187
 20
-17.443928
 30
0.0
 40
2.0
 50
180.0
 51
270.0
  0
ARC
  8
0
  6
CONTINUOUS
 10
21.294585
 20
-17.443928
 30
0.0
 40
2.0
 50
270.0
 51
0.0
  0
ENDBLK
  8
0
  0
BLOCK
  8
0
  2
B70
 70
     0
 10
0.0
 20
0.0
 30
0.0
  3
B70
  0
TEXT
  8
BASE
  6
CONTINUOUS
 10
6.776354
 20
-58.880245
 30
0.0
 40
2.0
  1
9)
  0
TEXT
  8
BASE
  6
CONTINUOUS
 10
6.776354
 20
-38.880245
 30
0.0
 40
2.0
  1
9)
  0
TEXT
  8
BASE
  6
CONTINUOUS
 10
6.776354
 20
-18.880245
 30
0.0
 40
2.0
  1
9)
  0
TEXT
  8
BASE
  6
CONTINUOUS
 10
6.776354
 20
1.119755
 30
0.0
 40
2.0
  1
9)
  0
TEXT
  8
BASE
  6
CONTINUOUS
 10
8.134884
 20
-32.687464
 30
0.0
 40
2.0
  1
SI
  0
TEXT
  8
BASE
  6
CONTINUOUS
 10
8.134884
 20
-22.531619
 30
0.0
 40
2.0
  1
SI
  0
TEXT
  8
BASE
  6
CONTINUOUS
 10
8.173717
 20
-72.731978
 30
0.0
 40
2.0
  1
NI
  0
TEXT
  8
BASE
  6
CONTINUOUS
 10
14.735291
 20
-72.870666
 30
0.0
 40
2.0
  1
10B
  0
TEXT
  8
BASE
  6
CONTINUOUS
 10
14.735291
 20
-63.940088
 30
0.0
 40
2.0
  1
9B
  0
CIRCLE
  8
BASE
  6
CONTINUOUS
 10
23.449551
 20
-65.028782
 30
0.0
 40
1.0
  0
LINE
  8
BASE
 10
22.449552
 20
-65.030442
 30
0.0
 11
16.7
 21
-68.5
 31
0.0
  0
LINE
  8
BASE
 10
17.5
 20
-70.0
 30
0.0
 11
17.5
 21
-67.1
 31
0.0
  0
LINE
  8
BASE
 10
15.0
 20
-70.0
 30
0.0
 11
17.5
 21
-70.0
 31
0.0
  0
LINE
  8
BASE
 10
16.38095
 20
-68.055575
 30
0.0
 11
17.060313
 21
-68.991319
 31
0.0
  0
CIRCLE
  8
BASE
  6
CONTINUOUS
 10
23.449551
 20
-55.028782
 30
0.0
 40
1.0
  0
LINE
  8
BASE
 10
17.5
 20
-60.0
 30
0.0
 11
17.5
 21
-57.1
 31
0.0
  0
LINE
  8
BASE
 10
22.449552
 20
-55.030442
 30
0.0
 11
16.7
 21
-58.5
 31
0.0
  0
LINE
  8
BASE
 10
15.0
 20
-60.0
 30
0.0
 11
17.5
 21
-60.0
 31
0.0
  0
LINE
  8
BASE
 10
16.38095
 20
-58.055575
 30
0.0
 11
17.060313
 21
-58.991319
 31
0.0
  0
LINE
  8
BASE
 10
15.0
 20
-55.0
 30
0.0
 11
17.5
 21
-55.0
 31
0.0
  0
LINE
  8
BASE
 10
12.5
 20
-55.00155
 30
0.0
 11
15.0
 21
-55.00155
 31
0.0
  0
LINE
  8
BASE
 10
15.0
 20
-65.00155
 30
0.0
 11
12.5
 21
-65.00155
 31
0.0
  0
LINE
  8
BASE
 10
15.0
 20
-65.001549
 30
0.0
 11
17.5
 21
-65.001549
 31
0.0
  0
LINE
  8
BASE
 10
12.5
 20
-65.00155
 30
0.0
 11
12.5
 21
-55.00155
 31
0.0
  0
LINE
  8
BASE
 10
10.0
 20
-60.0
 30
0.0
 11
15.0
 21
-60.0
 31
0.0
  0
LINE
  8
BASE
  6
CONTINUOUS
 10
10.0
 20
-60.0
 30
0.0
 11
6.0
 21
-60.0
 31
0.0
  0
TEXT
  8
BASE
  6
CONTINUOUS
 10
8.173717
 20
-62.731978
 30
0.0
 40
2.0
  1
NI
  0
LINE
  8
BASE
  6
CONTINUOUS
 10
6.0
 20
-65.5
 30
0.0
 11
5.0
 21
-66.5
 31
0.0
  0
LINE
  8
BASE
  6
CONTINUOUS
 10
6.0
 20
-58.5
 30
0.0
 11
6.0
 21
-65.5
 31
0.0
  0
LINE
  8
BASE
  6
CONTINUOUS
 10
6.0
 20
-58.5
 30
0.0
 11
5.0
 21
-57.5
 31
0.0
  0
TEXT
  8
BASE
  6
CONTINUOUS
 10
12.887383
 20
9.086709
 30
0.0
 40
2.0
  1
101
  0
TEXT
  8
BASE
  6
CONTINUOUS
 10
8.173717
 20
-12.635823
 30
0.0
 40
2.0
  1
RI
  0
TEXT
  8
BASE
  6
CONTINUOUS
 10
8.173717
 20
-42.744992
 30
0.0
 40
2.0
  1
TI
  0
TEXT
  8
BASE
  6
CONTINUOUS
 10
8.173717
 20
-52.926075
 30
0.0
 40
2.0
  1
TI
  0
TEXT
  8
BASE
  6
CONTINUOUS
 10
8.173717
 20
-2.784001
 30
0.0
 40
2.0
  1
RI
  0
LINE
  8
BASE
  6
CONTINUOUS
 10
6.0
 20
-38.5
 30
0.0
 11
5.0
 21
-37.5
 31
0.0
  0
LINE
  8
BASE
  6
CONTINUOUS
 10
6.0
 20
-38.5
 30
0.0
 11
6.0
 21
-45.5
 31
0.0
  0
LINE
  8
BASE
  6
CONTINUOUS
 10
6.0
 20
-45.5
 30
0.0
 11
5.0
 21
-46.5
 31
0.0
  0
TEXT
  8
BASE
  6
DASHED
 10
14.717817
 20
-53.113746
 30
0.0
 40
2.0
  1
8B
 11
14.717817
 21
-53.780413
 31
0.0
 73
     1
  0
TEXT
  8
BASE
  6
DASHED
 10
14.538363
 20
-43.091225
 30
0.0
 40
2.0
  1
7B
 11
14.538363
 21
-43.757892
 31
0.0
 73
     1
  0
TEXT
  8
BASE
  6
DASHED
 10
14.538363
 20
-33.068703
 30
0.0
 40
2.0
  1
6B
 11
14.538363
 21
-33.73537
 31
0.0
 73
     1
  0
TEXT
  8
BASE
  6
DASHED
 10
14.538363
 20
-23.228142
 30
0.0
 40
2.0
  1
5B
 11
14.538363
 21
-23.894808
 31
0.0
 73
     1
  0
TEXT
  8
BASE
  6
DASHED
 10
14.538363
 20
-13.214285
 30
0.0
 40
2.0
  1
4B
 11
14.538363
 21
-13.880951
 31
0.0
 73
     1
  0
TEXT
  8
BASE
  6
DASHED
 10
14.538363
 20
-3.365058
 30
0.0
 40
2.0
  1
3B
 11
14.538363
 21
-4.031725
 31
0.0
 73
     1
  0
LINE
  8
BASE
  6
CONTINUOUS
 10
10.0
 20
-20.0
 30
0.0
 11
6.0
 21
-20.0
 31
0.0
  0
LINE
  8
BASE
  6
CONTINUOUS
 10
10.0
 20
-40.0
 30
0.0
 11
6.0
 21
-40.0
 31
0.0
  0
LINE
  8
BASE
  6
CONTINUOUS
 10
6.0
 20
-25.5
 30
0.0
 11
5.0
 21
-26.5
 31
0.0
  0
LINE
  8
BASE
  6
CONTINUOUS
 10
6.0
 20
-18.5
 30
0.0
 11
6.0
 21
-25.5
 31
0.0
  0
LINE
  8
BASE
  6
CONTINUOUS
 10
6.0
 20
-18.5
 30
0.0
 11
5.0
 21
-17.5
 31
0.0
  0
LINE
  8
BASE
  6
CONTINUOUS
 10
6.0
 20
1.5
 30
0.0
 11
5.0
 21
2.5
 31
0.0
  0
LINE
  8
BASE
  6
CONTINUOUS
 10
6.0
 20
-5.5
 30
0.0
 11
5.0
 21
-6.5
 31
0.0
  0
LINE
  8
BASE
  6
CONTINUOUS
 10
6.0
 20
1.5
 30
0.0
 11
6.0
 21
-5.5
 31
0.0
  0
LINE
  8
BASE
 10
16.38095
 20
-48.055575
 30
0.0
 11
17.060313
 21
-48.991319
 31
0.0
  0
LINE
  8
BASE
 10
15.0
 20
-50.0
 30
0.0
 11
17.5
 21
-50.0
 31
0.0
  0
CIRCLE
  8
BASE
  6
CONTINUOUS
 10
23.449551
 20
-45.028782
 30
0.0
 40
1.0
  0
LINE
  8
BASE
 10
17.5
 20
-50.0
 30
0.0
 11
17.5
 21
-47.1
 31
0.0
  0
LINE
  8
BASE
 10
22.449552
 20
-45.030442
 30
0.0
 11
16.7
 21
-48.5
 31
0.0
  0
CIRCLE
  8
BASE
  6
CONTINUOUS
 10
23.449551
 20
-35.028782
 30
0.0
 40
1.0
  0
LINE
  8
BASE
 10
15.0
 20
-45.001549
 30
0.0
 11
17.5
 21
-45.001549
 31
0.0
  0
LINE
  8
BASE
 10
15.0
 20
-45.00155
 30
0.0
 11
12.5
 21
-45.00155
 31
0.0
  0
LINE
  8
BASE
 10
12.5
 20
-45.00155
 30
0.0
 11
12.5
 21
-35.00155
 31
0.0
  0
LINE
  8
BASE
 10
22.449552
 20
-35.030442
 30
0.0
 11
16.7
 21
-38.5
 31
0.0
  0
LINE
  8
BASE
 10
16.38095
 20
-38.055575
 30
0.0
 11
17.060313
 21
-38.991319
 31
0.0
  0
LINE
  8
BASE
 10
17.5
 20
-40.0
 30
0.0
 11
17.5
 21
-37.1
 31
0.0
  0
LINE
  8
BASE
 10
15.0
 20
-40.0
 30
0.0
 11
17.5
 21
-40.0
 31
0.0
  0
LINE
  8
BASE
 10
10.0
 20
-40.0
 30
0.0
 11
15.0
 21
-40.0
 31
0.0
  0
LINE
  8
BASE
 10
12.5
 20
-35.00155
 30
0.0
 11
15.0
 21
-35.00155
 31
0.0
  0
LINE
  8
BASE
 10
15.0
 20
-35.0
 30
0.0
 11
17.5
 21
-35.0
 31
0.0
  0
CIRCLE
  8
BASE
  6
CONTINUOUS
 10
23.449551
 20
-25.028782
 30
0.0
 40
1.0
  0
LINE
  8
BASE
 10
15.0
 20
-30.0
 30
0.0
 11
17.5
 21
-30.0
 31
0.0
  0
LINE
  8
BASE
 10
17.5
 20
-30.0
 30
0.0
 11
17.5
 21
-27.1
 31
0.0
  0
LINE
  8
BASE
 10
22.449552
 20
-25.030442
 30
0.0
 11
16.7
 21
-28.5
 31
0.0
  0
LINE
  8
BASE
 10
16.38095
 20
-28.055575
 30
0.0
 11
17.060313
 21
-28.991319
 31
0.0
  0
LINE
  8
BASE
 10
15.0
 20
-25.0
 30
0.0
 11
17.5
 21
-25.0
 31
0.0
  0
LINE
  8
BASE
 10
15.0
 20
-25.00155
 30
0.0
 11
12.5
 21
-25.00155
 31
0.0
  0
LINE
  8
BASE
 10
12.5
 20
-25.00155
 30
0.0
 11
12.5
 21
-15.00155
 31
0.0
  0
CIRCLE
  8
BASE
  6
CONTINUOUS
 10
23.449551
 20
-15.028782
 30
0.0
 40
1.0
  0
LINE
  8
BASE
 10
15.0
 20
-15.0
 30
0.0
 11
17.5
 21
-15.0
 31
0.0
  0
LINE
  8
BASE
 10
12.5
 20
-15.00155
 30
0.0
 11
15.0
 21
-15.00155
 31
0.0
  0
LINE
  8
BASE
 10
10.0
 20
-20.0
 30
0.0
 11
15.0
 21
-20.0
 31
0.0
  0
LINE
  8
BASE
 10
15.0
 20
-20.0
 30
0.0
 11
17.5
 21
-20.0
 31
0.0
  0
LINE
  8
BASE
 10
17.5
 20
-20.0
 30
0.0
 11
17.5
 21
-17.1
 31
0.0
  0
LINE
  8
BASE
 10
16.38095
 20
-18.055575
 30
0.0
 11
17.060313
 21
-18.991319
 31
0.0
  0
LINE
  8
BASE
 10
22.449552
 20
-15.030442
 30
0.0
 11
16.7
 21
-18.5
 31
0.0
  0
CIRCLE
  8
BASE
  6
CONTINUOUS
 10
23.449551
 20
-5.028782
 30
0.0
 40
1.0
  0
LINE
  8
BASE
 10
17.5
 20
-10.0
 30
0.0
 11
17.5
 21
-7.1
 31
0.0
  0
LINE
  8
BASE
 10
15.0
 20
-10.0
 30
0.0
 11
17.5
 21
-10.0
 31
0.0
  0
LINE
  8
BASE
 10
16.38095
 20
-8.055575
 30
0.0
 11
17.060313
 21
-8.991319
 31
0.0
  0
LINE
  8
BASE
 10
22.449552
 20
-5.030442
 30
0.0
 11
16.7
 21
-8.5
 31
0.0
  0
LINE
  8
BASE
  6
CONTINUOUS
 10
10.0
 20
0.0
 30
0.0
 11
6.0
 21
0.0
 31
0.0
  0
LINE
  8
BASE
 10
15.0
 20
-5.0
 30
0.0
 11
17.5
 21
-5.0
 31
0.0
  0
LINE
  8
BASE
 10
15.0
 20
-5.00155
 30
0.0
 11
12.5
 21
-5.00155
 31
0.0
  0
LINE
  8
BASE
 10
22.449552
 20
4.969558
 30
0.0
 11
16.7
 21
1.5
 31
0.0
  0
LINE
  8
BASE
 10
16.38095
 20
1.944425
 30
0.0
 11
17.060313
 21
1.008681
 31
0.0
  0
LINE
  8
BASE
 10
17.5
 20
0.0
 30
0.0
 11
17.5
 21
2.9
 31
0.0
  0
LINE
  8
BASE
 10
15.0
 20
0.0
 30
0.0
 11
17.5
 21
0.0
 31
0.0
  0
LINE
  8
BASE
 10
10.0
 20
0.0
 30
0.0
 11
15.0
 21
0.0
 31
0.0
  0
LINE
  8
BASE
 10
12.5
 20
4.99845
 30
0.0
 11
15.0
 21
4.99845
 31
0.0
  0
LINE
  8
BASE
 10
15.0
 20
5.0
 30
0.0
 11
17.5
 21
5.0
 31
0.0
  0
LINE
  8
BASE
 10
12.5
 20
-5.00155
 30
0.0
 11
12.5
 21
4.99845
 31
0.0
  0
CIRCLE
  8
BASE
  6
CONTINUOUS
 10
23.449551
 20
4.971218
 30
0.0
 40
1.0
  0
LINE
  8
BASE
  6
CONTINUOUS
 10
15.0
 20
-70.0
 30
0.0
 11
0.0
 21
-70.0
 31
0.0
  0
LINE
  8
BASE
  6
CONTINUOUS
 10
0.0
 20
-65.0
 30
0.0
 11
4.266471
 21
-65.0
 31
0.0
  0
LINE
  8
BASE
  6
CONTINUOUS
 10
0.0
 20
-60.0
 30
0.0
 11
4.266471
 21
-60.0
 31
0.0
  0
LINE
  8
BASE
  6
CONTINUOUS
 10
15.0
 20
-50.0
 30
0.0
 11
0.0
 21
-50.0
 31
0.0
  0
LINE
  8
BASE
  6
CONTINUOUS
 10
0.0
 20
-45.0
 30
0.0
 11
4.266471
 21
-45.0
 31
0.0
  0
LINE
  8
BASE
  6
CONTINUOUS
 10
0.0
 20
-40.0
 30
0.0
 11
4.266471
 21
-40.0
 31
0.0
  0
LINE
  8
BASE
  6
CONTINUOUS
 10
15.0
 20
-30.0
 30
0.0
 11
0.0
 21
-30.0
 31
0.0
  0
LINE
  8
BASE
  6
CONTINUOUS
 10
0.0
 20
-25.0
 30
0.0
 11
4.266471
 21
-25.0
 31
0.0
  0
LINE
  8
BASE
  6
CONTINUOUS
 10
0.0
 20
-20.0
 30
0.0
 11
4.266471
 21
-20.0
 31
0.0
  0
LINE
  8
BASE
  6
CONTINUOUS
 10
0.0
 20
-10.0
 30
0.0
 11
15.0
 21
-10.0
 31
0.0
  0
LINE
  8
BASE
  6
CONTINUOUS
 10
0.0
 20
-5.0
 30
0.0
 11
4.266471
 21
-5.0
 31
0.0
  0
LINE
  8
BASE
  6
CONTINUOUS
 10
0.0
 20
0.0
 30
0.0
 11
4.266471
 21
0.0
 31
0.0
  0
TEXT
  8
BASE
  6
DASHED
 10
27.5
 20
2.265533
 30
0.0
 40
2.0
  1
3A
 11
27.5
 21
1.598866
 31
0.0
 73
     1
  0
LINE
  8
BASE
  6
CONTINUOUS
 10
24.449137
 20
5.0
 30
0.0
 11
32.5
 21
5.0
 31
0.0
  0
LINE
  8
BASE
  6
CONTINUOUS
 10
24.449137
 20
-5.0
 30
0.0
 11
32.5
 21
-5.0
 31
0.0
  0
TEXT
  8
BASE
  6
DASHED
 10
27.5
 20
-7.666667
 30
0.0
 40
2.0
  1
4A
 11
27.5
 21
-8.333333
 31
0.0
 73
     1
  0
LINE
  8
BASE
  6
CONTINUOUS
 10
24.449137
 20
-15.0
 30
0.0
 11
32.5
 21
-15.0
 31
0.0
  0
TEXT
  8
BASE
  6
DASHED
 10
27.5
 20
-17.962785
 30
0.0
 40
2.0
  1
5A
 11
27.5
 21
-18.629452
 31
0.0
 73
     1
  0
TEXT
  8
BASE
  6
DASHED
 10
27.5
 20
-27.713025
 30
0.0
 40
2.0
  1
6A
 11
27.5
 21
-28.379691
 31
0.0
 73
     1
  0
LINE
  8
BASE
  6
CONTINUOUS
 10
24.449137
 20
-25.0
 30
0.0
 11
32.5
 21
-25.0
 31
0.0
  0
LINE
  8
BASE
  6
CONTINUOUS
 10
24.449137
 20
-35.0
 30
0.0
 11
32.5
 21
-35.0
 31
0.0
  0
TEXT
  8
BASE
  6
DASHED
 10
27.5
 20
-37.666667
 30
0.0
 40
2.0
  1
7A
 11
27.5
 21
-38.333333
 31
0.0
 73
     1
  0
LINE
  8
BASE
  6
CONTINUOUS
 10
24.449137
 20
-45.0
 30
0.0
 11
32.5
 21
-45.0
 31
0.0
  0
TEXT
  8
BASE
  6
DASHED
 10
27.5
 20
-47.954121
 30
0.0
 40
2.0
  1
8A
 11
27.5
 21
-48.620787
 31
0.0
 73
     1
  0
LINE
  8
BASE
  6
CONTINUOUS
 10
24.449137
 20
-55.0
 30
0.0
 11
32.5
 21
-55.0
 31
0.0
  0
TEXT
  8
BASE
  6
CONTINUOUS
 10
27.5
 20
-57.948605
 30
0.0
 40
2.0
  1
9A
  0
LINE
  8
BASE
  6
CONTINUOUS
 10
24.449137
 20
-65.0
 30
0.0
 11
32.5
 21
-65.0
 31
0.0
  0
TEXT
  8
BASE
  6
CONTINUOUS
 10
27.5
 20
-67.74244
 30
0.0
 40
2.0
  1
10A
  0
ENDBLK
  8
0
  0
BLOCK
  8
0
  2
B102
 70
     0
 10
0.0
 20
0.0
 30
0.0
  3
B102
  0
TEXT
  8
BASE
  6
CONTINUOUS
 10
18.519596
 20
-15.712155
 30
0.0
 40
2.0
  1
101
 50
90.0
  0
TEXT
  8
BASE
  6
CONTINUOUS
 10
-1.480404
 20
-15.712155
 30
0.0
 40
2.0
  1
101
 50
90.0
  0
TEXT
  8
BASE
  6
CONTINUOUS
 10
30.710796
 20
-24.069736
 30
0.0
 40
2.0
  1
18A
 50
90.0
  0
TEXT
  8
BASE
  6
CONTINUOUS
 10
23.042942
 20
-24.069736
 30
0.0
 40
2.0
  1
1A
 50
90.0
  0
TEXT
  8
BASE
  6
CONTINUOUS
 10
13.078553
 20
-24.069736
 30
0.0
 40
2.0
  1
2A
 50
90.0
  0
TEXT
  8
BASE
  6
CONTINUOUS
 10
2.77957
 20
-24.069736
 30
0.0
 40
2.0
  1
13A
 50
90.0
  0
LINE
  8
BASE
  6
CONTINUOUS
 10
27.5
 20
-17.5
 30
0.0
 11
27.5
 21
-25.0
 31
0.0
  0
LINE
  8
BASE
  6
CONTINUOUS
 10
27.5
 20
-5.0
 30
0.0
 11
27.5
 21
-10.0
 31
0.0
  0
LINE
  8
BASE
  6
CONTINUOUS
 10
11.365905
 20
-4.186459
 30
0.0
 11
11.365905
 21
-2.499494
 31
0.0
  0
LINE
  8
BASE
  6
CONTINUOUS
 10
11.365905
 20
-2.499494
 30
0.0
 11
13.033279
 21
-2.499494
 31
0.0
  0
LINE
  8
BASE
  6
CONTINUOUS
 10
13.033279
 20
-2.499494
 30
0.0
 11
13.033279
 21
-4.186459
 31
0.0
  0
LINE
  8
BASE
  6
CONTINUOUS
 10
13.033279
 20
-4.186459
 30
0.0
 11
11.365905
 21
-4.186459
 31
0.0
  0
LINE
  8
BASE
  6
CONTINUOUS
 10
2.615221
 20
-2.655356
 30
0.0
 11
0.947848
 21
-2.655356
 31
0.0
  0
LINE
  8
BASE
  6
CONTINUOUS
 10
2.615221
 20
-0.968391
 30
0.0
 11
2.615221
 21
-2.655356
 31
0.0
  0
LINE
  8
BASE
  6
CONTINUOUS
 10
0.947848
 20
-0.968391
 30
0.0
 11
2.615221
 21
-0.968391
 31
0.0
  0
LINE
  8
BASE
  6
CONTINUOUS
 10
0.947848
 20
-2.655356
 30
0.0
 11
0.947848
 21
-0.968391
 31
0.0
  0
TEXT
  8
BASE
  6
DASHED
 10
30.718527
 20
-8.15218
 30
0.0
 40
2.0
  1
18B-
 50
90.0
  0
TEXT
  8
BASE
  6
DASHED
 10
23.045377
 20
-8.15218
 30
0.0
 40
2.0
  1
1B+
 50
90.0
  0
TEXT
  8
BASE
  6
DASHED
 10
13.214777
 20
-8.15218
 30
0.0
 40
2.0
  1
2B
 50
90.0
  0
TEXT
  8
BASE
  6
DASHED
 10
2.775535
 20
-8.15218
 30
0.0
 40
2.0
  1
13B
 50
90.0
  0
LINE
  8
BASE
  6
DASHED
 10
15.0
 20
0.0
 30
0.0
 11
15.0
 21
-25.0
 31
0.0
  0
POLYLINE
  8
BASE
  6
CONTINUOUS
 66
     1
 10
0.0
 20
0.0
 30
0.0
 70
     1
 40
0.25
 41
0.25
 71
     2
 72
   151
  0
VERTEX
  8
BASE
  6
CONTINUOUS
 10
9.625
 20
-5.0
 30
0.0
 42
1.0
  0
VERTEX
  8
BASE
  6
CONTINUOUS
 10
10.375
 20
-5.0
 30
0.0
 42
1.0
  0
SEQEND
  8
BASE
  6
CONTINUOUS
  0
LINE
  8
BASE
  6
CONTINUOUS
 10
5.0
 20
-5.0
 30
0.0
 11
10.0
 21
-5.0
 31
0.0
  0
LINE
  8
BASE
  6
CONTINUOUS
 10
5.0
 20
0.0
 30
0.0
 11
5.0
 21
-5.0
 31
0.0
  0
LINE
  8
BASE
  6
CONTINUOUS
 10
20.0
 20
0.0
 30
0.0
 11
20.0
 21
-10.0
 31
0.0
  0
CIRCLE
  8
BASE
  6
CONTINUOUS
 10
20.0
 20
-16.758945
 30
0.0
 40
0.740939
  0
LINE
  8
BASE
  6
CONTINUOUS
 10
20.0
 20
-17.5
 30
0.0
 11
20.0
 21
-25.0
 31
0.0
  0
LINE
  8
BASE
  6
CONTINUOUS
 10
0.0
 20
-17.5
 30
0.0
 11
0.0
 21
-25.0
 31
0.0
  0
CIRCLE
  8
BASE
  6
CONTINUOUS
 10
0.0
 20
-16.758945
 30
0.0
 40
0.740939
  0
LINE
  8
BASE
  6
CONTINUOUS
 10
-0.006589
 20
-16.018035
 30
0.0
 11
2.434804
 21
-9.337159
 31
0.0
  0
LINE
  8
BASE
  6
CONTINUOUS
 10
0.0
 20
-10.0
 30
0.0
 11
2.765661
 21
-10.0
 31
0.0
  0
LINE
  8
BASE
  6
CONTINUOUS
 10
2.434804
 20
-9.337159
 30
0.0
 11
1.549106
 21
-8.892266
 31
0.0
  0
LINE
  8
BASE
  6
CONTINUOUS
 10
0.0
 20
0.0
 30
0.0
 11
0.0
 21
-10.0
 31
0.0
  0
LINE
  8
BASE
  6
CONTINUOUS
 10
10.0
 20
-17.5
 30
0.0
 11
10.0
 21
-25.0
 31
0.0
  0
CIRCLE
  8
BASE
  6
CONTINUOUS
 10
10.0
 20
-16.758945
 30
0.0
 40
0.740939
  0
LINE
  8
BASE
  6
CONTINUOUS
 10
10.0
 20
0.0
 30
0.0
 11
10.0
 21
-10.0
 31
0.0
  0
LINE
  8
BASE
  6
CONTINUOUS
 10
9.993411
 20
-16.018035
 30
0.0
 11
12.434804
 21
-9.337159
 31
0.0
  0
LINE
  8
BASE
  6
CONTINUOUS
 10
10.0
 20
-10.0
 30
0.0
 11
12.765661
 21
-10.0
 31
0.0
  0
LINE
  8
BASE
  6
CONTINUOUS
 10
22.434804
 20
-9.337159
 30
0.0
 11
21.549106
 21
-8.892266
 31
0.0
  0
LINE
  8
BASE
  6
CONTINUOUS
 10
20.0
 20
-10.0
 30
0.0
 11
22.765661
 21
-10.0
 31
0.0
  0
LINE
  8
BASE
  6
CONTINUOUS
 10
19.993411
 20
-16.018035
 30
0.0
 11
22.434804
 21
-9.337159
 31
0.0
  0
LINE
  8
BASE
  6
CONTINUOUS
 10
27.493411
 20
-16.018035
 30
0.0
 11
29.934804
 21
-9.337159
 31
0.0
  0
LINE
  8
BASE
  6
CONTINUOUS
 10
27.5
 20
-10.0
 30
0.0
 11
30.265661
 21
-10.0
 31
0.0
  0
LINE
  8
BASE
  6
CONTINUOUS
 10
29.934804
 20
-9.337159
 30
0.0
 11
29.049106
 21
-8.892266
 31
0.0
  0
CIRCLE
  8
BASE
  6
CONTINUOUS
 10
27.5
 20
-16.758945
 30
0.0
 40
0.740939
  0
ENDBLK
  8
0
  0
BLOCK
  8
0
  2
B22
 70
     0
 10
0.0
 20
0.0
 30
0.0
  3
B22
  0
CIRCLE
  8
BASE
  6
CONTINUOUS
 10
-2.949561
 20
-1.638589
 30
0.0
 40
0.705054
  0
CIRCLE
  8
BASE
  6
CONTINUOUS
 10
-2.949561
 20
-1.638589
 30
0.0
 40
1.252595
  0
LINE
  8
BASE
  6
CONTINUOUS
 10
-10.000117
 20
0.000025
 30
0.0
 11
0.011081
 21
0.000025
 31
0.0
  0
LINE
  8
BASE
  6
CONTINUOUS
 10
-27.5
 20
-0.008493
 30
0.0
 11
-17.5
 21
-0.008493
 31
0.0
  0
LINE
  8
BASE
  6
CONTINUOUS
 10
-11.481965
 20
-0.006589
 30
0.0
 11
-18.162841
 21
2.434804
 31
0.0
  0
LINE
  8
BASE
  6
CONTINUOUS
 10
-17.5
 20
-0.008493
 30
0.0
 11
-17.5
 21
2.765661
 31
0.0
  0
LINE
  8
BASE
  6
CONTINUOUS
 10
-18.162841
 20
2.434804
 30
0.0
 11
-18.607734
 21
1.549106
 31
0.0
  0
CIRCLE
  8
BASE
  6
CONTINUOUS
 10
-10.741055
 20
0.0
 30
0.0
 40
0.740939
  0
ENDBLK
  8
0
  0
BLOCK
  8
0
  2
B37
 70
     0
 10
0.0
 20
0.0
 30
0.0
  3
B37
  0
LINE
  8
BASE
  6
CONTINUOUS
 10
-0.006589
 20
-6.018035
 30
0.0
 11
2.434804
 21
0.662841
 31
0.0
  0
LINE
  8
BASE
  6
CONTINUOUS
 10
0.0
 20
0.0
 30
0.0
 11
2.765661
 21
0.0
 31
0.0
  0
LINE
  8
BASE
  6
CONTINUOUS
 10
2.434804
 20
0.662841
 30
0.0
 11
1.549106
 21
1.107734
 31
0.0
  0
CIRCLE
  8
BASE
  6
CONTINUOUS
 10
0.0
 20
-6.758945
 30
0.0
 40
0.740939
  0
ENDBLK
  8
0
  0
BLOCK
  8
0
  2
TRIP
 70
     0
 10
0.0
 20
0.0
 30
0.0
  3
TRIP
  0
CIRCLE
  8
BASE
  6
CONTINUOUS
 10
7.050439
 20
0.158717
 30
0.0
 40
1.444379
  0
CIRCLE
  8
BASE
  6
CONTINUOUS
 10
7.050439
 20
0.158717
 30
0.0
 40
0.680519
  0
ENDBLK
  8
0
  0
BLOCK
  8
0
  2
B60
 70
     0
 10
0.0
 20
0.0
 30
0.0
  3
B60
  0
LINE
  8
BASE
  6
CONTINUOUS
 10
-1.897097
 20
1.443746
 30
0.0
 11
-2.963522
 21
2.510171
 31
0.0
  0
LINE
  8
BASE
  6
CONTINUOUS
 10
-0.830672
 20
2.510171
 30
0.0
 11
-1.897097
 21
1.443746
 31
0.0
  0
LINE
  8
BASE
  6
CONTINUOUS
 10
-1.897097
 20
3.576595
 30
0.0
 11
-0.830672
 21
2.510171
 31
0.0
  0
LINE
  8
BASE
  6
CONTINUOUS
 10
-2.963522
 20
2.510171
 30
0.0
 11
-1.897097
 21
3.576595
 31
0.0
  0
ENDBLK
  8
0
  0
BLOCK
  8
0
  2
B76
 70
     0
 10
0.0
 20
0.0
 30
0.0
  3
B76
  0
TEXT
  8
0
  6
CONTINUOUS
 10
2.313043
 20
-6.247749
 30
0.0
 40
2.0
  1
108 SPAA 323 C
  0
TEXT
  8
0
  6
CONTINUOUS
 10
2.313043
 20
-2.914415
 30
0.0
 40
2.0
  1
101 RTXP 18
  0
TEXT
  8
0
  6
CONTINUOUS
 10
31.078259
 20
8.874636
 30
0.0
 40
2.0
  1
4S
  0
TEXT
  8
0
  6
CONTINUOUS
 10
17.337199
 20
18.848324
 30
0.0
 40
2.0
  1
42C
  0
TEXT
  8
0
  6
CONTINUOUS
 10
2.5
 20
15.0
 30
0.0
 40
2.0
  1
101  108
  0
LINE
  8
0
  6
CONTINUOUS
 10
10.0
 20
17.5
 30
0.0
 11
10.0
 21
0.0
 31
0.0
  0
LINE
  8
0
  6
CONTINUOUS
 10
7.5
 20
17.5
 30
0.0
 11
7.5
 21
0.0
 31
0.0
  0
LINE
  8
0
  6
CONTINUOUS
 10
0.0
 20
0.0
 30
0.0
 11
0.0
 21
17.5
 31
0.0
  0
LINE
  8
0
  6
CONTINUOUS
 10
30.0
 20
0.0
 30
0.0
 11
0.0
 21
0.0
 31
0.0
  0
LINE
  8
0
  6
CONTINUOUS
 10
30.0
 20
17.5
 30
0.0
 11
30.0
 21
0.0
 31
0.0
  0
LINE
  8
0
  6
CONTINUOUS
 10
0.0
 20
17.5
 30
0.0
 11
30.0
 21
17.5
 31
0.0
  0
ENDBLK
  8
0
  0
BLOCK
  8
0
  2
B62
 70
     0
 10
0.0
 20
0.0
 30
0.0
  3
B62
  0
TEXT
  8
0
  6
CONTINUOUS
 10
4.985331
 20
2.349187
 30
0.0
 40
2.0
  1
30
  0
TEXT
  8
0
  6
CONTINUOUS
 10
-8.994445
 20
2.349187
 30
0.0
 40
2.0
  1
29
  0
TEXT
  8
0
  6
CONTINUOUS
 10
2.016307
 20
5.688158
 30
0.0
 40
2.0
  1
Un=110V
  0
TEXT
  8
0
  6
CONTINUOUS
 10
-13.321163
 20
5.688158
 30
0.0
 40
2.0
  1
Un=100V 
  0
TEXT
  8
0
  6
CONTINUOUS
 10
-8.994445
 20
9.394523
 30
0.0
 40
2.0
  1
27     26
  0
TEXT
  8
0
  6
CONTINUOUS
 10
-22.093957
 20
2.344018
 30
0.0
 40
2.0
  1
11B
  0
TEXT
  8
0
  6
CONTINUOUS
 10
-22.093957
 20
9.394523
 30
0.0
 40
2.0
  1
9B
  0
LINE
  8
0
  6
CONTINUOUS
 10
16.00882
 20
5.061425
 30
0.0
 11
-13.99118
 21
5.061425
 31
0.0
  0
LINE
  8
0
  6
CONTINUOUS
 10
-13.99118
 20
8.559785
 30
0.0
 11
16.00882
 21
8.559785
 31
0.0
  0
TEXT
  8
0
  6
CONTINUOUS
 10
3.98571
 20
13.34942
 30
0.0
 40
2.0
  1
In=1A
  0
TEXT
  8
0
  6
CONTINUOUS
 10
-12.94817
 20
13.34942
 30
0.0
 40
2.0
  1
In=0,2A  
  0
LINE
  8
0
  6
CONTINUOUS
 10
16.00882
 20
12.733493
 30
0.0
 11
-13.99118
 21
12.733493
 31
0.0
  0
LINE
  8
0
  6
CONTINUOUS
 10
-13.99118
 20
16.231853
 30
0.0
 11
16.00882
 21
16.231853
 31
0.0
  0
TEXT
  8
0
  6
CONTINUOUS
 10
-22.019359
 20
17.126256
 30
0.0
 40
2.0
  1
7B     9      8
  0
TEXT
  8
0
  6
CONTINUOUS
 10
-22.019359
 20
20.157029
 30
0.0
 40
2.0
  1
5B     6      5
  0
LINE
  8
0
 10
16.00882
 20
38.671798
 30
0.0
 11
-27.99118
 21
38.671798
 31
0.0
  0
LINE
  8
0
 10
-27.99118
 20
38.671798
 30
0.0
 11
-27.99118
 21
1.518405
 31
0.0
  0
LINE
  8
0
 10
-27.99118
 20
1.518405
 30
0.0
 11
16.00882
 21
1.518405
 31
0.0
  0
LINE
  8
0
 10
16.00882
 20
1.518405
 30
0.0
 11
16.00882
 21
38.671798
 31
0.0
  0
LINE
  8
0
 10
-27.99118
 20
32.671798
 30
0.0
 11
16.00882
 21
32.671798
 31
0.0
  0
LINE
  8
0
 10
-13.99118
 20
32.671798
 30
0.0
 11
-13.99118
 21
1.518405
 31
0.0
  0
LINE
  8
0
 10
-13.99118
 20
29.171798
 30
0.0
 11
16.00882
 21
29.171798
 31
0.0
  0
LINE
  8
0
 10
0.00882
 20
29.171798
 30
0.0
 11
0.00882
 21
1.518405
 31
0.0
  0
LINE
  8
0
 10
-27.99118
 20
25.671798
 30
0.0
 11
16.00882
 21
25.671798
 31
0.0
  0
TEXT
  8
0
 10
-21.99118
 20
33.338465
 30
0.0
 40
2.0
  1
TERMINALS / UTTAG
 11
-21.99118
 21
32.671798
 31
0.0
 73
     1
  0
TEXT
  8
0
 10
-21.99118
 20
29.838465
 30
0.0
 40
2.0
  1
101:       
 11
-21.99118
 21
29.171798
 31
0.0
 73
     1
  0
TEXT
  8
0
 10
-1.99118
 20
29.838465
 30
0.0
 40
2.0
  1
108:
 11
-1.99118
 21
29.171798
 31
0.0
 73
     1
  0
TEXT
  8
0
 10
-11.99118
 20
26.338465
 30
0.0
 40
2.0
  1
In=1A 
 11
-11.99118
 21
25.671798
 31
0.0
 73
     1
  0
TEXT
  8
0
 10
4.00882
 20
26.338465
 30
0.0
 40
2.0
  1
In=5A
 11
4.00882
 21
25.671798
 31
0.0
 73
     1
  0
TEXT
  8
0
 10
-21.99118
 20
22.96825
 30
0.0
 40
2.0
  1
3B     3      2
 11
-21.99118
 21
22.301583
 31
0.0
 73
     1
  0
ENDBLK
  8
0
  0
BLOCK
  8
0
  2
B1018
 70
     0
 10
0.0
 20
0.0
 30
0.0
  3
B1018
  0
CIRCLE
  8
0
  6
CONTINUOUS
 10
-2.434747
 20
-0.088862
 30
0.0
 40
3.00182
  0
ENDBLK
  8
0
  0
BLOCK
  8
0
  2
B100
 70
     0
 10
0.0
 20
0.0
 30
0.0
  3
B100
  0
POLYLINE
  8
0
  6
CONTINUOUS
 66
     1
 10
0.0
 20
0.0
 30
0.0
 70
     1
 40
0.5
 41
0.5
 71
     2
 72
   151
  0
VERTEX
  8
0
  6
CONTINUOUS
 10
-35.5
 20
-154.810016
 30
0.0
 42
1.0
  0
VERTEX
  8
0
  6
CONTINUOUS
 10
-34.5
 20
-154.810016
 30
0.0
 42
1.0
  0
SEQEND
  8
0
  6
CONTINUOUS
  0
LINE
  8
0
  6
CONTINUOUS
 10
-40.0
 20
-102.5
 30
0.0
 11
-50.0
 21
-102.5
 31
0.0
  0
LINE
  8
0
  6
CONTINUOUS
 10
-35.492195
 20
-101.580627
 30
0.0
 11
-40.0
 21
-101.580627
 31
0.0
  0
LINE
  8
0
  6
CONTINUOUS
 10
-35.492195
 20
-103.419373
 30
0.0
 11
-35.492195
 21
-101.580627
 31
0.0
  0
LINE
  8
0
  6
CONTINUOUS
 10
-40.0
 20
-103.419373
 30
0.0
 11
-35.492195
 21
-103.419373
 31
0.0
  0
LINE
  8
0
  6
CONTINUOUS
 10
-40.0
 20
-101.580627
 30
0.0
 11
-40.0
 21
-103.419373
 31
0.0
  0
LINE
  8
0
  6
DASHED
 10
-45.0
 20
-105.0
 30
0.0
 11
-45.0
 21
-102.5
 31
0.0
  0
LINE
  8
0
  6
DASHED
 10
-65.0
 20
-105.0
 30
0.0
 11
-45.0
 21
-105.0
 31
0.0
  0
LINE
  8
0
  6
DASHED
 10
-65.0
 20
-97.5
 30
0.0
 11
-65.0
 21
-105.0
 31
0.0
  0
LINE
  8
0
  6
DASHED
 10
-75.0
 20
-97.5
 30
0.0
 11
-65.0
 21
-97.5
 31
0.0
  0
LINE
  8
0
  6
DASHED
 10
-49.810016
 20
-107.5
 30
0.0
 11
-49.810016
 21
-102.5
 31
0.0
  0
INSERT
  8
0
  6
DASHED
  2
BLC15
 10
-52.91466
 20
-102.357913
 30
0.0
 50
270.0
  0
INSERT
  8
0
  6
CONTINUOUS
  2
BLC27
 10
-47.381569
 20
-100.995615
 30
0.0
 41
-1.0
 50
90.0
  0
POLYLINE
  8
0
  6
CONTINUOUS
 66
     1
 10
0.0
 20
0.0
 30
0.0
 70
     1
 40
0.5
 41
0.5
 71
     2
 72
   151
  0
VERTEX
  8
0
  6
CONTINUOUS
 10
-25.5
 20
-102.5
 30
0.0
 42
1.0
  0
VERTEX
  8
0
  6
CONTINUOUS
 10
-24.5
 20
-102.5
 30
0.0
 42
1.0
  0
SEQEND
  8
0
  6
CONTINUOUS
  0
POLYLINE
  8
0
  6
CONTINUOUS
 66
     1
 10
0.0
 20
0.0
 30
0.0
 70
     1
 40
0.5
 41
0.5
 71
     2
 72
   151
  0
VERTEX
  8
0
  6
CONTINUOUS
 10
-30.5
 20
-102.5
 30
0.0
 42
1.0
  0
VERTEX
  8
0
  6
CONTINUOUS
 10
-29.5
 20
-102.5
 30
0.0
 42
1.0
  0
SEQEND
  8
0
  6
CONTINUOUS
  0
LINE
  8
0
  6
CONTINUOUS
 10
-30.0
 20
-102.5
 30
0.0
 11
-30.0
 21
-105.956928
 31
0.0
  0
LINE
  8
0
  6
CONTINUOUS
 10
-20.0
 20
-102.5
 30
0.0
 11
-35.492195
 21
-102.5
 31
0.0
  0
LINE
  8
0
  6
DASHED
 10
-45.0
 20
-95.0
 30
0.0
 11
-45.0
 21
-90.0
 31
0.0
  0
LINE
  8
0
  6
DASHED
 10
-65.0
 20
-82.5
 30
0.0
 11
-75.0
 21
-82.5
 31
0.0
  0
LINE
  8
0
  6
DASHED
 10
-49.810016
 20
-94.983152
 30
0.0
 11
-49.810016
 21
-92.5
 31
0.0
  0
LINE
  8
0
  6
DASHED
 10
-65.0
 20
-90.0
 30
0.0
 11
-65.0
 21
-82.5
 31
0.0
  0
LINE
  8
0
  6
DASHED
 10
-45.0
 20
-90.0
 30
0.0
 11
-65.0
 21
-90.0
 31
0.0
  0
INSERT
  8
0
  6
CONTINUOUS
  2
BLC27
 10
-47.381569
 20
-96.491155
 30
0.0
 50
90.0
  0
TEXT
  8
0
  6
DASHED
 10
-78.182113
 20
-96.400894
 30
0.0
 40
2.0
  1
6)
  7
ROMANS
  0
LINE
  8
0
  6
CONTINUOUS
 10
-79.0
 20
-96.0
 30
0.0
 11
-80.0
 21
-95.0
 31
0.0
  0
LINE
  8
0
  6
CONTINUOUS
 10
-79.0
 20
-103.0
 30
0.0
 11
-80.0
 21
-104.0
 31
0.0
  0
LINE
  8
0
  6
CONTINUOUS
 10
-79.0
 20
-96.0
 30
0.0
 11
-79.0
 21
-103.0
 31
0.0
  0
LINE
  8
0
  6
CONTINUOUS
 10
-75.0
 20
-97.5
 30
0.0
 11
-79.0
 21
-97.5
 31
0.0
  0
LINE
  8
0
  6
CONTINUOUS
 10
-85.0
 20
-102.5
 30
0.0
 11
-80.733529
 21
-102.5
 31
0.0
  0
LINE
  8
0
  6
CONTINUOUS
 10
-85.0
 20
-97.5
 30
0.0
 11
-80.733529
 21
-97.5
 31
0.0
  0
LINE
  8
0
  6
DASHED
 10
-85.0
 20
-107.5
 30
0.0
 11
-49.810016
 21
-107.5
 31
0.0
  0
LINE
  8
0
  6
DASHED
 10
-85.0
 20
-92.5
 30
0.0
 11
-49.810016
 21
-92.5
 31
0.0
  0
LINE
  8
0
  6
CONTINUOUS
 10
-85.0
 20
-82.5
 30
0.0
 11
-80.733529
 21
-82.5
 31
0.0
  0
LINE
  8
0
  6
CONTINUOUS
 10
-85.0
 20
-87.5
 30
0.0
 11
-80.733529
 21
-87.5
 31
0.0
  0
LINE
  8
0
  6
CONTINUOUS
 10
-75.0
 20
-82.5
 30
0.0
 11
-79.0
 21
-82.5
 31
0.0
  0
LINE
  8
0
  6
CONTINUOUS
 10
-79.0
 20
-81.0
 30
0.0
 11
-79.0
 21
-88.0
 31
0.0
  0
LINE
  8
0
  6
CONTINUOUS
 10
-79.0
 20
-88.0
 30
0.0
 11
-80.0
 21
-89.0
 31
0.0
  0
LINE
  8
0
  6
CONTINUOUS
 10
-79.0
 20
-81.0
 30
0.0
 11
-80.0
 21
-80.0
 31
0.0
  0
TEXT
  8
0
  6
DASHED
 10
-78.182113
 20
-81.400894
 30
0.0
 40
2.0
  1
6)
  7
ROMANS
  0
POLYLINE
  8
0
  6
CONTINUOUS
 66
     1
 10
0.0
 20
0.0
 30
0.0
 70
     1
 40
0.5
 41
0.5
 71
     2
 72
   151
  0
VERTEX
  8
0
  6
CONTINUOUS
 10
-35.5
 20
-137.310016
 30
0.0
 42
1.0
  0
VERTEX
  8
0
  6
CONTINUOUS
 10
-34.5
 20
-137.310016
 30
0.0
 42
1.0
  0
SEQEND
  8
0
  6
CONTINUOUS
  0
POLYLINE
  8
0
  6
CONTINUOUS
 66
     1
 10
0.0
 20
0.0
 30
0.0
 70
     1
 40
0.5
 41
0.5
 71
     2
 72
   151
  0
VERTEX
  8
0
  6
CONTINUOUS
 10
-35.5
 20
-160.0
 30
0.0
 42
1.0
  0
VERTEX
  8
0
  6
CONTINUOUS
 10
-34.5
 20
-160.0
 30
0.0
 42
1.0
  0
SEQEND
  8
0
  6
CONTINUOUS
  0
POLYLINE
  8
0
  6
CONTINUOUS
 66
     1
 10
0.0
 20
0.0
 30
0.0
 70
     1
 40
0.5
 41
0.5
 71
     2
 72
   151
  0
VERTEX
  8
0
  6
CONTINUOUS
 10
-68.0
 20
-160.0
 30
0.0
 42
1.0
  0
VERTEX
  8
0
  6
CONTINUOUS
 10
-67.0
 20
-160.0
 30
0.0
 42
1.0
  0
SEQEND
  8
0
  6
CONTINUOUS
  0
POLYLINE
  8
0
  6
CONTINUOUS
 66
     1
 10
0.0
 20
0.0
 30
0.0
 70
     1
 40
0.5
 41
0.5
 71
     2
 72
   151
  0
VERTEX
  8
0
  6
CONTINUOUS
 10
-68.0
 20
-142.5
 30
0.0
 42
1.0
  0
VERTEX
  8
0
  6
CONTINUOUS
 10
-67.0
 20
-142.5
 30
0.0
 42
1.0
  0
SEQEND
  8
0
  6
CONTINUOUS
  0
POLYLINE
  8
0
  6
CONTINUOUS
 66
     1
 10
0.0
 20
0.0
 30
0.0
 70
     1
 40
0.5
 41
0.5
 71
     2
 72
   151
  0
VERTEX
  8
0
  6
CONTINUOUS
 10
-25.5
 20
-95.0
 30
0.0
 42
1.0
  0
VERTEX
  8
0
  6
CONTINUOUS
 10
-24.5
 20
-95.0
 30
0.0
 42
1.0
  0
SEQEND
  8
0
  6
CONTINUOUS
  0
POLYLINE
  8
0
  6
CONTINUOUS
 66
     1
 10
0.0
 20
0.0
 30
0.0
 70
     1
 40
0.5
 41
0.5
 71
     2
 72
   151
  0
VERTEX
  8
0
  6
CONTINUOUS
 10
-30.5
 20
-95.0
 30
0.0
 42
1.0
  0
VERTEX
  8
0
  6
CONTINUOUS
 10
-29.5
 20
-95.0
 30
0.0
 42
1.0
  0
SEQEND
  8
0
  6
CONTINUOUS
  0
POLYLINE
  8
0
  6
CONTINUOUS
 66
     1
 10
0.0
 20
0.0
 30
0.0
 70
     1
 40
0.5
 41
0.5
 71
     2
 72
   151
  0
VERTEX
  8
0
  6
CONTINUOUS
 10
-35.5
 20
-72.310016
 30
0.0
 42
1.0
  0
VERTEX
  8
0
  6
CONTINUOUS
 10
-34.5
 20
-72.310016
 30
0.0
 42
1.0
  0
SEQEND
  8
0
  6
CONTINUOUS
  0
POLYLINE
  8
0
  6
CONTINUOUS
 66
     1
 10
0.0
 20
0.0
 30
0.0
 70
     1
 40
0.5
 41
0.5
 71
     2
 72
   151
  0
VERTEX
  8
0
  6
CONTINUOUS
 10
-35.5
 20
-52.310016
 30
0.0
 42
1.0
  0
VERTEX
  8
0
  6
CONTINUOUS
 10
-34.5
 20
-52.310016
 30
0.0
 42
1.0
  0
SEQEND
  8
0
  6
CONTINUOUS
  0
POLYLINE
  8
0
  6
CONTINUOUS
 66
     1
 10
0.0
 20
0.0
 30
0.0
 70
     1
 40
0.5
 41
0.5
 71
     2
 72
   151
  0
VERTEX
  8
0
  6
CONTINUOUS
 10
-35.5
 20
-77.5
 30
0.0
 42
1.0
  0
VERTEX
  8
0
  6
CONTINUOUS
 10
-34.5
 20
-77.5
 30
0.0
 42
1.0
  0
SEQEND
  8
0
  6
CONTINUOUS
  0
POLYLINE
  8
0
  6
CONTINUOUS
 66
     1
 10
0.0
 20
0.0
 30
0.0
 70
     1
 40
0.5
 41
0.5
 71
     2
 72
   151
  0
VERTEX
  8
0
  6
CONTINUOUS
 10
-65.5
 20
-77.5
 30
0.0
 42
1.0
  0
VERTEX
  8
0
  6
CONTINUOUS
 10
-64.5
 20
-77.5
 30
0.0
 42
1.0
  0
SEQEND
  8
0
  6
CONTINUOUS
  0
POLYLINE
  8
0
  6
CONTINUOUS
 66
     1
 10
0.0
 20
0.0
 30
0.0
 70
     1
 40
0.5
 41
0.5
 71
     2
 72
   151
  0
VERTEX
  8
0
  6
CONTINUOUS
 10
-65.5
 20
-57.5
 30
0.0
 42
1.0
  0
VERTEX
  8
0
  6
CONTINUOUS
 10
-64.5
 20
-57.5
 30
0.0
 42
1.0
  0
SEQEND
  8
0
  6
CONTINUOUS
  0
TEXT
  8
0
  6
DASHED
 10
-21.582472
 20
-7.5
 30
0.0
 40
2.0
  1
L3
  7
GREEKS
  0
TEXT
  8
0
  6
DASHED
 10
-26.658553
 20
-7.5
 30
0.0
 40
2.0
  1
L2
  7
GREEKS
  0
TEXT
  8
0
  6
DASHED
 10
-31.262935
 20
-7.5
 30
0.0
 40
2.0
  1
L1
  7
GREEKS
  0
TEXT
  8
0
  6
DASHED
 10
-21.98418
 20
-12.5
 30
0.0
 40
2.0
  1
(T)
  7
GREEKS
  0
TEXT
  8
0
  6
DASHED
 10
-27.003959
 20
-12.5
 30
0.0
 40
2.0
  1
(S)
  7
GREEKS
  0
TEXT
  8
0
  6
DASHED
 10
-31.917226
 20
-12.5
 30
0.0
 40
2.0
  1
(R)
  7
GREEKS
  0
TEXT
  8
0
  6
DASHED
 10
-59.767196
 20
-171.013874
 30
0.0
 40
2.0
  1
5)
  7
ROMANS
  0
LINE
  8
0
  6
DASHED
 10
-80.0
 20
-170.0
 30
0.0
 11
-62.5
 21
-170.0
 31
0.0
  0
TEXT
  8
0
  6
DASHED
 10
-78.182113
 20
-148.900894
 30
0.0
 40
2.0
  1
6)
  7
ROMANS
  0
TEXT
  8
0
  6
DASHED
 10
-78.182113
 20
-131.400894
 30
0.0
 40
2.0
  1
6)
  7
ROMANS
  0
TEXT
  8
0
  6
DASHED
 10
-78.182113
 20
-111.400894
 30
0.0
 40
2.0
  1
6)
  7
ROMANS
  0
TEXT
  8
0
  6
DASHED
 10
-78.182113
 20
-66.400894
 30
0.0
 40
2.0
  1
6)
  7
ROMANS
  0
TEXT
  8
0
  6
DASHED
 10
-78.182113
 20
-46.400894
 30
0.0
 40
2.0
  1
6)
  7
ROMANS
  0
TEXT
  8
0
  6
DASHED
 10
-78.182113
 20
-28.900894
 30
0.0
 40
2.0
  1
6)
  7
ROMANS
  0
INSERT
  8
0
  6
DASHED
  2
BLC15
 10
-52.91466
 20
-94.857913
 30
0.0
 50
270.0
  0
LINE
  8
0
  6
DASHED
 10
-85.0
 20
-160.0
 30
0.0
 11
-35.0
 21
-160.0
 31
0.0
  0
INSERT
  8
0
  6
DASHED
  2
BLC15
 10
-35.142087
 20
-164.195026
 30
0.0
  0
LINE
  8
0
  6
DASHED
 10
-35.0
 20
-122.310008
 30
0.0
 11
-35.0
 21
-160.0
 31
0.0
  0
LINE
  8
0
  6
DASHED
 10
-62.5
 20
-150.0
 30
0.0
 11
-75.0
 21
-150.0
 31
0.0
  0
LINE
  8
0
  6
DASHED
 10
-20.0
 20
-150.0
 30
0.0
 11
-62.5
 21
-150.0
 31
0.0
  0
LINE
  8
0
  6
DASHED
 10
-47.5
 20
-132.5
 30
0.0
 11
-75.0
 21
-132.5
 31
0.0
  0
LINE
  8
0
  6
DASHED
 10
-25.0
 20
-132.5
 30
0.0
 11
-47.5
 21
-132.5
 31
0.0
  0
LINE
  8
0
  6
DASHED
 10
-35.0
 20
-112.5
 30
0.0
 11
-75.0
 21
-112.5
 31
0.0
  0
LINE
  8
0
  6
DASHED
 10
-35.0
 20
-117.5
 30
0.0
 11
-35.0
 21
-112.5
 31
0.0
  0
LINE
  8
0
  6
DASHED
 10
-30.0
 20
-117.5
 30
0.0
 11
-35.0
 21
-117.5
 31
0.0
  0
LINE
  8
0
  6
CONTINUOUS
 10
-79.0
 20
-148.5
 30
0.0
 11
-80.0
 21
-147.5
 31
0.0
  0
LINE
  8
0
  6
CONTINUOUS
 10
-79.0
 20
-148.5
 30
0.0
 11
-79.0
 21
-155.5
 31
0.0
  0
LINE
  8
0
  6
CONTINUOUS
 10
-79.0
 20
-155.5
 30
0.0
 11
-80.0
 21
-156.5
 31
0.0
  0
LINE
  8
0
  6
CONTINUOUS
 10
-75.0
 20
-132.5
 30
0.0
 11
-79.0
 21
-132.5
 31
0.0
  0
LINE
  8
0
  6
CONTINUOUS
 10
-75.0
 20
-150.0
 30
0.0
 11
-79.0
 21
-150.0
 31
0.0
  0
LINE
  8
0
  6
CONTINUOUS
 10
-79.0
 20
-138.0
 30
0.0
 11
-80.0
 21
-139.0
 31
0.0
  0
LINE
  8
0
  6
CONTINUOUS
 10
-79.0
 20
-131.0
 30
0.0
 11
-79.0
 21
-138.0
 31
0.0
  0
LINE
  8
0
  6
CONTINUOUS
 10
-79.0
 20
-131.0
 30
0.0
 11
-80.0
 21
-130.0
 31
0.0
  0
LINE
  8
0
  6
CONTINUOUS
 10
-79.0
 20
-111.0
 30
0.0
 11
-80.0
 21
-110.0
 31
0.0
  0
LINE
  8
0
  6
CONTINUOUS
 10
-79.0
 20
-118.0
 30
0.0
 11
-80.0
 21
-119.0
 31
0.0
  0
LINE
  8
0
  6
CONTINUOUS
 10
-79.0
 20
-111.0
 30
0.0
 11
-79.0
 21
-118.0
 31
0.0
  0
LINE
  8
0
  6
CONTINUOUS
 10
-75.0
 20
-112.5
 30
0.0
 11
-79.0
 21
-112.5
 31
0.0
  0
LINE
  8
0
  6
CONTINUOUS
 10
-85.0
 20
-155.0
 30
0.0
 11
-80.733529
 21
-155.0
 31
0.0
  0
LINE
  8
0
  6
CONTINUOUS
 10
-85.0
 20
-150.0
 30
0.0
 11
-80.733529
 21
-150.0
 31
0.0
  0
LINE
  8
0
  6
CONTINUOUS
 10
-85.0
 20
-137.5
 30
0.0
 11
-80.733529
 21
-137.5
 31
0.0
  0
LINE
  8
0
  6
CONTINUOUS
 10
-85.0
 20
-132.5
 30
0.0
 11
-80.733529
 21
-132.5
 31
0.0
  0
LINE
  8
0
  6
CONTINUOUS
 10
-85.0
 20
-117.5
 30
0.0
 11
-80.733529
 21
-117.5
 31
0.0
  0
LINE
  8
0
  6
CONTINUOUS
 10
-85.0
 20
-112.5
 30
0.0
 11
-80.733529
 21
-112.5
 31
0.0
  0
LINE
  8
0
  6
DASHED
 10
-67.5
 20
-122.5
 30
0.0
 11
-67.5
 21
-160.0
 31
0.0
  0
LINE
  8
0
  6
DASHED
 10
-85.0
 20
-142.5
 30
0.0
 11
-67.5
 21
-142.5
 31
0.0
  0
LINE
  8
0
  6
DASHED
 10
-85.0
 20
-122.5
 30
0.0
 11
-67.5
 21
-122.5
 31
0.0
  0
LINE
  8
0
  6
DASHED
 10
-19.993079
 20
-154.810016
 30
0.0
 11
-35.0
 21
-154.810016
 31
0.0
  0
INSERT
  8
0
  6
CONTINUOUS
  2
BLC27
 10
-18.508845
 20
-152.381569
 30
0.0
 50
180.0
  0
LINE
  8
0
  6
DASHED
 10
-24.930203
 20
-137.310016
 30
0.0
 11
-35.0
 21
-137.310016
 31
0.0
  0
INSERT
  8
0
  6
CONTINUOUS
  2
BLC27
 10
-23.508842
 20
-134.88157
 30
0.0
 50
180.0
  0
LINE
  8
0
  6
DASHED
 10
-30.0
 20
-122.310008
 30
0.0
 11
-35.0
 21
-122.310008
 31
0.0
  0
INSERT
  8
0
  6
CONTINUOUS
  2
BLC27
 10
-28.508846
 20
-119.881567
 30
0.0
 50
180.0
  0
LINE
  8
0
  6
DASHED
 10
-30.0
 20
-117.5
 30
0.0
 11
-30.0
 21
-167.5
 31
0.0
  0
LINE
  8
0
  6
DASHED
 10
-25.0
 20
-117.5
 30
0.0
 11
-25.0
 21
-167.5
 31
0.0
  0
LINE
  8
0
  6
DASHED
 10
-20.0
 20
-117.5
 30
0.0
 11
-20.0
 21
-167.5
 31
0.0
  0
LINE
  8
0
  6
CONTINUOUS
 10
-20.0
 20
-105.0
 30
0.0
 11
-20.0
 21
-102.5
 31
0.0
  0
LINE
  8
0
  6
CONTINUOUS
 10
-30.0
 20
-114.477606
 30
0.0
 11
-30.0
 21
-117.5
 31
0.0
  0
ARC
  8
0
  6
CONTINUOUS
 10
-30.0
 20
-107.022013
 30
0.0
 40
1.065085
 50
270.0
 51
90.0
  0
ARC
  8
0
  6
CONTINUOUS
 10
-30.0
 20
-109.152182
 30
0.0
 40
1.065085
 50
270.0
 51
90.0
  0
ARC
  8
0
  6
CONTINUOUS
 10
-30.0
 20
-111.282352
 30
0.0
 40
1.065085
 50
270.0
 51
90.0
  0
ARC
  8
0
  6
CONTINUOUS
 10
-30.0
 20
-113.412521
 30
0.0
 40
1.065085
 50
270.0
 51
90.0
  0
ARC
  8
0
  6
CONTINUOUS
 10
-25.0
 20
-113.412521
 30
0.0
 40
1.065085
 50
270.0
 51
90.0
  0
ARC
  8
0
  6
CONTINUOUS
 10
-25.0
 20
-111.282352
 30
0.0
 40
1.065085
 50
270.0
 51
90.0
  0
ARC
  8
0
  6
CONTINUOUS
 10
-25.0
 20
-109.152182
 30
0.0
 40
1.065085
 50
270.0
 51
90.0
  0
ARC
  8
0
  6
CONTINUOUS
 10
-25.0
 20
-107.022013
 30
0.0
 40
1.065085
 50
270.0
 51
90.0
  0
LINE
  8
0
  6
CONTINUOUS
 10
-25.0
 20
-102.5
 30
0.0
 11
-25.0
 21
-105.956928
 31
0.0
  0
LINE
  8
0
  6
CONTINUOUS
 10
-25.0
 20
-114.477606
 30
0.0
 11
-25.0
 21
-117.5
 31
0.0
  0
LINE
  8
0
  6
CONTINUOUS
 10
-20.0
 20
-114.477606
 30
0.0
 11
-20.0
 21
-117.5
 31
0.0
  0
LINE
  8
0
  6
CONTINUOUS
 10
-20.0
 20
-105.0
 30
0.0
 11
-20.0
 21
-105.956928
 31
0.0
  0
ARC
  8
0
  6
CONTINUOUS
 10
-20.0
 20
-107.022013
 30
0.0
 40
1.065085
 50
270.0
 51
90.0
  0
ARC
  8
0
  6
CONTINUOUS
 10
-20.0
 20
-109.152182
 30
0.0
 40
1.065085
 50
270.0
 51
90.0
  0
ARC
  8
0
  6
CONTINUOUS
 10
-20.0
 20
-111.282352
 30
0.0
 40
1.065085
 50
270.0
 51
90.0
  0
ARC
  8
0
  6
CONTINUOUS
 10
-20.0
 20
-113.412521
 30
0.0
 40
1.065085
 50
270.0
 51
90.0
  0
LINE
  8
0
  6
CONTINUOUS
 10
-30.0
 20
-92.701124
 30
0.0
 11
-30.0
 21
-95.0
 31
0.0
  0
ARC
  8
0
  6
CONTINUOUS
 10
-30.0
 20
-91.636039
 30
0.0
 40
1.065085
 50
270.0
 51
90.0
  0
ARC
  8
0
  6
CONTINUOUS
 10
-30.0
 20
-89.50587
 30
0.0
 40
1.065085
 50
270.0
 51
90.0
  0
ARC
  8
0
  6
CONTINUOUS
 10
-30.0
 20
-87.3757
 30
0.0
 40
1.065085
 50
270.0
 51
90.0
  0
ARC
  8
0
  6
CONTINUOUS
 10
-30.0
 20
-85.245531
 30
0.0
 40
1.065085
 50
270.0
 51
90.0
  0
LINE
  8
0
  6
CONTINUOUS
 10
-30.0
 20
-83.223518
 30
0.0
 11
-30.0
 21
-84.180446
 31
0.0
  0
LINE
  8
0
  6
CONTINUOUS
 10
-25.0
 20
-92.701124
 30
0.0
 11
-25.0
 21
-95.0
 31
0.0
  0
ARC
  8
0
  6
CONTINUOUS
 10
-25.0
 20
-91.636039
 30
0.0
 40
1.065085
 50
270.0
 51
90.0
  0
ARC
  8
0
  6
CONTINUOUS
 10
-25.0
 20
-89.50587
 30
0.0
 40
1.065085
 50
270.0
 51
90.0
  0
ARC
  8
0
  6
CONTINUOUS
 10
-25.0
 20
-87.3757
 30
0.0
 40
1.065085
 50
270.0
 51
90.0
  0
ARC
  8
0
  6
CONTINUOUS
 10
-25.0
 20
-85.245531
 30
0.0
 40
1.065085
 50
270.0
 51
90.0
  0
LINE
  8
0
  6
CONTINUOUS
 10
-25.0
 20
-83.223518
 30
0.0
 11
-25.0
 21
-84.180446
 31
0.0
  0
LINE
  8
0
  6
CONTINUOUS
 10
-20.0
 20
-92.701124
 30
0.0
 11
-20.0
 21
-95.0
 31
0.0
  0
ARC
  8
0
  6
CONTINUOUS
 10
-20.0
 20
-91.636039
 30
0.0
 40
1.065085
 50
270.0
 51
90.0
  0
ARC
  8
0
  6
CONTINUOUS
 10
-20.0
 20
-89.50587
 30
0.0
 40
1.065085
 50
270.0
 51
90.0
  0
ARC
  8
0
  6
CONTINUOUS
 10
-20.0
 20
-87.3757
 30
0.0
 40
1.065085
 50
270.0
 51
90.0
  0
ARC
  8
0
  6
CONTINUOUS
 10
-20.0
 20
-85.245531
 30
0.0
 40
1.065085
 50
270.0
 51
90.0
  0
LINE
  8
0
  6
CONTINUOUS
 10
-20.0
 20
-83.223518
 30
0.0
 11
-20.0
 21
-84.180446
 31
0.0
  0
LINE
  8
0
  6
CONTINUOUS
 10
-20.0
 20
-95.0
 30
0.0
 11
-50.0
 21
-95.0
 31
0.0
  0
LINE
  8
0
  6
DASHED
 10
-75.0
 20
-30.0
 30
0.0
 11
-30.0
 21
-30.0
 31
0.0
  0
LINE
  8
0
  6
DASHED
 10
-85.0
 20
-40.0
 30
0.0
 11
-65.0
 21
-40.0
 31
0.0
  0
LINE
  8
0
  6
DASHED
 10
-75.0
 20
-47.5
 30
0.0
 11
-25.0
 21
-47.5
 31
0.0
  0
LINE
  8
0
  6
DASHED
 10
-85.0
 20
-57.5
 30
0.0
 11
-65.0
 21
-57.5
 31
0.0
  0
LINE
  8
0
  6
DASHED
 10
-75.0
 20
-67.5
 30
0.0
 11
-20.0
 21
-67.5
 31
0.0
  0
LINE
  8
0
  6
DASHED
 10
-85.0
 20
-77.5
 30
0.0
 11
-35.0
 21
-77.5
 31
0.0
  0
LINE
  8
0
  6
DASHED
 10
-30.0
 20
-34.810008
 30
0.0
 11
-35.0
 21
-34.810008
 31
0.0
  0
INSERT
  8
0
  6
CONTINUOUS
  2
BLC27
 10
-18.508845
 20
-69.881569
 30
0.0
 50
180.0
  0
INSERT
  8
0
  6
CONTINUOUS
  2
BLC27
 10
-23.508842
 20
-49.88157
 30
0.0
 50
180.0
  0
LINE
  8
0
  6
DASHED
 10
-20.0
 20
-15.0
 30
0.0
 11
-20.0
 21
-57.5
 31
0.0
  0
LINE
  8
0
  6
DASHED
 10
-25.0
 20
-15.0
 30
0.0
 11
-25.0
 21
-57.5
 31
0.0
  0
LINE
  8
0
  6
DASHED
 10
-30.0
 20
-15.0
 30
0.0
 11
-30.0
 21
-57.5
 31
0.0
  0
INSERT
  8
0
  6
CONTINUOUS
  2
BLC27
 10
-28.508846
 20
-32.381567
 30
0.0
 50
180.0
  0
LINE
  8
0
  6
DASHED
 10
-20.0
 20
-57.5
 30
0.0
 11
-20.0
 21
-82.5
 31
0.0
  0
LINE
  8
0
  6
DASHED
 10
-25.0
 20
-57.5
 30
0.0
 11
-25.0
 21
-82.5
 31
0.0
  0
LINE
  8
0
  6
DASHED
 10
-30.0
 20
-57.5
 30
0.0
 11
-30.0
 21
-82.5
 31
0.0
  0
LINE
  8
0
  6
DASHED
 10
-24.930203
 20
-52.310016
 30
0.0
 11
-35.0
 21
-52.310016
 31
0.0
  0
LINE
  8
0
  6
DASHED
 10
-19.993079
 20
-72.310016
 30
0.0
 11
-35.0
 21
-72.310016
 31
0.0
  0
LINE
  8
0
  6
DASHED
 10
-65.0
 20
-40.0
 30
0.0
 11
-65.0
 21
-77.5
 31
0.0
  0
LINE
  8
0
  6
DASHED
 10
-35.0
 20
-34.810008
 30
0.0
 11
-35.0
 21
-80.0
 31
0.0
  0
INSERT
  8
0
  6
DASHED
  2
BLC15
 10
-35.142087
 20
-83.479912
 30
0.0
  0
LINE
  8
0
  6
CONTINUOUS
 10
-85.0
 20
-30.0
 30
0.0
 11
-80.733529
 21
-30.0
 31
0.0
  0
LINE
  8
0
  6
CONTINUOUS
 10
-85.0
 20
-35.0
 30
0.0
 11
-80.733529
 21
-35.0
 31
0.0
  0
LINE
  8
0
  6
CONTINUOUS
 10
-85.0
 20
-47.5
 30
0.0
 11
-80.733529
 21
-47.5
 31
0.0
  0
LINE
  8
0
  6
CONTINUOUS
 10
-85.0
 20
-52.5
 30
0.0
 11
-80.733529
 21
-52.5
 31
0.0
  0
LINE
  8
0
  6
CONTINUOUS
 10
-85.0
 20
-67.5
 30
0.0
 11
-80.733529
 21
-67.5
 31
0.0
  0
LINE
  8
0
  6
CONTINUOUS
 10
-85.0
 20
-72.5
 30
0.0
 11
-80.733529
 21
-72.5
 31
0.0
  0
LINE
  8
0
  6
CONTINUOUS
 10
-75.0
 20
-30.0
 30
0.0
 11
-79.0
 21
-30.0
 31
0.0
  0
LINE
  8
0
  6
CONTINUOUS
 10
-79.0
 20
-28.5
 30
0.0
 11
-79.0
 21
-35.5
 31
0.0
  0
LINE
  8
0
  6
CONTINUOUS
 10
-79.0
 20
-35.5
 30
0.0
 11
-80.0
 21
-36.5
 31
0.0
  0
LINE
  8
0
  6
CONTINUOUS
 10
-79.0
 20
-28.5
 30
0.0
 11
-80.0
 21
-27.5
 31
0.0
  0
LINE
  8
0
  6
CONTINUOUS
 10
-79.0
 20
-46.0
 30
0.0
 11
-80.0
 21
-45.0
 31
0.0
  0
LINE
  8
0
  6
CONTINUOUS
 10
-79.0
 20
-46.0
 30
0.0
 11
-79.0
 21
-53.0
 31
0.0
  0
LINE
  8
0
  6
CONTINUOUS
 10
-79.0
 20
-53.0
 30
0.0
 11
-80.0
 21
-54.0
 31
0.0
  0
LINE
  8
0
  6
CONTINUOUS
 10
-75.0
 20
-67.5
 30
0.0
 11
-79.0
 21
-67.5
 31
0.0
  0
LINE
  8
0
  6
CONTINUOUS
 10
-75.0
 20
-47.5
 30
0.0
 11
-79.0
 21
-47.5
 31
0.0
  0
LINE
  8
0
  6
CONTINUOUS
 10
-79.0
 20
-73.0
 30
0.0
 11
-80.0
 21
-74.0
 31
0.0
  0
LINE
  8
0
  6
CONTINUOUS
 10
-79.0
 20
-66.0
 30
0.0
 11
-79.0
 21
-73.0
 31
0.0
  0
LINE
  8
0
  6
CONTINUOUS
 10
-79.0
 20
-66.0
 30
0.0
 11
-80.0
 21
-65.0
 31
0.0
  0
POLYLINE
  8
0
  6
CONTINUOUS
 66
     1
 10
0.0
 20
0.0
 30
0.0
 70
    16
 71
     2
 72
   251
  0
VERTEX
  8
0
  6
CONTINUOUS
 10
-83.180564
 20
-170.49
 30
0.0
 70
    64
  0
VERTEX
  8
0
  6
CONTINUOUS
 10
-83.166844
 20
-170.49
 30
0.0
 70
    64
  0
VERTEX
  8
0
  6
CONTINUOUS
 10
-83.153124
 20
-170.49
 30
0.0
 70
    64
  0
VERTEX
  8
0
  6
CONTINUOUS
 10
-83.139404
 20
-170.49
 30
0.0
 70
    64
  0
VERTEX
  8
0
  6
CONTINUOUS
 10
-83.125684
 20
-170.49
 30
0.0
 70
    64
  0
VERTEX
  8
0
  6
CONTINUOUS
 10
-83.111964
 20
-170.49
 30
0.0
 70
    64
  0
VERTEX
  8
0
  6
CONTINUOUS
 10
-83.098244
 20
-170.49
 30
0.0
 70
    64
  0
VERTEX
  8
0
  6
CONTINUOUS
 10
-83.084524
 20
-170.49
 30
0.0
 70
    64
  0
VERTEX
  8
0
  6
CONTINUOUS
 10
-83.070804
 20
-170.49
 30
0.0
 70
    64
  0
VERTEX
  8
0
  6
CONTINUOUS
 10
-83.057084
 20
-170.49
 30
0.0
 70
    64
  0
VERTEX
  8
0
  6
CONTINUOUS
 10
-83.043364
 20
-170.49
 30
0.0
 70
    64
  0
VERTEX
  8
0
  6
CONTINUOUS
 10
-83.029644
 20
-170.49
 30
0.0
 70
    64
  0
VERTEX
  8
0
  6
CONTINUOUS
 10
-83.015924
 20
-170.49
 30
0.0
 70
    64
  0
VERTEX
  8
0
  6
CONTINUOUS
 10
-83.002204
 20
-170.49
 30
0.0
 70
    64
  0
VERTEX
  8
0
  6
CONTINUOUS
 10
-82.988484
 20
-170.49
 30
0.0
 70
    64
  0
VERTEX
  8
0
  6
CONTINUOUS
 10
-82.974764
 20
-170.49
 30
0.0
 70
    64
  0
VERTEX
  8
0
  6
CONTINUOUS
 10
-82.961044
 20
-170.49
 30
0.0
 70
    64
  0
VERTEX
  8
0
  6
CONTINUOUS
 10
-82.947324
 20
-170.49
 30
0.0
 70
    64
  0
VERTEX
  8
0
  6
CONTINUOUS
 10
-82.933604
 20
-170.49
 30
0.0
 70
    64
  0
VERTEX
  8
0
  6
CONTINUOUS
 10
-82.919884
 20
-170.49
 30
0.0
 70
    64
  0
VERTEX
  8
0
  6
CONTINUOUS
 10
-82.906164
 20
-170.49
 30
0.0
 70
    64
  0
VERTEX
  8
0
  6
CONTINUOUS
 10
-82.892444
 20
-170.49
 30
0.0
 70
    64
  0
VERTEX
  8
0
  6
CONTINUOUS
 10
-82.878724
 20
-170.49
 30
0.0
 70
    64
  0
VERTEX
  8
0
  6
CONTINUOUS
 10
-82.865004
 20
-170.49
 30
0.0
 70
    64
  0
VERTEX
  8
0
  6
CONTINUOUS
 10
-82.851284
 20
-170.49
 30
0.0
 70
    64
  0
VERTEX
  8
0
  6
CONTINUOUS
 10
-82.837564
 20
-170.49
 30
0.0
 70
    64
  0
VERTEX
  8
0
  6
CONTINUOUS
 10
-82.823844
 20
-170.49
 30
0.0
 70
    64
  0
VERTEX
  8
0
  6
CONTINUOUS
 10
-82.810124
 20
-170.49
 30
0.0
 70
    64
  0
VERTEX
  8
0
  6
CONTINUOUS
 10
-82.796404
 20
-170.49
 30
0.0
 70
    64
  0
VERTEX
  8
0
  6
CONTINUOUS
 10
-82.782684
 20
-170.49
 30
0.0
 70
    64
  0
VERTEX
  8
0
  6
CONTINUOUS
 10
-82.768964
 20
-170.49
 30
0.0
 70
    64
  0
VERTEX
  8
0
  6
CONTINUOUS
 10
-82.755244
 20
-170.49
 30
0.0
 70
    64
  0
VERTEX
  8
0
  6
CONTINUOUS
 10
-82.741524
 20
-170.49
 30
0.0
 70
    64
  0
VERTEX
  8
0
  6
CONTINUOUS
 10
-82.727804
 20
-170.49
 30
0.0
 70
    64
  0
VERTEX
  8
0
  6
CONTINUOUS
 10
-82.714084
 20
-170.49
 30
0.0
 70
    64
  0
VERTEX
  8
0
  6
CONTINUOUS
 10
-82.700364
 20
-170.49
 30
0.0
 70
    64
  0
VERTEX
  8
0
  6
CONTINUOUS
 10
-82.686644
 20
-170.49
 30
0.0
 70
    64
  0
VERTEX
  8
0
  6
CONTINUOUS
 10
-82.672924
 20
-170.49
 30
0.0
 70
    64
  0
VERTEX
  8
0
  6
CONTINUOUS
 10
-82.659204
 20
-170.49
 30
0.0
 70
    64
  0
VERTEX
  8
0
  6
CONTINUOUS
 10
-82.645484
 20
-170.49
 30
0.0
 70
    64
  0
VERTEX
  8
0
  6
CONTINUOUS
 10
-82.631764
 20
-170.49
 30
0.0
 70
    64
  0
VERTEX
  8
0
  6
CONTINUOUS
 10
-82.618044
 20
-170.49
 30
0.0
 70
    64
  0
VERTEX
  8
0
  6
CONTINUOUS
 10
-82.604324
 20
-170.49
 30
0.0
 70
    64
  0
VERTEX
  8
0
  6
CONTINUOUS
 10
-82.590604
 20
-170.49
 30
0.0
 70
    64
  0
VERTEX
  8
0
  6
CONTINUOUS
 10
-82.576884
 20
-170.49
 30
0.0
 70
    64
  0
VERTEX
  8
0
  6
CONTINUOUS
 10
-82.563164
 20
-170.49
 30
0.0
 70
    64
  0
VERTEX
  8
0
  6
CONTINUOUS
 10
-82.549444
 20
-170.49
 30
0.0
 70
    64
  0
VERTEX
  8
0
  6
CONTINUOUS
 10
-82.535724
 20
-170.49
 30
0.0
 70
    64
  0
VERTEX
  8
0
  6
CONTINUOUS
 10
-82.522004
 20
-170.49
 30
0.0
 70
    64
  0
VERTEX
  8
0
  6
CONTINUOUS
 10
-82.508284
 20
-170.49
 30
0.0
 70
    64
  0
VERTEX
  8
0
  6
CONTINUOUS
 10
-82.494564
 20
-170.49
 30
0.0
 70
    64
  0
VERTEX
  8
0
  6
CONTINUOUS
 10
-82.480844
 20
-170.49
 30
0.0
 70
    64
  0
VERTEX
  8
0
  6
CONTINUOUS
 10
-82.467124
 20
-170.49
 30
0.0
 70
    64
  0
VERTEX
  8
0
  6
CONTINUOUS
 10
-82.453404
 20
-170.49
 30
0.0
 70
    64
  0
VERTEX
  8
0
  6
CONTINUOUS
 10
-82.439684
 20
-170.49
 30
0.0
 70
    64
  0
VERTEX
  8
0
  6
CONTINUOUS
 10
-82.425964
 20
-170.49
 30
0.0
 70
    64
  0
VERTEX
  8
0
  6
CONTINUOUS
 10
-82.412244
 20
-170.49
 30
0.0
 70
    64
  0
VERTEX
  8
0
  6
CONTINUOUS
 10
-82.398524
 20
-170.49
 30
0.0
 70
    64
  0
VERTEX
  8
0
  6
CONTINUOUS
 10
-82.384804
 20
-170.49
 30
0.0
 70
    64
  0
VERTEX
  8
0
  6
CONTINUOUS
 10
-82.371084
 20
-170.49
 30
0.0
 70
    64
  0
VERTEX
  8
0
  6
CONTINUOUS
 10
-82.357364
 20
-170.49
 30
0.0
 70
    64
  0
VERTEX
  8
0
  6
CONTINUOUS
 10
-82.343644
 20
-170.49
 30
0.0
 70
    64
  0
VERTEX
  8
0
  6
CONTINUOUS
 10
-82.329924
 20
-170.49
 30
0.0
 70
    64
  0
VERTEX
  8
0
  6
CONTINUOUS
 10
-82.316204
 20
-170.49
 30
0.0
 70
    64
  0
VERTEX
  8
0
  6
CONTINUOUS
 10
-82.302484
 20
-170.49
 30
0.0
 70
    64
  0
VERTEX
  8
0
  6
CONTINUOUS
 10
-82.288764
 20
-170.49
 30
0.0
 70
    64
  0
VERTEX
  8
0
  6
CONTINUOUS
 10
-82.275044
 20
-170.49
 30
0.0
 70
    64
  0
VERTEX
  8
0
  6
CONTINUOUS
 10
-82.261324
 20
-170.49
 30
0.0
 70
    64
  0
VERTEX
  8
0
  6
CONTINUOUS
 10
-82.247604
 20
-170.49
 30
0.0
 70
    64
  0
VERTEX
  8
0
  6
CONTINUOUS
 10
-82.233884
 20
-170.49
 30
0.0
 70
    64
  0
VERTEX
  8
0
  6
CONTINUOUS
 10
-82.220164
 20
-170.49
 30
0.0
 70
    64
  0
VERTEX
  8
0
  6
CONTINUOUS
 10
-82.206444
 20
-170.49
 30
0.0
 70
    64
  0
VERTEX
  8
0
  6
CONTINUOUS
 10
-82.192724
 20
-170.49
 30
0.0
 70
    64
  0
VERTEX
  8
0
  6
CONTINUOUS
 10
-82.179004
 20
-170.49
 30
0.0
 70
    64
  0
VERTEX
  8
0
  6
CONTINUOUS
 10
-82.165284
 20
-170.49
 30
0.0
 70
    64
  0
VERTEX
  8
0
  6
CONTINUOUS
 10
-82.151564
 20
-170.49
 30
0.0
 70
    64
  0
VERTEX
  8
0
  6
CONTINUOUS
 10
-82.137844
 20
-170.49
 30
0.0
 70
    64
  0
VERTEX
  8
0
  6
CONTINUOUS
 10
-82.124124
 20
-170.49
 30
0.0
 70
    64
  0
VERTEX
  8
0
  6
CONTINUOUS
 10
-82.110404
 20
-170.49
 30
0.0
 70
    64
  0
VERTEX
  8
0
  6
CONTINUOUS
 10
-82.096684
 20
-170.49
 30
0.0
 70
    64
  0
VERTEX
  8
0
  6
CONTINUOUS
 10
-82.082964
 20
-170.49
 30
0.0
 70
    64
  0
VERTEX
  8
0
  6
CONTINUOUS
 10
-82.069244
 20
-170.49
 30
0.0
 70
    64
  0
VERTEX
  8
0
  6
CONTINUOUS
 10
-82.055524
 20
-170.49
 30
0.0
 70
    64
  0
VERTEX
  8
0
  6
CONTINUOUS
 10
-82.041804
 20
-170.49
 30
0.0
 70
    64
  0
VERTEX
  8
0
  6
CONTINUOUS
 10
-82.028084
 20
-170.49
 30
0.0
 70
    64
  0
VERTEX
  8
0
  6
CONTINUOUS
 10
-82.014364
 20
-170.49
 30
0.0
 70
    64
  0
VERTEX
  8
0
  6
CONTINUOUS
 10
-82.000644
 20
-170.49
 30
0.0
 70
    64
  0
VERTEX
  8
0
  6
CONTINUOUS
 10
-81.986924
 20
-170.49
 30
0.0
 70
    64
  0
VERTEX
  8
0
  6
CONTINUOUS
 10
-81.973204
 20
-170.49
 30
0.0
 70
    64
  0
VERTEX
  8
0
  6
CONTINUOUS
 10
-81.959484
 20
-170.49
 30
0.0
 70
    64
  0
VERTEX
  8
0
  6
CONTINUOUS
 10
-81.945764
 20
-170.49
 30
0.0
 70
    64
  0
VERTEX
  8
0
  6
CONTINUOUS
 10
-81.932044
 20
-170.49
 30
0.0
 70
    64
  0
VERTEX
  8
0
  6
CONTINUOUS
 10
-81.918324
 20
-170.49
 30
0.0
 70
    64
  0
VERTEX
  8
0
  6
CONTINUOUS
 10
-81.904604
 20
-170.49
 30
0.0
 70
    64
  0
VERTEX
  8
0
  6
CONTINUOUS
 10
-81.890884
 20
-170.49
 30
0.0
 70
    64
  0
VERTEX
  8
0
  6
CONTINUOUS
 10
-81.877164
 20
-170.49
 30
0.0
 70
    64
  0
VERTEX
  8
0
  6
CONTINUOUS
 10
-81.863444
 20
-170.49
 30
0.0
 70
    64
  0
VERTEX
  8
0
  6
CONTINUOUS
 10
-81.849724
 20
-170.49
 30
0.0
 70
    64
  0
VERTEX
  8
0
  6
CONTINUOUS
 10
-81.836004
 20
-170.49
 30
0.0
 70
    64
  0
VERTEX
  8
0
  6
CONTINUOUS
 10
-81.822284
 20
-170.49
 30
0.0
 70
    64
  0
VERTEX
  8
0
  6
CONTINUOUS
 10
-81.808564
 20
-170.49
 30
0.0
 70
    64
  0
VERTEX
  8
0
  6
CONTINUOUS
 10
-81.794844
 20
-170.49
 30
0.0
 70
    64
  0
VERTEX
  8
0
  6
CONTINUOUS
 10
-81.781124
 20
-170.49
 30
0.0
 70
    64
  0
VERTEX
  8
0
  6
CONTINUOUS
 10
-81.767404
 20
-170.49
 30
0.0
 70
    64
  0
VERTEX
  8
0
  6
CONTINUOUS
 10
-81.753684
 20
-170.49
 30
0.0
 70
    64
  0
VERTEX
  8
0
  6
CONTINUOUS
 10
-81.739964
 20
-170.49
 30
0.0
 70
    64
  0
VERTEX
  8
0
  6
CONTINUOUS
 10
-81.726244
 20
-170.49
 30
0.0
 70
    64
  0
VERTEX
  8
0
  6
CONTINUOUS
 10
-81.712524
 20
-170.49
 30
0.0
 70
    64
  0
VERTEX
  8
0
  6
CONTINUOUS
 10
-81.698804
 20
-170.49
 30
0.0
 70
    64
  0
VERTEX
  8
0
  6
CONTINUOUS
 10
-81.685084
 20
-170.49
 30
0.0
 70
    64
  0
VERTEX
  8
0
  6
CONTINUOUS
 10
-81.671364
 20
-170.49
 30
0.0
 70
    64
  0
VERTEX
  8
0
  6
CONTINUOUS
 10
-81.657644
 20
-170.49
 30
0.0
 70
    64
  0
VERTEX
  8
0
  6
CONTINUOUS
 10
-81.643924
 20
-170.49
 30
0.0
 70
    64
  0
VERTEX
  8
0
  6
CONTINUOUS
 10
-81.630204
 20
-170.49
 30
0.0
 70
    64
  0
VERTEX
  8
0
  6
CONTINUOUS
 10
-81.616484
 20
-170.49
 30
0.0
 70
    64
  0
VERTEX
  8
0
  6
CONTINUOUS
 10
-81.602764
 20
-170.49
 30
0.0
 70
    64
  0
VERTEX
  8
0
  6
CONTINUOUS
 10
-81.589044
 20
-170.49
 30
0.0
 70
    64
  0
VERTEX
  8
0
  6
CONTINUOUS
 10
-81.575324
 20
-170.49
 30
0.0
 70
    64
  0
VERTEX
  8
0
  6
CONTINUOUS
 10
-81.561604
 20
-170.49
 30
0.0
 70
    64
  0
VERTEX
  8
0
  6
CONTINUOUS
 10
-81.547884
 20
-170.49
 30
0.0
 70
    64
  0
VERTEX
  8
0
  6
CONTINUOUS
 10
-81.534164
 20
-170.49
 30
0.0
 70
    64
  0
VERTEX
  8
0
  6
CONTINUOUS
 10
-81.520444
 20
-170.49
 30
0.0
 70
    64
  0
VERTEX
  8
0
  6
CONTINUOUS
 10
-81.506724
 20
-170.49
 30
0.0
 70
    64
  0
VERTEX
  8
0
  6
CONTINUOUS
 10
-81.493004
 20
-170.49
 30
0.0
 70
    64
  0
VERTEX
  8
0
  6
CONTINUOUS
 10
-81.479284
 20
-170.49
 30
0.0
 70
    64
  0
VERTEX
  8
0
  6
CONTINUOUS
 10
-81.465564
 20
-170.49
 30
0.0
 70
    64
  0
VERTEX
  8
0
  6
CONTINUOUS
 10
-81.451844
 20
-170.49
 30
0.0
 70
    64
  0
VERTEX
  8
0
  6
CONTINUOUS
 10
-81.438124
 20
-170.49
 30
0.0
 70
    64
  0
VERTEX
  8
0
  6
CONTINUOUS
 10
-81.424404
 20
-170.49
 30
0.0
 70
    64
  0
VERTEX
  8
0
  6
CONTINUOUS
 10
-81.410684
 20
-170.49
 30
0.0
 70
    64
  0
VERTEX
  8
0
  6
CONTINUOUS
 10
-81.396964
 20
-170.49
 30
0.0
 70
    64
  0
VERTEX
  8
0
  6
CONTINUOUS
 10
-81.383244
 20
-170.49
 30
0.0
 70
    64
  0
VERTEX
  8
0
  6
CONTINUOUS
 10
-81.369524
 20
-170.49
 30
0.0
 70
    64
  0
VERTEX
  8
0
  6
CONTINUOUS
 10
-81.355804
 20
-170.49
 30
0.0
 70
    64
  0
VERTEX
  8
0
  6
CONTINUOUS
 10
-81.342084
 20
-170.49
 30
0.0
 70
    64
  0
VERTEX
  8
0
  6
CONTINUOUS
 10
-81.328364
 20
-170.49
 30
0.0
 70
    64
  0
VERTEX
  8
0
  6
CONTINUOUS
 10
-81.314644
 20
-170.49
 30
0.0
 70
    64
  0
VERTEX
  8
0
  6
CONTINUOUS
 10
-81.300924
 20
-170.49
 30
0.0
 70
    64
  0
VERTEX
  8
0
  6
CONTINUOUS
 10
-81.287204
 20
-170.49
 30
0.0
 70
    64
  0
VERTEX
  8
0
  6
CONTINUOUS
 10
-81.273484
 20
-170.49
 30
0.0
 70
    64
  0
VERTEX
  8
0
  6
CONTINUOUS
 10
-81.259764
 20
-170.49
 30
0.0
 70
    64
  0
VERTEX
  8
0
  6
CONTINUOUS
 10
-81.246044
 20
-170.49
 30
0.0
 70
    64
  0
VERTEX
  8
0
  6
CONTINUOUS
 10
-81.232324
 20
-170.49
 30
0.0
 70
    64
  0
VERTEX
  8
0
  6
CONTINUOUS
 10
-81.218604
 20
-170.49
 30
0.0
 70
    64
  0
VERTEX
  8
0
  6
CONTINUOUS
 10
-81.204884
 20
-170.49
 30
0.0
 70
    64
  0
VERTEX
  8
0
  6
CONTINUOUS
 10
-81.191164
 20
-170.49
 30
0.0
 70
    64
  0
VERTEX
  8
0
  6
CONTINUOUS
 10
-81.177444
 20
-170.49
 30
0.0
 70
    64
  0
VERTEX
  8
0
  6
CONTINUOUS
 10
-81.163724
 20
-170.49
 30
0.0
 70
    64
  0
VERTEX
  8
0
  6
CONTINUOUS
 10
-81.150004
 20
-170.49
 30
0.0
 70
    64
  0
VERTEX
  8
0
  6
CONTINUOUS
 10
-81.136284
 20
-170.49
 30
0.0
 70
    64
  0
VERTEX
  8
0
  6
CONTINUOUS
 10
-81.122564
 20
-170.49
 30
0.0
 70
    64
  0
VERTEX
  8
0
  6
CONTINUOUS
 10
-81.108844
 20
-170.49
 30
0.0
 70
    64
  0
VERTEX
  8
0
  6
CONTINUOUS
 10
-81.095124
 20
-170.49
 30
0.0
 70
    64
  0
VERTEX
  8
0
  6
CONTINUOUS
 10
-81.081404
 20
-170.49
 30
0.0
 70
    64
  0
VERTEX
  8
0
  6
CONTINUOUS
 10
-81.067684
 20
-170.49
 30
0.0
 70
    64
  0
VERTEX
  8
0
  6
CONTINUOUS
 10
-81.053964
 20
-170.49
 30
0.0
 70
    64
  0
VERTEX
  8
0
  6
CONTINUOUS
 10
-81.040244
 20
-170.49
 30
0.0
 70
    64
  0
VERTEX
  8
0
  6
CONTINUOUS
 10
-81.026524
 20
-170.49
 30
0.0
 70
    64
  0
VERTEX
  8
0
  6
CONTINUOUS
 10
-81.012804
 20
-170.49
 30
0.0
 70
    64
  0
VERTEX
  8
0
  6
CONTINUOUS
 10
-80.999084
 20
-170.49
 30
0.0
 70
    64
  0
VERTEX
  8
0
  6
CONTINUOUS
 10
-80.985364
 20
-170.49
 30
0.0
 70
    64
  0
VERTEX
  8
0
  6
CONTINUOUS
 10
-80.971644
 20
-170.49
 30
0.0
 70
    64
  0
VERTEX
  8
0
  6
CONTINUOUS
 10
-80.957924
 20
-170.49
 30
0.0
 70
    64
  0
VERTEX
  8
0
  6
CONTINUOUS
 10
-80.944204
 20
-170.49
 30
0.0
 70
    64
  0
VERTEX
  8
0
  6
CONTINUOUS
 10
-80.930484
 20
-170.49
 30
0.0
 70
    64
  0
VERTEX
  8
0
  6
CONTINUOUS
 10
-80.916764
 20
-170.49
 30
0.0
 70
    64
  0
VERTEX
  8
0
  6
CONTINUOUS
 10
-80.903044
 20
-170.49
 30
0.0
 70
    64
  0
VERTEX
  8
0
  6
CONTINUOUS
 10
-80.889324
 20
-170.49
 30
0.0
 70
    64
  0
VERTEX
  8
0
  6
CONTINUOUS
 10
-80.875604
 20
-170.49
 30
0.0
 70
    64
  0
VERTEX
  8
0
  6
CONTINUOUS
 10
-80.861884
 20
-170.49
 30
0.0
 70
    64
  0
VERTEX
  8
0
  6
CONTINUOUS
 10
-80.848164
 20
-170.49
 30
0.0
 70
    64
  0
VERTEX
  8
0
  6
CONTINUOUS
 10
-80.834444
 20
-170.49
 30
0.0
 70
    64
  0
VERTEX
  8
0
  6
CONTINUOUS
 10
-80.820724
 20
-170.49
 30
0.0
 70
    64
  0
VERTEX
  8
0
  6
CONTINUOUS
 10
-80.807004
 20
-170.49
 30
0.0
 70
    64
  0
VERTEX
  8
0
  6
CONTINUOUS
 10
-80.793284
 20
-170.49
 30
0.0
 70
    64
  0
VERTEX
  8
0
  6
CONTINUOUS
 10
-80.779564
 20
-170.49
 30
0.0
 70
    64
  0
VERTEX
  8
0
  6
CONTINUOUS
 10
-80.765844
 20
-170.49
 30
0.0
 70
    64
  0
VERTEX
  8
0
  6
CONTINUOUS
 10
-80.752124
 20
-170.49
 30
0.0
 70
    64
  0
VERTEX
  8
0
  6
CONTINUOUS
 10
-80.738404
 20
-170.49
 30
0.0
 70
    64
  0
VERTEX
  8
0
  6
CONTINUOUS
 10
-80.724684
 20
-170.49
 30
0.0
 70
    64
  0
VERTEX
  8
0
  6
CONTINUOUS
 10
-80.710964
 20
-170.49
 30
0.0
 70
    64
  0
VERTEX
  8
0
  6
CONTINUOUS
 10
-80.697244
 20
-170.49
 30
0.0
 70
    64
  0
VERTEX
  8
0
  6
CONTINUOUS
 10
-80.683524
 20
-170.49
 30
0.0
 70
    64
  0
VERTEX
  8
0
  6
CONTINUOUS
 10
-80.669804
 20
-170.49
 30
0.0
 70
    64
  0
VERTEX
  8
0
  6
CONTINUOUS
 10
-80.656084
 20
-170.49
 30
0.0
 70
    64
  0
VERTEX
  8
0
  6
CONTINUOUS
 10
-80.642364
 20
-170.49
 30
0.0
 70
    64
  0
VERTEX
  8
0
  6
CONTINUOUS
 10
-80.628644
 20
-170.49
 30
0.0
 70
    64
  0
VERTEX
  8
0
  6
CONTINUOUS
 10
-80.614924
 20
-170.49
 30
0.0
 70
    64
  0
VERTEX
  8
0
  6
CONTINUOUS
 10
-80.601204
 20
-170.49
 30
0.0
 70
    64
  0
VERTEX
  8
0
  6
CONTINUOUS
 10
-80.587484
 20
-170.49
 30
0.0
 70
    64
  0
VERTEX
  8
0
  6
CONTINUOUS
 10
-80.573764
 20
-170.49
 30
0.0
 70
    64
  0
VERTEX
  8
0
  6
CONTINUOUS
 10
-80.560044
 20
-170.49
 30
0.0
 70
    64
  0
VERTEX
  8
0
  6
CONTINUOUS
 10
-80.546324
 20
-170.49
 30
0.0
 70
    64
  0
VERTEX
  8
0
  6
CONTINUOUS
 10
-80.532604
 20
-170.49
 30
0.0
 70
    64
  0
VERTEX
  8
0
  6
CONTINUOUS
 10
-80.518884
 20
-170.49
 30
0.0
 70
    64
  0
VERTEX
  8
0
  6
CONTINUOUS
 10
-80.505164
 20
-170.49
 30
0.0
 70
    64
  0
VERTEX
  8
0
  6
CONTINUOUS
 10
-80.491444
 20
-170.49
 30
0.0
 70
    64
  0
VERTEX
  8
0
  6
CONTINUOUS
 10
-80.477724
 20
-170.49
 30
0.0
 70
    64
  0
VERTEX
  8
0
  6
CONTINUOUS
 10
-80.464004
 20
-170.49
 30
0.0
 70
    64
  0
VERTEX
  8
0
  6
CONTINUOUS
 10
-80.450284
 20
-170.49
 30
0.0
 70
    64
  0
VERTEX
  8
0
  6
CONTINUOUS
 10
-80.436564
 20
-170.49
 30
0.0
 70
    64
  0
VERTEX
  8
0
  6
CONTINUOUS
 10
-80.422844
 20
-170.49
 30
0.0
 70
    64
  0
VERTEX
  8
0
  6
CONTINUOUS
 10
-80.409124
 20
-170.49
 30
0.0
 70
    64
  0
VERTEX
  8
0
  6
CONTINUOUS
 10
-80.395404
 20
-170.49
 30
0.0
 70
    64
  0
VERTEX
  8
0
  6
CONTINUOUS
 10
-80.381684
 20
-170.49
 30
0.0
 70
    64
  0
VERTEX
  8
0
  6
CONTINUOUS
 10
-80.367964
 20
-170.49
 30
0.0
 70
    64
  0
VERTEX
  8
0
  6
CONTINUOUS
 10
-80.354244
 20
-170.49
 30
0.0
 70
    64
  0
VERTEX
  8
0
  6
CONTINUOUS
 10
-80.340524
 20
-170.49
 30
0.0
 70
    64
  0
VERTEX
  8
0
  6
CONTINUOUS
 10
-80.326804
 20
-170.49
 30
0.0
 70
    64
  0
VERTEX
  8
0
  6
CONTINUOUS
 10
-80.313084
 20
-170.49
 30
0.0
 70
    64
  0
VERTEX
  8
0
  6
CONTINUOUS
 10
-80.299364
 20
-170.49
 30
0.0
 70
    64
  0
VERTEX
  8
0
  6
CONTINUOUS
 10
-80.285644
 20
-170.49
 30
0.0
 70
    64
  0
VERTEX
  8
0
  6
CONTINUOUS
 10
-80.271924
 20
-170.49
 30
0.0
 70
    64
  0
VERTEX
  8
0
  6
CONTINUOUS
 10
-80.258204
 20
-170.49
 30
0.0
 70
    64
  0
VERTEX
  8
0
  6
CONTINUOUS
 10
-80.244484
 20
-170.49
 30
0.0
 70
    64
  0
VERTEX
  8
0
  6
CONTINUOUS
 10
-80.230764
 20
-170.49
 30
0.0
 70
    64
  0
VERTEX
  8
0
  6
CONTINUOUS
 10
-80.217044
 20
-170.49
 30
0.0
 70
    64
  0
VERTEX
  8
0
  6
CONTINUOUS
 10
-80.203324
 20
-170.49
 30
0.0
 70
    64
  0
VERTEX
  8
0
  6
CONTINUOUS
 10
-80.189604
 20
-170.49
 30
0.0
 70
    64
  0
VERTEX
  8
0
  6
CONTINUOUS
 10
-80.175884
 20
-170.49
 30
0.0
 70
    64
  0
VERTEX
  8
0
  6
CONTINUOUS
 10
-80.162164
 20
-170.49
 30
0.0
 70
    64
  0
VERTEX
  8
0
  6
CONTINUOUS
 10
-80.148444
 20
-170.49
 30
0.0
 70
    64
  0
VERTEX
  8
0
  6
CONTINUOUS
 10
-80.134724
 20
-170.49
 30
0.0
 70
    64
  0
VERTEX
  8
0
  6
CONTINUOUS
 10
-80.121004
 20
-170.49
 30
0.0
 70
    64
  0
VERTEX
  8
0
  6
CONTINUOUS
 10
-80.107284
 20
-170.49
 30
0.0
 70
    64
  0
VERTEX
  8
0
  6
CONTINUOUS
 10
-80.093564
 20
-170.49
 30
0.0
 70
    64
  0
VERTEX
  8
0
  6
CONTINUOUS
 10
-80.079844
 20
-170.49
 30
0.0
 70
    64
  0
VERTEX
  8
0
  6
CONTINUOUS
 10
-80.066124
 20
-170.49
 30
0.0
 70
    64
  0
VERTEX
  8
0
  6
CONTINUOUS
 10
-80.052404
 20
-170.49
 30
0.0
 70
    64
  0
VERTEX
  8
0
  6
CONTINUOUS
 10
-80.038684
 20
-170.49
 30
0.0
 70
    64
  0
VERTEX
  8
0
  6
CONTINUOUS
 10
-80.024964
 20
-170.49
 30
0.0
 70
    64
  0
VERTEX
  8
0
  6
CONTINUOUS
 10
-80.011244
 20
-170.49
 30
0.0
 70
    64
  0
VERTEX
  8
0
  6
CONTINUOUS
 10
-79.997524
 20
-170.49
 30
0.0
 70
    64
  0
VERTEX
  8
0
  6
CONTINUOUS
 10
-79.983804
 20
-170.49
 30
0.0
 70
    64
  0
VERTEX
  8
0
  6
CONTINUOUS
 10
-79.970084
 20
-170.49
 30
0.0
 70
    64
  0
VERTEX
  8
0
  6
CONTINUOUS
 10
-79.956364
 20
-170.49
 30
0.0
 70
    64
  0
VERTEX
  8
0
  6
CONTINUOUS
 10
-79.942644
 20
-170.49
 30
0.0
 70
    64
  0
VERTEX
  8
0
  6
CONTINUOUS
 10
-79.928924
 20
-170.49
 30
0.0
 70
    64
  0
VERTEX
  8
0
  6
CONTINUOUS
 10
-79.915204
 20
-170.49
 30
0.0
 70
    64
  0
VERTEX
  8
0
  6
CONTINUOUS
 10
-79.901484
 20
-170.49
 30
0.0
 70
    64
  0
VERTEX
  8
0
  6
CONTINUOUS
 10
-79.887764
 20
-170.49
 30
0.0
 70
    64
  0
VERTEX
  8
0
  6
CONTINUOUS
 10
-79.874044
 20
-170.49
 30
0.0
 70
    64
  0
VERTEX
  8
0
  6
CONTINUOUS
 10
-79.860324
 20
-170.49
 30
0.0
 70
    64
  0
VERTEX
  8
0
  6
CONTINUOUS
 10
-79.846604
 20
-170.49
 30
0.0
 70
    64
  0
VERTEX
  8
0
  6
CONTINUOUS
 10
-79.832884
 20
-170.49
 30
0.0
 70
    64
  0
VERTEX
  8
0
  6
CONTINUOUS
 10
-79.819164
 20
-170.49
 30
0.0
 70
    64
  0
VERTEX
  8
0
  6
CONTINUOUS
 10
-79.805444
 20
-170.49
 30
0.0
 70
    64
  0
VERTEX
  8
0
  6
CONTINUOUS
 10
-79.791724
 20
-170.49
 30
0.0
 70
    64
  0
VERTEX
  8
0
  6
CONTINUOUS
 10
-79.778004
 20
-170.49
 30
0.0
 70
    64
  0
VERTEX
  8
0
  6
CONTINUOUS
 10
-79.764284
 20
-170.49
 30
0.0
 70
    64
  0
VERTEX
  8
0
  6
CONTINUOUS
 10
-79.750564
 20
-170.49
 30
0.0
 70
    64
  0
VERTEX
  8
0
  6
CONTINUOUS
 10
-83.180564
 20
-169.51
 30
0.0
 70
    64
  0
VERTEX
  8
0
  6
CONTINUOUS
 10
-83.166844
 20
-169.51
 30
0.0
 70
    64
  0
VERTEX
  8
0
  6
CONTINUOUS
 10
-83.153124
 20
-169.51
 30
0.0
 70
    64
  0
VERTEX
  8
0
  6
CONTINUOUS
 10
-83.139404
 20
-169.51
 30
0.0
 70
    64
  0
VERTEX
  8
0
  6
CONTINUOUS
 10
-83.125684
 20
-169.51
 30
0.0
 70
    64
  0
VERTEX
  8
0
  6
CONTINUOUS
 10
-83.111964
 20
-169.51
 30
0.0
 70
    64
  0
VERTEX
  8
0
  6
CONTINUOUS
 10
-83.098244
 20
-169.51
 30
0.0
 70
    64
  0
VERTEX
  8
0
  6
CONTINUOUS
 10
-83.084524
 20
-169.51
 30
0.0
 70
    64
  0
VERTEX
  8
0
  6
CONTINUOUS
 10
-83.070804
 20
-169.51
 30
0.0
 70
    64
  0
VERTEX
  8
0
  6
CONTINUOUS
 10
-83.057084
 20
-169.51
 30
0.0
 70
    64
  0
VERTEX
  8
0
  6
CONTINUOUS
 10
-83.043364
 20
-169.51
 30
0.0
 70
    64
  0
VERTEX
  8
0
  6
CONTINUOUS
 10
-83.029644
 20
-169.51
 30
0.0
 70
    64
  0
VERTEX
  8
0
  6
CONTINUOUS
 10
-83.015924
 20
-169.51
 30
0.0
 70
    64
  0
VERTEX
  8
0
  6
CONTINUOUS
 10
-83.002204
 20
-169.51
 30
0.0
 70
    64
  0
VERTEX
  8
0
  6
CONTINUOUS
 10
-82.988484
 20
-169.51
 30
0.0
 70
    64
  0
VERTEX
  8
0
  6
CONTINUOUS
 10
-82.974764
 20
-169.51
 30
0.0
 70
    64
  0
VERTEX
  8
0
  6
CONTINUOUS
 10
-82.961044
 20
-169.51
 30
0.0
 70
    64
  0
VERTEX
  8
0
  6
CONTINUOUS
 10
-82.947324
 20
-169.51
 30
0.0
 70
    64
  0
VERTEX
  8
0
  6
CONTINUOUS
 10
-82.933604
 20
-169.51
 30
0.0
 70
    64
  0
VERTEX
  8
0
  6
CONTINUOUS
 10
-82.919884
 20
-169.51
 30
0.0
 70
    64
  0
VERTEX
  8
0
  6
CONTINUOUS
 10
-82.906164
 20
-169.51
 30
0.0
 70
    64
  0
VERTEX
  8
0
  6
CONTINUOUS
 10
-82.892444
 20
-169.51
 30
0.0
 70
    64
  0
VERTEX
  8
0
  6
CONTINUOUS
 10
-82.878724
 20
-169.51
 30
0.0
 70
    64
  0
VERTEX
  8
0
  6
CONTINUOUS
 10
-82.865004
 20
-169.51
 30
0.0
 70
    64
  0
VERTEX
  8
0
  6
CONTINUOUS
 10
-82.851284
 20
-169.51
 30
0.0
 70
    64
  0
VERTEX
  8
0
  6
CONTINUOUS
 10
-82.837564
 20
-169.51
 30
0.0
 70
    64
  0
VERTEX
  8
0
  6
CONTINUOUS
 10
-82.823844
 20
-169.51
 30
0.0
 70
    64
  0
VERTEX
  8
0
  6
CONTINUOUS
 10
-82.810124
 20
-169.51
 30
0.0
 70
    64
  0
VERTEX
  8
0
  6
CONTINUOUS
 10
-82.796404
 20
-169.51
 30
0.0
 70
    64
  0
VERTEX
  8
0
  6
CONTINUOUS
 10
-82.782684
 20
-169.51
 30
0.0
 70
    64
  0
VERTEX
  8
0
  6
CONTINUOUS
 10
-82.768964
 20
-169.51
 30
0.0
 70
    64
  0
VERTEX
  8
0
  6
CONTINUOUS
 10
-82.755244
 20
-169.51
 30
0.0
 70
    64
  0
VERTEX
  8
0
  6
CONTINUOUS
 10
-82.741524
 20
-169.51
 30
0.0
 70
    64
  0
VERTEX
  8
0
  6
CONTINUOUS
 10
-82.727804
 20
-169.51
 30
0.0
 70
    64
  0
VERTEX
  8
0
  6
CONTINUOUS
 10
-82.714084
 20
-169.51
 30
0.0
 70
    64
  0
VERTEX
  8
0
  6
CONTINUOUS
 10
-82.700364
 20
-169.51
 30
0.0
 70
    64
  0
VERTEX
  8
0
  6
CONTINUOUS
 10
-82.686644
 20
-169.51
 30
0.0
 70
    64
  0
VERTEX
  8
0
  6
CONTINUOUS
 10
-82.672924
 20
-169.51
 30
0.0
 70
    64
  0
VERTEX
  8
0
  6
CONTINUOUS
 10
-82.659204
 20
-169.51
 30
0.0
 70
    64
  0
VERTEX
  8
0
  6
CONTINUOUS
 10
-82.645484
 20
-169.51
 30
0.0
 70
    64
  0
VERTEX
  8
0
  6
CONTINUOUS
 10
-82.631764
 20
-169.51
 30
0.0
 70
    64
  0
VERTEX
  8
0
  6
CONTINUOUS
 10
-82.618044
 20
-169.51
 30
0.0
 70
    64
  0
VERTEX
  8
0
  6
CONTINUOUS
 10
-82.604324
 20
-169.51
 30
0.0
 70
    64
  0
VERTEX
  8
0
  6
CONTINUOUS
 10
-82.590604
 20
-169.51
 30
0.0
 70
    64
  0
VERTEX
  8
0
  6
CONTINUOUS
 10
-82.576884
 20
-169.51
 30
0.0
 70
    64
  0
VERTEX
  8
0
  6
CONTINUOUS
 10
-82.563164
 20
-169.51
 30
0.0
 70
    64
  0
VERTEX
  8
0
  6
CONTINUOUS
 10
-82.549444
 20
-169.51
 30
0.0
 70
    64
  0
VERTEX
  8
0
  6
CONTINUOUS
 10
-82.535724
 20
-169.51
 30
0.0
 70
    64
  0
VERTEX
  8
0
  6
CONTINUOUS
 10
-82.522004
 20
-169.51
 30
0.0
 70
    64
  0
VERTEX
  8
0
  6
CONTINUOUS
 10
-82.508284
 20
-169.51
 30
0.0
 70
    64
  0
VERTEX
  8
0
  6
CONTINUOUS
 10
-82.494564
 20
-169.51
 30
0.0
 70
    64
  0
VERTEX
  8
0
  6
CONTINUOUS
 10
-82.480844
 20
-169.51
 30
0.0
 70
    64
  0
VERTEX
  8
0
  6
CONTINUOUS
 10
-82.467124
 20
-169.51
 30
0.0
 70
    64
  0
VERTEX
  8
0
  6
CONTINUOUS
 10
-82.453404
 20
-169.51
 30
0.0
 70
    64
  0
VERTEX
  8
0
  6
CONTINUOUS
 10
-82.439684
 20
-169.51
 30
0.0
 70
    64
  0
VERTEX
  8
0
  6
CONTINUOUS
 10
-82.425964
 20
-169.51
 30
0.0
 70
    64
  0
VERTEX
  8
0
  6
CONTINUOUS
 10
-82.412244
 20
-169.51
 30
0.0
 70
    64
  0
VERTEX
  8
0
  6
CONTINUOUS
 10
-82.398524
 20
-169.51
 30
0.0
 70
    64
  0
VERTEX
  8
0
  6
CONTINUOUS
 10
-82.384804
 20
-169.51
 30
0.0
 70
    64
  0
VERTEX
  8
0
  6
CONTINUOUS
 10
-82.371084
 20
-169.51
 30
0.0
 70
    64
  0
VERTEX
  8
0
  6
CONTINUOUS
 10
-82.357364
 20
-169.51
 30
0.0
 70
    64
  0
VERTEX
  8
0
  6
CONTINUOUS
 10
-82.343644
 20
-169.51
 30
0.0
 70
    64
  0
VERTEX
  8
0
  6
CONTINUOUS
 10
-82.329924
 20
-169.51
 30
0.0
 70
    64
  0
VERTEX
  8
0
  6
CONTINUOUS
 10
-82.316204
 20
-169.51
 30
0.0
 70
    64
  0
VERTEX
  8
0
  6
CONTINUOUS
 10
-82.302484
 20
-169.51
 30
0.0
 70
    64
  0
VERTEX
  8
0
  6
CONTINUOUS
 10
-82.288764
 20
-169.51
 30
0.0
 70
    64
  0
VERTEX
  8
0
  6
CONTINUOUS
 10
-82.275044
 20
-169.51
 30
0.0
 70
    64
  0
VERTEX
  8
0
  6
CONTINUOUS
 10
-82.261324
 20
-169.51
 30
0.0
 70
    64
  0
VERTEX
  8
0
  6
CONTINUOUS
 10
-82.247604
 20
-169.51
 30
0.0
 70
    64
  0
VERTEX
  8
0
  6
CONTINUOUS
 10
-82.233884
 20
-169.51
 30
0.0
 70
    64
  0
VERTEX
  8
0
  6
CONTINUOUS
 10
-82.220164
 20
-169.51
 30
0.0
 70
    64
  0
VERTEX
  8
0
  6
CONTINUOUS
 10
-82.206444
 20
-169.51
 30
0.0
 70
    64
  0
VERTEX
  8
0
  6
CONTINUOUS
 10
-82.192724
 20
-169.51
 30
0.0
 70
    64
  0
VERTEX
  8
0
  6
CONTINUOUS
 10
-82.179004
 20
-169.51
 30
0.0
 70
    64
  0
VERTEX
  8
0
  6
CONTINUOUS
 10
-82.165284
 20
-169.51
 30
0.0
 70
    64
  0
VERTEX
  8
0
  6
CONTINUOUS
 10
-82.151564
 20
-169.51
 30
0.0
 70
    64
  0
VERTEX
  8
0
  6
CONTINUOUS
 10
-82.137844
 20
-169.51
 30
0.0
 70
    64
  0
VERTEX
  8
0
  6
CONTINUOUS
 10
-82.124124
 20
-169.51
 30
0.0
 70
    64
  0
VERTEX
  8
0
  6
CONTINUOUS
 10
-82.110404
 20
-169.51
 30
0.0
 70
    64
  0
VERTEX
  8
0
  6
CONTINUOUS
 10
-82.096684
 20
-169.51
 30
0.0
 70
    64
  0
VERTEX
  8
0
  6
CONTINUOUS
 10
-82.082964
 20
-169.51
 30
0.0
 70
    64
  0
VERTEX
  8
0
  6
CONTINUOUS
 10
-82.069244
 20
-169.51
 30
0.0
 70
    64
  0
VERTEX
  8
0
  6
CONTINUOUS
 10
-82.055524
 20
-169.51
 30
0.0
 70
    64
  0
VERTEX
  8
0
  6
CONTINUOUS
 10
-82.041804
 20
-169.51
 30
0.0
 70
    64
  0
VERTEX
  8
0
  6
CONTINUOUS
 10
-82.028084
 20
-169.51
 30
0.0
 70
    64
  0
VERTEX
  8
0
  6
CONTINUOUS
 10
-82.014364
 20
-169.51
 30
0.0
 70
    64
  0
VERTEX
  8
0
  6
CONTINUOUS
 10
-82.000644
 20
-169.51
 30
0.0
 70
    64
  0
VERTEX
  8
0
  6
CONTINUOUS
 10
-81.986924
 20
-169.51
 30
0.0
 70
    64
  0
VERTEX
  8
0
  6
CONTINUOUS
 10
-81.973204
 20
-169.51
 30
0.0
 70
    64
  0
VERTEX
  8
0
  6
CONTINUOUS
 10
-81.959484
 20
-169.51
 30
0.0
 70
    64
  0
VERTEX
  8
0
  6
CONTINUOUS
 10
-81.945764
 20
-169.51
 30
0.0
 70
    64
  0
VERTEX
  8
0
  6
CONTINUOUS
 10
-81.932044
 20
-169.51
 30
0.0
 70
    64
  0
VERTEX
  8
0
  6
CONTINUOUS
 10
-81.918324
 20
-169.51
 30
0.0
 70
    64
  0
VERTEX
  8
0
  6
CONTINUOUS
 10
-81.904604
 20
-169.51
 30
0.0
 70
    64
  0
VERTEX
  8
0
  6
CONTINUOUS
 10
-81.890884
 20
-169.51
 30
0.0
 70
    64
  0
VERTEX
  8
0
  6
CONTINUOUS
 10
-81.877164
 20
-169.51
 30
0.0
 70
    64
  0
VERTEX
  8
0
  6
CONTINUOUS
 10
-81.863444
 20
-169.51
 30
0.0
 70
    64
  0
VERTEX
  8
0
  6
CONTINUOUS
 10
-81.849724
 20
-169.51
 30
0.0
 70
    64
  0
VERTEX
  8
0
  6
CONTINUOUS
 10
-81.836004
 20
-169.51
 30
0.0
 70
    64
  0
VERTEX
  8
0
  6
CONTINUOUS
 10
-81.822284
 20
-169.51
 30
0.0
 70
    64
  0
VERTEX
  8
0
  6
CONTINUOUS
 10
-81.808564
 20
-169.51
 30
0.0
 70
    64
  0
VERTEX
  8
0
  6
CONTINUOUS
 10
-81.794844
 20
-169.51
 30
0.0
 70
    64
  0
VERTEX
  8
0
  6
CONTINUOUS
 10
-81.781124
 20
-169.51
 30
0.0
 70
    64
  0
VERTEX
  8
0
  6
CONTINUOUS
 10
-81.767404
 20
-169.51
 30
0.0
 70
    64
  0
VERTEX
  8
0
  6
CONTINUOUS
 10
-81.753684
 20
-169.51
 30
0.0
 70
    64
  0
VERTEX
  8
0
  6
CONTINUOUS
 10
-81.739964
 20
-169.51
 30
0.0
 70
    64
  0
VERTEX
  8
0
  6
CONTINUOUS
 10
-81.726244
 20
-169.51
 30
0.0
 70
    64
  0
VERTEX
  8
0
  6
CONTINUOUS
 10
-81.712524
 20
-169.51
 30
0.0
 70
    64
  0
VERTEX
  8
0
  6
CONTINUOUS
 10
-81.698804
 20
-169.51
 30
0.0
 70
    64
  0
VERTEX
  8
0
  6
CONTINUOUS
 10
-81.685084
 20
-169.51
 30
0.0
 70
    64
  0
VERTEX
  8
0
  6
CONTINUOUS
 10
-81.671364
 20
-169.51
 30
0.0
 70
    64
  0
VERTEX
  8
0
  6
CONTINUOUS
 10
-81.657644
 20
-169.51
 30
0.0
 70
    64
  0
VERTEX
  8
0
  6
CONTINUOUS
 10
-81.643924
 20
-169.51
 30
0.0
 70
    64
  0
VERTEX
  8
0
  6
CONTINUOUS
 10
-81.630204
 20
-169.51
 30
0.0
 70
    64
  0
VERTEX
  8
0
  6
CONTINUOUS
 10
-81.616484
 20
-169.51
 30
0.0
 70
    64
  0
VERTEX
  8
0
  6
CONTINUOUS
 10
-81.602764
 20
-169.51
 30
0.0
 70
    64
  0
VERTEX
  8
0
  6
CONTINUOUS
 10
-81.589044
 20
-169.51
 30
0.0
 70
    64
  0
VERTEX
  8
0
  6
CONTINUOUS
 10
-81.575324
 20
-169.51
 30
0.0
 70
    64
  0
VERTEX
  8
0
  6
CONTINUOUS
 10
-81.561604
 20
-169.51
 30
0.0
 70
    64
  0
VERTEX
  8
0
  6
CONTINUOUS
 10
-81.547884
 20
-169.51
 30
0.0
 70
    64
  0
VERTEX
  8
0
  6
CONTINUOUS
 10
-81.534164
 20
-169.51
 30
0.0
 70
    64
  0
VERTEX
  8
0
  6
CONTINUOUS
 10
-81.520444
 20
-169.51
 30
0.0
 70
    64
  0
VERTEX
  8
0
  6
CONTINUOUS
 10
-81.506724
 20
-169.51
 30
0.0
 70
    64
  0
VERTEX
  8
0
  6
CONTINUOUS
 10
-81.493004
 20
-169.51
 30
0.0
 70
    64
  0
VERTEX
  8
0
  6
CONTINUOUS
 10
-81.479284
 20
-169.51
 30
0.0
 70
    64
  0
VERTEX
  8
0
  6
CONTINUOUS
 10
-81.465564
 20
-169.51
 30
0.0
 70
    64
  0
VERTEX
  8
0
  6
CONTINUOUS
 10
-81.451844
 20
-169.51
 30
0.0
 70
    64
  0
VERTEX
  8
0
  6
CONTINUOUS
 10
-81.438124
 20
-169.51
 30
0.0
 70
    64
  0
VERTEX
  8
0
  6
CONTINUOUS
 10
-81.424404
 20
-169.51
 30
0.0
 70
    64
  0
VERTEX
  8
0
  6
CONTINUOUS
 10
-81.410684
 20
-169.51
 30
0.0
 70
    64
  0
VERTEX
  8
0
  6
CONTINUOUS
 10
-81.396964
 20
-169.51
 30
0.0
 70
    64
  0
VERTEX
  8
0
  6
CONTINUOUS
 10
-81.383244
 20
-169.51
 30
0.0
 70
    64
  0
VERTEX
  8
0
  6
CONTINUOUS
 10
-81.369524
 20
-169.51
 30
0.0
 70
    64
  0
VERTEX
  8
0
  6
CONTINUOUS
 10
-81.355804
 20
-169.51
 30
0.0
 70
    64
  0
VERTEX
  8
0
  6
CONTINUOUS
 10
-81.342084
 20
-169.51
 30
0.0
 70
    64
  0
VERTEX
  8
0
  6
CONTINUOUS
 10
-81.328364
 20
-169.51
 30
0.0
 70
    64
  0
VERTEX
  8
0
  6
CONTINUOUS
 10
-81.314644
 20
-169.51
 30
0.0
 70
    64
  0
VERTEX
  8
0
  6
CONTINUOUS
 10
-81.300924
 20
-169.51
 30
0.0
 70
    64
  0
VERTEX
  8
0
  6
CONTINUOUS
 10
-81.287204
 20
-169.51
 30
0.0
 70
    64
  0
VERTEX
  8
0
  6
CONTINUOUS
 10
-81.273484
 20
-169.51
 30
0.0
 70
    64
  0
VERTEX
  8
0
  6
CONTINUOUS
 10
-81.259764
 20
-169.51
 30
0.0
 70
    64
  0
VERTEX
  8
0
  6
CONTINUOUS
 10
-81.246044
 20
-169.51
 30
0.0
 70
    64
  0
VERTEX
  8
0
  6
CONTINUOUS
 10
-81.232324
 20
-169.51
 30
0.0
 70
    64
  0
VERTEX
  8
0
  6
CONTINUOUS
 10
-81.218604
 20
-169.51
 30
0.0
 70
    64
  0
VERTEX
  8
0
  6
CONTINUOUS
 10
-81.204884
 20
-169.51
 30
0.0
 70
    64
  0
VERTEX
  8
0
  6
CONTINUOUS
 10
-81.191164
 20
-169.51
 30
0.0
 70
    64
  0
VERTEX
  8
0
  6
CONTINUOUS
 10
-81.177444
 20
-169.51
 30
0.0
 70
    64
  0
VERTEX
  8
0
  6
CONTINUOUS
 10
-81.163724
 20
-169.51
 30
0.0
 70
    64
  0
VERTEX
  8
0
  6
CONTINUOUS
 10
-81.150004
 20
-169.51
 30
0.0
 70
    64
  0
VERTEX
  8
0
  6
CONTINUOUS
 10
-81.136284
 20
-169.51
 30
0.0
 70
    64
  0
VERTEX
  8
0
  6
CONTINUOUS
 10
-81.122564
 20
-169.51
 30
0.0
 70
    64
  0
VERTEX
  8
0
  6
CONTINUOUS
 10
-81.108844
 20
-169.51
 30
0.0
 70
    64
  0
VERTEX
  8
0
  6
CONTINUOUS
 10
-81.095124
 20
-169.51
 30
0.0
 70
    64
  0
VERTEX
  8
0
  6
CONTINUOUS
 10
-81.081404
 20
-169.51
 30
0.0
 70
    64
  0
VERTEX
  8
0
  6
CONTINUOUS
 10
-81.067684
 20
-169.51
 30
0.0
 70
    64
  0
VERTEX
  8
0
  6
CONTINUOUS
 10
-81.053964
 20
-169.51
 30
0.0
 70
    64
  0
VERTEX
  8
0
  6
CONTINUOUS
 10
-81.040244
 20
-169.51
 30
0.0
 70
    64
  0
VERTEX
  8
0
  6
CONTINUOUS
 10
-81.026524
 20
-169.51
 30
0.0
 70
    64
  0
VERTEX
  8
0
  6
CONTINUOUS
 10
-81.012804
 20
-169.51
 30
0.0
 70
    64
  0
VERTEX
  8
0
  6
CONTINUOUS
 10
-80.999084
 20
-169.51
 30
0.0
 70
    64
  0
VERTEX
  8
0
  6
CONTINUOUS
 10
-80.985364
 20
-169.51
 30
0.0
 70
    64
  0
VERTEX
  8
0
  6
CONTINUOUS
 10
-80.971644
 20
-169.51
 30
0.0
 70
    64
  0
VERTEX
  8
0
  6
CONTINUOUS
 10
-80.957924
 20
-169.51
 30
0.0
 70
    64
  0
VERTEX
  8
0
  6
CONTINUOUS
 10
-80.944204
 20
-169.51
 30
0.0
 70
    64
  0
VERTEX
  8
0
  6
CONTINUOUS
 10
-80.930484
 20
-169.51
 30
0.0
 70
    64
  0
VERTEX
  8
0
  6
CONTINUOUS
 10
-80.916764
 20
-169.51
 30
0.0
 70
    64
  0
VERTEX
  8
0
  6
CONTINUOUS
 10
-80.903044
 20
-169.51
 30
0.0
 70
    64
  0
VERTEX
  8
0
  6
CONTINUOUS
 10
-80.889324
 20
-169.51
 30
0.0
 70
    64
  0
VERTEX
  8
0
  6
CONTINUOUS
 10
-80.875604
 20
-169.51
 30
0.0
 70
    64
  0
VERTEX
  8
0
  6
CONTINUOUS
 10
-80.861884
 20
-169.51
 30
0.0
 70
    64
  0
VERTEX
  8
0
  6
CONTINUOUS
 10
-80.848164
 20
-169.51
 30
0.0
 70
    64
  0
VERTEX
  8
0
  6
CONTINUOUS
 10
-80.834444
 20
-169.51
 30
0.0
 70
    64
  0
VERTEX
  8
0
  6
CONTINUOUS
 10
-80.820724
 20
-169.51
 30
0.0
 70
    64
  0
VERTEX
  8
0
  6
CONTINUOUS
 10
-80.807004
 20
-169.51
 30
0.0
 70
    64
  0
VERTEX
  8
0
  6
CONTINUOUS
 10
-80.793284
 20
-169.51
 30
0.0
 70
    64
  0
VERTEX
  8
0
  6
CONTINUOUS
 10
-80.779564
 20
-169.51
 30
0.0
 70
    64
  0
VERTEX
  8
0
  6
CONTINUOUS
 10
-80.765844
 20
-169.51
 30
0.0
 70
    64
  0
VERTEX
  8
0
  6
CONTINUOUS
 10
-80.752124
 20
-169.51
 30
0.0
 70
    64
  0
VERTEX
  8
0
  6
CONTINUOUS
 10
-80.738404
 20
-169.51
 30
0.0
 70
    64
  0
VERTEX
  8
0
  6
CONTINUOUS
 10
-80.724684
 20
-169.51
 30
0.0
 70
    64
  0
VERTEX
  8
0
  6
CONTINUOUS
 10
-80.710964
 20
-169.51
 30
0.0
 70
    64
  0
VERTEX
  8
0
  6
CONTINUOUS
 10
-80.697244
 20
-169.51
 30
0.0
 70
    64
  0
VERTEX
  8
0
  6
CONTINUOUS
 10
-80.683524
 20
-169.51
 30
0.0
 70
    64
  0
VERTEX
  8
0
  6
CONTINUOUS
 10
-80.669804
 20
-169.51
 30
0.0
 70
    64
  0
VERTEX
  8
0
  6
CONTINUOUS
 10
-80.656084
 20
-169.51
 30
0.0
 70
    64
  0
VERTEX
  8
0
  6
CONTINUOUS
 10
-80.642364
 20
-169.51
 30
0.0
 70
    64
  0
VERTEX
  8
0
  6
CONTINUOUS
 10
-80.628644
 20
-169.51
 30
0.0
 70
    64
  0
VERTEX
  8
0
  6
CONTINUOUS
 10
-80.614924
 20
-169.51
 30
0.0
 70
    64
  0
VERTEX
  8
0
  6
CONTINUOUS
 10
-80.601204
 20
-169.51
 30
0.0
 70
    64
  0
VERTEX
  8
0
  6
CONTINUOUS
 10
-80.587484
 20
-169.51
 30
0.0
 70
    64
  0
VERTEX
  8
0
  6
CONTINUOUS
 10
-80.573764
 20
-169.51
 30
0.0
 70
    64
  0
VERTEX
  8
0
  6
CONTINUOUS
 10
-80.560044
 20
-169.51
 30
0.0
 70
    64
  0
VERTEX
  8
0
  6
CONTINUOUS
 10
-80.546324
 20
-169.51
 30
0.0
 70
    64
  0
VERTEX
  8
0
  6
CONTINUOUS
 10
-80.532604
 20
-169.51
 30
0.0
 70
    64
  0
VERTEX
  8
0
  6
CONTINUOUS
 10
-80.518884
 20
-169.51
 30
0.0
 70
    64
  0
VERTEX
  8
0
  6
CONTINUOUS
 10
-80.505164
 20
-169.51
 30
0.0
 70
    64
  0
VERTEX
  8
0
  6
CONTINUOUS
 10
-80.491444
 20
-169.51
 30
0.0
 70
    64
  0
VERTEX
  8
0
  6
CONTINUOUS
 10
-80.477724
 20
-169.51
 30
0.0
 70
    64
  0
VERTEX
  8
0
  6
CONTINUOUS
 10
-80.464004
 20
-169.51
 30
0.0
 70
    64
  0
VERTEX
  8
0
  6
CONTINUOUS
 10
-80.450284
 20
-169.51
 30
0.0
 70
    64
  0
VERTEX
  8
0
  6
CONTINUOUS
 10
-80.436564
 20
-169.51
 30
0.0
 70
    64
  0
VERTEX
  8
0
  6
CONTINUOUS
 10
-80.422844
 20
-169.51
 30
0.0
 70
    64
  0
VERTEX
  8
0
  6
CONTINUOUS
 10
-80.409124
 20
-169.51
 30
0.0
 70
    64
  0
VERTEX
  8
0
  6
CONTINUOUS
 10
-80.395404
 20
-169.51
 30
0.0
 70
    64
  0
VERTEX
  8
0
  6
CONTINUOUS
 10
-80.381684
 20
-169.51
 30
0.0
 70
    64
  0
VERTEX
  8
0
  6
CONTINUOUS
 10
-80.367964
 20
-169.51
 30
0.0
 70
    64
  0
VERTEX
  8
0
  6
CONTINUOUS
 10
-80.354244
 20
-169.51
 30
0.0
 70
    64
  0
VERTEX
  8
0
  6
CONTINUOUS
 10
-80.340524
 20
-169.51
 30
0.0
 70
    64
  0
VERTEX
  8
0
  6
CONTINUOUS
 10
-80.326804
 20
-169.51
 30
0.0
 70
    64
  0
VERTEX
  8
0
  6
CONTINUOUS
 10
-80.313084
 20
-169.51
 30
0.0
 70
    64
  0
VERTEX
  8
0
  6
CONTINUOUS
 10
-80.299364
 20
-169.51
 30
0.0
 70
    64
  0
VERTEX
  8
0
  6
CONTINUOUS
 10
-80.285644
 20
-169.51
 30
0.0
 70
    64
  0
VERTEX
  8
0
  6
CONTINUOUS
 10
-80.271924
 20
-169.51
 30
0.0
 70
    64
  0
VERTEX
  8
0
  6
CONTINUOUS
 10
-80.258204
 20
-169.51
 30
0.0
 70
    64
  0
VERTEX
  8
0
  6
CONTINUOUS
 10
-80.244484
 20
-169.51
 30
0.0
 70
    64
  0
VERTEX
  8
0
  6
CONTINUOUS
 10
-80.230764
 20
-169.51
 30
0.0
 70
    64
  0
VERTEX
  8
0
  6
CONTINUOUS
 10
-80.217044
 20
-169.51
 30
0.0
 70
    64
  0
VERTEX
  8
0
  6
CONTINUOUS
 10
-80.203324
 20
-169.51
 30
0.0
 70
    64
  0
VERTEX
  8
0
  6
CONTINUOUS
 10
-80.189604
 20
-169.51
 30
0.0
 70
    64
  0
VERTEX
  8
0
  6
CONTINUOUS
 10
-80.175884
 20
-169.51
 30
0.0
 70
    64
  0
VERTEX
  8
0
  6
CONTINUOUS
 10
-80.162164
 20
-169.51
 30
0.0
 70
    64
  0
VERTEX
  8
0
  6
CONTINUOUS
 10
-80.148444
 20
-169.51
 30
0.0
 70
    64
  0
VERTEX
  8
0
  6
CONTINUOUS
 10
-80.134724
 20
-169.51
 30
0.0
 70
    64
  0
VERTEX
  8
0
  6
CONTINUOUS
 10
-80.121004
 20
-169.51
 30
0.0
 70
    64
  0
VERTEX
  8
0
  6
CONTINUOUS
 10
-80.107284
 20
-169.51
 30
0.0
 70
    64
  0
VERTEX
  8
0
  6
CONTINUOUS
 10
-80.093564
 20
-169.51
 30
0.0
 70
    64
  0
VERTEX
  8
0
  6
CONTINUOUS
 10
-80.079844
 20
-169.51
 30
0.0
 70
    64
  0
VERTEX
  8
0
  6
CONTINUOUS
 10
-80.066124
 20
-169.51
 30
0.0
 70
    64
  0
VERTEX
  8
0
  6
CONTINUOUS
 10
-80.052404
 20
-169.51
 30
0.0
 70
    64
  0
VERTEX
  8
0
  6
CONTINUOUS
 10
-80.038684
 20
-169.51
 30
0.0
 70
    64
  0
VERTEX
  8
0
  6
CONTINUOUS
 10
-80.024964
 20
-169.51
 30
0.0
 70
    64
  0
VERTEX
  8
0
  6
CONTINUOUS
 10
-80.011244
 20
-169.51
 30
0.0
 70
    64
  0
VERTEX
  8
0
  6
CONTINUOUS
 10
-79.997524
 20
-169.51
 30
0.0
 70
    64
  0
VERTEX
  8
0
  6
CONTINUOUS
 10
-79.983804
 20
-169.51
 30
0.0
 70
    64
  0
VERTEX
  8
0
  6
CONTINUOUS
 10
-79.970084
 20
-169.51
 30
0.0
 70
    64
  0
VERTEX
  8
0
  6
CONTINUOUS
 10
-79.956364
 20
-169.51
 30
0.0
 70
    64
  0
VERTEX
  8
0
  6
CONTINUOUS
 10
-79.942644
 20
-169.51
 30
0.0
 70
    64
  0
VERTEX
  8
0
  6
CONTINUOUS
 10
-79.928924
 20
-169.51
 30
0.0
 70
    64
  0
VERTEX
  8
0
  6
CONTINUOUS
 10
-79.915204
 20
-169.51
 30
0.0
 70
    64
  0
VERTEX
  8
0
  6
CONTINUOUS
 10
-79.901484
 20
-169.51
 30
0.0
 70
    64
  0
VERTEX
  8
0
  6
CONTINUOUS
 10
-79.887764
 20
-169.51
 30
0.0
 70
    64
  0
VERTEX
  8
0
  6
CONTINUOUS
 10
-79.874044
 20
-169.51
 30
0.0
 70
    64
  0
VERTEX
  8
0
  6
CONTINUOUS
 10
-79.860324
 20
-169.51
 30
0.0
 70
    64
  0
VERTEX
  8
0
  6
CONTINUOUS
 10
-79.846604
 20
-169.51
 30
0.0
 70
    64
  0
VERTEX
  8
0
  6
CONTINUOUS
 10
-79.832884
 20
-169.51
 30
0.0
 70
    64
  0
VERTEX
  8
0
  6
CONTINUOUS
 10
-79.819164
 20
-169.51
 30
0.0
 70
    64
  0
VERTEX
  8
0
  6
CONTINUOUS
 10
-79.805444
 20
-169.51
 30
0.0
 70
    64
  0
VERTEX
  8
0
  6
CONTINUOUS
 10
-79.791724
 20
-169.51
 30
0.0
 70
    64
  0
VERTEX
  8
0
  6
CONTINUOUS
 10
-79.778004
 20
-169.51
 30
0.0
 70
    64
  0
VERTEX
  8
0
  6
CONTINUOUS
 10
-79.764284
 20
-169.51
 30
0.0
 70
    64
  0
VERTEX
  8
0
  6
CONTINUOUS
 10
-79.750564
 20
-169.51
 30
0.0
 70
    64
  0
SEQEND
  8
0
  6
CONTINUOUS
  0
LINE
  8
0
  6
CONTINUOUS
 10
-79.750564
 20
-169.51
 30
0.0
 11
-83.180564
 21
-169.51
 31
0.0
  0
LINE
  8
0
  6
CONTINUOUS
 10
-79.750564
 20
-170.49
 30
0.0
 11
-79.750564
 21
-169.51
 31
0.0
  0
LINE
  8
0
  6
CONTINUOUS
 10
-83.180564
 20
-170.49
 30
0.0
 11
-79.750564
 21
-170.49
 31
0.0
  0
LINE
  8
0
  6
CONTINUOUS
 10
-83.180564
 20
-169.51
 30
0.0
 11
-83.180564
 21
-170.49
 31
0.0
  0
ARC
  8
0
  6
CONTINUOUS
 10
-82.5
 20
-170.0
 30
0.0
 40
2.5
 50
90.0
 51
270.0
  0
LINE
  8
BASE
  6
CENTER
 10
-85.0
 20
-20.0
 30
0.0
 11
-85.0
 21
-162.5
 31
0.0
  0
ENDBLK
  8
0
  0
BLOCK
  8
0
  2
B10
 70
     0
 10
0.0
 20
0.0
 30
0.0
  3
B10
  0
TEXT
  8
0
  6
DASHED
 10
-45.74196
 20
-47.659474
 30
0.0
 40
2.0
  1
  BUSSANSLUTNINGSMODUL
  7
ROMANS
  0
TEXT
  8
0
  6
DASHED
 10
-40.886804
 20
-5.854369
 30
0.0
 40
2.0
  1
1) CONTROL INPUTS
  7
ROMANS
  0
TEXT
  8
0
  6
DASHED
 10
-35.814299
 20
-9.187703
 30
0.0
 40
2.0
  1
KONTROLLINGÅNGAR
  7
ROMANS
  0
TEXT
  8
0
  6
DASHED
 10
-40.886804
 20
-15.854369
 30
0.0
 40
2.0
  1
2) TRIP
  7
ROMANS
  0
TEXT
  8
0
  6
DASHED
 10
-39.547789
 20
-19.187703
 30
0.0
 40
2.0
  1
  UTLÖSNING
  7
ROMANS
  0
TEXT
  8
0
  6
DASHED
 10
-41.742764
 20
-38.354369
 30
0.0
 40
2.0
  1
INTERNT RELÄFEL, IRF
  7
ROMANS
  0
TEXT
  8
0
  6
DASHED
 10
-35.879315
 20
-29.187703
 30
0.0
 40
2.0
  1
SIGNAL MM.
  7
ROMANS
  0
TEXT
  8
0
  6
DASHED
 10
-40.903334
 20
-25.854369
 30
0.0
 40
2.0
  1
3) ALARM ETC.
  7
ROMANS
  0
TEXT
  8
0
  6
DASHED
 10
-46.972462
 20
-44.187703
 30
0.0
 40
2.0
  1
5) BUS CONNECTION MODULE
  7
ROMANS
  0
TEXT
  8
0
  6
DASHED
 10
-46.972462
 20
-35.021036
 30
0.0
 40
2.0
  1
4) INTERNAL RELAY FAULT, IRF
  7
ROMANS
  0
ENDBLK
  8
0
  0
BLOCK
  8
0
  2
B766
 70
    64
 10
0.0
 20
0.0
 30
0.0
  3
B766
  0
LINE
  8
0
  6
CONTINUOUS
 10
0.0
 20
1.776482
 30
0.0
 11
0.0
 21
-4.180446
 31
0.0
  0
LINE
  8
0
  6
CONTINUOUS
 10
0.0
 20
-15.0
 30
0.0
 11
0.0
 21
-12.701124
 31
0.0
  0
LINE
  8
0
  6
CONTINUOUS
 10
-5.0
 20
-12.701124
 30
0.0
 11
-5.0
 21
-15.0
 31
0.0
  0
LINE
  8
0
  6
CONTINUOUS
 10
-10.0
 20
-12.701124
 30
0.0
 11
-10.0
 21
-15.0
 31
0.0
  0
LINE
  8
0
  6
CONTINUOUS
 10
0.0
 20
-15.0
 30
0.0
 11
-30.0
 21
-15.0
 31
0.0
  0
ARC
  8
0
  6
CONTINUOUS
 10
0.0
 20
-5.245531
 30
0.0
 40
1.065085
 50
270.0
 51
90.0
  0
ARC
  8
0
  6
CONTINUOUS
 10
0.0
 20
-7.3757
 30
0.0
 40
1.065085
 50
270.0
 51
90.0
  0
ARC
  8
0
  6
CONTINUOUS
 10
0.0
 20
-9.50587
 30
0.0
 40
1.065085
 50
270.0
 51
90.0
  0
ARC
  8
0
  6
CONTINUOUS
 10
0.0
 20
-11.636039
 30
0.0
 40
1.065085
 50
270.0
 51
90.0
  0
ARC
  8
0
  6
CONTINUOUS
 10
-5.0
 20
-5.245531
 30
0.0
 40
1.065085
 50
270.0
 51
90.0
  0
ARC
  8
0
  6
CONTINUOUS
 10
-5.0
 20
-7.3757
 30
0.0
 40
1.065085
 50
270.0
 51
90.0
  0
ARC
  8
0
  6
CONTINUOUS
 10
-5.0
 20
-9.50587
 30
0.0
 40
1.065085
 50
270.0
 51
90.0
  0
ARC
  8
0
  6
CONTINUOUS
 10
-5.0
 20
-11.636039
 30
0.0
 40
1.065085
 50
270.0
 51
90.0
  0
ARC
  8
0
  6
CONTINUOUS
 10
-10.0
 20
-5.245531
 30
0.0
 40
1.065085
 50
270.0
 51
90.0
  0
ARC
  8
0
  6
CONTINUOUS
 10
-10.0
 20
-7.3757
 30
0.0
 40
1.065085
 50
270.0
 51
90.0
  0
ARC
  8
0
  6
CONTINUOUS
 10
-10.0
 20
-9.50587
 30
0.0
 40
1.065085
 50
270.0
 51
90.0
  0
ARC
  8
0
  6
CONTINUOUS
 10
-10.0
 20
-11.636039
 30
0.0
 40
1.065085
 50
270.0
 51
90.0
  0
INSERT
  8
0
  6
DASHED
  2
BLC15
 10
-32.91466
 20
-14.857913
 30
0.0
 50
270.0
  0
POLYLINE
  8
0
  6
CONTINUOUS
 66
     1
 10
0.0
 20
0.0
 30
0.0
 70
     1
 40
0.5
 41
0.5
 71
     2
 72
   151
  0
VERTEX
  8
0
  6
CONTINUOUS
 10
-10.5
 20
-15.0
 30
0.0
 42
1.0
  0
VERTEX
  8
0
  6
CONTINUOUS
 10
-9.5
 20
-15.0
 30
0.0
 42
1.0
  0
SEQEND
  8
0
  6
CONTINUOUS
  0
POLYLINE
  8
0
  6
CONTINUOUS
 66
     1
 10
0.0
 20
0.0
 30
0.0
 70
     1
 40
0.5
 41
0.5
 71
     2
 72
   151
  0
VERTEX
  8
0
  6
CONTINUOUS
 10
-5.5
 20
-15.0
 30
0.0
 42
1.0
  0
VERTEX
  8
0
  6
CONTINUOUS
 10
-4.5
 20
-15.0
 30
0.0
 42
1.0
  0
SEQEND
  8
0
  6
CONTINUOUS
  0
ENDBLK
  8
0
  0
ENDSEC
  0
SECTION
  2
ENTITIES
  0
INSERT
  8
0
  2
1
 10
65.405438
 20
98.713066
 30
0.0
  0
INSERT
  8
0
  2
1
 10
72.541652
 20
49.71056
 30
0.0
  0
INSERT
  8
0
  2
1
 10
85.390443
 20
73.497234
 30
0.0
  0
LINE
  8
0
  6
CONTINUOUS
 62
   249
 10
167.5
 20
105.0
 30
0.0
 11
167.5
 21
98.249065
 31
0.0
  0
LINE
  8
0
  6
CONTINUOUS
 62
   249
 10
235.0
 20
72.5
 30
0.0
 11
245.0
 21
72.5
 31
0.0
  0
LINE
  8
0
  6
CONTINUOUS
 62
   249
 10
235.0
 20
72.5
 30
0.0
 11
237.5
 21
75.0
 31
0.0
  0
LINE
  8
0
  6
CONTINUOUS
 62
   249
 10
240.0
 20
72.5
 30
0.0
 11
242.5
 21
75.0
 31
0.0
  0
LINE
  8
0
  6
CONTINUOUS
 62
   249
 10
245.0
 20
72.5
 30
0.0
 11
247.5
 21
75.0
 31
0.0
  0
LINE
  8
0
  6
CONTINUOUS
 62
   249
 10
240.0
 20
72.5
 30
0.0
 11
240.0
 21
50.0
 31
0.0
  0
LINE
  8
0
  6
CONTINUOUS
 62
   249
 10
225.0
 20
77.5
 30
0.0
 11
225.0
 21
50.0
 31
0.0
  0
LINE
  8
0
  6
CONTINUOUS
 62
   249
 10
220.0
 20
77.5
 30
0.0
 11
220.0
 21
50.0
 31
0.0
  0
LINE
  8
0
  6
DASHED
 62
   249
 10
157.5
 20
50.0
 30
0.0
 11
157.5
 21
42.5
 31
0.0
  0
LINE
  8
0
  6
CONTINUOUS
 62
   249
 10
177.5
 20
157.732891
 30
0.0
 11
207.950615
 21
157.732891
 31
0.0
  0
TEXT
  8
0
  6
CONTINUOUS
 62
   249
 10
189.408766
 20
153.795815
 30
0.0
 40
2.5
  1
IRF
 11
189.408766
 21
152.962481
 31
0.0
 73
     1
  0
LINE
  8
0
  6
CONTINUOUS
 62
   249
 10
207.950615
 20
152.5
 30
0.0
 11
177.5
 21
152.5
 31
0.0
  0
LINE
  8
0
  6
CONTINUOUS
 62
   249
 10
207.950615
 20
230.0
 30
0.0
 11
207.950615
 21
152.5
 31
0.0
  0
LINE
  8
0
  6
CONTINUOUS
 62
   249
 10
157.5
 20
105.0
 30
0.0
 11
157.5
 21
65.0
 31
0.0
  0
LINE
  8
0
  6
CONTINUOUS
 62
   249
 10
177.5
 20
165.0
 30
0.0
 11
207.950615
 21
165.0
 31
0.0
  0
TEXT
  8
0
  6
CONTINUOUS
 62
   249
 10
181.230324
 20
159.807235
 30
0.0
 40
2.5
  1
SERIAL I/O
  0
CIRCLE
  8
0
  6
CONTINUOUS
 62
   249
 10
176.512659
 20
154.998324
 30
0.0
 40
1.0
  0
LINE
  8
0
  6
CONTINUOUS
 62
   249
 10
177.5
 20
230.0
 30
0.0
 11
207.950615
 21
230.0
 31
0.0
  0
LINE
  8
0
  6
CONTINUOUS
 62
   249
 10
197.5
 20
165.0
 30
0.0
 11
197.5
 21
230.0
 31
0.0
  0
LINE
  8
0
  6
CONTINUOUS
 62
   249
 10
177.5
 20
230.0
 30
0.0
 11
177.5
 21
152.5
 31
0.0
  0
LINE
  8
0
  6
CONTINUOUS
 62
   249
 10
147.5
 20
87.5
 30
0.0
 11
147.5
 21
50.0
 31
0.0
  0
LINE
  8
0
  6
CONTINUOUS
 62
   249
 10
243.423665
 20
192.867182
 30
0.0
 11
244.423665
 21
191.867182
 31
0.0
  0
LINE
  8
0
  6
CONTINUOUS
 62
   249
 10
243.423665
 20
241.976758
 30
0.0
 11
244.423665
 21
242.976758
 31
0.0
  0
LINE
  8
0
  6
CONTINUOUS
 62
   249
 10
243.423665
 20
241.976758
 30
0.0
 11
243.423665
 21
192.867182
 31
0.0
  0
LINE
  8
0
  6
CONTINUOUS
 62
   249
 10
220.0
 20
161.434542
 30
0.0
 11
207.950615
 21
161.434542
 31
0.0
  0
LINE
  8
0
  6
CONTINUOUS
 62
   249
 10
273.838166
 20
81.092819
 30
0.0
 11
275.757416
 21
83.780896
 31
0.0
  0
TEXT
  8
0
  6
CONTINUOUS
 62
   249
 10
277.137977
 20
84.207347
 30
0.0
 40
2.0
  1
9
  7
ROMANS
  0
TEXT
  8
0
  6
CONTINUOUS
 62
   249
 10
259.196317
 20
78.642085
 30
0.0
 40
2.0
  1
SERIAL PORT
  7
ROMANS
  0
ARC
  8
0
  6
CONTINUOUS
 62
   249
 10
285.0
 20
82.5
 30
0.0
 40
2.5
 50
90.0
 51
270.0
  0
LINE
  8
0
  6
CONTINUOUS
 62
   249
 10
284.319436
 20
82.99
 30
0.0
 11
284.319436
 21
82.01
 31
0.0
  0
LINE
  8
0
  6
CONTINUOUS
 62
   249
 10
284.319436
 20
82.01
 30
0.0
 11
287.749436
 21
82.01
 31
0.0
  0
LINE
  8
0
  6
CONTINUOUS
 62
   249
 10
287.749436
 20
82.01
 30
0.0
 11
287.749436
 21
82.99
 31
0.0
  0
LINE
  8
0
  6
CONTINUOUS
 62
   249
 10
287.749436
 20
82.99
 30
0.0
 11
284.319436
 21
82.99
 31
0.0
  0
LINE
  8
0
  6
DASHED
 62
   249
 10
17.5
 20
135.0
 30
0.0
 11
12.5
 21
135.0
 31
0.0
  0
LINE
  8
0
  6
DASHED
 62
   249
 10
17.5
 20
125.0
 30
0.0
 11
12.5
 21
125.0
 31
0.0
  0
LINE
  8
0
  6
DASHED
 62
   249
 10
17.5
 20
115.0
 30
0.0
 11
12.5
 21
115.0
 31
0.0
  0
LINE
  8
0
  6
DASHED
 62
   249
 10
17.5
 20
110.0
 30
0.0
 11
12.5
 21
110.0
 31
0.0
  0
LINE
  8
0
  6
DASHED
 62
   249
 10
17.5
 20
82.5
 30
0.0
 11
12.5
 21
82.5
 31
0.0
  0
LINE
  8
0
  6
CONTINUOUS
 62
   249
 10
10.0
 20
119.999655
 30
0.0
 11
11.0
 21
118.999655
 31
0.0
  0
TEXT
  8
0
  6
CONTINUOUS
 62
   249
 10
2.5
 20
81.500038
 30
0.0
 40
2.0
  1
4)
  7
ROMANS
  0
LINE
  8
0
  6
CONTINUOUS
 62
   249
 10
177.5
 20
185.0
 30
0.0
 11
207.950615
 21
185.0
 31
0.0
  0
TEXT
  8
0
  6
HIDDEN
 62
   249
 10
189.121307
 20
225.670986
 30
0.0
 40
2.339483
  1
D
  7
GREEKC
  0
LINE
  8
0
  6
CONTINUOUS
 62
   249
 10
207.950615
 20
222.5
 30
0.0
 11
235.0
 21
222.5
 31
0.0
  0
LINE
  8
0
  6
CONTINUOUS
 62
   249
 10
362.5
 20
252.5
 30
0.0
 11
380.0
 21
252.5
 31
0.0
  0
LINE
  8
0
  6
CONTINUOUS
 62
   249
 10
380.0
 20
252.5
 30
0.0
 11
380.0
 21
232.5
 31
0.0
  0
LINE
  8
0
  6
CONTINUOUS
 62
   249
 10
380.0
 20
232.5
 30
0.0
 11
362.5
 21
232.5
 31
0.0
  0
LINE
  8
0
  6
CONTINUOUS
 62
   249
 10
362.5
 20
232.5
 30
0.0
 11
362.5
 21
252.5
 31
0.0
  0
LINE
  8
0
  6
CONTINUOUS
 62
   249
 10
167.5
 20
115.0
 30
0.0
 11
167.5
 21
65.0
 31
0.0
  0
LINE
  8
0
  6
CONTINUOUS
 62
   249
 10
162.5
 20
110.0
 30
0.0
 11
162.5
 21
70.0
 31
0.0
  0
TEXT
  8
0
  6
CONTINUOUS
 62
   249
 10
150.445572
 20
50.153645
 30
0.0
 40
2.0
  1
108:X2:18
 50
90.0
  7
ROMANS
  0
TEXT
  8
0
  6
CONTINUOUS
 62
   249
 10
155.568127
 20
71.822402
 30
0.0
 40
2.0
  1
108:X2:15
 50
90.0
  7
ROMANS
  0
TEXT
  8
0
  6
CONTINUOUS
 62
   249
 10
165.587502
 20
50.364171
 30
0.0
 40
2.0
  1
108:X2:10
 50
90.0
  7
ROMANS
  0
TEXT
  8
0
  6
CONTINUOUS
 62
   249
 10
223.138441
 20
50.742031
 30
0.0
 40
2.0
  1
108:X2:1
 50
90.0
  7
ROMANS
  0
TEXT
  8
0
  6
CONTINUOUS
 62
   249
 10
228.191192
 20
50.742031
 30
0.0
 40
2.0
  1
108:X2:2
 50
90.0
  7
ROMANS
  0
LINE
  8
0
  6
CONTINUOUS
 62
   249
 10
232.5
 20
82.5
 30
0.0
 11
282.5
 21
82.5
 31
0.0
  0
LINE
  8
0
  6
CONTINUOUS
 62
   249
 10
225.0
 20
80.429605
 30
0.0
 11
225.0
 21
77.5
 31
0.0
  0
LINE
  8
0
  6
CONTINUOUS
 62
   249
 10
220.0
 20
80.429605
 30
0.0
 11
220.0
 21
77.5
 31
0.0
  0
LINE
  8
0
  6
CONTINUOUS
 62
   249
 10
225.0
 20
95.0
 30
0.0
 11
225.0
 21
89.752154
 31
0.0
  0
LINE
  8
0
  6
CONTINUOUS
 62
   249
 10
220.0
 20
95.0
 30
0.0
 11
220.0
 21
89.752154
 31
0.0
  0
LINE
  8
0
 62
   249
 10
222.466311
 20
82.72844
 30
0.0
 11
226.466311
 21
82.72844
 31
0.0
  0
LINE
  8
0
 62
   249
 10
218.709901
 20
87.674464
 30
0.0
 11
222.709901
 21
87.674464
 31
0.0
  0
LINE
  8
0
 62
   249
 10
217.795103
 20
81.386207
 30
0.0
 11
226.158613
 21
89.752154
 31
0.0
  0
LINE
  8
0
 62
   249
 10
218.779395
 20
80.429605
 30
0.0
 11
227.119756
 21
88.767352
 31
0.0
  0
LINE
  8
0
 62
   249
 10
217.795103
 20
80.429605
 30
0.0
 11
217.795103
 21
89.752154
 31
0.0
  0
LINE
  8
0
 62
   249
 10
227.119756
 20
80.429605
 30
0.0
 11
217.795103
 21
80.429605
 31
0.0
  0
LINE
  8
0
 62
   249
 10
227.119756
 20
89.752154
 30
0.0
 11
227.119756
 21
80.429605
 31
0.0
  0
LINE
  8
0
 62
   249
 10
217.795103
 20
89.752154
 30
0.0
 11
227.119756
 21
89.752154
 31
0.0
  0
TEXT
  8
0
  6
CONTINUOUS
 62
   249
 10
219.366734
 20
95.55315
 30
0.0
 40
2.0
  1
+
  0
TEXT
  8
0
  6
CONTINUOUS
 62
   249
 10
224.297086
 20
95.577719
 30
0.0
 40
2.0
  1
-
  0
LINE
  8
0
  6
CONTINUOUS
 62
   249
 10
140.0
 20
82.5
 30
0.0
 11
140.0
 21
85.0
 31
0.0
  0
LINE
  8
0
  6
CONTINUOUS
 62
   249
 10
145.0
 20
87.5
 30
0.0
 11
139.256076
 21
84.285297
 31
0.0
  0
LINE
  8
0
  6
CONTINUOUS
 62
   249
 10
145.0
 20
87.5
 30
0.0
 11
147.5
 21
87.5
 31
0.0
  0
LINE
  8
0
  6
CONTINUOUS
 62
   249
 10
177.5
 20
207.5
 30
0.0
 11
207.950615
 21
207.5
 31
0.0
  0
TEXT
  8
0
  6
CONTINUOUS
 62
   249
 10
201.62812
 20
225.541623
 30
0.0
 40
2.5
  1
U1
  7
ROMANS
  0
TEXT
  8
0
  6
CONTINUOUS
 62
   249
 10
201.62812
 20
203.86521
 30
0.0
 40
2.5
  1
U2
  7
ROMANS
  0
TEXT
  8
0
  6
CONTINUOUS
 62
   249
 10
201.62812
 20
180.954516
 30
0.0
 40
2.5
  1
U3
  7
ROMANS
  0
TEXT
  8
0
  6
CONTINUOUS
 62
   249
 10
198.575501
 20
217.260923
 30
0.0
 40
2.0
  1
3I/3I
  7
GREEKS
  0
TEXT
  8
0
  6
CONTINUOUS
 62
   249
 10
184.735191
 20
225.634448
 30
0.0
 40
2.5
  1
Y
  7
GREEKS
  0
TEXT
  8
0
  6
CONTINUOUS
 62
   249
 10
187.063251
 20
225.634448
 30
0.0
 40
2.5
  1
/
  7
GREEKS
  0
TEXT
  8
0
  6
HIDDEN
 62
   249
 10
189.565157
 20
219.364764
 30
0.0
 40
2.5
  1
I
  7
GREEKS
  0
LINE
  8
0
  6
CONTINUOUS
 62
   249
 10
17.5
 20
105.0
 30
0.0
 11
125.0
 21
105.0
 31
0.0
  0
LINE
  8
0
  6
CONTINUOUS
 62
   249
 10
130.0
 20
105.0
 30
0.0
 11
124.256076
 21
101.785297
 31
0.0
  0
LINE
  8
0
  6
CONTINUOUS
 62
   249
 10
125.0
 20
100.0
 30
0.0
 11
125.0
 21
102.5
 31
0.0
  0
LINE
  8
0
  6
CONTINUOUS
 62
   249
 10
125.0
 20
100.0
 30
0.0
 11
17.5
 21
100.0
 31
0.0
  0
LINE
  8
0
  6
CONTINUOUS
 62
   249
 10
175.51266
 20
155.0
 30
0.0
 11
142.5
 21
155.0
 31
0.0
  0
LINE
  8
0
  6
CONTINUOUS
 62
   249
 10
232.5
 20
117.5
 30
0.0
 11
243.423665
 21
117.5
 31
0.0
  0
LINE
  8
0
  6
CONTINUOUS
 62
   249
 10
243.423665
 20
146.771264
 30
0.0
 11
243.423665
 21
92.841172
 31
0.0
  0
LINE
  8
0
  6
CONTINUOUS
 62
   249
 10
243.423665
 20
146.771264
 30
0.0
 11
244.423665
 21
147.771264
 31
0.0
  0
LINE
  8
0
  6
CONTINUOUS
 62
   249
 10
243.423665
 20
92.841172
 30
0.0
 11
244.423665
 21
91.841172
 31
0.0
  0
LINE
  8
0
  6
CONTINUOUS
 62
   249
 10
207.950615
 20
220.0
 30
0.0
 11
232.5
 21
220.0
 31
0.0
  0
LINE
  8
0
  6
CONTINUOUS
 62
   249
 10
232.5
 20
220.0
 30
0.0
 11
232.5
 21
117.5
 31
0.0
  0
LINE
  8
0
  6
CONTINUOUS
 62
   249
 10
220.0
 20
161.434542
 30
0.0
 11
220.0
 21
107.5
 31
0.0
  0
LINE
  8
0
  6
CONTINUOUS
 62
   249
 10
220.0
 20
107.5
 30
0.0
 11
232.5
 21
107.5
 31
0.0
  0
LINE
  8
0
  6
CONTINUOUS
 62
   249
 10
232.5
 20
107.5
 30
0.0
 11
232.5
 21
82.5
 31
0.0
  0
LINE
  8
0
  6
DASHED
 62
   249
 10
287.5
 20
82.5
 30
0.0
 11
305.0
 21
82.5
 31
0.0
  0
TEXT
  8
0
  6
DASHED
 62
   249
 10
307.150567
 20
81.486126
 30
0.0
 40
2.0
  1
5)
  7
ROMANS
  0
TEXT
  8
0
  6
DASHED
 62
   249
 10
355.009126
 20
225.948612
 30
0.0
 40
2.0
  1
DIFFERENTIAL RELAY
  7
ROMANS
  0
TEXT
  8
0
  6
DASHED
 62
   249
 10
355.009126
 20
221.929169
 30
0.0
 40
2.0
  1
DIFFERENTIALRELÄ
  7
ROMANS
  0
LINE
  8
0
  6
CONTINUOUS
 62
   249
 10
10.0
 20
150.0
 30
0.0
 11
11.0
 21
151.0
 31
0.0
  0
LINE
  8
0
  6
CONTINUOUS
 62
   249
 10
10.0
 20
150.0
 30
0.0
 11
10.0
 21
119.999655
 31
0.0
  0
TEXT
  8
0
  6
DASHED
 62
   249
 10
3.03868
 20
133.112804
 30
0.0
 40
2.0
  1
2)
  7
ROMANS
  0
LINE
  8
0
  6
DASHED
 62
   249
 10
167.5
 20
50.0
 30
0.0
 11
167.5
 21
42.5
 31
0.0
  0
LINE
  8
0
  6
DASHED
 62
   249
 10
172.5
 20
50.0
 30
0.0
 11
172.5
 21
42.5
 31
0.0
  0
TEXT
  8
0
  6
DASHED
 62
   249
 10
210.704658
 20
27.85902
 30
0.0
 40
2.0
  1
94-11-03 KM / AD-ELECT.
  7
ROMANS
  0
TEXT
  8
0
  6
DASHED
 62
   249
 10
317.5
 20
27.5
 30
0.0
 40
2.0
  1
TERMINAL DIAGRAM / UTTAGSSCHEMA
  7
ROMANS
  0
LINE
  8
0
 62
   249
 10
0.237099
 20
0.237999
 30
0.0
 11
0.237099
 21
262.737999
 31
0.0
  0
LINE
  8
0
 62
   249
 10
392.237099
 20
262.737999
 30
0.0
 11
392.237099
 21
0.237999
 31
0.0
  0
LINE
  8
0
 62
   249
 10
0.237099
 20
0.237999
 30
0.0
 11
392.237099
 21
0.237999
 31
0.0
  0
TEXT
  8
0
 62
   249
 10
42.237099
 20
5.587508
 30
0.0
 40
2.5
  1
C
  7
ROMANS
  0
TEXT
  8
0
 62
   249
 10
42.237099
 20
1.195292
 30
0.0
 40
2.5
  1
B
  7
ROMANS
  0
TEXT
  8
0
 62
   249
 10
257.407006
 20
1.741783
 30
0.0
 40
3.0
  1
Power
 41
0.8
  7
ROMANS
  0
TEXT
  8
0
 62
   249
 10
273.237099
 20
7.237999
 30
0.0
 40
1.4
  1
VAST.OSASTO RESP.DEPT.
  7
ROMANS
  0
TEXT
  8
0
 62
   249
 10
210.237099
 20
32.237999
 30
0.0
 40
1.4
  1
TEKI  PREPARED
  7
ROMANS
  0
LINE
  8
0
 62
   249
 10
271.237099
 20
9.737999
 30
0.0
 11
271.237099
 21
0.237999
 31
0.0
  0
LINE
  8
0
 62
   249
 10
257.237099
 20
9.737999
 30
0.0
 11
257.237099
 21
35.237999
 31
0.0
  0
LINE
  8
0
 62
   249
 10
40.737099
 20
4.737999
 30
0.0
 11
209.237099
 21
4.737999
 31
0.0
  0
LINE
  8
0
 62
   249
 10
46.737099
 20
0.237999
 30
0.0
 11
46.737099
 21
9.237999
 31
0.0
  0
LINE
  8
0
 62
   249
 10
46.737099
 20
9.237999
 30
0.0
 11
209.237099
 21
9.237999
 31
0.0
  0
TEXT
  8
0
 62
   249
 10
27.737099
 20
2.471333
 30
0.0
 40
1.4
  1
REVISION
  7
ROMANS
  0
TEXT
  8
0
 62
   249
 10
27.737099
 20
4.737999
 30
0.0
 40
1.4
  1
MUUTOS
  7
ROMANS
  0
LINE
  8
0
 62
   249
 10
282.237099
 20
9.737999
 30
0.0
 11
282.237099
 21
18.237999
 31
0.0
  0
TEXT
  8
0
 62
   249
 10
237.737099
 20
1.737999
 30
0.0
 40
3.0
  1
Strömberg
 41
0.8
  7
ROMANS
  0
TEXT
  8
0
 62
   249
 10
229.737099
 20
1.737999
 30
0.0
 40
3.0
  1
ABB 
 41
0.8
  7
ROMANS
  0
LINE
  8
0
 62
   249
 10
223.137099
 20
1.737999
 30
0.0
 11
223.137099
 21
5.097999
 31
0.0
  0
LINE
  8
0
 62
   249
 10
223.137099
 20
8.737999
 30
0.0
 11
225.097099
 21
8.737999
 31
0.0
  0
LINE
  8
0
 62
   249
 10
225.097099
 20
8.737999
 30
0.0
 11
225.097099
 21
5.377999
 31
0.0
  0
LINE
  8
0
 62
   249
 10
225.097099
 20
5.377999
 30
0.0
 11
223.137099
 21
5.377999
 31
0.0
  0
LINE
  8
0
 62
   249
 10
223.137099
 20
5.097999
 30
0.0
 11
225.097099
 21
5.097999
 31
0.0
  0
LINE
  8
0
 62
   249
 10
225.097099
 20
5.097999
 30
0.0
 11
225.097099
 21
1.737999
 31
0.0
  0
LINE
  8
0
 62
   249
 10
225.097099
 20
1.737999
 30
0.0
 11
223.137099
 21
1.737999
 31
0.0
  0
LINE
  8
0
 62
   249
 10
223.137099
 20
5.377999
 30
0.0
 11
223.137099
 21
8.737999
 31
0.0
  0
ARC
  8
0
 62
   249
 10
225.937099
 20
7.162999
 30
0.0
 40
1.575
 50
298.455859
 51
90.052437
  0
LINE
  8
0
 62
   249
 10
225.377099
 20
8.737999
 30
0.0
 11
225.935658
 21
8.737999
 31
0.0
  0
LINE
  8
0
 62
   249
 10
225.377099
 20
8.737999
 30
0.0
 11
225.377099
 21
5.377999
 31
0.0
  0
LINE
  8
0
 62
   249
 10
225.377099
 20
5.377999
 30
0.0
 11
227.361542
 21
5.377999
 31
0.0
  0
LINE
  8
0
 62
   249
 10
227.617099
 20
5.097999
 30
0.0
 11
225.377099
 21
5.097999
 31
0.0
  0
LINE
  8
0
 62
   249
 10
225.377099
 20
5.097999
 30
0.0
 11
225.377099
 21
1.737999
 31
0.0
  0
ARC
  8
0
 62
   249
 10
225.937099
 20
3.837999
 30
0.0
 40
2.1
 50
269.937724
 51
37.056553
  0
LINE
  8
0
 62
   249
 10
225.377099
 20
1.737999
 30
0.0
 11
225.934817
 21
1.738
 31
0.0
  0
ARC
  8
0
 62
   249
 10
225.937099
 20
3.837999
 30
0.0
 40
2.1
 50
47.28622
 51
68.787999
  0
ARC
  8
0
 62
   249
 10
220.477099
 20
3.837999
 30
0.0
 40
2.1
 50
47.28622
 51
68.787999
  0
LINE
  8
0
 62
   249
 10
219.917099
 20
1.737999
 30
0.0
 11
220.474817
 21
1.738
 31
0.0
  0
ARC
  8
0
 62
   249
 10
220.477099
 20
3.837999
 30
0.0
 40
2.1
 50
269.937724
 51
37.056553
  0
LINE
  8
0
 62
   249
 10
219.917099
 20
5.097999
 30
0.0
 11
219.917099
 21
1.737999
 31
0.0
  0
LINE
  8
0
 62
   249
 10
222.157099
 20
5.097999
 30
0.0
 11
219.917099
 21
5.097999
 31
0.0
  0
LINE
  8
0
 62
   249
 10
219.917099
 20
5.377999
 30
0.0
 11
221.901542
 21
5.377999
 31
0.0
  0
LINE
  8
0
 62
   249
 10
219.917099
 20
8.737999
 30
0.0
 11
219.917099
 21
5.377999
 31
0.0
  0
LINE
  8
0
 62
   249
 10
219.917099
 20
8.737999
 30
0.0
 11
220.475658
 21
8.737999
 31
0.0
  0
ARC
  8
0
 62
   249
 10
220.477099
 20
7.162999
 30
0.0
 40
1.575
 50
298.455859
 51
90.052437
  0
LINE
  8
0
 62
   249
 10
217.677099
 20
5.377999
 30
0.0
 11
217.677099
 21
8.737999
 31
0.0
  0
LINE
  8
0
 62
   249
 10
219.637099
 20
1.737999
 30
0.0
 11
217.677099
 21
1.737999
 31
0.0
  0
LINE
  8
0
 62
   249
 10
219.637099
 20
5.097999
 30
0.0
 11
219.637099
 21
1.737999
 31
0.0
  0
LINE
  8
0
 62
   249
 10
217.677099
 20
5.097999
 30
0.0
 11
219.637099
 21
5.097999
 31
0.0
  0
LINE
  8
0
 62
   249
 10
219.637099
 20
5.377999
 30
0.0
 11
217.677099
 21
5.377999
 31
0.0
  0
LINE
  8
0
 62
   249
 10
219.637099
 20
8.737999
 30
0.0
 11
219.637099
 21
5.377999
 31
0.0
  0
LINE
  8
0
 62
   249
 10
217.677099
 20
8.737999
 30
0.0
 11
219.637099
 21
8.737999
 31
0.0
  0
LINE
  8
0
 62
   249
 10
217.677099
 20
1.737999
 30
0.0
 11
217.677099
 21
5.097999
 31
0.0
  0
LINE
  8
0
 62
   249
 10
211.356988
 20
5.080538
 30
0.0
 11
210.187099
 21
1.737999
 31
0.0
  0
LINE
  8
0
 62
   249
 10
213.547099
 20
5.097999
 30
0.0
 11
213.547099
 21
3.137999
 31
0.0
  0
LINE
  8
0
 62
   249
 10
213.827099
 20
5.097999
 30
0.0
 11
213.827099
 21
3.137999
 31
0.0
  0
LINE
  8
0
 62
   249
 10
213.827099
 20
5.097999
 30
0.0
 11
216.010356
 21
5.097999
 31
0.0
  0
LINE
  8
0
 62
   249
 10
213.827099
 20
5.377999
 30
0.0
 11
215.912213
 21
5.377999
 31
0.0
  0
LINE
  8
0
 62
   249
 10
216.011591
 20
5.096594
 30
0.0
 11
217.187099
 21
1.737999
 31
0.0
  0
LINE
  8
0
 62
   249
 10
211.360082
 20
5.097999
 30
0.0
 11
213.547099
 21
5.097999
 31
0.0
  0
LINE
  8
0
 62
   249
 10
211.45904
 20
5.377999
 30
0.0
 11
213.547099
 21
5.377999
 31
0.0
  0
LINE
  8
0
 62
   249
 10
213.547099
 20
8.737999
 30
0.0
 11
212.637099
 21
8.737999
 31
0.0
  0
LINE
  8
0
 62
   249
 10
213.827099
 20
3.137999
 30
0.0
 11
214.946992
 21
3.137999
 31
0.0
  0
LINE
  8
0
 62
   249
 10
213.827099
 20
8.737999
 30
0.0
 11
213.827099
 21
5.377999
 31
0.0
  0
LINE
  8
0
 62
   249
 10
213.547099
 20
8.737999
 30
0.0
 11
213.547099
 21
5.377999
 31
0.0
  0
LINE
  8
0
 62
   249
 10
214.737099
 20
8.737999
 30
0.0
 11
213.827099
 21
8.737999
 31
0.0
  0
LINE
  8
0
 62
   249
 10
214.948197
 20
3.134863
 30
0.0
 11
215.437099
 21
1.737999
 31
0.0
  0
LINE
  8
0
 62
   249
 10
214.737099
 20
8.737999
 30
0.0
 11
215.913452
 21
5.376991
 31
0.0
  0
LINE
  8
0
 62
   249
 10
212.425889
 20
3.134542
 30
0.0
 11
211.937099
 21
1.737999
 31
0.0
  0
LINE
  8
0
 62
   249
 10
212.425886
 20
3.137999
 30
0.0
 11
213.547099
 21
3.137999
 31
0.0
  0
LINE
  8
0
 62
   249
 10
212.637099
 20
8.737999
 30
0.0
 11
211.459571
 21
5.373634
 31
0.0
  0
LINE
  8
0
 62
   249
 10
215.437099
 20
1.737999
 30
0.0
 11
217.187099
 21
1.737999
 31
0.0
  0
LINE
  8
0
 62
   249
 10
210.187099
 20
1.737999
 30
0.0
 11
211.937099
 21
1.737999
 31
0.0
  0
LINE
  8
0
 62
   249
 10
369.737099
 20
9.737999
 30
0.0
 11
369.737099
 21
0.237999
 31
0.0
  0
TEXT
  8
0
 62
   249
 10
371.237099
 20
7.237999
 30
0.0
 40
1.4
  1
PAINOS  REVISION
  7
ROMANS
  0
LINE
  8
0
 62
   249
 10
349.737099
 20
9.737999
 30
0.0
 11
349.737099
 21
18.237999
 31
0.0
  0
TEXT
  8
0
 62
   249
 10
309.237099
 20
7.237999
 30
0.0
 40
1.4
  1
PIIRUSTUS NO  DRAWING NR
  7
ROMANS
  0
TEXT
  8
0
 62
   249
 10
309.237099
 20
15.737999
 30
0.0
 40
1.4
  1
KOODI  CODE
  7
ROMANS
  0
TEXT
  8
0
 62
   249
 10
309.237099
 20
32.737999
 30
0.0
 40
1.4
  1
NIMITYS  NAME
  7
ROMANS
  0
TEXT
  8
0
 62
   249
 10
259.237099
 20
15.737999
 30
0.0
 40
1.4
  1
SUHDE  SCALE
  7
ROMANS
  0
TEXT
  8
0
 62
   249
 10
259.237099
 20
23.737999
 30
0.0
 40
1.4
  1
TOLERANSSIT  TOLERANCES
  7
ROMANS
  0
TEXT
  8
0
 62
   249
 10
259.237099
 20
32.737999
 30
0.0
 40
1.4
  1
LIITTYY  CONCERNING
  7
ROMANS
  0
LINE
  8
0
 62
   249
 10
307.237099
 20
0.237999
 30
0.0
 11
307.237099
 21
35.237999
 31
0.0
  0
TEXT
  8
0
 62
   249
 10
209.979934
 20
15.704666
 30
0.0
 40
1.4
  1
HYVÄKSYI  APPROVED
  7
ROMANS
  0
TEXT
  8
0
 62
   249
 10
210.237099
 20
23.971333
 30
0.0
 40
1.4
  1
TARKASTI  CHECKED
  7
ROMANS
  0
LINE
  8
0
 62
   249
 10
209.237099
 20
35.237999
 30
0.0
 11
392.237099
 21
35.237999
 31
0.0
  0
LINE
  8
0
 62
   249
 10
209.237099
 20
26.737999
 30
0.0
 11
307.237099
 21
26.737999
 31
0.0
  0
LINE
  8
0
 62
   249
 10
209.237099
 20
9.737999
 30
0.0
 11
392.237099
 21
9.737999
 31
0.0
  0
LINE
  8
0
 62
   249
 10
209.237099
 20
18.237999
 30
0.0
 11
392.237099
 21
18.237999
 31
0.0
  0
LINE
  8
0
 62
   249
 10
392.237099
 20
0.237999
 30
0.0
 11
392.237099
 21
35.237999
 31
0.0
  0
LINE
  8
0
 62
   249
 10
209.237099
 20
0.237999
 30
0.0
 11
209.237099
 21
35.237999
 31
0.0
  0
LINE
  8
0
 62
   249
 10
209.237099
 20
0.237999
 30
0.0
 11
392.237099
 21
0.237999
 31
0.0
  0
LINE
  8
0
 62
   249
 10
18.237099
 20
0.237999
 30
0.0
 11
0.237099
 21
0.237999
 31
0.0
  0
LINE
  8
0
 62
   249
 10
0.237099
 20
262.737999
 30
0.0
 11
392.237099
 21
262.737999
 31
0.0
  0
TEXT
  8
0
  6
DASHED
 62
   249
 10
351.818577
 20
15.69253
 30
0.0
 40
1.4
  1
LEHTI SHEET
  7
GREEKS
  0
TEXT
  8
0
  6
DASHED
 62
   249
 10
372.740686
 20
12.507642
 30
0.0
 40
2.0
  1
1
  7
ROMANS
  0
TEXT
  8
0
  6
DASHED
 62
   249
 10
322.5
 20
2.5
 30
0.0
 40
2.5
  1
1MRS10210-AAD
  7
ROMANS
  0
TEXT
  8
0
  6
DASHED
 62
   249
 10
292.217194
 20
11.813359
 30
0.0
 40
3.0
  1
A3
  7
GREEKS
  0
TEXT
  8
0
  6
CONTINUOUS
 62
   249
 10
380.0
 20
2.5
 30
0.0
 40
2.5
  1
A
  7
ROMANS
  0
LINE
  8
0
  6
CONTINUOUS
 62
   249
 10
235.0
 20
222.5
 30
0.0
 11
235.0
 21
217.5
 31
0.0
  0
LINE
  8
0
  6
CONTINUOUS
 62
   249
 10
235.0
 20
217.5
 30
0.0
 11
243.423665
 21
217.5
 31
0.0
  0
TEXT
  8
0
  6
CONTINUOUS
 62
   249
 10
184.832957
 20
219.359061
 30
0.0
 40
2.5
  1
3
  7
GREEKS
  0
TEXT
  8
0
  6
HIDDEN
 62
   249
 10
186.978523
 20
219.359231
 30
0.0
 40
2.339483
  1
D
  7
GREEKC
  0
TEXT
  8
0
  6
HIDDEN
 62
   249
 10
186.978523
 20
213.593686
 30
0.0
 40
2.339483
  1
D
  7
GREEKC
  0
TEXT
  8
0
  6
CONTINUOUS
 62
   249
 10
184.832957
 20
213.593516
 30
0.0
 40
2.5
  1
3
  7
GREEKS
  0
TEXT
  8
0
  6
HIDDEN
 62
   249
 10
189.565157
 20
213.599219
 30
0.0
 40
2.5
  1
I
  7
GREEKS
  0
LINE
  8
0
  6
CONTINUOUS
 62
   249
 10
137.5
 20
95.0
 30
0.0
 11
131.756076
 21
91.785297
 31
0.0
  0
LINE
  8
0
  6
CONTINUOUS
 62
   249
 10
137.5
 20
95.0
 30
0.0
 11
152.5
 21
95.0
 31
0.0
  0
LINE
  8
0
  6
CONTINUOUS
 62
   249
 10
122.5
 20
110.0
 30
0.0
 11
162.5
 21
110.0
 31
0.0
  0
LINE
  8
0
  6
CONTINUOUS
 62
   249
 10
122.5
 20
110.0
 30
0.0
 11
116.756076
 21
106.785297
 31
0.0
  0
LINE
  8
0
  6
CONTINUOUS
 62
   249
 10
115.0
 20
115.0
 30
0.0
 11
109.256076
 21
111.785297
 31
0.0
  0
LINE
  8
0
  6
CONTINUOUS
 62
   249
 10
115.0
 20
115.0
 30
0.0
 11
167.5
 21
115.0
 31
0.0
  0
LINE
  8
0
  6
CONTINUOUS
 62
   249
 10
100.0
 20
125.0
 30
0.0
 11
177.5
 21
125.0
 31
0.0
  0
LINE
  8
0
  6
CONTINUOUS
 62
   249
 10
100.0
 20
125.0
 30
0.0
 11
94.256076
 21
121.785297
 31
0.0
  0
LINE
  8
0
  6
CONTINUOUS
 62
   249
 10
107.5
 20
120.0
 30
0.0
 11
172.5
 21
120.0
 31
0.0
  0
LINE
  8
0
  6
CONTINUOUS
 62
   249
 10
107.5
 20
120.0
 30
0.0
 11
101.756076
 21
116.785297
 31
0.0
  0
LINE
  8
0
  6
CONTINUOUS
 62
   249
 10
92.5
 20
135.0
 30
0.0
 11
86.756076
 21
131.785297
 31
0.0
  0
LINE
  8
0
  6
CONTINUOUS
 62
   249
 10
92.5
 20
135.0
 30
0.0
 11
187.5
 21
135.0
 31
0.0
  0
LINE
  8
0
  6
CONTINUOUS
 62
   249
 10
92.5
 20
140.0
 30
0.0
 11
192.5
 21
140.0
 31
0.0
  0
LINE
  8
0
  6
CONTINUOUS
 62
   249
 10
92.5
 20
140.0
 30
0.0
 11
86.756076
 21
136.785297
 31
0.0
  0
LINE
  8
0
  6
CONTINUOUS
 62
   249
 10
85.0
 20
150.0
 30
0.0
 11
79.256076
 21
146.785297
 31
0.0
  0
LINE
  8
0
  6
CONTINUOUS
 62
   249
 10
85.0
 20
150.0
 30
0.0
 11
202.5
 21
150.0
 31
0.0
  0
LINE
  8
0
  6
CONTINUOUS
 62
   249
 10
85.0
 20
145.0
 30
0.0
 11
197.5
 21
145.0
 31
0.0
  0
LINE
  8
0
  6
CONTINUOUS
 62
   249
 10
85.0
 20
145.0
 30
0.0
 11
79.256076
 21
141.785297
 31
0.0
  0
LINE
  8
0
  6
CONTINUOUS
 62
   249
 10
140.0
 20
82.5
 30
0.0
 11
17.5
 21
82.5
 31
0.0
  0
LINE
  8
0
  6
CONTINUOUS
 62
   249
 10
17.5
 20
87.5
 30
0.0
 11
90.0
 21
87.5
 31
0.0
  0
LINE
  8
0
  6
CONTINUOUS
 62
   249
 10
140.0
 20
87.5
 30
0.0
 11
90.0
 21
87.5
 31
0.0
  0
LINE
  8
0
  6
CONTINUOUS
 62
   249
 10
197.5
 20
145.0
 30
0.0
 11
197.5
 21
50.0
 31
0.0
  0
LINE
  8
0
  6
CONTINUOUS
 62
   249
 10
192.5
 20
140.0
 30
0.0
 11
192.5
 21
50.0
 31
0.0
  0
LINE
  8
0
  6
CONTINUOUS
 62
   249
 10
187.5
 20
135.0
 30
0.0
 11
187.5
 21
50.0
 31
0.0
  0
LINE
  8
0
  6
CONTINUOUS
 62
   249
 10
177.5
 20
125.0
 30
0.0
 11
177.5
 21
50.0
 31
0.0
  0
LINE
  8
0
  6
CONTINUOUS
 62
   249
 10
172.5
 20
120.0
 30
0.0
 11
172.5
 21
50.0
 31
0.0
  0
LINE
  8
0
  6
CONTINUOUS
 62
   249
 10
202.5
 20
150.0
 30
0.0
 11
202.5
 21
65.0
 31
0.0
  0
LINE
  8
0
  6
CONTINUOUS
 62
   249
 10
207.950615
 20
217.5
 30
0.0
 11
215.0
 21
217.5
 31
0.0
  0
LINE
  8
0
  6
CONTINUOUS
 62
   249
 10
215.0
 20
217.5
 30
0.0
 11
215.0
 21
237.5
 31
0.0
  0
LINE
  8
0
  6
CONTINUOUS
 62
   249
 10
130.0
 20
105.0
 30
0.0
 11
157.5
 21
105.0
 31
0.0
  0
LINE
  8
0
  6
CONTINUOUS
 62
   249
 10
132.5
 20
95.0
 30
0.0
 11
17.5
 21
95.0
 31
0.0
  0
LINE
  8
0
  6
CONTINUOUS
 62
   249
 10
117.5
 20
110.0
 30
0.0
 11
17.5
 21
110.0
 31
0.0
  0
LINE
  8
0
  6
CONTINUOUS
 62
   249
 10
110.0
 20
115.0
 30
0.0
 11
17.5
 21
115.0
 31
0.0
  0
LINE
  8
0
  6
CONTINUOUS
 62
   249
 10
102.5
 20
120.0
 30
0.0
 11
41.000004
 21
120.0
 31
0.0
  0
LINE
  8
0
  6
CONTINUOUS
 62
   249
 10
95.0
 20
125.0
 30
0.0
 11
42.5
 21
125.0
 31
0.0
  0
LINE
  8
0
  6
CONTINUOUS
 62
   249
 10
87.5
 20
135.0
 30
0.0
 11
42.5
 21
135.0
 31
0.0
  0
LINE
  8
0
  6
CONTINUOUS
 62
   249
 10
87.5
 20
140.0
 30
0.0
 11
41.000004
 21
140.0
 31
0.0
  0
LINE
  8
0
  6
CONTINUOUS
 62
   249
 10
80.0
 20
145.0
 30
0.0
 11
17.5
 21
145.0
 31
0.0
  0
LINE
  8
0
  6
CONTINUOUS
 62
   249
 10
80.0
 20
150.0
 30
0.0
 11
41.000004
 21
150.0
 31
0.0
  0
LINE
  8
0
  6
CONTINUOUS
 62
   249
 10
177.5
 20
210.0
 30
0.0
 11
135.0
 21
210.0
 31
0.0
  0
LINE
  8
0
  6
CONTINUOUS
 62
   249
 10
177.5
 20
212.5
 30
0.0
 11
127.5
 21
212.5
 31
0.0
  0
LINE
  8
0
  6
CONTINUOUS
 62
   249
 10
177.5
 20
215.0
 30
0.0
 11
120.0
 21
215.0
 31
0.0
  0
LINE
  8
0
  6
CONTINUOUS
 62
   249
 10
177.5
 20
217.5
 30
0.0
 11
112.5
 21
217.5
 31
0.0
  0
LINE
  8
0
  6
CONTINUOUS
 62
   249
 10
177.5
 20
220.0
 30
0.0
 11
105.0
 21
220.0
 31
0.0
  0
LINE
  8
0
  6
CONTINUOUS
 62
   249
 10
177.5
 20
222.5
 30
0.0
 11
97.5
 21
222.5
 31
0.0
  0
LINE
  8
0
  6
CONTINUOUS
 62
   249
 10
177.5
 20
225.0
 30
0.0
 11
90.0
 21
225.0
 31
0.0
  0
LINE
  8
0
  6
CONTINUOUS
 62
   249
 10
177.5
 20
227.5
 30
0.0
 11
82.5
 21
227.5
 31
0.0
  0
LINE
  8
0
  6
DASHED
 62
   249
 10
82.5
 20
143.600824
 30
0.0
 11
82.5
 21
152.5
 31
0.0
  0
LINE
  8
0
  6
DASHED
 62
   249
 10
90.0
 20
133.600824
 30
0.0
 11
90.0
 21
152.5
 31
0.0
  0
LINE
  8
0
  6
DASHED
 62
   249
 10
97.5
 20
123.600824
 30
0.0
 11
97.5
 21
152.5
 31
0.0
  0
LINE
  8
0
  6
DASHED
 62
   249
 10
105.0
 20
118.600824
 30
0.0
 11
105.0
 21
152.5
 31
0.0
  0
LINE
  8
0
  6
DASHED
 62
   249
 10
112.5
 20
113.600824
 30
0.0
 11
112.5
 21
152.5
 31
0.0
  0
LINE
  8
0
  6
DASHED
 62
   249
 10
120.0
 20
108.600824
 30
0.0
 11
120.0
 21
152.5
 31
0.0
  0
LINE
  8
0
  6
DASHED
 62
   249
 10
127.5
 20
103.600824
 30
0.0
 11
127.5
 21
152.5
 31
0.0
  0
LINE
  8
0
  6
DASHED
 62
   249
 10
135.0
 20
93.600824
 30
0.0
 11
135.0
 21
152.5
 31
0.0
  0
LINE
  8
0
  6
DASHED
 62
   249
 10
142.5
 20
86.100824
 30
0.0
 11
142.5
 21
152.5
 31
0.0
  0
LINE
  8
0
  6
CONTINUOUS
 62
   249
 10
97.5
 20
152.5
 30
0.0
 11
97.5
 21
222.5
 31
0.0
  0
LINE
  8
0
  6
CONTINUOUS
 62
   249
 10
120.0
 20
152.5
 30
0.0
 11
120.0
 21
215.0
 31
0.0
  0
LINE
  8
0
  6
CONTINUOUS
 62
   249
 10
112.5
 20
152.5
 30
0.0
 11
112.5
 21
217.5
 31
0.0
  0
LINE
  8
0
  6
CONTINUOUS
 62
   249
 10
105.0
 20
152.5
 30
0.0
 11
105.0
 21
220.0
 31
0.0
  0
LINE
  8
0
  6
CONTINUOUS
 62
   249
 10
142.5
 20
152.5
 30
0.0
 11
142.5
 21
155.0
 31
0.0
  0
LINE
  8
0
  6
CONTINUOUS
 62
   249
 10
135.0
 20
152.5
 30
0.0
 11
135.0
 21
210.0
 31
0.0
  0
LINE
  8
0
  6
CONTINUOUS
 62
   249
 10
127.5
 20
152.5
 30
0.0
 11
127.5
 21
212.5
 31
0.0
  0
LINE
  8
0
  6
CONTINUOUS
 62
   249
 10
82.5
 20
152.5
 30
0.0
 11
82.5
 21
227.5
 31
0.0
  0
LINE
  8
0
  6
CONTINUOUS
 62
   249
 10
90.0
 20
152.5
 30
0.0
 11
90.0
 21
225.0
 31
0.0
  0
LINE
  8
0
  6
CONTINUOUS
 62
   249
 10
57.877948
 20
168.933648
 30
0.0
 11
50.754927
 21
168.933648
 31
0.0
  0
LINE
  8
0
  6
CONTINUOUS
 62
   249
 10
57.877948
 20
166.028148
 30
0.0
 11
57.877948
 21
168.933648
 31
0.0
  0
LINE
  8
0
  6
CONTINUOUS
 62
   249
 10
50.754927
 20
166.028148
 30
0.0
 11
57.877948
 21
166.028148
 31
0.0
  0
LINE
  8
0
  6
CONTINUOUS
 62
   249
 10
50.754927
 20
168.933648
 30
0.0
 11
50.754927
 21
166.028148
 31
0.0
  0
LINE
  8
0
  6
DASHED
 62
   249
 10
57.877948
 20
167.480898
 30
0.0
 11
66.388485
 21
167.480898
 31
0.0
  0
LINE
  8
0
  6
CONTINUOUS
 62
   249
 10
54.316438
 20
168.933648
 30
0.0
 11
54.316438
 21
170.0
 31
0.0
  0
LINE
  8
0
  6
CONTINUOUS
 62
   249
 10
54.316438
 20
170.0
 30
0.0
 11
42.5
 21
170.0
 31
0.0
  0
LINE
  8
0
  6
CONTINUOUS
 62
   249
 10
54.316438
 20
166.028148
 30
0.0
 11
54.316438
 21
165.0
 31
0.0
  0
LINE
  8
0
  6
CONTINUOUS
 62
   249
 10
54.316438
 20
165.0
 30
0.0
 11
17.5
 21
165.0
 31
0.0
  0
LINE
  8
0
  6
CONTINUOUS
 62
   249
 10
65.0
 20
165.0
 30
0.0
 11
68.214703
 21
170.743924
 31
0.0
  0
LINE
  8
0
  6
CONTINUOUS
 62
   249
 10
65.0
 20
165.0
 30
0.0
 11
65.0
 21
162.5
 31
0.0
  0
LINE
  8
0
  6
CONTINUOUS
 62
   249
 10
65.0
 20
170.0
 30
0.0
 11
65.0
 21
172.5
 31
0.0
  0
LINE
  8
0
  6
CONTINUOUS
 62
   249
 10
65.0
 20
172.5
 30
0.0
 11
75.0
 21
172.5
 31
0.0
  0
LINE
  8
0
  6
CONTINUOUS
 62
   249
 10
72.5
 20
202.5
 30
0.0
 11
72.5
 21
237.5
 31
0.0
  0
LINE
  8
0
  6
CONTINUOUS
 62
   249
 10
72.5
 20
237.5
 30
0.0
 11
215.0
 21
237.5
 31
0.0
  0
LINE
  8
0
  6
CONTINUOUS
 62
   249
 10
65.0
 20
185.0
 30
0.0
 11
65.0
 21
187.5
 31
0.0
  0
LINE
  8
0
  6
CONTINUOUS
 62
   249
 10
65.0
 20
180.0
 30
0.0
 11
65.0
 21
177.5
 31
0.0
  0
LINE
  8
0
  6
CONTINUOUS
 62
   249
 10
65.0
 20
180.0
 30
0.0
 11
68.214703
 21
185.743924
 31
0.0
  0
LINE
  8
0
  6
CONTINUOUS
 62
   249
 10
54.316438
 20
180.0
 30
0.0
 11
17.5
 21
180.0
 31
0.0
  0
LINE
  8
0
  6
CONTINUOUS
 62
   249
 10
54.316438
 20
181.028148
 30
0.0
 11
54.316438
 21
180.0
 31
0.0
  0
LINE
  8
0
  6
CONTINUOUS
 62
   249
 10
54.316438
 20
185.0
 30
0.0
 11
42.5
 21
185.0
 31
0.0
  0
LINE
  8
0
  6
CONTINUOUS
 62
   249
 10
54.316438
 20
183.933648
 30
0.0
 11
54.316438
 21
185.0
 31
0.0
  0
LINE
  8
0
  6
DASHED
 62
   249
 10
57.877948
 20
182.480898
 30
0.0
 11
66.388485
 21
182.480898
 31
0.0
  0
LINE
  8
0
  6
CONTINUOUS
 62
   249
 10
50.754927
 20
183.933648
 30
0.0
 11
50.754927
 21
181.028148
 31
0.0
  0
LINE
  8
0
  6
CONTINUOUS
 62
   249
 10
50.754927
 20
181.028148
 30
0.0
 11
57.877948
 21
181.028148
 31
0.0
  0
LINE
  8
0
  6
CONTINUOUS
 62
   249
 10
57.877948
 20
181.028148
 30
0.0
 11
57.877948
 21
183.933648
 31
0.0
  0
LINE
  8
0
  6
CONTINUOUS
 62
   249
 10
57.877948
 20
183.933648
 30
0.0
 11
50.754927
 21
183.933648
 31
0.0
  0
LINE
  8
0
  6
CONTINUOUS
 62
   249
 10
65.0
 20
187.5
 30
0.0
 11
75.0
 21
187.5
 31
0.0
  0
LINE
  8
0
  6
CONTINUOUS
 62
   249
 10
65.0
 20
202.5
 30
0.0
 11
72.5
 21
202.5
 31
0.0
  0
LINE
  8
0
  6
CONTINUOUS
 62
   249
 10
57.877948
 20
198.933648
 30
0.0
 11
50.754927
 21
198.933648
 31
0.0
  0
LINE
  8
0
  6
CONTINUOUS
 62
   249
 10
57.877948
 20
196.028148
 30
0.0
 11
57.877948
 21
198.933648
 31
0.0
  0
LINE
  8
0
  6
CONTINUOUS
 62
   249
 10
50.754927
 20
196.028148
 30
0.0
 11
57.877948
 21
196.028148
 31
0.0
  0
LINE
  8
0
  6
CONTINUOUS
 62
   249
 10
50.754927
 20
198.933648
 30
0.0
 11
50.754927
 21
196.028148
 31
0.0
  0
LINE
  8
0
  6
DASHED
 62
   249
 10
57.877948
 20
197.480898
 30
0.0
 11
66.388485
 21
197.480898
 31
0.0
  0
LINE
  8
0
  6
CONTINUOUS
 62
   249
 10
54.316438
 20
198.933648
 30
0.0
 11
54.316438
 21
200.0
 31
0.0
  0
LINE
  8
0
  6
CONTINUOUS
 62
   249
 10
54.316438
 20
200.0
 30
0.0
 11
42.5
 21
200.0
 31
0.0
  0
LINE
  8
0
  6
CONTINUOUS
 62
   249
 10
54.316438
 20
196.028148
 30
0.0
 11
54.316438
 21
195.0
 31
0.0
  0
LINE
  8
0
  6
CONTINUOUS
 62
   249
 10
54.316438
 20
195.0
 30
0.0
 11
17.5
 21
195.0
 31
0.0
  0
LINE
  8
0
  6
CONTINUOUS
 62
   249
 10
65.0
 20
195.0
 30
0.0
 11
68.214703
 21
200.743924
 31
0.0
  0
LINE
  8
0
  6
CONTINUOUS
 62
   249
 10
65.0
 20
195.0
 30
0.0
 11
65.0
 21
192.5
 31
0.0
  0
LINE
  8
0
  6
CONTINUOUS
 62
   249
 10
65.0
 20
200.0
 30
0.0
 11
65.0
 21
202.5
 31
0.0
  0
LINE
  8
0
  6
CONTINUOUS
 62
   249
 10
65.0
 20
215.0
 30
0.0
 11
65.0
 21
217.5
 31
0.0
  0
LINE
  8
0
  6
CONTINUOUS
 62
   249
 10
65.0
 20
210.0
 30
0.0
 11
65.0
 21
207.5
 31
0.0
  0
LINE
  8
0
  6
CONTINUOUS
 62
   249
 10
65.0
 20
210.0
 30
0.0
 11
68.214703
 21
215.743924
 31
0.0
  0
LINE
  8
0
  6
CONTINUOUS
 62
   249
 10
54.316438
 20
210.0
 30
0.0
 11
17.5
 21
210.0
 31
0.0
  0
LINE
  8
0
  6
CONTINUOUS
 62
   249
 10
54.316438
 20
211.028148
 30
0.0
 11
54.316438
 21
210.0
 31
0.0
  0
LINE
  8
0
  6
CONTINUOUS
 62
   249
 10
54.316438
 20
215.0
 30
0.0
 11
42.5
 21
215.0
 31
0.0
  0
LINE
  8
0
  6
CONTINUOUS
 62
   249
 10
54.316438
 20
213.933648
 30
0.0
 11
54.316438
 21
215.0
 31
0.0
  0
LINE
  8
0
  6
DASHED
 62
   249
 10
57.877948
 20
212.480898
 30
0.0
 11
66.388485
 21
212.480898
 31
0.0
  0
LINE
  8
0
  6
CONTINUOUS
 62
   249
 10
50.754927
 20
213.933648
 30
0.0
 11
50.754927
 21
211.028148
 31
0.0
  0
LINE
  8
0
  6
CONTINUOUS
 62
   249
 10
50.754927
 20
211.028148
 30
0.0
 11
57.877948
 21
211.028148
 31
0.0
  0
LINE
  8
0
  6
CONTINUOUS
 62
   249
 10
57.877948
 20
211.028148
 30
0.0
 11
57.877948
 21
213.933648
 31
0.0
  0
LINE
  8
0
  6
CONTINUOUS
 62
   249
 10
57.877948
 20
213.933648
 30
0.0
 11
50.754927
 21
213.933648
 31
0.0
  0
LINE
  8
0
  6
CONTINUOUS
 62
   249
 10
65.0
 20
217.5
 30
0.0
 11
72.5
 21
217.5
 31
0.0
  0
LINE
  8
0
  6
CONTINUOUS
 62
   249
 10
65.0
 20
232.5
 30
0.0
 11
72.5
 21
232.5
 31
0.0
  0
LINE
  8
0
  6
CONTINUOUS
 62
   249
 10
57.877948
 20
228.933648
 30
0.0
 11
50.754927
 21
228.933648
 31
0.0
  0
LINE
  8
0
  6
CONTINUOUS
 62
   249
 10
57.877948
 20
226.028148
 30
0.0
 11
57.877948
 21
228.933648
 31
0.0
  0
LINE
  8
0
  6
CONTINUOUS
 62
   249
 10
50.754927
 20
226.028148
 30
0.0
 11
57.877948
 21
226.028148
 31
0.0
  0
LINE
  8
0
  6
CONTINUOUS
 62
   249
 10
50.754927
 20
228.933648
 30
0.0
 11
50.754927
 21
226.028148
 31
0.0
  0
LINE
  8
0
  6
DASHED
 62
   249
 10
57.877948
 20
227.480898
 30
0.0
 11
66.388485
 21
227.480898
 31
0.0
  0
LINE
  8
0
  6
CONTINUOUS
 62
   249
 10
54.316438
 20
228.933648
 30
0.0
 11
54.316438
 21
230.0
 31
0.0
  0
LINE
  8
0
  6
CONTINUOUS
 62
   249
 10
54.316438
 20
230.0
 30
0.0
 11
17.5
 21
230.0
 31
0.0
  0
LINE
  8
0
  6
CONTINUOUS
 62
   249
 10
54.316438
 20
226.028148
 30
0.0
 11
54.316438
 21
225.0
 31
0.0
  0
LINE
  8
0
  6
CONTINUOUS
 62
   249
 10
54.316438
 20
225.0
 30
0.0
 11
17.5
 21
225.0
 31
0.0
  0
LINE
  8
0
  6
CONTINUOUS
 62
   249
 10
65.0
 20
225.0
 30
0.0
 11
68.214703
 21
230.743924
 31
0.0
  0
LINE
  8
0
  6
CONTINUOUS
 62
   249
 10
65.0
 20
225.0
 30
0.0
 11
65.0
 21
222.5
 31
0.0
  0
LINE
  8
0
  6
CONTINUOUS
 62
   249
 10
65.0
 20
230.0
 30
0.0
 11
65.0
 21
232.5
 31
0.0
  0
TEXT
  8
0
  6
CONTINUOUS
 62
   249
 10
175.840325
 20
50.846831
 30
0.0
 40
2.0
  1
108:X2:6
 50
90.0
  7
ROMANS
  0
TEXT
  8
0
  6
CONTINUOUS
 62
   249
 10
180.681062
 20
50.846831
 30
0.0
 40
2.0
  1
108:X2:4
 50
90.0
  7
ROMANS
  0
TEXT
  8
0
  6
CONTINUOUS
 62
   249
 10
190.638441
 20
50.413593
 30
0.0
 40
2.0
  1
108:X1:16
 50
90.0
  7
ROMANS
  0
TEXT
  8
0
  6
CONTINUOUS
 62
   249
 10
195.638441
 20
50.413593
 30
0.0
 40
2.0
  1
108:X1:18
 50
90.0
  7
ROMANS
  0
TEXT
  8
0
  6
CONTINUOUS
 62
   249
 10
200.59138
 20
50.413593
 30
0.0
 40
2.0
  1
108:X1:12
 50
90.0
  7
ROMANS
  0
TEXT
  8
0
  6
CONTINUOUS
 62
   249
 10
17.940082
 20
141.932006
 30
0.0
 40
2.0
  1
108:X1:11
  7
ROMANS
  0
TEXT
  8
0
  6
CONTINUOUS
 62
   249
 10
17.959679
 20
106.932006
 30
0.0
 40
2.0
  1
108:X2:9
  7
ROMANS
  0
TEXT
  8
0
  6
CONTINUOUS
 62
   249
 10
17.959679
 20
111.932006
 30
0.0
 40
2.0
  1
108:X2:7
  7
ROMANS
  0
TEXT
  8
0
  6
CONTINUOUS
 62
   249
 10
17.964024
 20
84.124627
 30
0.0
 40
2.0
  1
108:X2:16
  7
ROMANS
  0
TEXT
  8
0
  6
CONTINUOUS
 62
   249
 10
17.963122
 20
91.446487
 30
0.0
 40
2.0
  1
108:X2:14
  7
ROMANS
  0
TEXT
  8
0
  6
CONTINUOUS
 62
   249
 10
17.963122
 20
96.932006
 30
0.0
 40
2.0
  1
108:X2:11
  7
ROMANS
  0
TEXT
  8
0
  6
CONTINUOUS
 62
   249
 10
17.963122
 20
101.932006
 30
0.0
 40
2.0
  1
108:X2:12
  7
ROMANS
  0
TEXT
  8
0
  6
CONTINUOUS
 62
   249
 10
17.964024
 20
79.505995
 30
0.0
 40
2.0
  1
108:X2:17
  7
ROMANS
  0
TEXT
  8
0
  6
CONTINUOUS
 62
   249
 10
18.011727
 20
226.721081
 30
0.0
 40
2.0
  1
108:X1:1
  7
ROMANS
  0
TEXT
  8
0
  6
CONTINUOUS
 62
   249
 10
17.940082
 20
222.016121
 30
0.0
 40
2.0
  1
108:X1:2
  7
ROMANS
  0
TEXT
  8
0
  6
CONTINUOUS
 62
   249
 10
18.1795
 20
206.932006
 30
0.0
 40
2.0
  1
108:X1:4
  7
ROMANS
  0
TEXT
  8
0
  6
CONTINUOUS
 62
   249
 10
18.239354
 20
191.932006
 30
0.0
 40
2.0
  1
108:X1:6
  7
ROMANS
  0
TEXT
  8
0
  6
CONTINUOUS
 62
   249
 10
17.90417
 20
176.932006
 30
0.0
 40
2.0
  1
108:X1:8
  7
ROMANS
  0
TEXT
  8
0
  6
CONTINUOUS
 62
   249
 10
18.1795
 20
161.932006
 30
0.0
 40
2.0
  1
108:X1:10
  7
ROMANS
  0
TEXT
  8
0
  6
HIDDEN
 62
   249
 10
65.414748
 20
233.693637
 30
0.0
 40
2.0
  1
BS1
  7
ROMANS
  0
TEXT
  8
0
  6
HIDDEN
 62
   249
 10
65.414748
 20
218.693637
 30
0.0
 40
2.0
  1
BS2
  7
ROMANS
  0
TEXT
  8
0
  6
HIDDEN
 62
   249
 10
65.414748
 20
188.693637
 30
0.0
 40
2.0
  1
BS4
  7
ROMANS
  0
TEXT
  8
0
  6
HIDDEN
 62
   249
 10
65.414748
 20
203.693637
 30
0.0
 40
2.0
  1
BS3
  7
ROMANS
  0
TEXT
  8
0
  6
HIDDEN
 62
   249
 10
65.414748
 20
173.693637
 30
0.0
 40
2.0
  1
BS5
  7
ROMANS
  0
TEXT
  8
0
  6
HIDDEN
 62
   249
 10
80.885843
 20
155.0
 30
0.0
 40
2.0
  1
TS4
 50
90.0
  7
ROMANS
  0
TEXT
  8
0
  6
HIDDEN
 62
   249
 10
88.804544
 20
155.0
 30
0.0
 40
2.0
  1
TS3
 50
90.0
  7
ROMANS
  0
TEXT
  8
0
  6
HIDDEN
 62
   249
 10
96.220468
 20
155.0
 30
0.0
 40
2.0
  1
TS2
 50
90.0
  7
ROMANS
  0
TEXT
  8
0
  6
HIDDEN
 62
   249
 10
103.602905
 20
155.0
 30
0.0
 40
2.0
  1
TS1
 50
90.0
  7
ROMANS
  0
TEXT
  8
0
  6
HIDDEN
 62
   249
 10
110.885843
 20
155.0
 30
0.0
 40
2.0
  1
SS4
 50
90.0
  7
ROMANS
  0
TEXT
  8
0
  6
HIDDEN
 62
   249
 10
118.804544
 20
155.0
 30
0.0
 40
2.0
  1
SS3
 50
90.0
  7
ROMANS
  0
TEXT
  8
0
  6
HIDDEN
 62
   249
 10
126.220468
 20
155.0
 30
0.0
 40
2.0
  1
SS2
 50
90.0
  7
ROMANS
  0
TEXT
  8
0
  6
HIDDEN
 62
   249
 10
133.602905
 20
155.0
 30
0.0
 40
2.0
  1
SS1
 50
90.0
  7
ROMANS
  0
TEXT
  8
0
  6
DASHED
 62
   249
 10
3.03868
 20
196.519183
 30
0.0
 40
2.0
  1
1)
  7
ROMANS
  0
LINE
  8
0
  6
CONTINUOUS
 62
   249
 10
10.0
 20
164.999655
 30
0.0
 11
11.0
 21
163.999655
 31
0.0
  0
LINE
  8
0
  6
CONTINUOUS
 62
   249
 10
10.0
 20
230.0
 30
0.0
 11
11.0
 21
231.0
 31
0.0
  0
LINE
  8
0
  6
CONTINUOUS
 62
   249
 10
10.0
 20
230.0
 30
0.0
 11
10.0
 21
164.999655
 31
0.0
  0
LINE
  8
0
  6
DASHED
 62
   249
 10
17.5
 20
230.0
 30
0.0
 11
12.5
 21
230.0
 31
0.0
  0
LINE
  8
0
  6
DASHED
 62
   249
 10
17.5
 20
225.0
 30
0.0
 11
12.5
 21
225.0
 31
0.0
  0
LINE
  8
0
  6
DASHED
 62
   249
 10
17.5
 20
210.0
 30
0.0
 11
12.5
 21
210.0
 31
0.0
  0
LINE
  8
0
  6
DASHED
 62
   249
 10
17.5
 20
215.0
 30
0.0
 11
12.5
 21
215.0
 31
0.0
  0
LINE
  8
0
  6
DASHED
 62
   249
 10
17.5
 20
180.0
 30
0.0
 11
12.5
 21
180.0
 31
0.0
  0
LINE
  8
0
  6
DASHED
 62
   249
 10
17.5
 20
185.0
 30
0.0
 11
12.5
 21
185.0
 31
0.0
  0
LINE
  8
0
  6
DASHED
 62
   249
 10
17.5
 20
195.0
 30
0.0
 11
12.5
 21
195.0
 31
0.0
  0
LINE
  8
0
  6
DASHED
 62
   249
 10
17.5
 20
200.0
 30
0.0
 11
12.5
 21
200.0
 31
0.0
  0
LINE
  8
0
  6
DASHED
 62
   249
 10
17.5
 20
165.0
 30
0.0
 11
12.5
 21
165.0
 31
0.0
  0
LINE
  8
0
  6
DASHED
 62
   249
 10
17.5
 20
170.0
 30
0.0
 11
12.5
 21
170.0
 31
0.0
  0
LINE
  8
0
  6
DASHED
 62
   249
 10
17.5
 20
140.0
 30
0.0
 11
12.5
 21
140.0
 31
0.0
  0
LINE
  8
0
  6
DASHED
 62
   249
 10
17.5
 20
150.0
 30
0.0
 11
12.5
 21
150.0
 31
0.0
  0
LINE
  8
0
  6
DASHED
 62
   249
 10
17.5
 20
120.0
 30
0.0
 11
12.5
 21
120.0
 31
0.0
  0
LINE
  8
0
  6
DASHED
 62
   249
 10
17.5
 20
105.0
 30
0.0
 11
12.5
 21
105.0
 31
0.0
  0
LINE
  8
0
  6
DASHED
 62
   249
 10
17.5
 20
95.0
 30
0.0
 11
12.5
 21
95.0
 31
0.0
  0
LINE
  8
0
  6
CONTINUOUS
 62
   249
 10
10.0
 20
115.0
 30
0.0
 11
11.0
 21
116.0
 31
0.0
  0
LINE
  8
0
  6
CONTINUOUS
 62
   249
 10
10.0
 20
115.0
 30
0.0
 11
10.0
 21
94.999655
 31
0.0
  0
LINE
  8
0
  6
CONTINUOUS
 62
   249
 10
10.0
 20
94.999655
 30
0.0
 11
11.0
 21
93.999655
 31
0.0
  0
TEXT
  8
0
  6
DASHED
 62
   249
 10
3.03868
 20
104.019183
 30
0.0
 40
2.0
  1
3)
  7
ROMANS
  0
LINE
  8
0
  6
DASHED
 62
   249
 10
147.5
 20
50.0
 30
0.0
 11
147.5
 21
42.5
 31
0.0
  0
LINE
  8
0
  6
DASHED
 62
   249
 10
177.5
 20
50.0
 30
0.0
 11
177.5
 21
42.5
 31
0.0
  0
LINE
  8
0
  6
DASHED
 62
   249
 10
202.5
 20
50.0
 30
0.0
 11
202.5
 21
42.5
 31
0.0
  0
LINE
  8
0
  6
DASHED
 62
   249
 10
197.5
 20
50.0
 30
0.0
 11
197.5
 21
42.5
 31
0.0
  0
LINE
  8
0
  6
DASHED
 62
   249
 10
192.5
 20
50.0
 30
0.0
 11
192.5
 21
42.5
 31
0.0
  0
LINE
  8
0
  6
DASHED
 62
   249
 10
187.5
 20
50.0
 30
0.0
 11
187.5
 21
42.5
 31
0.0
  0
TEXT
  8
0
  6
HIDDEN
 62
   249
 10
371.653862
 20
234.917877
 30
0.0
 40
2.5
  1
I
  7
GREEKS
  0
TEXT
  8
0
  6
CONTINUOUS
 62
   249
 10
366.921662
 20
234.912174
 30
0.0
 40
2.5
  1
3
  7
GREEKS
  0
TEXT
  8
0
  6
HIDDEN
 62
   249
 10
369.067229
 20
234.912344
 30
0.0
 40
2.339483
  1
D
  7
GREEKC
  0
TEXT
  8
0
  6
HIDDEN
 62
   249
 10
369.067229
 20
240.130971
 30
0.0
 40
2.339483
  1
D
  7
GREEKC
  0
TEXT
  8
0
  6
CONTINUOUS
 62
   249
 10
366.921662
 20
240.130801
 30
0.0
 40
2.5
  1
3
  7
GREEKS
  0
TEXT
  8
0
  6
HIDDEN
 62
   249
 10
371.653862
 20
240.136504
 30
0.0
 40
2.5
  1
I
  7
GREEKS
  0
TEXT
  8
0
  6
CONTINUOUS
 62
   249
 10
370.178949
 20
247.346886
 30
0.0
 40
2.5
  1
/
  7
GREEKS
  0
TEXT
  8
0
  6
CONTINUOUS
 62
   249
 10
367.850889
 20
247.346886
 30
0.0
 40
2.5
  1
Y
  7
GREEKS
  0
TEXT
  8
0
  6
HIDDEN
 62
   249
 10
372.237005
 20
247.383424
 30
0.0
 40
2.339483
  1
D
  7
GREEKC
  0
LINE
  8
0
  6
CONTINUOUS
 62
   249
 10
380.0
 20
232.5
 30
0.0
 11
362.5
 21
232.5
 31
0.0
  0
TEXT
  8
0
  6
CONTINUOUS
 62
   249
 10
262.887383
 20
251.586709
 30
0.0
 40
2.0
  1
101
  7
ROMANS
  0
LINE
  8
0
 62
   249
 10
266.38095
 20
194.444425
 30
0.0
 11
267.060313
 21
193.508681
 31
0.0
  0
LINE
  8
0
 62
   249
 10
265.0
 20
192.5
 30
0.0
 11
267.5
 21
192.5
 31
0.0
  0
LINE
  8
0
 62
   249
 10
267.5
 20
192.5
 30
0.0
 11
267.5
 21
195.4
 31
0.0
  0
LINE
  8
0
 62
   249
 10
272.5
 20
197.5
 30
0.0
 11
266.7
 21
194.0
 31
0.0
  0
LINE
  8
0
 62
   249
 10
265.0
 20
197.498451
 30
0.0
 11
267.5
 21
197.498451
 31
0.0
  0
LINE
  8
0
 62
   249
 10
265.0
 20
197.49845
 30
0.0
 11
262.5
 21
197.49845
 31
0.0
  0
LINE
  8
0
 62
   249
 10
272.5
 20
207.5
 30
0.0
 11
266.7
 21
204.0
 31
0.0
  0
LINE
  8
0
 62
   249
 10
266.38095
 20
204.444425
 30
0.0
 11
267.060313
 21
203.508681
 31
0.0
  0
LINE
  8
0
 62
   249
 10
267.5
 20
202.5
 30
0.0
 11
267.5
 21
205.4
 31
0.0
  0
LINE
  8
0
 62
   249
 10
265.0
 20
202.5
 30
0.0
 11
267.5
 21
202.5
 31
0.0
  0
LINE
  8
0
 62
   249
 10
248.5
 20
202.5
 30
0.0
 11
265.0
 21
202.5
 31
0.0
  0
LINE
  8
0
 62
   249
 10
262.5
 20
207.49845
 30
0.0
 11
265.0
 21
207.49845
 31
0.0
  0
LINE
  8
0
 62
   249
 10
265.0
 20
207.5
 30
0.0
 11
267.5
 21
207.5
 31
0.0
  0
LINE
  8
0
 62
   249
 10
265.0
 20
227.5
 30
0.0
 11
267.5
 21
227.5
 31
0.0
  0
LINE
  8
0
 62
   249
 10
262.5
 20
227.49845
 30
0.0
 11
265.0
 21
227.49845
 31
0.0
  0
LINE
  8
0
 62
   249
 10
248.5
 20
222.5
 30
0.0
 11
265.0
 21
222.5
 31
0.0
  0
LINE
  8
0
 62
   249
 10
265.0
 20
222.5
 30
0.0
 11
267.5
 21
222.5
 31
0.0
  0
LINE
  8
0
 62
   249
 10
267.5
 20
222.5
 30
0.0
 11
267.5
 21
225.4
 31
0.0
  0
LINE
  8
0
 62
   249
 10
266.38095
 20
224.444425
 30
0.0
 11
267.060313
 21
223.508681
 31
0.0
  0
LINE
  8
0
 62
   249
 10
272.5
 20
227.5
 30
0.0
 11
266.7
 21
224.0
 31
0.0
  0
LINE
  8
0
 62
   249
 10
272.5
 20
247.5
 30
0.0
 11
266.7
 21
244.0
 31
0.0
  0
LINE
  8
0
 62
   249
 10
266.38095
 20
244.444425
 30
0.0
 11
267.060313
 21
243.508681
 31
0.0
  0
LINE
  8
0
 62
   249
 10
267.5
 20
242.5
 30
0.0
 11
267.5
 21
245.4
 31
0.0
  0
LINE
  8
0
 62
   249
 10
265.0
 20
242.5
 30
0.0
 11
267.5
 21
242.5
 31
0.0
  0
LINE
  8
0
 62
   249
 10
248.5
 20
242.5
 30
0.0
 11
265.0
 21
242.5
 31
0.0
  0
LINE
  8
0
 62
   249
 10
262.5
 20
247.49845
 30
0.0
 11
265.0
 21
247.49845
 31
0.0
  0
LINE
  8
0
 62
   249
 10
265.0
 20
247.5
 30
0.0
 11
267.5
 21
247.5
 31
0.0
  0
LINE
  8
0
 62
   249
 10
262.5
 20
197.49845
 30
0.0
 11
262.5
 21
247.49845
 31
0.0
  0
LINE
  8
0
  6
CONTINUOUS
 62
   249
 10
265.0
 20
192.5
 30
0.0
 11
250.0
 21
192.5
 31
0.0
  0
TEXT
  8
0
  6
DASHED
 62
   249
 10
275.862579
 20
244.765533
 30
0.0
 40
2.0
  1
3A
  7
ROMANS
 11
275.862579
 21
244.098866
 31
0.0
 73
     1
  0
LINE
  8
0
  6
CONTINUOUS
 62
   249
 10
272.5
 20
247.5
 30
0.0
 11
282.5
 21
247.5
 31
0.0
  0
LINE
  8
0
  6
CONTINUOUS
 62
   249
 10
272.5
 20
227.5
 30
0.0
 11
282.5
 21
227.5
 31
0.0
  0
TEXT
  8
0
  6
DASHED
 62
   249
 10
275.862579
 20
224.537215
 30
0.0
 40
2.0
  1
4A
  7
ROMANS
 11
275.862579
 21
223.870548
 31
0.0
 73
     1
  0
LINE
  8
0
  6
CONTINUOUS
 62
   249
 10
272.5
 20
207.5
 30
0.0
 11
282.5
 21
207.5
 31
0.0
  0
TEXT
  8
0
  6
DASHED
 62
   249
 10
275.862579
 20
204.452945
 30
0.0
 40
2.0
  1
5A
  7
ROMANS
 11
275.862579
 21
203.786279
 31
0.0
 73
     1
  0
LINE
  8
0
  6
CONTINUOUS
 62
   249
 10
272.5
 20
197.5
 30
0.0
 11
282.5
 21
197.5
 31
0.0
  0
TEXT
  8
0
  6
DASHED
 62
   249
 10
275.862579
 20
194.545879
 30
0.0
 40
2.0
  1
6A
  7
ROMANS
 11
275.862579
 21
193.879213
 31
0.0
 73
     1
  0
TEXT
  8
0
  6
DASHED
 62
   249
 10
275.862579
 20
94.545879
 30
0.0
 40
2.0
  1
10A
  7
ROMANS
 11
275.862579
 21
93.879213
 31
0.0
 73
     1
  0
LINE
  8
0
  6
CONTINUOUS
 62
   249
 10
272.5
 20
97.5
 30
0.0
 11
282.5
 21
97.5
 31
0.0
  0
TEXT
  8
0
  6
DASHED
 62
   249
 10
275.862579
 20
104.833333
 30
0.0
 40
2.0
  1
9A
  7
ROMANS
 11
275.862579
 21
104.166667
 31
0.0
 73
     1
  0
LINE
  8
0
  6
CONTINUOUS
 62
   249
 10
272.5
 20
107.5
 30
0.0
 11
282.5
 21
107.5
 31
0.0
  0
TEXT
  8
0
  6
DASHED
 62
   249
 10
275.862579
 20
124.537215
 30
0.0
 40
2.0
  1
8A
  7
ROMANS
 11
275.862579
 21
123.870548
 31
0.0
 73
     1
  0
LINE
  8
0
  6
CONTINUOUS
 62
   249
 10
272.5
 20
127.5
 30
0.0
 11
282.5
 21
127.5
 31
0.0
  0
LINE
  8
0
  6
CONTINUOUS
 62
   249
 10
272.5
 20
147.5
 30
0.0
 11
282.5
 21
147.5
 31
0.0
  0
TEXT
  8
0
  6
DASHED
 62
   249
 10
275.862579
 20
144.208641
 30
0.0
 40
2.0
  1
7A
  7
ROMANS
 11
275.862579
 21
143.541974
 31
0.0
 73
     1
  0
LINE
  8
0
 62
   249
 10
262.5
 20
97.49845
 30
0.0
 11
262.5
 21
147.49845
 31
0.0
  0
LINE
  8
0
 62
   249
 10
265.0
 20
147.5
 30
0.0
 11
267.5
 21
147.5
 31
0.0
  0
LINE
  8
0
 62
   249
 10
262.5
 20
147.49845
 30
0.0
 11
265.0
 21
147.49845
 31
0.0
  0
LINE
  8
0
 62
   249
 10
248.5
 20
142.5
 30
0.0
 11
265.0
 21
142.5
 31
0.0
  0
LINE
  8
0
 62
   249
 10
265.0
 20
142.5
 30
0.0
 11
267.5
 21
142.5
 31
0.0
  0
LINE
  8
0
 62
   249
 10
267.5
 20
142.5
 30
0.0
 11
267.5
 21
145.4
 31
0.0
  0
LINE
  8
0
 62
   249
 10
266.38095
 20
144.444425
 30
0.0
 11
267.060313
 21
143.508681
 31
0.0
  0
LINE
  8
0
 62
   249
 10
272.5
 20
147.5
 30
0.0
 11
266.7
 21
144.0
 31
0.0
  0
LINE
  8
0
 62
   249
 10
272.5
 20
127.5
 30
0.0
 11
266.7
 21
124.0
 31
0.0
  0
LINE
  8
0
 62
   249
 10
266.38095
 20
124.444425
 30
0.0
 11
267.060313
 21
123.508681
 31
0.0
  0
LINE
  8
0
 62
   249
 10
267.5
 20
122.5
 30
0.0
 11
267.5
 21
125.4
 31
0.0
  0
LINE
  8
0
 62
   249
 10
265.0
 20
122.5
 30
0.0
 11
267.5
 21
122.5
 31
0.0
  0
LINE
  8
0
 62
   249
 10
248.5
 20
122.5
 30
0.0
 11
265.0
 21
122.5
 31
0.0
  0
LINE
  8
0
 62
   249
 10
262.5
 20
127.49845
 30
0.0
 11
265.0
 21
127.49845
 31
0.0
  0
LINE
  8
0
 62
   249
 10
265.0
 20
127.5
 30
0.0
 11
267.5
 21
127.5
 31
0.0
  0
LINE
  8
0
 62
   249
 10
265.0
 20
107.5
 30
0.0
 11
267.5
 21
107.5
 31
0.0
  0
LINE
  8
0
 62
   249
 10
262.5
 20
107.49845
 30
0.0
 11
265.0
 21
107.49845
 31
0.0
  0
LINE
  8
0
 62
   249
 10
248.5
 20
102.5
 30
0.0
 11
265.0
 21
102.5
 31
0.0
  0
LINE
  8
0
 62
   249
 10
265.0
 20
102.5
 30
0.0
 11
267.5
 21
102.5
 31
0.0
  0
LINE
  8
0
 62
   249
 10
267.5
 20
102.5
 30
0.0
 11
267.5
 21
105.4
 31
0.0
  0
LINE
  8
0
 62
   249
 10
266.38095
 20
104.444425
 30
0.0
 11
267.060313
 21
103.508681
 31
0.0
  0
LINE
  8
0
 62
   249
 10
272.5
 20
107.5
 30
0.0
 11
266.7
 21
104.0
 31
0.0
  0
LINE
  8
0
 62
   249
 10
265.0
 20
97.49845
 30
0.0
 11
262.5
 21
97.49845
 31
0.0
  0
LINE
  8
0
 62
   249
 10
265.0
 20
97.498451
 30
0.0
 11
267.5
 21
97.498451
 31
0.0
  0
LINE
  8
0
 62
   249
 10
272.5
 20
97.5
 30
0.0
 11
266.7
 21
94.0
 31
0.0
  0
LINE
  8
0
 62
   249
 10
267.5
 20
92.5
 30
0.0
 11
267.5
 21
95.4
 31
0.0
  0
LINE
  8
0
 62
   249
 10
265.0
 20
92.5
 30
0.0
 11
267.5
 21
92.5
 31
0.0
  0
LINE
  8
0
 62
   249
 10
266.38095
 20
94.444425
 30
0.0
 11
267.060313
 21
93.508681
 31
0.0
  0
LINE
  8
0
  6
CENTER
 62
   249
 10
282.5
 20
257.5
 30
0.0
 11
282.5
 21
50.0
 31
0.0
  0
LINE
  8
0
  6
CENTER
 62
   249
 10
17.5
 20
257.5
 30
0.0
 11
17.5
 21
50.0
 31
0.0
  0
LINE
  8
0
  6
CONTINUOUS
 62
   249
 10
167.5
 20
75.0
 30
0.0
 11
167.5
 21
50.0
 31
0.0
  0
LINE
  8
0
  6
CONTINUOUS
 62
   249
 10
162.5
 20
75.0
 30
0.0
 11
162.5
 21
50.0
 31
0.0
  0
LINE
  8
0
  6
CONTINUOUS
 62
   249
 10
152.5
 20
95.0
 30
0.0
 11
152.5
 21
70.0
 31
0.0
  0
LINE
  8
0
  6
CONTINUOUS
 62
   249
 10
152.5
 20
70.0
 30
0.0
 11
157.5
 21
70.0
 31
0.0
  0
LINE
  8
0
  6
CONTINUOUS
 62
   249
 10
157.5
 20
75.0
 30
0.0
 11
157.5
 21
65.0
 31
0.0
  0
LINE
  8
0
  6
CONTINUOUS
 62
   249
 10
157.5
 20
65.0
 30
0.0
 11
160.265661
 21
65.0
 31
0.0
  0
LINE
  8
0
  6
CONTINUOUS
 62
   249
 10
157.5
 20
58.999996
 30
0.0
 11
159.934804
 21
65.662841
 31
0.0
  0
LINE
  8
0
  6
CONTINUOUS
 62
   249
 10
157.5
 20
58.999996
 30
0.0
 11
157.5
 21
50.0
 31
0.0
  0
TEXT
  8
0
  6
CONTINUOUS
 62
   249
 10
160.53067
 20
50.340704
 30
0.0
 40
2.0
  1
101:2A
 50
90.0
  7
ROMANS
  0
LINE
  8
0
  6
CONTINUOUS
 62
   249
 10
137.434804
 20
65.662841
 30
0.0
 11
136.549106
 21
66.107734
 31
0.0
  0
LINE
  8
0
  6
CONTINUOUS
 62
   249
 10
135.0
 20
65.0
 30
0.0
 11
137.765661
 21
65.0
 31
0.0
  0
LINE
  8
0
  6
CONTINUOUS
 62
   249
 10
135.0
 20
58.999996
 30
0.0
 11
137.434804
 21
65.662841
 31
0.0
  0
LINE
  8
0
  6
CONTINUOUS
 62
   249
 10
135.0
 20
70.0
 30
0.0
 11
135.0
 21
65.0
 31
0.0
  0
LINE
  8
0
  6
CONTINUOUS
 62
   249
 10
135.0
 20
58.999996
 30
0.0
 11
135.0
 21
50.0
 31
0.0
  0
TEXT
  8
0
  6
CONTINUOUS
 62
   249
 10
138.713268
 20
49.959225
 30
0.0
 40
2.0
  1
101:18A
 50
90.0
  7
ROMANS
  0
LINE
  8
0
  6
CENTER
 62
   249
 10
17.5
 20
50.0
 30
0.0
 11
207.5
 21
50.0
 31
0.0
  0
LINE
  8
0
  6
DASHED
 62
   249
 10
135.0
 20
50.0
 30
0.0
 11
135.0
 21
42.5
 31
0.0
  0
LINE
  8
0
  6
CONTINUOUS
 62
   249
 10
17.5
 20
150.000025
 30
0.0
 11
35.0
 21
150.000025
 31
0.0
  0
LINE
  8
0
  6
CONTINUOUS
 62
   249
 10
41.000004
 20
150.0
 30
0.0
 11
34.337159
 21
152.434804
 31
0.0
  0
LINE
  8
0
  6
CONTINUOUS
 62
   249
 10
35.0
 20
150.000025
 30
0.0
 11
35.0
 21
152.765661
 31
0.0
  0
TEXT
  8
0
  6
CONTINUOUS
 62
   249
 10
17.725537
 20
136.840299
 30
0.0
 40
2.0
  1
101:16A
  7
ROMANS
  0
LINE
  8
0
  6
CONTINUOUS
 62
   249
 10
41.000004
 20
140.0
 30
0.0
 11
34.337159
 21
142.434804
 31
0.0
  0
LINE
  8
0
  6
CONTINUOUS
 62
   249
 10
35.0
 20
140.000025
 30
0.0
 11
35.0
 21
142.765661
 31
0.0
  0
LINE
  8
0
  6
CONTINUOUS
 62
   249
 10
17.5
 20
140.000025
 30
0.0
 11
35.0
 21
140.000025
 31
0.0
  0
TEXT
  8
0
  6
CONTINUOUS
 62
   249
 10
17.809333
 20
132.008748
 30
0.0
 40
2.0
  1
108:X1:15
  7
ROMANS
  0
LINE
  8
0
  6
CONTINUOUS
 62
   249
 10
17.5
 20
135.000025
 30
0.0
 11
42.511081
 21
135.000025
 31
0.0
  0
LINE
  8
0
  6
CONTINUOUS
 62
   249
 10
17.5
 20
125.000025
 30
0.0
 11
42.511081
 21
125.000025
 31
0.0
  0
TEXT
  8
0
  6
CONTINUOUS
 62
   249
 10
17.76145
 20
122.074841
 30
0.0
 40
2.0
  1
108:X2:3
  7
ROMANS
  0
TEXT
  8
0
  6
CONTINUOUS
 62
   249
 10
17.833275
 20
116.763051
 30
0.0
 40
2.0
  1
101:17A
  7
ROMANS
  0
LINE
  8
0
  6
CONTINUOUS
 62
   249
 10
35.0
 20
120.000025
 30
0.0
 11
35.0
 21
122.765661
 31
0.0
  0
LINE
  8
0
  6
CONTINUOUS
 62
   249
 10
41.000004
 20
120.0
 30
0.0
 11
34.337159
 21
122.434804
 31
0.0
  0
LINE
  8
0
  6
CONTINUOUS
 62
   249
 10
17.5
 20
120.000025
 30
0.0
 11
35.0
 21
120.000025
 31
0.0
  0
LINE
  8
0
  6
CONTINUOUS
 62
   249
 10
17.5
 20
215.000025
 30
0.0
 11
42.511081
 21
215.000025
 31
0.0
  0
LINE
  8
0
  6
CONTINUOUS
 62
   249
 10
17.5
 20
200.000025
 30
0.0
 11
42.511081
 21
200.000025
 31
0.0
  0
LINE
  8
0
  6
CONTINUOUS
 62
   249
 10
17.5
 20
185.000025
 30
0.0
 11
42.511081
 21
185.000025
 31
0.0
  0
LINE
  8
0
  6
CONTINUOUS
 62
   249
 10
17.5
 20
170.000025
 30
0.0
 11
42.511081
 21
170.000025
 31
0.0
  0
LINE
  8
0
  6
CENTER
 62
   249
 10
207.5
 20
50.0
 30
0.0
 11
282.5
 21
50.0
 31
0.0
  0
LINE
  8
0
  6
DASHED
 62
   249
 10
220.0
 20
50.0
 30
0.0
 11
220.0
 21
45.0
 31
0.0
  0
LINE
  8
0
  6
DASHED
 62
   249
 10
225.0
 20
50.0
 30
0.0
 11
225.0
 21
45.0
 31
0.0
  0
LINE
  8
0
  6
DASHED
 62
   249
 10
240.0
 20
50.0
 30
0.0
 11
240.0
 21
45.0
 31
0.0
  0
TEXT
  8
0
  6
DASHED
 62
   249
 10
17.841428
 20
146.891342
 30
0.0
 40
2.0
  1
101:15A
  7
ROMANS
  0
TEXT
  8
0
  6
DASHED
 62
   249
 10
17.853398
 20
167.175607
 30
0.0
 40
2.0
  1
108:X1:9
  7
ROMANS
  0
TEXT
  8
0
  6
DASHED
 62
   249
 10
17.949165
 20
182.15199
 30
0.0
 40
2.0
  1
108:X1:7
  7
ROMANS
  0
TEXT
  8
0
  6
DASHED
 62
   249
 10
18.380116
 20
197.17441
 30
0.0
 40
2.0
  1
108:X1:5
  7
ROMANS
  0
TEXT
  8
0
  6
DASHED
 62
   249
 10
17.889311
 20
212.180321
 30
0.0
 40
2.0
  1
108:X1:3
  7
ROMANS
  0
LINE
  8
0
  6
CENTER
 62
   249
 10
17.5
 20
257.5
 30
0.0
 11
282.5
 21
257.5
 31
0.0
  0
TEXT
  8
0
  6
DASHED
 62
   249
 10
317.5
 20
24.341081
 30
0.0
 40
2.0
  1
SPAD 346 C3 WITH TEST SWITCH
  7
ROMANS
  0
TEXT
  8
0
  6
DASHED
 62
   249
 10
317.5
 20
21.102985
 30
0.0
 40
2.0
  1
SPAD 346 C3 MED PROVDON
  7
ROMANS
  0
LINE
  8
0
  6
DASHED
 62
   249
 10
17.5
 20
100.0
 30
0.0
 11
12.5
 21
100.0
 31
0.0
  0
LINE
  8
0
  6
DASHED
 62
   249
 10
17.5
 20
87.5
 30
0.0
 11
12.5
 21
87.5
 31
0.0
  0
LINE
  8
0
  6
CONTINUOUS
 62
   249
 10
315.0
 20
167.5
 30
0.0
 11
305.0
 21
167.5
 31
0.0
  0
LINE
  8
0
  6
CONTINUOUS
 62
   249
 10
319.507805
 20
168.419373
 30
0.0
 11
315.0
 21
168.419373
 31
0.0
  0
LINE
  8
0
  6
CONTINUOUS
 62
   249
 10
319.507805
 20
166.580627
 30
0.0
 11
319.507805
 21
168.419373
 31
0.0
  0
LINE
  8
0
  6
CONTINUOUS
 62
   249
 10
315.0
 20
166.580627
 30
0.0
 11
319.507805
 21
166.580627
 31
0.0
  0
LINE
  8
0
  6
CONTINUOUS
 62
   249
 10
315.0
 20
168.419373
 30
0.0
 11
315.0
 21
166.580627
 31
0.0
  0
LINE
  8
0
  6
CONTINUOUS
 62
   249
 10
325.0
 20
167.5
 30
0.0
 11
325.0
 21
164.043072
 31
0.0
  0
LINE
  8
0
  6
CONTINUOUS
 62
   249
 10
335.0
 20
167.5
 30
0.0
 11
319.507805
 21
167.5
 31
0.0
  0
TEXT
  8
0
  6
DASHED
 62
   249
 10
333.417528
 20
258.64743
 30
0.0
 40
2.0
  1
L3
  7
ROMANS
  0
TEXT
  8
0
  6
DASHED
 62
   249
 10
328.341447
 20
258.64743
 30
0.0
 40
2.0
  1
L2
  7
ROMANS
  0
TEXT
  8
0
  6
DASHED
 62
   249
 10
323.737065
 20
258.64743
 30
0.0
 40
2.0
  1
L1
  7
ROMANS
  0
TEXT
  8
0
  6
DASHED
 62
   249
 10
333.01582
 20
254.52916
 30
0.0
 40
2.0
  1
(T)
  7
ROMANS
  0
TEXT
  8
0
  6
DASHED
 62
   249
 10
327.996041
 20
254.52916
 30
0.0
 40
2.0
  1
(S)
  7
ROMANS
  0
TEXT
  8
0
  6
DASHED
 62
   249
 10
323.082774
 20
254.52916
 30
0.0
 40
2.0
  1
(R)
  7
ROMANS
  0
LINE
  8
0
  6
DASHED
 62
   249
 10
282.5
 20
97.5
 30
0.0
 11
320.0
 21
97.5
 31
0.0
  0
LINE
  8
0
  6
DASHED
 62
   249
 10
320.0
 20
142.5
 30
0.0
 11
320.0
 21
97.5
 31
0.0
  0
LINE
  8
0
  6
DASHED
 62
   249
 10
292.5
 20
107.5
 30
0.0
 11
280.0
 21
107.5
 31
0.0
  0
LINE
  8
0
  6
DASHED
 62
   249
 10
335.0
 20
107.5
 30
0.0
 11
320.0
 21
107.5
 31
0.0
  0
LINE
  8
0
  6
DASHED
 62
   249
 10
307.5
 20
127.5
 30
0.0
 11
282.5
 21
127.5
 31
0.0
  0
LINE
  8
0
  6
DASHED
 62
   249
 10
330.0
 20
127.5
 30
0.0
 11
320.0
 21
127.5
 31
0.0
  0
LINE
  8
0
  6
DASHED
 62
   249
 10
312.5
 20
147.5
 30
0.0
 11
282.5
 21
147.5
 31
0.0
  0
LINE
  8
0
  6
DASHED
 62
   249
 10
312.5
 20
137.689992
 30
0.0
 11
312.5
 21
147.5
 31
0.0
  0
LINE
  8
0
  6
DASHED
 62
   249
 10
325.0
 20
142.5
 30
0.0
 11
320.0
 21
142.5
 31
0.0
  0
LINE
  8
0
  6
DASHED
 62
   249
 10
335.006921
 20
102.689984
 30
0.0
 11
312.5
 21
102.689984
 31
0.0
  0
LINE
  8
0
  6
DASHED
 62
   249
 10
330.069797
 20
122.689984
 30
0.0
 11
312.5
 21
122.689984
 31
0.0
  0
LINE
  8
0
  6
DASHED
 62
   249
 10
325.0
 20
137.689992
 30
0.0
 11
312.5
 21
137.689992
 31
0.0
  0
LINE
  8
0
  6
DASHED
 62
   249
 10
325.0
 20
155.522394
 30
0.0
 11
325.0
 21
97.5
 31
0.0
  0
LINE
  8
0
  6
DASHED
 62
   249
 10
330.0
 20
155.522394
 30
0.0
 11
330.0
 21
97.5
 31
0.0
  0
LINE
  8
0
  6
DASHED
 62
   249
 10
335.0
 20
155.522394
 30
0.0
 11
335.0
 21
97.5
 31
0.0
  0
LINE
  8
0
  6
CONTINUOUS
 62
   249
 10
335.0
 20
165.0
 30
0.0
 11
335.0
 21
167.5
 31
0.0
  0
LINE
  8
0
  6
CONTINUOUS
 62
   249
 10
325.0
 20
145.522394
 30
0.0
 11
325.0
 21
142.5
 31
0.0
  0
ARC
  8
0
  6
CONTINUOUS
 62
   249
 10
325.0
 20
162.977987
 30
0.0
 40
1.065085
 50
270.0
 51
90.0
  0
ARC
  8
0
  6
CONTINUOUS
 62
   249
 10
325.0
 20
160.847818
 30
0.0
 40
1.065085
 50
270.0
 51
90.0
  0
ARC
  8
0
  6
CONTINUOUS
 62
   249
 10
325.0
 20
158.717648
 30
0.0
 40
1.065085
 50
270.0
 51
90.0
  0
ARC
  8
0
  6
CONTINUOUS
 62
   249
 10
325.0
 20
156.587479
 30
0.0
 40
1.065085
 50
270.0
 51
90.0
  0
ARC
  8
0
  6
CONTINUOUS
 62
   249
 10
330.0
 20
156.587479
 30
0.0
 40
1.065085
 50
270.0
 51
90.0
  0
ARC
  8
0
  6
CONTINUOUS
 62
   249
 10
330.0
 20
158.717648
 30
0.0
 40
1.065085
 50
270.0
 51
90.0
  0
ARC
  8
0
  6
CONTINUOUS
 62
   249
 10
330.0
 20
160.847818
 30
0.0
 40
1.065085
 50
270.0
 51
90.0
  0
ARC
  8
0
  6
CONTINUOUS
 62
   249
 10
330.0
 20
162.977987
 30
0.0
 40
1.065085
 50
270.0
 51
90.0
  0
LINE
  8
0
  6
CONTINUOUS
 62
   249
 10
330.0
 20
167.5
 30
0.0
 11
330.0
 21
164.043072
 31
0.0
  0
LINE
  8
0
  6
CONTINUOUS
 62
   249
 10
330.0
 20
145.522394
 30
0.0
 11
330.0
 21
142.5
 31
0.0
  0
LINE
  8
0
  6
CONTINUOUS
 62
   249
 10
335.0
 20
145.522394
 30
0.0
 11
335.0
 21
142.5
 31
0.0
  0
LINE
  8
0
  6
CONTINUOUS
 62
   249
 10
335.0
 20
165.0
 30
0.0
 11
335.0
 21
164.043072
 31
0.0
  0
ARC
  8
0
  6
CONTINUOUS
 62
   249
 10
335.0
 20
162.977987
 30
0.0
 40
1.065085
 50
270.0
 51
90.0
  0
ARC
  8
0
  6
CONTINUOUS
 62
   249
 10
335.0
 20
160.847818
 30
0.0
 40
1.065085
 50
270.0
 51
90.0
  0
ARC
  8
0
  6
CONTINUOUS
 62
   249
 10
335.0
 20
158.717648
 30
0.0
 40
1.065085
 50
270.0
 51
90.0
  0
ARC
  8
0
  6
CONTINUOUS
 62
   249
 10
335.0
 20
156.587479
 30
0.0
 40
1.065085
 50
270.0
 51
90.0
  0
LINE
  8
0
  6
CONTINUOUS
 62
   249
 10
325.0
 20
191.776482
 30
0.0
 11
325.0
 21
185.819554
 31
0.0
  0
LINE
  8
0
  6
CONTINUOUS
 62
   249
 10
330.0
 20
191.776482
 30
0.0
 11
330.0
 21
185.819554
 31
0.0
  0
LINE
  8
0
  6
DASHED
 62
   249
 10
282.5
 20
247.5
 30
0.0
 11
325.0
 21
247.5
 31
0.0
  0
LINE
  8
0
  6
DASHED
 62
   249
 10
282.5
 20
227.5
 30
0.0
 11
330.0
 21
227.5
 31
0.0
  0
LINE
  8
0
  6
DASHED
 62
   249
 10
282.5
 20
207.5
 30
0.0
 11
335.0
 21
207.5
 31
0.0
  0
LINE
  8
0
  6
DASHED
 62
   249
 10
282.5
 20
197.5
 30
0.0
 11
320.0
 21
197.5
 31
0.0
  0
LINE
  8
0
  6
DASHED
 62
   249
 10
325.0
 20
242.689992
 30
0.0
 11
320.0
 21
242.689992
 31
0.0
  0
LINE
  8
0
  6
DASHED
 62
   249
 10
335.0
 20
252.5
 30
0.0
 11
335.0
 21
217.5
 31
0.0
  0
LINE
  8
0
  6
DASHED
 62
   249
 10
330.0
 20
252.5
 30
0.0
 11
330.0
 21
217.5
 31
0.0
  0
LINE
  8
0
  6
DASHED
 62
   249
 10
325.0
 20
252.5
 30
0.0
 11
325.0
 21
217.5
 31
0.0
  0
LINE
  8
0
  6
DASHED
 62
   249
 10
335.0
 20
217.5
 30
0.0
 11
335.0
 21
192.5
 31
0.0
  0
LINE
  8
0
  6
DASHED
 62
   249
 10
330.0
 20
217.5
 30
0.0
 11
330.0
 21
192.5
 31
0.0
  0
LINE
  8
0
  6
DASHED
 62
   249
 10
325.0
 20
217.5
 30
0.0
 11
325.0
 21
192.5
 31
0.0
  0
LINE
  8
0
  6
DASHED
 62
   249
 10
330.069797
 20
222.689984
 30
0.0
 11
320.0
 21
222.689984
 31
0.0
  0
LINE
  8
0
  6
DASHED
 62
   249
 10
335.006921
 20
202.689984
 30
0.0
 11
320.0
 21
202.689984
 31
0.0
  0
LINE
  8
0
  6
DASHED
 62
   249
 10
320.0
 20
242.689992
 30
0.0
 11
320.0
 21
197.5
 31
0.0
  0
LINE
  8
0
  6
CENTER
 62
   249
 10
282.5
 20
255.0
 30
0.0
 11
282.5
 21
112.5
 31
0.0
  0
TEXT
  8
0
  6
HIDDEN
 62
   249
 10
32.914748
 20
250.114603
 30
0.0
 40
2.0
  1
1MRS 10210-AA SPAD 346 C
  7
ROMANS
  0
TEXT
  8
0
  6
CONTINUOUS
 62
   249
 10
17.545044
 20
45.909774
 30
0.0
 40
2.0
  1
DIM. 208 x 270
  7
ROMANS
  0
TEXT
  8
0
  6
CONTINUOUS
 62
   249
 10
17.545044
 20
42.467787
 30
0.0
 40
2.0
  1
1MRS 10210-AAD
  7
ROMANS
  0
TEXT
  8
0
  6
DASHED
 62
   249
 10
336.75804
 20
47.340526
 30
0.0
 40
2.0
  1
  BUSSANSLUTNINGSMODUL
  7
ROMANS
  0
TEXT
  8
0
  6
DASHED
 62
   249
 10
335.647861
 20
89.145631
 30
0.0
 40
2.0
  1
1) CONTROL INPUTS
  7
ROMANS
  0
TEXT
  8
0
  6
DASHED
 62
   249
 10
340.720366
 20
85.812297
 30
0.0
 40
2.0
  1
KONTROLLINGÅNGAR
  7
ROMANS
  0
TEXT
  8
0
  6
DASHED
 62
   249
 10
335.647861
 20
79.145631
 30
0.0
 40
2.0
  1
2) TRIP
  7
ROMANS
  0
TEXT
  8
0
  6
DASHED
 62
   249
 10
336.986876
 20
75.812297
 30
0.0
 40
2.0
  1
  UTLÖSNING
  7
ROMANS
  0
TEXT
  8
0
  6
DASHED
 62
   249
 10
340.757236
 20
56.645631
 30
0.0
 40
2.0
  1
INTERNT RELÄFEL, IRF
  7
ROMANS
  0
TEXT
  8
0
  6
DASHED
 62
   249
 10
340.65535
 20
65.812297
 30
0.0
 40
2.0
  1
SIGNAL MM.
  7
ROMANS
  0
TEXT
  8
0
  6
DASHED
 62
   249
 10
335.631331
 20
69.145631
 30
0.0
 40
2.0
  1
3) ALARM ETC.
  7
ROMANS
  0
TEXT
  8
0
  6
DASHED
 62
   249
 10
335.527538
 20
50.812297
 30
0.0
 40
2.0
  1
5) BUS CONNECTION MODULE
  7
ROMANS
  0
TEXT
  8
0
  6
DASHED
 62
   249
 10
335.527538
 20
59.978964
 30
0.0
 40
2.0
  1
4) INTERNAL RELAY FAULT, IRF
  7
ROMANS
  0
LINE
  8
0
 62
   249
 10
248.5
 20
92.5
 30
0.0
 11
265.0
 21
92.5
 31
0.0
  0
LINE
  8
0
  6
DASHED
 62
   249
 10
162.5
 20
50.0
 30
0.0
 11
162.5
 21
42.5
 31
0.0
  0
TEXT
  8
0
  6
CONTINUOUS
 62
   249
 10
170.675116
 20
50.364171
 30
0.0
 40
2.0
  1
108:X2:8
 50
90.0
  7
ROMANS
  0
LINE
  8
0
  6
DASHED
 62
   249
 10
17.5
 20
145.0
 30
0.0
 11
12.5
 21
145.0
 31
0.0
  0
LINE
  8
0
  6
CONTINUOUS
 62
   249
 10
204.934804
 20
65.662841
 30
0.0
 11
204.049106
 21
66.107734
 31
0.0
  0
LINE
  8
0
  6
CONTINUOUS
 62
   249
 10
202.5
 20
65.0
 30
0.0
 11
205.265661
 21
65.0
 31
0.0
  0
LINE
  8
0
  6
CONTINUOUS
 62
   249
 10
202.5
 20
58.999996
 30
0.0
 11
204.934804
 21
65.662841
 31
0.0
  0
TEXT
  8
0
  6
CONTINUOUS
 62
   249
 10
206.213268
 20
49.959225
 30
0.0
 40
2.0
  1
101:1A
 50
90.0
  7
ROMANS
  0
LINE
  8
0
  6
CONTINUOUS
 62
   249
 10
202.5
 20
58.999996
 30
0.0
 11
202.5
 21
50.0
 31
0.0
  0
TEXT
  8
0
  6
CONTINUOUS
 62
   249
 10
160.53067
 20
71.781596
 30
0.0
 40
2.0
  1
108:X2:13
 50
90.0
  7
ROMANS
  0
LINE
  8
0
  6
CONTINUOUS
 62
   249
 10
75.0
 20
172.5
 30
0.0
 11
75.0
 21
235.0
 31
0.0
  0
LINE
  8
0
  6
CONTINUOUS
 62
   249
 10
75.0
 20
235.0
 30
0.0
 11
217.5
 21
235.0
 31
0.0
  0
LINE
  8
0
  6
CONTINUOUS
 62
   249
 10
217.5
 20
215.0
 30
0.0
 11
217.5
 21
235.0
 31
0.0
  0
LINE
  8
0
  6
CONTINUOUS
 62
   249
 10
207.950615
 20
215.0
 30
0.0
 11
217.5
 21
215.0
 31
0.0
  0
LINE
  8
0
  6
DASHED
 62
   249
 10
312.5
 20
122.689984
 30
0.0
 11
312.5
 21
127.5
 31
0.0
  0
LINE
  8
0
  6
DASHED
 62
   249
 10
312.5
 20
102.689984
 30
0.0
 11
312.5
 21
107.5
 31
0.0
  0
LINE
  8
0
  6
DASHED
 62
   249
 10
312.5
 20
107.5
 30
0.0
 11
292.5
 21
107.5
 31
0.0
  0
LINE
  8
0
  6
DASHED
 62
   249
 10
312.5
 20
127.5
 30
0.0
 11
307.5
 21
127.5
 31
0.0
  0
TEXT
  8
0
  6
CONTINUOUS
 62
   249
 10
134.575307
 20
39.147342
 30
0.0
 40
2.0
  1
-
  0
ARC
  8
0
  6
CONTINUOUS
 62
   249
 10
157.5
 20
70.0
 30
0.0
 40
0.5
 50
180.0
 51
0.0
  0
ARC
  8
0
  6
CONTINUOUS
 62
   249
 10
157.5
 20
70.0
 30
0.0
 40
0.5
 50
0.0
 51
180.0
  0
ARC
  8
0
  6
CONTINUOUS
 62
   249
 10
72.5
 20
217.5
 30
0.0
 40
0.5
 50
180.0
 51
0.0
  0
ARC
  8
0
  6
CONTINUOUS
 62
   249
 10
72.5
 20
217.5
 30
0.0
 40
0.5
 50
0.0
 51
180.0
  0
ARC
  8
0
  6
CONTINUOUS
 62
   249
 10
72.5
 20
232.5
 30
0.0
 40
0.5
 50
180.0
 51
0.0
  0
ARC
  8
0
  6
CONTINUOUS
 62
   249
 10
72.5
 20
232.5
 30
0.0
 40
0.5
 50
0.0
 51
180.0
  0
ARC
  8
0
  6
CONTINUOUS
 62
   249
 10
75.0
 20
187.5
 30
0.0
 40
0.5
 50
180.0
 51
0.0
  0
ARC
  8
0
  6
CONTINUOUS
 62
   249
 10
75.0
 20
187.5
 30
0.0
 40
0.5
 50
0.0
 51
180.0
  0
LINE
  8
0
  6
CONTINUOUS
 62
   249
 10
171.44017
 20
153.664649
 30
0.0
 11
169.094404
 21
155.000003
 31
0.0
  0
LINE
  8
0
  6
CONTINUOUS
 62
   249
 10
169.094404
 20
155.000003
 30
0.0
 11
171.44017
 21
156.189922
 31
0.0
  0
LINE
  8
0
  6
CONTINUOUS
 62
   249
 10
191.153325
 20
215.319824
 30
0.0
 11
192.759526
 21
214.405475
 31
0.0
  0
LINE
  8
0
  6
CONTINUOUS
 62
   249
 10
192.759526
 20
214.405475
 30
0.0
 11
191.153325
 21
213.59071
 31
0.0
  0
LINE
  8
0
  6
CONTINUOUS
 62
   249
 10
193.104574
 20
215.319824
 30
0.0
 11
194.710775
 21
214.405475
 31
0.0
  0
LINE
  8
0
  6
CONTINUOUS
 62
   249
 10
194.710775
 20
214.405475
 30
0.0
 11
193.104574
 21
213.59071
 31
0.0
  0
LINE
  8
0
  6
CONTINUOUS
 62
   249
 10
191.153325
 20
221.085369
 30
0.0
 11
192.759526
 21
220.17102
 31
0.0
  0
LINE
  8
0
  6
CONTINUOUS
 62
   249
 10
192.759526
 20
220.17102
 30
0.0
 11
191.153325
 21
219.356255
 31
0.0
  0
LINE
  8
0
  6
CONTINUOUS
 62
   249
 10
319.999997
 20
96.794996
 30
0.0
 11
319.999997
 21
94.149339
 31
0.0
  0
LINE
  8
0
  6
CONTINUOUS
 62
   249
 10
319.396302
 20
92.367785
 30
0.0
 11
320.603692
 21
92.367785
 31
0.0
  0
LINE
  8
0
  6
CONTINUOUS
 62
   249
 10
318.963805
 20
93.255299
 30
0.0
 11
321.02718
 21
93.255299
 31
0.0
  0
LINE
  8
0
  6
CONTINUOUS
 62
   249
 10
318.468234
 20
94.149339
 30
0.0
 11
321.53176
 21
94.149339
 31
0.0
  0
LINE
  8
0
 62
   249
 10
211.786248
 20
6.306997
 30
0.0
 11
213.547099
 21
8.067848
 31
0.0
  0
LINE
  8
0
 62
   249
 10
211.852879
 20
6.497372
 30
0.0
 11
213.547099
 21
8.191591
 31
0.0
  0
LINE
  8
0
 62
   249
 10
211.919511
 20
6.687747
 30
0.0
 11
213.547099
 21
8.315335
 31
0.0
  0
LINE
  8
0
 62
   249
 10
211.986142
 20
6.878122
 30
0.0
 11
213.547099
 21
8.439079
 31
0.0
  0
LINE
  8
0
 62
   249
 10
212.052773
 20
7.068497
 30
0.0
 11
213.547099
 21
8.562822
 31
0.0
  0
LINE
  8
0
 62
   249
 10
212.119404
 20
7.258871
 30
0.0
 11
213.547099
 21
8.686566
 31
0.0
  0
LINE
  8
0
 62
   249
 10
212.186036
 20
7.449246
 30
0.0
 11
213.474788
 21
8.737999
 31
0.0
  0
LINE
  8
0
 62
   249
 10
212.252667
 20
7.639621
 30
0.0
 11
213.351045
 21
8.737999
 31
0.0
  0
LINE
  8
0
 62
   249
 10
212.319298
 20
7.829996
 30
0.0
 11
213.227301
 21
8.737999
 31
0.0
  0
LINE
  8
0
 62
   249
 10
212.385929
 20
8.020371
 30
0.0
 11
213.103557
 21
8.737999
 31
0.0
  0
LINE
  8
0
 62
   249
 10
212.45256
 20
8.210746
 30
0.0
 11
212.979814
 21
8.737999
 31
0.0
  0
LINE
  8
0
 62
   249
 10
212.519192
 20
8.401121
 30
0.0
 11
212.85607
 21
8.737999
 31
0.0
  0
LINE
  8
0
 62
   249
 10
212.585823
 20
8.591496
 30
0.0
 11
212.732326
 21
8.737999
 31
0.0
  0
LINE
  8
0
 62
   249
 10
211.719617
 20
6.116622
 30
0.0
 11
213.547099
 21
7.944104
 31
0.0
  0
LINE
  8
0
 62
   249
 10
211.652986
 20
5.926247
 30
0.0
 11
213.547099
 21
7.82036
 31
0.0
  0
LINE
  8
0
 62
   249
 10
211.586355
 20
5.735872
 30
0.0
 11
213.547099
 21
7.696617
 31
0.0
  0
LINE
  8
0
 62
   249
 10
211.519723
 20
5.545497
 30
0.0
 11
213.547099
 21
7.572873
 31
0.0
  0
LINE
  8
0
 62
   249
 10
211.475969
 20
5.377999
 30
0.0
 11
213.547099
 21
7.449129
 31
0.0
  0
LINE
  8
0
 62
   249
 10
211.599713
 20
5.377999
 30
0.0
 11
213.547099
 21
7.325386
 31
0.0
  0
LINE
  8
0
 62
   249
 10
211.723456
 20
5.377999
 30
0.0
 11
213.547099
 21
7.201642
 31
0.0
  0
LINE
  8
0
 62
   249
 10
211.8472
 20
5.377999
 30
0.0
 11
213.547099
 21
7.077898
 31
0.0
  0
LINE
  8
0
 62
   249
 10
211.970944
 20
5.377999
 30
0.0
 11
213.547099
 21
6.954155
 31
0.0
  0
LINE
  8
0
 62
   249
 10
212.094687
 20
5.377999
 30
0.0
 11
213.547099
 21
6.830411
 31
0.0
  0
LINE
  8
0
 62
   249
 10
212.218431
 20
5.377999
 30
0.0
 11
213.547099
 21
6.706667
 31
0.0
  0
LINE
  8
0
 62
   249
 10
212.342175
 20
5.377999
 30
0.0
 11
213.547099
 21
6.582923
 31
0.0
  0
LINE
  8
0
 62
   249
 10
212.465919
 20
5.377999
 30
0.0
 11
213.547099
 21
6.45918
 31
0.0
  0
LINE
  8
0
 62
   249
 10
212.589662
 20
5.377999
 30
0.0
 11
213.547099
 21
6.335436
 31
0.0
  0
LINE
  8
0
 62
   249
 10
212.713406
 20
5.377999
 30
0.0
 11
213.547099
 21
6.211692
 31
0.0
  0
LINE
  8
0
 62
   249
 10
212.83715
 20
5.377999
 30
0.0
 11
213.547099
 21
6.087949
 31
0.0
  0
LINE
  8
0
 62
   249
 10
212.960893
 20
5.377999
 30
0.0
 11
213.547099
 21
5.964205
 31
0.0
  0
LINE
  8
0
 62
   249
 10
213.084637
 20
5.377999
 30
0.0
 11
213.547099
 21
5.840461
 31
0.0
  0
LINE
  8
0
 62
   249
 10
213.208381
 20
5.377999
 30
0.0
 11
213.547099
 21
5.716718
 31
0.0
  0
LINE
  8
0
 62
   249
 10
213.332124
 20
5.377999
 30
0.0
 11
213.547099
 21
5.592974
 31
0.0
  0
LINE
  8
0
 62
   249
 10
213.455868
 20
5.377999
 30
0.0
 11
213.547099
 21
5.46923
 31
0.0
  0
LINE
  8
0
 62
   249
 10
213.827099
 20
5.996718
 30
0.0
 11
215.211876
 21
7.381494
 31
0.0
  0
LINE
  8
0
 62
   249
 10
213.827099
 20
6.120461
 30
0.0
 11
215.179794
 21
7.473156
 31
0.0
  0
LINE
  8
0
 62
   249
 10
213.827099
 20
6.244205
 30
0.0
 11
215.147712
 21
7.564818
 31
0.0
  0
LINE
  8
0
 62
   249
 10
213.827099
 20
6.367949
 30
0.0
 11
215.115631
 21
7.65648
 31
0.0
  0
LINE
  8
0
 62
   249
 10
213.827099
 20
6.491692
 30
0.0
 11
215.083549
 21
7.748142
 31
0.0
  0
LINE
  8
0
 62
   249
 10
213.827099
 20
6.615436
 30
0.0
 11
215.051467
 21
7.839804
 31
0.0
  0
LINE
  8
0
 62
   249
 10
213.827099
 20
6.73918
 30
0.0
 11
215.019386
 21
7.931466
 31
0.0
  0
LINE
  8
0
 62
   249
 10
213.827099
 20
6.862923
 30
0.0
 11
214.987304
 21
8.023128
 31
0.0
  0
LINE
  8
0
 62
   249
 10
213.827099
 20
6.986667
 30
0.0
 11
214.955222
 21
8.11479
 31
0.0
  0
LINE
  8
0
 62
   249
 10
213.827099
 20
7.110411
 30
0.0
 11
214.923141
 21
8.206452
 31
0.0
  0
LINE
  8
0
 62
   249
 10
213.827099
 20
7.234155
 30
0.0
 11
214.891059
 21
8.298114
 31
0.0
  0
LINE
  8
0
 62
   249
 10
213.827099
 20
7.357898
 30
0.0
 11
214.858977
 21
8.389776
 31
0.0
  0
LINE
  8
0
 62
   249
 10
213.827099
 20
7.481642
 30
0.0
 11
214.826895
 21
8.481438
 31
0.0
  0
LINE
  8
0
 62
   249
 10
213.827099
 20
7.605386
 30
0.0
 11
214.794814
 21
8.5731
 31
0.0
  0
LINE
  8
0
 62
   249
 10
213.827099
 20
7.729129
 30
0.0
 11
214.762732
 21
8.664762
 31
0.0
  0
LINE
  8
0
 62
   249
 10
213.827099
 20
7.852873
 30
0.0
 11
214.712225
 21
8.737999
 31
0.0
  0
LINE
  8
0
 62
   249
 10
213.827099
 20
7.976617
 30
0.0
 11
214.588482
 21
8.737999
 31
0.0
  0
LINE
  8
0
 62
   249
 10
213.827099
 20
8.10036
 30
0.0
 11
214.464738
 21
8.737999
 31
0.0
  0
LINE
  8
0
 62
   249
 10
213.827099
 20
8.224104
 30
0.0
 11
214.340994
 21
8.737999
 31
0.0
  0
LINE
  8
0
 62
   249
 10
213.827099
 20
8.347848
 30
0.0
 11
214.217251
 21
8.737999
 31
0.0
  0
LINE
  8
0
 62
   249
 10
213.827099
 20
8.471591
 30
0.0
 11
214.093507
 21
8.737999
 31
0.0
  0
LINE
  8
0
 62
   249
 10
213.827099
 20
8.595335
 30
0.0
 11
213.969763
 21
8.737999
 31
0.0
  0
LINE
  8
0
 62
   249
 10
213.827099
 20
8.719079
 30
0.0
 11
213.84602
 21
8.737999
 31
0.0
  0
LINE
  8
0
 62
   249
 10
213.827099
 20
5.872974
 30
0.0
 11
215.243957
 21
7.289832
 31
0.0
  0
LINE
  8
0
 62
   249
 10
213.827099
 20
5.74923
 30
0.0
 11
215.276039
 21
7.19817
 31
0.0
  0
LINE
  8
0
 62
   249
 10
213.827099
 20
5.625487
 30
0.0
 11
215.308121
 21
7.106508
 31
0.0
  0
LINE
  8
0
 62
   249
 10
213.827099
 20
5.501743
 30
0.0
 11
215.340203
 21
7.014846
 31
0.0
  0
LINE
  8
0
 62
   249
 10
213.827099
 20
5.377999
 30
0.0
 11
215.372284
 21
6.923184
 31
0.0
  0
LINE
  8
0
 62
   249
 10
213.950843
 20
5.377999
 30
0.0
 11
215.404366
 21
6.831522
 31
0.0
  0
LINE
  8
0
 62
   249
 10
214.074586
 20
5.377999
 30
0.0
 11
215.436448
 21
6.73986
 31
0.0
  0
LINE
  8
0
 62
   249
 10
214.19833
 20
5.377999
 30
0.0
 11
215.468529
 21
6.648198
 31
0.0
  0
LINE
  8
0
 62
   249
 10
214.322074
 20
5.377999
 30
0.0
 11
215.500611
 21
6.556536
 31
0.0
  0
LINE
  8
0
 62
   249
 10
214.445818
 20
5.377999
 30
0.0
 11
215.532693
 21
6.464874
 31
0.0
  0
LINE
  8
0
 62
   249
 10
214.569561
 20
5.377999
 30
0.0
 11
215.564774
 21
6.373212
 31
0.0
  0
LINE
  8
0
 62
   249
 10
214.693305
 20
5.377999
 30
0.0
 11
215.596856
 21
6.281551
 31
0.0
  0
LINE
  8
0
 62
   249
 10
214.817049
 20
5.377999
 30
0.0
 11
215.628938
 21
6.189889
 31
0.0
  0
LINE
  8
0
 62
   249
 10
214.940792
 20
5.377999
 30
0.0
 11
215.66102
 21
6.098227
 31
0.0
  0
LINE
  8
0
 62
   249
 10
215.064536
 20
5.377999
 30
0.0
 11
215.693101
 21
6.006565
 31
0.0
  0
LINE
  8
0
 62
   249
 10
215.18828
 20
5.377999
 30
0.0
 11
215.725183
 21
5.914903
 31
0.0
  0
LINE
  8
0
 62
   249
 10
215.312023
 20
5.377999
 30
0.0
 11
215.757265
 21
5.823241
 31
0.0
  0
LINE
  8
0
 62
   249
 10
215.435767
 20
5.377999
 30
0.0
 11
215.789346
 21
5.731579
 31
0.0
  0
LINE
  8
0
 62
   249
 10
215.559511
 20
5.377999
 30
0.0
 11
215.821428
 21
5.639917
 31
0.0
  0
LINE
  8
0
 62
   249
 10
215.683254
 20
5.377999
 30
0.0
 11
215.85351
 21
5.548255
 31
0.0
  0
LINE
  8
0
 62
   249
 10
215.806998
 20
5.377999
 30
0.0
 11
215.885591
 21
5.456593
 31
0.0
  0
LINE
  8
0
 62
   249
 10
217.677099
 20
6.134407
 30
0.0
 11
219.637099
 21
8.094407
 31
0.0
  0
LINE
  8
0
 62
   249
 10
217.677099
 20
6.258151
 30
0.0
 11
219.637099
 21
8.218151
 31
0.0
  0
LINE
  8
0
 62
   249
 10
217.677099
 20
6.381894
 30
0.0
 11
219.637099
 21
8.341894
 31
0.0
  0
LINE
  8
0
 62
   249
 10
217.677099
 20
6.505638
 30
0.0
 11
219.637099
 21
8.465638
 31
0.0
  0
LINE
  8
0
 62
   249
 10
217.677099
 20
6.629382
 30
0.0
 11
219.637099
 21
8.589382
 31
0.0
  0
LINE
  8
0
 62
   249
 10
217.677099
 20
6.753126
 30
0.0
 11
219.637099
 21
8.713126
 31
0.0
  0
LINE
  8
0
 62
   249
 10
217.677099
 20
6.876869
 30
0.0
 11
219.538229
 21
8.737999
 31
0.0
  0
LINE
  8
0
 62
   249
 10
217.677099
 20
7.000613
 30
0.0
 11
219.414485
 21
8.737999
 31
0.0
  0
LINE
  8
0
 62
   249
 10
217.677099
 20
7.124357
 30
0.0
 11
219.290742
 21
8.737999
 31
0.0
  0
LINE
  8
0
 62
   249
 10
217.677099
 20
7.2481
 30
0.0
 11
219.166998
 21
8.737999
 31
0.0
  0
LINE
  8
0
 62
   249
 10
217.677099
 20
7.371844
 30
0.0
 11
219.043254
 21
8.737999
 31
0.0
  0
LINE
  8
0
 62
   249
 10
217.677099
 20
7.495588
 30
0.0
 11
218.919511
 21
8.737999
 31
0.0
  0
LINE
  8
0
 62
   249
 10
217.677099
 20
7.619331
 30
0.0
 11
218.795767
 21
8.737999
 31
0.0
  0
LINE
  8
0
 62
   249
 10
217.677099
 20
7.743075
 30
0.0
 11
218.672023
 21
8.737999
 31
0.0
  0
LINE
  8
0
 62
   249
 10
217.677099
 20
7.866819
 30
0.0
 11
218.54828
 21
8.737999
 31
0.0
  0
LINE
  8
0
 62
   249
 10
217.677099
 20
7.990562
 30
0.0
 11
218.424536
 21
8.737999
 31
0.0
  0
LINE
  8
0
 62
   249
 10
217.677099
 20
8.114306
 30
0.0
 11
218.300792
 21
8.737999
 31
0.0
  0
LINE
  8
0
 62
   249
 10
217.677099
 20
8.23805
 30
0.0
 11
218.177049
 21
8.737999
 31
0.0
  0
LINE
  8
0
 62
   249
 10
217.677099
 20
8.361793
 30
0.0
 11
218.053305
 21
8.737999
 31
0.0
  0
LINE
  8
0
 62
   249
 10
217.677099
 20
8.485537
 30
0.0
 11
217.929561
 21
8.737999
 31
0.0
  0
LINE
  8
0
 62
   249
 10
217.677099
 20
8.609281
 30
0.0
 11
217.805818
 21
8.737999
 31
0.0
  0
LINE
  8
0
 62
   249
 10
217.677099
 20
8.733025
 30
0.0
 11
217.682074
 21
8.737999
 31
0.0
  0
LINE
  8
0
 62
   249
 10
217.677099
 20
6.010663
 30
0.0
 11
219.637099
 21
7.970663
 31
0.0
  0
LINE
  8
0
 62
   249
 10
217.677099
 20
5.88692
 30
0.0
 11
219.637099
 21
7.84692
 31
0.0
  0
LINE
  8
0
 62
   249
 10
217.677099
 20
5.763176
 30
0.0
 11
219.637099
 21
7.723176
 31
0.0
  0
LINE
  8
0
 62
   249
 10
217.677099
 20
5.639432
 30
0.0
 11
219.637099
 21
7.599432
 31
0.0
  0
LINE
  8
0
 62
   249
 10
217.677099
 20
5.515689
 30
0.0
 11
219.637099
 21
7.475689
 31
0.0
  0
LINE
  8
0
 62
   249
 10
217.677099
 20
5.391945
 30
0.0
 11
219.637099
 21
7.351945
 31
0.0
  0
LINE
  8
0
 62
   249
 10
217.786897
 20
5.377999
 30
0.0
 11
219.637099
 21
7.228201
 31
0.0
  0
LINE
  8
0
 62
   249
 10
217.910641
 20
5.377999
 30
0.0
 11
219.637099
 21
7.104458
 31
0.0
  0
LINE
  8
0
 62
   249
 10
218.034384
 20
5.377999
 30
0.0
 11
219.637099
 21
6.980714
 31
0.0
  0
LINE
  8
0
 62
   249
 10
218.158128
 20
5.377999
 30
0.0
 11
219.637099
 21
6.85697
 31
0.0
  0
LINE
  8
0
 62
   249
 10
218.281872
 20
5.377999
 30
0.0
 11
219.637099
 21
6.733227
 31
0.0
  0
LINE
  8
0
 62
   249
 10
218.405615
 20
5.377999
 30
0.0
 11
219.637099
 21
6.609483
 31
0.0
  0
LINE
  8
0
 62
   249
 10
218.529359
 20
5.377999
 30
0.0
 11
219.637099
 21
6.485739
 31
0.0
  0
LINE
  8
0
 62
   249
 10
218.653103
 20
5.377999
 30
0.0
 11
219.637099
 21
6.361995
 31
0.0
  0
LINE
  8
0
 62
   249
 10
218.776847
 20
5.377999
 30
0.0
 11
219.637099
 21
6.238252
 31
0.0
  0
LINE
  8
0
 62
   249
 10
218.90059
 20
5.377999
 30
0.0
 11
219.637099
 21
6.114508
 31
0.0
  0
LINE
  8
0
 62
   249
 10
219.024334
 20
5.377999
 30
0.0
 11
219.637099
 21
5.990764
 31
0.0
  0
LINE
  8
0
 62
   249
 10
219.148078
 20
5.377999
 30
0.0
 11
219.637099
 21
5.867021
 31
0.0
  0
LINE
  8
0
 62
   249
 10
219.271821
 20
5.377999
 30
0.0
 11
219.637099
 21
5.743277
 31
0.0
  0
LINE
  8
0
 62
   249
 10
219.395565
 20
5.377999
 30
0.0
 11
219.637099
 21
5.619533
 31
0.0
  0
LINE
  8
0
 62
   249
 10
219.519309
 20
5.377999
 30
0.0
 11
219.637099
 21
5.49579
 31
0.0
  0
LINE
  8
0
 62
   249
 10
219.917099
 20
6.147021
 30
0.0
 11
221.795195
 21
8.025117
 31
0.0
  0
LINE
  8
0
 62
   249
 10
219.917099
 20
6.270764
 30
0.0
 11
221.744451
 21
8.098116
 31
0.0
  0
LINE
  8
0
 62
   249
 10
219.917099
 20
6.394508
 30
0.0
 11
221.690148
 21
8.167557
 31
0.0
  0
LINE
  8
0
 62
   249
 10
219.917099
 20
6.518252
 30
0.0
 11
221.63236
 21
8.233512
 31
0.0
  0
LINE
  8
0
 62
   249
 10
219.917099
 20
6.641995
 30
0.0
 11
221.571123
 21
8.29602
 31
0.0
  0
LINE
  8
0
 62
   249
 10
219.917099
 20
6.765739
 30
0.0
 11
221.506446
 21
8.355086
 31
0.0
  0
LINE
  8
0
 62
   249
 10
219.917099
 20
6.889483
 30
0.0
 11
221.4383
 21
8.410684
 31
0.0
  0
LINE
  8
0
 62
   249
 10
219.917099
 20
7.013227
 30
0.0
 11
221.366627
 21
8.462755
 31
0.0
  0
LINE
  8
0
 62
   249
 10
219.917099
 20
7.13697
 30
0.0
 11
221.291331
 21
8.511202
 31
0.0
  0
LINE
  8
0
 62
   249
 10
219.917099
 20
7.260714
 30
0.0
 11
221.212274
 21
8.555889
 31
0.0
  0
LINE
  8
0
 62
   249
 10
219.917099
 20
7.384458
 30
0.0
 11
221.129271
 21
8.59663
 31
0.0
  0
LINE
  8
0
 62
   249
 10
219.917099
 20
7.508201
 30
0.0
 11
221.042076
 21
8.633178
 31
0.0
  0
LINE
  8
0
 62
   249
 10
219.917099
 20
7.631945
 30
0.0
 11
220.950366
 21
8.665212
 31
0.0
  0
LINE
  8
0
 62
   249
 10
219.917099
 20
7.755689
 30
0.0
 11
220.853718
 21
8.692307
 31
0.0
  0
LINE
  8
0
 62
   249
 10
219.917099
 20
7.879432
 30
0.0
 11
220.751567
 21
8.7139
 31
0.0
  0
LINE
  8
0
 62
   249
 10
219.917099
 20
8.003176
 30
0.0
 11
220.643145
 21
8.729222
 31
0.0
  0
LINE
  8
0
 62
   249
 10
219.917099
 20
8.12692
 30
0.0
 11
220.527376
 21
8.737197
 31
0.0
  0
LINE
  8
0
 62
   249
 10
219.917099
 20
8.250663
 30
0.0
 11
220.404434
 21
8.737999
 31
0.0
  0
LINE
  8
0
 62
   249
 10
219.917099
 20
8.374407
 30
0.0
 11
220.280691
 21
8.737999
 31
0.0
  0
LINE
  8
0
 62
   249
 10
219.917099
 20
8.498151
 30
0.0
 11
220.156947
 21
8.737999
 31
0.0
  0
LINE
  8
0
 62
   249
 10
219.917099
 20
8.621894
 30
0.0
 11
220.033204
 21
8.737999
 31
0.0
  0
LINE
  8
0
 62
   249
 10
219.917099
 20
6.023277
 30
0.0
 11
221.842271
 21
7.948449
 31
0.0
  0
LINE
  8
0
 62
   249
 10
219.917099
 20
5.899533
 30
0.0
 11
221.885523
 21
7.867958
 31
0.0
  0
LINE
  8
0
 62
   249
 10
219.917099
 20
5.77579
 30
0.0
 11
221.924746
 21
7.783437
 31
0.0
  0
LINE
  8
0
 62
   249
 10
219.917099
 20
5.652046
 30
0.0
 11
221.959668
 21
7.694615
 31
0.0
  0
LINE
  8
0
 62
   249
 10
219.917099
 20
5.528302
 30
0.0
 11
221.989932
 21
7.601135
 31
0.0
  0
LINE
  8
0
 62
   249
 10
219.917099
 20
5.404559
 30
0.0
 11
222.015067
 21
7.502527
 31
0.0
  0
LINE
  8
0
 62
   249
 10
220.014283
 20
5.377999
 30
0.0
 11
222.034444
 21
7.39816
 31
0.0
  0
LINE
  8
0
 62
   249
 10
220.138027
 20
5.377999
 30
0.0
 11
222.047197
 21
7.287169
 31
0.0
  0
LINE
  8
0
 62
   249
 10
220.261771
 20
5.377999
 30
0.0
 11
222.05209
 21
7.168319
 31
0.0
  0
LINE
  8
0
 62
   249
 10
220.385514
 20
5.377999
 30
0.0
 11
222.04727
 21
7.039754
 31
0.0
  0
LINE
  8
0
 62
   249
 10
220.509258
 20
5.377999
 30
0.0
 11
222.029725
 21
6.898466
 31
0.0
  0
LINE
  8
0
 62
   249
 10
220.633002
 20
5.377999
 30
0.0
 11
221.993936
 21
6.738933
 31
0.0
  0
LINE
  8
0
 62
   249
 10
220.756746
 20
5.377999
 30
0.0
 11
221.927299
 21
6.548553
 31
0.0
  0
LINE
  8
0
 62
   249
 10
220.880489
 20
5.377999
 30
0.0
 11
221.280665
 21
5.778175
 31
0.0
  0
LINE
  8
0
 62
   249
 10
221.36381
 20
5.86132
 30
0.0
 11
221.778778
 21
6.276288
 31
0.0
  0
LINE
  8
0
 62
   249
 10
221.004233
 20
5.377999
 30
0.0
 11
221.366562
 21
5.740328
 31
0.0
  0
LINE
  8
0
 62
   249
 10
221.127977
 20
5.377999
 30
0.0
 11
221.449353
 21
5.699376
 31
0.0
  0
LINE
  8
0
 62
   249
 10
221.25172
 20
5.377999
 30
0.0
 11
221.529174
 21
5.655453
 31
0.0
  0
LINE
  8
0
 62
   249
 10
221.375464
 20
5.377999
 30
0.0
 11
221.606135
 21
5.608671
 31
0.0
  0
LINE
  8
0
 62
   249
 10
221.499208
 20
5.377999
 30
0.0
 11
221.680325
 21
5.559117
 31
0.0
  0
LINE
  8
0
 62
   249
 10
221.622951
 20
5.377999
 30
0.0
 11
221.751814
 21
5.506862
 31
0.0
  0
LINE
  8
0
 62
   249
 10
221.746695
 20
5.377999
 30
0.0
 11
221.820653
 21
5.451958
 31
0.0
  0
LINE
  8
0
 62
   249
 10
221.870439
 20
5.377999
 30
0.0
 11
221.886881
 21
5.394442
 31
0.0
  0
LINE
  8
0
 62
   249
 10
225.377099
 20
6.147021
 30
0.0
 11
227.255195
 21
8.025117
 31
0.0
  0
LINE
  8
0
 62
   249
 10
225.377099
 20
6.270764
 30
0.0
 11
227.204451
 21
8.098116
 31
0.0
  0
LINE
  8
0
 62
   249
 10
225.377099
 20
6.394508
 30
0.0
 11
227.150148
 21
8.167557
 31
0.0
  0
LINE
  8
0
 62
   249
 10
225.377099
 20
6.518252
 30
0.0
 11
227.09236
 21
8.233512
 31
0.0
  0
LINE
  8
0
 62
   249
 10
225.377099
 20
6.641995
 30
0.0
 11
227.031123
 21
8.29602
 31
0.0
  0
LINE
  8
0
 62
   249
 10
225.377099
 20
6.765739
 30
0.0
 11
226.966446
 21
8.355086
 31
0.0
  0
LINE
  8
0
 62
   249
 10
225.377099
 20
6.889483
 30
0.0
 11
226.8983
 21
8.410684
 31
0.0
  0
LINE
  8
0
 62
   249
 10
225.377099
 20
7.013227
 30
0.0
 11
226.826627
 21
8.462755
 31
0.0
  0
LINE
  8
0
 62
   249
 10
225.377099
 20
7.13697
 30
0.0
 11
226.751331
 21
8.511202
 31
0.0
  0
LINE
  8
0
 62
   249
 10
225.377099
 20
7.260714
 30
0.0
 11
226.672274
 21
8.555889
 31
0.0
  0
LINE
  8
0
 62
   249
 10
225.377099
 20
7.384458
 30
0.0
 11
226.589271
 21
8.59663
 31
0.0
  0
LINE
  8
0
 62
   249
 10
225.377099
 20
7.508201
 30
0.0
 11
226.502076
 21
8.633178
 31
0.0
  0
LINE
  8
0
 62
   249
 10
225.377099
 20
7.631945
 30
0.0
 11
226.410366
 21
8.665212
 31
0.0
  0
LINE
  8
0
 62
   249
 10
225.377099
 20
7.755689
 30
0.0
 11
226.313718
 21
8.692307
 31
0.0
  0
LINE
  8
0
 62
   249
 10
225.377099
 20
7.879432
 30
0.0
 11
226.211567
 21
8.7139
 31
0.0
  0
LINE
  8
0
 62
   249
 10
225.377099
 20
8.003176
 30
0.0
 11
226.103145
 21
8.729222
 31
0.0
  0
LINE
  8
0
 62
   249
 10
225.377099
 20
8.12692
 30
0.0
 11
225.987376
 21
8.737197
 31
0.0
  0
LINE
  8
0
 62
   249
 10
225.377099
 20
8.250663
 30
0.0
 11
225.864434
 21
8.737999
 31
0.0
  0
LINE
  8
0
 62
   249
 10
225.377099
 20
8.374407
 30
0.0
 11
225.740691
 21
8.737999
 31
0.0
  0
LINE
  8
0
 62
   249
 10
225.377099
 20
8.498151
 30
0.0
 11
225.616947
 21
8.737999
 31
0.0
  0
LINE
  8
0
 62
   249
 10
225.377099
 20
8.621894
 30
0.0
 11
225.493204
 21
8.737999
 31
0.0
  0
LINE
  8
0
 62
   249
 10
225.377099
 20
6.023277
 30
0.0
 11
227.302271
 21
7.948449
 31
0.0
  0
LINE
  8
0
 62
   249
 10
225.377099
 20
5.899533
 30
0.0
 11
227.345523
 21
7.867958
 31
0.0
  0
LINE
  8
0
 62
   249
 10
225.377099
 20
5.77579
 30
0.0
 11
227.384746
 21
7.783437
 31
0.0
  0
LINE
  8
0
 62
   249
 10
225.377099
 20
5.652046
 30
0.0
 11
227.419668
 21
7.694615
 31
0.0
  0
LINE
  8
0
 62
   249
 10
225.377099
 20
5.528302
 30
0.0
 11
227.449932
 21
7.601135
 31
0.0
  0
LINE
  8
0
 62
   249
 10
225.377099
 20
5.404559
 30
0.0
 11
227.475067
 21
7.502527
 31
0.0
  0
LINE
  8
0
 62
   249
 10
225.474283
 20
5.377999
 30
0.0
 11
227.494444
 21
7.39816
 31
0.0
  0
LINE
  8
0
 62
   249
 10
225.598027
 20
5.377999
 30
0.0
 11
227.507197
 21
7.287169
 31
0.0
  0
LINE
  8
0
 62
   249
 10
225.721771
 20
5.377999
 30
0.0
 11
227.51209
 21
7.168319
 31
0.0
  0
LINE
  8
0
 62
   249
 10
225.845514
 20
5.377999
 30
0.0
 11
227.50727
 21
7.039754
 31
0.0
  0
LINE
  8
0
 62
   249
 10
225.969258
 20
5.377999
 30
0.0
 11
227.489725
 21
6.898466
 31
0.0
  0
LINE
  8
0
 62
   249
 10
226.093002
 20
5.377999
 30
0.0
 11
227.453936
 21
6.738933
 31
0.0
  0
LINE
  8
0
 62
   249
 10
226.216746
 20
5.377999
 30
0.0
 11
227.387299
 21
6.548553
 31
0.0
  0
LINE
  8
0
 62
   249
 10
226.340489
 20
5.377999
 30
0.0
 11
226.740665
 21
5.778175
 31
0.0
  0
LINE
  8
0
 62
   249
 10
226.82381
 20
5.86132
 30
0.0
 11
227.238778
 21
6.276288
 31
0.0
  0
LINE
  8
0
 62
   249
 10
226.464233
 20
5.377999
 30
0.0
 11
226.826562
 21
5.740328
 31
0.0
  0
LINE
  8
0
 62
   249
 10
226.587977
 20
5.377999
 30
0.0
 11
226.909353
 21
5.699376
 31
0.0
  0
LINE
  8
0
 62
   249
 10
226.71172
 20
5.377999
 30
0.0
 11
226.989174
 21
5.655453
 31
0.0
  0
LINE
  8
0
 62
   249
 10
226.835464
 20
5.377999
 30
0.0
 11
227.066135
 21
5.608671
 31
0.0
  0
LINE
  8
0
 62
   249
 10
226.959208
 20
5.377999
 30
0.0
 11
227.140325
 21
5.559117
 31
0.0
  0
LINE
  8
0
 62
   249
 10
227.082951
 20
5.377999
 30
0.0
 11
227.211814
 21
5.506862
 31
0.0
  0
LINE
  8
0
 62
   249
 10
227.206695
 20
5.377999
 30
0.0
 11
227.280653
 21
5.451958
 31
0.0
  0
LINE
  8
0
 62
   249
 10
227.330439
 20
5.377999
 30
0.0
 11
227.346881
 21
5.394442
 31
0.0
  0
LINE
  8
0
 62
   249
 10
223.137099
 20
6.134407
 30
0.0
 11
225.097099
 21
8.094407
 31
0.0
  0
LINE
  8
0
 62
   249
 10
223.137099
 20
6.258151
 30
0.0
 11
225.097099
 21
8.218151
 31
0.0
  0
LINE
  8
0
 62
   249
 10
223.137099
 20
6.381894
 30
0.0
 11
225.097099
 21
8.341894
 31
0.0
  0
LINE
  8
0
 62
   249
 10
223.137099
 20
6.505638
 30
0.0
 11
225.097099
 21
8.465638
 31
0.0
  0
LINE
  8
0
 62
   249
 10
223.137099
 20
6.629382
 30
0.0
 11
225.097099
 21
8.589382
 31
0.0
  0
LINE
  8
0
 62
   249
 10
223.137099
 20
6.753126
 30
0.0
 11
225.097099
 21
8.713126
 31
0.0
  0
LINE
  8
0
 62
   249
 10
223.137099
 20
6.876869
 30
0.0
 11
224.998229
 21
8.737999
 31
0.0
  0
LINE
  8
0
 62
   249
 10
223.137099
 20
7.000613
 30
0.0
 11
224.874485
 21
8.737999
 31
0.0
  0
LINE
  8
0
 62
   249
 10
223.137099
 20
7.124357
 30
0.0
 11
224.750742
 21
8.737999
 31
0.0
  0
LINE
  8
0
 62
   249
 10
223.137099
 20
7.2481
 30
0.0
 11
224.626998
 21
8.737999
 31
0.0
  0
LINE
  8
0
 62
   249
 10
223.137099
 20
7.371844
 30
0.0
 11
224.503254
 21
8.737999
 31
0.0
  0
LINE
  8
0
 62
   249
 10
223.137099
 20
7.495588
 30
0.0
 11
224.379511
 21
8.737999
 31
0.0
  0
LINE
  8
0
 62
   249
 10
223.137099
 20
7.619331
 30
0.0
 11
224.255767
 21
8.737999
 31
0.0
  0
LINE
  8
0
 62
   249
 10
223.137099
 20
7.743075
 30
0.0
 11
224.132023
 21
8.737999
 31
0.0
  0
LINE
  8
0
 62
   249
 10
223.137099
 20
7.866819
 30
0.0
 11
224.00828
 21
8.737999
 31
0.0
  0
LINE
  8
0
 62
   249
 10
223.137099
 20
7.990562
 30
0.0
 11
223.884536
 21
8.737999
 31
0.0
  0
LINE
  8
0
 62
   249
 10
223.137099
 20
8.114306
 30
0.0
 11
223.760792
 21
8.737999
 31
0.0
  0
LINE
  8
0
 62
   249
 10
223.137099
 20
8.23805
 30
0.0
 11
223.637049
 21
8.737999
 31
0.0
  0
LINE
  8
0
 62
   249
 10
223.137099
 20
8.361793
 30
0.0
 11
223.513305
 21
8.737999
 31
0.0
  0
LINE
  8
0
 62
   249
 10
223.137099
 20
8.485537
 30
0.0
 11
223.389561
 21
8.737999
 31
0.0
  0
LINE
  8
0
 62
   249
 10
223.137099
 20
8.609281
 30
0.0
 11
223.265818
 21
8.737999
 31
0.0
  0
LINE
  8
0
 62
   249
 10
223.137099
 20
8.733025
 30
0.0
 11
223.142074
 21
8.737999
 31
0.0
  0
LINE
  8
0
 62
   249
 10
223.137099
 20
6.010663
 30
0.0
 11
225.097099
 21
7.970663
 31
0.0
  0
LINE
  8
0
 62
   249
 10
223.137099
 20
5.88692
 30
0.0
 11
225.097099
 21
7.84692
 31
0.0
  0
LINE
  8
0
 62
   249
 10
223.137099
 20
5.763176
 30
0.0
 11
225.097099
 21
7.723176
 31
0.0
  0
LINE
  8
0
 62
   249
 10
223.137099
 20
5.639432
 30
0.0
 11
225.097099
 21
7.599432
 31
0.0
  0
LINE
  8
0
 62
   249
 10
223.137099
 20
5.515689
 30
0.0
 11
225.097099
 21
7.475689
 31
0.0
  0
LINE
  8
0
 62
   249
 10
223.137099
 20
5.391945
 30
0.0
 11
225.097099
 21
7.351945
 31
0.0
  0
LINE
  8
0
 62
   249
 10
223.246897
 20
5.377999
 30
0.0
 11
225.097099
 21
7.228201
 31
0.0
  0
LINE
  8
0
 62
   249
 10
223.370641
 20
5.377999
 30
0.0
 11
225.097099
 21
7.104458
 31
0.0
  0
LINE
  8
0
 62
   249
 10
223.494384
 20
5.377999
 30
0.0
 11
225.097099
 21
6.980714
 31
0.0
  0
LINE
  8
0
 62
   249
 10
223.618128
 20
5.377999
 30
0.0
 11
225.097099
 21
6.85697
 31
0.0
  0
LINE
  8
0
 62
   249
 10
223.741872
 20
5.377999
 30
0.0
 11
225.097099
 21
6.733227
 31
0.0
  0
LINE
  8
0
 62
   249
 10
223.865615
 20
5.377999
 30
0.0
 11
225.097099
 21
6.609483
 31
0.0
  0
LINE
  8
0
 62
   249
 10
223.989359
 20
5.377999
 30
0.0
 11
225.097099
 21
6.485739
 31
0.0
  0
LINE
  8
0
 62
   249
 10
224.113103
 20
5.377999
 30
0.0
 11
225.097099
 21
6.361995
 31
0.0
  0
LINE
  8
0
 62
   249
 10
224.236847
 20
5.377999
 30
0.0
 11
225.097099
 21
6.238252
 31
0.0
  0
LINE
  8
0
 62
   249
 10
224.36059
 20
5.377999
 30
0.0
 11
225.097099
 21
6.114508
 31
0.0
  0
LINE
  8
0
 62
   249
 10
224.484334
 20
5.377999
 30
0.0
 11
225.097099
 21
5.990764
 31
0.0
  0
LINE
  8
0
 62
   249
 10
224.608078
 20
5.377999
 30
0.0
 11
225.097099
 21
5.867021
 31
0.0
  0
LINE
  8
0
 62
   249
 10
224.731821
 20
5.377999
 30
0.0
 11
225.097099
 21
5.743277
 31
0.0
  0
LINE
  8
0
 62
   249
 10
224.855565
 20
5.377999
 30
0.0
 11
225.097099
 21
5.619533
 31
0.0
  0
LINE
  8
0
 62
   249
 10
224.979309
 20
5.377999
 30
0.0
 11
225.097099
 21
5.49579
 31
0.0
  0
LINE
  8
0
 62
   249
 10
225.377099
 20
2.310966
 30
0.0
 11
227.824614
 21
4.758481
 31
0.0
  0
LINE
  8
0
 62
   249
 10
225.377099
 20
2.43471
 30
0.0
 11
227.782547
 21
4.840158
 31
0.0
  0
LINE
  8
0
 62
   249
 10
225.377099
 20
2.558454
 30
0.0
 11
227.737553
 21
4.918908
 31
0.0
  0
LINE
  8
0
 62
   249
 10
225.377099
 20
2.682197
 30
0.0
 11
227.689735
 21
4.994834
 31
0.0
  0
LINE
  8
0
 62
   249
 10
225.377099
 20
2.805941
 30
0.0
 11
227.639174
 21
5.068016
 31
0.0
  0
LINE
  8
0
 62
   249
 10
225.377099
 20
2.929685
 30
0.0
 11
227.545413
 21
5.097999
 31
0.0
  0
LINE
  8
0
 62
   249
 10
225.377099
 20
3.053429
 30
0.0
 11
227.42167
 21
5.097999
 31
0.0
  0
LINE
  8
0
 62
   249
 10
225.377099
 20
3.177172
 30
0.0
 11
227.297926
 21
5.097999
 31
0.0
  0
LINE
  8
0
 62
   249
 10
225.377099
 20
3.300916
 30
0.0
 11
227.174182
 21
5.097999
 31
0.0
  0
LINE
  8
0
 62
   249
 10
225.377099
 20
3.42466
 30
0.0
 11
227.050439
 21
5.097999
 31
0.0
  0
LINE
  8
0
 62
   249
 10
225.377099
 20
3.548403
 30
0.0
 11
226.926695
 21
5.097999
 31
0.0
  0
LINE
  8
0
 62
   249
 10
225.377099
 20
3.672147
 30
0.0
 11
226.802951
 21
5.097999
 31
0.0
  0
LINE
  8
0
 62
   249
 10
225.377099
 20
3.795891
 30
0.0
 11
226.679208
 21
5.097999
 31
0.0
  0
LINE
  8
0
 62
   249
 10
225.377099
 20
3.919634
 30
0.0
 11
226.555464
 21
5.097999
 31
0.0
  0
LINE
  8
0
 62
   249
 10
225.377099
 20
4.043378
 30
0.0
 11
226.43172
 21
5.097999
 31
0.0
  0
LINE
  8
0
 62
   249
 10
225.377099
 20
4.167122
 30
0.0
 11
226.307977
 21
5.097999
 31
0.0
  0
LINE
  8
0
 62
   249
 10
225.377099
 20
4.290865
 30
0.0
 11
226.184233
 21
5.097999
 31
0.0
  0
LINE
  8
0
 62
   249
 10
225.377099
 20
4.414609
 30
0.0
 11
226.060489
 21
5.097999
 31
0.0
  0
LINE
  8
0
 62
   249
 10
225.377099
 20
4.538353
 30
0.0
 11
225.936746
 21
5.097999
 31
0.0
  0
LINE
  8
0
 62
   249
 10
225.377099
 20
4.662096
 30
0.0
 11
225.813002
 21
5.097999
 31
0.0
  0
LINE
  8
0
 62
   249
 10
225.377099
 20
4.78584
 30
0.0
 11
225.689258
 21
5.097999
 31
0.0
  0
LINE
  8
0
 62
   249
 10
225.377099
 20
4.909584
 30
0.0
 11
225.565514
 21
5.097999
 31
0.0
  0
LINE
  8
0
 62
   249
 10
225.377099
 20
5.033328
 30
0.0
 11
225.441771
 21
5.097999
 31
0.0
  0
LINE
  8
0
 62
   249
 10
225.377099
 20
2.187223
 30
0.0
 11
227.863629
 21
4.673752
 31
0.0
  0
LINE
  8
0
 62
   249
 10
225.377099
 20
2.063479
 30
0.0
 11
227.899437
 21
4.585817
 31
0.0
  0
LINE
  8
0
 62
   249
 10
225.377099
 20
1.939735
 30
0.0
 11
227.931849
 21
4.494485
 31
0.0
  0
LINE
  8
0
 62
   249
 10
225.377099
 20
1.815992
 30
0.0
 11
227.960633
 21
4.399525
 31
0.0
  0
LINE
  8
0
 62
   249
 10
225.42285
 20
1.737999
 30
0.0
 11
227.985502
 21
4.300651
 31
0.0
  0
LINE
  8
0
 62
   249
 10
225.546594
 20
1.738
 30
0.0
 11
228.006098
 21
4.197503
 31
0.0
  0
LINE
  8
0
 62
   249
 10
225.670338
 20
1.738
 30
0.0
 11
228.021969
 21
4.08963
 31
0.0
  0
LINE
  8
0
 62
   249
 10
225.794082
 20
1.738
 30
0.0
 11
228.03253
 21
3.976448
 31
0.0
  0
LINE
  8
0
 62
   249
 10
225.917826
 20
1.738
 30
0.0
 11
228.037011
 21
3.857186
 31
0.0
  0
LINE
  8
0
 62
   249
 10
226.044307
 20
1.740738
 30
0.0
 11
228.034361
 21
3.730791
 31
0.0
  0
LINE
  8
0
 62
   249
 10
226.17933
 20
1.752016
 30
0.0
 11
228.023082
 21
3.595769
 31
0.0
  0
LINE
  8
0
 62
   249
 10
226.325237
 20
1.77418
 30
0.0
 11
228.000918
 21
3.449861
 31
0.0
  0
LINE
  8
0
 62
   249
 10
226.485733
 20
1.810932
 30
0.0
 11
227.964166
 21
3.289366
 31
0.0
  0
LINE
  8
0
 62
   249
 10
226.667749
 20
1.869205
 30
0.0
 11
227.905893
 21
3.107349
 31
0.0
  0
LINE
  8
0
 62
   249
 10
226.887822
 20
1.965534
 30
0.0
 11
227.809564
 21
2.887276
 31
0.0
  0
LINE
  8
0
 62
   249
 10
227.22645
 20
2.180419
 30
0.0
 11
227.59468
 21
2.548648
 31
0.0
  0
LINE
  8
0
 62
   249
 10
210.187099
 20
1.737999
 30
0.0
 11
213.547099
 21
5.097999
 31
0.0
  0
LINE
  8
0
 62
   249
 10
210.25373
 20
1.928374
 30
0.0
 11
213.423355
 21
5.097999
 31
0.0
  0
LINE
  8
0
 62
   249
 10
210.320362
 20
2.118749
 30
0.0
 11
213.299612
 21
5.097999
 31
0.0
  0
LINE
  8
0
 62
   249
 10
210.386993
 20
2.309124
 30
0.0
 11
213.175868
 21
5.097999
 31
0.0
  0
LINE
  8
0
 62
   249
 10
210.453624
 20
2.499499
 30
0.0
 11
213.052124
 21
5.097999
 31
0.0
  0
LINE
  8
0
 62
   249
 10
210.520255
 20
2.689874
 30
0.0
 11
212.928381
 21
5.097999
 31
0.0
  0
LINE
  8
0
 62
   249
 10
210.586886
 20
2.880249
 30
0.0
 11
212.804637
 21
5.097999
 31
0.0
  0
LINE
  8
0
 62
   249
 10
210.653518
 20
3.070624
 30
0.0
 11
212.680893
 21
5.097999
 31
0.0
  0
LINE
  8
0
 62
   249
 10
210.720149
 20
3.260998
 30
0.0
 11
212.55715
 21
5.097999
 31
0.0
  0
LINE
  8
0
 62
   249
 10
210.78678
 20
3.451373
 30
0.0
 11
212.433406
 21
5.097999
 31
0.0
  0
LINE
  8
0
 62
   249
 10
210.853411
 20
3.641748
 30
0.0
 11
212.309662
 21
5.097999
 31
0.0
  0
LINE
  8
0
 62
   249
 10
210.920042
 20
3.832123
 30
0.0
 11
212.185919
 21
5.097999
 31
0.0
  0
LINE
  8
0
 62
   249
 10
210.986674
 20
4.022498
 30
0.0
 11
212.062175
 21
5.097999
 31
0.0
  0
LINE
  8
0
 62
   249
 10
211.053305
 20
4.212873
 30
0.0
 11
211.938431
 21
5.097999
 31
0.0
  0
LINE
  8
0
 62
   249
 10
211.119936
 20
4.403248
 30
0.0
 11
211.814687
 21
5.097999
 31
0.0
  0
LINE
  8
0
 62
   249
 10
211.186567
 20
4.593623
 30
0.0
 11
211.690944
 21
5.097999
 31
0.0
  0
LINE
  8
0
 62
   249
 10
211.253199
 20
4.783998
 30
0.0
 11
211.5672
 21
5.097999
 31
0.0
  0
LINE
  8
0
 62
   249
 10
211.31983
 20
4.974373
 30
0.0
 11
211.443456
 21
5.097999
 31
0.0
  0
LINE
  8
0
 62
   249
 10
210.310843
 20
1.737999
 30
0.0
 11
213.547099
 21
4.974256
 31
0.0
  0
LINE
  8
0
 62
   249
 10
210.434586
 20
1.737999
 30
0.0
 11
213.547099
 21
4.850512
 31
0.0
  0
LINE
  8
0
 62
   249
 10
210.55833
 20
1.737999
 30
0.0
 11
213.547099
 21
4.726768
 31
0.0
  0
LINE
  8
0
 62
   249
 10
210.682074
 20
1.737999
 30
0.0
 11
213.547099
 21
4.603025
 31
0.0
  0
LINE
  8
0
 62
   249
 10
210.805818
 20
1.737999
 30
0.0
 11
213.547099
 21
4.479281
 31
0.0
  0
LINE
  8
0
 62
   249
 10
210.929561
 20
1.737999
 30
0.0
 11
213.547099
 21
4.355537
 31
0.0
  0
LINE
  8
0
 62
   249
 10
211.053305
 20
1.737999
 30
0.0
 11
212.412988
 21
3.097683
 31
0.0
  0
LINE
  8
0
 62
   249
 10
212.453305
 20
3.137999
 30
0.0
 11
213.547099
 21
4.231793
 31
0.0
  0
LINE
  8
0
 62
   249
 10
211.177049
 20
1.737999
 30
0.0
 11
212.346357
 21
2.907308
 31
0.0
  0
LINE
  8
0
 62
   249
 10
212.577049
 20
3.137999
 30
0.0
 11
213.547099
 21
4.10805
 31
0.0
  0
LINE
  8
0
 62
   249
 10
211.300792
 20
1.737999
 30
0.0
 11
212.279726
 21
2.716933
 31
0.0
  0
LINE
  8
0
 62
   249
 10
212.700792
 20
3.137999
 30
0.0
 11
213.547099
 21
3.984306
 31
0.0
  0
LINE
  8
0
 62
   249
 10
211.424536
 20
1.737999
 30
0.0
 11
212.213095
 21
2.526558
 31
0.0
  0
LINE
  8
0
 62
   249
 10
212.824536
 20
3.137999
 30
0.0
 11
213.547099
 21
3.860562
 31
0.0
  0
LINE
  8
0
 62
   249
 10
211.54828
 20
1.737999
 30
0.0
 11
212.146463
 21
2.336183
 31
0.0
  0
LINE
  8
0
 62
   249
 10
212.94828
 20
3.137999
 30
0.0
 11
213.547099
 21
3.736819
 31
0.0
  0
LINE
  8
0
 62
   249
 10
211.672023
 20
1.737999
 30
0.0
 11
212.079832
 21
2.145808
 31
0.0
  0
LINE
  8
0
 62
   249
 10
213.072023
 20
3.137999
 30
0.0
 11
213.547099
 21
3.613075
 31
0.0
  0
LINE
  8
0
 62
   249
 10
211.795767
 20
1.737999
 30
0.0
 11
212.013201
 21
1.955433
 31
0.0
  0
LINE
  8
0
 62
   249
 10
213.195767
 20
3.137999
 30
0.0
 11
213.547099
 21
3.489331
 31
0.0
  0
LINE
  8
0
 62
   249
 10
211.919511
 20
1.737999
 30
0.0
 11
211.94657
 21
1.765058
 31
0.0
  0
LINE
  8
0
 62
   249
 10
213.319511
 20
3.137999
 30
0.0
 11
213.547099
 21
3.365588
 31
0.0
  0
LINE
  8
0
 62
   249
 10
213.443254
 20
3.137999
 30
0.0
 11
213.547099
 21
3.241844
 31
0.0
  0
LINE
  8
0
 62
   249
 10
217.677099
 20
2.54584
 30
0.0
 11
219.637099
 21
4.50584
 31
0.0
  0
LINE
  8
0
 62
   249
 10
217.677099
 20
2.669584
 30
0.0
 11
219.637099
 21
4.629584
 31
0.0
  0
LINE
  8
0
 62
   249
 10
217.677099
 20
2.793328
 30
0.0
 11
219.637099
 21
4.753328
 31
0.0
  0
LINE
  8
0
 62
   249
 10
217.677099
 20
2.917071
 30
0.0
 11
219.637099
 21
4.877071
 31
0.0
  0
LINE
  8
0
 62
   249
 10
217.677099
 20
3.040815
 30
0.0
 11
219.637099
 21
5.000815
 31
0.0
  0
LINE
  8
0
 62
   249
 10
217.677099
 20
3.164559
 30
0.0
 11
219.61054
 21
5.097999
 31
0.0
  0
LINE
  8
0
 62
   249
 10
217.677099
 20
3.288302
 30
0.0
 11
219.486796
 21
5.097999
 31
0.0
  0
LINE
  8
0
 62
   249
 10
217.677099
 20
3.412046
 30
0.0
 11
219.363052
 21
5.097999
 31
0.0
  0
LINE
  8
0
 62
   249
 10
217.677099
 20
3.53579
 30
0.0
 11
219.239309
 21
5.097999
 31
0.0
  0
LINE
  8
0
 62
   249
 10
217.677099
 20
3.659533
 30
0.0
 11
219.115565
 21
5.097999
 31
0.0
  0
LINE
  8
0
 62
   249
 10
217.677099
 20
3.783277
 30
0.0
 11
218.991821
 21
5.097999
 31
0.0
  0
LINE
  8
0
 62
   249
 10
217.677099
 20
3.907021
 30
0.0
 11
218.868078
 21
5.097999
 31
0.0
  0
LINE
  8
0
 62
   249
 10
217.677099
 20
4.030764
 30
0.0
 11
218.744334
 21
5.097999
 31
0.0
  0
LINE
  8
0
 62
   249
 10
217.677099
 20
4.154508
 30
0.0
 11
218.62059
 21
5.097999
 31
0.0
  0
LINE
  8
0
 62
   249
 10
217.677099
 20
4.278252
 30
0.0
 11
218.496847
 21
5.097999
 31
0.0
  0
LINE
  8
0
 62
   249
 10
217.677099
 20
4.401995
 30
0.0
 11
218.373103
 21
5.097999
 31
0.0
  0
LINE
  8
0
 62
   249
 10
217.677099
 20
4.525739
 30
0.0
 11
218.249359
 21
5.097999
 31
0.0
  0
LINE
  8
0
 62
   249
 10
217.677099
 20
4.649483
 30
0.0
 11
218.125615
 21
5.097999
 31
0.0
  0
LINE
  8
0
 62
   249
 10
217.677099
 20
4.773227
 30
0.0
 11
218.001872
 21
5.097999
 31
0.0
  0
LINE
  8
0
 62
   249
 10
217.677099
 20
4.89697
 30
0.0
 11
217.878128
 21
5.097999
 31
0.0
  0
LINE
  8
0
 62
   249
 10
217.677099
 20
5.020714
 30
0.0
 11
217.754384
 21
5.097999
 31
0.0
  0
LINE
  8
0
 62
   249
 10
217.677099
 20
2.422096
 30
0.0
 11
219.637099
 21
4.382096
 31
0.0
  0
LINE
  8
0
 62
   249
 10
217.677099
 20
2.298353
 30
0.0
 11
219.637099
 21
4.258353
 31
0.0
  0
LINE
  8
0
 62
   249
 10
217.677099
 20
2.174609
 30
0.0
 11
219.637099
 21
4.134609
 31
0.0
  0
LINE
  8
0
 62
   249
 10
217.677099
 20
2.050865
 30
0.0
 11
219.637099
 21
4.010865
 31
0.0
  0
LINE
  8
0
 62
   249
 10
217.677099
 20
1.927122
 30
0.0
 11
219.637099
 21
3.887122
 31
0.0
  0
LINE
  8
0
 62
   249
 10
217.677099
 20
1.803378
 30
0.0
 11
219.637099
 21
3.763378
 31
0.0
  0
LINE
  8
0
 62
   249
 10
217.735464
 20
1.737999
 30
0.0
 11
219.637099
 21
3.639634
 31
0.0
  0
LINE
  8
0
 62
   249
 10
217.859208
 20
1.737999
 30
0.0
 11
219.637099
 21
3.515891
 31
0.0
  0
LINE
  8
0
 62
   249
 10
217.982951
 20
1.737999
 30
0.0
 11
219.637099
 21
3.392147
 31
0.0
  0
LINE
  8
0
 62
   249
 10
218.106695
 20
1.737999
 30
0.0
 11
219.637099
 21
3.268403
 31
0.0
  0
LINE
  8
0
 62
   249
 10
218.230439
 20
1.737999
 30
0.0
 11
219.637099
 21
3.14466
 31
0.0
  0
LINE
  8
0
 62
   249
 10
218.354182
 20
1.737999
 30
0.0
 11
219.637099
 21
3.020916
 31
0.0
  0
LINE
  8
0
 62
   249
 10
218.477926
 20
1.737999
 30
0.0
 11
219.637099
 21
2.897172
 31
0.0
  0
LINE
  8
0
 62
   249
 10
218.60167
 20
1.737999
 30
0.0
 11
219.637099
 21
2.773429
 31
0.0
  0
LINE
  8
0
 62
   249
 10
218.725413
 20
1.737999
 30
0.0
 11
219.637099
 21
2.649685
 31
0.0
  0
LINE
  8
0
 62
   249
 10
218.849157
 20
1.737999
 30
0.0
 11
219.637099
 21
2.525941
 31
0.0
  0
LINE
  8
0
 62
   249
 10
218.972901
 20
1.737999
 30
0.0
 11
219.637099
 21
2.402197
 31
0.0
  0
LINE
  8
0
 62
   249
 10
219.096645
 20
1.737999
 30
0.0
 11
219.637099
 21
2.278454
 31
0.0
  0
LINE
  8
0
 62
   249
 10
219.220388
 20
1.737999
 30
0.0
 11
219.637099
 21
2.15471
 31
0.0
  0
LINE
  8
0
 62
   249
 10
219.344132
 20
1.737999
 30
0.0
 11
219.637099
 21
2.030966
 31
0.0
  0
LINE
  8
0
 62
   249
 10
219.467876
 20
1.737999
 30
0.0
 11
219.637099
 21
1.907223
 31
0.0
  0
LINE
  8
0
 62
   249
 10
219.591619
 20
1.737999
 30
0.0
 11
219.637099
 21
1.783479
 31
0.0
  0
LINE
  8
0
 62
   249
 10
215.006357
 20
2.96869
 30
0.0
 11
216.302653
 21
4.264987
 31
0.0
  0
LINE
  8
0
 62
   249
 10
214.974275
 20
3.060352
 30
0.0
 11
216.270572
 21
4.356649
 31
0.0
  0
LINE
  8
0
 62
   249
 10
214.928179
 20
3.137999
 30
0.0
 11
216.23849
 21
4.448311
 31
0.0
  0
LINE
  8
0
 62
   249
 10
214.804435
 20
3.137999
 30
0.0
 11
216.206408
 21
4.539973
 31
0.0
  0
LINE
  8
0
 62
   249
 10
214.680691
 20
3.137999
 30
0.0
 11
216.174327
 21
4.631635
 31
0.0
  0
LINE
  8
0
 62
   249
 10
214.556948
 20
3.137999
 30
0.0
 11
216.142245
 21
4.723297
 31
0.0
  0
LINE
  8
0
 62
   249
 10
214.433204
 20
3.137999
 30
0.0
 11
216.110163
 21
4.814959
 31
0.0
  0
LINE
  8
0
 62
   249
 10
214.30946
 20
3.137999
 30
0.0
 11
216.078082
 21
4.906621
 31
0.0
  0
LINE
  8
0
 62
   249
 10
214.185717
 20
3.137999
 30
0.0
 11
216.046
 21
4.998283
 31
0.0
  0
LINE
  8
0
 62
   249
 10
214.061973
 20
3.137999
 30
0.0
 11
216.013918
 21
5.089945
 31
0.0
  0
LINE
  8
0
 62
   249
 10
213.938229
 20
3.137999
 30
0.0
 11
215.898229
 21
5.097999
 31
0.0
  0
LINE
  8
0
 62
   249
 10
213.827099
 20
3.150613
 30
0.0
 11
215.774485
 21
5.097999
 31
0.0
  0
LINE
  8
0
 62
   249
 10
213.827099
 20
3.274357
 30
0.0
 11
215.650742
 21
5.097999
 31
0.0
  0
LINE
  8
0
 62
   249
 10
213.827099
 20
3.3981
 30
0.0
 11
215.526998
 21
5.097999
 31
0.0
  0
LINE
  8
0
 62
   249
 10
213.827099
 20
3.521844
 30
0.0
 11
215.403254
 21
5.097999
 31
0.0
  0
LINE
  8
0
 62
   249
 10
213.827099
 20
3.645588
 30
0.0
 11
215.279511
 21
5.097999
 31
0.0
  0
LINE
  8
0
 62
   249
 10
213.827099
 20
3.769331
 30
0.0
 11
215.155767
 21
5.097999
 31
0.0
  0
LINE
  8
0
 62
   249
 10
213.827099
 20
3.893075
 30
0.0
 11
215.032023
 21
5.097999
 31
0.0
  0
LINE
  8
0
 62
   249
 10
213.827099
 20
4.016819
 30
0.0
 11
214.90828
 21
5.097999
 31
0.0
  0
LINE
  8
0
 62
   249
 10
213.827099
 20
4.140562
 30
0.0
 11
214.784536
 21
5.097999
 31
0.0
  0
LINE
  8
0
 62
   249
 10
213.827099
 20
4.264306
 30
0.0
 11
214.660792
 21
5.097999
 31
0.0
  0
LINE
  8
0
 62
   249
 10
213.827099
 20
4.38805
 30
0.0
 11
214.537049
 21
5.097999
 31
0.0
  0
LINE
  8
0
 62
   249
 10
213.827099
 20
4.511793
 30
0.0
 11
214.413305
 21
5.097999
 31
0.0
  0
LINE
  8
0
 62
   249
 10
213.827099
 20
4.635537
 30
0.0
 11
214.289561
 21
5.097999
 31
0.0
  0
LINE
  8
0
 62
   249
 10
213.827099
 20
4.759281
 30
0.0
 11
214.165818
 21
5.097999
 31
0.0
  0
LINE
  8
0
 62
   249
 10
213.827099
 20
4.883025
 30
0.0
 11
214.042074
 21
5.097999
 31
0.0
  0
LINE
  8
0
 62
   249
 10
213.827099
 20
5.006768
 30
0.0
 11
213.91833
 21
5.097999
 31
0.0
  0
LINE
  8
0
 62
   249
 10
215.038439
 20
2.877028
 30
0.0
 11
216.334735
 21
4.173325
 31
0.0
  0
LINE
  8
0
 62
   249
 10
215.070521
 20
2.785366
 30
0.0
 11
216.366817
 21
4.081663
 31
0.0
  0
LINE
  8
0
 62
   249
 10
215.102602
 20
2.693704
 30
0.0
 11
216.398899
 21
3.990001
 31
0.0
  0
LINE
  8
0
 62
   249
 10
215.134684
 20
2.602042
 30
0.0
 11
216.43098
 21
3.898339
 31
0.0
  0
LINE
  8
0
 62
   249
 10
215.166766
 20
2.51038
 30
0.0
 11
216.463062
 21
3.806677
 31
0.0
  0
LINE
  8
0
 62
   249
 10
215.198847
 20
2.418718
 30
0.0
 11
216.495144
 21
3.715015
 31
0.0
  0
LINE
  8
0
 62
   249
 10
215.230929
 20
2.327056
 30
0.0
 11
216.527225
 21
3.623353
 31
0.0
  0
LINE
  8
0
 62
   249
 10
215.263011
 20
2.235395
 30
0.0
 11
216.559307
 21
3.531691
 31
0.0
  0
LINE
  8
0
 62
   249
 10
215.295092
 20
2.143733
 30
0.0
 11
216.591389
 21
3.440029
 31
0.0
  0
LINE
  8
0
 62
   249
 10
215.327174
 20
2.052071
 30
0.0
 11
216.62347
 21
3.348367
 31
0.0
  0
LINE
  8
0
 62
   249
 10
215.359256
 20
1.960409
 30
0.0
 11
216.655552
 21
3.256705
 31
0.0
  0
LINE
  8
0
 62
   249
 10
215.391338
 20
1.868747
 30
0.0
 11
216.687634
 21
3.165043
 31
0.0
  0
LINE
  8
0
 62
   249
 10
215.423419
 20
1.777085
 30
0.0
 11
216.719716
 21
3.073381
 31
0.0
  0
LINE
  8
0
 62
   249
 10
215.508078
 20
1.737999
 30
0.0
 11
216.751797
 21
2.981719
 31
0.0
  0
LINE
  8
0
 62
   249
 10
215.631821
 20
1.737999
 30
0.0
 11
216.783879
 21
2.890057
 31
0.0
  0
LINE
  8
0
 62
   249
 10
215.755565
 20
1.737999
 30
0.0
 11
216.815961
 21
2.798395
 31
0.0
  0
LINE
  8
0
 62
   249
 10
215.879309
 20
1.737999
 30
0.0
 11
216.848042
 21
2.706733
 31
0.0
  0
LINE
  8
0
 62
   249
 10
216.003052
 20
1.737999
 30
0.0
 11
216.880124
 21
2.615071
 31
0.0
  0
LINE
  8
0
 62
   249
 10
216.126796
 20
1.737999
 30
0.0
 11
216.912206
 21
2.523409
 31
0.0
  0
LINE
  8
0
 62
   249
 10
216.25054
 20
1.737999
 30
0.0
 11
216.944287
 21
2.431747
 31
0.0
  0
LINE
  8
0
 62
   249
 10
216.374283
 20
1.737999
 30
0.0
 11
216.976369
 21
2.340085
 31
0.0
  0
LINE
  8
0
 62
   249
 10
216.498027
 20
1.737999
 30
0.0
 11
217.008451
 21
2.248423
 31
0.0
  0
LINE
  8
0
 62
   249
 10
216.621771
 20
1.737999
 30
0.0
 11
217.040532
 21
2.156761
 31
0.0
  0
LINE
  8
0
 62
   249
 10
216.745514
 20
1.737999
 30
0.0
 11
217.072614
 21
2.065099
 31
0.0
  0
LINE
  8
0
 62
   249
 10
216.869258
 20
1.737999
 30
0.0
 11
217.104696
 21
1.973437
 31
0.0
  0
LINE
  8
0
 62
   249
 10
216.993002
 20
1.737999
 30
0.0
 11
217.136778
 21
1.881775
 31
0.0
  0
LINE
  8
0
 62
   249
 10
217.116746
 20
1.737999
 30
0.0
 11
217.168859
 21
1.790113
 31
0.0
  0
LINE
  8
0
 62
   249
 10
219.917099
 20
2.310966
 30
0.0
 11
222.364614
 21
4.758481
 31
0.0
  0
LINE
  8
0
 62
   249
 10
219.917099
 20
2.43471
 30
0.0
 11
222.322547
 21
4.840158
 31
0.0
  0
LINE
  8
0
 62
   249
 10
219.917099
 20
2.558454
 30
0.0
 11
222.277553
 21
4.918908
 31
0.0
  0
LINE
  8
0
 62
   249
 10
219.917099
 20
2.682197
 30
0.0
 11
222.229735
 21
4.994834
 31
0.0
  0
LINE
  8
0
 62
   249
 10
219.917099
 20
2.805941
 30
0.0
 11
222.179174
 21
5.068016
 31
0.0
  0
LINE
  8
0
 62
   249
 10
219.917099
 20
2.929685
 30
0.0
 11
222.085413
 21
5.097999
 31
0.0
  0
LINE
  8
0
 62
   249
 10
219.917099
 20
3.053429
 30
0.0
 11
221.96167
 21
5.097999
 31
0.0
  0
LINE
  8
0
 62
   249
 10
219.917099
 20
3.177172
 30
0.0
 11
221.837926
 21
5.097999
 31
0.0
  0
LINE
  8
0
 62
   249
 10
219.917099
 20
3.300916
 30
0.0
 11
221.714182
 21
5.097999
 31
0.0
  0
LINE
  8
0
 62
   249
 10
219.917099
 20
3.42466
 30
0.0
 11
221.590439
 21
5.097999
 31
0.0
  0
LINE
  8
0
 62
   249
 10
219.917099
 20
3.548403
 30
0.0
 11
221.466695
 21
5.097999
 31
0.0
  0
LINE
  8
0
 62
   249
 10
219.917099
 20
3.672147
 30
0.0
 11
221.342951
 21
5.097999
 31
0.0
  0
LINE
  8
0
 62
   249
 10
219.917099
 20
3.795891
 30
0.0
 11
221.219208
 21
5.097999
 31
0.0
  0
LINE
  8
0
 62
   249
 10
219.917099
 20
3.919634
 30
0.0
 11
221.095464
 21
5.097999
 31
0.0
  0
LINE
  8
0
 62
   249
 10
219.917099
 20
4.043378
 30
0.0
 11
220.97172
 21
5.097999
 31
0.0
  0
LINE
  8
0
 62
   249
 10
219.917099
 20
4.167122
 30
0.0
 11
220.847977
 21
5.097999
 31
0.0
  0
LINE
  8
0
 62
   249
 10
219.917099
 20
4.290865
 30
0.0
 11
220.724233
 21
5.097999
 31
0.0
  0
LINE
  8
0
 62
   249
 10
219.917099
 20
4.414609
 30
0.0
 11
220.600489
 21
5.097999
 31
0.0
  0
LINE
  8
0
 62
   249
 10
219.917099
 20
4.538353
 30
0.0
 11
220.476746
 21
5.097999
 31
0.0
  0
LINE
  8
0
 62
   249
 10
219.917099
 20
4.662096
 30
0.0
 11
220.353002
 21
5.097999
 31
0.0
  0
LINE
  8
0
 62
   249
 10
219.917099
 20
4.78584
 30
0.0
 11
220.229258
 21
5.097999
 31
0.0
  0
LINE
  8
0
 62
   249
 10
219.917099
 20
4.909584
 30
0.0
 11
220.105514
 21
5.097999
 31
0.0
  0
LINE
  8
0
 62
   249
 10
219.917099
 20
5.033328
 30
0.0
 11
219.981771
 21
5.097999
 31
0.0
  0
LINE
  8
0
 62
   249
 10
219.917099
 20
2.187223
 30
0.0
 11
222.403629
 21
4.673752
 31
0.0
  0
LINE
  8
0
 62
   249
 10
219.917099
 20
2.063479
 30
0.0
 11
222.439437
 21
4.585817
 31
0.0
  0
LINE
  8
0
 62
   249
 10
219.917099
 20
1.939735
 30
0.0
 11
222.471849
 21
4.494485
 31
0.0
  0
LINE
  8
0
 62
   249
 10
219.917099
 20
1.815992
 30
0.0
 11
222.500633
 21
4.399525
 31
0.0
  0
LINE
  8
0
 62
   249
 10
219.96285
 20
1.737999
 30
0.0
 11
222.525502
 21
4.300651
 31
0.0
  0
LINE
  8
0
 62
   249
 10
220.086594
 20
1.738
 30
0.0
 11
222.546098
 21
4.197503
 31
0.0
  0
LINE
  8
0
 62
   249
 10
220.210338
 20
1.738
 30
0.0
 11
222.561969
 21
4.08963
 31
0.0
  0
LINE
  8
0
 62
   249
 10
220.334082
 20
1.738
 30
0.0
 11
222.57253
 21
3.976448
 31
0.0
  0
LINE
  8
0
 62
   249
 10
220.457826
 20
1.738
 30
0.0
 11
222.577011
 21
3.857186
 31
0.0
  0
LINE
  8
0
 62
   249
 10
220.584307
 20
1.740738
 30
0.0
 11
222.574361
 21
3.730791
 31
0.0
  0
LINE
  8
0
 62
   249
 10
220.71933
 20
1.752016
 30
0.0
 11
222.563082
 21
3.595769
 31
0.0
  0
LINE
  8
0
 62
   249
 10
220.865237
 20
1.77418
 30
0.0
 11
222.540918
 21
3.449861
 31
0.0
  0
LINE
  8
0
 62
   249
 10
221.025733
 20
1.810932
 30
0.0
 11
222.504166
 21
3.289366
 31
0.0
  0
LINE
  8
0
 62
   249
 10
221.207749
 20
1.869205
 30
0.0
 11
222.445893
 21
3.107349
 31
0.0
  0
LINE
  8
0
 62
   249
 10
221.427822
 20
1.965534
 30
0.0
 11
222.349564
 21
2.887276
 31
0.0
  0
LINE
  8
0
 62
   249
 10
221.76645
 20
2.180419
 30
0.0
 11
222.13468
 21
2.548648
 31
0.0
  0
LINE
  8
0
 62
   249
 10
223.137099
 20
2.54584
 30
0.0
 11
225.097099
 21
4.50584
 31
0.0
  0
LINE
  8
0
 62
   249
 10
223.137099
 20
2.669584
 30
0.0
 11
225.097099
 21
4.629584
 31
0.0
  0
LINE
  8
0
 62
   249
 10
223.137099
 20
2.793328
 30
0.0
 11
225.097099
 21
4.753328
 31
0.0
  0
LINE
  8
0
 62
   249
 10
223.137099
 20
2.917071
 30
0.0
 11
225.097099
 21
4.877071
 31
0.0
  0
LINE
  8
0
 62
   249
 10
223.137099
 20
3.040815
 30
0.0
 11
225.097099
 21
5.000815
 31
0.0
  0
LINE
  8
0
 62
   249
 10
223.137099
 20
3.164559
 30
0.0
 11
225.07054
 21
5.097999
 31
0.0
  0
LINE
  8
0
 62
   249
 10
223.137099
 20
3.288302
 30
0.0
 11
224.946796
 21
5.097999
 31
0.0
  0
LINE
  8
0
 62
   249
 10
223.137099
 20
3.412046
 30
0.0
 11
224.823052
 21
5.097999
 31
0.0
  0
LINE
  8
0
 62
   249
 10
223.137099
 20
3.53579
 30
0.0
 11
224.699309
 21
5.097999
 31
0.0
  0
LINE
  8
0
 62
   249
 10
223.137099
 20
3.659533
 30
0.0
 11
224.575565
 21
5.097999
 31
0.0
  0
LINE
  8
0
 62
   249
 10
223.137099
 20
3.783277
 30
0.0
 11
224.451821
 21
5.097999
 31
0.0
  0
LINE
  8
0
 62
   249
 10
223.137099
 20
3.907021
 30
0.0
 11
224.328078
 21
5.097999
 31
0.0
  0
LINE
  8
0
 62
   249
 10
223.137099
 20
4.030764
 30
0.0
 11
224.204334
 21
5.097999
 31
0.0
  0
LINE
  8
0
 62
   249
 10
223.137099
 20
4.154508
 30
0.0
 11
224.08059
 21
5.097999
 31
0.0
  0
LINE
  8
0
 62
   249
 10
223.137099
 20
4.278252
 30
0.0
 11
223.956847
 21
5.097999
 31
0.0
  0
LINE
  8
0
 62
   249
 10
223.137099
 20
4.401995
 30
0.0
 11
223.833103
 21
5.097999
 31
0.0
  0
LINE
  8
0
 62
   249
 10
223.137099
 20
4.525739
 30
0.0
 11
223.709359
 21
5.097999
 31
0.0
  0
LINE
  8
0
 62
   249
 10
223.137099
 20
4.649483
 30
0.0
 11
223.585615
 21
5.097999
 31
0.0
  0
LINE
  8
0
 62
   249
 10
223.137099
 20
4.773227
 30
0.0
 11
223.461872
 21
5.097999
 31
0.0
  0
LINE
  8
0
 62
   249
 10
223.137099
 20
4.89697
 30
0.0
 11
223.338128
 21
5.097999
 31
0.0
  0
LINE
  8
0
 62
   249
 10
223.137099
 20
5.020714
 30
0.0
 11
223.214384
 21
5.097999
 31
0.0
  0
LINE
  8
0
 62
   249
 10
223.137099
 20
2.422096
 30
0.0
 11
225.097099
 21
4.382096
 31
0.0
  0
LINE
  8
0
 62
   249
 10
223.137099
 20
2.298353
 30
0.0
 11
225.097099
 21
4.258353
 31
0.0
  0
LINE
  8
0
 62
   249
 10
223.137099
 20
2.174609
 30
0.0
 11
225.097099
 21
4.134609
 31
0.0
  0
LINE
  8
0
 62
   249
 10
223.137099
 20
2.050865
 30
0.0
 11
225.097099
 21
4.010865
 31
0.0
  0
LINE
  8
0
 62
   249
 10
223.137099
 20
1.927122
 30
0.0
 11
225.097099
 21
3.887122
 31
0.0
  0
LINE
  8
0
 62
   249
 10
223.137099
 20
1.803378
 30
0.0
 11
225.097099
 21
3.763378
 31
0.0
  0
LINE
  8
0
 62
   249
 10
223.195464
 20
1.737999
 30
0.0
 11
225.097099
 21
3.639634
 31
0.0
  0
LINE
  8
0
 62
   249
 10
223.319208
 20
1.737999
 30
0.0
 11
225.097099
 21
3.515891
 31
0.0
  0
LINE
  8
0
 62
   249
 10
223.442951
 20
1.737999
 30
0.0
 11
225.097099
 21
3.392147
 31
0.0
  0
LINE
  8
0
 62
   249
 10
223.566695
 20
1.737999
 30
0.0
 11
225.097099
 21
3.268403
 31
0.0
  0
LINE
  8
0
 62
   249
 10
223.690439
 20
1.737999
 30
0.0
 11
225.097099
 21
3.14466
 31
0.0
  0
LINE
  8
0
 62
   249
 10
223.814182
 20
1.737999
 30
0.0
 11
225.097099
 21
3.020916
 31
0.0
  0
LINE
  8
0
 62
   249
 10
223.937926
 20
1.737999
 30
0.0
 11
225.097099
 21
2.897172
 31
0.0
  0
LINE
  8
0
 62
   249
 10
224.06167
 20
1.737999
 30
0.0
 11
225.097099
 21
2.773429
 31
0.0
  0
LINE
  8
0
 62
   249
 10
224.185413
 20
1.737999
 30
0.0
 11
225.097099
 21
2.649685
 31
0.0
  0
LINE
  8
0
 62
   249
 10
224.309157
 20
1.737999
 30
0.0
 11
225.097099
 21
2.525941
 31
0.0
  0
LINE
  8
0
 62
   249
 10
224.432901
 20
1.737999
 30
0.0
 11
225.097099
 21
2.402197
 31
0.0
  0
LINE
  8
0
 62
   249
 10
224.556645
 20
1.737999
 30
0.0
 11
225.097099
 21
2.278454
 31
0.0
  0
LINE
  8
0
 62
   249
 10
224.680388
 20
1.737999
 30
0.0
 11
225.097099
 21
2.15471
 31
0.0
  0
LINE
  8
0
 62
   249
 10
224.804132
 20
1.737999
 30
0.0
 11
225.097099
 21
2.030966
 31
0.0
  0
LINE
  8
0
 62
   249
 10
224.927876
 20
1.737999
 30
0.0
 11
225.097099
 21
1.907223
 31
0.0
  0
LINE
  8
0
 62
   249
 10
225.051619
 20
1.737999
 30
0.0
 11
225.097099
 21
1.783479
 31
0.0
  0
TEXT
  8
0
  6
CONTINUOUS
 62
   249
 10
202.151206
 20
39.155397
 30
0.0
 40
2.0
  1
+
  0
LINE
  8
0
 62
   249
 10
220.831108
 20
40.783527
 30
0.0
 11
224.831108
 21
40.783527
 31
0.0
  0
INSERT
  8
0
 62
   249
  2
WKU130
 10
221.171057
 20
39.057974
 30
0.0
 41
0.8
 42
0.8
 43
0.8
  0
TEXT
  8
0
  6
CONTINUOUS
 62
   249
 10
219.353328
 20
41.513635
 30
0.0
 40
2.0
  1
+
  0
TEXT
  8
0
  6
CONTINUOUS
 62
   249
 10
224.344763
 20
41.50558
 30
0.0
 40
2.0
  1
-
  0
INSERT
  8
0
  6
CENTER
 62
   249
  2
BLC5
 10
240.291926
 20
40.842005
 30
0.0
 41
0.6
 42
0.6
 43
0.6
  0
ARC
  8
0
 62
   249
 10
223.672927
 20
80.936221
 30
0.0
 40
0.869227
 50
32.471192
 51
175.601295
  0
ARC
  8
0
 62
   249
 10
225.139595
 20
81.869554
 30
0.0
 40
0.869227
 50
212.471192
 51
355.601295
  0
LINE
  8
0
  6
CONTINUOUS
 62
   249
 10
237.817487
 20
116.164635
 30
0.0
 11
235.471721
 21
117.499989
 31
0.0
  0
LINE
  8
0
  6
CONTINUOUS
 62
   249
 10
235.471721
 20
117.499989
 30
0.0
 11
237.817487
 21
118.689908
 31
0.0
  0
3DFACE
  8
0
  6
CONTINUOUS
 62
   249
 10
284.319436
 20
82.01
 30
0.0
 11
284.333156
 21
82.01
 31
0.0
 12
284.333156
 22
82.99
 32
0.0
 13
284.319436
 23
82.99
 33
0.0
  0
3DFACE
  8
0
  6
CONTINUOUS
 62
   249
 10
284.333156
 20
82.01
 30
0.0
 11
284.346876
 21
82.01
 31
0.0
 12
284.346876
 22
82.99
 32
0.0
 13
284.333156
 23
82.99
 33
0.0
  0
3DFACE
  8
0
  6
CONTINUOUS
 62
   249
 10
284.346876
 20
82.01
 30
0.0
 11
284.360596
 21
82.01
 31
0.0
 12
284.360596
 22
82.99
 32
0.0
 13
284.346876
 23
82.99
 33
0.0
  0
3DFACE
  8
0
  6
CONTINUOUS
 62
   249
 10
284.360596
 20
82.01
 30
0.0
 11
284.374316
 21
82.01
 31
0.0
 12
284.374316
 22
82.99
 32
0.0
 13
284.360596
 23
82.99
 33
0.0
  0
3DFACE
  8
0
  6
CONTINUOUS
 62
   249
 10
284.374316
 20
82.01
 30
0.0
 11
284.388036
 21
82.01
 31
0.0
 12
284.388036
 22
82.99
 32
0.0
 13
284.374316
 23
82.99
 33
0.0
  0
3DFACE
  8
0
  6
CONTINUOUS
 62
   249
 10
284.388036
 20
82.01
 30
0.0
 11
284.401756
 21
82.01
 31
0.0
 12
284.401756
 22
82.99
 32
0.0
 13
284.388036
 23
82.99
 33
0.0
  0
3DFACE
  8
0
  6
CONTINUOUS
 62
   249
 10
284.401756
 20
82.01
 30
0.0
 11
284.415476
 21
82.01
 31
0.0
 12
284.415476
 22
82.99
 32
0.0
 13
284.401756
 23
82.99
 33
0.0
  0
3DFACE
  8
0
  6
CONTINUOUS
 62
   249
 10
284.415476
 20
82.01
 30
0.0
 11
284.429196
 21
82.01
 31
0.0
 12
284.429196
 22
82.99
 32
0.0
 13
284.415476
 23
82.99
 33
0.0
  0
3DFACE
  8
0
  6
CONTINUOUS
 62
   249
 10
284.429196
 20
82.01
 30
0.0
 11
284.442916
 21
82.01
 31
0.0
 12
284.442916
 22
82.99
 32
0.0
 13
284.429196
 23
82.99
 33
0.0
  0
3DFACE
  8
0
  6
CONTINUOUS
 62
   249
 10
284.442916
 20
82.01
 30
0.0
 11
284.456636
 21
82.01
 31
0.0
 12
284.456636
 22
82.99
 32
0.0
 13
284.442916
 23
82.99
 33
0.0
  0
3DFACE
  8
0
  6
CONTINUOUS
 62
   249
 10
284.456636
 20
82.01
 30
0.0
 11
284.470356
 21
82.01
 31
0.0
 12
284.470356
 22
82.99
 32
0.0
 13
284.456636
 23
82.99
 33
0.0
  0
3DFACE
  8
0
  6
CONTINUOUS
 62
   249
 10
284.470356
 20
82.01
 30
0.0
 11
284.484076
 21
82.01
 31
0.0
 12
284.484076
 22
82.99
 32
0.0
 13
284.470356
 23
82.99
 33
0.0
  0
3DFACE
  8
0
  6
CONTINUOUS
 62
   249
 10
284.484076
 20
82.01
 30
0.0
 11
284.497796
 21
82.01
 31
0.0
 12
284.497796
 22
82.99
 32
0.0
 13
284.484076
 23
82.99
 33
0.0
  0
3DFACE
  8
0
  6
CONTINUOUS
 62
   249
 10
284.497796
 20
82.01
 30
0.0
 11
284.511516
 21
82.01
 31
0.0
 12
284.511516
 22
82.99
 32
0.0
 13
284.497796
 23
82.99
 33
0.0
  0
3DFACE
  8
0
  6
CONTINUOUS
 62
   249
 10
284.511516
 20
82.01
 30
0.0
 11
284.525236
 21
82.01
 31
0.0
 12
284.525236
 22
82.99
 32
0.0
 13
284.511516
 23
82.99
 33
0.0
  0
3DFACE
  8
0
  6
CONTINUOUS
 62
   249
 10
284.525236
 20
82.01
 30
0.0
 11
284.538956
 21
82.01
 31
0.0
 12
284.538956
 22
82.99
 32
0.0
 13
284.525236
 23
82.99
 33
0.0
  0
3DFACE
  8
0
  6
CONTINUOUS
 62
   249
 10
284.538956
 20
82.01
 30
0.0
 11
284.552676
 21
82.01
 31
0.0
 12
284.552676
 22
82.99
 32
0.0
 13
284.538956
 23
82.99
 33
0.0
  0
3DFACE
  8
0
  6
CONTINUOUS
 62
   249
 10
284.552676
 20
82.01
 30
0.0
 11
284.566396
 21
82.01
 31
0.0
 12
284.566396
 22
82.99
 32
0.0
 13
284.552676
 23
82.99
 33
0.0
  0
3DFACE
  8
0
  6
CONTINUOUS
 62
   249
 10
284.566396
 20
82.01
 30
0.0
 11
284.580116
 21
82.01
 31
0.0
 12
284.580116
 22
82.99
 32
0.0
 13
284.566396
 23
82.99
 33
0.0
  0
3DFACE
  8
0
  6
CONTINUOUS
 62
   249
 10
284.580116
 20
82.01
 30
0.0
 11
284.593836
 21
82.01
 31
0.0
 12
284.593836
 22
82.99
 32
0.0
 13
284.580116
 23
82.99
 33
0.0
  0
3DFACE
  8
0
  6
CONTINUOUS
 62
   249
 10
284.593836
 20
82.01
 30
0.0
 11
284.607556
 21
82.01
 31
0.0
 12
284.607556
 22
82.99
 32
0.0
 13
284.593836
 23
82.99
 33
0.0
  0
3DFACE
  8
0
  6
CONTINUOUS
 62
   249
 10
284.607556
 20
82.01
 30
0.0
 11
284.621276
 21
82.01
 31
0.0
 12
284.621276
 22
82.99
 32
0.0
 13
284.607556
 23
82.99
 33
0.0
  0
3DFACE
  8
0
  6
CONTINUOUS
 62
   249
 10
284.621276
 20
82.01
 30
0.0
 11
284.634996
 21
82.01
 31
0.0
 12
284.634996
 22
82.99
 32
0.0
 13
284.621276
 23
82.99
 33
0.0
  0
3DFACE
  8
0
  6
CONTINUOUS
 62
   249
 10
284.634996
 20
82.01
 30
0.0
 11
284.648716
 21
82.01
 31
0.0
 12
284.648716
 22
82.99
 32
0.0
 13
284.634996
 23
82.99
 33
0.0
  0
3DFACE
  8
0
  6
CONTINUOUS
 62
   249
 10
284.648716
 20
82.01
 30
0.0
 11
284.662436
 21
82.01
 31
0.0
 12
284.662436
 22
82.99
 32
0.0
 13
284.648716
 23
82.99
 33
0.0
  0
3DFACE
  8
0
  6
CONTINUOUS
 62
   249
 10
284.662436
 20
82.01
 30
0.0
 11
284.676156
 21
82.01
 31
0.0
 12
284.676156
 22
82.99
 32
0.0
 13
284.662436
 23
82.99
 33
0.0
  0
3DFACE
  8
0
  6
CONTINUOUS
 62
   249
 10
284.676156
 20
82.01
 30
0.0
 11
284.689876
 21
82.01
 31
0.0
 12
284.689876
 22
82.99
 32
0.0
 13
284.676156
 23
82.99
 33
0.0
  0
3DFACE
  8
0
  6
CONTINUOUS
 62
   249
 10
284.689876
 20
82.01
 30
0.0
 11
284.703596
 21
82.01
 31
0.0
 12
284.703596
 22
82.99
 32
0.0
 13
284.689876
 23
82.99
 33
0.0
  0
3DFACE
  8
0
  6
CONTINUOUS
 62
   249
 10
284.703596
 20
82.01
 30
0.0
 11
284.717316
 21
82.01
 31
0.0
 12
284.717316
 22
82.99
 32
0.0
 13
284.703596
 23
82.99
 33
0.0
  0
3DFACE
  8
0
  6
CONTINUOUS
 62
   249
 10
284.717316
 20
82.01
 30
0.0
 11
284.731036
 21
82.01
 31
0.0
 12
284.731036
 22
82.99
 32
0.0
 13
284.717316
 23
82.99
 33
0.0
  0
3DFACE
  8
0
  6
CONTINUOUS
 62
   249
 10
284.731036
 20
82.01
 30
0.0
 11
284.744756
 21
82.01
 31
0.0
 12
284.744756
 22
82.99
 32
0.0
 13
284.731036
 23
82.99
 33
0.0
  0
3DFACE
  8
0
  6
CONTINUOUS
 62
   249
 10
284.744756
 20
82.01
 30
0.0
 11
284.758476
 21
82.01
 31
0.0
 12
284.758476
 22
82.99
 32
0.0
 13
284.744756
 23
82.99
 33
0.0
  0
3DFACE
  8
0
  6
CONTINUOUS
 62
   249
 10
284.758476
 20
82.01
 30
0.0
 11
284.772196
 21
82.01
 31
0.0
 12
284.772196
 22
82.99
 32
0.0
 13
284.758476
 23
82.99
 33
0.0
  0
3DFACE
  8
0
  6
CONTINUOUS
 62
   249
 10
284.772196
 20
82.01
 30
0.0
 11
284.785916
 21
82.01
 31
0.0
 12
284.785916
 22
82.99
 32
0.0
 13
284.772196
 23
82.99
 33
0.0
  0
3DFACE
  8
0
  6
CONTINUOUS
 62
   249
 10
284.785916
 20
82.01
 30
0.0
 11
284.799636
 21
82.01
 31
0.0
 12
284.799636
 22
82.99
 32
0.0
 13
284.785916
 23
82.99
 33
0.0
  0
3DFACE
  8
0
  6
CONTINUOUS
 62
   249
 10
284.799636
 20
82.01
 30
0.0
 11
284.813356
 21
82.01
 31
0.0
 12
284.813356
 22
82.99
 32
0.0
 13
284.799636
 23
82.99
 33
0.0
  0
3DFACE
  8
0
  6
CONTINUOUS
 62
   249
 10
284.813356
 20
82.01
 30
0.0
 11
284.827076
 21
82.01
 31
0.0
 12
284.827076
 22
82.99
 32
0.0
 13
284.813356
 23
82.99
 33
0.0
  0
3DFACE
  8
0
  6
CONTINUOUS
 62
   249
 10
284.827076
 20
82.01
 30
0.0
 11
284.840796
 21
82.01
 31
0.0
 12
284.840796
 22
82.99
 32
0.0
 13
284.827076
 23
82.99
 33
0.0
  0
3DFACE
  8
0
  6
CONTINUOUS
 62
   249
 10
284.840796
 20
82.01
 30
0.0
 11
284.854516
 21
82.01
 31
0.0
 12
284.854516
 22
82.99
 32
0.0
 13
284.840796
 23
82.99
 33
0.0
  0
3DFACE
  8
0
  6
CONTINUOUS
 62
   249
 10
284.854516
 20
82.01
 30
0.0
 11
284.868236
 21
82.01
 31
0.0
 12
284.868236
 22
82.99
 32
0.0
 13
284.854516
 23
82.99
 33
0.0
  0
3DFACE
  8
0
  6
CONTINUOUS
 62
   249
 10
284.868236
 20
82.01
 30
0.0
 11
284.881956
 21
82.01
 31
0.0
 12
284.881956
 22
82.99
 32
0.0
 13
284.868236
 23
82.99
 33
0.0
  0
3DFACE
  8
0
  6
CONTINUOUS
 62
   249
 10
284.881956
 20
82.01
 30
0.0
 11
284.895676
 21
82.01
 31
0.0
 12
284.895676
 22
82.99
 32
0.0
 13
284.881956
 23
82.99
 33
0.0
  0
3DFACE
  8
0
  6
CONTINUOUS
 62
   249
 10
284.895676
 20
82.01
 30
0.0
 11
284.909396
 21
82.01
 31
0.0
 12
284.909396
 22
82.99
 32
0.0
 13
284.895676
 23
82.99
 33
0.0
  0
3DFACE
  8
0
  6
CONTINUOUS
 62
   249
 10
284.909396
 20
82.01
 30
0.0
 11
284.923116
 21
82.01
 31
0.0
 12
284.923116
 22
82.99
 32
0.0
 13
284.909396
 23
82.99
 33
0.0
  0
3DFACE
  8
0
  6
CONTINUOUS
 62
   249
 10
284.923116
 20
82.01
 30
0.0
 11
284.936836
 21
82.01
 31
0.0
 12
284.936836
 22
82.99
 32
0.0
 13
284.923116
 23
82.99
 33
0.0
  0
3DFACE
  8
0
  6
CONTINUOUS
 62
   249
 10
284.936836
 20
82.01
 30
0.0
 11
284.950556
 21
82.01
 31
0.0
 12
284.950556
 22
82.99
 32
0.0
 13
284.936836
 23
82.99
 33
0.0
  0
3DFACE
  8
0
  6
CONTINUOUS
 62
   249
 10
284.950556
 20
82.01
 30
0.0
 11
284.964276
 21
82.01
 31
0.0
 12
284.964276
 22
82.99
 32
0.0
 13
284.950556
 23
82.99
 33
0.0
  0
3DFACE
  8
0
  6
CONTINUOUS
 62
   249
 10
284.964276
 20
82.01
 30
0.0
 11
284.977996
 21
82.01
 31
0.0
 12
284.977996
 22
82.99
 32
0.0
 13
284.964276
 23
82.99
 33
0.0
  0
3DFACE
  8
0
  6
CONTINUOUS
 62
   249
 10
284.977996
 20
82.01
 30
0.0
 11
284.991716
 21
82.01
 31
0.0
 12
284.991716
 22
82.99
 32
0.0
 13
284.977996
 23
82.99
 33
0.0
  0
3DFACE
  8
0
  6
CONTINUOUS
 62
   249
 10
284.991716
 20
82.01
 30
0.0
 11
285.005436
 21
82.01
 31
0.0
 12
285.005436
 22
82.99
 32
0.0
 13
284.991716
 23
82.99
 33
0.0
  0
3DFACE
  8
0
  6
CONTINUOUS
 62
   249
 10
285.005436
 20
82.01
 30
0.0
 11
285.019156
 21
82.01
 31
0.0
 12
285.019156
 22
82.99
 32
0.0
 13
285.005436
 23
82.99
 33
0.0
  0
3DFACE
  8
0
  6
CONTINUOUS
 62
   249
 10
285.019156
 20
82.01
 30
0.0
 11
285.032876
 21
82.01
 31
0.0
 12
285.032876
 22
82.99
 32
0.0
 13
285.019156
 23
82.99
 33
0.0
  0
3DFACE
  8
0
  6
CONTINUOUS
 62
   249
 10
285.032876
 20
82.01
 30
0.0
 11
285.046596
 21
82.01
 31
0.0
 12
285.046596
 22
82.99
 32
0.0
 13
285.032876
 23
82.99
 33
0.0
  0
3DFACE
  8
0
  6
CONTINUOUS
 62
   249
 10
285.046596
 20
82.01
 30
0.0
 11
285.060316
 21
82.01
 31
0.0
 12
285.060316
 22
82.99
 32
0.0
 13
285.046596
 23
82.99
 33
0.0
  0
3DFACE
  8
0
  6
CONTINUOUS
 62
   249
 10
285.060316
 20
82.01
 30
0.0
 11
285.074036
 21
82.01
 31
0.0
 12
285.074036
 22
82.99
 32
0.0
 13
285.060316
 23
82.99
 33
0.0
  0
3DFACE
  8
0
  6
CONTINUOUS
 62
   249
 10
285.074036
 20
82.01
 30
0.0
 11
285.087756
 21
82.01
 31
0.0
 12
285.087756
 22
82.99
 32
0.0
 13
285.074036
 23
82.99
 33
0.0
  0
3DFACE
  8
0
  6
CONTINUOUS
 62
   249
 10
285.087756
 20
82.01
 30
0.0
 11
285.101476
 21
82.01
 31
0.0
 12
285.101476
 22
82.99
 32
0.0
 13
285.087756
 23
82.99
 33
0.0
  0
3DFACE
  8
0
  6
CONTINUOUS
 62
   249
 10
285.101476
 20
82.01
 30
0.0
 11
285.115196
 21
82.01
 31
0.0
 12
285.115196
 22
82.99
 32
0.0
 13
285.101476
 23
82.99
 33
0.0
  0
3DFACE
  8
0
  6
CONTINUOUS
 62
   249
 10
285.115196
 20
82.01
 30
0.0
 11
285.128916
 21
82.01
 31
0.0
 12
285.128916
 22
82.99
 32
0.0
 13
285.115196
 23
82.99
 33
0.0
  0
3DFACE
  8
0
  6
CONTINUOUS
 62
   249
 10
285.128916
 20
82.01
 30
0.0
 11
285.142636
 21
82.01
 31
0.0
 12
285.142636
 22
82.99
 32
0.0
 13
285.128916
 23
82.99
 33
0.0
  0
3DFACE
  8
0
  6
CONTINUOUS
 62
   249
 10
285.142636
 20
82.01
 30
0.0
 11
285.156356
 21
82.01
 31
0.0
 12
285.156356
 22
82.99
 32
0.0
 13
285.142636
 23
82.99
 33
0.0
  0
3DFACE
  8
0
  6
CONTINUOUS
 62
   249
 10
285.156356
 20
82.01
 30
0.0
 11
285.170076
 21
82.01
 31
0.0
 12
285.170076
 22
82.99
 32
0.0
 13
285.156356
 23
82.99
 33
0.0
  0
3DFACE
  8
0
  6
CONTINUOUS
 62
   249
 10
285.170076
 20
82.01
 30
0.0
 11
285.183796
 21
82.01
 31
0.0
 12
285.183796
 22
82.99
 32
0.0
 13
285.170076
 23
82.99
 33
0.0
  0
3DFACE
  8
0
  6
CONTINUOUS
 62
   249
 10
285.183796
 20
82.01
 30
0.0
 11
285.197516
 21
82.01
 31
0.0
 12
285.197516
 22
82.99
 32
0.0
 13
285.183796
 23
82.99
 33
0.0
  0
3DFACE
  8
0
  6
CONTINUOUS
 62
   249
 10
285.197516
 20
82.01
 30
0.0
 11
285.211236
 21
82.01
 31
0.0
 12
285.211236
 22
82.99
 32
0.0
 13
285.197516
 23
82.99
 33
0.0
  0
3DFACE
  8
0
  6
CONTINUOUS
 62
   249
 10
285.211236
 20
82.01
 30
0.0
 11
285.224956
 21
82.01
 31
0.0
 12
285.224956
 22
82.99
 32
0.0
 13
285.211236
 23
82.99
 33
0.0
  0
3DFACE
  8
0
  6
CONTINUOUS
 62
   249
 10
285.224956
 20
82.01
 30
0.0
 11
285.238676
 21
82.01
 31
0.0
 12
285.238676
 22
82.99
 32
0.0
 13
285.224956
 23
82.99
 33
0.0
  0
3DFACE
  8
0
  6
CONTINUOUS
 62
   249
 10
285.238676
 20
82.01
 30
0.0
 11
285.252396
 21
82.01
 31
0.0
 12
285.252396
 22
82.99
 32
0.0
 13
285.238676
 23
82.99
 33
0.0
  0
3DFACE
  8
0
  6
CONTINUOUS
 62
   249
 10
285.252396
 20
82.01
 30
0.0
 11
285.266116
 21
82.01
 31
0.0
 12
285.266116
 22
82.99
 32
0.0
 13
285.252396
 23
82.99
 33
0.0
  0
3DFACE
  8
0
  6
CONTINUOUS
 62
   249
 10
285.266116
 20
82.01
 30
0.0
 11
285.279836
 21
82.01
 31
0.0
 12
285.279836
 22
82.99
 32
0.0
 13
285.266116
 23
82.99
 33
0.0
  0
3DFACE
  8
0
  6
CONTINUOUS
 62
   249
 10
285.279836
 20
82.01
 30
0.0
 11
285.293556
 21
82.01
 31
0.0
 12
285.293556
 22
82.99
 32
0.0
 13
285.279836
 23
82.99
 33
0.0
  0
3DFACE
  8
0
  6
CONTINUOUS
 62
   249
 10
285.293556
 20
82.01
 30
0.0
 11
285.307276
 21
82.01
 31
0.0
 12
285.307276
 22
82.99
 32
0.0
 13
285.293556
 23
82.99
 33
0.0
  0
3DFACE
  8
0
  6
CONTINUOUS
 62
   249
 10
285.307276
 20
82.01
 30
0.0
 11
285.320996
 21
82.01
 31
0.0
 12
285.320996
 22
82.99
 32
0.0
 13
285.307276
 23
82.99
 33
0.0
  0
3DFACE
  8
0
  6
CONTINUOUS
 62
   249
 10
285.320996
 20
82.01
 30
0.0
 11
285.334716
 21
82.01
 31
0.0
 12
285.334716
 22
82.99
 32
0.0
 13
285.320996
 23
82.99
 33
0.0
  0
3DFACE
  8
0
  6
CONTINUOUS
 62
   249
 10
285.334716
 20
82.01
 30
0.0
 11
285.348436
 21
82.01
 31
0.0
 12
285.348436
 22
82.99
 32
0.0
 13
285.334716
 23
82.99
 33
0.0
  0
3DFACE
  8
0
  6
CONTINUOUS
 62
   249
 10
285.348436
 20
82.01
 30
0.0
 11
285.362156
 21
82.01
 31
0.0
 12
285.362156
 22
82.99
 32
0.0
 13
285.348436
 23
82.99
 33
0.0
  0
3DFACE
  8
0
  6
CONTINUOUS
 62
   249
 10
285.362156
 20
82.01
 30
0.0
 11
285.375876
 21
82.01
 31
0.0
 12
285.375876
 22
82.99
 32
0.0
 13
285.362156
 23
82.99
 33
0.0
  0
3DFACE
  8
0
  6
CONTINUOUS
 62
   249
 10
285.375876
 20
82.01
 30
0.0
 11
285.389596
 21
82.01
 31
0.0
 12
285.389596
 22
82.99
 32
0.0
 13
285.375876
 23
82.99
 33
0.0
  0
3DFACE
  8
0
  6
CONTINUOUS
 62
   249
 10
285.389596
 20
82.01
 30
0.0
 11
285.403316
 21
82.01
 31
0.0
 12
285.403316
 22
82.99
 32
0.0
 13
285.389596
 23
82.99
 33
0.0
  0
3DFACE
  8
0
  6
CONTINUOUS
 62
   249
 10
285.403316
 20
82.01
 30
0.0
 11
285.417036
 21
82.01
 31
0.0
 12
285.417036
 22
82.99
 32
0.0
 13
285.403316
 23
82.99
 33
0.0
  0
3DFACE
  8
0
  6
CONTINUOUS
 62
   249
 10
285.417036
 20
82.01
 30
0.0
 11
285.430756
 21
82.01
 31
0.0
 12
285.430756
 22
82.99
 32
0.0
 13
285.417036
 23
82.99
 33
0.0
  0
3DFACE
  8
0
  6
CONTINUOUS
 62
   249
 10
285.430756
 20
82.01
 30
0.0
 11
285.444476
 21
82.01
 31
0.0
 12
285.444476
 22
82.99
 32
0.0
 13
285.430756
 23
82.99
 33
0.0
  0
3DFACE
  8
0
  6
CONTINUOUS
 62
   249
 10
285.444476
 20
82.01
 30
0.0
 11
285.458196
 21
82.01
 31
0.0
 12
285.458196
 22
82.99
 32
0.0
 13
285.444476
 23
82.99
 33
0.0
  0
3DFACE
  8
0
  6
CONTINUOUS
 62
   249
 10
285.458196
 20
82.01
 30
0.0
 11
285.471916
 21
82.01
 31
0.0
 12
285.471916
 22
82.99
 32
0.0
 13
285.458196
 23
82.99
 33
0.0
  0
3DFACE
  8
0
  6
CONTINUOUS
 62
   249
 10
285.471916
 20
82.01
 30
0.0
 11
285.485636
 21
82.01
 31
0.0
 12
285.485636
 22
82.99
 32
0.0
 13
285.471916
 23
82.99
 33
0.0
  0
3DFACE
  8
0
  6
CONTINUOUS
 62
   249
 10
285.485636
 20
82.01
 30
0.0
 11
285.499356
 21
82.01
 31
0.0
 12
285.499356
 22
82.99
 32
0.0
 13
285.485636
 23
82.99
 33
0.0
  0
3DFACE
  8
0
  6
CONTINUOUS
 62
   249
 10
285.499356
 20
82.01
 30
0.0
 11
285.513076
 21
82.01
 31
0.0
 12
285.513076
 22
82.99
 32
0.0
 13
285.499356
 23
82.99
 33
0.0
  0
3DFACE
  8
0
  6
CONTINUOUS
 62
   249
 10
285.513076
 20
82.01
 30
0.0
 11
285.526796
 21
82.01
 31
0.0
 12
285.526796
 22
82.99
 32
0.0
 13
285.513076
 23
82.99
 33
0.0
  0
3DFACE
  8
0
  6
CONTINUOUS
 62
   249
 10
285.526796
 20
82.01
 30
0.0
 11
285.540516
 21
82.01
 31
0.0
 12
285.540516
 22
82.99
 32
0.0
 13
285.526796
 23
82.99
 33
0.0
  0
3DFACE
  8
0
  6
CONTINUOUS
 62
   249
 10
285.540516
 20
82.01
 30
0.0
 11
285.554236
 21
82.01
 31
0.0
 12
285.554236
 22
82.99
 32
0.0
 13
285.540516
 23
82.99
 33
0.0
  0
3DFACE
  8
0
  6
CONTINUOUS
 62
   249
 10
285.554236
 20
82.01
 30
0.0
 11
285.567956
 21
82.01
 31
0.0
 12
285.567956
 22
82.99
 32
0.0
 13
285.554236
 23
82.99
 33
0.0
  0
3DFACE
  8
0
  6
CONTINUOUS
 62
   249
 10
285.567956
 20
82.01
 30
0.0
 11
285.581676
 21
82.01
 31
0.0
 12
285.581676
 22
82.99
 32
0.0
 13
285.567956
 23
82.99
 33
0.0
  0
3DFACE
  8
0
  6
CONTINUOUS
 62
   249
 10
285.581676
 20
82.01
 30
0.0
 11
285.595396
 21
82.01
 31
0.0
 12
285.595396
 22
82.99
 32
0.0
 13
285.581676
 23
82.99
 33
0.0
  0
3DFACE
  8
0
  6
CONTINUOUS
 62
   249
 10
285.595396
 20
82.01
 30
0.0
 11
285.609116
 21
82.01
 31
0.0
 12
285.609116
 22
82.99
 32
0.0
 13
285.595396
 23
82.99
 33
0.0
  0
3DFACE
  8
0
  6
CONTINUOUS
 62
   249
 10
285.609116
 20
82.01
 30
0.0
 11
285.622836
 21
82.01
 31
0.0
 12
285.622836
 22
82.99
 32
0.0
 13
285.609116
 23
82.99
 33
0.0
  0
3DFACE
  8
0
  6
CONTINUOUS
 62
   249
 10
285.622836
 20
82.01
 30
0.0
 11
285.636556
 21
82.01
 31
0.0
 12
285.636556
 22
82.99
 32
0.0
 13
285.622836
 23
82.99
 33
0.0
  0
3DFACE
  8
0
  6
CONTINUOUS
 62
   249
 10
285.636556
 20
82.01
 30
0.0
 11
285.650276
 21
82.01
 31
0.0
 12
285.650276
 22
82.99
 32
0.0
 13
285.636556
 23
82.99
 33
0.0
  0
3DFACE
  8
0
  6
CONTINUOUS
 62
   249
 10
285.650276
 20
82.01
 30
0.0
 11
285.663996
 21
82.01
 31
0.0
 12
285.663996
 22
82.99
 32
0.0
 13
285.650276
 23
82.99
 33
0.0
  0
3DFACE
  8
0
  6
CONTINUOUS
 62
   249
 10
285.663996
 20
82.01
 30
0.0
 11
285.677716
 21
82.01
 31
0.0
 12
285.677716
 22
82.99
 32
0.0
 13
285.663996
 23
82.99
 33
0.0
  0
3DFACE
  8
0
  6
CONTINUOUS
 62
   249
 10
285.677716
 20
82.01
 30
0.0
 11
285.691436
 21
82.01
 31
0.0
 12
285.691436
 22
82.99
 32
0.0
 13
285.677716
 23
82.99
 33
0.0
  0
3DFACE
  8
0
  6
CONTINUOUS
 62
   249
 10
285.691436
 20
82.01
 30
0.0
 11
285.705156
 21
82.01
 31
0.0
 12
285.705156
 22
82.99
 32
0.0
 13
285.691436
 23
82.99
 33
0.0
  0
3DFACE
  8
0
  6
CONTINUOUS
 62
   249
 10
285.705156
 20
82.01
 30
0.0
 11
285.718876
 21
82.01
 31
0.0
 12
285.718876
 22
82.99
 32
0.0
 13
285.705156
 23
82.99
 33
0.0
  0
3DFACE
  8
0
  6
CONTINUOUS
 62
   249
 10
285.718876
 20
82.01
 30
0.0
 11
285.732596
 21
82.01
 31
0.0
 12
285.732596
 22
82.99
 32
0.0
 13
285.718876
 23
82.99
 33
0.0
  0
3DFACE
  8
0
  6
CONTINUOUS
 62
   249
 10
285.732596
 20
82.01
 30
0.0
 11
285.746316
 21
82.01
 31
0.0
 12
285.746316
 22
82.99
 32
0.0
 13
285.732596
 23
82.99
 33
0.0
  0
3DFACE
  8
0
  6
CONTINUOUS
 62
   249
 10
285.746316
 20
82.01
 30
0.0
 11
285.760036
 21
82.01
 31
0.0
 12
285.760036
 22
82.99
 32
0.0
 13
285.746316
 23
82.99
 33
0.0
  0
3DFACE
  8
0
  6
CONTINUOUS
 62
   249
 10
285.760036
 20
82.01
 30
0.0
 11
285.773756
 21
82.01
 31
0.0
 12
285.773756
 22
82.99
 32
0.0
 13
285.760036
 23
82.99
 33
0.0
  0
3DFACE
  8
0
  6
CONTINUOUS
 62
   249
 10
285.773756
 20
82.01
 30
0.0
 11
285.787476
 21
82.01
 31
0.0
 12
285.787476
 22
82.99
 32
0.0
 13
285.773756
 23
82.99
 33
0.0
  0
3DFACE
  8
0
  6
CONTINUOUS
 62
   249
 10
285.787476
 20
82.01
 30
0.0
 11
285.801196
 21
82.01
 31
0.0
 12
285.801196
 22
82.99
 32
0.0
 13
285.787476
 23
82.99
 33
0.0
  0
3DFACE
  8
0
  6
CONTINUOUS
 62
   249
 10
285.801196
 20
82.01
 30
0.0
 11
285.814916
 21
82.01
 31
0.0
 12
285.814916
 22
82.99
 32
0.0
 13
285.801196
 23
82.99
 33
0.0
  0
3DFACE
  8
0
  6
CONTINUOUS
 62
   249
 10
285.814916
 20
82.01
 30
0.0
 11
285.828636
 21
82.01
 31
0.0
 12
285.828636
 22
82.99
 32
0.0
 13
285.814916
 23
82.99
 33
0.0
  0
3DFACE
  8
0
  6
CONTINUOUS
 62
   249
 10
285.828636
 20
82.01
 30
0.0
 11
285.842356
 21
82.01
 31
0.0
 12
285.842356
 22
82.99
 32
0.0
 13
285.828636
 23
82.99
 33
0.0
  0
3DFACE
  8
0
  6
CONTINUOUS
 62
   249
 10
285.842356
 20
82.01
 30
0.0
 11
285.856076
 21
82.01
 31
0.0
 12
285.856076
 22
82.99
 32
0.0
 13
285.842356
 23
82.99
 33
0.0
  0
3DFACE
  8
0
  6
CONTINUOUS
 62
   249
 10
285.856076
 20
82.01
 30
0.0
 11
285.869796
 21
82.01
 31
0.0
 12
285.869796
 22
82.99
 32
0.0
 13
285.856076
 23
82.99
 33
0.0
  0
3DFACE
  8
0
  6
CONTINUOUS
 62
   249
 10
285.869796
 20
82.01
 30
0.0
 11
285.883516
 21
82.01
 31
0.0
 12
285.883516
 22
82.99
 32
0.0
 13
285.869796
 23
82.99
 33
0.0
  0
3DFACE
  8
0
  6
CONTINUOUS
 62
   249
 10
285.883516
 20
82.01
 30
0.0
 11
285.897236
 21
82.01
 31
0.0
 12
285.897236
 22
82.99
 32
0.0
 13
285.883516
 23
82.99
 33
0.0
  0
3DFACE
  8
0
  6
CONTINUOUS
 62
   249
 10
285.897236
 20
82.01
 30
0.0
 11
285.910956
 21
82.01
 31
0.0
 12
285.910956
 22
82.99
 32
0.0
 13
285.897236
 23
82.99
 33
0.0
  0
3DFACE
  8
0
  6
CONTINUOUS
 62
   249
 10
285.910956
 20
82.01
 30
0.0
 11
285.924676
 21
82.01
 31
0.0
 12
285.924676
 22
82.99
 32
0.0
 13
285.910956
 23
82.99
 33
0.0
  0
3DFACE
  8
0
  6
CONTINUOUS
 62
   249
 10
285.924676
 20
82.01
 30
0.0
 11
285.938396
 21
82.01
 31
0.0
 12
285.938396
 22
82.99
 32
0.0
 13
285.924676
 23
82.99
 33
0.0
  0
3DFACE
  8
0
  6
CONTINUOUS
 62
   249
 10
285.938396
 20
82.01
 30
0.0
 11
285.952116
 21
82.01
 31
0.0
 12
285.952116
 22
82.99
 32
0.0
 13
285.938396
 23
82.99
 33
0.0
  0
3DFACE
  8
0
  6
CONTINUOUS
 62
   249
 10
285.952116
 20
82.01
 30
0.0
 11
285.965836
 21
82.01
 31
0.0
 12
285.965836
 22
82.99
 32
0.0
 13
285.952116
 23
82.99
 33
0.0
  0
3DFACE
  8
0
  6
CONTINUOUS
 62
   249
 10
285.965836
 20
82.01
 30
0.0
 11
285.979556
 21
82.01
 31
0.0
 12
285.979556
 22
82.99
 32
0.0
 13
285.965836
 23
82.99
 33
0.0
  0
3DFACE
  8
0
  6
CONTINUOUS
 62
   249
 10
285.979556
 20
82.01
 30
0.0
 11
285.993276
 21
82.01
 31
0.0
 12
285.993276
 22
82.99
 32
0.0
 13
285.979556
 23
82.99
 33
0.0
  0
3DFACE
  8
0
  6
CONTINUOUS
 62
   249
 10
285.993276
 20
82.01
 30
0.0
 11
286.006996
 21
82.01
 31
0.0
 12
286.006996
 22
82.99
 32
0.0
 13
285.993276
 23
82.99
 33
0.0
  0
3DFACE
  8
0
  6
CONTINUOUS
 62
   249
 10
286.006996
 20
82.01
 30
0.0
 11
286.020716
 21
82.01
 31
0.0
 12
286.020716
 22
82.99
 32
0.0
 13
286.006996
 23
82.99
 33
0.0
  0
3DFACE
  8
0
  6
CONTINUOUS
 62
   249
 10
286.020716
 20
82.01
 30
0.0
 11
286.034436
 21
82.01
 31
0.0
 12
286.034436
 22
82.99
 32
0.0
 13
286.020716
 23
82.99
 33
0.0
  0
3DFACE
  8
0
  6
CONTINUOUS
 62
   249
 10
286.034436
 20
82.01
 30
0.0
 11
286.048156
 21
82.01
 31
0.0
 12
286.048156
 22
82.99
 32
0.0
 13
286.034436
 23
82.99
 33
0.0
  0
3DFACE
  8
0
  6
CONTINUOUS
 62
   249
 10
286.048156
 20
82.01
 30
0.0
 11
286.061876
 21
82.01
 31
0.0
 12
286.061876
 22
82.99
 32
0.0
 13
286.048156
 23
82.99
 33
0.0
  0
3DFACE
  8
0
  6
CONTINUOUS
 62
   249
 10
286.061876
 20
82.01
 30
0.0
 11
286.075596
 21
82.01
 31
0.0
 12
286.075596
 22
82.99
 32
0.0
 13
286.061876
 23
82.99
 33
0.0
  0
3DFACE
  8
0
  6
CONTINUOUS
 62
   249
 10
286.075596
 20
82.01
 30
0.0
 11
286.089316
 21
82.01
 31
0.0
 12
286.089316
 22
82.99
 32
0.0
 13
286.075596
 23
82.99
 33
0.0
  0
3DFACE
  8
0
  6
CONTINUOUS
 62
   249
 10
286.089316
 20
82.01
 30
0.0
 11
286.103036
 21
82.01
 31
0.0
 12
286.103036
 22
82.99
 32
0.0
 13
286.089316
 23
82.99
 33
0.0
  0
3DFACE
  8
0
  6
CONTINUOUS
 62
   249
 10
286.103036
 20
82.01
 30
0.0
 11
286.116756
 21
82.01
 31
0.0
 12
286.116756
 22
82.99
 32
0.0
 13
286.103036
 23
82.99
 33
0.0
  0
3DFACE
  8
0
  6
CONTINUOUS
 62
   249
 10
286.116756
 20
82.01
 30
0.0
 11
286.130476
 21
82.01
 31
0.0
 12
286.130476
 22
82.99
 32
0.0
 13
286.116756
 23
82.99
 33
0.0
  0
3DFACE
  8
0
  6
CONTINUOUS
 62
   249
 10
286.130476
 20
82.01
 30
0.0
 11
286.144196
 21
82.01
 31
0.0
 12
286.144196
 22
82.99
 32
0.0
 13
286.130476
 23
82.99
 33
0.0
  0
3DFACE
  8
0
  6
CONTINUOUS
 62
   249
 10
286.144196
 20
82.01
 30
0.0
 11
286.157916
 21
82.01
 31
0.0
 12
286.157916
 22
82.99
 32
0.0
 13
286.144196
 23
82.99
 33
0.0
  0
3DFACE
  8
0
  6
CONTINUOUS
 62
   249
 10
286.157916
 20
82.01
 30
0.0
 11
286.171636
 21
82.01
 31
0.0
 12
286.171636
 22
82.99
 32
0.0
 13
286.157916
 23
82.99
 33
0.0
  0
3DFACE
  8
0
  6
CONTINUOUS
 62
   249
 10
286.171636
 20
82.01
 30
0.0
 11
286.185356
 21
82.01
 31
0.0
 12
286.185356
 22
82.99
 32
0.0
 13
286.171636
 23
82.99
 33
0.0
  0
3DFACE
  8
0
  6
CONTINUOUS
 62
   249
 10
286.185356
 20
82.01
 30
0.0
 11
286.199076
 21
82.01
 31
0.0
 12
286.199076
 22
82.99
 32
0.0
 13
286.185356
 23
82.99
 33
0.0
  0
3DFACE
  8
0
  6
CONTINUOUS
 62
   249
 10
286.199076
 20
82.01
 30
0.0
 11
286.212796
 21
82.01
 31
0.0
 12
286.212796
 22
82.99
 32
0.0
 13
286.199076
 23
82.99
 33
0.0
  0
3DFACE
  8
0
  6
CONTINUOUS
 62
   249
 10
286.212796
 20
82.01
 30
0.0
 11
286.226516
 21
82.01
 31
0.0
 12
286.226516
 22
82.99
 32
0.0
 13
286.212796
 23
82.99
 33
0.0
  0
3DFACE
  8
0
  6
CONTINUOUS
 62
   249
 10
286.226516
 20
82.01
 30
0.0
 11
286.240236
 21
82.01
 31
0.0
 12
286.240236
 22
82.99
 32
0.0
 13
286.226516
 23
82.99
 33
0.0
  0
3DFACE
  8
0
  6
CONTINUOUS
 62
   249
 10
286.240236
 20
82.01
 30
0.0
 11
286.253956
 21
82.01
 31
0.0
 12
286.253956
 22
82.99
 32
0.0
 13
286.240236
 23
82.99
 33
0.0
  0
3DFACE
  8
0
  6
CONTINUOUS
 62
   249
 10
286.253956
 20
82.01
 30
0.0
 11
286.267676
 21
82.01
 31
0.0
 12
286.267676
 22
82.99
 32
0.0
 13
286.253956
 23
82.99
 33
0.0
  0
3DFACE
  8
0
  6
CONTINUOUS
 62
   249
 10
286.267676
 20
82.01
 30
0.0
 11
286.281396
 21
82.01
 31
0.0
 12
286.281396
 22
82.99
 32
0.0
 13
286.267676
 23
82.99
 33
0.0
  0
3DFACE
  8
0
  6
CONTINUOUS
 62
   249
 10
286.281396
 20
82.01
 30
0.0
 11
286.295116
 21
82.01
 31
0.0
 12
286.295116
 22
82.99
 32
0.0
 13
286.281396
 23
82.99
 33
0.0
  0
3DFACE
  8
0
  6
CONTINUOUS
 62
   249
 10
286.295116
 20
82.01
 30
0.0
 11
286.308836
 21
82.01
 31
0.0
 12
286.308836
 22
82.99
 32
0.0
 13
286.295116
 23
82.99
 33
0.0
  0
3DFACE
  8
0
  6
CONTINUOUS
 62
   249
 10
286.308836
 20
82.01
 30
0.0
 11
286.322556
 21
82.01
 31
0.0
 12
286.322556
 22
82.99
 32
0.0
 13
286.308836
 23
82.99
 33
0.0
  0
3DFACE
  8
0
  6
CONTINUOUS
 62
   249
 10
286.322556
 20
82.01
 30
0.0
 11
286.336276
 21
82.01
 31
0.0
 12
286.336276
 22
82.99
 32
0.0
 13
286.322556
 23
82.99
 33
0.0
  0
3DFACE
  8
0
  6
CONTINUOUS
 62
   249
 10
286.336276
 20
82.01
 30
0.0
 11
286.349996
 21
82.01
 31
0.0
 12
286.349996
 22
82.99
 32
0.0
 13
286.336276
 23
82.99
 33
0.0
  0
3DFACE
  8
0
  6
CONTINUOUS
 62
   249
 10
286.349996
 20
82.01
 30
0.0
 11
286.363716
 21
82.01
 31
0.0
 12
286.363716
 22
82.99
 32
0.0
 13
286.349996
 23
82.99
 33
0.0
  0
3DFACE
  8
0
  6
CONTINUOUS
 62
   249
 10
286.363716
 20
82.01
 30
0.0
 11
286.377436
 21
82.01
 31
0.0
 12
286.377436
 22
82.99
 32
0.0
 13
286.363716
 23
82.99
 33
0.0
  0
3DFACE
  8
0
  6
CONTINUOUS
 62
   249
 10
286.377436
 20
82.01
 30
0.0
 11
286.391156
 21
82.01
 31
0.0
 12
286.391156
 22
82.99
 32
0.0
 13
286.377436
 23
82.99
 33
0.0
  0
3DFACE
  8
0
  6
CONTINUOUS
 62
   249
 10
286.391156
 20
82.01
 30
0.0
 11
286.404876
 21
82.01
 31
0.0
 12
286.404876
 22
82.99
 32
0.0
 13
286.391156
 23
82.99
 33
0.0
  0
3DFACE
  8
0
  6
CONTINUOUS
 62
   249
 10
286.404876
 20
82.01
 30
0.0
 11
286.418596
 21
82.01
 31
0.0
 12
286.418596
 22
82.99
 32
0.0
 13
286.404876
 23
82.99
 33
0.0
  0
3DFACE
  8
0
  6
CONTINUOUS
 62
   249
 10
286.418596
 20
82.01
 30
0.0
 11
286.432316
 21
82.01
 31
0.0
 12
286.432316
 22
82.99
 32
0.0
 13
286.418596
 23
82.99
 33
0.0
  0
3DFACE
  8
0
  6
CONTINUOUS
 62
   249
 10
286.432316
 20
82.01
 30
0.0
 11
286.446036
 21
82.01
 31
0.0
 12
286.446036
 22
82.99
 32
0.0
 13
286.432316
 23
82.99
 33
0.0
  0
3DFACE
  8
0
  6
CONTINUOUS
 62
   249
 10
286.446036
 20
82.01
 30
0.0
 11
286.459756
 21
82.01
 31
0.0
 12
286.459756
 22
82.99
 32
0.0
 13
286.446036
 23
82.99
 33
0.0
  0
3DFACE
  8
0
  6
CONTINUOUS
 62
   249
 10
286.459756
 20
82.01
 30
0.0
 11
286.473476
 21
82.01
 31
0.0
 12
286.473476
 22
82.99
 32
0.0
 13
286.459756
 23
82.99
 33
0.0
  0
3DFACE
  8
0
  6
CONTINUOUS
 62
   249
 10
286.473476
 20
82.01
 30
0.0
 11
286.487196
 21
82.01
 31
0.0
 12
286.487196
 22
82.99
 32
0.0
 13
286.473476
 23
82.99
 33
0.0
  0
3DFACE
  8
0
  6
CONTINUOUS
 62
   249
 10
286.487196
 20
82.01
 30
0.0
 11
286.500916
 21
82.01
 31
0.0
 12
286.500916
 22
82.99
 32
0.0
 13
286.487196
 23
82.99
 33
0.0
  0
3DFACE
  8
0
  6
CONTINUOUS
 62
   249
 10
286.500916
 20
82.01
 30
0.0
 11
286.514636
 21
82.01
 31
0.0
 12
286.514636
 22
82.99
 32
0.0
 13
286.500916
 23
82.99
 33
0.0
  0
3DFACE
  8
0
  6
CONTINUOUS
 62
   249
 10
286.514636
 20
82.01
 30
0.0
 11
286.528356
 21
82.01
 31
0.0
 12
286.528356
 22
82.99
 32
0.0
 13
286.514636
 23
82.99
 33
0.0
  0
3DFACE
  8
0
  6
CONTINUOUS
 62
   249
 10
286.528356
 20
82.01
 30
0.0
 11
286.542076
 21
82.01
 31
0.0
 12
286.542076
 22
82.99
 32
0.0
 13
286.528356
 23
82.99
 33
0.0
  0
3DFACE
  8
0
  6
CONTINUOUS
 62
   249
 10
286.542076
 20
82.01
 30
0.0
 11
286.555796
 21
82.01
 31
0.0
 12
286.555796
 22
82.99
 32
0.0
 13
286.542076
 23
82.99
 33
0.0
  0
3DFACE
  8
0
  6
CONTINUOUS
 62
   249
 10
286.555796
 20
82.01
 30
0.0
 11
286.569516
 21
82.01
 31
0.0
 12
286.569516
 22
82.99
 32
0.0
 13
286.555796
 23
82.99
 33
0.0
  0
3DFACE
  8
0
  6
CONTINUOUS
 62
   249
 10
286.569516
 20
82.01
 30
0.0
 11
286.583236
 21
82.01
 31
0.0
 12
286.583236
 22
82.99
 32
0.0
 13
286.569516
 23
82.99
 33
0.0
  0
3DFACE
  8
0
  6
CONTINUOUS
 62
   249
 10
286.583236
 20
82.01
 30
0.0
 11
286.596956
 21
82.01
 31
0.0
 12
286.596956
 22
82.99
 32
0.0
 13
286.583236
 23
82.99
 33
0.0
  0
3DFACE
  8
0
  6
CONTINUOUS
 62
   249
 10
286.596956
 20
82.01
 30
0.0
 11
286.610676
 21
82.01
 31
0.0
 12
286.610676
 22
82.99
 32
0.0
 13
286.596956
 23
82.99
 33
0.0
  0
3DFACE
  8
0
  6
CONTINUOUS
 62
   249
 10
286.610676
 20
82.01
 30
0.0
 11
286.624396
 21
82.01
 31
0.0
 12
286.624396
 22
82.99
 32
0.0
 13
286.610676
 23
82.99
 33
0.0
  0
3DFACE
  8
0
  6
CONTINUOUS
 62
   249
 10
286.624396
 20
82.01
 30
0.0
 11
286.638116
 21
82.01
 31
0.0
 12
286.638116
 22
82.99
 32
0.0
 13
286.624396
 23
82.99
 33
0.0
  0
3DFACE
  8
0
  6
CONTINUOUS
 62
   249
 10
286.638116
 20
82.01
 30
0.0
 11
286.651836
 21
82.01
 31
0.0
 12
286.651836
 22
82.99
 32
0.0
 13
286.638116
 23
82.99
 33
0.0
  0
3DFACE
  8
0
  6
CONTINUOUS
 62
   249
 10
286.651836
 20
82.01
 30
0.0
 11
286.665556
 21
82.01
 31
0.0
 12
286.665556
 22
82.99
 32
0.0
 13
286.651836
 23
82.99
 33
0.0
  0
3DFACE
  8
0
  6
CONTINUOUS
 62
   249
 10
286.665556
 20
82.01
 30
0.0
 11
286.679276
 21
82.01
 31
0.0
 12
286.679276
 22
82.99
 32
0.0
 13
286.665556
 23
82.99
 33
0.0
  0
3DFACE
  8
0
  6
CONTINUOUS
 62
   249
 10
286.679276
 20
82.01
 30
0.0
 11
286.692996
 21
82.01
 31
0.0
 12
286.692996
 22
82.99
 32
0.0
 13
286.679276
 23
82.99
 33
0.0
  0
3DFACE
  8
0
  6
CONTINUOUS
 62
   249
 10
286.692996
 20
82.01
 30
0.0
 11
286.706716
 21
82.01
 31
0.0
 12
286.706716
 22
82.99
 32
0.0
 13
286.692996
 23
82.99
 33
0.0
  0
3DFACE
  8
0
  6
CONTINUOUS
 62
   249
 10
286.706716
 20
82.01
 30
0.0
 11
286.720436
 21
82.01
 31
0.0
 12
286.720436
 22
82.99
 32
0.0
 13
286.706716
 23
82.99
 33
0.0
  0
3DFACE
  8
0
  6
CONTINUOUS
 62
   249
 10
286.720436
 20
82.01
 30
0.0
 11
286.734156
 21
82.01
 31
0.0
 12
286.734156
 22
82.99
 32
0.0
 13
286.720436
 23
82.99
 33
0.0
  0
3DFACE
  8
0
  6
CONTINUOUS
 62
   249
 10
286.734156
 20
82.01
 30
0.0
 11
286.747876
 21
82.01
 31
0.0
 12
286.747876
 22
82.99
 32
0.0
 13
286.734156
 23
82.99
 33
0.0
  0
3DFACE
  8
0
  6
CONTINUOUS
 62
   249
 10
286.747876
 20
82.01
 30
0.0
 11
286.761596
 21
82.01
 31
0.0
 12
286.761596
 22
82.99
 32
0.0
 13
286.747876
 23
82.99
 33
0.0
  0
3DFACE
  8
0
  6
CONTINUOUS
 62
   249
 10
286.761596
 20
82.01
 30
0.0
 11
286.775316
 21
82.01
 31
0.0
 12
286.775316
 22
82.99
 32
0.0
 13
286.761596
 23
82.99
 33
0.0
  0
3DFACE
  8
0
  6
CONTINUOUS
 62
   249
 10
286.775316
 20
82.01
 30
0.0
 11
286.789036
 21
82.01
 31
0.0
 12
286.789036
 22
82.99
 32
0.0
 13
286.775316
 23
82.99
 33
0.0
  0
3DFACE
  8
0
  6
CONTINUOUS
 62
   249
 10
286.789036
 20
82.01
 30
0.0
 11
286.802756
 21
82.01
 31
0.0
 12
286.802756
 22
82.99
 32
0.0
 13
286.789036
 23
82.99
 33
0.0
  0
3DFACE
  8
0
  6
CONTINUOUS
 62
   249
 10
286.802756
 20
82.01
 30
0.0
 11
286.816476
 21
82.01
 31
0.0
 12
286.816476
 22
82.99
 32
0.0
 13
286.802756
 23
82.99
 33
0.0
  0
3DFACE
  8
0
  6
CONTINUOUS
 62
   249
 10
286.816476
 20
82.01
 30
0.0
 11
286.830196
 21
82.01
 31
0.0
 12
286.830196
 22
82.99
 32
0.0
 13
286.816476
 23
82.99
 33
0.0
  0
3DFACE
  8
0
  6
CONTINUOUS
 62
   249
 10
286.830196
 20
82.01
 30
0.0
 11
286.843916
 21
82.01
 31
0.0
 12
286.843916
 22
82.99
 32
0.0
 13
286.830196
 23
82.99
 33
0.0
  0
3DFACE
  8
0
  6
CONTINUOUS
 62
   249
 10
286.843916
 20
82.01
 30
0.0
 11
286.857636
 21
82.01
 31
0.0
 12
286.857636
 22
82.99
 32
0.0
 13
286.843916
 23
82.99
 33
0.0
  0
3DFACE
  8
0
  6
CONTINUOUS
 62
   249
 10
286.857636
 20
82.01
 30
0.0
 11
286.871356
 21
82.01
 31
0.0
 12
286.871356
 22
82.99
 32
0.0
 13
286.857636
 23
82.99
 33
0.0
  0
3DFACE
  8
0
  6
CONTINUOUS
 62
   249
 10
286.871356
 20
82.01
 30
0.0
 11
286.885076
 21
82.01
 31
0.0
 12
286.885076
 22
82.99
 32
0.0
 13
286.871356
 23
82.99
 33
0.0
  0
3DFACE
  8
0
  6
CONTINUOUS
 62
   249
 10
286.885076
 20
82.01
 30
0.0
 11
286.898796
 21
82.01
 31
0.0
 12
286.898796
 22
82.99
 32
0.0
 13
286.885076
 23
82.99
 33
0.0
  0
3DFACE
  8
0
  6
CONTINUOUS
 62
   249
 10
286.898796
 20
82.01
 30
0.0
 11
286.912516
 21
82.01
 31
0.0
 12
286.912516
 22
82.99
 32
0.0
 13
286.898796
 23
82.99
 33
0.0
  0
3DFACE
  8
0
  6
CONTINUOUS
 62
   249
 10
286.912516
 20
82.01
 30
0.0
 11
286.926236
 21
82.01
 31
0.0
 12
286.926236
 22
82.99
 32
0.0
 13
286.912516
 23
82.99
 33
0.0
  0
3DFACE
  8
0
  6
CONTINUOUS
 62
   249
 10
286.926236
 20
82.01
 30
0.0
 11
286.939956
 21
82.01
 31
0.0
 12
286.939956
 22
82.99
 32
0.0
 13
286.926236
 23
82.99
 33
0.0
  0
3DFACE
  8
0
  6
CONTINUOUS
 62
   249
 10
286.939956
 20
82.01
 30
0.0
 11
286.953676
 21
82.01
 31
0.0
 12
286.953676
 22
82.99
 32
0.0
 13
286.939956
 23
82.99
 33
0.0
  0
3DFACE
  8
0
  6
CONTINUOUS
 62
   249
 10
286.953676
 20
82.01
 30
0.0
 11
286.967396
 21
82.01
 31
0.0
 12
286.967396
 22
82.99
 32
0.0
 13
286.953676
 23
82.99
 33
0.0
  0
3DFACE
  8
0
  6
CONTINUOUS
 62
   249
 10
286.967396
 20
82.01
 30
0.0
 11
286.981116
 21
82.01
 31
0.0
 12
286.981116
 22
82.99
 32
0.0
 13
286.967396
 23
82.99
 33
0.0
  0
3DFACE
  8
0
  6
CONTINUOUS
 62
   249
 10
286.981116
 20
82.01
 30
0.0
 11
286.994836
 21
82.01
 31
0.0
 12
286.994836
 22
82.99
 32
0.0
 13
286.981116
 23
82.99
 33
0.0
  0
3DFACE
  8
0
  6
CONTINUOUS
 62
   249
 10
286.994836
 20
82.01
 30
0.0
 11
287.008556
 21
82.01
 31
0.0
 12
287.008556
 22
82.99
 32
0.0
 13
286.994836
 23
82.99
 33
0.0
  0
3DFACE
  8
0
  6
CONTINUOUS
 62
   249
 10
287.008556
 20
82.01
 30
0.0
 11
287.022276
 21
82.01
 31
0.0
 12
287.022276
 22
82.99
 32
0.0
 13
287.008556
 23
82.99
 33
0.0
  0
3DFACE
  8
0
  6
CONTINUOUS
 62
   249
 10
287.022276
 20
82.01
 30
0.0
 11
287.035996
 21
82.01
 31
0.0
 12
287.035996
 22
82.99
 32
0.0
 13
287.022276
 23
82.99
 33
0.0
  0
3DFACE
  8
0
  6
CONTINUOUS
 62
   249
 10
287.035996
 20
82.01
 30
0.0
 11
287.049716
 21
82.01
 31
0.0
 12
287.049716
 22
82.99
 32
0.0
 13
287.035996
 23
82.99
 33
0.0
  0
3DFACE
  8
0
  6
CONTINUOUS
 62
   249
 10
287.049716
 20
82.01
 30
0.0
 11
287.063436
 21
82.01
 31
0.0
 12
287.063436
 22
82.99
 32
0.0
 13
287.049716
 23
82.99
 33
0.0
  0
3DFACE
  8
0
  6
CONTINUOUS
 62
   249
 10
287.063436
 20
82.01
 30
0.0
 11
287.077156
 21
82.01
 31
0.0
 12
287.077156
 22
82.99
 32
0.0
 13
287.063436
 23
82.99
 33
0.0
  0
3DFACE
  8
0
  6
CONTINUOUS
 62
   249
 10
287.077156
 20
82.01
 30
0.0
 11
287.090876
 21
82.01
 31
0.0
 12
287.090876
 22
82.99
 32
0.0
 13
287.077156
 23
82.99
 33
0.0
  0
3DFACE
  8
0
  6
CONTINUOUS
 62
   249
 10
287.090876
 20
82.01
 30
0.0
 11
287.104596
 21
82.01
 31
0.0
 12
287.104596
 22
82.99
 32
0.0
 13
287.090876
 23
82.99
 33
0.0
  0
3DFACE
  8
0
  6
CONTINUOUS
 62
   249
 10
287.104596
 20
82.01
 30
0.0
 11
287.118316
 21
82.01
 31
0.0
 12
287.118316
 22
82.99
 32
0.0
 13
287.104596
 23
82.99
 33
0.0
  0
3DFACE
  8
0
  6
CONTINUOUS
 62
   249
 10
287.118316
 20
82.01
 30
0.0
 11
287.132036
 21
82.01
 31
0.0
 12
287.132036
 22
82.99
 32
0.0
 13
287.118316
 23
82.99
 33
0.0
  0
3DFACE
  8
0
  6
CONTINUOUS
 62
   249
 10
287.132036
 20
82.01
 30
0.0
 11
287.145756
 21
82.01
 31
0.0
 12
287.145756
 22
82.99
 32
0.0
 13
287.132036
 23
82.99
 33
0.0
  0
3DFACE
  8
0
  6
CONTINUOUS
 62
   249
 10
287.145756
 20
82.01
 30
0.0
 11
287.159476
 21
82.01
 31
0.0
 12
287.159476
 22
82.99
 32
0.0
 13
287.145756
 23
82.99
 33
0.0
  0
3DFACE
  8
0
  6
CONTINUOUS
 62
   249
 10
287.159476
 20
82.01
 30
0.0
 11
287.173196
 21
82.01
 31
0.0
 12
287.173196
 22
82.99
 32
0.0
 13
287.159476
 23
82.99
 33
0.0
  0
3DFACE
  8
0
  6
CONTINUOUS
 62
   249
 10
287.173196
 20
82.01
 30
0.0
 11
287.186916
 21
82.01
 31
0.0
 12
287.186916
 22
82.99
 32
0.0
 13
287.173196
 23
82.99
 33
0.0
  0
3DFACE
  8
0
  6
CONTINUOUS
 62
   249
 10
287.186916
 20
82.01
 30
0.0
 11
287.200636
 21
82.01
 31
0.0
 12
287.200636
 22
82.99
 32
0.0
 13
287.186916
 23
82.99
 33
0.0
  0
3DFACE
  8
0
  6
CONTINUOUS
 62
   249
 10
287.200636
 20
82.01
 30
0.0
 11
287.214356
 21
82.01
 31
0.0
 12
287.214356
 22
82.99
 32
0.0
 13
287.200636
 23
82.99
 33
0.0
  0
3DFACE
  8
0
  6
CONTINUOUS
 62
   249
 10
287.214356
 20
82.01
 30
0.0
 11
287.228076
 21
82.01
 31
0.0
 12
287.228076
 22
82.99
 32
0.0
 13
287.214356
 23
82.99
 33
0.0
  0
3DFACE
  8
0
  6
CONTINUOUS
 62
   249
 10
287.228076
 20
82.01
 30
0.0
 11
287.241796
 21
82.01
 31
0.0
 12
287.241796
 22
82.99
 32
0.0
 13
287.228076
 23
82.99
 33
0.0
  0
3DFACE
  8
0
  6
CONTINUOUS
 62
   249
 10
287.241796
 20
82.01
 30
0.0
 11
287.255516
 21
82.01
 31
0.0
 12
287.255516
 22
82.99
 32
0.0
 13
287.241796
 23
82.99
 33
0.0
  0
3DFACE
  8
0
  6
CONTINUOUS
 62
   249
 10
287.255516
 20
82.01
 30
0.0
 11
287.269236
 21
82.01
 31
0.0
 12
287.269236
 22
82.99
 32
0.0
 13
287.255516
 23
82.99
 33
0.0
  0
3DFACE
  8
0
  6
CONTINUOUS
 62
   249
 10
287.269236
 20
82.01
 30
0.0
 11
287.282956
 21
82.01
 31
0.0
 12
287.282956
 22
82.99
 32
0.0
 13
287.269236
 23
82.99
 33
0.0
  0
3DFACE
  8
0
  6
CONTINUOUS
 62
   249
 10
287.282956
 20
82.01
 30
0.0
 11
287.296676
 21
82.01
 31
0.0
 12
287.296676
 22
82.99
 32
0.0
 13
287.282956
 23
82.99
 33
0.0
  0
3DFACE
  8
0
  6
CONTINUOUS
 62
   249
 10
287.296676
 20
82.01
 30
0.0
 11
287.310396
 21
82.01
 31
0.0
 12
287.310396
 22
82.99
 32
0.0
 13
287.296676
 23
82.99
 33
0.0
  0
3DFACE
  8
0
  6
CONTINUOUS
 62
   249
 10
287.310396
 20
82.01
 30
0.0
 11
287.324116
 21
82.01
 31
0.0
 12
287.324116
 22
82.99
 32
0.0
 13
287.310396
 23
82.99
 33
0.0
  0
3DFACE
  8
0
  6
CONTINUOUS
 62
   249
 10
287.324116
 20
82.01
 30
0.0
 11
287.337836
 21
82.01
 31
0.0
 12
287.337836
 22
82.99
 32
0.0
 13
287.324116
 23
82.99
 33
0.0
  0
3DFACE
  8
0
  6
CONTINUOUS
 62
   249
 10
287.337836
 20
82.01
 30
0.0
 11
287.351556
 21
82.01
 31
0.0
 12
287.351556
 22
82.99
 32
0.0
 13
287.337836
 23
82.99
 33
0.0
  0
3DFACE
  8
0
  6
CONTINUOUS
 62
   249
 10
287.351556
 20
82.01
 30
0.0
 11
287.365276
 21
82.01
 31
0.0
 12
287.365276
 22
82.99
 32
0.0
 13
287.351556
 23
82.99
 33
0.0
  0
3DFACE
  8
0
  6
CONTINUOUS
 62
   249
 10
287.365276
 20
82.01
 30
0.0
 11
287.378996
 21
82.01
 31
0.0
 12
287.378996
 22
82.99
 32
0.0
 13
287.365276
 23
82.99
 33
0.0
  0
3DFACE
  8
0
  6
CONTINUOUS
 62
   249
 10
287.378996
 20
82.01
 30
0.0
 11
287.392716
 21
82.01
 31
0.0
 12
287.392716
 22
82.99
 32
0.0
 13
287.378996
 23
82.99
 33
0.0
  0
3DFACE
  8
0
  6
CONTINUOUS
 62
   249
 10
287.392716
 20
82.01
 30
0.0
 11
287.406436
 21
82.01
 31
0.0
 12
287.406436
 22
82.99
 32
0.0
 13
287.392716
 23
82.99
 33
0.0
  0
3DFACE
  8
0
  6
CONTINUOUS
 62
   249
 10
287.406436
 20
82.01
 30
0.0
 11
287.420156
 21
82.01
 31
0.0
 12
287.420156
 22
82.99
 32
0.0
 13
287.406436
 23
82.99
 33
0.0
  0
3DFACE
  8
0
  6
CONTINUOUS
 62
   249
 10
287.420156
 20
82.01
 30
0.0
 11
287.433876
 21
82.01
 31
0.0
 12
287.433876
 22
82.99
 32
0.0
 13
287.420156
 23
82.99
 33
0.0
  0
3DFACE
  8
0
  6
CONTINUOUS
 62
   249
 10
287.433876
 20
82.01
 30
0.0
 11
287.447596
 21
82.01
 31
0.0
 12
287.447596
 22
82.99
 32
0.0
 13
287.433876
 23
82.99
 33
0.0
  0
3DFACE
  8
0
  6
CONTINUOUS
 62
   249
 10
287.447596
 20
82.01
 30
0.0
 11
287.461316
 21
82.01
 31
0.0
 12
287.461316
 22
82.99
 32
0.0
 13
287.447596
 23
82.99
 33
0.0
  0
3DFACE
  8
0
  6
CONTINUOUS
 62
   249
 10
287.461316
 20
82.01
 30
0.0
 11
287.475036
 21
82.01
 31
0.0
 12
287.475036
 22
82.99
 32
0.0
 13
287.461316
 23
82.99
 33
0.0
  0
3DFACE
  8
0
  6
CONTINUOUS
 62
   249
 10
287.475036
 20
82.01
 30
0.0
 11
287.488756
 21
82.01
 31
0.0
 12
287.488756
 22
82.99
 32
0.0
 13
287.475036
 23
82.99
 33
0.0
  0
3DFACE
  8
0
  6
CONTINUOUS
 62
   249
 10
287.488756
 20
82.01
 30
0.0
 11
287.502476
 21
82.01
 31
0.0
 12
287.502476
 22
82.99
 32
0.0
 13
287.488756
 23
82.99
 33
0.0
  0
3DFACE
  8
0
  6
CONTINUOUS
 62
   249
 10
287.502476
 20
82.01
 30
0.0
 11
287.516196
 21
82.01
 31
0.0
 12
287.516196
 22
82.99
 32
0.0
 13
287.502476
 23
82.99
 33
0.0
  0
3DFACE
  8
0
  6
CONTINUOUS
 62
   249
 10
287.516196
 20
82.01
 30
0.0
 11
287.529916
 21
82.01
 31
0.0
 12
287.529916
 22
82.99
 32
0.0
 13
287.516196
 23
82.99
 33
0.0
  0
3DFACE
  8
0
  6
CONTINUOUS
 62
   249
 10
287.529916
 20
82.01
 30
0.0
 11
287.543636
 21
82.01
 31
0.0
 12
287.543636
 22
82.99
 32
0.0
 13
287.529916
 23
82.99
 33
0.0
  0
3DFACE
  8
0
  6
CONTINUOUS
 62
   249
 10
287.543636
 20
82.01
 30
0.0
 11
287.557356
 21
82.01
 31
0.0
 12
287.557356
 22
82.99
 32
0.0
 13
287.543636
 23
82.99
 33
0.0
  0
3DFACE
  8
0
  6
CONTINUOUS
 62
   249
 10
287.557356
 20
82.01
 30
0.0
 11
287.571076
 21
82.01
 31
0.0
 12
287.571076
 22
82.99
 32
0.0
 13
287.557356
 23
82.99
 33
0.0
  0
3DFACE
  8
0
  6
CONTINUOUS
 62
   249
 10
287.571076
 20
82.01
 30
0.0
 11
287.584796
 21
82.01
 31
0.0
 12
287.584796
 22
82.99
 32
0.0
 13
287.571076
 23
82.99
 33
0.0
  0
3DFACE
  8
0
  6
CONTINUOUS
 62
   249
 10
287.584796
 20
82.01
 30
0.0
 11
287.598516
 21
82.01
 31
0.0
 12
287.598516
 22
82.99
 32
0.0
 13
287.584796
 23
82.99
 33
0.0
  0
3DFACE
  8
0
  6
CONTINUOUS
 62
   249
 10
287.598516
 20
82.01
 30
0.0
 11
287.612236
 21
82.01
 31
0.0
 12
287.612236
 22
82.99
 32
0.0
 13
287.598516
 23
82.99
 33
0.0
  0
3DFACE
  8
0
  6
CONTINUOUS
 62
   249
 10
287.612236
 20
82.01
 30
0.0
 11
287.625956
 21
82.01
 31
0.0
 12
287.625956
 22
82.99
 32
0.0
 13
287.612236
 23
82.99
 33
0.0
  0
3DFACE
  8
0
  6
CONTINUOUS
 62
   249
 10
287.625956
 20
82.01
 30
0.0
 11
287.639676
 21
82.01
 31
0.0
 12
287.639676
 22
82.99
 32
0.0
 13
287.625956
 23
82.99
 33
0.0
  0
3DFACE
  8
0
  6
CONTINUOUS
 62
   249
 10
287.639676
 20
82.01
 30
0.0
 11
287.653396
 21
82.01
 31
0.0
 12
287.653396
 22
82.99
 32
0.0
 13
287.639676
 23
82.99
 33
0.0
  0
3DFACE
  8
0
  6
CONTINUOUS
 62
   249
 10
287.653396
 20
82.01
 30
0.0
 11
287.667116
 21
82.01
 31
0.0
 12
287.667116
 22
82.99
 32
0.0
 13
287.653396
 23
82.99
 33
0.0
  0
3DFACE
  8
0
  6
CONTINUOUS
 62
   249
 10
287.667116
 20
82.01
 30
0.0
 11
287.680836
 21
82.01
 31
0.0
 12
287.680836
 22
82.99
 32
0.0
 13
287.667116
 23
82.99
 33
0.0
  0
3DFACE
  8
0
  6
CONTINUOUS
 62
   249
 10
287.680836
 20
82.01
 30
0.0
 11
287.694556
 21
82.01
 31
0.0
 12
287.694556
 22
82.99
 32
0.0
 13
287.680836
 23
82.99
 33
0.0
  0
3DFACE
  8
0
  6
CONTINUOUS
 62
   249
 10
287.694556
 20
82.01
 30
0.0
 11
287.708276
 21
82.01
 31
0.0
 12
287.708276
 22
82.99
 32
0.0
 13
287.694556
 23
82.99
 33
0.0
  0
3DFACE
  8
0
  6
CONTINUOUS
 62
   249
 10
287.708276
 20
82.01
 30
0.0
 11
287.721996
 21
82.01
 31
0.0
 12
287.721996
 22
82.99
 32
0.0
 13
287.708276
 23
82.99
 33
0.0
  0
3DFACE
  8
0
  6
CONTINUOUS
 62
   249
 10
287.721996
 20
82.01
 30
0.0
 11
287.735716
 21
82.01
 31
0.0
 12
287.735716
 22
82.99
 32
0.0
 13
287.721996
 23
82.99
 33
0.0
  0
3DFACE
  8
0
  6
CONTINUOUS
 62
   249
 10
287.735716
 20
82.01
 30
0.0
 11
287.749436
 21
82.01
 31
0.0
 12
287.749436
 22
82.99
 32
0.0
 13
287.735716
 23
82.99
 33
0.0
  0
ARC
  8
0
  6
DASHED
 62
   249
 10
320.0
 20
97.5
 30
0.0
 40
0.5
 50
180.0
 51
0.0
  0
ARC
  8
0
  6
DASHED
 62
   249
 10
320.0
 20
97.5
 30
0.0
 40
0.5
 50
0.0
 51
180.0
  0
ARC
  8
0
  6
DASHED
 62
   249
 10
320.0
 20
107.689984
 30
0.0
 40
0.5
 50
180.0
 51
0.0
  0
ARC
  8
0
  6
DASHED
 62
   249
 10
320.0
 20
107.689984
 30
0.0
 40
0.5
 50
0.0
 51
180.0
  0
INSERT
  8
0
  6
CENTER
 62
   249
  2
BLC26
 10
336.410526
 20
105.080446
 30
0.0
 41
1.006225
 42
1.006225
 50
180.0
 43
1.006225
  0
ARC
  8
0
  6
DASHED
 62
   249
 10
320.0
 20
127.689984
 30
0.0
 40
0.5
 50
180.0
 51
0.0
  0
ARC
  8
0
  6
DASHED
 62
   249
 10
320.0
 20
127.689984
 30
0.0
 40
0.5
 50
0.0
 51
180.0
  0
INSERT
  8
0
  6
CENTER
 62
   249
  2
BLC26
 10
331.410528
 20
125.080445
 30
0.0
 41
1.006225
 42
1.006225
 50
180.0
 43
1.006225
  0
LINE
  8
0
  6
CONTINUOUS
 62
   249
 10
335.0
 20
191.776482
 30
0.0
 11
335.0
 21
185.819554
 31
0.0
  0
LINE
  8
0
  6
CONTINUOUS
 62
   249
 10
335.0
 20
175.0
 30
0.0
 11
335.0
 21
177.298876
 31
0.0
  0
LINE
  8
0
  6
CONTINUOUS
 62
   249
 10
330.0
 20
177.298876
 30
0.0
 11
330.0
 21
175.0
 31
0.0
  0
LINE
  8
0
  6
CONTINUOUS
 62
   249
 10
325.0
 20
177.298876
 30
0.0
 11
325.0
 21
175.0
 31
0.0
  0
LINE
  8
0
  6
CONTINUOUS
 62
   249
 10
335.0
 20
175.0
 30
0.0
 11
305.0
 21
175.0
 31
0.0
  0
ARC
  8
0
  6
CONTINUOUS
 62
   249
 10
335.0
 20
184.754469
 30
0.0
 40
1.065085
 50
270.0
 51
90.0
  0
ARC
  8
0
  6
CONTINUOUS
 62
   249
 10
335.0
 20
182.6243
 30
0.0
 40
1.065085
 50
270.0
 51
90.0
  0
ARC
  8
0
  6
CONTINUOUS
 62
   249
 10
335.0
 20
180.49413
 30
0.0
 40
1.065085
 50
270.0
 51
90.0
  0
ARC
  8
0
  6
CONTINUOUS
 62
   249
 10
335.0
 20
178.363961
 30
0.0
 40
1.065085
 50
270.0
 51
90.0
  0
ARC
  8
0
  6
CONTINUOUS
 62
   249
 10
330.0
 20
184.754469
 30
0.0
 40
1.065085
 50
270.0
 51
90.0
  0
ARC
  8
0
  6
CONTINUOUS
 62
   249
 10
330.0
 20
182.6243
 30
0.0
 40
1.065085
 50
270.0
 51
90.0
  0
ARC
  8
0
  6
CONTINUOUS
 62
   249
 10
330.0
 20
180.49413
 30
0.0
 40
1.065085
 50
270.0
 51
90.0
  0
ARC
  8
0
  6
CONTINUOUS
 62
   249
 10
330.0
 20
178.363961
 30
0.0
 40
1.065085
 50
270.0
 51
90.0
  0
ARC
  8
0
  6
CONTINUOUS
 62
   249
 10
325.0
 20
184.754469
 30
0.0
 40
1.065085
 50
270.0
 51
90.0
  0
ARC
  8
0
  6
CONTINUOUS
 62
   249
 10
325.0
 20
182.6243
 30
0.0
 40
1.065085
 50
270.0
 51
90.0
  0
ARC
  8
0
  6
CONTINUOUS
 62
   249
 10
325.0
 20
180.49413
 30
0.0
 40
1.065085
 50
270.0
 51
90.0
  0
ARC
  8
0
  6
CONTINUOUS
 62
   249
 10
325.0
 20
178.363961
 30
0.0
 40
1.065085
 50
270.0
 51
90.0
  0
INSERT
  8
0
  6
DASHED
 62
   249
  2
BLC15
 10
302.08534
 20
175.142087
 30
0.0
 50
270.0
  0
POLYLINE
  8
0
  6
CONTINUOUS
 62
   249
 66
     1
 10
0.0
 20
0.0
 30
0.0
 70
     1
 40
0.5
 41
0.5
 71
     2
 72
   151
  0
VERTEX
  8
0
  6
CONTINUOUS
 62
   249
 10
324.5
 20
175.0
 30
0.0
 42
1.0
  0
VERTEX
  8
0
  6
CONTINUOUS
 62
   249
 10
325.5
 20
175.0
 30
0.0
 42
1.0
  0
SEQEND
  8
0
  6
CONTINUOUS
 62
   249
  0
POLYLINE
  8
0
  6
CONTINUOUS
 62
   249
 66
     1
 10
0.0
 20
0.0
 30
0.0
 70
     1
 40
0.5
 41
0.5
 71
     2
 72
   151
  0
VERTEX
  8
0
  6
CONTINUOUS
 62
   249
 10
329.5
 20
175.0
 30
0.0
 42
1.0
  0
VERTEX
  8
0
  6
CONTINUOUS
 62
   249
 10
330.5
 20
175.0
 30
0.0
 42
1.0
  0
SEQEND
  8
0
  6
CONTINUOUS
 62
   249
  0
LINE
  8
0
  6
CONTINUOUS
 62
   249
 10
319.999997
 20
197.51011
 30
0.0
 11
319.999997
 21
194.864453
 31
0.0
  0
LINE
  8
0
  6
CONTINUOUS
 62
   249
 10
319.396302
 20
193.0829
 30
0.0
 11
320.603692
 21
193.0829
 31
0.0
  0
LINE
  8
0
  6
CONTINUOUS
 62
   249
 10
318.963805
 20
193.970413
 30
0.0
 11
321.02718
 21
193.970413
 31
0.0
  0
LINE
  8
0
  6
CONTINUOUS
 62
   249
 10
318.468234
 20
194.864453
 30
0.0
 11
321.53176
 21
194.864453
 31
0.0
  0
LINE
  8
0
  6
CONTINUOUS
 62
   249
 10
221.335351
 20
135.188535
 30
0.0
 11
219.999997
 21
132.84277
 31
0.0
  0
LINE
  8
0
  6
CONTINUOUS
 62
   249
 10
219.999997
 20
132.84277
 30
0.0
 11
218.810078
 21
135.188535
 31
0.0
  0
LINE
  8
0
  6
CONTINUOUS
 62
   249
 10
218.664649
 20
138.203765
 30
0.0
 11
220.000003
 21
140.549531
 31
0.0
  0
LINE
  8
0
  6
CONTINUOUS
 62
   249
 10
220.000003
 20
140.549531
 30
0.0
 11
221.189922
 21
138.203765
 31
0.0
  0
LINE
  8
0
  6
CONTINUOUS
 62
   249
 10
305.575363
 20
167.500003
 30
0.0
 11
302.929705
 21
167.500003
 31
0.0
  0
LINE
  8
0
  6
CONTINUOUS
 62
   249
 10
301.148152
 20
168.103698
 30
0.0
 11
301.148152
 21
166.896308
 31
0.0
  0
LINE
  8
0
  6
CONTINUOUS
 62
   249
 10
302.035666
 20
168.536195
 30
0.0
 11
302.035666
 21
166.47282
 31
0.0
  0
LINE
  8
0
  6
CONTINUOUS
 62
   249
 10
302.929705
 20
169.031766
 30
0.0
 11
302.929705
 21
165.96824
 31
0.0
  0
LINE
  8
0
  6
CONTINUOUS
 62
   249
 10
212.020427
 20
213.664635
 30
0.0
 11
209.674661
 21
214.999989
 31
0.0
  0
LINE
  8
0
  6
CONTINUOUS
 62
   249
 10
209.674661
 20
214.999989
 30
0.0
 11
212.020427
 21
216.189908
 31
0.0
  0
LINE
  8
0
  6
CONTINUOUS
 62
   249
 10
212.020427
 20
216.164635
 30
0.0
 11
209.674661
 21
217.499989
 31
0.0
  0
LINE
  8
0
  6
CONTINUOUS
 62
   249
 10
209.674661
 20
217.499989
 30
0.0
 11
212.020427
 21
218.689908
 31
0.0
  0
LINE
  8
0
  6
CONTINUOUS
 62
   249
 10
238.583758
 20
216.164635
 30
0.0
 11
236.237993
 21
217.499989
 31
0.0
  0
LINE
  8
0
  6
CONTINUOUS
 62
   249
 10
236.237993
 20
217.499989
 30
0.0
 11
238.583758
 21
218.689908
 31
0.0
  0
INSERT
  8
0
  6
CENTER
 62
   249
  2
BLC26
 10
326.410524
 20
140.080448
 30
0.0
 41
1.006225
 42
1.006225
 50
180.0
 43
1.006225
  0
ARC
  8
0
  6
CONTINUOUS
 62
   249
 10
325.0
 20
167.5
 30
0.0
 40
0.5
 50
180.0
 51
0.0
  0
ARC
  8
0
  6
CONTINUOUS
 62
   249
 10
325.0
 20
167.5
 30
0.0
 40
0.5
 50
0.0
 51
180.0
  0
ARC
  8
0
  6
CONTINUOUS
 62
   249
 10
330.0
 20
167.5
 30
0.0
 40
0.5
 50
180.0
 51
0.0
  0
ARC
  8
0
  6
CONTINUOUS
 62
   249
 10
330.0
 20
167.5
 30
0.0
 40
0.5
 50
0.0
 51
180.0
  0
ARC
  8
0
  6
CONTINUOUS
 62
   249
 10
320.0
 20
202.689984
 30
0.0
 40
0.5
 50
180.0
 51
0.0
  0
ARC
  8
0
  6
CONTINUOUS
 62
   249
 10
320.0
 20
202.689984
 30
0.0
 40
0.5
 50
0.0
 51
180.0
  0
ARC
  8
0
  6
CONTINUOUS
 62
   249
 10
320.0
 20
197.5
 30
0.0
 40
0.5
 50
180.0
 51
0.0
  0
ARC
  8
0
  6
CONTINUOUS
 62
   249
 10
320.0
 20
197.5
 30
0.0
 40
0.5
 50
0.0
 51
180.0
  0
INSERT
  8
0
  6
CENTER
 62
   249
  2
BLC26
 10
336.410526
 20
205.080446
 30
0.0
 41
1.006225
 42
1.006225
 50
180.0
 43
1.006225
  0
INSERT
  8
0
  6
CENTER
 62
   249
  2
BLC26
 10
331.410528
 20
225.080445
 30
0.0
 41
1.006225
 42
1.006225
 50
180.0
 43
1.006225
  0
ARC
  8
0
  6
CONTINUOUS
 62
   249
 10
320.0
 20
222.689984
 30
0.0
 40
0.5
 50
180.0
 51
0.0
  0
ARC
  8
0
  6
CONTINUOUS
 62
   249
 10
320.0
 20
222.689984
 30
0.0
 40
0.5
 50
0.0
 51
180.0
  0
INSERT
  8
0
  6
CENTER
 62
   249
  2
BLC26
 10
326.410524
 20
245.080448
 30
0.0
 41
1.006225
 42
1.006225
 50
180.0
 43
1.006225
  0
LINE
  8
0
  6
CONTINUOUS
 62
   249
 10
375.19328
 20
236.638481
 30
0.0
 11
376.799481
 21
235.724133
 31
0.0
  0
LINE
  8
0
  6
CONTINUOUS
 62
   249
 10
376.799481
 20
235.724133
 30
0.0
 11
375.19328
 21
234.909367
 31
0.0
  0
LINE
  8
0
  6
CONTINUOUS
 62
   249
 10
373.24203
 20
236.638481
 30
0.0
 11
374.848231
 21
235.724133
 31
0.0
  0
LINE
  8
0
  6
CONTINUOUS
 62
   249
 10
374.848231
 20
235.724133
 30
0.0
 11
373.24203
 21
234.909367
 31
0.0
  0
LINE
  8
0
  6
CONTINUOUS
 62
   249
 10
373.24203
 20
241.857108
 30
0.0
 11
374.848231
 21
240.94276
 31
0.0
  0
LINE
  8
0
  6
CONTINUOUS
 62
   249
 10
374.848231
 20
240.94276
 30
0.0
 11
373.24203
 21
240.127994
 31
0.0
  0
ENDSEC
  0
EOF
