  0
SECTION
  2
HEADER
  9
$ACADVER
  1
AC1009
999
I-DEAS Drafting Master Series 7m3 Not Encoded
  9
$EXTMIN
 10
0.0
 20
0.0
  9
$EXTMAX
 10
1.4438094E+002
 20
2.4085874E+002
  9
$TEXTSIZE
 40
1.25E-001
  9
$LTSCALE
 40
1.0
  9
$CLAYER
  8
AUTOCAD0
  9
$CECOLOR
 62
1
  9
$DIMASZ
 40
1.25E-001
  9
$DIMEXO
 40
6.25E-002
  9
$DIMDLI
 40
2.5E-001
  9
$DIMEXE
 40
1.25E-001
  9
$DIMTP
 40
5.0E-003
  9
$DIMTM
 40
-5.0E-003
  9
$DIMTXT
 40
1.25E-001
  9
$DIMLIM
 70
0
  9
$DIMTIH
 70
1
  9
$DIMTOH
 70
1
  9
$DIMSE1
 70
0
  9
$DIMSE2
 70
0
  9
$DIMTAD
 70
0
  9
$DIMASO
 70
1
  9
$DIMALT
 70
0
  9
$DIMALTD
 70
0
  9
$DIMTOFL
 70
1
  9
$DIMTIX
 70
0
  9
$DIMSAH
 70
0
  9
$DIMTFAC
 40
1.0
  9
$DIMGAP
 40
6.25E-002
  9
$LUNITS
 70
2
  9
$LUPREC
 70
3
  9
$FILLETRAD
 40
2.5E-001
  9
$AUNITS
 70
0
  9
$AUPREC
 70
1
  9
$CHAMFERA
 40
2.5E-001
  9
$CHAMFERB
 40
2.5E-001
  9
$ANGBASE
 50
0.0
  9
$ANGDIR
 70
0
  9
$PDMODE
 70
2
  9
$PDSIZE
 40
-1.0E-002
  9
$SPLINETYPE
 70
6
  0
ENDSEC
  0
SECTION
  2
TABLES
  0
TABLE
  2
LTYPE
 70
8
  0
LTYPE
  2
HIDDENNEW00
  3
_ 
 70
64
 72
65
 73
2
 40
1.875E-001
 49
1.25E-001
 49
-6.25E-002
  0
LTYPE
  2
HIDDENNEW01
  3
_ 
 70
64
 72
65
 73
2
 40
1.875E-001
 49
1.25E-001
 49
-6.25E-002
  0
LTYPE
  2
HIDDEN
  3
_ 
 70
64
 72
65
 73
2
 40
1.875E-001
 49
1.25E-001
 49
-6.25E-002
  0
LTYPE
  2
CENTERLINE
  3
_ 
 70
64
 72
65
 73
4
 40
1.25
 49
1.0
 49
-6.25E-002
 49
1.25E-001
 49
-6.25E-002
  0
LTYPE
  2
PHANTOM
  3
_ 
 70
64
 72
65
 73
6
 40
1.1875
 49
7.5E-001
 49
-6.25E-002
 49
1.25E-001
 49
-6.25E-002
 49
1.25E-001
 49
-6.25E-002
  0
LTYPE
  2
SHORT_DASH
  3
_ 
 70
64
 72
65
 73
2
 40
1.25E-001
 49
6.25E-002
 49
-6.25E-002
  0
LTYPE
  2
LONG_DASH
  3
_ 
 70
64
 72
65
 73
2
 40
3.75E-001
 49
1.875E-001
 49
-1.875E-001
  0
LTYPE
  2
PKV1
  3
_ 
 70
64
 72
65
 73
4
 40
8.06
 49
6.0
 49
-1.0
 49
6.0E-002
 49
-1.0
  0
ENDTAB
  0
TABLE
  2
LAYER
 70
258
  0
LAYER
  2
AUTOCAD0
 70
0
 62
7
  6
HIDDENNEW00
  0
LAYER
  2
Drafting_Hidden_Entities
 70
1
 62
7
  6
CONTINUOUS
  0
ENDTAB
  0
TABLE
  2
STYLE
 70
1
  0
STYLE
  2
STANDARD
 70
64
 40
0.0
 41
1.0
 50
0.0
 71
0
 42
1.0
  3
monotxt.shx
  4

  0
ENDTAB
  0
TABLE
  2
VIEW
 70
0
  0
ENDTAB
  0
TABLE
  2
DIMSTYLE
 70
0
  0
ENDTAB
  0
ENDSEC
  0
SECTION
  2
BLOCKS
  0
ENDSEC
  0
SECTION
  2
ENTITIES
  0
LINE
  8
AUTOCAD0
  6
CONTINUOUS
 62
40
 10
1.1438094E+002
 20
1.15E+002
 11
1.1938094E+002
 21
1.15E+002
  0
CIRCLE
  8
AUTOCAD0
  6
CONTINUOUS
 62
40
 10
1.2938094E+002
 20
8.15E+001
 40
6.0
  0
LINE
  8
AUTOCAD0
  6
CONTINUOUS
 62
40
 10
1.2644493E+002
 20
7.6267425E+001
 11
1.3387363E+002
 21
8.5476896E+001
  0
LINE
  8
AUTOCAD0
  6
CONTINUOUS
 62
40
 10
1.2488824E+002
 20
7.7523105E+001
 11
1.3231695E+002
 21
8.6732576E+001
  0
LINE
  8
AUTOCAD0
  6
CONTINUOUS
 62
40
 10
1.4438094E+002
 20
1.15E+002
 11
1.4438094E+002
 21
7.0E+001
  0
LINE
  8
AUTOCAD0
  6
CONTINUOUS
 62
40
 10
1.4438094E+002
 20
2.5E+001
 11
1.4438094E+002
 21
7.0E+001
  0
LINE
  8
AUTOCAD0
  6
CONTINUOUS
 62
40
 10
1.2488824E+002
 20
6.2476895E+001
 11
1.3231695E+002
 21
5.3267424E+001
  0
LINE
  8
AUTOCAD0
  6
CONTINUOUS
 62
40
 10
1.2644493E+002
 20
6.3732575E+001
 11
1.3387363E+002
 21
5.4523104E+001
  0
CIRCLE
  8
AUTOCAD0
  6
CONTINUOUS
 62
40
 10
1.2938094E+002
 20
5.85E+001
 40
6.0
  0
LINE
  8
AUTOCAD0
  6
CONTINUOUS
 62
40
 10
1.1438094E+002
 20
2.5E+001
 11
1.1938094E+002
 21
2.5E+001
  0
LINE
  8
AUTOCAD0
  6
CONTINUOUS
 62
40
 10
1.1438094E+002
 20
2.5E+001
 11
1.1438094E+002
 21
1.15E+002
  0
LINE
  8
AUTOCAD0
  6
CONTINUOUS
 62
40
 10
1.4438094E+002
 20
1.8429955E+002
 11
1.4438094E+002
 21
2.1129955E+002
  0
LINE
  8
AUTOCAD0
  6
CONTINUOUS
 62
40
 10
1.1438094E+002
 20
1.8429955E+002
 11
1.1438094E+002
 21
2.1129955E+002
  0
LINE
  8
AUTOCAD0
  6
CONTINUOUS
 62
40
 10
1.1438094E+002
 20
1.8429955E+002
 11
1.4438094E+002
 21
1.8429955E+002
  0
LINE
  8
AUTOCAD0
  6
CONTINUOUS
 62
40
 10
1.1438094E+002
 20
2.1129955E+002
 11
1.1938094E+002
 21
2.1129955E+002
  0
LINE
  8
AUTOCAD0
  6
CONTINUOUS
 62
40
 10
1.1938094E+002
 20
2.0929955E+002
 11
1.3938094E+002
 21
2.0929955E+002
  0
LINE
  8
AUTOCAD0
  6
CONTINUOUS
 62
40
 10
1.3938094E+002
 20
2.1129955E+002
 11
1.4438094E+002
 21
2.1129955E+002
  0
LINE
  8
AUTOCAD0
  6
PKV1
 62
40
 10
1.2938094E+002
 20
2.4085874E+002
 11
1.2938094E+002
 21
1.7072651E+002
  0
LINE
  8
AUTOCAD0
  6
CONTINUOUS
 62
40
 10
1.3588094E+002
 20
1.8279955E+002
 11
1.3588094E+002
 21
1.8429955E+002
  0
LINE
  8
AUTOCAD0
  6
CONTINUOUS
 62
40
 10
1.2438094E+002
 20
1.7629955E+002
 11
1.2438094E+002
 21
1.8279955E+002
  0
LINE
  8
AUTOCAD0
  6
CONTINUOUS
 62
40
 10
1.3438094E+002
 20
1.7629955E+002
 11
1.3438094E+002
 21
1.8279955E+002
  0
LINE
  8
AUTOCAD0
  6
CONTINUOUS
 62
40
 10
1.3438094E+002
 20
1.7629955E+002
 11
1.2438094E+002
 21
1.7629955E+002
  0
LINE
  8
AUTOCAD0
  6
CONTINUOUS
 62
40
 10
1.3438094E+002
 20
1.8129955E+002
 11
1.2438094E+002
 21
1.8129955E+002
  0
LINE
  8
AUTOCAD0
  6
CONTINUOUS
 62
40
 10
3.45E+001
 20
1.15E+002
 11
2.35E+001
 21
1.15E+002
  0
LINE
  8
AUTOCAD0
  6
CONTINUOUS
 62
40
 10
3.0E+001
 20
9.9E+001
 11
2.35E+001
 21
9.9E+001
  0
LINE
  8
AUTOCAD0
  6
CONTINUOUS
 62
40
 10
2.35E+001
 20
1.15E+002
 11
2.35E+001
 21
9.9E+001
  0
LINE
  8
AUTOCAD0
  6
CONTINUOUS
 62
40
 10
3.0E+001
 20
7.0E+001
 11
3.0E+001
 21
9.9E+001
  0
LINE
  8
AUTOCAD0
  6
CONTINUOUS
 62
40
 10
5.05E+001
 20
9.9E+001
 11
5.05E+001
 21
4.1E+001
  0
LINE
  8
AUTOCAD0
  6
CONTINUOUS
 62
40
 10
3.0E+001
 20
7.0E+001
 11
3.0E+001
 21
4.1E+001
  0
LINE
  8
AUTOCAD0
  6
CONTINUOUS
 62
40
 10
2.35E+001
 20
2.5E+001
 11
2.35E+001
 21
4.1E+001
  0
LINE
  8
AUTOCAD0
  6
CONTINUOUS
 62
40
 10
3.0E+001
 20
4.1E+001
 11
2.35E+001
 21
4.1E+001
  0
LINE
  8
AUTOCAD0
  6
CONTINUOUS
 62
40
 10
1.4038094E+002
 20
2.0029955E+002
 11
1.4438094E+002
 21
2.0029955E+002
  0
LINE
  8
AUTOCAD0
  6
CONTINUOUS
 62
40
 10
1.4038094E+002
 20
2.0529955E+002
 11
1.3588094E+002
 21
2.0529955E+002
  0
LINE
  8
AUTOCAD0
  6
CONTINUOUS
 62
40
 10
1.4038094E+002
 20
2.0029955E+002
 11
1.4038094E+002
 21
2.0529955E+002
  0
LINE
  8
AUTOCAD0
  6
CONTINUOUS
 62
40
 10
1.1838094E+002
 20
2.0029955E+002
 11
1.1838094E+002
 21
2.0529955E+002
  0
LINE
  8
AUTOCAD0
  6
CONTINUOUS
 62
40
 10
1.1838094E+002
 20
2.0529955E+002
 11
1.2288094E+002
 21
2.0529955E+002
  0
LINE
  8
AUTOCAD0
  6
CONTINUOUS
 62
40
 10
1.1838094E+002
 20
2.0029955E+002
 11
1.1438094E+002
 21
2.0029955E+002
  0
LINE
  8
AUTOCAD0
  6
CONTINUOUS
 62
40
 10
5.05E+001
 20
9.9E+001
 11
3.45E+001
 21
1.15E+002
  0
LINE
  8
AUTOCAD0
  6
CONTINUOUS
 62
40
 10
5.05E+001
 20
4.1E+001
 11
3.45E+001
 21
2.5E+001
  0
LINE
  8
AUTOCAD0
  6
CONTINUOUS
 62
40
 10
3.45E+001
 20
2.5E+001
 11
2.35E+001
 21
2.5E+001
  0
TEXT
  8
AUTOCAD0
  6
CONTINUOUS
 62
40
 10
1.2091856E+002
 20
9.746213E+001
 40
2.0
  1
OESAZX86
  0
LINE
  8
AUTOCAD0
  6
CONTINUOUS
 62
40
 10
1.3938094E+002
 20
9.4E+001
 11
1.3938094E+002
 21
5.1E+001
  0
LINE
  8
AUTOCAD0
  6
CONTINUOUS
 62
40
 10
1.1938094E+002
 20
9.4E+001
 11
1.1938094E+002
 21
5.1E+001
  0
LINE
  8
AUTOCAD0
  6
CONTINUOUS
 62
40
 10
1.1938094E+002
 20
9.4E+001
 11
1.3938094E+002
 21
9.4E+001
  0
LINE
  8
AUTOCAD0
  6
CONTINUOUS
 62
40
 10
1.1938094E+002
 20
5.1E+001
 11
1.3938094E+002
 21
5.1E+001
  0
LINE
  8
AUTOCAD0
  6
CONTINUOUS
 62
40
 10
1.1938094E+002
 20
1.4E+002
 11
1.3938094E+002
 21
1.4E+002
  0
LINE
  8
AUTOCAD0
  6
CONTINUOUS
 62
40
 10
1.1938094E+002
 20
0.0
 11
1.3938094E+002
 21
0.0
  0
LINE
  8
AUTOCAD0
  6
CONTINUOUS
 62
40
 10
1.1938094E+002
 20
9.4E+001
 11
1.1938094E+002
 21
1.4E+002
  0
LINE
  8
AUTOCAD0
  6
CONTINUOUS
 62
40
 10
1.3938094E+002
 20
9.4E+001
 11
1.3938094E+002
 21
1.4E+002
  0
LINE
  8
AUTOCAD0
  6
CONTINUOUS
 62
40
 10
1.1938094E+002
 20
5.1E+001
 11
1.1938094E+002
 21
0.0
  0
LINE
  8
AUTOCAD0
  6
CONTINUOUS
 62
40
 10
1.3938094E+002
 20
5.1E+001
 11
1.3938094E+002
 21
0.0
  0
LINE
  8
AUTOCAD0
  6
CONTINUOUS
 62
40
 10
1.3938094E+002
 20
1.15E+002
 11
1.4438094E+002
 21
1.15E+002
  0
LINE
  8
AUTOCAD0
  6
CONTINUOUS
 62
40
 10
1.3938094E+002
 20
2.5E+001
 11
1.4438094E+002
 21
2.5E+001
  0
CIRCLE
  8
AUTOCAD0
  6
CONTINUOUS
 62
40
 10
1.2938094E+002
 20
1.295E+002
 40
4.0
  0
CIRCLE
  8
AUTOCAD0
  6
CONTINUOUS
 62
40
 10
1.2938094E+002
 20
1.295E+002
 40
9.5
  0
CIRCLE
  8
AUTOCAD0
  6
CONTINUOUS
 62
40
 10
1.2938094E+002
 20
1.295E+002
 40
6.5
  0
LINE
  8
AUTOCAD0
  6
CONTINUOUS
 62
40
 10
1.3588094E+002
 20
1.3325278E+002
 11
1.2938094E+002
 21
1.3700555E+002
  0
LINE
  8
AUTOCAD0
  6
CONTINUOUS
 62
40
 10
1.2938094E+002
 20
1.3700555E+002
 11
1.2288094E+002
 21
1.3325278E+002
  0
LINE
  8
AUTOCAD0
  6
CONTINUOUS
 62
40
 10
1.2288094E+002
 20
1.3325278E+002
 11
1.2288094E+002
 21
1.2574722E+002
  0
LINE
  8
AUTOCAD0
  6
CONTINUOUS
 62
40
 10
1.2288094E+002
 20
1.2574722E+002
 11
1.2938094E+002
 21
1.2199445E+002
  0
LINE
  8
AUTOCAD0
  6
CONTINUOUS
 62
40
 10
1.2938094E+002
 20
1.2199445E+002
 11
1.3588094E+002
 21
1.2574722E+002
  0
LINE
  8
AUTOCAD0
  6
CONTINUOUS
 62
40
 10
1.3588094E+002
 20
1.2574722E+002
 11
1.3588094E+002
 21
1.3325278E+002
  0
LINE
  8
AUTOCAD0
  6
CONTINUOUS
 62
40
 10
1.1438094E+002
 20
4.7E+001
 11
1.1338094E+002
 21
4.7E+001
  0
LINE
  8
AUTOCAD0
  6
CONTINUOUS
 62
40
 10
1.1438094E+002
 20
9.3E+001
 11
1.1338094E+002
 21
9.3E+001
  0
LINE
  8
AUTOCAD0
  6
CONTINUOUS
 62
40
 10
1.1338094E+002
 20
9.3E+001
 11
1.1338094E+002
 21
4.7E+001
  0
CIRCLE
  8
AUTOCAD0
  6
CONTINUOUS
 62
40
 10
1.3438094E+002
 20
1.09E+002
 40
3.5
  0
LINE
  8
AUTOCAD0
  6
CONTINUOUS
 62
40
 10
1.3157789E+002
 20
1.1109594E+002
 11
1.3647687E+002
 21
1.0619696E+002
  0
LINE
  8
AUTOCAD0
  6
CONTINUOUS
 62
40
 10
1.32285E+002
 20
1.1180304E+002
 11
1.3718398E+002
 21
1.0690406E+002
  0
LINE
  8
AUTOCAD0
  6
CONTINUOUS
 62
40
 10
1.2647687E+002
 20
1.1180304E+002
 11
1.2157789E+002
 21
1.0690406E+002
  0
LINE
  8
AUTOCAD0
  6
CONTINUOUS
 62
40
 10
1.2718398E+002
 20
1.1109594E+002
 11
1.22285E+002
 21
1.0619696E+002
  0
CIRCLE
  8
AUTOCAD0
  6
CONTINUOUS
 62
40
 10
1.2438094E+002
 20
1.09E+002
 40
3.5
  0
CIRCLE
  8
AUTOCAD0
  6
CONTINUOUS
 62
40
 10
1.2438094E+002
 20
3.1E+001
 40
3.5
  0
LINE
  8
AUTOCAD0
  6
CONTINUOUS
 62
40
 10
1.2718398E+002
 20
2.8904064E+001
 11
1.22285E+002
 21
3.3803043E+001
  0
LINE
  8
AUTOCAD0
  6
CONTINUOUS
 62
40
 10
1.2647687E+002
 20
2.8196957E+001
 11
1.2157789E+002
 21
3.3095936E+001
  0
LINE
  8
AUTOCAD0
  6
CONTINUOUS
 62
40
 10
1.32285E+002
 20
2.8196957E+001
 11
1.3718398E+002
 21
3.3095936E+001
  0
LINE
  8
AUTOCAD0
  6
CONTINUOUS
 62
40
 10
1.3157789E+002
 20
2.8904064E+001
 11
1.3647687E+002
 21
3.3803043E+001
  0
CIRCLE
  8
AUTOCAD0
  6
CONTINUOUS
 62
40
 10
1.3438094E+002
 20
3.1E+001
 40
3.5
  0
LINE
  8
AUTOCAD0
  6
CONTINUOUS
 62
40
 10
1.3588094E+002
 20
6.747223
 11
1.2938094E+002
 21
2.994447
  0
LINE
  8
AUTOCAD0
  6
CONTINUOUS
 62
40
 10
1.2938094E+002
 20
2.994447
 11
1.2288094E+002
 21
6.747223
  0
LINE
  8
AUTOCAD0
  6
CONTINUOUS
 62
40
 10
1.2288094E+002
 20
6.747223
 11
1.2288094E+002
 21
1.4252777E+001
  0
LINE
  8
AUTOCAD0
  6
CONTINUOUS
 62
40
 10
1.2288094E+002
 20
1.4252777E+001
 11
1.2938094E+002
 21
1.8005553E+001
  0
LINE
  8
AUTOCAD0
  6
CONTINUOUS
 62
40
 10
1.2938094E+002
 20
1.8005553E+001
 11
1.3588094E+002
 21
1.4252777E+001
  0
LINE
  8
AUTOCAD0
  6
CONTINUOUS
 62
40
 10
1.3588094E+002
 20
1.4252777E+001
 11
1.3588094E+002
 21
6.747223
  0
CIRCLE
  8
AUTOCAD0
  6
CONTINUOUS
 62
40
 10
1.2938094E+002
 20
1.05E+001
 40
6.5
  0
CIRCLE
  8
AUTOCAD0
  6
CONTINUOUS
 62
40
 10
1.2938094E+002
 20
1.05E+001
 40
9.5
  0
CIRCLE
  8
AUTOCAD0
  6
CONTINUOUS
 62
40
 10
1.2938094E+002
 20
1.05E+001
 40
4.0
  0
LINE
  8
AUTOCAD0
  6
CONTINUOUS
 62
40
 10
1.1938094E+002
 20
2.1229955E+002
 11
1.3938094E+002
 21
2.1229955E+002
  0
LINE
  8
AUTOCAD0
  6
CONTINUOUS
 62
40
 10
1.3938094E+002
 20
2.0929955E+002
 11
1.3938094E+002
 21
2.1229955E+002
  0
LINE
  8
AUTOCAD0
  6
CONTINUOUS
 62
40
 10
1.1938094E+002
 20
2.0929955E+002
 11
1.1938094E+002
 21
2.1229955E+002
  0
LINE
  8
AUTOCAD0
  6
CONTINUOUS
 62
40
 10
1.1338094E+002
 20
1.5529955E+002
 11
1.1338094E+002
 21
1.8129955E+002
  0
LINE
  8
AUTOCAD0
  6
CONTINUOUS
 62
40
 10
1.1638094E+002
 20
1.8279955E+002
 11
1.3588094E+002
 21
1.8279955E+002
  0
LINE
  8
AUTOCAD0
  6
CONTINUOUS
 62
40
 10
1.1338094E+002
 20
1.5529955E+002
 11
1.1488094E+002
 21
1.5529955E+002
  0
LINE
  8
AUTOCAD0
  6
CONTINUOUS
 62
40
 10
1.1488094E+002
 20
1.5529955E+002
 11
1.1488094E+002
 21
1.8129955E+002
  0
ARC
  8
AUTOCAD0
  6
CONTINUOUS
 62
40
 10
1.1638094E+002
 20
1.8129955E+002
 40
1.5
 50
9.0E+001
 51
1.8E+002
  0
ARC
  8
AUTOCAD0
  6
CONTINUOUS
 62
40
 10
1.1638094E+002
 20
1.8129955E+002
 40
3.0
 50
9.0E+001
 51
1.8E+002
  0
LINE
  8
AUTOCAD0
  6
CONTINUOUS
 62
40
 10
1.2288094E+002
 20
2.0429955E+002
 11
1.3588094E+002
 21
2.0429955E+002
  0
LINE
  8
AUTOCAD0
  6
CONTINUOUS
 62
40
 10
1.1988094E+002
 20
2.1729955E+002
 11
1.3888094E+002
 21
2.1729955E+002
  0
LINE
  8
AUTOCAD0
  6
CONTINUOUS
 62
40
 10
1.2288094E+002
 20
2.2329955E+002
 11
1.3588094E+002
 21
2.2329955E+002
  0
LINE
  8
AUTOCAD0
  6
CONTINUOUS
 62
40
 10
1.3588094E+002
 20
2.2329955E+002
 11
1.3588094E+002
 21
2.1729955E+002
  0
LINE
  8
AUTOCAD0
  6
CONTINUOUS
 62
40
 10
1.2288094E+002
 20
2.2329955E+002
 11
1.2288094E+002
 21
2.1729955E+002
  0
LINE
  8
AUTOCAD0
  6
CONTINUOUS
 62
40
 10
1.1988094E+002
 20
2.1729955E+002
 11
1.1988094E+002
 21
2.1229955E+002
  0
LINE
  8
AUTOCAD0
  6
CONTINUOUS
 62
40
 10
1.3888094E+002
 20
2.1729955E+002
 11
1.3888094E+002
 21
2.1229955E+002
  0
LINE
  8
AUTOCAD0
  6
CONTINUOUS
 62
40
 10
1.3588094E+002
 20
2.0929955E+002
 11
1.3588094E+002
 21
2.0429955E+002
  0
LINE
  8
AUTOCAD0
  6
CONTINUOUS
 62
40
 10
1.2288094E+002
 20
2.0929955E+002
 11
1.2288094E+002
 21
2.0429955E+002
  0
LINE
  8
AUTOCAD0
  6
CONTINUOUS
 62
40
 10
1.3338094E+002
 20
2.3479955E+002
 11
1.3338094E+002
 21
2.2329955E+002
  0
LINE
  8
AUTOCAD0
  6
CONTINUOUS
 62
40
 10
1.2538094E+002
 20
2.3479955E+002
 11
1.2538094E+002
 21
2.2329955E+002
  0
LINE
  8
AUTOCAD0
  6
CONTINUOUS
 62
40
 10
1.2538094E+002
 20
2.3479955E+002
 11
1.3338094E+002
 21
2.3479955E+002
  0
LINE
  8
AUTOCAD0
  6
CONTINUOUS
 62
40
 10
7.95E+001
 20
9.3E+001
 11
5.05E+001
 21
9.3E+001
  0
LINE
  8
AUTOCAD0
  6
CONTINUOUS
 62
40
 10
7.95E+001
 20
4.7E+001
 11
5.05E+001
 21
4.7E+001
  0
LINE
  8
AUTOCAD0
  6
CONTINUOUS
 62
40
 10
0.0
 20
1.255E+002
 11
0.0
 21
1.335E+002
  0
LINE
  8
AUTOCAD0
  6
CONTINUOUS
 62
40
 10
0.0
 20
1.255E+002
 11
1.15E+001
 21
1.255E+002
  0
LINE
  8
AUTOCAD0
  6
CONTINUOUS
 62
40
 10
0.0
 20
1.335E+002
 11
1.15E+001
 21
1.335E+002
  0
LINE
  8
AUTOCAD0
  6
CONTINUOUS
 62
40
 10
1.75E+001
 20
1.39E+002
 11
2.25E+001
 21
1.39E+002
  0
LINE
  8
AUTOCAD0
  6
CONTINUOUS
 62
40
 10
1.75E+001
 20
1.2E+002
 11
2.25E+001
 21
1.2E+002
  0
LINE
  8
AUTOCAD0
  6
CONTINUOUS
 62
40
 10
1.15E+001
 20
1.2199445E+002
 11
1.15E+001
 21
1.3700555E+002
  0
LINE
  8
AUTOCAD0
  6
CONTINUOUS
 62
40
 10
1.75E+001
 20
1.2E+002
 11
1.75E+001
 21
1.39E+002
  0
LINE
  8
AUTOCAD0
  6
CONTINUOUS
 62
40
 10
3.05E+001
 20
1.2199445E+002
 11
3.05E+001
 21
1.3700555E+002
  0
LINE
  8
AUTOCAD0
  6
CONTINUOUS
 62
40
 10
2.25E+001
 20
5.1E+001
 11
2.25E+001
 21
1.4E+002
  0
LINE
  8
AUTOCAD0
  6
CONTINUOUS
 62
40
 10
2.55E+001
 20
1.15E+002
 11
2.55E+001
 21
1.4E+002
  0
LINE
  8
AUTOCAD0
  6
CONTINUOUS
 62
40
 10
7.95E+001
 20
9.3E+001
 11
7.95E+001
 21
4.7E+001
  0
LINE
  8
AUTOCAD0
  6
CONTINUOUS
 62
40
 10
2.55E+001
 20
1.4E+002
 11
2.25E+001
 21
1.4E+002
  0
LINE
  8
AUTOCAD0
  6
CONTINUOUS
 62
40
 10
2.55E+001
 20
7.5E+001
 11
2.25E+001
 21
7.5E+001
  0
LINE
  8
AUTOCAD0
  6
CONTINUOUS
 62
40
 10
2.55E+001
 20
7.5E+001
 11
2.55E+001
 21
9.9E+001
  0
LINE
  8
AUTOCAD0
  6
CONTINUOUS
 62
40
 10
2.25E+001
 20
9.4E+001
 11
1.95E+001
 21
9.4E+001
  0
LINE
  8
AUTOCAD0
  6
CONTINUOUS
 62
40
 10
1.95E+001
 20
5.1E+001
 11
1.95E+001
 21
9.4E+001
  0
LINE
  8
AUTOCAD0
  6
CONTINUOUS
 62
40
 10
2.25E+001
 20
5.1E+001
 11
1.95E+001
 21
5.1E+001
  0
LINE
  8
AUTOCAD0
  6
CONTINUOUS
 62
40
 10
0.0
 20
1.33E+002
 11
1.15E+001
 21
1.33E+002
  0
LINE
  8
AUTOCAD0
  6
CONTINUOUS
 62
40
 10
0.0
 20
1.26E+002
 11
1.15E+001
 21
1.26E+002
  0
LINE
  8
AUTOCAD0
  6
CONTINUOUS
 62
40
 10
1.55E+001
 20
7.75E+001
 11
1.55E+001
 21
8.55E+001
  0
LINE
  8
AUTOCAD0
  6
CONTINUOUS
 62
40
 10
1.95E+001
 20
8.75E+001
 11
1.75E+001
 21
8.75E+001
  0
LINE
  8
AUTOCAD0
  6
CONTINUOUS
 62
40
 10
1.95E+001
 20
7.55E+001
 11
1.75E+001
 21
7.55E+001
  0
ARC
  8
AUTOCAD0
  6
CONTINUOUS
 62
40
 10
1.75E+001
 20
8.55E+001
 40
2.0
 50
9.0E+001
 51
1.8E+002
  0
ARC
  8
AUTOCAD0
  6
CONTINUOUS
 62
40
 10
1.75E+001
 20
7.75E+001
 40
2.0
 50
1.8E+002
 51
2.7E+002
  0
LINE
  8
AUTOCAD0
  6
CONTINUOUS
 62
40
 10
0.0
 20
1.4E+001
 11
1.15E+001
 21
1.4E+001
  0
LINE
  8
AUTOCAD0
  6
CONTINUOUS
 62
40
 10
0.0
 20
7.0
 11
1.15E+001
 21
7.0
  0
LINE
  8
AUTOCAD0
  6
CONTINUOUS
 62
40
 10
2.55E+001
 20
0.0
 11
2.25E+001
 21
0.0
  0
LINE
  8
AUTOCAD0
  6
CONTINUOUS
 62
40
 10
2.55E+001
 20
2.5E+001
 11
2.55E+001
 21
0.0
  0
LINE
  8
AUTOCAD0
  6
CONTINUOUS
 62
40
 10
2.25E+001
 20
8.9E+001
 11
2.25E+001
 21
0.0
  0
LINE
  8
AUTOCAD0
  6
CONTINUOUS
 62
40
 10
1.75E+001
 20
2.0E+001
 11
1.75E+001
 21
1.0
  0
LINE
  8
AUTOCAD0
  6
CONTINUOUS
 62
40
 10
1.75E+001
 20
2.0E+001
 11
2.25E+001
 21
2.0E+001
  0
LINE
  8
AUTOCAD0
  6
CONTINUOUS
 62
40
 10
1.75E+001
 20
1.0
 11
2.25E+001
 21
1.0
  0
LINE
  8
AUTOCAD0
  6
CONTINUOUS
 62
40
 10
0.0
 20
6.5
 11
1.15E+001
 21
6.5
  0
LINE
  8
AUTOCAD0
  6
CONTINUOUS
 62
40
 10
0.0
 20
1.45E+001
 11
1.15E+001
 21
1.45E+001
  0
LINE
  8
AUTOCAD0
  6
CONTINUOUS
 62
40
 10
0.0
 20
1.45E+001
 11
0.0
 21
6.5
  0
LINE
  8
AUTOCAD0
  6
CONTINUOUS
 62
40
 10
2.55E+001
 20
6.5E+001
 11
2.55E+001
 21
4.1E+001
  0
LINE
  8
AUTOCAD0
  6
CONTINUOUS
 62
40
 10
2.55E+001
 20
6.5E+001
 11
2.25E+001
 21
6.5E+001
  0
ARC
  8
AUTOCAD0
  6
CONTINUOUS
 62
40
 10
1.75E+001
 20
6.25E+001
 40
2.0
 50
9.0E+001
 51
1.8E+002
  0
ARC
  8
AUTOCAD0
  6
CONTINUOUS
 62
40
 10
1.75E+001
 20
5.45E+001
 40
2.0
 50
1.8E+002
 51
2.7E+002
  0
LINE
  8
AUTOCAD0
  6
CONTINUOUS
 62
40
 10
1.95E+001
 20
6.45E+001
 11
1.75E+001
 21
6.45E+001
  0
LINE
  8
AUTOCAD0
  6
CONTINUOUS
 62
40
 10
1.95E+001
 20
5.25E+001
 11
1.75E+001
 21
5.25E+001
  0
LINE
  8
AUTOCAD0
  6
CONTINUOUS
 62
40
 10
1.55E+001
 20
6.25E+001
 11
1.55E+001
 21
5.45E+001
  0
LINE
  8
AUTOCAD0
  6
CONTINUOUS
 62
40
 10
5.85E+001
 20
7.75E+001
 11
5.2E+001
 21
7.75E+001
  0
LINE
  8
AUTOCAD0
  6
CONTINUOUS
 62
40
 10
5.85E+001
 20
8.75E+001
 11
5.2E+001
 21
8.75E+001
  0
LINE
  8
AUTOCAD0
  6
CONTINUOUS
 62
40
 10
5.85E+001
 20
8.75E+001
 11
5.85E+001
 21
7.75E+001
  0
LINE
  8
AUTOCAD0
  6
CONTINUOUS
 62
40
 10
5.35E+001
 20
8.75E+001
 11
5.35E+001
 21
7.75E+001
  0
LINE
  8
AUTOCAD0
  6
CONTINUOUS
 62
40
 10
5.2E+001
 20
9.3E+001
 11
5.2E+001
 21
4.7E+001
  0
LINE
  8
AUTOCAD0
  6
CONTINUOUS
 62
40
 10
5.35E+001
 20
5.25E+001
 11
5.35E+001
 21
6.25E+001
  0
LINE
  8
AUTOCAD0
  6
CONTINUOUS
 62
40
 10
5.85E+001
 20
5.25E+001
 11
5.85E+001
 21
6.25E+001
  0
LINE
  8
AUTOCAD0
  6
CONTINUOUS
 62
40
 10
5.85E+001
 20
5.25E+001
 11
5.2E+001
 21
5.25E+001
  0
LINE
  8
AUTOCAD0
  6
CONTINUOUS
 62
40
 10
5.85E+001
 20
6.25E+001
 11
5.2E+001
 21
6.25E+001
  0
LINE
  8
AUTOCAD0
  6
CONTINUOUS
 62
40
 10
3.05E+001
 20
1.3700555E+002
 11
2.55E+001
 21
1.3700555E+002
  0
LINE
  8
AUTOCAD0
  6
CONTINUOUS
 62
40
 10
3.05E+001
 20
1.3325278E+002
 11
2.55E+001
 21
1.3325278E+002
  0
LINE
  8
AUTOCAD0
  6
CONTINUOUS
 62
40
 10
1.75E+001
 20
1.3325278E+002
 11
1.15E+001
 21
1.3325278E+002
  0
LINE
  8
AUTOCAD0
  6
CONTINUOUS
 62
40
 10
1.75E+001
 20
1.3700555E+002
 11
1.15E+001
 21
1.3700555E+002
  0
LINE
  8
AUTOCAD0
  6
CONTINUOUS
 62
40
 10
1.75E+001
 20
1.2199445E+002
 11
1.15E+001
 21
1.2199445E+002
  0
LINE
  8
AUTOCAD0
  6
CONTINUOUS
 62
40
 10
1.75E+001
 20
1.2574722E+002
 11
1.15E+001
 21
1.2574722E+002
  0
LINE
  8
AUTOCAD0
  6
CONTINUOUS
 62
40
 10
3.05E+001
 20
1.2574722E+002
 11
2.55E+001
 21
1.2574722E+002
  0
LINE
  8
AUTOCAD0
  6
CONTINUOUS
 62
40
 10
3.05E+001
 20
1.2199445E+002
 11
2.55E+001
 21
1.2199445E+002
  0
LINE
  8
AUTOCAD0
  6
CONTINUOUS
 62
40
 10
3.05E+001
 20
1.8005553E+001
 11
2.55E+001
 21
1.8005553E+001
  0
LINE
  8
AUTOCAD0
  6
CONTINUOUS
 62
40
 10
3.05E+001
 20
1.4252777E+001
 11
2.55E+001
 21
1.4252777E+001
  0
LINE
  8
AUTOCAD0
  6
CONTINUOUS
 62
40
 10
3.05E+001
 20
6.747223
 11
2.55E+001
 21
6.747223
  0
LINE
  8
AUTOCAD0
  6
CONTINUOUS
 62
40
 10
3.05E+001
 20
2.994447
 11
2.55E+001
 21
2.994447
  0
LINE
  8
AUTOCAD0
  6
CONTINUOUS
 62
40
 10
3.05E+001
 20
1.8005553E+001
 11
3.05E+001
 21
2.994447
  0
LINE
  8
AUTOCAD0
  6
CONTINUOUS
 62
40
 10
1.75E+001
 20
1.4252777E+001
 11
1.15E+001
 21
1.4252777E+001
  0
LINE
  8
AUTOCAD0
  6
CONTINUOUS
 62
40
 10
1.75E+001
 20
1.8005553E+001
 11
1.15E+001
 21
1.8005553E+001
  0
LINE
  8
AUTOCAD0
  6
CONTINUOUS
 62
40
 10
1.75E+001
 20
2.994447
 11
1.15E+001
 21
2.994447
  0
LINE
  8
AUTOCAD0
  6
CONTINUOUS
 62
40
 10
1.75E+001
 20
6.747223
 11
1.15E+001
 21
6.747223
  0
LINE
  8
AUTOCAD0
  6
CONTINUOUS
 62
40
 10
1.15E+001
 20
1.8005553E+001
 11
1.15E+001
 21
2.994447
  0
CIRCLE
  8
AUTOCAD0
  6
CONTINUOUS
 62
40
 10
7.275E+001
 20
8.775E+001
 40
1.75
  0
CIRCLE
  8
AUTOCAD0
  6
CONTINUOUS
 62
40
 10
5.775E+001
 20
8.775E+001
 40
1.75
  0
CIRCLE
  8
AUTOCAD0
  6
CONTINUOUS
 62
40
 10
7.275E+001
 20
5.225E+001
 40
1.75
  0
CIRCLE
  8
AUTOCAD0
  6
CONTINUOUS
 62
40
 10
5.775E+001
 20
5.225E+001
 40
1.75
  0
LINE
  8
AUTOCAD0
  6
PKV1
 62
40
 10
1.0613497E+002
 20
5.225E+001
 11
1.1801741E+002
 21
5.225E+001
  0
LINE
  8
AUTOCAD0
  6
PKV1
 62
40
 10
1.0613497E+002
 20
8.775E+001
 11
1.1801741E+002
 21
8.775E+001
  0
LINE
  8
AUTOCAD0
  6
CONTINUOUS
 62
40
 10
1.4138094E+002
 20
1.8429955E+002
 11
1.4138094E+002
 21
2.0029955E+002
  0
LINE
  8
AUTOCAD0
  6
CONTINUOUS
 62
40
 10
1.1738094E+002
 20
1.8429955E+002
 11
1.1738094E+002
 21
2.0029955E+002
  0
LINE
  8
AUTOCAD0
  6
CONTINUOUS
 62
40
 10
2.25E+001
 20
1.125E+002
 11
2.0E+001
 21
1.125E+002
  0
LINE
  8
AUTOCAD0
  6
CONTINUOUS
 62
40
 10
2.25E+001
 20
1.055E+002
 11
2.0E+001
 21
1.055E+002
  0
LINE
  8
AUTOCAD0
  6
CONTINUOUS
 62
40
 10
2.0E+001
 20
1.055E+002
 11
2.0E+001
 21
1.125E+002
  0
LINE
  8
AUTOCAD0
  6
CONTINUOUS
 62
40
 10
2.0E+001
 20
3.45E+001
 11
2.0E+001
 21
2.75E+001
  0
LINE
  8
AUTOCAD0
  6
CONTINUOUS
 62
40
 10
2.25E+001
 20
3.45E+001
 11
2.0E+001
 21
3.45E+001
  0
LINE
  8
AUTOCAD0
  6
CONTINUOUS
 62
40
 10
2.25E+001
 20
2.75E+001
 11
2.0E+001
 21
2.75E+001
  0
ENDSEC
  0
EOF
