  0
SECTION
  2
HEADER
  9
$ACADVER
  1
AC1012
  9
$DWGCODEPAGE
  3
ansi_1252
  9
$INSBASE
 10
0.0
 20
0.0
 30
0.0
  9
$EXTMIN
 10
0.237099
 20
0.237999
 30
0.0
  9
$EXTMAX
 10
392.237099
 20
262.737999
 30
0.0
  9
$LIMMIN
 10
0.0
 20
0.0
  9
$LIMMAX
 10
12.0
 20
9.0
  9
$ORTHOMODE
 70
     1
  9
$REGENMODE
 70
     1
  9
$FILLMODE
 70
     1
  9
$QTEXTMODE
 70
     0
  9
$MIRRTEXT
 70
     1
  9
$DRAGMODE
 70
     2
  9
$LTSCALE
 40
5.0
  9
$OSMODE
 70
     0
  9
$ATTMODE
 70
     1
  9
$TEXTSIZE
 40
2.0
  9
$TRACEWID
 40
0.05
  9
$TEXTSTYLE
  7
ROMANS
  9
$CLAYER
  8
0
  9
$CELTYPE
  6
CONTINUOUS
  9
$CECOLOR
 62
   256
  9
$CELTSCALE
 40
1.0
  9
$DELOBJ
 70
     1
  9
$DISPSILH
 70
     0
  9
$DIMSCALE
 40
1.0
  9
$DIMASZ
 40
0.18
  9
$DIMEXO
 40
0.0625
  9
$DIMDLI
 40
0.38
  9
$DIMRND
 40
0.0
  9
$DIMDLE
 40
0.0
  9
$DIMEXE
 40
0.18
  9
$DIMTP
 40
0.0
  9
$DIMTM
 40
0.0
  9
$DIMTXT
 40
0.18
  9
$DIMCEN
 40
0.09
  9
$DIMTSZ
 40
0.0
  9
$DIMTOL
 70
     0
  9
$DIMLIM
 70
     0
  9
$DIMTIH
 70
     1
  9
$DIMTOH
 70
     1
  9
$DIMSE1
 70
     0
  9
$DIMSE2
 70
     0
  9
$DIMTAD
 70
     0
  9
$DIMZIN
 70
     0
  9
$DIMBLK
  1

  9
$DIMASO
 70
     1
  9
$DIMSHO
 70
     1
  9
$DIMPOST
  1

  9
$DIMAPOST
  1

  9
$DIMALT
 70
     0
  9
$DIMALTD
 70
     2
  9
$DIMALTF
 40
25.4
  9
$DIMLFAC
 40
1.0
  9
$DIMTOFL
 70
     0
  9
$DIMTVP
 40
0.0
  9
$DIMTIX
 70
     0
  9
$DIMSOXD
 70
     0
  9
$DIMSAH
 70
     0
  9
$DIMBLK1
  1

  9
$DIMBLK2
  1

  9
$DIMSTYLE
  2
STANDARD
  9
$DIMCLRD
 70
     0
  9
$DIMCLRE
 70
     0
  9
$DIMCLRT
 70
     0
  9
$DIMTFAC
 40
1.0
  9
$DIMGAP
 40
0.09
  9
$DIMJUST
 70
     0
  9
$DIMSD1
 70
     0
  9
$DIMSD2
 70
     0
  9
$DIMTOLJ
 70
     1
  9
$DIMTZIN
 70
     0
  9
$DIMALTZ
 70
     0
  9
$DIMALTTZ
 70
     0
  9
$DIMFIT
 70
     3
  9
$DIMUPT
 70
     0
  9
$DIMUNIT
 70
     2
  9
$DIMDEC
 70
     4
  9
$DIMTDEC
 70
     4
  9
$DIMALTU
 70
     2
  9
$DIMALTTD
 70
     2
  9
$DIMTXSTY
  7
ROMANS
  9
$DIMAUNIT
 70
     0
  9
$LUNITS
 70
     2
  9
$LUPREC
 70
     4
  9
$SKETCHINC
 40
0.1
  9
$FILLETRAD
 40
2.0
  9
$AUNITS
 70
     0
  9
$AUPREC
 70
     0
  9
$MENU
  1
acad
  9
$ELEVATION
 40
0.0
  9
$PELEVATION
 40
0.0
  9
$THICKNESS
 40
0.0
  9
$LIMCHECK
 70
     0
  9
$BLIPMODE
 70
     1
  9
$CHAMFERA
 40
0.0
  9
$CHAMFERB
 40
0.0
  9
$CHAMFERC
 40
0.0
  9
$CHAMFERD
 40
0.0
  9
$SKPOLY
 70
     0
  9
$TDCREATE
 40
2450395.704828819
  9
$TDUPDATE
 40
2450684.706227314
  9
$TDINDWG
 40
0.0011467593
  9
$TDUSRTIMER
 40
0.0011467593
  9
$USRTIMER
 70
     1
  9
$ANGBASE
 50
0.0
  9
$ANGDIR
 70
     0
  9
$PDMODE
 70
     0
  9
$PDSIZE
 40
0.0
  9
$PLINEWID
 40
0.0
  9
$COORDS
 70
     2
  9
$SPLFRAME
 70
     0
  9
$SPLINETYPE
 70
     6
  9
$SPLINESEGS
 70
     8
  9
$ATTDIA
 70
     0
  9
$ATTREQ
 70
     1
  9
$HANDLING
 70
     1
  9
$HANDSEED
  5
C1B
  9
$SURFTAB1
 70
   250
  9
$SURFTAB2
 70
   250
  9
$SURFTYPE
 70
     6
  9
$SURFU
 70
     6
  9
$SURFV
 70
     6
  9
$UCSNAME
  2

  9
$UCSORG
 10
0.0
 20
0.0
 30
0.0
  9
$UCSXDIR
 10
1.0
 20
0.0
 30
0.0
  9
$UCSYDIR
 10
0.0
 20
1.0
 30
0.0
  9
$PUCSNAME
  2

  9
$PUCSORG
 10
0.0
 20
0.0
 30
0.0
  9
$PUCSXDIR
 10
1.0
 20
0.0
 30
0.0
  9
$PUCSYDIR
 10
0.0
 20
1.0
 30
0.0
  9
$USERI1
 70
     0
  9
$USERI2
 70
     0
  9
$USERI3
 70
     0
  9
$USERI4
 70
     0
  9
$USERI5
 70
     0
  9
$USERR1
 40
0.0
  9
$USERR2
 40
0.0
  9
$USERR3
 40
0.0
  9
$USERR4
 40
0.0
  9
$USERR5
 40
0.0
  9
$WORLDVIEW
 70
     1
  9
$SHADEDGE
 70
     3
  9
$SHADEDIF
 70
    70
  9
$TILEMODE
 70
     1
  9
$MAXACTVP
 70
    16
  9
$PINSBASE
 10
0.0
 20
0.0
 30
0.0
  9
$PLIMCHECK
 70
     0
  9
$PEXTMIN
 10
1.000000E+20
 20
1.000000E+20
 30
1.000000E+20
  9
$PEXTMAX
 10
-1.000000E+20
 20
-1.000000E+20
 30
-1.000000E+20
  9
$PLIMMIN
 10
0.0
 20
0.0
  9
$PLIMMAX
 10
12.0
 20
9.0
  9
$UNITMODE
 70
     0
  9
$VISRETAIN
 70
     0
  9
$PLINEGEN
 70
     0
  9
$PSLTSCALE
 70
     0
  9
$TREEDEPTH
 70
  3020
  9
$PICKSTYLE
 70
     1
  9
$CMLSTYLE
  2
STANDARD
  9
$CMLJUST
 70
     0
  9
$CMLSCALE
 40
1.0
  9
$SAVEIMAGES
 70
     0
  0
ENDSEC
  0
SECTION
  2
CLASSES
  0
ENDSEC
  0
SECTION
  2
TABLES
  0
TABLE
  2
VPORT
  5
8
100
AcDbSymbolTable
 70
     2
  0
VPORT
  5
C1A
100
AcDbSymbolTableRecord
100
AcDbViewportTableRecord
  2
*ACTIVE
 70
     0
 10
0.0
 20
0.0
 11
1.0
 21
1.0
 12
270.808623
 22
131.487999
 13
0.0
 23
0.0
 14
2.5
 24
2.5
 15
0.0
 25
0.0
 16
0.0
 26
0.0
 36
1.0
 17
0.0
 27
0.0
 37
0.0
 40
262.5
 41
2.061497
 42
50.0
 43
0.0
 44
0.0
 50
0.0
 51
0.0
 71
     0
 72
   100
 73
     1
 74
     1
 75
     0
 76
     0
 77
     0
 78
     0
  0
ENDTAB
  0
TABLE
  2
LTYPE
  5
5
100
AcDbSymbolTable
 70
     7
  0
LTYPE
  5
12
100
AcDbSymbolTableRecord
100
AcDbLinetypeTableRecord
  2
BYBLOCK
 70
     0
  3

 72
    65
 73
     0
 40
0.0
  0
LTYPE
  5
13
100
AcDbSymbolTableRecord
100
AcDbLinetypeTableRecord
  2
BYLAYER
 70
     0
  3

 72
    65
 73
     0
 40
0.0
  0
LTYPE
  5
14
100
AcDbSymbolTableRecord
100
AcDbLinetypeTableRecord
  2
CONTINUOUS
 70
    64
  3
Solid line
 72
    65
 73
     0
 40
0.0
  0
LTYPE
  5
47
100
AcDbSymbolTableRecord
100
AcDbLinetypeTableRecord
  2
DASHED
 70
    64
  3
__ __ __ __ __ __ __ __ __ __ __ __ __ __ __ __
 72
    65
 73
     2
 40
0.75
 49
0.5
 74
     0
 49
-0.25
 74
     0
  0
LTYPE
  5
48
100
AcDbSymbolTableRecord
100
AcDbLinetypeTableRecord
  2
CENTER
 70
    64
  3
____ _ ____ _ ____ _ ____ _ ____ _ ____ _ ____ 
 72
    65
 73
     4
 40
2.0
 49
1.25
 74
     0
 49
-0.25
 74
     0
 49
0.25
 74
     0
 49
-0.25
 74
     0
  0
LTYPE
  5
49
100
AcDbSymbolTableRecord
100
AcDbLinetypeTableRecord
  2
HIDDEN
 70
    64
  3
__ __ __ __ __ __ __ __ __ __ __ __ __ __ __ __
 72
    65
 73
     2
 40
0.375
 49
0.25
 74
     0
 49
-0.125
 74
     0
  0
LTYPE
  5
4A
100
AcDbSymbolTableRecord
100
AcDbLinetypeTableRecord
  2
DOT
 70
     0
  3
. . . . . . . . . . . . . . . . . . . . . . . .
 72
    65
 73
     2
 40
0.25
 49
0.0
 74
     0
 49
-0.25
 74
     0
  0
LTYPE
  5
4B
100
AcDbSymbolTableRecord
100
AcDbLinetypeTableRecord
  2
DASHDOT
 70
     0
  3
__ . __ . __ . __ . __ . __ . __ . __ . __ . __
 72
    65
 73
     4
 40
1.0
 49
0.5
 74
     0
 49
-0.25
 74
     0
 49
0.0
 74
     0
 49
-0.25
 74
     0
  0
LTYPE
  5
4C
100
AcDbSymbolTableRecord
100
AcDbLinetypeTableRecord
  2
PHANTOM
 70
     0
  3
______  __  __  ______  __  __  ______  __  __ 
 72
    65
 73
     6
 40
2.5
 49
1.25
 74
     0
 49
-0.25
 74
     0
 49
0.25
 74
     0
 49
-0.25
 74
     0
 49
0.25
 74
     0
 49
-0.25
 74
     0
  0
ENDTAB
  0
TABLE
  2
LAYER
  5
2
100
AcDbSymbolTable
 70
    14
  0
LAYER
  5
F
100
AcDbSymbolTableRecord
100
AcDbLayerTableRecord
  2
0
 70
    64
 62
     7
  6
CONTINUOUS
  0
LAYER
  5
50
100
AcDbSymbolTableRecord
100
AcDbLayerTableRecord
  2
RAAMI
 70
    64
 62
    -4
  6
CONTINUOUS
  0
LAYER
  5
51
100
AcDbSymbolTableRecord
100
AcDbLayerTableRecord
  2
PAKSU
 70
    64
 62
    -3
  6
CONTINUOUS
  0
LAYER
  5
52
100
AcDbSymbolTableRecord
100
AcDbLayerTableRecord
  2
OHUT
 70
    64
 62
    -6
  6
CONTINUOUS
  0
LAYER
  5
53
100
AcDbSymbolTableRecord
100
AcDbLayerTableRecord
  2
SWEDEN
 70
    64
 62
    -7
  6
CONTINUOUS
  0
LAYER
  5
54
100
AcDbSymbolTableRecord
100
AcDbLayerTableRecord
  2
SWEDEN2
 70
    64
 62
    -5
  6
CONTINUOUS
  0
LAYER
  5
55
100
AcDbSymbolTableRecord
100
AcDbLayerTableRecord
  2
BASE
 70
    64
 62
    -7
  6
CONTINUOUS
  0
LAYER
  5
56
100
AcDbSymbolTableRecord
100
AcDbLayerTableRecord
  2
21
 70
    64
 62
    -2
  6
CONTINUOUS
  0
LAYER
  5
57
100
AcDbSymbolTableRecord
100
AcDbLayerTableRecord
  2
HEL035
 70
    64
 62
    -7
  6
CONTINUOUS
  0
LAYER
  5
58
100
AcDbSymbolTableRecord
100
AcDbLayerTableRecord
  2
MUO
 70
    64
 62
    -7
  6
CONTINUOUS
  0
LAYER
  5
59
100
AcDbSymbolTableRecord
100
AcDbLayerTableRecord
  2
1
 70
    64
 62
    -2
  6
CONTINUOUS
  0
LAYER
  5
5A
100
AcDbSymbolTableRecord
100
AcDbLayerTableRecord
  2
BASE1
 70
    64
 62
    -5
  6
CONTINUOUS
  0
LAYER
  5
5B
100
AcDbSymbolTableRecord
100
AcDbLayerTableRecord
  2
TEKS
 70
    64
 62
    -5
  6
CONTINUOUS
  0
LAYER
  5
5C
100
AcDbSymbolTableRecord
100
AcDbLayerTableRecord
  2
DEFPOINTS
 70
    64
 62
    -7
  6
CONTINUOUS
  0
ENDTAB
  0
TABLE
  2
STYLE
  5
3
100
AcDbSymbolTable
 70
     4
  0
STYLE
  5
10
100
AcDbSymbolTableRecord
100
AcDbTextStyleTableRecord
  2
STANDARD
 70
    64
 40
0.0
 41
1.0
 50
0.0
 71
     0
 42
2.5
  3
txt
  4

  0
STYLE
  5
44
100
AcDbSymbolTableRecord
100
AcDbTextStyleTableRecord
  2
ROMANS
 70
    64
 40
2.0
 41
1.0
 50
0.0
 71
     0
 42
2.0
  3
romans
  4

  0
STYLE
  5
45
100
AcDbSymbolTableRecord
100
AcDbTextStyleTableRecord
  2
GREEKC
 70
     0
 40
0.0
 41
1.0
 50
0.0
 71
     0
 42
1.5
  3
GREEKC
  4

  0
STYLE
  5
46
100
AcDbSymbolTableRecord
100
AcDbTextStyleTableRecord
  2
GREEKS
 70
    64
 40
0.0
 41
1.0
 50
0.0
 71
     0
 42
2.0
  3
TXT
  4

  0
ENDTAB
  0
TABLE
  2
VIEW
  5
6
100
AcDbSymbolTable
 70
     0
  0
ENDTAB
  0
TABLE
  2
UCS
  5
7
100
AcDbSymbolTable
 70
     0
  0
ENDTAB
  0
TABLE
  2
APPID
  5
9
100
AcDbSymbolTable
 70
     1
  0
APPID
  5
11
100
AcDbSymbolTableRecord
100
AcDbRegAppTableRecord
  2
ACAD
 70
    64
  0
ENDTAB
  0
TABLE
  2
DIMSTYLE
  5
A
100
AcDbSymbolTable
 70
     1
  0
DIMSTYLE
105
86E
100
AcDbSymbolTableRecord
100
AcDbDimStyleTableRecord
  2
STANDARD
 70
     0
  3

  4

  5

  6

  7

 40
1.0
 41
0.18
 42
0.0625
 43
0.38
 44
0.18
 45
0.0
 46
0.0
 47
0.0
 48
0.0
140
0.18
141
0.09
142
0.0
143
25.4
144
1.0
145
0.0
146
1.0
147
0.09
 71
     0
 72
     0
 73
     1
 74
     1
 75
     0
 76
     0
 77
     0
 78
     0
170
     0
171
     2
172
     0
173
     0
174
     0
175
     0
176
     0
177
     0
178
     0
270
     2
271
     4
272
     4
273
     2
274
     2
340
10
275
     0
280
     0
281
     0
282
     0
283
     1
284
     0
285
     0
286
     0
287
     3
288
     0
  0
ENDTAB
  0
TABLE
  2
BLOCK_RECORD
  5
1
100
AcDbSymbolTable
 70
    40
  0
BLOCK_RECORD
  5
18
100
AcDbSymbolTableRecord
100
AcDbBlockTableRecord
  2
*MODEL_SPACE
  0
BLOCK_RECORD
  5
15
100
AcDbSymbolTableRecord
100
AcDbBlockTableRecord
  2
*PAPER_SPACE
  0
BLOCK_RECORD
  5
1C
100
AcDbSymbolTableRecord
100
AcDbBlockTableRecord
  2
1
  0
BLOCK_RECORD
  5
1D
100
AcDbSymbolTableRecord
100
AcDbBlockTableRecord
  2
BLC27
  0
BLOCK_RECORD
  5
1E
100
AcDbSymbolTableRecord
100
AcDbBlockTableRecord
  2
BLC26
  0
BLOCK_RECORD
  5
1F
100
AcDbSymbolTableRecord
100
AcDbBlockTableRecord
  2
BLC29
  0
BLOCK_RECORD
  5
20
100
AcDbSymbolTableRecord
100
AcDbBlockTableRecord
  2
WKU130
  0
BLOCK_RECORD
  5
29
100
AcDbSymbolTableRecord
100
AcDbBlockTableRecord
  2
BLC15
  0
BLOCK_RECORD
  5
2A
100
AcDbSymbolTableRecord
100
AcDbBlockTableRecord
  2
BLC55
  0
BLOCK_RECORD
  5
2B
100
AcDbSymbolTableRecord
100
AcDbBlockTableRecord
  2
BLC5
  0
BLOCK_RECORD
  5
2C
100
AcDbSymbolTableRecord
100
AcDbBlockTableRecord
  2
BLC43
  0
BLOCK_RECORD
  5
2D
100
AcDbSymbolTableRecord
100
AcDbBlockTableRecord
  2
BLC42
  0
BLOCK_RECORD
  5
2E
100
AcDbSymbolTableRecord
100
AcDbBlockTableRecord
  2
BLC44
  0
BLOCK_RECORD
  5
2F
100
AcDbSymbolTableRecord
100
AcDbBlockTableRecord
  2
B39
  0
BLOCK_RECORD
  5
30
100
AcDbSymbolTableRecord
100
AcDbBlockTableRecord
  2
MAA
  0
BLOCK_RECORD
  5
31
100
AcDbSymbolTableRecord
100
AcDbBlockTableRecord
  2
B601
  0
BLOCK_RECORD
  5
32
100
AcDbSymbolTableRecord
100
AcDbBlockTableRecord
  2
B650
  0
BLOCK_RECORD
  5
33
100
AcDbSymbolTableRecord
100
AcDbBlockTableRecord
  2
B507
  0
BLOCK_RECORD
  5
35
100
AcDbSymbolTableRecord
100
AcDbBlockTableRecord
  2
B72
  0
BLOCK_RECORD
  5
36
100
AcDbSymbolTableRecord
100
AcDbBlockTableRecord
  2
B146
  0
BLOCK_RECORD
  5
37
100
AcDbSymbolTableRecord
100
AcDbBlockTableRecord
  2
B155
  0
BLOCK_RECORD
  5
38
100
AcDbSymbolTableRecord
100
AcDbBlockTableRecord
  2
B73
  0
BLOCK_RECORD
  5
39
100
AcDbSymbolTableRecord
100
AcDbBlockTableRecord
  2
B17
  0
BLOCK_RECORD
  5
3A
100
AcDbSymbolTableRecord
100
AcDbBlockTableRecord
  2
BLC16
  0
BLOCK_RECORD
  5
3B
100
AcDbSymbolTableRecord
100
AcDbBlockTableRecord
  2
B114
  0
BLOCK_RECORD
  5
3C
100
AcDbSymbolTableRecord
100
AcDbBlockTableRecord
  2
B961
  0
BLOCK_RECORD
  5
3D
100
AcDbSymbolTableRecord
100
AcDbBlockTableRecord
  2
B963
  0
BLOCK_RECORD
  5
3E
100
AcDbSymbolTableRecord
100
AcDbBlockTableRecord
  2
B971
  0
BLOCK_RECORD
  5
3F
100
AcDbSymbolTableRecord
100
AcDbBlockTableRecord
  2
B972
  0
BLOCK_RECORD
  5
40
100
AcDbSymbolTableRecord
100
AcDbBlockTableRecord
  2
B980
  0
BLOCK_RECORD
  5
41
100
AcDbSymbolTableRecord
100
AcDbBlockTableRecord
  2
B204
  0
BLOCK_RECORD
  5
42
100
AcDbSymbolTableRecord
100
AcDbBlockTableRecord
  2
B13
  0
BLOCK_RECORD
  5
43
100
AcDbSymbolTableRecord
100
AcDbBlockTableRecord
  2
B37
  0
ENDTAB
  0
ENDSEC
  0
SECTION
  2
BLOCKS
  0
BLOCK
  5
5F
100
AcDbEntity
  8
0
  6
CONTINUOUS
100
AcDbBlockBegin
  2
*MODEL_SPACE
 70
     0
 10
0.0
 20
0.0
 30
0.0
  3
*MODEL_SPACE
  1

  0
ENDBLK
  5
60
100
AcDbEntity
  8
0
  6
CONTINUOUS
100
AcDbBlockEnd
  0
BLOCK
  5
5D
100
AcDbEntity
 67
     1
  8
0
  6
CONTINUOUS
100
AcDbBlockBegin
  2
*PAPER_SPACE
 70
     0
 10
0.0
 20
0.0
 30
0.0
  3
*PAPER_SPACE
  1

  0
ENDBLK
  5
5E
100
AcDbEntity
 67
     1
  8
0
  6
CONTINUOUS
100
AcDbBlockEnd
  0
BLOCK
  5
61
100
AcDbEntity
  8
0
100
AcDbBlockBegin
  2
1
 70
    64
 10
0.0
 20
0.0
 30
0.0
  3
1
  1

  0
ENDBLK
  5
62
100
AcDbEntity
  8
0
100
AcDbBlockEnd
  0
BLOCK
  5
63
100
AcDbEntity
  8
0
100
AcDbBlockBegin
  2
BLC27
 70
    64
 10
0.0
 20
0.0
 30
0.0
  3
BLC27
  1

  0
INSERT
  5
64
100
AcDbEntity
  8
SWEDEN2
  6
CENTER
100
AcDbBlockReference
  2
BLC26
 10
0.08063
 20
0.037985
 30
0.0
 41
1.006225
 42
1.006225
 43
1.006225
  0
ENDBLK
  5
65
100
AcDbEntity
  8
0
100
AcDbBlockEnd
  0
BLOCK
  5
66
100
AcDbEntity
  8
0
100
AcDbBlockBegin
  2
BLC26
 70
    64
 10
0.0
 20
0.0
 30
0.0
  3
BLC26
  1

  0
ARC
  5
67
100
AcDbEntity
  8
0
  6
CONTINUOUS
100
AcDbCircle
 10
-0.180576
 20
1.17922
 30
0.0
 40
1.196859
100
AcDbArc
 50
90.0
 51
265.706237
  0
LINE
  5
68
100
AcDbEntity
  8
0
  6
CONTINUOUS
100
AcDbLine
 10
-0.186638
 20
-0.01092
 30
0.0
 11
0.458942
 21
-0.01092
 31
0.0
  0
LINE
  5
69
100
AcDbEntity
  8
0
  6
CONTINUOUS
100
AcDbLine
 10
-0.186638
 20
2.375671
 30
0.0
 11
0.45288
 21
2.375671
 31
0.0
  0
LINE
  5
6A
100
AcDbEntity
  8
0
  6
CONTINUOUS
100
AcDbLine
 10
-0.185509
 20
-2.404629
 30
0.0
 11
0.460071
 21
-2.404629
 31
0.0
  0
ARC
  5
6B
100
AcDbEntity
  8
0
  6
CONTINUOUS
100
AcDbCircle
 10
-0.180576
 20
-1.207779
 30
0.0
 40
1.196859
100
AcDbArc
 50
90.0
 51
270.0
  0
LINE
  5
6C
100
AcDbEntity
  8
0
  6
CONTINUOUS
100
AcDbLine
 10
0.451525
 20
-2.404586
 30
0.0
 11
1.401805
 21
-2.404586
 31
0.0
  0
LINE
  5
6D
100
AcDbEntity
  8
0
  6
CONTINUOUS
100
AcDbLine
 10
0.446785
 20
2.375674
 30
0.0
 11
1.418544
 21
2.375674
 31
0.0
  0
LINE
  5
6E
100
AcDbEntity
  8
0
  6
CONTINUOUS
100
AcDbLine
 10
0.456627
 20
-0.010911
 30
0.0
 11
1.422749
 21
-0.010911
 31
0.0
  0
ENDBLK
  5
6F
100
AcDbEntity
  8
0
100
AcDbBlockEnd
  0
BLOCK
  5
70
100
AcDbEntity
  8
0
100
AcDbBlockBegin
  2
BLC29
 70
    64
 10
0.0
 20
0.0
 30
0.0
  3
BLC29
  1

  0
LINE
  5
71
100
AcDbEntity
  8
0
  6
CONTINUOUS
100
AcDbLine
 10
0.004865
 20
1.206889
 30
0.0
 11
2.350631
 21
-0.128465
 31
0.0
  0
LINE
  5
72
100
AcDbEntity
  8
0
  6
CONTINUOUS
100
AcDbLine
 10
2.350631
 20
-0.128465
 30
0.0
 11
0.004865
 21
-1.318384
 31
0.0
  0
ENDBLK
  5
73
100
AcDbEntity
  8
0
100
AcDbBlockEnd
  0
BLOCK
  5
74
100
AcDbEntity
  8
0
100
AcDbBlockBegin
  2
WKU130
 70
    64
 10
190.0
 20
250.0
 30
0.0
  3
WKU130
  1

  0
ARC
  5
75
100
AcDbEntity
  8
21
100
AcDbCircle
 10
191.083333
 20
249.916667
 30
0.0
 40
1.086534
100
AcDbArc
 50
32.471192
 51
175.601295
  0
ARC
  5
76
100
AcDbEntity
  8
21
100
AcDbCircle
 10
192.916667
 20
251.083333
 30
0.0
 40
1.086534
100
AcDbArc
 50
212.471192
 51
355.601295
  0
ENDBLK
  5
77
100
AcDbEntity
  8
0
100
AcDbBlockEnd
  0
BLOCK
  5
1DE
100
AcDbEntity
  8
0
100
AcDbBlockBegin
  2
BLC15
 70
    64
 10
0.0
 20
0.0
 30
0.0
  3
BLC15
  1

  0
LINE
  5
1DF
100
AcDbEntity
  8
0
  6
CONTINUOUS
100
AcDbLine
 10
0.142084
 20
3.490022
 30
0.0
 11
0.142084
 21
0.844365
 31
0.0
  0
LINE
  5
1E0
100
AcDbEntity
  8
0
  6
CONTINUOUS
100
AcDbLine
 10
-0.461611
 20
-0.937188
 30
0.0
 11
0.745779
 21
-0.937188
 31
0.0
  0
LINE
  5
1E1
100
AcDbEntity
  8
0
  6
CONTINUOUS
100
AcDbLine
 10
-0.894108
 20
-0.049675
 30
0.0
 11
1.169267
 21
-0.049675
 31
0.0
  0
LINE
  5
1E2
100
AcDbEntity
  8
0
  6
CONTINUOUS
100
AcDbLine
 10
-1.389679
 20
0.844365
 30
0.0
 11
1.673848
 21
0.844365
 31
0.0
  0
ENDBLK
  5
1E3
100
AcDbEntity
  8
0
100
AcDbBlockEnd
  0
BLOCK
  5
1E4
100
AcDbEntity
  8
0
100
AcDbBlockBegin
  2
BLC55
 70
    64
 10
0.0
 20
0.0
 30
0.0
  3
BLC55
  1

  0
INSERT
  5
1E5
100
AcDbEntity
  8
SWEDEN
  6
CENTER
100
AcDbBlockReference
  2
BLC5
 10
0.087066
 20
-0.756831
 30
0.0
 41
0.6
 42
0.6
 43
0.6
  0
ENDBLK
  5
1E6
100
AcDbEntity
  8
0
100
AcDbBlockEnd
  0
BLOCK
  5
1E7
100
AcDbEntity
  8
0
100
AcDbBlockBegin
  2
BLC5
 70
    64
 10
0.0
 20
0.0
 30
0.0
  3
BLC5
  1

  0
TEXT
  5
1E8
100
AcDbEntity
  8
0
100
AcDbText
 10
-3.043704
 20
-6.645912
 30
0.0
 40
3.2
  1
PE
100
AcDbText
  0
LINE
  5
1E9
100
AcDbEntity
  8
0
100
AcDbLine
 10
-2.946392
 20
1.181176
 30
0.0
 11
2.135458
 21
1.181176
 31
0.0
  0
LINE
  5
1EA
100
AcDbEntity
  8
0
100
AcDbLine
 10
-0.48656
 20
2.238362
 30
0.0
 11
-0.48656
 21
6.930438
 31
0.0
  0
LINE
  5
1EB
100
AcDbEntity
  8
0
100
AcDbLine
 10
-1.973271
 20
0.065258
 30
0.0
 11
1.225411
 21
0.065258
 31
0.0
  0
LINE
  5
1EC
100
AcDbEntity
  8
0
100
AcDbLine
 10
2.685091
 20
2.238362
 30
0.0
 11
1.68494
 21
2.238362
 31
0.0
  0
LINE
  5
1ED
100
AcDbEntity
  8
0
100
AcDbLine
 10
-3.505035
 20
2.238362
 30
0.0
 11
2.649049
 21
2.238362
 31
0.0
  0
CIRCLE
  5
1EE
100
AcDbEntity
  8
0
100
AcDbCircle
 10
-0.47755
 20
1.422632
 30
0.0
 40
3.804563
  0
ENDBLK
  5
1EF
100
AcDbEntity
  8
0
100
AcDbBlockEnd
  0
BLOCK
  5
1F0
100
AcDbEntity
  8
0
100
AcDbBlockBegin
  2
BLC43
 70
    64
 10
0.0
 20
0.0
 30
0.0
  3
BLC43
  1

  0
TEXT
  5
1F1
100
AcDbEntity
  8
SWEDEN2
  6
CONTINUOUS
100
AcDbText
 10
-0.646672
 20
-0.986365
 30
0.0
 40
2.0
  1
+
100
AcDbText
  0
ENDBLK
  5
1F2
100
AcDbEntity
  8
0
100
AcDbBlockEnd
  0
BLOCK
  5
1F3
100
AcDbEntity
  8
0
100
AcDbBlockBegin
  2
BLC42
 70
    64
 10
0.0
 20
0.0
 30
0.0
  3
BLC42
  1

  0
TEXT
  5
1F4
100
AcDbEntity
  8
SWEDEN2
  6
CONTINUOUS
100
AcDbText
 10
-0.655237
 20
-0.99442
 30
0.0
 40
2.0
  1
-
100
AcDbText
  0
ENDBLK
  5
1F5
100
AcDbEntity
  8
0
100
AcDbBlockEnd
  0
BLOCK
  5
1F6
100
AcDbEntity
  8
0
100
AcDbBlockBegin
  2
BLC44
 70
     0
 10
0.0
 20
0.0
 30
0.0
  3
BLC44
  1

  0
LINE
  5
1F7
100
AcDbEntity
  8
HEL035
100
AcDbLine
 10
-2.520993
 20
1.697877
 30
0.0
 11
1.479007
 21
1.697877
 31
0.0
  0
INSERT
  5
1F8
100
AcDbEntity
  8
HEL035
100
AcDbBlockReference
  2
WKU130
 10
-2.181043
 20
-0.027675
 30
0.0
 41
0.8
 42
0.8
 43
0.8
  0
ENDBLK
  5
1F9
100
AcDbEntity
  8
0
100
AcDbBlockEnd
  0
BLOCK
  5
1FA
100
AcDbEntity
  8
0
100
AcDbBlockBegin
  2
B39
 70
     0
 10
0.0
 20
0.0
 30
0.0
  3
B39
  1

  0
LINE
  5
1FB
100
AcDbEntity
  8
0
100
AcDbLine
 10
-10.0
 20
2.5
 30
0.0
 11
-11.519867
 21
2.5
 31
0.0
  0
ARC
  5
1FC
100
AcDbEntity
  8
0
100
AcDbCircle
 10
-9.934151
 20
3.75
 30
0.0
 40
1.251733
100
AcDbArc
 50
266.984476
 51
93.015524
  0
LINE
  5
1FD
100
AcDbEntity
  8
0
100
AcDbLine
 10
-10.0
 20
5.0
 30
0.0
 11
-11.519867
 21
5.0
 31
0.0
  0
LINE
  5
1FE
100
AcDbEntity
  8
0
100
AcDbLine
 10
-10.0
 20
7.5
 30
0.0
 11
-11.519867
 21
7.5
 31
0.0
  0
ARC
  5
1FF
100
AcDbEntity
  8
0
100
AcDbCircle
 10
-9.934151
 20
6.25
 30
0.0
 40
1.251733
100
AcDbArc
 50
266.984476
 51
93.015524
  0
LINE
  5
200
100
AcDbEntity
  8
0
100
AcDbLine
 10
-5.0
 20
0.0
 30
0.0
 11
-2.5
 21
0.0
 31
0.0
  0
ARC
  5
201
100
AcDbEntity
  8
0
100
AcDbCircle
 10
-5.065849
 20
1.25
 30
0.0
 40
1.251733
100
AcDbArc
 50
86.984476
 51
273.015524
  0
ARC
  5
202
100
AcDbEntity
  8
0
100
AcDbCircle
 10
-5.065849
 20
3.75
 30
0.0
 40
1.251733
100
AcDbArc
 50
86.984476
 51
273.015524
  0
LINE
  5
203
100
AcDbEntity
  8
0
100
AcDbLine
 10
-5.0
 20
2.5
 30
0.0
 11
-2.5
 21
2.5
 31
0.0
  0
LINE
  5
204
100
AcDbEntity
  8
0
100
AcDbLine
 10
-5.0
 20
5.0
 30
0.0
 11
-2.5
 21
5.0
 31
0.0
  0
LINE
  5
205
100
AcDbEntity
  8
0
100
AcDbLine
 10
-2.5
 20
5.0
 30
0.0
 11
0.0
 21
5.0
 31
0.0
  0
LINE
  5
206
100
AcDbEntity
  8
0
100
AcDbLine
 10
-2.5
 20
0.0
 30
0.0
 11
0.0
 21
0.0
 31
0.0
  0
LINE
  5
207
100
AcDbEntity
  8
0
100
AcDbLine
 10
-2.5
 20
5.0
 30
0.0
 11
0.0
 21
5.0
 31
0.0
  0
LINE
  5
208
100
AcDbEntity
  8
0
100
AcDbLine
 10
-2.5
 20
10.0
 30
0.0
 11
0.0
 21
10.0
 31
0.0
  0
LINE
  5
209
100
AcDbEntity
  8
0
100
AcDbLine
 10
-5.0
 20
10.0
 30
0.0
 11
-2.5
 21
10.0
 31
0.0
  0
LINE
  5
20A
100
AcDbEntity
  8
0
100
AcDbLine
 10
-5.0
 20
7.5
 30
0.0
 11
-2.5
 21
7.5
 31
0.0
  0
ARC
  5
20B
100
AcDbEntity
  8
0
100
AcDbCircle
 10
-5.065849
 20
8.75
 30
0.0
 40
1.251733
100
AcDbArc
 50
86.984476
 51
273.015524
  0
ARC
  5
20C
100
AcDbEntity
  8
0
100
AcDbCircle
 10
-5.065849
 20
6.25
 30
0.0
 40
1.251733
100
AcDbArc
 50
86.984476
 51
273.015524
  0
LINE
  5
20D
100
AcDbEntity
  8
0
100
AcDbLine
 10
-5.0
 20
5.0
 30
0.0
 11
-2.5
 21
5.0
 31
0.0
  0
ENDBLK
  5
20E
100
AcDbEntity
  8
0
100
AcDbBlockEnd
  0
BLOCK
  5
20F
100
AcDbEntity
  8
0
100
AcDbBlockBegin
  2
MAA
 70
     0
 10
0.0
 20
0.0
 30
0.0
  3
MAA
  1

  0
LINE
  5
210
100
AcDbEntity
  8
0
  6
CONTINUOUS
100
AcDbLine
 10
-0.500718
 20
-2.587966
 30
0.0
 11
0.386169
 21
-2.587966
 31
0.0
  0
LINE
  5
211
100
AcDbEntity
  8
0
  6
CONTINUOUS
100
AcDbLine
 10
-0.831823
 20
-1.976333
 30
0.0
 11
0.752749
 21
-1.976333
 31
0.0
  0
LINE
  5
212
100
AcDbEntity
  8
0
  6
CONTINUOUS
100
AcDbLine
 10
-0.015887
 20
-1.35427
 30
0.0
 11
1.178454
 21
-1.35427
 31
0.0
  0
LINE
  5
213
100
AcDbEntity
  8
0
  6
CONTINUOUS
100
AcDbLine
 10
-1.210228
 20
-1.35427
 30
0.0
 11
-0.015887
 21
-1.35427
 31
0.0
  0
LINE
  5
214
100
AcDbEntity
  8
0
  6
CONTINUOUS
100
AcDbLine
 10
0.0
 20
0.0
 30
0.0
 11
0.0
 21
-1.35427
 31
0.0
  0
ENDBLK
  5
215
100
AcDbEntity
  8
0
100
AcDbBlockEnd
  0
BLOCK
  5
216
100
AcDbEntity
  8
0
100
AcDbBlockBegin
  2
B601
 70
     0
 10
0.0
 20
0.0
 30
0.0
  3
B601
  1

  0
TEXT
  5
217
100
AcDbEntity
  8
0
  6
CONTINUOUS
100
AcDbText
 10
59.534832
 20
-5.235531
 30
0.0
 40
2.0
  1
:
  7
ROMANS
100
AcDbText
  0
TEXT
  5
218
100
AcDbEntity
  8
0
  6
CONTINUOUS
100
AcDbText
 10
47.202831
 20
-68.668405
 30
0.0
 40
2.0
  1
1,2,3
  7
ROMANS
100
AcDbText
  0
TEXT
  5
219
100
AcDbEntity
  8
0
  6
CONTINUOUS
100
AcDbText
 10
32.935125
 20
-68.668405
 30
0.0
 40
2.0
  1
1
  7
ROMANS
100
AcDbText
  0
TEXT
  5
21A
100
AcDbEntity
  8
0
  6
CONTINUOUS
100
AcDbText
 10
5.316239
 20
-68.668405
 30
0.0
 40
2.0
  1
U31
  7
ROMANS
100
AcDbText
  0
TEXT
  5
21B
100
AcDbEntity
  8
0
  6
CONTINUOUS
100
AcDbText
 10
47.202831
 20
-63.694849
 30
0.0
 40
2.0
  1
4,5,6
  7
ROMANS
100
AcDbText
  0
TEXT
  5
21C
100
AcDbEntity
  8
0
  6
CONTINUOUS
100
AcDbText
 10
32.935125
 20
-63.694849
 30
0.0
 40
2.0
  1
2
  7
ROMANS
100
AcDbText
  0
TEXT
  5
21D
100
AcDbEntity
  8
0
  6
CONTINUOUS
100
AcDbText
 10
5.316239
 20
-63.694849
 30
0.0
 40
2.0
  1
U23
  7
ROMANS
100
AcDbText
  0
TEXT
  5
21E
100
AcDbEntity
  8
0
  6
CONTINUOUS
100
AcDbText
 10
47.202831
 20
-58.424068
 30
0.0
 40
2.0
  1
7,8,9
  7
ROMANS
100
AcDbText
  0
TEXT
  5
21F
100
AcDbEntity
  8
0
  6
CONTINUOUS
100
AcDbText
 10
5.316239
 20
-58.424068
 30
0.0
 40
2.0
  1
U12
  7
ROMANS
100
AcDbText
  0
TEXT
  5
220
100
AcDbEntity
  8
0
  6
CONTINUOUS
100
AcDbText
 10
32.935125
 20
-58.424068
 30
0.0
 40
2.0
  1
3
  7
ROMANS
100
AcDbText
  0
TEXT
  5
221
100
AcDbEntity
  8
0
  6
CONTINUOUS
100
AcDbText
 10
46.901883
 20
-52.529116
 30
0.0
 40
2.0
  1
S2
  7
ROMANS
100
AcDbText
  0
TEXT
  5
222
100
AcDbEntity
  8
0
  6
CONTINUOUS
100
AcDbText
 10
32.935125
 20
-52.529116
 30
0.0
 40
2.0
  1
S1
  7
ROMANS
100
AcDbText
  0
LINE
  5
223
100
AcDbEntity
  8
0
  6
CONTINUOUS
100
AcDbLine
 10
42.161359
 20
-70.0
 30
0.0
 11
42.161359
 21
-43.567582
 31
0.0
  0
LINE
  5
224
100
AcDbEntity
  8
0
  6
CONTINUOUS
100
AcDbLine
 10
26.511436
 20
-43.567582
 30
0.0
 11
26.511436
 21
-70.0
 31
0.0
  0
LINE
  5
225
100
AcDbEntity
  8
0
  6
CONTINUOUS
100
AcDbLine
 10
-0.988564
 20
-70.0
 30
0.0
 11
60.940538
 21
-70.0
 31
0.0
  0
LINE
  5
226
100
AcDbEntity
  8
0
  6
CONTINUOUS
100
AcDbLine
 10
-0.988564
 20
-65.0
 30
0.0
 11
-0.988564
 21
-70.0
 31
0.0
  0
LINE
  5
227
100
AcDbEntity
  8
0
  6
CONTINUOUS
100
AcDbLine
 10
60.940538
 20
-65.0
 30
0.0
 11
-0.988564
 21
-65.0
 31
0.0
  0
LINE
  5
228
100
AcDbEntity
  8
0
  6
CONTINUOUS
100
AcDbLine
 10
60.940538
 20
-43.567582
 30
0.0
 11
60.940538
 21
-70.0
 31
0.0
  0
LINE
  5
229
100
AcDbEntity
  8
0
  6
CONTINUOUS
100
AcDbLine
 10
-0.988564
 20
-60.0
 30
0.0
 11
60.940538
 21
-60.0
 31
0.0
  0
LINE
  5
22A
100
AcDbEntity
  8
0
  6
CONTINUOUS
100
AcDbLine
 10
-0.988564
 20
-43.567582
 30
0.0
 11
-0.988564
 21
-70.0
 31
0.0
  0
LINE
  5
22B
100
AcDbEntity
  8
0
  6
CONTINUOUS
100
AcDbLine
 10
60.940538
 20
-55.0
 30
0.0
 11
-0.988564
 21
-55.0
 31
0.0
  0
LINE
  5
22C
100
AcDbEntity
  8
0
  6
CONTINUOUS
100
AcDbLine
 10
-0.988564
 20
-43.567582
 30
0.0
 11
60.940538
 21
-43.567582
 31
0.0
  0
TEXT
  5
22D
100
AcDbEntity
  8
0
  6
CENTER
100
AcDbText
 10
1.776436
 20
-53.768986
 30
0.0
 40
2.0
  1
SPÄNNINGDVAL
  7
ROMANS
100
AcDbText
  0
TEXT
  5
22E
100
AcDbEntity
  8
0
  6
CENTER
100
AcDbText
 10
1.776436
 20
-49.906719
 30
0.0
 40
2.0
  1
SELECTION
  7
ROMANS
100
AcDbText
  0
TEXT
  5
22F
100
AcDbEntity
  8
0
  6
CENTER
100
AcDbText
 10
1.776436
 20
-46.668624
 30
0.0
 40
2.0
  1
VOLTAGE
  7
ROMANS
100
AcDbText
  0
TEXT
  5
230
100
AcDbEntity
  8
0
  6
CENTER
100
AcDbText
 10
-0.71888
 20
-33.597351
 30
0.0
 40
2.0
  1
I POSITION 1, ÖVRIGA SWITCHAR I POSITION 0.
  7
ROMANS
100
AcDbText
  0
TEXT
  5
231
100
AcDbEntity
  8
0
  6
CENTER
100
AcDbText
 10
-0.71888
 20
-30.359256
 30
0.0
 40
2.0
  1
DE SWITCHAR SOM FINNS I TABELLEN SKALL VARA
  7
ROMANS
100
AcDbText
  0
TEXT
  5
232
100
AcDbEntity
  8
0
  6
CENTER
100
AcDbText
 10
-0.71888
 20
-27.12116
 30
0.0
 40
2.0
  1
INSTÄLLNING AV SWITCHARNA S1 OCH S2:
  7
ROMANS
100
AcDbText
  0
TEXT
  5
233
100
AcDbEntity
  8
0
  6
CENTER
100
AcDbText
 10
-0.640127
 20
-21.840472
 30
0.0
 40
2.0
  1
SPTM 6A3:
  7
ROMANS
100
AcDbText
  0
TEXT
  5
234
100
AcDbEntity
  8
0
  6
CENTER
100
AcDbText
 10
-0.723312
 20
-11.870242
 30
0.0
 40
2.0
  1
POSITION 1, OTHER SWITCHES IN POSITION 0.
  7
ROMANS
100
AcDbText
  0
TEXT
  5
235
100
AcDbEntity
  8
0
  6
CENTER
100
AcDbText
 10
-0.723312
 20
-8.632146
 30
0.0
 40
2.0
  1
SWITCHES MENTIONED IN THE TABLE SHOULD BE IN
  7
ROMANS
100
AcDbText
  0
TEXT
  5
236
100
AcDbEntity
  8
0
  6
CENTER
100
AcDbText
 10
-0.723312
 20
-5.394051
 30
0.0
 40
2.0
  1
SETTING OF DIP SWITCHES S1 AND S2
  7
ROMANS
100
AcDbText
  0
TEXT
  5
237
100
AcDbEntity
  8
0
  6
CENTER
100
AcDbText
 10
-0.453278
 20
0.595946
 30
0.0
 40
2.0
  1
SPTM 6A3:
  7
ROMANS
100
AcDbText
  0
ENDBLK
  5
238
100
AcDbEntity
  8
0
100
AcDbBlockEnd
  0
BLOCK
  5
239
100
AcDbEntity
  8
0
100
AcDbBlockBegin
  2
B650
 70
     0
 10
0.0
 20
0.0
 30
0.0
  3
B650
  1

  0
LINE
  5
23A
100
AcDbEntity
  8
BASE1
  6
CONTINUOUS
100
AcDbLine
 10
-0.345908
 20
0.860077
 30
0.0
 11
-0.345908
 21
-0.928054
 31
0.0
  0
LINE
  5
23B
100
AcDbEntity
  8
BASE1
  6
CONTINUOUS
100
AcDbLine
 10
-0.306612
 20
-0.016496
 30
0.0
 11
7.236974
 21
-0.016496
 31
0.0
  0
INSERT
  5
23C
100
AcDbEntity
  8
BASE1
  6
CONTINUOUS
100
AcDbBlockReference
  2
BLC29
 10
2.460828
 20
0.051887
 30
0.0
 41
0.53231
 42
0.53231
 43
0.53231
  0
ENDBLK
  5
23D
100
AcDbEntity
  8
0
100
AcDbBlockEnd
  0
BLOCK
  5
23E
100
AcDbEntity
  8
0
100
AcDbBlockBegin
  2
B507
 70
     0
 10
0.0
 20
0.0
 30
0.0
  3
B507
  1

  0
LINE
  5
23F
100
AcDbEntity
  8
0
  6
CONTINUOUS
100
AcDbLine
 10
0.079622
 20
0.147754
 30
0.0
 11
0.079622
 21
-9.002074
 31
0.0
  0
INSERT
  5
240
100
AcDbEntity
  8
0
  6
CONTINUOUS
100
AcDbBlockReference
  2
BLC29
 10
0.212369
 20
-6.641509
 30
0.0
 50
270.0
  0
ENDBLK
  5
241
100
AcDbEntity
  8
0
100
AcDbBlockEnd
  0
BLOCK
  5
269
100
AcDbEntity
  8
0
100
AcDbBlockBegin
  2
B72
 70
     0
 10
0.0
 20
0.0
 30
0.0
  3
B72
  1

  0
TEXT
  5
26A
100
AcDbEntity
  8
0
  6
CONTINUOUS
100
AcDbText
 10
0.368306
 20
-79.326509
 30
0.0
 40
2.0
  1
9)
100
AcDbText
  0
TEXT
  5
26B
100
AcDbEntity
  8
0
  6
CONTINUOUS
100
AcDbText
 10
0.368306
 20
-59.268761
 30
0.0
 40
2.0
  1
9)
100
AcDbText
  0
TEXT
  5
26C
100
AcDbEntity
  8
0
  6
CONTINUOUS
100
AcDbText
 10
0.368306
 20
-39.436432
 30
0.0
 40
2.0
  1
9)
100
AcDbText
  0
TEXT
  5
26D
100
AcDbEntity
  8
0
  6
CONTINUOUS
100
AcDbText
 10
0.368306
 20
-19.248633
 30
0.0
 40
2.0
  1
9)
100
AcDbText
  0
TEXT
  5
26E
100
AcDbEntity
  8
0
  6
CONTINUOUS
100
AcDbText
 10
0.368306
 20
0.791776
 30
0.0
 40
2.0
  1
9)
100
AcDbText
  0
LINE
  5
26F
100
AcDbEntity
  8
0
  6
CONTINUOUS
100
AcDbLine
 10
0.0
 20
-79.6532
 30
0.0
 11
0.0
 21
-85.33813
 31
0.0
  0
LINE
  5
270
100
AcDbEntity
  8
0
  6
CONTINUOUS
100
AcDbLine
 10
0.0
 20
-85.33813
 30
0.0
 11
-1.0
 21
-86.33813
 31
0.0
  0
LINE
  5
271
100
AcDbEntity
  8
0
  6
CONTINUOUS
100
AcDbLine
 10
0.0
 20
-79.6532
 30
0.0
 11
-1.0
 21
-78.6532
 31
0.0
  0
LINE
  5
272
100
AcDbEntity
  8
0
  6
CONTINUOUS
100
AcDbLine
 10
0.0
 20
-59.6532
 30
0.0
 11
-1.0
 21
-58.6532
 31
0.0
  0
LINE
  5
273
100
AcDbEntity
  8
0
  6
CONTINUOUS
100
AcDbLine
 10
0.0
 20
-65.33813
 30
0.0
 11
-1.0
 21
-66.33813
 31
0.0
  0
LINE
  5
274
100
AcDbEntity
  8
0
  6
CONTINUOUS
100
AcDbLine
 10
0.0
 20
-59.6532
 30
0.0
 11
0.0
 21
-65.33813
 31
0.0
  0
LINE
  5
275
100
AcDbEntity
  8
0
  6
CONTINUOUS
100
AcDbLine
 10
0.0
 20
-39.6532
 30
0.0
 11
0.0
 21
-45.33813
 31
0.0
  0
LINE
  5
276
100
AcDbEntity
  8
0
  6
CONTINUOUS
100
AcDbLine
 10
0.0
 20
-45.33813
 30
0.0
 11
-1.0
 21
-46.33813
 31
0.0
  0
LINE
  5
277
100
AcDbEntity
  8
0
  6
CONTINUOUS
100
AcDbLine
 10
0.0
 20
-39.6532
 30
0.0
 11
-1.0
 21
-38.6532
 31
0.0
  0
LINE
  5
278
100
AcDbEntity
  8
0
  6
CONTINUOUS
100
AcDbLine
 10
0.0
 20
-19.6532
 30
0.0
 11
-1.0
 21
-18.6532
 31
0.0
  0
LINE
  5
279
100
AcDbEntity
  8
0
  6
CONTINUOUS
100
AcDbLine
 10
0.0
 20
-25.33813
 30
0.0
 11
-1.0
 21
-26.33813
 31
0.0
  0
LINE
  5
27A
100
AcDbEntity
  8
0
  6
CONTINUOUS
100
AcDbLine
 10
0.0
 20
-19.6532
 30
0.0
 11
0.0
 21
-25.33813
 31
0.0
  0
LINE
  5
27B
100
AcDbEntity
  8
0
  6
CONTINUOUS
100
AcDbLine
 10
0.0
 20
0.3468
 30
0.0
 11
0.0
 21
-5.33813
 31
0.0
  0
LINE
  5
27C
100
AcDbEntity
  8
0
  6
CONTINUOUS
100
AcDbLine
 10
0.0
 20
-5.33813
 30
0.0
 11
-1.0
 21
-6.33813
 31
0.0
  0
LINE
  5
27D
100
AcDbEntity
  8
0
  6
CONTINUOUS
100
AcDbLine
 10
0.0
 20
0.3468
 30
0.0
 11
-1.0
 21
1.3468
 31
0.0
  0
LINE
  5
27E
100
AcDbEntity
  8
0
  6
DASHED
100
AcDbLine
 10
30.0
 20
-77.5
 30
0.0
 11
30.0
 21
-102.5
 31
0.0
  0
LINE
  5
27F
100
AcDbEntity
  8
0
  6
DASHED
100
AcDbLine
 10
52.5
 20
-90.0
 30
0.0
 11
52.5
 21
0.0
 31
0.0
  0
LINE
  5
280
100
AcDbEntity
  8
0
  6
DASHED
100
AcDbLine
 10
60.0
 20
-80.0
 30
0.0
 11
60.0
 21
-12.5
 31
0.0
  0
LINE
  5
281
100
AcDbEntity
  8
0
  6
DASHED
100
AcDbLine
 10
0.0
 20
-80.0
 30
0.0
 11
60.0
 21
-80.0
 31
0.0
  0
LINE
  5
282
100
AcDbEntity
  8
0
  6
CONTINUOUS
100
AcDbLine
 10
57.5
 20
0.0
 30
0.0
 11
52.5
 21
7.5
 31
0.0
  0
LINE
  5
283
100
AcDbEntity
  8
0
  6
CONTINUOUS
100
AcDbLine
 10
60.0
 20
0.0
 30
0.0
 11
57.5
 21
0.0
 31
0.0
  0
LINE
  5
284
100
AcDbEntity
  8
0
  6
CONTINUOUS
100
AcDbLine
 10
51.506031
 20
5.098556
 30
0.0
 11
52.478167
 21
5.098556
 31
0.0
  0
LINE
  5
285
100
AcDbEntity
  8
0
  6
CONTINUOUS
100
AcDbLine
 10
51.496128
 20
7.499996
 30
0.0
 11
52.473936
 21
7.499996
 31
0.0
  0
LINE
  5
286
100
AcDbEntity
  8
0
  6
CONTINUOUS
100
AcDbLine
 10
51.500897
 20
2.68998
 30
0.0
 11
52.5
 21
2.68998
 31
0.0
  0
ARC
  5
287
100
AcDbEntity
  8
0
  6
CONTINUOUS
100
AcDbCircle
 10
50.864862
 20
3.894238
 30
0.0
 40
1.204309
100
AcDbArc
 50
90.0
 51
270.0
  0
LINE
  5
288
100
AcDbEntity
  8
0
  6
CONTINUOUS
100
AcDbLine
 10
50.859898
 20
2.689937
 30
0.0
 11
51.509496
 21
2.689937
 31
0.0
  0
LINE
  5
289
100
AcDbEntity
  8
0
  6
CONTINUOUS
100
AcDbLine
 10
50.858762
 20
7.499993
 30
0.0
 11
51.502261
 21
7.499993
 31
0.0
  0
LINE
  5
28A
100
AcDbEntity
  8
0
  6
CONTINUOUS
100
AcDbLine
 10
50.858762
 20
5.098547
 30
0.0
 11
51.50836
 21
5.098547
 31
0.0
  0
ARC
  5
28B
100
AcDbEntity
  8
0
  6
CONTINUOUS
100
AcDbCircle
 10
50.864862
 20
6.296095
 30
0.0
 40
1.204309
100
AcDbArc
 50
90.0
 51
265.706237
  0
LINE
  5
28C
100
AcDbEntity
  8
0
  6
CONTINUOUS
100
AcDbLine
 10
59.006031
 20
5.098556
 30
0.0
 11
59.978167
 21
5.098556
 31
0.0
  0
LINE
  5
28D
100
AcDbEntity
  8
0
  6
CONTINUOUS
100
AcDbLine
 10
58.996128
 20
7.499996
 30
0.0
 11
59.973936
 21
7.499996
 31
0.0
  0
LINE
  5
28E
100
AcDbEntity
  8
0
  6
CONTINUOUS
100
AcDbLine
 10
59.000897
 20
2.68998
 30
0.0
 11
60.0
 21
2.68998
 31
0.0
  0
ARC
  5
28F
100
AcDbEntity
  8
0
  6
CONTINUOUS
100
AcDbCircle
 10
58.364862
 20
3.894238
 30
0.0
 40
1.204309
100
AcDbArc
 50
90.0
 51
270.0
  0
LINE
  5
290
100
AcDbEntity
  8
0
  6
CONTINUOUS
100
AcDbLine
 10
58.359898
 20
2.689937
 30
0.0
 11
59.009496
 21
2.689937
 31
0.0
  0
LINE
  5
291
100
AcDbEntity
  8
0
  6
CONTINUOUS
100
AcDbLine
 10
58.358762
 20
7.499993
 30
0.0
 11
59.002261
 21
7.499993
 31
0.0
  0
LINE
  5
292
100
AcDbEntity
  8
0
  6
CONTINUOUS
100
AcDbLine
 10
58.358762
 20
5.098547
 30
0.0
 11
59.00836
 21
5.098547
 31
0.0
  0
ARC
  5
293
100
AcDbEntity
  8
0
  6
CONTINUOUS
100
AcDbCircle
 10
58.364862
 20
6.296095
 30
0.0
 40
1.204309
100
AcDbArc
 50
90.0
 51
265.706237
  0
LINE
  5
294
100
AcDbEntity
  8
0
  6
CONTINUOUS
100
AcDbLine
 10
60.0
 20
2.68998
 30
0.0
 11
60.0
 21
0.0
 31
0.0
  0
LINE
  5
295
100
AcDbEntity
  8
0
  6
CONTINUOUS
100
AcDbLine
 10
52.5
 20
2.68998
 30
0.0
 11
52.5
 21
0.0
 31
0.0
  0
POLYLINE
  5
296
100
AcDbEntity
  8
0
  6
DASHED
100
AcDb2dPolyline
 66
     1
 10
0.0
 20
0.0
 30
0.0
 70
     1
 40
0.25
 41
0.25
  0
VERTEX
  5
297
100
AcDbEntity
  8
0
  6
DASHED
100
AcDbVertex
100
AcDb2dVertex
 10
59.625
 20
35.0
 30
0.0
 42
1.0
  0
VERTEX
  5
298
100
AcDbEntity
  8
0
  6
DASHED
100
AcDbVertex
100
AcDb2dVertex
 10
60.375
 20
35.0
 30
0.0
 42
1.0
  0
SEQEND
  5
299
100
AcDbEntity
  8
0
  6
DASHED
  0
POLYLINE
  5
29A
100
AcDbEntity
  8
0
  6
DASHED
100
AcDb2dPolyline
 66
     1
 10
0.0
 20
0.0
 30
0.0
 70
     1
 40
0.25
 41
0.25
  0
VERTEX
  5
29B
100
AcDbEntity
  8
0
  6
DASHED
100
AcDbVertex
100
AcDb2dVertex
 10
52.125
 20
40.0
 30
0.0
 42
1.0
  0
VERTEX
  5
29C
100
AcDbEntity
  8
0
  6
DASHED
100
AcDbVertex
100
AcDb2dVertex
 10
52.875
 20
40.0
 30
0.0
 42
1.0
  0
SEQEND
  5
29D
100
AcDbEntity
  8
0
  6
DASHED
  0
LINE
  5
29E
100
AcDbEntity
  8
0
  6
DASHED
100
AcDbLine
 10
60.0
 20
17.5
 30
0.0
 11
60.0
 21
35.0
 31
0.0
  0
LINE
  5
29F
100
AcDbEntity
  8
0
  6
DASHED
100
AcDbLine
 10
52.5
 20
17.5
 30
0.0
 11
52.5
 21
40.0
 31
0.0
  0
INSERT
  5
2A0
100
AcDbEntity
  8
0
  6
CONTINUOUS
100
AcDbBlockReference
  2
BLC27
 10
58.465932
 20
15.071549
 30
0.0
  0
INSERT
  5
2A1
100
AcDbEntity
  8
0
  6
CONTINUOUS
100
AcDbBlockReference
  2
BLC27
 10
50.965932
 20
15.071549
 30
0.0
  0
POLYLINE
  5
2A2
100
AcDbEntity
  8
0
  6
DASHED
100
AcDb2dPolyline
 66
     1
 10
0.0
 20
0.0
 30
0.0
 70
     1
 40
0.25
 41
0.25
  0
VERTEX
  5
2A3
100
AcDbEntity
  8
0
  6
DASHED
100
AcDbVertex
100
AcDb2dVertex
 10
19.623777
 20
-50.00007
 30
0.0
 42
1.0
  0
VERTEX
  5
2A4
100
AcDbEntity
  8
0
  6
DASHED
100
AcDbVertex
100
AcDb2dVertex
 10
20.373777
 20
-50.00007
 30
0.0
 42
1.0
  0
SEQEND
  5
2A5
100
AcDbEntity
  8
0
  6
DASHED
  0
POLYLINE
  5
2A6
100
AcDbEntity
  8
0
  6
DASHED
100
AcDb2dPolyline
 66
     1
 10
0.0
 20
0.0
 30
0.0
 70
     1
 40
0.25
 41
0.25
  0
VERTEX
  5
2A7
100
AcDbEntity
  8
0
  6
DASHED
100
AcDbVertex
100
AcDb2dVertex
 10
19.624033
 20
-44.810354
 30
0.0
 42
1.0
  0
VERTEX
  5
2A8
100
AcDbEntity
  8
0
  6
DASHED
100
AcDbVertex
100
AcDb2dVertex
 10
20.374033
 20
-44.810354
 30
0.0
 42
1.0
  0
SEQEND
  5
2A9
100
AcDbEntity
  8
0
  6
DASHED
  0
POLYLINE
  5
2AA
100
AcDbEntity
  8
0
  6
DASHED
100
AcDb2dPolyline
 66
     1
 10
0.0
 20
0.0
 30
0.0
 70
     1
 40
0.25
 41
0.25
  0
VERTEX
  5
2AB
100
AcDbEntity
  8
0
  6
DASHED
100
AcDbVertex
100
AcDb2dVertex
 10
19.624166
 20
-24.809666
 30
0.0
 42
1.0
  0
VERTEX
  5
2AC
100
AcDbEntity
  8
0
  6
DASHED
100
AcDbVertex
100
AcDb2dVertex
 10
20.374166
 20
-24.809666
 30
0.0
 42
1.0
  0
SEQEND
  5
2AD
100
AcDbEntity
  8
0
  6
DASHED
  0
LINE
  5
2AE
100
AcDbEntity
  8
0
  6
DASHED
100
AcDbLine
 10
35.0
 20
-40.0
 30
0.0
 11
0.0
 21
-40.0
 31
0.0
  0
LINE
  5
2AF
100
AcDbEntity
  8
0
  6
DASHED
100
AcDbLine
 10
30.0
 20
-20.0
 30
0.0
 11
0.0
 21
-20.0
 31
0.0
  0
LINE
  5
2B0
100
AcDbEntity
  8
0
  6
DASHED
100
AcDbLine
 10
25.0
 20
0.0
 30
0.0
 11
0.0
 21
0.0
 31
0.0
  0
LINE
  5
2B1
100
AcDbEntity
  8
0
  6
DASHED
100
AcDbLine
 10
27.5
 20
-70.0
 30
0.0
 11
30.0
 21
-70.0
 31
0.0
  0
LINE
  5
2B2
100
AcDbEntity
  8
0
  6
DASHED
100
AcDbLine
 10
30.0
 20
-70.0
 30
0.0
 11
30.0
 21
-70.0
 31
0.0
  0
LINE
  5
2B3
100
AcDbEntity
  8
0
  6
DASHED
100
AcDbLine
 10
17.5
 20
-65.189984
 30
0.0
 11
30.0
 21
-65.189984
 31
0.0
  0
LINE
  5
2B4
100
AcDbEntity
  8
0
  6
CONTINUOUS
100
AcDbLine
 10
27.5
 20
-67.59856
 30
0.0
 11
30.0
 21
-67.59856
 31
0.0
  0
INSERT
  5
2B5
100
AcDbEntity
  8
0
  6
CONTINUOUS
100
AcDbBlockReference
  2
BLC27
 10
31.49116
 20
-67.571554
 30
0.0
 50
180.0
  0
LINE
  5
2B6
100
AcDbEntity
  8
0
  6
DASHED
100
AcDbLine
 10
17.5
 20
-75.0
 30
0.0
 11
17.5
 21
-70.0
 31
0.0
  0
INSERT
  5
2B7
100
AcDbEntity
  8
0
  6
CONTINUOUS
100
AcDbBlockReference
  2
BLC15
 10
17.357916
 20
-77.5
 30
0.0
  0
POLYLINE
  5
2B8
100
AcDbEntity
  8
0
  6
DASHED
100
AcDb2dPolyline
 66
     1
 10
0.0
 20
0.0
 30
0.0
 70
     1
 40
0.25
 41
0.25
  0
VERTEX
  5
2B9
100
AcDbEntity
  8
0
  6
DASHED
100
AcDbVertex
100
AcDb2dVertex
 10
27.125
 20
-52.5
 30
0.0
 42
1.0
  0
VERTEX
  5
2BA
100
AcDbEntity
  8
0
  6
DASHED
100
AcDbVertex
100
AcDb2dVertex
 10
27.875
 20
-52.5
 30
0.0
 42
1.0
  0
SEQEND
  5
2BB
100
AcDbEntity
  8
0
  6
DASHED
  0
LINE
  5
2BC
100
AcDbEntity
  8
0
  6
DASHED
100
AcDbLine
 10
27.5
 20
-52.5
 30
0.0
 11
27.5
 21
-75.0
 31
0.0
  0
LINE
  5
2BD
100
AcDbEntity
  8
0
  6
CONTINUOUS
100
AcDbLine
 10
30.0
 20
-57.5
 30
0.0
 11
30.0
 21
-77.5
 31
0.0
  0
LINE
  5
2BE
100
AcDbEntity
  8
0
  6
CONTINUOUS
100
AcDbLine
 10
30.0
 20
-57.5
 30
0.0
 11
32.5
 21
-52.5
 31
0.0
  0
LINE
  5
2BF
100
AcDbEntity
  8
0
  6
CONTINUOUS
100
AcDbLine
 10
27.5
 20
-52.5
 30
0.0
 11
30.0
 21
-57.5
 31
0.0
  0
LINE
  5
2C0
100
AcDbEntity
  8
0
  6
CONTINUOUS
100
AcDbLine
 10
25.0
 20
-52.5
 30
0.0
 11
35.0
 21
-52.5
 31
0.0
  0
LINE
  5
2C1
100
AcDbEntity
  8
0
  6
DASHED
100
AcDbLine
 10
20.0
 20
-4.810008
 30
0.0
 11
20.0
 21
-52.5
 31
0.0
  0
POLYLINE
  5
2C2
100
AcDbEntity
  8
0
  6
DASHED
100
AcDb2dPolyline
 66
     1
 10
0.0
 20
0.0
 30
0.0
 70
     1
 40
0.25
 41
0.25
  0
VERTEX
  5
2C3
100
AcDbEntity
  8
0
  6
DASHED
100
AcDbVertex
100
AcDb2dVertex
 10
17.125
 20
-70.0
 30
0.0
 42
1.0
  0
VERTEX
  5
2C4
100
AcDbEntity
  8
0
  6
DASHED
100
AcDbVertex
100
AcDb2dVertex
 10
17.875
 20
-70.0
 30
0.0
 42
1.0
  0
SEQEND
  5
2C5
100
AcDbEntity
  8
0
  6
DASHED
  0
INSERT
  5
2C6
100
AcDbEntity
  8
0
  6
CONTINUOUS
100
AcDbBlockReference
  2
BLC15
 10
27.357916
 20
-77.5
 30
0.0
  0
LINE
  5
2C7
100
AcDbEntity
  8
0
  6
DASHED
100
AcDbLine
 10
17.5
 20
-60.0
 30
0.0
 11
17.5
 21
-65.189984
 31
0.0
  0
LINE
  5
2C8
100
AcDbEntity
  8
0
  6
DASHED
100
AcDbLine
 10
0.0
 20
-60.0
 30
0.0
 11
17.5
 21
-60.0
 31
0.0
  0
LINE
  5
2C9
100
AcDbEntity
  8
0
  6
DASHED
100
AcDbLine
 10
5.0
 20
-10.0
 30
0.0
 11
5.0
 21
-50.0
 31
0.0
  0
LINE
  5
2CA
100
AcDbEntity
  8
0
  6
DASHED
100
AcDbLine
 10
35.006921
 20
-44.810016
 30
0.0
 11
20.0
 21
-44.810016
 31
0.0
  0
LINE
  5
2CB
100
AcDbEntity
  8
0
  6
DASHED
100
AcDbLine
 10
30.069797
 20
-24.810016
 30
0.0
 11
20.0
 21
-24.810016
 31
0.0
  0
POLYLINE
  5
2CC
100
AcDbEntity
  8
0
  6
DASHED
100
AcDb2dPolyline
 66
     1
 10
0.0
 20
0.0
 30
0.0
 70
     1
 40
0.25
 41
0.25
  0
VERTEX
  5
2CD
100
AcDbEntity
  8
0
  6
DASHED
100
AcDbVertex
100
AcDb2dVertex
 10
4.625
 20
-50.0
 30
0.0
 42
1.0
  0
VERTEX
  5
2CE
100
AcDbEntity
  8
0
  6
DASHED
100
AcDbVertex
100
AcDb2dVertex
 10
5.375
 20
-50.0
 30
0.0
 42
1.0
  0
SEQEND
  5
2CF
100
AcDbEntity
  8
0
  6
DASHED
  0
POLYLINE
  5
2D0
100
AcDbEntity
  8
0
  6
DASHED
100
AcDb2dPolyline
 66
     1
 10
0.0
 20
0.0
 30
0.0
 70
     1
 40
0.25
 41
0.25
  0
VERTEX
  5
2D1
100
AcDbEntity
  8
0
  6
DASHED
100
AcDbVertex
100
AcDb2dVertex
 10
4.625
 20
-30.0
 30
0.0
 42
1.0
  0
VERTEX
  5
2D2
100
AcDbEntity
  8
0
  6
DASHED
100
AcDbVertex
100
AcDb2dVertex
 10
5.375
 20
-30.0
 30
0.0
 42
1.0
  0
SEQEND
  5
2D3
100
AcDbEntity
  8
0
  6
DASHED
  0
LINE
  5
2D4
100
AcDbEntity
  8
0
  6
DASHED
100
AcDbLine
 10
25.0
 20
-27.5
 30
0.0
 11
25.0
 21
-52.5
 31
0.0
  0
LINE
  5
2D5
100
AcDbEntity
  8
0
  6
DASHED
100
AcDbLine
 10
30.0
 20
-27.5
 30
0.0
 11
30.0
 21
-52.5
 31
0.0
  0
LINE
  5
2D6
100
AcDbEntity
  8
0
  6
DASHED
100
AcDbLine
 10
35.0
 20
-27.5
 30
0.0
 11
35.0
 21
-52.5
 31
0.0
  0
INSERT
  5
2D7
100
AcDbEntity
  8
0
  6
CONTINUOUS
100
AcDbBlockReference
  2
BLC15
 10
19.857916
 20
-55.0
 30
0.0
  0
INSERT
  5
2D8
100
AcDbEntity
  8
0
  6
CONTINUOUS
100
AcDbBlockReference
  2
BLC27
 10
26.491154
 20
-2.381567
 30
0.0
 50
180.0
  0
LINE
  5
2D9
100
AcDbEntity
  8
0
  6
DASHED
100
AcDbLine
 10
25.0
 20
5.0
 30
0.0
 11
25.0
 21
-27.5
 31
0.0
  0
LINE
  5
2DA
100
AcDbEntity
  8
0
  6
DASHED
100
AcDbLine
 10
25.0
 20
12.5
 30
0.0
 11
25.0
 21
25.0
 31
0.0
  0
LINE
  5
2DB
100
AcDbEntity
  8
0
  6
DASHED
100
AcDbLine
 10
30.0
 20
35.0
 30
0.0
 11
30.0
 21
12.5
 31
0.0
  0
LINE
  5
2DC
100
AcDbEntity
  8
0
  6
DASHED
100
AcDbLine
 10
30.0
 20
5.0
 30
0.0
 11
30.0
 21
-27.5
 31
0.0
  0
LINE
  5
2DD
100
AcDbEntity
  8
0
  6
DASHED
100
AcDbLine
 10
35.0
 20
30.0
 30
0.0
 11
35.0
 21
12.5
 31
0.0
  0
LINE
  5
2DE
100
AcDbEntity
  8
0
  6
DASHED
100
AcDbLine
 10
35.0
 20
5.0
 30
0.0
 11
35.0
 21
-27.5
 31
0.0
  0
LINE
  5
2DF
100
AcDbEntity
  8
0
  6
DASHED
100
AcDbLine
 10
30.0
 20
25.0
 30
0.0
 11
30.0
 21
32.5
 31
0.0
  0
LINE
  5
2E0
100
AcDbEntity
  8
0
  6
DASHED
100
AcDbLine
 10
25.0
 20
25.0
 30
0.0
 11
25.0
 21
40.0
 31
0.0
  0
INSERT
  5
2E1
100
AcDbEntity
  8
0
  6
CONTINUOUS
100
AcDbBlockReference
  2
BLC27
 10
31.51227
 20
-22.38157
 30
0.0
 50
180.0
  0
LINE
  5
2E2
100
AcDbEntity
  8
0
  6
CONTINUOUS
100
AcDbLine
 10
25.0
 20
5.0
 30
0.0
 11
22.5
 21
12.5
 31
0.0
  0
LINE
  5
2E3
100
AcDbEntity
  8
0
  6
CONTINUOUS
100
AcDbLine
 10
30.0
 20
5.0
 30
0.0
 11
27.5
 21
12.5
 31
0.0
  0
LINE
  5
2E4
100
AcDbEntity
  8
0
  6
CONTINUOUS
100
AcDbLine
 10
35.0
 20
5.0
 30
0.0
 11
32.5
 21
12.5
 31
0.0
  0
LINE
  5
2E5
100
AcDbEntity
  8
0
  6
CONTINUOUS
100
AcDbLine
 10
25.0
 20
12.5
 30
0.0
 11
24.5
 21
13.0
 31
0.0
  0
LINE
  5
2E6
100
AcDbEntity
  8
0
  6
CONTINUOUS
100
AcDbLine
 10
25.0
 20
12.5
 30
0.0
 11
25.5
 21
12.0
 31
0.0
  0
LINE
  5
2E7
100
AcDbEntity
  8
0
  6
CONTINUOUS
100
AcDbLine
 10
25.0
 20
12.5
 30
0.0
 11
25.5
 21
13.0
 31
0.0
  0
LINE
  5
2E8
100
AcDbEntity
  8
0
  6
CONTINUOUS
100
AcDbLine
 10
25.0
 20
12.5
 30
0.0
 11
24.5
 21
12.0
 31
0.0
  0
LINE
  5
2E9
100
AcDbEntity
  8
0
  6
CONTINUOUS
100
AcDbLine
 10
30.0
 20
12.5
 30
0.0
 11
30.5
 21
13.0
 31
0.0
  0
LINE
  5
2EA
100
AcDbEntity
  8
0
  6
CONTINUOUS
100
AcDbLine
 10
30.0
 20
12.5
 30
0.0
 11
30.5
 21
12.0
 31
0.0
  0
LINE
  5
2EB
100
AcDbEntity
  8
0
  6
CONTINUOUS
100
AcDbLine
 10
30.0
 20
12.5
 30
0.0
 11
29.5
 21
12.0
 31
0.0
  0
LINE
  5
2EC
100
AcDbEntity
  8
0
  6
CONTINUOUS
100
AcDbLine
 10
30.0
 20
12.5
 30
0.0
 11
29.5
 21
13.0
 31
0.0
  0
LINE
  5
2ED
100
AcDbEntity
  8
0
  6
CONTINUOUS
100
AcDbLine
 10
35.0
 20
12.5
 30
0.0
 11
35.5
 21
12.0
 31
0.0
  0
LINE
  5
2EE
100
AcDbEntity
  8
0
  6
CONTINUOUS
100
AcDbLine
 10
35.0
 20
12.5
 30
0.0
 11
35.5
 21
13.0
 31
0.0
  0
LINE
  5
2EF
100
AcDbEntity
  8
0
  6
CONTINUOUS
100
AcDbLine
 10
35.0
 20
12.5
 30
0.0
 11
34.5
 21
13.0
 31
0.0
  0
LINE
  5
2F0
100
AcDbEntity
  8
0
  6
CONTINUOUS
100
AcDbLine
 10
35.0
 20
12.5
 30
0.0
 11
34.5
 21
12.0
 31
0.0
  0
POLYLINE
  5
2F1
100
AcDbEntity
  8
0
  6
CONTINUOUS
100
AcDb2dPolyline
 66
     1
 10
0.0
 20
0.0
 30
0.0
 70
     1
 40
0.25
 41
0.25
  0
VERTEX
  5
2F2
100
AcDbEntity
  8
0
  6
CONTINUOUS
100
AcDbVertex
100
AcDb2dVertex
 10
34.625
 20
30.0
 30
0.0
 42
1.0
  0
VERTEX
  5
2F3
100
AcDbEntity
  8
0
  6
CONTINUOUS
100
AcDbVertex
100
AcDb2dVertex
 10
35.375
 20
30.0
 30
0.0
 42
1.0
  0
SEQEND
  5
2F4
100
AcDbEntity
  8
0
  6
CONTINUOUS
  0
POLYLINE
  5
2F5
100
AcDbEntity
  8
0
  6
CONTINUOUS
100
AcDb2dPolyline
 66
     1
 10
0.0
 20
0.0
 30
0.0
 70
     1
 40
0.25
 41
0.25
  0
VERTEX
  5
2F6
100
AcDbEntity
  8
0
  6
CONTINUOUS
100
AcDbVertex
100
AcDb2dVertex
 10
29.625
 20
35.0
 30
0.0
 42
1.0
  0
VERTEX
  5
2F7
100
AcDbEntity
  8
0
  6
CONTINUOUS
100
AcDbVertex
100
AcDb2dVertex
 10
30.375
 20
35.0
 30
0.0
 42
1.0
  0
SEQEND
  5
2F8
100
AcDbEntity
  8
0
  6
CONTINUOUS
  0
POLYLINE
  5
2F9
100
AcDbEntity
  8
0
  6
CONTINUOUS
100
AcDb2dPolyline
 66
     1
 10
0.0
 20
0.0
 30
0.0
 70
     1
 40
0.25
 41
0.25
  0
VERTEX
  5
2FA
100
AcDbEntity
  8
0
  6
CONTINUOUS
100
AcDbVertex
100
AcDb2dVertex
 10
24.625
 20
40.0
 30
0.0
 42
1.0
  0
VERTEX
  5
2FB
100
AcDbEntity
  8
0
  6
CONTINUOUS
100
AcDbVertex
100
AcDb2dVertex
 10
25.375
 20
40.0
 30
0.0
 42
1.0
  0
SEQEND
  5
2FC
100
AcDbEntity
  8
0
  6
CONTINUOUS
  0
INSERT
  5
2FD
100
AcDbEntity
  8
0
  6
CONTINUOUS
100
AcDbBlockReference
  2
BLC27
 10
36.491155
 20
-42.381569
 30
0.0
 50
180.0
  0
LINE
  5
2FE
100
AcDbEntity
  8
0
  6
DASHED
100
AcDbLine
 10
25.0
 20
-4.810008
 30
0.0
 11
20.0
 21
-4.810008
 31
0.0
  0
TEXT
  5
2FF
100
AcDbEntity
  8
0
  6
CONTINUOUS
100
AcDbText
 10
8.732328
 20
38.985054
 30
0.0
 40
2.0
  1
L1(R)
 11
8.732328
 21
38.318387
 31
0.0
100
AcDbText
 73
     1
  0
TEXT
  5
300
100
AcDbEntity
  8
0
  6
CONTINUOUS
100
AcDbText
 10
8.732328
 20
33.928359
 30
0.0
 40
2.0
  1
L2(S)
 11
8.732328
 21
33.261693
 31
0.0
100
AcDbText
 73
     1
  0
TEXT
  5
301
100
AcDbEntity
  8
0
  6
CONTINUOUS
100
AcDbText
 10
8.732328
 20
29.006967
 30
0.0
 40
2.0
  1
L3(T)
 11
8.732328
 21
28.3403
 31
0.0
100
AcDbText
 73
     1
  0
LINE
  5
302
100
AcDbEntity
  8
0
  6
DASHED
100
AcDbLine
 10
-5.0
 20
-90.0
 30
0.0
 11
52.5
 21
-90.0
 31
0.0
  0
LINE
  5
303
100
AcDbEntity
  8
0
  6
CONTINUOUS
100
AcDbLine
 10
-5.0
 20
-85.0
 30
0.0
 11
-2.5
 21
-85.0
 31
0.0
  0
LINE
  5
304
100
AcDbEntity
  8
0
  6
CONTINUOUS
100
AcDbLine
 10
-5.0
 20
-80.0
 30
0.0
 11
-2.5
 21
-80.0
 31
0.0
  0
LINE
  5
305
100
AcDbEntity
  8
0
  6
DASHED
100
AcDbLine
 10
-5.0
 20
-70.0
 30
0.0
 11
27.5
 21
-70.0
 31
0.0
  0
LINE
  5
306
100
AcDbEntity
  8
0
  6
CONTINUOUS
100
AcDbLine
 10
-5.0
 20
-65.0
 30
0.0
 11
-2.5
 21
-65.0
 31
0.0
  0
LINE
  5
307
100
AcDbEntity
  8
0
  6
CONTINUOUS
100
AcDbLine
 10
-5.0
 20
-60.0
 30
0.0
 11
-2.5
 21
-60.0
 31
0.0
  0
LINE
  5
308
100
AcDbEntity
  8
0
  6
DASHED
100
AcDbLine
 10
-5.0
 20
-50.0
 30
0.0
 11
20.0
 21
-50.0
 31
0.0
  0
LINE
  5
309
100
AcDbEntity
  8
0
  6
CONTINUOUS
100
AcDbLine
 10
-5.0
 20
-45.0
 30
0.0
 11
-2.5
 21
-45.0
 31
0.0
  0
LINE
  5
30A
100
AcDbEntity
  8
0
  6
CONTINUOUS
100
AcDbLine
 10
-5.0
 20
-40.0
 30
0.0
 11
-2.5
 21
-40.0
 31
0.0
  0
LINE
  5
30B
100
AcDbEntity
  8
0
  6
DASHED
100
AcDbLine
 10
-5.0
 20
-30.0
 30
0.0
 11
5.0
 21
-30.0
 31
0.0
  0
LINE
  5
30C
100
AcDbEntity
  8
0
  6
CONTINUOUS
100
AcDbLine
 10
-5.0
 20
-25.0
 30
0.0
 11
-2.5
 21
-25.0
 31
0.0
  0
LINE
  5
30D
100
AcDbEntity
  8
0
  6
CONTINUOUS
100
AcDbLine
 10
-5.0
 20
-20.0
 30
0.0
 11
-2.5
 21
-20.0
 31
0.0
  0
LINE
  5
30E
100
AcDbEntity
  8
0
  6
DASHED
100
AcDbLine
 10
-5.0
 20
-10.0
 30
0.0
 11
5.0
 21
-10.0
 31
0.0
  0
LINE
  5
30F
100
AcDbEntity
  8
0
  6
CONTINUOUS
100
AcDbLine
 10
-5.0
 20
-5.0
 30
0.0
 11
-2.5
 21
-5.0
 31
0.0
  0
LINE
  5
310
100
AcDbEntity
  8
0
  6
CONTINUOUS
100
AcDbLine
 10
-5.0
 20
0.0
 30
0.0
 11
-2.5
 21
0.0
 31
0.0
  0
POLYLINE
  5
311
100
AcDbEntity
  8
0
  6
DASHED
100
AcDb2dPolyline
 66
     1
 10
0.0
 20
0.0
 30
0.0
 70
     1
 40
0.25
 41
0.25
  0
VERTEX
  5
312
100
AcDbEntity
  8
0
  6
DASHED
100
AcDbVertex
100
AcDb2dVertex
 10
77.125
 20
7.5
 30
0.0
 42
1.0
  0
VERTEX
  5
313
100
AcDbEntity
  8
0
  6
DASHED
100
AcDbVertex
100
AcDb2dVertex
 10
77.875
 20
7.5
 30
0.0
 42
1.0
  0
SEQEND
  5
314
100
AcDbEntity
  8
0
  6
DASHED
  0
LINE
  5
315
100
AcDbEntity
  8
0
  6
DASHED
100
AcDbLine
 10
77.5
 20
-12.5
 30
0.0
 11
77.5
 21
7.5
 31
0.0
  0
LINE
  5
316
100
AcDbEntity
  8
0
  6
DASHED
100
AcDbLine
 10
60.0
 20
-12.5
 30
0.0
 11
77.5
 21
-12.5
 31
0.0
  0
LINE
  5
317
100
AcDbEntity
  8
0
  6
DASHED
100
AcDbLine
 10
72.5
 20
12.68998
 30
0.0
 11
81.663362
 21
12.68998
 31
0.0
  0
LINE
  5
318
100
AcDbEntity
  8
0
  6
DASHED
100
AcDbLine
 10
72.5
 20
7.5
 30
0.0
 11
81.84682
 21
7.5
 31
0.0
  0
INSERT
  5
319
100
AcDbEntity
  8
0
  6
CONTINUOUS
100
AcDbBlockReference
  2
BLC15
 10
85.0
 20
12.547896
 30
0.0
 50
90.0
  0
INSERT
  5
31A
100
AcDbEntity
  8
0
  6
CONTINUOUS
100
AcDbBlockReference
  2
BLC15
 10
85.0
 20
7.357916
 30
0.0
 50
90.0
  0
LINE
  5
31B
100
AcDbEntity
  8
0
  6
CONTINUOUS
100
AcDbLine
 10
67.5
 20
7.5
 30
0.0
 11
72.5
 21
7.5
 31
0.0
  0
LINE
  5
31C
100
AcDbEntity
  8
0
  6
CONTINUOUS
100
AcDbLine
 10
65.0
 20
0.0
 30
0.0
 11
60.0
 21
7.5
 31
0.0
  0
LINE
  5
31D
100
AcDbEntity
  8
0
  6
CONTINUOUS
100
AcDbLine
 10
67.5
 20
0.0
 30
0.0
 11
65.0
 21
0.0
 31
0.0
  0
LINE
  5
31E
100
AcDbEntity
  8
0
  6
CONTINUOUS
100
AcDbLine
 10
66.506031
 20
5.098556
 30
0.0
 11
67.478167
 21
5.098556
 31
0.0
  0
LINE
  5
31F
100
AcDbEntity
  8
0
  6
CONTINUOUS
100
AcDbLine
 10
66.496128
 20
7.499996
 30
0.0
 11
67.473936
 21
7.499996
 31
0.0
  0
LINE
  5
320
100
AcDbEntity
  8
0
  6
CONTINUOUS
100
AcDbLine
 10
66.500897
 20
2.68998
 30
0.0
 11
67.5
 21
2.68998
 31
0.0
  0
ARC
  5
321
100
AcDbEntity
  8
0
  6
CONTINUOUS
100
AcDbCircle
 10
65.864862
 20
3.894238
 30
0.0
 40
1.204309
100
AcDbArc
 50
90.0
 51
270.0
  0
LINE
  5
322
100
AcDbEntity
  8
0
  6
CONTINUOUS
100
AcDbLine
 10
65.859898
 20
2.689937
 30
0.0
 11
66.509496
 21
2.689937
 31
0.0
  0
LINE
  5
323
100
AcDbEntity
  8
0
  6
CONTINUOUS
100
AcDbLine
 10
65.858762
 20
7.499993
 30
0.0
 11
66.502261
 21
7.499993
 31
0.0
  0
LINE
  5
324
100
AcDbEntity
  8
0
  6
CONTINUOUS
100
AcDbLine
 10
65.858762
 20
5.098547
 30
0.0
 11
66.50836
 21
5.098547
 31
0.0
  0
ARC
  5
325
100
AcDbEntity
  8
0
  6
CONTINUOUS
100
AcDbCircle
 10
65.864862
 20
6.296095
 30
0.0
 40
1.204309
100
AcDbArc
 50
90.0
 51
265.706237
  0
LINE
  5
326
100
AcDbEntity
  8
0
  6
CONTINUOUS
100
AcDbLine
 10
67.5
 20
2.68998
 30
0.0
 11
67.5
 21
0.0
 31
0.0
  0
LINE
  5
327
100
AcDbEntity
  8
0
  6
CONTINUOUS
100
AcDbLine
 10
52.5
 20
12.68998
 30
0.0
 11
72.5
 21
12.68998
 31
0.0
  0
POLYLINE
  5
328
100
AcDbEntity
  8
0
  6
DASHED
100
AcDb2dPolyline
 66
     1
 10
0.0
 20
0.0
 30
0.0
 70
     1
 40
0.25
 41
0.25
  0
VERTEX
  5
329
100
AcDbEntity
  8
0
  6
DASHED
100
AcDbVertex
100
AcDb2dVertex
 10
67.125
 20
30.0
 30
0.0
 42
1.0
  0
VERTEX
  5
32A
100
AcDbEntity
  8
0
  6
DASHED
100
AcDbVertex
100
AcDb2dVertex
 10
67.875
 20
30.0
 30
0.0
 42
1.0
  0
SEQEND
  5
32B
100
AcDbEntity
  8
0
  6
DASHED
  0
LINE
  5
32C
100
AcDbEntity
  8
0
  6
DASHED
100
AcDbLine
 10
67.5
 20
17.5
 30
0.0
 11
67.5
 21
30.0
 31
0.0
  0
INSERT
  5
32D
100
AcDbEntity
  8
0
  6
CONTINUOUS
100
AcDbBlockReference
  2
BLC27
 10
65.965932
 20
15.071549
 30
0.0
  0
LINE
  5
32E
100
AcDbEntity
  8
0
  6
DASHED
100
AcDbLine
 10
103.595465
 20
30.0
 30
0.0
 11
17.5
 21
30.0
 31
0.0
  0
LINE
  5
32F
100
AcDbEntity
  8
0
  6
DASHED
100
AcDbLine
 10
103.595465
 20
35.0
 30
0.0
 11
17.5
 21
35.0
 31
0.0
  0
LINE
  5
330
100
AcDbEntity
  8
0
  6
DASHED
100
AcDbLine
 10
103.595465
 20
40.0
 30
0.0
 11
17.5
 21
40.0
 31
0.0
  0
ENDBLK
  5
331
100
AcDbEntity
  8
0
100
AcDbBlockEnd
  0
BLOCK
  5
332
100
AcDbEntity
  8
0
100
AcDbBlockBegin
  2
B146
 70
     0
 10
0.0
 20
0.0
 30
0.0
  3
B146
  1

  0
LINE
  5
333
100
AcDbEntity
  8
0
100
AcDbLine
 10
17.5
 20
-4.828202
 30
0.0
 11
62.5
 21
-4.828202
 31
0.0
  0
LINE
  5
334
100
AcDbEntity
  8
0
  6
CONTINUOUS
100
AcDbLine
 10
17.5
 20
-10.0
 30
0.0
 11
62.5
 21
-10.0
 31
0.0
  0
LINE
  5
335
100
AcDbEntity
  8
0
  6
CONTINUOUS
100
AcDbLine
 10
5.0
 20
0.0
 30
0.0
 11
62.5
 21
0.0
 31
0.0
  0
LINE
  5
336
100
AcDbEntity
  8
0
  6
CONTINUOUS
100
AcDbLine
 10
5.0
 20
-25.0
 30
0.0
 11
62.5
 21
-25.0
 31
0.0
  0
TEXT
  5
337
100
AcDbEntity
  8
0
  6
CENTER
100
AcDbText
 10
20.0
 20
-21.666667
 30
0.0
 40
2.0
  1
25-28
100
AcDbText
  0
TEXT
  5
338
100
AcDbEntity
  8
0
  6
CENTER
100
AcDbText
 10
19.998602
 20
-8.389298
 30
0.0
 40
2.0
  1
In=0,2A
100
AcDbText
  0
LINE
  5
339
100
AcDbEntity
  8
0
  6
CONTINUOUS
100
AcDbLine
 10
17.5
 20
-25.0
 30
0.0
 11
17.5
 21
0.0
 31
0.0
  0
LINE
  5
33A
100
AcDbEntity
  8
0
  6
CONTINUOUS
100
AcDbLine
 10
12.616787
 20
-20.534894
 30
0.0
 11
12.616787
 21
-21.889164
 31
0.0
  0
LINE
  5
33B
100
AcDbEntity
  8
0
  6
CONTINUOUS
100
AcDbLine
 10
11.406559
 20
-21.889164
 30
0.0
 11
12.6009
 21
-21.889164
 31
0.0
  0
LINE
  5
33C
100
AcDbEntity
  8
0
  6
CONTINUOUS
100
AcDbLine
 10
12.6009
 20
-21.889164
 30
0.0
 11
13.795241
 21
-21.889164
 31
0.0
  0
LINE
  5
33D
100
AcDbEntity
  8
0
  6
CONTINUOUS
100
AcDbLine
 10
11.784965
 20
-22.368774
 30
0.0
 11
13.369536
 21
-22.368774
 31
0.0
  0
LINE
  5
33E
100
AcDbEntity
  8
0
  6
CONTINUOUS
100
AcDbLine
 10
12.116069
 20
-22.856949
 30
0.0
 11
13.002956
 21
-22.856949
 31
0.0
  0
TEXT
  5
33F
100
AcDbEntity
  8
0
  6
CENTER
100
AcDbText
 10
10.0
 20
-21.666667
 30
0.0
 40
2.0
  1
I
100
AcDbText
  0
TEXT
  5
340
100
AcDbEntity
  8
0
  6
CENTER
100
AcDbText
 10
10.0
 20
-18.333333
 30
0.0
 40
2.0
  1
L3
100
AcDbText
  0
TEXT
  5
341
100
AcDbEntity
  8
0
  6
CENTER
100
AcDbText
 10
10.0
 20
-15.0
 30
0.0
 40
2.0
  1
L1
100
AcDbText
  0
TEXT
  5
342
100
AcDbEntity
  8
0
  6
CENTER
100
AcDbText
 10
50.0
 20
-21.666667
 30
0.0
 40
2.0
  1
25-26
100
AcDbText
  0
TEXT
  5
343
100
AcDbEntity
  8
0
  6
CENTER
100
AcDbText
 10
50.0
 20
-18.333333
 30
0.0
 40
2.0
  1
7-8
100
AcDbText
  0
TEXT
  5
344
100
AcDbEntity
  8
0
  6
CENTER
100
AcDbText
 10
50.0
 20
-15.0
 30
0.0
 40
2.0
  1
1-2
100
AcDbText
  0
TEXT
  5
345
100
AcDbEntity
  8
0
  6
CENTER
100
AcDbText
 10
35.0
 20
-21.666667
 30
0.0
 40
2.0
  1
25-27
100
AcDbText
  0
TEXT
  5
346
100
AcDbEntity
  8
0
  6
CENTER
100
AcDbText
 10
35.0
 20
-18.333333
 30
0.0
 40
2.0
  1
7-9
100
AcDbText
  0
TEXT
  5
347
100
AcDbEntity
  8
0
  6
CENTER
100
AcDbText
 10
35.0
 20
-15.0
 30
0.0
 40
2.0
  1
1-3
100
AcDbText
  0
LINE
  5
348
100
AcDbEntity
  8
0
100
AcDbLine
 10
5.0
 20
0.0
 30
0.0
 11
5.0
 21
-25.0
 31
0.0
  0
LINE
  5
349
100
AcDbEntity
  8
0
100
AcDbLine
 10
62.5
 20
-25.0
 30
0.0
 11
62.5
 21
0.0
 31
0.0
  0
LINE
  5
34A
100
AcDbEntity
  8
0
100
AcDbLine
 10
32.5
 20
-4.828202
 30
0.0
 11
32.5
 21
-25.0
 31
0.0
  0
LINE
  5
34B
100
AcDbEntity
  8
0
100
AcDbLine
 10
47.5
 20
-4.828202
 30
0.0
 11
47.5
 21
-25.0
 31
0.0
  0
TEXT
  5
34C
100
AcDbEntity
  8
0
100
AcDbText
 10
23.041221
 20
-4.161535
 30
0.0
 40
2.0
  1
TERMINALS / UTTAG
 11
23.041221
 21
-4.828202
 31
0.0
100
AcDbText
 73
     1
  0
TEXT
  5
34D
100
AcDbEntity
  8
0
100
AcDbText
 10
35.120167
 20
-8.449983
 30
0.0
 40
2.0
  1
In=1A 
 11
35.120167
 21
-9.11665
 31
0.0
100
AcDbText
 73
     1
  0
TEXT
  5
34E
100
AcDbEntity
  8
0
100
AcDbText
 10
49.969965
 20
-8.449983
 30
0.0
 40
2.0
  1
In=5A
 11
49.969965
 21
-9.11665
 31
0.0
100
AcDbText
 73
     1
  0
TEXT
  5
34F
100
AcDbEntity
  8
0
  6
CONTINUOUS
100
AcDbText
 10
1.50882
 20
1.838465
 30
0.0
 40
2.0
  1
1)
 11
1.50882
 21
1.171798
 31
0.0
100
AcDbText
 73
     1
  0
ENDBLK
  5
350
100
AcDbEntity
  8
0
100
AcDbBlockEnd
  0
BLOCK
  5
351
100
AcDbEntity
  8
0
100
AcDbBlockBegin
  2
B155
 70
     0
 10
0.0
 20
0.0
 30
0.0
  3
B155
  1

  0
LINE
  5
352
100
AcDbEntity
  8
0
  6
CONTINUOUS
100
AcDbLine
 10
0.0
 20
0.0
 30
0.0
 11
0.0
 21
-1.35427
 31
0.0
  0
LINE
  5
353
100
AcDbEntity
  8
0
  6
CONTINUOUS
100
AcDbLine
 10
-1.210228
 20
-1.35427
 30
0.0
 11
-0.015887
 21
-1.35427
 31
0.0
  0
LINE
  5
354
100
AcDbEntity
  8
0
  6
CONTINUOUS
100
AcDbLine
 10
-0.015887
 20
-1.35427
 30
0.0
 11
1.178454
 21
-1.35427
 31
0.0
  0
LINE
  5
355
100
AcDbEntity
  8
0
  6
CONTINUOUS
100
AcDbLine
 10
-0.831823
 20
-1.976333
 30
0.0
 11
0.752749
 21
-1.976333
 31
0.0
  0
LINE
  5
356
100
AcDbEntity
  8
0
  6
CONTINUOUS
100
AcDbLine
 10
-0.500718
 20
-2.587966
 30
0.0
 11
0.386169
 21
-2.587966
 31
0.0
  0
ENDBLK
  5
357
100
AcDbEntity
  8
0
100
AcDbBlockEnd
  0
BLOCK
  5
358
100
AcDbEntity
  8
0
100
AcDbBlockBegin
  2
B73
 70
     0
 10
0.0
 20
0.0
 30
0.0
  3
B73
  1

  0
INSERT
  5
359
100
AcDbEntity
  8
BASE1
  6
CONTINUOUS
100
AcDbBlockReference
  2
BLC29
 10
-1.512794
 20
1.285397
 30
0.0
 41
0.53231
 42
0.53231
 43
0.53231
 50
180.0
  0
INSERT
  5
35A
100
AcDbEntity
  8
BASE1
  6
CONTINUOUS
100
AcDbBlockReference
  2
BLC29
 10
2.106391
 20
1.435478
 30
0.0
 41
0.53231
 42
0.53231
 43
0.53231
  0
LINE
  5
35B
100
AcDbEntity
  8
BASE1
  6
CONTINUOUS
100
AcDbLine
 10
-3.513924
 20
1.367095
 30
0.0
 11
4.029662
 21
1.367095
 31
0.0
  0
ENDBLK
  5
35C
100
AcDbEntity
  8
0
100
AcDbBlockEnd
  0
BLOCK
  5
35D
100
AcDbEntity
  8
0
100
AcDbBlockBegin
  2
B17
 70
     0
 10
0.0
 20
0.0
 30
0.0
  3
B17
  1

  0
TEXT
  5
35E
100
AcDbEntity
  8
0
100
AcDbText
 10
-5.0
 20
-13.107802
 30
0.0
 40
2.0
  1
MOTORSKYDDSRELÄ
 11
-5.0
 21
-13.774469
 31
0.0
100
AcDbText
 73
     1
  0
TEXT
  5
35F
100
AcDbEntity
  8
0
100
AcDbText
 10
-5.0
 20
-9.774469
 30
0.0
 40
2.0
  1
RELAY
 11
-5.0
 21
-10.441136
 31
0.0
100
AcDbText
 73
     1
  0
TEXT
  5
360
100
AcDbEntity
  8
0
100
AcDbText
 10
-5.0
 20
-6.441136
 30
0.0
 40
2.0
  1
MOTOR PROTECTION
 11
-5.0
 21
-7.107802
 31
0.0
100
AcDbText
 73
     1
  0
INSERT
  5
361
100
AcDbEntity
  8
0
100
AcDbBlockReference
  2
BLC16
 10
0.0
 20
0.0
 30
0.0
  0
ENDBLK
  5
362
100
AcDbEntity
  8
0
100
AcDbBlockEnd
  0
BLOCK
  5
363
100
AcDbEntity
  8
0
100
AcDbBlockBegin
  2
BLC16
 70
    64
 10
0.0
 20
0.0
 30
0.0
  3
BLC16
  1

  0
LINE
  5
364
100
AcDbEntity
  8
0
  6
CONTINUOUS
100
AcDbLine
 10
0.007689
 20
38.054928
 30
0.0
 11
19.983683
 21
38.054928
 31
0.0
  0
LINE
  5
365
100
AcDbEntity
  8
0
  6
CONTINUOUS
100
AcDbLine
 10
19.983683
 20
38.054928
 30
0.0
 11
19.983683
 21
-0.003751
 31
0.0
  0
LINE
  5
366
100
AcDbEntity
  8
0
  6
CONTINUOUS
100
AcDbLine
 10
19.983683
 20
-0.003751
 30
0.0
 11
0.007689
 21
-0.003751
 31
0.0
  0
LINE
  5
367
100
AcDbEntity
  8
0
  6
CONTINUOUS
100
AcDbLine
 10
0.007689
 20
-0.003751
 30
0.0
 11
0.007689
 21
38.054928
 31
0.0
  0
LINE
  5
368
100
AcDbEntity
  8
0
  6
CONTINUOUS
100
AcDbLine
 10
14.152643
 20
36.919738
 30
0.0
 11
14.152643
 21
33.528469
 31
0.0
  0
LINE
  5
369
100
AcDbEntity
  8
0
  6
CONTINUOUS
100
AcDbLine
 10
14.152643
 20
33.528469
 30
0.0
 11
11.560435
 21
33.528469
 31
0.0
  0
LINE
  5
36A
100
AcDbEntity
  8
0
  6
CONTINUOUS
100
AcDbLine
 10
11.560435
 20
33.528469
 30
0.0
 11
11.560435
 21
30.778433
 31
0.0
  0
LINE
  5
36B
100
AcDbEntity
  8
0
  6
CONTINUOUS
100
AcDbLine
 10
11.560435
 20
30.778433
 30
0.0
 11
14.152643
 21
30.778433
 31
0.0
  0
LINE
  5
36C
100
AcDbEntity
  8
0
  6
CONTINUOUS
100
AcDbLine
 10
14.152643
 20
30.778433
 30
0.0
 11
14.152643
 21
27.387164
 31
0.0
  0
TEXT
  5
36D
100
AcDbEntity
  8
0
  6
CONTINUOUS
100
AcDbText
 10
6.558569
 20
30.805266
 30
0.0
 40
2.5
  1
2
 11
6.558569
 21
29.971932
 31
0.0
100
AcDbText
 73
     1
  0
TEXT
  5
36E
100
AcDbEntity
  8
0
  6
CONTINUOUS
100
AcDbText
 10
6.553289
 20
23.854078
 30
0.0
 40
2.5
  1
2 I
 11
6.553289
 21
23.020744
 31
0.0
100
AcDbText
 73
     1
  0
LINE
  5
36F
100
AcDbEntity
  8
0
  6
CONTINUOUS
100
AcDbLine
 10
12.942534
 20
26.359129
 30
0.0
 11
15.288299
 21
25.023775
 31
0.0
  0
LINE
  5
370
100
AcDbEntity
  8
0
  6
CONTINUOUS
100
AcDbLine
 10
15.288299
 20
25.023775
 30
0.0
 11
12.942534
 21
23.833856
 31
0.0
  0
LINE
  5
371
100
AcDbEntity
  8
0
  6
CONTINUOUS
100
AcDbLine
 10
14.169823
 20
26.359129
 30
0.0
 11
16.515589
 21
25.023775
 31
0.0
  0
LINE
  5
372
100
AcDbEntity
  8
0
  6
CONTINUOUS
100
AcDbLine
 10
16.515589
 20
25.023775
 30
0.0
 11
14.169823
 21
23.833856
 31
0.0
  0
TEXT
  5
373
100
AcDbEntity
  8
0
  6
CONTINUOUS
100
AcDbText
 10
11.566446
 20
19.235679
 30
0.0
 40
2.5
  1
I
 11
11.566446
 21
18.402346
 31
0.0
100
AcDbText
 73
     1
  0
TEXT
  5
374
100
AcDbEntity
  8
0
  6
CONTINUOUS
100
AcDbText
 10
13.018181
 20
18.902346
 30
0.0
 40
1.5
  1
2
 11
13.018181
 21
18.402346
 31
0.0
100
AcDbText
 73
     1
  0
LINE
  5
375
100
AcDbEntity
  8
0
  6
CONTINUOUS
100
AcDbLine
 10
10.65733
 20
12.773825
 30
0.0
 11
13.003095
 21
13.963744
 31
0.0
  0
LINE
  5
376
100
AcDbEntity
  8
0
  6
CONTINUOUS
100
AcDbLine
 10
13.003095
 20
11.438471
 30
0.0
 11
10.65733
 21
12.773825
 31
0.0
  0
LINE
  5
377
100
AcDbEntity
  8
0
  6
CONTINUOUS
100
AcDbLine
 10
6.557002
 20
16.714658
 30
0.0
 11
15.281743
 21
16.714658
 31
0.0
  0
LINE
  5
378
100
AcDbEntity
  8
0
  6
CONTINUOUS
100
AcDbLine
 10
6.557002
 20
17.523984
 30
0.0
 11
6.557002
 21
15.908791
 31
0.0
  0
LINE
  5
379
100
AcDbEntity
  8
0
  6
CONTINUOUS
100
AcDbLine
 10
15.286518
 20
17.523984
 30
0.0
 11
15.286518
 21
15.908791
 31
0.0
  0
ARC
  5
37A
100
AcDbEntity
  8
0
  6
CONTINUOUS
100
AcDbCircle
 10
12.684846
 20
18.508045
 30
0.0
 40
2.922744
100
AcDbArc
 50
193.105513
 51
283.105513
  0
TEXT
  5
37B
100
AcDbEntity
  8
0
  6
CONTINUOUS
100
AcDbText
 10
6.557002
 20
11.567974
 30
0.0
 40
2.5
  1
2I
 11
6.557002
 21
10.734641
 31
0.0
100
AcDbText
 73
     1
  0
LINE
  5
37C
100
AcDbEntity
  8
0
  6
CONTINUOUS
100
AcDbLine
 10
6.557002
 20
9.441103
 30
0.0
 11
15.281743
 21
9.441103
 31
0.0
  0
LINE
  5
37D
100
AcDbEntity
  8
0
  6
CONTINUOUS
100
AcDbLine
 10
15.286518
 20
10.250429
 30
0.0
 11
15.286518
 21
8.635236
 31
0.0
  0
LINE
  5
37E
100
AcDbEntity
  8
0
  6
CONTINUOUS
100
AcDbLine
 10
6.557002
 20
10.250429
 30
0.0
 11
6.557002
 21
8.635236
 31
0.0
  0
TEXT
  5
37F
100
AcDbEntity
  8
0
  6
CONTINUOUS
100
AcDbText
 10
6.557002
 20
4.778631
 30
0.0
 40
2.5
  1
I
 11
6.557002
 21
3.945298
 31
0.0
100
AcDbText
 73
     1
  0
LINE
  5
380
100
AcDbEntity
  8
0
  6
CONTINUOUS
100
AcDbLine
 10
9.509029
 20
6.822462
 30
0.0
 11
9.509029
 21
5.477736
 31
0.0
  0
LINE
  5
381
100
AcDbEntity
  8
0
  6
CONTINUOUS
100
AcDbLine
 10
8.615065
 20
5.477736
 30
0.0
 11
9.52622
 21
5.477736
 31
0.0
  0
LINE
  5
382
100
AcDbEntity
  8
0
  6
CONTINUOUS
100
AcDbLine
 10
9.509029
 20
5.477736
 30
0.0
 11
10.402992
 21
5.477736
 31
0.0
  0
LINE
  5
383
100
AcDbEntity
  8
0
  6
CONTINUOUS
100
AcDbLine
 10
8.901592
 20
5.082328
 30
0.0
 11
9.509029
 21
5.082328
 31
0.0
  0
LINE
  5
384
100
AcDbEntity
  8
0
  6
CONTINUOUS
100
AcDbLine
 10
9.509029
 20
5.082328
 30
0.0
 11
10.150849
 21
5.082328
 31
0.0
  0
LINE
  5
385
100
AcDbEntity
  8
0
  6
CONTINUOUS
100
AcDbLine
 10
9.981861
 20
4.719969
 30
0.0
 11
9.072041
 21
4.719969
 31
0.0
  0
LINE
  5
386
100
AcDbEntity
  8
0
  6
CONTINUOUS
100
AcDbLine
 10
15.286518
 20
2.797924
 30
0.0
 11
15.286518
 21
1.182731
 31
0.0
  0
LINE
  5
387
100
AcDbEntity
  8
0
  6
CONTINUOUS
100
AcDbLine
 10
6.557002
 20
1.988598
 30
0.0
 11
15.281743
 21
1.988598
 31
0.0
  0
LINE
  5
388
100
AcDbEntity
  8
0
  6
CONTINUOUS
100
AcDbLine
 10
6.557002
 20
2.797924
 30
0.0
 11
6.557002
 21
1.182731
 31
0.0
  0
ENDBLK
  5
389
100
AcDbEntity
  8
0
100
AcDbBlockEnd
  0
BLOCK
  5
38A
100
AcDbEntity
  8
0
100
AcDbBlockBegin
  2
B114
 70
     0
 10
0.0
 20
0.0
 30
0.0
  3
B114
  1

  0
LINE
  5
38B
100
AcDbEntity
  8
BASE
  6
CONTINUOUS
100
AcDbLine
 10
1.78724
 20
-7.796705
 30
0.0
 11
2.674127
 21
-7.796705
 31
0.0
  0
LINE
  5
38C
100
AcDbEntity
  8
BASE
  6
CONTINUOUS
100
AcDbLine
 10
1.456135
 20
-7.30853
 30
0.0
 11
3.040706
 21
-7.30853
 31
0.0
  0
LINE
  5
38D
100
AcDbEntity
  8
BASE
  6
CONTINUOUS
100
AcDbLine
 10
2.272071
 20
-6.82892
 30
0.0
 11
3.466412
 21
-6.82892
 31
0.0
  0
LINE
  5
38E
100
AcDbEntity
  8
BASE
  6
CONTINUOUS
100
AcDbLine
 10
1.07773
 20
-6.82892
 30
0.0
 11
2.272071
 21
-6.82892
 31
0.0
  0
LINE
  5
38F
100
AcDbEntity
  8
BASE
  6
CONTINUOUS
100
AcDbLine
 10
2.287958
 20
-5.47465
 30
0.0
 11
2.287958
 21
-6.82892
 31
0.0
  0
TEXT
  5
390
100
AcDbEntity
  8
BASE
  6
CONTINUOUS
100
AcDbText
 10
-0.664068
 20
-7.51848
 30
0.0
 40
2.5
  1
I
 11
-0.664068
 21
-8.351813
 31
0.0
100
AcDbText
 73
     1
  0
INSERT
  5
391
100
AcDbEntity
  8
BASE
  6
CONTINUOUS
100
AcDbBlockReference
  2
BLC29
 10
6.408728
 20
-3.649613
 30
0.0
  0
LINE
  5
392
100
AcDbEntity
  8
BASE
  6
CONTINUOUS
100
AcDbLine
 10
-1.054336
 20
-3.78219
 30
0.0
 11
5.899413
 21
-3.78219
 31
0.0
  0
TEXT
  5
393
100
AcDbEntity
  8
BASE
  6
CONTINUOUS
100
AcDbText
 10
1.258508
 20
-2.525867
 30
0.0
 40
2.0
  1
2f
100
AcDbText
  0
TEXT
  5
394
100
AcDbEntity
  8
BASE
  6
CONTINUOUS
100
AcDbText
 10
-0.664068
 20
-2.460129
 30
0.0
 40
2.5
  1
I
 11
-0.664068
 21
-3.293463
 31
0.0
100
AcDbText
 73
     1
  0
LINE
  5
395
100
AcDbEntity
  8
BASE
  6
CONTINUOUS
100
AcDbLine
 10
6.463026
 20
4.375053
 30
0.0
 11
4.11726
 21
3.185134
 31
0.0
  0
LINE
  5
396
100
AcDbEntity
  8
BASE
  6
CONTINUOUS
100
AcDbLine
 10
4.11726
 20
5.710407
 30
0.0
 11
6.463026
 21
4.375053
 31
0.0
  0
TEXT
  5
397
100
AcDbEntity
  8
BASE
  6
CONTINUOUS
100
AcDbText
 10
-0.664068
 20
3.656177
 30
0.0
 40
2.5
  1
I
 11
-0.664068
 21
2.822844
 31
0.0
100
AcDbText
 73
     1
  0
LINE
  5
398
100
AcDbEntity
  8
BASE
  6
CONTINUOUS
100
AcDbLine
 10
2.287958
 20
5.700007
 30
0.0
 11
2.287958
 21
4.345737
 31
0.0
  0
LINE
  5
399
100
AcDbEntity
  8
BASE
  6
CONTINUOUS
100
AcDbLine
 10
1.07773
 20
4.345737
 30
0.0
 11
2.272071
 21
4.345737
 31
0.0
  0
LINE
  5
39A
100
AcDbEntity
  8
BASE
  6
CONTINUOUS
100
AcDbLine
 10
2.272071
 20
4.345737
 30
0.0
 11
3.466412
 21
4.345737
 31
0.0
  0
LINE
  5
39B
100
AcDbEntity
  8
BASE
  6
CONTINUOUS
100
AcDbLine
 10
1.456135
 20
3.866126
 30
0.0
 11
3.040706
 21
3.866126
 31
0.0
  0
LINE
  5
39C
100
AcDbEntity
  8
BASE
  6
CONTINUOUS
100
AcDbLine
 10
1.78724
 20
3.377952
 30
0.0
 11
2.674127
 21
3.377952
 31
0.0
  0
ENDBLK
  5
39D
100
AcDbEntity
  8
0
100
AcDbBlockEnd
  0
BLOCK
  5
39E
100
AcDbEntity
  8
0
100
AcDbBlockBegin
  2
B961
 70
     0
 10
0.0
 20
0.0
 30
0.0
  3
B961
  1

  0
TEXT
  5
39F
100
AcDbEntity
  8
BASE1
  6
CONTINUOUS
100
AcDbText
 10
3.634728
 20
16.984703
 30
0.0
 40
2.5
  1
Xa,Xb
100
AcDbText
  0
TEXT
  5
3A0
100
AcDbEntity
  8
BASE1
  6
DASHED
100
AcDbText
 10
4.63597
 20
1.340512
 30
0.0
 40
2.0
  1
0,2...6s
  7
ROMANS
100
AcDbText
  0
LINE
  5
3A1
100
AcDbEntity
  8
BASE1
  6
CONTINUOUS
100
AcDbLine
 10
5.680386
 20
5.342341
 30
0.0
 11
14.405127
 21
5.342341
 31
0.0
  0
LINE
  5
3A2
100
AcDbEntity
  8
BASE1
  6
CONTINUOUS
100
AcDbLine
 10
0.056343
 20
0.059474
 30
0.0
 11
30.0
 21
0.059474
 31
0.0
  0
LINE
  5
3A3
100
AcDbEntity
  8
BASE1
  6
HIDDEN
100
AcDbLine
 10
0.056343
 20
12.5
 30
0.0
 11
17.5
 21
12.5
 31
0.0
  0
LINE
  5
3A4
100
AcDbEntity
  8
BASE1
  6
CONTINUOUS
100
AcDbLine
 10
0.056343
 20
25.0
 30
0.0
 11
30.0
 21
25.0
 31
0.0
  0
LINE
  5
3A5
100
AcDbEntity
  8
BASE1
  6
CONTINUOUS
100
AcDbLine
 10
0.056343
 20
25.0
 30
0.0
 11
0.056343
 21
15.96396
 31
0.0
  0
CIRCLE
  5
3A6
100
AcDbEntity
  8
BASE1
  6
CONTINUOUS
100
AcDbCircle
 10
-0.987341
 20
9.857255
 30
0.0
 40
1.0
  0
LINE
  5
3A7
100
AcDbEntity
  8
BASE1
  6
CONTINUOUS
100
AcDbLine
 10
-1.98727
 20
9.863558
 30
0.0
 11
-5.0
 21
9.863558
 31
0.0
  0
TEXT
  5
3A8
100
AcDbEntity
  8
BASE1
  6
CONTINUOUS
100
AcDbText
 10
1.080478
 20
9.030592
 30
0.0
 40
1.5
  1
EN
100
AcDbText
  0
LINE
  5
3A9
100
AcDbEntity
  8
BASE1
  6
CONTINUOUS
100
AcDbLine
 10
0.056343
 20
15.96396
 30
0.0
 11
0.056343
 21
0.059474
 31
0.0
  0
TEXT
  5
3AA
100
AcDbEntity
  8
BASE1
  6
CONTINUOUS
100
AcDbText
 10
0.962181
 20
2.659422
 30
0.0
 40
2.5
  1
t
100
AcDbText
  0
LINE
  5
3AB
100
AcDbEntity
  8
BASE1
  6
CONTINUOUS
100
AcDbLine
 10
5.680386
 20
6.151667
 30
0.0
 11
5.680386
 21
4.536474
 31
0.0
  0
LINE
  5
3AC
100
AcDbEntity
  8
BASE1
  6
CONTINUOUS
100
AcDbLine
 10
8.279716
 20
4.174738
 30
0.0
 11
11.155827
 21
7.003297
 31
0.0
  0
LINE
  5
3AD
100
AcDbEntity
  8
BASE1
  6
CONTINUOUS
100
AcDbLine
 10
10.725123
 20
7.540504
 30
0.0
 11
11.6258
 21
6.416755
 31
0.0
  0
LINE
  5
3AE
100
AcDbEntity
  8
BASE1
  6
CONTINUOUS
100
AcDbLine
 10
0.056343
 20
10.578721
 30
0.0
 11
0.048509
 21
10.578721
 31
0.0
  0
LINE
  5
3AF
100
AcDbEntity
  8
BASE1
  6
CONTINUOUS
100
AcDbLine
 10
30.0
 20
25.0
 30
0.0
 11
30.0
 21
0.059474
 31
0.0
  0
LINE
  5
3B0
100
AcDbEntity
  8
BASE1
  6
CONTINUOUS
100
AcDbLine
 10
17.5
 20
25.0
 30
0.0
 11
17.5
 21
0.059474
 31
0.0
  0
TEXT
  5
3B1
100
AcDbEntity
  8
BASE1
  6
CONTINUOUS
100
AcDbText
 10
21.060277
 20
6.090095
 30
0.0
 40
2.5
  1
Xb
100
AcDbText
  0
LINE
  5
3B2
100
AcDbEntity
  8
BASE1
  6
CONTINUOUS
100
AcDbLine
 10
14.409902
 20
6.151667
 30
0.0
 11
14.409902
 21
4.536474
 31
0.0
  0
TEXT
  5
3B3
100
AcDbEntity
  8
BASE1
  6
CONTINUOUS
100
AcDbText
 10
21.060277
 20
16.984703
 30
0.0
 40
2.5
  1
Xa
100
AcDbText
  0
LINE
  5
3B4
100
AcDbEntity
  8
BASE1
  6
CONTINUOUS
100
AcDbLine
 10
-5.0
 20
9.863558
 30
0.0
 11
-5.0
 21
40.0
 31
0.0
  0
ENDBLK
  5
3B5
100
AcDbEntity
  8
0
100
AcDbBlockEnd
  0
BLOCK
  5
3B6
100
AcDbEntity
  8
0
100
AcDbBlockBegin
  2
B963
 70
     0
 10
0.0
 20
0.0
 30
0.0
  3
B963
  1

  0
TEXT
  5
3B7
100
AcDbEntity
  8
0
  6
CONTINUOUS
100
AcDbText
 10
2.226675
 20
-35.000665
 30
0.0
 40
2.0
  1
UNDER-REACTANCE RELAY /
  7
ROMANS
100
AcDbText
  0
TEXT
  5
3B8
100
AcDbEntity
  8
0
  6
CONTINUOUS
100
AcDbText
 10
2.226675
 20
-39.048284
 30
0.0
 40
2.0
  1
UNDERREAKTANSRELÄ
  7
ROMANS
100
AcDbText
  0
TEXT
  5
3B9
100
AcDbEntity
  8
0
  6
CONTINUOUS
100
AcDbText
 10
8.855937
 20
-23.945969
 30
0.0
 40
2.5
  1
t
100
AcDbText
  0
LINE
  5
3BA
100
AcDbEntity
  8
0
  6
CONTINUOUS
100
AcDbLine
 10
7.711657
 20
-27.392061
 30
0.0
 11
27.711657
 21
-27.392061
 31
0.0
  0
LINE
  5
3BB
100
AcDbEntity
  8
0
  6
CONTINUOUS
100
AcDbLine
 10
7.711657
 20
-8.457781
 30
0.0
 11
27.711657
 21
-8.457781
 31
0.0
  0
LINE
  5
3BC
100
AcDbEntity
  8
0
  6
CONTINUOUS
100
AcDbLine
 10
7.711657
 20
-27.392061
 30
0.0
 11
7.711657
 21
-8.457781
 31
0.0
  0
TEXT
  5
3BD
100
AcDbEntity
  8
0
  6
CONTINUOUS
100
AcDbText
 10
14.546353
 20
-13.39688
 30
0.0
 40
2.5
  1
X
100
AcDbText
  0
LINE
  5
3BE
100
AcDbEntity
  8
0
  6
CONTINUOUS
100
AcDbLine
 10
27.711657
 20
-8.457781
 30
0.0
 11
27.711657
 21
-27.392061
 31
0.0
  0
TEXT
  5
3BF
100
AcDbEntity
  8
0
  6
CONTINUOUS
100
AcDbText
 10
12.529726
 20
-25.264879
 30
0.0
 40
2.0
  1
0,2...6s
  7
ROMANS
100
AcDbText
  0
LINE
  5
3C0
100
AcDbEntity
  8
0
  6
CONTINUOUS
100
AcDbLine
 10
13.393299
 20
-19.788682
 30
0.0
 11
21.181504
 21
-19.788682
 31
0.0
  0
LINE
  5
3C1
100
AcDbEntity
  8
0
  6
CONTINUOUS
100
AcDbLine
 10
15.777443
 20
-20.956285
 30
0.0
 11
18.653554
 21
-18.127726
 31
0.0
  0
LINE
  5
3C2
100
AcDbEntity
  8
0
  6
CONTINUOUS
100
AcDbLine
 10
13.362267
 20
-18.943404
 30
0.0
 11
13.362267
 21
-20.731535
 31
0.0
  0
LINE
  5
3C3
100
AcDbEntity
  8
0
  6
CONTINUOUS
100
AcDbLine
 10
18.199431
 20
-17.590519
 30
0.0
 11
19.100108
 21
-18.714268
 31
0.0
  0
LINE
  5
3C4
100
AcDbEntity
  8
0
  6
CONTINUOUS
100
AcDbLine
 10
21.176963
 20
-18.943404
 30
0.0
 11
21.176963
 21
-20.731535
 31
0.0
  0
LINE
  5
3C5
100
AcDbEntity
  8
0
  6
CONTINUOUS
100
AcDbLine
 10
20.075968
 20
-13.834172
 30
0.0
 11
17.730203
 21
-12.498818
 31
0.0
  0
LINE
  5
3C6
100
AcDbEntity
  8
0
  6
CONTINUOUS
100
AcDbLine
 10
17.730203
 20
-12.498818
 30
0.0
 11
20.075968
 21
-11.308899
 31
0.0
  0
ENDBLK
  5
3C7
100
AcDbEntity
  8
0
100
AcDbBlockEnd
  0
BLOCK
  5
3C8
100
AcDbEntity
  8
0
100
AcDbBlockBegin
  2
B971
 70
     0
 10
0.0
 20
0.0
 30
0.0
  3
B971
  1

  0
TEXT
  5
3C9
100
AcDbEntity
  8
BASE
  6
CONTINUOUS
100
AcDbText
 10
2.691273
 20
0.661717
 30
0.0
 40
1.5
  1
0
  7
ROMANS
100
AcDbText
  0
TEXT
  5
3CA
100
AcDbEntity
  8
BASE
  6
HIDDEN
100
AcDbText
 10
0.174226
 20
0.776138
 30
0.0
 40
2.5
  1
U
  7
ROMANS
100
AcDbText
  0
INSERT
  5
3CB
100
AcDbEntity
  8
BASE
  6
CONTINUOUS
100
AcDbBlockReference
  2
BLC29
 10
4.758914
 20
1.707383
 30
0.0
  0
ENDBLK
  5
3CC
100
AcDbEntity
  8
0
100
AcDbBlockEnd
  0
BLOCK
  5
3CD
100
AcDbEntity
  8
0
100
AcDbBlockBegin
  2
B972
 70
     0
 10
0.0
 20
0.0
 30
0.0
  3
B972
  1

  0
LINE
  5
3CE
100
AcDbEntity
  8
0
  6
CONTINUOUS
100
AcDbLine
 10
0.0
 20
10.0
 30
0.0
 11
2.5
 21
10.0
 31
0.0
  0
LINE
  5
3CF
100
AcDbEntity
  8
0
  6
CONTINUOUS
100
AcDbLine
 10
0.0
 20
5.0
 30
0.0
 11
2.5
 21
5.0
 31
0.0
  0
LINE
  5
3D0
100
AcDbEntity
  8
0
  6
CONTINUOUS
100
AcDbLine
 10
5.0
 20
10.3468
 30
0.0
 11
4.0
 21
11.3468
 31
0.0
  0
TEXT
  5
3D1
100
AcDbEntity
  8
0
  6
CONTINUOUS
100
AcDbText
 10
5.368306
 20
10.791776
 30
0.0
 40
2.0
  1
6)
  7
ROMANS
100
AcDbText
  0
LINE
  5
3D2
100
AcDbEntity
  8
0
  6
CONTINUOUS
100
AcDbLine
 10
5.0
 20
10.3468
 30
0.0
 11
5.0
 21
4.66187
 31
0.0
  0
LINE
  5
3D3
100
AcDbEntity
  8
0
  6
CONTINUOUS
100
AcDbLine
 10
5.0
 20
4.66187
 30
0.0
 11
4.0
 21
3.66187
 31
0.0
  0
ENDBLK
  5
3D4
100
AcDbEntity
  8
0
100
AcDbBlockEnd
  0
BLOCK
  5
3D5
100
AcDbEntity
  8
0
100
AcDbBlockBegin
  2
B980
 70
     0
 10
0.0
 20
0.0
 30
0.0
  3
B980
  1

  0
LINE
  5
3D6
100
AcDbEntity
  8
BASE
100
AcDbLine
 10
-20.0
 20
-45.00155
 30
0.0
 11
-20.0
 21
-0.00155
 31
0.0
  0
LINE
  5
3D7
100
AcDbEntity
  8
BASE
  6
CONTINUOUS
100
AcDbLine
 10
-27.5
 20
-5.0
 30
0.0
 11
-27.5
 21
-27.5
 31
0.0
  0
LINE
  5
3D8
100
AcDbEntity
  8
BASE
100
AcDbLine
 10
-20.0
 20
-57.50155
 30
0.0
 11
-17.5
 21
-57.50155
 31
0.0
  0
LINE
  5
3D9
100
AcDbEntity
  8
BASE
100
AcDbLine
 10
-22.5
 20
-62.5
 30
0.0
 11
-17.5
 21
-62.5
 31
0.0
  0
LINE
  5
3DA
100
AcDbEntity
  8
BASE
100
AcDbLine
 10
-17.5
 20
-67.50155
 30
0.0
 11
-20.0
 21
-67.50155
 31
0.0
  0
LINE
  5
3DB
100
AcDbEntity
  8
BASE
100
AcDbLine
 10
-22.5
 20
-72.5
 30
0.0
 11
-17.5
 21
-72.5
 31
0.0
  0
LINE
  5
3DC
100
AcDbEntity
  8
BASE
100
AcDbLine
 10
-22.5
 20
-22.5
 30
0.0
 11
-17.5
 21
-22.5
 31
0.0
  0
LINE
  5
3DD
100
AcDbEntity
  8
BASE
100
AcDbLine
 10
-20.0
 20
-17.50155
 30
0.0
 11
-17.5
 21
-17.50155
 31
0.0
  0
LINE
  5
3DE
100
AcDbEntity
  8
BASE
100
AcDbLine
 10
-17.5
 20
-45.00155
 30
0.0
 11
-20.0
 21
-45.00155
 31
0.0
  0
LINE
  5
3DF
100
AcDbEntity
  8
BASE
100
AcDbLine
 10
-22.5
 20
-40.0
 30
0.0
 11
-17.5
 21
-40.0
 31
0.0
  0
LINE
  5
3E0
100
AcDbEntity
  8
BASE
100
AcDbLine
 10
-20.0
 20
-35.00155
 30
0.0
 11
-17.5
 21
-35.00155
 31
0.0
  0
LINE
  5
3E1
100
AcDbEntity
  8
BASE
100
AcDbLine
 10
-22.5
 20
-50.0
 30
0.0
 11
-17.5
 21
-50.0
 31
0.0
  0
LINE
  5
3E2
100
AcDbEntity
  8
BASE
  6
CONTINUOUS
100
AcDbLine
 10
-27.5
 20
-50.0
 30
0.0
 11
-26.5
 21
-51.0
 31
0.0
  0
LINE
  5
3E3
100
AcDbEntity
  8
0
  6
CONTINUOUS
100
AcDbLine
 10
-27.5
 20
-72.5
 30
0.0
 11
-27.5
 21
-62.5
 31
0.0
  0
LINE
  5
3E4
100
AcDbEntity
  8
BASE
  6
CONTINUOUS
100
AcDbLine
 10
-27.5
 20
-72.5
 30
0.0
 11
-26.5
 21
-73.5
 31
0.0
  0
LINE
  5
3E5
100
AcDbEntity
  8
BASE
  6
CONTINUOUS
100
AcDbLine
 10
-25.0
 20
-72.5
 30
0.0
 11
-22.5
 21
-72.5
 31
0.0
  0
LINE
  5
3E6
100
AcDbEntity
  8
BASE
100
AcDbLine
 10
-20.0
 20
-67.50155
 30
0.0
 11
-20.0
 21
-57.50155
 31
0.0
  0
LINE
  5
3E7
100
AcDbEntity
  8
BASE
  6
CONTINUOUS
100
AcDbLine
 10
-27.5
 20
-62.5
 30
0.0
 11
-26.5
 21
-61.5
 31
0.0
  0
LINE
  5
3E8
100
AcDbEntity
  8
BASE
  6
CONTINUOUS
100
AcDbLine
 10
-25.0
 20
-62.5
 30
0.0
 11
-22.5
 21
-62.5
 31
0.0
  0
LINE
  5
3E9
100
AcDbEntity
  8
BASE
  6
CONTINUOUS
100
AcDbLine
 10
-27.5
 20
-27.5
 30
0.0
 11
-27.5
 21
-50.0
 31
0.0
  0
LINE
  5
3EA
100
AcDbEntity
  8
BASE
  6
CONTINUOUS
100
AcDbLine
 10
-25.0
 20
-50.0
 30
0.0
 11
-22.5
 21
-50.0
 31
0.0
  0
LINE
  5
3EB
100
AcDbEntity
  8
BASE
  6
CONTINUOUS
100
AcDbLine
 10
-25.0
 20
-40.0
 30
0.0
 11
-22.5
 21
-40.0
 31
0.0
  0
LINE
  5
3EC
100
AcDbEntity
  8
BASE
  6
CONTINUOUS
100
AcDbLine
 10
-25.0
 20
-22.5
 30
0.0
 11
-22.5
 21
-22.5
 31
0.0
  0
LINE
  5
3ED
100
AcDbEntity
  8
BASE
100
AcDbLine
 10
-16.11905
 20
-70.555575
 30
0.0
 11
-15.439687
 21
-71.491319
 31
0.0
  0
LINE
  5
3EE
100
AcDbEntity
  8
BASE
100
AcDbLine
 10
-15.0
 20
-72.5
 30
0.0
 11
-15.0
 21
-69.6
 31
0.0
  0
LINE
  5
3EF
100
AcDbEntity
  8
BASE
100
AcDbLine
 10
-10.0
 20
-67.5
 30
0.0
 11
-15.8
 21
-71.0
 31
0.0
  0
TEXT
  5
3F0
100
AcDbEntity
  8
BASE
  6
CONTINUOUS
100
AcDbText
 10
-7.70467
 20
-71.075153
 30
0.0
 40
2.0
  1
10A
  7
ROMANS
100
AcDbText
  0
LINE
  5
3F1
100
AcDbEntity
  8
BASE
100
AcDbLine
 10
-17.5
 20
-72.5
 30
0.0
 11
-15.0
 21
-72.5
 31
0.0
  0
LINE
  5
3F2
100
AcDbEntity
  8
BASE
100
AcDbLine
 10
-15.0
 20
-62.5
 30
0.0
 11
-15.0
 21
-59.6
 31
0.0
  0
LINE
  5
3F3
100
AcDbEntity
  8
BASE
100
AcDbLine
 10
-10.0
 20
-57.5
 30
0.0
 11
-15.8
 21
-61.0
 31
0.0
  0
TEXT
  5
3F4
100
AcDbEntity
  8
BASE
  6
CONTINUOUS
100
AcDbText
 10
-6.252962
 20
-60.96336
 30
0.0
 40
2.0
  1
9A
  7
ROMANS
100
AcDbText
  0
LINE
  5
3F5
100
AcDbEntity
  8
BASE
100
AcDbLine
 10
-17.5
 20
-67.5
 30
0.0
 11
-15.0
 21
-67.5
 31
0.0
  0
LINE
  5
3F6
100
AcDbEntity
  8
BASE
100
AcDbLine
 10
-16.11905
 20
-60.555575
 30
0.0
 11
-15.439687
 21
-61.491319
 31
0.0
  0
LINE
  5
3F7
100
AcDbEntity
  8
BASE
100
AcDbLine
 10
-17.5
 20
-62.5
 30
0.0
 11
-15.0
 21
-62.5
 31
0.0
  0
LINE
  5
3F8
100
AcDbEntity
  8
BASE
100
AcDbLine
 10
-17.5
 20
-57.5
 30
0.0
 11
-15.0
 21
-57.5
 31
0.0
  0
LINE
  5
3F9
100
AcDbEntity
  8
BASE
100
AcDbLine
 10
-15.0
 20
-40.0
 30
0.0
 11
-15.0
 21
-37.1
 31
0.0
  0
LINE
  5
3FA
100
AcDbEntity
  8
BASE
100
AcDbLine
 10
-10.0
 20
-45.0
 30
0.0
 11
-15.8
 21
-48.5
 31
0.0
  0
LINE
  5
3FB
100
AcDbEntity
  8
BASE
100
AcDbLine
 10
-17.5
 20
-45.0
 30
0.0
 11
-15.0
 21
-45.0
 31
0.0
  0
LINE
  5
3FC
100
AcDbEntity
  8
BASE
100
AcDbLine
 10
-16.11905
 20
-48.055575
 30
0.0
 11
-15.439687
 21
-48.991319
 31
0.0
  0
LINE
  5
3FD
100
AcDbEntity
  8
BASE
100
AcDbLine
 10
-15.0
 20
-50.0
 30
0.0
 11
-15.0
 21
-47.1
 31
0.0
  0
LINE
  5
3FE
100
AcDbEntity
  8
BASE
100
AcDbLine
 10
-17.5
 20
-50.0
 30
0.0
 11
-15.0
 21
-50.0
 31
0.0
  0
LINE
  5
3FF
100
AcDbEntity
  8
BASE
100
AcDbLine
 10
-17.5
 20
-40.0
 30
0.0
 11
-15.0
 21
-40.0
 31
0.0
  0
TEXT
  5
400
100
AcDbEntity
  8
BASE
  6
CONTINUOUS
100
AcDbText
 10
-6.252962
 20
-48.575153
 30
0.0
 40
2.0
  1
6A
  7
ROMANS
100
AcDbText
  0
LINE
  5
401
100
AcDbEntity
  8
BASE
100
AcDbLine
 10
-10.0
 20
-35.0
 30
0.0
 11
-15.8
 21
-38.5
 31
0.0
  0
LINE
  5
402
100
AcDbEntity
  8
BASE
100
AcDbLine
 10
-16.11905
 20
-38.055575
 30
0.0
 11
-15.439687
 21
-38.991319
 31
0.0
  0
LINE
  5
403
100
AcDbEntity
  8
BASE
100
AcDbLine
 10
-17.5
 20
-35.0
 30
0.0
 11
-15.0
 21
-35.0
 31
0.0
  0
TEXT
  5
404
100
AcDbEntity
  8
BASE
  6
CONTINUOUS
100
AcDbText
 10
-6.252962
 20
-38.46336
 30
0.0
 40
2.0
  1
5A
  7
ROMANS
100
AcDbText
  0
LINE
  5
405
100
AcDbEntity
  8
BASE
100
AcDbLine
 10
-10.0
 20
-17.5
 30
0.0
 11
-15.8
 21
-21.0
 31
0.0
  0
TEXT
  5
406
100
AcDbEntity
  8
BASE
  6
CONTINUOUS
100
AcDbText
 10
-6.252962
 20
-20.700934
 30
0.0
 40
2.0
  1
4A
  7
ROMANS
100
AcDbText
  0
LINE
  5
407
100
AcDbEntity
  8
BASE
100
AcDbLine
 10
-16.11905
 20
-20.555575
 30
0.0
 11
-15.439687
 21
-21.491319
 31
0.0
  0
LINE
  5
408
100
AcDbEntity
  8
BASE
100
AcDbLine
 10
-15.0
 20
-22.5
 30
0.0
 11
-15.0
 21
-19.6
 31
0.0
  0
LINE
  5
409
100
AcDbEntity
  8
BASE
100
AcDbLine
 10
-17.5
 20
-22.5
 30
0.0
 11
-15.0
 21
-22.5
 31
0.0
  0
LINE
  5
40A
100
AcDbEntity
  8
BASE
100
AcDbLine
 10
-17.5
 20
-17.5
 30
0.0
 11
-15.0
 21
-17.5
 31
0.0
  0
LINE
  5
40B
100
AcDbEntity
  8
BASE
100
AcDbLine
 10
-22.5
 20
-5.0
 30
0.0
 11
-17.5
 21
-5.0
 31
0.0
  0
LINE
  5
40C
100
AcDbEntity
  8
BASE
100
AcDbLine
 10
-20.0
 20
-0.00155
 30
0.0
 11
-17.5
 21
-0.00155
 31
0.0
  0
LINE
  5
40D
100
AcDbEntity
  8
BASE
  6
CONTINUOUS
100
AcDbLine
 10
-27.5
 20
-5.0
 30
0.0
 11
-26.5
 21
-4.0
 31
0.0
  0
LINE
  5
40E
100
AcDbEntity
  8
BASE
  6
CONTINUOUS
100
AcDbLine
 10
-25.0
 20
-5.0
 30
0.0
 11
-22.5
 21
-5.0
 31
0.0
  0
LINE
  5
40F
100
AcDbEntity
  8
BASE
100
AcDbLine
 10
-16.11905
 20
-3.055575
 30
0.0
 11
-15.439687
 21
-3.991319
 31
0.0
  0
LINE
  5
410
100
AcDbEntity
  8
BASE
100
AcDbLine
 10
-15.0
 20
-5.0
 30
0.0
 11
-15.0
 21
-2.1
 31
0.0
  0
LINE
  5
411
100
AcDbEntity
  8
BASE
100
AcDbLine
 10
-17.5
 20
-5.0
 30
0.0
 11
-15.0
 21
-5.0
 31
0.0
  0
LINE
  5
412
100
AcDbEntity
  8
BASE
100
AcDbLine
 10
-10.0
 20
0.0
 30
0.0
 11
-15.8
 21
-3.5
 31
0.0
  0
LINE
  5
413
100
AcDbEntity
  8
BASE
100
AcDbLine
 10
-17.5
 20
0.0
 30
0.0
 11
-15.0
 21
0.0
 31
0.0
  0
TEXT
  5
414
100
AcDbEntity
  8
BASE
  6
CONTINUOUS
100
AcDbText
 10
-6.252962
 20
-3.691671
 30
0.0
 40
2.0
  1
3A
  7
ROMANS
100
AcDbText
  0
TEXT
  5
415
100
AcDbEntity
  8
BASE
  6
CONTINUOUS
100
AcDbText
 10
-9.414676
 20
4.379085
 30
0.0
 40
2.0
  1
101
  7
ROMANS
100
AcDbText
  0
LINE
  5
416
100
AcDbEntity
  8
BASE
  6
CONTINUOUS
100
AcDbLine
 10
-10.0
 20
-57.5
 30
0.0
 11
0.0
 21
-57.5
 31
0.0
  0
LINE
  5
417
100
AcDbEntity
  8
BASE
  6
CONTINUOUS
100
AcDbLine
 10
-10.0
 20
-67.5
 30
0.0
 11
0.0
 21
-67.5
 31
0.0
  0
LINE
  5
418
100
AcDbEntity
  8
BASE
  6
CONTINUOUS
100
AcDbLine
 10
-10.0
 20
-35.0
 30
0.0
 11
0.0
 21
-35.0
 31
0.0
  0
LINE
  5
419
100
AcDbEntity
  8
BASE
  6
CONTINUOUS
100
AcDbLine
 10
-10.0
 20
-45.0
 30
0.0
 11
0.0
 21
-45.0
 31
0.0
  0
LINE
  5
41A
100
AcDbEntity
  8
BASE
  6
CONTINUOUS
100
AcDbLine
 10
-10.0
 20
-17.5
 30
0.0
 11
0.0
 21
-17.5
 31
0.0
  0
LINE
  5
41B
100
AcDbEntity
  8
BASE
  6
CONTINUOUS
100
AcDbLine
 10
-10.0
 20
0.0
 30
0.0
 11
0.0
 21
0.0
 31
0.0
  0
INSERT
  5
41C
100
AcDbEntity
  8
BASE
  6
CONTINUOUS
100
AcDbBlockReference
  2
BLC29
 10
-28.505068
 20
-27.359706
 30
0.0
 50
180.0
  0
INSERT
  5
41D
100
AcDbEntity
  8
BASE
  6
CONTINUOUS
100
AcDbBlockReference
  2
BLC29
 10
-28.493097
 20
-67.628476
 30
0.0
 50
180.0
  0
ENDBLK
  5
41E
100
AcDbEntity
  8
0
100
AcDbBlockEnd
  0
BLOCK
  5
41F
100
AcDbEntity
  8
0
100
AcDbBlockBegin
  2
B204
 70
     0
 10
0.0
 20
0.0
 30
0.0
  3
B204
  1

  0
TEXT
  5
420
100
AcDbEntity
  8
BASE
  6
CONTINUOUS
100
AcDbText
 10
-5.818294
 20
-13.161989
 30
0.0
 40
2.0
  1
12A
100
AcDbText
  0
TEXT
  5
421
100
AcDbEntity
  8
BASE
  6
CONTINUOUS
100
AcDbText
 10
-5.818294
 20
-3.442734
 30
0.0
 40
2.0
  1
11A
100
AcDbText
  0
LINE
  5
422
100
AcDbEntity
  8
BASE
  6
CONTINUOUS
100
AcDbLine
 10
-5.0
 20
-10.0
 30
0.0
 11
0.0
 21
-10.0
 31
0.0
  0
LINE
  5
423
100
AcDbEntity
  8
BASE
  6
CONTINUOUS
100
AcDbLine
 10
-20.0
 20
-10.017028
 30
0.0
 11
-10.0
 21
-10.017028
 31
0.0
  0
LINE
  5
424
100
AcDbEntity
  8
BASE
  6
CONTINUOUS
100
AcDbLine
 10
-10.0
 20
-10.017028
 30
0.0
 11
-10.0
 21
-7.234339
 31
0.0
  0
LINE
  5
425
100
AcDbEntity
  8
BASE
  6
CONTINUOUS
100
AcDbLine
 10
-10.897173
 20
-7.565196
 30
0.0
 11
-11.342066
 21
-8.450894
 31
0.0
  0
LINE
  5
426
100
AcDbEntity
  8
BASE
  6
CONTINUOUS
100
AcDbLine
 10
-10.897173
 20
-7.565196
 30
0.0
 11
-5.0
 21
-10.0
 31
0.0
  0
LINE
  5
427
100
AcDbEntity
  8
BASE
  6
CONTINUOUS
100
AcDbLine
 10
-10.897173
 20
2.434804
 30
0.0
 11
-5.0
 21
0.0
 31
0.0
  0
LINE
  5
428
100
AcDbEntity
  8
BASE
  6
CONTINUOUS
100
AcDbLine
 10
-10.897173
 20
2.434804
 30
0.0
 11
-11.342066
 21
1.549106
 31
0.0
  0
LINE
  5
429
100
AcDbEntity
  8
BASE
  6
CONTINUOUS
100
AcDbLine
 10
-10.0
 20
-0.017028
 30
0.0
 11
-10.0
 21
2.765661
 31
0.0
  0
LINE
  5
42A
100
AcDbEntity
  8
BASE
  6
CONTINUOUS
100
AcDbLine
 10
-20.0
 20
-0.017028
 30
0.0
 11
-10.0
 21
-0.017028
 31
0.0
  0
LINE
  5
42B
100
AcDbEntity
  8
BASE
  6
CONTINUOUS
100
AcDbLine
 10
-5.0
 20
0.0
 30
0.0
 11
0.0
 21
0.0
 31
0.0
  0
ENDBLK
  5
42C
100
AcDbEntity
  8
0
100
AcDbBlockEnd
  0
BLOCK
  5
42D
100
AcDbEntity
  8
0
100
AcDbBlockBegin
  2
B13
 70
     0
 10
0.0
 20
0.0
 30
0.0
  3
B13
  1

  0
LINE
  5
42E
100
AcDbEntity
  8
BASE
  6
CONTINUOUS
100
AcDbLine
 10
0.00793
 20
5.0
 30
0.0
 11
0.00793
 21
-5.0
 31
0.0
  0
LINE
  5
42F
100
AcDbEntity
  8
BASE
  6
CONTINUOUS
100
AcDbLine
 10
0.0
 20
-11.000004
 30
0.0
 11
0.0
 21
-17.5
 31
0.0
  0
LINE
  5
430
100
AcDbEntity
  8
BASE
  6
CONTINUOUS
100
AcDbLine
 10
5.0
 20
-11.000004
 30
0.0
 11
5.0
 21
-17.5
 31
0.0
  0
LINE
  5
431
100
AcDbEntity
  8
BASE
  6
CONTINUOUS
100
AcDbLine
 10
4.982972
 20
5.0
 30
0.0
 11
4.982972
 21
-5.0
 31
0.0
  0
LINE
  5
432
100
AcDbEntity
  8
BASE
  6
CONTINUOUS
100
AcDbLine
 10
10.0
 20
-5.0
 30
0.0
 11
10.0
 21
-1.412306
 31
0.0
  0
LINE
  5
433
100
AcDbEntity
  8
BASE
  6
CONTINUOUS
100
AcDbLine
 10
10.0
 20
-0.21377
 30
0.0
 11
10.0
 21
2.28623
 31
0.0
  0
LINE
  5
434
100
AcDbEntity
  8
BASE
  6
CONTINUOUS
100
AcDbLine
 10
10.0
 20
-11.000004
 30
0.0
 11
10.0
 21
-17.5
 31
0.0
  0
LINE
  5
435
100
AcDbEntity
  8
BASE
  6
CONTINUOUS
100
AcDbLine
 10
10.0
 20
-11.000004
 30
0.0
 11
12.434804
 21
-4.337159
 31
0.0
  0
LINE
  5
436
100
AcDbEntity
  8
BASE
  6
CONTINUOUS
100
AcDbLine
 10
10.0
 20
-5.0
 30
0.0
 11
12.765661
 21
-5.0
 31
0.0
  0
LINE
  5
437
100
AcDbEntity
  8
BASE
  6
CONTINUOUS
100
AcDbLine
 10
12.434804
 20
-4.337159
 30
0.0
 11
11.549106
 21
-3.892266
 31
0.0
  0
LINE
  5
438
100
AcDbEntity
  8
BASE
  6
CONTINUOUS
100
AcDbLine
 10
5.0
 20
-5.0
 30
0.0
 11
7.765661
 21
-5.0
 31
0.0
  0
LINE
  5
439
100
AcDbEntity
  8
BASE
  6
CONTINUOUS
100
AcDbLine
 10
7.434804
 20
-4.337159
 30
0.0
 11
6.549106
 21
-3.892266
 31
0.0
  0
LINE
  5
43A
100
AcDbEntity
  8
BASE
  6
CONTINUOUS
100
AcDbLine
 10
5.0
 20
-11.000004
 30
0.0
 11
7.434804
 21
-4.337159
 31
0.0
  0
LINE
  5
43B
100
AcDbEntity
  8
BASE
  6
CONTINUOUS
100
AcDbLine
 10
0.0
 20
-11.000004
 30
0.0
 11
2.434804
 21
-4.337159
 31
0.0
  0
LINE
  5
43C
100
AcDbEntity
  8
BASE
  6
CONTINUOUS
100
AcDbLine
 10
0.0
 20
-5.0
 30
0.0
 11
2.765661
 21
-5.0
 31
0.0
  0
ENDBLK
  5
43D
100
AcDbEntity
  8
0
100
AcDbBlockEnd
  0
BLOCK
  5
43E
100
AcDbEntity
  8
0
100
AcDbBlockBegin
  2
B37
 70
     0
 10
0.0
 20
0.0
 30
0.0
  3
B37
  1

  0
LINE
  5
43F
100
AcDbEntity
  8
BASE
  6
CONTINUOUS
100
AcDbLine
 10
-0.006589
 20
-6.018035
 30
0.0
 11
2.434804
 21
0.662841
 31
0.0
  0
LINE
  5
440
100
AcDbEntity
  8
BASE
  6
CONTINUOUS
100
AcDbLine
 10
0.0
 20
0.0
 30
0.0
 11
2.765661
 21
0.0
 31
0.0
  0
LINE
  5
441
100
AcDbEntity
  8
BASE
  6
CONTINUOUS
100
AcDbLine
 10
2.434804
 20
0.662841
 30
0.0
 11
1.549106
 21
1.107734
 31
0.0
  0
CIRCLE
  5
442
100
AcDbEntity
  8
BASE
  6
CONTINUOUS
100
AcDbCircle
 10
0.0
 20
-6.758945
 30
0.0
 40
0.740939
  0
ENDBLK
  5
443
100
AcDbEntity
  8
0
100
AcDbBlockEnd
  0
ENDSEC
  0
SECTION
  2
ENTITIES
  0
LINE
  5
447
100
AcDbEntity
  8
0
  6
CENTER
 62
     7
100
AcDbLine
 10
255.0
 20
220.0
 30
0.0
 11
255.0
 21
72.5
 31
0.0
  0
LINE
  5
448
100
AcDbEntity
  8
0
  6
CONTINUOUS
 62
     7
100
AcDbLine
 10
230.0
 20
92.5
 30
0.0
 11
240.0
 21
92.5
 31
0.0
  0
LINE
  5
449
100
AcDbEntity
  8
0
  6
CONTINUOUS
 62
     7
100
AcDbLine
 10
230.0
 20
92.5
 30
0.0
 11
232.5
 21
95.0
 31
0.0
  0
LINE
  5
44A
100
AcDbEntity
  8
0
  6
CONTINUOUS
 62
     7
100
AcDbLine
 10
235.0
 20
92.5
 30
0.0
 11
237.5
 21
95.0
 31
0.0
  0
LINE
  5
44B
100
AcDbEntity
  8
0
  6
CONTINUOUS
 62
     7
100
AcDbLine
 10
240.0
 20
92.5
 30
0.0
 11
242.5
 21
95.0
 31
0.0
  0
LINE
  5
44C
100
AcDbEntity
  8
0
  6
CONTINUOUS
 62
     7
100
AcDbLine
 10
235.0
 20
92.5
 30
0.0
 11
235.0
 21
72.5
 31
0.0
  0
LINE
  5
44D
100
AcDbEntity
  8
0
  6
CONTINUOUS
 62
     7
100
AcDbLine
 10
220.0
 20
90.0
 30
0.0
 11
220.0
 21
72.5
 31
0.0
  0
LINE
  5
44E
100
AcDbEntity
  8
0
  6
CONTINUOUS
 62
     7
100
AcDbLine
 10
215.0
 20
90.0
 30
0.0
 11
215.0
 21
72.5
 31
0.0
  0
LINE
  5
450
100
AcDbEntity
  8
0
  6
DASHED
 62
     7
100
AcDbLine
 10
220.0
 20
72.5
 30
0.0
 11
220.0
 21
65.0
 31
0.0
  0
LINE
  5
451
100
AcDbEntity
  8
0
  6
DASHED
 62
     7
100
AcDbLine
 10
235.0
 20
72.5
 30
0.0
 11
235.0
 21
65.0
 31
0.0
  0
LINE
  5
452
100
AcDbEntity
  8
0
  6
DASHED
 62
     7
100
AcDbLine
 10
215.0
 20
72.5
 30
0.0
 11
215.0
 21
65.0
 31
0.0
  0
LINE
  5
453
100
AcDbEntity
  8
0
  6
DASHED
 62
     7
100
AcDbLine
 10
162.5
 20
72.5
 30
0.0
 11
162.5
 21
65.0
 31
0.0
  0
LINE
  5
456
100
AcDbEntity
  8
0
  6
CONTINUOUS
 62
     7
100
AcDbLine
 10
172.5
 20
146.115244
 30
0.0
 11
202.950615
 21
146.115244
 31
0.0
  0
TEXT
  5
457
100
AcDbEntity
  8
0
  6
CONTINUOUS
 62
     7
100
AcDbText
 10
184.408766
 20
142.178168
 30
0.0
 40
2.5
  1
IRF
 11
184.408766
 21
141.344835
 31
0.0
100
AcDbText
 73
     1
  0
LINE
  5
458
100
AcDbEntity
  8
0
  6
CONTINUOUS
 62
     7
100
AcDbLine
 10
202.950615
 20
140.882353
 30
0.0
 11
172.5
 21
140.882353
 31
0.0
  0
LINE
  5
459
100
AcDbEntity
  8
0
  6
CONTINUOUS
 62
     7
100
AcDbLine
 10
202.950615
 20
185.882353
 30
0.0
 11
202.950615
 21
140.882353
 31
0.0
  0
TEXT
  5
45A
100
AcDbEntity
  8
0
  6
CONTINUOUS
 62
     7
100
AcDbText
 10
176.230324
 20
148.189588
 30
0.0
 40
2.5
  1
SERIAL I/O
100
AcDbText
  0
CIRCLE
  5
45B
100
AcDbEntity
  8
0
  6
CONTINUOUS
 62
     7
100
AcDbCircle
 10
171.512659
 20
143.380677
 30
0.0
 40
1.0
  0
LINE
  5
45C
100
AcDbEntity
  8
0
  6
CONTINUOUS
 62
     7
100
AcDbLine
 10
192.5
 20
153.382353
 30
0.0
 11
192.5
 21
185.882353
 31
0.0
  0
LINE
  5
45D
100
AcDbEntity
  8
0
  6
CONTINUOUS
 62
     7
100
AcDbLine
 10
172.5
 20
185.882353
 30
0.0
 11
172.5
 21
140.882353
 31
0.0
  0
LINE
  5
45E
100
AcDbEntity
  8
0
  6
CENTER
 62
     7
100
AcDbLine
 10
70.0
 20
220.0
 30
0.0
 11
70.0
 21
72.5
 31
0.0
  0
LINE
  5
45F
100
AcDbEntity
  8
0
  6
CENTER
 62
     7
100
AcDbLine
 10
70.0
 20
72.5
 30
0.0
 11
255.0
 21
72.5
 31
0.0
  0
LINE
  5
460
100
AcDbEntity
  8
0
  6
CONTINUOUS
 62
     7
100
AcDbLine
 10
145.0
 20
97.5
 30
0.0
 11
147.5
 21
97.5
 31
0.0
  0
LINE
  5
461
100
AcDbEntity
  8
0
  6
CONTINUOUS
 62
     7
100
AcDbLine
 10
162.5
 20
97.5
 30
0.0
 11
162.5
 21
72.5
 31
0.0
  0
LINE
  5
462
100
AcDbEntity
  8
0
  6
CENTER
 62
     7
100
AcDbLine
 10
255.0
 20
220.0
 30
0.0
 11
70.0
 21
220.0
 31
0.0
  0
LINE
  5
463
100
AcDbEntity
  8
0
  6
CONTINUOUS
 62
     7
100
AcDbLine
 10
246.338166
 20
148.592819
 30
0.0
 11
248.257416
 21
151.280896
 31
0.0
  0
TEXT
  5
464
100
AcDbEntity
  8
0
  6
CONTINUOUS
 62
     7
100
AcDbText
 10
244.466567
 20
151.707347
 30
0.0
 40
2.0
  1
9
  7
ROMANS
100
AcDbText
  0
TEXT
  5
465
100
AcDbEntity
  8
0
  6
CONTINUOUS
 62
     7
100
AcDbText
 10
231.696317
 20
146.142085
 30
0.0
 40
2.0
  1
SERIAL PORT
  7
ROMANS
100
AcDbText
  0
ARC
  5
466
100
AcDbEntity
  8
0
  6
CONTINUOUS
 62
     7
100
AcDbCircle
 10
257.5
 20
150.0
 30
0.0
 40
2.5
100
AcDbArc
 50
90.0
 51
270.0
  0
LINE
  5
467
100
AcDbEntity
  8
0
  6
CONTINUOUS
 62
     7
100
AcDbLine
 10
256.819436
 20
150.49
 30
0.0
 11
256.819436
 21
149.51
 31
0.0
  0
LINE
  5
468
100
AcDbEntity
  8
0
  6
CONTINUOUS
 62
     7
100
AcDbLine
 10
256.819436
 20
149.51
 30
0.0
 11
260.249436
 21
149.51
 31
0.0
  0
LINE
  5
469
100
AcDbEntity
  8
0
  6
CONTINUOUS
 62
     7
100
AcDbLine
 10
260.249436
 20
149.51
 30
0.0
 11
260.249436
 21
150.49
 31
0.0
  0
LINE
  5
46A
100
AcDbEntity
  8
0
  6
CONTINUOUS
 62
     7
100
AcDbLine
 10
260.249436
 20
150.49
 30
0.0
 11
256.819436
 21
150.49
 31
0.0
  0
LINE
  5
663
100
AcDbEntity
  8
0
  6
DASHED
 62
     7
100
AcDbLine
 10
70.0
 20
115.0
 30
0.0
 11
65.0
 21
115.0
 31
0.0
  0
LINE
  5
664
100
AcDbEntity
  8
0
  6
DASHED
 62
     7
100
AcDbLine
 10
70.0
 20
110.0
 30
0.0
 11
65.0
 21
110.0
 31
0.0
  0
LINE
  5
665
100
AcDbEntity
  8
0
  6
DASHED
 62
     7
100
AcDbLine
 10
70.0
 20
92.5
 30
0.0
 11
65.0
 21
92.5
 31
0.0
  0
TEXT
  5
666
100
AcDbEntity
  8
0
  6
CONTINUOUS
 62
     7
100
AcDbText
 10
55.0
 20
94.049058
 30
0.0
 40
2.0
  1
4)
  7
ROMANS
100
AcDbText
  0
LINE
  5
667
100
AcDbEntity
  8
0
  6
CONTINUOUS
 62
     7
100
AcDbLine
 10
202.950615
 20
150.0
 30
0.0
 11
255.0
 21
150.0
 31
0.0
  0
LINE
  5
668
100
AcDbEntity
  8
0
  6
CONTINUOUS
 62
     7
100
AcDbLine
 10
220.0
 20
92.929605
 30
0.0
 11
220.0
 21
90.0
 31
0.0
  0
LINE
  5
669
100
AcDbEntity
  8
0
  6
CONTINUOUS
 62
     7
100
AcDbLine
 10
215.0
 20
92.929605
 30
0.0
 11
215.0
 21
90.0
 31
0.0
  0
LINE
  5
66A
100
AcDbEntity
  8
0
  6
CONTINUOUS
 62
     7
100
AcDbLine
 10
220.0
 20
107.5
 30
0.0
 11
220.0
 21
102.252154
 31
0.0
  0
LINE
  5
66B
100
AcDbEntity
  8
0
  6
CONTINUOUS
 62
     7
100
AcDbLine
 10
215.0
 20
107.5
 30
0.0
 11
215.0
 21
102.252154
 31
0.0
  0
LINE
  5
66C
100
AcDbEntity
  8
0
 62
     7
100
AcDbLine
 10
217.466311
 20
95.22844
 30
0.0
 11
221.466311
 21
95.22844
 31
0.0
  0
LINE
  5
66D
100
AcDbEntity
  8
0
 62
     7
100
AcDbLine
 10
213.709901
 20
100.174464
 30
0.0
 11
217.709901
 21
100.174464
 31
0.0
  0
LINE
  5
66E
100
AcDbEntity
  8
0
 62
     7
100
AcDbLine
 10
212.795103
 20
93.886207
 30
0.0
 11
221.158613
 21
102.252154
 31
0.0
  0
LINE
  5
66F
100
AcDbEntity
  8
0
 62
     7
100
AcDbLine
 10
213.779395
 20
92.929605
 30
0.0
 11
222.119756
 21
101.267352
 31
0.0
  0
LINE
  5
670
100
AcDbEntity
  8
0
 62
     7
100
AcDbLine
 10
212.795103
 20
92.929605
 30
0.0
 11
212.795103
 21
102.252154
 31
0.0
  0
LINE
  5
671
100
AcDbEntity
  8
0
 62
     7
100
AcDbLine
 10
222.119756
 20
92.929605
 30
0.0
 11
212.795103
 21
92.929605
 31
0.0
  0
LINE
  5
672
100
AcDbEntity
  8
0
 62
     7
100
AcDbLine
 10
222.119756
 20
102.252154
 30
0.0
 11
222.119756
 21
92.929605
 31
0.0
  0
LINE
  5
673
100
AcDbEntity
  8
0
 62
     7
100
AcDbLine
 10
212.795103
 20
102.252154
 30
0.0
 11
222.119756
 21
102.252154
 31
0.0
  0
TEXT
  5
674
100
AcDbEntity
  8
0
  6
CONTINUOUS
 62
     7
100
AcDbText
 10
214.366734
 20
108.05315
 30
0.0
 40
2.0
  1
+
100
AcDbText
  0
TEXT
  5
675
100
AcDbEntity
  8
0
  6
CONTINUOUS
 62
     7
100
AcDbText
 10
219.297086
 20
108.077719
 30
0.0
 40
2.0
  1
-
100
AcDbText
  0
LINE
  5
676
100
AcDbEntity
  8
0
  6
CONTINUOUS
 62
     7
100
AcDbLine
 10
150.0
 20
92.5
 30
0.0
 11
150.0
 21
95.0
 31
0.0
  0
LINE
  5
677
100
AcDbEntity
  8
0
  6
CONTINUOUS
 62
     7
100
AcDbLine
 10
155.0
 20
97.5
 30
0.0
 11
149.256076
 21
94.285297
 31
0.0
  0
LINE
  5
678
100
AcDbEntity
  8
0
  6
CONTINUOUS
 62
     7
100
AcDbLine
 10
155.0
 20
97.5
 30
0.0
 11
162.5
 21
97.5
 31
0.0
  0
LINE
  5
67A
100
AcDbEntity
  8
0
  6
CONTINUOUS
 62
     7
100
AcDbLine
 10
170.51266
 20
143.382353
 30
0.0
 11
152.5
 21
143.382353
 31
0.0
  0
TEXT
  5
67B
100
AcDbEntity
  8
0
  6
CONTINUOUS
 62
     7
100
AcDbText
 10
143.096472
 20
215.0
 30
0.0
 40
2.0
  1
1MRS 10226-AA  SPAF 140 C
  7
ROMANS
100
AcDbText
  0
LINE
  5
67C
100
AcDbEntity
  8
0
  6
DASHED
 62
     7
100
AcDbLine
 10
260.0
 20
150.0
 30
0.0
 11
277.5
 21
150.0
 31
0.0
  0
TEXT
  5
67D
100
AcDbEntity
  8
0
  6
DASHED
 62
     7
100
AcDbText
 10
280.232804
 20
148.986126
 30
0.0
 40
2.0
  1
5)
  7
ROMANS
100
AcDbText
  0
TEXT
  5
67E
100
AcDbEntity
  8
0
  6
DASHED
 62
     7
100
AcDbText
 10
349.969969
 20
220.563795
 30
0.0
 40
2.0
  1
FREQUENCY RELAY
  7
ROMANS
100
AcDbText
  0
TEXT
  5
67F
100
AcDbEntity
  8
0
  6
DASHED
 62
     7
100
AcDbText
 10
349.969969
 20
216.544352
 30
0.0
 40
2.0
  1
FREKVENSRELÄ
  7
ROMANS
100
AcDbText
  0
LINE
  5
680
100
AcDbEntity
  8
0
  6
DASHED
 62
     7
100
AcDbLine
 10
167.5
 20
72.5
 30
0.0
 11
167.5
 21
65.0
 31
0.0
  0
LINE
  5
681
100
AcDbEntity
  8
0
  6
DASHED
 62
     7
100
AcDbLine
 10
172.5
 20
72.5
 30
0.0
 11
172.5
 21
65.0
 31
0.0
  0
TEXT
  5
682
100
AcDbEntity
  8
0
  6
DASHED
 62
     7
100
AcDbText
 10
326.079872
 20
105.505449
 30
0.0
 40
2.0
  1
3) ALARM ETC.
  7
ROMANS
100
AcDbText
  0
TEXT
  5
683
100
AcDbEntity
  8
0
  6
DASHED
 62
     7
100
AcDbText
 10
331.103892
 20
102.172116
 30
0.0
 40
2.0
  1
SIGNAL MM.
  7
ROMANS
100
AcDbText
  0
TEXT
  5
684
100
AcDbEntity
  8
0
  6
DASHED
 62
     7
100
AcDbText
 10
326.079872
 20
96.338782
 30
0.0
 40
2.0
  1
4) INTERNAL RELAY FAULT
  7
ROMANS
100
AcDbText
  0
TEXT
  5
685
100
AcDbEntity
  8
0
  6
DASHED
 62
     7
100
AcDbText
 10
331.30957
 20
93.005449
 30
0.0
 40
2.0
  1
INTERNT RELÄFEL
  7
ROMANS
100
AcDbText
  0
TEXT
  5
686
100
AcDbEntity
  8
0
  6
DASHED
 62
     7
100
AcDbText
 10
326.079872
 20
87.172116
 30
0.0
 40
2.0
  1
5) BUS CONNECTION MODULE
  7
ROMANS
100
AcDbText
  0
TEXT
  5
687
100
AcDbEntity
  8
0
  6
DASHED
 62
     7
100
AcDbText
 10
210.704658
 20
27.85902
 30
0.0
 40
2.0
  1
96-11-04 JR / AD-ELECT.
  7
ROMANS
100
AcDbText
  0
TEXT
  5
688
100
AcDbEntity
  8
0
  6
DASHED
 62
     7
100
AcDbText
 10
317.5
 20
27.5
 30
0.0
 40
2.0
  1
TERMINAL DIAGRAM / UTTAGSSCHEMA
  7
ROMANS
100
AcDbText
  0
TEXT
  5
689
100
AcDbEntity
  8
0
  6
DASHED
 62
     7
100
AcDbText
 10
317.5
 20
24.166667
 30
0.0
 40
2.0
  1
SPAF 140 C WITH TEST SWITCH
  7
ROMANS
100
AcDbText
  0
LINE
  5
68A
100
AcDbEntity
  8
0
 62
     7
100
AcDbLine
 10
0.237099
 20
0.237999
 30
0.0
 11
0.237099
 21
262.737999
 31
0.0
  0
LINE
  5
68B
100
AcDbEntity
  8
0
 62
     7
100
AcDbLine
 10
392.237099
 20
262.737999
 30
0.0
 11
392.237099
 21
0.237999
 31
0.0
  0
LINE
  5
68C
100
AcDbEntity
  8
0
 62
     7
100
AcDbLine
 10
0.237099
 20
0.237999
 30
0.0
 11
392.237099
 21
0.237999
 31
0.0
  0
TEXT
  5
68D
100
AcDbEntity
  8
0
 62
     7
100
AcDbText
 10
42.237099
 20
5.587508
 30
0.0
 40
2.5
  1
C
  7
ROMANS
100
AcDbText
  0
TEXT
  5
68E
100
AcDbEntity
  8
0
 62
     7
100
AcDbText
 10
42.237099
 20
1.195292
 30
0.0
 40
2.5
  1
B
  7
ROMANS
100
AcDbText
  0
TEXT
  5
68F
100
AcDbEntity
  8
0
 62
     7
100
AcDbText
 10
273.237099
 20
7.237999
 30
0.0
 40
1.4
  1
VAST.OSASTO RESP.DEPT.
  7
ROMANS
100
AcDbText
  0
TEXT
  5
690
100
AcDbEntity
  8
0
 62
     7
100
AcDbText
 10
210.237099
 20
32.237999
 30
0.0
 40
1.4
  1
TEKI  PREPARED
  7
ROMANS
100
AcDbText
  0
LINE
  5
691
100
AcDbEntity
  8
0
 62
     7
100
AcDbLine
 10
271.237099
 20
9.737999
 30
0.0
 11
271.237099
 21
0.237999
 31
0.0
  0
LINE
  5
692
100
AcDbEntity
  8
0
 62
     7
100
AcDbLine
 10
257.237099
 20
9.737999
 30
0.0
 11
257.237099
 21
35.237999
 31
0.0
  0
LINE
  5
693
100
AcDbEntity
  8
0
 62
     7
100
AcDbLine
 10
40.737099
 20
4.737999
 30
0.0
 11
209.237099
 21
4.737999
 31
0.0
  0
LINE
  5
694
100
AcDbEntity
  8
0
 62
     7
100
AcDbLine
 10
46.737099
 20
0.237999
 30
0.0
 11
46.737099
 21
9.237999
 31
0.0
  0
LINE
  5
695
100
AcDbEntity
  8
0
 62
     7
100
AcDbLine
 10
46.737099
 20
9.237999
 30
0.0
 11
209.237099
 21
9.237999
 31
0.0
  0
TEXT
  5
696
100
AcDbEntity
  8
0
 62
     7
100
AcDbText
 10
27.737099
 20
2.471333
 30
0.0
 40
1.4
  1
REVISION
  7
ROMANS
100
AcDbText
  0
TEXT
  5
697
100
AcDbEntity
  8
0
 62
     7
100
AcDbText
 10
27.737099
 20
4.737999
 30
0.0
 40
1.4
  1
MUUTOS
  7
ROMANS
100
AcDbText
  0
LINE
  5
698
100
AcDbEntity
  8
0
 62
     7
100
AcDbLine
 10
282.237099
 20
9.737999
 30
0.0
 11
282.237099
 21
18.237999
 31
0.0
  0
TEXT
  5
699
100
AcDbEntity
  8
0
 62
     7
100
AcDbText
 10
237.737099
 20
1.737999
 30
0.0
 40
3.0
  1
Transmit Oy
 41
0.8
  7
ROMANS
100
AcDbText
  0
TEXT
  5
69A
100
AcDbEntity
  8
0
 62
     7
100
AcDbText
 10
229.737099
 20
1.737999
 30
0.0
 40
3.0
  1
ABB 
 41
0.8
  7
ROMANS
100
AcDbText
  0
LINE
  5
69B
100
AcDbEntity
  8
0
 62
     7
100
AcDbLine
 10
223.137099
 20
1.737999
 30
0.0
 11
223.137099
 21
5.097999
 31
0.0
  0
LINE
  5
69C
100
AcDbEntity
  8
0
 62
     7
100
AcDbLine
 10
223.137099
 20
8.737999
 30
0.0
 11
225.097099
 21
8.737999
 31
0.0
  0
LINE
  5
69D
100
AcDbEntity
  8
0
 62
     7
100
AcDbLine
 10
225.097099
 20
8.737999
 30
0.0
 11
225.097099
 21
5.377999
 31
0.0
  0
LINE
  5
69E
100
AcDbEntity
  8
0
 62
     7
100
AcDbLine
 10
225.097099
 20
5.377999
 30
0.0
 11
223.137099
 21
5.377999
 31
0.0
  0
LINE
  5
69F
100
AcDbEntity
  8
0
 62
     7
100
AcDbLine
 10
223.137099
 20
5.097999
 30
0.0
 11
225.097099
 21
5.097999
 31
0.0
  0
LINE
  5
6A0
100
AcDbEntity
  8
0
 62
     7
100
AcDbLine
 10
225.097099
 20
5.097999
 30
0.0
 11
225.097099
 21
1.737999
 31
0.0
  0
LINE
  5
6A1
100
AcDbEntity
  8
0
 62
     7
100
AcDbLine
 10
225.097099
 20
1.737999
 30
0.0
 11
223.137099
 21
1.737999
 31
0.0
  0
LINE
  5
6A2
100
AcDbEntity
  8
0
 62
     7
100
AcDbLine
 10
223.137099
 20
5.377999
 30
0.0
 11
223.137099
 21
8.737999
 31
0.0
  0
ARC
  5
6A3
100
AcDbEntity
  8
0
 62
     7
100
AcDbCircle
 10
225.937099
 20
7.162999
 30
0.0
 40
1.575
100
AcDbArc
 50
298.455859
 51
90.052437
  0
LINE
  5
6A4
100
AcDbEntity
  8
0
 62
     7
100
AcDbLine
 10
225.377099
 20
8.737999
 30
0.0
 11
225.935658
 21
8.737999
 31
0.0
  0
LINE
  5
6A5
100
AcDbEntity
  8
0
 62
     7
100
AcDbLine
 10
225.377099
 20
8.737999
 30
0.0
 11
225.377099
 21
5.377999
 31
0.0
  0
LINE
  5
6A6
100
AcDbEntity
  8
0
 62
     7
100
AcDbLine
 10
225.377099
 20
5.377999
 30
0.0
 11
227.361542
 21
5.377999
 31
0.0
  0
LINE
  5
6A7
100
AcDbEntity
  8
0
 62
     7
100
AcDbLine
 10
227.617099
 20
5.097999
 30
0.0
 11
225.377099
 21
5.097999
 31
0.0
  0
LINE
  5
6A8
100
AcDbEntity
  8
0
 62
     7
100
AcDbLine
 10
225.377099
 20
5.097999
 30
0.0
 11
225.377099
 21
1.737999
 31
0.0
  0
ARC
  5
6A9
100
AcDbEntity
  8
0
 62
     7
100
AcDbCircle
 10
225.937099
 20
3.837999
 30
0.0
 40
2.1
100
AcDbArc
 50
269.937724
 51
37.056553
  0
LINE
  5
6AA
100
AcDbEntity
  8
0
 62
     7
100
AcDbLine
 10
225.377099
 20
1.737999
 30
0.0
 11
225.934817
 21
1.738
 31
0.0
  0
ARC
  5
6AB
100
AcDbEntity
  8
0
 62
     7
100
AcDbCircle
 10
225.937099
 20
3.837999
 30
0.0
 40
2.1
100
AcDbArc
 50
47.28622
 51
68.787999
  0
ARC
  5
6B4
100
AcDbEntity
  8
0
 62
     7
100
AcDbCircle
 10
220.477099
 20
3.837999
 30
0.0
 40
2.1
100
AcDbArc
 50
47.28622
 51
68.787999
  0
LINE
  5
6B5
100
AcDbEntity
  8
0
 62
     7
100
AcDbLine
 10
219.917099
 20
1.737999
 30
0.0
 11
220.474817
 21
1.738
 31
0.0
  0
ARC
  5
6B6
100
AcDbEntity
  8
0
 62
     7
100
AcDbCircle
 10
220.477099
 20
3.837999
 30
0.0
 40
2.1
100
AcDbArc
 50
269.937724
 51
37.056553
  0
LINE
  5
6B7
100
AcDbEntity
  8
0
 62
     7
100
AcDbLine
 10
219.917099
 20
5.097999
 30
0.0
 11
219.917099
 21
1.737999
 31
0.0
  0
LINE
  5
6B8
100
AcDbEntity
  8
0
 62
     7
100
AcDbLine
 10
222.157099
 20
5.097999
 30
0.0
 11
219.917099
 21
5.097999
 31
0.0
  0
LINE
  5
6B9
100
AcDbEntity
  8
0
 62
     7
100
AcDbLine
 10
219.917099
 20
5.377999
 30
0.0
 11
221.901542
 21
5.377999
 31
0.0
  0
LINE
  5
6BA
100
AcDbEntity
  8
0
 62
     7
100
AcDbLine
 10
219.917099
 20
8.737999
 30
0.0
 11
219.917099
 21
5.377999
 31
0.0
  0
LINE
  5
6BB
100
AcDbEntity
  8
0
 62
     7
100
AcDbLine
 10
219.917099
 20
8.737999
 30
0.0
 11
220.475658
 21
8.737999
 31
0.0
  0
ARC
  5
6BC
100
AcDbEntity
  8
0
 62
     7
100
AcDbCircle
 10
220.477099
 20
7.162999
 30
0.0
 40
1.575
100
AcDbArc
 50
298.455859
 51
90.052437
  0
LINE
  5
6BD
100
AcDbEntity
  8
0
 62
     7
100
AcDbLine
 10
217.677099
 20
5.377999
 30
0.0
 11
217.677099
 21
8.737999
 31
0.0
  0
LINE
  5
6BE
100
AcDbEntity
  8
0
 62
     7
100
AcDbLine
 10
219.637099
 20
1.737999
 30
0.0
 11
217.677099
 21
1.737999
 31
0.0
  0
LINE
  5
6BF
100
AcDbEntity
  8
0
 62
     7
100
AcDbLine
 10
219.637099
 20
5.097999
 30
0.0
 11
219.637099
 21
1.737999
 31
0.0
  0
LINE
  5
6C0
100
AcDbEntity
  8
0
 62
     7
100
AcDbLine
 10
217.677099
 20
5.097999
 30
0.0
 11
219.637099
 21
5.097999
 31
0.0
  0
LINE
  5
6C1
100
AcDbEntity
  8
0
 62
     7
100
AcDbLine
 10
219.637099
 20
5.377999
 30
0.0
 11
217.677099
 21
5.377999
 31
0.0
  0
LINE
  5
6C2
100
AcDbEntity
  8
0
 62
     7
100
AcDbLine
 10
219.637099
 20
8.737999
 30
0.0
 11
219.637099
 21
5.377999
 31
0.0
  0
LINE
  5
6C3
100
AcDbEntity
  8
0
 62
     7
100
AcDbLine
 10
217.677099
 20
8.737999
 30
0.0
 11
219.637099
 21
8.737999
 31
0.0
  0
LINE
  5
6C4
100
AcDbEntity
  8
0
 62
     7
100
AcDbLine
 10
217.677099
 20
1.737999
 30
0.0
 11
217.677099
 21
5.097999
 31
0.0
  0
LINE
  5
6C9
100
AcDbEntity
  8
0
 62
     7
100
AcDbLine
 10
211.356988
 20
5.080538
 30
0.0
 11
210.187099
 21
1.737999
 31
0.0
  0
LINE
  5
6CA
100
AcDbEntity
  8
0
 62
     7
100
AcDbLine
 10
213.547099
 20
5.097999
 30
0.0
 11
213.547099
 21
3.137999
 31
0.0
  0
LINE
  5
6CB
100
AcDbEntity
  8
0
 62
     7
100
AcDbLine
 10
213.827099
 20
5.097999
 30
0.0
 11
213.827099
 21
3.137999
 31
0.0
  0
LINE
  5
6CC
100
AcDbEntity
  8
0
 62
     7
100
AcDbLine
 10
213.827099
 20
5.097999
 30
0.0
 11
216.010356
 21
5.097999
 31
0.0
  0
LINE
  5
6CD
100
AcDbEntity
  8
0
 62
     7
100
AcDbLine
 10
213.827099
 20
5.377999
 30
0.0
 11
215.912213
 21
5.377999
 31
0.0
  0
LINE
  5
6CE
100
AcDbEntity
  8
0
 62
     7
100
AcDbLine
 10
216.011591
 20
5.096594
 30
0.0
 11
217.187099
 21
1.737999
 31
0.0
  0
LINE
  5
6CF
100
AcDbEntity
  8
0
 62
     7
100
AcDbLine
 10
211.360082
 20
5.097999
 30
0.0
 11
213.547099
 21
5.097999
 31
0.0
  0
LINE
  5
6D0
100
AcDbEntity
  8
0
 62
     7
100
AcDbLine
 10
211.45904
 20
5.377999
 30
0.0
 11
213.547099
 21
5.377999
 31
0.0
  0
LINE
  5
6D1
100
AcDbEntity
  8
0
 62
     7
100
AcDbLine
 10
213.547099
 20
8.737999
 30
0.0
 11
212.637099
 21
8.737999
 31
0.0
  0
LINE
  5
6D2
100
AcDbEntity
  8
0
 62
     7
100
AcDbLine
 10
213.827099
 20
3.137999
 30
0.0
 11
214.946992
 21
3.137999
 31
0.0
  0
LINE
  5
6D3
100
AcDbEntity
  8
0
 62
     7
100
AcDbLine
 10
213.827099
 20
8.737999
 30
0.0
 11
213.827099
 21
5.377999
 31
0.0
  0
LINE
  5
6D4
100
AcDbEntity
  8
0
 62
     7
100
AcDbLine
 10
213.547099
 20
8.737999
 30
0.0
 11
213.547099
 21
5.377999
 31
0.0
  0
LINE
  5
6D5
100
AcDbEntity
  8
0
 62
     7
100
AcDbLine
 10
214.737099
 20
8.737999
 30
0.0
 11
213.827099
 21
8.737999
 31
0.0
  0
LINE
  5
6D6
100
AcDbEntity
  8
0
 62
     7
100
AcDbLine
 10
214.948197
 20
3.134863
 30
0.0
 11
215.437099
 21
1.737999
 31
0.0
  0
LINE
  5
6D7
100
AcDbEntity
  8
0
 62
     7
100
AcDbLine
 10
214.737099
 20
8.737999
 30
0.0
 11
215.913452
 21
5.376991
 31
0.0
  0
LINE
  5
6D8
100
AcDbEntity
  8
0
 62
     7
100
AcDbLine
 10
212.425889
 20
3.134542
 30
0.0
 11
211.937099
 21
1.737999
 31
0.0
  0
LINE
  5
6D9
100
AcDbEntity
  8
0
 62
     7
100
AcDbLine
 10
212.425886
 20
3.137999
 30
0.0
 11
213.547099
 21
3.137999
 31
0.0
  0
LINE
  5
6DA
100
AcDbEntity
  8
0
 62
     7
100
AcDbLine
 10
212.637099
 20
8.737999
 30
0.0
 11
211.459571
 21
5.373634
 31
0.0
  0
LINE
  5
6DB
100
AcDbEntity
  8
0
 62
     7
100
AcDbLine
 10
215.437099
 20
1.737999
 30
0.0
 11
217.187099
 21
1.737999
 31
0.0
  0
LINE
  5
6DC
100
AcDbEntity
  8
0
 62
     7
100
AcDbLine
 10
210.187099
 20
1.737999
 30
0.0
 11
211.937099
 21
1.737999
 31
0.0
  0
LINE
  5
6DD
100
AcDbEntity
  8
0
 62
     7
100
AcDbLine
 10
369.737099
 20
9.737999
 30
0.0
 11
369.737099
 21
0.237999
 31
0.0
  0
TEXT
  5
6DE
100
AcDbEntity
  8
0
 62
     7
100
AcDbText
 10
371.237099
 20
7.237999
 30
0.0
 40
1.4
  1
PAINOS  REVISION
  7
ROMANS
100
AcDbText
  0
LINE
  5
6DF
100
AcDbEntity
  8
0
 62
     7
100
AcDbLine
 10
349.737099
 20
9.737999
 30
0.0
 11
349.737099
 21
18.237999
 31
0.0
  0
TEXT
  5
6E0
100
AcDbEntity
  8
0
 62
     7
100
AcDbText
 10
309.237099
 20
7.237999
 30
0.0
 40
1.4
  1
PIIRUSTUS NO  DRAWING NR
  7
ROMANS
100
AcDbText
  0
TEXT
  5
6E1
100
AcDbEntity
  8
0
 62
     7
100
AcDbText
 10
309.237099
 20
15.737999
 30
0.0
 40
1.4
  1
KOODI  CODE
  7
ROMANS
100
AcDbText
  0
TEXT
  5
6E2
100
AcDbEntity
  8
0
 62
     7
100
AcDbText
 10
309.237099
 20
32.737999
 30
0.0
 40
1.4
  1
NIMITYS  NAME
  7
ROMANS
100
AcDbText
  0
TEXT
  5
6E3
100
AcDbEntity
  8
0
 62
     7
100
AcDbText
 10
259.237099
 20
15.737999
 30
0.0
 40
1.4
  1
SUHDE  SCALE
  7
ROMANS
100
AcDbText
  0
TEXT
  5
6E4
100
AcDbEntity
  8
0
 62
     7
100
AcDbText
 10
259.237099
 20
23.737999
 30
0.0
 40
1.4
  1
TOLERANSSIT  TOLERANCES
  7
ROMANS
100
AcDbText
  0
TEXT
  5
6E5
100
AcDbEntity
  8
0
 62
     7
100
AcDbText
 10
259.237099
 20
32.737999
 30
0.0
 40
1.4
  1
LIITTYY  CONCERNING
  7
ROMANS
100
AcDbText
  0
LINE
  5
6E6
100
AcDbEntity
  8
0
 62
     7
100
AcDbLine
 10
307.237099
 20
0.237999
 30
0.0
 11
307.237099
 21
35.237999
 31
0.0
  0
TEXT
  5
6E7
100
AcDbEntity
  8
0
 62
     7
100
AcDbText
 10
209.979934
 20
15.704666
 30
0.0
 40
1.4
  1
HYVÄKSYI  APPROVED
  7
ROMANS
100
AcDbText
  0
TEXT
  5
6E8
100
AcDbEntity
  8
0
 62
     7
100
AcDbText
 10
210.237099
 20
23.971333
 30
0.0
 40
1.4
  1
TARKASTI  CHECKED
  7
ROMANS
100
AcDbText
  0
LINE
  5
6E9
100
AcDbEntity
  8
0
 62
     7
100
AcDbLine
 10
209.237099
 20
35.237999
 30
0.0
 11
392.237099
 21
35.237999
 31
0.0
  0
LINE
  5
6EA
100
AcDbEntity
  8
0
 62
     7
100
AcDbLine
 10
209.237099
 20
26.737999
 30
0.0
 11
307.237099
 21
26.737999
 31
0.0
  0
LINE
  5
6EB
100
AcDbEntity
  8
0
 62
     7
100
AcDbLine
 10
209.237099
 20
9.737999
 30
0.0
 11
392.237099
 21
9.737999
 31
0.0
  0
LINE
  5
6EC
100
AcDbEntity
  8
0
 62
     7
100
AcDbLine
 10
209.237099
 20
18.237999
 30
0.0
 11
392.237099
 21
18.237999
 31
0.0
  0
LINE
  5
6ED
100
AcDbEntity
  8
0
 62
     7
100
AcDbLine
 10
392.237099
 20
0.237999
 30
0.0
 11
392.237099
 21
35.237999
 31
0.0
  0
LINE
  5
6EE
100
AcDbEntity
  8
0
 62
     7
100
AcDbLine
 10
209.237099
 20
0.237999
 30
0.0
 11
209.237099
 21
35.237999
 31
0.0
  0
LINE
  5
6EF
100
AcDbEntity
  8
0
 62
     7
100
AcDbLine
 10
209.237099
 20
0.237999
 30
0.0
 11
392.237099
 21
0.237999
 31
0.0
  0
LINE
  5
6F0
100
AcDbEntity
  8
0
 62
     7
100
AcDbLine
 10
18.237099
 20
0.237999
 30
0.0
 11
0.237099
 21
0.237999
 31
0.0
  0
LINE
  5
6F1
100
AcDbEntity
  8
0
 62
     7
100
AcDbLine
 10
0.237099
 20
262.737999
 30
0.0
 11
392.237099
 21
262.737999
 31
0.0
  0
TEXT
  5
6F2
100
AcDbEntity
  8
0
  6
DASHED
 62
     7
100
AcDbText
 10
351.818577
 20
15.69253
 30
0.0
 40
1.4
  1
LEHTI SHEET
  7
GREEKS
100
AcDbText
  0
TEXT
  5
6F3
100
AcDbEntity
  8
0
  6
DASHED
 62
     7
100
AcDbText
 10
372.740686
 20
12.507642
 30
0.0
 40
2.0
  1
1
  7
ROMANS
100
AcDbText
  0
TEXT
  5
6F4
100
AcDbEntity
  8
0
  6
DASHED
 62
     7
100
AcDbText
 10
322.5
 20
2.5
 30
0.0
 40
2.5
  1
1MRS10226-AAA
  7
ROMANS
100
AcDbText
  0
TEXT
  5
6F5
100
AcDbEntity
  8
0
  6
DASHED
 62
     7
100
AcDbText
 10
292.217194
 20
11.813359
 30
0.0
 40
3.0
  1
A3
  7
GREEKS
100
AcDbText
  0
TEXT
  5
6F6
100
AcDbEntity
  8
0
  6
CONTINUOUS
 62
     7
100
AcDbText
 10
380.0
 20
2.5
 30
0.0
 40
2.5
  1
A
  7
ROMANS
100
AcDbText
  0
LINE
  5
6F7
100
AcDbEntity
  8
0
  6
CONTINUOUS
 62
     7
100
AcDbLine
 10
147.5
 20
105.0
 30
0.0
 11
141.756076
 21
101.785297
 31
0.0
  0
LINE
  5
6F8
100
AcDbEntity
  8
0
  6
CONTINUOUS
 62
     7
100
AcDbLine
 10
147.5
 20
105.0
 30
0.0
 11
167.50793
 21
105.0
 31
0.0
  0
LINE
  5
6F9
100
AcDbEntity
  8
0
  6
CONTINUOUS
 62
     7
100
AcDbLine
 10
132.5
 20
115.0
 30
0.0
 11
177.50793
 21
115.0
 31
0.0
  0
LINE
  5
6FA
100
AcDbEntity
  8
0
  6
CONTINUOUS
 62
     7
100
AcDbLine
 10
132.5
 20
115.0
 30
0.0
 11
126.756076
 21
111.785297
 31
0.0
  0
LINE
  5
6FB
100
AcDbEntity
  8
0
  6
CONTINUOUS
 62
     7
100
AcDbLine
 10
140.0
 20
110.0
 30
0.0
 11
172.482972
 21
110.0
 31
0.0
  0
LINE
  5
6FC
100
AcDbEntity
  8
0
  6
CONTINUOUS
 62
     7
100
AcDbLine
 10
140.0
 20
110.0
 30
0.0
 11
134.256076
 21
106.785297
 31
0.0
  0
LINE
  5
6FD
100
AcDbEntity
  8
0
  6
CONTINUOUS
 62
     7
100
AcDbLine
 10
150.0
 20
92.5
 30
0.0
 11
70.0
 21
92.5
 31
0.0
  0
LINE
  5
6FE
100
AcDbEntity
  8
0
  6
CONTINUOUS
 62
     7
100
AcDbLine
 10
150.0
 20
97.5
 30
0.0
 11
70.0
 21
97.5
 31
0.0
  0
LINE
  5
6FF
100
AcDbEntity
  8
0
  6
CONTINUOUS
 62
     7
100
AcDbLine
 10
202.950615
 20
179.208058
 30
0.0
 11
220.0
 21
179.208058
 31
0.0
  0
LINE
  5
700
100
AcDbEntity
  8
0
  6
CONTINUOUS
 62
     7
100
AcDbLine
 10
220.0
 20
179.208058
 30
0.0
 11
220.0
 21
202.5
 31
0.0
  0
LINE
  5
701
100
AcDbEntity
  8
0
  6
CONTINUOUS
 62
     7
100
AcDbLine
 10
142.5
 20
105.0
 30
0.0
 11
70.0
 21
105.0
 31
0.0
  0
LINE
  5
702
100
AcDbEntity
  8
0
  6
CONTINUOUS
 62
     7
100
AcDbLine
 10
135.0
 20
110.0
 30
0.0
 11
83.500004
 21
110.0
 31
0.0
  0
LINE
  5
703
100
AcDbEntity
  8
0
  6
CONTINUOUS
 62
     7
100
AcDbLine
 10
127.5
 20
115.0
 30
0.0
 11
83.500004
 21
115.0
 31
0.0
  0
LINE
  5
704
100
AcDbEntity
  8
0
  6
DASHED
 62
     7
100
AcDbLine
 10
130.0
 20
113.600824
 30
0.0
 11
130.0
 21
142.5
 31
0.0
  0
LINE
  5
705
100
AcDbEntity
  8
0
  6
DASHED
 62
     7
100
AcDbLine
 10
137.5
 20
108.600824
 30
0.0
 11
137.5
 21
142.5
 31
0.0
  0
LINE
  5
706
100
AcDbEntity
  8
0
  6
DASHED
 62
     7
100
AcDbLine
 10
145.0
 20
103.600824
 30
0.0
 11
145.0
 21
142.5
 31
0.0
  0
LINE
  5
707
100
AcDbEntity
  8
0
  6
DASHED
 62
     7
100
AcDbLine
 10
152.5
 20
96.100824
 30
0.0
 11
152.5
 21
143.382353
 31
0.0
  0
LINE
  5
708
100
AcDbEntity
  8
0
  6
CONTINUOUS
 62
     7
100
AcDbLine
 10
130.0
 20
142.5
 30
0.0
 11
130.0
 21
175.882353
 31
0.0
  0
LINE
  5
709
100
AcDbEntity
  8
0
  6
CONTINUOUS
 62
     7
100
AcDbLine
 10
137.5
 20
142.5
 30
0.0
 11
137.5
 21
168.382353
 31
0.0
  0
LINE
  5
70A
100
AcDbEntity
  8
0
  6
CONTINUOUS
 62
     7
100
AcDbLine
 10
145.0
 20
142.5
 30
0.0
 11
145.0
 21
160.882353
 31
0.0
  0
LINE
  5
70B
100
AcDbEntity
  8
0
  6
CONTINUOUS
 62
     7
100
AcDbLine
 10
112.5
 20
185.0
 30
0.0
 11
112.5
 21
207.5
 31
0.0
  0
LINE
  5
70C
100
AcDbEntity
  8
0
  6
CONTINUOUS
 62
     7
100
AcDbLine
 10
112.5
 20
207.5
 30
0.0
 11
222.5
 21
207.5
 31
0.0
  0
LINE
  5
70D
100
AcDbEntity
  8
0
  6
CONTINUOUS
 62
     7
100
AcDbLine
 10
105.0
 20
137.5
 30
0.0
 11
105.0
 21
140.0
 31
0.0
  0
LINE
  5
70E
100
AcDbEntity
  8
0
  6
CONTINUOUS
 62
     7
100
AcDbLine
 10
105.0
 20
132.5
 30
0.0
 11
105.0
 21
130.0
 31
0.0
  0
LINE
  5
70F
100
AcDbEntity
  8
0
  6
CONTINUOUS
 62
     7
100
AcDbLine
 10
105.0
 20
132.5
 30
0.0
 11
108.214703
 21
138.243924
 31
0.0
  0
LINE
  5
710
100
AcDbEntity
  8
0
  6
CONTINUOUS
 62
     7
100
AcDbLine
 10
94.316438
 20
132.5
 30
0.0
 11
70.0
 21
132.5
 31
0.0
  0
LINE
  5
711
100
AcDbEntity
  8
0
  6
CONTINUOUS
 62
     7
100
AcDbLine
 10
94.316438
 20
133.528148
 30
0.0
 11
94.316438
 21
132.5
 31
0.0
  0
LINE
  5
712
100
AcDbEntity
  8
0
  6
CONTINUOUS
 62
     7
100
AcDbLine
 10
94.316438
 20
136.433648
 30
0.0
 11
94.316438
 21
137.5
 31
0.0
  0
LINE
  5
713
100
AcDbEntity
  8
0
  6
DASHED
 62
     7
100
AcDbLine
 10
97.877948
 20
134.980898
 30
0.0
 11
106.388485
 21
134.980898
 31
0.0
  0
LINE
  5
714
100
AcDbEntity
  8
0
  6
CONTINUOUS
 62
     7
100
AcDbLine
 10
90.754927
 20
136.433648
 30
0.0
 11
90.754927
 21
133.528148
 31
0.0
  0
LINE
  5
715
100
AcDbEntity
  8
0
  6
CONTINUOUS
 62
     7
100
AcDbLine
 10
90.754927
 20
133.528148
 30
0.0
 11
97.877948
 21
133.528148
 31
0.0
  0
LINE
  5
716
100
AcDbEntity
  8
0
  6
CONTINUOUS
 62
     7
100
AcDbLine
 10
97.877948
 20
133.528148
 30
0.0
 11
97.877948
 21
136.433648
 31
0.0
  0
LINE
  5
717
100
AcDbEntity
  8
0
  6
CONTINUOUS
 62
     7
100
AcDbLine
 10
97.877948
 20
136.433648
 30
0.0
 11
90.754927
 21
136.433648
 31
0.0
  0
LINE
  5
718
100
AcDbEntity
  8
0
  6
CONTINUOUS
 62
     7
100
AcDbLine
 10
105.0
 20
140.0
 30
0.0
 11
120.0
 21
140.0
 31
0.0
  0
LINE
  5
719
100
AcDbEntity
  8
0
  6
CONTINUOUS
 62
     7
100
AcDbLine
 10
105.0
 20
155.0
 30
0.0
 11
117.5
 21
155.0
 31
0.0
  0
LINE
  5
71A
100
AcDbEntity
  8
0
  6
CONTINUOUS
 62
     7
100
AcDbLine
 10
97.877948
 20
151.433648
 30
0.0
 11
90.754927
 21
151.433648
 31
0.0
  0
LINE
  5
71B
100
AcDbEntity
  8
0
  6
CONTINUOUS
 62
     7
100
AcDbLine
 10
97.877948
 20
148.528148
 30
0.0
 11
97.877948
 21
151.433648
 31
0.0
  0
LINE
  5
71C
100
AcDbEntity
  8
0
  6
CONTINUOUS
 62
     7
100
AcDbLine
 10
90.754927
 20
148.528148
 30
0.0
 11
97.877948
 21
148.528148
 31
0.0
  0
LINE
  5
71D
100
AcDbEntity
  8
0
  6
CONTINUOUS
 62
     7
100
AcDbLine
 10
90.754927
 20
151.433648
 30
0.0
 11
90.754927
 21
148.528148
 31
0.0
  0
LINE
  5
71E
100
AcDbEntity
  8
0
  6
DASHED
 62
     7
100
AcDbLine
 10
97.877948
 20
149.980898
 30
0.0
 11
106.388485
 21
149.980898
 31
0.0
  0
LINE
  5
71F
100
AcDbEntity
  8
0
  6
CONTINUOUS
 62
     7
100
AcDbLine
 10
94.316438
 20
151.433648
 30
0.0
 11
94.316438
 21
152.5
 31
0.0
  0
LINE
  5
720
100
AcDbEntity
  8
0
  6
CONTINUOUS
 62
     7
100
AcDbLine
 10
94.316438
 20
148.528148
 30
0.0
 11
94.316438
 21
147.5
 31
0.0
  0
LINE
  5
721
100
AcDbEntity
  8
0
  6
CONTINUOUS
 62
     7
100
AcDbLine
 10
94.316438
 20
147.5
 30
0.0
 11
70.0
 21
147.5
 31
0.0
  0
LINE
  5
722
100
AcDbEntity
  8
0
  6
CONTINUOUS
 62
     7
100
AcDbLine
 10
105.0
 20
147.5
 30
0.0
 11
108.214703
 21
153.243924
 31
0.0
  0
LINE
  5
723
100
AcDbEntity
  8
0
  6
CONTINUOUS
 62
     7
100
AcDbLine
 10
105.0
 20
147.5
 30
0.0
 11
105.0
 21
145.0
 31
0.0
  0
LINE
  5
724
100
AcDbEntity
  8
0
  6
CONTINUOUS
 62
     7
100
AcDbLine
 10
105.0
 20
152.5
 30
0.0
 11
105.0
 21
155.0
 31
0.0
  0
LINE
  5
725
100
AcDbEntity
  8
0
  6
CONTINUOUS
 62
     7
100
AcDbLine
 10
105.0
 20
167.5
 30
0.0
 11
105.0
 21
170.0
 31
0.0
  0
LINE
  5
726
100
AcDbEntity
  8
0
  6
CONTINUOUS
 62
     7
100
AcDbLine
 10
105.0
 20
162.5
 30
0.0
 11
105.0
 21
160.0
 31
0.0
  0
LINE
  5
727
100
AcDbEntity
  8
0
  6
CONTINUOUS
 62
     7
100
AcDbLine
 10
105.0
 20
162.5
 30
0.0
 11
108.214703
 21
168.243924
 31
0.0
  0
LINE
  5
728
100
AcDbEntity
  8
0
  6
CONTINUOUS
 62
     7
100
AcDbLine
 10
94.316438
 20
162.5
 30
0.0
 11
70.0
 21
162.5
 31
0.0
  0
LINE
  5
729
100
AcDbEntity
  8
0
  6
CONTINUOUS
 62
     7
100
AcDbLine
 10
94.316438
 20
163.528148
 30
0.0
 11
94.316438
 21
162.5
 31
0.0
  0
LINE
  5
72A
100
AcDbEntity
  8
0
  6
CONTINUOUS
 62
     7
100
AcDbLine
 10
94.316438
 20
166.433648
 30
0.0
 11
94.316438
 21
167.5
 31
0.0
  0
LINE
  5
72B
100
AcDbEntity
  8
0
  6
DASHED
 62
     7
100
AcDbLine
 10
97.877948
 20
164.980898
 30
0.0
 11
106.388485
 21
164.980898
 31
0.0
  0
LINE
  5
72C
100
AcDbEntity
  8
0
  6
CONTINUOUS
 62
     7
100
AcDbLine
 10
90.754927
 20
166.433648
 30
0.0
 11
90.754927
 21
163.528148
 31
0.0
  0
LINE
  5
72D
100
AcDbEntity
  8
0
  6
CONTINUOUS
 62
     7
100
AcDbLine
 10
90.754927
 20
163.528148
 30
0.0
 11
97.877948
 21
163.528148
 31
0.0
  0
LINE
  5
72E
100
AcDbEntity
  8
0
  6
CONTINUOUS
 62
     7
100
AcDbLine
 10
97.877948
 20
163.528148
 30
0.0
 11
97.877948
 21
166.433648
 31
0.0
  0
LINE
  5
72F
100
AcDbEntity
  8
0
  6
CONTINUOUS
 62
     7
100
AcDbLine
 10
97.877948
 20
166.433648
 30
0.0
 11
90.754927
 21
166.433648
 31
0.0
  0
LINE
  5
730
100
AcDbEntity
  8
0
  6
CONTINUOUS
 62
     7
100
AcDbLine
 10
105.0
 20
170.0
 30
0.0
 11
115.0
 21
170.0
 31
0.0
  0
LINE
  5
731
100
AcDbEntity
  8
0
  6
CONTINUOUS
 62
     7
100
AcDbLine
 10
105.0
 20
185.0
 30
0.0
 11
112.5
 21
185.0
 31
0.0
  0
LINE
  5
732
100
AcDbEntity
  8
0
  6
CONTINUOUS
 62
     7
100
AcDbLine
 10
97.877948
 20
181.433648
 30
0.0
 11
90.754927
 21
181.433648
 31
0.0
  0
LINE
  5
733
100
AcDbEntity
  8
0
  6
CONTINUOUS
 62
     7
100
AcDbLine
 10
97.877948
 20
178.528148
 30
0.0
 11
97.877948
 21
181.433648
 31
0.0
  0
LINE
  5
734
100
AcDbEntity
  8
0
  6
CONTINUOUS
 62
     7
100
AcDbLine
 10
90.754927
 20
178.528148
 30
0.0
 11
97.877948
 21
178.528148
 31
0.0
  0
LINE
  5
735
100
AcDbEntity
  8
0
  6
CONTINUOUS
 62
     7
100
AcDbLine
 10
90.754927
 20
181.433648
 30
0.0
 11
90.754927
 21
178.528148
 31
0.0
  0
LINE
  5
736
100
AcDbEntity
  8
0
  6
DASHED
 62
     7
100
AcDbLine
 10
97.877948
 20
179.980898
 30
0.0
 11
106.388485
 21
179.980898
 31
0.0
  0
LINE
  5
737
100
AcDbEntity
  8
0
  6
CONTINUOUS
 62
     7
100
AcDbLine
 10
94.316438
 20
181.433648
 30
0.0
 11
94.316438
 21
182.5
 31
0.0
  0
LINE
  5
738
100
AcDbEntity
  8
0
  6
CONTINUOUS
 62
     7
100
AcDbLine
 10
94.316438
 20
178.528148
 30
0.0
 11
94.316438
 21
177.5
 31
0.0
  0
LINE
  5
739
100
AcDbEntity
  8
0
  6
CONTINUOUS
 62
     7
100
AcDbLine
 10
94.316438
 20
177.5
 30
0.0
 11
70.0
 21
177.5
 31
0.0
  0
LINE
  5
73A
100
AcDbEntity
  8
0
  6
CONTINUOUS
 62
     7
100
AcDbLine
 10
105.0
 20
177.5
 30
0.0
 11
108.214703
 21
183.243924
 31
0.0
  0
LINE
  5
73B
100
AcDbEntity
  8
0
  6
CONTINUOUS
 62
     7
100
AcDbLine
 10
105.0
 20
177.5
 30
0.0
 11
105.0
 21
175.0
 31
0.0
  0
LINE
  5
73C
100
AcDbEntity
  8
0
  6
CONTINUOUS
 62
     7
100
AcDbLine
 10
105.0
 20
182.5
 30
0.0
 11
105.0
 21
185.0
 31
0.0
  0
TEXT
  5
73D
100
AcDbEntity
  8
0
  6
CONTINUOUS
 62
     7
100
AcDbText
 10
175.840325
 20
73.561614
 30
0.0
 40
2.0
  1
101:1A
 50
90.0
  7
ROMANS
100
AcDbText
  0
TEXT
  5
73E
100
AcDbEntity
  8
0
  6
CONTINUOUS
 62
     7
100
AcDbText
 10
180.681062
 20
73.561614
 30
0.0
 40
2.0
  1
101:13A
 50
90.0
  7
ROMANS
100
AcDbText
  0
TEXT
  5
73F
100
AcDbEntity
  8
0
  6
CONTINUOUS
 62
     7
100
AcDbText
 10
71.476696
 20
174.432006
 30
0.0
 40
2.0
  1
108:11
  7
ROMANS
100
AcDbText
  0
TEXT
  5
740
100
AcDbEntity
  8
0
  6
CONTINUOUS
 62
     7
100
AcDbText
 10
71.476696
 20
179.432006
 30
0.0
 40
2.0
  1
14A
  7
ROMANS
100
AcDbText
  0
TEXT
  5
741
100
AcDbEntity
  8
0
  6
CONTINUOUS
 62
     7
100
AcDbText
 10
71.476696
 20
159.432006
 30
0.0
 40
2.0
  1
108:23
  7
ROMANS
100
AcDbText
  0
TEXT
  5
742
100
AcDbEntity
  8
0
  6
CONTINUOUS
 62
     7
100
AcDbText
 10
71.476696
 20
144.432006
 30
0.0
 40
2.0
  1
108:46
  7
ROMANS
100
AcDbText
  0
TEXT
  5
743
100
AcDbEntity
  8
0
  6
CONTINUOUS
 62
     7
100
AcDbText
 10
71.476696
 20
129.432006
 30
0.0
 40
2.0
  1
108:48
  7
ROMANS
100
AcDbText
  0
TEXT
  5
744
100
AcDbEntity
  8
0
  6
HIDDEN
 62
     7
100
AcDbText
 10
105.414748
 20
186.193637
 30
0.0
 40
2.0
  1
BS1
  7
ROMANS
100
AcDbText
  0
TEXT
  5
745
100
AcDbEntity
  8
0
  6
HIDDEN
 62
     7
100
AcDbText
 10
105.414748
 20
141.602953
 30
0.0
 40
2.0
  1
BS4
  7
ROMANS
100
AcDbText
  0
TEXT
  5
746
100
AcDbEntity
  8
0
  6
HIDDEN
 62
     7
100
AcDbText
 10
128.720468
 20
145.0
 30
0.0
 40
2.0
  1
TS2
 50
90.0
  7
ROMANS
100
AcDbText
  0
TEXT
  5
747
100
AcDbEntity
  8
0
  6
HIDDEN
 62
     7
100
AcDbText
 10
136.102905
 20
145.0
 30
0.0
 40
2.0
  1
TS1
 50
90.0
  7
ROMANS
100
AcDbText
  0
TEXT
  5
748
100
AcDbEntity
  8
0
  6
HIDDEN
 62
     7
100
AcDbText
 10
143.602905
 20
145.0
 30
0.0
 40
2.0
  1
SS1
 50
90.0
  7
ROMANS
100
AcDbText
  0
TEXT
  5
749
100
AcDbEntity
  8
0
  6
DASHED
 62
     7
100
AcDbText
 10
55.53868
 20
156.127027
 30
0.0
 40
2.0
  1
1)
  7
ROMANS
100
AcDbText
  0
LINE
  5
74A
100
AcDbEntity
  8
0
  6
CONTINUOUS
 62
     7
100
AcDbLine
 10
62.5
 20
132.499655
 30
0.0
 11
63.5
 21
131.499655
 31
0.0
  0
LINE
  5
74B
100
AcDbEntity
  8
0
  6
CONTINUOUS
 62
     7
100
AcDbLine
 10
62.5
 20
182.5
 30
0.0
 11
63.5
 21
183.5
 31
0.0
  0
LINE
  5
74C
100
AcDbEntity
  8
0
  6
CONTINUOUS
 62
     7
100
AcDbLine
 10
62.5
 20
182.5
 30
0.0
 11
62.5
 21
132.499655
 31
0.0
  0
LINE
  5
74D
100
AcDbEntity
  8
0
  6
DASHED
 62
     7
100
AcDbLine
 10
70.0
 20
182.5
 30
0.0
 11
65.0
 21
182.5
 31
0.0
  0
LINE
  5
74E
100
AcDbEntity
  8
0
  6
DASHED
 62
     7
100
AcDbLine
 10
70.0
 20
177.5
 30
0.0
 11
65.0
 21
177.5
 31
0.0
  0
LINE
  5
74F
100
AcDbEntity
  8
0
  6
DASHED
 62
     7
100
AcDbLine
 10
70.0
 20
162.5
 30
0.0
 11
65.0
 21
162.5
 31
0.0
  0
LINE
  5
750
100
AcDbEntity
  8
0
  6
DASHED
 62
     7
100
AcDbLine
 10
70.0
 20
167.5
 30
0.0
 11
65.0
 21
167.5
 31
0.0
  0
LINE
  5
751
100
AcDbEntity
  8
0
  6
DASHED
 62
     7
100
AcDbLine
 10
70.0
 20
132.5
 30
0.0
 11
65.0
 21
132.5
 31
0.0
  0
LINE
  5
752
100
AcDbEntity
  8
0
  6
DASHED
 62
     7
100
AcDbLine
 10
70.0
 20
137.5
 30
0.0
 11
65.0
 21
137.5
 31
0.0
  0
LINE
  5
753
100
AcDbEntity
  8
0
  6
DASHED
 62
     7
100
AcDbLine
 10
70.0
 20
147.5
 30
0.0
 11
65.0
 21
147.5
 31
0.0
  0
LINE
  5
754
100
AcDbEntity
  8
0
  6
DASHED
 62
     7
100
AcDbLine
 10
70.0
 20
152.5
 30
0.0
 11
65.0
 21
152.5
 31
0.0
  0
LINE
  5
755
100
AcDbEntity
  8
0
  6
DASHED
 62
     7
100
AcDbLine
 10
70.0
 20
105.0
 30
0.0
 11
65.0
 21
105.0
 31
0.0
  0
TEXT
  5
756
100
AcDbEntity
  8
0
  6
DASHED
 62
     7
100
AcDbText
 10
55.53868
 20
104.019183
 30
0.0
 40
2.0
  1
3)
  7
ROMANS
100
AcDbText
  0
LINE
  5
757
100
AcDbEntity
  8
0
  6
DASHED
 62
     7
100
AcDbLine
 10
177.5
 20
72.5
 30
0.0
 11
177.5
 21
65.0
 31
0.0
  0
TEXT
  5
758
100
AcDbEntity
  8
0
  6
DASHED
 62
     7
100
AcDbText
 10
327.448307
 20
112.366083
 30
0.0
 40
2.0
  1
  UTLÍSNING
  7
ROMANS
100
AcDbText
  0
TEXT
  5
759
100
AcDbEntity
  8
0
  6
DASHED
 62
     7
100
AcDbText
 10
326.109292
 20
115.699417
 30
0.0
 40
2.0
  1
2) TRIP
  7
ROMANS
100
AcDbText
  0
TEXT
  5
75A
100
AcDbEntity
  8
0
  6
DASHED
 62
     7
100
AcDbText
 10
331.849048
 20
122.366083
 30
0.0
 40
2.0
  1
KONTROLL INGÅNGAR
  7
ROMANS
100
AcDbText
  0
TEXT
  5
75B
100
AcDbEntity
  8
0
  6
DASHED
 62
     7
100
AcDbText
 10
326.109292
 20
125.699417
 30
0.0
 40
2.0
  1
1) CONTROL INPUTS
  7
ROMANS
100
AcDbText
  0
TEXT
  5
75C
100
AcDbEntity
  8
0
  6
DASHED
 62
     7
100
AcDbText
 10
327.310374
 20
83.700344
 30
0.0
 40
2.0
  1
  BUSSANSLUTNINGSMODUL
  7
ROMANS
100
AcDbText
  0
LINE
  5
75D
100
AcDbEntity
  8
0
  6
CONTINUOUS
 62
     7
100
AcDbLine
 10
374.960843
 20
245.451391
 30
0.0
 11
357.460843
 21
245.451391
 31
0.0
  0
LINE
  5
75E
100
AcDbEntity
  8
0
  6
CONTINUOUS
 62
     7
100
AcDbLine
 10
357.460843
 20
224.760514
 30
0.0
 11
357.460843
 21
245.451391
 31
0.0
  0
LINE
  5
75F
100
AcDbEntity
  8
0
  6
CONTINUOUS
 62
     7
100
AcDbLine
 10
374.960843
 20
245.451391
 30
0.0
 11
374.960843
 21
224.760514
 31
0.0
  0
LINE
  5
760
100
AcDbEntity
  8
0
  6
CONTINUOUS
 62
     7
100
AcDbLine
 10
117.5
 20
155.0
 30
0.0
 11
117.5
 21
197.5
 31
0.0
  0
LINE
  5
761
100
AcDbEntity
  8
0
  6
CONTINUOUS
 62
     7
100
AcDbLine
 10
117.5
 20
197.5
 30
0.0
 11
217.5
 21
197.5
 31
0.0
  0
LINE
  5
762
100
AcDbEntity
  8
0
  6
CONTINUOUS
 62
     7
100
AcDbLine
 10
217.5
 20
197.5
 30
0.0
 11
217.5
 21
175.260133
 31
0.0
  0
LINE
  5
763
100
AcDbEntity
  8
0
  6
CONTINUOUS
 62
     7
100
AcDbLine
 10
217.5
 20
175.260133
 30
0.0
 11
202.950615
 21
175.260133
 31
0.0
  0
LINE
  5
764
100
AcDbEntity
  8
0
  6
CONTINUOUS
 62
     7
100
AcDbLine
 10
322.5
 20
177.5
 30
0.0
 11
317.5
 21
185.0
 31
0.0
  0
LINE
  5
765
100
AcDbEntity
  8
0
  6
CONTINUOUS
 62
     7
100
AcDbLine
 10
325.0
 20
177.5
 30
0.0
 11
322.5
 21
177.5
 31
0.0
  0
LINE
  5
766
100
AcDbEntity
  8
0
  6
CONTINUOUS
 62
     7
100
AcDbLine
 10
316.506031
 20
182.598556
 30
0.0
 11
317.478167
 21
182.598556
 31
0.0
  0
LINE
  5
767
100
AcDbEntity
  8
0
  6
CONTINUOUS
 62
     7
100
AcDbLine
 10
316.496128
 20
184.999996
 30
0.0
 11
317.473936
 21
184.999996
 31
0.0
  0
LINE
  5
768
100
AcDbEntity
  8
0
  6
CONTINUOUS
 62
     7
100
AcDbLine
 10
316.500897
 20
180.18998
 30
0.0
 11
317.5
 21
180.18998
 31
0.0
  0
ARC
  5
769
100
AcDbEntity
  8
0
  6
CONTINUOUS
 62
     7
100
AcDbCircle
 10
315.864862
 20
181.394238
 30
0.0
 40
1.204309
100
AcDbArc
 50
90.0
 51
270.0
  0
LINE
  5
76A
100
AcDbEntity
  8
0
  6
CONTINUOUS
 62
     7
100
AcDbLine
 10
315.859898
 20
180.189937
 30
0.0
 11
316.509496
 21
180.189937
 31
0.0
  0
LINE
  5
76B
100
AcDbEntity
  8
0
  6
CONTINUOUS
 62
     7
100
AcDbLine
 10
315.858762
 20
184.999993
 30
0.0
 11
316.502261
 21
184.999993
 31
0.0
  0
LINE
  5
76C
100
AcDbEntity
  8
0
  6
CONTINUOUS
 62
     7
100
AcDbLine
 10
315.858762
 20
182.598547
 30
0.0
 11
316.50836
 21
182.598547
 31
0.0
  0
ARC
  5
76D
100
AcDbEntity
  8
0
  6
CONTINUOUS
 62
     7
100
AcDbCircle
 10
315.864862
 20
183.796095
 30
0.0
 40
1.204309
100
AcDbArc
 50
90.0
 51
265.706237
  0
LINE
  5
76E
100
AcDbEntity
  8
0
  6
CONTINUOUS
 62
     7
100
AcDbLine
 10
324.006031
 20
182.598556
 30
0.0
 11
324.978167
 21
182.598556
 31
0.0
  0
LINE
  5
76F
100
AcDbEntity
  8
0
  6
CONTINUOUS
 62
     7
100
AcDbLine
 10
323.996128
 20
184.999996
 30
0.0
 11
324.973936
 21
184.999996
 31
0.0
  0
LINE
  5
770
100
AcDbEntity
  8
0
  6
CONTINUOUS
 62
     7
100
AcDbLine
 10
324.000897
 20
180.18998
 30
0.0
 11
325.0
 21
180.18998
 31
0.0
  0
ARC
  5
771
100
AcDbEntity
  8
0
  6
CONTINUOUS
 62
     7
100
AcDbCircle
 10
323.364862
 20
181.394238
 30
0.0
 40
1.204309
100
AcDbArc
 50
90.0
 51
270.0
  0
LINE
  5
772
100
AcDbEntity
  8
0
  6
CONTINUOUS
 62
     7
100
AcDbLine
 10
323.359898
 20
180.189937
 30
0.0
 11
324.009496
 21
180.189937
 31
0.0
  0
LINE
  5
773
100
AcDbEntity
  8
0
  6
CONTINUOUS
 62
     7
100
AcDbLine
 10
323.358762
 20
184.999993
 30
0.0
 11
324.002261
 21
184.999993
 31
0.0
  0
LINE
  5
774
100
AcDbEntity
  8
0
  6
CONTINUOUS
 62
     7
100
AcDbLine
 10
323.358762
 20
182.598547
 30
0.0
 11
324.00836
 21
182.598547
 31
0.0
  0
ARC
  5
775
100
AcDbEntity
  8
0
  6
CONTINUOUS
 62
     7
100
AcDbCircle
 10
323.364862
 20
183.796095
 30
0.0
 40
1.204309
100
AcDbArc
 50
90.0
 51
265.706237
  0
LINE
  5
776
100
AcDbEntity
  8
0
  6
CONTINUOUS
 62
     7
100
AcDbLine
 10
325.0
 20
180.18998
 30
0.0
 11
325.0
 21
177.5
 31
0.0
  0
LINE
  5
777
100
AcDbEntity
  8
0
  6
CONTINUOUS
 62
     7
100
AcDbLine
 10
317.5
 20
180.18998
 30
0.0
 11
317.5
 21
177.5
 31
0.0
  0
TEXT
  5
778
100
AcDbEntity
  8
0
  6
CONTINUOUS
 62
     7
100
AcDbText
 10
281.757641
 20
243.985054
 30
0.0
 40
2.0
  1
L1
 11
281.757641
 21
243.318387
 31
0.0
100
AcDbText
 73
     1
  0
TEXT
  5
779
100
AcDbEntity
  8
0
  6
CONTINUOUS
 62
     7
100
AcDbText
 10
281.757641
 20
238.928359
 30
0.0
 40
2.0
  1
L2
 11
281.757641
 21
238.261693
 31
0.0
100
AcDbText
 73
     1
  0
TEXT
  5
77A
100
AcDbEntity
  8
0
  6
CONTINUOUS
 62
     7
100
AcDbText
 10
281.757641
 20
234.006967
 30
0.0
 40
2.0
  1
L3
 11
281.757641
 21
233.3403
 31
0.0
100
AcDbText
 73
     1
  0
LINE
  5
77C
100
AcDbEntity
  8
0
  6
CONTINUOUS
 62
     7
100
AcDbLine
 10
332.5
 20
185.0
 30
0.0
 11
337.5
 21
185.0
 31
0.0
  0
LINE
  5
77D
100
AcDbEntity
  8
0
  6
CONTINUOUS
 62
     7
100
AcDbLine
 10
330.0
 20
177.5
 30
0.0
 11
325.0
 21
185.0
 31
0.0
  0
LINE
  5
77E
100
AcDbEntity
  8
0
  6
CONTINUOUS
 62
     7
100
AcDbLine
 10
332.5
 20
177.5
 30
0.0
 11
330.0
 21
177.5
 31
0.0
  0
LINE
  5
77F
100
AcDbEntity
  8
0
  6
CONTINUOUS
 62
     7
100
AcDbLine
 10
331.506031
 20
182.598556
 30
0.0
 11
332.478167
 21
182.598556
 31
0.0
  0
LINE
  5
780
100
AcDbEntity
  8
0
  6
CONTINUOUS
 62
     7
100
AcDbLine
 10
331.496128
 20
184.999996
 30
0.0
 11
332.473936
 21
184.999996
 31
0.0
  0
LINE
  5
781
100
AcDbEntity
  8
0
  6
CONTINUOUS
 62
     7
100
AcDbLine
 10
331.500897
 20
180.18998
 30
0.0
 11
332.5
 21
180.18998
 31
0.0
  0
ARC
  5
782
100
AcDbEntity
  8
0
  6
CONTINUOUS
 62
     7
100
AcDbCircle
 10
330.864862
 20
181.394238
 30
0.0
 40
1.204309
100
AcDbArc
 50
90.0
 51
270.0
  0
LINE
  5
783
100
AcDbEntity
  8
0
  6
CONTINUOUS
 62
     7
100
AcDbLine
 10
330.859898
 20
180.189937
 30
0.0
 11
331.509496
 21
180.189937
 31
0.0
  0
LINE
  5
784
100
AcDbEntity
  8
0
  6
CONTINUOUS
 62
     7
100
AcDbLine
 10
330.858762
 20
184.999993
 30
0.0
 11
331.502261
 21
184.999993
 31
0.0
  0
LINE
  5
785
100
AcDbEntity
  8
0
  6
CONTINUOUS
 62
     7
100
AcDbLine
 10
330.858762
 20
182.598547
 30
0.0
 11
331.50836
 21
182.598547
 31
0.0
  0
ARC
  5
786
100
AcDbEntity
  8
0
  6
CONTINUOUS
 62
     7
100
AcDbCircle
 10
330.864862
 20
183.796095
 30
0.0
 40
1.204309
100
AcDbArc
 50
90.0
 51
265.706237
  0
LINE
  5
787
100
AcDbEntity
  8
0
  6
CONTINUOUS
 62
     7
100
AcDbLine
 10
332.5
 20
180.18998
 30
0.0
 11
332.5
 21
177.5
 31
0.0
  0
LINE
  5
788
100
AcDbEntity
  8
0
  6
DASHED
 62
     7
100
AcDbLine
 10
327.5
 20
235.0
 30
0.0
 11
287.5
 21
235.0
 31
0.0
  0
LINE
  5
789
100
AcDbEntity
  8
0
  6
DASHED
 62
     7
100
AcDbLine
 10
327.5
 20
240.0
 30
0.0
 11
287.5
 21
240.0
 31
0.0
  0
LINE
  5
78A
100
AcDbEntity
  8
0
  6
DASHED
 62
     7
100
AcDbLine
 10
327.5
 20
245.0
 30
0.0
 11
287.5
 21
245.0
 31
0.0
  0
LINE
  5
78D
100
AcDbEntity
  8
0
  6
CONTINUOUS
 62
     7
100
AcDbLine
 10
202.950615
 20
171.724052
 30
0.0
 11
215.0
 21
171.724052
 31
0.0
  0
LINE
  5
78E
100
AcDbEntity
  8
0
  6
CONTINUOUS
 62
     7
100
AcDbLine
 10
215.0
 20
171.724052
 30
0.0
 11
215.0
 21
192.5
 31
0.0
  0
TEXT
  5
78F
100
AcDbEntity
  8
0
  6
CONTINUOUS
 62
     7
100
AcDbText
 10
165.428239
 20
73.561614
 30
0.0
 40
2.0
  1
108:72
 50
90.0
  7
ROMANS
100
AcDbText
  0
TEXT
  5
790
100
AcDbEntity
  8
0
  6
CONTINUOUS
 62
     7
100
AcDbText
 10
218.138441
 20
72.877099
 30
0.0
 40
2.0
  1
108:61
 50
90.0
  7
ROMANS
100
AcDbText
  0
TEXT
  5
791
100
AcDbEntity
  8
0
  6
CONTINUOUS
 62
     7
100
AcDbText
 10
223.09138
 20
72.877099
 30
0.0
 40
2.0
  1
108:62
 50
90.0
  7
ROMANS
100
AcDbText
  0
TEXT
  5
792
100
AcDbEntity
  8
0
  6
CONTINUOUS
 62
     7
100
AcDbText
 10
238.09138
 20
72.877099
 30
0.0
 40
2.0
  1
108:63
 50
90.0
  7
ROMANS
100
AcDbText
  0
LINE
  5
794
100
AcDbEntity
  8
0
  6
CONTINUOUS
 62
     7
100
AcDbLine
 10
115.0
 20
202.5
 30
0.0
 11
220.0
 21
202.5
 31
0.0
  0
LINE
  5
795
100
AcDbEntity
  8
0
  6
CONTINUOUS
 62
     7
100
AcDbLine
 10
115.0
 20
170.0
 30
0.0
 11
115.0
 21
202.5
 31
0.0
  0
LINE
  5
796
100
AcDbEntity
  8
0
  6
CONTINUOUS
 62
     7
100
AcDbLine
 10
222.5
 20
182.868276
 30
0.0
 11
222.5
 21
207.5
 31
0.0
  0
LINE
  5
797
100
AcDbEntity
  8
0
  6
CONTINUOUS
 62
     7
100
AcDbLine
 10
202.950615
 20
182.868276
 30
0.0
 11
222.5
 21
182.868276
 31
0.0
  0
LINE
  5
79B
100
AcDbEntity
  8
0
  6
CONTINUOUS
 62
     7
100
AcDbLine
 10
305.0
 20
180.18998
 30
0.0
 11
305.0
 21
177.5
 31
0.0
  0
ARC
  5
79C
100
AcDbEntity
  8
0
  6
CONTINUOUS
 62
     7
100
AcDbCircle
 10
303.364862
 20
183.796095
 30
0.0
 40
1.204309
100
AcDbArc
 50
90.0
 51
265.706237
  0
LINE
  5
79D
100
AcDbEntity
  8
0
  6
CONTINUOUS
 62
     7
100
AcDbLine
 10
303.358762
 20
182.598547
 30
0.0
 11
304.00836
 21
182.598547
 31
0.0
  0
LINE
  5
79E
100
AcDbEntity
  8
0
  6
CONTINUOUS
 62
     7
100
AcDbLine
 10
303.358762
 20
184.999993
 30
0.0
 11
304.002261
 21
184.999993
 31
0.0
  0
LINE
  5
79F
100
AcDbEntity
  8
0
  6
CONTINUOUS
 62
     7
100
AcDbLine
 10
303.359898
 20
180.189937
 30
0.0
 11
304.009496
 21
180.189937
 31
0.0
  0
ARC
  5
7A0
100
AcDbEntity
  8
0
  6
CONTINUOUS
 62
     7
100
AcDbCircle
 10
303.364862
 20
181.394238
 30
0.0
 40
1.204309
100
AcDbArc
 50
90.0
 51
270.0
  0
LINE
  5
7A1
100
AcDbEntity
  8
0
  6
CONTINUOUS
 62
     7
100
AcDbLine
 10
304.000897
 20
180.18998
 30
0.0
 11
305.0
 21
180.18998
 31
0.0
  0
LINE
  5
7A2
100
AcDbEntity
  8
0
  6
CONTINUOUS
 62
     7
100
AcDbLine
 10
303.996128
 20
184.999996
 30
0.0
 11
304.973936
 21
184.999996
 31
0.0
  0
LINE
  5
7A3
100
AcDbEntity
  8
0
  6
CONTINUOUS
 62
     7
100
AcDbLine
 10
304.006031
 20
182.598556
 30
0.0
 11
304.978167
 21
182.598556
 31
0.0
  0
LINE
  5
7A4
100
AcDbEntity
  8
0
  6
CONTINUOUS
 62
     7
100
AcDbLine
 10
290.0
 20
180.18998
 30
0.0
 11
290.0
 21
177.5
 31
0.0
  0
LINE
  5
7A5
100
AcDbEntity
  8
0
  6
CONTINUOUS
 62
     7
100
AcDbLine
 10
297.5
 20
180.18998
 30
0.0
 11
297.5
 21
177.5
 31
0.0
  0
ARC
  5
7A6
100
AcDbEntity
  8
0
  6
CONTINUOUS
 62
     7
100
AcDbCircle
 10
295.864862
 20
183.796095
 30
0.0
 40
1.204309
100
AcDbArc
 50
90.0
 51
265.706237
  0
LINE
  5
7A7
100
AcDbEntity
  8
0
  6
CONTINUOUS
 62
     7
100
AcDbLine
 10
295.858762
 20
182.598547
 30
0.0
 11
296.50836
 21
182.598547
 31
0.0
  0
LINE
  5
7A8
100
AcDbEntity
  8
0
  6
CONTINUOUS
 62
     7
100
AcDbLine
 10
295.858762
 20
184.999993
 30
0.0
 11
296.502261
 21
184.999993
 31
0.0
  0
LINE
  5
7A9
100
AcDbEntity
  8
0
  6
CONTINUOUS
 62
     7
100
AcDbLine
 10
295.859898
 20
180.189937
 30
0.0
 11
296.509496
 21
180.189937
 31
0.0
  0
ARC
  5
7AA
100
AcDbEntity
  8
0
  6
CONTINUOUS
 62
     7
100
AcDbCircle
 10
295.864862
 20
181.394238
 30
0.0
 40
1.204309
100
AcDbArc
 50
90.0
 51
270.0
  0
LINE
  5
7AB
100
AcDbEntity
  8
0
  6
CONTINUOUS
 62
     7
100
AcDbLine
 10
296.500897
 20
180.18998
 30
0.0
 11
297.5
 21
180.18998
 31
0.0
  0
LINE
  5
7AC
100
AcDbEntity
  8
0
  6
CONTINUOUS
 62
     7
100
AcDbLine
 10
296.496128
 20
184.999996
 30
0.0
 11
297.473936
 21
184.999996
 31
0.0
  0
LINE
  5
7AD
100
AcDbEntity
  8
0
  6
CONTINUOUS
 62
     7
100
AcDbLine
 10
296.506031
 20
182.598556
 30
0.0
 11
297.478167
 21
182.598556
 31
0.0
  0
ARC
  5
7AE
100
AcDbEntity
  8
0
  6
CONTINUOUS
 62
     7
100
AcDbCircle
 10
288.364862
 20
183.796095
 30
0.0
 40
1.204309
100
AcDbArc
 50
90.0
 51
265.706237
  0
LINE
  5
7AF
100
AcDbEntity
  8
0
  6
CONTINUOUS
 62
     7
100
AcDbLine
 10
288.358762
 20
182.598547
 30
0.0
 11
289.00836
 21
182.598547
 31
0.0
  0
LINE
  5
7B0
100
AcDbEntity
  8
0
  6
CONTINUOUS
 62
     7
100
AcDbLine
 10
288.358762
 20
184.999993
 30
0.0
 11
289.002261
 21
184.999993
 31
0.0
  0
LINE
  5
7B1
100
AcDbEntity
  8
0
  6
CONTINUOUS
 62
     7
100
AcDbLine
 10
288.359898
 20
180.189937
 30
0.0
 11
289.009496
 21
180.189937
 31
0.0
  0
ARC
  5
7B2
100
AcDbEntity
  8
0
  6
CONTINUOUS
 62
     7
100
AcDbCircle
 10
288.364862
 20
181.394238
 30
0.0
 40
1.204309
100
AcDbArc
 50
90.0
 51
270.0
  0
LINE
  5
7B3
100
AcDbEntity
  8
0
  6
CONTINUOUS
 62
     7
100
AcDbLine
 10
289.000897
 20
180.18998
 30
0.0
 11
290.0
 21
180.18998
 31
0.0
  0
LINE
  5
7B4
100
AcDbEntity
  8
0
  6
CONTINUOUS
 62
     7
100
AcDbLine
 10
288.996128
 20
184.999996
 30
0.0
 11
303.333522
 21
184.999996
 31
0.0
  0
LINE
  5
7B5
100
AcDbEntity
  8
0
  6
CONTINUOUS
 62
     7
100
AcDbLine
 10
289.006031
 20
182.598556
 30
0.0
 11
289.978167
 21
182.598556
 31
0.0
  0
LINE
  5
7B8
100
AcDbEntity
  8
0
  6
CONTINUOUS
 62
     7
100
AcDbLine
 10
300.0
 20
190.18998
 30
0.0
 11
320.0
 21
190.18998
 31
0.0
  0
LINE
  5
7BB
100
AcDbEntity
  8
0
  6
DASHED
 62
     7
100
AcDbLine
 10
337.5
 20
175.0
 30
0.0
 11
337.5
 21
185.0
 31
0.0
  0
LINE
  5
7BC
100
AcDbEntity
  8
0
  6
DASHED
 62
     7
100
AcDbLine
 10
317.5
 20
175.0
 30
0.0
 11
317.5
 21
177.5
 31
0.0
  0
LINE
  5
7BD
100
AcDbEntity
  8
0
  6
DASHED
 62
     7
100
AcDbLine
 10
297.5
 20
167.5
 30
0.0
 11
297.5
 21
177.5
 31
0.0
  0
LINE
  5
7BE
100
AcDbEntity
  8
0
  6
DASHED
 62
     7
100
AcDbLine
 10
290.0
 20
162.5
 30
0.0
 11
290.0
 21
177.5
 31
0.0
  0
LINE
  5
7BF
100
AcDbEntity
  8
0
  6
DASHED
 62
     7
100
AcDbLine
 10
290.0
 20
175.0
 30
0.0
 11
290.0
 21
177.5
 31
0.0
  0
LINE
  5
7C0
100
AcDbEntity
  8
0
  6
DASHED
 62
     7
100
AcDbLine
 10
315.0
 20
195.0
 30
0.0
 11
315.0
 21
235.0
 31
0.0
  0
LINE
  5
7C1
100
AcDbEntity
  8
0
  6
DASHED
 62
     7
100
AcDbLine
 10
307.5
 20
195.0
 30
0.0
 11
307.5
 21
240.0
 31
0.0
  0
LINE
  5
7C2
100
AcDbEntity
  8
0
  6
DASHED
 62
     7
100
AcDbLine
 10
300.0
 20
195.0
 30
0.0
 11
300.0
 21
245.0
 31
0.0
  0
LINE
  5
7C3
100
AcDbEntity
  8
0
  6
DASHED
 62
     7
100
AcDbLine
 10
255.0
 20
167.5
 30
0.0
 11
297.5
 21
167.5
 31
0.0
  0
LINE
  5
7C4
100
AcDbEntity
  8
0
  6
DASHED
 62
     7
100
AcDbLine
 10
255.0
 20
162.5
 30
0.0
 11
290.0
 21
162.5
 31
0.0
  0
TEXT
  5
7D6
100
AcDbEntity
  8
0
  6
HIDDEN
 62
     7
100
AcDbText
 10
105.414748
 20
171.52401
 30
0.0
 40
2.0
  1
BS2
  7
ROMANS
100
AcDbText
  0
TEXT
  5
7D7
100
AcDbEntity
  8
0
  6
HIDDEN
 62
     7
100
AcDbText
 10
105.414748
 20
156.594283
 30
0.0
 40
2.0
  1
BS3
  7
ROMANS
100
AcDbText
  0
LINE
  5
7D8
100
AcDbEntity
  8
0
  6
CONTINUOUS
 62
     7
100
AcDbLine
 10
374.960843
 20
224.760514
 30
0.0
 11
357.460843
 21
224.760514
 31
0.0
  0
LINE
  5
7D9
100
AcDbEntity
  8
0
  6
CONTINUOUS
 62
     7
100
AcDbLine
 10
120.0
 20
140.0
 30
0.0
 11
120.0
 21
192.5
 31
0.0
  0
LINE
  5
7DA
100
AcDbEntity
  8
0
  6
CONTINUOUS
 62
     7
100
AcDbLine
 10
120.0
 20
192.5
 30
0.0
 11
215.0
 21
192.5
 31
0.0
  0
LINE
  5
7DC
100
AcDbEntity
  8
0
  6
DASHED
 62
     7
100
AcDbLine
 10
70.0
 20
97.5
 30
0.0
 11
65.0
 21
97.5
 31
0.0
  0
LINE
  5
7DD
100
AcDbEntity
  8
0
  6
CONTINUOUS
 62
     7
100
AcDbLine
 10
172.5
 20
175.882353
 30
0.0
 11
130.0
 21
175.882353
 31
0.0
  0
LINE
  5
7DE
100
AcDbEntity
  8
0
  6
CONTINUOUS
 62
     7
100
AcDbLine
 10
172.5
 20
168.382353
 30
0.0
 11
137.5
 21
168.382353
 31
0.0
  0
LINE
  5
7DF
100
AcDbEntity
  8
0
  6
CONTINUOUS
 62
     7
100
AcDbLine
 10
172.5
 20
160.882353
 30
0.0
 11
145.0
 21
160.882353
 31
0.0
  0
LINE
  5
7E0
100
AcDbEntity
  8
0
  6
CONTINUOUS
 62
     7
100
AcDbLine
 10
160.762593
 20
160.872752
 30
0.0
 11
163.501724
 21
160.187283
 31
0.0
  0
LINE
  5
7E1
100
AcDbEntity
  8
0
  6
CONTINUOUS
 62
     7
100
AcDbLine
 10
160.762593
 20
160.872752
 30
0.0
 11
163.501724
 21
161.558221
 31
0.0
  0
LINE
  5
7E4
100
AcDbEntity
  8
0
  6
CONTINUOUS
 62
     7
100
AcDbLine
 10
160.762593
 20
168.372752
 30
0.0
 11
163.501724
 21
169.058221
 31
0.0
  0
LINE
  5
7E5
100
AcDbEntity
  8
0
  6
CONTINUOUS
 62
     7
100
AcDbLine
 10
160.762593
 20
168.372752
 30
0.0
 11
163.501724
 21
167.687283
 31
0.0
  0
LINE
  5
7E7
100
AcDbEntity
  8
0
  6
CONTINUOUS
 62
     7
100
AcDbLine
 10
160.762593
 20
175.872752
 30
0.0
 11
163.501724
 21
176.558221
 31
0.0
  0
LINE
  5
7E8
100
AcDbEntity
  8
0
  6
CONTINUOUS
 62
     7
100
AcDbLine
 10
160.762593
 20
175.872752
 30
0.0
 11
163.501724
 21
175.187283
 31
0.0
  0
LINE
  5
7E9
100
AcDbEntity
  8
0
  6
CONTINUOUS
 62
     7
100
AcDbLine
 10
163.510069
 20
160.183686
 30
0.0
 11
163.510069
 21
161.554624
 31
0.0
  0
LINE
  5
7EA
100
AcDbEntity
  8
0
  6
CONTINUOUS
 62
     7
100
AcDbLine
 10
163.510069
 20
175.183686
 30
0.0
 11
163.510069
 21
176.554624
 31
0.0
  0
LINE
  5
7EB
100
AcDbEntity
  8
0
  6
CONTINUOUS
 62
     7
100
AcDbLine
 10
163.510069
 20
167.683686
 30
0.0
 11
163.510069
 21
169.054624
 31
0.0
  0
TEXT
  5
7EC
100
AcDbEntity
  8
0
  6
CONTINUOUS
 62
     7
100
AcDbText
 10
359.541562
 20
229.449972
 30
0.0
 40
2.5
  1
df/dt
  7
ROMANS
100
AcDbText
  0
TEXT
  5
7EF
100
AcDbEntity
  8
0
  6
CONTINUOUS
 62
     7
100
AcDbText
 10
363.15698
 20
237.532044
 30
0.0
 40
2.89569
  1
f
  7
ROMANS
100
AcDbText
  0
TEXT
  5
7F2
100
AcDbEntity
  8
0
  6
CONTINUOUS
 62
     7
100
AcDbText
 10
261.698224
 20
163.72629
 30
0.0
 40
1.7
  1
12
  7
ROMANS
100
AcDbText
  0
TEXT
  5
7F3
100
AcDbEntity
  8
0
  6
CONTINUOUS
 62
     7
100
AcDbText
 10
259.12812
 20
163.759885
 30
0.0
 40
2.5
  1
U
  7
ROMANS
100
AcDbText
  0
LINE
  5
7F4
100
AcDbEntity
  8
0
  6
CONTINUOUS
 62
     7
100
AcDbLine
 10
215.831108
 20
60.783527
 30
0.0
 11
219.831108
 21
60.783527
 31
0.0
  0
ARC
  5
7F5
100
AcDbEntity
  8
0
 62
     7
100
AcDbCircle
 10
217.037724
 20
58.991308
 30
0.0
 40
0.869227
100
AcDbArc
 50
32.471192
 51
175.601295
  0
ARC
  5
7F6
100
AcDbEntity
  8
0
 62
     7
100
AcDbCircle
 10
218.504391
 20
59.924641
 30
0.0
 40
0.869227
100
AcDbArc
 50
212.471192
 51
355.601295
  0
ARC
  5
7F7
100
AcDbEntity
  8
0
 62
     7
100
AcDbCircle
 10
218.672927
 20
93.436221
 30
0.0
 40
0.869227
100
AcDbArc
 50
32.471192
 51
175.601295
  0
ARC
  5
7F8
100
AcDbEntity
  8
0
 62
     7
100
AcDbCircle
 10
220.139595
 20
94.369554
 30
0.0
 40
0.869227
100
AcDbArc
 50
212.471192
 51
355.601295
  0
LINE
  5
7F9
100
AcDbEntity
  8
0
  6
CONTINUOUS
 62
     7
100
AcDbLine
 10
172.5
 20
185.882353
 30
0.0
 11
202.950615
 21
185.882353
 31
0.0
  0
LINE
  5
7FA
100
AcDbEntity
  8
0
  6
CONTINUOUS
 62
     7
100
AcDbLine
 10
172.5
 20
153.382353
 30
0.0
 11
202.950615
 21
153.382353
 31
0.0
  0
TEXT
  5
7FB
100
AcDbEntity
  8
0
  6
CONTINUOUS
 62
     7
100
AcDbText
 10
195.384798
 20
164.691626
 30
0.0
 40
2.89569
  1
f
  7
ROMANS
100
AcDbText
  0
TEXT
  5
7FC
100
AcDbEntity
  8
0
  6
HIDDEN
 62
     7
100
AcDbText
 10
195.423086
 20
171.756132
 30
0.0
 40
2.5
  1
U
  7
ROMANS
100
AcDbText
  0
LINE
  5
7FD
100
AcDbEntity
  8
0
  6
CONTINUOUS
 62
     7
100
AcDbLine
 10
186.962118
 20
174.408193
 30
0.0
 11
186.962118
 21
172.620062
 31
0.0
  0
LINE
  5
7FE
100
AcDbEntity
  8
0
  6
CONTINUOUS
 62
     7
100
AcDbLine
 10
181.562599
 20
172.395312
 30
0.0
 11
184.43871
 21
175.22387
 31
0.0
  0
LINE
  5
7FF
100
AcDbEntity
  8
0
  6
CONTINUOUS
 62
     7
100
AcDbLine
 10
178.558324
 20
174.408193
 30
0.0
 11
178.558324
 21
172.620062
 31
0.0
  0
TEXT
  5
800
100
AcDbEntity
  8
0
  6
CONTINUOUS
 62
     7
100
AcDbText
 10
179.429736
 20
166.081196
 30
0.0
 40
1.7
  1
4
  7
ROMANS
100
AcDbText
  0
LINE
  5
801
100
AcDbEntity
  8
0
  6
CONTINUOUS
 62
     7
100
AcDbLine
 10
178.407605
 20
165.485098
 30
0.0
 11
182.699612
 21
165.485098
 31
0.0
  0
LINE
  5
802
100
AcDbEntity
  8
0
  6
CONTINUOUS
 62
     7
100
AcDbLine
 10
178.589355
 20
173.562914
 30
0.0
 11
186.962118
 21
173.562914
 31
0.0
  0
LINE
  5
803
100
AcDbEntity
  8
0
  6
CONTINUOUS
 62
     7
100
AcDbLine
 10
178.589355
 20
156.00236
 30
0.0
 11
186.962118
 21
156.00236
 31
0.0
  0
TEXT
  5
804
100
AcDbEntity
  8
0
  6
CONTINUOUS
 62
     7
100
AcDbText
 10
178.85192
 20
159.34916
 30
0.0
 40
2.0
  1
df/dt
  7
ROMANS
100
AcDbText
  0
LINE
  5
805
100
AcDbEntity
  8
0
  6
CONTINUOUS
 62
     7
100
AcDbLine
 10
178.558324
 20
156.847639
 30
0.0
 11
178.558324
 21
155.059507
 31
0.0
  0
LINE
  5
806
100
AcDbEntity
  8
0
  6
CONTINUOUS
 62
     7
100
AcDbLine
 10
183.984587
 20
158.200523
 30
0.0
 11
184.885264
 21
157.076774
 31
0.0
  0
LINE
  5
807
100
AcDbEntity
  8
0
  6
CONTINUOUS
 62
     7
100
AcDbLine
 10
181.562599
 20
154.834757
 30
0.0
 11
184.43871
 21
157.663316
 31
0.0
  0
LINE
  5
808
100
AcDbEntity
  8
0
  6
CONTINUOUS
 62
     7
100
AcDbLine
 10
186.962118
 20
156.847639
 30
0.0
 11
186.962118
 21
155.059507
 31
0.0
  0
LINE
  5
809
100
AcDbEntity
  8
0
  6
CONTINUOUS
 62
     7
100
AcDbLine
 10
182.699612
 20
165.485098
 30
0.0
 11
182.699612
 21
167.631102
 31
0.0
  0
LINE
  5
80A
100
AcDbEntity
  8
0
  6
CONTINUOUS
 62
     7
100
AcDbLine
 10
182.699612
 20
167.631102
 30
0.0
 11
186.991619
 21
167.631102
 31
0.0
  0
TEXT
  5
80B
100
AcDbEntity
  8
0
  6
CONTINUOUS
 62
     7
100
AcDbText
 10
179.429736
 20
180.553755
 30
0.0
 40
1.7
  1
4
  7
ROMANS
100
AcDbText
  0
LINE
  5
80C
100
AcDbEntity
  8
0
  6
CONTINUOUS
 62
     7
100
AcDbLine
 10
178.407605
 20
179.869951
 30
0.0
 11
182.699612
 21
179.869951
 31
0.0
  0
LINE
  5
80D
100
AcDbEntity
  8
0
  6
CONTINUOUS
 62
     7
100
AcDbLine
 10
182.699612
 20
179.869951
 30
0.0
 11
182.699612
 21
182.015954
 31
0.0
  0
LINE
  5
80E
100
AcDbEntity
  8
0
  6
CONTINUOUS
 62
     7
100
AcDbLine
 10
183.984587
 20
175.761077
 30
0.0
 11
184.885264
 21
174.637328
 31
0.0
  0
TEXT
  5
80F
100
AcDbEntity
  8
0
  6
CONTINUOUS
 62
     7
100
AcDbText
 10
181.031586
 20
175.897123
 30
0.0
 40
2.0
  1
f
  7
ROMANS
100
AcDbText
  0
LINE
  5
810
100
AcDbEntity
  8
0
  6
CONTINUOUS
 62
     7
100
AcDbLine
 10
182.699612
 20
182.015954
 30
0.0
 11
186.991619
 21
182.015954
 31
0.0
  0
TEXT
  5
813
100
AcDbEntity
  8
0
  6
CONTINUOUS
 62
     7
100
AcDbText
 10
197.940133
 20
171.333336
 30
0.0
 40
1.5
  1
n
  7
ROMANS
100
AcDbText
  0
LINE
  5
814
100
AcDbEntity
  8
0
  6
CONTINUOUS
 62
     7
100
AcDbLine
 10
237.5
 20
165.0
 30
0.0
 11
202.950615
 21
165.0
 31
0.0
  0
TEXT
  5
815
100
AcDbEntity
  8
0
  6
DASHED
 62
     7
100
AcDbText
 10
55.53868
 20
111.519183
 30
0.0
 40
2.0
  1
2)
  7
ROMANS
100
AcDbText
  0
TEXT
  5
816
100
AcDbEntity
  8
0
  6
CONTINUOUS
 62
     7
100
AcDbText
 10
70.525689
 20
89.432006
 30
0.0
 40
2.0
  1
108:71
  7
ROMANS
100
AcDbText
  0
TEXT
  5
817
100
AcDbEntity
  8
0
  6
CONTINUOUS
 62
     7
100
AcDbText
 10
70.525689
 20
94.432006
 30
0.0
 40
2.0
  1
108:70
  7
ROMANS
100
AcDbText
  0
TEXT
  5
818
100
AcDbEntity
  8
0
  6
CONTINUOUS
 62
     7
100
AcDbText
 10
70.525689
 20
101.932006
 30
0.0
 40
2.0
  1
108:68
  7
ROMANS
100
AcDbText
  0
TEXT
  5
819
100
AcDbEntity
  8
0
  6
CONTINUOUS
 62
     7
100
AcDbText
 10
70.529229
 20
106.932006
 30
0.0
 40
2.0
  1
17A
  7
ROMANS
100
AcDbText
  0
TEXT
  5
81A
100
AcDbEntity
  8
0
  6
CONTINUOUS
 62
     7
100
AcDbText
 10
70.529229
 20
111.932006
 30
0.0
 40
2.0
  1
16A
  7
ROMANS
100
AcDbText
  0
LINE
  5
81B
100
AcDbEntity
  8
0
  6
CONTINUOUS
 62
     7
100
AcDbLine
 10
62.5
 20
115.0
 30
0.0
 11
63.5
 21
116.0
 31
0.0
  0
LINE
  5
81C
100
AcDbEntity
  8
0
  6
CONTINUOUS
 62
     7
100
AcDbLine
 10
62.5
 20
109.999655
 30
0.0
 11
63.5
 21
108.999655
 31
0.0
  0
LINE
  5
81D
100
AcDbEntity
  8
0
  6
CONTINUOUS
 62
     7
100
AcDbLine
 10
62.5
 20
109.999655
 30
0.0
 11
62.5
 21
115.0
 31
0.0
  0
TEXT
  5
81E
100
AcDbEntity
  8
0
  6
CONTINUOUS
 62
     7
100
AcDbText
 10
250.269014
 20
159.338011
 30
0.0
 40
2.0
  1
4A
100
AcDbText
  0
TEXT
  5
81F
100
AcDbEntity
  8
0
  6
CONTINUOUS
 62
     7
100
AcDbText
 10
250.269014
 20
164.057266
 30
0.0
 40
2.0
  1
3A
100
AcDbText
  0
LINE
  5
820
100
AcDbEntity
  8
0
  6
CONTINUOUS
 62
     7
100
AcDbLine
 10
250.0
 20
162.5
 30
0.0
 11
255.0
 21
162.5
 31
0.0
  0
LINE
  5
821
100
AcDbEntity
  8
0
  6
CONTINUOUS
 62
     7
100
AcDbLine
 10
240.0
 20
162.482972
 30
0.0
 11
245.0
 21
162.482972
 31
0.0
  0
LINE
  5
822
100
AcDbEntity
  8
0
  6
CONTINUOUS
 62
     7
100
AcDbLine
 10
245.0
 20
162.482972
 30
0.0
 11
245.0
 21
165.265661
 31
0.0
  0
LINE
  5
823
100
AcDbEntity
  8
0
  6
CONTINUOUS
 62
     7
100
AcDbLine
 10
244.102827
 20
164.934804
 30
0.0
 11
243.657934
 21
164.049106
 31
0.0
  0
LINE
  5
824
100
AcDbEntity
  8
0
  6
CONTINUOUS
 62
     7
100
AcDbLine
 10
244.102827
 20
164.934804
 30
0.0
 11
250.0
 21
162.5
 31
0.0
  0
LINE
  5
825
100
AcDbEntity
  8
0
  6
CONTINUOUS
 62
     7
100
AcDbLine
 10
244.102827
 20
169.934804
 30
0.0
 11
250.0
 21
167.5
 31
0.0
  0
LINE
  5
826
100
AcDbEntity
  8
0
  6
CONTINUOUS
 62
     7
100
AcDbLine
 10
244.102827
 20
169.934804
 30
0.0
 11
243.657934
 21
169.049106
 31
0.0
  0
LINE
  5
827
100
AcDbEntity
  8
0
  6
CONTINUOUS
 62
     7
100
AcDbLine
 10
245.0
 20
167.482972
 30
0.0
 11
245.0
 21
170.265661
 31
0.0
  0
LINE
  5
828
100
AcDbEntity
  8
0
  6
CONTINUOUS
 62
     7
100
AcDbLine
 10
240.0
 20
167.482972
 30
0.0
 11
245.0
 21
167.482972
 31
0.0
  0
LINE
  5
829
100
AcDbEntity
  8
0
  6
CONTINUOUS
 62
     7
100
AcDbLine
 10
250.0
 20
167.5
 30
0.0
 11
255.0
 21
167.5
 31
0.0
  0
LINE
  5
82A
100
AcDbEntity
  8
0
  6
CONTINUOUS
 62
     7
100
AcDbLine
 10
237.5
 20
162.499655
 30
0.0
 11
237.5
 21
167.5
 31
0.0
  0
LINE
  5
82B
100
AcDbEntity
  8
0
  6
CONTINUOUS
 62
     7
100
AcDbLine
 10
237.5
 20
162.499655
 30
0.0
 11
238.5
 21
161.499655
 31
0.0
  0
LINE
  5
82C
100
AcDbEntity
  8
0
  6
CONTINUOUS
 62
     7
100
AcDbLine
 10
237.5
 20
167.5
 30
0.0
 11
238.5
 21
168.5
 31
0.0
  0
TEXT
  5
82D
100
AcDbEntity
  8
0
  6
CONTINUOUS
 62
     7
100
AcDbText
 10
245.467447
 20
172.526052
 30
0.0
 40
2.0
  1
101
  7
ROMANS
100
AcDbText
  0
LINE
  5
82E
100
AcDbEntity
  8
0
  6
CONTINUOUS
 62
     7
100
AcDbLine
 10
167.50793
 20
105.0
 30
0.0
 11
167.50793
 21
90.0
 31
0.0
  0
LINE
  5
82F
100
AcDbEntity
  8
0
  6
CONTINUOUS
 62
     7
100
AcDbLine
 10
167.5
 20
83.999996
 30
0.0
 11
167.5
 21
72.5
 31
0.0
  0
LINE
  5
830
100
AcDbEntity
  8
0
  6
CONTINUOUS
 62
     7
100
AcDbLine
 10
172.5
 20
83.999996
 30
0.0
 11
172.5
 21
72.5
 31
0.0
  0
LINE
  5
831
100
AcDbEntity
  8
0
  6
CONTINUOUS
 62
     7
100
AcDbLine
 10
172.482972
 20
110.0
 30
0.0
 11
172.482972
 21
90.0
 31
0.0
  0
LINE
  5
832
100
AcDbEntity
  8
0
  6
CONTINUOUS
 62
     7
100
AcDbLine
 10
182.5
 20
90.0
 30
0.0
 11
182.5
 21
93.587694
 31
0.0
  0
LINE
  5
833
100
AcDbEntity
  8
0
  6
CONTINUOUS
 62
     7
100
AcDbLine
 10
182.5
 20
94.78623
 30
0.0
 11
182.5
 21
97.28623
 31
0.0
  0
LINE
  5
834
100
AcDbEntity
  8
0
  6
CONTINUOUS
 62
     7
100
AcDbLine
 10
182.5
 20
83.999996
 30
0.0
 11
182.5
 21
72.5
 31
0.0
  0
LINE
  5
835
100
AcDbEntity
  8
0
  6
CONTINUOUS
 62
     7
100
AcDbLine
 10
182.5
 20
83.999996
 30
0.0
 11
184.934804
 21
90.662841
 31
0.0
  0
LINE
  5
836
100
AcDbEntity
  8
0
  6
CONTINUOUS
 62
     7
100
AcDbLine
 10
182.5
 20
90.0
 30
0.0
 11
185.265661
 21
90.0
 31
0.0
  0
LINE
  5
837
100
AcDbEntity
  8
0
  6
CONTINUOUS
 62
     7
100
AcDbLine
 10
184.934804
 20
90.662841
 30
0.0
 11
184.049106
 21
91.107734
 31
0.0
  0
LINE
  5
838
100
AcDbEntity
  8
0
  6
CONTINUOUS
 62
     7
100
AcDbLine
 10
172.5
 20
90.0
 30
0.0
 11
175.265661
 21
90.0
 31
0.0
  0
LINE
  5
839
100
AcDbEntity
  8
0
  6
CONTINUOUS
 62
     7
100
AcDbLine
 10
174.934804
 20
90.662841
 30
0.0
 11
174.049106
 21
91.107734
 31
0.0
  0
LINE
  5
83A
100
AcDbEntity
  8
0
  6
CONTINUOUS
 62
     7
100
AcDbLine
 10
172.5
 20
83.999996
 30
0.0
 11
174.934804
 21
90.662841
 31
0.0
  0
LINE
  5
83B
100
AcDbEntity
  8
0
  6
CONTINUOUS
 62
     7
100
AcDbLine
 10
167.5
 20
83.999996
 30
0.0
 11
169.934804
 21
90.662841
 31
0.0
  0
LINE
  5
83C
100
AcDbEntity
  8
0
  6
CONTINUOUS
 62
     7
100
AcDbLine
 10
167.5
 20
90.0
 30
0.0
 11
170.265661
 21
90.0
 31
0.0
  0
TEXT
  5
83D
100
AcDbEntity
  8
0
  6
CONTINUOUS
 62
     7
100
AcDbText
 10
170.840325
 20
73.561614
 30
0.0
 40
2.0
  1
101:2A
 50
90.0
  7
ROMANS
100
AcDbText
  0
LINE
  5
83E
100
AcDbEntity
  8
0
  6
CONTINUOUS
 62
     7
100
AcDbLine
 10
177.5
 20
90.0
 30
0.0
 11
180.265661
 21
90.0
 31
0.0
  0
LINE
  5
83F
100
AcDbEntity
  8
0
  6
CONTINUOUS
 62
     7
100
AcDbLine
 10
177.5
 20
83.999996
 30
0.0
 11
179.934804
 21
90.662841
 31
0.0
  0
LINE
  5
840
100
AcDbEntity
  8
0
  6
CONTINUOUS
 62
     7
100
AcDbLine
 10
177.5
 20
83.999996
 30
0.0
 11
177.5
 21
72.5
 31
0.0
  0
LINE
  5
841
100
AcDbEntity
  8
0
  6
CONTINUOUS
 62
     7
100
AcDbLine
 10
177.50793
 20
115.0
 30
0.0
 11
177.50793
 21
90.0
 31
0.0
  0
TEXT
  5
842
100
AcDbEntity
  8
0
  6
CONTINUOUS
 62
     7
100
AcDbText
 10
185.681062
 20
73.561614
 30
0.0
 40
2.0
  1
101:18A
 50
90.0
  7
ROMANS
100
AcDbText
  0
LINE
  5
844
100
AcDbEntity
  8
0
  6
DASHED
 62
     7
100
AcDbLine
 10
182.5
 20
72.5
 30
0.0
 11
182.5
 21
65.0
 31
0.0
  0
LINE
  5
849
100
AcDbEntity
  8
0
  6
CONTINUOUS
 62
     7
100
AcDbLine
 10
77.5
 20
115.0
 30
0.0
 11
77.5
 21
117.765661
 31
0.0
  0
LINE
  5
84A
100
AcDbEntity
  8
0
  6
CONTINUOUS
 62
     7
100
AcDbLine
 10
83.500004
 20
115.0
 30
0.0
 11
76.837159
 21
117.434804
 31
0.0
  0
LINE
  5
84B
100
AcDbEntity
  8
0
  6
CONTINUOUS
 62
     7
100
AcDbLine
 10
83.500004
 20
182.5
 30
0.0
 11
76.837159
 21
184.934804
 31
0.0
  0
LINE
  5
84C
100
AcDbEntity
  8
0
  6
CONTINUOUS
 62
     7
100
AcDbLine
 10
77.5
 20
182.5
 30
0.0
 11
77.5
 21
185.265661
 31
0.0
  0
LINE
  5
84D
100
AcDbEntity
  8
0
  6
CONTINUOUS
 62
     7
100
AcDbLine
 10
76.837159
 20
184.934804
 30
0.0
 11
76.392266
 21
184.049106
 31
0.0
  0
LINE
  5
84E
100
AcDbEntity
  8
0
  6
CONTINUOUS
 62
     7
100
AcDbLine
 10
83.500004
 20
182.5
 30
0.0
 11
94.316438
 21
182.5
 31
0.0
  0
LINE
  5
84F
100
AcDbEntity
  8
0
  6
CONTINUOUS
 62
     7
100
AcDbLine
 10
77.5
 20
182.5
 30
0.0
 11
70.0
 21
182.5
 31
0.0
  0
TEXT
  5
850
100
AcDbEntity
  8
0
  6
CONTINUOUS
 62
     7
100
AcDbText
 10
77.646407
 20
186.485811
 30
0.0
 40
2.0
  1
101
  7
ROMANS
100
AcDbText
  0
LINE
  5
851
100
AcDbEntity
  8
0
  6
CONTINUOUS
 62
     7
100
AcDbLine
 10
77.5
 20
167.5
 30
0.0
 11
77.5
 21
170.265661
 31
0.0
  0
LINE
  5
852
100
AcDbEntity
  8
0
  6
CONTINUOUS
 62
     7
100
AcDbLine
 10
83.500004
 20
167.5
 30
0.0
 11
76.837159
 21
169.934804
 31
0.0
  0
TEXT
  5
853
100
AcDbEntity
  8
0
  6
CONTINUOUS
 62
     7
100
AcDbText
 10
77.646407
 20
169.845638
 30
0.0
 40
2.0
  1
101
  7
ROMANS
100
AcDbText
  0
LINE
  5
854
100
AcDbEntity
  8
0
  6
CONTINUOUS
 62
     7
100
AcDbLine
 10
76.837159
 20
169.934804
 30
0.0
 11
76.392266
 21
169.049106
 31
0.0
  0
LINE
  5
855
100
AcDbEntity
  8
0
  6
CONTINUOUS
 62
     7
100
AcDbLine
 10
83.500004
 20
167.5
 30
0.0
 11
94.316438
 21
167.5
 31
0.0
  0
LINE
  5
856
100
AcDbEntity
  8
0
  6
CONTINUOUS
 62
     7
100
AcDbLine
 10
77.5
 20
167.5
 30
0.0
 11
70.0
 21
167.5
 31
0.0
  0
TEXT
  5
857
100
AcDbEntity
  8
0
  6
CONTINUOUS
 62
     7
100
AcDbText
 10
71.476696
 20
164.432006
 30
0.0
 40
2.0
  1
10A
  7
ROMANS
100
AcDbText
  0
TEXT
  5
858
100
AcDbEntity
  8
0
  6
CONTINUOUS
 62
     7
100
AcDbText
 10
77.646407
 20
154.845638
 30
0.0
 40
2.0
  1
101
  7
ROMANS
100
AcDbText
  0
LINE
  5
859
100
AcDbEntity
  8
0
  6
CONTINUOUS
 62
     7
100
AcDbLine
 10
76.837159
 20
154.934804
 30
0.0
 11
76.392266
 21
154.049106
 31
0.0
  0
LINE
  5
85A
100
AcDbEntity
  8
0
  6
CONTINUOUS
 62
     7
100
AcDbLine
 10
83.500004
 20
152.5
 30
0.0
 11
76.837159
 21
154.934804
 31
0.0
  0
LINE
  5
85B
100
AcDbEntity
  8
0
  6
CONTINUOUS
 62
     7
100
AcDbLine
 10
77.5
 20
152.5
 30
0.0
 11
77.5
 21
155.265661
 31
0.0
  0
TEXT
  5
85C
100
AcDbEntity
  8
0
  6
CONTINUOUS
 62
     7
100
AcDbText
 10
71.476696
 20
149.432006
 30
0.0
 40
2.0
  1
9A
  7
ROMANS
100
AcDbText
  0
LINE
  5
85D
100
AcDbEntity
  8
0
  6
CONTINUOUS
 62
     7
100
AcDbLine
 10
77.5
 20
152.5
 30
0.0
 11
70.0
 21
152.5
 31
0.0
  0
LINE
  5
85E
100
AcDbEntity
  8
0
  6
CONTINUOUS
 62
     7
100
AcDbLine
 10
83.500004
 20
152.5
 30
0.0
 11
94.316438
 21
152.5
 31
0.0
  0
LINE
  5
85F
100
AcDbEntity
  8
0
  6
CONTINUOUS
 62
     7
100
AcDbLine
 10
83.500004
 20
137.5
 30
0.0
 11
76.837159
 21
139.934804
 31
0.0
  0
TEXT
  5
860
100
AcDbEntity
  8
0
  6
CONTINUOUS
 62
     7
100
AcDbText
 10
77.646407
 20
139.845638
 30
0.0
 40
2.0
  1
101
  7
ROMANS
100
AcDbText
  0
LINE
  5
861
100
AcDbEntity
  8
0
  6
CONTINUOUS
 62
     7
100
AcDbLine
 10
76.837159
 20
139.934804
 30
0.0
 11
76.392266
 21
139.049106
 31
0.0
  0
LINE
  5
862
100
AcDbEntity
  8
0
  6
CONTINUOUS
 62
     7
100
AcDbLine
 10
77.5
 20
137.5
 30
0.0
 11
77.5
 21
140.265661
 31
0.0
  0
TEXT
  5
863
100
AcDbEntity
  8
0
  6
CONTINUOUS
 62
     7
100
AcDbText
 10
71.476696
 20
134.432006
 30
0.0
 40
2.0
  1
11A
  7
ROMANS
100
AcDbText
  0
LINE
  5
864
100
AcDbEntity
  8
0
  6
CONTINUOUS
 62
     7
100
AcDbLine
 10
77.5
 20
137.5
 30
0.0
 11
70.0
 21
137.5
 31
0.0
  0
LINE
  5
865
100
AcDbEntity
  8
0
  6
CONTINUOUS
 62
     7
100
AcDbLine
 10
83.500004
 20
137.5
 30
0.0
 11
94.316438
 21
137.5
 31
0.0
  0
LINE
  5
866
100
AcDbEntity
  8
0
  6
CONTINUOUS
 62
     7
100
AcDbLine
 10
77.5
 20
115.0
 30
0.0
 11
70.0
 21
115.0
 31
0.0
  0
TEXT
  5
867
100
AcDbEntity
  8
0
  6
CONTINUOUS
 62
     7
100
AcDbText
 10
77.646407
 20
118.29249
 30
0.0
 40
2.0
  1
101
  7
ROMANS
100
AcDbText
  0
LINE
  5
868
100
AcDbEntity
  8
0
  6
CONTINUOUS
 62
     7
100
AcDbLine
 10
83.500004
 20
110.0
 30
0.0
 11
76.837159
 21
112.434804
 31
0.0
  0
LINE
  5
869
100
AcDbEntity
  8
0
  6
CONTINUOUS
 62
     7
100
AcDbLine
 10
77.5
 20
110.0
 30
0.0
 11
77.5
 21
112.765661
 31
0.0
  0
LINE
  5
86A
100
AcDbEntity
  8
0
  6
CONTINUOUS
 62
     7
100
AcDbLine
 10
77.5
 20
110.0
 30
0.0
 11
70.0
 21
110.0
 31
0.0
  0
TEXT
  5
86B
100
AcDbEntity
  8
0
  6
CONTINUOUS
 62
     7
100
AcDbText
 10
70.525689
 20
66.932006
 30
0.0
 40
2.0
  1
DIM. 185 X 147
  7
ROMANS
100
AcDbText
  0
TEXT
  5
86C
100
AcDbEntity
  8
0
  6
CONTINUOUS
 62
     7
100
AcDbText
 10
70.525689
 20
63.2923
 30
0.0
 40
2.0
  1
1MRS 10226-AAA
  7
ROMANS
100
AcDbText
  0
TEXT
  5
86D
100
AcDbEntity
  8
0
  6
DASHED
 62
     7
100
AcDbText
 10
317.5
 20
20.853501
 30
0.0
 40
2.0
  1
SPAF 140 C MED PROVDON
  7
ROMANS
100
AcDbText
  0
TEXT
  5
872
100
AcDbEntity
  8
0
  6
CONTINUOUS
 62
     7
100
AcDbText
 10
161.853328
 20
61.513635
 30
0.0
 40
2.0
  1
+
100
AcDbText
  0
TEXT
  5
873
100
AcDbEntity
  8
0
  6
CONTINUOUS
 62
     7
100
AcDbText
 10
166.853328
 20
61.513635
 30
0.0
 40
2.0
  1
+
100
AcDbText
  0
TEXT
  5
874
100
AcDbEntity
  8
0
  6
CONTINUOUS
 62
     7
100
AcDbText
 10
171.853328
 20
61.513635
 30
0.0
 40
2.0
  1
+
100
AcDbText
  0
TEXT
  5
875
100
AcDbEntity
  8
0
  6
CONTINUOUS
 62
     7
100
AcDbText
 10
176.853328
 20
61.513635
 30
0.0
 40
2.0
  1
+
100
AcDbText
  0
TEXT
  5
876
100
AcDbEntity
  8
0
  6
CONTINUOUS
 62
     7
100
AcDbText
 10
181.844763
 20
61.50558
 30
0.0
 40
2.0
  1
-
100
AcDbText
  0
LINE
  5
877
100
AcDbEntity
  8
0
  6
CONTINUOUS
 62
     7
100
AcDbLine
 10
199.276853
 20
164.459248
 30
0.0
 11
197.658998
 21
165.38023
 31
0.0
  0
LINE
  5
878
100
AcDbEntity
  8
0
  6
CONTINUOUS
 62
     7
100
AcDbLine
 10
197.658998
 20
165.38023
 30
0.0
 11
199.276853
 21
166.200908
 31
0.0
  0
LINE
  5
879
100
AcDbEntity
  8
0
  6
CONTINUOUS
 62
     7
100
AcDbLine
 10
197.611664
 20
167.854851
 30
0.0
 11
199.229519
 21
166.933869
 31
0.0
  0
LINE
  5
87A
100
AcDbEntity
  8
0
  6
CONTINUOUS
 62
     7
100
AcDbLine
 10
199.229519
 20
166.933869
 30
0.0
 11
197.611664
 21
166.113191
 31
0.0
  0
LINE
  5
87B
100
AcDbEntity
  8
0
  6
CONTINUOUS
 62
     7
100
AcDbLine
 10
370.63318
 20
232.223169
 30
0.0
 11
372.251035
 21
231.302187
 31
0.0
  0
LINE
  5
87C
100
AcDbEntity
  8
0
  6
CONTINUOUS
 62
     7
100
AcDbLine
 10
372.251035
 20
231.302187
 30
0.0
 11
370.63318
 21
230.481509
 31
0.0
  0
LINE
  5
87D
100
AcDbEntity
  8
0
  6
CONTINUOUS
 62
     7
100
AcDbLine
 10
372.298369
 20
228.890222
 30
0.0
 11
370.680514
 21
229.811205
 31
0.0
  0
LINE
  5
87E
100
AcDbEntity
  8
0
  6
CONTINUOUS
 62
     7
100
AcDbLine
 10
370.680514
 20
229.811205
 30
0.0
 11
372.298369
 21
230.631882
 31
0.0
  0
LINE
  5
87F
100
AcDbEntity
  8
0
  6
CONTINUOUS
 62
     7
100
AcDbLine
 10
365.426873
 20
240.601981
 30
0.0
 11
367.044728
 21
239.680999
 31
0.0
  0
LINE
  5
880
100
AcDbEntity
  8
0
  6
CONTINUOUS
 62
     7
100
AcDbLine
 10
367.044728
 20
239.680999
 30
0.0
 11
365.426873
 21
238.860321
 31
0.0
  0
LINE
  5
881
100
AcDbEntity
  8
0
  6
CONTINUOUS
 62
     7
100
AcDbLine
 10
367.092062
 20
237.213667
 30
0.0
 11
365.474207
 21
238.134649
 31
0.0
  0
LINE
  5
882
100
AcDbEntity
  8
0
  6
CONTINUOUS
 62
     7
100
AcDbLine
 10
365.474207
 20
238.134649
 30
0.0
 11
367.092062
 21
238.955326
 31
0.0
  0
LINE
  5
883
100
AcDbEntity
  8
0
  6
CONTINUOUS
 62
     7
100
AcDbLine
 10
163.510069
 20
176.138928
 30
0.0
 11
161.274289
 21
175.744699
 31
0.0
  0
LINE
  5
884
100
AcDbEntity
  8
0
  6
CONTINUOUS
 62
     7
100
AcDbLine
 10
163.510069
 20
176.102075
 30
0.0
 11
161.36068
 21
175.72308
 31
0.0
  0
LINE
  5
885
100
AcDbEntity
  8
0
  6
CONTINUOUS
 62
     7
100
AcDbLine
 10
163.510069
 20
176.065223
 30
0.0
 11
161.447071
 21
175.701461
 31
0.0
  0
LINE
  5
886
100
AcDbEntity
  8
0
  6
CONTINUOUS
 62
     7
100
AcDbLine
 10
163.510069
 20
176.028371
 30
0.0
 11
161.533461
 21
175.679841
 31
0.0
  0
LINE
  5
887
100
AcDbEntity
  8
0
  6
CONTINUOUS
 62
     7
100
AcDbLine
 10
163.510069
 20
175.991518
 30
0.0
 11
161.619852
 21
175.658222
 31
0.0
  0
LINE
  5
888
100
AcDbEntity
  8
0
  6
CONTINUOUS
 62
     7
100
AcDbLine
 10
163.510069
 20
175.954666
 30
0.0
 11
161.706243
 21
175.636603
 31
0.0
  0
LINE
  5
889
100
AcDbEntity
  8
0
  6
CONTINUOUS
 62
     7
100
AcDbLine
 10
163.510069
 20
175.917813
 30
0.0
 11
161.792634
 21
175.614983
 31
0.0
  0
LINE
  5
88A
100
AcDbEntity
  8
0
  6
CONTINUOUS
 62
     7
100
AcDbLine
 10
163.510069
 20
175.880961
 30
0.0
 11
161.879025
 21
175.593364
 31
0.0
  0
LINE
  5
88B
100
AcDbEntity
  8
0
  6
CONTINUOUS
 62
     7
100
AcDbLine
 10
163.510069
 20
175.844109
 30
0.0
 11
161.965416
 21
175.571745
 31
0.0
  0
LINE
  5
88C
100
AcDbEntity
  8
0
  6
CONTINUOUS
 62
     7
100
AcDbLine
 10
163.510069
 20
175.807256
 30
0.0
 11
162.051806
 21
175.550125
 31
0.0
  0
LINE
  5
88D
100
AcDbEntity
  8
0
  6
CONTINUOUS
 62
     7
100
AcDbLine
 10
163.510069
 20
175.770404
 30
0.0
 11
162.138197
 21
175.528506
 31
0.0
  0
LINE
  5
88E
100
AcDbEntity
  8
0
  6
CONTINUOUS
 62
     7
100
AcDbLine
 10
163.510069
 20
175.733551
 30
0.0
 11
162.224588
 21
175.506887
 31
0.0
  0
LINE
  5
88F
100
AcDbEntity
  8
0
  6
CONTINUOUS
 62
     7
100
AcDbLine
 10
163.510069
 20
175.696699
 30
0.0
 11
162.310979
 21
175.485267
 31
0.0
  0
LINE
  5
890
100
AcDbEntity
  8
0
  6
CONTINUOUS
 62
     7
100
AcDbLine
 10
163.510069
 20
175.659847
 30
0.0
 11
162.39737
 21
175.463648
 31
0.0
  0
LINE
  5
891
100
AcDbEntity
  8
0
  6
CONTINUOUS
 62
     7
100
AcDbLine
 10
163.510069
 20
175.622994
 30
0.0
 11
162.483761
 21
175.442028
 31
0.0
  0
LINE
  5
892
100
AcDbEntity
  8
0
  6
CONTINUOUS
 62
     7
100
AcDbLine
 10
163.510069
 20
175.586142
 30
0.0
 11
162.570151
 21
175.420409
 31
0.0
  0
LINE
  5
893
100
AcDbEntity
  8
0
  6
CONTINUOUS
 62
     7
100
AcDbLine
 10
163.510069
 20
175.54929
 30
0.0
 11
162.656542
 21
175.39879
 31
0.0
  0
LINE
  5
894
100
AcDbEntity
  8
0
  6
CONTINUOUS
 62
     7
100
AcDbLine
 10
163.510069
 20
175.512437
 30
0.0
 11
162.742933
 21
175.37717
 31
0.0
  0
LINE
  5
895
100
AcDbEntity
  8
0
  6
CONTINUOUS
 62
     7
100
AcDbLine
 10
163.510069
 20
175.475585
 30
0.0
 11
162.829324
 21
175.355551
 31
0.0
  0
LINE
  5
896
100
AcDbEntity
  8
0
  6
CONTINUOUS
 62
     7
100
AcDbLine
 10
163.510069
 20
175.438732
 30
0.0
 11
162.915715
 21
175.333932
 31
0.0
  0
LINE
  5
897
100
AcDbEntity
  8
0
  6
CONTINUOUS
 62
     7
100
AcDbLine
 10
163.510069
 20
175.40188
 30
0.0
 11
163.002106
 21
175.312312
 31
0.0
  0
LINE
  5
898
100
AcDbEntity
  8
0
  6
CONTINUOUS
 62
     7
100
AcDbLine
 10
163.510069
 20
175.365028
 30
0.0
 11
163.088496
 21
175.290693
 31
0.0
  0
LINE
  5
899
100
AcDbEntity
  8
0
  6
CONTINUOUS
 62
     7
100
AcDbLine
 10
163.510069
 20
175.328175
 30
0.0
 11
163.174887
 21
175.269074
 31
0.0
  0
LINE
  5
89A
100
AcDbEntity
  8
0
  6
CONTINUOUS
 62
     7
100
AcDbLine
 10
163.510069
 20
175.291323
 30
0.0
 11
163.261278
 21
175.247454
 31
0.0
  0
LINE
  5
89B
100
AcDbEntity
  8
0
  6
CONTINUOUS
 62
     7
100
AcDbLine
 10
163.510069
 20
175.25447
 30
0.0
 11
163.347669
 21
175.225835
 31
0.0
  0
LINE
  5
89C
100
AcDbEntity
  8
0
  6
CONTINUOUS
 62
     7
100
AcDbLine
 10
163.510069
 20
175.217618
 30
0.0
 11
163.43406
 21
175.204216
 31
0.0
  0
LINE
  5
89D
100
AcDbEntity
  8
0
  6
CONTINUOUS
 62
     7
100
AcDbLine
 10
163.510069
 20
176.17578
 30
0.0
 11
161.187898
 21
175.766319
 31
0.0
  0
LINE
  5
89E
100
AcDbEntity
  8
0
  6
CONTINUOUS
 62
     7
100
AcDbLine
 10
163.510069
 20
176.212632
 30
0.0
 11
161.101507
 21
175.787938
 31
0.0
  0
LINE
  5
89F
100
AcDbEntity
  8
0
  6
CONTINUOUS
 62
     7
100
AcDbLine
 10
163.510069
 20
176.249485
 30
0.0
 11
161.015116
 21
175.809557
 31
0.0
  0
LINE
  5
8A0
100
AcDbEntity
  8
0
  6
CONTINUOUS
 62
     7
100
AcDbLine
 10
163.510069
 20
176.286337
 30
0.0
 11
160.928726
 21
175.831177
 31
0.0
  0
LINE
  5
8A1
100
AcDbEntity
  8
0
  6
CONTINUOUS
 62
     7
100
AcDbLine
 10
163.510069
 20
176.32319
 30
0.0
 11
160.842335
 21
175.852796
 31
0.0
  0
LINE
  5
8A2
100
AcDbEntity
  8
0
  6
CONTINUOUS
 62
     7
100
AcDbLine
 10
163.510069
 20
176.360042
 30
0.0
 11
160.800961
 21
175.882353
 31
0.0
  0
LINE
  5
8A3
100
AcDbEntity
  8
0
  6
CONTINUOUS
 62
     7
100
AcDbLine
 10
163.510069
 20
176.396894
 30
0.0
 11
161.299482
 21
176.007108
 31
0.0
  0
LINE
  5
8A4
100
AcDbEntity
  8
0
  6
CONTINUOUS
 62
     7
100
AcDbLine
 10
163.510069
 20
176.433747
 30
0.0
 11
161.798002
 21
176.131863
 31
0.0
  0
LINE
  5
8A5
100
AcDbEntity
  8
0
  6
CONTINUOUS
 62
     7
100
AcDbLine
 10
163.510069
 20
176.470599
 30
0.0
 11
162.296522
 21
176.256618
 31
0.0
  0
LINE
  5
8A6
100
AcDbEntity
  8
0
  6
CONTINUOUS
 62
     7
100
AcDbLine
 10
163.510069
 20
176.507452
 30
0.0
 11
162.795042
 21
176.381373
 31
0.0
  0
LINE
  5
8A7
100
AcDbEntity
  8
0
  6
CONTINUOUS
 62
     7
100
AcDbLine
 10
163.510069
 20
176.544304
 30
0.0
 11
163.293563
 21
176.506128
 31
0.0
  0
LINE
  5
8A8
100
AcDbEntity
  8
0
  6
CONTINUOUS
 62
     7
100
AcDbLine
 10
163.510069
 20
168.638928
 30
0.0
 11
161.274289
 21
168.244699
 31
0.0
  0
LINE
  5
8A9
100
AcDbEntity
  8
0
  6
CONTINUOUS
 62
     7
100
AcDbLine
 10
163.510069
 20
168.602075
 30
0.0
 11
161.36068
 21
168.22308
 31
0.0
  0
LINE
  5
8AA
100
AcDbEntity
  8
0
  6
CONTINUOUS
 62
     7
100
AcDbLine
 10
163.510069
 20
168.565223
 30
0.0
 11
161.447071
 21
168.201461
 31
0.0
  0
LINE
  5
8AB
100
AcDbEntity
  8
0
  6
CONTINUOUS
 62
     7
100
AcDbLine
 10
163.510069
 20
168.528371
 30
0.0
 11
161.533461
 21
168.179841
 31
0.0
  0
LINE
  5
8AC
100
AcDbEntity
  8
0
  6
CONTINUOUS
 62
     7
100
AcDbLine
 10
163.510069
 20
168.491518
 30
0.0
 11
161.619852
 21
168.158222
 31
0.0
  0
LINE
  5
8AD
100
AcDbEntity
  8
0
  6
CONTINUOUS
 62
     7
100
AcDbLine
 10
163.510069
 20
168.454666
 30
0.0
 11
161.706243
 21
168.136603
 31
0.0
  0
LINE
  5
8AE
100
AcDbEntity
  8
0
  6
CONTINUOUS
 62
     7
100
AcDbLine
 10
163.510069
 20
168.417813
 30
0.0
 11
161.792634
 21
168.114983
 31
0.0
  0
LINE
  5
8AF
100
AcDbEntity
  8
0
  6
CONTINUOUS
 62
     7
100
AcDbLine
 10
163.510069
 20
168.380961
 30
0.0
 11
161.879025
 21
168.093364
 31
0.0
  0
LINE
  5
8B0
100
AcDbEntity
  8
0
  6
CONTINUOUS
 62
     7
100
AcDbLine
 10
163.510069
 20
168.344109
 30
0.0
 11
161.965416
 21
168.071745
 31
0.0
  0
LINE
  5
8B1
100
AcDbEntity
  8
0
  6
CONTINUOUS
 62
     7
100
AcDbLine
 10
163.510069
 20
168.307256
 30
0.0
 11
162.051806
 21
168.050125
 31
0.0
  0
LINE
  5
8B2
100
AcDbEntity
  8
0
  6
CONTINUOUS
 62
     7
100
AcDbLine
 10
163.510069
 20
168.270404
 30
0.0
 11
162.138197
 21
168.028506
 31
0.0
  0
LINE
  5
8B3
100
AcDbEntity
  8
0
  6
CONTINUOUS
 62
     7
100
AcDbLine
 10
163.510069
 20
168.233551
 30
0.0
 11
162.224588
 21
168.006887
 31
0.0
  0
LINE
  5
8B4
100
AcDbEntity
  8
0
  6
CONTINUOUS
 62
     7
100
AcDbLine
 10
163.510069
 20
168.196699
 30
0.0
 11
162.310979
 21
167.985267
 31
0.0
  0
LINE
  5
8B5
100
AcDbEntity
  8
0
  6
CONTINUOUS
 62
     7
100
AcDbLine
 10
163.510069
 20
168.159847
 30
0.0
 11
162.39737
 21
167.963648
 31
0.0
  0
LINE
  5
8B6
100
AcDbEntity
  8
0
  6
CONTINUOUS
 62
     7
100
AcDbLine
 10
163.510069
 20
168.122994
 30
0.0
 11
162.483761
 21
167.942028
 31
0.0
  0
LINE
  5
8B7
100
AcDbEntity
  8
0
  6
CONTINUOUS
 62
     7
100
AcDbLine
 10
163.510069
 20
168.086142
 30
0.0
 11
162.570151
 21
167.920409
 31
0.0
  0
LINE
  5
8B8
100
AcDbEntity
  8
0
  6
CONTINUOUS
 62
     7
100
AcDbLine
 10
163.510069
 20
168.04929
 30
0.0
 11
162.656542
 21
167.89879
 31
0.0
  0
LINE
  5
8B9
100
AcDbEntity
  8
0
  6
CONTINUOUS
 62
     7
100
AcDbLine
 10
163.510069
 20
168.012437
 30
0.0
 11
162.742933
 21
167.87717
 31
0.0
  0
LINE
  5
8BA
100
AcDbEntity
  8
0
  6
CONTINUOUS
 62
     7
100
AcDbLine
 10
163.510069
 20
167.975585
 30
0.0
 11
162.829324
 21
167.855551
 31
0.0
  0
LINE
  5
8BB
100
AcDbEntity
  8
0
  6
CONTINUOUS
 62
     7
100
AcDbLine
 10
163.510069
 20
167.938732
 30
0.0
 11
162.915715
 21
167.833932
 31
0.0
  0
LINE
  5
8BC
100
AcDbEntity
  8
0
  6
CONTINUOUS
 62
     7
100
AcDbLine
 10
163.510069
 20
167.90188
 30
0.0
 11
163.002106
 21
167.812312
 31
0.0
  0
LINE
  5
8BD
100
AcDbEntity
  8
0
  6
CONTINUOUS
 62
     7
100
AcDbLine
 10
163.510069
 20
167.865028
 30
0.0
 11
163.088496
 21
167.790693
 31
0.0
  0
LINE
  5
8BE
100
AcDbEntity
  8
0
  6
CONTINUOUS
 62
     7
100
AcDbLine
 10
163.510069
 20
167.828175
 30
0.0
 11
163.174887
 21
167.769074
 31
0.0
  0
LINE
  5
8BF
100
AcDbEntity
  8
0
  6
CONTINUOUS
 62
     7
100
AcDbLine
 10
163.510069
 20
167.791323
 30
0.0
 11
163.261278
 21
167.747454
 31
0.0
  0
LINE
  5
8C0
100
AcDbEntity
  8
0
  6
CONTINUOUS
 62
     7
100
AcDbLine
 10
163.510069
 20
167.75447
 30
0.0
 11
163.347669
 21
167.725835
 31
0.0
  0
LINE
  5
8C1
100
AcDbEntity
  8
0
  6
CONTINUOUS
 62
     7
100
AcDbLine
 10
163.510069
 20
167.717618
 30
0.0
 11
163.43406
 21
167.704216
 31
0.0
  0
LINE
  5
8C2
100
AcDbEntity
  8
0
  6
CONTINUOUS
 62
     7
100
AcDbLine
 10
163.510069
 20
168.67578
 30
0.0
 11
161.187898
 21
168.266319
 31
0.0
  0
LINE
  5
8C3
100
AcDbEntity
  8
0
  6
CONTINUOUS
 62
     7
100
AcDbLine
 10
163.510069
 20
168.712632
 30
0.0
 11
161.101507
 21
168.287938
 31
0.0
  0
LINE
  5
8C4
100
AcDbEntity
  8
0
  6
CONTINUOUS
 62
     7
100
AcDbLine
 10
163.510069
 20
168.749485
 30
0.0
 11
161.015116
 21
168.309557
 31
0.0
  0
LINE
  5
8C5
100
AcDbEntity
  8
0
  6
CONTINUOUS
 62
     7
100
AcDbLine
 10
163.510069
 20
168.786337
 30
0.0
 11
160.928726
 21
168.331177
 31
0.0
  0
LINE
  5
8C6
100
AcDbEntity
  8
0
  6
CONTINUOUS
 62
     7
100
AcDbLine
 10
163.510069
 20
168.82319
 30
0.0
 11
160.842335
 21
168.352796
 31
0.0
  0
LINE
  5
8C7
100
AcDbEntity
  8
0
  6
CONTINUOUS
 62
     7
100
AcDbLine
 10
163.510069
 20
168.860042
 30
0.0
 11
160.800961
 21
168.382353
 31
0.0
  0
LINE
  5
8C8
100
AcDbEntity
  8
0
  6
CONTINUOUS
 62
     7
100
AcDbLine
 10
163.510069
 20
168.896894
 30
0.0
 11
161.299482
 21
168.507108
 31
0.0
  0
LINE
  5
8C9
100
AcDbEntity
  8
0
  6
CONTINUOUS
 62
     7
100
AcDbLine
 10
163.510069
 20
168.933747
 30
0.0
 11
161.798002
 21
168.631863
 31
0.0
  0
LINE
  5
8CA
100
AcDbEntity
  8
0
  6
CONTINUOUS
 62
     7
100
AcDbLine
 10
163.510069
 20
168.970599
 30
0.0
 11
162.296522
 21
168.756618
 31
0.0
  0
LINE
  5
8CB
100
AcDbEntity
  8
0
  6
CONTINUOUS
 62
     7
100
AcDbLine
 10
163.510069
 20
169.007452
 30
0.0
 11
162.795042
 21
168.881373
 31
0.0
  0
LINE
  5
8CC
100
AcDbEntity
  8
0
  6
CONTINUOUS
 62
     7
100
AcDbLine
 10
163.510069
 20
169.044304
 30
0.0
 11
163.293563
 21
169.006128
 31
0.0
  0
LINE
  5
8CD
100
AcDbEntity
  8
0
  6
CONTINUOUS
 62
     7
100
AcDbLine
 10
163.510069
 20
161.138928
 30
0.0
 11
161.274289
 21
160.744699
 31
0.0
  0
LINE
  5
8CE
100
AcDbEntity
  8
0
  6
CONTINUOUS
 62
     7
100
AcDbLine
 10
163.510069
 20
161.102075
 30
0.0
 11
161.36068
 21
160.72308
 31
0.0
  0
LINE
  5
8CF
100
AcDbEntity
  8
0
  6
CONTINUOUS
 62
     7
100
AcDbLine
 10
163.510069
 20
161.065223
 30
0.0
 11
161.447071
 21
160.701461
 31
0.0
  0
LINE
  5
8D0
100
AcDbEntity
  8
0
  6
CONTINUOUS
 62
     7
100
AcDbLine
 10
163.510069
 20
161.028371
 30
0.0
 11
161.533461
 21
160.679841
 31
0.0
  0
LINE
  5
8D1
100
AcDbEntity
  8
0
  6
CONTINUOUS
 62
     7
100
AcDbLine
 10
163.510069
 20
160.991518
 30
0.0
 11
161.619852
 21
160.658222
 31
0.0
  0
LINE
  5
8D2
100
AcDbEntity
  8
0
  6
CONTINUOUS
 62
     7
100
AcDbLine
 10
163.510069
 20
160.954666
 30
0.0
 11
161.706243
 21
160.636603
 31
0.0
  0
LINE
  5
8D3
100
AcDbEntity
  8
0
  6
CONTINUOUS
 62
     7
100
AcDbLine
 10
163.510069
 20
160.917813
 30
0.0
 11
161.792634
 21
160.614983
 31
0.0
  0
LINE
  5
8D4
100
AcDbEntity
  8
0
  6
CONTINUOUS
 62
     7
100
AcDbLine
 10
163.510069
 20
160.880961
 30
0.0
 11
161.879025
 21
160.593364
 31
0.0
  0
LINE
  5
8D5
100
AcDbEntity
  8
0
  6
CONTINUOUS
 62
     7
100
AcDbLine
 10
163.510069
 20
160.844109
 30
0.0
 11
161.965416
 21
160.571745
 31
0.0
  0
LINE
  5
8D6
100
AcDbEntity
  8
0
  6
CONTINUOUS
 62
     7
100
AcDbLine
 10
163.510069
 20
160.807256
 30
0.0
 11
162.051806
 21
160.550125
 31
0.0
  0
LINE
  5
8D7
100
AcDbEntity
  8
0
  6
CONTINUOUS
 62
     7
100
AcDbLine
 10
163.510069
 20
160.770404
 30
0.0
 11
162.138197
 21
160.528506
 31
0.0
  0
LINE
  5
8D8
100
AcDbEntity
  8
0
  6
CONTINUOUS
 62
     7
100
AcDbLine
 10
163.510069
 20
160.733551
 30
0.0
 11
162.224588
 21
160.506887
 31
0.0
  0
LINE
  5
8D9
100
AcDbEntity
  8
0
  6
CONTINUOUS
 62
     7
100
AcDbLine
 10
163.510069
 20
160.696699
 30
0.0
 11
162.310979
 21
160.485267
 31
0.0
  0
LINE
  5
8DA
100
AcDbEntity
  8
0
  6
CONTINUOUS
 62
     7
100
AcDbLine
 10
163.510069
 20
160.659847
 30
0.0
 11
162.39737
 21
160.463648
 31
0.0
  0
LINE
  5
8DB
100
AcDbEntity
  8
0
  6
CONTINUOUS
 62
     7
100
AcDbLine
 10
163.510069
 20
160.622994
 30
0.0
 11
162.483761
 21
160.442028
 31
0.0
  0
LINE
  5
8DC
100
AcDbEntity
  8
0
  6
CONTINUOUS
 62
     7
100
AcDbLine
 10
163.510069
 20
160.586142
 30
0.0
 11
162.570151
 21
160.420409
 31
0.0
  0
LINE
  5
8DD
100
AcDbEntity
  8
0
  6
CONTINUOUS
 62
     7
100
AcDbLine
 10
163.510069
 20
160.54929
 30
0.0
 11
162.656542
 21
160.39879
 31
0.0
  0
LINE
  5
8DE
100
AcDbEntity
  8
0
  6
CONTINUOUS
 62
     7
100
AcDbLine
 10
163.510069
 20
160.512437
 30
0.0
 11
162.742933
 21
160.37717
 31
0.0
  0
LINE
  5
8DF
100
AcDbEntity
  8
0
  6
CONTINUOUS
 62
     7
100
AcDbLine
 10
163.510069
 20
160.475585
 30
0.0
 11
162.829324
 21
160.355551
 31
0.0
  0
LINE
  5
8E0
100
AcDbEntity
  8
0
  6
CONTINUOUS
 62
     7
100
AcDbLine
 10
163.510069
 20
160.438732
 30
0.0
 11
162.915715
 21
160.333932
 31
0.0
  0
LINE
  5
8E1
100
AcDbEntity
  8
0
  6
CONTINUOUS
 62
     7
100
AcDbLine
 10
163.510069
 20
160.40188
 30
0.0
 11
163.002106
 21
160.312312
 31
0.0
  0
LINE
  5
8E2
100
AcDbEntity
  8
0
  6
CONTINUOUS
 62
     7
100
AcDbLine
 10
163.510069
 20
160.365028
 30
0.0
 11
163.088496
 21
160.290693
 31
0.0
  0
LINE
  5
8E3
100
AcDbEntity
  8
0
  6
CONTINUOUS
 62
     7
100
AcDbLine
 10
163.510069
 20
160.328175
 30
0.0
 11
163.174887
 21
160.269074
 31
0.0
  0
LINE
  5
8E4
100
AcDbEntity
  8
0
  6
CONTINUOUS
 62
     7
100
AcDbLine
 10
163.510069
 20
160.291323
 30
0.0
 11
163.261278
 21
160.247454
 31
0.0
  0
LINE
  5
8E5
100
AcDbEntity
  8
0
  6
CONTINUOUS
 62
     7
100
AcDbLine
 10
163.510069
 20
160.25447
 30
0.0
 11
163.347669
 21
160.225835
 31
0.0
  0
LINE
  5
8E6
100
AcDbEntity
  8
0
  6
CONTINUOUS
 62
     7
100
AcDbLine
 10
163.510069
 20
160.217618
 30
0.0
 11
163.43406
 21
160.204216
 31
0.0
  0
LINE
  5
8E7
100
AcDbEntity
  8
0
  6
CONTINUOUS
 62
     7
100
AcDbLine
 10
163.510069
 20
161.17578
 30
0.0
 11
161.187898
 21
160.766319
 31
0.0
  0
LINE
  5
8E8
100
AcDbEntity
  8
0
  6
CONTINUOUS
 62
     7
100
AcDbLine
 10
163.510069
 20
161.212632
 30
0.0
 11
161.101507
 21
160.787938
 31
0.0
  0
LINE
  5
8E9
100
AcDbEntity
  8
0
  6
CONTINUOUS
 62
     7
100
AcDbLine
 10
163.510069
 20
161.249485
 30
0.0
 11
161.015116
 21
160.809557
 31
0.0
  0
LINE
  5
8EA
100
AcDbEntity
  8
0
  6
CONTINUOUS
 62
     7
100
AcDbLine
 10
163.510069
 20
161.286337
 30
0.0
 11
160.928726
 21
160.831177
 31
0.0
  0
LINE
  5
8EB
100
AcDbEntity
  8
0
  6
CONTINUOUS
 62
     7
100
AcDbLine
 10
163.510069
 20
161.32319
 30
0.0
 11
160.842335
 21
160.852796
 31
0.0
  0
LINE
  5
8EC
100
AcDbEntity
  8
0
  6
CONTINUOUS
 62
     7
100
AcDbLine
 10
163.510069
 20
161.360042
 30
0.0
 11
160.800961
 21
160.882353
 31
0.0
  0
LINE
  5
8ED
100
AcDbEntity
  8
0
  6
CONTINUOUS
 62
     7
100
AcDbLine
 10
163.510069
 20
161.396894
 30
0.0
 11
161.299482
 21
161.007108
 31
0.0
  0
LINE
  5
8EE
100
AcDbEntity
  8
0
  6
CONTINUOUS
 62
     7
100
AcDbLine
 10
163.510069
 20
161.433747
 30
0.0
 11
161.798002
 21
161.131863
 31
0.0
  0
LINE
  5
8EF
100
AcDbEntity
  8
0
  6
CONTINUOUS
 62
     7
100
AcDbLine
 10
163.510069
 20
161.470599
 30
0.0
 11
162.296522
 21
161.256618
 31
0.0
  0
LINE
  5
8F0
100
AcDbEntity
  8
0
  6
CONTINUOUS
 62
     7
100
AcDbLine
 10
163.510069
 20
161.507452
 30
0.0
 11
162.795042
 21
161.381373
 31
0.0
  0
LINE
  5
8F1
100
AcDbEntity
  8
0
  6
CONTINUOUS
 62
     7
100
AcDbLine
 10
163.510069
 20
161.544304
 30
0.0
 11
163.293563
 21
161.506128
 31
0.0
  0
LINE
  5
8F2
100
AcDbEntity
  8
0
  6
CONTINUOUS
 62
     7
100
AcDbLine
 10
209.940777
 20
163.664646
 30
0.0
 11
207.595012
 21
165.0
 31
0.0
  0
LINE
  5
8F3
100
AcDbEntity
  8
0
  6
CONTINUOUS
 62
     7
100
AcDbLine
 10
207.595012
 20
165.0
 30
0.0
 11
209.940777
 21
166.189919
 31
0.0
  0
ARC
  5
8F4
100
AcDbEntity
  8
0
  6
CONTINUOUS
 62
     7
100
AcDbCircle
 10
337.5
 20
185.0
 30
0.0
 40
0.5
100
AcDbArc
 50
180.0
 51
0.0
  0
ARC
  5
8F5
100
AcDbEntity
  8
0
  6
CONTINUOUS
 62
     7
100
AcDbCircle
 10
337.5
 20
185.0
 30
0.0
 40
0.5
100
AcDbArc
 50
0.0
 51
180.0
  0
LINE
  5
8F6
100
AcDbEntity
  8
0
  6
CONTINUOUS
 62
     7
100
AcDbLine
 10
321.509978
 20
190.19074
 30
0.0
 11
324.155635
 21
190.19074
 31
0.0
  0
LINE
  5
8F7
100
AcDbEntity
  8
0
  6
CONTINUOUS
 62
     7
100
AcDbLine
 10
325.937188
 20
189.587045
 30
0.0
 11
325.937188
 21
190.794435
 31
0.0
  0
LINE
  5
8F8
100
AcDbEntity
  8
0
  6
CONTINUOUS
 62
     7
100
AcDbLine
 10
325.049675
 20
189.154547
 30
0.0
 11
325.049675
 21
191.217922
 31
0.0
  0
LINE
  5
8F9
100
AcDbEntity
  8
0
  6
CONTINUOUS
 62
     7
100
AcDbLine
 10
324.155635
 20
188.658977
 30
0.0
 11
324.155635
 21
191.722503
 31
0.0
  0
ARC
  5
8FA
100
AcDbEntity
  8
0
  6
CONTINUOUS
 62
     7
100
AcDbCircle
 10
315.0
 20
235.0
 30
0.0
 40
0.5
100
AcDbArc
 50
180.0
 51
0.0
  0
ARC
  5
8FB
100
AcDbEntity
  8
0
  6
CONTINUOUS
 62
     7
100
AcDbCircle
 10
315.0
 20
235.0
 30
0.0
 40
0.5
100
AcDbArc
 50
0.0
 51
180.0
  0
ARC
  5
8FC
100
AcDbEntity
  8
0
  6
CONTINUOUS
 62
     7
100
AcDbCircle
 10
307.5
 20
240.0
 30
0.0
 40
0.5
100
AcDbArc
 50
180.0
 51
0.0
  0
ARC
  5
8FD
100
AcDbEntity
  8
0
  6
CONTINUOUS
 62
     7
100
AcDbCircle
 10
307.5
 20
240.0
 30
0.0
 40
0.5
100
AcDbArc
 50
0.0
 51
180.0
  0
ARC
  5
8FE
100
AcDbEntity
  8
0
  6
CONTINUOUS
 62
     7
100
AcDbCircle
 10
300.0
 20
245.0
 30
0.0
 40
0.5
100
AcDbArc
 50
180.0
 51
0.0
  0
ARC
  5
8FF
100
AcDbEntity
  8
0
  6
CONTINUOUS
 62
     7
100
AcDbCircle
 10
300.0
 20
245.0
 30
0.0
 40
0.5
100
AcDbArc
 50
0.0
 51
180.0
  0
LINE
  5
900
100
AcDbEntity
  8
0
  6
CONTINUOUS
 62
     7
100
AcDbLine
 10
305.781032
 20
185.0
 30
0.0
 11
308.426689
 21
185.0
 31
0.0
  0
LINE
  5
901
100
AcDbEntity
  8
0
  6
CONTINUOUS
 62
     7
100
AcDbLine
 10
310.208243
 20
184.396305
 30
0.0
 11
310.208243
 21
185.603695
 31
0.0
  0
LINE
  5
902
100
AcDbEntity
  8
0
  6
CONTINUOUS
 62
     7
100
AcDbLine
 10
309.320729
 20
183.963807
 30
0.0
 11
309.320729
 21
186.027182
 31
0.0
  0
LINE
  5
903
100
AcDbEntity
  8
0
  6
CONTINUOUS
 62
     7
100
AcDbLine
 10
308.426689
 20
183.468237
 30
0.0
 11
308.426689
 21
186.531763
 31
0.0
  0
INSERT
  5
904
100
AcDbEntity
  8
0
  6
CENTER
 62
     7
100
AcDbBlockReference
  2
BLC26
 10
313.546562
 20
192.609534
 30
0.0
 41
1.006225
 42
1.006225
 43
1.006225
  0
INSERT
  5
905
100
AcDbEntity
  8
0
  6
CENTER
 62
     7
100
AcDbBlockReference
  2
BLC26
 10
298.546562
 20
192.609534
 30
0.0
 41
1.006225
 42
1.006225
 43
1.006225
  0
INSERT
  5
906
100
AcDbEntity
  8
0
  6
CENTER
 62
     7
100
AcDbBlockReference
  2
BLC26
 10
306.046562
 20
192.609534
 30
0.0
 41
1.006225
 42
1.006225
 43
1.006225
  0
LINE
  5
907
100
AcDbEntity
  8
0
  6
CONTINUOUS
 62
     7
100
AcDbLine
 10
209.933855
 20
173.909254
 30
0.0
 11
207.588089
 21
175.244608
 31
0.0
  0
LINE
  5
908
100
AcDbEntity
  8
0
  6
CONTINUOUS
 62
     7
100
AcDbLine
 10
207.588089
 20
175.244608
 30
0.0
 11
209.933855
 21
176.434527
 31
0.0
  0
LINE
  5
909
100
AcDbEntity
  8
0
  6
CONTINUOUS
 62
     7
100
AcDbLine
 10
209.933855
 20
177.873606
 30
0.0
 11
207.588089
 21
179.20896
 31
0.0
  0
LINE
  5
90A
100
AcDbEntity
  8
0
  6
CONTINUOUS
 62
     7
100
AcDbLine
 10
207.588089
 20
179.20896
 30
0.0
 11
209.933855
 21
180.398879
 31
0.0
  0
LINE
  5
90B
100
AcDbEntity
  8
0
  6
CONTINUOUS
 62
     7
100
AcDbLine
 10
209.933855
 20
181.532911
 30
0.0
 11
207.588089
 21
182.868265
 31
0.0
  0
LINE
  5
90C
100
AcDbEntity
  8
0
  6
CONTINUOUS
 62
     7
100
AcDbLine
 10
207.588089
 20
182.868265
 30
0.0
 11
209.933855
 21
184.058184
 31
0.0
  0
LINE
  5
90D
100
AcDbEntity
  8
0
  6
CONTINUOUS
 62
     7
100
AcDbLine
 10
209.933855
 20
170.388687
 30
0.0
 11
207.588089
 21
171.72404
 31
0.0
  0
LINE
  5
90E
100
AcDbEntity
  8
0
  6
CONTINUOUS
 62
     7
100
AcDbLine
 10
207.588089
 20
171.72404
 30
0.0
 11
209.933855
 21
172.91396
 31
0.0
  0
LINE
  5
90F
100
AcDbEntity
  8
0
  6
CONTINUOUS
 62
     7
100
AcDbLine
 10
209.542792
 20
148.664652
 30
0.0
 11
207.197026
 21
150.000005
 31
0.0
  0
LINE
  5
910
100
AcDbEntity
  8
0
  6
CONTINUOUS
 62
     7
100
AcDbLine
 10
207.197026
 20
150.000005
 30
0.0
 11
209.542792
 21
151.189925
 31
0.0
  0
LINE
  5
911
100
AcDbEntity
  8
0
  6
CONTINUOUS
 62
     7
100
AcDbLine
 10
212.558022
 20
151.335354
 30
0.0
 11
214.903787
 21
150.0
 31
0.0
  0
LINE
  5
912
100
AcDbEntity
  8
0
  6
CONTINUOUS
 62
     7
100
AcDbLine
 10
214.903787
 20
150.0
 30
0.0
 11
212.558022
 21
148.810081
 31
0.0
  0
LINE
  5
913
100
AcDbEntity
  8
0
  6
CONTINUOUS
 62
     7
100
AcDbLine
 10
339.111221
 20
185.0
 30
0.0
 11
341.756878
 21
185.0
 31
0.0
  0
LINE
  5
914
100
AcDbEntity
  8
0
  6
CONTINUOUS
 62
     7
100
AcDbLine
 10
343.538432
 20
184.396305
 30
0.0
 11
343.538432
 21
185.603695
 31
0.0
  0
LINE
  5
915
100
AcDbEntity
  8
0
  6
CONTINUOUS
 62
     7
100
AcDbLine
 10
342.650918
 20
183.963807
 30
0.0
 11
342.650918
 21
186.027182
 31
0.0
  0
LINE
  5
916
100
AcDbEntity
  8
0
  6
CONTINUOUS
 62
     7
100
AcDbLine
 10
341.756878
 20
183.468237
 30
0.0
 11
341.756878
 21
186.531763
 31
0.0
  0
LINE
  5
917
100
AcDbEntity
  8
0
 62
     7
100
AcDbLine
 10
211.786248
 20
6.306997
 30
0.0
 11
213.547099
 21
8.067848
 31
0.0
  0
LINE
  5
918
100
AcDbEntity
  8
0
 62
     7
100
AcDbLine
 10
211.852879
 20
6.497372
 30
0.0
 11
213.547099
 21
8.191591
 31
0.0
  0
LINE
  5
919
100
AcDbEntity
  8
0
 62
     7
100
AcDbLine
 10
211.919511
 20
6.687747
 30
0.0
 11
213.547099
 21
8.315335
 31
0.0
  0
LINE
  5
91A
100
AcDbEntity
  8
0
 62
     7
100
AcDbLine
 10
211.986142
 20
6.878122
 30
0.0
 11
213.547099
 21
8.439079
 31
0.0
  0
LINE
  5
91B
100
AcDbEntity
  8
0
 62
     7
100
AcDbLine
 10
212.052773
 20
7.068497
 30
0.0
 11
213.547099
 21
8.562822
 31
0.0
  0
LINE
  5
91C
100
AcDbEntity
  8
0
 62
     7
100
AcDbLine
 10
212.119404
 20
7.258871
 30
0.0
 11
213.547099
 21
8.686566
 31
0.0
  0
LINE
  5
91D
100
AcDbEntity
  8
0
 62
     7
100
AcDbLine
 10
212.186036
 20
7.449246
 30
0.0
 11
213.474788
 21
8.737999
 31
0.0
  0
LINE
  5
91E
100
AcDbEntity
  8
0
 62
     7
100
AcDbLine
 10
212.252667
 20
7.639621
 30
0.0
 11
213.351045
 21
8.737999
 31
0.0
  0
LINE
  5
91F
100
AcDbEntity
  8
0
 62
     7
100
AcDbLine
 10
212.319298
 20
7.829996
 30
0.0
 11
213.227301
 21
8.737999
 31
0.0
  0
LINE
  5
920
100
AcDbEntity
  8
0
 62
     7
100
AcDbLine
 10
212.385929
 20
8.020371
 30
0.0
 11
213.103557
 21
8.737999
 31
0.0
  0
LINE
  5
921
100
AcDbEntity
  8
0
 62
     7
100
AcDbLine
 10
212.45256
 20
8.210746
 30
0.0
 11
212.979814
 21
8.737999
 31
0.0
  0
LINE
  5
922
100
AcDbEntity
  8
0
 62
     7
100
AcDbLine
 10
212.519192
 20
8.401121
 30
0.0
 11
212.85607
 21
8.737999
 31
0.0
  0
LINE
  5
923
100
AcDbEntity
  8
0
 62
     7
100
AcDbLine
 10
212.585823
 20
8.591496
 30
0.0
 11
212.732326
 21
8.737999
 31
0.0
  0
LINE
  5
924
100
AcDbEntity
  8
0
 62
     7
100
AcDbLine
 10
211.719617
 20
6.116622
 30
0.0
 11
213.547099
 21
7.944104
 31
0.0
  0
LINE
  5
925
100
AcDbEntity
  8
0
 62
     7
100
AcDbLine
 10
211.652986
 20
5.926247
 30
0.0
 11
213.547099
 21
7.82036
 31
0.0
  0
LINE
  5
926
100
AcDbEntity
  8
0
 62
     7
100
AcDbLine
 10
211.586355
 20
5.735872
 30
0.0
 11
213.547099
 21
7.696617
 31
0.0
  0
LINE
  5
927
100
AcDbEntity
  8
0
 62
     7
100
AcDbLine
 10
211.519723
 20
5.545497
 30
0.0
 11
213.547099
 21
7.572873
 31
0.0
  0
LINE
  5
928
100
AcDbEntity
  8
0
 62
     7
100
AcDbLine
 10
211.475969
 20
5.377999
 30
0.0
 11
213.547099
 21
7.449129
 31
0.0
  0
LINE
  5
929
100
AcDbEntity
  8
0
 62
     7
100
AcDbLine
 10
211.599713
 20
5.377999
 30
0.0
 11
213.547099
 21
7.325386
 31
0.0
  0
LINE
  5
92A
100
AcDbEntity
  8
0
 62
     7
100
AcDbLine
 10
211.723456
 20
5.377999
 30
0.0
 11
213.547099
 21
7.201642
 31
0.0
  0
LINE
  5
92B
100
AcDbEntity
  8
0
 62
     7
100
AcDbLine
 10
211.8472
 20
5.377999
 30
0.0
 11
213.547099
 21
7.077898
 31
0.0
  0
LINE
  5
92C
100
AcDbEntity
  8
0
 62
     7
100
AcDbLine
 10
211.970944
 20
5.377999
 30
0.0
 11
213.547099
 21
6.954155
 31
0.0
  0
LINE
  5
92D
100
AcDbEntity
  8
0
 62
     7
100
AcDbLine
 10
212.094687
 20
5.377999
 30
0.0
 11
213.547099
 21
6.830411
 31
0.0
  0
LINE
  5
92E
100
AcDbEntity
  8
0
 62
     7
100
AcDbLine
 10
212.218431
 20
5.377999
 30
0.0
 11
213.547099
 21
6.706667
 31
0.0
  0
LINE
  5
92F
100
AcDbEntity
  8
0
 62
     7
100
AcDbLine
 10
212.342175
 20
5.377999
 30
0.0
 11
213.547099
 21
6.582923
 31
0.0
  0
LINE
  5
930
100
AcDbEntity
  8
0
 62
     7
100
AcDbLine
 10
212.465919
 20
5.377999
 30
0.0
 11
213.547099
 21
6.45918
 31
0.0
  0
LINE
  5
931
100
AcDbEntity
  8
0
 62
     7
100
AcDbLine
 10
212.589662
 20
5.377999
 30
0.0
 11
213.547099
 21
6.335436
 31
0.0
  0
LINE
  5
932
100
AcDbEntity
  8
0
 62
     7
100
AcDbLine
 10
212.713406
 20
5.377999
 30
0.0
 11
213.547099
 21
6.211692
 31
0.0
  0
LINE
  5
933
100
AcDbEntity
  8
0
 62
     7
100
AcDbLine
 10
212.83715
 20
5.377999
 30
0.0
 11
213.547099
 21
6.087949
 31
0.0
  0
LINE
  5
934
100
AcDbEntity
  8
0
 62
     7
100
AcDbLine
 10
212.960893
 20
5.377999
 30
0.0
 11
213.547099
 21
5.964205
 31
0.0
  0
LINE
  5
935
100
AcDbEntity
  8
0
 62
     7
100
AcDbLine
 10
213.084637
 20
5.377999
 30
0.0
 11
213.547099
 21
5.840461
 31
0.0
  0
LINE
  5
936
100
AcDbEntity
  8
0
 62
     7
100
AcDbLine
 10
213.208381
 20
5.377999
 30
0.0
 11
213.547099
 21
5.716718
 31
0.0
  0
LINE
  5
937
100
AcDbEntity
  8
0
 62
     7
100
AcDbLine
 10
213.332124
 20
5.377999
 30
0.0
 11
213.547099
 21
5.592974
 31
0.0
  0
LINE
  5
938
100
AcDbEntity
  8
0
 62
     7
100
AcDbLine
 10
213.455868
 20
5.377999
 30
0.0
 11
213.547099
 21
5.46923
 31
0.0
  0
LINE
  5
939
100
AcDbEntity
  8
0
 62
     7
100
AcDbLine
 10
213.827099
 20
5.996718
 30
0.0
 11
215.211876
 21
7.381494
 31
0.0
  0
LINE
  5
93A
100
AcDbEntity
  8
0
 62
     7
100
AcDbLine
 10
213.827099
 20
6.120461
 30
0.0
 11
215.179794
 21
7.473156
 31
0.0
  0
LINE
  5
93B
100
AcDbEntity
  8
0
 62
     7
100
AcDbLine
 10
213.827099
 20
6.244205
 30
0.0
 11
215.147712
 21
7.564818
 31
0.0
  0
LINE
  5
93C
100
AcDbEntity
  8
0
 62
     7
100
AcDbLine
 10
213.827099
 20
6.367949
 30
0.0
 11
215.115631
 21
7.65648
 31
0.0
  0
LINE
  5
93D
100
AcDbEntity
  8
0
 62
     7
100
AcDbLine
 10
213.827099
 20
6.491692
 30
0.0
 11
215.083549
 21
7.748142
 31
0.0
  0
LINE
  5
93E
100
AcDbEntity
  8
0
 62
     7
100
AcDbLine
 10
213.827099
 20
6.615436
 30
0.0
 11
215.051467
 21
7.839804
 31
0.0
  0
LINE
  5
93F
100
AcDbEntity
  8
0
 62
     7
100
AcDbLine
 10
213.827099
 20
6.73918
 30
0.0
 11
215.019386
 21
7.931466
 31
0.0
  0
LINE
  5
940
100
AcDbEntity
  8
0
 62
     7
100
AcDbLine
 10
213.827099
 20
6.862923
 30
0.0
 11
214.987304
 21
8.023128
 31
0.0
  0
LINE
  5
941
100
AcDbEntity
  8
0
 62
     7
100
AcDbLine
 10
213.827099
 20
6.986667
 30
0.0
 11
214.955222
 21
8.11479
 31
0.0
  0
LINE
  5
942
100
AcDbEntity
  8
0
 62
     7
100
AcDbLine
 10
213.827099
 20
7.110411
 30
0.0
 11
214.923141
 21
8.206452
 31
0.0
  0
LINE
  5
943
100
AcDbEntity
  8
0
 62
     7
100
AcDbLine
 10
213.827099
 20
7.234155
 30
0.0
 11
214.891059
 21
8.298114
 31
0.0
  0
LINE
  5
944
100
AcDbEntity
  8
0
 62
     7
100
AcDbLine
 10
213.827099
 20
7.357898
 30
0.0
 11
214.858977
 21
8.389776
 31
0.0
  0
LINE
  5
945
100
AcDbEntity
  8
0
 62
     7
100
AcDbLine
 10
213.827099
 20
7.481642
 30
0.0
 11
214.826895
 21
8.481438
 31
0.0
  0
LINE
  5
946
100
AcDbEntity
  8
0
 62
     7
100
AcDbLine
 10
213.827099
 20
7.605386
 30
0.0
 11
214.794814
 21
8.5731
 31
0.0
  0
LINE
  5
947
100
AcDbEntity
  8
0
 62
     7
100
AcDbLine
 10
213.827099
 20
7.729129
 30
0.0
 11
214.762732
 21
8.664762
 31
0.0
  0
LINE
  5
948
100
AcDbEntity
  8
0
 62
     7
100
AcDbLine
 10
213.827099
 20
7.852873
 30
0.0
 11
214.712225
 21
8.737999
 31
0.0
  0
LINE
  5
949
100
AcDbEntity
  8
0
 62
     7
100
AcDbLine
 10
213.827099
 20
7.976617
 30
0.0
 11
214.588482
 21
8.737999
 31
0.0
  0
LINE
  5
94A
100
AcDbEntity
  8
0
 62
     7
100
AcDbLine
 10
213.827099
 20
8.10036
 30
0.0
 11
214.464738
 21
8.737999
 31
0.0
  0
LINE
  5
94B
100
AcDbEntity
  8
0
 62
     7
100
AcDbLine
 10
213.827099
 20
8.224104
 30
0.0
 11
214.340994
 21
8.737999
 31
0.0
  0
LINE
  5
94C
100
AcDbEntity
  8
0
 62
     7
100
AcDbLine
 10
213.827099
 20
8.347848
 30
0.0
 11
214.217251
 21
8.737999
 31
0.0
  0
LINE
  5
94D
100
AcDbEntity
  8
0
 62
     7
100
AcDbLine
 10
213.827099
 20
8.471591
 30
0.0
 11
214.093507
 21
8.737999
 31
0.0
  0
LINE
  5
94E
100
AcDbEntity
  8
0
 62
     7
100
AcDbLine
 10
213.827099
 20
8.595335
 30
0.0
 11
213.969763
 21
8.737999
 31
0.0
  0
LINE
  5
94F
100
AcDbEntity
  8
0
 62
     7
100
AcDbLine
 10
213.827099
 20
8.719079
 30
0.0
 11
213.84602
 21
8.737999
 31
0.0
  0
LINE
  5
950
100
AcDbEntity
  8
0
 62
     7
100
AcDbLine
 10
213.827099
 20
5.872974
 30
0.0
 11
215.243957
 21
7.289832
 31
0.0
  0
LINE
  5
951
100
AcDbEntity
  8
0
 62
     7
100
AcDbLine
 10
213.827099
 20
5.74923
 30
0.0
 11
215.276039
 21
7.19817
 31
0.0
  0
LINE
  5
952
100
AcDbEntity
  8
0
 62
     7
100
AcDbLine
 10
213.827099
 20
5.625487
 30
0.0
 11
215.308121
 21
7.106508
 31
0.0
  0
LINE
  5
953
100
AcDbEntity
  8
0
 62
     7
100
AcDbLine
 10
213.827099
 20
5.501743
 30
0.0
 11
215.340203
 21
7.014846
 31
0.0
  0
LINE
  5
954
100
AcDbEntity
  8
0
 62
     7
100
AcDbLine
 10
213.827099
 20
5.377999
 30
0.0
 11
215.372284
 21
6.923184
 31
0.0
  0
LINE
  5
955
100
AcDbEntity
  8
0
 62
     7
100
AcDbLine
 10
213.950843
 20
5.377999
 30
0.0
 11
215.404366
 21
6.831522
 31
0.0
  0
LINE
  5
956
100
AcDbEntity
  8
0
 62
     7
100
AcDbLine
 10
214.074586
 20
5.377999
 30
0.0
 11
215.436448
 21
6.73986
 31
0.0
  0
LINE
  5
957
100
AcDbEntity
  8
0
 62
     7
100
AcDbLine
 10
214.19833
 20
5.377999
 30
0.0
 11
215.468529
 21
6.648198
 31
0.0
  0
LINE
  5
958
100
AcDbEntity
  8
0
 62
     7
100
AcDbLine
 10
214.322074
 20
5.377999
 30
0.0
 11
215.500611
 21
6.556536
 31
0.0
  0
LINE
  5
959
100
AcDbEntity
  8
0
 62
     7
100
AcDbLine
 10
214.445818
 20
5.377999
 30
0.0
 11
215.532693
 21
6.464874
 31
0.0
  0
LINE
  5
95A
100
AcDbEntity
  8
0
 62
     7
100
AcDbLine
 10
214.569561
 20
5.377999
 30
0.0
 11
215.564774
 21
6.373212
 31
0.0
  0
LINE
  5
95B
100
AcDbEntity
  8
0
 62
     7
100
AcDbLine
 10
214.693305
 20
5.377999
 30
0.0
 11
215.596856
 21
6.281551
 31
0.0
  0
LINE
  5
95C
100
AcDbEntity
  8
0
 62
     7
100
AcDbLine
 10
214.817049
 20
5.377999
 30
0.0
 11
215.628938
 21
6.189889
 31
0.0
  0
LINE
  5
95D
100
AcDbEntity
  8
0
 62
     7
100
AcDbLine
 10
214.940792
 20
5.377999
 30
0.0
 11
215.66102
 21
6.098227
 31
0.0
  0
LINE
  5
95E
100
AcDbEntity
  8
0
 62
     7
100
AcDbLine
 10
215.064536
 20
5.377999
 30
0.0
 11
215.693101
 21
6.006565
 31
0.0
  0
LINE
  5
95F
100
AcDbEntity
  8
0
 62
     7
100
AcDbLine
 10
215.18828
 20
5.377999
 30
0.0
 11
215.725183
 21
5.914903
 31
0.0
  0
LINE
  5
960
100
AcDbEntity
  8
0
 62
     7
100
AcDbLine
 10
215.312023
 20
5.377999
 30
0.0
 11
215.757265
 21
5.823241
 31
0.0
  0
LINE
  5
961
100
AcDbEntity
  8
0
 62
     7
100
AcDbLine
 10
215.435767
 20
5.377999
 30
0.0
 11
215.789346
 21
5.731579
 31
0.0
  0
LINE
  5
962
100
AcDbEntity
  8
0
 62
     7
100
AcDbLine
 10
215.559511
 20
5.377999
 30
0.0
 11
215.821428
 21
5.639917
 31
0.0
  0
LINE
  5
963
100
AcDbEntity
  8
0
 62
     7
100
AcDbLine
 10
215.683254
 20
5.377999
 30
0.0
 11
215.85351
 21
5.548255
 31
0.0
  0
LINE
  5
964
100
AcDbEntity
  8
0
 62
     7
100
AcDbLine
 10
215.806998
 20
5.377999
 30
0.0
 11
215.885591
 21
5.456593
 31
0.0
  0
LINE
  5
965
100
AcDbEntity
  8
0
 62
     7
100
AcDbLine
 10
210.187099
 20
1.737999
 30
0.0
 11
213.547099
 21
5.097999
 31
0.0
  0
LINE
  5
966
100
AcDbEntity
  8
0
 62
     7
100
AcDbLine
 10
210.25373
 20
1.928374
 30
0.0
 11
213.423355
 21
5.097999
 31
0.0
  0
LINE
  5
967
100
AcDbEntity
  8
0
 62
     7
100
AcDbLine
 10
210.320362
 20
2.118749
 30
0.0
 11
213.299612
 21
5.097999
 31
0.0
  0
LINE
  5
968
100
AcDbEntity
  8
0
 62
     7
100
AcDbLine
 10
210.386993
 20
2.309124
 30
0.0
 11
213.175868
 21
5.097999
 31
0.0
  0
LINE
  5
969
100
AcDbEntity
  8
0
 62
     7
100
AcDbLine
 10
210.453624
 20
2.499499
 30
0.0
 11
213.052124
 21
5.097999
 31
0.0
  0
LINE
  5
96A
100
AcDbEntity
  8
0
 62
     7
100
AcDbLine
 10
210.520255
 20
2.689874
 30
0.0
 11
212.928381
 21
5.097999
 31
0.0
  0
LINE
  5
96B
100
AcDbEntity
  8
0
 62
     7
100
AcDbLine
 10
210.586886
 20
2.880249
 30
0.0
 11
212.804637
 21
5.097999
 31
0.0
  0
LINE
  5
96C
100
AcDbEntity
  8
0
 62
     7
100
AcDbLine
 10
210.653518
 20
3.070624
 30
0.0
 11
212.680893
 21
5.097999
 31
0.0
  0
LINE
  5
96D
100
AcDbEntity
  8
0
 62
     7
100
AcDbLine
 10
210.720149
 20
3.260998
 30
0.0
 11
212.55715
 21
5.097999
 31
0.0
  0
LINE
  5
96E
100
AcDbEntity
  8
0
 62
     7
100
AcDbLine
 10
210.78678
 20
3.451373
 30
0.0
 11
212.433406
 21
5.097999
 31
0.0
  0
LINE
  5
96F
100
AcDbEntity
  8
0
 62
     7
100
AcDbLine
 10
210.853411
 20
3.641748
 30
0.0
 11
212.309662
 21
5.097999
 31
0.0
  0
LINE
  5
970
100
AcDbEntity
  8
0
 62
     7
100
AcDbLine
 10
210.920042
 20
3.832123
 30
0.0
 11
212.185919
 21
5.097999
 31
0.0
  0
LINE
  5
971
100
AcDbEntity
  8
0
 62
     7
100
AcDbLine
 10
210.986674
 20
4.022498
 30
0.0
 11
212.062175
 21
5.097999
 31
0.0
  0
LINE
  5
972
100
AcDbEntity
  8
0
 62
     7
100
AcDbLine
 10
211.053305
 20
4.212873
 30
0.0
 11
211.938431
 21
5.097999
 31
0.0
  0
LINE
  5
973
100
AcDbEntity
  8
0
 62
     7
100
AcDbLine
 10
211.119936
 20
4.403248
 30
0.0
 11
211.814687
 21
5.097999
 31
0.0
  0
LINE
  5
974
100
AcDbEntity
  8
0
 62
     7
100
AcDbLine
 10
211.186567
 20
4.593623
 30
0.0
 11
211.690944
 21
5.097999
 31
0.0
  0
LINE
  5
975
100
AcDbEntity
  8
0
 62
     7
100
AcDbLine
 10
211.253199
 20
4.783998
 30
0.0
 11
211.5672
 21
5.097999
 31
0.0
  0
LINE
  5
976
100
AcDbEntity
  8
0
 62
     7
100
AcDbLine
 10
211.31983
 20
4.974373
 30
0.0
 11
211.443456
 21
5.097999
 31
0.0
  0
LINE
  5
977
100
AcDbEntity
  8
0
 62
     7
100
AcDbLine
 10
210.310843
 20
1.737999
 30
0.0
 11
213.547099
 21
4.974256
 31
0.0
  0
LINE
  5
978
100
AcDbEntity
  8
0
 62
     7
100
AcDbLine
 10
210.434586
 20
1.737999
 30
0.0
 11
213.547099
 21
4.850512
 31
0.0
  0
LINE
  5
979
100
AcDbEntity
  8
0
 62
     7
100
AcDbLine
 10
210.55833
 20
1.737999
 30
0.0
 11
213.547099
 21
4.726768
 31
0.0
  0
LINE
  5
97A
100
AcDbEntity
  8
0
 62
     7
100
AcDbLine
 10
210.682074
 20
1.737999
 30
0.0
 11
213.547099
 21
4.603025
 31
0.0
  0
LINE
  5
97B
100
AcDbEntity
  8
0
 62
     7
100
AcDbLine
 10
210.805818
 20
1.737999
 30
0.0
 11
213.547099
 21
4.479281
 31
0.0
  0
LINE
  5
97C
100
AcDbEntity
  8
0
 62
     7
100
AcDbLine
 10
210.929561
 20
1.737999
 30
0.0
 11
213.547099
 21
4.355537
 31
0.0
  0
LINE
  5
97D
100
AcDbEntity
  8
0
 62
     7
100
AcDbLine
 10
211.053305
 20
1.737999
 30
0.0
 11
212.412988
 21
3.097683
 31
0.0
  0
LINE
  5
97E
100
AcDbEntity
  8
0
 62
     7
100
AcDbLine
 10
212.453305
 20
3.137999
 30
0.0
 11
213.547099
 21
4.231793
 31
0.0
  0
LINE
  5
97F
100
AcDbEntity
  8
0
 62
     7
100
AcDbLine
 10
211.177049
 20
1.737999
 30
0.0
 11
212.346357
 21
2.907308
 31
0.0
  0
LINE
  5
980
100
AcDbEntity
  8
0
 62
     7
100
AcDbLine
 10
212.577049
 20
3.137999
 30
0.0
 11
213.547099
 21
4.10805
 31
0.0
  0
LINE
  5
981
100
AcDbEntity
  8
0
 62
     7
100
AcDbLine
 10
211.300792
 20
1.737999
 30
0.0
 11
212.279726
 21
2.716933
 31
0.0
  0
LINE
  5
982
100
AcDbEntity
  8
0
 62
     7
100
AcDbLine
 10
212.700792
 20
3.137999
 30
0.0
 11
213.547099
 21
3.984306
 31
0.0
  0
LINE
  5
983
100
AcDbEntity
  8
0
 62
     7
100
AcDbLine
 10
211.424536
 20
1.737999
 30
0.0
 11
212.213095
 21
2.526558
 31
0.0
  0
LINE
  5
984
100
AcDbEntity
  8
0
 62
     7
100
AcDbLine
 10
212.824536
 20
3.137999
 30
0.0
 11
213.547099
 21
3.860562
 31
0.0
  0
LINE
  5
985
100
AcDbEntity
  8
0
 62
     7
100
AcDbLine
 10
211.54828
 20
1.737999
 30
0.0
 11
212.146463
 21
2.336183
 31
0.0
  0
LINE
  5
986
100
AcDbEntity
  8
0
 62
     7
100
AcDbLine
 10
212.94828
 20
3.137999
 30
0.0
 11
213.547099
 21
3.736819
 31
0.0
  0
LINE
  5
987
100
AcDbEntity
  8
0
 62
     7
100
AcDbLine
 10
211.672023
 20
1.737999
 30
0.0
 11
212.079832
 21
2.145808
 31
0.0
  0
LINE
  5
988
100
AcDbEntity
  8
0
 62
     7
100
AcDbLine
 10
213.072023
 20
3.137999
 30
0.0
 11
213.547099
 21
3.613075
 31
0.0
  0
LINE
  5
989
100
AcDbEntity
  8
0
 62
     7
100
AcDbLine
 10
211.795767
 20
1.737999
 30
0.0
 11
212.013201
 21
1.955433
 31
0.0
  0
LINE
  5
98A
100
AcDbEntity
  8
0
 62
     7
100
AcDbLine
 10
213.195767
 20
3.137999
 30
0.0
 11
213.547099
 21
3.489331
 31
0.0
  0
LINE
  5
98B
100
AcDbEntity
  8
0
 62
     7
100
AcDbLine
 10
211.919511
 20
1.737999
 30
0.0
 11
211.94657
 21
1.765058
 31
0.0
  0
LINE
  5
98C
100
AcDbEntity
  8
0
 62
     7
100
AcDbLine
 10
213.319511
 20
3.137999
 30
0.0
 11
213.547099
 21
3.365588
 31
0.0
  0
LINE
  5
98D
100
AcDbEntity
  8
0
 62
     7
100
AcDbLine
 10
213.443254
 20
3.137999
 30
0.0
 11
213.547099
 21
3.241844
 31
0.0
  0
LINE
  5
98E
100
AcDbEntity
  8
0
 62
     7
100
AcDbLine
 10
215.006357
 20
2.96869
 30
0.0
 11
216.302653
 21
4.264987
 31
0.0
  0
LINE
  5
98F
100
AcDbEntity
  8
0
 62
     7
100
AcDbLine
 10
214.974275
 20
3.060352
 30
0.0
 11
216.270572
 21
4.356649
 31
0.0
  0
LINE
  5
990
100
AcDbEntity
  8
0
 62
     7
100
AcDbLine
 10
214.928179
 20
3.137999
 30
0.0
 11
216.23849
 21
4.448311
 31
0.0
  0
LINE
  5
991
100
AcDbEntity
  8
0
 62
     7
100
AcDbLine
 10
214.804435
 20
3.137999
 30
0.0
 11
216.206408
 21
4.539973
 31
0.0
  0
LINE
  5
992
100
AcDbEntity
  8
0
 62
     7
100
AcDbLine
 10
214.680691
 20
3.137999
 30
0.0
 11
216.174327
 21
4.631635
 31
0.0
  0
LINE
  5
993
100
AcDbEntity
  8
0
 62
     7
100
AcDbLine
 10
214.556948
 20
3.137999
 30
0.0
 11
216.142245
 21
4.723297
 31
0.0
  0
LINE
  5
994
100
AcDbEntity
  8
0
 62
     7
100
AcDbLine
 10
214.433204
 20
3.137999
 30
0.0
 11
216.110163
 21
4.814959
 31
0.0
  0
LINE
  5
995
100
AcDbEntity
  8
0
 62
     7
100
AcDbLine
 10
214.30946
 20
3.137999
 30
0.0
 11
216.078082
 21
4.906621
 31
0.0
  0
LINE
  5
996
100
AcDbEntity
  8
0
 62
     7
100
AcDbLine
 10
214.185717
 20
3.137999
 30
0.0
 11
216.046
 21
4.998283
 31
0.0
  0
LINE
  5
997
100
AcDbEntity
  8
0
 62
     7
100
AcDbLine
 10
214.061973
 20
3.137999
 30
0.0
 11
216.013918
 21
5.089945
 31
0.0
  0
LINE
  5
998
100
AcDbEntity
  8
0
 62
     7
100
AcDbLine
 10
213.938229
 20
3.137999
 30
0.0
 11
215.898229
 21
5.097999
 31
0.0
  0
LINE
  5
999
100
AcDbEntity
  8
0
 62
     7
100
AcDbLine
 10
213.827099
 20
3.150613
 30
0.0
 11
215.774485
 21
5.097999
 31
0.0
  0
LINE
  5
99A
100
AcDbEntity
  8
0
 62
     7
100
AcDbLine
 10
213.827099
 20
3.274357
 30
0.0
 11
215.650742
 21
5.097999
 31
0.0
  0
LINE
  5
99B
100
AcDbEntity
  8
0
 62
     7
100
AcDbLine
 10
213.827099
 20
3.3981
 30
0.0
 11
215.526998
 21
5.097999
 31
0.0
  0
LINE
  5
99C
100
AcDbEntity
  8
0
 62
     7
100
AcDbLine
 10
213.827099
 20
3.521844
 30
0.0
 11
215.403254
 21
5.097999
 31
0.0
  0
LINE
  5
99D
100
AcDbEntity
  8
0
 62
     7
100
AcDbLine
 10
213.827099
 20
3.645588
 30
0.0
 11
215.279511
 21
5.097999
 31
0.0
  0
LINE
  5
99E
100
AcDbEntity
  8
0
 62
     7
100
AcDbLine
 10
213.827099
 20
3.769331
 30
0.0
 11
215.155767
 21
5.097999
 31
0.0
  0
LINE
  5
99F
100
AcDbEntity
  8
0
 62
     7
100
AcDbLine
 10
213.827099
 20
3.893075
 30
0.0
 11
215.032023
 21
5.097999
 31
0.0
  0
LINE
  5
9A0
100
AcDbEntity
  8
0
 62
     7
100
AcDbLine
 10
213.827099
 20
4.016819
 30
0.0
 11
214.90828
 21
5.097999
 31
0.0
  0
LINE
  5
9A1
100
AcDbEntity
  8
0
 62
     7
100
AcDbLine
 10
213.827099
 20
4.140562
 30
0.0
 11
214.784536
 21
5.097999
 31
0.0
  0
LINE
  5
9A2
100
AcDbEntity
  8
0
 62
     7
100
AcDbLine
 10
213.827099
 20
4.264306
 30
0.0
 11
214.660792
 21
5.097999
 31
0.0
  0
LINE
  5
9A3
100
AcDbEntity
  8
0
 62
     7
100
AcDbLine
 10
213.827099
 20
4.38805
 30
0.0
 11
214.537049
 21
5.097999
 31
0.0
  0
LINE
  5
9A4
100
AcDbEntity
  8
0
 62
     7
100
AcDbLine
 10
213.827099
 20
4.511793
 30
0.0
 11
214.413305
 21
5.097999
 31
0.0
  0
LINE
  5
9A5
100
AcDbEntity
  8
0
 62
     7
100
AcDbLine
 10
213.827099
 20
4.635537
 30
0.0
 11
214.289561
 21
5.097999
 31
0.0
  0
LINE
  5
9A6
100
AcDbEntity
  8
0
 62
     7
100
AcDbLine
 10
213.827099
 20
4.759281
 30
0.0
 11
214.165818
 21
5.097999
 31
0.0
  0
LINE
  5
9A7
100
AcDbEntity
  8
0
 62
     7
100
AcDbLine
 10
213.827099
 20
4.883025
 30
0.0
 11
214.042074
 21
5.097999
 31
0.0
  0
LINE
  5
9A8
100
AcDbEntity
  8
0
 62
     7
100
AcDbLine
 10
213.827099
 20
5.006768
 30
0.0
 11
213.91833
 21
5.097999
 31
0.0
  0
LINE
  5
9A9
100
AcDbEntity
  8
0
 62
     7
100
AcDbLine
 10
215.038439
 20
2.877028
 30
0.0
 11
216.334735
 21
4.173325
 31
0.0
  0
LINE
  5
9AA
100
AcDbEntity
  8
0
 62
     7
100
AcDbLine
 10
215.070521
 20
2.785366
 30
0.0
 11
216.366817
 21
4.081663
 31
0.0
  0
LINE
  5
9AB
100
AcDbEntity
  8
0
 62
     7
100
AcDbLine
 10
215.102602
 20
2.693704
 30
0.0
 11
216.398899
 21
3.990001
 31
0.0
  0
LINE
  5
9AC
100
AcDbEntity
  8
0
 62
     7
100
AcDbLine
 10
215.134684
 20
2.602042
 30
0.0
 11
216.43098
 21
3.898339
 31
0.0
  0
LINE
  5
9AD
100
AcDbEntity
  8
0
 62
     7
100
AcDbLine
 10
215.166766
 20
2.51038
 30
0.0
 11
216.463062
 21
3.806677
 31
0.0
  0
LINE
  5
9AE
100
AcDbEntity
  8
0
 62
     7
100
AcDbLine
 10
215.198847
 20
2.418718
 30
0.0
 11
216.495144
 21
3.715015
 31
0.0
  0
LINE
  5
9AF
100
AcDbEntity
  8
0
 62
     7
100
AcDbLine
 10
215.230929
 20
2.327056
 30
0.0
 11
216.527225
 21
3.623353
 31
0.0
  0
LINE
  5
9B0
100
AcDbEntity
  8
0
 62
     7
100
AcDbLine
 10
215.263011
 20
2.235395
 30
0.0
 11
216.559307
 21
3.531691
 31
0.0
  0
LINE
  5
9B1
100
AcDbEntity
  8
0
 62
     7
100
AcDbLine
 10
215.295092
 20
2.143733
 30
0.0
 11
216.591389
 21
3.440029
 31
0.0
  0
LINE
  5
9B2
100
AcDbEntity
  8
0
 62
     7
100
AcDbLine
 10
215.327174
 20
2.052071
 30
0.0
 11
216.62347
 21
3.348367
 31
0.0
  0
LINE
  5
9B3
100
AcDbEntity
  8
0
 62
     7
100
AcDbLine
 10
215.359256
 20
1.960409
 30
0.0
 11
216.655552
 21
3.256705
 31
0.0
  0
LINE
  5
9B4
100
AcDbEntity
  8
0
 62
     7
100
AcDbLine
 10
215.391338
 20
1.868747
 30
0.0
 11
216.687634
 21
3.165043
 31
0.0
  0
LINE
  5
9B5
100
AcDbEntity
  8
0
 62
     7
100
AcDbLine
 10
215.423419
 20
1.777085
 30
0.0
 11
216.719716
 21
3.073381
 31
0.0
  0
LINE
  5
9B6
100
AcDbEntity
  8
0
 62
     7
100
AcDbLine
 10
215.508078
 20
1.737999
 30
0.0
 11
216.751797
 21
2.981719
 31
0.0
  0
LINE
  5
9B7
100
AcDbEntity
  8
0
 62
     7
100
AcDbLine
 10
215.631821
 20
1.737999
 30
0.0
 11
216.783879
 21
2.890057
 31
0.0
  0
LINE
  5
9B8
100
AcDbEntity
  8
0
 62
     7
100
AcDbLine
 10
215.755565
 20
1.737999
 30
0.0
 11
216.815961
 21
2.798395
 31
0.0
  0
LINE
  5
9B9
100
AcDbEntity
  8
0
 62
     7
100
AcDbLine
 10
215.879309
 20
1.737999
 30
0.0
 11
216.848042
 21
2.706733
 31
0.0
  0
LINE
  5
9BA
100
AcDbEntity
  8
0
 62
     7
100
AcDbLine
 10
216.003052
 20
1.737999
 30
0.0
 11
216.880124
 21
2.615071
 31
0.0
  0
LINE
  5
9BB
100
AcDbEntity
  8
0
 62
     7
100
AcDbLine
 10
216.126796
 20
1.737999
 30
0.0
 11
216.912206
 21
2.523409
 31
0.0
  0
LINE
  5
9BC
100
AcDbEntity
  8
0
 62
     7
100
AcDbLine
 10
216.25054
 20
1.737999
 30
0.0
 11
216.944287
 21
2.431747
 31
0.0
  0
LINE
  5
9BD
100
AcDbEntity
  8
0
 62
     7
100
AcDbLine
 10
216.374283
 20
1.737999
 30
0.0
 11
216.976369
 21
2.340085
 31
0.0
  0
LINE
  5
9BE
100
AcDbEntity
  8
0
 62
     7
100
AcDbLine
 10
216.498027
 20
1.737999
 30
0.0
 11
217.008451
 21
2.248423
 31
0.0
  0
LINE
  5
9BF
100
AcDbEntity
  8
0
 62
     7
100
AcDbLine
 10
216.621771
 20
1.737999
 30
0.0
 11
217.040532
 21
2.156761
 31
0.0
  0
LINE
  5
9C0
100
AcDbEntity
  8
0
 62
     7
100
AcDbLine
 10
216.745514
 20
1.737999
 30
0.0
 11
217.072614
 21
2.065099
 31
0.0
  0
LINE
  5
9C1
100
AcDbEntity
  8
0
 62
     7
100
AcDbLine
 10
216.869258
 20
1.737999
 30
0.0
 11
217.104696
 21
1.973437
 31
0.0
  0
LINE
  5
9C2
100
AcDbEntity
  8
0
 62
     7
100
AcDbLine
 10
216.993002
 20
1.737999
 30
0.0
 11
217.136778
 21
1.881775
 31
0.0
  0
LINE
  5
9C3
100
AcDbEntity
  8
0
 62
     7
100
AcDbLine
 10
217.116746
 20
1.737999
 30
0.0
 11
217.168859
 21
1.790113
 31
0.0
  0
LINE
  5
9C4
100
AcDbEntity
  8
0
 62
     7
100
AcDbLine
 10
217.677099
 20
6.134407
 30
0.0
 11
219.637099
 21
8.094407
 31
0.0
  0
LINE
  5
9C5
100
AcDbEntity
  8
0
 62
     7
100
AcDbLine
 10
217.677099
 20
6.258151
 30
0.0
 11
219.637099
 21
8.218151
 31
0.0
  0
LINE
  5
9C6
100
AcDbEntity
  8
0
 62
     7
100
AcDbLine
 10
217.677099
 20
6.381894
 30
0.0
 11
219.637099
 21
8.341894
 31
0.0
  0
LINE
  5
9C7
100
AcDbEntity
  8
0
 62
     7
100
AcDbLine
 10
217.677099
 20
6.505638
 30
0.0
 11
219.637099
 21
8.465638
 31
0.0
  0
LINE
  5
9C8
100
AcDbEntity
  8
0
 62
     7
100
AcDbLine
 10
217.677099
 20
6.629382
 30
0.0
 11
219.637099
 21
8.589382
 31
0.0
  0
LINE
  5
9C9
100
AcDbEntity
  8
0
 62
     7
100
AcDbLine
 10
217.677099
 20
6.753126
 30
0.0
 11
219.637099
 21
8.713126
 31
0.0
  0
LINE
  5
9CA
100
AcDbEntity
  8
0
 62
     7
100
AcDbLine
 10
217.677099
 20
6.876869
 30
0.0
 11
219.538229
 21
8.737999
 31
0.0
  0
LINE
  5
9CB
100
AcDbEntity
  8
0
 62
     7
100
AcDbLine
 10
217.677099
 20
7.000613
 30
0.0
 11
219.414485
 21
8.737999
 31
0.0
  0
LINE
  5
9CC
100
AcDbEntity
  8
0
 62
     7
100
AcDbLine
 10
217.677099
 20
7.124357
 30
0.0
 11
219.290742
 21
8.737999
 31
0.0
  0
LINE
  5
9CD
100
AcDbEntity
  8
0
 62
     7
100
AcDbLine
 10
217.677099
 20
7.2481
 30
0.0
 11
219.166998
 21
8.737999
 31
0.0
  0
LINE
  5
9CE
100
AcDbEntity
  8
0
 62
     7
100
AcDbLine
 10
217.677099
 20
7.371844
 30
0.0
 11
219.043254
 21
8.737999
 31
0.0
  0
LINE
  5
9CF
100
AcDbEntity
  8
0
 62
     7
100
AcDbLine
 10
217.677099
 20
7.495588
 30
0.0
 11
218.919511
 21
8.737999
 31
0.0
  0
LINE
  5
9D0
100
AcDbEntity
  8
0
 62
     7
100
AcDbLine
 10
217.677099
 20
7.619331
 30
0.0
 11
218.795767
 21
8.737999
 31
0.0
  0
LINE
  5
9D1
100
AcDbEntity
  8
0
 62
     7
100
AcDbLine
 10
217.677099
 20
7.743075
 30
0.0
 11
218.672023
 21
8.737999
 31
0.0
  0
LINE
  5
9D2
100
AcDbEntity
  8
0
 62
     7
100
AcDbLine
 10
217.677099
 20
7.866819
 30
0.0
 11
218.54828
 21
8.737999
 31
0.0
  0
LINE
  5
9D3
100
AcDbEntity
  8
0
 62
     7
100
AcDbLine
 10
217.677099
 20
7.990562
 30
0.0
 11
218.424536
 21
8.737999
 31
0.0
  0
LINE
  5
9D4
100
AcDbEntity
  8
0
 62
     7
100
AcDbLine
 10
217.677099
 20
8.114306
 30
0.0
 11
218.300792
 21
8.737999
 31
0.0
  0
LINE
  5
9D5
100
AcDbEntity
  8
0
 62
     7
100
AcDbLine
 10
217.677099
 20
8.23805
 30
0.0
 11
218.177049
 21
8.737999
 31
0.0
  0
LINE
  5
9D6
100
AcDbEntity
  8
0
 62
     7
100
AcDbLine
 10
217.677099
 20
8.361793
 30
0.0
 11
218.053305
 21
8.737999
 31
0.0
  0
LINE
  5
9D7
100
AcDbEntity
  8
0
 62
     7
100
AcDbLine
 10
217.677099
 20
8.485537
 30
0.0
 11
217.929561
 21
8.737999
 31
0.0
  0
LINE
  5
9D8
100
AcDbEntity
  8
0
 62
     7
100
AcDbLine
 10
217.677099
 20
8.609281
 30
0.0
 11
217.805818
 21
8.737999
 31
0.0
  0
LINE
  5
9D9
100
AcDbEntity
  8
0
 62
     7
100
AcDbLine
 10
217.677099
 20
8.733025
 30
0.0
 11
217.682074
 21
8.737999
 31
0.0
  0
LINE
  5
9DA
100
AcDbEntity
  8
0
 62
     7
100
AcDbLine
 10
217.677099
 20
6.010663
 30
0.0
 11
219.637099
 21
7.970663
 31
0.0
  0
LINE
  5
9DB
100
AcDbEntity
  8
0
 62
     7
100
AcDbLine
 10
217.677099
 20
5.88692
 30
0.0
 11
219.637099
 21
7.84692
 31
0.0
  0
LINE
  5
9DC
100
AcDbEntity
  8
0
 62
     7
100
AcDbLine
 10
217.677099
 20
5.763176
 30
0.0
 11
219.637099
 21
7.723176
 31
0.0
  0
LINE
  5
9DD
100
AcDbEntity
  8
0
 62
     7
100
AcDbLine
 10
217.677099
 20
5.639432
 30
0.0
 11
219.637099
 21
7.599432
 31
0.0
  0
LINE
  5
9DE
100
AcDbEntity
  8
0
 62
     7
100
AcDbLine
 10
217.677099
 20
5.515689
 30
0.0
 11
219.637099
 21
7.475689
 31
0.0
  0
LINE
  5
9DF
100
AcDbEntity
  8
0
 62
     7
100
AcDbLine
 10
217.677099
 20
5.391945
 30
0.0
 11
219.637099
 21
7.351945
 31
0.0
  0
LINE
  5
9E0
100
AcDbEntity
  8
0
 62
     7
100
AcDbLine
 10
217.786897
 20
5.377999
 30
0.0
 11
219.637099
 21
7.228201
 31
0.0
  0
LINE
  5
9E1
100
AcDbEntity
  8
0
 62
     7
100
AcDbLine
 10
217.910641
 20
5.377999
 30
0.0
 11
219.637099
 21
7.104458
 31
0.0
  0
LINE
  5
9E2
100
AcDbEntity
  8
0
 62
     7
100
AcDbLine
 10
218.034384
 20
5.377999
 30
0.0
 11
219.637099
 21
6.980714
 31
0.0
  0
LINE
  5
9E3
100
AcDbEntity
  8
0
 62
     7
100
AcDbLine
 10
218.158128
 20
5.377999
 30
0.0
 11
219.637099
 21
6.85697
 31
0.0
  0
LINE
  5
9E4
100
AcDbEntity
  8
0
 62
     7
100
AcDbLine
 10
218.281872
 20
5.377999
 30
0.0
 11
219.637099
 21
6.733227
 31
0.0
  0
LINE
  5
9E5
100
AcDbEntity
  8
0
 62
     7
100
AcDbLine
 10
218.405615
 20
5.377999
 30
0.0
 11
219.637099
 21
6.609483
 31
0.0
  0
LINE
  5
9E6
100
AcDbEntity
  8
0
 62
     7
100
AcDbLine
 10
218.529359
 20
5.377999
 30
0.0
 11
219.637099
 21
6.485739
 31
0.0
  0
LINE
  5
9E7
100
AcDbEntity
  8
0
 62
     7
100
AcDbLine
 10
218.653103
 20
5.377999
 30
0.0
 11
219.637099
 21
6.361995
 31
0.0
  0
LINE
  5
9E8
100
AcDbEntity
  8
0
 62
     7
100
AcDbLine
 10
218.776847
 20
5.377999
 30
0.0
 11
219.637099
 21
6.238252
 31
0.0
  0
LINE
  5
9E9
100
AcDbEntity
  8
0
 62
     7
100
AcDbLine
 10
218.90059
 20
5.377999
 30
0.0
 11
219.637099
 21
6.114508
 31
0.0
  0
LINE
  5
9EA
100
AcDbEntity
  8
0
 62
     7
100
AcDbLine
 10
219.024334
 20
5.377999
 30
0.0
 11
219.637099
 21
5.990764
 31
0.0
  0
LINE
  5
9EB
100
AcDbEntity
  8
0
 62
     7
100
AcDbLine
 10
219.148078
 20
5.377999
 30
0.0
 11
219.637099
 21
5.867021
 31
0.0
  0
LINE
  5
9EC
100
AcDbEntity
  8
0
 62
     7
100
AcDbLine
 10
219.271821
 20
5.377999
 30
0.0
 11
219.637099
 21
5.743277
 31
0.0
  0
LINE
  5
9ED
100
AcDbEntity
  8
0
 62
     7
100
AcDbLine
 10
219.395565
 20
5.377999
 30
0.0
 11
219.637099
 21
5.619533
 31
0.0
  0
LINE
  5
9EE
100
AcDbEntity
  8
0
 62
     7
100
AcDbLine
 10
219.519309
 20
5.377999
 30
0.0
 11
219.637099
 21
5.49579
 31
0.0
  0
LINE
  5
9EF
100
AcDbEntity
  8
0
 62
     7
100
AcDbLine
 10
217.677099
 20
2.54584
 30
0.0
 11
219.637099
 21
4.50584
 31
0.0
  0
LINE
  5
9F0
100
AcDbEntity
  8
0
 62
     7
100
AcDbLine
 10
217.677099
 20
2.669584
 30
0.0
 11
219.637099
 21
4.629584
 31
0.0
  0
LINE
  5
9F1
100
AcDbEntity
  8
0
 62
     7
100
AcDbLine
 10
217.677099
 20
2.793328
 30
0.0
 11
219.637099
 21
4.753328
 31
0.0
  0
LINE
  5
9F2
100
AcDbEntity
  8
0
 62
     7
100
AcDbLine
 10
217.677099
 20
2.917071
 30
0.0
 11
219.637099
 21
4.877071
 31
0.0
  0
LINE
  5
9F3
100
AcDbEntity
  8
0
 62
     7
100
AcDbLine
 10
217.677099
 20
3.040815
 30
0.0
 11
219.637099
 21
5.000815
 31
0.0
  0
LINE
  5
9F4
100
AcDbEntity
  8
0
 62
     7
100
AcDbLine
 10
217.677099
 20
3.164559
 30
0.0
 11
219.61054
 21
5.097999
 31
0.0
  0
LINE
  5
9F5
100
AcDbEntity
  8
0
 62
     7
100
AcDbLine
 10
217.677099
 20
3.288302
 30
0.0
 11
219.486796
 21
5.097999
 31
0.0
  0
LINE
  5
9F6
100
AcDbEntity
  8
0
 62
     7
100
AcDbLine
 10
217.677099
 20
3.412046
 30
0.0
 11
219.363052
 21
5.097999
 31
0.0
  0
LINE
  5
9F7
100
AcDbEntity
  8
0
 62
     7
100
AcDbLine
 10
217.677099
 20
3.53579
 30
0.0
 11
219.239309
 21
5.097999
 31
0.0
  0
LINE
  5
9F8
100
AcDbEntity
  8
0
 62
     7
100
AcDbLine
 10
217.677099
 20
3.659533
 30
0.0
 11
219.115565
 21
5.097999
 31
0.0
  0
LINE
  5
9F9
100
AcDbEntity
  8
0
 62
     7
100
AcDbLine
 10
217.677099
 20
3.783277
 30
0.0
 11
218.991821
 21
5.097999
 31
0.0
  0
LINE
  5
9FA
100
AcDbEntity
  8
0
 62
     7
100
AcDbLine
 10
217.677099
 20
3.907021
 30
0.0
 11
218.868078
 21
5.097999
 31
0.0
  0
LINE
  5
9FB
100
AcDbEntity
  8
0
 62
     7
100
AcDbLine
 10
217.677099
 20
4.030764
 30
0.0
 11
218.744334
 21
5.097999
 31
0.0
  0
LINE
  5
9FC
100
AcDbEntity
  8
0
 62
     7
100
AcDbLine
 10
217.677099
 20
4.154508
 30
0.0
 11
218.62059
 21
5.097999
 31
0.0
  0
LINE
  5
9FD
100
AcDbEntity
  8
0
 62
     7
100
AcDbLine
 10
217.677099
 20
4.278252
 30
0.0
 11
218.496847
 21
5.097999
 31
0.0
  0
LINE
  5
9FE
100
AcDbEntity
  8
0
 62
     7
100
AcDbLine
 10
217.677099
 20
4.401995
 30
0.0
 11
218.373103
 21
5.097999
 31
0.0
  0
LINE
  5
9FF
100
AcDbEntity
  8
0
 62
     7
100
AcDbLine
 10
217.677099
 20
4.525739
 30
0.0
 11
218.249359
 21
5.097999
 31
0.0
  0
LINE
  5
A00
100
AcDbEntity
  8
0
 62
     7
100
AcDbLine
 10
217.677099
 20
4.649483
 30
0.0
 11
218.125615
 21
5.097999
 31
0.0
  0
LINE
  5
A01
100
AcDbEntity
  8
0
 62
     7
100
AcDbLine
 10
217.677099
 20
4.773227
 30
0.0
 11
218.001872
 21
5.097999
 31
0.0
  0
LINE
  5
A02
100
AcDbEntity
  8
0
 62
     7
100
AcDbLine
 10
217.677099
 20
4.89697
 30
0.0
 11
217.878128
 21
5.097999
 31
0.0
  0
LINE
  5
A03
100
AcDbEntity
  8
0
 62
     7
100
AcDbLine
 10
217.677099
 20
5.020714
 30
0.0
 11
217.754384
 21
5.097999
 31
0.0
  0
LINE
  5
A04
100
AcDbEntity
  8
0
 62
     7
100
AcDbLine
 10
217.677099
 20
2.422096
 30
0.0
 11
219.637099
 21
4.382096
 31
0.0
  0
LINE
  5
A05
100
AcDbEntity
  8
0
 62
     7
100
AcDbLine
 10
217.677099
 20
2.298353
 30
0.0
 11
219.637099
 21
4.258353
 31
0.0
  0
LINE
  5
A06
100
AcDbEntity
  8
0
 62
     7
100
AcDbLine
 10
217.677099
 20
2.174609
 30
0.0
 11
219.637099
 21
4.134609
 31
0.0
  0
LINE
  5
A07
100
AcDbEntity
  8
0
 62
     7
100
AcDbLine
 10
217.677099
 20
2.050865
 30
0.0
 11
219.637099
 21
4.010865
 31
0.0
  0
LINE
  5
A08
100
AcDbEntity
  8
0
 62
     7
100
AcDbLine
 10
217.677099
 20
1.927122
 30
0.0
 11
219.637099
 21
3.887122
 31
0.0
  0
LINE
  5
A09
100
AcDbEntity
  8
0
 62
     7
100
AcDbLine
 10
217.677099
 20
1.803378
 30
0.0
 11
219.637099
 21
3.763378
 31
0.0
  0
LINE
  5
A0A
100
AcDbEntity
  8
0
 62
     7
100
AcDbLine
 10
217.735464
 20
1.737999
 30
0.0
 11
219.637099
 21
3.639634
 31
0.0
  0
LINE
  5
A0B
100
AcDbEntity
  8
0
 62
     7
100
AcDbLine
 10
217.859208
 20
1.737999
 30
0.0
 11
219.637099
 21
3.515891
 31
0.0
  0
LINE
  5
A0C
100
AcDbEntity
  8
0
 62
     7
100
AcDbLine
 10
217.982951
 20
1.737999
 30
0.0
 11
219.637099
 21
3.392147
 31
0.0
  0
LINE
  5
A0D
100
AcDbEntity
  8
0
 62
     7
100
AcDbLine
 10
218.106695
 20
1.737999
 30
0.0
 11
219.637099
 21
3.268403
 31
0.0
  0
LINE
  5
A0E
100
AcDbEntity
  8
0
 62
     7
100
AcDbLine
 10
218.230439
 20
1.737999
 30
0.0
 11
219.637099
 21
3.14466
 31
0.0
  0
LINE
  5
A0F
100
AcDbEntity
  8
0
 62
     7
100
AcDbLine
 10
218.354182
 20
1.737999
 30
0.0
 11
219.637099
 21
3.020916
 31
0.0
  0
LINE
  5
A10
100
AcDbEntity
  8
0
 62
     7
100
AcDbLine
 10
218.477926
 20
1.737999
 30
0.0
 11
219.637099
 21
2.897172
 31
0.0
  0
LINE
  5
A11
100
AcDbEntity
  8
0
 62
     7
100
AcDbLine
 10
218.60167
 20
1.737999
 30
0.0
 11
219.637099
 21
2.773429
 31
0.0
  0
LINE
  5
A12
100
AcDbEntity
  8
0
 62
     7
100
AcDbLine
 10
218.725413
 20
1.737999
 30
0.0
 11
219.637099
 21
2.649685
 31
0.0
  0
LINE
  5
A13
100
AcDbEntity
  8
0
 62
     7
100
AcDbLine
 10
218.849157
 20
1.737999
 30
0.0
 11
219.637099
 21
2.525941
 31
0.0
  0
LINE
  5
A14
100
AcDbEntity
  8
0
 62
     7
100
AcDbLine
 10
218.972901
 20
1.737999
 30
0.0
 11
219.637099
 21
2.402197
 31
0.0
  0
LINE
  5
A15
100
AcDbEntity
  8
0
 62
     7
100
AcDbLine
 10
219.096645
 20
1.737999
 30
0.0
 11
219.637099
 21
2.278454
 31
0.0
  0
LINE
  5
A16
100
AcDbEntity
  8
0
 62
     7
100
AcDbLine
 10
219.220388
 20
1.737999
 30
0.0
 11
219.637099
 21
2.15471
 31
0.0
  0
LINE
  5
A17
100
AcDbEntity
  8
0
 62
     7
100
AcDbLine
 10
219.344132
 20
1.737999
 30
0.0
 11
219.637099
 21
2.030966
 31
0.0
  0
LINE
  5
A18
100
AcDbEntity
  8
0
 62
     7
100
AcDbLine
 10
219.467876
 20
1.737999
 30
0.0
 11
219.637099
 21
1.907223
 31
0.0
  0
LINE
  5
A19
100
AcDbEntity
  8
0
 62
     7
100
AcDbLine
 10
219.591619
 20
1.737999
 30
0.0
 11
219.637099
 21
1.783479
 31
0.0
  0
LINE
  5
A1A
100
AcDbEntity
  8
0
 62
     7
100
AcDbLine
 10
219.917099
 20
6.147021
 30
0.0
 11
221.795195
 21
8.025117
 31
0.0
  0
LINE
  5
A1B
100
AcDbEntity
  8
0
 62
     7
100
AcDbLine
 10
219.917099
 20
6.270764
 30
0.0
 11
221.744451
 21
8.098116
 31
0.0
  0
LINE
  5
A1C
100
AcDbEntity
  8
0
 62
     7
100
AcDbLine
 10
219.917099
 20
6.394508
 30
0.0
 11
221.690148
 21
8.167557
 31
0.0
  0
LINE
  5
A1D
100
AcDbEntity
  8
0
 62
     7
100
AcDbLine
 10
219.917099
 20
6.518252
 30
0.0
 11
221.63236
 21
8.233512
 31
0.0
  0
LINE
  5
A1E
100
AcDbEntity
  8
0
 62
     7
100
AcDbLine
 10
219.917099
 20
6.641995
 30
0.0
 11
221.571123
 21
8.29602
 31
0.0
  0
LINE
  5
A1F
100
AcDbEntity
  8
0
 62
     7
100
AcDbLine
 10
219.917099
 20
6.765739
 30
0.0
 11
221.506446
 21
8.355086
 31
0.0
  0
LINE
  5
A20
100
AcDbEntity
  8
0
 62
     7
100
AcDbLine
 10
219.917099
 20
6.889483
 30
0.0
 11
221.4383
 21
8.410684
 31
0.0
  0
LINE
  5
A21
100
AcDbEntity
  8
0
 62
     7
100
AcDbLine
 10
219.917099
 20
7.013227
 30
0.0
 11
221.366627
 21
8.462755
 31
0.0
  0
LINE
  5
A22
100
AcDbEntity
  8
0
 62
     7
100
AcDbLine
 10
219.917099
 20
7.13697
 30
0.0
 11
221.291331
 21
8.511202
 31
0.0
  0
LINE
  5
A23
100
AcDbEntity
  8
0
 62
     7
100
AcDbLine
 10
219.917099
 20
7.260714
 30
0.0
 11
221.212274
 21
8.555889
 31
0.0
  0
LINE
  5
A24
100
AcDbEntity
  8
0
 62
     7
100
AcDbLine
 10
219.917099
 20
7.384458
 30
0.0
 11
221.129271
 21
8.59663
 31
0.0
  0
LINE
  5
A25
100
AcDbEntity
  8
0
 62
     7
100
AcDbLine
 10
219.917099
 20
7.508201
 30
0.0
 11
221.042076
 21
8.633178
 31
0.0
  0
LINE
  5
A26
100
AcDbEntity
  8
0
 62
     7
100
AcDbLine
 10
219.917099
 20
7.631945
 30
0.0
 11
220.950366
 21
8.665212
 31
0.0
  0
LINE
  5
A27
100
AcDbEntity
  8
0
 62
     7
100
AcDbLine
 10
219.917099
 20
7.755689
 30
0.0
 11
220.853718
 21
8.692307
 31
0.0
  0
LINE
  5
A28
100
AcDbEntity
  8
0
 62
     7
100
AcDbLine
 10
219.917099
 20
7.879432
 30
0.0
 11
220.751567
 21
8.7139
 31
0.0
  0
LINE
  5
A29
100
AcDbEntity
  8
0
 62
     7
100
AcDbLine
 10
219.917099
 20
8.003176
 30
0.0
 11
220.643145
 21
8.729222
 31
0.0
  0
LINE
  5
A2A
100
AcDbEntity
  8
0
 62
     7
100
AcDbLine
 10
219.917099
 20
8.12692
 30
0.0
 11
220.527376
 21
8.737197
 31
0.0
  0
LINE
  5
A2B
100
AcDbEntity
  8
0
 62
     7
100
AcDbLine
 10
219.917099
 20
8.250663
 30
0.0
 11
220.404434
 21
8.737999
 31
0.0
  0
LINE
  5
A2C
100
AcDbEntity
  8
0
 62
     7
100
AcDbLine
 10
219.917099
 20
8.374407
 30
0.0
 11
220.280691
 21
8.737999
 31
0.0
  0
LINE
  5
A2D
100
AcDbEntity
  8
0
 62
     7
100
AcDbLine
 10
219.917099
 20
8.498151
 30
0.0
 11
220.156947
 21
8.737999
 31
0.0
  0
LINE
  5
A2E
100
AcDbEntity
  8
0
 62
     7
100
AcDbLine
 10
219.917099
 20
8.621894
 30
0.0
 11
220.033204
 21
8.737999
 31
0.0
  0
LINE
  5
A2F
100
AcDbEntity
  8
0
 62
     7
100
AcDbLine
 10
219.917099
 20
6.023277
 30
0.0
 11
221.842271
 21
7.948449
 31
0.0
  0
LINE
  5
A30
100
AcDbEntity
  8
0
 62
     7
100
AcDbLine
 10
219.917099
 20
5.899533
 30
0.0
 11
221.885523
 21
7.867958
 31
0.0
  0
LINE
  5
A31
100
AcDbEntity
  8
0
 62
     7
100
AcDbLine
 10
219.917099
 20
5.77579
 30
0.0
 11
221.924746
 21
7.783437
 31
0.0
  0
LINE
  5
A32
100
AcDbEntity
  8
0
 62
     7
100
AcDbLine
 10
219.917099
 20
5.652046
 30
0.0
 11
221.959668
 21
7.694615
 31
0.0
  0
LINE
  5
A33
100
AcDbEntity
  8
0
 62
     7
100
AcDbLine
 10
219.917099
 20
5.528302
 30
0.0
 11
221.989932
 21
7.601135
 31
0.0
  0
LINE
  5
A34
100
AcDbEntity
  8
0
 62
     7
100
AcDbLine
 10
219.917099
 20
5.404559
 30
0.0
 11
222.015067
 21
7.502527
 31
0.0
  0
LINE
  5
A35
100
AcDbEntity
  8
0
 62
     7
100
AcDbLine
 10
220.014283
 20
5.377999
 30
0.0
 11
222.034444
 21
7.39816
 31
0.0
  0
LINE
  5
A36
100
AcDbEntity
  8
0
 62
     7
100
AcDbLine
 10
220.138027
 20
5.377999
 30
0.0
 11
222.047197
 21
7.287169
 31
0.0
  0
LINE
  5
A37
100
AcDbEntity
  8
0
 62
     7
100
AcDbLine
 10
220.261771
 20
5.377999
 30
0.0
 11
222.05209
 21
7.168319
 31
0.0
  0
LINE
  5
A38
100
AcDbEntity
  8
0
 62
     7
100
AcDbLine
 10
220.385514
 20
5.377999
 30
0.0
 11
222.04727
 21
7.039754
 31
0.0
  0
LINE
  5
A39
100
AcDbEntity
  8
0
 62
     7
100
AcDbLine
 10
220.509258
 20
5.377999
 30
0.0
 11
222.029725
 21
6.898466
 31
0.0
  0
LINE
  5
A3A
100
AcDbEntity
  8
0
 62
     7
100
AcDbLine
 10
220.633002
 20
5.377999
 30
0.0
 11
221.993936
 21
6.738933
 31
0.0
  0
LINE
  5
A3B
100
AcDbEntity
  8
0
 62
     7
100
AcDbLine
 10
220.756746
 20
5.377999
 30
0.0
 11
221.927299
 21
6.548553
 31
0.0
  0
LINE
  5
A3C
100
AcDbEntity
  8
0
 62
     7
100
AcDbLine
 10
220.880489
 20
5.377999
 30
0.0
 11
221.280665
 21
5.778175
 31
0.0
  0
LINE
  5
A3D
100
AcDbEntity
  8
0
 62
     7
100
AcDbLine
 10
221.36381
 20
5.86132
 30
0.0
 11
221.778778
 21
6.276288
 31
0.0
  0
LINE
  5
A3E
100
AcDbEntity
  8
0
 62
     7
100
AcDbLine
 10
221.004233
 20
5.377999
 30
0.0
 11
221.366562
 21
5.740328
 31
0.0
  0
LINE
  5
A3F
100
AcDbEntity
  8
0
 62
     7
100
AcDbLine
 10
221.127977
 20
5.377999
 30
0.0
 11
221.449353
 21
5.699376
 31
0.0
  0
LINE
  5
A40
100
AcDbEntity
  8
0
 62
     7
100
AcDbLine
 10
221.25172
 20
5.377999
 30
0.0
 11
221.529174
 21
5.655453
 31
0.0
  0
LINE
  5
A41
100
AcDbEntity
  8
0
 62
     7
100
AcDbLine
 10
221.375464
 20
5.377999
 30
0.0
 11
221.606135
 21
5.608671
 31
0.0
  0
LINE
  5
A42
100
AcDbEntity
  8
0
 62
     7
100
AcDbLine
 10
221.499208
 20
5.377999
 30
0.0
 11
221.680325
 21
5.559117
 31
0.0
  0
LINE
  5
A43
100
AcDbEntity
  8
0
 62
     7
100
AcDbLine
 10
221.622951
 20
5.377999
 30
0.0
 11
221.751814
 21
5.506862
 31
0.0
  0
LINE
  5
A44
100
AcDbEntity
  8
0
 62
     7
100
AcDbLine
 10
221.746695
 20
5.377999
 30
0.0
 11
221.820653
 21
5.451958
 31
0.0
  0
LINE
  5
A45
100
AcDbEntity
  8
0
 62
     7
100
AcDbLine
 10
221.870439
 20
5.377999
 30
0.0
 11
221.886881
 21
5.394442
 31
0.0
  0
LINE
  5
A46
100
AcDbEntity
  8
0
 62
     7
100
AcDbLine
 10
219.917099
 20
2.310966
 30
0.0
 11
222.364614
 21
4.758481
 31
0.0
  0
LINE
  5
A47
100
AcDbEntity
  8
0
 62
     7
100
AcDbLine
 10
219.917099
 20
2.43471
 30
0.0
 11
222.322547
 21
4.840158
 31
0.0
  0
LINE
  5
A48
100
AcDbEntity
  8
0
 62
     7
100
AcDbLine
 10
219.917099
 20
2.558454
 30
0.0
 11
222.277553
 21
4.918908
 31
0.0
  0
LINE
  5
A49
100
AcDbEntity
  8
0
 62
     7
100
AcDbLine
 10
219.917099
 20
2.682197
 30
0.0
 11
222.229735
 21
4.994834
 31
0.0
  0
LINE
  5
A4A
100
AcDbEntity
  8
0
 62
     7
100
AcDbLine
 10
219.917099
 20
2.805941
 30
0.0
 11
222.179174
 21
5.068016
 31
0.0
  0
LINE
  5
A4B
100
AcDbEntity
  8
0
 62
     7
100
AcDbLine
 10
219.917099
 20
2.929685
 30
0.0
 11
222.085413
 21
5.097999
 31
0.0
  0
LINE
  5
A4C
100
AcDbEntity
  8
0
 62
     7
100
AcDbLine
 10
219.917099
 20
3.053429
 30
0.0
 11
221.96167
 21
5.097999
 31
0.0
  0
LINE
  5
A4D
100
AcDbEntity
  8
0
 62
     7
100
AcDbLine
 10
219.917099
 20
3.177172
 30
0.0
 11
221.837926
 21
5.097999
 31
0.0
  0
LINE
  5
A4E
100
AcDbEntity
  8
0
 62
     7
100
AcDbLine
 10
219.917099
 20
3.300916
 30
0.0
 11
221.714182
 21
5.097999
 31
0.0
  0
LINE
  5
A4F
100
AcDbEntity
  8
0
 62
     7
100
AcDbLine
 10
219.917099
 20
3.42466
 30
0.0
 11
221.590439
 21
5.097999
 31
0.0
  0
LINE
  5
A50
100
AcDbEntity
  8
0
 62
     7
100
AcDbLine
 10
219.917099
 20
3.548403
 30
0.0
 11
221.466695
 21
5.097999
 31
0.0
  0
LINE
  5
A51
100
AcDbEntity
  8
0
 62
     7
100
AcDbLine
 10
219.917099
 20
3.672147
 30
0.0
 11
221.342951
 21
5.097999
 31
0.0
  0
LINE
  5
A52
100
AcDbEntity
  8
0
 62
     7
100
AcDbLine
 10
219.917099
 20
3.795891
 30
0.0
 11
221.219208
 21
5.097999
 31
0.0
  0
LINE
  5
A53
100
AcDbEntity
  8
0
 62
     7
100
AcDbLine
 10
219.917099
 20
3.919634
 30
0.0
 11
221.095464
 21
5.097999
 31
0.0
  0
LINE
  5
A54
100
AcDbEntity
  8
0
 62
     7
100
AcDbLine
 10
219.917099
 20
4.043378
 30
0.0
 11
220.97172
 21
5.097999
 31
0.0
  0
LINE
  5
A55
100
AcDbEntity
  8
0
 62
     7
100
AcDbLine
 10
219.917099
 20
4.167122
 30
0.0
 11
220.847977
 21
5.097999
 31
0.0
  0
LINE
  5
A56
100
AcDbEntity
  8
0
 62
     7
100
AcDbLine
 10
219.917099
 20
4.290865
 30
0.0
 11
220.724233
 21
5.097999
 31
0.0
  0
LINE
  5
A57
100
AcDbEntity
  8
0
 62
     7
100
AcDbLine
 10
219.917099
 20
4.414609
 30
0.0
 11
220.600489
 21
5.097999
 31
0.0
  0
LINE
  5
A58
100
AcDbEntity
  8
0
 62
     7
100
AcDbLine
 10
219.917099
 20
4.538353
 30
0.0
 11
220.476746
 21
5.097999
 31
0.0
  0
LINE
  5
A59
100
AcDbEntity
  8
0
 62
     7
100
AcDbLine
 10
219.917099
 20
4.662096
 30
0.0
 11
220.353002
 21
5.097999
 31
0.0
  0
LINE
  5
A5A
100
AcDbEntity
  8
0
 62
     7
100
AcDbLine
 10
219.917099
 20
4.78584
 30
0.0
 11
220.229258
 21
5.097999
 31
0.0
  0
LINE
  5
A5B
100
AcDbEntity
  8
0
 62
     7
100
AcDbLine
 10
219.917099
 20
4.909584
 30
0.0
 11
220.105514
 21
5.097999
 31
0.0
  0
LINE
  5
A5C
100
AcDbEntity
  8
0
 62
     7
100
AcDbLine
 10
219.917099
 20
5.033328
 30
0.0
 11
219.981771
 21
5.097999
 31
0.0
  0
LINE
  5
A5D
100
AcDbEntity
  8
0
 62
     7
100
AcDbLine
 10
219.917099
 20
2.187223
 30
0.0
 11
222.403629
 21
4.673752
 31
0.0
  0
LINE
  5
A5E
100
AcDbEntity
  8
0
 62
     7
100
AcDbLine
 10
219.917099
 20
2.063479
 30
0.0
 11
222.439437
 21
4.585817
 31
0.0
  0
LINE
  5
A5F
100
AcDbEntity
  8
0
 62
     7
100
AcDbLine
 10
219.917099
 20
1.939735
 30
0.0
 11
222.471849
 21
4.494485
 31
0.0
  0
LINE
  5
A60
100
AcDbEntity
  8
0
 62
     7
100
AcDbLine
 10
219.917099
 20
1.815992
 30
0.0
 11
222.500633
 21
4.399525
 31
0.0
  0
LINE
  5
A61
100
AcDbEntity
  8
0
 62
     7
100
AcDbLine
 10
219.96285
 20
1.737999
 30
0.0
 11
222.525502
 21
4.300651
 31
0.0
  0
LINE
  5
A62
100
AcDbEntity
  8
0
 62
     7
100
AcDbLine
 10
220.086594
 20
1.738
 30
0.0
 11
222.546098
 21
4.197503
 31
0.0
  0
LINE
  5
A63
100
AcDbEntity
  8
0
 62
     7
100
AcDbLine
 10
220.210338
 20
1.738
 30
0.0
 11
222.561969
 21
4.08963
 31
0.0
  0
LINE
  5
A64
100
AcDbEntity
  8
0
 62
     7
100
AcDbLine
 10
220.334082
 20
1.738
 30
0.0
 11
222.57253
 21
3.976448
 31
0.0
  0
LINE
  5
A65
100
AcDbEntity
  8
0
 62
     7
100
AcDbLine
 10
220.457826
 20
1.738
 30
0.0
 11
222.577011
 21
3.857186
 31
0.0
  0
LINE
  5
A66
100
AcDbEntity
  8
0
 62
     7
100
AcDbLine
 10
220.584307
 20
1.740738
 30
0.0
 11
222.574361
 21
3.730791
 31
0.0
  0
LINE
  5
A67
100
AcDbEntity
  8
0
 62
     7
100
AcDbLine
 10
220.71933
 20
1.752016
 30
0.0
 11
222.563082
 21
3.595769
 31
0.0
  0
LINE
  5
A68
100
AcDbEntity
  8
0
 62
     7
100
AcDbLine
 10
220.865237
 20
1.77418
 30
0.0
 11
222.540918
 21
3.449861
 31
0.0
  0
LINE
  5
A69
100
AcDbEntity
  8
0
 62
     7
100
AcDbLine
 10
221.025733
 20
1.810932
 30
0.0
 11
222.504166
 21
3.289366
 31
0.0
  0
LINE
  5
A6A
100
AcDbEntity
  8
0
 62
     7
100
AcDbLine
 10
221.207749
 20
1.869205
 30
0.0
 11
222.445893
 21
3.107349
 31
0.0
  0
LINE
  5
A6B
100
AcDbEntity
  8
0
 62
     7
100
AcDbLine
 10
221.427822
 20
1.965534
 30
0.0
 11
222.349564
 21
2.887276
 31
0.0
  0
LINE
  5
A6C
100
AcDbEntity
  8
0
 62
     7
100
AcDbLine
 10
221.76645
 20
2.180419
 30
0.0
 11
222.13468
 21
2.548648
 31
0.0
  0
LINE
  5
A6D
100
AcDbEntity
  8
0
 62
     7
100
AcDbLine
 10
225.377099
 20
2.310966
 30
0.0
 11
227.824614
 21
4.758481
 31
0.0
  0
LINE
  5
A6E
100
AcDbEntity
  8
0
 62
     7
100
AcDbLine
 10
225.377099
 20
2.43471
 30
0.0
 11
227.782547
 21
4.840158
 31
0.0
  0
LINE
  5
A6F
100
AcDbEntity
  8
0
 62
     7
100
AcDbLine
 10
225.377099
 20
2.558454
 30
0.0
 11
227.737553
 21
4.918908
 31
0.0
  0
LINE
  5
A70
100
AcDbEntity
  8
0
 62
     7
100
AcDbLine
 10
225.377099
 20
2.682197
 30
0.0
 11
227.689735
 21
4.994834
 31
0.0
  0
LINE
  5
A71
100
AcDbEntity
  8
0
 62
     7
100
AcDbLine
 10
225.377099
 20
2.805941
 30
0.0
 11
227.639174
 21
5.068016
 31
0.0
  0
LINE
  5
A72
100
AcDbEntity
  8
0
 62
     7
100
AcDbLine
 10
225.377099
 20
2.929685
 30
0.0
 11
227.545413
 21
5.097999
 31
0.0
  0
LINE
  5
A73
100
AcDbEntity
  8
0
 62
     7
100
AcDbLine
 10
225.377099
 20
3.053429
 30
0.0
 11
227.42167
 21
5.097999
 31
0.0
  0
LINE
  5
A74
100
AcDbEntity
  8
0
 62
     7
100
AcDbLine
 10
225.377099
 20
3.177172
 30
0.0
 11
227.297926
 21
5.097999
 31
0.0
  0
LINE
  5
A75
100
AcDbEntity
  8
0
 62
     7
100
AcDbLine
 10
225.377099
 20
3.300916
 30
0.0
 11
227.174182
 21
5.097999
 31
0.0
  0
LINE
  5
A76
100
AcDbEntity
  8
0
 62
     7
100
AcDbLine
 10
225.377099
 20
3.42466
 30
0.0
 11
227.050439
 21
5.097999
 31
0.0
  0
LINE
  5
A77
100
AcDbEntity
  8
0
 62
     7
100
AcDbLine
 10
225.377099
 20
3.548403
 30
0.0
 11
226.926695
 21
5.097999
 31
0.0
  0
LINE
  5
A78
100
AcDbEntity
  8
0
 62
     7
100
AcDbLine
 10
225.377099
 20
3.672147
 30
0.0
 11
226.802951
 21
5.097999
 31
0.0
  0
LINE
  5
A79
100
AcDbEntity
  8
0
 62
     7
100
AcDbLine
 10
225.377099
 20
3.795891
 30
0.0
 11
226.679208
 21
5.097999
 31
0.0
  0
LINE
  5
A7A
100
AcDbEntity
  8
0
 62
     7
100
AcDbLine
 10
225.377099
 20
3.919634
 30
0.0
 11
226.555464
 21
5.097999
 31
0.0
  0
LINE
  5
A7B
100
AcDbEntity
  8
0
 62
     7
100
AcDbLine
 10
225.377099
 20
4.043378
 30
0.0
 11
226.43172
 21
5.097999
 31
0.0
  0
LINE
  5
A7C
100
AcDbEntity
  8
0
 62
     7
100
AcDbLine
 10
225.377099
 20
4.167122
 30
0.0
 11
226.307977
 21
5.097999
 31
0.0
  0
LINE
  5
A7D
100
AcDbEntity
  8
0
 62
     7
100
AcDbLine
 10
225.377099
 20
4.290865
 30
0.0
 11
226.184233
 21
5.097999
 31
0.0
  0
LINE
  5
A7E
100
AcDbEntity
  8
0
 62
     7
100
AcDbLine
 10
225.377099
 20
4.414609
 30
0.0
 11
226.060489
 21
5.097999
 31
0.0
  0
LINE
  5
A7F
100
AcDbEntity
  8
0
 62
     7
100
AcDbLine
 10
225.377099
 20
4.538353
 30
0.0
 11
225.936746
 21
5.097999
 31
0.0
  0
LINE
  5
A80
100
AcDbEntity
  8
0
 62
     7
100
AcDbLine
 10
225.377099
 20
4.662096
 30
0.0
 11
225.813002
 21
5.097999
 31
0.0
  0
LINE
  5
A81
100
AcDbEntity
  8
0
 62
     7
100
AcDbLine
 10
225.377099
 20
4.78584
 30
0.0
 11
225.689258
 21
5.097999
 31
0.0
  0
LINE
  5
A82
100
AcDbEntity
  8
0
 62
     7
100
AcDbLine
 10
225.377099
 20
4.909584
 30
0.0
 11
225.565514
 21
5.097999
 31
0.0
  0
LINE
  5
A83
100
AcDbEntity
  8
0
 62
     7
100
AcDbLine
 10
225.377099
 20
5.033328
 30
0.0
 11
225.441771
 21
5.097999
 31
0.0
  0
LINE
  5
A84
100
AcDbEntity
  8
0
 62
     7
100
AcDbLine
 10
225.377099
 20
2.187223
 30
0.0
 11
227.863629
 21
4.673752
 31
0.0
  0
LINE
  5
A85
100
AcDbEntity
  8
0
 62
     7
100
AcDbLine
 10
225.377099
 20
2.063479
 30
0.0
 11
227.899437
 21
4.585817
 31
0.0
  0
LINE
  5
A86
100
AcDbEntity
  8
0
 62
     7
100
AcDbLine
 10
225.377099
 20
1.939735
 30
0.0
 11
227.931849
 21
4.494485
 31
0.0
  0
LINE
  5
A87
100
AcDbEntity
  8
0
 62
     7
100
AcDbLine
 10
225.377099
 20
1.815992
 30
0.0
 11
227.960633
 21
4.399525
 31
0.0
  0
LINE
  5
A88
100
AcDbEntity
  8
0
 62
     7
100
AcDbLine
 10
225.42285
 20
1.737999
 30
0.0
 11
227.985502
 21
4.300651
 31
0.0
  0
LINE
  5
A89
100
AcDbEntity
  8
0
 62
     7
100
AcDbLine
 10
225.546594
 20
1.738
 30
0.0
 11
228.006098
 21
4.197503
 31
0.0
  0
LINE
  5
A8A
100
AcDbEntity
  8
0
 62
     7
100
AcDbLine
 10
225.670338
 20
1.738
 30
0.0
 11
228.021969
 21
4.08963
 31
0.0
  0
LINE
  5
A8B
100
AcDbEntity
  8
0
 62
     7
100
AcDbLine
 10
225.794082
 20
1.738
 30
0.0
 11
228.03253
 21
3.976448
 31
0.0
  0
LINE
  5
A8C
100
AcDbEntity
  8
0
 62
     7
100
AcDbLine
 10
225.917826
 20
1.738
 30
0.0
 11
228.037011
 21
3.857186
 31
0.0
  0
LINE
  5
A8D
100
AcDbEntity
  8
0
 62
     7
100
AcDbLine
 10
226.044307
 20
1.740738
 30
0.0
 11
228.034361
 21
3.730791
 31
0.0
  0
LINE
  5
A8E
100
AcDbEntity
  8
0
 62
     7
100
AcDbLine
 10
226.17933
 20
1.752016
 30
0.0
 11
228.023082
 21
3.595769
 31
0.0
  0
LINE
  5
A8F
100
AcDbEntity
  8
0
 62
     7
100
AcDbLine
 10
226.325237
 20
1.77418
 30
0.0
 11
228.000918
 21
3.449861
 31
0.0
  0
LINE
  5
A90
100
AcDbEntity
  8
0
 62
     7
100
AcDbLine
 10
226.485733
 20
1.810932
 30
0.0
 11
227.964166
 21
3.289366
 31
0.0
  0
LINE
  5
A91
100
AcDbEntity
  8
0
 62
     7
100
AcDbLine
 10
226.667749
 20
1.869205
 30
0.0
 11
227.905893
 21
3.107349
 31
0.0
  0
LINE
  5
A92
100
AcDbEntity
  8
0
 62
     7
100
AcDbLine
 10
226.887822
 20
1.965534
 30
0.0
 11
227.809564
 21
2.887276
 31
0.0
  0
LINE
  5
A93
100
AcDbEntity
  8
0
 62
     7
100
AcDbLine
 10
227.22645
 20
2.180419
 30
0.0
 11
227.59468
 21
2.548648
 31
0.0
  0
LINE
  5
A94
100
AcDbEntity
  8
0
 62
     7
100
AcDbLine
 10
225.377099
 20
6.147021
 30
0.0
 11
227.255195
 21
8.025117
 31
0.0
  0
LINE
  5
A95
100
AcDbEntity
  8
0
 62
     7
100
AcDbLine
 10
225.377099
 20
6.270764
 30
0.0
 11
227.204451
 21
8.098116
 31
0.0
  0
LINE
  5
A96
100
AcDbEntity
  8
0
 62
     7
100
AcDbLine
 10
225.377099
 20
6.394508
 30
0.0
 11
227.150148
 21
8.167557
 31
0.0
  0
LINE
  5
A97
100
AcDbEntity
  8
0
 62
     7
100
AcDbLine
 10
225.377099
 20
6.518252
 30
0.0
 11
227.09236
 21
8.233512
 31
0.0
  0
LINE
  5
A98
100
AcDbEntity
  8
0
 62
     7
100
AcDbLine
 10
225.377099
 20
6.641995
 30
0.0
 11
227.031123
 21
8.29602
 31
0.0
  0
LINE
  5
A99
100
AcDbEntity
  8
0
 62
     7
100
AcDbLine
 10
225.377099
 20
6.765739
 30
0.0
 11
226.966446
 21
8.355086
 31
0.0
  0
LINE
  5
A9A
100
AcDbEntity
  8
0
 62
     7
100
AcDbLine
 10
225.377099
 20
6.889483
 30
0.0
 11
226.8983
 21
8.410684
 31
0.0
  0
LINE
  5
A9B
100
AcDbEntity
  8
0
 62
     7
100
AcDbLine
 10
225.377099
 20
7.013227
 30
0.0
 11
226.826627
 21
8.462755
 31
0.0
  0
LINE
  5
A9C
100
AcDbEntity
  8
0
 62
     7
100
AcDbLine
 10
225.377099
 20
7.13697
 30
0.0
 11
226.751331
 21
8.511202
 31
0.0
  0
LINE
  5
A9D
100
AcDbEntity
  8
0
 62
     7
100
AcDbLine
 10
225.377099
 20
7.260714
 30
0.0
 11
226.672274
 21
8.555889
 31
0.0
  0
LINE
  5
A9E
100
AcDbEntity
  8
0
 62
     7
100
AcDbLine
 10
225.377099
 20
7.384458
 30
0.0
 11
226.589271
 21
8.59663
 31
0.0
  0
LINE
  5
A9F
100
AcDbEntity
  8
0
 62
     7
100
AcDbLine
 10
225.377099
 20
7.508201
 30
0.0
 11
226.502076
 21
8.633178
 31
0.0
  0
LINE
  5
AA0
100
AcDbEntity
  8
0
 62
     7
100
AcDbLine
 10
225.377099
 20
7.631945
 30
0.0
 11
226.410366
 21
8.665212
 31
0.0
  0
LINE
  5
AA1
100
AcDbEntity
  8
0
 62
     7
100
AcDbLine
 10
225.377099
 20
7.755689
 30
0.0
 11
226.313718
 21
8.692307
 31
0.0
  0
LINE
  5
AA2
100
AcDbEntity
  8
0
 62
     7
100
AcDbLine
 10
225.377099
 20
7.879432
 30
0.0
 11
226.211567
 21
8.7139
 31
0.0
  0
LINE
  5
AA3
100
AcDbEntity
  8
0
 62
     7
100
AcDbLine
 10
225.377099
 20
8.003176
 30
0.0
 11
226.103145
 21
8.729222
 31
0.0
  0
LINE
  5
AA4
100
AcDbEntity
  8
0
 62
     7
100
AcDbLine
 10
225.377099
 20
8.12692
 30
0.0
 11
225.987376
 21
8.737197
 31
0.0
  0
LINE
  5
AA5
100
AcDbEntity
  8
0
 62
     7
100
AcDbLine
 10
225.377099
 20
8.250663
 30
0.0
 11
225.864434
 21
8.737999
 31
0.0
  0
LINE
  5
AA6
100
AcDbEntity
  8
0
 62
     7
100
AcDbLine
 10
225.377099
 20
8.374407
 30
0.0
 11
225.740691
 21
8.737999
 31
0.0
  0
LINE
  5
AA7
100
AcDbEntity
  8
0
 62
     7
100
AcDbLine
 10
225.377099
 20
8.498151
 30
0.0
 11
225.616947
 21
8.737999
 31
0.0
  0
LINE
  5
AA8
100
AcDbEntity
  8
0
 62
     7
100
AcDbLine
 10
225.377099
 20
8.621894
 30
0.0
 11
225.493204
 21
8.737999
 31
0.0
  0
LINE
  5
AA9
100
AcDbEntity
  8
0
 62
     7
100
AcDbLine
 10
225.377099
 20
6.023277
 30
0.0
 11
227.302271
 21
7.948449
 31
0.0
  0
LINE
  5
AAA
100
AcDbEntity
  8
0
 62
     7
100
AcDbLine
 10
225.377099
 20
5.899533
 30
0.0
 11
227.345523
 21
7.867958
 31
0.0
  0
LINE
  5
AAB
100
AcDbEntity
  8
0
 62
     7
100
AcDbLine
 10
225.377099
 20
5.77579
 30
0.0
 11
227.384746
 21
7.783437
 31
0.0
  0
LINE
  5
AAC
100
AcDbEntity
  8
0
 62
     7
100
AcDbLine
 10
225.377099
 20
5.652046
 30
0.0
 11
227.419668
 21
7.694615
 31
0.0
  0
LINE
  5
AAD
100
AcDbEntity
  8
0
 62
     7
100
AcDbLine
 10
225.377099
 20
5.528302
 30
0.0
 11
227.449932
 21
7.601135
 31
0.0
  0
LINE
  5
AAE
100
AcDbEntity
  8
0
 62
     7
100
AcDbLine
 10
225.377099
 20
5.404559
 30
0.0
 11
227.475067
 21
7.502527
 31
0.0
  0
LINE
  5
AAF
100
AcDbEntity
  8
0
 62
     7
100
AcDbLine
 10
225.474283
 20
5.377999
 30
0.0
 11
227.494444
 21
7.39816
 31
0.0
  0
LINE
  5
AB0
100
AcDbEntity
  8
0
 62
     7
100
AcDbLine
 10
225.598027
 20
5.377999
 30
0.0
 11
227.507197
 21
7.287169
 31
0.0
  0
LINE
  5
AB1
100
AcDbEntity
  8
0
 62
     7
100
AcDbLine
 10
225.721771
 20
5.377999
 30
0.0
 11
227.51209
 21
7.168319
 31
0.0
  0
LINE
  5
AB2
100
AcDbEntity
  8
0
 62
     7
100
AcDbLine
 10
225.845514
 20
5.377999
 30
0.0
 11
227.50727
 21
7.039754
 31
0.0
  0
LINE
  5
AB3
100
AcDbEntity
  8
0
 62
     7
100
AcDbLine
 10
225.969258
 20
5.377999
 30
0.0
 11
227.489725
 21
6.898466
 31
0.0
  0
LINE
  5
AB4
100
AcDbEntity
  8
0
 62
     7
100
AcDbLine
 10
226.093002
 20
5.377999
 30
0.0
 11
227.453936
 21
6.738933
 31
0.0
  0
LINE
  5
AB5
100
AcDbEntity
  8
0
 62
     7
100
AcDbLine
 10
226.216746
 20
5.377999
 30
0.0
 11
227.387299
 21
6.548553
 31
0.0
  0
LINE
  5
AB6
100
AcDbEntity
  8
0
 62
     7
100
AcDbLine
 10
226.340489
 20
5.377999
 30
0.0
 11
226.740665
 21
5.778175
 31
0.0
  0
LINE
  5
AB7
100
AcDbEntity
  8
0
 62
     7
100
AcDbLine
 10
226.82381
 20
5.86132
 30
0.0
 11
227.238778
 21
6.276288
 31
0.0
  0
LINE
  5
AB8
100
AcDbEntity
  8
0
 62
     7
100
AcDbLine
 10
226.464233
 20
5.377999
 30
0.0
 11
226.826562
 21
5.740328
 31
0.0
  0
LINE
  5
AB9
100
AcDbEntity
  8
0
 62
     7
100
AcDbLine
 10
226.587977
 20
5.377999
 30
0.0
 11
226.909353
 21
5.699376
 31
0.0
  0
LINE
  5
ABA
100
AcDbEntity
  8
0
 62
     7
100
AcDbLine
 10
226.71172
 20
5.377999
 30
0.0
 11
226.989174
 21
5.655453
 31
0.0
  0
LINE
  5
ABB
100
AcDbEntity
  8
0
 62
     7
100
AcDbLine
 10
226.835464
 20
5.377999
 30
0.0
 11
227.066135
 21
5.608671
 31
0.0
  0
LINE
  5
ABC
100
AcDbEntity
  8
0
 62
     7
100
AcDbLine
 10
226.959208
 20
5.377999
 30
0.0
 11
227.140325
 21
5.559117
 31
0.0
  0
LINE
  5
ABD
100
AcDbEntity
  8
0
 62
     7
100
AcDbLine
 10
227.082951
 20
5.377999
 30
0.0
 11
227.211814
 21
5.506862
 31
0.0
  0
LINE
  5
ABE
100
AcDbEntity
  8
0
 62
     7
100
AcDbLine
 10
227.206695
 20
5.377999
 30
0.0
 11
227.280653
 21
5.451958
 31
0.0
  0
LINE
  5
ABF
100
AcDbEntity
  8
0
 62
     7
100
AcDbLine
 10
227.330439
 20
5.377999
 30
0.0
 11
227.346881
 21
5.394442
 31
0.0
  0
LINE
  5
AC0
100
AcDbEntity
  8
0
 62
     7
100
AcDbLine
 10
223.137099
 20
2.54584
 30
0.0
 11
225.097099
 21
4.50584
 31
0.0
  0
LINE
  5
AC1
100
AcDbEntity
  8
0
 62
     7
100
AcDbLine
 10
223.137099
 20
2.669584
 30
0.0
 11
225.097099
 21
4.629584
 31
0.0
  0
LINE
  5
AC2
100
AcDbEntity
  8
0
 62
     7
100
AcDbLine
 10
223.137099
 20
2.793328
 30
0.0
 11
225.097099
 21
4.753328
 31
0.0
  0
LINE
  5
AC3
100
AcDbEntity
  8
0
 62
     7
100
AcDbLine
 10
223.137099
 20
2.917071
 30
0.0
 11
225.097099
 21
4.877071
 31
0.0
  0
LINE
  5
AC4
100
AcDbEntity
  8
0
 62
     7
100
AcDbLine
 10
223.137099
 20
3.040815
 30
0.0
 11
225.097099
 21
5.000815
 31
0.0
  0
LINE
  5
AC5
100
AcDbEntity
  8
0
 62
     7
100
AcDbLine
 10
223.137099
 20
3.164559
 30
0.0
 11
225.07054
 21
5.097999
 31
0.0
  0
LINE
  5
AC6
100
AcDbEntity
  8
0
 62
     7
100
AcDbLine
 10
223.137099
 20
3.288302
 30
0.0
 11
224.946796
 21
5.097999
 31
0.0
  0
LINE
  5
AC7
100
AcDbEntity
  8
0
 62
     7
100
AcDbLine
 10
223.137099
 20
3.412046
 30
0.0
 11
224.823052
 21
5.097999
 31
0.0
  0
LINE
  5
AC8
100
AcDbEntity
  8
0
 62
     7
100
AcDbLine
 10
223.137099
 20
3.53579
 30
0.0
 11
224.699309
 21
5.097999
 31
0.0
  0
LINE
  5
AC9
100
AcDbEntity
  8
0
 62
     7
100
AcDbLine
 10
223.137099
 20
3.659533
 30
0.0
 11
224.575565
 21
5.097999
 31
0.0
  0
LINE
  5
ACA
100
AcDbEntity
  8
0
 62
     7
100
AcDbLine
 10
223.137099
 20
3.783277
 30
0.0
 11
224.451821
 21
5.097999
 31
0.0
  0
LINE
  5
ACB
100
AcDbEntity
  8
0
 62
     7
100
AcDbLine
 10
223.137099
 20
3.907021
 30
0.0
 11
224.328078
 21
5.097999
 31
0.0
  0
LINE
  5
ACC
100
AcDbEntity
  8
0
 62
     7
100
AcDbLine
 10
223.137099
 20
4.030764
 30
0.0
 11
224.204334
 21
5.097999
 31
0.0
  0
LINE
  5
ACD
100
AcDbEntity
  8
0
 62
     7
100
AcDbLine
 10
223.137099
 20
4.154508
 30
0.0
 11
224.08059
 21
5.097999
 31
0.0
  0
LINE
  5
ACE
100
AcDbEntity
  8
0
 62
     7
100
AcDbLine
 10
223.137099
 20
4.278252
 30
0.0
 11
223.956847
 21
5.097999
 31
0.0
  0
LINE
  5
ACF
100
AcDbEntity
  8
0
 62
     7
100
AcDbLine
 10
223.137099
 20
4.401995
 30
0.0
 11
223.833103
 21
5.097999
 31
0.0
  0
LINE
  5
AD0
100
AcDbEntity
  8
0
 62
     7
100
AcDbLine
 10
223.137099
 20
4.525739
 30
0.0
 11
223.709359
 21
5.097999
 31
0.0
  0
LINE
  5
AD1
100
AcDbEntity
  8
0
 62
     7
100
AcDbLine
 10
223.137099
 20
4.649483
 30
0.0
 11
223.585615
 21
5.097999
 31
0.0
  0
LINE
  5
AD2
100
AcDbEntity
  8
0
 62
     7
100
AcDbLine
 10
223.137099
 20
4.773227
 30
0.0
 11
223.461872
 21
5.097999
 31
0.0
  0
LINE
  5
AD3
100
AcDbEntity
  8
0
 62
     7
100
AcDbLine
 10
223.137099
 20
4.89697
 30
0.0
 11
223.338128
 21
5.097999
 31
0.0
  0
LINE
  5
AD4
100
AcDbEntity
  8
0
 62
     7
100
AcDbLine
 10
223.137099
 20
5.020714
 30
0.0
 11
223.214384
 21
5.097999
 31
0.0
  0
LINE
  5
AD5
100
AcDbEntity
  8
0
 62
     7
100
AcDbLine
 10
223.137099
 20
2.422096
 30
0.0
 11
225.097099
 21
4.382096
 31
0.0
  0
LINE
  5
AD6
100
AcDbEntity
  8
0
 62
     7
100
AcDbLine
 10
223.137099
 20
2.298353
 30
0.0
 11
225.097099
 21
4.258353
 31
0.0
  0
LINE
  5
AD7
100
AcDbEntity
  8
0
 62
     7
100
AcDbLine
 10
223.137099
 20
2.174609
 30
0.0
 11
225.097099
 21
4.134609
 31
0.0
  0
LINE
  5
AD8
100
AcDbEntity
  8
0
 62
     7
100
AcDbLine
 10
223.137099
 20
2.050865
 30
0.0
 11
225.097099
 21
4.010865
 31
0.0
  0
LINE
  5
AD9
100
AcDbEntity
  8
0
 62
     7
100
AcDbLine
 10
223.137099
 20
1.927122
 30
0.0
 11
225.097099
 21
3.887122
 31
0.0
  0
LINE
  5
ADA
100
AcDbEntity
  8
0
 62
     7
100
AcDbLine
 10
223.137099
 20
1.803378
 30
0.0
 11
225.097099
 21
3.763378
 31
0.0
  0
LINE
  5
ADB
100
AcDbEntity
  8
0
 62
     7
100
AcDbLine
 10
223.195464
 20
1.737999
 30
0.0
 11
225.097099
 21
3.639634
 31
0.0
  0
LINE
  5
ADC
100
AcDbEntity
  8
0
 62
     7
100
AcDbLine
 10
223.319208
 20
1.737999
 30
0.0
 11
225.097099
 21
3.515891
 31
0.0
  0
LINE
  5
ADD
100
AcDbEntity
  8
0
 62
     7
100
AcDbLine
 10
223.442951
 20
1.737999
 30
0.0
 11
225.097099
 21
3.392147
 31
0.0
  0
LINE
  5
ADE
100
AcDbEntity
  8
0
 62
     7
100
AcDbLine
 10
223.566695
 20
1.737999
 30
0.0
 11
225.097099
 21
3.268403
 31
0.0
  0
LINE
  5
ADF
100
AcDbEntity
  8
0
 62
     7
100
AcDbLine
 10
223.690439
 20
1.737999
 30
0.0
 11
225.097099
 21
3.14466
 31
0.0
  0
LINE
  5
AE0
100
AcDbEntity
  8
0
 62
     7
100
AcDbLine
 10
223.814182
 20
1.737999
 30
0.0
 11
225.097099
 21
3.020916
 31
0.0
  0
LINE
  5
AE1
100
AcDbEntity
  8
0
 62
     7
100
AcDbLine
 10
223.937926
 20
1.737999
 30
0.0
 11
225.097099
 21
2.897172
 31
0.0
  0
LINE
  5
AE2
100
AcDbEntity
  8
0
 62
     7
100
AcDbLine
 10
224.06167
 20
1.737999
 30
0.0
 11
225.097099
 21
2.773429
 31
0.0
  0
LINE
  5
AE3
100
AcDbEntity
  8
0
 62
     7
100
AcDbLine
 10
224.185413
 20
1.737999
 30
0.0
 11
225.097099
 21
2.649685
 31
0.0
  0
LINE
  5
AE4
100
AcDbEntity
  8
0
 62
     7
100
AcDbLine
 10
224.309157
 20
1.737999
 30
0.0
 11
225.097099
 21
2.525941
 31
0.0
  0
LINE
  5
AE5
100
AcDbEntity
  8
0
 62
     7
100
AcDbLine
 10
224.432901
 20
1.737999
 30
0.0
 11
225.097099
 21
2.402197
 31
0.0
  0
LINE
  5
AE6
100
AcDbEntity
  8
0
 62
     7
100
AcDbLine
 10
224.556645
 20
1.737999
 30
0.0
 11
225.097099
 21
2.278454
 31
0.0
  0
LINE
  5
AE7
100
AcDbEntity
  8
0
 62
     7
100
AcDbLine
 10
224.680388
 20
1.737999
 30
0.0
 11
225.097099
 21
2.15471
 31
0.0
  0
LINE
  5
AE8
100
AcDbEntity
  8
0
 62
     7
100
AcDbLine
 10
224.804132
 20
1.737999
 30
0.0
 11
225.097099
 21
2.030966
 31
0.0
  0
LINE
  5
AE9
100
AcDbEntity
  8
0
 62
     7
100
AcDbLine
 10
224.927876
 20
1.737999
 30
0.0
 11
225.097099
 21
1.907223
 31
0.0
  0
LINE
  5
AEA
100
AcDbEntity
  8
0
 62
     7
100
AcDbLine
 10
225.051619
 20
1.737999
 30
0.0
 11
225.097099
 21
1.783479
 31
0.0
  0
LINE
  5
AEB
100
AcDbEntity
  8
0
 62
     7
100
AcDbLine
 10
223.137099
 20
6.134407
 30
0.0
 11
225.097099
 21
8.094407
 31
0.0
  0
LINE
  5
AEC
100
AcDbEntity
  8
0
 62
     7
100
AcDbLine
 10
223.137099
 20
6.258151
 30
0.0
 11
225.097099
 21
8.218151
 31
0.0
  0
LINE
  5
AED
100
AcDbEntity
  8
0
 62
     7
100
AcDbLine
 10
223.137099
 20
6.381894
 30
0.0
 11
225.097099
 21
8.341894
 31
0.0
  0
LINE
  5
AEE
100
AcDbEntity
  8
0
 62
     7
100
AcDbLine
 10
223.137099
 20
6.505638
 30
0.0
 11
225.097099
 21
8.465638
 31
0.0
  0
LINE
  5
AEF
100
AcDbEntity
  8
0
 62
     7
100
AcDbLine
 10
223.137099
 20
6.629382
 30
0.0
 11
225.097099
 21
8.589382
 31
0.0
  0
LINE
  5
AF0
100
AcDbEntity
  8
0
 62
     7
100
AcDbLine
 10
223.137099
 20
6.753126
 30
0.0
 11
225.097099
 21
8.713126
 31
0.0
  0
LINE
  5
AF1
100
AcDbEntity
  8
0
 62
     7
100
AcDbLine
 10
223.137099
 20
6.876869
 30
0.0
 11
224.998229
 21
8.737999
 31
0.0
  0
LINE
  5
AF2
100
AcDbEntity
  8
0
 62
     7
100
AcDbLine
 10
223.137099
 20
7.000613
 30
0.0
 11
224.874485
 21
8.737999
 31
0.0
  0
LINE
  5
AF3
100
AcDbEntity
  8
0
 62
     7
100
AcDbLine
 10
223.137099
 20
7.124357
 30
0.0
 11
224.750742
 21
8.737999
 31
0.0
  0
LINE
  5
AF4
100
AcDbEntity
  8
0
 62
     7
100
AcDbLine
 10
223.137099
 20
7.2481
 30
0.0
 11
224.626998
 21
8.737999
 31
0.0
  0
LINE
  5
AF5
100
AcDbEntity
  8
0
 62
     7
100
AcDbLine
 10
223.137099
 20
7.371844
 30
0.0
 11
224.503254
 21
8.737999
 31
0.0
  0
LINE
  5
AF6
100
AcDbEntity
  8
0
 62
     7
100
AcDbLine
 10
223.137099
 20
7.495588
 30
0.0
 11
224.379511
 21
8.737999
 31
0.0
  0
LINE
  5
AF7
100
AcDbEntity
  8
0
 62
     7
100
AcDbLine
 10
223.137099
 20
7.619331
 30
0.0
 11
224.255767
 21
8.737999
 31
0.0
  0
LINE
  5
AF8
100
AcDbEntity
  8
0
 62
     7
100
AcDbLine
 10
223.137099
 20
7.743075
 30
0.0
 11
224.132023
 21
8.737999
 31
0.0
  0
LINE
  5
AF9
100
AcDbEntity
  8
0
 62
     7
100
AcDbLine
 10
223.137099
 20
7.866819
 30
0.0
 11
224.00828
 21
8.737999
 31
0.0
  0
LINE
  5
AFA
100
AcDbEntity
  8
0
 62
     7
100
AcDbLine
 10
223.137099
 20
7.990562
 30
0.0
 11
223.884536
 21
8.737999
 31
0.0
  0
LINE
  5
AFB
100
AcDbEntity
  8
0
 62
     7
100
AcDbLine
 10
223.137099
 20
8.114306
 30
0.0
 11
223.760792
 21
8.737999
 31
0.0
  0
LINE
  5
AFC
100
AcDbEntity
  8
0
 62
     7
100
AcDbLine
 10
223.137099
 20
8.23805
 30
0.0
 11
223.637049
 21
8.737999
 31
0.0
  0
LINE
  5
AFD
100
AcDbEntity
  8
0
 62
     7
100
AcDbLine
 10
223.137099
 20
8.361793
 30
0.0
 11
223.513305
 21
8.737999
 31
0.0
  0
LINE
  5
AFE
100
AcDbEntity
  8
0
 62
     7
100
AcDbLine
 10
223.137099
 20
8.485537
 30
0.0
 11
223.389561
 21
8.737999
 31
0.0
  0
LINE
  5
AFF
100
AcDbEntity
  8
0
 62
     7
100
AcDbLine
 10
223.137099
 20
8.609281
 30
0.0
 11
223.265818
 21
8.737999
 31
0.0
  0
LINE
  5
B00
100
AcDbEntity
  8
0
 62
     7
100
AcDbLine
 10
223.137099
 20
8.733025
 30
0.0
 11
223.142074
 21
8.737999
 31
0.0
  0
LINE
  5
B01
100
AcDbEntity
  8
0
 62
     7
100
AcDbLine
 10
223.137099
 20
6.010663
 30
0.0
 11
225.097099
 21
7.970663
 31
0.0
  0
LINE
  5
B02
100
AcDbEntity
  8
0
 62
     7
100
AcDbLine
 10
223.137099
 20
5.88692
 30
0.0
 11
225.097099
 21
7.84692
 31
0.0
  0
LINE
  5
B03
100
AcDbEntity
  8
0
 62
     7
100
AcDbLine
 10
223.137099
 20
5.763176
 30
0.0
 11
225.097099
 21
7.723176
 31
0.0
  0
LINE
  5
B04
100
AcDbEntity
  8
0
 62
     7
100
AcDbLine
 10
223.137099
 20
5.639432
 30
0.0
 11
225.097099
 21
7.599432
 31
0.0
  0
LINE
  5
B05
100
AcDbEntity
  8
0
 62
     7
100
AcDbLine
 10
223.137099
 20
5.515689
 30
0.0
 11
225.097099
 21
7.475689
 31
0.0
  0
LINE
  5
B06
100
AcDbEntity
  8
0
 62
     7
100
AcDbLine
 10
223.137099
 20
5.391945
 30
0.0
 11
225.097099
 21
7.351945
 31
0.0
  0
LINE
  5
B07
100
AcDbEntity
  8
0
 62
     7
100
AcDbLine
 10
223.246897
 20
5.377999
 30
0.0
 11
225.097099
 21
7.228201
 31
0.0
  0
LINE
  5
B08
100
AcDbEntity
  8
0
 62
     7
100
AcDbLine
 10
223.370641
 20
5.377999
 30
0.0
 11
225.097099
 21
7.104458
 31
0.0
  0
LINE
  5
B09
100
AcDbEntity
  8
0
 62
     7
100
AcDbLine
 10
223.494384
 20
5.377999
 30
0.0
 11
225.097099
 21
6.980714
 31
0.0
  0
LINE
  5
B0A
100
AcDbEntity
  8
0
 62
     7
100
AcDbLine
 10
223.618128
 20
5.377999
 30
0.0
 11
225.097099
 21
6.85697
 31
0.0
  0
LINE
  5
B0B
100
AcDbEntity
  8
0
 62
     7
100
AcDbLine
 10
223.741872
 20
5.377999
 30
0.0
 11
225.097099
 21
6.733227
 31
0.0
  0
LINE
  5
B0C
100
AcDbEntity
  8
0
 62
     7
100
AcDbLine
 10
223.865615
 20
5.377999
 30
0.0
 11
225.097099
 21
6.609483
 31
0.0
  0
LINE
  5
B0D
100
AcDbEntity
  8
0
 62
     7
100
AcDbLine
 10
223.989359
 20
5.377999
 30
0.0
 11
225.097099
 21
6.485739
 31
0.0
  0
LINE
  5
B0E
100
AcDbEntity
  8
0
 62
     7
100
AcDbLine
 10
224.113103
 20
5.377999
 30
0.0
 11
225.097099
 21
6.361995
 31
0.0
  0
LINE
  5
B0F
100
AcDbEntity
  8
0
 62
     7
100
AcDbLine
 10
224.236847
 20
5.377999
 30
0.0
 11
225.097099
 21
6.238252
 31
0.0
  0
LINE
  5
B10
100
AcDbEntity
  8
0
 62
     7
100
AcDbLine
 10
224.36059
 20
5.377999
 30
0.0
 11
225.097099
 21
6.114508
 31
0.0
  0
LINE
  5
B11
100
AcDbEntity
  8
0
 62
     7
100
AcDbLine
 10
224.484334
 20
5.377999
 30
0.0
 11
225.097099
 21
5.990764
 31
0.0
  0
LINE
  5
B12
100
AcDbEntity
  8
0
 62
     7
100
AcDbLine
 10
224.608078
 20
5.377999
 30
0.0
 11
225.097099
 21
5.867021
 31
0.0
  0
LINE
  5
B13
100
AcDbEntity
  8
0
 62
     7
100
AcDbLine
 10
224.731821
 20
5.377999
 30
0.0
 11
225.097099
 21
5.743277
 31
0.0
  0
LINE
  5
B14
100
AcDbEntity
  8
0
 62
     7
100
AcDbLine
 10
224.855565
 20
5.377999
 30
0.0
 11
225.097099
 21
5.619533
 31
0.0
  0
LINE
  5
B15
100
AcDbEntity
  8
0
 62
     7
100
AcDbLine
 10
224.979309
 20
5.377999
 30
0.0
 11
225.097099
 21
5.49579
 31
0.0
  0
LINE
  5
B16
100
AcDbEntity
  8
0
  6
CONTINUOUS
 62
     7
100
AcDbLine
 10
164.22647
 20
142.047
 30
0.0
 11
161.880704
 21
143.382353
 31
0.0
  0
LINE
  5
B17
100
AcDbEntity
  8
0
  6
CONTINUOUS
 62
     7
100
AcDbLine
 10
161.880704
 20
143.382353
 30
0.0
 11
164.22647
 21
144.572273
 31
0.0
  0
3DFACE
  5
B18
100
AcDbEntity
  8
0
  6
CONTINUOUS
 62
     7
100
AcDbFace
 10
256.819436
 20
149.51
 30
0.0
 11
256.833156
 21
149.51
 31
0.0
 12
256.833156
 22
150.49
 32
0.0
 13
256.819436
 23
150.49
 33
0.0
  0
3DFACE
  5
B19
100
AcDbEntity
  8
0
  6
CONTINUOUS
 62
     7
100
AcDbFace
 10
256.833156
 20
149.51
 30
0.0
 11
256.846876
 21
149.51
 31
0.0
 12
256.846876
 22
150.49
 32
0.0
 13
256.833156
 23
150.49
 33
0.0
  0
3DFACE
  5
B1A
100
AcDbEntity
  8
0
  6
CONTINUOUS
 62
     7
100
AcDbFace
 10
256.846876
 20
149.51
 30
0.0
 11
256.860596
 21
149.51
 31
0.0
 12
256.860596
 22
150.49
 32
0.0
 13
256.846876
 23
150.49
 33
0.0
  0
3DFACE
  5
B1B
100
AcDbEntity
  8
0
  6
CONTINUOUS
 62
     7
100
AcDbFace
 10
256.860596
 20
149.51
 30
0.0
 11
256.874316
 21
149.51
 31
0.0
 12
256.874316
 22
150.49
 32
0.0
 13
256.860596
 23
150.49
 33
0.0
  0
3DFACE
  5
B1C
100
AcDbEntity
  8
0
  6
CONTINUOUS
 62
     7
100
AcDbFace
 10
256.874316
 20
149.51
 30
0.0
 11
256.888036
 21
149.51
 31
0.0
 12
256.888036
 22
150.49
 32
0.0
 13
256.874316
 23
150.49
 33
0.0
  0
3DFACE
  5
B1D
100
AcDbEntity
  8
0
  6
CONTINUOUS
 62
     7
100
AcDbFace
 10
256.888036
 20
149.51
 30
0.0
 11
256.901756
 21
149.51
 31
0.0
 12
256.901756
 22
150.49
 32
0.0
 13
256.888036
 23
150.49
 33
0.0
  0
3DFACE
  5
B1E
100
AcDbEntity
  8
0
  6
CONTINUOUS
 62
     7
100
AcDbFace
 10
256.901756
 20
149.51
 30
0.0
 11
256.915476
 21
149.51
 31
0.0
 12
256.915476
 22
150.49
 32
0.0
 13
256.901756
 23
150.49
 33
0.0
  0
3DFACE
  5
B1F
100
AcDbEntity
  8
0
  6
CONTINUOUS
 62
     7
100
AcDbFace
 10
256.915476
 20
149.51
 30
0.0
 11
256.929196
 21
149.51
 31
0.0
 12
256.929196
 22
150.49
 32
0.0
 13
256.915476
 23
150.49
 33
0.0
  0
3DFACE
  5
B20
100
AcDbEntity
  8
0
  6
CONTINUOUS
 62
     7
100
AcDbFace
 10
256.929196
 20
149.51
 30
0.0
 11
256.942916
 21
149.51
 31
0.0
 12
256.942916
 22
150.49
 32
0.0
 13
256.929196
 23
150.49
 33
0.0
  0
3DFACE
  5
B21
100
AcDbEntity
  8
0
  6
CONTINUOUS
 62
     7
100
AcDbFace
 10
256.942916
 20
149.51
 30
0.0
 11
256.956636
 21
149.51
 31
0.0
 12
256.956636
 22
150.49
 32
0.0
 13
256.942916
 23
150.49
 33
0.0
  0
3DFACE
  5
B22
100
AcDbEntity
  8
0
  6
CONTINUOUS
 62
     7
100
AcDbFace
 10
256.956636
 20
149.51
 30
0.0
 11
256.970356
 21
149.51
 31
0.0
 12
256.970356
 22
150.49
 32
0.0
 13
256.956636
 23
150.49
 33
0.0
  0
3DFACE
  5
B23
100
AcDbEntity
  8
0
  6
CONTINUOUS
 62
     7
100
AcDbFace
 10
256.970356
 20
149.51
 30
0.0
 11
256.984076
 21
149.51
 31
0.0
 12
256.984076
 22
150.49
 32
0.0
 13
256.970356
 23
150.49
 33
0.0
  0
3DFACE
  5
B24
100
AcDbEntity
  8
0
  6
CONTINUOUS
 62
     7
100
AcDbFace
 10
256.984076
 20
149.51
 30
0.0
 11
256.997796
 21
149.51
 31
0.0
 12
256.997796
 22
150.49
 32
0.0
 13
256.984076
 23
150.49
 33
0.0
  0
3DFACE
  5
B25
100
AcDbEntity
  8
0
  6
CONTINUOUS
 62
     7
100
AcDbFace
 10
256.997796
 20
149.51
 30
0.0
 11
257.011516
 21
149.51
 31
0.0
 12
257.011516
 22
150.49
 32
0.0
 13
256.997796
 23
150.49
 33
0.0
  0
3DFACE
  5
B26
100
AcDbEntity
  8
0
  6
CONTINUOUS
 62
     7
100
AcDbFace
 10
257.011516
 20
149.51
 30
0.0
 11
257.025236
 21
149.51
 31
0.0
 12
257.025236
 22
150.49
 32
0.0
 13
257.011516
 23
150.49
 33
0.0
  0
3DFACE
  5
B27
100
AcDbEntity
  8
0
  6
CONTINUOUS
 62
     7
100
AcDbFace
 10
257.025236
 20
149.51
 30
0.0
 11
257.038956
 21
149.51
 31
0.0
 12
257.038956
 22
150.49
 32
0.0
 13
257.025236
 23
150.49
 33
0.0
  0
3DFACE
  5
B28
100
AcDbEntity
  8
0
  6
CONTINUOUS
 62
     7
100
AcDbFace
 10
257.038956
 20
149.51
 30
0.0
 11
257.052676
 21
149.51
 31
0.0
 12
257.052676
 22
150.49
 32
0.0
 13
257.038956
 23
150.49
 33
0.0
  0
3DFACE
  5
B29
100
AcDbEntity
  8
0
  6
CONTINUOUS
 62
     7
100
AcDbFace
 10
257.052676
 20
149.51
 30
0.0
 11
257.066396
 21
149.51
 31
0.0
 12
257.066396
 22
150.49
 32
0.0
 13
257.052676
 23
150.49
 33
0.0
  0
3DFACE
  5
B2A
100
AcDbEntity
  8
0
  6
CONTINUOUS
 62
     7
100
AcDbFace
 10
257.066396
 20
149.51
 30
0.0
 11
257.080116
 21
149.51
 31
0.0
 12
257.080116
 22
150.49
 32
0.0
 13
257.066396
 23
150.49
 33
0.0
  0
3DFACE
  5
B2B
100
AcDbEntity
  8
0
  6
CONTINUOUS
 62
     7
100
AcDbFace
 10
257.080116
 20
149.51
 30
0.0
 11
257.093836
 21
149.51
 31
0.0
 12
257.093836
 22
150.49
 32
0.0
 13
257.080116
 23
150.49
 33
0.0
  0
3DFACE
  5
B2C
100
AcDbEntity
  8
0
  6
CONTINUOUS
 62
     7
100
AcDbFace
 10
257.093836
 20
149.51
 30
0.0
 11
257.107556
 21
149.51
 31
0.0
 12
257.107556
 22
150.49
 32
0.0
 13
257.093836
 23
150.49
 33
0.0
  0
3DFACE
  5
B2D
100
AcDbEntity
  8
0
  6
CONTINUOUS
 62
     7
100
AcDbFace
 10
257.107556
 20
149.51
 30
0.0
 11
257.121276
 21
149.51
 31
0.0
 12
257.121276
 22
150.49
 32
0.0
 13
257.107556
 23
150.49
 33
0.0
  0
3DFACE
  5
B2E
100
AcDbEntity
  8
0
  6
CONTINUOUS
 62
     7
100
AcDbFace
 10
257.121276
 20
149.51
 30
0.0
 11
257.134996
 21
149.51
 31
0.0
 12
257.134996
 22
150.49
 32
0.0
 13
257.121276
 23
150.49
 33
0.0
  0
3DFACE
  5
B2F
100
AcDbEntity
  8
0
  6
CONTINUOUS
 62
     7
100
AcDbFace
 10
257.134996
 20
149.51
 30
0.0
 11
257.148716
 21
149.51
 31
0.0
 12
257.148716
 22
150.49
 32
0.0
 13
257.134996
 23
150.49
 33
0.0
  0
3DFACE
  5
B30
100
AcDbEntity
  8
0
  6
CONTINUOUS
 62
     7
100
AcDbFace
 10
257.148716
 20
149.51
 30
0.0
 11
257.162436
 21
149.51
 31
0.0
 12
257.162436
 22
150.49
 32
0.0
 13
257.148716
 23
150.49
 33
0.0
  0
3DFACE
  5
B31
100
AcDbEntity
  8
0
  6
CONTINUOUS
 62
     7
100
AcDbFace
 10
257.162436
 20
149.51
 30
0.0
 11
257.176156
 21
149.51
 31
0.0
 12
257.176156
 22
150.49
 32
0.0
 13
257.162436
 23
150.49
 33
0.0
  0
3DFACE
  5
B32
100
AcDbEntity
  8
0
  6
CONTINUOUS
 62
     7
100
AcDbFace
 10
257.176156
 20
149.51
 30
0.0
 11
257.189876
 21
149.51
 31
0.0
 12
257.189876
 22
150.49
 32
0.0
 13
257.176156
 23
150.49
 33
0.0
  0
3DFACE
  5
B33
100
AcDbEntity
  8
0
  6
CONTINUOUS
 62
     7
100
AcDbFace
 10
257.189876
 20
149.51
 30
0.0
 11
257.203596
 21
149.51
 31
0.0
 12
257.203596
 22
150.49
 32
0.0
 13
257.189876
 23
150.49
 33
0.0
  0
3DFACE
  5
B34
100
AcDbEntity
  8
0
  6
CONTINUOUS
 62
     7
100
AcDbFace
 10
257.203596
 20
149.51
 30
0.0
 11
257.217316
 21
149.51
 31
0.0
 12
257.217316
 22
150.49
 32
0.0
 13
257.203596
 23
150.49
 33
0.0
  0
3DFACE
  5
B35
100
AcDbEntity
  8
0
  6
CONTINUOUS
 62
     7
100
AcDbFace
 10
257.217316
 20
149.51
 30
0.0
 11
257.231036
 21
149.51
 31
0.0
 12
257.231036
 22
150.49
 32
0.0
 13
257.217316
 23
150.49
 33
0.0
  0
3DFACE
  5
B36
100
AcDbEntity
  8
0
  6
CONTINUOUS
 62
     7
100
AcDbFace
 10
257.231036
 20
149.51
 30
0.0
 11
257.244756
 21
149.51
 31
0.0
 12
257.244756
 22
150.49
 32
0.0
 13
257.231036
 23
150.49
 33
0.0
  0
3DFACE
  5
B37
100
AcDbEntity
  8
0
  6
CONTINUOUS
 62
     7
100
AcDbFace
 10
257.244756
 20
149.51
 30
0.0
 11
257.258476
 21
149.51
 31
0.0
 12
257.258476
 22
150.49
 32
0.0
 13
257.244756
 23
150.49
 33
0.0
  0
3DFACE
  5
B38
100
AcDbEntity
  8
0
  6
CONTINUOUS
 62
     7
100
AcDbFace
 10
257.258476
 20
149.51
 30
0.0
 11
257.272196
 21
149.51
 31
0.0
 12
257.272196
 22
150.49
 32
0.0
 13
257.258476
 23
150.49
 33
0.0
  0
3DFACE
  5
B39
100
AcDbEntity
  8
0
  6
CONTINUOUS
 62
     7
100
AcDbFace
 10
257.272196
 20
149.51
 30
0.0
 11
257.285916
 21
149.51
 31
0.0
 12
257.285916
 22
150.49
 32
0.0
 13
257.272196
 23
150.49
 33
0.0
  0
3DFACE
  5
B3A
100
AcDbEntity
  8
0
  6
CONTINUOUS
 62
     7
100
AcDbFace
 10
257.285916
 20
149.51
 30
0.0
 11
257.299636
 21
149.51
 31
0.0
 12
257.299636
 22
150.49
 32
0.0
 13
257.285916
 23
150.49
 33
0.0
  0
3DFACE
  5
B3B
100
AcDbEntity
  8
0
  6
CONTINUOUS
 62
     7
100
AcDbFace
 10
257.299636
 20
149.51
 30
0.0
 11
257.313356
 21
149.51
 31
0.0
 12
257.313356
 22
150.49
 32
0.0
 13
257.299636
 23
150.49
 33
0.0
  0
3DFACE
  5
B3C
100
AcDbEntity
  8
0
  6
CONTINUOUS
 62
     7
100
AcDbFace
 10
257.313356
 20
149.51
 30
0.0
 11
257.327076
 21
149.51
 31
0.0
 12
257.327076
 22
150.49
 32
0.0
 13
257.313356
 23
150.49
 33
0.0
  0
3DFACE
  5
B3D
100
AcDbEntity
  8
0
  6
CONTINUOUS
 62
     7
100
AcDbFace
 10
257.327076
 20
149.51
 30
0.0
 11
257.340796
 21
149.51
 31
0.0
 12
257.340796
 22
150.49
 32
0.0
 13
257.327076
 23
150.49
 33
0.0
  0
3DFACE
  5
B3E
100
AcDbEntity
  8
0
  6
CONTINUOUS
 62
     7
100
AcDbFace
 10
257.340796
 20
149.51
 30
0.0
 11
257.354516
 21
149.51
 31
0.0
 12
257.354516
 22
150.49
 32
0.0
 13
257.340796
 23
150.49
 33
0.0
  0
3DFACE
  5
B3F
100
AcDbEntity
  8
0
  6
CONTINUOUS
 62
     7
100
AcDbFace
 10
257.354516
 20
149.51
 30
0.0
 11
257.368236
 21
149.51
 31
0.0
 12
257.368236
 22
150.49
 32
0.0
 13
257.354516
 23
150.49
 33
0.0
  0
3DFACE
  5
B40
100
AcDbEntity
  8
0
  6
CONTINUOUS
 62
     7
100
AcDbFace
 10
257.368236
 20
149.51
 30
0.0
 11
257.381956
 21
149.51
 31
0.0
 12
257.381956
 22
150.49
 32
0.0
 13
257.368236
 23
150.49
 33
0.0
  0
3DFACE
  5
B41
100
AcDbEntity
  8
0
  6
CONTINUOUS
 62
     7
100
AcDbFace
 10
257.381956
 20
149.51
 30
0.0
 11
257.395676
 21
149.51
 31
0.0
 12
257.395676
 22
150.49
 32
0.0
 13
257.381956
 23
150.49
 33
0.0
  0
3DFACE
  5
B42
100
AcDbEntity
  8
0
  6
CONTINUOUS
 62
     7
100
AcDbFace
 10
257.395676
 20
149.51
 30
0.0
 11
257.409396
 21
149.51
 31
0.0
 12
257.409396
 22
150.49
 32
0.0
 13
257.395676
 23
150.49
 33
0.0
  0
3DFACE
  5
B43
100
AcDbEntity
  8
0
  6
CONTINUOUS
 62
     7
100
AcDbFace
 10
257.409396
 20
149.51
 30
0.0
 11
257.423116
 21
149.51
 31
0.0
 12
257.423116
 22
150.49
 32
0.0
 13
257.409396
 23
150.49
 33
0.0
  0
3DFACE
  5
B44
100
AcDbEntity
  8
0
  6
CONTINUOUS
 62
     7
100
AcDbFace
 10
257.423116
 20
149.51
 30
0.0
 11
257.436836
 21
149.51
 31
0.0
 12
257.436836
 22
150.49
 32
0.0
 13
257.423116
 23
150.49
 33
0.0
  0
3DFACE
  5
B45
100
AcDbEntity
  8
0
  6
CONTINUOUS
 62
     7
100
AcDbFace
 10
257.436836
 20
149.51
 30
0.0
 11
257.450556
 21
149.51
 31
0.0
 12
257.450556
 22
150.49
 32
0.0
 13
257.436836
 23
150.49
 33
0.0
  0
3DFACE
  5
B46
100
AcDbEntity
  8
0
  6
CONTINUOUS
 62
     7
100
AcDbFace
 10
257.450556
 20
149.51
 30
0.0
 11
257.464276
 21
149.51
 31
0.0
 12
257.464276
 22
150.49
 32
0.0
 13
257.450556
 23
150.49
 33
0.0
  0
3DFACE
  5
B47
100
AcDbEntity
  8
0
  6
CONTINUOUS
 62
     7
100
AcDbFace
 10
257.464276
 20
149.51
 30
0.0
 11
257.477996
 21
149.51
 31
0.0
 12
257.477996
 22
150.49
 32
0.0
 13
257.464276
 23
150.49
 33
0.0
  0
3DFACE
  5
B48
100
AcDbEntity
  8
0
  6
CONTINUOUS
 62
     7
100
AcDbFace
 10
257.477996
 20
149.51
 30
0.0
 11
257.491716
 21
149.51
 31
0.0
 12
257.491716
 22
150.49
 32
0.0
 13
257.477996
 23
150.49
 33
0.0
  0
3DFACE
  5
B49
100
AcDbEntity
  8
0
  6
CONTINUOUS
 62
     7
100
AcDbFace
 10
257.491716
 20
149.51
 30
0.0
 11
257.505436
 21
149.51
 31
0.0
 12
257.505436
 22
150.49
 32
0.0
 13
257.491716
 23
150.49
 33
0.0
  0
3DFACE
  5
B4A
100
AcDbEntity
  8
0
  6
CONTINUOUS
 62
     7
100
AcDbFace
 10
257.505436
 20
149.51
 30
0.0
 11
257.519156
 21
149.51
 31
0.0
 12
257.519156
 22
150.49
 32
0.0
 13
257.505436
 23
150.49
 33
0.0
  0
3DFACE
  5
B4B
100
AcDbEntity
  8
0
  6
CONTINUOUS
 62
     7
100
AcDbFace
 10
257.519156
 20
149.51
 30
0.0
 11
257.532876
 21
149.51
 31
0.0
 12
257.532876
 22
150.49
 32
0.0
 13
257.519156
 23
150.49
 33
0.0
  0
3DFACE
  5
B4C
100
AcDbEntity
  8
0
  6
CONTINUOUS
 62
     7
100
AcDbFace
 10
257.532876
 20
149.51
 30
0.0
 11
257.546596
 21
149.51
 31
0.0
 12
257.546596
 22
150.49
 32
0.0
 13
257.532876
 23
150.49
 33
0.0
  0
3DFACE
  5
B4D
100
AcDbEntity
  8
0
  6
CONTINUOUS
 62
     7
100
AcDbFace
 10
257.546596
 20
149.51
 30
0.0
 11
257.560316
 21
149.51
 31
0.0
 12
257.560316
 22
150.49
 32
0.0
 13
257.546596
 23
150.49
 33
0.0
  0
3DFACE
  5
B4E
100
AcDbEntity
  8
0
  6
CONTINUOUS
 62
     7
100
AcDbFace
 10
257.560316
 20
149.51
 30
0.0
 11
257.574036
 21
149.51
 31
0.0
 12
257.574036
 22
150.49
 32
0.0
 13
257.560316
 23
150.49
 33
0.0
  0
3DFACE
  5
B4F
100
AcDbEntity
  8
0
  6
CONTINUOUS
 62
     7
100
AcDbFace
 10
257.574036
 20
149.51
 30
0.0
 11
257.587756
 21
149.51
 31
0.0
 12
257.587756
 22
150.49
 32
0.0
 13
257.574036
 23
150.49
 33
0.0
  0
3DFACE
  5
B50
100
AcDbEntity
  8
0
  6
CONTINUOUS
 62
     7
100
AcDbFace
 10
257.587756
 20
149.51
 30
0.0
 11
257.601476
 21
149.51
 31
0.0
 12
257.601476
 22
150.49
 32
0.0
 13
257.587756
 23
150.49
 33
0.0
  0
3DFACE
  5
B51
100
AcDbEntity
  8
0
  6
CONTINUOUS
 62
     7
100
AcDbFace
 10
257.601476
 20
149.51
 30
0.0
 11
257.615196
 21
149.51
 31
0.0
 12
257.615196
 22
150.49
 32
0.0
 13
257.601476
 23
150.49
 33
0.0
  0
3DFACE
  5
B52
100
AcDbEntity
  8
0
  6
CONTINUOUS
 62
     7
100
AcDbFace
 10
257.615196
 20
149.51
 30
0.0
 11
257.628916
 21
149.51
 31
0.0
 12
257.628916
 22
150.49
 32
0.0
 13
257.615196
 23
150.49
 33
0.0
  0
3DFACE
  5
B53
100
AcDbEntity
  8
0
  6
CONTINUOUS
 62
     7
100
AcDbFace
 10
257.628916
 20
149.51
 30
0.0
 11
257.642636
 21
149.51
 31
0.0
 12
257.642636
 22
150.49
 32
0.0
 13
257.628916
 23
150.49
 33
0.0
  0
3DFACE
  5
B54
100
AcDbEntity
  8
0
  6
CONTINUOUS
 62
     7
100
AcDbFace
 10
257.642636
 20
149.51
 30
0.0
 11
257.656356
 21
149.51
 31
0.0
 12
257.656356
 22
150.49
 32
0.0
 13
257.642636
 23
150.49
 33
0.0
  0
3DFACE
  5
B55
100
AcDbEntity
  8
0
  6
CONTINUOUS
 62
     7
100
AcDbFace
 10
257.656356
 20
149.51
 30
0.0
 11
257.670076
 21
149.51
 31
0.0
 12
257.670076
 22
150.49
 32
0.0
 13
257.656356
 23
150.49
 33
0.0
  0
3DFACE
  5
B56
100
AcDbEntity
  8
0
  6
CONTINUOUS
 62
     7
100
AcDbFace
 10
257.670076
 20
149.51
 30
0.0
 11
257.683796
 21
149.51
 31
0.0
 12
257.683796
 22
150.49
 32
0.0
 13
257.670076
 23
150.49
 33
0.0
  0
3DFACE
  5
B57
100
AcDbEntity
  8
0
  6
CONTINUOUS
 62
     7
100
AcDbFace
 10
257.683796
 20
149.51
 30
0.0
 11
257.697516
 21
149.51
 31
0.0
 12
257.697516
 22
150.49
 32
0.0
 13
257.683796
 23
150.49
 33
0.0
  0
3DFACE
  5
B58
100
AcDbEntity
  8
0
  6
CONTINUOUS
 62
     7
100
AcDbFace
 10
257.697516
 20
149.51
 30
0.0
 11
257.711236
 21
149.51
 31
0.0
 12
257.711236
 22
150.49
 32
0.0
 13
257.697516
 23
150.49
 33
0.0
  0
3DFACE
  5
B59
100
AcDbEntity
  8
0
  6
CONTINUOUS
 62
     7
100
AcDbFace
 10
257.711236
 20
149.51
 30
0.0
 11
257.724956
 21
149.51
 31
0.0
 12
257.724956
 22
150.49
 32
0.0
 13
257.711236
 23
150.49
 33
0.0
  0
3DFACE
  5
B5A
100
AcDbEntity
  8
0
  6
CONTINUOUS
 62
     7
100
AcDbFace
 10
257.724956
 20
149.51
 30
0.0
 11
257.738676
 21
149.51
 31
0.0
 12
257.738676
 22
150.49
 32
0.0
 13
257.724956
 23
150.49
 33
0.0
  0
3DFACE
  5
B5B
100
AcDbEntity
  8
0
  6
CONTINUOUS
 62
     7
100
AcDbFace
 10
257.738676
 20
149.51
 30
0.0
 11
257.752396
 21
149.51
 31
0.0
 12
257.752396
 22
150.49
 32
0.0
 13
257.738676
 23
150.49
 33
0.0
  0
3DFACE
  5
B5C
100
AcDbEntity
  8
0
  6
CONTINUOUS
 62
     7
100
AcDbFace
 10
257.752396
 20
149.51
 30
0.0
 11
257.766116
 21
149.51
 31
0.0
 12
257.766116
 22
150.49
 32
0.0
 13
257.752396
 23
150.49
 33
0.0
  0
3DFACE
  5
B5D
100
AcDbEntity
  8
0
  6
CONTINUOUS
 62
     7
100
AcDbFace
 10
257.766116
 20
149.51
 30
0.0
 11
257.779836
 21
149.51
 31
0.0
 12
257.779836
 22
150.49
 32
0.0
 13
257.766116
 23
150.49
 33
0.0
  0
3DFACE
  5
B5E
100
AcDbEntity
  8
0
  6
CONTINUOUS
 62
     7
100
AcDbFace
 10
257.779836
 20
149.51
 30
0.0
 11
257.793556
 21
149.51
 31
0.0
 12
257.793556
 22
150.49
 32
0.0
 13
257.779836
 23
150.49
 33
0.0
  0
3DFACE
  5
B5F
100
AcDbEntity
  8
0
  6
CONTINUOUS
 62
     7
100
AcDbFace
 10
257.793556
 20
149.51
 30
0.0
 11
257.807276
 21
149.51
 31
0.0
 12
257.807276
 22
150.49
 32
0.0
 13
257.793556
 23
150.49
 33
0.0
  0
3DFACE
  5
B60
100
AcDbEntity
  8
0
  6
CONTINUOUS
 62
     7
100
AcDbFace
 10
257.807276
 20
149.51
 30
0.0
 11
257.820996
 21
149.51
 31
0.0
 12
257.820996
 22
150.49
 32
0.0
 13
257.807276
 23
150.49
 33
0.0
  0
3DFACE
  5
B61
100
AcDbEntity
  8
0
  6
CONTINUOUS
 62
     7
100
AcDbFace
 10
257.820996
 20
149.51
 30
0.0
 11
257.834716
 21
149.51
 31
0.0
 12
257.834716
 22
150.49
 32
0.0
 13
257.820996
 23
150.49
 33
0.0
  0
3DFACE
  5
B62
100
AcDbEntity
  8
0
  6
CONTINUOUS
 62
     7
100
AcDbFace
 10
257.834716
 20
149.51
 30
0.0
 11
257.848436
 21
149.51
 31
0.0
 12
257.848436
 22
150.49
 32
0.0
 13
257.834716
 23
150.49
 33
0.0
  0
3DFACE
  5
B63
100
AcDbEntity
  8
0
  6
CONTINUOUS
 62
     7
100
AcDbFace
 10
257.848436
 20
149.51
 30
0.0
 11
257.862156
 21
149.51
 31
0.0
 12
257.862156
 22
150.49
 32
0.0
 13
257.848436
 23
150.49
 33
0.0
  0
3DFACE
  5
B64
100
AcDbEntity
  8
0
  6
CONTINUOUS
 62
     7
100
AcDbFace
 10
257.862156
 20
149.51
 30
0.0
 11
257.875876
 21
149.51
 31
0.0
 12
257.875876
 22
150.49
 32
0.0
 13
257.862156
 23
150.49
 33
0.0
  0
3DFACE
  5
B65
100
AcDbEntity
  8
0
  6
CONTINUOUS
 62
     7
100
AcDbFace
 10
257.875876
 20
149.51
 30
0.0
 11
257.889596
 21
149.51
 31
0.0
 12
257.889596
 22
150.49
 32
0.0
 13
257.875876
 23
150.49
 33
0.0
  0
3DFACE
  5
B66
100
AcDbEntity
  8
0
  6
CONTINUOUS
 62
     7
100
AcDbFace
 10
257.889596
 20
149.51
 30
0.0
 11
257.903316
 21
149.51
 31
0.0
 12
257.903316
 22
150.49
 32
0.0
 13
257.889596
 23
150.49
 33
0.0
  0
3DFACE
  5
B67
100
AcDbEntity
  8
0
  6
CONTINUOUS
 62
     7
100
AcDbFace
 10
257.903316
 20
149.51
 30
0.0
 11
257.917036
 21
149.51
 31
0.0
 12
257.917036
 22
150.49
 32
0.0
 13
257.903316
 23
150.49
 33
0.0
  0
3DFACE
  5
B68
100
AcDbEntity
  8
0
  6
CONTINUOUS
 62
     7
100
AcDbFace
 10
257.917036
 20
149.51
 30
0.0
 11
257.930756
 21
149.51
 31
0.0
 12
257.930756
 22
150.49
 32
0.0
 13
257.917036
 23
150.49
 33
0.0
  0
3DFACE
  5
B69
100
AcDbEntity
  8
0
  6
CONTINUOUS
 62
     7
100
AcDbFace
 10
257.930756
 20
149.51
 30
0.0
 11
257.944476
 21
149.51
 31
0.0
 12
257.944476
 22
150.49
 32
0.0
 13
257.930756
 23
150.49
 33
0.0
  0
3DFACE
  5
B6A
100
AcDbEntity
  8
0
  6
CONTINUOUS
 62
     7
100
AcDbFace
 10
257.944476
 20
149.51
 30
0.0
 11
257.958196
 21
149.51
 31
0.0
 12
257.958196
 22
150.49
 32
0.0
 13
257.944476
 23
150.49
 33
0.0
  0
3DFACE
  5
B6B
100
AcDbEntity
  8
0
  6
CONTINUOUS
 62
     7
100
AcDbFace
 10
257.958196
 20
149.51
 30
0.0
 11
257.971916
 21
149.51
 31
0.0
 12
257.971916
 22
150.49
 32
0.0
 13
257.958196
 23
150.49
 33
0.0
  0
3DFACE
  5
B6C
100
AcDbEntity
  8
0
  6
CONTINUOUS
 62
     7
100
AcDbFace
 10
257.971916
 20
149.51
 30
0.0
 11
257.985636
 21
149.51
 31
0.0
 12
257.985636
 22
150.49
 32
0.0
 13
257.971916
 23
150.49
 33
0.0
  0
3DFACE
  5
B6D
100
AcDbEntity
  8
0
  6
CONTINUOUS
 62
     7
100
AcDbFace
 10
257.985636
 20
149.51
 30
0.0
 11
257.999356
 21
149.51
 31
0.0
 12
257.999356
 22
150.49
 32
0.0
 13
257.985636
 23
150.49
 33
0.0
  0
3DFACE
  5
B6E
100
AcDbEntity
  8
0
  6
CONTINUOUS
 62
     7
100
AcDbFace
 10
257.999356
 20
149.51
 30
0.0
 11
258.013076
 21
149.51
 31
0.0
 12
258.013076
 22
150.49
 32
0.0
 13
257.999356
 23
150.49
 33
0.0
  0
3DFACE
  5
B6F
100
AcDbEntity
  8
0
  6
CONTINUOUS
 62
     7
100
AcDbFace
 10
258.013076
 20
149.51
 30
0.0
 11
258.026796
 21
149.51
 31
0.0
 12
258.026796
 22
150.49
 32
0.0
 13
258.013076
 23
150.49
 33
0.0
  0
3DFACE
  5
B70
100
AcDbEntity
  8
0
  6
CONTINUOUS
 62
     7
100
AcDbFace
 10
258.026796
 20
149.51
 30
0.0
 11
258.040516
 21
149.51
 31
0.0
 12
258.040516
 22
150.49
 32
0.0
 13
258.026796
 23
150.49
 33
0.0
  0
3DFACE
  5
B71
100
AcDbEntity
  8
0
  6
CONTINUOUS
 62
     7
100
AcDbFace
 10
258.040516
 20
149.51
 30
0.0
 11
258.054236
 21
149.51
 31
0.0
 12
258.054236
 22
150.49
 32
0.0
 13
258.040516
 23
150.49
 33
0.0
  0
3DFACE
  5
B72
100
AcDbEntity
  8
0
  6
CONTINUOUS
 62
     7
100
AcDbFace
 10
258.054236
 20
149.51
 30
0.0
 11
258.067956
 21
149.51
 31
0.0
 12
258.067956
 22
150.49
 32
0.0
 13
258.054236
 23
150.49
 33
0.0
  0
3DFACE
  5
B73
100
AcDbEntity
  8
0
  6
CONTINUOUS
 62
     7
100
AcDbFace
 10
258.067956
 20
149.51
 30
0.0
 11
258.081676
 21
149.51
 31
0.0
 12
258.081676
 22
150.49
 32
0.0
 13
258.067956
 23
150.49
 33
0.0
  0
3DFACE
  5
B74
100
AcDbEntity
  8
0
  6
CONTINUOUS
 62
     7
100
AcDbFace
 10
258.081676
 20
149.51
 30
0.0
 11
258.095396
 21
149.51
 31
0.0
 12
258.095396
 22
150.49
 32
0.0
 13
258.081676
 23
150.49
 33
0.0
  0
3DFACE
  5
B75
100
AcDbEntity
  8
0
  6
CONTINUOUS
 62
     7
100
AcDbFace
 10
258.095396
 20
149.51
 30
0.0
 11
258.109116
 21
149.51
 31
0.0
 12
258.109116
 22
150.49
 32
0.0
 13
258.095396
 23
150.49
 33
0.0
  0
3DFACE
  5
B76
100
AcDbEntity
  8
0
  6
CONTINUOUS
 62
     7
100
AcDbFace
 10
258.109116
 20
149.51
 30
0.0
 11
258.122836
 21
149.51
 31
0.0
 12
258.122836
 22
150.49
 32
0.0
 13
258.109116
 23
150.49
 33
0.0
  0
3DFACE
  5
B77
100
AcDbEntity
  8
0
  6
CONTINUOUS
 62
     7
100
AcDbFace
 10
258.122836
 20
149.51
 30
0.0
 11
258.136556
 21
149.51
 31
0.0
 12
258.136556
 22
150.49
 32
0.0
 13
258.122836
 23
150.49
 33
0.0
  0
3DFACE
  5
B78
100
AcDbEntity
  8
0
  6
CONTINUOUS
 62
     7
100
AcDbFace
 10
258.136556
 20
149.51
 30
0.0
 11
258.150276
 21
149.51
 31
0.0
 12
258.150276
 22
150.49
 32
0.0
 13
258.136556
 23
150.49
 33
0.0
  0
3DFACE
  5
B79
100
AcDbEntity
  8
0
  6
CONTINUOUS
 62
     7
100
AcDbFace
 10
258.150276
 20
149.51
 30
0.0
 11
258.163996
 21
149.51
 31
0.0
 12
258.163996
 22
150.49
 32
0.0
 13
258.150276
 23
150.49
 33
0.0
  0
3DFACE
  5
B7A
100
AcDbEntity
  8
0
  6
CONTINUOUS
 62
     7
100
AcDbFace
 10
258.163996
 20
149.51
 30
0.0
 11
258.177716
 21
149.51
 31
0.0
 12
258.177716
 22
150.49
 32
0.0
 13
258.163996
 23
150.49
 33
0.0
  0
3DFACE
  5
B7B
100
AcDbEntity
  8
0
  6
CONTINUOUS
 62
     7
100
AcDbFace
 10
258.177716
 20
149.51
 30
0.0
 11
258.191436
 21
149.51
 31
0.0
 12
258.191436
 22
150.49
 32
0.0
 13
258.177716
 23
150.49
 33
0.0
  0
3DFACE
  5
B7C
100
AcDbEntity
  8
0
  6
CONTINUOUS
 62
     7
100
AcDbFace
 10
258.191436
 20
149.51
 30
0.0
 11
258.205156
 21
149.51
 31
0.0
 12
258.205156
 22
150.49
 32
0.0
 13
258.191436
 23
150.49
 33
0.0
  0
3DFACE
  5
B7D
100
AcDbEntity
  8
0
  6
CONTINUOUS
 62
     7
100
AcDbFace
 10
258.205156
 20
149.51
 30
0.0
 11
258.218876
 21
149.51
 31
0.0
 12
258.218876
 22
150.49
 32
0.0
 13
258.205156
 23
150.49
 33
0.0
  0
3DFACE
  5
B7E
100
AcDbEntity
  8
0
  6
CONTINUOUS
 62
     7
100
AcDbFace
 10
258.218876
 20
149.51
 30
0.0
 11
258.232596
 21
149.51
 31
0.0
 12
258.232596
 22
150.49
 32
0.0
 13
258.218876
 23
150.49
 33
0.0
  0
3DFACE
  5
B7F
100
AcDbEntity
  8
0
  6
CONTINUOUS
 62
     7
100
AcDbFace
 10
258.232596
 20
149.51
 30
0.0
 11
258.246316
 21
149.51
 31
0.0
 12
258.246316
 22
150.49
 32
0.0
 13
258.232596
 23
150.49
 33
0.0
  0
3DFACE
  5
B80
100
AcDbEntity
  8
0
  6
CONTINUOUS
 62
     7
100
AcDbFace
 10
258.246316
 20
149.51
 30
0.0
 11
258.260036
 21
149.51
 31
0.0
 12
258.260036
 22
150.49
 32
0.0
 13
258.246316
 23
150.49
 33
0.0
  0
3DFACE
  5
B81
100
AcDbEntity
  8
0
  6
CONTINUOUS
 62
     7
100
AcDbFace
 10
258.260036
 20
149.51
 30
0.0
 11
258.273756
 21
149.51
 31
0.0
 12
258.273756
 22
150.49
 32
0.0
 13
258.260036
 23
150.49
 33
0.0
  0
3DFACE
  5
B82
100
AcDbEntity
  8
0
  6
CONTINUOUS
 62
     7
100
AcDbFace
 10
258.273756
 20
149.51
 30
0.0
 11
258.287476
 21
149.51
 31
0.0
 12
258.287476
 22
150.49
 32
0.0
 13
258.273756
 23
150.49
 33
0.0
  0
3DFACE
  5
B83
100
AcDbEntity
  8
0
  6
CONTINUOUS
 62
     7
100
AcDbFace
 10
258.287476
 20
149.51
 30
0.0
 11
258.301196
 21
149.51
 31
0.0
 12
258.301196
 22
150.49
 32
0.0
 13
258.287476
 23
150.49
 33
0.0
  0
3DFACE
  5
B84
100
AcDbEntity
  8
0
  6
CONTINUOUS
 62
     7
100
AcDbFace
 10
258.301196
 20
149.51
 30
0.0
 11
258.314916
 21
149.51
 31
0.0
 12
258.314916
 22
150.49
 32
0.0
 13
258.301196
 23
150.49
 33
0.0
  0
3DFACE
  5
B85
100
AcDbEntity
  8
0
  6
CONTINUOUS
 62
     7
100
AcDbFace
 10
258.314916
 20
149.51
 30
0.0
 11
258.328636
 21
149.51
 31
0.0
 12
258.328636
 22
150.49
 32
0.0
 13
258.314916
 23
150.49
 33
0.0
  0
3DFACE
  5
B86
100
AcDbEntity
  8
0
  6
CONTINUOUS
 62
     7
100
AcDbFace
 10
258.328636
 20
149.51
 30
0.0
 11
258.342356
 21
149.51
 31
0.0
 12
258.342356
 22
150.49
 32
0.0
 13
258.328636
 23
150.49
 33
0.0
  0
3DFACE
  5
B87
100
AcDbEntity
  8
0
  6
CONTINUOUS
 62
     7
100
AcDbFace
 10
258.342356
 20
149.51
 30
0.0
 11
258.356076
 21
149.51
 31
0.0
 12
258.356076
 22
150.49
 32
0.0
 13
258.342356
 23
150.49
 33
0.0
  0
3DFACE
  5
B88
100
AcDbEntity
  8
0
  6
CONTINUOUS
 62
     7
100
AcDbFace
 10
258.356076
 20
149.51
 30
0.0
 11
258.369796
 21
149.51
 31
0.0
 12
258.369796
 22
150.49
 32
0.0
 13
258.356076
 23
150.49
 33
0.0
  0
3DFACE
  5
B89
100
AcDbEntity
  8
0
  6
CONTINUOUS
 62
     7
100
AcDbFace
 10
258.369796
 20
149.51
 30
0.0
 11
258.383516
 21
149.51
 31
0.0
 12
258.383516
 22
150.49
 32
0.0
 13
258.369796
 23
150.49
 33
0.0
  0
3DFACE
  5
B8A
100
AcDbEntity
  8
0
  6
CONTINUOUS
 62
     7
100
AcDbFace
 10
258.383516
 20
149.51
 30
0.0
 11
258.397236
 21
149.51
 31
0.0
 12
258.397236
 22
150.49
 32
0.0
 13
258.383516
 23
150.49
 33
0.0
  0
3DFACE
  5
B8B
100
AcDbEntity
  8
0
  6
CONTINUOUS
 62
     7
100
AcDbFace
 10
258.397236
 20
149.51
 30
0.0
 11
258.410956
 21
149.51
 31
0.0
 12
258.410956
 22
150.49
 32
0.0
 13
258.397236
 23
150.49
 33
0.0
  0
3DFACE
  5
B8C
100
AcDbEntity
  8
0
  6
CONTINUOUS
 62
     7
100
AcDbFace
 10
258.410956
 20
149.51
 30
0.0
 11
258.424676
 21
149.51
 31
0.0
 12
258.424676
 22
150.49
 32
0.0
 13
258.410956
 23
150.49
 33
0.0
  0
3DFACE
  5
B8D
100
AcDbEntity
  8
0
  6
CONTINUOUS
 62
     7
100
AcDbFace
 10
258.424676
 20
149.51
 30
0.0
 11
258.438396
 21
149.51
 31
0.0
 12
258.438396
 22
150.49
 32
0.0
 13
258.424676
 23
150.49
 33
0.0
  0
3DFACE
  5
B8E
100
AcDbEntity
  8
0
  6
CONTINUOUS
 62
     7
100
AcDbFace
 10
258.438396
 20
149.51
 30
0.0
 11
258.452116
 21
149.51
 31
0.0
 12
258.452116
 22
150.49
 32
0.0
 13
258.438396
 23
150.49
 33
0.0
  0
3DFACE
  5
B8F
100
AcDbEntity
  8
0
  6
CONTINUOUS
 62
     7
100
AcDbFace
 10
258.452116
 20
149.51
 30
0.0
 11
258.465836
 21
149.51
 31
0.0
 12
258.465836
 22
150.49
 32
0.0
 13
258.452116
 23
150.49
 33
0.0
  0
3DFACE
  5
B90
100
AcDbEntity
  8
0
  6
CONTINUOUS
 62
     7
100
AcDbFace
 10
258.465836
 20
149.51
 30
0.0
 11
258.479556
 21
149.51
 31
0.0
 12
258.479556
 22
150.49
 32
0.0
 13
258.465836
 23
150.49
 33
0.0
  0
3DFACE
  5
B91
100
AcDbEntity
  8
0
  6
CONTINUOUS
 62
     7
100
AcDbFace
 10
258.479556
 20
149.51
 30
0.0
 11
258.493276
 21
149.51
 31
0.0
 12
258.493276
 22
150.49
 32
0.0
 13
258.479556
 23
150.49
 33
0.0
  0
3DFACE
  5
B92
100
AcDbEntity
  8
0
  6
CONTINUOUS
 62
     7
100
AcDbFace
 10
258.493276
 20
149.51
 30
0.0
 11
258.506996
 21
149.51
 31
0.0
 12
258.506996
 22
150.49
 32
0.0
 13
258.493276
 23
150.49
 33
0.0
  0
3DFACE
  5
B93
100
AcDbEntity
  8
0
  6
CONTINUOUS
 62
     7
100
AcDbFace
 10
258.506996
 20
149.51
 30
0.0
 11
258.520716
 21
149.51
 31
0.0
 12
258.520716
 22
150.49
 32
0.0
 13
258.506996
 23
150.49
 33
0.0
  0
3DFACE
  5
B94
100
AcDbEntity
  8
0
  6
CONTINUOUS
 62
     7
100
AcDbFace
 10
258.520716
 20
149.51
 30
0.0
 11
258.534436
 21
149.51
 31
0.0
 12
258.534436
 22
150.49
 32
0.0
 13
258.520716
 23
150.49
 33
0.0
  0
3DFACE
  5
B95
100
AcDbEntity
  8
0
  6
CONTINUOUS
 62
     7
100
AcDbFace
 10
258.534436
 20
149.51
 30
0.0
 11
258.548156
 21
149.51
 31
0.0
 12
258.548156
 22
150.49
 32
0.0
 13
258.534436
 23
150.49
 33
0.0
  0
3DFACE
  5
B96
100
AcDbEntity
  8
0
  6
CONTINUOUS
 62
     7
100
AcDbFace
 10
258.548156
 20
149.51
 30
0.0
 11
258.561876
 21
149.51
 31
0.0
 12
258.561876
 22
150.49
 32
0.0
 13
258.548156
 23
150.49
 33
0.0
  0
3DFACE
  5
B97
100
AcDbEntity
  8
0
  6
CONTINUOUS
 62
     7
100
AcDbFace
 10
258.561876
 20
149.51
 30
0.0
 11
258.575596
 21
149.51
 31
0.0
 12
258.575596
 22
150.49
 32
0.0
 13
258.561876
 23
150.49
 33
0.0
  0
3DFACE
  5
B98
100
AcDbEntity
  8
0
  6
CONTINUOUS
 62
     7
100
AcDbFace
 10
258.575596
 20
149.51
 30
0.0
 11
258.589316
 21
149.51
 31
0.0
 12
258.589316
 22
150.49
 32
0.0
 13
258.575596
 23
150.49
 33
0.0
  0
3DFACE
  5
B99
100
AcDbEntity
  8
0
  6
CONTINUOUS
 62
     7
100
AcDbFace
 10
258.589316
 20
149.51
 30
0.0
 11
258.603036
 21
149.51
 31
0.0
 12
258.603036
 22
150.49
 32
0.0
 13
258.589316
 23
150.49
 33
0.0
  0
3DFACE
  5
B9A
100
AcDbEntity
  8
0
  6
CONTINUOUS
 62
     7
100
AcDbFace
 10
258.603036
 20
149.51
 30
0.0
 11
258.616756
 21
149.51
 31
0.0
 12
258.616756
 22
150.49
 32
0.0
 13
258.603036
 23
150.49
 33
0.0
  0
3DFACE
  5
B9B
100
AcDbEntity
  8
0
  6
CONTINUOUS
 62
     7
100
AcDbFace
 10
258.616756
 20
149.51
 30
0.0
 11
258.630476
 21
149.51
 31
0.0
 12
258.630476
 22
150.49
 32
0.0
 13
258.616756
 23
150.49
 33
0.0
  0
3DFACE
  5
B9C
100
AcDbEntity
  8
0
  6
CONTINUOUS
 62
     7
100
AcDbFace
 10
258.630476
 20
149.51
 30
0.0
 11
258.644196
 21
149.51
 31
0.0
 12
258.644196
 22
150.49
 32
0.0
 13
258.630476
 23
150.49
 33
0.0
  0
3DFACE
  5
B9D
100
AcDbEntity
  8
0
  6
CONTINUOUS
 62
     7
100
AcDbFace
 10
258.644196
 20
149.51
 30
0.0
 11
258.657916
 21
149.51
 31
0.0
 12
258.657916
 22
150.49
 32
0.0
 13
258.644196
 23
150.49
 33
0.0
  0
3DFACE
  5
B9E
100
AcDbEntity
  8
0
  6
CONTINUOUS
 62
     7
100
AcDbFace
 10
258.657916
 20
149.51
 30
0.0
 11
258.671636
 21
149.51
 31
0.0
 12
258.671636
 22
150.49
 32
0.0
 13
258.657916
 23
150.49
 33
0.0
  0
3DFACE
  5
B9F
100
AcDbEntity
  8
0
  6
CONTINUOUS
 62
     7
100
AcDbFace
 10
258.671636
 20
149.51
 30
0.0
 11
258.685356
 21
149.51
 31
0.0
 12
258.685356
 22
150.49
 32
0.0
 13
258.671636
 23
150.49
 33
0.0
  0
3DFACE
  5
BA0
100
AcDbEntity
  8
0
  6
CONTINUOUS
 62
     7
100
AcDbFace
 10
258.685356
 20
149.51
 30
0.0
 11
258.699076
 21
149.51
 31
0.0
 12
258.699076
 22
150.49
 32
0.0
 13
258.685356
 23
150.49
 33
0.0
  0
3DFACE
  5
BA1
100
AcDbEntity
  8
0
  6
CONTINUOUS
 62
     7
100
AcDbFace
 10
258.699076
 20
149.51
 30
0.0
 11
258.712796
 21
149.51
 31
0.0
 12
258.712796
 22
150.49
 32
0.0
 13
258.699076
 23
150.49
 33
0.0
  0
3DFACE
  5
BA2
100
AcDbEntity
  8
0
  6
CONTINUOUS
 62
     7
100
AcDbFace
 10
258.712796
 20
149.51
 30
0.0
 11
258.726516
 21
149.51
 31
0.0
 12
258.726516
 22
150.49
 32
0.0
 13
258.712796
 23
150.49
 33
0.0
  0
3DFACE
  5
BA3
100
AcDbEntity
  8
0
  6
CONTINUOUS
 62
     7
100
AcDbFace
 10
258.726516
 20
149.51
 30
0.0
 11
258.740236
 21
149.51
 31
0.0
 12
258.740236
 22
150.49
 32
0.0
 13
258.726516
 23
150.49
 33
0.0
  0
3DFACE
  5
BA4
100
AcDbEntity
  8
0
  6
CONTINUOUS
 62
     7
100
AcDbFace
 10
258.740236
 20
149.51
 30
0.0
 11
258.753956
 21
149.51
 31
0.0
 12
258.753956
 22
150.49
 32
0.0
 13
258.740236
 23
150.49
 33
0.0
  0
3DFACE
  5
BA5
100
AcDbEntity
  8
0
  6
CONTINUOUS
 62
     7
100
AcDbFace
 10
258.753956
 20
149.51
 30
0.0
 11
258.767676
 21
149.51
 31
0.0
 12
258.767676
 22
150.49
 32
0.0
 13
258.753956
 23
150.49
 33
0.0
  0
3DFACE
  5
BA6
100
AcDbEntity
  8
0
  6
CONTINUOUS
 62
     7
100
AcDbFace
 10
258.767676
 20
149.51
 30
0.0
 11
258.781396
 21
149.51
 31
0.0
 12
258.781396
 22
150.49
 32
0.0
 13
258.767676
 23
150.49
 33
0.0
  0
3DFACE
  5
BA7
100
AcDbEntity
  8
0
  6
CONTINUOUS
 62
     7
100
AcDbFace
 10
258.781396
 20
149.51
 30
0.0
 11
258.795116
 21
149.51
 31
0.0
 12
258.795116
 22
150.49
 32
0.0
 13
258.781396
 23
150.49
 33
0.0
  0
3DFACE
  5
BA8
100
AcDbEntity
  8
0
  6
CONTINUOUS
 62
     7
100
AcDbFace
 10
258.795116
 20
149.51
 30
0.0
 11
258.808836
 21
149.51
 31
0.0
 12
258.808836
 22
150.49
 32
0.0
 13
258.795116
 23
150.49
 33
0.0
  0
3DFACE
  5
BA9
100
AcDbEntity
  8
0
  6
CONTINUOUS
 62
     7
100
AcDbFace
 10
258.808836
 20
149.51
 30
0.0
 11
258.822556
 21
149.51
 31
0.0
 12
258.822556
 22
150.49
 32
0.0
 13
258.808836
 23
150.49
 33
0.0
  0
3DFACE
  5
BAA
100
AcDbEntity
  8
0
  6
CONTINUOUS
 62
     7
100
AcDbFace
 10
258.822556
 20
149.51
 30
0.0
 11
258.836276
 21
149.51
 31
0.0
 12
258.836276
 22
150.49
 32
0.0
 13
258.822556
 23
150.49
 33
0.0
  0
3DFACE
  5
BAB
100
AcDbEntity
  8
0
  6
CONTINUOUS
 62
     7
100
AcDbFace
 10
258.836276
 20
149.51
 30
0.0
 11
258.849996
 21
149.51
 31
0.0
 12
258.849996
 22
150.49
 32
0.0
 13
258.836276
 23
150.49
 33
0.0
  0
3DFACE
  5
BAC
100
AcDbEntity
  8
0
  6
CONTINUOUS
 62
     7
100
AcDbFace
 10
258.849996
 20
149.51
 30
0.0
 11
258.863716
 21
149.51
 31
0.0
 12
258.863716
 22
150.49
 32
0.0
 13
258.849996
 23
150.49
 33
0.0
  0
3DFACE
  5
BAD
100
AcDbEntity
  8
0
  6
CONTINUOUS
 62
     7
100
AcDbFace
 10
258.863716
 20
149.51
 30
0.0
 11
258.877436
 21
149.51
 31
0.0
 12
258.877436
 22
150.49
 32
0.0
 13
258.863716
 23
150.49
 33
0.0
  0
3DFACE
  5
BAE
100
AcDbEntity
  8
0
  6
CONTINUOUS
 62
     7
100
AcDbFace
 10
258.877436
 20
149.51
 30
0.0
 11
258.891156
 21
149.51
 31
0.0
 12
258.891156
 22
150.49
 32
0.0
 13
258.877436
 23
150.49
 33
0.0
  0
3DFACE
  5
BAF
100
AcDbEntity
  8
0
  6
CONTINUOUS
 62
     7
100
AcDbFace
 10
258.891156
 20
149.51
 30
0.0
 11
258.904876
 21
149.51
 31
0.0
 12
258.904876
 22
150.49
 32
0.0
 13
258.891156
 23
150.49
 33
0.0
  0
3DFACE
  5
BB0
100
AcDbEntity
  8
0
  6
CONTINUOUS
 62
     7
100
AcDbFace
 10
258.904876
 20
149.51
 30
0.0
 11
258.918596
 21
149.51
 31
0.0
 12
258.918596
 22
150.49
 32
0.0
 13
258.904876
 23
150.49
 33
0.0
  0
3DFACE
  5
BB1
100
AcDbEntity
  8
0
  6
CONTINUOUS
 62
     7
100
AcDbFace
 10
258.918596
 20
149.51
 30
0.0
 11
258.932316
 21
149.51
 31
0.0
 12
258.932316
 22
150.49
 32
0.0
 13
258.918596
 23
150.49
 33
0.0
  0
3DFACE
  5
BB2
100
AcDbEntity
  8
0
  6
CONTINUOUS
 62
     7
100
AcDbFace
 10
258.932316
 20
149.51
 30
0.0
 11
258.946036
 21
149.51
 31
0.0
 12
258.946036
 22
150.49
 32
0.0
 13
258.932316
 23
150.49
 33
0.0
  0
3DFACE
  5
BB3
100
AcDbEntity
  8
0
  6
CONTINUOUS
 62
     7
100
AcDbFace
 10
258.946036
 20
149.51
 30
0.0
 11
258.959756
 21
149.51
 31
0.0
 12
258.959756
 22
150.49
 32
0.0
 13
258.946036
 23
150.49
 33
0.0
  0
3DFACE
  5
BB4
100
AcDbEntity
  8
0
  6
CONTINUOUS
 62
     7
100
AcDbFace
 10
258.959756
 20
149.51
 30
0.0
 11
258.973476
 21
149.51
 31
0.0
 12
258.973476
 22
150.49
 32
0.0
 13
258.959756
 23
150.49
 33
0.0
  0
3DFACE
  5
BB5
100
AcDbEntity
  8
0
  6
CONTINUOUS
 62
     7
100
AcDbFace
 10
258.973476
 20
149.51
 30
0.0
 11
258.987196
 21
149.51
 31
0.0
 12
258.987196
 22
150.49
 32
0.0
 13
258.973476
 23
150.49
 33
0.0
  0
3DFACE
  5
BB6
100
AcDbEntity
  8
0
  6
CONTINUOUS
 62
     7
100
AcDbFace
 10
258.987196
 20
149.51
 30
0.0
 11
259.000916
 21
149.51
 31
0.0
 12
259.000916
 22
150.49
 32
0.0
 13
258.987196
 23
150.49
 33
0.0
  0
3DFACE
  5
BB7
100
AcDbEntity
  8
0
  6
CONTINUOUS
 62
     7
100
AcDbFace
 10
259.000916
 20
149.51
 30
0.0
 11
259.014636
 21
149.51
 31
0.0
 12
259.014636
 22
150.49
 32
0.0
 13
259.000916
 23
150.49
 33
0.0
  0
3DFACE
  5
BB8
100
AcDbEntity
  8
0
  6
CONTINUOUS
 62
     7
100
AcDbFace
 10
259.014636
 20
149.51
 30
0.0
 11
259.028356
 21
149.51
 31
0.0
 12
259.028356
 22
150.49
 32
0.0
 13
259.014636
 23
150.49
 33
0.0
  0
3DFACE
  5
BB9
100
AcDbEntity
  8
0
  6
CONTINUOUS
 62
     7
100
AcDbFace
 10
259.028356
 20
149.51
 30
0.0
 11
259.042076
 21
149.51
 31
0.0
 12
259.042076
 22
150.49
 32
0.0
 13
259.028356
 23
150.49
 33
0.0
  0
3DFACE
  5
BBA
100
AcDbEntity
  8
0
  6
CONTINUOUS
 62
     7
100
AcDbFace
 10
259.042076
 20
149.51
 30
0.0
 11
259.055796
 21
149.51
 31
0.0
 12
259.055796
 22
150.49
 32
0.0
 13
259.042076
 23
150.49
 33
0.0
  0
3DFACE
  5
BBB
100
AcDbEntity
  8
0
  6
CONTINUOUS
 62
     7
100
AcDbFace
 10
259.055796
 20
149.51
 30
0.0
 11
259.069516
 21
149.51
 31
0.0
 12
259.069516
 22
150.49
 32
0.0
 13
259.055796
 23
150.49
 33
0.0
  0
3DFACE
  5
BBC
100
AcDbEntity
  8
0
  6
CONTINUOUS
 62
     7
100
AcDbFace
 10
259.069516
 20
149.51
 30
0.0
 11
259.083236
 21
149.51
 31
0.0
 12
259.083236
 22
150.49
 32
0.0
 13
259.069516
 23
150.49
 33
0.0
  0
3DFACE
  5
BBD
100
AcDbEntity
  8
0
  6
CONTINUOUS
 62
     7
100
AcDbFace
 10
259.083236
 20
149.51
 30
0.0
 11
259.096956
 21
149.51
 31
0.0
 12
259.096956
 22
150.49
 32
0.0
 13
259.083236
 23
150.49
 33
0.0
  0
3DFACE
  5
BBE
100
AcDbEntity
  8
0
  6
CONTINUOUS
 62
     7
100
AcDbFace
 10
259.096956
 20
149.51
 30
0.0
 11
259.110676
 21
149.51
 31
0.0
 12
259.110676
 22
150.49
 32
0.0
 13
259.096956
 23
150.49
 33
0.0
  0
3DFACE
  5
BBF
100
AcDbEntity
  8
0
  6
CONTINUOUS
 62
     7
100
AcDbFace
 10
259.110676
 20
149.51
 30
0.0
 11
259.124396
 21
149.51
 31
0.0
 12
259.124396
 22
150.49
 32
0.0
 13
259.110676
 23
150.49
 33
0.0
  0
3DFACE
  5
BC0
100
AcDbEntity
  8
0
  6
CONTINUOUS
 62
     7
100
AcDbFace
 10
259.124396
 20
149.51
 30
0.0
 11
259.138116
 21
149.51
 31
0.0
 12
259.138116
 22
150.49
 32
0.0
 13
259.124396
 23
150.49
 33
0.0
  0
3DFACE
  5
BC1
100
AcDbEntity
  8
0
  6
CONTINUOUS
 62
     7
100
AcDbFace
 10
259.138116
 20
149.51
 30
0.0
 11
259.151836
 21
149.51
 31
0.0
 12
259.151836
 22
150.49
 32
0.0
 13
259.138116
 23
150.49
 33
0.0
  0
3DFACE
  5
BC2
100
AcDbEntity
  8
0
  6
CONTINUOUS
 62
     7
100
AcDbFace
 10
259.151836
 20
149.51
 30
0.0
 11
259.165556
 21
149.51
 31
0.0
 12
259.165556
 22
150.49
 32
0.0
 13
259.151836
 23
150.49
 33
0.0
  0
3DFACE
  5
BC3
100
AcDbEntity
  8
0
  6
CONTINUOUS
 62
     7
100
AcDbFace
 10
259.165556
 20
149.51
 30
0.0
 11
259.179276
 21
149.51
 31
0.0
 12
259.179276
 22
150.49
 32
0.0
 13
259.165556
 23
150.49
 33
0.0
  0
3DFACE
  5
BC4
100
AcDbEntity
  8
0
  6
CONTINUOUS
 62
     7
100
AcDbFace
 10
259.179276
 20
149.51
 30
0.0
 11
259.192996
 21
149.51
 31
0.0
 12
259.192996
 22
150.49
 32
0.0
 13
259.179276
 23
150.49
 33
0.0
  0
3DFACE
  5
BC5
100
AcDbEntity
  8
0
  6
CONTINUOUS
 62
     7
100
AcDbFace
 10
259.192996
 20
149.51
 30
0.0
 11
259.206716
 21
149.51
 31
0.0
 12
259.206716
 22
150.49
 32
0.0
 13
259.192996
 23
150.49
 33
0.0
  0
3DFACE
  5
BC6
100
AcDbEntity
  8
0
  6
CONTINUOUS
 62
     7
100
AcDbFace
 10
259.206716
 20
149.51
 30
0.0
 11
259.220436
 21
149.51
 31
0.0
 12
259.220436
 22
150.49
 32
0.0
 13
259.206716
 23
150.49
 33
0.0
  0
3DFACE
  5
BC7
100
AcDbEntity
  8
0
  6
CONTINUOUS
 62
     7
100
AcDbFace
 10
259.220436
 20
149.51
 30
0.0
 11
259.234156
 21
149.51
 31
0.0
 12
259.234156
 22
150.49
 32
0.0
 13
259.220436
 23
150.49
 33
0.0
  0
3DFACE
  5
BC8
100
AcDbEntity
  8
0
  6
CONTINUOUS
 62
     7
100
AcDbFace
 10
259.234156
 20
149.51
 30
0.0
 11
259.247876
 21
149.51
 31
0.0
 12
259.247876
 22
150.49
 32
0.0
 13
259.234156
 23
150.49
 33
0.0
  0
3DFACE
  5
BC9
100
AcDbEntity
  8
0
  6
CONTINUOUS
 62
     7
100
AcDbFace
 10
259.247876
 20
149.51
 30
0.0
 11
259.261596
 21
149.51
 31
0.0
 12
259.261596
 22
150.49
 32
0.0
 13
259.247876
 23
150.49
 33
0.0
  0
3DFACE
  5
BCA
100
AcDbEntity
  8
0
  6
CONTINUOUS
 62
     7
100
AcDbFace
 10
259.261596
 20
149.51
 30
0.0
 11
259.275316
 21
149.51
 31
0.0
 12
259.275316
 22
150.49
 32
0.0
 13
259.261596
 23
150.49
 33
0.0
  0
3DFACE
  5
BCB
100
AcDbEntity
  8
0
  6
CONTINUOUS
 62
     7
100
AcDbFace
 10
259.275316
 20
149.51
 30
0.0
 11
259.289036
 21
149.51
 31
0.0
 12
259.289036
 22
150.49
 32
0.0
 13
259.275316
 23
150.49
 33
0.0
  0
3DFACE
  5
BCC
100
AcDbEntity
  8
0
  6
CONTINUOUS
 62
     7
100
AcDbFace
 10
259.289036
 20
149.51
 30
0.0
 11
259.302756
 21
149.51
 31
0.0
 12
259.302756
 22
150.49
 32
0.0
 13
259.289036
 23
150.49
 33
0.0
  0
3DFACE
  5
BCD
100
AcDbEntity
  8
0
  6
CONTINUOUS
 62
     7
100
AcDbFace
 10
259.302756
 20
149.51
 30
0.0
 11
259.316476
 21
149.51
 31
0.0
 12
259.316476
 22
150.49
 32
0.0
 13
259.302756
 23
150.49
 33
0.0
  0
3DFACE
  5
BCE
100
AcDbEntity
  8
0
  6
CONTINUOUS
 62
     7
100
AcDbFace
 10
259.316476
 20
149.51
 30
0.0
 11
259.330196
 21
149.51
 31
0.0
 12
259.330196
 22
150.49
 32
0.0
 13
259.316476
 23
150.49
 33
0.0
  0
3DFACE
  5
BCF
100
AcDbEntity
  8
0
  6
CONTINUOUS
 62
     7
100
AcDbFace
 10
259.330196
 20
149.51
 30
0.0
 11
259.343916
 21
149.51
 31
0.0
 12
259.343916
 22
150.49
 32
0.0
 13
259.330196
 23
150.49
 33
0.0
  0
3DFACE
  5
BD0
100
AcDbEntity
  8
0
  6
CONTINUOUS
 62
     7
100
AcDbFace
 10
259.343916
 20
149.51
 30
0.0
 11
259.357636
 21
149.51
 31
0.0
 12
259.357636
 22
150.49
 32
0.0
 13
259.343916
 23
150.49
 33
0.0
  0
3DFACE
  5
BD1
100
AcDbEntity
  8
0
  6
CONTINUOUS
 62
     7
100
AcDbFace
 10
259.357636
 20
149.51
 30
0.0
 11
259.371356
 21
149.51
 31
0.0
 12
259.371356
 22
150.49
 32
0.0
 13
259.357636
 23
150.49
 33
0.0
  0
3DFACE
  5
BD2
100
AcDbEntity
  8
0
  6
CONTINUOUS
 62
     7
100
AcDbFace
 10
259.371356
 20
149.51
 30
0.0
 11
259.385076
 21
149.51
 31
0.0
 12
259.385076
 22
150.49
 32
0.0
 13
259.371356
 23
150.49
 33
0.0
  0
3DFACE
  5
BD3
100
AcDbEntity
  8
0
  6
CONTINUOUS
 62
     7
100
AcDbFace
 10
259.385076
 20
149.51
 30
0.0
 11
259.398796
 21
149.51
 31
0.0
 12
259.398796
 22
150.49
 32
0.0
 13
259.385076
 23
150.49
 33
0.0
  0
3DFACE
  5
BD4
100
AcDbEntity
  8
0
  6
CONTINUOUS
 62
     7
100
AcDbFace
 10
259.398796
 20
149.51
 30
0.0
 11
259.412516
 21
149.51
 31
0.0
 12
259.412516
 22
150.49
 32
0.0
 13
259.398796
 23
150.49
 33
0.0
  0
3DFACE
  5
BD5
100
AcDbEntity
  8
0
  6
CONTINUOUS
 62
     7
100
AcDbFace
 10
259.412516
 20
149.51
 30
0.0
 11
259.426236
 21
149.51
 31
0.0
 12
259.426236
 22
150.49
 32
0.0
 13
259.412516
 23
150.49
 33
0.0
  0
3DFACE
  5
BD6
100
AcDbEntity
  8
0
  6
CONTINUOUS
 62
     7
100
AcDbFace
 10
259.426236
 20
149.51
 30
0.0
 11
259.439956
 21
149.51
 31
0.0
 12
259.439956
 22
150.49
 32
0.0
 13
259.426236
 23
150.49
 33
0.0
  0
3DFACE
  5
BD7
100
AcDbEntity
  8
0
  6
CONTINUOUS
 62
     7
100
AcDbFace
 10
259.439956
 20
149.51
 30
0.0
 11
259.453676
 21
149.51
 31
0.0
 12
259.453676
 22
150.49
 32
0.0
 13
259.439956
 23
150.49
 33
0.0
  0
3DFACE
  5
BD8
100
AcDbEntity
  8
0
  6
CONTINUOUS
 62
     7
100
AcDbFace
 10
259.453676
 20
149.51
 30
0.0
 11
259.467396
 21
149.51
 31
0.0
 12
259.467396
 22
150.49
 32
0.0
 13
259.453676
 23
150.49
 33
0.0
  0
3DFACE
  5
BD9
100
AcDbEntity
  8
0
  6
CONTINUOUS
 62
     7
100
AcDbFace
 10
259.467396
 20
149.51
 30
0.0
 11
259.481116
 21
149.51
 31
0.0
 12
259.481116
 22
150.49
 32
0.0
 13
259.467396
 23
150.49
 33
0.0
  0
3DFACE
  5
BDA
100
AcDbEntity
  8
0
  6
CONTINUOUS
 62
     7
100
AcDbFace
 10
259.481116
 20
149.51
 30
0.0
 11
259.494836
 21
149.51
 31
0.0
 12
259.494836
 22
150.49
 32
0.0
 13
259.481116
 23
150.49
 33
0.0
  0
3DFACE
  5
BDB
100
AcDbEntity
  8
0
  6
CONTINUOUS
 62
     7
100
AcDbFace
 10
259.494836
 20
149.51
 30
0.0
 11
259.508556
 21
149.51
 31
0.0
 12
259.508556
 22
150.49
 32
0.0
 13
259.494836
 23
150.49
 33
0.0
  0
3DFACE
  5
BDC
100
AcDbEntity
  8
0
  6
CONTINUOUS
 62
     7
100
AcDbFace
 10
259.508556
 20
149.51
 30
0.0
 11
259.522276
 21
149.51
 31
0.0
 12
259.522276
 22
150.49
 32
0.0
 13
259.508556
 23
150.49
 33
0.0
  0
3DFACE
  5
BDD
100
AcDbEntity
  8
0
  6
CONTINUOUS
 62
     7
100
AcDbFace
 10
259.522276
 20
149.51
 30
0.0
 11
259.535996
 21
149.51
 31
0.0
 12
259.535996
 22
150.49
 32
0.0
 13
259.522276
 23
150.49
 33
0.0
  0
3DFACE
  5
BDE
100
AcDbEntity
  8
0
  6
CONTINUOUS
 62
     7
100
AcDbFace
 10
259.535996
 20
149.51
 30
0.0
 11
259.549716
 21
149.51
 31
0.0
 12
259.549716
 22
150.49
 32
0.0
 13
259.535996
 23
150.49
 33
0.0
  0
3DFACE
  5
BDF
100
AcDbEntity
  8
0
  6
CONTINUOUS
 62
     7
100
AcDbFace
 10
259.549716
 20
149.51
 30
0.0
 11
259.563436
 21
149.51
 31
0.0
 12
259.563436
 22
150.49
 32
0.0
 13
259.549716
 23
150.49
 33
0.0
  0
3DFACE
  5
BE0
100
AcDbEntity
  8
0
  6
CONTINUOUS
 62
     7
100
AcDbFace
 10
259.563436
 20
149.51
 30
0.0
 11
259.577156
 21
149.51
 31
0.0
 12
259.577156
 22
150.49
 32
0.0
 13
259.563436
 23
150.49
 33
0.0
  0
3DFACE
  5
BE1
100
AcDbEntity
  8
0
  6
CONTINUOUS
 62
     7
100
AcDbFace
 10
259.577156
 20
149.51
 30
0.0
 11
259.590876
 21
149.51
 31
0.0
 12
259.590876
 22
150.49
 32
0.0
 13
259.577156
 23
150.49
 33
0.0
  0
3DFACE
  5
BE2
100
AcDbEntity
  8
0
  6
CONTINUOUS
 62
     7
100
AcDbFace
 10
259.590876
 20
149.51
 30
0.0
 11
259.604596
 21
149.51
 31
0.0
 12
259.604596
 22
150.49
 32
0.0
 13
259.590876
 23
150.49
 33
0.0
  0
3DFACE
  5
BE3
100
AcDbEntity
  8
0
  6
CONTINUOUS
 62
     7
100
AcDbFace
 10
259.604596
 20
149.51
 30
0.0
 11
259.618316
 21
149.51
 31
0.0
 12
259.618316
 22
150.49
 32
0.0
 13
259.604596
 23
150.49
 33
0.0
  0
3DFACE
  5
BE4
100
AcDbEntity
  8
0
  6
CONTINUOUS
 62
     7
100
AcDbFace
 10
259.618316
 20
149.51
 30
0.0
 11
259.632036
 21
149.51
 31
0.0
 12
259.632036
 22
150.49
 32
0.0
 13
259.618316
 23
150.49
 33
0.0
  0
3DFACE
  5
BE5
100
AcDbEntity
  8
0
  6
CONTINUOUS
 62
     7
100
AcDbFace
 10
259.632036
 20
149.51
 30
0.0
 11
259.645756
 21
149.51
 31
0.0
 12
259.645756
 22
150.49
 32
0.0
 13
259.632036
 23
150.49
 33
0.0
  0
3DFACE
  5
BE6
100
AcDbEntity
  8
0
  6
CONTINUOUS
 62
     7
100
AcDbFace
 10
259.645756
 20
149.51
 30
0.0
 11
259.659476
 21
149.51
 31
0.0
 12
259.659476
 22
150.49
 32
0.0
 13
259.645756
 23
150.49
 33
0.0
  0
3DFACE
  5
BE7
100
AcDbEntity
  8
0
  6
CONTINUOUS
 62
     7
100
AcDbFace
 10
259.659476
 20
149.51
 30
0.0
 11
259.673196
 21
149.51
 31
0.0
 12
259.673196
 22
150.49
 32
0.0
 13
259.659476
 23
150.49
 33
0.0
  0
3DFACE
  5
BE8
100
AcDbEntity
  8
0
  6
CONTINUOUS
 62
     7
100
AcDbFace
 10
259.673196
 20
149.51
 30
0.0
 11
259.686916
 21
149.51
 31
0.0
 12
259.686916
 22
150.49
 32
0.0
 13
259.673196
 23
150.49
 33
0.0
  0
3DFACE
  5
BE9
100
AcDbEntity
  8
0
  6
CONTINUOUS
 62
     7
100
AcDbFace
 10
259.686916
 20
149.51
 30
0.0
 11
259.700636
 21
149.51
 31
0.0
 12
259.700636
 22
150.49
 32
0.0
 13
259.686916
 23
150.49
 33
0.0
  0
3DFACE
  5
BEA
100
AcDbEntity
  8
0
  6
CONTINUOUS
 62
     7
100
AcDbFace
 10
259.700636
 20
149.51
 30
0.0
 11
259.714356
 21
149.51
 31
0.0
 12
259.714356
 22
150.49
 32
0.0
 13
259.700636
 23
150.49
 33
0.0
  0
3DFACE
  5
BEB
100
AcDbEntity
  8
0
  6
CONTINUOUS
 62
     7
100
AcDbFace
 10
259.714356
 20
149.51
 30
0.0
 11
259.728076
 21
149.51
 31
0.0
 12
259.728076
 22
150.49
 32
0.0
 13
259.714356
 23
150.49
 33
0.0
  0
3DFACE
  5
BEC
100
AcDbEntity
  8
0
  6
CONTINUOUS
 62
     7
100
AcDbFace
 10
259.728076
 20
149.51
 30
0.0
 11
259.741796
 21
149.51
 31
0.0
 12
259.741796
 22
150.49
 32
0.0
 13
259.728076
 23
150.49
 33
0.0
  0
3DFACE
  5
BED
100
AcDbEntity
  8
0
  6
CONTINUOUS
 62
     7
100
AcDbFace
 10
259.741796
 20
149.51
 30
0.0
 11
259.755516
 21
149.51
 31
0.0
 12
259.755516
 22
150.49
 32
0.0
 13
259.741796
 23
150.49
 33
0.0
  0
3DFACE
  5
BEE
100
AcDbEntity
  8
0
  6
CONTINUOUS
 62
     7
100
AcDbFace
 10
259.755516
 20
149.51
 30
0.0
 11
259.769236
 21
149.51
 31
0.0
 12
259.769236
 22
150.49
 32
0.0
 13
259.755516
 23
150.49
 33
0.0
  0
3DFACE
  5
BEF
100
AcDbEntity
  8
0
  6
CONTINUOUS
 62
     7
100
AcDbFace
 10
259.769236
 20
149.51
 30
0.0
 11
259.782956
 21
149.51
 31
0.0
 12
259.782956
 22
150.49
 32
0.0
 13
259.769236
 23
150.49
 33
0.0
  0
3DFACE
  5
BF0
100
AcDbEntity
  8
0
  6
CONTINUOUS
 62
     7
100
AcDbFace
 10
259.782956
 20
149.51
 30
0.0
 11
259.796676
 21
149.51
 31
0.0
 12
259.796676
 22
150.49
 32
0.0
 13
259.782956
 23
150.49
 33
0.0
  0
3DFACE
  5
BF1
100
AcDbEntity
  8
0
  6
CONTINUOUS
 62
     7
100
AcDbFace
 10
259.796676
 20
149.51
 30
0.0
 11
259.810396
 21
149.51
 31
0.0
 12
259.810396
 22
150.49
 32
0.0
 13
259.796676
 23
150.49
 33
0.0
  0
3DFACE
  5
BF2
100
AcDbEntity
  8
0
  6
CONTINUOUS
 62
     7
100
AcDbFace
 10
259.810396
 20
149.51
 30
0.0
 11
259.824116
 21
149.51
 31
0.0
 12
259.824116
 22
150.49
 32
0.0
 13
259.810396
 23
150.49
 33
0.0
  0
3DFACE
  5
BF3
100
AcDbEntity
  8
0
  6
CONTINUOUS
 62
     7
100
AcDbFace
 10
259.824116
 20
149.51
 30
0.0
 11
259.837836
 21
149.51
 31
0.0
 12
259.837836
 22
150.49
 32
0.0
 13
259.824116
 23
150.49
 33
0.0
  0
3DFACE
  5
BF4
100
AcDbEntity
  8
0
  6
CONTINUOUS
 62
     7
100
AcDbFace
 10
259.837836
 20
149.51
 30
0.0
 11
259.851556
 21
149.51
 31
0.0
 12
259.851556
 22
150.49
 32
0.0
 13
259.837836
 23
150.49
 33
0.0
  0
3DFACE
  5
BF5
100
AcDbEntity
  8
0
  6
CONTINUOUS
 62
     7
100
AcDbFace
 10
259.851556
 20
149.51
 30
0.0
 11
259.865276
 21
149.51
 31
0.0
 12
259.865276
 22
150.49
 32
0.0
 13
259.851556
 23
150.49
 33
0.0
  0
3DFACE
  5
BF6
100
AcDbEntity
  8
0
  6
CONTINUOUS
 62
     7
100
AcDbFace
 10
259.865276
 20
149.51
 30
0.0
 11
259.878996
 21
149.51
 31
0.0
 12
259.878996
 22
150.49
 32
0.0
 13
259.865276
 23
150.49
 33
0.0
  0
3DFACE
  5
BF7
100
AcDbEntity
  8
0
  6
CONTINUOUS
 62
     7
100
AcDbFace
 10
259.878996
 20
149.51
 30
0.0
 11
259.892716
 21
149.51
 31
0.0
 12
259.892716
 22
150.49
 32
0.0
 13
259.878996
 23
150.49
 33
0.0
  0
3DFACE
  5
BF8
100
AcDbEntity
  8
0
  6
CONTINUOUS
 62
     7
100
AcDbFace
 10
259.892716
 20
149.51
 30
0.0
 11
259.906436
 21
149.51
 31
0.0
 12
259.906436
 22
150.49
 32
0.0
 13
259.892716
 23
150.49
 33
0.0
  0
3DFACE
  5
BF9
100
AcDbEntity
  8
0
  6
CONTINUOUS
 62
     7
100
AcDbFace
 10
259.906436
 20
149.51
 30
0.0
 11
259.920156
 21
149.51
 31
0.0
 12
259.920156
 22
150.49
 32
0.0
 13
259.906436
 23
150.49
 33
0.0
  0
3DFACE
  5
BFA
100
AcDbEntity
  8
0
  6
CONTINUOUS
 62
     7
100
AcDbFace
 10
259.920156
 20
149.51
 30
0.0
 11
259.933876
 21
149.51
 31
0.0
 12
259.933876
 22
150.49
 32
0.0
 13
259.920156
 23
150.49
 33
0.0
  0
3DFACE
  5
BFB
100
AcDbEntity
  8
0
  6
CONTINUOUS
 62
     7
100
AcDbFace
 10
259.933876
 20
149.51
 30
0.0
 11
259.947596
 21
149.51
 31
0.0
 12
259.947596
 22
150.49
 32
0.0
 13
259.933876
 23
150.49
 33
0.0
  0
3DFACE
  5
BFC
100
AcDbEntity
  8
0
  6
CONTINUOUS
 62
     7
100
AcDbFace
 10
259.947596
 20
149.51
 30
0.0
 11
259.961316
 21
149.51
 31
0.0
 12
259.961316
 22
150.49
 32
0.0
 13
259.947596
 23
150.49
 33
0.0
  0
3DFACE
  5
BFD
100
AcDbEntity
  8
0
  6
CONTINUOUS
 62
     7
100
AcDbFace
 10
259.961316
 20
149.51
 30
0.0
 11
259.975036
 21
149.51
 31
0.0
 12
259.975036
 22
150.49
 32
0.0
 13
259.961316
 23
150.49
 33
0.0
  0
3DFACE
  5
BFE
100
AcDbEntity
  8
0
  6
CONTINUOUS
 62
     7
100
AcDbFace
 10
259.975036
 20
149.51
 30
0.0
 11
259.988756
 21
149.51
 31
0.0
 12
259.988756
 22
150.49
 32
0.0
 13
259.975036
 23
150.49
 33
0.0
  0
3DFACE
  5
BFF
100
AcDbEntity
  8
0
  6
CONTINUOUS
 62
     7
100
AcDbFace
 10
259.988756
 20
149.51
 30
0.0
 11
260.002476
 21
149.51
 31
0.0
 12
260.002476
 22
150.49
 32
0.0
 13
259.988756
 23
150.49
 33
0.0
  0
3DFACE
  5
C00
100
AcDbEntity
  8
0
  6
CONTINUOUS
 62
     7
100
AcDbFace
 10
260.002476
 20
149.51
 30
0.0
 11
260.016196
 21
149.51
 31
0.0
 12
260.016196
 22
150.49
 32
0.0
 13
260.002476
 23
150.49
 33
0.0
  0
3DFACE
  5
C01
100
AcDbEntity
  8
0
  6
CONTINUOUS
 62
     7
100
AcDbFace
 10
260.016196
 20
149.51
 30
0.0
 11
260.029916
 21
149.51
 31
0.0
 12
260.029916
 22
150.49
 32
0.0
 13
260.016196
 23
150.49
 33
0.0
  0
3DFACE
  5
C02
100
AcDbEntity
  8
0
  6
CONTINUOUS
 62
     7
100
AcDbFace
 10
260.029916
 20
149.51
 30
0.0
 11
260.043636
 21
149.51
 31
0.0
 12
260.043636
 22
150.49
 32
0.0
 13
260.029916
 23
150.49
 33
0.0
  0
3DFACE
  5
C03
100
AcDbEntity
  8
0
  6
CONTINUOUS
 62
     7
100
AcDbFace
 10
260.043636
 20
149.51
 30
0.0
 11
260.057356
 21
149.51
 31
0.0
 12
260.057356
 22
150.49
 32
0.0
 13
260.043636
 23
150.49
 33
0.0
  0
3DFACE
  5
C04
100
AcDbEntity
  8
0
  6
CONTINUOUS
 62
     7
100
AcDbFace
 10
260.057356
 20
149.51
 30
0.0
 11
260.071076
 21
149.51
 31
0.0
 12
260.071076
 22
150.49
 32
0.0
 13
260.057356
 23
150.49
 33
0.0
  0
3DFACE
  5
C05
100
AcDbEntity
  8
0
  6
CONTINUOUS
 62
     7
100
AcDbFace
 10
260.071076
 20
149.51
 30
0.0
 11
260.084796
 21
149.51
 31
0.0
 12
260.084796
 22
150.49
 32
0.0
 13
260.071076
 23
150.49
 33
0.0
  0
3DFACE
  5
C06
100
AcDbEntity
  8
0
  6
CONTINUOUS
 62
     7
100
AcDbFace
 10
260.084796
 20
149.51
 30
0.0
 11
260.098516
 21
149.51
 31
0.0
 12
260.098516
 22
150.49
 32
0.0
 13
260.084796
 23
150.49
 33
0.0
  0
3DFACE
  5
C07
100
AcDbEntity
  8
0
  6
CONTINUOUS
 62
     7
100
AcDbFace
 10
260.098516
 20
149.51
 30
0.0
 11
260.112236
 21
149.51
 31
0.0
 12
260.112236
 22
150.49
 32
0.0
 13
260.098516
 23
150.49
 33
0.0
  0
3DFACE
  5
C08
100
AcDbEntity
  8
0
  6
CONTINUOUS
 62
     7
100
AcDbFace
 10
260.112236
 20
149.51
 30
0.0
 11
260.125956
 21
149.51
 31
0.0
 12
260.125956
 22
150.49
 32
0.0
 13
260.112236
 23
150.49
 33
0.0
  0
3DFACE
  5
C09
100
AcDbEntity
  8
0
  6
CONTINUOUS
 62
     7
100
AcDbFace
 10
260.125956
 20
149.51
 30
0.0
 11
260.139676
 21
149.51
 31
0.0
 12
260.139676
 22
150.49
 32
0.0
 13
260.125956
 23
150.49
 33
0.0
  0
3DFACE
  5
C0A
100
AcDbEntity
  8
0
  6
CONTINUOUS
 62
     7
100
AcDbFace
 10
260.139676
 20
149.51
 30
0.0
 11
260.153396
 21
149.51
 31
0.0
 12
260.153396
 22
150.49
 32
0.0
 13
260.139676
 23
150.49
 33
0.0
  0
3DFACE
  5
C0B
100
AcDbEntity
  8
0
  6
CONTINUOUS
 62
     7
100
AcDbFace
 10
260.153396
 20
149.51
 30
0.0
 11
260.167116
 21
149.51
 31
0.0
 12
260.167116
 22
150.49
 32
0.0
 13
260.153396
 23
150.49
 33
0.0
  0
3DFACE
  5
C0C
100
AcDbEntity
  8
0
  6
CONTINUOUS
 62
     7
100
AcDbFace
 10
260.167116
 20
149.51
 30
0.0
 11
260.180836
 21
149.51
 31
0.0
 12
260.180836
 22
150.49
 32
0.0
 13
260.167116
 23
150.49
 33
0.0
  0
3DFACE
  5
C0D
100
AcDbEntity
  8
0
  6
CONTINUOUS
 62
     7
100
AcDbFace
 10
260.180836
 20
149.51
 30
0.0
 11
260.194556
 21
149.51
 31
0.0
 12
260.194556
 22
150.49
 32
0.0
 13
260.180836
 23
150.49
 33
0.0
  0
3DFACE
  5
C0E
100
AcDbEntity
  8
0
  6
CONTINUOUS
 62
     7
100
AcDbFace
 10
260.194556
 20
149.51
 30
0.0
 11
260.208276
 21
149.51
 31
0.0
 12
260.208276
 22
150.49
 32
0.0
 13
260.194556
 23
150.49
 33
0.0
  0
3DFACE
  5
C0F
100
AcDbEntity
  8
0
  6
CONTINUOUS
 62
     7
100
AcDbFace
 10
260.208276
 20
149.51
 30
0.0
 11
260.221996
 21
149.51
 31
0.0
 12
260.221996
 22
150.49
 32
0.0
 13
260.208276
 23
150.49
 33
0.0
  0
3DFACE
  5
C10
100
AcDbEntity
  8
0
  6
CONTINUOUS
 62
     7
100
AcDbFace
 10
260.221996
 20
149.51
 30
0.0
 11
260.235716
 21
149.51
 31
0.0
 12
260.235716
 22
150.49
 32
0.0
 13
260.221996
 23
150.49
 33
0.0
  0
3DFACE
  5
C11
100
AcDbEntity
  8
0
  6
CONTINUOUS
 62
     7
100
AcDbFace
 10
260.235716
 20
149.51
 30
0.0
 11
260.249436
 21
149.51
 31
0.0
 12
260.249436
 22
150.49
 32
0.0
 13
260.235716
 23
150.49
 33
0.0
  0
TEXT
  5
C12
100
AcDbEntity
  8
0
  6
CONTINUOUS
 62
     7
100
AcDbText
 10
214.353328
 20
61.513635
 30
0.0
 40
2.0
  1
+
100
AcDbText
  0
TEXT
  5
C13
100
AcDbEntity
  8
0
  6
CONTINUOUS
 62
     7
100
AcDbText
 10
219.344763
 20
61.50558
 30
0.0
 40
2.0
  1
-
100
AcDbText
  0
INSERT
  5
C14
100
AcDbEntity
  8
0
  6
CENTER
 62
     7
100
AcDbBlockReference
  2
BLC5
 10
235.291926
 20
60.842005
 30
0.0
 41
0.6
 42
0.6
 43
0.6
  0
ENDSEC
  0
SECTION
  2
OBJECTS
  0
DICTIONARY
  5
C
100
AcDbDictionary
  3
ACAD_GROUP
350
D
  3
ACAD_MLINESTYLE
350
E
  0
DICTIONARY
  5
D
102
{ACAD_REACTORS
330
C
102
}
100
AcDbDictionary
  0
DICTIONARY
  5
E
102
{ACAD_REACTORS
330
C
102
}
100
AcDbDictionary
  3
STANDARD
350
1B
  0
MLINESTYLE
  5
1B
102
{ACAD_REACTORS
330
E
102
}
100
AcDbMlineStyle
  2
STANDARD
 70
     0
  3

 62
     0
 51
90.0
 52
90.0
 71
     2
 49
0.5
 62
   256
  6
BYLAYER
 49
-0.5
 62
   256
  6
BYLAYER
  0
ENDSEC
  0
EOF
