ISO-10303-21;
HEADER;
FILE_DESCRIPTION(('CATIA V5 STEP Exchange'),'2;1');

FILE_NAME('C:\\Users\\uff.tecnico\\Desktop\\STP\\1SDH001295R0060_1PA_001_00_XT1_3P_PLUG-IN_MOSTRINA_OPZIONALE.stp','2014-11-11T15:19:57+00:00',('none'),('none'),'CATIA Version 5 Release 20 SP 1 (IN-10)','CATIA V5 STEP AP214','none');

FILE_SCHEMA(('AUTOMOTIVE_DESIGN { 1 0 10303 214 1 1 1 1 }'));

ENDSEC;
/* file written by CATIA V5R20 */
DATA;
#5=PRODUCT('1SDH001295R0060_1PA_001_00_XT1_3P_PLUG-IN_MOSTRINA_OPZIONALE','','',(#2)) ;
#2=PRODUCT_CONTEXT(' ',#1,'mechanical') ;
#1=APPLICATION_CONTEXT('automotive design') ;
#10=PRODUCT_DEFINITION('',' ',#6,#3) ;
#3=PRODUCT_DEFINITION_CONTEXT('part definition',#1,' ') ;
#11=PRODUCT_DEFINITION_SHAPE(' ',' ',#10) ;
#572=MECHANICAL_DESIGN_GEOMETRIC_PRESENTATION_REPRESENTATION(' ',(#79,#117,#155,#184,#231,#278,#313,#337,#361,#414,#452,#490,#514,#538,#563,#30),#17) ;
#20=SHAPE_REPRESENTATION(' ',(#19),#17) ;
#19=AXIS2_PLACEMENT_3D(' ',#18,$,$) ;
#35=AXIS2_PLACEMENT_3D('Plane Axis2P3D',#32,#33,#34) ;
#62=AXIS2_PLACEMENT_3D('Circle Axis2P3D',#60,#61,$) ;
#83=AXIS2_PLACEMENT_3D('Plane Axis2P3D',#80,#81,#82) ;
#121=AXIS2_PLACEMENT_3D('Plane Axis2P3D',#118,#119,#120) ;
#159=AXIS2_PLACEMENT_3D('Plane Axis2P3D',#156,#157,#158) ;
#168=AXIS2_PLACEMENT_3D('Circle Axis2P3D',#166,#167,$) ;
#188=AXIS2_PLACEMENT_3D('Plane Axis2P3D',#185,#186,#187) ;
#192=AXIS2_PLACEMENT_3D('Circle Axis2P3D',#190,#191,$) ;
#235=AXIS2_PLACEMENT_3D('Plane Axis2P3D',#232,#233,#234) ;
#239=AXIS2_PLACEMENT_3D('Circle Axis2P3D',#237,#238,$) ;
#282=AXIS2_PLACEMENT_3D('Cylinder Axis2P3D',#279,#280,#281) ;
#317=AXIS2_PLACEMENT_3D('Plane Axis2P3D',#314,#315,#316) ;
#341=AXIS2_PLACEMENT_3D('Plane Axis2P3D',#338,#339,#340) ;
#365=AXIS2_PLACEMENT_3D('Plane Axis2P3D',#362,#363,#364) ;
#418=AXIS2_PLACEMENT_3D('Plane Axis2P3D',#415,#416,#417) ;
#456=AXIS2_PLACEMENT_3D('Plane Axis2P3D',#453,#454,#455) ;
#494=AXIS2_PLACEMENT_3D('Plane Axis2P3D',#491,#492,#493) ;
#518=AXIS2_PLACEMENT_3D('Plane Axis2P3D',#515,#516,#517) ;
#542=AXIS2_PLACEMENT_3D('Plane Axis2P3D',#539,#540,#541) ;
#569=AXIS2_PLACEMENT_3D('Sistema di assi.1',#566,#567,#568) ;
#18=CARTESIAN_POINT(' ',(0.,0.,0.)) ;
#32=CARTESIAN_POINT('Axis2P3D Location',(-23.5,0.,-28.)) ;
#37=CARTESIAN_POINT('Line Origine',(-23.5,131.052846301,-28.)) ;
#41=CARTESIAN_POINT('Vertex',(-23.5,129.,-28.)) ;
#43=CARTESIAN_POINT('Vertex',(-23.5,133.105692602,-28.)) ;
#46=CARTESIAN_POINT('Line Origine',(1.42108547152E-014,129.,-28.)) ;
#50=CARTESIAN_POINT('Vertex',(23.5,129.,-28.)) ;
#53=CARTESIAN_POINT('Line Origine',(23.5,131.052846301,-28.)) ;
#57=CARTESIAN_POINT('Vertex',(23.5,133.105692602,-28.)) ;
#60=CARTESIAN_POINT('Axis2P3D Location',(-1.7763568394E-014,-34.,-28.)) ;
#80=CARTESIAN_POINT('Axis2P3D Location',(23.5,0.,15.)) ;
#85=CARTESIAN_POINT('Line Origine',(23.5,133.105692602,-6.5)) ;
#89=CARTESIAN_POINT('Vertex',(23.5,133.105692602,15.)) ;
#92=CARTESIAN_POINT('Line Origine',(23.5,129.,-6.5)) ;
#96=CARTESIAN_POINT('Vertex',(23.5,129.,15.)) ;
#99=CARTESIAN_POINT('Line Origine',(23.5,131.052846301,15.)) ;
#118=CARTESIAN_POINT('Axis2P3D Location',(-23.5,0.,-28.)) ;
#123=CARTESIAN_POINT('Line Origine',(-23.5,133.105692602,-6.5)) ;
#127=CARTESIAN_POINT('Vertex',(-23.5,133.105692602,15.)) ;
#130=CARTESIAN_POINT('Line Origine',(-23.5,131.052846301,15.)) ;
#134=CARTESIAN_POINT('Vertex',(-23.5,129.,15.)) ;
#137=CARTESIAN_POINT('Line Origine',(-23.5,129.,-6.5)) ;
#156=CARTESIAN_POINT('Axis2P3D Location',(23.5,0.,15.)) ;
#161=CARTESIAN_POINT('Line Origine',(0.,129.,15.)) ;
#166=CARTESIAN_POINT('Axis2P3D Location',(-1.42108547152E-014,-34.,15.)) ;
#185=CARTESIAN_POINT('Axis2P3D Location',(0.,131.,32.5)) ;
#190=CARTESIAN_POINT('Axis2P3D Location',(4.79616346638E-014,-34.,32.5)) ;
#194=CARTESIAN_POINT('Vertex',(-30.5,131.970818218,32.5)) ;
#196=CARTESIAN_POINT('Vertex',(30.5,131.970818218,32.5)) ;
#199=CARTESIAN_POINT('Line Origine',(-30.5,131.485409109,32.5)) ;
#203=CARTESIAN_POINT('Vertex',(-30.5,131.,32.5)) ;
#206=CARTESIAN_POINT('Line Origine',(0.,131.,32.5)) ;
#210=CARTESIAN_POINT('Vertex',(30.5,131.,32.5)) ;
#213=CARTESIAN_POINT('Line Origine',(30.5,131.485409109,32.5)) ;
#232=CARTESIAN_POINT('Axis2P3D Location',(0.,134.75,-45.5)) ;
#237=CARTESIAN_POINT('Axis2P3D Location',(4.79616346638E-014,-34.,-45.5)) ;
#241=CARTESIAN_POINT('Vertex',(30.5,131.970818218,-45.5)) ;
#243=CARTESIAN_POINT('Vertex',(-30.5,131.970818218,-45.5)) ;
#246=CARTESIAN_POINT('Line Origine',(30.5,131.485409109,-45.5)) ;
#250=CARTESIAN_POINT('Vertex',(30.5,131.,-45.5)) ;
#253=CARTESIAN_POINT('Line Origine',(0.,131.,-45.5)) ;
#257=CARTESIAN_POINT('Vertex',(-30.5,131.,-45.5)) ;
#260=CARTESIAN_POINT('Line Origine',(-30.5,131.485409109,-45.5)) ;
#279=CARTESIAN_POINT('Axis2P3D Location',(0.,-34.,0.)) ;
#284=CARTESIAN_POINT('Line Origine',(30.5,131.970818218,0.)) ;
#289=CARTESIAN_POINT('Line Origine',(-30.5,131.970818218,0.)) ;
#314=CARTESIAN_POINT('Axis2P3D Location',(-30.5,0.,0.)) ;
#319=CARTESIAN_POINT('Line Origine',(-30.5,131.,-6.5)) ;
#338=CARTESIAN_POINT('Axis2P3D Location',(30.5,0.,0.)) ;
#343=CARTESIAN_POINT('Line Origine',(30.5,131.,-6.5)) ;
#362=CARTESIAN_POINT('Axis2P3D Location',(0.,129.,29.5)) ;
#367=CARTESIAN_POINT('Line Origine',(-28.,129.,-6.5)) ;
#371=CARTESIAN_POINT('Vertex',(-28.,129.,29.5)) ;
#373=CARTESIAN_POINT('Vertex',(-28.,129.,-42.5)) ;
#376=CARTESIAN_POINT('Line Origine',(-3.5527136788E-015,129.,-42.5)) ;
#380=CARTESIAN_POINT('Vertex',(28.,129.,-42.5)) ;
#383=CARTESIAN_POINT('Line Origine',(28.,129.,-6.5)) ;
#387=CARTESIAN_POINT('Vertex',(28.,129.,29.5)) ;
#390=CARTESIAN_POINT('Line Origine',(-3.5527136788E-015,129.,29.5)) ;
#415=CARTESIAN_POINT('Axis2P3D Location',(0.,129.,-42.5)) ;
#420=CARTESIAN_POINT('Line Origine',(-28.,130.,-42.5)) ;
#424=CARTESIAN_POINT('Vertex',(-28.,131.,-42.5)) ;
#427=CARTESIAN_POINT('Line Origine',(1.7763568394E-014,131.,-42.5)) ;
#431=CARTESIAN_POINT('Vertex',(28.,131.,-42.5)) ;
#434=CARTESIAN_POINT('Line Origine',(28.,130.,-42.5)) ;
#453=CARTESIAN_POINT('Axis2P3D Location',(0.,129.,29.5)) ;
#458=CARTESIAN_POINT('Line Origine',(28.,130.,29.5)) ;
#462=CARTESIAN_POINT('Vertex',(28.,131.,29.5)) ;
#465=CARTESIAN_POINT('Line Origine',(1.42108547152E-014,131.,29.5)) ;
#469=CARTESIAN_POINT('Vertex',(-28.,131.,29.5)) ;
#472=CARTESIAN_POINT('Line Origine',(-28.,130.,29.5)) ;
#491=CARTESIAN_POINT('Axis2P3D Location',(-28.,106.,0.)) ;
#496=CARTESIAN_POINT('Line Origine',(-28.,131.,-6.5)) ;
#515=CARTESIAN_POINT('Axis2P3D Location',(28.,106.,0.)) ;
#520=CARTESIAN_POINT('Line Origine',(28.,131.,-6.5)) ;
#539=CARTESIAN_POINT('Axis2P3D Location',(0.,131.,32.5)) ;
#566=CARTESIAN_POINT('Axis2P3D Location',(0.,0.,0.)) ;
#33=DIRECTION('Axis2P3D Direction',(0.,0.,1.)) ;
#34=DIRECTION('Axis2P3D XDirection',(1.,0.,0.)) ;
#38=DIRECTION('Vector Direction',(0.,1.,0.)) ;
#47=DIRECTION('Vector Direction',(1.,0.,0.)) ;
#54=DIRECTION('Vector Direction',(0.,1.,0.)) ;
#61=DIRECTION('Axis2P3D Direction',(0.,0.,1.)) ;
#81=DIRECTION('Axis2P3D Direction',(1.,-0.,0.)) ;
#82=DIRECTION('Axis2P3D XDirection',(0.,0.,-1.)) ;
#86=DIRECTION('Vector Direction',(0.,0.,-1.)) ;
#93=DIRECTION('Vector Direction',(0.,0.,-1.)) ;
#100=DIRECTION('Vector Direction',(0.,1.,0.)) ;
#119=DIRECTION('Axis2P3D Direction',(-1.,0.,0.)) ;
#120=DIRECTION('Axis2P3D XDirection',(0.,0.,1.)) ;
#124=DIRECTION('Vector Direction',(0.,0.,1.)) ;
#131=DIRECTION('Vector Direction',(0.,1.,0.)) ;
#138=DIRECTION('Vector Direction',(0.,0.,1.)) ;
#157=DIRECTION('Axis2P3D Direction',(0.,0.,-1.)) ;
#158=DIRECTION('Axis2P3D XDirection',(-1.,0.,0.)) ;
#162=DIRECTION('Vector Direction',(-1.,0.,0.)) ;
#167=DIRECTION('Axis2P3D Direction',(0.,0.,-1.)) ;
#186=DIRECTION('Axis2P3D Direction',(0.,0.,-1.)) ;
#187=DIRECTION('Axis2P3D XDirection',(0.,1.,0.)) ;
#191=DIRECTION('Axis2P3D Direction',(0.,0.,-1.)) ;
#200=DIRECTION('Vector Direction',(0.,1.,0.)) ;
#207=DIRECTION('Vector Direction',(1.,0.,0.)) ;
#214=DIRECTION('Vector Direction',(0.,1.,0.)) ;
#233=DIRECTION('Axis2P3D Direction',(-0.,0.,1.)) ;
#234=DIRECTION('Axis2P3D XDirection',(0.,-1.,0.)) ;
#238=DIRECTION('Axis2P3D Direction',(-0.,0.,1.)) ;
#247=DIRECTION('Vector Direction',(0.,-1.,0.)) ;
#254=DIRECTION('Vector Direction',(1.,0.,0.)) ;
#261=DIRECTION('Vector Direction',(0.,-1.,0.)) ;
#280=DIRECTION('Axis2P3D Direction',(0.,0.,1.)) ;
#281=DIRECTION('Axis2P3D XDirection',(0.296296296296,0.95509607098,0.)) ;
#285=DIRECTION('Vector Direction',(0.,0.,1.)) ;
#290=DIRECTION('Vector Direction',(0.,0.,1.)) ;
#315=DIRECTION('Axis2P3D Direction',(1.,0.,0.)) ;
#316=DIRECTION('Axis2P3D XDirection',(0.,1.,0.)) ;
#320=DIRECTION('Vector Direction',(0.,0.,1.)) ;
#339=DIRECTION('Axis2P3D Direction',(1.,0.,0.)) ;
#340=DIRECTION('Axis2P3D XDirection',(0.,1.,0.)) ;
#344=DIRECTION('Vector Direction',(0.,0.,-1.)) ;
#363=DIRECTION('Axis2P3D Direction',(0.,-1.,0.)) ;
#364=DIRECTION('Axis2P3D XDirection',(0.,0.,-1.)) ;
#368=DIRECTION('Vector Direction',(0.,0.,-1.)) ;
#377=DIRECTION('Vector Direction',(1.,0.,0.)) ;
#384=DIRECTION('Vector Direction',(0.,0.,-1.)) ;
#391=DIRECTION('Vector Direction',(1.,0.,0.)) ;
#416=DIRECTION('Axis2P3D Direction',(0.,0.,-1.)) ;
#417=DIRECTION('Axis2P3D XDirection',(0.,1.,0.)) ;
#421=DIRECTION('Vector Direction',(0.,-1.,0.)) ;
#428=DIRECTION('Vector Direction',(1.,0.,0.)) ;
#435=DIRECTION('Vector Direction',(0.,-1.,0.)) ;
#454=DIRECTION('Axis2P3D Direction',(0.,0.,-1.)) ;
#455=DIRECTION('Axis2P3D XDirection',(0.,1.,0.)) ;
#459=DIRECTION('Vector Direction',(0.,-1.,0.)) ;
#466=DIRECTION('Vector Direction',(1.,0.,0.)) ;
#473=DIRECTION('Vector Direction',(0.,-1.,0.)) ;
#492=DIRECTION('Axis2P3D Direction',(-1.,0.,0.)) ;
#493=DIRECTION('Axis2P3D XDirection',(0.,1.,0.)) ;
#497=DIRECTION('Vector Direction',(0.,0.,-1.)) ;
#516=DIRECTION('Axis2P3D Direction',(-1.,0.,0.)) ;
#517=DIRECTION('Axis2P3D XDirection',(0.,1.,0.)) ;
#521=DIRECTION('Vector Direction',(0.,0.,-1.)) ;
#540=DIRECTION('Axis2P3D Direction',(0.,-1.,0.)) ;
#541=DIRECTION('Axis2P3D XDirection',(0.,0.,-1.)) ;
#567=DIRECTION('Axis2P3D Direction',(0.,0.,1.)) ;
#568=DIRECTION('Axis2P3D XDirection',(1.,0.,0.)) ;
#8=PRODUCT_RELATED_PRODUCT_CATEGORY('part',$,(#5)) ;
#7=PRODUCT_CATEGORY('part','specification') ;
#30=STYLED_ITEM(' ',(#29),#22) ;
#29=PRESENTATION_STYLE_ASSIGNMENT((#28)) ;
#78=PRESENTATION_STYLE_ASSIGNMENT((#77)) ;
#116=PRESENTATION_STYLE_ASSIGNMENT((#115)) ;
#154=PRESENTATION_STYLE_ASSIGNMENT((#153)) ;
#183=PRESENTATION_STYLE_ASSIGNMENT((#182)) ;
#230=PRESENTATION_STYLE_ASSIGNMENT((#229)) ;
#277=PRESENTATION_STYLE_ASSIGNMENT((#276)) ;
#312=PRESENTATION_STYLE_ASSIGNMENT((#311)) ;
#336=PRESENTATION_STYLE_ASSIGNMENT((#335)) ;
#360=PRESENTATION_STYLE_ASSIGNMENT((#359)) ;
#413=PRESENTATION_STYLE_ASSIGNMENT((#412)) ;
#451=PRESENTATION_STYLE_ASSIGNMENT((#450)) ;
#489=PRESENTATION_STYLE_ASSIGNMENT((#488)) ;
#513=PRESENTATION_STYLE_ASSIGNMENT((#512)) ;
#537=PRESENTATION_STYLE_ASSIGNMENT((#536)) ;
#562=PRESENTATION_STYLE_ASSIGNMENT((#561)) ;
#28=SURFACE_STYLE_USAGE(.BOTH.,#27) ;
#77=SURFACE_STYLE_USAGE(.BOTH.,#76) ;
#115=SURFACE_STYLE_USAGE(.BOTH.,#114) ;
#153=SURFACE_STYLE_USAGE(.BOTH.,#152) ;
#182=SURFACE_STYLE_USAGE(.BOTH.,#181) ;
#229=SURFACE_STYLE_USAGE(.BOTH.,#228) ;
#276=SURFACE_STYLE_USAGE(.BOTH.,#275) ;
#311=SURFACE_STYLE_USAGE(.BOTH.,#310) ;
#335=SURFACE_STYLE_USAGE(.BOTH.,#334) ;
#359=SURFACE_STYLE_USAGE(.BOTH.,#358) ;
#412=SURFACE_STYLE_USAGE(.BOTH.,#411) ;
#450=SURFACE_STYLE_USAGE(.BOTH.,#449) ;
#488=SURFACE_STYLE_USAGE(.BOTH.,#487) ;
#512=SURFACE_STYLE_USAGE(.BOTH.,#511) ;
#536=SURFACE_STYLE_USAGE(.BOTH.,#535) ;
#561=SURFACE_STYLE_USAGE(.BOTH.,#560) ;
#27=SURFACE_SIDE_STYLE(' ',(#26)) ;
#76=SURFACE_SIDE_STYLE(' ',(#75)) ;
#114=SURFACE_SIDE_STYLE(' ',(#113)) ;
#152=SURFACE_SIDE_STYLE(' ',(#151)) ;
#181=SURFACE_SIDE_STYLE(' ',(#180)) ;
#228=SURFACE_SIDE_STYLE(' ',(#227)) ;
#275=SURFACE_SIDE_STYLE(' ',(#274)) ;
#310=SURFACE_SIDE_STYLE(' ',(#309)) ;
#334=SURFACE_SIDE_STYLE(' ',(#333)) ;
#358=SURFACE_SIDE_STYLE(' ',(#357)) ;
#411=SURFACE_SIDE_STYLE(' ',(#410)) ;
#449=SURFACE_SIDE_STYLE(' ',(#448)) ;
#487=SURFACE_SIDE_STYLE(' ',(#486)) ;
#511=SURFACE_SIDE_STYLE(' ',(#510)) ;
#535=SURFACE_SIDE_STYLE(' ',(#534)) ;
#560=SURFACE_SIDE_STYLE(' ',(#559)) ;
#26=SURFACE_STYLE_FILL_AREA(#25) ;
#75=SURFACE_STYLE_FILL_AREA(#74) ;
#113=SURFACE_STYLE_FILL_AREA(#112) ;
#151=SURFACE_STYLE_FILL_AREA(#150) ;
#180=SURFACE_STYLE_FILL_AREA(#179) ;
#227=SURFACE_STYLE_FILL_AREA(#226) ;
#274=SURFACE_STYLE_FILL_AREA(#273) ;
#309=SURFACE_STYLE_FILL_AREA(#308) ;
#333=SURFACE_STYLE_FILL_AREA(#332) ;
#357=SURFACE_STYLE_FILL_AREA(#356) ;
#410=SURFACE_STYLE_FILL_AREA(#409) ;
#448=SURFACE_STYLE_FILL_AREA(#447) ;
#486=SURFACE_STYLE_FILL_AREA(#485) ;
#510=SURFACE_STYLE_FILL_AREA(#509) ;
#534=SURFACE_STYLE_FILL_AREA(#533) ;
#559=SURFACE_STYLE_FILL_AREA(#558) ;
#25=FILL_AREA_STYLE(' ',(#24)) ;
#74=FILL_AREA_STYLE(' ',(#73)) ;
#112=FILL_AREA_STYLE(' ',(#111)) ;
#150=FILL_AREA_STYLE(' ',(#149)) ;
#179=FILL_AREA_STYLE(' ',(#178)) ;
#226=FILL_AREA_STYLE(' ',(#225)) ;
#273=FILL_AREA_STYLE(' ',(#272)) ;
#308=FILL_AREA_STYLE(' ',(#307)) ;
#332=FILL_AREA_STYLE(' ',(#331)) ;
#356=FILL_AREA_STYLE(' ',(#355)) ;
#409=FILL_AREA_STYLE(' ',(#408)) ;
#447=FILL_AREA_STYLE(' ',(#446)) ;
#485=FILL_AREA_STYLE(' ',(#484)) ;
#509=FILL_AREA_STYLE(' ',(#508)) ;
#533=FILL_AREA_STYLE(' ',(#532)) ;
#558=FILL_AREA_STYLE(' ',(#557)) ;
#24=FILL_AREA_STYLE_COLOUR(' ',#23) ;
#73=FILL_AREA_STYLE_COLOUR(' ',#72) ;
#111=FILL_AREA_STYLE_COLOUR(' ',#72) ;
#149=FILL_AREA_STYLE_COLOUR(' ',#72) ;
#178=FILL_AREA_STYLE_COLOUR(' ',#72) ;
#225=FILL_AREA_STYLE_COLOUR(' ',#72) ;
#272=FILL_AREA_STYLE_COLOUR(' ',#72) ;
#307=FILL_AREA_STYLE_COLOUR(' ',#72) ;
#331=FILL_AREA_STYLE_COLOUR(' ',#72) ;
#355=FILL_AREA_STYLE_COLOUR(' ',#72) ;
#408=FILL_AREA_STYLE_COLOUR(' ',#72) ;
#446=FILL_AREA_STYLE_COLOUR(' ',#72) ;
#484=FILL_AREA_STYLE_COLOUR(' ',#72) ;
#508=FILL_AREA_STYLE_COLOUR(' ',#72) ;
#532=FILL_AREA_STYLE_COLOUR(' ',#72) ;
#557=FILL_AREA_STYLE_COLOUR(' ',#72) ;
#39=VECTOR('Line Direction',#38,1.) ;
#48=VECTOR('Line Direction',#47,1.) ;
#55=VECTOR('Line Direction',#54,1.) ;
#87=VECTOR('Line Direction',#86,1.) ;
#94=VECTOR('Line Direction',#93,1.) ;
#101=VECTOR('Line Direction',#100,1.) ;
#125=VECTOR('Line Direction',#124,1.) ;
#132=VECTOR('Line Direction',#131,1.) ;
#139=VECTOR('Line Direction',#138,1.) ;
#163=VECTOR('Line Direction',#162,1.) ;
#201=VECTOR('Line Direction',#200,1.) ;
#208=VECTOR('Line Direction',#207,1.) ;
#215=VECTOR('Line Direction',#214,1.) ;
#248=VECTOR('Line Direction',#247,1.) ;
#255=VECTOR('Line Direction',#254,1.) ;
#262=VECTOR('Line Direction',#261,1.) ;
#286=VECTOR('Line Direction',#285,1.) ;
#291=VECTOR('Line Direction',#290,1.) ;
#321=VECTOR('Line Direction',#320,1.) ;
#345=VECTOR('Line Direction',#344,1.) ;
#369=VECTOR('Line Direction',#368,1.) ;
#378=VECTOR('Line Direction',#377,1.) ;
#385=VECTOR('Line Direction',#384,1.) ;
#392=VECTOR('Line Direction',#391,1.) ;
#422=VECTOR('Line Direction',#421,1.) ;
#429=VECTOR('Line Direction',#428,1.) ;
#436=VECTOR('Line Direction',#435,1.) ;
#460=VECTOR('Line Direction',#459,1.) ;
#467=VECTOR('Line Direction',#466,1.) ;
#474=VECTOR('Line Direction',#473,1.) ;
#498=VECTOR('Line Direction',#497,1.) ;
#522=VECTOR('Line Direction',#521,1.) ;
#16=UNCERTAINTY_MEASURE_WITH_UNIT(LENGTH_MEASURE(0.005),#12,'distance_accuracy_value','CONFUSED CURVE UNCERTAINTY') ;
#565=SHAPE_REPRESENTATION_RELATIONSHIP(' ',' ',#20,#564) ;
#66=ORIENTED_EDGE('',*,*,#45,.F.) ;
#67=ORIENTED_EDGE('',*,*,#52,.T.) ;
#68=ORIENTED_EDGE('',*,*,#59,.T.) ;
#69=ORIENTED_EDGE('',*,*,#64,.T.) ;
#105=ORIENTED_EDGE('',*,*,#91,.T.) ;
#106=ORIENTED_EDGE('',*,*,#59,.F.) ;
#107=ORIENTED_EDGE('',*,*,#98,.F.) ;
#108=ORIENTED_EDGE('',*,*,#103,.T.) ;
#143=ORIENTED_EDGE('',*,*,#129,.T.) ;
#144=ORIENTED_EDGE('',*,*,#136,.F.) ;
#145=ORIENTED_EDGE('',*,*,#141,.F.) ;
#146=ORIENTED_EDGE('',*,*,#45,.T.) ;
#172=ORIENTED_EDGE('',*,*,#103,.F.) ;
#173=ORIENTED_EDGE('',*,*,#165,.T.) ;
#174=ORIENTED_EDGE('',*,*,#136,.T.) ;
#175=ORIENTED_EDGE('',*,*,#170,.T.) ;
#219=ORIENTED_EDGE('',*,*,#198,.F.) ;
#220=ORIENTED_EDGE('',*,*,#205,.T.) ;
#221=ORIENTED_EDGE('',*,*,#212,.T.) ;
#222=ORIENTED_EDGE('',*,*,#217,.F.) ;
#266=ORIENTED_EDGE('',*,*,#245,.F.) ;
#267=ORIENTED_EDGE('',*,*,#252,.F.) ;
#268=ORIENTED_EDGE('',*,*,#259,.F.) ;
#269=ORIENTED_EDGE('',*,*,#264,.T.) ;
#295=ORIENTED_EDGE('',*,*,#198,.T.) ;
#296=ORIENTED_EDGE('',*,*,#288,.F.) ;
#297=ORIENTED_EDGE('',*,*,#245,.T.) ;
#298=ORIENTED_EDGE('',*,*,#293,.T.) ;
#301=ORIENTED_EDGE('',*,*,#64,.F.) ;
#302=ORIENTED_EDGE('',*,*,#91,.F.) ;
#303=ORIENTED_EDGE('',*,*,#170,.F.) ;
#304=ORIENTED_EDGE('',*,*,#129,.F.) ;
#325=ORIENTED_EDGE('',*,*,#205,.F.) ;
#326=ORIENTED_EDGE('',*,*,#293,.F.) ;
#327=ORIENTED_EDGE('',*,*,#264,.F.) ;
#328=ORIENTED_EDGE('',*,*,#323,.F.) ;
#349=ORIENTED_EDGE('',*,*,#347,.T.) ;
#350=ORIENTED_EDGE('',*,*,#252,.T.) ;
#351=ORIENTED_EDGE('',*,*,#288,.T.) ;
#352=ORIENTED_EDGE('',*,*,#217,.T.) ;
#396=ORIENTED_EDGE('',*,*,#375,.T.) ;
#397=ORIENTED_EDGE('',*,*,#382,.T.) ;
#398=ORIENTED_EDGE('',*,*,#389,.F.) ;
#399=ORIENTED_EDGE('',*,*,#394,.F.) ;
#402=ORIENTED_EDGE('',*,*,#165,.F.) ;
#403=ORIENTED_EDGE('',*,*,#98,.T.) ;
#404=ORIENTED_EDGE('',*,*,#52,.F.) ;
#405=ORIENTED_EDGE('',*,*,#141,.T.) ;
#440=ORIENTED_EDGE('',*,*,#426,.F.) ;
#441=ORIENTED_EDGE('',*,*,#433,.T.) ;
#442=ORIENTED_EDGE('',*,*,#438,.T.) ;
#443=ORIENTED_EDGE('',*,*,#382,.F.) ;
#478=ORIENTED_EDGE('',*,*,#394,.T.) ;
#479=ORIENTED_EDGE('',*,*,#464,.F.) ;
#480=ORIENTED_EDGE('',*,*,#471,.F.) ;
#481=ORIENTED_EDGE('',*,*,#476,.T.) ;
#502=ORIENTED_EDGE('',*,*,#500,.T.) ;
#503=ORIENTED_EDGE('',*,*,#426,.T.) ;
#504=ORIENTED_EDGE('',*,*,#375,.F.) ;
#505=ORIENTED_EDGE('',*,*,#476,.F.) ;
#526=ORIENTED_EDGE('',*,*,#464,.T.) ;
#527=ORIENTED_EDGE('',*,*,#389,.T.) ;
#528=ORIENTED_EDGE('',*,*,#438,.F.) ;
#529=ORIENTED_EDGE('',*,*,#524,.F.) ;
#545=ORIENTED_EDGE('',*,*,#259,.T.) ;
#546=ORIENTED_EDGE('',*,*,#347,.F.) ;
#547=ORIENTED_EDGE('',*,*,#212,.F.) ;
#548=ORIENTED_EDGE('',*,*,#323,.T.) ;
#551=ORIENTED_EDGE('',*,*,#524,.T.) ;
#552=ORIENTED_EDGE('',*,*,#433,.F.) ;
#553=ORIENTED_EDGE('',*,*,#500,.F.) ;
#554=ORIENTED_EDGE('',*,*,#471,.T.) ;
#305=FACE_BOUND('',#300,.T.) ;
#406=FACE_BOUND('',#401,.T.) ;
#555=FACE_BOUND('',#550,.T.) ;
#31=CLOSED_SHELL('Closed Shell',(#71,#110,#148,#177,#224,#271,#306,#330,#354,#407,#445,#483,#507,#531,#556)) ;
#564=ADVANCED_BREP_SHAPE_REPRESENTATION('NONE',(#22),#17) ;
#71=ADVANCED_FACE('Mostrina',(#70),#36,.T.) ;
#110=ADVANCED_FACE('Mostrina',(#109),#84,.F.) ;
#148=ADVANCED_FACE('Mostrina',(#147),#122,.F.) ;
#177=ADVANCED_FACE('Mostrina',(#176),#160,.T.) ;
#224=ADVANCED_FACE('Mostrina',(#223),#189,.F.) ;
#271=ADVANCED_FACE('Mostrina',(#270),#236,.F.) ;
#306=ADVANCED_FACE('Mostrina',(#299,#305),#283,.T.) ;
#330=ADVANCED_FACE('Mostrina',(#329),#318,.F.) ;
#354=ADVANCED_FACE('Mostrina',(#353),#342,.T.) ;
#407=ADVANCED_FACE('Mostrina',(#400,#406),#366,.T.) ;
#445=ADVANCED_FACE('Mostrina',(#444),#419,.T.) ;
#483=ADVANCED_FACE('Mostrina',(#482),#457,.F.) ;
#507=ADVANCED_FACE('Mostrina',(#506),#495,.T.) ;
#531=ADVANCED_FACE('Mostrina',(#530),#519,.F.) ;
#556=ADVANCED_FACE('Mostrina',(#549,#555),#543,.T.) ;
#4=APPLICATION_PROTOCOL_DEFINITION('international standard','automotive_design',2001,#1) ;
#22=MANIFOLD_SOLID_BREP('Mostrina',#31) ;
#63=CIRCLE('generated circle',#62,168.75) ;
#169=CIRCLE('generated circle',#168,168.75) ;
#193=CIRCLE('generated circle',#192,168.75) ;
#240=CIRCLE('generated circle',#239,168.75) ;
#23=COLOUR_RGB('Colour',0.,0.501960784314,1.) ;
#72=COLOUR_RGB('Colour',0.341176470588,0.364705882353,0.36862745098) ;
#570=CONSTRUCTIVE_GEOMETRY_REPRESENTATION('supplemental geometry',(#569),#17) ;
#571=CONSTRUCTIVE_GEOMETRY_REPRESENTATION_RELATIONSHIP('supplemental geometry','',#20,#570) ;
#79=OVER_RIDING_STYLED_ITEM(' ',(#78),#71,#30) ;
#117=OVER_RIDING_STYLED_ITEM(' ',(#116),#110,#30) ;
#155=OVER_RIDING_STYLED_ITEM(' ',(#154),#148,#30) ;
#184=OVER_RIDING_STYLED_ITEM(' ',(#183),#177,#30) ;
#231=OVER_RIDING_STYLED_ITEM(' ',(#230),#224,#30) ;
#278=OVER_RIDING_STYLED_ITEM(' ',(#277),#271,#30) ;
#313=OVER_RIDING_STYLED_ITEM(' ',(#312),#306,#30) ;
#337=OVER_RIDING_STYLED_ITEM(' ',(#336),#330,#30) ;
#361=OVER_RIDING_STYLED_ITEM(' ',(#360),#354,#30) ;
#414=OVER_RIDING_STYLED_ITEM(' ',(#413),#407,#30) ;
#452=OVER_RIDING_STYLED_ITEM(' ',(#451),#445,#30) ;
#490=OVER_RIDING_STYLED_ITEM(' ',(#489),#483,#30) ;
#514=OVER_RIDING_STYLED_ITEM(' ',(#513),#507,#30) ;
#538=OVER_RIDING_STYLED_ITEM(' ',(#537),#531,#30) ;
#563=OVER_RIDING_STYLED_ITEM(' ',(#562),#556,#30) ;
#283=CYLINDRICAL_SURFACE('generated cylinder',#282,168.75) ;
#45=EDGE_CURVE('',#42,#44,#40,.T.) ;
#52=EDGE_CURVE('',#42,#51,#49,.T.) ;
#59=EDGE_CURVE('',#51,#58,#56,.T.) ;
#64=EDGE_CURVE('',#58,#44,#63,.T.) ;
#91=EDGE_CURVE('',#90,#58,#88,.T.) ;
#98=EDGE_CURVE('',#97,#51,#95,.T.) ;
#103=EDGE_CURVE('',#97,#90,#102,.T.) ;
#129=EDGE_CURVE('',#44,#128,#126,.T.) ;
#136=EDGE_CURVE('',#135,#128,#133,.T.) ;
#141=EDGE_CURVE('',#42,#135,#140,.T.) ;
#165=EDGE_CURVE('',#97,#135,#164,.T.) ;
#170=EDGE_CURVE('',#128,#90,#169,.T.) ;
#198=EDGE_CURVE('',#195,#197,#193,.T.) ;
#205=EDGE_CURVE('',#195,#204,#202,.F.) ;
#212=EDGE_CURVE('',#204,#211,#209,.T.) ;
#217=EDGE_CURVE('',#197,#211,#216,.F.) ;
#245=EDGE_CURVE('',#242,#244,#240,.T.) ;
#252=EDGE_CURVE('',#251,#242,#249,.F.) ;
#259=EDGE_CURVE('',#258,#251,#256,.T.) ;
#264=EDGE_CURVE('',#258,#244,#263,.F.) ;
#288=EDGE_CURVE('',#242,#197,#287,.T.) ;
#293=EDGE_CURVE('',#244,#195,#292,.T.) ;
#323=EDGE_CURVE('',#204,#258,#322,.F.) ;
#347=EDGE_CURVE('',#211,#251,#346,.T.) ;
#375=EDGE_CURVE('',#372,#374,#370,.T.) ;
#382=EDGE_CURVE('',#374,#381,#379,.T.) ;
#389=EDGE_CURVE('',#388,#381,#386,.T.) ;
#394=EDGE_CURVE('',#372,#388,#393,.T.) ;
#426=EDGE_CURVE('',#425,#374,#423,.T.) ;
#433=EDGE_CURVE('',#425,#432,#430,.T.) ;
#438=EDGE_CURVE('',#432,#381,#437,.T.) ;
#464=EDGE_CURVE('',#463,#388,#461,.T.) ;
#471=EDGE_CURVE('',#470,#463,#468,.T.) ;
#476=EDGE_CURVE('',#470,#372,#475,.T.) ;
#500=EDGE_CURVE('',#470,#425,#499,.T.) ;
#524=EDGE_CURVE('',#463,#432,#523,.T.) ;
#65=EDGE_LOOP('',(#66,#67,#68,#69)) ;
#104=EDGE_LOOP('',(#105,#106,#107,#108)) ;
#142=EDGE_LOOP('',(#143,#144,#145,#146)) ;
#171=EDGE_LOOP('',(#172,#173,#174,#175)) ;
#218=EDGE_LOOP('',(#219,#220,#221,#222)) ;
#265=EDGE_LOOP('',(#266,#267,#268,#269)) ;
#294=EDGE_LOOP('',(#295,#296,#297,#298)) ;
#300=EDGE_LOOP('',(#301,#302,#303,#304)) ;
#324=EDGE_LOOP('',(#325,#326,#327,#328)) ;
#348=EDGE_LOOP('',(#349,#350,#351,#352)) ;
#395=EDGE_LOOP('',(#396,#397,#398,#399)) ;
#401=EDGE_LOOP('',(#402,#403,#404,#405)) ;
#439=EDGE_LOOP('',(#440,#441,#442,#443)) ;
#477=EDGE_LOOP('',(#478,#479,#480,#481)) ;
#501=EDGE_LOOP('',(#502,#503,#504,#505)) ;
#525=EDGE_LOOP('',(#526,#527,#528,#529)) ;
#544=EDGE_LOOP('',(#545,#546,#547,#548)) ;
#550=EDGE_LOOP('',(#551,#552,#553,#554)) ;
#70=FACE_OUTER_BOUND('',#65,.T.) ;
#109=FACE_OUTER_BOUND('',#104,.T.) ;
#147=FACE_OUTER_BOUND('',#142,.T.) ;
#176=FACE_OUTER_BOUND('',#171,.T.) ;
#223=FACE_OUTER_BOUND('',#218,.T.) ;
#270=FACE_OUTER_BOUND('',#265,.T.) ;
#299=FACE_OUTER_BOUND('',#294,.T.) ;
#329=FACE_OUTER_BOUND('',#324,.T.) ;
#353=FACE_OUTER_BOUND('',#348,.T.) ;
#400=FACE_OUTER_BOUND('',#395,.T.) ;
#444=FACE_OUTER_BOUND('',#439,.T.) ;
#482=FACE_OUTER_BOUND('',#477,.T.) ;
#506=FACE_OUTER_BOUND('',#501,.T.) ;
#530=FACE_OUTER_BOUND('',#525,.T.) ;
#549=FACE_OUTER_BOUND('',#544,.T.) ;
#40=LINE('Line',#37,#39) ;
#49=LINE('Line',#46,#48) ;
#56=LINE('Line',#53,#55) ;
#88=LINE('Line',#85,#87) ;
#95=LINE('Line',#92,#94) ;
#102=LINE('Line',#99,#101) ;
#126=LINE('Line',#123,#125) ;
#133=LINE('Line',#130,#132) ;
#140=LINE('Line',#137,#139) ;
#164=LINE('Line',#161,#163) ;
#202=LINE('Line',#199,#201) ;
#209=LINE('Line',#206,#208) ;
#216=LINE('Line',#213,#215) ;
#249=LINE('Line',#246,#248) ;
#256=LINE('Line',#253,#255) ;
#263=LINE('Line',#260,#262) ;
#287=LINE('Line',#284,#286) ;
#292=LINE('Line',#289,#291) ;
#322=LINE('Line',#319,#321) ;
#346=LINE('Line',#343,#345) ;
#370=LINE('Line',#367,#369) ;
#379=LINE('Line',#376,#378) ;
#386=LINE('Line',#383,#385) ;
#393=LINE('Line',#390,#392) ;
#423=LINE('Line',#420,#422) ;
#430=LINE('Line',#427,#429) ;
#437=LINE('Line',#434,#436) ;
#461=LINE('Line',#458,#460) ;
#468=LINE('Line',#465,#467) ;
#475=LINE('Line',#472,#474) ;
#499=LINE('Line',#496,#498) ;
#523=LINE('Line',#520,#522) ;
#36=PLANE('',#35) ;
#84=PLANE('',#83) ;
#122=PLANE('',#121) ;
#160=PLANE('',#159) ;
#189=PLANE('',#188) ;
#236=PLANE('',#235) ;
#318=PLANE('',#317) ;
#342=PLANE('',#341) ;
#366=PLANE('',#365) ;
#419=PLANE('',#418) ;
#457=PLANE('',#456) ;
#495=PLANE('',#494) ;
#519=PLANE('',#518) ;
#543=PLANE('',#542) ;
#14=PLANE_ANGLE_MEASURE_WITH_UNIT(PLANE_ANGLE_MEASURE(0.0174532925199),#13) ;
#9=PRODUCT_CATEGORY_RELATIONSHIP(' ',' ',#7,#8) ;
#6=PRODUCT_DEFINITION_FORMATION_WITH_SPECIFIED_SOURCE('',' ',#5,.NOT_KNOWN.) ;
#21=SHAPE_DEFINITION_REPRESENTATION(#11,#20) ;
#42=VERTEX_POINT('',#41) ;
#44=VERTEX_POINT('',#43) ;
#51=VERTEX_POINT('',#50) ;
#58=VERTEX_POINT('',#57) ;
#90=VERTEX_POINT('',#89) ;
#97=VERTEX_POINT('',#96) ;
#128=VERTEX_POINT('',#127) ;
#135=VERTEX_POINT('',#134) ;
#195=VERTEX_POINT('',#194) ;
#197=VERTEX_POINT('',#196) ;
#204=VERTEX_POINT('',#203) ;
#211=VERTEX_POINT('',#210) ;
#242=VERTEX_POINT('',#241) ;
#244=VERTEX_POINT('',#243) ;
#251=VERTEX_POINT('',#250) ;
#258=VERTEX_POINT('',#257) ;
#372=VERTEX_POINT('',#371) ;
#374=VERTEX_POINT('',#373) ;
#381=VERTEX_POINT('',#380) ;
#388=VERTEX_POINT('',#387) ;
#425=VERTEX_POINT('',#424) ;
#432=VERTEX_POINT('',#431) ;
#463=VERTEX_POINT('',#462) ;
#470=VERTEX_POINT('',#469) ;
#12=(LENGTH_UNIT()NAMED_UNIT(*)SI_UNIT(.MILLI.,.METRE.)) ;
#13=(NAMED_UNIT(*)PLANE_ANGLE_UNIT()SI_UNIT($,.RADIAN.)) ;
#15=(NAMED_UNIT(*)SI_UNIT($,.STERADIAN.)SOLID_ANGLE_UNIT()) ;
#17=(GEOMETRIC_REPRESENTATION_CONTEXT(3)GLOBAL_UNCERTAINTY_ASSIGNED_CONTEXT((#16))GLOBAL_UNIT_ASSIGNED_CONTEXT((#12,#13,#15))REPRESENTATION_CONTEXT(' ',' ')) ;
ENDSEC;
END-ISO-10303-21;
