  0
SECTION
  2
HEADER
  9
$ACADVER
  1
AC1009
  9
$DWGCODEPAGE
  3
iso8859-1
  9
$INSBASE
 10
0.0
 20
0.0
 30
0.0
  9
$EXTMIN
 10
1.0E20
 20
1.0E20
  9
$EXTMAX
 10
-1.0E20
 20
-1.0E20
  9
$LIMMIN
 10
0.0
 20
0.0
  9
$LIMMAX
 10
12.0
 20
9.0
  9
$ORTHOMODE
 70
     0
  9
$REGENMODE
 70
     1
  9
$FILLMODE
 70
     1
  9
$QTEXTMODE
 70
     0
  9
$MIRRTEXT
 70
     1
  9
$DRAGMODE
 70
     2
  9
$LTSCALE
 40
15.0
  9
$OSMODE
 70
     0
  9
$ATTMODE
 70
     1
  9
$TEXTSIZE
 40
0.2
  9
$TRACEWID
 40
0.05
  9
$TEXTSTYLE
  7
STANDARD
  9
$CLAYER
  8
0
  9
$CELTYPE
  6
DASHED
  9
$CECOLOR
 62
   256
  9
$DIMSCALE
 40
1.0
  9
$DIMASZ
 40
0.18
  9
$DIMEXO
 40
0.0625
  9
$DIMDLI
 40
0.38
  9
$DIMRND
 40
0.0
  9
$DIMDLE
 40
0.0
  9
$DIMEXE
 40
0.18
  9
$DIMTP
 40
0.0
  9
$DIMTM
 40
0.0
  9
$DIMTXT
 40
0.18
  9
$DIMCEN
 40
0.09
  9
$DIMTSZ
 40
0.0
  9
$DIMTOL
 70
     0
  9
$DIMLIM
 70
     0
  9
$DIMTIH
 70
     1
  9
$DIMTOH
 70
     1
  9
$DIMSE1
 70
     0
  9
$DIMSE2
 70
     0
  9
$DIMTAD
 70
     0
  9
$DIMZIN
 70
     0
  9
$DIMBLK
  1

  9
$DIMASO
 70
     1
  9
$DIMSHO
 70
     1
  9
$DIMPOST
  1

  9
$DIMAPOST
  1

  9
$DIMALT
 70
     0
  9
$DIMALTD
 70
     2
  9
$DIMALTF
 40
25.4
  9
$DIMLFAC
 40
1.0
  9
$DIMTOFL
 70
     0
  9
$DIMTVP
 40
0.0
  9
$DIMTIX
 70
     0
  9
$DIMSOXD
 70
     0
  9
$DIMSAH
 70
     0
  9
$DIMBLK1
  1

  9
$DIMBLK2
  1

  9
$DIMSTYLE
  2
STANDARD
  9
$DIMCLRD
 70
     0
  9
$DIMCLRE
 70
     0
  9
$DIMCLRT
 70
     0
  9
$DIMTFAC
 40
1.0
  9
$DIMGAP
 40
0.09
  9
$LUNITS
 70
     2
  9
$LUPREC
 70
     4
  9
$AXISMODE
 70
     0
  9
$AXISUNIT
 10
0.0
 20
0.0
  9
$SKETCHINC
 40
0.1
  9
$FILLETRAD
 40
0.0
  9
$AUNITS
 70
     0
  9
$AUPREC
 70
     0
  9
$MENU
  1
acad
  9
$ELEVATION
 40
0.0
  9
$PELEVATION
 40
0.0
  9
$THICKNESS
 40
0.0
  9
$LIMCHECK
 70
     0
  9
$BLIPMODE
 70
     1
  9
$CHAMFERA
 40
0.0
  9
$CHAMFERB
 40
0.0
  9
$SKPOLY
 70
     0
  9
$TDCREATE
 40
0.000000000
  9
$TDUPDATE
 40
0.000000000
  9
$TDINDWG
 40
0.0
  9
$TDUSRTIMER
 40
0.0
  9
$USRTIMER
 70
     1
  9
$ANGBASE
 50
0.0
  9
$ANGDIR
 70
     0
  9
$PDMODE
 70
     0
  9
$PDSIZE
 40
0.0
  9
$PLINEWID
 40
0.0
  9
$COORDS
 70
     1
  9
$SPLFRAME
 70
     0
  9
$SPLINETYPE
 70
     6
  9
$SPLINESEGS
 70
     8
  9
$ATTDIA
 70
     0
  9
$ATTREQ
 70
     1
  9
$HANDLING
 70
     1
  9
$HANDSEED
  5
   790
  9
$SURFTAB1
 70
     6
  9
$SURFTAB2
 70
     6
  9
$SURFTYPE
 70
     6
  9
$SURFU
 70
     6
  9
$SURFV
 70
     6
  9
$UCSNAME
  2

  9
$UCSORG
 10
0.0
 20
0.0
 30
0.0
  9
$UCSXDIR
 10
1.0
 20
0.0
 30
0.0
  9
$UCSYDIR
 10
0.0
 20
1.0
 30
0.0
  9
$PUCSNAME
  2

  9
$PUCSORG
 10
0.0
 20
0.0
 30
0.0
  9
$PUCSXDIR
 10
1.0
 20
0.0
 30
0.0
  9
$PUCSYDIR
 10
0.0
 20
1.0
 30
0.0
  9
$USERI1
 70
     0
  9
$USERI2
 70
     0
  9
$USERI3
 70
     0
  9
$USERI4
 70
     0
  9
$USERI5
 70
     0
  9
$USERR1
 40
0.0
  9
$USERR2
 40
0.0
  9
$USERR3
 40
0.0
  9
$USERR4
 40
0.0
  9
$USERR5
 40
0.0
  9
$WORLDVIEW
 70
     1
  9
$SHADEDGE
 70
     3
  9
$SHADEDIF
 70
    70
  9
$TILEMODE
 70
     1
  9
$MAXACTVP
 70
    16
  9
$PINSBASE
 10
0.0
 20
0.0
 30
0.0
  9
$PLIMCHECK
 70
     0
  9
$PEXTMIN
 10
1.0E20
 20
1.0E20
 30
1.0E20
  9
$PEXTMAX
 10
-1.0E20
 20
-1.0E20
 30
-1.0E20
  9
$PLIMMIN
 10
0.0
 20
0.0
  9
$PLIMMAX
 10
12.0
 20
9.0
  9
$UNITMODE
 70
     0
  9
$VISRETAIN
 70
     0
  0
ENDSEC
  0
SECTION
  2
TABLES
  0
TABLE
  2
VPORT
 70
     1
  0
VPORT
  2
*ACTIVE
 70
     0
 10
0.0
 20
0.0
 11
1.0
 21
1.0
 12
6.801242
 22
4.5
 13
0.0
 23
0.0
 14
1.0
 24
1.0
 15
0.0
 25
0.0
 16
0.0
 26
0.0
 36
1.0
 17
0.0
 27
0.0
 37
0.0
 40
9.0
 41
1.511387
 42
50.0
 43
0.0
 44
0.0
 50
0.0
 51
0.0
 71
     0
 72
   100
 73
     1
 74
     1
 75
     0
 76
     0
 77
     0
 78
     0
  0
ENDTAB
  0
TABLE
  2
LTYPE
 70
    41
  0
LTYPE
  2
BYBLOCK
 70
     0
  3

 72
    65
 73
     0
 40
0.0
  0
LTYPE
  2
BYLAYER
 70
     0
  3

 72
    65
 73
     0
 40
0.0
  0
LTYPE
  2
CONTINUOUS
 70
     0
  3
Solid line
 72
    65
 73
     0
 40
0.0
  0
LTYPE
  2
BORDER
 70
    64
  3
__ __ . __ __ . __ __ . __ __ . __ __ . __ __ .
 72
    65
 73
     6
 40
1.75
 49
0.5
 49
-0.25
 49
0.5
 49
-0.25
 49
0.0
 49
-0.25
  0
LTYPE
  2
BORDER2
 70
    64
  3
__.__.__.__.__.__.__.__.__.__.__.__.__.__.__.__
 72
    65
 73
     6
 40
0.875
 49
0.25
 49
-0.125
 49
0.25
 49
-0.125
 49
0.0
 49
-0.125
  0
LTYPE
  2
BORDERX2
 70
    64
  3
____  ____  .  ____  ____  .  ____  ____  .  __
 72
    65
 73
     6
 40
3.5
 49
1.0
 49
-0.5
 49
1.0
 49
-0.5
 49
0.0
 49
-0.5
  0
LTYPE
  2
CENTER
 70
    64
  3
____ _ ____ _ ____ _ ____ _ ____ _ ____ _ ____
 72
    65
 73
     4
 40
2.0
 49
1.25
 49
-0.25
 49
0.25
 49
-0.25
  0
LTYPE
  2
CENTER2
 70
    64
  3
___ _ ___ _ ___ _ ___ _ ___ _ ___ _ ___ _ ___ _
 72
    65
 73
     4
 40
1.125
 49
0.75
 49
-0.125
 49
0.125
 49
-0.125
  0
LTYPE
  2
CENTERX2
 70
    64
  3
________  __  ________  __  ________  __  _____
 72
    65
 73
     4
 40
4.0
 49
2.5
 49
-0.5
 49
0.5
 49
-0.5
  0
LTYPE
  2
DASHDOT
 70
    64
  3
__ . __ . __ . __ . __ . __ . __ . __ . __ . __
 72
    65
 73
     4
 40
1.0
 49
0.5
 49
-0.25
 49
0.0
 49
-0.25
  0
LTYPE
  2
DASHDOT2
 70
    64
  3
_._._._._._._._._._._._._._._._._._._._._._._._
 72
    65
 73
     4
 40
0.5
 49
0.25
 49
-0.125
 49
0.0
 49
-0.125
  0
LTYPE
  2
DASHDOTX2
 70
    64
  3
____  .  ____  .  ____  .  ____  .  ____  .  __
 72
    65
 73
     4
 40
2.0
 49
1.0
 49
-0.5
 49
0.0
 49
-0.5
  0
LTYPE
  2
DASHED
 70
    64
  3
__ __ __ __ __ __ __ __ __ __ __ __ __ __ __ __
 72
    65
 73
     2
 40
0.75
 49
0.5
 49
-0.25
  0
LTYPE
  2
DASHED2
 70
    64
  3
_ _ _ _ _ _ _ _ _ _ _ _ _ _ _ _ _ _ _ _ _ _ _ _
 72
    65
 73
     2
 40
0.375
 49
0.25
 49
-0.125
  0
LTYPE
  2
DASHEDX2
 70
    64
  3
____  ____  ____  ____  ____  ____  ____  ____
 72
    65
 73
     2
 40
1.5
 49
1.0
 49
-0.5
  0
LTYPE
  2
DIVIDE
 70
    64
  3
____ . . ____ . . ____ . . ____ . . ____ . . __
 72
    65
 73
     6
 40
1.25
 49
0.5
 49
-0.25
 49
0.0
 49
-0.25
 49
0.0
 49
-0.25
  0
LTYPE
  2
DIVIDE2
 70
    64
  3
__..__..__..__..__..__..__..__..__..__..__..__.
 72
    65
 73
     6
 40
0.625
 49
0.25
 49
-0.125
 49
0.0
 49
-0.125
 49
0.0
 49
-0.125
  0
LTYPE
  2
DIVIDEX2
 70
    64
  3
________  .  .  ________  .  .  ________  .  .
 72
    65
 73
     6
 40
2.5
 49
1.0
 49
-0.5
 49
0.0
 49
-0.5
 49
0.0
 49
-0.5
  0
LTYPE
  2
DOT
 70
    64
  3
. . . . . . . . . . . . . . . . . . . . . . . .
 72
    65
 73
     2
 40
0.25
 49
0.0
 49
-0.25
  0
LTYPE
  2
DOT2
 70
    64
  3
...............................................
 72
    65
 73
     2
 40
0.125
 49
0.0
 49
-0.125
  0
LTYPE
  2
DOTX2
 70
    64
  3
.  .  .  .  .  .  .  .  .  .  .  .  .  .  .  .
 72
    65
 73
     2
 40
0.5
 49
0.0
 49
-0.5
  0
LTYPE
  2
HIDDEN
 70
    64
  3
__ __ __ __ __ __ __ __ __ __ __ __ __ __ __ __
 72
    65
 73
     2
 40
0.375
 49
0.25
 49
-0.125
  0
LTYPE
  2
HIDDEN2
 70
    64
  3
_ _ _ _ _ _ _ _ _ _ _ _ _ _ _ _ _ _ _ _ _ _ _ _
 72
    65
 73
     2
 40
0.1875
 49
0.125
 49
-0.0625
  0
LTYPE
  2
HIDDENX2
 70
    64
  3
____ ____ ____ ____ ____ ____ ____ ____ ____ __
 72
    65
 73
     2
 40
0.75
 49
0.5
 49
-0.25
  0
LTYPE
  2
PHANTOM
 70
    64
  3
______  __  __  ______  __  __  ______  __  __
 72
    65
 73
     6
 40
2.5
 49
1.25
 49
-0.25
 49
0.25
 49
-0.25
 49
0.25
 49
-0.25
  0
LTYPE
  2
PHANTOM2
 70
    64
  3
___ _ _ ___ _ _ ___ _ _ ___ _ _ ___ _ _ ___ _ _
 72
    65
 73
     6
 40
1.25
 49
0.625
 49
-0.125
 49
0.125
 49
-0.125
 49
0.125
 49
-0.125
  0
LTYPE
  2
PHANTOMX2
 70
    64
  3
____________    ____    ____    ____________
 72
    65
 73
     6
 40
5.0
 49
2.5
 49
-0.5
 49
0.5
 49
-0.5
 49
0.5
 49
-0.5
  0
LTYPE
  2
ACAD_ISO02W100
 70
    64
  3
__ __ __ __ __ __ __ __ __ __ __ __ __ __ __ __
 72
    65
 73
     2
 40
15.0
 49
12.0
 49
-3.0
  0
LTYPE
  2
ACAD_ISO03W100
 70
    64
  3
__    __    __    __    __    __    __    __
 72
    65
 73
     2
 40
30.0
 49
12.0
 49
-18.0
  0
LTYPE
  2
ACAD_ISO04W100
 70
    64
  3
____ . ____ . ____ . ____ . ____ . ____ . ____
 72
    65
 73
     4
 40
30.5
 49
24.0
 49
-3.0
 49
0.5
 49
-3.0
  0
LTYPE
  2
ACAD_ISO05W100
 70
    64
  3
____ .. ____ .. ____ .. ____ .. ____ .. ____ ..
 72
    65
 73
     6
 40
34.0
 49
24.0
 49
-3.0
 49
0.5
 49
-3.0
 49
0.5
 49
-3.0
  0
LTYPE
  2
ACAD_ISO06W100
 70
    64
  3
____ ... ____ ... ____ ... ____ ... ____ ... __
 72
    65
 73
     8
 40
37.5
 49
24.0
 49
-3.0
 49
0.5
 49
-3.0
 49
0.5
 49
-3.0
 49
0.5
 49
-3.0
  0
LTYPE
  2
ACAD_ISO07W100
 70
    64
  3
. . . . . . . . . . . . . . . . . . . . . . . .
 72
    65
 73
     2
 40
3.5
 49
0.5
 49
-3.0
  0
LTYPE
  2
ACAD_ISO08W100
 70
    64
  3
____ __ ____ __ ____ __ ____ ____ __ __ ____ __
 72
    65
 73
     4
 40
36.0
 49
24.0
 49
-3.0
 49
6.0
 49
-3.0
  0
LTYPE
  2
ACAD_ISO09W100
 70
    64
  3
____ __ __ ____ __ __ ____ __ __ ____ __ __ ___
 72
    65
 73
     6
 40
45.0
 49
24.0
 49
-3.0
 49
6.0
 49
-3.0
 49
6.0
 49
-3.0
  0
LTYPE
  2
ACAD_ISO10W100
 70
    64
  3
__ . __ . __ . __ . __ . __ . __ . __ . __ . __
 72
    65
 73
     4
 40
18.5
 49
12.0
 49
-3.0
 49
0.5
 49
-3.0
  0
LTYPE
  2
ACAD_ISO11W100
 70
    64
  3
__ __ . __ __ . __ __ . __ __ . __ __ . __ __ .
 72
    65
 73
     6
 40
33.5
 49
12.0
 49
-3.0
 49
12.0
 49
-3.0
 49
0.5
 49
-3.0
  0
LTYPE
  2
ACAD_ISO12W100
 70
    64
  3
__ . . __ . . __ . . __ . . __ . . __ . . __ .
 72
    65
 73
     6
 40
22.0
 49
12.0
 49
-3.0
 49
0.5
 49
-3.0
 49
0.5
 49
-3.0
  0
LTYPE
  2
ACAD_ISO13W100
 70
    64
  3
__ __ . . __ __ . . __ __ . . __ __ . . __ __ .
 72
    65
 73
     8
 40
37.0
 49
12.0
 49
-3.0
 49
12.0
 49
-3.0
 49
0.5
 49
-3.0
 49
0.5
 49
-3.0
  0
LTYPE
  2
ACAD_ISO14W100
 70
    64
  3
__ . . . __ . . . __ . . . __ . . . __ . . . __
 72
    65
 73
     8
 40
25.5
 49
12.0
 49
-3.0
 49
0.5
 49
-3.0
 49
0.5
 49
-3.0
 49
0.5
 49
-3.0
  0
LTYPE
  2
ACAD_ISO15W100
 70
    64
  3
__ __ . . . __ __ . . . __ __ . . . __ __ . . .
 72
    65
 73
    10
 40
40.5
 49
12.0
 49
-3.0
 49
12.0
 49
-3.0
 49
0.5
 49
-3.0
 49
0.5
 49
-3.0
 49
0.5
 49
-3.0
  0
ENDTAB
  0
TABLE
  2
STYLE
 70
     4
  0
STYLE
  2
STANDARD
 70
    64
 40
0.0
 41
1.0
 50
0.0
 71
     0
 42
0.2
  3
txt
  4

  0
STYLE
  2
TOLERANCE
 70
    64
 40
0.0
 41
1.0
 50
0.0
 71
     0
 42
0.2
  3
../igesfont/iges1003.shx
  4

  0
STYLE
  2
ROMANS
 70
    64
 40
0.0
 41
1.0
 50
0.0
 71
     0
 42
0.2
  3
romans.shx
  4

  0
STYLE
  2
ROMANC
 70
    64
 40
0.0
 41
1.0
 50
0.0
 71
     0
 42
0.2
  3
romanc.shx
  4

  0
ENDTAB
  0
TABLE
  2
DIMSTYLE
 70
     2
  0
DIMSTYLE
  2
UNNAMED
 70
     0
  3

  4

  5

  6

  7

 40
1.0
 41
0.18
 42
0.0625
 43
0.38
 44
0.18
 45
0.0
 46
0.0
 47
0.0
 48
0.0
140
0.18
141
0.09
142
0.0
143
25.4
144
1.0
145
0.0
146
1.0
147
0.09
 71
     0
 72
     0
 73
     1
 74
     1
 75
     0
 76
     0
 77
     0
 78
     0
170
     0
171
     2
172
     0
173
     0
174
     0
175
     0
176
     0
177
     0
178
     0
  0
DIMSTYLE
  2
STANDARD
 70
     0
  3

  4

  5

  6

  7

 40
1.0
 41
0.18
 42
0.0625
 43
0.38
 44
0.18
 45
0.0
 46
0.0
 47
0.0
 48
0.0
140
0.18
141
0.09
142
0.0
143
25.4
144
1.0
145
0.0
146
1.0
147
0.09
 71
     0
 72
     0
 73
     1
 74
     1
 75
     0
 76
     0
 77
     0
 78
     0
170
     0
171
     2
172
     0
173
     0
174
     0
175
     0
176
     0
177
     0
178
     0
  0
ENDTAB
  0
TABLE
  2
LAYER
 70
     2
  0
LAYER
  2
0
 70
     0
 62
     7
  6
CONTINUOUS
  0
LAYER
  2
255
 70
     0
 62
     7
  6
CONTINUOUS
  0
ENDTAB
  0
ENDSEC
  0
SECTION
  2
BLOCKS
  0
BLOCK
  5
     B
  8
0
  6
CONTINUOUS
 62
     7
  2
MOSTRINA
 70
    64
 10
0.0
 20
0.0
 30
0.0
  3
MOSTRINA
  0
LINE
  5
     C
  8
0
  6
CONTINUOUS
 62
     3
 10
208.338256835938
 20
30.7306251525879
 30
0.0
 11
208.338256835938
 21
189.230621337891
 31
0.0
  0
LINE
  5
     D
  8
0
  6
CONTINUOUS
 62
     3
 10
57.5882568359375
 20
29.4806251525879
 30
0.0
 11
207.088256835938
 21
29.4806251525879
 31
0.0
  0
LINE
  5
     E
  8
0
  6
CONTINUOUS
 62
     3
 10
56.3382568359375
 20
30.7306251525879
 30
0.0
 11
56.3382568359375
 21
189.230621337891
 31
0.0
  0
LINE
  5
     F
  8
0
  6
CONTINUOUS
 62
     3
 10
57.5882568359375
 20
190.480621337891
 30
0.0
 11
207.088256835938
 21
190.480621337891
 31
0.0
  0
LINE
  5
    10
  8
0
  6
CONTINUOUS
 62
     3
 10
202.838256835938
 20
56.9806251525879
 30
0.0
 11
202.838256835938
 21
162.980625152588
 31
0.0
  0
LINE
  5
    11
  8
0
  6
CONTINUOUS
 62
     3
 10
61.8382568359375
 20
56.9806251525879
 30
0.0
 11
202.838256835938
 21
56.9806251525879
 31
0.0
  0
LINE
  5
    12
  8
0
  6
CONTINUOUS
 62
     3
 10
61.8382568359375
 20
56.9806251525879
 30
0.0
 11
61.8382568359375
 21
162.980625152588
 31
0.0
  0
LINE
  5
    13
  8
0
  6
CONTINUOUS
 62
     3
 10
61.8382568359375
 20
162.980621337891
 30
0.0
 11
202.838256835938
 21
162.980621337891
 31
0.0
  0
LINE
  5
    14
  8
0
  6
CONTINUOUS
 62
     3
 10
203.838256835938
 20
48.4806251525879
 30
0.0
 11
203.838256835938
 21
49.4806251525879
 31
0.0
  0
LINE
  5
    15
  8
0
  6
CONTINUOUS
 62
     3
 10
61.8382568359375
 20
50.4806251525879
 30
0.0
 11
202.838256835938
 21
50.4806251525879
 31
0.0
  0
LINE
  5
    16
  8
0
  6
CONTINUOUS
 62
     3
 10
60.8382568359375
 20
48.4806251525879
 30
0.0
 11
60.8382568359375
 21
49.4806251525879
 31
0.0
  0
LINE
  5
    17
  8
0
  6
CONTINUOUS
 62
     3
 10
61.8382568359375
 20
49.4806251525879
 30
0.0
 11
202.838256835938
 21
49.4806251525879
 31
0.0
  0
LINE
  5
    18
  8
0
  6
CONTINUOUS
 62
     3
 10
60.8382568359375
 20
29.4806251525879
 30
0.0
 11
60.8382568359375
 21
48.4806251525879
 31
0.0
  0
LINE
  5
    19
  8
0
  6
CONTINUOUS
 62
     3
 10
60.8382568359375
 20
49.4806213378906
 30
0.0
 11
60.8382568359375
 21
190.480621337891
 31
0.0
  0
LINE
  5
    1A
  8
0
  6
CONTINUOUS
 62
     3
 10
61.8382568359375
 20
29.4806251525879
 30
0.0
 11
61.8382568359375
 21
49.4806251525879
 31
0.0
  0
LINE
  5
    1B
  8
0
  6
CONTINUOUS
 62
     3
 10
61.8382568359375
 20
162.980621337891
 30
0.0
 11
61.8382568359375
 21
169.480621337891
 31
0.0
  0
LINE
  5
    1C
  8
0
  6
CONTINUOUS
 62
     3
 10
61.8382568359375
 20
50.4806251525879
 30
0.0
 11
61.8382568359375
 21
56.9806251525879
 31
0.0
  0
LINE
  5
    1D
  8
0
  6
CONTINUOUS
 62
     3
 10
203.838256835938
 20
29.4806251525879
 30
0.0
 11
203.838256835938
 21
48.4806251525879
 31
0.0
  0
LINE
  5
    1E
  8
0
  6
CONTINUOUS
 62
     3
 10
203.838256835938
 20
49.4806251525879
 30
0.0
 11
203.838256835938
 21
190.480621337891
 31
0.0
  0
LINE
  5
    1F
  8
0
  6
CONTINUOUS
 62
     3
 10
202.838256835938
 20
50.4806251525879
 30
0.0
 11
202.838256835938
 21
56.9806251525879
 31
0.0
  0
LINE
  5
    20
  8
0
  6
CONTINUOUS
 62
     3
 10
202.838256835938
 20
162.980621337891
 30
0.0
 11
202.838256835938
 21
169.480621337891
 31
0.0
  0
LINE
  5
    21
  8
0
  6
CONTINUOUS
 62
     3
 10
202.838256835938
 20
29.4806251525879
 30
0.0
 11
202.838256835938
 21
49.4806251525879
 31
0.0
  0
LINE
  5
    22
  8
0
  6
CONTINUOUS
 62
     3
 10
60.8382568359375
 20
170.480621337891
 30
0.0
 11
203.838256835938
 21
170.480621337891
 31
0.0
  0
LINE
  5
    23
  8
0
  6
CONTINUOUS
 62
     3
 10
61.8382568359375
 20
169.480621337891
 30
0.0
 11
202.838256835938
 21
169.480621337891
 31
0.0
  0
ARC
  5
    24
  8
0
  6
CONTINUOUS
 62
     3
 10
57.5882568359375
 20
30.7306251525879
 30
0.0
 40
1.25
 50
180.0
 51
270.0
  0
ARC
  5
    25
  8
0
  6
CONTINUOUS
 62
     3
 10
207.088256835938
 20
30.7306251525879
 30
0.0
 40
1.25
 50
270.0
 51
360.0
  0
ARC
  5
    26
  8
0
  6
CONTINUOUS
 62
     3
 10
207.088256835938
 20
189.230621337891
 30
0.0
 40
1.25
 50
0.0
 51
90.0
  0
ARC
  5
    27
  8
0
  6
CONTINUOUS
 62
     3
 10
57.5882568359375
 20
189.230621337891
 30
0.0
 40
1.25
 50
90.0
 51
180.0
  0
LINE
  5
    28
  8
0
  6
DOT
 62
     3
 10
60.3382577409677
 20
179.7306252571
 30
0.0
 11
60.8382568359375
 21
179.7306252571
 31
0.0
  0
LINE
  5
    29
  8
0
  6
DOT
 62
     3
 10
60.3382577409676
 20
181.2306252571
 30
0.0
 11
60.8382568359375
 21
181.2306252571
 31
0.0
  0
LINE
  5
    2A
  8
0
  6
CONTINUOUS
 62
     3
 10
203.338257745313
 20
179.730625257273
 30
0.0
 11
203.838256835938
 21
179.730625257273
 31
0.0
  0
LINE
  5
    2B
  8
0
  6
CONTINUOUS
 62
     3
 10
203.338257745314
 20
181.230625257273
 30
0.0
 11
203.838256835938
 21
181.230625257273
 31
0.0
  0
ARC
  5
    2C
  8
0
  6
DOT
 62
     3
 10
60.3382577401871
 20
180.480625257147
 30
0.0
 40
0.749999999345164
 50
90.0
 51
270.0
  0
ARC
  5
    2D
  8
0
  6
CONTINUOUS
 62
     3
 10
61.338257740822
 20
180.480625256974
 30
0.0
 40
0.750000000009701
 50
270.0
 51
450.0
  0
LINE
  5
    2E
  8
0
  6
CONTINUOUS
 62
     3
 10
60.8382568359375
 20
181.2306252571
 30
0.0
 11
61.3382577409688
 21
181.2306252571
 31
0.0
  0
LINE
  5
    2F
  8
0
  6
CONTINUOUS
 62
     3
 10
60.8382568359375
 20
179.7306252571
 30
0.0
 11
61.3382577409689
 21
179.7306252571
 31
0.0
  0
ARC
  5
    30
  8
0
  6
CONTINUOUS
 62
     3
 10
203.338257745503
 20
180.480625256952
 30
0.0
 40
0.750000000048506
 50
90.0000000038822
 51
269.999999996024
  0
ARC
  5
    31
  8
0
  6
DOT
 62
     3
 10
204.338257745421
 20
180.480625256965
 30
0.0
 40
0.750000000029104
 50
270.000000002449
 51
449.999999997486
  0
LINE
  5
    32
  8
0
  6
DOT
 62
     3
 10
203.838256835938
 20
181.230625257273
 30
0.0
 11
204.338257745315
 21
181.230625257273
 31
0.0
  0
LINE
  5
    33
  8
0
  6
DOT
 62
     3
 10
203.838256835938
 20
179.730625257273
 30
0.0
 11
204.338257745315
 21
179.730625257273
 31
0.0
  0
POINT
  5
    34
  8
0
  6
CONTINUOUS
 62
     7
 10
132.338256835938
 20
109.980623245239
 30
0.0
  0
ENDBLK
  5
    35
  8
0
  6
CONTINUOUS
 62
     7
  0
BLOCK
  5
    36
  8
0
  6
CONTINUOUS
 62
     7
  2
*UDIM425
 70
    65
 10
0.0
 20
0.0
 30
0.0
  3
*UDIM425
  0
TEXT
  5
    37
  8
0
  6
CONTINUOUS
 62
     7
 10
48.498720506999
 20
86.6528542537976
 30
0.0
 40
2.99999994933605
  1
125,25
 50
89.9999999480344
 41
0.933333333333333
 72
     1
 11
46.9987205396672
 21
94.7528541183635
 31
0.0
 73
     2
  0
LINE
  5
    38
  8
0
  6
CONTINUOUS
 62
     7
 10
51.0912123195537
 20
69.702847544586
 30
0.0
 11
47.4987205143353
 21
69.702847544586
 31
0.0
  0
LINE
  5
    39
  8
0
  6
CONTINUOUS
 62
     7
 10
56.2417173360686
 20
119.802860692141
 30
0.0
 11
47.4987205143353
 21
119.802860692141
 31
0.0
  0
LINE
  5
    3A
  8
0
  6
CONTINUOUS
 62
     7
 10
49.4987205143353
 20
69.702847544586
 30
0.0
 11
49.4987205143353
 21
119.802860692141
 31
0.0
  0
LINE
  5
    3B
  8
0
  6
CONTINUOUS
 62
     7
 10
48.7222633579167
 20
72.6006250177965
 30
0.0
 11
49.4987205143353
 21
69.702847544586
 31
0.0
  0
LINE
  5
    3C
  8
0
  6
CONTINUOUS
 62
     7
 10
49.4987205143353
 20
69.702847544586
 30
0.0
 11
50.2751776707538
 21
72.6006250177965
 31
0.0
  0
LINE
  5
    3D
  8
0
  6
CONTINUOUS
 62
     7
 10
50.2751776707538
 20
116.905083218931
 30
0.0
 11
49.4987205143353
 21
119.802860692141
 31
0.0
  0
LINE
  5
    3E
  8
0
  6
CONTINUOUS
 62
     7
 10
49.4987205143353
 20
119.802860692141
 30
0.0
 11
48.7222633579167
 21
116.905083218931
 31
0.0
  0
ENDBLK
  5
    3F
  8
0
  6
CONTINUOUS
 62
     7
  0
BLOCK
  5
    40
  8
0
  6
CONTINUOUS
 62
     7
  2
*UDIM426
 70
    65
 10
0.0
 20
0.0
 30
0.0
  3
*UDIM426
  0
TEXT
  5
    41
  8
0
  6
CONTINUOUS
 62
     7
 10
145.293949015247
 20
65.8028476090906
 30
0.0
 40
2.99999994933605
  1
161
 50
89.9999999480344
 41
0.933333333333333
 72
     1
 11
143.793949044112
 21
69.702847544586
 31
0.0
 73
     2
  0
LINE
  5
    42
  8
0
  6
CONTINUOUS
 62
     7
 10
128.741713397205
 20
37.5028478277081
 30
0.0
 11
148.29394901878
 21
37.5028478277081
 31
0.0
  0
LINE
  5
    43
  8
0
  6
CONTINUOUS
 62
     7
 10
128.741713397205
 20
101.902847261464
 30
0.0
 11
148.29394901878
 21
101.902847261464
 31
0.0
  0
LINE
  5
    44
  8
0
  6
CONTINUOUS
 62
     7
 10
146.29394901878
 20
37.5028478277081
 30
0.0
 11
146.29394901878
 21
101.902847261464
 31
0.0
  0
LINE
  5
    45
  8
0
  6
CONTINUOUS
 62
     7
 10
145.517491862361
 20
40.4006253009186
 30
0.0
 11
146.29394901878
 21
37.5028478277081
 31
0.0
  0
LINE
  5
    46
  8
0
  6
CONTINUOUS
 62
     7
 10
146.29394901878
 20
37.5028478277081
 30
0.0
 11
147.070406175198
 21
40.4006253009186
 31
0.0
  0
LINE
  5
    47
  8
0
  6
CONTINUOUS
 62
     7
 10
147.070406175198
 20
99.0050697882534
 30
0.0
 11
146.29394901878
 21
101.902847261464
 31
0.0
  0
LINE
  5
    48
  8
0
  6
CONTINUOUS
 62
     7
 10
146.29394901878
 20
101.902847261464
 30
0.0
 11
145.517491862361
 21
99.0050697882534
 31
0.0
  0
ENDBLK
  5
    49
  8
0
  6
CONTINUOUS
 62
     7
  0
BLOCK
  5
    4A
  8
0
  6
CONTINUOUS
 62
     7
  2
*UDIM427
 70
    65
 10
0.0
 20
0.0
 30
0.0
  3
*UDIM427
  0
TEXT
  5
    4B
  8
0
  6
CONTINUOUS
 62
     7
 10
81.3417016616686
 20
-1.61659366644537
 30
0.0
 40
2.99999994933605
  1
70
 50
359.999999948034
 41
0.933333333333333
 72
     1
 11
83.8417016208016
 21
-0.116593694032204
 31
0.0
 73
     2
  0
LINE
  5
    4C
  8
0
  6
CONTINUOUS
 62
     7
 10
97.8417129516602
 20
0.213145828696028
 30
0.0
 11
97.8417129516602
 21
-4.61659366870023
 31
0.0
  0
LINE
  5
    4D
  8
0
  6
CONTINUOUS
 62
     7
 10
69.841690289943
 20
-2.59628031808393
 30
0.0
 11
69.841690289943
 21
-4.61659366870023
 31
0.0
  0
LINE
  5
    4E
  8
0
  6
CONTINUOUS
 62
     7
 10
97.8417129516602
 20
-2.61659366870023
 30
0.0
 11
69.841690289943
 21
-2.61659366870023
 31
0.0
  0
LINE
  5
    4F
  8
0
  6
CONTINUOUS
 62
     7
 10
94.9439354784496
 20
-3.39305082511877
 30
0.0
 11
97.8417129516602
 21
-2.61659366870023
 31
0.0
  0
LINE
  5
    50
  8
0
  6
CONTINUOUS
 62
     7
 10
97.8417129516602
 20
-2.61659366870023
 30
0.0
 11
94.9439354784496
 21
-1.84013651228169
 31
0.0
  0
LINE
  5
    51
  8
0
  6
CONTINUOUS
 62
     7
 10
72.7394677631535
 20
-1.84013651228169
 30
0.0
 11
69.841690289943
 21
-2.61659366870023
 31
0.0
  0
LINE
  5
    52
  8
0
  6
CONTINUOUS
 62
     7
 10
69.841690289943
 20
-2.61659366870023
 30
0.0
 11
72.7394677631535
 21
-3.39305082511877
 31
0.0
  0
ENDBLK
  5
    53
  8
0
  6
CONTINUOUS
 62
     7
  0
BLOCK
  5
    54
  8
0
  6
CONTINUOUS
 62
     7
  2
*UDIM428
 70
    65
 10
0.0
 20
0.0
 30
0.0
  3
*UDIM428
  0
TEXT
  5
    55
  8
0
  6
CONTINUOUS
 62
     7
 10
109.341688674124
 20
-1.61659366644537
 30
0.0
 40
2.99999994933605
  1
70
 50
359.999999948034
 41
0.933333333333333
 72
     1
 11
111.841688633256
 21
-0.116593694032204
 31
0.0
 73
     2
  0
LINE
  5
    56
  8
0
  6
CONTINUOUS
 62
     7
 10
125.841664314853
 20
0.453953784134313
 30
0.0
 11
125.841664314853
 21
-4.61659366870023
 31
0.0
  0
LINE
  5
    57
  8
0
  6
CONTINUOUS
 62
     7
 10
125.841664314853
 20
-2.61659366870023
 30
0.0
 11
97.8417129516602
 21
-2.61659366870023
 31
0.0
  0
LINE
  5
    58
  8
0
  6
CONTINUOUS
 62
     7
 10
122.943886841642
 20
-3.39305082511877
 30
0.0
 11
125.841664314853
 21
-2.61659366870023
 31
0.0
  0
LINE
  5
    59
  8
0
  6
CONTINUOUS
 62
     7
 10
125.841664314853
 20
-2.61659366870023
 30
0.0
 11
122.943886841642
 21
-1.84013651228169
 31
0.0
  0
LINE
  5
    5A
  8
0
  6
CONTINUOUS
 62
     7
 10
100.739490424871
 20
-1.84013651228169
 30
0.0
 11
97.8417129516602
 21
-2.61659366870023
 31
0.0
  0
LINE
  5
    5B
  8
0
  6
CONTINUOUS
 62
     7
 10
97.8417129516602
 20
-2.61659366870023
 30
0.0
 11
100.739490424871
 21
-3.39305082511877
 31
0.0
  0
ENDBLK
  5
    5C
  8
0
  6
CONTINUOUS
 62
     7
  0
BLOCK
  5
    5D
  8
0
  6
CONTINUOUS
 62
     7
  2
*UDIM429
 70
    65
 10
0.0
 20
0.0
 30
0.0
  3
*UDIM429
  0
TEXT
  5
    5E
  8
0
  6
CONTINUOUS
 62
     7
 10
93.9417191196861
 20
-16.7565513041735
 30
0.0
 40
2.99999994933605
  1
140
 50
359.999999948034
 41
0.933333333333333
 72
     1
 11
97.8417190551759
 21
-15.256551333023
 31
0.0
 73
     2
  0
LINE
  5
    5F
  8
0
  6
CONTINUOUS
 62
     7
 10
125.841713368892
 20
47.9028594713021
 30
0.0
 11
125.841713368892
 21
-19.756551307691
 31
0.0
  0
LINE
  5
    60
  8
0
  6
CONTINUOUS
 62
     7
 10
69.8417247414594
 20
47.9028594120447
 30
0.0
 11
69.8417247414594
 21
-19.756551307691
 31
0.0
  0
LINE
  5
    61
  8
0
  6
CONTINUOUS
 62
     7
 10
125.841713368892
 20
-17.756551307691
 30
0.0
 11
69.8417247414594
 21
-17.756551307691
 31
0.0
  0
LINE
  5
    62
  8
0
  6
CONTINUOUS
 62
     7
 10
122.943935895682
 20
-18.5330084641096
 30
0.0
 11
125.841713368892
 21
-17.756551307691
 31
0.0
  0
LINE
  5
    63
  8
0
  6
CONTINUOUS
 62
     7
 10
125.841713368892
 20
-17.756551307691
 30
0.0
 11
122.943935895682
 21
-16.9800941512725
 31
0.0
  0
LINE
  5
    64
  8
0
  6
CONTINUOUS
 62
     7
 10
72.7395022146699
 20
-16.9800941512725
 30
0.0
 11
69.8417247414594
 21
-17.756551307691
 31
0.0
  0
LINE
  5
    65
  8
0
  6
CONTINUOUS
 62
     7
 10
69.8417247414594
 20
-17.756551307691
 30
0.0
 11
72.7395022146699
 21
-18.5330084641096
 31
0.0
  0
ENDBLK
  5
    66
  8
0
  6
CONTINUOUS
 62
     7
  0
BLOCK
  5
    67
  8
0
  6
CONTINUOUS
 62
     7
  2
*UDIM430
 70
    65
 10
0.0
 20
0.0
 30
0.0
  3
*UDIM430
  0
TEXT
  5
    68
  8
0
  6
CONTINUOUS
 62
     7
 10
93.9417130161704
 20
123.588404558736
 30
0.0
 40
2.99999994933605
  1
152
 50
359.999999948034
 41
0.933333333333333
 72
     1
 11
97.8417129516602
 21
125.088404529887
 31
0.0
 73
     2
  0
LINE
  5
    69
  8
0
  6
CONTINUOUS
 62
     7
 10
128.241713404655
 20
102.402847254013
 30
0.0
 11
128.241713404655
 21
124.588404555219
 31
0.0
  0
LINE
  5
    6A
  8
0
  6
CONTINUOUS
 62
     7
 10
67.4417124986649
 20
102.402847254013
 30
0.0
 11
67.4417124986649
 21
124.588404555219
 31
0.0
  0
LINE
  5
    6B
  8
0
  6
CONTINUOUS
 62
     7
 10
128.241713404655
 20
122.588404555219
 30
0.0
 11
67.4417124986649
 21
122.588404555219
 31
0.0
  0
LINE
  5
    6C
  8
0
  6
CONTINUOUS
 62
     7
 10
125.343935931445
 20
121.8119473988
 30
0.0
 11
128.241713404655
 21
122.588404555219
 31
0.0
  0
LINE
  5
    6D
  8
0
  6
CONTINUOUS
 62
     7
 10
128.241713404655
 20
122.588404555219
 30
0.0
 11
125.343935931445
 21
123.364861711637
 31
0.0
  0
LINE
  5
    6E
  8
0
  6
CONTINUOUS
 62
     7
 10
70.3394899718754
 20
123.364861711637
 30
0.0
 11
67.4417124986649
 21
122.588404555219
 31
0.0
  0
LINE
  5
    6F
  8
0
  6
CONTINUOUS
 62
     7
 10
67.4417124986649
 20
122.588404555219
 30
0.0
 11
70.3394899718754
 21
121.8119473988
 31
0.0
  0
ENDBLK
  5
    70
  8
0
  6
CONTINUOUS
 62
     7
  0
BLOCK
  5
    71
  8
0
  6
CONTINUOUS
 62
     7
  2
*UDIM431
 70
    65
 10
0.0
 20
0.0
 30
0.0
  3
*UDIM431
  0
TEXT
  5
    72
  8
0
  6
CONTINUOUS
 62
     7
 10
93.9417160679283
 20
28.7884564798476
 30
0.0
 40
2.99999994933605
  1
140
 50
359.999999948034
 41
0.933333333333333
 72
     1
 11
97.8417160034181
 21
30.288456450998
 31
0.0
 73
     2
  0
LINE
  5
    73
  8
0
  6
CONTINUOUS
 62
     7
 10
125.841713368893
 20
59.3028596115463
 30
0.0
 11
125.841713368893
 21
25.78845647633
 31
0.0
  0
LINE
  5
    74
  8
0
  6
CONTINUOUS
 62
     7
 10
69.8417186379434
 20
59.3028535080305
 30
0.0
 11
69.8417186379434
 21
25.78845647633
 31
0.0
  0
LINE
  5
    75
  8
0
  6
CONTINUOUS
 62
     7
 10
125.841713368893
 20
27.78845647633
 30
0.0
 11
69.8417186379434
 21
27.78845647633
 31
0.0
  0
LINE
  5
    76
  8
0
  6
CONTINUOUS
 62
     7
 10
122.943935895682
 20
27.0119993199115
 30
0.0
 11
125.841713368893
 21
27.78845647633
 31
0.0
  0
LINE
  5
    77
  8
0
  6
CONTINUOUS
 62
     7
 10
125.841713368893
 20
27.78845647633
 30
0.0
 11
122.943935895682
 21
28.5649136327486
 31
0.0
  0
LINE
  5
    78
  8
0
  6
CONTINUOUS
 62
     7
 10
72.7394961111539
 20
28.5649136327486
 30
0.0
 11
69.8417186379434
 21
27.78845647633
 31
0.0
  0
LINE
  5
    79
  8
0
  6
CONTINUOUS
 62
     7
 10
69.8417186379434
 20
27.78845647633
 30
0.0
 11
72.7394961111539
 21
27.0119993199115
 31
0.0
  0
ENDBLK
  5
    7A
  8
0
  6
CONTINUOUS
 62
     7
  0
BLOCK
  5
    7B
  8
0
  6
CONTINUOUS
 62
     7
  2
*UDIM432
 70
    65
 10
0.0
 20
0.0
 30
0.0
  3
*UDIM432
  0
TEXT
  5
    7C
  8
0
  6
CONTINUOUS
 62
     7
 10
99.9417072049166
 20
145.900620451334
 30
0.0
 40
2.99999994933605
  1
23
 50
359.999999948034
 41
0.933333333333333
 72
     1
 11
102.44170716405
 21
147.400620423747
 31
0.0
 73
     2
  0
LINE
  5
    7D
  8
0
  6
CONTINUOUS
 62
     7
 10
107.041701376439
 20
154.002840764817
 30
0.0
 11
107.041701376439
 21
142.900620449079
 31
0.0
  0
LINE
  5
    7E
  8
0
  6
CONTINUOUS
 62
     7
 10
112.041701376439
 20
144.900620449079
 30
0.0
 11
92.8417129516602
 21
144.900620449079
 31
0.0
  0
LINE
  5
    7F
  8
0
  6
CONTINUOUS
 62
     7
 10
109.93947884965
 20
145.677077605497
 30
0.0
 11
107.041701376439
 21
144.900620449079
 31
0.0
  0
LINE
  5
    80
  8
0
  6
CONTINUOUS
 62
     7
 10
107.041701376439
 20
144.900620449079
 30
0.0
 11
109.93947884965
 21
144.12416329266
 31
0.0
  0
LINE
  5
    81
  8
0
  6
CONTINUOUS
 62
     7
 10
94.9439354784496
 20
144.12416329266
 30
0.0
 11
97.8417129516602
 21
144.900620449079
 31
0.0
  0
LINE
  5
    82
  8
0
  6
CONTINUOUS
 62
     7
 10
97.8417129516602
 20
144.900620449079
 30
0.0
 11
94.9439354784496
 21
145.677077605497
 31
0.0
  0
ENDBLK
  5
    83
  8
0
  6
CONTINUOUS
 62
     7
  0
BLOCK
  5
    84
  8
0
  6
CONTINUOUS
 62
     7
  2
*UDIM433
 70
    65
 10
0.0
 20
0.0
 30
0.0
  3
*UDIM433
  0
TEXT
  5
    85
  8
0
  6
CONTINUOUS
 62
     7
 10
84.3439517302874
 20
172.711182382225
 30
0.0
 40
2.99999994933605
  1
22,5
 50
359.999999948034
 41
0.933333333333333
 72
     1
 11
89.643951642134
 21
174.211182352113
 31
0.0
 73
     2
  0
LINE
  5
    86
  8
0
  6
CONTINUOUS
 62
     7
 10
107.041701376439
 20
162.802842948275
 30
0.0
 11
107.041701376439
 21
173.711182377445
 31
0.0
  0
LINE
  5
    87
  8
0
  6
CONTINUOUS
 62
     7
 10
98.0418108127213
 20
162.80284528761
 30
0.0
 11
98.0418108127213
 21
173.711182377445
 31
0.0
  0
LINE
  5
    88
  8
0
  6
CONTINUOUS
 62
     7
 10
107.041701376439
 20
171.711182377445
 30
0.0
 11
84.3439517316403
 21
171.711182377445
 31
0.0
  0
LINE
  5
    89
  8
0
  6
CONTINUOUS
 62
     7
 10
109.93947884965
 20
172.487639533863
 30
0.0
 11
107.041701376439
 21
171.711182377445
 31
0.0
  0
LINE
  5
    8A
  8
0
  6
CONTINUOUS
 62
     7
 10
107.041701376439
 20
171.711182377445
 30
0.0
 11
109.93947884965
 21
170.934725221026
 31
0.0
  0
LINE
  5
    8B
  8
0
  6
CONTINUOUS
 62
     7
 10
95.1440333395108
 20
170.934725221026
 30
0.0
 11
98.0418108127213
 21
171.711182377445
 31
0.0
  0
LINE
  5
    8C
  8
0
  6
CONTINUOUS
 62
     7
 10
98.0418108127213
 20
171.711182377445
 30
0.0
 11
95.1440333395108
 21
172.487639533863
 31
0.0
  0
ENDBLK
  5
    8D
  8
0
  6
CONTINUOUS
 62
     7
  0
BLOCK
  5
    8E
  8
0
  6
CONTINUOUS
 62
     7
  2
*UDIM434
 70
    65
 10
0.0
 20
0.0
 30
0.0
  3
*UDIM434
  0
TEXT
  5
    8F
  8
0
  6
CONTINUOUS
 62
     7
 10
119.062664247109
 20
172.711182382225
 30
0.0
 40
2.99999994933605
  1
22,5
 50
359.999999948034
 41
0.933333333333333
 72
     1
 11
124.362664158956
 21
174.211182352113
 31
0.0
 73
     2
  0
LINE
  5
    90
  8
0
  6
CONTINUOUS
 62
     7
 10
116.041597750782
 20
162.802863963182
 30
0.0
 11
116.041597750782
 21
173.711182377445
 31
0.0
  0
LINE
  5
    91
  8
0
  6
CONTINUOUS
 62
     7
 10
129.662664069449
 20
171.711182377445
 30
0.0
 11
107.041701376439
 21
171.711182377445
 31
0.0
  0
LINE
  5
    92
  8
0
  6
CONTINUOUS
 62
     7
 10
118.939375223993
 20
172.487639533863
 30
0.0
 11
116.041597750782
 21
171.711182377445
 31
0.0
  0
LINE
  5
    93
  8
0
  6
CONTINUOUS
 62
     7
 10
116.041597750782
 20
171.711182377445
 30
0.0
 11
118.939375223993
 21
170.934725221026
 31
0.0
  0
CIRCLE
  5
    94
  8
0
  6
CONTINUOUS
 62
     7
 10
107.041701376439
 20
171.711182377445
 30
0.0
 40
0.5
  0
ENDBLK
  5
    95
  8
0
  6
CONTINUOUS
 62
     7
  0
BLOCK
  5
    96
  8
0
  6
CONTINUOUS
 62
     7
  2
*UDIM435
 70
    65
 10
0.0
 20
0.0
 30
0.0
  3
*UDIM435
  0
TEXT
  5
    97
  8
0
  6
CONTINUOUS
 62
     7
 10
49.1418933796659
 20
181.641606964472
 30
0.0
 40
2.99999994933605
  1
45
 50
359.999999948034
 41
0.933333333333333
 72
     1
 11
51.6418933387988
 21
183.141606936885
 31
0.0
 73
     2
  0
LINE
  5
    98
  8
0
  6
CONTINUOUS
 62
     7
 10
60.6418940000484
 20
162.802858345716
 30
0.0
 11
60.6418940000484
 21
182.641606962217
 31
0.0
  0
LINE
  5
    99
  8
0
  6
CONTINUOUS
 62
     7
 10
42.6418926775493
 20
167.402854740487
 30
0.0
 11
42.6418926775493
 21
182.641606962217
 31
0.0
  0
LINE
  5
    9A
  8
0
  6
CONTINUOUS
 62
     7
 10
60.6418940000484
 20
180.641606962217
 30
0.0
 11
42.6418926775493
 21
180.641606962217
 31
0.0
  0
LINE
  5
    9B
  8
0
  6
CONTINUOUS
 62
     7
 10
57.7441165268379
 20
179.865149805799
 30
0.0
 11
60.6418940000484
 21
180.641606962217
 31
0.0
  0
LINE
  5
    9C
  8
0
  6
CONTINUOUS
 62
     7
 10
60.6418940000484
 20
180.641606962217
 30
0.0
 11
57.7441165268379
 21
181.418064118636
 31
0.0
  0
LINE
  5
    9D
  8
0
  6
CONTINUOUS
 62
     7
 10
45.5396701507598
 20
181.418064118636
 30
0.0
 11
42.6418926775493
 21
180.641606962217
 31
0.0
  0
LINE
  5
    9E
  8
0
  6
CONTINUOUS
 62
     7
 10
42.6418926775493
 20
180.641606962217
 30
0.0
 11
45.5396701507598
 21
179.865149805799
 31
0.0
  0
ENDBLK
  5
    9F
  8
0
  6
CONTINUOUS
 62
     7
  0
BLOCK
  5
    A0
  8
0
  6
CONTINUOUS
 62
     7
  2
*UDIM436
 70
    65
 10
0.0
 20
0.0
 30
0.0
  3
*UDIM436
  0
TEXT
  5
    A1
  8
0
  6
CONTINUOUS
 62
     7
 10
79.9417977527539
 20
181.641606965735
 30
0.0
 40
2.99999994933605
  1
116
 50
359.999999948034
 41
0.933333333333333
 72
     1
 11
83.8417976882437
 21
183.141606936885
 31
0.0
 73
     2
  0
LINE
  5
    A2
  8
0
  6
CONTINUOUS
 62
     7
 10
107.041701376439
 20
162.802842948275
 30
0.0
 11
107.041701376439
 21
182.641606962217
 31
0.0
  0
LINE
  5
    A3
  8
0
  6
CONTINUOUS
 62
     7
 10
107.041701376439
 20
180.641606962217
 30
0.0
 11
60.6418940000484
 21
180.641606962217
 31
0.0
  0
LINE
  5
    A4
  8
0
  6
CONTINUOUS
 62
     7
 10
104.143923903228
 20
179.865149805799
 30
0.0
 11
107.041701376439
 21
180.641606962217
 31
0.0
  0
LINE
  5
    A5
  8
0
  6
CONTINUOUS
 62
     7
 10
107.041701376439
 20
180.641606962217
 30
0.0
 11
104.143923903228
 21
181.418064118636
 31
0.0
  0
LINE
  5
    A6
  8
0
  6
CONTINUOUS
 62
     7
 10
63.539671473259
 20
181.418064118636
 30
0.0
 11
60.6418940000484
 21
180.641606962217
 31
0.0
  0
LINE
  5
    A7
  8
0
  6
CONTINUOUS
 62
     7
 10
60.6418940000484
 20
180.641606962217
 30
0.0
 11
63.539671473259
 21
179.865149805799
 31
0.0
  0
ENDBLK
  5
    A8
  8
0
  6
CONTINUOUS
 62
     7
  0
BLOCK
  5
    A9
  8
0
  6
CONTINUOUS
 62
     7
  2
*UDIM437
 70
    65
 10
0.0
 20
0.0
 30
0.0
  3
*UDIM437
  0
TEXT
  5
    AA
  8
0
  6
CONTINUOUS
 62
     7
 10
126.341700974895
 20
181.641606965735
 30
0.0
 40
2.99999994933605
  1
116
 50
359.999999948034
 41
0.933333333333333
 72
     1
 11
130.241700910385
 21
183.141606936885
 31
0.0
 73
     2
  0
LINE
  5
    AB
  8
0
  6
CONTINUOUS
 62
     7
 10
153.44170044433
 20
162.802829846597
 30
0.0
 11
153.44170044433
 21
182.641606962217
 31
0.0
  0
LINE
  5
    AC
  8
0
  6
CONTINUOUS
 62
     7
 10
153.44170044433
 20
180.641606962217
 30
0.0
 11
107.041701376439
 21
180.641606962217
 31
0.0
  0
LINE
  5
    AD
  8
0
  6
CONTINUOUS
 62
     7
 10
150.54392297112
 20
179.865149805799
 30
0.0
 11
153.44170044433
 21
180.641606962217
 31
0.0
  0
LINE
  5
    AE
  8
0
  6
CONTINUOUS
 62
     7
 10
153.44170044433
 20
180.641606962217
 30
0.0
 11
150.54392297112
 21
181.418064118636
 31
0.0
  0
LINE
  5
    AF
  8
0
  6
CONTINUOUS
 62
     7
 10
109.93947884965
 20
181.418064118636
 30
0.0
 11
107.041701376439
 21
180.641606962217
 31
0.0
  0
LINE
  5
    B0
  8
0
  6
CONTINUOUS
 62
     7
 10
107.041701376439
 20
180.641606962217
 30
0.0
 11
109.93947884965
 21
179.865149805799
 31
0.0
  0
ENDBLK
  5
    B1
  8
0
  6
CONTINUOUS
 62
     7
  0
BLOCK
  5
    B2
  8
0
  6
CONTINUOUS
 62
     7
  2
*UDIM438
 70
    65
 10
0.0
 20
0.0
 30
0.0
  3
*UDIM438
  0
TEXT
  5
    B3
  8
0
  6
CONTINUOUS
 62
     7
 10
159.941674716145
 20
181.641606964472
 30
0.0
 40
2.99999994933605
  1
45
 50
359.999999948034
 41
0.933333333333333
 72
     1
 11
162.441674675278
 21
183.141606936885
 31
0.0
 73
     2
  0
LINE
  5
    B4
  8
0
  6
CONTINUOUS
 62
     7
 10
171.441648906225
 20
167.402830326424
 30
0.0
 11
171.441648906225
 21
182.641606962217
 31
0.0
  0
LINE
  5
    B5
  8
0
  6
CONTINUOUS
 62
     7
 10
171.441648906225
 20
180.641606962217
 30
0.0
 11
153.44170044433
 21
180.641606962217
 31
0.0
  0
LINE
  5
    B6
  8
0
  6
CONTINUOUS
 62
     7
 10
168.543871433015
 20
179.865149805799
 30
0.0
 11
171.441648906225
 21
180.641606962217
 31
0.0
  0
LINE
  5
    B7
  8
0
  6
CONTINUOUS
 62
     7
 10
171.441648906225
 20
180.641606962217
 30
0.0
 11
168.543871433015
 21
181.418064118636
 31
0.0
  0
LINE
  5
    B8
  8
0
  6
CONTINUOUS
 62
     7
 10
156.339477917541
 20
181.418064118636
 30
0.0
 11
153.44170044433
 21
180.641606962217
 31
0.0
  0
LINE
  5
    B9
  8
0
  6
CONTINUOUS
 62
     7
 10
153.44170044433
 20
180.641606962217
 30
0.0
 11
156.339477917541
 21
179.865149805799
 31
0.0
  0
ENDBLK
  5
    BA
  8
0
  6
CONTINUOUS
 62
     7
  0
BLOCK
  5
    BB
  8
0
  6
CONTINUOUS
 62
     7
  2
*UDIM439
 70
    65
 10
0.0
 20
0.0
 30
0.0
  3
*UDIM439
  0
TEXT
  5
    BC
  8
0
  6
CONTINUOUS
 62
     7
 10
150.941655262576
 20
172.672606031601
 30
0.0
 40
2.99999994933605
  1
90
 50
359.999999948034
 41
0.933333333333333
 72
     1
 11
153.441655221709
 21
174.172606004015
 31
0.0
 73
     2
  0
LINE
  5
    BD
  8
0
  6
CONTINUOUS
 62
     7
 10
171.441648906225
 20
167.402830326424
 30
0.0
 11
171.441648906225
 21
173.672606029346
 31
0.0
  0
LINE
  5
    BE
  8
0
  6
CONTINUOUS
 62
     7
 10
135.441661537192
 20
167.402842533456
 30
0.0
 11
135.441661537192
 21
173.672606029346
 31
0.0
  0
LINE
  5
    BF
  8
0
  6
CONTINUOUS
 62
     7
 10
171.441648906225
 20
171.672606029346
 30
0.0
 11
135.441661537192
 21
171.672606029346
 31
0.0
  0
LINE
  5
    C0
  8
0
  6
CONTINUOUS
 62
     7
 10
168.543871433015
 20
170.896148872928
 30
0.0
 11
171.441648906225
 21
171.672606029346
 31
0.0
  0
LINE
  5
    C1
  8
0
  6
CONTINUOUS
 62
     7
 10
171.441648906225
 20
171.672606029346
 30
0.0
 11
168.543871433015
 21
172.449063185765
 31
0.0
  0
LINE
  5
    C2
  8
0
  6
CONTINUOUS
 62
     7
 10
138.339439010403
 20
172.449063185765
 30
0.0
 11
135.441661537192
 21
171.672606029346
 31
0.0
  0
LINE
  5
    C3
  8
0
  6
CONTINUOUS
 62
     7
 10
135.441661537192
 20
171.672606029346
 30
0.0
 11
138.339439010403
 21
170.896148872928
 31
0.0
  0
ENDBLK
  5
    C4
  8
0
  6
CONTINUOUS
 62
     7
  0
BLOCK
  5
    C5
  8
0
  6
CONTINUOUS
 62
     7
  2
*UDIM440
 70
    65
 10
0.0
 20
0.0
 30
0.0
  3
*UDIM440
  0
TEXT
  5
    C6
  8
0
  6
CONTINUOUS
 62
     7
 10
46.7918069949333
 20
-45.2066080279828
 30
0.0
 40
2.99999994933605
  1
33
 50
359.999999948034
 41
0.933333333333333
 72
     1
 11
49.2918069540663
 21
-43.7066080555697
 31
0.0
 73
     2
  0
LINE
  5
    C7
  8
0
  6
CONTINUOUS
 62
     7
 10
55.9417212305833
 20
12.7228525087612
 30
0.0
 11
55.9417212305833
 21
-48.2066080302377
 31
0.0
  0
LINE
  5
    C8
  8
0
  6
CONTINUOUS
 62
     7
 10
42.6418926775493
 20
-34.9971473546134
 30
0.0
 11
42.6418926775493
 21
-48.2066080302377
 31
0.0
  0
LINE
  5
    C9
  8
0
  6
CONTINUOUS
 62
     7
 10
55.9417212305833
 20
-46.2066080302377
 30
0.0
 11
37.6418926775493
 21
-46.2066080302377
 31
0.0
  0
LINE
  5
    CA
  8
0
  6
CONTINUOUS
 62
     7
 10
58.8394987037938
 20
-45.4301508738191
 30
0.0
 11
55.9417212305833
 21
-46.2066080302377
 31
0.0
  0
LINE
  5
    CB
  8
0
  6
CONTINUOUS
 62
     7
 10
55.9417212305833
 20
-46.2066080302377
 30
0.0
 11
58.8394987037938
 21
-46.9830651866562
 31
0.0
  0
LINE
  5
    CC
  8
0
  6
CONTINUOUS
 62
     7
 10
39.7441152043387
 20
-46.9830651866562
 30
0.0
 11
42.6418926775493
 21
-46.2066080302377
 31
0.0
  0
LINE
  5
    CD
  8
0
  6
CONTINUOUS
 62
     7
 10
42.6418926775493
 20
-46.2066080302377
 30
0.0
 11
39.7441152043387
 21
-45.4301508738191
 31
0.0
  0
ENDBLK
  5
    CE
  8
0
  6
CONTINUOUS
 62
     7
  0
BLOCK
  5
    CF
  8
0
  6
CONTINUOUS
 62
     7
  2
*UDIM441
 70
    65
 10
0.0
 20
0.0
 30
0.0
  3
*UDIM441
  0
TEXT
  5
    D0
  8
0
  6
CONTINUOUS
 62
     7
 10
93.9417219194521
 20
-45.2066080267201
 30
0.0
 40
2.99999994933605
  1
210
 50
359.999999948034
 41
0.933333333333333
 72
     1
 11
97.8417218549419
 21
-43.7066080555697
 31
0.0
 73
     2
  0
LINE
  5
    D1
  8
0
  6
CONTINUOUS
 62
     7
 10
139.741722479301
 20
12.7228525087612
 30
0.0
 11
139.741722479301
 21
-48.2066080302377
 31
0.0
  0
LINE
  5
    D2
  8
0
  6
CONTINUOUS
 62
     7
 10
139.741722479301
 20
-46.2066080302377
 30
0.0
 11
55.9417212305833
 21
-46.2066080302377
 31
0.0
  0
LINE
  5
    D3
  8
0
  6
CONTINUOUS
 62
     7
 10
136.84394500609
 20
-46.9830651866562
 30
0.0
 11
139.741722479301
 21
-46.2066080302377
 31
0.0
  0
LINE
  5
    D4
  8
0
  6
CONTINUOUS
 62
     7
 10
139.741722479301
 20
-46.2066080302377
 30
0.0
 11
136.84394500609
 21
-45.4301508738191
 31
0.0
  0
LINE
  5
    D5
  8
0
  6
CONTINUOUS
 62
     7
 10
58.8394987037938
 20
-45.4301508738191
 30
0.0
 11
55.9417212305833
 21
-46.2066080302377
 31
0.0
  0
LINE
  5
    D6
  8
0
  6
CONTINUOUS
 62
     7
 10
55.9417212305833
 20
-46.2066080302377
 30
0.0
 11
58.8394987037938
 21
-46.9830651866562
 31
0.0
  0
ENDBLK
  5
    D7
  8
0
  6
CONTINUOUS
 62
     7
  0
BLOCK
  5
    D8
  8
0
  6
CONTINUOUS
 62
     7
  2
*UDIM442
 70
    65
 10
0.0
 20
0.0
 30
0.0
  3
*UDIM442
  0
TEXT
  5
    D9
  8
0
  6
CONTINUOUS
 62
     7
 10
153.09168573363
 20
-45.2066080279828
 30
0.0
 40
2.99999994933605
  1
79
 50
359.999999948034
 41
0.933333333333333
 72
     1
 11
155.591685692763
 21
-43.7066080555697
 31
0.0
 73
     2
  0
LINE
  5
    DA
  8
0
  6
CONTINUOUS
 62
     7
 10
171.441648906225
 20
-34.9971229405506
 30
0.0
 11
171.441648906225
 21
-48.2066080302377
 31
0.0
  0
LINE
  5
    DB
  8
0
  6
CONTINUOUS
 62
     7
 10
171.441648906225
 20
-46.2066080302377
 30
0.0
 11
139.741722479301
 21
-46.2066080302377
 31
0.0
  0
LINE
  5
    DC
  8
0
  6
CONTINUOUS
 62
     7
 10
168.543871433015
 20
-46.9830651866562
 30
0.0
 11
171.441648906225
 21
-46.2066080302377
 31
0.0
  0
LINE
  5
    DD
  8
0
  6
CONTINUOUS
 62
     7
 10
171.441648906225
 20
-46.2066080302377
 30
0.0
 11
168.543871433015
 21
-45.4301508738191
 31
0.0
  0
LINE
  5
    DE
  8
0
  6
CONTINUOUS
 62
     7
 10
142.639499952511
 20
-45.4301508738191
 30
0.0
 11
139.741722479301
 21
-46.2066080302377
 31
0.0
  0
LINE
  5
    DF
  8
0
  6
CONTINUOUS
 62
     7
 10
139.741722479301
 20
-46.2066080302377
 30
0.0
 11
142.639499952511
 21
-46.9830651866562
 31
0.0
  0
ENDBLK
  5
    E0
  8
0
  6
CONTINUOUS
 62
     7
  0
BLOCK
  5
    E1
  8
0
  6
CONTINUOUS
 62
     7
  2
*UDIM443
 70
    65
 10
0.0
 20
0.0
 30
0.0
  3
*UDIM443
  0
TEXT
  5
    E2
  8
0
  6
CONTINUOUS
 62
     7
 10
38.1860881722568
 20
136.402857828105
 30
0.0
 40
2.99999994933605
  1
116,5
 50
89.9999999480344
 41
0.933333333333333
 72
     1
 11
36.686088203657
 21
143.102857716314
 31
0.0
 73
     2
  0
LINE
  5
    E3
  8
0
  6
CONTINUOUS
 62
     7
 10
56.2417173360686
 20
119.802860692141
 30
0.0
 11
37.1860881783251
 21
119.802860692141
 31
0.0
  0
LINE
  5
    E4
  8
0
  6
CONTINUOUS
 62
     7
 10
41.6418926775493
 20
166.402854740487
 30
0.0
 11
37.1860881783251
 21
166.402854740487
 31
0.0
  0
LINE
  5
    E5
  8
0
  6
CONTINUOUS
 62
     7
 10
39.1860881783251
 20
119.802860692141
 30
0.0
 11
39.1860881783251
 21
166.402854740487
 31
0.0
  0
LINE
  5
    E6
  8
0
  6
CONTINUOUS
 62
     7
 10
38.4096310219065
 20
122.700638165352
 30
0.0
 11
39.1860881783251
 21
119.802860692141
 31
0.0
  0
LINE
  5
    E7
  8
0
  6
CONTINUOUS
 62
     7
 10
39.1860881783251
 20
119.802860692141
 30
0.0
 11
39.9625453347436
 21
122.700638165352
 31
0.0
  0
LINE
  5
    E8
  8
0
  6
CONTINUOUS
 62
     7
 10
39.9625453347436
 20
163.505077267277
 30
0.0
 11
39.1860881783251
 21
166.402854740487
 31
0.0
  0
LINE
  5
    E9
  8
0
  6
CONTINUOUS
 62
     7
 10
39.1860881783251
 20
166.402854740487
 30
0.0
 11
38.4096310219065
 21
163.505077267277
 31
0.0
  0
ENDBLK
  5
    EA
  8
0
  6
CONTINUOUS
 62
     7
  0
BLOCK
  5
    EB
  8
0
  6
CONTINUOUS
 62
     7
  2
*UDIM444
 70
    65
 10
0.0
 20
0.0
 30
0.0
  3
*UDIM444
  0
TEXT
  5
    EC
  8
0
  6
CONTINUOUS
 62
     7
 10
38.1860881747928
 20
62.3028568091998
 30
0.0
 40
2.99999994933605
  1
268
 50
89.9999999480344
 41
0.933333333333333
 72
     1
 11
36.686088203657
 21
66.2028567446952
 31
0.0
 73
     2
  0
LINE
  5
    ED
  8
0
  6
CONTINUOUS
 62
     7
 10
56.4417002247944
 20
12.6028527972493
 30
0.0
 11
37.1860881783251
 21
12.6028527972493
 31
0.0
  0
LINE
  5
    EE
  8
0
  6
CONTINUOUS
 62
     7
 10
39.1860881783251
 20
12.6028527972493
 30
0.0
 11
39.1860881783251
 21
119.802860692141
 31
0.0
  0
LINE
  5
    EF
  8
0
  6
CONTINUOUS
 62
     7
 10
38.4096310219065
 20
15.5006302704599
 30
0.0
 11
39.1860881783251
 21
12.6028527972493
 31
0.0
  0
LINE
  5
    F0
  8
0
  6
CONTINUOUS
 62
     7
 10
39.1860881783251
 20
12.6028527972493
 30
0.0
 11
39.9625453347436
 21
15.5006302704599
 31
0.0
  0
LINE
  5
    F1
  8
0
  6
CONTINUOUS
 62
     7
 10
39.9625453347436
 20
116.905083218931
 30
0.0
 11
39.1860881783251
 21
119.802860692141
 31
0.0
  0
LINE
  5
    F2
  8
0
  6
CONTINUOUS
 62
     7
 10
39.1860881783251
 20
119.802860692141
 30
0.0
 11
38.4096310219065
 21
116.905083218931
 31
0.0
  0
ENDBLK
  5
    F3
  8
0
  6
CONTINUOUS
 62
     7
  0
BLOCK
  5
    F4
  8
0
  6
CONTINUOUS
 62
     7
  2
*UDIM445
 70
    65
 10
0.0
 20
0.0
 30
0.0
  3
*UDIM445
  0
TEXT
  5
    F5
  8
0
  6
CONTINUOUS
 62
     7
 10
38.1860881722568
 20
-17.3971471668911
 30
0.0
 40
2.99999994933605
  1
116,5
 50
89.9999999480344
 41
0.933333333333333
 72
     1
 11
36.686088203657
 21
-10.6971472786821
 31
0.0
 73
     2
  0
LINE
  5
    F6
  8
0
  6
CONTINUOUS
 62
     7
 10
41.6418926775493
 20
-33.9971473546134
 30
0.0
 11
37.1860881783251
 21
-33.9971473546134
 31
0.0
  0
LINE
  5
    F7
  8
0
  6
CONTINUOUS
 62
     7
 10
39.1860881783251
 20
-33.9971473546134
 30
0.0
 11
39.1860881783251
 21
12.6028527972493
 31
0.0
  0
LINE
  5
    F8
  8
0
  6
CONTINUOUS
 62
     7
 10
38.4096310219065
 20
-31.0993698814029
 30
0.0
 11
39.1860881783251
 21
-33.9971473546134
 31
0.0
  0
LINE
  5
    F9
  8
0
  6
CONTINUOUS
 62
     7
 10
39.1860881783251
 20
-33.9971473546134
 30
0.0
 11
39.9625453347436
 21
-31.0993698814029
 31
0.0
  0
LINE
  5
    FA
  8
0
  6
CONTINUOUS
 62
     7
 10
39.9625453347436
 20
9.7050753240388
 30
0.0
 11
39.1860881783251
 21
12.6028527972493
 31
0.0
  0
LINE
  5
    FB
  8
0
  6
CONTINUOUS
 62
     7
 10
39.1860881783251
 20
12.6028527972493
 30
0.0
 11
38.4096310219065
 21
9.7050753240388
 31
0.0
  0
ENDBLK
  5
    FC
  8
0
  6
CONTINUOUS
 62
     7
  0
BLOCK
  5
    FD
  8
0
  6
CONTINUOUS
 62
     7
  2
*UDIM446
 70
    65
 10
0.0
 20
0.0
 30
0.0
  3
*UDIM446
  0
TEXT
  5
    FE
  8
0
  6
CONTINUOUS
 62
     7
 10
174.10985069559
 20
105.952836240491
 30
0.0
 40
2.99999994933605
  1
221,75
 50
89.9999999480344
 41
0.933333333333333
 72
     1
 11
172.609850728258
 21
114.052836105057
 31
0.0
 73
     2
  0
LINE
  5
    FF
  8
0
  6
CONTINUOUS
 62
     7
 10
142.994971651293
 20
69.702847544586
 30
0.0
 11
177.109850702926
 21
69.702847544586
 31
0.0
  0
LINE
  5
   100
  8
0
  6
CONTINUOUS
 62
     7
 10
166.841598492867
 20
158.402824665528
 30
0.0
 11
177.109850702926
 21
158.402824665528
 31
0.0
  0
LINE
  5
   101
  8
0
  6
CONTINUOUS
 62
     7
 10
175.109850702926
 20
69.702847544586
 30
0.0
 11
175.109850702926
 21
158.402824665528
 31
0.0
  0
LINE
  5
   102
  8
0
  6
CONTINUOUS
 62
     7
 10
174.333393546507
 20
72.6006250177965
 30
0.0
 11
175.109850702926
 21
69.702847544586
 31
0.0
  0
LINE
  5
   103
  8
0
  6
CONTINUOUS
 62
     7
 10
175.109850702926
 20
69.702847544586
 30
0.0
 11
175.886307859344
 21
72.6006250177965
 31
0.0
  0
LINE
  5
   104
  8
0
  6
CONTINUOUS
 62
     7
 10
175.886307859344
 20
155.505047192318
 30
0.0
 11
175.109850702926
 21
158.402824665528
 31
0.0
  0
LINE
  5
   105
  8
0
  6
CONTINUOUS
 62
     7
 10
175.109850702926
 20
158.402824665528
 30
0.0
 11
174.333393546507
 21
155.505047192318
 31
0.0
  0
ENDBLK
  5
   106
  8
0
  6
CONTINUOUS
 62
     7
  0
BLOCK
  5
   107
  8
0
  6
CONTINUOUS
 62
     7
  2
*UDIM447
 70
    65
 10
0.0
 20
0.0
 30
0.0
  3
*UDIM447
  0
TEXT
  5
   108
  8
0
  6
CONTINUOUS
 62
     7
 10
180.320642744499
 20
171.853662093717
 30
0.0
 40
2.99999994933605
  1
20
 50
89.9999999480344
 41
0.933333333333333
 72
     1
 11
178.820642772095
 21
174.353662052856
 31
0.0
 73
     2
  0
LINE
  5
   109
  8
0
  6
CONTINUOUS
 62
     7
 10
166.841598492867
 20
158.402824665528
 30
0.0
 11
183.320642746763
 21
158.402824665528
 31
0.0
  0
LINE
  5
   10A
  8
0
  6
CONTINUOUS
 62
     7
 10
172.441702336074
 20
166.402863341834
 30
0.0
 11
183.320642746763
 21
166.402863341834
 31
0.0
  0
LINE
  5
   10B
  8
0
  6
CONTINUOUS
 62
     7
 10
181.320642746763
 20
158.402824665528
 30
0.0
 11
181.320642746763
 21
176.853662010636
 31
0.0
  0
LINE
  5
   10C
  8
0
  6
CONTINUOUS
 62
     7
 10
182.097099903182
 20
155.505047192318
 30
0.0
 11
181.320642746763
 21
158.402824665528
 31
0.0
  0
LINE
  5
   10D
  8
0
  6
CONTINUOUS
 62
     7
 10
181.320642746763
 20
158.402824665528
 30
0.0
 11
180.544185590345
 21
155.505047192318
 31
0.0
  0
LINE
  5
   10E
  8
0
  6
CONTINUOUS
 62
     7
 10
180.544185590345
 20
169.300640815045
 30
0.0
 11
181.320642746763
 21
166.402863341834
 31
0.0
  0
LINE
  5
   10F
  8
0
  6
CONTINUOUS
 62
     7
 10
181.320642746763
 20
166.402863341834
 30
0.0
 11
182.097099903182
 21
169.300640815045
 31
0.0
  0
ENDBLK
  5
   110
  8
0
  6
CONTINUOUS
 62
     7
  0
BLOCK
  5
   111
  8
0
  6
CONTINUOUS
 62
     7
  2
*UDIM448
 70
    65
 10
0.0
 20
0.0
 30
0.0
  3
*UDIM448
  0
TEXT
  5
   112
  8
0
  6
CONTINUOUS
 62
     7
 10
180.320642743231
 20
62.3028537574415
 30
0.0
 40
2.99999994933605
  1
461
 50
89.9999999480344
 41
0.933333333333333
 72
     1
 11
178.820642772095
 21
66.2028536929369
 31
0.0
 73
     2
  0
LINE
  5
   113
  8
0
  6
CONTINUOUS
 62
     7
 10
166.841598492867
 20
-25.9971172796544
 30
0.0
 11
183.320642746763
 21
-25.9971172796544
 31
0.0
  0
LINE
  5
   114
  8
0
  6
CONTINUOUS
 62
     7
 10
181.320642746763
 20
-25.9971172796544
 30
0.0
 11
181.320642746763
 21
158.402824665528
 31
0.0
  0
LINE
  5
   115
  8
0
  6
CONTINUOUS
 62
     7
 10
180.544185590345
 20
-23.0993398064438
 30
0.0
 11
181.320642746763
 21
-25.9971172796544
 31
0.0
  0
LINE
  5
   116
  8
0
  6
CONTINUOUS
 62
     7
 10
181.320642746763
 20
-25.9971172796544
 30
0.0
 11
182.097099903182
 21
-23.0993398064438
 31
0.0
  0
LINE
  5
   117
  8
0
  6
CONTINUOUS
 62
     7
 10
182.097099903182
 20
155.505047192318
 30
0.0
 11
181.320642746763
 21
158.402824665528
 31
0.0
  0
LINE
  5
   118
  8
0
  6
CONTINUOUS
 62
     7
 10
181.320642746763
 20
158.402824665528
 30
0.0
 11
180.544185590345
 21
155.505047192318
 31
0.0
  0
ENDBLK
  5
   119
  8
0
  6
CONTINUOUS
 62
     7
  0
BLOCK
  5
   11A
  8
0
  6
CONTINUOUS
 62
     7
  2
*UDIM449
 70
    65
 10
0.0
 20
0.0
 30
0.0
  3
*UDIM449
  0
TEXT
  5
   11B
  8
0
  6
CONTINUOUS
 62
     7
 10
180.320642744499
 20
-46.1027047118137
 30
0.0
 40
2.99999994933605
  1
20
 50
89.9999999480344
 41
0.933333333333333
 72
     1
 11
178.820642772095
 21
-43.6027047526751
 31
0.0
 73
     2
  0
LINE
  5
   11C
  8
0
  6
CONTINUOUS
 62
     7
 10
172.441702336074
 20
-33.9971559559605
 30
0.0
 11
183.320642746763
 21
-33.9971559559605
 31
0.0
  0
LINE
  5
   11D
  8
0
  6
CONTINUOUS
 62
     7
 10
181.320642746763
 20
-46.1027047104551
 30
0.0
 11
181.320642746763
 21
-25.9971172796544
 31
0.0
  0
LINE
  5
   11E
  8
0
  6
CONTINUOUS
 62
     7
 10
182.097099903182
 20
-36.894933429171
 30
0.0
 11
181.320642746763
 21
-33.9971559559605
 31
0.0
  0
LINE
  5
   11F
  8
0
  6
CONTINUOUS
 62
     7
 10
181.320642746763
 20
-33.9971559559605
 30
0.0
 11
180.544185590345
 21
-36.894933429171
 31
0.0
  0
LINE
  5
   120
  8
0
  6
CONTINUOUS
 62
     7
 10
180.544185590345
 20
-23.0993398064438
 30
0.0
 11
181.320642746763
 21
-25.9971172796544
 31
0.0
  0
LINE
  5
   121
  8
0
  6
CONTINUOUS
 62
     7
 10
181.320642746763
 20
-25.9971172796544
 30
0.0
 11
182.097099903182
 21
-23.0993398064438
 31
0.0
  0
ENDBLK
  5
   122
  8
0
  6
CONTINUOUS
 62
     7
  0
BLOCK
  5
   123
  8
0
  6
CONTINUOUS
 62
     7
  2
*HATCH61
 70
    65
 10
0.0
 20
0.0
 30
0.0
  3
*HATCH61
  0
LINE
  5
   124
  8
0
  6
CONTINUOUS
 62
   210
 10
-3.69108244776726E-2
 20
165.5
 30
0.0
 11
2.9523138999939
 21
162.510772705078
 31
0.0
  0
LINE
  5
   125
  8
0
  6
CONTINUOUS
 62
   210
 10
4.20579242706299
 20
165.499938964844
 30
0.0
 11
7.1949520111084
 21
162.510772705078
 31
0.0
  0
LINE
  5
   126
  8
0
  6
CONTINUOUS
 62
   210
 10
7.26335382461548
 20
166.685012817383
 30
0.0
 11
11.1375408172607
 21
162.810821533203
 31
0.0
  0
LINE
  5
   127
  8
0
  6
CONTINUOUS
 62
   210
 10
8.19100952148438
 20
170.0
 30
0.0
 11
10.5168390274048
 21
167.674163818359
 31
0.0
  0
ENDBLK
  5
   128
  8
0
  6
CONTINUOUS
 62
     7
  0
BLOCK
  5
   129
  8
0
  6
CONTINUOUS
 62
     7
  2
*HATCH62
 70
    65
 10
0.0
 20
0.0
 30
0.0
  3
*HATCH62
  0
LINE
  5
   12A
  8
0
  6
CONTINUOUS
 62
   210
 10
22.282886505127
 20
175.0
 30
0.0
 11
24.739839553833
 21
172.543045043945
 31
0.0
  0
LINE
  5
   12B
  8
0
  6
CONTINUOUS
 62
   210
 10
24.4042053222656
 20
175.0
 30
0.0
 11
29.4041996002197
 21
170.0
 31
0.0
  0
LINE
  5
   12C
  8
0
  6
CONTINUOUS
 62
   210
 10
28.646842956543
 20
175.0
 30
0.0
 11
33.6468391418457
 21
170.0
 31
0.0
  0
LINE
  5
   12D
  8
0
  6
CONTINUOUS
 62
   210
 10
32.8894805908203
 20
175.0
 30
0.0
 11
37.889476776123
 21
170.0
 31
0.0
  0
LINE
  5
   12E
  8
0
  6
CONTINUOUS
 62
   210
 10
37.1321182250977
 20
175.0
 30
0.0
 11
42.1321144104004
 21
170.0
 31
0.0
  0
LINE
  5
   12F
  8
0
  6
CONTINUOUS
 62
   210
 10
41.374755859375
 20
175.0
 30
0.0
 11
46.3747520446777
 21
170.0
 31
0.0
  0
LINE
  5
   130
  8
0
  6
CONTINUOUS
 62
   210
 10
45.6173934936523
 20
175.0
 30
0.0
 11
50.6173896789551
 21
170.0
 31
0.0
  0
LINE
  5
   131
  8
0
  6
CONTINUOUS
 62
   210
 10
49.8600311279297
 20
175.0
 30
0.0
 11
54.8600273132324
 21
170.0
 31
0.0
  0
LINE
  5
   132
  8
0
  6
CONTINUOUS
 62
   210
 10
54.1026725769043
 20
175.0
 30
0.0
 11
55.6382675170898
 21
173.464401245117
 31
0.0
  0
ENDBLK
  5
   133
  8
0
  6
CONTINUOUS
 62
     7
  0
BLOCK
  5
   134
  8
0
  6
CONTINUOUS
 62
     2
  2
*HATCH63
 70
    65
 10
0.0
 20
0.0
 30
0.0
  3
*HATCH63
  0
LINE
  5
   135
  8
0
  6
CONTINUOUS
 62
   210
 10
14.4451389312744
 20
199.0
 30
0.0
 11
11.5500001907349
 21
196.104858398438
 31
0.0
  0
LINE
  5
   136
  8
0
  6
CONTINUOUS
 62
   210
 10
18.687780380249
 20
199.0
 30
0.0
 11
11.5500001907349
 21
191.862213134766
 31
0.0
  0
LINE
  5
   137
  8
0
  6
CONTINUOUS
 62
   210
 10
20.5499858856201
 20
196.619567871094
 30
0.0
 11
13.930419921875
 21
190.0
 31
0.0
  0
LINE
  5
   138
  8
0
  6
CONTINUOUS
 62
   210
 10
20.5499858856201
 20
192.376922607422
 30
0.0
 11
18.1730613708496
 21
190.0
 31
0.0
  0
ENDBLK
  5
   139
  8
0
  6
CONTINUOUS
 62
     2
  0
BLOCK
  5
   13A
  8
0
  6
CONTINUOUS
 62
     2
  2
*HATCH64
 70
    65
 10
0.0
 20
0.0
 30
0.0
  3
*HATCH64
  0
LINE
  5
   13B
  8
0
  6
CONTINUOUS
 62
   210
 10
14.2943811416626
 20
184.0
 30
0.0
 11
11.5500001907349
 21
181.255615234375
 31
0.0
  0
LINE
  5
   13C
  8
0
  6
CONTINUOUS
 62
   210
 10
18.5370235443115
 20
184.0
 30
0.0
 11
11.5500001907349
 21
177.012969970703
 31
0.0
  0
LINE
  5
   13D
  8
0
  6
CONTINUOUS
 62
   210
 10
20.5499877929687
 20
181.770324707031
 30
0.0
 11
11.5500001907349
 21
172.77033996582
 31
0.0
  0
LINE
  5
   13E
  8
0
  6
CONTINUOUS
 62
   210
 10
20.549991607666
 20
177.527679443359
 30
0.0
 11
11.5500001907349
 21
168.527694702148
 31
0.0
  0
LINE
  5
   13F
  8
0
  6
CONTINUOUS
 62
   210
 10
20.5499935150146
 20
173.285049438477
 30
0.0
 11
11.3327283859253
 21
164.067779541016
 31
0.0
  0
LINE
  5
   140
  8
0
  6
CONTINUOUS
 62
   210
 10
20.5499973297119
 20
169.042404174805
 30
0.0
 11
14.1683549880981
 21
162.660766601563
 31
0.0
  0
LINE
  5
   141
  8
0
  6
CONTINUOUS
 62
   210
 10
20.5500011444092
 20
164.799758911133
 30
0.0
 11
18.4109954833984
 21
162.660766601563
 31
0.0
  0
ENDBLK
  5
   142
  8
0
  6
CONTINUOUS
 62
     2
  0
BLOCK
  5
   143
  8
0
  6
CONTINUOUS
 62
     2
  2
*HATCH65
 70
    65
 10
0.0
 20
0.0
 30
0.0
  3
*HATCH65
  0
LINE
  5
   144
  8
0
  6
CONTINUOUS
 62
     3
 10
2.22191214561462
 20
191.171905517578
 30
0.0
 11
3.39382290840149
 21
190.0
 31
0.0
  0
LINE
  5
   145
  8
0
  6
CONTINUOUS
 62
     3
 10
4.01514434814453
 20
191.5
 30
0.0
 11
5.51514148712158
 21
190.0
 31
0.0
  0
LINE
  5
   146
  8
0
  6
CONTINUOUS
 62
     3
 10
6.1364631652832
 20
191.5
 30
0.0
 11
7.63646030426025
 21
190.0
 31
0.0
  0
LINE
  5
   147
  8
0
  6
CONTINUOUS
 62
     3
 10
8.25778198242188
 20
191.5
 30
0.0
 11
9.75777912139893
 21
190.0
 31
0.0
  0
LINE
  5
   148
  8
0
  6
CONTINUOUS
 62
     3
 10
10.3791007995605
 20
191.5
 30
0.0
 11
11.8790979385376
 21
190.0
 31
0.0
  0
ENDBLK
  5
   149
  8
0
  6
CONTINUOUS
 62
     2
  0
BLOCK
  5
   14A
  8
0
  6
CONTINUOUS
 62
     2
  2
*HATCH66
 70
    65
 10
0.0
 20
0.0
 30
0.0
  3
*HATCH66
  0
LINE
  5
   14B
  8
0
  6
CONTINUOUS
 62
     3
 10
3.02985763549805
 20
184.0
 30
0.0
 11
4.52985525131226
 21
182.5
 31
0.0
  0
LINE
  5
   14C
  8
0
  6
CONTINUOUS
 62
     3
 10
5.15117645263672
 20
184.0
 30
0.0
 11
6.65117406845093
 21
182.5
 31
0.0
  0
LINE
  5
   14D
  8
0
  6
CONTINUOUS
 62
     3
 10
7.27249526977539
 20
184.0
 30
0.0
 11
8.77249240875244
 21
182.5
 31
0.0
  0
LINE
  5
   14E
  8
0
  6
CONTINUOUS
 62
     3
 10
9.39381408691406
 20
184.0
 30
0.0
 11
10.8938112258911
 21
182.5
 31
0.0
  0
LINE
  5
   14F
  8
0
  6
CONTINUOUS
 62
     3
 10
11.5151309967041
 20
184.0
 30
0.0
 11
12.0500001907349
 21
183.465133666992
 31
0.0
  0
ENDBLK
  5
   150
  8
0
  6
CONTINUOUS
 62
     2
  0
BLOCK
  5
   151
  8
0
  6
CONTINUOUS
 62
     2
  2
*HATCH67
 70
    65
 10
0.0
 20
0.0
 30
0.0
  3
*HATCH67
  0
LINE
  5
   152
  8
0
  6
CONTINUOUS
 62
     3
 10
2.15654945373535
 20
200.5
 30
0.0
 11
4.99976091086864E-2
 21
198.393447875977
 31
0.0
  0
LINE
  5
   153
  8
0
  6
CONTINUOUS
 62
     3
 10
4.27786588668823
 20
200.499984741211
 30
0.0
 11
2.27785897254944
 21
198.499984741211
 31
0.0
  0
LINE
  5
   154
  8
0
  6
CONTINUOUS
 62
     3
 10
5.33852386474609
 20
200.499984741211
 30
0.0
 11
3.33851957321167
 21
198.499984741211
 31
0.0
  0
LINE
  5
   155
  8
0
  6
CONTINUOUS
 62
     3
 10
6.39918231964111
 20
200.499984741211
 30
0.0
 11
4.39917993545532
 21
198.499984741211
 31
0.0
  0
LINE
  5
   156
  8
0
  6
CONTINUOUS
 62
     3
 10
7.45984077453613
 20
200.499984741211
 30
0.0
 11
5.45984029769897
 21
198.499984741211
 31
0.0
  0
LINE
  5
   157
  8
0
  6
CONTINUOUS
 62
     3
 10
8.52049922943115
 20
200.499984741211
 30
0.0
 11
6.52050065994263
 21
198.499984741211
 31
0.0
  0
LINE
  5
   158
  8
0
  6
CONTINUOUS
 62
     3
 10
9.58115673065186
 20
200.499984741211
 30
0.0
 11
7.58116149902344
 21
198.499984741211
 31
0.0
  0
LINE
  5
   159
  8
0
  6
CONTINUOUS
 62
     3
 10
10.6418151855469
 20
200.499984741211
 30
0.0
 11
8.64182186126709
 21
198.499984741211
 31
0.0
  0
LINE
  5
   15A
  8
0
  6
CONTINUOUS
 62
     3
 10
11.7024736404419
 20
200.499969482422
 30
0.0
 11
9.70248222351074
 21
198.499984741211
 31
0.0
  0
LINE
  5
   15B
  8
0
  6
CONTINUOUS
 62
     3
 10
2.04999971389771
 20
190.847503662109
 30
0.0
 11
1.70249402523041
 21
190.5
 31
0.0
  0
LINE
  5
   15C
  8
0
  6
CONTINUOUS
 62
     3
 10
12.7631320953369
 20
200.499969482422
 30
0.0
 11
11.7631435394287
 21
199.499984741211
 31
0.0
  0
LINE
  5
   15D
  8
0
  6
CONTINUOUS
 62
     3
 10
5.42884683609009
 20
193.16569519043
 30
0.0
 11
3.76315402984619
 21
191.5
 31
0.0
  0
LINE
  5
   15E
  8
0
  6
CONTINUOUS
 62
     3
 10
13.0499925613403
 20
199.726181030273
 30
0.0
 11
12.8238124847412
 21
199.5
 31
0.0
  0
LINE
  5
   15F
  8
0
  6
CONTINUOUS
 62
     3
 10
1.05000126361847
 20
187.726181030273
 30
0.0
 11
0.049999475479126
 21
186.726181030273
 31
0.0
  0
LINE
  5
   160
  8
0
  6
CONTINUOUS
 62
     3
 10
1.05000138282776
 20
186.66552734375
 30
0.0
 11
4.99996468424797E-2
 21
185.66552734375
 31
0.0
  0
LINE
  5
   161
  8
0
  6
CONTINUOUS
 62
     3
 10
1.05000150203705
 20
185.604873657227
 30
0.0
 11
4.99998182058334E-2
 21
184.604873657227
 31
0.0
  0
LINE
  5
   162
  8
0
  6
CONTINUOUS
 62
     3
 10
1.05000162124634
 20
184.544219970703
 30
0.0
 11
4.99999895691872E-2
 21
183.544219970703
 31
0.0
  0
LINE
  5
   163
  8
0
  6
CONTINUOUS
 62
     3
 10
1.06645560264587
 20
183.5
 30
0.0
 11
5.00001572072506E-2
 21
182.483535766602
 31
0.0
  0
LINE
  5
   164
  8
0
  6
CONTINUOUS
 62
     3
 10
2.04999995231628
 20
183.422882080078
 30
0.0
 11
0.050000324845314
 21
181.422882080078
 31
0.0
  0
LINE
  5
   165
  8
0
  6
CONTINUOUS
 62
     3
 10
2.36888837814331
 20
182.681106567383
 30
0.0
 11
5.00004962086678E-2
 21
180.362228393555
 31
0.0
  0
LINE
  5
   166
  8
0
  6
CONTINUOUS
 62
     3
 10
4.30909824371338
 20
182.5
 30
0.0
 11
2.63195157051086
 21
180.822860717773
 31
0.0
  0
LINE
  5
   167
  8
0
  6
CONTINUOUS
 62
     3
 10
5.36975908279419
 20
182.5
 30
0.0
 11
3.68893575668335
 21
180.819183349609
 31
0.0
  0
LINE
  5
   168
  8
0
  6
CONTINUOUS
 62
     3
 10
6.430419921875
 20
182.5
 30
0.0
 11
4.74591970443726
 21
180.815505981445
 31
0.0
  0
LINE
  5
   169
  8
0
  6
CONTINUOUS
 62
     3
 10
7.49108123779297
 20
182.5
 30
0.0
 11
5.80290365219116
 21
180.811828613281
 31
0.0
  0
LINE
  5
   16A
  8
0
  6
CONTINUOUS
 62
     3
 10
8.55174255371094
 20
182.5
 30
0.0
 11
6.85988759994507
 21
180.808151245117
 31
0.0
  0
LINE
  5
   16B
  8
0
  6
CONTINUOUS
 62
     3
 10
9.61240386962891
 20
182.5
 30
0.0
 11
7.91687154769897
 21
180.804473876953
 31
0.0
  0
LINE
  5
   16C
  8
0
  6
CONTINUOUS
 62
     3
 10
10.6730651855469
 20
182.5
 30
0.0
 11
8.97385597229004
 21
180.800796508789
 31
0.0
  0
LINE
  5
   16D
  8
0
  6
CONTINUOUS
 62
     3
 10
11.5500001907349
 20
182.316284179688
 30
0.0
 11
10.0308399200439
 21
180.797119140625
 31
0.0
  0
LINE
  5
   16E
  8
0
  6
CONTINUOUS
 62
     3
 10
11.5500001907349
 20
181.255630493164
 30
0.0
 11
11.0878238677979
 21
180.793441772461
 31
0.0
  0
LINE
  5
   16F
  8
0
  6
CONTINUOUS
 62
     3
 10
10.8550405502319
 20
179.5
 30
0.0
 11
8.85503959655762
 21
177.5
 31
0.0
  0
LINE
  5
   170
  8
0
  6
CONTINUOUS
 62
     3
 10
11.5500001907349
 20
178.073638916016
 30
0.0
 11
10.9763612747192
 21
177.5
 31
0.0
  0
ENDBLK
  5
   171
  8
0
  6
CONTINUOUS
 62
     2
  0
BLOCK
  5
   172
  8
0
  6
CONTINUOUS
 62
     7
  2
*HATCH68
 70
    65
 10
0.0
 20
0.0
 30
0.0
  3
*HATCH68
  0
LINE
  5
   173
  8
0
  6
CONTINUOUS
 62
     3
 10
2.19918513298035
 20
-56.9999961853027
 30
0.0
 11
3.69918298721313
 21
-58.4999961853027
 31
0.0
  0
LINE
  5
   174
  8
0
  6
CONTINUOUS
 62
     3
 10
4.32050514221191
 20
-56.9999961853027
 30
0.0
 11
5.82050275802612
 21
-58.4999961853027
 31
0.0
  0
LINE
  5
   175
  8
0
  6
CONTINUOUS
 62
     3
 10
6.4418249130249
 20
-56.9999961853027
 30
0.0
 11
7.94182252883911
 21
-58.4999961853027
 31
0.0
  0
LINE
  5
   176
  8
0
  6
CONTINUOUS
 62
     3
 10
8.56314468383789
 20
-56.9999961853027
 30
0.0
 11
10.0631427764893
 21
-58.4999961853027
 31
0.0
  0
LINE
  5
   177
  8
0
  6
CONTINUOUS
 62
     3
 10
10.6844635009766
 20
-57.0
 30
0.0
 11
11.8672294616699
 21
-58.1827659606934
 31
0.0
  0
ENDBLK
  5
   178
  8
0
  6
CONTINUOUS
 62
     7
  0
BLOCK
  5
   179
  8
0
  6
CONTINUOUS
 62
     7
  2
*HATCH69
 70
    65
 10
0.0
 20
0.0
 30
0.0
  3
*HATCH69
  0
LINE
  5
   17A
  8
0
  6
CONTINUOUS
 62
     3
 10
2.33690619468689
 20
-49.7130928039551
 30
0.0
 11
3.62381052970886
 21
-51.0
 31
0.0
  0
LINE
  5
   17B
  8
0
  6
CONTINUOUS
 62
     3
 10
4.24513149261475
 20
-49.5
 30
0.0
 11
5.74513006210327
 21
-51.0
 31
0.0
  0
LINE
  5
   17C
  8
0
  6
CONTINUOUS
 62
     3
 10
6.36645030975342
 20
-49.5
 30
0.0
 11
7.86644983291626
 21
-51.0
 31
0.0
  0
LINE
  5
   17D
  8
0
  6
CONTINUOUS
 62
     3
 10
8.48776912689209
 20
-49.5
 30
0.0
 11
9.98777008056641
 21
-51.0
 31
0.0
  0
LINE
  5
   17E
  8
0
  6
CONTINUOUS
 62
     3
 10
10.6090898513794
 20
-49.5
 30
0.0
 11
12.0500011444092
 21
-50.9409141540527
 31
0.0
  0
ENDBLK
  5
   17F
  8
0
  6
CONTINUOUS
 62
     7
  0
BLOCK
  5
   180
  8
0
  6
CONTINUOUS
 62
     7
  2
*HATCH70
 70
    65
 10
0.0
 20
0.0
 30
0.0
  3
*HATCH70
  0
LINE
  5
   181
  8
0
  6
CONTINUOUS
 62
     3
 10
2.33690619468689
 20
-49.7130928039551
 30
0.0
 11
3.62381052970886
 21
-51.0
 31
0.0
  0
LINE
  5
   182
  8
0
  6
CONTINUOUS
 62
     3
 10
4.24513149261475
 20
-49.5
 30
0.0
 11
5.74513006210327
 21
-51.0
 31
0.0
  0
LINE
  5
   183
  8
0
  6
CONTINUOUS
 62
     3
 10
6.36645030975342
 20
-49.5
 30
0.0
 11
7.86644983291626
 21
-51.0
 31
0.0
  0
LINE
  5
   184
  8
0
  6
CONTINUOUS
 62
     3
 10
8.48776912689209
 20
-49.5
 30
0.0
 11
9.98777008056641
 21
-51.0
 31
0.0
  0
LINE
  5
   185
  8
0
  6
CONTINUOUS
 62
     3
 10
10.6090898513794
 20
-49.5
 30
0.0
 11
12.0500011444092
 21
-50.9409141540527
 31
0.0
  0
ENDBLK
  5
   186
  8
0
  6
CONTINUOUS
 62
     7
  0
BLOCK
  5
   187
  8
0
  6
CONTINUOUS
 62
     7
  2
*HATCH71
 70
    65
 10
0.0
 20
0.0
 30
0.0
  3
*HATCH71
  0
LINE
  5
   188
  8
0
  6
CONTINUOUS
 62
     3
 10
2.16904735565186
 20
-44.5
 30
0.0
 11
0.050000611692667
 21
-46.6190452575684
 31
0.0
  0
LINE
  5
   189
  8
0
  6
CONTINUOUS
 62
     3
 10
4.290367603302
 20
-44.5
 30
0.0
 11
2.29036784172058
 21
-46.5
 31
0.0
  0
LINE
  5
   18A
  8
0
  6
CONTINUOUS
 62
     3
 10
5.3510274887085
 20
-44.5
 30
0.0
 11
3.35102772712708
 21
-46.5
 31
0.0
  0
LINE
  5
   18B
  8
0
  6
CONTINUOUS
 62
     3
 10
6.41168737411499
 20
-44.5
 30
0.0
 11
4.41168785095215
 21
-46.5
 31
0.0
  0
LINE
  5
   18C
  8
0
  6
CONTINUOUS
 62
     3
 10
7.47234725952148
 20
-44.5
 30
0.0
 11
5.47234773635864
 21
-46.5
 31
0.0
  0
LINE
  5
   18D
  8
0
  6
CONTINUOUS
 62
     3
 10
1.05000174045563
 20
-50.9223442077637
 30
0.0
 11
4.99997660517693E-2
 21
-51.9223480224609
 31
0.0
  0
LINE
  5
   18E
  8
0
  6
CONTINUOUS
 62
     3
 10
5.21915149688721
 20
-47.8138542175293
 30
0.0
 11
3.53300762176514
 21
-49.5
 31
0.0
  0
LINE
  5
   18F
  8
0
  6
CONTINUOUS
 62
     3
 10
9.59366607666016
 20
-44.5
 30
0.0
 11
7.59366750717163
 21
-46.5
 31
0.0
  0
LINE
  5
   190
  8
0
  6
CONTINUOUS
 62
     3
 10
1.05000150203705
 20
-53.0436668395996
 30
0.0
 11
4.99994233250618E-2
 21
-54.0436668395996
 31
0.0
  0
LINE
  5
   191
  8
0
  6
CONTINUOUS
 62
     3
 10
7.34787559509277
 20
-47.806453704834
 30
0.0
 11
5.65432643890381
 21
-49.5
 31
0.0
  0
LINE
  5
   192
  8
0
  6
CONTINUOUS
 62
     3
 10
11.5500001907349
 20
-44.6649894714356
 30
0.0
 11
9.71498680114746
 21
-46.5
 31
0.0
  0
LINE
  5
   193
  8
0
  6
CONTINUOUS
 62
     3
 10
1.05000126361847
 20
-55.1649856567383
 30
0.0
 11
4.99990843236446E-2
 21
-56.1649894714355
 31
0.0
  0
LINE
  5
   194
  8
0
  6
CONTINUOUS
 62
     3
 10
9.47660064697266
 20
-47.7990493774414
 30
0.0
 11
7.77564525604248
 21
-49.5
 31
0.0
  0
LINE
  5
   195
  8
0
  6
CONTINUOUS
 62
     3
 10
10.5409622192383
 20
-47.7953453063965
 30
0.0
 11
8.83630466461182
 21
-49.5000038146973
 31
0.0
  0
LINE
  5
   196
  8
0
  6
CONTINUOUS
 62
     3
 10
11.5500011444092
 20
-47.8469657897949
 30
0.0
 11
9.89696407318115
 21
-49.5000038146973
 31
0.0
  0
LINE
  5
   197
  8
0
  6
CONTINUOUS
 62
     3
 10
11.5500001907349
 20
-48.9076271057129
 30
0.0
 11
10.9576234817505
 21
-49.5000038146973
 31
0.0
  0
LINE
  5
   198
  8
0
  6
CONTINUOUS
 62
     3
 10
3.01829099655151
 20
-58.4999961853027
 30
0.0
 11
4.99982349574566E-2
 21
-61.4682884216309
 31
0.0
  0
LINE
  5
   199
  8
0
  6
CONTINUOUS
 62
     3
 10
2.05000019073486
 20
-60.5289459228516
 30
0.0
 11
4.99980673193932E-2
 21
-62.5289497375488
 31
0.0
  0
LINE
  5
   19A
  8
0
  6
CONTINUOUS
 62
     3
 10
2.05000042915344
 20
-61.5896072387695
 30
0.0
 11
4.99978959560394E-2
 21
-63.5896110534668
 31
0.0
  0
LINE
  5
   19B
  8
0
  6
CONTINUOUS
 62
     3
 10
2.05000066757202
 20
-62.6502685546875
 30
0.0
 11
4.99977245926857E-2
 21
-64.6502685546875
 31
0.0
  0
LINE
  5
   19C
  8
0
  6
CONTINUOUS
 62
     3
 10
2.0500009059906
 20
-63.7109298706055
 30
0.0
 11
0.049997553229332
 21
-65.7109298706055
 31
0.0
  0
LINE
  5
   19D
  8
0
  6
CONTINUOUS
 62
     3
 10
2.05000114440918
 20
-64.7715911865234
 30
0.0
 11
4.99973818659782E-2
 21
-66.7715911865234
 31
0.0
  0
LINE
  5
   19E
  8
0
  6
CONTINUOUS
 62
     3
 10
2.38226532936096
 20
-65.4999847412109
 30
0.0
 11
0.382251262664795
 21
-67.5
 31
0.0
  0
LINE
  5
   19F
  8
0
  6
CONTINUOUS
 62
     3
 10
3.44292521476746
 20
-65.4999847412109
 30
0.0
 11
1.44291341304779
 21
-67.5
 31
0.0
  0
LINE
  5
   1A0
  8
0
  6
CONTINUOUS
 62
     3
 10
4.50358486175537
 20
-65.4999847412109
 30
0.0
 11
2.50357556343079
 21
-67.5
 31
0.0
  0
LINE
  5
   1A1
  8
0
  6
CONTINUOUS
 62
     3
 10
5.56424522399902
 20
-65.4999847412109
 30
0.0
 11
3.56423783302307
 21
-67.4999923706055
 31
0.0
  0
LINE
  5
   1A2
  8
0
  6
CONTINUOUS
 62
     3
 10
7.68556499481201
 20
-65.4999847412109
 30
0.0
 11
5.68556213378906
 21
-67.4999923706055
 31
0.0
  0
LINE
  5
   1A3
  8
0
  6
CONTINUOUS
 62
     3
 10
9.806884765625
 20
-65.4999847412109
 30
0.0
 11
7.80688667297363
 21
-67.4999923706055
 31
0.0
  0
LINE
  5
   1A4
  8
0
  6
CONTINUOUS
 62
     3
 10
11.5499963760376
 20
-65.8781967163086
 30
0.0
 11
9.9282112121582
 21
-67.4999771118164
 31
0.0
  0
LINE
  5
   1A5
  8
0
  6
CONTINUOUS
 62
     3
 10
13.0495147705078
 20
-66.4999923706055
 30
0.0
 11
12.0495357513428
 21
-67.4999771118164
 31
0.0
  0
ENDBLK
  5
   1A6
  8
0
  6
CONTINUOUS
 62
     7
  0
BLOCK
  5
   1A7
  8
0
  6
CONTINUOUS
 62
     7
  2
*HATCH72
 70
    65
 10
0.0
 20
0.0
 30
0.0
  3
*HATCH72
  0
LINE
  5
   1A8
  8
0
  6
CONTINUOUS
 62
   210
 10
15.2756481170654
 20
-42.0
 30
0.0
 11
11.4999847412109
 21
-45.7756614685059
 31
0.0
  0
LINE
  5
   1A9
  8
0
  6
CONTINUOUS
 62
   210
 10
17.4999847412109
 20
-44.0183029174805
 30
0.0
 11
11.7841444015503
 21
-49.7341461181641
 31
0.0
  0
LINE
  5
   1AA
  8
0
  6
CONTINUOUS
 62
   210
 10
17.4999847412109
 20
-48.2609443664551
 30
0.0
 11
15.0109281539917
 21
-50.75
 31
0.0
  0
ENDBLK
  5
   1AB
  8
0
  6
CONTINUOUS
 62
     7
  0
BLOCK
  5
   1AC
  8
0
  6
CONTINUOUS
 62
     7
  2
*HATCH73
 70
    65
 10
0.0
 20
0.0
 30
0.0
  3
*HATCH73
  0
LINE
  5
   1AD
  8
0
  6
CONTINUOUS
 62
   210
 10
14.8748893737793
 20
-57.25
 30
0.0
 11
11.5360698699951
 21
-60.5888214111328
 31
0.0
  0
LINE
  5
   1AE
  8
0
  6
CONTINUOUS
 62
   210
 10
17.4999847412109
 20
-58.867546081543
 30
0.0
 11
11.5075874328613
 21
-64.8599395751953
 31
0.0
  0
LINE
  5
   1AF
  8
0
  6
CONTINUOUS
 62
   210
 10
17.4999847412109
 20
-63.1101837158203
 30
0.0
 11
14.6101713180542
 21
-66.0
 31
0.0
  0
ENDBLK
  5
   1B0
  8
0
  6
CONTINUOUS
 62
     7
  0
BLOCK
  5
   1B1
  8
0
  6
CONTINUOUS
 62
     7
  2
*HATCH74
 70
    65
 10
0.0
 20
0.0
 30
0.0
  3
*HATCH74
  0
LINE
  5
   1B2
  8
0
  6
CONTINUOUS
 62
   210
 10
17.4999847412109
 20
-47.1985092163086
 30
0.0
 11
20.4999847412109
 21
-50.1985130310059
 31
0.0
  0
LINE
  5
   1B3
  8
0
  6
CONTINUOUS
 62
   210
 10
17.4999847412109
 20
-42.9558639526367
 30
0.0
 11
20.4999847412109
 21
-45.955867767334
 31
0.0
  0
ENDBLK
  5
   1B4
  8
0
  6
CONTINUOUS
 62
     7
  0
BLOCK
  5
   1B5
  8
0
  6
CONTINUOUS
 62
     7
  2
*HATCH75
 70
    65
 10
0.0
 20
0.0
 30
0.0
  3
*HATCH75
  0
LINE
  5
   1B6
  8
0
  6
CONTINUOUS
 62
   210
 10
17.4999847412109
 20
-62.0477600097656
 30
0.0
 11
20.4999847412109
 21
-65.0477676391602
 31
0.0
  0
LINE
  5
   1B7
  8
0
  6
CONTINUOUS
 62
   210
 10
17.4999847412109
 20
-57.8051147460938
 30
0.0
 11
20.4999847412109
 21
-60.8051223754883
 31
0.0
  0
ENDBLK
  5
   1B8
  8
0
  6
CONTINUOUS
 62
     7
  0
BLOCK
  5
   1B9
  8
0
  6
CONTINUOUS
 62
     7
  2
*HATCH76
 70
    65
 10
0.0
 20
0.0
 30
0.0
  3
*HATCH76
  0
LINE
  5
   1BA
  8
0
  6
CONTINUOUS
 62
    52
 10
105.836601257324
 20
228.873168945313
 30
0.0
 11
104.499938964844
 21
227.536499023438
 31
0.0
  0
LINE
  5
   1BB
  8
0
  6
CONTINUOUS
 62
    52
 10
106.499938964844
 20
225.293869018555
 30
0.0
 11
104.499938964844
 21
223.293869018555
 31
0.0
  0
LINE
  5
   1BC
  8
0
  6
CONTINUOUS
 62
    52
 10
106.499938964844
 20
221.051223754883
 30
0.0
 11
104.499938964844
 21
219.051223754883
 31
0.0
  0
LINE
  5
   1BD
  8
0
  6
CONTINUOUS
 62
    52
 10
106.499938964844
 20
216.808578491211
 30
0.0
 11
104.499938964844
 21
214.808578491211
 31
0.0
  0
LINE
  5
   1BE
  8
0
  6
CONTINUOUS
 62
    52
 10
106.499938964844
 20
212.565933227539
 30
0.0
 11
104.499938964844
 21
210.565933227539
 31
0.0
  0
LINE
  5
   1BF
  8
0
  6
CONTINUOUS
 62
    52
 10
106.499938964844
 20
208.323287963867
 30
0.0
 11
104.499938964844
 21
206.323287963867
 31
0.0
  0
LINE
  5
   1C0
  8
0
  6
CONTINUOUS
 62
    52
 10
106.499938964844
 20
204.080642700195
 30
0.0
 11
104.499938964844
 21
202.080642700195
 31
0.0
  0
LINE
  5
   1C1
  8
0
  6
CONTINUOUS
 62
    52
 10
106.499938964844
 20
199.837997436523
 30
0.0
 11
104.499938964844
 21
197.837997436523
 31
0.0
  0
LINE
  5
   1C2
  8
0
  6
CONTINUOUS
 62
    52
 10
106.499938964844
 20
195.595352172852
 30
0.0
 11
104.499938964844
 21
193.595352172852
 31
0.0
  0
LINE
  5
   1C3
  8
0
  6
CONTINUOUS
 62
    52
 10
106.499938964844
 20
191.35270690918
 30
0.0
 11
104.499938964844
 21
189.35270690918
 31
0.0
  0
LINE
  5
   1C4
  8
0
  6
CONTINUOUS
 62
    52
 10
106.499938964844
 20
187.110061645508
 30
0.0
 11
104.499938964844
 21
185.110061645508
 31
0.0
  0
LINE
  5
   1C5
  8
0
  6
CONTINUOUS
 62
    52
 10
106.499938964844
 20
182.867416381836
 30
0.0
 11
104.499938964844
 21
180.867416381836
 31
0.0
  0
LINE
  5
   1C6
  8
0
  6
CONTINUOUS
 62
    52
 10
106.499938964844
 20
178.624771118164
 30
0.0
 11
104.499938964844
 21
176.624771118164
 31
0.0
  0
LINE
  5
   1C7
  8
0
  6
CONTINUOUS
 62
    52
 10
106.499938964844
 20
174.382125854492
 30
0.0
 11
104.499938964844
 21
172.382125854492
 31
0.0
  0
LINE
  5
   1C8
  8
0
  6
CONTINUOUS
 62
    52
 10
106.499938964844
 20
170.13948059082
 30
0.0
 11
104.499938964844
 21
168.13948059082
 31
0.0
  0
LINE
  5
   1C9
  8
0
  6
CONTINUOUS
 62
    52
 10
106.499938964844
 20
165.896835327148
 30
0.0
 11
104.499938964844
 21
163.896835327148
 31
0.0
  0
LINE
  5
   1CA
  8
0
  6
CONTINUOUS
 62
    52
 10
106.499938964844
 20
161.654190063477
 30
0.0
 11
104.499938964844
 21
159.654190063477
 31
0.0
  0
LINE
  5
   1CB
  8
0
  6
CONTINUOUS
 62
    52
 10
106.499938964844
 20
157.411544799805
 30
0.0
 11
104.499938964844
 21
155.411544799805
 31
0.0
  0
LINE
  5
   1CC
  8
0
  6
CONTINUOUS
 62
    52
 10
106.499938964844
 20
153.168899536133
 30
0.0
 11
104.499938964844
 21
151.168899536133
 31
0.0
  0
ENDBLK
  5
   1CD
  8
0
  6
CONTINUOUS
 62
     7
  0
BLOCK
  5
   1CE
  8
0
  6
CONTINUOUS
 62
     7
  2
*HATCH77
 70
    65
 10
0.0
 20
0.0
 30
0.0
  3
*HATCH77
  0
LINE
  5
   1CF
  8
0
  6
CONTINUOUS
 62
    52
 10
106.499938964844
 20
142.562377929688
 30
0.0
 11
104.499938964844
 21
140.562377929688
 31
0.0
  0
LINE
  5
   1D0
  8
0
  6
CONTINUOUS
 62
    52
 10
106.499938964844
 20
138.319732666016
 30
0.0
 11
104.499938964844
 21
136.319732666016
 31
0.0
  0
LINE
  5
   1D1
  8
0
  6
CONTINUOUS
 62
    52
 10
106.499938964844
 20
134.077087402344
 30
0.0
 11
104.499938964844
 21
132.077087402344
 31
0.0
  0
ENDBLK
  5
   1D2
  8
0
  6
CONTINUOUS
 62
     7
  0
BLOCK
  5
   1D3
  8
0
  6
CONTINUOUS
 62
     7
  2
*HATCH78
 70
    65
 10
0.0
 20
0.0
 30
0.0
  3
*HATCH78
  0
LINE
  5
   1D4
  8
0
  6
CONTINUOUS
 62
    52
 10
106.499938964844
 20
17.4044799804688
 30
0.0
 11
104.499938964844
 21
15.4044799804688
 31
0.0
  0
LINE
  5
   1D5
  8
0
  6
CONTINUOUS
 62
    52
 10
106.499938964844
 20
13.1618385314941
 30
0.0
 11
104.499938964844
 21
11.1618385314941
 31
0.0
  0
LINE
  5
   1D6
  8
0
  6
CONTINUOUS
 62
    52
 10
106.499938964844
 20
8.91919898986816
 30
0.0
 11
105.330741882324
 21
7.75
 31
0.0
  0
ENDBLK
  5
   1D7
  8
0
  6
CONTINUOUS
 62
     7
  0
BLOCK
  5
   1D8
  8
0
  6
CONTINUOUS
 62
     7
  2
*HATCH79
 70
    65
 10
0.0
 20
0.0
 30
0.0
  3
*HATCH79
  0
LINE
  5
   1D9
  8
0
  6
CONTINUOUS
 62
    52
 10
106.499938964844
 20
0.433917760848999
 30
0.0
 11
104.499938964844
 21
-1.56608211994171
 31
0.0
  0
LINE
  5
   1DA
  8
0
  6
CONTINUOUS
 62
    52
 10
106.499938964844
 20
-3.80872273445129
 30
0.0
 11
104.499938964844
 21
-5.80872249603271
 31
0.0
  0
LINE
  5
   1DB
  8
0
  6
CONTINUOUS
 62
    52
 10
106.499938964844
 20
-8.05136299133301
 30
0.0
 11
104.499938964844
 21
-10.051362991333
 31
0.0
  0
LINE
  5
   1DC
  8
0
  6
CONTINUOUS
 62
    52
 10
106.499938964844
 20
-12.2940044403076
 30
0.0
 11
104.499938964844
 21
-14.2940044403076
 31
0.0
  0
LINE
  5
   1DD
  8
0
  6
CONTINUOUS
 62
    52
 10
106.499938964844
 20
-16.5366458892822
 30
0.0
 11
104.499938964844
 21
-18.5366458892822
 31
0.0
  0
LINE
  5
   1DE
  8
0
  6
CONTINUOUS
 62
    52
 10
106.499938964844
 20
-20.7792873382568
 30
0.0
 11
104.499938964844
 21
-22.7792873382568
 31
0.0
  0
LINE
  5
   1DF
  8
0
  6
CONTINUOUS
 62
    52
 10
106.499938964844
 20
-25.0219287872314
 30
0.0
 11
104.499938964844
 21
-27.0219287872314
 31
0.0
  0
LINE
  5
   1E0
  8
0
  6
CONTINUOUS
 62
    52
 10
106.499938964844
 20
-29.2645702362061
 30
0.0
 11
104.499938964844
 21
-31.2645702362061
 31
0.0
  0
LINE
  5
   1E1
  8
0
  6
CONTINUOUS
 62
    52
 10
106.499938964844
 20
-33.507209777832
 30
0.0
 11
104.499938964844
 21
-35.507209777832
 31
0.0
  0
LINE
  5
   1E2
  8
0
  6
CONTINUOUS
 62
    52
 10
106.499938964844
 20
-37.7498474121094
 30
0.0
 11
104.499938964844
 21
-39.7498474121094
 31
0.0
  0
LINE
  5
   1E3
  8
0
  6
CONTINUOUS
 62
    52
 10
106.499938964844
 20
-41.9924850463867
 30
0.0
 11
104.499938964844
 21
-43.9924850463867
 31
0.0
  0
LINE
  5
   1E4
  8
0
  6
CONTINUOUS
 62
    52
 10
106.499938964844
 20
-46.2351226806641
 30
0.0
 11
104.499938964844
 21
-48.2351226806641
 31
0.0
  0
LINE
  5
   1E5
  8
0
  6
CONTINUOUS
 62
    52
 10
106.499938964844
 20
-50.4777603149414
 30
0.0
 11
104.499938964844
 21
-52.4777603149414
 31
0.0
  0
LINE
  5
   1E6
  8
0
  6
CONTINUOUS
 62
    52
 10
106.499938964844
 20
-54.7203979492188
 30
0.0
 11
104.499938964844
 21
-56.7203979492188
 31
0.0
  0
LINE
  5
   1E7
  8
0
  6
CONTINUOUS
 62
    52
 10
106.499938964844
 20
-58.9630355834961
 30
0.0
 11
104.499938964844
 21
-60.9630355834961
 31
0.0
  0
LINE
  5
   1E8
  8
0
  6
CONTINUOUS
 62
    52
 10
106.499938964844
 20
-63.2056732177734
 30
0.0
 11
104.499938964844
 21
-65.2056732177734
 31
0.0
  0
LINE
  5
   1E9
  8
0
  6
CONTINUOUS
 62
    52
 10
106.499938964844
 20
-67.4483184814453
 30
0.0
 11
104.499938964844
 21
-69.4483184814453
 31
0.0
  0
LINE
  5
   1EA
  8
0
  6
CONTINUOUS
 62
    52
 10
106.499938964844
 20
-71.6909637451172
 30
0.0
 11
104.499938964844
 21
-73.6909637451172
 31
0.0
  0
LINE
  5
   1EB
  8
0
  6
CONTINUOUS
 62
    52
 10
106.499938964844
 20
-75.9336090087891
 30
0.0
 11
104.499938964844
 21
-77.9336090087891
 31
0.0
  0
LINE
  5
   1EC
  8
0
  6
CONTINUOUS
 62
    52
 10
106.499938964844
 20
-80.1762542724609
 30
0.0
 11
104.499938964844
 21
-82.1762542724609
 31
0.0
  0
LINE
  5
   1ED
  8
0
  6
CONTINUOUS
 62
    52
 10
106.499938964844
 20
-84.4188995361328
 30
0.0
 11
104.499938964844
 21
-86.4188995361328
 31
0.0
  0
LINE
  5
   1EE
  8
0
  6
CONTINUOUS
 62
    52
 10
106.499938964844
 20
-88.6615447998047
 30
0.0
 11
104.499938964844
 21
-90.6615447998047
 31
0.0
  0
LINE
  5
   1EF
  8
0
  6
CONTINUOUS
 62
    52
 10
106.499938964844
 20
-92.9041900634766
 30
0.0
 11
104.499938964844
 21
-94.9041900634766
 31
0.0
  0
LINE
  5
   1F0
  8
0
  6
CONTINUOUS
 62
    52
 10
106.499938964844
 20
-97.1468353271484
 30
0.0
 11
104.499938964844
 21
-99.1468353271484
 31
0.0
  0
LINE
  5
   1F1
  8
0
  6
CONTINUOUS
 62
    52
 10
106.499938964844
 20
-101.389457702637
 30
0.0
 11
106.065864562988
 21
-101.823524475098
 31
0.0
  0
ENDBLK
  5
   1F2
  8
0
  6
CONTINUOUS
 62
     7
  0
BLOCK
  5
   1F3
  8
0
  6
CONTINUOUS
 62
     7
  2
*HATCH80
 70
    65
 10
0.0
 20
0.0
 30
0.0
  3
*HATCH80
  0
LINE
  5
   1F4
  8
0
  6
CONTINUOUS
 62
     3
 10
-0.830074667930603
 20
-35.831859588623
 30
0.0
 11
-2.49821591377258
 21
-37.5
 31
0.0
  0
LINE
  5
   1F5
  8
0
  6
CONTINUOUS
 62
     3
 10
1.29124581813812
 20
-35.831859588623
 30
0.0
 11
-0.376895427703857
 21
-37.5
 31
0.0
  0
LINE
  5
   1F6
  8
0
  6
CONTINUOUS
 62
     3
 10
3.41256618499756
 20
-35.831859588623
 30
0.0
 11
1.74442505836487
 21
-37.5
 31
0.0
  0
LINE
  5
   1F7
  8
0
  6
CONTINUOUS
 62
     3
 10
5.53388690948486
 20
-35.831859588623
 30
0.0
 11
3.86574554443359
 21
-37.5
 31
0.0
  0
LINE
  5
   1F8
  8
0
  6
CONTINUOUS
 62
     3
 10
7.65520763397217
 20
-35.831859588623
 30
0.0
 11
5.9870662689209
 21
-37.5
 31
0.0
  0
LINE
  5
   1F9
  8
0
  6
CONTINUOUS
 62
     3
 10
9.77652835845947
 20
-35.831859588623
 30
0.0
 11
8.1083869934082
 21
-37.5
 31
0.0
  0
LINE
  5
   1FA
  8
0
  6
CONTINUOUS
 62
     3
 10
11.8978490829468
 20
-35.831859588623
 30
0.0
 11
10.2297077178955
 21
-37.5
 31
0.0
  0
LINE
  5
   1FB
  8
0
  6
CONTINUOUS
 62
     3
 10
14.0191679000854
 20
-35.831859588623
 30
0.0
 11
11.4999847412109
 21
-38.3510437011719
 31
0.0
  0
LINE
  5
   1FC
  8
0
  6
CONTINUOUS
 62
     3
 10
16.1404876708984
 20
-35.831859588623
 30
0.0
 11
11.4999847412109
 21
-40.4723663330078
 31
0.0
  0
LINE
  5
   1FD
  8
0
  6
CONTINUOUS
 62
     3
 10
18.2618083953857
 20
-35.831859588623
 30
0.0
 11
12.0936679840088
 21
-42.0
 31
0.0
  0
LINE
  5
   1FE
  8
0
  6
CONTINUOUS
 62
     3
 10
20.3831272125244
 20
-35.831859588623
 30
0.0
 11
14.2149887084961
 21
-42.0
 31
0.0
  0
LINE
  5
   1FF
  8
0
  6
CONTINUOUS
 62
     3
 10
22.5044460296631
 20
-35.831859588623
 30
0.0
 11
16.3363094329834
 21
-42.0
 31
0.0
  0
LINE
  5
   200
  8
0
  6
CONTINUOUS
 62
     3
 10
24.6257648468018
 20
-35.831859588623
 30
0.0
 11
18.4576282501221
 21
-42.0
 31
0.0
  0
LINE
  5
   201
  8
0
  6
CONTINUOUS
 62
     3
 10
26.7470836639404
 20
-35.831859588623
 30
0.0
 11
20.5789470672607
 21
-42.0
 31
0.0
  0
LINE
  5
   202
  8
0
  6
CONTINUOUS
 62
     3
 10
28.8684024810791
 20
-35.831859588623
 30
0.0
 11
22.7002658843994
 21
-42.0
 31
0.0
  0
LINE
  5
   203
  8
0
  6
CONTINUOUS
 62
     3
 10
30.9897212982178
 20
-35.831859588623
 30
0.0
 11
24.8215847015381
 21
-42.0
 31
0.0
  0
LINE
  5
   204
  8
0
  6
CONTINUOUS
 62
     3
 10
33.1110420227051
 20
-35.831859588623
 30
0.0
 11
26.9429035186768
 21
-42.0
 31
0.0
  0
LINE
  5
   205
  8
0
  6
CONTINUOUS
 62
     3
 10
35.232364654541
 20
-35.831859588623
 30
0.0
 11
29.0642223358154
 21
-42.0
 31
0.0
  0
LINE
  5
   206
  8
0
  6
CONTINUOUS
 62
     3
 10
36.1029396057129
 20
-37.0826148986816
 30
0.0
 11
31.1855506896973
 21
-42.0
 31
0.0
  0
LINE
  5
   207
  8
0
  6
CONTINUOUS
 62
     3
 10
36.5830268859863
 20
-38.7238502502441
 30
0.0
 11
33.3068733215332
 21
-42.0
 31
0.0
  0
LINE
  5
   208
  8
0
  6
CONTINUOUS
 62
     3
 10
37.0631141662598
 20
-40.3650856018066
 30
0.0
 11
35.4281959533691
 21
-42.0
 31
0.0
  0
ENDBLK
  5
   209
  8
0
  6
CONTINUOUS
 62
     7
  0
BLOCK
  5
   20A
  8
0
  6
CONTINUOUS
 62
     7
  2
*UDIM450
 70
    65
 10
0.0
 20
0.0
 30
0.0
  3
*UDIM450
  0
TEXT
  5
   20B
  8
0
  6
CONTINUOUS
 62
     7
 10
250.865487788388
 20
119.65025811096
 30
0.0
 40
2.99999994933605
  1
12
 50
90.0
 41
0.933333333333333
 72
     1
 11
249.365487813717
 21
122.150258068738
 31
0.0
 73
     2
  0
LINE
  5
   20C
  8
0
  6
CONTINUOUS
 62
     7
 10
222.881666621388
 20
109.602868169546
 30
0.0
 11
253.865487788385
 21
109.602868169546
 31
0.0
  0
LINE
  5
   20D
  8
0
  6
CONTINUOUS
 62
     7
 10
215.393784172833
 20
114.402869223132
 30
0.0
 11
253.865487788385
 21
114.402869223132
 31
0.0
  0
LINE
  5
   20E
  8
0
  6
CONTINUOUS
 62
     7
 10
251.865487788385
 20
104.602868169546
 30
0.0
 11
251.865487788385
 21
124.650258026519
 31
0.0
  0
LINE
  5
   20F
  8
0
  6
CONTINUOUS
 62
     7
 10
252.641944944804
 20
106.705090696336
 30
0.0
 11
251.865487788385
 21
109.602868169546
 31
0.0
  0
LINE
  5
   210
  8
0
  6
CONTINUOUS
 62
     7
 10
251.865487788385
 20
109.602868169546
 30
0.0
 11
251.089030631967
 21
106.705090696336
 31
0.0
  0
LINE
  5
   211
  8
0
  6
CONTINUOUS
 62
     7
 10
251.089030631967
 20
117.300646696343
 30
0.0
 11
251.865487788385
 21
114.402869223132
 31
0.0
  0
LINE
  5
   212
  8
0
  6
CONTINUOUS
 62
     7
 10
251.865487788385
 20
114.402869223132
 30
0.0
 11
252.641944944804
 21
117.300646696343
 31
0.0
  0
ENDBLK
  5
   213
  8
0
  6
CONTINUOUS
 62
     7
  0
BLOCK
  5
   214
  8
0
  6
CONTINUOUS
 62
     7
  2
*UDIM451
 70
    65
 10
0.0
 20
0.0
 30
0.0
  3
*UDIM451
  0
TEXT
  5
   215
  8
0
  6
CONTINUOUS
 62
     7
 10
274.876958894591
 20
84.2924520570366
 30
0.0
 40
2.99999994933605
  1
111,75
 50
90.0
 41
0.933333333333333
 72
     1
 11
273.376958919913
 21
92.3924519202421
 31
0.0
 73
     2
  0
LINE
  5
   216
  8
0
  6
CONTINUOUS
 62
     7
 10
215.393784172833
 20
114.402869223132
 30
0.0
 11
277.876958894581
 21
114.402869223132
 31
0.0
  0
LINE
  5
   217
  8
0
  6
CONTINUOUS
 62
     7
 10
275.876958894581
 20
69.7028492644426
 30
0.0
 11
275.876958894581
 21
114.402869223132
 31
0.0
  0
LINE
  5
   218
  8
0
  6
CONTINUOUS
 62
     7
 10
275.100501738162
 20
72.6006267376532
 30
0.0
 11
275.876958894581
 21
69.7028492644426
 31
0.0
  0
LINE
  5
   219
  8
0
  6
CONTINUOUS
 62
     7
 10
275.876958894581
 20
69.7028492644426
 30
0.0
 11
276.653416050999
 21
72.6006267376532
 31
0.0
  0
LINE
  5
   21A
  8
0
  6
CONTINUOUS
 62
     7
 10
276.653416050999
 20
111.505091749922
 30
0.0
 11
275.876958894581
 21
114.402869223132
 31
0.0
  0
LINE
  5
   21B
  8
0
  6
CONTINUOUS
 62
     7
 10
275.876958894581
 20
114.402869223132
 30
0.0
 11
275.100501738162
 21
111.505091749922
 31
0.0
  0
ENDBLK
  5
   21C
  8
0
  6
CONTINUOUS
 62
     7
  0
BLOCK
  5
   21D
  8
0
  6
CONTINUOUS
 62
     7
  2
*UDIM452
 70
    65
 10
0.0
 20
0.0
 30
0.0
  3
*UDIM452
  0
TEXT
  5
   21E
  8
0
  6
CONTINUOUS
 62
     7
 10
265.051752234679
 20
65.8028523820655
 30
0.0
 40
2.99999994933605
  1
105
 50
90.0
 41
0.933333333333333
 72
     1
 11
263.551752260006
 21
69.7028523162005
 31
0.0
 73
     2
  0
LINE
  5
   21F
  8
0
  6
CONTINUOUS
 62
     7
 10
245.49376592934
 20
48.702855055034
 30
0.0
 11
268.051752234674
 21
48.702855055034
 31
0.0
  0
LINE
  5
   220
  8
0
  6
CONTINUOUS
 62
     7
 10
245.49376592934
 20
90.702849577367
 30
0.0
 11
268.051752234674
 21
90.702849577367
 31
0.0
  0
LINE
  5
   221
  8
0
  6
CONTINUOUS
 62
     7
 10
266.051752234674
 20
48.702855055034
 30
0.0
 11
266.051752234674
 21
90.702849577367
 31
0.0
  0
LINE
  5
   222
  8
0
  6
CONTINUOUS
 62
     7
 10
265.275295078255
 20
51.6006325282445
 30
0.0
 11
266.051752234674
 21
48.702855055034
 31
0.0
  0
LINE
  5
   223
  8
0
  6
CONTINUOUS
 62
     7
 10
266.051752234674
 20
48.702855055034
 30
0.0
 11
266.828209391092
 21
51.6006325282445
 31
0.0
  0
LINE
  5
   224
  8
0
  6
CONTINUOUS
 62
     7
 10
266.828209391092
 20
87.8050721041565
 30
0.0
 11
266.051752234674
 21
90.702849577367
 31
0.0
  0
LINE
  5
   225
  8
0
  6
CONTINUOUS
 62
     7
 10
266.051752234674
 20
90.702849577367
 30
0.0
 11
265.275295078255
 21
87.8050721041565
 31
0.0
  0
ENDBLK
  5
   226
  8
0
  6
CONTINUOUS
 62
     7
  0
BLOCK
  5
   227
  8
0
  6
CONTINUOUS
 62
     7
  2
*UDIM453
 70
    65
 10
0.0
 20
0.0
 30
0.0
  3
*UDIM453
  0
TEXT
  5
   228
  8
0
  6
CONTINUOUS
 62
     7
 10
251.224633723737
 20
27.8028668761272
 30
0.0
 40
2.99999994933605
  1
12
 50
90.0
 41
0.933333333333333
 72
     1
 11
249.724633749066
 21
30.3028668339054
 31
0.0
 73
     2
  0
LINE
  5
   229
  8
0
  6
CONTINUOUS
 62
     7
 10
214.173783773184
 20
18.0028658279953
 30
0.0
 11
254.224633723734
 21
18.0028658279953
 31
0.0
  0
LINE
  5
   22A
  8
0
  6
CONTINUOUS
 62
     7
 10
215.510333618952
 20
22.8028668761253
 30
0.0
 11
254.224633723734
 21
22.8028668761253
 31
0.0
  0
LINE
  5
   22B
  8
0
  6
CONTINUOUS
 62
     7
 10
252.224633723734
 20
13.0028658279953
 30
0.0
 11
252.224633723734
 21
32.8028667916854
 31
0.0
  0
LINE
  5
   22C
  8
0
  6
CONTINUOUS
 62
     7
 10
253.001090880153
 20
15.1050883547847
 30
0.0
 11
252.224633723734
 21
18.0028658279953
 31
0.0
  0
LINE
  5
   22D
  8
0
  6
CONTINUOUS
 62
     7
 10
252.224633723734
 20
18.0028658279953
 30
0.0
 11
251.448176567316
 21
15.1050883547847
 31
0.0
  0
LINE
  5
   22E
  8
0
  6
CONTINUOUS
 62
     7
 10
251.448176567316
 20
25.7006443493359
 30
0.0
 11
252.224633723734
 21
22.8028668761253
 31
0.0
  0
LINE
  5
   22F
  8
0
  6
CONTINUOUS
 62
     7
 10
252.224633723734
 20
22.8028668761253
 30
0.0
 11
253.001090880153
 21
25.7006443493359
 31
0.0
  0
ENDBLK
  5
   230
  8
0
  6
CONTINUOUS
 62
     7
  0
BLOCK
  5
   231
  8
0
  6
CONTINUOUS
 62
     7
  2
*UDIM454
 70
    65
 10
0.0
 20
0.0
 30
0.0
  3
*UDIM454
  0
TEXT
  5
   232
  8
0
  6
CONTINUOUS
 62
     7
 10
286.754428042202
 20
62.3028675914288
 30
0.0
 40
2.99999994933605
  1
241
 50
90.0
 41
0.933333333333333
 72
     1
 11
285.254428067529
 21
66.2028675255637
 31
0.0
 73
     2
  0
LINE
  5
   233
  8
0
  6
CONTINUOUS
 62
     7
 10
214.173783773184
 20
18.0028658279953
 30
0.0
 11
289.754428042197
 21
18.0028658279953
 31
0.0
  0
LINE
  5
   234
  8
0
  6
CONTINUOUS
 62
     7
 10
215.393784172833
 20
114.402869223132
 30
0.0
 11
289.754428042197
 21
114.402869223132
 31
0.0
  0
LINE
  5
   235
  8
0
  6
CONTINUOUS
 62
     7
 10
287.754428042197
 20
18.0028658279953
 30
0.0
 11
287.754428042197
 21
114.402869223132
 31
0.0
  0
LINE
  5
   236
  8
0
  6
CONTINUOUS
 62
     7
 10
286.977970885778
 20
20.9006433012058
 30
0.0
 11
287.754428042197
 21
18.0028658279953
 31
0.0
  0
LINE
  5
   237
  8
0
  6
CONTINUOUS
 62
     7
 10
287.754428042197
 20
18.0028658279953
 30
0.0
 11
288.530885198615
 21
20.9006433012058
 31
0.0
  0
LINE
  5
   238
  8
0
  6
CONTINUOUS
 62
     7
 10
288.530885198615
 20
111.505091749922
 30
0.0
 11
287.754428042197
 21
114.402869223132
 31
0.0
  0
LINE
  5
   239
  8
0
  6
CONTINUOUS
 62
     7
 10
287.754428042197
 20
114.402869223132
 30
0.0
 11
286.977970885778
 21
111.505091749922
 31
0.0
  0
ENDBLK
  5
   23A
  8
0
  6
CONTINUOUS
 62
     7
  0
BLOCK
  5
   23B
  8
0
  6
CONTINUOUS
 62
     7
  2
*UDIM455
 70
    65
 10
0.0
 20
0.0
 30
0.0
  3
*UDIM455
  0
TEXT
  5
   23C
  8
0
  6
CONTINUOUS
 62
     7
 10
212.093777866561
 20
179.048757509228
 30
0.0
 40
2.99999994933605
  1
101,5
 41
0.933333333333333
 72
     1
 11
218.793777753412
 21
180.548757483896
 31
0.0
 73
     2
  0
LINE
  5
   23D
  8
0
  6
CONTINUOUS
 62
     7
 10
198.49378965795
 20
129.102993953255
 30
0.0
 11
198.49378965795
 21
180.048757509228
 31
0.0
  0
LINE
  5
   23E
  8
0
  6
CONTINUOUS
 62
     7
 10
239.093765848873
 20
111.002849864959
 30
0.0
 11
239.093765848873
 21
180.048757509228
 31
0.0
  0
LINE
  5
   23F
  8
0
  6
CONTINUOUS
 62
     7
 10
198.49378965795
 20
178.048757509228
 30
0.0
 11
239.093765848873
 21
178.048757509228
 31
0.0
  0
LINE
  5
   240
  8
0
  6
CONTINUOUS
 62
     7
 10
201.391567131161
 20
178.825214665646
 30
0.0
 11
198.49378965795
 21
178.048757509228
 31
0.0
  0
LINE
  5
   241
  8
0
  6
CONTINUOUS
 62
     7
 10
198.49378965795
 20
178.048757509228
 30
0.0
 11
201.391567131161
 21
177.272300352809
 31
0.0
  0
LINE
  5
   242
  8
0
  6
CONTINUOUS
 62
     7
 10
236.195988375663
 20
177.272300352809
 30
0.0
 11
239.093765848873
 21
178.048757509228
 31
0.0
  0
LINE
  5
   243
  8
0
  6
CONTINUOUS
 62
     7
 10
239.093765848873
 20
178.048757509228
 30
0.0
 11
236.195988375663
 21
178.825214665646
 31
0.0
  0
ENDBLK
  5
   244
  8
0
  6
CONTINUOUS
 62
     7
  0
BLOCK
  5
   245
  8
0
  6
CONTINUOUS
 62
     7
  2
*UDIM456
 70
    65
 10
0.0
 20
0.0
 30
0.0
  3
*UDIM456
  0
TEXT
  5
   246
  8
0
  6
CONTINUOUS
 62
     7
 10
189.325879552644
 20
-39.1979679666568
 30
0.0
 40
2.99999994933605
  1
3
 41
0.933333333333333
 72
     1
 11
190.425879534067
 21
-37.6979679919887
 31
0.0
 73
     2
  0
TEXT
  5
   247
  8
0
  6
CONTINUOUS
 62
     7
 10
185.759212847731
 20
-39.4479680180658
 30
0.0
 40
3.50000005215406
  1
_
 41
0.933333333333333
 72
     1
 11
187.042546200187
 21
-37.6979679919887
 31
0.0
 73
     2
  0
LINE
  5
   248
  8
0
  6
CONTINUOUS
 62
     7
 10
197.293783536553
 20
6.826860972753
 30
0.0
 11
197.293783536553
 21
-42.1979679666568
 31
0.0
  0
LINE
  5
   249
  8
0
  6
CONTINUOUS
 62
     7
 10
198.493783554435
 20
7.29486149018686
 30
0.0
 11
198.493783554435
 21
-42.1979679666568
 31
0.0
  0
LINE
  5
   24A
  8
0
  6
CONTINUOUS
 62
     7
 10
185.759212847731
 20
-40.1979679666568
 30
0.0
 11
198.493783554435
 21
-40.1979679666568
 31
0.0
  0
LINE
  5
   24B
  8
0
  6
CONTINUOUS
 62
     7
 10
194.396006063343
 20
-40.9744251230753
 30
0.0
 11
197.293783536553
 21
-40.1979679666568
 31
0.0
  0
LINE
  5
   24C
  8
0
  6
CONTINUOUS
 62
     7
 10
197.293783536553
 20
-40.1979679666568
 30
0.0
 11
194.396006063343
 21
-39.4215108102382
 31
0.0
  0
LINE
  5
   24D
  8
0
  6
CONTINUOUS
 62
     7
 10
201.391561027645
 20
-39.4215108102382
 30
0.0
 11
198.493783554435
 21
-40.1979679666568
 31
0.0
  0
LINE
  5
   24E
  8
0
  6
CONTINUOUS
 62
     7
 10
198.493783554435
 20
-40.1979679666568
 30
0.0
 11
201.391561027645
 21
-40.9744251230753
 31
0.0
  0
ENDBLK
  5
   24F
  8
0
  6
CONTINUOUS
 62
     7
  0
BLOCK
  5
   250
  8
0
  6
CONTINUOUS
 62
     7
  2
*UDIM457
 70
    65
 10
0.0
 20
0.0
 30
0.0
  3
*UDIM457
  0
TEXT
  5
   251
  8
0
  6
CONTINUOUS
 62
     7
 10
212.493774820764
 20
-39.1979679666568
 30
0.0
 40
2.99999994933605
  1
103,5
 41
0.933333333333333
 72
     1
 11
219.193774707614
 21
-37.6979679919887
 31
0.0
 73
     2
  0
LINE
  5
   252
  8
0
  6
CONTINUOUS
 62
     7
 10
239.893765860794
 20
47.702855055034
 30
0.0
 11
239.893765860794
 21
-42.1979679666568
 31
0.0
  0
LINE
  5
   253
  8
0
  6
CONTINUOUS
 62
     7
 10
198.493783554435
 20
-40.1979679666568
 30
0.0
 11
239.893765860794
 21
-40.1979679666568
 31
0.0
  0
LINE
  5
   254
  8
0
  6
CONTINUOUS
 62
     7
 10
201.391561027645
 20
-39.4215108102382
 30
0.0
 11
198.493783554435
 21
-40.1979679666568
 31
0.0
  0
LINE
  5
   255
  8
0
  6
CONTINUOUS
 62
     7
 10
198.493783554435
 20
-40.1979679666568
 30
0.0
 11
201.391561027645
 21
-40.9744251230753
 31
0.0
  0
LINE
  5
   256
  8
0
  6
CONTINUOUS
 62
     7
 10
236.995988387584
 20
-40.9744251230753
 30
0.0
 11
239.893765860794
 21
-40.1979679666568
 31
0.0
  0
LINE
  5
   257
  8
0
  6
CONTINUOUS
 62
     7
 10
239.893765860794
 20
-40.1979679666568
 30
0.0
 11
236.995988387584
 21
-39.4215108102382
 31
0.0
  0
ENDBLK
  5
   258
  8
0
  6
CONTINUOUS
 62
     7
  0
BLOCK
  5
   259
  8
0
  6
CONTINUOUS
 62
     7
  2
*UDIM458
 70
    65
 10
0.0
 20
0.0
 30
0.0
  3
*UDIM458
  0
TEXT
  5
   25A
  8
0
  6
CONTINUOUS
 62
     7
 10
215.993777835666
 20
185.718610594282
 30
0.0
 40
2.99999994933605
  1
107
 41
0.933333333333333
 72
     1
 11
219.893777769803
 21
187.21861056895
 31
0.0
 73
     2
  0
LINE
  5
   25B
  8
0
  6
CONTINUOUS
 62
     7
 10
198.49378965795
 20
129.102993953255
 30
0.0
 11
198.49378965795
 21
186.718610594282
 31
0.0
  0
LINE
  5
   25C
  8
0
  6
CONTINUOUS
 62
     7
 10
241.293765881656
 20
132.492983043313
 30
0.0
 11
241.293765881656
 21
186.718610594282
 31
0.0
  0
LINE
  5
   25D
  8
0
  6
CONTINUOUS
 62
     7
 10
198.49378965795
 20
184.718610594282
 30
0.0
 11
241.293765881656
 21
184.718610594282
 31
0.0
  0
LINE
  5
   25E
  8
0
  6
CONTINUOUS
 62
     7
 10
201.391567131161
 20
185.495067750701
 30
0.0
 11
198.49378965795
 21
184.718610594282
 31
0.0
  0
LINE
  5
   25F
  8
0
  6
CONTINUOUS
 62
     7
 10
198.49378965795
 20
184.718610594282
 30
0.0
 11
201.391567131161
 21
183.942153437864
 31
0.0
  0
LINE
  5
   260
  8
0
  6
CONTINUOUS
 62
     7
 10
238.395988408445
 20
183.942153437864
 30
0.0
 11
241.293765881656
 21
184.718610594282
 31
0.0
  0
LINE
  5
   261
  8
0
  6
CONTINUOUS
 62
     7
 10
241.293765881656
 20
184.718610594282
 30
0.0
 11
238.395988408445
 21
185.495067750701
 31
0.0
  0
ENDBLK
  5
   262
  8
0
  6
CONTINUOUS
 62
     7
  0
BLOCK
  5
   263
  8
0
  6
CONTINUOUS
 62
     7
  2
*UDIM459
 70
    65
 10
0.0
 20
0.0
 30
0.0
  3
*UDIM459
  0
TEXT
  5
   264
  8
0
  6
CONTINUOUS
 62
     7
 10
250.534608492067
 20
185.718610594282
 30
0.0
 40
2.99999994933605
  1
2
 41
0.933333333333333
 72
     1
 11
251.63460847349
 21
187.21861056895
 31
0.0
 73
     2
  0
LINE
  5
   265
  8
0
  6
CONTINUOUS
 62
     7
 10
242.093765893577
 20
131.982983035714
 30
0.0
 11
242.093765893577
 21
186.718610594282
 31
0.0
  0
LINE
  5
   266
  8
0
  6
CONTINUOUS
 62
     7
 10
241.293765881656
 20
184.718610594282
 30
0.0
 11
252.734608454914
 21
184.718610594282
 31
0.0
  0
LINE
  5
   267
  8
0
  6
CONTINUOUS
 62
     7
 10
238.395988408445
 20
183.942153437864
 30
0.0
 11
241.293765881656
 21
184.718610594282
 31
0.0
  0
LINE
  5
   268
  8
0
  6
CONTINUOUS
 62
     7
 10
241.293765881656
 20
184.718610594282
 30
0.0
 11
238.395988408445
 21
185.495067750701
 31
0.0
  0
LINE
  5
   269
  8
0
  6
CONTINUOUS
 62
     7
 10
244.991543366787
 20
185.495067750701
 30
0.0
 11
242.093765893577
 21
184.718610594282
 31
0.0
  0
LINE
  5
   26A
  8
0
  6
CONTINUOUS
 62
     7
 10
242.093765893577
 20
184.718610594282
 30
0.0
 11
244.991543366787
 21
183.942153437864
 31
0.0
  0
ENDBLK
  5
   26B
  8
0
  6
CONTINUOUS
 62
     7
  0
BLOCK
  5
   26C
  8
0
  6
CONTINUOUS
 62
     7
  2
*UDIM460
 70
    65
 10
0.0
 20
0.0
 30
0.0
  3
*UDIM460
  0
TEXT
  5
   26D
  8
0
  6
CONTINUOUS
 62
     7
 10
221.109552337853
 20
-45.6870331196129
 30
0.0
 40
2.99999994933605
  1
159
 41
0.933333333333333
 72
     1
 11
225.009552271989
 21
-44.1870331449449
 31
0.0
 73
     2
  0
LINE
  5
   26E
  8
0
  6
CONTINUOUS
 62
     7
 10
198.493783554435
 20
7.29486149018686
 30
0.0
 11
198.493783554435
 21
-48.6870331196129
 31
0.0
  0
LINE
  5
   26F
  8
0
  6
CONTINUOUS
 62
     7
 10
258.492806902694
 20
57.1776978210347
 30
0.0
 11
258.492806902694
 21
-48.6870331196129
 31
0.0
  0
LINE
  5
   270
  8
0
  6
CONTINUOUS
 62
     7
 10
198.493783554435
 20
-46.6870331196129
 30
0.0
 11
258.492806902694
 21
-46.6870331196129
 31
0.0
  0
LINE
  5
   271
  8
0
  6
CONTINUOUS
 62
     7
 10
201.391561027645
 20
-45.9105759631944
 30
0.0
 11
198.493783554435
 21
-46.6870331196129
 31
0.0
  0
LINE
  5
   272
  8
0
  6
CONTINUOUS
 62
     7
 10
198.493783554435
 20
-46.6870331196129
 30
0.0
 11
201.391561027645
 21
-47.4634902760315
 31
0.0
  0
LINE
  5
   273
  8
0
  6
CONTINUOUS
 62
     7
 10
255.595029429483
 20
-47.4634902760315
 30
0.0
 11
258.492806902694
 21
-46.6870331196129
 31
0.0
  0
LINE
  5
   274
  8
0
  6
CONTINUOUS
 62
     7
 10
258.492806902694
 20
-46.6870331196129
 30
0.0
 11
255.595029429483
 21
-45.9105759631944
 31
0.0
  0
ENDBLK
  5
   275
  8
0
  6
CONTINUOUS
 62
     7
  0
BLOCK
  5
   276
  8
0
  6
CONTINUOUS
 62
     7
  2
*UDIM461
 70
    65
 10
0.0
 20
0.0
 30
0.0
  3
*UDIM461
  0
TEXT
  5
   277
  8
0
  6
CONTINUOUS
 62
     7
 10
203.103846523004
 20
172.218497401335
 30
0.0
 40
2.99999994933605
  1
49,5
 41
0.933333333333333
 72
     1
 11
208.403846433498
 21
173.718497376003
 31
0.0
 73
     2
  0
LINE
  5
   278
  8
0
  6
CONTINUOUS
 62
     7
 10
198.49378965795
 20
129.102993953255
 30
0.0
 11
198.49378965795
 21
173.218497401335
 31
0.0
  0
LINE
  5
   279
  8
0
  6
CONTINUOUS
 62
     7
 10
218.313903209045
 20
167.402870971229
 30
0.0
 11
218.313903209045
 21
173.218497401335
 31
0.0
  0
LINE
  5
   27A
  8
0
  6
CONTINUOUS
 62
     7
 10
198.49378965795
 20
171.218497401335
 30
0.0
 11
218.313903209045
 21
171.218497401335
 31
0.0
  0
LINE
  5
   27B
  8
0
  6
CONTINUOUS
 62
     7
 10
201.391567131161
 20
171.994954557753
 30
0.0
 11
198.49378965795
 21
171.218497401335
 31
0.0
  0
LINE
  5
   27C
  8
0
  6
CONTINUOUS
 62
     7
 10
198.49378965795
 20
171.218497401335
 30
0.0
 11
201.391567131161
 21
170.442040244916
 31
0.0
  0
LINE
  5
   27D
  8
0
  6
CONTINUOUS
 62
     7
 10
215.416125735835
 20
170.442040244916
 30
0.0
 11
218.313903209045
 21
171.218497401335
 31
0.0
  0
LINE
  5
   27E
  8
0
  6
CONTINUOUS
 62
     7
 10
218.313903209045
 20
171.218497401335
 30
0.0
 11
215.416125735835
 21
171.994954557753
 31
0.0
  0
ENDBLK
  5
   27F
  8
0
  6
CONTINUOUS
 62
     7
  0
BLOCK
  5
   280
  8
0
  6
CONTINUOUS
 62
     7
  2
*UDIM462
 70
    65
 10
0.0
 20
0.0
 30
0.0
  3
*UDIM462
  0
TEXT
  5
   281
  8
0
  6
CONTINUOUS
 62
     7
 10
218.813844282893
 20
172.218497401335
 30
0.0
 40
2.99999994933605
  1
8
 41
0.933333333333333
 72
     1
 11
219.913844264317
 21
173.718497376003
 31
0.0
 73
     2
  0
LINE
  5
   282
  8
0
  6
CONTINUOUS
 62
     7
 10
221.513785319588
 20
167.402870971229
 30
0.0
 11
221.513785319588
 21
173.218497401335
 31
0.0
  0
LINE
  5
   283
  8
0
  6
CONTINUOUS
 62
     7
 10
218.313903209045
 20
171.218497401335
 30
0.0
 11
226.513785319588
 21
171.218497401335
 31
0.0
  0
LINE
  5
   284
  8
0
  6
CONTINUOUS
 62
     7
 10
215.416125735835
 20
170.442040244916
 30
0.0
 11
218.313903209045
 21
171.218497401335
 31
0.0
  0
LINE
  5
   285
  8
0
  6
CONTINUOUS
 62
     7
 10
218.313903209045
 20
171.218497401335
 30
0.0
 11
215.416125735835
 21
171.994954557753
 31
0.0
  0
LINE
  5
   286
  8
0
  6
CONTINUOUS
 62
     7
 10
224.411562792798
 20
171.994954557753
 30
0.0
 11
221.513785319588
 21
171.218497401335
 31
0.0
  0
LINE
  5
   287
  8
0
  6
CONTINUOUS
 62
     7
 10
221.513785319588
 20
171.218497401335
 30
0.0
 11
224.411562792798
 21
170.442040244916
 31
0.0
  0
ENDBLK
  5
   288
  8
0
  6
CONTINUOUS
 62
     7
  0
BLOCK
  5
   289
  8
0
  6
CONTINUOUS
 62
     7
  2
*UDIM463
 70
    65
 10
0.0
 20
0.0
 30
0.0
  3
*UDIM463
  0
TEXT
  5
   28A
  8
0
  6
CONTINUOUS
 62
     7
 10
203.103843471246
 20
-10.1494101982149
 30
0.0
 40
2.99999994933605
  1
49,5
 41
0.933333333333333
 72
     1
 11
208.40384338174
 21
-8.64941022354687
 31
0.0
 73
     2
  0
LINE
  5
   28B
  8
0
  6
CONTINUOUS
 62
     7
 10
198.493783554435
 20
7.29486149018686
 30
0.0
 11
198.493783554435
 21
-13.1494101982149
 31
0.0
  0
LINE
  5
   28C
  8
0
  6
CONTINUOUS
 62
     7
 10
198.493783554435
 20
-11.1494101982149
 30
0.0
 11
218.313903209045
 21
-11.1494101982149
 31
0.0
  0
LINE
  5
   28D
  8
0
  6
CONTINUOUS
 62
     7
 10
201.391561027645
 20
-10.3729530417964
 30
0.0
 11
198.493783554435
 21
-11.1494101982149
 31
0.0
  0
LINE
  5
   28E
  8
0
  6
CONTINUOUS
 62
     7
 10
198.493783554435
 20
-11.1494101982149
 30
0.0
 11
201.391561027645
 21
-11.9258673546334
 31
0.0
  0
LINE
  5
   28F
  8
0
  6
CONTINUOUS
 62
     7
 10
215.416125735835
 20
-11.9258673546334
 30
0.0
 11
218.313903209045
 21
-11.1494101982149
 31
0.0
  0
LINE
  5
   290
  8
0
  6
CONTINUOUS
 62
     7
 10
218.313903209045
 20
-11.1494101982149
 30
0.0
 11
215.416125735835
 21
-10.3729530417964
 31
0.0
  0
ENDBLK
  5
   291
  8
0
  6
CONTINUOUS
 62
     7
  0
BLOCK
  5
   292
  8
0
  6
CONTINUOUS
 62
     7
  2
*UDIM464
 70
    65
 10
0.0
 20
0.0
 30
0.0
  3
*UDIM464
  0
TEXT
  5
   293
  8
0
  6
CONTINUOUS
 62
     7
 10
227.409815974566
 20
-10.1494101982149
 30
0.0
 40
2.99999994933605
  1
8
 41
0.933333333333333
 72
     1
 11
228.509815955989
 21
-8.64941022354687
 31
0.0
 73
     2
  0
LINE
  5
   294
  8
0
  6
CONTINUOUS
 62
     7
 10
218.313903209045
 20
-11.1494101982149
 30
0.0
 11
229.609815937413
 21
-11.1494101982149
 31
0.0
  0
LINE
  5
   295
  8
0
  6
CONTINUOUS
 62
     7
 10
215.416125735835
 20
-11.9258673546334
 30
0.0
 11
218.313903209045
 21
-11.1494101982149
 31
0.0
  0
LINE
  5
   296
  8
0
  6
CONTINUOUS
 62
     7
 10
218.313903209045
 20
-11.1494101982149
 30
0.0
 11
215.416125735835
 21
-10.3729530417964
 31
0.0
  0
LINE
  5
   297
  8
0
  6
CONTINUOUS
 62
     7
 10
224.411626647504
 20
-10.3729530417964
 30
0.0
 11
221.513849174293
 21
-11.1494101982149
 31
0.0
  0
LINE
  5
   298
  8
0
  6
CONTINUOUS
 62
     7
 10
221.513849174293
 20
-11.1494101982149
 30
0.0
 11
224.411626647504
 21
-11.9258673546334
 31
0.0
  0
ENDBLK
  5
   299
  8
0
  6
CONTINUOUS
 62
     7
  0
BLOCK
  5
   29A
  8
0
  6
CONTINUOUS
 62
     7
  2
*HATCH81
 70
    65
 10
0.0
 20
0.0
 30
0.0
  3
*HATCH81
  0
LINE
  5
   29B
  8
0
  6
CONTINUOUS
 62
    92
 10
26.7723064422607
 20
183.75
 30
0.0
 11
20.5499858856201
 21
177.527679443359
 31
0.0
  0
LINE
  5
   29C
  8
0
  6
CONTINUOUS
 62
    92
 10
28.5501136779785
 20
177.042526245117
 30
0.0
 11
27.5075874328613
 21
176.0
 31
0.0
  0
ENDBLK
  5
   29D
  8
0
  6
CONTINUOUS
 62
     7
  0
BLOCK
  5
   29E
  8
0
  6
CONTINUOUS
 62
     7
  2
*HATCH82
 70
    65
 10
0.0
 20
0.0
 30
0.0
  3
*HATCH82
  0
LINE
  5
   29F
  8
0
  6
CONTINUOUS
 62
    92
 10
52.9120330810547
 20
290.499908447266
 30
0.0
 11
47.0502815246582
 21
284.638153076172
 31
0.0
  0
LINE
  5
   2A0
  8
0
  6
CONTINUOUS
 62
    92
 10
55.0499992370606
 20
284.152557373047
 30
0.0
 11
47.0502815246582
 21
276.152862548828
 31
0.0
  0
LINE
  5
   2A1
  8
0
  6
CONTINUOUS
 62
    92
 10
55.0500144958496
 20
275.667266845703
 30
0.0
 11
47.0502815246582
 21
267.667572021484
 31
0.0
  0
LINE
  5
   2A2
  8
0
  6
CONTINUOUS
 62
    92
 10
55.0500297546387
 20
267.181976318359
 30
0.0
 11
47.0502815246582
 21
259.182281494141
 31
0.0
  0
LINE
  5
   2A3
  8
0
  6
CONTINUOUS
 62
    92
 10
55.0500450134277
 20
258.696685791016
 30
0.0
 11
47.0502815246582
 21
250.696990966797
 31
0.0
  0
LINE
  5
   2A4
  8
0
  6
CONTINUOUS
 62
    92
 10
55.0500602722168
 20
250.21142578125
 30
0.0
 11
47.0502815246582
 21
242.211700439453
 31
0.0
  0
LINE
  5
   2A5
  8
0
  6
CONTINUOUS
 62
    92
 10
55.0500755310059
 20
241.726165771484
 30
0.0
 11
47.0502815246582
 21
233.726409912109
 31
0.0
  0
LINE
  5
   2A6
  8
0
  6
CONTINUOUS
 62
    92
 10
24.7640285491943
 20
207.197570800781
 30
0.0
 11
22.4283962249756
 21
204.861938476563
 31
0.0
  0
LINE
  5
   2A7
  8
0
  6
CONTINUOUS
 62
    92
 10
33.0987548828125
 20
211.289657592773
 30
0.0
 11
20.5499858856201
 21
198.74089050293
 31
0.0
  0
LINE
  5
   2A8
  8
0
  6
CONTINUOUS
 62
    92
 10
41.0483551025391
 20
214.996612548828
 30
0.0
 11
20.5499858856201
 21
194.498245239258
 31
0.0
  0
LINE
  5
   2A9
  8
0
  6
CONTINUOUS
 62
    92
 10
28.5499687194824
 20
198.255584716797
 30
0.0
 11
20.5499858856201
 21
190.255599975586
 31
0.0
  0
LINE
  5
   2AA
  8
0
  6
CONTINUOUS
 62
    92
 10
28.5499687194824
 20
194.012954711914
 30
0.0
 11
24.7870235443115
 21
190.25
 31
0.0
  0
ENDBLK
  5
   2AB
  8
0
  6
CONTINUOUS
 62
     7
  0
BLOCK
  5
   2AC
  8
0
  6
CONTINUOUS
 62
     7
  2
*HATCH83
 70
    65
 10
0.0
 20
0.0
 30
0.0
  3
*HATCH83
  0
LINE
  5
   2AD
  8
0
  6
CONTINUOUS
 62
    92
 10
53.9562950134277
 20
317.0
 30
0.0
 11
47.0502815246582
 21
310.093994140625
 31
0.0
  0
LINE
  5
   2AE
  8
0
  6
CONTINUOUS
 62
    92
 10
55.0499877929688
 20
309.608428955078
 30
0.0
 11
48.9414901733398
 21
303.499908447266
 31
0.0
  0
ENDBLK
  5
   2AF
  8
0
  6
CONTINUOUS
 62
     7
  0
BLOCK
  5
   2B0
  8
0
  6
CONTINUOUS
 62
     7
  2
*UDIM465
 70
    65
 10
0.0
 20
0.0
 30
0.0
  3
*UDIM465
  0
TEXT
  5
   2B1
  8
0
  6
CONTINUOUS
 62
     7
 10
229.941273022273
 20
144.898370448109
 30
0.0
 40
2.99999994933605
  1
13
 50
90.0
 41
0.933333333333333
 72
     1
 11
228.441273047602
 21
147.398370405887
 31
0.0
 73
     2
  0
TEXT
  5
   2B2
  8
0
  6
CONTINUOUS
 62
     7
 10
229.941273022272
 20
140.898370498773
 30
0.0
 40
2.99999994933605
  1
Ø
 50
90.0
 41
1.2
 72
     1
 11
228.441273047602
 21
142.398370473439
 31
0.0
 73
     2
  0
LINE
  5
   2B3
  8
0
  6
CONTINUOUS
 62
     7
 10
222.513785319588
 20
155.802828173052
 30
0.0
 11
232.94127302227
 21
155.802828173052
 31
0.0
  0
LINE
  5
   2B4
  8
0
  6
CONTINUOUS
 62
     7
 10
222.513785319588
 20
161.002836416793
 30
0.0
 11
232.94127302227
 21
161.002836416793
 31
0.0
  0
LINE
  5
   2B5
  8
0
  6
CONTINUOUS
 62
     7
 10
230.94127302227
 20
140.898370498771
 30
0.0
 11
230.94127302227
 21
166.002836416793
 31
0.0
  0
LINE
  5
   2B6
  8
0
  6
CONTINUOUS
 62
     7
 10
231.717730178689
 20
152.905050699842
 30
0.0
 11
230.94127302227
 21
155.802828173052
 31
0.0
  0
LINE
  5
   2B7
  8
0
  6
CONTINUOUS
 62
     7
 10
230.94127302227
 20
155.802828173052
 30
0.0
 11
230.164815865852
 21
152.905050699842
 31
0.0
  0
LINE
  5
   2B8
  8
0
  6
CONTINUOUS
 62
     7
 10
230.164815865852
 20
163.900613890004
 30
0.0
 11
230.94127302227
 21
161.002836416793
 31
0.0
  0
LINE
  5
   2B9
  8
0
  6
CONTINUOUS
 62
     7
 10
230.94127302227
 20
161.002836416793
 30
0.0
 11
231.717730178689
 21
163.900613890004
 31
0.0
  0
ENDBLK
  5
   2BA
  8
0
  6
CONTINUOUS
 62
     7
  0
BLOCK
  5
   2BB
  8
0
  6
CONTINUOUS
 62
     7
  2
*HATCH84
 70
    65
 10
0.0
 20
0.0
 30
0.0
  3
*HATCH84
  0
LINE
  5
   2BC
  8
0
  6
CONTINUOUS
 62
    92
 10
54.3600044250488
 20
-170.499954223633
 30
0.0
 11
47.0502815246582
 21
-177.809677124023
 31
0.0
  0
LINE
  5
   2BD
  8
0
  6
CONTINUOUS
 62
    92
 10
55.0499877929688
 20
-178.29524230957
 30
0.0
 11
49.3451957702637
 21
-184.000030517578
 31
0.0
  0
ENDBLK
  5
   2BE
  8
0
  6
CONTINUOUS
 62
     7
  0
BLOCK
  5
   2BF
  8
0
  6
CONTINUOUS
 62
     7
  2
*HATCH85
 70
    65
 10
0.0
 20
0.0
 30
0.0
  3
*HATCH85
  0
LINE
  5
   2C0
  8
0
  6
CONTINUOUS
 62
    92
 10
27.6028099060059
 20
-57.2500038146973
 30
0.0
 11
20.5499858856201
 21
-64.3028259277344
 31
0.0
  0
LINE
  5
   2C1
  8
0
  6
CONTINUOUS
 62
    92
 10
28.5499687194824
 20
-64.7881240844727
 30
0.0
 11
22.0402755737305
 21
-71.2978210449219
 31
0.0
  0
LINE
  5
   2C2
  8
0
  6
CONTINUOUS
 62
    92
 10
32.5954437255859
 20
-69.2279357910156
 30
0.0
 11
26.5755424499512
 21
-75.2478332519531
 31
0.0
  0
LINE
  5
   2C3
  8
0
  6
CONTINUOUS
 62
    92
 10
38.3822784423828
 20
-71.9263763427734
 30
0.0
 11
32.362377166748
 21
-77.9462738037109
 31
0.0
  0
LINE
  5
   2C4
  8
0
  6
CONTINUOUS
 62
    92
 10
44.1691131591797
 20
-74.6248168945313
 30
0.0
 11
38.1492118835449
 21
-80.6447143554688
 31
0.0
  0
LINE
  5
   2C5
  8
0
  6
CONTINUOUS
 62
    92
 10
49.9168815612793
 20
-77.3623352050781
 30
0.0
 11
43.9360504150391
 21
-83.3431701660156
 31
0.0
  0
LINE
  5
   2C6
  8
0
  6
CONTINUOUS
 62
    92
 10
54.0405197143555
 20
-81.7239837646484
 30
0.0
 11
47.0502815246582
 21
-88.7142181396484
 31
0.0
  0
LINE
  5
   2C7
  8
0
  6
CONTINUOUS
 62
    92
 10
55.0501403808594
 20
-89.1996383666992
 30
0.0
 11
47.0502815246582
 21
-97.1995010375977
 31
0.0
  0
LINE
  5
   2C8
  8
0
  6
CONTINUOUS
 62
    92
 10
55.0501251220703
 20
-97.684944152832
 30
0.0
 11
47.0502815246582
 21
-105.684776306152
 31
0.0
  0
LINE
  5
   2C9
  8
0
  6
CONTINUOUS
 62
    92
 10
55.0501098632813
 20
-106.170249938965
 30
0.0
 11
47.0502815246582
 21
-114.170051574707
 31
0.0
  0
LINE
  5
   2CA
  8
0
  6
CONTINUOUS
 62
    92
 10
55.0500946044922
 20
-114.655555725098
 30
0.0
 11
47.0502815246582
 21
-122.655326843262
 31
0.0
  0
LINE
  5
   2CB
  8
0
  6
CONTINUOUS
 62
    92
 10
55.0500793457031
 20
-123.14086151123
 30
0.0
 11
47.0502815246582
 21
-131.140609741211
 31
0.0
  0
LINE
  5
   2CC
  8
0
  6
CONTINUOUS
 62
    92
 10
55.0500640869141
 20
-131.626159667969
 30
0.0
 11
47.0502815246582
 21
-139.625900268555
 31
0.0
  0
LINE
  5
   2CD
  8
0
  6
CONTINUOUS
 62
    92
 10
55.050048828125
 20
-140.111450195313
 30
0.0
 11
47.0502815246582
 21
-148.111190795898
 31
0.0
  0
LINE
  5
   2CE
  8
0
  6
CONTINUOUS
 62
    92
 10
55.0500335693359
 20
-148.596740722656
 30
0.0
 11
47.0502815246582
 21
-156.596481323242
 31
0.0
  0
LINE
  5
   2CF
  8
0
  6
CONTINUOUS
 62
    92
 10
55.049991607666
 20
-157.08203125
 30
0.0
 11
54.6321029663086
 21
-157.499923706055
 31
0.0
  0
ENDBLK
  5
   2D0
  8
0
  6
CONTINUOUS
 62
     7
  0
BLOCK
  5
   2D1
  8
0
  6
CONTINUOUS
 62
     7
  2
*HATCH86
 70
    65
 10
0.0
 20
0.0
 30
0.0
  3
*HATCH86
  0
LINE
  5
   2D2
  8
0
  6
CONTINUOUS
 62
    92
 10
24.8822402954102
 20
-43.0000114440918
 30
0.0
 11
20.5499858856201
 21
-47.3322639465332
 31
0.0
  0
LINE
  5
   2D3
  8
0
  6
CONTINUOUS
 62
    92
 10
28.5500316619873
 20
-47.8175010681152
 30
0.0
 11
25.6175289154053
 21
-50.7500038146973
 31
0.0
  0
ENDBLK
  5
   2D4
  8
0
  6
CONTINUOUS
 62
     7
  0
BLOCK
  5
   2D5
  8
0
  6
CONTINUOUS
 62
     2
  2
*UDIM466
 70
    65
 10
0.0
 20
0.0
 30
0.0
  3
*UDIM466
  0
TEXT
  5
   2D6
  8
0
  6
CONTINUOUS
 62
     2
 10
63.8934478689267
 20
-93.0299499985868
 30
0.0
 40
3.00000002980232
  1
237
 50
449.999999896069
 41
0.933333333333333
 72
     1
 11
62.3934478610754
 21
-89.1299499571323
 31
0.0
 73
     2
  0
LINE
  5
   2D7
  8
0
  6
CONTINUOUS
 62
     2
 10
84.8860745591256
 20
-66.7299499511719
 30
0.0
 11
62.8934478759766
 21
-66.7299499511719
 31
0.0
  0
LINE
  5
   2D8
  8
0
  6
CONTINUOUS
 62
     2
 10
84.713672193172
 20
-110.979949951172
 30
0.0
 11
62.8934478759766
 21
-110.979949951172
 31
0.0
  0
LINE
  5
   2D9
  8
0
  6
CONTINUOUS
 62
     2
 10
64.8934478759766
 20
-66.7299499511719
 30
0.0
 11
64.8934478759766
 21
-110.979949951172
 31
0.0
  0
LINE
  5
   2DA
  8
0
  6
CONTINUOUS
 62
     2
 10
65.4143923059282
 20
-69.6843732283789
 30
0.0
 11
64.8934478759766
 21
-66.7299499511719
 31
0.0
  0
LINE
  5
   2DB
  8
0
  6
CONTINUOUS
 62
     2
 10
64.8934478759766
 20
-66.7299499511719
 30
0.0
 11
64.3725034460249
 21
-69.6843732283789
 31
0.0
  0
LINE
  5
   2DC
  8
0
  6
CONTINUOUS
 62
     2
 10
64.3725034460249
 20
-108.025526673965
 30
0.0
 11
64.8934478759766
 21
-110.979949951172
 31
0.0
  0
LINE
  5
   2DD
  8
0
  6
CONTINUOUS
 62
     2
 10
64.8934478759766
 20
-110.979949951172
 30
0.0
 11
65.4143923059282
 21
-108.025526673965
 31
0.0
  0
ENDBLK
  5
   2DE
  8
0
  6
CONTINUOUS
 62
     2
  0
BLOCK
  5
   2DF
  8
0
  6
CONTINUOUS
 62
     7
  2
*UDIM467
 70
    65
 10
0.0
 20
0.0
 30
0.0
  3
*UDIM467
  0
TEXT
  5
   2E0
  8
0
  6
CONTINUOUS
 62
     7
 10
74.244493469855
 20
-84.8628040188026
 30
0.0
 40
3.00000002980232
  1
109.75
 50
449.999999896069
 41
0.933333333333333
 72
     1
 11
72.7444934695959
 21
-76.7628039356249
 31
0.0
 73
     2
  0
LINE
  5
   2E1
  8
0
  6
CONTINUOUS
 62
     7
 10
84.8860745591256
 20
-66.7299496372554
 30
0.0
 11
73.2444934844972
 21
-66.7299459827713
 31
0.0
  0
LINE
  5
   2E2
  8
0
  6
CONTINUOUS
 62
     7
 10
75.2444934844971
 20
-66.7299466106043
 30
0.0
 11
75.2444934844971
 21
-86.66743571059
 31
0.0
  0
LINE
  5
   2E3
  8
0
  6
CONTINUOUS
 62
     7
 10
74.7235490545454
 20
-63.7755233333973
 30
0.0
 11
75.2444934844971
 21
-66.7299466106043
 31
0.0
  0
LINE
  5
   2E4
  8
0
  6
CONTINUOUS
 62
     7
 10
75.2444934844971
 20
-66.7299466106043
 30
0.0
 11
75.7654379144487
 21
-63.7755233333973
 31
0.0
  0
LINE
  5
   2E5
  8
0
  6
CONTINUOUS
 62
     7
 10
75.7654379144487
 20
-89.6218589877969
 30
0.0
 11
75.2444934844971
 21
-86.66743571059
 31
0.0
  0
LINE
  5
   2E6
  8
0
  6
CONTINUOUS
 62
     7
 10
75.2444934844971
 20
-86.66743571059
 30
0.0
 11
74.7235490545454
 21
-89.6218589877969
 31
0.0
  0
ENDBLK
  5
   2E7
  8
0
  6
CONTINUOUS
 62
     7
  0
BLOCK
  5
   2E8
  8
0
  6
CONTINUOUS
 62
     7
  2
*UDIM468
 70
    65
 10
0.0
 20
0.0
 30
0.0
  3
*UDIM468
  0
TEXT
  5
   2E9
  8
0
  6
CONTINUOUS
 62
     7
 10
33.8283648646583
 20
-115.104333236197
 30
0.0
 40
3.00000002980232
  1
5,5
 50
365.302111861461
 41
0.933333333333333
 72
     1
 11
37.5730670107682
 21
-113.250362852447
 31
0.0
 73
     2
  0
TEXT
  5
   2EA
  8
0
  6
CONTINUOUS
 62
     7
 10
30.6918427833588
 20
-115.395416207367
 30
0.0
 40
3.00000002980232
  1
Ø
 50
365.302111861461
 41
0.933333333333334
 72
     1
 11
31.6485252818589
 21
-113.800186234665
 31
0.0
 73
     2
  0
TEXT
  5
   2EB
  8
0
  6
CONTINUOUS
 62
     7
 10
42.1426377469175
 20
-114.33273234686
 30
0.0
 40
3.00000002980232
  1
 - M5
 50
365.302111861461
 41
0.933333333333333
 72
     1
 11
48.6753595406371
 21
-112.220021552064
 31
0.0
 73
     2
  0
LINE
  5
   2EC
  8
0
  6
CONTINUOUS
 62
     7
 10
89.7762713403633
 20
-110.916419938924
 30
0.0
 11
30.7842500767871
 21
-116.391137501757
 31
0.0
  0
LINE
  5
   2ED
  8
0
  6
CONTINUOUS
 62
     7
 10
92.6699144417105
 20
-110.124694227566
 30
0.0
 11
89.7762713403633
 21
-110.916419938924
 31
0.0
  0
LINE
  5
   2EE
  8
0
  6
CONTINUOUS
 62
     7
 10
89.7762713403633
 20
-110.916419938924
 30
0.0
 11
92.7661925683008
 21
-111.162125149956
 31
0.0
  0
LINE
  5
   2EF
  8
0
  6
CONTINUOUS
 62
     7
 10
85.5135114616098
 20
-111.835205674778
 30
0.0
 11
88.4071545629571
 21
-111.04347996342
 31
0.0
  0
LINE
  5
   2F0
  8
0
  6
CONTINUOUS
 62
     7
 10
88.4071545629571
 20
-111.04347996342
 30
0.0
 11
85.4172333350195
 21
-110.797774752388
 31
0.0
  0
ENDBLK
  5
   2F1
  8
0
  6
CONTINUOUS
 62
     7
  0
BLOCK
  5
   2F2
  8
0
  6
CONTINUOUS
 62
     7
  2
*UDIM469
 70
    65
 10
0.0
 20
0.0
 30
0.0
  3
*UDIM469
  0
TEXT
  5
   2F3
  8
0
  6
CONTINUOUS
 62
     7
 10
95.0667129181511
 20
-79.0044479324894
 30
0.0
 40
3.00000002980232
  1
70
 50
359.999999896069
 41
0.933333333333333
 72
     1
 11
97.5667129456997
 21
-77.5044479221106
 31
0.0
 73
     2
  0
LINE
  5
   2F4
  8
0
  6
CONTINUOUS
 62
     7
 10
106.59171295166
 20
-80.0044479370117
 30
0.0
 11
89.0917129516602
 21
-80.0044479370117
 31
0.0
  0
LINE
  5
   2F5
  8
0
  6
CONTINUOUS
 62
     7
 10
103.637289674453
 20
-80.5253923669634
 30
0.0
 11
106.59171295166
 21
-80.0044479370117
 31
0.0
  0
LINE
  5
   2F6
  8
0
  6
CONTINUOUS
 62
     7
 10
106.59171295166
 20
-80.0044479370117
 30
0.0
 11
103.637289674453
 21
-79.4835035070601
 31
0.0
  0
LINE
  5
   2F7
  8
0
  6
CONTINUOUS
 62
     7
 10
92.0461362288671
 20
-79.4835035070601
 30
0.0
 11
89.0917129516602
 21
-80.0044479370117
 31
0.0
  0
LINE
  5
   2F8
  8
0
  6
CONTINUOUS
 62
     7
 10
89.0917129516602
 20
-80.0044479370117
 30
0.0
 11
92.0461362288671
 21
-80.5253923669634
 31
0.0
  0
ENDBLK
  5
   2F9
  8
0
  6
CONTINUOUS
 62
     7
  0
BLOCK
  5
   2FA
  8
0
  6
CONTINUOUS
 62
     7
  2
*UDIM470
 70
    65
 10
0.0
 20
0.0
 30
0.0
  3
*UDIM470
  0
TEXT
  5
   2FB
  8
0
  6
CONTINUOUS
 62
     7
 10
247.839450506457
 20
-119.473648060697
 30
0.0
 40
3.00000002980232
  1
147
 50
359.999999844103
 41
0.933333333333333
 72
     1
 11
251.739450549274
 21
-117.973648056388
 31
0.0
 73
     2
  0
LINE
  5
   2FC
  8
0
  6
CONTINUOUS
 62
     7
 10
233.639449180295
 20
-106.293685913086
 30
0.0
 11
233.639434732447
 21
-122.473648071288
 31
0.0
  0
LINE
  5
   2FD
  8
0
  6
CONTINUOUS
 62
     7
 10
270.389449180295
 20
-106.293685913086
 30
0.0
 11
270.389434732447
 21
-122.473648071288
 31
0.0
  0
LINE
  5
   2FE
  8
0
  6
CONTINUOUS
 62
     7
 10
233.639436518341
 20
-120.473648071289
 30
0.0
 11
270.389436518341
 21
-120.473648071289
 31
0.0
  0
LINE
  5
   2FF
  8
0
  6
CONTINUOUS
 62
     7
 10
236.593859795548
 20
-119.952703641337
 30
0.0
 11
233.639436518341
 21
-120.473648071289
 31
0.0
  0
LINE
  5
   300
  8
0
  6
CONTINUOUS
 62
     7
 10
233.639436518341
 20
-120.473648071289
 30
0.0
 11
236.593859795548
 21
-120.994592501241
 31
0.0
  0
LINE
  5
   301
  8
0
  6
CONTINUOUS
 62
     7
 10
267.435013241134
 20
-120.994592501241
 30
0.0
 11
270.389436518341
 21
-120.473648071289
 31
0.0
  0
LINE
  5
   302
  8
0
  6
CONTINUOUS
 62
     7
 10
270.389436518341
 20
-120.473648071289
 30
0.0
 11
267.435013241134
 21
-119.952703641337
 31
0.0
  0
ENDBLK
  5
   303
  8
0
  6
CONTINUOUS
 62
     7
  0
BLOCK
  5
   304
  8
0
  6
CONTINUOUS
 62
     7
  2
*UDIM471
 70
    65
 10
0.0
 20
0.0
 30
0.0
  3
*UDIM471
  0
TEXT
  5
   305
  8
0
  6
CONTINUOUS
 62
     7
 10
247.839450505105
 20
-64.2356605423866
 30
0.0
 40
3.00000002980232
  1
115
 50
359.999999844103
 41
0.933333333333333
 72
     1
 11
251.739450547922
 21
-62.7356605380774
 31
0.0
 73
     2
  0
LINE
  5
   306
  8
0
  6
CONTINUOUS
 62
     7
 10
237.639450387159
 20
-70.418685913086
 30
0.0
 11
237.639452642029
 21
-63.2356605529786
 31
0.0
  0
LINE
  5
   307
  8
0
  6
CONTINUOUS
 62
     7
 10
266.389450387159
 20
-70.418685913086
 30
0.0
 11
266.389452642029
 21
-63.2356605529786
 31
0.0
  0
LINE
  5
   308
  8
0
  6
CONTINUOUS
 62
     7
 10
237.639452014196
 20
-65.2356605529785
 30
0.0
 11
266.389452014196
 21
-65.2356605529785
 31
0.0
  0
LINE
  5
   309
  8
0
  6
CONTINUOUS
 62
     7
 10
240.593875291403
 20
-64.7147161230269
 30
0.0
 11
237.639452014196
 21
-65.2356605529785
 31
0.0
  0
LINE
  5
   30A
  8
0
  6
CONTINUOUS
 62
     7
 10
237.639452014196
 20
-65.2356605529785
 30
0.0
 11
240.593875291403
 21
-65.7566049829302
 31
0.0
  0
LINE
  5
   30B
  8
0
  6
CONTINUOUS
 62
     7
 10
263.435028736989
 20
-65.7566049829302
 30
0.0
 11
266.389452014196
 21
-65.2356605529785
 31
0.0
  0
LINE
  5
   30C
  8
0
  6
CONTINUOUS
 62
     7
 10
266.389452014196
 20
-65.2356605529785
 30
0.0
 11
263.435028736989
 21
-64.7147161230269
 31
0.0
  0
ENDBLK
  5
   30D
  8
0
  6
CONTINUOUS
 62
     7
  0
BLOCK
  5
   30E
  8
0
  6
CONTINUOUS
 62
     7
  2
*UDIM472
 70
    65
 10
0.0
 20
0.0
 30
0.0
  3
*UDIM472
  0
TEXT
  5
   30F
  8
0
  6
CONTINUOUS
 62
     7
 10
212.525627125643
 20
-95.4686859618614
 30
0.0
 40
3.00000002980232
  1
142
 50
449.999999844103
 41
0.933333333333333
 72
     1
 11
211.025627121329
 21
-91.5686859190464
 31
0.0
 73
     2
  0
LINE
  5
   310
  8
0
  6
CONTINUOUS
 62
     7
 10
234.514450073242
 20
-73.5436859130859
 30
0.0
 11
211.525627136231
 21
-73.5436859130859
 31
0.0
  0
LINE
  5
   311
  8
0
  6
CONTINUOUS
 62
     7
 10
234.514450073242
 20
-109.043685913086
 30
0.0
 11
211.525627136231
 21
-109.043685913086
 31
0.0
  0
LINE
  5
   312
  8
0
  6
CONTINUOUS
 62
     7
 10
213.52562713623
 20
-73.5436859130859
 30
0.0
 11
213.52562713623
 21
-109.043685913086
 31
0.0
  0
LINE
  5
   313
  8
0
  6
CONTINUOUS
 62
     7
 10
214.046571566182
 20
-76.4981091902929
 30
0.0
 11
213.52562713623
 21
-73.5436859130859
 31
0.0
  0
LINE
  5
   314
  8
0
  6
CONTINUOUS
 62
     7
 10
213.52562713623
 20
-73.5436859130859
 30
0.0
 11
213.004682706279
 21
-76.4981091902929
 31
0.0
  0
LINE
  5
   315
  8
0
  6
CONTINUOUS
 62
     7
 10
213.004682706279
 20
-106.089262635879
 30
0.0
 11
213.52562713623
 21
-109.043685913086
 31
0.0
  0
LINE
  5
   316
  8
0
  6
CONTINUOUS
 62
     7
 10
213.52562713623
 20
-109.043685913086
 30
0.0
 11
214.046571566182
 21
-106.089262635879
 31
0.0
  0
ENDBLK
  5
   317
  8
0
  6
CONTINUOUS
 62
     7
  0
BLOCK
  5
   318
  8
0
  6
CONTINUOUS
 62
     7
  2
*UDIM473
 70
    65
 10
0.0
 20
0.0
 30
0.0
  3
*UDIM473
  0
TEXT
  5
   319
  8
0
  6
CONTINUOUS
 62
     7
 10
220.651153553866
 20
-95.4686859618614
 30
0.0
 40
3.00000002980232
  1
112
 50
449.999999844103
 41
0.933333333333333
 72
     1
 11
219.151153549552
 21
-91.5686859190464
 31
0.0
 73
     2
  0
LINE
  5
   31A
  8
0
  6
CONTINUOUS
 62
     7
 10
232.639450073242
 20
-77.2936859130859
 30
0.0
 11
219.651153564453
 21
-77.2936859130859
 31
0.0
  0
LINE
  5
   31B
  8
0
  6
CONTINUOUS
 62
     7
 10
232.639450073242
 20
-105.293685913086
 30
0.0
 11
219.651153564453
 21
-105.293685913086
 31
0.0
  0
LINE
  5
   31C
  8
0
  6
CONTINUOUS
 62
     7
 10
221.651153564453
 20
-77.2936859130859
 30
0.0
 11
221.651153564453
 21
-105.293685913086
 31
0.0
  0
LINE
  5
   31D
  8
0
  6
CONTINUOUS
 62
     7
 10
222.172097994405
 20
-80.2481091902929
 30
0.0
 11
221.651153564453
 21
-77.2936859130859
 31
0.0
  0
LINE
  5
   31E
  8
0
  6
CONTINUOUS
 62
     7
 10
221.651153564453
 20
-77.2936859130859
 30
0.0
 11
221.130209134501
 21
-80.2481091902929
 31
0.0
  0
LINE
  5
   31F
  8
0
  6
CONTINUOUS
 62
     7
 10
221.130209134501
 20
-102.339262635879
 30
0.0
 11
221.651153564453
 21
-105.293685913086
 31
0.0
  0
LINE
  5
   320
  8
0
  6
CONTINUOUS
 62
     7
 10
221.651153564453
 20
-105.293685913086
 30
0.0
 11
222.172097994405
 21
-102.339262635879
 31
0.0
  0
ENDBLK
  5
   321
  8
0
  6
CONTINUOUS
 62
     7
  0
BLOCK
  5
   322
  8
0
  6
CONTINUOUS
 62
     7
  2
*UDIM474
 70
    65
 10
0.0
 20
0.0
 30
0.0
  3
*UDIM474
  0
TEXT
  5
   323
  8
0
  6
CONTINUOUS
 62
     7
 10
278.304203533209
 20
-60.2725582248291
 30
0.0
 40
3.00000002980232
  1
7
 50
404.868411918951
 41
0.933333333333334
 72
     1
 11
278.025583891139
 21
-58.4334358352648
 31
0.0
 73
     2
  0
TEXT
  5
   324
  8
0
  6
CONTINUOUS
 62
     7
 10
276.071707533884
 20
-62.4948232125345
 30
0.0
 40
3.00000002980232
  1
Ø
 50
404.868411918951
 41
0.933333333333334
 72
     1
 11
275.793087891814
 21
-60.6557008229702
 31
0.0
 73
     2
  0
LINE
  5
   325
  8
0
  6
CONTINUOUS
 62
     7
 10
280.568888050112
 20
-59.4292290133372
 30
0.0
 11
265.769312297608
 21
-74.1609817410573
 31
0.0
  0
LINE
  5
   326
  8
0
  6
CONTINUOUS
 62
     7
 10
268.735956598815
 20
-70.472892390142
 30
0.0
 11
267.009587848877
 21
-72.9263900851145
 31
0.0
  0
LINE
  5
   327
  8
0
  6
CONTINUOUS
 62
     7
 10
267.009587848877
 20
-72.9263900851145
 30
0.0
 11
269.470989337591
 21
-71.2113091216151
 31
0.0
  0
LINE
  5
   328
  8
0
  6
CONTINUOUS
 62
     7
 10
264.042943547669
 20
-76.6144794360299
 30
0.0
 11
265.769312297608
 21
-74.1609817410573
 31
0.0
  0
LINE
  5
   329
  8
0
  6
CONTINUOUS
 62
     7
 10
265.769312297608
 20
-74.1609817410573
 30
0.0
 11
263.307910808894
 21
-75.8760627045568
 31
0.0
  0
ENDBLK
  5
   32A
  8
0
  6
CONTINUOUS
 62
     7
  0
ENDSEC
  0
SECTION
  2
ENTITIES
  0
LINE
  5
   32B
  8
0
  6
CONTINUOUS
 62
     7
 10
56.8417367547754
 20
118.602854570746
 30
0.0
 11
56.0417367428545
 21
118.602854570746
 31
0.0
  0
LINE
  5
   32C
  8
0
  6
CONTINUOUS
 62
     7
 10
56.041712328792
 20
110.002874519727
 30
0.0
 11
56.041712328792
 21
118.60285395383
 31
0.0
  0
LINE
  5
   32D
  8
0
  6
CONTINUOUS
 62
     7
 10
56.8417367547754
 20
118.602854570746
 30
0.0
 11
56.8417367547754
 21
119.402854582667
 31
0.0
  0
LINE
  5
   32E
  8
0
  6
CONTINUOUS
 62
     7
 10
82.9416945012583
 20
119.802860692141
 30
0.0
 11
57.2417173360686
 21
119.802860692141
 31
0.0
  0
LINE
  5
   32F
  8
0
  6
CONTINUOUS
 62
     1
 10
74.4419678438564
 20
116.802854543924
 30
0.0
 11
72.250032043581
 21
116.802854543924
 31
0.0
  0
LINE
  5
   330
  8
0
  6
CONTINUOUS
 62
     1
 10
74.4419678438564
 20
112.002854472399
 30
0.0
 11
72.250032043581
 21
112.002854472399
 31
0.0
  0
LINE
  5
   331
  8
0
  6
CONTINUOUS
 62
     1
 10
67.4334142116948
 20
112.002854301207
 30
0.0
 11
65.2419101236804
 21
112.00286176673
 31
0.0
  0
LINE
  5
   332
  8
0
  6
CONTINUOUS
 62
     1
 10
65.2419101257693
 20
116.802847250105
 30
0.0
 11
67.4334172841723
 21
116.802854715663
 31
0.0
  0
LINE
  5
   333
  8
0
  6
CONTINUOUS
 62
     7
 10
56.8417367547754
 20
110.002874325739
 30
0.0
 11
56.8417367547754
 21
118.602854570746
 31
0.0
  0
LINE
  5
   334
  8
0
  6
CONTINUOUS
 62
     7
 10
110.941701022007
 20
119.802854588625
 30
0.0
 11
84.7416945280804
 21
119.802854588625
 31
0.0
  0
LINE
  5
   335
  8
0
  6
CONTINUOUS
 62
     1
 10
95.4333953498555
 20
116.802854543924
 30
0.0
 11
93.2418658913853
 21
116.802854543924
 31
0.0
  0
LINE
  5
   336
  8
0
  6
CONTINUOUS
 62
     1
 10
95.4329662520544
 20
112.002854472399
 30
0.0
 11
93.2418658913853
 21
112.002854472399
 31
0.0
  0
LINE
  5
   337
  8
0
  6
CONTINUOUS
 62
     1
 10
100.250031110574
 20
112.00285046993
 30
0.0
 11
102.441767436531
 21
112.002857936269
 31
0.0
  0
LINE
  5
   338
  8
0
  6
CONTINUOUS
 62
     1
 10
102.441767433304
 20
116.802851080922
 30
0.0
 11
100.250031089408
 21
116.802858547261
 31
0.0
  0
LINE
  5
   339
  8
0
  6
CONTINUOUS
 62
     7
 10
139.641689160466
 20
118.602854570746
 30
0.0
 11
138.841689148545
 21
118.602854570746
 31
0.0
  0
LINE
  5
   33A
  8
0
  6
CONTINUOUS
 62
     7
 10
139.641713574528
 20
110.002854248618
 30
0.0
 11
139.641713574528
 21
118.602854498597
 31
0.0
  0
LINE
  5
   33B
  8
0
  6
CONTINUOUS
 62
     7
 10
138.841689148545
 20
118.602854570746
 30
0.0
 11
138.841689148545
 21
119.402854582667
 31
0.0
  0
LINE
  5
   33C
  8
0
  6
CONTINUOUS
 62
     7
 10
138.441708567252
 20
119.802860692141
 30
0.0
 11
112.741701048829
 21
119.802860692141
 31
0.0
  0
LINE
  5
   33D
  8
0
  6
CONTINUOUS
 62
     1
 10
123.433388137693
 20
116.802854543924
 30
0.0
 11
121.241619687351
 21
116.802854543924
 31
0.0
  0
LINE
  5
   33E
  8
0
  6
CONTINUOUS
 62
     1
 10
123.433388137693
 20
112.002854472399
 30
0.0
 11
121.241619687351
 21
112.002854472399
 31
0.0
  0
LINE
  5
   33F
  8
0
  6
CONTINUOUS
 62
     1
 10
128.250012072909
 20
112.002854301208
 30
0.0
 11
130.441765757935
 21
112.002861767582
 31
0.0
  0
LINE
  5
   340
  8
0
  6
CONTINUOUS
 62
     1
 10
130.441784066833
 20
116.802847249547
 30
0.0
 11
128.250009000293
 21
116.802854715993
 31
0.0
  0
CIRCLE
  5
   341
  8
0
  6
CONTINUOUS
 62
     1
 10
111.84161841846
 20
113.602894043216
 30
0.0
 40
2.10000003129244
  0
LINE
  5
   342
  8
0
  6
DASHDOT
 62
     7
 10
96.1219585590287
 20
114.402858478119
 30
0.0
 11
90.3617736052115
 21
114.402858478119
 31
0.0
  0
LINE
  5
   343
  8
0
  6
DASHDOT
 62
     7
 10
93.2418658913853
 20
111.522766191945
 30
0.0
 11
93.2418658913853
 21
117.282950764293
 31
0.0
  0
ARC
  5
   344
  8
0
  6
CONTINUOUS
 62
     1
 10
93.2418658913853
 20
114.402858478119
 30
0.0
 40
2.40007652367506
 50
90.0036557603355
 51
269.996301839899
  0
LINE
  5
   345
  8
0
  6
DASHDOT
 62
     7
 10
101.921859105021
 20
114.402692449207
 30
0.0
 11
93.7614789962553
 21
114.402692449207
 31
0.0
  0
ARC
  5
   346
  8
0
  6
CONTINUOUS
 62
     1
 10
97.8416690506498
 20
114.402692449207
 30
0.0
 40
3.40015837865234
 50
224.89430374687
 51
315.105491686916
  0
LINE
  5
   347
  8
0
  6
DASHDOT
 62
     7
 10
105.321690432673
 20
114.402920259131
 30
0.0
 11
99.5618273228357
 21
114.402920259131
 31
0.0
  0
LINE
  5
   348
  8
0
  6
DASHDOT
 62
     7
 10
102.441759259227
 20
111.522986953273
 30
0.0
 11
102.441759259227
 21
117.282849300171
 31
0.0
  0
ARC
  5
   349
  8
0
  6
CONTINUOUS
 62
     1
 10
102.441759259224
 20
114.402920259131
 30
0.0
 40
2.3999422630709
 50
269.999007927624
 51
450.00105270767
  0
LINE
  5
   34A
  8
0
  6
DASHDOT
 62
     7
 10
124.121501969838
 20
114.402877799615
 30
0.0
 11
118.361712990801
 21
114.402877799615
 31
0.0
  0
LINE
  5
   34B
  8
0
  6
DASHDOT
 62
     7
 10
121.241619687351
 20
111.522977206581
 30
0.0
 11
121.241619687351
 21
117.282778392648
 31
0.0
  0
ARC
  5
   34C
  8
0
  6
CONTINUOUS
 62
     1
 10
121.241619687351
 20
114.402877799615
 30
0.0
 40
2.39991639792208
 50
449.999999948034
 51
630.002376467854
  0
LINE
  5
   34D
  8
0
  6
DASHDOT
 62
     7
 10
129.921744130262
 20
114.402820773757
 30
0.0
 11
121.761676904971
 21
114.402820773757
 31
0.0
  0
ARC
  5
   34E
  8
0
  6
CONTINUOUS
 62
     1
 10
125.841716621132
 20
114.402820773757
 30
0.0
 40
3.40002801053812
 50
404.901045292561
 51
495.098630845462
  0
LINE
  5
   34F
  8
0
  6
DASHDOT
 62
     7
 10
133.321767748163
 20
114.402842552498
 30
0.0
 11
127.56175962184
 21
114.402842552498
 31
0.0
  0
LINE
  5
   350
  8
0
  6
DASHDOT
 62
     7
 10
130.441763685001
 20
111.522832385821
 30
0.0
 11
130.441763685001
 21
117.282852719176
 31
0.0
  0
ARC
  5
   351
  8
0
  6
CONTINUOUS
 62
     1
 10
130.441763685001
 20
114.402842552498
 30
0.0
 40
2.40000770929178
 50
269.998338346111
 51
450.001473300288
  0
LINE
  5
   352
  8
0
  6
DASHDOT
 62
     7
 10
138.153679848265
 20
118.202865069556
 30
0.0
 11
136.329703432726
 21
118.202865069556
 31
0.0
  0
LINE
  5
   353
  8
0
  6
DASHDOT
 62
     7
 10
137.241694692253
 20
117.290879913545
 30
0.0
 11
137.241694692253
 21
119.114850225567
 31
0.0
  0
CIRCLE
  5
   354
  8
0
  6
CONTINUOUS
 62
     1
 10
137.241694692253
 20
118.202865069556
 30
0.0
 40
0.759987630009447
  0
CIRCLE
  5
   355
  8
0
  6
CONTINUOUS
 62
     1
 10
137.241718662264
 20
118.202860901496
 30
0.0
 40
0.560022632971759
  0
ARC
  5
   356
  8
0
  6
CONTINUOUS
 62
     7
 10
138.441692282887
 20
119.402845445872
 30
0.0
 40
0.399999695980535
 50
360.000054589548
 51
449.999945306521
  0
CIRCLE
  5
   357
  8
0
  6
CONTINUOUS
 62
     1
 10
58.4416836853866
 20
118.202858198086
 30
0.0
 40
0.559977845392784
  0
LINE
  5
   358
  8
0
  6
DASHDOT
 62
     7
 10
59.3536693849649
 20
118.20293776098
 30
0.0
 11
57.5297976905261
 21
118.20293776098
 31
0.0
  0
LINE
  5
   359
  8
0
  6
DASHDOT
 62
     7
 10
58.4417335377455
 20
117.291008017276
 30
0.0
 11
58.4417335377455
 21
119.114867504683
 31
0.0
  0
CIRCLE
  5
   35A
  8
0
  6
CONTINUOUS
 62
     1
 10
58.4417335377455
 20
118.20293776098
 30
0.0
 40
0.759941453086422
  0
ARC
  5
   35B
  8
0
  6
CONTINUOUS
 62
     7
 10
57.2417354715541
 20
119.402852563401
 30
0.0
 40
0.399995443661572
 50
90.0005173512766
 51
180.001122723422
  0
LINE
  5
   35C
  8
0
  6
DASHDOT
 62
     7
 10
68.1220820355379
 20
114.40287247802
 30
0.0
 11
62.3617789790894
 21
114.40287247802
 31
0.0
  0
LINE
  5
   35D
  8
0
  6
DASHDOT
 62
     7
 10
65.2419305073137
 20
111.52271484628
 30
0.0
 11
65.2419305073137
 21
117.283030109759
 31
0.0
  0
ARC
  5
   35E
  8
0
  6
CONTINUOUS
 62
     1
 10
65.2419305073137
 20
114.40287247802
 30
0.0
 40
2.4001313597833
 50
90.0052836333811
 51
269.995265213079
  0
LINE
  5
   35F
  8
0
  6
DASHDOT
 62
     7
 10
73.921800754975
 20
114.402923952225
 30
0.0
 11
65.7616305457311
 21
114.402923952225
 31
0.0
  0
ARC
  5
   360
  8
0
  6
CONTINUOUS
 62
     1
 10
69.8417309091423
 20
114.402923952225
 30
0.0
 40
3.40006837738674
 50
224.901380849089
 51
315.098568474349
  0
LINE
  5
   361
  8
0
  6
DASHDOT
 62
     7
 10
77.3217643388016
 20
114.402872685469
 30
0.0
 11
71.5621713489112
 21
114.402872685469
 31
0.0
  0
LINE
  5
   362
  8
0
  6
DASHDOT
 62
     7
 10
74.4419678438564
 20
111.523070087008
 30
0.0
 11
74.4419678438564
 21
117.28267528393
 31
0.0
  0
ARC
  5
   363
  8
0
  6
CONTINUOUS
 62
     1
 10
74.4419678438564
 20
114.402872685469
 30
0.0
 40
2.39983549871742
 50
269.999999948034
 51
449.999945306521
  0
ARC
  5
   364
  8
0
  6
CONTINUOUS
 62
     1
 10
69.8417309091423
 20
114.402923952225
 30
0.0
 40
3.40006837738674
 50
404.897963373026
 51
495.101923170488
  0
ARC
  5
   365
  8
0
  6
CONTINUOUS
 62
     1
 10
97.8416690506498
 20
114.402692449207
 30
0.0
 40
3.40015837865234
 50
404.902109287098
 51
495.097767281763
  0
ARC
  5
   366
  8
0
  6
CONTINUOUS
 62
     1
 10
125.841716621132
 20
114.402820773757
 30
0.0
 40
3.40002801053812
 50
224.899545375473
 51
315.100341172749
  0
LINE
  5
   367
  8
0
  6
CONTINUOUS
 62
     7
 10
138.841710510848
 20
110.202864387148
 30
0.0
 11
56.8417367547754
 21
110.202864387148
 31
0.0
  0
LINE
  5
   368
  8
0
  6
CONTINUOUS
 62
     7
 10
138.841704407334
 20
110.002854442602
 30
0.0
 11
138.841704407334
 21
119.402845445872
 31
0.0
  0
LINE
  5
   369
  8
0
  6
CONTINUOUS
 62
     7
 10
56.9274636847638
 20
110.002874304952
 30
0.0
 11
56.9274636847638
 21
110.202860549092
 31
0.0
  0
LINE
  5
   36A
  8
0
  6
CONTINUOUS
 62
     1
 10
139.741722479301
 20
90.7028539610257
 30
0.0
 11
139.741722479301
 21
110.002854248618
 31
0.0
  0
LINE
  5
   36B
  8
0
  6
CONTINUOUS
 62
     1
 10
139.741722479301
 20
13.7228525087612
 30
0.0
 11
139.741722479301
 21
48.7028655422084
 31
0.0
  0
LINE
  5
   36C
  8
0
  6
CONTINUOUS
 62
     1
 10
55.9417212305833
 20
13.7228525087612
 30
0.0
 11
55.9417212305833
 21
48.7028411281455
 31
0.0
  0
LINE
  5
   36D
  8
0
  6
CONTINUOUS
 62
     1
 10
55.9417212305833
 20
90.7028295469628
 30
0.0
 11
55.9417212305833
 21
110.002854248618
 31
0.0
  0
LINE
  5
   36E
  8
0
  6
CONTINUOUS
 62
     1
 10
139.741722479301
 20
110.002854248618
 30
0.0
 11
55.9417212305833
 21
110.002854248618
 31
0.0
  0
LINE
  5
   36F
  8
0
  6
CONTINUOUS
 62
     1
 10
139.34172247334
 20
39.6028531995764
 30
0.0
 11
128.241713404655
 21
39.6028531995764
 31
0.0
  0
LINE
  5
   370
  8
0
  6
CONTINUOUS
 62
     1
 10
55.9417212305833
 20
48.7028472316612
 30
0.0
 11
55.9417212305833
 21
90.70284785751
 31
0.0
  0
LINE
  5
   371
  8
0
  6
CONTINUOUS
 62
     1
 10
139.741722479301
 20
48.7028472316612
 30
0.0
 11
139.741722479301
 21
90.70284785751
 31
0.0
  0
LINE
  5
   372
  8
0
  6
CONTINUOUS
 62
     1
 10
67.4417124986649
 20
48.7028472316612
 30
0.0
 11
56.1417212335635
 21
48.7028472316612
 31
0.0
  0
LINE
  5
   373
  8
0
  6
CONTINUOUS
 62
     1
 10
139.54172247632
 20
90.70284785751
 30
0.0
 11
128.241713404655
 21
90.70284785751
 31
0.0
  0
LINE
  5
   374
  8
0
  6
CONTINUOUS
 62
     1
 10
139.741722479301
 20
40.002853181695
 30
0.0
 11
128.241713404655
 21
40.002853181695
 31
0.0
  0
LINE
  5
   375
  8
0
  6
CONTINUOUS
 62
     1
 10
56.3417212127019
 20
39.6028531995764
 30
0.0
 11
56.3417212127019
 21
40.002853181695
 31
0.0
  0
LINE
  5
   376
  8
0
  6
CONTINUOUS
 62
     1
 10
139.34172247334
 20
39.6028531995764
 30
0.0
 11
139.34172247334
 21
40.002853181695
 31
0.0
  0
LINE
  5
   377
  8
0
  6
CONTINUOUS
 62
     1
 10
138.061717571454
 20
90.70284785751
 30
0.0
 11
138.061717571454
 21
110.002854248618
 31
0.0
  0
LINE
  5
   378
  8
0
  6
CONTINUOUS
 62
     1
 10
138.981718805866
 20
90.70284785751
 30
0.0
 11
138.981718805866
 21
110.002854248618
 31
0.0
  0
LINE
  5
   379
  8
0
  6
CONTINUOUS
 62
     1
 10
132.30171992703
 20
90.70284785751
 30
0.0
 11
132.30171992703
 21
110.002854248618
 31
0.0
  0
LINE
  5
   37A
  8
0
  6
CONTINUOUS
 62
     1
 10
133.741716286378
 20
90.70284785751
 30
0.0
 11
133.741716286378
 21
110.002854248618
 31
0.0
  0
LINE
  5
   37B
  8
0
  6
CONTINUOUS
 62
     1
 10
135.181718749242
 20
90.70284785751
 30
0.0
 11
135.181718749242
 21
110.002854248618
 31
0.0
  0
LINE
  5
   37C
  8
0
  6
CONTINUOUS
 62
     1
 10
136.621721212106
 20
90.70284785751
 30
0.0
 11
136.621721212106
 21
110.002854248618
 31
0.0
  0
LINE
  5
   37D
  8
0
  6
CONTINUOUS
 62
     1
 10
125.821721051173
 20
101.902847261464
 30
0.0
 11
125.821721051173
 21
110.002854248618
 31
0.0
  0
LINE
  5
   37E
  8
0
  6
CONTINUOUS
 62
     1
 10
126.74171618207
 20
101.902847261464
 30
0.0
 11
126.74171618207
 21
110.002854248618
 31
0.0
  0
LINE
  5
   37F
  8
0
  6
CONTINUOUS
 62
     1
 10
127.981718641954
 20
101.902847261464
 30
0.0
 11
127.981718641954
 21
110.002854248618
 31
0.0
  0
LINE
  5
   380
  8
0
  6
CONTINUOUS
 62
     1
 10
129.421721104817
 20
90.70284785751
 30
0.0
 11
129.421721104817
 21
110.002854248618
 31
0.0
  0
LINE
  5
   381
  8
0
  6
CONTINUOUS
 62
     1
 10
130.861717464166
 20
90.70284785751
 30
0.0
 11
130.861717464166
 21
110.002854248618
 31
0.0
  0
LINE
  5
   382
  8
0
  6
CONTINUOUS
 62
     1
 10
133.741716286378
 20
48.7028472316612
 30
0.0
 11
133.741716286378
 21
90.70284785751
 31
0.0
  0
LINE
  5
   383
  8
0
  6
CONTINUOUS
 62
     1
 10
136.621721212106
 20
48.7028472316612
 30
0.0
 11
136.621721212106
 21
90.70284785751
 31
0.0
  0
LINE
  5
   384
  8
0
  6
CONTINUOUS
 62
     1
 10
135.181718749242
 20
48.7028472316612
 30
0.0
 11
135.181718749242
 21
90.70284785751
 31
0.0
  0
LINE
  5
   385
  8
0
  6
CONTINUOUS
 62
     1
 10
130.861717464166
 20
48.7028472316612
 30
0.0
 11
130.861717464166
 21
90.70284785751
 31
0.0
  0
LINE
  5
   386
  8
0
  6
CONTINUOUS
 62
     1
 10
129.421721104817
 20
48.7028472316612
 30
0.0
 11
129.421721104817
 21
90.70284785751
 31
0.0
  0
LINE
  5
   387
  8
0
  6
CONTINUOUS
 62
     1
 10
138.061717571454
 20
48.7028472316612
 30
0.0
 11
138.061717571454
 21
90.70284785751
 31
0.0
  0
LINE
  5
   388
  8
0
  6
CONTINUOUS
 62
     1
 10
138.981718805866
 20
48.7028472316612
 30
0.0
 11
138.981718805866
 21
90.70284785751
 31
0.0
  0
LINE
  5
   389
  8
0
  6
CONTINUOUS
 62
     1
 10
138.061717571454
 20
40.002853181695
 30
0.0
 11
138.061717571454
 21
48.7028472078194
 31
0.0
  0
LINE
  5
   38A
  8
0
  6
CONTINUOUS
 62
     1
 10
138.981718805866
 20
40.002853181695
 30
0.0
 11
138.981718805866
 21
48.7028472078194
 31
0.0
  0
LINE
  5
   38B
  8
0
  6
CONTINUOUS
 62
     1
 10
132.30171992703
 20
40.002853181695
 30
0.0
 11
132.30171992703
 21
90.70284785751
 31
0.0
  0
LINE
  5
   38C
  8
0
  6
CONTINUOUS
 62
     1
 10
133.741716286378
 20
40.002853181695
 30
0.0
 11
133.741716286378
 21
48.7028472078194
 31
0.0
  0
LINE
  5
   38D
  8
0
  6
CONTINUOUS
 62
     1
 10
135.181718749242
 20
40.002853181695
 30
0.0
 11
135.181718749242
 21
48.7028472078194
 31
0.0
  0
LINE
  5
   38E
  8
0
  6
CONTINUOUS
 62
     1
 10
136.621721212106
 20
40.002853181695
 30
0.0
 11
136.621721212106
 21
48.7028472078194
 31
0.0
  0
LINE
  5
   38F
  8
0
  6
CONTINUOUS
 62
     1
 10
125.821721051173
 20
40.002853181695
 30
0.0
 11
125.821721051173
 21
48.7028472078194
 31
0.0
  0
LINE
  5
   390
  8
0
  6
CONTINUOUS
 62
     1
 10
129.421721104817
 20
40.002853181695
 30
0.0
 11
129.421721104817
 21
48.7028472078194
 31
0.0
  0
LINE
  5
   391
  8
0
  6
CONTINUOUS
 62
     1
 10
130.861717464166
 20
40.002853181695
 30
0.0
 11
130.861717464166
 21
48.7028472078194
 31
0.0
  0
LINE
  5
   392
  8
0
  6
CONTINUOUS
 62
     1
 10
57.6217211793233
 20
90.70284785751
 30
0.0
 11
57.6217211793233
 21
110.002854248618
 31
0.0
  0
LINE
  5
   393
  8
0
  6
CONTINUOUS
 62
     1
 10
56.7017210893203
 20
90.70284785751
 30
0.0
 11
56.7017210893203
 21
110.002854248618
 31
0.0
  0
LINE
  5
   394
  8
0
  6
CONTINUOUS
 62
     1
 10
63.3817176793385
 20
90.70284785751
 30
0.0
 11
63.3817176793385
 21
110.002854248618
 31
0.0
  0
LINE
  5
   395
  8
0
  6
CONTINUOUS
 62
     1
 10
61.9417213199903
 20
90.70284785751
 30
0.0
 11
61.9417213199903
 21
110.002854248618
 31
0.0
  0
LINE
  5
   396
  8
0
  6
CONTINUOUS
 62
     1
 10
60.5017211459447
 20
90.70284785751
 30
0.0
 11
60.5017211459447
 21
110.002854248618
 31
0.0
  0
LINE
  5
   397
  8
0
  6
CONTINUOUS
 62
     1
 10
59.0617209718991
 20
90.70284785751
 30
0.0
 11
59.0617209718991
 21
110.002854248618
 31
0.0
  0
LINE
  5
   398
  8
0
  6
CONTINUOUS
 62
     1
 10
69.8617165551949
 20
101.902847261464
 30
0.0
 11
69.8617165551949
 21
110.002854248618
 31
0.0
  0
LINE
  5
   399
  8
0
  6
CONTINUOUS
 62
     1
 10
69.1417214272786
 20
90.70284785751
 30
0.0
 11
69.1417214272786
 21
110.002854248618
 31
0.0
  0
LINE
  5
   39A
  8
0
  6
CONTINUOUS
 62
     1
 10
67.7017189644146
 20
101.841485040111
 30
0.0
 11
67.7017189644146
 21
110.002854248618
 31
0.0
  0
LINE
  5
   39B
  8
0
  6
CONTINUOUS
 62
     1
 10
66.2617165015507
 20
90.70284785751
 30
0.0
 11
66.2617165015507
 21
110.002854248618
 31
0.0
  0
LINE
  5
   39C
  8
0
  6
CONTINUOUS
 62
     1
 10
64.8217201422025
 20
90.70284785751
 30
0.0
 11
64.8217201422025
 21
110.002854248618
 31
0.0
  0
LINE
  5
   39D
  8
0
  6
CONTINUOUS
 62
     1
 10
61.9417209385205
 20
48.7028472316612
 30
0.0
 11
61.9417209385205
 21
90.70284785751
 31
0.0
  0
LINE
  5
   39E
  8
0
  6
CONTINUOUS
 62
     1
 10
63.3817176793385
 20
48.7028472316612
 30
0.0
 11
63.3817176793385
 21
90.70284785751
 31
0.0
  0
LINE
  5
   39F
  8
0
  6
CONTINUOUS
 62
     1
 10
59.0617209718991
 20
48.7028472316612
 30
0.0
 11
59.0617209718991
 21
90.70284785751
 31
0.0
  0
LINE
  5
   3A0
  8
0
  6
CONTINUOUS
 62
     1
 10
60.5017211459447
 20
48.7028472316612
 30
0.0
 11
60.5017211459447
 21
90.70284785751
 31
0.0
  0
LINE
  5
   3A1
  8
0
  6
CONTINUOUS
 62
     1
 10
69.1417153237629
 20
48.7028472316612
 30
0.0
 11
69.1417153237629
 21
90.70284785751
 31
0.0
  0
LINE
  5
   3A2
  8
0
  6
CONTINUOUS
 62
     1
 10
64.8217201422025
 20
48.7028472316612
 30
0.0
 11
64.8217201422025
 21
90.70284785751
 31
0.0
  0
LINE
  5
   3A3
  8
0
  6
CONTINUOUS
 62
     1
 10
66.2617165015507
 20
48.7028472316612
 30
0.0
 11
66.2617165015507
 21
90.70284785751
 31
0.0
  0
LINE
  5
   3A4
  8
0
  6
CONTINUOUS
 62
     1
 10
57.6217211793233
 20
48.7028472316612
 30
0.0
 11
57.6217211793233
 21
90.70284785751
 31
0.0
  0
LINE
  5
   3A5
  8
0
  6
CONTINUOUS
 62
     1
 10
56.7017210893203
 20
48.7028472316612
 30
0.0
 11
56.7017210893203
 21
90.70284785751
 31
0.0
  0
LINE
  5
   3A6
  8
0
  6
CONTINUOUS
 62
     1
 10
57.6217211793233
 20
40.002853181695
 30
0.0
 11
57.6217211793233
 21
48.7028472078194
 31
0.0
  0
LINE
  5
   3A7
  8
0
  6
CONTINUOUS
 62
     1
 10
56.7017210893203
 20
40.002853181695
 30
0.0
 11
56.7017210893203
 21
48.7028472078194
 31
0.0
  0
LINE
  5
   3A8
  8
0
  6
CONTINUOUS
 62
     1
 10
63.3817176793385
 20
40.002853181695
 30
0.0
 11
63.3817176793385
 21
48.7028472078194
 31
0.0
  0
LINE
  5
   3A9
  8
0
  6
CONTINUOUS
 62
     1
 10
61.9417213199903
 20
40.002853181695
 30
0.0
 11
61.9417213199903
 21
48.7028472078194
 31
0.0
  0
LINE
  5
   3AA
  8
0
  6
CONTINUOUS
 62
     1
 10
60.5017211459447
 20
40.002853181695
 30
0.0
 11
60.5017211459447
 21
48.7028472078194
 31
0.0
  0
LINE
  5
   3AB
  8
0
  6
CONTINUOUS
 62
     1
 10
59.0617209718991
 20
40.002853181695
 30
0.0
 11
59.0617209718991
 21
48.7028472078194
 31
0.0
  0
LINE
  5
   3AC
  8
0
  6
CONTINUOUS
 62
     1
 10
69.8617165551949
 20
40.002853181695
 30
0.0
 11
69.8617165551949
 21
48.7028472078194
 31
0.0
  0
LINE
  5
   3AD
  8
0
  6
CONTINUOUS
 62
     1
 10
69.1417214272786
 20
40.002853181695
 30
0.0
 11
69.1417214272786
 21
48.7028472078194
 31
0.0
  0
LINE
  5
   3AE
  8
0
  6
CONTINUOUS
 62
     1
 10
66.2617165015507
 20
40.002853181695
 30
0.0
 11
66.2617165015507
 21
48.7028472078194
 31
0.0
  0
LINE
  5
   3AF
  8
0
  6
CONTINUOUS
 62
     1
 10
64.8217201422025
 20
40.002853181695
 30
0.0
 11
64.8217201422025
 21
48.7028472078194
 31
0.0
  0
LINE
  5
   3B0
  8
0
  6
CONTINUOUS
 62
     1
 10
125.241713359952
 20
108.002854218816
 30
0.0
 11
70.4417125433683
 21
108.002854218816
 31
0.0
  0
LINE
  5
   3B1
  8
0
  6
CONTINUOUS
 62
     1
 10
125.241713359952
 20
101.902847261464
 30
0.0
 11
125.241713359952
 21
108.002854218816
 31
0.0
  0
LINE
  5
   3B2
  8
0
  6
CONTINUOUS
 62
     1
 10
70.4417125433684
 20
101.902847261464
 30
0.0
 11
70.4417125433684
 21
108.002854218816
 31
0.0
  0
ARC
  5
   3B3
  8
0
  6
CONTINUOUS
 62
     1
 10
56.1417212335635
 20
90.5028478545297
 30
0.0
 40
0.200000002980232
 50
89.9999999480344
 51
179.999999948034
  0
ARC
  5
   3B4
  8
0
  6
CONTINUOUS
 62
     1
 10
139.54172247632
 20
90.5028478545298
 30
0.0
 40
0.200000002980232
 50
359.999999948034
 51
449.999999948034
  0
ARC
  5
   3B5
  8
0
  6
CONTINUOUS
 62
     1
 10
139.54172247632
 20
48.9028472346414
 30
0.0
 40
0.200000002980232
 50
269.999999948034
 51
359.999999948034
  0
ARC
  5
   3B6
  8
0
  6
CONTINUOUS
 62
     1
 10
56.1417212335635
 20
48.9028472346414
 30
0.0
 40
0.200000002980232
 50
179.999999948034
 51
269.999999948034
  0
LINE
  5
   3B7
  8
0
  6
CONTINUOUS
 62
     3
 10
125.841713368892
 20
48.9028594713021
 30
0.0
 11
125.841713368892
 21
52.3028592984955
 31
0.0
  0
LINE
  5
   3B8
  8
0
  6
CONTINUOUS
 62
     3
 10
125.641713336284
 20
48.7028594386932
 30
0.0
 11
70.0417247148103
 21
48.7028594386932
 31
0.0
  0
LINE
  5
   3B9
  8
0
  6
CONTINUOUS
 62
     3
 10
69.8417247414594
 20
48.9028594120447
 30
0.0
 11
69.8417247414594
 21
52.3028592984955
 31
0.0
  0
LINE
  5
   3BA
  8
0
  6
CONTINUOUS
 62
     3
 10
125.641707063368
 20
90.7028478575104
 30
0.0
 11
70.0417186188094
 21
90.7028478575104
 31
0.0
  0
LINE
  5
   3BB
  8
0
  6
CONTINUOUS
 62
     1
 10
125.84168895483
 20
85.9028477859846
 30
0.0
 11
69.8417247414591
 21
85.9028477859846
 31
0.0
  0
LINE
  5
   3BC
  8
0
  6
CONTINUOUS
 62
     1
 10
125.841701161861
 20
89.9028478455892
 30
0.0
 11
69.8417247414591
 21
89.9028478455892
 31
0.0
  0
LINE
  5
   3BD
  8
0
  6
CONTINUOUS
 62
     1
 10
106.24171307683
 20
75.0028598305933
 30
0.0
 11
89.4417128264904
 21
75.0028598305933
 31
0.0
  0
LINE
  5
   3BE
  8
0
  6
CONTINUOUS
 62
     7
 10
106.24171307683
 20
50.3312183954754
 30
0.0
 11
106.24171307683
 21
60.9000396956694
 31
0.0
  0
LINE
  5
   3BF
  8
0
  6
CONTINUOUS
 62
     7
 10
89.4417128264904
 20
50.3312183954754
 30
0.0
 11
89.4417128264904
 21
60.9000396956694
 31
0.0
  0
LINE
  5
   3C0
  8
0
  6
CONTINUOUS
 62
     7
 10
106.24171307683
 20
75.1921298529449
 30
0.0
 11
89.4417128264904
 21
75.1921298529449
 31
0.0
  0
LINE
  5
   3C1
  8
0
  6
DASHDOT
 62
     7
 10
97.8417129516602
 20
1.21314582869603
 30
0.0
 11
97.8417129516602
 21
183.67242558906
 31
0.0
  0
LINE
  5
   3C2
  8
0
  6
CONTINUOUS
 62
   218
 10
125.841725575921
 20
76.7028600328492
 30
0.0
 11
125.841725575921
 21
90.5028510168576
 31
0.0
  0
LINE
  5
   3C3
  8
0
  6
CONTINUOUS
 62
   218
 10
125.841713368893
 20
60.3028596115463
 30
0.0
 11
125.841713368893
 21
68.702859736716
 31
0.0
  0
LINE
  5
   3C4
  8
0
  6
CONTINUOUS
 62
   218
 10
125.841713368893
 20
69.1028597426765
 30
0.0
 11
125.841713368893
 21
76.3028598499649
 31
0.0
  0
LINE
  5
   3C5
  8
0
  6
CONTINUOUS
 62
   218
 10
125.841713368893
 20
52.7028656018132
 30
0.0
 11
125.841713368893
 21
59.9028596055858
 31
0.0
  0
LINE
  5
   3C6
  8
0
  6
CONTINUOUS
 62
   218
 10
69.8417186379434
 20
52.7028594982974
 30
0.0
 11
69.8417186379434
 21
59.9028535020701
 31
0.0
  0
LINE
  5
   3C7
  8
0
  6
CONTINUOUS
 62
   218
 10
69.8417186379434
 20
76.7028537524096
 30
0.0
 11
69.8417186379434
 21
90.5028447806595
 31
0.0
  0
LINE
  5
   3C8
  8
0
  6
CONTINUOUS
 62
   218
 10
69.8417186379434
 20
60.3028535080305
 30
0.0
 11
69.8417186379434
 21
68.7028536332003
 31
0.0
  0
LINE
  5
   3C9
  8
0
  6
CONTINUOUS
 62
   218
 10
69.8417186379434
 20
69.1028536391607
 30
0.0
 11
69.8417186379434
 21
76.3028537464491
 31
0.0
  0
LINE
  5
   3CA
  8
0
  6
CONTINUOUS
 62
   218
 10
125.841713368893
 20
59.9028596055858
 30
0.0
 11
125.441719466448
 21
59.9028596055858
 31
0.0
  0
LINE
  5
   3CB
  8
0
  6
CONTINUOUS
 62
     1
 10
89.4417128264904
 20
59.9028596055858
 30
0.0
 11
70.2417186439039
 21
59.9028596055858
 31
0.0
  0
LINE
  5
   3CC
  8
0
  6
CONTINUOUS
 62
   218
 10
125.841713368893
 20
60.3028596115463
 30
0.0
 11
125.441719466448
 21
60.3028596115463
 31
0.0
  0
LINE
  5
   3CD
  8
0
  6
CONTINUOUS
 62
     1
 10
89.4417128264904
 20
60.3028596115463
 30
0.0
 11
69.8831370955918
 21
60.3028596115463
 31
0.0
  0
LINE
  5
   3CE
  8
0
  6
CONTINUOUS
 62
   218
 10
125.441719466448
 20
59.9028596055858
 30
0.0
 11
125.441719466448
 21
60.3028596115463
 31
0.0
  0
LINE
  5
   3CF
  8
0
  6
CONTINUOUS
 62
   218
 10
70.2417186439039
 20
59.9028596055858
 30
0.0
 11
70.2417186439039
 21
60.3028596115463
 31
0.0
  0
LINE
  5
   3D0
  8
0
  6
CONTINUOUS
 62
   218
 10
69.8417186316946
 20
60.3028474059583
 30
0.0
 11
70.2417186376459
 21
60.302853509474
 31
0.0
  0
LINE
  5
   3D1
  8
0
  6
CONTINUOUS
 62
   218
 10
125.841713368893
 20
52.7028614056463
 30
0.0
 11
125.441719466448
 21
52.7028614056463
 31
0.0
  0
LINE
  5
   3D2
  8
0
  6
CONTINUOUS
 62
   218
 10
125.441719466448
 20
52.302863688504
 30
0.0
 11
125.441719466448
 21
52.7028636944645
 31
0.0
  0
LINE
  5
   3D3
  8
0
  6
CONTINUOUS
 62
   218
 10
125.841713368893
 20
76.3028598499648
 30
0.0
 11
125.441713362932
 21
76.3028598499648
 31
0.0
  0
LINE
  5
   3D4
  8
0
  6
CONTINUOUS
 62
   218
 10
125.841713191977
 20
76.7028598559253
 30
0.0
 11
125.441713362932
 21
76.7028598559253
 31
0.0
  0
LINE
  5
   3D5
  8
0
  6
CONTINUOUS
 62
   218
 10
125.441713362932
 20
76.3028598499649
 30
0.0
 11
125.441713362932
 21
76.7028598559253
 31
0.0
  0
LINE
  5
   3D6
  8
0
  6
CONTINUOUS
 62
   218
 10
69.8417186316946
 20
76.7028476522466
 30
0.0
 11
70.2417186376459
 21
76.7028537557623
 31
0.0
  0
LINE
  5
   3D7
  8
0
  6
CONTINUOUS
 62
   218
 10
125.841713368893
 20
68.702859736716
 30
0.0
 11
125.441713362932
 21
68.702859736716
 31
0.0
  0
LINE
  5
   3D8
  8
0
  6
CONTINUOUS
 62
     1
 10
89.4417128264904
 20
68.702859736716
 30
0.0
 11
70.2417186439039
 21
68.702859736716
 31
0.0
  0
LINE
  5
   3D9
  8
0
  6
CONTINUOUS
 62
   218
 10
125.841713368893
 20
69.1028597426765
 30
0.0
 11
125.441713362932
 21
69.1028597426765
 31
0.0
  0
LINE
  5
   3DA
  8
0
  6
CONTINUOUS
 62
     1
 10
89.4417128264904
 20
69.1028597426765
 30
0.0
 11
70.2417186439039
 21
69.1028597426765
 31
0.0
  0
LINE
  5
   3DB
  8
0
  6
CONTINUOUS
 62
   218
 10
125.441713362932
 20
68.702859736716
 30
0.0
 11
125.441713362932
 21
69.1028597426765
 31
0.0
  0
LINE
  5
   3DC
  8
0
  6
CONTINUOUS
 62
     7
 10
70.2417247474198
 20
52.3028593577529
 30
0.0
 11
70.2417247474198
 21
52.7028593344733
 31
0.0
  0
LINE
  5
   3DD
  8
0
  6
CONTINUOUS
 62
     7
 10
70.2417186439039
 20
68.7028536332003
 30
0.0
 11
70.2417186439039
 21
69.1028597426765
 31
0.0
  0
LINE
  5
   3DE
  8
0
  6
CONTINUOUS
 62
     7
 10
70.2417186439039
 20
76.3028537464491
 30
0.0
 11
70.2417186439039
 21
76.7028598559253
 31
0.0
  0
ARC
  5
   3DF
  8
0
  6
CONTINUOUS
 62
     7
 10
70.0417186409236
 20
90.5028447806595
 30
0.0
 40
0.200000002980232
 50
90.0000062832808
 51
179.999999948034
  0
ARC
  5
   3E0
  8
0
  6
CONTINUOUS
 62
     7
 10
125.641707085483
 20
90.5028509284008
 30
0.0
 40
0.200000002980232
 50
360.000025289036
 51
450.000006283281
  0
ARC
  5
   3E1
  8
0
  6
CONTINUOUS
 62
     7
 10
125.641713336284
 20
48.9028594416734
 30
0.0
 40
0.200000002980232
 50
269.999999948034
 51
360.000008436035
  0
ARC
  5
   3E2
  8
0
  6
CONTINUOUS
 62
     7
 10
70.0417247148103
 20
48.9028594416734
 30
0.0
 40
0.200000002980232
 50
180.000008436035
 51
269.999999948034
  0
LINE
  5
   3E3
  8
0
  6
CONTINUOUS
 62
     1
 10
88.3417128100992
 20
52.7028606927421
 30
0.0
 11
88.3417128100992
 21
59.9028596055858
 31
0.0
  0
LINE
  5
   3E4
  8
0
  6
CONTINUOUS
 62
     1
 10
107.341713093221
 20
52.7028621185501
 30
0.0
 11
107.341713093221
 21
59.9028596055858
 31
0.0
  0
LINE
  5
   3E5
  8
0
  6
CONTINUOUS
 62
     1
 10
88.3417128100992
 20
69.1028597426765
 30
0.0
 11
88.3417128100992
 21
76.3028598499648
 31
0.0
  0
LINE
  5
   3E6
  8
0
  6
CONTINUOUS
 62
     1
 10
107.341713093221
 20
69.1028597426765
 30
0.0
 11
107.341713093221
 21
76.3028598499648
 31
0.0
  0
LINE
  5
   3E7
  8
0
  6
CONTINUOUS
 62
     1
 10
84.741712756455
 20
74.5028598231427
 30
0.0
 11
84.1417127475143
 21
74.5028598231427
 31
0.0
  0
LINE
  5
   3E8
  8
0
  6
CONTINUOUS
 62
     1
 10
84.741712756455
 20
70.9028597694986
 30
0.0
 11
84.1417127475143
 21
70.9028597694986
 31
0.0
  0
LINE
  5
   3E9
  8
0
  6
CONTINUOUS
 62
     1
 10
84.1417127475143
 20
70.9028597694985
 30
0.0
 11
84.1417127475143
 21
74.5028598231427
 31
0.0
  0
LINE
  5
   3EA
  8
0
  6
CONTINUOUS
 62
     1
 10
84.741712756455
 20
70.9028597694985
 30
0.0
 11
84.741712756455
 21
74.5028598231427
 31
0.0
  0
CIRCLE
  5
   3EB
  8
0
  6
CONTINUOUS
 62
     1
 10
84.4417127519846
 20
56.3028595519416
 30
0.0
 40
1.80000002682209
  0
CIRCLE
  5
   3EC
  8
0
  6
CONTINUOUS
 62
     1
 10
84.4417127519846
 20
56.3028595519416
 30
0.0
 40
1.20000001788139
  0
LINE
  5
   3ED
  8
0
  6
CONTINUOUS
 62
     2
 10
56.8417002158537
 20
13.7228525087612
 30
0.0
 11
55.9417212305833
 21
13.7228525087612
 31
0.0
  0
LINE
  5
   3EE
  8
0
  6
CONTINUOUS
 62
     2
 10
56.8417002158537
 20
13.2028524247186
 30
0.0
 11
56.8417002158537
 21
13.7228525087612
 31
0.0
  0
LINE
  5
   3EF
  8
0
  6
CONTINUOUS
 62
     2
 10
82.9416945012583
 20
12.6028527972493
 30
0.0
 11
57.4417002247944
 21
12.6028527972493
 31
0.0
  0
LINE
  5
   3F0
  8
0
  6
CONTINUOUS
 62
     2
 10
110.941701022007
 20
12.6028527972484
 30
0.0
 11
84.7417006315961
 21
12.6028527972484
 31
0.0
  0
LINE
  5
   3F1
  8
0
  6
CONTINUOUS
 62
     2
 10
138.241695325293
 20
12.602852797226
 30
0.0
 11
112.741701048829
 21
12.602852797226
 31
0.0
  0
LINE
  5
   3F2
  8
0
  6
CONTINUOUS
 62
     2
 10
138.841695334233
 20
13.2028528061883
 30
0.0
 11
138.841695334233
 21
13.7228525087612
 31
0.0
  0
LINE
  5
   3F3
  8
0
  6
CONTINUOUS
 62
     2
 10
139.741722479301
 20
13.7228525087612
 30
0.0
 11
138.841695334233
 21
13.7228525087612
 31
0.0
  0
LINE
  5
   3F4
  8
0
  6
CONTINUOUS
 62
     1
 10
59.6416998761072
 20
22.2028468367831
 30
0.0
 11
56.8417002158537
 21
22.2028468367831
 31
0.0
  0
LINE
  5
   3F5
  8
0
  6
CONTINUOUS
 62
     1
 10
75.8417004989758
 20
22.2028468367831
 30
0.0
 11
62.4416941957845
 21
22.2028468367831
 31
0.0
  0
LINE
  5
   3F6
  8
0
  6
CONTINUOUS
 62
     1
 10
105.241694833554
 20
22.2028468367831
 30
0.0
 11
77.8416944252624
 21
22.2028468367831
 31
0.0
  0
LINE
  5
   3F7
  8
0
  6
CONTINUOUS
 62
     1
 10
133.241690878136
 20
22.2028354496298
 30
0.0
 11
108.041694875277
 21
22.2028354496298
 31
0.0
  0
LINE
  5
   3F8
  8
0
  6
CONTINUOUS
 62
     1
 10
138.841697951328
 20
22.2028429135885
 30
0.0
 11
136.041691806687
 21
22.2028490171019
 31
0.0
  0
LINE
  5
   3F9
  8
0
  6
CONTINUOUS
 62
     1
 10
138.841689230696
 20
13.7228522784005
 30
0.0
 11
138.841689230696
 21
22.2028450805435
 31
0.0
  0
LINE
  5
   3FA
  8
0
  6
CONTINUOUS
 62
     1
 10
57.8416998492852
 20
23.8028529641407
 30
0.0
 11
56.5416998299136
 21
23.8028529641407
 31
0.0
  0
LINE
  5
   3FB
  8
0
  6
CONTINUOUS
 62
     1
 10
56.8417002158537
 20
13.7228525087612
 30
0.0
 11
56.8417002158537
 21
22.2028453109041
 31
0.0
  0
LINE
  5
   3FC
  8
0
  6
CONTINUOUS
 62
     1
 10
130.44169862168
 20
20.4028465799206
 30
0.0
 11
128.250011577724
 21
20.4028526834343
 31
0.0
  0
LINE
  5
   3FD
  8
0
  6
CONTINUOUS
 62
     1
 10
123.433379425319
 20
20.4028416829566
 30
0.0
 11
121.241692381362
 21
20.4028477864704
 31
0.0
  0
LINE
  5
   3FE
  8
0
  6
CONTINUOUS
 62
     1
 10
123.43338211635
 20
15.6028528419511
 30
0.0
 11
121.241695071973
 21
15.6028528419511
 31
0.0
  0
LINE
  5
   3FF
  8
0
  6
CONTINUOUS
 62
     1
 10
130.441695209063
 20
15.6028528419511
 30
0.0
 11
128.250014268202
 21
15.6028528419511
 31
0.0
  0
LINE
  5
   400
  8
0
  6
CONTINUOUS
 62
     1
 10
136.04169529251
 20
22.2028529402988
 30
0.0
 11
133.241695250787
 21
22.2028529402988
 31
0.0
  0
LINE
  5
   401
  8
0
  6
CONTINUOUS
 62
     1
 10
77.8416883217467
 20
22.2028529402988
 30
0.0
 11
75.8417004989758
 21
22.2028529402988
 31
0.0
  0
LINE
  5
   402
  8
0
  6
CONTINUOUS
 62
     1
 10
74.4416977873486
 20
20.4028438399637
 30
0.0
 11
72.2500107433921
 21
20.4028499434775
 31
0.0
  0
LINE
  5
   403
  8
0
  6
CONTINUOUS
 62
     1
 10
67.4333785910045
 20
20.4028450465154
 30
0.0
 11
65.2416915465377
 21
20.4028511500292
 31
0.0
  0
LINE
  5
   404
  8
0
  6
CONTINUOUS
 62
     1
 10
67.4333812818852
 20
15.6028528419511
 30
0.0
 11
65.2416942375078
 21
15.6028528419511
 31
0.0
  0
LINE
  5
   405
  8
0
  6
CONTINUOUS
 62
     1
 10
74.4416943745984
 20
15.6028528419511
 30
0.0
 11
72.2500134337367
 21
15.6028528419511
 31
0.0
  0
LINE
  5
   406
  8
0
  6
CONTINUOUS
 62
     1
 10
62.4416938143148
 20
22.2028529402988
 30
0.0
 11
59.6416998761072
 21
22.2028529402988
 31
0.0
  0
LINE
  5
   407
  8
0
  6
CONTINUOUS
 62
     1
 10
102.441698204514
 20
20.4028452099421
 30
0.0
 11
100.250011160048
 21
20.4028513134559
 31
0.0
  0
LINE
  5
   408
  8
0
  6
CONTINUOUS
 62
     1
 10
95.4333790081703
 20
20.4028464164939
 30
0.0
 11
93.2416919637034
 21
20.4028525200076
 31
0.0
  0
LINE
  5
   409
  8
0
  6
CONTINUOUS
 62
     1
 10
95.4333816991177
 20
15.6028528419511
 30
0.0
 11
93.2416946547403
 21
15.6028528419511
 31
0.0
  0
LINE
  5
   40A
  8
0
  6
CONTINUOUS
 62
     1
 10
102.441694791831
 20
15.6028528419511
 30
0.0
 11
100.250013850969
 21
15.6028528419511
 31
0.0
  0
LINE
  5
   40B
  8
0
  6
CONTINUOUS
 62
     1
 10
108.041694875277
 20
22.2028529402988
 30
0.0
 11
105.241694833554
 21
22.2028529402988
 31
0.0
  0
LINE
  5
   40C
  8
0
  6
CONTINUOUS
 62
     2
 10
113.241701056279
 20
13.6028528121488
 30
0.0
 11
113.241701056279
 21
15.4028528389709
 31
0.0
  0
LINE
  5
   40D
  8
0
  6
CONTINUOUS
 62
     2
 10
113.241701056279
 20
13.6028528121488
 30
0.0
 11
112.741701048829
 21
13.6028528121488
 31
0.0
  0
LINE
  5
   40E
  8
0
  6
CONTINUOUS
 62
     2
 10
112.741701048829
 20
12.602852797241
 30
0.0
 11
112.741701048829
 21
13.6028528121421
 31
0.0
  0
LINE
  5
   40F
  8
0
  6
CONTINUOUS
 62
     2
 10
110.941701022007
 20
12.6028527972484
 30
0.0
 11
110.941701022007
 21
13.6028528121495
 31
0.0
  0
LINE
  5
   410
  8
0
  6
CONTINUOUS
 62
     2
 10
110.941701022007
 20
13.6028528121488
 30
0.0
 11
110.441701014556
 21
13.6028528121488
 31
0.0
  0
LINE
  5
   411
  8
0
  6
CONTINUOUS
 62
     2
 10
110.441701014556
 20
13.6028528121488
 30
0.0
 11
110.441701014556
 21
15.4028528389709
 31
0.0
  0
LINE
  5
   412
  8
0
  6
CONTINUOUS
 62
     2
 10
113.241701056279
 20
15.4028528389709
 30
0.0
 11
110.441701014556
 21
15.4028528389709
 31
0.0
  0
LINE
  5
   413
  8
0
  6
CONTINUOUS
 62
     2
 10
82.4416944938077
 20
13.6028528121488
 30
0.0
 11
82.4416944938077
 21
15.4028528389709
 31
0.0
  0
LINE
  5
   414
  8
0
  6
CONTINUOUS
 62
     2
 10
82.9416945012583
 20
13.6028528121488
 30
0.0
 11
82.4416944938077
 21
13.6028528121488
 31
0.0
  0
LINE
  5
   415
  8
0
  6
CONTINUOUS
 62
     2
 10
82.9416945012583
 20
12.602852797241
 30
0.0
 11
82.9416945012583
 21
13.6028528121421
 31
0.0
  0
LINE
  5
   416
  8
0
  6
CONTINUOUS
 62
     2
 10
84.7416945280804
 20
12.6028527972484
 30
0.0
 11
84.7416945280804
 21
13.6028528121496
 31
0.0
  0
LINE
  5
   417
  8
0
  6
CONTINUOUS
 62
     2
 10
85.241694535531
 20
13.6028528121488
 30
0.0
 11
84.7416945280804
 21
13.6028528121488
 31
0.0
  0
LINE
  5
   418
  8
0
  6
CONTINUOUS
 62
     2
 10
85.241694535531
 20
13.6028528121488
 30
0.0
 11
85.241694535531
 21
15.4028528389709
 31
0.0
  0
LINE
  5
   419
  8
0
  6
CONTINUOUS
 62
     2
 10
85.241694535531
 20
15.4028528389709
 30
0.0
 11
82.4416944938077
 21
15.4028528389709
 31
0.0
  0
ARC
  5
   41A
  8
0
  6
CONTINUOUS
 62
     2
 10
57.4416982641706
 20
13.2028517095526
 30
0.0
 40
0.599998388306887
 50
179.999941123702
 51
270.000103159103
  0
CIRCLE
  5
   41B
  8
0
  6
CONTINUOUS
 62
     1
 10
58.4416993538283
 20
14.202852250873
 30
0.0
 40
0.56000046573854
  0
ARC
  5
   41C
  8
0
  6
CONTINUOUS
 62
     1
 10
65.2416871694136
 20
18.0028475600934
 30
0.0
 40
2.39999777402217
 50
90.0001399327154
 51
270.000100332566
  0
ARC
  5
   41D
  8
0
  6
CONTINUOUS
 62
     1
 10
69.841690289943
 20
18.0028895754597
 30
0.0
 40
3.40003732800008
 50
404.899302393594
 51
495.100813987516
  0
ARC
  5
   41E
  8
0
  6
CONTINUOUS
 62
     1
 10
74.4416960403363
 20
18.0028499976889
 30
0.0
 40
2.39999447330695
 50
269.999747131106
 51
450.000048027357
  0
CIRCLE
  5
   41F
  8
0
  6
CONTINUOUS
 62
     1
 10
83.8416997373262
 20
18.8028672304115
 30
0.0
 40
2.09998893903906
  0
CIRCLE
  5
   420
  8
0
  6
CONTINUOUS
 62
     1
 10
83.8416887024621
 20
18.8028405224625
 30
0.0
 40
1.10000848131997
  0
ARC
  5
   421
  8
0
  6
CONTINUOUS
 62
     1
 10
93.2416603176367
 20
18.0028291634724
 30
0.0
 40
2.39996355797966
 50
449.999680793011
 51
630.000858183329
  0
ARC
  5
   422
  8
0
  6
CONTINUOUS
 62
     1
 10
97.8417129516602
 20
18.0028587096308
 30
0.0
 40
3.39999636537847
 50
404.900757179708
 51
495.099359217673
  0
ARC
  5
   423
  8
0
  6
CONTINUOUS
 62
     1
 10
102.441695603782
 20
18.0028505459853
 30
0.0
 40
2.39999584916983
 50
269.999783457987
 51
450.000092622467
  0
CIRCLE
  5
   424
  8
0
  6
CONTINUOUS
 62
     1
 10
111.84174030633
 20
18.8027944197249
 30
0.0
 40
2.10006391285251
  0
CIRCLE
  5
   425
  8
0
  6
CONTINUOUS
 62
     1
 10
111.841677947576
 20
18.8028746678387
 30
0.0
 40
1.09997521900572
  0
ARC
  5
   426
  8
0
  6
CONTINUOUS
 62
     1
 10
121.241680263311
 20
18.0028517264687
 30
0.0
 40
2.39999239794195
 50
90.0003609959681
 51
270.000490903722
  0
ARC
  5
   427
  8
0
  6
CONTINUOUS
 62
     1
 10
130.441639130167
 20
18.0028604515711
 30
0.0
 40
2.40004723115382
 50
270.001034630644
 51
449.998799421533
  0
ARC
  5
   428
  8
0
  6
CONTINUOUS
 62
     1
 10
125.841664314853
 20
18.0028337396812
 30
0.0
 40
3.40000454651548
 50
404.901246442185
 51
495.09901516511
  0
CIRCLE
  5
   429
  8
0
  6
CONTINUOUS
 62
     1
 10
137.241695103169
 20
14.2028498175313
 30
0.0
 40
0.559998567527381
  0
ARC
  5
   42A
  8
0
  6
CONTINUOUS
 62
     1
 10
125.841664314853
 20
18.0028337396812
 30
0.0
 40
3.40000454651548
 50
224.900341297451
 51
315.099658598617
  0
ARC
  5
   42B
  8
0
  6
CONTINUOUS
 62
     1
 10
97.8417129516602
 20
18.0028587096308
 30
0.0
 40
3.39999636537847
 50
224.901072739214
 51
315.098927156855
  0
ARC
  5
   42C
  8
0
  6
CONTINUOUS
 62
     1
 10
69.841690289943
 20
18.0028895754597
 30
0.0
 40
3.40003732800008
 50
224.901119153159
 51
315.09888074291
  0
LINE
  5
   42D
  8
0
  6
DASHDOT
 62
     2
 10
69.841690289943
 20
-1.59628031808393
 30
0.0
 11
69.841690289943
 21
41.425916423412
 31
0.0
  0
LINE
  5
   42E
  8
0
  6
DASHDOT
 62
     2
 10
74.4417276358245
 20
18.0028895754597
 30
0.0
 11
65.2416529440615
 21
18.0028895754597
 31
0.0
  0
LINE
  5
   42F
  8
0
  6
DASHDOT
 62
     2
 10
74.4416960403363
 20
14.4028555065005
 30
0.0
 11
74.4416960403363
 21
21.6028444888772
 31
0.0
  0
LINE
  5
   430
  8
0
  6
DASHDOT
 62
     2
 10
78.0416905315246
 20
18.0028499976889
 30
0.0
 11
70.8417015491479
 21
18.0028499976889
 31
0.0
  0
LINE
  5
   431
  8
0
  6
DASHDOT
 62
     2
 10
65.2416871694136
 20
14.4028497681898
 30
0.0
 11
65.2416871694136
 21
21.6028453519969
 31
0.0
  0
LINE
  5
   432
  8
0
  6
DASHDOT
 62
     2
 10
68.8416849613172
 20
18.0028475600934
 30
0.0
 11
61.64168937751
 21
18.0028475600934
 31
0.0
  0
LINE
  5
   433
  8
0
  6
DASHDOT
 62
     2
 10
87.5311525293794
 20
18.8028672304115
 30
0.0
 11
80.5417107804057
 21
18.8028672304115
 31
0.0
  0
LINE
  5
   434
  8
0
  6
DASHDOT
 62
     2
 10
93.2416603176367
 20
14.4028655876113
 30
0.0
 11
93.2416603176367
 21
21.6027927393334
 31
0.0
  0
LINE
  5
   435
  8
0
  6
DASHDOT
 62
     2
 10
96.8416238934977
 20
18.0028291634724
 30
0.0
 11
89.6416967417756
 21
18.0028291634724
 31
0.0
  0
LINE
  5
   436
  8
0
  6
DASHDOT
 62
     2
 10
102.44170933492
 20
18.0028587096308
 30
0.0
 11
93.2417165684003
 21
18.0028587096308
 31
0.0
  0
LINE
  5
   437
  8
0
  6
DASHDOT
 62
     2
 10
102.441695603782
 20
14.4028546789341
 30
0.0
 11
102.441695603782
 21
21.6028464130365
 31
0.0
  0
LINE
  5
   438
  8
0
  6
DASHDOT
 62
     2
 10
106.041691470833
 20
18.0028505459853
 30
0.0
 11
98.8416997367304
 21
18.0028505459853
 31
0.0
  0
LINE
  5
   439
  8
0
  6
DASHDOT
 62
     2
 10
111.84174030633
 20
15.502730488991
 30
0.0
 11
111.84174030633
 21
22.1028583504588
 31
0.0
  0
LINE
  5
   43A
  8
0
  6
DASHDOT
 62
     2
 10
121.241680263311
 20
14.4028593106454
 30
0.0
 11
121.241680263311
 21
21.6028441422921
 31
0.0
  0
LINE
  5
   43B
  8
0
  6
DASHDOT
 62
     2
 10
124.841672679135
 20
18.0028517264687
 30
0.0
 11
117.641687847488
 21
18.0028517264687
 31
0.0
  0
LINE
  5
   43C
  8
0
  6
DASHDOT
 62
     2
 10
125.841664314853
 20
1.45395378413431
 30
0.0
 11
125.841664314853
 21
40.8651912052686
 31
0.0
  0
LINE
  5
   43D
  8
0
  6
DASHDOT
 62
     2
 10
130.44166887925
 20
18.0028337396812
 30
0.0
 11
121.241659750456
 21
18.0028337396812
 31
0.0
  0
LINE
  5
   43E
  8
0
  6
DASHDOT
 62
     2
 10
130.441639130167
 20
14.4028132025359
 30
0.0
 11
130.441639130167
 21
21.6029077006063
 31
0.0
  0
LINE
  5
   43F
  8
0
  6
DASHDOT
 62
     2
 10
134.041686379202
 20
18.0028604515711
 30
0.0
 11
126.841591881132
 21
18.0028604515711
 31
0.0
  0
LINE
  5
   440
  8
0
  6
DASHDOT
 62
     2
 10
137.241695103169
 20
12.4428512321225
 30
0.0
 11
137.241695103169
 21
15.9628484029401
 31
0.0
  0
LINE
  5
   441
  8
0
  6
DASHDOT
 62
     2
 10
58.4416993538283
 20
12.4428517672531
 30
0.0
 11
58.4416993538283
 21
15.962852734493
 31
0.0
  0
LINE
  5
   442
  8
0
  6
DASHDOT
 62
     2
 10
60.2016998374483
 20
14.2028522508731
 30
0.0
 11
56.6816988702084
 21
14.2028522508731
 31
0.0
  0
ARC
  5
   443
  8
0
  6
CONTINUOUS
 62
     2
 10
138.241678262165
 20
13.2028475831862
 30
0.0
 40
0.600006731823455
 50
270.001088208967
 51
360.000070595423
  0
LINE
  5
   444
  8
0
  6
DASHDOT
 62
     2
 10
59.0417123734951
 20
23.4229880255525
 30
0.0
 11
59.0417123734951
 21
40.4714281364661
 31
0.0
  0
LINE
  5
   445
  8
0
  6
DASHDOT
 62
     2
 10
96.673315051617
 20
18.8028672304115
 30
0.0
 11
89.4103748256171
 21
18.8028672304115
 31
0.0
  0
LINE
  5
   446
  8
0
  6
DASHDOT
 62
     2
 10
115.363958430414
 20
18.8028672304115
 30
0.0
 11
98.8911359597895
 21
18.8028672304115
 31
0.0
  0
LINE
  5
   447
  8
0
  6
CONTINUOUS
 62
     1
 10
139.041695337213
 20
23.8028468606249
 30
0.0
 11
139.041695337213
 21
39.6028470960633
 31
0.0
  0
LINE
  5
   448
  8
0
  6
CONTINUOUS
 62
     1
 10
69.8417125344277
 20
23.802852964138
 30
0.0
 11
69.8417125344277
 21
37.5028478277081
 31
0.0
  0
LINE
  5
   449
  8
0
  6
CONTINUOUS
 62
     1
 10
125.841713368893
 20
23.802852964138
 30
0.0
 11
125.841713368893
 21
37.5028478277081
 31
0.0
  0
LINE
  5
   44A
  8
0
  6
CONTINUOUS
 62
     1
 10
56.6417212410141
 20
23.8028529641407
 30
0.0
 11
56.6417212410141
 21
39.6028531995764
 31
0.0
  0
LINE
  5
   44B
  8
0
  6
CONTINUOUS
 62
     1
 10
112.161713165045
 20
57.8428595748894
 30
0.0
 11
111.981713162363
 21
57.8428595748894
 31
0.0
  0
LINE
  5
   44C
  8
0
  6
CONTINUOUS
 62
     1
 10
111.781713159382
 20
54.7628595289938
 30
0.0
 11
111.461713154614
 21
54.7628595289938
 31
0.0
  0
LINE
  5
   44D
  8
0
  6
CONTINUOUS
 62
     1
 10
108.901713116467
 20
55.802859544491
 30
0.0
 11
108.901713116467
 21
56.0028595474713
 31
0.0
  0
LINE
  5
   44E
  8
0
  6
CONTINUOUS
 62
     1
 10
110.981713147461
 20
55.802859544491
 30
0.0
 11
110.981713147461
 21
56.0028595474713
 31
0.0
  0
ARC
  5
   44F
  8
0
  6
CONTINUOUS
 62
     1
 10
109.941713131964
 20
56.0028595474713
 30
0.0
 40
1.04000001549721
 50
359.999999948034
 51
539.999999948034
  0
ARC
  5
   450
  8
0
  6
CONTINUOUS
 62
     1
 10
109.941713131964
 20
55.802859544491
 30
0.0
 40
1.04000001549721
 50
179.999999948034
 51
359.999999948034
  0
ARC
  5
   451
  8
0
  6
CONTINUOUS
 62
     1
 10
109.941713131964
 20
56.0028595474713
 30
0.0
 40
0.720000010728837
 50
359.999999948034
 51
539.999999948034
  0
ARC
  5
   452
  8
0
  6
CONTINUOUS
 62
     1
 10
109.941713131964
 20
55.802859544491
 30
0.0
 40
0.720000010728835
 50
179.999999948034
 51
359.999999948034
  0
LINE
  5
   453
  8
0
  6
CONTINUOUS
 62
     1
 10
109.221713121235
 20
55.802859544491
 30
0.0
 11
109.221713121235
 21
56.0028595474713
 31
0.0
  0
LINE
  5
   454
  8
0
  6
CONTINUOUS
 62
     1
 10
110.661713142693
 20
55.802859544491
 30
0.0
 11
110.661713142693
 21
56.0028595474713
 31
0.0
  0
LINE
  5
   455
  8
0
  6
CONTINUOUS
 62
     1
 10
111.081713148952
 20
56.5628595558159
 30
0.0
 11
111.081713148952
 21
56.8828595605843
 31
0.0
  0
LINE
  5
   456
  8
0
  6
CONTINUOUS
 62
     1
 10
111.461713154614
 20
56.5628595558159
 30
0.0
 11
111.081713148952
 21
56.5628595558159
 31
0.0
  0
LINE
  5
   457
  8
0
  6
CONTINUOUS
 62
     1
 10
112.161713165045
 20
56.5628595558159
 30
0.0
 11
112.161713165045
 21
56.8828595605843
 31
0.0
  0
LINE
  5
   458
  8
0
  6
CONTINUOUS
 62
     1
 10
111.461713154614
 20
56.8828595605843
 30
0.0
 11
111.081713148952
 21
56.8828595605843
 31
0.0
  0
LINE
  5
   459
  8
0
  6
CONTINUOUS
 62
     1
 10
111.461713154614
 20
54.7628595289938
 30
0.0
 11
111.461713154614
 21
56.5628595558159
 31
0.0
  0
LINE
  5
   45A
  8
0
  6
CONTINUOUS
 62
     1
 10
111.781713159382
 20
54.7628595289938
 30
0.0
 11
111.781713159382
 21
56.5628595558159
 31
0.0
  0
LINE
  5
   45B
  8
0
  6
CONTINUOUS
 62
     1
 10
112.161713165045
 20
56.5628595558159
 30
0.0
 11
111.781713159382
 21
56.5628595558159
 31
0.0
  0
LINE
  5
   45C
  8
0
  6
CONTINUOUS
 62
     1
 10
112.161713165045
 20
56.8828595605843
 30
0.0
 11
111.781713159382
 21
56.8828595605843
 31
0.0
  0
LINE
  5
   45D
  8
0
  6
CONTINUOUS
 62
     1
 10
111.461713154614
 20
56.8828595605843
 30
0.0
 11
111.461713154614
 21
57.3228595671408
 31
0.0
  0
LINE
  5
   45E
  8
0
  6
CONTINUOUS
 62
     1
 10
111.781713159382
 20
56.8828595605843
 30
0.0
 11
111.781713159382
 21
57.3228595671408
 31
0.0
  0
ARC
  5
   45F
  8
0
  6
CONTINUOUS
 62
     1
 10
111.981713162363
 20
57.3228595671408
 30
0.0
 40
0.520000007748604
 50
449.999999948034
 51
539.999999948034
  0
ARC
  5
   460
  8
0
  6
CONTINUOUS
 62
     1
 10
111.981713162363
 20
57.3228595671408
 30
0.0
 40
0.200000002980232
 50
449.999999948034
 51
539.999999948034
  0
LINE
  5
   461
  8
0
  6
CONTINUOUS
 62
     1
 10
112.161713165045
 20
57.522859570121
 30
0.0
 11
112.161713165045
 21
57.8428595748894
 31
0.0
  0
LINE
  5
   462
  8
0
  6
CONTINUOUS
 62
     1
 10
112.161713165045
 20
57.522859570121
 30
0.0
 11
111.981713162363
 21
57.522859570121
 31
0.0
  0
LINE
  5
   463
  8
0
  6
CONTINUOUS
 62
     1
 10
113.441713184118
 20
57.8428595748894
 30
0.0
 11
113.261713181436
 21
57.8428595748894
 31
0.0
  0
LINE
  5
   464
  8
0
  6
CONTINUOUS
 62
     1
 10
113.061713178456
 20
54.7628595289938
 30
0.0
 11
112.741713173687
 21
54.7628595289938
 31
0.0
  0
LINE
  5
   465
  8
0
  6
CONTINUOUS
 62
     1
 10
112.361713168025
 20
56.5628595558159
 30
0.0
 11
112.361713168025
 21
56.8828595605843
 31
0.0
  0
LINE
  5
   466
  8
0
  6
CONTINUOUS
 62
     1
 10
112.741713173687
 20
56.5628595558159
 30
0.0
 11
112.361713168025
 21
56.5628595558159
 31
0.0
  0
LINE
  5
   467
  8
0
  6
CONTINUOUS
 62
     1
 10
113.441713184118
 20
56.5628595558159
 30
0.0
 11
113.441713184118
 21
56.8828595605843
 31
0.0
  0
LINE
  5
   468
  8
0
  6
CONTINUOUS
 62
     1
 10
112.741713173687
 20
56.8828595605843
 30
0.0
 11
112.361713168025
 21
56.8828595605843
 31
0.0
  0
LINE
  5
   469
  8
0
  6
CONTINUOUS
 62
     1
 10
112.741713173687
 20
54.7628595289938
 30
0.0
 11
112.741713173687
 21
56.5628595558159
 31
0.0
  0
LINE
  5
   46A
  8
0
  6
CONTINUOUS
 62
     1
 10
113.061713178456
 20
54.7628595289938
 30
0.0
 11
113.061713178456
 21
56.5628595558159
 31
0.0
  0
LINE
  5
   46B
  8
0
  6
CONTINUOUS
 62
     1
 10
113.441713184118
 20
56.5628595558159
 30
0.0
 11
113.061713178456
 21
56.5628595558159
 31
0.0
  0
LINE
  5
   46C
  8
0
  6
CONTINUOUS
 62
     1
 10
113.441713184118
 20
56.8828595605843
 30
0.0
 11
113.061713178456
 21
56.8828595605843
 31
0.0
  0
LINE
  5
   46D
  8
0
  6
CONTINUOUS
 62
     1
 10
112.741713173687
 20
56.8828595605843
 30
0.0
 11
112.741713173687
 21
57.3228595671408
 31
0.0
  0
LINE
  5
   46E
  8
0
  6
CONTINUOUS
 62
     1
 10
113.061713178456
 20
56.8828595605843
 30
0.0
 11
113.061713178456
 21
57.3228595671408
 31
0.0
  0
ARC
  5
   46F
  8
0
  6
CONTINUOUS
 62
     1
 10
113.261713181436
 20
57.3228595671408
 30
0.0
 40
0.520000007748604
 50
449.999999948034
 51
539.999999948034
  0
ARC
  5
   470
  8
0
  6
CONTINUOUS
 62
     1
 10
113.261713181436
 20
57.3228595671408
 30
0.0
 40
0.200000002980232
 50
449.999999948034
 51
539.999999948034
  0
LINE
  5
   471
  8
0
  6
CONTINUOUS
 62
     1
 10
113.441713184118
 20
57.522859570121
 30
0.0
 11
113.441713184118
 21
57.8428595748894
 31
0.0
  0
LINE
  5
   472
  8
0
  6
CONTINUOUS
 62
     1
 10
113.441713184118
 20
57.522859570121
 30
0.0
 11
113.261713181436
 21
57.522859570121
 31
0.0
  0
LINE
  5
   473
  8
0
  6
CONTINUOUS
 62
     1
 10
111.621713156998
 20
71.5628597793333
 30
0.0
 11
111.30171315223
 21
71.5628597793333
 31
0.0
  0
ARC
  5
   474
  8
0
  6
CONTINUOUS
 62
     1
 10
109.941713131964
 20
72.8028597978108
 30
0.0
 40
1.04000001549721
 50
359.999999948034
 51
539.999999948034
  0
ARC
  5
   475
  8
0
  6
CONTINUOUS
 62
     1
 10
109.941713131964
 20
72.8028597978108
 30
0.0
 40
0.720000010728837
 50
359.999999948034
 51
539.999999948034
  0
ARC
  5
   476
  8
0
  6
CONTINUOUS
 62
     1
 10
109.941713131964
 20
72.6028597948305
 30
0.0
 40
1.04000001549721
 50
179.999999948034
 51
359.999999948034
  0
ARC
  5
   477
  8
0
  6
CONTINUOUS
 62
     1
 10
109.941713131964
 20
72.6028597948305
 30
0.0
 40
0.720000010728835
 50
179.999999948034
 51
359.999999948034
  0
LINE
  5
   478
  8
0
  6
CONTINUOUS
 62
     1
 10
110.661713142693
 20
72.6028597948305
 30
0.0
 11
110.661713142693
 21
72.8028597978108
 31
0.0
  0
LINE
  5
   479
  8
0
  6
CONTINUOUS
 62
     1
 10
110.981713147461
 20
72.6028597948305
 30
0.0
 11
110.981713147461
 21
72.8028597978108
 31
0.0
  0
LINE
  5
   47A
  8
0
  6
CONTINUOUS
 62
     1
 10
109.221713121235
 20
72.6028597948305
 30
0.0
 11
109.221713121235
 21
72.8028597978108
 31
0.0
  0
LINE
  5
   47B
  8
0
  6
CONTINUOUS
 62
     1
 10
108.901713116467
 20
72.6028597948305
 30
0.0
 11
108.901713116467
 21
72.8028597978108
 31
0.0
  0
LINE
  5
   47C
  8
0
  6
CONTINUOUS
 62
     1
 10
111.30171315223
 20
71.5628597793333
 30
0.0
 11
111.30171315223
 21
73.842859813308
 31
0.0
  0
LINE
  5
   47D
  8
0
  6
CONTINUOUS
 62
     1
 10
111.621713156998
 20
71.5628597793333
 30
0.0
 11
111.621713156998
 21
72.962859800195
 31
0.0
  0
LINE
  5
   47E
  8
0
  6
CONTINUOUS
 62
     1
 10
112.741713173687
 20
71.5628597793333
 30
0.0
 11
112.741713173687
 21
72.962859800195
 31
0.0
  0
LINE
  5
   47F
  8
0
  6
CONTINUOUS
 62
     1
 10
113.061713178456
 20
71.5628597793333
 30
0.0
 11
113.061713178456
 21
73.042859801387
 31
0.0
  0
LINE
  5
   480
  8
0
  6
CONTINUOUS
 62
     1
 10
111.621713156998
 20
73.842859813308
 30
0.0
 11
111.30171315223
 21
73.842859813308
 31
0.0
  0
ARC
  5
   481
  8
0
  6
CONTINUOUS
 62
     1
 10
112.181713165343
 20
72.962859800195
 30
0.0
 40
0.56000000834465
 50
359.999999948034
 51
539.999999948034
  0
LINE
  5
   482
  8
0
  6
CONTINUOUS
 62
     1
 10
111.621713156998
 20
73.5228598085396
 30
0.0
 11
111.621713156998
 21
73.842859813308
 31
0.0
  0
ARC
  5
   483
  8
0
  6
CONTINUOUS
 62
     1
 10
112.261713166535
 20
73.042859801387
 30
0.0
 40
0.800000011920929
 50
359.999999948034
 51
503.13010230219
  0
LINE
  5
   484
  8
0
  6
CONTINUOUS
 62
     1
 10
113.061713178456
 20
71.5628597793333
 30
0.0
 11
112.741713173687
 21
71.5628597793333
 31
0.0
  0
LINE
  5
   485
  8
0
  6
CONTINUOUS
 62
     7
 10
106.24171307683
 20
57.6118365070944
 30
0.0
 11
89.4417128264904
 21
57.6118365070944
 31
0.0
  0
LINE
  5
   486
  8
0
  6
CONTINUOUS
 62
     7
 10
106.24171307683
 20
60.9000396956694
 30
0.0
 11
89.4417128264904
 21
60.9000396956694
 31
0.0
  0
LINE
  5
   487
  8
0
  6
CONTINUOUS
 62
     7
 10
106.24171307683
 20
54.1564560203632
 30
0.0
 11
89.4417128264904
 21
54.1564560203632
 31
0.0
  0
LINE
  5
   488
  8
0
  6
CONTINUOUS
 62
     7
 10
106.24171307683
 20
50.3312183954754
 30
0.0
 11
89.4417128264904
 21
50.3312183954754
 31
0.0
  0
LINE
  5
   489
  8
0
  6
CONTINUOUS
 62
     7
 10
106.24171307683
 20
60.9000396956694
 30
0.0
 11
106.24171307683
 21
75.1921298529449
 31
0.0
  0
LINE
  5
   48A
  8
0
  6
CONTINUOUS
 62
     7
 10
89.4417128264904
 20
60.9000396956694
 30
0.0
 11
89.4417128264904
 21
75.1921298529449
 31
0.0
  0
LINE
  5
   48B
  8
0
  6
CONTINUOUS
 62
     1
 10
89.4417128264904
 20
52.7028614056463
 30
0.0
 11
70.2417247474198
 21
52.7028614056463
 31
0.0
  0
LINE
  5
   48C
  8
0
  6
DASHDOT
 62
     7
 10
125.841713368893
 20
107.903482591822
 30
0.0
 11
125.841713368893
 21
132.45348154256
 31
0.0
  0
LINE
  5
   48D
  8
0
  6
DASHDOT
 62
     7
 10
69.8417125344277
 20
108.73101396073
 30
0.0
 11
69.8417125344277
 21
131.409980402328
 31
0.0
  0
LINE
  5
   48E
  8
0
  6
CONTINUOUS
 62
     1
 10
67.4417124986649
 20
90.70284785751
 30
0.0
 11
56.1417212335635
 21
90.70284785751
 31
0.0
  0
LINE
  5
   48F
  8
0
  6
CONTINUOUS
 62
   218
 10
70.2417186439039
 20
76.3028598499648
 30
0.0
 11
69.8417186379434
 21
76.3028598499648
 31
0.0
  0
LINE
  5
   490
  8
0
  6
CONTINUOUS
 62
     1
 10
125.441713362932
 20
76.7028598559253
 30
0.0
 11
70.2417186439039
 21
76.7028598559253
 31
0.0
  0
LINE
  5
   491
  8
0
  6
CONTINUOUS
 62
     1
 10
125.441713362932
 20
76.3028598499648
 30
0.0
 11
70.2417186439039
 21
76.3028598499648
 31
0.0
  0
LINE
  5
   492
  8
0
  6
CONTINUOUS
 62
     1
 10
125.441713362932
 20
69.1028597426765
 30
0.0
 11
106.241706973314
 21
69.1028597426765
 31
0.0
  0
LINE
  5
   493
  8
0
  6
CONTINUOUS
 62
     1
 10
125.441713362932
 20
68.702859736716
 30
0.0
 11
106.241706973314
 21
68.702859736716
 31
0.0
  0
LINE
  5
   494
  8
0
  6
CONTINUOUS
 62
     1
 10
125.441719466448
 20
60.3028596115463
 30
0.0
 11
106.241706973314
 21
60.3028596115463
 31
0.0
  0
LINE
  5
   495
  8
0
  6
CONTINUOUS
 62
     1
 10
125.441719466448
 20
59.9028596055858
 30
0.0
 11
106.241706973314
 21
59.9028596055858
 31
0.0
  0
LINE
  5
   496
  8
0
  6
CONTINUOUS
 62
     1
 10
125.441719466448
 20
52.7028614056463
 30
0.0
 11
106.24171307683
 21
52.7028614056463
 31
0.0
  0
LINE
  5
   497
  8
0
  6
CONTINUOUS
 62
   218
 10
70.2417247474198
 20
52.7028614056463
 30
0.0
 11
69.8417186379434
 21
52.7028614056463
 31
0.0
  0
LINE
  5
   498
  8
0
  6
CONTINUOUS
 62
   218
 10
70.2417186439039
 20
59.9028596055858
 30
0.0
 11
69.8417186379434
 21
59.9028596055858
 31
0.0
  0
LINE
  5
   499
  8
0
  6
CONTINUOUS
 62
   218
 10
70.2417186439039
 20
69.1028597426765
 30
0.0
 11
69.8417186379434
 21
69.1028597426765
 31
0.0
  0
LINE
  5
   49A
  8
0
  6
CONTINUOUS
 62
   218
 10
70.2417186439039
 20
68.702859736716
 30
0.0
 11
69.8417186379434
 21
68.702859736716
 31
0.0
  0
LINE
  5
   49B
  8
0
  6
CONTINUOUS
 62
     1
 10
70.2417186439039
 20
76.7028598559253
 30
0.0
 11
69.8831370955918
 21
76.7028598559253
 31
0.0
  0
LINE
  5
   49C
  8
0
  6
CONTINUOUS
 62
     7
 10
70.2417247474198
 20
52.3028593577529
 30
0.0
 11
69.8417247414594
 21
52.3028593577529
 31
0.0
  0
LINE
  5
   49D
  8
0
  6
CONTINUOUS
 62
     7
 10
125.841713368892
 20
52.3028592984955
 30
0.0
 11
125.441719466448
 21
52.302863688504
 31
0.0
  0
LINE
  5
   49E
  8
0
  6
CONTINUOUS
 62
     1
 10
139.041695336972
 20
23.8028468588804
 30
0.0
 11
56.6417212410141
 21
23.8028468588804
 31
0.0
  0
LINE
  5
   49F
  8
0
  6
CONTINUOUS
 62
     7
 10
85.241694535531
 20
117.002866947907
 30
0.0
 11
82.4416944938077
 21
117.002866947907
 31
0.0
  0
LINE
  5
   4A0
  8
0
  6
CONTINUOUS
 62
     7
 10
82.4416944938077
 20
117.002866947907
 30
0.0
 11
82.4416944938077
 21
118.802866974729
 31
0.0
  0
LINE
  5
   4A1
  8
0
  6
CONTINUOUS
 62
     7
 10
82.9416945012583
 20
118.802866974729
 30
0.0
 11
82.4416944938077
 21
118.802866974729
 31
0.0
  0
LINE
  5
   4A2
  8
0
  6
CONTINUOUS
 62
     7
 10
82.9416945012583
 20
118.802866974736
 30
0.0
 11
82.9416945012583
 21
119.802866989637
 31
0.0
  0
LINE
  5
   4A3
  8
0
  6
CONTINUOUS
 62
     7
 10
84.7416945280804
 20
118.802866974728
 30
0.0
 11
84.7416945280804
 21
119.802866989629
 31
0.0
  0
LINE
  5
   4A4
  8
0
  6
CONTINUOUS
 62
     7
 10
85.241694535531
 20
118.802866974729
 30
0.0
 11
84.7416945280804
 21
118.802866974729
 31
0.0
  0
LINE
  5
   4A5
  8
0
  6
CONTINUOUS
 62
     7
 10
85.241694535531
 20
117.002866947907
 30
0.0
 11
85.241694535531
 21
118.802866974729
 31
0.0
  0
LINE
  5
   4A6
  8
0
  6
CONTINUOUS
 62
     7
 10
112.741701048829
 20
118.802866974736
 30
0.0
 11
112.741701048829
 21
119.802866989637
 31
0.0
  0
LINE
  5
   4A7
  8
0
  6
CONTINUOUS
 62
     7
 10
113.241701056279
 20
118.802866974729
 30
0.0
 11
112.741701048829
 21
118.802866974729
 31
0.0
  0
LINE
  5
   4A8
  8
0
  6
CONTINUOUS
 62
     7
 10
113.241701056279
 20
117.002866947907
 30
0.0
 11
113.241701056279
 21
118.802866974729
 31
0.0
  0
LINE
  5
   4A9
  8
0
  6
CONTINUOUS
 62
     7
 10
113.241701056279
 20
117.002866947907
 30
0.0
 11
110.441701014556
 21
117.002866947907
 31
0.0
  0
LINE
  5
   4AA
  8
0
  6
CONTINUOUS
 62
     7
 10
110.941701022007
 20
118.802866974729
 30
0.0
 11
110.441701014556
 21
118.802866974729
 31
0.0
  0
LINE
  5
   4AB
  8
0
  6
CONTINUOUS
 62
     7
 10
110.941701022007
 20
118.802866974728
 30
0.0
 11
110.941701022007
 21
119.802866989629
 31
0.0
  0
LINE
  5
   4AC
  8
0
  6
CONTINUOUS
 62
     7
 10
110.441701014556
 20
117.002866947907
 30
0.0
 11
110.441701014556
 21
118.802866974729
 31
0.0
  0
LINE
  5
   4AD
  8
0
  6
CONTINUOUS
 62
     1
 10
125.441719466448
 20
52.302863688504
 30
0.0
 11
106.24171307683
 21
52.302863688504
 31
0.0
  0
LINE
  5
   4AE
  8
0
  6
CONTINUOUS
 62
     1
 10
89.4417128264904
 20
52.3028593577529
 30
0.0
 11
70.2417247474198
 21
52.3028593577529
 31
0.0
  0
LINE
  5
   4AF
  8
0
  6
DASHDOT
 62
     7
 10
111.84161841846
 20
109.502893982122
 30
0.0
 11
111.84161841846
 21
117.702894104311
 31
0.0
  0
LINE
  5
   4B0
  8
0
  6
DASHDOT
 62
     7
 10
115.941618479555
 20
113.602894043216
 30
0.0
 11
107.741618357366
 21
113.602894043216
 31
0.0
  0
CIRCLE
  5
   4B1
  8
0
  6
CONTINUOUS
 62
     1
 10
83.8418074848599
 20
113.602894043216
 30
0.0
 40
2.10000003129244
  0
LINE
  5
   4B2
  8
0
  6
DASHDOT
 62
     7
 10
83.8418074848599
 20
109.502893982122
 30
0.0
 11
83.8418074848599
 21
117.702894104311
 31
0.0
  0
LINE
  5
   4B3
  8
0
  6
DASHDOT
 62
     7
 10
87.9418075459546
 20
113.602894043216
 30
0.0
 11
79.7418074237651
 21
113.602894043216
 31
0.0
  0
LINE
  5
   4B4
  8
0
  6
DASHDOT
 62
     7
 10
141.994971651293
 20
69.702847544586
 30
0.0
 11
52.0912123195537
 21
69.702847544586
 31
0.0
  0
LINE
  5
   4B5
  8
0
  6
DASHDOT
 62
     7
 10
36.7502249858707
 20
69.702847544586
 30
0.0
 11
33.7600325394749
 21
69.702847544586
 31
0.0
  0
LINE
  5
   4B6
  8
0
  6
DASHDOT
 62
     2
 10
130.441763685001
 20
112.802841309683
 30
0.0
 11
130.441763685001
 21
116.002843795314
 31
0.0
  0
LINE
  5
   4B7
  8
0
  6
DASHDOT
 62
     2
 10
132.041764927817
 20
114.402842552498
 30
0.0
 11
128.841762442186
 21
114.402842552498
 31
0.0
  0
INSERT
  5
   4B8
  8
255
  6
CONTINUOUS
 62
     7
  2
MOSTRINA
 10
44.9064094284877
 20
25.7105975909547
 30
0.0
 41
0.400000005960464
 42
0.400000005960464
 50
359.999999792138
 43
0.400000005960464
  0
LINE
  5
   4B9
  8
0
  6
CONTINUOUS
 62
     1
 10
67.4417124986649
 20
40.002853181695
 30
0.0
 11
55.9417212305833
 21
40.002853181695
 31
0.0
  0
LINE
  5
   4BA
  8
0
  6
CONTINUOUS
 62
     1
 10
67.4417124986649
 20
39.6028531995764
 30
0.0
 11
56.3417212127019
 21
39.6028531995764
 31
0.0
  0
INSERT
  5
   4BB
  8
0
  6
CONTINUOUS
 62
     7
  2
*UDIM425
 10
0.0
 20
0.0
 30
0.0
  0
INSERT
  5
   4BC
  8
0
  6
CONTINUOUS
 62
     7
  2
*UDIM426
 10
0.0
 20
0.0
 30
0.0
  0
INSERT
  5
   4BD
  8
0
  6
CONTINUOUS
 62
     7
  2
*UDIM427
 10
0.0
 20
0.0
 30
0.0
  0
INSERT
  5
   4BE
  8
0
  6
CONTINUOUS
 62
     7
  2
*UDIM428
 10
0.0
 20
0.0
 30
0.0
  0
INSERT
  5
   4BF
  8
0
  6
CONTINUOUS
 62
     7
  2
*UDIM429
 10
0.0
 20
0.0
 30
0.0
  0
TEXT
  5
   4C0
  8
0
  6
CONTINUOUS
 62
     7
 10
96.5322467420243
 20
184.79834788861
 30
0.0
 40
2.99999994933605
  1
Y
 50
359.999999948034
 41
0.916666607525612
 72
     2
 11
98.7322465602302
 21
184.798347886626
 31
0.0
  0
TEXT
  5
   4C1
  8
0
  6
CONTINUOUS
 62
     7
 10
96.3616524020447
 20
-10.7368845960469
 30
0.0
 40
2.99999994933605
  1
Y
 50
359.999999948034
 41
0.916666607525612
 72
     2
 11
98.5616522202505
 21
-10.7368845980311
 31
0.0
  0
INSERT
  5
   4C2
  8
0
  6
CONTINUOUS
 62
     7
  2
*UDIM430
 10
0.0
 20
0.0
 30
0.0
  0
INSERT
  5
   4C3
  8
0
  6
CONTINUOUS
 62
     7
  2
*UDIM431
 10
0.0
 20
0.0
 30
0.0
  0
LINE
  5
   4C4
  8
0
  6
CONTINUOUS
 62
    50
 10
61.8419036448041
 20
129.422092470681
 30
0.0
 11
56.7221037638256
 21
144.188913979786
 31
0.0
  0
LINE
  5
   4C5
  8
0
  6
CONTINUOUS
 62
    50
 10
61.8419074595014
 20
127.302097320119
 30
0.0
 11
61.8419036448041
 21
129.422092468825
 31
0.0
  0
LINE
  5
   4C6
  8
0
  6
CONTINUOUS
 62
    50
 10
77.8418764391058
 20
127.302097321903
 30
0.0
 11
77.8418764391058
 21
166.402854740487
 31
0.0
  0
LINE
  5
   4C7
  8
0
  6
CONTINUOUS
 62
    50
 10
77.841886335615
 20
166.402854740487
 30
0.0
 11
42.6418926775493
 21
166.402854740487
 31
0.0
  0
LINE
  5
   4C8
  8
0
  6
CONTINUOUS
 62
    50
 10
42.6418926775493
 20
155.719065518786
 30
0.0
 11
42.6418926775493
 21
166.402854740487
 31
0.0
  0
LINE
  5
   4C9
  8
0
  6
CONTINUOUS
 62
    50
 10
54.9339598162818
 20
146.347788523675
 30
0.0
 11
44.6507305981083
 21
152.249863806935
 31
0.0
  0
LINE
  5
   4CA
  8
0
  6
CONTINUOUS
 62
    50
 10
61.8419082224408
 20
126.550290670227
 30
0.0
 11
61.8419074595014
 21
127.30209732201
 31
0.0
  0
LINE
  5
   4CB
  8
0
  6
CONTINUOUS
 62
    50
 10
61.8419097483198
 20
125.825272349081
 30
0.0
 11
61.8419082224408
 21
126.550290670411
 31
0.0
  0
LINE
  5
   4CC
  8
0
  6
CONTINUOUS
 62
    50
 10
61.8419135630171
 20
123.676865333178
 30
0.0
 11
61.8419128000776
 21
124.059207868161
 31
0.0
  0
LINE
  5
   4CD
  8
0
  6
CONTINUOUS
 62
    50
 10
61.8419128000776
 20
124.059207869972
 30
0.0
 11
61.8419120371382
 21
124.557132682059
 31
0.0
  0
LINE
  5
   4CE
  8
0
  6
CONTINUOUS
 62
    50
 10
61.8419105112592
 20
125.152902955069
 30
0.0
 11
61.8419097483198
 21
125.825272349817
 31
0.0
  0
LINE
  5
   4CF
  8
0
  6
CONTINUOUS
 62
    50
 10
61.8419120371382
 20
124.557132681502
 30
0.0
 11
61.8419105112592
 21
125.152902954038
 31
0.0
  0
LINE
  5
   4D0
  8
0
  6
CONTINUOUS
 62
    50
 10
77.8418250664844
 20
124.059201765768
 30
0.0
 11
77.8418250664844
 21
124.557132681391
 31
0.0
  0
LINE
  5
   4D1
  8
0
  6
CONTINUOUS
 62
    50
 10
77.8418901503123
 20
124.557132681391
 30
0.0
 11
77.8418901503123
 21
125.152896850424
 31
0.0
  0
LINE
  5
   4D2
  8
0
  6
CONTINUOUS
 62
    50
 10
77.8418901503123
 20
126.550284566524
 30
0.0
 11
77.8418832838571
 21
127.30209732194
 31
0.0
  0
LINE
  5
   4D3
  8
0
  6
CONTINUOUS
 62
    50
 10
77.8418901503123
 20
125.825272348725
 30
0.0
 11
77.8418901503123
 21
126.55028456656
 31
0.0
  0
LINE
  5
   4D4
  8
0
  6
CONTINUOUS
 62
    50
 10
77.8418897688426
 20
123.676865334289
 30
0.0
 11
77.8418897688426
 21
124.059201765768
 31
0.0
  0
LINE
  5
   4D5
  8
0
  6
CONTINUOUS
 62
    50
 10
77.8418901503123
 20
125.152896850424
 30
0.0
 11
77.8418901503123
 21
125.825272348725
 31
0.0
  0
LINE
  5
   4D6
  8
0
  6
CONTINUOUS
 62
    50
 10
61.8419200259612
 20
119.802866795588
 30
0.0
 11
61.8419135630171
 21
123.676865333472
 31
0.0
  0
LINE
  5
   4D7
  8
0
  6
CONTINUOUS
 62
    50
 10
77.8418722365172
 20
119.802861370257
 30
0.0
 11
77.8418722365172
 21
123.676865334289
 31
0.0
  0
LINE
  5
   4D8
  8
0
  6
CONTINUOUS
 62
    50
 10
105.841676944495
 20
129.422086367165
 30
0.0
 11
110.961479877231
 21
144.188913979786
 31
0.0
  0
LINE
  5
   4D9
  8
0
  6
CONTINUOUS
 62
    50
 10
105.841673892737
 20
127.30209121026
 30
0.0
 11
105.841676944495
 21
129.422086359128
 31
0.0
  0
LINE
  5
   4DA
  8
0
  6
CONTINUOUS
 62
    50
 10
89.8416760082476
 20
127.302097321903
 30
0.0
 11
89.8416760082476
 21
166.402854740487
 31
0.0
  0
LINE
  5
   4DB
  8
0
  6
CONTINUOUS
 62
    50
 10
125.041698592902
 20
166.402860208126
 30
0.0
 11
89.8417056977758
 21
166.402860208126
 31
0.0
  0
LINE
  5
   4DC
  8
0
  6
CONTINUOUS
 62
    50
 10
125.041662373448
 20
155.719053311755
 30
0.0
 11
125.041662373448
 21
166.402842533456
 31
0.0
  0
LINE
  5
   4DD
  8
0
  6
CONTINUOUS
 62
    50
 10
112.749626876533
 20
146.347788523675
 30
0.0
 11
123.032854568827
 21
152.249851599904
 31
0.0
  0
LINE
  5
   4DE
  8
0
  6
CONTINUOUS
 62
    50
 10
105.841670840979
 20
125.825266245209
 30
0.0
 11
105.841670840979
 21
126.55028456656
 31
0.0
  0
LINE
  5
   4DF
  8
0
  6
CONTINUOUS
 62
    50
 10
105.841670840979
 20
126.550284565265
 30
0.0
 11
105.841673892737
 21
127.302091217104
 31
0.0
  0
LINE
  5
   4E0
  8
0
  6
CONTINUOUS
 62
    50
 10
105.841664737463
 20
124.059195661062
 30
0.0
 11
105.841667789221
 21
124.55712657669
 31
0.0
  0
LINE
  5
   4E1
  8
0
  6
CONTINUOUS
 62
    50
 10
105.841664737463
 20
123.676859230773
 30
0.0
 11
105.841664737463
 21
124.059195662252
 31
0.0
  0
LINE
  5
   4E2
  8
0
  6
CONTINUOUS
 62
    50
 10
105.841667789221
 20
125.152896849841
 30
0.0
 11
105.841670840979
 21
125.825266244635
 31
0.0
  0
LINE
  5
   4E3
  8
0
  6
CONTINUOUS
 62
    50
 10
105.841667789221
 20
124.557126577875
 30
0.0
 11
105.841667789221
 21
125.152896850424
 31
0.0
  0
LINE
  5
   4E4
  8
0
  6
CONTINUOUS
 62
    50
 10
89.8416889131076
 20
126.550284566362
 30
0.0
 11
89.8416965425022
 21
127.30209732171
 31
0.0
  0
LINE
  5
   4E5
  8
0
  6
CONTINUOUS
 62
    50
 10
89.8416889131076
 20
125.825272348725
 30
0.0
 11
89.8416889131076
 21
126.55028456656
 31
0.0
  0
LINE
  5
   4E6
  8
0
  6
CONTINUOUS
 62
    50
 10
89.8416889131076
 20
125.152896850424
 30
0.0
 11
89.8416889131076
 21
125.825272348725
 31
0.0
  0
LINE
  5
   4E7
  8
0
  6
CONTINUOUS
 62
    50
 10
89.8416889131076
 20
124.557126577875
 30
0.0
 11
89.8416889131076
 21
125.152896850424
 31
0.0
  0
LINE
  5
   4E8
  8
0
  6
CONTINUOUS
 62
    50
 10
89.8416889131076
 20
123.676865334289
 30
0.0
 11
89.8416889131076
 21
124.059201765768
 31
0.0
  0
LINE
  5
   4E9
  8
0
  6
CONTINUOUS
 62
    50
 10
89.8416889131076
 20
124.059201765768
 30
0.0
 11
89.8416889131076
 21
124.557126577875
 31
0.0
  0
LINE
  5
   4EA
  8
0
  6
CONTINUOUS
 62
    50
 10
105.841658274505
 20
119.80285187597
 30
0.0
 11
105.841664737463
 21
123.676859229372
 31
0.0
  0
LINE
  5
   4EB
  8
0
  6
CONTINUOUS
 62
    50
 10
89.8416538485131
 20
119.802857301319
 30
0.0
 11
89.8416538485131
 21
123.676865334289
 31
0.0
  0
LINE
  5
   4EC
  8
0
  6
CONTINUOUS
 62
    50
 10
117.841695433856
 20
127.302091218833
 30
0.0
 11
117.841698485614
 21
128.045450604921
 31
0.0
  0
LINE
  5
   4ED
  8
0
  6
CONTINUOUS
 62
    50
 10
125.841652828455
 20
141.859244755618
 30
0.0
 11
133.44170176983
 21
146.247129342487
 31
0.0
  0
LINE
  5
   4EE
  8
0
  6
CONTINUOUS
 62
    50
 10
135.441661537192
 20
149.711240722232
 30
0.0
 11
135.441661537192
 21
166.402842533456
 31
0.0
  0
LINE
  5
   4EF
  8
0
  6
CONTINUOUS
 62
    50
 10
171.441702336074
 20
166.402863341834
 30
0.0
 11
135.441707903148
 21
166.402863341834
 31
0.0
  0
LINE
  5
   4F0
  8
0
  6
CONTINUOUS
 62
    50
 10
171.441648906225
 20
151.9280256013
 30
0.0
 11
171.441648906225
 21
166.402830326424
 31
0.0
  0
LINE
  5
   4F1
  8
0
  6
CONTINUOUS
 62
    50
 10
133.841646844149
 20
128.002835857736
 30
0.0
 11
169.434201085457
 21
148.449582988588
 31
0.0
  0
LINE
  5
   4F2
  8
0
  6
CONTINUOUS
 62
    50
 10
133.841646844149
 20
127.302091218387
 30
0.0
 11
133.841646844149
 21
128.002835857736
 31
0.0
  0
LINE
  5
   4F3
  8
0
  6
CONTINUOUS
 62
    50
 10
117.84168933034
 20
125.825266245209
 30
0.0
 11
117.84168933034
 21
126.550278463044
 31
0.0
  0
LINE
  5
   4F4
  8
0
  6
CONTINUOUS
 62
    50
 10
117.84168933034
 20
126.550278463038
 30
0.0
 11
117.841695433856
 21
127.302091218387
 31
0.0
  0
LINE
  5
   4F5
  8
0
  6
CONTINUOUS
 62
    50
 10
117.84168933034
 20
125.152890746909
 30
0.0
 11
117.84168933034
 21
125.825266245209
 31
0.0
  0
LINE
  5
   4F6
  8
0
  6
CONTINUOUS
 62
    50
 10
117.84168933034
 20
124.557126577875
 30
0.0
 11
117.84168933034
 21
125.152890746909
 31
0.0
  0
LINE
  5
   4F7
  8
0
  6
CONTINUOUS
 62
    50
 10
117.84168933034
 20
123.676859230773
 30
0.0
 11
117.84168933034
 21
124.059195662252
 31
0.0
  0
LINE
  5
   4F8
  8
0
  6
CONTINUOUS
 62
    50
 10
117.84168933034
 20
124.059195662252
 30
0.0
 11
117.84168933034
 21
124.557126577875
 31
0.0
  0
LINE
  5
   4F9
  8
0
  6
CONTINUOUS
 62
    50
 10
133.841646844149
 20
125.825266245209
 30
0.0
 11
133.841646844149
 21
126.550278463044
 31
0.0
  0
LINE
  5
   4FA
  8
0
  6
CONTINUOUS
 62
    50
 10
133.841646844149
 20
126.550278463044
 30
0.0
 11
133.841646844149
 21
127.302091218387
 31
0.0
  0
LINE
  5
   4FB
  8
0
  6
CONTINUOUS
 62
    50
 10
133.841646844149
 20
123.676859230773
 30
0.0
 11
133.841646844149
 21
124.059195662252
 31
0.0
  0
LINE
  5
   4FC
  8
0
  6
CONTINUOUS
 62
    50
 10
133.841646844149
 20
125.152890746909
 30
0.0
 11
133.841646844149
 21
125.825266245209
 31
0.0
  0
LINE
  5
   4FD
  8
0
  6
CONTINUOUS
 62
    50
 10
133.841646844149
 20
124.059195662252
 30
0.0
 11
133.841646844149
 21
124.557120474359
 31
0.0
  0
LINE
  5
   4FE
  8
0
  6
CONTINUOUS
 62
    50
 10
133.841646844149
 20
124.557120474359
 30
0.0
 11
133.841646844149
 21
125.152890746909
 31
0.0
  0
LINE
  5
   4FF
  8
0
  6
CONTINUOUS
 62
    50
 10
117.84168933034
 20
119.802847806948
 30
0.0
 11
117.84168933034
 21
127.970104513957
 31
0.0
  0
LINE
  5
   500
  8
0
  6
CONTINUOUS
 62
    50
 10
133.841640381185
 20
119.802842381617
 30
0.0
 11
133.841646844149
 21
123.676859234059
 31
0.0
  0
LINE
  5
   501
  8
0
  6
DASHDOT
 62
     7
 10
125.841713368889
 20
107.90357036426
 30
0.0
 11
125.841713368889
 21
132.453569317074
 31
0.0
  0
LINE
  5
   502
  8
0
  6
DASHDOT
 62
     7
 10
69.8417125344317
 20
108.73107158631
 30
0.0
 11
69.8417125344317
 21
131.410038029392
 31
0.0
  0
CIRCLE
  5
   503
  8
0
  6
CONTINUOUS
 62
    50
 10
51.6419912308509
 20
158.402862876485
 30
0.0
 40
2.59999322970974
  0
CIRCLE
  5
   504
  8
0
  6
CONTINUOUS
 62
    50
 10
60.6418940000484
 20
158.402859991378
 30
0.0
 40
2.59999834241628
  0
CIRCLE
  5
   505
  8
0
  6
CONTINUOUS
 62
    50
 10
69.6417838841698
 20
158.40286391232
 30
0.0
 40
2.60000583908482
  0
CIRCLE
  5
   506
  8
0
  6
CONTINUOUS
 62
    50
 10
98.0418108127213
 20
158.402851047558
 30
0.0
 40
2.59999422813117
  0
CIRCLE
  5
   507
  8
0
  6
CONTINUOUS
 62
    50
 10
107.041701376439
 20
158.402841856546
 30
0.0
 40
2.60000107980833
  0
CIRCLE
  5
   508
  8
0
  6
CONTINUOUS
 62
    50
 10
116.041597750782
 20
158.402855892877
 30
0.0
 40
2.60000805838394
  0
CIRCLE
  5
   509
  8
0
  6
CONTINUOUS
 62
    50
 10
144.441807315118
 20
158.40283145189
 30
0.0
 40
2.59999879406904
  0
CIRCLE
  5
   50A
  8
0
  6
CONTINUOUS
 62
    50
 10
153.44170044433
 20
158.402830043065
 30
0.0
 40
2.59999979161119
  0
CIRCLE
  5
   50B
  8
0
  6
CONTINUOUS
 62
    50
 10
162.441594359071
 20
158.402824665528
 30
0.0
 40
2.60000412187565
  0
LINE
  5
   50C
  8
0
  6
DASHDOT
 62
     7
 10
162.441594359071
 20
155.002820531732
 30
0.0
 11
162.441594359071
 21
161.802828799325
 31
0.0
  0
LINE
  5
   50D
  8
0
  6
DASHDOT
 62
     7
 10
165.841598492867
 20
158.402824665528
 30
0.0
 11
159.041590225274
 21
158.402824665528
 31
0.0
  0
LINE
  5
   50E
  8
0
  6
DASHDOT
 62
     7
 10
153.44170044433
 20
155.002830239533
 30
0.0
 11
153.44170044433
 21
161.802829846597
 31
0.0
  0
LINE
  5
   50F
  8
0
  6
DASHDOT
 62
     7
 10
156.841700247862
 20
158.402830043065
 30
0.0
 11
150.041700640798
 21
158.402830043065
 31
0.0
  0
LINE
  5
   510
  8
0
  6
DASHDOT
 62
     7
 10
144.441807315118
 20
155.0028326459
 30
0.0
 11
144.441807315118
 21
161.80283025788
 31
0.0
  0
LINE
  5
   511
  8
0
  6
DASHDOT
 62
     7
 10
147.841806121108
 20
158.40283145189
 30
0.0
 11
141.041808509128
 21
158.40283145189
 31
0.0
  0
LINE
  5
   512
  8
0
  6
DASHDOT
 62
     7
 10
116.041597750782
 20
155.002847822572
 30
0.0
 11
116.041597750782
 21
161.802863963182
 31
0.0
  0
LINE
  5
   513
  8
0
  6
DASHDOT
 62
     7
 10
119.441605821087
 20
158.402855892877
 30
0.0
 11
112.641589680478
 21
158.402855892877
 31
0.0
  0
LINE
  5
   514
  8
0
  6
DASHDOT
 62
     7
 10
107.041701376439
 20
155.002840764817
 30
0.0
 11
107.041701376439
 21
161.802842948275
 31
0.0
  0
LINE
  5
   515
  8
0
  6
DASHDOT
 62
     7
 10
110.441702468168
 20
158.402841856546
 30
0.0
 11
103.64170028471
 21
158.402841856546
 31
0.0
  0
LINE
  5
   516
  8
0
  6
DASHDOT
 62
     7
 10
98.0418108127213
 20
155.002856807506
 30
0.0
 11
98.0418108127213
 21
161.80284528761
 31
0.0
  0
LINE
  5
   517
  8
0
  6
DASHDOT
 62
     7
 10
101.441805052773
 20
158.402851047558
 30
0.0
 11
94.6418165726692
 21
158.402851047558
 31
0.0
  0
LINE
  5
   518
  8
0
  6
DASHDOT
 62
     7
 10
69.6417838841698
 20
155.002858061314
 30
0.0
 11
69.6417838841698
 21
161.802869763326
 31
0.0
  0
LINE
  5
   519
  8
0
  6
DASHDOT
 62
     7
 10
73.0417897351756
 20
158.40286391232
 30
0.0
 11
66.2417780331641
 21
158.40286391232
 31
0.0
  0
LINE
  5
   51A
  8
0
  6
DASHDOT
 62
     7
 10
60.6418940000484
 20
155.002861637041
 30
0.0
 11
60.6418940000484
 21
161.802858345716
 31
0.0
  0
LINE
  5
   51B
  8
0
  6
DASHDOT
 62
     7
 10
64.0418923543856
 20
158.402859991378
 30
0.0
 11
57.2418956457112
 21
158.402859991378
 31
0.0
  0
LINE
  5
   51C
  8
0
  6
DASHDOT
 62
     7
 10
51.6419912308509
 20
155.002869634855
 30
0.0
 11
51.6419912308509
 21
161.802856118116
 31
0.0
  0
LINE
  5
   51D
  8
0
  6
DASHDOT
 62
     7
 10
55.0419844724815
 20
158.402862876485
 30
0.0
 11
48.2419979892202
 21
158.402862876485
 31
0.0
  0
ARC
  5
   51E
  8
0
  6
CONTINUOUS
 62
    50
 10
46.6418749586163
 20
155.719042727802
 30
0.0
 40
3.99998228113196
 50
179.999999948034
 51
240.14626435961
  0
ARC
  5
   51F
  8
0
  6
CONTINUOUS
 62
    50
 10
52.9428228982381
 20
142.878602003955
 30
0.0
 40
3.99998516684792
 50
379.121926056389
 51
420.146264359611
  0
ARC
  5
   520
  8
0
  6
CONTINUOUS
 62
    50
 10
114.740764407905
 20
142.878596153603
 30
0.0
 40
3.99999054616442
 50
119.853688045721
 51
160.878070599032
  0
ARC
  5
   521
  8
0
  6
CONTINUOUS
 62
    50
 10
121.041740540267
 20
155.719023192548
 30
0.0
 40
3.99995500099075
 50
299.853688045721
 51
359.999983581852
  0
ARC
  5
   522
  8
0
  6
CONTINUOUS
 62
    50
 10
131.441690553318
 20
149.711237467889
 30
0.0
 40
4.00001124631516
 50
299.999967632915
 51
359.999978997038
  0
ARC
  5
   523
  8
0
  6
CONTINUOUS
 62
    50
 10
133.841609043676
 20
128.002866114488
 30
0.0
 40
15.9999532547962
 50
119.999967632915
 51
180.117319212803
  0
ARC
  5
   524
  8
0
  6
CONTINUOUS
 62
    50
 10
167.441706589478
 20
151.918009586642
 30
0.0
 40
4.00000218738505
 50
299.871056197812
 51
360.143468861357
  0
LINE
  5
   525
  8
0
  6
CONTINUOUS
 62
    50
 10
56.7221037638256
 20
-11.7832065939124
 30
0.0
 11
61.8419036448041
 21
2.98361491519284
 31
0.0
  0
LINE
  5
   526
  8
0
  6
CONTINUOUS
 62
    50
 10
61.8419036448041
 20
2.98361491704919
 30
0.0
 11
61.8419074595014
 21
5.10361006575493
 31
0.0
  0
LINE
  5
   527
  8
0
  6
CONTINUOUS
 62
    50
 10
77.8418764391058
 20
-33.9971473546134
 30
0.0
 11
77.8418764391058
 21
5.10361006397072
 31
0.0
  0
LINE
  5
   528
  8
0
  6
CONTINUOUS
 62
    50
 10
77.841886335615
 20
-33.9971473546134
 30
0.0
 11
42.6418926775493
 21
-33.9971473546134
 31
0.0
  0
LINE
  5
   529
  8
0
  6
CONTINUOUS
 62
    50
 10
42.6418926775493
 20
-33.9971473546134
 30
0.0
 11
42.6418926775493
 21
-23.3133581329126
 31
0.0
  0
LINE
  5
   52A
  8
0
  6
CONTINUOUS
 62
    50
 10
44.6507305981083
 20
-19.8441564210612
 30
0.0
 11
54.9339598162817
 21
-13.9420811378009
 31
0.0
  0
LINE
  5
   52B
  8
0
  6
CONTINUOUS
 62
    50
 10
61.8419074595014
 20
5.10361006386401
 30
0.0
 11
61.8419082224408
 21
5.85541671564644
 31
0.0
  0
LINE
  5
   52C
  8
0
  6
CONTINUOUS
 62
    50
 10
61.8419082224409
 20
5.85541671546301
 30
0.0
 11
61.8419097483198
 21
6.58043503679239
 31
0.0
  0
LINE
  5
   52D
  8
0
  6
CONTINUOUS
 62
    50
 10
61.8419128000776
 20
8.34649951771313
 30
0.0
 11
61.8419135630171
 21
8.72884205269563
 31
0.0
  0
LINE
  5
   52E
  8
0
  6
CONTINUOUS
 62
    50
 10
61.8419120371382
 20
7.84857470381433
 30
0.0
 11
61.8419128000776
 21
8.34649951590158
 31
0.0
  0
LINE
  5
   52F
  8
0
  6
CONTINUOUS
 62
    50
 10
61.8419097483198
 20
6.5804350360567
 30
0.0
 11
61.8419105112592
 21
7.25280443080513
 31
0.0
  0
LINE
  5
   530
  8
0
  6
CONTINUOUS
 62
    50
 10
61.8419105112593
 20
7.25280443183623
 30
0.0
 11
61.8419120371382
 21
7.84857470437153
 31
0.0
  0
LINE
  5
   531
  8
0
  6
CONTINUOUS
 62
    50
 10
77.8418250664844
 20
7.84857470448326
 30
0.0
 11
77.8418250664844
 21
8.34650562010614
 31
0.0
  0
LINE
  5
   532
  8
0
  6
CONTINUOUS
 62
    50
 10
77.8418901503123
 20
7.25281053544943
 30
0.0
 11
77.8418901503123
 21
7.84857470448326
 31
0.0
  0
LINE
  5
   533
  8
0
  6
CONTINUOUS
 62
    50
 10
77.8418832838571
 20
5.10361006393391
 30
0.0
 11
77.8418901503123
 21
5.85542281935018
 31
0.0
  0
LINE
  5
   534
  8
0
  6
CONTINUOUS
 62
    50
 10
77.8418901503123
 20
5.85542281931424
 30
0.0
 11
77.8418901503123
 21
6.58043503714901
 31
0.0
  0
LINE
  5
   535
  8
0
  6
CONTINUOUS
 62
    50
 10
77.8418897688426
 20
8.34650562010614
 30
0.0
 11
77.8418897688426
 21
8.72884205158464
 31
0.0
  0
LINE
  5
   536
  8
0
  6
CONTINUOUS
 62
    50
 10
77.8418901503123
 20
6.58043503714901
 30
0.0
 11
77.8418901503123
 21
7.25281053544943
 31
0.0
  0
LINE
  5
   537
  8
0
  6
CONTINUOUS
 62
    50
 10
61.8419135630171
 20
8.72884205240218
 30
0.0
 11
61.8419200259612
 21
12.6028405902853
 31
0.0
  0
LINE
  5
   538
  8
0
  6
CONTINUOUS
 62
    50
 10
77.8418722365172
 20
8.72884205158464
 30
0.0
 11
77.8418722365172
 21
12.6028460156172
 31
0.0
  0
LINE
  5
   539
  8
0
  6
CONTINUOUS
 62
    50
 10
110.961479877231
 20
-11.7832065939124
 30
0.0
 11
105.841676944495
 21
2.98362101870858
 31
0.0
  0
LINE
  5
   53A
  8
0
  6
CONTINUOUS
 62
    50
 10
105.841676944495
 20
2.98362102674584
 30
0.0
 11
105.841673892737
 21
5.10361617561391
 31
0.0
  0
LINE
  5
   53B
  8
0
  6
CONTINUOUS
 62
    50
 10
89.8416760082476
 20
-33.9971473546134
 30
0.0
 11
89.8416760082476
 21
5.10361006397073
 31
0.0
  0
LINE
  5
   53C
  8
0
  6
CONTINUOUS
 62
    50
 10
125.041698592902
 20
-33.997152822252
 30
0.0
 11
89.8417056977758
 21
-33.997152822252
 31
0.0
  0
LINE
  5
   53D
  8
0
  6
CONTINUOUS
 62
    50
 10
125.041662373448
 20
-33.997135147582
 30
0.0
 11
125.041662373448
 21
-23.3133459258811
 31
0.0
  0
LINE
  5
   53E
  8
0
  6
CONTINUOUS
 62
    50
 10
123.032854568827
 20
-19.8441442140298
 30
0.0
 11
112.749626876533
 21
-13.9420811378009
 31
0.0
  0
LINE
  5
   53F
  8
0
  6
CONTINUOUS
 62
    50
 10
105.841670840979
 20
5.85542281931424
 30
0.0
 11
105.841670840979
 21
6.58044114066472
 31
0.0
  0
LINE
  5
   540
  8
0
  6
CONTINUOUS
 62
    50
 10
105.841673892737
 20
5.10361616876988
 30
0.0
 11
105.841670840979
 21
5.85542282060903
 31
0.0
  0
LINE
  5
   541
  8
0
  6
CONTINUOUS
 62
    50
 10
105.841667789221
 20
7.84858080918421
 30
0.0
 11
105.841664737463
 21
8.34651172481206
 31
0.0
  0
LINE
  5
   542
  8
0
  6
CONTINUOUS
 62
    50
 10
105.841664737463
 20
8.34651172362185
 30
0.0
 11
105.841664737463
 21
8.72884815510036
 31
0.0
  0
LINE
  5
   543
  8
0
  6
CONTINUOUS
 62
    50
 10
105.841670840979
 20
6.5804411412392
 30
0.0
 11
105.841667789221
 21
7.25281053603299
 31
0.0
  0
LINE
  5
   544
  8
0
  6
CONTINUOUS
 62
    50
 10
105.841667789221
 20
7.25281053544943
 30
0.0
 11
105.841667789221
 21
7.84858080799898
 31
0.0
  0
LINE
  5
   545
  8
0
  6
CONTINUOUS
 62
    50
 10
89.8416965425022
 20
5.10361006416355
 30
0.0
 11
89.8416889131076
 21
5.8554228195116
 31
0.0
  0
LINE
  5
   546
  8
0
  6
CONTINUOUS
 62
    50
 10
89.8416889131076
 20
5.85542281931424
 30
0.0
 11
89.8416889131076
 21
6.58043503714901
 31
0.0
  0
LINE
  5
   547
  8
0
  6
CONTINUOUS
 62
    50
 10
89.8416889131076
 20
6.58043503714901
 30
0.0
 11
89.8416889131076
 21
7.25281053544943
 31
0.0
  0
LINE
  5
   548
  8
0
  6
CONTINUOUS
 62
    50
 10
89.8416889131076
 20
7.25281053544943
 30
0.0
 11
89.8416889131076
 21
7.84858080799898
 31
0.0
  0
LINE
  5
   549
  8
0
  6
CONTINUOUS
 62
    50
 10
89.8416889131076
 20
8.34650562010614
 30
0.0
 11
89.8416889131076
 21
8.72884205158464
 31
0.0
  0
LINE
  5
   54A
  8
0
  6
CONTINUOUS
 62
    50
 10
89.8416889131076
 20
7.84858080799898
 30
0.0
 11
89.8416889131076
 21
8.34650562010614
 31
0.0
  0
LINE
  5
   54B
  8
0
  6
CONTINUOUS
 62
    50
 10
105.841664737463
 20
8.72884815650137
 30
0.0
 11
105.841658274505
 21
12.6028555099039
 31
0.0
  0
LINE
  5
   54C
  8
0
  6
CONTINUOUS
 62
    50
 10
89.8416538485131
 20
8.72884205158464
 30
0.0
 11
89.8416538485131
 21
12.6028500845543
 31
0.0
  0
LINE
  5
   54D
  8
0
  6
CONTINUOUS
 62
    50
 10
117.841698485614
 20
4.36025678095235
 30
0.0
 11
117.841695433856
 21
5.10361616704036
 31
0.0
  0
LINE
  5
   54E
  8
0
  6
CONTINUOUS
 62
    50
 10
133.44170176983
 20
-13.8414219566135
 30
0.0
 11
125.841652828455
 21
-9.45353736974458
 31
0.0
  0
LINE
  5
   54F
  8
0
  6
CONTINUOUS
 62
    50
 10
135.441661537192
 20
-33.997135147582
 30
0.0
 11
135.441661537192
 21
-17.3055333363578
 31
0.0
  0
LINE
  5
   550
  8
0
  6
CONTINUOUS
 62
    50
 10
171.441702336074
 20
-33.9971559559605
 30
0.0
 11
135.441707903148
 21
-33.9971559559605
 31
0.0
  0
LINE
  5
   551
  8
0
  6
CONTINUOUS
 62
    50
 10
171.441648906225
 20
-33.9971229405506
 30
0.0
 11
171.441648906225
 21
-19.522318215426
 31
0.0
  0
LINE
  5
   552
  8
0
  6
CONTINUOUS
 62
    50
 10
169.434201085457
 20
-16.0438756027139
 30
0.0
 11
133.841646844149
 21
4.40287152813828
 31
0.0
  0
LINE
  5
   553
  8
0
  6
CONTINUOUS
 62
    50
 10
133.841646844149
 20
4.40287152813828
 30
0.0
 11
133.841646844149
 21
5.10361616748644
 31
0.0
  0
LINE
  5
   554
  8
0
  6
CONTINUOUS
 62
    50
 10
117.84168933034
 20
5.85542892282995
 30
0.0
 11
117.84168933034
 21
6.58044114066472
 31
0.0
  0
LINE
  5
   555
  8
0
  6
CONTINUOUS
 62
    50
 10
117.841695433856
 20
5.1036161674869
 30
0.0
 11
117.84168933034
 21
5.85542892283608
 31
0.0
  0
LINE
  5
   556
  8
0
  6
CONTINUOUS
 62
    50
 10
117.84168933034
 20
6.58044114066472
 30
0.0
 11
117.84168933034
 21
7.25281663896515
 31
0.0
  0
LINE
  5
   557
  8
0
  6
CONTINUOUS
 62
    50
 10
117.84168933034
 20
7.25281663896515
 30
0.0
 11
117.84168933034
 21
7.84858080799898
 31
0.0
  0
LINE
  5
   558
  8
0
  6
CONTINUOUS
 62
    50
 10
117.84168933034
 20
8.34651172362185
 30
0.0
 11
117.84168933034
 21
8.72884815510036
 31
0.0
  0
LINE
  5
   559
  8
0
  6
CONTINUOUS
 62
    50
 10
117.84168933034
 20
7.84858080799898
 30
0.0
 11
117.84168933034
 21
8.34651172362185
 31
0.0
  0
LINE
  5
   55A
  8
0
  6
CONTINUOUS
 62
    50
 10
133.841646844149
 20
5.85542892282995
 30
0.0
 11
133.841646844149
 21
6.58044114066472
 31
0.0
  0
LINE
  5
   55B
  8
0
  6
CONTINUOUS
 62
    50
 10
133.841646844149
 20
5.10361616748644
 30
0.0
 11
133.841646844149
 21
5.85542892282995
 31
0.0
  0
LINE
  5
   55C
  8
0
  6
CONTINUOUS
 62
    50
 10
133.841646844149
 20
8.34651172362185
 30
0.0
 11
133.841646844149
 21
8.72884815510036
 31
0.0
  0
LINE
  5
   55D
  8
0
  6
CONTINUOUS
 62
    50
 10
133.841646844149
 20
6.58044114066472
 30
0.0
 11
133.841646844149
 21
7.25281663896515
 31
0.0
  0
LINE
  5
   55E
  8
0
  6
CONTINUOUS
 62
    50
 10
133.841646844149
 20
7.84858691151469
 30
0.0
 11
133.841646844149
 21
8.34651172362185
 31
0.0
  0
LINE
  5
   55F
  8
0
  6
CONTINUOUS
 62
    50
 10
133.841646844149
 20
7.25281663896515
 30
0.0
 11
133.841646844149
 21
7.84858691151469
 31
0.0
  0
LINE
  5
   560
  8
0
  6
CONTINUOUS
 62
    50
 10
117.84168933034
 20
4.43560287191629
 30
0.0
 11
117.84168933034
 21
12.6028595789255
 31
0.0
  0
LINE
  5
   561
  8
0
  6
CONTINUOUS
 62
    50
 10
133.841646844149
 20
8.72884815181513
 30
0.0
 11
133.841640381185
 21
12.6028650042571
 31
0.0
  0
LINE
  5
   562
  8
0
  6
DASHDOT
 62
     7
 10
125.841713368889
 20
-4.78619312002024E-2
 30
0.0
 11
125.841713368889
 21
24.5021370216142
 31
0.0
  0
LINE
  5
   563
  8
0
  6
DASHDOT
 62
     7
 10
69.8417125344317
 20
0.995669356481862
 30
0.0
 11
69.8417125344317
 21
23.674635799564
 31
0.0
  0
CIRCLE
  5
   564
  8
0
  6
CONTINUOUS
 62
    50
 10
51.6419912308509
 20
-25.9971554906114
 30
0.0
 40
2.59999322970974
  0
CIRCLE
  5
   565
  8
0
  6
CONTINUOUS
 62
    50
 10
60.6418940000484
 20
-25.9971526055047
 30
0.0
 40
2.59999834241628
  0
CIRCLE
  5
   566
  8
0
  6
CONTINUOUS
 62
    50
 10
69.6417838841698
 20
-25.997156526446
 30
0.0
 40
2.60000583908482
  0
CIRCLE
  5
   567
  8
0
  6
CONTINUOUS
 62
    50
 10
98.0418108127213
 20
-25.9971436616841
 30
0.0
 40
2.59999422813117
  0
CIRCLE
  5
   568
  8
0
  6
CONTINUOUS
 62
    50
 10
107.041701376439
 20
-25.9971344706723
 30
0.0
 40
2.60000107980833
  0
CIRCLE
  5
   569
  8
0
  6
CONTINUOUS
 62
    50
 10
116.041597750782
 20
-25.9971485070031
 30
0.0
 40
2.60000805838394
  0
CIRCLE
  5
   56A
  8
0
  6
CONTINUOUS
 62
    50
 10
144.441807315118
 20
-25.9971240660159
 30
0.0
 40
2.59999879406904
  0
CIRCLE
  5
   56B
  8
0
  6
CONTINUOUS
 62
    50
 10
153.44170044433
 20
-25.9971226571916
 30
0.0
 40
2.59999979161119
  0
CIRCLE
  5
   56C
  8
0
  6
CONTINUOUS
 62
    50
 10
162.441594359071
 20
-25.9971172796544
 30
0.0
 40
2.60000412187565
  0
LINE
  5
   56D
  8
0
  6
DASHDOT
 62
     7
 10
162.441594359071
 20
-29.3971214134509
 30
0.0
 11
162.441594359071
 21
-22.5971131458578
 31
0.0
  0
LINE
  5
   56E
  8
0
  6
DASHDOT
 62
     7
 10
165.841598492867
 20
-25.9971172796544
 30
0.0
 11
159.041590225274
 21
-25.9971172796544
 31
0.0
  0
LINE
  5
   56F
  8
0
  6
DASHDOT
 62
     7
 10
153.44170044433
 20
-29.3971224607237
 30
0.0
 11
153.44170044433
 21
-22.5971228536594
 31
0.0
  0
LINE
  5
   570
  8
0
  6
DASHDOT
 62
     7
 10
156.841700247862
 20
-25.9971226571916
 30
0.0
 11
150.041700640798
 21
-25.9971226571916
 31
0.0
  0
LINE
  5
   571
  8
0
  6
DASHDOT
 62
     7
 10
144.441807315118
 20
-29.3971228720058
 30
0.0
 11
144.441807315118
 21
-22.5971252600259
 31
0.0
  0
LINE
  5
   572
  8
0
  6
DASHDOT
 62
     7
 10
147.841806121108
 20
-25.9971240660159
 30
0.0
 11
141.041808509128
 21
-25.9971240660159
 31
0.0
  0
LINE
  5
   573
  8
0
  6
DASHDOT
 62
     7
 10
116.041597750782
 20
-29.3971565773079
 30
0.0
 11
116.041597750782
 21
-22.5971404366982
 31
0.0
  0
LINE
  5
   574
  8
0
  6
DASHDOT
 62
     7
 10
119.441605821087
 20
-25.9971485070031
 30
0.0
 11
112.641589680478
 21
-25.9971485070031
 31
0.0
  0
LINE
  5
   575
  8
0
  6
DASHDOT
 62
     7
 10
107.041701376439
 20
-29.3971355624015
 30
0.0
 11
107.041701376439
 21
-22.597133378943
 31
0.0
  0
LINE
  5
   576
  8
0
  6
DASHDOT
 62
     7
 10
110.441702468168
 20
-25.9971344706723
 30
0.0
 11
103.64170028471
 21
-25.9971344706723
 31
0.0
  0
LINE
  5
   577
  8
0
  6
DASHDOT
 62
     7
 10
98.0418108127213
 20
-29.3971379017362
 30
0.0
 11
98.0418108127213
 21
-22.597149421632
 31
0.0
  0
LINE
  5
   578
  8
0
  6
DASHDOT
 62
     7
 10
101.441805052773
 20
-25.9971436616841
 30
0.0
 11
94.6418165726692
 21
-25.9971436616841
 31
0.0
  0
LINE
  5
   579
  8
0
  6
DASHDOT
 62
     7
 10
69.6417838841698
 20
-29.3971623774518
 30
0.0
 11
69.6417838841698
 21
-22.5971506754403
 31
0.0
  0
LINE
  5
   57A
  8
0
  6
DASHDOT
 62
     7
 10
73.0417897351756
 20
-25.997156526446
 30
0.0
 11
66.2417780331641
 21
-25.997156526446
 31
0.0
  0
LINE
  5
   57B
  8
0
  6
DASHDOT
 62
     7
 10
60.6418940000484
 20
-29.3971509598419
 30
0.0
 11
60.6418940000484
 21
-22.5971542511675
 31
0.0
  0
LINE
  5
   57C
  8
0
  6
DASHDOT
 62
     7
 10
64.0418923543856
 20
-25.9971526055047
 30
0.0
 11
57.2418956457112
 21
-25.9971526055047
 31
0.0
  0
LINE
  5
   57D
  8
0
  6
DASHDOT
 62
     7
 10
51.6419912308509
 20
-29.3971487322421
 30
0.0
 11
51.6419912308509
 21
-22.5971622489808
 31
0.0
  0
LINE
  5
   57E
  8
0
  6
DASHDOT
 62
     7
 10
55.0419844724815
 20
-25.9971554906114
 30
0.0
 11
48.2419979892202
 21
-25.9971554906114
 31
0.0
  0
ARC
  5
   57F
  8
0
  6
CONTINUOUS
 62
    50
 10
46.6418749586163
 20
-23.3133353419279
 30
0.0
 40
3.99998228113196
 50
119.853735536458
 51
179.999999948034
  0
ARC
  5
   580
  8
0
  6
CONTINUOUS
 62
    50
 10
52.9428228982381
 20
-10.4728946180809
 30
0.0
 40
3.99998516684792
 50
299.853735536458
 51
340.878073839679
  0
ARC
  5
   581
  8
0
  6
CONTINUOUS
 62
    50
 10
114.740764407905
 20
-10.4728887677288
 30
0.0
 40
3.99999054616442
 50
199.121929297037
 51
240.146311850348
  0
ARC
  5
   582
  8
0
  6
CONTINUOUS
 62
    50
 10
121.041740540267
 20
-23.3133158066747
 30
0.0
 40
3.99995500099075
 50
360.000016314217
 51
420.146311850348
  0
ARC
  5
   583
  8
0
  6
CONTINUOUS
 62
    50
 10
131.441690553318
 20
-17.3055300820154
 30
0.0
 40
4.00001124631516
 50
360.000020899031
 51
420.000032263154
  0
ARC
  5
   584
  8
0
  6
CONTINUOUS
 62
    50
 10
133.841609043676
 20
4.40284127138567
 30
0.0
 40
15.9999532547962
 50
179.882680683266
 51
240.000032263154
  0
ARC
  5
   585
  8
0
  6
CONTINUOUS
 62
    50
 10
167.441706589478
 20
-19.5123022007686
 30
0.0
 40
4.00000218738505
 50
359.856531034712
 51
420.128943698257
  0
INSERT
  5
   586
  8
0
  6
CONTINUOUS
 62
     7
  2
*UDIM432
 10
0.0
 20
0.0
 30
0.0
  0
INSERT
  5
   587
  8
0
  6
CONTINUOUS
 62
     7
  2
*UDIM433
 10
0.0
 20
0.0
 30
0.0
  0
INSERT
  5
   588
  8
0
  6
CONTINUOUS
 62
     7
  2
*UDIM434
 10
0.0
 20
0.0
 30
0.0
  0
INSERT
  5
   589
  8
0
  6
CONTINUOUS
 62
     7
  2
*UDIM435
 10
0.0
 20
0.0
 30
0.0
  0
INSERT
  5
   58A
  8
0
  6
CONTINUOUS
 62
     7
  2
*UDIM436
 10
0.0
 20
0.0
 30
0.0
  0
INSERT
  5
   58B
  8
0
  6
CONTINUOUS
 62
     7
  2
*UDIM437
 10
0.0
 20
0.0
 30
0.0
  0
INSERT
  5
   58C
  8
0
  6
CONTINUOUS
 62
     7
  2
*UDIM438
 10
0.0
 20
0.0
 30
0.0
  0
INSERT
  5
   58D
  8
0
  6
CONTINUOUS
 62
     7
  2
*UDIM439
 10
0.0
 20
0.0
 30
0.0
  0
INSERT
  5
   58E
  8
0
  6
CONTINUOUS
 62
     7
  2
*UDIM440
 10
0.0
 20
0.0
 30
0.0
  0
INSERT
  5
   58F
  8
0
  6
CONTINUOUS
 62
     7
  2
*UDIM441
 10
0.0
 20
0.0
 30
0.0
  0
INSERT
  5
   590
  8
0
  6
CONTINUOUS
 62
     7
  2
*UDIM442
 10
0.0
 20
0.0
 30
0.0
  0
INSERT
  5
   591
  8
0
  6
CONTINUOUS
 62
     7
  2
*UDIM443
 10
0.0
 20
0.0
 30
0.0
  0
INSERT
  5
   592
  8
0
  6
CONTINUOUS
 62
     7
  2
*UDIM444
 10
0.0
 20
0.0
 30
0.0
  0
INSERT
  5
   593
  8
0
  6
CONTINUOUS
 62
     7
  2
*UDIM445
 10
0.0
 20
0.0
 30
0.0
  0
INSERT
  5
   594
  8
0
  6
CONTINUOUS
 62
     7
  2
*UDIM446
 10
0.0
 20
0.0
 30
0.0
  0
INSERT
  5
   595
  8
0
  6
CONTINUOUS
 62
     7
  2
*UDIM447
 10
0.0
 20
0.0
 30
0.0
  0
INSERT
  5
   596
  8
0
  6
CONTINUOUS
 62
     7
  2
*UDIM448
 10
0.0
 20
0.0
 30
0.0
  0
INSERT
  5
   597
  8
0
  6
CONTINUOUS
 62
     7
  2
*UDIM449
 10
0.0
 20
0.0
 30
0.0
  0
TEXT
  5
   598
  8
0
  6
CONTINUOUS
 62
     7
 10
148.962587688178
 20
55.2218906254002
 30
0.0
 40
2.99999994933605
  1
=
 50
89.9999999480344
 41
0.916666607525612
 72
     1
 11
147.462587714506
 21
56.3218905358617
 31
0.0
 73
     2
  0
TEXT
  5
   599
  8
0
  6
CONTINUOUS
 62
     7
 10
149.171895552625
 20
83.4130043267306
 30
0.0
 40
2.99999994933605
  1
=
 50
89.9999999480344
 41
0.916666607525612
 72
     1
 11
147.671895578953
 21
84.513004237192
 31
0.0
 73
     2
  0
TEXT
  5
   59A
  8
0
  6
CONTINUOUS
 62
     7
 10
31.2700503809405
 20
69.0054534123737
 30
0.0
 40
2.99999994933605
  1
X
 50
359.999999948034
 41
0.916666607525612
 72
     2
 11
33.4700501991463
 21
69.0054534103894
 31
0.0
  0
TEXT
  5
   59B
  8
0
  6
CONTINUOUS
 62
     7
 10
147.823048943887
 20
68.5028288931652
 30
0.0
 40
2.99999994933605
  1
X
 50
359.999999948034
 41
0.916666607525612
 72
     2
 11
150.023048762093
 21
68.5028288911809
 31
0.0
  0
LINE
  5
   59C
  8
0
  6
CONTINUOUS
 62
   130
 10
198.893789711595
 20
72.6028737217189
 30
0.0
 11
198.893789711595
 21
77.8028737992049
 31
0.0
  0
LINE
  5
   59D
  8
0
  6
CONTINUOUS
 62
   130
 10
198.49379003942
 20
115.602874362469
 30
0.0
 11
199.493789672852
 21
115.602874362469
 31
0.0
  0
LINE
  5
   59E
  8
0
  6
CONTINUOUS
 62
   130
 10
198.49379003942
 20
111.602868199348
 30
0.0
 11
199.493789672852
 21
111.602868199348
 31
0.0
  0
LINE
  5
   59F
  8
0
  6
CONTINUOUS
 62
   130
 10
198.49379003942
 20
111.602868199348
 30
0.0
 11
198.49379003942
 21
112.137536176066
 31
0.0
  0
LINE
  5
   5A0
  8
0
  6
CONTINUOUS
 62
   130
 10
198.49379003942
 20
112.13757279716
 30
0.0
 11
198.49379003942
 21
112.828820366054
 31
0.0
  0
LINE
  5
   5A1
  8
0
  6
CONTINUOUS
 62
   130
 10
198.49379003942
 20
112.82886919418
 30
0.0
 11
198.49379003942
 21
115.602873980999
 31
0.0
  0
LINE
  5
   5A2
  8
0
  6
CONTINUOUS
 62
     3
 10
199.093789666891
 20
40.4028728604318
 30
0.0
 11
199.49378964901
 21
40.4028728604318
 31
0.0
  0
LINE
  5
   5A3
  8
0
  6
CONTINUOUS
 62
   130
 10
199.093789666891
 20
46.4028672277927
 30
0.0
 11
199.093789666891
 21
49.8028733819724
 31
0.0
  0
LINE
  5
   5A4
  8
0
  6
CONTINUOUS
 62
     3
 10
199.093789666891
 20
72.8853810501473
 30
0.0
 11
199.093789666891
 21
77.8028737992049
 31
0.0
  0
LINE
  5
   5A5
  8
0
  6
CONTINUOUS
 62
   130
 10
199.093789666891
 20
105.802874224144
 30
0.0
 11
202.293789714575
 21
105.802825396018
 31
0.0
  0
LINE
  5
   5A6
  8
0
  6
CONTINUOUS
 62
   130
 10
199.493788947563
 20
106.043732460862
 30
0.0
 11
199.493789734344
 21
105.802857213138
 31
0.0
  0
LINE
  5
   5A7
  8
0
  6
CONTINUOUS
 62
   130
 10
199.493789672852
 20
105.802868112922
 30
0.0
 11
199.493789672852
 21
119.802868321538
 31
0.0
  0
LINE
  5
   5A8
  8
0
  6
CONTINUOUS
 62
     3
 10
199.49378964901
 20
40.4028728604318
 30
0.0
 11
217.279422238255
 21
40.4028728604318
 31
0.0
  0
LINE
  5
   5A9
  8
0
  6
CONTINUOUS
 62
     3
 10
228.713784386218
 20
118.602874407172
 30
0.0
 11
230.293771797418
 21
118.602874407172
 31
0.0
  0
LINE
  5
   5AA
  8
0
  6
CONTINUOUS
 62
   130
 10
199.093788156526
 20
66.7207841656405
 30
0.0
 11
199.493789672852
 21
66.827960529647
 31
0.0
  0
LINE
  5
   5AB
  8
0
  6
CONTINUOUS
 62
     3
 10
199.093792612715
 20
72.8853753754804
 30
0.0
 11
202.387282462154
 21
72.0028560333436
 31
0.0
  0
LINE
  5
   5AC
  8
0
  6
CONTINUOUS
 62
     3
 10
200.493764052985
 20
72.0028560670293
 30
0.0
 11
236.97376459658
 21
72.0028733899939
 31
0.0
  0
LINE
  5
   5AD
  8
0
  6
CONTINUOUS
 62
     3
 10
200.493764052985
 20
67.6028437943948
 30
0.0
 11
236.97376459658
 21
67.6028611163849
 31
0.0
  0
LINE
  5
   5AE
  8
0
  6
CONTINUOUS
 62
   130
 10
199.493789672852
 20
66.8279407743375
 30
0.0
 11
199.493789672852
 21
72.6028737217189
 31
0.0
  0
LINE
  5
   5AF
  8
0
  6
DASHDOT
 62
   130
 10
198.49378965795
 20
40.4028732419015
 30
0.0
 11
198.49378965795
 21
128.102993953255
 31
0.0
  0
LINE
  5
   5B0
  8
0
  6
CONTINUOUS
 62
   130
 10
198.49378965795
 20
46.4028733313085
 30
0.0
 11
199.093789285421
 21
46.4028733313085
 31
0.0
  0
LINE
  5
   5B1
  8
0
  6
CONTINUOUS
 62
     3
 10
198.493789785107
 20
40.4028732419015
 30
0.0
 11
199.093789794047
 21
40.4028728604318
 31
0.0
  0
LINE
  5
   5B2
  8
0
  6
CONTINUOUS
 62
     3
 10
217.279412613992
 20
40.4028710398164
 30
0.0
 11
217.493768068809
 21
39.6028714447315
 31
0.0
  0
LINE
  5
   5B3
  8
0
  6
CONTINUOUS
 62
     3
 10
217.293783834577
 20
39.6028732299806
 30
0.0
 11
230.293765717744
 21
39.6028732299806
 31
0.0
  0
LINE
  5
   5B4
  8
0
  6
CONTINUOUS
 62
     3
 10
228.093765684962
 20
67.5028492316601
 30
0.0
 11
228.093765684962
 21
67.6028614401816
 31
0.0
  0
LINE
  5
   5B5
  8
0
  6
CONTINUOUS
 62
     3
 10
228.093765684962
 20
72.0028737127782
 30
0.0
 11
228.093765684962
 21
72.1028493002054
 31
0.0
  0
LINE
  5
   5B6
  8
0
  6
CONTINUOUS
 62
     3
 10
228.093765684962
 20
72.1028493002054
 30
0.0
 11
236.97376459658
 21
72.1028493002054
 31
0.0
  0
LINE
  5
   5B7
  8
0
  6
CONTINUOUS
 62
     3
 10
228.093761800768
 20
67.5028470137047
 30
0.0
 11
236.97376459658
 21
67.5027977419533
 31
0.0
  0
LINE
  5
   5B8
  8
0
  6
CONTINUOUS
 62
     1
 10
198.493791565299
 20
50.9528733201839
 30
0.0
 11
198.493791565299
 21
53.8528611563658
 31
0.0
  0
LINE
  5
   5B9
  8
0
  6
CONTINUOUS
 62
   130
 10
198.893789663147
 20
55.0028734594584
 30
0.0
 11
199.093789666127
 21
55.0028734594584
 31
0.0
  0
LINE
  5
   5BA
  8
0
  6
CONTINUOUS
 62
   130
 10
198.893789663147
 20
49.8028733819724
 30
0.0
 11
199.093789666127
 21
49.8028733819724
 31
0.0
  0
LINE
  5
   5BB
  8
0
  6
CONTINUOUS
 62
   130
 10
198.893790045381
 20
77.8028737992049
 30
0.0
 11
199.093790429831
 21
77.8028737992049
 31
0.0
  0
LINE
  5
   5BC
  8
0
  6
CONTINUOUS
 62
   130
 10
198.893790021539
 20
72.6028737217189
 30
0.0
 11
199.49378964901
 21
72.6028737217189
 31
0.0
  0
LINE
  5
   5BD
  8
0
  6
CONTINUOUS
 62
     1
 10
198.49378965795
 20
53.8528612352907
 30
0.0
 11
198.893791952729
 21
53.8528612352907
 31
0.0
  0
LINE
  5
   5BE
  8
0
  6
CONTINUOUS
 62
     1
 10
198.49379003942
 20
50.9528733991087
 30
0.0
 11
198.893791952729
 21
50.9528733991087
 31
0.0
  0
LINE
  5
   5BF
  8
0
  6
CONTINUOUS
 62
     3
 10
239.093765848873
 20
39.6028549194334
 30
0.0
 11
239.093765848873
 21
48.702855055034
 31
0.0
  0
LINE
  5
   5C0
  8
0
  6
CONTINUOUS
 62
     3
 10
239.093765848873
 20
90.702849577367
 30
0.0
 11
239.093765848873
 21
110.002849864959
 31
0.0
  0
LINE
  5
   5C1
  8
0
  6
CONTINUOUS
 62
     3
 10
237.093765819071
 20
110.002849864959
 30
0.0
 11
239.093765848873
 21
110.002849864959
 31
0.0
  0
LINE
  5
   5C2
  8
0
  6
CONTINUOUS
 62
     3
 10
237.093765819071
 20
39.6028549194334
 30
0.0
 11
239.093765848873
 21
39.6028549194334
 31
0.0
  0
LINE
  5
   5C3
  8
0
  6
CONTINUOUS
 62
     3
 10
239.893765860794
 20
48.702855055034
 30
0.0
 11
239.893765860794
 21
90.702849577367
 31
0.0
  0
LINE
  5
   5C4
  8
0
  6
CONTINUOUS
 62
     3
 10
239.093765848873
 20
48.702855055034
 30
0.0
 11
239.893765860794
 21
48.702855055034
 31
0.0
  0
LINE
  5
   5C5
  8
0
  6
CONTINUOUS
 62
     3
 10
239.093765848873
 20
90.702849577367
 30
0.0
 11
239.893765860794
 21
90.702849577367
 31
0.0
  0
LINE
  5
   5C6
  8
0
  6
CONTINUOUS
 62
     3
 10
229.093765699862
 20
79.4028654821619
 30
0.0
 11
229.093765699862
 21
109.081328473664
 31
0.0
  0
LINE
  5
   5C7
  8
0
  6
CONTINUOUS
 62
     3
 10
229.093764737437
 20
79.4028656425708
 30
0.0
 11
230.293765099906
 21
79.2028595636414
 31
0.0
  0
LINE
  5
   5C8
  8
0
  6
CONTINUOUS
 62
     3
 10
229.093765319185
 20
79.4028626969743
 30
0.0
 11
229.093765700654
 21
79.602856596625
 31
0.0
  0
LINE
  5
   5C9
  8
0
  6
CONTINUOUS
 62
     3
 10
229.09376493697
 20
107.402860950877
 30
0.0
 11
229.093765318439
 21
107.202860947897
 31
0.0
  0
LINE
  5
   5CA
  8
0
  6
CONTINUOUS
 62
     3
 10
230.293761492223
 20
118.602856303324
 30
0.0
 11
237.57376038
 21
118.602850199809
 31
0.0
  0
LINE
  5
   5CB
  8
0
  6
CONTINUOUS
 62
     3
 10
230.293765717743
 20
119.802868321538
 30
0.0
 11
237.893765830992
 21
119.802868321538
 31
0.0
  0
LINE
  5
   5CC
  8
0
  6
CONTINUOUS
 62
     3
 10
230.293765717743
 20
39.6028732299806
 30
0.0
 11
237.093759715555
 21
39.6028732299806
 31
0.0
  0
LINE
  5
   5CD
  8
0
  6
CONTINUOUS
 62
     3
 10
230.293765717743
 20
40.4028671383858
 30
0.0
 11
236.97376459658
 21
40.4028671383858
 31
0.0
  0
LINE
  5
   5CE
  8
0
  6
CONTINUOUS
 62
     3
 10
237.893765830992
 20
110.002849864959
 30
0.0
 11
237.893765830992
 21
110.202855971455
 31
0.0
  0
LINE
  5
   5CF
  8
0
  6
CONTINUOUS
 62
     3
 10
230.293765717743
 20
39.6028732299806
 30
0.0
 11
230.293765717743
 21
67.5028348067214
 31
0.0
  0
LINE
  5
   5D0
  8
0
  6
CONTINUOUS
 62
     3
 10
230.293765717743
 20
109.402857093693
 30
0.0
 11
230.293765717743
 21
119.802868321538
 31
0.0
  0
LINE
  5
   5D1
  8
0
  6
CONTINUOUS
 62
     3
 10
237.893765830992
 20
119.802868321538
 30
0.0
 11
238.093765833972
 21
119.802868321538
 31
0.0
  0
LINE
  5
   5D2
  8
0
  6
CONTINUOUS
 62
     3
 10
237.893765830992
 20
110.202855971455
 30
0.0
 11
238.093765833972
 21
110.202855971455
 31
0.0
  0
LINE
  5
   5D3
  8
0
  6
CONTINUOUS
 62
     3
 10
238.093765833972
 20
110.202855971455
 30
0.0
 11
238.093765833972
 21
119.802868321538
 31
0.0
  0
LINE
  5
   5D4
  8
0
  6
CONTINUOUS
 62
     3
 10
236.97376459658
 20
72.1028493002054
 30
0.0
 11
236.97376459658
 21
110.202843764424
 31
0.0
  0
LINE
  5
   5D5
  8
0
  6
CONTINUOUS
 62
     3
 10
236.97376459658
 20
40.4028671383858
 30
0.0
 11
236.97376459658
 21
67.5027977419533
 31
0.0
  0
LINE
  5
   5D6
  8
0
  6
CONTINUOUS
 62
     3
 10
236.973760351862
 20
110.202849294798
 30
0.0
 11
237.893761586275
 21
110.202855398313
 31
0.0
  0
LINE
  5
   5D7
  8
0
  6
CONTINUOUS
 62
     3
 10
237.57376460552
 20
110.202843764424
 30
0.0
 11
237.57376460552
 21
118.602856096625
 31
0.0
  0
LINE
  5
   5D8
  8
0
  6
CONTINUOUS
 62
     3
 10
239.893765860794
 20
48.702855055034
 30
0.0
 11
241.293765881656
 21
48.702855055034
 31
0.0
  0
LINE
  5
   5D9
  8
0
  6
CONTINUOUS
 62
     3
 10
239.893765860794
 20
90.702849577367
 30
0.0
 11
241.293765881656
 21
90.702849577367
 31
0.0
  0
LINE
  5
   5DA
  8
0
  6
CONTINUOUS
 62
     3
 10
244.493765929339
 20
48.702855055034
 30
0.0
 11
244.493765929339
 21
52.3028713178986
 31
0.0
  0
LINE
  5
   5DB
  8
0
  6
CONTINUOUS
 62
     3
 10
244.493765929339
 20
89.8028434604403
 30
0.0
 11
244.493765929339
 21
90.702849577367
 31
0.0
  0
LINE
  5
   5DC
  8
0
  6
CONTINUOUS
 62
     3
 10
237.893759727476
 20
110.002862071991
 30
0.0
 11
239.093765848873
 21
110.002862071991
 31
0.0
  0
LINE
  5
   5DD
  8
0
  6
CONTINUOUS
 62
     3
 10
239.093765848873
 20
90.7028617843985
 30
0.0
 11
239.893765860794
 21
90.7028617843985
 31
0.0
  0
LINE
  5
   5DE
  8
0
  6
CONTINUOUS
 62
     3
 10
244.493765929339
 20
86.0028556108473
 30
0.0
 11
244.493765929339
 21
89.8028556674717
 31
0.0
  0
LINE
  5
   5DF
  8
0
  6
CONTINUOUS
 62
     3
 10
237.093765819071
 20
39.6028549194334
 30
0.0
 11
237.093765819071
 21
110.002849864959
 31
0.0
  0
LINE
  5
   5E0
  8
0
  6
CONTINUOUS
 62
     3
 10
229.093764863733
 20
109.081323579421
 30
0.0
 11
230.293764478507
 21
109.402856761646
 31
0.0
  0
LINE
  5
   5E1
  8
0
  6
CONTINUOUS
 62
     3
 10
236.973766465693
 20
62.9828500135379
 30
0.0
 11
237.093767684269
 21
62.9616914190867
 31
0.0
  0
LINE
  5
   5E2
  8
0
  6
CONTINUOUS
 62
     3
 10
236.973766781572
 20
40.4028732568619
 30
0.0
 11
237.093761894303
 21
40.3239059753496
 31
0.0
  0
LINE
  5
   5E3
  8
0
  6
CONTINUOUS
 62
     3
 10
236.973762625716
 20
76.6228542161215
 30
0.0
 11
237.093763843983
 21
76.6440151034248
 31
0.0
  0
LINE
  5
   5E4
  8
0
  6
CONTINUOUS
 62
     3
 10
236.973762933341
 20
106.731575656095
 30
0.0
 11
237.093758045587
 21
106.680489236518
 31
0.0
  0
LINE
  5
   5E5
  8
0
  6
CONTINUOUS
 62
     3
 10
236.973769457424
 20
108.474160316811
 30
0.0
 11
237.093764575864
 21
108.525240633203
 31
0.0
  0
LINE
  5
   5E6
  8
0
  6
CONTINUOUS
 62
     2
 10
198.49378965795
 20
16.8028667867181
 30
0.0
 11
199.293783566356
 21
16.8028667867181
 31
0.0
  0
LINE
  5
   5E7
  8
0
  6
CONTINUOUS
 62
     2
 10
198.49378965795
 20
16.8028667867181
 30
0.0
 11
198.49378965795
 21
20.802860742807
 31
0.0
  0
LINE
  5
   5E8
  8
0
  6
CONTINUOUS
 62
     3
 10
220.939617478988
 20
13.7228664356467
 30
0.0
 11
236.973782907128
 21
13.7228664356467
 31
0.0
  0
LINE
  5
   5E9
  8
0
  6
CONTINUOUS
 62
     2
 10
199.293783566356
 20
12.6028667241335
 30
0.0
 11
207.755103879233
 21
12.6028667241335
 31
0.0
  0
LINE
  5
   5EA
  8
0
  6
CONTINUOUS
 62
     2
 10
217.488748437091
 20
12.6028667241344
 30
0.0
 11
238.093784144521
 21
12.6028667241344
 31
0.0
  0
LINE
  5
   5EB
  8
0
  6
CONTINUOUS
 62
     3
 10
198.493783554435
 20
40.2028671354053
 30
0.0
 11
217.293783834577
 21
40.2028671354053
 31
0.0
  0
LINE
  5
   5EC
  8
0
  6
CONTINUOUS
 62
     2
 10
238.093784144521
 20
12.6028667241332
 30
0.0
 11
238.093784144521
 21
22.2028607636687
 31
0.0
  0
LINE
  5
   5ED
  8
0
  6
CONTINUOUS
 62
     2
 10
198.493783554435
 20
8.29486149018686
 30
0.0
 11
198.493783554435
 21
40.2028671354053
 31
0.0
  0
LINE
  5
   5EE
  8
0
  6
CONTINUOUS
 62
     2
 10
236.973784433007
 20
22.2028607636687
 30
0.0
 11
238.093784144521
 21
22.2028607636687
 31
0.0
  0
LINE
  5
   5EF
  8
0
  6
CONTINUOUS
 62
     3
 10
236.973784433007
 20
13.7228679615257
 30
0.0
 11
236.973784433007
 21
22.2028607636687
 31
0.0
  0
LINE
  5
   5F0
  8
0
  6
CONTINUOUS
 62
     3
 10
217.293783834577
 20
39.6028610229489
 30
0.0
 11
217.293783834577
 21
40.2028671354053
 31
0.0
  0
LINE
  5
   5F1
  8
0
  6
CONTINUOUS
 62
     2
 10
236.973784433007
 20
23.8028607875105
 30
0.0
 11
236.973784433007
 21
39.6028610229489
 31
0.0
  0
LINE
  5
   5F2
  8
0
  6
CONTINUOUS
 62
     3
 10
221.593783898652
 20
12.6028667241341
 30
0.0
 11
221.593783898652
 21
13.7228664356476
 31
0.0
  0
LINE
  5
   5F3
  8
0
  6
CONTINUOUS
 62
     2
 10
199.293783566356
 20
12.6028667241344
 30
0.0
 11
199.293783566356
 21
16.8028667867181
 31
0.0
  0
LINE
  5
   5F4
  8
0
  6
CONTINUOUS
 62
     3
 10
221.498837608174
 20
12.602866724134
 30
0.0
 11
221.498837608174
 21
13.7228652912383
 31
0.0
  0
LINE
  5
   5F5
  8
0
  6
CONTINUOUS
 62
     7
 10
239.093784464598
 20
23.8028605935325
 30
0.0
 11
239.093784464598
 21
39.4028608259907
 31
0.0
  0
LINE
  5
   5F6
  8
0
  6
CONTINUOUS
 62
     7
 10
236.973784433007
 20
39.4028608259907
 30
0.0
 11
239.093784464598
 21
39.4028608259907
 31
0.0
  0
LINE
  5
   5F7
  8
0
  6
CONTINUOUS
 62
     7
 10
236.973784433007
 20
23.8028605935325
 30
0.0
 11
239.093784464598
 21
23.8028605935325
 31
0.0
  0
LINE
  5
   5F8
  8
0
  6
CONTINUOUS
 62
     7
 10
238.093784449696
 20
23.8028605935325
 30
0.0
 11
238.093784449696
 21
39.4028608259907
 31
0.0
  0
LINE
  5
   5F9
  8
0
  6
CONTINUOUS
 62
   130
 10
255.839446116223
 20
52.9065740179761
 30
0.0
 11
256.856504831085
 21
55.9730673118829
 31
0.0
  0
LINE
  5
   5FA
  8
0
  6
CONTINUOUS
 62
   130
 10
245.911033242871
 20
55.3728624610407
 30
0.0
 11
255.348831435447
 21
52.6481915838035
 31
0.0
  0
LINE
  5
   5FB
  8
0
  6
CONTINUOUS
 62
   130
 10
247.422102559397
 20
59.9288105679618
 30
0.0
 11
256.617534391019
 21
56.4734292086913
 31
0.0
  0
LINE
  5
   5FC
  8
0
  6
CONTINUOUS
 62
   130
 10
244.493765929339
 20
60.9000473250639
 30
0.0
 11
247.422105890999
 21
59.9288096954225
 31
0.0
  0
LINE
  5
   5FD
  8
0
  6
CONTINUOUS
 62
   130
 10
244.493765929339
 20
55.8429254085104
 30
0.0
 11
245.911041998294
 21
55.3728598192067
 31
0.0
  0
ARC
  5
   5FE
  8
0
  6
CONTINUOUS
 62
   130
 10
255.459785598585
 20
53.0324920684737
 30
0.0
 40
0.399989686899227
 50
253.896746069851
 51
341.65100647314
  0
ARC
  5
   5FF
  8
0
  6
CONTINUOUS
 62
   130
 10
256.476847960309
 20
56.0989906066518
 30
0.0
 40
0.399989767927966
 50
341.650951831627
 51
429.405209888843
  0
ARC
  5
   600
  8
0
  6
CONTINUOUS
 62
     7
 10
216.307974877012
 20
67.7198208628169
 30
0.0
 40
42.1848320256822
 50
327.264349717579
 51
356.916833212326
  0
LINE
  5
   601
  8
0
  6
CONTINUOUS
 62
     3
 10
230.293765717743
 20
72.1028493002054
 30
0.0
 11
230.293765717743
 21
79.202843302488
 31
0.0
  0
LINE
  5
   602
  8
0
  6
CONTINUOUS
 62
     3
 10
236.97376459658
 20
67.6028611163849
 30
0.0
 11
236.97376459658
 21
72.0028733899939
 31
0.0
  0
LINE
  5
   603
  8
0
  6
CONTINUOUS
 62
     3
 10
200.493764052985
 20
67.6028611163849
 30
0.0
 11
200.493764052985
 21
72.0028560670293
 31
0.0
  0
LINE
  5
   604
  8
0
  6
CONTINUOUS
 62
     3
 10
207.572599005757
 20
104.607176951525
 30
0.0
 11
207.713789986613
 21
105.407911046061
 31
0.0
  0
LINE
  5
   605
  8
0
  6
CONTINUOUS
 62
     3
 10
207.713784073293
 20
105.407901623544
 30
0.0
 11
207.713784073293
 21
113.202869205251
 31
0.0
  0
LINE
  5
   606
  8
0
  6
CONTINUOUS
 62
     3
 10
204.113789798826
 20
119.202868312597
 30
0.0
 11
207.713789579203
 21
119.202869294659
 31
0.0
  0
LINE
  5
   607
  8
0
  6
CONTINUOUS
 62
     3
 10
203.927643186177
 20
104.607176951525
 30
0.0
 11
204.113790200008
 21
105.662869458703
 31
0.0
  0
LINE
  5
   608
  8
0
  6
DASHDOT
 62
     7
 10
196.698720509582
 20
114.402866218277
 30
0.0
 11
213.726392412465
 21
114.402870863342
 31
0.0
  0
LINE
  5
   609
  8
0
  6
CONTINUOUS
 62
     7
 10
197.547574598316
 20
104.607176951525
 30
0.0
 11
220.803459883685
 21
104.607176951525
 31
0.0
  0
LINE
  5
   60A
  8
0
  6
CONTINUOUS
 62
     7
 10
220.803459883685
 20
104.607176951525
 30
0.0
 11
221.77375316267
 21
109.102869144156
 31
0.0
  0
LINE
  5
   60B
  8
0
  6
CONTINUOUS
 62
     7
 10
199.493789672852
 20
107.602868139744
 30
0.0
 11
204.113789741695
 21
107.602868139744
 31
0.0
  0
LINE
  5
   60C
  8
0
  6
CONTINUOUS
 62
     7
 10
207.713784073293
 20
107.602868139744
 30
0.0
 11
221.450011938696
 21
107.602868139744
 31
0.0
  0
LINE
  5
   60D
  8
0
  6
CONTINUOUS
 62
     7
 10
208.113784079254
 20
109.602868169546
 30
0.0
 11
221.881666621388
 21
109.602868169546
 31
0.0
  0
LINE
  5
   60E
  8
0
  6
CONTINUOUS
 62
     7
 10
208.113784079254
 20
109.002868160605
 30
0.0
 11
208.113784079254
 21
109.602868169546
 31
0.0
  0
LINE
  5
   60F
  8
0
  6
CONTINUOUS
 62
     7
 10
210.113784109056
 20
107.602868139744
 30
0.0
 11
210.113784109056
 21
108.402868151665
 31
0.0
  0
LINE
  5
   610
  8
0
  6
CONTINUOUS
 62
     7
 10
208.113784079254
 20
109.002868160605
 30
0.0
 11
210.113784109056
 21
108.402868151665
 31
0.0
  0
LINE
  5
   611
  8
0
  6
CONTINUOUS
 62
     7
 10
202.293789714575
 20
105.802825396018
 30
0.0
 11
202.693789720535
 21
107.602868139744
 31
0.0
  0
LINE
  5
   612
  8
0
  6
CONTINUOUS
 62
     7
 10
203.493789732456
 20
107.602868139744
 30
0.0
 11
204.030215624536
 21
105.188894339253
 31
0.0
  0
INSERT
  5
   613
  8
0
  6
CONTINUOUS
 62
     7
  2
*HATCH61
 10
199.493789672852
 20
39.6028671264648
 30
0.0
 41
0.400000005960464
 42
0.400000005960464
 43
0.400000005960464
  0
INSERT
  5
   614
  8
0
  6
CONTINUOUS
 62
     7
  2
*HATCH62
 10
199.493789672852
 20
39.6028671264648
 30
0.0
 41
0.400000005960464
 42
0.400000005960464
 43
0.400000005960464
  0
LINE
  5
   615
  8
0
  6
CONTINUOUS
 62
     7
 10
199.513791091241
 20
110.60286731106
 30
0.0
 11
204.113790778316
 21
110.602868565917
 31
0.0
  0
LINE
  5
   616
  8
0
  6
CONTINUOUS
 62
     7
 10
204.113788597286
 20
116.869144517021
 30
0.0
 11
204.113788597286
 21
119.402861900967
 31
0.0
  0
LINE
  5
   617
  8
0
  6
CONTINUOUS
 62
     3
 10
204.113789741695
 20
105.662866859482
 30
0.0
 11
204.113789741695
 21
111.932818536907
 31
0.0
  0
LINE
  5
   618
  8
0
  6
CONTINUOUS
 62
     7
 10
204.113789741695
 20
116.202867123484
 30
0.0
 11
204.113789741695
 21
116.869144828115
 31
0.0
  0
LINE
  5
   619
  8
0
  6
CONTINUOUS
 62
     7
 10
204.113789741695
 20
111.932818536907
 30
0.0
 11
204.113789741695
 21
112.602870503068
 31
0.0
  0
LINE
  5
   61A
  8
0
  6
CONTINUOUS
 62
     7
 10
204.113788505386
 20
119.402860559505
 30
0.0
 11
204.713788132856
 21
119.402866826697
 31
0.0
  0
LINE
  5
   61B
  8
0
  6
CONTINUOUS
 62
     7
 10
204.713781358299
 20
119.402863901548
 30
0.0
 11
204.713781358299
 21
119.802857803992
 31
0.0
  0
LINE
  5
   61C
  8
0
  6
CONTINUOUS
 62
     7
 10
199.513788581531
 20
119.802867448156
 30
0.0
 11
207.755040740561
 21
119.802860023135
 31
0.0
  0
LINE
  5
   61D
  8
0
  6
CONTINUOUS
 62
     7
 10
200.313788811685
 20
119.002861550949
 30
0.0
 11
204.113788105369
 21
119.002862587571
 31
0.0
  0
LINE
  5
   61E
  8
0
  6
CONTINUOUS
 62
     7
 10
200.313790740358
 20
111.932817500285
 30
0.0
 11
204.113790034043
 21
111.932818536906
 31
0.0
  0
LINE
  5
   61F
  8
0
  6
CONTINUOUS
 62
     7
 10
200.313790884926
 20
111.402867541217
 30
0.0
 11
204.11379017861
 21
111.402868577838
 31
0.0
  0
LINE
  5
   620
  8
0
  6
CONTINUOUS
 62
     7
 10
200.313789392723
 20
116.872917290085
 30
0.0
 11
204.113788686408
 21
116.872918326706
 31
0.0
  0
LINE
  5
   621
  8
0
  6
CONTINUOUS
 62
     7
 10
200.31379006654
 20
116.869144172963
 30
0.0
 11
200.31379006654
 21
119.002861550949
 31
0.0
  0
LINE
  5
   622
  8
0
  6
CONTINUOUS
 62
     7
 10
200.31379044801
 20
111.402867354133
 30
0.0
 11
200.31379044801
 21
111.932819220551
 31
0.0
  0
LINE
  5
   623
  8
0
  6
CONTINUOUS
 62
     7
 10
199.913790036738
 20
113.00286745594
 30
0.0
 11
199.913790036738
 21
115.802867116194
 31
0.0
  0
LINE
  5
   624
  8
0
  6
CONTINUOUS
 62
     7
 10
200.313789685071
 20
115.802867225312
 30
0.0
 11
200.313789685071
 21
116.002867228292
 31
0.0
  0
LINE
  5
   625
  8
0
  6
CONTINUOUS
 62
     7
 10
200.313789685071
 20
112.802867562078
 30
0.0
 11
200.313789685071
 21
113.002870616816
 31
0.0
  0
LINE
  5
   626
  8
0
  6
CONTINUOUS
 62
   210
 10
200.313789685071
 20
113.202867568039
 30
0.0
 11
200.313789685071
 21
113.243756545699
 31
0.0
  0
LINE
  5
   627
  8
0
  6
CONTINUOUS
 62
   210
 10
204.313789744675
 20
113.202868659219
 30
0.0
 11
204.313789744675
 21
113.243757636879
 31
0.0
  0
LINE
  5
   628
  8
0
  6
CONTINUOUS
 62
   210
 10
200.313789685071
 20
113.243756545699
 30
0.0
 11
200.313789685071
 21
113.363636818443
 31
0.0
  0
LINE
  5
   629
  8
0
  6
CONTINUOUS
 62
   210
 10
200.313789685071
 20
113.363636842285
 30
0.0
 11
200.313789685071
 21
113.554339283481
 31
0.0
  0
LINE
  5
   62A
  8
0
  6
CONTINUOUS
 62
   210
 10
200.313789685071
 20
113.554339283481
 30
0.0
 11
200.313789685071
 21
113.802867576979
 31
0.0
  0
LINE
  5
   62B
  8
0
  6
CONTINUOUS
 62
   210
 10
200.313789685071
 20
113.802867576979
 30
0.0
 11
200.313789685071
 21
114.092284466668
 31
0.0
  0
LINE
  5
   62C
  8
0
  6
CONTINUOUS
 62
   210
 10
200.313789685071
 20
114.092284466668
 30
0.0
 11
200.313789685071
 21
114.40286720445
 31
0.0
  0
LINE
  5
   62D
  8
0
  6
CONTINUOUS
 62
   210
 10
200.313789685071
 20
114.40286720445
 30
0.0
 11
200.313789685071
 21
114.713450323702
 31
0.0
  0
LINE
  5
   62E
  8
0
  6
CONTINUOUS
 62
   210
 10
200.313789685071
 20
114.713450323702
 30
0.0
 11
200.313789685071
 21
115.002867213391
 31
0.0
  0
LINE
  5
   62F
  8
0
  6
CONTINUOUS
 62
   210
 10
200.313789685071
 20
115.002867213391
 30
0.0
 11
200.313789685071
 21
115.251395506889
 31
0.0
  0
LINE
  5
   630
  8
0
  6
CONTINUOUS
 62
   210
 10
200.313789685071
 20
115.251395506889
 30
0.0
 11
200.313789685071
 21
115.442097948085
 31
0.0
  0
LINE
  5
   631
  8
0
  6
CONTINUOUS
 62
   210
 10
200.313789685071
 20
115.442097948085
 30
0.0
 11
200.313789685071
 21
115.56197822083
 31
0.0
  0
LINE
  5
   632
  8
0
  6
CONTINUOUS
 62
   210
 10
204.313789744675
 20
115.561979335852
 30
0.0
 11
204.313789744675
 21
115.602868313512
 31
0.0
  0
LINE
  5
   633
  8
0
  6
CONTINUOUS
 62
   210
 10
200.313789685071
 20
115.561978244671
 30
0.0
 11
200.313789685071
 21
115.602867222332
 31
0.0
  0
LINE
  5
   634
  8
0
  6
CONTINUOUS
 62
   210
 10
204.113789804643
 20
112.602868218415
 30
0.0
 11
204.313789746219
 21
112.802868269108
 31
0.0
  0
LINE
  5
   635
  8
0
  6
CONTINUOUS
 62
   210
 10
204.313789744675
 20
112.802868653258
 30
0.0
 11
204.313789744675
 21
113.202868659219
 31
0.0
  0
LINE
  5
   636
  8
0
  6
CONTINUOUS
 62
   210
 10
200.313790012425
 20
113.202867568039
 30
0.0
 11
207.713784073293
 21
113.20286958672
 31
0.0
  0
LINE
  5
   637
  8
0
  6
CONTINUOUS
 62
   210
 10
200.313789685071
 20
113.002867565058
 30
0.0
 11
200.313789685071
 21
113.202867568039
 31
0.0
  0
LINE
  5
   638
  8
0
  6
CONTINUOUS
 62
   210
 10
204.313789744675
 20
115.602868313512
 30
0.0
 11
204.313789744675
 21
116.002868319472
 31
0.0
  0
LINE
  5
   639
  8
0
  6
CONTINUOUS
 62
   210
 10
200.313789685071
 20
115.602867222332
 30
0.0
 11
200.313789685071
 21
115.802867225312
 31
0.0
  0
LINE
  5
   63A
  8
0
  6
CONTINUOUS
 62
   210
 10
200.313789357717
 20
115.602867222332
 30
0.0
 11
207.713784073293
 21
115.602869241014
 31
0.0
  0
LINE
  5
   63B
  8
0
  6
CONTINUOUS
 62
     7
 10
200.313790743963
 20
111.919601862881
 30
0.0
 11
204.113790037648
 21
111.919602899502
 31
0.0
  0
LINE
  5
   63C
  8
0
  6
CONTINUOUS
 62
   210
 10
200.513790179082
 20
112.602867613657
 30
0.0
 11
204.113790232726
 21
112.602868595719
 31
0.0
  0
LINE
  5
   63D
  8
0
  6
CONTINUOUS
 62
   210
 10
200.313789759517
 20
112.802867225848
 30
0.0
 11
200.51378981021
 21
112.602867284273
 31
0.0
  0
LINE
  5
   63E
  8
0
  6
CONTINUOUS
 62
   210
 10
199.913790418651
 20
113.00286745594
 30
0.0
 11
200.313790066984
 21
113.002867565058
 31
0.0
  0
LINE
  5
   63F
  8
0
  6
CONTINUOUS
 62
   210
 10
199.913789654825
 20
115.802867116194
 30
0.0
 11
200.313789303158
 21
115.802867225312
 31
0.0
  0
LINE
  5
   640
  8
0
  6
CONTINUOUS
 62
   210
 10
200.313788821538
 20
116.002866907952
 30
0.0
 11
200.513788763114
 21
116.202866958645
 31
0.0
  0
LINE
  5
   641
  8
0
  6
CONTINUOUS
 62
   210
 10
200.51378919702
 20
116.202867285831
 30
0.0
 11
204.113789250664
 21
116.202868267893
 31
0.0
  0
LINE
  5
   642
  8
0
  6
CONTINUOUS
 62
   210
 10
200.313789775222
 20
116.869143791494
 30
0.0
 11
204.113789068907
 21
116.869144828115
 31
0.0
  0
LINE
  5
   643
  8
0
  6
CONTINUOUS
 62
   130
 10
211.155603407679
 20
119.802868321538
 30
0.0
 11
230.293790131807
 21
119.802868321538
 31
0.0
  0
INSERT
  5
   644
  8
0
  6
CONTINUOUS
 62
     2
  2
*HATCH63
 10
199.493789672852
 20
39.6028671264648
 30
0.0
 41
0.400000005960464
 42
0.400000005960464
 43
0.400000005960464
  0
INSERT
  5
   645
  8
0
  6
CONTINUOUS
 62
     2
  2
*HATCH64
 10
199.493789672852
 20
39.6028671264648
 30
0.0
 41
0.400000005960464
 42
0.400000005960464
 43
0.400000005960464
  0
INSERT
  5
   646
  8
0
  6
CONTINUOUS
 62
     2
  2
*HATCH65
 10
199.493789672852
 20
39.6028671264648
 30
0.0
 41
0.400000005960464
 42
0.400000005960464
 43
0.400000005960464
  0
INSERT
  5
   647
  8
0
  6
CONTINUOUS
 62
     2
  2
*HATCH66
 10
199.493789672852
 20
39.6028671264648
 30
0.0
 41
0.400000005960464
 42
0.400000005960464
 43
0.400000005960464
  0
INSERT
  5
   648
  8
0
  6
CONTINUOUS
 62
     2
  2
*HATCH67
 10
199.493789672852
 20
39.6028671264648
 30
0.0
 41
0.400000005960464
 42
0.400000005960464
 43
0.400000005960464
  0
LINE
  5
   649
  8
0
  6
CONTINUOUS
 62
     7
 10
258.492806902694
 20
58.1776978210346
 30
0.0
 11
258.492806902694
 21
67.7198208628169
 31
0.0
  0
LINE
  5
   64A
  8
0
  6
DASHDOT
 62
     7
 10
197.293783536553
 20
7.826860972753
 30
0.0
 11
197.293783536553
 21
125.890627870841
 31
0.0
  0
LINE
  5
   64B
  8
0
  6
CONTINUOUS
 62
     3
 10
199.493789672852
 20
66.827960529647
 30
0.0
 11
202.385824225066
 21
67.6028519618954
 31
0.0
  0
LINE
  5
   64C
  8
0
  6
CONTINUOUS
 62
     3
 10
199.493789672852
 20
72.6028737217189
 30
0.0
 11
199.493789672852
 21
72.7781972106595
 31
0.0
  0
LINE
  5
   64D
  8
0
  6
CONTINUOUS
 62
   130
 10
199.093789666891
 20
77.8028737992049
 30
0.0
 11
199.093789666891
 21
105.802874216437
 31
0.0
  0
LINE
  5
   64E
  8
0
  6
CONTINUOUS
 62
   130
 10
199.093789666891
 20
55.0028734594584
 30
0.0
 11
199.093789666891
 21
66.7207813489126
 31
0.0
  0
LINE
  5
   64F
  8
0
  6
CONTINUOUS
 62
     3
 10
199.093789666891
 20
49.8028733819724
 30
0.0
 11
199.093789666891
 21
55.0028734594584
 31
0.0
  0
LINE
  5
   650
  8
0
  6
CONTINUOUS
 62
   130
 10
198.893789663911
 20
49.8028733819724
 30
0.0
 11
198.893789663911
 21
50.9528733991087
 31
0.0
  0
LINE
  5
   651
  8
0
  6
CONTINUOUS
 62
   130
 10
198.893789663911
 20
53.8528612352907
 30
0.0
 11
198.893789663911
 21
55.0028734594584
 31
0.0
  0
LINE
  5
   652
  8
0
  6
CONTINUOUS
 62
     3
 10
198.893789663911
 20
50.9528733991087
 30
0.0
 11
198.893789663911
 21
53.8528612352907
 31
0.0
  0
LINE
  5
   653
  8
0
  6
CONTINUOUS
 62
     2
 10
236.973784433007
 20
22.2028607636687
 30
0.0
 11
236.973784433007
 21
23.8028607875105
 31
0.0
  0
LINE
  5
   654
  8
0
  6
DASHDOT
 62
     2
 10
195.783240438122
 20
18.0028690771328
 30
0.0
 11
213.726392412465
 21
18.0028641823293
 31
0.0
  0
LINE
  5
   655
  8
0
  6
CONTINUOUS
 62
     2
 10
211.09378331487
 20
12.6028667241335
 30
0.0
 11
217.48873623006
 21
12.6028667241335
 31
0.0
  0
LINE
  5
   656
  8
0
  6
CONTINUOUS
 62
     7
 10
204.093783637881
 20
22.8028668761253
 30
0.0
 11
214.510333618952
 21
22.8028668761253
 31
0.0
  0
LINE
  5
   657
  8
0
  6
CONTINUOUS
 62
     7
 10
198.493783554435
 20
24.6028669029474
 30
0.0
 11
204.093783637881
 21
24.6028669029474
 31
0.0
  0
LINE
  5
   658
  8
0
  6
CONTINUOUS
 62
     7
 10
204.093783637881
 20
22.8028668761253
 30
0.0
 11
204.093783637881
 21
24.6028669029474
 31
0.0
  0
LINE
  5
   659
  8
0
  6
CONTINUOUS
 62
     7
 10
204.093783637881
 20
13.2028667330742
 30
0.0
 11
206.493783673644
 21
13.2028667330742
 31
0.0
  0
LINE
  5
   65A
  8
0
  6
CONTINUOUS
 62
     7
 10
206.493783673644
 20
19.2028658458766
 30
0.0
 11
206.493783673644
 21
22.8028668761253
 31
0.0
  0
LINE
  5
   65B
  8
0
  6
CONTINUOUS
 62
     7
 10
204.093783637881
 20
13.0028746951237
 30
0.0
 11
204.093783637881
 21
16.1828612195696
 31
0.0
  0
LINE
  5
   65C
  8
0
  6
CONTINUOUS
 62
     7
 10
206.493783673644
 20
13.2028667330742
 30
0.0
 11
207.693783691525
 21
13.2028667330742
 31
0.0
  0
LINE
  5
   65D
  8
0
  6
CONTINUOUS
 62
     7
 10
197.904681419346
 20
25.2701233267826
 30
0.0
 11
213.788619146991
 21
25.2701233267826
 31
0.0
  0
LINE
  5
   65E
  8
0
  6
CONTINUOUS
 62
     7
 10
213.788619146991
 20
25.2701233267826
 30
0.0
 11
218.227463344301
 21
10.0954699080736
 31
0.0
  0
LINE
  5
   65F
  8
0
  6
CONTINUOUS
 62
     7
 10
200.313788811685
 20
13.402873494722
 30
0.0
 11
204.093783637881
 21
13.402872463558
 31
0.0
  0
LINE
  5
   660
  8
0
  6
CONTINUOUS
 62
     7
 10
204.113788505386
 20
13.0028744861663
 30
0.0
 11
204.713788132856
 21
13.0028682189741
 31
0.0
  0
LINE
  5
   661
  8
0
  6
CONTINUOUS
 62
     7
 10
204.713781358299
 20
12.602877241679
 30
0.0
 11
204.713781358299
 21
13.0028711441237
 31
0.0
  0
LINE
  5
   662
  8
0
  6
CONTINUOUS
 62
     7
 10
200.31379006654
 20
13.402873494722
 30
0.0
 11
200.31379006654
 21
15.5365908727082
 31
0.0
  0
LINE
  5
   663
  8
0
  6
CONTINUOUS
 62
     7
 10
200.313789775222
 20
15.5365912541778
 30
0.0
 11
204.093783637881
 21
15.5365902230141
 31
0.0
  0
LINE
  5
   664
  8
0
  6
CONTINUOUS
 62
     7
 10
200.51378919702
 20
16.2028677598403
 30
0.0
 11
204.113789250664
 21
16.202866777778
 31
0.0
  0
LINE
  5
   665
  8
0
  6
CONTINUOUS
 62
     7
 10
204.313789744675
 20
16.4028667261992
 30
0.0
 11
204.313789744675
 21
16.8028667321596
 31
0.0
  0
LINE
  5
   666
  8
0
  6
CONTINUOUS
 62
     7
 10
200.313789357717
 20
16.80286782334
 30
0.0
 11
204.313789417321
 21
16.8028667321596
 31
0.0
  0
LINE
  5
   667
  8
0
  6
CONTINUOUS
 62
     7
 10
200.51378919702
 20
16.2028677598403
 30
0.0
 11
204.113789250664
 21
16.202866777778
 31
0.0
  0
LINE
  5
   668
  8
0
  6
CONTINUOUS
 62
     7
 10
200.313788821538
 20
16.4028681377196
 30
0.0
 11
200.513788763114
 21
16.2028680870261
 31
0.0
  0
LINE
  5
   669
  8
0
  6
CONTINUOUS
 62
     7
 10
200.313789685071
 20
16.4028672741866
 30
0.0
 11
200.313789685071
 21
16.8028658101139
 31
0.0
  0
LINE
  5
   66A
  8
0
  6
CONTINUOUS
 62
     7
 10
199.913789654825
 20
16.6028679294777
 30
0.0
 11
200.313789303158
 21
16.6028678203597
 31
0.0
  0
LINE
  5
   66B
  8
0
  6
CONTINUOUS
 62
     7
 10
199.913790036738
 20
16.6028679294777
 30
0.0
 11
199.913790036738
 21
19.4028675897311
 31
0.0
  0
INSERT
  5
   66C
  8
0
  6
CONTINUOUS
 62
     7
  2
*HATCH68
 10
199.493789672852
 20
39.6028671264648
 30
0.0
 41
0.400000005960464
 42
0.400000005960464
 43
0.400000005960464
  0
INSERT
  5
   66D
  8
0
  6
CONTINUOUS
 62
     7
  2
*HATCH69
 10
199.493789672852
 20
39.6028671264648
 30
0.0
 41
0.400000005960464
 42
0.400000005960464
 43
0.400000005960464
  0
LINE
  5
   66E
  8
0
  6
CONTINUOUS
 62
     7
 10
200.313790012425
 20
19.2028674776329
 30
0.0
 11
204.313790072029
 21
19.2028663864526
 31
0.0
  0
LINE
  5
   66F
  8
0
  6
CONTINUOUS
 62
     7
 10
204.313789744675
 20
19.2028663864526
 30
0.0
 11
204.313789744675
 21
19.602866392413
 31
0.0
  0
LINE
  5
   670
  8
0
  6
CONTINUOUS
 62
     7
 10
204.113789804643
 20
19.8028668272566
 30
0.0
 11
204.313789746219
 21
19.6028667765631
 31
0.0
  0
LINE
  5
   671
  8
0
  6
CONTINUOUS
 62
     7
 10
200.513790179082
 20
19.8028674320146
 30
0.0
 11
204.113790232726
 21
19.8028664499523
 31
0.0
  0
LINE
  5
   672
  8
0
  6
CONTINUOUS
 62
     7
 10
200.313789759517
 20
19.6028678198234
 30
0.0
 11
200.51378981021
 21
19.802867761399
 31
0.0
  0
INSERT
  5
   673
  8
0
  6
CONTINUOUS
 62
     7
  2
*HATCH70
 10
199.493789672852
 20
39.6028671264648
 30
0.0
 41
0.400000005960464
 42
0.400000005960464
 43
0.400000005960464
  0
LINE
  5
   674
  8
0
  6
CONTINUOUS
 62
     7
 10
200.313790740358
 20
20.4729175453861
 30
0.0
 11
204.113790034043
 21
20.472916508765
 31
0.0
  0
LINE
  5
   675
  8
0
  6
CONTINUOUS
 62
     7
 10
200.313790743963
 20
20.4861331827901
 30
0.0
 11
204.093783637881
 21
20.4861321516266
 31
0.0
  0
LINE
  5
   676
  8
0
  6
CONTINUOUS
 62
     7
 10
200.31379044801
 20
20.4729158251209
 30
0.0
 11
200.31379044801
 21
21.0028676915383
 31
0.0
  0
LINE
  5
   677
  8
0
  6
CONTINUOUS
 62
     7
 10
200.313790884926
 20
21.0028675044548
 30
0.0
 11
204.093783637881
 21
21.0028664732914
 31
0.0
  0
LINE
  5
   678
  8
0
  6
CONTINUOUS
 62
     7
 10
199.493789672852
 20
21.8028677400681
 30
0.0
 11
204.093783637881
 21
21.8028664852124
 31
0.0
  0
INSERT
  5
   679
  8
0
  6
CONTINUOUS
 62
     7
  2
*HATCH71
 10
199.493789672852
 20
39.6028671264648
 30
0.0
 41
0.400000005960464
 42
0.400000005960464
 43
0.400000005960464
  0
LINE
  5
   67A
  8
0
  6
CONTINUOUS
 62
     7
 10
199.493789672852
 20
12.6028667241335
 30
0.0
 11
199.493789672852
 21
21.8028677400681
 31
0.0
  0
LINE
  5
   67B
  8
0
  6
CONTINUOUS
 62
     7
 10
199.913790036738
 20
19.4028675897311
 30
0.0
 11
200.313789685071
 21
19.4028675897311
 31
0.0
  0
LINE
  5
   67C
  8
0
  6
CONTINUOUS
 62
     7
 10
204.113789250664
 20
16.202866777778
 30
0.0
 11
204.313789744675
 21
16.4028667261992
 31
0.0
  0
LINE
  5
   67D
  8
0
  6
CONTINUOUS
 62
     7
 10
204.093783637881
 20
19.8228730049341
 30
0.0
 11
204.093783637881
 21
22.8028668761253
 31
0.0
  0
LINE
  5
   67E
  8
0
  6
CONTINUOUS
 62
     7
 10
200.313789685071
 20
19.3028678605928
 30
0.0
 11
204.313789744675
 21
19.3028667694125
 31
0.0
  0
LINE
  5
   67F
  8
0
  6
CONTINUOUS
 62
     7
 10
200.313789685071
 20
16.7028678218497
 30
0.0
 11
204.313789744675
 21
16.7028667306694
 31
0.0
  0
INSERT
  5
   680
  8
0
  6
CONTINUOUS
 62
     7
  2
*HATCH72
 10
199.493789672852
 20
39.6028671264648
 30
0.0
 41
0.400000005960464
 42
0.400000005960464
 43
0.400000005960464
  0
INSERT
  5
   681
  8
0
  6
CONTINUOUS
 62
     7
  2
*HATCH73
 10
199.493789672852
 20
39.6028671264648
 30
0.0
 41
0.400000005960464
 42
0.400000005960464
 43
0.400000005960464
  0
INSERT
  5
   682
  8
0
  6
CONTINUOUS
 62
     7
  2
*HATCH74
 10
199.493789672852
 20
39.6028671264648
 30
0.0
 41
0.400000005960464
 42
0.400000005960464
 43
0.400000005960464
  0
INSERT
  5
   683
  8
0
  6
CONTINUOUS
 62
     7
  2
*HATCH75
 10
199.493789672852
 20
39.6028671264648
 30
0.0
 41
0.400000005960464
 42
0.400000005960464
 43
0.400000005960464
  0
LINE
  5
   684
  8
0
  6
CONTINUOUS
 62
     7
 10
204.313789744675
 20
19.3028667694125
 30
0.0
 11
207.693783691525
 21
19.3028658473668
 31
0.0
  0
LINE
  5
   685
  8
0
  6
CONTINUOUS
 62
     7
 10
204.313789744675
 20
16.7028667306694
 30
0.0
 11
207.693783691525
 21
16.7028658086237
 31
0.0
  0
LINE
  5
   686
  8
0
  6
CONTINUOUS
 62
     3
 10
244.493765929339
 20
52.7028690350409
 30
0.0
 11
244.493765929339
 21
59.9028672349803
 31
0.0
  0
LINE
  5
   687
  8
0
  6
CONTINUOUS
 62
     3
 10
244.493765929339
 20
60.3028672409408
 30
0.0
 11
244.493765929339
 21
68.7028673661105
 31
0.0
  0
LINE
  5
   688
  8
0
  6
CONTINUOUS
 62
     3
 10
244.493765929339
 20
69.102867372071
 30
0.0
 11
244.493765929339
 21
76.3028674793594
 31
0.0
  0
LINE
  5
   689
  8
0
  6
CONTINUOUS
 62
     3
 10
244.493765929339
 20
76.7028674853198
 30
0.0
 11
244.493765929339
 21
86.0028556108473
 31
0.0
  0
LINE
  5
   68A
  8
0
  6
CONTINUOUS
 62
     1
 10
241.293765881656
 20
47.7028672471642
 30
0.0
 11
241.293765881656
 21
48.5028672590852
 31
0.0
  0
LINE
  5
   68B
  8
0
  6
CONTINUOUS
 62
     1
 10
241.293765881656
 20
47.7028672471642
 30
0.0
 11
242.093765893577
 21
47.7028672471642
 31
0.0
  0
LINE
  5
   68C
  8
0
  6
CONTINUOUS
 62
     1
 10
241.293765881656
 20
90.9028663650155
 30
0.0
 11
241.293765881656
 21
91.7028663769364
 31
0.0
  0
LINE
  5
   68D
  8
0
  6
CONTINUOUS
 62
     1
 10
241.293765881656
 20
91.7028663769364
 30
0.0
 11
242.093765893577
 21
91.7028663769364
 31
0.0
  0
LINE
  5
   68E
  8
0
  6
CONTINUOUS
 62
     1
 10
241.293765881656
 20
48.5028672590852
 30
0.0
 11
241.293765881656
 21
90.9028678908944
 31
0.0
  0
LINE
  5
   68F
  8
0
  6
CONTINUOUS
 62
     1
 10
239.493765854834
 20
97.1338051785668
 30
0.0
 11
239.493765854834
 21
99.0719277660409
 31
0.0
  0
LINE
  5
   690
  8
0
  6
CONTINUOUS
 62
     1
 10
239.493765854834
 20
40.3338073839387
 30
0.0
 11
239.493765854834
 21
42.2719269196549
 31
0.0
  0
LINE
  5
   691
  8
0
  6
CONTINUOUS
 62
     1
 10
242.093765893577
 20
37.5028655692935
 30
0.0
 11
242.093765893577
 21
101.902866528928
 31
0.0
  0
LINE
  5
   692
  8
0
  6
CONTINUOUS
 62
     1
 10
242.093765893577
 20
37.5028670951724
 30
0.0
 11
243.493765914438
 21
37.5028670951724
 31
0.0
  0
LINE
  5
   693
  8
0
  6
CONTINUOUS
 62
     1
 10
243.493765914438
 20
37.5028670951724
 30
0.0
 11
243.493765914438
 21
101.902868054807
 31
0.0
  0
LINE
  5
   694
  8
0
  6
CONTINUOUS
 62
     1
 10
242.093765893577
 20
101.902866528928
 30
0.0
 11
243.493765914438
 21
101.902866528928
 31
0.0
  0
LINE
  5
   695
  8
0
  6
CONTINUOUS
 62
     1
 10
242.093765893577
 20
101.902866528928
 30
0.0
 11
242.493765899537
 21
101.902866528928
 31
0.0
  0
LINE
  5
   696
  8
0
  6
CONTINUOUS
 62
     1
 10
239.493765935647
 20
97.1338043157769
 30
0.0
 11
239.893765954779
 21
96.9028655887371
 31
0.0
  0
LINE
  5
   697
  8
0
  6
CONTINUOUS
 62
     1
 10
239.493765288338
 20
99.0719267602064
 30
0.0
 11
239.893765307469
 21
99.3028654872462
 31
0.0
  0
LINE
  5
   698
  8
0
  6
CONTINUOUS
 62
     1
 10
240.893765875695
 20
96.9028664544225
 30
0.0
 11
240.893765875695
 21
96.9329567869021
 31
0.0
  0
LINE
  5
   699
  8
0
  6
CONTINUOUS
 62
     1
 10
239.893765860794
 20
96.9028664544225
 30
0.0
 11
242.093765893577
 21
96.9028664544225
 31
0.0
  0
LINE
  5
   69A
  8
0
  6
CONTINUOUS
 62
     1
 10
239.893765860794
 20
96.9329567869021
 30
0.0
 11
239.893765860794
 21
97.0217080089277
 31
0.0
  0
LINE
  5
   69B
  8
0
  6
CONTINUOUS
 62
     1
 10
239.893765860794
 20
97.0217080089277
 30
0.0
 11
239.893765860794
 21
97.1646706575424
 31
0.0
  0
LINE
  5
   69C
  8
0
  6
CONTINUOUS
 62
     1
 10
239.893765860794
 20
97.1646706575424
 30
0.0
 11
239.893765860794
 21
97.3546792052956
 31
0.0
  0
LINE
  5
   69D
  8
0
  6
CONTINUOUS
 62
     1
 10
239.893765860794
 20
97.3546792052956
 30
0.0
 11
239.893765860794
 21
97.5822060641548
 31
0.0
  0
LINE
  5
   69E
  8
0
  6
CONTINUOUS
 62
     1
 10
239.893765860794
 20
97.5822060641548
 30
0.0
 11
239.893765860794
 21
97.8358437632468
 31
0.0
  0
LINE
  5
   69F
  8
0
  6
CONTINUOUS
 62
     1
 10
239.893765860794
 20
97.8358437632468
 30
0.0
 11
239.893765860794
 21
98.1028664723038
 31
0.0
  0
LINE
  5
   6A0
  8
0
  6
CONTINUOUS
 62
     1
 10
239.893765860794
 20
98.1028664723038
 30
0.0
 11
239.893765860794
 21
98.3698952848766
 31
0.0
  0
LINE
  5
   6A1
  8
0
  6
CONTINUOUS
 62
     1
 10
239.893765860794
 20
98.3698952848766
 30
0.0
 11
239.893765860794
 21
98.6235268804529
 31
0.0
  0
LINE
  5
   6A2
  8
0
  6
CONTINUOUS
 62
     1
 10
239.893765860794
 20
98.6235268804529
 30
0.0
 11
239.893765860794
 21
98.8510537393121
 31
0.0
  0
LINE
  5
   6A3
  8
0
  6
CONTINUOUS
 62
     1
 10
239.893765860794
 20
98.8510537393121
 30
0.0
 11
239.893765860794
 21
99.041068390581
 31
0.0
  0
LINE
  5
   6A4
  8
0
  6
CONTINUOUS
 62
     1
 10
239.893765860794
 20
99.041068390581
 30
0.0
 11
239.893765860794
 21
99.1840310391957
 31
0.0
  0
LINE
  5
   6A5
  8
0
  6
CONTINUOUS
 62
     1
 10
239.893765860794
 20
99.1840310391957
 30
0.0
 11
239.893765860794
 21
99.2727822612213
 31
0.0
  0
LINE
  5
   6A6
  8
0
  6
CONTINUOUS
 62
     1
 10
239.893765860794
 20
99.3028664901852
 30
0.0
 11
242.093765893577
 21
99.3028664901852
 31
0.0
  0
LINE
  5
   6A7
  8
0
  6
CONTINUOUS
 62
     1
 10
239.893765860794
 20
99.2727822612213
 30
0.0
 11
239.893765860794
 21
99.3028664901852
 31
0.0
  0
LINE
  5
   6A8
  8
0
  6
CONTINUOUS
 62
     1
 10
239.493765397194
 20
40.3338070410578
 30
0.0
 11
239.893765416326
 21
40.1028668038113
 31
0.0
  0
LINE
  5
   6A9
  8
0
  6
CONTINUOUS
 62
     1
 10
239.493765028656
 20
42.2719261986587
 30
0.0
 11
239.893765047788
 21
42.5028664359052
 31
0.0
  0
LINE
  5
   6AA
  8
0
  6
CONTINUOUS
 62
     1
 10
239.893765860794
 20
40.1028671339154
 30
0.0
 11
239.893765860794
 21
40.1329544146372
 31
0.0
  0
LINE
  5
   6AB
  8
0
  6
CONTINUOUS
 62
     1
 10
239.893765860794
 20
40.1028671339154
 30
0.0
 11
242.093765893577
 21
40.1028671339154
 31
0.0
  0
LINE
  5
   6AC
  8
0
  6
CONTINUOUS
 62
     1
 10
239.893765860794
 20
40.1329544146372
 30
0.0
 11
239.893765860794
 21
40.2217041107839
 31
0.0
  0
LINE
  5
   6AD
  8
0
  6
CONTINUOUS
 62
     1
 10
239.893765860794
 20
40.2217041107839
 30
0.0
 11
239.893765860794
 21
40.3646698111564
 31
0.0
  0
LINE
  5
   6AE
  8
0
  6
CONTINUOUS
 62
     1
 10
239.893765860794
 20
40.3646698111564
 30
0.0
 11
239.893765860794
 21
40.5546798847886
 31
0.0
  0
LINE
  5
   6AF
  8
0
  6
CONTINUOUS
 62
     1
 10
239.893765860794
 20
40.5546798847886
 30
0.0
 11
239.893765860794
 21
40.7822067436477
 31
0.0
  0
LINE
  5
   6B0
  8
0
  6
CONTINUOUS
 62
     1
 10
239.893765860794
 20
40.7822067436477
 30
0.0
 11
239.893765860794
 21
41.0358413909819
 31
0.0
  0
LINE
  5
   6B1
  8
0
  6
CONTINUOUS
 62
     1
 10
239.893765860794
 20
41.0358413909819
 30
0.0
 11
239.893765860794
 21
41.3028671517968
 31
0.0
  0
LINE
  5
   6B2
  8
0
  6
CONTINUOUS
 62
     1
 10
239.893765860794
 20
41.3028671517968
 30
0.0
 11
239.893765860794
 21
41.5698929126117
 31
0.0
  0
LINE
  5
   6B3
  8
0
  6
CONTINUOUS
 62
     1
 10
239.893765860794
 20
41.5698929126117
 30
0.0
 11
239.893765860794
 21
41.8235275599459
 31
0.0
  0
LINE
  5
   6B4
  8
0
  6
CONTINUOUS
 62
     1
 10
239.893765860794
 20
41.8235275599459
 30
0.0
 11
239.893765860794
 21
42.051054418805
 31
0.0
  0
LINE
  5
   6B5
  8
0
  6
CONTINUOUS
 62
     1
 10
239.893765860794
 20
42.051054418805
 30
0.0
 11
239.893765860794
 21
42.2410644924372
 31
0.0
  0
LINE
  5
   6B6
  8
0
  6
CONTINUOUS
 62
     1
 10
239.893765860794
 20
42.2410644924372
 30
0.0
 11
239.893765860794
 21
42.3840301928097
 31
0.0
  0
LINE
  5
   6B7
  8
0
  6
CONTINUOUS
 62
     1
 10
239.893765860794
 20
42.3840301928097
 30
0.0
 11
239.893765860794
 21
42.4727814148354
 31
0.0
  0
LINE
  5
   6B8
  8
0
  6
CONTINUOUS
 62
     1
 10
239.893765860794
 20
42.5028671696782
 30
0.0
 11
242.093765893577
 21
42.5028671696782
 31
0.0
  0
LINE
  5
   6B9
  8
0
  6
CONTINUOUS
 62
     1
 10
239.893765860794
 20
42.4727814148354
 30
0.0
 11
239.893765860794
 21
42.5028671696782
 31
0.0
  0
LINE
  5
   6BA
  8
0
  6
CONTINUOUS
 62
     7
 10
242.093765893577
 20
101.902866528928
 30
0.0
 11
242.093765893577
 21
130.982983035714
 31
0.0
  0
LINE
  5
   6BB
  8
0
  6
CONTINUOUS
 62
     7
 10
241.293765881656
 20
91.7028663769364
 30
0.0
 11
241.293765881656
 21
96.9028664544225
 31
0.0
  0
LINE
  5
   6BC
  8
0
  6
CONTINUOUS
 62
     7
 10
242.093765893577
 20
-1.07607052463067
 30
0.0
 11
242.093765893577
 21
37.5028670951724
 31
0.0
  0
LINE
  5
   6BD
  8
0
  6
CONTINUOUS
 62
     7
 10
241.293765881656
 20
-1.30862866763094
 30
0.0
 11
241.293765881656
 21
40.1028671339154
 31
0.0
  0
LINE
  5
   6BE
  8
0
  6
CONTINUOUS
 62
     7
 10
238.500466371582
 20
-2.120634339164
 30
0.0
 11
244.887648983074
 21
-0.263895207916285
 31
0.0
  0
LINE
  5
   6BF
  8
0
  6
CONTINUOUS
 62
     7
 10
239.317431589331
 20
132.75289615467
 30
0.0
 11
245.258996809324
 21
128.965148326925
 31
0.0
  0
LINE
  5
   6C0
  8
0
  6
CONTINUOUS
 62
     7
 10
241.293765881656
 20
99.5028664931655
 30
0.0
 11
242.093765893577
 21
99.5028664931655
 31
0.0
  0
LINE
  5
   6C1
  8
0
  6
CONTINUOUS
 62
     7
 10
241.293765881656
 20
96.7028664514422
 30
0.0
 11
242.093765893577
 21
96.7028664514422
 31
0.0
  0
LINE
  5
   6C2
  8
0
  6
CONTINUOUS
 62
     7
 10
241.293765881656
 20
42.7028671726584
 30
0.0
 11
242.093765893577
 21
42.7028671726584
 31
0.0
  0
LINE
  5
   6C3
  8
0
  6
CONTINUOUS
 62
     7
 10
241.293765881656
 20
39.9028671309352
 30
0.0
 11
242.093765893577
 21
39.9028671309352
 31
0.0
  0
LINE
  5
   6C4
  8
0
  6
CONTINUOUS
 62
     7
 10
241.293765881656
 20
47.3028672412038
 30
0.0
 11
242.093765893577
 21
47.3028672412038
 31
0.0
  0
LINE
  5
   6C5
  8
0
  6
CONTINUOUS
 62
     7
 10
241.293765881656
 20
92.1028663828969
 30
0.0
 11
242.093765893577
 21
92.1028663828969
 31
0.0
  0
LINE
  5
   6C6
  8
0
  6
CONTINUOUS
 62
     7
 10
241.293765881656
 20
99.3028664901852
 30
0.0
 11
241.293765881656
 21
131.492983043313
 31
0.0
  0
LINE
  5
   6C7
  8
0
  6
CONTINUOUS
 62
     7
 10
241.293765881656
 20
42.5028671696782
 30
0.0
 11
241.293765881656
 21
47.7028672471642
 31
0.0
  0
INSERT
  5
   6C8
  8
0
  6
CONTINUOUS
 62
     7
  2
*HATCH76
 10
199.493789672852
 20
39.6028671264648
 30
0.0
 41
0.400000005960464
 42
0.400000005960464
 43
0.400000005960464
  0
INSERT
  5
   6C9
  8
0
  6
CONTINUOUS
 62
     7
  2
*HATCH77
 10
199.493789672852
 20
39.6028671264648
 30
0.0
 41
0.400000005960464
 42
0.400000005960464
 43
0.400000005960464
  0
INSERT
  5
   6CA
  8
0
  6
CONTINUOUS
 62
     7
  2
*HATCH78
 10
199.493789672852
 20
39.6028671264648
 30
0.0
 41
0.400000005960464
 42
0.400000005960464
 43
0.400000005960464
  0
INSERT
  5
   6CB
  8
0
  6
CONTINUOUS
 62
     7
  2
*HATCH79
 10
199.493789672852
 20
39.6028671264648
 30
0.0
 41
0.400000005960464
 42
0.400000005960464
 43
0.400000005960464
  0
LINE
  5
   6CC
  8
0
  6
DASHDOT
 62
     7
 10
189.600676721719
 20
69.7028492644426
 30
0.0
 11
278.451095876672
 21
69.7028492644426
 31
0.0
  0
LINE
  5
   6CD
  8
0
  6
CONTINUOUS
 62
     3
 10
207.713784073293
 20
115.602869241014
 30
0.0
 11
207.713784073293
 21
119.202869294658
 31
0.0
  0
LINE
  5
   6CE
  8
0
  6
CONTINUOUS
 62
     7
 10
221.77375316267
 20
109.102869144156
 30
0.0
 11
230.757958337512
 21
109.102869144156
 31
0.0
  0
LINE
  5
   6CF
  8
0
  6
CONTINUOUS
 62
     7
 10
230.757958337512
 20
109.102869144156
 30
0.0
 11
233.432158504142
 21
121.493329916207
 31
0.0
  0
INSERT
  5
   6D0
  8
0
  6
CONTINUOUS
 62
     7
  2
*HATCH80
 10
199.493789672852
 20
39.6028671264648
 30
0.0
 41
0.400000005960464
 42
0.400000005960464
 43
0.400000005960464
  0
LINE
  5
   6D1
  8
0
  6
DASHDOT
 62
     7
 10
205.934564909934
 20
114.402869223132
 30
0.0
 11
212.260122739875
 21
114.402869223132
 31
0.0
  0
LINE
  5
   6D2
  8
0
  6
CONTINUOUS
 62
     2
 10
207.713784073293
 20
115.702869242504
 30
0.0
 11
210.913784120977
 21
115.702869242504
 31
0.0
  0
LINE
  5
   6D3
  8
0
  6
CONTINUOUS
 62
     2
 10
207.713784073293
 20
113.102869203761
 30
0.0
 11
210.913784120977
 21
113.102869203761
 31
0.0
  0
LINE
  5
   6D4
  8
0
  6
CONTINUOUS
 62
     2
 10
204.113789250664
 20
116.202868267893
 30
0.0
 11
204.25478685916
 21
116.048394582231
 31
0.0
  0
LINE
  5
   6D5
  8
0
  6
CONTINUOUS
 62
     2
 10
210.913784120977
 20
117.202869264855
 30
0.0
 11
211.233784125745
 21
117.202869264855
 31
0.0
  0
LINE
  5
   6D6
  8
0
  6
CONTINUOUS
 62
     2
 10
210.913784120977
 20
111.602869181409
 30
0.0
 11
211.233784125745
 21
111.602869181409
 31
0.0
  0
LINE
  5
   6D7
  8
0
  6
CONTINUOUS
 62
     2
 10
211.233784125745
 20
111.602869181409
 30
0.0
 11
211.233784125745
 21
117.202869264855
 31
0.0
  0
LINE
  5
   6D8
  8
0
  6
CONTINUOUS
 62
     1
 10
213.633784161508
 20
112.40286919333
 30
0.0
 11
213.633784161508
 21
116.402869252935
 31
0.0
  0
LINE
  5
   6D9
  8
0
  6
CONTINUOUS
 62
     1
 10
211.233784125745
 20
112.40286919333
 30
0.0
 11
211.233784125745
 21
116.402869252935
 31
0.0
  0
LINE
  5
   6DA
  8
0
  6
CONTINUOUS
 62
     1
 10
210.033784107864
 20
113.202869205251
 30
0.0
 11
210.033784107864
 21
115.602869241014
 31
0.0
  0
LINE
  5
   6DB
  8
0
  6
CONTINUOUS
 62
     1
 10
207.233784066141
 20
115.602869241014
 30
0.0
 11
210.913784120977
 21
115.602869241014
 31
0.0
  0
LINE
  5
   6DC
  8
0
  6
CONTINUOUS
 62
     1
 10
207.233784066141
 20
113.202869205251
 30
0.0
 11
210.913784120977
 21
113.202869205251
 31
0.0
  0
LINE
  5
   6DD
  8
0
  6
CONTINUOUS
 62
     1
 10
211.233784125745
 20
116.402869252935
 30
0.0
 11
213.633784161508
 21
116.402869252935
 31
0.0
  0
LINE
  5
   6DE
  8
0
  6
CONTINUOUS
 62
     1
 10
211.233784125745
 20
112.40286919333
 30
0.0
 11
213.633784161508
 21
112.40286919333
 31
0.0
  0
LINE
  5
   6DF
  8
0
  6
CONTINUOUS
 62
     7
 10
201.233783976734
 20
115.357497237357
 30
0.0
 11
210.033784159215
 21
115.357497237357
 31
0.0
  0
LINE
  5
   6E0
  8
0
  6
CONTINUOUS
 62
     7
 10
201.233783976734
 20
113.448241208907
 30
0.0
 11
210.033784159215
 21
113.448241208907
 31
0.0
  0
LINE
  5
   6E1
  8
0
  6
DASHDOT
 62
     7
 10
206.433784435689
 20
114.402869223132
 30
0.0
 11
214.393784172833
 21
114.402869223132
 31
0.0
  0
LINE
  5
   6E2
  8
0
  6
CONTINUOUS
 62
     1
 10
201.233783976734
 20
113.202867819008
 30
0.0
 11
201.233783976734
 21
115.602867473302
 31
0.0
  0
LINE
  5
   6E3
  8
0
  6
CONTINUOUS
 62
     7
 10
207.693783691525
 20
19.2028658458766
 30
0.0
 11
207.693783691525
 21
22.8028668761253
 31
0.0
  0
LINE
  5
   6E4
  8
0
  6
DASHDOT
 62
     7
 10
206.279099831468
 20
18.0028658279953
 30
0.0
 11
211.011682682997
 21
18.0028658279953
 31
0.0
  0
LINE
  5
   6E5
  8
0
  6
CONTINUOUS
 62
     2
 10
207.693783691525
 20
19.3028658473668
 30
0.0
 11
210.913777323481
 21
19.3028658473668
 31
0.0
  0
LINE
  5
   6E6
  8
0
  6
CONTINUOUS
 62
     2
 10
207.693783691525
 20
16.7028658086237
 30
0.0
 11
210.913777323481
 21
16.7028658086237
 31
0.0
  0
LINE
  5
   6E7
  8
0
  6
CONTINUOUS
 62
     2
 10
211.23377732825
 20
15.202865786272
 30
0.0
 11
211.23377732825
 21
20.8028658697185
 31
0.0
  0
LINE
  5
   6E8
  8
0
  6
CONTINUOUS
 62
     2
 10
210.913777323481
 20
20.8028658697185
 30
0.0
 11
211.23377732825
 21
20.8028658697185
 31
0.0
  0
LINE
  5
   6E9
  8
0
  6
CONTINUOUS
 62
     2
 10
210.913777323481
 20
15.202865786272
 30
0.0
 11
211.23377732825
 21
15.202865786272
 31
0.0
  0
LINE
  5
   6EA
  8
0
  6
CONTINUOUS
 62
     1
 10
213.633777364012
 20
16.0028657981929
 30
0.0
 11
213.633777364012
 21
20.0028658577976
 31
0.0
  0
LINE
  5
   6EB
  8
0
  6
CONTINUOUS
 62
     1
 10
211.23377732825
 20
16.0028657981929
 30
0.0
 11
211.23377732825
 21
20.0028658577976
 31
0.0
  0
LINE
  5
   6EC
  8
0
  6
CONTINUOUS
 62
     1
 10
210.033777310368
 20
16.8028658101139
 30
0.0
 11
210.033777310368
 21
19.2028658458766
 31
0.0
  0
LINE
  5
   6ED
  8
0
  6
CONTINUOUS
 62
     1
 10
201.233777179238
 20
19.2028658458766
 30
0.0
 11
210.913777323481
 21
19.2028658458766
 31
0.0
  0
LINE
  5
   6EE
  8
0
  6
CONTINUOUS
 62
     1
 10
201.233777179238
 20
16.8028658101139
 30
0.0
 11
210.913777323481
 21
16.8028658101139
 31
0.0
  0
LINE
  5
   6EF
  8
0
  6
CONTINUOUS
 62
     1
 10
211.23377732825
 20
20.0028658577976
 30
0.0
 11
213.633777364012
 21
20.0028658577976
 31
0.0
  0
LINE
  5
   6F0
  8
0
  6
CONTINUOUS
 62
     1
 10
211.23377732825
 20
16.0028657981929
 30
0.0
 11
213.633777364012
 21
16.0028657981929
 31
0.0
  0
LINE
  5
   6F1
  8
0
  6
CONTINUOUS
 62
     7
 10
201.233777179238
 20
18.9574938422203
 30
0.0
 11
210.033777361719
 21
18.9574938422203
 31
0.0
  0
LINE
  5
   6F2
  8
0
  6
CONTINUOUS
 62
     7
 10
201.233777179238
 20
17.0482378137702
 30
0.0
 11
210.033777361719
 21
17.0482378137702
 31
0.0
  0
LINE
  5
   6F3
  8
0
  6
DASHDOT
 62
     7
 10
205.21378403604
 20
18.0028658279953
 30
0.0
 11
213.173783773184
 21
18.0028658279953
 31
0.0
  0
LINE
  5
   6F4
  8
0
  6
CONTINUOUS
 62
     1
 10
201.233777179238
 20
16.8028658101139
 30
0.0
 11
201.233777179238
 21
19.2028675594732
 31
0.0
  0
LINE
  5
   6F5
  8
0
  6
CONTINUOUS
 62
     2
 10
207.693783691525
 20
13.2028667330742
 30
0.0
 11
207.693783691525
 21
16.8028658101139
 31
0.0
  0
LINE
  5
   6F6
  8
0
  6
CONTINUOUS
 62
     2
 10
206.493783673644
 20
13.2028667330742
 30
0.0
 11
206.493783673644
 21
16.8028658101139
 31
0.0
  0
LINE
  5
   6F7
  8
0
  6
CONTINUOUS
 62
     2
 10
200.313789759517
 20
16.8028678233399
 30
0.0
 11
200.313789759517
 21
19.6028678198234
 31
0.0
  0
LINE
  5
   6F8
  8
0
  6
CONTINUOUS
 62
     3
 10
243.493765914438
 20
90.702849577367
 30
0.0
 11
244.493765929339
 21
90.702849577367
 31
0.0
  0
LINE
  5
   6F9
  8
0
  6
CONTINUOUS
 62
     3
 10
243.493765914438
 20
76.7028674853198
 30
0.0
 11
244.493765929339
 21
76.7028674853198
 31
0.0
  0
LINE
  5
   6FA
  8
0
  6
CONTINUOUS
 62
     3
 10
243.493765914438
 20
76.3028674793594
 30
0.0
 11
244.493765929339
 21
76.3028674793594
 31
0.0
  0
LINE
  5
   6FB
  8
0
  6
CONTINUOUS
 62
     3
 10
243.493765914438
 20
69.102867372071
 30
0.0
 11
244.493765929339
 21
69.102867372071
 31
0.0
  0
LINE
  5
   6FC
  8
0
  6
CONTINUOUS
 62
     3
 10
243.493765914438
 20
68.7028673661105
 30
0.0
 11
244.493765929339
 21
68.7028673661105
 31
0.0
  0
LINE
  5
   6FD
  8
0
  6
CONTINUOUS
 62
     3
 10
243.493765914438
 20
60.3028672409408
 30
0.0
 11
244.493765929339
 21
60.3028672409408
 31
0.0
  0
LINE
  5
   6FE
  8
0
  6
CONTINUOUS
 62
     3
 10
243.493765914438
 20
59.9028672349803
 30
0.0
 11
244.493765929339
 21
59.9028672349803
 31
0.0
  0
LINE
  5
   6FF
  8
0
  6
CONTINUOUS
 62
     3
 10
243.493765914438
 20
52.7028690350409
 30
0.0
 11
244.493765929339
 21
52.7028690350409
 31
0.0
  0
LINE
  5
   700
  8
0
  6
CONTINUOUS
 62
     3
 10
243.493765914438
 20
52.3028713178986
 30
0.0
 11
244.493765929339
 21
52.3028713178986
 31
0.0
  0
LINE
  5
   701
  8
0
  6
CONTINUOUS
 62
     3
 10
243.493765914438
 20
48.702855055034
 30
0.0
 11
244.493765929339
 21
48.702855055034
 31
0.0
  0
LINE
  5
   702
  8
0
  6
DASHDOT
 62
     7
 10
191.892449798377
 20
113.602849918604
 30
0.0
 11
200.49796299918
 21
113.602849918604
 31
0.0
  0
LINE
  5
   703
  8
0
  6
CONTINUOUS
 62
     2
 10
195.693783512711
 20
112.002849894762
 30
0.0
 11
195.693783512711
 21
115.202849942445
 31
0.0
  0
LINE
  5
   704
  8
0
  6
CONTINUOUS
 62
     2
 10
194.09378348887
 20
112.602849903702
 30
0.0
 11
194.09378348887
 21
114.602849933505
 31
0.0
  0
LINE
  5
   705
  8
0
  6
CONTINUOUS
 62
     2
 10
195.693783512711
 20
115.202849942445
 30
0.0
 11
197.293783536553
 21
115.202849942445
 31
0.0
  0
LINE
  5
   706
  8
0
  6
CONTINUOUS
 62
     2
 10
195.693783512711
 20
112.002849894762
 30
0.0
 11
197.293783536553
 21
112.002849894762
 31
0.0
  0
LINE
  5
   707
  8
0
  6
CONTINUOUS
 62
     2
 10
194.09378348887
 20
114.602849933505
 30
0.0
 11
197.293783536553
 21
114.602849933505
 31
0.0
  0
LINE
  5
   708
  8
0
  6
CONTINUOUS
 62
     2
 10
194.09378348887
 20
112.602849903702
 30
0.0
 11
197.293783536553
 21
112.602849903702
 31
0.0
  0
LINE
  5
   709
  8
0
  6
CONTINUOUS
 62
     2
 10
195.693783512711
 20
20.4028485298154
 30
0.0
 11
197.293783536553
 21
20.4028485298154
 31
0.0
  0
LINE
  5
   70A
  8
0
  6
CONTINUOUS
 62
     2
 10
194.09378348887
 20
19.8028485208747
 30
0.0
 11
197.293783536553
 21
19.8028485208747
 31
0.0
  0
LINE
  5
   70B
  8
0
  6
DASHDOT
 62
     7
 10
191.892449798377
 20
18.8028485059735
 30
0.0
 11
200.49796299918
 21
18.8028485059735
 31
0.0
  0
LINE
  5
   70C
  8
0
  6
CONTINUOUS
 62
     2
 10
194.09378348887
 20
17.8028484910724
 30
0.0
 11
197.293783536553
 21
17.8028484910724
 31
0.0
  0
LINE
  5
   70D
  8
0
  6
CONTINUOUS
 62
     2
 10
195.693783512711
 20
17.2028484821317
 30
0.0
 11
197.293783536553
 21
17.2028484821317
 31
0.0
  0
LINE
  5
   70E
  8
0
  6
CONTINUOUS
 62
     2
 10
195.693783512711
 20
17.2028484821317
 30
0.0
 11
195.693783512711
 21
20.4028485298154
 31
0.0
  0
LINE
  5
   70F
  8
0
  6
CONTINUOUS
 62
     2
 10
194.09378348887
 20
17.8028484910724
 30
0.0
 11
194.09378348887
 21
19.8028485208747
 31
0.0
  0
INSERT
  5
   710
  8
0
  6
CONTINUOUS
 62
     7
  2
*UDIM450
 10
0.0
 20
0.0
 30
0.0
  0
INSERT
  5
   711
  8
0
  6
CONTINUOUS
 62
     7
  2
*UDIM451
 10
0.0
 20
0.0
 30
0.0
  0
INSERT
  5
   712
  8
0
  6
CONTINUOUS
 62
     7
  2
*UDIM452
 10
0.0
 20
0.0
 30
0.0
  0
INSERT
  5
   713
  8
0
  6
CONTINUOUS
 62
     7
  2
*UDIM453
 10
0.0
 20
0.0
 30
0.0
  0
INSERT
  5
   714
  8
0
  6
CONTINUOUS
 62
     7
  2
*UDIM454
 10
0.0
 20
0.0
 30
0.0
  0
INSERT
  5
   715
  8
0
  6
CONTINUOUS
 62
     7
  2
*UDIM455
 10
0.0
 20
0.0
 30
0.0
  0
INSERT
  5
   716
  8
0
  6
CONTINUOUS
 62
     7
  2
*UDIM456
 10
0.0
 20
0.0
 30
0.0
  0
INSERT
  5
   717
  8
0
  6
CONTINUOUS
 62
     7
  2
*UDIM457
 10
0.0
 20
0.0
 30
0.0
  0
INSERT
  5
   718
  8
0
  6
CONTINUOUS
 62
     7
  2
*UDIM458
 10
0.0
 20
0.0
 30
0.0
  0
INSERT
  5
   719
  8
0
  6
CONTINUOUS
 62
     7
  2
*UDIM459
 10
0.0
 20
0.0
 30
0.0
  0
INSERT
  5
   71A
  8
0
  6
CONTINUOUS
 62
     7
  2
*UDIM460
 10
0.0
 20
0.0
 30
0.0
  0
INSERT
  5
   71B
  8
0
  6
CONTINUOUS
 62
     7
  2
*UDIM461
 10
0.0
 20
0.0
 30
0.0
  0
INSERT
  5
   71C
  8
0
  6
CONTINUOUS
 62
     7
  2
*UDIM462
 10
0.0
 20
0.0
 30
0.0
  0
INSERT
  5
   71D
  8
0
  6
CONTINUOUS
 62
     7
  2
*UDIM463
 10
0.0
 20
0.0
 30
0.0
  0
INSERT
  5
   71E
  8
0
  6
CONTINUOUS
 62
     7
  2
*UDIM464
 10
0.0
 20
0.0
 30
0.0
  0
LINE
  5
   71F
  8
0
  6
CONTINUOUS
 62
   130
 10
207.713834401609
 20
110.002875260778
 30
0.0
 11
210.513841309787
 21
110.002869157263
 31
0.0
  0
ARC
  5
   720
  8
0
  6
CONTINUOUS
 62
   130
 10
210.513845827104
 20
110.402858528058
 30
0.0
 40
0.39998937082094
 50
270.0
 51
359.999953164316
  0
LINE
  5
   721
  8
0
  6
CONTINUOUS
 62
   130
 10
210.913777323481
 20
110.402875266739
 30
0.0
 11
210.913777323481
 21
113.202869205251
 31
0.0
  0
LINE
  5
   722
  8
0
  6
CONTINUOUS
 62
   130
 10
207.713784073293
 20
109.946875259944
 30
0.0
 11
207.713784073293
 21
113.202869205251
 31
0.0
  0
ARC
  5
   723
  8
0
  6
CONTINUOUS
 62
   130
 10
211.713973325367
 20
119.229760972899
 30
0.0
 40
4.00013741321525
 50
114.878407544051
 51
180.000262279264
  0
ARC
  5
   724
  8
0
  6
CONTINUOUS
 62
   130
 10
211.713881561741
 20
119.229816229112
 30
0.0
 40
0.80003949773605
 50
115.0
 51
179.999892527423
  0
LINE
  5
   725
  8
0
  6
CONTINUOUS
 62
   130
 10
211.375770259884
 20
119.954898255847
 30
0.0
 11
219.204322186842
 21
123.605411971651
 31
0.0
  0
LINE
  5
   726
  8
0
  6
CONTINUOUS
 62
   130
 10
221.513849174293
 20
127.230643173818
 30
0.0
 11
221.513849174293
 21
150.402869287452
 31
0.0
  0
LINE
  5
   727
  8
0
  6
CONTINUOUS
 62
   130
 10
221.513785319588
 20
150.402869287452
 30
0.0
 11
221.513785319588
 21
166.402870971229
 31
0.0
  0
LINE
  5
   728
  8
0
  6
CONTINUOUS
 62
   130
 10
218.313903209045
 20
127.230668392872
 30
0.0
 11
218.313903209045
 21
166.402870971229
 31
0.0
  0
LINE
  5
   729
  8
0
  6
CONTINUOUS
 62
   130
 10
210.031139694983
 20
122.858696119337
 30
0.0
 11
217.851997811555
 21
126.505622152439
 31
0.0
  0
ARC
  5
   72A
  8
0
  6
CONTINUOUS
 62
   130
 10
217.513849114689
 20
127.230643173818
 30
0.0
 40
4.00000005960464
 50
295.0
 51
360.0
  0
ARC
  5
   72B
  8
0
  6
CONTINUOUS
 62
   130
 10
217.513903197124
 20
127.230668392872
 30
0.0
 40
0.800000011920929
 50
295.0
 51
360.0
  0
LINE
  5
   72C
  8
0
  6
CONTINUOUS
 62
   130
 10
210.913777323481
 20
115.602869241014
 30
0.0
 11
210.913777323481
 21
119.229816229112
 31
0.0
  0
LINE
  5
   72D
  8
0
  6
CONTINUOUS
 62
   130
 10
207.713784073293
 20
115.602869241014
 30
0.0
 11
207.713784073293
 21
119.229760972899
 31
0.0
  0
LINE
  5
   72E
  8
0
  6
CONTINUOUS
 62
   130
 10
207.713834401609
 20
22.402859784894
 30
0.0
 11
210.513841309787
 21
22.4028658884097
 31
0.0
  0
ARC
  5
   72F
  8
0
  6
CONTINUOUS
 62
   130
 10
210.513845827104
 20
22.0028765176145
 30
0.0
 40
0.39998937082094
 50
4.68356838579018E-5
 51
90.0
  0
LINE
  5
   730
  8
0
  6
CONTINUOUS
 62
   130
 10
210.913777323481
 20
19.2028658404216
 30
0.0
 11
210.913777323481
 21
22.0028597789336
 31
0.0
  0
LINE
  5
   731
  8
0
  6
CONTINUOUS
 62
   130
 10
207.713784073293
 20
19.2028658404216
 30
0.0
 11
207.713784073293
 21
22.4588597857285
 31
0.0
  0
ARC
  5
   732
  8
0
  6
CONTINUOUS
 62
   130
 10
211.713973325367
 20
13.175974072773
 30
0.0
 40
4.00013741321525
 50
179.999737720736
 51
245.121592455949
  0
ARC
  5
   733
  8
0
  6
CONTINUOUS
 62
   130
 10
211.713881561741
 20
13.1759188165607
 30
0.0
 40
0.80003949773605
 50
180.000107472577
 51
245.0
  0
LINE
  5
   734
  8
0
  6
CONTINUOUS
 62
   130
 10
211.375770259884
 20
12.4508367898256
 30
0.0
 11
219.204322186842
 21
8.80032307402129
 31
0.0
  0
LINE
  5
   735
  8
0
  6
CONTINUOUS
 62
   130
 10
221.513849174293
 20
-17.9971342417799
 30
0.0
 11
221.513849174293
 21
5.17509187185455
 31
0.0
  0
LINE
  5
   736
  8
0
  6
CONTINUOUS
 62
   130
 10
221.513785319588
 20
-33.9971483265659
 30
0.0
 11
221.513785319588
 21
-17.99713424178
 31
0.0
  0
LINE
  5
   737
  8
0
  6
CONTINUOUS
 62
   130
 10
218.313903209045
 20
-33.9971483265659
 30
0.0
 11
218.313903209045
 21
5.17506665280055
 31
0.0
  0
LINE
  5
   738
  8
0
  6
CONTINUOUS
 62
   130
 10
210.031139694983
 20
9.54703892633525
 30
0.0
 11
217.851997811555
 21
5.90011289323387
 31
0.0
  0
ARC
  5
   739
  8
0
  6
CONTINUOUS
 62
   130
 10
217.513849114689
 20
5.17509187185455
 30
0.0
 40
4.00000005960464
 50
7.01670929853487E-15
 51
65.0
  0
ARC
  5
   73A
  8
0
  6
CONTINUOUS
 62
   130
 10
217.513903197124
 20
5.17506665280055
 30
0.0
 40
0.800000011920929
 50
7.01670929853487E-15
 51
65.0000000000003
  0
LINE
  5
   73B
  8
0
  6
CONTINUOUS
 62
   130
 10
210.913777323481
 20
13.1759188165607
 30
0.0
 11
210.913777323481
 21
16.8028658046588
 31
0.0
  0
LINE
  5
   73C
  8
0
  6
CONTINUOUS
 62
   130
 10
207.713784073293
 20
13.175974072773
 30
0.0
 11
207.713784073293
 21
16.8028658046588
 31
0.0
  0
LINE
  5
   73D
  8
0
  6
CONTINUOUS
 62
   130
 10
218.313903209045
 20
166.402870971229
 30
0.0
 11
221.513785319588
 21
166.402870971229
 31
0.0
  0
LINE
  5
   73E
  8
0
  6
CONTINUOUS
 62
   130
 10
218.313903209045
 20
161.002836416793
 30
0.0
 11
221.513785319588
 21
161.002836416793
 31
0.0
  0
LINE
  5
   73F
  8
0
  6
DASHDOT
 62
     7
 10
215.830373050701
 20
158.402832294923
 30
0.0
 11
223.771536699423
 21
158.402832294923
 31
0.0
  0
LINE
  5
   740
  8
0
  6
CONTINUOUS
 62
   130
 10
218.313903209045
 20
155.802828173052
 30
0.0
 11
221.513785319588
 21
155.802828173052
 31
0.0
  0
INSERT
  5
   741
  8
0
  6
CONTINUOUS
 62
     7
  2
*HATCH81
 10
199.493789672852
 20
39.6028671264648
 30
0.0
 41
0.400000005960464
 42
0.400000005960464
 43
0.400000005960464
  0
INSERT
  5
   742
  8
0
  6
CONTINUOUS
 62
     7
  2
*HATCH82
 10
199.493789672852
 20
39.6028671264648
 30
0.0
 41
0.400000005960464
 42
0.400000005960464
 43
0.400000005960464
  0
INSERT
  5
   743
  8
0
  6
CONTINUOUS
 62
     7
  2
*HATCH83
 10
199.493789672852
 20
39.6028671264648
 30
0.0
 41
0.400000005960464
 42
0.400000005960464
 43
0.400000005960464
  0
INSERT
  5
   744
  8
0
  6
CONTINUOUS
 62
     7
  2
*UDIM465
 10
0.0
 20
0.0
 30
0.0
  0
LINE
  5
   745
  8
0
  6
CONTINUOUS
 62
   130
 10
218.313903209045
 20
-23.3971055283894
 30
0.0
 11
221.513785319588
 21
-23.3971055283894
 31
0.0
  0
LINE
  5
   746
  8
0
  6
DASHDOT
 62
     7
 10
214.96818956884
 20
-25.9971096502598
 30
0.0
 11
225.768172131102
 21
-25.9971096502598
 31
0.0
  0
LINE
  5
   747
  8
0
  6
CONTINUOUS
 62
   130
 10
218.313903209045
 20
-28.5971137721303
 30
0.0
 11
221.513785319588
 21
-28.5971137721303
 31
0.0
  0
LINE
  5
   748
  8
0
  6
CONTINUOUS
 62
   130
 10
218.313903209045
 20
-33.9971483265659
 30
0.0
 11
221.513785319588
 21
-33.9971483265659
 31
0.0
  0
INSERT
  5
   749
  8
0
  6
CONTINUOUS
 62
     7
  2
*HATCH84
 10
199.493789672852
 20
39.6028671264648
 30
0.0
 41
0.400000005960464
 42
0.400000005960464
 43
0.400000005960464
  0
INSERT
  5
   74A
  8
0
  6
CONTINUOUS
 62
     7
  2
*HATCH85
 10
199.493789672852
 20
39.6028671264648
 30
0.0
 41
0.400000005960464
 42
0.400000005960464
 43
0.400000005960464
  0
INSERT
  5
   74B
  8
0
  6
CONTINUOUS
 62
     7
  2
*HATCH86
 10
199.493789672852
 20
39.6028671264648
 30
0.0
 41
0.400000005960464
 42
0.400000005960464
 43
0.400000005960464
  0
TEXT
  5
   74C
  8
0
  6
CONTINUOUS
 62
     2
 10
272.225828542913
 20
58.0185613335026
 30
0.0
 40
2.99999994933605
  1
=     =
 50
90.0
 41
0.916666607525612
 72
     2
 11
272.22582854289
 21
76.7185598085178
 31
0.0
  0
TEXT
  5
   74D
  8
0
  6
CONTINUOUS
 62
     7
 10
280.003849736751
 20
68.9834643154439
 30
0.0
 40
2.99999994933605
  1
X
 41
0.916666607525612
 72
     2
 11
282.203849554957
 21
68.9834643154439
 31
0.0
  0
LINE
  5
   74E
  8
0
  6
DASHDOT
 62
     2
 10
108.987991596899
 20
-66.7299499511719
 30
0.0
 11
85.8860745591256
 21
-66.7299499511719
 31
0.0
  0
LINE
  5
   74F
  8
0
  6
DASHDOT
 62
     2
 10
109.936204609643
 20
-110.979949951172
 30
0.0
 11
85.713672193172
 21
-110.979949951172
 31
0.0
  0
LINE
  5
   750
  8
0
  6
DASHDOT
 62
     2
 10
89.0917129516602
 20
-60.4725575807621
 30
0.0
 11
89.0917129516602
 21
-117.273122686314
 31
0.0
  0
LINE
  5
   751
  8
0
  6
DASHDOT
 62
     2
 10
106.59171295166
 20
-60.2234322952114
 30
0.0
 11
106.59171295166
 21
-117.771373257415
 31
0.0
  0
LINE
  5
   752
  8
0
  6
CONTINUOUS
 62
     7
 10
111.59171295166
 20
-61.7299499511719
 30
0.0
 11
111.59171295166
 21
-115.979949951172
 31
0.0
  0
LINE
  5
   753
  8
0
  6
CONTINUOUS
 62
     7
 10
84.0917129516602
 20
-61.7299499511719
 30
0.0
 11
84.0917129516602
 21
-115.979949951172
 31
0.0
  0
LINE
  5
   754
  8
0
  6
DASHDOT
 62
     2
 10
97.8417129516602
 20
-60.7983789156308
 30
0.0
 11
97.8417129516602
 21
-118.543587103739
 31
0.0
  0
CIRCLE
  5
   755
  8
0
  6
CONTINUOUS
 62
     7
 10
106.59171295166
 20
-66.7299499511719
 30
0.0
 40
0.6875
  0
CIRCLE
  5
   756
  8
0
  6
CONTINUOUS
 62
     7
 10
89.0917129516602
 20
-66.7299499511719
 30
0.0
 40
0.6875
  0
CIRCLE
  5
   757
  8
0
  6
CONTINUOUS
 62
     7
 10
89.0917129516602
 20
-110.979949951172
 30
0.0
 40
0.6875
  0
CIRCLE
  5
   758
  8
0
  6
CONTINUOUS
 62
     7
 10
106.59171295166
 20
-110.979949951172
 30
0.0
 40
0.6875
  0
LINE
  5
   759
  8
0
  6
DASHDOT
 62
     2
 10
120.608731717878
 20
-86.6674499511719
 30
0.0
 11
65.6801973797575
 21
-86.6674499511719
 31
0.0
  0
LINE
  5
   75A
  8
0
  6
CONTINUOUS
 62
     7
 10
113.51208253851
 20
-64.2320366319831
 30
0.0
 11
81.8862877826328
 21
-64.2320366319831
 31
0.0
  0
LINE
  5
   75B
  8
0
  6
CONTINUOUS
 62
     7
 10
113.873520192863
 20
-114.471870587034
 30
0.0
 11
81.7055689554564
 21
-114.471870587034
 31
0.0
  0
TEXT
  5
   75C
  8
0
  6
CONTINUOUS
 62
     2
 10
97.2613350602634
 20
-60.1255109183008
 30
0.0
 40
3.00000002980232
  1
Y
 50
359.999999896069
 41
0.916666604744064
 72
     2
 11
99.4613349291331
 21
-60.1255109222804
 31
0.0
  0
INSERT
  5
   75D
  8
0
  6
CONTINUOUS
 62
     2
  2
*UDIM466
 10
0.0
 20
0.0
 30
0.0
  0
INSERT
  5
   75E
  8
0
  6
CONTINUOUS
 62
     7
  2
*UDIM467
 10
0.0
 20
0.0
 30
0.0
  0
TEXT
  5
   75F
  8
0
  6
CONTINUOUS
 62
     7
 10
43.163120267062
 20
-89.0607853213916
 30
0.0
 40
3.00000002980232
  1
X
 50
359.999999896069
 41
0.916666604744064
 72
     2
 11
45.3631201359318
 21
-89.0607853253712
 31
0.0
  0
TEXT
  5
   760
  8
0
  6
CONTINUOUS
 62
     7
 10
124.67149352756
 20
-89.8300240317951
 30
0.0
 40
3.00000002980232
  1
X
 50
359.999999896069
 41
0.916666604744064
 72
     2
 11
126.87149339643
 21
-89.8300240357747
 31
0.0
  0
INSERT
  5
   761
  8
0
  6
CONTINUOUS
 62
     7
  2
*UDIM468
 10
0.0
 20
0.0
 30
0.0
  0
TEXT
  5
   762
  8
0
  6
CONTINUOUS
 62
     7
 10
101.360825535922
 20
-83.6270828525195
 30
0.0
 40
3.00000002980232
  1
=
 50
359.999999896069
 41
0.916666604744064
 72
     2
 11
103.560825404792
 21
-83.6270828564992
 31
0.0
  0
TEXT
  5
   763
  8
0
  6
CONTINUOUS
 62
     7
 10
91.9269800159024
 20
-83.6270828525195
 30
0.0
 40
3.00000002980232
  1
=
 50
359.999999896069
 41
0.916666604744064
 72
     2
 11
94.1269798847721
 21
-83.6270828564992
 31
0.0
  0
INSERT
  5
   764
  8
0
  6
CONTINUOUS
 62
     7
  2
*UDIM469
 10
0.0
 20
0.0
 30
0.0
  0
TEXT
  5
   765
  8
0
  6
CONTINUOUS
 62
     7
 10
97.3888890000828
 20
-105.435928880375
 30
0.0
 40
3.00000002980232
  1
Y
 50
359.999999896069
 41
0.916666604744064
 72
     2
 11
99.5888888689525
 21
-105.435928884355
 31
0.0
  0
LINE
  5
   766
  8
0
  6
CONTINUOUS
 62
     7
 10
233.639450073242
 20
-105.293685913086
 30
0.0
 11
270.389450073242
 21
-105.293685913086
 31
0.0
  0
LINE
  5
   767
  8
0
  6
CONTINUOUS
 62
     7
 10
233.639450073242
 20
-77.2936859130859
 30
0.0
 11
270.389450073242
 21
-77.2936859130859
 31
0.0
  0
LINE
  5
   768
  8
0
  6
CONTINUOUS
 62
     7
 10
233.639450073242
 20
-77.2936859130859
 30
0.0
 11
233.639450073242
 21
-105.293685913086
 31
0.0
  0
LINE
  5
   769
  8
0
  6
CONTINUOUS
 62
     7
 10
270.389450073242
 20
-77.2936859130859
 30
0.0
 11
270.389450073242
 21
-105.293685913086
 31
0.0
  0
LINE
  5
   76A
  8
0
  6
DASHDOT
 62
     2
 10
252.014450073242
 20
-67.1852366854971
 30
0.0
 11
252.014450073242
 21
-117.131518571803
 31
0.0
  0
CIRCLE
  5
   76B
  8
0
  6
CONTINUOUS
 62
     7
 10
237.639450073242
 20
-73.5436859130859
 30
0.0
 40
0.875
  0
CIRCLE
  5
   76C
  8
0
  6
CONTINUOUS
 62
     7
 10
266.389450073242
 20
-73.5436859130859
 30
0.0
 40
0.875
  0
CIRCLE
  5
   76D
  8
0
  6
CONTINUOUS
 62
     7
 10
266.389450073242
 20
-109.043685913086
 30
0.0
 40
0.875
  0
CIRCLE
  5
   76E
  8
0
  6
CONTINUOUS
 62
     7
 10
237.639450073242
 20
-109.043685913086
 30
0.0
 40
0.875
  0
LINE
  5
   76F
  8
0
  6
DASHDOT
 62
     7
 10
266.389450073242
 20
-71.4186859130859
 30
0.0
 11
266.389450073242
 21
-75.6686859130859
 31
0.0
  0
LINE
  5
   770
  8
0
  6
DASHDOT
 62
     7
 10
264.264450073242
 20
-73.5436859130859
 30
0.0
 11
268.514450073242
 21
-73.5436859130859
 31
0.0
  0
LINE
  5
   771
  8
0
  6
DASHDOT
 62
     7
 10
237.639450073242
 20
-71.4186859130859
 30
0.0
 11
237.639450073242
 21
-75.6686859130859
 31
0.0
  0
LINE
  5
   772
  8
0
  6
DASHDOT
 62
     7
 10
235.514450073242
 20
-73.5436859130859
 30
0.0
 11
239.764450073242
 21
-73.5436859130859
 31
0.0
  0
LINE
  5
   773
  8
0
  6
DASHDOT
 62
     7
 10
237.639450073242
 20
-106.918685913086
 30
0.0
 11
237.639450073242
 21
-111.168685913086
 31
0.0
  0
LINE
  5
   774
  8
0
  6
DASHDOT
 62
     7
 10
235.514450073242
 20
-109.043685913086
 30
0.0
 11
239.764450073242
 21
-109.043685913086
 31
0.0
  0
LINE
  5
   775
  8
0
  6
DASHDOT
 62
     7
 10
266.389450073242
 20
-106.918685913086
 30
0.0
 11
266.389450073242
 21
-111.168685913086
 31
0.0
  0
LINE
  5
   776
  8
0
  6
DASHDOT
 62
     7
 10
264.264450073242
 20
-109.043685913086
 30
0.0
 11
268.514450073242
 21
-109.043685913086
 31
0.0
  0
LINE
  5
   777
  8
0
  6
CONTINUOUS
 62
     7
 10
230.914551081858
 20
-70.4345301167623
 30
0.0
 11
272.876854822769
 21
-70.4345301167623
 31
0.0
  0
LINE
  5
   778
  8
0
  6
CONTINUOUS
 62
     7
 10
230.914551081858
 20
-112.76818167839
 30
0.0
 11
272.876854822769
 21
-112.76818167839
 31
0.0
  0
LINE
  5
   779
  8
0
  6
CONTINUOUS
 62
     7
 10
272.876854822769
 20
-70.4345301167623
 30
0.0
 11
272.876854822769
 21
-112.76818167839
 31
0.0
  0
LINE
  5
   77A
  8
0
  6
CONTINUOUS
 62
     7
 10
230.914551081858
 20
-70.4345301167623
 30
0.0
 11
230.914551081858
 21
-112.76818167839
 31
0.0
  0
LINE
  5
   77B
  8
0
  6
DASHDOT
 62
     2
 10
223.113745038158
 20
-91.2936859130859
 30
0.0
 11
281.780019878576
 21
-91.2936859130859
 31
0.0
  0
TEXT
  5
   77C
  8
0
  6
CONTINUOUS
 62
     1
 10
221.524982738759
 20
-177.398010219578
 30
0.0
 40
2.00000008940697
  1
3POLE LOW VOLTAGE M.C.C.B SERIES ISOMAX
 50
359.999999844103
 41
0.749999861419206
 72
     1
 11
250.624978661537
 21
-176.398010253906
 31
0.0
 73
     2
  0
TEXT
  5
   77D
  8
0
  6
CONTINUOUS
 62
     1
 10
220.774982843812
 20
-180.398010217541
 30
0.0
 40
2.00000008940697
  1
FIXED VERS.SPREADED EXTENDED FRONT TERM.
 50
359.999999844103
 41
0.749999861419206
 72
     1
 11
250.624978661537
 21
-179.398010253906
 31
0.0
 73
     2
  0
TEXT
  5
   77E
  8
0
  6
CONTINUOUS
 62
     1
 10
224.727374371406
 20
-185.468276961543
 30
0.0
 40
2.00000008940697
  1
INTERR.AUTOMATICO SERIE ISOMAX
 50
359.999999844103
 41
0.749999861419206
 72
     1
 11
247.077371239662
 21
-184.468276977539
 31
0.0
 73
     2
  0
TEXT
  5
   77F
  8
0
  6
CONTINUOUS
 62
     1
 10
212.727376052257
 20
-188.468276928952
 30
0.0
 40
2.00000008940697
  1
TRIPOL.ESECUZIONE FISSA TERM.ANT.PROL.DIVARIC.
 50
359.999999844103
 41
0.749999861419206
 72
     1
 11
247.077371239662
 21
-187.468276977539
 31
0.0
 73
     2
  0
TEXT
  5
   780
  8
0
  6
CONTINUOUS
 62
     1
 10
233.059402461747
 20
-195.708282475112
 30
0.0
 40
3.00000002980232
  1
     S6
 50
359.999999844103
 41
0.916666604744064
 72
     2
 11
251.759401379922
 21
-195.708282525899
 31
0.0
  0
TEXT
  5
   781
  8
0
  6
CONTINUOUS
 62
     1
 10
231.973709101014
 20
-204.689865241214
 30
0.0
 40
4.00000017881393
  1
601840/431
 50
359.999999844103
 41
0.937499973922969
 72
     2
 11
268.723709700785
 21
-204.689865341023
 31
0.0
  0
TEXT
  5
   782
  8
0
  6
CONTINUOUS
 62
     1
 10
162.305714975711
 20
-193.704193131828
 30
0.0
 40
2.00000008940697
  1
N0022 99-11-11
 50
359.999999844103
 41
0.749999861419206
 72
     1
 11
172.655713524818
 21
-192.704193115234
 31
0.0
 73
     2
  0
TEXT
  5
   783
  8
0
  6
CONTINUOUS
 62
     7
 10
226.363963501118
 20
-103.353110924952
 30
0.0
 40
3.00000002980232
  1
=      =
 50
449.999999844103
 41
0.916666604744064
 72
     2
 11
226.363963559347
 21
-81.9031121652253
 31
0.0
  0
TEXT
  5
   784
  8
0
  6
CONTINUOUS
 62
     7
 10
217.425887481831
 20
-103.353110924952
 30
0.0
 40
3.00000002980232
  1
=      =
 50
449.999999844103
 41
0.916666604744064
 72
     2
 11
217.42588754006
 21
-81.9031121652253
 31
0.0
  0
TEXT
  5
   785
  8
0
  6
CONTINUOUS
 62
     7
 10
251.373790432907
 20
-126.508052304978
 30
0.0
 40
3.00000002980232
  1
Y
 50
359.999999844103
 41
0.916666604744064
 72
     2
 11
253.573790301777
 21
-126.508052310953
 31
0.0
  0
TEXT
  5
   786
  8
0
  6
CONTINUOUS
 62
     7
 10
250.631094862915
 20
-58.1800531899879
 30
0.0
 40
3.00000002980232
  1
Y
 50
359.999999844103
 41
0.916666604744064
 72
     2
 11
252.831094731785
 21
-58.1800531959629
 31
0.0
  0
TEXT
  5
   787
  8
0
  6
CONTINUOUS
 62
     7
 10
205.698010136582
 20
-93.4580944931458
 30
0.0
 40
3.00000002980232
  1
X
 50
359.999999844103
 41
0.916666604744064
 72
     2
 11
207.898010005451
 21
-93.4580944991207
 31
0.0
  0
TEXT
  5
   788
  8
0
  6
CONTINUOUS
 62
     7
 10
283.417801548935
 20
-92.7288398301552
 30
0.0
 40
3.00000002980232
  1
X
 50
359.999999844103
 41
0.916666604744064
 72
     2
 11
285.617801417805
 21
-92.7288398361301
 31
0.0
  0
TEXT
  5
   789
  8
0
  6
CONTINUOUS
 62
     7
 10
242.150182571409
 20
-123.908611543769
 30
0.0
 40
3.00000002980232
  1
=      =
 50
359.999999844103
 41
0.916666604744064
 72
     2
 11
263.600181331136
 21
-123.908611602025
 31
0.0
  0
TEXT
  5
   78A
  8
0
  6
CONTINUOUS
 62
     7
 10
241.407483901975
 20
-68.2992785054387
 30
0.0
 40
3.00000002980232
  1
=      =
 50
359.999999844103
 41
0.916666604744064
 72
     2
 11
262.857482661702
 21
-68.2992785636945
 31
0.0
  0
INSERT
  5
   78B
  8
0
  6
CONTINUOUS
 62
     7
  2
*UDIM470
 10
0.0
 20
0.0
 30
0.0
  0
INSERT
  5
   78C
  8
0
  6
CONTINUOUS
 62
     7
  2
*UDIM471
 10
0.0
 20
0.0
 30
0.0
  0
INSERT
  5
   78D
  8
0
  6
CONTINUOUS
 62
     7
  2
*UDIM472
 10
0.0
 20
0.0
 30
0.0
  0
INSERT
  5
   78E
  8
0
  6
CONTINUOUS
 62
     7
  2
*UDIM473
 10
0.0
 20
0.0
 30
0.0
  0
INSERT
  5
   78F
  8
0
  6
CONTINUOUS
 62
     7
  2
*UDIM474
 10
0.0
 20
0.0
 30
0.0
  0
ENDSEC
  0
EOF
