  0
SECTION
  2
HEADER
  9
$ACADVER
  1
AC1014
  9
$ACADMAINTVER
 70
     0
  9
$DWGCODEPAGE
  3
ANSI_1252
  9
$INSBASE
 10
0.0
 20
0.0
 30
0.0
  9
$EXTMIN
 10
0.0
 20
0.0
 30
0.0
  9
$EXTMAX
 10
317.276855
 20
355.0
 30
2.0
  9
$LIMMIN
 10
0.0
 20
0.0
  9
$LIMMAX
 10
420.0
 20
297.0
  9
$ORTHOMODE
 70
     0
  9
$REGENMODE
 70
     1
  9
$FILLMODE
 70
     1
  9
$QTEXTMODE
 70
     0
  9
$MIRRTEXT
 70
     1
  9
$DRAGMODE
 70
     2
  9
$LTSCALE
 40
1.0
  9
$OSMODE
 70
     0
  9
$ATTMODE
 70
     1
  9
$TEXTSIZE
 40
2.5
  9
$TRACEWID
 40
1.0
  9
$TEXTSTYLE
  7
STANDARD
  9
$CLAYER
  8
0
  9
$CELTYPE
  6
BYLAYER
  9
$CECOLOR
 62
   256
  9
$CELTSCALE
 40
1.0
  9
$DELOBJ
 70
     1
  9
$DISPSILH
 70
     0
  9
$DIMSCALE
 40
1.0
  9
$DIMASZ
 40
2.5
  9
$DIMEXO
 40
0.625
  9
$DIMDLI
 40
3.75
  9
$DIMRND
 40
0.0
  9
$DIMDLE
 40
0.0
  9
$DIMEXE
 40
1.25
  9
$DIMTP
 40
0.0
  9
$DIMTM
 40
0.0
  9
$DIMTXT
 40
2.5
  9
$DIMCEN
 40
2.5
  9
$DIMTSZ
 40
0.0
  9
$DIMTOL
 70
     0
  9
$DIMLIM
 70
     0
  9
$DIMTIH
 70
     0
  9
$DIMTOH
 70
     0
  9
$DIMSE1
 70
     0
  9
$DIMSE2
 70
     0
  9
$DIMTAD
 70
     1
  9
$DIMZIN
 70
     8
  9
$DIMBLK
  1

  9
$DIMASO
 70
     1
  9
$DIMSHO
 70
     1
  9
$DIMPOST
  1

  9
$DIMAPOST
  1

  9
$DIMALT
 70
     0
  9
$DIMALTD
 70
     3
  9
$DIMALTF
 40
0.03937
  9
$DIMLFAC
 40
1.0
  9
$DIMTOFL
 70
     1
  9
$DIMTVP
 40
0.0
  9
$DIMTIX
 70
     0
  9
$DIMSOXD
 70
     0
  9
$DIMSAH
 70
     0
  9
$DIMBLK1
  1

  9
$DIMBLK2
  1

  9
$DIMSTYLE
  2
STANDARD
  9
$DIMCLRD
 70
     0
  9
$DIMCLRE
 70
     0
  9
$DIMCLRT
 70
     0
  9
$DIMTFAC
 40
1.0
  9
$DIMGAP
 40
0.625
  9
$DIMJUST
 70
     0
  9
$DIMSD1
 70
     0
  9
$DIMSD2
 70
     0
  9
$DIMTOLJ
 70
     0
  9
$DIMTZIN
 70
     8
  9
$DIMALTZ
 70
     0
  9
$DIMALTTZ
 70
     0
  9
$DIMFIT
 70
     0
  9
$DIMUPT
 70
     0
  9
$DIMUNIT
 70
     2
  9
$DIMDEC
 70
     2
  9
$DIMTDEC
 70
     2
  9
$DIMALTU
 70
     2
  9
$DIMALTTD
 70
     3
  9
$DIMTXSTY
  7
STANDARD
  9
$DIMAUNIT
 70
     0
  9
$LUNITS
 70
     2
  9
$LUPREC
 70
     4
  9
$SKETCHINC
 40
1.0
  9
$FILLETRAD
 40
2.5
  9
$AUNITS
 70
     0
  9
$AUPREC
 70
     0
  9
$MENU
  1
.
  9
$ELEVATION
 40
0.0
  9
$PELEVATION
 40
0.0
  9
$THICKNESS
 40
0.0
  9
$LIMCHECK
 70
     0
  9
$BLIPMODE
 70
     1
  9
$CHAMFERA
 40
2.5
  9
$CHAMFERB
 40
2.5
  9
$CHAMFERC
 40
0.0
  9
$CHAMFERD
 40
0.0
  9
$SKPOLY
 70
     0
  9
$TDCREATE
 40
0.000000000
  9
$TDUPDATE
 40
0.000000000
  9
$TDINDWG
 40
0.0000000000
  9
$TDUSRTIMER
 40
0.0000000000
  9
$USRTIMER
 70
     1
  9
$ANGBASE
 50
0.0
  9
$ANGDIR
 70
     0
  9
$PDMODE
 70
     0
  9
$PDSIZE
 40
0.0
  9
$PLINEWID
 40
0.0
  9
$COORDS
 70
     0
  9
$SPLFRAME
 70
     0
  9
$SPLINETYPE
 70
     6
  9
$SPLINESEGS
 70
     8
  9
$ATTDIA
 70
     0
  9
$ATTREQ
 70
     1
  9
$HANDLING
 70
     1
  9
$HANDSEED
  5
8AE
  9
$SURFTAB1
 70
     6
  9
$SURFTAB2
 70
     6
  9
$SURFTYPE
 70
     6
  9
$SURFU
 70
     6
  9
$SURFV
 70
     6
  9
$UCSNAME
  2

  9
$UCSORG
 10
0.0
 20
0.0
 30
0.0
  9
$UCSXDIR
 10
1.0
 20
0.0
 30
0.0
  9
$UCSYDIR
 10
0.0
 20
1.0
 30
0.0
  9
$PUCSNAME
  2

  9
$PUCSORG
 10
0.0
 20
0.0
 30
0.0
  9
$PUCSXDIR
 10
1.0
 20
0.0
 30
0.0
  9
$PUCSYDIR
 10
0.0
 20
1.0
 30
0.0
  9
$USERI1
 70
     0
  9
$USERI2
 70
     0
  9
$USERI3
 70
     0
  9
$USERI4
 70
     0
  9
$USERI5
 70
     0
  9
$USERR1
 40
0.0
  9
$USERR2
 40
0.0
  9
$USERR3
 40
0.0
  9
$USERR4
 40
0.0
  9
$USERR5
 40
0.0
  9
$WORLDVIEW
 70
     1
  9
$SHADEDGE
 70
     3
  9
$SHADEDIF
 70
    70
  9
$TILEMODE
 70
     1
  9
$MAXACTVP
 70
    48
  9
$PINSBASE
 10
0.0
 20
0.0
 30
0.0
  9
$PLIMCHECK
 70
     0
  9
$PEXTMIN
 10
0.0
 20
0.0
 30
0.0
  9
$PEXTMAX
 10
317.276855
 20
355.0
 30
2.0
  9
$PLIMMIN
 10
0.0
 20
0.0
  9
$PLIMMAX
 10
420.0
 20
297.0
  9
$UNITMODE
 70
     0
  9
$VISRETAIN
 70
     0
  9
$PLINEGEN
 70
     0
  9
$PSLTSCALE
 70
     1
  9
$TREEDEPTH
 70
  3020
  9
$PICKSTYLE
 70
     1
  9
$CMLSTYLE
  2
STANDARD
  9
$CMLJUST
 70
     0
  9
$CMLSCALE
 40
20.0
  9
$PROXYGRAPHICS
 70
     1
  9
$MEASUREMENT
 70
     1
  0
ENDSEC
  0
SECTION
  2
CLASSES
  0
CLASS
  1
LWPOLYLINE
  2
AcDbPolyline
  3
"AutoCAD"
 90
        0
280
     0
281
     1
  0
CLASS
  1
IMAGE
  2
AcDbRasterImage
  3
ISM
 90
      127
280
     0
281
     1
  0
CLASS
  1
OLE2FRAME
  2
AcDbOle2Frame
  3
""
 90
        0
280
     0
281
     1
  0
CLASS
  1
HATCH
  2
AcDbHatch
  3
"ACAD_SEDONA"
 90
        0
280
     0
281
     1
  0
CLASS
  1
DICTIONARYVAR
  2
AcDbDictionaryVar
  3
"AutoCAD"
 90
        0
280
     0
281
     0
  0
CLASS
  1
RASTERVARIABLES
  2
AcDbRasterVariables
  3
ISM
 90
        0
280
     0
281
     0
  0
CLASS
  1
IMAGEDEF
  2
AcDbRasterImageDef
  3
ISM
 90
        0
280
     0
281
     0
  0
CLASS
  1
IMAGEDEF_REACTOR
  2
AcDbRasterImageDefReactor
  3
ISM
 90
        1
280
     0
281
     0
  0
CLASS
  1
IDBUFFER
  2
AcDbIdBuffer
  3
"Acad"
 90
        0
280
     0
281
     0
  0
CLASS
  1
SPATIAL_FILTER
  2
AcDbSpatialFilter
  3
"Acad"
 90
        0
280
     0
281
     0
  0
CLASS
  1
XRECORD
  2
AcDbXrecord
  3
"<Built In>"
 90
        0
280
     0
281
     0
  0
CLASS
  1
SORTENTSTABLE
  2
AcDbSortentsTable
  3
"AutoCAD"
 90
        0
280
     0
281
     0
  0
CLASS
  1
LAYER_INDEX
  2
AcDbLayerIndex
  3
"Acad"
 90
        0
280
     0
281
     0
  0
CLASS
  1
SPATIAL_INDEX
  2
AcDbSpatialIndex
  3
"Acad"
 90
        0
280
     0
281
     0
  0
CLASS
  1
OBJECT_PTR
  2
CAseDLPNTableRecord
  3
"ASE-LPNTableRecord"
 90
        1
280
     0
281
     0
  0
CLASS
  1
LAYOUT
  2
AcDbLayout
  3
"AutoCAD 2000"
 90
        0
280
     0
281
     0
  0
CLASS
  1
PLOTSETTINGS
  2
AcDbPlotSettings
  3
"AutoCAD 2000"
 90
        0
280
     0
281
     0
  0
CLASS
  1
ACDBDICTIONARYWDFLT
  2
AcDbDictionaryWithDefault
  3
"AutoCAD 2000"
 90
        0
280
     0
281
     0
  0
CLASS
  1
ACDBPLACEHOLDER
  2
AcDbPlaceHolder
  3
"AutoCAD 2000"
 90
        0
280
     0
281
     0
  0
CLASS
  1
VBA_PROJECT
  2
AcDbVbaProject
  3
"acadvba"
 90
        0
280
     0
281
     0
  0
CLASS
  1
WIPEOUT
  2
AcDbWipeout
  3
WipeOut|AutoCAD Express Tool|expresstools@autodesk.com
 90
      127
280
     0
281
     1
  0
CLASS
  1
WIPEOUTVARIABLES
  2
AcDbWipeoutVariables
  3
WipeOut|AutoCAD Express Tool|expresstools@autodesk.com
 90
        0
280
     0
281
     0
  0
CLASS
  1
RTEXT
  2
RText
  3
RText|AutoCAD Express Tool|expresstools@autodesk.com
 90
        0
280
     0
281
     1
  0
CLASS
  1
ARCALIGNEDTEXT
  2
AcDbArcAlignedText
  3
ATEXT|AutoCAD Express Tool|expresstools@autodesk.com
 90
        0
280
     0
281
     1
  0
ENDSEC
  0
SECTION
  2
TABLES
  0
TABLE
  2
VPORT
  5
7
100
AcDbSymbolTable
 70
     1
  0
VPORT
  5
15
100
AcDbSymbolTableRecord
100
AcDbViewportTableRecord
  2
*ACTIVE
 70
     0
 10
0.0
 20
0.0
 11
1.0
 21
1.0
 12
6.591288
 22
4.579184
 13
0.0
 23
0.0
 14
1.0
 24
1.0
 15
0.0
 25
0.0
 16
0.0
 26
0.0
 36
1.0
 17
0.0
 27
0.0
 37
0.0
 40
9.158369
 41
0.688564
 42
50.0
 43
0.0
 44
0.0
 50
0.0
 51
0.0
 71
     0
 72
   100
 73
     1
 74
     1
 75
     0
 76
     0
 77
     0
 78
     0
  0
ENDTAB
  0
TABLE
  2
LTYPE
  5
4
100
AcDbSymbolTable
 70
    10
  0
LTYPE
  5
11
100
AcDbSymbolTableRecord
100
AcDbLinetypeTableRecord
  2
BYBLOCK
 70
    64
  3

 72
    65
 73
     0
 40
0.0
  0
LTYPE
  5
12
100
AcDbSymbolTableRecord
100
AcDbLinetypeTableRecord
  2
BYLAYER
 70
    64
  3

 72
    65
 73
     0
 40
0.0
  0
LTYPE
  5
13
100
AcDbSymbolTableRecord
100
AcDbLinetypeTableRecord
  2
CONTINUOUS
 70
    64
  3
Solid line
 72
    65
 73
     0
 40
0.0
  0
LTYPE
  5
1D
100
AcDbSymbolTableRecord
100
AcDbLinetypeTableRecord
  2
DASHED
 70
     0
  3
__ __ __ __ __ __ __ __ __ __ __ __ __ __ __ __
 72
    65
 73
     2
 40
15.0
 49
12.0
 74
     0
 49
-3.0
 74
     0
  0
LTYPE
  5
1E
100
AcDbSymbolTableRecord
100
AcDbLinetypeTableRecord
  2
DASHDOT
 70
     0
  3
 __ . __ . __ . __ . __ . __ . __ . 
 72
    65
 73
     4
 40
18.5
 49
12.0
 74
     0
 49
-3.0
 74
     0
 49
0.5
 74
     0
 49
-3.0
 74
     0
  0
LTYPE
  5
1F
100
AcDbSymbolTableRecord
100
AcDbLinetypeTableRecord
  2
DOT
 70
     0
  3
 . . . . . . . . . . . . . . . .
 72
    65
 73
     2
 40
3.5
 49
0.5
 74
     0
 49
-3.0
 74
     0
  0
LTYPE
  5
20
100
AcDbSymbolTableRecord
100
AcDbLinetypeTableRecord
  2
DASHSPACE
 70
     0
  3
__    __    __    __    __   
 72
    65
 73
     2
 40
30.0
 49
12.0
 74
     0
 49
-18.0
 74
     0
  0
LTYPE
  5
21
100
AcDbSymbolTableRecord
100
AcDbLinetypeTableRecord
  2
DASHDOT2
 70
     0
  3
__ . . __ . . __ . . __ 
 72
    65
 73
     6
 40
22.0
 49
12.0
 74
     0
 49
-3.0
 74
     0
 49
0.5
 74
     0
 49
-3.0
 74
     0
 49
0.5
 74
     0
 49
-3.0
 74
     0
  0
LTYPE
  5
22
100
AcDbSymbolTableRecord
100
AcDbLinetypeTableRecord
  2
PHANTOM
 70
     0
  3
____________    ____    ____   _
 72
    65
 73
     6
 40
20.0
 49
10.0
 74
     0
 49
-2.0
 74
     0
 49
2.0
 74
     0
 49
-2.0
 74
     0
 49
2.0
 74
     0
 49
-2.0
 74
     0
  0
LTYPE
  5
23
100
AcDbSymbolTableRecord
100
AcDbLinetypeTableRecord
  2
AXES
 70
     0
  3
________  __  ________  __  _____
 72
    65
 73
     4
 40
24.0
 49
15.0
 74
     0
 49
-3.0
 74
     0
 49
3.0
 74
     0
 49
-3.0
 74
     0
  0
ENDTAB
  0
TABLE
  2
LAYER
  5
2
100
AcDbSymbolTable
 70
     1
  0
LAYER
  5
14
100
AcDbSymbolTableRecord
100
AcDbLayerTableRecord
  2
0
 70
     0
 62
     7
  6
CONTINUOUS
  0
ENDTAB
  0
TABLE
  2
STYLE
  5
3
100
AcDbSymbolTable
 70
     2
  0
STYLE
  5
17
100
AcDbSymbolTableRecord
100
AcDbTextStyleTableRecord
  2
STANDARD
 70
     0
 40
0.0
 41
1.0
 50
0.0
 71
     0
 42
0.0
  3
isocp.shx
  4

  0
STYLE
  5
24
100
AcDbSymbolTableRecord
100
AcDbTextStyleTableRecord
  2
GDT
 70
     0
 40
0.0
 41
1.0
 50
0.0
 71
     0
 42
0.0
  3
amgdt.shx
  4

  0
ENDTAB
  0
TABLE
  2
VIEW
  5
5
100
AcDbSymbolTable
 70
     0
  0
ENDTAB
  0
TABLE
  2
UCS
  5
6
100
AcDbSymbolTable
 70
     0
  0
ENDTAB
  0
TABLE
  2
APPID
  5
8
100
AcDbSymbolTable
 70
     1
  0
APPID
  5
16
100
AcDbSymbolTableRecord
100
AcDbRegAppTableRecord
  2
ACAD
 70
     0
  0
ENDTAB
  0
TABLE
  2
DIMSTYLE
  5
9
100
AcDbSymbolTable
 70
     1
  0
DIMSTYLE
105
18
100
AcDbSymbolTableRecord
100
AcDbDimStyleTableRecord
  2
STANDARD
 70
     0
  3

  4

  5

  6

  7

 40
1.0
 41
2.5
 42
0.625
 43
3.75
 44
1.25
 45
0.0
 46
0.0
 47
0.0
 48
0.0
 71
     0
 72
     0
 73
     0
 74
     0
 75
     0
 76
     0
 77
     1
 78
     8
140
2.5
141
2.5
142
0.0
143
0.03937
144
1.0
145
0.0
146
1.0
147
0.625
170
     0
171
     3
172
     1
173
     0
174
     0
175
     0
176
     0
177
     0
178
     0
270
     2
271
     2
272
     2
273
     2
274
     3
275
     0
280
     0
281
     0
282
     0
283
     0
284
     8
285
     0
286
     0
287
     0
288
     0
340
0
  0
ENDTAB
  0
TABLE
  2
BLOCK_RECORD
  5
1
100
AcDbSymbolTable
 70
    47
  0
BLOCK_RECORD
  5
A
100
AcDbSymbolTableRecord
100
AcDbBlockTableRecord
  2
*MODEL_SPACE
  0
BLOCK_RECORD
  5
B
100
AcDbSymbolTableRecord
100
AcDbBlockTableRecord
  2
*PAPER_SPACE
  0
BLOCK_RECORD
  5
629
100
AcDbSymbolTableRecord
100
AcDbBlockTableRecord
  2
BLOCK0
  0
BLOCK_RECORD
  5
62A
100
AcDbSymbolTableRecord
100
AcDbBlockTableRecord
  2
BLOCK1
  0
BLOCK_RECORD
  5
62B
100
AcDbSymbolTableRecord
100
AcDbBlockTableRecord
  2
BLOCK2
  0
BLOCK_RECORD
  5
62C
100
AcDbSymbolTableRecord
100
AcDbBlockTableRecord
  2
BLOCK3
  0
BLOCK_RECORD
  5
62D
100
AcDbSymbolTableRecord
100
AcDbBlockTableRecord
  2
BLOCK4
  0
BLOCK_RECORD
  5
62E
100
AcDbSymbolTableRecord
100
AcDbBlockTableRecord
  2
BLOCK5
  0
BLOCK_RECORD
  5
62F
100
AcDbSymbolTableRecord
100
AcDbBlockTableRecord
  2
BLOCK6
  0
BLOCK_RECORD
  5
630
100
AcDbSymbolTableRecord
100
AcDbBlockTableRecord
  2
BLOCK7
  0
BLOCK_RECORD
  5
631
100
AcDbSymbolTableRecord
100
AcDbBlockTableRecord
  2
BLOCK8
  0
BLOCK_RECORD
  5
632
100
AcDbSymbolTableRecord
100
AcDbBlockTableRecord
  2
BLOCK9
  0
BLOCK_RECORD
  5
633
100
AcDbSymbolTableRecord
100
AcDbBlockTableRecord
  2
BLOCK10
  0
BLOCK_RECORD
  5
634
100
AcDbSymbolTableRecord
100
AcDbBlockTableRecord
  2
BLOCK11
  0
BLOCK_RECORD
  5
635
100
AcDbSymbolTableRecord
100
AcDbBlockTableRecord
  2
BLOCK12
  0
BLOCK_RECORD
  5
636
100
AcDbSymbolTableRecord
100
AcDbBlockTableRecord
  2
BLOCK13
  0
BLOCK_RECORD
  5
637
100
AcDbSymbolTableRecord
100
AcDbBlockTableRecord
  2
BLOCK14
  0
BLOCK_RECORD
  5
638
100
AcDbSymbolTableRecord
100
AcDbBlockTableRecord
  2
BLOCK15
  0
BLOCK_RECORD
  5
639
100
AcDbSymbolTableRecord
100
AcDbBlockTableRecord
  2
BLOCK16
  0
BLOCK_RECORD
  5
63A
100
AcDbSymbolTableRecord
100
AcDbBlockTableRecord
  2
BLOCK17
  0
BLOCK_RECORD
  5
63B
100
AcDbSymbolTableRecord
100
AcDbBlockTableRecord
  2
BLOCK18
  0
BLOCK_RECORD
  5
63C
100
AcDbSymbolTableRecord
100
AcDbBlockTableRecord
  2
BLOCK19
  0
BLOCK_RECORD
  5
63D
100
AcDbSymbolTableRecord
100
AcDbBlockTableRecord
  2
BLOCK20
  0
BLOCK_RECORD
  5
63E
100
AcDbSymbolTableRecord
100
AcDbBlockTableRecord
  2
BLOCK21
  0
BLOCK_RECORD
  5
63F
100
AcDbSymbolTableRecord
100
AcDbBlockTableRecord
  2
BLOCK22
  0
BLOCK_RECORD
  5
640
100
AcDbSymbolTableRecord
100
AcDbBlockTableRecord
  2
BLOCK23
  0
BLOCK_RECORD
  5
641
100
AcDbSymbolTableRecord
100
AcDbBlockTableRecord
  2
BLOCK24
  0
BLOCK_RECORD
  5
642
100
AcDbSymbolTableRecord
100
AcDbBlockTableRecord
  2
BLOCK25
  0
BLOCK_RECORD
  5
643
100
AcDbSymbolTableRecord
100
AcDbBlockTableRecord
  2
BLOCK26
  0
BLOCK_RECORD
  5
644
100
AcDbSymbolTableRecord
100
AcDbBlockTableRecord
  2
BLOCK27
  0
BLOCK_RECORD
  5
645
100
AcDbSymbolTableRecord
100
AcDbBlockTableRecord
  2
BLOCK28
  0
BLOCK_RECORD
  5
646
100
AcDbSymbolTableRecord
100
AcDbBlockTableRecord
  2
BLOCK29
  0
BLOCK_RECORD
  5
647
100
AcDbSymbolTableRecord
100
AcDbBlockTableRecord
  2
BLOCK30
  0
BLOCK_RECORD
  5
648
100
AcDbSymbolTableRecord
100
AcDbBlockTableRecord
  2
BLOCK31
  0
BLOCK_RECORD
  5
649
100
AcDbSymbolTableRecord
100
AcDbBlockTableRecord
  2
BLOCK32
  0
BLOCK_RECORD
  5
64A
100
AcDbSymbolTableRecord
100
AcDbBlockTableRecord
  2
BLOCK33
  0
BLOCK_RECORD
  5
64B
100
AcDbSymbolTableRecord
100
AcDbBlockTableRecord
  2
BLOCK34
  0
BLOCK_RECORD
  5
64C
100
AcDbSymbolTableRecord
100
AcDbBlockTableRecord
  2
BLOCK35
  0
BLOCK_RECORD
  5
64D
100
AcDbSymbolTableRecord
100
AcDbBlockTableRecord
  2
BLOCK36
  0
BLOCK_RECORD
  5
64E
100
AcDbSymbolTableRecord
100
AcDbBlockTableRecord
  2
BLOCK37
  0
BLOCK_RECORD
  5
64F
100
AcDbSymbolTableRecord
100
AcDbBlockTableRecord
  2
BLOCK38
  0
BLOCK_RECORD
  5
650
100
AcDbSymbolTableRecord
100
AcDbBlockTableRecord
  2
BLOCK39
  0
BLOCK_RECORD
  5
651
100
AcDbSymbolTableRecord
100
AcDbBlockTableRecord
  2
BLOCK40
  0
BLOCK_RECORD
  5
652
100
AcDbSymbolTableRecord
100
AcDbBlockTableRecord
  2
BLOCK41
  0
BLOCK_RECORD
  5
653
100
AcDbSymbolTableRecord
100
AcDbBlockTableRecord
  2
BLOCK42
  0
BLOCK_RECORD
  5
654
100
AcDbSymbolTableRecord
100
AcDbBlockTableRecord
  2
BLOCK43
  0
BLOCK_RECORD
  5
655
100
AcDbSymbolTableRecord
100
AcDbBlockTableRecord
  2
BLOCK44
  0
BLOCK_RECORD
  5
656
100
AcDbSymbolTableRecord
100
AcDbBlockTableRecord
  2
BLOCK45
  0
BLOCK_RECORD
  5
657
100
AcDbSymbolTableRecord
100
AcDbBlockTableRecord
  2
BLOCK46
  0
ENDTAB
  0
ENDSEC
  0
SECTION
  2
BLOCKS
  0
BLOCK
  5
D
100
AcDbEntity
  8
0
100
AcDbBlockBegin
  2
*MODEL_SPACE
 70
     0
 10
0.0
 20
0.0
 30
0.0
  3
*MODEL_SPACE
  1

  0
ENDBLK
  5
E
100
AcDbEntity
  8
0
100
AcDbBlockEnd
  0
BLOCK
  5
F
100
AcDbEntity
 67
     1
  8
0
100
AcDbBlockBegin
  2
*PAPER_SPACE
 70
     0
 10
0.0
 20
0.0
 30
0.0
  3
*PAPER_SPACE
  1

  0
ENDBLK
  5
10
100
AcDbEntity
 67
     1
  8
0
100
AcDbBlockEnd
  0
BLOCK
  5
658
100
AcDbEntity
  8
0
100
AcDbBlockBegin
  2
BLOCK0
 70
     0
 10
0.0
 20
0.0
 30
0.0
  3
BLOCK0
  1

  0
TEXT
  5
659
100
AcDbEntity
  8
0
 62
     7
100
AcDbText
 10
151.0
 20
336.0
 30
0.0
 40
2.0
  1
N0216 2007-12-07
 41
0.7
 72
     5
 11
170.006973
 21
336.0
 31
0.0
100
AcDbText
  0
ENDBLK
  5
65A
100
AcDbEntity
  8
0
100
AcDbBlockEnd
  0
BLOCK
  5
65B
100
AcDbEntity
  8
0
100
AcDbBlockBegin
  2
BLOCK1
 70
     0
 10
0.0
 20
0.0
 30
0.0
  3
BLOCK1
  1

  0
TEXT
  5
65C
100
AcDbEntity
  8
0
 62
     7
100
AcDbText
 10
229.588608
 20
323.75
 30
0.0
 40
4.5
  1
1SDH000437R0.195
 41
0.99
 72
     5
 11
302.411377
 21
323.75
 31
0.0
100
AcDbText
  0
ENDBLK
  5
65D
100
AcDbEntity
  8
0
100
AcDbBlockEnd
  0
BLOCK
  5
65E
100
AcDbEntity
  8
0
100
AcDbBlockBegin
  2
BLOCK2
 70
     0
 10
0.0
 20
0.0
 30
0.0
  3
BLOCK2
  1

  0
TEXT
  5
65F
100
AcDbEntity
  8
0
 62
     7
100
AcDbText
 10
259.872467
 20
333.75
 30
0.0
 40
2.5
  1
T5
 41
0.99
 72
     5
 11
264.127502
 21
333.75
 31
0.0
100
AcDbText
  0
ENDBLK
  5
660
100
AcDbEntity
  8
0
100
AcDbBlockEnd
  0
BLOCK
  5
661
100
AcDbEntity
  8
0
100
AcDbBlockBegin
  2
BLOCK3
 70
     0
 10
0.0
 20
0.0
 30
0.0
  3
BLOCK3
  1

  0
TEXT
  5
662
100
AcDbEntity
  8
0
 62
     7
100
AcDbText
 10
234.723129
 20
353.0
 30
0.0
 40
2.0
  1
3-4 POLE LOW VOLTAGE M.C.C.B. SERIES "T"
 72
     5
 11
317.276855
 21
353.0
 31
0.0
100
AcDbText
  0
TEXT
  5
663
100
AcDbEntity
  8
0
 62
     7
100
AcDbText
 10
248.257278
 20
349.0
 30
0.0
 40
2.0
  1
FIXED VERS. IP42 PROTECTION
 72
     5
 11
303.742706
 21
349.0
 31
0.0
100
AcDbText
  0
TEXT
  5
664
100
AcDbEntity
  8
0
 62
     7
100
AcDbText
 10
248.257278
 20
345.0
 30
0.0
 40
2.0
  1
INTERR.AUTOMATICO SERIE "T"
 72
     5
 11
303.742706
 21
345.0
 31
0.0
100
AcDbText
  0
TEXT
  5
665
100
AcDbEntity
  8
0
 62
     7
100
AcDbText
 10
244.092926
 20
341.0
 30
0.0
 40
2.0
  1
III-IV ES.FISSA PROTEZIONE IP42
 72
     5
 11
307.907074
 21
341.0
 31
0.0
100
AcDbText
  0
ENDBLK
  5
666
100
AcDbEntity
  8
0
100
AcDbBlockEnd
  0
BLOCK
  5
667
100
AcDbEntity
  8
0
100
AcDbBlockBegin
  2
BLOCK4
 70
     0
 10
0.0
 20
0.0
 30
0.0
  3
BLOCK4
  1

  0
TEXT
  5
668
100
AcDbEntity
  8
0
 62
     7
100
AcDbText
 10
-4.051117
 20
-88.979095
 30
0.0
 40
3.5
  1
Y
 72
     5
 11
-1.015094
 21
-88.979095
 31
0.0
100
AcDbText
  0
ENDBLK
  5
669
100
AcDbEntity
  8
0
100
AcDbBlockEnd
  0
BLOCK
  5
66A
100
AcDbEntity
  8
0
100
AcDbBlockBegin
  2
BLOCK5
 70
     0
 10
0.0
 20
0.0
 30
0.0
  3
BLOCK5
  1

  0
TEXT
  5
66B
100
AcDbEntity
  8
0
 62
     7
100
AcDbText
 10
-93.807755
 20
5.725773
 30
0.0
 40
3.5
  1
X
 72
     5
 11
-90.771729
 21
5.725773
 31
0.0
100
AcDbText
  0
ENDBLK
  5
66C
100
AcDbEntity
  8
0
100
AcDbBlockEnd
  0
BLOCK
  5
66D
100
AcDbEntity
  8
0
100
AcDbBlockBegin
  2
BLOCK6
 70
     0
 10
0.0
 20
0.0
 30
0.0
  3
BLOCK6
  1

  0
TEXT
  5
66E
100
AcDbEntity
  8
0
 62
     7
100
AcDbText
 10
-3.0
 20
100.143372
 30
0.0
 40
3.5
  1
Y
 72
     5
 11
0.036023
 21
100.143372
 31
0.0
100
AcDbText
  0
ENDBLK
  5
66F
100
AcDbEntity
  8
0
100
AcDbBlockEnd
  0
BLOCK
  5
670
100
AcDbEntity
  8
0
100
AcDbBlockBegin
  2
BLOCK7
 70
     0
 10
0.0
 20
0.0
 30
0.0
  3
BLOCK7
  1

  0
TEXT
  5
671
100
AcDbEntity
  8
0
 62
     7
100
AcDbText
 10
82.662308
 20
4.953369
 30
0.0
 40
3.5
  1
X
 72
     5
 11
85.698334
 21
4.953369
 31
0.0
100
AcDbText
  0
ENDBLK
  5
672
100
AcDbEntity
  8
0
100
AcDbBlockEnd
  0
BLOCK
  5
673
100
AcDbEntity
  8
0
100
AcDbBlockBegin
  2
BLOCK8
 70
     0
 10
0.0
 20
0.0
 30
0.0
  3
BLOCK8
  1

  0
TEXT
  5
674
100
AcDbEntity
  8
0
 62
     5
100
AcDbText
 10
-118.503128
 20
24.121346
 30
0.0
 40
3.5
  1
60.5
 50
90.000003
 72
     5
 11
-118.503128
 21
38.365437
 31
0.0
100
AcDbText
  0
LINE
  5
675
100
AcDbEntity
  8
0
 62
     5
100
AcDbLine
 10
-76.761398
 20
0.0
 30
0.0
 11
-118.503128
 21
0.0
 31
0.0
210
0.0
220
0.0
230
1.0
  0
LINE
  5
676
100
AcDbEntity
  8
0
 62
     5
100
AcDbLine
 10
-55.5
 20
60.5
 30
0.0
 11
-118.503128
 21
60.5
 31
0.0
210
0.0
220
0.0
230
1.0
  0
POLYLINE
  5
677
100
AcDbEntity
  8
0
 62
     5
100
AcDb2dPolyline
 66
     1
 10
0.0
 20
0.0
 30
0.0
 71
     3
  0
VERTEX
  5
678
100
AcDbEntity
  8
0
100
AcDbVertex
100
AcDb2dVertex
 10
-115.985489
 20
58.56815
 30
0.0
  0
VERTEX
  5
679
100
AcDbEntity
  8
0
100
AcDbVertex
100
AcDb2dVertex
 10
-116.503128
 20
60.5
 30
0.0
  0
VERTEX
  5
67A
100
AcDbEntity
  8
0
100
AcDbVertex
100
AcDb2dVertex
 10
-117.020767
 20
58.56815
 30
0.0
  0
SEQEND
  5
67B
100
AcDbEntity
  8
0
  0
POLYLINE
  5
67C
100
AcDbEntity
  8
0
 62
     5
100
AcDb2dPolyline
 66
     1
 10
0.0
 20
0.0
 30
0.0
 71
     3
  0
VERTEX
  5
67D
100
AcDbEntity
  8
0
100
AcDbVertex
100
AcDb2dVertex
 10
-117.020767
 20
1.931852
 30
0.0
  0
VERTEX
  5
67E
100
AcDbEntity
  8
0
100
AcDbVertex
100
AcDb2dVertex
 10
-116.503128
 20
0.0
 30
0.0
  0
VERTEX
  5
67F
100
AcDbEntity
  8
0
100
AcDbVertex
100
AcDb2dVertex
 10
-115.985489
 20
1.931852
 30
0.0
  0
SEQEND
  5
680
100
AcDbEntity
  8
0
  0
LINE
  5
681
100
AcDbEntity
  8
0
 62
     5
100
AcDbLine
 10
-116.503128
 20
0.0
 30
0.0
 11
-116.503128
 21
60.5
 31
0.0
210
0.0
220
0.0
230
1.0
  0
ENDBLK
  5
682
100
AcDbEntity
  8
0
100
AcDbBlockEnd
  0
BLOCK
  5
683
100
AcDbEntity
  8
0
100
AcDbBlockBegin
  2
BLOCK9
 70
     0
 10
0.0
 20
0.0
 30
0.0
  3
BLOCK9
  1

  0
TEXT
  5
684
100
AcDbEntity
  8
0
 62
     7
100
AcDbText
 10
-156.223297
 20
1.198124
 30
0.0
 40
3.5
  1
107
 50
90.000003
 72
     5
 11
-156.223297
 21
11.706194
 31
0.0
100
AcDbText
  0
LINE
  5
685
100
AcDbEntity
  8
0
 62
     7
100
AcDbLine
 10
-55.5
 20
-46.5
 30
0.0
 11
-156.223297
 21
-46.5
 31
0.0
210
0.0
220
0.0
230
1.0
  0
LINE
  5
686
100
AcDbEntity
  8
0
 62
     7
100
AcDbLine
 10
-55.5
 20
60.5
 30
0.0
 11
-156.223297
 21
60.5
 31
0.0
210
0.0
220
0.0
230
1.0
  0
POLYLINE
  5
687
100
AcDbEntity
  8
0
 62
     7
100
AcDb2dPolyline
 66
     1
 10
0.0
 20
0.0
 30
0.0
 71
     3
  0
VERTEX
  5
688
100
AcDbEntity
  8
0
100
AcDbVertex
100
AcDb2dVertex
 10
-154.740936
 20
-44.56815
 30
0.0
  0
VERTEX
  5
689
100
AcDbEntity
  8
0
100
AcDbVertex
100
AcDb2dVertex
 10
-154.223297
 20
-46.5
 30
0.0
  0
VERTEX
  5
68A
100
AcDbEntity
  8
0
100
AcDbVertex
100
AcDb2dVertex
 10
-153.705658
 20
-44.56815
 30
0.0
  0
SEQEND
  5
68B
100
AcDbEntity
  8
0
  0
POLYLINE
  5
68C
100
AcDbEntity
  8
0
 62
     7
100
AcDb2dPolyline
 66
     1
 10
0.0
 20
0.0
 30
0.0
 71
     3
  0
VERTEX
  5
68D
100
AcDbEntity
  8
0
100
AcDbVertex
100
AcDb2dVertex
 10
-153.705658
 20
58.56815
 30
0.0
  0
VERTEX
  5
68E
100
AcDbEntity
  8
0
100
AcDbVertex
100
AcDb2dVertex
 10
-154.223297
 20
60.5
 30
0.0
  0
VERTEX
  5
68F
100
AcDbEntity
  8
0
100
AcDbVertex
100
AcDb2dVertex
 10
-154.740936
 20
58.56815
 30
0.0
  0
SEQEND
  5
690
100
AcDbEntity
  8
0
  0
LINE
  5
691
100
AcDbEntity
  8
0
 62
     7
100
AcDbLine
 10
-154.223297
 20
-46.5
 30
0.0
 11
-154.223297
 21
60.5
 31
0.0
210
0.0
220
0.0
230
1.0
  0
ENDBLK
  5
692
100
AcDbEntity
  8
0
100
AcDbBlockEnd
  0
BLOCK
  5
693
100
AcDbEntity
  8
0
100
AcDbBlockBegin
  2
BLOCK10
 70
     0
 10
0.0
 20
0.0
 30
0.0
  3
BLOCK10
  1

  0
TEXT
  5
694
100
AcDbEntity
  8
0
 62
     7
100
AcDbText
 10
-10.797361
 20
-126.80809
 30
0.0
 40
3.5
  1
107
 72
     5
 11
-0.289292
 21
-126.80809
 31
0.0
100
AcDbText
  0
LINE
  5
695
100
AcDbEntity
  8
0
 62
     7
100
AcDbLine
 10
-53.5
 20
-48.5
 30
0.0
 11
-53.5
 21
-130.80809
 31
0.0
210
0.0
220
0.0
230
1.0
  0
LINE
  5
696
100
AcDbEntity
  8
0
 62
     7
100
AcDbLine
 10
53.5
 20
-48.5
 30
0.0
 11
53.5
 21
-130.80809
 31
0.0
210
0.0
220
0.0
230
1.0
  0
POLYLINE
  5
697
100
AcDbEntity
  8
0
 62
     7
100
AcDb2dPolyline
 66
     1
 10
0.0
 20
0.0
 30
0.0
 71
     3
  0
VERTEX
  5
698
100
AcDbEntity
  8
0
100
AcDbVertex
100
AcDb2dVertex
 10
51.56815
 20
-129.325729
 30
0.0
  0
VERTEX
  5
699
100
AcDbEntity
  8
0
100
AcDbVertex
100
AcDb2dVertex
 10
53.5
 20
-128.80809
 30
0.0
  0
VERTEX
  5
69A
100
AcDbEntity
  8
0
100
AcDbVertex
100
AcDb2dVertex
 10
51.56815
 20
-128.290451
 30
0.0
  0
SEQEND
  5
69B
100
AcDbEntity
  8
0
  0
POLYLINE
  5
69C
100
AcDbEntity
  8
0
 62
     7
100
AcDb2dPolyline
 66
     1
 10
0.0
 20
0.0
 30
0.0
 71
     3
  0
VERTEX
  5
69D
100
AcDbEntity
  8
0
100
AcDbVertex
100
AcDb2dVertex
 10
-51.56815
 20
-128.290451
 30
0.0
  0
VERTEX
  5
69E
100
AcDbEntity
  8
0
100
AcDbVertex
100
AcDb2dVertex
 10
-53.5
 20
-128.80809
 30
0.0
  0
VERTEX
  5
69F
100
AcDbEntity
  8
0
100
AcDbVertex
100
AcDb2dVertex
 10
-51.56815
 20
-129.325729
 30
0.0
  0
SEQEND
  5
6A0
100
AcDbEntity
  8
0
  0
LINE
  5
6A1
100
AcDbEntity
  8
0
 62
     7
100
AcDbLine
 10
-53.5
 20
-128.80809
 30
0.0
 11
53.5
 21
-128.80809
 31
0.0
210
0.0
220
0.0
230
1.0
  0
ENDBLK
  5
6A2
100
AcDbEntity
  8
0
100
AcDbBlockEnd
  0
BLOCK
  5
6A3
100
AcDbEntity
  8
0
100
AcDbBlockBegin
  2
BLOCK11
 70
     0
 10
0.0
 20
0.0
 30
0.0
  3
BLOCK11
  1

  0
POINT
  5
6A4
100
AcDbEntity
  8
0
 62
     7
100
AcDbPoint
 10
-3.0
 20
87.93158
 30
0.0
210
0.0
220
0.0
230
1.0
  0
LINE
  5
6A5
100
AcDbEntity
  8
0
 62
     7
 48
0.1
100
AcDbLine
 10
-11.0
 20
89.93158
 30
0.0
 11
-7.0
 21
89.93158
 31
0.0
210
0.0
220
0.0
230
1.0
  0
LINE
  5
6A6
100
AcDbEntity
  8
0
 62
     7
 48
0.0875
100
AcDbLine
 10
-10.5
 20
90.43158
 30
0.0
 11
-7.0
 21
90.43158
 31
0.0
210
0.0
220
0.0
230
1.0
  0
LINE
  5
6A7
100
AcDbEntity
  8
0
 62
     7
 48
0.1
100
AcDbLine
 10
-11.0
 20
85.93158
 30
0.0
 11
-11.0
 21
89.93158
 31
0.0
210
0.0
220
0.0
230
1.0
  0
LINE
  5
6A8
100
AcDbEntity
  8
0
  6
DASHDOT
 62
     7
 48
0.117203
100
AcDbLine
 10
-12.546988
 20
87.93158
 30
0.0
 11
-7.858861
 21
87.93158
 31
0.0
210
0.0
220
0.0
230
1.0
  0
LINE
  5
6A9
100
AcDbEntity
  8
0
 62
     7
 48
0.017678
100
AcDbLine
 10
-11.0
 20
89.93158
 30
0.0
 11
-10.5
 21
90.43158
 31
0.0
210
0.0
220
0.0
230
1.0
  0
LINE
  5
6AA
100
AcDbEntity
  8
0
 62
     7
 48
0.125
100
AcDbLine
 10
-10.5
 20
85.43158
 30
0.0
 11
-10.5
 21
90.43158
 31
0.0
210
0.0
220
0.0
230
1.0
  0
LINE
  5
6AB
100
AcDbEntity
  8
0
 62
     7
 48
0.017678
100
AcDbLine
 10
-11.0
 20
85.93158
 30
0.0
 11
-10.5
 21
85.43158
 31
0.0
210
0.0
220
0.0
230
1.0
  0
LINE
  5
6AC
100
AcDbEntity
  8
0
 62
     7
 48
0.0875
100
AcDbLine
 10
-10.5
 20
85.43158
 30
0.0
 11
-7.0
 21
85.43158
 31
0.0
210
0.0
220
0.0
230
1.0
  0
LINE
  5
6AD
100
AcDbEntity
  8
0
 62
     7
 48
0.1
100
AcDbLine
 10
-11.0
 20
85.93158
 30
0.0
 11
-7.0
 21
85.93158
 31
0.0
210
0.0
220
0.0
230
1.0
  0
LINE
  5
6AE
100
AcDbEntity
  8
0
 62
     7
 48
0.173205
100
AcDbLine
 10
-3.0
 20
84.467476
 30
0.0
 11
-3.0
 21
91.395683
 31
0.0
210
0.0
220
0.0
230
1.0
  0
LINE
  5
6AF
100
AcDbEntity
  8
0
 62
     7
 48
0.173205
100
AcDbLine
 10
-7.0
 20
84.467476
 30
0.0
 11
-7.0
 21
91.395683
 31
0.0
210
0.0
220
0.0
230
1.0
  0
LINE
  5
6B0
100
AcDbEntity
  8
0
 62
     7
 48
0.082137
100
AcDbLine
 10
-6.642735
 20
90.240982
 30
0.0
 11
-3.357265
 21
90.240982
 31
0.0
210
0.0
220
0.0
230
1.0
  0
LINE
  5
6B1
100
AcDbEntity
  8
0
 62
     7
 48
0.082137
100
AcDbLine
 10
-6.642735
 20
92.550385
 30
0.0
 11
-3.357265
 21
92.550385
 31
0.0
210
0.0
220
0.0
230
1.0
  0
LINE
  5
6B2
100
AcDbEntity
  8
0
 62
     7
 48
0.082137
100
AcDbLine
 10
-6.642735
 20
85.622177
 30
0.0
 11
-3.357265
 21
85.622177
 31
0.0
210
0.0
220
0.0
230
1.0
  0
ARC
  5
6B3
100
AcDbEntity
  8
0
 62
     1
100
AcDbCircle
 10
-4.955342
 20
91.395683
 30
0.0
 40
2.044658
210
0.0
220
0.0
230
1.0
100
AcDbArc
 50
145.615753
 51
214.384242
  0
ARC
  5
6B4
100
AcDbEntity
  8
0
 62
     1
100
AcDbCircle
 10
0.642735
 20
87.93158
 30
0.0
 40
7.642735
210
0.0
220
0.0
230
1.0
100
AcDbArc
 50
162.412048
 51
197.587946
  0
LINE
  5
6B5
100
AcDbEntity
  8
0
  6
DASHDOT
 62
     7
 48
0.2
100
AcDbLine
 10
-9.0
 20
87.93158
 30
0.0
 11
-1.0
 21
87.93158
 31
0.0
210
0.0
220
0.0
230
1.0
  0
ARC
  5
6B6
100
AcDbEntity
  8
0
 62
     1
100
AcDbCircle
 10
-4.955342
 20
84.467476
 30
0.0
 40
2.044658
210
0.0
220
0.0
230
1.0
100
AcDbArc
 50
145.615753
 51
214.384242
  0
ARC
  5
6B7
100
AcDbEntity
  8
0
 62
     1
100
AcDbCircle
 10
-5.044658
 20
91.395683
 30
0.0
 40
2.044658
210
0.0
220
0.0
230
1.0
100
AcDbArc
 50
325.615746
 51
34.384247
  0
ARC
  5
6B8
100
AcDbEntity
  8
0
 62
     1
100
AcDbCircle
 10
-10.642735
 20
87.93158
 30
0.0
 40
7.642735
210
0.0
220
0.0
230
1.0
100
AcDbArc
 50
342.412054
 51
17.587953
  0
ARC
  5
6B9
100
AcDbEntity
  8
0
 62
     1
100
AcDbCircle
 10
-5.044658
 20
84.467476
 30
0.0
 40
2.044658
210
0.0
220
0.0
230
1.0
100
AcDbArc
 50
325.615746
 51
34.384247
  0
LINE
  5
6BA
100
AcDbEntity
  8
0
 62
     7
 48
0.082137
100
AcDbLine
 10
-6.642735
 20
83.312775
 30
0.0
 11
-3.357265
 21
83.312775
 31
0.0
210
0.0
220
0.0
230
1.0
  0
ENDBLK
  5
6BB
100
AcDbEntity
  8
0
100
AcDbBlockEnd
  0
BLOCK
  5
6BC
100
AcDbEntity
  8
0
100
AcDbBlockBegin
  2
BLOCK12
 70
     0
 10
0.0
 20
0.0
 30
0.0
  3
BLOCK12
  1

  0
POINT
  5
6BD
100
AcDbEntity
  8
0
 62
     7
100
AcDbPoint
 10
-3.0
 20
-88.06842
 30
0.0
210
0.0
220
0.0
230
1.0
  0
LINE
  5
6BE
100
AcDbEntity
  8
0
 62
     7
 48
0.1
100
AcDbLine
 10
-11.0
 20
-86.06842
 30
0.0
 11
-7.0
 21
-86.06842
 31
0.0
210
0.0
220
0.0
230
1.0
  0
LINE
  5
6BF
100
AcDbEntity
  8
0
 62
     7
 48
0.0875
100
AcDbLine
 10
-10.5
 20
-85.56842
 30
0.0
 11
-7.0
 21
-85.56842
 31
0.0
210
0.0
220
0.0
230
1.0
  0
LINE
  5
6C0
100
AcDbEntity
  8
0
 62
     7
 48
0.1
100
AcDbLine
 10
-11.0
 20
-90.06842
 30
0.0
 11
-11.0
 21
-86.06842
 31
0.0
210
0.0
220
0.0
230
1.0
  0
LINE
  5
6C1
100
AcDbEntity
  8
0
  6
DASHDOT
 62
     7
 48
0.117203
100
AcDbLine
 10
-12.546988
 20
-88.06842
 30
0.0
 11
-7.858861
 21
-88.06842
 31
0.0
210
0.0
220
0.0
230
1.0
  0
LINE
  5
6C2
100
AcDbEntity
  8
0
 62
     7
 48
0.017678
100
AcDbLine
 10
-11.0
 20
-86.06842
 30
0.0
 11
-10.5
 21
-85.56842
 31
0.0
210
0.0
220
0.0
230
1.0
  0
LINE
  5
6C3
100
AcDbEntity
  8
0
 62
     7
 48
0.125
100
AcDbLine
 10
-10.5
 20
-90.56842
 30
0.0
 11
-10.5
 21
-85.56842
 31
0.0
210
0.0
220
0.0
230
1.0
  0
LINE
  5
6C4
100
AcDbEntity
  8
0
 62
     7
 48
0.017678
100
AcDbLine
 10
-11.0
 20
-90.06842
 30
0.0
 11
-10.5
 21
-90.56842
 31
0.0
210
0.0
220
0.0
230
1.0
  0
LINE
  5
6C5
100
AcDbEntity
  8
0
 62
     7
 48
0.0875
100
AcDbLine
 10
-10.5
 20
-90.56842
 30
0.0
 11
-7.0
 21
-90.56842
 31
0.0
210
0.0
220
0.0
230
1.0
  0
LINE
  5
6C6
100
AcDbEntity
  8
0
 62
     7
 48
0.1
100
AcDbLine
 10
-11.0
 20
-90.06842
 30
0.0
 11
-7.0
 21
-90.06842
 31
0.0
210
0.0
220
0.0
230
1.0
  0
LINE
  5
6C7
100
AcDbEntity
  8
0
 62
     7
 48
0.173205
100
AcDbLine
 10
-3.0
 20
-91.532524
 30
0.0
 11
-3.0
 21
-84.604317
 31
0.0
210
0.0
220
0.0
230
1.0
  0
LINE
  5
6C8
100
AcDbEntity
  8
0
 62
     7
 48
0.173205
100
AcDbLine
 10
-7.0
 20
-91.532524
 30
0.0
 11
-7.0
 21
-84.604317
 31
0.0
210
0.0
220
0.0
230
1.0
  0
LINE
  5
6C9
100
AcDbEntity
  8
0
 62
     7
 48
0.082137
100
AcDbLine
 10
-6.642735
 20
-85.759018
 30
0.0
 11
-3.357265
 21
-85.759018
 31
0.0
210
0.0
220
0.0
230
1.0
  0
LINE
  5
6CA
100
AcDbEntity
  8
0
 62
     7
 48
0.082137
100
AcDbLine
 10
-6.642735
 20
-83.449615
 30
0.0
 11
-3.357265
 21
-83.449615
 31
0.0
210
0.0
220
0.0
230
1.0
  0
LINE
  5
6CB
100
AcDbEntity
  8
0
 62
     7
 48
0.082137
100
AcDbLine
 10
-6.642735
 20
-90.377823
 30
0.0
 11
-3.357265
 21
-90.377823
 31
0.0
210
0.0
220
0.0
230
1.0
  0
ARC
  5
6CC
100
AcDbEntity
  8
0
 62
     1
100
AcDbCircle
 10
-4.955342
 20
-84.604317
 30
0.0
 40
2.044658
210
0.0
220
0.0
230
1.0
100
AcDbArc
 50
145.615753
 51
214.384242
  0
ARC
  5
6CD
100
AcDbEntity
  8
0
 62
     1
100
AcDbCircle
 10
0.642735
 20
-88.06842
 30
0.0
 40
7.642735
210
0.0
220
0.0
230
1.0
100
AcDbArc
 50
162.412048
 51
197.587946
  0
LINE
  5
6CE
100
AcDbEntity
  8
0
  6
DASHDOT
 62
     7
 48
0.2
100
AcDbLine
 10
-9.0
 20
-88.06842
 30
0.0
 11
-1.0
 21
-88.06842
 31
0.0
210
0.0
220
0.0
230
1.0
  0
ARC
  5
6CF
100
AcDbEntity
  8
0
 62
     1
100
AcDbCircle
 10
-4.955342
 20
-91.532524
 30
0.0
 40
2.044658
210
0.0
220
0.0
230
1.0
100
AcDbArc
 50
145.615753
 51
214.384242
  0
ARC
  5
6D0
100
AcDbEntity
  8
0
 62
     1
100
AcDbCircle
 10
-5.044658
 20
-84.604317
 30
0.0
 40
2.044658
210
0.0
220
0.0
230
1.0
100
AcDbArc
 50
325.615746
 51
34.384247
  0
ARC
  5
6D1
100
AcDbEntity
  8
0
 62
     1
100
AcDbCircle
 10
-10.642735
 20
-88.06842
 30
0.0
 40
7.642735
210
0.0
220
0.0
230
1.0
100
AcDbArc
 50
342.412054
 51
17.587953
  0
ARC
  5
6D2
100
AcDbEntity
  8
0
 62
     1
100
AcDbCircle
 10
-5.044658
 20
-91.532524
 30
0.0
 40
2.044658
210
0.0
220
0.0
230
1.0
100
AcDbArc
 50
325.615746
 51
34.384247
  0
LINE
  5
6D3
100
AcDbEntity
  8
0
 62
     7
 48
0.082137
100
AcDbLine
 10
-6.642735
 20
-92.687225
 30
0.0
 11
-3.357265
 21
-92.687225
 31
0.0
210
0.0
220
0.0
230
1.0
  0
ENDBLK
  5
6D4
100
AcDbEntity
  8
0
100
AcDbBlockEnd
  0
BLOCK
  5
6D5
100
AcDbEntity
  8
0
100
AcDbBlockBegin
  2
BLOCK13
 70
     0
 10
0.0
 20
0.0
 30
0.0
  3
BLOCK13
  1

  0
TEXT
  5
6D6
100
AcDbEntity
  8
0
 62
     7
100
AcDbText
 10
186.0
 20
3.143372
 30
0.0
 40
3.5
  1
X
 72
     5
 11
189.036026
 21
3.143372
 31
0.0
100
AcDbText
  0
ENDBLK
  5
6D7
100
AcDbEntity
  8
0
100
AcDbBlockEnd
  0
BLOCK
  5
6D8
100
AcDbEntity
  8
0
100
AcDbBlockBegin
  2
BLOCK14
 70
     0
 10
0.0
 20
0.0
 30
0.0
  3
BLOCK14
  1

  0
TEXT
  5
6D9
100
AcDbEntity
  8
0
 62
     7
100
AcDbText
 10
-16.0
 20
3.143372
 30
0.0
 40
3.5
  1
X
 72
     5
 11
-12.963977
 21
3.143372
 31
0.0
100
AcDbText
  0
ENDBLK
  5
6DA
100
AcDbEntity
  8
0
100
AcDbBlockEnd
  0
BLOCK
  5
6DB
100
AcDbEntity
  8
0
100
AcDbBlockBegin
  2
BLOCK15
 70
     0
 10
0.0
 20
0.0
 30
0.0
  3
BLOCK15
  1

  0
TEXT
  5
6DC
100
AcDbEntity
  8
0
 62
     7
100
AcDbText
 10
-13.69422
 20
-117.972076
 30
0.0
 40
3.5
  1
3
 72
     5
 11
-10.658197
 21
-117.972076
 31
0.0
100
AcDbText
  0
TEXT
  5
6DD
100
AcDbEntity
  8
0
 62
     7
100
AcDbText
 10
-16.79422
 20
-117.972076
 30
0.0
 40
3.5
  1
\U+2265
 72
     5
 11
-14.694221
 21
-117.972076
 31
0.0
100
AcDbText
  0
LINE
  5
6DE
100
AcDbEntity
  8
0
 62
     7
 48
0.248236
100
AcDbLine
 10
-3.0
 20
-112.042618
 30
0.0
 11
-3.0
 21
-121.972076
 31
0.0
210
0.0
220
0.0
230
1.0
  0
LINE
  5
6DF
100
AcDbEntity
  8
0
 62
     7
 48
0.224282
100
AcDbLine
 10
0.0
 20
-113.000793
 30
0.0
 11
0.0
 21
-121.972076
 31
0.0
210
0.0
220
0.0
230
1.0
  0
POLYLINE
  5
6E0
100
AcDbEntity
  8
0
 62
     7
100
AcDb2dPolyline
 66
     1
 10
0.0
 20
0.0
 30
0.0
 71
     3
  0
VERTEX
  5
6E1
100
AcDbEntity
  8
0
100
AcDbVertex
100
AcDb2dVertex
 10
-4.931852
 20
-120.489716
 30
0.0
  0
VERTEX
  5
6E2
100
AcDbEntity
  8
0
100
AcDbVertex
100
AcDb2dVertex
 10
-3.0
 20
-119.972076
 30
0.0
  0
VERTEX
  5
6E3
100
AcDbEntity
  8
0
100
AcDbVertex
100
AcDb2dVertex
 10
-4.931852
 20
-119.454437
 30
0.0
  0
SEQEND
  5
6E4
100
AcDbEntity
  8
0
  0
POLYLINE
  5
6E5
100
AcDbEntity
  8
0
 62
     7
100
AcDb2dPolyline
 66
     1
 10
0.0
 20
0.0
 30
0.0
 71
     3
  0
VERTEX
  5
6E6
100
AcDbEntity
  8
0
100
AcDbVertex
100
AcDb2dVertex
 10
1.931852
 20
-119.454437
 30
0.0
  0
VERTEX
  5
6E7
100
AcDbEntity
  8
0
100
AcDbVertex
100
AcDb2dVertex
 10
0.0
 20
-119.972076
 30
0.0
  0
VERTEX
  5
6E8
100
AcDbEntity
  8
0
100
AcDbVertex
100
AcDb2dVertex
 10
1.931852
 20
-120.489716
 30
0.0
  0
SEQEND
  5
6E9
100
AcDbEntity
  8
0
  0
LINE
  5
6EA
100
AcDbEntity
  8
0
 62
     7
100
AcDbLine
 10
-16.79422
 20
-119.972076
 30
0.0
 11
5.0
 21
-119.972076
 31
0.0
210
0.0
220
0.0
230
1.0
  0
ENDBLK
  5
6EB
100
AcDbEntity
  8
0
100
AcDbBlockEnd
  0
BLOCK
  5
6EC
100
AcDbEntity
  8
0
100
AcDbBlockBegin
  2
BLOCK16
 70
     0
 10
0.0
 20
0.0
 30
0.0
  3
BLOCK16
  1

  0
TEXT
  5
6ED
100
AcDbEntity
  8
0
 62
     7
100
AcDbText
 10
42.759941
 20
-117.972076
 30
0.0
 40
3.5
  1
103.5
 72
     5
 11
60.740059
 21
-117.972076
 31
0.0
100
AcDbText
  0
LINE
  5
6EE
100
AcDbEntity
  8
0
 62
     7
 48
0.436802
100
AcDbLine
 10
0.0
 20
-104.5
 30
0.0
 11
0.0
 21
-121.972076
 31
0.0
210
0.0
220
0.0
230
1.0
  0
LINE
  5
6EF
100
AcDbEntity
  8
0
 62
     7
100
AcDbLine
 10
103.5
 20
-79.300003
 30
0.0
 11
103.5
 21
-121.972076
 31
0.0
210
0.0
220
0.0
230
1.0
  0
POLYLINE
  5
6F0
100
AcDbEntity
  8
0
 62
     7
100
AcDb2dPolyline
 66
     1
 10
0.0
 20
0.0
 30
0.0
 71
     3
  0
VERTEX
  5
6F1
100
AcDbEntity
  8
0
100
AcDbVertex
100
AcDb2dVertex
 10
101.568146
 20
-120.489716
 30
0.0
  0
VERTEX
  5
6F2
100
AcDbEntity
  8
0
100
AcDbVertex
100
AcDb2dVertex
 10
103.5
 20
-119.972076
 30
0.0
  0
VERTEX
  5
6F3
100
AcDbEntity
  8
0
100
AcDbVertex
100
AcDb2dVertex
 10
101.568146
 20
-119.454437
 30
0.0
  0
SEQEND
  5
6F4
100
AcDbEntity
  8
0
  0
POLYLINE
  5
6F5
100
AcDbEntity
  8
0
 62
     7
100
AcDb2dPolyline
 66
     1
 10
0.0
 20
0.0
 30
0.0
 71
     3
  0
VERTEX
  5
6F6
100
AcDbEntity
  8
0
100
AcDbVertex
100
AcDb2dVertex
 10
1.931852
 20
-119.454437
 30
0.0
  0
VERTEX
  5
6F7
100
AcDbEntity
  8
0
100
AcDbVertex
100
AcDb2dVertex
 10
0.0
 20
-119.972076
 30
0.0
  0
VERTEX
  5
6F8
100
AcDbEntity
  8
0
100
AcDbVertex
100
AcDb2dVertex
 10
1.931852
 20
-120.489716
 30
0.0
  0
SEQEND
  5
6F9
100
AcDbEntity
  8
0
  0
LINE
  5
6FA
100
AcDbEntity
  8
0
 62
     7
100
AcDbLine
 10
0.0
 20
-119.972076
 30
0.0
 11
103.5
 21
-119.972076
 31
0.0
210
0.0
220
0.0
230
1.0
  0
ENDBLK
  5
6FB
100
AcDbEntity
  8
0
100
AcDbBlockEnd
  0
BLOCK
  5
6FC
100
AcDbEntity
  8
0
100
AcDbBlockBegin
  2
BLOCK17
 70
     0
 10
0.0
 20
0.0
 30
0.0
  3
BLOCK17
  1

  0
TEXT
  5
6FD
100
AcDbEntity
  8
0
 62
     7
100
AcDbText
 10
49.759941
 20
-132.005524
 30
0.0
 40
3.5
  1
117.5
 72
     5
 11
67.740059
 21
-132.005524
 31
0.0
100
AcDbText
  0
LINE
  5
6FE
100
AcDbEntity
  8
0
 62
     7
100
AcDbLine
 10
0.0
 20
-113.000793
 30
0.0
 11
0.0
 21
-136.005524
 31
0.0
210
0.0
220
0.0
230
1.0
  0
LINE
  5
6FF
100
AcDbEntity
  8
0
 62
     7
100
AcDbLine
 10
117.5
 20
-90.073181
 30
0.0
 11
117.5
 21
-136.005524
 31
0.0
210
0.0
220
0.0
230
1.0
  0
POLYLINE
  5
700
100
AcDbEntity
  8
0
 62
     7
100
AcDb2dPolyline
 66
     1
 10
0.0
 20
0.0
 30
0.0
 71
     3
  0
VERTEX
  5
701
100
AcDbEntity
  8
0
100
AcDbVertex
100
AcDb2dVertex
 10
1.931852
 20
-133.487885
 30
0.0
  0
VERTEX
  5
702
100
AcDbEntity
  8
0
100
AcDbVertex
100
AcDb2dVertex
 10
0.0
 20
-134.005524
 30
0.0
  0
VERTEX
  5
703
100
AcDbEntity
  8
0
100
AcDbVertex
100
AcDb2dVertex
 10
1.931852
 20
-134.523163
 30
0.0
  0
SEQEND
  5
704
100
AcDbEntity
  8
0
  0
POLYLINE
  5
705
100
AcDbEntity
  8
0
 62
     7
100
AcDb2dPolyline
 66
     1
 10
0.0
 20
0.0
 30
0.0
 71
     3
  0
VERTEX
  5
706
100
AcDbEntity
  8
0
100
AcDbVertex
100
AcDb2dVertex
 10
115.568146
 20
-134.523163
 30
0.0
  0
VERTEX
  5
707
100
AcDbEntity
  8
0
100
AcDbVertex
100
AcDb2dVertex
 10
117.5
 20
-134.005524
 30
0.0
  0
VERTEX
  5
708
100
AcDbEntity
  8
0
100
AcDbVertex
100
AcDb2dVertex
 10
115.568146
 20
-133.487885
 30
0.0
  0
SEQEND
  5
709
100
AcDbEntity
  8
0
  0
LINE
  5
70A
100
AcDbEntity
  8
0
 62
     7
100
AcDbLine
 10
0.0
 20
-134.005524
 30
0.0
 11
117.5
 21
-134.005524
 31
0.0
210
0.0
220
0.0
230
1.0
  0
ENDBLK
  5
70B
100
AcDbEntity
  8
0
100
AcDbBlockEnd
  0
BLOCK
  5
70C
100
AcDbEntity
  8
0
100
AcDbBlockBegin
  2
BLOCK18
 70
     0
 10
0.0
 20
0.0
 30
0.0
  3
BLOCK18
  1

  0
TEXT
  5
70D
100
AcDbEntity
  8
0
 62
     7
100
AcDbText
 10
126.955238
 20
-132.005524
 30
0.0
 40
3.5
  1
2
 72
     5
 11
129.991257
 21
-132.005524
 31
0.0
100
AcDbText
  0
LINE
  5
70E
100
AcDbEntity
  8
0
 62
     7
100
AcDbLine
 10
117.5
 20
-90.073181
 30
0.0
 11
117.5
 21
-136.005524
 31
0.0
210
0.0
220
0.0
230
1.0
  0
LINE
  5
70F
100
AcDbEntity
  8
0
 62
     7
100
AcDbLine
 10
119.5
 20
-91.893463
 30
0.0
 11
119.5
 21
-136.005524
 31
0.0
210
0.0
220
0.0
230
1.0
  0
POLYLINE
  5
710
100
AcDbEntity
  8
0
 62
     7
100
AcDb2dPolyline
 66
     1
 10
0.0
 20
0.0
 30
0.0
 71
     3
  0
VERTEX
  5
711
100
AcDbEntity
  8
0
100
AcDbVertex
100
AcDb2dVertex
 10
115.568146
 20
-134.523163
 30
0.0
  0
VERTEX
  5
712
100
AcDbEntity
  8
0
100
AcDbVertex
100
AcDb2dVertex
 10
117.5
 20
-134.005524
 30
0.0
  0
VERTEX
  5
713
100
AcDbEntity
  8
0
100
AcDbVertex
100
AcDb2dVertex
 10
115.568146
 20
-133.487885
 30
0.0
  0
SEQEND
  5
714
100
AcDbEntity
  8
0
  0
POLYLINE
  5
715
100
AcDbEntity
  8
0
 62
     7
100
AcDb2dPolyline
 66
     1
 10
0.0
 20
0.0
 30
0.0
 71
     3
  0
VERTEX
  5
716
100
AcDbEntity
  8
0
100
AcDbVertex
100
AcDb2dVertex
 10
121.431854
 20
-133.487885
 30
0.0
  0
VERTEX
  5
717
100
AcDbEntity
  8
0
100
AcDbVertex
100
AcDb2dVertex
 10
119.5
 20
-134.005524
 30
0.0
  0
VERTEX
  5
718
100
AcDbEntity
  8
0
100
AcDbVertex
100
AcDb2dVertex
 10
121.431854
 20
-134.523163
 30
0.0
  0
SEQEND
  5
719
100
AcDbEntity
  8
0
  0
LINE
  5
71A
100
AcDbEntity
  8
0
 62
     7
 48
0.437281
100
AcDbLine
 10
112.5
 20
-134.005524
 30
0.0
 11
129.991257
 21
-134.005524
 31
0.0
210
0.0
220
0.0
230
1.0
  0
ENDBLK
  5
71B
100
AcDbEntity
  8
0
100
AcDbBlockEnd
  0
BLOCK
  5
71C
100
AcDbEntity
  8
0
100
AcDbBlockBegin
  2
BLOCK19
 70
     0
 10
0.0
 20
0.0
 30
0.0
  3
BLOCK19
  1

  0
TEXT
  5
71D
100
AcDbEntity
  8
0
 62
     7
100
AcDbText
 10
71.628853
 20
-143.906738
 30
0.0
 40
3.5
  1
142
 72
     5
 11
82.136925
 21
-143.906738
 31
0.0
100
AcDbText
  0
LINE
  5
71E
100
AcDbEntity
  8
0
 62
     7
100
AcDbLine
 10
0.0
 20
-104.5
 30
0.0
 11
0.0
 21
-147.906738
 31
0.0
210
0.0
220
0.0
230
1.0
  0
LINE
  5
71F
100
AcDbEntity
  8
0
 62
     7
100
AcDbLine
 10
142.082687
 20
0.803734
 30
0.0
 11
142.082687
 21
-147.906738
 31
0.0
210
0.0
220
0.0
230
1.0
  0
POLYLINE
  5
720
100
AcDbEntity
  8
0
 62
     7
100
AcDb2dPolyline
 66
     1
 10
0.0
 20
0.0
 30
0.0
 71
     3
  0
VERTEX
  5
721
100
AcDbEntity
  8
0
100
AcDbVertex
100
AcDb2dVertex
 10
1.931852
 20
-145.389099
 30
0.0
  0
VERTEX
  5
722
100
AcDbEntity
  8
0
100
AcDbVertex
100
AcDb2dVertex
 10
0.0
 20
-145.906738
 30
0.0
  0
VERTEX
  5
723
100
AcDbEntity
  8
0
100
AcDbVertex
100
AcDb2dVertex
 10
1.931852
 20
-146.424377
 30
0.0
  0
SEQEND
  5
724
100
AcDbEntity
  8
0
  0
POLYLINE
  5
725
100
AcDbEntity
  8
0
 62
     7
100
AcDb2dPolyline
 66
     1
 10
0.0
 20
0.0
 30
0.0
 71
     3
  0
VERTEX
  5
726
100
AcDbEntity
  8
0
100
AcDbVertex
100
AcDb2dVertex
 10
140.150848
 20
-146.424377
 30
0.0
  0
VERTEX
  5
727
100
AcDbEntity
  8
0
100
AcDbVertex
100
AcDb2dVertex
 10
142.082687
 20
-145.906738
 30
0.0
  0
VERTEX
  5
728
100
AcDbEntity
  8
0
100
AcDbVertex
100
AcDb2dVertex
 10
140.150848
 20
-145.389099
 30
0.0
  0
SEQEND
  5
729
100
AcDbEntity
  8
0
  0
LINE
  5
72A
100
AcDbEntity
  8
0
 62
     7
100
AcDbLine
 10
0.0
 20
-145.906738
 30
0.0
 11
142.082687
 21
-145.906738
 31
0.0
210
0.0
220
0.0
230
1.0
  0
ENDBLK
  5
72B
100
AcDbEntity
  8
0
100
AcDbBlockEnd
  0
BLOCK
  5
72C
100
AcDbEntity
  8
0
100
AcDbBlockBegin
  2
BLOCK20
 70
     0
 10
0.0
 20
0.0
 30
0.0
  3
BLOCK20
  1

  0
TEXT
  5
72D
100
AcDbEntity
  8
0
 62
     7
100
AcDbText
 10
158.161621
 20
27.944674
 30
0.0
 40
3.5
  1
64.5
 50
90.000003
 72
     5
 11
158.161621
 21
42.188766
 31
0.0
100
AcDbText
  0
LINE
  5
72E
100
AcDbEntity
  8
0
 62
     7
100
AcDbLine
 10
115.900002
 20
64.5
 30
0.0
 11
162.161621
 21
64.5
 31
0.0
210
0.0
220
0.0
230
1.0
  0
POLYLINE
  5
72F
100
AcDbEntity
  8
0
 62
     7
100
AcDb2dPolyline
 66
     1
 10
0.0
 20
0.0
 30
0.0
 71
     3
  0
VERTEX
  5
730
100
AcDbEntity
  8
0
100
AcDbVertex
100
AcDb2dVertex
 10
159.643982
 20
1.931852
 30
0.0
  0
VERTEX
  5
731
100
AcDbEntity
  8
0
100
AcDbVertex
100
AcDb2dVertex
 10
160.161621
 20
0.0
 30
0.0
  0
VERTEX
  5
732
100
AcDbEntity
  8
0
100
AcDbVertex
100
AcDb2dVertex
 10
160.67926
 20
1.931852
 30
0.0
  0
SEQEND
  5
733
100
AcDbEntity
  8
0
  0
POLYLINE
  5
734
100
AcDbEntity
  8
0
 62
     7
100
AcDb2dPolyline
 66
     1
 10
0.0
 20
0.0
 30
0.0
 71
     3
  0
VERTEX
  5
735
100
AcDbEntity
  8
0
100
AcDbVertex
100
AcDb2dVertex
 10
160.67926
 20
62.56815
 30
0.0
  0
VERTEX
  5
736
100
AcDbEntity
  8
0
100
AcDbVertex
100
AcDb2dVertex
 10
160.161621
 20
64.5
 30
0.0
  0
VERTEX
  5
737
100
AcDbEntity
  8
0
100
AcDbVertex
100
AcDb2dVertex
 10
159.643982
 20
62.56815
 30
0.0
  0
SEQEND
  5
738
100
AcDbEntity
  8
0
  0
LINE
  5
739
100
AcDbEntity
  8
0
 62
     7
100
AcDbLine
 10
160.161621
 20
0.0
 30
0.0
 11
160.161621
 21
64.5
 31
0.0
210
0.0
220
0.0
230
1.0
  0
ENDBLK
  5
73A
100
AcDbEntity
  8
0
100
AcDbBlockEnd
  0
BLOCK
  5
73B
100
AcDbEntity
  8
0
100
AcDbBlockBegin
  2
BLOCK21
 70
     0
 10
0.0
 20
0.0
 30
0.0
  3
BLOCK21
  1

  0
TEXT
  5
73C
100
AcDbEntity
  8
0
 62
     7
100
AcDbText
 10
172.541519
 20
-2.08286
 30
0.0
 40
3.5
  1
115
 50
90.000003
 72
     5
 11
172.541519
 21
8.425209
 31
0.0
100
AcDbText
  0
LINE
  5
73D
100
AcDbEntity
  8
0
 62
     7
100
AcDbLine
 10
118.400002
 20
-50.5
 30
0.0
 11
176.541519
 21
-50.5
 31
0.0
210
0.0
220
0.0
230
1.0
  0
LINE
  5
73E
100
AcDbEntity
  8
0
 62
     7
100
AcDbLine
 10
118.400002
 20
64.5
 30
0.0
 11
176.541519
 21
64.5
 31
0.0
210
0.0
220
0.0
230
1.0
  0
POLYLINE
  5
73F
100
AcDbEntity
  8
0
 62
     7
100
AcDb2dPolyline
 66
     1
 10
0.0
 20
0.0
 30
0.0
 71
     3
  0
VERTEX
  5
740
100
AcDbEntity
  8
0
100
AcDbVertex
100
AcDb2dVertex
 10
175.059158
 20
62.56815
 30
0.0
  0
VERTEX
  5
741
100
AcDbEntity
  8
0
100
AcDbVertex
100
AcDb2dVertex
 10
174.541519
 20
64.5
 30
0.0
  0
VERTEX
  5
742
100
AcDbEntity
  8
0
100
AcDbVertex
100
AcDb2dVertex
 10
174.02388
 20
62.56815
 30
0.0
  0
SEQEND
  5
743
100
AcDbEntity
  8
0
  0
POLYLINE
  5
744
100
AcDbEntity
  8
0
 62
     7
100
AcDb2dPolyline
 66
     1
 10
0.0
 20
0.0
 30
0.0
 71
     3
  0
VERTEX
  5
745
100
AcDbEntity
  8
0
100
AcDbVertex
100
AcDb2dVertex
 10
174.02388
 20
-48.56815
 30
0.0
  0
VERTEX
  5
746
100
AcDbEntity
  8
0
100
AcDbVertex
100
AcDb2dVertex
 10
174.541519
 20
-50.5
 30
0.0
  0
VERTEX
  5
747
100
AcDbEntity
  8
0
100
AcDbVertex
100
AcDb2dVertex
 10
175.059158
 20
-48.56815
 30
0.0
  0
SEQEND
  5
748
100
AcDbEntity
  8
0
  0
LINE
  5
749
100
AcDbEntity
  8
0
 62
     7
100
AcDbLine
 10
174.541519
 20
-50.5
 30
0.0
 11
174.541519
 21
64.5
 31
0.0
210
0.0
220
0.0
230
1.0
  0
ENDBLK
  5
74A
100
AcDbEntity
  8
0
100
AcDbBlockEnd
  0
BLOCK
  5
74B
100
AcDbEntity
  8
0
100
AcDbBlockBegin
  2
BLOCK22
 70
     0
 10
0.0
 20
0.0
 30
0.0
  3
BLOCK22
  1

  0
TEXT
  5
74C
100
AcDbEntity
  8
0
 62
     1
100
AcDbText
 10
137.206146
 20
86.50367
 30
0.0
 40
3.5
  1
1
 72
     5
 11
140.242157
 21
86.50367
 31
0.0
100
AcDbText
  0
TEXT
  5
74D
100
AcDbEntity
  8
0
 62
     1
100
AcDbText
 10
133.17012
 20
86.50367
 30
0.0
 40
3.5
  1
(
 72
     5
 11
136.206131
 21
86.50367
 31
0.0
100
AcDbText
  0
TEXT
  5
74E
100
AcDbEntity
  8
0
 62
     1
100
AcDbText
 10
141.242172
 20
86.50367
 30
0.0
 40
3.5
  1
)
 72
     5
 11
144.278183
 21
86.50367
 31
0.0
100
AcDbText
  0
LINE
  5
74F
100
AcDbEntity
  8
0
 62
     1
100
AcDbLine
 10
118.400002
 20
63.200962
 30
0.0
 11
118.400002
 21
86.50367
 31
0.0
210
0.0
220
0.0
230
1.0
  0
POLYLINE
  5
750
100
AcDbEntity
  8
0
 62
     1
100
AcDb2dPolyline
 66
     1
 10
0.0
 20
0.0
 30
0.0
 71
     3
  0
VERTEX
  5
751
100
AcDbEntity
  8
0
100
AcDbVertex
100
AcDb2dVertex
 10
115.568146
 20
83.986031
 30
0.0
  0
VERTEX
  5
752
100
AcDbEntity
  8
0
100
AcDbVertex
100
AcDb2dVertex
 10
117.5
 20
84.50367
 30
0.0
  0
VERTEX
  5
753
100
AcDbEntity
  8
0
100
AcDbVertex
100
AcDb2dVertex
 10
115.568146
 20
85.021301
 30
0.0
  0
SEQEND
  5
754
100
AcDbEntity
  8
0
  0
POLYLINE
  5
755
100
AcDbEntity
  8
0
 62
     1
100
AcDb2dPolyline
 66
     1
 10
0.0
 20
0.0
 30
0.0
 71
     3
  0
VERTEX
  5
756
100
AcDbEntity
  8
0
100
AcDbVertex
100
AcDb2dVertex
 10
120.331848
 20
85.021301
 30
0.0
  0
VERTEX
  5
757
100
AcDbEntity
  8
0
100
AcDbVertex
100
AcDb2dVertex
 10
118.400002
 20
84.50367
 30
0.0
  0
VERTEX
  5
758
100
AcDbEntity
  8
0
100
AcDbVertex
100
AcDb2dVertex
 10
120.331848
 20
83.986031
 30
0.0
  0
SEQEND
  5
759
100
AcDbEntity
  8
0
  0
LINE
  5
75A
100
AcDbEntity
  8
0
 62
     1
100
AcDbLine
 10
112.5
 20
84.50367
 30
0.0
 11
144.278183
 21
84.50367
 31
0.0
210
0.0
220
0.0
230
1.0
  0
ENDBLK
  5
75B
100
AcDbEntity
  8
0
100
AcDbBlockEnd
  0
BLOCK
  5
75C
100
AcDbEntity
  8
0
100
AcDbBlockBegin
  2
BLOCK23
 70
     0
 10
0.0
 20
0.0
 30
0.0
  3
BLOCK23
  1

  0
LINE
  5
75D
100
AcDbEntity
  8
0
  6
DASHSPACE
 62
     4
 48
0.001551
100
AcDbLine
 10
21.595554
 20
115.879684
 30
0.0
 11
21.629112
 21
115.827522
 31
0.0
210
0.0
220
0.0
230
1.0
  0
LINE
  5
75E
100
AcDbEntity
  8
0
  6
DASHSPACE
 62
     4
 48
0.006967
100
AcDbLine
 10
21.629112
 20
115.827522
 30
0.0
 11
21.749989
 21
115.576408
 31
0.0
210
0.0
220
0.0
230
1.0
  0
LINE
  5
75F
100
AcDbEntity
  8
0
  6
DASHSPACE
 62
     4
 48
0.004932
100
AcDbLine
 10
20.449965
 20
115.830559
 30
0.0
 11
20.449965
 21
116.02784
 31
0.0
210
0.0
220
0.0
230
1.0
  0
LINE
  5
760
100
AcDbEntity
  8
0
  6
DASHSPACE
 62
     4
 48
0.004235
100
AcDbLine
 10
20.449965
 20
115.830559
 30
0.0
 11
20.449965
 21
115.999969
 31
0.0
210
0.0
220
0.0
230
1.0
  0
LINE
  5
761
100
AcDbEntity
  8
0
  6
DASHSPACE
 62
     4
 48
0.003105
100
AcDbLine
 10
17.750023
 20
115.875786
 30
0.0
 11
17.750023
 21
115.999977
 31
0.0
210
0.0
220
0.0
230
1.0
  0
LINE
  5
762
100
AcDbEntity
  8
0
  6
DASHSPACE
 62
     4
 48
0.001513
100
AcDbLine
 10
17.749962
 20
115.875786
 30
0.0
 11
17.749962
 21
115.815262
 31
0.0
210
0.0
220
0.0
230
1.0
  0
ARC
  5
763
100
AcDbEntity
  8
0
  6
DASHSPACE
 62
     4
100
AcDbCircle
 10
21.249992
 20
116.499969
 30
0.0
 40
0.500002
210
0.0
220
0.0
230
1.0
100
AcDbArc
 50
0.000124
 51
89.999238
  0
ARC
  5
764
100
AcDbEntity
  8
0
  6
DASHSPACE
 62
     4
100
AcDbCircle
 10
21.249966
 20
81.499985
 30
0.0
 40
0.500002
210
0.0
220
0.0
230
1.0
100
AcDbArc
 50
270.000465
 51
359.999791
  0
LINE
  5
765
100
AcDbEntity
  8
0
  6
DASHSPACE
 62
     4
 48
0.025
100
AcDbLine
 10
17.74996
 20
115.999977
 30
0.0
 11
17.749979
 21
116.999969
 31
0.0
210
0.0
220
0.0
230
1.0
  0
LINE
  5
766
100
AcDbEntity
  8
0
  6
DASHSPACE
 62
     4
 48
0.024303
100
AcDbLine
 10
20.449963
 20
116.02784
 30
0.0
 11
20.449966
 21
116.999969
 31
0.0
210
0.0
220
0.0
230
1.0
  0
LINE
  5
767
100
AcDbEntity
  8
0
  6
DASHSPACE
 62
     4
 48
0.006248
100
AcDbLine
 10
17.75
 20
116.999969
 30
0.0
 11
17.999929
 21
116.999969
 31
0.0
210
0.0
220
0.0
230
1.0
  0
LINE
  5
768
100
AcDbEntity
  8
0
  6
DASHSPACE
 62
     4
 48
0.01125
100
AcDbLine
 10
19.999929
 20
116.999969
 30
0.0
 11
20.44994
 21
116.999969
 31
0.0
210
0.0
220
0.0
230
1.0
  0
LINE
  5
769
100
AcDbEntity
  8
0
  6
DASHSPACE
 62
     4
 48
0.0325
100
AcDbLine
 10
16.449965
 20
116.999969
 30
0.0
 11
17.749979
 21
116.999985
 31
0.0
210
0.0
220
0.0
230
1.0
  0
LINE
  5
76A
100
AcDbEntity
  8
0
  6
DASHSPACE
 62
     4
 48
0.020001
100
AcDbLine
 10
20.449953
 20
116.999969
 30
0.0
 11
21.249998
 21
116.999969
 31
0.0
210
0.0
220
0.0
230
1.0
  0
LINE
  5
76B
100
AcDbEntity
  8
0
  6
DASHSPACE
 62
     4
 48
0.003105
100
AcDbLine
 10
20.449965
 20
82.124168
 30
0.0
 11
20.449965
 21
81.999977
 31
0.0
210
0.0
220
0.0
230
1.0
  0
LINE
  5
76C
100
AcDbEntity
  8
0
  6
DASHSPACE
 62
     4
 48
0.001513
100
AcDbLine
 10
20.449965
 20
82.184685
 30
0.0
 11
20.449965
 21
82.124168
 31
0.0
210
0.0
220
0.0
230
1.0
  0
LINE
  5
76D
100
AcDbEntity
  8
0
  6
DASHSPACE
 62
     4
 48
0.01125
100
AcDbLine
 10
19.999929
 20
80.999977
 30
0.0
 11
20.44994
 21
80.999977
 31
0.0
210
0.0
220
0.0
230
1.0
  0
LINE
  5
76E
100
AcDbEntity
  8
0
  6
DASHSPACE
 62
     4
 48
0.006248
100
AcDbLine
 10
17.75
 20
80.999977
 30
0.0
 11
17.999929
 21
80.999977
 31
0.0
210
0.0
220
0.0
230
1.0
  0
LINE
  5
76F
100
AcDbEntity
  8
0
  6
DASHSPACE
 62
     4
 48
0.004235
100
AcDbLine
 10
17.749962
 20
81.999977
 30
0.0
 11
17.749962
 21
82.169395
 31
0.0
210
0.0
220
0.0
230
1.0
  0
LINE
  5
770
100
AcDbEntity
  8
0
  6
DASHSPACE
 62
     4
 48
0.004932
100
AcDbLine
 10
17.74996
 20
81.972115
 30
0.0
 11
17.749962
 21
82.169395
 31
0.0
210
0.0
220
0.0
230
1.0
  0
LINE
  5
771
100
AcDbEntity
  8
0
  6
DASHSPACE
 62
     4
 48
0.02
100
AcDbLine
 10
20.449953
 20
80.999985
 30
0.0
 11
21.249969
 21
80.999985
 31
0.0
210
0.0
220
0.0
230
1.0
  0
LINE
  5
772
100
AcDbEntity
  8
0
  6
DASHSPACE
 62
     4
 48
0.025
100
AcDbLine
 10
20.449953
 20
80.999985
 30
0.0
 11
20.449965
 21
81.999977
 31
0.0
210
0.0
220
0.0
230
1.0
  0
LINE
  5
773
100
AcDbEntity
  8
0
  6
DASHSPACE
 62
     4
 48
0.0325
100
AcDbLine
 10
16.449963
 20
80.999985
 30
0.0
 11
17.749979
 21
80.999969
 31
0.0
210
0.0
220
0.0
230
1.0
  0
LINE
  5
774
100
AcDbEntity
  8
0
  6
DASHSPACE
 62
     4
 48
0.024303
100
AcDbLine
 10
17.749962
 20
81.972115
 30
0.0
 11
17.749966
 21
80.999985
 31
0.0
210
0.0
220
0.0
230
1.0
  0
LINE
  5
775
100
AcDbEntity
  8
0
  6
DASHSPACE
 62
     4
 48
0.0675
100
AcDbLine
 10
17.749962
 20
115.999977
 30
0.0
 11
20.449965
 21
115.999969
 31
0.0
210
0.0
220
0.0
230
1.0
  0
LINE
  5
776
100
AcDbEntity
  8
0
  6
DASHSPACE
 62
     4
 48
0.0675
100
AcDbLine
 10
17.749962
 20
81.999977
 30
0.0
 11
20.449965
 21
81.999977
 31
0.0
210
0.0
220
0.0
230
1.0
  0
LINE
  5
777
100
AcDbEntity
  8
0
  6
DASHSPACE
 62
     4
 48
0.023089
100
AcDbLine
 10
21.749989
 20
115.576408
 30
0.0
 11
21.749992
 21
116.499969
 31
0.0
210
0.0
220
0.0
230
1.0
  0
LINE
  5
778
100
AcDbEntity
  8
0
  6
DASHSPACE
 62
     4
 48
0.023089
100
AcDbLine
 10
21.749964
 20
82.423538
 30
0.0
 11
21.749968
 21
81.499985
 31
0.0
210
0.0
220
0.0
230
1.0
  0
LINE
  5
779
100
AcDbEntity
  8
0
  6
DASHSPACE
 62
     4
100
AcDbLine
 10
21.749964
 20
82.423538
 30
0.0
 11
21.749964
 21
115.576408
 31
0.0
210
0.0
220
0.0
230
1.0
  0
LINE
  5
77A
100
AcDbEntity
  8
0
  6
DASHSPACE
 62
     4
 48
0.004932
100
AcDbLine
 10
16.45001
 20
81.97213
 30
0.0
 11
16.45001
 21
82.169411
 31
0.0
210
0.0
220
0.0
230
1.0
  0
LINE
  5
77B
100
AcDbEntity
  8
0
  6
DASHSPACE
 62
     4
 48
0.004932
100
AcDbLine
 10
16.449873
 20
115.830544
 30
0.0
 11
16.449873
 21
116.027817
 31
0.0
210
0.0
220
0.0
230
1.0
  0
LINE
  5
77C
100
AcDbEntity
  8
0
  6
DASHSPACE
 62
     4
 48
0.024304
100
AcDbLine
 10
16.449963
 20
116.027817
 30
0.0
 11
16.449966
 21
116.999969
 31
0.0
210
0.0
220
0.0
230
1.0
  0
LINE
  5
77D
100
AcDbEntity
  8
0
  6
DASHSPACE
 62
     4
 48
0.024304
100
AcDbLine
 10
16.449959
 20
81.97213
 30
0.0
 11
16.449963
 21
80.999985
 31
0.0
210
0.0
220
0.0
230
1.0
  0
LINE
  5
77E
100
AcDbEntity
  8
0
  6
DASHSPACE
 62
     4
 48
0.004999
100
AcDbLine
 10
16.249994
 20
83.650002
 30
0.0
 11
16.449959
 21
83.650002
 31
0.0
210
0.0
220
0.0
230
1.0
  0
LINE
  5
77F
100
AcDbEntity
  8
0
  6
DASHSPACE
 62
     4
 48
0.004999
100
AcDbLine
 10
16.249994
 20
114.349983
 30
0.0
 11
16.449959
 21
114.349983
 31
0.0
210
0.0
220
0.0
230
1.0
  0
LINE
  5
780
100
AcDbEntity
  8
0
  6
DASHSPACE
 62
     4
 48
0.0275
100
AcDbLine
 10
16.449982
 20
114.349983
 30
0.0
 11
16.449982
 21
115.449974
 31
0.0
210
0.0
220
0.0
230
1.0
  0
LINE
  5
781
100
AcDbEntity
  8
0
  6
DASHSPACE
 62
     4
 48
0.009514
100
AcDbLine
 10
16.449963
 20
115.449974
 30
0.0
 11
16.449963
 21
115.830544
 31
0.0
210
0.0
220
0.0
230
1.0
  0
LINE
  5
782
100
AcDbEntity
  8
0
  6
DASHSPACE
 62
     4
 48
0.022501
100
AcDbLine
 10
16.449961
 20
82.749954
 30
0.0
 11
16.449961
 21
83.650002
 31
0.0
210
0.0
220
0.0
230
1.0
  0
LINE
  5
783
100
AcDbEntity
  8
0
  6
DASHSPACE
 62
     4
 48
0.014514
100
AcDbLine
 10
16.449963
 20
82.169411
 30
0.0
 11
16.449963
 21
82.749954
 31
0.0
210
0.0
220
0.0
230
1.0
  0
ARC
  5
784
100
AcDbEntity
  8
0
  6
DASHSPACE
 62
     3
100
AcDbCircle
 10
-123.550674
 20
112.699959
 30
0.0
 40
0.3
210
0.0
220
0.0
230
1.0
100
AcDbArc
 50
0.000834
 51
90.000112
  0
LINE
  5
785
100
AcDbEntity
  8
0
  6
DASHSPACE
 62
     3
 48
0.015
100
AcDbLine
 10
-124.150673
 20
112.999954
 30
0.0
 11
-123.550674
 21
112.999954
 31
0.0
210
0.0
220
0.0
230
1.0
  0
ARC
  5
786
100
AcDbEntity
  8
0
  6
DASHSPACE
 62
     3
100
AcDbCircle
 10
-124.150673
 20
112.699951
 30
0.0
 40
0.3
210
0.0
220
0.0
230
1.0
100
AcDbArc
 50
90.000112
 51
180.000114
  0
LINE
  5
787
100
AcDbEntity
  8
0
  6
DASHSPACE
 62
     3
 48
0.0125
100
AcDbLine
 10
-124.450676
 20
112.699951
 30
0.0
 11
-124.450668
 21
112.199959
 31
0.0
210
0.0
220
0.0
230
1.0
  0
ARC
  5
788
100
AcDbEntity
  8
0
  6
DASHSPACE
 62
     3
100
AcDbCircle
 10
-124.650665
 20
112.199951
 30
0.0
 40
0.2
210
0.0
220
0.0
230
1.0
100
AcDbArc
 50
270.00011
 51
0.000506
  0
LINE
  5
789
100
AcDbEntity
  8
0
  6
DASHSPACE
 62
     3
100
AcDbLine
 10
-123.249985
 20
94.699997
 30
0.0
 11
-123.249985
 21
115.25
 31
0.0
210
0.0
220
0.0
230
1.0
  0
LINE
  5
78A
100
AcDbEntity
  8
0
  6
DASHSPACE
 62
     3
 48
0.020001
100
AcDbLine
 10
-125.450714
 20
111.999954
 30
0.0
 11
-124.650665
 21
111.999954
 31
0.0
210
0.0
220
0.0
230
1.0
  0
LINE
  5
78B
100
AcDbEntity
  8
0
  6
DASHSPACE
 62
     3
 48
0.017678
100
AcDbLine
 10
-125.950714
 20
112.499954
 30
0.0
 11
-125.450714
 21
111.999954
 31
0.0
210
0.0
220
0.0
230
1.0
  0
LINE
  5
78C
100
AcDbEntity
  8
0
  6
DASHSPACE
 62
     3
 48
0.04375
100
AcDbLine
 10
-125.950722
 20
114.249962
 30
0.0
 11
-125.950714
 21
112.499954
 31
0.0
210
0.0
220
0.0
230
1.0
  0
ARC
  5
78D
100
AcDbEntity
  8
0
  6
DASHSPACE
 62
     3
100
AcDbCircle
 10
-124.950722
 20
114.249962
 30
0.0
 40
1.0
210
0.0
220
0.0
230
1.0
100
AcDbArc
 50
90.000112
 51
180.000114
  0
LINE
  5
78E
100
AcDbEntity
  8
0
  6
DASHSPACE
 62
     3
 48
0.019333
100
AcDbLine
 10
-124.023323
 20
115.249962
 30
0.0
 11
-123.25
 21
115.249969
 31
0.0
210
0.0
220
0.0
230
1.0
  0
LINE
  5
78F
100
AcDbEntity
  8
0
  6
DASHSPACE
 62
     3
 48
0.023185
100
AcDbLine
 10
-124.950722
 20
115.249962
 30
0.0
 11
-124.023323
 21
115.249962
 31
0.0
210
0.0
220
0.0
230
1.0
  0
ARC
  5
790
100
AcDbEntity
  8
0
  6
DASHSPACE
 62
     2
100
AcDbCircle
 10
-123.550644
 20
85.300018
 30
0.0
 40
0.3
210
0.0
220
0.0
230
1.0
100
AcDbArc
 50
270.000001
 51
359.999272
  0
LINE
  5
791
100
AcDbEntity
  8
0
  6
DASHSPACE
 62
     2
 48
0.015
100
AcDbLine
 10
-124.150642
 20
85.000015
 30
0.0
 11
-123.550644
 21
85.000015
 31
0.0
210
0.0
220
0.0
230
1.0
  0
ARC
  5
792
100
AcDbEntity
  8
0
  6
DASHSPACE
 62
     2
100
AcDbCircle
 10
-124.150642
 20
85.300018
 30
0.0
 40
0.3
210
0.0
220
0.0
230
1.0
100
AcDbArc
 50
180.000005
 51
270.000001
  0
LINE
  5
793
100
AcDbEntity
  8
0
  6
DASHSPACE
 62
     2
 48
0.0125
100
AcDbLine
 10
-124.450645
 20
85.300018
 30
0.0
 11
-124.450638
 21
85.800011
 31
0.0
210
0.0
220
0.0
230
1.0
  0
ARC
  5
794
100
AcDbEntity
  8
0
  6
DASHSPACE
 62
     2
100
AcDbCircle
 10
-124.650642
 20
85.800018
 30
0.0
 40
0.2
210
0.0
220
0.0
230
1.0
100
AcDbArc
 50
359.9996
 51
90.000003
  0
LINE
  5
795
100
AcDbEntity
  8
0
  6
DASHSPACE
 62
     2
 48
0.29875
100
AcDbLine
 10
-123.249977
 20
82.749992
 30
0.0
 11
-123.249977
 21
94.699997
 31
0.0
210
0.0
220
0.0
230
1.0
  0
LINE
  5
796
100
AcDbEntity
  8
0
  6
DASHSPACE
 62
     2
 48
0.020001
100
AcDbLine
 10
-125.450691
 20
86.000015
 30
0.0
 11
-124.650642
 21
86.000015
 31
0.0
210
0.0
220
0.0
230
1.0
  0
LINE
  5
797
100
AcDbEntity
  8
0
  6
DASHSPACE
 62
     2
 48
0.017678
100
AcDbLine
 10
-125.950691
 20
85.500015
 30
0.0
 11
-125.450691
 21
86.000015
 31
0.0
210
0.0
220
0.0
230
1.0
  0
LINE
  5
798
100
AcDbEntity
  8
0
  6
DASHSPACE
 62
     2
 48
0.04375
100
AcDbLine
 10
-125.950691
 20
83.750008
 30
0.0
 11
-125.950691
 21
85.500015
 31
0.0
210
0.0
220
0.0
230
1.0
  0
ARC
  5
799
100
AcDbEntity
  8
0
  6
DASHSPACE
 62
     2
100
AcDbCircle
 10
-124.950691
 20
83.750008
 30
0.0
 40
1.0
210
0.0
220
0.0
230
1.0
100
AcDbArc
 50
180.000005
 51
270.000001
  0
LINE
  5
79A
100
AcDbEntity
  8
0
  6
DASHSPACE
 62
     2
 48
0.019333
100
AcDbLine
 10
-124.023285
 20
82.750008
 30
0.0
 11
-123.249969
 21
82.750008
 31
0.0
210
0.0
220
0.0
230
1.0
  0
LINE
  5
79B
100
AcDbEntity
  8
0
  6
DASHSPACE
 62
     2
 48
0.023185
100
AcDbLine
 10
-124.950691
 20
82.750008
 30
0.0
 11
-124.023285
 21
82.750008
 31
0.0
210
0.0
220
0.0
230
1.0
  0
LINE
  5
79C
100
AcDbEntity
  8
0
  6
DASHSPACE
 62
     2
 48
0.025
100
AcDbLine
 10
19.999929
 20
115.999969
 30
0.0
 11
19.999929
 21
116.999969
 31
0.0
210
0.0
220
0.0
230
1.0
  0
LINE
  5
79D
100
AcDbEntity
  8
0
  6
DASHSPACE
 62
     2
 48
0.05
100
AcDbLine
 10
17.999929
 20
116.999969
 30
0.0
 11
19.999929
 21
116.999969
 31
0.0
210
0.0
220
0.0
230
1.0
  0
LINE
  5
79E
100
AcDbEntity
  8
0
  6
DASHSPACE
 62
     2
 48
0.025
100
AcDbLine
 10
17.999929
 20
115.999977
 30
0.0
 11
17.999929
 21
116.999969
 31
0.0
210
0.0
220
0.0
230
1.0
  0
LINE
  5
79F
100
AcDbEntity
  8
0
  6
DASHSPACE
 62
     2
 48
0.05
100
AcDbLine
 10
17.999929
 20
80.999985
 30
0.0
 11
19.999929
 21
80.999977
 31
0.0
210
0.0
220
0.0
230
1.0
  0
LINE
  5
7A0
100
AcDbEntity
  8
0
  6
DASHSPACE
 62
     2
 48
0.025
100
AcDbLine
 10
19.999929
 20
80.999977
 30
0.0
 11
19.999929
 21
81.999977
 31
0.0
210
0.0
220
0.0
230
1.0
  0
LINE
  5
7A1
100
AcDbEntity
  8
0
  6
DASHSPACE
 62
     2
 48
0.025
100
AcDbLine
 10
17.999929
 20
80.999985
 30
0.0
 11
17.999929
 21
81.999977
 31
0.0
210
0.0
220
0.0
230
1.0
  0
LINE
  5
7A2
100
AcDbEntity
  8
0
  6
DASHSPACE
 62
     3
 48
0.007071
100
AcDbLine
 10
16.249969
 20
82.749977
 30
0.0
 11
16.449959
 21
82.549988
 31
0.0
210
0.0
220
0.0
230
1.0
  0
LINE
  5
7A3
100
AcDbEntity
  8
0
  6
DASHSPACE
 62
     3
 48
0.00707
100
AcDbLine
 10
16.249994
 20
115.249977
 30
0.0
 11
16.449961
 21
115.449944
 31
0.0
210
0.0
220
0.0
230
1.0
  0
ENDBLK
  5
7A4
100
AcDbEntity
  8
0
100
AcDbBlockEnd
  0
BLOCK
  5
7A5
100
AcDbEntity
  8
0
100
AcDbBlockBegin
  2
BLOCK24
 70
     0
 10
0.0
 20
0.0
 30
0.0
  3
BLOCK24
  1

  0
TEXT
  5
7A6
100
AcDbEntity
  8
0
 62
     7
100
AcDbText
 10
-178.469101
 20
77.002525
 30
0.0
 40
3.5
  1
X
 72
     5
 11
-175.433075
 21
77.002525
 31
0.0
100
AcDbText
  0
ENDBLK
  5
7A7
100
AcDbEntity
  8
0
100
AcDbBlockEnd
  0
BLOCK
  5
7A8
100
AcDbEntity
  8
0
100
AcDbBlockBegin
  2
BLOCK25
 70
     0
 10
0.0
 20
0.0
 30
0.0
  3
BLOCK25
  1

  0
TEXT
  5
7A9
100
AcDbEntity
  8
0
 62
     7
100
AcDbText
 10
-58.0
 20
-34.856628
 30
0.0
 40
3.5
  1
Y
 72
     5
 11
-54.963978
 21
-34.856628
 31
0.0
100
AcDbText
  0
ENDBLK
  5
7AA
100
AcDbEntity
  8
0
100
AcDbBlockEnd
  0
BLOCK
  5
7AB
100
AcDbEntity
  8
0
100
AcDbBlockBegin
  2
BLOCK26
 70
     0
 10
0.0
 20
0.0
 30
0.0
  3
BLOCK26
  1

  0
TEXT
  5
7AC
100
AcDbEntity
  8
0
 62
     7
100
AcDbText
 10
27.307173
 20
76.503174
 30
0.0
 40
3.5
  1
X
 72
     5
 11
30.343197
 21
76.503174
 31
0.0
100
AcDbText
  0
ENDBLK
  5
7AD
100
AcDbEntity
  8
0
100
AcDbBlockEnd
  0
BLOCK
  5
7AE
100
AcDbEntity
  8
0
100
AcDbBlockBegin
  2
BLOCK27
 70
     0
 10
0.0
 20
0.0
 30
0.0
  3
BLOCK27
  1

  0
TEXT
  5
7AF
100
AcDbEntity
  8
0
 62
     7
100
AcDbText
 10
-59.0
 20
184.143372
 30
0.0
 40
3.5
  1
Y
 72
     5
 11
-55.963978
 21
184.143372
 31
0.0
100
AcDbText
  0
ENDBLK
  5
7B0
100
AcDbEntity
  8
0
100
AcDbBlockEnd
  0
BLOCK
  5
7B1
100
AcDbEntity
  8
0
100
AcDbBlockBegin
  2
BLOCK28
 70
     0
 10
0.0
 20
0.0
 30
0.0
  3
BLOCK28
  1

  0
TEXT
  5
7B2
100
AcDbEntity
  8
0
 62
     7
100
AcDbText
 10
-37.372047
 20
200.930801
 30
0.0
 40
3.5
  1
46.5
 72
     5
 11
-23.127954
 21
200.930801
 31
0.0
100
AcDbText
  0
LINE
  5
7B3
100
AcDbEntity
  8
0
 62
     7
 48
0.338464
100
AcDbLine
 10
-53.5
 20
187.392258
 30
0.0
 11
-53.5
 21
200.930801
 31
0.0
210
0.0
220
0.0
230
1.0
  0
LINE
  5
7B4
100
AcDbEntity
  8
0
 62
     7
100
AcDbLine
 10
-7.0
 20
179.36113
 30
0.0
 11
-7.0
 21
200.930801
 31
0.0
210
0.0
220
0.0
230
1.0
  0
POLYLINE
  5
7B5
100
AcDbEntity
  8
0
 62
     7
100
AcDb2dPolyline
 66
     1
 10
0.0
 20
0.0
 30
0.0
 71
     3
  0
VERTEX
  5
7B6
100
AcDbEntity
  8
0
100
AcDbVertex
100
AcDb2dVertex
 10
-8.931851
 20
198.413162
 30
0.0
  0
VERTEX
  5
7B7
100
AcDbEntity
  8
0
100
AcDbVertex
100
AcDb2dVertex
 10
-7.0
 20
198.930801
 30
0.0
  0
VERTEX
  5
7B8
100
AcDbEntity
  8
0
100
AcDbVertex
100
AcDb2dVertex
 10
-8.931851
 20
199.448441
 30
0.0
  0
SEQEND
  5
7B9
100
AcDbEntity
  8
0
  0
POLYLINE
  5
7BA
100
AcDbEntity
  8
0
 62
     7
100
AcDb2dPolyline
 66
     1
 10
0.0
 20
0.0
 30
0.0
 71
     3
  0
VERTEX
  5
7BB
100
AcDbEntity
  8
0
100
AcDbVertex
100
AcDb2dVertex
 10
-51.56815
 20
199.448441
 30
0.0
  0
VERTEX
  5
7BC
100
AcDbEntity
  8
0
100
AcDbVertex
100
AcDb2dVertex
 10
-53.5
 20
198.930801
 30
0.0
  0
VERTEX
  5
7BD
100
AcDbEntity
  8
0
100
AcDbVertex
100
AcDb2dVertex
 10
-51.56815
 20
198.413162
 30
0.0
  0
SEQEND
  5
7BE
100
AcDbEntity
  8
0
  0
LINE
  5
7BF
100
AcDbEntity
  8
0
 62
     7
100
AcDbLine
 10
-53.5
 20
198.930801
 30
0.0
 11
-7.0
 21
198.930801
 31
0.0
210
0.0
220
0.0
230
1.0
  0
ENDBLK
  5
7C0
100
AcDbEntity
  8
0
100
AcDbBlockEnd
  0
BLOCK
  5
7C1
100
AcDbEntity
  8
0
100
AcDbBlockBegin
  2
BLOCK29
 70
     0
 10
0.0
 20
0.0
 30
0.0
  3
BLOCK29
  1

  0
TEXT
  5
7C2
100
AcDbEntity
  8
0
 62
     7
100
AcDbText
 10
-83.872047
 20
200.930801
 30
0.0
 40
3.5
  1
46.5
 72
     5
 11
-69.627953
 21
200.930801
 31
0.0
100
AcDbText
  0
LINE
  5
7C3
100
AcDbEntity
  8
0
 62
     7
 48
0.264787
100
AcDbLine
 10
-100.0
 20
190.33931
 30
0.0
 11
-100.0
 21
200.930801
 31
0.0
210
0.0
220
0.0
230
1.0
  0
POLYLINE
  5
7C4
100
AcDbEntity
  8
0
 62
     7
100
AcDb2dPolyline
 66
     1
 10
0.0
 20
0.0
 30
0.0
 71
     3
  0
VERTEX
  5
7C5
100
AcDbEntity
  8
0
100
AcDbVertex
100
AcDb2dVertex
 10
-98.068146
 20
199.448441
 30
0.0
  0
VERTEX
  5
7C6
100
AcDbEntity
  8
0
100
AcDbVertex
100
AcDb2dVertex
 10
-100.0
 20
198.930801
 30
0.0
  0
VERTEX
  5
7C7
100
AcDbEntity
  8
0
100
AcDbVertex
100
AcDb2dVertex
 10
-98.068146
 20
198.413162
 30
0.0
  0
SEQEND
  5
7C8
100
AcDbEntity
  8
0
  0
POLYLINE
  5
7C9
100
AcDbEntity
  8
0
 62
     7
100
AcDb2dPolyline
 66
     1
 10
0.0
 20
0.0
 30
0.0
 71
     3
  0
VERTEX
  5
7CA
100
AcDbEntity
  8
0
100
AcDbVertex
100
AcDb2dVertex
 10
-55.43185
 20
198.413162
 30
0.0
  0
VERTEX
  5
7CB
100
AcDbEntity
  8
0
100
AcDbVertex
100
AcDb2dVertex
 10
-53.5
 20
198.930801
 30
0.0
  0
VERTEX
  5
7CC
100
AcDbEntity
  8
0
100
AcDbVertex
100
AcDb2dVertex
 10
-55.43185
 20
199.448441
 30
0.0
  0
SEQEND
  5
7CD
100
AcDbEntity
  8
0
  0
LINE
  5
7CE
100
AcDbEntity
  8
0
 62
     7
100
AcDbLine
 10
-100.0
 20
198.930801
 30
0.0
 11
-53.5
 21
198.930801
 31
0.0
210
0.0
220
0.0
230
1.0
  0
ENDBLK
  5
7CF
100
AcDbEntity
  8
0
100
AcDbBlockEnd
  0
BLOCK
  5
7D0
100
AcDbEntity
  8
0
100
AcDbBlockBegin
  2
BLOCK30
 70
     0
 10
0.0
 20
0.0
 30
0.0
  3
BLOCK30
  1

  0
TEXT
  5
7D1
100
AcDbEntity
  8
0
 62
     7
100
AcDbText
 10
-130.37204
 20
200.930801
 30
0.0
 40
3.5
  1
46.5
 72
     5
 11
-116.127953
 21
200.930801
 31
0.0
100
AcDbText
  0
LINE
  5
7D2
100
AcDbEntity
  8
0
 62
     7
100
AcDbLine
 10
-146.5
 20
172.25
 30
0.0
 11
-146.5
 21
200.930801
 31
0.0
210
0.0
220
0.0
230
1.0
  0
LINE
  5
7D3
100
AcDbEntity
  8
0
 62
     7
100
AcDbLine
 10
-100.0
 20
179.543381
 30
0.0
 11
-100.0
 21
200.930801
 31
0.0
210
0.0
220
0.0
230
1.0
  0
POLYLINE
  5
7D4
100
AcDbEntity
  8
0
 62
     7
100
AcDb2dPolyline
 66
     1
 10
0.0
 20
0.0
 30
0.0
 71
     3
  0
VERTEX
  5
7D5
100
AcDbEntity
  8
0
100
AcDbVertex
100
AcDb2dVertex
 10
-101.931854
 20
198.413162
 30
0.0
  0
VERTEX
  5
7D6
100
AcDbEntity
  8
0
100
AcDbVertex
100
AcDb2dVertex
 10
-100.0
 20
198.930801
 30
0.0
  0
VERTEX
  5
7D7
100
AcDbEntity
  8
0
100
AcDbVertex
100
AcDb2dVertex
 10
-101.931854
 20
199.448441
 30
0.0
  0
SEQEND
  5
7D8
100
AcDbEntity
  8
0
  0
POLYLINE
  5
7D9
100
AcDbEntity
  8
0
 62
     7
100
AcDb2dPolyline
 66
     1
 10
0.0
 20
0.0
 30
0.0
 71
     3
  0
VERTEX
  5
7DA
100
AcDbEntity
  8
0
100
AcDbVertex
100
AcDb2dVertex
 10
-144.568146
 20
199.448441
 30
0.0
  0
VERTEX
  5
7DB
100
AcDbEntity
  8
0
100
AcDbVertex
100
AcDb2dVertex
 10
-146.5
 20
198.930801
 30
0.0
  0
VERTEX
  5
7DC
100
AcDbEntity
  8
0
100
AcDbVertex
100
AcDb2dVertex
 10
-144.568146
 20
198.413162
 30
0.0
  0
SEQEND
  5
7DD
100
AcDbEntity
  8
0
  0
LINE
  5
7DE
100
AcDbEntity
  8
0
 62
     7
100
AcDbLine
 10
-146.5
 20
198.930801
 30
0.0
 11
-100.0
 21
198.930801
 31
0.0
210
0.0
220
0.0
230
1.0
  0
ENDBLK
  5
7DF
100
AcDbEntity
  8
0
100
AcDbBlockEnd
  0
BLOCK
  5
7E0
100
AcDbEntity
  8
0
100
AcDbBlockBegin
  2
BLOCK31
 70
     0
 10
0.0
 20
0.0
 30
0.0
  3
BLOCK31
  1

  0
TEXT
  5
7E1
100
AcDbEntity
  8
0
 62
     7
100
AcDbText
 10
-79.555161
 20
216.988403
 30
0.0
 40
3.5
  1
139.5
 72
     5
 11
-61.575043
 21
216.988403
 31
0.0
100
AcDbText
  0
LINE
  5
7E2
100
AcDbEntity
  8
0
 62
     7
 48
0.451808
100
AcDbLine
 10
-123.25
 20
175.75
 30
0.0
 11
-123.25
 21
193.822327
 31
0.0
210
0.0
220
0.0
230
1.0
  0
LINE
  5
7E3
100
AcDbEntity
  8
0
 62
     7
 48
0.194024
100
AcDbLine
 10
-123.25
 20
209.227432
 30
0.0
 11
-123.25
 21
216.988403
 31
0.0
210
0.0
220
0.0
230
1.0
  0
LINE
  5
7E4
100
AcDbEntity
  8
0
 62
     7
100
AcDbLine
 10
16.25
 20
175.75
 30
0.0
 11
16.25
 21
216.988403
 31
0.0
210
0.0
220
0.0
230
1.0
  0
POLYLINE
  5
7E5
100
AcDbEntity
  8
0
 62
     7
100
AcDb2dPolyline
 66
     1
 10
0.0
 20
0.0
 30
0.0
 71
     3
  0
VERTEX
  5
7E6
100
AcDbEntity
  8
0
100
AcDbVertex
100
AcDb2dVertex
 10
14.318149
 20
214.470764
 30
0.0
  0
VERTEX
  5
7E7
100
AcDbEntity
  8
0
100
AcDbVertex
100
AcDb2dVertex
 10
16.25
 20
214.988403
 30
0.0
  0
VERTEX
  5
7E8
100
AcDbEntity
  8
0
100
AcDbVertex
100
AcDb2dVertex
 10
14.318149
 20
215.506042
 30
0.0
  0
SEQEND
  5
7E9
100
AcDbEntity
  8
0
  0
POLYLINE
  5
7EA
100
AcDbEntity
  8
0
 62
     7
100
AcDb2dPolyline
 66
     1
 10
0.0
 20
0.0
 30
0.0
 71
     3
  0
VERTEX
  5
7EB
100
AcDbEntity
  8
0
100
AcDbVertex
100
AcDb2dVertex
 10
-121.318146
 20
215.506042
 30
0.0
  0
VERTEX
  5
7EC
100
AcDbEntity
  8
0
100
AcDbVertex
100
AcDb2dVertex
 10
-123.25
 20
214.988403
 30
0.0
  0
VERTEX
  5
7ED
100
AcDbEntity
  8
0
100
AcDbVertex
100
AcDb2dVertex
 10
-121.318146
 20
214.470764
 30
0.0
  0
SEQEND
  5
7EE
100
AcDbEntity
  8
0
  0
LINE
  5
7EF
100
AcDbEntity
  8
0
 62
     7
100
AcDbLine
 10
-123.25
 20
214.988403
 30
0.0
 11
16.25
 21
214.988403
 31
0.0
210
0.0
220
0.0
230
1.0
  0
ENDBLK
  5
7F0
100
AcDbEntity
  8
0
100
AcDbBlockEnd
  0
BLOCK
  5
7F1
100
AcDbEntity
  8
0
100
AcDbBlockBegin
  2
BLOCK32
 70
     0
 10
0.0
 20
0.0
 30
0.0
  3
BLOCK32
  1

  0
TEXT
  5
7F2
100
AcDbEntity
  8
0
 62
     7
100
AcDbText
 10
-84.828064
 20
230.679123
 30
0.0
 40
3.5
  1
186
 72
     5
 11
-74.319992
 21
230.679123
 31
0.0
100
AcDbText
  0
LINE
  5
7F3
100
AcDbEntity
  8
0
 62
     7
100
AcDbLine
 10
-169.75
 20
175.75
 30
0.0
 11
-169.75
 21
230.679123
 31
0.0
210
0.0
220
0.0
230
1.0
  0
LINE
  5
7F4
100
AcDbEntity
  8
0
 62
     7
100
AcDbLine
 10
16.25
 20
175.75
 30
0.0
 11
16.25
 21
230.679123
 31
0.0
210
0.0
220
0.0
230
1.0
  0
POLYLINE
  5
7F5
100
AcDbEntity
  8
0
 62
     7
100
AcDb2dPolyline
 66
     1
 10
0.0
 20
0.0
 30
0.0
 71
     3
  0
VERTEX
  5
7F6
100
AcDbEntity
  8
0
100
AcDbVertex
100
AcDb2dVertex
 10
14.318149
 20
228.161484
 30
0.0
  0
VERTEX
  5
7F7
100
AcDbEntity
  8
0
100
AcDbVertex
100
AcDb2dVertex
 10
16.25
 20
228.679123
 30
0.0
  0
VERTEX
  5
7F8
100
AcDbEntity
  8
0
100
AcDbVertex
100
AcDb2dVertex
 10
14.318149
 20
229.196762
 30
0.0
  0
SEQEND
  5
7F9
100
AcDbEntity
  8
0
  0
POLYLINE
  5
7FA
100
AcDbEntity
  8
0
 62
     7
100
AcDb2dPolyline
 66
     1
 10
0.0
 20
0.0
 30
0.0
 71
     3
  0
VERTEX
  5
7FB
100
AcDbEntity
  8
0
100
AcDbVertex
100
AcDb2dVertex
 10
-167.818146
 20
229.196762
 30
0.0
  0
VERTEX
  5
7FC
100
AcDbEntity
  8
0
100
AcDbVertex
100
AcDb2dVertex
 10
-169.75
 20
228.679123
 30
0.0
  0
VERTEX
  5
7FD
100
AcDbEntity
  8
0
100
AcDbVertex
100
AcDb2dVertex
 10
-167.818146
 20
228.161484
 30
0.0
  0
SEQEND
  5
7FE
100
AcDbEntity
  8
0
  0
LINE
  5
7FF
100
AcDbEntity
  8
0
 62
     7
100
AcDbLine
 10
-169.75
 20
228.679123
 30
0.0
 11
16.25
 21
228.679123
 31
0.0
210
0.0
220
0.0
230
1.0
  0
ENDBLK
  5
800
100
AcDbEntity
  8
0
100
AcDbBlockEnd
  0
BLOCK
  5
801
100
AcDbEntity
  8
0
100
AcDbBlockBegin
  2
BLOCK33
 70
     0
 10
0.0
 20
0.0
 30
0.0
  3
BLOCK33
  1

  0
TEXT
  5
802
100
AcDbEntity
  8
0
 62
     7
100
AcDbText
 10
-187.112503
 20
133.751816
 30
0.0
 40
3.5
  1
102.5
 50
90.000003
 72
     5
 11
-187.112503
 21
151.731918
 31
0.0
100
AcDbText
  0
LINE
  5
803
100
AcDbEntity
  8
0
 62
     7
 48
0.25678
100
AcDbLine
 10
-176.841293
 20
77.25
 30
0.0
 11
-187.112503
 21
77.25
 31
0.0
210
0.0
220
0.0
230
1.0
  0
LINE
  5
804
100
AcDbEntity
  8
0
 62
     7
 48
0.446563
100
AcDbLine
 10
-169.25
 20
179.75
 30
0.0
 11
-187.112503
 21
179.75
 31
0.0
210
0.0
220
0.0
230
1.0
  0
POLYLINE
  5
805
100
AcDbEntity
  8
0
 62
     7
100
AcDb2dPolyline
 66
     1
 10
0.0
 20
0.0
 30
0.0
 71
     3
  0
VERTEX
  5
806
100
AcDbEntity
  8
0
100
AcDbVertex
100
AcDb2dVertex
 10
-184.594864
 20
177.818146
 30
0.0
  0
VERTEX
  5
807
100
AcDbEntity
  8
0
100
AcDbVertex
100
AcDb2dVertex
 10
-185.112503
 20
179.75
 30
0.0
  0
VERTEX
  5
808
100
AcDbEntity
  8
0
100
AcDbVertex
100
AcDb2dVertex
 10
-185.630142
 20
177.818146
 30
0.0
  0
SEQEND
  5
809
100
AcDbEntity
  8
0
  0
POLYLINE
  5
80A
100
AcDbEntity
  8
0
 62
     7
100
AcDb2dPolyline
 66
     1
 10
0.0
 20
0.0
 30
0.0
 71
     3
  0
VERTEX
  5
80B
100
AcDbEntity
  8
0
100
AcDbVertex
100
AcDb2dVertex
 10
-185.630142
 20
79.181854
 30
0.0
  0
VERTEX
  5
80C
100
AcDbEntity
  8
0
100
AcDbVertex
100
AcDb2dVertex
 10
-185.112503
 20
77.25
 30
0.0
  0
VERTEX
  5
80D
100
AcDbEntity
  8
0
100
AcDbVertex
100
AcDb2dVertex
 10
-184.594864
 20
79.181854
 30
0.0
  0
SEQEND
  5
80E
100
AcDbEntity
  8
0
  0
LINE
  5
80F
100
AcDbEntity
  8
0
 62
     7
100
AcDbLine
 10
-185.112503
 20
77.25
 30
0.0
 11
-185.112503
 21
179.75
 31
0.0
210
0.0
220
0.0
230
1.0
  0
ENDBLK
  5
810
100
AcDbEntity
  8
0
100
AcDbBlockEnd
  0
BLOCK
  5
811
100
AcDbEntity
  8
0
100
AcDbBlockBegin
  2
BLOCK34
 70
     0
 10
0.0
 20
0.0
 30
0.0
  3
BLOCK34
  1

  0
TEXT
  5
812
100
AcDbEntity
  8
0
 62
     7
100
AcDbText
 10
-198.484375
 20
99.381966
 30
0.0
 40
3.5
  1
205
 50
90.000003
 72
     5
 11
-198.484375
 21
109.890038
 31
0.0
100
AcDbText
  0
LINE
  5
813
100
AcDbEntity
  8
0
 62
     7
100
AcDbLine
 10
-169.75
 20
-25.25
 30
0.0
 11
-198.484375
 21
-25.25
 31
0.0
210
0.0
220
0.0
230
1.0
  0
LINE
  5
814
100
AcDbEntity
  8
0
 62
     7
100
AcDbLine
 10
-169.25
 20
179.75
 30
0.0
 11
-198.484375
 21
179.75
 31
0.0
210
0.0
220
0.0
230
1.0
  0
POLYLINE
  5
815
100
AcDbEntity
  8
0
 62
     7
100
AcDb2dPolyline
 66
     1
 10
0.0
 20
0.0
 30
0.0
 71
     3
  0
VERTEX
  5
816
100
AcDbEntity
  8
0
100
AcDbVertex
100
AcDb2dVertex
 10
-195.966736
 20
177.818146
 30
0.0
  0
VERTEX
  5
817
100
AcDbEntity
  8
0
100
AcDbVertex
100
AcDb2dVertex
 10
-196.484375
 20
179.75
 30
0.0
  0
VERTEX
  5
818
100
AcDbEntity
  8
0
100
AcDbVertex
100
AcDb2dVertex
 10
-197.002014
 20
177.818146
 30
0.0
  0
SEQEND
  5
819
100
AcDbEntity
  8
0
  0
POLYLINE
  5
81A
100
AcDbEntity
  8
0
 62
     7
100
AcDb2dPolyline
 66
     1
 10
0.0
 20
0.0
 30
0.0
 71
     3
  0
VERTEX
  5
81B
100
AcDbEntity
  8
0
100
AcDbVertex
100
AcDb2dVertex
 10
-197.002014
 20
-23.318148
 30
0.0
  0
VERTEX
  5
81C
100
AcDbEntity
  8
0
100
AcDbVertex
100
AcDb2dVertex
 10
-196.484375
 20
-25.25
 30
0.0
  0
VERTEX
  5
81D
100
AcDbEntity
  8
0
100
AcDbVertex
100
AcDb2dVertex
 10
-195.966736
 20
-23.318148
 30
0.0
  0
SEQEND
  5
81E
100
AcDbEntity
  8
0
  0
LINE
  5
81F
100
AcDbEntity
  8
0
 62
     7
100
AcDbLine
 10
-196.484375
 20
-25.25
 30
0.0
 11
-196.484375
 21
179.75
 31
0.0
210
0.0
220
0.0
230
1.0
  0
ENDBLK
  5
820
100
AcDbEntity
  8
0
100
AcDbBlockEnd
  0
BLOCK
  5
821
100
AcDbEntity
  8
0
100
AcDbBlockBegin
  2
BLOCK35
 70
     0
 10
0.0
 20
0.0
 30
0.0
  3
BLOCK35
  1

  0
TEXT
  5
822
100
AcDbEntity
  8
0
 62
     7
100
AcDbText
 10
-58.102074
 20
-46.093525
 30
0.0
 40
3.5
  1
115
 72
     5
 11
-47.594002
 21
-46.093525
 31
0.0
100
AcDbText
  0
LINE
  5
823
100
AcDbEntity
  8
0
 62
     7
100
AcDbLine
 10
-111.0
 20
24.75
 30
0.0
 11
-111.0
 21
-50.093525
 31
0.0
210
0.0
220
0.0
230
1.0
  0
LINE
  5
824
100
AcDbEntity
  8
0
 62
     7
100
AcDbLine
 10
4.0
 20
24.75
 30
0.0
 11
4.0
 21
-50.093525
 31
0.0
210
0.0
220
0.0
230
1.0
  0
POLYLINE
  5
825
100
AcDbEntity
  8
0
 62
     7
100
AcDb2dPolyline
 66
     1
 10
0.0
 20
0.0
 30
0.0
 71
     3
  0
VERTEX
  5
826
100
AcDbEntity
  8
0
100
AcDbVertex
100
AcDb2dVertex
 10
2.068148
 20
-48.611164
 30
0.0
  0
VERTEX
  5
827
100
AcDbEntity
  8
0
100
AcDbVertex
100
AcDb2dVertex
 10
4.0
 20
-48.093525
 30
0.0
  0
VERTEX
  5
828
100
AcDbEntity
  8
0
100
AcDbVertex
100
AcDb2dVertex
 10
2.068148
 20
-47.575886
 30
0.0
  0
SEQEND
  5
829
100
AcDbEntity
  8
0
  0
POLYLINE
  5
82A
100
AcDbEntity
  8
0
 62
     7
100
AcDb2dPolyline
 66
     1
 10
0.0
 20
0.0
 30
0.0
 71
     3
  0
VERTEX
  5
82B
100
AcDbEntity
  8
0
100
AcDbVertex
100
AcDb2dVertex
 10
-109.068146
 20
-47.575886
 30
0.0
  0
VERTEX
  5
82C
100
AcDbEntity
  8
0
100
AcDbVertex
100
AcDb2dVertex
 10
-111.0
 20
-48.093525
 30
0.0
  0
VERTEX
  5
82D
100
AcDbEntity
  8
0
100
AcDbVertex
100
AcDb2dVertex
 10
-109.068146
 20
-48.611164
 30
0.0
  0
SEQEND
  5
82E
100
AcDbEntity
  8
0
  0
LINE
  5
82F
100
AcDbEntity
  8
0
 62
     7
100
AcDbLine
 10
-111.0
 20
-48.093525
 30
0.0
 11
4.0
 21
-48.093525
 31
0.0
210
0.0
220
0.0
230
1.0
  0
ENDBLK
  5
830
100
AcDbEntity
  8
0
100
AcDbBlockEnd
  0
BLOCK
  5
831
100
AcDbEntity
  8
0
100
AcDbBlockBegin
  2
BLOCK36
 70
     0
 10
0.0
 20
0.0
 30
0.0
  3
BLOCK36
  1

  0
TEXT
  5
832
100
AcDbEntity
  8
0
 62
     7
100
AcDbText
 10
-143.253433
 20
42.261494
 30
0.0
 40
3.5
  1
2.7
 72
     5
 11
-132.745377
 21
42.261494
 31
0.0
100
AcDbText
  0
LINE
  5
833
100
AcDbEntity
  8
0
 62
     7
100
AcDbLine
 10
-125.950691
 20
81.750008
 30
0.0
 11
-125.950691
 21
38.261494
 31
0.0
210
0.0
220
0.0
230
1.0
  0
LINE
  5
834
100
AcDbEntity
  8
0
 62
     7
100
AcDbLine
 10
-123.249977
 20
80.749992
 30
0.0
 11
-123.249977
 21
38.261494
 31
0.0
210
0.0
220
0.0
230
1.0
  0
POLYLINE
  5
835
100
AcDbEntity
  8
0
 62
     7
100
AcDb2dPolyline
 66
     1
 10
0.0
 20
0.0
 30
0.0
 71
     3
  0
VERTEX
  5
836
100
AcDbEntity
  8
0
100
AcDbVertex
100
AcDb2dVertex
 10
-121.318123
 20
40.779129
 30
0.0
  0
VERTEX
  5
837
100
AcDbEntity
  8
0
100
AcDbVertex
100
AcDb2dVertex
 10
-123.249977
 20
40.261494
 30
0.0
  0
VERTEX
  5
838
100
AcDbEntity
  8
0
100
AcDbVertex
100
AcDb2dVertex
 10
-121.318123
 20
39.743855
 30
0.0
  0
SEQEND
  5
839
100
AcDbEntity
  8
0
  0
POLYLINE
  5
83A
100
AcDbEntity
  8
0
 62
     7
100
AcDb2dPolyline
 66
     1
 10
0.0
 20
0.0
 30
0.0
 71
     3
  0
VERTEX
  5
83B
100
AcDbEntity
  8
0
100
AcDbVertex
100
AcDb2dVertex
 10
-127.882538
 20
39.743855
 30
0.0
  0
VERTEX
  5
83C
100
AcDbEntity
  8
0
100
AcDbVertex
100
AcDb2dVertex
 10
-125.950691
 20
40.261494
 30
0.0
  0
VERTEX
  5
83D
100
AcDbEntity
  8
0
100
AcDbVertex
100
AcDb2dVertex
 10
-127.882538
 20
40.779129
 30
0.0
  0
SEQEND
  5
83E
100
AcDbEntity
  8
0
  0
LINE
  5
83F
100
AcDbEntity
  8
0
 62
     7
100
AcDbLine
 10
-143.253433
 20
40.261494
 30
0.0
 11
-118.249977
 21
40.261494
 31
0.0
210
0.0
220
0.0
230
1.0
  0
ENDBLK
  5
840
100
AcDbEntity
  8
0
100
AcDbBlockEnd
  0
BLOCK
  5
841
100
AcDbEntity
  8
0
100
AcDbBlockBegin
  2
BLOCK37
 70
     0
 10
0.0
 20
0.0
 30
0.0
  3
BLOCK37
  1

  0
TEXT
  5
842
100
AcDbEntity
  8
0
 62
     7
100
AcDbText
 10
24.434944
 20
43.160633
 30
0.0
 40
3.5
  1
5.5
 72
     5
 11
34.943012
 21
43.160633
 31
0.0
100
AcDbText
  0
LINE
  5
843
100
AcDbEntity
  8
0
 62
     7
100
AcDbLine
 10
21.749964
 20
80.423538
 30
0.0
 11
21.749964
 21
39.160633
 31
0.0
210
0.0
220
0.0
230
1.0
  0
POLYLINE
  5
844
100
AcDbEntity
  8
0
 62
     7
100
AcDb2dPolyline
 66
     1
 10
0.0
 20
0.0
 30
0.0
 71
     3
  0
VERTEX
  5
845
100
AcDbEntity
  8
0
100
AcDbVertex
100
AcDb2dVertex
 10
23.681816
 20
41.678272
 30
0.0
  0
VERTEX
  5
846
100
AcDbEntity
  8
0
100
AcDbVertex
100
AcDb2dVertex
 10
21.749964
 20
41.160633
 30
0.0
  0
VERTEX
  5
847
100
AcDbEntity
  8
0
100
AcDbVertex
100
AcDb2dVertex
 10
23.681816
 20
40.642994
 30
0.0
  0
SEQEND
  5
848
100
AcDbEntity
  8
0
  0
POLYLINE
  5
849
100
AcDbEntity
  8
0
 62
     7
100
AcDb2dPolyline
 66
     1
 10
0.0
 20
0.0
 30
0.0
 71
     3
  0
VERTEX
  5
84A
100
AcDbEntity
  8
0
100
AcDbVertex
100
AcDb2dVertex
 10
14.318149
 20
40.642994
 30
0.0
  0
VERTEX
  5
84B
100
AcDbEntity
  8
0
100
AcDbVertex
100
AcDb2dVertex
 10
16.25
 20
41.160633
 30
0.0
  0
VERTEX
  5
84C
100
AcDbEntity
  8
0
100
AcDbVertex
100
AcDb2dVertex
 10
14.318149
 20
41.678272
 30
0.0
  0
SEQEND
  5
84D
100
AcDbEntity
  8
0
  0
LINE
  5
84E
100
AcDbEntity
  8
0
 62
     7
100
AcDbLine
 10
11.25
 20
41.160633
 30
0.0
 11
34.943012
 21
41.160633
 31
0.0
210
0.0
220
0.0
230
1.0
  0
ENDBLK
  5
84F
100
AcDbEntity
  8
0
100
AcDbBlockEnd
  0
BLOCK
  5
850
100
AcDbEntity
  8
0
100
AcDbBlockBegin
  2
BLOCK38
 70
     0
 10
0.0
 20
0.0
 30
0.0
  3
BLOCK38
  1

  0
TEXT
  5
851
100
AcDbEntity
  8
0
 62
     1
100
AcDbText
 10
-187.679993
 20
57.98243
 30
0.0
 40
3.5
  1
2.7
 72
     5
 11
-177.171936
 21
57.98243
 31
0.0
100
AcDbText
  0
LINE
  5
852
100
AcDbEntity
  8
0
 62
     1
100
AcDbLine
 10
-172.450684
 20
81.750008
 30
0.0
 11
-172.450684
 21
53.98243
 31
0.0
210
0.0
220
0.0
230
1.0
  0
LINE
  5
853
100
AcDbEntity
  8
0
 62
     1
100
AcDbLine
 10
-169.749969
 20
80.749992
 30
0.0
 11
-169.749969
 21
53.98243
 31
0.0
210
0.0
220
0.0
230
1.0
  0
POLYLINE
  5
854
100
AcDbEntity
  8
0
 62
     1
100
AcDb2dPolyline
 66
     1
 10
0.0
 20
0.0
 30
0.0
 71
     3
  0
VERTEX
  5
855
100
AcDbEntity
  8
0
100
AcDbVertex
100
AcDb2dVertex
 10
-174.382538
 20
55.46479
 30
0.0
  0
VERTEX
  5
856
100
AcDbEntity
  8
0
100
AcDbVertex
100
AcDb2dVertex
 10
-172.450684
 20
55.98243
 30
0.0
  0
VERTEX
  5
857
100
AcDbEntity
  8
0
100
AcDbVertex
100
AcDb2dVertex
 10
-174.382538
 20
56.500065
 30
0.0
  0
SEQEND
  5
858
100
AcDbEntity
  8
0
  0
POLYLINE
  5
859
100
AcDbEntity
  8
0
 62
     1
100
AcDb2dPolyline
 66
     1
 10
0.0
 20
0.0
 30
0.0
 71
     3
  0
VERTEX
  5
85A
100
AcDbEntity
  8
0
100
AcDbVertex
100
AcDb2dVertex
 10
-167.81813
 20
56.500065
 30
0.0
  0
VERTEX
  5
85B
100
AcDbEntity
  8
0
100
AcDbVertex
100
AcDb2dVertex
 10
-169.749969
 20
55.98243
 30
0.0
  0
VERTEX
  5
85C
100
AcDbEntity
  8
0
100
AcDbVertex
100
AcDb2dVertex
 10
-167.81813
 20
55.46479
 30
0.0
  0
SEQEND
  5
85D
100
AcDbEntity
  8
0
  0
LINE
  5
85E
100
AcDbEntity
  8
0
 62
     1
100
AcDbLine
 10
-187.680008
 20
55.98243
 30
0.0
 11
-164.749969
 21
55.98243
 31
0.0
210
0.0
220
0.0
230
1.0
  0
ENDBLK
  5
85F
100
AcDbEntity
  8
0
100
AcDbBlockEnd
  0
BLOCK
  5
860
100
AcDbEntity
  8
0
100
AcDbBlockBegin
  2
BLOCK39
 70
     0
 10
0.0
 20
0.0
 30
0.0
  3
BLOCK39
  1

  0
LINE
  5
861
100
AcDbEntity
  8
0
  6
DASHDOT
 62
     7
 48
0.227961
100
AcDbLine
 10
-2.440776
 20
163.75
 30
0.0
 11
-11.559224
 21
163.75
 31
0.0
210
0.0
220
0.0
230
1.0
  0
LINE
  5
862
100
AcDbEntity
  8
0
  6
DASHDOT
 62
     7
100
AcDbLine
 10
-7.0
 20
177.36113
 30
0.0
 11
-7.0
 21
155.465164
 31
0.0
210
0.0
220
0.0
230
1.0
  0
ENDBLK
  5
863
100
AcDbEntity
  8
0
100
AcDbBlockEnd
  0
BLOCK
  5
864
100
AcDbEntity
  8
0
100
AcDbBlockBegin
  2
BLOCK40
 70
     0
 10
0.0
 20
0.0
 30
0.0
  3
BLOCK40
  1

  0
LINE
  5
865
100
AcDbEntity
  8
0
  6
DASHDOT
 62
     7
100
AcDbLine
 10
-100.0
 20
177.543381
 30
0.0
 11
-100.0
 21
154.041763
 31
0.0
210
0.0
220
0.0
230
1.0
  0
ENDBLK
  5
866
100
AcDbEntity
  8
0
100
AcDbBlockEnd
  0
BLOCK
  5
867
100
AcDbEntity
  8
0
100
AcDbBlockBegin
  2
BLOCK41
 70
     0
 10
0.0
 20
0.0
 30
0.0
  3
BLOCK41
  1

  0
LINE
  5
868
100
AcDbEntity
  8
0
  6
DASHDOT
 62
     7
 48
0.325
100
AcDbLine
 10
-140.0
 20
163.75
 30
0.0
 11
-153.0
 21
163.75
 31
0.0
210
0.0
220
0.0
230
1.0
  0
LINE
  5
869
100
AcDbEntity
  8
0
  6
DASHDOT
 62
     7
 48
0.325
100
AcDbLine
 10
-146.5
 20
170.25
 30
0.0
 11
-146.5
 21
157.25
 31
0.0
210
0.0
220
0.0
230
1.0
  0
ENDBLK
  5
86A
100
AcDbEntity
  8
0
100
AcDbBlockEnd
  0
BLOCK
  5
86B
100
AcDbEntity
  8
0
100
AcDbBlockBegin
  2
BLOCK42
 70
     0
 10
0.0
 20
0.0
 30
0.0
  3
BLOCK42
  1

  0
LINE
  5
86C
100
AcDbEntity
  8
0
  6
DASHDOT
 62
     7
 48
0.325
100
AcDbLine
 10
-140.0
 20
-9.25
 30
0.0
 11
-153.0
 21
-9.25
 31
0.0
210
0.0
220
0.0
230
1.0
  0
LINE
  5
86D
100
AcDbEntity
  8
0
  6
DASHDOT
 62
     7
 48
0.325
100
AcDbLine
 10
-146.5
 20
-2.75
 30
0.0
 11
-146.5
 21
-15.75
 31
0.0
210
0.0
220
0.0
230
1.0
  0
ENDBLK
  5
86E
100
AcDbEntity
  8
0
100
AcDbBlockEnd
  0
BLOCK
  5
86F
100
AcDbEntity
  8
0
100
AcDbBlockBegin
  2
BLOCK43
 70
     0
 10
0.0
 20
0.0
 30
0.0
  3
BLOCK43
  1

  0
LINE
  5
870
100
AcDbEntity
  8
0
  6
DASHDOT
 62
     7
 48
0.195
100
AcDbLine
 10
-93.599998
 20
64.75
 30
0.0
 11
-101.400002
 21
64.75
 31
0.0
210
0.0
220
0.0
230
1.0
  0
LINE
  5
871
100
AcDbEntity
  8
0
  6
DASHDOT
 62
     7
 48
0.195
100
AcDbLine
 10
-97.5
 20
68.650002
 30
0.0
 11
-97.5
 21
60.849998
 31
0.0
210
0.0
220
0.0
230
1.0
  0
ENDBLK
  5
872
100
AcDbEntity
  8
0
100
AcDbBlockEnd
  0
BLOCK
  5
873
100
AcDbEntity
  8
0
100
AcDbBlockBegin
  2
BLOCK44
 70
     0
 10
0.0
 20
0.0
 30
0.0
  3
BLOCK44
  1

  0
LINE
  5
874
100
AcDbEntity
  8
0
  6
DASHDOT
 62
     7
100
AcDbLine
 10
0.45
 20
83.000046
 30
0.0
 11
-107.449997
 21
83.000046
 31
0.0
210
0.0
220
0.0
230
1.0
  0
LINE
  5
875
100
AcDbEntity
  8
0
  6
DASHDOT
 62
     7
100
AcDbLine
 10
-53.5
 20
180.122086
 30
0.0
 11
-53.5
 21
-27.951775
 31
0.0
210
0.0
220
0.0
230
1.0
  0
ENDBLK
  5
876
100
AcDbEntity
  8
0
100
AcDbBlockEnd
  0
BLOCK
  5
877
100
AcDbEntity
  8
0
100
AcDbBlockBegin
  2
BLOCK45
 70
     0
 10
0.0
 20
0.0
 30
0.0
  3
BLOCK45
  1

  0
LINE
  5
878
100
AcDbEntity
  8
0
  6
DASHDOT
 62
     7
 48
0.325
100
AcDbLine
 10
-0.5
 20
-9.25
 30
0.0
 11
-13.5
 21
-9.25
 31
0.0
210
0.0
220
0.0
230
1.0
  0
LINE
  5
879
100
AcDbEntity
  8
0
  6
DASHDOT
 62
     7
 48
0.325
100
AcDbLine
 10
-7.0
 20
-2.75
 30
0.0
 11
-7.0
 21
-15.75
 31
0.0
210
0.0
220
0.0
230
1.0
  0
ENDBLK
  5
87A
100
AcDbEntity
  8
0
100
AcDbBlockEnd
  0
BLOCK
  5
87B
100
AcDbEntity
  8
0
100
AcDbBlockBegin
  2
BLOCK46
 70
     0
 10
0.0
 20
0.0
 30
0.0
  3
BLOCK46
  1

  0
LINE
  5
87C
100
AcDbEntity
  8
0
  6
DASHDOT
 62
     7
 48
0.325
100
AcDbLine
 10
-93.5
 20
-9.25
 30
0.0
 11
-106.5
 21
-9.25
 31
0.0
210
0.0
220
0.0
230
1.0
  0
LINE
  5
87D
100
AcDbEntity
  8
0
  6
DASHDOT
 62
     7
 48
0.325
100
AcDbLine
 10
-100.0
 20
-2.75
 30
0.0
 11
-100.0
 21
-15.75
 31
0.0
210
0.0
220
0.0
230
1.0
  0
ENDBLK
  5
87E
100
AcDbEntity
  8
0
100
AcDbBlockEnd
  0
ENDSEC
  0
SECTION
  2
ENTITIES
  0
VIEWPORT
  5
628
100
AcDbEntity
 67
     1
  8
0
 62
     0
 48
0.0
100
AcDbViewport
 10
0.0
 20
0.0
 30
0.0
 40
1000.0
 41
1000.0
 68
     1
 69
     1
1001
ACAD
1000
MVIEW
1002
{
1070
    16
1010
0.0
1020
0.0
1030
0.0
1010
0.0
1020
0.0
1030
1.0
1040
0.0
1040
1000.0
1040
0.0
1040
0.0
1040
50.0
1040
0.0
1040
0.0
1070
     0
1070
   100
1070
     1
1070
     1
1070
     0
1070
     0
1070
     0
1070
     0
1040
0.0
1040
0.0
1040
0.0
1040
1.0
1040
1.0
1040
1.0
1040
1.0
1070
     0
1002
{
1002
}
1002
}
  0
LINE
  5
25
100
AcDbEntity
  8
0
  6
DASHDOT
 62
     7
100
AcDbLine
 10
399.318332
 20
522.698361
 30
0.0
 11
552.681842
 21
522.698361
 31
0.0
210
0.0
220
0.0
230
1.0
  0
LINE
  5
26
100
AcDbEntity
  8
0
  6
DASHDOT
 62
     7
100
AcDbLine
 10
474.07973
 20
616.667249
 30
0.0
 11
474.07973
 21
446.271466
 31
0.0
210
0.0
220
0.0
230
1.0
  0
POLYLINE
  5
27
100
AcDbEntity
  8
0
 62
     7
100
AcDb2dPolyline
 66
     1
 10
0.0
 20
0.0
 30
0.0
 71
    30
  0
VERTEX
  5
28
100
AcDbEntity
  8
0
100
AcDbVertex
100
AcDb2dVertex
 10
544.07973
 20
602.698361
 30
0.0
  0
VERTEX
  5
29
100
AcDbEntity
  8
0
100
AcDbVertex
100
AcDb2dVertex
 10
528.07973
 20
602.698361
 30
0.0
  0
VERTEX
  5
2A
100
AcDbEntity
  8
0
100
AcDbVertex
100
AcDb2dVertex
 10
527.07973
 20
600.698361
 30
0.0
  0
VERTEX
  5
2B
100
AcDbEntity
  8
0
100
AcDbVertex
100
AcDb2dVertex
 10
526.07973
 20
604.698361
 30
0.0
  0
VERTEX
  5
2C
100
AcDbEntity
  8
0
100
AcDbVertex
100
AcDb2dVertex
 10
525.07973
 20
602.698361
 30
0.0
  0
VERTEX
  5
2D
100
AcDbEntity
  8
0
100
AcDbVertex
100
AcDb2dVertex
 10
509.07973
 20
602.698361
 30
0.0
  0
VERTEX
  5
2E
100
AcDbEntity
  8
0
100
AcDbVertex
100
AcDb2dVertex
 10
508.07973
 20
600.698361
 30
0.0
  0
VERTEX
  5
2F
100
AcDbEntity
  8
0
100
AcDbVertex
100
AcDb2dVertex
 10
507.07973
 20
604.698361
 30
0.0
  0
VERTEX
  5
30
100
AcDbEntity
  8
0
100
AcDbVertex
100
AcDb2dVertex
 10
506.07973
 20
602.698361
 30
0.0
  0
VERTEX
  5
31
100
AcDbEntity
  8
0
100
AcDbVertex
100
AcDb2dVertex
 10
490.07973
 20
602.698361
 30
0.0
  0
VERTEX
  5
32
100
AcDbEntity
  8
0
100
AcDbVertex
100
AcDb2dVertex
 10
489.07973
 20
600.698361
 30
0.0
  0
VERTEX
  5
33
100
AcDbEntity
  8
0
100
AcDbVertex
100
AcDb2dVertex
 10
488.07973
 20
604.698361
 30
0.0
  0
VERTEX
  5
34
100
AcDbEntity
  8
0
100
AcDbVertex
100
AcDb2dVertex
 10
487.07973
 20
602.698361
 30
0.0
  0
VERTEX
  5
35
100
AcDbEntity
  8
0
100
AcDbVertex
100
AcDb2dVertex
 10
471.07973
 20
602.698361
 30
0.0
  0
VERTEX
  5
36
100
AcDbEntity
  8
0
100
AcDbVertex
100
AcDb2dVertex
 10
470.07973
 20
600.698361
 30
0.0
  0
VERTEX
  5
37
100
AcDbEntity
  8
0
100
AcDbVertex
100
AcDb2dVertex
 10
469.07973
 20
604.698361
 30
0.0
  0
VERTEX
  5
38
100
AcDbEntity
  8
0
100
AcDbVertex
100
AcDb2dVertex
 10
468.07973
 20
602.698361
 30
0.0
  0
VERTEX
  5
39
100
AcDbEntity
  8
0
100
AcDbVertex
100
AcDb2dVertex
 10
452.07973
 20
602.698361
 30
0.0
  0
VERTEX
  5
3A
100
AcDbEntity
  8
0
100
AcDbVertex
100
AcDb2dVertex
 10
451.07973
 20
600.698361
 30
0.0
  0
VERTEX
  5
3B
100
AcDbEntity
  8
0
100
AcDbVertex
100
AcDb2dVertex
 10
450.07973
 20
604.698361
 30
0.0
  0
VERTEX
  5
3C
100
AcDbEntity
  8
0
100
AcDbVertex
100
AcDb2dVertex
 10
449.07973
 20
602.698361
 30
0.0
  0
VERTEX
  5
3D
100
AcDbEntity
  8
0
100
AcDbVertex
100
AcDb2dVertex
 10
433.07973
 20
602.698361
 30
0.0
  0
VERTEX
  5
3E
100
AcDbEntity
  8
0
100
AcDbVertex
100
AcDb2dVertex
 10
432.07973
 20
600.698361
 30
0.0
  0
VERTEX
  5
3F
100
AcDbEntity
  8
0
100
AcDbVertex
100
AcDb2dVertex
 10
431.07973
 20
604.698361
 30
0.0
  0
VERTEX
  5
40
100
AcDbEntity
  8
0
100
AcDbVertex
100
AcDb2dVertex
 10
430.07973
 20
602.698361
 30
0.0
  0
VERTEX
  5
41
100
AcDbEntity
  8
0
100
AcDbVertex
100
AcDb2dVertex
 10
414.07973
 20
602.698361
 30
0.0
  0
VERTEX
  5
42
100
AcDbEntity
  8
0
100
AcDbVertex
100
AcDb2dVertex
 10
413.07973
 20
600.698361
 30
0.0
  0
VERTEX
  5
43
100
AcDbEntity
  8
0
100
AcDbVertex
100
AcDb2dVertex
 10
412.07973
 20
604.698361
 30
0.0
  0
VERTEX
  5
44
100
AcDbEntity
  8
0
100
AcDbVertex
100
AcDb2dVertex
 10
411.07973
 20
602.698361
 30
0.0
  0
VERTEX
  5
45
100
AcDbEntity
  8
0
100
AcDbVertex
100
AcDb2dVertex
 10
404.07973
 20
602.698361
 30
0.0
  0
SEQEND
  5
46
100
AcDbEntity
  8
0
  0
POLYLINE
  5
47
100
AcDbEntity
  8
0
 62
     7
100
AcDb2dPolyline
 66
     1
 10
0.0
 20
0.0
 30
0.0
 71
    30
  0
VERTEX
  5
48
100
AcDbEntity
  8
0
100
AcDbVertex
100
AcDb2dVertex
 10
404.07973
 20
602.698361
 30
0.0
  0
VERTEX
  5
49
100
AcDbEntity
  8
0
100
AcDbVertex
100
AcDb2dVertex
 10
404.07973
 20
586.698361
 30
0.0
  0
VERTEX
  5
4A
100
AcDbEntity
  8
0
100
AcDbVertex
100
AcDb2dVertex
 10
406.07973
 20
585.698361
 30
0.0
  0
VERTEX
  5
4B
100
AcDbEntity
  8
0
100
AcDbVertex
100
AcDb2dVertex
 10
402.07973
 20
584.698361
 30
0.0
  0
VERTEX
  5
4C
100
AcDbEntity
  8
0
100
AcDbVertex
100
AcDb2dVertex
 10
404.07973
 20
583.698361
 30
0.0
  0
VERTEX
  5
4D
100
AcDbEntity
  8
0
100
AcDbVertex
100
AcDb2dVertex
 10
404.07973
 20
567.698361
 30
0.0
  0
VERTEX
  5
4E
100
AcDbEntity
  8
0
100
AcDbVertex
100
AcDb2dVertex
 10
406.07973
 20
566.698361
 30
0.0
  0
VERTEX
  5
4F
100
AcDbEntity
  8
0
100
AcDbVertex
100
AcDb2dVertex
 10
402.07973
 20
565.698361
 30
0.0
  0
VERTEX
  5
50
100
AcDbEntity
  8
0
100
AcDbVertex
100
AcDb2dVertex
 10
404.07973
 20
564.698361
 30
0.0
  0
VERTEX
  5
51
100
AcDbEntity
  8
0
100
AcDbVertex
100
AcDb2dVertex
 10
404.07973
 20
548.698361
 30
0.0
  0
VERTEX
  5
52
100
AcDbEntity
  8
0
100
AcDbVertex
100
AcDb2dVertex
 10
406.07973
 20
547.698361
 30
0.0
  0
VERTEX
  5
53
100
AcDbEntity
  8
0
100
AcDbVertex
100
AcDb2dVertex
 10
402.07973
 20
546.698361
 30
0.0
  0
VERTEX
  5
54
100
AcDbEntity
  8
0
100
AcDbVertex
100
AcDb2dVertex
 10
404.07973
 20
545.698361
 30
0.0
  0
VERTEX
  5
55
100
AcDbEntity
  8
0
100
AcDbVertex
100
AcDb2dVertex
 10
404.07973
 20
529.698361
 30
0.0
  0
VERTEX
  5
56
100
AcDbEntity
  8
0
100
AcDbVertex
100
AcDb2dVertex
 10
406.07973
 20
528.698361
 30
0.0
  0
VERTEX
  5
57
100
AcDbEntity
  8
0
100
AcDbVertex
100
AcDb2dVertex
 10
402.07973
 20
527.698361
 30
0.0
  0
VERTEX
  5
58
100
AcDbEntity
  8
0
100
AcDbVertex
100
AcDb2dVertex
 10
404.07973
 20
526.698361
 30
0.0
  0
VERTEX
  5
59
100
AcDbEntity
  8
0
100
AcDbVertex
100
AcDb2dVertex
 10
404.07973
 20
510.698361
 30
0.0
  0
VERTEX
  5
5A
100
AcDbEntity
  8
0
100
AcDbVertex
100
AcDb2dVertex
 10
406.07973
 20
509.698361
 30
0.0
  0
VERTEX
  5
5B
100
AcDbEntity
  8
0
100
AcDbVertex
100
AcDb2dVertex
 10
402.07973
 20
508.698361
 30
0.0
  0
VERTEX
  5
5C
100
AcDbEntity
  8
0
100
AcDbVertex
100
AcDb2dVertex
 10
404.07973
 20
507.698361
 30
0.0
  0
VERTEX
  5
5D
100
AcDbEntity
  8
0
100
AcDbVertex
100
AcDb2dVertex
 10
404.07973
 20
491.698361
 30
0.0
  0
VERTEX
  5
5E
100
AcDbEntity
  8
0
100
AcDbVertex
100
AcDb2dVertex
 10
406.07973
 20
490.698361
 30
0.0
  0
VERTEX
  5
5F
100
AcDbEntity
  8
0
100
AcDbVertex
100
AcDb2dVertex
 10
402.07973
 20
489.698361
 30
0.0
  0
VERTEX
  5
60
100
AcDbEntity
  8
0
100
AcDbVertex
100
AcDb2dVertex
 10
404.07973
 20
488.698361
 30
0.0
  0
VERTEX
  5
61
100
AcDbEntity
  8
0
100
AcDbVertex
100
AcDb2dVertex
 10
404.07973
 20
472.698361
 30
0.0
  0
VERTEX
  5
62
100
AcDbEntity
  8
0
100
AcDbVertex
100
AcDb2dVertex
 10
406.07973
 20
471.698361
 30
0.0
  0
VERTEX
  5
63
100
AcDbEntity
  8
0
100
AcDbVertex
100
AcDb2dVertex
 10
402.07973
 20
470.698361
 30
0.0
  0
VERTEX
  5
64
100
AcDbEntity
  8
0
100
AcDbVertex
100
AcDb2dVertex
 10
404.07973
 20
469.698361
 30
0.0
  0
VERTEX
  5
65
100
AcDbEntity
  8
0
100
AcDbVertex
100
AcDb2dVertex
 10
404.07973
 20
452.698361
 30
0.0
  0
SEQEND
  5
66
100
AcDbEntity
  8
0
  0
POLYLINE
  5
67
100
AcDbEntity
  8
0
 62
     7
100
AcDb2dPolyline
 66
     1
 10
0.0
 20
0.0
 30
0.0
 71
    30
  0
VERTEX
  5
68
100
AcDbEntity
  8
0
100
AcDbVertex
100
AcDb2dVertex
 10
404.07973
 20
452.698361
 30
0.0
  0
VERTEX
  5
69
100
AcDbEntity
  8
0
100
AcDbVertex
100
AcDb2dVertex
 10
420.07973
 20
452.698361
 30
0.0
  0
VERTEX
  5
6A
100
AcDbEntity
  8
0
100
AcDbVertex
100
AcDb2dVertex
 10
421.07973
 20
454.698361
 30
0.0
  0
VERTEX
  5
6B
100
AcDbEntity
  8
0
100
AcDbVertex
100
AcDb2dVertex
 10
422.07973
 20
450.698361
 30
0.0
  0
VERTEX
  5
6C
100
AcDbEntity
  8
0
100
AcDbVertex
100
AcDb2dVertex
 10
423.07973
 20
452.698361
 30
0.0
  0
VERTEX
  5
6D
100
AcDbEntity
  8
0
100
AcDbVertex
100
AcDb2dVertex
 10
439.07973
 20
452.698361
 30
0.0
  0
VERTEX
  5
6E
100
AcDbEntity
  8
0
100
AcDbVertex
100
AcDb2dVertex
 10
440.07973
 20
454.698361
 30
0.0
  0
VERTEX
  5
6F
100
AcDbEntity
  8
0
100
AcDbVertex
100
AcDb2dVertex
 10
441.07973
 20
450.698361
 30
0.0
  0
VERTEX
  5
70
100
AcDbEntity
  8
0
100
AcDbVertex
100
AcDb2dVertex
 10
442.07973
 20
452.698361
 30
0.0
  0
VERTEX
  5
71
100
AcDbEntity
  8
0
100
AcDbVertex
100
AcDb2dVertex
 10
458.07973
 20
452.698361
 30
0.0
  0
VERTEX
  5
72
100
AcDbEntity
  8
0
100
AcDbVertex
100
AcDb2dVertex
 10
459.07973
 20
454.698361
 30
0.0
  0
VERTEX
  5
73
100
AcDbEntity
  8
0
100
AcDbVertex
100
AcDb2dVertex
 10
460.07973
 20
450.698361
 30
0.0
  0
VERTEX
  5
74
100
AcDbEntity
  8
0
100
AcDbVertex
100
AcDb2dVertex
 10
461.07973
 20
452.698361
 30
0.0
  0
VERTEX
  5
75
100
AcDbEntity
  8
0
100
AcDbVertex
100
AcDb2dVertex
 10
477.07973
 20
452.698361
 30
0.0
  0
VERTEX
  5
76
100
AcDbEntity
  8
0
100
AcDbVertex
100
AcDb2dVertex
 10
478.07973
 20
454.698361
 30
0.0
  0
VERTEX
  5
77
100
AcDbEntity
  8
0
100
AcDbVertex
100
AcDb2dVertex
 10
479.07973
 20
450.698361
 30
0.0
  0
VERTEX
  5
78
100
AcDbEntity
  8
0
100
AcDbVertex
100
AcDb2dVertex
 10
480.07973
 20
452.698361
 30
0.0
  0
VERTEX
  5
79
100
AcDbEntity
  8
0
100
AcDbVertex
100
AcDb2dVertex
 10
496.07973
 20
452.698361
 30
0.0
  0
VERTEX
  5
7A
100
AcDbEntity
  8
0
100
AcDbVertex
100
AcDb2dVertex
 10
497.07973
 20
454.698361
 30
0.0
  0
VERTEX
  5
7B
100
AcDbEntity
  8
0
100
AcDbVertex
100
AcDb2dVertex
 10
498.07973
 20
450.698361
 30
0.0
  0
VERTEX
  5
7C
100
AcDbEntity
  8
0
100
AcDbVertex
100
AcDb2dVertex
 10
499.07973
 20
452.698361
 30
0.0
  0
VERTEX
  5
7D
100
AcDbEntity
  8
0
100
AcDbVertex
100
AcDb2dVertex
 10
515.07973
 20
452.698361
 30
0.0
  0
VERTEX
  5
7E
100
AcDbEntity
  8
0
100
AcDbVertex
100
AcDb2dVertex
 10
516.07973
 20
454.698361
 30
0.0
  0
VERTEX
  5
7F
100
AcDbEntity
  8
0
100
AcDbVertex
100
AcDb2dVertex
 10
517.07973
 20
450.698361
 30
0.0
  0
VERTEX
  5
80
100
AcDbEntity
  8
0
100
AcDbVertex
100
AcDb2dVertex
 10
518.07973
 20
452.698361
 30
0.0
  0
VERTEX
  5
81
100
AcDbEntity
  8
0
100
AcDbVertex
100
AcDb2dVertex
 10
534.07973
 20
452.698361
 30
0.0
  0
VERTEX
  5
82
100
AcDbEntity
  8
0
100
AcDbVertex
100
AcDb2dVertex
 10
535.07973
 20
454.698361
 30
0.0
  0
VERTEX
  5
83
100
AcDbEntity
  8
0
100
AcDbVertex
100
AcDb2dVertex
 10
536.07973
 20
450.698361
 30
0.0
  0
VERTEX
  5
84
100
AcDbEntity
  8
0
100
AcDbVertex
100
AcDb2dVertex
 10
537.07973
 20
452.698361
 30
0.0
  0
VERTEX
  5
85
100
AcDbEntity
  8
0
100
AcDbVertex
100
AcDb2dVertex
 10
544.07973
 20
452.698361
 30
0.0
  0
SEQEND
  5
86
100
AcDbEntity
  8
0
  0
POLYLINE
  5
87
100
AcDbEntity
  8
0
 62
     7
100
AcDb2dPolyline
 66
     1
 10
0.0
 20
0.0
 30
0.0
 71
    30
  0
VERTEX
  5
88
100
AcDbEntity
  8
0
100
AcDbVertex
100
AcDb2dVertex
 10
544.07973
 20
602.698361
 30
0.0
  0
VERTEX
  5
89
100
AcDbEntity
  8
0
100
AcDbVertex
100
AcDb2dVertex
 10
544.07973
 20
586.698361
 30
0.0
  0
VERTEX
  5
8A
100
AcDbEntity
  8
0
100
AcDbVertex
100
AcDb2dVertex
 10
546.07973
 20
585.698361
 30
0.0
  0
VERTEX
  5
8B
100
AcDbEntity
  8
0
100
AcDbVertex
100
AcDb2dVertex
 10
542.07973
 20
584.698361
 30
0.0
  0
VERTEX
  5
8C
100
AcDbEntity
  8
0
100
AcDbVertex
100
AcDb2dVertex
 10
544.07973
 20
583.698361
 30
0.0
  0
VERTEX
  5
8D
100
AcDbEntity
  8
0
100
AcDbVertex
100
AcDb2dVertex
 10
544.07973
 20
567.698361
 30
0.0
  0
VERTEX
  5
8E
100
AcDbEntity
  8
0
100
AcDbVertex
100
AcDb2dVertex
 10
546.07973
 20
566.698361
 30
0.0
  0
VERTEX
  5
8F
100
AcDbEntity
  8
0
100
AcDbVertex
100
AcDb2dVertex
 10
542.07973
 20
565.698361
 30
0.0
  0
VERTEX
  5
90
100
AcDbEntity
  8
0
100
AcDbVertex
100
AcDb2dVertex
 10
544.07973
 20
564.698361
 30
0.0
  0
VERTEX
  5
91
100
AcDbEntity
  8
0
100
AcDbVertex
100
AcDb2dVertex
 10
544.07973
 20
548.698361
 30
0.0
  0
VERTEX
  5
92
100
AcDbEntity
  8
0
100
AcDbVertex
100
AcDb2dVertex
 10
546.07973
 20
547.698361
 30
0.0
  0
VERTEX
  5
93
100
AcDbEntity
  8
0
100
AcDbVertex
100
AcDb2dVertex
 10
542.07973
 20
546.698361
 30
0.0
  0
VERTEX
  5
94
100
AcDbEntity
  8
0
100
AcDbVertex
100
AcDb2dVertex
 10
544.07973
 20
545.698361
 30
0.0
  0
VERTEX
  5
95
100
AcDbEntity
  8
0
100
AcDbVertex
100
AcDb2dVertex
 10
544.07973
 20
529.698361
 30
0.0
  0
VERTEX
  5
96
100
AcDbEntity
  8
0
100
AcDbVertex
100
AcDb2dVertex
 10
546.07973
 20
528.698361
 30
0.0
  0
VERTEX
  5
97
100
AcDbEntity
  8
0
100
AcDbVertex
100
AcDb2dVertex
 10
542.07973
 20
527.698361
 30
0.0
  0
VERTEX
  5
98
100
AcDbEntity
  8
0
100
AcDbVertex
100
AcDb2dVertex
 10
544.07973
 20
526.698361
 30
0.0
  0
VERTEX
  5
99
100
AcDbEntity
  8
0
100
AcDbVertex
100
AcDb2dVertex
 10
544.07973
 20
510.698361
 30
0.0
  0
VERTEX
  5
9A
100
AcDbEntity
  8
0
100
AcDbVertex
100
AcDb2dVertex
 10
546.07973
 20
509.698361
 30
0.0
  0
VERTEX
  5
9B
100
AcDbEntity
  8
0
100
AcDbVertex
100
AcDb2dVertex
 10
542.07973
 20
508.698361
 30
0.0
  0
VERTEX
  5
9C
100
AcDbEntity
  8
0
100
AcDbVertex
100
AcDb2dVertex
 10
544.07973
 20
507.698361
 30
0.0
  0
VERTEX
  5
9D
100
AcDbEntity
  8
0
100
AcDbVertex
100
AcDb2dVertex
 10
544.07973
 20
491.698361
 30
0.0
  0
VERTEX
  5
9E
100
AcDbEntity
  8
0
100
AcDbVertex
100
AcDb2dVertex
 10
546.07973
 20
490.698361
 30
0.0
  0
VERTEX
  5
9F
100
AcDbEntity
  8
0
100
AcDbVertex
100
AcDb2dVertex
 10
542.07973
 20
489.698361
 30
0.0
  0
VERTEX
  5
A0
100
AcDbEntity
  8
0
100
AcDbVertex
100
AcDb2dVertex
 10
544.07973
 20
488.698361
 30
0.0
  0
VERTEX
  5
A1
100
AcDbEntity
  8
0
100
AcDbVertex
100
AcDb2dVertex
 10
544.07973
 20
472.698361
 30
0.0
  0
VERTEX
  5
A2
100
AcDbEntity
  8
0
100
AcDbVertex
100
AcDb2dVertex
 10
546.07973
 20
471.698361
 30
0.0
  0
VERTEX
  5
A3
100
AcDbEntity
  8
0
100
AcDbVertex
100
AcDb2dVertex
 10
542.07973
 20
470.698361
 30
0.0
  0
VERTEX
  5
A4
100
AcDbEntity
  8
0
100
AcDbVertex
100
AcDb2dVertex
 10
544.07973
 20
469.698361
 30
0.0
  0
VERTEX
  5
A5
100
AcDbEntity
  8
0
100
AcDbVertex
100
AcDb2dVertex
 10
544.07973
 20
452.698361
 30
0.0
  0
SEQEND
  5
A6
100
AcDbEntity
  8
0
  0
LINE
  5
A7
100
AcDbEntity
  8
0
 62
     7
100
AcDbLine
 10
420.57973
 20
583.198361
 30
0.0
 11
527.57973
 21
583.198361
 31
0.0
210
0.0
220
0.0
230
1.0
  0
LINE
  5
A8
100
AcDbEntity
  8
0
 62
     7
100
AcDbLine
 10
527.57973
 20
476.198361
 30
0.0
 11
527.57973
 21
583.198361
 31
0.0
210
0.0
220
0.0
230
1.0
  0
LINE
  5
A9
100
AcDbEntity
  8
0
 62
     7
100
AcDbLine
 10
527.57973
 20
476.198361
 30
0.0
 11
420.57973
 21
476.198361
 31
0.0
210
0.0
220
0.0
230
1.0
  0
LINE
  5
AA
100
AcDbEntity
  8
0
 62
     7
100
AcDbLine
 10
420.57973
 20
583.198361
 30
0.0
 11
420.57973
 21
476.198361
 31
0.0
210
0.0
220
0.0
230
1.0
  0
LINE
  5
AB
100
AcDbEntity
  8
0
  6
DASHDOT
 62
     7
100
AcDbLine
 10
59.714308
 20
522.698361
 30
0.0
 11
274.645088
 21
522.698361
 31
0.0
210
0.0
220
0.0
230
1.0
  0
LINE
  5
AC
100
AcDbEntity
  8
0
  6
DASHDOT
 62
     7
 48
0.054
100
AcDbLine
 10
185.436623
 20
476.86836
 30
0.0
 11
185.436623
 21
479.028363
 31
0.0
210
0.0
220
0.0
230
1.0
  0
LINE
  5
AD
100
AcDbEntity
  8
0
  6
DASHDOT
 62
     7
 48
0.0252
100
AcDbLine
 10
176.436623
 20
477.044362
 30
0.0
 11
176.436623
 21
478.052361
 31
0.0
210
0.0
220
0.0
230
1.0
  0
LINE
  5
AE
100
AcDbEntity
  8
0
  6
DASHDOT
 62
     7
 48
0.054
100
AcDbLine
 10
185.436623
 20
580.36836
 30
0.0
 11
185.436623
 21
582.528363
 31
0.0
210
0.0
220
0.0
230
1.0
  0
LINE
  5
AF
100
AcDbEntity
  8
0
  6
DASHDOT
 62
     7
 48
0.144
100
AcDbLine
 10
199.216622
 20
576.698361
 30
0.0
 11
193.456612
 21
576.698361
 31
0.0
210
0.0
220
0.0
230
1.0
  0
LINE
  5
B0
100
AcDbEntity
  8
0
  6
DASHDOT
 62
     7
 48
0.144
100
AcDbLine
 10
199.216622
 20
482.698361
 30
0.0
 11
193.456612
 21
482.698361
 31
0.0
210
0.0
220
0.0
230
1.0
  0
LINE
  5
B1
100
AcDbEntity
  8
0
  6
DASHDOT
 62
     7
100
AcDbLine
 10
168.759575
 20
528.448411
 30
0.0
 11
232.913643
 21
528.448411
 31
0.0
210
0.0
220
0.0
230
1.0
  0
LINE
  5
B2
100
AcDbEntity
  8
0
 62
     7
 48
0.0175
100
AcDbLine
 10
171.436623
 20
477.898362
 30
0.0
 11
172.13662
 21
477.898362
 31
0.0
210
0.0
220
0.0
230
1.0
  0
LINE
  5
B3
100
AcDbEntity
  8
0
 62
     7
 48
0.095
100
AcDbLine
 10
172.13662
 20
477.198361
 30
0.0
 11
175.936623
 21
477.198361
 31
0.0
210
0.0
220
0.0
230
1.0
  0
LINE
  5
B4
100
AcDbEntity
  8
0
 62
     7
 48
0.0125
100
AcDbLine
 10
75.936623
 20
492.948361
 30
0.0
 11
75.936623
 21
493.448361
 31
0.0
210
0.0
220
0.0
230
1.0
  0
LINE
  5
B5
100
AcDbEntity
  8
0
 62
     7
 48
0.000004
100
AcDbLine
 10
75.936623
 20
493.448361
 30
0.0
 11
75.936793
 21
493.448361
 31
0.0
210
0.0
220
0.0
230
1.0
  0
LINE
  5
B6
100
AcDbEntity
  8
0
 62
     7
 48
0.025
100
AcDbLine
 10
75.936623
 20
491.948361
 30
0.0
 11
75.936623
 21
492.948361
 31
0.0
210
0.0
220
0.0
230
1.0
  0
LINE
  5
B7
100
AcDbEntity
  8
0
 62
     7
 48
0.025
100
AcDbLine
 10
171.436623
 20
491.948361
 30
0.0
 11
171.436623
 21
492.948361
 31
0.0
210
0.0
220
0.0
230
1.0
  0
LINE
  5
B8
100
AcDbEntity
  8
0
 62
     7
 48
0.020592
100
AcDbLine
 10
75.936623
 20
492.948361
 30
0.0
 11
76.760296
 21
492.948361
 31
0.0
210
0.0
220
0.0
230
1.0
  0
LINE
  5
B9
100
AcDbEntity
  8
0
 62
     7
100
AcDbLine
 10
76.760296
 20
492.948361
 30
0.0
 11
171.436623
 21
492.948361
 31
0.0
210
0.0
220
0.0
230
1.0
  0
LINE
  5
BA
100
AcDbEntity
  8
0
 62
     7
100
AcDbLine
 10
171.436623
 20
528.198361
 30
0.0
 11
171.436623
 21
560.698361
 31
0.0
210
0.0
220
0.0
230
1.0
  0
LINE
  5
BB
100
AcDbEntity
  8
0
 62
     7
 48
0.0175
100
AcDbLine
 10
171.436623
 20
492.948361
 30
0.0
 11
171.436623
 21
493.648362
 31
0.0
210
0.0
220
0.0
230
1.0
  0
LINE
  5
BC
100
AcDbEntity
  8
0
 62
     7
 48
0.0175
100
AcDbLine
 10
171.436623
 20
477.898362
 30
0.0
 11
172.13662
 21
477.898362
 31
0.0
210
0.0
220
0.0
230
1.0
  0
ARC
  5
BD
100
AcDbEntity
  8
0
 62
     6
100
AcDbCircle
 10
80.436623
 20
514.448361
 30
0.0
 40
2.0
210
0.0
220
0.0
230
1.0
100
AcDbArc
 50
0.0
 51
90.000003
  0
ARC
  5
BE
100
AcDbEntity
  8
0
 62
     6
100
AcDbCircle
 10
80.436623
 20
514.448361
 30
0.0
 40
2.0
210
0.0
220
0.0
230
1.0
100
AcDbArc
 50
180.000005
 51
270.000001
  0
LINE
  5
BF
100
AcDbEntity
  8
0
 62
     7
 48
0.025
100
AcDbLine
 10
116.436623
 20
527.448377
 30
0.0
 11
116.436623
 21
528.448359
 31
0.0
210
0.0
220
0.0
230
1.0
  0
LINE
  5
C0
100
AcDbEntity
  8
0
 62
     7
 48
0.093745
100
AcDbLine
 10
116.436623
 20
527.448377
 30
0.0
 11
120.18644
 21
527.448377
 31
0.0
210
0.0
220
0.0
230
1.0
  0
LINE
  5
C1
100
AcDbEntity
  8
0
 62
     7
 48
0.014433
100
AcDbLine
 10
120.475113
 20
527.948377
 30
0.0
 11
120.763779
 21
528.448359
 31
0.0
210
0.0
220
0.0
230
1.0
  0
LINE
  5
C2
100
AcDbEntity
  8
0
 62
     7
 48
0.014434
100
AcDbLine
 10
120.18644
 20
527.448377
 30
0.0
 11
120.475113
 21
527.948377
 31
0.0
210
0.0
220
0.0
230
1.0
  0
LINE
  5
C3
100
AcDbEntity
  8
0
 62
     7
100
AcDbLine
 10
90.936623
 20
493.648362
 30
0.0
 11
135.236622
 21
493.648362
 31
0.0
210
0.0
220
0.0
230
1.0
  0
LINE
  5
C4
100
AcDbEntity
  8
0
 62
     7
 48
0.0175
100
AcDbLine
 10
135.936623
 20
492.948361
 30
0.0
 11
135.936623
 21
493.648362
 31
0.0
210
0.0
220
0.0
230
1.0
  0
ARC
  5
C5
100
AcDbEntity
  8
0
 62
     7
100
AcDbCircle
 10
136.436623
 20
567.198361
 30
0.0
 40
5.5
210
0.0
220
0.0
230
1.0
100
AcDbArc
 50
107.533433
 51
162.463275
  0
LINE
  5
C6
100
AcDbEntity
  8
0
 62
     7
 48
0.374996
100
AcDbLine
 10
75.936793
 20
493.648362
 30
0.0
 11
90.936623
 21
493.648362
 31
0.0
210
0.0
220
0.0
230
1.0
  0
LINE
  5
C7
100
AcDbEntity
  8
0
 62
     7
 48
0.022647
100
AcDbLine
 10
75.936793
 20
493.048362
 30
0.0
 11
76.842663
 21
493.048362
 31
0.0
210
0.0
220
0.0
230
1.0
  0
LINE
  5
C8
100
AcDbEntity
  8
0
 62
     7
 48
0.002539
100
AcDbLine
 10
76.842663
 20
493.048362
 30
0.0
 11
76.860296
 21
492.948361
 31
0.0
210
0.0
220
0.0
230
1.0
  0
LINE
  5
C9
100
AcDbEntity
  8
0
 62
     7
 48
0.441942
100
AcDbLine
 10
122.736626
 20
528.448359
 30
0.0
 11
135.236622
 21
515.948356
 31
0.0
210
0.0
220
0.0
230
1.0
  0
LINE
  5
CA
100
AcDbEntity
  8
0
 62
     7
100
AcDbLine
 10
135.236622
 20
426.198361
 30
0.0
 11
135.236622
 21
515.948356
 31
0.0
210
0.0
220
0.0
230
1.0
  0
LINE
  5
CB
100
AcDbEntity
  8
0
 62
     7
 48
0.087687
100
AcDbLine
 10
83.936793
 20
518.690862
 30
0.0
 11
83.936793
 21
522.198362
 31
0.0
210
0.0
220
0.0
230
1.0
  0
ARC
  5
CC
100
AcDbEntity
  8
0
 62
     7
100
AcDbCircle
 10
80.436623
 20
514.448361
 30
0.0
 40
5.5
210
0.0
220
0.0
230
1.0
100
AcDbArc
 50
270.000001
 51
50.476506
  0
LINE
  5
CD
100
AcDbEntity
  8
0
 62
     7
 48
0.112496
100
AcDbLine
 10
75.936793
 20
508.948361
 30
0.0
 11
80.436623
 21
508.948361
 31
0.0
210
0.0
220
0.0
230
1.0
  0
LINE
  5
CE
100
AcDbEntity
  8
0
 62
     7
 48
0.030527
100
AcDbLine
 10
125.215553
 20
560.448361
 30
0.0
 11
126.436623
 21
560.448361
 31
0.0
210
0.0
220
0.0
230
1.0
  0
ARC
  5
CF
100
AcDbEntity
  8
0
 62
     6
100
AcDbCircle
 10
108.936623
 20
544.448361
 30
0.0
 40
16.0
210
0.0
220
0.0
230
1.0
100
AcDbArc
 50
90.000057
 51
106.329366
  0
LINE
  5
D0
100
AcDbEntity
  8
0
 62
     7
 48
0.1125
100
AcDbLine
 10
78.936793
 20
520.198362
 30
0.0
 11
78.936793
 21
524.698362
 31
0.0
210
0.0
220
0.0
230
1.0
  0
LINE
  5
D1
100
AcDbEntity
  8
0
 62
     7
 48
0.072167
100
AcDbLine
 10
79.936664
 20
527.005018
 30
0.0
 11
82.436605
 21
528.448359
 31
0.0
210
0.0
220
0.0
230
1.0
  0
LINE
  5
D2
100
AcDbEntity
  8
0
 62
     7
 48
0.026416
100
AcDbLine
 10
79.936664
 20
525.948362
 30
0.0
 11
79.936664
 21
527.005018
 31
0.0
210
0.0
220
0.0
230
1.0
  0
LINE
  5
D3
100
AcDbEntity
  8
0
 62
     7
 48
0.075
100
AcDbLine
 10
75.936793
 20
518.948362
 30
0.0
 11
78.936793
 21
518.948362
 31
0.0
210
0.0
220
0.0
230
1.0
  0
LINE
  5
D4
100
AcDbEntity
  8
0
 62
     7
 48
0.03125
100
AcDbLine
 10
78.936793
 20
518.948362
 30
0.0
 11
78.936793
 21
520.198362
 31
0.0
210
0.0
220
0.0
230
1.0
  0
LINE
  5
D5
100
AcDbEntity
  8
0
 62
     7
 48
0.03125
100
AcDbLine
 10
78.936793
 20
524.698362
 30
0.0
 11
78.936793
 21
525.948362
 31
0.0
210
0.0
220
0.0
230
1.0
  0
LINE
  5
D6
100
AcDbEntity
  8
0
 62
     7
 48
0.037503
100
AcDbLine
 10
79.936664
 20
525.948362
 30
0.0
 11
81.436793
 21
525.948362
 31
0.0
210
0.0
220
0.0
230
1.0
  0
LINE
  5
D7
100
AcDbEntity
  8
0
 62
     7
 48
0.024997
100
AcDbLine
 10
78.936793
 20
525.948362
 30
0.0
 11
79.936664
 21
525.948362
 31
0.0
210
0.0
220
0.0
230
1.0
  0
LINE
  5
D8
100
AcDbEntity
  8
0
 62
     7
 48
0.0625
100
AcDbLine
 10
81.436793
 20
524.698362
 30
0.0
 11
83.936793
 21
524.698362
 31
0.0
210
0.0
220
0.0
230
1.0
  0
LINE
  5
D9
100
AcDbEntity
  8
0
 62
     7
 48
0.075
100
AcDbLine
 10
75.936793
 20
524.698362
 30
0.0
 11
78.936793
 21
524.698362
 31
0.0
210
0.0
220
0.0
230
1.0
  0
LINE
  5
DA
100
AcDbEntity
  8
0
 62
     7
 48
0.0625
100
AcDbLine
 10
81.436793
 20
520.198362
 30
0.0
 11
83.936793
 21
520.198362
 31
0.0
210
0.0
220
0.0
230
1.0
  0
LINE
  5
DB
100
AcDbEntity
  8
0
 62
     7
 48
0.075
100
AcDbLine
 10
75.936793
 20
520.198362
 30
0.0
 11
78.936793
 21
520.198362
 31
0.0
210
0.0
220
0.0
230
1.0
  0
LINE
  5
DC
100
AcDbEntity
  8
0
 62
     7
 48
0.0625
100
AcDbLine
 10
83.936793
 20
522.198362
 30
0.0
 11
83.936793
 21
524.698362
 31
0.0
210
0.0
220
0.0
230
1.0
  0
LINE
  5
DD
100
AcDbEntity
  8
0
 62
     7
 48
0.03125
100
AcDbLine
 10
83.936793
 20
546.448361
 30
0.0
 11
83.936793
 21
547.698361
 31
0.0
210
0.0
220
0.0
230
1.0
  0
LINE
  5
DE
100
AcDbEntity
  8
0
 62
     7
 48
0.108178
100
AcDbLine
 10
116.436623
 20
560.448361
 30
0.0
 11
120.76376
 21
560.448361
 31
0.0
210
0.0
220
0.0
230
1.0
  0
LINE
  5
DF
100
AcDbEntity
  8
0
 62
     7
 48
0.231201
100
AcDbLine
 10
82.436605
 20
528.448361
 30
0.0
 11
91.684657
 21
528.448361
 31
0.0
210
0.0
220
0.0
230
1.0
  0
LINE
  5
E0
100
AcDbEntity
  8
0
 62
     7
 48
0.049321
100
AcDbLine
 10
120.763779
 20
528.448361
 30
0.0
 11
122.736626
 21
528.448361
 31
0.0
210
0.0
220
0.0
230
1.0
  0
LINE
  5
E1
100
AcDbEntity
  8
0
 62
     7
100
AcDbLine
 10
91.684657
 20
528.448361
 30
0.0
 11
116.436623
 21
528.448361
 31
0.0
210
0.0
220
0.0
230
1.0
  0
LINE
  5
E2
100
AcDbEntity
  8
0
 62
     7
 48
0.093745
100
AcDbLine
 10
116.436623
 20
561.448312
 30
0.0
 11
120.18644
 21
561.448312
 31
0.0
210
0.0
220
0.0
230
1.0
  0
LINE
  5
E3
100
AcDbEntity
  8
0
 62
     7
 48
0.014434
100
AcDbLine
 10
120.18644
 20
561.448312
 30
0.0
 11
120.475113
 21
560.948312
 31
0.0
210
0.0
220
0.0
230
1.0
  0
LINE
  5
E4
100
AcDbEntity
  8
0
 62
     7
 48
0.014432
100
AcDbLine
 10
120.475113
 20
560.948312
 30
0.0
 11
120.763764
 21
560.448358
 31
0.0
210
0.0
220
0.0
230
1.0
  0
LINE
  5
E5
100
AcDbEntity
  8
0
 62
     7
 48
0.024999
100
AcDbLine
 10
116.436623
 20
560.448358
 30
0.0
 11
116.436623
 21
561.448312
 31
0.0
210
0.0
220
0.0
230
1.0
  0
LINE
  5
E6
100
AcDbEntity
  8
0
 62
     7
 48
0.049321
100
AcDbLine
 10
120.763764
 20
560.448358
 30
0.0
 11
122.736622
 21
560.448358
 31
0.0
210
0.0
220
0.0
230
1.0
  0
LINE
  5
E7
100
AcDbEntity
  8
0
 62
     7
 48
0.231181
100
AcDbLine
 10
82.437407
 20
560.448358
 30
0.0
 11
91.684658
 21
560.448358
 31
0.0
210
0.0
220
0.0
230
1.0
  0
LINE
  5
E8
100
AcDbEntity
  8
0
 62
     7
100
AcDbLine
 10
91.684658
 20
560.448358
 30
0.0
 11
116.436623
 21
560.448358
 31
0.0
210
0.0
220
0.0
230
1.0
  0
LINE
  5
E9
100
AcDbEntity
  8
0
 62
     7
 48
0.0625
100
AcDbLine
 10
78.936793
 20
518.948362
 30
0.0
 11
81.436793
 21
518.948362
 31
0.0
210
0.0
220
0.0
230
1.0
  0
LINE
  5
EA
100
AcDbEntity
  8
0
 62
     7
 48
0.03125
100
AcDbLine
 10
81.436793
 20
524.698362
 30
0.0
 11
81.436793
 21
525.948362
 31
0.0
210
0.0
220
0.0
230
1.0
  0
LINE
  5
EB
100
AcDbEntity
  8
0
 62
     7
 48
0.03125
100
AcDbLine
 10
81.436793
 20
518.948362
 30
0.0
 11
81.436793
 21
520.198362
 31
0.0
210
0.0
220
0.0
230
1.0
  0
LINE
  5
EC
100
AcDbEntity
  8
0
 62
     7
 48
0.1125
100
AcDbLine
 10
81.436793
 20
520.198362
 30
0.0
 11
81.436793
 21
524.698362
 31
0.0
210
0.0
220
0.0
230
1.0
  0
LINE
  5
ED
100
AcDbEntity
  8
0
 62
     7
 48
0.08125
100
AcDbLine
 10
83.936793
 20
543.198361
 30
0.0
 11
83.936793
 21
546.448361
 31
0.0
210
0.0
220
0.0
230
1.0
  0
LINE
  5
EE
100
AcDbEntity
  8
0
 62
     7
 48
0.108179
100
AcDbLine
 10
116.436623
 20
528.448361
 30
0.0
 11
120.763779
 21
528.448361
 31
0.0
210
0.0
220
0.0
230
1.0
  0
LINE
  5
EF
100
AcDbEntity
  8
0
 62
     7
 48
0.3825
100
AcDbLine
 10
75.936623
 20
493.648362
 30
0.0
 11
75.936623
 21
508.948361
 31
0.0
210
0.0
220
0.0
230
1.0
  0
LINE
  5
F0
100
AcDbEntity
  8
0
 62
     7
 48
0.015
100
AcDbLine
 10
75.936793
 20
493.048362
 30
0.0
 11
75.936793
 21
493.648362
 31
0.0
210
0.0
220
0.0
230
1.0
  0
LINE
  5
F1
100
AcDbEntity
  8
0
 62
     7
 48
0.25
100
AcDbLine
 10
75.936793
 20
508.948361
 30
0.0
 11
75.936793
 21
518.948362
 31
0.0
210
0.0
220
0.0
230
1.0
  0
LINE
  5
F2
100
AcDbEntity
  8
0
 62
     7
 48
0.1125
100
AcDbLine
 10
75.936793
 20
520.198362
 30
0.0
 11
75.936793
 21
524.698362
 31
0.0
210
0.0
220
0.0
230
1.0
  0
LINE
  5
F3
100
AcDbEntity
  8
0
 62
     7
 48
0.050204
100
AcDbLine
 10
75.936793
 20
524.698362
 30
0.0
 11
75.936793
 21
526.706527
 31
0.0
210
0.0
220
0.0
230
1.0
  0
LINE
  5
F4
100
AcDbEntity
  8
0
 62
     7
 48
0.03125
100
AcDbLine
 10
75.936793
 20
518.948362
 30
0.0
 11
75.936793
 21
520.198362
 31
0.0
210
0.0
220
0.0
230
1.0
  0
LINE
  5
F5
100
AcDbEntity
  8
0
 62
     7
 48
0.1125
100
AcDbLine
 10
75.936793
 20
543.198361
 30
0.0
 11
75.936793
 21
547.698361
 31
0.0
210
0.0
220
0.0
230
1.0
  0
LINE
  5
F6
100
AcDbEntity
  8
0
 62
     7
 48
0.168248
100
AcDbLine
 10
75.936793
 20
562.190194
 30
0.0
 11
82.437407
 21
560.448358
 31
0.0
210
0.0
220
0.0
230
1.0
  0
LINE
  5
F7
100
AcDbEntity
  8
0
 62
     7
 48
0.071617
100
AcDbLine
 10
75.936793
 20
526.706527
 30
0.0
 11
78.703857
 21
527.447959
 31
0.0
210
0.0
220
0.0
230
1.0
  0
LINE
  5
F8
100
AcDbEntity
  8
0
 62
     7
 48
0.0724
100
AcDbLine
 10
79.638637
 20
527.698434
 30
0.0
 11
82.435939
 21
528.447974
 31
0.0
210
0.0
220
0.0
230
1.0
  0
LINE
  5
F9
100
AcDbEntity
  8
0
 62
     7
 48
0.362295
100
AcDbLine
 10
75.937268
 20
547.698361
 30
0.0
 11
75.937268
 21
562.190144
 31
0.0
210
0.0
220
0.0
230
1.0
  0
LINE
  5
FA
100
AcDbEntity
  8
0
 62
     7
 48
0.412295
100
AcDbLine
 10
75.937268
 20
526.706549
 30
0.0
 11
75.937268
 21
543.198361
 31
0.0
210
0.0
220
0.0
230
1.0
  0
LINE
  5
FB
100
AcDbEntity
  8
0
 62
     7
 48
0.010919
100
AcDbLine
 10
82.437398
 20
560.448323
 30
0.0
 11
82.859273
 21
560.335282
 31
0.0
210
0.0
220
0.0
230
1.0
  0
LINE
  5
FC
100
AcDbEntity
  8
0
 62
     7
 48
0.000003
100
AcDbLine
 10
78.70525
 20
561.448361
 30
0.0
 11
78.705354
 21
561.448361
 31
0.0
210
0.0
220
0.0
230
1.0
  0
LINE
  5
FD
100
AcDbEntity
  8
0
 62
     7
 48
0.05
100
AcDbLine
 10
78.703857
 20
527.448359
 30
0.0
 11
80.703861
 21
527.448359
 31
0.0
210
0.0
220
0.0
230
1.0
  0
LINE
  5
FE
100
AcDbEntity
  8
0
 62
     7
 48
0.024194
100
AcDbLine
 10
78.703857
 20
527.447959
 30
0.0
 11
79.638637
 21
527.698434
 31
0.0
210
0.0
220
0.0
230
1.0
  0
LINE
  5
FF
100
AcDbEntity
  8
0
 62
     7
 48
0.299769
100
AcDbLine
 10
122.736622
 20
560.448358
 30
0.0
 11
131.215378
 21
568.927121
 31
0.0
210
0.0
220
0.0
230
1.0
  0
LINE
  5
100
100
AcDbEntity
  8
0
 62
     7
 48
0.290931
100
AcDbLine
 10
134.707859
 20
572.419606
 30
0.0
 11
142.936623
 21
580.64837
 31
0.0
210
0.0
220
0.0
230
1.0
  0
LINE
  5
101
100
AcDbEntity
  8
0
 62
     7
 48
0.0175
100
AcDbLine
 10
135.236622
 20
493.648362
 30
0.0
 11
135.936623
 21
493.648362
 31
0.0
210
0.0
220
0.0
230
1.0
  0
LINE
  5
102
100
AcDbEntity
  8
0
 62
     7
 48
0.015368
100
AcDbLine
 10
126.186623
 20
525.448361
 30
0.0
 11
126.801342
 21
525.448361
 31
0.0
210
0.0
220
0.0
230
1.0
  0
LINE
  5
103
100
AcDbEntity
  8
0
 62
     7
 48
0.00625
100
AcDbLine
 10
126.186623
 20
528.198361
 30
0.0
 11
126.186623
 21
528.448359
 31
0.0
210
0.0
220
0.0
230
1.0
  0
LINE
  5
104
100
AcDbEntity
  8
0
 62
     7
 48
0.015368
100
AcDbLine
 10
126.186623
 20
525.448361
 30
0.0
 11
126.186623
 21
526.06308
 31
0.0
210
0.0
220
0.0
230
1.0
  0
ARC
  5
105
100
AcDbEntity
  8
0
 62
     6
100
AcDbCircle
 10
136.436623
 20
567.198361
 30
0.0
 40
5.5
210
0.0
220
0.0
230
1.0
100
AcDbArc
 50
96.117571
 51
108.319792
  0
ARC
  5
106
100
AcDbEntity
  8
0
 62
     6
100
AcDbCircle
 10
136.436623
 20
567.198361
 30
0.0
 40
5.5
210
0.0
220
0.0
230
1.0
100
AcDbArc
 50
161.680236
 51
173.845007
  0
LINE
  5
107
100
AcDbEntity
  8
0
 62
     7
 48
0.008839
100
AcDbLine
 10
125.215553
 20
560.448358
 30
0.0
 11
125.465553
 21
560.698361
 31
0.0
210
0.0
220
0.0
230
1.0
  0
LINE
  5
108
100
AcDbEntity
  8
0
 62
     7
 48
0.062508
100
AcDbLine
 10
123.686318
 20
528.448361
 30
0.0
 11
126.186623
 21
528.448361
 31
0.0
210
0.0
220
0.0
230
1.0
  0
LINE
  5
109
100
AcDbEntity
  8
0
 62
     7
 48
0.023742
100
AcDbLine
 10
122.736626
 20
528.448361
 30
0.0
 11
123.686318
 21
528.448361
 31
0.0
210
0.0
220
0.0
230
1.0
  0
LINE
  5
10A
100
AcDbEntity
  8
0
 62
     7
 48
0.038231
100
AcDbLine
 10
123.686318
 20
560.448361
 30
0.0
 11
125.215553
 21
560.448361
 31
0.0
210
0.0
220
0.0
230
1.0
  0
LINE
  5
10B
100
AcDbEntity
  8
0
 62
     7
 48
0.023742
100
AcDbLine
 10
122.736622
 20
560.448361
 30
0.0
 11
123.686318
 21
560.448361
 31
0.0
210
0.0
220
0.0
230
1.0
  0
CIRCLE
  5
10C
100
AcDbEntity
  8
0
 62
     7
100
AcDbCircle
 10
80.436623
 20
514.448361
 30
0.0
 40
2.0
210
0.0
220
0.0
230
1.0
  0
LINE
  5
10D
100
AcDbEntity
  8
0
 62
     7
100
AcDbLine
 10
135.936623
 20
426.198361
 30
0.0
 11
135.936623
 21
516.31308
 31
0.0
210
0.0
220
0.0
230
1.0
  0
LINE
  5
10E
100
AcDbEntity
  8
0
 62
     7
100
AcDbLine
 10
171.436623
 20
493.648362
 30
0.0
 11
171.436623
 21
528.198361
 31
0.0
210
0.0
220
0.0
230
1.0
  0
LINE
  5
10F
100
AcDbEntity
  8
0
 62
     7
 48
0.059632
100
AcDbLine
 10
124.051342
 20
528.198361
 30
0.0
 11
126.436623
 21
528.198361
 31
0.0
210
0.0
220
0.0
230
1.0
  0
LINE
  5
110
100
AcDbEntity
  8
0
 62
     7
 48
0.00625
100
AcDbLine
 10
126.436623
 20
560.448361
 30
0.0
 11
126.436623
 21
560.698361
 31
0.0
210
0.0
220
0.0
230
1.0
  0
LINE
  5
111
100
AcDbEntity
  8
0
 62
     7
 48
0.00625
100
AcDbLine
 10
126.436623
 20
528.198361
 30
0.0
 11
126.436623
 21
528.448361
 31
0.0
210
0.0
220
0.0
230
1.0
  0
LINE
  5
112
100
AcDbEntity
  8
0
 62
     7
 48
0.059632
100
AcDbLine
 10
124.051342
 20
560.698361
 30
0.0
 11
126.436623
 21
560.698361
 31
0.0
210
0.0
220
0.0
230
1.0
  0
LINE
  5
113
100
AcDbEntity
  8
0
 62
     7
 48
0.362479
100
AcDbLine
 10
126.436623
 20
560.448361
 30
0.0
 11
140.935784
 21
560.448361
 31
0.0
210
0.0
220
0.0
230
1.0
  0
LINE
  5
114
100
AcDbEntity
  8
0
 62
     7
 48
0.362479
100
AcDbLine
 10
126.436623
 20
528.448361
 30
0.0
 11
140.935784
 21
528.448361
 31
0.0
210
0.0
220
0.0
230
1.0
  0
LINE
  5
115
100
AcDbEntity
  8
0
 62
     7
 48
0.067521
100
AcDbLine
 10
140.935784
 20
560.698361
 30
0.0
 11
143.63662
 21
560.698361
 31
0.0
210
0.0
220
0.0
230
1.0
  0
LINE
  5
116
100
AcDbEntity
  8
0
 62
     7
100
AcDbLine
 10
143.63662
 20
560.698361
 30
0.0
 11
171.436623
 21
560.698361
 31
0.0
210
0.0
220
0.0
230
1.0
  0
LINE
  5
117
100
AcDbEntity
  8
0
 62
     7
100
AcDbLine
 10
143.63662
 20
528.198361
 30
0.0
 11
171.436623
 21
528.198361
 31
0.0
210
0.0
220
0.0
230
1.0
  0
LINE
  5
118
100
AcDbEntity
  8
0
 62
     7
 48
0.067521
100
AcDbLine
 10
140.935784
 20
528.198361
 30
0.0
 11
143.63662
 21
528.198361
 31
0.0
210
0.0
220
0.0
230
1.0
  0
LINE
  5
119
100
AcDbEntity
  8
0
 62
     7
 48
0.00625
100
AcDbLine
 10
140.935784
 20
560.448361
 30
0.0
 11
140.935784
 21
560.698361
 31
0.0
210
0.0
220
0.0
230
1.0
  0
LINE
  5
11A
100
AcDbEntity
  8
0
 62
     7
 48
0.00625
100
AcDbLine
 10
140.935784
 20
528.198361
 30
0.0
 11
140.935784
 21
528.448361
 31
0.0
210
0.0
220
0.0
230
1.0
  0
LINE
  5
11B
100
AcDbEntity
  8
0
 62
     7
100
AcDbLine
 10
135.936623
 20
493.648362
 30
0.0
 11
171.436623
 21
493.648362
 31
0.0
210
0.0
220
0.0
230
1.0
  0
LINE
  5
11C
100
AcDbEntity
  8
0
 62
     7
 48
0.0175
100
AcDbLine
 10
135.936623
 20
492.948361
 30
0.0
 11
135.936623
 21
493.648362
 31
0.0
210
0.0
220
0.0
230
1.0
  0
LINE
  5
11D
100
AcDbEntity
  8
0
 62
     7
100
AcDbLine
 10
124.051342
 20
560.698361
 30
0.0
 11
143.63662
 21
580.283643
 31
0.0
210
0.0
220
0.0
230
1.0
  0
LINE
  5
11E
100
AcDbEntity
  8
0
 62
     7
 48
0.420208
100
AcDbLine
 10
124.051342
 20
528.198361
 30
0.0
 11
135.936623
 21
516.31308
 31
0.0
210
0.0
220
0.0
230
1.0
  0
LINE
  5
11F
100
AcDbEntity
  8
0
  6
DASHDOT
 62
     7
100
AcDbLine
 10
68.436623
 20
514.448361
 30
0.0
 11
92.436623
 21
514.448361
 31
0.0
210
0.0
220
0.0
230
1.0
  0
LINE
  5
120
100
AcDbEntity
  8
0
  6
DASHDOT
 62
     7
100
AcDbLine
 10
80.436623
 20
502.448361
 30
0.0
 11
80.436623
 21
526.448361
 31
0.0
210
0.0
220
0.0
230
1.0
  0
LINE
  5
121
100
AcDbEntity
  8
0
  6
DASHDOT
 62
     7
100
AcDbLine
 10
68.436623
 20
514.448361
 30
0.0
 11
92.436623
 21
514.448361
 31
0.0
210
0.0
220
0.0
230
1.0
  0
LINE
  5
122
100
AcDbEntity
  8
0
  6
DASHDOT
 62
     7
100
AcDbLine
 10
80.436623
 20
502.448361
 30
0.0
 11
80.436623
 21
526.448361
 31
0.0
210
0.0
220
0.0
230
1.0
  0
LINE
  5
123
100
AcDbEntity
  8
0
 62
     7
100
AcDbLine
 10
83.936623
 20
559.198361
 30
0.0
 11
135.358868
 21
559.198361
 31
0.0
210
0.0
220
0.0
230
1.0
  0
LINE
  5
124
100
AcDbEntity
  8
0
 62
     7
 48
0.173066
100
AcDbLine
 10
75.936623
 20
559.198361
 30
0.0
 11
82.859273
 21
559.198361
 31
0.0
210
0.0
220
0.0
230
1.0
  0
LINE
  5
125
100
AcDbEntity
  8
0
 62
     7
 48
0.173066
100
AcDbLine
 10
75.936623
 20
529.698361
 30
0.0
 11
82.859273
 21
529.698361
 31
0.0
210
0.0
220
0.0
230
1.0
  0
LINE
  5
126
100
AcDbEntity
  8
0
 62
     7
100
AcDbLine
 10
83.936623
 20
529.698361
 30
0.0
 11
135.358868
 21
529.698361
 31
0.0
210
0.0
220
0.0
230
1.0
  0
LINE
  5
127
100
AcDbEntity
  8
0
 62
     7
100
AcDbLine
 10
135.358868
 20
529.698361
 30
0.0
 11
171.436623
 21
529.698361
 31
0.0
210
0.0
220
0.0
230
1.0
  0
LINE
  5
128
100
AcDbEntity
  8
0
 62
     7
100
AcDbLine
 10
135.358868
 20
559.198361
 30
0.0
 11
171.436623
 21
559.198361
 31
0.0
210
0.0
220
0.0
230
1.0
  0
LINE
  5
129
100
AcDbEntity
  8
0
 62
     7
 48
0.0125
100
AcDbLine
 10
83.436623
 20
560.398362
 30
0.0
 11
83.936623
 21
560.398362
 31
0.0
210
0.0
220
0.0
230
1.0
  0
LINE
  5
12A
100
AcDbEntity
  8
0
 62
     7
 48
0.0125
100
AcDbLine
 10
83.436623
 20
528.498362
 30
0.0
 11
83.936623
 21
528.498362
 31
0.0
210
0.0
220
0.0
230
1.0
  0
LINE
  5
12B
100
AcDbEntity
  8
0
 62
     7
 48
0.001443
100
AcDbLine
 10
83.013517
 20
560.448358
 30
0.0
 11
83.042383
 21
560.398362
 31
0.0
210
0.0
220
0.0
230
1.0
  0
LINE
  5
12C
100
AcDbEntity
  8
0
 62
     7
 48
0.009856
100
AcDbLine
 10
83.042383
 20
560.398362
 30
0.0
 11
83.436623
 21
560.398362
 31
0.0
210
0.0
220
0.0
230
1.0
  0
LINE
  5
12D
100
AcDbEntity
  8
0
 62
     7
 48
0.001443
100
AcDbLine
 10
83.013516
 20
528.448361
 30
0.0
 11
83.042383
 21
528.498362
 31
0.0
210
0.0
220
0.0
230
1.0
  0
LINE
  5
12E
100
AcDbEntity
  8
0
 62
     7
 48
0.009856
100
AcDbLine
 10
83.042383
 20
528.498362
 30
0.0
 11
83.436623
 21
528.498362
 31
0.0
210
0.0
220
0.0
230
1.0
  0
LINE
  5
12F
100
AcDbEntity
  8
0
 62
     7
100
AcDbLine
 10
83.436623
 20
528.498362
 30
0.0
 11
83.436623
 21
560.398362
 31
0.0
210
0.0
220
0.0
230
1.0
  0
LINE
  5
130
100
AcDbEntity
  8
0
 62
     7
 48
0.00375
100
AcDbLine
 10
82.859273
 20
529.548361
 30
0.0
 11
82.859273
 21
529.698361
 31
0.0
210
0.0
220
0.0
230
1.0
  0
LINE
  5
131
100
AcDbEntity
  8
0
 62
     7
 48
0.00375
100
AcDbLine
 10
82.859273
 20
559.198361
 30
0.0
 11
82.859273
 21
559.348363
 31
0.0
210
0.0
220
0.0
230
1.0
  0
LINE
  5
132
100
AcDbEntity
  8
0
 62
     7
 48
0.01875
100
AcDbLine
 10
82.859273
 20
559.698361
 30
0.0
 11
82.859273
 21
560.448358
 31
0.0
210
0.0
220
0.0
230
1.0
  0
LINE
  5
133
100
AcDbEntity
  8
0
 62
     7
 48
0.01875
100
AcDbLine
 10
82.859273
 20
528.448361
 30
0.0
 11
82.859273
 21
529.198361
 31
0.0
210
0.0
220
0.0
230
1.0
  0
LINE
  5
134
100
AcDbEntity
  8
0
 62
     7
 48
0.00375
100
AcDbLine
 10
83.936623
 20
529.548361
 30
0.0
 11
83.936623
 21
529.698361
 31
0.0
210
0.0
220
0.0
230
1.0
  0
LINE
  5
135
100
AcDbEntity
  8
0
 62
     7
 48
0.00375
100
AcDbLine
 10
83.936623
 20
559.198361
 30
0.0
 11
83.936623
 21
559.348363
 31
0.0
210
0.0
220
0.0
230
1.0
  0
LINE
  5
136
100
AcDbEntity
  8
0
 62
     7
 48
0.01875
100
AcDbLine
 10
83.936623
 20
559.698361
 30
0.0
 11
83.936623
 21
560.448358
 31
0.0
210
0.0
220
0.0
230
1.0
  0
LINE
  5
137
100
AcDbEntity
  8
0
 62
     7
 48
0.01875
100
AcDbLine
 10
83.936623
 20
528.448361
 30
0.0
 11
83.936623
 21
529.198361
 31
0.0
210
0.0
220
0.0
230
1.0
  0
LINE
  5
138
100
AcDbEntity
  8
0
 62
     7
 48
0.082104
100
AcDbLine
 10
132.186623
 20
529.548361
 30
0.0
 11
135.358868
 21
528.698361
 31
0.0
210
0.0
220
0.0
230
1.0
  0
LINE
  5
139
100
AcDbEntity
  8
0
 62
     7
 48
0.082104
100
AcDbLine
 10
132.186623
 20
559.348363
 30
0.0
 11
135.358868
 21
560.198361
 31
0.0
210
0.0
220
0.0
230
1.0
  0
LINE
  5
13A
100
AcDbEntity
  8
0
 62
     7
100
AcDbLine
 10
82.859273
 20
529.698361
 30
0.0
 11
82.859273
 21
559.198361
 31
0.0
210
0.0
220
0.0
230
1.0
  0
LINE
  5
13B
100
AcDbEntity
  8
0
 62
     7
100
AcDbLine
 10
83.936623
 20
529.698361
 30
0.0
 11
83.936623
 21
559.198361
 31
0.0
210
0.0
220
0.0
230
1.0
  0
LINE
  5
13C
100
AcDbEntity
  8
0
 62
     7
 48
0.125199
100
AcDbLine
 10
75.936623
 20
560.848363
 30
0.0
 11
80.944578
 21
560.848363
 31
0.0
210
0.0
220
0.0
230
1.0
  0
LINE
  5
13D
100
AcDbEntity
  8
0
 62
     7
 48
0.00375
100
AcDbLine
 10
75.936623
 20
529.548361
 30
0.0
 11
75.936623
 21
529.698361
 31
0.0
210
0.0
220
0.0
230
1.0
  0
LINE
  5
13E
100
AcDbEntity
  8
0
 62
     7
 48
0.00375
100
AcDbLine
 10
75.936623
 20
559.198361
 30
0.0
 11
75.936623
 21
559.348363
 31
0.0
210
0.0
220
0.0
230
1.0
  0
LINE
  5
13F
100
AcDbEntity
  8
0
 62
     7
 48
0.02875
100
AcDbLine
 10
75.936623
 20
559.698361
 30
0.0
 11
75.936623
 21
560.848363
 31
0.0
210
0.0
220
0.0
230
1.0
  0
LINE
  5
140
100
AcDbEntity
  8
0
 62
     7
 48
0.02875
100
AcDbLine
 10
75.936623
 20
528.048361
 30
0.0
 11
75.936623
 21
529.198361
 31
0.0
210
0.0
220
0.0
230
1.0
  0
LINE
  5
141
100
AcDbEntity
  8
0
 62
     7
100
AcDbLine
 10
75.936623
 20
529.698361
 30
0.0
 11
75.936623
 21
559.198361
 31
0.0
210
0.0
220
0.0
230
1.0
  0
LINE
  5
142
100
AcDbEntity
  8
0
 62
     7
 48
0.125199
100
AcDbLine
 10
75.936623
 20
528.048361
 30
0.0
 11
80.944573
 21
528.048361
 31
0.0
210
0.0
220
0.0
230
1.0
  0
LINE
  5
143
100
AcDbEntity
  8
0
 62
     7
100
AcDbLine
 10
83.936623
 20
559.698361
 30
0.0
 11
132.186623
 21
559.698361
 31
0.0
210
0.0
220
0.0
230
1.0
  0
LINE
  5
144
100
AcDbEntity
  8
0
 62
     7
 48
0.173066
100
AcDbLine
 10
75.936623
 20
559.698361
 30
0.0
 11
82.859273
 21
559.698361
 31
0.0
210
0.0
220
0.0
230
1.0
  0
LINE
  5
145
100
AcDbEntity
  8
0
 62
     7
100
AcDbLine
 10
83.936623
 20
529.198361
 30
0.0
 11
132.186623
 21
529.198361
 31
0.0
210
0.0
220
0.0
230
1.0
  0
LINE
  5
146
100
AcDbEntity
  8
0
 62
     7
 48
0.173066
100
AcDbLine
 10
75.936623
 20
529.198361
 30
0.0
 11
82.859273
 21
529.198361
 31
0.0
210
0.0
220
0.0
230
1.0
  0
LINE
  5
147
100
AcDbEntity
  8
0
 62
     7
 48
0.00875
100
AcDbLine
 10
82.859273
 20
559.348363
 30
0.0
 11
82.859273
 21
559.698361
 31
0.0
210
0.0
220
0.0
230
1.0
  0
LINE
  5
148
100
AcDbEntity
  8
0
 62
     7
 48
0.00875
100
AcDbLine
 10
82.859273
 20
529.198361
 30
0.0
 11
82.859273
 21
529.548361
 31
0.0
210
0.0
220
0.0
230
1.0
  0
LINE
  5
149
100
AcDbEntity
  8
0
 62
     7
 48
0.00875
100
AcDbLine
 10
83.936623
 20
529.198361
 30
0.0
 11
83.936623
 21
529.548361
 31
0.0
210
0.0
220
0.0
230
1.0
  0
LINE
  5
14A
100
AcDbEntity
  8
0
 62
     7
 48
0.00875
100
AcDbLine
 10
83.936623
 20
559.348363
 30
0.0
 11
83.936623
 21
559.698361
 31
0.0
210
0.0
220
0.0
230
1.0
  0
LINE
  5
14B
100
AcDbEntity
  8
0
 62
     7
 48
0.173066
100
AcDbLine
 10
75.936623
 20
529.548361
 30
0.0
 11
82.859273
 21
529.548361
 31
0.0
210
0.0
220
0.0
230
1.0
  0
LINE
  5
14C
100
AcDbEntity
  8
0
 62
     7
100
AcDbLine
 10
83.936623
 20
529.548361
 30
0.0
 11
132.186623
 21
529.548361
 31
0.0
210
0.0
220
0.0
230
1.0
  0
LINE
  5
14D
100
AcDbEntity
  8
0
 62
     7
 48
0.173066
100
AcDbLine
 10
75.936623
 20
559.348363
 30
0.0
 11
82.859273
 21
559.348363
 31
0.0
210
0.0
220
0.0
230
1.0
  0
LINE
  5
14E
100
AcDbEntity
  8
0
 62
     7
100
AcDbLine
 10
83.936623
 20
559.348363
 30
0.0
 11
132.186623
 21
559.348363
 31
0.0
210
0.0
220
0.0
230
1.0
  0
LINE
  5
14F
100
AcDbEntity
  8
0
 62
     7
 48
0.00875
100
AcDbLine
 10
75.936623
 20
529.198361
 30
0.0
 11
75.936623
 21
529.548361
 31
0.0
210
0.0
220
0.0
230
1.0
  0
LINE
  5
150
100
AcDbEntity
  8
0
 62
     7
 48
0.00875
100
AcDbLine
 10
75.936623
 20
559.348363
 30
0.0
 11
75.936623
 21
559.698361
 31
0.0
210
0.0
220
0.0
230
1.0
  0
LINE
  5
151
100
AcDbEntity
  8
0
 62
     7
 48
0.048296
100
AcDbLine
 10
154.768082
 20
560.198361
 30
0.0
 11
156.634102
 21
560.698361
 31
0.0
210
0.0
220
0.0
230
1.0
  0
LINE
  5
152
100
AcDbEntity
  8
0
 62
     7
 48
0.370063
100
AcDbLine
 10
156.634102
 20
560.698361
 30
0.0
 11
171.436623
 21
560.698361
 31
0.0
210
0.0
220
0.0
230
1.0
  0
LINE
  5
153
100
AcDbEntity
  8
0
 62
     7
 48
0.370063
100
AcDbLine
 10
156.634102
 20
528.198361
 30
0.0
 11
171.436623
 21
528.198361
 31
0.0
210
0.0
220
0.0
230
1.0
  0
LINE
  5
154
100
AcDbEntity
  8
0
 62
     7
 48
0.048296
100
AcDbLine
 10
154.768082
 20
528.698361
 30
0.0
 11
156.634102
 21
528.198361
 31
0.0
210
0.0
220
0.0
230
1.0
  0
LINE
  5
155
100
AcDbEntity
  8
0
 62
     7
 48
0.48523
100
AcDbLine
 10
135.358868
 20
528.698361
 30
0.0
 11
154.768082
 21
528.698361
 31
0.0
210
0.0
220
0.0
230
1.0
  0
LINE
  5
156
100
AcDbEntity
  8
0
 62
     7
 48
0.48523
100
AcDbLine
 10
135.358868
 20
560.198361
 30
0.0
 11
154.768082
 21
560.198361
 31
0.0
210
0.0
220
0.0
230
1.0
  0
LINE
  5
157
100
AcDbEntity
  8
0
 62
     7
 48
0.01875
100
AcDbLine
 10
132.186623
 20
559.698361
 30
0.0
 11
132.186623
 21
560.448361
 31
0.0
210
0.0
220
0.0
230
1.0
  0
LINE
  5
158
100
AcDbEntity
  8
0
 62
     7
 48
0.01875
100
AcDbLine
 10
132.186623
 20
528.448361
 30
0.0
 11
132.186623
 21
529.198361
 31
0.0
210
0.0
220
0.0
230
1.0
  0
LINE
  5
159
100
AcDbEntity
  8
0
  6
DASHDOT
 62
     7
100
AcDbLine
 10
72.936623
 20
412.655744
 30
0.0
 11
72.936623
 21
635.341771
 31
0.0
210
0.0
220
0.0
230
1.0
  0
LINE
  5
15A
100
AcDbEntity
  8
0
  6
DASHDOT
 62
     7
100
AcDbLine
 10
75.936623
 20
411.697568
 30
0.0
 11
75.936623
 21
634.880933
 31
0.0
210
0.0
220
0.0
230
1.0
  0
LINE
  5
15B
100
AcDbEntity
  8
0
 62
     7
 48
0.1075
100
AcDbLine
 10
172.13662
 20
599.998364
 30
0.0
 11
176.436623
 21
599.998364
 31
0.0
210
0.0
220
0.0
230
1.0
  0
LINE
  5
15C
100
AcDbEntity
  8
0
 62
     7
 48
0.22
100
AcDbLine
 10
179.436623
 20
591.198361
 30
0.0
 11
179.436623
 21
599.998364
 31
0.0
210
0.0
220
0.0
230
1.0
  0
LINE
  5
15D
100
AcDbEntity
  8
0
 62
     7
 48
0.075
100
AcDbLine
 10
176.436623
 20
599.998364
 30
0.0
 11
179.436623
 21
599.998364
 31
0.0
210
0.0
220
0.0
230
1.0
  0
LINE
  5
15E
100
AcDbEntity
  8
0
 62
     7
100
AcDbLine
 10
143.63662
 20
580.283643
 30
0.0
 11
143.63662
 21
619.198361
 31
0.0
210
0.0
220
0.0
230
1.0
  0
LINE
  5
15F
100
AcDbEntity
  8
0
 62
     7
100
AcDbLine
 10
142.936623
 20
580.64837
 30
0.0
 11
142.936623
 21
619.198361
 31
0.0
210
0.0
220
0.0
230
1.0
  0
LINE
  5
160
100
AcDbEntity
  8
0
 62
     7
100
AcDbLine
 10
75.936623
 20
623.198361
 30
0.0
 11
177.436623
 21
623.198361
 31
0.0
210
0.0
220
0.0
230
1.0
  0
LINE
  5
161
100
AcDbEntity
  8
0
 62
     7
100
AcDbLine
 10
75.936623
 20
620.198361
 30
0.0
 11
177.436623
 21
620.198361
 31
0.0
210
0.0
220
0.0
230
1.0
  0
LINE
  5
162
100
AcDbEntity
  8
0
 62
     7
100
AcDbLine
 10
75.936623
 20
619.198361
 30
0.0
 11
177.436623
 21
619.198361
 31
0.0
210
0.0
220
0.0
230
1.0
  0
LINE
  5
163
100
AcDbEntity
  8
0
 62
     7
100
AcDbLine
 10
75.936623
 20
426.198361
 30
0.0
 11
177.436623
 21
426.198361
 31
0.0
210
0.0
220
0.0
230
1.0
  0
LINE
  5
164
100
AcDbEntity
  8
0
 62
     7
100
AcDbLine
 10
75.936623
 20
425.198361
 30
0.0
 11
177.436623
 21
425.198361
 31
0.0
210
0.0
220
0.0
230
1.0
  0
LINE
  5
165
100
AcDbEntity
  8
0
 62
     7
100
AcDbLine
 10
75.936623
 20
422.198361
 30
0.0
 11
177.436623
 21
422.198361
 31
0.0
210
0.0
220
0.0
230
1.0
  0
LINE
  5
166
100
AcDbEntity
  8
0
  6
DASHSPACE
 62
     7
 48
0.05
100
AcDbLine
 10
193.436623
 20
476.198361
 30
0.0
 11
195.436623
 21
476.198361
 31
0.0
210
0.0
220
0.0
230
1.0
  0
LINE
  5
167
100
AcDbEntity
  8
0
  6
DASHSPACE
 62
     7
100
AcDbLine
 10
195.436623
 20
432.804898
 30
0.0
 11
195.436623
 21
616.959226
 31
0.0
210
0.0
220
0.0
230
1.0
  0
LINE
  5
168
100
AcDbEntity
  8
0
  6
DASHSPACE
 62
     7
100
AcDbLine
 10
193.436623
 20
434.62518
 30
0.0
 11
193.436623
 21
615.621579
 31
0.0
210
0.0
220
0.0
230
1.0
  0
LINE
  5
169
100
AcDbEntity
  8
0
  6
DASHSPACE
 62
     7
 48
0.045926
100
AcDbLine
 10
193.599594
 20
583.198361
 30
0.0
 11
195.436623
 21
583.198361
 31
0.0
210
0.0
220
0.0
230
1.0
  0
POLYLINE
  5
16A
100
AcDbEntity
  8
0
 62
     7
100
AcDb2dPolyline
 66
     1
 10
0.0
 20
0.0
 30
0.0
 71
     5
  0
VERTEX
  5
16B
100
AcDbEntity
  8
0
100
AcDbVertex
100
AcDb2dVertex
 10
189.771935
 20
437.960561
 30
0.0
  0
VERTEX
  5
16C
100
AcDbEntity
  8
0
100
AcDbVertex
100
AcDb2dVertex
 10
195.577423
 20
432.676747
 30
0.0
  0
VERTEX
  5
16D
100
AcDbEntity
  8
0
100
AcDbVertex
100
AcDb2dVertex
 10
197.66317
 20
433.482755
 30
0.0
  0
VERTEX
  5
16E
100
AcDbEntity
  8
0
100
AcDbVertex
100
AcDb2dVertex
 10
195.710335
 20
429.851445
 30
0.0
  0
VERTEX
  5
16F
100
AcDbEntity
  8
0
100
AcDbVertex
100
AcDb2dVertex
 10
197.796082
 20
430.657453
 30
0.0
  0
SEQEND
  5
170
100
AcDbEntity
  8
0
  0
POLYLINE
  5
171
100
AcDbEntity
  8
0
 62
     7
100
AcDb2dPolyline
 66
     1
 10
0.0
 20
0.0
 30
0.0
 71
     5
  0
VERTEX
  5
172
100
AcDbEntity
  8
0
100
AcDbVertex
100
AcDb2dVertex
 10
189.451759
 20
612.95641
 30
0.0
  0
VERTEX
  5
173
100
AcDbEntity
  8
0
100
AcDbVertex
100
AcDb2dVertex
 10
195.662773
 20
617.110486
 30
0.0
  0
VERTEX
  5
174
100
AcDbEntity
  8
0
100
AcDbVertex
100
AcDb2dVertex
 10
195.382118
 20
619.32887
 30
0.0
  0
VERTEX
  5
175
100
AcDbEntity
  8
0
100
AcDbVertex
100
AcDb2dVertex
 10
198.437103
 20
616.559918
 30
0.0
  0
VERTEX
  5
176
100
AcDbEntity
  8
0
100
AcDbVertex
100
AcDb2dVertex
 10
198.156441
 20
618.77831
 30
0.0
  0
SEQEND
  5
177
100
AcDbEntity
  8
0
  0
LINE
  5
178
100
AcDbEntity
  8
0
 62
     7
 48
0.025
100
AcDbLine
 10
75.936623
 20
623.879941
 30
0.0
 11
75.936623
 21
624.879941
 31
0.0
210
0.0
220
0.0
230
1.0
  0
LINE
  5
179
100
AcDbEntity
  8
0
 62
     7
 48
0.025
100
AcDbLine
 10
75.936623
 20
624.129941
 30
0.0
 11
75.936623
 21
625.129941
 31
0.0
210
0.0
220
0.0
230
1.0
  0
LINE
  5
17A
100
AcDbEntity
  8
0
 62
     7
100
AcDbLine
 10
75.936453
 20
594.213086
 30
0.0
 11
75.936453
 21
624.963086
 31
0.0
210
0.0
220
0.0
230
1.0
  0
ARC
  5
17B
100
AcDbEntity
  8
0
  6
DASHDOT
 62
     7
100
AcDbCircle
 10
151.937866
 20
528.480151
 30
0.0
 40
66.148521
210
0.0
220
0.0
230
1.0
100
AcDbArc
 50
326.318297
 51
29.612831
  0
ARC
  5
17C
100
AcDbEntity
  8
0
 62
     7
100
AcDbCircle
 10
176.436623
 20
624.198361
 30
0.0
 40
1.0
210
0.0
220
0.0
230
1.0
100
AcDbArc
 50
0.00001
 51
90.000003
  0
LINE
  5
17D
100
AcDbEntity
  8
0
 62
     7
100
AcDbLine
 10
177.436623
 20
600.698361
 30
0.0
 11
177.436623
 21
624.198361
 31
0.0
210
0.0
220
0.0
230
1.0
  0
LINE
  5
17E
100
AcDbEntity
  8
0
 62
     7
 48
0.0325
100
AcDbLine
 10
177.436623
 20
600.698361
 30
0.0
 11
178.736626
 21
600.698361
 31
0.0
210
0.0
220
0.0
230
1.0
  0
LINE
  5
17F
100
AcDbEntity
  8
0
 62
     7
 48
0.0175
100
AcDbLine
 10
178.736626
 20
599.998364
 30
0.0
 11
178.736626
 21
600.698361
 31
0.0
210
0.0
220
0.0
230
1.0
  0
LINE
  5
180
100
AcDbEntity
  8
0
 62
     7
 48
0.0175
100
AcDbLine
 10
178.736626
 20
599.998364
 30
0.0
 11
179.436623
 21
599.998364
 31
0.0
210
0.0
220
0.0
230
1.0
  0
LINE
  5
181
100
AcDbEntity
  8
0
 62
     7
100
AcDbLine
 10
179.436623
 20
445.398358
 30
0.0
 11
179.436623
 21
477.198361
 31
0.0
210
0.0
220
0.0
230
1.0
  0
LINE
  5
182
100
AcDbEntity
  8
0
 62
     7
 48
0.0175
100
AcDbLine
 10
178.736626
 20
445.398358
 30
0.0
 11
179.436623
 21
445.398358
 31
0.0
210
0.0
220
0.0
230
1.0
  0
LINE
  5
183
100
AcDbEntity
  8
0
 62
     7
 48
0.0175
100
AcDbLine
 10
178.736626
 20
444.698361
 30
0.0
 11
178.736626
 21
445.398358
 31
0.0
210
0.0
220
0.0
230
1.0
  0
LINE
  5
184
100
AcDbEntity
  8
0
 62
     7
 48
0.0325
100
AcDbLine
 10
177.436623
 20
444.698361
 30
0.0
 11
178.736626
 21
444.698361
 31
0.0
210
0.0
220
0.0
230
1.0
  0
LINE
  5
185
100
AcDbEntity
  8
0
 62
     7
100
AcDbLine
 10
177.436623
 20
421.200116
 30
0.0
 11
177.436623
 21
444.698361
 31
0.0
210
0.0
220
0.0
230
1.0
  0
ARC
  5
186
100
AcDbEntity
  8
0
 62
     7
100
AcDbCircle
 10
176.436592
 20
421.198392
 30
0.0
 40
1.000032
210
0.0
220
0.0
230
1.0
100
AcDbArc
 50
270.098956
 51
0.098946
  0
LINE
  5
187
100
AcDbEntity
  8
0
 62
     7
100
AcDbLine
 10
75.936623
 20
420.198361
 30
0.0
 11
176.434868
 21
420.198361
 31
0.0
210
0.0
220
0.0
230
1.0
  0
LINE
  5
188
100
AcDbEntity
  8
0
 62
     7
100
AcDbLine
 10
75.936623
 20
420.198361
 30
0.0
 11
75.936623
 21
625.198361
 31
0.0
210
0.0
220
0.0
230
1.0
  0
LINE
  5
189
100
AcDbEntity
  8
0
 62
     7
100
AcDbLine
 10
75.936623
 20
625.198361
 30
0.0
 11
176.436623
 21
625.198361
 31
0.0
210
0.0
220
0.0
230
1.0
  0
LINE
  5
18A
100
AcDbEntity
  8
0
 62
     7
 48
0.05
100
AcDbLine
 10
181.436623
 20
477.198361
 30
0.0
 11
179.436623
 21
477.198361
 31
0.0
210
0.0
220
0.0
230
1.0
  0
LINE
  5
18B
100
AcDbEntity
  8
0
 62
     7
 48
0.045
100
AcDbLine
 10
181.436623
 20
582.198361
 30
0.0
 11
179.63662
 21
582.198361
 31
0.0
210
0.0
220
0.0
230
1.0
  0
LINE
  5
18C
100
AcDbEntity
  8
0
 62
     7
100
AcDbLine
 10
181.436623
 20
477.198361
 30
0.0
 11
181.436623
 21
582.198361
 31
0.0
210
0.0
220
0.0
230
1.0
  0
LINE
  5
18D
100
AcDbEntity
  8
0
 62
     7
 48
0.002501
100
AcDbLine
 10
185.936623
 20
580.59834
 30
0.0
 11
185.936623
 21
580.698361
 31
0.0
210
0.0
220
0.0
230
1.0
  0
LINE
  5
18E
100
AcDbEntity
  8
0
 62
     7
 48
0.05
100
AcDbLine
 10
185.436623
 20
478.698365
 30
0.0
 11
183.436623
 21
478.698365
 31
0.0
210
0.0
220
0.0
230
1.0
  0
LINE
  5
18F
100
AcDbEntity
  8
0
 62
     7
 48
0.0475
100
AcDbLine
 10
185.436623
 20
478.698365
 30
0.0
 11
187.336609
 21
478.698365
 31
0.0
210
0.0
220
0.0
230
1.0
  0
LINE
  5
190
100
AcDbEntity
  8
0
 62
     7
100
AcDbLine
 10
183.436623
 20
580.698361
 30
0.0
 11
183.436623
 21
478.698361
 31
0.0
210
0.0
220
0.0
230
1.0
  0
LINE
  5
191
100
AcDbEntity
  8
0
 62
     7
 48
0.05
100
AcDbLine
 10
185.436623
 20
580.698361
 30
0.0
 11
183.436623
 21
580.698361
 31
0.0
210
0.0
220
0.0
230
1.0
  0
LINE
  5
192
100
AcDbEntity
  8
0
 62
     7
 48
0.145
100
AcDbLine
 10
185.436623
 20
582.198361
 30
0.0
 11
179.63662
 21
582.198361
 31
0.0
210
0.0
220
0.0
230
1.0
  0
LINE
  5
193
100
AcDbEntity
  8
0
 62
     7
 48
0.1675
100
AcDbLine
 10
185.436623
 20
477.198361
 30
0.0
 11
178.736611
 21
477.198361
 31
0.0
210
0.0
220
0.0
230
1.0
  0
LINE
  5
194
100
AcDbEntity
  8
0
 62
     7
 48
0.0475
100
AcDbLine
 10
187.336609
 20
580.698361
 30
0.0
 11
185.436623
 21
580.698361
 31
0.0
210
0.0
220
0.0
230
1.0
  0
LINE
  5
195
100
AcDbEntity
  8
0
 62
     7
 48
0.0475
100
AcDbLine
 10
187.336609
 20
582.198361
 30
0.0
 11
185.436623
 21
582.198361
 31
0.0
210
0.0
220
0.0
230
1.0
  0
LINE
  5
196
100
AcDbEntity
  8
0
 62
     7
 48
0.0025
100
AcDbLine
 10
183.936623
 20
478.698365
 30
0.0
 11
183.936623
 21
478.798356
 31
0.0
210
0.0
220
0.0
230
1.0
  0
LINE
  5
197
100
AcDbEntity
  8
0
 62
     7
 48
0.0025
100
AcDbLine
 10
185.936623
 20
478.698365
 30
0.0
 11
185.936623
 21
478.798356
 31
0.0
210
0.0
220
0.0
230
1.0
  0
LINE
  5
198
100
AcDbEntity
  8
0
 62
     7
 48
0.0125
100
AcDbLine
 10
183.436608
 20
478.698361
 30
0.0
 11
183.936623
 21
478.698361
 31
0.0
210
0.0
220
0.0
230
1.0
  0
LINE
  5
199
100
AcDbEntity
  8
0
 62
     7
 48
0.0475
100
AcDbLine
 10
187.336609
 20
477.198361
 30
0.0
 11
185.436623
 21
477.198361
 31
0.0
210
0.0
220
0.0
230
1.0
  0
LINE
  5
19A
100
AcDbEntity
  8
0
 62
     7
 48
0.017501
100
AcDbLine
 10
179.436623
 20
599.998364
 30
0.0
 11
178.73658
 21
599.998364
 31
0.0
210
0.0
220
0.0
230
1.0
  0
LINE
  5
19B
100
AcDbEntity
  8
0
 62
     7
 48
0.0175
100
AcDbLine
 10
178.736626
 20
600.698361
 30
0.0
 11
178.736626
 21
599.998364
 31
0.0
210
0.0
220
0.0
230
1.0
  0
LINE
  5
19C
100
AcDbEntity
  8
0
 62
     7
 48
0.032393
100
AcDbLine
 10
177.440903
 20
600.698361
 30
0.0
 11
178.736626
 21
600.698361
 31
0.0
210
0.0
220
0.0
230
1.0
  0
LINE
  5
19D
100
AcDbEntity
  8
0
 62
     7
 48
0.45625
100
AcDbLine
 10
177.436623
 20
618.948361
 30
0.0
 11
177.436623
 21
600.698361
 31
0.0
210
0.0
220
0.0
230
1.0
  0
LINE
  5
19E
100
AcDbEntity
  8
0
 62
     7
 48
0.0025
100
AcDbLine
 10
185.936623
 20
580.698361
 30
0.0
 11
185.936623
 21
580.598359
 31
0.0
210
0.0
220
0.0
230
1.0
  0
LINE
  5
19F
100
AcDbEntity
  8
0
 62
     7
 48
0.45625
100
AcDbLine
 10
177.436623
 20
600.698361
 30
0.0
 11
177.436623
 21
618.948361
 31
0.0
210
0.0
220
0.0
230
1.0
  0
LINE
  5
1A0
100
AcDbEntity
  8
0
 62
     7
 48
0.1
100
AcDbLine
 10
171.436623
 20
618.948361
 30
0.0
 11
175.436623
 21
618.948361
 31
0.0
210
0.0
220
0.0
230
1.0
  0
LINE
  5
1A1
100
AcDbEntity
  8
0
 62
     7
 48
0.025
100
AcDbLine
 10
175.436623
 20
618.948361
 30
0.0
 11
176.436623
 21
618.948361
 31
0.0
210
0.0
220
0.0
230
1.0
  0
LINE
  5
1A2
100
AcDbEntity
  8
0
 62
     7
 48
0.45625
100
AcDbLine
 10
171.436623
 20
618.948361
 30
0.0
 11
171.436623
 21
600.698361
 31
0.0
210
0.0
220
0.0
230
1.0
  0
LINE
  5
1A3
100
AcDbEntity
  8
0
 62
     7
 48
0.025
100
AcDbLine
 10
177.436623
 20
618.948361
 30
0.0
 11
176.436623
 21
618.948361
 31
0.0
210
0.0
220
0.0
230
1.0
  0
LINE
  5
1A4
100
AcDbEntity
  8
0
 62
     7
 48
0.107542
100
AcDbLine
 10
176.438294
 20
477.898362
 30
0.0
 11
172.13662
 21
477.898362
 31
0.0
210
0.0
220
0.0
230
1.0
  0
LINE
  5
1A5
100
AcDbEntity
  8
0
 62
     7
100
AcDbLine
 10
172.13662
 20
580.698361
 30
0.0
 11
172.13662
 21
477.898362
 31
0.0
210
0.0
220
0.0
230
1.0
  0
LINE
  5
1A6
100
AcDbEntity
  8
0
 62
     7
 48
0.4825
100
AcDbLine
 10
172.13662
 20
599.998364
 30
0.0
 11
172.13662
 21
580.698361
 31
0.0
210
0.0
220
0.0
230
1.0
  0
LINE
  5
1A7
100
AcDbEntity
  8
0
 62
     7
 48
0.107542
100
AcDbLine
 10
176.438294
 20
599.998364
 30
0.0
 11
172.13662
 21
599.998364
 31
0.0
210
0.0
220
0.0
230
1.0
  0
LINE
  5
1A8
100
AcDbEntity
  8
0
 62
     7
100
AcDbLine
 10
179.436623
 20
582.198361
 30
0.0
 11
179.436623
 21
477.898362
 31
0.0
210
0.0
220
0.0
230
1.0
  0
LINE
  5
1A9
100
AcDbEntity
  8
0
 62
     7
 48
0.445
100
AcDbLine
 10
179.436623
 20
599.998364
 30
0.0
 11
179.436623
 21
582.198361
 31
0.0
210
0.0
220
0.0
230
1.0
  0
LINE
  5
1AA
100
AcDbEntity
  8
0
 62
     7
100
AcDbLine
 10
183.436623
 20
580.698361
 30
0.0
 11
183.436623
 21
478.698361
 31
0.0
210
0.0
220
0.0
230
1.0
  0
LINE
  5
1AB
100
AcDbEntity
  8
0
 62
     7
 48
0.05
100
AcDbLine
 10
185.436623
 20
477.198361
 30
0.0
 11
183.436623
 21
477.198361
 31
0.0
210
0.0
220
0.0
230
1.0
  0
LINE
  5
1AC
100
AcDbEntity
  8
0
 62
     7
 48
0.06375
100
AcDbLine
 10
183.436623
 20
477.198361
 30
0.0
 11
180.88662
 21
477.198361
 31
0.0
210
0.0
220
0.0
230
1.0
  0
LINE
  5
1AD
100
AcDbEntity
  8
0
 62
     7
 48
0.0475
100
AcDbLine
 10
185.436623
 20
477.198361
 30
0.0
 11
187.336609
 21
477.198361
 31
0.0
210
0.0
220
0.0
230
1.0
  0
LINE
  5
1AE
100
AcDbEntity
  8
0
 62
     7
 48
0.0125
100
AcDbLine
 10
183.436608
 20
478.698361
 30
0.0
 11
183.936623
 21
478.698361
 31
0.0
210
0.0
220
0.0
230
1.0
  0
LINE
  5
1AF
100
AcDbEntity
  8
0
 62
     7
 48
0.05
100
AcDbLine
 10
185.436623
 20
478.698361
 30
0.0
 11
183.436623
 21
478.698361
 31
0.0
210
0.0
220
0.0
230
1.0
  0
LINE
  5
1B0
100
AcDbEntity
  8
0
 62
     7
 48
0.0475
100
AcDbLine
 10
187.336609
 20
478.698361
 30
0.0
 11
185.436623
 21
478.698361
 31
0.0
210
0.0
220
0.0
230
1.0
  0
LINE
  5
1B1
100
AcDbEntity
  8
0
 62
     7
100
AcDbLine
 10
171.436623
 20
600.698361
 30
0.0
 11
171.436623
 21
580.698361
 31
0.0
210
0.0
220
0.0
230
1.0
  0
LINE
  5
1B2
100
AcDbEntity
  8
0
 62
     7
100
AcDbLine
 10
171.436623
 20
580.698361
 30
0.0
 11
171.436623
 21
477.198361
 31
0.0
210
0.0
220
0.0
230
1.0
  0
LINE
  5
1B3
100
AcDbEntity
  8
0
 62
     7
 48
0.0575
100
AcDbLine
 10
176.436623
 20
477.198361
 30
0.0
 11
178.736626
 21
477.198361
 31
0.0
210
0.0
220
0.0
230
1.0
  0
LINE
  5
1B4
100
AcDbEntity
  8
0
 62
     7
 48
0.125
100
AcDbLine
 10
171.436623
 20
477.198361
 30
0.0
 11
176.436623
 21
477.198361
 31
0.0
210
0.0
220
0.0
230
1.0
  0
LINE
  5
1B5
100
AcDbEntity
  8
0
 62
     7
 48
0.0475
100
AcDbLine
 10
185.436623
 20
580.698361
 30
0.0
 11
187.336609
 21
580.698361
 31
0.0
210
0.0
220
0.0
230
1.0
  0
LINE
  5
1B6
100
AcDbEntity
  8
0
 62
     7
 48
0.05
100
AcDbLine
 10
185.436623
 20
580.698361
 30
0.0
 11
183.436623
 21
580.698361
 31
0.0
210
0.0
220
0.0
230
1.0
  0
LINE
  5
1B7
100
AcDbEntity
  8
0
 62
     7
 48
0.005
100
AcDbLine
 10
179.436623
 20
582.198361
 30
0.0
 11
179.63662
 21
582.198361
 31
0.0
210
0.0
220
0.0
230
1.0
  0
LINE
  5
1B8
100
AcDbEntity
  8
0
 62
     7
 48
0.0475
100
AcDbLine
 10
185.436623
 20
582.198361
 30
0.0
 11
187.336609
 21
582.198361
 31
0.0
210
0.0
220
0.0
230
1.0
  0
LINE
  5
1B9
100
AcDbEntity
  8
0
 62
     7
 48
0.145
100
AcDbLine
 10
185.436623
 20
582.198361
 30
0.0
 11
179.63662
 21
582.198361
 31
0.0
210
0.0
220
0.0
230
1.0
  0
LINE
  5
1BA
100
AcDbEntity
  8
0
 62
     7
 48
0.0175
100
AcDbLine
 10
180.88662
 20
477.898362
 30
0.0
 11
180.88662
 21
477.198361
 31
0.0
210
0.0
220
0.0
230
1.0
  0
LINE
  5
1BB
100
AcDbEntity
  8
0
 62
     7
 48
0.03125
100
AcDbLine
 10
180.88662
 20
477.898362
 30
0.0
 11
179.63662
 21
477.898362
 31
0.0
210
0.0
220
0.0
230
1.0
  0
LINE
  5
1BC
100
AcDbEntity
  8
0
 62
     7
 48
0.125
100
AcDbLine
 10
171.436623
 20
600.698361
 30
0.0
 11
176.436623
 21
600.698361
 31
0.0
210
0.0
220
0.0
230
1.0
  0
LINE
  5
1BD
100
AcDbEntity
  8
0
 62
     7
 48
0.0575
100
AcDbLine
 10
178.736626
 20
600.698361
 30
0.0
 11
176.436623
 21
600.698361
 31
0.0
210
0.0
220
0.0
230
1.0
  0
LINE
  5
1BE
100
AcDbEntity
  8
0
 62
     7
 48
0.0025
100
AcDbLine
 10
183.936623
 20
478.698365
 30
0.0
 11
183.936623
 21
478.79836
 31
0.0
210
0.0
220
0.0
230
1.0
  0
LINE
  5
1BF
100
AcDbEntity
  8
0
 62
     7
 48
0.0025
100
AcDbLine
 10
185.936623
 20
478.698365
 30
0.0
 11
185.936623
 21
478.79836
 31
0.0
210
0.0
220
0.0
230
1.0
  0
LINE
  5
1C0
100
AcDbEntity
  8
0
 62
     7
 48
0.0025
100
AcDbLine
 10
185.936623
 20
580.698361
 30
0.0
 11
185.936623
 21
580.598344
 31
0.0
210
0.0
220
0.0
230
1.0
  0
LINE
  5
1C1
100
AcDbEntity
  8
0
 62
     7
 48
0.0025
100
AcDbLine
 10
185.936623
 20
580.698361
 30
0.0
 11
185.936623
 21
580.598359
 31
0.0
210
0.0
220
0.0
230
1.0
  0
LINE
  5
1C2
100
AcDbEntity
  8
0
 62
     7
 48
0.074958
100
AcDbLine
 10
176.438294
 20
477.898362
 30
0.0
 11
179.436623
 21
477.898362
 31
0.0
210
0.0
220
0.0
230
1.0
  0
LINE
  5
1C3
100
AcDbEntity
  8
0
 62
     7
 48
0.005
100
AcDbLine
 10
179.436623
 20
477.898362
 30
0.0
 11
179.63662
 21
477.898362
 31
0.0
210
0.0
220
0.0
230
1.0
  0
LINE
  5
1C4
100
AcDbEntity
  8
0
 62
     7
 48
0.0175
100
AcDbLine
 10
178.736626
 20
477.898362
 30
0.0
 11
178.736626
 21
477.198361
 31
0.0
210
0.0
220
0.0
230
1.0
  0
LINE
  5
1C5
100
AcDbEntity
  8
0
 62
     7
 48
0.074958
100
AcDbLine
 10
179.436623
 20
599.998364
 30
0.0
 11
176.438294
 21
599.998364
 31
0.0
210
0.0
220
0.0
230
1.0
  0
LINE
  5
1C6
100
AcDbEntity
  8
0
 62
     7
 48
0.0175
100
AcDbLine
 10
178.736626
 20
600.698361
 30
0.0
 11
178.736626
 21
599.998364
 31
0.0
210
0.0
220
0.0
230
1.0
  0
LINE
  5
1C7
100
AcDbEntity
  8
0
 62
     7
 48
0.445002
100
AcDbLine
 10
179.436623
 20
599.998364
 30
0.0
 11
179.436623
 21
582.198274
 31
0.0
210
0.0
220
0.0
230
1.0
  0
LINE
  5
1C8
100
AcDbEntity
  8
0
 62
     7
100
AcDbLine
 10
179.436623
 20
599.998364
 30
0.0
 11
179.436623
 21
477.898362
 31
0.0
210
0.0
220
0.0
230
1.0
  0
LINE
  5
1C9
100
AcDbEntity
  8
0
 62
     7
 48
0.0625
100
AcDbLine
 10
198.336624
 20
576.698361
 30
0.0
 11
198.336624
 21
579.198361
 31
0.0
210
0.0
220
0.0
230
1.0
  0
LINE
  5
1CA
100
AcDbEntity
  8
0
 62
     7
100
AcDbLine
 10
198.336624
 20
576.698361
 30
0.0
 11
198.336624
 21
482.698361
 31
0.0
210
0.0
220
0.0
230
1.0
  0
LINE
  5
1CB
100
AcDbEntity
  8
0
 62
     7
 48
0.0625
100
AcDbLine
 10
198.336624
 20
480.198361
 30
0.0
 11
198.336624
 21
482.698361
 31
0.0
210
0.0
220
0.0
230
1.0
  0
LINE
  5
1CC
100
AcDbEntity
  8
0
 62
     7
 48
0.053033
100
AcDbLine
 10
196.836624
 20
478.698361
 30
0.0
 11
198.336624
 21
480.198361
 31
0.0
210
0.0
220
0.0
230
1.0
  0
LINE
  5
1CD
100
AcDbEntity
  8
0
 62
     7
 48
0.053033
100
AcDbLine
 10
196.836624
 20
580.698361
 30
0.0
 11
198.336624
 21
579.198361
 31
0.0
210
0.0
220
0.0
230
1.0
  0
LINE
  5
1CE
100
AcDbEntity
  8
0
 62
     7
 48
0.1
100
AcDbLine
 10
196.836624
 20
576.698361
 30
0.0
 11
196.836624
 21
580.698361
 31
0.0
210
0.0
220
0.0
230
1.0
  0
LINE
  5
1CF
100
AcDbEntity
  8
0
 62
     7
100
AcDbLine
 10
196.836624
 20
576.698361
 30
0.0
 11
196.836624
 21
482.698361
 31
0.0
210
0.0
220
0.0
230
1.0
  0
LINE
  5
1D0
100
AcDbEntity
  8
0
 62
     7
 48
0.1
100
AcDbLine
 10
196.836624
 20
478.698361
 30
0.0
 11
196.836624
 21
482.698361
 31
0.0
210
0.0
220
0.0
230
1.0
  0
LINE
  5
1D1
100
AcDbEntity
  8
0
 62
     7
 48
0.0625
100
AcDbLine
 10
196.836624
 20
478.698361
 30
0.0
 11
194.336617
 21
478.698361
 31
0.0
210
0.0
220
0.0
230
1.0
  0
LINE
  5
1D2
100
AcDbEntity
  8
0
 62
     7
 48
0.0625
100
AcDbLine
 10
196.836624
 20
580.698361
 30
0.0
 11
194.336617
 21
580.698361
 31
0.0
210
0.0
220
0.0
230
1.0
  0
ARC
  5
1D3
100
AcDbEntity
  8
0
 62
     7
100
AcDbCircle
 10
194.086624
 20
585.899323
 30
0.0
 40
0.25
210
0.0
220
0.0
230
1.0
100
AcDbArc
 50
359.999983
 51
60.000003
  0
ARC
  5
1D4
100
AcDbEntity
  8
0
 62
     7
100
AcDbCircle
 10
194.086624
 20
473.497399
 30
0.0
 40
0.25
210
0.0
220
0.0
230
1.0
100
AcDbArc
 50
299.999994
 51
0.00002
  0
LINE
  5
1D5
100
AcDbEntity
  8
0
 62
     7
 48
0.054127
100
AcDbLine
 10
194.211624
 20
586.11583
 30
0.0
 11
192.336624
 21
587.198361
 31
0.0
210
0.0
220
0.0
230
1.0
  0
LINE
  5
1D6
100
AcDbEntity
  8
0
 62
     7
 48
0.054127
100
AcDbLine
 10
194.211624
 20
473.280892
 30
0.0
 11
192.336624
 21
472.198361
 31
0.0
210
0.0
220
0.0
230
1.0
  0
LINE
  5
1D7
100
AcDbEntity
  8
0
 62
     7
100
AcDbLine
 10
192.336624
 20
587.198361
 30
0.0
 11
192.336624
 21
472.198361
 31
0.0
210
0.0
220
0.0
230
1.0
  0
LINE
  5
1D8
100
AcDbEntity
  8
0
 62
     7
 48
0.0625
100
AcDbLine
 10
189.836624
 20
587.198361
 30
0.0
 11
192.336624
 21
587.198361
 31
0.0
210
0.0
220
0.0
230
1.0
  0
LINE
  5
1D9
100
AcDbEntity
  8
0
 62
     7
 48
0.0625
100
AcDbLine
 10
192.336624
 20
472.198361
 30
0.0
 11
189.836624
 21
472.198361
 31
0.0
210
0.0
220
0.0
230
1.0
  0
LINE
  5
1DA
100
AcDbEntity
  8
0
 62
     7
100
AcDbLine
 10
189.836624
 20
587.198361
 30
0.0
 11
189.836624
 21
472.198361
 31
0.0
210
0.0
220
0.0
230
1.0
  0
LINE
  5
1DB
100
AcDbEntity
  8
0
 62
     7
 48
0.037499
100
AcDbLine
 10
187.336594
 20
473.948361
 30
0.0
 11
185.836624
 21
473.948361
 31
0.0
210
0.0
220
0.0
230
1.0
  0
LINE
  5
1DC
100
AcDbEntity
  8
0
 62
     7
 48
0.037499
100
AcDbLine
 10
187.336594
 20
475.948361
 30
0.0
 11
185.836624
 21
475.948361
 31
0.0
210
0.0
220
0.0
230
1.0
  0
LINE
  5
1DD
100
AcDbEntity
  8
0
 62
     7
 48
0.035355
100
AcDbLine
 10
185.836624
 20
475.948361
 30
0.0
 11
184.836624
 21
474.948361
 31
0.0
210
0.0
220
0.0
230
1.0
  0
LINE
  5
1DE
100
AcDbEntity
  8
0
 62
     7
 48
0.035355
100
AcDbLine
 10
185.836624
 20
473.948361
 30
0.0
 11
184.836624
 21
474.948361
 31
0.0
210
0.0
220
0.0
230
1.0
  0
LINE
  5
1DF
100
AcDbEntity
  8
0
 62
     7
 48
0.037499
100
AcDbLine
 10
187.336594
 20
585.448361
 30
0.0
 11
185.836624
 21
585.448361
 31
0.0
210
0.0
220
0.0
230
1.0
  0
LINE
  5
1E0
100
AcDbEntity
  8
0
 62
     7
 48
0.037499
100
AcDbLine
 10
187.336594
 20
583.448361
 30
0.0
 11
185.836624
 21
583.448361
 31
0.0
210
0.0
220
0.0
230
1.0
  0
LINE
  5
1E1
100
AcDbEntity
  8
0
 62
     7
 48
0.035355
100
AcDbLine
 10
185.836624
 20
583.448361
 30
0.0
 11
184.836624
 21
584.448361
 31
0.0
210
0.0
220
0.0
230
1.0
  0
LINE
  5
1E2
100
AcDbEntity
  8
0
 62
     7
 48
0.035355
100
AcDbLine
 10
185.836624
 20
585.448361
 30
0.0
 11
184.836624
 21
584.448361
 31
0.0
210
0.0
220
0.0
230
1.0
  0
LINE
  5
1E3
100
AcDbEntity
  8
0
 62
     7
 48
0.018159
100
AcDbLine
 10
203.336609
 20
534.448414
 30
0.0
 11
204.062981
 21
534.448414
 31
0.0
210
0.0
220
0.0
230
1.0
  0
LINE
  5
1E4
100
AcDbEntity
  8
0
 62
     7
 48
0.018159
100
AcDbLine
 10
203.336609
 20
522.448409
 30
0.0
 11
204.062981
 21
522.448409
 31
0.0
210
0.0
220
0.0
230
1.0
  0
LINE
  5
1E5
100
AcDbEntity
  8
0
 62
     7
 48
0.025024
100
AcDbLine
 10
204.062981
 20
522.448409
 30
0.0
 11
204.019325
 21
523.448409
 31
0.0
210
0.0
220
0.0
230
1.0
  0
LINE
  5
1E6
100
AcDbEntity
  8
0
 62
     7
 48
0.025024
100
AcDbLine
 10
204.019325
 20
533.448414
 30
0.0
 11
204.062981
 21
534.448414
 31
0.0
210
0.0
220
0.0
230
1.0
  0
LINE
  5
1E7
100
AcDbEntity
  8
0
 62
     7
 48
0.304425
100
AcDbLine
 10
204.062981
 20
534.448414
 30
0.0
 11
216.193627
 21
533.387117
 31
0.0
210
0.0
220
0.0
230
1.0
  0
LINE
  5
1E8
100
AcDbEntity
  8
0
 62
     7
 48
0.304425
100
AcDbLine
 10
204.062981
 20
522.448409
 30
0.0
 11
216.193627
 21
523.509706
 31
0.0
210
0.0
220
0.0
230
1.0
  0
ARC
  5
1E9
100
AcDbEntity
  8
0
 62
     7
100
AcDbCircle
 10
216.01931
 20
525.502095
 30
0.0
 40
2.0
210
0.0
220
0.0
230
1.0
100
AcDbArc
 50
275.0
 51
0.0
  0
LINE
  5
1EA
100
AcDbEntity
  8
0
 62
     7
 48
0.147316
100
AcDbLine
 10
218.01931
 20
531.394728
 30
0.0
 11
218.01931
 21
525.502095
 31
0.0
210
0.0
220
0.0
230
1.0
  0
ARC
  5
1EB
100
AcDbEntity
  8
0
 62
     7
100
AcDbCircle
 10
216.01931
 20
531.394728
 30
0.0
 40
2.0
210
0.0
220
0.0
230
1.0
100
AcDbArc
 50
0.00001
 51
84.99999
  0
LINE
  5
1EC
100
AcDbEntity
  8
0
 62
     7
 48
0.037501
100
AcDbLine
 10
198.336586
 20
565.74841
 30
0.0
 11
199.836624
 21
565.74841
 31
0.0
210
0.0
220
0.0
230
1.0
  0
LINE
  5
1ED
100
AcDbEntity
  8
0
 62
     7
 48
0.037501
100
AcDbLine
 10
198.336586
 20
491.148412
 30
0.0
 11
199.836624
 21
491.148412
 31
0.0
210
0.0
220
0.0
230
1.0
  0
ARC
  5
1EE
100
AcDbEntity
  8
0
 62
     7
100
AcDbCircle
 10
199.836624
 20
562.24841
 30
0.0
 40
3.5
210
0.0
220
0.0
230
1.0
100
AcDbArc
 50
0.000002
 51
90.000003
  0
LINE
  5
1EF
100
AcDbEntity
  8
0
 62
     7
 48
0.103443
100
AcDbLine
 10
203.336624
 20
558.110703
 30
0.0
 11
203.336624
 21
562.24841
 31
0.0
210
0.0
220
0.0
230
1.0
  0
LINE
  5
1F0
100
AcDbEntity
  8
0
 62
     7
100
AcDbLine
 10
203.336624
 20
534.448414
 30
0.0
 11
203.336624
 21
562.24841
 31
0.0
210
0.0
220
0.0
230
1.0
  0
LINE
  5
1F1
100
AcDbEntity
  8
0
 62
     7
100
AcDbLine
 10
203.336624
 20
498.78612
 30
0.0
 11
203.336624
 21
522.448409
 31
0.0
210
0.0
220
0.0
230
1.0
  0
ARC
  5
1F2
100
AcDbEntity
  8
0
 62
     7
100
AcDbCircle
 10
199.836624
 20
494.648412
 30
0.0
 40
3.5
210
0.0
220
0.0
230
1.0
100
AcDbArc
 50
270.000001
 51
0.00001
  0
LINE
  5
1F3
100
AcDbEntity
  8
0
 62
     7
 48
0.103443
100
AcDbLine
 10
203.336624
 20
494.648412
 30
0.0
 11
203.336624
 21
498.78612
 31
0.0
210
0.0
220
0.0
230
1.0
  0
LINE
  5
1F4
100
AcDbEntity
  8
0
 62
     7
100
AcDbLine
 10
203.336624
 20
494.648412
 30
0.0
 11
203.336624
 21
558.110703
 31
0.0
210
0.0
220
0.0
230
1.0
  0
LINE
  5
1F5
100
AcDbEntity
  8
0
 62
     7
 48
0.130022
100
AcDbLine
 10
194.336624
 20
473.497399
 30
0.0
 11
194.336624
 21
478.698285
 31
0.0
210
0.0
220
0.0
230
1.0
  0
LINE
  5
1F6
100
AcDbEntity
  8
0
 62
     7
 48
0.130026
100
AcDbLine
 10
194.336624
 20
580.698285
 30
0.0
 11
194.336624
 21
585.899323
 31
0.0
210
0.0
220
0.0
230
1.0
  0
LINE
  5
1F7
100
AcDbEntity
  8
0
 62
     7
100
AcDbLine
 10
194.336624
 20
473.497399
 30
0.0
 11
194.336624
 21
585.899323
 31
0.0
210
0.0
220
0.0
230
1.0
  0
LINE
  5
1F8
100
AcDbEntity
  8
0
 62
     7
100
AcDbLine
 10
187.336624
 20
472.198361
 30
0.0
 11
187.336624
 21
587.198361
 31
0.0
210
0.0
220
0.0
230
1.0
  0
LINE
  5
1F9
100
AcDbEntity
  8
0
 62
     7
 48
0.1
100
AcDbLine
 10
183.336624
 20
580.598363
 30
0.0
 11
187.336624
 21
580.598363
 31
0.0
210
0.0
220
0.0
230
1.0
  0
LINE
  5
1FA
100
AcDbEntity
  8
0
 62
     7
 48
0.1
100
AcDbLine
 10
183.336624
 20
478.79836
 30
0.0
 11
187.336624
 21
478.79836
 31
0.0
210
0.0
220
0.0
230
1.0
  0
LINE
  5
1FB
100
AcDbEntity
  8
0
 62
     7
 48
0.0025
100
AcDbLine
 10
186.836624
 20
478.79836
 30
0.0
 11
186.836624
 21
478.69835
 31
0.0
210
0.0
220
0.0
230
1.0
  0
LINE
  5
1FC
100
AcDbEntity
  8
0
 62
     7
 48
0.0625
100
AcDbLine
 10
189.836624
 20
472.198361
 30
0.0
 11
187.336624
 21
472.198361
 31
0.0
210
0.0
220
0.0
230
1.0
  0
LINE
  5
1FD
100
AcDbEntity
  8
0
 62
     7
 48
0.0625
100
AcDbLine
 10
189.836624
 20
587.198361
 30
0.0
 11
187.336624
 21
587.198361
 31
0.0
210
0.0
220
0.0
230
1.0
  0
LINE
  5
1FE
100
AcDbEntity
  8
0
 62
     7
100
AcDbLine
 10
189.836624
 20
472.198361
 30
0.0
 11
189.836624
 21
587.198361
 31
0.0
210
0.0
220
0.0
230
1.0
  0
LINE
  5
1FF
100
AcDbEntity
  8
0
 62
     7
100
AcDbLine
 10
183.336624
 20
478.79836
 30
0.0
 11
183.336624
 21
580.598363
 31
0.0
210
0.0
220
0.0
230
1.0
  0
POINT
  5
200
100
AcDbEntity
  8
0
 62
     7
100
AcDbPoint
 10
-74.77737
 20
625.233792
 30
0.0
210
0.0
220
0.0
230
1.0
  0
POINT
  5
201
100
AcDbEntity
  8
0
 62
     7
100
AcDbPoint
 10
-74.77737
 20
522.698361
 30
0.0
210
0.0
220
0.0
230
1.0
  0
LINE
  5
202
100
AcDbEntity
  8
0
 62
     7
 48
0.006287
100
AcDbLine
 10
-25.52737
 20
474.56428
 30
0.0
 11
-25.27737
 21
474.53712
 31
0.0
210
0.0
220
0.0
230
1.0
  0
LINE
  5
203
100
AcDbEntity
  8
0
 62
     7
100
AcDbLine
 10
-7.92737
 20
477.898362
 30
0.0
 11
-7.92737
 21
590.948361
 31
0.0
210
0.0
220
0.0
230
1.0
  0
LINE
  5
204
100
AcDbEntity
  8
0
 62
     7
100
AcDbLine
 10
-141.627369
 20
477.898362
 30
0.0
 11
-141.627369
 21
599.998364
 31
0.0
210
0.0
220
0.0
230
1.0
  0
LINE
  5
205
100
AcDbEntity
  8
0
 62
     7
 48
0.0125
100
AcDbLine
 10
-8.42737
 20
477.898362
 30
0.0
 11
-7.92737
 21
477.898362
 31
0.0
210
0.0
220
0.0
230
1.0
  0
LINE
  5
206
100
AcDbEntity
  8
0
 62
     7
 48
0.0125
100
AcDbLine
 10
-134.427372
 20
477.898362
 30
0.0
 11
-133.927372
 21
477.898362
 31
0.0
210
0.0
220
0.0
230
1.0
  0
LINE
  5
207
100
AcDbEntity
  8
0
 62
     7
 48
0.00875
100
AcDbLine
 10
-132.627369
 20
477.898362
 30
0.0
 11
-132.27737
 21
477.898362
 31
0.0
210
0.0
220
0.0
230
1.0
  0
LINE
  5
208
100
AcDbEntity
  8
0
 62
     7
 48
0.0125
100
AcDbLine
 10
-138.02737
 20
477.898362
 30
0.0
 11
-137.52737
 21
477.898362
 31
0.0
210
0.0
220
0.0
230
1.0
  0
LINE
  5
209
100
AcDbEntity
  8
0
 62
     7
 48
0.0125
100
AcDbLine
 10
-136.227367
 20
477.898362
 30
0.0
 11
-135.727367
 21
477.898362
 31
0.0
210
0.0
220
0.0
230
1.0
  0
LINE
  5
20A
100
AcDbEntity
  8
0
 62
     7
 48
0.0125
100
AcDbLine
 10
-141.627369
 20
477.898362
 30
0.0
 11
-141.127369
 21
477.898362
 31
0.0
210
0.0
220
0.0
230
1.0
  0
LINE
  5
20B
100
AcDbEntity
  8
0
 62
     7
 48
0.0125
100
AcDbLine
 10
-139.827374
 20
477.898362
 30
0.0
 11
-139.327374
 21
477.898362
 31
0.0
210
0.0
220
0.0
230
1.0
  0
LINE
  5
20C
100
AcDbEntity
  8
0
 62
     7
 48
0.0125
100
AcDbLine
 10
-12.02737
 20
477.898362
 30
0.0
 11
-11.52737
 21
477.898362
 31
0.0
210
0.0
220
0.0
230
1.0
  0
LINE
  5
20D
100
AcDbEntity
  8
0
 62
     7
 48
0.0125
100
AcDbLine
 10
-10.22737
 20
477.898362
 30
0.0
 11
-9.72737
 21
477.898362
 31
0.0
210
0.0
220
0.0
230
1.0
  0
LINE
  5
20E
100
AcDbEntity
  8
0
 62
     7
 48
0.0125
100
AcDbLine
 10
-15.62737
 20
477.898362
 30
0.0
 11
-15.12737
 21
477.898362
 31
0.0
210
0.0
220
0.0
230
1.0
  0
LINE
  5
20F
100
AcDbEntity
  8
0
 62
     7
 48
0.0125
100
AcDbLine
 10
-13.827371
 20
477.898362
 30
0.0
 11
-13.327371
 21
477.898362
 31
0.0
210
0.0
220
0.0
230
1.0
  0
LINE
  5
210
100
AcDbEntity
  8
0
 62
     7
 48
0.00875
100
AcDbLine
 10
-17.27737
 20
477.898362
 30
0.0
 11
-16.927371
 21
477.898362
 31
0.0
210
0.0
220
0.0
230
1.0
  0
LINE
  5
211
100
AcDbEntity
  8
0
 62
     7
 48
0.0725
100
AcDbLine
 10
-7.92737
 20
477.898362
 30
0.0
 11
-5.02737
 21
477.898362
 31
0.0
210
0.0
220
0.0
230
1.0
  0
LINE
  5
212
100
AcDbEntity
  8
0
 62
     7
 48
0.0725
100
AcDbLine
 10
-144.52737
 20
477.898362
 30
0.0
 11
-141.627369
 21
477.898362
 31
0.0
210
0.0
220
0.0
230
1.0
  0
LINE
  5
213
100
AcDbEntity
  8
0
 62
     7
100
AcDbLine
 10
-144.52737
 20
477.898362
 30
0.0
 11
-144.52737
 21
599.998364
 31
0.0
210
0.0
220
0.0
230
1.0
  0
LINE
  5
214
100
AcDbEntity
  8
0
 62
     7
100
AcDbLine
 10
-5.02737
 20
477.898362
 30
0.0
 11
-5.02737
 21
590.948361
 31
0.0
210
0.0
220
0.0
230
1.0
  0
LINE
  5
215
100
AcDbEntity
  8
0
 62
     7
100
AcDbLine
 10
-8.42737
 20
477.898362
 30
0.0
 11
-8.42737
 21
590.948361
 31
0.0
210
0.0
220
0.0
230
1.0
  0
LINE
  5
216
100
AcDbEntity
  8
0
 62
     7
 48
0.32
100
AcDbLine
 10
-130.327374
 20
587.198361
 30
0.0
 11
-130.327374
 21
599.998364
 31
0.0
210
0.0
220
0.0
230
1.0
  0
LINE
  5
217
100
AcDbEntity
  8
0
 62
     7
 48
0.32
100
AcDbLine
 10
-130.827374
 20
587.198361
 30
0.0
 11
-130.827374
 21
599.998364
 31
0.0
210
0.0
220
0.0
230
1.0
  0
LINE
  5
218
100
AcDbEntity
  8
0
 62
     7
 48
0.32
100
AcDbLine
 10
-128.52737
 20
587.198361
 30
0.0
 11
-128.52737
 21
599.998364
 31
0.0
210
0.0
220
0.0
230
1.0
  0
LINE
  5
219
100
AcDbEntity
  8
0
 62
     7
 48
0.32
100
AcDbLine
 10
-129.02737
 20
587.198361
 30
0.0
 11
-129.02737
 21
599.998364
 31
0.0
210
0.0
220
0.0
230
1.0
  0
LINE
  5
21A
100
AcDbEntity
  8
0
 62
     7
100
AcDbLine
 10
-133.927372
 20
477.898362
 30
0.0
 11
-133.927372
 21
599.998364
 31
0.0
210
0.0
220
0.0
230
1.0
  0
LINE
  5
21B
100
AcDbEntity
  8
0
 62
     7
100
AcDbLine
 10
-134.427372
 20
477.898362
 30
0.0
 11
-134.427372
 21
599.998364
 31
0.0
210
0.0
220
0.0
230
1.0
  0
LINE
  5
21C
100
AcDbEntity
  8
0
 62
     7
 48
0.32
100
AcDbLine
 10
-132.127369
 20
587.198361
 30
0.0
 11
-132.127369
 21
599.998364
 31
0.0
210
0.0
220
0.0
230
1.0
  0
LINE
  5
21D
100
AcDbEntity
  8
0
 62
     7
100
AcDbLine
 10
-132.627369
 20
477.898362
 30
0.0
 11
-132.627369
 21
599.998364
 31
0.0
210
0.0
220
0.0
230
1.0
  0
LINE
  5
21E
100
AcDbEntity
  8
0
 62
     7
100
AcDbLine
 10
-137.52737
 20
477.898362
 30
0.0
 11
-137.52737
 21
599.998364
 31
0.0
210
0.0
220
0.0
230
1.0
  0
LINE
  5
21F
100
AcDbEntity
  8
0
 62
     7
100
AcDbLine
 10
-138.02737
 20
477.898362
 30
0.0
 11
-138.02737
 21
599.998364
 31
0.0
210
0.0
220
0.0
230
1.0
  0
LINE
  5
220
100
AcDbEntity
  8
0
 62
     7
100
AcDbLine
 10
-135.727367
 20
477.898362
 30
0.0
 11
-135.727367
 21
599.998364
 31
0.0
210
0.0
220
0.0
230
1.0
  0
LINE
  5
221
100
AcDbEntity
  8
0
 62
     7
100
AcDbLine
 10
-136.227367
 20
477.898362
 30
0.0
 11
-136.227367
 21
599.998364
 31
0.0
210
0.0
220
0.0
230
1.0
  0
LINE
  5
222
100
AcDbEntity
  8
0
 62
     7
100
AcDbLine
 10
-141.127369
 20
477.898362
 30
0.0
 11
-141.127369
 21
599.998364
 31
0.0
210
0.0
220
0.0
230
1.0
  0
LINE
  5
223
100
AcDbEntity
  8
0
 62
     7
100
AcDbLine
 10
-139.327374
 20
477.898362
 30
0.0
 11
-139.327374
 21
599.998364
 31
0.0
210
0.0
220
0.0
230
1.0
  0
LINE
  5
224
100
AcDbEntity
  8
0
 62
     7
100
AcDbLine
 10
-139.827374
 20
477.898362
 30
0.0
 11
-139.827374
 21
599.998364
 31
0.0
210
0.0
220
0.0
230
1.0
  0
LINE
  5
225
100
AcDbEntity
  8
0
 62
     7
100
AcDbLine
 10
-12.02737
 20
477.898362
 30
0.0
 11
-12.02737
 21
590.948361
 31
0.0
210
0.0
220
0.0
230
1.0
  0
LINE
  5
226
100
AcDbEntity
  8
0
 62
     7
100
AcDbLine
 10
-11.52737
 20
477.898362
 30
0.0
 11
-11.52737
 21
590.948361
 31
0.0
210
0.0
220
0.0
230
1.0
  0
LINE
  5
227
100
AcDbEntity
  8
0
 62
     7
100
AcDbLine
 10
-10.22737
 20
477.898362
 30
0.0
 11
-10.22737
 21
590.948361
 31
0.0
210
0.0
220
0.0
230
1.0
  0
LINE
  5
228
100
AcDbEntity
  8
0
 62
     7
100
AcDbLine
 10
-9.72737
 20
477.898362
 30
0.0
 11
-9.72737
 21
590.948361
 31
0.0
210
0.0
220
0.0
230
1.0
  0
LINE
  5
229
100
AcDbEntity
  8
0
 62
     7
100
AcDbLine
 10
-15.62737
 20
477.898362
 30
0.0
 11
-15.62737
 21
590.948361
 31
0.0
210
0.0
220
0.0
230
1.0
  0
LINE
  5
22A
100
AcDbEntity
  8
0
 62
     7
100
AcDbLine
 10
-15.12737
 20
477.898362
 30
0.0
 11
-15.12737
 21
590.948361
 31
0.0
210
0.0
220
0.0
230
1.0
  0
LINE
  5
22B
100
AcDbEntity
  8
0
 62
     7
100
AcDbLine
 10
-13.827371
 20
477.898362
 30
0.0
 11
-13.827371
 21
590.948361
 31
0.0
210
0.0
220
0.0
230
1.0
  0
LINE
  5
22C
100
AcDbEntity
  8
0
 62
     7
100
AcDbLine
 10
-13.327371
 20
477.898362
 30
0.0
 11
-13.327371
 21
590.948361
 31
0.0
210
0.0
220
0.0
230
1.0
  0
LINE
  5
22D
100
AcDbEntity
  8
0
 62
     7
100
AcDbLine
 10
-16.927371
 20
477.898362
 30
0.0
 11
-16.927371
 21
590.948361
 31
0.0
210
0.0
220
0.0
230
1.0
  0
LINE
  5
22E
100
AcDbEntity
  8
0
 62
     7
 48
0.0325
100
AcDbLine
 10
-9.72737
 20
477.898362
 30
0.0
 11
-8.42737
 21
477.898362
 31
0.0
210
0.0
220
0.0
230
1.0
  0
LINE
  5
22F
100
AcDbEntity
  8
0
 62
     7
 48
0.0325
100
AcDbLine
 10
-11.52737
 20
477.898362
 30
0.0
 11
-10.22737
 21
477.898362
 31
0.0
210
0.0
220
0.0
230
1.0
  0
LINE
  5
230
100
AcDbEntity
  8
0
 62
     7
 48
0.0325
100
AcDbLine
 10
-13.327371
 20
477.898362
 30
0.0
 11
-12.02737
 21
477.898362
 31
0.0
210
0.0
220
0.0
230
1.0
  0
LINE
  5
231
100
AcDbEntity
  8
0
 62
     7
 48
0.0325
100
AcDbLine
 10
-141.127369
 20
477.898362
 30
0.0
 11
-139.827374
 21
477.898362
 31
0.0
210
0.0
220
0.0
230
1.0
  0
LINE
  5
232
100
AcDbEntity
  8
0
 62
     7
 48
0.0325
100
AcDbLine
 10
-139.327374
 20
477.898362
 30
0.0
 11
-138.02737
 21
477.898362
 31
0.0
210
0.0
220
0.0
230
1.0
  0
LINE
  5
233
100
AcDbEntity
  8
0
 62
     7
 48
0.0325
100
AcDbLine
 10
-137.52737
 20
477.898362
 30
0.0
 11
-136.227367
 21
477.898362
 31
0.0
210
0.0
220
0.0
230
1.0
  0
LINE
  5
234
100
AcDbEntity
  8
0
 62
     7
 48
0.0325
100
AcDbLine
 10
-135.727367
 20
477.898362
 30
0.0
 11
-134.427372
 21
477.898362
 31
0.0
210
0.0
220
0.0
230
1.0
  0
LINE
  5
235
100
AcDbEntity
  8
0
 62
     7
 48
0.0325
100
AcDbLine
 10
-16.927371
 20
477.898362
 30
0.0
 11
-15.62737
 21
477.898362
 31
0.0
210
0.0
220
0.0
230
1.0
  0
LINE
  5
236
100
AcDbEntity
  8
0
 62
     7
 48
0.0325
100
AcDbLine
 10
-15.12737
 20
477.898362
 30
0.0
 11
-13.827371
 21
477.898362
 31
0.0
210
0.0
220
0.0
230
1.0
  0
LINE
  5
237
100
AcDbEntity
  8
0
 62
     7
 48
0.0325
100
AcDbLine
 10
-133.927372
 20
477.898362
 30
0.0
 11
-132.627369
 21
477.898362
 31
0.0
210
0.0
220
0.0
230
1.0
  0
LINE
  5
238
100
AcDbEntity
  8
0
 62
     7
 48
0.0025
100
AcDbLine
 10
-37.27737
 20
478.698361
 30
0.0
 11
-37.27737
 21
478.79836
 31
0.0
210
0.0
220
0.0
230
1.0
  0
LINE
  5
239
100
AcDbEntity
  8
0
 62
     7
 48
0.0025
100
AcDbLine
 10
-104.27737
 20
478.698361
 30
0.0
 11
-104.27737
 21
478.79836
 31
0.0
210
0.0
220
0.0
230
1.0
  0
LINE
  5
23A
100
AcDbEntity
  8
0
 62
     7
 48
0.0025
100
AcDbLine
 10
-112.27737
 20
478.698361
 30
0.0
 11
-112.27737
 21
478.79836
 31
0.0
210
0.0
220
0.0
230
1.0
  0
LINE
  5
23B
100
AcDbEntity
  8
0
 62
     7
 48
0.0025
100
AcDbLine
 10
-45.27737
 20
478.698361
 30
0.0
 11
-45.27737
 21
478.79836
 31
0.0
210
0.0
220
0.0
230
1.0
  0
LINE
  5
23C
100
AcDbEntity
  8
0
 62
     7
 48
0.0025
100
AcDbLine
 10
-104.27737
 20
580.598355
 30
0.0
 11
-104.27737
 21
580.698361
 31
0.0
210
0.0
220
0.0
230
1.0
  0
LINE
  5
23D
100
AcDbEntity
  8
0
 62
     7
 48
0.0025
100
AcDbLine
 10
-37.27737
 20
580.598355
 30
0.0
 11
-37.27737
 21
580.698361
 31
0.0
210
0.0
220
0.0
230
1.0
  0
LINE
  5
23E
100
AcDbEntity
  8
0
 62
     7
 48
0.0025
100
AcDbLine
 10
-123.52737
 20
580.598355
 30
0.0
 11
-123.52737
 21
580.698361
 31
0.0
210
0.0
220
0.0
230
1.0
  0
LINE
  5
23F
100
AcDbEntity
  8
0
 62
     7
 48
0.0125
100
AcDbLine
 10
-130.827374
 20
599.998364
 30
0.0
 11
-130.327374
 21
599.998364
 31
0.0
210
0.0
220
0.0
230
1.0
  0
LINE
  5
240
100
AcDbEntity
  8
0
 62
     7
 48
0.0125
100
AcDbLine
 10
-129.02737
 20
599.998364
 30
0.0
 11
-128.52737
 21
599.998364
 31
0.0
210
0.0
220
0.0
230
1.0
  0
LINE
  5
241
100
AcDbEntity
  8
0
 62
     7
 48
0.0125
100
AcDbLine
 10
-134.427372
 20
599.998364
 30
0.0
 11
-133.927372
 21
599.998364
 31
0.0
210
0.0
220
0.0
230
1.0
  0
LINE
  5
242
100
AcDbEntity
  8
0
 62
     7
 48
0.0125
100
AcDbLine
 10
-132.627369
 20
599.998364
 30
0.0
 11
-132.127369
 21
599.998364
 31
0.0
210
0.0
220
0.0
230
1.0
  0
LINE
  5
243
100
AcDbEntity
  8
0
 62
     7
 48
0.0125
100
AcDbLine
 10
-138.02737
 20
599.998364
 30
0.0
 11
-137.52737
 21
599.998364
 31
0.0
210
0.0
220
0.0
230
1.0
  0
LINE
  5
244
100
AcDbEntity
  8
0
 62
     7
 48
0.0125
100
AcDbLine
 10
-136.227367
 20
599.998364
 30
0.0
 11
-135.727367
 21
599.998364
 31
0.0
210
0.0
220
0.0
230
1.0
  0
LINE
  5
245
100
AcDbEntity
  8
0
 62
     7
 48
0.0125
100
AcDbLine
 10
-141.627369
 20
599.998364
 30
0.0
 11
-141.127369
 21
599.998364
 31
0.0
210
0.0
220
0.0
230
1.0
  0
LINE
  5
246
100
AcDbEntity
  8
0
 62
     7
 48
0.0125
100
AcDbLine
 10
-139.827374
 20
599.998364
 30
0.0
 11
-139.327374
 21
599.998364
 31
0.0
210
0.0
220
0.0
230
1.0
  0
LINE
  5
247
100
AcDbEntity
  8
0
 62
     7
 48
0.0725
100
AcDbLine
 10
-144.52737
 20
599.998364
 30
0.0
 11
-141.627369
 21
599.998364
 31
0.0
210
0.0
220
0.0
230
1.0
  0
LINE
  5
248
100
AcDbEntity
  8
0
 62
     7
 48
0.0325
100
AcDbLine
 10
-130.327374
 20
599.998364
 30
0.0
 11
-129.02737
 21
599.998364
 31
0.0
210
0.0
220
0.0
230
1.0
  0
LINE
  5
249
100
AcDbEntity
  8
0
 62
     7
 48
0.0325
100
AcDbLine
 10
-137.52737
 20
599.998364
 30
0.0
 11
-136.227367
 21
599.998364
 31
0.0
210
0.0
220
0.0
230
1.0
  0
LINE
  5
24A
100
AcDbEntity
  8
0
 62
     7
 48
0.0325
100
AcDbLine
 10
-135.727367
 20
599.998364
 30
0.0
 11
-134.427372
 21
599.998364
 31
0.0
210
0.0
220
0.0
230
1.0
  0
LINE
  5
24B
100
AcDbEntity
  8
0
 62
     7
 48
0.0325
100
AcDbLine
 10
-133.927372
 20
599.998364
 30
0.0
 11
-132.627369
 21
599.998364
 31
0.0
210
0.0
220
0.0
230
1.0
  0
LINE
  5
24C
100
AcDbEntity
  8
0
 62
     7
100
AcDbLine
 10
-128.52737
 20
599.998364
 30
0.0
 11
-51.52737
 21
599.998364
 31
0.0
210
0.0
220
0.0
230
1.0
  0
LINE
  5
24D
100
AcDbEntity
  8
0
 62
     7
 48
0.0325
100
AcDbLine
 10
-139.327374
 20
599.998364
 30
0.0
 11
-138.02737
 21
599.998364
 31
0.0
210
0.0
220
0.0
230
1.0
  0
LINE
  5
24E
100
AcDbEntity
  8
0
 62
     7
 48
0.0325
100
AcDbLine
 10
-132.127369
 20
599.998364
 30
0.0
 11
-130.827374
 21
599.998364
 31
0.0
210
0.0
220
0.0
230
1.0
  0
LINE
  5
24F
100
AcDbEntity
  8
0
 62
     7
 48
0.0325
100
AcDbLine
 10
-141.127369
 20
599.998364
 30
0.0
 11
-139.827374
 21
599.998364
 31
0.0
210
0.0
220
0.0
230
1.0
  0
LINE
  5
250
100
AcDbEntity
  8
0
 62
     7
100
AcDbLine
 10
-141.52737
 20
600.698361
 30
0.0
 11
-51.52737
 21
600.698361
 31
0.0
210
0.0
220
0.0
230
1.0
  0
LINE
  5
251
100
AcDbEntity
  8
0
 62
     7
100
AcDbLine
 10
-142.02737
 20
618.948361
 30
0.0
 11
-51.52737
 21
618.948361
 31
0.0
210
0.0
220
0.0
230
1.0
  0
LINE
  5
252
100
AcDbEntity
  8
0
 62
     7
 48
0.0575
100
AcDbLine
 10
-143.827374
 20
600.698361
 30
0.0
 11
-141.52737
 21
600.698361
 31
0.0
210
0.0
220
0.0
230
1.0
  0
LINE
  5
253
100
AcDbEntity
  8
0
 62
     7
 48
0.0025
100
AcDbLine
 10
-45.27737
 20
580.598355
 30
0.0
 11
-45.27737
 21
580.698361
 31
0.0
210
0.0
220
0.0
230
1.0
  0
LINE
  5
254
100
AcDbEntity
  8
0
 62
     7
 48
0.0025
100
AcDbLine
 10
-126.02737
 20
580.598355
 30
0.0
 11
-126.02737
 21
580.698361
 31
0.0
210
0.0
220
0.0
230
1.0
  0
LINE
  5
255
100
AcDbEntity
  8
0
 62
     7
 48
0.025
100
AcDbLine
 10
-143.02737
 20
618.948361
 30
0.0
 11
-142.02737
 21
618.948361
 31
0.0
210
0.0
220
0.0
230
1.0
  0
CIRCLE
  5
256
100
AcDbEntity
  8
0
 62
     7
100
AcDbCircle
 10
-137.02737
 20
607.448361
 30
0.0
 40
3.1
210
0.0
220
0.0
230
1.0
  0
LINE
  5
257
100
AcDbEntity
  8
0
 62
     7
 48
0.0175
100
AcDbLine
 10
-143.827374
 20
477.198361
 30
0.0
 11
-143.827374
 21
477.898362
 31
0.0
210
0.0
220
0.0
230
1.0
  0
LINE
  5
258
100
AcDbEntity
  8
0
 62
     7
 48
0.0175
100
AcDbLine
 10
-143.827374
 20
599.998364
 30
0.0
 11
-143.827374
 21
600.698361
 31
0.0
210
0.0
220
0.0
230
1.0
  0
LINE
  5
259
100
AcDbEntity
  8
0
 62
     7
 48
0.0175
100
AcDbLine
 10
-5.72737
 20
477.198361
 30
0.0
 11
-5.72737
 21
477.898362
 31
0.0
210
0.0
220
0.0
230
1.0
  0
LINE
  5
25A
100
AcDbEntity
  8
0
 62
     7
 48
0.45625
100
AcDbLine
 10
-143.02737
 20
600.698361
 30
0.0
 11
-143.02737
 21
618.948361
 31
0.0
210
0.0
220
0.0
230
1.0
  0
CIRCLE
  5
25B
100
AcDbEntity
  8
0
 62
     7
100
AcDbCircle
 10
-137.02737
 20
607.448361
 30
0.0
 40
1.6
210
0.0
220
0.0
230
1.0
  0
CIRCLE
  5
25C
100
AcDbEntity
  8
0
 62
     7
100
AcDbCircle
 10
-121.27737
 20
609.198361
 30
0.0
 40
5.0
210
0.0
220
0.0
230
1.0
  0
CIRCLE
  5
25D
100
AcDbEntity
  8
0
 62
     7
100
AcDbCircle
 10
-74.77737
 20
609.198361
 30
0.0
 40
5.0
210
0.0
220
0.0
230
1.0
  0
LINE
  5
25E
100
AcDbEntity
  8
0
 62
     7
 48
0.054865
100
AcDbLine
 10
-53.642712
 20
614.363858
 30
0.0
 11
-51.52737
 21
614.948361
 31
0.0
210
0.0
220
0.0
230
1.0
  0
LINE
  5
25F
100
AcDbEntity
  8
0
 62
     7
 48
0.054806
100
AcDbLine
 10
-55.188324
 20
608.583371
 30
0.0
 11
-53.649315
 21
607.022168
 31
0.0
210
0.0
220
0.0
230
1.0
  0
ARC
  5
260
100
AcDbEntity
  8
0
 62
     7
100
AcDbCircle
 10
-51.52737
 20
610.698361
 30
0.0
 40
4.25
210
0.0
220
0.0
230
1.0
100
AcDbArc
 50
119.989102
 51
210.015751
  0
ARC
  5
261
100
AcDbEntity
  8
0
 62
     7
100
AcDbCircle
 10
-51.527399
 20
610.698361
 30
0.0
 40
4.249999
210
0.0
220
0.0
230
1.0
100
AcDbArc
 50
240.006263
 51
270.000383
  0
LINE
  5
262
100
AcDbEntity
  8
0
 62
     7
 48
0.054865
100
AcDbLine
 10
-98.02737
 20
606.448361
 30
0.0
 11
-95.912029
 21
607.032865
 31
0.0
210
0.0
220
0.0
230
1.0
  0
LINE
  5
263
100
AcDbEntity
  8
0
 62
     7
 48
0.054806
100
AcDbLine
 10
-95.90543
 20
614.374555
 30
0.0
 11
-94.366421
 21
612.813352
 31
0.0
210
0.0
220
0.0
230
1.0
  0
LINE
  5
264
100
AcDbEntity
  8
0
 62
     7
 48
0.054806
100
AcDbLine
 10
-101.68832
 20
608.583371
 30
0.0
 11
-100.149311
 21
607.022168
 31
0.0
210
0.0
220
0.0
230
1.0
  0
LINE
  5
265
100
AcDbEntity
  8
0
 62
     7
 48
0.054865
100
AcDbLine
 10
-100.142712
 20
614.363858
 30
0.0
 11
-98.02737
 21
614.948361
 31
0.0
210
0.0
220
0.0
230
1.0
  0
ARC
  5
266
100
AcDbEntity
  8
0
 62
     7
100
AcDbCircle
 10
-98.02737
 20
610.698361
 30
0.0
 40
4.25
210
0.0
220
0.0
230
1.0
100
AcDbArc
 50
119.989102
 51
210.015751
  0
ARC
  5
267
100
AcDbEntity
  8
0
 62
     7
100
AcDbCircle
 10
-98.02737
 20
610.698361
 30
0.0
 40
4.25
210
0.0
220
0.0
230
1.0
100
AcDbArc
 50
299.989093
 51
30.015743
  0
ARC
  5
268
100
AcDbEntity
  8
0
 62
     7
100
AcDbCircle
 10
-98.02734
 20
610.698361
 30
0.0
 40
4.249999
210
0.0
220
0.0
230
1.0
100
AcDbArc
 50
60.006265
 51
90.000378
  0
ARC
  5
269
100
AcDbEntity
  8
0
 62
     7
100
AcDbCircle
 10
-98.027401
 20
610.698361
 30
0.0
 40
4.249999
210
0.0
220
0.0
230
1.0
100
AcDbArc
 50
240.006263
 51
270.000383
  0
LINE
  5
26A
100
AcDbEntity
  8
0
 62
     7
100
AcDbLine
 10
-7.92737
 20
445.398361
 30
0.0
 11
-7.92737
 21
477.198361
 31
0.0
210
0.0
220
0.0
230
1.0
  0
LINE
  5
26B
100
AcDbEntity
  8
0
 62
     7
100
AcDbLine
 10
-141.627369
 20
445.398361
 30
0.0
 11
-141.627369
 21
477.198361
 31
0.0
210
0.0
220
0.0
230
1.0
  0
CIRCLE
  5
26C
100
AcDbEntity
  8
0
 62
     7
100
AcDbCircle
 10
-137.02737
 20
437.948361
 30
0.0
 40
1.9
210
0.0
220
0.0
230
1.0
  0
CIRCLE
  5
26D
100
AcDbEntity
  8
0
 62
     7
100
AcDbCircle
 10
-12.52737
 20
437.948361
 30
0.0
 40
1.9
210
0.0
220
0.0
230
1.0
  0
LINE
  5
26E
100
AcDbEntity
  8
0
 62
     7
 48
0.0125
100
AcDbLine
 10
-76.27737
 20
448.448361
 30
0.0
 11
-76.27737
 21
448.948361
 31
0.0
210
0.0
220
0.0
230
1.0
  0
LINE
  5
26F
100
AcDbEntity
  8
0
 62
     7
 48
0.0125
100
AcDbLine
 10
-76.27737
 20
450.448361
 30
0.0
 11
-76.27737
 21
450.948361
 31
0.0
210
0.0
220
0.0
230
1.0
  0
LINE
  5
270
100
AcDbEntity
  8
0
 62
     7
 48
0.00625
100
AcDbLine
 10
-76.27737
 20
450.948361
 30
0.0
 11
-76.27737
 21
451.198361
 31
0.0
210
0.0
220
0.0
230
1.0
  0
LINE
  5
271
100
AcDbEntity
  8
0
 62
     7
 48
0.00625
100
AcDbLine
 10
-76.27737
 20
448.198361
 30
0.0
 11
-76.27737
 21
448.448361
 31
0.0
210
0.0
220
0.0
230
1.0
  0
LINE
  5
272
100
AcDbEntity
  8
0
 62
     7
 48
0.0125
100
AcDbLine
 10
-73.27737
 20
448.448361
 30
0.0
 11
-73.27737
 21
448.948361
 31
0.0
210
0.0
220
0.0
230
1.0
  0
LINE
  5
273
100
AcDbEntity
  8
0
 62
     7
 48
0.0125
100
AcDbLine
 10
-73.27737
 20
450.448361
 30
0.0
 11
-73.27737
 21
450.948361
 31
0.0
210
0.0
220
0.0
230
1.0
  0
LINE
  5
274
100
AcDbEntity
  8
0
 62
     7
 48
0.00625
100
AcDbLine
 10
-73.27737
 20
450.948361
 30
0.0
 11
-73.27737
 21
451.198361
 31
0.0
210
0.0
220
0.0
230
1.0
  0
LINE
  5
275
100
AcDbEntity
  8
0
 62
     7
 48
0.00625
100
AcDbLine
 10
-73.27737
 20
448.198361
 30
0.0
 11
-73.27737
 21
448.448361
 31
0.0
210
0.0
220
0.0
230
1.0
  0
LINE
  5
276
100
AcDbEntity
  8
0
 62
     7
 48
0.0125
100
AcDbLine
 10
-141.627369
 20
477.198361
 30
0.0
 11
-141.127369
 21
477.198361
 31
0.0
210
0.0
220
0.0
230
1.0
  0
LINE
  5
277
100
AcDbEntity
  8
0
 62
     7
 48
0.0125
100
AcDbLine
 10
-8.42737
 20
477.198361
 30
0.0
 11
-7.92737
 21
477.198361
 31
0.0
210
0.0
220
0.0
230
1.0
  0
LINE
  5
278
100
AcDbEntity
  8
0
 62
     7
 48
0.0125
100
AcDbLine
 10
-10.22737
 20
477.198361
 30
0.0
 11
-9.72737
 21
477.198361
 31
0.0
210
0.0
220
0.0
230
1.0
  0
LINE
  5
279
100
AcDbEntity
  8
0
 62
     7
 48
0.0125
100
AcDbLine
 10
-12.02737
 20
477.198361
 30
0.0
 11
-11.52737
 21
477.198361
 31
0.0
210
0.0
220
0.0
230
1.0
  0
LINE
  5
27A
100
AcDbEntity
  8
0
 62
     7
 48
0.0125
100
AcDbLine
 10
-13.827371
 20
477.198361
 30
0.0
 11
-13.327371
 21
477.198361
 31
0.0
210
0.0
220
0.0
230
1.0
  0
LINE
  5
27B
100
AcDbEntity
  8
0
 62
     7
 48
0.0125
100
AcDbLine
 10
-15.62737
 20
477.198361
 30
0.0
 11
-15.12737
 21
477.198361
 31
0.0
210
0.0
220
0.0
230
1.0
  0
LINE
  5
27C
100
AcDbEntity
  8
0
 62
     7
 48
0.00875
100
AcDbLine
 10
-17.27737
 20
477.198361
 30
0.0
 11
-16.927371
 21
477.198361
 31
0.0
210
0.0
220
0.0
230
1.0
  0
LINE
  5
27D
100
AcDbEntity
  8
0
 62
     7
 48
0.0125
100
AcDbLine
 10
-139.827374
 20
477.198361
 30
0.0
 11
-139.327374
 21
477.198361
 31
0.0
210
0.0
220
0.0
230
1.0
  0
LINE
  5
27E
100
AcDbEntity
  8
0
 62
     7
 48
0.0125
100
AcDbLine
 10
-138.02737
 20
477.198361
 30
0.0
 11
-137.52737
 21
477.198361
 31
0.0
210
0.0
220
0.0
230
1.0
  0
LINE
  5
27F
100
AcDbEntity
  8
0
 62
     7
 48
0.0125
100
AcDbLine
 10
-136.227367
 20
477.198361
 30
0.0
 11
-135.727367
 21
477.198361
 31
0.0
210
0.0
220
0.0
230
1.0
  0
LINE
  5
280
100
AcDbEntity
  8
0
 62
     7
 48
0.0125
100
AcDbLine
 10
-134.427372
 20
477.198361
 30
0.0
 11
-133.927372
 21
477.198361
 31
0.0
210
0.0
220
0.0
230
1.0
  0
LINE
  5
281
100
AcDbEntity
  8
0
 62
     7
 48
0.00875
100
AcDbLine
 10
-132.627369
 20
477.198361
 30
0.0
 11
-132.27737
 21
477.198361
 31
0.0
210
0.0
220
0.0
230
1.0
  0
LINE
  5
282
100
AcDbEntity
  8
0
 62
     7
 48
0.0725
100
AcDbLine
 10
-7.92737
 20
477.198365
 30
0.0
 11
-5.02737
 21
477.198365
 31
0.0
210
0.0
220
0.0
230
1.0
  0
LINE
  5
283
100
AcDbEntity
  8
0
 62
     7
 48
0.0725
100
AcDbLine
 10
-144.52737
 20
477.198365
 30
0.0
 11
-141.627369
 21
477.198365
 31
0.0
210
0.0
220
0.0
230
1.0
  0
LINE
  5
284
100
AcDbEntity
  8
0
 62
     7
100
AcDbLine
 10
-5.02737
 20
445.398361
 30
0.0
 11
-5.02737
 21
477.198361
 31
0.0
210
0.0
220
0.0
230
1.0
  0
LINE
  5
285
100
AcDbEntity
  8
0
 62
     7
100
AcDbLine
 10
-144.52737
 20
445.398361
 30
0.0
 11
-144.52737
 21
477.198361
 31
0.0
210
0.0
220
0.0
230
1.0
  0
LINE
  5
286
100
AcDbEntity
  8
0
 62
     7
 48
0.00625
100
AcDbLine
 10
-45.27737
 20
445.398361
 30
0.0
 11
-45.27737
 21
445.648361
 31
0.0
210
0.0
220
0.0
230
1.0
  0
LINE
  5
287
100
AcDbEntity
  8
0
 62
     7
 48
0.00625
100
AcDbLine
 10
-39.27737
 20
445.398361
 30
0.0
 11
-39.27737
 21
445.648361
 31
0.0
210
0.0
220
0.0
230
1.0
  0
LINE
  5
288
100
AcDbEntity
  8
0
 62
     7
 48
0.00625
100
AcDbLine
 10
-110.27737
 20
445.398361
 30
0.0
 11
-110.27737
 21
445.648361
 31
0.0
210
0.0
220
0.0
230
1.0
  0
LINE
  5
289
100
AcDbEntity
  8
0
 62
     7
 48
0.00625
100
AcDbLine
 10
-104.27737
 20
445.398361
 30
0.0
 11
-104.27737
 21
445.648361
 31
0.0
210
0.0
220
0.0
230
1.0
  0
LINE
  5
28A
100
AcDbEntity
  8
0
 62
     7
 48
0.0125
100
AcDbLine
 10
-76.77737
 20
448.948361
 30
0.0
 11
-76.27737
 21
448.948361
 31
0.0
210
0.0
220
0.0
230
1.0
  0
LINE
  5
28B
100
AcDbEntity
  8
0
 62
     7
 48
0.0125
100
AcDbLine
 10
-76.77737
 20
450.448361
 30
0.0
 11
-76.27737
 21
450.448361
 31
0.0
210
0.0
220
0.0
230
1.0
  0
LINE
  5
28C
100
AcDbEntity
  8
0
 62
     7
 48
0.0125
100
AcDbLine
 10
-73.27737
 20
450.448361
 30
0.0
 11
-72.77737
 21
450.448361
 31
0.0
210
0.0
220
0.0
230
1.0
  0
LINE
  5
28D
100
AcDbEntity
  8
0
 62
     7
 48
0.0125
100
AcDbLine
 10
-73.27737
 20
448.948361
 30
0.0
 11
-72.77737
 21
448.948361
 31
0.0
210
0.0
220
0.0
230
1.0
  0
LINE
  5
28E
100
AcDbEntity
  8
0
 62
     7
 48
0.075
100
AcDbLine
 10
-76.27737
 20
450.948361
 30
0.0
 11
-73.27737
 21
450.948361
 31
0.0
210
0.0
220
0.0
230
1.0
  0
LINE
  5
28F
100
AcDbEntity
  8
0
 62
     7
 48
0.0375
100
AcDbLine
 10
-76.27737
 20
448.948361
 30
0.0
 11
-76.27737
 21
450.448361
 31
0.0
210
0.0
220
0.0
230
1.0
  0
LINE
  5
290
100
AcDbEntity
  8
0
 62
     7
 48
0.0375
100
AcDbLine
 10
-73.27737
 20
448.948361
 30
0.0
 11
-73.27737
 21
450.448361
 31
0.0
210
0.0
220
0.0
230
1.0
  0
LINE
  5
291
100
AcDbEntity
  8
0
 62
     7
 48
0.075
100
AcDbLine
 10
-76.27737
 20
448.448361
 30
0.0
 11
-73.27737
 21
448.448361
 31
0.0
210
0.0
220
0.0
230
1.0
  0
LINE
  5
292
100
AcDbEntity
  8
0
 62
     7
 48
0.0575
100
AcDbLine
 10
-8.02737
 20
444.698361
 30
0.0
 11
-5.72737
 21
444.698361
 31
0.0
210
0.0
220
0.0
230
1.0
  0
LINE
  5
293
100
AcDbEntity
  8
0
 62
     7
 48
0.0575
100
AcDbLine
 10
-143.827374
 20
444.698361
 30
0.0
 11
-141.52737
 21
444.698361
 31
0.0
210
0.0
220
0.0
230
1.0
  0
CIRCLE
  5
294
100
AcDbEntity
  8
0
 62
     7
100
AcDbCircle
 10
-12.52737
 20
437.948361
 30
0.0
 40
3.1
210
0.0
220
0.0
230
1.0
  0
CIRCLE
  5
295
100
AcDbEntity
  8
0
 62
     7
100
AcDbCircle
 10
-137.02737
 20
437.948361
 30
0.0
 40
3.1
210
0.0
220
0.0
230
1.0
  0
LINE
  5
296
100
AcDbEntity
  8
0
 62
     7
 48
0.025
100
AcDbLine
 10
-143.02737
 20
426.448361
 30
0.0
 11
-142.02737
 21
426.448361
 31
0.0
210
0.0
220
0.0
230
1.0
  0
LINE
  5
297
100
AcDbEntity
  8
0
 62
     7
 48
0.025
100
AcDbLine
 10
-7.52737
 20
426.448361
 30
0.0
 11
-6.52737
 21
426.448361
 31
0.0
210
0.0
220
0.0
230
1.0
  0
LINE
  5
298
100
AcDbEntity
  8
0
 62
     7
100
AcDbLine
 10
-141.127369
 20
445.398361
 30
0.0
 11
-141.127369
 21
477.198361
 31
0.0
210
0.0
220
0.0
230
1.0
  0
LINE
  5
299
100
AcDbEntity
  8
0
 62
     7
100
AcDbLine
 10
-8.42737
 20
445.398361
 30
0.0
 11
-8.42737
 21
477.198361
 31
0.0
210
0.0
220
0.0
230
1.0
  0
LINE
  5
29A
100
AcDbEntity
  8
0
 62
     7
100
AcDbLine
 10
-10.22737
 20
445.398361
 30
0.0
 11
-10.22737
 21
477.198361
 31
0.0
210
0.0
220
0.0
230
1.0
  0
LINE
  5
29B
100
AcDbEntity
  8
0
 62
     7
100
AcDbLine
 10
-9.72737
 20
445.398361
 30
0.0
 11
-9.72737
 21
477.198361
 31
0.0
210
0.0
220
0.0
230
1.0
  0
LINE
  5
29C
100
AcDbEntity
  8
0
 62
     7
100
AcDbLine
 10
-12.02737
 20
445.398361
 30
0.0
 11
-12.02737
 21
477.198361
 31
0.0
210
0.0
220
0.0
230
1.0
  0
LINE
  5
29D
100
AcDbEntity
  8
0
 62
     7
100
AcDbLine
 10
-11.52737
 20
445.398361
 30
0.0
 11
-11.52737
 21
477.198361
 31
0.0
210
0.0
220
0.0
230
1.0
  0
LINE
  5
29E
100
AcDbEntity
  8
0
 62
     7
100
AcDbLine
 10
-13.827371
 20
445.398361
 30
0.0
 11
-13.827371
 21
477.198361
 31
0.0
210
0.0
220
0.0
230
1.0
  0
LINE
  5
29F
100
AcDbEntity
  8
0
 62
     7
100
AcDbLine
 10
-13.327371
 20
445.398361
 30
0.0
 11
-13.327371
 21
477.198361
 31
0.0
210
0.0
220
0.0
230
1.0
  0
LINE
  5
2A0
100
AcDbEntity
  8
0
 62
     7
100
AcDbLine
 10
-15.62737
 20
445.398361
 30
0.0
 11
-15.62737
 21
477.198361
 31
0.0
210
0.0
220
0.0
230
1.0
  0
LINE
  5
2A1
100
AcDbEntity
  8
0
 62
     7
100
AcDbLine
 10
-15.12737
 20
445.398361
 30
0.0
 11
-15.12737
 21
477.198361
 31
0.0
210
0.0
220
0.0
230
1.0
  0
LINE
  5
2A2
100
AcDbEntity
  8
0
 62
     7
100
AcDbLine
 10
-17.427371
 20
445.398361
 30
0.0
 11
-17.427371
 21
472.198361
 31
0.0
210
0.0
220
0.0
230
1.0
  0
LINE
  5
2A3
100
AcDbEntity
  8
0
 62
     7
100
AcDbLine
 10
-16.927371
 20
445.398361
 30
0.0
 11
-16.927371
 21
477.198361
 31
0.0
210
0.0
220
0.0
230
1.0
  0
LINE
  5
2A4
100
AcDbEntity
  8
0
 62
     7
100
AcDbLine
 10
-19.227371
 20
445.398361
 30
0.0
 11
-19.227371
 21
472.198361
 31
0.0
210
0.0
220
0.0
230
1.0
  0
LINE
  5
2A5
100
AcDbEntity
  8
0
 62
     7
100
AcDbLine
 10
-18.727371
 20
445.398361
 30
0.0
 11
-18.727371
 21
472.198361
 31
0.0
210
0.0
220
0.0
230
1.0
  0
LINE
  5
2A6
100
AcDbEntity
  8
0
 62
     7
100
AcDbLine
 10
-21.02737
 20
445.398361
 30
0.0
 11
-21.02737
 21
472.198361
 31
0.0
210
0.0
220
0.0
230
1.0
  0
LINE
  5
2A7
100
AcDbEntity
  8
0
 62
     7
100
AcDbLine
 10
-20.52737
 20
445.398361
 30
0.0
 11
-20.52737
 21
472.198361
 31
0.0
210
0.0
220
0.0
230
1.0
  0
LINE
  5
2A8
100
AcDbEntity
  8
0
 62
     7
100
AcDbLine
 10
-139.327374
 20
445.398361
 30
0.0
 11
-139.327374
 21
477.198361
 31
0.0
210
0.0
220
0.0
230
1.0
  0
LINE
  5
2A9
100
AcDbEntity
  8
0
 62
     7
100
AcDbLine
 10
-139.827374
 20
445.398361
 30
0.0
 11
-139.827374
 21
477.198361
 31
0.0
210
0.0
220
0.0
230
1.0
  0
LINE
  5
2AA
100
AcDbEntity
  8
0
 62
     7
100
AcDbLine
 10
-137.52737
 20
445.398361
 30
0.0
 11
-137.52737
 21
477.198361
 31
0.0
210
0.0
220
0.0
230
1.0
  0
LINE
  5
2AB
100
AcDbEntity
  8
0
 62
     7
100
AcDbLine
 10
-138.02737
 20
445.398361
 30
0.0
 11
-138.02737
 21
477.198361
 31
0.0
210
0.0
220
0.0
230
1.0
  0
LINE
  5
2AC
100
AcDbEntity
  8
0
 62
     7
100
AcDbLine
 10
-135.727367
 20
445.398361
 30
0.0
 11
-135.727367
 21
477.198361
 31
0.0
210
0.0
220
0.0
230
1.0
  0
LINE
  5
2AD
100
AcDbEntity
  8
0
 62
     7
100
AcDbLine
 10
-136.227367
 20
445.398361
 30
0.0
 11
-136.227367
 21
477.198361
 31
0.0
210
0.0
220
0.0
230
1.0
  0
LINE
  5
2AE
100
AcDbEntity
  8
0
 62
     7
100
AcDbLine
 10
-133.927372
 20
445.398361
 30
0.0
 11
-133.927372
 21
477.198361
 31
0.0
210
0.0
220
0.0
230
1.0
  0
LINE
  5
2AF
100
AcDbEntity
  8
0
 62
     7
100
AcDbLine
 10
-134.427372
 20
445.398361
 30
0.0
 11
-134.427372
 21
477.198361
 31
0.0
210
0.0
220
0.0
230
1.0
  0
LINE
  5
2B0
100
AcDbEntity
  8
0
 62
     7
100
AcDbLine
 10
-132.127369
 20
445.398361
 30
0.0
 11
-132.127369
 21
472.198361
 31
0.0
210
0.0
220
0.0
230
1.0
  0
LINE
  5
2B1
100
AcDbEntity
  8
0
 62
     7
100
AcDbLine
 10
-132.627369
 20
445.398361
 30
0.0
 11
-132.627369
 21
477.198361
 31
0.0
210
0.0
220
0.0
230
1.0
  0
LINE
  5
2B2
100
AcDbEntity
  8
0
 62
     7
100
AcDbLine
 10
-130.327374
 20
445.398361
 30
0.0
 11
-130.327374
 21
472.198361
 31
0.0
210
0.0
220
0.0
230
1.0
  0
LINE
  5
2B3
100
AcDbEntity
  8
0
 62
     7
100
AcDbLine
 10
-130.827374
 20
445.398361
 30
0.0
 11
-130.827374
 21
472.198361
 31
0.0
210
0.0
220
0.0
230
1.0
  0
LINE
  5
2B4
100
AcDbEntity
  8
0
 62
     7
100
AcDbLine
 10
-128.52737
 20
445.398361
 30
0.0
 11
-128.52737
 21
472.198361
 31
0.0
210
0.0
220
0.0
230
1.0
  0
LINE
  5
2B5
100
AcDbEntity
  8
0
 62
     7
100
AcDbLine
 10
-129.02737
 20
445.398361
 30
0.0
 11
-129.02737
 21
472.198361
 31
0.0
210
0.0
220
0.0
230
1.0
  0
LINE
  5
2B6
100
AcDbEntity
  8
0
 62
     7
100
AcDbLine
 10
-124.27737
 20
445.398361
 30
0.0
 11
-124.27737
 21
472.198361
 31
0.0
210
0.0
220
0.0
230
1.0
  0
LINE
  5
2B7
100
AcDbEntity
  8
0
 62
     7
100
AcDbLine
 10
-25.27737
 20
445.398361
 30
0.0
 11
-25.27737
 21
472.198361
 31
0.0
210
0.0
220
0.0
230
1.0
  0
LINE
  5
2B8
100
AcDbEntity
  8
0
 62
     7
 48
0.0325
100
AcDbLine
 10
-133.927372
 20
477.198365
 30
0.0
 11
-132.627369
 21
477.198365
 31
0.0
210
0.0
220
0.0
230
1.0
  0
LINE
  5
2B9
100
AcDbEntity
  8
0
 62
     7
 48
0.0325
100
AcDbLine
 10
-135.727367
 20
477.198365
 30
0.0
 11
-134.427372
 21
477.198365
 31
0.0
210
0.0
220
0.0
230
1.0
  0
LINE
  5
2BA
100
AcDbEntity
  8
0
 62
     7
 48
0.0325
100
AcDbLine
 10
-15.12737
 20
477.198365
 30
0.0
 11
-13.827371
 21
477.198365
 31
0.0
210
0.0
220
0.0
230
1.0
  0
LINE
  5
2BB
100
AcDbEntity
  8
0
 62
     7
 48
0.0325
100
AcDbLine
 10
-139.327374
 20
477.198365
 30
0.0
 11
-138.02737
 21
477.198365
 31
0.0
210
0.0
220
0.0
230
1.0
  0
LINE
  5
2BC
100
AcDbEntity
  8
0
 62
     7
 48
0.0325
100
AcDbLine
 10
-16.927371
 20
477.198365
 30
0.0
 11
-15.62737
 21
477.198365
 31
0.0
210
0.0
220
0.0
230
1.0
  0
LINE
  5
2BD
100
AcDbEntity
  8
0
 62
     7
 48
0.0325
100
AcDbLine
 10
-9.72737
 20
477.198365
 30
0.0
 11
-8.42737
 21
477.198365
 31
0.0
210
0.0
220
0.0
230
1.0
  0
LINE
  5
2BE
100
AcDbEntity
  8
0
 62
     7
 48
0.0325
100
AcDbLine
 10
-141.127369
 20
477.198365
 30
0.0
 11
-139.827374
 21
477.198365
 31
0.0
210
0.0
220
0.0
230
1.0
  0
LINE
  5
2BF
100
AcDbEntity
  8
0
 62
     7
 48
0.0325
100
AcDbLine
 10
-13.327371
 20
477.198365
 30
0.0
 11
-12.02737
 21
477.198365
 31
0.0
210
0.0
220
0.0
230
1.0
  0
LINE
  5
2C0
100
AcDbEntity
  8
0
 62
     7
 48
0.0325
100
AcDbLine
 10
-11.52737
 20
477.198365
 30
0.0
 11
-10.22737
 21
477.198365
 31
0.0
210
0.0
220
0.0
230
1.0
  0
LINE
  5
2C1
100
AcDbEntity
  8
0
 62
     7
 48
0.0325
100
AcDbLine
 10
-137.52737
 20
477.198365
 30
0.0
 11
-136.227367
 21
477.198365
 31
0.0
210
0.0
220
0.0
230
1.0
  0
LINE
  5
2C2
100
AcDbEntity
  8
0
 62
     7
100
AcDbLine
 10
-124.27737
 20
445.398361
 30
0.0
 11
-25.27737
 21
445.398361
 31
0.0
210
0.0
220
0.0
230
1.0
  0
LINE
  5
2C3
100
AcDbEntity
  8
0
 62
     7
100
AcDbLine
 10
-141.52737
 20
444.698361
 30
0.0
 11
-8.02737
 21
444.698361
 31
0.0
210
0.0
220
0.0
230
1.0
  0
LINE
  5
2C4
100
AcDbEntity
  8
0
 62
     7
 48
0.0125
100
AcDbLine
 10
-141.627369
 20
445.398361
 30
0.0
 11
-141.127369
 21
445.398361
 31
0.0
210
0.0
220
0.0
230
1.0
  0
LINE
  5
2C5
100
AcDbEntity
  8
0
 62
     7
 48
0.0125
100
AcDbLine
 10
-8.42737
 20
445.398361
 30
0.0
 11
-7.92737
 21
445.398361
 31
0.0
210
0.0
220
0.0
230
1.0
  0
LINE
  5
2C6
100
AcDbEntity
  8
0
 62
     7
 48
0.0125
100
AcDbLine
 10
-10.22737
 20
445.398361
 30
0.0
 11
-9.72737
 21
445.398361
 31
0.0
210
0.0
220
0.0
230
1.0
  0
LINE
  5
2C7
100
AcDbEntity
  8
0
 62
     7
 48
0.0125
100
AcDbLine
 10
-12.02737
 20
445.398361
 30
0.0
 11
-11.52737
 21
445.398361
 31
0.0
210
0.0
220
0.0
230
1.0
  0
LINE
  5
2C8
100
AcDbEntity
  8
0
 62
     7
 48
0.0125
100
AcDbLine
 10
-13.827371
 20
445.398361
 30
0.0
 11
-13.327371
 21
445.398361
 31
0.0
210
0.0
220
0.0
230
1.0
  0
LINE
  5
2C9
100
AcDbEntity
  8
0
 62
     7
 48
0.0125
100
AcDbLine
 10
-15.62737
 20
445.398361
 30
0.0
 11
-15.12737
 21
445.398361
 31
0.0
210
0.0
220
0.0
230
1.0
  0
LINE
  5
2CA
100
AcDbEntity
  8
0
 62
     7
 48
0.0125
100
AcDbLine
 10
-17.427371
 20
445.398361
 30
0.0
 11
-16.927371
 21
445.398361
 31
0.0
210
0.0
220
0.0
230
1.0
  0
LINE
  5
2CB
100
AcDbEntity
  8
0
 62
     7
 48
0.0125
100
AcDbLine
 10
-19.227371
 20
445.398361
 30
0.0
 11
-18.727371
 21
445.398361
 31
0.0
210
0.0
220
0.0
230
1.0
  0
LINE
  5
2CC
100
AcDbEntity
  8
0
 62
     7
 48
0.0125
100
AcDbLine
 10
-21.02737
 20
445.398361
 30
0.0
 11
-20.52737
 21
445.398361
 31
0.0
210
0.0
220
0.0
230
1.0
  0
LINE
  5
2CD
100
AcDbEntity
  8
0
 62
     7
 48
0.0125
100
AcDbLine
 10
-139.827374
 20
445.398361
 30
0.0
 11
-139.327374
 21
445.398361
 31
0.0
210
0.0
220
0.0
230
1.0
  0
LINE
  5
2CE
100
AcDbEntity
  8
0
 62
     7
 48
0.0125
100
AcDbLine
 10
-138.02737
 20
445.398361
 30
0.0
 11
-137.52737
 21
445.398361
 31
0.0
210
0.0
220
0.0
230
1.0
  0
LINE
  5
2CF
100
AcDbEntity
  8
0
 62
     7
 48
0.0125
100
AcDbLine
 10
-136.227367
 20
445.398361
 30
0.0
 11
-135.727367
 21
445.398361
 31
0.0
210
0.0
220
0.0
230
1.0
  0
LINE
  5
2D0
100
AcDbEntity
  8
0
 62
     7
 48
0.0125
100
AcDbLine
 10
-134.427372
 20
445.398361
 30
0.0
 11
-133.927372
 21
445.398361
 31
0.0
210
0.0
220
0.0
230
1.0
  0
LINE
  5
2D1
100
AcDbEntity
  8
0
 62
     7
 48
0.0125
100
AcDbLine
 10
-132.627369
 20
445.398361
 30
0.0
 11
-132.127369
 21
445.398361
 31
0.0
210
0.0
220
0.0
230
1.0
  0
LINE
  5
2D2
100
AcDbEntity
  8
0
 62
     7
 48
0.0125
100
AcDbLine
 10
-130.827374
 20
445.398361
 30
0.0
 11
-130.327374
 21
445.398361
 31
0.0
210
0.0
220
0.0
230
1.0
  0
LINE
  5
2D3
100
AcDbEntity
  8
0
 62
     7
 48
0.0125
100
AcDbLine
 10
-129.02737
 20
445.398361
 30
0.0
 11
-128.52737
 21
445.398361
 31
0.0
210
0.0
220
0.0
230
1.0
  0
LINE
  5
2D4
100
AcDbEntity
  8
0
 62
     7
 48
0.0725
100
AcDbLine
 10
-7.92737
 20
445.398361
 30
0.0
 11
-5.02737
 21
445.398361
 31
0.0
210
0.0
220
0.0
230
1.0
  0
LINE
  5
2D5
100
AcDbEntity
  8
0
 62
     7
 48
0.0725
100
AcDbLine
 10
-144.52737
 20
445.398361
 30
0.0
 11
-141.627369
 21
445.398361
 31
0.0
210
0.0
220
0.0
230
1.0
  0
LINE
  5
2D6
100
AcDbEntity
  8
0
 62
     7
 48
0.0325
100
AcDbLine
 10
-9.72737
 20
445.398361
 30
0.0
 11
-8.42737
 21
445.398361
 31
0.0
210
0.0
220
0.0
230
1.0
  0
LINE
  5
2D7
100
AcDbEntity
  8
0
 62
     7
 48
0.0325
100
AcDbLine
 10
-20.52737
 20
445.398361
 30
0.0
 11
-19.227371
 21
445.398361
 31
0.0
210
0.0
220
0.0
230
1.0
  0
LINE
  5
2D8
100
AcDbEntity
  8
0
 62
     7
 48
0.0325
100
AcDbLine
 10
-13.327371
 20
445.398361
 30
0.0
 11
-12.02737
 21
445.398361
 31
0.0
210
0.0
220
0.0
230
1.0
  0
LINE
  5
2D9
100
AcDbEntity
  8
0
 62
     7
 48
0.0325
100
AcDbLine
 10
-130.327374
 20
445.398361
 30
0.0
 11
-129.02737
 21
445.398361
 31
0.0
210
0.0
220
0.0
230
1.0
  0
LINE
  5
2DA
100
AcDbEntity
  8
0
 62
     7
 48
0.10625
100
AcDbLine
 10
-25.27737
 20
445.398361
 30
0.0
 11
-21.02737
 21
445.398361
 31
0.0
210
0.0
220
0.0
230
1.0
  0
LINE
  5
2DB
100
AcDbEntity
  8
0
 62
     7
 48
0.0325
100
AcDbLine
 10
-18.727371
 20
445.398361
 30
0.0
 11
-17.427371
 21
445.398361
 31
0.0
210
0.0
220
0.0
230
1.0
  0
LINE
  5
2DC
100
AcDbEntity
  8
0
 62
     7
 48
0.10625
100
AcDbLine
 10
-128.52737
 20
445.398361
 30
0.0
 11
-124.27737
 21
445.398361
 31
0.0
210
0.0
220
0.0
230
1.0
  0
LINE
  5
2DD
100
AcDbEntity
  8
0
 62
     7
 48
0.0325
100
AcDbLine
 10
-132.127369
 20
445.398361
 30
0.0
 11
-130.827374
 21
445.398361
 31
0.0
210
0.0
220
0.0
230
1.0
  0
LINE
  5
2DE
100
AcDbEntity
  8
0
 62
     7
 48
0.0325
100
AcDbLine
 10
-137.52737
 20
445.398361
 30
0.0
 11
-136.227367
 21
445.398361
 31
0.0
210
0.0
220
0.0
230
1.0
  0
LINE
  5
2DF
100
AcDbEntity
  8
0
 62
     7
 48
0.0325
100
AcDbLine
 10
-16.927371
 20
445.398361
 30
0.0
 11
-15.62737
 21
445.398361
 31
0.0
210
0.0
220
0.0
230
1.0
  0
LINE
  5
2E0
100
AcDbEntity
  8
0
 62
     7
 48
0.0325
100
AcDbLine
 10
-139.327374
 20
445.398361
 30
0.0
 11
-138.02737
 21
445.398361
 31
0.0
210
0.0
220
0.0
230
1.0
  0
LINE
  5
2E1
100
AcDbEntity
  8
0
 62
     7
 48
0.0325
100
AcDbLine
 10
-15.12737
 20
445.398361
 30
0.0
 11
-13.827371
 21
445.398361
 31
0.0
210
0.0
220
0.0
230
1.0
  0
LINE
  5
2E2
100
AcDbEntity
  8
0
 62
     7
 48
0.0325
100
AcDbLine
 10
-141.127369
 20
445.398361
 30
0.0
 11
-139.827374
 21
445.398361
 31
0.0
210
0.0
220
0.0
230
1.0
  0
LINE
  5
2E3
100
AcDbEntity
  8
0
 62
     7
 48
0.0325
100
AcDbLine
 10
-11.52737
 20
445.398361
 30
0.0
 11
-10.22737
 21
445.398361
 31
0.0
210
0.0
220
0.0
230
1.0
  0
LINE
  5
2E4
100
AcDbEntity
  8
0
 62
     7
 48
0.0325
100
AcDbLine
 10
-133.927372
 20
445.398361
 30
0.0
 11
-132.627369
 21
445.398361
 31
0.0
210
0.0
220
0.0
230
1.0
  0
LINE
  5
2E5
100
AcDbEntity
  8
0
 62
     7
 48
0.0325
100
AcDbLine
 10
-135.727367
 20
445.398361
 30
0.0
 11
-134.427372
 21
445.398361
 31
0.0
210
0.0
220
0.0
230
1.0
  0
LINE
  5
2E6
100
AcDbEntity
  8
0
 62
     7
 48
0.0175
100
AcDbLine
 10
-143.827374
 20
444.698361
 30
0.0
 11
-143.827374
 21
445.398361
 31
0.0
210
0.0
220
0.0
230
1.0
  0
LINE
  5
2E7
100
AcDbEntity
  8
0
 62
     7
 48
0.0175
100
AcDbLine
 10
-5.72737
 20
444.698361
 30
0.0
 11
-5.72737
 21
445.398361
 31
0.0
210
0.0
220
0.0
230
1.0
  0
CIRCLE
  5
2E8
100
AcDbEntity
  8
0
 62
     7
100
AcDbCircle
 10
-121.27737
 20
436.198361
 30
0.0
 40
5.0
210
0.0
220
0.0
230
1.0
  0
CIRCLE
  5
2E9
100
AcDbEntity
  8
0
 62
     7
100
AcDbCircle
 10
-74.77737
 20
436.198361
 30
0.0
 40
5.0
210
0.0
220
0.0
230
1.0
  0
CIRCLE
  5
2EA
100
AcDbEntity
  8
0
 62
     7
100
AcDbCircle
 10
-28.27737
 20
436.198361
 30
0.0
 40
5.0
210
0.0
220
0.0
230
1.0
  0
CIRCLE
  5
2EB
100
AcDbEntity
  8
0
 62
     7
100
AcDbCircle
 10
-51.52737
 20
434.698361
 30
0.0
 40
4.25
210
0.0
220
0.0
230
1.0
  0
CIRCLE
  5
2EC
100
AcDbEntity
  8
0
 62
     7
100
AcDbCircle
 10
-98.02737
 20
434.698361
 30
0.0
 40
4.25
210
0.0
220
0.0
230
1.0
  0
LINE
  5
2ED
100
AcDbEntity
  8
0
 62
     7
 48
0.45625
100
AcDbLine
 10
-143.02737
 20
426.448361
 30
0.0
 11
-143.02737
 21
444.698361
 31
0.0
210
0.0
220
0.0
230
1.0
  0
LINE
  5
2EE
100
AcDbEntity
  8
0
 62
     7
100
AcDbLine
 10
-141.77737
 20
426.448361
 30
0.0
 11
-7.77737
 21
426.448361
 31
0.0
210
0.0
220
0.0
230
1.0
  0
LINE
  5
2EF
100
AcDbEntity
  8
0
 62
     7
 48
0.00625
100
AcDbLine
 10
-142.02737
 20
426.448361
 30
0.0
 11
-141.77737
 21
426.448361
 31
0.0
210
0.0
220
0.0
230
1.0
  0
LINE
  5
2F0
100
AcDbEntity
  8
0
 62
     7
 48
0.00625
100
AcDbLine
 10
-7.77737
 20
426.448361
 30
0.0
 11
-7.52737
 21
426.448361
 31
0.0
210
0.0
220
0.0
230
1.0
  0
LINE
  5
2F1
100
AcDbEntity
  8
0
 62
     7
 48
0.45625
100
AcDbLine
 10
-6.52737
 20
426.448361
 30
0.0
 11
-6.52737
 21
444.698361
 31
0.0
210
0.0
220
0.0
230
1.0
  0
POLYLINE
  5
2F2
100
AcDbEntity
  8
0
 62
    14
100
AcDb2dPolyline
 66
     1
 10
0.0
 20
0.0
 30
0.0
 71
     3
  0
VERTEX
  5
2F3
100
AcDbEntity
  8
0
100
AcDbVertex
100
AcDb2dVertex
 10
-34.948249
 20
459.71122
 30
0.0
  0
VERTEX
  5
2F4
100
AcDbEntity
  8
0
100
AcDbVertex
100
AcDb2dVertex
 10
-34.94066
 20
459.697773
 30
0.0
  0
VERTEX
  5
2F5
100
AcDbEntity
  8
0
100
AcDbVertex
100
AcDb2dVertex
 10
-34.932839
 20
459.684458
 30
0.0
  0
SEQEND
  5
2F6
100
AcDbEntity
  8
0
  0
POLYLINE
  5
2F7
100
AcDbEntity
  8
0
 62
    14
100
AcDb2dPolyline
 66
     1
 10
0.0
 20
0.0
 30
0.0
 71
     3
  0
VERTEX
  5
2F8
100
AcDbEntity
  8
0
100
AcDbVertex
100
AcDb2dVertex
 10
-39.948248
 20
459.71122
 30
0.0
  0
VERTEX
  5
2F9
100
AcDbEntity
  8
0
100
AcDbVertex
100
AcDb2dVertex
 10
-39.940659
 20
459.697773
 30
0.0
  0
VERTEX
  5
2FA
100
AcDbEntity
  8
0
100
AcDbVertex
100
AcDb2dVertex
 10
-39.932838
 20
459.684458
 30
0.0
  0
SEQEND
  5
2FB
100
AcDbEntity
  8
0
  0
ARC
  5
2FC
100
AcDbEntity
  8
0
 62
     7
100
AcDbCircle
 10
-142.02737
 20
624.198361
 30
0.0
 40
1.000004
210
0.0
220
0.0
230
1.0
100
AcDbArc
 50
90.000146
 51
179.999855
  0
ARC
  5
2FD
100
AcDbEntity
  8
0
 62
     7
100
AcDbCircle
 10
-54.02737
 20
624.198361
 30
0.0
 40
1.0
210
0.0
220
0.0
230
1.0
100
AcDbArc
 50
0.0
 51
90.000003
  0
LINE
  5
2FE
100
AcDbEntity
  8
0
 62
     7
 48
0.0375
100
AcDbLine
 10
-54.52737
 20
623.198361
 30
0.0
 11
-53.02737
 21
623.198361
 31
0.0
210
0.0
220
0.0
230
1.0
  0
ARC
  5
2FF
100
AcDbEntity
  8
0
 62
     7
100
AcDbCircle
 10
-95.52737
 20
624.198361
 30
0.0
 40
1.0
210
0.0
220
0.0
230
1.0
100
AcDbArc
 50
90.000003
 51
180.000005
  0
ARC
  5
300
100
AcDbEntity
  8
0
 62
     7
100
AcDbCircle
 10
-100.52737
 20
624.198361
 30
0.0
 40
1.0
210
0.0
220
0.0
230
1.0
100
AcDbArc
 50
0.0
 51
90.000003
  0
LINE
  5
301
100
AcDbEntity
  8
0
 62
     7
 48
0.0375
100
AcDbLine
 10
-101.02737
 20
623.198361
 30
0.0
 11
-99.52737
 21
623.198361
 31
0.0
210
0.0
220
0.0
230
1.0
  0
LINE
  5
302
100
AcDbEntity
  8
0
 62
     7
 48
0.0375
100
AcDbLine
 10
-96.52737
 20
623.198361
 30
0.0
 11
-95.02737
 21
623.198361
 31
0.0
210
0.0
220
0.0
230
1.0
  0
CIRCLE
  5
303
100
AcDbEntity
  8
0
 62
     7
100
AcDbCircle
 10
-137.02737
 20
607.448361
 30
0.0
 40
1.5
210
0.0
220
0.0
230
1.0
  0
LINE
  5
304
100
AcDbEntity
  8
0
 62
     7
 48
0.00625
100
AcDbLine
 10
-141.52737
 20
618.948361
 30
0.0
 11
-141.52737
 21
619.198361
 31
0.0
210
0.0
220
0.0
230
1.0
  0
LINE
  5
305
100
AcDbEntity
  8
0
 62
     7
 48
0.025
100
AcDbLine
 10
-54.52737
 20
624.198361
 30
0.0
 11
-54.52737
 21
625.198361
 31
0.0
210
0.0
220
0.0
230
1.0
  0
LINE
  5
306
100
AcDbEntity
  8
0
 62
     7
 48
0.025
100
AcDbLine
 10
-53.02737
 20
623.198361
 30
0.0
 11
-53.02737
 21
624.198361
 31
0.0
210
0.0
220
0.0
230
1.0
  0
LINE
  5
307
100
AcDbEntity
  8
0
 62
     7
 48
0.025
100
AcDbLine
 10
-95.02737
 20
624.198361
 30
0.0
 11
-95.02737
 21
625.198361
 31
0.0
210
0.0
220
0.0
230
1.0
  0
LINE
  5
308
100
AcDbEntity
  8
0
 62
     7
 48
0.025
100
AcDbLine
 10
-96.52737
 20
623.198361
 30
0.0
 11
-96.52737
 21
624.198361
 31
0.0
210
0.0
220
0.0
230
1.0
  0
LINE
  5
309
100
AcDbEntity
  8
0
 62
     7
 48
0.025
100
AcDbLine
 10
-101.02737
 20
624.198361
 30
0.0
 11
-101.02737
 21
625.198361
 31
0.0
210
0.0
220
0.0
230
1.0
  0
LINE
  5
30A
100
AcDbEntity
  8
0
 62
     7
 48
0.025
100
AcDbLine
 10
-99.52737
 20
623.198361
 30
0.0
 11
-99.52737
 21
624.198361
 31
0.0
210
0.0
220
0.0
230
1.0
  0
LINE
  5
30B
100
AcDbEntity
  8
0
 62
     7
100
AcDbLine
 10
-95.02737
 20
625.198361
 30
0.0
 11
-54.52737
 21
625.198361
 31
0.0
210
0.0
220
0.0
230
1.0
  0
LINE
  5
30C
100
AcDbEntity
  8
0
 62
     7
100
AcDbLine
 10
-142.02737
 20
625.198361
 30
0.0
 11
-101.02737
 21
625.198361
 31
0.0
210
0.0
220
0.0
230
1.0
  0
LINE
  5
30D
100
AcDbEntity
  8
0
 62
     7
 48
0.0125
100
AcDbLine
 10
-54.52737
 20
625.198361
 30
0.0
 11
-54.02737
 21
625.198361
 31
0.0
210
0.0
220
0.0
230
1.0
  0
LINE
  5
30E
100
AcDbEntity
  8
0
 62
     7
 48
0.0125
100
AcDbLine
 10
-101.02737
 20
625.198361
 30
0.0
 11
-100.52737
 21
625.198361
 31
0.0
210
0.0
220
0.0
230
1.0
  0
LINE
  5
30F
100
AcDbEntity
  8
0
 62
     7
 48
0.0125
100
AcDbLine
 10
-95.52737
 20
625.198361
 30
0.0
 11
-95.02737
 21
625.198361
 31
0.0
210
0.0
220
0.0
230
1.0
  0
LINE
  5
310
100
AcDbEntity
  8
0
 62
     7
 48
0.075
100
AcDbLine
 10
-54.52737
 20
621.198361
 30
0.0
 11
-51.52737
 21
621.198361
 31
0.0
210
0.0
220
0.0
230
1.0
  0
LINE
  5
311
100
AcDbEntity
  8
0
 62
     7
 48
0.15
100
AcDbLine
 10
-101.02737
 20
621.198361
 30
0.0
 11
-95.02737
 21
621.198361
 31
0.0
210
0.0
220
0.0
230
1.0
  0
LINE
  5
312
100
AcDbEntity
  8
0
 62
     7
 48
0.1
100
AcDbLine
 10
-141.52737
 20
619.198361
 30
0.0
 11
-141.52737
 21
623.198361
 31
0.0
210
0.0
220
0.0
230
1.0
  0
LINE
  5
313
100
AcDbEntity
  8
0
 62
     7
 48
0.075
100
AcDbLine
 10
-54.52737
 20
621.198361
 30
0.0
 11
-54.52737
 21
624.198361
 31
0.0
210
0.0
220
0.0
230
1.0
  0
LINE
  5
314
100
AcDbEntity
  8
0
 62
     7
 48
0.075
100
AcDbLine
 10
-95.02737
 20
621.198361
 30
0.0
 11
-95.02737
 21
624.198361
 31
0.0
210
0.0
220
0.0
230
1.0
  0
LINE
  5
315
100
AcDbEntity
  8
0
 62
     7
 48
0.075
100
AcDbLine
 10
-101.02737
 20
621.198361
 30
0.0
 11
-101.02737
 21
624.198361
 31
0.0
210
0.0
220
0.0
230
1.0
  0
LINE
  5
316
100
AcDbEntity
  8
0
 62
     7
 48
0.0375
100
AcDbLine
 10
-144.52737
 20
619.198361
 30
0.0
 11
-143.02737
 21
619.198361
 31
0.0
210
0.0
220
0.0
230
1.0
  0
LINE
  5
317
100
AcDbEntity
  8
0
 62
     7
 48
0.025
100
AcDbLine
 10
-143.02737
 20
623.198361
 30
0.0
 11
-142.02737
 21
623.198361
 31
0.0
210
0.0
220
0.0
230
1.0
  0
LINE
  5
318
100
AcDbEntity
  8
0
 62
     7
 48
0.0125
100
AcDbLine
 10
-142.02737
 20
623.198361
 30
0.0
 11
-141.52737
 21
623.198361
 31
0.0
210
0.0
220
0.0
230
1.0
  0
LINE
  5
319
100
AcDbEntity
  8
0
 62
     7
 48
0.0375
100
AcDbLine
 10
-143.02737
 20
620.198361
 30
0.0
 11
-141.52737
 21
620.198361
 31
0.0
210
0.0
220
0.0
230
1.0
  0
LINE
  5
31A
100
AcDbEntity
  8
0
 62
     7
 48
0.01716
100
AcDbLine
 10
-141.213779
 20
619.198361
 30
0.0
 11
-140.52737
 21
619.198361
 31
0.0
210
0.0
220
0.0
230
1.0
  0
LINE
  5
31B
100
AcDbEntity
  8
0
 62
     7
100
AcDbLine
 10
-141.52737
 20
619.198361
 30
0.0
 11
-51.52737
 21
619.198361
 31
0.0
210
0.0
220
0.0
230
1.0
  0
ARC
  5
31C
100
AcDbEntity
  8
0
 62
     7
100
AcDbCircle
 10
-74.77737
 20
622.198361
 30
0.0
 40
1.15
210
0.0
220
0.0
230
1.0
100
AcDbArc
 50
270.000001
 51
90.000003
  0
CIRCLE
  5
31D
100
AcDbEntity
  8
0
 62
     7
100
AcDbCircle
 10
-74.777374
 20
622.198346
 30
0.0
 40
1.149996
210
0.0
220
0.0
230
1.0
  0
LINE
  5
31E
100
AcDbEntity
  8
0
 62
     7
 48
0.025
100
AcDbLine
 10
-143.02737
 20
623.198361
 30
0.0
 11
-143.02737
 21
624.198361
 31
0.0
210
0.0
220
0.0
230
1.0
  0
LINE
  5
31F
100
AcDbEntity
  8
0
 62
     7
 48
0.025
100
AcDbLine
 10
-143.02737
 20
619.198361
 30
0.0
 11
-143.02737
 21
620.198361
 31
0.0
210
0.0
220
0.0
230
1.0
  0
LINE
  5
320
100
AcDbEntity
  8
0
 62
     7
 48
0.48
100
AcDbLine
 10
-144.52737
 20
599.998364
 30
0.0
 11
-144.52737
 21
619.198361
 31
0.0
210
0.0
220
0.0
230
1.0
  0
LINE
  5
321
100
AcDbEntity
  8
0
 62
     7
 48
0.03366
100
AcDbLine
 10
-144.52737
 20
571.073216
 30
0.0
 11
-144.52737
 21
572.419606
 31
0.0
210
0.0
220
0.0
230
1.0
  0
LINE
  5
322
100
AcDbEntity
  8
0
 62
     7
 48
0.014257
100
AcDbLine
 10
-98.827374
 20
614.157041
 30
0.0
 11
-98.827374
 21
614.727307
 31
0.0
210
0.0
220
0.0
230
1.0
  0
ARC
  5
323
100
AcDbEntity
  8
0
 62
     7
100
AcDbCircle
 10
-98.02737
 20
610.698361
 30
0.0
 40
3.55
210
0.0
220
0.0
230
1.0
100
AcDbArc
 50
103.023582
 51
256.976415
  0
LINE
  5
324
100
AcDbEntity
  8
0
 62
     7
 48
0.014375
100
AcDbLine
 10
-98.827374
 20
606.6647
 30
0.0
 11
-98.827374
 21
607.239682
 31
0.0
210
0.0
220
0.0
230
1.0
  0
LINE
  5
325
100
AcDbEntity
  8
0
 62
     7
 48
0.0375
100
AcDbLine
 10
-98.02737
 20
613.448361
 30
0.0
 11
-98.02737
 21
614.948361
 31
0.0
210
0.0
220
0.0
230
1.0
  0
LINE
  5
326
100
AcDbEntity
  8
0
 62
     7
 48
0.0375
100
AcDbLine
 10
-98.02737
 20
606.448361
 30
0.0
 11
-98.02737
 21
607.948361
 31
0.0
210
0.0
220
0.0
230
1.0
  0
ARC
  5
327
100
AcDbEntity
  8
0
 62
     7
100
AcDbCircle
 10
-98.02737
 20
610.698361
 30
0.0
 40
2.75
210
0.0
220
0.0
230
1.0
100
AcDbArc
 50
90.000003
 51
270.000001
  0
LINE
  5
328
100
AcDbEntity
  8
0
 62
     7
 48
0.00625
100
AcDbLine
 10
-105.02737
 20
445.398361
 30
0.0
 11
-105.02737
 21
445.648361
 31
0.0
210
0.0
220
0.0
230
1.0
  0
LINE
  5
329
100
AcDbEntity
  8
0
 62
     7
 48
0.00625
100
AcDbLine
 10
-109.52737
 20
445.398361
 30
0.0
 11
-109.52737
 21
445.648361
 31
0.0
210
0.0
220
0.0
230
1.0
  0
LINE
  5
32A
100
AcDbEntity
  8
0
 62
     7
 48
0.00625
100
AcDbLine
 10
-40.02737
 20
445.398361
 30
0.0
 11
-40.02737
 21
445.648361
 31
0.0
210
0.0
220
0.0
230
1.0
  0
LINE
  5
32B
100
AcDbEntity
  8
0
 62
     7
 48
0.00625
100
AcDbLine
 10
-44.52737
 20
445.398361
 30
0.0
 11
-44.52737
 21
445.648361
 31
0.0
210
0.0
220
0.0
230
1.0
  0
CIRCLE
  5
32C
100
AcDbEntity
  8
0
 62
     7
100
AcDbCircle
 10
-39.161341
 20
459.898366
 30
0.0
 40
0.9
210
0.0
220
0.0
230
1.0
  0
CIRCLE
  5
32D
100
AcDbEntity
  8
0
 62
     7
100
AcDbCircle
 10
-34.161341
 20
459.898366
 30
0.0
 40
0.9
210
0.0
220
0.0
230
1.0
  0
LINE
  5
32E
100
AcDbEntity
  8
0
 62
     7
100
AcDbLine
 10
-124.02737
 20
445.648361
 30
0.0
 11
-124.02737
 21
472.198361
 31
0.0
210
0.0
220
0.0
230
1.0
  0
LINE
  5
32F
100
AcDbEntity
  8
0
 62
     7
100
AcDbLine
 10
-25.52737
 20
445.648361
 30
0.0
 11
-25.52737
 21
472.198361
 31
0.0
210
0.0
220
0.0
230
1.0
  0
LINE
  5
330
100
AcDbEntity
  8
0
 62
     7
 48
0.075
100
AcDbLine
 10
-72.77737
 20
448.198361
 30
0.0
 11
-72.77737
 21
451.198361
 31
0.0
210
0.0
220
0.0
230
1.0
  0
LINE
  5
331
100
AcDbEntity
  8
0
 62
     7
 48
0.075
100
AcDbLine
 10
-76.77737
 20
448.198361
 30
0.0
 11
-76.77737
 21
451.198361
 31
0.0
210
0.0
220
0.0
230
1.0
  0
CIRCLE
  5
332
100
AcDbEntity
  8
0
 62
     7
100
AcDbCircle
 10
-70.52737
 20
449.698361
 30
0.0
 40
0.75
210
0.0
220
0.0
230
1.0
  0
CIRCLE
  5
333
100
AcDbEntity
  8
0
 62
     7
100
AcDbCircle
 10
-79.02737
 20
449.698361
 30
0.0
 40
0.75
210
0.0
220
0.0
230
1.0
  0
LINE
  5
334
100
AcDbEntity
  8
0
 62
     7
100
AcDbLine
 10
-124.02737
 20
445.648361
 30
0.0
 11
-25.52737
 21
445.648361
 31
0.0
210
0.0
220
0.0
230
1.0
  0
LINE
  5
335
100
AcDbEntity
  8
0
 62
     7
 48
0.1
100
AcDbLine
 10
-76.77737
 20
451.198361
 30
0.0
 11
-72.77737
 21
451.198361
 31
0.0
210
0.0
220
0.0
230
1.0
  0
LINE
  5
336
100
AcDbEntity
  8
0
 62
     7
 48
0.1
100
AcDbLine
 10
-76.77737
 20
448.198361
 30
0.0
 11
-72.77737
 21
448.198361
 31
0.0
210
0.0
220
0.0
230
1.0
  0
ARC
  5
337
100
AcDbEntity
  8
0
 62
     7
100
AcDbCircle
 10
-142.52737
 20
420.698361
 30
0.0
 40
0.5
210
0.0
220
0.0
230
1.0
100
AcDbArc
 50
180.000005
 51
270.000001
  0
ARC
  5
338
100
AcDbEntity
  8
0
 62
     7
100
AcDbCircle
 10
-7.027366
 20
420.698356
 30
0.0
 40
0.5
210
0.0
220
0.0
230
1.0
100
AcDbArc
 50
269.999427
 51
0.000561
  0
ARC
  5
339
100
AcDbEntity
  8
0
 62
     7
100
AcDbCircle
 10
-138.52737
 20
427.198361
 30
0.0
 40
1.0
210
0.0
220
0.0
230
1.0
100
AcDbArc
 50
234.019602
 51
270.000001
  0
LINE
  5
33A
100
AcDbEntity
  8
0
 62
     7
 48
0.025
100
AcDbLine
 10
-6.52737
 20
421.198361
 30
0.0
 11
-6.52737
 21
422.198361
 31
0.0
210
0.0
220
0.0
230
1.0
  0
LINE
  5
33B
100
AcDbEntity
  8
0
 62
     7
 48
0.0125
100
AcDbLine
 10
-6.52737
 20
420.698361
 30
0.0
 11
-6.52737
 21
421.198361
 31
0.0
210
0.0
220
0.0
230
1.0
  0
LINE
  5
33C
100
AcDbEntity
  8
0
 62
     7
 48
0.0125
100
AcDbLine
 10
-143.02737
 20
420.698361
 30
0.0
 11
-143.02737
 21
421.198361
 31
0.0
210
0.0
220
0.0
230
1.0
  0
LINE
  5
33D
100
AcDbEntity
  8
0
 62
     7
 48
0.025
100
AcDbLine
 10
-143.02737
 20
421.198361
 30
0.0
 11
-143.02737
 21
422.198361
 31
0.0
210
0.0
220
0.0
230
1.0
  0
LINE
  5
33E
100
AcDbEntity
  8
0
 62
     7
 48
0.0125
100
AcDbLine
 10
-141.52737
 20
426.198361
 30
0.0
 11
-141.02737
 21
426.198361
 31
0.0
210
0.0
220
0.0
230
1.0
  0
LINE
  5
33F
100
AcDbEntity
  8
0
 62
     7
 48
0.0125
100
AcDbLine
 10
-8.52737
 20
426.198361
 30
0.0
 11
-8.02737
 21
426.198361
 31
0.0
210
0.0
220
0.0
230
1.0
  0
LINE
  5
340
100
AcDbEntity
  8
0
 62
     7
 48
0.075
100
AcDbLine
 10
-54.52737
 20
421.198361
 30
0.0
 11
-54.52737
 21
424.198361
 31
0.0
210
0.0
220
0.0
230
1.0
  0
LINE
  5
341
100
AcDbEntity
  8
0
 62
     7
 48
0.075
100
AcDbLine
 10
-48.52737
 20
421.198361
 30
0.0
 11
-48.52737
 21
424.198361
 31
0.0
210
0.0
220
0.0
230
1.0
  0
LINE
  5
342
100
AcDbEntity
  8
0
 62
     7
 48
0.075
100
AcDbLine
 10
-101.02737
 20
421.198361
 30
0.0
 11
-101.02737
 21
424.198361
 31
0.0
210
0.0
220
0.0
230
1.0
  0
LINE
  5
343
100
AcDbEntity
  8
0
 62
     7
 48
0.075
100
AcDbLine
 10
-95.02737
 20
421.198361
 30
0.0
 11
-95.02737
 21
424.198361
 31
0.0
210
0.0
220
0.0
230
1.0
  0
LINE
  5
344
100
AcDbEntity
  8
0
 62
     7
100
AcDbLine
 10
-109.77737
 20
426.198361
 30
0.0
 11
-39.77738
 21
426.198361
 31
0.0
210
0.0
220
0.0
230
1.0
  0
LINE
  5
345
100
AcDbEntity
  8
0
 62
     7
100
AcDbLine
 10
-141.02737
 20
426.198361
 30
0.0
 11
-119.27737
 21
426.198361
 31
0.0
210
0.0
220
0.0
230
1.0
  0
LINE
  5
346
100
AcDbEntity
  8
0
 62
     7
100
AcDbLine
 10
-30.27738
 20
426.198361
 30
0.0
 11
-8.52737
 21
426.198361
 31
0.0
210
0.0
220
0.0
230
1.0
  0
LINE
  5
347
100
AcDbEntity
  8
0
 62
     7
 48
0.2375
100
AcDbLine
 10
-119.27737
 20
420.198361
 30
0.0
 11
-109.77737
 21
420.198361
 31
0.0
210
0.0
220
0.0
230
1.0
  0
POLYLINE
  5
348
100
AcDbEntity
  8
0
 62
   150
100
AcDb2dPolyline
 66
     1
 10
0.0
 20
0.0
 30
0.0
 71
    13
  0
VERTEX
  5
349
100
AcDbEntity
  8
0
100
AcDbVertex
100
AcDb2dVertex
 10
-75.615673
 20
422.410327
 30
0.0
  0
VERTEX
  5
34A
100
AcDbEntity
  8
0
100
AcDbVertex
100
AcDb2dVertex
 10
-75.58223
 20
422.376216
 30
0.0
  0
VERTEX
  5
34B
100
AcDbEntity
  8
0
100
AcDbVertex
100
AcDb2dVertex
 10
-75.547375
 20
422.343526
 30
0.0
  0
VERTEX
  5
34C
100
AcDbEntity
  8
0
100
AcDbVertex
100
AcDb2dVertex
 10
-75.511181
 20
422.312322
 30
0.0
  0
VERTEX
  5
34D
100
AcDbEntity
  8
0
100
AcDbVertex
100
AcDb2dVertex
 10
-75.473698
 20
422.282647
 30
0.0
  0
VERTEX
  5
34E
100
AcDbEntity
  8
0
100
AcDbVertex
100
AcDb2dVertex
 10
-75.395103
 20
422.228085
 30
0.0
  0
VERTEX
  5
34F
100
AcDbEntity
  8
0
100
AcDbVertex
100
AcDb2dVertex
 10
-75.312103
 20
422.180194
 30
0.0
  0
VERTEX
  5
350
100
AcDbEntity
  8
0
100
AcDbVertex
100
AcDb2dVertex
 10
-75.225243
 20
422.139302
 30
0.0
  0
VERTEX
  5
351
100
AcDbEntity
  8
0
100
AcDbVertex
100
AcDb2dVertex
 10
-75.135117
 20
422.105699
 30
0.0
  0
VERTEX
  5
352
100
AcDbEntity
  8
0
100
AcDbVertex
100
AcDb2dVertex
 10
-75.042377
 20
422.079637
 30
0.0
  0
VERTEX
  5
353
100
AcDbEntity
  8
0
100
AcDbVertex
100
AcDb2dVertex
 10
-74.94775
 20
422.06133
 30
0.0
  0
VERTEX
  5
354
100
AcDbEntity
  8
0
100
AcDbVertex
100
AcDb2dVertex
 10
-74.852043
 20
422.050929
 30
0.0
  0
VERTEX
  5
355
100
AcDbEntity
  8
0
100
AcDbVertex
100
AcDb2dVertex
 10
-74.77737
 20
422.048362
 30
0.0
  0
SEQEND
  5
356
100
AcDbEntity
  8
0
  0
POLYLINE
  5
357
100
AcDbEntity
  8
0
 62
   150
100
AcDb2dPolyline
 66
     1
 10
0.0
 20
0.0
 30
0.0
 71
    20
  0
VERTEX
  5
358
100
AcDbEntity
  8
0
100
AcDbVertex
100
AcDb2dVertex
 10
-74.77737
 20
424.348361
 30
0.0
  0
VERTEX
  5
359
100
AcDbEntity
  8
0
100
AcDbVertex
100
AcDb2dVertex
 10
-74.825371
 20
424.347268
 30
0.0
  0
VERTEX
  5
35A
100
AcDbEntity
  8
0
100
AcDbVertex
100
AcDb2dVertex
 10
-74.873444
 20
424.344165
 30
0.0
  0
VERTEX
  5
35B
100
AcDbEntity
  8
0
100
AcDbVertex
100
AcDb2dVertex
 10
-74.921402
 20
424.339059
 30
0.0
  0
VERTEX
  5
35C
100
AcDbEntity
  8
0
100
AcDbVertex
100
AcDb2dVertex
 10
-74.969212
 20
424.33195
 30
0.0
  0
VERTEX
  5
35D
100
AcDbEntity
  8
0
100
AcDbVertex
100
AcDb2dVertex
 10
-75.016651
 20
424.322871
 30
0.0
  0
VERTEX
  5
35E
100
AcDbEntity
  8
0
100
AcDbVertex
100
AcDb2dVertex
 10
-75.063728
 20
424.311816
 30
0.0
  0
VERTEX
  5
35F
100
AcDbEntity
  8
0
100
AcDbVertex
100
AcDb2dVertex
 10
-75.110226
 20
424.298839
 30
0.0
  0
VERTEX
  5
360
100
AcDbEntity
  8
0
100
AcDbVertex
100
AcDb2dVertex
 10
-75.15617
 20
424.283931
 30
0.0
  0
VERTEX
  5
361
100
AcDbEntity
  8
0
100
AcDbVertex
100
AcDb2dVertex
 10
-75.201351
 20
424.267165
 30
0.0
  0
VERTEX
  5
362
100
AcDbEntity
  8
0
100
AcDbVertex
100
AcDb2dVertex
 10
-75.2458
 20
424.248532
 30
0.0
  0
VERTEX
  5
363
100
AcDbEntity
  8
0
100
AcDbVertex
100
AcDb2dVertex
 10
-75.289333
 20
424.228112
 30
0.0
  0
VERTEX
  5
364
100
AcDbEntity
  8
0
100
AcDbVertex
100
AcDb2dVertex
 10
-75.331966
 20
424.205897
 30
0.0
  0
VERTEX
  5
365
100
AcDbEntity
  8
0
100
AcDbVertex
100
AcDb2dVertex
 10
-75.373547
 20
424.181975
 30
0.0
  0
VERTEX
  5
366
100
AcDbEntity
  8
0
100
AcDbVertex
100
AcDb2dVertex
 10
-75.414078
 20
424.156344
 30
0.0
  0
VERTEX
  5
367
100
AcDbEntity
  8
0
100
AcDbVertex
100
AcDb2dVertex
 10
-75.453434
 20
424.129086
 30
0.0
  0
VERTEX
  5
368
100
AcDbEntity
  8
0
100
AcDbVertex
100
AcDb2dVertex
 10
-75.491604
 20
424.100219
 30
0.0
  0
VERTEX
  5
369
100
AcDbEntity
  8
0
100
AcDbVertex
100
AcDb2dVertex
 10
-75.528488
 20
424.06981
 30
0.0
  0
VERTEX
  5
36A
100
AcDbEntity
  8
0
100
AcDbVertex
100
AcDb2dVertex
 10
-75.564056
 20
424.037896
 30
0.0
  0
VERTEX
  5
36B
100
AcDbEntity
  8
0
100
AcDbVertex
100
AcDb2dVertex
 10
-75.593784
 20
424.009042
 30
0.0
  0
SEQEND
  5
36C
100
AcDbEntity
  8
0
  0
LINE
  5
36D
100
AcDbEntity
  8
0
 62
     7
 48
0.2375
100
AcDbLine
 10
-39.77738
 20
426.198361
 30
0.0
 11
-30.27738
 21
426.198361
 31
0.0
210
0.0
220
0.0
230
1.0
  0
LINE
  5
36E
100
AcDbEntity
  8
0
 62
     7
 48
0.125
100
AcDbLine
 10
-109.77737
 20
421.198361
 30
0.0
 11
-109.77737
 21
426.198361
 31
0.0
210
0.0
220
0.0
230
1.0
  0
LINE
  5
36F
100
AcDbEntity
  8
0
 62
     7
 48
0.125
100
AcDbLine
 10
-30.27738
 20
421.198361
 30
0.0
 11
-30.27738
 21
426.198361
 31
0.0
210
0.0
220
0.0
230
1.0
  0
LINE
  5
370
100
AcDbEntity
  8
0
 62
     7
 48
0.125
100
AcDbLine
 10
-39.77738
 20
421.198361
 30
0.0
 11
-39.77738
 21
426.198361
 31
0.0
210
0.0
220
0.0
230
1.0
  0
LINE
  5
371
100
AcDbEntity
  8
0
 62
     7
 48
0.2375
100
AcDbLine
 10
-119.27737
 20
426.198361
 30
0.0
 11
-109.77737
 21
426.198361
 31
0.0
210
0.0
220
0.0
230
1.0
  0
LINE
  5
372
100
AcDbEntity
  8
0
 62
     7
 48
0.2375
100
AcDbLine
 10
-119.27737
 20
422.198361
 30
0.0
 11
-109.77737
 21
422.198361
 31
0.0
210
0.0
220
0.0
230
1.0
  0
LINE
  5
373
100
AcDbEntity
  8
0
 62
     7
 48
0.025
100
AcDbLine
 10
-101.02737
 20
420.198361
 30
0.0
 11
-101.02737
 21
421.198361
 31
0.0
210
0.0
220
0.0
230
1.0
  0
LINE
  5
374
100
AcDbEntity
  8
0
 62
     7
 48
0.21875
100
AcDbLine
 10
-109.77737
 20
420.198361
 30
0.0
 11
-101.02737
 21
420.198361
 31
0.0
210
0.0
220
0.0
230
1.0
  0
LINE
  5
375
100
AcDbEntity
  8
0
 62
     7
 48
0.025
100
AcDbLine
 10
-109.77737
 20
420.198361
 30
0.0
 11
-109.77737
 21
421.198361
 31
0.0
210
0.0
220
0.0
230
1.0
  0
LINE
  5
376
100
AcDbEntity
  8
0
 62
     7
 48
0.125
100
AcDbLine
 10
-119.27737
 20
421.198361
 30
0.0
 11
-119.27737
 21
426.198361
 31
0.0
210
0.0
220
0.0
230
1.0
  0
POLYLINE
  5
377
100
AcDbEntity
  8
0
 62
   150
100
AcDb2dPolyline
 66
     1
 10
0.0
 20
0.0
 30
0.0
 71
    13
  0
VERTEX
  5
378
100
AcDbEntity
  8
0
100
AcDbVertex
100
AcDb2dVertex
 10
-73.939068
 20
423.986396
 30
0.0
  0
VERTEX
  5
379
100
AcDbEntity
  8
0
100
AcDbVertex
100
AcDb2dVertex
 10
-73.972511
 20
424.020507
 30
0.0
  0
VERTEX
  5
37A
100
AcDbEntity
  8
0
100
AcDbVertex
100
AcDb2dVertex
 10
-74.007366
 20
424.053197
 30
0.0
  0
VERTEX
  5
37B
100
AcDbEntity
  8
0
100
AcDbVertex
100
AcDb2dVertex
 10
-74.04356
 20
424.084401
 30
0.0
  0
VERTEX
  5
37C
100
AcDbEntity
  8
0
100
AcDbVertex
100
AcDb2dVertex
 10
-74.081043
 20
424.114076
 30
0.0
  0
VERTEX
  5
37D
100
AcDbEntity
  8
0
100
AcDbVertex
100
AcDb2dVertex
 10
-74.159637
 20
424.168637
 30
0.0
  0
VERTEX
  5
37E
100
AcDbEntity
  8
0
100
AcDbVertex
100
AcDb2dVertex
 10
-74.242638
 20
424.216529
 30
0.0
  0
VERTEX
  5
37F
100
AcDbEntity
  8
0
100
AcDbVertex
100
AcDb2dVertex
 10
-74.329498
 20
424.25742
 30
0.0
  0
VERTEX
  5
380
100
AcDbEntity
  8
0
100
AcDbVertex
100
AcDb2dVertex
 10
-74.419624
 20
424.291024
 30
0.0
  0
VERTEX
  5
381
100
AcDbEntity
  8
0
100
AcDbVertex
100
AcDb2dVertex
 10
-74.512363
 20
424.317086
 30
0.0
  0
VERTEX
  5
382
100
AcDbEntity
  8
0
100
AcDbVertex
100
AcDb2dVertex
 10
-74.606991
 20
424.335393
 30
0.0
  0
VERTEX
  5
383
100
AcDbEntity
  8
0
100
AcDbVertex
100
AcDb2dVertex
 10
-74.702698
 20
424.345794
 30
0.0
  0
VERTEX
  5
384
100
AcDbEntity
  8
0
100
AcDbVertex
100
AcDb2dVertex
 10
-74.77737
 20
424.348361
 30
0.0
  0
SEQEND
  5
385
100
AcDbEntity
  8
0
  0
POLYLINE
  5
386
100
AcDbEntity
  8
0
 62
   150
100
AcDb2dPolyline
 66
     1
 10
0.0
 20
0.0
 30
0.0
 71
    20
  0
VERTEX
  5
387
100
AcDbEntity
  8
0
100
AcDbVertex
100
AcDb2dVertex
 10
-74.77737
 20
422.048362
 30
0.0
  0
VERTEX
  5
388
100
AcDbEntity
  8
0
100
AcDbVertex
100
AcDb2dVertex
 10
-74.72937
 20
422.049455
 30
0.0
  0
VERTEX
  5
389
100
AcDbEntity
  8
0
100
AcDbVertex
100
AcDb2dVertex
 10
-74.681297
 20
422.052558
 30
0.0
  0
VERTEX
  5
38A
100
AcDbEntity
  8
0
100
AcDbVertex
100
AcDb2dVertex
 10
-74.633339
 20
422.057664
 30
0.0
  0
VERTEX
  5
38B
100
AcDbEntity
  8
0
100
AcDbVertex
100
AcDb2dVertex
 10
-74.585529
 20
422.064773
 30
0.0
  0
VERTEX
  5
38C
100
AcDbEntity
  8
0
100
AcDbVertex
100
AcDb2dVertex
 10
-74.53809
 20
422.073852
 30
0.0
  0
VERTEX
  5
38D
100
AcDbEntity
  8
0
100
AcDbVertex
100
AcDb2dVertex
 10
-74.491013
 20
422.084907
 30
0.0
  0
VERTEX
  5
38E
100
AcDbEntity
  8
0
100
AcDbVertex
100
AcDb2dVertex
 10
-74.444515
 20
422.097884
 30
0.0
  0
VERTEX
  5
38F
100
AcDbEntity
  8
0
100
AcDbVertex
100
AcDb2dVertex
 10
-74.398571
 20
422.112792
 30
0.0
  0
VERTEX
  5
390
100
AcDbEntity
  8
0
100
AcDbVertex
100
AcDb2dVertex
 10
-74.35339
 20
422.129558
 30
0.0
  0
VERTEX
  5
391
100
AcDbEntity
  8
0
100
AcDbVertex
100
AcDb2dVertex
 10
-74.308941
 20
422.14819
 30
0.0
  0
VERTEX
  5
392
100
AcDbEntity
  8
0
100
AcDbVertex
100
AcDb2dVertex
 10
-74.265408
 20
422.168611
 30
0.0
  0
VERTEX
  5
393
100
AcDbEntity
  8
0
100
AcDbVertex
100
AcDb2dVertex
 10
-74.222775
 20
422.190825
 30
0.0
  0
VERTEX
  5
394
100
AcDbEntity
  8
0
100
AcDbVertex
100
AcDb2dVertex
 10
-74.181194
 20
422.214747
 30
0.0
  0
VERTEX
  5
395
100
AcDbEntity
  8
0
100
AcDbVertex
100
AcDb2dVertex
 10
-74.140663
 20
422.240378
 30
0.0
  0
VERTEX
  5
396
100
AcDbEntity
  8
0
100
AcDbVertex
100
AcDb2dVertex
 10
-74.101307
 20
422.267636
 30
0.0
  0
VERTEX
  5
397
100
AcDbEntity
  8
0
100
AcDbVertex
100
AcDb2dVertex
 10
-74.063137
 20
422.296504
 30
0.0
  0
VERTEX
  5
398
100
AcDbEntity
  8
0
100
AcDbVertex
100
AcDb2dVertex
 10
-74.026253
 20
422.326913
 30
0.0
  0
VERTEX
  5
399
100
AcDbEntity
  8
0
100
AcDbVertex
100
AcDb2dVertex
 10
-73.990685
 20
422.358827
 30
0.0
  0
VERTEX
  5
39A
100
AcDbEntity
  8
0
100
AcDbVertex
100
AcDb2dVertex
 10
-73.960957
 20
422.387681
 30
0.0
  0
SEQEND
  5
39B
100
AcDbEntity
  8
0
  0
LINE
  5
39C
100
AcDbEntity
  8
0
 62
     7
 48
0.025
100
AcDbLine
 10
-54.52737
 20
420.198361
 30
0.0
 11
-54.52737
 21
421.198361
 31
0.0
210
0.0
220
0.0
230
1.0
  0
LINE
  5
39D
100
AcDbEntity
  8
0
 62
     7
 48
0.025
100
AcDbLine
 10
-95.02737
 20
420.198361
 30
0.0
 11
-95.02737
 21
421.198361
 31
0.0
210
0.0
220
0.0
230
1.0
  0
LINE
  5
39E
100
AcDbEntity
  8
0
 62
     7
100
AcDbLine
 10
-95.02737
 20
420.198361
 30
0.0
 11
-54.52737
 21
420.198361
 31
0.0
210
0.0
220
0.0
230
1.0
  0
LINE
  5
39F
100
AcDbEntity
  8
0
 62
     7
 48
0.025
100
AcDbLine
 10
-48.52737
 20
420.198361
 30
0.0
 11
-48.52737
 21
421.198361
 31
0.0
210
0.0
220
0.0
230
1.0
  0
LINE
  5
3A0
100
AcDbEntity
  8
0
 62
     7
 48
0.21875
100
AcDbLine
 10
-48.52737
 20
420.198361
 30
0.0
 11
-39.77738
 21
420.198361
 31
0.0
210
0.0
220
0.0
230
1.0
  0
LINE
  5
3A1
100
AcDbEntity
  8
0
 62
     7
 48
0.025
100
AcDbLine
 10
-39.77738
 20
420.198361
 30
0.0
 11
-39.77738
 21
421.198361
 31
0.0
210
0.0
220
0.0
230
1.0
  0
LINE
  5
3A2
100
AcDbEntity
  8
0
 62
     7
100
AcDbLine
 10
-30.27738
 20
420.198361
 30
0.0
 11
-7.02737
 21
420.198361
 31
0.0
210
0.0
220
0.0
230
1.0
  0
LINE
  5
3A3
100
AcDbEntity
  8
0
 62
     7
 48
0.025
100
AcDbLine
 10
-30.27738
 20
420.198361
 30
0.0
 11
-30.27738
 21
421.198361
 31
0.0
210
0.0
220
0.0
230
1.0
  0
LINE
  5
3A4
100
AcDbEntity
  8
0
 62
     7
100
AcDbLine
 10
-142.52737
 20
420.198361
 30
0.0
 11
-119.27737
 21
420.198361
 31
0.0
210
0.0
220
0.0
230
1.0
  0
LINE
  5
3A5
100
AcDbEntity
  8
0
 62
     7
 48
0.025
100
AcDbLine
 10
-119.27737
 20
420.198361
 30
0.0
 11
-119.27737
 21
421.198361
 31
0.0
210
0.0
220
0.0
230
1.0
  0
LINE
  5
3A6
100
AcDbEntity
  8
0
 62
     7
 48
0.2375
100
AcDbLine
 10
-39.77738
 20
420.198361
 30
0.0
 11
-30.27738
 21
420.198361
 31
0.0
210
0.0
220
0.0
230
1.0
  0
LINE
  5
3A7
100
AcDbEntity
  8
0
 62
     7
 48
0.2375
100
AcDbLine
 10
-39.77738
 20
422.198361
 30
0.0
 11
-30.27738
 21
422.198361
 31
0.0
210
0.0
220
0.0
230
1.0
  0
CIRCLE
  5
3A8
100
AcDbEntity
  8
0
 62
     7
100
AcDbCircle
 10
-12.52738
 20
437.948361
 30
0.0
 40
1.8
210
0.0
220
0.0
230
1.0
  0
CIRCLE
  5
3A9
100
AcDbEntity
  8
0
 62
     7
100
AcDbCircle
 10
-137.02737
 20
437.948361
 30
0.0
 40
1.8
210
0.0
220
0.0
230
1.0
  0
LINE
  5
3AA
100
AcDbEntity
  8
0
 62
     7
 48
0.0125
100
AcDbLine
 10
-7.02737
 20
422.198361
 30
0.0
 11
-6.52737
 21
422.198361
 31
0.0
210
0.0
220
0.0
230
1.0
  0
LINE
  5
3AB
100
AcDbEntity
  8
0
 62
     7
 48
0.0375
100
AcDbLine
 10
-8.52737
 20
422.198361
 30
0.0
 11
-7.02737
 21
422.198361
 31
0.0
210
0.0
220
0.0
230
1.0
  0
ARC
  5
3AC
100
AcDbEntity
  8
0
 62
     7
100
AcDbCircle
 10
-49.52737
 20
420.698361
 30
0.0
 40
0.5
210
0.0
220
0.0
230
1.0
100
AcDbArc
 50
180.000005
 51
270.000001
  0
ARC
  5
3AD
100
AcDbEntity
  8
0
 62
     7
100
AcDbCircle
 10
-53.52737
 20
420.698361
 30
0.0
 40
0.5
210
0.0
220
0.0
230
1.0
100
AcDbArc
 50
270.000001
 51
360.0
  0
LINE
  5
3AE
100
AcDbEntity
  8
0
 62
     7
 48
0.025
100
AcDbLine
 10
-49.52737
 20
420.198361
 30
0.0
 11
-48.52737
 21
420.198361
 31
0.0
210
0.0
220
0.0
230
1.0
  0
LINE
  5
3AF
100
AcDbEntity
  8
0
 62
     7
 48
0.025
100
AcDbLine
 10
-54.52737
 20
420.198361
 30
0.0
 11
-53.52737
 21
420.198361
 31
0.0
210
0.0
220
0.0
230
1.0
  0
ARC
  5
3B0
100
AcDbEntity
  8
0
 62
     7
100
AcDbCircle
 10
-100.02737
 20
420.698361
 30
0.0
 40
0.5
210
0.0
220
0.0
230
1.0
100
AcDbArc
 50
270.000001
 51
360.0
  0
ARC
  5
3B1
100
AcDbEntity
  8
0
 62
     7
100
AcDbCircle
 10
-96.02737
 20
420.698361
 30
0.0
 40
0.5
210
0.0
220
0.0
230
1.0
100
AcDbArc
 50
180.000005
 51
270.000001
  0
LINE
  5
3B2
100
AcDbEntity
  8
0
 62
     7
 48
0.025
100
AcDbLine
 10
-96.02737
 20
420.198361
 30
0.0
 11
-95.02737
 21
420.198361
 31
0.0
210
0.0
220
0.0
230
1.0
  0
LINE
  5
3B3
100
AcDbEntity
  8
0
 62
     7
 48
0.025
100
AcDbLine
 10
-101.02737
 20
420.198361
 30
0.0
 11
-100.02737
 21
420.198361
 31
0.0
210
0.0
220
0.0
230
1.0
  0
ARC
  5
3B4
100
AcDbEntity
  8
0
 62
     7
100
AcDbCircle
 10
-45.02737
 20
427.198361
 30
0.0
 40
1.0
210
0.0
220
0.0
230
1.0
100
AcDbArc
 50
234.019602
 51
270.000001
  0
ARC
  5
3B5
100
AcDbEntity
  8
0
 62
     7
100
AcDbCircle
 10
-58.02737
 20
427.198361
 30
0.0
 40
1.0
210
0.0
220
0.0
230
1.0
100
AcDbArc
 50
270.000001
 51
305.980398
  0
LINE
  5
3B6
100
AcDbEntity
  8
0
 62
     7
 48
0.48
100
AcDbLine
 10
-5.02737
 20
426.198361
 30
0.0
 11
-5.02737
 21
445.398361
 31
0.0
210
0.0
220
0.0
230
1.0
  0
LINE
  5
3B7
100
AcDbEntity
  8
0
 62
     7
 48
0.0175
100
AcDbLine
 10
-5.02737
 20
477.198361
 30
0.0
 11
-5.02737
 21
477.898362
 31
0.0
210
0.0
220
0.0
230
1.0
  0
LINE
  5
3B8
100
AcDbEntity
  8
0
 62
     7
 48
0.48
100
AcDbLine
 10
-144.52737
 20
426.198361
 30
0.0
 11
-144.52737
 21
445.398361
 31
0.0
210
0.0
220
0.0
230
1.0
  0
LINE
  5
3B9
100
AcDbEntity
  8
0
 62
     7
 48
0.0175
100
AcDbLine
 10
-144.52737
 20
477.198361
 30
0.0
 11
-144.52737
 21
477.898362
 31
0.0
210
0.0
220
0.0
230
1.0
  0
ARC
  5
3BA
100
AcDbEntity
  8
0
 62
     7
100
AcDbCircle
 10
-91.52737
 20
427.198361
 30
0.0
 40
1.0
210
0.0
220
0.0
230
1.0
100
AcDbArc
 50
234.019602
 51
270.000001
  0
ARC
  5
3BB
100
AcDbEntity
  8
0
 62
     7
100
AcDbCircle
 10
-104.52737
 20
427.198361
 30
0.0
 40
1.0
210
0.0
220
0.0
230
1.0
100
AcDbArc
 50
270.000001
 51
305.980398
  0
CIRCLE
  5
3BC
100
AcDbEntity
  8
0
 62
     7
100
AcDbCircle
 10
-74.77737
 20
423.198361
 30
0.0
 40
1.15
210
0.0
220
0.0
230
1.0
  0
LINE
  5
3BD
100
AcDbEntity
  8
0
 62
     7
 48
0.0375
100
AcDbLine
 10
-6.52737
 20
426.198361
 30
0.0
 11
-5.02737
 21
426.198361
 31
0.0
210
0.0
220
0.0
230
1.0
  0
LINE
  5
3BE
100
AcDbEntity
  8
0
 62
     7
 48
0.0375
100
AcDbLine
 10
-8.02737
 20
425.198361
 30
0.0
 11
-6.52737
 21
425.198361
 31
0.0
210
0.0
220
0.0
230
1.0
  0
LINE
  5
3BF
100
AcDbEntity
  8
0
 62
     7
 48
0.0375
100
AcDbLine
 10
-144.52737
 20
426.198361
 30
0.0
 11
-143.02737
 21
426.198361
 31
0.0
210
0.0
220
0.0
230
1.0
  0
LINE
  5
3C0
100
AcDbEntity
  8
0
 62
     7
 48
0.0375
100
AcDbLine
 10
-143.02737
 20
425.198361
 30
0.0
 11
-141.52737
 21
425.198361
 31
0.0
210
0.0
220
0.0
230
1.0
  0
LINE
  5
3C1
100
AcDbEntity
  8
0
 62
     7
 48
0.0125
100
AcDbLine
 10
-143.02737
 20
422.198361
 30
0.0
 11
-142.52737
 21
422.198361
 31
0.0
210
0.0
220
0.0
230
1.0
  0
LINE
  5
3C2
100
AcDbEntity
  8
0
 62
     7
 48
0.0375
100
AcDbLine
 10
-142.52737
 20
422.198361
 30
0.0
 11
-141.02737
 21
422.198361
 31
0.0
210
0.0
220
0.0
230
1.0
  0
LINE
  5
3C3
100
AcDbEntity
  8
0
 62
     7
 48
0.15
100
AcDbLine
 10
-54.52737
 20
424.198361
 30
0.0
 11
-48.52737
 21
424.198361
 31
0.0
210
0.0
220
0.0
230
1.0
  0
LINE
  5
3C4
100
AcDbEntity
  8
0
 62
     7
 48
0.0375
100
AcDbLine
 10
-54.52737
 20
422.198361
 30
0.0
 11
-53.02737
 21
422.198361
 31
0.0
210
0.0
220
0.0
230
1.0
  0
LINE
  5
3C5
100
AcDbEntity
  8
0
 62
     7
 48
0.0375
100
AcDbLine
 10
-50.02737
 20
422.198361
 30
0.0
 11
-48.52737
 21
422.198361
 31
0.0
210
0.0
220
0.0
230
1.0
  0
LINE
  5
3C6
100
AcDbEntity
  8
0
 62
     7
 48
0.15
100
AcDbLine
 10
-101.02737
 20
424.198361
 30
0.0
 11
-95.02737
 21
424.198361
 31
0.0
210
0.0
220
0.0
230
1.0
  0
LINE
  5
3C7
100
AcDbEntity
  8
0
 62
     7
 48
0.0375
100
AcDbLine
 10
-96.52737
 20
422.198361
 30
0.0
 11
-95.02737
 21
422.198361
 31
0.0
210
0.0
220
0.0
230
1.0
  0
LINE
  5
3C8
100
AcDbEntity
  8
0
 62
     7
 48
0.0375
100
AcDbLine
 10
-101.02737
 20
422.198361
 30
0.0
 11
-99.52737
 21
422.198361
 31
0.0
210
0.0
220
0.0
230
1.0
  0
CIRCLE
  5
3C9
100
AcDbEntity
  8
0
 62
     7
100
AcDbCircle
 10
-51.52737
 20
434.698361
 30
0.0
 40
2.75
210
0.0
220
0.0
230
1.0
  0
CIRCLE
  5
3CA
100
AcDbEntity
  8
0
 62
     7
100
AcDbCircle
 10
-98.02737
 20
434.698361
 30
0.0
 40
2.75
210
0.0
220
0.0
230
1.0
  0
LINE
  5
3CB
100
AcDbEntity
  8
0
 62
     7
 48
0.1
100
AcDbLine
 10
-8.02737
 20
422.198361
 30
0.0
 11
-8.02737
 21
426.198361
 31
0.0
210
0.0
220
0.0
230
1.0
  0
LINE
  5
3CC
100
AcDbEntity
  8
0
 62
     7
 48
0.00625
100
AcDbLine
 10
-8.02737
 20
426.198361
 30
0.0
 11
-8.02737
 21
426.448361
 31
0.0
210
0.0
220
0.0
230
1.0
  0
LINE
  5
3CD
100
AcDbEntity
  8
0
 62
     7
 48
0.1
100
AcDbLine
 10
-141.52737
 20
422.198361
 30
0.0
 11
-141.52737
 21
426.198361
 31
0.0
210
0.0
220
0.0
230
1.0
  0
LINE
  5
3CE
100
AcDbEntity
  8
0
 62
     7
 48
0.00625
100
AcDbLine
 10
-141.52737
 20
426.198361
 30
0.0
 11
-141.52737
 21
426.448361
 31
0.0
210
0.0
220
0.0
230
1.0
  0
LINE
  5
3CF
100
AcDbEntity
  8
0
 62
     7
 48
0.0375
100
AcDbLine
 10
-53.02737
 20
420.698361
 30
0.0
 11
-53.02737
 21
422.198361
 31
0.0
210
0.0
220
0.0
230
1.0
  0
LINE
  5
3D0
100
AcDbEntity
  8
0
 62
     7
 48
0.0375
100
AcDbLine
 10
-50.02737
 20
420.698361
 30
0.0
 11
-50.02737
 21
422.198361
 31
0.0
210
0.0
220
0.0
230
1.0
  0
LINE
  5
3D1
100
AcDbEntity
  8
0
 62
     7
 48
0.0375
100
AcDbLine
 10
-99.52737
 20
420.698361
 30
0.0
 11
-99.52737
 21
422.198361
 31
0.0
210
0.0
220
0.0
230
1.0
  0
LINE
  5
3D2
100
AcDbEntity
  8
0
 62
     7
 48
0.0375
100
AcDbLine
 10
-96.52737
 20
420.698361
 30
0.0
 11
-96.52737
 21
422.198361
 31
0.0
210
0.0
220
0.0
230
1.0
  0
LINE
  5
3D3
100
AcDbEntity
  8
0
 62
     7
 48
0.025
100
AcDbLine
 10
-143.02737
 20
425.198361
 30
0.0
 11
-143.02737
 21
426.198361
 31
0.0
210
0.0
220
0.0
230
1.0
  0
LINE
  5
3D4
100
AcDbEntity
  8
0
 62
     7
 48
0.025
100
AcDbLine
 10
-6.52737
 20
425.198361
 30
0.0
 11
-6.52737
 21
426.198361
 31
0.0
210
0.0
220
0.0
230
1.0
  0
ARC
  5
3D5
100
AcDbEntity
  8
0
 62
     7
100
AcDbCircle
 10
-11.02737
 20
427.198361
 30
0.0
 40
1.0
210
0.0
220
0.0
230
1.0
100
AcDbArc
 50
270.000001
 51
305.980398
  0
CIRCLE
  5
3D6
100
AcDbEntity
  8
0
 62
     7
100
AcDbCircle
 10
-12.52738
 20
437.948361
 30
0.0
 40
1.3
210
0.0
220
0.0
230
1.0
  0
POLYLINE
  5
3D7
100
AcDbEntity
  8
0
 62
   150
100
AcDb2dPolyline
 66
     1
 10
0.0
 20
0.0
 30
0.0
 71
    22
  0
VERTEX
  5
3D8
100
AcDbEntity
  8
0
100
AcDbVertex
100
AcDb2dVertex
 10
-12.52738
 20
439.248362
 30
0.0
  0
VERTEX
  5
3D9
100
AcDbEntity
  8
0
100
AcDbVertex
100
AcDb2dVertex
 10
-12.476353
 20
439.247262
 30
0.0
  0
VERTEX
  5
3DA
100
AcDbEntity
  8
0
100
AcDbVertex
100
AcDb2dVertex
 10
-12.425242
 20
439.244153
 30
0.0
  0
VERTEX
  5
3DB
100
AcDbEntity
  8
0
100
AcDbVertex
100
AcDb2dVertex
 10
-12.374235
 20
439.239043
 30
0.0
  0
VERTEX
  5
3DC
100
AcDbEntity
  8
0
100
AcDbVertex
100
AcDb2dVertex
 10
-12.323358
 20
439.231928
 30
0.0
  0
VERTEX
  5
3DD
100
AcDbEntity
  8
0
100
AcDbVertex
100
AcDb2dVertex
 10
-12.272822
 20
439.222837
 30
0.0
  0
VERTEX
  5
3DE
100
AcDbEntity
  8
0
100
AcDbVertex
100
AcDb2dVertex
 10
-12.222616
 20
439.211765
 30
0.0
  0
VERTEX
  5
3DF
100
AcDbEntity
  8
0
100
AcDbVertex
100
AcDb2dVertex
 10
-12.172957
 20
439.198762
 30
0.0
  0
VERTEX
  5
3E0
100
AcDbEntity
  8
0
100
AcDbVertex
100
AcDb2dVertex
 10
-12.123812
 20
439.18382
 30
0.0
  0
VERTEX
  5
3E1
100
AcDbEntity
  8
0
100
AcDbVertex
100
AcDb2dVertex
 10
-12.075388
 20
439.167003
 30
0.0
  0
VERTEX
  5
3E2
100
AcDbEntity
  8
0
100
AcDbVertex
100
AcDb2dVertex
 10
-12.027651
 20
439.148301
 30
0.0
  0
VERTEX
  5
3E3
100
AcDbEntity
  8
0
100
AcDbVertex
100
AcDb2dVertex
 10
-11.980786
 20
439.127789
 30
0.0
  0
VERTEX
  5
3E4
100
AcDbEntity
  8
0
100
AcDbVertex
100
AcDb2dVertex
 10
-11.934768
 20
439.105459
 30
0.0
  0
VERTEX
  5
3E5
100
AcDbEntity
  8
0
100
AcDbVertex
100
AcDb2dVertex
 10
-11.889754
 20
439.081391
 30
0.0
  0
VERTEX
  5
3E6
100
AcDbEntity
  8
0
100
AcDbVertex
100
AcDb2dVertex
 10
-11.845733
 20
439.055582
 30
0.0
  0
VERTEX
  5
3E7
100
AcDbEntity
  8
0
100
AcDbVertex
100
AcDb2dVertex
 10
-11.802835
 20
439.028111
 30
0.0
  0
VERTEX
  5
3E8
100
AcDbEntity
  8
0
100
AcDbVertex
100
AcDb2dVertex
 10
-11.761065
 20
438.998985
 30
0.0
  0
VERTEX
  5
3E9
100
AcDbEntity
  8
0
100
AcDbVertex
100
AcDb2dVertex
 10
-11.720526
 20
438.968277
 30
0.0
  0
VERTEX
  5
3EA
100
AcDbEntity
  8
0
100
AcDbVertex
100
AcDb2dVertex
 10
-11.681242
 20
438.936009
 30
0.0
  0
VERTEX
  5
3EB
100
AcDbEntity
  8
0
100
AcDbVertex
100
AcDb2dVertex
 10
-11.643287
 20
438.902243
 30
0.0
  0
VERTEX
  5
3EC
100
AcDbEntity
  8
0
100
AcDbVertex
100
AcDb2dVertex
 10
-11.606705
 20
438.867021
 30
0.0
  0
VERTEX
  5
3ED
100
AcDbEntity
  8
0
100
AcDbVertex
100
AcDb2dVertex
 10
-11.604988
 20
438.865299
 30
0.0
  0
SEQEND
  5
3EE
100
AcDbEntity
  8
0
  0
POLYLINE
  5
3EF
100
AcDbEntity
  8
0
 62
   150
100
AcDb2dPolyline
 66
     1
 10
0.0
 20
0.0
 30
0.0
 71
    13
  0
VERTEX
  5
3F0
100
AcDbEntity
  8
0
100
AcDbVertex
100
AcDb2dVertex
 10
-13.448567
 20
438.866509
 30
0.0
  0
VERTEX
  5
3F1
100
AcDbEntity
  8
0
100
AcDbVertex
100
AcDb2dVertex
 10
-13.411999
 20
438.901757
 30
0.0
  0
VERTEX
  5
3F2
100
AcDbEntity
  8
0
100
AcDbVertex
100
AcDb2dVertex
 10
-13.374057
 20
438.935549
 30
0.0
  0
VERTEX
  5
3F3
100
AcDbEntity
  8
0
100
AcDbVertex
100
AcDb2dVertex
 10
-13.294297
 20
438.998548
 30
0.0
  0
VERTEX
  5
3F4
100
AcDbEntity
  8
0
100
AcDbVertex
100
AcDb2dVertex
 10
-13.209738
 20
439.055147
 30
0.0
  0
VERTEX
  5
3F5
100
AcDbEntity
  8
0
100
AcDbVertex
100
AcDb2dVertex
 10
-13.120862
 20
439.105016
 30
0.0
  0
VERTEX
  5
3F6
100
AcDbEntity
  8
0
100
AcDbVertex
100
AcDb2dVertex
 10
-13.028189
 20
439.147853
 30
0.0
  0
VERTEX
  5
3F7
100
AcDbEntity
  8
0
100
AcDbVertex
100
AcDb2dVertex
 10
-12.932281
 20
439.183386
 30
0.0
  0
VERTEX
  5
3F8
100
AcDbEntity
  8
0
100
AcDbVertex
100
AcDb2dVertex
 10
-12.833754
 20
439.211376
 30
0.0
  0
VERTEX
  5
3F9
100
AcDbEntity
  8
0
100
AcDbVertex
100
AcDb2dVertex
 10
-12.73329
 20
439.231625
 30
0.0
  0
VERTEX
  5
3FA
100
AcDbEntity
  8
0
100
AcDbVertex
100
AcDb2dVertex
 10
-12.631644
 20
439.243981
 30
0.0
  0
VERTEX
  5
3FB
100
AcDbEntity
  8
0
100
AcDbVertex
100
AcDb2dVertex
 10
-12.529659
 20
439.248355
 30
0.0
  0
VERTEX
  5
3FC
100
AcDbEntity
  8
0
100
AcDbVertex
100
AcDb2dVertex
 10
-12.52738
 20
439.248362
 30
0.0
  0
SEQEND
  5
3FD
100
AcDbEntity
  8
0
  0
POLYLINE
  5
3FE
100
AcDbEntity
  8
0
 62
   150
100
AcDb2dPolyline
 66
     1
 10
0.0
 20
0.0
 30
0.0
 71
    22
  0
VERTEX
  5
3FF
100
AcDbEntity
  8
0
100
AcDbVertex
100
AcDb2dVertex
 10
-12.52738
 20
436.648361
 30
0.0
  0
VERTEX
  5
400
100
AcDbEntity
  8
0
100
AcDbVertex
100
AcDb2dVertex
 10
-12.578408
 20
436.649461
 30
0.0
  0
VERTEX
  5
401
100
AcDbEntity
  8
0
100
AcDbVertex
100
AcDb2dVertex
 10
-12.629519
 20
436.652569
 30
0.0
  0
VERTEX
  5
402
100
AcDbEntity
  8
0
100
AcDbVertex
100
AcDb2dVertex
 10
-12.680526
 20
436.65768
 30
0.0
  0
VERTEX
  5
403
100
AcDbEntity
  8
0
100
AcDbVertex
100
AcDb2dVertex
 10
-12.731403
 20
436.664795
 30
0.0
  0
VERTEX
  5
404
100
AcDbEntity
  8
0
100
AcDbVertex
100
AcDb2dVertex
 10
-12.781938
 20
436.673886
 30
0.0
  0
VERTEX
  5
405
100
AcDbEntity
  8
0
100
AcDbVertex
100
AcDb2dVertex
 10
-12.832145
 20
436.684957
 30
0.0
  0
VERTEX
  5
406
100
AcDbEntity
  8
0
100
AcDbVertex
100
AcDb2dVertex
 10
-12.881804
 20
436.69796
 30
0.0
  0
VERTEX
  5
407
100
AcDbEntity
  8
0
100
AcDbVertex
100
AcDb2dVertex
 10
-12.930949
 20
436.712903
 30
0.0
  0
VERTEX
  5
408
100
AcDbEntity
  8
0
100
AcDbVertex
100
AcDb2dVertex
 10
-12.979372
 20
436.72972
 30
0.0
  0
VERTEX
  5
409
100
AcDbEntity
  8
0
100
AcDbVertex
100
AcDb2dVertex
 10
-13.02711
 20
436.748423
 30
0.0
  0
VERTEX
  5
40A
100
AcDbEntity
  8
0
100
AcDbVertex
100
AcDb2dVertex
 10
-13.073974
 20
436.768934
 30
0.0
  0
VERTEX
  5
40B
100
AcDbEntity
  8
0
100
AcDbVertex
100
AcDb2dVertex
 10
-13.119993
 20
436.791264
 30
0.0
  0
VERTEX
  5
40C
100
AcDbEntity
  8
0
100
AcDbVertex
100
AcDb2dVertex
 10
-13.165007
 20
436.815331
 30
0.0
  0
VERTEX
  5
40D
100
AcDbEntity
  8
0
100
AcDbVertex
100
AcDb2dVertex
 10
-13.209028
 20
436.841141
 30
0.0
  0
VERTEX
  5
40E
100
AcDbEntity
  8
0
100
AcDbVertex
100
AcDb2dVertex
 10
-13.251926
 20
436.868611
 30
0.0
  0
VERTEX
  5
40F
100
AcDbEntity
  8
0
100
AcDbVertex
100
AcDb2dVertex
 10
-13.293695
 20
436.897737
 30
0.0
  0
VERTEX
  5
410
100
AcDbEntity
  8
0
100
AcDbVertex
100
AcDb2dVertex
 10
-13.334235
 20
436.928446
 30
0.0
  0
VERTEX
  5
411
100
AcDbEntity
  8
0
100
AcDbVertex
100
AcDb2dVertex
 10
-13.373519
 20
436.960714
 30
0.0
  0
VERTEX
  5
412
100
AcDbEntity
  8
0
100
AcDbVertex
100
AcDb2dVertex
 10
-13.411474
 20
436.99448
 30
0.0
  0
VERTEX
  5
413
100
AcDbEntity
  8
0
100
AcDbVertex
100
AcDb2dVertex
 10
-13.448057
 20
437.029702
 30
0.0
  0
VERTEX
  5
414
100
AcDbEntity
  8
0
100
AcDbVertex
100
AcDb2dVertex
 10
-13.449772
 20
437.031424
 30
0.0
  0
SEQEND
  5
415
100
AcDbEntity
  8
0
  0
CIRCLE
  5
416
100
AcDbEntity
  8
0
 62
     7
100
AcDbCircle
 10
-137.02737
 20
437.948361
 30
0.0
 40
1.3
210
0.0
220
0.0
230
1.0
  0
POLYLINE
  5
417
100
AcDbEntity
  8
0
 62
   150
100
AcDb2dPolyline
 66
     1
 10
0.0
 20
0.0
 30
0.0
 71
    13
  0
VERTEX
  5
418
100
AcDbEntity
  8
0
100
AcDbVertex
100
AcDb2dVertex
 10
-137.948559
 20
437.030213
 30
0.0
  0
VERTEX
  5
419
100
AcDbEntity
  8
0
100
AcDbVertex
100
AcDb2dVertex
 10
-137.911991
 20
436.994966
 30
0.0
  0
VERTEX
  5
41A
100
AcDbEntity
  8
0
100
AcDbVertex
100
AcDb2dVertex
 10
-137.87405
 20
436.961174
 30
0.0
  0
VERTEX
  5
41B
100
AcDbEntity
  8
0
100
AcDbVertex
100
AcDb2dVertex
 10
-137.794285
 20
436.898175
 30
0.0
  0
VERTEX
  5
41C
100
AcDbEntity
  8
0
100
AcDbVertex
100
AcDb2dVertex
 10
-137.709728
 20
436.841576
 30
0.0
  0
VERTEX
  5
41D
100
AcDbEntity
  8
0
100
AcDbVertex
100
AcDb2dVertex
 10
-137.620853
 20
436.791707
 30
0.0
  0
VERTEX
  5
41E
100
AcDbEntity
  8
0
100
AcDbVertex
100
AcDb2dVertex
 10
-137.528179
 20
436.74887
 30
0.0
  0
VERTEX
  5
41F
100
AcDbEntity
  8
0
100
AcDbVertex
100
AcDb2dVertex
 10
-137.43227
 20
436.713337
 30
0.0
  0
VERTEX
  5
420
100
AcDbEntity
  8
0
100
AcDbVertex
100
AcDb2dVertex
 10
-137.333744
 20
436.685347
 30
0.0
  0
VERTEX
  5
421
100
AcDbEntity
  8
0
100
AcDbVertex
100
AcDb2dVertex
 10
-137.23328
 20
436.665098
 30
0.0
  0
VERTEX
  5
422
100
AcDbEntity
  8
0
100
AcDbVertex
100
AcDb2dVertex
 10
-137.131634
 20
436.652742
 30
0.0
  0
VERTEX
  5
423
100
AcDbEntity
  8
0
100
AcDbVertex
100
AcDb2dVertex
 10
-137.029652
 20
436.648368
 30
0.0
  0
VERTEX
  5
424
100
AcDbEntity
  8
0
100
AcDbVertex
100
AcDb2dVertex
 10
-137.02737
 20
436.648361
 30
0.0
  0
SEQEND
  5
425
100
AcDbEntity
  8
0
  0
LINE
  5
426
100
AcDbEntity
  8
0
 62
     7
 48
0.0025
100
AcDbLine
 10
-104.77737
 20
580.598355
 30
0.0
 11
-104.77737
 21
580.698361
 31
0.0
210
0.0
220
0.0
230
1.0
  0
LINE
  5
427
100
AcDbEntity
  8
0
 62
     7
 48
0.0025
100
AcDbLine
 10
-111.77737
 20
580.598355
 30
0.0
 11
-111.77737
 21
580.698361
 31
0.0
210
0.0
220
0.0
230
1.0
  0
LINE
  5
428
100
AcDbEntity
  8
0
 62
     7
 48
0.0025
100
AcDbLine
 10
-44.77737
 20
580.598355
 30
0.0
 11
-44.77737
 21
580.698361
 31
0.0
210
0.0
220
0.0
230
1.0
  0
LINE
  5
429
100
AcDbEntity
  8
0
 62
     7
 48
0.0025
100
AcDbLine
 10
-37.77737
 20
580.598355
 30
0.0
 11
-37.77737
 21
580.698361
 31
0.0
210
0.0
220
0.0
230
1.0
  0
LINE
  5
42A
100
AcDbEntity
  8
0
 62
     7
 48
0.0025
100
AcDbLine
 10
-37.77737
 20
478.698361
 30
0.0
 11
-37.77737
 21
478.79836
 31
0.0
210
0.0
220
0.0
230
1.0
  0
LINE
  5
42B
100
AcDbEntity
  8
0
 62
     7
 48
0.0025
100
AcDbLine
 10
-44.77737
 20
478.698361
 30
0.0
 11
-44.77737
 21
478.79836
 31
0.0
210
0.0
220
0.0
230
1.0
  0
LINE
  5
42C
100
AcDbEntity
  8
0
 62
     7
 48
0.0025
100
AcDbLine
 10
-104.77737
 20
478.698361
 30
0.0
 11
-104.77737
 21
478.79836
 31
0.0
210
0.0
220
0.0
230
1.0
  0
LINE
  5
42D
100
AcDbEntity
  8
0
 62
     7
 48
0.0025
100
AcDbLine
 10
-111.77737
 20
478.698361
 30
0.0
 11
-111.77737
 21
478.79836
 31
0.0
210
0.0
220
0.0
230
1.0
  0
LINE
  5
42E
100
AcDbEntity
  8
0
 62
     7
 48
0.000008
100
AcDbLine
 10
-75.352734
 20
622.998364
 30
0.0
 11
-75.352428
 21
622.998364
 31
0.0
210
0.0
220
0.0
230
1.0
  0
LINE
  5
42F
100
AcDbEntity
  8
0
 62
     7
 48
0.014375
100
AcDbLine
 10
-97.227367
 20
614.157041
 30
0.0
 11
-97.227367
 21
614.732022
 31
0.0
210
0.0
220
0.0
230
1.0
  0
ARC
  5
430
100
AcDbEntity
  8
0
 62
     7
100
AcDbCircle
 10
-98.02737
 20
610.698361
 30
0.0
 40
3.55
210
0.0
220
0.0
230
1.0
100
AcDbArc
 50
283.023587
 51
76.976416
  0
LINE
  5
431
100
AcDbEntity
  8
0
 62
     7
 48
0.014257
100
AcDbLine
 10
-97.227367
 20
606.669415
 30
0.0
 11
-97.227367
 21
607.239682
 31
0.0
210
0.0
220
0.0
230
1.0
  0
LINE
  5
432
100
AcDbEntity
  8
0
 62
     7
 48
0.0375
100
AcDbLine
 10
-98.02737
 20
606.448361
 30
0.0
 11
-98.02737
 21
607.948361
 31
0.0
210
0.0
220
0.0
230
1.0
  0
ARC
  5
433
100
AcDbEntity
  8
0
 62
     7
100
AcDbCircle
 10
-98.02737
 20
610.698361
 30
0.0
 40
2.75
210
0.0
220
0.0
230
1.0
100
AcDbArc
 50
270.000001
 51
90.000003
  0
LINE
  5
434
100
AcDbEntity
  8
0
 62
     7
 48
0.0375
100
AcDbLine
 10
-98.02737
 20
613.448361
 30
0.0
 11
-98.02737
 21
614.948361
 31
0.0
210
0.0
220
0.0
230
1.0
  0
ARC
  5
435
100
AcDbEntity
  8
0
 62
     7
100
AcDbCircle
 10
-95.52737
 20
624.198361
 30
0.0
 40
1.0
210
0.0
220
0.0
230
1.0
100
AcDbArc
 50
90.000003
 51
135.0
  0
ARC
  5
436
100
AcDbEntity
  8
0
 62
     7
100
AcDbCircle
 10
-51.52737
 20
610.698361
 30
0.0
 40
3.55
210
0.0
220
0.0
230
1.0
100
AcDbArc
 50
103.023582
 51
256.976415
  0
ARC
  5
437
100
AcDbEntity
  8
0
 62
     7
100
AcDbCircle
 10
-74.77737
 20
609.698377
 30
0.0
 40
12.149992
210
0.0
220
0.0
230
1.0
100
AcDbArc
 50
85.371026
 51
85.380472
  0
LINE
  5
438
100
AcDbEntity
  8
0
 62
     7
 48
0.000216
100
AcDbLine
 10
-74.194416
 20
622.998364
 30
0.0
 11
-74.18576
 21
622.998364
 31
0.0
210
0.0
220
0.0
230
1.0
  0
ARC
  5
439
100
AcDbEntity
  8
0
 62
     7
100
AcDbCircle
 10
-51.52737
 20
610.698361
 30
0.0
 40
2.75
210
0.0
220
0.0
230
1.0
100
AcDbArc
 50
90.000003
 51
270.000001
  0
LINE
  5
43A
100
AcDbEntity
  8
0
  6
DASHDOT
 62
     7
 48
0.205
100
AcDbLine
 10
-141.127392
 20
607.448361
 30
0.0
 11
-132.927387
 21
607.448361
 31
0.0
210
0.0
220
0.0
230
1.0
  0
LINE
  5
43B
100
AcDbEntity
  8
0
  6
DASHDOT
 62
     7
 48
0.205
100
AcDbLine
 10
-137.027393
 20
603.348355
 30
0.0
 11
-137.027393
 21
611.548367
 31
0.0
210
0.0
220
0.0
230
1.0
  0
LINE
  5
43C
100
AcDbEntity
  8
0
  6
DASHDOT
 62
     7
 48
0.3
100
AcDbLine
 10
-127.27737
 20
609.198361
 30
0.0
 11
-115.27737
 21
609.198361
 31
0.0
210
0.0
220
0.0
230
1.0
  0
LINE
  5
43D
100
AcDbEntity
  8
0
  6
DASHDOT
 62
     7
 48
0.3
100
AcDbLine
 10
-121.27737
 20
603.198361
 30
0.0
 11
-121.27737
 21
615.198361
 31
0.0
210
0.0
220
0.0
230
1.0
  0
LINE
  5
43E
100
AcDbEntity
  8
0
  6
DASHDOT
 62
     7
 48
0.3
100
AcDbLine
 10
-80.77737
 20
609.198361
 30
0.0
 11
-68.77737
 21
609.198361
 31
0.0
210
0.0
220
0.0
230
1.0
  0
LINE
  5
43F
100
AcDbEntity
  8
0
  6
DASHDOT
 62
     7
 48
0.2625
100
AcDbLine
 10
-56.77737
 20
610.698361
 30
0.0
 11
-46.27737
 21
610.698361
 31
0.0
210
0.0
220
0.0
230
1.0
  0
LINE
  5
440
100
AcDbEntity
  8
0
  6
DASHDOT
 62
     7
 48
0.2625
100
AcDbLine
 10
-103.27737
 20
610.698361
 30
0.0
 11
-92.77737
 21
610.698361
 31
0.0
210
0.0
220
0.0
230
1.0
  0
LINE
  5
441
100
AcDbEntity
  8
0
  6
DASHDOT
 62
     7
 48
0.2625
100
AcDbLine
 10
-98.02737
 20
605.448361
 30
0.0
 11
-98.02737
 21
615.948361
 31
0.0
210
0.0
220
0.0
230
1.0
  0
LINE
  5
442
100
AcDbEntity
  8
0
  6
DASHDOT
 62
     7
 48
0.205
100
AcDbLine
 10
-141.127392
 20
437.948361
 30
0.0
 11
-132.927387
 21
437.948361
 31
0.0
210
0.0
220
0.0
230
1.0
  0
LINE
  5
443
100
AcDbEntity
  8
0
  6
DASHDOT
 62
     7
 48
0.205
100
AcDbLine
 10
-137.02737
 20
433.848361
 30
0.0
 11
-137.02737
 21
442.048361
 31
0.0
210
0.0
220
0.0
230
1.0
  0
LINE
  5
444
100
AcDbEntity
  8
0
  6
DASHDOT
 62
     7
 48
0.205
100
AcDbLine
 10
-16.627391
 20
437.948361
 30
0.0
 11
-8.427391
 21
437.948361
 31
0.0
210
0.0
220
0.0
230
1.0
  0
LINE
  5
445
100
AcDbEntity
  8
0
  6
DASHDOT
 62
     7
 48
0.205
100
AcDbLine
 10
-12.52737
 20
433.848361
 30
0.0
 11
-12.52737
 21
442.048361
 31
0.0
210
0.0
220
0.0
230
1.0
  0
LINE
  5
446
100
AcDbEntity
  8
0
  6
DASHDOT
 62
     7
 48
0.15
100
AcDbLine
 10
-77.77737
 20
449.698361
 30
0.0
 11
-71.77737
 21
449.698361
 31
0.0
210
0.0
220
0.0
230
1.0
  0
LINE
  5
447
100
AcDbEntity
  8
0
  6
DASHDOT
 62
     7
 48
0.3
100
AcDbLine
 10
-80.77737
 20
436.198361
 30
0.0
 11
-68.77737
 21
436.198361
 31
0.0
210
0.0
220
0.0
230
1.0
  0
LINE
  5
448
100
AcDbEntity
  8
0
  6
DASHDOT
 62
     7
 48
0.2625
100
AcDbLine
 10
-56.77737
 20
434.698361
 30
0.0
 11
-46.27737
 21
434.698361
 31
0.0
210
0.0
220
0.0
230
1.0
  0
LINE
  5
449
100
AcDbEntity
  8
0
  6
DASHDOT
 62
     7
 48
0.2625
100
AcDbLine
 10
-51.52737
 20
429.448361
 30
0.0
 11
-51.52737
 21
439.948361
 31
0.0
210
0.0
220
0.0
230
1.0
  0
LINE
  5
44A
100
AcDbEntity
  8
0
  6
DASHDOT
 62
     7
 48
0.2625
100
AcDbLine
 10
-103.27737
 20
434.698361
 30
0.0
 11
-92.77737
 21
434.698361
 31
0.0
210
0.0
220
0.0
230
1.0
  0
LINE
  5
44B
100
AcDbEntity
  8
0
  6
DASHDOT
 62
     7
 48
0.2625
100
AcDbLine
 10
-98.02737
 20
429.448361
 30
0.0
 11
-98.02737
 21
439.948361
 31
0.0
210
0.0
220
0.0
230
1.0
  0
LINE
  5
44C
100
AcDbEntity
  8
0
  6
DASHDOT
 62
     7
 48
0.1075
100
AcDbLine
 10
-76.927372
 20
622.198361
 30
0.0
 11
-72.627369
 21
622.198361
 31
0.0
210
0.0
220
0.0
230
1.0
  0
LINE
  5
44D
100
AcDbEntity
  8
0
  6
DASHDOT
 62
     7
 48
0.1075
100
AcDbLine
 10
-74.77737
 20
620.048367
 30
0.0
 11
-74.77737
 21
624.348355
 31
0.0
210
0.0
220
0.0
230
1.0
  0
LINE
  5
44E
100
AcDbEntity
  8
0
  6
DASHDOT
 62
     7
 48
0.095
100
AcDbLine
 10
-41.06134
 20
459.898366
 30
0.0
 11
-37.26134
 21
459.898366
 31
0.0
210
0.0
220
0.0
230
1.0
  0
LINE
  5
44F
100
AcDbEntity
  8
0
  6
DASHDOT
 62
     7
 48
0.095
100
AcDbLine
 10
-39.161341
 20
457.998365
 30
0.0
 11
-39.161341
 21
461.798366
 31
0.0
210
0.0
220
0.0
230
1.0
  0
LINE
  5
450
100
AcDbEntity
  8
0
  6
DASHDOT
 62
     7
 48
0.095
100
AcDbLine
 10
-36.06134
 20
459.898366
 30
0.0
 11
-32.261341
 21
459.898366
 31
0.0
210
0.0
220
0.0
230
1.0
  0
LINE
  5
451
100
AcDbEntity
  8
0
  6
DASHDOT
 62
     7
 48
0.095
100
AcDbLine
 10
-34.161341
 20
457.998365
 30
0.0
 11
-34.161341
 21
461.798366
 31
0.0
210
0.0
220
0.0
230
1.0
  0
LINE
  5
452
100
AcDbEntity
  8
0
  6
DASHDOT
 62
     7
 48
0.0875
100
AcDbLine
 10
-72.27737
 20
449.698361
 30
0.0
 11
-68.77737
 21
449.698361
 31
0.0
210
0.0
220
0.0
230
1.0
  0
LINE
  5
453
100
AcDbEntity
  8
0
  6
DASHDOT
 62
     7
 48
0.0875
100
AcDbLine
 10
-70.52737
 20
447.948361
 30
0.0
 11
-70.52737
 21
451.448361
 31
0.0
210
0.0
220
0.0
230
1.0
  0
LINE
  5
454
100
AcDbEntity
  8
0
  6
DASHDOT
 62
     7
 48
0.0875
100
AcDbLine
 10
-80.77737
 20
449.698361
 30
0.0
 11
-77.27737
 21
449.698361
 31
0.0
210
0.0
220
0.0
230
1.0
  0
LINE
  5
455
100
AcDbEntity
  8
0
  6
DASHDOT
 62
     7
 48
0.0875
100
AcDbLine
 10
-79.02737
 20
447.948361
 30
0.0
 11
-79.02737
 21
451.448361
 31
0.0
210
0.0
220
0.0
230
1.0
  0
LINE
  5
456
100
AcDbEntity
  8
0
  6
DASHDOT
 62
     7
 48
0.1075
100
AcDbLine
 10
-76.927372
 20
423.198361
 30
0.0
 11
-72.627369
 21
423.198361
 31
0.0
210
0.0
220
0.0
230
1.0
  0
LINE
  5
457
100
AcDbEntity
  8
0
  6
DASHDOT
 62
     7
 48
0.1075
100
AcDbLine
 10
-74.77737
 20
421.048362
 30
0.0
 11
-74.77737
 21
425.348361
 31
0.0
210
0.0
220
0.0
230
1.0
  0
LINE
  5
458
100
AcDbEntity
  8
0
  6
DASHDOT
 62
     3
100
AcDbLine
 10
-196.118664
 20
522.698361
 30
0.0
 11
3.15843
 21
522.698361
 31
0.0
210
0.0
220
0.0
230
1.0
  0
LINE
  5
459
100
AcDbEntity
  8
0
  6
DASHDOT
 62
     7
 48
0.1875
100
AcDbLine
 10
-55.27737
 20
610.698361
 30
0.0
 11
-47.77737
 21
610.698361
 31
0.0
210
0.0
220
0.0
230
1.0
  0
LINE
  5
45A
100
AcDbEntity
  8
0
  6
DASHDOT
 62
     7
 48
0.1875
100
AcDbLine
 10
-55.27737
 20
610.698361
 30
0.0
 11
-47.77737
 21
610.698361
 31
0.0
210
0.0
220
0.0
230
1.0
  0
LINE
  5
45B
100
AcDbEntity
  8
0
 62
     7
100
AcDbLine
 10
-7.92737
 20
477.898362
 30
0.0
 11
-7.92737
 21
599.998364
 31
0.0
210
0.0
220
0.0
230
1.0
  0
LINE
  5
45C
100
AcDbEntity
  8
0
 62
     7
100
AcDbLine
 10
-5.02737
 20
477.898362
 30
0.0
 11
-5.02737
 21
599.998364
 31
0.0
210
0.0
220
0.0
230
1.0
  0
LINE
  5
45D
100
AcDbEntity
  8
0
 62
     7
 48
0.32
100
AcDbLine
 10
-19.227371
 20
587.198361
 30
0.0
 11
-19.227371
 21
599.998364
 31
0.0
210
0.0
220
0.0
230
1.0
  0
LINE
  5
45E
100
AcDbEntity
  8
0
 62
     7
 48
0.32
100
AcDbLine
 10
-18.727371
 20
587.198361
 30
0.0
 11
-18.727371
 21
599.998364
 31
0.0
210
0.0
220
0.0
230
1.0
  0
LINE
  5
45F
100
AcDbEntity
  8
0
 62
     7
 48
0.32
100
AcDbLine
 10
-21.02737
 20
587.198361
 30
0.0
 11
-21.02737
 21
599.998364
 31
0.0
210
0.0
220
0.0
230
1.0
  0
LINE
  5
460
100
AcDbEntity
  8
0
 62
     7
 48
0.32
100
AcDbLine
 10
-20.52737
 20
587.198361
 30
0.0
 11
-20.52737
 21
599.998364
 31
0.0
210
0.0
220
0.0
230
1.0
  0
LINE
  5
461
100
AcDbEntity
  8
0
 62
     7
100
AcDbLine
 10
-15.62737
 20
477.898362
 30
0.0
 11
-15.62737
 21
599.998364
 31
0.0
210
0.0
220
0.0
230
1.0
  0
LINE
  5
462
100
AcDbEntity
  8
0
 62
     7
100
AcDbLine
 10
-15.12737
 20
477.898362
 30
0.0
 11
-15.12737
 21
599.998364
 31
0.0
210
0.0
220
0.0
230
1.0
  0
LINE
  5
463
100
AcDbEntity
  8
0
 62
     7
 48
0.32
100
AcDbLine
 10
-17.427371
 20
587.198361
 30
0.0
 11
-17.427371
 21
599.998364
 31
0.0
210
0.0
220
0.0
230
1.0
  0
LINE
  5
464
100
AcDbEntity
  8
0
 62
     7
100
AcDbLine
 10
-16.927371
 20
477.898362
 30
0.0
 11
-16.927371
 21
599.998364
 31
0.0
210
0.0
220
0.0
230
1.0
  0
LINE
  5
465
100
AcDbEntity
  8
0
 62
     7
100
AcDbLine
 10
-12.02737
 20
477.898362
 30
0.0
 11
-12.02737
 21
599.998364
 31
0.0
210
0.0
220
0.0
230
1.0
  0
LINE
  5
466
100
AcDbEntity
  8
0
 62
     7
100
AcDbLine
 10
-11.52737
 20
477.898362
 30
0.0
 11
-11.52737
 21
599.998364
 31
0.0
210
0.0
220
0.0
230
1.0
  0
LINE
  5
467
100
AcDbEntity
  8
0
 62
     7
100
AcDbLine
 10
-13.827371
 20
477.898362
 30
0.0
 11
-13.827371
 21
599.998364
 31
0.0
210
0.0
220
0.0
230
1.0
  0
LINE
  5
468
100
AcDbEntity
  8
0
 62
     7
100
AcDbLine
 10
-13.327371
 20
477.898362
 30
0.0
 11
-13.327371
 21
599.998364
 31
0.0
210
0.0
220
0.0
230
1.0
  0
LINE
  5
469
100
AcDbEntity
  8
0
 62
     7
100
AcDbLine
 10
-8.42737
 20
477.898362
 30
0.0
 11
-8.42737
 21
599.998364
 31
0.0
210
0.0
220
0.0
230
1.0
  0
LINE
  5
46A
100
AcDbEntity
  8
0
 62
     7
100
AcDbLine
 10
-10.22737
 20
477.898362
 30
0.0
 11
-10.22737
 21
599.998364
 31
0.0
210
0.0
220
0.0
230
1.0
  0
LINE
  5
46B
100
AcDbEntity
  8
0
 62
     7
100
AcDbLine
 10
-9.72737
 20
477.898362
 30
0.0
 11
-9.72737
 21
599.998364
 31
0.0
210
0.0
220
0.0
230
1.0
  0
LINE
  5
46C
100
AcDbEntity
  8
0
 62
     7
 48
0.0125
100
AcDbLine
 10
-18.727371
 20
599.998364
 30
0.0
 11
-19.227371
 21
599.998364
 31
0.0
210
0.0
220
0.0
230
1.0
  0
LINE
  5
46D
100
AcDbEntity
  8
0
 62
     7
 48
0.0125
100
AcDbLine
 10
-20.52737
 20
599.998364
 30
0.0
 11
-21.02737
 21
599.998364
 31
0.0
210
0.0
220
0.0
230
1.0
  0
LINE
  5
46E
100
AcDbEntity
  8
0
 62
     7
 48
0.0125
100
AcDbLine
 10
-15.12737
 20
599.998364
 30
0.0
 11
-15.62737
 21
599.998364
 31
0.0
210
0.0
220
0.0
230
1.0
  0
LINE
  5
46F
100
AcDbEntity
  8
0
 62
     7
 48
0.0125
100
AcDbLine
 10
-16.927371
 20
599.998364
 30
0.0
 11
-17.427371
 21
599.998364
 31
0.0
210
0.0
220
0.0
230
1.0
  0
LINE
  5
470
100
AcDbEntity
  8
0
 62
     7
 48
0.0125
100
AcDbLine
 10
-11.52737
 20
599.998364
 30
0.0
 11
-12.02737
 21
599.998364
 31
0.0
210
0.0
220
0.0
230
1.0
  0
LINE
  5
471
100
AcDbEntity
  8
0
 62
     7
 48
0.0125
100
AcDbLine
 10
-13.327371
 20
599.998364
 30
0.0
 11
-13.827371
 21
599.998364
 31
0.0
210
0.0
220
0.0
230
1.0
  0
LINE
  5
472
100
AcDbEntity
  8
0
 62
     7
 48
0.0125
100
AcDbLine
 10
-7.92737
 20
599.998364
 30
0.0
 11
-8.42737
 21
599.998364
 31
0.0
210
0.0
220
0.0
230
1.0
  0
LINE
  5
473
100
AcDbEntity
  8
0
 62
     7
 48
0.0125
100
AcDbLine
 10
-9.72737
 20
599.998364
 30
0.0
 11
-10.22737
 21
599.998364
 31
0.0
210
0.0
220
0.0
230
1.0
  0
LINE
  5
474
100
AcDbEntity
  8
0
 62
     7
 48
0.0725
100
AcDbLine
 10
-5.02737
 20
599.998364
 30
0.0
 11
-7.92737
 21
599.998364
 31
0.0
210
0.0
220
0.0
230
1.0
  0
LINE
  5
475
100
AcDbEntity
  8
0
 62
     7
 48
0.0325
100
AcDbLine
 10
-19.227371
 20
599.998364
 30
0.0
 11
-20.52737
 21
599.998364
 31
0.0
210
0.0
220
0.0
230
1.0
  0
LINE
  5
476
100
AcDbEntity
  8
0
 62
     7
 48
0.0325
100
AcDbLine
 10
-12.02737
 20
599.998364
 30
0.0
 11
-13.327371
 21
599.998364
 31
0.0
210
0.0
220
0.0
230
1.0
  0
LINE
  5
477
100
AcDbEntity
  8
0
 62
     7
 48
0.0325
100
AcDbLine
 10
-13.827371
 20
599.998364
 30
0.0
 11
-15.12737
 21
599.998364
 31
0.0
210
0.0
220
0.0
230
1.0
  0
LINE
  5
478
100
AcDbEntity
  8
0
 62
     7
 48
0.0325
100
AcDbLine
 10
-15.62737
 20
599.998364
 30
0.0
 11
-16.927371
 21
599.998364
 31
0.0
210
0.0
220
0.0
230
1.0
  0
LINE
  5
479
100
AcDbEntity
  8
0
 62
     7
100
AcDbLine
 10
-21.02737
 20
599.998364
 30
0.0
 11
-98.02737
 21
599.998364
 31
0.0
210
0.0
220
0.0
230
1.0
  0
LINE
  5
47A
100
AcDbEntity
  8
0
 62
     7
 48
0.0325
100
AcDbLine
 10
-10.22737
 20
599.998364
 30
0.0
 11
-11.52737
 21
599.998364
 31
0.0
210
0.0
220
0.0
230
1.0
  0
LINE
  5
47B
100
AcDbEntity
  8
0
 62
     7
 48
0.0325
100
AcDbLine
 10
-17.427371
 20
599.998364
 30
0.0
 11
-18.727371
 21
599.998364
 31
0.0
210
0.0
220
0.0
230
1.0
  0
LINE
  5
47C
100
AcDbEntity
  8
0
 62
     7
 48
0.0325
100
AcDbLine
 10
-8.42737
 20
599.998364
 30
0.0
 11
-9.72737
 21
599.998364
 31
0.0
210
0.0
220
0.0
230
1.0
  0
LINE
  5
47D
100
AcDbEntity
  8
0
 62
     7
100
AcDbLine
 10
-8.02737
 20
600.698361
 30
0.0
 11
-98.02737
 21
600.698361
 31
0.0
210
0.0
220
0.0
230
1.0
  0
LINE
  5
47E
100
AcDbEntity
  8
0
 62
     7
100
AcDbLine
 10
-7.52737
 20
618.948361
 30
0.0
 11
-98.02737
 21
618.948361
 31
0.0
210
0.0
220
0.0
230
1.0
  0
LINE
  5
47F
100
AcDbEntity
  8
0
 62
     7
 48
0.0575
100
AcDbLine
 10
-5.72737
 20
600.698361
 30
0.0
 11
-8.02737
 21
600.698361
 31
0.0
210
0.0
220
0.0
230
1.0
  0
LINE
  5
480
100
AcDbEntity
  8
0
 62
     7
 48
0.025
100
AcDbLine
 10
-6.52737
 20
618.948361
 30
0.0
 11
-7.52737
 21
618.948361
 31
0.0
210
0.0
220
0.0
230
1.0
  0
CIRCLE
  5
481
100
AcDbEntity
  8
0
 62
     7
100
AcDbCircle
 10
-12.52737
 20
607.448361
 30
0.0
 40
3.1
210
0.0
220
0.0
230
1.0
  0
LINE
  5
482
100
AcDbEntity
  8
0
 62
     7
 48
0.0175
100
AcDbLine
 10
-5.72737
 20
599.998364
 30
0.0
 11
-5.72737
 21
600.698361
 31
0.0
210
0.0
220
0.0
230
1.0
  0
LINE
  5
483
100
AcDbEntity
  8
0
 62
     7
 48
0.45625
100
AcDbLine
 10
-6.52737
 20
600.698361
 30
0.0
 11
-6.52737
 21
618.948361
 31
0.0
210
0.0
220
0.0
230
1.0
  0
CIRCLE
  5
484
100
AcDbEntity
  8
0
 62
     7
100
AcDbCircle
 10
-12.52737
 20
607.448361
 30
0.0
 40
1.6
210
0.0
220
0.0
230
1.0
  0
CIRCLE
  5
485
100
AcDbEntity
  8
0
 62
     7
100
AcDbCircle
 10
-28.27737
 20
609.198361
 30
0.0
 40
5.0
210
0.0
220
0.0
230
1.0
  0
LINE
  5
486
100
AcDbEntity
  8
0
 62
     7
 48
0.054865
100
AcDbLine
 10
-51.52737
 20
606.448361
 30
0.0
 11
-53.642712
 21
607.032865
 31
0.0
210
0.0
220
0.0
230
1.0
  0
LINE
  5
487
100
AcDbEntity
  8
0
 62
     7
 48
0.054806
100
AcDbLine
 10
-53.649315
 20
614.374555
 30
0.0
 11
-55.188324
 21
612.813352
 31
0.0
210
0.0
220
0.0
230
1.0
  0
LINE
  5
488
100
AcDbEntity
  8
0
 62
     7
 48
0.054806
100
AcDbLine
 10
-47.866419
 20
608.583371
 30
0.0
 11
-49.405426
 21
607.022168
 31
0.0
210
0.0
220
0.0
230
1.0
  0
LINE
  5
489
100
AcDbEntity
  8
0
 62
     7
 48
0.054865
100
AcDbLine
 10
-49.412027
 20
614.363858
 30
0.0
 11
-51.52737
 21
614.948361
 31
0.0
210
0.0
220
0.0
230
1.0
  0
ARC
  5
48A
100
AcDbEntity
  8
0
 62
     7
100
AcDbCircle
 10
-51.52737
 20
610.698361
 30
0.0
 40
4.25
210
0.0
220
0.0
230
1.0
100
AcDbArc
 50
329.984252
 51
60.010895
  0
ARC
  5
48B
100
AcDbEntity
  8
0
 62
     7
100
AcDbCircle
 10
-51.52737
 20
610.698361
 30
0.0
 40
4.25
210
0.0
220
0.0
230
1.0
100
AcDbArc
 50
149.98426
 51
240.010907
  0
ARC
  5
48C
100
AcDbEntity
  8
0
 62
     7
100
AcDbCircle
 10
-51.527399
 20
610.698361
 30
0.0
 40
4.249999
210
0.0
220
0.0
230
1.0
100
AcDbArc
 50
89.99962
 51
119.993733
  0
ARC
  5
48D
100
AcDbEntity
  8
0
 62
     7
100
AcDbCircle
 10
-51.527342
 20
610.698361
 30
0.0
 40
4.249999
210
0.0
220
0.0
230
1.0
100
AcDbArc
 50
269.999618
 51
299.993738
  0
ARC
  5
48E
100
AcDbEntity
  8
0
 62
     7
100
AcDbCircle
 10
-7.527373
 20
624.198361
 30
0.0
 40
1.000004
210
0.0
220
0.0
230
1.0
100
AcDbArc
 50
0.000147
 51
89.999852
  0
ARC
  5
48F
100
AcDbEntity
  8
0
 62
     7
100
AcDbCircle
 10
-54.02737
 20
624.198361
 30
0.0
 40
1.0
210
0.0
220
0.0
230
1.0
100
AcDbArc
 50
0.0
 51
90.000003
  0
ARC
  5
490
100
AcDbEntity
  8
0
 62
     7
100
AcDbCircle
 10
-49.02737
 20
624.198361
 30
0.0
 40
1.0
210
0.0
220
0.0
230
1.0
100
AcDbArc
 50
90.000003
 51
180.000005
  0
LINE
  5
491
100
AcDbEntity
  8
0
 62
     7
 48
0.0375
100
AcDbLine
 10
-48.52737
 20
623.198361
 30
0.0
 11
-50.02737
 21
623.198361
 31
0.0
210
0.0
220
0.0
230
1.0
  0
LINE
  5
492
100
AcDbEntity
  8
0
 62
     7
 48
0.0375
100
AcDbLine
 10
-53.02737
 20
623.198361
 30
0.0
 11
-54.52737
 21
623.198361
 31
0.0
210
0.0
220
0.0
230
1.0
  0
CIRCLE
  5
493
100
AcDbEntity
  8
0
 62
     7
100
AcDbCircle
 10
-12.52737
 20
607.448361
 30
0.0
 40
1.5
210
0.0
220
0.0
230
1.0
  0
LINE
  5
494
100
AcDbEntity
  8
0
 62
     7
 48
0.00625
100
AcDbLine
 10
-8.02737
 20
618.948361
 30
0.0
 11
-8.02737
 21
619.198361
 31
0.0
210
0.0
220
0.0
230
1.0
  0
LINE
  5
495
100
AcDbEntity
  8
0
 62
     7
 48
0.025
100
AcDbLine
 10
-54.52737
 20
624.198361
 30
0.0
 11
-54.52737
 21
625.198361
 31
0.0
210
0.0
220
0.0
230
1.0
  0
LINE
  5
496
100
AcDbEntity
  8
0
 62
     7
 48
0.025
100
AcDbLine
 10
-53.02737
 20
623.198361
 30
0.0
 11
-53.02737
 21
624.198361
 31
0.0
210
0.0
220
0.0
230
1.0
  0
LINE
  5
497
100
AcDbEntity
  8
0
 62
     7
 48
0.025
100
AcDbLine
 10
-48.52737
 20
624.198361
 30
0.0
 11
-48.52737
 21
625.198361
 31
0.0
210
0.0
220
0.0
230
1.0
  0
LINE
  5
498
100
AcDbEntity
  8
0
 62
     7
 48
0.025
100
AcDbLine
 10
-50.02737
 20
623.198361
 30
0.0
 11
-50.02737
 21
624.198361
 31
0.0
210
0.0
220
0.0
230
1.0
  0
LINE
  5
499
100
AcDbEntity
  8
0
 62
     7
100
AcDbLine
 10
-54.52737
 20
625.198361
 30
0.0
 11
-95.02737
 21
625.198361
 31
0.0
210
0.0
220
0.0
230
1.0
  0
LINE
  5
49A
100
AcDbEntity
  8
0
 62
     7
100
AcDbLine
 10
-7.52737
 20
625.198361
 30
0.0
 11
-48.52737
 21
625.198361
 31
0.0
210
0.0
220
0.0
230
1.0
  0
LINE
  5
49B
100
AcDbEntity
  8
0
 62
     7
 48
0.0125
100
AcDbLine
 10
-48.52737
 20
625.198361
 30
0.0
 11
-49.02737
 21
625.198361
 31
0.0
210
0.0
220
0.0
230
1.0
  0
LINE
  5
49C
100
AcDbEntity
  8
0
 62
     7
 48
0.0125
100
AcDbLine
 10
-54.02737
 20
625.198361
 30
0.0
 11
-54.52737
 21
625.198361
 31
0.0
210
0.0
220
0.0
230
1.0
  0
LINE
  5
49D
100
AcDbEntity
  8
0
 62
     7
 48
0.15
100
AcDbLine
 10
-48.52737
 20
621.198361
 30
0.0
 11
-54.52737
 21
621.198361
 31
0.0
210
0.0
220
0.0
230
1.0
  0
LINE
  5
49E
100
AcDbEntity
  8
0
 62
     7
 48
0.1
100
AcDbLine
 10
-8.02737
 20
619.198361
 30
0.0
 11
-8.02737
 21
623.198361
 31
0.0
210
0.0
220
0.0
230
1.0
  0
LINE
  5
49F
100
AcDbEntity
  8
0
 62
     7
 48
0.075
100
AcDbLine
 10
-54.52737
 20
621.198361
 30
0.0
 11
-54.52737
 21
624.198361
 31
0.0
210
0.0
220
0.0
230
1.0
  0
LINE
  5
4A0
100
AcDbEntity
  8
0
 62
     7
 48
0.075
100
AcDbLine
 10
-48.52737
 20
621.198361
 30
0.0
 11
-48.52737
 21
624.198361
 31
0.0
210
0.0
220
0.0
230
1.0
  0
LINE
  5
4A1
100
AcDbEntity
  8
0
 62
     7
 48
0.0375
100
AcDbLine
 10
-5.02737
 20
619.198361
 30
0.0
 11
-6.52737
 21
619.198361
 31
0.0
210
0.0
220
0.0
230
1.0
  0
LINE
  5
4A2
100
AcDbEntity
  8
0
 62
     7
 48
0.025
100
AcDbLine
 10
-6.52737
 20
623.198361
 30
0.0
 11
-7.52737
 21
623.198361
 31
0.0
210
0.0
220
0.0
230
1.0
  0
LINE
  5
4A3
100
AcDbEntity
  8
0
 62
     7
 48
0.0125
100
AcDbLine
 10
-7.52737
 20
623.198361
 30
0.0
 11
-8.02737
 21
623.198361
 31
0.0
210
0.0
220
0.0
230
1.0
  0
LINE
  5
4A4
100
AcDbEntity
  8
0
 62
     7
 48
0.0375
100
AcDbLine
 10
-6.52737
 20
620.198361
 30
0.0
 11
-8.02737
 21
620.198361
 31
0.0
210
0.0
220
0.0
230
1.0
  0
LINE
  5
4A5
100
AcDbEntity
  8
0
 62
     7
 48
0.01716
100
AcDbLine
 10
-8.340963
 20
619.198361
 30
0.0
 11
-9.02737
 21
619.198361
 31
0.0
210
0.0
220
0.0
230
1.0
  0
LINE
  5
4A6
100
AcDbEntity
  8
0
 62
     7
100
AcDbLine
 10
-8.02737
 20
619.198361
 30
0.0
 11
-98.02737
 21
619.198361
 31
0.0
210
0.0
220
0.0
230
1.0
  0
LINE
  5
4A7
100
AcDbEntity
  8
0
 62
     7
 48
0.025
100
AcDbLine
 10
-6.52737
 20
623.198361
 30
0.0
 11
-6.52737
 21
624.198361
 31
0.0
210
0.0
220
0.0
230
1.0
  0
LINE
  5
4A8
100
AcDbEntity
  8
0
 62
     7
 48
0.025
100
AcDbLine
 10
-6.52737
 20
619.198361
 30
0.0
 11
-6.52737
 21
620.198361
 31
0.0
210
0.0
220
0.0
230
1.0
  0
LINE
  5
4A9
100
AcDbEntity
  8
0
 62
     7
 48
0.48
100
AcDbLine
 10
-5.02737
 20
599.998364
 30
0.0
 11
-5.02737
 21
619.198361
 31
0.0
210
0.0
220
0.0
230
1.0
  0
LINE
  5
4AA
100
AcDbEntity
  8
0
 62
     7
 48
0.014257
100
AcDbLine
 10
-50.727371
 20
614.157041
 30
0.0
 11
-50.727371
 21
614.727307
 31
0.0
210
0.0
220
0.0
230
1.0
  0
ARC
  5
4AB
100
AcDbEntity
  8
0
 62
     7
100
AcDbCircle
 10
-51.52737
 20
610.698361
 30
0.0
 40
3.55
210
0.0
220
0.0
230
1.0
100
AcDbArc
 50
283.023587
 51
76.976416
  0
LINE
  5
4AC
100
AcDbEntity
  8
0
 62
     7
 48
0.014375
100
AcDbLine
 10
-50.727371
 20
606.6647
 30
0.0
 11
-50.727371
 21
607.239682
 31
0.0
210
0.0
220
0.0
230
1.0
  0
LINE
  5
4AD
100
AcDbEntity
  8
0
 62
     7
 48
0.0375
100
AcDbLine
 10
-51.52737
 20
613.448361
 30
0.0
 11
-51.52737
 21
614.948361
 31
0.0
210
0.0
220
0.0
230
1.0
  0
LINE
  5
4AE
100
AcDbEntity
  8
0
 62
     7
 48
0.0375
100
AcDbLine
 10
-51.52737
 20
606.448361
 30
0.0
 11
-51.52737
 21
607.948361
 31
0.0
210
0.0
220
0.0
230
1.0
  0
ARC
  5
4AF
100
AcDbEntity
  8
0
 62
     7
100
AcDbCircle
 10
-51.52737
 20
610.698361
 30
0.0
 40
2.75
210
0.0
220
0.0
230
1.0
100
AcDbArc
 50
270.000001
 51
90.000003
  0
LINE
  5
4B0
100
AcDbEntity
  8
0
 62
     7
 48
0.014375
100
AcDbLine
 10
-52.32737
 20
614.157041
 30
0.0
 11
-52.32737
 21
614.732022
 31
0.0
210
0.0
220
0.0
230
1.0
  0
ARC
  5
4B1
100
AcDbEntity
  8
0
 62
     7
100
AcDbCircle
 10
-51.52737
 20
610.698361
 30
0.0
 40
3.55
210
0.0
220
0.0
230
1.0
100
AcDbArc
 50
103.023582
 51
256.976415
  0
LINE
  5
4B2
100
AcDbEntity
  8
0
 62
     7
 48
0.014257
100
AcDbLine
 10
-52.32737
 20
606.669415
 30
0.0
 11
-52.32737
 21
607.239682
 31
0.0
210
0.0
220
0.0
230
1.0
  0
LINE
  5
4B3
100
AcDbEntity
  8
0
 62
     7
 48
0.0375
100
AcDbLine
 10
-51.52737
 20
606.448361
 30
0.0
 11
-51.52737
 21
607.948361
 31
0.0
210
0.0
220
0.0
230
1.0
  0
ARC
  5
4B4
100
AcDbEntity
  8
0
 62
     7
100
AcDbCircle
 10
-51.52737
 20
610.698361
 30
0.0
 40
2.75
210
0.0
220
0.0
230
1.0
100
AcDbArc
 50
90.000003
 51
270.000001
  0
LINE
  5
4B5
100
AcDbEntity
  8
0
 62
     7
 48
0.0375
100
AcDbLine
 10
-51.52737
 20
613.448361
 30
0.0
 11
-51.52737
 21
614.948361
 31
0.0
210
0.0
220
0.0
230
1.0
  0
ARC
  5
4B6
100
AcDbEntity
  8
0
 62
     7
100
AcDbCircle
 10
-54.02737
 20
624.198361
 30
0.0
 40
1.0
210
0.0
220
0.0
230
1.0
100
AcDbArc
 50
45.0
 51
90.000003
  0
LINE
  5
4B7
100
AcDbEntity
  8
0
  6
DASHDOT
 62
     7
 48
0.205
100
AcDbLine
 10
-8.42735
 20
607.448361
 30
0.0
 11
-16.62735
 21
607.448361
 31
0.0
210
0.0
220
0.0
230
1.0
  0
LINE
  5
4B8
100
AcDbEntity
  8
0
  6
DASHDOT
 62
     7
 48
0.205
100
AcDbLine
 10
-12.52735
 20
603.348355
 30
0.0
 11
-12.52735
 21
611.548367
 31
0.0
210
0.0
220
0.0
230
1.0
  0
LINE
  5
4B9
100
AcDbEntity
  8
0
  6
DASHDOT
 62
     7
 48
0.3
100
AcDbLine
 10
-22.27737
 20
609.198361
 30
0.0
 11
-34.27737
 21
609.198361
 31
0.0
210
0.0
220
0.0
230
1.0
  0
LINE
  5
4BA
100
AcDbEntity
  8
0
  6
DASHDOT
 62
     7
 48
0.3
100
AcDbLine
 10
-28.27737
 20
603.198361
 30
0.0
 11
-28.27737
 21
615.198361
 31
0.0
210
0.0
220
0.0
230
1.0
  0
LINE
  5
4BB
100
AcDbEntity
  8
0
  6
DASHDOT
 62
     7
 48
0.2625
100
AcDbLine
 10
-46.27737
 20
610.698361
 30
0.0
 11
-56.77737
 21
610.698361
 31
0.0
210
0.0
220
0.0
230
1.0
  0
LINE
  5
4BC
100
AcDbEntity
  8
0
  6
DASHDOT
 62
     7
 48
0.2625
100
AcDbLine
 10
-51.52737
 20
605.448361
 30
0.0
 11
-51.52737
 21
615.948361
 31
0.0
210
0.0
220
0.0
230
1.0
  0
LINE
  5
4BD
100
AcDbEntity
  8
0
 62
     7
100
AcDbLine
 10
-17.27737
 20
587.198361
 30
0.0
 11
-17.27737
 21
472.198361
 31
0.0
210
0.0
220
0.0
230
1.0
  0
LINE
  5
4BE
100
AcDbEntity
  8
0
 62
     7
100
AcDbLine
 10
-17.27737
 20
472.198361
 30
0.0
 11
-132.27737
 21
472.198361
 31
0.0
210
0.0
220
0.0
230
1.0
  0
LINE
  5
4BF
100
AcDbEntity
  8
0
 62
     7
100
AcDbLine
 10
-132.27737
 20
587.198361
 30
0.0
 11
-132.27737
 21
472.198361
 31
0.0
210
0.0
220
0.0
230
1.0
  0
LINE
  5
4C0
100
AcDbEntity
  8
0
 62
     7
 48
0.038273
100
AcDbLine
 10
-131.194836
 20
473.280892
 30
0.0
 11
-132.27737
 21
472.198361
 31
0.0
210
0.0
220
0.0
230
1.0
  0
LINE
  5
4C1
100
AcDbEntity
  8
0
 62
     7
 48
0.038273
100
AcDbLine
 10
-131.194836
 20
586.115827
 30
0.0
 11
-132.27737
 21
587.198361
 31
0.0
210
0.0
220
0.0
230
1.0
  0
LINE
  5
4C2
100
AcDbEntity
  8
0
 62
     7
 48
0.038273
100
AcDbLine
 10
-130.761829
 20
473.713906
 30
0.0
 11
-129.679295
 21
474.796437
 31
0.0
210
0.0
220
0.0
230
1.0
  0
LINE
  5
4C3
100
AcDbEntity
  8
0
 62
     7
100
AcDbLine
 10
-129.679295
 20
474.796437
 30
0.0
 11
-129.679295
 21
584.600278
 31
0.0
210
0.0
220
0.0
230
1.0
  0
LINE
  5
4C4
100
AcDbEntity
  8
0
 62
     7
 48
0.038273
100
AcDbLine
 10
-130.761829
 20
585.682813
 30
0.0
 11
-129.679295
 21
584.600278
 31
0.0
210
0.0
220
0.0
230
1.0
  0
LINE
  5
4C5
100
AcDbEntity
  8
0
 62
     7
100
AcDbLine
 10
-19.875447
 20
474.796437
 30
0.0
 11
-19.875447
 21
584.600278
 31
0.0
210
0.0
220
0.0
230
1.0
  0
LINE
  5
4C6
100
AcDbEntity
  8
0
 62
     7
100
AcDbLine
 10
-19.875447
 20
584.600278
 30
0.0
 11
-129.679295
 21
584.600278
 31
0.0
210
0.0
220
0.0
230
1.0
  0
LINE
  5
4C7
100
AcDbEntity
  8
0
 62
     7
100
AcDbLine
 10
-19.875447
 20
474.796437
 30
0.0
 11
-129.679295
 21
474.796437
 31
0.0
210
0.0
220
0.0
230
1.0
  0
LINE
  5
4C8
100
AcDbEntity
  8
0
 62
     7
 48
0.038273
100
AcDbLine
 10
-18.792915
 20
473.713906
 30
0.0
 11
-19.875447
 21
474.796437
 31
0.0
210
0.0
220
0.0
230
1.0
  0
LINE
  5
4C9
100
AcDbEntity
  8
0
 62
     7
 48
0.038273
100
AcDbLine
 10
-18.792915
 20
585.682813
 30
0.0
 11
-19.875447
 21
584.600278
 31
0.0
210
0.0
220
0.0
230
1.0
  0
LINE
  5
4CA
100
AcDbEntity
  8
0
 62
     7
 48
0.038273
100
AcDbLine
 10
-17.27737
 20
472.198361
 30
0.0
 11
-18.359902
 21
473.280892
 31
0.0
210
0.0
220
0.0
230
1.0
  0
LINE
  5
4CB
100
AcDbEntity
  8
0
 62
     7
 48
0.038273
100
AcDbLine
 10
-18.359902
 20
586.115827
 30
0.0
 11
-17.27737
 21
587.198361
 31
0.0
210
0.0
220
0.0
230
1.0
  0
LINE
  5
4CC
100
AcDbEntity
  8
0
 62
     7
100
AcDbLine
 10
-17.27737
 20
587.198361
 30
0.0
 11
-132.27737
 21
587.198361
 31
0.0
210
0.0
220
0.0
230
1.0
  0
LINE
  5
4CD
100
AcDbEntity
  8
0
 62
     7
 48
0.007655
100
AcDbLine
 10
-131.194836
 20
473.280892
 30
0.0
 11
-130.978329
 21
473.497399
 31
0.0
210
0.0
220
0.0
230
1.0
  0
LINE
  5
4CE
100
AcDbEntity
  8
0
 62
     7
 48
0.007655
100
AcDbLine
 10
-130.978329
 20
473.497399
 30
0.0
 11
-130.761829
 21
473.713906
 31
0.0
210
0.0
220
0.0
230
1.0
  0
LINE
  5
4CF
100
AcDbEntity
  8
0
 62
     7
 48
0.007655
100
AcDbLine
 10
-130.978329
 20
585.89932
 30
0.0
 11
-130.761829
 21
585.682813
 31
0.0
210
0.0
220
0.0
230
1.0
  0
LINE
  5
4D0
100
AcDbEntity
  8
0
 62
     7
 48
0.007655
100
AcDbLine
 10
-130.978329
 20
585.89932
 30
0.0
 11
-131.194836
 21
586.115827
 31
0.0
210
0.0
220
0.0
230
1.0
  0
LINE
  5
4D1
100
AcDbEntity
  8
0
 62
     7
 48
0.007655
100
AcDbLine
 10
-18.792915
 20
585.682813
 30
0.0
 11
-18.576409
 21
585.89932
 31
0.0
210
0.0
220
0.0
230
1.0
  0
LINE
  5
4D2
100
AcDbEntity
  8
0
 62
     7
 48
0.007655
100
AcDbLine
 10
-18.576409
 20
585.89932
 30
0.0
 11
-18.359902
 21
586.115827
 31
0.0
210
0.0
220
0.0
230
1.0
  0
LINE
  5
4D3
100
AcDbEntity
  8
0
 62
     7
 48
0.007655
100
AcDbLine
 10
-18.792915
 20
473.713906
 30
0.0
 11
-18.576409
 21
473.497399
 31
0.0
210
0.0
220
0.0
230
1.0
  0
LINE
  5
4D4
100
AcDbEntity
  8
0
 62
     7
 48
0.007655
100
AcDbLine
 10
-18.359902
 20
473.280892
 30
0.0
 11
-18.576409
 21
473.497399
 31
0.0
210
0.0
220
0.0
230
1.0
  0
LINE
  5
4D5
100
AcDbEntity
  8
0
 62
     7
100
AcDbLine
 10
-17.27737
 20
587.198361
 30
0.0
 11
-132.27737
 21
587.198361
 31
0.0
210
0.0
220
0.0
230
1.0
  0
LINE
  5
4D6
100
AcDbEntity
  8
0
 62
     7
100
AcDbLine
 10
-17.27737
 20
472.198361
 30
0.0
 11
-17.27737
 21
587.198361
 31
0.0
210
0.0
220
0.0
230
1.0
  0
ARC
  5
4D7
100
AcDbEntity
  8
0
  6
DASHSPACE
 62
     7
100
AcDbCircle
 10
-188.52737
 20
624.198361
 30
0.0
 40
1.000004
210
0.0
220
0.0
230
1.0
100
AcDbArc
 50
90.000146
 51
179.999855
  0
LINE
  5
4D8
100
AcDbEntity
  8
0
  6
DASHSPACE
 62
     7
 48
0.075
100
AcDbLine
 10
-188.02737
 20
620.198361
 30
0.0
 11
-188.02737
 21
623.198361
 31
0.0
210
0.0
220
0.0
230
1.0
  0
LINE
  5
4D9
100
AcDbEntity
  8
0
  6
DASHSPACE
 62
     7
 48
0.0375
100
AcDbLine
 10
-191.02737
 20
619.198361
 30
0.0
 11
-189.52737
 21
619.198361
 31
0.0
210
0.0
220
0.0
230
1.0
  0
LINE
  5
4DA
100
AcDbEntity
  8
0
  6
DASHSPACE
 62
     7
 48
0.025
100
AcDbLine
 10
-189.52737
 20
623.198361
 30
0.0
 11
-188.52737
 21
623.198361
 31
0.0
210
0.0
220
0.0
230
1.0
  0
LINE
  5
4DB
100
AcDbEntity
  8
0
  6
DASHSPACE
 62
     7
 48
0.0125
100
AcDbLine
 10
-188.52737
 20
623.198361
 30
0.0
 11
-188.02737
 21
623.198361
 31
0.0
210
0.0
220
0.0
230
1.0
  0
LINE
  5
4DC
100
AcDbEntity
  8
0
  6
DASHSPACE
 62
     7
 48
0.0375
100
AcDbLine
 10
-189.52737
 20
620.198361
 30
0.0
 11
-188.02737
 21
620.198361
 31
0.0
210
0.0
220
0.0
230
1.0
  0
LINE
  5
4DD
100
AcDbEntity
  8
0
  6
DASHSPACE
 62
     7
 48
0.025
100
AcDbLine
 10
-189.52737
 20
623.198361
 30
0.0
 11
-189.52737
 21
624.198361
 31
0.0
210
0.0
220
0.0
230
1.0
  0
LINE
  5
4DE
100
AcDbEntity
  8
0
  6
DASHSPACE
 62
     7
 48
0.025
100
AcDbLine
 10
-189.52737
 20
619.198361
 30
0.0
 11
-189.52737
 21
620.198361
 31
0.0
210
0.0
220
0.0
230
1.0
  0
LINE
  5
4DF
100
AcDbEntity
  8
0
  6
DASHSPACE
 62
     7
100
AcDbLine
 10
-191.02737
 20
426.198361
 30
0.0
 11
-191.02737
 21
619.198361
 31
0.0
210
0.0
220
0.0
230
1.0
  0
ARC
  5
4E0
100
AcDbEntity
  8
0
  6
DASHSPACE
 62
     7
100
AcDbCircle
 10
-189.02737
 20
420.698361
 30
0.0
 40
0.5
210
0.0
220
0.0
230
1.0
100
AcDbArc
 50
180.000005
 51
270.000001
  0
LINE
  5
4E1
100
AcDbEntity
  8
0
  6
DASHSPACE
 62
     7
 48
0.0125
100
AcDbLine
 10
-189.52737
 20
420.698361
 30
0.0
 11
-189.52737
 21
421.198361
 31
0.0
210
0.0
220
0.0
230
1.0
  0
LINE
  5
4E2
100
AcDbEntity
  8
0
  6
DASHSPACE
 62
     7
 48
0.025
100
AcDbLine
 10
-189.52737
 20
421.198361
 30
0.0
 11
-189.52737
 21
422.198361
 31
0.0
210
0.0
220
0.0
230
1.0
  0
LINE
  5
4E3
100
AcDbEntity
  8
0
  6
DASHSPACE
 62
     7
 48
0.0375
100
AcDbLine
 10
-191.02737
 20
426.198361
 30
0.0
 11
-189.52737
 21
426.198361
 31
0.0
210
0.0
220
0.0
230
1.0
  0
LINE
  5
4E4
100
AcDbEntity
  8
0
  6
DASHSPACE
 62
     7
 48
0.0375
100
AcDbLine
 10
-189.52737
 20
425.198361
 30
0.0
 11
-188.02737
 21
425.198361
 31
0.0
210
0.0
220
0.0
230
1.0
  0
LINE
  5
4E5
100
AcDbEntity
  8
0
  6
DASHSPACE
 62
     7
 48
0.0125
100
AcDbLine
 10
-189.52737
 20
422.198361
 30
0.0
 11
-189.02737
 21
422.198361
 31
0.0
210
0.0
220
0.0
230
1.0
  0
LINE
  5
4E6
100
AcDbEntity
  8
0
  6
DASHSPACE
 62
     7
 48
0.025
100
AcDbLine
 10
-189.02737
 20
422.198361
 30
0.0
 11
-188.02737
 21
422.198361
 31
0.0
210
0.0
220
0.0
230
1.0
  0
LINE
  5
4E7
100
AcDbEntity
  8
0
  6
DASHSPACE
 62
     7
 48
0.075
100
AcDbLine
 10
-188.02737
 20
422.198361
 30
0.0
 11
-188.02737
 21
425.198361
 31
0.0
210
0.0
220
0.0
230
1.0
  0
LINE
  5
4E8
100
AcDbEntity
  8
0
  6
DASHSPACE
 62
     7
 48
0.025
100
AcDbLine
 10
-189.52737
 20
425.198361
 30
0.0
 11
-189.52737
 21
426.198361
 31
0.0
210
0.0
220
0.0
230
1.0
  0
LINE
  5
4E9
100
AcDbEntity
  8
0
  6
DASHSPACE
 62
     7
100
AcDbLine
 10
-189.02737
 20
420.198361
 30
0.0
 11
-142.967068
 21
420.198361
 31
0.0
210
0.0
220
0.0
230
1.0
  0
LINE
  5
4EA
100
AcDbEntity
  8
0
  6
DASHSPACE
 62
     7
100
AcDbLine
 10
-188.52737
 20
625.198361
 30
0.0
 11
-138.977962
 21
625.198361
 31
0.0
210
0.0
220
0.0
230
1.0
  0
CIRCLE
  5
4EB
100
AcDbEntity
  8
0
  6
DASHSPACE
 62
     7
100
AcDbCircle
 10
-167.77737
 20
609.198361
 30
0.0
 40
5.0
210
0.0
220
0.0
230
1.0
  0
CIRCLE
  5
4EC
100
AcDbEntity
  8
0
  6
DASHSPACE
 62
     7
100
AcDbCircle
 10
-167.77737
 20
436.198361
 30
0.0
 40
5.0
210
0.0
220
0.0
230
1.0
  0
CIRCLE
  5
4ED
100
AcDbEntity
  8
0
 62
     7
100
AcDbCircle
 10
-118.77737
 20
510.198361
 30
0.0
 40
3.0
210
0.0
220
0.0
230
1.0
  0
CIRCLE
  5
4EE
100
AcDbEntity
  8
0
 62
     7
100
AcDbCircle
 10
-118.77737
 20
510.198361
 30
0.0
 40
1.75
210
0.0
220
0.0
230
1.0
  0
LINE
  5
4EF
100
AcDbEntity
  8
0
 62
     7
 48
0.125
100
AcDbLine
 10
-119.27737
 20
544.698361
 30
0.0
 11
-119.27737
 21
539.698361
 31
0.0
210
0.0
220
0.0
230
1.0
  0
LINE
  5
4F0
100
AcDbEntity
  8
0
 62
     7
 48
0.025
100
AcDbLine
 10
-118.27737
 20
539.698361
 30
0.0
 11
-119.27737
 21
539.698361
 31
0.0
210
0.0
220
0.0
230
1.0
  0
LINE
  5
4F1
100
AcDbEntity
  8
0
 62
     7
 48
0.125
100
AcDbLine
 10
-118.27737
 20
539.698361
 30
0.0
 11
-118.27737
 21
544.698361
 31
0.0
210
0.0
220
0.0
230
1.0
  0
LINE
  5
4F2
100
AcDbEntity
  8
0
 62
     7
 48
0.025
100
AcDbLine
 10
-119.27737
 20
544.698361
 30
0.0
 11
-118.27737
 21
544.698361
 31
0.0
210
0.0
220
0.0
230
1.0
  0
CIRCLE
  5
4F3
100
AcDbEntity
  8
0
 62
     7
100
AcDbCircle
 10
-32.77737
 20
509.698361
 30
0.0
 40
1.75
210
0.0
220
0.0
230
1.0
  0
CIRCLE
  5
4F4
100
AcDbEntity
  8
0
 62
     7
100
AcDbCircle
 10
-32.77737
 20
509.698361
 30
0.0
 40
1.0
210
0.0
220
0.0
230
1.0
  0
LINE
  5
4F5
100
AcDbEntity
  8
0
 62
     7
100
AcDbLine
 10
-123.77737
 20
576.698361
 30
0.0
 11
-123.77737
 21
482.698361
 31
0.0
210
0.0
220
0.0
230
1.0
  0
ARC
  5
4F6
100
AcDbEntity
  8
0
 62
     7
100
AcDbCircle
 10
-121.77737
 20
482.698361
 30
0.0
 40
2.0
210
0.0
220
0.0
230
1.0
100
AcDbArc
 50
180.000005
 51
270.000001
  0
LINE
  5
4F7
100
AcDbEntity
  8
0
 62
     7
100
AcDbLine
 10
-27.77737
 20
480.698361
 30
0.0
 11
-121.77737
 21
480.698361
 31
0.0
210
0.0
220
0.0
230
1.0
  0
ARC
  5
4F8
100
AcDbEntity
  8
0
 62
     7
100
AcDbCircle
 10
-27.77737
 20
482.698361
 30
0.0
 40
2.0
210
0.0
220
0.0
230
1.0
100
AcDbArc
 50
270.000001
 51
360.0
  0
LINE
  5
4F9
100
AcDbEntity
  8
0
 62
     7
100
AcDbLine
 10
-25.77737
 20
482.698361
 30
0.0
 11
-25.77737
 21
576.698361
 31
0.0
210
0.0
220
0.0
230
1.0
  0
ARC
  5
4FA
100
AcDbEntity
  8
0
 62
     7
100
AcDbCircle
 10
-27.77737
 20
576.698361
 30
0.0
 40
2.0
210
0.0
220
0.0
230
1.0
100
AcDbArc
 50
0.0
 51
90.000003
  0
LINE
  5
4FB
100
AcDbEntity
  8
0
 62
     7
100
AcDbLine
 10
-121.77737
 20
578.698361
 30
0.0
 11
-27.77737
 21
578.698361
 31
0.0
210
0.0
220
0.0
230
1.0
  0
ARC
  5
4FC
100
AcDbEntity
  8
0
 62
     7
100
AcDbCircle
 10
-121.77737
 20
576.698361
 30
0.0
 40
2.0
210
0.0
220
0.0
230
1.0
100
AcDbArc
 50
90.000003
 51
180.000005
  0
POLYLINE
  5
4FD
100
AcDbEntity
  8
0
 62
    94
100
AcDb2dPolyline
 66
     1
 10
0.0
 20
0.0
 30
0.0
 70
     1
 71
   193
  0
VERTEX
  5
4FE
100
AcDbEntity
  8
0
100
AcDbVertex
100
AcDb2dVertex
 10
-34.02737
 20
506.698411
 30
0.0
  0
VERTEX
  5
4FF
100
AcDbEntity
  8
0
100
AcDbVertex
100
AcDb2dVertex
 10
-34.310077
 20
506.694413
 30
0.0
  0
VERTEX
  5
500
100
AcDbEntity
  8
0
100
AcDbVertex
100
AcDb2dVertex
 10
-34.451062
 20
506.68942
 30
0.0
  0
VERTEX
  5
501
100
AcDbEntity
  8
0
100
AcDbVertex
100
AcDb2dVertex
 10
-34.591709
 20
506.682435
 30
0.0
  0
VERTEX
  5
502
100
AcDbEntity
  8
0
100
AcDbVertex
100
AcDb2dVertex
 10
-34.731654
 20
506.673486
 30
0.0
  0
VERTEX
  5
503
100
AcDbEntity
  8
0
100
AcDbVertex
100
AcDb2dVertex
 10
-34.871037
 20
506.662564
 30
0.0
  0
VERTEX
  5
504
100
AcDbEntity
  8
0
100
AcDbVertex
100
AcDb2dVertex
 10
-35.009336
 20
506.649724
 30
0.0
  0
VERTEX
  5
505
100
AcDbEntity
  8
0
100
AcDbVertex
100
AcDb2dVertex
 10
-35.146857
 20
506.634942
 30
0.0
  0
VERTEX
  5
506
100
AcDbEntity
  8
0
100
AcDbVertex
100
AcDb2dVertex
 10
-35.282925
 20
506.618306
 30
0.0
  0
VERTEX
  5
507
100
AcDbEntity
  8
0
100
AcDbVertex
100
AcDb2dVertex
 10
-35.418006
 20
506.599771
 30
0.0
  0
VERTEX
  5
508
100
AcDbEntity
  8
0
100
AcDbVertex
100
AcDb2dVertex
 10
-35.551283
 20
506.579465
 30
0.0
  0
VERTEX
  5
509
100
AcDbEntity
  8
0
100
AcDbVertex
100
AcDb2dVertex
 10
-35.683376
 20
506.557313
 30
0.0
  0
VERTEX
  5
50A
100
AcDbEntity
  8
0
100
AcDbVertex
100
AcDb2dVertex
 10
-35.813339
 20
506.533486
 30
0.0
  0
VERTEX
  5
50B
100
AcDbEntity
  8
0
100
AcDbVertex
100
AcDb2dVertex
 10
-35.941933
 20
506.507874
 30
0.0
  0
VERTEX
  5
50C
100
AcDbEntity
  8
0
100
AcDbVertex
100
AcDb2dVertex
 10
-36.068094
 20
506.480702
 30
0.0
  0
VERTEX
  5
50D
100
AcDbEntity
  8
0
100
AcDbVertex
100
AcDb2dVertex
 10
-36.192716
 20
506.451814
 30
0.0
  0
VERTEX
  5
50E
100
AcDbEntity
  8
0
100
AcDbVertex
100
AcDb2dVertex
 10
-36.314636
 20
506.421494
 30
0.0
  0
VERTEX
  5
50F
100
AcDbEntity
  8
0
100
AcDbVertex
100
AcDb2dVertex
 10
-36.434861
 20
506.389527
 30
0.0
  0
VERTEX
  5
510
100
AcDbEntity
  8
0
100
AcDbVertex
100
AcDb2dVertex
 10
-36.552148
 20
506.356275
 30
0.0
  0
VERTEX
  5
511
100
AcDbEntity
  8
0
100
AcDbVertex
100
AcDb2dVertex
 10
-36.667598
 20
506.32145
 30
0.0
  0
VERTEX
  5
512
100
AcDbEntity
  8
0
100
AcDbVertex
100
AcDb2dVertex
 10
-36.779909
 20
506.285485
 30
0.0
  0
VERTEX
  5
513
100
AcDbEntity
  8
0
100
AcDbVertex
100
AcDb2dVertex
 10
-36.890262
 20
506.248036
 30
0.0
  0
VERTEX
  5
514
100
AcDbEntity
  8
0
100
AcDbVertex
100
AcDb2dVertex
 10
-36.99731
 20
506.209596
 30
0.0
  0
VERTEX
  5
515
100
AcDbEntity
  8
0
100
AcDbVertex
100
AcDb2dVertex
 10
-37.102293
 20
506.169759
 30
0.0
  0
VERTEX
  5
516
100
AcDbEntity
  8
0
100
AcDbVertex
100
AcDb2dVertex
 10
-37.203842
 20
506.129086
 30
0.0
  0
VERTEX
  5
517
100
AcDbEntity
  8
0
100
AcDbVertex
100
AcDb2dVertex
 10
-37.30324
 20
506.087106
 30
0.0
  0
VERTEX
  5
518
100
AcDbEntity
  8
0
100
AcDbVertex
100
AcDb2dVertex
 10
-37.399111
 20
506.044446
 30
0.0
  0
VERTEX
  5
519
100
AcDbEntity
  8
0
100
AcDbVertex
100
AcDb2dVertex
 10
-37.49276
 20
506.000569
 30
0.0
  0
VERTEX
  5
51A
100
AcDbEntity
  8
0
100
AcDbVertex
100
AcDb2dVertex
 10
-37.582823
 20
505.956162
 30
0.0
  0
VERTEX
  5
51B
100
AcDbEntity
  8
0
100
AcDbVertex
100
AcDb2dVertex
 10
-37.67061
 20
505.91063
 30
0.0
  0
VERTEX
  5
51C
100
AcDbEntity
  8
0
100
AcDbVertex
100
AcDb2dVertex
 10
-37.754789
 20
505.86472
 30
0.0
  0
VERTEX
  5
51D
100
AcDbEntity
  8
0
100
AcDbVertex
100
AcDb2dVertex
 10
-37.836657
 20
505.817773
 30
0.0
  0
VERTEX
  5
51E
100
AcDbEntity
  8
0
100
AcDbVertex
100
AcDb2dVertex
 10
-37.914921
 20
505.770589
 30
0.0
  0
VERTEX
  5
51F
100
AcDbEntity
  8
0
100
AcDbVertex
100
AcDb2dVertex
 10
-37.990849
 20
505.722455
 30
0.0
  0
VERTEX
  5
520
100
AcDbEntity
  8
0
100
AcDbVertex
100
AcDb2dVertex
 10
-38.063213
 20
505.674214
 30
0.0
  0
VERTEX
  5
521
100
AcDbEntity
  8
0
100
AcDbVertex
100
AcDb2dVertex
 10
-38.13323
 20
505.625112
 30
0.0
  0
VERTEX
  5
522
100
AcDbEntity
  8
0
100
AcDbVertex
100
AcDb2dVertex
 10
-38.199749
 20
505.576024
 30
0.0
  0
VERTEX
  5
523
100
AcDbEntity
  8
0
100
AcDbVertex
100
AcDb2dVertex
 10
-38.26392
 20
505.526158
 30
0.0
  0
VERTEX
  5
524
100
AcDbEntity
  8
0
100
AcDbVertex
100
AcDb2dVertex
 10
-38.32468
 20
505.476411
 30
0.0
  0
VERTEX
  5
525
100
AcDbEntity
  8
0
100
AcDbVertex
100
AcDb2dVertex
 10
-38.383104
 20
505.425965
 30
0.0
  0
VERTEX
  5
526
100
AcDbEntity
  8
0
100
AcDbVertex
100
AcDb2dVertex
 10
-38.438225
 20
505.375733
 30
0.0
  0
VERTEX
  5
527
100
AcDbEntity
  8
0
100
AcDbVertex
100
AcDb2dVertex
 10
-38.491028
 20
505.324883
 30
0.0
  0
VERTEX
  5
528
100
AcDbEntity
  8
0
100
AcDbVertex
100
AcDb2dVertex
 10
-38.540649
 20
505.27432
 30
0.0
  0
VERTEX
  5
529
100
AcDbEntity
  8
0
100
AcDbVertex
100
AcDb2dVertex
 10
-38.58798
 20
505.223206
 30
0.0
  0
VERTEX
  5
52A
100
AcDbEntity
  8
0
100
AcDbVertex
100
AcDb2dVertex
 10
-38.632263
 20
505.172444
 30
0.0
  0
VERTEX
  5
52B
100
AcDbEntity
  8
0
100
AcDbVertex
100
AcDb2dVertex
 10
-38.674288
 20
505.121201
 30
0.0
  0
VERTEX
  5
52C
100
AcDbEntity
  8
0
100
AcDbVertex
100
AcDb2dVertex
 10
-38.713404
 20
505.070348
 30
0.0
  0
VERTEX
  5
52D
100
AcDbEntity
  8
0
100
AcDbVertex
100
AcDb2dVertex
 10
-38.750294
 20
505.019082
 30
0.0
  0
VERTEX
  5
52E
100
AcDbEntity
  8
0
100
AcDbVertex
100
AcDb2dVertex
 10
-38.784422
 20
504.968228
 30
0.0
  0
VERTEX
  5
52F
100
AcDbEntity
  8
0
100
AcDbVertex
100
AcDb2dVertex
 10
-38.816359
 20
504.91702
 30
0.0
  0
VERTEX
  5
530
100
AcDbEntity
  8
0
100
AcDbVertex
100
AcDb2dVertex
 10
-38.845675
 20
504.866231
 30
0.0
  0
VERTEX
  5
531
100
AcDbEntity
  8
0
100
AcDbVertex
100
AcDb2dVertex
 10
-38.872837
 20
504.815148
 30
0.0
  0
VERTEX
  5
532
100
AcDbEntity
  8
0
100
AcDbVertex
100
AcDb2dVertex
 10
-38.897514
 20
504.76447
 30
0.0
  0
VERTEX
  5
533
100
AcDbEntity
  8
0
100
AcDbVertex
100
AcDb2dVertex
 10
-38.920073
 20
504.713548
 30
0.0
  0
VERTEX
  5
534
100
AcDbEntity
  8
0
100
AcDbVertex
100
AcDb2dVertex
 10
-38.940271
 20
504.663011
 30
0.0
  0
VERTEX
  5
535
100
AcDbEntity
  8
0
100
AcDbVertex
100
AcDb2dVertex
 10
-38.958382
 20
504.612275
 30
0.0
  0
VERTEX
  5
536
100
AcDbEntity
  8
0
100
AcDbVertex
100
AcDb2dVertex
 10
-38.974245
 20
504.561879
 30
0.0
  0
VERTEX
  5
537
100
AcDbEntity
  8
0
100
AcDbVertex
100
AcDb2dVertex
 10
-38.988047
 20
504.511334
 30
0.0
  0
VERTEX
  5
538
100
AcDbEntity
  8
0
100
AcDbVertex
100
AcDb2dVertex
 10
-38.999697
 20
504.461076
 30
0.0
  0
VERTEX
  5
539
100
AcDbEntity
  8
0
100
AcDbVertex
100
AcDb2dVertex
 10
-39.00931
 20
504.41071
 30
0.0
  0
VERTEX
  5
53A
100
AcDbEntity
  8
0
100
AcDbVertex
100
AcDb2dVertex
 10
-39.016842
 20
504.360562
 30
0.0
  0
VERTEX
  5
53B
100
AcDbEntity
  8
0
100
AcDbVertex
100
AcDb2dVertex
 10
-39.022356
 20
504.310353
 30
0.0
  0
VERTEX
  5
53C
100
AcDbEntity
  8
0
100
AcDbVertex
100
AcDb2dVertex
 10
-39.025839
 20
504.260289
 30
0.0
  0
VERTEX
  5
53D
100
AcDbEntity
  8
0
100
AcDbVertex
100
AcDb2dVertex
 10
-39.027315
 20
504.210198
 30
0.0
  0
VERTEX
  5
53E
100
AcDbEntity
  8
0
100
AcDbVertex
100
AcDb2dVertex
 10
-39.024256
 20
504.110177
 30
0.0
  0
VERTEX
  5
53F
100
AcDbEntity
  8
0
100
AcDbVertex
100
AcDb2dVertex
 10
-39.013182
 20
504.010205
 30
0.0
  0
VERTEX
  5
540
100
AcDbEntity
  8
0
100
AcDbVertex
100
AcDb2dVertex
 10
-38.994034
 20
503.910207
 30
0.0
  0
VERTEX
  5
541
100
AcDbEntity
  8
0
100
AcDbVertex
100
AcDb2dVertex
 10
-38.966694
 20
503.810121
 30
0.0
  0
VERTEX
  5
542
100
AcDbEntity
  8
0
100
AcDbVertex
100
AcDb2dVertex
 10
-38.930986
 20
503.709908
 30
0.0
  0
VERTEX
  5
543
100
AcDbEntity
  8
0
100
AcDbVertex
100
AcDb2dVertex
 10
-38.886686
 20
503.609548
 30
0.0
  0
VERTEX
  5
544
100
AcDbEntity
  8
0
100
AcDbVertex
100
AcDb2dVertex
 10
-38.833527
 20
503.509053
 30
0.0
  0
VERTEX
  5
545
100
AcDbEntity
  8
0
100
AcDbVertex
100
AcDb2dVertex
 10
-38.77121
 20
503.408475
 30
0.0
  0
VERTEX
  5
546
100
AcDbEntity
  8
0
100
AcDbVertex
100
AcDb2dVertex
 10
-38.699411
 20
503.3079
 30
0.0
  0
VERTEX
  5
547
100
AcDbEntity
  8
0
100
AcDbVertex
100
AcDb2dVertex
 10
-38.6178
 20
503.207456
 30
0.0
  0
VERTEX
  5
548
100
AcDbEntity
  8
0
100
AcDbVertex
100
AcDb2dVertex
 10
-38.526041
 20
503.107316
 30
0.0
  0
VERTEX
  5
549
100
AcDbEntity
  8
0
100
AcDbVertex
100
AcDb2dVertex
 10
-38.423811
 20
503.007684
 30
0.0
  0
VERTEX
  5
54A
100
AcDbEntity
  8
0
100
AcDbVertex
100
AcDb2dVertex
 10
-38.310808
 20
502.908822
 30
0.0
  0
VERTEX
  5
54B
100
AcDbEntity
  8
0
100
AcDbVertex
100
AcDb2dVertex
 10
-38.186768
 20
502.811021
 30
0.0
  0
VERTEX
  5
54C
100
AcDbEntity
  8
0
100
AcDbVertex
100
AcDb2dVertex
 10
-38.051462
 20
502.714608
 30
0.0
  0
VERTEX
  5
54D
100
AcDbEntity
  8
0
100
AcDbVertex
100
AcDb2dVertex
 10
-37.904724
 20
502.61995
 30
0.0
  0
VERTEX
  5
54E
100
AcDbEntity
  8
0
100
AcDbVertex
100
AcDb2dVertex
 10
-37.746449
 20
502.527448
 30
0.0
  0
VERTEX
  5
54F
100
AcDbEntity
  8
0
100
AcDbVertex
100
AcDb2dVertex
 10
-37.576611
 20
502.437524
 30
0.0
  0
VERTEX
  5
550
100
AcDbEntity
  8
0
100
AcDbVertex
100
AcDb2dVertex
 10
-37.395258
 20
502.350621
 30
0.0
  0
VERTEX
  5
551
100
AcDbEntity
  8
0
100
AcDbVertex
100
AcDb2dVertex
 10
-37.202538
 20
502.267201
 30
0.0
  0
VERTEX
  5
552
100
AcDbEntity
  8
0
100
AcDbVertex
100
AcDb2dVertex
 10
-36.99869
 20
502.187737
 30
0.0
  0
VERTEX
  5
553
100
AcDbEntity
  8
0
100
AcDbVertex
100
AcDb2dVertex
 10
-36.784054
 20
502.112702
 30
0.0
  0
VERTEX
  5
554
100
AcDbEntity
  8
0
100
AcDbVertex
100
AcDb2dVertex
 10
-36.559076
 20
502.042577
 30
0.0
  0
VERTEX
  5
555
100
AcDbEntity
  8
0
100
AcDbVertex
100
AcDb2dVertex
 10
-36.324306
 20
501.977822
 30
0.0
  0
VERTEX
  5
556
100
AcDbEntity
  8
0
100
AcDbVertex
100
AcDb2dVertex
 10
-36.080399
 20
501.918878
 30
0.0
  0
VERTEX
  5
557
100
AcDbEntity
  8
0
100
AcDbVertex
100
AcDb2dVertex
 10
-35.828109
 20
501.866174
 30
0.0
  0
VERTEX
  5
558
100
AcDbEntity
  8
0
100
AcDbVertex
100
AcDb2dVertex
 10
-35.56829
 20
501.820092
 30
0.0
  0
VERTEX
  5
559
100
AcDbEntity
  8
0
100
AcDbVertex
100
AcDb2dVertex
 10
-35.301885
 20
501.780995
 30
0.0
  0
VERTEX
  5
55A
100
AcDbEntity
  8
0
100
AcDbVertex
100
AcDb2dVertex
 10
-35.029917
 20
501.749181
 30
0.0
  0
VERTEX
  5
55B
100
AcDbEntity
  8
0
100
AcDbVertex
100
AcDb2dVertex
 10
-34.753482
 20
501.724912
 30
0.0
  0
VERTEX
  5
55C
100
AcDbEntity
  8
0
100
AcDbVertex
100
AcDb2dVertex
 10
-34.473731
 20
501.708394
 30
0.0
  0
VERTEX
  5
55D
100
AcDbEntity
  8
0
100
AcDbVertex
100
AcDb2dVertex
 10
-34.191863
 20
501.699765
 30
0.0
  0
VERTEX
  5
55E
100
AcDbEntity
  8
0
100
AcDbVertex
100
AcDb2dVertex
 10
-33.909104
 20
501.699109
 30
0.0
  0
VERTEX
  5
55F
100
AcDbEntity
  8
0
100
AcDbVertex
100
AcDb2dVertex
 10
-33.767797
 20
501.701783
 30
0.0
  0
VERTEX
  5
560
100
AcDbEntity
  8
0
100
AcDbVertex
100
AcDb2dVertex
 10
-33.626697
 20
501.706452
 30
0.0
  0
VERTEX
  5
561
100
AcDbEntity
  8
0
100
AcDbVertex
100
AcDb2dVertex
 10
-33.486072
 20
501.713105
 30
0.0
  0
VERTEX
  5
562
100
AcDbEntity
  8
0
100
AcDbVertex
100
AcDb2dVertex
 10
-33.345879
 20
501.721742
 30
0.0
  0
VERTEX
  5
563
100
AcDbEntity
  8
0
100
AcDbVertex
100
AcDb2dVertex
 10
-33.20655
 20
501.732327
 30
0.0
  0
VERTEX
  5
564
100
AcDbEntity
  8
0
100
AcDbVertex
100
AcDb2dVertex
 10
-33.067873
 20
501.744874
 30
0.0
  0
VERTEX
  5
565
100
AcDbEntity
  8
0
100
AcDbVertex
100
AcDb2dVertex
 10
-32.930438
 20
501.759316
 30
0.0
  0
VERTEX
  5
566
100
AcDbEntity
  8
0
100
AcDbVertex
100
AcDb2dVertex
 10
-32.793868
 20
501.775681
 30
0.0
  0
VERTEX
  5
567
100
AcDbEntity
  8
0
100
AcDbVertex
100
AcDb2dVertex
 10
-32.658901
 20
501.79387
 30
0.0
  0
VERTEX
  5
568
100
AcDbEntity
  8
0
100
AcDbVertex
100
AcDb2dVertex
 10
-32.525004
 20
501.813935
 30
0.0
  0
VERTEX
  5
569
100
AcDbEntity
  8
0
100
AcDbVertex
100
AcDb2dVertex
 10
-32.393052
 20
501.835732
 30
0.0
  0
VERTEX
  5
56A
100
AcDbEntity
  8
0
100
AcDbVertex
100
AcDb2dVertex
 10
-32.262362
 20
501.859353
 30
0.0
  0
VERTEX
  5
56B
100
AcDbEntity
  8
0
100
AcDbVertex
100
AcDb2dVertex
 10
-32.133932
 20
501.884599
 30
0.0
  0
VERTEX
  5
56C
100
AcDbEntity
  8
0
100
AcDbVertex
100
AcDb2dVertex
 10
-32.006945
 20
501.911607
 30
0.0
  0
VERTEX
  5
56D
100
AcDbEntity
  8
0
100
AcDbVertex
100
AcDb2dVertex
 10
-31.882505
 20
501.940118
 30
0.0
  0
VERTEX
  5
56E
100
AcDbEntity
  8
0
100
AcDbVertex
100
AcDb2dVertex
 10
-31.759673
 20
501.970319
 30
0.0
  0
VERTEX
  5
56F
100
AcDbEntity
  8
0
100
AcDbVertex
100
AcDb2dVertex
 10
-31.639646
 20
502.001893
 30
0.0
  0
VERTEX
  5
570
100
AcDbEntity
  8
0
100
AcDbVertex
100
AcDb2dVertex
 10
-31.521375
 20
502.035081
 30
0.0
  0
VERTEX
  5
571
100
AcDbEntity
  8
0
100
AcDbVertex
100
AcDb2dVertex
 10
-31.40613
 20
502.069497
 30
0.0
  0
VERTEX
  5
572
100
AcDbEntity
  8
0
100
AcDbVertex
100
AcDb2dVertex
 10
-31.292775
 20
502.105447
 30
0.0
  0
VERTEX
  5
573
100
AcDbEntity
  8
0
100
AcDbVertex
100
AcDb2dVertex
 10
-31.182632
 20
502.142476
 30
0.0
  0
VERTEX
  5
574
100
AcDbEntity
  8
0
100
AcDbVertex
100
AcDb2dVertex
 10
-31.074495
 20
502.180955
 30
0.0
  0
VERTEX
  5
575
100
AcDbEntity
  8
0
100
AcDbVertex
100
AcDb2dVertex
 10
-30.969722
 20
502.220357
 30
0.0
  0
VERTEX
  5
576
100
AcDbEntity
  8
0
100
AcDbVertex
100
AcDb2dVertex
 10
-30.86705
 20
502.261121
 30
0.0
  0
VERTEX
  5
577
100
AcDbEntity
  8
0
100
AcDbVertex
100
AcDb2dVertex
 10
-30.767857
 20
502.302655
 30
0.0
  0
VERTEX
  5
578
100
AcDbEntity
  8
0
100
AcDbVertex
100
AcDb2dVertex
 10
-30.670846
 20
502.345456
 30
0.0
  0
VERTEX
  5
579
100
AcDbEntity
  8
0
100
AcDbVertex
100
AcDb2dVertex
 10
-30.577392
 20
502.388879
 30
0.0
  0
VERTEX
  5
57A
100
AcDbEntity
  8
0
100
AcDbVertex
100
AcDb2dVertex
 10
-30.486182
 20
502.433476
 30
0.0
  0
VERTEX
  5
57B
100
AcDbEntity
  8
0
100
AcDbVertex
100
AcDb2dVertex
 10
-30.398573
 20
502.478539
 30
0.0
  0
VERTEX
  5
57C
100
AcDbEntity
  8
0
100
AcDbVertex
100
AcDb2dVertex
 10
-30.313256
 20
502.52469
 30
0.0
  0
VERTEX
  5
57D
100
AcDbEntity
  8
0
100
AcDbVertex
100
AcDb2dVertex
 10
-30.231549
 20
502.571164
 30
0.0
  0
VERTEX
  5
57E
100
AcDbEntity
  8
0
100
AcDbVertex
100
AcDb2dVertex
 10
-30.152167
 20
502.618634
 30
0.0
  0
VERTEX
  5
57F
100
AcDbEntity
  8
0
100
AcDbVertex
100
AcDb2dVertex
 10
-30.076373
 20
502.666287
 30
0.0
  0
VERTEX
  5
580
100
AcDbEntity
  8
0
100
AcDbVertex
100
AcDb2dVertex
 10
-30.002923
 20
502.714848
 30
0.0
  0
VERTEX
  5
581
100
AcDbEntity
  8
0
100
AcDbVertex
100
AcDb2dVertex
 10
-29.933011
 20
502.763471
 30
0.0
  0
VERTEX
  5
582
100
AcDbEntity
  8
0
100
AcDbVertex
100
AcDb2dVertex
 10
-29.865448
 20
502.812913
 30
0.0
  0
VERTEX
  5
583
100
AcDbEntity
  8
0
100
AcDbVertex
100
AcDb2dVertex
 10
-29.801351
 20
502.862302
 30
0.0
  0
VERTEX
  5
584
100
AcDbEntity
  8
0
100
AcDbVertex
100
AcDb2dVertex
 10
-29.739595
 20
502.912431
 30
0.0
  0
VERTEX
  5
585
100
AcDbEntity
  8
0
100
AcDbVertex
100
AcDb2dVertex
 10
-29.68121
 20
502.962399
 30
0.0
  0
VERTEX
  5
586
100
AcDbEntity
  8
0
100
AcDbVertex
100
AcDb2dVertex
 10
-29.625153
 20
503.013032
 30
0.0
  0
VERTEX
  5
587
100
AcDbEntity
  8
0
100
AcDbVertex
100
AcDb2dVertex
 10
-29.572351
 20
503.063424
 30
0.0
  0
VERTEX
  5
588
100
AcDbEntity
  8
0
100
AcDbVertex
100
AcDb2dVertex
 10
-29.521854
 20
503.1144
 30
0.0
  0
VERTEX
  5
589
100
AcDbEntity
  8
0
100
AcDbVertex
100
AcDb2dVertex
 10
-29.474485
 20
503.165063
 30
0.0
  0
VERTEX
  5
58A
100
AcDbEntity
  8
0
100
AcDbVertex
100
AcDb2dVertex
 10
-29.429395
 20
503.216241
 30
0.0
  0
VERTEX
  5
58B
100
AcDbEntity
  8
0
100
AcDbVertex
100
AcDb2dVertex
 10
-29.387294
 20
503.267056
 30
0.0
  0
VERTEX
  5
58C
100
AcDbEntity
  8
0
100
AcDbVertex
100
AcDb2dVertex
 10
-29.347439
 20
503.318318
 30
0.0
  0
VERTEX
  5
58D
100
AcDbEntity
  8
0
100
AcDbVertex
100
AcDb2dVertex
 10
-29.310431
 20
503.369183
 30
0.0
  0
VERTEX
  5
58E
100
AcDbEntity
  8
0
100
AcDbVertex
100
AcDb2dVertex
 10
-29.275633
 20
503.420434
 30
0.0
  0
VERTEX
  5
58F
100
AcDbEntity
  8
0
100
AcDbVertex
100
AcDb2dVertex
 10
-29.243539
 20
503.471269
 30
0.0
  0
VERTEX
  5
590
100
AcDbEntity
  8
0
100
AcDbVertex
100
AcDb2dVertex
 10
-29.213619
 20
503.522431
 30
0.0
  0
VERTEX
  5
591
100
AcDbEntity
  8
0
100
AcDbVertex
100
AcDb2dVertex
 10
-29.186263
 20
503.573174
 30
0.0
  0
VERTEX
  5
592
100
AcDbEntity
  8
0
100
AcDbVertex
100
AcDb2dVertex
 10
-29.161047
 20
503.624196
 30
0.0
  0
VERTEX
  5
593
100
AcDbEntity
  8
0
100
AcDbVertex
100
AcDb2dVertex
 10
-29.138261
 20
503.674817
 30
0.0
  0
VERTEX
  5
594
100
AcDbEntity
  8
0
100
AcDbVertex
100
AcDb2dVertex
 10
-29.117581
 20
503.725663
 30
0.0
  0
VERTEX
  5
595
100
AcDbEntity
  8
0
100
AcDbVertex
100
AcDb2dVertex
 10
-29.099212
 20
503.776139
 30
0.0
  0
VERTEX
  5
596
100
AcDbEntity
  8
0
100
AcDbVertex
100
AcDb2dVertex
 10
-29.082918
 20
503.826795
 30
0.0
  0
VERTEX
  5
597
100
AcDbEntity
  8
0
100
AcDbVertex
100
AcDb2dVertex
 10
-29.06883
 20
503.877133
 30
0.0
  0
VERTEX
  5
598
100
AcDbEntity
  8
0
100
AcDbVertex
100
AcDb2dVertex
 10
-29.056792
 20
503.927602
 30
0.0
  0
VERTEX
  5
599
100
AcDbEntity
  8
0
100
AcDbVertex
100
AcDb2dVertex
 10
-29.046875
 20
503.977811
 30
0.0
  0
VERTEX
  5
59A
100
AcDbEntity
  8
0
100
AcDbVertex
100
AcDb2dVertex
 10
-29.038985
 20
504.028108
 30
0.0
  0
VERTEX
  5
59B
100
AcDbEntity
  8
0
100
AcDbVertex
100
AcDb2dVertex
 10
-29.033153
 20
504.078214
 30
0.0
  0
VERTEX
  5
59C
100
AcDbEntity
  8
0
100
AcDbVertex
100
AcDb2dVertex
 10
-29.029333
 20
504.128369
 30
0.0
  0
VERTEX
  5
59D
100
AcDbEntity
  8
0
100
AcDbVertex
100
AcDb2dVertex
 10
-29.027531
 20
504.17841
 30
0.0
  0
VERTEX
  5
59E
100
AcDbEntity
  8
0
100
AcDbVertex
100
AcDb2dVertex
 10
-29.027731
 20
504.228459
 30
0.0
  0
VERTEX
  5
59F
100
AcDbEntity
  8
0
100
AcDbVertex
100
AcDb2dVertex
 10
-29.034139
 20
504.32845
 30
0.0
  0
VERTEX
  5
5A0
100
AcDbEntity
  8
0
100
AcDbVertex
100
AcDb2dVertex
 10
-29.048578
 20
504.428426
 30
0.0
  0
VERTEX
  5
5A1
100
AcDbEntity
  8
0
100
AcDbVertex
100
AcDb2dVertex
 10
-29.071133
 20
504.528455
 30
0.0
  0
VERTEX
  5
5A2
100
AcDbEntity
  8
0
100
AcDbVertex
100
AcDb2dVertex
 10
-29.101947
 20
504.628587
 30
0.0
  0
VERTEX
  5
5A3
100
AcDbEntity
  8
0
100
AcDbVertex
100
AcDb2dVertex
 10
-29.141218
 20
504.728864
 30
0.0
  0
VERTEX
  5
5A4
100
AcDbEntity
  8
0
100
AcDbVertex
100
AcDb2dVertex
 10
-29.189188
 20
504.829282
 30
0.0
  0
VERTEX
  5
5A5
100
AcDbEntity
  8
0
100
AcDbVertex
100
AcDb2dVertex
 10
-29.24614
 20
504.929822
 30
0.0
  0
VERTEX
  5
5A6
100
AcDbEntity
  8
0
100
AcDbVertex
100
AcDb2dVertex
 10
-29.312383
 20
505.030412
 30
0.0
  0
VERTEX
  5
5A7
100
AcDbEntity
  8
0
100
AcDbVertex
100
AcDb2dVertex
 10
-29.388244
 20
505.130948
 30
0.0
  0
VERTEX
  5
5A8
100
AcDbEntity
  8
0
100
AcDbVertex
100
AcDb2dVertex
 10
-29.474058
 20
505.23129
 30
0.0
  0
VERTEX
  5
5A9
100
AcDbEntity
  8
0
100
AcDbVertex
100
AcDb2dVertex
 10
-29.570157
 20
505.331246
 30
0.0
  0
VERTEX
  5
5AA
100
AcDbEntity
  8
0
100
AcDbVertex
100
AcDb2dVertex
 10
-29.676856
 20
505.430585
 30
0.0
  0
VERTEX
  5
5AB
100
AcDbEntity
  8
0
100
AcDbVertex
100
AcDb2dVertex
 10
-29.794444
 20
505.529042
 30
0.0
  0
VERTEX
  5
5AC
100
AcDbEntity
  8
0
100
AcDbVertex
100
AcDb2dVertex
 10
-29.923171
 20
505.626306
 30
0.0
  0
VERTEX
  5
5AD
100
AcDbEntity
  8
0
100
AcDbVertex
100
AcDb2dVertex
 10
-30.06324
 20
505.722032
 30
0.0
  0
VERTEX
  5
5AE
100
AcDbEntity
  8
0
100
AcDbVertex
100
AcDb2dVertex
 10
-30.214794
 20
505.815835
 30
0.0
  0
VERTEX
  5
5AF
100
AcDbEntity
  8
0
100
AcDbVertex
100
AcDb2dVertex
 10
-30.377905
 20
505.907315
 30
0.0
  0
VERTEX
  5
5B0
100
AcDbEntity
  8
0
100
AcDbVertex
100
AcDb2dVertex
 10
-30.55257
 20
505.996034
 30
0.0
  0
VERTEX
  5
5B1
100
AcDbEntity
  8
0
100
AcDbVertex
100
AcDb2dVertex
 10
-30.738699
 20
506.081536
 30
0.0
  0
VERTEX
  5
5B2
100
AcDbEntity
  8
0
100
AcDbVertex
100
AcDb2dVertex
 10
-30.936107
 20
506.163358
 30
0.0
  0
VERTEX
  5
5B3
100
AcDbEntity
  8
0
100
AcDbVertex
100
AcDb2dVertex
 10
-31.144513
 20
506.241029
 30
0.0
  0
VERTEX
  5
5B4
100
AcDbEntity
  8
0
100
AcDbVertex
100
AcDb2dVertex
 10
-31.363534
 20
506.314065
 30
0.0
  0
VERTEX
  5
5B5
100
AcDbEntity
  8
0
100
AcDbVertex
100
AcDb2dVertex
 10
-31.592679
 20
506.382001
 30
0.0
  0
VERTEX
  5
5B6
100
AcDbEntity
  8
0
100
AcDbVertex
100
AcDb2dVertex
 10
-31.831356
 20
506.444383
 30
0.0
  0
VERTEX
  5
5B7
100
AcDbEntity
  8
0
100
AcDbVertex
100
AcDb2dVertex
 10
-32.078866
 20
506.500764
 30
0.0
  0
VERTEX
  5
5B8
100
AcDbEntity
  8
0
100
AcDbVertex
100
AcDb2dVertex
 10
-32.334414
 20
506.550744
 30
0.0
  0
VERTEX
  5
5B9
100
AcDbEntity
  8
0
100
AcDbVertex
100
AcDb2dVertex
 10
-32.597106
 20
506.593945
 30
0.0
  0
VERTEX
  5
5BA
100
AcDbEntity
  8
0
100
AcDbVertex
100
AcDb2dVertex
 10
-32.865966
 20
506.630032
 30
0.0
  0
VERTEX
  5
5BB
100
AcDbEntity
  8
0
100
AcDbVertex
100
AcDb2dVertex
 10
-33.139938
 20
506.658719
 30
0.0
  0
VERTEX
  5
5BC
100
AcDbEntity
  8
0
100
AcDbVertex
100
AcDb2dVertex
 10
-33.417903
 20
506.679769
 30
0.0
  0
VERTEX
  5
5BD
100
AcDbEntity
  8
0
100
AcDbVertex
100
AcDb2dVertex
 10
-33.698687
 20
506.693002
 30
0.0
  0
VERTEX
  5
5BE
100
AcDbEntity
  8
0
100
AcDbVertex
100
AcDb2dVertex
 10
-33.981077
 20
506.698304
 30
0.0
  0
SEQEND
  5
5BF
100
AcDbEntity
  8
0
  0
CIRCLE
  5
5C0
100
AcDbEntity
  8
0
 62
     7
100
AcDbCircle
 10
-74.77737
 20
528.448407
 30
0.0
 40
40.0
210
0.0
220
0.0
230
1.0
  0
CIRCLE
  5
5C1
100
AcDbEntity
  8
0
 62
     7
100
AcDbCircle
 10
-32.77737
 20
542.198361
 30
0.0
 40
1.75
210
0.0
220
0.0
230
1.0
  0
LINE
  5
5C2
100
AcDbEntity
  8
0
 62
     7
 48
0.00625
100
AcDbLine
 10
-29.77737
 20
511.448361
 30
0.0
 11
-29.77737
 21
511.698361
 31
0.0
210
0.0
220
0.0
230
1.0
  0
LINE
  5
5C3
100
AcDbEntity
  8
0
 62
     7
 48
0.0125
100
AcDbLine
 10
-29.77737
 20
511.448361
 30
0.0
 11
-29.27737
 21
511.448361
 31
0.0
210
0.0
220
0.0
230
1.0
  0
LINE
  5
5C4
100
AcDbEntity
  8
0
 62
     7
 48
0.01875
100
AcDbLine
 10
-29.27737
 20
511.448361
 30
0.0
 11
-29.27737
 21
510.698361
 31
0.0
210
0.0
220
0.0
230
1.0
  0
LINE
  5
5C5
100
AcDbEntity
  8
0
 62
     7
 48
0.0125
100
AcDbLine
 10
-29.77737
 20
510.698361
 30
0.0
 11
-29.27737
 21
510.698361
 31
0.0
210
0.0
220
0.0
230
1.0
  0
LINE
  5
5C6
100
AcDbEntity
  8
0
 62
     7
 48
0.06875
100
AcDbLine
 10
-29.77737
 20
507.948361
 30
0.0
 11
-29.77737
 21
510.698361
 31
0.0
210
0.0
220
0.0
230
1.0
  0
LINE
  5
5C7
100
AcDbEntity
  8
0
 62
     7
 48
0.01875
100
AcDbLine
 10
-30.52737
 20
507.948361
 30
0.0
 11
-29.77737
 21
507.948361
 31
0.0
210
0.0
220
0.0
230
1.0
  0
LINE
  5
5C8
100
AcDbEntity
  8
0
 62
     7
 48
0.06875
100
AcDbLine
 10
-30.52737
 20
507.948361
 30
0.0
 11
-30.52737
 21
510.698361
 31
0.0
210
0.0
220
0.0
230
1.0
  0
LINE
  5
5C9
100
AcDbEntity
  8
0
 62
     7
 48
0.0125
100
AcDbLine
 10
-31.02737
 20
510.698361
 30
0.0
 11
-30.52737
 21
510.698361
 31
0.0
210
0.0
220
0.0
230
1.0
  0
LINE
  5
5CA
100
AcDbEntity
  8
0
 62
     7
 48
0.01875
100
AcDbLine
 10
-31.02737
 20
510.698361
 30
0.0
 11
-31.02737
 21
511.448361
 31
0.0
210
0.0
220
0.0
230
1.0
  0
LINE
  5
5CB
100
AcDbEntity
  8
0
 62
     7
 48
0.0125
100
AcDbLine
 10
-31.02737
 20
511.448361
 30
0.0
 11
-30.52737
 21
511.448361
 31
0.0
210
0.0
220
0.0
230
1.0
  0
LINE
  5
5CC
100
AcDbEntity
  8
0
 62
     7
 48
0.00625
100
AcDbLine
 10
-30.52737
 20
511.448361
 30
0.0
 11
-30.52737
 21
511.698361
 31
0.0
210
0.0
220
0.0
230
1.0
  0
ARC
  5
5CD
100
AcDbEntity
  8
0
 62
     7
100
AcDbCircle
 10
-29.27737
 20
511.698361
 30
0.0
 40
1.25
210
0.0
220
0.0
230
1.0
100
AcDbArc
 50
90.000003
 51
180.000005
  0
LINE
  5
5CE
100
AcDbEntity
  8
0
 62
     7
 48
0.01875
100
AcDbLine
 10
-29.27737
 20
512.198361
 30
0.0
 11
-29.27737
 21
512.948361
 31
0.0
210
0.0
220
0.0
230
1.0
  0
ARC
  5
5CF
100
AcDbEntity
  8
0
 62
     7
100
AcDbCircle
 10
-29.27737
 20
511.698361
 30
0.0
 40
0.5
210
0.0
220
0.0
230
1.0
100
AcDbArc
 50
90.000003
 51
180.000005
  0
LINE
  5
5D0
100
AcDbEntity
  8
0
 62
     7
 48
0.00625
100
AcDbLine
 10
-27.52737
 20
511.448361
 30
0.0
 11
-27.52737
 21
511.698361
 31
0.0
210
0.0
220
0.0
230
1.0
  0
LINE
  5
5D1
100
AcDbEntity
  8
0
 62
     7
 48
0.0125
100
AcDbLine
 10
-27.52737
 20
511.448361
 30
0.0
 11
-27.02737
 21
511.448361
 31
0.0
210
0.0
220
0.0
230
1.0
  0
LINE
  5
5D2
100
AcDbEntity
  8
0
 62
     7
 48
0.01875
100
AcDbLine
 10
-27.02737
 20
511.448361
 30
0.0
 11
-27.02737
 21
510.698361
 31
0.0
210
0.0
220
0.0
230
1.0
  0
LINE
  5
5D3
100
AcDbEntity
  8
0
 62
     7
 48
0.0125
100
AcDbLine
 10
-27.52737
 20
510.698361
 30
0.0
 11
-27.02737
 21
510.698361
 31
0.0
210
0.0
220
0.0
230
1.0
  0
LINE
  5
5D4
100
AcDbEntity
  8
0
 62
     7
 48
0.06875
100
AcDbLine
 10
-27.52737
 20
507.948361
 30
0.0
 11
-27.52737
 21
510.698361
 31
0.0
210
0.0
220
0.0
230
1.0
  0
LINE
  5
5D5
100
AcDbEntity
  8
0
 62
     7
 48
0.01875
100
AcDbLine
 10
-28.27737
 20
507.948361
 30
0.0
 11
-27.52737
 21
507.948361
 31
0.0
210
0.0
220
0.0
230
1.0
  0
LINE
  5
5D6
100
AcDbEntity
  8
0
 62
     7
 48
0.06875
100
AcDbLine
 10
-28.27737
 20
507.948361
 30
0.0
 11
-28.27737
 21
510.698361
 31
0.0
210
0.0
220
0.0
230
1.0
  0
LINE
  5
5D7
100
AcDbEntity
  8
0
 62
     7
 48
0.0125
100
AcDbLine
 10
-28.77737
 20
510.698361
 30
0.0
 11
-28.27737
 21
510.698361
 31
0.0
210
0.0
220
0.0
230
1.0
  0
LINE
  5
5D8
100
AcDbEntity
  8
0
 62
     7
 48
0.01875
100
AcDbLine
 10
-28.77737
 20
510.698361
 30
0.0
 11
-28.77737
 21
511.448361
 31
0.0
210
0.0
220
0.0
230
1.0
  0
LINE
  5
5D9
100
AcDbEntity
  8
0
 62
     7
 48
0.0125
100
AcDbLine
 10
-28.77737
 20
511.448361
 30
0.0
 11
-28.27737
 21
511.448361
 31
0.0
210
0.0
220
0.0
230
1.0
  0
LINE
  5
5DA
100
AcDbEntity
  8
0
 62
     7
 48
0.00625
100
AcDbLine
 10
-28.27737
 20
511.448361
 30
0.0
 11
-28.27737
 21
511.698361
 31
0.0
210
0.0
220
0.0
230
1.0
  0
ARC
  5
5DB
100
AcDbEntity
  8
0
 62
     7
100
AcDbCircle
 10
-27.02737
 20
511.698361
 30
0.0
 40
1.25
210
0.0
220
0.0
230
1.0
100
AcDbArc
 50
90.000003
 51
180.000005
  0
LINE
  5
5DC
100
AcDbEntity
  8
0
 62
     7
 48
0.01875
100
AcDbLine
 10
-27.02737
 20
512.198361
 30
0.0
 11
-27.02737
 21
512.948361
 31
0.0
210
0.0
220
0.0
230
1.0
  0
ARC
  5
5DD
100
AcDbEntity
  8
0
 62
     7
100
AcDbCircle
 10
-27.02737
 20
511.698361
 30
0.0
 40
0.5
210
0.0
220
0.0
230
1.0
100
AcDbArc
 50
90.000003
 51
180.000005
  0
LINE
  5
5DE
100
AcDbEntity
  8
0
 62
     7
 48
0.0875
100
AcDbLine
 10
-30.52737
 20
540.448361
 30
0.0
 11
-30.52737
 21
543.948361
 31
0.0
210
0.0
220
0.0
230
1.0
  0
LINE
  5
5DF
100
AcDbEntity
  8
0
 62
     7
 48
0.01875
100
AcDbLine
 10
-30.52737
 20
543.948361
 30
0.0
 11
-29.77737
 21
543.948361
 31
0.0
210
0.0
220
0.0
230
1.0
  0
LINE
  5
5E0
100
AcDbEntity
  8
0
 62
     7
 48
0.016475
100
AcDbLine
 10
-29.77737
 20
543.28935
 30
0.0
 11
-29.77737
 21
543.948361
 31
0.0
210
0.0
220
0.0
230
1.0
  0
LINE
  5
5E1
100
AcDbEntity
  8
0
 62
     7
 48
0.01165
100
AcDbLine
 10
-29.447865
 20
543.618855
 30
0.0
 11
-29.77737
 21
543.28935
 31
0.0
210
0.0
220
0.0
230
1.0
  0
ARC
  5
5E2
100
AcDbEntity
  8
0
 62
     7
100
AcDbCircle
 10
-28.65237
 20
542.823361
 30
0.0
 40
1.125
210
0.0
220
0.0
230
1.0
100
AcDbArc
 50
0.0
 51
135.0
  0
LINE
  5
5E3
100
AcDbEntity
  8
0
 62
     7
 48
0.059375
100
AcDbLine
 10
-27.52737
 20
540.448361
 30
0.0
 11
-27.52737
 21
542.823361
 31
0.0
210
0.0
220
0.0
230
1.0
  0
LINE
  5
5E4
100
AcDbEntity
  8
0
 62
     7
 48
0.01875
100
AcDbLine
 10
-28.27737
 20
540.448361
 30
0.0
 11
-27.52737
 21
540.448361
 31
0.0
210
0.0
220
0.0
230
1.0
  0
LINE
  5
5E5
100
AcDbEntity
  8
0
 62
     7
 48
0.05
100
AcDbLine
 10
-28.27737
 20
540.448361
 30
0.0
 11
-28.27737
 21
542.448361
 31
0.0
210
0.0
220
0.0
230
1.0
  0
ARC
  5
5E6
100
AcDbEntity
  8
0
 62
     7
100
AcDbCircle
 10
-29.02737
 20
542.448361
 30
0.0
 40
0.75
210
0.0
220
0.0
230
1.0
100
AcDbArc
 50
0.00001
 51
180.000005
  0
LINE
  5
5E7
100
AcDbEntity
  8
0
 62
     7
 48
0.05
100
AcDbLine
 10
-29.77737
 20
540.448361
 30
0.0
 11
-29.77737
 21
542.448361
 31
0.0
210
0.0
220
0.0
230
1.0
  0
LINE
  5
5E8
100
AcDbEntity
  8
0
 62
     7
 48
0.01875
100
AcDbLine
 10
-30.52737
 20
540.448361
 30
0.0
 11
-29.77737
 21
540.448361
 31
0.0
210
0.0
220
0.0
230
1.0
  0
LINE
  5
5E9
100
AcDbEntity
  8
0
 62
     7
100
AcDbLine
 10
-27.77737
 20
480.198361
 30
0.0
 11
-121.77737
 21
480.198361
 31
0.0
210
0.0
220
0.0
230
1.0
  0
ARC
  5
5EA
100
AcDbEntity
  8
0
 62
     7
100
AcDbCircle
 10
-27.77737
 20
482.698361
 30
0.0
 40
2.5
210
0.0
220
0.0
230
1.0
100
AcDbArc
 50
270.000001
 51
0.00001
  0
LINE
  5
5EB
100
AcDbEntity
  8
0
 62
     7
100
AcDbLine
 10
-25.27737
 20
482.698361
 30
0.0
 11
-25.27737
 21
576.698361
 31
0.0
210
0.0
220
0.0
230
1.0
  0
ARC
  5
5EC
100
AcDbEntity
  8
0
 62
     7
100
AcDbCircle
 10
-27.77737
 20
576.698361
 30
0.0
 40
2.5
210
0.0
220
0.0
230
1.0
100
AcDbArc
 50
0.00001
 51
90.000003
  0
LINE
  5
5ED
100
AcDbEntity
  8
0
 62
     7
100
AcDbLine
 10
-121.77737
 20
579.198361
 30
0.0
 11
-27.77737
 21
579.198361
 31
0.0
210
0.0
220
0.0
230
1.0
  0
ARC
  5
5EE
100
AcDbEntity
  8
0
 62
     7
100
AcDbCircle
 10
-121.77737
 20
576.698361
 30
0.0
 40
2.5
210
0.0
220
0.0
230
1.0
100
AcDbArc
 50
90.000003
 51
180.000005
  0
LINE
  5
5EF
100
AcDbEntity
  8
0
 62
     7
100
AcDbLine
 10
-124.27737
 20
576.698361
 30
0.0
 11
-124.27737
 21
482.698361
 31
0.0
210
0.0
220
0.0
230
1.0
  0
ARC
  5
5F0
100
AcDbEntity
  8
0
 62
     7
100
AcDbCircle
 10
-121.77737
 20
482.698361
 30
0.0
 40
2.5
210
0.0
220
0.0
230
1.0
100
AcDbArc
 50
180.000005
 51
270.000001
  0
CIRCLE
  5
5F1
100
AcDbEntity
  8
0
 62
     7
100
AcDbCircle
 10
-32.77737
 20
542.198361
 30
0.0
 40
1.0
210
0.0
220
0.0
230
1.0
  0
LINE
  5
5F2
100
AcDbEntity
  8
0
 62
     7
100
AcDbLine
 10
-27.77737
 20
478.698361
 30
0.0
 11
-121.77737
 21
478.698361
 31
0.0
210
0.0
220
0.0
230
1.0
  0
ARC
  5
5F3
100
AcDbEntity
  8
0
 62
     7
100
AcDbCircle
 10
-27.77737
 20
482.698361
 30
0.0
 40
4.0
210
0.0
220
0.0
230
1.0
100
AcDbArc
 50
270.000001
 51
360.0
  0
LINE
  5
5F4
100
AcDbEntity
  8
0
 62
     7
100
AcDbLine
 10
-23.77737
 20
482.698361
 30
0.0
 11
-23.77737
 21
576.698361
 31
0.0
210
0.0
220
0.0
230
1.0
  0
ARC
  5
5F5
100
AcDbEntity
  8
0
 62
     7
100
AcDbCircle
 10
-27.77737
 20
576.698361
 30
0.0
 40
4.0
210
0.0
220
0.0
230
1.0
100
AcDbArc
 50
0.0
 51
90.000003
  0
LINE
  5
5F6
100
AcDbEntity
  8
0
 62
     7
100
AcDbLine
 10
-121.77737
 20
580.698361
 30
0.0
 11
-27.77737
 21
580.698361
 31
0.0
210
0.0
220
0.0
230
1.0
  0
ARC
  5
5F7
100
AcDbEntity
  8
0
 62
     7
100
AcDbCircle
 10
-121.77737
 20
576.698361
 30
0.0
 40
4.0
210
0.0
220
0.0
230
1.0
100
AcDbArc
 50
90.000003
 51
180.000005
  0
LINE
  5
5F8
100
AcDbEntity
  8
0
 62
     7
100
AcDbLine
 10
-125.77737
 20
576.698361
 30
0.0
 11
-125.77737
 21
482.698361
 31
0.0
210
0.0
220
0.0
230
1.0
  0
ARC
  5
5F9
100
AcDbEntity
  8
0
 62
     7
100
AcDbCircle
 10
-121.77737
 20
482.698361
 30
0.0
 40
4.0
210
0.0
220
0.0
230
1.0
100
AcDbArc
 50
180.000005
 51
270.000001
  0
CIRCLE
  5
5FA
100
AcDbEntity
  8
0
 62
     7
100
AcDbCircle
 10
-74.77737
 20
528.448415
 30
0.0
 40
37.299999
210
0.0
220
0.0
230
1.0
  0
CIRCLE
  5
5FB
100
AcDbEntity
  8
0
 62
     7
100
AcDbCircle
 10
-74.77737
 20
528.448415
 30
0.0
 40
30.299999
210
0.0
220
0.0
230
1.0
  0
CIRCLE
  5
5FC
100
AcDbEntity
  8
0
 62
     7
100
AcDbCircle
 10
-74.77737
 20
528.448415
 30
0.0
 40
24.9
210
0.0
220
0.0
230
1.0
  0
CIRCLE
  5
5FD
100
AcDbEntity
  8
0
 62
     7
100
AcDbCircle
 10
-74.77737
 20
528.448415
 30
0.0
 40
17.9
210
0.0
220
0.0
230
1.0
  0
CIRCLE
  5
5FE
100
AcDbEntity
  8
0
 62
     7
100
AcDbCircle
 10
-74.77737
 20
528.448415
 30
0.0
 40
13.75
210
0.0
220
0.0
230
1.0
  0
LINE
  5
5FF
100
AcDbEntity
  8
0
 62
     7
100
AcDbLine
 10
-85.77737
 20
534.448415
 30
0.0
 11
-63.77737
 21
534.448415
 31
0.0
210
0.0
220
0.0
230
1.0
  0
ARC
  5
600
100
AcDbEntity
  8
0
 62
     7
100
AcDbCircle
 10
-63.77737
 20
533.448415
 30
0.0
 40
1.0
210
0.0
220
0.0
230
1.0
100
AcDbArc
 50
0.0
 51
90.000003
  0
LINE
  5
601
100
AcDbEntity
  8
0
 62
     7
 48
0.026437
100
AcDbLine
 10
-62.77737
 20
524.505902
 30
0.0
 11
-62.77737
 21
523.448407
 31
0.0
210
0.0
220
0.0
230
1.0
  0
LINE
  5
602
100
AcDbEntity
  8
0
 62
     7
 48
0.024905
100
AcDbLine
 10
-62.77737
 20
525.502095
 30
0.0
 11
-62.77737
 21
524.505902
 31
0.0
210
0.0
220
0.0
230
1.0
  0
LINE
  5
603
100
AcDbEntity
  8
0
 62
     7
 48
0.147316
100
AcDbLine
 10
-62.77737
 20
525.502095
 30
0.0
 11
-62.77737
 21
531.394727
 31
0.0
210
0.0
220
0.0
230
1.0
  0
LINE
  5
604
100
AcDbEntity
  8
0
 62
     7
 48
0.024905
100
AcDbLine
 10
-62.77737
 20
532.39092
 30
0.0
 11
-62.77737
 21
531.394727
 31
0.0
210
0.0
220
0.0
230
1.0
  0
LINE
  5
605
100
AcDbEntity
  8
0
 62
     7
 48
0.026437
100
AcDbLine
 10
-62.77737
 20
533.448415
 30
0.0
 11
-62.77737
 21
532.39092
 31
0.0
210
0.0
220
0.0
230
1.0
  0
ARC
  5
606
100
AcDbEntity
  8
0
 62
     7
100
AcDbCircle
 10
-63.77737
 20
523.448407
 30
0.0
 40
1.0
210
0.0
220
0.0
230
1.0
100
AcDbArc
 50
270.000001
 51
360.0
  0
LINE
  5
607
100
AcDbEntity
  8
0
 62
     7
100
AcDbLine
 10
-85.77737
 20
522.448407
 30
0.0
 11
-63.77737
 21
522.448407
 31
0.0
210
0.0
220
0.0
230
1.0
  0
ARC
  5
608
100
AcDbEntity
  8
0
 62
     7
100
AcDbCircle
 10
-85.77737
 20
523.448407
 30
0.0
 40
1.0
210
0.0
220
0.0
230
1.0
100
AcDbArc
 50
180.000005
 51
270.000001
  0
LINE
  5
609
100
AcDbEntity
  8
0
 62
     7
 48
0.026437
100
AcDbLine
 10
-86.77737
 20
523.448407
 30
0.0
 11
-86.77737
 21
524.505902
 31
0.0
210
0.0
220
0.0
230
1.0
  0
LINE
  5
60A
100
AcDbEntity
  8
0
 62
     7
 48
0.024905
100
AcDbLine
 10
-86.77737
 20
525.502095
 30
0.0
 11
-86.77737
 21
524.505902
 31
0.0
210
0.0
220
0.0
230
1.0
  0
LINE
  5
60B
100
AcDbEntity
  8
0
 62
     7
 48
0.147316
100
AcDbLine
 10
-86.77737
 20
531.394727
 30
0.0
 11
-86.77737
 21
525.502095
 31
0.0
210
0.0
220
0.0
230
1.0
  0
LINE
  5
60C
100
AcDbEntity
  8
0
 62
     7
 48
0.024905
100
AcDbLine
 10
-86.77737
 20
532.39092
 30
0.0
 11
-86.77737
 21
531.394727
 31
0.0
210
0.0
220
0.0
230
1.0
  0
LINE
  5
60D
100
AcDbEntity
  8
0
 62
     7
 48
0.026437
100
AcDbLine
 10
-86.77737
 20
533.448415
 30
0.0
 11
-86.77737
 21
532.39092
 31
0.0
210
0.0
220
0.0
230
1.0
  0
ARC
  5
60E
100
AcDbEntity
  8
0
 62
     7
100
AcDbCircle
 10
-85.77737
 20
533.448415
 30
0.0
 40
1.0
210
0.0
220
0.0
230
1.0
100
AcDbArc
 50
90.000003
 51
180.000005
  0
ARC
  5
60F
100
AcDbEntity
  8
0
 62
     7
100
AcDbCircle
 10
-74.77737
 20
528.448407
 30
0.0
 40
40.0
210
0.0
220
0.0
230
1.0
100
AcDbArc
 50
180.000005
 51
180.058157
  0
ARC
  5
610
100
AcDbEntity
  8
0
  6
DASHSPACE
 62
     3
100
AcDbCircle
 10
-191.328045
 20
558.14832
 30
0.0
 40
0.3
210
0.0
220
0.0
230
1.0
100
AcDbArc
 50
0.000834
 51
90.000112
  0
LINE
  5
611
100
AcDbEntity
  8
0
  6
DASHSPACE
 62
     3
 48
0.015
100
AcDbLine
 10
-191.928051
 20
558.448316
 30
0.0
 11
-191.328045
 21
558.448316
 31
0.0
210
0.0
220
0.0
230
1.0
  0
ARC
  5
612
100
AcDbEntity
  8
0
  6
DASHSPACE
 62
     3
100
AcDbCircle
 10
-191.928036
 20
558.148313
 30
0.0
 40
0.3
210
0.0
220
0.0
230
1.0
100
AcDbArc
 50
90.000112
 51
180.000114
  0
LINE
  5
613
100
AcDbEntity
  8
0
  6
DASHSPACE
 62
     3
 48
0.0125
100
AcDbLine
 10
-192.228039
 20
558.148313
 30
0.0
 11
-192.228039
 21
557.64832
 31
0.0
210
0.0
220
0.0
230
1.0
  0
ARC
  5
614
100
AcDbEntity
  8
0
  6
DASHSPACE
 62
     3
100
AcDbCircle
 10
-192.428036
 20
557.648313
 30
0.0
 40
0.2
210
0.0
220
0.0
230
1.0
100
AcDbArc
 50
270.00011
 51
0.000506
  0
LINE
  5
615
100
AcDbEntity
  8
0
  6
DASHSPACE
 62
     3
100
AcDbLine
 10
-191.027355
 20
540.148358
 30
0.0
 11
-191.027355
 21
560.698361
 31
0.0
210
0.0
220
0.0
230
1.0
  0
LINE
  5
616
100
AcDbEntity
  8
0
  6
DASHSPACE
 62
     3
 48
0.020001
100
AcDbLine
 10
-193.228085
 20
557.448316
 30
0.0
 11
-192.428036
 21
557.448316
 31
0.0
210
0.0
220
0.0
230
1.0
  0
LINE
  5
617
100
AcDbEntity
  8
0
  6
DASHSPACE
 62
     3
 48
0.017678
100
AcDbLine
 10
-193.728085
 20
557.948316
 30
0.0
 11
-193.228085
 21
557.448316
 31
0.0
210
0.0
220
0.0
230
1.0
  0
LINE
  5
618
100
AcDbEntity
  8
0
  6
DASHSPACE
 62
     3
 48
0.04375
100
AcDbLine
 10
-193.728085
 20
559.698323
 30
0.0
 11
-193.728085
 21
557.948316
 31
0.0
210
0.0
220
0.0
230
1.0
  0
ARC
  5
619
100
AcDbEntity
  8
0
  6
DASHSPACE
 62
     3
100
AcDbCircle
 10
-192.728085
 20
559.698323
 30
0.0
 40
1.0
210
0.0
220
0.0
230
1.0
100
AcDbArc
 50
90.000112
 51
180.000114
  0
LINE
  5
61A
100
AcDbEntity
  8
0
  6
DASHSPACE
 62
     3
 48
0.019333
100
AcDbLine
 10
-191.800686
 20
560.698323
 30
0.0
 11
-191.02737
 21
560.698331
 31
0.0
210
0.0
220
0.0
230
1.0
  0
LINE
  5
61B
100
AcDbEntity
  8
0
  6
DASHSPACE
 62
     3
 48
0.023185
100
AcDbLine
 10
-192.7281
 20
560.698323
 30
0.0
 11
-191.800686
 21
560.698323
 31
0.0
210
0.0
220
0.0
230
1.0
  0
ARC
  5
61C
100
AcDbEntity
  8
0
  6
DASHSPACE
 62
     2
100
AcDbCircle
 10
-191.328014
 20
530.74838
 30
0.0
 40
0.3
210
0.0
220
0.0
230
1.0
100
AcDbArc
 50
270.000001
 51
359.999272
  0
LINE
  5
61D
100
AcDbEntity
  8
0
  6
DASHSPACE
 62
     2
 48
0.015
100
AcDbLine
 10
-191.92802
 20
530.448377
 30
0.0
 11
-191.328014
 21
530.448377
 31
0.0
210
0.0
220
0.0
230
1.0
  0
ARC
  5
61E
100
AcDbEntity
  8
0
  6
DASHSPACE
 62
     2
100
AcDbCircle
 10
-191.92802
 20
530.74838
 30
0.0
 40
0.3
210
0.0
220
0.0
230
1.0
100
AcDbArc
 50
180.000005
 51
270.000001
  0
LINE
  5
61F
100
AcDbEntity
  8
0
  6
DASHSPACE
 62
     2
 48
0.0125
100
AcDbLine
 10
-192.228008
 20
530.74838
 30
0.0
 11
-192.228008
 21
531.248372
 31
0.0
210
0.0
220
0.0
230
1.0
  0
ARC
  5
620
100
AcDbEntity
  8
0
  6
DASHSPACE
 62
     2
100
AcDbCircle
 10
-192.428005
 20
531.24838
 30
0.0
 40
0.2
210
0.0
220
0.0
230
1.0
100
AcDbArc
 50
359.9996
 51
90.000003
  0
LINE
  5
621
100
AcDbEntity
  8
0
  6
DASHSPACE
 62
     2
 48
0.29875
100
AcDbLine
 10
-191.02734
 20
528.198354
 30
0.0
 11
-191.02734
 21
540.148358
 31
0.0
210
0.0
220
0.0
230
1.0
  0
LINE
  5
622
100
AcDbEntity
  8
0
  6
DASHSPACE
 62
     2
 48
0.020001
100
AcDbLine
 10
-193.228054
 20
531.448377
 30
0.0
 11
-192.428005
 21
531.448377
 31
0.0
210
0.0
220
0.0
230
1.0
  0
LINE
  5
623
100
AcDbEntity
  8
0
  6
DASHSPACE
 62
     2
 48
0.017678
100
AcDbLine
 10
-193.728054
 20
530.948377
 30
0.0
 11
-193.228054
 21
531.448377
 31
0.0
210
0.0
220
0.0
230
1.0
  0
LINE
  5
624
100
AcDbEntity
  8
0
  6
DASHSPACE
 62
     2
 48
0.04375
100
AcDbLine
 10
-193.728054
 20
529.198369
 30
0.0
 11
-193.728054
 21
530.948377
 31
0.0
210
0.0
220
0.0
230
1.0
  0
ARC
  5
625
100
AcDbEntity
  8
0
  6
DASHSPACE
 62
     2
100
AcDbCircle
 10
-192.728054
 20
529.198369
 30
0.0
 40
1.0
210
0.0
220
0.0
230
1.0
100
AcDbArc
 50
180.000005
 51
270.000001
  0
LINE
  5
626
100
AcDbEntity
  8
0
  6
DASHSPACE
 62
     2
 48
0.019333
100
AcDbLine
 10
-191.800655
 20
528.198369
 30
0.0
 11
-191.02734
 21
528.198369
 31
0.0
210
0.0
220
0.0
230
1.0
  0
LINE
  5
627
100
AcDbEntity
  8
0
  6
DASHSPACE
 62
     2
 48
0.023185
100
AcDbLine
 10
-192.728054
 20
528.198369
 30
0.0
 11
-191.800655
 21
528.198369
 31
0.0
210
0.0
220
0.0
230
1.0
  0
INSERT
  5
87F
100
AcDbEntity
  8
0
100
AcDbBlockReference
  2
BLOCK0
 10
0.0
 20
0.0
 30
0.0
210
0.0
220
0.0
230
1.0
  0
INSERT
  5
880
100
AcDbEntity
  8
0
100
AcDbBlockReference
  2
BLOCK1
 10
0.0
 20
0.0
 30
0.0
210
0.0
220
0.0
230
1.0
  0
INSERT
  5
881
100
AcDbEntity
  8
0
100
AcDbBlockReference
  2
BLOCK2
 10
0.0
 20
0.0
 30
0.0
210
0.0
220
0.0
230
1.0
  0
INSERT
  5
882
100
AcDbEntity
  8
0
100
AcDbBlockReference
  2
BLOCK3
 10
0.0
 20
0.0
 30
0.0
210
0.0
220
0.0
230
1.0
  0
INSERT
  5
883
100
AcDbEntity
  8
0
100
AcDbBlockReference
  2
BLOCK4
 10
474.07973
 20
522.698361
 30
0.0
210
0.0
220
0.0
230
1.0
  0
INSERT
  5
884
100
AcDbEntity
  8
0
100
AcDbBlockReference
  2
BLOCK5
 10
474.07973
 20
522.698361
 30
0.0
210
0.0
220
0.0
230
1.0
  0
INSERT
  5
885
100
AcDbEntity
  8
0
100
AcDbBlockReference
  2
BLOCK6
 10
474.07973
 20
522.698361
 30
0.0
210
0.0
220
0.0
230
1.0
  0
INSERT
  5
886
100
AcDbEntity
  8
0
100
AcDbBlockReference
  2
BLOCK7
 10
474.07973
 20
522.698361
 30
0.0
210
0.0
220
0.0
230
1.0
  0
INSERT
  5
887
100
AcDbEntity
  8
0
100
AcDbBlockReference
  2
BLOCK8
 10
474.07973
 20
522.698361
 30
0.0
210
0.0
220
0.0
230
1.0
  0
INSERT
  5
888
100
AcDbEntity
  8
0
100
AcDbBlockReference
  2
BLOCK9
 10
474.07973
 20
522.698361
 30
0.0
210
0.0
220
0.0
230
1.0
  0
INSERT
  5
889
100
AcDbEntity
  8
0
100
AcDbBlockReference
  2
BLOCK10
 10
474.07973
 20
522.698361
 30
0.0
210
0.0
220
0.0
230
1.0
  0
INSERT
  5
88A
100
AcDbEntity
  8
0
100
AcDbBlockReference
  2
BLOCK11
 10
75.936623
 20
522.698361
 30
0.0
210
0.0
220
0.0
230
1.0
  0
INSERT
  5
88B
100
AcDbEntity
  8
0
100
AcDbBlockReference
  2
BLOCK12
 10
75.936623
 20
522.698361
 30
0.0
210
0.0
220
0.0
230
1.0
  0
INSERT
  5
88C
100
AcDbEntity
  8
0
100
AcDbBlockReference
  2
BLOCK13
 10
75.936623
 20
522.698361
 30
0.0
210
0.0
220
0.0
230
1.0
  0
INSERT
  5
88D
100
AcDbEntity
  8
0
100
AcDbBlockReference
  2
BLOCK14
 10
75.936623
 20
522.698361
 30
0.0
210
0.0
220
0.0
230
1.0
  0
INSERT
  5
88E
100
AcDbEntity
  8
0
100
AcDbBlockReference
  2
BLOCK15
 10
75.936623
 20
522.698361
 30
0.0
210
0.0
220
0.0
230
1.0
  0
INSERT
  5
88F
100
AcDbEntity
  8
0
100
AcDbBlockReference
  2
BLOCK16
 10
75.936623
 20
522.698361
 30
0.0
210
0.0
220
0.0
230
1.0
  0
INSERT
  5
890
100
AcDbEntity
  8
0
100
AcDbBlockReference
  2
BLOCK17
 10
75.936623
 20
522.698361
 30
0.0
210
0.0
220
0.0
230
1.0
  0
INSERT
  5
891
100
AcDbEntity
  8
0
100
AcDbBlockReference
  2
BLOCK18
 10
75.936623
 20
522.698361
 30
0.0
210
0.0
220
0.0
230
1.0
  0
INSERT
  5
892
100
AcDbEntity
  8
0
100
AcDbBlockReference
  2
BLOCK19
 10
75.936623
 20
522.698361
 30
0.0
210
0.0
220
0.0
230
1.0
  0
INSERT
  5
893
100
AcDbEntity
  8
0
100
AcDbBlockReference
  2
BLOCK20
 10
75.936623
 20
522.698361
 30
0.0
210
0.0
220
0.0
230
1.0
  0
INSERT
  5
894
100
AcDbEntity
  8
0
100
AcDbBlockReference
  2
BLOCK21
 10
75.936623
 20
522.698361
 30
0.0
210
0.0
220
0.0
230
1.0
  0
INSERT
  5
895
100
AcDbEntity
  8
0
100
AcDbBlockReference
  2
BLOCK22
 10
75.936623
 20
522.698361
 30
0.0
210
0.0
220
0.0
230
1.0
  0
INSERT
  5
896
100
AcDbEntity
  8
0
100
AcDbBlockReference
  2
BLOCK23
 10
-21.27737
 20
445.448361
 30
0.0
210
0.0
220
0.0
230
1.0
  0
INSERT
  5
897
100
AcDbEntity
  8
0
100
AcDbBlockReference
  2
BLOCK24
 10
-21.27737
 20
445.448361
 30
0.0
210
0.0
220
0.0
230
1.0
  0
INSERT
  5
898
100
AcDbEntity
  8
0
100
AcDbBlockReference
  2
BLOCK25
 10
-21.27737
 20
445.448361
 30
0.0
210
0.0
220
0.0
230
1.0
  0
INSERT
  5
899
100
AcDbEntity
  8
0
100
AcDbBlockReference
  2
BLOCK26
 10
-21.27737
 20
445.448361
 30
0.0
210
0.0
220
0.0
230
1.0
  0
INSERT
  5
89A
100
AcDbEntity
  8
0
100
AcDbBlockReference
  2
BLOCK27
 10
-21.27737
 20
445.448361
 30
0.0
210
0.0
220
0.0
230
1.0
  0
INSERT
  5
89B
100
AcDbEntity
  8
0
100
AcDbBlockReference
  2
BLOCK28
 10
-21.27737
 20
445.448361
 30
0.0
210
0.0
220
0.0
230
1.0
  0
INSERT
  5
89C
100
AcDbEntity
  8
0
100
AcDbBlockReference
  2
BLOCK29
 10
-21.27737
 20
445.448361
 30
0.0
210
0.0
220
0.0
230
1.0
  0
INSERT
  5
89D
100
AcDbEntity
  8
0
100
AcDbBlockReference
  2
BLOCK30
 10
-21.27737
 20
445.448361
 30
0.0
210
0.0
220
0.0
230
1.0
  0
INSERT
  5
89E
100
AcDbEntity
  8
0
100
AcDbBlockReference
  2
BLOCK31
 10
-21.27737
 20
445.448361
 30
0.0
210
0.0
220
0.0
230
1.0
  0
INSERT
  5
89F
100
AcDbEntity
  8
0
100
AcDbBlockReference
  2
BLOCK32
 10
-21.27737
 20
445.448361
 30
0.0
210
0.0
220
0.0
230
1.0
  0
INSERT
  5
8A0
100
AcDbEntity
  8
0
100
AcDbBlockReference
  2
BLOCK33
 10
-21.27737
 20
445.448361
 30
0.0
210
0.0
220
0.0
230
1.0
  0
INSERT
  5
8A1
100
AcDbEntity
  8
0
100
AcDbBlockReference
  2
BLOCK34
 10
-21.27737
 20
445.448361
 30
0.0
210
0.0
220
0.0
230
1.0
  0
INSERT
  5
8A2
100
AcDbEntity
  8
0
100
AcDbBlockReference
  2
BLOCK35
 10
-21.27737
 20
445.448361
 30
0.0
210
0.0
220
0.0
230
1.0
  0
INSERT
  5
8A3
100
AcDbEntity
  8
0
100
AcDbBlockReference
  2
BLOCK36
 10
-21.27737
 20
445.448361
 30
0.0
210
0.0
220
0.0
230
1.0
  0
INSERT
  5
8A4
100
AcDbEntity
  8
0
100
AcDbBlockReference
  2
BLOCK37
 10
-21.27737
 20
445.448361
 30
0.0
210
0.0
220
0.0
230
1.0
  0
INSERT
  5
8A5
100
AcDbEntity
  8
0
100
AcDbBlockReference
  2
BLOCK38
 10
-21.27737
 20
445.448361
 30
0.0
210
0.0
220
0.0
230
1.0
  0
INSERT
  5
8A6
100
AcDbEntity
  8
0
100
AcDbBlockReference
  2
BLOCK39
 10
-21.27737
 20
445.448361
 30
0.0
210
0.0
220
0.0
230
1.0
  0
INSERT
  5
8A7
100
AcDbEntity
  8
0
100
AcDbBlockReference
  2
BLOCK40
 10
-21.27737
 20
445.448361
 30
0.0
210
0.0
220
0.0
230
1.0
  0
INSERT
  5
8A8
100
AcDbEntity
  8
0
100
AcDbBlockReference
  2
BLOCK41
 10
-21.27737
 20
445.448361
 30
0.0
210
0.0
220
0.0
230
1.0
  0
INSERT
  5
8A9
100
AcDbEntity
  8
0
100
AcDbBlockReference
  2
BLOCK42
 10
-21.27737
 20
445.448361
 30
0.0
210
0.0
220
0.0
230
1.0
  0
INSERT
  5
8AA
100
AcDbEntity
  8
0
100
AcDbBlockReference
  2
BLOCK43
 10
-21.27737
 20
445.448361
 30
0.0
210
0.0
220
0.0
230
1.0
  0
INSERT
  5
8AB
100
AcDbEntity
  8
0
100
AcDbBlockReference
  2
BLOCK44
 10
-21.27737
 20
445.448361
 30
0.0
210
0.0
220
0.0
230
1.0
  0
INSERT
  5
8AC
100
AcDbEntity
  8
0
100
AcDbBlockReference
  2
BLOCK45
 10
-21.27737
 20
445.448361
 30
0.0
210
0.0
220
0.0
230
1.0
  0
INSERT
  5
8AD
100
AcDbEntity
  8
0
100
AcDbBlockReference
  2
BLOCK46
 10
-21.27737
 20
445.448361
 30
0.0
210
0.0
220
0.0
230
1.0
  0
ENDSEC
  0
SECTION
  2
OBJECTS
  0
DICTIONARY
  5
19
100
AcDbDictionary
  3
ACAD_GROUP
350
1A
  3
ACAD_MLINESTYLE
350
1B
  0
DICTIONARY
  5
1A
102
{ACAD_REACTORS
330
19
102
}
100
AcDbDictionary
  0
DICTIONARY
  5
1B
102
{ACAD_REACTORS
330
19
102
}
100
AcDbDictionary
  3
STANDARD
350
1C
  0
MLINESTYLE
  5
1C
102
{ACAD_REACTORS
330
1B
102
}
100
AcDbMlineStyle
  2
STANDARD
 70
     0
  3

 62
     0
 51
90.0
 52
90.0
 71
     2
 49
0.5
 62
   256
  6
BYLAYER
 49
-0.5
 62
   256
  6
BYLAYER
  0
ENDSEC
  0
EOF
