  0
SECTION
  2
HEADER
  9
$ACADVER
  1
AC1009
  9
$DWGCODEPAGE
  3
iso8859-1
  9
$INSBASE
 10
0.0
 20
0.0
 30
0.0
  9
$EXTMIN
 10
1.0E20
 20
1.0E20
  9
$EXTMAX
 10
-1.0E20
 20
-1.0E20
  9
$LIMMIN
 10
0.0
 20
0.0
  9
$LIMMAX
 10
12.0
 20
9.0
  9
$ORTHOMODE
 70
     0
  9
$REGENMODE
 70
     1
  9
$FILLMODE
 70
     1
  9
$QTEXTMODE
 70
     0
  9
$MIRRTEXT
 70
     1
  9
$DRAGMODE
 70
     2
  9
$LTSCALE
 40
15.0
  9
$OSMODE
 70
     0
  9
$ATTMODE
 70
     1
  9
$TEXTSIZE
 40
0.2
  9
$TRACEWID
 40
0.05
  9
$TEXTSTYLE
  7
STANDARD
  9
$CLAYER
  8
0
  9
$CELTYPE
  6
DASHED
  9
$CECOLOR
 62
   256
  9
$DIMSCALE
 40
1.0
  9
$DIMASZ
 40
0.18
  9
$DIMEXO
 40
0.0625
  9
$DIMDLI
 40
0.38
  9
$DIMRND
 40
0.0
  9
$DIMDLE
 40
0.0
  9
$DIMEXE
 40
0.18
  9
$DIMTP
 40
0.0
  9
$DIMTM
 40
0.0
  9
$DIMTXT
 40
0.18
  9
$DIMCEN
 40
0.09
  9
$DIMTSZ
 40
0.0
  9
$DIMTOL
 70
     0
  9
$DIMLIM
 70
     0
  9
$DIMTIH
 70
     1
  9
$DIMTOH
 70
     1
  9
$DIMSE1
 70
     0
  9
$DIMSE2
 70
     0
  9
$DIMTAD
 70
     0
  9
$DIMZIN
 70
     0
  9
$DIMBLK
  1

  9
$DIMASO
 70
     1
  9
$DIMSHO
 70
     1
  9
$DIMPOST
  1

  9
$DIMAPOST
  1

  9
$DIMALT
 70
     0
  9
$DIMALTD
 70
     2
  9
$DIMALTF
 40
25.4
  9
$DIMLFAC
 40
1.0
  9
$DIMTOFL
 70
     0
  9
$DIMTVP
 40
0.0
  9
$DIMTIX
 70
     0
  9
$DIMSOXD
 70
     0
  9
$DIMSAH
 70
     0
  9
$DIMBLK1
  1

  9
$DIMBLK2
  1

  9
$DIMSTYLE
  2
STANDARD
  9
$DIMCLRD
 70
     0
  9
$DIMCLRE
 70
     0
  9
$DIMCLRT
 70
     0
  9
$DIMTFAC
 40
1.0
  9
$DIMGAP
 40
0.09
  9
$LUNITS
 70
     2
  9
$LUPREC
 70
     4
  9
$AXISMODE
 70
     0
  9
$AXISUNIT
 10
0.0
 20
0.0
  9
$SKETCHINC
 40
0.1
  9
$FILLETRAD
 40
0.0
  9
$AUNITS
 70
     0
  9
$AUPREC
 70
     0
  9
$MENU
  1
acad
  9
$ELEVATION
 40
0.0
  9
$PELEVATION
 40
0.0
  9
$THICKNESS
 40
0.0
  9
$LIMCHECK
 70
     0
  9
$BLIPMODE
 70
     1
  9
$CHAMFERA
 40
0.0
  9
$CHAMFERB
 40
0.0
  9
$SKPOLY
 70
     0
  9
$TDCREATE
 40
0.000000000
  9
$TDUPDATE
 40
0.000000000
  9
$TDINDWG
 40
0.0
  9
$TDUSRTIMER
 40
0.0
  9
$USRTIMER
 70
     1
  9
$ANGBASE
 50
0.0
  9
$ANGDIR
 70
     0
  9
$PDMODE
 70
     0
  9
$PDSIZE
 40
0.0
  9
$PLINEWID
 40
0.0
  9
$COORDS
 70
     1
  9
$SPLFRAME
 70
     0
  9
$SPLINETYPE
 70
     6
  9
$SPLINESEGS
 70
     8
  9
$ATTDIA
 70
     0
  9
$ATTREQ
 70
     1
  9
$HANDLING
 70
     1
  9
$HANDSEED
  5
   73C
  9
$SURFTAB1
 70
     6
  9
$SURFTAB2
 70
     6
  9
$SURFTYPE
 70
     6
  9
$SURFU
 70
     6
  9
$SURFV
 70
     6
  9
$UCSNAME
  2

  9
$UCSORG
 10
0.0
 20
0.0
 30
0.0
  9
$UCSXDIR
 10
1.0
 20
0.0
 30
0.0
  9
$UCSYDIR
 10
0.0
 20
1.0
 30
0.0
  9
$PUCSNAME
  2

  9
$PUCSORG
 10
0.0
 20
0.0
 30
0.0
  9
$PUCSXDIR
 10
1.0
 20
0.0
 30
0.0
  9
$PUCSYDIR
 10
0.0
 20
1.0
 30
0.0
  9
$USERI1
 70
     0
  9
$USERI2
 70
     0
  9
$USERI3
 70
     0
  9
$USERI4
 70
     0
  9
$USERI5
 70
     0
  9
$USERR1
 40
0.0
  9
$USERR2
 40
0.0
  9
$USERR3
 40
0.0
  9
$USERR4
 40
0.0
  9
$USERR5
 40
0.0
  9
$WORLDVIEW
 70
     1
  9
$SHADEDGE
 70
     3
  9
$SHADEDIF
 70
    70
  9
$TILEMODE
 70
     1
  9
$MAXACTVP
 70
    16
  9
$PINSBASE
 10
0.0
 20
0.0
 30
0.0
  9
$PLIMCHECK
 70
     0
  9
$PEXTMIN
 10
1.0E20
 20
1.0E20
 30
1.0E20
  9
$PEXTMAX
 10
-1.0E20
 20
-1.0E20
 30
-1.0E20
  9
$PLIMMIN
 10
0.0
 20
0.0
  9
$PLIMMAX
 10
12.0
 20
9.0
  9
$UNITMODE
 70
     0
  9
$VISRETAIN
 70
     0
  0
ENDSEC
  0
SECTION
  2
TABLES
  0
TABLE
  2
VPORT
 70
     1
  0
VPORT
  2
*ACTIVE
 70
     0
 10
0.0
 20
0.0
 11
1.0
 21
1.0
 12
6.801242
 22
4.5
 13
0.0
 23
0.0
 14
1.0
 24
1.0
 15
0.0
 25
0.0
 16
0.0
 26
0.0
 36
1.0
 17
0.0
 27
0.0
 37
0.0
 40
9.0
 41
1.511387
 42
50.0
 43
0.0
 44
0.0
 50
0.0
 51
0.0
 71
     0
 72
   100
 73
     1
 74
     1
 75
     0
 76
     0
 77
     0
 78
     0
  0
ENDTAB
  0
TABLE
  2
LTYPE
 70
    41
  0
LTYPE
  2
BYBLOCK
 70
     0
  3

 72
    65
 73
     0
 40
0.0
  0
LTYPE
  2
BYLAYER
 70
     0
  3

 72
    65
 73
     0
 40
0.0
  0
LTYPE
  2
CONTINUOUS
 70
     0
  3
Solid line
 72
    65
 73
     0
 40
0.0
  0
LTYPE
  2
BORDER
 70
    64
  3
__ __ . __ __ . __ __ . __ __ . __ __ . __ __ .
 72
    65
 73
     6
 40
1.75
 49
0.5
 49
-0.25
 49
0.5
 49
-0.25
 49
0.0
 49
-0.25
  0
LTYPE
  2
BORDER2
 70
    64
  3
__.__.__.__.__.__.__.__.__.__.__.__.__.__.__.__
 72
    65
 73
     6
 40
0.875
 49
0.25
 49
-0.125
 49
0.25
 49
-0.125
 49
0.0
 49
-0.125
  0
LTYPE
  2
BORDERX2
 70
    64
  3
____  ____  .  ____  ____  .  ____  ____  .  __
 72
    65
 73
     6
 40
3.5
 49
1.0
 49
-0.5
 49
1.0
 49
-0.5
 49
0.0
 49
-0.5
  0
LTYPE
  2
CENTER
 70
    64
  3
____ _ ____ _ ____ _ ____ _ ____ _ ____ _ ____
 72
    65
 73
     4
 40
2.0
 49
1.25
 49
-0.25
 49
0.25
 49
-0.25
  0
LTYPE
  2
CENTER2
 70
    64
  3
___ _ ___ _ ___ _ ___ _ ___ _ ___ _ ___ _ ___ _
 72
    65
 73
     4
 40
1.125
 49
0.75
 49
-0.125
 49
0.125
 49
-0.125
  0
LTYPE
  2
CENTERX2
 70
    64
  3
________  __  ________  __  ________  __  _____
 72
    65
 73
     4
 40
4.0
 49
2.5
 49
-0.5
 49
0.5
 49
-0.5
  0
LTYPE
  2
DASHDOT
 70
    64
  3
__ . __ . __ . __ . __ . __ . __ . __ . __ . __
 72
    65
 73
     4
 40
1.0
 49
0.5
 49
-0.25
 49
0.0
 49
-0.25
  0
LTYPE
  2
DASHDOT2
 70
    64
  3
_._._._._._._._._._._._._._._._._._._._._._._._
 72
    65
 73
     4
 40
0.5
 49
0.25
 49
-0.125
 49
0.0
 49
-0.125
  0
LTYPE
  2
DASHDOTX2
 70
    64
  3
____  .  ____  .  ____  .  ____  .  ____  .  __
 72
    65
 73
     4
 40
2.0
 49
1.0
 49
-0.5
 49
0.0
 49
-0.5
  0
LTYPE
  2
DASHED
 70
    64
  3
__ __ __ __ __ __ __ __ __ __ __ __ __ __ __ __
 72
    65
 73
     2
 40
0.75
 49
0.5
 49
-0.25
  0
LTYPE
  2
DASHED2
 70
    64
  3
_ _ _ _ _ _ _ _ _ _ _ _ _ _ _ _ _ _ _ _ _ _ _ _
 72
    65
 73
     2
 40
0.375
 49
0.25
 49
-0.125
  0
LTYPE
  2
DASHEDX2
 70
    64
  3
____  ____  ____  ____  ____  ____  ____  ____
 72
    65
 73
     2
 40
1.5
 49
1.0
 49
-0.5
  0
LTYPE
  2
DIVIDE
 70
    64
  3
____ . . ____ . . ____ . . ____ . . ____ . . __
 72
    65
 73
     6
 40
1.25
 49
0.5
 49
-0.25
 49
0.0
 49
-0.25
 49
0.0
 49
-0.25
  0
LTYPE
  2
DIVIDE2
 70
    64
  3
__..__..__..__..__..__..__..__..__..__..__..__.
 72
    65
 73
     6
 40
0.625
 49
0.25
 49
-0.125
 49
0.0
 49
-0.125
 49
0.0
 49
-0.125
  0
LTYPE
  2
DIVIDEX2
 70
    64
  3
________  .  .  ________  .  .  ________  .  .
 72
    65
 73
     6
 40
2.5
 49
1.0
 49
-0.5
 49
0.0
 49
-0.5
 49
0.0
 49
-0.5
  0
LTYPE
  2
DOT
 70
    64
  3
. . . . . . . . . . . . . . . . . . . . . . . .
 72
    65
 73
     2
 40
0.25
 49
0.0
 49
-0.25
  0
LTYPE
  2
DOT2
 70
    64
  3
...............................................
 72
    65
 73
     2
 40
0.125
 49
0.0
 49
-0.125
  0
LTYPE
  2
DOTX2
 70
    64
  3
.  .  .  .  .  .  .  .  .  .  .  .  .  .  .  .
 72
    65
 73
     2
 40
0.5
 49
0.0
 49
-0.5
  0
LTYPE
  2
HIDDEN
 70
    64
  3
__ __ __ __ __ __ __ __ __ __ __ __ __ __ __ __
 72
    65
 73
     2
 40
0.375
 49
0.25
 49
-0.125
  0
LTYPE
  2
HIDDEN2
 70
    64
  3
_ _ _ _ _ _ _ _ _ _ _ _ _ _ _ _ _ _ _ _ _ _ _ _
 72
    65
 73
     2
 40
0.1875
 49
0.125
 49
-0.0625
  0
LTYPE
  2
HIDDENX2
 70
    64
  3
____ ____ ____ ____ ____ ____ ____ ____ ____ __
 72
    65
 73
     2
 40
0.75
 49
0.5
 49
-0.25
  0
LTYPE
  2
PHANTOM
 70
    64
  3
______  __  __  ______  __  __  ______  __  __
 72
    65
 73
     6
 40
2.5
 49
1.25
 49
-0.25
 49
0.25
 49
-0.25
 49
0.25
 49
-0.25
  0
LTYPE
  2
PHANTOM2
 70
    64
  3
___ _ _ ___ _ _ ___ _ _ ___ _ _ ___ _ _ ___ _ _
 72
    65
 73
     6
 40
1.25
 49
0.625
 49
-0.125
 49
0.125
 49
-0.125
 49
0.125
 49
-0.125
  0
LTYPE
  2
PHANTOMX2
 70
    64
  3
____________    ____    ____    ____________
 72
    65
 73
     6
 40
5.0
 49
2.5
 49
-0.5
 49
0.5
 49
-0.5
 49
0.5
 49
-0.5
  0
LTYPE
  2
ACAD_ISO02W100
 70
    64
  3
__ __ __ __ __ __ __ __ __ __ __ __ __ __ __ __
 72
    65
 73
     2
 40
15.0
 49
12.0
 49
-3.0
  0
LTYPE
  2
ACAD_ISO03W100
 70
    64
  3
__    __    __    __    __    __    __    __
 72
    65
 73
     2
 40
30.0
 49
12.0
 49
-18.0
  0
LTYPE
  2
ACAD_ISO04W100
 70
    64
  3
____ . ____ . ____ . ____ . ____ . ____ . ____
 72
    65
 73
     4
 40
30.5
 49
24.0
 49
-3.0
 49
0.5
 49
-3.0
  0
LTYPE
  2
ACAD_ISO05W100
 70
    64
  3
____ .. ____ .. ____ .. ____ .. ____ .. ____ ..
 72
    65
 73
     6
 40
34.0
 49
24.0
 49
-3.0
 49
0.5
 49
-3.0
 49
0.5
 49
-3.0
  0
LTYPE
  2
ACAD_ISO06W100
 70
    64
  3
____ ... ____ ... ____ ... ____ ... ____ ... __
 72
    65
 73
     8
 40
37.5
 49
24.0
 49
-3.0
 49
0.5
 49
-3.0
 49
0.5
 49
-3.0
 49
0.5
 49
-3.0
  0
LTYPE
  2
ACAD_ISO07W100
 70
    64
  3
. . . . . . . . . . . . . . . . . . . . . . . .
 72
    65
 73
     2
 40
3.5
 49
0.5
 49
-3.0
  0
LTYPE
  2
ACAD_ISO08W100
 70
    64
  3
____ __ ____ __ ____ __ ____ ____ __ __ ____ __
 72
    65
 73
     4
 40
36.0
 49
24.0
 49
-3.0
 49
6.0
 49
-3.0
  0
LTYPE
  2
ACAD_ISO09W100
 70
    64
  3
____ __ __ ____ __ __ ____ __ __ ____ __ __ ___
 72
    65
 73
     6
 40
45.0
 49
24.0
 49
-3.0
 49
6.0
 49
-3.0
 49
6.0
 49
-3.0
  0
LTYPE
  2
ACAD_ISO10W100
 70
    64
  3
__ . __ . __ . __ . __ . __ . __ . __ . __ . __
 72
    65
 73
     4
 40
18.5
 49
12.0
 49
-3.0
 49
0.5
 49
-3.0
  0
LTYPE
  2
ACAD_ISO11W100
 70
    64
  3
__ __ . __ __ . __ __ . __ __ . __ __ . __ __ .
 72
    65
 73
     6
 40
33.5
 49
12.0
 49
-3.0
 49
12.0
 49
-3.0
 49
0.5
 49
-3.0
  0
LTYPE
  2
ACAD_ISO12W100
 70
    64
  3
__ . . __ . . __ . . __ . . __ . . __ . . __ .
 72
    65
 73
     6
 40
22.0
 49
12.0
 49
-3.0
 49
0.5
 49
-3.0
 49
0.5
 49
-3.0
  0
LTYPE
  2
ACAD_ISO13W100
 70
    64
  3
__ __ . . __ __ . . __ __ . . __ __ . . __ __ .
 72
    65
 73
     8
 40
37.0
 49
12.0
 49
-3.0
 49
12.0
 49
-3.0
 49
0.5
 49
-3.0
 49
0.5
 49
-3.0
  0
LTYPE
  2
ACAD_ISO14W100
 70
    64
  3
__ . . . __ . . . __ . . . __ . . . __ . . . __
 72
    65
 73
     8
 40
25.5
 49
12.0
 49
-3.0
 49
0.5
 49
-3.0
 49
0.5
 49
-3.0
 49
0.5
 49
-3.0
  0
LTYPE
  2
ACAD_ISO15W100
 70
    64
  3
__ __ . . . __ __ . . . __ __ . . . __ __ . . .
 72
    65
 73
    10
 40
40.5
 49
12.0
 49
-3.0
 49
12.0
 49
-3.0
 49
0.5
 49
-3.0
 49
0.5
 49
-3.0
 49
0.5
 49
-3.0
  0
ENDTAB
  0
TABLE
  2
STYLE
 70
     4
  0
STYLE
  2
STANDARD
 70
    64
 40
0.0
 41
1.0
 50
0.0
 71
     0
 42
0.2
  3
txt
  4

  0
STYLE
  2
TOLERANCE
 70
    64
 40
0.0
 41
1.0
 50
0.0
 71
     0
 42
0.2
  3
../igesfont/iges1003.shx
  4

  0
STYLE
  2
ROMANS
 70
    64
 40
0.0
 41
1.0
 50
0.0
 71
     0
 42
0.2
  3
romans.shx
  4

  0
STYLE
  2
ROMANC
 70
    64
 40
0.0
 41
1.0
 50
0.0
 71
     0
 42
0.2
  3
romanc.shx
  4

  0
ENDTAB
  0
TABLE
  2
DIMSTYLE
 70
     2
  0
DIMSTYLE
  2
UNNAMED
 70
     0
  3

  4

  5

  6

  7

 40
1.0
 41
0.18
 42
0.0625
 43
0.38
 44
0.18
 45
0.0
 46
0.0
 47
0.0
 48
0.0
140
0.18
141
0.09
142
0.0
143
25.4
144
1.0
145
0.0
146
1.0
147
0.09
 71
     0
 72
     0
 73
     1
 74
     1
 75
     0
 76
     0
 77
     0
 78
     0
170
     0
171
     2
172
     0
173
     0
174
     0
175
     0
176
     0
177
     0
178
     0
  0
DIMSTYLE
  2
STANDARD
 70
     0
  3

  4

  5

  6

  7

 40
1.0
 41
0.18
 42
0.0625
 43
0.38
 44
0.18
 45
0.0
 46
0.0
 47
0.0
 48
0.0
140
0.18
141
0.09
142
0.0
143
25.4
144
1.0
145
0.0
146
1.0
147
0.09
 71
     0
 72
     0
 73
     1
 74
     1
 75
     0
 76
     0
 77
     0
 78
     0
170
     0
171
     2
172
     0
173
     0
174
     0
175
     0
176
     0
177
     0
178
     0
  0
ENDTAB
  0
TABLE
  2
LAYER
 70
     2
  0
LAYER
  2
0
 70
     0
 62
     7
  6
CONTINUOUS
  0
LAYER
  2
255
 70
     0
 62
     7
  6
CONTINUOUS
  0
ENDTAB
  0
ENDSEC
  0
SECTION
  2
BLOCKS
  0
BLOCK
  5
     B
  8
0
  6
CONTINUOUS
 62
     3
  2
*HATCH132
 70
    65
 10
0.0
 20
0.0
 30
0.0
  3
*HATCH132
  0
LINE
  5
     C
  8
0
  6
CONTINUOUS
 62
     7
 10
-43.1970138549805
 20
-67.1116638183594
 30
0.0
 11
-42.8145256042481
 21
-67.4941482543945
 31
0.0
  0
ENDBLK
  5
     D
  8
0
  6
CONTINUOUS
 62
     3
  0
BLOCK
  5
     E
  8
0
  6
CONTINUOUS
 62
     7
  2
*HATCH133
 70
    65
 10
0.0
 20
0.0
 30
0.0
  3
*HATCH133
  0
LINE
  5
     F
  8
0
  6
CONTINUOUS
 62
     7
 10
-71.9999923706055
 20
-67.7573394775391
 30
0.0
 11
-73.0507202148438
 21
-68.8080673217774
 31
0.0
  0
ENDBLK
  5
    10
  8
0
  6
CONTINUOUS
 62
     7
  0
BLOCK
  5
    11
  8
0
  6
CONTINUOUS
 62
     7
  2
*HATCH134
 70
    65
 10
0.0
 20
0.0
 30
0.0
  3
*HATCH134
  0
LINE
  5
    12
  8
0
  6
CONTINUOUS
 62
     7
 10
-50.6375579833984
 20
-67.6081161499024
 30
0.0
 11
-51.8375129699707
 21
-68.8080673217774
 31
0.0
  0
LINE
  5
    13
  8
0
  6
CONTINUOUS
 62
     7
 10
-46.3949165344238
 20
-67.6081161499024
 30
0.0
 11
-47.5948715209961
 21
-68.8080673217774
 31
0.0
  0
LINE
  5
    14
  8
0
  6
CONTINUOUS
 62
     7
 10
-42.1522750854492
 20
-67.6081161499024
 30
0.0
 11
-43.3522300720215
 21
-68.8080673217774
 31
0.0
  0
LINE
  5
    15
  8
0
  6
CONTINUOUS
 62
     7
 10
-38.4999885559082
 20
-68.1984710693359
 30
0.0
 11
-39.1095886230469
 21
-68.8080673217774
 31
0.0
  0
ENDBLK
  5
    16
  8
0
  6
CONTINUOUS
 62
     7
  0
BLOCK
  5
    17
  8
0
  6
CONTINUOUS
 62
     7
  2
*HATCH135
 70
    65
 10
0.0
 20
0.0
 30
0.0
  3
*HATCH135
  0
LINE
  5
    18
  8
0
  6
CONTINUOUS
 62
     7
 10
-29.4243545532227
 20
-67.6081161499024
 30
0.0
 11
-30.6243076324463
 21
-68.8080673217774
 31
0.0
  0
LINE
  5
    19
  8
0
  6
CONTINUOUS
 62
     7
 10
-25.648323059082
 20
-68.0747299194336
 30
0.0
 11
-26.7089710235596
 21
-69.1353759765625
 31
0.0
  0
ENDBLK
  5
    1A
  8
0
  6
CONTINUOUS
 62
     7
  0
BLOCK
  5
    1B
  8
0
  6
CONTINUOUS
 62
     7
  2
*HATCH136
 70
    65
 10
0.0
 20
0.0
 30
0.0
  3
*HATCH136
  0
LINE
  5
    1C
  8
0
  6
CONTINUOUS
 62
     7
 10
-20.939037322998
 20
-67.6080856323242
 30
0.0
 11
-22.1390266418457
 21
-68.8080673217774
 31
0.0
  0
LINE
  5
    1D
  8
0
  6
CONTINUOUS
 62
     7
 10
-17.4218807220459
 20
-68.3335647583008
 30
0.0
 11
-18.3003311157227
 21
-69.2120132446289
 31
0.0
  0
LINE
  5
    1E
  8
0
  6
CONTINUOUS
 62
     7
 10
-15.3748569488525
 20
-70.529182434082
 30
0.0
 11
-15.6106023788452
 21
-70.7649307250977
 31
0.0
  0
ENDBLK
  5
    1F
  8
0
  6
CONTINUOUS
 62
     7
  0
BLOCK
  5
    20
  8
0
  6
CONTINUOUS
 62
     3
  2
*HATCH137
 70
    65
 10
0.0
 20
0.0
 30
0.0
  3
*HATCH137
  0
LINE
  5
    21
  8
0
  6
CONTINUOUS
 62
     7
 10
-43.1970138549805
 20
-67.1116638183594
 30
0.0
 11
-42.8145256042481
 21
-67.4941482543945
 31
0.0
  0
ENDBLK
  5
    22
  8
0
  6
CONTINUOUS
 62
     3
  0
BLOCK
  5
    23
  8
0
  6
CONTINUOUS
 62
     3
  2
*HATCH138
 70
    65
 10
0.0
 20
0.0
 30
0.0
  3
*HATCH138
  0
LINE
  5
    24
  8
0
  6
CONTINUOUS
 62
     7
 10
-30.4802761077881
 20
-67.1004791259766
 30
0.0
 11
-30.0238418579102
 21
-67.5569152832031
 31
0.0
  0
ENDBLK
  5
    25
  8
0
  6
CONTINUOUS
 62
     3
  0
BLOCK
  5
    26
  8
0
  6
CONTINUOUS
 62
     3
  2
*HATCH139
 70
    65
 10
0.0
 20
0.0
 30
0.0
  3
*HATCH139
  0
LINE
  5
    27
  8
0
  6
CONTINUOUS
 62
   210
 10
-31.9690952301025
 20
-65.6116638183594
 30
0.0
 11
-31.6043071746826
 21
-65.976448059082
 31
0.0
  0
ENDBLK
  5
    28
  8
0
  6
CONTINUOUS
 62
     3
  0
BLOCK
  5
    29
  8
0
  6
CONTINUOUS
 62
     3
  2
*HATCH140
 70
    65
 10
0.0
 20
0.0
 30
0.0
  3
*HATCH140
  0
LINE
  5
    2A
  8
0
  6
CONTINUOUS
 62
   210
 10
-33.9023094177246
 20
-65.7997665405273
 30
0.0
 11
-33.3975486755371
 21
-66.3045272827148
 31
0.0
  0
ENDBLK
  5
    2B
  8
0
  6
CONTINUOUS
 62
     3
  0
BLOCK
  5
    2C
  8
0
  6
CONTINUOUS
 62
     3
  2
*HATCH141
 70
    65
 10
0.0
 20
0.0
 30
0.0
  3
*HATCH141
  0
LINE
  5
    2D
  8
0
  6
CONTINUOUS
 62
   210
 10
-38.3330535888672
 20
-65.6116638183594
 30
0.0
 11
-38.0033683776855
 21
-65.9413452148438
 31
0.0
  0
ENDBLK
  5
    2E
  8
0
  6
CONTINUOUS
 62
     3
  0
BLOCK
  5
    2F
  8
0
  6
CONTINUOUS
 62
     3
  2
*HATCH142
 70
    65
 10
0.0
 20
0.0
 30
0.0
  3
*HATCH142
  0
LINE
  5
    30
  8
0
  6
CONTINUOUS
 62
   210
 10
-40.2891235351562
 20
-65.7769088745117
 30
0.0
 11
-39.7819290161133
 21
-66.2841033935547
 31
0.0
  0
ENDBLK
  5
    31
  8
0
  6
CONTINUOUS
 62
     3
  0
BLOCK
  5
    32
  8
0
  6
CONTINUOUS
 62
     3
  2
*HATCH143
 70
    65
 10
0.0
 20
0.0
 30
0.0
  3
*HATCH143
  0
LINE
  5
    33
  8
0
  6
CONTINUOUS
 62
   210
 10
-44.6970100402832
 20
-65.6116638183594
 30
0.0
 11
-44.4526252746582
 21
-65.8560485839844
 31
0.0
  0
ENDBLK
  5
    34
  8
0
  6
CONTINUOUS
 62
     3
  0
BLOCK
  5
    35
  8
0
  6
CONTINUOUS
 62
     3
  2
*HATCH144
 70
    65
 10
0.0
 20
0.0
 30
0.0
  3
*HATCH144
  0
LINE
  5
    36
  8
0
  6
CONTINUOUS
 62
   210
 10
-44.2837333679199
 20
-70.267578125
 30
0.0
 11
-43.7765426635742
 21
-70.774772644043
 31
0.0
  0
ENDBLK
  5
    37
  8
0
  6
CONTINUOUS
 62
     3
  0
BLOCK
  5
    38
  8
0
  6
CONTINUOUS
 62
     3
  2
*HATCH145
 70
    65
 10
0.0
 20
0.0
 30
0.0
  3
*HATCH145
  0
LINE
  5
    39
  8
0
  6
CONTINUOUS
 62
   210
 10
-42.3183364868164
 20
-70.1116638183594
 30
0.0
 11
-42.0234756469727
 21
-70.4065170288086
 31
0.0
  0
ENDBLK
  5
    3A
  8
0
  6
CONTINUOUS
 62
     3
  0
BLOCK
  5
    3B
  8
0
  6
CONTINUOUS
 62
     3
  2
*HATCH146
 70
    65
 10
0.0
 20
0.0
 30
0.0
  3
*HATCH146
  0
LINE
  5
    3C
  8
0
  6
CONTINUOUS
 62
   210
 10
-37.8969230651856
 20
-70.2904357910156
 30
0.0
 11
-37.3897323608398
 21
-70.7976226806641
 31
0.0
  0
ENDBLK
  5
    3D
  8
0
  6
CONTINUOUS
 62
     3
  0
BLOCK
  5
    3E
  8
0
  6
CONTINUOUS
 62
     3
  2
*HATCH147
 70
    65
 10
0.0
 20
0.0
 30
0.0
  3
*HATCH147
  0
LINE
  5
    3F
  8
0
  6
CONTINUOUS
 62
   210
 10
-35.9543762207031
 20
-70.1116638183594
 30
0.0
 11
-35.5989189147949
 21
-70.4671173095703
 31
0.0
  0
ENDBLK
  5
    40
  8
0
  6
CONTINUOUS
 62
     3
  0
BLOCK
  5
    41
  8
0
  6
CONTINUOUS
 62
     3
  2
*HATCH148
 70
    65
 10
0.0
 20
0.0
 30
0.0
  3
*HATCH148
  0
LINE
  5
    42
  8
0
  6
CONTINUOUS
 62
   210
 10
-31.5101127624512
 20
-70.3132858276367
 30
0.0
 11
-31.0188751220703
 21
-70.8045272827149
 31
0.0
  0
ENDBLK
  5
    43
  8
0
  6
CONTINUOUS
 62
     3
  0
BLOCK
  5
    44
  8
0
  6
CONTINUOUS
 62
     7
  2
*HATCH149
 70
    65
 10
0.0
 20
0.0
 30
0.0
  3
*HATCH149
  0
LINE
  5
    45
  8
0
  6
CONTINUOUS
 62
     7
 10
-57.828498840332
 20
-65.2080841064453
 30
0.0
 11
-56.6284866333008
 21
-66.4081039428711
 31
0.0
  0
LINE
  5
    46
  8
0
  6
CONTINUOUS
 62
     7
 10
-53.5858612060547
 20
-65.2080841064453
 30
0.0
 11
-52.3858489990234
 21
-66.4081039428711
 31
0.0
  0
LINE
  5
    47
  8
0
  6
CONTINUOUS
 62
     7
 10
-49.3432235717773
 20
-65.2080841064453
 30
0.0
 11
-48.1432113647461
 21
-66.4081039428711
 31
0.0
  0
ENDBLK
  5
    48
  8
0
  6
CONTINUOUS
 62
     7
  0
BLOCK
  5
    49
  8
0
  6
CONTINUOUS
 62
     7
  2
*HATCH150
 70
    65
 10
0.0
 20
0.0
 30
0.0
  3
*HATCH150
  0
LINE
  5
    4A
  8
0
  6
CONTINUOUS
 62
     7
 10
-46.6999702453613
 20
-72.0939865112305
 30
0.0
 11
-45.5858573913574
 21
-73.2080993652344
 31
0.0
  0
LINE
  5
    4B
  8
0
  6
CONTINUOUS
 62
     7
 10
-45.6432113647461
 20
-68.9081039428711
 30
0.0
 11
-45.4999885559082
 21
-69.0513229370117
 31
0.0
  0
ENDBLK
  5
    4C
  8
0
  6
CONTINUOUS
 62
     7
  0
BLOCK
  5
    4D
  8
0
  6
CONTINUOUS
 62
     7
  2
*HATCH151
 70
    65
 10
0.0
 20
0.0
 30
0.0
  3
*HATCH151
  0
LINE
  5
    4E
  8
0
  6
CONTINUOUS
 62
     7
 10
-25.4999885559082
 20
-72.0807723999024
 30
0.0
 11
-24.3726654052734
 21
-73.2080993652344
 31
0.0
  0
LINE
  5
    4F
  8
0
  6
CONTINUOUS
 62
     7
 10
-24.4300212860107
 20
-68.9081039428711
 30
0.0
 11
-24.299991607666
 21
-69.0381317138672
 31
0.0
  0
ENDBLK
  5
    50
  8
0
  6
CONTINUOUS
 62
     7
  0
BLOCK
  5
    51
  8
0
  6
CONTINUOUS
 62
     7
  2
*HATCH152
 70
    65
 10
0.0
 20
0.0
 30
0.0
  3
*HATCH152
  0
LINE
  5
    52
  8
0
  6
CONTINUOUS
 62
     7
 10
-23.7632617950439
 20
-65.3322219848633
 30
0.0
 11
-22.6873798370361
 21
-66.4081039428711
 31
0.0
  0
LINE
  5
    53
  8
0
  6
CONTINUOUS
 62
     7
 10
-19.6447525024414
 20
-65.2080917358398
 30
0.0
 11
-18.4447422027588
 21
-66.4081039428711
 31
0.0
  0
LINE
  5
    54
  8
0
  6
CONTINUOUS
 62
     7
 10
-15.4021110534668
 20
-65.2080917358398
 30
0.0
 11
-14.2021045684814
 21
-66.4081039428711
 31
0.0
  0
LINE
  5
    55
  8
0
  6
CONTINUOUS
 62
     7
 10
-11.1594696044922
 20
-65.2080917358398
 30
0.0
 11
-9.9594669342041
 21
-66.4081039428711
 31
0.0
  0
LINE
  5
    56
  8
0
  6
CONTINUOUS
 62
     7
 10
-6.91682863235474
 20
-65.2080917358398
 30
0.0
 11
-5.7168288230896
 21
-66.4081039428711
 31
0.0
  0
LINE
  5
    57
  8
0
  6
CONTINUOUS
 62
     7
 10
-2.67418885231018
 20
-65.2080993652344
 30
0.0
 11
-2.43915152549744
 21
-65.4431381225586
 31
0.0
  0
ENDBLK
  5
    58
  8
0
  6
CONTINUOUS
 62
     7
  0
BLOCK
  5
    59
  8
0
  6
CONTINUOUS
 62
     3
  2
*HATCH153
 70
    65
 10
0.0
 20
0.0
 30
0.0
  3
*HATCH153
  0
LINE
  5
    5A
  8
0
  6
CONTINUOUS
 62
     7
 10
-43.1970138549805
 20
-67.1116638183594
 30
0.0
 11
-42.8145256042481
 21
-67.4941482543945
 31
0.0
  0
ENDBLK
  5
    5B
  8
0
  6
CONTINUOUS
 62
     3
  0
BLOCK
  5
    5C
  8
0
  6
CONTINUOUS
 62
     3
  2
*HATCH154
 70
    65
 10
0.0
 20
0.0
 30
0.0
  3
*HATCH154
  0
LINE
  5
    5D
  8
0
  6
CONTINUOUS
 62
     7
 10
-30.4802761077881
 20
-67.1004791259766
 30
0.0
 11
-30.0238418579102
 21
-67.5569152832031
 31
0.0
  0
ENDBLK
  5
    5E
  8
0
  6
CONTINUOUS
 62
     3
  0
BLOCK
  5
    5F
  8
0
  6
CONTINUOUS
 62
     3
  2
*HATCH155
 70
    65
 10
0.0
 20
0.0
 30
0.0
  3
*HATCH155
  0
LINE
  5
    60
  8
0
  6
CONTINUOUS
 62
   210
 10
-31.9690952301025
 20
-65.6116638183594
 30
0.0
 11
-31.6043071746826
 21
-65.976448059082
 31
0.0
  0
ENDBLK
  5
    61
  8
0
  6
CONTINUOUS
 62
     3
  0
BLOCK
  5
    62
  8
0
  6
CONTINUOUS
 62
     3
  2
*HATCH156
 70
    65
 10
0.0
 20
0.0
 30
0.0
  3
*HATCH156
  0
LINE
  5
    63
  8
0
  6
CONTINUOUS
 62
   210
 10
-33.9023094177246
 20
-65.7997665405273
 30
0.0
 11
-33.3975486755371
 21
-66.3045272827148
 31
0.0
  0
ENDBLK
  5
    64
  8
0
  6
CONTINUOUS
 62
     3
  0
BLOCK
  5
    65
  8
0
  6
CONTINUOUS
 62
     3
  2
*HATCH157
 70
    65
 10
0.0
 20
0.0
 30
0.0
  3
*HATCH157
  0
LINE
  5
    66
  8
0
  6
CONTINUOUS
 62
   210
 10
-38.3330535888672
 20
-65.6116638183594
 30
0.0
 11
-38.0033683776855
 21
-65.9413452148438
 31
0.0
  0
ENDBLK
  5
    67
  8
0
  6
CONTINUOUS
 62
     3
  0
BLOCK
  5
    68
  8
0
  6
CONTINUOUS
 62
     3
  2
*HATCH158
 70
    65
 10
0.0
 20
0.0
 30
0.0
  3
*HATCH158
  0
LINE
  5
    69
  8
0
  6
CONTINUOUS
 62
   210
 10
-40.2891235351562
 20
-65.7769088745117
 30
0.0
 11
-39.7819290161133
 21
-66.2841033935547
 31
0.0
  0
ENDBLK
  5
    6A
  8
0
  6
CONTINUOUS
 62
     3
  0
BLOCK
  5
    6B
  8
0
  6
CONTINUOUS
 62
     3
  2
*HATCH159
 70
    65
 10
0.0
 20
0.0
 30
0.0
  3
*HATCH159
  0
LINE
  5
    6C
  8
0
  6
CONTINUOUS
 62
   210
 10
-44.6970100402832
 20
-65.6116638183594
 30
0.0
 11
-44.4526252746582
 21
-65.8560485839844
 31
0.0
  0
ENDBLK
  5
    6D
  8
0
  6
CONTINUOUS
 62
     3
  0
BLOCK
  5
    6E
  8
0
  6
CONTINUOUS
 62
     3
  2
*HATCH160
 70
    65
 10
0.0
 20
0.0
 30
0.0
  3
*HATCH160
  0
LINE
  5
    6F
  8
0
  6
CONTINUOUS
 62
   210
 10
-44.2837333679199
 20
-70.267578125
 30
0.0
 11
-43.7765426635742
 21
-70.774772644043
 31
0.0
  0
ENDBLK
  5
    70
  8
0
  6
CONTINUOUS
 62
     3
  0
BLOCK
  5
    71
  8
0
  6
CONTINUOUS
 62
     3
  2
*HATCH161
 70
    65
 10
0.0
 20
0.0
 30
0.0
  3
*HATCH161
  0
LINE
  5
    72
  8
0
  6
CONTINUOUS
 62
   210
 10
-42.3183364868164
 20
-70.1116638183594
 30
0.0
 11
-42.0234756469727
 21
-70.4065170288086
 31
0.0
  0
ENDBLK
  5
    73
  8
0
  6
CONTINUOUS
 62
     3
  0
BLOCK
  5
    74
  8
0
  6
CONTINUOUS
 62
     3
  2
*HATCH162
 70
    65
 10
0.0
 20
0.0
 30
0.0
  3
*HATCH162
  0
LINE
  5
    75
  8
0
  6
CONTINUOUS
 62
   210
 10
-37.8969230651856
 20
-70.2904357910156
 30
0.0
 11
-37.3897323608398
 21
-70.7976226806641
 31
0.0
  0
ENDBLK
  5
    76
  8
0
  6
CONTINUOUS
 62
     3
  0
BLOCK
  5
    77
  8
0
  6
CONTINUOUS
 62
     3
  2
*HATCH163
 70
    65
 10
0.0
 20
0.0
 30
0.0
  3
*HATCH163
  0
LINE
  5
    78
  8
0
  6
CONTINUOUS
 62
   210
 10
-35.9543762207031
 20
-70.1116638183594
 30
0.0
 11
-35.5989189147949
 21
-70.4671173095703
 31
0.0
  0
ENDBLK
  5
    79
  8
0
  6
CONTINUOUS
 62
     3
  0
BLOCK
  5
    7A
  8
0
  6
CONTINUOUS
 62
     3
  2
*HATCH164
 70
    65
 10
0.0
 20
0.0
 30
0.0
  3
*HATCH164
  0
LINE
  5
    7B
  8
0
  6
CONTINUOUS
 62
   210
 10
-31.5101127624512
 20
-70.3132858276367
 30
0.0
 11
-31.0188751220703
 21
-70.8045272827149
 31
0.0
  0
ENDBLK
  5
    7C
  8
0
  6
CONTINUOUS
 62
     3
  0
BLOCK
  5
    7D
  8
0
  6
CONTINUOUS
 62
     7
  2
*HATCH165
 70
    65
 10
0.0
 20
0.0
 30
0.0
  3
*HATCH165
  0
LINE
  5
    7E
  8
0
  6
CONTINUOUS
 62
    52
 10
30.5
 20
-43.2279663085937
 30
0.0
 11
30.9648933410645
 21
-43.6928634643555
 31
0.0
  0
LINE
  5
    7F
  8
0
  6
CONTINUOUS
 62
    52
 10
31.0862140655518
 20
-41.6928634643555
 30
0.0
 11
33.0862121582031
 21
-43.6928634643555
 31
0.0
  0
LINE
  5
    80
  8
0
  6
CONTINUOUS
 62
    52
 10
33.2075347900391
 20
-41.6928634643555
 30
0.0
 11
35.2075309753418
 21
-43.6928634643555
 31
0.0
  0
LINE
  5
    81
  8
0
  6
CONTINUOUS
 62
    52
 10
35.3288536071777
 20
-41.6928634643555
 30
0.0
 11
37.3288497924805
 21
-43.6928634643555
 31
0.0
  0
LINE
  5
    82
  8
0
  6
CONTINUOUS
 62
    52
 10
37.4501724243164
 20
-41.6928634643555
 30
0.0
 11
39.4501686096191
 21
-43.6928634643555
 31
0.0
  0
LINE
  5
    83
  8
0
  6
CONTINUOUS
 62
    52
 10
39.5714912414551
 20
-41.6928634643555
 30
0.0
 11
41.5714874267578
 21
-43.6928634643555
 31
0.0
  0
LINE
  5
    84
  8
0
  6
CONTINUOUS
 62
    52
 10
41.6928100585938
 20
-41.6928634643555
 30
0.0
 11
42.5
 21
-42.5000534057617
 31
0.0
  0
ENDBLK
  5
    85
  8
0
  6
CONTINUOUS
 62
     7
  0
BLOCK
  5
    86
  8
0
  6
CONTINUOUS
 62
     7
  2
*HATCH166
 70
    65
 10
0.0
 20
0.0
 30
0.0
  3
*HATCH166
  0
LINE
  5
    87
  8
0
  6
CONTINUOUS
 62
    52
 10
30.5
 20
-26.2573947906494
 30
0.0
 11
30.9354667663574
 21
-26.6928615570068
 31
0.0
  0
LINE
  5
    88
  8
0
  6
CONTINUOUS
 62
    52
 10
30.5
 20
-24.1360740661621
 30
0.0
 11
33.0567855834961
 21
-26.6928615570068
 31
0.0
  0
LINE
  5
    89
  8
0
  6
CONTINUOUS
 62
    52
 10
31.678108215332
 20
-23.1928615570068
 30
0.0
 11
33.4999885559082
 21
-25.0147438049316
 31
0.0
  0
ENDBLK
  5
    8A
  8
0
  6
CONTINUOUS
 62
     7
  0
BLOCK
  5
    8B
  8
0
  6
CONTINUOUS
 62
     7
  2
*HATCH167
 70
    65
 10
0.0
 20
0.0
 30
0.0
  3
*HATCH167
  0
LINE
  5
    8C
  8
0
  6
CONTINUOUS
 62
    52
 10
39.4999885559082
 20
-24.650785446167
 30
0.0
 11
41.5420608520508
 21
-26.6928615570068
 31
0.0
  0
LINE
  5
    8D
  8
0
  6
CONTINUOUS
 62
    52
 10
40.1633834838867
 20
-23.1928615570068
 30
0.0
 11
42.5
 21
-25.5294799804688
 31
0.0
  0
LINE
  5
    8E
  8
0
  6
CONTINUOUS
 62
    52
 10
42.2847023010254
 20
-23.1928615570068
 30
0.0
 11
42.5
 21
-23.4081573486328
 31
0.0
  0
ENDBLK
  5
    8F
  8
0
  6
CONTINUOUS
 62
     7
  0
BLOCK
  5
    90
  8
0
  6
CONTINUOUS
 62
     3
  2
*UDIM814
 70
    65
 10
0.0
 20
0.0
 30
0.0
  3
*UDIM814
  0
TEXT
  5
    91
  8
0
  6
CONTINUOUS
 62
     3
 10
2094.76187122752
 20
-1524.13537597358
 30
0.0
 40
3.00000002980232
  1
3
 50
359.999999844103
 41
0.933333333333334
 72
     1
 11
2095.86187124252
 21
-1522.63537596166
 31
0.0
 73
     2
  0
LINE
  5
    92
  8
0
  6
CONTINUOUS
 62
     3
 10
2100.51187038422
 20
-1431.16956698883
 30
0.0
 11
2100.51187038422
 21
-1527.13537597656
 31
0.0
  0
LINE
  5
    93
  8
0
  6
CONTINUOUS
 62
     3
 10
2103.51188468933
 20
-1457.66955554474
 30
0.0
 11
2103.51188468933
 21
-1527.13537597656
 31
0.0
  0
LINE
  5
    94
  8
0
  6
CONTINUOUS
 62
     3
 10
2094.7618712316
 20
-1525.13537597656
 30
0.0
 11
2103.51188468933
 21
-1525.13537597656
 31
0.0
  0
LINE
  5
    95
  8
0
  6
CONTINUOUS
 62
     3
 10
2097.55744710701
 20
-1525.65632040651
 30
0.0
 11
2100.51187038422
 21
-1525.13537597656
 31
0.0
  0
LINE
  5
    96
  8
0
  6
CONTINUOUS
 62
     3
 10
2100.51187038422
 20
-1525.13537597656
 30
0.0
 11
2097.55744710701
 21
-1524.61443154661
 31
0.0
  0
LINE
  5
    97
  8
0
  6
CONTINUOUS
 62
     3
 10
2106.46630796654
 20
-1524.61443154661
 30
0.0
 11
2103.51188468933
 21
-1525.13537597656
 31
0.0
  0
LINE
  5
    98
  8
0
  6
CONTINUOUS
 62
     3
 10
2103.51188468933
 20
-1525.13537597656
 30
0.0
 11
2106.46630796654
 21
-1525.65632040651
 31
0.0
  0
ENDBLK
  5
    99
  8
0
  6
CONTINUOUS
 62
     3
  0
BLOCK
  5
    9A
  8
0
  6
CONTINUOUS
 62
     3
  2
*UDIM815
 70
    65
 10
0.0
 20
0.0
 30
0.0
  3
*UDIM815
  0
TEXT
  5
    9B
  8
0
  6
CONTINUOUS
 62
     3
 10
2138.23687893242
 20
-1524.13537596977
 30
0.0
 40
3.00000002980232
  1
75
 50
359.999999844103
 41
0.933333333333333
 72
     1
 11
2140.73687896133
 21
-1522.63537596166
 31
0.0
 73
     2
  0
LINE
  5
    9C
  8
0
  6
CONTINUOUS
 62
     3
 10
2103.51188468933
 20
-1457.66955554474
 30
0.0
 11
2103.51188468933
 21
-1527.13537597656
 31
0.0
  0
LINE
  5
    9D
  8
0
  6
CONTINUOUS
 62
     3
 10
2178.51187157631
 20
-1435.16954040527
 30
0.0
 11
2178.51187157631
 21
-1527.13537597656
 31
0.0
  0
LINE
  5
    9E
  8
0
  6
CONTINUOUS
 62
     3
 10
2103.51188468933
 20
-1525.13537597656
 30
0.0
 11
2178.51187157631
 21
-1525.13537597656
 31
0.0
  0
LINE
  5
    9F
  8
0
  6
CONTINUOUS
 62
     3
 10
2106.46630796654
 20
-1524.61443154661
 30
0.0
 11
2103.51188468933
 21
-1525.13537597656
 31
0.0
  0
LINE
  5
    A0
  8
0
  6
CONTINUOUS
 62
     3
 10
2103.51188468933
 20
-1525.13537597656
 30
0.0
 11
2106.46630796654
 21
-1525.65632040651
 31
0.0
  0
LINE
  5
    A1
  8
0
  6
CONTINUOUS
 62
     3
 10
2175.5574482991
 20
-1525.65632040651
 30
0.0
 11
2178.51187157631
 21
-1525.13537597656
 31
0.0
  0
LINE
  5
    A2
  8
0
  6
CONTINUOUS
 62
     3
 10
2178.51187157631
 20
-1525.13537597656
 30
0.0
 11
2175.5574482991
 21
-1524.61443154661
 31
0.0
  0
ENDBLK
  5
    A3
  8
0
  6
CONTINUOUS
 62
     3
  0
BLOCK
  5
    A4
  8
0
  6
CONTINUOUS
 62
     3
  2
*UDIM816
 70
    65
 10
0.0
 20
0.0
 30
0.0
  3
*UDIM816
  0
TEXT
  5
    A5
  8
0
  6
CONTINUOUS
 62
     3
 10
2135.73688274711
 20
-1303.97954533019
 30
0.0
 40
3.00000002980232
  1
70
 50
359.999999844103
 41
0.933333333333333
 72
     1
 11
2138.23688277602
 21
-1302.47954532208
 31
0.0
 73
     2
  0
LINE
  5
    A6
  8
0
  6
CONTINUOUS
 62
     3
 10
2103.51188468933
 20
-1345.66957080353
 30
0.0
 11
2103.51188468933
 21
-1302.97954533698
 31
0.0
  0
LINE
  5
    A7
  8
0
  6
CONTINUOUS
 62
     3
 10
2173.51187896729
 20
-1378.41954040527
 30
0.0
 11
2173.51187896729
 21
-1302.97954533698
 31
0.0
  0
LINE
  5
    A8
  8
0
  6
CONTINUOUS
 62
     3
 10
2103.51188468933
 20
-1304.97954533698
 30
0.0
 11
2173.51187896729
 21
-1304.97954533698
 31
0.0
  0
LINE
  5
    A9
  8
0
  6
CONTINUOUS
 62
     3
 10
2106.46630796654
 20
-1304.45860090702
 30
0.0
 11
2103.51188468933
 21
-1304.97954533698
 31
0.0
  0
LINE
  5
    AA
  8
0
  6
CONTINUOUS
 62
     3
 10
2103.51188468933
 20
-1304.97954533698
 30
0.0
 11
2106.46630796654
 21
-1305.50048976693
 31
0.0
  0
LINE
  5
    AB
  8
0
  6
CONTINUOUS
 62
     3
 10
2170.55745569008
 20
-1305.50048976693
 30
0.0
 11
2173.51187896729
 21
-1304.97954533698
 31
0.0
  0
LINE
  5
    AC
  8
0
  6
CONTINUOUS
 62
     3
 10
2173.51187896729
 20
-1304.97954533698
 30
0.0
 11
2170.55745569008
 21
-1304.45860090702
 31
0.0
  0
ENDBLK
  5
    AD
  8
0
  6
CONTINUOUS
 62
     3
  0
BLOCK
  5
    AE
  8
0
  6
CONTINUOUS
 62
     3
  2
*UDIM817
 70
    65
 10
0.0
 20
0.0
 30
0.0
  3
*UDIM817
  0
TEXT
  5
    AF
  8
0
  6
CONTINUOUS
 62
     3
 10
2088.66953719841
 20
-1488.16956332236
 30
0.0
 40
3.00000002980232
  1
70
 50
449.999999844103
 41
0.933333333333333
 72
     1
 11
2087.1695371903
 21
-1485.66956329346
 31
0.0
 73
     2
  0
LINE
  5
    B0
  8
0
  6
CONTINUOUS
 62
     3
 10
2102.51188513438
 20
-1460.66955566406
 30
0.0
 11
2087.6695372052
 21
-1460.66955566406
 31
0.0
  0
LINE
  5
    B1
  8
0
  6
CONTINUOUS
 62
     3
 10
2128.02710914612
 20
-1510.66957092285
 30
0.0
 11
2087.6695372052
 21
-1510.66957092285
 31
0.0
  0
LINE
  5
    B2
  8
0
  6
CONTINUOUS
 62
     3
 10
2089.6695372052
 20
-1460.66955566406
 30
0.0
 11
2089.6695372052
 21
-1510.66957092285
 31
0.0
  0
LINE
  5
    B3
  8
0
  6
CONTINUOUS
 62
     3
 10
2090.44599436162
 20
-1463.56733313727
 30
0.0
 11
2089.6695372052
 21
-1460.66955566406
 31
0.0
  0
LINE
  5
    B4
  8
0
  6
CONTINUOUS
 62
     3
 10
2089.6695372052
 20
-1460.66955566406
 30
0.0
 11
2088.89308004878
 21
-1463.56733313727
 31
0.0
  0
LINE
  5
    B5
  8
0
  6
CONTINUOUS
 62
     3
 10
2088.89308004878
 20
-1507.77179344964
 30
0.0
 11
2089.6695372052
 21
-1510.66957092285
 31
0.0
  0
LINE
  5
    B6
  8
0
  6
CONTINUOUS
 62
     3
 10
2089.6695372052
 20
-1510.66957092285
 30
0.0
 11
2090.44599436162
 21
-1507.77179344964
 31
0.0
  0
ENDBLK
  5
    B7
  8
0
  6
CONTINUOUS
 62
     3
  0
BLOCK
  5
    B8
  8
0
  6
CONTINUOUS
 62
     7
  2
DIA_LATO
 70
    64
 10
0.0
 20
0.0
 30
0.0
  3
DIA_LATO
  0
LINE
  5
    B9
  8
0
  6
CONTINUOUS
 62
   210
 10
0.0
 20
0.0
 30
0.0
 11
0.0
 21
23.1999950408936
 31
0.0
  0
ARC
  5
    BA
  8
0
  6
CONTINUOUS
 62
   210
 10
1.5
 20
23.1999950408936
 30
0.0
 40
1.5
 50
90.0
 51
180.0
  0
LINE
  5
    BB
  8
0
  6
CONTINUOUS
 62
   210
 10
0.0
 20
0.199995040893569
 30
0.0
 11
50.0
 21
0.199995040893569
 31
0.0
  0
LINE
  5
    BC
  8
0
  6
CONTINUOUS
 62
   210
 10
1.5
 20
24.6999950408936
 30
0.0
 11
48.5
 21
24.6999950408936
 31
0.0
  0
ARC
  5
    BD
  8
0
  6
CONTINUOUS
 62
   210
 10
48.5
 20
23.1999950408936
 30
0.0
 40
1.5
 50
1.27222187258541E-14
 51
90.0
  0
LINE
  5
    BE
  8
0
  6
CONTINUOUS
 62
   210
 10
50.0
 20
1.52587890767109E-5
 30
0.0
 11
50.0
 21
23.1999950408936
 31
0.0
  0
ENDBLK
  5
    BF
  8
0
  6
CONTINUOUS
 62
     7
  0
BLOCK
  5
    C0
  8
0
  6
CONTINUOUS
 62
     7
  2
$3SSS
 70
    64
 10
0.0
 20
0.0
 30
0.0
  3
$3SSS
  0
ARC
  5
    C1
  8
0
  6
CONTINUOUS
 62
     3
 10
2.55000000000001
 20
2.55
 30
0.0
 40
2.0
 50
178.557523870135
 51
271.442476129865
  0
CIRCLE
  5
    C2
  8
0
  6
CONTINUOUS
 62
     3
 10
0.0
 20
0.0
 30
0.0
 40
3.750066744417
  0
ARC
  5
    C3
  8
0
  6
CONTINUOUS
 62
     3
 10
-2.54999999999998
 20
2.55
 30
0.0
 40
2.0
 50
268.557523870135
 51
361.442476129865
  0
ARC
  5
    C4
  8
0
  6
CONTINUOUS
 62
     3
 10
1.4210854715202E-14
 20
0.0
 30
0.0
 40
2.6580067720004
 50
78.0440027883074
 51
101.955997211693
  0
ARC
  5
    C5
  8
0
  6
CONTINUOUS
 62
     3
 10
1.4210854715202E-14
 20
7.105427357601E-15
 30
0.0
 40
2.6580067720004
 50
168.044002788308
 51
191.955997211693
  0
ARC
  5
    C6
  8
0
  6
CONTINUOUS
 62
     3
 10
1.4210854715202E-14
 20
7.105427357601E-15
 30
0.0
 40
2.6580067720004
 50
348.044002788307
 51
371.955997211692
  0
ARC
  5
    C7
  8
0
  6
CONTINUOUS
 62
     3
 10
2.55000000000001
 20
-2.55
 30
0.0
 40
2.0
 50
88.5575238701351
 51
181.442476129865
  0
ARC
  5
    C8
  8
0
  6
CONTINUOUS
 62
     3
 10
-2.54999999999998
 20
-2.55
 30
0.0
 40
2.0
 50
358.557523870135
 51
451.442476129865
  0
ARC
  5
    C9
  8
0
  6
CONTINUOUS
 62
     3
 10
1.4210854715202E-14
 20
7.105427357601E-15
 30
0.0
 40
2.6580067720004
 50
258.044002788307
 51
281.955997211693
  0
LINE
  5
    CA
  8
0
  6
DASHDOT
 62
     3
 10
0.0
 20
-13.750066744417
 30
0.0
 11
0.0
 21
13.750066744417
 31
0.0
  0
LINE
  5
    CB
  8
0
  6
DASHDOT
 62
     3
 10
-13.750066744417
 20
0.0
 30
0.0
 11
13.750066744417
 21
0.0
 31
0.0
  0
POINT
  5
    CC
  8
0
  6
CONTINUOUS
 62
     3
 10
0.0
 20
0.0
 30
0.0
  0
ENDBLK
  5
    CD
  8
0
  6
CONTINUOUS
 62
     7
  0
BLOCK
  5
    CE
  8
0
  6
CONTINUOUS
 62
     7
  2
*HATCH168
 70
    65
 10
0.0
 20
0.0
 30
0.0
  3
*HATCH168
  0
LINE
  5
    CF
  8
0
  6
CONTINUOUS
 62
     7
 10
-3.7039635181427
 20
2.659996509552
 30
0.0
 11
-4.09285688400269
 21
2.27110314369202
 31
0.0
  0
LINE
  5
    D0
  8
0
  6
CONTINUOUS
 62
     7
 10
-3.6409957408905
 20
2.2987003326416
 30
0.0
 11
-4.3212947845459
 21
1.61840128898621
 31
0.0
  0
LINE
  5
    D1
  8
0
  6
CONTINUOUS
 62
     7
 10
-3.6409957408905
 20
1.87443625926971
 30
0.0
 11
-4.10218858718872
 21
1.41324353218079
 31
0.0
  0
LINE
  5
    D2
  8
0
  6
CONTINUOUS
 62
     7
 10
-3.6409957408905
 20
1.45017230510712
 30
0.0
 11
-3.67792463302612
 21
1.41324353218079
 31
0.0
  0
ENDBLK
  5
    D3
  8
0
  6
CONTINUOUS
 62
     7
  0
BLOCK
  5
    D4
  8
0
  6
CONTINUOUS
 62
     7
  2
*HATCH169
 70
    65
 10
0.0
 20
0.0
 30
0.0
  3
*HATCH169
  0
LINE
  5
    D5
  8
0
  6
CONTINUOUS
 62
     7
 10
-4.26868629455566
 20
1.24674582481384
 30
0.0
 11
-4.54975318908691
 21
0.965678870677948
 31
0.0
  0
LINE
  5
    D6
  8
0
  6
CONTINUOUS
 62
     7
 10
-3.84442234039307
 20
1.24674582481384
 30
0.0
 11
-4.77821111679077
 21
0.312956929206848
 31
0.0
  0
LINE
  5
    D7
  8
0
  6
CONTINUOUS
 62
     7
 10
-3.6409957408905
 20
1.02590835094452
 30
0.0
 11
-4.66690492630005
 21
-4.98909855650709E-7
 31
0.0
  0
LINE
  5
    D8
  8
0
  6
CONTINUOUS
 62
     7
 10
-3.6409957408905
 20
0.601644337177277
 30
0.0
 11
-3.71064043045044
 21
0.531999588012695
 31
0.0
  0
LINE
  5
    D9
  8
0
  6
CONTINUOUS
 62
     7
 10
-4.21202754974365
 20
3.06128244847059E-2
 30
0.0
 11
-4.24264144897461
 21
-1.45736464673973E-6
 31
0.0
  0
ENDBLK
  5
    DA
  8
0
  6
CONTINUOUS
 62
     7
  0
BLOCK
  5
    DB
  8
0
  6
CONTINUOUS
 62
     7
  2
*HATCH170
 70
    65
 10
0.0
 20
0.0
 30
0.0
  3
*HATCH170
  0
LINE
  5
    DC
  8
0
  6
CONTINUOUS
 62
     7
 10
-3.42015838623047
 20
1.24674582481384
 30
0.0
 11
-3.47449803352356
 21
1.19240605831146
 31
0.0
  0
LINE
  5
    DD
  8
0
  6
CONTINUOUS
 62
     7
 10
-2.99589443206787
 20
1.24674582481384
 30
0.0
 11
-3.47449803352356
 21
0.768142104148865
 31
0.0
  0
LINE
  5
    DE
  8
0
  6
CONTINUOUS
 62
     7
 10
-2.64012384414673
 20
1.17825222015381
 30
0.0
 11
-3.28637623786926
 21
0.532000005245209
 31
0.0
  0
LINE
  5
    DF
  8
0
  6
CONTINUOUS
 62
     7
 10
-2.53012871742249
 20
0.863983333110809
 30
0.0
 11
-3.02272534370422
 21
0.371386826038361
 31
0.0
  0
LINE
  5
    E0
  8
0
  6
CONTINUOUS
 62
     7
 10
-2.42013359069824
 20
0.54971444606781
 30
0.0
 11
-2.91273474693298
 21
0.057113379240036
 31
0.0
  0
LINE
  5
    E1
  8
0
  6
CONTINUOUS
 62
     7
 10
-2.310138463974
 20
0.235445529222488
 30
0.0
 11
-2.54558539390564
 21
-1.36076994294854E-6
 31
0.0
  0
ENDBLK
  5
    E2
  8
0
  6
CONTINUOUS
 62
     7
  0
BLOCK
  5
    E3
  8
0
  6
CONTINUOUS
 62
     7
  2
*HATCH171
 70
    65
 10
0.0
 20
0.0
 30
0.0
  3
*HATCH171
  0
LINE
  5
    E4
  8
0
  6
CONTINUOUS
 62
     7
 10
-3.27970123291016
 20
2.65999484062195
 30
0.0
 11
-3.47449803352356
 21
2.46519804000854
 31
0.0
  0
LINE
  5
    E5
  8
0
  6
CONTINUOUS
 62
     7
 10
-3.08010387420654
 20
2.43532824516296
 30
0.0
 11
-3.47449803352356
 21
2.04093408584595
 31
0.0
  0
LINE
  5
    E6
  8
0
  6
CONTINUOUS
 62
     7
 10
-2.97010922431946
 20
2.12105894088745
 30
0.0
 11
-3.47449803352356
 21
1.61667013168335
 31
0.0
  0
LINE
  5
    E7
  8
0
  6
CONTINUOUS
 62
     7
 10
-2.86011457443237
 20
1.80678939819336
 30
0.0
 11
-3.25366044044495
 21
1.41324353218079
 31
0.0
  0
LINE
  5
    E8
  8
0
  6
CONTINUOUS
 62
     7
 10
-2.75011992454529
 20
1.49252009391785
 30
0.0
 11
-2.82939648628235
 21
1.41324353218079
 31
0.0
  0
ENDBLK
  5
    E9
  8
0
  6
CONTINUOUS
 62
     7
  0
BLOCK
  5
    EA
  8
0
  6
CONTINUOUS
 62
     7
  2
*HATCH172
 70
    65
 10
0.0
 20
0.0
 30
0.0
  3
*HATCH172
  0
LINE
  5
    EB
  8
0
  6
CONTINUOUS
 62
     7
 10
-2.00690746307373
 20
2.659996509552
 30
0.0
 11
-2.06149291992188
 21
2.60541105270386
 31
0.0
  0
LINE
  5
    EC
  8
0
  6
CONTINUOUS
 62
     7
 10
-1.58264350891113
 20
2.659996509552
 30
0.0
 11
-2.06149291992188
 21
2.18114709854126
 31
0.0
  0
LINE
  5
    ED
  8
0
  6
CONTINUOUS
 62
     7
 10
-1.34674525260925
 20
2.47163057327271
 30
0.0
 11
-2.06149291992188
 21
1.75688314437866
 31
0.0
  0
LINE
  5
    EE
  8
0
  6
CONTINUOUS
 62
     7
 10
-1.34674525260925
 20
2.04736661911011
 30
0.0
 11
-1.98086845874786
 21
1.41324353218079
 31
0.0
  0
LINE
  5
    EF
  8
0
  6
CONTINUOUS
 62
     7
 10
-1.34674525260925
 20
1.62310266494751
 30
0.0
 11
-1.55660438537598
 21
1.41324353218079
 31
0.0
  0
ENDBLK
  5
    F0
  8
0
  6
CONTINUOUS
 62
     7
  0
BLOCK
  5
    F1
  8
0
  6
CONTINUOUS
 62
     7
  2
*HATCH173
 70
    65
 10
0.0
 20
0.0
 30
0.0
  3
*HATCH173
  0
LINE
  5
    F2
  8
0
  6
CONTINUOUS
 62
     7
 10
-1.72310221195221
 20
1.24674582481384
 30
0.0
 11
-2.06149291992188
 21
0.908355116844177
 31
0.0
  0
LINE
  5
    F3
  8
0
  6
CONTINUOUS
 62
     7
 10
-1.34674525260925
 20
1.19883871078491
 30
0.0
 11
-2.06149291992188
 21
0.484091132879257
 31
0.0
  0
LINE
  5
    F4
  8
0
  6
CONTINUOUS
 62
     7
 10
-1.34674525260925
 20
0.774574756622314
 30
0.0
 11
-2.06149291992188
 21
5.98271489143372E-2
 31
0.0
  0
LINE
  5
    F5
  8
0
  6
CONTINUOUS
 62
     7
 10
-1.34674525260925
 20
0.350310742855072
 30
0.0
 11
-1.69705605506897
 21
6.53578086579266E-16
 31
0.0
  0
ENDBLK
  5
    F6
  8
0
  6
CONTINUOUS
 62
     7
  0
BLOCK
  5
    F7
  8
0
  6
CONTINUOUS
 62
     7
  2
*HATCH174
 70
    65
 10
0.0
 20
0.0
 30
0.0
  3
*HATCH174
  0
LINE
  5
    F8
  8
0
  6
CONTINUOUS
 62
     7
 10
-1.15837943553925
 20
2.659996509552
 30
0.0
 11
-1.18024754524231
 21
2.63812851905823
 31
0.0
  0
LINE
  5
    F9
  8
0
  6
CONTINUOUS
 62
     7
 10
-0.823453903198242
 20
2.57065796852112
 30
0.0
 11
-1.18024754524231
 21
2.21386456489563
 31
0.0
  0
LINE
  5
    FA
  8
0
  6
CONTINUOUS
 62
     7
 10
-0.5418501496315
 20
2.42799782752991
 30
0.0
 11
-1.18024754524231
 21
1.78960049152374
 31
0.0
  0
LINE
  5
    FB
  8
0
  6
CONTINUOUS
 62
     7
 10
-0.449764907360077
 20
2.09581899642944
 30
0.0
 11
-1.13234043121338
 21
1.41324353218079
 31
0.0
  0
LINE
  5
    FC
  8
0
  6
CONTINUOUS
 62
     7
 10
-0.638074100017548
 20
1.48324584960938
 30
0.0
 11
-0.708076417446136
 21
1.41324353218079
 31
0.0
  0
ENDBLK
  5
    FD
  8
0
  6
CONTINUOUS
 62
     7
  0
BLOCK
  5
    FE
  8
0
  6
CONTINUOUS
 62
     7
  2
*HATCH175
 70
    65
 10
0.0
 20
0.0
 30
0.0
  3
*HATCH175
  0
LINE
  5
    FF
  8
0
  6
CONTINUOUS
 62
     7
 10
-0.874574244022369
 20
1.24674582481384
 30
0.0
 11
-1.18024754524231
 21
0.941072523593903
 31
0.0
  0
LINE
  5
   100
  8
0
  6
CONTINUOUS
 62
     7
 10
-0.450310230255127
 20
1.24674582481384
 30
0.0
 11
-1.18024754524231
 21
0.51680850982666
 31
0.0
  0
LINE
  5
   101
  8
0
  6
CONTINUOUS
 62
     7
 10
-0.281659334897995
 20
0.991132616996765
 30
0.0
 11
-1.18024754524231
 21
9.25445482134819E-2
 31
0.0
  0
LINE
  5
   102
  8
0
  6
CONTINUOUS
 62
     7
 10
-0.263972669839859
 20
0.584555327892303
 30
0.0
 11
-0.764747977256775
 21
8.37800353765488E-2
 31
0.0
  0
ENDBLK
  5
   103
  8
0
  6
CONTINUOUS
 62
     7
  0
BLOCK
  5
   104
  8
0
  6
CONTINUOUS
 62
     7
  2
*HATCH176
 70
    65
 10
0.0
 20
0.0
 30
0.0
  3
*HATCH176
  0
LINE
  5
   105
  8
0
  6
CONTINUOUS
 62
     7
 10
0.114412605762482
 20
2.659996509552
 30
0.0
 11
0.0
 21
2.54558396339417
 31
0.0
  0
LINE
  5
   106
  8
0
  6
CONTINUOUS
 62
     7
 10
0.538676619529724
 20
2.659996509552
 30
0.0
 11
0.0
 21
2.12132000923157
 31
0.0
  0
LINE
  5
   107
  8
0
  6
CONTINUOUS
 62
     7
 10
0.714747607707977
 20
2.41180348396301
 30
0.0
 11
0.0
 21
1.69705593585968
 31
0.0
  0
LINE
  5
   108
  8
0
  6
CONTINUOUS
 62
     7
 10
0.714747607707977
 20
1.98753952980042
 30
0.0
 11
0.140451639890671
 21
1.41324353218079
 31
0.0
  0
LINE
  5
   109
  8
0
  6
CONTINUOUS
 62
     7
 10
0.714747607707977
 20
1.56327557563782
 30
0.0
 11
0.564715623855591
 21
1.41324353218079
 31
0.0
  0
ENDBLK
  5
   10A
  8
0
  6
CONTINUOUS
 62
     7
  0
BLOCK
  5
   10B
  8
0
  6
CONTINUOUS
 62
     7
  2
*HATCH177
 70
    65
 10
0.0
 20
0.0
 30
0.0
  3
*HATCH177
  0
LINE
  5
   10C
  8
0
  6
CONTINUOUS
 62
     7
 10
0.962940633296967
 20
2.659996509552
 30
0.0
 11
0.88124543428421
 21
2.57830119132996
 31
0.0
  0
LINE
  5
   10D
  8
0
  6
CONTINUOUS
 62
     7
 10
1.2789386510849
 20
2.55173063278198
 30
0.0
 11
0.88124543428421
 21
2.15403723716736
 31
0.0
  0
LINE
  5
   10E
  8
0
  6
CONTINUOUS
 62
     7
 10
1.53262805938721
 20
2.3811559677124
 30
0.0
 11
0.88124543428421
 21
1.72977328300476
 31
0.0
  0
LINE
  5
   10F
  8
0
  6
CONTINUOUS
 62
     7
 10
1.62471330165863
 20
2.04897713661194
 30
0.0
 11
0.988979697227478
 21
1.41324353218079
 31
0.0
  0
LINE
  5
   110
  8
0
  6
CONTINUOUS
 62
     7
 10
1.46331548690796
 20
1.46331536769867
 30
0.0
 11
1.41324365139008
 21
1.41324353218079
 31
0.0
  0
ENDBLK
  5
   111
  8
0
  6
CONTINUOUS
 62
     7
  0
BLOCK
  5
   112
  8
0
  6
CONTINUOUS
 62
     7
  2
*HATCH178
 70
    65
 10
0.0
 20
0.0
 30
0.0
  3
*HATCH178
  0
LINE
  5
   113
  8
0
  6
CONTINUOUS
 62
     7
 10
0.39821782708168
 20
1.24674582481384
 30
0.0
 11
0.0
 21
0.84852796792984
 31
0.0
  0
LINE
  5
   114
  8
0
  6
CONTINUOUS
 62
     7
 10
0.714747607707977
 20
1.13901150226593
 30
0.0
 11
0.0
 21
0.42426398396492
 31
0.0
  0
LINE
  5
   115
  8
0
  6
CONTINUOUS
 62
     7
 10
0.714747607707977
 20
0.714747548103333
 30
0.0
 11
0.0
 21
0.0
 31
0.0
  0
LINE
  5
   116
  8
0
  6
CONTINUOUS
 62
     7
 10
0.714747607707977
 20
0.290483593940735
 30
0.0
 11
0.424264013767242
 21
7.91553348000328E-16
 31
0.0
  0
ENDBLK
  5
   117
  8
0
  6
CONTINUOUS
 62
     7
  0
BLOCK
  5
   118
  8
0
  6
CONTINUOUS
 62
     7
  2
*HATCH179
 70
    65
 10
0.0
 20
0.0
 30
0.0
  3
*HATCH179
  0
LINE
  5
   119
  8
0
  6
CONTINUOUS
 62
     7
 10
1.24674582481384
 20
1.24674582481384
 30
0.0
 11
0.88124543428421
 21
0.881245374679565
 31
0.0
  0
LINE
  5
   11A
  8
0
  6
CONTINUOUS
 62
     7
 10
1.67100977897644
 20
1.24674582481384
 30
0.0
 11
0.88124543428421
 21
0.456981390714645
 31
0.0
  0
LINE
  5
   11B
  8
0
  6
CONTINUOUS
 62
     7
 10
1.79262113571167
 20
0.944092988967896
 30
0.0
 11
0.88124543428421
 21
3.27173843979836E-2
 31
0.0
  0
LINE
  5
   11C
  8
0
  6
CONTINUOUS
 62
     7
 10
1.73607635498047
 20
0.463284254074097
 30
0.0
 11
1.39401113986969
 21
0.121219135820866
 31
0.0
  0
ENDBLK
  5
   11D
  8
0
  6
CONTINUOUS
 62
     7
  0
BLOCK
  5
   11E
  8
0
  6
CONTINUOUS
 62
     7
  2
$2ABB
 70
    64
 10
0.0
 20
0.0
 30
0.0
  3
$2ABB
  0
LINE
  5
   11F
  8
0
  6
CONTINUOUS
 62
     7
 10
-4.39309755866065
 20
1.4132435798645
 30
0.0
 11
-3.95674135031761
 21
2.6599923848804
 31
0.0
  0
LINE
  5
   120
  8
0
  6
CONTINUOUS
 62
     7
 10
-4.88774871826172
 20
1.33351129624183E-15
 30
0.0
 11
-4.22274780273438
 21
1.33351129624183E-15
 31
0.0
  0
LINE
  5
   121
  8
0
  6
CONTINUOUS
 62
     7
 10
-4.22274218828809
 20
-1.50231959450409E-6
 30
0.0
 11
-4.0365391926282
 21
0.531998110619612
 31
0.0
  0
LINE
  5
   122
  8
0
  6
CONTINUOUS
 62
     7
 10
-4.03654479980469
 20
0.531999588012697
 30
0.0
 11
-3.64099578857422
 21
0.531999588012697
 31
0.0
  0
LINE
  5
   123
  8
0
  6
CONTINUOUS
 62
     7
 10
-4.88774327593104
 20
-2.42794669391699E-6
 30
0.0
 11
-4.45137756989492
 21
1.24674577713013
 31
0.0
  0
LINE
  5
   124
  8
0
  6
CONTINUOUS
 62
     7
 10
-2.66409674425225
 20
1.24674577713013
 30
0.0
 11
-2.22773097566292
 21
-2.60666856455316E-6
 31
0.0
  0
LINE
  5
   125
  8
0
  6
CONTINUOUS
 62
     7
 10
-3.47449798583984
 20
0.531999588012697
 30
0.0
 11
-3.07894897460938
 21
0.531999588012697
 31
0.0
  0
LINE
  5
   126
  8
0
  6
CONTINUOUS
 62
     7
 10
-3.07893739163377
 20
0.53200042788059
 30
0.0
 11
-2.89273439597387
 21
8.14941384263967E-7
 31
0.0
  0
LINE
  5
   127
  8
0
  6
CONTINUOUS
 62
     7
 10
-2.89274597167969
 20
1.33351129624183E-15
 30
0.0
 11
-2.22774505615234
 21
1.33351129624183E-15
 31
0.0
  0
LINE
  5
   128
  8
0
  6
CONTINUOUS
 62
     7
 10
-3.15873717506253
 20
2.65999387867798
 30
0.0
 11
-2.72237316510625
 21
1.4132435798645
 31
0.0
  0
LINE
  5
   129
  8
0
  6
CONTINUOUS
 62
     7
 10
-2.06149291992188
 20
1.33351129624183E-15
 30
0.0
 11
-1.34674530029297
 21
1.33351129624183E-15
 31
0.0
  0
LINE
  5
   12A
  8
0
  6
CONTINUOUS
 62
     7
 10
-0.698249011125256
 20
1.51330638523267
 30
0.0
 11
-0.497944258065633
 21
1.4132435798645
 31
0.0
  0
LINE
  5
   12B
  8
0
  6
CONTINUOUS
 62
     7
 10
-1.18024749755859
 20
1.33351129624183E-15
 30
0.0
 11
-0.982933044433594
 21
1.33351129624183E-15
 31
0.0
  0
LINE
  5
   12C
  8
0
  6
CONTINUOUS
 62
     7
 10
-2.06149291992188
 20
0.0
 30
0.0
 11
-2.06149291992188
 21
1.24674577713013
 31
0.0
  0
LINE
  5
   12D
  8
0
  6
CONTINUOUS
 62
     7
 10
-3.95674896240234
 20
2.659996509552
 30
0.0
 11
-3.64099578857422
 21
2.659996509552
 31
0.0
  0
LINE
  5
   12E
  8
0
  6
CONTINUOUS
 62
     7
 10
-3.47449798583984
 20
2.659996509552
 30
0.0
 11
-3.15874481201172
 21
2.659996509552
 31
0.0
  0
LINE
  5
   12F
  8
0
  6
CONTINUOUS
 62
     7
 10
-2.06149291992188
 20
2.659996509552
 30
0.0
 11
-1.34674530029297
 21
2.659996509552
 31
0.0
  0
LINE
  5
   130
  8
0
  6
CONTINUOUS
 62
     7
 10
-1.18024749755859
 20
2.659996509552
 30
0.0
 11
-1.01650238037109
 21
2.659996509552
 31
0.0
  0
LINE
  5
   131
  8
0
  6
CONTINUOUS
 62
     7
 10
-3.47449798583984
 20
1.4132435798645
 30
0.0
 11
-3.47449798583984
 21
2.659996509552
 31
0.0
  0
LINE
  5
   132
  8
0
  6
CONTINUOUS
 62
     7
 10
-3.47449798583984
 20
0.531999588012695
 30
0.0
 11
-3.47449798583984
 21
1.24674577713013
 31
0.0
  0
LINE
  5
   133
  8
0
  6
CONTINUOUS
 62
     7
 10
-3.64099578857422
 20
1.4132435798645
 30
0.0
 11
-3.64099578857422
 21
2.659996509552
 31
0.0
  0
LINE
  5
   134
  8
0
  6
CONTINUOUS
 62
     7
 10
-3.64099578857422
 20
0.531999588012695
 30
0.0
 11
-3.64099578857422
 21
1.24674577713013
 31
0.0
  0
LINE
  5
   135
  8
0
  6
CONTINUOUS
 62
     7
 10
-4.39309755866065
 20
1.4132435798645
 30
0.0
 11
-3.64099578857422
 21
1.4132435798645
 31
0.0
  0
LINE
  5
   136
  8
0
  6
CONTINUOUS
 62
     7
 10
-4.45137756989492
 20
1.24674577713013
 30
0.0
 11
-3.64099578857422
 21
1.24674577713013
 31
0.0
  0
LINE
  5
   137
  8
0
  6
CONTINUOUS
 62
     7
 10
-3.47449798583984
 20
1.24674577713013
 30
0.0
 11
-2.66409674425225
 21
1.24674577713013
 31
0.0
  0
LINE
  5
   138
  8
0
  6
CONTINUOUS
 62
     7
 10
-1.34674530029297
 20
1.4132435798645
 30
0.0
 11
-1.34674530029297
 21
2.659996509552
 31
0.0
  0
LINE
  5
   139
  8
0
  6
CONTINUOUS
 62
     7
 10
-2.06149291992188
 20
1.4132435798645
 30
0.0
 11
-1.34674530029297
 21
1.4132435798645
 31
0.0
  0
LINE
  5
   13A
  8
0
  6
CONTINUOUS
 62
     7
 10
-1.18024749755859
 20
1.4132435798645
 30
0.0
 11
-1.18024749755859
 21
2.659996509552
 31
0.0
  0
LINE
  5
   13B
  8
0
  6
CONTINUOUS
 62
     7
 10
-1.18024749755859
 20
1.4132435798645
 30
0.0
 11
-0.497944258065633
 21
1.4132435798645
 31
0.0
  0
LINE
  5
   13C
  8
0
  6
CONTINUOUS
 62
     7
 10
-2.06149291992188
 20
1.24674577713013
 30
0.0
 11
-1.34674530029297
 21
1.24674577713013
 31
0.0
  0
LINE
  5
   13D
  8
0
  6
CONTINUOUS
 62
     7
 10
-1.18024749755859
 20
1.24674577713013
 30
0.0
 11
-0.351146494976341
 21
1.24674577713013
 31
0.0
  0
LINE
  5
   13E
  8
0
  6
CONTINUOUS
 62
     7
 10
-1.18024749755859
 20
0.0
 30
0.0
 11
-1.18024749755859
 21
1.24674577713013
 31
0.0
  0
LINE
  5
   13F
  8
0
  6
CONTINUOUS
 62
     7
 10
-1.34674530029297
 20
0.0
 30
0.0
 11
-1.34674530029297
 21
1.24674577713013
 31
0.0
  0
ARC
  5
   140
  8
0
  6
CONTINUOUS
 62
     7
 10
-1.01636629288394
 20
2.0426469527994
 30
0.0
 40
0.617302755021266
 50
300.988438672012
 51
450.0
  0
ARC
  5
   141
  8
0
  6
CONTINUOUS
 62
     7
 10
-0.983116632612569
 20
0.783417365308862
 30
0.0
 40
0.783619468916367
 50
270.01347311298
 51
396.246977192996
  0
LINE
  5
   142
  8
0
  6
CONTINUOUS
 62
     7
 10
-2.06149291992188
 20
1.4132435798645
 30
0.0
 11
-2.06149291992188
 21
2.659996509552
 31
0.0
  0
LINE
  5
   143
  8
0
  6
CONTINUOUS
 62
     7
 10
-3.47449798583984
 20
1.4132435798645
 30
0.0
 11
-2.72237316510625
 21
1.4132435798645
 31
0.0
  0
LINE
  5
   144
  8
0
  6
CONTINUOUS
 62
     7
 10
0.0
 20
1.33351129624183E-15
 30
0.0
 11
0.714747619628906
 21
1.33351129624183E-15
 31
0.0
  0
LINE
  5
   145
  8
0
  6
CONTINUOUS
 62
     7
 10
1.36324390879662
 20
1.51330638523267
 30
0.0
 11
1.56354866185624
 21
1.4132435798645
 31
0.0
  0
LINE
  5
   146
  8
0
  6
CONTINUOUS
 62
     7
 10
0.881245422363281
 20
1.33351129624183E-15
 30
0.0
 11
1.07855987548828
 21
1.33351129624183E-15
 31
0.0
  0
LINE
  5
   147
  8
0
  6
CONTINUOUS
 62
     7
 10
0.0
 20
0.0
 30
0.0
 11
0.0
 21
1.24674577713013
 31
0.0
  0
LINE
  5
   148
  8
0
  6
CONTINUOUS
 62
     7
 10
0.0
 20
2.659996509552
 30
0.0
 11
0.714747619628906
 21
2.659996509552
 31
0.0
  0
LINE
  5
   149
  8
0
  6
CONTINUOUS
 62
     7
 10
0.881245422363281
 20
2.659996509552
 30
0.0
 11
1.04499053955078
 21
2.659996509552
 31
0.0
  0
LINE
  5
   14A
  8
0
  6
CONTINUOUS
 62
     7
 10
0.714747619628906
 20
1.4132435798645
 30
0.0
 11
0.714747619628906
 21
2.659996509552
 31
0.0
  0
LINE
  5
   14B
  8
0
  6
CONTINUOUS
 62
     7
 10
0.0
 20
1.4132435798645
 30
0.0
 11
0.714747619628906
 21
1.4132435798645
 31
0.0
  0
LINE
  5
   14C
  8
0
  6
CONTINUOUS
 62
     7
 10
0.881245422363281
 20
1.4132435798645
 30
0.0
 11
0.881245422363281
 21
2.659996509552
 31
0.0
  0
LINE
  5
   14D
  8
0
  6
CONTINUOUS
 62
     7
 10
0.881245422363281
 20
1.4132435798645
 30
0.0
 11
1.56354866185624
 21
1.4132435798645
 31
0.0
  0
LINE
  5
   14E
  8
0
  6
CONTINUOUS
 62
     7
 10
0.0
 20
1.24674577713013
 30
0.0
 11
0.714747619628906
 21
1.24674577713013
 31
0.0
  0
LINE
  5
   14F
  8
0
  6
CONTINUOUS
 62
     7
 10
0.881245422363281
 20
1.24674577713013
 30
0.0
 11
1.71034642494553
 21
1.24674577713013
 31
0.0
  0
LINE
  5
   150
  8
0
  6
CONTINUOUS
 62
     7
 10
0.881245422363281
 20
0.0
 30
0.0
 11
0.881245422363281
 21
1.24674577713013
 31
0.0
  0
LINE
  5
   151
  8
0
  6
CONTINUOUS
 62
     7
 10
0.714747619628906
 20
0.0
 30
0.0
 11
0.714747619628906
 21
1.24674577713013
 31
0.0
  0
ARC
  5
   152
  8
0
  6
CONTINUOUS
 62
     7
 10
1.04512662703793
 20
2.0426469527994
 30
0.0
 40
0.617302755021266
 50
300.988438672012
 51
450.0
  0
ARC
  5
   153
  8
0
  6
CONTINUOUS
 62
     7
 10
1.07837628730931
 20
0.783417365308862
 30
0.0
 40
0.783619468916367
 50
270.01347311298
 51
396.246977192996
  0
LINE
  5
   154
  8
0
  6
CONTINUOUS
 62
     7
 10
0.0
 20
1.4132435798645
 30
0.0
 11
0.0
 21
2.659996509552
 31
0.0
  0
INSERT
  5
   155
  8
0
  6
CONTINUOUS
 62
     7
  2
*HATCH168
 10
0.0
 20
0.0
 30
0.0
  0
INSERT
  5
   156
  8
0
  6
CONTINUOUS
 62
     7
  2
*HATCH169
 10
0.0
 20
0.0
 30
0.0
  0
INSERT
  5
   157
  8
0
  6
CONTINUOUS
 62
     7
  2
*HATCH170
 10
0.0
 20
0.0
 30
0.0
  0
INSERT
  5
   158
  8
0
  6
CONTINUOUS
 62
     7
  2
*HATCH171
 10
0.0
 20
0.0
 30
0.0
  0
INSERT
  5
   159
  8
0
  6
CONTINUOUS
 62
     7
  2
*HATCH172
 10
0.0
 20
0.0
 30
0.0
  0
INSERT
  5
   15A
  8
0
  6
CONTINUOUS
 62
     7
  2
*HATCH173
 10
0.0
 20
0.0
 30
0.0
  0
INSERT
  5
   15B
  8
0
  6
CONTINUOUS
 62
     7
  2
*HATCH174
 10
0.0
 20
0.0
 30
0.0
  0
INSERT
  5
   15C
  8
0
  6
CONTINUOUS
 62
     7
  2
*HATCH175
 10
0.0
 20
0.0
 30
0.0
  0
INSERT
  5
   15D
  8
0
  6
CONTINUOUS
 62
     7
  2
*HATCH176
 10
0.0
 20
0.0
 30
0.0
  0
INSERT
  5
   15E
  8
0
  6
CONTINUOUS
 62
     7
  2
*HATCH177
 10
0.0
 20
0.0
 30
0.0
  0
INSERT
  5
   15F
  8
0
  6
CONTINUOUS
 62
     7
  2
*HATCH178
 10
0.0
 20
0.0
 30
0.0
  0
INSERT
  5
   160
  8
0
  6
CONTINUOUS
 62
     7
  2
*HATCH179
 10
0.0
 20
0.0
 30
0.0
  0
ENDBLK
  5
   161
  8
0
  6
CONTINUOUS
 62
     7
  0
BLOCK
  5
   162
  8
0
  6
CONTINUOUS
 62
     7
  2
$4SSS
 70
    64
 10
0.0
 20
0.0
 30
0.0
  3
$4SSS
  0
ARC
  5
   163
  8
0
  6
CONTINUOUS
 62
     3
 10
2.55000000000001
 20
2.55
 30
0.0
 40
2.0
 50
178.557523870135
 51
271.442476129865
  0
CIRCLE
  5
   164
  8
0
  6
CONTINUOUS
 62
     3
 10
0.0
 20
0.0
 30
0.0
 40
3.750066744417
  0
ARC
  5
   165
  8
0
  6
CONTINUOUS
 62
     3
 10
-2.54999999999998
 20
2.55
 30
0.0
 40
2.0
 50
268.557523870135
 51
361.442476129865
  0
ARC
  5
   166
  8
0
  6
CONTINUOUS
 62
     3
 10
1.4210854715202E-14
 20
0.0
 30
0.0
 40
2.6580067720004
 50
78.0440027883074
 51
101.955997211693
  0
ARC
  5
   167
  8
0
  6
CONTINUOUS
 62
     3
 10
1.4210854715202E-14
 20
7.105427357601E-15
 30
0.0
 40
2.6580067720004
 50
168.044002788308
 51
191.955997211693
  0
ARC
  5
   168
  8
0
  6
CONTINUOUS
 62
     3
 10
1.4210854715202E-14
 20
7.105427357601E-15
 30
0.0
 40
2.6580067720004
 50
348.044002788307
 51
371.955997211692
  0
ARC
  5
   169
  8
0
  6
CONTINUOUS
 62
     3
 10
2.55000000000001
 20
-2.55
 30
0.0
 40
2.0
 50
88.5575238701351
 51
181.442476129865
  0
ARC
  5
   16A
  8
0
  6
CONTINUOUS
 62
     3
 10
-2.54999999999998
 20
-2.55
 30
0.0
 40
2.0
 50
358.557523870135
 51
451.442476129865
  0
ARC
  5
   16B
  8
0
  6
CONTINUOUS
 62
     3
 10
1.4210854715202E-14
 20
7.105427357601E-15
 30
0.0
 40
2.6580067720004
 50
258.044002788307
 51
281.955997211693
  0
LINE
  5
   16C
  8
0
  6
DASHDOT
 62
     3
 10
0.0
 20
-13.750066744417
 30
0.0
 11
0.0
 21
13.750066744417
 31
0.0
  0
LINE
  5
   16D
  8
0
  6
DASHDOT
 62
     3
 10
-13.750066744417
 20
0.0
 30
0.0
 11
13.750066744417
 21
0.0
 31
0.0
  0
POINT
  5
   16E
  8
0
  6
CONTINUOUS
 62
     3
 10
0.0
 20
0.0
 30
0.0
  0
ENDBLK
  5
   16F
  8
0
  6
CONTINUOUS
 62
     7
  0
BLOCK
  5
   170
  8
0
  6
CONTINUOUS
 62
     3
  2
*UDIM818
 70
    65
 10
0.0
 20
0.0
 30
0.0
  3
*UDIM818
  0
TEXT
  5
   171
  8
0
  6
CONTINUOUS
 62
     3
 10
1996.84498134145
 20
-1313.79963620168
 30
0.0
 40
3.00000002980232
  1
103
 50
359.999999844103
 41
0.933333333333333
 72
     1
 11
2000.74498138427
 21
-1312.29963619737
 31
0.0
 73
     2
  0
LINE
  5
   172
  8
0
  6
CONTINUOUS
 62
     3
 10
1949.24497522918
 20
-1344.66955232337
 30
0.0
 11
1949.24497601683
 21
-1312.79963621227
 31
0.0
  0
LINE
  5
   173
  8
0
  6
CONTINUOUS
 62
     3
 10
2052.24496982198
 20
-1344.66957077026
 30
0.0
 11
2052.24498793801
 21
-1312.79963621227
 31
0.0
  0
LINE
  5
   174
  8
0
  6
CONTINUOUS
 62
     3
 10
1949.2449759674
 20
-1314.79963621227
 30
0.0
 11
2052.24498680114
 21
-1314.79963621227
 31
0.0
  0
LINE
  5
   175
  8
0
  6
CONTINUOUS
 62
     3
 10
1952.14275344061
 20
-1314.02317905585
 30
0.0
 11
1949.2449759674
 21
-1314.79963621227
 31
0.0
  0
LINE
  5
   176
  8
0
  6
CONTINUOUS
 62
     3
 10
1949.2449759674
 20
-1314.79963621227
 30
0.0
 11
1952.14275344061
 21
-1315.57609336869
 31
0.0
  0
LINE
  5
   177
  8
0
  6
CONTINUOUS
 62
     3
 10
2049.34720932793
 20
-1315.57609336869
 30
0.0
 11
2052.24498680114
 21
-1314.79963621227
 31
0.0
  0
LINE
  5
   178
  8
0
  6
CONTINUOUS
 62
     3
 10
2052.24498680114
 20
-1314.79963621227
 30
0.0
 11
2049.34720932793
 21
-1314.02317905585
 31
0.0
  0
ENDBLK
  5
   179
  8
0
  6
CONTINUOUS
 62
     3
  0
BLOCK
  5
   17A
  8
0
  6
CONTINUOUS
 62
     3
  2
*UDIM819
 70
    65
 10
0.0
 20
0.0
 30
0.0
  3
*UDIM819
  0
TEXT
  5
   17B
  8
0
  6
CONTINUOUS
 62
     3
 10
1945.34499133598
 20
-1304.20022152583
 30
0.0
 40
3.00000002980232
  1
206
 50
359.999999844103
 41
0.933333333333333
 72
     1
 11
1949.2449913788
 21
-1302.70022152152
 31
0.0
 73
     2
  0
LINE
  5
   17C
  8
0
  6
CONTINUOUS
 62
     3
 10
1846.24501501106
 20
-1344.66955232337
 30
0.0
 11
1846.24501422928
 21
-1303.20022153642
 31
0.0
  0
LINE
  5
   17D
  8
0
  6
CONTINUOUS
 62
     3
 10
2052.24496923469
 20
-1344.66957077026
 30
0.0
 11
2052.24496845291
 21
-1303.20022153642
 31
0.0
  0
LINE
  5
   17E
  8
0
  6
CONTINUOUS
 62
     3
 10
1846.24501426698
 20
-1305.20022153642
 30
0.0
 11
2052.24496849061
 21
-1305.20022153642
 31
0.0
  0
LINE
  5
   17F
  8
0
  6
CONTINUOUS
 62
     3
 10
1849.14279174019
 20
-1304.42376438
 30
0.0
 11
1846.24501426698
 21
-1305.20022153642
 31
0.0
  0
LINE
  5
   180
  8
0
  6
CONTINUOUS
 62
     3
 10
1846.24501426698
 20
-1305.20022153642
 30
0.0
 11
1849.14279174019
 21
-1305.97667869284
 31
0.0
  0
LINE
  5
   181
  8
0
  6
CONTINUOUS
 62
     3
 10
2049.3471910174
 20
-1305.97667869284
 30
0.0
 11
2052.24496849061
 21
-1305.20022153642
 31
0.0
  0
LINE
  5
   182
  8
0
  6
CONTINUOUS
 62
     3
 10
2052.24496849061
 20
-1305.20022153642
 30
0.0
 11
2049.3471910174
 21
-1304.42376438
 31
0.0
  0
ENDBLK
  5
   183
  8
0
  6
CONTINUOUS
 62
     3
  0
BLOCK
  5
   184
  8
0
  6
CONTINUOUS
 62
     3
  2
*UDIM820
 70
    65
 10
0.0
 20
0.0
 30
0.0
  3
*UDIM820
  0
TEXT
  5
   185
  8
0
  6
CONTINUOUS
 62
     3
 10
2069.12199782647
 20
-1439.44452709467
 30
0.0
 40
3.00000002980232
  1
48
 50
449.999999844103
 41
0.933333333333333
 72
     1
 11
2067.62199781835
 21
-1436.94452706576
 31
0.0
 73
     2
  0
LINE
  5
   186
  8
0
  6
CONTINUOUS
 62
     3
 10
2059.47514893291
 20
-1412.66952514649
 30
0.0
 11
2072.12199783325
 21
-1412.66952514649
 31
0.0
  0
LINE
  5
   187
  8
0
  6
CONTINUOUS
 62
     3
 10
2048.74499916077
 20
-1460.66952819825
 30
0.0
 11
2072.12199783325
 21
-1460.66952819825
 31
0.0
  0
LINE
  5
   188
  8
0
  6
CONTINUOUS
 62
     3
 10
2070.12199783325
 20
-1412.66952514649
 30
0.0
 11
2070.12199783325
 21
-1460.66952819825
 31
0.0
  0
LINE
  5
   189
  8
0
  6
CONTINUOUS
 62
     3
 10
2070.6429422632
 20
-1415.6239484237
 30
0.0
 11
2070.12199783325
 21
-1412.66952514649
 31
0.0
  0
LINE
  5
   18A
  8
0
  6
CONTINUOUS
 62
     3
 10
2070.12199783325
 20
-1412.66952514649
 30
0.0
 11
2069.6010534033
 21
-1415.6239484237
 31
0.0
  0
LINE
  5
   18B
  8
0
  6
CONTINUOUS
 62
     3
 10
2069.6010534033
 20
-1457.71510492105
 30
0.0
 11
2070.12199783325
 21
-1460.66952819825
 31
0.0
  0
LINE
  5
   18C
  8
0
  6
CONTINUOUS
 62
     3
 10
2070.12199783325
 20
-1460.66952819825
 30
0.0
 11
2070.6429422632
 21
-1457.71510492105
 31
0.0
  0
ENDBLK
  5
   18D
  8
0
  6
CONTINUOUS
 62
     3
  0
BLOCK
  5
   18E
  8
0
  6
CONTINUOUS
 62
     3
  2
*UDIM821
 70
    65
 10
0.0
 20
0.0
 30
0.0
  3
*UDIM821
  0
TEXT
  5
   18F
  8
0
  6
CONTINUOUS
 62
     3
 10
1832.83796691216
 20
-1415.44452518135
 30
0.0
 40
3.00000002980232
  1
45
 50
449.999999844103
 41
0.933333333333333
 72
     1
 11
1831.33796690404
 21
-1412.94452515244
 31
0.0
 73
     2
  0
TEXT
  5
   190
  8
0
  6
CONTINUOUS
 62
     3
 10
1836.83796693056
 20
-1419.64452522307
 30
0.0
 40
3.00000002980232
  1
=   =
 50
449.999999844103
 41
0.933333333333333
 72
     1
 11
1835.33796693385
 21
-1412.94452515244
 31
0.0
 73
     2
  0
LINE
  5
   191
  8
0
  6
CONTINUOUS
 62
     3
 10
1846.24502182007
 20
-1390.16952514649
 30
0.0
 11
1831.83796691895
 21
-1390.16952514649
 31
0.0
  0
LINE
  5
   192
  8
0
  6
CONTINUOUS
 62
     3
 10
1846.24502868652
 20
-1435.16952514648
 30
0.0
 11
1831.83796691895
 21
-1435.16952514648
 31
0.0
  0
LINE
  5
   193
  8
0
  6
CONTINUOUS
 62
     3
 10
1833.83796691895
 20
-1390.16952514649
 30
0.0
 11
1833.83796691895
 21
-1435.16952514648
 31
0.0
  0
LINE
  5
   194
  8
0
  6
CONTINUOUS
 62
     3
 10
1834.3589113489
 20
-1393.1239484237
 30
0.0
 11
1833.83796691895
 21
-1390.16952514649
 31
0.0
  0
LINE
  5
   195
  8
0
  6
CONTINUOUS
 62
     3
 10
1833.83796691895
 20
-1390.16952514649
 30
0.0
 11
1833.31702248899
 21
-1393.1239484237
 31
0.0
  0
LINE
  5
   196
  8
0
  6
CONTINUOUS
 62
     3
 10
1833.31702248899
 20
-1432.21510186927
 30
0.0
 11
1833.83796691895
 21
-1435.16952514648
 31
0.0
  0
LINE
  5
   197
  8
0
  6
CONTINUOUS
 62
     3
 10
1833.83796691895
 20
-1435.16952514648
 30
0.0
 11
1834.3589113489
 21
-1432.21510186927
 31
0.0
  0
ENDBLK
  5
   198
  8
0
  6
CONTINUOUS
 62
     3
  0
BLOCK
  5
   199
  8
0
  6
CONTINUOUS
 62
     7
  2
*UDIM822
 70
    65
 10
0.0
 20
0.0
 30
0.0
  3
*UDIM822
  0
TEXT
  5
   19A
  8
0
  6
CONTINUOUS
 62
     7
 10
1825.23307799234
 20
-1404.84454808344
 30
0.0
 40
3.00000002980232
  1
120
 50
449.999999844103
 41
0.933333333333333
 72
     1
 11
1823.73307798803
 21
-1400.94454804063
 31
0.0
 73
     2
  0
LINE
  5
   19B
  8
0
  6
CONTINUOUS
 62
     3
 10
1899.2449798584
 20
-1340.66955566406
 30
0.0
 11
1824.23307800293
 21
-1340.66955566406
 31
0.0
  0
LINE
  5
   19C
  8
0
  6
CONTINUOUS
 62
     3
 10
1874.24495173801
 20
-1460.66954040527
 30
0.0
 11
1824.23307800293
 21
-1460.66954040527
 31
0.0
  0
LINE
  5
   19D
  8
0
  6
CONTINUOUS
 62
     3
 10
1826.23307800293
 20
-1340.66955566406
 30
0.0
 11
1826.23307800293
 21
-1460.66954040527
 31
0.0
  0
LINE
  5
   19E
  8
0
  6
CONTINUOUS
 62
     2
 10
1827.00953515935
 20
-1343.56733313727
 30
0.0
 11
1826.23307800293
 21
-1340.66955566406
 31
0.0
  0
LINE
  5
   19F
  8
0
  6
CONTINUOUS
 62
     2
 10
1826.23307800293
 20
-1340.66955566406
 30
0.0
 11
1825.45662084651
 21
-1343.56733313727
 31
0.0
  0
LINE
  5
   1A0
  8
0
  6
CONTINUOUS
 62
     3
 10
1825.71213357298
 20
-1457.71511712806
 30
0.0
 11
1826.23307800293
 21
-1460.66954040527
 31
0.0
  0
LINE
  5
   1A1
  8
0
  6
CONTINUOUS
 62
     3
 10
1826.23307800293
 20
-1460.66954040527
 30
0.0
 11
1826.75402243288
 21
-1457.71511712806
 31
0.0
  0
ENDBLK
  5
   1A2
  8
0
  6
CONTINUOUS
 62
     7
  0
BLOCK
  5
   1A3
  8
0
  6
CONTINUOUS
 62
     7
  2
*UDIM823
 70
    65
 10
0.0
 20
0.0
 30
0.0
  3
*UDIM823
  0
TEXT
  5
   1A4
  8
0
  6
CONTINUOUS
 62
     7
 10
1825.23307798854
 20
-1333.61955572078
 30
0.0
 40
3.00000002980232
  1
24.5
 50
449.999999844103
 41
0.933333333333333
 72
     1
 11
1823.73307798803
 21
-1328.31955566406
 31
0.0
 73
     2
  0
LINE
  5
   1A5
  8
0
  6
CONTINUOUS
 62
     3
 10
1871.99503125789
 20
-1315.96955566406
 30
0.0
 11
1824.23307800293
 21
-1315.96955566406
 31
0.0
  0
LINE
  5
   1A6
  8
0
  6
CONTINUOUS
 62
     3
 10
1826.23307800293
 20
-1315.96955566406
 30
0.0
 11
1826.23307800293
 21
-1340.66955566406
 31
0.0
  0
LINE
  5
   1A7
  8
0
  6
CONTINUOUS
 62
     3
 10
1826.75402243288
 20
-1318.92397894127
 30
0.0
 11
1826.23307800293
 21
-1315.96955566406
 31
0.0
  0
LINE
  5
   1A8
  8
0
  6
CONTINUOUS
 62
     3
 10
1826.23307800293
 20
-1315.96955566406
 30
0.0
 11
1825.71213357298
 21
-1318.92397894127
 31
0.0
  0
LINE
  5
   1A9
  8
0
  6
CONTINUOUS
 62
     2
 10
1825.45662084651
 20
-1337.77177819085
 30
0.0
 11
1826.23307800293
 21
-1340.66955566406
 31
0.0
  0
LINE
  5
   1AA
  8
0
  6
CONTINUOUS
 62
     2
 10
1826.23307800293
 20
-1340.66955566406
 30
0.0
 11
1827.00953515935
 21
-1337.77177819085
 31
0.0
  0
ENDBLK
  5
   1AB
  8
0
  6
CONTINUOUS
 62
     7
  0
BLOCK
  5
   1AC
  8
0
  6
CONTINUOUS
 62
     7
  2
*HATCH180
 70
    65
 10
0.0
 20
0.0
 30
0.0
  3
*HATCH180
  0
LINE
  5
   1AD
  8
0
  6
CONTINUOUS
 62
   210
 10
-89.0046768188477
 20
-139.916351318359
 30
0.0
 11
-91.8880996704102
 21
-142.799789428711
 31
0.0
  0
LINE
  5
   1AE
  8
0
  6
CONTINUOUS
 62
   210
 10
-88.2411346435547
 20
-141.274139404297
 30
0.0
 11
-91.6199645996094
 21
-144.652969360352
 31
0.0
  0
LINE
  5
   1AF
  8
0
  6
CONTINUOUS
 62
   210
 10
-87.9411315917969
 20
-143.095458984375
 30
0.0
 11
-90.8681030273438
 21
-146.022415161133
 31
0.0
  0
ENDBLK
  5
   1B0
  8
0
  6
CONTINUOUS
 62
     7
  0
BLOCK
  5
   1B1
  8
0
  6
CONTINUOUS
 62
     7
  2
*HATCH181
 70
    65
 10
0.0
 20
0.0
 30
0.0
  3
*HATCH181
  0
LINE
  5
   1B2
  8
0
  6
CONTINUOUS
 62
   210
 10
-89.2027435302734
 20
-114.658584594727
 30
0.0
 11
-91.8506240844727
 21
-117.306465148926
 31
0.0
  0
LINE
  5
   1B3
  8
0
  6
CONTINUOUS
 62
   210
 10
-88.3797988891602
 20
-115.956954956055
 30
0.0
 11
-91.7236785888672
 21
-119.300834655762
 31
0.0
  0
LINE
  5
   1B4
  8
0
  6
CONTINUOUS
 62
   210
 10
-87.9411315917969
 20
-117.639610290527
 30
0.0
 11
-91.0575561523438
 21
-120.75602722168
 31
0.0
  0
LINE
  5
   1B5
  8
0
  6
CONTINUOUS
 62
   210
 10
-88.5013961791992
 20
-120.321197509766
 30
0.0
 11
-90.0525741577149
 21
-121.872375488281
 31
0.0
  0
ENDBLK
  5
   1B6
  8
0
  6
CONTINUOUS
 62
     7
  0
BLOCK
  5
   1B7
  8
0
  6
CONTINUOUS
 62
     7
  2
*HATCH182
 70
    65
 10
0.0
 20
0.0
 30
0.0
  3
*HATCH182
  0
LINE
  5
   1B8
  8
0
  6
CONTINUOUS
 62
   210
 10
-89.4395294189453
 20
-89.4395217895508
 30
0.0
 11
-91.7301559448242
 21
-91.7301559448242
 31
0.0
  0
LINE
  5
   1B9
  8
0
  6
CONTINUOUS
 62
   210
 10
-88.5184631347656
 20
-90.6397705078125
 30
0.0
 11
-91.802490234375
 21
-93.9238052368164
 31
0.0
  0
LINE
  5
   1BA
  8
0
  6
CONTINUOUS
 62
   210
 10
-87.9933471679688
 20
-92.2359771728516
 30
0.0
 11
-91.2470092773438
 21
-95.4896392822266
 31
0.0
  0
LINE
  5
   1BB
  8
0
  6
CONTINUOUS
 62
   210
 10
-88.1501312255859
 20
-94.5140838623047
 30
0.0
 11
-90.2893600463867
 21
-96.6533126831055
 31
0.0
  0
ENDBLK
  5
   1BC
  8
0
  6
CONTINUOUS
 62
     7
  0
BLOCK
  5
   1BD
  8
0
  6
CONTINUOUS
 62
     7
  2
*HATCH183
 70
    65
 10
0.0
 20
0.0
 30
0.0
  3
*HATCH183
  0
LINE
  5
   1BE
  8
0
  6
CONTINUOUS
 62
   210
 10
-89.6763153076172
 20
-64.2204666137695
 30
0.0
 11
-91.477897644043
 21
-66.0220413208008
 31
0.0
  0
LINE
  5
   1BF
  8
0
  6
CONTINUOUS
 62
   210
 10
-88.6913909912109
 20
-65.3568649291992
 30
0.0
 11
-91.8813018798828
 21
-68.5467758178711
 31
0.0
  0
LINE
  5
   1C0
  8
0
  6
CONTINUOUS
 62
   210
 10
-88.0721588134766
 20
-66.8589477539063
 30
0.0
 11
-91.3906784057617
 21
-70.1774673461914
 31
0.0
  0
LINE
  5
   1C1
  8
0
  6
CONTINUOUS
 62
   210
 10
-88.0296630859375
 20
-68.9377746582031
 30
0.0
 11
-90.5261459350586
 21
-71.4342498779297
 31
0.0
  0
ENDBLK
  5
   1C2
  8
0
  6
CONTINUOUS
 62
     7
  0
BLOCK
  5
   1C3
  8
0
  6
CONTINUOUS
 62
     7
  2
*HATCH184
 70
    65
 10
0.0
 20
0.0
 30
0.0
  3
*HATCH184
  0
LINE
  5
   1C4
  8
0
  6
CONTINUOUS
 62
   210
 10
101.778617858887
 20
-44.5924873352051
 30
0.0
 11
99.2385330200195
 21
-47.1325721740723
 31
0.0
  0
LINE
  5
   1C5
  8
0
  6
CONTINUOUS
 62
   210
 10
102.631172180176
 20
-45.8612518310547
 30
0.0
 11
99.3053512573242
 21
-49.1870765686035
 31
0.0
  0
LINE
  5
   1C6
  8
0
  6
CONTINUOUS
 62
   210
 10
103.111679077148
 20
-47.5020713806152
 30
0.0
 11
99.9380950927734
 21
-50.675651550293
 31
0.0
  0
LINE
  5
   1C7
  8
0
  6
CONTINUOUS
 62
   210
 10
102.658248901367
 20
-50.0768203735352
 30
0.0
 11
100.92879486084
 21
-51.8062744140625
 31
0.0
  0
ENDBLK
  5
   1C8
  8
0
  6
CONTINUOUS
 62
     7
  0
BLOCK
  5
   1C9
  8
0
  6
CONTINUOUS
 62
     7
  2
*HATCH185
 70
    65
 10
0.0
 20
0.0
 30
0.0
  3
*HATCH185
  0
LINE
  5
   1CA
  8
0
  6
CONTINUOUS
 62
   210
 10
101.541839599609
 20
-19.3734264373779
 30
0.0
 11
99.359001159668
 21
-21.5562610626221
 31
0.0
  0
LINE
  5
   1CB
  8
0
  6
CONTINUOUS
 62
   210
 10
102.492515563965
 20
-20.5440692901611
 30
0.0
 11
99.2265396118164
 21
-23.8100433349609
 31
0.0
  0
LINE
  5
   1CC
  8
0
  6
CONTINUOUS
 62
   210
 10
103.035690307617
 20
-22.1222171783447
 30
0.0
 11
99.7589569091797
 21
-25.3989429473877
 31
0.0
  0
LINE
  5
   1CD
  8
0
  6
CONTINUOUS
 62
   210
 10
102.939025878906
 20
-24.3401966094971
 30
0.0
 11
100.692008972168
 21
-26.587215423584
 31
0.0
  0
ENDBLK
  5
   1CE
  8
0
  6
CONTINUOUS
 62
     7
  0
BLOCK
  5
   1CF
  8
0
  6
CONTINUOUS
 62
     7
  2
*HATCH186
 70
    65
 10
0.0
 20
0.0
 30
0.0
  3
*HATCH186
  0
LINE
  5
   1D0
  8
0
  6
CONTINUOUS
 62
   210
 10
101.305053710938
 20
5.84563207626343
 30
0.0
 11
99.6817474365234
 21
4.22233057022095
 31
0.0
  0
LINE
  5
   1D1
  8
0
  6
CONTINUOUS
 62
   210
 10
102.304252624512
 20
4.72351408004761
 30
0.0
 11
99.1647109985352
 21
1.58396875858307
 31
0.0
  0
LINE
  5
   1D2
  8
0
  6
CONTINUOUS
 62
   210
 10
102.956878662109
 20
3.25481486320496
 30
0.0
 11
99.6203002929688
 21
-8.17613378167152E-2
 31
0.0
  0
LINE
  5
   1D3
  8
0
  6
CONTINUOUS
 62
   210
 10
103.059494018555
 20
1.23611450195313
 30
0.0
 11
100.455223083496
 21
-1.36815583705902
 31
0.0
  0
ENDBLK
  5
   1D4
  8
0
  6
CONTINUOUS
 62
     7
  0
BLOCK
  5
   1D5
  8
0
  6
CONTINUOUS
 62
     7
  2
*HATCH187
 70
    65
 10
0.0
 20
0.0
 30
0.0
  3
*HATCH187
  0
LINE
  5
   1D6
  8
0
  6
CONTINUOUS
 62
   210
 10
102.114799499512
 20
29.9899024963379
 30
0.0
 11
99.1647109985352
 21
27.0398120880127
 31
0.0
  0
LINE
  5
   1D7
  8
0
  6
CONTINUOUS
 62
   210
 10
102.860466003418
 20
28.6142501831055
 30
0.0
 11
99.4816360473633
 21
25.2354202270508
 31
0.0
  0
LINE
  5
   1D8
  8
0
  6
CONTINUOUS
 62
   210
 10
103.111679077148
 20
26.7441387176514
 30
0.0
 11
100.25138092041
 21
23.8838405609131
 31
0.0
  0
ENDBLK
  5
   1D9
  8
0
  6
CONTINUOUS
 62
     7
  0
BLOCK
  5
   1DA
  8
0
  6
CONTINUOUS
 62
     7
  2
DIAFRAMMA
 70
    64
 10
0.0
 20
0.0
 30
0.0
  3
DIAFRAMMA
  0
LINE
  5
   1DB
  8
0
  6
CONTINUOUS
 62
   210
 10
-0.75
 20
26.7
 30
0.0
 11
0.75
 21
26.7
 31
0.0
  0
LINE
  5
   1DC
  8
0
  6
CONTINUOUS
 62
   210
 10
0.75
 20
2.2
 30
0.0
 11
0.75
 21
26.7
 31
0.0
  0
LINE
  5
   1DD
  8
0
  6
CONTINUOUS
 62
   210
 10
-0.75
 20
2.2
 30
0.0
 11
-0.75
 21
26.7
 31
0.0
  0
LINE
  5
   1DE
  8
0
  6
CONTINUOUS
 62
   210
 10
-1.4
 20
2.2
 30
0.0
 11
-0.75
 21
2.2
 31
0.0
  0
LINE
  5
   1DF
  8
0
  6
CONTINUOUS
 62
   210
 10
0.75
 20
2.2
 30
0.0
 11
1.4
 21
2.2
 31
0.0
  0
LINE
  5
   1E0
  8
0
  6
CONTINUOUS
 62
   210
 10
-1.4
 20
-2.1
 30
0.0
 11
-1.4
 21
2.2
 31
0.0
  0
LINE
  5
   1E1
  8
0
  6
CONTINUOUS
 62
   210
 10
-2.25
 20
0.0
 30
0.0
 11
-1.4
 21
0.0
 31
0.0
  0
LINE
  5
   1E2
  8
0
  6
CONTINUOUS
 62
   210
 10
-2.25
 20
-1.3
 30
0.0
 11
-2.25
 21
2.22044604925031E-16
 31
0.0
  0
LINE
  5
   1E3
  8
0
  6
CONTINUOUS
 62
   210
 10
-2.25
 20
-1.3
 30
0.0
 11
2.25
 21
-1.3
 31
0.0
  0
LINE
  5
   1E4
  8
0
  6
CONTINUOUS
 62
   210
 10
-1.4
 20
-2.1
 30
0.0
 11
1.4
 21
-2.1
 31
0.0
  0
LINE
  5
   1E5
  8
0
  6
CONTINUOUS
 62
   210
 10
1.4
 20
0.0
 30
0.0
 11
2.25
 21
0.0
 31
0.0
  0
LINE
  5
   1E6
  8
0
  6
CONTINUOUS
 62
   210
 10
1.4
 20
-2.1
 30
0.0
 11
1.4
 21
2.2
 31
0.0
  0
LINE
  5
   1E7
  8
0
  6
CONTINUOUS
 62
   210
 10
2.25
 20
-1.3
 30
0.0
 11
2.25
 21
4.44089209850063E-16
 31
0.0
  0
ENDBLK
  5
   1E8
  8
0
  6
CONTINUOUS
 62
     7
  0
ENDSEC
  0
SECTION
  2
ENTITIES
  0
TEXT
  5
   1E9
  8
0
  6
CONTINUOUS
 62
     2
 10
2194.75388483489
 20
-1572.49363146059
 30
0.0
 40
2.50000005960464
  1
1/1
 50
359.999999844103
 41
0.954999929332734
 72
     1
 11
2198.09638467205
 21
-1571.24363143986
 31
0.0
 73
     2
  0
TEXT
  5
   1EA
  8
0
  6
CONTINUOUS
 62
     2
 10
2044.88236645141
 20
-1559.61194279326
 30
0.0
 40
2.50000005960464
  1
M4374 97-07-21
 50
359.999999844103
 41
0.64999958527089
 11
2044.88236645481
 21
-1558.36194276345
 31
0.0
 73
     2
  0
LINE
  5
   1EB
  8
0
  6
CONTINUOUS
 62
     7
 10
2133.51198534977
 20
-1448.66956899284
 30
0.0
 11
2133.01198537544
 21
-1449.16956896716
 31
0.0
  0
LINE
  5
   1EC
  8
0
  6
CONTINUOUS
 62
     7
 10
2131.02710914612
 20
-1446.05595384451
 30
0.0
 11
2131.02710914612
 21
-1457.66954040527
 31
0.0
  0
LINE
  5
   1ED
  8
0
  6
DASHDOT
 62
     7
 10
2129.36711120445
 20
-1451.66954040526
 30
0.0
 11
2172.85543482778
 21
-1451.66954040526
 31
0.0
  0
LINE
  5
   1EE
  8
0
  6
DOT
 62
     7
 10
2153.01192825717
 20
-1446.66956127151
 30
0.0
 11
2153.01192825717
 21
-1456.66955398452
 31
0.0
  0
LINE
  5
   1EF
  8
0
  6
DASHDOT
 62
     7
 10
2141.57393462393
 20
-1451.66954040526
 30
0.0
 11
2172.8554350662
 21
-1451.66954040526
 31
0.0
  0
ARC
  5
   1F0
  8
0
  6
DOT
 62
     7
 10
2152.01194591522
 20
-1455.6695437195
 30
0.0
 40
1.0
 50
359.999999844103
 51
449.999999844103
  0
ARC
  5
   1F1
  8
0
  6
DOT
 62
     7
 10
2152.01194591522
 20
-1447.6695437195
 30
0.0
 40
1.0
 50
269.999999844103
 51
359.999999844103
  0
LINE
  5
   1F2
  8
0
  6
DOT
 62
     7
 10
2155.01194591522
 20
-1446.66956127151
 30
0.0
 11
2155.01194591522
 21
-1456.66956127151
 31
0.0
  0
ARC
  5
   1F3
  8
0
  6
DOT
 62
     7
 10
2155.01194591522
 20
-1454.66956127151
 30
0.0
 40
2.0
 50
269.999999844103
 51
359.999999844103
  0
LINE
  5
   1F4
  8
0
  6
DOT
 62
     7
 10
2157.01194591522
 20
-1452.41956127151
 30
0.0
 11
2157.01194591522
 21
-1454.66956127151
 31
0.0
  0
LINE
  5
   1F5
  8
0
  6
DOT
 62
     7
 10
2157.01194591522
 20
-1448.66956127151
 30
0.0
 11
2157.01194591522
 21
-1450.91956127151
 31
0.0
  0
ARC
  5
   1F6
  8
0
  6
DOT
 62
     7
 10
2155.01194591522
 20
-1448.66956127151
 30
0.0
 40
2.0
 50
359.999999844103
 51
449.999999844103
  0
ARC
  5
   1F7
  8
0
  6
DOT
 62
     7
 10
2156.76194591522
 20
-1452.41956127151
 30
0.0
 40
0.25
 50
359.999999844103
 51
449.999999844103
  0
LINE
  5
   1F8
  8
0
  6
DOT
 62
     7
 10
2155.51194591522
 20
-1452.16956127151
 30
0.0
 11
2156.76194591522
 21
-1452.16956127151
 31
0.0
  0
LINE
  5
   1F9
  8
0
  6
DOT
 62
     7
 10
2155.51194591522
 20
-1451.16956127151
 30
0.0
 11
2155.51194591522
 21
-1452.16956127151
 31
0.0
  0
LINE
  5
   1FA
  8
0
  6
DOT
 62
     7
 10
2155.51194591522
 20
-1451.16956127151
 30
0.0
 11
2156.76194591522
 21
-1451.16956127151
 31
0.0
  0
ARC
  5
   1FB
  8
0
  6
DOT
 62
     7
 10
2156.76194591522
 20
-1450.91956127151
 30
0.0
 40
0.25
 50
269.999999844103
 51
359.999999844103
  0
LINE
  5
   1FC
  8
0
  6
DOT
 62
     7
 10
2153.01194591522
 20
-1446.66956127151
 30
0.0
 11
2155.01194591522
 21
-1446.66956127151
 31
0.0
  0
LINE
  5
   1FD
  8
0
  6
CONTINUOUS
 62
     7
 10
2153.01194591522
 20
-1456.66956127151
 30
0.0
 11
2155.01194591522
 21
-1456.66956127151
 31
0.0
  0
LINE
  5
   1FE
  8
0
  6
CONTINUOUS
 62
     7
 10
2131.02710914612
 20
-1446.13101682691
 30
0.0
 11
2131.02710914612
 21
-1459.92113143772
 31
0.0
  0
LINE
  5
   1FF
  8
0
  6
CONTINUOUS
 62
     7
 10
2127.02710914612
 20
-1446.13101682691
 30
0.0
 11
2127.02710914612
 21
-1459.92113143772
 31
0.0
  0
LINE
  5
   200
  8
0
  6
CONTINUOUS
 62
     7
 10
2127.02710914612
 20
-1446.13101682691
 30
0.0
 11
2131.02710914612
 21
-1446.13101682691
 31
0.0
  0
LINE
  5
   201
  8
0
  6
CONTINUOUS
 62
     7
 10
2124.52710914612
 20
-1459.92113143772
 30
0.0
 11
2133.52710914612
 21
-1459.92113143772
 31
0.0
  0
LINE
  5
   202
  8
0
  6
CONTINUOUS
 62
     7
 10
2133.52710914612
 20
-1459.92113143772
 30
0.0
 11
2133.52710914612
 21
-1506.16957092285
 31
0.0
  0
LINE
  5
   203
  8
0
  6
CONTINUOUS
 62
     7
 10
2124.52710914612
 20
-1459.92113143772
 30
0.0
 11
2124.52710914612
 21
-1506.16957092285
 31
0.0
  0
ARC
  5
   204
  8
0
  6
CONTINUOUS
 62
     7
 10
2129.02710914612
 20
-1506.16957092285
 30
0.0
 40
4.5
 50
539.999999844103
 51
719.999999844103
  0
LINE
  5
   205
  8
0
  6
CONTINUOUS
 62
     7
 10
2103.51194807688
 20
-1460.66955807336
 30
0.0
 11
2103.51194807688
 21
-1465.88498093144
 31
0.0
  0
LINE
  5
   206
  8
0
  6
CONTINUOUS
 62
     7
 10
2112.51194807688
 20
-1460.66955807336
 30
0.0
 11
2112.51194807688
 21
-1465.88498093144
 31
0.0
  0
LINE
  5
   207
  8
0
  6
CONTINUOUS
 62
     7
 10
2106.05746540498
 20
-1475.38498093144
 30
0.0
 11
2125.12999482909
 21
-1508.41957092285
 31
0.0
  0
LINE
  5
   208
  8
0
  6
CONTINUOUS
 62
     7
 10
2113.85169403904
 20
-1470.88498093144
 30
0.0
 11
2124.52710914612
 21
-1489.37534228879
 31
0.0
  0
ARC
  5
   209
  8
0
  6
CONTINUOUS
 62
     7
 10
2122.51194807688
 20
-1465.88498093144
 30
0.0
 40
10.0
 50
539.999999844103
 51
569.999999844103
  0
ARC
  5
   20A
  8
0
  6
CONTINUOUS
 62
     7
 10
2122.51194807688
 20
-1465.88498093144
 30
0.0
 40
19.0
 50
539.999999844103
 51
569.999999844103
  0
LINE
  5
   20B
  8
0
  6
CONTINUOUS
 62
     7
 10
2101.11199378967
 20
-1453.18753945816
 30
0.0
 11
2101.31200885773
 21
-1453.18753945816
 31
0.0
  0
LINE
  5
   20C
  8
0
  6
CONTINUOUS
 62
     7
 10
2103.51188513438
 20
-1460.66955566406
 30
0.0
 11
2124.52710914612
 21
-1460.66955566406
 31
0.0
  0
LINE
  5
   20D
  8
0
  6
CONTINUOUS
 62
     7
 10
2103.51188513438
 20
-1340.66957092285
 30
0.0
 11
2149.01187133789
 21
-1340.66957092285
 31
0.0
  0
LINE
  5
   20E
  8
0
  6
DOT
 62
     7
 10
2117.01187076569
 20
-1355.66957092286
 30
0.0
 11
2130.51187136173
 21
-1355.66957092286
 31
0.0
  0
LINE
  5
   20F
  8
0
  6
CONTINUOUS
 62
     7
 10
2103.51188513438
 20
-1340.66957092285
 30
0.0
 11
2103.51188513438
 21
-1362.16955566406
 31
0.0
  0
LINE
  5
   210
  8
0
  6
CONTINUOUS
 62
     7
 10
2131.02704620361
 20
-1445.16954040527
 30
0.0
 11
2131.02704620361
 21
-1456.64367445669
 31
0.0
  0
LINE
  5
   211
  8
0
  6
CONTINUOUS
 62
     7
 10
2133.02704620361
 20
-1445.16954040527
 30
0.0
 11
2133.02704620361
 21
-1456.64367445669
 31
0.0
  0
LINE
  5
   212
  8
0
  6
CONTINUOUS
 62
     7
 10
2131.02704620361
 20
-1456.64367445669
 30
0.0
 11
2133.02704620361
 21
-1456.64367445669
 31
0.0
  0
LINE
  5
   213
  8
0
  6
DASHDOT
 62
     7
 10
2126.98162422265
 20
-1349.66956760862
 30
0.0
 11
2152.01263569979
 21
-1349.66956760862
 31
0.0
  0
LINE
  5
   214
  8
0
  6
DASHDOT
 62
     7
 10
2129.36704826194
 20
-1451.66954040526
 30
0.0
 11
2146.00085481408
 21
-1451.66954040526
 31
0.0
  0
LINE
  5
   215
  8
0
  6
CONTINUOUS
 62
     7
 10
2178.51187157631
 20
-1418.38919614971
 30
0.0
 11
2195.70750597202
 21
-1423.58542408761
 31
0.0
  0
LINE
  5
   216
  8
0
  6
CONTINUOUS
 62
     7
 10
2195.70756010247
 20
-1423.58544032767
 30
0.0
 11
2195.92173328649
 21
-1423.71584417684
 31
0.0
  0
LINE
  5
   217
  8
0
  6
CONTINUOUS
 62
     7
 10
2195.92169517217
 20
-1423.71583013462
 30
0.0
 11
2196.0456332938
 21
-1423.93381589361
 31
0.0
  0
LINE
  5
   218
  8
0
  6
CONTINUOUS
 62
     7
 10
2196.04565392401
 20
-1423.93382851851
 30
0.0
 11
2196.04817952044
 21
-1424.18456889879
 31
0.0
  0
LINE
  5
   219
  8
0
  6
CONTINUOUS
 62
     7
 10
2196.04817025941
 20
-1424.18456052534
 30
0.0
 11
2195.31924711715
 21
-1427.11982743947
 31
0.0
  0
LINE
  5
   21A
  8
0
  6
CONTINUOUS
 62
     7
 10
2195.31925328033
 20
-1427.11982260266
 30
0.0
 11
2195.19398982567
 21
-1427.34630927595
 31
0.0
  0
LINE
  5
   21B
  8
0
  6
CONTINUOUS
 62
     7
 10
2195.19399623591
 20
-1427.3463171621
 30
0.0
 11
2194.97226950367
 21
-1427.47982748582
 31
0.0
  0
LINE
  5
   21C
  8
0
  6
CONTINUOUS
 62
     7
 10
2194.97229266976
 20
-1427.47982750111
 30
0.0
 11
2194.71351737109
 21
-1427.48458830484
 31
0.0
  0
LINE
  5
   21D
  8
0
  6
CONTINUOUS
 62
     7
 10
2178.51187157631
 20
-1423.46127979285
 30
0.0
 11
2194.71349174804
 21
-1427.48458721434
 31
0.0
  0
LINE
  5
   21E
  8
0
  6
DOT
 62
     7
 10
2137.51187076569
 20
-1343.66956760862
 30
0.0
 11
2137.51187076569
 21
-1346.66956760862
 31
0.0
  0
LINE
  5
   21F
  8
0
  6
DOT
 62
     7
 10
2119.01187076569
 20
-1343.66956760862
 30
0.0
 11
2119.01187076569
 21
-1355.66956760862
 31
0.0
  0
LINE
  5
   220
  8
0
  6
DOT
 62
     7
 10
2117.01187076569
 20
-1343.66956760862
 30
0.0
 11
2117.01187076569
 21
-1355.66956760862
 31
0.0
  0
LINE
  5
   221
  8
0
  6
DOT
 62
     7
 10
2117.01187076569
 20
-1343.66956760862
 30
0.0
 11
2137.51187076569
 21
-1343.66956760862
 31
0.0
  0
LINE
  5
   222
  8
0
  6
DOT
 62
     7
 10
2133.51187076569
 20
-1355.66956760862
 30
0.0
 11
2137.51187076569
 21
-1355.66956760862
 31
0.0
  0
LINE
  5
   223
  8
0
  6
DOT
 62
     7
 10
2134.01187076569
 20
-1346.66956760862
 30
0.0
 11
2148.01187076569
 21
-1346.66956760862
 31
0.0
  0
LINE
  5
   224
  8
0
  6
DOT
 62
     7
 10
2134.01187076569
 20
-1352.66956760862
 30
0.0
 11
2148.01187076569
 21
-1352.66956760862
 31
0.0
  0
LINE
  5
   225
  8
0
  6
CONTINUOUS
 62
     7
 10
2134.01187076569
 20
-1346.66956760862
 30
0.0
 11
2133.51187076569
 21
-1347.16956760862
 31
0.0
  0
LINE
  5
   226
  8
0
  6
CONTINUOUS
 62
     7
 10
2133.51187076569
 20
-1352.16956760862
 30
0.0
 11
2134.01187076569
 21
-1352.66956760862
 31
0.0
  0
LINE
  5
   227
  8
0
  6
DOT
 62
     7
 10
2134.01187076569
 20
-1346.66956760862
 30
0.0
 11
2134.01187076569
 21
-1352.66956760862
 31
0.0
  0
LINE
  5
   228
  8
0
  6
DOT
 62
     7
 10
2137.51187076569
 20
-1352.66956760862
 30
0.0
 11
2137.51187076569
 21
-1355.66956760862
 31
0.0
  0
LINE
  5
   229
  8
0
  6
CONTINUOUS
 62
     7
 10
2145.52710914612
 20
-1445.66955566406
 30
0.0
 11
2145.52710914612
 21
-1448.6695437195
 31
0.0
  0
LINE
  5
   22A
  8
0
  6
CONTINUOUS
 62
     7
 10
2127.02710914612
 20
-1445.66955566406
 30
0.0
 11
2127.02710914612
 21
-1457.66955566406
 31
0.0
  0
LINE
  5
   22B
  8
0
  6
CONTINUOUS
 62
     7
 10
2125.02710914612
 20
-1445.66955566406
 30
0.0
 11
2125.02710914612
 21
-1457.66955566406
 31
0.0
  0
LINE
  5
   22C
  8
0
  6
CONTINUOUS
 62
     7
 10
2125.02710914612
 20
-1445.66955566406
 30
0.0
 11
2131.02704620361
 21
-1445.66955566406
 31
0.0
  0
LINE
  5
   22D
  8
0
  6
CONTINUOUS
 62
     7
 10
2125.02710914612
 20
-1457.66955566406
 30
0.0
 11
2127.02710914612
 21
-1457.66955566406
 31
0.0
  0
LINE
  5
   22E
  8
0
  6
CONTINUOUS
 62
     7
 10
2133.02704620361
 20
-1445.66955566406
 30
0.0
 11
2145.52710914612
 21
-1445.66955566406
 31
0.0
  0
LINE
  5
   22F
  8
0
  6
DOT
 62
     7
 10
2133.51187076569
 20
-1347.16956760862
 30
0.0
 11
2148.51187076569
 21
-1347.16956760862
 31
0.0
  0
LINE
  5
   230
  8
0
  6
DOT
 62
     7
 10
2133.51187076569
 20
-1352.16956760862
 30
0.0
 11
2148.51187076569
 21
-1352.16956760862
 31
0.0
  0
LINE
  5
   231
  8
0
  6
CONTINUOUS
 62
     7
 10
2103.51188513438
 20
-1419.86955566406
 30
0.0
 11
2103.51188513438
 21
-1460.66955566406
 31
0.0
  0
INSERT
  5
   232
  8
0
  6
CONTINUOUS
 62
     3
  2
*HATCH132
 10
2168.71997070313
 20
-1415.16955566406
 30
0.0
 50
269.999999844103
  0
LINE
  5
   233
  8
0
  6
DOT
 62
     7
 10
2130.51188356877
 20
-1344.41957230832
 30
0.0
 11
2130.51188356877
 21
-1356.11956329346
 31
0.0
  0
LINE
  5
   234
  8
0
  6
DOT
 62
     7
 10
2133.51188297272
 20
-1344.41957855225
 30
0.0
 11
2133.51188297272
 21
-1356.61956329346
 31
0.0
  0
LINE
  5
   235
  8
0
  6
DOT
 62
     7
 10
2130.51188356903
 20
-1344.4195653725
 30
0.0
 11
2133.5118829728
 21
-1344.41958617994
 31
0.0
  0
LINE
  5
   236
  8
0
  6
CONTINUOUS
 62
     7
 10
2102.31186962128
 20
-1357.16956698883
 30
0.0
 11
2103.51188468933
 21
-1357.16956698883
 31
0.0
  0
LINE
  5
   237
  8
0
  6
CONTINUOUS
 62
     7
 10
2102.31186962128
 20
-1345.66956698883
 30
0.0
 11
2103.51188468933
 21
-1345.66956698883
 31
0.0
  0
LINE
  5
   238
  8
0
  6
CONTINUOUS
 62
     7
 10
2102.31186962128
 20
-1457.66955554474
 30
0.0
 11
2103.51188468933
 21
-1457.66955554474
 31
0.0
  0
LINE
  5
   239
  8
0
  6
DOT
 62
     7
 10
2103.24393546581
 20
-1389.16956698883
 30
0.0
 11
2103.51188468933
 21
-1389.16956698883
 31
0.0
  0
LINE
  5
   23A
  8
0
  6
CONTINUOUS
 62
     7
 10
2102.31186962128
 20
-1345.66956698883
 30
0.0
 11
2102.31186962128
 21
-1367.46964486393
 31
0.0
  0
LINE
  5
   23B
  8
0
  6
CONTINUOUS
 62
     7
 10
2102.31186962128
 20
-1437.16953647125
 30
0.0
 11
2102.31186962128
 21
-1457.66955173004
 31
0.0
  0
LINE
  5
   23C
  8
0
  6
CONTINUOUS
 62
     7
 10
2103.51188468933
 20
-1345.66957080353
 30
0.0
 11
2103.51188468933
 21
-1457.66955554474
 31
0.0
  0
LINE
  5
   23D
  8
0
  6
CONTINUOUS
 62
     7
 10
2101.11185398102
 20
-1368.46958529938
 30
0.0
 11
2101.31186962128
 21
-1368.46958529938
 31
0.0
  0
LINE
  5
   23E
  8
0
  6
CONTINUOUS
 62
     7
 10
2101.11185398102
 20
-1369.66956698883
 30
0.0
 11
2101.31186943054
 21
-1369.66956698883
 31
0.0
  0
LINE
  5
   23F
  8
0
  6
CONTINUOUS
 62
     7
 10
2095.51187038422
 20
-1368.46958529938
 30
0.0
 11
2095.51187038422
 21
-1369.66956698883
 31
0.0
  0
LINE
  5
   240
  8
0
  6
CONTINUOUS
 62
     7
 10
2095.51187038422
 20
-1389.66956698883
 30
0.0
 11
2095.51187038422
 21
-1390.86956393707
 31
0.0
  0
LINE
  5
   241
  8
0
  6
CONTINUOUS
 62
     7
 10
2095.51187038422
 20
-1428.66956698883
 30
0.0
 11
2095.51187038422
 21
-1433.66956698883
 31
0.0
  0
LINE
  5
   242
  8
0
  6
CONTINUOUS
 62
     7
 10
2095.51187038422
 20
-1428.66956698883
 30
0.0
 11
2098.8420124054
 21
-1428.66956698883
 31
0.0
  0
LINE
  5
   243
  8
0
  6
CONTINUOUS
 62
     7
 10
2098.84198296329
 20
-1428.6695692712
 30
0.0
 11
2099.51185550103
 21
-1431.16956675277
 31
0.0
  0
LINE
  5
   244
  8
0
  6
CONTINUOUS
 62
     7
 10
2099.51187038422
 20
-1431.16956698883
 30
0.0
 11
2100.51187038422
 21
-1431.16956698883
 31
0.0
  0
LINE
  5
   245
  8
0
  6
CONTINUOUS
 62
     7
 10
2100.51187038422
 20
-1395.66956698883
 30
0.0
 11
2100.51187038422
 21
-1431.16956698883
 31
0.0
  0
LINE
  5
   246
  8
0
  6
CONTINUOUS
 62
     7
 10
2099.51187038422
 20
-1395.66956698883
 30
0.0
 11
2100.51187038422
 21
-1395.66956698883
 31
0.0
  0
LINE
  5
   247
  8
0
  6
CONTINUOUS
 62
     7
 10
2095.51185478782
 20
-1394.5977505586
 30
0.0
 11
2098.50248622462
 21
-1395.39909597684
 31
0.0
  0
LINE
  5
   248
  8
0
  6
CONTINUOUS
 62
     7
 10
2095.51187038422
 20
-1392.66956698883
 30
0.0
 11
2095.51187038422
 21
-1394.5977591275
 31
0.0
  0
LINE
  5
   249
  8
0
  6
DOT
 62
     7
 10
2102.31186962128
 20
-1389.16956698883
 30
0.0
 11
2103.24393552542
 21
-1389.16956698883
 31
0.0
  0
LINE
  5
   24A
  8
0
  6
CONTINUOUS
 62
     7
 10
2099.01188468933
 20
-1437.16955649841
 30
0.0
 11
2103.51188468933
 21
-1437.16955649841
 31
0.0
  0
LINE
  5
   24B
  8
0
  6
CONTINUOUS
 62
     7
 10
2099.91189994812
 20
-1341.16956698883
 30
0.0
 11
2101.11185398102
 21
-1341.16956698883
 31
0.0
  0
LINE
  5
   24C
  8
0
  6
CONTINUOUS
 62
     7
 10
2101.11185398102
 20
-1395.66958224762
 30
0.0
 11
2101.11185398102
 21
-1396.49110019195
 31
0.0
  0
LINE
  5
   24D
  8
0
  6
CONTINUOUS
 62
     7
 10
2101.11185398102
 20
-1369.66959750641
 30
0.0
 11
2101.11185398102
 21
-1395.66956698883
 31
0.0
  0
LINE
  5
   24E
  8
0
  6
CONTINUOUS
 62
     7
 10
2101.11185398102
 20
-1341.16956698883
 30
0.0
 11
2101.11185398102
 21
-1369.66956698883
 31
0.0
  0
LINE
  5
   24F
  8
0
  6
CONTINUOUS
 62
     7
 10
2101.11192344316
 20
-1396.49109982222
 30
0.0
 11
2098.9511533397
 21
-1400.2336700179
 31
0.0
  0
LINE
  5
   250
  8
0
  6
CONTINUOUS
 62
     7
 10
2097.9118827843
 20
-1399.63368891657
 30
0.0
 11
2098.95107369369
 21
-1400.23367220312
 31
0.0
  0
LINE
  5
   251
  8
0
  6
CONTINUOUS
 62
     7
 10
2099.91187002068
 20
-1396.16958181644
 30
0.0
 11
2097.91187007098
 21
-1399.63367772224
 31
0.0
  0
LINE
  5
   252
  8
0
  6
CONTINUOUS
 62
     7
 10
2099.91189994812
 20
-1341.16956698883
 30
0.0
 11
2099.91189994812
 21
-1369.66956698883
 31
0.0
  0
LINE
  5
   253
  8
0
  6
CONTINUOUS
 62
     7
 10
2099.91189994812
 20
-1369.66956698883
 30
0.0
 11
2099.91189994812
 21
-1386.09849917696
 31
0.0
  0
LINE
  5
   254
  8
0
  6
CONTINUOUS
 62
     7
 10
2099.91189994812
 20
-1395.37478244293
 30
0.0
 11
2099.91189994812
 21
-1396.16956698883
 31
0.0
  0
LINE
  5
   255
  8
0
  6
CONTINUOUS
 62
     7
 10
2101.11185455322
 20
-1454.16955554474
 30
0.0
 11
2101.31186962128
 21
-1454.16955554474
 31
0.0
  0
LINE
  5
   256
  8
0
  6
CONTINUOUS
 62
     7
 10
2101.11185455322
 20
-1449.16955649841
 30
0.0
 11
2101.31186962128
 21
-1449.16955649841
 31
0.0
  0
ARC
  5
   257
  8
0
  6
CONTINUOUS
 62
     7
 10
2099.01182147205
 20
-1392.66955930508
 30
0.0
 40
3.49996037873244
 50
509.049876306511
 51
539.99994520259
  0
LINE
  5
   258
  8
0
  6
CONTINUOUS
 62
     7
 10
2099.81186943054
 20
-1368.46958529938
 30
0.0
 11
2099.81186943054
 21
-1369.66956698883
 31
0.0
  0
LINE
  5
   259
  8
0
  6
CONTINUOUS
 62
     7
 10
2099.81186943054
 20
-1389.66956698883
 30
0.0
 11
2099.81186943054
 21
-1390.86956393707
 31
0.0
  0
LINE
  5
   25A
  8
0
  6
CONTINUOUS
 62
     7
 10
2101.2118844986
 20
-1368.46958529938
 30
0.0
 11
2101.2118844986
 21
-1369.66956698883
 31
0.0
  0
LINE
  5
   25B
  8
0
  6
CONTINUOUS
 62
     7
 10
2101.2118844986
 20
-1389.66956698883
 30
0.0
 11
2101.2118844986
 21
-1390.86956393707
 31
0.0
  0
LINE
  5
   25C
  8
0
  6
CONTINUOUS
 62
     7
 10
2095.51187133789
 20
-1368.46958529938
 30
0.0
 11
2099.81186943054
 21
-1368.46958529938
 31
0.0
  0
LINE
  5
   25D
  8
0
  6
CONTINUOUS
 62
     7
 10
2095.51187133789
 20
-1369.66956698883
 30
0.0
 11
2099.81186943054
 21
-1369.66956698883
 31
0.0
  0
LINE
  5
   25E
  8
0
  6
CONTINUOUS
 62
     7
 10
2095.51187038422
 20
-1389.66956698883
 30
0.0
 11
2099.81186943054
 21
-1389.66956698883
 31
0.0
  0
LINE
  5
   25F
  8
0
  6
CONTINUOUS
 62
     7
 10
2095.51187038422
 20
-1390.86956393707
 30
0.0
 11
2099.81186943054
 21
-1390.86956393707
 31
0.0
  0
LINE
  5
   260
  8
0
  6
CONTINUOUS
 62
     7
 10
2099.90184898171
 20
-1386.23992700696
 30
0.0
 11
2099.43614314911
 21
-1389.4998678351
 31
0.0
  0
LINE
  5
   261
  8
0
  6
CONTINUOUS
 62
     7
 10
2101.10184879097
 20
-1386.32520971634
 30
0.0
 11
2100.62408254151
 21
-1389.66957346258
 31
0.0
  0
LINE
  5
   262
  8
0
  6
CONTINUOUS
 62
     7
 10
2099.43614314911
 20
-1389.4998678351
 30
0.0
 11
2100.62408254151
 21
-1389.66957346258
 31
0.0
  0
ARC
  5
   263
  8
0
  6
CONTINUOUS
 62
     7
 10
2098.91189994812
 20
-1386.09849917696
 30
0.0
 40
1.0
 50
351.869897489947
 51
359.999999844103
  0
ARC
  5
   264
  8
0
  6
CONTINUOUS
 62
     7
 10
2100.11185398102
 20
-1386.18378188635
 30
0.0
 40
1.0
 50
351.869897489947
 51
359.999999844103
  0
LINE
  5
   265
  8
0
  6
CONTINUOUS
 62
     7
 10
2101.11185398102
 20
-1389.66956698883
 30
0.0
 11
2101.31186943054
 21
-1389.66956698883
 31
0.0
  0
LINE
  5
   266
  8
0
  6
CONTINUOUS
 62
     7
 10
2101.11185398102
 20
-1390.86956393707
 30
0.0
 11
2101.31186962128
 21
-1390.86956393707
 31
0.0
  0
LINE
  5
   267
  8
0
  6
DOT
 62
     7
 10
2099.91189994812
 20
-1386.09849917696
 30
0.0
 11
2099.91189994812
 21
-1389.56782655262
 31
0.0
  0
LINE
  5
   268
  8
0
  6
CONTINUOUS
 62
     7
 10
2099.91189994812
 20
-1389.56782655262
 30
0.0
 11
2099.91189994812
 21
-1395.37481115982
 31
0.0
  0
LINE
  5
   269
  8
0
  6
CONTINUOUS
 62
     7
 10
2099.91189994812
 20
-1343.16956698883
 30
0.0
 11
2101.11185398102
 21
-1343.16956698883
 31
0.0
  0
LINE
  5
   26A
  8
0
  6
CONTINUOUS
 62
     7
 10
2099.91189994812
 20
-1361.16956698883
 30
0.0
 11
2101.11185398102
 21
-1361.16956698883
 31
0.0
  0
LINE
  5
   26B
  8
0
  6
CONTINUOUS
 62
     7
 10
2099.91189994812
 20
-1376.66956698883
 30
0.0
 11
2101.11185398102
 21
-1376.66956698883
 31
0.0
  0
LINE
  5
   26C
  8
0
  6
CONTINUOUS
 62
     7
 10
2099.91189994812
 20
-1383.66956698883
 30
0.0
 11
2101.11185398102
 21
-1383.66956698883
 31
0.0
  0
LINE
  5
   26D
  8
0
  6
CONTINUOUS
 62
     7
 10
2099.91189994812
 20
-1391.16956393707
 30
0.0
 11
2101.11185398102
 21
-1391.16956393707
 31
0.0
  0
INSERT
  5
   26E
  8
0
  6
CONTINUOUS
 62
     7
  2
*HATCH133
 10
2168.71997070313
 20
-1415.16955566406
 30
0.0
 50
269.999999844103
  0
INSERT
  5
   26F
  8
0
  6
CONTINUOUS
 62
     7
  2
*HATCH134
 10
2168.71997070313
 20
-1415.16955566406
 30
0.0
 50
269.999999844103
  0
INSERT
  5
   270
  8
0
  6
CONTINUOUS
 62
     7
  2
*HATCH135
 10
2168.71997070313
 20
-1415.16955566406
 30
0.0
 50
269.999999844103
  0
INSERT
  5
   271
  8
0
  6
CONTINUOUS
 62
     7
  2
*HATCH136
 10
2168.71997070313
 20
-1415.16955566406
 30
0.0
 50
269.999999844103
  0
ARC
  5
   272
  8
0
  6
CONTINUOUS
 62
     7
 10
2101.31186962128
 20
-1391.86956393707
 30
0.0
 40
1.0
 50
359.999999844103
 51
449.999999844103
  0
ARC
  5
   273
  8
0
  6
CONTINUOUS
 62
     7
 10
2101.31186943054
 20
-1391.86956698883
 30
0.0
 40
2.19999904632568
 50
359.999999844103
 51
449.999999844103
  0
LINE
  5
   274
  8
0
  6
CONTINUOUS
 62
     7
 10
2101.11185398102
 20
-1389.16956698883
 30
0.0
 11
2102.31186962128
 21
-1389.16956698883
 31
0.0
  0
ARC
  5
   275
  8
0
  6
CONTINUOUS
 62
     7
 10
2099.01182147205
 20
-1392.66955930508
 30
0.0
 40
3.49996037873244
 50
467.486019062348
 51
481.001855151888
  0
ARC
  5
   276
  8
0
  6
DOT
 62
     7
 10
2099.01182147205
 20
-1392.66955930508
 30
0.0
 40
3.49996037873244
 50
481.001855151888
 51
509.049876306511
  0
ARC
  5
   277
  8
0
  6
CONTINUOUS
 62
     7
 10
2099.01182147205
 20
-1392.66955930508
 30
0.0
 40
3.49996037873244
 50
449.999999844103
 51
467.486019062348
  0
LINE
  5
   278
  8
0
  6
CONTINUOUS
 62
     7
 10
2099.01187223196
 20
-1389.16956698883
 30
0.0
 11
2099.48331326076
 21
-1389.16956698883
 31
0.0
  0
LINE
  5
   279
  8
0
  6
CONTINUOUS
 62
     7
 10
2098.50248622462
 20
-1395.39909597684
 30
0.0
 11
2099.51185632115
 21
-1395.66955862637
 31
0.0
  0
ARC
  5
   27A
  8
0
  6
CONTINUOUS
 62
     7
 10
2099.01181588901
 20
-1433.66958511135
 30
0.0
 40
3.49994520846391
 50
540.000159625357
 51
630.000829476908
  0
ARC
  5
   27B
  8
0
  6
CONTINUOUS
 62
     7
 10
2101.31186943054
 20
-1367.46958224762
 30
0.0
 40
2.19999904632568
 50
269.999999844103
 51
359.999999844103
  0
LINE
  5
   27C
  8
0
  6
DOT
 62
     7
 10
2102.31186962128
 20
-1389.90997529194
 30
0.0
 11
2102.31186962128
 21
-1391.86956393707
 31
0.0
  0
LINE
  5
   27D
  8
0
  6
CONTINUOUS
 62
     7
 10
2102.31186962128
 20
-1391.86956393707
 30
0.0
 11
2102.31186962128
 21
-1413.06844897638
 31
0.0
  0
LINE
  5
   27E
  8
0
  6
CONTINUOUS
 62
     7
 10
2102.31186962128
 20
-1369.42915868572
 30
0.0
 11
2102.31186962128
 21
-1389.90997529194
 31
0.0
  0
LINE
  5
   27F
  8
0
  6
DOT
 62
     7
 10
2102.31186962128
 20
-1367.46964486393
 30
0.0
 11
2102.31186962128
 21
-1369.42915868572
 31
0.0
  0
LINE
  5
   280
  8
0
  6
CONTINUOUS
 62
     7
 10
2102.31186962128
 20
-1446.16955554474
 30
0.0
 11
2103.51188468933
 21
-1446.16955554474
 31
0.0
  0
ARC
  5
   281
  8
0
  6
CONTINUOUS
 62
     7
 10
2101.31186917211
 20
-1367.46955746579
 30
0.0
 40
1.00003107655773
 50
270.00070276675
 51
359.997118270512
  0
ARC
  5
   282
  8
0
  6
CONTINUOUS
 62
     7
 10
2101.31186957367
 20
-1448.16955764213
 30
0.0
 40
0.999999854264095
 50
270.000056701202
 51
359.999980612941
  0
ARC
  5
   283
  8
0
  6
CONTINUOUS
 62
     7
 10
2101.31187073119
 20
-1455.16955399096
 30
0.0
 40
0.999999781581745
 50
359.999963768781
 51
449.999994616734
  0
LINE
  5
   284
  8
0
  6
DASHDOT
 62
     7
 10
2099.80039569403
 20
-1451.66955554474
 30
0.0
 11
2104.76401185817
 21
-1451.66955554474
 31
0.0
  0
LINE
  5
   285
  8
0
  6
DOT
 62
     7
 10
2101.11185455322
 20
-1450.16955554474
 30
0.0
 11
2103.51188468933
 21
-1450.16955554474
 31
0.0
  0
LINE
  5
   286
  8
0
  6
DOT
 62
     7
 10
2101.11185455322
 20
-1453.16955554474
 30
0.0
 11
2103.51188468933
 21
-1453.16955554474
 31
0.0
  0
LINE
  5
   287
  8
0
  6
DOT
 62
     7
 10
2101.11185455322
 20
-1449.66955554474
 30
0.0
 11
2103.51188468933
 21
-1449.66955554474
 31
0.0
  0
LINE
  5
   288
  8
0
  6
DOT
 62
     7
 10
2101.11185455322
 20
-1453.66955554474
 30
0.0
 11
2103.51188468933
 21
-1453.66955554474
 31
0.0
  0
LINE
  5
   289
  8
0
  6
CONTINUOUS
 62
     7
 10
2101.11185455322
 20
-1449.16955649841
 30
0.0
 11
2101.11185455322
 21
-1454.16955554474
 31
0.0
  0
ARC
  5
   28A
  8
0
  6
CONTINUOUS
 62
     7
 10
2101.31187073119
 20
-1348.1695723573
 30
0.0
 40
0.999999781581745
 50
270.000005071472
 51
360.000035919426
  0
LINE
  5
   28B
  8
0
  6
CONTINUOUS
 62
     7
 10
2101.11185455322
 20
-1349.16957080353
 30
0.0
 11
2101.31186962128
 21
-1349.16957080353
 31
0.0
  0
LINE
  5
   28C
  8
0
  6
CONTINUOUS
 62
     7
 10
2101.11185455322
 20
-1349.16957080353
 30
0.0
 11
2101.11185455322
 21
-1354.16956984985
 31
0.0
  0
LINE
  5
   28D
  8
0
  6
CONTINUOUS
 62
     7
 10
2101.11185455322
 20
-1354.16956984985
 30
0.0
 11
2101.31186962128
 21
-1354.16956984985
 31
0.0
  0
ARC
  5
   28E
  8
0
  6
CONTINUOUS
 62
     7
 10
2101.31186957367
 20
-1355.16956870614
 30
0.0
 40
0.999999854264095
 50
360.000019075265
 51
449.999888345491
  0
LINE
  5
   28F
  8
0
  6
DOT
 62
     7
 10
2101.11185455322
 20
-1353.66957080353
 30
0.0
 11
2103.51188468933
 21
-1353.66957080353
 31
0.0
  0
LINE
  5
   290
  8
0
  6
DOT
 62
     7
 10
2101.11185455322
 20
-1353.16957080353
 30
0.0
 11
2103.51188468933
 21
-1353.16957080353
 31
0.0
  0
LINE
  5
   291
  8
0
  6
DASHDOT
 62
     7
 10
2099.80039569403
 20
-1351.66957080353
 30
0.0
 11
2104.76401185817
 21
-1351.66957080353
 31
0.0
  0
LINE
  5
   292
  8
0
  6
DOT
 62
     7
 10
2101.11185455322
 20
-1350.16957080353
 30
0.0
 11
2103.51188468933
 21
-1350.16957080353
 31
0.0
  0
LINE
  5
   293
  8
0
  6
DOT
 62
     7
 10
2101.11185455322
 20
-1349.66957080353
 30
0.0
 11
2103.51188468933
 21
-1349.66957080353
 31
0.0
  0
LINE
  5
   294
  8
0
  6
CONTINUOUS
 62
     7
 10
2101.11185398102
 20
-1385.16956698883
 30
0.0
 11
2102.83243023238
 21
-1385.16956698883
 31
0.0
  0
LINE
  5
   295
  8
0
  6
DASHDOT
 62
     7
 10
2098.26188459396
 20
-1367.06965473616
 30
0.0
 11
2098.26188459396
 21
-1387.23518847978
 31
0.0
  0
LINE
  5
   296
  8
0
  6
DASHDOT
 62
     7
 10
2102.76188459396
 20
-1366.94315730878
 30
0.0
 11
2102.76188459396
 21
-1386.74973282356
 31
0.0
  0
CIRCLE
  5
   297
  8
0
  6
CONTINUOUS
 62
     7
 10
2098.26188459396
 20
-1383.97583698883
 30
0.0
 40
0.39999988079071
  0
CIRCLE
  5
   298
  8
0
  6
CONTINUOUS
 62
     7
 10
2098.26188459396
 20
-1382.37583698883
 30
0.0
 40
0.39999988079071
  0
CIRCLE
  5
   299
  8
0
  6
CONTINUOUS
 62
     7
 10
2098.26188459396
 20
-1380.77583698883
 30
0.0
 40
0.39999988079071
  0
CIRCLE
  5
   29A
  8
0
  6
CONTINUOUS
 62
     7
 10
2098.26188459396
 20
-1379.17585224762
 30
0.0
 40
0.39999988079071
  0
CIRCLE
  5
   29B
  8
0
  6
CONTINUOUS
 62
     7
 10
2098.26188459396
 20
-1377.57585224762
 30
0.0
 40
0.39999988079071
  0
CIRCLE
  5
   29C
  8
0
  6
CONTINUOUS
 62
     7
 10
2098.26188459396
 20
-1375.97583698883
 30
0.0
 40
0.39999988079071
  0
CIRCLE
  5
   29D
  8
0
  6
CONTINUOUS
 62
     7
 10
2098.26188459396
 20
-1374.37583698883
 30
0.0
 40
0.39999988079071
  0
CIRCLE
  5
   29E
  8
0
  6
CONTINUOUS
 62
     7
 10
2098.26188459396
 20
-1372.77583698883
 30
0.0
 40
0.39999988079071
  0
CIRCLE
  5
   29F
  8
0
  6
CONTINUOUS
 62
     7
 10
2098.26188459396
 20
-1371.17585224762
 30
0.0
 40
0.39999988079071
  0
ARC
  5
   2A0
  8
0
  6
CONTINUOUS
 62
     7
 10
2098.26188459396
 20
-1369.57585224762
 30
0.0
 40
0.39999988079071
 50
553.551673104685
 51
629.99994520259
  0
CIRCLE
  5
   2A1
  8
0
  6
CONTINUOUS
 62
     7
 10
2102.76188459396
 20
-1383.17585224762
 30
0.0
 40
0.39999988079071
  0
ARC
  5
   2A2
  8
0
  6
CONTINUOUS
 62
     7
 10
2102.76188459396
 20
-1384.77583698883
 30
0.0
 40
0.39999988079071
 50
280.158049687986
 51
619.841895358707
  0
CIRCLE
  5
   2A3
  8
0
  6
CONTINUOUS
 62
     7
 10
2102.76188459396
 20
-1381.57585224762
 30
0.0
 40
0.39999988079071
  0
CIRCLE
  5
   2A4
  8
0
  6
CONTINUOUS
 62
     7
 10
2102.76188459396
 20
-1379.97583698883
 30
0.0
 40
0.39999988079071
  0
CIRCLE
  5
   2A5
  8
0
  6
CONTINUOUS
 62
     7
 10
2102.76188459396
 20
-1378.37583698883
 30
0.0
 40
0.39999988079071
  0
CIRCLE
  5
   2A6
  8
0
  6
CONTINUOUS
 62
     7
 10
2102.76188459396
 20
-1376.77583698883
 30
0.0
 40
0.39999988079071
  0
CIRCLE
  5
   2A7
  8
0
  6
CONTINUOUS
 62
     7
 10
2102.76188459396
 20
-1375.17585224762
 30
0.0
 40
0.39999988079071
  0
CIRCLE
  5
   2A8
  8
0
  6
CONTINUOUS
 62
     7
 10
2102.76188459396
 20
-1373.57585224762
 30
0.0
 40
0.39999988079071
  0
LINE
  5
   2A9
  8
0
  6
CONTINUOUS
 62
     7
 10
2102.69188848299
 20
-1384.38201899656
 30
0.0
 11
2101.11187167505
 21
-1384.66291087352
 31
0.0
  0
LINE
  5
   2AA
  8
0
  6
CONTINUOUS
 62
     7
 10
2102.83190012753
 20
-1383.56967167358
 30
0.0
 11
2101.11185665182
 21
-1383.87545718038
 31
0.0
  0
LINE
  5
   2AB
  8
0
  6
CONTINUOUS
 62
     7
 10
2102.69187078896
 20
-1382.78200664412
 30
0.0
 11
2101.11189905071
 21
-1383.0628905087
 31
0.0
  0
LINE
  5
   2AC
  8
0
  6
CONTINUOUS
 62
     7
 10
2102.83186741027
 20
-1381.96966199194
 30
0.0
 11
2101.11188402748
 21
-1382.27543681555
 31
0.0
  0
LINE
  5
   2AD
  8
0
  6
CONTINUOUS
 62
     7
 10
2102.6918434133
 20
-1381.18202700895
 30
0.0
 11
2101.11188669828
 21
-1381.46290820273
 31
0.0
  0
LINE
  5
   2AE
  8
0
  6
CONTINUOUS
 62
     7
 10
2102.83190012753
 20
-1380.36967167358
 30
0.0
 11
2101.11187167505
 21
-1380.67545450958
 31
0.0
  0
LINE
  5
   2AF
  8
0
  6
CONTINUOUS
 62
     7
 10
2102.69187345976
 20
-1379.58202166735
 30
0.0
 11
2101.11185665182
 21
-1379.86291354432
 31
0.0
  0
LINE
  5
   2B0
  8
0
  6
CONTINUOUS
 62
     7
 10
2102.8318824335
 20
-1378.76965932115
 30
0.0
 11
2101.11189905071
 21
-1379.07543414475
 31
0.0
  0
LINE
  5
   2B1
  8
0
  6
CONTINUOUS
 62
     7
 10
2102.69185576573
 20
-1377.98200931492
 30
0.0
 11
2101.11188402748
 21
-1378.2628931795
 31
0.0
  0
LINE
  5
   2B2
  8
0
  6
CONTINUOUS
 62
     7
 10
2102.83191247997
 20
-1377.16965397955
 30
0.0
 11
2101.11188402748
 21
-1377.47543681555
 31
0.0
  0
LINE
  5
   2B3
  8
0
  6
CONTINUOUS
 62
     7
 10
2102.69188848299
 20
-1376.38201899656
 30
0.0
 11
2101.11187167505
 21
-1376.66291087352
 31
0.0
  0
LINE
  5
   2B4
  8
0
  6
CONTINUOUS
 62
     7
 10
2102.83190012753
 20
-1375.56967167358
 30
0.0
 11
2101.11185665182
 21
-1375.87545718038
 31
0.0
  0
LINE
  5
   2B5
  8
0
  6
CONTINUOUS
 62
     7
 10
2102.69187078896
 20
-1374.78200664412
 30
0.0
 11
2101.11189905071
 21
-1375.0628905087
 31
0.0
  0
LINE
  5
   2B6
  8
0
  6
CONTINUOUS
 62
     7
 10
2102.83186741027
 20
-1373.96966199194
 30
0.0
 11
2101.11188402748
 21
-1374.27543681555
 31
0.0
  0
LINE
  5
   2B7
  8
0
  6
CONTINUOUS
 62
     7
 10
2102.6918434133
 20
-1373.18202700895
 30
0.0
 11
2101.11188669828
 21
-1373.46290820273
 31
0.0
  0
LINE
  5
   2B8
  8
0
  6
CONTINUOUS
 62
     7
 10
2102.83191515076
 20
-1372.36966900278
 30
0.0
 11
2101.11187167505
 21
-1372.67545450958
 31
0.0
  0
LINE
  5
   2B9
  8
0
  6
CONTINUOUS
 62
     7
 10
2102.69188581219
 20
-1371.58200397332
 30
0.0
 11
2101.11185398102
 21
-1371.86289852109
 31
0.0
  0
LINE
  5
   2BA
  8
0
  6
CONTINUOUS
 62
     7
 10
2102.8318824335
 20
-1370.76965932115
 30
0.0
 11
2101.11189905071
 21
-1371.07543414475
 31
0.0
  0
LINE
  5
   2BB
  8
0
  6
CONTINUOUS
 62
     7
 10
2102.69185843653
 20
-1369.98202433815
 30
0.0
 11
2101.11190172151
 21
-1370.26290553193
 31
0.0
  0
LINE
  5
   2BC
  8
0
  6
CONTINUOUS
 62
     7
 10
2099.91188688901
 20
-1369.68878513821
 30
0.0
 11
2098.33191515076
 21
-1369.96966900278
 31
0.0
  0
CIRCLE
  5
   2BD
  8
0
  6
CONTINUOUS
 62
     7
 10
2102.76188459396
 20
-1371.97583698883
 30
0.0
 40
0.39999988079071
  0
CIRCLE
  5
   2BE
  8
0
  6
CONTINUOUS
 62
     7
 10
2102.76188459396
 20
-1370.37583698883
 30
0.0
 40
0.39999988079071
  0
ARC
  5
   2BF
  8
0
  6
CONTINUOUS
 62
     7
 10
2098.26188459396
 20
-1369.57585224762
 30
0.0
 40
0.39999988079071
 50
269.999999844103
 51
346.448162658981
  0
LINE
  5
   2C0
  8
0
  6
CONTINUOUS
 62
     7
 10
2099.91190191224
 20
-1370.47623883136
 30
0.0
 11
2098.19185843653
 21
-1370.78202433815
 31
0.0
  0
LINE
  5
   2C1
  8
0
  6
CONTINUOUS
 62
     7
 10
2099.91189924145
 20
-1371.28876744418
 30
0.0
 11
2098.3318824335
 21
-1371.56965932115
 31
0.0
  0
LINE
  5
   2C2
  8
0
  6
CONTINUOUS
 62
     7
 10
2099.91185417175
 20
-1372.07623182051
 30
0.0
 11
2098.19188581219
 21
-1372.38200397332
 31
0.0
  0
LINE
  5
   2C3
  8
0
  6
CONTINUOUS
 62
     7
 10
2099.91187186578
 20
-1372.888787809
 30
0.0
 11
2098.33191515076
 21
-1373.16966900278
 31
0.0
  0
LINE
  5
   2C4
  8
0
  6
CONTINUOUS
 62
     7
 10
2099.91188688901
 20
-1373.67624150215
 30
0.0
 11
2098.1918434133
 21
-1373.98202700895
 31
0.0
  0
LINE
  5
   2C5
  8
0
  6
CONTINUOUS
 62
     7
 10
2099.91189924145
 20
-1374.48876744418
 30
0.0
 11
2098.33186741027
 21
-1374.76966199194
 31
0.0
  0
LINE
  5
   2C6
  8
0
  6
CONTINUOUS
 62
     7
 10
2099.91185417175
 20
-1375.27623182051
 30
0.0
 11
2098.19187078896
 21
-1375.58200664412
 31
0.0
  0
LINE
  5
   2C7
  8
0
  6
CONTINUOUS
 62
     7
 10
2099.91185684255
 20
-1376.0887904798
 30
0.0
 11
2098.33190012753
 21
-1376.36967167358
 31
0.0
  0
LINE
  5
   2C8
  8
0
  6
CONTINUOUS
 62
     7
 10
2099.91187186578
 20
-1376.87624417295
 30
0.0
 11
2098.19188848299
 21
-1377.18201899656
 31
0.0
  0
LINE
  5
   2C9
  8
0
  6
CONTINUOUS
 62
     7
 10
2099.91188421822
 20
-1377.68877011498
 30
0.0
 11
2098.33191247997
 21
-1377.96965397955
 31
0.0
  0
LINE
  5
   2CA
  8
0
  6
CONTINUOUS
 62
     7
 10
2099.91189924145
 20
-1378.47622380812
 30
0.0
 11
2098.19185576573
 21
-1378.78200931492
 31
0.0
  0
LINE
  5
   2CB
  8
0
  6
CONTINUOUS
 62
     7
 10
2099.91189924145
 20
-1379.28876744418
 30
0.0
 11
2098.3318824335
 21
-1379.56965932115
 31
0.0
  0
LINE
  5
   2CC
  8
0
  6
CONTINUOUS
 62
     7
 10
2099.91185684255
 20
-1380.07624684375
 30
0.0
 11
2098.19188848299
 21
-1380.38201899656
 31
0.0
  0
LINE
  5
   2CD
  8
0
  6
CONTINUOUS
 62
     7
 10
2099.91187186578
 20
-1380.888787809
 30
0.0
 11
2098.33191515076
 21
-1381.16966900278
 31
0.0
  0
LINE
  5
   2CE
  8
0
  6
CONTINUOUS
 62
     7
 10
2099.91188688901
 20
-1381.67624150215
 30
0.0
 11
2098.1918434133
 21
-1381.98202700895
 31
0.0
  0
LINE
  5
   2CF
  8
0
  6
CONTINUOUS
 62
     7
 10
2099.91189924145
 20
-1382.48876744418
 30
0.0
 11
2098.33186741027
 21
-1382.76966199194
 31
0.0
  0
LINE
  5
   2D0
  8
0
  6
CONTINUOUS
 62
     7
 10
2099.91189924145
 20
-1383.27622380812
 30
0.0
 11
2098.19187078896
 21
-1383.58200664412
 31
0.0
  0
LINE
  5
   2D1
  8
0
  6
CONTINUOUS
 62
     7
 10
2099.91185684255
 20
-1384.0887904798
 30
0.0
 11
2098.33190012753
 21
-1384.36967167358
 31
0.0
  0
LINE
  5
   2D2
  8
0
  6
CONTINUOUS
 62
     7
 10
2099.91187186578
 20
-1384.87624417295
 30
0.0
 11
2098.26184652078
 21
-1385.16958201206
 31
0.0
  0
LINE
  5
   2D3
  8
0
  6
CONTINUOUS
 62
     7
 10
2098.26187436756
 20
-1385.16956698883
 30
0.0
 11
2099.91189994812
 21
-1385.16956698883
 31
0.0
  0
INSERT
  5
   2D4
  8
0
  6
CONTINUOUS
 62
     3
  2
*HATCH137
 10
2168.71997070313
 20
-1415.16955566406
 30
0.0
 50
269.999999844103
  0
INSERT
  5
   2D5
  8
0
  6
CONTINUOUS
 62
     3
  2
*HATCH138
 10
2168.71997070313
 20
-1415.16955566406
 30
0.0
 50
269.999999844103
  0
INSERT
  5
   2D6
  8
0
  6
CONTINUOUS
 62
     3
  2
*HATCH139
 10
2168.71997070313
 20
-1415.16955566406
 30
0.0
 50
269.999999844103
  0
INSERT
  5
   2D7
  8
0
  6
CONTINUOUS
 62
     3
  2
*HATCH140
 10
2168.71997070313
 20
-1415.16955566406
 30
0.0
 50
269.999999844103
  0
INSERT
  5
   2D8
  8
0
  6
CONTINUOUS
 62
     3
  2
*HATCH141
 10
2168.71997070313
 20
-1415.16955566406
 30
0.0
 50
269.999999844103
  0
INSERT
  5
   2D9
  8
0
  6
CONTINUOUS
 62
     3
  2
*HATCH142
 10
2168.71997070313
 20
-1415.16955566406
 30
0.0
 50
269.999999844103
  0
INSERT
  5
   2DA
  8
0
  6
CONTINUOUS
 62
     3
  2
*HATCH143
 10
2168.71997070313
 20
-1415.16955566406
 30
0.0
 50
269.999999844103
  0
INSERT
  5
   2DB
  8
0
  6
CONTINUOUS
 62
     3
  2
*HATCH144
 10
2168.71997070313
 20
-1415.16955566406
 30
0.0
 50
269.999999844103
  0
INSERT
  5
   2DC
  8
0
  6
CONTINUOUS
 62
     3
  2
*HATCH145
 10
2168.71997070313
 20
-1415.16955566406
 30
0.0
 50
269.999999844103
  0
INSERT
  5
   2DD
  8
0
  6
CONTINUOUS
 62
     3
  2
*HATCH146
 10
2168.71997070313
 20
-1415.16955566406
 30
0.0
 50
269.999999844103
  0
INSERT
  5
   2DE
  8
0
  6
CONTINUOUS
 62
     3
  2
*HATCH147
 10
2168.71997070313
 20
-1415.16955566406
 30
0.0
 50
269.999999844103
  0
INSERT
  5
   2DF
  8
0
  6
CONTINUOUS
 62
     3
  2
*HATCH148
 10
2168.71997070313
 20
-1415.16955566406
 30
0.0
 50
269.999999844103
  0
POLYLINE
  5
   2E0
  8
0
  6
CONTINUOUS
 62
     7
 66
     1
 10
0.0
 20
0.0
 30
0.0
  0
VERTEX
  5
   2E1
  8
0
  6
CONTINUOUS
 10
2103.51195865141
 20
-1412.76218054587
 30
0.0
 40
0.0
 41
0.0
  0
VERTEX
  5
   2E2
  8
0
  6
CONTINUOUS
 10
2103.41085869951
 20
-1412.74617069727
 30
0.0
 40
0.0
 41
0.0
  0
VERTEX
  5
   2E3
  8
0
  6
CONTINUOUS
 10
2103.3108805054
 20
-1412.73351517157
 30
0.0
 40
0.0
 41
0.0
  0
VERTEX
  5
   2E4
  8
0
  6
CONTINUOUS
 10
2103.26134505428
 20
-1412.72881703676
 30
0.0
 40
0.0
 41
0.0
  0
VERTEX
  5
   2E5
  8
0
  6
CONTINUOUS
 10
2103.16270249686
 20
-1412.72342766024
 30
0.0
 40
0.0
 41
0.0
  0
VERTEX
  5
   2E6
  8
0
  6
CONTINUOUS
 10
2103.06530774674
 20
-1412.7244874744
 30
0.0
 40
0.0
 41
0.0
  0
VERTEX
  5
   2E7
  8
0
  6
CONTINUOUS
 10
2103.01705759264
 20
-1412.72781228738
 30
0.0
 40
0.0
 41
0.0
  0
VERTEX
  5
   2E8
  8
0
  6
CONTINUOUS
 10
2102.96908834266
 20
-1412.73318874099
 30
0.0
 40
0.0
 41
0.0
  0
VERTEX
  5
   2E9
  8
0
  6
CONTINUOUS
 10
2102.92138415464
 20
-1412.740746254
 30
0.0
 40
0.0
 41
0.0
  0
VERTEX
  5
   2EA
  8
0
  6
CONTINUOUS
 10
2102.87392752028
 20
-1412.75060194433
 30
0.0
 40
0.0
 41
0.0
  0
VERTEX
  5
   2EB
  8
0
  6
CONTINUOUS
 10
2102.82669981658
 20
-1412.76285828419
 30
0.0
 40
0.0
 41
0.0
  0
VERTEX
  5
   2EC
  8
0
  6
CONTINUOUS
 10
2102.77968185719
 20
-1412.77760075513
 30
0.0
 40
0.0
 41
0.0
  0
VERTEX
  5
   2ED
  8
0
  6
CONTINUOUS
 10
2102.73285444385
 20
-1412.79489550323
 30
0.0
 40
0.0
 41
0.0
  0
VERTEX
  5
   2EE
  8
0
  6
CONTINUOUS
 10
2102.6861989178
 20
-1412.8147869942
 30
0.0
 40
0.0
 41
0.0
  0
VERTEX
  5
   2EF
  8
0
  6
CONTINUOUS
 10
2102.63969771117
 20
-1412.83729566846
 30
0.0
 40
0.0
 41
0.0
  0
VERTEX
  5
   2F0
  8
0
  6
CONTINUOUS
 10
2102.59333489838
 20
-1412.86241559631
 30
0.0
 40
0.0
 41
0.0
  0
VERTEX
  5
   2F1
  8
0
  6
CONTINUOUS
 10
2102.54709674758
 20
-1412.89011213301
 30
0.0
 40
0.0
 41
0.0
  0
VERTEX
  5
   2F2
  8
0
  6
CONTINUOUS
 10
2102.500972272
 20
-1412.92031957391
 30
0.0
 40
0.0
 41
0.0
  0
VERTEX
  5
   2F3
  8
0
  6
CONTINUOUS
 10
2102.40903743349
 20
-1412.98783498096
 30
0.0
 40
0.0
 41
0.0
  0
VERTEX
  5
   2F4
  8
0
  6
CONTINUOUS
 10
2102.31751834442
 20
-1413.06372587665
 30
0.0
 40
0.0
 41
0.0
  0
VERTEX
  5
   2F5
  8
0
  6
CONTINUOUS
 10
2102.21223401183
 20
-1413.15947873659
 30
0.0
 40
0.0
 41
0.0
  0
VERTEX
  5
   2F6
  8
0
  6
CONTINUOUS
 10
2102.00466821171
 20
-1413.36010875279
 30
0.0
 40
0.0
 41
0.0
  0
VERTEX
  5
   2F7
  8
0
  6
CONTINUOUS
 10
2101.90315207507
 20
-1413.45471811704
 30
0.0
 40
0.0
 41
0.0
  0
VERTEX
  5
   2F8
  8
0
  6
CONTINUOUS
 10
2101.85313966462
 20
-1413.49820593681
 30
0.0
 40
0.0
 41
0.0
  0
VERTEX
  5
   2F9
  8
0
  6
CONTINUOUS
 10
2101.8036864932
 20
-1413.5382563544
 30
0.0
 40
0.0
 41
0.0
  0
VERTEX
  5
   2FA
  8
0
  6
CONTINUOUS
 10
2101.75483212797
 20
-1413.57423624562
 30
0.0
 40
0.0
 41
0.0
  0
VERTEX
  5
   2FB
  8
0
  6
CONTINUOUS
 10
2101.70660826954
 20
-1413.60555669279
 30
0.0
 40
0.0
 41
0.0
  0
VERTEX
  5
   2FC
  8
0
  6
CONTINUOUS
 10
2101.65903688533
 20
-1413.63168549254
 30
0.0
 40
0.0
 41
0.0
  0
VERTEX
  5
   2FD
  8
0
  6
CONTINUOUS
 10
2101.61212834289
 20
-1413.65215966379
 30
0.0
 40
0.0
 41
0.0
  0
VERTEX
  5
   2FE
  8
0
  6
CONTINUOUS
 10
2101.56587954323
 20
-1413.66659795557
 30
0.0
 40
0.0
 41
0.0
  0
VERTEX
  5
   2FF
  8
0
  6
CONTINUOUS
 10
2101.52027205418
 20
-1413.67471335491
 30
0.0
 40
0.0
 41
0.0
  0
VERTEX
  5
   300
  8
0
  6
CONTINUOUS
 10
2101.4752702437
 20
-1413.67632559477
 30
0.0
 40
0.0
 41
0.0
  0
VERTEX
  5
   301
  8
0
  6
CONTINUOUS
 10
2101.43081941324
 20
-1413.67137366185
 30
0.0
 40
0.0
 41
0.0
  0
VERTEX
  5
   302
  8
0
  6
CONTINUOUS
 10
2101.38684393105
 20
-1413.65992830454
 30
0.0
 40
0.0
 41
0.0
  0
VERTEX
  5
   303
  8
0
  6
CONTINUOUS
 10
2101.34324536555
 20
-1413.64220454077
 30
0.0
 40
0.0
 41
0.0
  0
VERTEX
  5
   304
  8
0
  6
CONTINUOUS
 10
2101.31487561442
 20
-1413.62738760852
 30
0.0
 40
0.0
 41
0.0
  0
VERTEX
  5
   305
  8
0
  6
CONTINUOUS
 10
2101.25830132172
 20
-1413.59075745604
 30
0.0
 40
0.0
 41
0.0
  0
VERTEX
  5
   306
  8
0
  6
CONTINUOUS
 10
2101.23000464752
 20
-1413.56930748205
 30
0.0
 40
0.0
 41
0.0
  0
VERTEX
  5
   307
  8
0
  6
CONTINUOUS
 10
2101.17314165026
 20
-1413.52121142894
 30
0.0
 40
0.0
 41
0.0
  0
VERTEX
  5
   308
  8
0
  6
CONTINUOUS
 10
2101.11556774552
 20
-1413.46781705223
 30
0.0
 40
0.0
 41
0.0
  0
VERTEX
  5
   309
  8
0
  6
CONTINUOUS
 10
2100.99661520608
 20
-1413.35367633737
 30
0.0
 40
0.0
 41
0.0
  0
VERTEX
  5
   30A
  8
0
  6
CONTINUOUS
 10
2100.93447593297
 20
-1413.29732173767
 30
0.0
 40
0.0
 41
0.0
  0
VERTEX
  5
   30B
  8
0
  6
CONTINUOUS
 10
2100.87015338943
 20
-1413.24424886959
 30
0.0
 40
0.0
 41
0.0
  0
VERTEX
  5
   30C
  8
0
  6
CONTINUOUS
 10
2100.80345267781
 20
-1413.19631613721
 30
0.0
 40
0.0
 41
0.0
  0
VERTEX
  5
   30D
  8
0
  6
CONTINUOUS
 10
2100.73429709161
 20
-1413.15506387901
 30
0.0
 40
0.0
 41
0.0
  0
VERTEX
  5
   30E
  8
0
  6
CONTINUOUS
 10
2100.69130716546
 20
-1413.13385177691
 30
0.0
 40
0.0
 41
0.0
  0
VERTEX
  5
   30F
  8
0
  6
CONTINUOUS
 10
2100.6474839287
 20
-1413.11566506619
 30
0.0
 40
0.0
 41
0.0
  0
VERTEX
  5
   310
  8
0
  6
CONTINUOUS
 10
2100.60288937067
 20
-1413.10060305202
 30
0.0
 40
0.0
 41
0.0
  0
VERTEX
  5
   311
  8
0
  6
CONTINUOUS
 10
2100.55760270415
 20
-1413.08870833621
 30
0.0
 40
0.0
 41
0.0
  0
VERTEX
  5
   312
  8
0
  6
CONTINUOUS
 10
2100.51171778519
 20
-1413.07997333481
 30
0.0
 40
0.0
 41
0.0
  0
SEQEND
  5
   313
  8
0
  6
CONTINUOUS
 62
     7
  0
LINE
  5
   314
  8
0
  6
DOT
 62
     7
 10
2102.31186962128
 20
-1413.06844897638
 30
0.0
 11
2102.31186962128
 21
-1437.16955649841
 31
0.0
  0
LINE
  5
   315
  8
0
  6
CONTINUOUS
 62
     7
 10
2099.61185455322
 20
-1368.46958529938
 30
0.0
 11
2099.91189994812
 21
-1368.46958529938
 31
0.0
  0
LINE
  5
   316
  8
0
  6
CONTINUOUS
 62
     7
 10
2099.61185455322
 20
-1369.66956698883
 30
0.0
 11
2099.91189994812
 21
-1369.66956698883
 31
0.0
  0
LINE
  5
   317
  8
0
  6
CONTINUOUS
 62
     7
 10
2099.81186943054
 20
-1389.66956698883
 30
0.0
 11
2099.91189994812
 21
-1389.66956698883
 31
0.0
  0
LINE
  5
   318
  8
0
  6
CONTINUOUS
 62
     7
 10
2099.81186943054
 20
-1390.86956393707
 30
0.0
 11
2099.91189994812
 21
-1390.86956393707
 31
0.0
  0
LINE
  5
   319
  8
0
  6
CONTINUOUS
 62
     7
 10
2099.48331326076
 20
-1389.16956698883
 30
0.0
 11
2099.91189994812
 21
-1389.16956698883
 31
0.0
  0
LINE
  5
   31A
  8
0
  6
DOT
 62
     7
 10
2099.91189994812
 20
-1389.16956698883
 30
0.0
 11
2101.11185398102
 21
-1389.16956698883
 31
0.0
  0
INSERT
  5
   31B
  8
0
  6
CONTINUOUS
 62
     7
  2
*HATCH149
 10
2168.71997070313
 20
-1415.16955566406
 30
0.0
 50
269.999999844103
  0
INSERT
  5
   31C
  8
0
  6
CONTINUOUS
 62
     7
  2
*HATCH150
 10
2168.71997070313
 20
-1415.16955566406
 30
0.0
 50
269.999999844103
  0
INSERT
  5
   31D
  8
0
  6
CONTINUOUS
 62
     7
  2
*HATCH151
 10
2168.71997070313
 20
-1415.16955566406
 30
0.0
 50
269.999999844103
  0
INSERT
  5
   31E
  8
0
  6
CONTINUOUS
 62
     7
  2
*HATCH152
 10
2168.71997070313
 20
-1415.16955566406
 30
0.0
 50
269.999999844103
  0
INSERT
  5
   31F
  8
0
  6
CONTINUOUS
 62
     3
  2
*HATCH153
 10
2168.71997070313
 20
-1415.16955566406
 30
0.0
 50
269.999999844103
  0
INSERT
  5
   320
  8
0
  6
CONTINUOUS
 62
     3
  2
*HATCH154
 10
2168.71997070313
 20
-1415.16955566406
 30
0.0
 50
269.999999844103
  0
INSERT
  5
   321
  8
0
  6
CONTINUOUS
 62
     3
  2
*HATCH155
 10
2168.71997070313
 20
-1415.16955566406
 30
0.0
 50
269.999999844103
  0
INSERT
  5
   322
  8
0
  6
CONTINUOUS
 62
     3
  2
*HATCH156
 10
2168.71997070313
 20
-1415.16955566406
 30
0.0
 50
269.999999844103
  0
INSERT
  5
   323
  8
0
  6
CONTINUOUS
 62
     3
  2
*HATCH157
 10
2168.71997070313
 20
-1415.16955566406
 30
0.0
 50
269.999999844103
  0
INSERT
  5
   324
  8
0
  6
CONTINUOUS
 62
     3
  2
*HATCH158
 10
2168.71997070313
 20
-1415.16955566406
 30
0.0
 50
269.999999844103
  0
INSERT
  5
   325
  8
0
  6
CONTINUOUS
 62
     3
  2
*HATCH159
 10
2168.71997070313
 20
-1415.16955566406
 30
0.0
 50
269.999999844103
  0
INSERT
  5
   326
  8
0
  6
CONTINUOUS
 62
     3
  2
*HATCH160
 10
2168.71997070313
 20
-1415.16955566406
 30
0.0
 50
269.999999844103
  0
INSERT
  5
   327
  8
0
  6
CONTINUOUS
 62
     3
  2
*HATCH161
 10
2168.71997070313
 20
-1415.16955566406
 30
0.0
 50
269.999999844103
  0
INSERT
  5
   328
  8
0
  6
CONTINUOUS
 62
     3
  2
*HATCH162
 10
2168.71997070313
 20
-1415.16955566406
 30
0.0
 50
269.999999844103
  0
INSERT
  5
   329
  8
0
  6
CONTINUOUS
 62
     3
  2
*HATCH163
 10
2168.71997070313
 20
-1415.16955566406
 30
0.0
 50
269.999999844103
  0
INSERT
  5
   32A
  8
0
  6
CONTINUOUS
 62
     3
  2
*HATCH164
 10
2168.71997070313
 20
-1415.16955566406
 30
0.0
 50
269.999999844103
  0
LINE
  5
   32B
  8
0
  6
CONTINUOUS
 62
     7
 10
2173.51185631752
 20
-1435.16954040527
 30
0.0
 11
2173.51185631752
 21
-1443.66955566406
 31
0.0
  0
LINE
  5
   32C
  8
0
  6
CONTINUOUS
 62
     7
 10
2173.51185599287
 20
-1435.16954040527
 30
0.0
 11
2178.51187157631
 21
-1435.16954040527
 31
0.0
  0
LINE
  5
   32D
  8
0
  6
CONTINUOUS
 62
     7
 10
2149.01187157631
 20
-1340.66955566406
 30
0.0
 11
2170.01185631752
 21
-1340.66955566406
 31
0.0
  0
LINE
  5
   32E
  8
0
  6
CONTINUOUS
 62
     7
 10
2149.01186555309
 20
-1460.66954040526
 30
0.0
 11
2170.01185631752
 21
-1460.66954040526
 31
0.0
  0
LINE
  5
   32F
  8
0
  6
DASHDOT
 62
     7
 10
2146.81170393548
 20
-1349.66955005662
 30
0.0
 11
2173.67984553445
 21
-1349.66955005662
 31
0.0
  0
LINE
  5
   330
  8
0
  6
CONTINUOUS
 62
     7
 10
2173.51187125165
 20
-1390.16954040527
 30
0.0
 11
2178.51187157631
 21
-1390.16954040527
 31
0.0
  0
LINE
  5
   331
  8
0
  6
CONTINUOUS
 62
     7
 10
2173.51187157631
 20
-1357.66955566406
 30
0.0
 11
2173.51187157631
 21
-1390.16954040527
 31
0.0
  0
LINE
  5
   332
  8
0
  6
CONTINUOUS
 62
     7
 10
2178.51187157631
 20
-1390.16954040527
 30
0.0
 11
2178.51187157631
 21
-1435.16954040527
 31
0.0
  0
LINE
  5
   333
  8
0
  6
CONTINUOUS
 62
     7
 10
2172.51185631752
 20
-1444.66955566406
 30
0.0
 11
2172.51185631752
 21
-1446.16955566406
 31
0.0
  0
LINE
  5
   334
  8
0
  6
CONTINUOUS
 62
     7
 10
2171.01185631752
 20
-1446.16955566406
 30
0.0
 11
2171.01185631752
 21
-1459.66954040526
 31
0.0
  0
LINE
  5
   335
  8
0
  6
CONTINUOUS
 62
     7
 10
2167.01185631752
 20
-1446.16955566406
 30
0.0
 11
2171.01185631752
 21
-1446.16955566406
 31
0.0
  0
LINE
  5
   336
  8
0
  6
CONTINUOUS
 62
     7
 10
2167.01185631752
 20
-1444.66955566406
 30
0.0
 11
2172.51185631752
 21
-1444.66955566406
 31
0.0
  0
LINE
  5
   337
  8
0
  6
CONTINUOUS
 62
     7
 10
2167.01185631752
 20
-1356.66955566406
 30
0.0
 11
2172.51187157631
 21
-1356.66955566406
 31
0.0
  0
LINE
  5
   338
  8
0
  6
CONTINUOUS
 62
     7
 10
2172.51185631752
 20
-1355.16955566406
 30
0.0
 11
2172.51185631752
 21
-1356.66955566406
 31
0.0
  0
LINE
  5
   339
  8
0
  6
CONTINUOUS
 62
     7
 10
2167.01185631752
 20
-1355.16955566406
 30
0.0
 11
2171.01185631752
 21
-1355.16955566406
 31
0.0
  0
LINE
  5
   33A
  8
0
  6
CONTINUOUS
 62
     7
 10
2171.01185631752
 20
-1341.66955566406
 30
0.0
 11
2171.01185631752
 21
-1355.16955566406
 31
0.0
  0
LINE
  5
   33B
  8
0
  6
CONTINUOUS
 62
     7
 10
2133.02704620361
 20
-1454.6695437195
 30
0.0
 11
2146.00085481408
 21
-1454.6695437195
 31
0.0
  0
LINE
  5
   33C
  8
0
  6
CONTINUOUS
 62
     7
 10
2133.02704620361
 20
-1454.1695437195
 30
0.0
 11
2146.00085481408
 21
-1454.1695437195
 31
0.0
  0
LINE
  5
   33D
  8
0
  6
CONTINUOUS
 62
     7
 10
2133.02704620361
 20
-1449.1695437195
 30
0.0
 11
2146.00085481408
 21
-1449.1695437195
 31
0.0
  0
LINE
  5
   33E
  8
0
  6
CONTINUOUS
 62
     7
 10
2133.02704620361
 20
-1448.6695437195
 30
0.0
 11
2146.00085481408
 21
-1448.6695437195
 31
0.0
  0
LINE
  5
   33F
  8
0
  6
CONTINUOUS
 62
     7
 10
2133.52704620361
 20
-1448.6695437195
 30
0.0
 11
2133.52704620361
 21
-1454.6695437195
 31
0.0
  0
LINE
  5
   340
  8
0
  6
CONTINUOUS
 62
     7
 10
2133.02704620361
 20
-1454.1695437195
 30
0.0
 11
2133.52704620361
 21
-1454.6695437195
 31
0.0
  0
LINE
  5
   341
  8
0
  6
CONTINUOUS
 62
     7
 10
2133.52704620361
 20
-1448.6695437195
 30
0.0
 11
2133.02704620361
 21
-1449.1695437195
 31
0.0
  0
LINE
  5
   342
  8
0
  6
DOT
 62
     7
 10
2133.02704620361
 20
-1449.1695437195
 30
0.0
 11
2133.02704620361
 21
-1454.1695437195
 31
0.0
  0
LINE
  5
   343
  8
0
  6
CONTINUOUS
 62
     7
 10
2145.52710914612
 20
-1454.6695437195
 30
0.0
 11
2145.52710914612
 21
-1457.66955566406
 31
0.0
  0
LINE
  5
   344
  8
0
  6
CONTINUOUS
 62
     7
 10
2167.01185631752
 20
-1345.66955734361
 30
0.0
 11
2167.01185631752
 21
-1356.66955566406
 31
0.0
  0
LINE
  5
   345
  8
0
  6
CONTINUOUS
 62
     7
 10
2103.51188513438
 20
-1344.66955734361
 30
0.0
 11
2166.01185631752
 21
-1344.66955734361
 31
0.0
  0
ARC
  5
   346
  8
0
  6
CONTINUOUS
 62
     7
 10
2166.01185631752
 20
-1345.66955734361
 30
0.0
 40
1.0
 50
359.999999844103
 51
449.999999844103
  0
ARC
  5
   347
  8
0
  6
CONTINUOUS
 62
     7
 10
2170.01185631752
 20
-1341.66955566406
 30
0.0
 40
1.0
 50
359.999999844103
 51
449.999999844103
  0
ARC
  5
   348
  8
0
  6
CONTINUOUS
 62
     7
 10
2172.51187157631
 20
-1357.66955566406
 30
0.0
 40
1.0
 50
359.999999844103
 51
449.999999844103
  0
ARC
  5
   349
  8
0
  6
CONTINUOUS
 62
     7
 10
2166.01185631752
 20
-1455.66955398452
 30
0.0
 40
1.0
 50
269.999999844103
 51
359.999999844103
  0
LINE
  5
   34A
  8
0
  6
CONTINUOUS
 62
     7
 10
2167.01185631752
 20
-1444.66955566406
 30
0.0
 11
2167.01185631752
 21
-1455.66955398452
 31
0.0
  0
ARC
  5
   34B
  8
0
  6
CONTINUOUS
 62
     7
 10
2172.51185631752
 20
-1443.66955566406
 30
0.0
 40
1.0
 50
269.999999844103
 51
359.999999844103
  0
ARC
  5
   34C
  8
0
  6
CONTINUOUS
 62
     7
 10
2170.01185631752
 20
-1459.66954040526
 30
0.0
 40
1.0
 50
269.999999844103
 51
359.999999844103
  0
LINE
  5
   34D
  8
0
  6
DASHDOT
 62
     7
 10
2089.70610435921
 20
-1412.66954040527
 30
0.0
 11
2184.06937517584
 21
-1412.66954040527
 31
0.0
  0
LINE
  5
   34E
  8
0
  6
CONTINUOUS
 62
     7
 10
2131.02704620361
 20
-1445.66955566406
 30
0.0
 11
2131.02704620361
 21
-1456.66955398452
 31
0.0
  0
LINE
  5
   34F
  8
0
  6
CONTINUOUS
 62
     7
 10
2131.02704620361
 20
-1445.66955566406
 30
0.0
 11
2131.02704620361
 21
-1458.17041641098
 31
0.0
  0
LINE
  5
   350
  8
0
  6
CONTINUOUS
 62
     7
 10
2133.52710914612
 20
-1460.66955566406
 30
0.0
 11
2149.01187133789
 21
-1460.66955566406
 31
0.0
  0
LINE
  5
   351
  8
0
  6
CONTINUOUS
 62
     7
 10
2123.76931190874
 20
-1444.69393830326
 30
0.0
 11
2146.00085481408
 21
-1444.69393830326
 31
0.0
  0
LINE
  5
   352
  8
0
  6
CONTINUOUS
 62
     7
 10
2123.76931190874
 20
-1444.69393830326
 30
0.0
 11
2123.76931190874
 21
-1460.66955566406
 31
0.0
  0
LINE
  5
   353
  8
0
  6
CONTINUOUS
 62
     7
 10
2146.00085481408
 20
-1456.66955398452
 30
0.0
 11
2166.01185631752
 21
-1456.66955398452
 31
0.0
  0
LINE
  5
   354
  8
0
  6
CONTINUOUS
 62
     7
 10
2103.51188468933
 20
-1456.66955398452
 30
0.0
 11
2123.76931190874
 21
-1456.66955398452
 31
0.0
  0
LINE
  5
   355
  8
0
  6
CONTINUOUS
 62
     7
 10
2119.01187076569
 20
-1350.91264626297
 30
0.0
 11
2121.07618993975
 21
-1355.66955566406
 31
0.0
  0
LINE
  5
   356
  8
0
  6
CONTINUOUS
 62
     7
 10
2119.01187076569
 20
-1345.88869606274
 30
0.0
 11
2123.25639474362
 21
-1355.66955566406
 31
0.0
  0
LINE
  5
   357
  8
0
  6
CONTINUOUS
 62
     7
 10
2120.01169771392
 20
-1343.16869491714
 30
0.0
 11
2125.43659954749
 21
-1355.66955566406
 31
0.0
  0
LINE
  5
   358
  8
0
  6
CONTINUOUS
 62
     7
 10
2122.19190251779
 20
-1343.16869491714
 30
0.0
 11
2127.61680435136
 21
-1355.66955566406
 31
0.0
  0
LINE
  5
   359
  8
0
  6
CONTINUOUS
 62
     7
 10
2124.37210732167
 20
-1343.16869491714
 30
0.0
 11
2129.79700915524
 21
-1355.66955566406
 31
0.0
  0
LINE
  5
   35A
  8
0
  6
CONTINUOUS
 62
     7
 10
2126.55231212554
 20
-1343.16869491714
 30
0.0
 11
2130.51188356877
 21
-1352.29292476458
 31
0.0
  0
LINE
  5
   35B
  8
0
  6
CONTINUOUS
 62
     7
 10
2128.73251692941
 20
-1343.16869491714
 30
0.0
 11
2130.51188356877
 21
-1347.26897456435
 31
0.0
  0
LINE
  5
   35C
  8
0
  6
CONTINUOUS
 62
     7
 10
2116.52704620361
 20
-1343.16869491714
 30
0.0
 11
2133.02704620361
 21
-1343.16869491714
 31
0.0
  0
LINE
  5
   35D
  8
0
  6
CONTINUOUS
 62
     7
 10
2116.52704620361
 20
-1325.25493629372
 30
0.0
 11
2116.52704620361
 21
-1343.16869491714
 31
0.0
  0
LINE
  5
   35E
  8
0
  6
CONTINUOUS
 62
     7
 10
2133.02704620361
 20
-1325.25493629372
 30
0.0
 11
2133.02704620361
 21
-1343.16869491714
 31
0.0
  0
LINE
  5
   35F
  8
0
  6
CONTINUOUS
 62
     7
 10
2115.53647421868
 20
-1325.25493629372
 30
0.0
 11
2133.68794389283
 21
-1325.25493629372
 31
0.0
  0
LINE
  5
   360
  8
0
  6
CONTINUOUS
 62
     7
 10
2171.01185631752
 20
-1355.16955566406
 30
0.0
 11
2172.51185631752
 21
-1355.16955566406
 31
0.0
  0
LINE
  5
   361
  8
0
  6
CONTINUOUS
 62
     7
 10
2171.01185631752
 20
-1446.16955566406
 30
0.0
 11
2172.51185631752
 21
-1446.16955566406
 31
0.0
  0
LINE
  5
   362
  8
0
  6
CONTINUOUS
 62
     7
 10
2173.51187896729
 20
-1378.41954040527
 30
0.0
 11
2173.51187896729
 21
-1382.91954040527
 31
0.0
  0
LINE
  5
   363
  8
0
  6
CONTINUOUS
 62
     7
 10
2146.00085481408
 20
-1444.69393830326
 30
0.0
 11
2146.00085481408
 21
-1460.66955566406
 31
0.0
  0
LINE
  5
   364
  8
0
  6
DOT
 62
     7
 10
2146.00085481408
 20
-1448.6695437195
 30
0.0
 11
2152.01194591522
 21
-1448.6695437195
 31
0.0
  0
LINE
  5
   365
  8
0
  6
DOT
 62
     7
 10
2146.00085481408
 20
-1449.1695437195
 30
0.0
 11
2153.01192825717
 21
-1449.1695437195
 31
0.0
  0
LINE
  5
   366
  8
0
  6
DASHDOT
 62
     7
 10
2146.00085481408
 20
-1451.66954040526
 30
0.0
 11
2152.60380121837
 21
-1451.66954040526
 31
0.0
  0
LINE
  5
   367
  8
0
  6
DOT
 62
     7
 10
2146.00085481408
 20
-1454.1695437195
 30
0.0
 11
2153.01192825717
 21
-1454.1695437195
 31
0.0
  0
LINE
  5
   368
  8
0
  6
DOT
 62
     7
 10
2146.00085481408
 20
-1454.6695437195
 30
0.0
 11
2152.01194591522
 21
-1454.6695437195
 31
0.0
  0
LINE
  5
   369
  8
0
  6
DASHDOT
 62
     7
 10
2129.36711120445
 20
-1349.66955005662
 30
0.0
 11
2172.85543482778
 21
-1349.66955005662
 31
0.0
  0
LINE
  5
   36A
  8
0
  6
DOT
 62
     7
 10
2153.01192825717
 20
-1344.66957092286
 30
0.0
 11
2153.01192825717
 21
-1354.66956363588
 31
0.0
  0
LINE
  5
   36B
  8
0
  6
DASHDOT
 62
     7
 10
2141.57393462393
 20
-1349.66955005662
 30
0.0
 11
2172.8554350662
 21
-1349.66955005662
 31
0.0
  0
ARC
  5
   36C
  8
0
  6
DOT
 62
     7
 10
2152.01194591522
 20
-1353.66955337086
 30
0.0
 40
1.0
 50
359.999999844103
 51
449.999999844103
  0
ARC
  5
   36D
  8
0
  6
DOT
 62
     7
 10
2152.01194591522
 20
-1345.66955337086
 30
0.0
 40
1.0
 50
269.999999844103
 51
359.999999844103
  0
LINE
  5
   36E
  8
0
  6
DOT
 62
     7
 10
2155.01194591522
 20
-1344.66957092286
 30
0.0
 11
2155.01194591522
 21
-1354.66957092286
 31
0.0
  0
ARC
  5
   36F
  8
0
  6
DOT
 62
     7
 10
2155.01194591522
 20
-1352.66957092286
 30
0.0
 40
2.0
 50
269.999999844103
 51
359.999999844103
  0
LINE
  5
   370
  8
0
  6
DOT
 62
     7
 10
2157.01194591522
 20
-1350.41957092286
 30
0.0
 11
2157.01194591522
 21
-1352.66957092286
 31
0.0
  0
LINE
  5
   371
  8
0
  6
DOT
 62
     7
 10
2157.01194591522
 20
-1346.66957092286
 30
0.0
 11
2157.01194591522
 21
-1348.91957092286
 31
0.0
  0
ARC
  5
   372
  8
0
  6
DOT
 62
     7
 10
2155.01194591522
 20
-1346.66957092286
 30
0.0
 40
2.0
 50
359.999999844103
 51
449.999999844103
  0
ARC
  5
   373
  8
0
  6
DOT
 62
     7
 10
2156.76194591522
 20
-1350.41957092286
 30
0.0
 40
0.25
 50
359.999999844103
 51
449.999999844103
  0
LINE
  5
   374
  8
0
  6
DOT
 62
     7
 10
2155.51194591522
 20
-1350.16957092286
 30
0.0
 11
2156.76194591522
 21
-1350.16957092286
 31
0.0
  0
LINE
  5
   375
  8
0
  6
DOT
 62
     7
 10
2155.51194591522
 20
-1349.16957092286
 30
0.0
 11
2155.51194591522
 21
-1350.16957092286
 31
0.0
  0
LINE
  5
   376
  8
0
  6
DOT
 62
     7
 10
2155.51194591522
 20
-1349.16957092286
 30
0.0
 11
2156.76194591522
 21
-1349.16957092286
 31
0.0
  0
ARC
  5
   377
  8
0
  6
DOT
 62
     7
 10
2156.76194591522
 20
-1348.91957092286
 30
0.0
 40
0.25
 50
269.999999844103
 51
359.999999844103
  0
LINE
  5
   378
  8
0
  6
DOT
 62
     7
 10
2153.01194591522
 20
-1344.66957092286
 30
0.0
 11
2155.01194591522
 21
-1344.66957092286
 31
0.0
  0
LINE
  5
   379
  8
0
  6
DOT
 62
     7
 10
2146.00085481408
 20
-1346.66955337086
 30
0.0
 11
2152.01194591522
 21
-1346.66955337086
 31
0.0
  0
LINE
  5
   37A
  8
0
  6
DOT
 62
     7
 10
2146.00085481408
 20
-1347.16955337086
 30
0.0
 11
2153.01192825717
 21
-1347.16955337086
 31
0.0
  0
LINE
  5
   37B
  8
0
  6
DASHDOT
 62
     7
 10
2146.00085481408
 20
-1349.66955005662
 30
0.0
 11
2152.60380121837
 21
-1349.66955005662
 31
0.0
  0
LINE
  5
   37C
  8
0
  6
DOT
 62
     7
 10
2146.00085481408
 20
-1352.16955337086
 30
0.0
 11
2153.01192825717
 21
-1352.16955337086
 31
0.0
  0
LINE
  5
   37D
  8
0
  6
DOT
 62
     7
 10
2146.00085481408
 20
-1352.66955337086
 30
0.0
 11
2152.01194591522
 21
-1352.66955337086
 31
0.0
  0
LINE
  5
   37E
  8
0
  6
CONTINUOUS
 62
     7
 10
2142.02710914612
 20
-1445.66955566406
 30
0.0
 11
2142.02710914612
 21
-1448.6695437195
 31
0.0
  0
LINE
  5
   37F
  8
0
  6
CONTINUOUS
 62
     7
 10
2142.02710914612
 20
-1454.6695437195
 30
0.0
 11
2142.02710914612
 21
-1457.66955566406
 31
0.0
  0
LINE
  5
   380
  8
0
  6
CONTINUOUS
 62
     7
 10
2131.02704620361
 20
-1457.66955566406
 30
0.0
 11
2145.52710914612
 21
-1457.66955566406
 31
0.0
  0
INSERT
  5
   381
  8
0
  6
CONTINUOUS
 62
     7
  2
*HATCH165
 10
2168.71997070313
 20
-1415.16955566406
 30
0.0
 50
269.999999844103
  0
INSERT
  5
   382
  8
0
  6
CONTINUOUS
 62
     7
  2
*HATCH166
 10
2168.71997070313
 20
-1415.16955566406
 30
0.0
 50
269.999999844103
  0
INSERT
  5
   383
  8
0
  6
CONTINUOUS
 62
     7
  2
*HATCH167
 10
2168.71997070313
 20
-1415.16955566406
 30
0.0
 50
269.999999844103
  0
LINE
  5
   384
  8
0
  6
CONTINUOUS
 62
     7
 10
2147.01186531467
 20
-1340.66955566406
 30
0.0
 11
2147.01186531467
 21
-1460.66954040526
 31
0.0
  0
TEXT
  5
   385
  8
0
  6
CONTINUOUS
 62
     2
 10
2128.92388630916
 20
-1545.78494191101
 30
0.0
 40
2.00000008940697
  1
INTERR.AUTOMATICO SERIE ISOMAX DIFFERENZIALE
 50
359.999999844103
 41
0.625
 72
     1
 11
2156.29888753563
 21
-1544.78494194066
 31
0.0
 73
     2
  0
TEXT
  5
   386
  8
0
  6
CONTINUOUS
 62
     2
 10
2123.92388621678
 20
-1548.78494189743
 30
0.0
 40
2.00000008940697
  1
RC 210/1 AFFIANCATO ESECUZ.FISSA TERMINALI ANTERIORI
 50
359.999999844103
 41
0.625
 72
     1
 11
2156.29888766677
 21
-1547.78494194066
 31
0.0
 73
     2
  0
TEXT
  5
   387
  8
0
  6
CONTINUOUS
 62
     2
 10
2121.42388623615
 20
-1551.78494189064
 30
0.0
 40
2.00000008940697
  1
4POLE LOW VOLTAGE M.C.C.B.SERIES ISOMAX SELECTED CURRENT
 50
359.999999844103
 41
0.625
 72
     1
 11
2156.2988877979
 21
-1550.78494194066
 31
0.0
 73
     2
  0
TEXT
  5
   388
  8
0
  6
CONTINUOUS
 62
     2
 10
2124.54888650698
 20
-1554.78494189913
 30
0.0
 40
2.00000008940697
  1
RC 210/1 SIDE BY SIDE FIXED VERSION FRONT TERMINALS
 50
359.999999844103
 41
0.625
 72
     1
 11
2156.29888792904
 21
-1553.78494194066
 31
0.0
 73
     2
  0
TEXT
  5
   389
  8
0
  6
CONTINUOUS
 62
     2
 10
2154.12937073325
 20
-1561.79337881573
 30
0.0
 40
3.00000002980232
  1
RC 210/1
 50
359.999999844103
 41
0.916666604744064
 72
     1
 11
2164.85437011719
 21
-1560.29337882996
 31
0.0
 73
     2
  0
TEXT
  5
   38A
  8
0
  6
CONTINUOUS
 62
     2
 10
2033.93528725494
 20
-1542.19786837863
 30
0.0
 40
2.00000008940697
  1
97-02-21
 50
359.999999844103
 41
0.625
 72
     1
 11
2038.81028747559
 21
-1541.19786834717
 31
0.0
 73
     2
  0
TEXT
  5
   38B
  8
0
  6
CONTINUOUS
 62
     2
 10
2136.63762658603
 20
-1571.58636474369
 30
0.0
 40
5.00000011920929
  1
601855/305
 50
359.999999844103
 41
0.933334026137971
 72
     1
 11
2159.4709777832
 21
-1569.08636474609
 31
0.0
 73
     2
  0
TEXT
  5
   38C
  8
0
  6
CONTINUOUS
 62
     2
 10
2184.89986262808
 20
-1414.2934036374
 30
0.0
 40
3.00000002980232
  1
X
 50
359.999999844103
 41
0.916666674282816
 72
     1
 11
2185.9998626709
 21
-1412.79340362549
 31
0.0
 73
     2
  0
TEXT
  5
   38D
  8
0
  6
CONTINUOUS
 62
     2
 10
2086.10919032584
 20
-1414.05983091592
 30
0.0
 40
3.00000002980232
  1
X
 50
359.999999844103
 41
0.916666674282816
 72
     1
 11
2087.20919036865
 21
-1412.55983090401
 31
0.0
 73
     2
  0
INSERT
  5
   38E
  8
0
  6
CONTINUOUS
 62
     3
  2
*UDIM814
 10
0.0
 20
0.0
 30
0.0
  0
INSERT
  5
   38F
  8
0
  6
CONTINUOUS
 62
     3
  2
*UDIM815
 10
0.0
 20
0.0
 30
0.0
  0
INSERT
  5
   390
  8
0
  6
CONTINUOUS
 62
     3
  2
*UDIM816
 10
0.0
 20
0.0
 30
0.0
  0
INSERT
  5
   391
  8
0
  6
CONTINUOUS
 62
     3
  2
*UDIM817
 10
0.0
 20
0.0
 30
0.0
  0
TEXT
  5
   392
  8
0
  6
CONTINUOUS
 62
     7
 10
2093.38185707061
 20
-1495.00710650931
 30
0.0
 40
6.99999541044235
  1
_
 50
449.999999844103
 41
0.933333333333333
 72
     2
 11
2086.38186167411
 21
-1489.87377652265
 31
0.0
 73
     3
  0
INSERT
  5
   393
  8
255
  6
CONTINUOUS
 62
     7
  2
DIA_LATO
 10
2103.51188513438
 20
-1340.66957092285
 30
0.0
 50
359.999999792138
  0
TEXT
  5
   394
  8
0
  6
CONTINUOUS
 62
     7
 10
2033.6981198686
 20
-1545.68844607469
 30
0.0
 40
2.00000008940697
  1
O.Carrara
 50
359.999999844103
 41
0.625
 72
     1
 11
2039.19812011719
 21
-1544.68844604492
 31
0.0
 73
     2
  0
LINE
  5
   395
  8
0
  6
CONTINUOUS
 62
     7
 10
2179.51187157631
 20
-1394.06952514649
 30
0.0
 11
2179.51187157631
 21
-1399.36952514649
 31
0.0
  0
LINE
  5
   396
  8
0
  6
CONTINUOUS
 62
     7
 10
2178.51187157631
 20
-1394.06952514649
 30
0.0
 11
2179.51187157631
 21
-1394.06952514649
 31
0.0
  0
LINE
  5
   397
  8
0
  6
CONTINUOUS
 62
     7
 10
2178.51187157631
 20
-1399.36952514649
 30
0.0
 11
2179.51187157631
 21
-1399.36952514649
 31
0.0
  0
ARC
  5
   398
  8
0
  6
CONTINUOUS
 62
     7
 10
2180.01187157631
 20
-1405.16952514649
 30
0.0
 40
0.5
 50
404.999999844103
 51
494.999999844103
  0
LINE
  5
   399
  8
0
  6
CONTINUOUS
 62
     7
 10
2179.65831818572
 20
-1404.8159717559
 30
0.0
 11
2178.51187157631
 21
-1405.9624183653
 31
0.0
  0
LINE
  5
   39A
  8
0
  6
CONTINUOUS
 62
     7
 10
2180.3654249669
 20
-1404.8159717559
 30
0.0
 11
2181.07253174809
 21
-1405.52307853708
 31
0.0
  0
LINE
  5
   39B
  8
0
  6
CONTINUOUS
 62
     7
 10
2181.07253174809
 20
-1406.23018531827
 30
0.0
 11
2178.51187157631
 21
-1408.79084549005
 31
0.0
  0
ARC
  5
   39C
  8
0
  6
CONTINUOUS
 62
     7
 10
2180.7189783575
 20
-1405.87663192768
 30
0.0
 40
0.5
 50
314.999999844103
 51
404.999999844103
  0
TEXT
  5
   39D
  8
0
  6
CONTINUOUS
 62
     2
 10
2033.93528725494
 20
-1550.66461837863
 30
0.0
 40
2.00000008940697
  1
97-07-22
 50
359.999999844103
 41
0.625
 72
     1
 11
2038.81028747559
 21
-1549.66461834717
 31
0.0
 73
     2
  0
TEXT
  5
   39E
  8
0
  6
CONTINUOUS
 62
     7
 10
2034.32311989654
 20
-1554.15519607639
 30
0.0
 40
2.00000008940697
  1
GIUPPONI
 50
359.999999844103
 41
0.625
 72
     1
 11
2039.19812011719
 21
-1553.15519604492
 31
0.0
 73
     2
  0
LINE
  5
   39F
  8
0
  6
CONTINUOUS
 62
     7
 10
2007.24499511719
 20
-1415.16955566406
 30
0.0
 11
2007.24499511719
 21
-1415.16955566406
 31
0.0
  0
LINE
  5
   3A0
  8
0
  6
CONTINUOUS
 62
     7
 10
2007.24499511719
 20
-1415.16955566406
 30
0.0
 11
2007.24499511719
 21
-1415.16955566406
 31
0.0
  0
LINE
  5
   3A1
  8
0
  6
CONTINUOUS
 62
     7
 10
2007.24499511719
 20
-1415.16955566406
 30
0.0
 11
2007.24499511719
 21
-1415.16955566406
 31
0.0
  0
LINE
  5
   3A2
  8
0
  6
CONTINUOUS
 62
     7
 10
2007.24499511719
 20
-1415.16955566406
 30
0.0
 11
2007.24499511719
 21
-1415.16955566406
 31
0.0
  0
LINE
  5
   3A3
  8
0
  6
CONTINUOUS
 62
     7
 10
2007.24499511719
 20
-1415.16955566406
 30
0.0
 11
2007.24499511719
 21
-1415.16955566406
 31
0.0
  0
LINE
  5
   3A4
  8
0
  6
CONTINUOUS
 62
     7
 10
2007.24499511719
 20
-1415.16955566406
 30
0.0
 11
2007.24499511719
 21
-1415.16955566406
 31
0.0
  0
LINE
  5
   3A5
  8
0
  6
CONTINUOUS
 62
     7
 10
2007.24499511719
 20
-1415.16955566406
 30
0.0
 11
2007.24499511719
 21
-1415.16955566406
 31
0.0
  0
LINE
  5
   3A6
  8
0
  6
CONTINUOUS
 62
     7
 10
2007.24499511719
 20
-1415.16955566406
 30
0.0
 11
2007.24499511719
 21
-1415.16955566406
 31
0.0
  0
LINE
  5
   3A7
  8
0
  6
CONTINUOUS
 62
     7
 10
2052.24501502991
 20
-1345.66955232337
 30
0.0
 11
2052.24503181457
 21
-1455.66953706458
 31
0.0
  0
LINE
  5
   3A8
  8
0
  6
CONTINUOUS
 62
     7
 10
2007.24499511719
 20
-1415.16955566406
 30
0.0
 11
2007.24499511719
 21
-1415.16955566406
 31
0.0
  0
LINE
  5
   3A9
  8
0
  6
CONTINUOUS
 62
     7
 10
2007.24499511719
 20
-1415.16955566406
 30
0.0
 11
2007.24499511719
 21
-1415.16955566406
 31
0.0
  0
LINE
  5
   3AA
  8
0
  6
CONTINUOUS
 62
     7
 10
2007.24499511719
 20
-1415.16955566406
 30
0.0
 11
2007.24499511719
 21
-1415.16955566406
 31
0.0
  0
LINE
  5
   3AB
  8
0
  6
CONTINUOUS
 62
     7
 10
2007.24499511719
 20
-1415.16955566406
 30
0.0
 11
2007.24499511719
 21
-1415.16955566406
 31
0.0
  0
LINE
  5
   3AC
  8
0
  6
CONTINUOUS
 62
     7
 10
2007.24499511719
 20
-1415.16955566406
 30
0.0
 11
2007.24499511719
 21
-1415.16955566406
 31
0.0
  0
LINE
  5
   3AD
  8
0
  6
CONTINUOUS
 62
     7
 10
2007.24499511719
 20
-1415.16955566406
 30
0.0
 11
2007.24499511719
 21
-1415.16955566406
 31
0.0
  0
LINE
  5
   3AE
  8
0
  6
CONTINUOUS
 62
     7
 10
2007.24499511719
 20
-1415.16955566406
 30
0.0
 11
2007.24499511719
 21
-1415.16955566406
 31
0.0
  0
LINE
  5
   3AF
  8
0
  6
CONTINUOUS
 62
     7
 10
2007.24499511719
 20
-1415.16955566406
 30
0.0
 11
2007.24499511719
 21
-1415.16955566406
 31
0.0
  0
LINE
  5
   3B0
  8
0
  6
CONTINUOUS
 62
     7
 10
2007.24499511719
 20
-1415.16955566406
 30
0.0
 11
2007.24499511719
 21
-1415.16955566406
 31
0.0
  0
LINE
  5
   3B1
  8
0
  6
CONTINUOUS
 62
     7
 10
2007.24499511719
 20
-1415.16955566406
 30
0.0
 11
2007.24499511719
 21
-1415.16955566406
 31
0.0
  0
LINE
  5
   3B2
  8
0
  6
CONTINUOUS
 62
     7
 10
2007.24499511719
 20
-1415.16955566406
 30
0.0
 11
2007.24499511719
 21
-1415.16955566406
 31
0.0
  0
LINE
  5
   3B3
  8
0
  6
CONTINUOUS
 62
     7
 10
2007.24499511719
 20
-1415.16955566406
 30
0.0
 11
2007.24499511719
 21
-1415.16955566406
 31
0.0
  0
LINE
  5
   3B4
  8
0
  6
CONTINUOUS
 62
     7
 10
2007.24499511719
 20
-1415.16955566406
 30
0.0
 11
2007.24499511719
 21
-1415.16955566406
 31
0.0
  0
LINE
  5
   3B5
  8
0
  6
CONTINUOUS
 62
     7
 10
2007.24499511719
 20
-1415.16955566406
 30
0.0
 11
2007.24499511719
 21
-1415.16955566406
 31
0.0
  0
LINE
  5
   3B6
  8
0
  6
CONTINUOUS
 62
     7
 10
2007.24499511719
 20
-1415.16955566406
 30
0.0
 11
2007.24499511719
 21
-1415.16955566406
 31
0.0
  0
LINE
  5
   3B7
  8
0
  6
CONTINUOUS
 62
     7
 10
2007.24499511719
 20
-1415.16955566406
 30
0.0
 11
2007.24499511719
 21
-1415.16955566406
 31
0.0
  0
LINE
  5
   3B8
  8
0
  6
CONTINUOUS
 62
     7
 10
2007.24499511719
 20
-1415.16955566406
 30
0.0
 11
2007.24499511719
 21
-1415.16955566406
 31
0.0
  0
LINE
  5
   3B9
  8
0
  6
CONTINUOUS
 62
     7
 10
2007.24499511719
 20
-1415.16955566406
 30
0.0
 11
2007.24499511719
 21
-1415.16955566406
 31
0.0
  0
LINE
  5
   3BA
  8
0
  6
CONTINUOUS
 62
     7
 10
2007.24499511719
 20
-1415.16955566406
 30
0.0
 11
2007.24499511719
 21
-1415.16955566406
 31
0.0
  0
LINE
  5
   3BB
  8
0
  6
CONTINUOUS
 62
     7
 10
2007.24499511719
 20
-1415.16955566406
 30
0.0
 11
2007.24499511719
 21
-1415.16955566406
 31
0.0
  0
LINE
  5
   3BC
  8
0
  6
CONTINUOUS
 62
     7
 10
2007.24499511719
 20
-1415.16955566406
 30
0.0
 11
2007.24499511719
 21
-1415.16955566406
 31
0.0
  0
LINE
  5
   3BD
  8
0
  6
CONTINUOUS
 62
     7
 10
2007.24499511719
 20
-1415.16955566406
 30
0.0
 11
2007.24499511719
 21
-1415.16955566406
 31
0.0
  0
LINE
  5
   3BE
  8
0
  6
CONTINUOUS
 62
     7
 10
2052.24496925355
 20
-1345.66957077026
 30
0.0
 11
2052.24498603821
 21
-1455.66955551148
 31
0.0
  0
LINE
  5
   3BF
  8
0
  6
DASHDOT
 62
     7
 10
2013.74500252503
 20
-1350.66953362611
 30
0.0
 11
2042.74501034792
 21
-1350.66953362611
 31
0.0
  0
LINE
  5
   3C0
  8
0
  6
DASHDOT
 62
     7
 10
2023.99500252503
 20
-1350.66953362611
 30
0.0
 11
2037.49501034792
 21
-1350.66953362611
 31
0.0
  0
LINE
  5
   3C1
  8
0
  6
DASHDOT
 62
     7
 10
2000.74509233037
 20
-1444.16945631413
 30
0.0
 11
2000.74509233037
 21
-1457.16958980297
 31
0.0
  0
LINE
  5
   3C2
  8
0
  6
DASHDOT
 62
     7
 10
1995.18488598299
 20
-1450.66949559274
 30
0.0
 11
2006.00215940225
 21
-1450.66949559274
 31
0.0
  0
LINE
  5
   3C3
  8
0
  6
DASHDOT
 62
     7
 10
2030.74524491971
 20
-1455.77705253734
 30
0.0
 11
2030.74524491971
 21
-1457.1698560193
 31
0.0
  0
LINE
  5
   3C4
  8
0
  6
DASHDOT
 62
     7
 10
2024.24499929639
 20
-1450.66958293018
 30
0.0
 11
2037.24549054301
 21
-1450.66958293018
 31
0.0
  0
LINE
  5
   3C5
  8
0
  6
DASHDOT
 62
     7
 10
1956.24501672797
 20
-1350.66947756337
 30
0.0
 11
1985.24493174258
 21
-1350.66947756337
 31
0.0
  0
LINE
  5
   3C6
  8
0
  6
DASHDOT
 62
     7
 10
1965.46646277202
 20
-1450.66949559274
 30
0.0
 11
1975.87663450346
 21
-1450.66949559274
 31
0.0
  0
LINE
  5
   3C7
  8
0
  6
DASHDOT
 62
     7
 10
2030.74524491971
 20
-1439.58828268034
 30
0.0
 11
2030.74524491971
 21
-1457.48424889567
 31
0.0
  0
LINE
  5
   3C8
  8
0
  6
CONTINUOUS
 62
     7
 10
2024.84515180999
 20
-1450.66958293018
 30
0.0
 11
2036.06952691706
 21
-1450.66958293018
 31
0.0
  0
ARC
  5
   3C9
  8
0
  6
CONTINUOUS
 62
     7
 10
2051.94497608948
 20
-1390.46954040528
 30
0.0
 40
0.3
 50
360.000008586743
 51
449.999999844103
  0
ARC
  5
   3CA
  8
0
  6
CONTINUOUS
 62
     7
 10
2051.94498286438
 20
-1434.86954040527
 30
0.0
 40
0.3
 50
269.999999844103
 51
360.000008586743
  0
LINE
  5
   3CB
  8
0
  6
DASHDOT
 62
     7
 10
1974.74489827022
 20
-1429.16954040527
 30
0.0
 11
1974.74489827022
 21
-1433.16954040527
 31
0.0
  0
INSERT
  5
   3CC
  8
0
  6
CONTINUOUS
 62
     7
  2
$3SSS
 10
2025.74524491971
 20
-1450.66961039599
 30
0.0
 41
01.0
 42
01.0
 50
359.999999792138
 43
01.0
  0
INSERT
  5
   3CD
  8
0
  6
CONTINUOUS
 62
     7
  2
$3SSS
 10
2025.74500643648
 20
-1350.66956109191
 30
0.0
 41
0.8
 42
0.8
 50
89.9999999480344
 43
0.8
  0
INSERT
  5
   3CE
  8
0
  6
CONTINUOUS
 62
     7
  2
$3SSS
 10
1975.74497423527
 20
-1350.66950502917
 30
0.0
 41
0.8
 42
0.8
 50
359.999999792138
 43
0.8
  0
INSERT
  5
   3CF
  8
0
  6
CONTINUOUS
 62
     7
  2
$3SSS
 10
2000.74509233037
 20
-1450.66952305855
 30
0.0
 41
0.8
 42
0.8
 50
359.999999792138
 43
0.8
  0
INSERT
  5
   3D0
  8
255
  6
CONTINUOUS
 62
     7
  2
$2ABB
 10
1985.65754502461
 20
-1394.48717542005
 30
0.0
 41
1.2
 42
1.2
 50
359.999999792138
 43
1.2
  0
LINE
  5
   3D1
  8
0
  6
CONTINUOUS
 62
     7
 10
2002.24503849637
 20
-1460.66952819825
 30
0.0
 11
2024.24503849637
 21
-1460.66952819825
 31
0.0
  0
LINE
  5
   3D2
  8
0
  6
CONTINUOUS
 62
     7
 10
1977.24503849637
 20
-1460.66952819825
 30
0.0
 11
1999.24503849637
 21
-1460.66952819825
 31
0.0
  0
LINE
  5
   3D3
  8
0
  6
CONTINUOUS
 62
     7
 10
1950.24500122071
 20
-1446.16952819825
 30
0.0
 11
2051.24500122071
 21
-1446.16952819825
 31
0.0
  0
LINE
  5
   3D4
  8
0
  6
CONTINUOUS
 62
     7
 10
2027.24503849637
 20
-1340.66954345705
 30
0.0
 11
2048.74499916077
 21
-1340.66954345705
 31
0.0
  0
LINE
  5
   3D5
  8
0
  6
CONTINUOUS
 62
     7
 10
2002.24495173801
 20
-1340.66954345705
 30
0.0
 11
2023.24499416351
 21
-1340.66954345705
 31
0.0
  0
LINE
  5
   3D6
  8
0
  6
CONTINUOUS
 62
     7
 10
1977.24495173801
 20
-1340.66954345705
 30
0.0
 11
1999.24495173801
 21
-1340.66954345705
 31
0.0
  0
LINE
  5
   3D7
  8
0
  6
CONTINUOUS
 62
     7
 10
2052.24496925355
 20
-1345.66957077026
 30
0.0
 11
2052.24498603821
 21
-1455.66955551148
 31
0.0
  0
LINE
  5
   3D8
  8
0
  6
CONTINUOUS
 62
     7
 10
1949.24499977112
 20
-1345.66957107544
 30
0.0
 11
1949.24501655578
 21
-1455.66955581665
 31
0.0
  0
LINE
  5
   3D9
  8
0
  6
CONTINUOUS
 62
     7
 10
1975.7449953003
 20
-1435.16951293946
 30
0.0
 11
2051.245171233
 21
-1435.16951293946
 31
0.0
  0
LINE
  5
   3DA
  8
0
  6
CONTINUOUS
 62
     7
 10
2028.24499511719
 20
-1456.86955566406
 30
0.0
 11
2028.24499511719
 21
-1460.66955566406
 31
0.0
  0
LINE
  5
   3DB
  8
0
  6
CONTINUOUS
 62
     7
 10
2023.24499511719
 20
-1456.86955566406
 30
0.0
 11
2023.24499511719
 21
-1460.66955566406
 31
0.0
  0
LINE
  5
   3DC
  8
0
  6
CONTINUOUS
 62
     7
 10
2003.24499607086
 20
-1456.86955566406
 30
0.0
 11
2003.24499607086
 21
-1460.66955566406
 31
0.0
  0
LINE
  5
   3DD
  8
0
  6
CONTINUOUS
 62
     7
 10
1998.24499607086
 20
-1456.86955566406
 30
0.0
 11
1998.24499607086
 21
-1460.66955566406
 31
0.0
  0
LINE
  5
   3DE
  8
0
  6
CONTINUOUS
 62
     7
 10
2023.24499416351
 20
-1340.66957092285
 30
0.0
 11
2023.24499416351
 21
-1344.46957092285
 31
0.0
  0
LINE
  5
   3DF
  8
0
  6
CONTINUOUS
 62
     7
 10
2028.24499664306
 20
-1340.66957092285
 30
0.0
 11
2028.24499374389
 21
-1344.46957092285
 31
0.0
  0
LINE
  5
   3E0
  8
0
  6
CONTINUOUS
 62
     7
 10
1998.24499511719
 20
-1342.91957092285
 30
0.0
 11
1998.24499511719
 21
-1344.16957092285
 31
0.0
  0
LINE
  5
   3E1
  8
0
  6
CONTINUOUS
 62
     7
 10
2003.24499683378
 20
-1342.91957855219
 30
0.0
 11
2003.2449958801
 21
-1344.16957855219
 31
0.0
  0
LINE
  5
   3E2
  8
0
  6
CONTINUOUS
 62
     7
 10
2014.49499511719
 20
-1340.66952819826
 30
0.0
 11
2016.99499416351
 21
-1340.66952819826
 31
0.0
  0
LINE
  5
   3E3
  8
0
  6
DASHDOT
 62
     7
 10
2033.16396025105
 20
-1451.66952323092
 30
0.0
 11
2042.64361383889
 21
-1451.66952323092
 31
0.0
  0
LINE
  5
   3E4
  8
0
  6
DASHDOT
 62
     7
 10
1910.24499614412
 20
-1437.66956660449
 30
0.0
 11
1910.24499614412
 21
-1465.66953478898
 31
0.0
  0
LINE
  5
   3E5
  8
0
  6
DASHDOT
 62
     7
 10
2008.56185180803
 20
-1451.66952323092
 30
0.0
 11
2018.15782016382
 21
-1451.66952323092
 31
0.0
  0
LINE
  5
   3E6
  8
0
  6
DASHDOT
 62
     7
 10
1885.24499614412
 20
-1440.90939446293
 30
0.0
 11
1885.24499614412
 21
-1465.66953478898
 31
0.0
  0
LINE
  5
   3E7
  8
0
  6
DASHDOT
 62
     7
 10
1983.61079906116
 20
-1451.66952323092
 30
0.0
 11
1993.14861003298
 21
-1451.66952323092
 31
0.0
  0
LINE
  5
   3E8
  8
0
  6
CONTINUOUS
 62
     7
 10
1949.54500660706
 20
-1390.16951293948
 30
0.0
 11
2051.94497608947
 21
-1390.16951293948
 31
0.0
  0
CIRCLE
  5
   3E9
  8
0
  6
CONTINUOUS
 62
     7
 10
1988.24499614412
 20
-1457.66955566406
 30
0.0
 40
1.25
  0
CIRCLE
  5
   3EA
  8
0
  6
CONTINUOUS
 62
     7
 10
2013.24499614412
 20
-1457.66955566406
 30
0.0
 40
1.25
  0
CIRCLE
  5
   3EB
  8
0
  6
CONTINUOUS
 62
     7
 10
2038.24499614412
 20
-1457.66955566406
 30
0.0
 40
1.25
  0
LINE
  5
   3EC
  8
0
  6
DASHDOT
 62
     7
 10
1984.94841889257
 20
-1457.66952819825
 30
0.0
 11
1991.52020328169
 21
-1457.66952819825
 31
0.0
  0
LINE
  5
   3ED
  8
0
  6
DASHDOT
 62
     7
 10
2012.74841594329
 20
-1457.66952819825
 30
0.0
 11
2018.33152480484
 21
-1457.66952819825
 31
0.0
  0
LINE
  5
   3EE
  8
0
  6
DASHDOT
 62
     7
 10
2033.56005664754
 20
-1457.66952819825
 30
0.0
 11
2048.34073493568
 21
-1457.66952819825
 31
0.0
  0
LINE
  5
   3EF
  8
0
  6
DASHDOT
 62
     7
 10
2025.74500643648
 20
-1343.91955718046
 30
0.0
 11
2025.74500643648
 21
-1357.41956500335
 31
0.0
  0
LINE
  5
   3F0
  8
0
  6
DASHDOT
 62
     7
 10
2000.74497423527
 20
-1343.91954752187
 30
0.0
 11
2000.74497423527
 21
-1357.41946253648
 31
0.0
  0
LINE
  5
   3F1
  8
0
  6
DASHDOT
 62
     7
 10
1993.99501672797
 20
-1350.66947756337
 30
0.0
 11
2007.49493174258
 21
-1350.66947756337
 31
0.0
  0
LINE
  5
   3F2
  8
0
  6
DASHDOT
 62
     7
 10
2000.74509233037
 20
-1444.16945631413
 30
0.0
 11
2000.74509233037
 21
-1457.16958980297
 31
0.0
  0
LINE
  5
   3F3
  8
0
  6
DASHDOT
 62
     7
 10
1995.18488598299
 20
-1450.66949559274
 30
0.0
 11
2006.00215940225
 21
-1450.66949559274
 31
0.0
  0
LINE
  5
   3F4
  8
0
  6
DASHDOT
 62
     7
 10
2025.74524491971
 20
-1455.77705253734
 30
0.0
 11
2025.74524491971
 21
-1457.1698560193
 31
0.0
  0
LINE
  5
   3F5
  8
0
  6
DASHDOT
 62
     7
 10
2024.24499929639
 20
-1450.66958293018
 30
0.0
 11
2037.24549054301
 21
-1450.66958293018
 31
0.0
  0
LINE
  5
   3F6
  8
0
  6
CONTINUOUS
 62
     7
 10
1951.74499916077
 20
-1341.66957107544
 30
0.0
 11
1951.74499938965
 21
-1343.16957092285
 31
0.0
  0
ARC
  5
   3F7
  8
0
  6
CONTINUOUS
 62
     7
 10
1952.74499916077
 20
-1341.66957092285
 30
0.0
 40
01.0
 50
449.999999844103
 51
540.000008586744
  0
ARC
  5
   3F8
  8
0
  6
CONTINUOUS
 62
     7
 10
2048.74499916077
 20
-1341.66957092285
 30
0.0
 40
01.0
 50
360.000008586743
 51
449.999999844103
  0
ARC
  5
   3F9
  8
0
  6
CONTINUOUS
 62
     7
 10
1952.24499916077
 20
-1459.66957092285
 30
0.0
 40
01.0
 50
539.999991101463
 51
629.999999844103
  0
LINE
  5
   3FA
  8
0
  6
CONTINUOUS
 62
     7
 10
1951.24500122071
 20
-1446.16955566406
 30
0.0
 11
1951.24499916077
 21
-1459.66957077026
 31
0.0
  0
ARC
  5
   3FB
  8
0
  6
CONTINUOUS
 62
     7
 10
2048.74499916077
 20
-1459.66957092285
 30
0.0
 40
01.0
 50
269.999999844103
 51
359.999991101463
  0
LINE
  5
   3FC
  8
0
  6
CONTINUOUS
 62
     7
 10
2049.74500122071
 20
-1446.16955566406
 30
0.0
 11
2049.74499916077
 21
-1459.66957107544
 31
0.0
  0
LINE
  5
   3FD
  8
0
  6
CONTINUOUS
 62
     7
 10
1998.24496451726
 20
-1340.66957092285
 30
0.0
 11
1998.24496741642
 21
-1344.46957092285
 31
0.0
  0
LINE
  5
   3FE
  8
0
  6
CONTINUOUS
 62
     7
 10
2003.2449669968
 20
-1340.66957092285
 30
0.0
 11
2003.2449669968
 21
-1344.46957092285
 31
0.0
  0
LINE
  5
   3FF
  8
0
  6
CONTINUOUS
 62
     7
 10
1949.24501487732
 20
-1444.66952819825
 30
0.0
 11
2052.24498435974
 21
-1444.66952819825
 31
0.0
  0
LINE
  5
   400
  8
0
  6
CONTINUOUS
 62
     7
 10
1950.24500144959
 20
-1444.66955566406
 30
0.0
 11
1950.24500122071
 21
-1446.16955566406
 31
0.0
  0
LINE
  5
   401
  8
0
  6
CONTINUOUS
 62
     7
 10
2051.24500144959
 20
-1444.66955566406
 30
0.0
 11
2051.24500122071
 21
-1446.16955566406
 31
0.0
  0
LINE
  5
   402
  8
0
  6
CONTINUOUS
 62
     7
 10
1950.24500122071
 20
-1355.16958618164
 30
0.0
 11
1950.24500144959
 21
-1356.66958618164
 31
0.0
  0
LINE
  5
   403
  8
0
  6
CONTINUOUS
 62
     7
 10
1950.24500122071
 20
-1355.16955871584
 30
0.0
 11
2051.24500122071
 21
-1355.16955871584
 31
0.0
  0
LINE
  5
   404
  8
0
  6
CONTINUOUS
 62
     7
 10
2051.24500122071
 20
-1355.16958618164
 30
0.0
 11
2051.24500144959
 21
-1356.66958618164
 31
0.0
  0
LINE
  5
   405
  8
0
  6
CONTINUOUS
 62
     7
 10
1949.2450014496
 20
-1356.66955871584
 30
0.0
 11
2052.24497093201
 21
-1356.66955871584
 31
0.0
  0
LINE
  5
   406
  8
0
  6
CONTINUOUS
 62
     7
 10
1951.74499916077
 20
-1341.66957107544
 30
0.0
 11
1951.74500122071
 21
-1355.16958618164
 31
0.0
  0
LINE
  5
   407
  8
0
  6
CONTINUOUS
 62
     7
 10
2049.74499916077
 20
-1341.66957077026
 30
0.0
 11
2049.74500122071
 21
-1355.16958618164
 31
0.0
  0
LINE
  5
   408
  8
0
  6
CONTINUOUS
 62
     7
 10
1950.24499977113
 20
-1344.66954345705
 30
0.0
 11
1951.74499961854
 21
-1344.66954345705
 31
0.0
  0
LINE
  5
   409
  8
0
  6
CONTINUOUS
 62
     7
 10
2049.74499961853
 20
-1344.66954345705
 30
0.0
 11
2051.24496925354
 21
-1344.66954345705
 31
0.0
  0
LINE
  5
   40A
  8
0
  6
CONTINUOUS
 62
     7
 10
1950.24501655579
 20
-1456.66952819825
 30
0.0
 11
1951.24499961854
 21
-1456.66952819825
 31
0.0
  0
LINE
  5
   40B
  8
0
  6
CONTINUOUS
 62
     7
 10
2049.74499961853
 20
-1456.66952819825
 30
0.0
 11
2051.2449860382
 21
-1456.66952819825
 31
0.0
  0
ARC
  5
   40C
  8
0
  6
CONTINUOUS
 62
     7
 10
1950.24499977112
 20
-1345.66957092285
 30
0.0
 40
01.0
 50
449.999999844103
 51
540.000008586744
  0
ARC
  5
   40D
  8
0
  6
CONTINUOUS
 62
     7
 10
2051.24496925355
 20
-1345.66957092285
 30
0.0
 40
01.0
 50
360.000008586743
 51
449.999999844103
  0
ARC
  5
   40E
  8
0
  6
CONTINUOUS
 62
     7
 10
2051.24498603821
 20
-1455.66955566406
 30
0.0
 40
01.0
 50
269.999999844103
 51
360.000008586744
  0
ARC
  5
   40F
  8
0
  6
CONTINUOUS
 62
     7
 10
1950.24501655578
 20
-1455.66955566406
 30
0.0
 40
01.0
 50
540.000008586743
 51
629.999999844103
  0
LINE
  5
   410
  8
0
  6
CONTINUOUS
 62
     7
 10
1973.24496451726
 20
-1340.66957092285
 30
0.0
 11
1973.24496741642
 21
-1344.46957092285
 31
0.0
  0
CIRCLE
  5
   411
  8
0
  6
CONTINUOUS
 62
     7
 10
1963.24499614412
 20
-1457.66955566406
 30
0.0
 40
1.25
  0
LINE
  5
   412
  8
0
  6
CONTINUOUS
 62
     7
 10
1924.24500164031
 20
-1340.66954345705
 30
0.0
 11
1974.24495173801
 21
-1340.66954345705
 31
0.0
  0
LINE
  5
   413
  8
0
  6
DASHDOT
 62
     7
 10
1958.07817247455
 20
-1451.66952323092
 30
0.0
 11
1968.31387205406
 21
-1451.66952323092
 31
0.0
  0
LINE
  5
   414
  8
0
  6
DASHDOT
 62
     7
 10
1960.57893998545
 20
-1457.66952819825
 30
0.0
 11
1966.6273079188
 21
-1457.66952819825
 31
0.0
  0
LINE
  5
   415
  8
0
  6
DASHDOT
 62
     7
 10
1975.74509233037
 20
-1445.329355645
 30
0.0
 11
1975.74509233037
 21
-1457.94950796746
 31
0.0
  0
LINE
  5
   416
  8
0
  6
DASHDOT
 62
     7
 10
1970.46646277202
 20
-1450.66949559274
 30
0.0
 11
1980.87663450346
 21
-1450.66949559274
 31
0.0
  0
LINE
  5
   417
  8
0
  6
DASHDOT
 62
     7
 10
2025.74524491971
 20
-1439.58828268034
 30
0.0
 11
2025.74524491971
 21
-1457.48424889567
 31
0.0
  0
LINE
  5
   418
  8
0
  6
CONTINUOUS
 62
     7
 10
2019.84515180999
 20
-1450.66958293018
 30
0.0
 11
2031.06952691706
 21
-1450.66958293018
 31
0.0
  0
CIRCLE
  5
   419
  8
0
  6
CONTINUOUS
 62
     7
 10
1963.24499614412
 20
-1451.66955069673
 30
0.0
 40
3.75
  0
CIRCLE
  5
   41A
  8
0
  6
CONTINUOUS
 62
     7
 10
1988.24499614412
 20
-1451.66955069673
 30
0.0
 40
3.75
  0
CIRCLE
  5
   41B
  8
0
  6
CONTINUOUS
 62
     7
 10
2013.24499614412
 20
-1451.66955069673
 30
0.0
 40
3.75
  0
CIRCLE
  5
   41C
  8
0
  6
CONTINUOUS
 62
     7
 10
2038.24499614412
 20
-1451.66955069673
 30
0.0
 40
3.75
  0
LINE
  5
   41D
  8
0
  6
CONTINUOUS
 62
     7
 10
2027.24503849637
 20
-1460.66952819825
 30
0.0
 11
2048.74499916077
 21
-1460.66952819825
 31
0.0
  0
LINE
  5
   41E
  8
0
  6
CONTINUOUS
 62
     7
 10
1962.24501487732
 20
-1356.66955871584
 30
0.0
 11
2052.24498435974
 21
-1356.66955871584
 31
0.0
  0
LINE
  5
   41F
  8
0
  6
CONTINUOUS
 62
     7
 10
1998.24499607086
 20
-1456.86952819825
 30
0.0
 11
2003.24499607086
 21
-1456.86952819825
 31
0.0
  0
LINE
  5
   420
  8
0
  6
CONTINUOUS
 62
     7
 10
2023.24499511719
 20
-1456.86952819825
 30
0.0
 11
2028.24499511719
 21
-1456.86952819825
 31
0.0
  0
LINE
  5
   421
  8
0
  6
CONTINUOUS
 62
     7
 10
1978.24497423527
 20
-1340.66957092285
 30
0.0
 11
1978.24497423527
 21
-1344.46957092285
 31
0.0
  0
LINE
  5
   422
  8
0
  6
CONTINUOUS
 62
     7
 10
1973.24499607086
 20
-1456.86955566406
 30
0.0
 11
1973.24499607086
 21
-1460.66955566406
 31
0.0
  0
LINE
  5
   423
  8
0
  6
CONTINUOUS
 62
     7
 10
1978.24499607086
 20
-1456.86955566406
 30
0.0
 11
1978.24499607086
 21
-1460.66955566406
 31
0.0
  0
LINE
  5
   424
  8
0
  6
CONTINUOUS
 62
     7
 10
1973.24499607087
 20
-1456.86952819825
 30
0.0
 11
1978.24499607086
 21
-1456.86952819825
 31
0.0
  0
LINE
  5
   425
  8
0
  6
CONTINUOUS
 62
     7
 10
1962.24501487732
 20
-1444.66952819825
 30
0.0
 11
2051.24516978342
 21
-1444.66952819825
 31
0.0
  0
LINE
  5
   426
  8
0
  6
CONTINUOUS
 62
     7
 10
1958.04509233037
 20
-1440.16952819825
 30
0.0
 11
1968.84509233037
 21
-1440.16952819825
 31
0.0
  0
ARC
  5
   427
  8
0
  6
CONTINUOUS
 62
     7
 10
2051.94497608948
 20
-1390.46954040528
 30
0.0
 40
0.3
 50
360.000008586743
 51
449.999999844103
  0
ARC
  5
   428
  8
0
  6
CONTINUOUS
 62
     7
 10
2051.94498286438
 20
-1434.86954040527
 30
0.0
 40
0.3
 50
269.999999844103
 51
360.000008586743
  0
ARC
  5
   429
  8
0
  6
CONTINUOUS
 62
     7
 10
1949.54500660705
 20
-1390.46954040528
 30
0.0
 40
0.3
 50
449.999999844103
 51
540.000008586744
  0
ARC
  5
   42A
  8
0
  6
CONTINUOUS
 62
     7
 10
1949.54501338195
 20
-1434.86954040527
 30
0.0
 40
0.3
 50
540.000008586744
 51
629.999999844103
  0
CIRCLE
  5
   42B
  8
0
  6
CONTINUOUS
 62
     7
 10
1975.74509233037
 20
-1450.66952305855
 30
0.0
 40
1.75
  0
CIRCLE
  5
   42C
  8
0
  6
CONTINUOUS
 62
     7
 10
2000.74497423527
 20
-1350.66950502917
 30
0.0
 40
4.25
  0
CIRCLE
  5
   42D
  8
0
  6
CONTINUOUS
 62
     7
 10
2025.74524491971
 20
-1450.66961039599
 30
0.0
 40
4.25
  0
CIRCLE
  5
   42E
  8
0
  6
CONTINUOUS
 62
     7
 10
1975.74497423527
 20
-1350.66950502917
 30
0.0
 40
3.25
  0
CIRCLE
  5
   42F
  8
0
  6
CONTINUOUS
 62
     7
 10
2025.74500643648
 20
-1350.66956109191
 30
0.0
 40
3.25
  0
CIRCLE
  5
   430
  8
0
  6
CONTINUOUS
 62
     7
 10
2000.74509233037
 20
-1450.66952305855
 30
0.0
 40
3.25
  0
LINE
  5
   431
  8
0
  6
CONTINUOUS
 62
     7
 10
1973.24496741643
 20
-1344.46954345705
 30
0.0
 11
1978.24497423528
 21
-1344.46954345705
 31
0.0
  0
LINE
  5
   432
  8
0
  6
CONTINUOUS
 62
     7
 10
1998.24496741643
 20
-1344.46954345705
 30
0.0
 11
2003.24497423527
 21
-1344.46954345705
 31
0.0
  0
LINE
  5
   433
  8
0
  6
CONTINUOUS
 62
     7
 10
2023.24496741642
 20
-1344.46954345705
 30
0.0
 11
2028.24497423527
 21
-1344.46954345705
 31
0.0
  0
LINE
  5
   434
  8
0
  6
CONTINUOUS
 62
     7
 10
1949.24501342774
 20
-1435.16951293946
 30
0.0
 11
1992.11258121274
 21
-1435.16951293946
 31
0.0
  0
LINE
  5
   435
  8
0
  6
CONTINUOUS
 62
     7
 10
2050.74499530029
 20
-1435.16951293946
 30
0.0
 11
2051.94498286437
 21
-1435.16951293946
 31
0.0
  0
LINE
  5
   436
  8
0
  6
CONTINUOUS
 62
     7
 10
2033.24499614411
 20
-1440.16952819825
 30
0.0
 11
2043.24499614411
 21
-1440.16952819825
 31
0.0
  0
LINE
  5
   437
  8
0
  6
CONTINUOUS
 62
     7
 10
2043.24499614412
 20
-1440.16955566406
 30
0.0
 11
2043.24499614412
 21
-1444.66955566406
 31
0.0
  0
LINE
  5
   438
  8
0
  6
CONTINUOUS
 62
     7
 10
2033.24499614412
 20
-1440.16955566406
 30
0.0
 11
2033.24499614412
 21
-1444.66955566406
 31
0.0
  0
LINE
  5
   439
  8
0
  6
CONTINUOUS
 62
     7
 10
1974.24509233037
 20
-1356.66958618164
 30
0.0
 11
1974.24509233037
 21
-1444.66955566406
 31
0.0
  0
LINE
  5
   43A
  8
0
  6
CONTINUOUS
 62
     7
 10
1972.94509233037
 20
-1356.66958618164
 30
0.0
 11
1972.94509233037
 21
-1444.66955566406
 31
0.0
  0
LINE
  5
   43B
  8
0
  6
CONTINUOUS
 62
     7
 10
1972.44509233037
 20
-1356.66958618164
 30
0.0
 11
1972.44509233037
 21
-1444.66955566406
 31
0.0
  0
LINE
  5
   43C
  8
0
  6
CONTINUOUS
 62
     7
 10
1971.14509233037
 20
-1356.66958618164
 30
0.0
 11
1971.14509233037
 21
-1444.66955566406
 31
0.0
  0
LINE
  5
   43D
  8
0
  6
CONTINUOUS
 62
     7
 10
1970.64509233037
 20
-1356.66958618164
 30
0.0
 11
1970.64509233037
 21
-1444.66955566406
 31
0.0
  0
LINE
  5
   43E
  8
0
  6
CONTINUOUS
 62
     7
 10
1969.34509233037
 20
-1356.66958618164
 30
0.0
 11
1969.34509233037
 21
-1394.06952514649
 31
0.0
  0
LINE
  5
   43F
  8
0
  6
CONTINUOUS
 62
     7
 10
1968.84509233037
 20
-1356.66958618164
 30
0.0
 11
1968.84509233037
 21
-1394.06952514649
 31
0.0
  0
LINE
  5
   440
  8
0
  6
CONTINUOUS
 62
     7
 10
1967.54509233037
 20
-1356.66958618164
 30
0.0
 11
1967.54509233037
 21
-1394.06952514649
 31
0.0
  0
LINE
  5
   441
  8
0
  6
CONTINUOUS
 62
     7
 10
1967.04509233037
 20
-1356.66958618164
 30
0.0
 11
1967.04509233037
 21
-1394.06952514649
 31
0.0
  0
LINE
  5
   442
  8
0
  6
CONTINUOUS
 62
     7
 10
1965.74509233037
 20
-1356.66958618164
 30
0.0
 11
1965.74509233037
 21
-1394.06952514649
 31
0.0
  0
LINE
  5
   443
  8
0
  6
CONTINUOUS
 62
     7
 10
1965.24509233037
 20
-1356.66958618164
 30
0.0
 11
1965.24509233037
 21
-1394.06952514649
 31
0.0
  0
LINE
  5
   444
  8
0
  6
CONTINUOUS
 62
     7
 10
1963.94509233037
 20
-1356.66958618164
 30
0.0
 11
1963.94509233037
 21
-1394.06952514649
 31
0.0
  0
LINE
  5
   445
  8
0
  6
CONTINUOUS
 62
     7
 10
1963.44509233037
 20
-1356.66958618164
 30
0.0
 11
1963.44509233037
 21
-1394.06952514649
 31
0.0
  0
LINE
  5
   446
  8
0
  6
CONTINUOUS
 62
     7
 10
1962.14509233037
 20
-1356.66958618164
 30
0.0
 11
1962.14509233037
 21
-1394.06952514649
 31
0.0
  0
LINE
  5
   447
  8
0
  6
CONTINUOUS
 62
     7
 10
1961.64509233037
 20
-1356.66958618164
 30
0.0
 11
1961.64509233037
 21
-1394.06952514649
 31
0.0
  0
LINE
  5
   448
  8
0
  6
CONTINUOUS
 62
     7
 10
1960.34509233037
 20
-1356.66958618164
 30
0.0
 11
1960.34509233037
 21
-1394.06952514649
 31
0.0
  0
LINE
  5
   449
  8
0
  6
CONTINUOUS
 62
     7
 10
1959.84509233037
 20
-1356.66958618164
 30
0.0
 11
1959.84509233037
 21
-1394.06952514649
 31
0.0
  0
LINE
  5
   44A
  8
0
  6
CONTINUOUS
 62
     7
 10
1958.54509233037
 20
-1356.66958618164
 30
0.0
 11
1958.54509233037
 21
-1394.06952514649
 31
0.0
  0
LINE
  5
   44B
  8
0
  6
CONTINUOUS
 62
     7
 10
1958.04509233037
 20
-1356.66958618164
 30
0.0
 11
1958.04509233037
 21
-1394.06952514649
 31
0.0
  0
LINE
  5
   44C
  8
0
  6
CONTINUOUS
 62
     7
 10
1956.74509233037
 20
-1356.66958618164
 30
0.0
 11
1956.74509233037
 21
-1444.66955566406
 31
0.0
  0
LINE
  5
   44D
  8
0
  6
CONTINUOUS
 62
     7
 10
1956.24509233037
 20
-1356.66958618164
 30
0.0
 11
1956.24509233037
 21
-1444.66955566406
 31
0.0
  0
LINE
  5
   44E
  8
0
  6
CONTINUOUS
 62
     7
 10
1954.94509233037
 20
-1356.66958618164
 30
0.0
 11
1954.94509233037
 21
-1444.66955566406
 31
0.0
  0
LINE
  5
   44F
  8
0
  6
CONTINUOUS
 62
     7
 10
1954.44509233037
 20
-1356.66958618164
 30
0.0
 11
1954.44509233037
 21
-1444.66955566406
 31
0.0
  0
LINE
  5
   450
  8
0
  6
CONTINUOUS
 62
     7
 10
1953.14509233037
 20
-1356.66958618164
 30
0.0
 11
1953.14509233037
 21
-1444.66955566406
 31
0.0
  0
LINE
  5
   451
  8
0
  6
CONTINUOUS
 62
     7
 10
1952.64509233037
 20
-1356.66958618164
 30
0.0
 11
1952.64509233037
 21
-1444.66955566406
 31
0.0
  0
LINE
  5
   452
  8
0
  6
CONTINUOUS
 62
     7
 10
1951.34509233037
 20
-1356.66958618164
 30
0.0
 11
1951.34509233037
 21
-1444.66955566406
 31
0.0
  0
LINE
  5
   453
  8
0
  6
CONTINUOUS
 62
     7
 10
1950.84509233037
 20
-1356.66958618164
 30
0.0
 11
1950.84509233037
 21
-1444.66955566406
 31
0.0
  0
LINE
  5
   454
  8
0
  6
DASHDOT
 62
     7
 10
2025.74500643648
 20
-1346.41956109191
 30
0.0
 11
2025.74500643648
 21
-1354.91956109191
 31
0.0
  0
LINE
  5
   455
  8
0
  6
DASHDOT
 62
     7
 10
2021.49500643648
 20
-1350.66953362611
 30
0.0
 11
2029.99500643647
 21
-1350.66953362611
 31
0.0
  0
LINE
  5
   456
  8
0
  6
DASHDOT
 62
     7
 10
1975.74497423527
 20
-1346.41950502917
 30
0.0
 11
1975.74497423527
 21
-1354.91950502917
 31
0.0
  0
LINE
  5
   457
  8
0
  6
DASHDOT
 62
     7
 10
1971.49497423528
 20
-1350.66947756337
 30
0.0
 11
1979.99497423527
 21
-1350.66947756337
 31
0.0
  0
CIRCLE
  5
   458
  8
0
  6
CONTINUOUS
 62
     7
 10
1963.24499614412
 20
-1343.66957092285
 30
0.0
 40
1.25
  0
CIRCLE
  5
   459
  8
0
  6
CONTINUOUS
 62
     7
 10
1988.24499614412
 20
-1343.66957092285
 30
0.0
 40
1.25
  0
CIRCLE
  5
   45A
  8
0
  6
CONTINUOUS
 62
     7
 10
2013.24499614412
 20
-1343.66957092285
 30
0.0
 40
1.25
  0
CIRCLE
  5
   45B
  8
0
  6
CONTINUOUS
 62
     7
 10
2038.24499614412
 20
-1343.66957092285
 30
0.0
 40
1.25
  0
LINE
  5
   45C
  8
0
  6
DASHDOT
 62
     7
 10
2038.24499614412
 20
-1341.41957092285
 30
0.0
 11
2038.24499614412
 21
-1345.91957092285
 31
0.0
  0
LINE
  5
   45D
  8
0
  6
DASHDOT
 62
     7
 10
2035.99499614411
 20
-1343.66954345705
 30
0.0
 11
2040.49499614411
 21
-1343.66954345705
 31
0.0
  0
LINE
  5
   45E
  8
0
  6
DASHDOT
 62
     7
 10
2013.24499614412
 20
-1341.41957092285
 30
0.0
 11
2013.24499614412
 21
-1345.91957092285
 31
0.0
  0
LINE
  5
   45F
  8
0
  6
DASHDOT
 62
     7
 10
2010.99499614412
 20
-1343.66954345705
 30
0.0
 11
2015.49499614412
 21
-1343.66954345705
 31
0.0
  0
LINE
  5
   460
  8
0
  6
DASHDOT
 62
     7
 10
1988.24499614412
 20
-1341.41957092285
 30
0.0
 11
1988.24499614412
 21
-1345.91957092285
 31
0.0
  0
LINE
  5
   461
  8
0
  6
DASHDOT
 62
     7
 10
1985.99499614412
 20
-1343.66954345705
 30
0.0
 11
1990.49499614412
 21
-1343.66954345705
 31
0.0
  0
LINE
  5
   462
  8
0
  6
DASHDOT
 62
     7
 10
1963.24499614412
 20
-1341.41957092285
 30
0.0
 11
1963.24499614412
 21
-1345.91957092285
 31
0.0
  0
LINE
  5
   463
  8
0
  6
DASHDOT
 62
     7
 10
1960.99499614412
 20
-1343.66954345705
 30
0.0
 11
1965.49499614412
 21
-1343.66954345705
 31
0.0
  0
INSERT
  5
   464
  8
0
  6
CONTINUOUS
 62
     7
  2
$3SSS
 10
2000.74509233037
 20
-1350.66950502917
 30
0.0
 41
01.0
 42
01.0
 50
359.999999792138
 43
01.0
  0
ARC
  5
   465
  8
0
  6
CONTINUOUS
 62
     7
 10
1961.74499563065
 20
-1449.16954091874
 30
0.0
 40
56.4999994865345
 50
551.744050243174
 51
623.393823108961
  0
ARC
  5
   466
  8
0
  6
CONTINUOUS
 62
     7
 10
1961.74499563065
 20
-1449.16954091874
 30
0.0
 40
46.4999994865345
 50
554.318515598352
 51
619.968268955592
  0
ARC
  5
   467
  8
0
  6
CONTINUOUS
 62
     7
 10
1936.74499563065
 20
-1449.16954091874
 30
0.0
 40
56.4999994865345
 50
551.744050243174
 51
642.781812166352
  0
ARC
  5
   468
  8
0
  6
CONTINUOUS
 62
     7
 10
1936.74499563065
 20
-1449.16954091874
 30
0.0
 40
46.4999994865345
 50
554.318515598352
 51
619.968268955592
  0
ARC
  5
   469
  8
0
  6
CONTINUOUS
 62
     7
 10
1911.74499563065
 20
-1449.16954091874
 30
0.0
 40
46.4999994865345
 50
554.318515598352
 51
619.968268955592
  0
ARC
  5
   46A
  8
0
  6
CONTINUOUS
 62
     7
 10
1911.74499563065
 20
-1449.16954091874
 30
0.0
 40
56.4999994865345
 50
551.744050243174
 51
642.781812166352
  0
ARC
  5
   46B
  8
0
  6
CONTINUOUS
 62
     7
 10
1911.74499563065
 20
-1449.16954091874
 30
0.0
 40
46.4999994865345
 50
285.593895761146
 51
288.428986083893
  0
ARC
  5
   46C
  8
0
  6
CONTINUOUS
 62
     7
 10
1911.74499563065
 20
-1449.16954091874
 30
0.0
 40
56.4999994865345
 50
308.665951073198
 51
311.583958330139
  0
ARC
  5
   46D
  8
0
  6
DOT
 62
     7
 10
1961.74499563065
 20
-1449.16954091874
 30
0.0
 40
56.4999994865345
 50
305.862404364921
 51
307.634309001075
  0
ARC
  5
   46E
  8
0
  6
CONTINUOUS
 62
     7
 10
1961.74499563065
 20
-1449.16954091874
 30
0.0
 40
46.4999994865345
 50
285.593895761146
 51
293.443807456246
  0
ARC
  5
   46F
  8
0
  6
CONTINUOUS
 62
     7
 10
1936.74499563065
 20
-1449.16954091874
 30
0.0
 40
56.4999994865345
 50
308.665951073198
 51
320.345943981442
  0
ARC
  5
   470
  8
0
  6
DOT
 62
     7
 10
1936.74499563065
 20
-1449.16954091874
 30
0.0
 40
46.4999994865345
 50
302.522747772927
 51
317.896552617097
  0
ARC
  5
   471
  8
0
  6
DOT
 62
     7
 10
1911.74499563065
 20
-1449.16954091874
 30
0.0
 40
56.4999994865345
 50
321.743874752893
 51
348.25596524958
  0
ARC
  5
   472
  8
0
  6
CONTINUOUS
 62
     7
 10
1911.74499563065
 20
-1449.16954091874
 30
0.0
 40
46.4999994865345
 50
302.522747772927
 51
311.206999138036
  0
ARC
  5
   473
  8
0
  6
CONTINUOUS
 62
     7
 10
1986.74499563065
 20
-1449.16954091874
 30
0.0
 40
46.4999994865345
 50
554.318515598352
 51
587.35769014161
  0
ARC
  5
   474
  8
0
  6
CONTINUOUS
 62
     7
 10
1986.74499563065
 20
-1449.16954091874
 30
0.0
 40
56.4999994865345
 50
551.744050243174
 51
596.115391401608
  0
ARC
  5
   475
  8
0
  6
CONTINUOUS
 62
     7
 10
1986.74499563065
 20
-1449.16954091874
 30
0.0
 40
56.4999994865345
 50
588.416041358068
 51
591.334048615009
  0
ARC
  5
   476
  8
0
  6
CONTINUOUS
 62
     7
 10
1911.74499563065
 20
-1449.16954091874
 30
0.0
 40
46.4999994865345
 50
323.750679824086
 51
339.306462078224
  0
LINE
  5
   477
  8
0
  6
CONTINUOUS
 62
     7
 10
2007.24499511719
 20
-1415.16955566406
 30
0.0
 11
2007.24499511719
 21
-1415.16955566406
 31
0.0
  0
LINE
  5
   478
  8
0
  6
CONTINUOUS
 62
     7
 10
2007.24499511719
 20
-1415.16955566406
 30
0.0
 11
2007.24499511719
 21
-1415.16955566406
 31
0.0
  0
LINE
  5
   479
  8
0
  6
CONTINUOUS
 62
     7
 10
2007.24499511719
 20
-1415.16955566406
 30
0.0
 11
2007.24499511719
 21
-1415.16955566406
 31
0.0
  0
LINE
  5
   47A
  8
0
  6
CONTINUOUS
 62
     7
 10
2007.24499511719
 20
-1415.16955566406
 30
0.0
 11
2007.24499511719
 21
-1415.16955566406
 31
0.0
  0
LINE
  5
   47B
  8
0
  6
CONTINUOUS
 62
     7
 10
2007.24499511719
 20
-1415.16955566406
 30
0.0
 11
2007.24499511719
 21
-1415.16955566406
 31
0.0
  0
LINE
  5
   47C
  8
0
  6
CONTINUOUS
 62
     7
 10
2007.24499511719
 20
-1415.16955566406
 30
0.0
 11
2007.24499511719
 21
-1415.16955566406
 31
0.0
  0
LINE
  5
   47D
  8
0
  6
CONTINUOUS
 62
     7
 10
2007.24499511719
 20
-1415.16955566406
 30
0.0
 11
2007.24499511719
 21
-1415.16955566406
 31
0.0
  0
LINE
  5
   47E
  8
0
  6
CONTINUOUS
 62
     7
 10
2007.24499511719
 20
-1415.16955566406
 30
0.0
 11
2007.24499511719
 21
-1415.16955566406
 31
0.0
  0
LINE
  5
   47F
  8
0
  6
CONTINUOUS
 62
     7
 10
1899.24498081207
 20
-1460.66954040527
 30
0.0
 11
1912.74498088533
 21
-1460.66954040527
 31
0.0
  0
LINE
  5
   480
  8
0
  6
CONTINUOUS
 62
     7
 10
1874.24495173801
 20
-1460.66954040527
 30
0.0
 11
1896.24495173801
 21
-1460.66954040527
 31
0.0
  0
LINE
  5
   481
  8
0
  6
CONTINUOUS
 62
     7
 10
1874.24495173801
 20
-1340.66955566406
 30
0.0
 11
1896.24495173801
 21
-1340.66955566406
 31
0.0
  0
LINE
  5
   482
  8
0
  6
CONTINUOUS
 62
     7
 10
1899.2449798584
 20
-1340.66955566406
 30
0.0
 11
1912.74496532137
 21
-1340.66955566406
 31
0.0
  0
LINE
  5
   483
  8
0
  6
CONTINUOUS
 62
     7
 10
1846.24501502991
 20
-1345.66955232337
 30
0.0
 11
1846.24503181457
 21
-1455.66953706458
 31
0.0
  0
LINE
  5
   484
  8
0
  6
CONTINUOUS
 62
     7
 10
1846.24502868652
 20
-1435.16952514648
 30
0.0
 11
1910.24499816894
 21
-1435.16952514648
 31
0.0
  0
LINE
  5
   485
  8
0
  6
CONTINUOUS
 62
     7
 10
1900.24498081207
 20
-1457.16954040527
 30
0.0
 11
1900.24498081207
 21
-1458.66955566406
 31
0.0
  0
LINE
  5
   486
  8
0
  6
CONTINUOUS
 62
     7
 10
1899.24498081207
 20
-1459.41954040527
 30
0.0
 11
1899.24498081207
 21
-1460.66954040527
 31
0.0
  0
LINE
  5
   487
  8
0
  6
CONTINUOUS
 62
     7
 10
1896.24498081207
 20
-1459.41952514648
 30
0.0
 11
1896.24498081207
 21
-1460.66954040527
 31
0.0
  0
LINE
  5
   488
  8
0
  6
CONTINUOUS
 62
     7
 10
1895.24498081207
 20
-1457.16954040527
 30
0.0
 11
1895.24498081207
 21
-1458.66955566406
 31
0.0
  0
LINE
  5
   489
  8
0
  6
CONTINUOUS
 62
     7
 10
1895.2449798584
 20
-1342.91955566406
 30
0.0
 11
1895.2449798584
 21
-1344.16955566406
 31
0.0
  0
LINE
  5
   48A
  8
0
  6
CONTINUOUS
 62
     7
 10
1896.2449798584
 20
-1340.66955566406
 30
0.0
 11
1896.2449798584
 21
-1341.91955566406
 31
0.0
  0
LINE
  5
   48B
  8
0
  6
CONTINUOUS
 62
     7
 10
1899.2449798584
 20
-1340.66955566406
 30
0.0
 11
1899.2449798584
 21
-1341.91955566406
 31
0.0
  0
LINE
  5
   48C
  8
0
  6
CONTINUOUS
 62
     7
 10
1900.24498157499
 20
-1342.91956329339
 30
0.0
 11
1900.24498062131
 21
-1344.16956329339
 31
0.0
  0
LINE
  5
   48D
  8
0
  6
CONTINUOUS
 62
     7
 10
1908.9949798584
 20
-1340.66954040527
 30
0.0
 11
1911.49497890472
 21
-1340.66954040527
 31
0.0
  0
CIRCLE
  5
   48E
  8
0
  6
CONTINUOUS
 62
     7
 10
1897.74495897648
 20
-1350.66948977038
 30
0.0
 40
4.4999575073053
  0
LINE
  5
   48F
  8
0
  6
CONTINUOUS
 62
     7
 10
1846.24502182007
 20
-1390.16952514649
 30
0.0
 11
1910.24499130249
 21
-1390.16952514649
 31
0.0
  0
CIRCLE
  5
   490
  8
0
  6
CONTINUOUS
 62
     7
 10
1885.24498088533
 20
-1457.66954040527
 30
0.0
 40
1.25
  0
ARC
  5
   491
  8
0
  6
CONTINUOUS
 62
     7
 10
1910.24498088533
 20
-1457.66954040527
 30
0.0
 40
1.25
 50
449.999999844103
 51
629.999999844103
  0
ARC
  5
   492
  8
0
  6
CONTINUOUS
 62
     7
 10
1910.24496532137
 20
-1343.66955566406
 30
0.0
 40
1.25
 50
449.999999844103
 51
629.999999844103
  0
CIRCLE
  5
   493
  8
0
  6
CONTINUOUS
 62
     7
 10
1885.24500309295
 20
-1343.66956481933
 30
0.0
 40
1.25
  0
LINE
  5
   494
  8
0
  6
CONTINUOUS
 62
     7
 10
1902.74498017746
 20
-1398.53352170527
 30
0.0
 11
1916.88942572285
 21
-1398.53352170527
 31
0.0
  0
LINE
  5
   495
  8
0
  6
CONTINUOUS
 62
     7
 10
1899.24495173801
 20
-1340.66955566406
 30
0.0
 11
1899.24495173801
 21
-1342.66955566406
 31
0.0
  0
LINE
  5
   496
  8
0
  6
CONTINUOUS
 62
     7
 10
1896.24495173801
 20
-1340.66955566406
 30
0.0
 11
1896.24495173801
 21
-1342.66955566406
 31
0.0
  0
LINE
  5
   497
  8
0
  6
CONTINUOUS
 62
     7
 10
1895.24495078434
 20
-1342.66955566406
 30
0.0
 11
1895.24495192876
 21
-1344.16956710809
 31
0.0
  0
LINE
  5
   498
  8
0
  6
CONTINUOUS
 62
     7
 10
1900.24495173801
 20
-1342.66955566406
 30
0.0
 11
1900.24495173801
 21
-1344.16955566406
 31
0.0
  0
LINE
  5
   499
  8
0
  6
CONTINUOUS
 62
     7
 10
1899.24495173801
 20
-1342.66955566406
 30
0.0
 11
1900.24495173801
 21
-1342.66955566406
 31
0.0
  0
LINE
  5
   49A
  8
0
  6
CONTINUOUS
 62
     7
 10
1895.24495078434
 20
-1342.66955566406
 30
0.0
 11
1896.24495173801
 21
-1342.66955566406
 31
0.0
  0
LINE
  5
   49B
  8
0
  6
CONTINUOUS
 62
     7
 10
1896.24495173801
 20
-1458.66955566406
 30
0.0
 11
1896.24495173801
 21
-1460.66955566406
 31
0.0
  0
LINE
  5
   49C
  8
0
  6
CONTINUOUS
 62
     7
 10
1899.24495173801
 20
-1458.66955566406
 30
0.0
 11
1899.24495173801
 21
-1460.66955566406
 31
0.0
  0
LINE
  5
   49D
  8
0
  6
CONTINUOUS
 62
     7
 10
1895.24495078434
 20
-1458.66955566406
 30
0.0
 11
1896.24495173801
 21
-1458.66955566406
 31
0.0
  0
LINE
  5
   49E
  8
0
  6
CONTINUOUS
 62
     7
 10
1899.24495173801
 20
-1458.66955566406
 30
0.0
 11
1900.24495173801
 21
-1458.66955566406
 31
0.0
  0
LINE
  5
   49F
  8
0
  6
CONTINUOUS
 62
     7
 10
1902.74498010635
 20
-1396.66952514649
 30
0.0
 11
1902.74498113296
 21
-1423.58137594112
 31
0.0
  0
LINE
  5
   4A0
  8
0
  6
CONTINUOUS
 62
     7
 10
1902.74498113296
 20
-1423.58137594112
 30
0.0
 11
1903.74498113296
 21
-1423.58137594112
 31
0.0
  0
LINE
  5
   4A1
  8
0
  6
CONTINUOUS
 62
     7
 10
1902.74498111861
 20
-1423.20517245592
 30
0.0
 11
1903.74498111861
 21
-1423.20517245592
 31
0.0
  0
LINE
  5
   4A2
  8
0
  6
CONTINUOUS
 62
     7
 10
1871.2449671936
 20
-1398.16952514649
 30
0.0
 11
1902.74498016357
 21
-1398.16952514649
 31
0.0
  0
LINE
  5
   4A3
  8
0
  6
CONTINUOUS
 62
     7
 10
1871.24496253967
 20
-1428.66952514648
 30
0.0
 11
1884.64499740601
 21
-1428.66952514648
 31
0.0
  0
LINE
  5
   4A4
  8
0
  6
CONTINUOUS
 62
     7
 10
1871.24496276856
 20
-1427.16952514648
 30
0.0
 11
1903.74498126984
 21
-1427.16952514648
 31
0.0
  0
LINE
  5
   4A5
  8
0
  6
CONTINUOUS
 62
     7
 10
1894.64499740601
 20
-1428.66952514648
 30
0.0
 11
1949.24496253967
 21
-1428.66952514648
 31
0.0
  0
LINE
  5
   4A6
  8
0
  6
CONTINUOUS
 62
     7
 10
1903.74498093489
 20
-1418.38918089092
 30
0.0
 11
1903.74498125582
 21
-1426.80219208719
 31
0.0
  0
LINE
  5
   4A7
  8
0
  6
CONTINUOUS
 62
     7
 10
2007.24499511719
 20
-1415.16955566406
 30
0.0
 11
2007.24499511719
 21
-1415.16955566406
 31
0.0
  0
LINE
  5
   4A8
  8
0
  6
CONTINUOUS
 62
     7
 10
2007.24499511719
 20
-1415.16955566406
 30
0.0
 11
2007.24499511719
 21
-1415.16955566406
 31
0.0
  0
LINE
  5
   4A9
  8
0
  6
CONTINUOUS
 62
     7
 10
2007.24499511719
 20
-1415.16955566406
 30
0.0
 11
2007.24499511719
 21
-1415.16955566406
 31
0.0
  0
LINE
  5
   4AA
  8
0
  6
CONTINUOUS
 62
     7
 10
2007.24499511719
 20
-1415.16955566406
 30
0.0
 11
2007.24499511719
 21
-1415.16955566406
 31
0.0
  0
CIRCLE
  5
   4AB
  8
0
  6
CONTINUOUS
 62
     7
 10
1910.24496532137
 20
-1349.46954729082
 30
0.0
 40
3.0
  0
CIRCLE
  5
   4AC
  8
0
  6
CONTINUOUS
 62
     7
 10
1910.24496532137
 20
-1451.8695640373
 30
0.0
 40
3.0
  0
LINE
  5
   4AD
  8
0
  6
CONTINUOUS
 62
     7
 10
2007.24499511719
 20
-1415.16955566406
 30
0.0
 11
2007.24499511719
 21
-1415.16955566406
 31
0.0
  0
LINE
  5
   4AE
  8
0
  6
CONTINUOUS
 62
     7
 10
2007.24499511719
 20
-1415.16955566406
 30
0.0
 11
2007.24499511719
 21
-1415.16955566406
 31
0.0
  0
LINE
  5
   4AF
  8
0
  6
CONTINUOUS
 62
     7
 10
2007.24499511719
 20
-1415.16955566406
 30
0.0
 11
2007.24499511719
 21
-1415.16955566406
 31
0.0
  0
LINE
  5
   4B0
  8
0
  6
CONTINUOUS
 62
     7
 10
1847.24498596192
 20
-1446.169536912
 30
0.0
 11
1910.24500179291
 21
-1446.169536912
 31
0.0
  0
ARC
  5
   4B1
  8
0
  6
CONTINUOUS
 62
     7
 10
1849.74498390198
 20
-1341.66955217079
 30
0.0
 40
1.0
 50
449.999999844103
 51
540.000008586744
  0
ARC
  5
   4B2
  8
0
  6
CONTINUOUS
 62
     7
 10
1849.74498390198
 20
-1459.66955217079
 30
0.0
 40
1.0
 50
539.999991101463
 51
629.999999844103
  0
LINE
  5
   4B3
  8
0
  6
CONTINUOUS
 62
     7
 10
1848.74498596192
 20
-1446.169536912
 30
0.0
 11
1848.74498435975
 21
-1456.669536912
 31
0.0
  0
LINE
  5
   4B4
  8
0
  6
CONTINUOUS
 62
     7
 10
1846.24503013611
 20
-1444.669536912
 30
0.0
 11
1910.24498088533
 21
-1444.669536912
 31
0.0
  0
LINE
  5
   4B5
  8
0
  6
CONTINUOUS
 62
     7
 10
1847.2449861908
 20
-1444.669536912
 30
0.0
 11
1847.24498596192
 21
-1446.169536912
 31
0.0
  0
LINE
  5
   4B6
  8
0
  6
CONTINUOUS
 62
     7
 10
1847.24498596192
 20
-1355.16956742958
 30
0.0
 11
1847.2449861908
 21
-1356.66956742958
 31
0.0
  0
LINE
  5
   4B7
  8
0
  6
CONTINUOUS
 62
     7
 10
1847.24498596192
 20
-1355.16956742958
 30
0.0
 11
1910.24496532137
 21
-1355.16956742958
 31
0.0
  0
LINE
  5
   4B8
  8
0
  6
CONTINUOUS
 62
     7
 10
1846.24501670838
 20
-1356.66956742958
 30
0.0
 11
1910.24499511719
 21
-1356.66956742958
 31
0.0
  0
LINE
  5
   4B9
  8
0
  6
CONTINUOUS
 62
     7
 10
1848.74498390198
 20
-1341.66955232338
 30
0.0
 11
1848.74498435975
 21
-1344.66955217079
 31
0.0
  0
LINE
  5
   4BA
  8
0
  6
CONTINUOUS
 62
     7
 10
1847.24498451233
 20
-1344.66955217079
 30
0.0
 11
1848.74498435975
 21
-1344.66955217079
 31
0.0
  0
LINE
  5
   4BB
  8
0
  6
CONTINUOUS
 62
     7
 10
1847.245001297
 20
-1456.669536912
 30
0.0
 11
1848.74498435975
 21
-1456.669536912
 31
0.0
  0
ARC
  5
   4BC
  8
0
  6
CONTINUOUS
 62
     7
 10
1847.24498451233
 20
-1345.66955217079
 30
0.0
 40
1.0
 50
449.999999844103
 51
540.000008586744
  0
ARC
  5
   4BD
  8
0
  6
CONTINUOUS
 62
     7
 10
1847.245001297
 20
-1455.669536912
 30
0.0
 40
1.0
 50
540.000008586743
 51
629.999999844103
  0
CIRCLE
  5
   4BE
  8
0
  6
CONTINUOUS
 62
     7
 10
1885.24496532137
 20
-1349.46954729082
 30
0.0
 40
3.0
  0
CIRCLE
  5
   4BF
  8
0
  6
CONTINUOUS
 62
     7
 10
1885.24496532137
 20
-1451.8695640373
 30
0.0
 40
3.0
  0
LINE
  5
   4C0
  8
0
  6
CONTINUOUS
 62
     7
 10
2007.24499511719
 20
-1415.16955566406
 30
0.0
 11
2007.24499511719
 21
-1415.16955566406
 31
0.0
  0
LINE
  5
   4C1
  8
0
  6
CONTINUOUS
 62
     7
 10
2007.24499511719
 20
-1415.16955566406
 30
0.0
 11
2007.24499511719
 21
-1415.16955566406
 31
0.0
  0
LINE
  5
   4C2
  8
0
  6
CONTINUOUS
 62
     7
 10
2007.24499511719
 20
-1415.16955566406
 30
0.0
 11
2007.24499511719
 21
-1415.16955566406
 31
0.0
  0
LINE
  5
   4C3
  8
0
  6
CONTINUOUS
 62
     7
 10
2007.24499511719
 20
-1415.16955566406
 30
0.0
 11
2007.24499511719
 21
-1415.16955566406
 31
0.0
  0
LINE
  5
   4C4
  8
0
  6
CONTINUOUS
 62
     7
 10
2007.24499511719
 20
-1415.16955566406
 30
0.0
 11
2007.24499511719
 21
-1415.16955566406
 31
0.0
  0
LINE
  5
   4C5
  8
0
  6
CONTINUOUS
 62
     7
 10
2007.24499511719
 20
-1415.16955566406
 30
0.0
 11
2007.24499511719
 21
-1415.16955566406
 31
0.0
  0
LINE
  5
   4C6
  8
0
  6
CONTINUOUS
 62
     7
 10
2007.24499511719
 20
-1415.16955566406
 30
0.0
 11
2007.24499511719
 21
-1415.16955566406
 31
0.0
  0
LINE
  5
   4C7
  8
0
  6
CONTINUOUS
 62
     7
 10
2007.24499511719
 20
-1415.16955566406
 30
0.0
 11
2007.24499511719
 21
-1415.16955566406
 31
0.0
  0
LINE
  5
   4C8
  8
0
  6
CONTINUOUS
 62
     7
 10
1907.74500934905
 20
-1460.66954040527
 30
0.0
 11
1921.2450094223
 21
-1460.66954040527
 31
0.0
  0
LINE
  5
   4C9
  8
0
  6
CONTINUOUS
 62
     7
 10
1924.2450094223
 20
-1460.66954040527
 30
0.0
 11
1974.24503849637
 21
-1460.66954040527
 31
0.0
  0
LINE
  5
   4CA
  8
0
  6
CONTINUOUS
 62
     7
 10
1907.74502491301
 20
-1340.66955566406
 30
0.0
 11
1921.24501037598
 21
-1340.66955566406
 31
0.0
  0
LINE
  5
   4CB
  8
0
  6
CONTINUOUS
 62
     7
 10
1949.24497520446
 20
-1345.66955232337
 30
0.0
 11
1949.2449584198
 21
-1455.66953706458
 31
0.0
  0
LINE
  5
   4CC
  8
0
  6
CONTINUOUS
 62
     7
 10
1920.2450094223
 20
-1457.16954040527
 30
0.0
 11
1920.2450094223
 21
-1458.66955566406
 31
0.0
  0
LINE
  5
   4CD
  8
0
  6
CONTINUOUS
 62
     7
 10
1921.2450094223
 20
-1459.41954040527
 30
0.0
 11
1921.2450094223
 21
-1460.66954040527
 31
0.0
  0
LINE
  5
   4CE
  8
0
  6
CONTINUOUS
 62
     7
 10
1924.2450094223
 20
-1459.41952514648
 30
0.0
 11
1924.2450094223
 21
-1460.66954040527
 31
0.0
  0
LINE
  5
   4CF
  8
0
  6
CONTINUOUS
 62
     7
 10
1925.2450094223
 20
-1457.16954040527
 30
0.0
 11
1925.2450094223
 21
-1458.66955566406
 31
0.0
  0
LINE
  5
   4D0
  8
0
  6
CONTINUOUS
 62
     7
 10
1925.24501037598
 20
-1342.91955566406
 30
0.0
 11
1925.24501037598
 21
-1344.16955566406
 31
0.0
  0
LINE
  5
   4D1
  8
0
  6
CONTINUOUS
 62
     7
 10
1924.24501037598
 20
-1340.66955566406
 30
0.0
 11
1924.24501037598
 21
-1341.91955566406
 31
0.0
  0
LINE
  5
   4D2
  8
0
  6
CONTINUOUS
 62
     7
 10
1921.24501037598
 20
-1340.66955566406
 30
0.0
 11
1921.24501037598
 21
-1341.91955566406
 31
0.0
  0
LINE
  5
   4D3
  8
0
  6
CONTINUOUS
 62
     7
 10
1920.24500865938
 20
-1342.91956329339
 30
0.0
 11
1920.24500961306
 21
-1344.16956329339
 31
0.0
  0
LINE
  5
   4D4
  8
0
  6
CONTINUOUS
 62
     7
 10
1908.99501132965
 20
-1340.66954040527
 30
0.0
 11
1911.49501037598
 21
-1340.66954040527
 31
0.0
  0
CIRCLE
  5
   4D5
  8
0
  6
CONTINUOUS
 62
     7
 10
1922.74503125789
 20
-1350.66948977038
 30
0.0
 40
4.4999575073053
  0
CIRCLE
  5
   4D6
  8
0
  6
CONTINUOUS
 62
     7
 10
1935.24500934905
 20
-1457.66954040527
 30
0.0
 40
1.25
  0
ARC
  5
   4D7
  8
0
  6
CONTINUOUS
 62
     7
 10
1910.24500934905
 20
-1457.66954040527
 30
0.0
 40
1.25
 50
269.999999844103
 51
449.999999844104
  0
ARC
  5
   4D8
  8
0
  6
CONTINUOUS
 62
     7
 10
1910.24502491301
 20
-1343.66955566406
 30
0.0
 40
1.25
 50
269.999999844103
 51
449.999999844103
  0
CIRCLE
  5
   4D9
  8
0
  6
CONTINUOUS
 62
     7
 10
1935.24498714142
 20
-1343.66956481933
 30
0.0
 40
1.25
  0
LINE
  5
   4DA
  8
0
  6
CONTINUOUS
 62
     7
 10
1916.74501005691
 20
-1398.53352170527
 30
0.0
 11
1917.74501005692
 21
-1398.53352170527
 31
0.0
  0
LINE
  5
   4DB
  8
0
  6
CONTINUOUS
 62
     7
 10
1921.24503849637
 20
-1340.66955566406
 30
0.0
 11
1921.24503849637
 21
-1342.66955566406
 31
0.0
  0
LINE
  5
   4DC
  8
0
  6
CONTINUOUS
 62
     7
 10
1924.24503849637
 20
-1340.66955566406
 30
0.0
 11
1924.24503849637
 21
-1342.66955566406
 31
0.0
  0
LINE
  5
   4DD
  8
0
  6
CONTINUOUS
 62
     7
 10
1925.24503945003
 20
-1342.66955566406
 30
0.0
 11
1925.24503830561
 21
-1344.16956710809
 31
0.0
  0
LINE
  5
   4DE
  8
0
  6
CONTINUOUS
 62
     7
 10
1920.24503849637
 20
-1342.66955566406
 30
0.0
 11
1920.24503849637
 21
-1344.16955566406
 31
0.0
  0
LINE
  5
   4DF
  8
0
  6
CONTINUOUS
 62
     7
 10
1920.24503849637
 20
-1342.66955566406
 30
0.0
 11
1921.24503849637
 21
-1342.66955566406
 31
0.0
  0
LINE
  5
   4E0
  8
0
  6
CONTINUOUS
 62
     7
 10
1924.24503849637
 20
-1342.66955566406
 30
0.0
 11
1925.24503945003
 21
-1342.66955566406
 31
0.0
  0
LINE
  5
   4E1
  8
0
  6
CONTINUOUS
 62
     7
 10
1924.24503849637
 20
-1458.66955566406
 30
0.0
 11
1924.24503849637
 21
-1460.66955566406
 31
0.0
  0
LINE
  5
   4E2
  8
0
  6
CONTINUOUS
 62
     7
 10
1921.24503849637
 20
-1458.66955566406
 30
0.0
 11
1921.24503849637
 21
-1460.66955566406
 31
0.0
  0
LINE
  5
   4E3
  8
0
  6
CONTINUOUS
 62
     7
 10
1924.24503849637
 20
-1458.66955566406
 30
0.0
 11
1925.24503945003
 21
-1458.66955566406
 31
0.0
  0
LINE
  5
   4E4
  8
0
  6
CONTINUOUS
 62
     7
 10
1920.24503849637
 20
-1458.66955566406
 30
0.0
 11
1921.24503849637
 21
-1458.66955566406
 31
0.0
  0
LINE
  5
   4E5
  8
0
  6
CONTINUOUS
 62
     7
 10
1917.74501012802
 20
-1396.66952514649
 30
0.0
 11
1917.74500910141
 21
-1423.58137594112
 31
0.0
  0
LINE
  5
   4E6
  8
0
  6
CONTINUOUS
 62
     7
 10
1916.74500910141
 20
-1423.58137594112
 30
0.0
 11
1917.74500910141
 21
-1423.58137594112
 31
0.0
  0
LINE
  5
   4E7
  8
0
  6
CONTINUOUS
 62
     7
 10
1916.74500911577
 20
-1423.20517245592
 30
0.0
 11
1917.74500911577
 21
-1423.20517245592
 31
0.0
  0
LINE
  5
   4E8
  8
0
  6
CONTINUOUS
 62
     7
 10
1871.24496742249
 20
-1396.66952514649
 30
0.0
 11
1949.24496742249
 21
-1396.66952514649
 31
0.0
  0
LINE
  5
   4E9
  8
0
  6
CONTINUOUS
 62
     7
 10
1917.7450100708
 20
-1398.16952514649
 30
0.0
 11
1949.2449671936
 21
-1398.16952514649
 31
0.0
  0
LINE
  5
   4EA
  8
0
  6
CONTINUOUS
 62
     7
 10
1916.74500929948
 20
-1418.38918089092
 30
0.0
 11
1916.74500897855
 21
-1426.80219208719
 31
0.0
  0
CIRCLE
  5
   4EB
  8
0
  6
CONTINUOUS
 62
     7
 10
1910.24502491301
 20
-1349.46954729082
 30
0.0
 40
3.0
  0
LINE
  5
   4EC
  8
0
  6
CONTINUOUS
 62
     7
 10
1910.24498844147
 20
-1446.169536912
 30
0.0
 11
1948.24500427245
 21
-1446.169536912
 31
0.0
  0
ARC
  5
   4ED
  8
0
  6
CONTINUOUS
 62
     7
 10
1945.74500633239
 20
-1341.66955217079
 30
0.0
 40
1.0
 50
359.999991101463
 51
449.999999844103
  0
ARC
  5
   4EE
  8
0
  6
CONTINUOUS
 62
     7
 10
1945.74500633239
 20
-1459.66955217079
 30
0.0
 40
1.0
 50
269.999999844103
 51
360.000008586744
  0
LINE
  5
   4EF
  8
0
  6
CONTINUOUS
 62
     7
 10
1946.74500427245
 20
-1446.169536912
 30
0.0
 11
1946.74500587463
 21
-1456.669536912
 31
0.0
  0
LINE
  5
   4F0
  8
0
  6
CONTINUOUS
 62
     7
 10
1910.24500934905
 20
-1444.669536912
 30
0.0
 11
1949.24496009827
 21
-1444.669536912
 31
0.0
  0
LINE
  5
   4F1
  8
0
  6
CONTINUOUS
 62
     7
 10
1948.24500404357
 20
-1444.669536912
 30
0.0
 11
1948.24500427245
 21
-1446.169536912
 31
0.0
  0
LINE
  5
   4F2
  8
0
  6
CONTINUOUS
 62
     7
 10
1948.24500427245
 20
-1355.16956742958
 30
0.0
 11
1948.24500404357
 21
-1356.66956742958
 31
0.0
  0
LINE
  5
   4F3
  8
0
  6
CONTINUOUS
 62
     7
 10
1910.24502491301
 20
-1355.16956742958
 30
0.0
 11
1948.24500427245
 21
-1355.16956742958
 31
0.0
  0
LINE
  5
   4F4
  8
0
  6
CONTINUOUS
 62
     7
 10
1910.24499511719
 20
-1356.66956742958
 30
0.0
 11
1949.24497352599
 21
-1356.66956742958
 31
0.0
  0
LINE
  5
   4F5
  8
0
  6
CONTINUOUS
 62
     7
 10
1946.74500633239
 20
-1341.66955232338
 30
0.0
 11
1946.74500587463
 21
-1344.66955217079
 31
0.0
  0
LINE
  5
   4F6
  8
0
  6
CONTINUOUS
 62
     7
 10
1946.74500587463
 20
-1344.66955217079
 30
0.0
 11
1948.24500572204
 21
-1344.66955217079
 31
0.0
  0
LINE
  5
   4F7
  8
0
  6
CONTINUOUS
 62
     7
 10
1946.74500587463
 20
-1456.669536912
 30
0.0
 11
1948.24498893738
 21
-1456.669536912
 31
0.0
  0
ARC
  5
   4F8
  8
0
  6
CONTINUOUS
 62
     7
 10
1948.24500572204
 20
-1345.66955217079
 30
0.0
 40
1.0
 50
359.999991101463
 51
449.999999844103
  0
ARC
  5
   4F9
  8
0
  6
CONTINUOUS
 62
     7
 10
1948.24498893738
 20
-1455.669536912
 30
0.0
 40
1.0
 50
269.999999844103
 51
359.999991101463
  0
CIRCLE
  5
   4FA
  8
0
  6
CONTINUOUS
 62
     7
 10
1935.24502491301
 20
-1349.46954729082
 30
0.0
 40
3.0
  0
CIRCLE
  5
   4FB
  8
0
  6
CONTINUOUS
 62
     7
 10
1935.24502491301
 20
-1451.8695640373
 30
0.0
 40
3.0
  0
LINE
  5
   4FC
  8
0
  6
DASHDOT
 62
     7
 10
1883.8450121284
 20
-1350.66956270043
 30
0.0
 11
1906.6450121284
 21
-1350.66956270043
 31
0.0
  0
LINE
  5
   4FD
  8
0
  6
DASHDOT
 62
     7
 10
1913.84497810597
 20
-1350.66956270043
 30
0.0
 11
1936.64497810597
 21
-1350.66956270043
 31
0.0
  0
LINE
  5
   4FE
  8
0
  6
DASHDOT
 62
     7
 10
1910.24502491301
 20
-1335.89728157951
 30
0.0
 11
1910.24502491301
 21
-1440.53219715954
 31
0.0
  0
LINE
  5
   4FF
  8
0
  6
DASHDOT
 62
     7
 10
1897.24502491301
 20
-1349.46954729082
 30
0.0
 11
1923.24502491301
 21
-1349.46954729082
 31
0.0
  0
LINE
  5
   500
  8
0
  6
DASHDOT
 62
     7
 10
1885.24496532137
 20
-1336.46954729082
 30
0.0
 11
1885.24496532137
 21
-1362.46954729082
 31
0.0
  0
LINE
  5
   501
  8
0
  6
DASHDOT
 62
     7
 10
1867.24496532137
 20
-1349.46954729082
 30
0.0
 11
1893.24496532137
 21
-1349.46954729082
 31
0.0
  0
LINE
  5
   502
  8
0
  6
DASHDOT
 62
     7
 10
1935.24502491301
 20
-1336.46954729082
 30
0.0
 11
1935.24502491301
 21
-1362.46954729082
 31
0.0
  0
LINE
  5
   503
  8
0
  6
DASHDOT
 62
     7
 10
1927.24502491301
 20
-1349.46954729082
 30
0.0
 11
1953.24502491301
 21
-1349.46954729082
 31
0.0
  0
LINE
  5
   504
  8
0
  6
DASHDOT
 62
     7
 10
1885.24496532137
 20
-1438.8695640373
 30
0.0
 11
1885.24496532137
 21
-1464.8695640373
 31
0.0
  0
LINE
  5
   505
  8
0
  6
DASHDOT
 62
     7
 10
1872.24496532137
 20
-1451.8695640373
 30
0.0
 11
1898.24496532137
 21
-1451.8695640373
 31
0.0
  0
LINE
  5
   506
  8
0
  6
DASHDOT
 62
     7
 10
1897.74507707158
 20
-1436.41944105534
 30
0.0
 11
1897.74507707158
 21
-1464.91957454418
 31
0.0
  0
LINE
  5
   507
  8
0
  6
DASHDOT
 62
     7
 10
1880.99501032716
 20
-1450.66950779976
 30
0.0
 11
1909.495143816
 21
-1450.66950779976
 31
0.0
  0
LINE
  5
   508
  8
0
  6
DASHDOT
 62
     7
 10
1910.24496532137
 20
-1438.8695640373
 30
0.0
 11
1910.24496532137
 21
-1466.42656042296
 31
0.0
  0
LINE
  5
   509
  8
0
  6
DASHDOT
 62
     7
 10
1897.24496532137
 20
-1451.8695640373
 30
0.0
 11
1923.24496532137
 21
-1451.8695640373
 31
0.0
  0
LINE
  5
   50A
  8
0
  6
DASHDOT
 62
     7
 10
1922.74491316279
 20
-1436.41944105534
 30
0.0
 11
1922.74491316279
 21
-1464.91957454418
 31
0.0
  0
LINE
  5
   50B
  8
0
  6
DASHDOT
 62
     7
 10
1905.99484641838
 20
-1450.66950779976
 30
0.0
 11
1934.49497990721
 21
-1450.66950779976
 31
0.0
  0
LINE
  5
   50C
  8
0
  6
DASHDOT
 62
     7
 10
1927.24502491301
 20
-1451.8695640373
 30
0.0
 11
1953.24502491301
 21
-1451.8695640373
 31
0.0
  0
LINE
  5
   50D
  8
0
  6
DASHDOT
 62
     7
 10
1922.74503125789
 20
-1336.16953226308
 30
0.0
 11
1922.74503125789
 21
-1365.16944727769
 31
0.0
  0
LINE
  5
   50E
  8
0
  6
DASHDOT
 62
     7
 10
1910.74507375059
 20
-1350.66948977038
 30
0.0
 11
1939.7449887652
 21
-1350.66948977038
 31
0.0
  0
INSERT
  5
   50F
  8
255
  6
CONTINUOUS
 62
     7
  2
$4SSS
 10
1922.74503125789
 20
-1350.66948977038
 30
0.0
 50
359.999999792138
  0
INSERT
  5
   510
  8
0
  6
CONTINUOUS
 62
     7
  2
$4SSS
 10
1897.74507707158
 20
-1450.66950779976
 30
0.0
 50
359.999999792138
  0
LINE
  5
   511
  8
0
  6
DASHDOT
 62
     7
 10
1861.70465489516
 20
-1412.66952514649
 30
0.0
 11
1961.2423451864
 21
-1412.66952514649
 31
0.0
  0
LINE
  5
   512
  8
0
  6
CONTINUOUS
 62
     7
 10
1903.74498093489
 20
-1418.38918089092
 30
0.0
 11
1916.74500929948
 21
-1418.38918089092
 31
0.0
  0
LINE
  5
   513
  8
0
  6
CONTINUOUS
 62
     7
 10
1904.24498116361
 20
-1423.88497704768
 30
0.0
 11
1916.24500907076
 21
-1423.88497704768
 31
0.0
  0
LINE
  5
   514
  8
0
  6
CONTINUOUS
 62
     7
 10
1904.24498125582
 20
-1427.30219206812
 30
0.0
 11
1916.24500897855
 21
-1427.30219206812
 31
0.0
  0
LINE
  5
   515
  8
0
  6
CONTINUOUS
 62
     7
 10
1916.74500896454
 20
-1427.16952514648
 30
0.0
 11
1949.24496276856
 21
-1427.16952514648
 31
0.0
  0
ARC
  5
   516
  8
0
  6
CONTINUOUS
 62
     7
 10
1904.24498125582
 20
-1426.80219206812
 30
0.0
 40
0.5
 50
540.000002029765
 51
629.999999844103
  0
ARC
  5
   517
  8
0
  6
CONTINUOUS
 62
     7
 10
1916.24500897855
 20
-1426.80219206812
 30
0.0
 40
0.5
 50
269.999999844103
 51
359.999997658442
  0
ARC
  5
   518
  8
0
  6
CONTINUOUS
 62
     7
 10
1916.24500907076
 20
-1424.38497704768
 30
0.0
 40
0.5
 50
359.999997658442
 51
449.999999844103
  0
ARC
  5
   519
  8
0
  6
CONTINUOUS
 62
     7
 10
1904.24498116361
 20
-1424.38497704768
 30
0.0
 40
0.5
 50
449.999999844103
 51
540.000002029765
  0
CIRCLE
  5
   51A
  8
0
  6
CONTINUOUS
 62
     7
 10
1897.74507707158
 20
-1450.66950779976
 30
0.0
 40
4.4999575073053
  0
LINE
  5
   51B
  8
0
  6
CONTINUOUS
 62
     7
 10
1910.24499206543
 20
-1435.16952514648
 30
0.0
 11
1949.24496154785
 21
-1435.16952514648
 31
0.0
  0
LINE
  5
   51C
  8
0
  6
CONTINUOUS
 62
     7
 10
1910.24499893189
 20
-1390.16952514649
 30
0.0
 11
1949.24496841431
 21
-1390.16952514649
 31
0.0
  0
LINE
  5
   51D
  8
0
  6
DASHDOT
 62
     7
 10
1840.49689607421
 20
-1412.66952514649
 30
0.0
 11
2059.47514893291
 21
-1412.66952514649
 31
0.0
  0
LINE
  5
   51E
  8
0
  6
CONTINUOUS
 62
     7
 10
1896.4762878418
 20
-1400.31337830531
 30
0.0
 11
1897.2262878418
 21
-1400.31337830531
 31
0.0
  0
LINE
  5
   51F
  8
0
  6
CONTINUOUS
 62
     7
 10
1896.4762878418
 20
-1404.81337830531
 30
0.0
 11
1897.2262878418
 21
-1404.81337830531
 31
0.0
  0
CIRCLE
  5
   520
  8
0
  6
CONTINUOUS
 62
     7
 10
1896.8512878418
 20
-1419.31337830531
 30
0.0
 40
2.25
  0
CIRCLE
  5
   521
  8
0
  6
CONTINUOUS
 62
     7
 10
1896.8512878418
 20
-1419.31337830531
 30
0.0
 40
1.5
  0
LINE
  5
   522
  8
0
  6
CONTINUOUS
 62
     7
 10
1896.4762878418
 20
-1400.31337830531
 30
0.0
 11
1896.4762878418
 21
-1404.81337830531
 31
0.0
  0
LINE
  5
   523
  8
0
  6
CONTINUOUS
 62
     7
 10
1897.2262878418
 20
-1400.31337830531
 30
0.0
 11
1897.2262878418
 21
-1404.81337830531
 31
0.0
  0
LINE
  5
   524
  8
0
  6
CONTINUOUS
 62
     7
 10
1925.02628295898
 20
-1417.38837830531
 30
0.0
 11
1925.25128295898
 21
-1417.38837830531
 31
0.0
  0
LINE
  5
   525
  8
0
  6
CONTINUOUS
 62
     7
 10
1924.37628295898
 20
-1421.23837830531
 30
0.0
 11
1924.77628295898
 21
-1421.23837830531
 31
0.0
  0
LINE
  5
   526
  8
0
  6
CONTINUOUS
 62
     7
 10
1923.77628295898
 20
-1419.68837830531
 30
0.0
 11
1923.77628295898
 21
-1419.93837830531
 31
0.0
  0
ARC
  5
   527
  8
0
  6
CONTINUOUS
 62
     7
 10
1922.47628295898
 20
-1419.68837830531
 30
0.0
 40
1.3
 50
359.999999844103
 51
539.999999844103
  0
ARC
  5
   528
  8
0
  6
CONTINUOUS
 62
     7
 10
1922.47628295898
 20
-1419.93837830531
 30
0.0
 40
1.3
 50
539.999999844103
 51
719.999999844103
  0
ARC
  5
   529
  8
0
  6
CONTINUOUS
 62
     7
 10
1922.47628295898
 20
-1419.68837830531
 30
0.0
 40
0.900000000000001
 50
359.999999844103
 51
539.999999844103
  0
ARC
  5
   52A
  8
0
  6
CONTINUOUS
 62
     7
 10
1922.47628295898
 20
-1419.93837830531
 30
0.0
 40
0.899999999999999
 50
539.999999844103
 51
719.999999844103
  0
LINE
  5
   52B
  8
0
  6
CONTINUOUS
 62
     7
 10
1923.37628295898
 20
-1419.68837830531
 30
0.0
 11
1923.37628295898
 21
-1419.93837830531
 31
0.0
  0
LINE
  5
   52C
  8
0
  6
CONTINUOUS
 62
     7
 10
1923.90128295898
 20
-1418.58837830531
 30
0.0
 11
1923.90128295898
 21
-1418.98837830531
 31
0.0
  0
LINE
  5
   52D
  8
0
  6
CONTINUOUS
 62
     7
 10
1923.90128295898
 20
-1418.98837830531
 30
0.0
 11
1924.37628295898
 21
-1418.98837830531
 31
0.0
  0
LINE
  5
   52E
  8
0
  6
CONTINUOUS
 62
     7
 10
1925.25128295898
 20
-1418.58837830531
 30
0.0
 11
1925.25128295898
 21
-1418.98837830531
 31
0.0
  0
LINE
  5
   52F
  8
0
  6
CONTINUOUS
 62
     7
 10
1923.90128295898
 20
-1418.58837830531
 30
0.0
 11
1924.37628295898
 21
-1418.58837830531
 31
0.0
  0
LINE
  5
   530
  8
0
  6
CONTINUOUS
 62
     7
 10
1924.37628295898
 20
-1418.98837830531
 30
0.0
 11
1924.37628295898
 21
-1421.23837830531
 31
0.0
  0
LINE
  5
   531
  8
0
  6
CONTINUOUS
 62
     7
 10
1924.77628295898
 20
-1418.98837830531
 30
0.0
 11
1924.77628295898
 21
-1421.23837830531
 31
0.0
  0
LINE
  5
   532
  8
0
  6
CONTINUOUS
 62
     7
 10
1924.77628295898
 20
-1418.98837830531
 30
0.0
 11
1925.25128295898
 21
-1418.98837830531
 31
0.0
  0
LINE
  5
   533
  8
0
  6
CONTINUOUS
 62
     7
 10
1924.77628295898
 20
-1418.58837830531
 30
0.0
 11
1925.25128295898
 21
-1418.58837830531
 31
0.0
  0
LINE
  5
   534
  8
0
  6
CONTINUOUS
 62
     7
 10
1924.37628295898
 20
-1418.03837830531
 30
0.0
 11
1924.37628295898
 21
-1418.58837830531
 31
0.0
  0
LINE
  5
   535
  8
0
  6
CONTINUOUS
 62
     7
 10
1924.77628295898
 20
-1418.03837830531
 30
0.0
 11
1924.77628295898
 21
-1418.58837830531
 31
0.0
  0
ARC
  5
   536
  8
0
  6
CONTINUOUS
 62
     7
 10
1925.02628295898
 20
-1418.03837830531
 30
0.0
 40
0.65
 50
449.999999844103
 51
539.999999844103
  0
ARC
  5
   537
  8
0
  6
CONTINUOUS
 62
     7
 10
1925.02628295898
 20
-1418.03837830531
 30
0.0
 40
0.25
 50
449.999999844103
 51
539.999999844103
  0
LINE
  5
   538
  8
0
  6
CONTINUOUS
 62
     7
 10
1925.25128295898
 20
-1417.38837830531
 30
0.0
 11
1925.25128295898
 21
-1417.78837830531
 31
0.0
  0
LINE
  5
   539
  8
0
  6
CONTINUOUS
 62
     7
 10
1925.02628295898
 20
-1417.78837830531
 30
0.0
 11
1925.25128295898
 21
-1417.78837830531
 31
0.0
  0
LINE
  5
   53A
  8
0
  6
CONTINUOUS
 62
     7
 10
1925.97628295898
 20
-1421.23837830531
 30
0.0
 11
1926.37628295898
 21
-1421.23837830531
 31
0.0
  0
LINE
  5
   53B
  8
0
  6
CONTINUOUS
 62
     7
 10
1925.50128295898
 20
-1418.58837830531
 30
0.0
 11
1925.50128295898
 21
-1418.98837830531
 31
0.0
  0
LINE
  5
   53C
  8
0
  6
CONTINUOUS
 62
     7
 10
1925.50128295898
 20
-1418.98837830531
 30
0.0
 11
1925.97628295898
 21
-1418.98837830531
 31
0.0
  0
LINE
  5
   53D
  8
0
  6
CONTINUOUS
 62
     7
 10
1926.85128295898
 20
-1418.58837830531
 30
0.0
 11
1926.85128295898
 21
-1418.98837830531
 31
0.0
  0
LINE
  5
   53E
  8
0
  6
CONTINUOUS
 62
     7
 10
1925.50128295898
 20
-1418.58837830531
 30
0.0
 11
1925.97628295898
 21
-1418.58837830531
 31
0.0
  0
LINE
  5
   53F
  8
0
  6
CONTINUOUS
 62
     7
 10
1925.97628295898
 20
-1418.98837830531
 30
0.0
 11
1925.97628295898
 21
-1421.23837830531
 31
0.0
  0
LINE
  5
   540
  8
0
  6
CONTINUOUS
 62
     7
 10
1926.37628295898
 20
-1418.98837830531
 30
0.0
 11
1926.37628295898
 21
-1421.23837830531
 31
0.0
  0
LINE
  5
   541
  8
0
  6
CONTINUOUS
 62
     7
 10
1926.37628295898
 20
-1418.98837830531
 30
0.0
 11
1926.85128295898
 21
-1418.98837830531
 31
0.0
  0
LINE
  5
   542
  8
0
  6
CONTINUOUS
 62
     7
 10
1926.37628295898
 20
-1418.58837830531
 30
0.0
 11
1926.85128295898
 21
-1418.58837830531
 31
0.0
  0
LINE
  5
   543
  8
0
  6
CONTINUOUS
 62
     7
 10
1925.97628295898
 20
-1418.03837830531
 30
0.0
 11
1925.97628295898
 21
-1418.58837830531
 31
0.0
  0
LINE
  5
   544
  8
0
  6
CONTINUOUS
 62
     7
 10
1926.37628295898
 20
-1418.03837830531
 30
0.0
 11
1926.37628295898
 21
-1418.58837830531
 31
0.0
  0
ARC
  5
   545
  8
0
  6
CONTINUOUS
 62
     7
 10
1926.62628295898
 20
-1418.03837830531
 30
0.0
 40
0.65
 50
449.999999844103
 51
539.999999844103
  0
ARC
  5
   546
  8
0
  6
CONTINUOUS
 62
     7
 10
1926.62628295898
 20
-1418.03837830531
 30
0.0
 40
0.25
 50
449.999999844103
 51
539.999999844103
  0
LINE
  5
   547
  8
0
  6
CONTINUOUS
 62
     7
 10
1926.85128295898
 20
-1417.38837830531
 30
0.0
 11
1926.85128295898
 21
-1417.78837830531
 31
0.0
  0
LINE
  5
   548
  8
0
  6
CONTINUOUS
 62
     7
 10
1924.17628295898
 20
-1403.98837830531
 30
0.0
 11
1924.57628295898
 21
-1403.98837830531
 31
0.0
  0
ARC
  5
   549
  8
0
  6
CONTINUOUS
 62
     7
 10
1922.47628295898
 20
-1402.43837830531
 30
0.0
 40
1.3
 50
359.999999844103
 51
539.999999844103
  0
ARC
  5
   54A
  8
0
  6
CONTINUOUS
 62
     7
 10
1922.47628295898
 20
-1402.43837830531
 30
0.0
 40
0.900000000000001
 50
359.999999844103
 51
539.999999844103
  0
ARC
  5
   54B
  8
0
  6
CONTINUOUS
 62
     7
 10
1922.47628295898
 20
-1402.68837830531
 30
0.0
 40
1.3
 50
539.999999844103
 51
719.999999844103
  0
ARC
  5
   54C
  8
0
  6
CONTINUOUS
 62
     7
 10
1922.47628295898
 20
-1402.68837830531
 30
0.0
 40
0.899999999999999
 50
539.999999844103
 51
719.999999844103
  0
LINE
  5
   54D
  8
0
  6
CONTINUOUS
 62
     7
 10
1924.17628295898
 20
-1401.13837830531
 30
0.0
 11
1924.17628295898
 21
-1403.98837830531
 31
0.0
  0
LINE
  5
   54E
  8
0
  6
CONTINUOUS
 62
     7
 10
1924.57628295898
 20
-1402.23837830531
 30
0.0
 11
1924.57628295898
 21
-1403.98837830531
 31
0.0
  0
LINE
  5
   54F
  8
0
  6
CONTINUOUS
 62
     7
 10
1925.97628295898
 20
-1402.23837830531
 30
0.0
 11
1925.97628295898
 21
-1403.98837830531
 31
0.0
  0
LINE
  5
   550
  8
0
  6
CONTINUOUS
 62
     7
 10
1926.37628295898
 20
-1402.13837830531
 30
0.0
 11
1926.37628295898
 21
-1403.98837830531
 31
0.0
  0
LINE
  5
   551
  8
0
  6
CONTINUOUS
 62
     7
 10
1924.17628295898
 20
-1401.13837830531
 30
0.0
 11
1924.57628295898
 21
-1401.13837830531
 31
0.0
  0
ARC
  5
   552
  8
0
  6
CONTINUOUS
 62
     7
 10
1925.27628295898
 20
-1402.23837830531
 30
0.0
 40
0.699999999999999
 50
359.999999844103
 51
539.999999844103
  0
LINE
  5
   553
  8
0
  6
CONTINUOUS
 62
     7
 10
1924.57628295898
 20
-1401.13837830531
 30
0.0
 11
1924.57628295898
 21
-1401.53837830531
 31
0.0
  0
ARC
  5
   554
  8
0
  6
CONTINUOUS
 62
     7
 10
1925.37628295898
 20
-1402.13837830531
 30
0.0
 40
1.0
 50
359.999999844103
 51
503.130102198259
  0
LINE
  5
   555
  8
0
  6
CONTINUOUS
 62
     7
 10
1925.97628295898
 20
-1403.98837830531
 30
0.0
 11
1926.37628295898
 21
-1403.98837830531
 31
0.0
  0
LINE
  5
   556
  8
0
  6
CONTINUOUS
 62
     7
 10
1924.64460775308
 20
-1391.5104158736
 30
0.0
 11
1924.41057605904
 21
-1391.5516813569
 31
0.0
  0
LINE
  5
   557
  8
0
  6
CONTINUOUS
 62
     7
 10
1924.41059051393
 20
-1391.55167350131
 30
0.0
 11
1924.20478761361
 21
-1391.67049224448
 31
0.0
  0
LINE
  5
   558
  8
0
  6
CONTINUOUS
 62
     7
 10
1924.20477914791
 20
-1391.67050092042
 30
0.0
 11
1924.05203102291
 21
-1391.85254163162
 31
0.0
  0
LINE
  5
   559
  8
0
  6
CONTINUOUS
 62
     7
 10
1924.05203387369
 20
-1391.85254051716
 30
0.0
 11
1923.9707579382
 21
-1392.0758466914
 31
0.0
  0
LINE
  5
   55A
  8
0
  6
CONTINUOUS
 62
     7
 10
1923.97075067213
 20
-1392.07584628514
 30
0.0
 11
1923.97075067213
 21
-1392.31348380497
 31
0.0
  0
LINE
  5
   55B
  8
0
  6
CONTINUOUS
 62
     7
 10
1923.97075727592
 20
-1392.31348138365
 30
0.0
 11
1924.05203321141
 21
-1392.5367875579
 31
0.0
  0
LINE
  5
   55C
  8
0
  6
CONTINUOUS
 62
     7
 10
1924.05202965149
 20
-1392.53678851105
 30
0.0
 11
1924.20477777649
 21
-1392.71882922225
 31
0.0
  0
LINE
  5
   55D
  8
0
  6
CONTINUOUS
 62
     7
 10
1924.20479094908
 20
-1392.71883382264
 30
0.0
 11
1924.4105938494
 21
-1392.83765256581
 31
0.0
  0
LINE
  5
   55E
  8
0
  6
CONTINUOUS
 62
     7
 10
1924.4105776857
 20
-1392.8376496382
 30
0.0
 11
1924.64460937975
 21
-1392.8789151215
 31
0.0
  0
LINE
  5
   55F
  8
0
  6
CONTINUOUS
 62
     7
 10
1924.64460931471
 20
-1392.87891492298
 30
0.0
 11
1924.87403283765
 21
-1392.87891492298
 31
0.0
  0
LINE
  5
   560
  8
0
  6
CONTINUOUS
 62
     7
 10
1924.8740450445
 20
-1392.87891005666
 30
0.0
 11
1924.96157707299
 21
-1392.90735243427
 31
0.0
  0
LINE
  5
   561
  8
0
  6
CONTINUOUS
 62
     7
 10
1924.96157610774
 20
-1392.90735266362
 30
0.0
 11
1925.01567613513
 21
-1392.98181506796
 31
0.0
  0
LINE
  5
   562
  8
0
  6
CONTINUOUS
 62
     7
 10
1925.01566491773
 20
-1392.98181971959
 30
0.0
 11
1925.01566491773
 21
-1393.07386025837
 31
0.0
  0
LINE
  5
   563
  8
0
  6
CONTINUOUS
 62
     7
 10
1925.01567213657
 20
-1393.07385697695
 30
0.0
 11
1924.96157210918
 21
-1393.1483193813
 31
0.0
  0
LINE
  5
   564
  8
0
  6
CONTINUOUS
 62
     7
 10
1924.96157461048
 20
-1393.14831937919
 30
0.0
 11
1924.874042582
 21
-1393.17676175681
 31
0.0
  0
LINE
  5
   565
  8
0
  6
CONTINUOUS
 62
     7
 10
1924.04085717847
 20
-1393.17676505497
 30
0.0
 11
1924.87403283765
 21
-1393.17676505497
 31
0.0
  0
LINE
  5
   566
  8
0
  6
CONTINUOUS
 62
     7
 10
1924.04085717847
 20
-1393.17676505497
 30
0.0
 11
1924.04085717847
 21
-1393.72416457585
 31
0.0
  0
LINE
  5
   567
  8
0
  6
CONTINUOUS
 62
     7
 10
1924.04085717847
 20
-1393.72416457585
 30
0.0
 11
1924.87403283765
 21
-1393.72416457585
 31
0.0
  0
LINE
  5
   568
  8
0
  6
CONTINUOUS
 62
     7
 10
1925.11218961089
 20
-1393.68217021438
 30
0.0
 11
1924.87403807415
 21
-1393.72416335137
 31
0.0
  0
LINE
  5
   569
  8
0
  6
CONTINUOUS
 62
     7
 10
1925.32162206873
 20
-1393.56125327348
 30
0.0
 11
1925.11218752982
 21
-1393.68216918196
 31
0.0
  0
LINE
  5
   56A
  8
0
  6
CONTINUOUS
 62
     7
 10
1925.4770795554
 20
-1393.37599878781
 30
0.0
 11
1925.32163064261
 21
-1393.56125191864
 31
0.0
  0
LINE
  5
   56B
  8
0
  6
CONTINUOUS
 62
     7
 10
1925.55978224936
 20
-1393.1487581062
 30
0.0
 11
1925.47707197999
 21
-1393.37600489913
 31
0.0
  0
LINE
  5
   56C
  8
0
  6
CONTINUOUS
 62
     7
 10
1925.55977807691
 20
-1392.90692433766
 30
0.0
 11
1925.55977807691
 21
-1393.1487556403
 31
0.0
  0
LINE
  5
   56D
  8
0
  6
CONTINUOUS
 62
     7
 10
1925.4770717902
 20
-1392.67967613308
 30
0.0
 11
1925.55978205957
 21
-1392.90692292602
 31
0.0
  0
LINE
  5
   56E
  8
0
  6
CONTINUOUS
 62
     7
 10
1925.32162551113
 20
-1392.49441807007
 30
0.0
 11
1925.47707443434
 21
-1392.67967170438
 31
0.0
  0
LINE
  5
   56F
  8
0
  6
CONTINUOUS
 62
     7
 10
1925.11218318778
 20
-1392.37350757902
 30
0.0
 11
1925.32161771733
 21
-1392.49442300522
 31
0.0
  0
LINE
  5
   570
  8
0
  6
CONTINUOUS
 62
     7
 10
1924.8740451215
 20
-1392.33151632977
 30
0.0
 11
1925.11219665481
 21
-1392.37350994264
 31
0.0
  0
LINE
  5
   571
  8
0
  6
CONTINUOUS
 62
     7
 10
1924.64460931471
 20
-1392.33151492527
 30
0.0
 11
1924.87403283765
 21
-1392.33151492527
 31
0.0
  0
LINE
  5
   572
  8
0
  6
CONTINUOUS
 62
     7
 10
1924.56417341074
 20
-1392.30537664353
 30
0.0
 11
1924.64461774551
 21
-1392.33151256397
 31
0.0
  0
LINE
  5
   573
  8
0
  6
CONTINUOUS
 62
     7
 10
1924.51445478361
 20
-1392.23695520919
 30
0.0
 11
1924.5641679184
 21
-1392.30538039015
 31
0.0
  0
LINE
  5
   574
  8
0
  6
CONTINUOUS
 62
     7
 10
1924.514451844
 20
-1392.15237626484
 30
0.0
 11
1924.514451844
 21
-1392.23695382527
 31
0.0
  0
LINE
  5
   575
  8
0
  6
CONTINUOUS
 62
     7
 10
1924.56417530234
 20
-1392.08395339234
 30
0.0
 11
1924.51446216755
 21
-1392.1523785733
 31
0.0
  0
LINE
  5
   576
  8
0
  6
CONTINUOUS
 62
     7
 10
1924.64462085081
 20
-1392.05781142575
 30
0.0
 11
1924.56417651603
 21
-1392.08394734618
 31
0.0
  0
LINE
  5
   577
  8
0
  6
CONTINUOUS
 62
     7
 10
1924.64460931471
 20
-1392.05781516484
 30
0.0
 11
1925.48985467603
 21
-1392.05781516484
 31
0.0
  0
LINE
  5
   578
  8
0
  6
CONTINUOUS
 62
     7
 10
1925.48985467603
 20
-1391.51041516713
 30
0.0
 11
1925.48985467603
 21
-1392.05781516484
 31
0.0
  0
LINE
  5
   579
  8
0
  6
CONTINUOUS
 62
     7
 10
1924.64460931471
 20
-1391.51041516713
 30
0.0
 11
1925.48985467603
 21
-1391.51041516713
 31
0.0
  0
LINE
  5
   57A
  8
0
  6
CONTINUOUS
 62
     7
 10
1925.57035241773
 20
-1393.72416457585
 30
0.0
 11
1926.14045129469
 21
-1393.72416457585
 31
0.0
  0
LINE
  5
   57B
  8
0
  6
CONTINUOUS
 62
     7
 10
1926.26925667457
 20
-1393.28141349602
 30
0.0
 11
1926.14045724002
 21
-1393.72416299175
 31
0.0
  0
LINE
  5
   57C
  8
0
  6
CONTINUOUS
 62
     7
 10
1926.26925073316
 20
-1393.28141507557
 30
0.0
 11
1926.88396630933
 21
-1393.28141507557
 31
0.0
  0
LINE
  5
   57D
  8
0
  6
CONTINUOUS
 62
     7
 10
1926.88397102372
 20
-1393.28141389519
 30
0.0
 11
1927.01277045827
 21
-1393.72416339092
 31
0.0
  0
LINE
  5
   57E
  8
0
  6
CONTINUOUS
 62
     7
 10
1927.01276574781
 20
-1393.72416457585
 30
0.0
 11
1927.58285699537
 21
-1393.72416457585
 31
0.0
  0
LINE
  5
   57F
  8
0
  6
CONTINUOUS
 62
     7
 10
1926.93885761143
 20
-1391.5104148288
 30
0.0
 11
1927.58286260215
 21
-1393.72416479834
 31
0.0
  0
LINE
  5
   580
  8
0
  6
CONTINUOUS
 62
     7
 10
1926.21435723951
 20
-1391.51041516713
 30
0.0
 11
1926.93885217359
 21
-1391.51041516713
 31
0.0
  0
LINE
  5
   581
  8
0
  6
CONTINUOUS
 62
     7
 10
1926.21436030616
 20
-1391.51042360013
 30
0.0
 11
1925.57035531544
 21
-1393.72417356967
 31
0.0
  0
LINE
  5
   582
  8
0
  6
CONTINUOUS
 62
     7
 10
1926.57661290319
 20
-1392.2248728402
 30
0.0
 11
1926.72472241468
 21
-1392.73401501149
 31
0.0
  0
LINE
  5
   583
  8
0
  6
CONTINUOUS
 62
     7
 10
1926.42849145582
 20
-1392.73401507786
 30
0.0
 11
1926.72471795728
 21
-1392.73401507786
 31
0.0
  0
LINE
  5
   584
  8
0
  6
CONTINUOUS
 62
     7
 10
1926.57661744391
 20
-1392.22487234173
 30
0.0
 11
1926.42850038959
 21
-1392.73401423286
 31
0.0
  0
LINE
  5
   585
  8
0
  6
CONTINUOUS
 62
     7
 10
1929.45022738161
 20
-1391.8130309367
 30
0.0
 11
1929.64601289717
 21
-1392.05986426972
 31
0.0
  0
LINE
  5
   586
  8
0
  6
CONTINUOUS
 62
     7
 10
1929.19284522534
 20
-1391.631357448
 30
0.0
 11
1929.45023046337
 21
-1391.81303525239
 31
0.0
  0
LINE
  5
   587
  8
0
  6
CONTINUOUS
 62
     7
 10
1928.89469243788
 20
-1391.52955815189
 30
0.0
 11
1929.19284154422
 21
-1391.6313614443
 31
0.0
  0
LINE
  5
   588
  8
0
  6
CONTINUOUS
 62
     7
 10
1928.57994241193
 20
-1391.51587487593
 30
0.0
 11
1928.89469309171
 21
-1391.52955676491
 31
0.0
  0
LINE
  5
   589
  8
0
  6
CONTINUOUS
 62
     7
 10
1928.57993682144
 20
-1391.51587430139
 30
0.0
 11
1928.27407439492
 21
-1391.59142246933
 31
0.0
  0
LINE
  5
   58A
  8
0
  6
CONTINUOUS
 62
     7
 10
1928.27407919243
 20
-1391.59141893169
 30
0.0
 11
1928.00190055856
 21
-1391.75007695719
 31
0.0
  0
LINE
  5
   58B
  8
0
  6
CONTINUOUS
 62
     7
 10
1928.00189631281
 20
-1391.75008177101
 30
0.0
 11
1927.78543513346
 21
-1391.97899602972
 31
0.0
  0
LINE
  5
   58C
  8
0
  6
CONTINUOUS
 62
     7
 10
1927.78544039277
 20
-1391.97899153424
 30
0.0
 11
1927.64224430318
 21
-1392.25961639625
 31
0.0
  0
LINE
  5
   58D
  8
0
  6
CONTINUOUS
 62
     7
 10
1927.64224180984
 20
-1392.25962103588
 30
0.0
 11
1927.58390745928
 21
-1392.5692223508
 31
0.0
  0
LINE
  5
   58E
  8
0
  6
CONTINUOUS
 62
     7
 10
1927.58390808112
 20
-1392.56922046284
 30
0.0
 11
1927.61515806617
 21
-1392.88271609445
 31
0.0
  0
LINE
  5
   58F
  8
0
  6
CONTINUOUS
 62
     7
 10
1927.61515563801
 20
-1392.88271535862
 30
0.0
 11
1927.73346464447
 21
-1393.17470753102
 31
0.0
  0
LINE
  5
   590
  8
0
  6
CONTINUOUS
 62
     7
 10
1927.73346522749
 20
-1393.17470498875
 30
0.0
 11
1927.90949825303
 21
-1393.40240189374
 31
0.0
  0
LINE
  5
   591
  8
0
  6
CONTINUOUS
 62
     7
 10
1927.90950127264
 20
-1393.40240711244
 30
0.0
 11
1928.13829155417
 21
-1393.57702154741
 31
0.0
  0
LINE
  5
   592
  8
0
  6
CONTINUOUS
 62
     7
 10
1928.1382868876
 20
-1393.57701901903
 30
0.0
 11
1928.40436201698
 21
-1393.68674496903
 31
0.0
  0
LINE
  5
   593
  8
0
  6
CONTINUOUS
 62
     7
 10
1928.40436485897
 20
-1393.68674629964
 30
0.0
 11
1928.68973472615
 21
-1393.72416466356
 31
0.0
  0
LINE
  5
   594
  8
0
  6
CONTINUOUS
 62
     7
 10
1928.97510870637
 20
-1393.68674523028
 30
0.0
 11
1928.6897388392
 21
-1393.7241635942
 31
0.0
  0
LINE
  5
   595
  8
0
  6
CONTINUOUS
 62
     7
 10
1929.24117475968
 20
-1393.57702018525
 30
0.0
 11
1928.9750996303
 21
-1393.68674613526
 31
0.0
  0
LINE
  5
   596
  8
0
  6
CONTINUOUS
 62
     7
 10
1929.46997270984
 20
-1393.40239998609
 30
0.0
 11
1929.2411824283
 21
-1393.57701442106
 31
0.0
  0
LINE
  5
   597
  8
0
  6
CONTINUOUS
 62
     7
 10
1929.64601146947
 20
-1393.17470827781
 30
0.0
 11
1929.46997082193
 21
-1393.40240516753
 31
0.0
  0
LINE
  5
   598
  8
0
  6
CONTINUOUS
 62
     7
 10
1929.17308978162
 20
-1392.89903754059
 30
0.0
 11
1929.64601300858
 21
-1393.17470660073
 31
0.0
  0
LINE
  5
   599
  8
0
  6
CONTINUOUS
 62
     7
 10
1929.17308126372
 20
-1392.89904299225
 30
0.0
 11
1929.04816517884
 21
-1393.0468711065
 31
0.0
  0
LINE
  5
   59A
  8
0
  6
CONTINUOUS
 62
     7
 10
1929.04816752911
 20
-1393.04686706879
 30
0.0
 11
1928.88035133448
 21
-1393.14328832847
 31
0.0
  0
LINE
  5
   59B
  8
0
  6
CONTINUOUS
 62
     7
 10
1928.88035592278
 20
-1393.14328905923
 30
0.0
 11
1928.68973547676
 21
-1393.17676493437
 31
0.0
  0
LINE
  5
   59C
  8
0
  6
CONTINUOUS
 62
     7
 10
1928.49910553932
 20
-1393.14328884504
 30
0.0
 11
1928.68972598534
 21
-1393.17676472019
 31
0.0
  0
LINE
  5
   59D
  8
0
  6
CONTINUOUS
 62
     7
 10
1928.33129292751
 20
-1393.04686575195
 30
0.0
 11
1928.49910912214
 21
-1393.14328701163
 31
0.0
  0
LINE
  5
   59E
  8
0
  6
CONTINUOUS
 62
     7
 10
1928.20637748103
 20
-1392.89903669817
 30
0.0
 11
1928.33129356592
 21
-1393.04686481242
 31
0.0
  0
LINE
  5
   59F
  8
0
  6
CONTINUOUS
 62
     7
 10
1928.13535417224
 20
-1392.69262035975
 30
0.0
 11
1928.20638383522
 21
-1392.89903792678
 31
0.0
  0
LINE
  5
   5A0
  8
0
  6
CONTINUOUS
 62
     7
 10
1928.14873081565
 20
-1392.47473814121
 30
0.0
 11
1928.13535648547
 21
-1392.6926246116
 31
0.0
  0
LINE
  5
   5A1
  8
0
  6
CONTINUOUS
 62
     7
 10
1928.24446414921
 20
-1392.27855001273
 30
0.0
 11
1928.14873050193
 21
-1392.47473370387
 31
0.0
  0
LINE
  5
   5A2
  8
0
  6
CONTINUOUS
 62
     7
 10
1928.4079852179
 20
-1392.1339356505
 30
0.0
 11
1928.24445676267
 21
-1392.27854989192
 31
0.0
  0
LINE
  5
   5A3
  8
0
  6
CONTINUOUS
 62
     7
 10
1928.6144000439
 20
-1392.06290907811
 30
0.0
 11
1928.40798677487
 21
-1392.13393682701
 31
0.0
  0
LINE
  5
   5A4
  8
0
  6
CONTINUOUS
 62
     7
 10
1928.61439643324
 20
-1392.06291112058
 30
0.0
 11
1928.8322843784
 21
-1392.07628211464
 31
0.0
  0
LINE
  5
   5A5
  8
0
  6
CONTINUOUS
 62
     7
 10
1928.83229037279
 20
-1392.07628396229
 30
0.0
 11
1929.02847264818
 21
-1392.17201904924
 31
0.0
  0
LINE
  5
   5A6
  8
0
  6
CONTINUOUS
 62
     7
 10
1929.02847527393
 20
-1392.17200739344
 30
0.0
 11
1929.1730904583
 21
-1392.33553107232
 31
0.0
  0
LINE
  5
   5A7
  8
0
  6
CONTINUOUS
 62
     7
 10
1929.64601654658
 20
-1392.05986413486
 30
0.0
 11
1929.17309331962
 21
-1392.33553319499
 31
0.0
  0
LINE
  5
   5A8
  8
0
  6
CONTINUOUS
 62
     7
 10
1929.84725366285
 20
-1391.51041564396
 30
0.0
 11
1929.84725366285
 21
-1393.72416457585
 31
0.0
  0
LINE
  5
   5A9
  8
0
  6
CONTINUOUS
 62
     7
 10
1929.84725366285
 20
-1393.72416457585
 30
0.0
 11
1931.29625116041
 21
-1393.72416457585
 31
0.0
  0
LINE
  5
   5AA
  8
0
  6
CONTINUOUS
 62
     7
 10
1931.29625116041
 20
-1393.17676505497
 30
0.0
 11
1931.29625116041
 21
-1393.72416457585
 31
0.0
  0
LINE
  5
   5AB
  8
0
  6
CONTINUOUS
 62
     7
 10
1930.39465509107
 20
-1393.17676505497
 30
0.0
 11
1931.29625116041
 21
-1393.17676505497
 31
0.0
  0
LINE
  5
   5AC
  8
0
  6
CONTINUOUS
 62
     7
 10
1930.39465509107
 20
-1392.89098987034
 30
0.0
 11
1930.39465509107
 21
-1393.17676505497
 31
0.0
  0
LINE
  5
   5AD
  8
0
  6
CONTINUOUS
 62
     7
 10
1930.39465509107
 20
-1392.89098987034
 30
0.0
 11
1931.17550073316
 21
-1392.89098987034
 31
0.0
  0
LINE
  5
   5AE
  8
0
  6
CONTINUOUS
 62
     7
 10
1931.17550073316
 20
-1392.34358987263
 30
0.0
 11
1931.17550073316
 21
-1392.89098987034
 31
0.0
  0
LINE
  5
   5AF
  8
0
  6
CONTINUOUS
 62
     7
 10
1930.39465509107
 20
-1392.34358987263
 30
0.0
 11
1931.17550073316
 21
-1392.34358987263
 31
0.0
  0
LINE
  5
   5B0
  8
0
  6
CONTINUOUS
 62
     7
 10
1930.39465509107
 20
-1392.05781519464
 30
0.0
 11
1930.39465509107
 21
-1392.34358987263
 31
0.0
  0
LINE
  5
   5B1
  8
0
  6
CONTINUOUS
 62
     7
 10
1930.39465509107
 20
-1392.05781516484
 30
0.0
 11
1931.29625116041
 21
-1392.05781516484
 31
0.0
  0
LINE
  5
   5B2
  8
0
  6
CONTINUOUS
 62
     7
 10
1931.29625116041
 20
-1391.51041516713
 30
0.0
 11
1931.29625116041
 21
-1392.05781516484
 31
0.0
  0
LINE
  5
   5B3
  8
0
  6
CONTINUOUS
 62
     7
 10
1929.84725366285
 20
-1391.51041516713
 30
0.0
 11
1931.29625116041
 21
-1391.51041516713
 31
0.0
  0
LINE
  5
   5B4
  8
0
  6
CONTINUOUS
 62
     7
 10
1874.87376279012
 20
-1391.3056390852
 30
0.0
 11
1874.4199054774
 21
-1392.60239171863
 31
0.0
  0
LINE
  5
   5B5
  8
0
  6
CONTINUOUS
 62
     7
 10
1874.41989775616
 20
-1392.60238789022
 30
0.0
 11
1875.23950835186
 21
-1392.60238789022
 31
0.0
  0
LINE
  5
   5B6
  8
0
  6
CONTINUOUS
 62
     7
 10
1874.87375517803
 20
-1391.30563496053
 30
0.0
 11
1875.23950835186
 21
-1391.30563496053
 31
0.0
  0
LINE
  5
   5B7
  8
0
  6
CONTINUOUS
 62
     7
 10
1873.94275542218
 20
-1393.96563147008
 30
0.0
 11
1874.6077563377
 21
-1393.96563147008
 31
0.0
  0
LINE
  5
   5B8
  8
0
  6
CONTINUOUS
 62
     7
 10
1874.79396494781
 20
-1393.43363335946
 30
0.0
 11
1874.60776195215
 21
-1393.9656329724
 31
0.0
  0
LINE
  5
   5B9
  8
0
  6
CONTINUOUS
 62
     7
 10
1874.79395934063
 20
-1393.43363188207
 30
0.0
 11
1875.23950835186
 21
-1393.43363188207
 31
0.0
  0
LINE
  5
   5BA
  8
0
  6
CONTINUOUS
 62
     7
 10
1874.39662047344
 20
-1392.66888569295
 30
0.0
 11
1875.23950835186
 21
-1392.66888569295
 31
0.0
  0
LINE
  5
   5BB
  8
0
  6
CONTINUOUS
 62
     7
 10
1874.39662578015
 20
-1392.66888839055
 30
0.0
 11
1873.94276086451
 21
-1393.96563389803
 31
0.0
  0
LINE
  5
   5BC
  8
0
  6
CONTINUOUS
 62
     7
 10
1876.14890824913
 20
-1392.66888856927
 30
0.0
 11
1876.60277316477
 21
-1393.96563407675
 31
0.0
  0
LINE
  5
   5BD
  8
0
  6
CONTINUOUS
 62
     7
 10
1875.3060061546
 20
-1392.66888569295
 30
0.0
 11
1876.14889403302
 21
-1392.66888569295
 31
0.0
  0
LINE
  5
   5BE
  8
0
  6
CONTINUOUS
 62
     7
 10
1875.3060061546
 20
-1392.66888569295
 30
0.0
 11
1875.3060061546
 21
-1393.43363188207
 31
0.0
  0
LINE
  5
   5BF
  8
0
  6
CONTINUOUS
 62
     7
 10
1875.3060061546
 20
-1393.43363188207
 30
0.0
 11
1875.75155516583
 21
-1393.43363188207
 31
0.0
  0
LINE
  5
   5C0
  8
0
  6
CONTINUOUS
 62
     7
 10
1875.7515667488
 20
-1393.4336310422
 30
0.0
 11
1875.93776974446
 21
-1393.96563065514
 31
0.0
  0
LINE
  5
   5C1
  8
0
  6
CONTINUOUS
 62
     7
 10
1875.93775816876
 20
-1393.96563147008
 30
0.0
 11
1876.60275908428
 21
-1393.96563147008
 31
0.0
  0
LINE
  5
   5C2
  8
0
  6
CONTINUOUS
 62
     7
 10
1875.3060061546
 20
-1391.30563496053
 30
0.0
 11
1875.67175932842
 21
-1391.30563496053
 31
0.0
  0
LINE
  5
   5C3
  8
0
  6
CONTINUOUS
 62
     7
 10
1875.3060061546
 20
-1391.30563496053
 30
0.0
 11
1875.3060061546
 21
-1392.60238789022
 31
0.0
  0
LINE
  5
   5C4
  8
0
  6
CONTINUOUS
 62
     7
 10
1875.3060061546
 20
-1392.60238789022
 30
0.0
 11
1876.12562437969
 21
-1392.60238789022
 31
0.0
  0
LINE
  5
   5C5
  8
0
  6
CONTINUOUS
 62
     7
 10
1875.67176696537
 20
-1391.30563759141
 30
0.0
 11
1876.12563191491
 21
-1392.60239041368
 31
0.0
  0
LINE
  5
   5C6
  8
0
  6
CONTINUOUS
 62
     7
 10
1876.76901122051
 20
-1392.60238789022
 30
0.0
 11
1877.53375884014
 21
-1392.60238789022
 31
0.0
  0
LINE
  5
   5C7
  8
0
  6
CONTINUOUS
 62
     7
 10
1877.53375884014
 20
-1391.30563496053
 30
0.0
 11
1877.53375884014
 21
-1392.60238789022
 31
0.0
  0
LINE
  5
   5C8
  8
0
  6
CONTINUOUS
 62
     7
 10
1876.76901122051
 20
-1391.30563496053
 30
0.0
 11
1877.53375884014
 21
-1391.30563496053
 31
0.0
  0
LINE
  5
   5C9
  8
0
  6
CONTINUOUS
 62
     7
 10
1876.76901122051
 20
-1393.96563147008
 30
0.0
 11
1877.53375884014
 21
-1393.96563147008
 31
0.0
  0
LINE
  5
   5CA
  8
0
  6
CONTINUOUS
 62
     7
 10
1877.53375884014
 20
-1392.66888569295
 30
0.0
 11
1877.53375884014
 21
-1393.96563147008
 31
0.0
  0
LINE
  5
   5CB
  8
0
  6
CONTINUOUS
 62
     7
 10
1876.76901122051
 20
-1392.66888569295
 30
0.0
 11
1877.53375884014
 21
-1392.66888569295
 31
0.0
  0
LINE
  5
   5CC
  8
0
  6
CONTINUOUS
 62
     7
 10
1878.83050414044
 20
-1391.30563496053
 30
0.0
 11
1878.83050414044
 21
-1392.60238789022
 31
0.0
  0
LINE
  5
   5CD
  8
0
  6
CONTINUOUS
 62
     7
 10
1878.83050414044
 20
-1392.60238789022
 30
0.0
 11
1879.59525938946
 21
-1392.60238789022
 31
0.0
  0
LINE
  5
   5CE
  8
0
  6
CONTINUOUS
 62
     7
 10
1879.59525938946
 20
-1391.30563496053
 30
0.0
 11
1879.59525938946
 21
-1392.60238789022
 31
0.0
  0
LINE
  5
   5CF
  8
0
  6
CONTINUOUS
 62
     7
 10
1878.83050414044
 20
-1391.30563496053
 30
0.0
 11
1879.59525938946
 21
-1391.30563496053
 31
0.0
  0
LINE
  5
   5D0
  8
0
  6
CONTINUOUS
 62
     7
 10
1878.83050414044
 20
-1393.96563147008
 30
0.0
 11
1879.59525938946
 21
-1393.96563147008
 31
0.0
  0
LINE
  5
   5D1
  8
0
  6
CONTINUOUS
 62
     7
 10
1879.59525938946
 20
-1392.66888569295
 30
0.0
 11
1879.59525938946
 21
-1393.96563147008
 31
0.0
  0
LINE
  5
   5D2
  8
0
  6
CONTINUOUS
 62
     7
 10
1878.83050414044
 20
-1392.66888569295
 30
0.0
 11
1879.59525938946
 21
-1392.66888569295
 31
0.0
  0
LINE
  5
   5D3
  8
0
  6
CONTINUOUS
 62
     7
 10
1878.83050414044
 20
-1392.66888569295
 30
0.0
 11
1878.83050414044
 21
-1393.96563147008
 31
0.0
  0
LINE
  5
   5D4
  8
0
  6
CONTINUOUS
 62
     7
 10
1879.66175719219
 20
-1391.30563496053
 30
0.0
 11
1879.87549467999
 21
-1391.30563496053
 31
0.0
  0
LINE
  5
   5D5
  8
0
  6
CONTINUOUS
 62
     7
 10
1879.66175719219
 20
-1391.30563496053
 30
0.0
 11
1879.66175719219
 21
-1392.60238789022
 31
0.0
  0
LINE
  5
   5D6
  8
0
  6
CONTINUOUS
 62
     7
 10
1879.66175719219
 20
-1392.60238789022
 30
0.0
 11
1880.43593474346
 21
-1392.60238789022
 31
0.0
  0
LINE
  5
   5D7
  8
0
  6
CONTINUOUS
 62
     7
 10
1880.32171964085
 20
-1392.51624966831
 30
0.0
 11
1880.43593169261
 21
-1392.6023855455
 31
0.0
  0
LINE
  5
   5D8
  8
0
  6
CONTINUOUS
 62
     7
 10
1880.19375715699
 20
-1392.45232523363
 30
0.0
 11
1880.32172501018
 21
-1392.51625193627
 31
0.0
  0
LINE
  5
   5D9
  8
0
  6
CONTINUOUS
 62
     7
 10
1880.34607956462
 20
-1392.32299559534
 30
0.0
 11
1880.19375871705
 21
-1392.45232907289
 31
0.0
  0
LINE
  5
   5DA
  8
0
  6
CONTINUOUS
 62
     7
 10
1880.44912670175
 20
-1392.15179344
 30
0.0
 11
1880.34608411064
 21
-1392.32299704757
 31
0.0
  0
LINE
  5
   5DB
  8
0
  6
CONTINUOUS
 62
     7
 10
1880.49210072037
 20
-1391.95665582589
 30
0.0
 11
1880.44912434611
 21
-1392.15179282651
 31
0.0
  0
LINE
  5
   5DC
  8
0
  6
CONTINUOUS
 62
     7
 10
1880.47051559331
 20
-1391.75799909688
 30
0.0
 11
1880.49209914404
 21
-1391.9566533136
 31
0.0
  0
LINE
  5
   5DD
  8
0
  6
CONTINUOUS
 62
     7
 10
1880.38662494126
 20
-1391.57664398054
 30
0.0
 11
1880.47051014724
 21
-1391.75799471055
 31
0.0
  0
LINE
  5
   5DE
  8
0
  6
CONTINUOUS
 62
     7
 10
1880.2492165836
 20
-1391.43156178277
 30
0.0
 11
1880.38662199215
 21
-1391.57664235828
 31
0.0
  0
LINE
  5
   5DF
  8
0
  6
CONTINUOUS
 62
     7
 10
1880.07268747972
 20
-1391.33797726047
 30
0.0
 11
1880.24922404728
 21
-1391.43157468025
 31
0.0
  0
LINE
  5
   5E0
  8
0
  6
CONTINUOUS
 62
     7
 10
1879.66175719219
 20
-1392.66888569295
 30
0.0
 11
1880.50091429669
 21
-1392.66888569295
 31
0.0
  0
LINE
  5
   5E1
  8
0
  6
CONTINUOUS
 62
     7
 10
1879.66175719219
 20
-1392.66888569295
 30
0.0
 11
1879.66175719219
 21
-1393.96563147008
 31
0.0
  0
LINE
  5
   5E2
  8
0
  6
CONTINUOUS
 62
     7
 10
1879.66175719219
 20
-1393.96563147008
 30
0.0
 11
1879.90907164532
 21
-1393.96563147008
 31
0.0
  0
LINE
  5
   5E3
  8
0
  6
CONTINUOUS
 62
     7
 10
1880.12983904856
 20
-1393.9338855907
 30
0.0
 11
1879.90907486458
 21
-1393.96563292914
 31
0.0
  0
LINE
  5
   5E4
  8
0
  6
CONTINUOUS
 62
     7
 10
1880.33271107567
 20
-1393.84121608299
 30
0.0
 11
1880.12983783307
 21
-1393.93388509465
 31
0.0
  0
LINE
  5
   5E5
  8
0
  6
CONTINUOUS
 62
     7
 10
1880.50124252593
 20
-1393.69513620956
 30
0.0
 11
1880.33270918514
 21
-1393.84121670823
 31
0.0
  0
LINE
  5
   5E6
  8
0
  6
CONTINUOUS
 62
     7
 10
1880.6217882806
 20
-1393.50748301956
 30
0.0
 11
1880.50124384758
 21
-1393.69513560521
 31
0.0
  0
LINE
  5
   5E7
  8
0
  6
CONTINUOUS
 62
     7
 10
1880.68457138182
 20
-1393.29347009818
 30
0.0
 11
1880.62179672533
 21
-1393.50748557142
 31
0.0
  0
LINE
  5
   5E8
  8
0
  6
CONTINUOUS
 62
     7
 10
1880.68449613079
 20
-1393.07043228837
 30
0.0
 11
1880.68456479534
 21
-1393.29346572713
 31
0.0
  0
LINE
  5
   5E9
  8
0
  6
CONTINUOUS
 62
     7
 10
1880.62158560465
 20
-1392.85645485483
 30
0.0
 11
1880.68449758725
 21
-1393.07043077206
 31
0.0
  0
LINE
  5
   5EA
  8
0
  6
CONTINUOUS
 62
     7
 10
1880.50091613231
 20
-1392.66888849238
 30
0.0
 11
1880.62158263492
 21
-1392.85646001499
 31
0.0
  0
LINE
  5
   5EB
  8
0
  6
CONTINUOUS
 62
     7
 10
1877.60025664288
 20
-1391.30563496053
 30
0.0
 11
1877.81400176007
 21
-1391.30563496053
 31
0.0
  0
LINE
  5
   5EC
  8
0
  6
CONTINUOUS
 62
     7
 10
1877.60025664288
 20
-1391.30563496053
 30
0.0
 11
1877.60025664288
 21
-1392.60238789022
 31
0.0
  0
LINE
  5
   5ED
  8
0
  6
CONTINUOUS
 62
     7
 10
1877.60025664288
 20
-1392.60238789022
 30
0.0
 11
1878.37443419415
 21
-1392.60238789022
 31
0.0
  0
LINE
  5
   5EE
  8
0
  6
CONTINUOUS
 62
     7
 10
1878.26022405156
 20
-1392.51625355006
 30
0.0
 11
1878.37443610331
 21
-1392.60238942726
 31
0.0
  0
LINE
  5
   5EF
  8
0
  6
CONTINUOUS
 62
     7
 10
1878.13225512931
 20
-1392.45232508485
 30
0.0
 11
1878.2602229825
 21
-1392.5162517875
 31
0.0
  0
LINE
  5
   5F0
  8
0
  6
CONTINUOUS
 62
     7
 10
1878.28457788543
 20
-1392.32299160675
 30
0.0
 11
1878.13225703786
 21
-1392.4523250843
 31
0.0
  0
LINE
  5
   5F1
  8
0
  6
CONTINUOUS
 62
     7
 10
1878.38762305961
 20
-1392.1517911622
 30
0.0
 11
1878.28458046851
 21
-1392.32299476976
 31
0.0
  0
LINE
  5
   5F2
  8
0
  6
CONTINUOUS
 62
     7
 10
1878.43060654691
 20
-1391.95665498708
 30
0.0
 11
1878.3876225417
 21
-1392.15179199909
 31
0.0
  0
LINE
  5
   5F3
  8
0
  6
CONTINUOUS
 62
     7
 10
1878.40902355045
 20
-1391.75799579691
 30
0.0
 11
1878.43060710118
 21
-1391.95665001363
 31
0.0
  0
LINE
  5
   5F4
  8
0
  6
CONTINUOUS
 62
     7
 10
1878.32512742568
 20
-1391.57665004591
 30
0.0
 11
1878.4090202539
 21
-1391.75800076728
 31
0.0
  0
LINE
  5
   5F5
  8
0
  6
CONTINUOUS
 62
     7
 10
1878.18771912323
 20
-1391.4315583053
 30
0.0
 11
1878.32512453178
 21
-1391.57663888081
 31
0.0
  0
LINE
  5
   5F6
  8
0
  6
CONTINUOUS
 62
     7
 10
1878.01118194714
 20
-1391.33797484713
 30
0.0
 11
1878.1877185147
 21
-1391.43157226691
 31
0.0
  0
LINE
  5
   5F7
  8
0
  6
CONTINUOUS
 62
     7
 10
1877.81400113486
 20
-1391.30563445986
 30
0.0
 11
1878.01118287823
 21
-1391.33796783286
 31
0.0
  0
LINE
  5
   5F8
  8
0
  6
CONTINUOUS
 62
     7
 10
1877.60025664288
 20
-1392.66888569295
 30
0.0
 11
1878.43941374737
 21
-1392.66888569295
 31
0.0
  0
LINE
  5
   5F9
  8
0
  6
CONTINUOUS
 62
     7
 10
1877.60025664288
 20
-1392.66888569295
 30
0.0
 11
1877.60025664288
 21
-1393.96563147008
 31
0.0
  0
LINE
  5
   5FA
  8
0
  6
CONTINUOUS
 62
     7
 10
1877.60025664288
 20
-1393.96563147008
 30
0.0
 11
1877.847571096
 21
-1393.96563147008
 31
0.0
  0
LINE
  5
   5FB
  8
0
  6
CONTINUOUS
 62
     7
 10
1878.06833591404
 20
-1393.93389049679
 30
0.0
 11
1877.84757173006
 21
-1393.96563783523
 31
0.0
  0
LINE
  5
   5FC
  8
0
  6
CONTINUOUS
 62
     7
 10
1878.27121074081
 20
-1393.84121739033
 30
0.0
 11
1878.0683374982
 21
-1393.933886402
 31
0.0
  0
LINE
  5
   5FD
  8
0
  6
CONTINUOUS
 62
     7
 10
1878.43974255235
 20
-1393.69513718393
 30
0.0
 11
1878.27120921156
 21
-1393.8412176826
 31
0.0
  0
LINE
  5
   5FE
  8
0
  6
CONTINUOUS
 62
     7
 10
1878.56028669766
 20
-1393.50748276319
 30
0.0
 11
1878.43974226464
 21
-1393.69513534884
 31
0.0
  0
LINE
  5
   5FF
  8
0
  6
CONTINUOUS
 62
     7
 10
1878.62307421946
 20
-1393.29346726866
 30
0.0
 11
1878.56029192715
 21
-1393.50748276499
 31
0.0
  0
LINE
  5
   600
  8
0
  6
CONTINUOUS
 62
     7
 10
1878.62299323613
 20
-1393.07043205662
 30
0.0
 11
1878.62306953004
 21
-1393.29346549786
 31
0.0
  0
LINE
  5
   601
  8
0
  6
CONTINUOUS
 62
     7
 10
1878.56008691826
 20
-1392.85645495688
 30
0.0
 11
1878.62299890086
 21
-1393.07043087411
 31
0.0
  0
LINE
  5
   602
  8
0
  6
CONTINUOUS
 62
     7
 10
1878.4394175803
 20
-1392.66888798235
 30
0.0
 11
1878.56008408292
 21
-1392.85645950496
 31
0.0
  0
LINE
  5
   603
  8
0
  6
CONTINUOUS
 62
     7
 10
1876.76901122051
 20
-1391.30563496053
 30
0.0
 11
1876.76901122051
 21
-1393.96563147008
 31
0.0
  0
LINE
  5
   604
  8
0
  6
CONTINUOUS
 62
     7
 10
1871.24496757507
 20
-1395.66952514649
 30
0.0
 11
1899.24498006821
 21
-1395.66952514649
 31
0.0
  0
LINE
  5
   605
  8
0
  6
CONTINUOUS
 62
     7
 10
1899.74497999191
 20
-1393.66952514649
 30
0.0
 11
1899.74498010635
 21
-1396.66952514649
 31
0.0
  0
LINE
  5
   606
  8
0
  6
CONTINUOUS
 62
     7
 10
1920.74501024246
 20
-1393.66952514649
 30
0.0
 11
1920.74501012802
 21
-1396.66952514649
 31
0.0
  0
LINE
  5
   607
  8
0
  6
CONTINUOUS
 62
     7
 10
1899.74497999191
 20
-1393.66952514649
 30
0.0
 11
1920.74501024246
 21
-1393.66952514649
 31
0.0
  0
LINE
  5
   608
  8
0
  6
CONTINUOUS
 62
     7
 10
1921.24501016617
 20
-1395.66952514649
 30
0.0
 11
1949.24496757507
 21
-1395.66952514649
 31
0.0
  0
LINE
  5
   609
  8
0
  6
CONTINUOUS
 62
     7
 10
1899.24497997284
 20
-1393.16952514649
 30
0.0
 11
1921.24501026154
 21
-1393.16952514649
 31
0.0
  0
LINE
  5
   60A
  8
0
  6
CONTINUOUS
 62
     7
 10
1921.24501026154
 20
-1393.16952514649
 30
0.0
 11
1921.24501012802
 21
-1396.66952514649
 31
0.0
  0
LINE
  5
   60B
  8
0
  6
CONTINUOUS
 62
     7
 10
1899.24497997284
 20
-1393.16952514649
 30
0.0
 11
1899.24498010635
 21
-1396.66952514649
 31
0.0
  0
LINE
  5
   60C
  8
0
  6
CONTINUOUS
 62
     7
 10
1946.74500587463
 20
-1344.66955217079
 30
0.0
 11
1946.74500427245
 21
-1355.16956742958
 31
0.0
  0
LINE
  5
   60D
  8
0
  6
CONTINUOUS
 62
     7
 10
1848.74498435975
 20
-1344.66955217079
 30
0.0
 11
1848.74498596192
 21
-1355.16956742958
 31
0.0
  0
LINE
  5
   60E
  8
0
  6
CONTINUOUS
 62
     7
 10
1848.74498435975
 20
-1456.669536912
 30
0.0
 11
1848.74498390198
 21
-1459.6695520182
 31
0.0
  0
LINE
  5
   60F
  8
0
  6
CONTINUOUS
 62
     7
 10
1946.74500587463
 20
-1456.669536912
 30
0.0
 11
1946.74500633239
 21
-1459.6695520182
 31
0.0
  0
INSERT
  5
   610
  8
0
  6
CONTINUOUS
 62
     7
  2
$4SSS
 10
1922.74507707158
 20
-1450.66950779976
 30
0.0
 50
359.999999792138
  0
INSERT
  5
   611
  8
0
  6
CONTINUOUS
 62
     7
  2
$4SSS
 10
1897.74503125789
 20
-1350.66948977038
 30
0.0
 50
359.999999792138
  0
CIRCLE
  5
   612
  8
0
  6
CONTINUOUS
 62
     7
 10
1922.74507707158
 20
-1450.66950779976
 30
0.0
 40
4.4999575073053
  0
LINE
  5
   613
  8
0
  6
CONTINUOUS
 62
     7
 10
1920.74500913956
 20
-1422.58137594112
 30
0.0
 11
1920.74500902512
 21
-1425.58137594112
 31
0.0
  0
LINE
  5
   614
  8
0
  6
CONTINUOUS
 62
     7
 10
1899.74498109481
 20
-1422.58137594112
 30
0.0
 11
1899.74498120925
 21
-1425.58137594112
 31
0.0
  0
LINE
  5
   615
  8
0
  6
CONTINUOUS
 62
     7
 10
1899.74498109481
 20
-1422.58137594112
 30
0.0
 11
1902.74498109481
 21
-1422.58137594112
 31
0.0
  0
LINE
  5
   616
  8
0
  6
CONTINUOUS
 62
     7
 10
1917.74500913956
 20
-1422.58137594112
 30
0.0
 11
1920.74500913956
 21
-1422.58137594112
 31
0.0
  0
LINE
  5
   617
  8
0
  6
CONTINUOUS
 62
     7
 10
1899.74498120925
 20
-1425.58137594112
 30
0.0
 11
1903.74498120925
 21
-1425.58137594112
 31
0.0
  0
LINE
  5
   618
  8
0
  6
CONTINUOUS
 62
     7
 10
1916.74500902512
 20
-1425.58137594112
 30
0.0
 11
1920.74500902512
 21
-1425.58137594112
 31
0.0
  0
CIRCLE
  5
   619
  8
0
  6
CONTINUOUS
 62
     7
 10
1860.24496532137
 20
-1451.8695640373
 30
0.0
 40
3.0
  0
CIRCLE
  5
   61A
  8
0
  6
CONTINUOUS
 62
     7
 10
1860.24498088533
 20
-1457.66954040527
 30
0.0
 40
1.25
  0
CIRCLE
  5
   61B
  8
0
  6
CONTINUOUS
 62
     7
 10
1872.74507707158
 20
-1450.66950779976
 30
0.0
 40
4.4999575073053
  0
LINE
  5
   61C
  8
0
  6
CONTINUOUS
 62
     7
 10
1870.24498081207
 20
-1457.16954040527
 30
0.0
 11
1870.24498081207
 21
-1458.66955566406
 31
0.0
  0
LINE
  5
   61D
  8
0
  6
CONTINUOUS
 62
     7
 10
1875.24498081207
 20
-1457.16954040527
 30
0.0
 11
1875.24498081207
 21
-1458.66955566406
 31
0.0
  0
LINE
  5
   61E
  8
0
  6
CONTINUOUS
 62
     7
 10
1871.24495173801
 20
-1458.66955566406
 30
0.0
 11
1871.24495173801
 21
-1460.66955566406
 31
0.0
  0
LINE
  5
   61F
  8
0
  6
CONTINUOUS
 62
     7
 10
1874.24495173801
 20
-1458.66955566406
 30
0.0
 11
1874.24495173801
 21
-1460.66955566406
 31
0.0
  0
LINE
  5
   620
  8
0
  6
CONTINUOUS
 62
     7
 10
1874.24495173801
 20
-1458.66955566406
 30
0.0
 11
1875.24495173801
 21
-1458.66955566406
 31
0.0
  0
LINE
  5
   621
  8
0
  6
CONTINUOUS
 62
     7
 10
1870.24495078434
 20
-1458.66955566406
 30
0.0
 11
1871.24495173801
 21
-1458.66955566406
 31
0.0
  0
LINE
  5
   622
  8
0
  6
CONTINUOUS
 62
     7
 10
1849.74498390198
 20
-1460.66954040527
 30
0.0
 11
1871.24495173801
 21
-1460.66954040527
 31
0.0
  0
CIRCLE
  5
   623
  8
0
  6
CONTINUOUS
 62
     7
 10
1860.24500309295
 20
-1343.66956481933
 30
0.0
 40
1.25
  0
INSERT
  5
   624
  8
0
  6
CONTINUOUS
 62
     7
  2
$4SSS
 10
1872.74503125789
 20
-1350.66948977038
 30
0.0
 50
359.999999792138
  0
CIRCLE
  5
   625
  8
0
  6
CONTINUOUS
 62
     7
 10
1872.74495897648
 20
-1350.66948977038
 30
0.0
 40
4.4999575073053
  0
CIRCLE
  5
   626
  8
0
  6
CONTINUOUS
 62
     7
 10
1860.24496532137
 20
-1349.46954729082
 30
0.0
 40
3.0
  0
LINE
  5
   627
  8
0
  6
CONTINUOUS
 62
     7
 10
1871.24495173801
 20
-1340.66955566406
 30
0.0
 11
1871.24495173801
 21
-1342.66955566406
 31
0.0
  0
LINE
  5
   628
  8
0
  6
CONTINUOUS
 62
     7
 10
1874.24495173801
 20
-1340.66955566406
 30
0.0
 11
1874.24495173801
 21
-1342.66955566406
 31
0.0
  0
LINE
  5
   629
  8
0
  6
CONTINUOUS
 62
     7
 10
1870.24495078434
 20
-1342.66955566406
 30
0.0
 11
1871.24495173801
 21
-1342.66955566406
 31
0.0
  0
LINE
  5
   62A
  8
0
  6
CONTINUOUS
 62
     7
 10
1874.24495173801
 20
-1342.66955566406
 30
0.0
 11
1875.24495173801
 21
-1342.66955566406
 31
0.0
  0
LINE
  5
   62B
  8
0
  6
CONTINUOUS
 62
     7
 10
1870.24495078434
 20
-1342.66955566406
 30
0.0
 11
1870.24495192876
 21
-1344.16956710809
 31
0.0
  0
LINE
  5
   62C
  8
0
  6
CONTINUOUS
 62
     7
 10
1875.24495173801
 20
-1342.66955566406
 30
0.0
 11
1875.24495173801
 21
-1344.16955566406
 31
0.0
  0
LINE
  5
   62D
  8
0
  6
CONTINUOUS
 62
     7
 10
1849.74498390198
 20
-1340.66955566406
 30
0.0
 11
1871.24495173801
 21
-1340.66955566406
 31
0.0
  0
LINE
  5
   62E
  8
0
  6
DASHDOT
 62
     7
 10
1860.24496532137
 20
-1438.8695640373
 30
0.0
 11
1860.24496532137
 21
-1464.8695640373
 31
0.0
  0
LINE
  5
   62F
  8
0
  6
DASHDOT
 62
     7
 10
1847.24496532137
 20
-1451.8695640373
 30
0.0
 11
1873.24496532137
 21
-1451.8695640373
 31
0.0
  0
LINE
  5
   630
  8
0
  6
DASHDOT
 62
     7
 10
1860.24499511719
 20
-1336.96954729082
 30
0.0
 11
1860.24499511719
 21
-1361.96954729082
 31
0.0
  0
LINE
  5
   631
  8
0
  6
DASHDOT
 62
     7
 10
1847.74499511719
 20
-1349.46954729082
 30
0.0
 11
1872.74499511719
 21
-1349.46954729082
 31
0.0
  0
LINE
  5
   632
  8
0
  6
DASHDOT
 62
     7
 10
1872.74507707158
 20
-1436.16955029245
 30
0.0
 11
1872.74507707158
 21
-1465.16946530706
 31
0.0
  0
LINE
  5
   633
  8
0
  6
DASHDOT
 62
     7
 10
1858.24511956428
 20
-1450.66950779976
 30
0.0
 11
1887.24503457889
 21
-1450.66950779976
 31
0.0
  0
LINE
  5
   634
  8
0
  6
DASHDOT
 62
     7
 10
1935.24499511719
 20
-1439.3695640373
 30
0.0
 11
1935.24499511719
 21
-1464.3695640373
 31
0.0
  0
LINE
  5
   635
  8
0
  6
DASHDOT
 62
     7
 10
1922.74499511719
 20
-1451.8695640373
 30
0.0
 11
1947.74499511719
 21
-1451.8695640373
 31
0.0
  0
CIRCLE
  5
   636
  8
0
  6
CONTINUOUS
 62
     7
 10
1872.74507707158
 20
-1450.66950779976
 30
0.0
 40
2.25
  0
LINE
  5
   637
  8
0
  6
CONTINUOUS
 62
     7
 10
1899.24503125789
 20
-1344.16955566406
 30
0.0
 11
1900.2449798584
 21
-1344.16955566406
 31
0.0
  0
LINE
  5
   638
  8
0
  6
CONTINUOUS
 62
     7
 10
1895.24495173801
 20
-1344.16955566406
 30
0.0
 11
1896.24503125789
 21
-1344.16955566406
 31
0.0
  0
LINE
  5
   639
  8
0
  6
CONTINUOUS
 62
     7
 10
1896.24503125789
 20
-1345.16955566406
 30
0.0
 11
1899.24503125789
 21
-1345.16955566406
 31
0.0
  0
LINE
  5
   63A
  8
0
  6
CONTINUOUS
 62
     7
 10
1899.24503125789
 20
-1344.16955566406
 30
0.0
 11
1899.24503125789
 21
-1345.16955566406
 31
0.0
  0
LINE
  5
   63B
  8
0
  6
CONTINUOUS
 62
     7
 10
1896.24503125789
 20
-1344.16955566406
 30
0.0
 11
1896.24503125789
 21
-1345.16955566406
 31
0.0
  0
LINE
  5
   63C
  8
0
  6
CONTINUOUS
 62
     7
 10
1924.24501856812
 20
-1344.16955566406
 30
0.0
 11
1924.24501856812
 21
-1345.16955566406
 31
0.0
  0
LINE
  5
   63D
  8
0
  6
CONTINUOUS
 62
     7
 10
1921.24501856812
 20
-1344.16955566406
 30
0.0
 11
1921.24501856812
 21
-1345.16955566406
 31
0.0
  0
LINE
  5
   63E
  8
0
  6
CONTINUOUS
 62
     7
 10
1921.24501856812
 20
-1345.16955566406
 30
0.0
 11
1924.24501856812
 21
-1345.16955566406
 31
0.0
  0
LINE
  5
   63F
  8
0
  6
CONTINUOUS
 62
     7
 10
1924.24501856812
 20
-1344.16955566406
 30
0.0
 11
1925.24509808801
 21
-1344.16955566406
 31
0.0
  0
LINE
  5
   640
  8
0
  6
CONTINUOUS
 62
     7
 10
1920.24506996762
 20
-1344.16955566406
 30
0.0
 11
1921.24501856812
 21
-1344.16955566406
 31
0.0
  0
LINE
  5
   641
  8
0
  6
CONTINUOUS
 62
     7
 10
1896.24503125789
 20
-1456.16952514648
 30
0.0
 11
1896.24503125789
 21
-1457.16952514648
 31
0.0
  0
LINE
  5
   642
  8
0
  6
CONTINUOUS
 62
     7
 10
1899.24503125789
 20
-1456.16952514648
 30
0.0
 11
1899.24503125789
 21
-1457.16952514648
 31
0.0
  0
LINE
  5
   643
  8
0
  6
CONTINUOUS
 62
     7
 10
1896.24503125789
 20
-1456.16952514648
 30
0.0
 11
1899.24503125789
 21
-1456.16952514648
 31
0.0
  0
LINE
  5
   644
  8
0
  6
CONTINUOUS
 62
     7
 10
1921.24501856812
 20
-1456.16952514648
 30
0.0
 11
1921.24501856812
 21
-1457.16952514648
 31
0.0
  0
LINE
  5
   645
  8
0
  6
CONTINUOUS
 62
     7
 10
1924.24501856812
 20
-1456.16952514648
 30
0.0
 11
1924.24501856812
 21
-1457.16952514648
 31
0.0
  0
LINE
  5
   646
  8
0
  6
CONTINUOUS
 62
     7
 10
1921.24501856812
 20
-1456.16952514648
 30
0.0
 11
1924.24501856812
 21
-1456.16952514648
 31
0.0
  0
LINE
  5
   647
  8
0
  6
CONTINUOUS
 62
     7
 10
1895.24495173801
 20
-1457.16952514648
 30
0.0
 11
1896.24503125789
 21
-1457.16952514648
 31
0.0
  0
LINE
  5
   648
  8
0
  6
CONTINUOUS
 62
     7
 10
1899.24503125789
 20
-1457.16952514648
 30
0.0
 11
1900.2449798584
 21
-1457.16952514648
 31
0.0
  0
LINE
  5
   649
  8
0
  6
CONTINUOUS
 62
     7
 10
1920.24506996762
 20
-1457.16952514648
 30
0.0
 11
1921.24501856812
 21
-1457.16952514648
 31
0.0
  0
LINE
  5
   64A
  8
0
  6
CONTINUOUS
 62
     7
 10
1924.24501856812
 20
-1457.16952514648
 30
0.0
 11
1925.24509808801
 21
-1457.16952514648
 31
0.0
  0
LINE
  5
   64B
  8
0
  6
CONTINUOUS
 62
     7
 10
1871.24503125789
 20
-1344.16955566406
 30
0.0
 11
1871.24503125789
 21
-1345.16955566406
 31
0.0
  0
LINE
  5
   64C
  8
0
  6
CONTINUOUS
 62
     7
 10
1871.24503125789
 20
-1345.16955566406
 30
0.0
 11
1874.24503125789
 21
-1345.16955566406
 31
0.0
  0
LINE
  5
   64D
  8
0
  6
CONTINUOUS
 62
     7
 10
1874.24503125789
 20
-1344.16955566406
 30
0.0
 11
1874.24503125789
 21
-1345.16955566406
 31
0.0
  0
LINE
  5
   64E
  8
0
  6
CONTINUOUS
 62
     7
 10
1870.24495173801
 20
-1344.16955566406
 30
0.0
 11
1871.24503125789
 21
-1344.16955566406
 31
0.0
  0
LINE
  5
   64F
  8
0
  6
CONTINUOUS
 62
     7
 10
1874.24503125789
 20
-1344.16955566406
 30
0.0
 11
1875.2449798584
 21
-1344.16955566406
 31
0.0
  0
LINE
  5
   650
  8
0
  6
CONTINUOUS
 62
     7
 10
1871.24503125789
 20
-1456.16952514648
 30
0.0
 11
1874.24503125789
 21
-1456.16952514648
 31
0.0
  0
LINE
  5
   651
  8
0
  6
CONTINUOUS
 62
     7
 10
1871.24503125789
 20
-1456.16952514648
 30
0.0
 11
1871.24503125789
 21
-1457.16952514648
 31
0.0
  0
LINE
  5
   652
  8
0
  6
CONTINUOUS
 62
     7
 10
1874.24503125789
 20
-1456.16952514648
 30
0.0
 11
1874.24503125789
 21
-1457.16952514648
 31
0.0
  0
LINE
  5
   653
  8
0
  6
CONTINUOUS
 62
     7
 10
1874.24503125789
 20
-1457.16952514648
 30
0.0
 11
1875.2449798584
 21
-1457.16952514648
 31
0.0
  0
LINE
  5
   654
  8
0
  6
CONTINUOUS
 62
     7
 10
1870.24495173801
 20
-1457.16952514648
 30
0.0
 11
1871.24503125789
 21
-1457.16952514648
 31
0.0
  0
LINE
  5
   655
  8
0
  6
CONTINUOUS
 62
     7
 10
1884.64499740601
 20
-1427.91954040527
 30
0.0
 11
1884.64499740601
 21
-1432.41954040527
 31
0.0
  0
LINE
  5
   656
  8
0
  6
CONTINUOUS
 62
     7
 10
1894.64499740601
 20
-1427.91954040527
 30
0.0
 11
1894.64499740601
 21
-1432.41954040527
 31
0.0
  0
LINE
  5
   657
  8
0
  6
CONTINUOUS
 62
     7
 10
1884.64499740601
 20
-1427.91954040527
 30
0.0
 11
1894.64499740601
 21
-1427.91954040527
 31
0.0
  0
LINE
  5
   658
  8
0
  6
CONTINUOUS
 62
     7
 10
1884.64499740601
 20
-1432.41954040527
 30
0.0
 11
1894.64499740601
 21
-1432.41954040527
 31
0.0
  0
LINE
  5
   659
  8
0
  6
CONTINUOUS
 62
     7
 10
1871.24496742249
 20
-1396.66952514649
 30
0.0
 11
1871.2449671936
 21
-1398.16952514649
 31
0.0
  0
LINE
  5
   65A
  8
0
  6
CONTINUOUS
 62
     7
 10
1871.24496276856
 20
-1427.16952514648
 30
0.0
 11
1871.24496253967
 21
-1428.66952514648
 31
0.0
  0
LINE
  5
   65B
  8
0
  6
CONTINUOUS
 62
     7
 10
1869.94497352599
 20
-1356.66956742958
 30
0.0
 11
1869.94496009827
 21
-1444.669536912
 31
0.0
  0
LINE
  5
   65C
  8
0
  6
CONTINUOUS
 62
     7
 10
1869.44497352599
 20
-1356.66956742958
 30
0.0
 11
1869.44496009827
 21
-1444.669536912
 31
0.0
  0
LINE
  5
   65D
  8
0
  6
CONTINUOUS
 62
     7
 10
1868.14497352599
 20
-1356.66956742958
 30
0.0
 11
1868.14496009827
 21
-1444.669536912
 31
0.0
  0
LINE
  5
   65E
  8
0
  6
CONTINUOUS
 62
     7
 10
1867.64497352599
 20
-1356.66956742958
 30
0.0
 11
1867.64496009827
 21
-1444.669536912
 31
0.0
  0
LINE
  5
   65F
  8
0
  6
CONTINUOUS
 62
     7
 10
1866.34497352599
 20
-1356.66956742958
 30
0.0
 11
1866.34496009827
 21
-1444.669536912
 31
0.0
  0
LINE
  5
   660
  8
0
  6
CONTINUOUS
 62
     7
 10
1865.84497352599
 20
-1356.66956742958
 30
0.0
 11
1865.84496009827
 21
-1444.669536912
 31
0.0
  0
LINE
  5
   661
  8
0
  6
CONTINUOUS
 62
     7
 10
1864.54497352599
 20
-1356.66956742958
 30
0.0
 11
1864.54496009827
 21
-1444.669536912
 31
0.0
  0
LINE
  5
   662
  8
0
  6
CONTINUOUS
 62
     7
 10
1864.04497352599
 20
-1356.66956742958
 30
0.0
 11
1864.04496009827
 21
-1444.669536912
 31
0.0
  0
LINE
  5
   663
  8
0
  6
CONTINUOUS
 62
     7
 10
1862.74497352599
 20
-1356.66956742958
 30
0.0
 11
1862.74496009827
 21
-1444.669536912
 31
0.0
  0
LINE
  5
   664
  8
0
  6
CONTINUOUS
 62
     7
 10
1862.24497352599
 20
-1356.66956742958
 30
0.0
 11
1862.24496009827
 21
-1444.669536912
 31
0.0
  0
LINE
  5
   665
  8
0
  6
CONTINUOUS
 62
     7
 10
1860.94497352599
 20
-1356.66956742958
 30
0.0
 11
1860.94496009827
 21
-1444.669536912
 31
0.0
  0
LINE
  5
   666
  8
0
  6
CONTINUOUS
 62
     7
 10
1860.44497352599
 20
-1356.66956742958
 30
0.0
 11
1860.44496009827
 21
-1444.669536912
 31
0.0
  0
LINE
  5
   667
  8
0
  6
CONTINUOUS
 62
     7
 10
1859.14497352599
 20
-1356.66956742958
 30
0.0
 11
1859.14496009827
 21
-1444.669536912
 31
0.0
  0
LINE
  5
   668
  8
0
  6
CONTINUOUS
 62
     7
 10
1858.64497352599
 20
-1356.66956742958
 30
0.0
 11
1858.64496009827
 21
-1444.669536912
 31
0.0
  0
LINE
  5
   669
  8
0
  6
CONTINUOUS
 62
     7
 10
1857.34497352599
 20
-1356.66956742958
 30
0.0
 11
1857.34496009827
 21
-1444.669536912
 31
0.0
  0
LINE
  5
   66A
  8
0
  6
CONTINUOUS
 62
     7
 10
1856.84497352599
 20
-1356.66956742958
 30
0.0
 11
1856.84496009827
 21
-1444.669536912
 31
0.0
  0
LINE
  5
   66B
  8
0
  6
CONTINUOUS
 62
     7
 10
1855.04497352599
 20
-1356.66956742958
 30
0.0
 11
1855.04496009827
 21
-1444.669536912
 31
0.0
  0
LINE
  5
   66C
  8
0
  6
CONTINUOUS
 62
     7
 10
1855.54497352599
 20
-1356.66956742958
 30
0.0
 11
1855.54496009827
 21
-1444.669536912
 31
0.0
  0
LINE
  5
   66D
  8
0
  6
CONTINUOUS
 62
     7
 10
1853.74497352599
 20
-1356.66956742958
 30
0.0
 11
1853.74496009827
 21
-1444.669536912
 31
0.0
  0
LINE
  5
   66E
  8
0
  6
CONTINUOUS
 62
     7
 10
1853.24497352599
 20
-1356.66956742958
 30
0.0
 11
1853.24496009827
 21
-1444.669536912
 31
0.0
  0
LINE
  5
   66F
  8
0
  6
CONTINUOUS
 62
     7
 10
1851.94497352599
 20
-1356.66956742958
 30
0.0
 11
1851.94496009827
 21
-1444.669536912
 31
0.0
  0
LINE
  5
   670
  8
0
  6
CONTINUOUS
 62
     7
 10
1851.44497352599
 20
-1356.66956742958
 30
0.0
 11
1851.44496009827
 21
-1444.669536912
 31
0.0
  0
LINE
  5
   671
  8
0
  6
CONTINUOUS
 62
     7
 10
1850.14497352599
 20
-1356.66956742958
 30
0.0
 11
1850.14496009827
 21
-1444.669536912
 31
0.0
  0
LINE
  5
   672
  8
0
  6
CONTINUOUS
 62
     7
 10
1850.14497352599
 20
-1356.66956742958
 30
0.0
 11
1850.14496009827
 21
-1444.669536912
 31
0.0
  0
LINE
  5
   673
  8
0
  6
CONTINUOUS
 62
     7
 10
1849.64497352599
 20
-1356.66956742958
 30
0.0
 11
1849.64496009827
 21
-1444.669536912
 31
0.0
  0
LINE
  5
   674
  8
0
  6
CONTINUOUS
 62
     7
 10
1848.34497352599
 20
-1356.66956742958
 30
0.0
 11
1848.34496009827
 21
-1444.669536912
 31
0.0
  0
LINE
  5
   675
  8
0
  6
CONTINUOUS
 62
     7
 10
1847.84497352599
 20
-1356.66956742958
 30
0.0
 11
1847.84496009827
 21
-1444.669536912
 31
0.0
  0
LINE
  5
   676
  8
0
  6
CONTINUOUS
 62
     7
 10
1974.74509233037
 20
-1356.66958618164
 30
0.0
 11
1974.74509233037
 21
-1444.66955566406
 31
0.0
  0
LINE
  5
   677
  8
0
  6
DASHDOT
 62
     7
 10
1974.74509233037
 20
-1395.66952514649
 30
0.0
 11
2052.24497688293
 21
-1395.66952514649
 31
0.0
  0
LINE
  5
   678
  8
0
  6
CONTINUOUS
 62
     7
 10
1974.74509233037
 20
-1396.66952514649
 30
0.0
 11
2052.24497703552
 21
-1396.66952514649
 31
0.0
  0
TEXT
  5
   679
  8
0
  6
CONTINUOUS
 62
     2
 10
2072.68686276009
 20
-1414.19264840557
 30
0.0
 40
3.00000002980232
  1
X
 50
359.999999844103
 41
0.916666674282816
 11
2072.68686276417
 21
-1412.69264839067
 31
0.0
 73
     2
  0
INSERT
  5
   67A
  8
0
  6
CONTINUOUS
 62
     3
  2
*UDIM818
 10
0.0
 20
0.0
 30
0.0
  0
INSERT
  5
   67B
  8
0
  6
CONTINUOUS
 62
     3
  2
*UDIM819
 10
0.0
 20
0.0
 30
0.0
  0
TEXT
  5
   67C
  8
0
  6
CONTINUOUS
 62
     2
 10
1837.88631282339
 20
-1414.21374179124
 30
0.0
 40
3.00000002980232
  1
X
 50
359.999999844103
 41
0.916666674282816
 72
     1
 11
1838.98631286621
 21
-1412.71374177933
 31
0.0
 73
     2
  0
LINE
  5
   67D
  8
0
  6
DASHDOT
 62
     7
 10
1860.24500309295
 20
-1341.41956481933
 30
0.0
 11
1860.24500309295
 21
-1345.91956481933
 31
0.0
  0
LINE
  5
   67E
  8
0
  6
DASHDOT
 62
     7
 10
1857.99500309295
 20
-1343.66956481933
 30
0.0
 11
1862.49500309295
 21
-1343.66956481933
 31
0.0
  0
LINE
  5
   67F
  8
0
  6
DASHDOT
 62
     7
 10
1885.24500309295
 20
-1341.41956481933
 30
0.0
 11
1885.24500309295
 21
-1345.91956481933
 31
0.0
  0
LINE
  5
   680
  8
0
  6
DASHDOT
 62
     7
 10
1882.99500309295
 20
-1343.66956481933
 30
0.0
 11
1887.49500309295
 21
-1343.66956481933
 31
0.0
  0
LINE
  5
   681
  8
0
  6
DASHDOT
 62
     7
 10
1910.24502491301
 20
-1341.41955566406
 30
0.0
 11
1910.24502491301
 21
-1345.91955566406
 31
0.0
  0
LINE
  5
   682
  8
0
  6
DASHDOT
 62
     7
 10
1907.99502491301
 20
-1343.66955566406
 30
0.0
 11
1912.49502491301
 21
-1343.66955566406
 31
0.0
  0
LINE
  5
   683
  8
0
  6
DASHDOT
 62
     7
 10
1935.24498714142
 20
-1341.41956481933
 30
0.0
 11
1935.24498714142
 21
-1345.91956481933
 31
0.0
  0
LINE
  5
   684
  8
0
  6
DASHDOT
 62
     7
 10
1932.99498714142
 20
-1343.66956481933
 30
0.0
 11
1937.49498714142
 21
-1343.66956481933
 31
0.0
  0
LINE
  5
   685
  8
0
  6
DASHDOT
 62
     7
 10
1963.24499614412
 20
-1446.91955069673
 30
0.0
 11
1963.24499614412
 21
-1456.41955069673
 31
0.0
  0
LINE
  5
   686
  8
0
  6
DASHDOT
 62
     7
 10
1958.49499614412
 20
-1451.66955069673
 30
0.0
 11
1967.99499614412
 21
-1451.66955069673
 31
0.0
  0
LINE
  5
   687
  8
0
  6
DASHDOT
 62
     7
 10
1988.24499614412
 20
-1446.91955069673
 30
0.0
 11
1988.24499614412
 21
-1456.41955069673
 31
0.0
  0
LINE
  5
   688
  8
0
  6
DASHDOT
 62
     7
 10
1983.49499614412
 20
-1451.66955069673
 30
0.0
 11
1992.99499614412
 21
-1451.66955069673
 31
0.0
  0
LINE
  5
   689
  8
0
  6
DASHDOT
 62
     7
 10
2013.24499614412
 20
-1446.91955069673
 30
0.0
 11
2013.24499614412
 21
-1456.41955069673
 31
0.0
  0
LINE
  5
   68A
  8
0
  6
DASHDOT
 62
     7
 10
2008.49499614412
 20
-1451.66955069673
 30
0.0
 11
2017.99499614412
 21
-1451.66955069673
 31
0.0
  0
LINE
  5
   68B
  8
0
  6
DASHDOT
 62
     7
 10
2038.24499614412
 20
-1446.91955069673
 30
0.0
 11
2038.24499614412
 21
-1456.41955069673
 31
0.0
  0
LINE
  5
   68C
  8
0
  6
DASHDOT
 62
     7
 10
2033.49499614412
 20
-1451.66955069673
 30
0.0
 11
2042.99499614412
 21
-1451.66955069673
 31
0.0
  0
LINE
  5
   68D
  8
0
  6
DASHDOT
 62
     7
 10
1963.24499614412
 20
-1455.41955566406
 30
0.0
 11
1963.24499614412
 21
-1459.91955566406
 31
0.0
  0
LINE
  5
   68E
  8
0
  6
DASHDOT
 62
     7
 10
1960.99499614412
 20
-1457.66955566406
 30
0.0
 11
1965.49499614412
 21
-1457.66955566406
 31
0.0
  0
LINE
  5
   68F
  8
0
  6
DASHDOT
 62
     7
 10
1988.24499614412
 20
-1455.41955566406
 30
0.0
 11
1988.24499614412
 21
-1459.91955566406
 31
0.0
  0
LINE
  5
   690
  8
0
  6
DASHDOT
 62
     7
 10
1985.99499614412
 20
-1457.66955566406
 30
0.0
 11
1990.49499614412
 21
-1457.66955566406
 31
0.0
  0
LINE
  5
   691
  8
0
  6
DASHDOT
 62
     7
 10
2013.24499614412
 20
-1455.41955566406
 30
0.0
 11
2013.24499614412
 21
-1459.91955566406
 31
0.0
  0
LINE
  5
   692
  8
0
  6
DASHDOT
 62
     7
 10
2010.99499614412
 20
-1457.66955566406
 30
0.0
 11
2015.49499614412
 21
-1457.66955566406
 31
0.0
  0
LINE
  5
   693
  8
0
  6
DASHDOT
 62
     7
 10
2038.24499614412
 20
-1455.41955566406
 30
0.0
 11
2038.24499614412
 21
-1459.91955566406
 31
0.0
  0
LINE
  5
   694
  8
0
  6
DASHDOT
 62
     7
 10
2035.99499614412
 20
-1457.66955566406
 30
0.0
 11
2040.49499614412
 21
-1457.66955566406
 31
0.0
  0
INSERT
  5
   695
  8
0
  6
CONTINUOUS
 62
     3
  2
*UDIM820
 10
0.0
 20
0.0
 30
0.0
  0
INSERT
  5
   696
  8
0
  6
CONTINUOUS
 62
     3
  2
*UDIM821
 10
0.0
 20
0.0
 30
0.0
  0
INSERT
  5
   697
  8
0
  6
CONTINUOUS
 62
     7
  2
*UDIM822
 10
0.0
 20
0.0
 30
0.0
  0
INSERT
  5
   698
  8
0
  6
CONTINUOUS
 62
     7
  2
*UDIM823
 10
0.0
 20
0.0
 30
0.0
  0
LINE
  5
   699
  8
0
  6
CONTINUOUS
 62
     7
 10
1852.24499511719
 20
-1325.25493629372
 30
0.0
 11
1852.24499511719
 21
-1340.66955566406
 31
0.0
  0
LINE
  5
   69A
  8
0
  6
CONTINUOUS
 62
     7
 10
1868.24499511719
 20
-1325.25493629372
 30
0.0
 11
1868.24499511719
 21
-1340.66955566406
 31
0.0
  0
LINE
  5
   69B
  8
0
  6
CONTINUOUS
 62
     7
 10
1877.24496532137
 20
-1325.25493629372
 30
0.0
 11
1877.24496532137
 21
-1340.66955566406
 31
0.0
  0
LINE
  5
   69C
  8
0
  6
CONTINUOUS
 62
     7
 10
1893.24496532137
 20
-1325.25493629372
 30
0.0
 11
1893.24496532137
 21
-1340.66955566406
 31
0.0
  0
LINE
  5
   69D
  8
0
  6
CONTINUOUS
 62
     7
 10
1902.24502491301
 20
-1325.25493629372
 30
0.0
 11
1902.24502491301
 21
-1340.66955566406
 31
0.0
  0
LINE
  5
   69E
  8
0
  6
CONTINUOUS
 62
     7
 10
1918.24502491301
 20
-1325.25493629372
 30
0.0
 11
1918.24502491301
 21
-1340.66955566406
 31
0.0
  0
LINE
  5
   69F
  8
0
  6
CONTINUOUS
 62
     7
 10
1927.24502491301
 20
-1325.25493629372
 30
0.0
 11
1927.24502491301
 21
-1340.66955566406
 31
0.0
  0
LINE
  5
   6A0
  8
0
  6
CONTINUOUS
 62
     7
 10
1943.24502491301
 20
-1325.25493629372
 30
0.0
 11
1943.24502491301
 21
-1340.66955566406
 31
0.0
  0
ARC
  5
   6A1
  8
0
  6
CONTINUOUS
 62
     7
 10
1856.24499511719
 20
-1328.25493629372
 30
0.0
 40
5.00000000000018
 50
396.869897489952
 51
503.130102198256
  0
ARC
  5
   6A2
  8
0
  6
CONTINUOUS
 62
     7
 10
1864.24499511719
 20
-1322.25493629372
 30
0.0
 40
5.00000000000037
 50
576.869897489951
 51
683.130102198255
  0
ARC
  5
   6A3
  8
0
  6
CONTINUOUS
 62
     7
 10
1864.24499511719
 20
-1328.25493629372
 30
0.0
 40
5.0000000000003
 50
396.86989748995
 51
503.130102198256
  0
INSERT
  5
   6A4
  8
0
  6
CONTINUOUS
 62
     7
  2
*HATCH180
 10
2007.24499511719
 20
-1415.16955566406
 30
0.0
 50
269.999999844103
  0
ARC
  5
   6A5
  8
0
  6
CONTINUOUS
 62
     7
 10
1881.24499511719
 20
-1328.25493629372
 30
0.0
 40
5.00000000000018
 50
396.869897489952
 51
503.130102198256
  0
ARC
  5
   6A6
  8
0
  6
CONTINUOUS
 62
     7
 10
1889.24499511719
 20
-1328.25493629372
 30
0.0
 40
5.0000000000003
 50
396.86989748995
 51
503.130102198256
  0
ARC
  5
   6A7
  8
0
  6
CONTINUOUS
 62
     7
 10
1889.24499511719
 20
-1322.25493629372
 30
0.0
 40
5.00000000000037
 50
576.869897489951
 51
683.130102198255
  0
INSERT
  5
   6A8
  8
0
  6
CONTINUOUS
 62
     7
  2
*HATCH181
 10
2007.24499511719
 20
-1415.16955566406
 30
0.0
 50
269.999999844103
  0
ARC
  5
   6A9
  8
0
  6
CONTINUOUS
 62
     7
 10
1906.24499511719
 20
-1328.25493629372
 30
0.0
 40
5.00000000000018
 50
396.869897489952
 51
503.130102198256
  0
ARC
  5
   6AA
  8
0
  6
CONTINUOUS
 62
     7
 10
1914.24499511719
 20
-1328.25493629372
 30
0.0
 40
5.0000000000003
 50
396.86989748995
 51
503.130102198256
  0
ARC
  5
   6AB
  8
0
  6
CONTINUOUS
 62
     7
 10
1914.24499511719
 20
-1322.25493629372
 30
0.0
 40
5.00000000000037
 50
576.869897489951
 51
683.130102198255
  0
INSERT
  5
   6AC
  8
0
  6
CONTINUOUS
 62
     7
  2
*HATCH182
 10
2007.24499511719
 20
-1415.16955566406
 30
0.0
 50
269.999999844103
  0
ARC
  5
   6AD
  8
0
  6
CONTINUOUS
 62
     7
 10
1939.24499511719
 20
-1322.25493629372
 30
0.0
 40
5.00000000000037
 50
576.869897489951
 51
683.130102198255
  0
ARC
  5
   6AE
  8
0
  6
CONTINUOUS
 62
     7
 10
1931.24499511719
 20
-1328.25493629372
 30
0.0
 40
5.00000000000018
 50
396.869897489952
 51
503.130102198256
  0
ARC
  5
   6AF
  8
0
  6
CONTINUOUS
 62
     7
 10
1939.24499511719
 20
-1328.25493629372
 30
0.0
 40
5.0000000000003
 50
396.86989748995
 51
503.130102198256
  0
INSERT
  5
   6B0
  8
0
  6
CONTINUOUS
 62
     7
  2
*HATCH183
 10
2007.24499511719
 20
-1415.16955566406
 30
0.0
 50
269.999999844103
  0
LINE
  5
   6B1
  8
0
  6
CONTINUOUS
 62
     7
 10
1971.24499614412
 20
-1460.66952819825
 30
0.0
 11
1971.24499614412
 21
-1516.30774811081
 31
0.0
  0
LINE
  5
   6B2
  8
0
  6
CONTINUOUS
 62
     7
 10
1955.24499614412
 20
-1460.66952819825
 30
0.0
 11
1955.24499614412
 21
-1516.30774811081
 31
0.0
  0
ARC
  5
   6B3
  8
0
  6
CONTINUOUS
 62
     7
 10
1967.24499614412
 20
-1513.30774811081
 30
0.0
 40
5.00000000000012
 50
576.869897489949
 51
683.130102198256
  0
ARC
  5
   6B4
  8
0
  6
CONTINUOUS
 62
     7
 10
1959.24499614412
 20
-1519.30774811081
 30
0.0
 40
5.00000000000006
 50
396.869897489948
 51
503.130102198258
  0
ARC
  5
   6B5
  8
0
  6
CONTINUOUS
 62
     7
 10
1959.24499614412
 20
-1513.30774811081
 30
0.0
 40
5.00000000000012
 50
576.869897489949
 51
683.130102198257
  0
INSERT
  5
   6B6
  8
0
  6
CONTINUOUS
 62
     7
  2
*HATCH184
 10
2007.24499511719
 20
-1415.16955566406
 30
0.0
 50
269.999999844103
  0
ARC
  5
   6B7
  8
0
  6
CONTINUOUS
 62
     7
 10
1984.24499614412
 20
-1513.30774811081
 30
0.0
 40
5.00000000000012
 50
576.869897489949
 51
683.130102198257
  0
ARC
  5
   6B8
  8
0
  6
CONTINUOUS
 62
     7
 10
1984.24499614412
 20
-1519.30774811081
 30
0.0
 40
5.00000000000006
 50
396.869897489948
 51
503.130102198258
  0
ARC
  5
   6B9
  8
0
  6
CONTINUOUS
 62
     7
 10
1992.24499614412
 20
-1513.30774811081
 30
0.0
 40
5.00000000000012
 50
576.869897489949
 51
683.130102198256
  0
LINE
  5
   6BA
  8
0
  6
CONTINUOUS
 62
     7
 10
1980.24499614412
 20
-1460.66952819825
 30
0.0
 11
1980.24499614412
 21
-1516.30774811081
 31
0.0
  0
LINE
  5
   6BB
  8
0
  6
CONTINUOUS
 62
     7
 10
1996.24499614412
 20
-1460.66952819825
 30
0.0
 11
1996.24499614412
 21
-1516.30774811081
 31
0.0
  0
INSERT
  5
   6BC
  8
0
  6
CONTINUOUS
 62
     7
  2
*HATCH185
 10
2007.24499511719
 20
-1415.16955566406
 30
0.0
 50
269.999999844103
  0
LINE
  5
   6BD
  8
0
  6
CONTINUOUS
 62
     7
 10
2021.24499614412
 20
-1460.66952819825
 30
0.0
 11
2021.24499614412
 21
-1516.30774811081
 31
0.0
  0
LINE
  5
   6BE
  8
0
  6
CONTINUOUS
 62
     7
 10
2005.24499614412
 20
-1460.66952819825
 30
0.0
 11
2005.24499614412
 21
-1516.30774811081
 31
0.0
  0
ARC
  5
   6BF
  8
0
  6
CONTINUOUS
 62
     7
 10
2017.24499614412
 20
-1513.30774811081
 30
0.0
 40
5.00000000000012
 50
576.869897489949
 51
683.130102198256
  0
ARC
  5
   6C0
  8
0
  6
CONTINUOUS
 62
     7
 10
2009.24499614412
 20
-1519.30774811081
 30
0.0
 40
5.00000000000006
 50
396.869897489948
 51
503.130102198258
  0
ARC
  5
   6C1
  8
0
  6
CONTINUOUS
 62
     7
 10
2009.24499614412
 20
-1513.30774811081
 30
0.0
 40
5.00000000000012
 50
576.869897489949
 51
683.130102198257
  0
INSERT
  5
   6C2
  8
0
  6
CONTINUOUS
 62
     7
  2
*HATCH186
 10
2007.24499511719
 20
-1415.16955566406
 30
0.0
 50
269.999999844103
  0
ARC
  5
   6C3
  8
0
  6
CONTINUOUS
 62
     7
 10
2034.24499614412
 20
-1513.30774811081
 30
0.0
 40
5.00000000000012
 50
576.869897489949
 51
683.130102198257
  0
ARC
  5
   6C4
  8
0
  6
CONTINUOUS
 62
     7
 10
2034.24499614412
 20
-1519.30774811081
 30
0.0
 40
5.00000000000006
 50
396.869897489948
 51
503.130102198258
  0
ARC
  5
   6C5
  8
0
  6
CONTINUOUS
 62
     7
 10
2042.24499614412
 20
-1513.30774811081
 30
0.0
 40
5.00000000000012
 50
576.869897489949
 51
683.130102198256
  0
LINE
  5
   6C6
  8
0
  6
CONTINUOUS
 62
     7
 10
2030.24499614412
 20
-1460.66952819825
 30
0.0
 11
2030.24499614412
 21
-1516.30774811081
 31
0.0
  0
LINE
  5
   6C7
  8
0
  6
CONTINUOUS
 62
     7
 10
2046.24499614412
 20
-1460.66952819825
 30
0.0
 11
2046.24499614412
 21
-1516.30774811081
 31
0.0
  0
INSERT
  5
   6C8
  8
0
  6
CONTINUOUS
 62
     7
  2
*HATCH187
 10
2007.24499511719
 20
-1415.16955566406
 30
0.0
 50
269.999999844103
  0
ARC
  5
   6C9
  8
0
  6
DOT
 62
     7
 10
1986.74499563065
 20
-1449.16954091874
 30
0.0
 40
46.4999994865345
 50
339.306462078224
 51
345.681519017316
  0
ARC
  5
   6CA
  8
0
  6
DOT
 62
     7
 10
1986.74499563065
 20
-1449.16954091874
 30
0.0
 40
56.4999994865345
 50
320.345943981442
 51
348.255977893203
  0
ARC
  5
   6CB
  8
0
  6
CONTINUOUS
 62
     7
 10
1986.74499563065
 20
-1449.16954091874
 30
0.0
 40
46.4999994865345
 50
317.896552617096
 51
339.306462078224
  0
ARC
  5
   6CC
  8
0
  6
CONTINUOUS
 62
     7
 10
1986.74499563065
 20
-1449.16954091874
 30
0.0
 40
56.4999994865345
 50
307.634309001075
 51
320.345943981442
  0
ARC
  5
   6CD
  8
0
  6
DOT
 62
     7
 10
1986.74499563065
 20
-1449.16954091874
 30
0.0
 40
56.4999994865345
 50
289.113081567864
 51
307.634309001075
  0
ARC
  5
   6CE
  8
0
  6
DOT
 62
     7
 10
1986.74499563065
 20
-1449.16954091874
 30
0.0
 40
46.4999994865345
 50
293.443807456246
 51
317.896552617096
  0
ARC
  5
   6CF
  8
0
  6
DOT
 62
     7
 10
1961.74499563065
 20
-1449.16954091874
 30
0.0
 40
56.4999994865345
 50
320.345943981442
 51
348.25596524958
  0
ARC
  5
   6D0
  8
0
  6
DOT
 62
     7
 10
1961.74499563065
 20
-1449.16954091874
 30
0.0
 40
46.4999994865345
 50
339.306462078224
 51
345.681503494011
  0
ARC
  5
   6D1
  8
0
  6
CONTINUOUS
 62
     7
 10
1961.74499563065
 20
-1449.16954091874
 30
0.0
 40
46.4999994865345
 50
317.896552617096
 51
339.306462078224
  0
ARC
  5
   6D2
  8
0
  6
CONTINUOUS
 62
     7
 10
1961.74499563065
 20
-1449.16954091874
 30
0.0
 40
56.4999994865345
 50
307.634309001075
 51
320.345943981442
  0
ARC
  5
   6D3
  8
0
  6
CONTINUOUS
 62
     7
 10
1986.74499563065
 20
-1449.16954091874
 30
0.0
 40
46.4999994865345
 50
281.788588348925
 51
293.443807456246
  0
ARC
  5
   6D4
  8
0
  6
CONTINUOUS
 62
     7
 10
1986.74499563065
 20
-1449.16954091874
 30
0.0
 40
56.4999994865345
 50
279.679785348692
 51
289.113081567864
  0
ARC
  5
   6D5
  8
0
  6
DOT
 62
     7
 10
1986.74499563065
 20
-1449.16954091874
 30
0.0
 40
56.4999994865345
 50
623.393823108961
 51
639.679785348692
  0
ARC
  5
   6D6
  8
0
  6
DOT
 62
     7
 10
1986.74499563065
 20
-1449.16954091874
 30
0.0
 40
46.4999994865345
 50
621.964598185419
 51
641.788588348925
  0
ARC
  5
   6D7
  8
0
  6
DOT
 62
     7
 10
1961.74499563065
 20
-1449.16954091874
 30
0.0
 40
46.4999994865345
 50
293.443807456246
 51
317.896552617096
  0
ARC
  5
   6D8
  8
0
  6
DOT
 62
     7
 10
1936.74499563065
 20
-1449.16954091874
 30
0.0
 40
56.4999994865345
 50
320.345943981442
 51
348.25596524958
  0
ARC
  5
   6D9
  8
0
  6
DOT
 62
     7
 10
1936.74499563065
 20
-1449.16954091874
 30
0.0
 40
46.4999994865345
 50
339.306462078224
 51
345.681503494011
  0
ARC
  5
   6DA
  8
0
  6
CONTINUOUS
 62
     7
 10
1936.74499563065
 20
-1449.16954091874
 30
0.0
 40
46.4999994865345
 50
317.896552617097
 51
339.306462078224
  0
ARC
  5
   6DB
  8
0
  6
CONTINUOUS
 62
     7
 10
1986.74499563065
 20
-1449.16954091874
 30
0.0
 40
46.4999994865345
 50
610.528779656982
 51
621.964598185419
  0
ARC
  5
   6DC
  8
0
  6
CONTINUOUS
 62
     7
 10
1986.74499563065
 20
-1449.16954091874
 30
0.0
 40
56.4999994865345
 50
614.077535348649
 51
623.393823108961
  0
ARC
  5
   6DD
  8
0
  6
CONTINUOUS
 62
     7
 10
1961.74499563065
 20
-1449.16954091874
 30
0.0
 40
56.4999994865345
 50
279.679785348692
 51
282.781812166352
  0
ARC
  5
   6DE
  8
0
  6
DOT
 62
     7
 10
1961.74499563065
 20
-1449.16954091874
 30
0.0
 40
56.4999994865345
 50
623.393823108961
 51
639.679785348692
  0
ARC
  5
   6DF
  8
0
  6
DOT
 62
     7
 10
1986.74499563065
 20
-1449.16954091874
 30
0.0
 40
56.4999994865345
 50
596.115391401608
 51
614.077535348649
  0
ARC
  5
   6E0
  8
0
  6
DOT
 62
     7
 10
1986.74499563065
 20
-1449.16954091874
 30
0.0
 40
46.4999994865345
 50
587.35769014161
 51
610.528779656982
  0
INSERT
  5
   6E1
  8
255
  6
CONTINUOUS
 62
     7
  2
DIAFRAMMA
 10
1872.74503125789
 20
-1342.66955566406
 30
0.0
 50
359.999999792138
  0
INSERT
  5
   6E2
  8
255
  6
CONTINUOUS
 62
     7
  2
DIAFRAMMA
 10
1897.74503125789
 20
-1342.66955566406
 30
0.0
 50
359.999999792138
  0
INSERT
  5
   6E3
  8
255
  6
CONTINUOUS
 62
     7
  2
DIAFRAMMA
 10
1922.74503125789
 20
-1342.66955566406
 30
0.0
 50
359.999999792138
  0
ARC
  5
   6E4
  8
0
  6
DOT
 62
     7
 10
1911.74499563065
 20
-1449.16954091874
 30
0.0
 40
46.4999994865345
 50
339.306462078224
 51
345.681519017316
  0
LINE
  5
   6E5
  8
0
  6
CONTINUOUS
 62
     7
 10
1946.7450062561
 20
-1342.16954345705
 30
0.0
 11
1951.74499923706
 21
-1342.16954345705
 31
0.0
  0
LINE
  5
   6E6
  8
0
  6
CONTINUOUS
 62
     7
 10
1946.7450062561
 20
-1459.16954040527
 30
0.0
 11
1951.24499923707
 21
-1459.16954040527
 31
0.0
  0
LINE
  5
   6E7
  8
0
  6
DASHDOT
 62
     7
 10
1956.57728730955
 20
-1414.66952514649
 30
0.0
 11
1970.82915107407
 21
-1414.66952514649
 31
0.0
  0
LINE
  5
   6E8
  8
0
  6
CONTINUOUS
 62
     7
 10
1957.9949670105
 20
-1399.36952514649
 30
0.0
 11
1969.4949670105
 21
-1399.36952514649
 31
0.0
  0
LINE
  5
   6E9
  8
0
  6
CONTINUOUS
 62
     7
 10
1957.99496781921
 20
-1394.06952514649
 30
0.0
 11
1969.49496781921
 21
-1394.06952514649
 31
0.0
  0
LINE
  5
   6EA
  8
0
  6
DASHDOT
 62
     7
 10
1963.74496824555
 20
-1391.2755110902
 30
0.0
 11
1963.74496302263
 21
-1425.50444894954
 31
0.0
  0
LINE
  5
   6EB
  8
0
  6
CONTINUOUS
 62
     7
 10
1957.99496781921
 20
-1394.06952514649
 30
0.0
 11
1957.9949670105
 21
-1399.36952514649
 31
0.0
  0
LINE
  5
   6EC
  8
0
  6
CONTINUOUS
 62
     7
 10
1969.49496781921
 20
-1394.06952514649
 30
0.0
 11
1969.4949670105
 21
-1399.36952514649
 31
0.0
  0
LINE
  5
   6ED
  8
0
  6
CONTINUOUS
 62
     7
 10
1957.99496334076
 20
-1423.41952514649
 30
0.0
 11
1958.04509233037
 21
-1423.41952514649
 31
0.0
  0
LINE
  5
   6EE
  8
0
  6
CONTINUOUS
 62
     7
 10
1957.99496334076
 20
-1409.66952514649
 30
0.0
 11
1969.49496334076
 21
-1409.66952514649
 31
0.0
  0
LINE
  5
   6EF
  8
0
  6
CONTINUOUS
 62
     7
 10
1957.99496334076
 20
-1419.66952514649
 30
0.0
 11
1969.49496334076
 21
-1419.66952514649
 31
0.0
  0
LINE
  5
   6F0
  8
0
  6
CONTINUOUS
 62
     7
 10
1958.04509233037
 20
-1399.36952514649
 30
0.0
 11
1958.04509233037
 21
-1404.66952514649
 31
0.0
  0
LINE
  5
   6F1
  8
0
  6
CONTINUOUS
 62
     7
 10
1957.99496620178
 20
-1404.66952514649
 30
0.0
 11
1957.99496334076
 21
-1423.41952514649
 31
0.0
  0
LINE
  5
   6F2
  8
0
  6
CONTINUOUS
 62
     7
 10
1969.49496620178
 20
-1404.66952514649
 30
0.0
 11
1969.49496334076
 21
-1423.41952514649
 31
0.0
  0
LINE
  5
   6F3
  8
0
  6
CONTINUOUS
 62
     7
 10
1958.54509233037
 20
-1399.36952514649
 30
0.0
 11
1958.54509233037
 21
-1404.66952514649
 31
0.0
  0
LINE
  5
   6F4
  8
0
  6
CONTINUOUS
 62
     7
 10
1959.84509233037
 20
-1399.36952514649
 30
0.0
 11
1959.84509233037
 21
-1404.66952514649
 31
0.0
  0
LINE
  5
   6F5
  8
0
  6
CONTINUOUS
 62
     7
 10
1960.34509233037
 20
-1399.36952514649
 30
0.0
 11
1960.34509233037
 21
-1404.66952514649
 31
0.0
  0
LINE
  5
   6F6
  8
0
  6
CONTINUOUS
 62
     7
 10
1961.64509233037
 20
-1399.36952514649
 30
0.0
 11
1961.64509233037
 21
-1404.66952514649
 31
0.0
  0
LINE
  5
   6F7
  8
0
  6
CONTINUOUS
 62
     7
 10
1962.14509233037
 20
-1399.36952514649
 30
0.0
 11
1962.14509233037
 21
-1404.66952514649
 31
0.0
  0
LINE
  5
   6F8
  8
0
  6
CONTINUOUS
 62
     7
 10
1963.44509233037
 20
-1399.36952514649
 30
0.0
 11
1963.44509233037
 21
-1404.66952514649
 31
0.0
  0
LINE
  5
   6F9
  8
0
  6
CONTINUOUS
 62
     7
 10
1963.94509233037
 20
-1399.36952514649
 30
0.0
 11
1963.94509233037
 21
-1404.66952514649
 31
0.0
  0
LINE
  5
   6FA
  8
0
  6
CONTINUOUS
 62
     7
 10
1965.24509233037
 20
-1399.36952514649
 30
0.0
 11
1965.24509233037
 21
-1404.66952514649
 31
0.0
  0
LINE
  5
   6FB
  8
0
  6
CONTINUOUS
 62
     7
 10
1965.74509233037
 20
-1399.36952514649
 30
0.0
 11
1965.74509233037
 21
-1404.66952514649
 31
0.0
  0
LINE
  5
   6FC
  8
0
  6
CONTINUOUS
 62
     7
 10
1967.04509233037
 20
-1399.36952514649
 30
0.0
 11
1967.04509233037
 21
-1404.66952514649
 31
0.0
  0
LINE
  5
   6FD
  8
0
  6
CONTINUOUS
 62
     7
 10
1967.54509233037
 20
-1399.36952514649
 30
0.0
 11
1967.54509233037
 21
-1404.66952514649
 31
0.0
  0
LINE
  5
   6FE
  8
0
  6
CONTINUOUS
 62
     7
 10
1968.84509233037
 20
-1399.36952514649
 30
0.0
 11
1968.84509233037
 21
-1404.66952514649
 31
0.0
  0
LINE
  5
   6FF
  8
0
  6
CONTINUOUS
 62
     7
 10
1969.34509233037
 20
-1399.36952514649
 30
0.0
 11
1969.34509233037
 21
-1404.66952514649
 31
0.0
  0
LINE
  5
   700
  8
0
  6
CONTINUOUS
 62
     7
 10
1958.04509233037
 20
-1422.91952514649
 30
0.0
 11
1958.54509233037
 21
-1422.91952514649
 31
0.0
  0
LINE
  5
   701
  8
0
  6
CONTINUOUS
 62
     7
 10
1958.54509233037
 20
-1423.41952514649
 30
0.0
 11
1959.84509233037
 21
-1423.41952514649
 31
0.0
  0
LINE
  5
   702
  8
0
  6
CONTINUOUS
 62
     7
 10
1959.84509233037
 20
-1422.91952514649
 30
0.0
 11
1960.34509233037
 21
-1422.91952514649
 31
0.0
  0
LINE
  5
   703
  8
0
  6
CONTINUOUS
 62
     7
 10
1960.34509233037
 20
-1423.41952514649
 30
0.0
 11
1961.64509233037
 21
-1423.41952514649
 31
0.0
  0
LINE
  5
   704
  8
0
  6
CONTINUOUS
 62
     7
 10
1961.64509233037
 20
-1422.91952514649
 30
0.0
 11
1962.14509233037
 21
-1422.91952514649
 31
0.0
  0
LINE
  5
   705
  8
0
  6
CONTINUOUS
 62
     7
 10
1962.14509233037
 20
-1423.41952514649
 30
0.0
 11
1963.44509233037
 21
-1423.41952514649
 31
0.0
  0
LINE
  5
   706
  8
0
  6
CONTINUOUS
 62
     7
 10
1963.44509233037
 20
-1422.91952514649
 30
0.0
 11
1963.94509233037
 21
-1422.91952514649
 31
0.0
  0
LINE
  5
   707
  8
0
  6
CONTINUOUS
 62
     7
 10
1963.94509233037
 20
-1423.41952514649
 30
0.0
 11
1965.24509233037
 21
-1423.41952514649
 31
0.0
  0
LINE
  5
   708
  8
0
  6
CONTINUOUS
 62
     7
 10
1965.24509233037
 20
-1422.91952514649
 30
0.0
 11
1965.74509233037
 21
-1422.91952514649
 31
0.0
  0
LINE
  5
   709
  8
0
  6
CONTINUOUS
 62
     7
 10
1965.74509233037
 20
-1423.41952514649
 30
0.0
 11
1967.04509233037
 21
-1423.41952514649
 31
0.0
  0
LINE
  5
   70A
  8
0
  6
CONTINUOUS
 62
     7
 10
1967.04509233037
 20
-1422.91952514649
 30
0.0
 11
1967.54509233037
 21
-1422.91952514649
 31
0.0
  0
LINE
  5
   70B
  8
0
  6
CONTINUOUS
 62
     7
 10
1967.54509233037
 20
-1423.41952514649
 30
0.0
 11
1968.84509233037
 21
-1423.41952514649
 31
0.0
  0
LINE
  5
   70C
  8
0
  6
CONTINUOUS
 62
     7
 10
1968.84509233037
 20
-1422.91952514649
 30
0.0
 11
1969.34509233037
 21
-1422.91952514649
 31
0.0
  0
LINE
  5
   70D
  8
0
  6
CONTINUOUS
 62
     7
 10
1969.34509233037
 20
-1423.41952514649
 30
0.0
 11
1969.49496334076
 21
-1423.41952514649
 31
0.0
  0
LINE
  5
   70E
  8
0
  6
CONTINUOUS
 62
     7
 10
1969.34509233037
 20
-1422.91952514649
 30
0.0
 11
1969.34509233037
 21
-1444.66955566406
 31
0.0
  0
LINE
  5
   70F
  8
0
  6
CONTINUOUS
 62
     7
 10
1968.84509233037
 20
-1422.91952514649
 30
0.0
 11
1968.84509233037
 21
-1444.66955566406
 31
0.0
  0
LINE
  5
   710
  8
0
  6
CONTINUOUS
 62
     7
 10
1967.54509233037
 20
-1422.91952514649
 30
0.0
 11
1967.54509233037
 21
-1440.16955566406
 31
0.0
  0
LINE
  5
   711
  8
0
  6
CONTINUOUS
 62
     7
 10
1967.04509233037
 20
-1422.91952514649
 30
0.0
 11
1967.04509233037
 21
-1440.16955566406
 31
0.0
  0
LINE
  5
   712
  8
0
  6
CONTINUOUS
 62
     7
 10
1965.74509233037
 20
-1422.91952514649
 30
0.0
 11
1965.74509233037
 21
-1440.16955566406
 31
0.0
  0
LINE
  5
   713
  8
0
  6
CONTINUOUS
 62
     7
 10
1965.24509233037
 20
-1422.91952514649
 30
0.0
 11
1965.24509233037
 21
-1440.16955566406
 31
0.0
  0
LINE
  5
   714
  8
0
  6
CONTINUOUS
 62
     7
 10
1963.94509233037
 20
-1422.91952514649
 30
0.0
 11
1963.94509233037
 21
-1440.16955566406
 31
0.0
  0
LINE
  5
   715
  8
0
  6
CONTINUOUS
 62
     7
 10
1963.44509233037
 20
-1422.91952514649
 30
0.0
 11
1963.44509233037
 21
-1440.16955566406
 31
0.0
  0
LINE
  5
   716
  8
0
  6
CONTINUOUS
 62
     7
 10
1962.14509233037
 20
-1422.91952514649
 30
0.0
 11
1962.14509233037
 21
-1440.16955566406
 31
0.0
  0
LINE
  5
   717
  8
0
  6
CONTINUOUS
 62
     7
 10
1961.64509233037
 20
-1422.91952514649
 30
0.0
 11
1961.64509233037
 21
-1440.16955566406
 31
0.0
  0
LINE
  5
   718
  8
0
  6
CONTINUOUS
 62
     7
 10
1960.34509233037
 20
-1422.91952514649
 30
0.0
 11
1960.34509233037
 21
-1440.16955566406
 31
0.0
  0
LINE
  5
   719
  8
0
  6
CONTINUOUS
 62
     7
 10
1959.84509233037
 20
-1422.91952514649
 30
0.0
 11
1959.84509233037
 21
-1440.16955566406
 31
0.0
  0
LINE
  5
   71A
  8
0
  6
CONTINUOUS
 62
     7
 10
1958.54509233037
 20
-1422.91952514649
 30
0.0
 11
1958.54509233037
 21
-1440.16955566406
 31
0.0
  0
LINE
  5
   71B
  8
0
  6
CONTINUOUS
 62
     7
 10
1958.04509233037
 20
-1422.91952514649
 30
0.0
 11
1958.04509233037
 21
-1444.66955566406
 31
0.0
  0
LINE
  5
   71C
  8
0
  6
DASHDOT
 62
     7
 10
1956.57728730955
 20
-1396.71952514649
 30
0.0
 11
1970.82915107407
 21
-1396.71952514649
 31
0.0
  0
TEXT
  5
   71D
  8
0
  6
CONTINUOUS
 62
     7
 10
1959.6199673698
 20
-1398.21952515019
 30
0.0
 40
3.00000002980232
  1
TEST
 50
359.999999844103
 41
0.75
 72
     1
 11
1963.74496741486
 21
-1396.71952514649
 31
0.0
 73
     2
  0
TEXT
  5
   71E
  8
0
  6
CONTINUOUS
 62
     7
 10
2031.74497636487
 20
-1394.41951903208
 30
0.0
 40
3.00000002980232
  1
RC210/1
 50
359.999999844103
 41
0.933333333333333
 72
     1
 11
2041.24497646331
 21
-1392.91951904298
 31
0.0
 73
     2
  0
TEXT
  5
   71F
  8
0
  6
CONTINUOUS
 62
     7
 10
1941.74496796578
 20
-1394.4195251546
 30
0.0
 40
3.00000002980232
  1
S1
 50
359.999999844103
 41
0.933333333333333
 72
     1
 11
1944.24496799469
 21
-1392.91952514649
 31
0.0
 73
     2
  0
LINE
  5
   720
  8
0
  6
CONTINUOUS
 62
     7
 10
1957.99496334076
 20
-1404.66952514649
 30
0.0
 11
1969.49496334076
 21
-1404.66952514649
 31
0.0
  0
LINE
  5
   721
  8
0
  6
CONTINUOUS
 62
     7
 10
1957.99496334076
 20
-1405.66952514649
 30
0.0
 11
1969.49496334076
 21
-1405.66952514649
 31
0.0
  0
LINE
  5
   722
  8
0
  6
CONTINUOUS
 62
     7
 10
1957.99496334076
 20
-1408.66952514649
 30
0.0
 11
1969.49496334076
 21
-1408.66952514649
 31
0.0
  0
LINE
  5
   723
  8
0
  6
CONTINUOUS
 62
     7
 10
2002.24495173801
 20
-1340.66967773437
 30
0.0
 11
2002.24495173801
 21
-1342.66967773437
 31
0.0
  0
LINE
  5
   724
  8
0
  6
CONTINUOUS
 62
     7
 10
1999.24495173801
 20
-1340.66967773437
 30
0.0
 11
1999.24495173801
 21
-1342.66967773437
 31
0.0
  0
LINE
  5
   725
  8
0
  6
CONTINUOUS
 62
     7
 10
2002.24495173801
 20
-1342.66967773437
 30
0.0
 11
2003.24495173801
 21
-1342.66967773437
 31
0.0
  0
LINE
  5
   726
  8
0
  6
CONTINUOUS
 62
     7
 10
1998.24495078434
 20
-1342.66967773437
 30
0.0
 11
1999.24495173801
 21
-1342.66967773437
 31
0.0
  0
LINE
  5
   727
  8
0
  6
CONTINUOUS
 62
     7
 10
2010.74502491301
 20
-1340.66967773437
 30
0.0
 11
2024.24501037598
 21
-1340.66967773437
 31
0.0
  0
LINE
  5
   728
  8
0
  6
CONTINUOUS
 62
     7
 10
2024.24503849637
 20
-1340.66967773437
 30
0.0
 11
2024.24503849637
 21
-1342.66967773437
 31
0.0
  0
LINE
  5
   729
  8
0
  6
CONTINUOUS
 62
     7
 10
2027.24503849637
 20
-1340.66967773437
 30
0.0
 11
2027.24503849637
 21
-1342.66967773437
 31
0.0
  0
LINE
  5
   72A
  8
0
  6
CONTINUOUS
 62
     7
 10
2023.24503849637
 20
-1342.66967773437
 30
0.0
 11
2024.24503849637
 21
-1342.66967773437
 31
0.0
  0
LINE
  5
   72B
  8
0
  6
CONTINUOUS
 62
     7
 10
2027.24503849637
 20
-1342.66967773437
 30
0.0
 11
2028.24503945003
 21
-1342.66967773437
 31
0.0
  0
LINE
  5
   72C
  8
0
  6
CONTINUOUS
 62
     7
 10
1974.24495173801
 20
-1340.66967773437
 30
0.0
 11
1974.24495173801
 21
-1342.66967773437
 31
0.0
  0
LINE
  5
   72D
  8
0
  6
CONTINUOUS
 62
     7
 10
1977.24495173801
 20
-1340.66967773437
 30
0.0
 11
1977.24495173801
 21
-1342.66967773437
 31
0.0
  0
LINE
  5
   72E
  8
0
  6
CONTINUOUS
 62
     7
 10
1973.24495078434
 20
-1342.66967773437
 30
0.0
 11
1974.24495173801
 21
-1342.66967773437
 31
0.0
  0
LINE
  5
   72F
  8
0
  6
CONTINUOUS
 62
     7
 10
1977.24495173801
 20
-1342.66967773437
 30
0.0
 11
1978.24495173801
 21
-1342.66967773437
 31
0.0
  0
LINE
  5
   730
  8
0
  6
CONTINUOUS
 62
     7
 10
1974.24503849637
 20
-1458.66967773437
 30
0.0
 11
1974.24503849637
 21
-1460.66967773437
 31
0.0
  0
LINE
  5
   731
  8
0
  6
CONTINUOUS
 62
     7
 10
1973.24503849637
 20
-1458.66967773437
 30
0.0
 11
1974.24503849637
 21
-1458.66967773437
 31
0.0
  0
LINE
  5
   732
  8
0
  6
CONTINUOUS
 62
     7
 10
1977.24503849637
 20
-1458.66967773437
 30
0.0
 11
1978.24503945003
 21
-1458.66967773437
 31
0.0
  0
LINE
  5
   733
  8
0
  6
CONTINUOUS
 62
     7
 10
1977.24503849637
 20
-1458.66967773437
 30
0.0
 11
1977.24503849637
 21
-1460.66967773437
 31
0.0
  0
LINE
  5
   734
  8
0
  6
CONTINUOUS
 62
     7
 10
2023.24503849637
 20
-1458.66967773437
 30
0.0
 11
2024.24503849637
 21
-1458.66967773437
 31
0.0
  0
LINE
  5
   735
  8
0
  6
CONTINUOUS
 62
     7
 10
2024.24503849637
 20
-1458.66967773437
 30
0.0
 11
2024.24503849637
 21
-1460.66967773437
 31
0.0
  0
LINE
  5
   736
  8
0
  6
CONTINUOUS
 62
     7
 10
2027.24503849637
 20
-1458.66967773437
 30
0.0
 11
2027.24503849637
 21
-1460.66967773437
 31
0.0
  0
LINE
  5
   737
  8
0
  6
CONTINUOUS
 62
     7
 10
2027.24503849637
 20
-1458.66967773437
 30
0.0
 11
2028.24503945003
 21
-1458.66967773437
 31
0.0
  0
LINE
  5
   738
  8
0
  6
CONTINUOUS
 62
     7
 10
1999.24503849637
 20
-1458.66967773437
 30
0.0
 11
1999.24503849637
 21
-1460.66967773437
 31
0.0
  0
LINE
  5
   739
  8
0
  6
CONTINUOUS
 62
     7
 10
1998.24503849637
 20
-1458.66967773437
 30
0.0
 11
1999.24503849637
 21
-1458.66967773437
 31
0.0
  0
LINE
  5
   73A
  8
0
  6
CONTINUOUS
 62
     7
 10
2002.24503849637
 20
-1458.66967773437
 30
0.0
 11
2003.24503945003
 21
-1458.66967773437
 31
0.0
  0
LINE
  5
   73B
  8
0
  6
CONTINUOUS
 62
     7
 10
2002.24503849637
 20
-1458.66967773437
 30
0.0
 11
2002.24503849637
 21
-1460.66967773437
 31
0.0
  0
ENDSEC
  0
EOF
