  0
SECTION
  2
HEADER
  9
$ACADVER
  1
AC1009
  9
$DWGCODEPAGE
  3
iso8859-1
  9
$INSBASE
 10
0.0
 20
0.0
 30
0.0
  9
$EXTMIN
 10
1.0E20
 20
1.0E20
  9
$EXTMAX
 10
-1.0E20
 20
-1.0E20
  9
$LIMMIN
 10
0.0
 20
0.0
  9
$LIMMAX
 10
12.0
 20
9.0
  9
$ORTHOMODE
 70
     0
  9
$REGENMODE
 70
     1
  9
$FILLMODE
 70
     1
  9
$QTEXTMODE
 70
     0
  9
$MIRRTEXT
 70
     1
  9
$DRAGMODE
 70
     2
  9
$LTSCALE
 40
15.0
  9
$OSMODE
 70
     0
  9
$ATTMODE
 70
     1
  9
$TEXTSIZE
 40
0.2
  9
$TRACEWID
 40
0.05
  9
$TEXTSTYLE
  7
STANDARD
  9
$CLAYER
  8
0
  9
$CELTYPE
  6
DASHED
  9
$CECOLOR
 62
   256
  9
$DIMSCALE
 40
1.0
  9
$DIMASZ
 40
0.18
  9
$DIMEXO
 40
0.0625
  9
$DIMDLI
 40
0.38
  9
$DIMRND
 40
0.0
  9
$DIMDLE
 40
0.0
  9
$DIMEXE
 40
0.18
  9
$DIMTP
 40
0.0
  9
$DIMTM
 40
0.0
  9
$DIMTXT
 40
0.18
  9
$DIMCEN
 40
0.09
  9
$DIMTSZ
 40
0.0
  9
$DIMTOL
 70
     0
  9
$DIMLIM
 70
     0
  9
$DIMTIH
 70
     1
  9
$DIMTOH
 70
     1
  9
$DIMSE1
 70
     0
  9
$DIMSE2
 70
     0
  9
$DIMTAD
 70
     0
  9
$DIMZIN
 70
     0
  9
$DIMBLK
  1

  9
$DIMASO
 70
     1
  9
$DIMSHO
 70
     1
  9
$DIMPOST
  1

  9
$DIMAPOST
  1

  9
$DIMALT
 70
     0
  9
$DIMALTD
 70
     2
  9
$DIMALTF
 40
25.4
  9
$DIMLFAC
 40
1.0
  9
$DIMTOFL
 70
     0
  9
$DIMTVP
 40
0.0
  9
$DIMTIX
 70
     0
  9
$DIMSOXD
 70
     0
  9
$DIMSAH
 70
     0
  9
$DIMBLK1
  1

  9
$DIMBLK2
  1

  9
$DIMSTYLE
  2
STANDARD
  9
$DIMCLRD
 70
     0
  9
$DIMCLRE
 70
     0
  9
$DIMCLRT
 70
     0
  9
$DIMTFAC
 40
1.0
  9
$DIMGAP
 40
0.09
  9
$LUNITS
 70
     2
  9
$LUPREC
 70
     4
  9
$AXISMODE
 70
     0
  9
$AXISUNIT
 10
0.0
 20
0.0
  9
$SKETCHINC
 40
0.1
  9
$FILLETRAD
 40
0.0
  9
$AUNITS
 70
     0
  9
$AUPREC
 70
     0
  9
$MENU
  1
acad
  9
$ELEVATION
 40
0.0
  9
$PELEVATION
 40
0.0
  9
$THICKNESS
 40
0.0
  9
$LIMCHECK
 70
     0
  9
$BLIPMODE
 70
     1
  9
$CHAMFERA
 40
0.0
  9
$CHAMFERB
 40
0.0
  9
$SKPOLY
 70
     0
  9
$TDCREATE
 40
0.000000000
  9
$TDUPDATE
 40
0.000000000
  9
$TDINDWG
 40
0.0
  9
$TDUSRTIMER
 40
0.0
  9
$USRTIMER
 70
     1
  9
$ANGBASE
 50
0.0
  9
$ANGDIR
 70
     0
  9
$PDMODE
 70
     0
  9
$PDSIZE
 40
0.0
  9
$PLINEWID
 40
0.0
  9
$COORDS
 70
     1
  9
$SPLFRAME
 70
     0
  9
$SPLINETYPE
 70
     6
  9
$SPLINESEGS
 70
     8
  9
$ATTDIA
 70
     0
  9
$ATTREQ
 70
     1
  9
$HANDLING
 70
     1
  9
$HANDSEED
  5
   796
  9
$SURFTAB1
 70
     6
  9
$SURFTAB2
 70
     6
  9
$SURFTYPE
 70
     6
  9
$SURFU
 70
     6
  9
$SURFV
 70
     6
  9
$UCSNAME
  2

  9
$UCSORG
 10
0.0
 20
0.0
 30
0.0
  9
$UCSXDIR
 10
1.0
 20
0.0
 30
0.0
  9
$UCSYDIR
 10
0.0
 20
1.0
 30
0.0
  9
$PUCSNAME
  2

  9
$PUCSORG
 10
0.0
 20
0.0
 30
0.0
  9
$PUCSXDIR
 10
1.0
 20
0.0
 30
0.0
  9
$PUCSYDIR
 10
0.0
 20
1.0
 30
0.0
  9
$USERI1
 70
     0
  9
$USERI2
 70
     0
  9
$USERI3
 70
     0
  9
$USERI4
 70
     0
  9
$USERI5
 70
     0
  9
$USERR1
 40
0.0
  9
$USERR2
 40
0.0
  9
$USERR3
 40
0.0
  9
$USERR4
 40
0.0
  9
$USERR5
 40
0.0
  9
$WORLDVIEW
 70
     1
  9
$SHADEDGE
 70
     3
  9
$SHADEDIF
 70
    70
  9
$TILEMODE
 70
     1
  9
$MAXACTVP
 70
    16
  9
$PINSBASE
 10
0.0
 20
0.0
 30
0.0
  9
$PLIMCHECK
 70
     0
  9
$PEXTMIN
 10
1.0E20
 20
1.0E20
 30
1.0E20
  9
$PEXTMAX
 10
-1.0E20
 20
-1.0E20
 30
-1.0E20
  9
$PLIMMIN
 10
0.0
 20
0.0
  9
$PLIMMAX
 10
12.0
 20
9.0
  9
$UNITMODE
 70
     0
  9
$VISRETAIN
 70
     0
  0
ENDSEC
  0
SECTION
  2
TABLES
  0
TABLE
  2
VPORT
 70
     1
  0
VPORT
  2
*ACTIVE
 70
     0
 10
0.0
 20
0.0
 11
1.0
 21
1.0
 12
6.801242
 22
4.5
 13
0.0
 23
0.0
 14
1.0
 24
1.0
 15
0.0
 25
0.0
 16
0.0
 26
0.0
 36
1.0
 17
0.0
 27
0.0
 37
0.0
 40
9.0
 41
1.511387
 42
50.0
 43
0.0
 44
0.0
 50
0.0
 51
0.0
 71
     0
 72
   100
 73
     1
 74
     1
 75
     0
 76
     0
 77
     0
 78
     0
  0
ENDTAB
  0
TABLE
  2
LTYPE
 70
    41
  0
LTYPE
  2
BYBLOCK
 70
     0
  3

 72
    65
 73
     0
 40
0.0
  0
LTYPE
  2
BYLAYER
 70
     0
  3

 72
    65
 73
     0
 40
0.0
  0
LTYPE
  2
CONTINUOUS
 70
     0
  3
Solid line
 72
    65
 73
     0
 40
0.0
  0
LTYPE
  2
BORDER
 70
    64
  3
__ __ . __ __ . __ __ . __ __ . __ __ . __ __ .
 72
    65
 73
     6
 40
1.75
 49
0.5
 49
-0.25
 49
0.5
 49
-0.25
 49
0.0
 49
-0.25
  0
LTYPE
  2
BORDER2
 70
    64
  3
__.__.__.__.__.__.__.__.__.__.__.__.__.__.__.__
 72
    65
 73
     6
 40
0.875
 49
0.25
 49
-0.125
 49
0.25
 49
-0.125
 49
0.0
 49
-0.125
  0
LTYPE
  2
BORDERX2
 70
    64
  3
____  ____  .  ____  ____  .  ____  ____  .  __
 72
    65
 73
     6
 40
3.5
 49
1.0
 49
-0.5
 49
1.0
 49
-0.5
 49
0.0
 49
-0.5
  0
LTYPE
  2
CENTER
 70
    64
  3
____ _ ____ _ ____ _ ____ _ ____ _ ____ _ ____
 72
    65
 73
     4
 40
2.0
 49
1.25
 49
-0.25
 49
0.25
 49
-0.25
  0
LTYPE
  2
CENTER2
 70
    64
  3
___ _ ___ _ ___ _ ___ _ ___ _ ___ _ ___ _ ___ _
 72
    65
 73
     4
 40
1.125
 49
0.75
 49
-0.125
 49
0.125
 49
-0.125
  0
LTYPE
  2
CENTERX2
 70
    64
  3
________  __  ________  __  ________  __  _____
 72
    65
 73
     4
 40
4.0
 49
2.5
 49
-0.5
 49
0.5
 49
-0.5
  0
LTYPE
  2
DASHDOT
 70
    64
  3
__ . __ . __ . __ . __ . __ . __ . __ . __ . __
 72
    65
 73
     4
 40
1.0
 49
0.5
 49
-0.25
 49
0.0
 49
-0.25
  0
LTYPE
  2
DASHDOT2
 70
    64
  3
_._._._._._._._._._._._._._._._._._._._._._._._
 72
    65
 73
     4
 40
0.5
 49
0.25
 49
-0.125
 49
0.0
 49
-0.125
  0
LTYPE
  2
DASHDOTX2
 70
    64
  3
____  .  ____  .  ____  .  ____  .  ____  .  __
 72
    65
 73
     4
 40
2.0
 49
1.0
 49
-0.5
 49
0.0
 49
-0.5
  0
LTYPE
  2
DASHED
 70
    64
  3
__ __ __ __ __ __ __ __ __ __ __ __ __ __ __ __
 72
    65
 73
     2
 40
0.75
 49
0.5
 49
-0.25
  0
LTYPE
  2
DASHED2
 70
    64
  3
_ _ _ _ _ _ _ _ _ _ _ _ _ _ _ _ _ _ _ _ _ _ _ _
 72
    65
 73
     2
 40
0.375
 49
0.25
 49
-0.125
  0
LTYPE
  2
DASHEDX2
 70
    64
  3
____  ____  ____  ____  ____  ____  ____  ____
 72
    65
 73
     2
 40
1.5
 49
1.0
 49
-0.5
  0
LTYPE
  2
DIVIDE
 70
    64
  3
____ . . ____ . . ____ . . ____ . . ____ . . __
 72
    65
 73
     6
 40
1.25
 49
0.5
 49
-0.25
 49
0.0
 49
-0.25
 49
0.0
 49
-0.25
  0
LTYPE
  2
DIVIDE2
 70
    64
  3
__..__..__..__..__..__..__..__..__..__..__..__.
 72
    65
 73
     6
 40
0.625
 49
0.25
 49
-0.125
 49
0.0
 49
-0.125
 49
0.0
 49
-0.125
  0
LTYPE
  2
DIVIDEX2
 70
    64
  3
________  .  .  ________  .  .  ________  .  .
 72
    65
 73
     6
 40
2.5
 49
1.0
 49
-0.5
 49
0.0
 49
-0.5
 49
0.0
 49
-0.5
  0
LTYPE
  2
DOT
 70
    64
  3
. . . . . . . . . . . . . . . . . . . . . . . .
 72
    65
 73
     2
 40
0.25
 49
0.0
 49
-0.25
  0
LTYPE
  2
DOT2
 70
    64
  3
...............................................
 72
    65
 73
     2
 40
0.125
 49
0.0
 49
-0.125
  0
LTYPE
  2
DOTX2
 70
    64
  3
.  .  .  .  .  .  .  .  .  .  .  .  .  .  .  .
 72
    65
 73
     2
 40
0.5
 49
0.0
 49
-0.5
  0
LTYPE
  2
HIDDEN
 70
    64
  3
__ __ __ __ __ __ __ __ __ __ __ __ __ __ __ __
 72
    65
 73
     2
 40
0.375
 49
0.25
 49
-0.125
  0
LTYPE
  2
HIDDEN2
 70
    64
  3
_ _ _ _ _ _ _ _ _ _ _ _ _ _ _ _ _ _ _ _ _ _ _ _
 72
    65
 73
     2
 40
0.1875
 49
0.125
 49
-0.0625
  0
LTYPE
  2
HIDDENX2
 70
    64
  3
____ ____ ____ ____ ____ ____ ____ ____ ____ __
 72
    65
 73
     2
 40
0.75
 49
0.5
 49
-0.25
  0
LTYPE
  2
PHANTOM
 70
    64
  3
______  __  __  ______  __  __  ______  __  __
 72
    65
 73
     6
 40
2.5
 49
1.25
 49
-0.25
 49
0.25
 49
-0.25
 49
0.25
 49
-0.25
  0
LTYPE
  2
PHANTOM2
 70
    64
  3
___ _ _ ___ _ _ ___ _ _ ___ _ _ ___ _ _ ___ _ _
 72
    65
 73
     6
 40
1.25
 49
0.625
 49
-0.125
 49
0.125
 49
-0.125
 49
0.125
 49
-0.125
  0
LTYPE
  2
PHANTOMX2
 70
    64
  3
____________    ____    ____    ____________
 72
    65
 73
     6
 40
5.0
 49
2.5
 49
-0.5
 49
0.5
 49
-0.5
 49
0.5
 49
-0.5
  0
LTYPE
  2
ACAD_ISO02W100
 70
    64
  3
__ __ __ __ __ __ __ __ __ __ __ __ __ __ __ __
 72
    65
 73
     2
 40
15.0
 49
12.0
 49
-3.0
  0
LTYPE
  2
ACAD_ISO03W100
 70
    64
  3
__    __    __    __    __    __    __    __
 72
    65
 73
     2
 40
30.0
 49
12.0
 49
-18.0
  0
LTYPE
  2
ACAD_ISO04W100
 70
    64
  3
____ . ____ . ____ . ____ . ____ . ____ . ____
 72
    65
 73
     4
 40
30.5
 49
24.0
 49
-3.0
 49
0.5
 49
-3.0
  0
LTYPE
  2
ACAD_ISO05W100
 70
    64
  3
____ .. ____ .. ____ .. ____ .. ____ .. ____ ..
 72
    65
 73
     6
 40
34.0
 49
24.0
 49
-3.0
 49
0.5
 49
-3.0
 49
0.5
 49
-3.0
  0
LTYPE
  2
ACAD_ISO06W100
 70
    64
  3
____ ... ____ ... ____ ... ____ ... ____ ... __
 72
    65
 73
     8
 40
37.5
 49
24.0
 49
-3.0
 49
0.5
 49
-3.0
 49
0.5
 49
-3.0
 49
0.5
 49
-3.0
  0
LTYPE
  2
ACAD_ISO07W100
 70
    64
  3
. . . . . . . . . . . . . . . . . . . . . . . .
 72
    65
 73
     2
 40
3.5
 49
0.5
 49
-3.0
  0
LTYPE
  2
ACAD_ISO08W100
 70
    64
  3
____ __ ____ __ ____ __ ____ ____ __ __ ____ __
 72
    65
 73
     4
 40
36.0
 49
24.0
 49
-3.0
 49
6.0
 49
-3.0
  0
LTYPE
  2
ACAD_ISO09W100
 70
    64
  3
____ __ __ ____ __ __ ____ __ __ ____ __ __ ___
 72
    65
 73
     6
 40
45.0
 49
24.0
 49
-3.0
 49
6.0
 49
-3.0
 49
6.0
 49
-3.0
  0
LTYPE
  2
ACAD_ISO10W100
 70
    64
  3
__ . __ . __ . __ . __ . __ . __ . __ . __ . __
 72
    65
 73
     4
 40
18.5
 49
12.0
 49
-3.0
 49
0.5
 49
-3.0
  0
LTYPE
  2
ACAD_ISO11W100
 70
    64
  3
__ __ . __ __ . __ __ . __ __ . __ __ . __ __ .
 72
    65
 73
     6
 40
33.5
 49
12.0
 49
-3.0
 49
12.0
 49
-3.0
 49
0.5
 49
-3.0
  0
LTYPE
  2
ACAD_ISO12W100
 70
    64
  3
__ . . __ . . __ . . __ . . __ . . __ . . __ .
 72
    65
 73
     6
 40
22.0
 49
12.0
 49
-3.0
 49
0.5
 49
-3.0
 49
0.5
 49
-3.0
  0
LTYPE
  2
ACAD_ISO13W100
 70
    64
  3
__ __ . . __ __ . . __ __ . . __ __ . . __ __ .
 72
    65
 73
     8
 40
37.0
 49
12.0
 49
-3.0
 49
12.0
 49
-3.0
 49
0.5
 49
-3.0
 49
0.5
 49
-3.0
  0
LTYPE
  2
ACAD_ISO14W100
 70
    64
  3
__ . . . __ . . . __ . . . __ . . . __ . . . __
 72
    65
 73
     8
 40
25.5
 49
12.0
 49
-3.0
 49
0.5
 49
-3.0
 49
0.5
 49
-3.0
 49
0.5
 49
-3.0
  0
LTYPE
  2
ACAD_ISO15W100
 70
    64
  3
__ __ . . . __ __ . . . __ __ . . . __ __ . . .
 72
    65
 73
    10
 40
40.5
 49
12.0
 49
-3.0
 49
12.0
 49
-3.0
 49
0.5
 49
-3.0
 49
0.5
 49
-3.0
 49
0.5
 49
-3.0
  0
ENDTAB
  0
TABLE
  2
STYLE
 70
     4
  0
STYLE
  2
STANDARD
 70
    64
 40
0.0
 41
1.0
 50
0.0
 71
     0
 42
0.2
  3
txt
  4

  0
STYLE
  2
TOLERANCE
 70
    64
 40
0.0
 41
1.0
 50
0.0
 71
     0
 42
0.2
  3
../igesfont/iges1003.shx
  4

  0
STYLE
  2
ROMANS
 70
    64
 40
0.0
 41
1.0
 50
0.0
 71
     0
 42
0.2
  3
romans.shx
  4

  0
STYLE
  2
ROMANC
 70
    64
 40
0.0
 41
1.0
 50
0.0
 71
     0
 42
0.2
  3
romanc.shx
  4

  0
ENDTAB
  0
TABLE
  2
DIMSTYLE
 70
     2
  0
DIMSTYLE
  2
UNNAMED
 70
     0
  3

  4

  5

  6

  7

 40
1.0
 41
0.18
 42
0.0625
 43
0.38
 44
0.18
 45
0.0
 46
0.0
 47
0.0
 48
0.0
140
0.18
141
0.09
142
0.0
143
25.4
144
1.0
145
0.0
146
1.0
147
0.09
 71
     0
 72
     0
 73
     1
 74
     1
 75
     0
 76
     0
 77
     0
 78
     0
170
     0
171
     2
172
     0
173
     0
174
     0
175
     0
176
     0
177
     0
178
     0
  0
DIMSTYLE
  2
STANDARD
 70
     0
  3

  4

  5

  6

  7

 40
1.0
 41
0.18
 42
0.0625
 43
0.38
 44
0.18
 45
0.0
 46
0.0
 47
0.0
 48
0.0
140
0.18
141
0.09
142
0.0
143
25.4
144
1.0
145
0.0
146
1.0
147
0.09
 71
     0
 72
     0
 73
     1
 74
     1
 75
     0
 76
     0
 77
     0
 78
     0
170
     0
171
     2
172
     0
173
     0
174
     0
175
     0
176
     0
177
     0
178
     0
  0
ENDTAB
  0
TABLE
  2
LAYER
 70
     2
  0
LAYER
  2
0
 70
     0
 62
     7
  6
CONTINUOUS
  0
LAYER
  2
255
 70
     0
 62
     7
  6
CONTINUOUS
  0
ENDTAB
  0
ENDSEC
  0
SECTION
  2
BLOCKS
  0
BLOCK
  5
     B
  8
0
  6
CONTINUOUS
 62
     7
  2
MANIGLIA
 70
    64
 10
0.0
 20
0.0
 30
0.0
  3
MANIGLIA
  0
LINE
  5
     C
  8
0
  6
CONTINUOUS
 62
   218
 10
205.788955688477
 20
137.294494628906
 30
0.0
 11
207.664886474609
 21
136.725448608399
 31
0.0
  0
LINE
  5
     D
  8
0
  6
CONTINUOUS
 62
   218
 10
203.83805847168
 20
137.48664855957
 30
0.0
 11
205.788955688477
 21
137.294494628906
 31
0.0
  0
LINE
  5
     E
  8
0
  6
CONTINUOUS
 62
   218
 10
207.664886474609
 20
136.725448608398
 30
0.0
 11
209.393753051758
 21
135.801345825195
 31
0.0
  0
LINE
  5
     F
  8
0
  6
CONTINUOUS
 62
   218
 10
209.393753051758
 20
135.801345825195
 30
0.0
 11
209.83805847168
 21
135.436721801758
 31
0.0
  0
LINE
  5
    10
  8
0
  6
CONTINUOUS
 62
   218
 10
173.83805847168
 20
137.48664855957
 30
0.0
 11
179.83805847168
 21
137.48664855957
 31
0.0
  0
LINE
  5
    11
  8
0
  6
CONTINUOUS
 62
   218
 10
179.83805847168
 20
137.48664855957
 30
0.0
 11
203.83805847168
 21
137.48664855957
 31
0.0
  0
LINE
  5
    12
  8
0
  6
CONTINUOUS
 62
   218
 10
87.5320663452148
 20
137.48664855957
 30
0.0
 11
173.83805847168
 21
137.48664855957
 31
0.0
  0
LINE
  5
    13
  8
0
  6
CONTINUOUS
 62
   218
 10
75.8728408813476
 20
141.23664855957
 30
0.0
 11
77.9805297851562
 21
139.914855957031
 31
0.0
  0
LINE
  5
    14
  8
0
  6
CONTINUOUS
 62
   218
 10
77.9805297851563
 20
139.914855957031
 30
0.0
 11
80.2360076904297
 21
138.864959716797
 31
0.0
  0
LINE
  5
    15
  8
0
  6
CONTINUOUS
 62
   218
 10
80.2360076904297
 20
138.864959716797
 30
0.0
 11
82.6043853759766
 21
138.10319519043
 31
0.0
  0
LINE
  5
    16
  8
0
  6
CONTINUOUS
 62
   218
 10
82.6043853759766
 20
138.10319519043
 30
0.0
 11
85.0490188598633
 21
137.641387939453
 31
0.0
  0
LINE
  5
    17
  8
0
  6
CONTINUOUS
 62
   218
 10
85.0490188598633
 20
137.641387939453
 30
0.0
 11
87.5320663452148
 21
137.48664855957
 31
0.0
  0
LINE
  5
    18
  8
0
  6
CONTINUOUS
 62
   218
 10
74.906494140625
 20
141.746353149414
 30
0.0
 11
75.8728408813477
 21
141.23664855957
 31
0.0
  0
LINE
  5
    19
  8
0
  6
CONTINUOUS
 62
   218
 10
73.8382720947266
 20
141.9755859375
 30
0.0
 11
74.906494140625
 21
141.746353149414
 31
0.0
  0
LINE
  5
    1A
  8
0
  6
CONTINUOUS
 62
   218
 10
72.7478790283203
 20
141.9072265625
 30
0.0
 11
73.8382720947265
 21
141.9755859375
 31
0.0
  0
LINE
  5
    1B
  8
0
  6
CONTINUOUS
 62
   218
 10
70.8215179443359
 20
140.919982910156
 30
0.0
 11
71.7166442871094
 21
141.54638671875
 31
0.0
  0
LINE
  5
    1C
  8
0
  6
CONTINUOUS
 62
   218
 10
71.7166442871094
 20
141.54638671875
 30
0.0
 11
72.7478790283203
 21
141.9072265625
 31
0.0
  0
LINE
  5
    1D
  8
0
  6
CONTINUOUS
 62
   218
 10
66.7888107299804
 20
136.186340332031
 30
0.0
 11
68.6658325195312
 21
138.671859741211
 31
0.0
  0
LINE
  5
    1E
  8
0
  6
CONTINUOUS
 62
   218
 10
66.3380584716797
 20
135.415618896484
 30
0.0
 11
66.7888107299805
 21
136.186340332031
 31
0.0
  0
LINE
  5
    1F
  8
0
  6
CONTINUOUS
 62
   218
 10
68.6658325195312
 20
138.671859741211
 30
0.0
 11
70.8215179443359
 21
140.919982910156
 31
0.0
  0
LINE
  5
    20
  8
0
  6
CONTINUOUS
 62
   218
 10
66.7888107299805
 20
106.786964416504
 30
0.0
 11
68.6658325195313
 21
104.30143737793
 31
0.0
  0
LINE
  5
    21
  8
0
  6
CONTINUOUS
 62
   218
 10
66.3380584716797
 20
107.557678222656
 30
0.0
 11
66.7888107299805
 21
106.786964416504
 31
0.0
  0
LINE
  5
    22
  8
0
  6
CONTINUOUS
 62
   218
 10
68.6658325195313
 20
104.30143737793
 30
0.0
 11
70.8215179443359
 21
102.053314208984
 31
0.0
  0
LINE
  5
    23
  8
0
  6
CONTINUOUS
 62
   218
 10
74.906494140625
 20
101.226936340332
 30
0.0
 11
75.8728408813477
 21
101.73664855957
 31
0.0
  0
LINE
  5
    24
  8
0
  6
CONTINUOUS
 62
   218
 10
73.8382720947266
 20
100.997711181641
 30
0.0
 11
74.906494140625
 21
101.226936340332
 31
0.0
  0
LINE
  5
    25
  8
0
  6
CONTINUOUS
 62
   218
 10
71.7166442871094
 20
101.426910400391
 30
0.0
 11
72.7478790283203
 21
101.066062927246
 31
0.0
  0
LINE
  5
    26
  8
0
  6
CONTINUOUS
 62
   218
 10
70.821517944336
 20
102.053314208984
 30
0.0
 11
71.7166442871094
 21
101.426910400391
 31
0.0
  0
LINE
  5
    27
  8
0
  6
CONTINUOUS
 62
   218
 10
72.7478790283203
 20
101.066062927246
 30
0.0
 11
73.8382720947266
 21
100.997711181641
 31
0.0
  0
LINE
  5
    28
  8
0
  6
CONTINUOUS
 62
   218
 10
75.8728408813477
 20
101.73664855957
 30
0.0
 11
77.9805297851563
 21
103.058448791504
 31
0.0
  0
LINE
  5
    29
  8
0
  6
CONTINUOUS
 62
   218
 10
77.9805297851563
 20
103.058448791504
 30
0.0
 11
80.2360076904297
 21
104.108345031738
 31
0.0
  0
LINE
  5
    2A
  8
0
  6
CONTINUOUS
 62
   218
 10
85.0490188598633
 20
105.331909179688
 30
0.0
 11
87.5320663452148
 21
105.48664855957
 31
0.0
  0
LINE
  5
    2B
  8
0
  6
CONTINUOUS
 62
   218
 10
82.6043853759766
 20
104.870094299316
 30
0.0
 11
85.0490188598633
 21
105.331909179688
 31
0.0
  0
LINE
  5
    2C
  8
0
  6
CONTINUOUS
 62
   218
 10
80.2360076904297
 20
104.108345031738
 30
0.0
 11
82.6043853759766
 21
104.870094299316
 31
0.0
  0
LINE
  5
    2D
  8
0
  6
CONTINUOUS
 62
   218
 10
87.5320663452148
 20
105.48664855957
 30
0.0
 11
173.83805847168
 21
105.48664855957
 31
0.0
  0
LINE
  5
    2E
  8
0
  6
CONTINUOUS
 62
   218
 10
173.83805847168
 20
105.48664855957
 30
0.0
 11
179.83805847168
 21
105.48664855957
 31
0.0
  0
LINE
  5
    2F
  8
0
  6
CONTINUOUS
 62
   218
 10
179.83805847168
 20
105.48664855957
 30
0.0
 11
203.83805847168
 21
105.48664855957
 31
0.0
  0
LINE
  5
    30
  8
0
  6
CONTINUOUS
 62
   218
 10
207.664886474609
 20
106.247856140137
 30
0.0
 11
209.393753051758
 21
107.171951293945
 31
0.0
  0
LINE
  5
    31
  8
0
  6
CONTINUOUS
 62
   218
 10
205.788955688477
 20
105.67879486084
 30
0.0
 11
207.664886474609
 21
106.247856140137
 31
0.0
  0
LINE
  5
    32
  8
0
  6
CONTINUOUS
 62
   218
 10
209.393753051758
 20
107.171951293945
 30
0.0
 11
209.83805847168
 21
107.536575317383
 31
0.0
  0
LINE
  5
    33
  8
0
  6
CONTINUOUS
 62
   218
 10
203.83805847168
 20
105.48664855957
 30
0.0
 11
205.788955688477
 21
105.67879486084
 31
0.0
  0
LINE
  5
    34
  8
0
  6
CONTINUOUS
 62
   218
 10
212.189193725586
 20
132.974166870117
 30
0.0
 11
213.074127197266
 21
131.318588256836
 31
0.0
  0
LINE
  5
    35
  8
0
  6
CONTINUOUS
 62
   218
 10
211.074127197266
 20
134.356658935547
 30
0.0
 11
212.152755737305
 21
133.042343139648
 31
0.0
  0
LINE
  5
    36
  8
0
  6
CONTINUOUS
 62
   218
 10
210.909118652344
 20
134.557708740234
 30
0.0
 11
211.074127197266
 21
134.356658935547
 31
0.0
  0
LINE
  5
    37
  8
0
  6
CONTINUOUS
 62
   218
 10
212.152755737305
 20
133.042343139649
 30
0.0
 11
212.189193725586
 21
132.974166870117
 31
0.0
  0
LINE
  5
    38
  8
0
  6
CONTINUOUS
 62
   218
 10
213.642288208008
 20
129.449508666992
 30
0.0
 11
213.645904541016
 21
129.437545776367
 31
0.0
  0
LINE
  5
    39
  8
0
  6
CONTINUOUS
 62
   218
 10
209.83805847168
 20
135.436721801758
 30
0.0
 11
210.909118652344
 21
134.557708740234
 31
0.0
  0
LINE
  5
    3A
  8
0
  6
CONTINUOUS
 62
   218
 10
213.645904541016
 20
129.437545776367
 30
0.0
 11
213.83805847168
 21
127.48664855957
 31
0.0
  0
LINE
  5
    3B
  8
0
  6
CONTINUOUS
 62
   218
 10
213.076858520508
 20
131.3134765625
 30
0.0
 11
213.642288208008
 21
129.449508666992
 31
0.0
  0
LINE
  5
    3C
  8
0
  6
CONTINUOUS
 62
   218
 10
213.074127197266
 20
131.318588256836
 30
0.0
 11
213.076858520508
 21
131.3134765625
 31
0.0
  0
LINE
  5
    3D
  8
0
  6
CONTINUOUS
 62
   218
 10
213.645904541016
 20
113.535743713379
 30
0.0
 11
213.83805847168
 21
115.486648559571
 31
0.0
  0
LINE
  5
    3E
  8
0
  6
CONTINUOUS
 62
   218
 10
212.189193725586
 20
109.999130249024
 30
0.0
 11
213.074127197266
 21
111.654708862305
 31
0.0
  0
LINE
  5
    3F
  8
0
  6
CONTINUOUS
 62
   218
 10
209.83805847168
 20
107.536575317383
 30
0.0
 11
210.909118652344
 21
108.415580749512
 31
0.0
  0
LINE
  5
    40
  8
0
  6
CONTINUOUS
 62
   218
 10
211.074127197266
 20
108.616630554199
 30
0.0
 11
212.152755737305
 21
109.930946350098
 31
0.0
  0
LINE
  5
    41
  8
0
  6
CONTINUOUS
 62
   218
 10
213.076858520508
 20
111.659812927246
 30
0.0
 11
213.642288208008
 21
113.523788452149
 31
0.0
  0
LINE
  5
    42
  8
0
  6
CONTINUOUS
 62
   218
 10
213.074127197266
 20
111.654708862305
 30
0.0
 11
213.076858520508
 21
111.659812927246
 31
0.0
  0
LINE
  5
    43
  8
0
  6
CONTINUOUS
 62
   218
 10
212.152755737305
 20
109.930946350098
 30
0.0
 11
212.189193725586
 21
109.999130249023
 31
0.0
  0
LINE
  5
    44
  8
0
  6
CONTINUOUS
 62
   218
 10
210.909118652344
 20
108.415580749512
 30
0.0
 11
211.074127197266
 21
108.616630554199
 31
0.0
  0
LINE
  5
    45
  8
0
  6
CONTINUOUS
 62
   218
 10
213.642288208008
 20
113.523788452149
 30
0.0
 11
213.645904541016
 21
113.535743713379
 31
0.0
  0
LINE
  5
    46
  8
0
  6
CONTINUOUS
 62
   218
 10
213.83805847168
 20
115.48664855957
 30
0.0
 11
213.83805847168
 21
127.48664855957
 31
0.0
  0
LINE
  5
    47
  8
0
  6
CONTINUOUS
 62
   218
 10
62.5210952758789
 20
118.377380371094
 30
0.0
 11
62.5338287353516
 21
118.305938720703
 31
0.0
  0
LINE
  5
    48
  8
0
  6
CONTINUOUS
 62
   218
 10
63.9869155883789
 20
130.681365966797
 30
0.0
 11
65.1019897460938
 21
133.235702514648
 31
0.0
  0
LINE
  5
    49
  8
0
  6
CONTINUOUS
 62
   218
 10
62.5210952758789
 20
124.595916748047
 30
0.0
 11
62.5338287353516
 21
124.667358398438
 31
0.0
  0
LINE
  5
    4A
  8
0
  6
CONTINUOUS
 62
   218
 10
63.9869155883789
 20
112.291923522949
 30
0.0
 11
65.1019897460937
 21
109.737594604492
 31
0.0
  0
LINE
  5
    4B
  8
0
  6
CONTINUOUS
 62
   218
 10
63.9702682495117
 20
112.330062866211
 30
0.0
 11
63.9869155883789
 21
112.291923522949
 31
0.0
  0
LINE
  5
    4C
  8
0
  6
CONTINUOUS
 62
   218
 10
65.2163848876953
 20
133.497741699219
 30
0.0
 11
66.3380584716797
 21
135.415618896484
 31
0.0
  0
LINE
  5
    4D
  8
0
  6
CONTINUOUS
 62
   218
 10
62.3380546569824
 20
121.48664855957
 30
0.0
 11
62.5210952758789
 21
124.595916748047
 31
0.0
  0
LINE
  5
    4E
  8
0
  6
CONTINUOUS
 62
   218
 10
62.3380546569824
 20
121.486648559571
 30
0.0
 11
62.5210952758789
 21
118.377380371094
 31
0.0
  0
LINE
  5
    4F
  8
0
  6
CONTINUOUS
 62
   218
 10
65.2163848876953
 20
109.475547790527
 30
0.0
 11
66.3380584716797
 21
107.557678222656
 31
0.0
  0
LINE
  5
    50
  8
0
  6
CONTINUOUS
 62
   218
 10
63.1019897460938
 20
115.197761535645
 30
0.0
 11
63.9702682495117
 21
112.330062866211
 31
0.0
  0
LINE
  5
    51
  8
0
  6
CONTINUOUS
 62
   218
 10
63.1019897460938
 20
127.775535583496
 30
0.0
 11
63.9702682495117
 21
130.64323425293
 31
0.0
  0
LINE
  5
    52
  8
0
  6
CONTINUOUS
 62
   218
 10
65.1019897460938
 20
133.235702514648
 30
0.0
 11
65.2163848876953
 21
133.497741699219
 31
0.0
  0
LINE
  5
    53
  8
0
  6
CONTINUOUS
 62
   218
 10
63.0676803588867
 20
115.311065673828
 30
0.0
 11
63.1019897460938
 21
115.197761535645
 31
0.0
  0
LINE
  5
    54
  8
0
  6
CONTINUOUS
 62
   218
 10
63.9702682495117
 20
130.64323425293
 30
0.0
 11
63.9869155883789
 21
130.681365966797
 31
0.0
  0
LINE
  5
    55
  8
0
  6
CONTINUOUS
 62
   218
 10
62.5338287353516
 20
124.667358398438
 30
0.0
 11
63.0676803588867
 21
127.662231445313
 31
0.0
  0
LINE
  5
    56
  8
0
  6
CONTINUOUS
 62
   218
 10
62.5338287353516
 20
118.305938720703
 30
0.0
 11
63.0676803588867
 21
115.311065673828
 31
0.0
  0
LINE
  5
    57
  8
0
  6
CONTINUOUS
 62
   218
 10
63.0676803588867
 20
127.662231445313
 30
0.0
 11
63.1019897460938
 21
127.775535583496
 31
0.0
  0
LINE
  5
    58
  8
0
  6
CONTINUOUS
 62
   218
 10
65.1019897460938
 20
109.737594604492
 30
0.0
 11
65.2163848876953
 21
109.475547790527
 31
0.0
  0
LINE
  5
    59
  8
0
  6
CONTINUOUS
 62
   218
 10
63.588737487793
 20
129.383148193359
 30
0.0
 11
63.6350593566895
 21
129.675598144531
 31
0.0
  0
LINE
  5
    5A
  8
0
  6
CONTINUOUS
 62
   218
 10
67.2918395996094
 20
136.852447509766
 30
0.0
 11
67.3991088867187
 21
137.062957763672
 31
0.0
  0
LINE
  5
    5B
  8
0
  6
CONTINUOUS
 62
   218
 10
67.3991088867188
 20
105.910339355469
 30
0.0
 11
67.6103439331055
 21
105.699104309082
 31
0.0
  0
LINE
  5
    5C
  8
0
  6
CONTINUOUS
 62
   218
 10
73.2617492675781
 20
142.925598144531
 30
0.0
 11
80.6491088867187
 21
146.689651489258
 31
0.0
  0
LINE
  5
    5D
  8
0
  6
CONTINUOUS
 62
   218
 10
63.6350593566894
 20
113.297698974609
 30
0.0
 11
63.7391319274902
 21
113.093444824219
 31
0.0
  0
LINE
  5
    5E
  8
0
  6
CONTINUOUS
 62
   218
 10
80.6491088867187
 20
146.689651489258
 30
0.0
 11
88.8380584716797
 21
147.98664855957
 31
0.0
  0
LINE
  5
    5F
  8
0
  6
CONTINUOUS
 62
   218
 10
88.8380584716797
 20
147.98664855957
 30
0.0
 11
97.0270080566406
 21
146.689651489258
 31
0.0
  0
LINE
  5
    60
  8
0
  6
CONTINUOUS
 62
   218
 10
73.2617492675781
 20
100.047698974609
 30
0.0
 11
80.6491088867188
 21
96.2836532592774
 31
0.0
  0
LINE
  5
    61
  8
0
  6
CONTINUOUS
 62
   218
 10
97.0270080566406
 20
146.689651489258
 30
0.0
 11
104.414367675781
 21
142.925598144531
 31
0.0
  0
LINE
  5
    62
  8
0
  6
CONTINUOUS
 62
   218
 10
104.414367675781
 20
100.047698974609
 30
0.0
 11
109.853317260742
 21
105.48664855957
 31
0.0
  0
LINE
  5
    63
  8
0
  6
CONTINUOUS
 62
   218
 10
97.0270080566406
 20
96.2836532592774
 30
0.0
 11
104.414367675781
 21
100.047698974609
 31
0.0
  0
LINE
  5
    64
  8
0
  6
CONTINUOUS
 62
   218
 10
71.9718246459961
 20
141.635681152344
 30
0.0
 11
73.2617492675781
 21
142.925598144531
 31
0.0
  0
LINE
  5
    65
  8
0
  6
CONTINUOUS
 62
   218
 10
71.9718246459961
 20
101.337615966797
 30
0.0
 11
73.2617492675781
 21
100.047698974609
 31
0.0
  0
LINE
  5
    66
  8
0
  6
CONTINUOUS
 62
   218
 10
67.2918395996094
 20
106.12085723877
 30
0.0
 11
67.3991088867188
 21
105.910339355469
 31
0.0
  0
LINE
  5
    67
  8
0
  6
CONTINUOUS
 62
   218
 10
63.588737487793
 20
113.590156555176
 30
0.0
 11
63.6350593566894
 21
113.297698974609
 31
0.0
  0
LINE
  5
    68
  8
0
  6
CONTINUOUS
 62
   218
 10
63.6350593566894
 20
129.675598144531
 30
0.0
 11
63.7391319274902
 21
129.879852294922
 31
0.0
  0
LINE
  5
    69
  8
0
  6
CONTINUOUS
 62
   218
 10
67.3991088867188
 20
137.062957763672
 30
0.0
 11
67.6103439331055
 21
137.274200439453
 31
0.0
  0
LINE
  5
    6A
  8
0
  6
CONTINUOUS
 62
   218
 10
104.414367675781
 20
142.925598144531
 30
0.0
 11
109.853317260742
 21
137.48664855957
 31
0.0
  0
LINE
  5
    6B
  8
0
  6
CONTINUOUS
 62
   218
 10
80.6491088867187
 20
96.2836532592774
 30
0.0
 11
88.8380584716797
 21
94.9866485595703
 31
0.0
  0
LINE
  5
    6C
  8
0
  6
CONTINUOUS
 62
   218
 10
88.8380584716797
 20
94.9866485595704
 30
0.0
 11
97.0270080566407
 21
96.2836532592774
 31
0.0
  0
LINE
  5
    6D
  8
0
  6
CONTINUOUS
 62
   218
 10
80.5380554199219
 20
117.23664855957
 30
0.0
 11
80.5380554199219
 21
125.73664855957
 31
0.0
  0
LINE
  5
    6E
  8
0
  6
CONTINUOUS
 62
   218
 10
72.3380584716797
 20
121.48664855957
 30
0.0
 11
80.5380554199219
 21
125.73664855957
 31
0.0
  0
LINE
  5
    6F
  8
0
  6
CONTINUOUS
 62
   218
 10
72.3380584716797
 20
121.48664855957
 30
0.0
 11
80.5380554199219
 21
117.23664855957
 31
0.0
  0
LINE
  5
    70
  8
0
  6
CONTINUOUS
 62
   218
 10
125.588981628418
 20
113.705055236816
 30
0.0
 11
127.578742980957
 21
115.429183959961
 31
0.0
  0
LINE
  5
    71
  8
0
  6
CONTINUOUS
 62
   218
 10
127.578742980957
 20
115.429183959961
 30
0.0
 11
129.002151489258
 21
117.644058227539
 31
0.0
  0
LINE
  5
    72
  8
0
  6
CONTINUOUS
 62
   218
 10
120.58805847168
 20
112.23664855957
 30
0.0
 11
123.19408416748
 21
112.611335754395
 31
0.0
  0
LINE
  5
    73
  8
0
  6
CONTINUOUS
 62
   218
 10
120.58805847168
 20
130.73664855957
 30
0.0
 11
123.19408416748
 21
130.361953735352
 31
0.0
  0
LINE
  5
    74
  8
0
  6
CONTINUOUS
 62
   218
 10
123.19408416748
 20
112.611335754395
 30
0.0
 11
125.588981628418
 21
113.705055236816
 31
0.0
  0
LINE
  5
    75
  8
0
  6
CONTINUOUS
 62
   218
 10
123.19408416748
 20
130.361953735352
 30
0.0
 11
125.588981628418
 21
129.268249511719
 31
0.0
  0
LINE
  5
    76
  8
0
  6
CONTINUOUS
 62
   218
 10
125.588981628418
 20
129.268249511719
 30
0.0
 11
127.578742980957
 21
127.54411315918
 31
0.0
  0
LINE
  5
    77
  8
0
  6
CONTINUOUS
 62
   218
 10
127.578742980957
 20
127.54411315918
 30
0.0
 11
129.002151489258
 21
125.329238891602
 31
0.0
  0
LINE
  5
    78
  8
0
  6
CONTINUOUS
 62
   218
 10
129.002151489258
 20
125.329238891602
 30
0.0
 11
129.743911743164
 21
122.803062438965
 31
0.0
  0
LINE
  5
    79
  8
0
  6
CONTINUOUS
 62
   218
 10
129.743911743164
 20
120.170234680176
 30
0.0
 11
129.743911743164
 21
122.803062438965
 31
0.0
  0
LINE
  5
    7A
  8
0
  6
CONTINUOUS
 62
   218
 10
129.002151489258
 20
117.644058227539
 30
0.0
 11
129.743911743164
 21
120.170234680176
 31
0.0
  0
LINE
  5
    7B
  8
0
  6
CONTINUOUS
 62
   218
 10
74.5880584716797
 20
130.73664855957
 30
0.0
 11
120.58805847168
 21
130.73664855957
 31
0.0
  0
LINE
  5
    7C
  8
0
  6
CONTINUOUS
 62
   218
 10
66.3380584716797
 20
117.388717651367
 30
0.0
 11
67.5973739624023
 21
115.429183959961
 31
0.0
  0
LINE
  5
    7D
  8
0
  6
CONTINUOUS
 62
   218
 10
71.9820327758789
 20
130.361953735352
 30
0.0
 11
74.5880584716797
 21
130.73664855957
 31
0.0
  0
LINE
  5
    7E
  8
0
  6
CONTINUOUS
 62
   218
 10
69.5871276855469
 20
129.268249511719
 30
0.0
 11
71.9820327758789
 21
130.361953735352
 31
0.0
  0
LINE
  5
    7F
  8
0
  6
CONTINUOUS
 62
   218
 10
67.5973739624023
 20
115.429183959961
 30
0.0
 11
69.5871276855469
 21
113.705055236816
 31
0.0
  0
LINE
  5
    80
  8
0
  6
CONTINUOUS
 62
   218
 10
66.3380584716797
 20
125.584571838379
 30
0.0
 11
67.5973739624024
 21
127.54411315918
 31
0.0
  0
LINE
  5
    81
  8
0
  6
CONTINUOUS
 62
   218
 10
67.5973739624023
 20
127.54411315918
 30
0.0
 11
69.5871276855469
 21
129.268249511719
 31
0.0
  0
LINE
  5
    82
  8
0
  6
CONTINUOUS
 62
   218
 10
71.9820327758789
 20
112.611335754395
 30
0.0
 11
74.5880584716797
 21
112.23664855957
 31
0.0
  0
LINE
  5
    83
  8
0
  6
CONTINUOUS
 62
   218
 10
69.5871276855469
 20
113.705055236816
 30
0.0
 11
71.9820327758789
 21
112.611335754395
 31
0.0
  0
LINE
  5
    84
  8
0
  6
CONTINUOUS
 62
   218
 10
65.4322052001953
 20
122.803062438965
 30
0.0
 11
66.173957824707
 21
125.329238891602
 31
0.0
  0
LINE
  5
    85
  8
0
  6
CONTINUOUS
 62
   218
 10
65.4322052001953
 20
120.170234680176
 30
0.0
 11
65.4322052001953
 21
122.803062438965
 31
0.0
  0
LINE
  5
    86
  8
0
  6
CONTINUOUS
 62
   218
 10
66.173957824707
 20
117.644058227539
 30
0.0
 11
66.3380584716797
 21
117.388717651367
 31
0.0
  0
LINE
  5
    87
  8
0
  6
CONTINUOUS
 62
   218
 10
65.4322052001953
 20
120.170234680176
 30
0.0
 11
66.173957824707
 21
117.644058227539
 31
0.0
  0
LINE
  5
    88
  8
0
  6
CONTINUOUS
 62
   218
 10
66.173957824707
 20
125.329238891602
 30
0.0
 11
66.3380584716797
 21
125.584571838379
 31
0.0
  0
LINE
  5
    89
  8
0
  6
CONTINUOUS
 62
   218
 10
74.5880584716797
 20
112.23664855957
 30
0.0
 11
120.58805847168
 21
112.23664855957
 31
0.0
  0
LINE
  5
    8A
  8
0
  6
CONTINUOUS
 62
   218
 10
72.2637634277344
 20
113.570831298828
 30
0.0
 11
74.5880584716797
 21
113.23664855957
 31
0.0
  0
LINE
  5
    8B
  8
0
  6
CONTINUOUS
 62
   218
 10
66.4220275878906
 20
120.312553405762
 30
0.0
 11
67.0835952758789
 21
118.059471130371
 31
0.0
  0
LINE
  5
    8C
  8
0
  6
CONTINUOUS
 62
   218
 10
70.1277694702148
 20
114.54630279541
 30
0.0
 11
72.2637634277344
 21
113.570831298828
 31
0.0
  0
LINE
  5
    8D
  8
0
  6
CONTINUOUS
 62
   218
 10
68.3531188964844
 20
116.084045410156
 30
0.0
 11
70.1277694702149
 21
114.54630279541
 31
0.0
  0
LINE
  5
    8E
  8
0
  6
CONTINUOUS
 62
   218
 10
66.4220275878906
 20
122.660743713379
 30
0.0
 11
67.0835952758789
 21
124.913818359375
 31
0.0
  0
LINE
  5
    8F
  8
0
  6
CONTINUOUS
 62
   218
 10
67.0835952758789
 20
124.913818359375
 30
0.0
 11
68.3531188964844
 21
126.889251708984
 31
0.0
  0
LINE
  5
    90
  8
0
  6
CONTINUOUS
 62
   218
 10
68.3531188964844
 20
126.889251708984
 30
0.0
 11
70.1277694702148
 21
128.426986694336
 31
0.0
  0
LINE
  5
    91
  8
0
  6
CONTINUOUS
 62
   218
 10
70.1277694702148
 20
128.426986694336
 30
0.0
 11
72.2637634277344
 21
129.402465820313
 31
0.0
  0
LINE
  5
    92
  8
0
  6
CONTINUOUS
 62
   218
 10
72.2637634277344
 20
129.402465820313
 30
0.0
 11
74.5880584716797
 21
129.73664855957
 31
0.0
  0
LINE
  5
    93
  8
0
  6
CONTINUOUS
 62
   218
 10
67.0835952758789
 20
118.059471130371
 30
0.0
 11
68.3531188964844
 21
116.084045410156
 31
0.0
  0
LINE
  5
    94
  8
0
  6
CONTINUOUS
 62
   218
 10
66.4220275878906
 20
120.312553405762
 30
0.0
 11
66.4220275878906
 21
122.660743713379
 31
0.0
  0
LINE
  5
    95
  8
0
  6
CONTINUOUS
 62
   218
 10
74.5880584716797
 20
129.73664855957
 30
0.0
 11
120.58805847168
 21
129.73664855957
 31
0.0
  0
LINE
  5
    96
  8
0
  6
CONTINUOUS
 62
   218
 10
122.912345886231
 20
129.402465820313
 30
0.0
 11
125.04833984375
 21
128.426986694336
 31
0.0
  0
LINE
  5
    97
  8
0
  6
CONTINUOUS
 62
   218
 10
126.82299041748
 20
126.889251708984
 30
0.0
 11
128.092514038086
 21
124.913818359375
 31
0.0
  0
LINE
  5
    98
  8
0
  6
CONTINUOUS
 62
   218
 10
125.04833984375
 20
128.426986694336
 30
0.0
 11
126.822990417481
 21
126.889251708984
 31
0.0
  0
LINE
  5
    99
  8
0
  6
CONTINUOUS
 62
   218
 10
120.58805847168
 20
129.73664855957
 30
0.0
 11
122.91234588623
 21
129.402465820313
 31
0.0
  0
LINE
  5
    9A
  8
0
  6
CONTINUOUS
 62
   218
 10
128.092514038086
 20
124.913818359375
 30
0.0
 11
128.754089355469
 21
122.660743713379
 31
0.0
  0
LINE
  5
    9B
  8
0
  6
CONTINUOUS
 62
   218
 10
120.58805847168
 20
113.23664855957
 30
0.0
 11
122.91234588623
 21
113.570831298828
 31
0.0
  0
LINE
  5
    9C
  8
0
  6
CONTINUOUS
 62
   218
 10
128.754089355469
 20
120.312553405762
 30
0.0
 11
128.754089355469
 21
122.660743713379
 31
0.0
  0
LINE
  5
    9D
  8
0
  6
CONTINUOUS
 62
   218
 10
125.04833984375
 20
114.54630279541
 30
0.0
 11
126.82299041748
 21
116.084045410156
 31
0.0
  0
LINE
  5
    9E
  8
0
  6
CONTINUOUS
 62
   218
 10
122.91234588623
 20
113.570831298828
 30
0.0
 11
125.04833984375
 21
114.54630279541
 31
0.0
  0
LINE
  5
    9F
  8
0
  6
CONTINUOUS
 62
   218
 10
128.092514038086
 20
118.059471130371
 30
0.0
 11
128.754089355469
 21
120.312553405762
 31
0.0
  0
LINE
  5
    A0
  8
0
  6
CONTINUOUS
 62
   218
 10
126.82299041748
 20
116.084045410156
 30
0.0
 11
128.092514038086
 21
118.059471130371
 31
0.0
  0
LINE
  5
    A1
  8
0
  6
CONTINUOUS
 62
   218
 10
74.5880584716797
 20
113.23664855957
 30
0.0
 11
120.58805847168
 21
113.23664855957
 31
0.0
  0
ENDBLK
  5
    A2
  8
0
  6
CONTINUOUS
 62
     7
  0
BLOCK
  5
    A3
  8
0
  6
CONTINUOUS
 62
     7
  2
*UDIM115
 70
    65
 10
0.0
 20
0.0
 30
0.0
  3
*UDIM115
  0
TEXT
  5
    A4
  8
0
  6
CONTINUOUS
 62
     7
 10
158.664207286432
 20
42.9202236966243
 30
0.0
 40
2.4999999335834
  1
148,5
 50
89.9999999480344
 41
0.933333333333333
 72
     1
 11
157.414207324697
 21
48.5035568827593
 31
0.0
 73
     2
  0
LINE
  5
    A5
  8
0
  6
CONTINUOUS
 62
     7
 10
141.407478565353
 20
22.7452274530959
 30
0.0
 11
161.664207291489
 21
22.7452274530959
 31
0.0
  0
LINE
  5
    A6
  8
0
  6
CONTINUOUS
 62
     7
 10
159.664207291489
 20
22.7452274530959
 30
0.0
 11
159.664207291489
 21
74.7202212274078
 31
0.0
  0
LINE
  5
    A7
  8
0
  6
CONTINUOUS
 62
     7
 10
159.143262773488
 20
25.6996507147775
 30
0.0
 11
159.664207291489
 21
22.7452274530959
 31
0.0
  0
LINE
  5
    A8
  8
0
  6
CONTINUOUS
 62
     7
 10
159.664207291489
 20
22.7452274530959
 30
0.0
 11
160.185151809489
 21
25.6996507147775
 31
0.0
  0
LINE
  5
    A9
  8
0
  6
CONTINUOUS
 62
     7
 10
160.185151809489
 20
71.7657979657262
 30
0.0
 11
159.664207291489
 21
74.7202212274078
 31
0.0
  0
LINE
  5
    AA
  8
0
  6
CONTINUOUS
 62
     7
 10
159.664207291489
 20
74.7202212274078
 30
0.0
 11
159.143262773488
 21
71.7657979657262
 31
0.0
  0
ENDBLK
  5
    AB
  8
0
  6
CONTINUOUS
 62
     7
  0
BLOCK
  5
    AC
  8
0
  6
CONTINUOUS
 62
     7
  2
*UDIM116
 70
    65
 10
0.0
 20
0.0
 30
0.0
  3
*UDIM116
  0
TEXT
  5
    AD
  8
0
  6
CONTINUOUS
 62
     7
 10
152.678906181978
 20
77.0162073553776
 30
0.0
 40
2.4999999335834
  1
105
 50
89.9999999480344
 41
0.933333333333333
 72
     1
 11
151.42890621813
 21
80.2662072701682
 31
0.0
 73
     2
  0
LINE
  5
    AE
  8
0
  6
CONTINUOUS
 62
     7
 10
116.557557965147
 20
62.120368531758
 30
0.0
 11
155.678906184922
 21
62.120368531758
 31
0.0
  0
LINE
  5
    AF
  8
0
  6
CONTINUOUS
 62
     7
 10
116.557557965147
 20
98.8703785870614
 30
0.0
 11
155.678906184922
 21
98.8703785870614
 31
0.0
  0
LINE
  5
    B0
  8
0
  6
CONTINUOUS
 62
     7
 10
153.678906184922
 20
62.120368531758
 30
0.0
 11
153.678906184922
 21
98.8703785870614
 31
0.0
  0
LINE
  5
    B1
  8
0
  6
CONTINUOUS
 62
     7
 10
153.157961666921
 20
65.0747917934396
 30
0.0
 11
153.678906184922
 21
62.120368531758
 31
0.0
  0
LINE
  5
    B2
  8
0
  6
CONTINUOUS
 62
     7
 10
153.678906184922
 20
62.120368531758
 30
0.0
 11
154.199850702922
 21
65.0747917934396
 31
0.0
  0
LINE
  5
    B3
  8
0
  6
CONTINUOUS
 62
     7
 10
154.199850702922
 20
95.9159553253798
 30
0.0
 11
153.678906184922
 21
98.8703785870614
 31
0.0
  0
LINE
  5
    B4
  8
0
  6
CONTINUOUS
 62
     7
 10
153.678906184922
 20
98.8703785870614
 30
0.0
 11
153.157961666921
 21
95.9159553253798
 31
0.0
  0
ENDBLK
  5
    B5
  8
0
  6
CONTINUOUS
 62
     7
  0
BLOCK
  5
    B6
  8
0
  6
CONTINUOUS
 62
     7
  2
*UDIM117
 70
    65
 10
0.0
 20
0.0
 30
0.0
  3
*UDIM117
  0
TEXT
  5
    B7
  8
0
  6
CONTINUOUS
 62
     7
 10
147.111184720235
 20
66.1077947896824
 30
0.0
 40
2.4999999335834
  1
36
 50
89.9999999480344
 41
0.933333333333333
 72
     1
 11
145.861184755331
 21
68.1911280688007
 31
0.0
 73
     2
  0
LINE
  5
    B8
  8
0
  6
CONTINUOUS
 62
     7
 10
116.557557965147
 20
62.120368531758
 30
0.0
 11
150.111184722122
 21
62.120368531758
 31
0.0
  0
LINE
  5
    B9
  8
0
  6
CONTINUOUS
 62
     7
 10
148.111184722122
 20
62.120368531758
 30
0.0
 11
148.111184722122
 21
74.7202212274078
 31
0.0
  0
LINE
  5
    BA
  8
0
  6
CONTINUOUS
 62
     7
 10
147.590240204122
 20
65.0747917934396
 30
0.0
 11
148.111184722122
 21
62.120368531758
 31
0.0
  0
LINE
  5
    BB
  8
0
  6
CONTINUOUS
 62
     7
 10
148.111184722122
 20
62.120368531758
 30
0.0
 11
148.632129240123
 21
65.0747917934396
 31
0.0
  0
LINE
  5
    BC
  8
0
  6
CONTINUOUS
 62
     7
 10
148.632129240123
 20
71.7657979657262
 30
0.0
 11
148.111184722122
 21
74.7202212274078
 31
0.0
  0
LINE
  5
    BD
  8
0
  6
CONTINUOUS
 62
     7
 10
148.111184722122
 20
74.7202212274078
 30
0.0
 11
147.590240204122
 21
71.7657979657262
 31
0.0
  0
ENDBLK
  5
    BE
  8
0
  6
CONTINUOUS
 62
     7
  0
BLOCK
  5
    BF
  8
0
  6
CONTINUOUS
 62
     7
  2
*UDIM118
 70
    65
 10
0.0
 20
0.0
 30
0.0
  3
*UDIM118
  0
TEXT
  5
    C0
  8
0
  6
CONTINUOUS
 62
     7
 10
147.111184720235
 20
77.5708686979557
 30
0.0
 40
2.4999999335834
  1
28
 50
89.9999999480344
 41
0.933333333333333
 72
     1
 11
145.861184755331
 21
79.654201977074
 31
0.0
 73
     2
  0
LINE
  5
    C1
  8
0
  6
CONTINUOUS
 62
     7
 10
126.093482617139
 20
84.5201848431478
 30
0.0
 11
150.111184722122
 21
84.5201848431478
 31
0.0
  0
LINE
  5
    C2
  8
0
  6
CONTINUOUS
 62
     7
 10
148.111184722122
 20
74.7202212274078
 30
0.0
 11
148.111184722122
 21
84.5201848431478
 31
0.0
  0
LINE
  5
    C3
  8
0
  6
CONTINUOUS
 62
     7
 10
148.632129240123
 20
71.7657979657262
 30
0.0
 11
148.111184722122
 21
74.7202212274078
 31
0.0
  0
LINE
  5
    C4
  8
0
  6
CONTINUOUS
 62
     7
 10
148.111184722122
 20
74.7202212274078
 30
0.0
 11
147.590240204122
 21
71.7657979657262
 31
0.0
  0
LINE
  5
    C5
  8
0
  6
CONTINUOUS
 62
     7
 10
147.590240204122
 20
87.4746081048294
 30
0.0
 11
148.111184722122
 21
84.5201848431478
 31
0.0
  0
LINE
  5
    C6
  8
0
  6
CONTINUOUS
 62
     7
 10
148.111184722122
 20
84.5201848431478
 30
0.0
 11
148.632129240123
 21
87.4746081048294
 31
0.0
  0
ENDBLK
  5
    C7
  8
0
  6
CONTINUOUS
 62
     7
  0
BLOCK
  5
    C8
  8
0
  6
CONTINUOUS
 62
     7
  2
*UDIM119
 70
    65
 10
0.0
 20
0.0
 30
0.0
  3
*UDIM119
  0
TEXT
  5
    C9
  8
0
  6
CONTINUOUS
 62
     7
 10
94.0533906703551
 20
124.386204746045
 30
0.0
 40
2.4999999335834
  1
105
 50
359.999999948034
 41
0.933333333333333
 72
     1
 11
97.3033905851409
 21
125.636204709905
 31
0.0
 73
     2
  0
LINE
  5
    CA
  8
0
  6
CONTINUOUS
 62
     7
 10
115.907557959187
 20
99.5203785930219
 30
0.0
 11
115.907557959187
 21
125.386204743113
 31
0.0
  0
LINE
  5
    CB
  8
0
  6
CONTINUOUS
 62
     7
 10
79.1575559147477
 20
99.5203785930219
 30
0.0
 11
79.1575559147477
 21
125.386204743113
 31
0.0
  0
LINE
  5
    CC
  8
0
  6
CONTINUOUS
 62
     7
 10
115.907557959187
 20
123.386204743113
 30
0.0
 11
79.1575559147477
 21
123.386204743113
 31
0.0
  0
LINE
  5
    CD
  8
0
  6
CONTINUOUS
 62
     7
 10
112.953134697505
 20
122.865260225113
 30
0.0
 11
115.907557959187
 21
123.386204743113
 31
0.0
  0
LINE
  5
    CE
  8
0
  6
CONTINUOUS
 62
     7
 10
115.907557959187
 20
123.386204743113
 30
0.0
 11
112.953134697505
 21
123.907149261114
 31
0.0
  0
LINE
  5
    CF
  8
0
  6
CONTINUOUS
 62
     7
 10
82.1119791764293
 20
123.907149261114
 30
0.0
 11
79.1575559147477
 21
123.386204743113
 31
0.0
  0
LINE
  5
    D0
  8
0
  6
CONTINUOUS
 62
     7
 10
79.1575559147477
 20
123.386204743113
 30
0.0
 11
82.1119791764293
 21
122.865260225113
 31
0.0
  0
ENDBLK
  5
    D1
  8
0
  6
CONTINUOUS
 62
     7
  0
BLOCK
  5
    D2
  8
0
  6
CONTINUOUS
 62
     7
  2
*UDIM120
 70
    65
 10
0.0
 20
0.0
 30
0.0
  3
*UDIM120
  0
TEXT
  5
    D3
  8
0
  6
CONTINUOUS
 62
     7
 10
108.170026406568
 20
119.236062925961
 30
0.0
 40
2.4999999335834
  1
31
 50
359.999999948034
 41
0.933333333333333
 72
     1
 11
110.253359685682
 21
120.486062890873
 31
0.0
 73
     2
  0
LINE
  5
    D4
  8
0
  6
CONTINUOUS
 62
     7
 10
115.907557959187
 20
99.5203785930219
 30
0.0
 11
115.907557959187
 21
120.236062924082
 31
0.0
  0
LINE
  5
    D5
  8
0
  6
CONTINUOUS
 62
     7
 10
115.907557959187
 20
118.236062924082
 30
0.0
 11
105.057495117188
 21
118.236062924082
 31
0.0
  0
LINE
  5
    D6
  8
0
  6
CONTINUOUS
 62
     7
 10
112.953134697505
 20
117.715118406081
 30
0.0
 11
115.907557959187
 21
118.236062924082
 31
0.0
  0
LINE
  5
    D7
  8
0
  6
CONTINUOUS
 62
     7
 10
115.907557959187
 20
118.236062924082
 30
0.0
 11
112.953134697505
 21
118.757007442082
 31
0.0
  0
LINE
  5
    D8
  8
0
  6
CONTINUOUS
 62
     7
 10
108.011918378869
 20
118.757007442082
 30
0.0
 11
105.057495117188
 21
118.236062924082
 31
0.0
  0
LINE
  5
    D9
  8
0
  6
CONTINUOUS
 62
     7
 10
105.057495117188
 20
118.236062924082
 30
0.0
 11
108.011918378869
 21
117.715118406081
 31
0.0
  0
ENDBLK
  5
    DA
  8
0
  6
CONTINUOUS
 62
     7
  0
BLOCK
  5
    DB
  8
0
  6
CONTINUOUS
 62
     7
  2
*UDIM121
 70
    65
 10
0.0
 20
0.0
 30
0.0
  3
*UDIM121
  0
TEXT
  5
    DC
  8
0
  6
CONTINUOUS
 62
     7
 10
92.9483255655786
 20
119.236062928065
 30
0.0
 40
2.4999999335834
  1
41,5
 50
359.999999948034
 41
0.933333333333333
 72
     1
 11
97.3649921160367
 21
120.486062890873
 31
0.0
 73
     2
  0
LINE
  5
    DD
  8
0
  6
CONTINUOUS
 62
     7
 10
90.532493680261
 20
95.4952178074323
 30
0.0
 11
90.532493680261
 21
120.236062924082
 31
0.0
  0
LINE
  5
    DE
  8
0
  6
CONTINUOUS
 62
     7
 10
105.057495117188
 20
118.236062924082
 30
0.0
 11
90.532493680261
 21
118.236062924082
 31
0.0
  0
LINE
  5
    DF
  8
0
  6
CONTINUOUS
 62
     7
 10
102.103071855506
 20
117.715118406081
 30
0.0
 11
105.057495117188
 21
118.236062924082
 31
0.0
  0
LINE
  5
    E0
  8
0
  6
CONTINUOUS
 62
     7
 10
105.057495117188
 20
118.236062924082
 30
0.0
 11
102.103071855506
 21
118.757007442082
 31
0.0
  0
LINE
  5
    E1
  8
0
  6
CONTINUOUS
 62
     7
 10
93.4869169419426
 20
118.757007442082
 30
0.0
 11
90.532493680261
 21
118.236062924082
 31
0.0
  0
LINE
  5
    E2
  8
0
  6
CONTINUOUS
 62
     7
 10
90.532493680261
 20
118.236062924082
 30
0.0
 11
93.4869169419426
 21
117.715118406081
 31
0.0
  0
ENDBLK
  5
    E3
  8
0
  6
CONTINUOUS
 62
     7
  0
BLOCK
  5
    E4
  8
0
  6
CONTINUOUS
 62
     7
  2
*UDIM122
 70
    65
 10
0.0
 20
0.0
 30
0.0
  3
*UDIM122
  0
TEXT
  5
    E5
  8
0
  6
CONTINUOUS
 62
     7
 10
61.2290950409949
 20
90.3160656091611
 30
0.0
 40
2.4999999335834
  1
406
 50
89.9999999480344
 41
0.933333333333333
 72
     1
 11
59.9790950771468
 21
93.5660655239517
 31
0.0
 73
     2
  0
LINE
  5
    E6
  8
0
  6
CONTINUOUS
 62
     7
 10
68.7074851099433
 20
22.7452274531163
 30
0.0
 11
60.2290950439385
 21
22.7452274531163
 31
0.0
  0
LINE
  5
    E7
  8
0
  6
CONTINUOUS
 62
     7
 10
68.5325000878956
 20
164.84524105489
 30
0.0
 11
60.2290950439385
 21
164.84524105489
 31
0.0
  0
LINE
  5
    E8
  8
0
  6
CONTINUOUS
 62
     7
 10
62.2290950439385
 20
22.7452274531163
 30
0.0
 11
62.2290950439385
 21
164.84524105489
 31
0.0
  0
LINE
  5
    E9
  8
0
  6
CONTINUOUS
 62
     7
 10
61.7081505259382
 20
25.6996507147979
 30
0.0
 11
62.2290950439385
 21
22.7452274531163
 31
0.0
  0
LINE
  5
    EA
  8
0
  6
CONTINUOUS
 62
     7
 10
62.2290950439385
 20
22.7452274531163
 30
0.0
 11
62.7500395619389
 21
25.6996507147979
 31
0.0
  0
LINE
  5
    EB
  8
0
  6
CONTINUOUS
 62
     7
 10
62.7500395619389
 20
161.890817793209
 30
0.0
 11
62.2290950439385
 21
164.84524105489
 31
0.0
  0
LINE
  5
    EC
  8
0
  6
CONTINUOUS
 62
     7
 10
62.2290950439385
 20
164.84524105489
 30
0.0
 11
61.7081505259382
 21
161.890817793209
 31
0.0
  0
ENDBLK
  5
    ED
  8
0
  6
CONTINUOUS
 62
     7
  0
BLOCK
  5
    EE
  8
0
  6
CONTINUOUS
 62
     7
  2
*UDIM123
 70
    65
 10
0.0
 20
0.0
 30
0.0
  3
*UDIM123
  0
TEXT
  5
    EF
  8
0
  6
CONTINUOUS
 62
     7
 10
101.578337141626
 20
174.68352063143
 30
0.0
 40
2.4999999335834
  1
210
 50
359.999999948034
 41
0.933333333333333
 72
     1
 11
104.828337056411
 21
175.93352059529
 31
0.0
 73
     2
  0
LINE
  5
    F0
  8
0
  6
CONTINUOUS
 62
     7
 10
141.80750228171
 20
164.795235732198
 30
0.0
 11
141.80750228171
 21
175.683520628499
 31
0.0
  0
LINE
  5
    F1
  8
0
  6
CONTINUOUS
 62
     7
 10
68.3075035334076
 20
164.795235732198
 30
0.0
 11
68.3075035334076
 21
175.683520628499
 31
0.0
  0
LINE
  5
    F2
  8
0
  6
CONTINUOUS
 62
     7
 10
141.80750228171
 20
173.683520628499
 30
0.0
 11
68.3075035334076
 21
173.683520628499
 31
0.0
  0
LINE
  5
    F3
  8
0
  6
CONTINUOUS
 62
     7
 10
138.853079020028
 20
173.162576110498
 30
0.0
 11
141.80750228171
 21
173.683520628499
 31
0.0
  0
LINE
  5
    F4
  8
0
  6
CONTINUOUS
 62
     7
 10
141.80750228171
 20
173.683520628499
 30
0.0
 11
138.853079020028
 21
174.204465146499
 31
0.0
  0
LINE
  5
    F5
  8
0
  6
CONTINUOUS
 62
     7
 10
71.2619267950892
 20
174.204465146499
 30
0.0
 11
68.3075035334076
 21
173.683520628499
 31
0.0
  0
LINE
  5
    F6
  8
0
  6
CONTINUOUS
 62
     7
 10
68.3075035334076
 20
173.683520628499
 30
0.0
 11
71.2619267950892
 21
173.162576110498
 31
0.0
  0
ENDBLK
  5
    F7
  8
0
  6
CONTINUOUS
 62
     7
  0
BLOCK
  5
    F8
  8
0
  6
CONTINUOUS
 62
     7
  2
*UDIM124
 70
    65
 10
0.0
 20
0.0
 30
0.0
  3
*UDIM124
  0
TEXT
  5
    F9
  8
0
  6
CONTINUOUS
 62
     7
 10
98.8438174354509
 20
71.6134204856798
 30
0.0
 40
2.4999999335834
  1
90
 50
404.04899012922
 41
0.933333333333333
 72
     1
 11
99.4721125632775
 21
73.960338186941
 31
0.0
 73
     2
  0
TEXT
  5
    FA
  8
0
  6
CONTINUOUS
 62
     7
 10
101.490953994599
 20
74.8697647913007
 30
0.0
 40
2.4999999335834
  1
°
 50
404.04899012922
 41
0.933333333333333
 72
     1
 11
101.280712637715
 21
76.4055304706821
 31
0.0
 73
     2
  0
ARC
  5
    FB
  8
0
  6
CONTINUOUS
 62
     7
 10
90.532493680261
 20
84.5201848431478
 30
0.0
 40
16.0553202978473
 50
269.999999844103
 51
359.999999792138
  0
LINE
  5
    FC
  8
0
  6
CONTINUOUS
 62
     7
 10
93.4869169419426
 20
68.9858090633009
 30
0.0
 11
90.532493680261
 21
68.4648645453006
 31
0.0
  0
LINE
  5
    FD
  8
0
  6
CONTINUOUS
 62
     7
 10
90.532493680261
 20
68.4648645453006
 30
0.0
 11
93.4869169419426
 21
67.9439200273002
 31
0.0
  0
LINE
  5
    FE
  8
0
  6
CONTINUOUS
 62
     7
 10
107.108758496109
 20
81.5657615814662
 30
0.0
 11
106.587813978108
 21
84.5201848431478
 31
0.0
  0
LINE
  5
    FF
  8
0
  6
CONTINUOUS
 62
     7
 10
106.587813978108
 20
84.5201848431478
 30
0.0
 11
106.066869460108
 21
81.5657615814662
 31
0.0
  0
ENDBLK
  5
   100
  8
0
  6
CONTINUOUS
 62
     7
  0
BLOCK
  5
   101
  8
0
  6
CONTINUOUS
 62
     7
  2
*UDIM125
 70
    65
 10
0.0
 20
0.0
 30
0.0
  3
*UDIM125
  0
TEXT
  5
   102
  8
0
  6
CONTINUOUS
 62
     7
 10
279.708892383157
 20
129.203859095989
 30
0.0
 40
2.4999999335834
  1
22
 41
0.933333333333333
 72
     1
 11
281.792225661143
 21
130.453859062781
 31
0.0
 73
     2
  0
LINE
  5
   103
  8
0
  6
CONTINUOUS
 62
     7
 10
269.035260339931
 20
89.1465520070579
 30
0.0
 11
269.035260339931
 21
130.20385798074
 31
0.0
  0
LINE
  5
   104
  8
0
  6
CONTINUOUS
 62
     7
 10
276.729721082909
 20
75.4891462772403
 30
0.0
 11
276.729721082909
 21
130.203858653411
 31
0.0
  0
LINE
  5
   105
  8
0
  6
CONTINUOUS
 62
     7
 10
269.035260339931
 20
128.20385798074
 30
0.0
 11
283.875559245109
 21
128.20385927812
 31
0.0
  0
LINE
  5
   106
  8
0
  6
CONTINUOUS
 62
     7
 10
266.080837123792
 20
127.682913204455
 30
0.0
 11
269.035260339931
 21
128.20385798074
 31
0.0
  0
LINE
  5
   107
  8
0
  6
CONTINUOUS
 62
     7
 10
269.035260339931
 20
128.20385798074
 30
0.0
 11
266.080837032707
 21
128.724802240456
 31
0.0
  0
LINE
  5
   108
  8
0
  6
CONTINUOUS
 62
     7
 10
279.684144299048
 20
128.724803429695
 30
0.0
 11
276.729721082909
 21
128.203858653411
 31
0.0
  0
LINE
  5
   109
  8
0
  6
CONTINUOUS
 62
     7
 10
276.729721082909
 20
128.203858653411
 30
0.0
 11
279.684144390133
 21
127.682914393694
 31
0.0
  0
ENDBLK
  5
   10A
  8
0
  6
CONTINUOUS
 62
     7
  0
BLOCK
  5
   10B
  8
0
  6
CONTINUOUS
 62
     7
  2
*UDIM126
 70
    65
 10
0.0
 20
0.0
 30
0.0
  3
*UDIM126
  0
TEXT
  5
   10C
  8
0
  6
CONTINUOUS
 62
     7
 10
248.154552229051
 20
121.914254720136
 30
0.0
 40
2.4999999335834
  1
19
 41
0.933333333333333
 72
     1
 11
250.237885507037
 21
123.164254686928
 31
0.0
 73
     2
  0
LINE
  5
   10D
  8
0
  6
CONTINUOUS
 62
     7
 10
246.98526071544
 20
115.911920223963
 30
0.0
 11
246.98526071544
 21
122.914254435783
 31
0.0
  0
LINE
  5
   10E
  8
0
  6
CONTINUOUS
 62
     7
 10
253.635260602191
 20
86.5702671756362
 30
0.0
 11
253.635260602191
 21
122.914255017144
 31
0.0
  0
LINE
  5
   10F
  8
0
  6
CONTINUOUS
 62
     7
 10
246.98526071544
 20
120.914254435783
 30
0.0
 11
253.635260602191
 21
120.914255017144
 31
0.0
  0
LINE
  5
   110
  8
0
  6
CONTINUOUS
 62
     7
 10
244.030837499301
 20
120.393309659498
 30
0.0
 11
246.98526071544
 21
120.914254435783
 31
0.0
  0
LINE
  5
   111
  8
0
  6
CONTINUOUS
 62
     7
 10
246.98526071544
 20
120.914254435783
 30
0.0
 11
244.030837408216
 21
121.435198695499
 31
0.0
  0
LINE
  5
   112
  8
0
  6
CONTINUOUS
 62
     7
 10
256.58968381833
 20
121.435199793428
 30
0.0
 11
253.635260602191
 21
120.914255017144
 31
0.0
  0
LINE
  5
   113
  8
0
  6
CONTINUOUS
 62
     7
 10
253.635260602191
 20
120.914255017144
 30
0.0
 11
256.589683909415
 21
120.393310757428
 31
0.0
  0
ENDBLK
  5
   114
  8
0
  6
CONTINUOUS
 62
     7
  0
BLOCK
  5
   115
  8
0
  6
CONTINUOUS
 62
     7
  2
*UDIM127
 70
    65
 10
0.0
 20
0.0
 30
0.0
  3
*UDIM127
  0
TEXT
  5
   116
  8
0
  6
CONTINUOUS
 62
     7
 10
255.697758227585
 20
129.203858317075
 30
0.0
 40
2.4999999335834
  1
63
 41
0.933333333333333
 72
     1
 11
257.781091505571
 21
130.453858283867
 31
0.0
 73
     2
  0
LINE
  5
   117
  8
0
  6
CONTINUOUS
 62
     7
 10
246.98526071544
 20
115.911920223963
 30
0.0
 11
246.98526071544
 21
130.203858317075
 31
0.0
  0
LINE
  5
   118
  8
0
  6
CONTINUOUS
 62
     7
 10
269.035260339931
 20
93.3952670594072
 30
0.0
 11
269.035260339931
 21
130.203858317075
 31
0.0
  0
LINE
  5
   119
  8
0
  6
CONTINUOUS
 62
     7
 10
246.98526071544
 20
128.203858317075
 30
0.0
 11
269.035260339931
 21
128.203858317075
 31
0.0
  0
LINE
  5
   11A
  8
0
  6
CONTINUOUS
 62
     7
 10
249.939683977122
 20
128.724802835076
 30
0.0
 11
246.98526071544
 21
128.203858317075
 31
0.0
  0
LINE
  5
   11B
  8
0
  6
CONTINUOUS
 62
     7
 10
246.98526071544
 20
128.203858317075
 30
0.0
 11
249.939683977122
 21
127.682913799075
 31
0.0
  0
LINE
  5
   11C
  8
0
  6
CONTINUOUS
 62
     7
 10
266.080837078249
 20
127.682913799075
 30
0.0
 11
269.035260339931
 21
128.203858317075
 31
0.0
  0
LINE
  5
   11D
  8
0
  6
CONTINUOUS
 62
     7
 10
269.035260339931
 20
128.203858317075
 30
0.0
 11
266.080837078249
 21
128.724802835076
 31
0.0
  0
ENDBLK
  5
   11E
  8
0
  6
CONTINUOUS
 62
     7
  0
BLOCK
  5
   11F
  8
0
  6
CONTINUOUS
 62
     7
  2
*UDIM128
 70
    65
 10
0.0
 20
0.0
 30
0.0
  3
*UDIM128
  0
TEXT
  5
   120
  8
0
  6
CONTINUOUS
 62
     7
 10
231.635258466301
 20
129.203858317075
 30
0.0
 40
2.4999999335834
  1
 
 41
0.933333333333333
 72
     1
 11
232.551925108615
 21
130.453858283867
 31
0.0
 73
     2
  0
LINE
  5
   121
  8
0
  6
CONTINUOUS
 62
     7
 10
221.785261144593
 20
92.0827777628733
 30
0.0
 11
221.785261144593
 21
130.203858317075
 31
0.0
  0
LINE
  5
   122
  8
0
  6
CONTINUOUS
 62
     7
 10
246.98526071544
 20
115.911920223963
 30
0.0
 11
246.98526071544
 21
130.203858317075
 31
0.0
  0
LINE
  5
   123
  8
0
  6
CONTINUOUS
 62
     7
 10
221.785261144593
 20
128.203858317075
 30
0.0
 11
246.98526071544
 21
128.203858317075
 31
0.0
  0
LINE
  5
   124
  8
0
  6
CONTINUOUS
 62
     7
 10
224.683038617804
 20
128.980315473494
 30
0.0
 11
221.785261144593
 21
128.203858317075
 31
0.0
  0
LINE
  5
   125
  8
0
  6
CONTINUOUS
 62
     7
 10
221.785261144593
 20
128.203858317075
 30
0.0
 11
224.683038617804
 21
127.427401160657
 31
0.0
  0
LINE
  5
   126
  8
0
  6
CONTINUOUS
 62
     7
 10
244.030837453758
 20
127.682913799075
 30
0.0
 11
246.98526071544
 21
128.203858317075
 31
0.0
  0
LINE
  5
   127
  8
0
  6
CONTINUOUS
 62
     7
 10
246.98526071544
 20
128.203858317075
 30
0.0
 11
244.030837453758
 21
128.724802835076
 31
0.0
  0
ENDBLK
  5
   128
  8
0
  6
CONTINUOUS
 62
     7
  0
BLOCK
  5
   129
  8
0
  6
CONTINUOUS
 62
     7
  2
*UDIM129
 70
    65
 10
0.0
 20
0.0
 30
0.0
  3
*UDIM129
  0
TEXT
  5
   12A
  8
0
  6
CONTINUOUS
 62
     7
 10
196.974536755219
 20
129.203858317075
 30
0.0
 40
2.99999997871263
  1
103,5
 41
0.933333333333333
 72
     1
 11
203.674536707677
 21
130.703858306431
 31
0.0
 73
     2
  0
LINE
  5
   12B
  8
0
  6
CONTINUOUS
 62
     7
 10
185.563812270761
 20
128.203858317075
 30
0.0
 11
221.785261144593
 21
128.203858317075
 31
0.0
  0
LINE
  5
   12C
  8
0
  6
CONTINUOUS
 62
     7
 10
188.518235532442
 20
128.724802835076
 30
0.0
 11
185.563812270761
 21
128.203858317075
 31
0.0
  0
LINE
  5
   12D
  8
0
  6
CONTINUOUS
 62
     7
 10
185.563812270761
 20
128.203858317075
 30
0.0
 11
188.518235532442
 21
127.682913799075
 31
0.0
  0
LINE
  5
   12E
  8
0
  6
CONTINUOUS
 62
     7
 10
218.887483671383
 20
127.427401160657
 30
0.0
 11
221.785261144593
 21
128.203858317075
 31
0.0
  0
LINE
  5
   12F
  8
0
  6
CONTINUOUS
 62
     7
 10
221.785261144593
 20
128.203858317075
 30
0.0
 11
218.887483671383
 21
128.980315473494
 31
0.0
  0
ENDBLK
  5
   130
  8
0
  6
CONTINUOUS
 62
     7
  0
BLOCK
  5
   131
  8
0
  6
CONTINUOUS
 62
     7
  2
*UDIM130
 70
    65
 10
0.0
 20
0.0
 30
0.0
  3
*UDIM130
  0
TEXT
  5
   132
  8
0
  6
CONTINUOUS
 62
     7
 10
211.484664488731
 20
13.2845129095781
 30
0.0
 40
2.4999999335834
  1
168
 41
0.933333333333333
 72
     1
 11
214.73466440239
 21
14.5345128763698
 31
0.0
 73
     2
  0
LINE
  5
   133
  8
0
  6
CONTINUOUS
 62
     7
 10
185.563812270761
 20
20.6162699888875
 30
0.0
 11
185.563812270761
 21
10.2845129095781
 31
0.0
  0
LINE
  5
   134
  8
0
  6
CONTINUOUS
 62
     7
 10
244.363851073495
 20
76.8702251494236
 30
0.0
 11
244.363851073495
 21
10.2845129095781
 31
0.0
  0
LINE
  5
   135
  8
0
  6
CONTINUOUS
 62
     7
 10
185.563812270761
 20
12.2845129095781
 30
0.0
 11
244.363851073495
 21
12.2845129095781
 31
0.0
  0
LINE
  5
   136
  8
0
  6
CONTINUOUS
 62
     7
 10
188.518235532442
 20
12.8054574275784
 30
0.0
 11
185.563812270761
 21
12.2845129095781
 31
0.0
  0
LINE
  5
   137
  8
0
  6
CONTINUOUS
 62
     7
 10
185.563812270761
 20
12.2845129095781
 30
0.0
 11
188.518235532442
 21
11.7635683915778
 31
0.0
  0
LINE
  5
   138
  8
0
  6
CONTINUOUS
 62
     7
 10
241.409427811813
 20
11.7635683915778
 30
0.0
 11
244.363851073495
 21
12.2845129095781
 31
0.0
  0
LINE
  5
   139
  8
0
  6
CONTINUOUS
 62
     7
 10
244.363851073495
 20
12.2845129095781
 30
0.0
 11
241.409427811813
 21
12.8054574275784
 31
0.0
  0
ENDBLK
  5
   13A
  8
0
  6
CONTINUOUS
 62
     7
  0
BLOCK
  5
   13B
  8
0
  6
CONTINUOUS
 62
     7
  2
*UDIM131
 70
    65
 10
0.0
 20
0.0
 30
0.0
  3
*UDIM131
  0
TEXT
  5
   13C
  8
0
  6
CONTINUOUS
 62
     7
 10
224.27529846446
 20
121.914254712976
 30
0.0
 40
2.4999999335834
  1
23
 41
0.933333333333333
 72
     1
 11
226.358631742446
 21
123.164254679768
 31
0.0
 73
     2
  0
LINE
  5
   13D
  8
0
  6
CONTINUOUS
 62
     7
 10
221.785261144593
 20
92.0827777628733
 30
0.0
 11
221.785261144593
 21
122.91425431316
 31
0.0
  0
LINE
  5
   13E
  8
0
  6
CONTINUOUS
 62
     7
 10
229.837904446631
 20
87.2702671637153
 30
0.0
 11
229.837904446631
 21
122.914255017144
 31
0.0
  0
LINE
  5
   13F
  8
0
  6
CONTINUOUS
 62
     7
 10
221.785261144593
 20
120.91425431316
 30
0.0
 11
229.837904446631
 21
120.914255017144
 31
0.0
  0
LINE
  5
   140
  8
0
  6
CONTINUOUS
 62
     7
 10
224.739684360733
 20
121.435199089444
 30
0.0
 11
221.785261144593
 21
120.91425431316
 31
0.0
  0
LINE
  5
   141
  8
0
  6
CONTINUOUS
 62
     7
 10
221.785261144593
 20
120.91425431316
 30
0.0
 11
224.739684451817
 21
120.393310053443
 31
0.0
  0
LINE
  5
   142
  8
0
  6
CONTINUOUS
 62
     7
 10
226.883481230492
 20
120.39331024086
 30
0.0
 11
229.837904446631
 21
120.914255017144
 31
0.0
  0
LINE
  5
   143
  8
0
  6
CONTINUOUS
 62
     7
 10
229.837904446631
 20
120.914255017144
 30
0.0
 11
226.883481139407
 21
121.435199276861
 31
0.0
  0
ENDBLK
  5
   144
  8
0
  6
CONTINUOUS
 62
     7
  0
BLOCK
  5
   145
  8
0
  6
CONTINUOUS
 62
     7
  2
*UDIM132
 70
    65
 10
0.0
 20
0.0
 30
0.0
  3
*UDIM132
  0
TEXT
  5
   146
  8
0
  6
CONTINUOUS
 62
     7
 10
249.985258886934
 20
49.1065052538241
 30
0.0
 40
2.4999999335834
  1
2
 41
0.933333333333333
 72
     1
 11
250.901925529248
 21
50.3565052206158
 31
0.0
 73
     2
  0
LINE
  5
   147
  8
0
  6
CONTINUOUS
 62
     7
 10
246.285260727361
 20
57.1526036408139
 30
0.0
 11
246.285260727361
 21
46.1065048502224
 31
0.0
  0
LINE
  5
   148
  8
0
  6
CONTINUOUS
 62
     7
 10
246.98526071544
 20
61.1203971373789
 30
0.0
 11
246.98526071544
 21
46.1065049114184
 31
0.0
  0
LINE
  5
   149
  8
0
  6
CONTINUOUS
 62
     7
 10
246.285260727361
 20
48.1065048502224
 30
0.0
 11
251.818592477541
 21
48.1065053339617
 31
0.0
  0
LINE
  5
   14A
  8
0
  6
CONTINUOUS
 62
     7
 10
243.330837511222
 20
47.5855600739382
 30
0.0
 11
246.285260727361
 21
48.1065048502224
 31
0.0
  0
LINE
  5
   14B
  8
0
  6
CONTINUOUS
 62
     7
 10
246.285260727361
 20
48.1065048502224
 30
0.0
 11
243.330837420137
 21
48.6274491099389
 31
0.0
  0
LINE
  5
   14C
  8
0
  6
CONTINUOUS
 62
     7
 10
249.939683931579
 20
48.6274496877026
 30
0.0
 11
246.98526071544
 21
48.1065049114184
 31
0.0
  0
LINE
  5
   14D
  8
0
  6
CONTINUOUS
 62
     7
 10
246.98526071544
 20
48.1065049114184
 30
0.0
 11
249.939684022664
 21
47.5855606517019
 31
0.0
  0
ENDBLK
  5
   14E
  8
0
  6
CONTINUOUS
 62
     7
  0
BLOCK
  5
   14F
  8
0
  6
CONTINUOUS
 62
     7
  2
*UDIM133
 70
    65
 10
0.0
 20
0.0
 30
0.0
  3
*UDIM133
  0
TEXT
  5
   150
  8
0
  6
CONTINUOUS
 62
     7
 10
231.635258466301
 20
129.203858317075
 30
0.0
 40
2.4999999335834
  1
 
 41
0.933333333333333
 72
     1
 11
232.551925108615
 21
130.453858283867
 31
0.0
 73
     2
  0
LINE
  5
   151
  8
0
  6
CONTINUOUS
 62
     7
 10
221.785261144593
 20
92.0827777628733
 30
0.0
 11
221.785261144593
 21
130.203858317075
 31
0.0
  0
LINE
  5
   152
  8
0
  6
CONTINUOUS
 62
     7
 10
246.98526071544
 20
115.911920223963
 30
0.0
 11
246.98526071544
 21
130.203858317075
 31
0.0
  0
LINE
  5
   153
  8
0
  6
CONTINUOUS
 62
     7
 10
221.785261144593
 20
128.203858317075
 30
0.0
 11
246.98526071544
 21
128.203858317075
 31
0.0
  0
LINE
  5
   154
  8
0
  6
CONTINUOUS
 62
     7
 10
224.739684406275
 20
128.724802835076
 30
0.0
 11
221.785261144593
 21
128.203858317075
 31
0.0
  0
LINE
  5
   155
  8
0
  6
CONTINUOUS
 62
     7
 10
221.785261144593
 20
128.203858317075
 30
0.0
 11
224.739684406275
 21
127.682913799075
 31
0.0
  0
LINE
  5
   156
  8
0
  6
CONTINUOUS
 62
     7
 10
244.030837453758
 20
127.682913799075
 30
0.0
 11
246.98526071544
 21
128.203858317075
 31
0.0
  0
LINE
  5
   157
  8
0
  6
CONTINUOUS
 62
     7
 10
246.98526071544
 20
128.203858317075
 30
0.0
 11
244.030837453758
 21
128.724802835076
 31
0.0
  0
ENDBLK
  5
   158
  8
0
  6
CONTINUOUS
 62
     7
  0
BLOCK
  5
   159
  8
0
  6
CONTINUOUS
 62
     7
  2
*UDIM134
 70
    65
 10
0.0
 20
0.0
 30
0.0
  3
*UDIM134
  0
TEXT
  5
   15A
  8
0
  6
CONTINUOUS
 62
     7
 10
238.986582730984
 20
19.7288952766376
 30
0.0
 40
2.4999999335834
  1
 
 41
0.933333333333333
 72
     1
 11
239.903249373298
 21
20.9788952434293
 31
0.0
 73
     2
  0
LINE
  5
   15B
  8
0
  6
CONTINUOUS
 62
     7
 10
229.837904446631
 20
81.7702672233199
 30
0.0
 11
229.837904446631
 21
16.7288952766376
 31
0.0
  0
LINE
  5
   15C
  8
0
  6
CONTINUOUS
 62
     7
 10
253.635260602191
 20
82.470267211399
 30
0.0
 11
253.635260602191
 21
16.7288952766376
 31
0.0
  0
LINE
  5
   15D
  8
0
  6
CONTINUOUS
 62
     7
 10
229.837904446631
 20
18.7288952766376
 30
0.0
 11
253.635260602191
 21
18.7288952766376
 31
0.0
  0
LINE
  5
   15E
  8
0
  6
CONTINUOUS
 62
     7
 10
232.792327708313
 20
19.2498397946379
 30
0.0
 11
229.837904446631
 21
18.7288952766376
 31
0.0
  0
LINE
  5
   15F
  8
0
  6
CONTINUOUS
 62
     7
 10
229.837904446631
 20
18.7288952766376
 30
0.0
 11
232.792327708313
 21
18.2079507586372
 31
0.0
  0
LINE
  5
   160
  8
0
  6
CONTINUOUS
 62
     7
 10
250.68083734051
 20
18.2079507586372
 30
0.0
 11
253.635260602191
 21
18.7288952766376
 31
0.0
  0
LINE
  5
   161
  8
0
  6
CONTINUOUS
 62
     7
 10
253.635260602191
 20
18.7288952766376
 30
0.0
 11
250.68083734051
 21
19.2498397946379
 31
0.0
  0
ENDBLK
  5
   162
  8
0
  6
CONTINUOUS
 62
     7
  0
BLOCK
  5
   163
  8
0
  6
CONTINUOUS
 62
     7
  2
*UDIM135
 70
    65
 10
0.0
 20
0.0
 30
0.0
  3
*UDIM135
  0
TEXT
  5
   164
  8
0
  6
CONTINUOUS
 62
     7
 10
224.27529846446
 20
121.914254712976
 30
0.0
 40
2.4999999335834
  1
23
 41
0.933333333333333
 72
     1
 11
226.358631742446
 21
123.164254679768
 31
0.0
 73
     2
  0
LINE
  5
   165
  8
0
  6
CONTINUOUS
 62
     7
 10
221.785261144593
 20
92.0827777628733
 30
0.0
 11
221.785261144593
 21
122.91425431316
 31
0.0
  0
LINE
  5
   166
  8
0
  6
CONTINUOUS
 62
     7
 10
229.837904446631
 20
87.2702671637153
 30
0.0
 11
229.837904446631
 21
122.914255017144
 31
0.0
  0
LINE
  5
   167
  8
0
  6
CONTINUOUS
 62
     7
 10
221.785261144593
 20
120.91425431316
 30
0.0
 11
229.837904446631
 21
120.914255017144
 31
0.0
  0
LINE
  5
   168
  8
0
  6
CONTINUOUS
 62
     7
 10
224.739684360733
 20
121.435199089444
 30
0.0
 11
221.785261144593
 21
120.91425431316
 31
0.0
  0
LINE
  5
   169
  8
0
  6
CONTINUOUS
 62
     7
 10
221.785261144593
 20
120.91425431316
 30
0.0
 11
224.739684451817
 21
120.393310053443
 31
0.0
  0
LINE
  5
   16A
  8
0
  6
CONTINUOUS
 62
     7
 10
226.883481230492
 20
120.39331024086
 30
0.0
 11
229.837904446631
 21
120.914255017144
 31
0.0
  0
LINE
  5
   16B
  8
0
  6
CONTINUOUS
 62
     7
 10
229.837904446631
 20
120.914255017144
 30
0.0
 11
226.883481139407
 21
121.435199276861
 31
0.0
  0
ENDBLK
  5
   16C
  8
0
  6
CONTINUOUS
 62
     7
  0
BLOCK
  5
   16D
  8
0
  6
CONTINUOUS
 62
     7
  2
*UDIM136
 70
    65
 10
0.0
 20
0.0
 30
0.0
  3
*UDIM136
  0
TEXT
  5
   16E
  8
0
  6
CONTINUOUS
 62
     7
 10
249.985258886934
 20
49.1065052538241
 30
0.0
 40
2.4999999335834
  1
2
 41
0.933333333333333
 72
     1
 11
250.901925529248
 21
50.3565052206158
 31
0.0
 73
     2
  0
LINE
  5
   16F
  8
0
  6
CONTINUOUS
 62
     7
 10
246.285260727361
 20
57.1526036408139
 30
0.0
 11
246.285260727361
 21
46.1065048502224
 31
0.0
  0
LINE
  5
   170
  8
0
  6
CONTINUOUS
 62
     7
 10
246.98526071544
 20
61.1203971373789
 30
0.0
 11
246.98526071544
 21
46.1065049114184
 31
0.0
  0
LINE
  5
   171
  8
0
  6
CONTINUOUS
 62
     7
 10
246.285260727361
 20
48.1065048502224
 30
0.0
 11
251.818592477541
 21
48.1065053339617
 31
0.0
  0
LINE
  5
   172
  8
0
  6
CONTINUOUS
 62
     7
 10
243.330837511222
 20
47.5855600739382
 30
0.0
 11
246.285260727361
 21
48.1065048502224
 31
0.0
  0
LINE
  5
   173
  8
0
  6
CONTINUOUS
 62
     7
 10
246.285260727361
 20
48.1065048502224
 30
0.0
 11
243.330837420137
 21
48.6274491099389
 31
0.0
  0
LINE
  5
   174
  8
0
  6
CONTINUOUS
 62
     7
 10
249.939683931579
 20
48.6274496877026
 30
0.0
 11
246.98526071544
 21
48.1065049114184
 31
0.0
  0
LINE
  5
   175
  8
0
  6
CONTINUOUS
 62
     7
 10
246.98526071544
 20
48.1065049114184
 30
0.0
 11
249.939684022664
 21
47.5855606517019
 31
0.0
  0
ENDBLK
  5
   176
  8
0
  6
CONTINUOUS
 62
     7
  0
BLOCK
  5
   177
  8
0
  6
CONTINUOUS
 62
     0
  2
MANIGLIA_ALTO
 70
    64
 10
0.0
 20
0.0
 30
0.0
  3
MANIGLIA_ALTO
  0
LINE
  5
   178
  8
0
  6
CONTINUOUS
 62
     0
 10
62.3380546569824
 20
-372.902191162109
 30
0.0
 11
62.3380546569824
 21
-361.402191162109
 31
0.0
  0
LINE
  5
   179
  8
0
  6
CONTINUOUS
 62
     0
 10
62.3380546569824
 20
-390.902191162109
 30
0.0
 11
62.3380546569824
 21
-372.902191162109
 31
0.0
  0
LINE
  5
   17A
  8
0
  6
CONTINUOUS
 62
     0
 10
213.83805847168
 20
-390.902191162109
 30
0.0
 11
213.83805847168
 21
-376.902191162109
 31
0.0
  0
LINE
  5
   17B
  8
0
  6
CONTINUOUS
 62
     0
 10
205.788955688477
 20
-394.902191162109
 30
0.0
 11
207.664886474609
 21
-394.902191162109
 31
0.0
  0
LINE
  5
   17C
  8
0
  6
CONTINUOUS
 62
     0
 10
203.83805847168
 20
-394.902191162109
 30
0.0
 11
205.788955688477
 21
-394.902191162109
 31
0.0
  0
LINE
  5
   17D
  8
0
  6
CONTINUOUS
 62
     0
 10
207.664886474609
 20
-394.902191162109
 30
0.0
 11
209.393753051758
 21
-394.902191162109
 31
0.0
  0
LINE
  5
   17E
  8
0
  6
CONTINUOUS
 62
     0
 10
209.393753051758
 20
-394.902191162109
 30
0.0
 11
209.83805847168
 21
-394.902191162109
 31
0.0
  0
LINE
  5
   17F
  8
0
  6
CONTINUOUS
 62
     0
 10
173.83805847168
 20
-394.902191162109
 30
0.0
 11
179.83805847168
 21
-394.902191162109
 31
0.0
  0
LINE
  5
   180
  8
0
  6
CONTINUOUS
 62
     0
 10
179.83805847168
 20
-394.902191162109
 30
0.0
 11
203.83805847168
 21
-394.902191162109
 31
0.0
  0
LINE
  5
   181
  8
0
  6
CONTINUOUS
 62
     0
 10
87.5320663452148
 20
-394.902191162109
 30
0.0
 11
173.83805847168
 21
-394.902191162109
 31
0.0
  0
LINE
  5
   182
  8
0
  6
CONTINUOUS
 62
     0
 10
75.8728408813477
 20
-394.902191162109
 30
0.0
 11
77.9805297851563
 21
-394.902191162109
 31
0.0
  0
LINE
  5
   183
  8
0
  6
CONTINUOUS
 62
     0
 10
77.9805297851563
 20
-394.902191162109
 30
0.0
 11
80.2360076904297
 21
-394.902191162109
 31
0.0
  0
LINE
  5
   184
  8
0
  6
CONTINUOUS
 62
     0
 10
80.2360076904297
 20
-394.902191162109
 30
0.0
 11
82.6043853759766
 21
-394.902191162109
 31
0.0
  0
LINE
  5
   185
  8
0
  6
CONTINUOUS
 62
     0
 10
82.6043853759766
 20
-394.902191162109
 30
0.0
 11
85.0490188598633
 21
-394.902191162109
 31
0.0
  0
LINE
  5
   186
  8
0
  6
CONTINUOUS
 62
     0
 10
85.0490188598633
 20
-394.902191162109
 30
0.0
 11
87.5320663452148
 21
-394.902191162109
 31
0.0
  0
LINE
  5
   187
  8
0
  6
CONTINUOUS
 62
     0
 10
74.906494140625
 20
-394.902191162109
 30
0.0
 11
75.8728408813477
 21
-394.902191162109
 31
0.0
  0
LINE
  5
   188
  8
0
  6
CONTINUOUS
 62
     0
 10
73.8382720947266
 20
-394.902191162109
 30
0.0
 11
74.906494140625
 21
-394.902191162109
 31
0.0
  0
LINE
  5
   189
  8
0
  6
CONTINUOUS
 62
     0
 10
72.7478790283203
 20
-394.902191162109
 30
0.0
 11
73.8382720947266
 21
-394.902191162109
 31
0.0
  0
LINE
  5
   18A
  8
0
  6
CONTINUOUS
 62
     0
 10
70.8215179443359
 20
-394.902191162109
 30
0.0
 11
71.7166442871094
 21
-394.902191162109
 31
0.0
  0
LINE
  5
   18B
  8
0
  6
CONTINUOUS
 62
     0
 10
71.7166442871094
 20
-394.902191162109
 30
0.0
 11
72.7478790283203
 21
-394.902191162109
 31
0.0
  0
LINE
  5
   18C
  8
0
  6
CONTINUOUS
 62
     0
 10
66.7888107299805
 20
-394.902191162109
 30
0.0
 11
68.6658325195313
 21
-394.902191162109
 31
0.0
  0
LINE
  5
   18D
  8
0
  6
CONTINUOUS
 62
     0
 10
66.3380584716797
 20
-394.902191162109
 30
0.0
 11
66.7888107299805
 21
-394.902191162109
 31
0.0
  0
LINE
  5
   18E
  8
0
  6
CONTINUOUS
 62
     0
 10
68.6658325195313
 20
-394.902191162109
 30
0.0
 11
70.8215179443359
 21
-394.902191162109
 31
0.0
  0
LINE
  5
   18F
  8
0
  6
CONTINUOUS
 62
     0
 10
109.853317260742
 20
-361.402191162109
 30
0.0
 11
114.688591003418
 21
-361.402191162109
 31
0.0
  0
LINE
  5
   190
  8
0
  6
CONTINUOUS
 62
     0
 10
70.8215179443359
 20
-361.402191162109
 30
0.0
 11
71.7166442871094
 21
-361.402191162109
 31
0.0
  0
LINE
  5
   191
  8
0
  6
CONTINUOUS
 62
     0
 10
71.7166442871094
 20
-361.402191162109
 30
0.0
 11
71.9718246459961
 21
-361.402191162109
 31
0.0
  0
LINE
  5
   192
  8
0
  6
CONTINUOUS
 62
     0
 10
62.3380546569824
 20
-361.402191162109
 30
0.0
 11
62.5210952758789
 21
-361.402191162109
 31
0.0
  0
LINE
  5
   193
  8
0
  6
CONTINUOUS
 62
     0
 10
62.5210952758789
 20
-361.402191162109
 30
0.0
 11
63.0676803588867
 21
-361.402191162109
 31
0.0
  0
LINE
  5
   194
  8
0
  6
CONTINUOUS
 62
     0
 10
67.6103439331055
 20
-361.402191162109
 30
0.0
 11
68.6658325195313
 21
-361.402191162109
 31
0.0
  0
LINE
  5
   195
  8
0
  6
CONTINUOUS
 62
     0
 10
63.7391319274902
 20
-361.402191162109
 30
0.0
 11
63.9702682495117
 21
-361.402191162109
 31
0.0
  0
LINE
  5
   196
  8
0
  6
CONTINUOUS
 62
     0
 10
63.9702682495117
 20
-361.402191162109
 30
0.0
 11
65.2163848876953
 21
-361.402191162109
 31
0.0
  0
LINE
  5
   197
  8
0
  6
CONTINUOUS
 62
     0
 10
65.2163848876953
 20
-361.402191162109
 30
0.0
 11
66.7888107299805
 21
-361.402191162109
 31
0.0
  0
LINE
  5
   198
  8
0
  6
CONTINUOUS
 62
     0
 10
63.0676803588867
 20
-361.402191162109
 30
0.0
 11
63.588737487793
 21
-361.402191162109
 31
0.0
  0
LINE
  5
   199
  8
0
  6
CONTINUOUS
 62
     0
 10
68.6658325195313
 20
-361.402191162109
 30
0.0
 11
70.8215179443359
 21
-361.402191162109
 31
0.0
  0
LINE
  5
   19A
  8
0
  6
CONTINUOUS
 62
     0
 10
66.7888107299805
 20
-361.402191162109
 30
0.0
 11
67.2918395996094
 21
-361.402191162109
 31
0.0
  0
LINE
  5
   19B
  8
0
  6
CONTINUOUS
 62
     0
 10
212.189193725586
 20
-394.138244628906
 30
0.0
 11
213.074127197266
 21
-393.253326416016
 31
0.0
  0
LINE
  5
   19C
  8
0
  6
CONTINUOUS
 62
     0
 10
211.074127197266
 20
-394.706420898438
 30
0.0
 11
212.152755737305
 21
-394.156829833985
 31
0.0
  0
LINE
  5
   19D
  8
0
  6
CONTINUOUS
 62
     0
 10
210.909118652344
 20
-394.732543945313
 30
0.0
 11
211.074127197266
 21
-394.706420898438
 31
0.0
  0
LINE
  5
   19E
  8
0
  6
CONTINUOUS
 62
     0
 10
212.152755737305
 20
-394.156829833984
 30
0.0
 11
212.189193725586
 21
-394.138244628906
 31
0.0
  0
LINE
  5
   19F
  8
0
  6
CONTINUOUS
 62
     0
 10
213.642288208008
 20
-392.138244628906
 30
0.0
 11
213.645904541016
 21
-392.115356445313
 31
0.0
  0
LINE
  5
   1A0
  8
0
  6
CONTINUOUS
 62
     0
 10
209.83805847168
 20
-394.90219116211
 30
0.0
 11
210.909118652344
 21
-394.732543945313
 31
0.0
  0
LINE
  5
   1A1
  8
0
  6
CONTINUOUS
 62
     0
 10
213.645904541016
 20
-392.115356445312
 30
0.0
 11
213.83805847168
 21
-390.902191162109
 31
0.0
  0
LINE
  5
   1A2
  8
0
  6
CONTINUOUS
 62
     0
 10
213.076858520508
 20
-393.247985839844
 30
0.0
 11
213.642288208008
 21
-392.138244628906
 31
0.0
  0
LINE
  5
   1A3
  8
0
  6
CONTINUOUS
 62
     0
 10
213.074127197266
 20
-393.253326416016
 30
0.0
 11
213.076858520508
 21
-393.247985839844
 31
0.0
  0
LINE
  5
   1A4
  8
0
  6
CONTINUOUS
 62
     0
 10
63.986915588379
 20
-394.138244628906
 30
0.0
 11
65.1019897460938
 21
-394.706420898438
 31
0.0
  0
LINE
  5
   1A5
  8
0
  6
CONTINUOUS
 62
     0
 10
62.521095275879
 20
-392.057830810547
 30
0.0
 11
62.5338287353516
 21
-392.138244628906
 31
0.0
  0
LINE
  5
   1A6
  8
0
  6
CONTINUOUS
 62
     0
 10
65.2163848876953
 20
-394.724517822266
 30
0.0
 11
66.3380584716797
 21
-394.90219116211
 31
0.0
  0
LINE
  5
   1A7
  8
0
  6
CONTINUOUS
 62
     0
 10
62.3380546569825
 20
-390.902191162109
 30
0.0
 11
62.521095275879
 21
-392.057830810547
 31
0.0
  0
LINE
  5
   1A8
  8
0
  6
CONTINUOUS
 62
     0
 10
63.1019897460938
 20
-393.253326416016
 30
0.0
 11
63.9702682495118
 21
-394.121612548828
 31
0.0
  0
LINE
  5
   1A9
  8
0
  6
CONTINUOUS
 62
     0
 10
65.1019897460938
 20
-394.706420898437
 30
0.0
 11
65.2163848876953
 21
-394.724517822266
 31
0.0
  0
LINE
  5
   1AA
  8
0
  6
CONTINUOUS
 62
     0
 10
63.9702682495117
 20
-394.121612548828
 30
0.0
 11
63.9869155883789
 21
-394.138244628906
 31
0.0
  0
LINE
  5
   1AB
  8
0
  6
CONTINUOUS
 62
     0
 10
62.5338287353516
 20
-392.138244628906
 30
0.0
 11
63.0676803588868
 21
-393.186004638672
 31
0.0
  0
LINE
  5
   1AC
  8
0
  6
CONTINUOUS
 62
     0
 10
63.0676803588867
 20
-393.186004638672
 30
0.0
 11
63.1019897460938
 21
-393.253326416016
 31
0.0
  0
LINE
  5
   1AD
  8
0
  6
CONTINUOUS
 62
     0
 10
104.266105651856
 20
-376.90219116211
 30
0.0
 11
106.404235839844
 21
-376.597717285156
 31
0.0
  0
LINE
  5
   1AE
  8
0
  6
CONTINUOUS
 62
     0
 10
106.404235839844
 20
-376.597717285156
 30
0.0
 11
108.216857910156
 21
-375.730621337891
 31
0.0
  0
LINE
  5
   1AF
  8
0
  6
CONTINUOUS
 62
     0
 10
108.216857910156
 20
-375.730621337891
 30
0.0
 11
109.428016662598
 21
-374.432922363281
 31
0.0
  0
LINE
  5
   1B0
  8
0
  6
CONTINUOUS
 62
     0
 10
109.428016662598
 20
-374.432922363281
 30
0.0
 11
109.853317260742
 21
-372.902191162109
 31
0.0
  0
LINE
  5
   1B1
  8
0
  6
CONTINUOUS
 62
     0
 10
75.8728408813477
 20
-376.648345947266
 30
0.0
 11
77.1174240112305
 21
-376.902191162109
 31
0.0
  0
LINE
  5
   1B2
  8
0
  6
CONTINUOUS
 62
     0
 10
75.6007385253907
 20
-376.597717285156
 30
0.0
 11
75.8728408813477
 21
-376.648345947266
 31
0.0
  0
LINE
  5
   1B3
  8
0
  6
CONTINUOUS
 62
     0
 10
74.906494140625
 20
-376.163757324219
 30
0.0
 11
75.6007385253907
 21
-376.597717285156
 31
0.0
  0
LINE
  5
   1B4
  8
0
  6
CONTINUOUS
 62
     0
 10
72.7478790283204
 20
-374.517761230469
 30
0.0
 11
73.8382720947266
 21
-375.612854003906
 31
0.0
  0
LINE
  5
   1B5
  8
0
  6
CONTINUOUS
 62
     0
 10
72.6260528564454
 20
-374.432922363281
 30
0.0
 11
72.7478790283204
 21
-374.517761230469
 31
0.0
  0
LINE
  5
   1B6
  8
0
  6
CONTINUOUS
 62
     0
 10
71.9718246459961
 20
-372.902191162109
 30
0.0
 11
72.6260528564454
 21
-374.432922363281
 31
0.0
  0
LINE
  5
   1B7
  8
0
  6
CONTINUOUS
 62
     0
 10
73.8382720947265
 20
-375.612854003906
 30
0.0
 11
73.9287719726563
 21
-375.730621337891
 31
0.0
  0
LINE
  5
   1B8
  8
0
  6
CONTINUOUS
 62
     0
 10
73.9729690551759
 20
-375.756286621094
 30
0.0
 11
74.9064941406251
 21
-376.163757324219
 31
0.0
  0
LINE
  5
   1B9
  8
0
  6
CONTINUOUS
 62
     0
 10
73.9287719726563
 20
-375.730621337891
 30
0.0
 11
73.9729690551758
 21
-375.756286621094
 31
0.0
  0
LINE
  5
   1BA
  8
0
  6
CONTINUOUS
 62
     0
 10
77.1174240112305
 20
-376.902191162109
 30
0.0
 11
81.8851699829102
 21
-376.902191162109
 31
0.0
  0
LINE
  5
   1BB
  8
0
  6
CONTINUOUS
 62
     0
 10
81.8851699829102
 20
-376.902191162109
 30
0.0
 11
88.8380584716797
 21
-376.902191162109
 31
0.0
  0
LINE
  5
   1BC
  8
0
  6
CONTINUOUS
 62
     0
 10
88.8380584716797
 20
-376.902191162109
 30
0.0
 11
95.7909393310547
 21
-376.902191162109
 31
0.0
  0
LINE
  5
   1BD
  8
0
  6
CONTINUOUS
 62
     0
 10
95.7909393310547
 20
-376.902191162109
 30
0.0
 11
102.06322479248
 21
-376.902191162109
 31
0.0
  0
LINE
  5
   1BE
  8
0
  6
CONTINUOUS
 62
     0
 10
102.06322479248
 20
-376.902191162109
 30
0.0
 11
104.266105651855
 21
-376.902191162109
 31
0.0
  0
LINE
  5
   1BF
  8
0
  6
CONTINUOUS
 62
     0
 10
109.853317260742
 20
-372.902191162109
 30
0.0
 11
109.853317260742
 21
-361.402191162109
 31
0.0
  0
LINE
  5
   1C0
  8
0
  6
CONTINUOUS
 62
     0
 10
71.9718246459961
 20
-372.902191162109
 30
0.0
 11
71.9718246459961
 21
-361.402191162109
 31
0.0
  0
LINE
  5
   1C1
  8
0
  6
CONTINUOUS
 62
     0
 10
80.6491088867188
 20
-361.402191162109
 30
0.0
 11
88.8380584716797
 21
-361.402191162109
 31
0.0
  0
LINE
  5
   1C2
  8
0
  6
CONTINUOUS
 62
     0
 10
88.8380584716797
 20
-361.402191162109
 30
0.0
 11
97.0270080566406
 21
-361.402191162109
 31
0.0
  0
LINE
  5
   1C3
  8
0
  6
CONTINUOUS
 62
     0
 10
97.0270080566406
 20
-361.402191162109
 30
0.0
 11
104.414367675781
 21
-361.402191162109
 31
0.0
  0
LINE
  5
   1C4
  8
0
  6
CONTINUOUS
 62
     0
 10
63.6350593566895
 20
-361.402191162109
 30
0.0
 11
63.7391319274902
 21
-361.402191162109
 31
0.0
  0
LINE
  5
   1C5
  8
0
  6
CONTINUOUS
 62
     0
 10
67.3991088867188
 20
-361.402191162109
 30
0.0
 11
67.6103439331055
 21
-361.402191162109
 31
0.0
  0
LINE
  5
   1C6
  8
0
  6
CONTINUOUS
 62
     0
 10
104.414367675781
 20
-361.402191162109
 30
0.0
 11
109.853317260742
 21
-361.402191162109
 31
0.0
  0
LINE
  5
   1C7
  8
0
  6
CONTINUOUS
 62
     0
 10
63.588737487793
 20
-361.402191162109
 30
0.0
 11
63.6350593566895
 21
-361.402191162109
 31
0.0
  0
LINE
  5
   1C8
  8
0
  6
CONTINUOUS
 62
     0
 10
67.2918395996094
 20
-361.402191162109
 30
0.0
 11
67.3991088867188
 21
-361.402191162109
 31
0.0
  0
LINE
  5
   1C9
  8
0
  6
CONTINUOUS
 62
     0
 10
71.9718246459961
 20
-361.402191162109
 30
0.0
 11
73.2617492675781
 21
-361.402191162109
 31
0.0
  0
LINE
  5
   1CA
  8
0
  6
CONTINUOUS
 62
     0
 10
73.2617492675781
 20
-361.402191162109
 30
0.0
 11
80.6491088867188
 21
-361.402191162109
 31
0.0
  0
LINE
  5
   1CB
  8
0
  6
CONTINUOUS
 62
     0
 10
114.688591003418
 20
-361.402191162109
 30
0.0
 11
115.809562683105
 21
-361.402191162109
 31
0.0
  0
LINE
  5
   1CC
  8
0
  6
CONTINUOUS
 62
     0
 10
117.699363708496
 20
-361.402191162109
 30
0.0
 11
118.316734313965
 21
-361.402191162109
 31
0.0
  0
LINE
  5
   1CD
  8
0
  6
CONTINUOUS
 62
     0
 10
116.840698242188
 20
-361.402191162109
 30
0.0
 11
117.699363708496
 21
-361.402191162109
 31
0.0
  0
LINE
  5
   1CE
  8
0
  6
CONTINUOUS
 62
     0
 10
115.809562683105
 20
-361.402191162109
 30
0.0
 11
116.840698242188
 21
-361.402191162109
 31
0.0
  0
LINE
  5
   1CF
  8
0
  6
CONTINUOUS
 62
     0
 10
118.316734313965
 20
-361.402191162109
 30
0.0
 11
119.62678527832
 21
-361.402191162109
 31
0.0
  0
LINE
  5
   1D0
  8
0
  6
CONTINUOUS
 62
     0
 10
120.573738098145
 20
-361.402191162109
 30
0.0
 11
121.10929107666
 21
-361.402191162109
 31
0.0
  0
LINE
  5
   1D1
  8
0
  6
CONTINUOUS
 62
     0
 10
119.62678527832
 20
-361.402191162109
 30
0.0
 11
120.573738098145
 21
-361.402191162109
 31
0.0
  0
LINE
  5
   1D2
  8
0
  6
CONTINUOUS
 62
     0
 10
203.83805847168
 20
-376.902191162109
 30
0.0
 11
205.788955688477
 21
-376.902191162109
 31
0.0
  0
LINE
  5
   1D3
  8
0
  6
CONTINUOUS
 62
     0
 10
213.645904541016
 20
-376.902191162109
 30
0.0
 11
213.83805847168
 21
-376.902191162109
 31
0.0
  0
LINE
  5
   1D4
  8
0
  6
CONTINUOUS
 62
     0
 10
213.076858520508
 20
-376.902191162109
 30
0.0
 11
213.645904541016
 21
-376.902191162109
 31
0.0
  0
LINE
  5
   1D5
  8
0
  6
CONTINUOUS
 62
     0
 10
212.152755737305
 20
-376.902191162109
 30
0.0
 11
213.076858520508
 21
-376.902191162109
 31
0.0
  0
LINE
  5
   1D6
  8
0
  6
CONTINUOUS
 62
     0
 10
210.909118652344
 20
-376.902191162109
 30
0.0
 11
212.152755737305
 21
-376.902191162109
 31
0.0
  0
LINE
  5
   1D7
  8
0
  6
CONTINUOUS
 62
     0
 10
209.393753051758
 20
-376.902191162109
 30
0.0
 11
210.909118652344
 21
-376.902191162109
 31
0.0
  0
LINE
  5
   1D8
  8
0
  6
CONTINUOUS
 62
     0
 10
207.664886474609
 20
-376.902191162109
 30
0.0
 11
209.393753051758
 21
-376.902191162109
 31
0.0
  0
LINE
  5
   1D9
  8
0
  6
CONTINUOUS
 62
     0
 10
205.788955688477
 20
-376.902191162109
 30
0.0
 11
207.664886474609
 21
-376.902191162109
 31
0.0
  0
LINE
  5
   1DA
  8
0
  6
CONTINUOUS
 62
     0
 10
173.83805847168
 20
-376.902191162109
 30
0.0
 11
203.83805847168
 21
-376.902191162109
 31
0.0
  0
LINE
  5
   1DB
  8
0
  6
CONTINUOUS
 62
     0
 10
124.794715881348
 20
-376.902191162109
 30
0.0
 11
173.83805847168
 21
-376.902191162109
 31
0.0
  0
LINE
  5
   1DC
  8
0
  6
CONTINUOUS
 62
     0
 10
122.163124084473
 20
-376.480041503906
 30
0.0
 11
123.458618164063
 21
-376.795837402344
 31
0.0
  0
LINE
  5
   1DD
  8
0
  6
CONTINUOUS
 62
     0
 10
120.94758605957
 20
-375.96435546875
 30
0.0
 11
122.163124084473
 21
-376.480041503906
 31
0.0
  0
LINE
  5
   1DE
  8
0
  6
CONTINUOUS
 62
     0
 10
118.131294250488
 20
-373.402191162109
 30
0.0
 11
118.900573730469
 21
-374.401702880859
 31
0.0
  0
LINE
  5
   1DF
  8
0
  6
CONTINUOUS
 62
     0
 10
118.900573730469
 20
-374.401702880859
 30
0.0
 11
119.848945617676
 21
-375.264495849609
 31
0.0
  0
LINE
  5
   1E0
  8
0
  6
CONTINUOUS
 62
     0
 10
117.564483642578
 20
-372.296325683594
 30
0.0
 11
118.131294250488
 21
-373.402191162109
 31
0.0
  0
LINE
  5
   1E1
  8
0
  6
CONTINUOUS
 62
     0
 10
119.848945617676
 20
-375.264495849609
 30
0.0
 11
120.94758605957
 21
-375.96435546875
 31
0.0
  0
LINE
  5
   1E2
  8
0
  6
CONTINUOUS
 62
     0
 10
117.217353820801
 20
-371.117706298828
 30
0.0
 11
117.564483642578
 21
-372.296325683594
 31
0.0
  0
LINE
  5
   1E3
  8
0
  6
CONTINUOUS
 62
     0
 10
123.458618164063
 20
-376.795837402344
 30
0.0
 11
124.794715881348
 21
-376.90219116211
 31
0.0
  0
LINE
  5
   1E4
  8
0
  6
CONTINUOUS
 62
     0
 10
117.100463867188
 20
-369.902191162109
 30
0.0
 11
117.217353820801
 21
-371.117706298828
 31
0.0
  0
LINE
  5
   1E5
  8
0
  6
CONTINUOUS
 62
     0
 10
121.10929107666
 20
-371.037322998047
 30
0.0
 11
121.10929107666
 21
-361.402191162109
 31
0.0
  0
LINE
  5
   1E6
  8
0
  6
CONTINUOUS
 62
     0
 10
121.10929107666
 20
-371.037322998047
 30
0.0
 11
121.116325378418
 21
-371.117706298828
 31
0.0
  0
ARC
  5
   1E7
  8
0
  6
CONTINUOUS
 62
     0
 10
128.009921620975
 20
-369.902229724967
 30
0.0
 40
6.99993231802968
 50
189.662376711621
 51
270.0
  0
ENDBLK
  5
   1E8
  8
0
  6
CONTINUOUS
 62
     0
  0
BLOCK
  5
   1E9
  8
0
  6
CONTINUOUS
 62
     0
  2
PIANTA
 70
    64
 10
0.0
 20
0.0
 30
0.0
  3
PIANTA
  0
INSERT
  5
   1EA
  8
255
  6
CONTINUOUS
 62
     0
  2
MANIGLIA_ALTO
 10
1.24889774330826E-14
 20
261.421951293945
 30
0.0
  0
LINE
  5
   1EB
  8
0
  6
CONTINUOUS
 62
     0
 10
62.3380546569824
 20
-98.9802398681641
 30
0.0
 11
62.8380546569825
 21
-98.9802398681641
 31
0.0
  0
LINE
  5
   1EC
  8
0
  6
CONTINUOUS
 62
     0
 10
62.8380546569825
 20
-99.9802398681641
 30
0.0
 11
62.8380546569825
 21
-98.980239868164
 31
0.0
  0
LINE
  5
   1ED
  8
0
  6
CONTINUOUS
 62
     0
 10
62.3380546569825
 20
-98.980239868164
 30
0.0
 11
62.3380546569825
 21
-86.480239868164
 31
0.0
  0
LINE
  5
   1EE
  8
0
  6
CONTINUOUS
 62
     0
 10
62.3380546569824
 20
-86.4802398681641
 30
0.0
 11
115.338073730469
 21
-86.4802398681641
 31
0.0
  0
LINE
  5
   1EF
  8
0
  6
CONTINUOUS
 62
     0
 10
114.838073730469
 20
-99.9802398681641
 30
0.0
 11
114.838073730469
 21
-98.980239868164
 31
0.0
  0
LINE
  5
   1F0
  8
0
  6
CONTINUOUS
 62
     0
 10
114.838073730469
 20
-98.9802398681641
 30
0.0
 11
115.338073730469
 21
-98.9802398681641
 31
0.0
  0
LINE
  5
   1F1
  8
0
  6
CONTINUOUS
 62
     0
 10
115.338073730469
 20
-98.980239868164
 30
0.0
 11
115.338073730469
 21
-86.480239868164
 31
0.0
  0
LINE
  5
   1F2
  8
0
  6
CONTINUOUS
 62
     0
 10
62.8380546569825
 20
-98.980239868164
 30
0.0
 11
114.838073730469
 21
-98.980239868164
 31
0.0
  0
ENDBLK
  5
   1F3
  8
0
  6
CONTINUOUS
 62
     0
  0
BLOCK
  5
   1F4
  8
0
  6
CONTINUOUS
 62
     7
  2
*UDIM137
 70
    65
 10
0.0
 20
0.0
 30
0.0
  3
*UDIM137
  0
TEXT
  5
   1F5
  8
0
  6
CONTINUOUS
 62
     7
 10
98.8856082193532
 20
-33.1444419885779
 30
0.0
 40
2.4999999335834
  1
R min.200
 50
359.999999896069
 41
0.933333333333333
 72
     1
 11
109.135607949306
 21
-31.8944420403275
 31
0.0
 73
     2
  0
LINE
  5
   1F6
  8
0
  6
CONTINUOUS
 62
     7
 10
143.039774547215
 20
-28.3119955290669
 30
0.0
 11
143.039774547215
 21
-36.1444420071192
 31
0.0
  0
LINE
  5
   1F7
  8
0
  6
CONTINUOUS
 62
     7
 10
90.5397754412844
 20
-25.4453001626888
 30
0.0
 11
90.5397754412844
 21
-36.1444420071192
 31
0.0
  0
LINE
  5
   1F8
  8
0
  6
CONTINUOUS
 62
     7
 10
143.039774547215
 20
-34.1444420071192
 30
0.0
 11
90.5397754412844
 21
-34.1444420071192
 31
0.0
  0
LINE
  5
   1F9
  8
0
  6
CONTINUOUS
 62
     7
 10
140.085351285533
 20
-34.6653865251196
 30
0.0
 11
143.039774547215
 21
-34.1444420071192
 31
0.0
  0
LINE
  5
   1FA
  8
0
  6
CONTINUOUS
 62
     7
 10
143.039774547215
 20
-34.1444420071192
 30
0.0
 11
140.085351285533
 21
-33.6234974891189
 31
0.0
  0
LINE
  5
   1FB
  8
0
  6
CONTINUOUS
 62
     7
 10
93.494198702966
 20
-33.6234974891189
 30
0.0
 11
90.5397754412844
 21
-34.1444420071192
 31
0.0
  0
LINE
  5
   1FC
  8
0
  6
CONTINUOUS
 62
     7
 10
90.5397754412844
 20
-34.1444420071192
 30
0.0
 11
93.494198702966
 21
-34.6653865251196
 31
0.0
  0
ENDBLK
  5
   1FD
  8
0
  6
CONTINUOUS
 62
     7
  0
BLOCK
  5
   1FE
  8
0
  6
CONTINUOUS
 62
     7
  2
*UDIM138
 70
    65
 10
0.0
 20
0.0
 30
0.0
  3
*UDIM138
  0
TEXT
  5
   1FF
  8
0
  6
CONTINUOUS
 62
     7
 10
96.2463380341555
 20
-104.575585943055
 30
0.0
 40
2.4999999335834
  1
R min.200
 41
0.933333333333333
 72
     1
 11
106.496337761847
 21
-103.325585976263
 31
0.0
 73
     2
  0
LINE
  5
   200
  8
0
  6
CONTINUOUS
 62
     7
 10
90.5397723452481
 20
-104.275221108646
 30
0.0
 11
90.5397723452481
 21
-107.575585943055
 31
0.0
  0
LINE
  5
   201
  8
0
  6
CONTINUOUS
 62
     7
 10
143.389774541254
 20
-103.665684179147
 30
0.0
 11
143.389774541254
 21
-107.575585943055
 31
0.0
  0
LINE
  5
   202
  8
0
  6
CONTINUOUS
 62
     7
 10
90.5397723452481
 20
-105.575585943055
 30
0.0
 11
143.389774541254
 21
-105.575585943055
 31
0.0
  0
LINE
  5
   203
  8
0
  6
CONTINUOUS
 62
     7
 10
93.4941956069297
 20
-105.054641425055
 30
0.0
 11
90.5397723452481
 21
-105.575585943055
 31
0.0
  0
LINE
  5
   204
  8
0
  6
CONTINUOUS
 62
     7
 10
90.5397723452481
 20
-105.575585943055
 30
0.0
 11
93.4941956069297
 21
-106.096530461055
 31
0.0
  0
LINE
  5
   205
  8
0
  6
CONTINUOUS
 62
     7
 10
140.435351279573
 20
-106.096530461055
 30
0.0
 11
143.389774541254
 21
-105.575585943055
 31
0.0
  0
LINE
  5
   206
  8
0
  6
CONTINUOUS
 62
     7
 10
143.389774541254
 20
-105.575585943055
 30
0.0
 11
140.435351279573
 21
-105.054641425055
 31
0.0
  0
ENDBLK
  5
   207
  8
0
  6
CONTINUOUS
 62
     7
  0
BLOCK
  5
   208
  8
0
  6
CONTINUOUS
 62
     7
  2
*UDIM139
 70
    65
 10
0.0
 20
0.0
 30
0.0
  3
*UDIM139
  0
TEXT
  5
   209
  8
0
  6
CONTINUOUS
 62
     7
 10
88.2314859005812
 20
-89.4407498131654
 30
0.0
 40
2.4999999335834
  1
54
 41
0.933333333333333
 72
     1
 11
90.3148191785674
 21
-88.1907498463737
 31
0.0
 73
     2
  0
LINE
  5
   20A
  8
0
  6
CONTINUOUS
 62
     7
 10
81.0939815086017
 20
-85.917222303213
 30
0.0
 11
81.0939815086017
 21
-92.4407498131654
 31
0.0
  0
LINE
  5
   20B
  8
0
  6
CONTINUOUS
 62
     7
 10
99.9939878415326
 20
-79.1184218132393
 30
0.0
 11
99.9939878415326
 21
-92.4407498131654
 31
0.0
  0
LINE
  5
   20C
  8
0
  6
CONTINUOUS
 62
     7
 10
81.0939815086017
 20
-90.4407498131654
 30
0.0
 11
99.9939878415326
 21
-90.4407498131654
 31
0.0
  0
LINE
  5
   20D
  8
0
  6
CONTINUOUS
 62
     7
 10
84.0484047702834
 20
-89.9198052951651
 30
0.0
 11
81.0939815086017
 21
-90.4407498131654
 31
0.0
  0
LINE
  5
   20E
  8
0
  6
CONTINUOUS
 62
     7
 10
81.0939815086017
 20
-90.4407498131654
 30
0.0
 11
84.0484047702834
 21
-90.9616943311658
 31
0.0
  0
LINE
  5
   20F
  8
0
  6
CONTINUOUS
 62
     7
 10
97.039564579851
 20
-90.9616943311658
 30
0.0
 11
99.9939878415326
 21
-90.4407498131654
 31
0.0
  0
LINE
  5
   210
  8
0
  6
CONTINUOUS
 62
     7
 10
99.9939878415326
 20
-90.4407498131654
 30
0.0
 11
97.039564579851
 21
-89.9198052951651
 31
0.0
  0
ENDBLK
  5
   211
  8
0
  6
CONTINUOUS
 62
     7
  0
BLOCK
  5
   212
  8
0
  6
CONTINUOUS
 62
     7
  2
*UDIM140
 70
    65
 10
0.0
 20
0.0
 30
0.0
  3
*UDIM140
  0
TEXT
  5
   213
  8
0
  6
CONTINUOUS
 62
     7
 10
70.735440232689
 20
-75.3555555232935
 30
0.0
 40
2.4999999335834
  1
28
 50
90.0
 41
0.933333333333333
 72
     1
 11
69.4854402658947
 21
-73.2722222453089
 31
0.0
 73
     2
  0
LINE
  5
   214
  8
0
  6
CONTINUOUS
 62
     7
 10
73.1296720098741
 20
-78.6064810088562
 30
0.0
 11
69.7354402326864
 21
-78.6064810088562
 31
0.0
  0
LINE
  5
   215
  8
0
  6
CONTINUOUS
 62
     7
 10
76.4676231582339
 20
-68.8064811757492
 30
0.0
 11
69.7354402326864
 21
-68.8064811757492
 31
0.0
  0
LINE
  5
   216
  8
0
  6
CONTINUOUS
 62
     7
 10
71.7354402326864
 20
-78.6064810088562
 30
0.0
 11
71.7354402326864
 21
-68.8064811757492
 31
0.0
  0
LINE
  5
   217
  8
0
  6
CONTINUOUS
 62
     7
 10
71.214495714686
 20
-75.6520577471746
 30
0.0
 11
71.7354402326864
 21
-78.6064810088562
 31
0.0
  0
LINE
  5
   218
  8
0
  6
CONTINUOUS
 62
     7
 10
71.7354402326864
 20
-78.6064810088562
 30
0.0
 11
72.2563847506867
 21
-75.6520577471746
 31
0.0
  0
LINE
  5
   219
  8
0
  6
CONTINUOUS
 62
     7
 10
72.2563847506867
 20
-71.7609044374309
 30
0.0
 11
71.7354402326864
 21
-68.8064811757492
 31
0.0
  0
LINE
  5
   21A
  8
0
  6
CONTINUOUS
 62
     7
 10
71.7354402326864
 20
-68.8064811757492
 30
0.0
 11
71.214495714686
 21
-71.7609044374309
 31
0.0
  0
ENDBLK
  5
   21B
  8
0
  6
CONTINUOUS
 62
     7
  0
BLOCK
  5
   21C
  8
0
  6
CONTINUOUS
 62
     7
  2
*UDIM141
 70
    65
 10
0.0
 20
0.0
 30
0.0
  3
*UDIM141
  0
TEXT
  5
   21D
  8
0
  6
CONTINUOUS
 62
     7
 10
93.8273146338297
 20
-52.2370417980592
 30
0.0
 40
2.4999999335834
  1
5
 41
0.933333333333333
 72
     1
 11
94.7439812761436
 21
-50.9870418312675
 31
0.0
 73
     2
  0
LINE
  5
   21E
  8
0
  6
CONTINUOUS
 62
     7
 10
99.1189812016378
 20
-59.7496733740932
 30
0.0
 11
99.1189812016378
 21
-51.2370417980592
 31
0.0
  0
LINE
  5
   21F
  8
0
  6
CONTINUOUS
 62
     7
 10
100.868981171835
 20
-59.7496733740932
 30
0.0
 11
100.868981171835
 21
-51.2370417980592
 31
0.0
  0
LINE
  5
   220
  8
0
  6
CONTINUOUS
 62
     7
 10
93.8273146338297
 20
-53.2370417980592
 30
0.0
 11
100.868981171835
 21
-53.2370417980592
 31
0.0
  0
LINE
  5
   221
  8
0
  6
CONTINUOUS
 62
     7
 10
96.1645579399562
 20
-53.7579863160595
 30
0.0
 11
99.1189812016378
 21
-53.2370417980592
 31
0.0
  0
LINE
  5
   222
  8
0
  6
CONTINUOUS
 62
     7
 10
99.1189812016378
 20
-53.2370417980592
 30
0.0
 11
96.1645579399562
 21
-52.7160972800588
 31
0.0
  0
LINE
  5
   223
  8
0
  6
CONTINUOUS
 62
     7
 10
103.823404433517
 20
-52.7160972800588
 30
0.0
 11
100.868981171835
 21
-53.2370417980592
 31
0.0
  0
LINE
  5
   224
  8
0
  6
CONTINUOUS
 62
     7
 10
100.868981171835
 20
-53.2370417980592
 30
0.0
 11
103.823404433517
 21
-53.7579863160595
 31
0.0
  0
ENDBLK
  5
   225
  8
0
  6
CONTINUOUS
 62
     7
  0
BLOCK
  5
   226
  8
0
  6
CONTINUOUS
 62
     7
  2
*UDIM142
 70
    65
 10
0.0
 20
0.0
 30
0.0
  3
*UDIM142
  0
TEXT
  5
   227
  8
0
  6
CONTINUOUS
 62
     7
 10
88.2272721938949
 20
-84.3636563937685
 30
0.0
 40
2.4999999335834
  1
33
 41
0.933333333333333
 72
     1
 11
90.3106054718811
 21
-83.1136564269767
 31
0.0
 73
     2
  0
LINE
  5
   228
  8
0
  6
CONTINUOUS
 62
     7
 10
84.7647724435958
 20
-69.8064811757492
 30
0.0
 11
84.7647724435958
 21
-87.3636563937685
 31
0.0
  0
LINE
  5
   229
  8
0
  6
CONTINUOUS
 62
     7
 10
96.3147722469005
 20
-69.8064811757492
 30
0.0
 11
96.3147722469005
 21
-87.3636563937685
 31
0.0
  0
LINE
  5
   22A
  8
0
  6
CONTINUOUS
 62
     7
 10
84.7647724435958
 20
-85.3636563937684
 30
0.0
 11
96.3147722469005
 21
-85.3636563937684
 31
0.0
  0
LINE
  5
   22B
  8
0
  6
CONTINUOUS
 62
     7
 10
87.7191957052774
 20
-84.8427118757681
 30
0.0
 11
84.7647724435958
 21
-85.3636563937684
 31
0.0
  0
LINE
  5
   22C
  8
0
  6
CONTINUOUS
 62
     7
 10
84.7647724435958
 20
-85.3636563937684
 30
0.0
 11
87.7191957052774
 21
-85.8846009117688
 31
0.0
  0
LINE
  5
   22D
  8
0
  6
CONTINUOUS
 62
     7
 10
93.3603489852189
 20
-85.8846009117688
 30
0.0
 11
96.3147722469005
 21
-85.3636563937684
 31
0.0
  0
LINE
  5
   22E
  8
0
  6
CONTINUOUS
 62
     7
 10
96.3147722469005
 20
-85.3636563937684
 30
0.0
 11
93.3603489852189
 21
-84.8427118757681
 31
0.0
  0
ENDBLK
  5
   22F
  8
0
  6
CONTINUOUS
 62
     7
  0
BLOCK
  5
   230
  8
0
  6
CONTINUOUS
 62
     7
  2
*UDIM143
 70
    65
 10
0.0
 20
0.0
 30
0.0
  3
*UDIM143
  0
TEXT
  5
   231
  8
0
  6
CONTINUOUS
 62
     7
 10
108.853291317707
 20
-71.0622396904311
 30
0.0
 40
2.4999999335834
  1
46
 50
90.0
 41
0.933333333333333
 72
     1
 11
107.603291350913
 21
-68.9789064124465
 31
0.0
 73
     2
  0
LINE
  5
   232
  8
0
  6
CONTINUOUS
 62
     7
 10
102.26273655486
 20
-76.8496730999118
 30
0.0
 11
111.853291317705
 21
-76.8496730999118
 31
0.0
  0
LINE
  5
   233
  8
0
  6
CONTINUOUS
 62
     7
 10
102.262730356119
 20
-60.7496733740932
 30
0.0
 11
111.853291317705
 21
-60.7496733740932
 31
0.0
  0
LINE
  5
   234
  8
0
  6
CONTINUOUS
 62
     7
 10
109.853291317705
 20
-76.8496730999118
 30
0.0
 11
109.853291317705
 21
-60.7496733740932
 31
0.0
  0
LINE
  5
   235
  8
0
  6
CONTINUOUS
 62
     7
 10
109.332346799704
 20
-73.8952498382302
 30
0.0
 11
109.853291317705
 21
-76.8496730999118
 31
0.0
  0
LINE
  5
   236
  8
0
  6
CONTINUOUS
 62
     7
 10
109.853291317705
 20
-76.8496730999118
 30
0.0
 11
110.374235835705
 21
-73.8952498382302
 31
0.0
  0
LINE
  5
   237
  8
0
  6
CONTINUOUS
 62
     7
 10
110.374235835705
 20
-63.7040966357748
 30
0.0
 11
109.853291317705
 21
-60.7496733740932
 31
0.0
  0
LINE
  5
   238
  8
0
  6
CONTINUOUS
 62
     7
 10
109.853291317705
 20
-60.7496733740932
 30
0.0
 11
109.332346799704
 21
-63.7040966357748
 31
0.0
  0
ENDBLK
  5
   239
  8
0
  6
CONTINUOUS
 62
     7
  0
BLOCK
  5
   23A
  8
0
  6
CONTINUOUS
 62
     7
  2
*UDIM144
 70
    65
 10
0.0
 20
0.0
 30
0.0
  3
*UDIM144
  0
TEXT
  5
   23B
  8
0
  6
CONTINUOUS
 62
     7
 10
92.7716595548017
 20
-46.8239139910743
 30
0.0
 40
2.4999999335834
  1
41,5
 41
0.933333333333333
 72
     1
 11
97.1883261041324
 21
-45.5739140242826
 31
0.0
 73
     2
  0
LINE
  5
   23C
  8
0
  6
CONTINUOUS
 62
     7
 10
90.5397723452481
 20
-59.5273182196345
 30
0.0
 11
90.5397723452481
 21
-45.8239139910743
 31
0.0
  0
LINE
  5
   23D
  8
0
  6
CONTINUOUS
 62
     7
 10
105.064772097889
 20
-49.1562391485313
 30
0.0
 11
105.064772097889
 21
-45.8239139910743
 31
0.0
  0
LINE
  5
   23E
  8
0
  6
CONTINUOUS
 62
     7
 10
90.5397723452481
 20
-47.8239139910743
 30
0.0
 11
105.064772097889
 21
-47.8239139910743
 31
0.0
  0
LINE
  5
   23F
  8
0
  6
CONTINUOUS
 62
     7
 10
93.4941956069297
 20
-47.3029694730739
 30
0.0
 11
90.5397723452481
 21
-47.8239139910743
 31
0.0
  0
LINE
  5
   240
  8
0
  6
CONTINUOUS
 62
     7
 10
90.5397723452481
 20
-47.8239139910743
 30
0.0
 11
93.4941956069297
 21
-48.3448585090746
 31
0.0
  0
LINE
  5
   241
  8
0
  6
CONTINUOUS
 62
     7
 10
102.110348836207
 20
-48.3448585090746
 30
0.0
 11
105.064772097889
 21
-47.8239139910743
 31
0.0
  0
LINE
  5
   242
  8
0
  6
CONTINUOUS
 62
     7
 10
105.064772097889
 20
-47.8239139910743
 30
0.0
 11
102.110348836207
 21
-47.3029694730739
 31
0.0
  0
ENDBLK
  5
   243
  8
0
  6
CONTINUOUS
 62
     7
  0
BLOCK
  5
   244
  8
0
  6
CONTINUOUS
 62
     7
  2
*UDIM145
 70
    65
 10
0.0
 20
0.0
 30
0.0
  3
*UDIM145
  0
TEXT
  5
   245
  8
0
  6
CONTINUOUS
 62
     7
 10
249.923263724681
 20
-40.6432362272409
 30
0.0
 40
2.50000001341104
  1
70
 50
359.999999896069
 41
0.933333333333333
 72
     1
 11
252.006597071451
 21
-39.3932362243039
 31
0.0
 73
     2
  0
LINE
  5
   246
  8
0
  6
CONTINUOUS
 62
     7
 10
259.235763758421
 20
-36.006482783705
 30
0.0
 11
259.235763758421
 21
-43.6432362310094
 31
0.0
  0
LINE
  5
   247
  8
0
  6
CONTINUOUS
 62
     7
 10
259.235763758421
 20
-41.6432362310094
 30
0.0
 11
245.235763549805
 21
-41.6432362310094
 31
0.0
  0
LINE
  5
   248
  8
0
  6
CONTINUOUS
 62
     7
 10
256.281340496739
 20
-42.1641807490098
 30
0.0
 11
259.235763758421
 21
-41.6432362310094
 31
0.0
  0
LINE
  5
   249
  8
0
  6
CONTINUOUS
 62
     7
 10
259.235763758421
 20
-41.6432362310094
 30
0.0
 11
256.281340496739
 21
-41.1222917130091
 31
0.0
  0
LINE
  5
   24A
  8
0
  6
CONTINUOUS
 62
     7
 10
248.190186811486
 20
-41.1222917130091
 30
0.0
 11
245.235763549805
 21
-41.6432362310094
 31
0.0
  0
LINE
  5
   24B
  8
0
  6
CONTINUOUS
 62
     7
 10
245.235763549805
 20
-41.6432362310094
 30
0.0
 11
248.190186811486
 21
-42.1641807490098
 31
0.0
  0
ENDBLK
  5
   24C
  8
0
  6
CONTINUOUS
 62
     7
  0
BLOCK
  5
   24D
  8
0
  6
CONTINUOUS
 62
     7
  2
*UDIM146
 70
    65
 10
0.0
 20
0.0
 30
0.0
  3
*UDIM146
  0
TEXT
  5
   24E
  8
0
  6
CONTINUOUS
 62
     7
 10
235.923262753125
 20
-40.6432362272409
 30
0.0
 40
2.50000001341104
  1
70
 50
359.999999896069
 41
0.933333333333333
 72
     1
 11
238.006596099896
 21
-39.3932362243039
 31
0.0
 73
     2
  0
LINE
  5
   24F
  8
0
  6
CONTINUOUS
 62
     7
 10
231.235763341188
 20
-34.8564827665687
 30
0.0
 11
231.235763341188
 21
-43.6432362310094
 31
0.0
  0
LINE
  5
   250
  8
0
  6
CONTINUOUS
 62
     7
 10
245.235763549805
 20
-41.6432362310094
 30
0.0
 11
231.235763341188
 21
-41.6432362310094
 31
0.0
  0
LINE
  5
   251
  8
0
  6
CONTINUOUS
 62
     7
 10
242.281340288123
 20
-42.1641807490098
 30
0.0
 11
245.235763549805
 21
-41.6432362310094
 31
0.0
  0
LINE
  5
   252
  8
0
  6
CONTINUOUS
 62
     7
 10
245.235763549805
 20
-41.6432362310094
 30
0.0
 11
242.281340288123
 21
-41.1222917130091
 31
0.0
  0
LINE
  5
   253
  8
0
  6
CONTINUOUS
 62
     7
 10
234.19018660287
 20
-41.1222917130091
 30
0.0
 11
231.235763341188
 21
-41.6432362310094
 31
0.0
  0
LINE
  5
   254
  8
0
  6
CONTINUOUS
 62
     7
 10
231.235763341188
 20
-41.6432362310094
 30
0.0
 11
234.19018660287
 21
-42.1641807490098
 31
0.0
  0
ENDBLK
  5
   255
  8
0
  6
CONTINUOUS
 62
     7
  0
BLOCK
  5
   256
  8
0
  6
CONTINUOUS
 62
     7
  2
*UDIM147
 70
    65
 10
0.0
 20
0.0
 30
0.0
  3
*UDIM147
  0
TEXT
  5
   257
  8
0
  6
CONTINUOUS
 62
     7
 10
245.761352032886
 20
-59.8322868874043
 30
0.0
 40
2.50000001341104
  1
5,5
 50
337.56167642378
 41
0.933333333333333
 72
     1
 11
249.242408472438
 21
-59.9174114710467
 31
0.0
 73
     2
  0
TEXT
  5
   258
  8
0
  6
CONTINUOUS
 62
     7
 10
243.335088286376
 20
-58.8303540611577
 30
0.0
 40
2.50000001341104
  1
Ø
 50
337.56167642378
 41
0.933333333333333
 72
     1
 11
244.659465856019
 21
-58.0248716860662
 31
0.0
 73
     2
  0
TEXT
  5
   259
  8
0
  6
CONTINUOUS
 62
     7
 10
252.192876504105
 20
-62.4882040477564
 30
0.0
 40
2.50000001341104
  1
-M5
 50
337.56167642378
 41
0.933333333333333
 72
     1
 11
255.673932943657
 21
-62.5733286313988
 31
0.0
 73
     2
  0
LINE
  5
   25A
  8
0
  6
CONTINUOUS
 62
     7
 10
257.819078953162
 20
-65.8934715110654
 30
0.0
 11
237.727403420933
 21
-57.5965543392391
 31
0.0
  0
LINE
  5
   25B
  8
0
  6
CONTINUOUS
 62
     7
 10
241.673708755834
 20
-58.6625775624114
 30
0.0
 11
238.74412347006
 21
-58.0164119076639
 31
0.0
  0
LINE
  5
   25C
  8
0
  6
CONTINUOUS
 62
     7
 10
238.74412347006
 20
-58.0164119076639
 30
0.0
 11
241.276031491557
 21
-59.6255861588502
 31
0.0
  0
LINE
  5
   25D
  8
0
  6
CONTINUOUS
 62
     7
 10
234.797818135159
 20
-56.9503886844916
 30
0.0
 11
237.727403420933
 21
-57.5965543392391
 31
0.0
  0
LINE
  5
   25E
  8
0
  6
CONTINUOUS
 62
     7
 10
237.727403420933
 20
-57.5965543392391
 30
0.0
 11
235.195495399436
 21
-55.9873800880527
 31
0.0
  0
ENDBLK
  5
   25F
  8
0
  6
CONTINUOUS
 62
     7
  0
BLOCK
  5
   260
  8
0
  6
CONTINUOUS
 62
     7
  2
*UDIM148
 70
    65
 10
0.0
 20
0.0
 30
0.0
  3
*UDIM148
  0
TEXT
  5
   261
  8
0
  6
CONTINUOUS
 62
     7
 10
268.31052028104
 20
-34.6163781759726
 30
0.0
 40
2.50000001341104
  1
35
 50
326.487613132109
 41
0.933333333333333
 72
     1
 11
270.737680355212
 21
-34.7244143525646
 31
0.0
 73
     2
  0
TEXT
  5
   262
  8
0
  6
CONTINUOUS
 62
     7
 10
266.121883246615
 20
-33.1670703799943
 30
0.0
 40
2.50000001341104
  1
Ø
 50
326.487613132109
 41
0.933333333333333
 72
     1
 11
267.576315757403
 21
-32.6309697596647
 31
0.0
 73
     2
  0
LINE
  5
   263
  8
0
  6
CONTINUOUS
 62
     7
 10
271.232430047057
 20
-37.750633213939
 30
0.0
 11
256.317581036944
 21
-27.8740723023054
 31
0.0
  0
LINE
  5
   264
  8
0
  6
CONTINUOUS
 62
     7
 10
259.403024943571
 20
-30.5420511402065
 30
0.0
 11
262.153946479898
 21
-31.7388931101325
 31
0.0
  0
LINE
  5
   265
  8
0
  6
CONTINUOUS
 62
     7
 10
262.153946479898
 20
-31.7388931101325
 30
0.0
 11
259.978269852969
 21
-29.6733589867073
 31
0.0
  0
LINE
  5
   266
  8
0
  6
CONTINUOUS
 62
     7
 10
259.068502573271
 20
-29.0709142722314
 30
0.0
 11
256.317581036944
 21
-27.8740723023054
 31
0.0
  0
LINE
  5
   267
  8
0
  6
CONTINUOUS
 62
     7
 10
256.317581036944
 20
-27.8740723023054
 30
0.0
 11
258.493257663873
 21
-29.9396064257306
 31
0.0
  0
ENDBLK
  5
   268
  8
0
  6
CONTINUOUS
 62
     7
  0
BLOCK
  5
   269
  8
0
  6
CONTINUOUS
 62
     7
  2
*UDIM149
 70
    65
 10
0.0
 20
0.0
 30
0.0
  3
*UDIM149
  0
TEXT
  5
   26A
  8
0
  6
CONTINUOUS
 62
     7
 10
275.179770352688
 20
-95.5856505945445
 30
0.0
 40
2.50000001341104
  1
135
 50
449.999999896069
 41
0.933333333333333
 72
     1
 11
273.929770351857
 21
-92.3356505748506
 31
0.0
 73
     2
  0
LINE
  5
   26B
  8
0
  6
CONTINUOUS
 62
     7
 10
264.449378834183
 20
-78.6064834333956
 30
0.0
 11
278.179770358563
 21
-78.6064834333956
 31
0.0
  0
LINE
  5
   26C
  8
0
  6
CONTINUOUS
 62
     7
 10
265.435763835907
 20
-105.606483835727
 30
0.0
 11
278.179770358563
 21
-105.606483835727
 31
0.0
  0
LINE
  5
   26D
  8
0
  6
CONTINUOUS
 62
     7
 10
276.179770358563
 20
-78.6064834333956
 30
0.0
 11
276.179770358563
 21
-105.606483835727
 31
0.0
  0
LINE
  5
   26E
  8
0
  6
CONTINUOUS
 62
     7
 10
276.700714876563
 20
-81.5609066950772
 30
0.0
 11
276.179770358563
 21
-78.6064834333956
 31
0.0
  0
LINE
  5
   26F
  8
0
  6
CONTINUOUS
 62
     7
 10
276.179770358563
 20
-78.6064834333956
 30
0.0
 11
275.658825840562
 21
-81.5609066950772
 31
0.0
  0
LINE
  5
   270
  8
0
  6
CONTINUOUS
 62
     7
 10
275.658825840562
 20
-102.652060574045
 30
0.0
 11
276.179770358563
 21
-105.606483835727
 31
0.0
  0
LINE
  5
   271
  8
0
  6
CONTINUOUS
 62
     7
 10
276.179770358563
 20
-105.606483835727
 30
0.0
 11
276.700714876563
 21
-102.652060574045
 31
0.0
  0
ENDBLK
  5
   272
  8
0
  6
CONTINUOUS
 62
     7
  0
BLOCK
  5
   273
  8
0
  6
CONTINUOUS
 62
     7
  2
*UDIM150
 70
    65
 10
0.0
 20
0.0
 30
0.0
  3
*UDIM150
  0
TEXT
  5
   274
  8
0
  6
CONTINUOUS
 62
     7
 10
213.452733910422
 20
-71.1856502309561
 30
0.0
 40
2.50000001341104
  1
375
 50
449.999999896069
 41
0.933333333333333
 72
     1
 11
212.202733909592
 21
-67.9356502112622
 31
0.0
 73
     2
  0
LINE
  5
   275
  8
0
  6
CONTINUOUS
 62
     7
 10
234.671252693255
 20
-30.2064827121794
 30
0.0
 11
212.452733916297
 21
-30.2064827121794
 31
0.0
  0
LINE
  5
   276
  8
0
  6
CONTINUOUS
 62
     7
 10
234.533330798437
 20
-105.206483829767
 30
0.0
 11
212.452733916297
 21
-105.206483829767
 31
0.0
  0
LINE
  5
   277
  8
0
  6
CONTINUOUS
 62
     7
 10
214.452733916297
 20
-30.2064827121794
 30
0.0
 11
214.452733916297
 21
-105.206483829767
 31
0.0
  0
LINE
  5
   278
  8
0
  6
CONTINUOUS
 62
     7
 10
214.973678434297
 20
-33.160905973861
 30
0.0
 11
214.452733916297
 21
-30.2064827121794
 31
0.0
  0
LINE
  5
   279
  8
0
  6
CONTINUOUS
 62
     7
 10
214.452733916297
 20
-30.2064827121794
 30
0.0
 11
213.931789398297
 21
-33.160905973861
 31
0.0
  0
LINE
  5
   27A
  8
0
  6
CONTINUOUS
 62
     7
 10
213.931789398297
 20
-102.252060568085
 30
0.0
 11
214.452733916297
 21
-105.206483829767
 31
0.0
  0
LINE
  5
   27B
  8
0
  6
CONTINUOUS
 62
     7
 10
214.452733916297
 20
-105.206483829767
 30
0.0
 11
214.973678434297
 21
-102.252060568085
 31
0.0
  0
ENDBLK
  5
   27C
  8
0
  6
CONTINUOUS
 62
     7
  0
BLOCK
  5
   27D
  8
0
  6
CONTINUOUS
 62
     7
  2
*UDIM151
 70
    65
 10
0.0
 20
0.0
 30
0.0
  3
*UDIM151
  0
TEXT
  5
   27E
  8
0
  6
CONTINUOUS
 62
     7
 10
219.280463794625
 20
-71.6856502384067
 30
0.0
 40
2.50000001341104
  1
104
 50
449.999999896069
 41
0.933333333333333
 72
     1
 11
218.030463793795
 21
-68.4356502187128
 31
0.0
 73
     2
  0
LINE
  5
   27F
  8
0
  6
CONTINUOUS
 62
     7
 10
234.671252693255
 20
-57.8064831234515
 30
0.0
 11
218.2804638005
 21
-57.8064831234515
 31
0.0
  0
LINE
  5
   280
  8
0
  6
CONTINUOUS
 62
     7
 10
220.2804638005
 20
-57.8064831234515
 30
0.0
 11
220.2804638005
 21
-78.6064834333956
 31
0.0
  0
LINE
  5
   281
  8
0
  6
CONTINUOUS
 62
     7
 10
220.801408318501
 20
-60.7609063851331
 30
0.0
 11
220.2804638005
 21
-57.8064831234515
 31
0.0
  0
LINE
  5
   282
  8
0
  6
CONTINUOUS
 62
     7
 10
220.2804638005
 20
-57.8064831234515
 30
0.0
 11
219.7595192825
 21
-60.7609063851331
 31
0.0
  0
LINE
  5
   283
  8
0
  6
CONTINUOUS
 62
     7
 10
219.7595192825
 20
-75.652060171714
 30
0.0
 11
220.2804638005
 21
-78.6064834333956
 31
0.0
  0
LINE
  5
   284
  8
0
  6
CONTINUOUS
 62
     7
 10
220.2804638005
 20
-78.6064834333956
 30
0.0
 11
220.801408318501
 21
-75.652060171714
 31
0.0
  0
ENDBLK
  5
   285
  8
0
  6
CONTINUOUS
 62
     7
  0
BLOCK
  5
   286
  8
0
  6
CONTINUOUS
 62
     7
  2
*UDIM152
 70
    65
 10
0.0
 20
0.0
 30
0.0
  3
*UDIM152
  0
TEXT
  5
   287
  8
0
  6
CONTINUOUS
 62
     7
 10
219.280463794625
 20
-95.3856505915642
 30
0.0
 40
2.50000001341104
  1
133
 50
449.999999896069
 41
0.933333333333333
 72
     1
 11
218.030463793795
 21
-92.1356505718703
 31
0.0
 73
     2
  0
LINE
  5
   288
  8
0
  6
CONTINUOUS
 62
     7
 10
234.533330798437
 20
-105.206483829767
 30
0.0
 11
218.2804638005
 21
-105.206483829767
 31
0.0
  0
LINE
  5
   289
  8
0
  6
CONTINUOUS
 62
     7
 10
220.2804638005
 20
-78.6064834333956
 30
0.0
 11
220.2804638005
 21
-105.206483829767
 31
0.0
  0
LINE
  5
   28A
  8
0
  6
CONTINUOUS
 62
     7
 10
220.801408318501
 20
-81.5609066950772
 30
0.0
 11
220.2804638005
 21
-78.6064834333956
 31
0.0
  0
LINE
  5
   28B
  8
0
  6
CONTINUOUS
 62
     7
 10
220.2804638005
 20
-78.6064834333956
 30
0.0
 11
219.7595192825
 21
-81.5609066950772
 31
0.0
  0
LINE
  5
   28C
  8
0
  6
CONTINUOUS
 62
     7
 10
219.7595192825
 20
-102.252060568085
 30
0.0
 11
220.2804638005
 21
-105.206483829767
 31
0.0
  0
LINE
  5
   28D
  8
0
  6
CONTINUOUS
 62
     7
 10
220.2804638005
 20
-105.206483829767
 30
0.0
 11
220.801408318501
 21
-102.252060568085
 31
0.0
  0
ENDBLK
  5
   28E
  8
0
  6
CONTINUOUS
 62
     7
  0
BLOCK
  5
   28F
  8
0
  6
CONTINUOUS
 62
     7
  2
*UDIM153
 70
    65
 10
0.0
 20
0.0
 30
0.0
  3
*UDIM153
  0
TEXT
  5
   290
  8
0
  6
CONTINUOUS
 62
     7
 10
269.304280462225
 20
-99.1064839867001
 30
0.0
 40
2.50000001341104
  1
8
 50
449.999999896069
 41
0.933333333333333
 72
     1
 11
268.054280457177
 21
-98.1898173128565
 31
0.0
 73
     2
  0
LINE
  5
   291
  8
0
  6
CONTINUOUS
 62
     7
 10
260.235763758421
 20
-102.106483783573
 30
0.0
 11
272.304280463882
 21
-102.106483783573
 31
0.0
  0
LINE
  5
   292
  8
0
  6
CONTINUOUS
 62
     7
 10
256.735763706267
 20
-103.706483807415
 30
0.0
 11
272.304280463882
 21
-103.706483807415
 31
0.0
  0
LINE
  5
   293
  8
0
  6
CONTINUOUS
 62
     7
 10
270.304280463882
 20
-97.2731506412725
 30
0.0
 11
270.304280463882
 21
-103.706483807415
 31
0.0
  0
LINE
  5
   294
  8
0
  6
CONTINUOUS
 62
     7
 10
269.783335945882
 20
-99.1520605218913
 30
0.0
 11
270.304280463882
 21
-102.106483783573
 31
0.0
  0
LINE
  5
   295
  8
0
  6
CONTINUOUS
 62
     7
 10
270.304280463882
 20
-102.106483783573
 30
0.0
 11
270.825224981882
 21
-99.1520605218913
 31
0.0
  0
LINE
  5
   296
  8
0
  6
CONTINUOUS
 62
     7
 10
270.825224981882
 20
-106.660907069096
 30
0.0
 11
270.304280463882
 21
-103.706483807415
 31
0.0
  0
LINE
  5
   297
  8
0
  6
CONTINUOUS
 62
     7
 10
270.304280463882
 20
-103.706483807415
 30
0.0
 11
269.783335945882
 21
-106.660907069096
 31
0.0
  0
ENDBLK
  5
   298
  8
0
  6
CONTINUOUS
 62
     7
  0
BLOCK
  5
   299
  8
0
  6
CONTINUOUS
 62
     7
  2
*UDIM154
 70
    65
 10
0.0
 20
0.0
 30
0.0
  3
*UDIM154
  0
TEXT
  5
   29A
  8
0
  6
CONTINUOUS
 62
     7
 10
280.988208549592
 20
-71.1856502309561
 30
0.0
 40
2.50000001341104
  1
379
 50
449.999999896069
 41
0.933333333333333
 72
     1
 11
279.738208548761
 21
-67.9356502112622
 31
0.0
 73
     2
  0
LINE
  5
   29B
  8
0
  6
CONTINUOUS
 62
     7
 10
265.435763835907
 20
-29.806482706219
 30
0.0
 11
283.988208555467
 21
-29.806482706219
 31
0.0
  0
LINE
  5
   29C
  8
0
  6
CONTINUOUS
 62
     7
 10
265.435763835907
 20
-105.606483835727
 30
0.0
 11
283.988208555467
 21
-105.606483835727
 31
0.0
  0
LINE
  5
   29D
  8
0
  6
CONTINUOUS
 62
     7
 10
281.988208555467
 20
-29.806482706219
 30
0.0
 11
281.988208555467
 21
-105.606483835727
 31
0.0
  0
LINE
  5
   29E
  8
0
  6
CONTINUOUS
 62
     7
 10
282.509153073467
 20
-32.7609059679006
 30
0.0
 11
281.988208555467
 21
-29.806482706219
 31
0.0
  0
LINE
  5
   29F
  8
0
  6
CONTINUOUS
 62
     7
 10
281.988208555467
 20
-29.806482706219
 30
0.0
 11
281.467264037466
 21
-32.7609059679006
 31
0.0
  0
LINE
  5
   2A0
  8
0
  6
CONTINUOUS
 62
     7
 10
281.467264037466
 20
-102.652060574045
 30
0.0
 11
281.988208555467
 21
-105.606483835727
 31
0.0
  0
LINE
  5
   2A1
  8
0
  6
CONTINUOUS
 62
     7
 10
281.988208555467
 20
-105.606483835727
 30
0.0
 11
282.509153073467
 21
-102.652060574045
 31
0.0
  0
ENDBLK
  5
   2A2
  8
0
  6
CONTINUOUS
 62
     7
  0
BLOCK
  5
   2A3
  8
0
  6
CONTINUOUS
 62
     7
  2
*UDIM155
 70
    65
 10
0.0
 20
0.0
 30
0.0
  3
*UDIM155
  0
TEXT
  5
   2A4
  8
0
  6
CONTINUOUS
 62
     7
 10
242.923263620373
 20
-72.2760817388698
 30
0.0
 40
2.50000001341104
  1
70
 50
359.999999896069
 41
0.933333333333333
 72
     1
 11
245.006596967143
 21
-71.0260817359328
 31
0.0
 73
     2
  0
LINE
  5
   2A5
  8
0
  6
CONTINUOUS
 62
     7
 10
252.235763654113
 20
-73.2760817426383
 30
0.0
 11
238.235763445497
 21
-73.2760817426383
 31
0.0
  0
LINE
  5
   2A6
  8
0
  6
CONTINUOUS
 62
     7
 10
249.281340392431
 20
-73.7970262606387
 30
0.0
 11
252.235763654113
 21
-73.2760817426383
 31
0.0
  0
LINE
  5
   2A7
  8
0
  6
CONTINUOUS
 62
     7
 10
252.235763654113
 20
-73.2760817426383
 30
0.0
 11
249.281340392431
 21
-72.755137224638
 31
0.0
  0
LINE
  5
   2A8
  8
0
  6
CONTINUOUS
 62
     7
 10
241.190186707178
 20
-72.755137224638
 30
0.0
 11
238.235763445497
 21
-73.2760817426383
 31
0.0
  0
LINE
  5
   2A9
  8
0
  6
CONTINUOUS
 62
     7
 10
238.235763445497
 20
-73.2760817426383
 30
0.0
 11
241.190186707178
 21
-73.7970262606387
 31
0.0
  0
ENDBLK
  5
   2AA
  8
0
  6
CONTINUOUS
 62
     7
  0
ENDSEC
  0
SECTION
  2
ENTITIES
  0
LINE
  5
   2AB
  8
0
  6
DASHDOT
 62
     7
 10
105.057495117188
 20
86.4039774836588
 30
0.0
 11
105.057495117188
 21
167.232004015235
 31
0.0
  0
LINE
  5
   2AC
  8
0
  6
CONTINUOUS
 62
     1
 10
79.1575559147477
 20
91.0827209487558
 30
0.0
 11
68.5700035289372
 21
91.0827209487558
 31
0.0
  0
LINE
  5
   2AD
  8
0
  6
CONTINUOUS
 62
     7
 10
95.1700190173139
 20
76.4878292561132
 30
0.0
 11
95.5199849676309
 21
76.7003254312823
 31
0.0
  0
LINE
  5
   2AE
  8
0
  6
CONTINUOUS
 62
     7
 10
85.8949913943723
 20
76.4878080793931
 30
0.0
 11
85.5449860595541
 21
76.7003229436621
 31
0.0
  0
LINE
  5
   2AF
  8
0
  6
CONTINUOUS
 62
   212
 10
81.2577004758652
 20
84.5351934733197
 30
0.0
 11
81.2600930539393
 21
84.5501444161704
 31
0.0
  0
LINE
  5
   2B0
  8
0
  6
CONTINUOUS
 62
   212
 10
81.2584571149611
 20
84.530347426305
 30
0.0
 11
81.2576987531597
 21
84.5351886586342
 31
0.0
  0
LINE
  5
   2B1
  8
0
  6
CONTINUOUS
 62
   253
 10
93.8358736198744
 20
94.6703795117012
 30
0.0
 11
93.8312540214939
 21
94.6727347058039
 31
0.0
  0
LINE
  5
   2B2
  8
0
  6
CONTINUOUS
 62
   253
 10
87.2291183329545
 20
94.6703786370345
 30
0.0
 11
87.2337406016679
 21
94.6727338310855
 31
0.0
  0
LINE
  5
   2B3
  8
0
  6
CONTINUOUS
 62
   253
 10
115.557557965147
 20
98.8703785870614
 30
0.0
 11
79.5075559087873
 21
98.8703785870614
 31
0.0
  0
LINE
  5
   2B4
  8
0
  6
CONTINUOUS
 62
   253
 10
79.260068890707
 20
98.7678670135151
 30
0.0
 11
79.5075565269165
 21
98.8703793715676
 31
0.0
  0
LINE
  5
   2B5
  8
0
  6
CONTINUOUS
 62
   253
 10
79.1575563781146
 20
98.5203798086976
 30
0.0
 11
79.260068736167
 21
98.7678674449072
 31
0.0
  0
LINE
  5
   2B6
  8
0
  6
CONTINUOUS
 62
   253
 10
79.1575559147477
 20
62.4703364823411
 30
0.0
 11
79.1575559147477
 21
98.5203785930219
 31
0.0
  0
LINE
  5
   2B7
  8
0
  6
CONTINUOUS
 62
   253
 10
79.2600684420624
 20
62.2228491777594
 30
0.0
 11
79.15755608401
 21
62.470336813969
 31
0.0
  0
LINE
  5
   2B8
  8
0
  6
CONTINUOUS
 62
   253
 10
79.507555191905
 20
62.1203681368673
 30
0.0
 11
79.2600675493743
 21
62.2228484508095
 31
0.0
  0
LINE
  5
   2B9
  8
0
  6
CONTINUOUS
 62
   253
 10
115.557557965147
 20
62.120368531758
 30
0.0
 11
79.5075559087873
 21
62.120368531758
 31
0.0
  0
LINE
  5
   2BA
  8
0
  6
CONTINUOUS
 62
   253
 10
115.557555248974
 20
62.1203674832225
 30
0.0
 11
115.805042891505
 21
62.2228477971647
 31
0.0
  0
LINE
  5
   2BB
  8
0
  6
CONTINUOUS
 62
   253
 10
115.805046382172
 20
62.2228494708224
 30
0.0
 11
115.907558740224
 21
62.4703371070319
 31
0.0
  0
LINE
  5
   2BC
  8
0
  6
CONTINUOUS
 62
   253
 10
115.907557959187
 20
90.1202185187906
 30
0.0
 11
115.907557959187
 21
98.5203785930219
 31
0.0
  0
LINE
  5
   2BD
  8
0
  6
CONTINUOUS
 62
   253
 10
115.90755844612
 20
98.5203795156347
 30
0.0
 11
115.805046088067
 21
98.7678671518443
 31
0.0
  0
LINE
  5
   2BE
  8
0
  6
CONTINUOUS
 62
   253
 10
115.805046514314
 20
98.7678667225038
 30
0.0
 11
115.557558878105
 21
98.8703790805562
 31
0.0
  0
LINE
  5
   2BF
  8
0
  6
CONTINUOUS
 62
   253
 10
85.5499504439474
 20
62.1566070107551
 30
0.0
 11
85.5499504439474
 21
76.7775235098093
 31
0.0
  0
LINE
  5
   2C0
  8
0
  6
CONTINUOUS
 62
   253
 10
85.8999504379869
 20
62.1566070107551
 30
0.0
 11
85.8999504379869
 21
76.599188323027
 31
0.0
  0
LINE
  5
   2C1
  8
0
  6
CONTINUOUS
 62
   253
 10
95.1749502800346
 20
62.1566070107551
 30
0.0
 11
95.1749502800346
 21
76.6042351674234
 31
0.0
  0
LINE
  5
   2C2
  8
0
  6
CONTINUOUS
 62
   253
 10
95.5249502740742
 20
62.1566070107551
 30
0.0
 11
95.5249502740742
 21
76.7825703542058
 31
0.0
  0
LINE
  5
   2C3
  8
0
  6
CONTINUOUS
 62
   253
 10
115.120004566837
 20
94.670378658587
 30
0.0
 11
79.9450024955759
 21
94.670378658587
 31
0.0
  0
LINE
  5
   2C4
  8
0
  6
CONTINUOUS
 62
   253
 10
115.120004566837
 20
98.1703785989823
 30
0.0
 11
79.9450024955759
 21
98.1703785989823
 31
0.0
  0
LINE
  5
   2C5
  8
0
  6
CONTINUOUS
 62
   253
 10
79.9450024955759
 20
94.670378658587
 30
0.0
 11
79.9450024955759
 21
98.1703785989823
 31
0.0
  0
LINE
  5
   2C6
  8
0
  6
CONTINUOUS
 62
   253
 10
115.120004566837
 20
94.670378658587
 30
0.0
 11
115.120004566837
 21
98.1703785989823
 31
0.0
  0
LINE
  5
   2C7
  8
0
  6
CONTINUOUS
 62
   253
 10
79.5950559072971
 20
62.5578792054596
 30
0.0
 11
79.5950559072971
 21
98.432878594512
 31
0.0
  0
LINE
  5
   2C8
  8
0
  6
CONTINUOUS
 62
   253
 10
115.470057966638
 20
62.5578792054596
 30
0.0
 11
115.470057966638
 21
78.9202187095254
 31
0.0
  0
LINE
  5
   2C9
  8
0
  6
CONTINUOUS
 62
   253
 10
115.470057966638
 20
90.1202185187906
 30
0.0
 11
115.470057966638
 21
98.432878594512
 31
0.0
  0
LINE
  5
   2CA
  8
0
  6
CONTINUOUS
 62
   253
 10
85.5499504439474
 20
62.5578792054596
 30
0.0
 11
79.5950559072971
 21
62.5578792054596
 31
0.0
  0
LINE
  5
   2CB
  8
0
  6
CONTINUOUS
 62
   253
 10
79.2856990721108
 20
62.2485223972865
 30
0.0
 11
79.5950586289249
 21
62.5578819541006
 31
0.0
  0
LINE
  5
   2CC
  8
0
  6
CONTINUOUS
 62
   253
 10
95.1749502800346
 20
62.5578792054596
 30
0.0
 11
85.8999504379869
 21
62.5578792054596
 31
0.0
  0
LINE
  5
   2CD
  8
0
  6
CONTINUOUS
 62
   253
 10
115.779411798954
 20
62.2485195046552
 30
0.0
 11
115.470053595281
 21
62.5578790382559
 31
0.0
  0
LINE
  5
   2CE
  8
0
  6
CONTINUOUS
 62
   253
 10
115.470057966638
 20
62.5578792054596
 30
0.0
 11
95.5249502740742
 21
62.5578792054596
 31
0.0
  0
LINE
  5
   2CF
  8
0
  6
CONTINUOUS
 62
   253
 10
115.805040322549
 20
62.2228486923464
 30
0.0
 11
115.779410898919
 21
62.2485195059024
 31
0.0
  0
LINE
  5
   2D0
  8
0
  6
CONTINUOUS
 62
   253
 10
79.260066297049
 20
62.2228468490043
 30
0.0
 11
79.2856943856319
 21
62.2485176626064
 31
0.0
  0
LINE
  5
   2D1
  8
0
  6
CONTINUOUS
 62
   253
 10
79.2856963397189
 20
98.7422355421999
 30
0.0
 11
79.2600682500278
 21
98.7678649669827
 31
0.0
  0
LINE
  5
   2D2
  8
0
  6
CONTINUOUS
 62
   253
 10
115.77942376302
 20
98.7422444179075
 30
0.0
 11
115.805053188074
 21
98.7678738429616
 31
0.0
  0
LINE
  5
   2D3
  8
0
  6
CONTINUOUS
 62
   253
 10
115.470057966638
 20
98.432878594512
 30
0.0
 11
79.5950559072971
 21
98.432878594512
 31
0.0
  0
LINE
  5
   2D4
  8
0
  6
CONTINUOUS
 62
   253
 10
115.470056045341
 20
98.432876666334
 30
0.0
 11
115.779414248453
 21
98.7422348694454
 31
0.0
  0
LINE
  5
   2D5
  8
0
  6
CONTINUOUS
 62
   253
 10
79.59505578775
 20
98.4328741754986
 30
0.0
 11
79.2856962541493
 21
98.7422323791721
 31
0.0
  0
LINE
  5
   2D6
  8
0
  6
CONTINUOUS
 62
   253
 10
85.8999504379869
 20
62.1566070107551
 30
0.0
 11
85.5499504439474
 21
62.1566070107551
 31
0.0
  0
LINE
  5
   2D7
  8
0
  6
CONTINUOUS
 62
   253
 10
95.5249502740742
 20
62.1566070107551
 30
0.0
 11
95.1749502800346
 21
62.1566070107551
 31
0.0
  0
LINE
  5
   2D8
  8
0
  6
DASHDOT
 62
     7
 10
90.532493680261
 20
59.4774566968396
 30
0.0
 11
90.532493680261
 21
94.4952178074323
 31
0.0
  0
LINE
  5
   2D9
  8
0
  6
DASHDOT
 62
     7
 10
125.093482617139
 20
84.5201848431478
 30
0.0
 11
80.5574607159765
 21
84.5201848431478
 31
0.0
  0
LINE
  5
   2DA
  8
0
  6
CONTINUOUS
 62
   253
 10
115.907557959187
 20
62.4703352214344
 30
0.0
 11
115.907557959187
 21
78.9202187095254
 31
0.0
  0
LINE
  5
   2DB
  8
0
  6
DASHDOT
 62
     2
 10
96.2799777877466
 20
74.7202212274078
 30
0.0
 11
60.2107965180611
 21
74.7202212274078
 31
0.0
  0
LINE
  5
   2DC
  8
0
  6
DASHDOT
 62
     7
 10
105.057495117188
 20
19.2803980515748
 30
0.0
 11
105.057495117188
 21
76.2422917832592
 31
0.0
  0
LINE
  5
   2DD
  8
0
  6
DASHDOT
 62
     7
 10
164.75844864655
 20
74.7202212274078
 30
0.0
 11
103.901242063046
 21
74.7202212274078
 31
0.0
  0
LINE
  5
   2DE
  8
0
  6
DASHDOT
 62
     2
 10
105.057495117188
 20
18.2084505319579
 30
0.0
 11
105.057495117188
 21
45.1644899375594
 31
0.0
  0
LINE
  5
   2DF
  8
0
  6
DASHDOT
 62
     7
 10
101.032629067965
 20
109.300148909685
 30
0.0
 11
101.032629067965
 21
114.340310249551
 31
0.0
  0
LINE
  5
   2E0
  8
0
  6
CONTINUOUS
 62
     1
 10
68.3950035319175
 20
54.5077215716243
 30
0.0
 11
68.3950035319175
 21
90.907720951736
 31
0.0
  0
LINE
  5
   2E1
  8
0
  6
CONTINUOUS
 62
     1
 10
141.7200022832
 20
54.5077215716243
 30
0.0
 11
141.7200022832
 21
90.907720951736
 31
0.0
  0
LINE
  5
   2E2
  8
0
  6
CONTINUOUS
 62
     1
 10
141.54500228618
 20
54.3327215746045
 30
0.0
 11
77.898026669598
 21
54.3327215746045
 31
0.0
  0
LINE
  5
   2E3
  8
0
  6
CONTINUOUS
 62
     1
 10
141.54500228618
 20
91.0827209487558
 30
0.0
 11
115.907557959187
 21
91.0827209487558
 31
0.0
  0
LINE
  5
   2E4
  8
0
  6
CONTINUOUS
 62
     1
 10
140.249998035773
 20
91.0827209487558
 30
0.0
 11
140.249998035773
 21
107.970226001739
 31
0.0
  0
LINE
  5
   2E5
  8
0
  6
CONTINUOUS
 62
     1
 10
141.054999090179
 20
91.0827209487558
 30
0.0
 11
141.054999090179
 21
107.970226001739
 31
0.0
  0
LINE
  5
   2E6
  8
0
  6
CONTINUOUS
 62
     1
 10
135.210000257834
 20
91.0827209487558
 30
0.0
 11
135.210000257834
 21
107.970226001739
 31
0.0
  0
LINE
  5
   2E7
  8
0
  6
CONTINUOUS
 62
     1
 10
136.469997032031
 20
91.0827209487558
 30
0.0
 11
136.469997032031
 21
107.970226001739
 31
0.0
  0
LINE
  5
   2E8
  8
0
  6
CONTINUOUS
 62
     1
 10
137.729999146804
 20
91.0827209487558
 30
0.0
 11
137.729999146804
 21
107.970226001739
 31
0.0
  0
LINE
  5
   2E9
  8
0
  6
CONTINUOUS
 62
     1
 10
138.990001261577
 20
91.0827209487558
 30
0.0
 11
138.990001261577
 21
107.970226001739
 31
0.0
  0
LINE
  5
   2EA
  8
0
  6
CONTINUOUS
 62
     1
 10
132.690001368865
 20
91.0827209487558
 30
0.0
 11
132.690001368865
 21
107.970226001739
 31
0.0
  0
LINE
  5
   2EB
  8
0
  6
CONTINUOUS
 62
     1
 10
133.949998143062
 20
91.0827209487558
 30
0.0
 11
133.949998143062
 21
107.970226001739
 31
0.0
  0
LINE
  5
   2EC
  8
0
  6
CONTINUOUS
 62
     1
 10
136.469997032031
 20
54.3327215746045
 30
0.0
 11
136.469997032031
 21
91.0827209487558
 31
0.0
  0
LINE
  5
   2ED
  8
0
  6
CONTINUOUS
 62
     1
 10
138.990001261577
 20
54.3327215746045
 30
0.0
 11
138.990001261577
 21
91.0827209487558
 31
0.0
  0
LINE
  5
   2EE
  8
0
  6
CONTINUOUS
 62
     1
 10
137.729999146804
 20
54.3327215746045
 30
0.0
 11
137.729999146804
 21
91.0827209487558
 31
0.0
  0
LINE
  5
   2EF
  8
0
  6
CONTINUOUS
 62
     1
 10
133.949998143062
 20
54.3327215746045
 30
0.0
 11
133.949998143062
 21
80.7893183674527
 31
0.0
  0
LINE
  5
   2F0
  8
0
  6
CONTINUOUS
 62
     1
 10
132.690001368865
 20
54.3327215746045
 30
0.0
 11
132.690001368865
 21
79.4797171569011
 31
0.0
  0
LINE
  5
   2F1
  8
0
  6
CONTINUOUS
 62
     1
 10
140.249998035773
 20
54.3327215746045
 30
0.0
 11
140.249998035773
 21
91.0827209487558
 31
0.0
  0
LINE
  5
   2F2
  8
0
  6
CONTINUOUS
 62
     1
 10
141.054999090179
 20
54.3327215746045
 30
0.0
 11
141.054999090179
 21
91.0827209487558
 31
0.0
  0
LINE
  5
   2F3
  8
0
  6
CONTINUOUS
 62
     1
 10
140.249998035773
 20
46.7202270239591
 30
0.0
 11
140.249998035773
 21
54.3327215537429
 31
0.0
  0
LINE
  5
   2F4
  8
0
  6
CONTINUOUS
 62
     1
 10
141.054999090179
 20
46.7202270239591
 30
0.0
 11
141.054999090179
 21
54.3327215537429
 31
0.0
  0
LINE
  5
   2F5
  8
0
  6
CONTINUOUS
 62
     1
 10
135.210000257834
 20
46.7202270239591
 30
0.0
 11
135.210000257834
 21
91.0827209487558
 31
0.0
  0
LINE
  5
   2F6
  8
0
  6
CONTINUOUS
 62
     1
 10
136.469997032031
 20
46.7202270239591
 30
0.0
 11
136.469997032031
 21
54.3327215537429
 31
0.0
  0
LINE
  5
   2F7
  8
0
  6
CONTINUOUS
 62
     1
 10
137.729999146804
 20
46.7202270239591
 30
0.0
 11
137.729999146804
 21
54.3327215537429
 31
0.0
  0
LINE
  5
   2F8
  8
0
  6
CONTINUOUS
 62
     1
 10
138.990001261577
 20
46.7202270239591
 30
0.0
 11
138.990001261577
 21
54.3327215537429
 31
0.0
  0
LINE
  5
   2F9
  8
0
  6
CONTINUOUS
 62
     1
 10
132.690001368865
 20
46.7202270239591
 30
0.0
 11
132.690001368865
 21
54.3327215537429
 31
0.0
  0
LINE
  5
   2FA
  8
0
  6
CONTINUOUS
 62
     1
 10
133.949998143062
 20
46.7202270239591
 30
0.0
 11
133.949998143062
 21
54.3327215537429
 31
0.0
  0
LINE
  5
   2FB
  8
0
  6
CONTINUOUS
 62
     1
 10
69.8650034401263
 20
91.0827209487558
 30
0.0
 11
69.8650034401263
 21
107.970226001739
 31
0.0
  0
LINE
  5
   2FC
  8
0
  6
CONTINUOUS
 62
     1
 10
69.0600033870782
 20
91.0827209487558
 30
0.0
 11
69.0600033870782
 21
107.970226001739
 31
0.0
  0
LINE
  5
   2FD
  8
0
  6
CONTINUOUS
 62
     1
 10
74.9050002167072
 20
91.0827209487558
 30
0.0
 11
74.9050002167072
 21
107.970226001739
 31
0.0
  0
LINE
  5
   2FE
  8
0
  6
CONTINUOUS
 62
     1
 10
73.6450034425105
 20
91.0827209487558
 30
0.0
 11
73.6450034425105
 21
107.970226001739
 31
0.0
  0
LINE
  5
   2FF
  8
0
  6
CONTINUOUS
 62
     1
 10
72.3850033304538
 20
91.0827209487558
 30
0.0
 11
72.3850033304538
 21
107.970226001739
 31
0.0
  0
LINE
  5
   300
  8
0
  6
CONTINUOUS
 62
     1
 10
71.125003218397
 20
91.0827209487558
 30
0.0
 11
71.125003218397
 21
107.970226001739
 31
0.0
  0
LINE
  5
   301
  8
0
  6
CONTINUOUS
 62
     1
 10
77.4249991056766
 20
91.0827209487558
 30
0.0
 11
77.4249991056766
 21
107.970226001739
 31
0.0
  0
LINE
  5
   302
  8
0
  6
CONTINUOUS
 62
     1
 10
76.1650023314799
 20
91.0827209487558
 30
0.0
 11
76.1650023314799
 21
107.970226001739
 31
0.0
  0
LINE
  5
   303
  8
0
  6
CONTINUOUS
 62
     1
 10
73.6450031087245
 20
54.3327215746045
 30
0.0
 11
73.6450031087245
 21
91.0827209487558
 31
0.0
  0
LINE
  5
   304
  8
0
  6
CONTINUOUS
 62
     1
 10
74.9050002167072
 20
54.3327215746045
 30
0.0
 11
74.9050002167072
 21
91.0827209487558
 31
0.0
  0
LINE
  5
   305
  8
0
  6
CONTINUOUS
 62
     1
 10
71.125003218397
 20
54.3327215746045
 30
0.0
 11
71.125003218397
 21
91.0827209487558
 31
0.0
  0
LINE
  5
   306
  8
0
  6
CONTINUOUS
 62
     1
 10
72.3850033304538
 20
54.3327215746045
 30
0.0
 11
72.3850033304538
 21
91.0827209487558
 31
0.0
  0
LINE
  5
   307
  8
0
  6
CONTINUOUS
 62
     1
 10
76.1650023314799
 20
54.3327215746045
 30
0.0
 11
76.1650023314799
 21
91.0827209487558
 31
0.0
  0
LINE
  5
   308
  8
0
  6
CONTINUOUS
 62
     1
 10
77.4249991056766
 20
54.3327215746045
 30
0.0
 11
77.4249991056766
 21
91.0827209487558
 31
0.0
  0
LINE
  5
   309
  8
0
  6
CONTINUOUS
 62
     1
 10
69.8650034401263
 20
54.3327215746045
 30
0.0
 11
69.8650034401263
 21
91.0827209487558
 31
0.0
  0
LINE
  5
   30A
  8
0
  6
CONTINUOUS
 62
     1
 10
69.0600033870782
 20
54.3327215746045
 30
0.0
 11
69.0600033870782
 21
91.0827209487558
 31
0.0
  0
LINE
  5
   30B
  8
0
  6
CONTINUOUS
 62
     1
 10
69.8650034401263
 20
46.7202270239591
 30
0.0
 11
69.8650034401263
 21
54.3327215537429
 31
0.0
  0
LINE
  5
   30C
  8
0
  6
CONTINUOUS
 62
     1
 10
69.0600033870782
 20
46.7202270239591
 30
0.0
 11
69.0600033870782
 21
54.3327215537429
 31
0.0
  0
LINE
  5
   30D
  8
0
  6
CONTINUOUS
 62
     1
 10
74.9050002167072
 20
46.7202270239591
 30
0.0
 11
74.9050002167072
 21
54.3327215537429
 31
0.0
  0
LINE
  5
   30E
  8
0
  6
CONTINUOUS
 62
     1
 10
73.6450034425105
 20
46.7202270239591
 30
0.0
 11
73.6450034425105
 21
54.3327215537429
 31
0.0
  0
LINE
  5
   30F
  8
0
  6
CONTINUOUS
 62
     1
 10
72.3850033304538
 20
46.7202270239591
 30
0.0
 11
72.3850033304538
 21
54.3327215537429
 31
0.0
  0
LINE
  5
   310
  8
0
  6
CONTINUOUS
 62
     1
 10
71.125003218397
 20
46.7202270239591
 30
0.0
 11
71.125003218397
 21
54.3327215537429
 31
0.0
  0
LINE
  5
   311
  8
0
  6
CONTINUOUS
 62
     1
 10
77.4249991056766
 20
46.7202270239591
 30
0.0
 11
77.4249991056766
 21
54.3327215537429
 31
0.0
  0
LINE
  5
   312
  8
0
  6
CONTINUOUS
 62
     1
 10
76.1650023314799
 20
46.7202270239591
 30
0.0
 11
76.1650023314799
 21
54.3327215537429
 31
0.0
  0
ARC
  5
   313
  8
0
  6
CONTINUOUS
 62
     1
 10
68.5700035289372
 20
90.907720951736
 30
0.0
 40
0.174999997019768
 50
89.9999999480344
 51
179.999999948034
  0
ARC
  5
   314
  8
0
  6
CONTINUOUS
 62
     1
 10
141.54500228618
 20
90.907720951736
 30
0.0
 40
0.174999997019768
 50
359.999999948034
 51
449.999999948034
  0
ARC
  5
   315
  8
0
  6
CONTINUOUS
 62
     1
 10
141.54500228618
 20
54.5077215716243
 30
0.0
 40
0.174999997019768
 50
269.999999948034
 51
359.999999948034
  0
ARC
  5
   316
  8
0
  6
CONTINUOUS
 62
     1
 10
68.5700035289372
 20
54.5077215716243
 30
0.0
 40
0.174999997019768
 50
179.999999948034
 51
269.999999948034
  0
LINE
  5
   317
  8
0
  6
CONTINUOUS
 62
     1
 10
69.182485118884
 20
23.7252271693967
 30
0.0
 11
68.3950035319175
 21
23.7252271693967
 31
0.0
  0
LINE
  5
   318
  8
0
  6
CONTINUOUS
 62
     3
 10
69.182485118884
 20
23.2702271103881
 30
0.0
 11
69.182485118884
 21
23.7252271693967
 31
0.0
  0
LINE
  5
   319
  8
0
  6
CONTINUOUS
 62
     3
 10
92.0199793893876
 20
22.7452274531163
 30
0.0
 11
69.7074851099433
 21
22.7452274531163
 31
0.0
  0
LINE
  5
   31A
  8
0
  6
CONTINUOUS
 62
     3
 10
116.519984312731
 20
22.7452274531155
 30
0.0
 11
93.5949847031416
 21
22.7452274531155
 31
0.0
  0
LINE
  5
   31B
  8
0
  6
CONTINUOUS
 62
     3
 10
140.407478565353
 20
22.7452274530959
 30
0.0
 11
118.094984285909
 21
22.7452274530959
 31
0.0
  0
LINE
  5
   31C
  8
0
  6
CONTINUOUS
 62
     3
 10
140.932478556413
 20
23.2702274441741
 30
0.0
 11
140.932478556413
 21
23.7252271693967
 31
0.0
  0
LINE
  5
   31D
  8
0
  6
CONTINUOUS
 62
     1
 10
141.7200022832
 20
23.7252271693967
 30
0.0
 11
140.932478556413
 21
23.7252271693967
 31
0.0
  0
LINE
  5
   31E
  8
0
  6
CONTINUOUS
 62
     1
 10
140.932473215818
 20
23.7252269678312
 30
0.0
 11
140.932473215818
 21
31.3202273070849
 31
0.0
  0
LINE
  5
   31F
  8
0
  6
CONTINUOUS
 62
     1
 10
69.182485118884
 20
23.7252271693967
 30
0.0
 11
69.182485118884
 21
31.3202273070849
 31
0.0
  0
LINE
  5
   320
  8
0
  6
CONTINUOUS
 62
     1
 10
133.582481666396
 20
29.5702217950243
 30
0.0
 11
131.664755564615
 21
29.5702271355987
 31
0.0
  0
LINE
  5
   321
  8
0
  6
CONTINUOUS
 62
     1
 10
127.450202566313
 20
29.570217510181
 30
0.0
 11
125.532476463639
 21
29.5702228507554
 31
0.0
  0
LINE
  5
   322
  8
0
  6
CONTINUOUS
 62
     1
 10
127.450204921268
 20
25.3702274084114
 30
0.0
 11
125.532478818673
 21
25.3702274084114
 31
0.0
  0
LINE
  5
   323
  8
0
  6
CONTINUOUS
 62
     1
 10
133.582478681582
 20
25.3702274084114
 30
0.0
 11
131.664757919563
 21
25.3702274084114
 31
0.0
  0
LINE
  5
   324
  8
0
  6
CONTINUOUS
 62
     1
 10
84.582482502957
 20
29.5702193975621
 30
0.0
 11
82.6647564002835
 21
29.5702247381365
 31
0.0
  0
LINE
  5
   325
  8
0
  6
CONTINUOUS
 62
     1
 10
78.4502034010954
 20
29.5702204532949
 30
0.0
 11
76.5324772984219
 21
29.5702257938692
 31
0.0
  0
LINE
  5
   326
  8
0
  6
CONTINUOUS
 62
     1
 10
78.4502057557334
 20
25.3702274084114
 30
0.0
 11
76.5324796531381
 21
25.3702274084114
 31
0.0
  0
LINE
  5
   327
  8
0
  6
CONTINUOUS
 62
     1
 10
84.5824795160475
 20
25.3702274084114
 30
0.0
 11
82.6647587540283
 21
25.3702274084114
 31
0.0
  0
LINE
  5
   328
  8
0
  6
CONTINUOUS
 62
     1
 10
109.082482084676
 20
29.5702205962932
 30
0.0
 11
107.164755982003
 21
29.5702259368676
 31
0.0
  0
LINE
  5
   329
  8
0
  6
CONTINUOUS
 62
     1
 10
102.950202983708
 20
29.570221652026
 30
0.0
 11
101.032476881034
 21
29.5702269926003
 31
0.0
  0
LINE
  5
   32A
  8
0
  6
CONTINUOUS
 62
     1
 10
102.950205338501
 20
25.3702274084114
 30
0.0
 11
101.032479235906
 21
25.3702274084114
 31
0.0
  0
LINE
  5
   32B
  8
0
  6
CONTINUOUS
 62
     1
 10
109.082479098815
 20
25.3702274084114
 30
0.0
 11
107.164758336796
 21
25.3702274084114
 31
0.0
  0
LINE
  5
   32C
  8
0
  6
CONTINUOUS
 62
     3
 10
118.532484278458
 20
23.6202274382137
 30
0.0
 11
118.532484278458
 21
25.1952274113916
 31
0.0
  0
LINE
  5
   32D
  8
0
  6
CONTINUOUS
 62
     3
 10
118.532484278458
 20
23.6202274382137
 30
0.0
 11
118.094984285909
 21
23.6202274382137
 31
0.0
  0
LINE
  5
   32E
  8
0
  6
CONTINUOUS
 62
     3
 10
118.094984285909
 20
22.745227453109
 30
0.0
 11
118.094984285909
 21
23.6202274382078
 31
0.0
  0
LINE
  5
   32F
  8
0
  6
CONTINUOUS
 62
     3
 10
116.519984312731
 20
22.7452274531155
 30
0.0
 11
116.519984312731
 21
23.6202274382143
 31
0.0
  0
LINE
  5
   330
  8
0
  6
CONTINUOUS
 62
     3
 10
116.519984312731
 20
23.6202274382137
 30
0.0
 11
116.082484320182
 21
23.6202274382137
 31
0.0
  0
LINE
  5
   331
  8
0
  6
CONTINUOUS
 62
     3
 10
116.082484320182
 20
23.6202274382137
 30
0.0
 11
116.082484320182
 21
25.1952274113916
 31
0.0
  0
LINE
  5
   332
  8
0
  6
CONTINUOUS
 62
     3
 10
118.532484278458
 20
25.1952274113916
 30
0.0
 11
116.082484320182
 21
25.1952274113916
 31
0.0
  0
LINE
  5
   333
  8
0
  6
CONTINUOUS
 62
     3
 10
91.5824793968382
 20
23.6202274382137
 30
0.0
 11
91.5824793968382
 21
25.1952274113916
 31
0.0
  0
LINE
  5
   334
  8
0
  6
CONTINUOUS
 62
     3
 10
92.0199793893876
 20
23.6202274382137
 30
0.0
 11
91.5824793968382
 21
23.6202274382137
 31
0.0
  0
LINE
  5
   335
  8
0
  6
CONTINUOUS
 62
     3
 10
92.0199793893876
 20
22.745227453109
 30
0.0
 11
92.0199793893876
 21
23.6202274382078
 31
0.0
  0
LINE
  5
   336
  8
0
  6
CONTINUOUS
 62
     3
 10
93.5949793625655
 20
22.7452274531155
 30
0.0
 11
93.5949793625655
 21
23.6202274382143
 31
0.0
  0
LINE
  5
   337
  8
0
  6
CONTINUOUS
 62
     3
 10
94.0324793551149
 20
23.6202274382137
 30
0.0
 11
93.5949793625655
 21
23.6202274382137
 31
0.0
  0
LINE
  5
   338
  8
0
  6
CONTINUOUS
 62
     3
 10
94.0324793551149
 20
23.6202274382137
 30
0.0
 11
94.0324793551149
 21
25.1952274113916
 31
0.0
  0
LINE
  5
   339
  8
0
  6
CONTINUOUS
 62
     3
 10
94.0324793551149
 20
25.1952274113916
 30
0.0
 11
91.5824793968382
 21
25.1952274113916
 31
0.0
  0
ARC
  5
   33A
  8
0
  6
CONTINUOUS
 62
     3
 10
69.7074833943975
 20
23.2702264846179
 30
0.0
 40
0.524998573004765
 50
179.999941123702
 51
270.000103159103
  0
CIRCLE
  5
   33B
  8
0
  6
CONTINUOUS
 62
     1
 10
70.5824843199083
 20
24.1452269303336
 30
0.0
 40
0.49000039187499
  0
ARC
  5
   33C
  8
0
  6
CONTINUOUS
 62
     1
 10
76.5324734685559
 20
27.4702227197307
 30
0.0
 40
2.09999798521424
 50
90.0001399327154
 51
270.000100332566
  0
ARC
  5
   33D
  8
0
  6
CONTINUOUS
 62
     1
 10
80.5574760704966
 20
27.4702594831751
 30
0.0
 40
2.97503256700413
 50
404.899302393594
 51
495.100813987516
  0
ARC
  5
   33E
  8
0
  6
CONTINUOUS
 62
     1
 10
84.582480973568
 20
27.4702248526267
 30
0.0
 40
2.09999509708851
 50
269.999747131106
 51
450.000048027357
  0
CIRCLE
  5
   33F
  8
0
  6
CONTINUOUS
 62
     1
 10
92.8074839458011
 20
28.1702399089068
 30
0.0
 40
1.83749026298616
  0
CIRCLE
  5
   340
  8
0
  6
CONTINUOUS
 62
     1
 10
92.8074742902954
 20
28.1702165394522
 30
0.0
 40
0.962507390421093
  0
ARC
  5
   341
  8
0
  6
CONTINUOUS
 62
     1
 10
101.032449190941
 20
27.4702066226879
 30
0.0
 40
2.09996804617799
 50
449.999680793011
 51
630.000858183329
  0
ARC
  5
   342
  8
0
  6
CONTINUOUS
 62
     1
 10
105.057495117188
 20
27.4702324755757
 30
0.0
 40
2.97499672471136
 50
404.900757179708
 51
495.099359217673
  0
ARC
  5
   343
  8
0
  6
CONTINUOUS
 62
     1
 10
109.082479809272
 20
27.4702253323861
 30
0.0
 40
2.09999630096849
 50
269.999783457987
 51
450.000092622467
  0
CIRCLE
  5
   344
  8
0
  6
CONTINUOUS
 62
     1
 10
117.307518661368
 20
28.170176199558
 30
0.0
 40
1.83755586507084
  0
CIRCLE
  5
   345
  8
0
  6
CONTINUOUS
 62
     1
 10
117.30746409746
 20
28.1702464166554
 30
0.0
 40
0.962478285897051
  0
ARC
  5
   346
  8
0
  6
CONTINUOUS
 62
     1
 10
125.532465861095
 20
27.4702263653091
 30
0.0
 40
2.09999328114419
 50
90.0003609959681
 51
270.000490903722
  0
ARC
  5
   347
  8
0
  6
CONTINUOUS
 62
     1
 10
133.58242961255
 20
27.4702339997734
 30
0.0
 40
2.10004126020305
 50
270.001034630644
 51
449.998799421533
  0
ARC
  5
   348
  8
0
  6
CONTINUOUS
 62
     1
 10
129.557451777672
 20
27.4702106268705
 30
0.0
 40
2.97500388320602
 50
404.901246442185
 51
495.09901516511
  0
CIRCLE
  5
   349
  8
0
  6
CONTINUOUS
 62
     1
 10
139.532478398935
 20
24.1452248011596
 30
0.0
 40
0.489998730940279
  0
ARC
  5
   34A
  8
0
  6
CONTINUOUS
 62
     1
 10
129.557451777672
 20
27.4702106268705
 30
0.0
 40
2.97500388320602
 50
224.900341297451
 51
315.099658598617
  0
ARC
  5
   34B
  8
0
  6
CONTINUOUS
 62
     1
 10
105.057495117188
 20
27.4702324755757
 30
0.0
 40
2.97499672471136
 50
224.901072739214
 51
315.098927156855
  0
ARC
  5
   34C
  8
0
  6
CONTINUOUS
 62
     1
 10
80.5574760704966
 20
27.4702594831751
 30
0.0
 40
2.97503256700413
 50
224.901119153159
 51
315.09888074291
  0
LINE
  5
   34D
  8
0
  6
DASHDOT
 62
     2
 10
84.5825086196193
 20
27.4702594831751
 30
0.0
 11
76.5324435213738
 21
27.4702594831751
 31
0.0
  0
LINE
  5
   34E
  8
0
  6
DASHDOT
 62
     2
 10
84.582480973568
 20
24.3202297734196
 30
0.0
 11
84.582480973568
 21
30.6202199318339
 31
0.0
  0
LINE
  5
   34F
  8
0
  6
DASHDOT
 62
     2
 10
87.7324760527751
 20
27.4702248526267
 30
0.0
 11
81.4324858943609
 21
27.4702248526267
 31
0.0
  0
LINE
  5
   350
  8
0
  6
DASHDOT
 62
     2
 10
76.5324734685559
 20
24.3202247523979
 30
0.0
 11
76.5324734685559
 21
30.6202206870636
 31
0.0
  0
LINE
  5
   351
  8
0
  6
DASHDOT
 62
     2
 10
79.6824714358888
 20
27.4702227197307
 30
0.0
 11
73.3824755012231
 21
27.4702227197307
 31
0.0
  0
LINE
  5
   352
  8
0
  6
DASHDOT
 62
     2
 10
101.032449190941
 20
24.3202385943913
 30
0.0
 11
101.032449190941
 21
30.6201746509845
 31
0.0
  0
LINE
  5
   353
  8
0
  6
DASHDOT
 62
     2
 10
104.182417219238
 20
27.4702066226879
 30
0.0
 11
97.8824811626443
 21
27.4702066226879
 31
0.0
  0
LINE
  5
   354
  8
0
  6
DASHDOT
 62
     2
 10
109.082491824018
 20
27.4702324755757
 30
0.0
 11
101.032498410358
 21
27.4702324755757
 31
0.0
  0
LINE
  5
   355
  8
0
  6
DASHDOT
 62
     2
 10
109.082479809272
 20
24.320229049299
 30
0.0
 11
109.082479809272
 21
30.6202216154732
 31
0.0
  0
LINE
  5
   356
  8
0
  6
DASHDOT
 62
     2
 10
112.232476092359
 20
27.4702253323861
 30
0.0
 11
105.932483526185
 21
27.4702253323861
 31
0.0
  0
LINE
  5
   357
  8
0
  6
DASHDOT
 62
     2
 10
117.307518661368
 20
25.2826203523686
 30
0.0
 11
117.307518661368
 21
31.0577320467475
 31
0.0
  0
LINE
  5
   358
  8
0
  6
DASHDOT
 62
     2
 10
125.532465861095
 20
24.3202331020463
 30
0.0
 11
125.532465861095
 21
30.6202196285719
 31
0.0
  0
LINE
  5
   359
  8
0
  6
DASHDOT
 62
     2
 10
128.682459124358
 20
27.4702263653091
 30
0.0
 11
122.382472597832
 21
27.4702263653091
 31
0.0
  0
LINE
  5
   35A
  8
0
  6
DASHDOT
 62
     2
 10
129.557451777672
 20
21.182533050468
 30
0.0
 11
129.557451777672
 21
31.3978068544282
 31
0.0
  0
LINE
  5
   35B
  8
0
  6
DASHDOT
 62
     2
 10
133.582455642996
 20
27.4702106268705
 30
0.0
 11
125.532447912347
 21
27.4702106268705
 31
0.0
  0
LINE
  5
   35C
  8
0
  6
DASHDOT
 62
     2
 10
133.58242961255
 20
24.3201927574517
 30
0.0
 11
133.58242961255
 21
30.6202752420951
 31
0.0
  0
LINE
  5
   35D
  8
0
  6
DASHDOT
 62
     2
 10
136.732470854871
 20
27.4702339997734
 30
0.0
 11
130.432388370228
 21
27.4702339997734
 31
0.0
  0
LINE
  5
   35E
  8
0
  6
DASHDOT
 62
     2
 10
139.532478398935
 20
22.6052260881008
 30
0.0
 11
139.532478398935
 21
25.6852235142185
 31
0.0
  0
LINE
  5
   35F
  8
0
  6
DASHDOT
 62
     2
 10
70.5824843199083
 20
22.60522655634
 30
0.0
 11
70.5824843199083
 21
25.6852273043272
 31
0.0
  0
LINE
  5
   360
  8
0
  6
DASHDOT
 62
     2
 10
72.1224846939019
 20
24.1452269303336
 30
0.0
 11
69.0424839459147
 21
24.1452269303336
 31
0.0
  0
ARC
  5
   361
  8
0
  6
CONTINUOUS
 62
     3
 10
140.407463635117
 20
23.2702228740474
 30
0.0
 40
0.525005873581529
 50
270.001088208967
 51
360.000070595423
  0
LINE
  5
   362
  8
0
  6
DASHDOT
 62
     2
 10
104.035146987294
 20
28.1702399089068
 30
0.0
 11
97.6800744924687
 21
28.1702399089068
 31
0.0
  0
LINE
  5
   363
  8
0
  6
DASHDOT
 62
     2
 10
120.389459421531
 20
28.1702399089068
 30
0.0
 11
105.97574021998
 21
28.1702399089068
 31
0.0
  0
LINE
  5
   364
  8
0
  6
CONTINUOUS
 62
     1
 10
78.4574982404709
 20
91.0827209487558
 30
0.0
 11
68.5700035289372
 21
91.0827209487558
 31
0.0
  0
LINE
  5
   365
  8
0
  6
CONTINUOUS
 62
     1
 10
78.4574982404709
 20
54.3327215746045
 30
0.0
 11
68.5700035289372
 21
54.3327215746045
 31
0.0
  0
LINE
  5
   366
  8
0
  6
DASHDOT
 62
     7
 10
80.5574760704966
 20
23.4452269340524
 30
0.0
 11
80.5574760704966
 21
31.4952920322978
 31
0.0
  0
LINE
  5
   367
  8
0
  6
CONTINUOUS
 62
     1
 10
141.370002289161
 20
46.3702270507812
 30
0.0
 11
68.3075035334076
 21
46.3702270507812
 31
0.0
  0
LINE
  5
   368
  8
0
  6
CONTINUOUS
 62
     1
 10
141.370002289161
 20
46.7202270239591
 30
0.0
 11
68.3075035334076
 21
46.7202270239591
 31
0.0
  0
LINE
  5
   369
  8
0
  6
CONTINUOUS
 62
     1
 10
78.4574982404709
 20
107.970226001739
 30
0.0
 11
68.3950035319174
 21
107.970226001739
 31
0.0
  0
LINE
  5
   36A
  8
0
  6
CONTINUOUS
 62
     1
 10
84.5827188016405
 20
162.22023575902
 30
0.0
 11
82.6647750376415
 21
162.22023575902
 31
0.0
  0
LINE
  5
   36B
  8
0
  6
CONTINUOUS
 62
     1
 10
84.5827188016405
 20
158.020235830546
 30
0.0
 11
82.6647750376415
 21
158.020235830546
 31
0.0
  0
LINE
  5
   36C
  8
0
  6
CONTINUOUS
 62
     1
 10
78.4502345618275
 20
158.020235680753
 30
0.0
 11
76.5326685467748
 21
158.020242213085
 31
0.0
  0
LINE
  5
   36D
  8
0
  6
CONTINUOUS
 62
     1
 10
76.5326685499219
 20
162.220229376928
 30
0.0
 11
78.4502372519295
 21
162.220235909291
 31
0.0
  0
LINE
  5
   36E
  8
0
  6
CONTINUOUS
 62
     7
 10
69.1825170904394
 20
156.270253258097
 30
0.0
 11
69.1825170904394
 21
163.795235732198
 31
0.0
  0
LINE
  5
   36F
  8
0
  6
CONTINUOUS
 62
     1
 10
102.950217282896
 20
162.22023575902
 30
0.0
 11
101.032629067965
 21
162.22023575902
 31
0.0
  0
LINE
  5
   370
  8
0
  6
CONTINUOUS
 62
     1
 10
102.949841822332
 20
158.020235830546
 30
0.0
 11
101.032629067965
 21
158.020235830546
 31
0.0
  0
LINE
  5
   371
  8
0
  6
CONTINUOUS
 62
     1
 10
107.164773432744
 20
158.020232328386
 30
0.0
 11
109.082542658546
 21
158.020238861432
 31
0.0
  0
LINE
  5
   372
  8
0
  6
CONTINUOUS
 62
     1
 10
109.082542663122
 20
162.220232728893
 30
0.0
 11
107.16477343148
 21
162.220239261939
 31
0.0
  0
LINE
  5
   373
  8
0
  6
CONTINUOUS
 62
     3
 10
140.932473143936
 20
163.795235732198
 30
0.0
 11
140.932473143936
 21
164.495235720277
 31
0.0
  0
LINE
  5
   374
  8
0
  6
CONTINUOUS
 62
     1
 10
127.450210189943
 20
162.22023575902
 30
0.0
 11
125.532412857131
 21
162.22023575902
 31
0.0
  0
LINE
  5
   375
  8
0
  6
CONTINUOUS
 62
     1
 10
127.450210189943
 20
158.020235830546
 30
0.0
 11
125.532412857131
 21
158.020235830546
 31
0.0
  0
LINE
  5
   376
  8
0
  6
CONTINUOUS
 62
     1
 10
131.664755999601
 20
158.020235680754
 30
0.0
 11
133.582540416046
 21
158.02024221383
 31
0.0
  0
LINE
  5
   377
  8
0
  6
CONTINUOUS
 62
     1
 10
133.582556429578
 20
162.22022937644
 30
0.0
 11
131.664753312703
 21
162.22023590958
 31
0.0
  0
LINE
  5
   378
  8
0
  6
DASHDOT
 62
     7
 10
103.552710071684
 20
160.120239268495
 30
0.0
 11
98.512548398032
 21
160.120239268495
 31
0.0
  0
LINE
  5
   379
  8
0
  6
DASHDOT
 62
     7
 10
101.032629067965
 20
157.600158598562
 30
0.0
 11
101.032629067965
 21
162.640319938428
 31
0.0
  0
ARC
  5
   37A
  8
0
  6
CONTINUOUS
 62
     1
 10
101.032629067965
 20
160.120239268495
 30
0.0
 40
2.10006689115832
 50
90.0036557603355
 51
269.996301839899
  0
LINE
  5
   37B
  8
0
  6
DASHDOT
 62
     7
 10
108.62762288738
 20
160.120093993202
 30
0.0
 11
101.487290520209
 21
160.120093993202
 31
0.0
  0
ARC
  5
   37C
  8
0
  6
CONTINUOUS
 62
     1
 10
105.057456703805
 20
160.120093993202
 30
0.0
 40
2.97513848632147
 50
224.89430374687
 51
315.105491686916
  0
LINE
  5
   37D
  8
0
  6
DASHDOT
 62
     7
 10
111.602475204085
 20
160.120293326879
 30
0.0
 11
106.562595143907
 21
160.120293326879
 31
0.0
  0
LINE
  5
   37E
  8
0
  6
DASHDOT
 62
     7
 10
109.082535507785
 20
157.600351764718
 30
0.0
 11
109.082535507785
 21
162.640231157325
 31
0.0
  0
ARC
  5
   37F
  8
0
  6
CONTINUOUS
 62
     1
 10
109.082535507782
 20
160.120293326879
 30
0.0
 40
2.09994941313343
 50
269.999007927624
 51
450.00105270767
  0
LINE
  5
   380
  8
0
  6
DASHDOT
 62
     7
 10
128.052309773844
 20
160.120256174804
 30
0.0
 11
123.012494578114
 21
160.120256174804
 31
0.0
  0
LINE
  5
   381
  8
0
  6
DASHDOT
 62
     7
 10
125.532412857131
 20
157.600343236362
 30
0.0
 11
125.532412857131
 21
162.640169113245
 31
0.0
  0
ARC
  5
   382
  8
0
  6
CONTINUOUS
 62
     1
 10
125.532412857131
 20
160.120256174804
 30
0.0
 40
2.09992678112893
 50
449.999999948034
 51
630.002376467854
  0
LINE
  5
   383
  8
0
  6
DASHDOT
 62
     7
 10
133.127521502158
 20
160.12020627718
 30
0.0
 11
125.987462908018
 21
160.12020627718
 31
0.0
  0
ARC
  5
   384
  8
0
  6
CONTINUOUS
 62
     1
 10
129.557497545664
 20
160.12020627718
 30
0.0
 40
2.97502441422517
 50
404.901045292561
 51
495.098630845462
  0
LINE
  5
   385
  8
0
  6
DASHDOT
 62
     7
 10
136.102542072826
 20
160.120225333578
 30
0.0
 11
131.062535123226
 21
160.120225333578
 31
0.0
  0
LINE
  5
   386
  8
0
  6
DASHDOT
 62
     7
 10
133.582538598026
 20
157.600216518202
 30
0.0
 11
133.582538598026
 21
162.640234148954
 31
0.0
  0
ARC
  5
   387
  8
0
  6
CONTINUOUS
 62
     1
 10
133.582538598026
 20
160.120225333578
 30
0.0
 40
2.10000667857487
 50
269.998338346111
 51
450.001473300288
  0
LINE
  5
   388
  8
0
  6
DASHDOT
 62
     7
 10
79.0528188959374
 20
160.120251518408
 30
0.0
 11
74.012553882486
 21
160.120251518408
 31
0.0
  0
LINE
  5
   389
  8
0
  6
DASHDOT
 62
     7
 10
76.5326863892117
 20
157.600113671106
 30
0.0
 11
76.5326863892117
 21
162.64038936571
 31
0.0
  0
ARC
  5
   38A
  8
0
  6
CONTINUOUS
 62
     1
 10
76.5326863892117
 20
160.120251518408
 30
0.0
 40
2.1001148727515
 50
90.0052836333811
 51
269.995265213079
  0
LINE
  5
   38B
  8
0
  6
DASHDOT
 62
     7
 10
84.1275726134026
 20
160.120296558337
 30
0.0
 11
76.9874239083067
 21
160.120296558337
 31
0.0
  0
ARC
  5
   38C
  8
0
  6
CONTINUOUS
 62
     1
 10
80.5575116122949
 20
160.120296558337
 30
0.0
 40
2.97505973521659
 50
224.901380849089
 51
315.098568474349
  0
LINE
  5
   38D
  8
0
  6
DASHDOT
 62
     7
 10
87.102540654257
 20
160.120251699926
 30
0.0
 11
82.0628969490241
 21
160.120251699926
 31
0.0
  0
LINE
  5
   38E
  8
0
  6
DASHDOT
 62
     7
 10
84.5827188016405
 20
157.600424506734
 30
0.0
 11
84.5827188016405
 21
162.640078893119
 31
0.0
  0
ARC
  5
   38F
  8
0
  6
CONTINUOUS
 62
     1
 10
84.5827188016405
 20
160.120251699926
 30
0.0
 40
2.09985599432712
 50
269.999999948034
 51
449.999945306521
  0
ARC
  5
   390
  8
0
  6
CONTINUOUS
 62
     1
 10
80.5575116122949
 20
160.120296558337
 30
0.0
 40
2.97505973521659
 50
404.897963373026
 51
495.101923170488
  0
ARC
  5
   391
  8
0
  6
CONTINUOUS
 62
     1
 10
105.057456703805
 20
160.120093993202
 30
0.0
 40
2.97513848632147
 50
404.902109287098
 51
495.097767281763
  0
ARC
  5
   392
  8
0
  6
CONTINUOUS
 62
     1
 10
129.557497545664
 20
160.12020627718
 30
0.0
 40
2.97502441422517
 50
224.899545375473
 51
315.100341172749
  0
LINE
  5
   393
  8
0
  6
CONTINUOUS
 62
     1
 10
117.307412009485
 20
155.832770471401
 30
0.0
 11
117.307412009485
 21
163.007770349212
 31
0.0
  0
LINE
  5
   394
  8
0
  6
DASHDOT
 62
     7
 10
120.89491194839
 20
159.420270410306
 30
0.0
 11
113.71991207058
 21
159.420270410306
 31
0.0
  0
LINE
  5
   395
  8
0
  6
DASHDOT
 62
     7
 10
92.8075782248901
 20
155.832770471401
 30
0.0
 11
92.8075782248901
 21
163.007770349212
 31
0.0
  0
LINE
  5
   396
  8
0
  6
DASHDOT
 62
     7
 10
96.3950781637953
 20
159.420270410306
 30
0.0
 11
89.2200782859849
 21
159.420270410306
 31
0.0
  0
LINE
  5
   397
  8
0
  6
CONTINUOUS
 62
     3
 10
92.0199793893876
 20
164.84524105489
 30
0.0
 11
69.5325000878956
 21
164.84524105489
 31
0.0
  0
ARC
  5
   398
  8
0
  6
CONTINUOUS
 62
     3
 10
69.532515956445
 20
164.495233953419
 30
0.0
 40
0.349996002028132
 50
90.0005173512766
 51
180.001122723422
  0
LINE
  5
   399
  8
0
  6
CONTINUOUS
 62
     3
 10
69.1825170904394
 20
163.795235732198
 30
0.0
 11
69.1825170904394
 21
164.495235720277
 31
0.0
  0
LINE
  5
   39A
  8
0
  6
CONTINUOUS
 62
     3
 10
69.1825170904394
 20
163.795235732198
 30
0.0
 11
68.3075035334076
 21
163.795235732198
 31
0.0
  0
LINE
  5
   39B
  8
0
  6
CONTINUOUS
 62
     3
 10
92.0199793893876
 20
163.9702465801
 30
0.0
 11
92.0199793893876
 21
164.845246565199
 31
0.0
  0
LINE
  5
   39C
  8
0
  6
CONTINUOUS
 62
     3
 10
92.0199793893876
 20
163.970246580094
 30
0.0
 11
91.5824793968382
 21
163.970246580094
 31
0.0
  0
LINE
  5
   39D
  8
0
  6
CONTINUOUS
 62
     3
 10
91.5824793968382
 20
162.395246606916
 30
0.0
 11
91.5824793968382
 21
163.970246580094
 31
0.0
  0
LINE
  5
   39E
  8
0
  6
CONTINUOUS
 62
     3
 10
94.0324793551149
 20
162.395246606916
 30
0.0
 11
91.5824793968382
 21
162.395246606916
 31
0.0
  0
LINE
  5
   39F
  8
0
  6
CONTINUOUS
 62
     3
 10
94.0324793551149
 20
162.395246606916
 30
0.0
 11
94.0324793551149
 21
163.970246580094
 31
0.0
  0
LINE
  5
   3A0
  8
0
  6
CONTINUOUS
 62
     3
 10
94.0324793551149
 20
163.970246580094
 30
0.0
 11
93.5949793625655
 21
163.970246580094
 31
0.0
  0
LINE
  5
   3A1
  8
0
  6
CONTINUOUS
 62
     3
 10
93.5949793625655
 20
163.970246580094
 30
0.0
 11
93.5949793625655
 21
164.845246565193
 31
0.0
  0
LINE
  5
   3A2
  8
0
  6
CONTINUOUS
 62
     3
 10
116.519984312731
 20
164.845235714314
 30
0.0
 11
93.5949793625655
 21
164.845235714314
 31
0.0
  0
LINE
  5
   3A3
  8
0
  6
CONTINUOUS
 62
     3
 10
116.519984312731
 20
163.970246580094
 30
0.0
 11
116.519984312731
 21
164.845246565193
 31
0.0
  0
LINE
  5
   3A4
  8
0
  6
CONTINUOUS
 62
     3
 10
116.519984312731
 20
163.970246580094
 30
0.0
 11
116.082484320182
 21
163.970246580094
 31
0.0
  0
LINE
  5
   3A5
  8
0
  6
CONTINUOUS
 62
     3
 10
116.082484320182
 20
162.395246606916
 30
0.0
 11
116.082484320182
 21
163.970246580094
 31
0.0
  0
LINE
  5
   3A6
  8
0
  6
CONTINUOUS
 62
     3
 10
118.532484278458
 20
162.395246606916
 30
0.0
 11
116.082484320182
 21
162.395246606916
 31
0.0
  0
LINE
  5
   3A7
  8
0
  6
CONTINUOUS
 62
     3
 10
118.532484278458
 20
162.395246606916
 30
0.0
 11
118.532484278458
 21
163.970246580094
 31
0.0
  0
LINE
  5
   3A8
  8
0
  6
CONTINUOUS
 62
     3
 10
118.532484278458
 20
163.970246580094
 30
0.0
 11
118.094984285909
 21
163.970246580094
 31
0.0
  0
LINE
  5
   3A9
  8
0
  6
CONTINUOUS
 62
     3
 10
118.094984285909
 20
163.9702465801
 30
0.0
 11
118.094984285909
 21
164.845246565199
 31
0.0
  0
LINE
  5
   3AA
  8
0
  6
CONTINUOUS
 62
     3
 10
140.582490146479
 20
164.84524105489
 30
0.0
 11
118.094984285909
 21
164.84524105489
 31
0.0
  0
ARC
  5
   3AB
  8
0
  6
CONTINUOUS
 62
     3
 10
140.582475897661
 20
164.495227725582
 30
0.0
 40
0.349999722807106
 50
360.000054589548
 51
449.999945306521
  0
LINE
  5
   3AC
  8
0
  6
CONTINUOUS
 62
     7
 10
140.932486495376
 20
156.270235860353
 30
0.0
 11
140.932486495376
 21
164.495227725582
 31
0.0
  0
LINE
  5
   3AD
  8
0
  6
CONTINUOUS
 62
     3
 10
141.80750228171
 20
163.795235732198
 30
0.0
 11
140.932473143936
 21
163.795235732198
 31
0.0
  0
LINE
  5
   3AE
  8
0
  6
CONTINUOUS
 62
     1
 10
140.932486495376
 20
156.270235860353
 30
0.0
 11
140.932486495376
 21
164.495227725582
 31
0.0
  0
LINE
  5
   3AF
  8
0
  6
CONTINUOUS
 62
     7
 10
140.93249183595
 20
156.445244556243
 30
0.0
 11
69.1825170904394
 21
156.445244556243
 31
0.0
  0
LINE
  5
   3B0
  8
0
  6
CONTINUOUS
 62
     7
 10
140.93249183595
 20
156.445244556243
 30
0.0
 11
69.1825170904394
 21
156.445244556243
 31
0.0
  0
LINE
  5
   3B1
  8
0
  6
CONTINUOUS
 62
     1
 10
141.80750228171
 20
156.270235690617
 30
0.0
 11
68.3950035319174
 21
156.270235690617
 31
0.0
  0
LINE
  5
   3B2
  8
0
  6
CONTINUOUS
 62
     3
 10
68.745003525957
 20
108.075242021678
 30
0.0
 11
68.745003525957
 21
108.425242015717
 31
0.0
  0
LINE
  5
   3B3
  8
0
  6
CONTINUOUS
 62
     3
 10
141.370002289161
 20
108.075242021678
 30
0.0
 11
141.370002289161
 21
108.425242015717
 31
0.0
  0
LINE
  5
   3B4
  8
0
  6
CONTINUOUS
 62
     1
 10
141.054999090179
 20
108.425242015717
 30
0.0
 11
141.054999090179
 21
156.270235690617
 31
0.0
  0
LINE
  5
   3B5
  8
0
  6
CONTINUOUS
 62
     1
 10
140.249998035773
 20
108.425242015717
 30
0.0
 11
140.249998035773
 21
156.270235690617
 31
0.0
  0
LINE
  5
   3B6
  8
0
  6
CONTINUOUS
 62
     1
 10
138.990001261577
 20
108.425242015717
 30
0.0
 11
138.990001261577
 21
156.270235690617
 31
0.0
  0
LINE
  5
   3B7
  8
0
  6
CONTINUOUS
 62
     1
 10
137.729999146804
 20
108.425242015717
 30
0.0
 11
137.729999146804
 21
156.270235690617
 31
0.0
  0
LINE
  5
   3B8
  8
0
  6
CONTINUOUS
 62
     1
 10
135.210000257834
 20
108.425242015717
 30
0.0
 11
135.210000257834
 21
156.270235690617
 31
0.0
  0
LINE
  5
   3B9
  8
0
  6
CONTINUOUS
 62
     1
 10
133.949998143062
 20
108.425242015717
 30
0.0
 11
133.949998143062
 21
156.270235690617
 31
0.0
  0
LINE
  5
   3BA
  8
0
  6
CONTINUOUS
 62
     1
 10
132.690001368865
 20
108.425242015717
 30
0.0
 11
132.690001368865
 21
156.270235690617
 31
0.0
  0
LINE
  5
   3BB
  8
0
  6
CONTINUOUS
 62
     1
 10
131.429999254092
 20
108.425242015717
 30
0.0
 11
131.429999254092
 21
156.270235690617
 31
0.0
  0
LINE
  5
   3BC
  8
0
  6
CONTINUOUS
 62
     1
 10
69.0600033870782
 20
108.425242015717
 30
0.0
 11
69.0600033870782
 21
156.270235690617
 31
0.0
  0
LINE
  5
   3BD
  8
0
  6
CONTINUOUS
 62
     1
 10
69.8650034401263
 20
108.425242015717
 30
0.0
 11
69.8650034401263
 21
156.270235690617
 31
0.0
  0
LINE
  5
   3BE
  8
0
  6
CONTINUOUS
 62
     1
 10
71.125003218397
 20
108.425242015717
 30
0.0
 11
71.125003218397
 21
156.270235690617
 31
0.0
  0
LINE
  5
   3BF
  8
0
  6
CONTINUOUS
 62
     1
 10
72.3850033304538
 20
108.425242015717
 30
0.0
 11
72.3850033304538
 21
156.270235690617
 31
0.0
  0
LINE
  5
   3C0
  8
0
  6
CONTINUOUS
 62
     1
 10
73.6450034425105
 20
108.425242015717
 30
0.0
 11
73.6450034425105
 21
156.270235690617
 31
0.0
  0
LINE
  5
   3C1
  8
0
  6
CONTINUOUS
 62
     1
 10
74.9050002167072
 20
108.425242015717
 30
0.0
 11
74.9050002167072
 21
156.270235690617
 31
0.0
  0
LINE
  5
   3C2
  8
0
  6
CONTINUOUS
 62
     1
 10
76.1650023314799
 20
108.425242015717
 30
0.0
 11
76.1650023314799
 21
156.270235690617
 31
0.0
  0
LINE
  5
   3C3
  8
0
  6
CONTINUOUS
 62
     1
 10
77.4249991056766
 20
108.425242015717
 30
0.0
 11
77.4249991056766
 21
156.270235690617
 31
0.0
  0
LINE
  5
   3C4
  8
0
  6
CONTINUOUS
 62
     1
 10
78.6850012204494
 20
108.425242015717
 30
0.0
 11
78.6850012204494
 21
156.270235690617
 31
0.0
  0
LINE
  5
   3C5
  8
0
  6
CONTINUOUS
 62
     1
 10
79.9450033352221
 20
109.020216653348
 30
0.0
 11
79.9450033352221
 21
156.270235690617
 31
0.0
  0
ARC
  5
   3C6
  8
0
  6
CONTINUOUS
 62
     1
 10
76.5326863892117
 20
160.120296558337
 30
0.0
 40
2.86999995112419
 50
449.679006550204
 51
629.999999948034
  0
ARC
  5
   3C7
  8
0
  6
CONTINUOUS
 62
     1
 10
80.5575008749961
 20
160.120296558337
 30
0.0
 40
3.56999993920326
 50
413.505022838263
 51
486.494981956033
  0
LINE
  5
   3C8
  8
0
  6
CONTINUOUS
 62
     1
 10
78.4342349063489
 20
162.990251469532
 30
0.0
 11
76.5487651689183
 21
162.990251469532
 31
0.0
  0
LINE
  5
   3C9
  8
0
  6
CONTINUOUS
 62
     1
 10
84.5827188016405
 20
162.990251651051
 30
0.0
 11
82.6807665982903
 21
162.990251651051
 31
0.0
  0
LINE
  5
   3CA
  8
0
  6
CONTINUOUS
 62
     1
 10
84.5666724544679
 20
157.250296607212
 30
0.0
 11
82.6807059631726
 21
157.250296607212
 31
0.0
  0
LINE
  5
   3CB
  8
0
  6
CONTINUOUS
 62
     1
 10
78.4343566699916
 20
157.250251567284
 30
0.0
 11
76.5326863892117
 21
157.250251567284
 31
0.0
  0
ARC
  5
   3CC
  8
0
  6
CONTINUOUS
 62
     1
 10
80.5575008749961
 20
160.120296558337
 30
0.0
 40
3.56999993920326
 50
233.507448791235
 51
306.493766547859
  0
ARC
  5
   3CD
  8
0
  6
CONTINUOUS
 62
     1
 10
84.5827188016405
 20
160.120251699926
 30
0.0
 40
2.86999995112419
 50
269.679654033286
 51
449.999999948034
  0
ARC
  5
   3CE
  8
0
  6
CONTINUOUS
 62
     1
 10
109.082718384408
 20
160.120251699926
 30
0.0
 40
2.86999995112419
 50
269.679654033286
 51
449.999999948034
  0
LINE
  5
   3CF
  8
0
  6
CONTINUOUS
 62
     1
 10
109.082718384408
 20
162.990251651051
 30
0.0
 11
107.180766181058
 21
162.990251651051
 31
0.0
  0
LINE
  5
   3D0
  8
0
  6
CONTINUOUS
 62
     1
 10
109.066672037235
 20
157.250296607212
 30
0.0
 11
107.18070554594
 21
157.250296607212
 31
0.0
  0
ARC
  5
   3D1
  8
0
  6
CONTINUOUS
 62
     1
 10
105.057500457764
 20
160.120296558337
 30
0.0
 40
3.56999993920326
 50
233.507448791235
 51
306.493766547859
  0
ARC
  5
   3D2
  8
0
  6
CONTINUOUS
 62
     1
 10
105.057500457764
 20
160.120296558337
 30
0.0
 40
3.56999993920326
 50
413.505022838263
 51
486.494981956033
  0
LINE
  5
   3D3
  8
0
  6
CONTINUOUS
 62
     1
 10
102.934234489116
 20
162.990251469532
 30
0.0
 11
101.048764751686
 21
162.990251469532
 31
0.0
  0
ARC
  5
   3D4
  8
0
  6
CONTINUOUS
 62
     1
 10
101.032685971979
 20
160.120296558337
 30
0.0
 40
2.86999995112419
 50
449.679006550204
 51
629.999999948034
  0
LINE
  5
   3D5
  8
0
  6
CONTINUOUS
 62
     1
 10
102.934356252759
 20
157.250251567284
 30
0.0
 11
101.032685971979
 21
157.250251567284
 31
0.0
  0
ARC
  5
   3D6
  8
0
  6
CONTINUOUS
 62
     1
 10
133.582717967175
 20
160.120251699926
 30
0.0
 40
2.86999995112419
 50
269.679654033286
 51
449.999999948034
  0
LINE
  5
   3D7
  8
0
  6
CONTINUOUS
 62
     1
 10
133.582717967175
 20
162.990251651051
 30
0.0
 11
131.680765763825
 21
162.990251651051
 31
0.0
  0
LINE
  5
   3D8
  8
0
  6
CONTINUOUS
 62
     1
 10
133.566671620003
 20
157.250296607212
 30
0.0
 11
131.680705128708
 21
157.250296607212
 31
0.0
  0
ARC
  5
   3D9
  8
0
  6
CONTINUOUS
 62
     1
 10
129.557500040531
 20
160.120296558337
 30
0.0
 40
3.56999993920326
 50
233.507448791235
 51
306.493766547859
  0
ARC
  5
   3DA
  8
0
  6
CONTINUOUS
 62
     1
 10
129.557500040531
 20
160.120296558337
 30
0.0
 40
3.56999993920326
 50
413.505022838263
 51
486.494981956033
  0
LINE
  5
   3DB
  8
0
  6
CONTINUOUS
 62
     1
 10
127.434234071884
 20
162.990251469532
 30
0.0
 11
125.548764334453
 21
162.990251469532
 31
0.0
  0
LINE
  5
   3DC
  8
0
  6
CONTINUOUS
 62
     1
 10
127.434355835527
 20
157.250251567284
 30
0.0
 11
125.532685554747
 21
157.250251567284
 31
0.0
  0
ARC
  5
   3DD
  8
0
  6
CONTINUOUS
 62
     1
 10
125.532685554747
 20
160.120296558337
 30
0.0
 40
2.86999995112419
 50
449.679006550204
 51
629.999999948034
  0
ARC
  5
   3DE
  8
0
  6
CONTINUOUS
 62
     1
 10
92.4575782308506
 20
159.420270410306
 30
0.0
 40
1.04999998211861
 50
89.9999999480344
 51
269.999999948034
  0
ARC
  5
   3DF
  8
0
  6
CONTINUOUS
 62
     1
 10
93.1575782189296
 20
159.420270410306
 30
0.0
 40
1.04999998211861
 50
269.999999948034
 51
449.999999948034
  0
LINE
  5
   3E0
  8
0
  6
CONTINUOUS
 62
     1
 10
93.1575782189296
 20
160.470270392425
 30
0.0
 11
92.4575782308506
 21
160.470270392425
 31
0.0
  0
LINE
  5
   3E1
  8
0
  6
CONTINUOUS
 62
     1
 10
93.1575782189296
 20
158.370270428188
 30
0.0
 11
92.4575782308506
 21
158.370270428188
 31
0.0
  0
ARC
  5
   3E2
  8
0
  6
CONTINUOUS
 62
     1
 10
117.657577801697
 20
159.420270410306
 30
0.0
 40
1.04999998211861
 50
269.999999948034
 51
449.999999948034
  0
LINE
  5
   3E3
  8
0
  6
CONTINUOUS
 62
     1
 10
117.657577801697
 20
160.470270392425
 30
0.0
 11
116.957577813618
 21
160.470270392425
 31
0.0
  0
LINE
  5
   3E4
  8
0
  6
CONTINUOUS
 62
     1
 10
117.657577801697
 20
158.370270428188
 30
0.0
 11
116.957577813618
 21
158.370270428188
 31
0.0
  0
ARC
  5
   3E5
  8
0
  6
CONTINUOUS
 62
     1
 10
116.957577813618
 20
159.420270410306
 30
0.0
 40
1.04999998211861
 50
89.9999999480344
 51
269.999999948034
  0
CIRCLE
  5
   3E6
  8
0
  6
CONTINUOUS
 62
     1
 10
70.5824957042933
 20
163.445241078732
 30
0.0
 40
0.769999986886978
  0
CIRCLE
  5
   3E7
  8
0
  6
CONTINUOUS
 62
     1
 10
90.357495367527
 20
163.445241078732
 30
0.0
 40
0.769999986886978
  0
CIRCLE
  5
   3E8
  8
0
  6
CONTINUOUS
 62
     1
 10
119.757494866848
 20
163.445241078732
 30
0.0
 40
0.769999986886978
  0
CIRCLE
  5
   3E9
  8
0
  6
CONTINUOUS
 62
     1
 10
139.532494530082
 20
163.445241078732
 30
0.0
 40
0.769999986886978
  0
LINE
  5
   3EA
  8
0
  6
CONTINUOUS
 62
     3
 10
68.3075035334076
 20
108.425242015717
 30
0.0
 11
68.3075035334076
 21
163.795235732198
 31
0.0
  0
LINE
  5
   3EB
  8
0
  6
CONTINUOUS
 62
     3
 10
68.745003525957
 20
108.425242015717
 30
0.0
 11
68.3075035334076
 21
108.425242015717
 31
0.0
  0
LINE
  5
   3EC
  8
0
  6
CONTINUOUS
 62
     3
 10
68.745003525957
 20
108.075242021678
 30
0.0
 11
68.3075035334076
 21
108.075242021678
 31
0.0
  0
LINE
  5
   3ED
  8
0
  6
CONTINUOUS
 62
     3
 10
141.80750228171
 20
108.425242015717
 30
0.0
 11
141.80750228171
 21
163.795235732198
 31
0.0
  0
LINE
  5
   3EE
  8
0
  6
CONTINUOUS
 62
     3
 10
141.80750228171
 20
108.425242015717
 30
0.0
 11
141.370002289161
 21
108.425242015717
 31
0.0
  0
LINE
  5
   3EF
  8
0
  6
CONTINUOUS
 62
     3
 10
141.80750228171
 20
108.075242021678
 30
0.0
 11
141.370002289161
 21
108.075242021678
 31
0.0
  0
LINE
  5
   3F0
  8
0
  6
CONTINUOUS
 62
     1
 10
129.032494708896
 20
154.520235890148
 30
0.0
 11
81.0824955254794
 21
154.520235890148
 31
0.0
  0
LINE
  5
   3F1
  8
0
  6
CONTINUOUS
 62
     1
 10
129.032494708896
 20
147.170236015318
 30
0.0
 11
81.0824955254794
 21
147.170236015318
 31
0.0
  0
LINE
  5
   3F2
  8
0
  6
CONTINUOUS
 62
     1
 10
81.0824955254794
 20
147.170236015318
 30
0.0
 11
81.0824955254794
 21
154.520235890148
 31
0.0
  0
LINE
  5
   3F3
  8
0
  6
CONTINUOUS
 62
     1
 10
129.032494708896
 20
147.170236015318
 30
0.0
 11
129.032494708896
 21
154.520235890148
 31
0.0
  0
LINE
  5
   3F4
  8
0
  6
CONTINUOUS
 62
     3
 10
104.969995118678
 20
109.720241993664
 30
0.0
 11
104.969995118678
 21
112.695241943
 31
0.0
  0
LINE
  5
   3F5
  8
0
  6
CONTINUOUS
 62
     3
 10
105.599995107949
 20
109.720241993664
 30
0.0
 11
105.599995107949
 21
112.695241943
 31
0.0
  0
LINE
  5
   3F6
  8
0
  6
CONTINUOUS
 62
     3
 10
106.22999509722
 20
109.720241993664
 30
0.0
 11
106.22999509722
 21
113.920241922138
 31
0.0
  0
LINE
  5
   3F7
  8
0
  6
CONTINUOUS
 62
     3
 10
106.859995086491
 20
109.720241993664
 30
0.0
 11
106.859995086491
 21
113.920241922138
 31
0.0
  0
LINE
  5
   3F8
  8
0
  6
CONTINUOUS
 62
     3
 10
107.489995075762
 20
109.720241993664
 30
0.0
 11
107.489995075762
 21
113.920241922138
 31
0.0
  0
LINE
  5
   3F9
  8
0
  6
CONTINUOUS
 62
     3
 10
108.119995065033
 20
109.720241993664
 30
0.0
 11
108.119995065033
 21
113.920241922138
 31
0.0
  0
LINE
  5
   3FA
  8
0
  6
CONTINUOUS
 62
     3
 10
108.749995054305
 20
109.720241993664
 30
0.0
 11
108.749995054305
 21
113.920241922138
 31
0.0
  0
LINE
  5
   3FB
  8
0
  6
CONTINUOUS
 62
     3
 10
109.379995043576
 20
109.720241993664
 30
0.0
 11
109.379995043576
 21
113.920241922138
 31
0.0
  0
LINE
  5
   3FC
  8
0
  6
CONTINUOUS
 62
     3
 10
110.009995032847
 20
109.720241993664
 30
0.0
 11
110.009995032847
 21
113.920241922138
 31
0.0
  0
LINE
  5
   3FD
  8
0
  6
CONTINUOUS
 62
     3
 10
110.639995022118
 20
109.720241993664
 30
0.0
 11
110.639995022118
 21
113.920241922138
 31
0.0
  0
LINE
  5
   3FE
  8
0
  6
CONTINUOUS
 62
     3
 10
104.339995129406
 20
109.720241993664
 30
0.0
 11
104.339995129406
 21
112.695241943
 31
0.0
  0
LINE
  5
   3FF
  8
0
  6
CONTINUOUS
 62
     3
 10
103.709995140135
 20
109.720241993664
 30
0.0
 11
103.709995140135
 21
112.695241943
 31
0.0
  0
LINE
  5
   400
  8
0
  6
CONTINUOUS
 62
     3
 10
103.079995150864
 20
109.720241993664
 30
0.0
 11
103.079995150864
 21
113.920241922138
 31
0.0
  0
LINE
  5
   401
  8
0
  6
CONTINUOUS
 62
     3
 10
102.449995161593
 20
109.720241993664
 30
0.0
 11
102.449995161593
 21
113.920241922138
 31
0.0
  0
LINE
  5
   402
  8
0
  6
CONTINUOUS
 62
     3
 10
101.819995172322
 20
109.720241993664
 30
0.0
 11
101.819995172322
 21
113.920241922138
 31
0.0
  0
LINE
  5
   403
  8
0
  6
CONTINUOUS
 62
     3
 10
101.189995183051
 20
109.720241993664
 30
0.0
 11
101.189995183051
 21
113.920241922138
 31
0.0
  0
LINE
  5
   404
  8
0
  6
CONTINUOUS
 62
     3
 10
100.559995193779
 20
109.720241993664
 30
0.0
 11
100.559995193779
 21
113.920241922138
 31
0.0
  0
LINE
  5
   405
  8
0
  6
CONTINUOUS
 62
     3
 10
99.9299952045083
 20
109.720241993664
 30
0.0
 11
99.9299952045083
 21
113.920241922138
 31
0.0
  0
LINE
  5
   406
  8
0
  6
CONTINUOUS
 62
     3
 10
99.2999952152372
 20
109.720241993664
 30
0.0
 11
99.2999952152372
 21
113.920241922138
 31
0.0
  0
LINE
  5
   407
  8
0
  6
CONTINUOUS
 62
     3
 10
105.599995107949
 20
109.720241993664
 30
0.0
 11
104.969995118678
 21
109.720241993664
 31
0.0
  0
LINE
  5
   408
  8
0
  6
CONTINUOUS
 62
     3
 10
105.599995107949
 20
112.695241943
 30
0.0
 11
104.969995118678
 21
112.695241943
 31
0.0
  0
LINE
  5
   409
  8
0
  6
CONTINUOUS
 62
     3
 10
104.339995129406
 20
112.695241943
 30
0.0
 11
103.709995140135
 21
112.695241943
 31
0.0
  0
LINE
  5
   40A
  8
0
  6
CONTINUOUS
 62
     3
 10
103.079995150864
 20
113.920241922138
 30
0.0
 11
102.449995161593
 21
113.920241922138
 31
0.0
  0
LINE
  5
   40B
  8
0
  6
CONTINUOUS
 62
     3
 10
101.819995172322
 20
113.920241922138
 30
0.0
 11
101.189995183051
 21
113.920241922138
 31
0.0
  0
LINE
  5
   40C
  8
0
  6
CONTINUOUS
 62
     3
 10
100.559995193779
 20
113.920241922138
 30
0.0
 11
99.9299952045083
 21
113.920241922138
 31
0.0
  0
LINE
  5
   40D
  8
0
  6
CONTINUOUS
 62
     3
 10
106.859995086491
 20
113.920241922138
 30
0.0
 11
106.22999509722
 21
113.920241922138
 31
0.0
  0
LINE
  5
   40E
  8
0
  6
CONTINUOUS
 62
     3
 10
108.119995065033
 20
113.920241922138
 30
0.0
 11
107.489995075762
 21
113.920241922138
 31
0.0
  0
LINE
  5
   40F
  8
0
  6
CONTINUOUS
 62
     3
 10
109.379995043576
 20
113.920241922138
 30
0.0
 11
108.749995054305
 21
113.920241922138
 31
0.0
  0
LINE
  5
   410
  8
0
  6
CONTINUOUS
 62
     3
 10
110.639995022118
 20
113.920241922138
 30
0.0
 11
110.009995032847
 21
113.920241922138
 31
0.0
  0
LINE
  5
   411
  8
0
  6
CONTINUOUS
 62
     3
 10
98.669995225966
 20
109.720241993664
 30
0.0
 11
98.669995225966
 21
113.920241922138
 31
0.0
  0
LINE
  5
   412
  8
0
  6
CONTINUOUS
 62
     3
 10
99.2999952152372
 20
113.920241922138
 30
0.0
 11
98.669995225966
 21
113.920241922138
 31
0.0
  0
LINE
  5
   413
  8
0
  6
CONTINUOUS
 62
     3
 10
99.2999952152372
 20
109.720241993664
 30
0.0
 11
98.669995225966
 21
109.720241993664
 31
0.0
  0
LINE
  5
   414
  8
0
  6
CONTINUOUS
 62
     3
 10
100.559995193779
 20
109.720241993664
 30
0.0
 11
99.9299952045083
 21
109.720241993664
 31
0.0
  0
LINE
  5
   415
  8
0
  6
CONTINUOUS
 62
     3
 10
101.819995172322
 20
109.720241993664
 30
0.0
 11
101.189995183051
 21
109.720241993664
 31
0.0
  0
LINE
  5
   416
  8
0
  6
CONTINUOUS
 62
     3
 10
103.079995150864
 20
109.720241993664
 30
0.0
 11
102.449995161593
 21
109.720241993664
 31
0.0
  0
LINE
  5
   417
  8
0
  6
CONTINUOUS
 62
     3
 10
104.339995129406
 20
109.720241993664
 30
0.0
 11
103.709995140135
 21
109.720241993664
 31
0.0
  0
LINE
  5
   418
  8
0
  6
CONTINUOUS
 62
     3
 10
106.859995086491
 20
109.720241993664
 30
0.0
 11
106.22999509722
 21
109.720241993664
 31
0.0
  0
LINE
  5
   419
  8
0
  6
CONTINUOUS
 62
     3
 10
108.119995065033
 20
109.720241993664
 30
0.0
 11
107.489995075762
 21
109.720241993664
 31
0.0
  0
LINE
  5
   41A
  8
0
  6
CONTINUOUS
 62
     3
 10
109.379995043576
 20
109.720241993664
 30
0.0
 11
108.749995054305
 21
109.720241993664
 31
0.0
  0
LINE
  5
   41B
  8
0
  6
CONTINUOUS
 62
     3
 10
110.639995022118
 20
109.720241993664
 30
0.0
 11
110.009995032847
 21
109.720241993664
 31
0.0
  0
LINE
  5
   41C
  8
0
  6
CONTINUOUS
 62
     3
 10
135.209994603694
 20
109.720241993664
 30
0.0
 11
135.209994603694
 21
113.920241922138
 31
0.0
  0
LINE
  5
   41D
  8
0
  6
CONTINUOUS
 62
     3
 10
135.209994603694
 20
109.720241993664
 30
0.0
 11
134.579994614422
 21
109.720241993664
 31
0.0
  0
LINE
  5
   41E
  8
0
  6
CONTINUOUS
 62
     3
 10
133.949994625151
 20
109.720241993664
 30
0.0
 11
133.31999463588
 21
109.720241993664
 31
0.0
  0
LINE
  5
   41F
  8
0
  6
CONTINUOUS
 62
     3
 10
132.689994646609
 20
109.720241993664
 30
0.0
 11
132.059994657338
 21
109.720241993664
 31
0.0
  0
LINE
  5
   420
  8
0
  6
CONTINUOUS
 62
     3
 10
131.429994668067
 20
109.720241993664
 30
0.0
 11
130.799994678795
 21
109.720241993664
 31
0.0
  0
LINE
  5
   421
  8
0
  6
CONTINUOUS
 62
     3
 10
128.909994710982
 20
109.720241993664
 30
0.0
 11
128.279994721711
 21
109.720241993664
 31
0.0
  0
LINE
  5
   422
  8
0
  6
CONTINUOUS
 62
     3
 10
127.64999473244
 20
109.720241993664
 30
0.0
 11
127.019994743168
 21
109.720241993664
 31
0.0
  0
LINE
  5
   423
  8
0
  6
CONTINUOUS
 62
     3
 10
126.389994753897
 20
109.720241993664
 30
0.0
 11
125.759994764626
 21
109.720241993664
 31
0.0
  0
LINE
  5
   424
  8
0
  6
CONTINUOUS
 62
     3
 10
125.129994775355
 20
109.720241993664
 30
0.0
 11
124.499994786084
 21
109.720241993664
 31
0.0
  0
LINE
  5
   425
  8
0
  6
CONTINUOUS
 62
     3
 10
123.869994796813
 20
109.720241993664
 30
0.0
 11
123.239994807541
 21
109.720241993664
 31
0.0
  0
LINE
  5
   426
  8
0
  6
CONTINUOUS
 62
     3
 10
123.869994796813
 20
113.920241922138
 30
0.0
 11
123.239994807541
 21
113.920241922138
 31
0.0
  0
LINE
  5
   427
  8
0
  6
CONTINUOUS
 62
     3
 10
123.239994807541
 20
109.720241993664
 30
0.0
 11
123.239994807541
 21
113.920241922138
 31
0.0
  0
LINE
  5
   428
  8
0
  6
CONTINUOUS
 62
     3
 10
135.209994603694
 20
113.920241922138
 30
0.0
 11
134.579994614422
 21
113.920241922138
 31
0.0
  0
LINE
  5
   429
  8
0
  6
CONTINUOUS
 62
     3
 10
133.949994625151
 20
113.920241922138
 30
0.0
 11
133.31999463588
 21
113.920241922138
 31
0.0
  0
LINE
  5
   42A
  8
0
  6
CONTINUOUS
 62
     3
 10
132.689994646609
 20
113.920241922138
 30
0.0
 11
132.059994657338
 21
113.920241922138
 31
0.0
  0
LINE
  5
   42B
  8
0
  6
CONTINUOUS
 62
     3
 10
131.429994668067
 20
113.920241922138
 30
0.0
 11
130.799994678795
 21
113.920241922138
 31
0.0
  0
LINE
  5
   42C
  8
0
  6
CONTINUOUS
 62
     3
 10
125.129994775355
 20
113.920241922138
 30
0.0
 11
124.499994786084
 21
113.920241922138
 31
0.0
  0
LINE
  5
   42D
  8
0
  6
CONTINUOUS
 62
     3
 10
126.389994753897
 20
113.920241922138
 30
0.0
 11
125.759994764626
 21
113.920241922138
 31
0.0
  0
LINE
  5
   42E
  8
0
  6
CONTINUOUS
 62
     3
 10
127.64999473244
 20
113.920241922138
 30
0.0
 11
127.019994743168
 21
113.920241922138
 31
0.0
  0
LINE
  5
   42F
  8
0
  6
CONTINUOUS
 62
     3
 10
128.909994710982
 20
112.695241943
 30
0.0
 11
128.279994721711
 21
112.695241943
 31
0.0
  0
LINE
  5
   430
  8
0
  6
CONTINUOUS
 62
     3
 10
130.169994689524
 20
112.695241943
 30
0.0
 11
129.539994700253
 21
112.695241943
 31
0.0
  0
LINE
  5
   431
  8
0
  6
CONTINUOUS
 62
     3
 10
130.169994689524
 20
109.720241993664
 30
0.0
 11
129.539994700253
 21
109.720241993664
 31
0.0
  0
LINE
  5
   432
  8
0
  6
CONTINUOUS
 62
     3
 10
123.869994796813
 20
109.720241993664
 30
0.0
 11
123.869994796813
 21
113.920241922138
 31
0.0
  0
LINE
  5
   433
  8
0
  6
CONTINUOUS
 62
     3
 10
124.499994786084
 20
109.720241993664
 30
0.0
 11
124.499994786084
 21
113.920241922138
 31
0.0
  0
LINE
  5
   434
  8
0
  6
CONTINUOUS
 62
     3
 10
125.129994775355
 20
109.720241993664
 30
0.0
 11
125.129994775355
 21
113.920241922138
 31
0.0
  0
LINE
  5
   435
  8
0
  6
CONTINUOUS
 62
     3
 10
125.759994764626
 20
109.720241993664
 30
0.0
 11
125.759994764626
 21
113.920241922138
 31
0.0
  0
LINE
  5
   436
  8
0
  6
CONTINUOUS
 62
     3
 10
126.389994753897
 20
109.720241993664
 30
0.0
 11
126.389994753897
 21
113.920241922138
 31
0.0
  0
LINE
  5
   437
  8
0
  6
CONTINUOUS
 62
     3
 10
127.019994743168
 20
109.720241993664
 30
0.0
 11
127.019994743168
 21
113.920241922138
 31
0.0
  0
LINE
  5
   438
  8
0
  6
CONTINUOUS
 62
     3
 10
127.64999473244
 20
109.720241993664
 30
0.0
 11
127.64999473244
 21
113.920241922138
 31
0.0
  0
LINE
  5
   439
  8
0
  6
CONTINUOUS
 62
     3
 10
128.279994721711
 20
109.720241993664
 30
0.0
 11
128.279994721711
 21
112.695241943
 31
0.0
  0
LINE
  5
   43A
  8
0
  6
CONTINUOUS
 62
     3
 10
128.909994710982
 20
109.720241993664
 30
0.0
 11
128.909994710982
 21
112.695241943
 31
0.0
  0
LINE
  5
   43B
  8
0
  6
CONTINUOUS
 62
     3
 10
135.209994603694
 20
109.720241993664
 30
0.0
 11
135.209994603694
 21
113.920241922138
 31
0.0
  0
LINE
  5
   43C
  8
0
  6
CONTINUOUS
 62
     3
 10
134.579994614422
 20
109.720241993664
 30
0.0
 11
134.579994614422
 21
113.920241922138
 31
0.0
  0
LINE
  5
   43D
  8
0
  6
CONTINUOUS
 62
     3
 10
133.949994625151
 20
109.720241993664
 30
0.0
 11
133.949994625151
 21
113.920241922138
 31
0.0
  0
LINE
  5
   43E
  8
0
  6
CONTINUOUS
 62
     3
 10
133.31999463588
 20
109.720241993664
 30
0.0
 11
133.31999463588
 21
113.920241922138
 31
0.0
  0
LINE
  5
   43F
  8
0
  6
CONTINUOUS
 62
     3
 10
132.689994646609
 20
109.720241993664
 30
0.0
 11
132.689994646609
 21
113.920241922138
 31
0.0
  0
LINE
  5
   440
  8
0
  6
CONTINUOUS
 62
     3
 10
132.059994657338
 20
109.720241993664
 30
0.0
 11
132.059994657338
 21
113.920241922138
 31
0.0
  0
LINE
  5
   441
  8
0
  6
CONTINUOUS
 62
     3
 10
131.429994668067
 20
109.720241993664
 30
0.0
 11
131.429994668067
 21
113.920241922138
 31
0.0
  0
LINE
  5
   442
  8
0
  6
CONTINUOUS
 62
     3
 10
130.799994678795
 20
109.720241993664
 30
0.0
 11
130.799994678795
 21
113.920241922138
 31
0.0
  0
LINE
  5
   443
  8
0
  6
CONTINUOUS
 62
     3
 10
130.169994689524
 20
108.425242015717
 30
0.0
 11
130.169994689524
 21
156.270235690617
 31
0.0
  0
LINE
  5
   444
  8
0
  6
CONTINUOUS
 62
     3
 10
129.539994700253
 20
109.720241993664
 30
0.0
 11
129.539994700253
 21
112.695241943
 31
0.0
  0
LINE
  5
   445
  8
0
  6
CONTINUOUS
 62
     3
 10
86.2449954375625
 20
109.720241993664
 30
0.0
 11
85.6149954482913
 21
109.720241993664
 31
0.0
  0
LINE
  5
   446
  8
0
  6
CONTINUOUS
 62
     3
 10
84.9849954590202
 20
109.720241993664
 30
0.0
 11
84.354995469749
 21
109.720241993664
 31
0.0
  0
LINE
  5
   447
  8
0
  6
CONTINUOUS
 62
     3
 10
83.7249954804778
 20
109.720241993664
 30
0.0
 11
83.0949954912067
 21
109.720241993664
 31
0.0
  0
LINE
  5
   448
  8
0
  6
CONTINUOUS
 62
     3
 10
82.4649955019355
 20
109.720241993664
 30
0.0
 11
81.8349955126643
 21
109.720241993664
 31
0.0
  0
LINE
  5
   449
  8
0
  6
CONTINUOUS
 62
     3
 10
79.9449955448509
 20
109.720241993664
 30
0.0
 11
79.3149955555797
 21
109.720241993664
 31
0.0
  0
LINE
  5
   44A
  8
0
  6
CONTINUOUS
 62
     3
 10
78.6849955663085
 20
109.720241993664
 30
0.0
 11
78.0549955770373
 21
109.720241993664
 31
0.0
  0
LINE
  5
   44B
  8
0
  6
CONTINUOUS
 62
     3
 10
77.4249955877662
 20
109.720241993664
 30
0.0
 11
76.794995598495
 21
109.720241993664
 31
0.0
  0
LINE
  5
   44C
  8
0
  6
CONTINUOUS
 62
     3
 10
76.1649956092239
 20
109.720241993664
 30
0.0
 11
75.5349956199527
 21
109.720241993664
 31
0.0
  0
LINE
  5
   44D
  8
0
  6
CONTINUOUS
 62
     3
 10
74.9049956306815
 20
109.720241993664
 30
0.0
 11
74.2749956414104
 21
109.720241993664
 31
0.0
  0
LINE
  5
   44E
  8
0
  6
CONTINUOUS
 62
     3
 10
74.9049956306815
 20
113.920241922138
 30
0.0
 11
74.2749956414104
 21
113.920241922138
 31
0.0
  0
LINE
  5
   44F
  8
0
  6
CONTINUOUS
 62
     3
 10
74.2749956414104
 20
109.720241993664
 30
0.0
 11
74.2749956414104
 21
113.920241922138
 31
0.0
  0
LINE
  5
   450
  8
0
  6
CONTINUOUS
 62
     3
 10
86.2449954375625
 20
113.920241922138
 30
0.0
 11
85.6149954482913
 21
113.920241922138
 31
0.0
  0
LINE
  5
   451
  8
0
  6
CONTINUOUS
 62
     3
 10
84.9849954590202
 20
113.920241922138
 30
0.0
 11
84.354995469749
 21
113.920241922138
 31
0.0
  0
LINE
  5
   452
  8
0
  6
CONTINUOUS
 62
     3
 10
83.7249954804778
 20
113.920241922138
 30
0.0
 11
83.0949954912067
 21
113.920241922138
 31
0.0
  0
LINE
  5
   453
  8
0
  6
CONTINUOUS
 62
     3
 10
82.4649955019355
 20
113.920241922138
 30
0.0
 11
81.8349955126643
 21
113.920241922138
 31
0.0
  0
LINE
  5
   454
  8
0
  6
CONTINUOUS
 62
     3
 10
76.1649956092239
 20
113.920241922138
 30
0.0
 11
75.5349956199527
 21
113.920241922138
 31
0.0
  0
LINE
  5
   455
  8
0
  6
CONTINUOUS
 62
     3
 10
77.4249955877662
 20
113.920241922138
 30
0.0
 11
76.794995598495
 21
113.920241922138
 31
0.0
  0
LINE
  5
   456
  8
0
  6
CONTINUOUS
 62
     3
 10
78.6849955663085
 20
113.920241922138
 30
0.0
 11
78.0549955770373
 21
113.920241922138
 31
0.0
  0
LINE
  5
   457
  8
0
  6
CONTINUOUS
 62
     3
 10
79.9449955448509
 20
112.695241943
 30
0.0
 11
79.3149955555797
 21
112.695241943
 31
0.0
  0
LINE
  5
   458
  8
0
  6
CONTINUOUS
 62
     3
 10
81.2049955233932
 20
112.695241943
 30
0.0
 11
80.574995534122
 21
112.695241943
 31
0.0
  0
LINE
  5
   459
  8
0
  6
CONTINUOUS
 62
     3
 10
81.2049955233932
 20
109.720241993664
 30
0.0
 11
80.574995534122
 21
109.720241993664
 31
0.0
  0
LINE
  5
   45A
  8
0
  6
CONTINUOUS
 62
     3
 10
74.9049956306815
 20
109.720241993664
 30
0.0
 11
74.9049956306815
 21
113.920241922138
 31
0.0
  0
LINE
  5
   45B
  8
0
  6
CONTINUOUS
 62
     3
 10
75.5349956199527
 20
109.720241993664
 30
0.0
 11
75.5349956199527
 21
113.920241922138
 31
0.0
  0
LINE
  5
   45C
  8
0
  6
CONTINUOUS
 62
     3
 10
76.1649956092239
 20
109.720241993664
 30
0.0
 11
76.1649956092239
 21
113.920241922138
 31
0.0
  0
LINE
  5
   45D
  8
0
  6
CONTINUOUS
 62
     3
 10
76.794995598495
 20
109.720241993664
 30
0.0
 11
76.794995598495
 21
113.920241922138
 31
0.0
  0
LINE
  5
   45E
  8
0
  6
CONTINUOUS
 62
     3
 10
77.4249955877662
 20
109.720241993664
 30
0.0
 11
77.4249955877662
 21
113.920241922138
 31
0.0
  0
LINE
  5
   45F
  8
0
  6
CONTINUOUS
 62
     3
 10
78.0549955770373
 20
109.720241993664
 30
0.0
 11
78.0549955770373
 21
113.920241922138
 31
0.0
  0
LINE
  5
   460
  8
0
  6
CONTINUOUS
 62
     3
 10
78.6849955663085
 20
109.720241993664
 30
0.0
 11
78.6849955663085
 21
113.920241922138
 31
0.0
  0
LINE
  5
   461
  8
0
  6
CONTINUOUS
 62
     3
 10
79.3149955555797
 20
109.720241993664
 30
0.0
 11
79.3149955555797
 21
112.695241943
 31
0.0
  0
LINE
  5
   462
  8
0
  6
CONTINUOUS
 62
     3
 10
79.9449955448509
 20
108.425242015717
 30
0.0
 11
79.9449955448509
 21
112.695241943
 31
0.0
  0
LINE
  5
   463
  8
0
  6
CONTINUOUS
 62
     3
 10
86.2449954375625
 20
109.720241993664
 30
0.0
 11
86.2449954375625
 21
113.920241922138
 31
0.0
  0
LINE
  5
   464
  8
0
  6
CONTINUOUS
 62
     3
 10
85.6149954482913
 20
109.720241993664
 30
0.0
 11
85.6149954482913
 21
113.920241922138
 31
0.0
  0
LINE
  5
   465
  8
0
  6
CONTINUOUS
 62
     3
 10
84.9849954590202
 20
109.720241993664
 30
0.0
 11
84.9849954590202
 21
113.920241922138
 31
0.0
  0
LINE
  5
   466
  8
0
  6
CONTINUOUS
 62
     3
 10
84.354995469749
 20
109.720241993664
 30
0.0
 11
84.354995469749
 21
113.920241922138
 31
0.0
  0
LINE
  5
   467
  8
0
  6
CONTINUOUS
 62
     3
 10
83.7249954804778
 20
109.720241993664
 30
0.0
 11
83.7249954804778
 21
113.920241922138
 31
0.0
  0
LINE
  5
   468
  8
0
  6
CONTINUOUS
 62
     3
 10
83.0949954912067
 20
109.720241993664
 30
0.0
 11
83.0949954912067
 21
113.920241922138
 31
0.0
  0
LINE
  5
   469
  8
0
  6
CONTINUOUS
 62
     3
 10
82.4649955019355
 20
109.720241993664
 30
0.0
 11
82.4649955019355
 21
113.920241922138
 31
0.0
  0
LINE
  5
   46A
  8
0
  6
CONTINUOUS
 62
     3
 10
81.8349955126643
 20
109.720241993664
 30
0.0
 11
81.8349955126643
 21
113.920241922138
 31
0.0
  0
LINE
  5
   46B
  8
0
  6
CONTINUOUS
 62
     3
 10
81.2049955233932
 20
109.720241993664
 30
0.0
 11
81.2049955233932
 21
112.695241943
 31
0.0
  0
LINE
  5
   46C
  8
0
  6
CONTINUOUS
 62
     3
 10
80.574995534122
 20
109.720241993664
 30
0.0
 11
80.574995534122
 21
112.695241943
 31
0.0
  0
LINE
  5
   46D
  8
0
  6
CONTINUOUS
 62
     3
 10
68.3075035334076
 20
23.7252271693967
 30
0.0
 11
68.3075035334076
 21
108.075242021678
 31
0.0
  0
LINE
  5
   46E
  8
0
  6
CONTINUOUS
 62
     3
 10
69.182485118884
 20
23.7252271693967
 30
0.0
 11
68.3075035334076
 21
23.7252271693967
 31
0.0
  0
LINE
  5
   46F
  8
0
  6
CONTINUOUS
 62
     3
 10
141.80750228171
 20
23.7252271693967
 30
0.0
 11
141.80750228171
 21
108.075242021678
 31
0.0
  0
LINE
  5
   470
  8
0
  6
CONTINUOUS
 62
     3
 10
141.80750228171
 20
23.7252271693967
 30
0.0
 11
140.932473215818
 21
23.7252271693967
 31
0.0
  0
LINE
  5
   471
  8
0
  6
CONTINUOUS
 62
     1
 10
136.469997032031
 20
108.425242015717
 30
0.0
 11
136.469997032031
 21
156.270235690617
 31
0.0
  0
LINE
  5
   472
  8
0
  6
CONTINUOUS
 62
     1
 10
141.80750228171
 20
31.3202273070849
 30
0.0
 11
68.3075035334076
 21
31.3202273070849
 31
0.0
  0
LINE
  5
   473
  8
0
  6
CONTINUOUS
 62
     7
 10
68.745003525957
 20
46.3702270507812
 30
0.0
 11
68.745003525957
 21
46.7202270239591
 31
0.0
  0
LINE
  5
   474
  8
0
  6
CONTINUOUS
 62
     7
 10
68.745003525957
 20
46.7202270239591
 30
0.0
 11
68.3075035334076
 21
46.7202270239591
 31
0.0
  0
LINE
  5
   475
  8
0
  6
CONTINUOUS
 62
     7
 10
68.745003525957
 20
46.3702270507812
 30
0.0
 11
68.3075035334076
 21
46.3702270507812
 31
0.0
  0
LINE
  5
   476
  8
0
  6
CONTINUOUS
 62
     7
 10
141.370002289161
 20
46.3702270507812
 30
0.0
 11
141.370002289161
 21
46.7202270239591
 31
0.0
  0
LINE
  5
   477
  8
0
  6
CONTINUOUS
 62
     7
 10
141.80750228171
 20
46.7202270239591
 30
0.0
 11
141.370002289161
 21
46.7202270239591
 31
0.0
  0
LINE
  5
   478
  8
0
  6
CONTINUOUS
 62
     7
 10
141.80750228171
 20
46.3702270507812
 30
0.0
 11
141.370002289161
 21
46.3702270507812
 31
0.0
  0
LINE
  5
   479
  8
0
  6
CONTINUOUS
 62
     1
 10
132.690001368865
 20
31.3202273070849
 30
0.0
 11
132.690001368865
 21
46.3702270507812
 31
0.0
  0
LINE
  5
   47A
  8
0
  6
CONTINUOUS
 62
     1
 10
133.949998143062
 20
31.3202273070849
 30
0.0
 11
133.949998143062
 21
46.3702270507812
 31
0.0
  0
LINE
  5
   47B
  8
0
  6
CONTINUOUS
 62
     1
 10
135.210000257834
 20
31.3202273070849
 30
0.0
 11
135.210000257834
 21
46.3702270507812
 31
0.0
  0
LINE
  5
   47C
  8
0
  6
CONTINUOUS
 62
     1
 10
136.469997032031
 20
31.3202273070849
 30
0.0
 11
136.469997032031
 21
46.3702270507812
 31
0.0
  0
LINE
  5
   47D
  8
0
  6
CONTINUOUS
 62
     1
 10
137.729999146804
 20
31.3202273070849
 30
0.0
 11
137.729999146804
 21
46.3702270507812
 31
0.0
  0
LINE
  5
   47E
  8
0
  6
CONTINUOUS
 62
     1
 10
138.990001261577
 20
31.3202273070849
 30
0.0
 11
138.990001261577
 21
46.3702270507812
 31
0.0
  0
LINE
  5
   47F
  8
0
  6
CONTINUOUS
 62
     1
 10
140.249998035773
 20
31.3202273070849
 30
0.0
 11
140.249998035773
 21
46.3702270507812
 31
0.0
  0
LINE
  5
   480
  8
0
  6
CONTINUOUS
 62
     1
 10
141.054999090179
 20
31.3202273070849
 30
0.0
 11
141.054999090179
 21
46.3702270507812
 31
0.0
  0
LINE
  5
   481
  8
0
  6
CONTINUOUS
 62
     1
 10
69.0600033870782
 20
31.3202273070849
 30
0.0
 11
69.0600033870782
 21
46.3702270507812
 31
0.0
  0
LINE
  5
   482
  8
0
  6
CONTINUOUS
 62
     1
 10
69.8650034401263
 20
31.3202273070849
 30
0.0
 11
69.8650034401263
 21
46.3702270507812
 31
0.0
  0
LINE
  5
   483
  8
0
  6
CONTINUOUS
 62
     1
 10
71.125003218397
 20
31.3202273070849
 30
0.0
 11
71.125003218397
 21
46.3702270507812
 31
0.0
  0
LINE
  5
   484
  8
0
  6
CONTINUOUS
 62
     1
 10
72.3850033304538
 20
31.3202273070849
 30
0.0
 11
72.3850033304538
 21
46.3702270507812
 31
0.0
  0
LINE
  5
   485
  8
0
  6
CONTINUOUS
 62
     1
 10
73.6450034425105
 20
31.3202273070849
 30
0.0
 11
73.6450034425105
 21
46.3702270507812
 31
0.0
  0
LINE
  5
   486
  8
0
  6
CONTINUOUS
 62
     1
 10
74.9050002167072
 20
31.3202273070849
 30
0.0
 11
74.9050002167072
 21
46.3702270507812
 31
0.0
  0
LINE
  5
   487
  8
0
  6
CONTINUOUS
 62
     1
 10
76.1650023314799
 20
31.3202273070849
 30
0.0
 11
76.1650023314799
 21
46.3702270507812
 31
0.0
  0
LINE
  5
   488
  8
0
  6
CONTINUOUS
 62
     1
 10
77.4249991056766
 20
31.3202273070849
 30
0.0
 11
77.4249991056766
 21
46.3702270507812
 31
0.0
  0
LINE
  5
   489
  8
0
  6
CONTINUOUS
 62
     1
 10
78.6849990842189
 20
31.3202273070849
 30
0.0
 11
78.6849990842189
 21
46.3702270507812
 31
0.0
  0
LINE
  5
   48A
  8
0
  6
CONTINUOUS
 62
     1
 10
79.9449990627613
 20
31.3202273070849
 30
0.0
 11
79.9449990627613
 21
46.3702270507812
 31
0.0
  0
LINE
  5
   48B
  8
0
  6
CONTINUOUS
 62
     1
 10
131.430001390323
 20
31.3202273070849
 30
0.0
 11
131.430001390323
 21
46.3702270507812
 31
0.0
  0
LINE
  5
   48C
  8
0
  6
CONTINUOUS
 62
     1
 10
130.17000141178
 20
31.3202273070849
 30
0.0
 11
130.17000141178
 21
46.3702270507812
 31
0.0
  0
CIRCLE
  5
   48D
  8
0
  6
CONTINUOUS
 62
     3
 10
92.8075782248901
 20
111.120236629246
 30
0.0
 40
1.39999997615814
  0
CIRCLE
  5
   48E
  8
0
  6
CONTINUOUS
 62
     3
 10
117.307412009485
 20
111.120236629246
 30
0.0
 40
1.39999997615814
  0
LINE
  5
   48F
  8
0
  6
DASHDOT
 62
     7
 10
92.8074839458011
 20
25.6327496578416
 30
0.0
 11
92.8074839458011
 21
30.7077301599721
 31
0.0
  0
LINE
  5
   490
  8
0
  6
DASHDOT
 62
     7
 10
95.3449741968663
 20
28.1702399089068
 30
0.0
 11
90.2699936947359
 21
28.1702399089068
 31
0.0
  0
LINE
  5
   491
  8
0
  6
CONTINUOUS
 62
     1
 10
141.370002289161
 20
108.425242015717
 30
0.0
 11
68.745003525957
 21
108.425242015717
 31
0.0
  0
LINE
  5
   492
  8
0
  6
CONTINUOUS
 62
     1
 10
141.80750228171
 20
107.970236513161
 30
0.0
 11
68.3075035334076
 21
107.970236513161
 31
0.0
  0
LINE
  5
   493
  8
0
  6
CONTINUOUS
 62
     1
 10
141.370002289161
 20
108.075242021678
 30
0.0
 11
68.745003525957
 21
108.075242021678
 31
0.0
  0
LINE
  5
   494
  8
0
  6
CONTINUOUS
 62
     7
 10
129.119951785122
 20
50.2202677776431
 30
0.0
 11
80.994976063046
 21
50.2202677776431
 31
0.0
  0
LINE
  5
   495
  8
0
  6
CONTINUOUS
 62
     7
 10
129.119951785122
 20
99.2202669431781
 30
0.0
 11
80.994976063046
 21
99.2202669431781
 31
0.0
  0
LINE
  5
   496
  8
0
  6
CONTINUOUS
 62
     7
 10
129.557451777672
 20
50.6577677701925
 30
0.0
 11
129.557451777672
 21
78.9202187095254
 31
0.0
  0
LINE
  5
   497
  8
0
  6
CONTINUOUS
 62
     7
 10
80.5574760704966
 20
50.6577677701925
 30
0.0
 11
80.5574760704966
 21
62.120368531758
 31
0.0
  0
ARC
  5
   498
  8
0
  6
CONTINUOUS
 62
     7
 10
129.119951785122
 20
98.7827669506287
 30
0.0
 40
0.437499992549419
 50
359.999999948034
 51
449.999999948034
  0
ARC
  5
   499
  8
0
  6
CONTINUOUS
 62
     7
 10
80.994976063046
 20
98.7827669506287
 30
0.0
 40
0.437499992549419
 50
89.9999999480344
 51
168.448118735634
  0
ARC
  5
   49A
  8
0
  6
CONTINUOUS
 62
     7
 10
80.994976063046
 20
50.6577677701925
 30
0.0
 40
0.437499992549419
 50
179.999999948034
 51
269.999999948034
  0
ARC
  5
   49B
  8
0
  6
CONTINUOUS
 62
     7
 10
129.119951785122
 20
50.6577677701925
 30
0.0
 40
0.437499992549419
 50
269.999999948034
 51
359.999999948034
  0
ARC
  5
   49C
  8
0
  6
CONTINUOUS
 62
     7
 10
80.994976063046
 20
98.7827669506287
 30
0.0
 40
0.437499992549419
 50
168.448118735634
 51
179.999999948034
  0
LINE
  5
   49D
  8
0
  6
DOT
 62
     7
 10
80.5574760704966
 20
62.120368531758
 30
0.0
 11
80.5574760704966
 21
98.7827669506287
 31
0.0
  0
LINE
  5
   49E
  8
0
  6
DASHDOT
 62
     7
 10
80.55749553442
 20
154.356650105577
 30
0.0
 11
80.55749553442
 21
166.048863385699
 31
0.0
  0
LINE
  5
   49F
  8
0
  6
DASHDOT
 62
     7
 10
129.557494699955
 20
154.356650105577
 30
0.0
 11
129.557494699955
 21
166.048863385699
 31
0.0
  0
LINE
  5
   4A0
  8
0
  6
CONTINUOUS
 62
     1
 10
131.430001390323
 20
46.7202270239591
 30
0.0
 11
131.430001390323
 21
54.3327215537429
 31
0.0
  0
LINE
  5
   4A1
  8
0
  6
CONTINUOUS
 62
     1
 10
130.17000141178
 20
46.7202270239591
 30
0.0
 11
130.17000141178
 21
54.3327215537429
 31
0.0
  0
LINE
  5
   4A2
  8
0
  6
CONTINUOUS
 62
     1
 10
131.430001390323
 20
54.3327215746045
 30
0.0
 11
131.430001390323
 21
78.9767598087981
 31
0.0
  0
LINE
  5
   4A3
  8
0
  6
CONTINUOUS
 62
     1
 10
130.17000141178
 20
54.3327215746045
 30
0.0
 11
130.17000141178
 21
78.9202187095254
 31
0.0
  0
LINE
  5
   4A4
  8
0
  6
CONTINUOUS
 62
     1
 10
131.430001390323
 20
91.0827209487558
 30
0.0
 11
131.430001390323
 21
107.970226001739
 31
0.0
  0
LINE
  5
   4A5
  8
0
  6
CONTINUOUS
 62
     1
 10
130.17000141178
 20
91.0827209487558
 30
0.0
 11
130.17000141178
 21
107.970226001739
 31
0.0
  0
TEXT
  5
   4A6
  8
0
  6
CONTINUOUS
 62
     7
 10
103.784372303808
 20
13.00200849544
 30
0.0
 40
2.99999997871263
  1
Y
 50
359.999999948034
 41
0.91666663951344
 72
     1
 11
104.884372273017
 21
14.5020084838042
 31
0.0
 73
     2
  0
TEXT
  5
   4A7
  8
0
  6
CONTINUOUS
 62
     7
 10
168.377312929089
 20
73.4470355052006
 30
0.0
 40
2.99999997871263
  1
X
 50
359.999999948034
 41
0.91666663951344
 72
     1
 11
169.477312898298
 21
74.9470354935647
 31
0.0
 73
     2
  0
INSERT
  5
   4A8
  8
255
  6
CONTINUOUS
 62
     7
  2
MANIGLIA
 10
59.4391743688359
 20
41.9998923424253
 30
0.0
 41
0.349999994039536
 42
0.349999994039536
 50
3.50835464724173E-15
 43
0.349999994039536
  0
LINE
  5
   4A9
  8
0
  6
CONTINUOUS
 62
     7
 10
129.557451777672
 20
90.1202185187906
 30
0.0
 11
129.557451777672
 21
98.7827669506287
 31
0.0
  0
LINE
  5
   4AA
  8
0
  6
CONTINUOUS
 62
     1
 10
130.17000141178
 20
90.1202185187906
 30
0.0
 11
130.17000141178
 21
91.0827209487558
 31
0.0
  0
LINE
  5
   4AB
  8
0
  6
CONTINUOUS
 62
     1
 10
131.430001390323
 20
90.0636744620496
 30
0.0
 11
131.430001390323
 21
91.0827209487558
 31
0.0
  0
LINE
  5
   4AC
  8
0
  6
CONTINUOUS
 62
     1
 10
132.690001368865
 20
89.7864303433491
 30
0.0
 11
132.690001368865
 21
91.0827209487558
 31
0.0
  0
LINE
  5
   4AD
  8
0
  6
CONTINUOUS
 62
     1
 10
133.949998143062
 20
88.2511161905752
 30
0.0
 11
133.949998143062
 21
91.0827209487558
 31
0.0
  0
INSERT
  5
   4AE
  8
0
  6
CONTINUOUS
 62
     7
  2
*UDIM115
 10
0.0
 20
0.0
 30
0.0
  0
INSERT
  5
   4AF
  8
0
  6
CONTINUOUS
 62
     7
  2
*UDIM116
 10
0.0
 20
0.0
 30
0.0
  0
INSERT
  5
   4B0
  8
0
  6
CONTINUOUS
 62
     7
  2
*UDIM117
 10
0.0
 20
0.0
 30
0.0
  0
INSERT
  5
   4B1
  8
0
  6
CONTINUOUS
 62
     7
  2
*UDIM118
 10
0.0
 20
0.0
 30
0.0
  0
INSERT
  5
   4B2
  8
0
  6
CONTINUOUS
 62
     7
  2
*UDIM119
 10
0.0
 20
0.0
 30
0.0
  0
INSERT
  5
   4B3
  8
0
  6
CONTINUOUS
 62
     7
  2
*UDIM120
 10
0.0
 20
0.0
 30
0.0
  0
INSERT
  5
   4B4
  8
0
  6
CONTINUOUS
 62
     7
  2
*UDIM121
 10
0.0
 20
0.0
 30
0.0
  0
TEXT
  5
   4B5
  8
0
  6
CONTINUOUS
 62
     7
 10
54.8857263508352
 20
73.3463145005157
 30
0.0
 40
2.99999997871263
  1
X
 50
359.999999948034
 41
0.91666663951344
 72
     2
 11
57.0857262865473
 21
73.3463144985314
 31
0.0
  0
INSERT
  5
   4B6
  8
0
  6
CONTINUOUS
 62
     7
  2
*UDIM122
 10
0.0
 20
0.0
 30
0.0
  0
INSERT
  5
   4B7
  8
0
  6
CONTINUOUS
 62
     7
  2
*UDIM123
 10
0.0
 20
0.0
 30
0.0
  0
TEXT
  5
   4B8
  8
0
  6
CONTINUOUS
 62
     7
 10
103.7832655629
 20
169.287296448193
 30
0.0
 40
2.99999997871263
  1
Y
 50
359.999999948034
 41
0.91666663951344
 72
     2
 11
105.983265498612
 21
169.287296446209
 31
0.0
  0
INSERT
  5
   4B9
  8
0
  6
CONTINUOUS
 62
     7
  2
*UDIM124
 10
0.0
 20
0.0
 30
0.0
  0
LINE
  5
   4BA
  8
0
  6
CONTINUOUS
 62
     7
 10
236.660250136012
 20
69.1203597606794
 30
0.0
 11
236.660250136012
 21
73.3203636379161
 31
0.0
  0
LINE
  5
   4BB
  8
0
  6
CONTINUOUS
 62
   212
 10
236.660248800868
 20
50.2202677776431
 30
0.0
 11
236.660248800868
 21
99.2202669431781
 31
0.0
  0
LINE
  5
   4BC
  8
0
  6
CONTINUOUS
 62
   212
 10
236.660246133182
 20
93.7930453619451
 30
0.0
 11
239.113698840858
 21
93.7930079253706
 31
0.0
  0
LINE
  5
   4BD
  8
0
  6
CONTINUOUS
 62
   212
 10
236.66024747272
 20
75.493502677049
 30
0.0
 11
239.113324750834
 21
75.4935587862913
 31
0.0
  0
LINE
  5
   4BE
  8
0
  6
DASHDOT
 62
     7
 10
224.535535889104
 20
84.5202671935176
 30
0.0
 11
256.373442510563
 21
84.5202671935176
 31
0.0
  0
LINE
  5
   4BF
  8
0
  6
CONTINUOUS
 62
     3
 10
221.785261144593
 20
62.1204237868377
 30
0.0
 11
221.785261144593
 21
91.0827777628733
 31
0.0
  0
LINE
  5
   4C0
  8
0
  6
CONTINUOUS
 62
   212
 10
239.113324756375
 20
75.4938298030133
 30
0.0
 11
239.113698841513
 21
93.7930400060633
 31
0.0
  0
LINE
  5
   4C1
  8
0
  6
CONTINUOUS
 62
   253
 10
252.410260623053
 20
75.245234026291
 30
0.0
 11
252.410260623053
 21
81.0202672531223
 31
0.0
  0
LINE
  5
   4C2
  8
0
  6
CONTINUOUS
 62
   253
 10
246.98526071544
 20
81.3702686357274
 30
0.0
 11
246.98526071544
 21
83.1202686059251
 31
0.0
  0
LINE
  5
   4C3
  8
0
  6
CONTINUOUS
 62
   253
 10
246.98526071544
 20
98.8704071926823
 30
0.0
 11
251.622760636464
 21
98.8704071926823
 31
0.0
  0
LINE
  5
   4C4
  8
0
  6
CONTINUOUS
 62
   253
 10
246.98526071544
 20
62.1203971373789
 30
0.0
 11
251.622760636464
 21
62.1203971373789
 31
0.0
  0
LINE
  5
   4C5
  8
0
  6
CONTINUOUS
 62
   253
 10
252.060260629013
 20
62.5579078110805
 30
0.0
 11
252.060260629013
 21
81.0202672531223
 31
0.0
  0
LINE
  5
   4C6
  8
0
  6
CONTINUOUS
 62
   253
 10
246.98526071544
 20
62.1203971373789
 30
0.0
 11
246.98526071544
 21
81.3702686357274
 31
0.0
  0
LINE
  5
   4C7
  8
0
  6
CONTINUOUS
 62
   253
 10
246.98526071544
 20
84.5202311980507
 30
0.0
 11
246.98526071544
 21
98.8704071926823
 31
0.0
  0
LINE
  5
   4C8
  8
0
  6
CONTINUOUS
 62
   253
 10
246.98526071544
 20
83.1202686059251
 30
0.0
 11
246.98526071544
 21
84.5202338683387
 31
0.0
  0
LINE
  5
   4C9
  8
0
  6
CONTINUOUS
 62
   253
 10
251.932121121695
 20
62.2485509416924
 30
0.0
 11
252.060262908477
 21
62.5579104904753
 31
0.0
  0
LINE
  5
   4CA
  8
0
  6
CONTINUOUS
 62
   253
 10
251.870231773928
 20
62.222911904693
 30
0.0
 11
251.932118370957
 21
62.2485480059359
 31
0.0
  0
LINE
  5
   4CB
  8
0
  6
CONTINUOUS
 62
   253
 10
251.622760489379
 20
62.1203970542479
 30
0.0
 11
251.870149326272
 21
62.2228773721194
 31
0.0
  0
LINE
  5
   4CC
  8
0
  6
CONTINUOUS
 62
   253
 10
251.622762020814
 20
98.8704094596004
 30
0.0
 11
251.932120232869
 21
98.7422676748175
 31
0.0
  0
LINE
  5
   4CD
  8
0
  6
CONTINUOUS
 62
   253
 10
251.932119411167
 20
98.7422692978888
 30
0.0
 11
252.06026119595
 21
98.4329110858335
 31
0.0
  0
LINE
  5
   4CE
  8
0
  6
CONTINUOUS
 62
   130
 10
239.288476567107
 20
75.2452713997152
 30
0.0
 11
239.288521962003
 21
93.795305798077
 31
0.0
  0
LINE
  5
   4CF
  8
0
  6
CONTINUOUS
 62
   130
 10
239.813476558168
 20
75.2452740701345
 30
0.0
 11
239.813521953065
 21
93.7953004605191
 31
0.0
  0
LINE
  5
   4D0
  8
0
  6
CONTINUOUS
 62
   130
 10
240.163515999252
 20
91.5202405184246
 30
0.0
 11
244.014020388381
 21
91.520226856027
 31
0.0
  0
LINE
  5
   4D1
  8
0
  6
CONTINUOUS
 62
   130
 10
240.163482299338
 20
77.5202409636321
 30
0.0
 11
244.013850045476
 21
77.5202295787045
 31
0.0
  0
LINE
  5
   4D2
  8
0
  6
CONTINUOUS
 62
   130
 10
239.813970565052
 20
87.320295241058
 30
0.0
 11
244.363970487566
 21
87.3202364947205
 31
0.0
  0
LINE
  5
   4D3
  8
0
  6
CONTINUOUS
 62
   130
 10
239.813899802542
 20
81.7202953359587
 30
0.0
 11
244.363899725056
 21
81.7202365896212
 31
0.0
  0
LINE
  5
   4D4
  8
0
  6
CONTINUOUS
 62
   130
 10
239.813899800074
 20
81.7202953387089
 30
0.0
 11
239.813970562707
 21
87.3202952433143
 31
0.0
  0
LINE
  5
   4D5
  8
0
  6
CONTINUOUS
 62
   130
 10
244.363851073495
 20
77.8702251494236
 30
0.0
 11
244.364019134717
 21
91.1702224383601
 31
0.0
  0
LINE
  5
   4D6
  8
0
  6
CONTINUOUS
 62
   253
 10
252.060260629013
 20
75.245234026291
 30
0.0
 11
252.410260623053
 21
75.245234026291
 31
0.0
  0
LINE
  5
   4D7
  8
0
  6
CONTINUOUS
 62
   253
 10
252.060260629013
 20
93.7952310400984
 30
0.0
 11
252.410260623053
 21
93.7952310400984
 31
0.0
  0
LINE
  5
   4D8
  8
0
  6
CONTINUOUS
 62
   130
 10
239.113496597201
 20
79.4453033822545
 30
0.0
 11
239.288496594221
 21
79.4453033822545
 31
0.0
  0
LINE
  5
   4D9
  8
0
  6
CONTINUOUS
 62
   130
 10
239.113521964937
 20
89.5952738362326
 30
0.0
 11
239.288521961957
 21
89.5952738362326
 31
0.0
  0
LINE
  5
   4DA
  8
0
  6
CONTINUOUS
 62
   130
 10
239.2884765666
 20
75.2452714107536
 30
0.0
 11
239.81347655766
 21
75.2452740810418
 31
0.0
  0
LINE
  5
   4DB
  8
0
  6
CONTINUOUS
 62
   130
 10
239.288521962841
 20
93.7953058108434
 30
0.0
 11
239.8135219539
 21
93.7953004702671
 31
0.0
  0
ARC
  5
   4DC
  8
0
  6
CONTINUOUS
 62
     7
 10
244.014019140706
 20
91.1702268619896
 30
0.0
 40
0.349999994039536
 50
359.999275999948
 51
450.0
  0
ARC
  5
   4DD
  8
0
  6
CONTINUOUS
 62
     7
 10
244.013851079483
 20
77.8702295727425
 30
0.0
 40
0.349999994039536
 50
269.999830585454
 51
359.999275999948
  0
ARC
  5
   4DE
  8
0
  6
CONTINUOUS
 62
     7
 10
240.163517236174
 20
91.8702405124619
 30
0.0
 40
0.349999994039536
 50
179.999859788015
 51
269.99979670255
  0
ARC
  5
   4DF
  8
0
  6
CONTINUOUS
 62
     7
 10
240.163481262912
 20
77.1702409695941
 30
0.0
 40
0.349999994039536
 50
90.0
 51
179.999859788015
  0
LINE
  5
   4E0
  8
0
  6
CONTINUOUS
 62
     7
 10
246.285260727361
 20
58.1526036408139
 30
0.0
 11
246.285260727361
 21
114.911920223963
 31
0.0
  0
LINE
  5
   4E1
  8
0
  6
CONTINUOUS
 62
     7
 10
246.98526071544
 20
98.867917935186
 30
0.0
 11
246.98526071544
 21
114.911920223963
 31
0.0
  0
LINE
  5
   4E2
  8
0
  6
CONTINUOUS
 62
   170
 10
245.235260745242
 20
79.7926022769345
 30
0.0
 11
245.235260745242
 21
89.2426061217086
 31
0.0
  0
LINE
  5
   4E3
  8
0
  6
CONTINUOUS
 62
   170
 10
245.76025673087
 20
89.7675981019505
 30
0.0
 11
246.285260727361
 21
89.7675940964884
 31
0.0
  0
LINE
  5
   4E4
  8
0
  6
CONTINUOUS
 62
   170
 10
245.760268747241
 20
79.2675982803672
 30
0.0
 11
246.285260727361
 21
79.2675942749967
 31
0.0
  0
LINE
  5
   4E5
  8
0
  6
CONTINUOUS
 62
   170
 10
245.235260745242
 20
89.2426021162771
 30
0.0
 11
246.285260727361
 21
89.2425941054139
 31
0.0
  0
LINE
  5
   4E6
  8
0
  6
CONTINUOUS
 62
   170
 10
245.235260745242
 20
79.7926022769345
 30
0.0
 11
246.285260727361
 21
79.7925942660713
 31
0.0
  0
LINE
  5
   4E7
  8
0
  6
CONTINUOUS
 62
   170
 10
245.235260745242
 20
89.2426061217085
 30
0.0
 11
245.760264741733
 21
89.7676061127526
 31
0.0
  0
LINE
  5
   4E8
  8
0
  6
CONTINUOUS
 62
   170
 10
245.235260745242
 20
79.7926062823661
 30
0.0
 11
245.760260736302
 21
79.2676062913068
 31
0.0
  0
LINE
  5
   4E9
  8
0
  6
CONTINUOUS
 62
     7
 10
244.538334311955
 20
86.2676154948437
 30
0.0
 11
245.235260745242
 21
86.2676101777176
 31
0.0
  0
LINE
  5
   4EA
  8
0
  6
CONTINUOUS
 62
     7
 10
244.538290085676
 20
82.7676155546839
 30
0.0
 11
245.235260745242
 21
82.7676102372203
 31
0.0
  0
LINE
  5
   4EB
  8
0
  6
DASHDOT
 62
     7
 10
242.085883669689
 20
76.0551628301111
 30
0.0
 11
242.085883669689
 21
93.7926501041023
 31
0.0
  0
LINE
  5
   4EC
  8
0
  6
CONTINUOUS
 62
     7
 10
242.960883654788
 20
92.9202388406662
 30
0.0
 11
242.960883654788
 21
95.0176260506869
 31
0.0
  0
LINE
  5
   4ED
  8
0
  6
CONTINUOUS
 62
     7
 10
241.210883684591
 20
92.9202521921049
 30
0.0
 11
241.210883684591
 21
95.0176394021255
 31
0.0
  0
LINE
  5
   4EE
  8
0
  6
CONTINUOUS
 62
     7
 10
241.210883685025
 20
95.0176394021255
 30
0.0
 11
242.960883655166
 21
95.0176260506869
 31
0.0
  0
LINE
  5
   4EF
  8
0
  6
CONTINUOUS
 62
     7
 10
242.960798126528
 20
74.0176264053639
 30
0.0
 11
242.960830209507
 21
76.1202167825438
 31
0.0
  0
LINE
  5
   4F0
  8
0
  6
CONTINUOUS
 62
     7
 10
241.210792894096
 20
74.0176397598349
 30
0.0
 11
242.960798126656
 21
74.0176264083561
 31
0.0
  0
LINE
  5
   4F1
  8
0
  6
CONTINUOUS
 62
     7
 10
241.21079815633
 20
74.017639756812
 30
0.0
 11
241.21083023931
 21
76.1202301346438
 31
0.0
  0
LINE
  5
   4F2
  8
0
  6
CONTINUOUS
 62
   132
 10
240.796135693719
 20
92.9202553563805
 30
0.0
 11
243.375635649876
 21
92.92023567636
 31
0.0
  0
LINE
  5
   4F3
  8
0
  6
CONTINUOUS
 62
   132
 10
240.533633696124
 20
91.7827573795107
 30
0.0
 11
240.533633696124
 21
92.6577553609937
 31
0.0
  0
LINE
  5
   4F4
  8
0
  6
CONTINUOUS
 62
   132
 10
243.638133643255
 20
91.7827376984519
 30
0.0
 11
243.638133643255
 21
92.6577356809736
 31
0.0
  0
LINE
  5
   4F5
  8
0
  6
CONTINUOUS
 62
   132
 10
241.058633687183
 20
91.7827573795107
 30
0.0
 11
241.058633687183
 21
92.6577553609937
 31
0.0
  0
LINE
  5
   4F6
  8
0
  6
CONTINUOUS
 62
   132
 10
243.113133652195
 20
91.7827336929901
 30
0.0
 11
243.113133652195
 21
92.6577376835538
 31
0.0
  0
LINE
  5
   4F7
  8
0
  6
CONTINUOUS
 62
   132
 10
240.970510817871
 20
91.5202336974606
 30
0.0
 11
243.550010773942
 21
91.5202336974606
 31
0.0
  0
ARC
  5
   4F8
  8
0
  6
CONTINUOUS
 62
   132
 10
240.796133691654
 20
91.7827573795107
 30
0.0
 40
0.262499996598291
 50
180.00517004828
 51
360.0
  0
ARC
  5
   4F9
  8
0
  6
CONTINUOUS
 62
   132
 10
242.085883669689
 20
93.6614694943289
 30
0.0
 40
2.14123579686827
 50
241.331165258311
 51
298.668834741688
  0
ARC
  5
   4FA
  8
0
  6
CONTINUOUS
 62
   132
 10
243.375633647725
 20
91.7827376984519
 30
0.0
 40
0.262499995560248
 50
180.0
 51
359.999125729333
  0
ARC
  5
   4FB
  8
0
  6
CONTINUOUS
 62
   132
 10
243.375633647725
 20
92.6577356809736
 30
0.0
 40
0.26249999553726
 50
359.999562838353
 51
540.0
  0
ARC
  5
   4FC
  8
0
  6
CONTINUOUS
 62
   132
 10
242.085869336074
 20
90.7790097194543
 30
0.0
 40
2.14123579697912
 50
61.3307281269688
 51
118.668397608924
  0
ARC
  5
   4FD
  8
0
  6
CONTINUOUS
 62
   132
 10
240.796133691653
 20
92.6577553609937
 30
0.0
 40
0.262499995537491
 50
0.0
 51
179.999562897457
  0
LINE
  5
   4FE
  8
0
  6
CONTINUOUS
 62
   132
 10
240.796044904453
 20
76.1202333016881
 30
0.0
 11
243.375544860693
 21
76.1202136216675
 31
0.0
  0
ARC
  5
   4FF
  8
0
  6
CONTINUOUS
 62
   132
 10
242.085811218953
 20
78.2614592585938
 30
0.0
 40
2.14123579697912
 50
241.330728126966
 51
298.668397608922
  0
ARC
  5
   500
  8
0
  6
CONTINUOUS
 62
   132
 10
243.375546863374
 20
76.382713617054
 30
0.0
 40
0.26249999553726
 50
179.99912573589
 51
359.999562897537
  0
LINE
  5
   501
  8
0
  6
CONTINUOUS
 62
   132
 10
243.113046867844
 20
76.3827156154592
 30
0.0
 11
243.113060219344
 21
77.2577196059261
 31
0.0
  0
LINE
  5
   502
  8
0
  6
CONTINUOUS
 62
   132
 10
241.058546902802
 20
76.3827292886469
 30
0.0
 11
241.05856025421
 21
77.2577272696612
 31
0.0
  0
LINE
  5
   503
  8
0
  6
CONTINUOUS
 62
   132
 10
240.533546911804
 20
76.3827372995139
 30
0.0
 11
240.533560263212
 21
77.2577352805281
 31
0.0
  0
LINE
  5
   504
  8
0
  6
CONTINUOUS
 62
   132
 10
243.638046858873
 20
76.3827096073084
 30
0.0
 11
243.638060210281
 21
77.2577075896266
 31
0.0
  0
ARC
  5
   505
  8
0
  6
CONTINUOUS
 62
   132
 10
243.375560214782
 20
77.2577115994738
 30
0.0
 40
0.262499995560248
 50
6.5571192756364E-9
 51
179.99912573589
  0
LINE
  5
   506
  8
0
  6
CONTINUOUS
 62
   132
 10
240.970441392531
 20
77.5202549604756
 30
0.0
 11
243.54994134858
 21
77.5202156004346
 31
0.0
  0
ARC
  5
   507
  8
0
  6
CONTINUOUS
 62
   132
 10
240.796060258711
 20
77.257731278456
 30
0.0
 40
0.262499996598291
 50
359.99912573589
 51
539.99395568761
  0
ARC
  5
   508
  8
0
  6
CONTINUOUS
 62
   132
 10
242.085781569728
 20
75.3789994838361
 30
0.0
 40
2.14123579686827
 50
61.3302909942027
 51
118.667960477579
  0
ARC
  5
   509
  8
0
  6
CONTINUOUS
 62
   132
 10
240.796046907302
 20
76.3827332970749
 30
0.0
 40
0.262499995537491
 50
179.999562838433
 51
359.99912573589
  0
ARC
  5
   50A
  8
0
  6
CONTINUOUS
 62
     7
 10
247.33526070948
 20
92.5702670564269
 30
0.0
 40
2.02999996542931
 50
184.945429717883
 51
220.282118355986
  0
LINE
  5
   50B
  8
0
  6
CONTINUOUS
 62
     7
 10
245.312817914074
 20
92.3952670594072
 30
0.0
 11
245.65526073809
 21
92.3952670594072
 31
0.0
  0
LINE
  5
   50C
  8
0
  6
CONTINUOUS
 62
     7
 10
245.312817914074
 20
92.7452670534467
 30
0.0
 11
245.65526073809
 21
92.7452670534467
 31
0.0
  0
ARC
  5
   50D
  8
0
  6
CONTINUOUS
 62
     7
 10
247.33526070948
 20
92.5702670564269
 30
0.0
 40
2.02999996542931
 50
139.717881644014
 51
175.054570282117
  0
LINE
  5
   50E
  8
0
  6
CONTINUOUS
 62
     7
 10
245.786634328355
 20
93.8827670340752
 30
0.0
 11
246.285260727361
 21
93.8827670340752
 31
0.0
  0
LINE
  5
   50F
  8
0
  6
CONTINUOUS
 62
     7
 10
245.786634328355
 20
91.2577670787787
 30
0.0
 11
246.285260727361
 21
91.2577670787787
 31
0.0
  0
LINE
  5
   510
  8
0
  6
CONTINUOUS
 62
     7
 10
245.65526073809
 20
92.3952670594072
 30
0.0
 11
245.65526073809
 21
92.7452670534467
 31
0.0
  0
LINE
  5
   511
  8
0
  6
DASHDOT
 62
     7
 10
245.069033515476
 20
92.5702670564269
 30
0.0
 11
250.954575971474
 21
92.5702670564269
 31
0.0
  0
LINE
  5
   512
  8
0
  6
CONTINUOUS
 62
     7
 10
244.553572988822
 20
114.911920223963
 30
0.0
 11
249.086851626043
 21
114.911920223963
 31
0.0
  0
LINE
  5
   513
  8
0
  6
CONTINUOUS
 62
     7
 10
244.553572988822
 20
58.1526036408139
 30
0.0
 11
247.931310012633
 21
58.1526036408139
 31
0.0
  0
LINE
  5
   514
  8
0
  6
CONTINUOUS
 62
     7
 10
246.98526071544
 20
58.1526036408139
 30
0.0
 11
246.98526071544
 21
62.1203971373789
 31
0.0
  0
LINE
  5
   515
  8
0
  6
CONTINUOUS
 62
     7
 10
253.635260602191
 20
83.470267211399
 30
0.0
 11
253.635260602191
 21
85.5702671756362
 31
0.0
  0
LINE
  5
   516
  8
0
  6
CONTINUOUS
 62
     7
 10
246.98526071544
 20
86.2702671637153
 30
0.0
 11
252.935260614112
 21
86.2702671637153
 31
0.0
  0
LINE
  5
   517
  8
0
  6
CONTINUOUS
 62
     7
 10
246.98526071544
 20
82.7702672233199
 30
0.0
 11
252.935260614112
 21
82.7702672233199
 31
0.0
  0
LINE
  5
   518
  8
0
  6
CONTINUOUS
 62
     7
 10
252.935260614112
 20
86.2702671637154
 30
0.0
 11
253.635260602191
 21
85.5702671756363
 31
0.0
  0
LINE
  5
   519
  8
0
  6
CONTINUOUS
 62
     7
 10
252.935260614112
 20
82.7702672233199
 30
0.0
 11
253.635260602191
 21
83.470267211399
 31
0.0
  0
CIRCLE
  5
   51A
  8
0
  6
CONTINUOUS
 62
     7
 10
251.535260637954
 20
84.5202671935176
 30
0.0
 40
0.962499983608723
  0
LINE
  5
   51B
  8
0
  6
DASHDOT
 62
     7
 10
251.535260637954
 20
83.2077672158694
 30
0.0
 11
251.535260637954
 21
85.8327671711659
 31
0.0
  0
LINE
  5
   51C
  8
0
  6
CONTINUOUS
 62
     7
 10
246.98526071544
 20
88.020267133913
 30
0.0
 11
255.385260572389
 21
88.020267133913
 31
0.0
  0
LINE
  5
   51D
  8
0
  6
CONTINUOUS
 62
     7
 10
246.98526071544
 20
81.0202672531223
 30
0.0
 11
255.385260572389
 21
81.0202672531223
 31
0.0
  0
LINE
  5
   51E
  8
0
  6
CONTINUOUS
 62
     7
 10
255.385260572389
 20
81.0202672531223
 30
0.0
 11
255.385260572389
 21
88.020267133913
 31
0.0
  0
LINE
  5
   51F
  8
0
  6
CONTINUOUS
 62
   253
 10
252.060260629013
 20
88.020267133913
 30
0.0
 11
252.060260629013
 21
98.4329072001329
 31
0.0
  0
LINE
  5
   520
  8
0
  6
CONTINUOUS
 62
   253
 10
252.410260623053
 20
88.020267133913
 30
0.0
 11
252.410260623053
 21
93.7952310400984
 31
0.0
  0
LINE
  5
   521
  8
0
  6
CONTINUOUS
 62
     7
 10
245.786634328355
 20
77.7827673082566
 30
0.0
 11
246.285260727361
 21
77.7827673082566
 31
0.0
  0
ARC
  5
   522
  8
0
  6
CONTINUOUS
 62
     7
 10
247.33526070948
 20
76.4702673306083
 30
0.0
 40
2.02999996542931
 50
139.717881644014
 51
175.054570282117
  0
LINE
  5
   523
  8
0
  6
CONTINUOUS
 62
     7
 10
245.312817914074
 20
76.6452673276281
 30
0.0
 11
245.65526073809
 21
76.6452673276281
 31
0.0
  0
LINE
  5
   524
  8
0
  6
CONTINUOUS
 62
     7
 10
245.65526073809
 20
76.2952673335885
 30
0.0
 11
245.65526073809
 21
76.6452673276281
 31
0.0
  0
LINE
  5
   525
  8
0
  6
CONTINUOUS
 62
     7
 10
245.312817914074
 20
76.2952673335885
 30
0.0
 11
245.65526073809
 21
76.2952673335885
 31
0.0
  0
ARC
  5
   526
  8
0
  6
CONTINUOUS
 62
     7
 10
247.33526070948
 20
76.4702673306083
 30
0.0
 40
2.02999996542931
 50
184.945429717883
 51
220.282118355986
  0
LINE
  5
   527
  8
0
  6
CONTINUOUS
 62
     7
 10
245.786634328355
 20
75.15776735296
 30
0.0
 11
246.285260727361
 21
75.15776735296
 31
0.0
  0
LINE
  5
   528
  8
0
  6
DASHDOT
 62
     7
 10
245.069033515476
 20
76.4702673306083
 30
0.0
 11
250.954575971474
 21
76.4702673306083
 31
0.0
  0
LINE
  5
   529
  8
0
  6
DOT
 62
     2
 10
229.837904446631
 20
82.7702672233199
 30
0.0
 11
229.837904446631
 21
86.2702671637153
 31
0.0
  0
LINE
  5
   52A
  8
0
  6
DOT
 62
     2
 10
229.837904446631
 20
86.2702671637153
 30
0.0
 11
244.538334344194
 21
86.2702671637153
 31
0.0
  0
LINE
  5
   52B
  8
0
  6
DOT
 62
     2
 10
229.837904446631
 20
82.7702672233199
 30
0.0
 11
244.538334344194
 21
82.7702672233199
 31
0.0
  0
LINE
  5
   52C
  8
0
  6
CONTINUOUS
 62
     7
 10
221.085261156514
 20
99.2202669431781
 30
0.0
 11
236.660248800868
 21
99.2202669431781
 31
0.0
  0
LINE
  5
   52D
  8
0
  6
CONTINUOUS
 62
     7
 10
221.085261156514
 20
50.2202677776431
 30
0.0
 11
236.660248800868
 21
50.2202677776431
 31
0.0
  0
LINE
  5
   52E
  8
0
  6
CONTINUOUS
 62
     7
 10
236.660250136012
 20
69.1203597606794
 30
0.0
 11
236.660250136012
 21
73.3203636379161
 31
0.0
  0
LINE
  5
   52F
  8
0
  6
CONTINUOUS
 62
   212
 10
236.660248800868
 20
50.2202677776431
 30
0.0
 11
236.660248800868
 21
99.2202669431781
 31
0.0
  0
LINE
  5
   530
  8
0
  6
CONTINUOUS
 62
   212
 10
236.660246133182
 20
93.7930453619451
 30
0.0
 11
239.113698840858
 21
93.7930079253706
 31
0.0
  0
LINE
  5
   531
  8
0
  6
CONTINUOUS
 62
   212
 10
236.66024747272
 20
75.4935026770491
 30
0.0
 11
239.113324750834
 21
75.4935587862913
 31
0.0
  0
LINE
  5
   532
  8
0
  6
DASHDOT
 62
     7
 10
224.535535889104
 20
84.5202671935176
 30
0.0
 11
256.373442510563
 21
84.5202671935176
 31
0.0
  0
LINE
  5
   533
  8
0
  6
CONTINUOUS
 62
     3
 10
221.785261144593
 20
62.1204237868377
 30
0.0
 11
221.785261144593
 21
91.0827777628733
 31
0.0
  0
LINE
  5
   534
  8
0
  6
DASHED
 62
     2
 10
269.035260339931
 20
52.6702677359199
 30
0.0
 11
269.035260339931
 21
92.3952670594072
 31
0.0
  0
LINE
  5
   535
  8
0
  6
CONTINUOUS
 62
   212
 10
239.113324756375
 20
75.4938298020401
 30
0.0
 11
239.113698841513
 21
93.7930400050901
 31
0.0
  0
LINE
  5
   536
  8
0
  6
CONTINUOUS
 62
   253
 10
252.410260623053
 20
75.245234026291
 30
0.0
 11
252.410260623053
 21
81.0202672531223
 31
0.0
  0
LINE
  5
   537
  8
0
  6
CONTINUOUS
 62
   253
 10
246.98526071544
 20
81.3702686357274
 30
0.0
 11
246.98526071544
 21
83.1202686059251
 31
0.0
  0
LINE
  5
   538
  8
0
  6
CONTINUOUS
 62
   253
 10
246.98526071544
 20
62.1203971373789
 30
0.0
 11
246.98526071544
 21
81.3702686357274
 31
0.0
  0
LINE
  5
   539
  8
0
  6
CONTINUOUS
 62
   253
 10
246.98526071544
 20
84.5202311980507
 30
0.0
 11
246.98526071544
 21
98.8704071926823
 31
0.0
  0
LINE
  5
   53A
  8
0
  6
CONTINUOUS
 62
   253
 10
246.98526071544
 20
83.1202686059251
 30
0.0
 11
246.98526071544
 21
84.5202338683387
 31
0.0
  0
LINE
  5
   53B
  8
0
  6
CONTINUOUS
 62
   253
 10
251.932121121695
 20
62.2485509416923
 30
0.0
 11
252.060262908477
 21
62.5579104904752
 31
0.0
  0
LINE
  5
   53C
  8
0
  6
CONTINUOUS
 62
   253
 10
251.870231773928
 20
62.222911904693
 30
0.0
 11
251.932118370957
 21
62.2485480059359
 31
0.0
  0
LINE
  5
   53D
  8
0
  6
CONTINUOUS
 62
   253
 10
251.622760489379
 20
62.1203970542479
 30
0.0
 11
251.870149326272
 21
62.2228773721194
 31
0.0
  0
LINE
  5
   53E
  8
0
  6
CONTINUOUS
 62
   253
 10
251.622762020814
 20
98.8704094596005
 30
0.0
 11
251.932120232869
 21
98.7422676748175
 31
0.0
  0
LINE
  5
   53F
  8
0
  6
CONTINUOUS
 62
   253
 10
251.932119411167
 20
98.7422692978889
 30
0.0
 11
252.06026119595
 21
98.4329110858336
 31
0.0
  0
LINE
  5
   540
  8
0
  6
CONTINUOUS
 62
   130
 10
239.288476567107
 20
75.2452713915853
 30
0.0
 11
239.288521962003
 21
93.7953057899471
 31
0.0
  0
LINE
  5
   541
  8
0
  6
CONTINUOUS
 62
   130
 10
239.813476558168
 20
75.2452740620046
 30
0.0
 11
239.813521953065
 21
93.7953004523891
 31
0.0
  0
LINE
  5
   542
  8
0
  6
CONTINUOUS
 62
   130
 10
240.163515999252
 20
91.5202405184246
 30
0.0
 11
244.014020388381
 21
91.520226856027
 31
0.0
  0
LINE
  5
   543
  8
0
  6
CONTINUOUS
 62
   130
 10
240.163482299338
 20
77.5202409636321
 30
0.0
 11
244.013850045476
 21
77.5202295787045
 31
0.0
  0
LINE
  5
   544
  8
0
  6
CONTINUOUS
 62
   130
 10
239.813970565052
 20
87.3202952410581
 30
0.0
 11
244.363970487566
 21
87.3202364947205
 31
0.0
  0
LINE
  5
   545
  8
0
  6
CONTINUOUS
 62
   130
 10
239.813899802542
 20
81.7202953359587
 30
0.0
 11
244.363899725056
 21
81.7202365896212
 31
0.0
  0
LINE
  5
   546
  8
0
  6
CONTINUOUS
 62
   130
 10
239.813899800074
 20
81.7202953387089
 30
0.0
 11
239.813970562707
 21
87.3202952433143
 31
0.0
  0
LINE
  5
   547
  8
0
  6
CONTINUOUS
 62
   130
 10
244.363851073495
 20
77.8702251494236
 30
0.0
 11
244.364019134717
 21
91.1702224383601
 31
0.0
  0
LINE
  5
   548
  8
0
  6
CONTINUOUS
 62
   253
 10
252.060260629013
 20
75.245234026291
 30
0.0
 11
252.410260623053
 21
75.245234026291
 31
0.0
  0
LINE
  5
   549
  8
0
  6
CONTINUOUS
 62
   253
 10
252.060260629013
 20
93.7952310400984
 30
0.0
 11
252.410260623053
 21
93.7952310400984
 31
0.0
  0
LINE
  5
   54A
  8
0
  6
CONTINUOUS
 62
   130
 10
239.113496597201
 20
79.4453033822545
 30
0.0
 11
239.288496594221
 21
79.4453033822545
 31
0.0
  0
LINE
  5
   54B
  8
0
  6
CONTINUOUS
 62
   130
 10
239.113521964937
 20
89.5952738362326
 30
0.0
 11
239.288521961957
 21
89.5952738362326
 31
0.0
  0
LINE
  5
   54C
  8
0
  6
CONTINUOUS
 62
   130
 10
239.2884765666
 20
75.2452714107536
 30
0.0
 11
239.81347655766
 21
75.2452740810418
 31
0.0
  0
LINE
  5
   54D
  8
0
  6
CONTINUOUS
 62
   130
 10
239.288521962841
 20
93.7953058108434
 30
0.0
 11
239.8135219539
 21
93.7953004702671
 31
0.0
  0
ARC
  5
   54E
  8
0
  6
CONTINUOUS
 62
     7
 10
244.014019140706
 20
91.1702268619896
 30
0.0
 40
0.349999994039536
 50
359.999275999948
 51
450.0
  0
ARC
  5
   54F
  8
0
  6
CONTINUOUS
 62
     7
 10
244.013851079483
 20
77.8702295727425
 30
0.0
 40
0.349999994039536
 50
269.999830585454
 51
359.999275999948
  0
ARC
  5
   550
  8
0
  6
CONTINUOUS
 62
     7
 10
240.163517236174
 20
91.8702405124619
 30
0.0
 40
0.349999994039536
 50
179.999859788015
 51
269.99979670255
  0
ARC
  5
   551
  8
0
  6
CONTINUOUS
 62
     7
 10
240.163481262912
 20
77.1702409695941
 30
0.0
 40
0.349999994039536
 50
90.0
 51
179.999859788015
  0
LINE
  5
   552
  8
0
  6
CONTINUOUS
 62
     7
 10
246.285260727361
 20
58.1526036408139
 30
0.0
 11
246.285260727361
 21
114.911920223963
 31
0.0
  0
LINE
  5
   553
  8
0
  6
CONTINUOUS
 62
     7
 10
246.98526071544
 20
98.867917935186
 30
0.0
 11
246.98526071544
 21
114.911920223963
 31
0.0
  0
LINE
  5
   554
  8
0
  6
CONTINUOUS
 62
   170
 10
245.235260745242
 20
79.7926022769345
 30
0.0
 11
245.235260745242
 21
89.2426061217086
 31
0.0
  0
LINE
  5
   555
  8
0
  6
CONTINUOUS
 62
   170
 10
245.76025673087
 20
89.7675981019505
 30
0.0
 11
246.285260727361
 21
89.7675940964884
 31
0.0
  0
LINE
  5
   556
  8
0
  6
CONTINUOUS
 62
   170
 10
245.760268747241
 20
79.2675982803672
 30
0.0
 11
246.285260727361
 21
79.2675942749967
 31
0.0
  0
LINE
  5
   557
  8
0
  6
CONTINUOUS
 62
   170
 10
245.235260745242
 20
89.2426021162771
 30
0.0
 11
246.285260727361
 21
89.2425941054139
 31
0.0
  0
LINE
  5
   558
  8
0
  6
CONTINUOUS
 62
   170
 10
245.235260745242
 20
79.7926022769345
 30
0.0
 11
246.285260727361
 21
79.7925942660713
 31
0.0
  0
LINE
  5
   559
  8
0
  6
CONTINUOUS
 62
   170
 10
245.235260745242
 20
89.2426061217085
 30
0.0
 11
245.760264741733
 21
89.7676061127526
 31
0.0
  0
LINE
  5
   55A
  8
0
  6
CONTINUOUS
 62
   170
 10
245.235260745242
 20
79.7926062823661
 30
0.0
 11
245.760260736302
 21
79.2676062913068
 31
0.0
  0
LINE
  5
   55B
  8
0
  6
CONTINUOUS
 62
     7
 10
244.538334311955
 20
86.2676154948437
 30
0.0
 11
245.235260745242
 21
86.2676101777176
 31
0.0
  0
LINE
  5
   55C
  8
0
  6
CONTINUOUS
 62
     7
 10
244.538290085676
 20
82.7676155546839
 30
0.0
 11
245.235260745242
 21
82.7676102372204
 31
0.0
  0
LINE
  5
   55D
  8
0
  6
DASHDOT
 62
     7
 10
242.085883669689
 20
76.0551628301111
 30
0.0
 11
242.085883669689
 21
93.7926501041023
 31
0.0
  0
LINE
  5
   55E
  8
0
  6
CONTINUOUS
 62
     7
 10
242.960883654788
 20
92.9202388406662
 30
0.0
 11
242.960883654788
 21
95.0176260506869
 31
0.0
  0
LINE
  5
   55F
  8
0
  6
CONTINUOUS
 62
     7
 10
241.210883684591
 20
92.9202521921049
 30
0.0
 11
241.210883684591
 21
95.0176394021255
 31
0.0
  0
LINE
  5
   560
  8
0
  6
CONTINUOUS
 62
     7
 10
241.210883685025
 20
95.0176394021255
 30
0.0
 11
242.960883655166
 21
95.0176260506869
 31
0.0
  0
LINE
  5
   561
  8
0
  6
CONTINUOUS
 62
     7
 10
242.960798126528
 20
74.01762640406
 30
0.0
 11
242.960830209507
 21
76.1202167812399
 31
0.0
  0
LINE
  5
   562
  8
0
  6
CONTINUOUS
 62
     7
 10
241.210792894096
 20
74.0176397598348
 30
0.0
 11
242.960798126656
 21
74.0176264083561
 31
0.0
  0
LINE
  5
   563
  8
0
  6
CONTINUOUS
 62
     7
 10
241.21079815633
 20
74.0176397555082
 30
0.0
 11
241.21083023931
 21
76.12023013334
 31
0.0
  0
LINE
  5
   564
  8
0
  6
CONTINUOUS
 62
   132
 10
240.796135693719
 20
92.9202553563805
 30
0.0
 11
243.375635649876
 21
92.92023567636
 31
0.0
  0
LINE
  5
   565
  8
0
  6
CONTINUOUS
 62
   132
 10
240.533633696124
 20
91.7827573795107
 30
0.0
 11
240.533633696124
 21
92.6577553609937
 31
0.0
  0
LINE
  5
   566
  8
0
  6
CONTINUOUS
 62
   132
 10
243.638133643255
 20
91.7827376984519
 30
0.0
 11
243.638133643255
 21
92.6577356809736
 31
0.0
  0
LINE
  5
   567
  8
0
  6
CONTINUOUS
 62
   132
 10
241.058633687183
 20
91.7827573795107
 30
0.0
 11
241.058633687183
 21
92.6577553609937
 31
0.0
  0
LINE
  5
   568
  8
0
  6
CONTINUOUS
 62
   132
 10
243.113133652195
 20
91.7827336929901
 30
0.0
 11
243.113133652195
 21
92.6577376835538
 31
0.0
  0
LINE
  5
   569
  8
0
  6
CONTINUOUS
 62
   132
 10
240.970510817871
 20
91.5202336974606
 30
0.0
 11
243.550010773942
 21
91.5202336974606
 31
0.0
  0
ARC
  5
   56A
  8
0
  6
CONTINUOUS
 62
   132
 10
240.796133691654
 20
91.7827573795107
 30
0.0
 40
0.262499996598291
 50
180.00517004828
 51
360.0
  0
ARC
  5
   56B
  8
0
  6
CONTINUOUS
 62
   132
 10
242.085883669689
 20
93.6614694943289
 30
0.0
 40
2.14123579686827
 50
241.331165258311
 51
298.668834741688
  0
ARC
  5
   56C
  8
0
  6
CONTINUOUS
 62
   132
 10
243.375633647725
 20
91.7827376984519
 30
0.0
 40
0.262499995560248
 50
180.0
 51
359.999125729333
  0
ARC
  5
   56D
  8
0
  6
CONTINUOUS
 62
   132
 10
243.375633647725
 20
92.6577356809736
 30
0.0
 40
0.26249999553726
 50
359.999562838353
 51
540.0
  0
ARC
  5
   56E
  8
0
  6
CONTINUOUS
 62
   132
 10
242.085869336074
 20
90.7790097194543
 30
0.0
 40
2.14123579697912
 50
61.3307281269688
 51
118.668397608924
  0
ARC
  5
   56F
  8
0
  6
CONTINUOUS
 62
   132
 10
240.796133691653
 20
92.6577553609937
 30
0.0
 40
0.262499995537491
 50
0.0
 51
179.999562897457
  0
LINE
  5
   570
  8
0
  6
CONTINUOUS
 62
   132
 10
240.796044904453
 20
76.120233301688
 30
0.0
 11
243.375544860693
 21
76.1202136216675
 31
0.0
  0
ARC
  5
   571
  8
0
  6
CONTINUOUS
 62
   132
 10
242.085811218953
 20
78.2614592585938
 30
0.0
 40
2.14123579697912
 50
241.330728126966
 51
298.668397608922
  0
ARC
  5
   572
  8
0
  6
CONTINUOUS
 62
   132
 10
243.375546863374
 20
76.382713617054
 30
0.0
 40
0.26249999553726
 50
179.99912573589
 51
359.999562897537
  0
LINE
  5
   573
  8
0
  6
CONTINUOUS
 62
   132
 10
243.113046867844
 20
76.3827156128514
 30
0.0
 11
243.113060219344
 21
77.2577196033184
 31
0.0
  0
LINE
  5
   574
  8
0
  6
CONTINUOUS
 62
   132
 10
241.058546902802
 20
76.382729287343
 30
0.0
 11
241.05856025421
 21
77.2577272683573
 31
0.0
  0
LINE
  5
   575
  8
0
  6
CONTINUOUS
 62
   132
 10
240.533546911804
 20
76.38273729821
 30
0.0
 11
240.533560263212
 21
77.2577352792243
 31
0.0
  0
LINE
  5
   576
  8
0
  6
CONTINUOUS
 62
   132
 10
243.638046858873
 20
76.3827096047007
 30
0.0
 11
243.638060210281
 21
77.2577075870189
 31
0.0
  0
ARC
  5
   577
  8
0
  6
CONTINUOUS
 62
   132
 10
243.375560214782
 20
77.2577115994738
 30
0.0
 40
0.262499995560248
 50
6.5571192756364E-9
 51
179.99912573589
  0
LINE
  5
   578
  8
0
  6
CONTINUOUS
 62
   132
 10
240.970441392531
 20
77.5202549604756
 30
0.0
 11
243.54994134858
 21
77.5202156004346
 31
0.0
  0
ARC
  5
   579
  8
0
  6
CONTINUOUS
 62
   132
 10
240.796060258711
 20
77.257731278456
 30
0.0
 40
0.262499996598291
 50
359.99912573589
 51
539.99395568761
  0
ARC
  5
   57A
  8
0
  6
CONTINUOUS
 62
   132
 10
242.085781569728
 20
75.3789994838361
 30
0.0
 40
2.14123579686827
 50
61.3302909942027
 51
118.667960477579
  0
ARC
  5
   57B
  8
0
  6
CONTINUOUS
 62
   132
 10
240.796046907302
 20
76.3827332970749
 30
0.0
 40
0.262499995537491
 50
179.999562838433
 51
359.99912573589
  0
ARC
  5
   57C
  8
0
  6
CONTINUOUS
 62
     7
 10
247.33526070948
 20
92.5702670564269
 30
0.0
 40
2.02999996542931
 50
184.945429717883
 51
220.282118355986
  0
LINE
  5
   57D
  8
0
  6
CONTINUOUS
 62
     7
 10
245.312817914074
 20
92.3952670594072
 30
0.0
 11
245.65526073809
 21
92.3952670594072
 31
0.0
  0
LINE
  5
   57E
  8
0
  6
CONTINUOUS
 62
     7
 10
245.312817914074
 20
92.7452670534467
 30
0.0
 11
245.65526073809
 21
92.7452670534467
 31
0.0
  0
ARC
  5
   57F
  8
0
  6
CONTINUOUS
 62
     7
 10
247.33526070948
 20
92.5702670564269
 30
0.0
 40
2.02999996542931
 50
139.717881644014
 51
175.054570282117
  0
LINE
  5
   580
  8
0
  6
CONTINUOUS
 62
     7
 10
245.786634328355
 20
93.8827670340752
 30
0.0
 11
246.285260727361
 21
93.8827670340752
 31
0.0
  0
LINE
  5
   581
  8
0
  6
CONTINUOUS
 62
     7
 10
245.786634328355
 20
91.2577670787787
 30
0.0
 11
246.285260727361
 21
91.2577670787787
 31
0.0
  0
LINE
  5
   582
  8
0
  6
CONTINUOUS
 62
     7
 10
245.65526073809
 20
92.3952670594072
 30
0.0
 11
245.65526073809
 21
92.7452670534467
 31
0.0
  0
LINE
  5
   583
  8
0
  6
DASHDOT
 62
     7
 10
245.069033515476
 20
92.5702670564269
 30
0.0
 11
250.954575971474
 21
92.5702670564269
 31
0.0
  0
LINE
  5
   584
  8
0
  6
CONTINUOUS
 62
     7
 10
244.553572988822
 20
114.911920223963
 30
0.0
 11
249.086851626043
 21
114.911920223963
 31
0.0
  0
LINE
  5
   585
  8
0
  6
CONTINUOUS
 62
     7
 10
244.553572988822
 20
58.1526036408139
 30
0.0
 11
247.931310012633
 21
58.1526036408139
 31
0.0
  0
LINE
  5
   586
  8
0
  6
CONTINUOUS
 62
     7
 10
246.98526071544
 20
58.1526036408139
 30
0.0
 11
246.98526071544
 21
62.1203971373789
 31
0.0
  0
LINE
  5
   587
  8
0
  6
DASHDOT
 62
     7
 10
251.535260637954
 20
83.2077672158694
 30
0.0
 11
251.535260637954
 21
85.8327671711659
 31
0.0
  0
LINE
  5
   588
  8
0
  6
CONTINUOUS
 62
     7
 10
246.98526071544
 20
88.020267133913
 30
0.0
 11
255.385260572389
 21
88.020267133913
 31
0.0
  0
LINE
  5
   589
  8
0
  6
CONTINUOUS
 62
     7
 10
246.98526071544
 20
81.0202672531223
 30
0.0
 11
255.385260572389
 21
81.0202672531223
 31
0.0
  0
LINE
  5
   58A
  8
0
  6
CONTINUOUS
 62
     7
 10
255.385260572389
 20
81.0202672531223
 30
0.0
 11
255.385260572389
 21
88.020267133913
 31
0.0
  0
LINE
  5
   58B
  8
0
  6
CONTINUOUS
 62
   253
 10
252.060260629013
 20
88.020267133913
 30
0.0
 11
252.060260629013
 21
98.4329072001329
 31
0.0
  0
LINE
  5
   58C
  8
0
  6
CONTINUOUS
 62
   253
 10
252.410260623053
 20
88.020267133913
 30
0.0
 11
252.410260623053
 21
93.7952310400984
 31
0.0
  0
LINE
  5
   58D
  8
0
  6
CONTINUOUS
 62
     7
 10
245.786634328355
 20
77.7827673082566
 30
0.0
 11
246.285260727361
 21
77.7827673082566
 31
0.0
  0
ARC
  5
   58E
  8
0
  6
CONTINUOUS
 62
     7
 10
247.33526070948
 20
76.4702673306083
 30
0.0
 40
2.02999996542931
 50
139.717881644014
 51
175.054570282117
  0
LINE
  5
   58F
  8
0
  6
CONTINUOUS
 62
     7
 10
245.312817914074
 20
76.6452673276281
 30
0.0
 11
245.65526073809
 21
76.6452673276281
 31
0.0
  0
LINE
  5
   590
  8
0
  6
CONTINUOUS
 62
     7
 10
245.65526073809
 20
76.2952673335885
 30
0.0
 11
245.65526073809
 21
76.6452673276281
 31
0.0
  0
LINE
  5
   591
  8
0
  6
CONTINUOUS
 62
     7
 10
245.312817914074
 20
76.2952673335885
 30
0.0
 11
245.65526073809
 21
76.2952673335885
 31
0.0
  0
ARC
  5
   592
  8
0
  6
CONTINUOUS
 62
     7
 10
247.33526070948
 20
76.4702673306083
 30
0.0
 40
2.02999996542931
 50
184.945429717883
 51
220.282118355986
  0
LINE
  5
   593
  8
0
  6
CONTINUOUS
 62
     7
 10
245.786634328355
 20
75.15776735296
 30
0.0
 11
246.285260727361
 21
75.15776735296
 31
0.0
  0
LINE
  5
   594
  8
0
  6
DASHDOT
 62
     7
 10
245.069033515476
 20
76.4702673306083
 30
0.0
 11
250.954575971474
 21
76.4702673306083
 31
0.0
  0
LINE
  5
   595
  8
0
  6
DOT
 62
     2
 10
229.837904446631
 20
82.7702672233199
 30
0.0
 11
229.837904446631
 21
86.2702671637153
 31
0.0
  0
LINE
  5
   596
  8
0
  6
DOT
 62
     2
 10
229.837904446631
 20
86.2702671637153
 30
0.0
 11
244.538334344194
 21
86.2702671637153
 31
0.0
  0
LINE
  5
   597
  8
0
  6
DOT
 62
     2
 10
229.837904446631
 20
82.7702672233199
 30
0.0
 11
244.538334344194
 21
82.7702672233199
 31
0.0
  0
LINE
  5
   598
  8
0
  6
CONTINUOUS
 62
     7
 10
221.085261156514
 20
99.2202669431781
 30
0.0
 11
236.660248800868
 21
99.2202669431781
 31
0.0
  0
LINE
  5
   599
  8
0
  6
CONTINUOUS
 62
     7
 10
221.085261156514
 20
50.2202677776431
 30
0.0
 11
236.660248800868
 21
50.2202677776431
 31
0.0
  0
LINE
  5
   59A
  8
0
  6
DASHDOT
 62
   130
 10
185.563812270761
 20
47.0702484011649
 30
0.0
 11
185.563812270761
 21
123.807851573286
 31
0.0
  0
LINE
  5
   59B
  8
0
  6
CONTINUOUS
 62
     3
 10
185.913812306523
 20
75.2452479213475
 30
0.0
 11
185.913812306523
 21
79.7952478438615
 31
0.0
  0
LINE
  5
   59C
  8
0
  6
CONTINUOUS
 62
   130
 10
185.563812604547
 20
161.170246458054
 30
0.0
 11
186.438812255859
 21
161.170246458054
 31
0.0
  0
LINE
  5
   59D
  8
0
  6
CONTINUOUS
 62
   130
 10
185.563812604547
 20
157.670241177082
 30
0.0
 11
186.438812255859
 21
157.670241177082
 31
0.0
  0
LINE
  5
   59E
  8
0
  6
CONTINUOUS
 62
   130
 10
185.563812604547
 20
157.670241177082
 30
0.0
 11
185.563812604547
 21
158.138075641771
 31
0.0
  0
LINE
  5
   59F
  8
0
  6
CONTINUOUS
 62
   130
 10
185.563812604547
 20
158.138107685228
 30
0.0
 11
185.563812604547
 21
158.742949288697
 31
0.0
  0
LINE
  5
   5A0
  8
0
  6
CONTINUOUS
 62
   130
 10
185.563812604547
 20
158.742992013305
 30
0.0
 11
185.563812604547
 21
161.170246124268
 31
0.0
  0
LINE
  5
   5A1
  8
0
  6
CONTINUOUS
 62
     3
 10
186.08881226182
 20
47.0702480673789
 30
0.0
 11
186.438812234998
 21
47.0702480673789
 31
0.0
  0
LINE
  5
   5A2
  8
0
  6
CONTINUOUS
 62
     3
 10
186.08881226182
 20
75.4924418258292
 30
0.0
 11
186.08881226182
 21
79.7952478438615
 31
0.0
  0
LINE
  5
   5A3
  8
0
  6
CONTINUOUS
 62
   130
 10
186.08881226182
 20
152.595246610828
 30
0.0
 11
186.438812255859
 21
152.595241270252
 31
0.0
  0
LINE
  5
   5A4
  8
0
  6
CONTINUOUS
 62
   130
 10
186.438811621232
 20
152.805997561227
 30
0.0
 11
186.438812309665
 21
152.595231726198
 31
0.0
  0
LINE
  5
   5A5
  8
0
  6
CONTINUOUS
 62
   130
 10
186.438812255859
 20
152.595241263509
 30
0.0
 11
186.438812255859
 21
164.845241054893
 31
0.0
  0
LINE
  5
   5A6
  8
0
  6
CONTINUOUS
 62
     3
 10
186.438812234998
 20
47.0702480673789
 30
0.0
 11
202.001240253663
 21
47.0702480673789
 31
0.0
  0
LINE
  5
   5A7
  8
0
  6
CONTINUOUS
 62
     3
 10
186.08881094025
 20
70.0984197241227
 30
0.0
 11
186.438812255859
 21
70.1921990396338
 31
0.0
  0
LINE
  5
   5A8
  8
0
  6
CONTINUOUS
 62
     3
 10
186.088814839416
 20
75.4924368604958
 30
0.0
 11
188.970618365656
 21
74.7202324607835
 31
0.0
  0
LINE
  5
   5A9
  8
0
  6
CONTINUOUS
 62
     3
 10
187.313789810537
 20
74.7202324902584
 30
0.0
 11
219.233789266943
 21
74.720247647852
 31
0.0
  0
LINE
  5
   5AA
  8
0
  6
CONTINUOUS
 62
     3
 10
187.313789810537
 20
70.8702218746382
 30
0.0
 11
219.233789266943
 21
70.870237031379
 31
0.0
  0
LINE
  5
   5AB
  8
0
  6
CONTINUOUS
 62
     3
 10
186.438812255859
 20
70.1921817537386
 30
0.0
 11
186.438812255859
 21
75.2452479213475
 31
0.0
  0
LINE
  5
   5AC
  8
0
  6
DASHDOT
 62
   130
 10
185.563812270761
 20
21.6162699888875
 30
0.0
 11
185.563812270761
 21
172.107850750742
 31
0.0
  0
LINE
  5
   5AD
  8
0
  6
CONTINUOUS
 62
     3
 10
185.563812270761
 20
52.320248311758
 30
0.0
 11
186.088811928034
 21
52.320248311758
 31
0.0
  0
LINE
  5
   5AE
  8
0
  6
CONTINUOUS
 62
     3
 10
185.563812382022
 20
47.070248401165
 30
0.0
 11
186.088812373082
 21
47.070248067379
 31
0.0
  0
LINE
  5
   5AF
  8
0
  6
CONTINUOUS
 62
     3
 10
202.001231832433
 20
47.0702464743405
 30
0.0
 11
202.188792849408
 21
46.3702468509929
 31
0.0
  0
LINE
  5
   5B0
  8
0
  6
CONTINUOUS
 62
     3
 10
202.013806650043
 20
46.3702484130858
 30
0.0
 11
213.388790434599
 21
46.3702484130858
 31
0.0
  0
LINE
  5
   5B1
  8
0
  6
CONTINUOUS
 62
     3
 10
211.463790467382
 20
70.7827266350391
 30
0.0
 11
211.463790467382
 21
70.8702373147012
 31
0.0
  0
LINE
  5
   5B2
  8
0
  6
CONTINUOUS
 62
     3
 10
211.463790467382
 20
74.7202479302882
 30
0.0
 11
211.463790467382
 21
74.8077265664938
 31
0.0
  0
LINE
  5
   5B3
  8
0
  6
CONTINUOUS
 62
     3
 10
211.463790467382
 20
74.8077265664938
 30
0.0
 11
219.233789266943
 21
74.8077265664938
 31
0.0
  0
LINE
  5
   5B4
  8
0
  6
CONTINUOUS
 62
     3
 10
211.463787068712
 20
70.7827246943282
 30
0.0
 11
219.233789266943
 21
70.7826815815471
 31
0.0
  0
LINE
  5
   5B5
  8
0
  6
CONTINUOUS
 62
     3
 10
185.913812598586
 20
79.7952478438615
 30
0.0
 11
186.088812929392
 21
79.7952478438615
 31
0.0
  0
LINE
  5
   5B6
  8
0
  6
CONTINUOUS
 62
     3
 10
185.913812577724
 20
75.2452479213475
 30
0.0
 11
186.438812234998
 21
75.2452479213475
 31
0.0
  0
LINE
  5
   5B7
  8
0
  6
CONTINUOUS
 62
     3
 10
221.088790303468
 20
46.7202323853971
 30
0.0
 11
221.088790303468
 21
54.332732255757
 31
0.0
  0
LINE
  5
   5B8
  8
0
  6
CONTINUOUS
 62
     3
 10
221.088790303468
 20
108.425242015719
 30
0.0
 11
221.088790303468
 21
156.270225179196
 31
0.0
  0
LINE
  5
   5B9
  8
0
  6
CONTINUOUS
 62
     7
 10
219.33879033327
 20
107.97022600174
 30
0.0
 11
221.088790303468
 21
107.97022600174
 31
0.0
  0
LINE
  5
   5BA
  8
0
  6
CONTINUOUS
 62
     3
 10
220.213806607127
 20
46.3702323913576
 30
0.0
 11
220.738790309428
 21
46.3702323913576
 31
0.0
  0
LINE
  5
   5BB
  8
0
  6
CONTINUOUS
 62
     3
 10
221.788790291547
 20
54.332732255757
 30
0.0
 11
221.788790291547
 21
91.0827262893322
 31
0.0
  0
LINE
  5
   5BC
  8
0
  6
CONTINUOUS
 62
     3
 10
221.088790303468
 20
54.332732255757
 30
0.0
 11
221.788790291547
 21
54.332732255757
 31
0.0
  0
LINE
  5
   5BD
  8
0
  6
CONTINUOUS
 62
     3
 10
221.088790303468
 20
91.0827262893322
 30
0.0
 11
221.788790291547
 21
91.0827262893322
 31
0.0
  0
LINE
  5
   5BE
  8
0
  6
CONTINUOUS
 62
     3
 10
212.338790452479
 20
81.1952405217456
 30
0.0
 11
212.338790452479
 21
105.778378964094
 31
0.0
  0
LINE
  5
   5BF
  8
0
  6
CONTINUOUS
 62
     3
 10
212.338789610358
 20
81.1952406621034
 30
0.0
 11
213.388789893991
 21
81.0202353486283
 31
0.0
  0
LINE
  5
   5C0
  8
0
  6
CONTINUOUS
 62
     3
 10
212.338790119387
 20
81.1952380847065
 30
0.0
 11
212.338790453173
 21
81.3702327413131
 31
0.0
  0
LINE
  5
   5C1
  8
0
  6
CONTINUOUS
 62
     3
 10
186.438812255859
 20
163.795253167211
 30
0.0
 11
219.233789266943
 21
163.795225672062
 31
0.0
  0
LINE
  5
   5C2
  8
0
  6
CONTINUOUS
 62
     3
 10
213.388790434598
 20
164.845241054893
 30
0.0
 11
220.038790321349
 21
164.845241054893
 31
0.0
  0
LINE
  5
   5C3
  8
0
  6
CONTINUOUS
 62
     3
 10
213.388790434598
 20
46.3702484130858
 30
0.0
 11
219.338784992694
 21
46.3702484130858
 31
0.0
  0
LINE
  5
   5C4
  8
0
  6
CONTINUOUS
 62
     3
 10
213.388790434598
 20
47.0702430605888
 30
0.0
 11
219.233789266943
 21
47.0702430605888
 31
0.0
  0
LINE
  5
   5C5
  8
0
  6
CONTINUOUS
 62
     3
 10
213.388790434598
 20
46.3702484130858
 30
0.0
 11
213.388790434598
 21
70.7827140132181
 31
0.0
  0
LINE
  5
   5C6
  8
0
  6
CONTINUOUS
 62
     3
 10
220.038790321349
 20
164.845241054893
 30
0.0
 11
220.213790318369
 21
164.845241054893
 31
0.0
  0
LINE
  5
   5C7
  8
0
  6
CONTINUOUS
 62
     3
 10
220.213790318369
 20
156.270241200924
 30
0.0
 11
220.213790318369
 21
164.845241054893
 31
0.0
  0
LINE
  5
   5C8
  8
0
  6
CONTINUOUS
 62
     3
 10
219.233789266943
 20
74.8077265664938
 30
0.0
 11
219.233789266943
 21
163.795225672062
 31
0.0
  0
LINE
  5
   5C9
  8
0
  6
CONTINUOUS
 62
     3
 10
219.233789266943
 20
47.0702430605888
 30
0.0
 11
219.233789266943
 21
70.7826815815471
 31
0.0
  0
LINE
  5
   5CA
  8
0
  6
CONTINUOUS
 62
     3
 10
220.738790309428
 20
107.970236682892
 30
0.0
 11
221.088790303468
 21
107.970236682892
 31
0.0
  0
LINE
  5
   5CB
  8
0
  6
CONTINUOUS
 62
     3
 10
219.33879033327
 20
46.3702323913576
 30
0.0
 11
219.33879033327
 21
107.97022600174
 31
0.0
  0
LINE
  5
   5CC
  8
0
  6
CONTINUOUS
 62
     3
 10
219.233790902417
 20
66.8277274454695
 30
0.0
 11
219.338791965319
 21
66.8092136759159
 31
0.0
  0
LINE
  5
   5CD
  8
0
  6
CONTINUOUS
 62
     3
 10
219.233791178812
 20
47.0702484142553
 30
0.0
 11
219.338786899098
 21
47.0011520451384
 31
0.0
  0
LINE
  5
   5CE
  8
0
  6
CONTINUOUS
 62
     3
 10
219.233787542437
 20
78.7627307416329
 30
0.0
 11
219.338788605068
 21
78.781246517432
 31
0.0
  0
LINE
  5
   5CF
  8
0
  6
CONTINUOUS
 62
     3
 10
219.233787811609
 20
153.407860337838
 30
0.0
 11
219.338783531472
 21
153.363159722135
 31
0.0
  0
LINE
  5
   5D0
  8
0
  6
CONTINUOUS
 62
     3
 10
219.233793520182
 20
154.932621867277
 30
0.0
 11
219.338789245464
 21
154.977317142693
 31
0.0
  0
LINE
  5
   5D1
  8
0
  6
CONTINUOUS
 62
     2
 10
185.563812270761
 20
26.420243412256
 30
0.0
 11
186.263806918264
 21
26.420243412256
 31
0.0
  0
LINE
  5
   5D2
  8
0
  6
CONTINUOUS
 62
     2
 10
185.563812270761
 20
26.420243412256
 30
0.0
 11
185.563812270761
 21
33.2452432960272
 31
0.0
  0
LINE
  5
   5D3
  8
0
  6
CONTINUOUS
 62
     3
 10
185.563806930184
 20
46.8952430635688
 30
0.0
 11
202.013806650043
 21
46.8952430635688
 31
0.0
  0
LINE
  5
   5D4
  8
0
  6
CONTINUOUS
 62
     2
 10
220.213806340099
 20
22.7452434748409
 30
0.0
 11
220.213806340099
 21
31.1452379912137
 31
0.0
  0
LINE
  5
   5D5
  8
0
  6
CONTINUOUS
 62
     3
 10
185.563806930184
 20
21.6952402512365
 30
0.0
 11
185.563806930184
 21
46.8952430635688
 31
0.0
  0
LINE
  5
   5D6
  8
0
  6
CONTINUOUS
 62
     2
 10
219.233806623817
 20
31.1452379912137
 30
0.0
 11
220.213806340099
 21
31.1452379912137
 31
0.0
  0
LINE
  5
   5D7
  8
0
  6
CONTINUOUS
 62
     3
 10
219.233806623817
 20
23.7252445262668
 30
0.0
 11
219.233806623817
 21
31.1452379912137
 31
0.0
  0
LINE
  5
   5D8
  8
0
  6
CONTINUOUS
 62
     3
 10
202.013806650043
 20
46.3702377319335
 30
0.0
 11
202.013806650043
 21
46.8952430635688
 31
0.0
  0
LINE
  5
   5D9
  8
0
  6
CONTINUOUS
 62
     2
 10
219.233806623817
 20
32.5452379673718
 30
0.0
 11
219.233806623817
 21
46.3702377319335
 31
0.0
  0
LINE
  5
   5DA
  8
0
  6
CONTINUOUS
 62
     2
 10
186.263806918264
 20
22.7452434748419
 30
0.0
 11
186.263806918264
 21
26.420243412256
 31
0.0
  0
LINE
  5
   5DB
  8
0
  6
CONTINUOUS
 62
     7
 10
221.088806592226
 20
32.5452377976411
 30
0.0
 11
221.088806592226
 21
46.195237565183
 31
0.0
  0
LINE
  5
   5DC
  8
0
  6
CONTINUOUS
 62
     7
 10
219.233806623817
 20
46.195237565183
 30
0.0
 11
220.213806607127
 21
46.195237565183
 31
0.0
  0
LINE
  5
   5DD
  8
0
  6
CONTINUOUS
 62
     7
 10
219.233806623817
 20
32.5452377976411
 30
0.0
 11
221.088806592226
 21
32.5452377976411
 31
0.0
  0
LINE
  5
   5DE
  8
0
  6
CONTINUOUS
 62
     7
 10
220.213806607127
 20
32.5452377976411
 30
0.0
 11
220.213806607127
 21
46.195237565183
 31
0.0
  0
LINE
  5
   5DF
  8
0
  6
CONTINUOUS
 62
     3
 10
213.388790434598
 20
74.8077265664938
 30
0.0
 11
213.388790434598
 21
81.0202211201195
 31
0.0
  0
LINE
  5
   5E0
  8
0
  6
CONTINUOUS
 62
     3
 10
219.233789266943
 20
70.870237031379
 30
0.0
 11
219.233789266943
 21
74.720247647852
 31
0.0
  0
LINE
  5
   5E1
  8
0
  6
CONTINUOUS
 62
     3
 10
187.313789810537
 20
70.870237031379
 30
0.0
 11
187.313789810537
 21
74.7202324902584
 31
0.0
  0
LINE
  5
   5E2
  8
0
  6
DASHDOT
 62
     7
 10
184.513806948066
 20
21.6952402512365
 30
0.0
 11
184.513806948066
 21
171.962430069427
 31
0.0
  0
LINE
  5
   5E3
  8
0
  6
CONTINUOUS
 62
     3
 10
186.438812255859
 20
70.1921990396338
 30
0.0
 11
188.969342408244
 21
70.870229021201
 31
0.0
  0
LINE
  5
   5E4
  8
0
  6
CONTINUOUS
 62
     3
 10
186.438812255859
 20
75.2452479213475
 30
0.0
 11
186.438812255859
 21
75.3986559692721
 31
0.0
  0
LINE
  5
   5E5
  8
0
  6
CONTINUOUS
 62
     3
 10
186.08881226182
 20
115.495241895319
 30
0.0
 11
186.08881226182
 21
151.549011530694
 31
0.0
  0
LINE
  5
   5E6
  8
0
  6
CONTINUOUS
 62
     3
 10
186.08881226182
 20
52.320248311758
 30
0.0
 11
186.08881226182
 21
70.0984172594858
 31
0.0
  0
LINE
  5
   5E7
  8
0
  6
CONTINUOUS
 62
     2
 10
219.233806623817
 20
31.1452379912137
 30
0.0
 11
219.233806623817
 21
32.5452379673718
 31
0.0
  0
LINE
  5
   5E8
  8
0
  6
CONTINUOUS
 62
   130
 10
186.438812255859
 20
164.845241054893
 30
0.0
 11
213.388811796904
 21
164.845241054893
 31
0.0
  0
LINE
  5
   5E9
  8
0
  6
DASHDOT
 62
   218
 10
179.331620329686
 20
159.420225125552
 30
0.0
 11
185.991401071039
 21
159.420225125552
 31
0.0
  0
LINE
  5
   5EA
  8
0
  6
CONTINUOUS
 62
     7
 10
183.113806971908
 20
109.720225971937
 30
0.0
 11
183.113806971908
 21
112.520225924254
 31
0.0
  0
LINE
  5
   5EB
  8
0
  6
CONTINUOUS
 62
     7
 10
181.71380699575
 20
110.245225962997
 30
0.0
 11
181.71380699575
 21
111.995225933194
 31
0.0
  0
LINE
  5
   5EC
  8
0
  6
CONTINUOUS
 62
     7
 10
183.113806971908
 20
112.520225924254
 30
0.0
 11
184.513806948066
 21
112.520225924254
 31
0.0
  0
LINE
  5
   5ED
  8
0
  6
CONTINUOUS
 62
     7
 10
183.113806971908
 20
109.720225971937
 30
0.0
 11
184.513806948066
 21
109.720225971937
 31
0.0
  0
LINE
  5
   5EE
  8
0
  6
CONTINUOUS
 62
     7
 10
181.71380699575
 20
111.995225933194
 30
0.0
 11
184.513806948066
 21
111.995225933194
 31
0.0
  0
LINE
  5
   5EF
  8
0
  6
CONTINUOUS
 62
     7
 10
181.71380699575
 20
110.245225962997
 30
0.0
 11
184.513806948066
 21
110.245225962997
 31
0.0
  0
LINE
  5
   5F0
  8
0
  6
CONTINUOUS
 62
     7
 10
183.113806971908
 20
29.5702273368838
 30
0.0
 11
184.513806948066
 21
29.5702273368838
 31
0.0
  0
LINE
  5
   5F1
  8
0
  6
CONTINUOUS
 62
     7
 10
181.71380699575
 20
29.0452273458245
 30
0.0
 11
184.513806948066
 21
29.0452273458245
 31
0.0
  0
LINE
  5
   5F2
  8
0
  6
CONTINUOUS
 62
     7
 10
181.71380699575
 20
27.2952273756268
 30
0.0
 11
184.513806948066
 21
27.2952273756268
 31
0.0
  0
LINE
  5
   5F3
  8
0
  6
CONTINUOUS
 62
     7
 10
183.113806971908
 20
26.7702273845675
 30
0.0
 11
184.513806948066
 21
26.7702273845675
 31
0.0
  0
LINE
  5
   5F4
  8
0
  6
CONTINUOUS
 62
     7
 10
183.113806971908
 20
26.7702273845675
 30
0.0
 11
183.113806971908
 21
29.5702273368838
 31
0.0
  0
LINE
  5
   5F5
  8
0
  6
CONTINUOUS
 62
     7
 10
181.71380699575
 20
27.2952273756268
 30
0.0
 11
181.71380699575
 21
29.0452273458245
 31
0.0
  0
CIRCLE
  5
   5F6
  8
0
  6
CONTINUOUS
 62
     7
 10
183.58816392905
 20
110.89755732531
 30
0.0
 40
0.139999997615814
  0
LINE
  5
   5F7
  8
0
  6
CONTINUOUS
 62
     3
 10
221.088790303468
 20
91.0827262893322
 30
0.0
 11
221.088790303468
 21
107.97022600174
 31
0.0
  0
LINE
  5
   5F8
  8
0
  6
CONTINUOUS
 62
     3
 10
220.213790318369
 20
156.270241200924
 30
0.0
 11
221.088790303468
 21
156.270241200924
 31
0.0
  0
LINE
  5
   5F9
  8
0
  6
CONTINUOUS
 62
     7
 10
219.33879033327
 20
108.07524202168
 30
0.0
 11
219.33879033327
 21
164.845241054893
 31
0.0
  0
LINE
  5
   5FA
  8
0
  6
CONTINUOUS
 62
     7
 10
219.33879033327
 20
108.07524202168
 30
0.0
 11
220.738790309428
 21
108.07524202168
 31
0.0
  0
LINE
  5
   5FB
  8
0
  6
CONTINUOUS
 62
     7
 10
219.33879033327
 20
108.425242015719
 30
0.0
 11
220.738790309428
 21
108.425242015719
 31
0.0
  0
LINE
  5
   5FC
  8
0
  6
CONTINUOUS
 62
     3
 10
220.738790309428
 20
107.970236682892
 30
0.0
 11
220.738790309428
 21
108.425242015719
 31
0.0
  0
LINE
  5
   5FD
  8
0
  6
CONTINUOUS
 62
     3
 10
186.08881226182
 20
115.495241895319
 30
0.0
 11
219.33879033327
 21
115.495241895319
 31
0.0
  0
LINE
  5
   5FE
  8
0
  6
CONTINUOUS
 62
     3
 10
213.388790434598
 20
105.870242059232
 30
0.0
 11
213.388790434598
 21
117.070241868497
 31
0.0
  0
LINE
  5
   5FF
  8
0
  6
CONTINUOUS
 62
     3
 10
212.338790452479
 20
117.070241868497
 30
0.0
 11
213.388790434598
 21
117.070241868497
 31
0.0
  0
LINE
  5
   600
  8
0
  6
CONTINUOUS
 62
     3
 10
212.338790452479
 20
117.070241868497
 30
0.0
 11
212.338790452479
 21
153.120241254569
 31
0.0
  0
LINE
  5
   601
  8
0
  6
CONTINUOUS
 62
     3
 10
212.338790452479
 20
153.120241254569
 30
0.0
 11
213.388790434598
 21
153.120241254569
 31
0.0
  0
LINE
  5
   602
  8
0
  6
CONTINUOUS
 62
     3
 10
213.388790434598
 20
153.120241254569
 30
0.0
 11
213.388790434598
 21
164.845241054893
 31
0.0
  0
LINE
  5
   603
  8
0
  6
CONTINUOUS
 62
     3
 10
212.338790452479
 20
105.778378964094
 30
0.0
 11
213.388790434598
 21
105.870242059232
 31
0.0
  0
LINE
  5
   604
  8
0
  6
CONTINUOUS
 62
     7
 10
183.113806971908
 20
160.82022510171
 30
0.0
 11
184.513806948066
 21
160.82022510171
 31
0.0
  0
LINE
  5
   605
  8
0
  6
CONTINUOUS
 62
     7
 10
181.71380699575
 20
160.29522511065
 30
0.0
 11
184.513806948066
 21
160.29522511065
 31
0.0
  0
LINE
  5
   606
  8
0
  6
CONTINUOUS
 62
     7
 10
181.71380699575
 20
158.545225140453
 30
0.0
 11
181.71380699575
 21
160.29522511065
 31
0.0
  0
LINE
  5
   607
  8
0
  6
CONTINUOUS
 62
     7
 10
181.71380699575
 20
158.545225140453
 30
0.0
 11
184.513806948066
 21
158.545225140453
 31
0.0
  0
LINE
  5
   608
  8
0
  6
CONTINUOUS
 62
     7
 10
183.113806971908
 20
158.020225149393
 30
0.0
 11
184.513806948066
 21
158.020225149393
 31
0.0
  0
LINE
  5
   609
  8
0
  6
CONTINUOUS
 62
     7
 10
183.113806971908
 20
158.020225149393
 30
0.0
 11
183.113806971908
 21
160.82022510171
 31
0.0
  0
LINE
  5
   60A
  8
0
  6
DASHDOT
 62
   218
 10
179.331620329686
 20
111.120225948096
 30
0.0
 11
185.991401071039
 21
111.120225948096
 31
0.0
  0
LINE
  5
   60B
  8
0
  6
CONTINUOUS
 62
     3
 10
185.563812604547
 20
112.870247280598
 30
0.0
 11
186.438812255859
 21
112.870247280598
 31
0.0
  0
LINE
  5
   60C
  8
0
  6
CONTINUOUS
 62
     3
 10
185.563812604547
 20
109.370241999626
 30
0.0
 11
186.438812255859
 21
109.370241999626
 31
0.0
  0
LINE
  5
   60D
  8
0
  6
CONTINUOUS
 62
     3
 10
186.438812255859
 20
104.295242086053
 30
0.0
 11
186.438812255859
 21
115.495241895319
 31
0.0
  0
LINE
  5
   60E
  8
0
  6
CONTINUOUS
 62
     3
 10
186.08881226182
 20
104.295247433372
 30
0.0
 11
186.438812255859
 21
104.295242092796
 31
0.0
  0
LINE
  5
   60F
  8
0
  6
CONTINUOUS
 62
     3
 10
186.08881226182
 20
79.7952478438615
 30
0.0
 11
186.08881226182
 21
104.295247426629
 31
0.0
  0
LINE
  5
   610
  8
0
  6
CONTINUOUS
 62
   130
 10
186.08881226182
 20
151.549011530694
 30
0.0
 11
186.08881226182
 21
152.595246604085
 31
0.0
  0
LINE
  5
   611
  8
0
  6
CONTINUOUS
 62
     3
 10
219.33879033327
 20
46.7202323853971
 30
0.0
 11
220.738790309428
 21
46.7202323853971
 31
0.0
  0
LINE
  5
   612
  8
0
  6
CONTINUOUS
 62
     3
 10
220.738790309428
 20
46.3702323913576
 30
0.0
 11
220.738790309428
 21
46.7202323853971
 31
0.0
  0
LINE
  5
   613
  8
0
  6
CONTINUOUS
 62
     3
 10
220.738790309428
 20
108.425242015719
 30
0.0
 11
221.088790303468
 21
108.425242015719
 31
0.0
  0
LINE
  5
   614
  8
0
  6
CONTINUOUS
 62
     3
 10
220.738790309428
 20
46.7202323853971
 30
0.0
 11
221.088790303468
 21
46.7202323853971
 31
0.0
  0
LINE
  5
   615
  8
0
  6
CONTINUOUS
 62
     3
 10
220.213806607127
 20
46.195237565183
 30
0.0
 11
220.213806607127
 21
46.3702323913576
 31
0.0
  0
LINE
  5
   616
  8
0
  6
CONTINUOUS
 62
     7
 10
220.213806607127
 20
46.195237565183
 30
0.0
 11
221.088806592226
 21
46.195237565183
 31
0.0
  0
LINE
  5
   617
  8
0
  6
CONTINUOUS
 62
     7
 10
219.233806623817
 20
46.3702375622027
 30
0.0
 11
220.213806607127
 21
46.3702375622027
 31
0.0
  0
LINE
  5
   618
  8
0
  6
CONTINUOUS
 62
     3
 10
186.08881226182
 20
115.495241895319
 30
0.0
 11
186.438812255859
 21
115.495241895319
 31
0.0
  0
LINE
  5
   619
  8
0
  6
CONTINUOUS
 62
     7
 10
219.33879033327
 20
156.270241200924
 30
0.0
 11
220.213790318369
 21
156.270241200924
 31
0.0
  0
LINE
  5
   61A
  8
0
  6
CONTINUOUS
 62
     2
 10
186.263806918264
 20
22.7452434748409
 30
0.0
 11
220.213806340099
 21
22.7452434748409
 31
0.0
  0
LINE
  5
   61B
  8
0
  6
CONTINUOUS
 62
     3
 10
186.263806918264
 20
23.7252445262668
 30
0.0
 11
219.233806623817
 21
23.7252445262668
 31
0.0
  0
LINE
  5
   61C
  8
0
  6
DASHDOT
 62
     7
 10
172.245791054779
 20
74.7202212274078
 30
0.0
 11
276.111092538774
 21
74.7202212274078
 31
0.0
  0
TEXT
  5
   61D
  8
0
  6
CONTINUOUS
 62
     7
 10
277.723220859425
 20
73.0747516172803
 30
0.0
 40
2.99999997871263
  1
X
 41
0.91666663951344
 72
     1
 11
278.823220827281
 21
74.5747516066366
 31
0.0
 73
     2
  0
TEXT
  5
   61E
  8
0
  6
CONTINUOUS
 62
     1
 10
233.05940246582
 20
-195.708282449416
 30
0.0
 40
2.99999997871263
  1
   S6X III
 41
0.91666663951344
 72
     2
 11
260.009401492775
 21
-195.708282449416
 31
0.0
  0
LINE
  5
   61F
  8
0
  6
DASHED
 62
     7
 10
269.035260339931
 20
42.1757011091061
 30
0.0
 11
269.035260339931
 21
92.4092123851237
 31
0.0
  0
LINE
  5
   620
  8
0
  6
DASHED
 62
     7
 10
257.310260539606
 20
73.1541434246792
 30
0.0
 11
260.285260488942
 21
73.1541434246792
 31
0.0
  0
LINE
  5
   621
  8
0
  6
DASHED
 62
     7
 10
256.960260545567
 20
93.7952670355653
 30
0.0
 11
267.635260363762
 21
93.7952670355653
 31
0.0
  0
ARC
  5
   622
  8
0
  6
DASHED
 62
     7
 10
260.285260488942
 20
70.7041434664025
 30
0.0
 40
2.44999995827675
 50
0.0
 51
90.0
  0
ARC
  5
   623
  8
0
  6
DASHED
 62
     7
 10
260.285260488942
 20
71.9346362280401
 30
0.0
 40
2.44999995827675
 50
0.0
 51
90.0
  0
LINE
  5
   624
  8
0
  6
DASHED
 62
     7
 10
262.735260447219
 20
40.7702658524131
 30
0.0
 11
262.735260447219
 21
71.9346362280401
 31
0.0
  0
LINE
  5
   625
  8
0
  6
DASHED
 62
     7
 10
271.835260292247
 20
75.0702673544501
 30
0.0
 11
271.835260292247
 21
80.6702672590827
 31
0.0
  0
ARC
  5
   626
  8
0
  6
DASHED
 62
     7
 10
270.435260316089
 20
75.0702673544501
 30
0.0
 40
1.39999997615814
 50
180.0
 51
360.0
  0
ARC
  5
   627
  8
0
  6
DASHED
 62
     7
 10
270.435260316089
 20
80.6702672590827
 30
0.0
 40
1.39999997615814
 50
0.0
 51
180.0
  0
LINE
  5
   628
  8
0
  6
DASHDOT
 62
     7
 10
268.335260351852
 20
75.0702673544502
 30
0.0
 11
272.535260280326
 21
75.0702673544502
 31
0.0
  0
LINE
  5
   629
  8
0
  6
DASHDOT
 62
     7
 10
270.435260316089
 20
72.9702673902129
 30
0.0
 11
270.435260316089
 21
82.7702672233199
 31
0.0
  0
LINE
  5
   62A
  8
0
  6
DASHDOT
 62
     7
 10
268.335260351852
 20
80.6702672590827
 30
0.0
 11
272.535260280326
 21
80.6702672590827
 31
0.0
  0
ARC
  5
   62B
  8
0
  6
DASHED
 62
     7
 10
265.885260393575
 20
87.3202671458339
 30
0.0
 40
14.454787887877
 50
282.586944950843
 51
307.750050331541
  0
ARC
  5
   62C
  8
0
  6
DASHED
 62
     7
 10
265.885260393575
 20
87.3202671458339
 30
0.0
 40
15.5047878699956
 50
281.72198665881
 51
307.180704244992
  0
LINE
  5
   62D
  8
0
  6
DASHED
 62
     7
 10
269.035260339931
 20
86.0074095168556
 30
0.0
 11
275.814915318954
 21
73.973752857915
 31
0.0
  0
LINE
  5
   62E
  8
0
  6
DASHED
 62
     7
 10
269.035260339931
 20
88.1465520070579
 30
0.0
 11
276.729721082909
 21
74.4891462772403
 31
0.0
  0
LINE
  5
   62F
  8
0
  6
DASHED
 62
     7
 10
275.814915318954
 20
73.973752857915
 30
0.0
 11
276.729721082909
 21
74.4891462772402
 31
0.0
  0
LINE
  5
   630
  8
0
  6
DASHED
 62
     7
 10
262.735260447219
 20
40.7702658524131
 30
0.0
 11
267.639370584814
 21
40.7702658524131
 31
0.0
  0
LINE
  5
   631
  8
0
  6
CONTINUOUS
 62
   130
 10
268.456288486998
 20
41.0366874997162
 30
0.0
 11
268.458157688626
 21
41.0376420442442
 31
0.0
  0
LINE
  5
   632
  8
0
  6
CONTINUOUS
 62
   130
 10
268.059868205663
 20
40.8375173904982
 30
0.0
 11
268.067879069784
 21
40.8387866952289
 31
0.0
  0
LINE
  5
   633
  8
0
  6
CONTINUOUS
 62
   130
 10
262.735260447219
 20
87.677765308691
 30
0.0
 11
262.760937937016
 21
87.5309795751068
 31
0.0
  0
LINE
  5
   634
  8
0
  6
CONTINUOUS
 62
   130
 10
262.735260447219
 20
80.3426496193983
 30
0.0
 11
262.75078016131
 21
80.4516267446176
 31
0.0
  0
LINE
  5
   635
  8
0
  6
CONTINUOUS
 62
   130
 10
262.6286945921
 20
89.1533237552425
 30
0.0
 11
262.646414623537
 21
89.0580906025674
 31
0.0
  0
LINE
  5
   636
  8
0
  6
CONTINUOUS
 62
   130
 10
261.871016382347
 20
90.1944690622187
 30
0.0
 11
261.900709985357
 21
90.1518299027886
 31
0.0
  0
LINE
  5
   637
  8
0
  6
CONTINUOUS
 62
   130
 10
261.900709985357
 20
90.1518299027886
 30
0.0
 11
262.283992449533
 21
89.7701869954696
 31
0.0
  0
LINE
  5
   638
  8
0
  6
CONTINUOUS
 62
   130
 10
262.283992449533
 20
89.7701869954695
 30
0.0
 11
262.325211015726
 21
89.7385173793096
 31
0.0
  0
LINE
  5
   639
  8
0
  6
CONTINUOUS
 62
   130
 10
261.335260471061
 20
90.4234462616883
 30
0.0
 11
261.871016382347
 21
90.1944690622186
 31
0.0
  0
LINE
  5
   63A
  8
0
  6
CONTINUOUS
 62
   130
 10
262.476808608359
 20
89.3963146263483
 30
0.0
 11
262.6286945921
 21
89.1533237552423
 31
0.0
  0
LINE
  5
   63B
  8
0
  6
CONTINUOUS
 62
   130
 10
262.334193864694
 20
89.7230457304035
 30
0.0
 11
262.476808608359
 21
89.3963146263485
 31
0.0
  0
LINE
  5
   63C
  8
0
  6
CONTINUOUS
 62
   130
 10
262.325211015726
 20
89.7385173793096
 30
0.0
 11
262.334193864694
 21
89.7230457304031
 31
0.0
  0
LINE
  5
   63D
  8
0
  6
CONTINUOUS
 62
   130
 10
262.646414623537
 20
89.0580906025676
 30
0.0
 11
262.735260447219
 21
88.6224865145269
 31
0.0
  0
LINE
  5
   63E
  8
0
  6
CONTINUOUS
 62
   130
 10
261.871016382347
 20
77.313779279134
 30
0.0
 11
262.325211015726
 21
77.7376848352694
 31
0.0
  0
LINE
  5
   63F
  8
0
  6
CONTINUOUS
 62
   130
 10
261.335260471061
 20
77.1649240723184
 30
0.0
 11
261.871016382347
 21
77.313779279134
 31
0.0
  0
LINE
  5
   640
  8
0
  6
CONTINUOUS
 62
   130
 10
262.6286945921
 20
78.3721025490743
 30
0.0
 11
262.735260447219
 21
79.120448102126
 31
0.0
  0
LINE
  5
   641
  8
0
  6
CONTINUOUS
 62
   130
 10
262.325211015726
 20
77.7376848352694
 30
0.0
 11
262.6286945921
 21
78.3721025490747
 31
0.0
  0
LINE
  5
   642
  8
0
  6
CONTINUOUS
 62
   130
 10
262.735260447219
 20
86.9537754528565
 30
0.0
 11
262.735260447219
 21
88.6224865145264
 31
0.0
  0
LINE
  5
   643
  8
0
  6
CONTINUOUS
 62
   130
 10
262.735260447219
 20
79.1204481021264
 30
0.0
 11
262.735260447219
 21
79.8914563897775
 31
0.0
  0
LINE
  5
   644
  8
0
  6
CONTINUOUS
 62
   130
 10
262.735260447219
 20
79.8914563897775
 30
0.0
 11
262.735260447219
 21
82.0867562638907
 31
0.0
  0
LINE
  5
   645
  8
0
  6
CONTINUOUS
 62
   130
 10
262.735260447219
 20
84.5202645232296
 30
0.0
 11
262.735260447219
 21
86.9537754528565
 31
0.0
  0
LINE
  5
   646
  8
0
  6
CONTINUOUS
 62
   130
 10
262.735260447219
 20
82.0867562638907
 30
0.0
 11
262.735260447219
 21
84.5202645232296
 31
0.0
  0
LINE
  5
   647
  8
0
  6
CONTINUOUS
 62
   130
 10
257.310260539606
 20
90.4234462616883
 30
0.0
 11
261.335260471061
 21
90.4234462616883
 31
0.0
  0
LINE
  5
   648
  8
0
  6
CONTINUOUS
 62
   130
 10
257.310260539606
 20
77.1649240723184
 30
0.0
 11
261.335260471061
 21
77.1649240723184
 31
0.0
  0
ARC
  5
   649
  8
0
  6
DASHED
 62
     7
 10
267.635230101157
 20
42.1703003854482
 30
0.0
 40
1.40004065558691
 50
270.169446925366
 51
360.0
  0
ARC
  5
   64A
  8
0
  6
DASHED
 62
     7
 10
267.649002114777
 20
92.4092123851237
 30
0.0
 40
1.38612276863613
 50
0.0
 51
90.5680284977809
  0
LINE
  5
   64B
  8
0
  6
CONTINUOUS
 62
    52
 10
256.960260545567
 20
92.2321445035914
 30
0.0
 11
256.960260545567
 21
93.089248218243
 31
0.0
  0
LINE
  5
   64C
  8
0
  6
DASHED
 62
     7
 10
257.310260539606
 20
73.1541434246792
 30
0.0
 11
257.310260539606
 21
75.4202593376256
 31
0.0
  0
LINE
  5
   64D
  8
0
  6
CONTINUOUS
 62
   130
 10
257.310260539606
 20
92.0614383297407
 30
0.0
 11
257.310260539606
 21
92.2375011014006
 31
0.0
  0
LINE
  5
   64E
  8
0
  6
CONTINUOUS
 62
   130
 10
257.310260539606
 20
90.8260509301249
 30
0.0
 11
257.310260539606
 21
91.5805408159577
 31
0.0
  0
LINE
  5
   64F
  8
0
  6
CONTINUOUS
 62
   130
 10
257.310260539606
 20
92.2375011014006
 30
0.0
 11
257.310260539606
 21
92.787852807116
 31
0.0
  0
LINE
  5
   650
  8
0
  6
CONTINUOUS
 62
   130
 10
257.310260539606
 20
92.787852807116
 30
0.0
 11
257.310260539606
 21
93.2239909527648
 31
0.0
  0
LINE
  5
   651
  8
0
  6
CONTINUOUS
 62
   130
 10
257.310260539606
 20
93.3575267170923
 30
0.0
 11
257.310260539606
 21
93.5398967091037
 31
0.0
  0
LINE
  5
   652
  8
0
  6
CONTINUOUS
 62
   130
 10
257.310260539606
 20
91.5805408159577
 30
0.0
 11
257.310260539606
 21
91.9499644852035
 31
0.0
  0
LINE
  5
   653
  8
0
  6
CONTINUOUS
 62
   130
 10
257.310260539606
 20
93.2239909527648
 30
0.0
 11
257.310260539606
 21
93.3048899992387
 31
0.0
  0
LINE
  5
   654
  8
0
  6
CONTINUOUS
 62
   130
 10
257.310260539606
 20
90.5127567154896
 30
0.0
 11
257.310260539606
 21
90.8260509301249
 31
0.0
  0
LINE
  5
   655
  8
0
  6
CONTINUOUS
 62
   130
 10
257.310260539606
 20
90.4234462616883
 30
0.0
 11
257.310260539606
 21
90.5127567154896
 31
0.0
  0
LINE
  5
   656
  8
0
  6
CONTINUOUS
 62
   130
 10
257.310260539606
 20
75.4725782912024
 30
0.0
 11
257.310260539606
 21
77.1649240723184
 31
0.0
  0
LINE
  5
   657
  8
0
  6
CONTINUOUS
 62
   130
 10
257.310260539606
 20
77.1649240723184
 30
0.0
 11
257.310260539606
 21
79.0685563946361
 31
0.0
  0
LINE
  5
   658
  8
0
  6
CONTINUOUS
 62
   130
 10
257.310260539606
 20
87.386399499444
 30
0.0
 11
257.310260539606
 21
89.9719753221111
 31
0.0
  0
LINE
  5
   659
  8
0
  6
CONTINUOUS
 62
   130
 10
257.310260539606
 20
79.0685563946361
 30
0.0
 11
257.310260539606
 21
81.6541322173032
 31
0.0
  0
LINE
  5
   65A
  8
0
  6
CONTINUOUS
 62
   130
 10
257.310260539606
 20
92.0238994204679
 30
0.0
 11
257.310260539606
 21
92.0614383297407
 31
0.0
  0
LINE
  5
   65B
  8
0
  6
CONTINUOUS
 62
   130
 10
257.310260539606
 20
93.3413127281106
 30
0.0
 11
257.310260539606
 21
93.3575267170923
 31
0.0
  0
LINE
  5
   65C
  8
0
  6
CONTINUOUS
 62
   130
 10
257.310260539606
 20
93.3048899992387
 30
0.0
 11
257.310260539606
 21
93.3413127281106
 31
0.0
  0
LINE
  5
   65D
  8
0
  6
CONTINUOUS
 62
   130
 10
257.310260539606
 20
89.9719753221111
 30
0.0
 11
257.310260539606
 21
90.4234462616883
 31
0.0
  0
LINE
  5
   65E
  8
0
  6
CONTINUOUS
 62
   130
 10
257.310260539606
 20
91.9499644852035
 30
0.0
 11
257.310260539606
 21
92.0238994204679
 31
0.0
  0
LINE
  5
   65F
  8
0
  6
CONTINUOUS
 62
   130
 10
257.310260539606
 20
81.6541322173032
 30
0.0
 11
257.310260539606
 21
84.5202645232296
 31
0.0
  0
LINE
  5
   660
  8
0
  6
CONTINUOUS
 62
   130
 10
257.310260539606
 20
84.5202645232296
 30
0.0
 11
257.310260539606
 21
87.386399499444
 31
0.0
  0
LINE
  5
   661
  8
0
  6
CONTINUOUS
 62
    52
 10
256.960260545567
 20
75.4202593376256
 30
0.0
 11
257.310260539606
 21
75.4202593376256
 31
0.0
  0
LINE
  5
   662
  8
0
  6
CONTINUOUS
 62
    52
 10
256.960260545567
 20
93.6202670385455
 30
0.0
 11
257.310260539606
 21
93.6202670385455
 31
0.0
  0
LINE
  5
   663
  8
0
  6
CONTINUOUS
 62
    52
 10
252.585260620073
 20
75.2452593406058
 30
0.0
 11
256.960260545567
 21
75.2452593406058
 31
0.0
  0
LINE
  5
   664
  8
0
  6
CONTINUOUS
 62
    52
 10
252.585260620073
 20
93.7952670355653
 30
0.0
 11
256.960260545567
 21
93.7952670355653
 31
0.0
  0
LINE
  5
   665
  8
0
  6
CONTINUOUS
 62
    52
 10
257.310260539606
 20
84.5202618529416
 30
0.0
 11
257.310260539606
 21
86.2955841646269
 31
0.0
  0
LINE
  5
   666
  8
0
  6
CONTINUOUS
 62
    52
 10
257.310260539606
 20
78.0855886531972
 30
0.0
 11
257.310260539606
 21
79.4645707921889
 31
0.0
  0
LINE
  5
   667
  8
0
  6
CONTINUOUS
 62
    52
 10
257.310260539606
 20
93.44541123708
 30
0.0
 11
257.310260539606
 21
93.6202670385456
 31
0.0
  0
LINE
  5
   668
  8
0
  6
CONTINUOUS
 62
    52
 10
257.310260539606
 20
79.4645707921889
 30
0.0
 11
257.310260539606
 21
81.0378404187166
 31
0.0
  0
LINE
  5
   669
  8
0
  6
CONTINUOUS
 62
    52
 10
257.310260539606
 20
92.9275676179691
 30
0.0
 11
257.310260539606
 21
93.44541123708
 31
0.0
  0
LINE
  5
   66A
  8
0
  6
CONTINUOUS
 62
    52
 10
257.310260539606
 20
92.0866405082666
 30
0.0
 11
257.310260539606
 21
92.9275676179691
 31
0.0
  0
LINE
  5
   66B
  8
0
  6
CONTINUOUS
 62
    52
 10
257.310260539606
 20
90.9549350526859
 30
0.0
 11
257.310260539606
 21
92.0866405082666
 31
0.0
  0
LINE
  5
   66C
  8
0
  6
CONTINUOUS
 62
    52
 10
257.310260539606
 20
76.9538858679046
 30
0.0
 11
257.310260539606
 21
78.0855886531972
 31
0.0
  0
LINE
  5
   66D
  8
0
  6
CONTINUOUS
 62
    52
 10
257.310260539606
 20
82.7449395412562
 30
0.0
 11
257.310260539606
 21
84.5202618529416
 31
0.0
  0
LINE
  5
   66E
  8
0
  6
CONTINUOUS
 62
    52
 10
257.310260539606
 20
86.2955841646269
 30
0.0
 11
257.310260539606
 21
88.0026806168785
 31
0.0
  0
LINE
  5
   66F
  8
0
  6
CONTINUOUS
 62
    52
 10
257.310260539606
 20
88.0026806168785
 30
0.0
 11
257.310260539606
 21
89.5759502434062
 31
0.0
  0
LINE
  5
   670
  8
0
  6
CONTINUOUS
 62
    52
 10
257.310260539606
 20
76.112956087914
 30
0.0
 11
257.310260539606
 21
76.9538858679046
 31
0.0
  0
LINE
  5
   671
  8
0
  6
CONTINUOUS
 62
    52
 10
257.310260539606
 20
81.0378404187166
 30
0.0
 11
257.310260539606
 21
82.7449395412562
 31
0.0
  0
LINE
  5
   672
  8
0
  6
CONTINUOUS
 62
    52
 10
257.310260539606
 20
75.5951124688031
 30
0.0
 11
257.310260539606
 21
76.112956087914
 31
0.0
  0
LINE
  5
   673
  8
0
  6
CONTINUOUS
 62
    52
 10
257.310260539606
 20
89.5759502434062
 30
0.0
 11
257.310260539606
 21
90.9549350526859
 31
0.0
  0
LINE
  5
   674
  8
0
  6
CONTINUOUS
 62
    52
 10
257.310260539606
 20
75.4202593376256
 30
0.0
 11
257.310260539606
 21
75.5951124688031
 31
0.0
  0
LINE
  5
   675
  8
0
  6
CONTINUOUS
 62
    52
 10
256.960260545567
 20
76.8083792022917
 30
0.0
 11
256.960260545567
 21
77.9618448351141
 31
0.0
  0
LINE
  5
   676
  8
0
  6
CONTINUOUS
 62
    52
 10
256.960260545567
 20
77.9618448351141
 30
0.0
 11
256.960260545567
 21
79.3673456046356
 31
0.0
  0
LINE
  5
   677
  8
0
  6
CONTINUOUS
 62
    52
 10
256.960260545567
 20
75.95127548764
 30
0.0
 11
256.960260545567
 21
76.8083792022917
 31
0.0
  0
LINE
  5
   678
  8
0
  6
CONTINUOUS
 62
    52
 10
256.960260545567
 20
75.4234743644263
 30
0.0
 11
256.960260545567
 21
75.95127548764
 31
0.0
  0
LINE
  5
   679
  8
0
  6
CONTINUOUS
 62
    52
 10
256.960260545567
 20
93.6170466711688
 30
0.0
 11
256.960260545567
 21
93.7952670355653
 31
0.0
  0
LINE
  5
   67A
  8
0
  6
CONTINUOUS
 62
    52
 10
256.960260545567
 20
79.3673456046356
 30
0.0
 11
256.960260545567
 21
80.9708722649498
 31
0.0
  0
LINE
  5
   67B
  8
0
  6
CONTINUOUS
 62
    52
 10
256.960260545567
 20
93.089248218243
 30
0.0
 11
256.960260545567
 21
93.6170466711688
 31
0.0
  0
LINE
  5
   67C
  8
0
  6
CONTINUOUS
 62
    52
 10
256.960260545567
 20
89.6731754309594
 30
0.0
 11
256.960260545567
 21
91.078681541057
 31
0.0
  0
LINE
  5
   67D
  8
0
  6
CONTINUOUS
 62
    52
 10
256.960260545567
 20
91.078681541057
 30
0.0
 11
256.960260545567
 21
92.2321445035914
 31
0.0
  0
LINE
  5
   67E
  8
0
  6
CONTINUOUS
 62
    52
 10
256.960260545567
 20
80.9708722649498
 30
0.0
 11
256.960260545567
 21
82.7107972383708
 31
0.0
  0
LINE
  5
   67F
  8
0
  6
CONTINUOUS
 62
    52
 10
256.960260545567
 20
75.2452593406058
 30
0.0
 11
256.960260545567
 21
75.4234743644263
 31
0.0
  0
LINE
  5
   680
  8
0
  6
CONTINUOUS
 62
    52
 10
256.960260545567
 20
84.5202618529416
 30
0.0
 11
256.960260545567
 21
86.3297237972242
 31
0.0
  0
LINE
  5
   681
  8
0
  6
CONTINUOUS
 62
    52
 10
256.960260545567
 20
82.7107972383708
 30
0.0
 11
256.960260545567
 21
84.5202618529416
 31
0.0
  0
LINE
  5
   682
  8
0
  6
CONTINUOUS
 62
    52
 10
256.960260545567
 20
88.0696514409333
 30
0.0
 11
256.960260545567
 21
89.6731754309594
 31
0.0
  0
LINE
  5
   683
  8
0
  6
CONTINUOUS
 62
    52
 10
256.960260545567
 20
86.3297237972242
 30
0.0
 11
256.960260545567
 21
88.0696514409333
 31
0.0
  0
LINE
  5
   684
  8
0
  6
DASHED
 62
     7
 10
257.310260539606
 20
93.6202670385456
 30
0.0
 11
257.310260539606
 21
93.7952670355653
 31
0.0
  0
LINE
  5
   685
  8
0
  6
CONTINUOUS
 62
    52
 10
252.585260620073
 20
92.2321445035914
 30
0.0
 11
252.585260620073
 21
93.089248218243
 31
0.0
  0
LINE
  5
   686
  8
0
  6
CONTINUOUS
 62
    52
 10
252.585260620073
 20
93.6170466711688
 30
0.0
 11
252.585260620073
 21
93.7952670355653
 31
0.0
  0
LINE
  5
   687
  8
0
  6
CONTINUOUS
 62
    52
 10
252.585260620073
 20
91.078681541057
 30
0.0
 11
252.585260620073
 21
92.2321445035914
 31
0.0
  0
LINE
  5
   688
  8
0
  6
CONTINUOUS
 62
    52
 10
252.585260620073
 20
79.3673456046356
 30
0.0
 11
252.585260620073
 21
81.0202672531223
 31
0.0
  0
LINE
  5
   689
  8
0
  6
CONTINUOUS
 62
    52
 10
252.585260620073
 20
88.020267133913
 30
0.0
 11
252.585260620073
 21
89.6731754309594
 31
0.0
  0
LINE
  5
   68A
  8
0
  6
CONTINUOUS
 62
    52
 10
252.585260620073
 20
89.6731754309594
 30
0.0
 11
252.585260620073
 21
91.078681541057
 31
0.0
  0
LINE
  5
   68B
  8
0
  6
CONTINUOUS
 62
    52
 10
252.585260620073
 20
93.089248218243
 30
0.0
 11
252.585260620073
 21
93.6170466711688
 31
0.0
  0
LINE
  5
   68C
  8
0
  6
CONTINUOUS
 62
    52
 10
252.585260620073
 20
77.9618448351141
 30
0.0
 11
252.585260620073
 21
79.3673456046356
 31
0.0
  0
LINE
  5
   68D
  8
0
  6
CONTINUOUS
 62
    52
 10
252.585260620073
 20
76.8083792022917
 30
0.0
 11
252.585260620073
 21
77.9618448351141
 31
0.0
  0
LINE
  5
   68E
  8
0
  6
CONTINUOUS
 62
    52
 10
252.585260620073
 20
75.2452593406058
 30
0.0
 11
252.585260620073
 21
75.4234743644263
 31
0.0
  0
LINE
  5
   68F
  8
0
  6
CONTINUOUS
 62
    52
 10
252.585260620073
 20
75.4234743644263
 30
0.0
 11
252.585260620073
 21
75.95127548764
 31
0.0
  0
LINE
  5
   690
  8
0
  6
CONTINUOUS
 62
    52
 10
252.585260620073
 20
75.95127548764
 30
0.0
 11
252.585260620073
 21
76.8083792022917
 31
0.0
  0
INSERT
  5
   691
  8
0
  6
CONTINUOUS
 62
     7
  2
*UDIM125
 10
0.0
 20
0.0
 30
0.0
  0
INSERT
  5
   692
  8
0
  6
CONTINUOUS
 62
     7
  2
*UDIM126
 10
0.0
 20
0.0
 30
0.0
  0
INSERT
  5
   693
  8
0
  6
CONTINUOUS
 62
     7
  2
*UDIM127
 10
0.0
 20
0.0
 30
0.0
  0
TEXT
  5
   694
  8
0
  6
CONTINUOUS
 62
     1
 10
162.6225813142
 20
-193.442703264313
 30
0.0
 40
2.00000003448554
  1
M4371 97-07-07
 41
0.749999888539317
 72
     1
 11
172.972579956055
 21
-192.44270324707
 31
0.0
 73
     2
  0
INSERT
  5
   695
  8
0
  6
CONTINUOUS
 62
     7
  2
*UDIM128
 10
0.0
 20
0.0
 30
0.0
  0
INSERT
  5
   696
  8
0
  6
CONTINUOUS
 62
     7
  2
*UDIM129
 10
0.0
 20
0.0
 30
0.0
  0
INSERT
  5
   697
  8
0
  6
CONTINUOUS
 62
     7
  2
*UDIM130
 10
0.0
 20
0.0
 30
0.0
  0
TEXT
  5
   698
  8
0
  6
CONTINUOUS
 62
     1
 10
136.882583843682
 20
-193.442695395769
 30
0.0
 40
2.00000003448554
  1
M 4352 96-12-17
 41
0.749999888539317
 72
     1
 11
147.982582387009
 21
-192.442695378526
 31
0.0
 73
     2
  0
TEXT
  5
   699
  8
0
  6
CONTINUOUS
 62
     1
 10
130.357193272712
 20
-178.689426199598
 30
0.0
 40
2.00000003448554
  1
96-11-25 ZANCHI.
 41
0.749999888539317
 72
     2
 11
154.057190162307
 21
-178.689426199598
 31
0.0
  0
TEXT
  5
   69A
  8
0
  6
CONTINUOUS
 62
     1
 10
231.973706979957
 20
-204.689867759807
 30
0.0
 40
4.00000006897109
  1
605031/161
 41
0.937499981746078
 72
     2
 11
268.723706883472
 21
-204.689867759807
 31
0.0
  0
TEXT
  5
   69B
  8
0
  6
CONTINUOUS
 62
     1
 10
220.524979330424
 20
-177.398020959753
 30
0.0
 40
2.00000003448554
  1
ROTARY HANDLE OPERATING MECANISM APPLICATION
 41
0.687500013932585
 72
     1
 11
250.6374804597
 21
-176.398020942511
 31
0.0
 73
     2
  0
TEXT
  5
   69C
  8
0
  6
CONTINUOUS
 62
     1
 10
224.649979747414
 20
-180.398020959753
 30
0.0
 40
2.00000003448554
  1
WITH ADJUSTABLE DEPTH ON ISOMAX SERIES
 41
0.687500013932585
 72
     1
 11
250.637480721969
 21
-179.398020942511
 31
0.0
 73
     2
  0
TEXT
  5
   69D
  8
0
  6
CONTINUOUS
 62
     1
 10
225.47737214644
 20
-185.468272288254
 30
0.0
 40
2.00000003448554
  1
APPLICAZIONE MANIGLIA ROTANTE
 41
0.749999888539317
 72
     1
 11
247.077369310366
 21
-184.468272271012
 31
0.0
 73
     2
  0
TEXT
  5
   69E
  8
0
  6
CONTINUOUS
 62
     1
 10
221.727372901351
 20
-188.468272288254
 30
0.0
 40
2.00000003448554
  1
A DISTANZA REGOLABILE SERIE ISOMAX
 41
0.749999888539317
 72
     1
 11
247.077369572634
 21
-187.468272271012
 31
0.0
 73
     2
  0
INSERT
  5
   69F
  8
0
  6
CONTINUOUS
 62
     7
  2
*UDIM131
 10
0.0
 20
0.0
 30
0.0
  0
INSERT
  5
   6A0
  8
0
  6
CONTINUOUS
 62
     7
  2
*UDIM132
 10
0.0
 20
0.0
 30
0.0
  0
INSERT
  5
   6A1
  8
0
  6
CONTINUOUS
 62
     7
  2
*UDIM133
 10
0.0
 20
0.0
 30
0.0
  0
INSERT
  5
   6A2
  8
0
  6
CONTINUOUS
 62
     7
  2
*UDIM134
 10
0.0
 20
0.0
 30
0.0
  0
INSERT
  5
   6A3
  8
0
  6
CONTINUOUS
 62
     7
  2
*UDIM135
 10
0.0
 20
0.0
 30
0.0
  0
INSERT
  5
   6A4
  8
0
  6
CONTINUOUS
 62
     7
  2
*UDIM136
 10
0.0
 20
0.0
 30
0.0
  0
LINE
  5
   6A5
  8
0
  6
CONTINUOUS
 62
   212
 10
80.5648003028727
 20
8.05601752277985
 30
0.0
 11
80.5648003028727
 21
4.81701140455506
 31
0.0
  0
LINE
  5
   6A6
  8
0
  6
CONTINUOUS
 62
   212
 10
129.564818102062
 20
4.8159970957945
 30
0.0
 11
129.564814511027
 21
8.0519495801611
 31
0.0
  0
LINE
  5
   6A7
  8
0
  6
CONTINUOUS
 62
   212
 10
129.15628274232
 20
4.37945582270618
 30
0.0
 11
81.7022975946175
 21
4.37945582270618
 31
0.0
  0
LINE
  5
   6A8
  8
0
  6
CONTINUOUS
 62
   212
 10
92.6398080895051
 20
4.02945849895468
 30
0.0
 11
90.554729694838
 21
4.02945849895468
 31
0.0
  0
LINE
  5
   6A9
  8
0
  6
CONTINUOUS
 62
   212
 10
80.6016226812204
 20
4.72810920491158
 30
0.0
 11
80.5647152950691
 21
4.72810386433562
 31
0.0
  0
LINE
  5
   6AA
  8
0
  6
CONTINUOUS
 62
   212
 10
99.8147982131535
 20
4.03086556401615
 30
0.0
 11
99.3654581634327
 21
4.03079747166911
 31
0.0
  0
LINE
  5
   6AB
  8
0
  6
CONTINUOUS
 62
   212
 10
99.3654581524507
 20
4.03079747179744
 30
0.0
 11
98.052205153575
 21
4.03059853534734
 31
0.0
  0
LINE
  5
   6AC
  8
0
  6
CONTINUOUS
 62
   212
 10
98.0522024574717
 20
4.03059719932863
 30
0.0
 11
96.003581505421
 21
4.03028611076794
 31
0.0
  0
LINE
  5
   6AD
  8
0
  6
CONTINUOUS
 62
   212
 10
96.0035814589287
 20
4.03028611060741
 30
0.0
 11
90.5547305385385
 21
4.02945832132669
 31
0.0
  0
LINE
  5
   6AE
  8
0
  6
CONTINUOUS
 62
   212
 10
91.9398084419144
 20
4.02945841828422
 30
0.0
 11
87.6878714110529
 21
4.0290231613398
 31
0.0
  0
LINE
  5
   6AF
  8
0
  6
CONTINUOUS
 62
   212
 10
87.6878694362432
 20
4.02927202422073
 30
0.0
 11
85.1001787327934
 21
4.02863115510662
 31
0.0
  0
LINE
  5
   6B0
  8
0
  6
CONTINUOUS
 62
   212
 10
85.1001784652748
 20
4.02875411740977
 30
0.0
 11
83.044953846508
 21
4.02832019560068
 31
0.0
  0
LINE
  5
   6B1
  8
0
  6
CONTINUOUS
 62
   212
 10
83.0449567400744
 20
4.02838206794841
 30
0.0
 11
81.7233831236646
 21
4.02811904458368
 31
0.0
  0
LINE
  5
   6B2
  8
0
  6
CONTINUOUS
 62
   212
 10
81.7233830366741
 20
4.02814041884215
 30
0.0
 11
80.5648205908932
 21
4.02791441053526
 31
0.0
  0
LINE
  5
   6B3
  8
0
  6
CONTINUOUS
 62
   212
 10
83.0449563522406
 20
4.02832211298199
 30
0.0
 11
83.0274152301028
 21
4.02831944269389
 31
0.0
  0
LINE
  5
   6B4
  8
0
  6
CONTINUOUS
 62
   212
 10
85.1001810857341
 20
4.02863450323501
 30
0.0
 11
85.0760363412722
 21
4.02863049780292
 31
0.0
  0
LINE
  5
   6B5
  8
0
  6
CONTINUOUS
 62
   212
 10
91.9398084419144
 20
4.02945841828422
 30
0.0
 11
87.6878714110529
 21
4.0290231613398
 31
0.0
  0
LINE
  5
   6B6
  8
0
  6
CONTINUOUS
 62
   212
 10
92.2898080954656
 20
4.02945849895468
 30
0.0
 11
90.554729694838
 21
4.02945849895468
 31
0.0
  0
LINE
  5
   6B7
  8
0
  6
CONTINUOUS
 62
   212
 10
96.0035824314173
 20
4.03028590591019
 30
0.0
 11
92.2898099116547
 21
4.02945811662756
 31
0.0
  0
LINE
  5
   6B8
  8
0
  6
CONTINUOUS
 62
   212
 10
96.0035827105553
 20
4.03028584716293
 30
0.0
 11
92.546026998563
 21
4.02945805784693
 31
0.0
  0
LINE
  5
   6B9
  8
0
  6
CONTINUOUS
 62
   212
 10
96.0035828290178
 20
4.03028582223229
 30
0.0
 11
92.6398103032947
 21
4.02945803292138
 31
0.0
  0
LINE
  5
   6BA
  8
0
  6
CONTINUOUS
 62
   212
 10
92.6398080895051
 20
4.02945849895468
 30
0.0
 11
91.939808101426
 21
4.02945849895468
 31
0.0
  0
LINE
  5
   6BB
  8
0
  6
CONTINUOUS
 62
   212
 10
96.0035826579587
 20
4.03028585823215
 30
0.0
 11
92.4283713846156
 21
4.02944071206775
 31
0.0
  0
LINE
  5
   6BC
  8
0
  6
CONTINUOUS
 62
   212
 10
104.364775205846
 20
5.95445446074007
 30
0.0
 11
103.839775214787
 21
5.95445446074007
 31
0.0
  0
LINE
  5
   6BD
  8
0
  6
CONTINUOUS
 62
   212
 10
106.289775173064
 20
5.95445446074007
 30
0.0
 11
105.764775182004
 21
5.95445446074007
 31
0.0
  0
LINE
  5
   6BE
  8
0
  6
CONTINUOUS
 62
   212
 10
105.764775182004
 20
5.95445446074007
 30
0.0
 11
104.364775205846
 21
5.95445446074007
 31
0.0
  0
LINE
  5
   6BF
  8
0
  6
CONTINUOUS
 62
   212
 10
104.364775205846
 20
5.95445446074007
 30
0.0
 11
104.364775205846
 21
5.25451188385387
 31
0.0
  0
LINE
  5
   6C0
  8
0
  6
CONTINUOUS
 62
   212
 10
105.764775182004
 20
5.95445446074007
 30
0.0
 11
105.764775182004
 21
5.25451188385387
 31
0.0
  0
LINE
  5
   6C1
  8
0
  6
CONTINUOUS
 62
   212
 10
106.289775173064
 20
6.30451186597247
 30
0.0
 11
103.839775214787
 21
6.30451186597247
 31
0.0
  0
LINE
  5
   6C2
  8
0
  6
CONTINUOUS
 62
   212
 10
106.289775173064
 20
6.30451186597247
 30
0.0
 11
106.289775173064
 21
5.25451188385387
 31
0.0
  0
LINE
  5
   6C3
  8
0
  6
CONTINUOUS
 62
   212
 10
106.289775173064
 20
5.25451188385387
 30
0.0
 11
103.839775214787
 21
5.25451188385387
 31
0.0
  0
LINE
  5
   6C4
  8
0
  6
CONTINUOUS
 62
   212
 10
103.839775214787
 20
6.30451186597247
 30
0.0
 11
103.839775214787
 21
5.25451188385387
 31
0.0
  0
LINE
  5
   6C5
  8
0
  6
CONTINUOUS
 62
   212
 10
127.205421016962
 20
8.05349822158925
 30
0.0
 11
127.205421016962
 21
7.35350090379822
 31
0.0
  0
LINE
  5
   6C6
  8
0
  6
CONTINUOUS
 62
   212
 10
126.23981815865
 20
8.05349955673327
 30
0.0
 11
126.23981815865
 21
7.3534995686542
 31
0.0
  0
LINE
  5
   6C7
  8
0
  6
CONTINUOUS
 62
   212
 10
127.814775407253
 20
8.05349822158593
 30
0.0
 11
124.314764785705
 21
8.053500891874
 31
0.0
  0
LINE
  5
   6C8
  8
0
  6
CONTINUOUS
 62
   212
 10
124.314775473031
 20
7.35349689539406
 30
0.0
 11
124.314764791879
 21
8.05350088892811
 31
0.0
  0
LINE
  5
   6C9
  8
0
  6
CONTINUOUS
 62
   212
 10
127.814775407352
 20
7.35350223892818
 30
0.0
 11
124.314775466956
 21
7.35349689835201
 31
0.0
  0
LINE
  5
   6CA
  8
0
  6
CONTINUOUS
 62
   212
 10
127.814775407219
 20
8.05349822158925
 30
0.0
 11
127.814775407219
 21
7.35350223894224
 31
0.0
  0
LINE
  5
   6CB
  8
0
  6
CONTINUOUS
 62
   212
 10
125.567258055383
 20
7.35355297385876
 30
0.0
 11
124.314775471732
 21
7.35354095756313
 31
0.0
  0
LINE
  5
   6CC
  8
0
  6
CONTINUOUS
 62
   253
 10
99.8147412101146
 20
-10.6636305452571
 30
0.0
 11
81.2647415260192
 21
-10.6636305452571
 31
0.0
  0
LINE
  5
   6CD
  8
0
  6
CONTINUOUS
 62
   253
 10
79.1648016432638
 20
-5.58863063168625
 30
0.0
 11
79.1648003081198
 21
-9.87613055867056
 31
0.0
  0
LINE
  5
   6CE
  8
0
  6
CONTINUOUS
 62
   253
 10
115.914802352558
 20
-5.58863063168383
 30
0.0
 11
115.914802352558
 21
-9.87613055866814
 31
0.0
  0
LINE
  5
   6CF
  8
0
  6
CONTINUOUS
 62
   253
 10
115.477302360009
 20
-10.3136305512176
 30
0.0
 11
79.6023003006683
 21
-10.3136305512176
 31
0.0
  0
LINE
  5
   6D0
  8
0
  6
CONTINUOUS
 62
   253
 10
115.914801017414
 20
-5.58863063168383
 30
0.0
 11
79.1648016432629
 21
-5.58863063168383
 31
0.0
  0
LINE
  5
   6D1
  8
0
  6
CONTINUOUS
 62
   253
 10
79.2929406302817
 20
-10.1854885354694
 30
0.0
 11
79.164800184712
 21
-9.87613032693652
 31
0.0
  0
LINE
  5
   6D2
  8
0
  6
CONTINUOUS
 62
   253
 10
79.6023029763282
 20
-10.3136328551882
 30
0.0
 11
79.2929434275453
 21
-10.1854910684058
 31
0.0
  0
LINE
  5
   6D3
  8
0
  6
CONTINUOUS
 62
   253
 10
115.786664445447
 20
-10.1854893475118
 30
0.0
 11
115.477306233392
 21
-10.3136311322947
 31
0.0
  0
LINE
  5
   6D4
  8
0
  6
CONTINUOUS
 62
   253
 10
115.914804595359
 20
-9.87613197563915
 30
0.0
 11
115.786662810576
 21
-10.1854901876944
 31
0.0
  0
LINE
  5
   6D5
  8
0
  6
CONTINUOUS
 62
   253
 10
96.8398026774035
 20
-8.73863057803965
 30
0.0
 11
96.3148026863441
 21
-8.73863057803965
 31
0.0
  0
LINE
  5
   6D6
  8
0
  6
CONTINUOUS
 62
   253
 10
98.7648026446209
 20
-8.73863057803965
 30
0.0
 11
98.2398026535616
 21
-8.73863057803965
 31
0.0
  0
LINE
  5
   6D7
  8
0
  6
CONTINUOUS
 62
   253
 10
98.2398026535616
 20
-8.73863057803965
 30
0.0
 11
96.8398026774035
 21
-8.73863057803965
 31
0.0
  0
LINE
  5
   6D8
  8
0
  6
CONTINUOUS
 62
   253
 10
98.7648026446209
 20
-8.38857183766322
 30
0.0
 11
96.3148026863441
 21
-8.38857183766322
 31
0.0
  0
LINE
  5
   6D9
  8
0
  6
CONTINUOUS
 62
   253
 10
98.7648026446209
 20
-8.38857183766322
 30
0.0
 11
98.7648026446209
 21
-9.43857181978183
 31
0.0
  0
LINE
  5
   6DA
  8
0
  6
CONTINUOUS
 62
   253
 10
98.7648026446209
 20
-9.43857181978183
 30
0.0
 11
96.3148026863441
 21
-9.43857181978183
 31
0.0
  0
LINE
  5
   6DB
  8
0
  6
CONTINUOUS
 62
   253
 10
96.3148026863441
 20
-8.38857183766322
 30
0.0
 11
96.3148026863441
 21
-9.43857181978183
 31
0.0
  0
LINE
  5
   6DC
  8
0
  6
CONTINUOUS
 62
   253
 10
96.8398026774035
 20
-8.73863057803965
 30
0.0
 11
96.8398026774035
 21
-9.43857181978183
 31
0.0
  0
LINE
  5
   6DD
  8
0
  6
CONTINUOUS
 62
   253
 10
98.2398026535616
 20
-8.73863057803965
 30
0.0
 11
98.2398026535616
 21
-9.43857181978183
 31
0.0
  0
LINE
  5
   6DE
  8
0
  6
CONTINUOUS
 62
   130
 10
95.6147599736785
 20
3.85446651279254
 30
0.0
 11
85.4647895197004
 21
3.85447585880057
 31
0.0
  0
LINE
  5
   6DF
  8
0
  6
CONTINUOUS
 62
   130
 10
99.8147919456095
 20
3.67947185634718
 30
0.0
 11
81.2647588829136
 21
3.67949054836364
 31
0.0
  0
LINE
  5
   6E0
  8
0
  6
CONTINUOUS
 62
   130
 10
99.8147892753403
 20
3.15447186528778
 30
0.0
 11
81.2647615532205
 21
3.15449055730307
 31
0.0
  0
LINE
  5
   6E1
  8
0
  6
CONTINUOUS
 62
   130
 10
92.8147733727803
 20
3.1544625192879
 30
0.0
 11
92.8147733727803
 21
-1.0459846824333
 31
0.0
  0
LINE
  5
   6E2
  8
0
  6
CONTINUOUS
 62
   130
 10
88.2647734502664
 20
3.15446652471996
 30
0.0
 11
88.2647734502664
 21
-1.0459846824333
 31
0.0
  0
LINE
  5
   6E3
  8
0
  6
CONTINUOUS
 62
   130
 10
87.7397734592071
 20
3.15448403272945
 30
0.0
 11
87.7397734592071
 21
-1.0459846824333
 31
0.0
  0
LINE
  5
   6E4
  8
0
  6
CONTINUOUS
 62
   130
 10
93.3397733638397
 20
3.15447838986544
 30
0.0
 11
93.3397733638397
 21
-1.0459846824333
 31
0.0
  0
LINE
  5
   6E5
  8
0
  6
CONTINUOUS
 62
   130
 10
92.9897733698001
 20
-1.39598467647284
 30
0.0
 11
88.0897734532466
 21
-1.39598467647284
 31
0.0
  0
LINE
  5
   6E6
  8
0
  6
CONTINUOUS
 62
   130
 10
95.6217801609148
 20
3.15445717871182
 30
0.0
 11
95.6217801609148
 21
2.80447053611249
 31
0.0
  0
LINE
  5
   6E7
  8
0
  6
CONTINUOUS
 62
   130
 10
99.1217801013102
 20
2.80447053611249
 30
0.0
 11
95.6217801609148
 21
2.80447053611249
 31
0.0
  0
LINE
  5
   6E8
  8
0
  6
CONTINUOUS
 62
     2
 10
81.7400781649579
 20
-10.8386305422769
 30
0.0
 11
81.7004283929891
 21
-10.8386305422769
 31
0.0
  0
LINE
  5
   6E9
  8
0
  6
CONTINUOUS
 62
   212
 10
99.8147977599477
 20
4.03086538743181
 30
0.0
 11
99.8147443541845
 21
4.37945680453
 31
0.0
  0
LINE
  5
   6EA
  8
0
  6
CONTINUOUS
 62
   212
 10
80.5648205615666
 20
4.02810903691036
 30
0.0
 11
80.564715085189
 21
4.72810368440459
 31
0.0
  0
LINE
  5
   6EB
  8
0
  6
CONTINUOUS
 62
   212
 10
99.7302479681258
 20
4.37945448342937
 30
0.0
 11
81.020472561838
 21
4.3798923208961
 31
0.0
  0
LINE
  5
   6EC
  8
0
  6
CONTINUOUS
 62
   212
 10
105.858563708849
 20
6.30451186597247
 30
0.0
 11
105.858563708849
 21
5.95445713102811
 31
0.0
  0
LINE
  5
   6ED
  8
0
  6
CONTINUOUS
 62
   212
 10
104.387878537972
 20
6.30451186597247
 30
0.0
 11
104.387878537972
 21
5.95445713102811
 31
0.0
  0
LINE
  5
   6EE
  8
0
  6
CONTINUOUS
 62
   253
 10
81.2647415260192
 20
-10.3136305512176
 30
0.0
 11
81.2647415260192
 21
-10.6636305452571
 31
0.0
  0
LINE
  5
   6EF
  8
0
  6
CONTINUOUS
 62
   253
 10
99.8147412101146
 20
-10.3136305512176
 30
0.0
 11
99.8147412101146
 21
-10.6636305452571
 31
0.0
  0
LINE
  5
   6F0
  8
0
  6
CONTINUOUS
 62
   130
 10
85.9022761607875
 20
4.02875220776798
 30
0.0
 11
85.9022761607875
 21
3.85447452366316
 31
0.0
  0
LINE
  5
   6F1
  8
0
  6
CONTINUOUS
 62
   130
 10
95.1772760028352
 20
4.03016078470932
 30
0.0
 11
95.1772760028352
 21
3.85446517765502
 31
0.0
  0
LINE
  5
   6F2
  8
0
  6
CONTINUOUS
 62
   130
 10
85.4647895196783
 20
3.85447585880718
 30
0.0
 11
85.4647895196783
 21
3.67947586178741
 31
0.0
  0
LINE
  5
   6F3
  8
0
  6
CONTINUOUS
 62
   130
 10
95.614762648155
 20
3.67946651215287
 30
0.0
 11
95.614759977867
 21
3.85446650917264
 31
0.0
  0
LINE
  5
   6F4
  8
0
  6
CONTINUOUS
 62
   130
 10
81.2647615534618
 20
3.15449055690488
 30
0.0
 11
81.2647588831737
 21
3.67949054796418
 31
0.0
  0
LINE
  5
   6F5
  8
0
  6
CONTINUOUS
 62
   130
 10
99.8147919461095
 20
3.6794718559479
 30
0.0
 11
99.8147892758214
 21
3.1544718648886
 31
0.0
  0
LINE
  5
   6F6
  8
0
  6
CONTINUOUS
 62
   130
 10
99.1217801013102
 20
3.15447053015203
 30
0.0
 11
99.1217801013102
 21
2.80447053611249
 31
0.0
  0
CIRCLE
  5
   6F7
  8
0
  6
CONTINUOUS
 62
   130
 10
90.5397754412844
 20
0.879462513904805
 30
0.0
 40
0.875001746648938
  0
ARC
  5
   6F8
  8
0
  6
CONTINUOUS
 62
     7
 10
88.0897734532466
 20
-1.0459846824333
 30
0.0
 40
0.349999994039536
 50
179.999999896069
 51
269.999999896069
  0
ARC
  5
   6F9
  8
0
  6
CONTINUOUS
 62
     7
 10
92.9897733698001
 20
-1.0459846824333
 30
0.0
 40
0.349999994039536
 50
269.999999896069
 51
359.999999896069
  0
LINE
  5
   6FA
  8
0
  6
DASHDOT
 62
     7
 10
90.5397754412844
 20
2.45446424863281
 30
0.0
 11
90.5397754412844
 21
-24.4453001626888
 31
0.0
  0
LINE
  5
   6FB
  8
0
  6
DASHDOT
 62
     7
 10
92.1147771760124
 20
0.879462513904805
 30
0.0
 11
88.9647737065564
 21
0.879462513904805
 31
0.0
  0
LINE
  5
   6FC
  8
0
  6
CONTINUOUS
 62
     7
 10
92.2897754114821
 20
-1.39598467647284
 30
0.0
 11
92.2897754114821
 21
-2.78863067936754
 31
0.0
  0
LINE
  5
   6FD
  8
0
  6
CONTINUOUS
 62
     7
 10
88.7897754710867
 20
-1.39598467647284
 30
0.0
 11
88.7897754710867
 21
-2.78863067936754
 31
0.0
  0
LINE
  5
   6FE
  8
0
  6
CONTINUOUS
 62
     7
 10
144.439774523373
 20
-4.88863064360476
 30
0.0
 11
74.3503694100349
 21
-4.88863064360476
 31
0.0
  0
LINE
  5
   6FF
  8
0
  6
CONTINUOUS
 62
   170
 10
95.2647753608181
 20
-2.78863067936754
 30
0.0
 11
85.8147755217507
 21
-2.78863067936754
 31
0.0
  0
LINE
  5
   700
  8
0
  6
CONTINUOUS
 62
   170
 10
95.2647753608181
 20
-2.78863067936754
 30
0.0
 11
95.2647753608181
 21
-4.88863064360476
 31
0.0
  0
LINE
  5
   701
  8
0
  6
CONTINUOUS
 62
   170
 10
85.8147755217507
 20
-2.78863067936754
 30
0.0
 11
85.8147755217507
 21
-4.88863064360476
 31
0.0
  0
LINE
  5
   702
  8
0
  6
CONTINUOUS
 62
   170
 10
95.7897753518774
 20
-3.31363067042685
 30
0.0
 11
95.7897753518774
 21
-4.88863064360476
 31
0.0
  0
LINE
  5
   703
  8
0
  6
CONTINUOUS
 62
   170
 10
85.2897755306914
 20
-3.31363067042685
 30
0.0
 11
85.2897755306914
 21
-4.88863064360476
 31
0.0
  0
LINE
  5
   704
  8
0
  6
CONTINUOUS
 62
   170
 10
85.8147755217507
 20
-2.78863067936754
 30
0.0
 11
85.2897755306914
 21
-3.31363067042685
 31
0.0
  0
LINE
  5
   705
  8
0
  6
CONTINUOUS
 62
   170
 10
95.7897753518774
 20
-3.31363067042684
 30
0.0
 11
95.2647753608181
 21
-2.78863067936754
 31
0.0
  0
LINE
  5
   706
  8
0
  6
CONTINUOUS
 62
     7
 10
144.439774523373
 20
-2.29294663880005
 30
0.0
 11
144.439774523373
 21
-7.71811163356582
 31
0.0
  0
LINE
  5
   707
  8
0
  6
CONTINUOUS
 62
     7
 10
129.564814511027
 20
8.05194957250088
 30
0.0
 11
80.5648003028727
 21
8.05601752269253
 31
0.0
  0
LINE
  5
   708
  8
0
  6
CONTINUOUS
 62
     7
 10
144.439774523373
 20
-5.58863063168383
 30
0.0
 11
74.3503694100349
 21
-5.58863063168383
 31
0.0
  0
CIRCLE
  5
   709
  8
0
  6
CONTINUOUS
 62
     7
 10
143.039774547215
 20
-4.18863065552569
 30
0.0
 40
0.699999988079071
  0
LINE
  5
   70A
  8
0
  6
DASHDOT
 62
     7
 10
143.039774547215
 20
-2.78863067936754
 30
0.0
 11
143.039774547215
 21
-27.3119955290669
 31
0.0
  0
LINE
  5
   70B
  8
0
  6
DASHDOT
 62
     7
 10
144.439774523373
 20
-4.18863065552569
 30
0.0
 11
141.639774571057
 21
-4.18863065552569
 31
0.0
  0
LINE
  5
   70C
  8
0
  6
CONTINUOUS
 62
     7
 10
74.3503694100349
 20
-2.1233858481931
 30
0.0
 11
74.3503694100349
 21
-8.58397811174684
 31
0.0
  0
ARC
  5
   70D
  8
0
  6
CONTINUOUS
 62
     7
 10
92.4647733787408
 20
-1.0459846824333
 30
0.0
 40
0.349999994039536
 50
269.999999896069
 51
359.999999896069
  0
ARC
  5
   70E
  8
0
  6
CONTINUOUS
 62
     7
 10
88.6147734443059
 20
-1.0459846824333
 30
0.0
 40
0.349999994039536
 50
179.999999896069
 51
269.999999896069
  0
LINE
  5
   70F
  8
0
  6
DASHDOT
 62
     7
 10
105.064775193925
 20
10.3989199461482
 30
0.0
 11
105.064775193925
 21
-26.3730496624505
 31
0.0
  0
ARC
  5
   710
  8
0
  6
CONTINUOUS
 62
   212
 10
129.127333251908
 20
4.81598014549125
 30
0.0
 40
0.437483208109691
 50
273.794194733193
 51
360.000063478932
  0
ARC
  5
   711
  8
0
  6
CONTINUOUS
 62
   212
 10
81.0022904533455
 20
4.81700687137073
 30
0.0
 40
0.437492536285825
 50
539.999267555261
 51
632.381887852422
  0
CIRCLE
  5
   712
  8
0
  6
CONTINUOUS
 62
     3
 10
90.5397754412844
 20
0.879462513904805
 30
0.0
 40
1.39999997615814
  0
LINE
  5
   713
  8
0
  6
CONTINUOUS
 62
     3
 10
90.5397754412844
 20
2.49604324010555
 30
0.0
 11
89.1397754651263
 21
1.68775287700517
 31
0.0
  0
LINE
  5
   714
  8
0
  6
CONTINUOUS
 62
     3
 10
91.9397754174426
 20
1.68775287700518
 30
0.0
 11
90.5397754412844
 21
2.49604324010555
 31
0.0
  0
LINE
  5
   715
  8
0
  6
CONTINUOUS
 62
     3
 10
91.9397754174426
 20
7.11721508044256E-2
 30
0.0
 11
90.5397754412844
 21
-0.737118212295947
 31
0.0
  0
LINE
  5
   716
  8
0
  6
CONTINUOUS
 62
     3
 10
90.5397754412844
 20
-0.737118212295943
 30
0.0
 11
89.1397754651263
 21
7.11721508044327E-2
 31
0.0
  0
LINE
  5
   717
  8
0
  6
CONTINUOUS
 62
     3
 10
89.1397754651263
 20
1.68775287700518
 30
0.0
 11
89.1397754651263
 21
7.11721508044327E-2
 31
0.0
  0
LINE
  5
   718
  8
0
  6
CONTINUOUS
 62
     3
 10
91.9397754174426
 20
1.68775287700518
 30
0.0
 11
91.9397754174426
 21
7.11721508044327E-2
 31
0.0
  0
LINE
  5
   719
  8
0
  6
DASHDOT
 62
     7
 10
90.5397754412844
 20
2.97946247814202
 30
0.0
 11
90.5397754412844
 21
-1.22053745033241
 31
0.0
  0
LINE
  5
   71A
  8
0
  6
DASHDOT
 62
     7
 10
92.6397754055216
 20
0.879462513904802
 30
0.0
 11
88.4397754770472
 21
0.879462513904802
 31
0.0
  0
CIRCLE
  5
   71B
  8
0
  6
CONTINUOUS
 62
     3
 10
90.5397754412844
 20
0.879462513904805
 30
0.0
 40
0.874999985098839
  0
ARC
  5
   71C
  8
0
  6
CONTINUOUS
 62
     7
 10
90.5397754412844
 20
0.879462513904805
 30
0.0
 40
0.734999987483024
 50
269.999999896069
 51
539.999999896069
  0
TEXT
  5
   71D
  8
0
  6
CONTINUOUS
 62
     7
 10
103.815518824907
 20
-40.8584635290431
 30
0.0
 40
2.99999997871263
  1
Y
 50
359.999999896069
 41
0.916666703091727
 11
103.815518830333
 21
-37.8584635503305
 31
0.0
 73
     3
  0
INSERT
  5
   71E
  8
255
  6
CONTINUOUS
 62
     7
  2
PIANTA
 10
59.446418762207
 20
19.4294528961182
 30
0.0
 41
0.349999994039536
 42
0.349999994039536
 50
359.999999792138
 43
0.349999994039536
  0
INSERT
  5
   71F
  8
0
  6
CONTINUOUS
 62
     7
  2
*UDIM137
 10
0.0
 20
0.0
 30
0.0
  0
CIRCLE
  5
   720
  8
0
  6
CONTINUOUS
 62
   253
 10
90.5397723452481
 20
-68.8064811757492
 30
0.0
 40
5.77499990165234
  0
CIRCLE
  5
   721
  8
0
  6
CONTINUOUS
 62
   253
 10
81.0939740161023
 20
-60.7496789311916
 30
0.0
 40
0.874999985098839
  0
CIRCLE
  5
   722
  8
0
  6
CONTINUOUS
 62
   253
 10
99.9939811867367
 20
-60.7496733740932
 30
0.0
 40
0.874999985098839
  0
CIRCLE
  5
   723
  8
0
  6
CONTINUOUS
 62
   253
 10
99.9939878415326
 20
-76.8496730999118
 30
0.0
 40
0.874999985098839
  0
CIRCLE
  5
   724
  8
0
  6
CONTINUOUS
 62
   253
 10
81.0939815086017
 20
-76.8496655698716
 30
0.0
 40
0.874999985098839
  0
LINE
  5
   725
  8
0
  6
DASHDOT
 62
     7
 10
77.4676231582339
 20
-68.8064811757492
 30
0.0
 11
103.400791721376
 21
-68.8064811757492
 31
0.0
  0
LINE
  5
   726
  8
0
  6
DASHDOT
 62
     7
 10
90.5397723452481
 20
-80.2515137575129
 30
0.0
 11
90.5397723452481
 21
-60.5273182196345
 31
0.0
  0
LINE
  5
   727
  8
0
  6
DASHDOT
 62
     7
 10
79.8252349010734
 20
-76.8496655698716
 30
0.0
 11
83.3653780359547
 21
-76.8496655698716
 31
0.0
  0
LINE
  5
   728
  8
0
  6
DASHDOT
 62
     7
 10
81.0939815086017
 20
-84.917222303213
 30
0.0
 11
81.0939815086017
 21
-74.8512022335008
 31
0.0
  0
LINE
  5
   729
  8
0
  6
DASHDOT
 62
     7
 10
97.1290047862647
 20
-76.8496730999118
 30
0.0
 11
101.26273655486
 21
-76.8496730999118
 31
0.0
  0
LINE
  5
   72A
  8
0
  6
DASHDOT
 62
     7
 10
99.9939878415326
 20
-78.1184218132394
 30
0.0
 11
99.9939878415326
 21
-73.6256738242267
 31
0.0
  0
LINE
  5
   72B
  8
0
  6
DASHDOT
 62
     7
 10
92.321162565266
 20
-60.7496733740932
 30
0.0
 11
101.262730356119
 21
-60.7496733740932
 31
0.0
  0
LINE
  5
   72C
  8
0
  6
DASHDOT
 62
     7
 10
99.9939811867367
 20
-65.5183320397975
 30
0.0
 11
99.9939811867367
 21
-59.4809242047106
 31
0.0
  0
LINE
  5
   72D
  8
0
  6
DASHDOT
 62
     7
 10
79.8252166616083
 20
-60.7496789311916
 30
0.0
 11
84.873720693523
 21
-60.7496789311916
 31
0.0
  0
LINE
  5
   72E
  8
0
  6
DASHDOT
 62
     7
 10
81.0939740161023
 20
-63.3500894695432
 30
0.0
 11
81.0939740161023
 21
-59.4809215766976
 31
0.0
  0
LINE
  5
   72F
  8
0
  6
DASHDOT
 62
     7
 10
105.064772097889
 20
-108.373327736397
 30
0.0
 11
105.064772097889
 21
-50.1562391485313
 31
0.0
  0
LINE
  5
   730
  8
0
  6
CONTINUOUS
 62
     7
 10
77.593974075707
 20
-98.3813214512622
 30
0.0
 11
77.593974075707
 21
-57.2496789907962
 31
0.0
  0
LINE
  5
   731
  8
0
  6
CONTINUOUS
 62
     7
 10
77.593974075707
 20
-98.3813214512622
 30
0.0
 11
143.039774547215
 21
-98.3813214512622
 31
0.0
  0
LINE
  5
   732
  8
0
  6
CONTINUOUS
 62
     7
 10
77.593974075707
 20
-57.2496789907962
 30
0.0
 11
143.039774547215
 21
-57.2496789907962
 31
0.0
  0
LINE
  5
   733
  8
0
  6
DASHDOT
 62
     1
 10
74.1296720098741
 20
-78.6064810088562
 30
0.0
 11
147.387935533757
 21
-78.6064810088562
 31
0.0
  0
POINT
  5
   734
  8
0
  6
CONTINUOUS
 62
     7
 10
96.3147722469005
 20
-68.8064811757492
 30
0.0
  0
POINT
  5
   735
  8
0
  6
CONTINUOUS
 62
     7
 10
84.7647724435958
 20
-68.8064811757492
 30
0.0
  0
POINT
  5
   736
  8
0
  6
CONTINUOUS
 62
     7
 10
100.868981171835
 20
-60.7496733740932
 30
0.0
  0
POINT
  5
   737
  8
0
  6
CONTINUOUS
 62
     7
 10
99.1189812016378
 20
-60.7496733740932
 30
0.0
  0
LINE
  5
   738
  8
0
  6
CONTINUOUS
 62
     7
 10
143.039774547215
 20
-98.3813214512622
 30
0.0
 11
143.039774547215
 21
-71.6064811280655
 31
0.0
  0
LINE
  5
   739
  8
0
  6
CONTINUOUS
 62
     7
 10
143.739774535294
 20
-92.6064807704377
 30
0.0
 11
143.739774535294
 21
-89.1064808300423
 31
0.0
  0
LINE
  5
   73A
  8
0
  6
CONTINUOUS
 62
     7
 10
143.039774547215
 20
-71.6064811280655
 30
0.0
 11
143.739774535294
 21
-71.6064811280655
 31
0.0
  0
LINE
  5
   73B
  8
0
  6
CONTINUOUS
 62
     7
 10
143.039774547215
 20
-68.1064811876702
 30
0.0
 11
143.739774535294
 21
-68.1064811876702
 31
0.0
  0
LINE
  5
   73C
  8
0
  6
CONTINUOUS
 62
     7
 10
143.039774547215
 20
-92.6064807704377
 30
0.0
 11
143.739774535294
 21
-92.6064807704377
 31
0.0
  0
LINE
  5
   73D
  8
0
  6
CONTINUOUS
 62
     7
 10
143.039774547215
 20
-71.6064811280655
 30
0.0
 11
143.039774547215
 21
-57.2496789907962
 31
0.0
  0
LINE
  5
   73E
  8
0
  6
CONTINUOUS
 62
     7
 10
143.739774535294
 20
-71.6064811280655
 30
0.0
 11
143.739774535294
 21
-68.1064811876702
 31
0.0
  0
LINE
  5
   73F
  8
0
  6
CONTINUOUS
 62
     7
 10
143.039774547215
 20
-89.1064808300423
 30
0.0
 11
143.739774535294
 21
-89.1064808300423
 31
0.0
  0
LINE
  5
   740
  8
0
  6
DASHDOT
 62
     7
 10
143.389774541254
 20
-102.665684179147
 30
0.0
 11
143.389774541254
 21
-71.6064811280655
 31
0.0
  0
LINE
  5
   741
  8
0
  6
DASHDOT
 62
     7
 10
90.5397723452481
 20
-103.275221108646
 30
0.0
 11
90.5397723452481
 21
-87.323081015361
 31
0.0
  0
TEXT
  5
   742
  8
0
  6
CONTINUOUS
 62
     7
 10
64.0149604086669
 20
-80.1421402500136
 30
0.0
 40
2.99999997871263
  1
X
 41
0.916666703091727
 72
     1
 11
65.1149604495387
 21
-78.6421402606573
 31
0.0
 73
     2
  0
TEXT
  5
   743
  8
0
  6
CONTINUOUS
 62
     7
 10
148.294505355647
 20
-79.8241629422156
 30
0.0
 40
2.99999997871263
  1
X
 41
0.916666703091727
 72
     1
 11
149.394505396519
 21
-78.3241629528593
 31
0.0
 73
     2
  0
TEXT
  5
   744
  8
0
  6
CONTINUOUS
 62
     7
 10
103.715548807484
 20
-114.452227667392
 30
0.0
 40
2.99999997871263
  1
Y
 41
0.916666703091727
 11
103.715548807484
 21
-111.45222768868
 31
0.0
 73
     3
  0
INSERT
  5
   745
  8
0
  6
CONTINUOUS
 62
     7
  2
*UDIM138
 10
0.0
 20
0.0
 30
0.0
  0
INSERT
  5
   746
  8
0
  6
CONTINUOUS
 62
     7
  2
*UDIM139
 10
0.0
 20
0.0
 30
0.0
  0
INSERT
  5
   747
  8
0
  6
CONTINUOUS
 62
     7
  2
*UDIM140
 10
0.0
 20
0.0
 30
0.0
  0
INSERT
  5
   748
  8
0
  6
CONTINUOUS
 62
     7
  2
*UDIM141
 10
0.0
 20
0.0
 30
0.0
  0
INSERT
  5
   749
  8
0
  6
CONTINUOUS
 62
     7
  2
*UDIM142
 10
0.0
 20
0.0
 30
0.0
  0
INSERT
  5
   74A
  8
0
  6
CONTINUOUS
 62
     7
  2
*UDIM143
 10
0.0
 20
0.0
 30
0.0
  0
INSERT
  5
   74B
  8
0
  6
CONTINUOUS
 62
     7
  2
*UDIM144
 10
0.0
 20
0.0
 30
0.0
  0
LINE
  5
   74C
  8
0
  6
DASHDOT
 62
     2
 10
254.15278659887
 20
-57.8064831234515
 30
0.0
 11
235.671252693255
 21
-57.8064831234515
 31
0.0
  0
LINE
  5
   74D
  8
0
  6
DASHDOT
 62
     2
 10
254.911357020369
 20
-105.206483829767
 30
0.0
 11
235.533330798437
 21
-105.206483829767
 31
0.0
  0
LINE
  5
   74E
  8
0
  6
DASHDOT
 62
     2
 10
238.235763445497
 20
-25.8667936255522
 30
0.0
 11
238.235763445497
 21
-106.168414683315
 31
0.0
  0
LINE
  5
   74F
  8
0
  6
DASHDOT
 62
     2
 10
252.235763654113
 20
-26.0892176555758
 30
0.0
 11
252.235763654113
 21
-106.030492788497
 31
0.0
  0
LINE
  5
   750
  8
0
  6
DASHDOT
 62
     2
 10
245.235763549805
 20
-52.3788757042863
 30
0.0
 11
245.235763549805
 21
-112.236978055308
 31
0.0
  0
CIRCLE
  5
   751
  8
0
  6
CONTINUOUS
 62
     7
 10
252.235763654113
 20
-57.8064831234515
 30
0.0
 40
0.550000008195639
  0
CIRCLE
  5
   752
  8
0
  6
CONTINUOUS
 62
     7
 10
238.235763445497
 20
-57.8064831234515
 30
0.0
 40
0.550000008195639
  0
CIRCLE
  5
   753
  8
0
  6
CONTINUOUS
 62
     7
 10
238.235763445497
 20
-105.206483829767
 30
0.0
 40
0.550000008195639
  0
CIRCLE
  5
   754
  8
0
  6
CONTINUOUS
 62
     7
 10
252.235763654113
 20
-105.206483829767
 30
0.0
 40
0.550000008195639
  0
LINE
  5
   755
  8
0
  6
DASHDOT
 62
     2
 10
263.449378834183
 20
-78.6064834333956
 30
0.0
 11
209.984482289035
 21
-78.6064834333956
 31
0.0
  0
LINE
  5
   756
  8
0
  6
DASHDOT
 62
     7
 10
231.235763341188
 20
-23.4564826115966
 30
0.0
 11
231.235763341188
 21
-33.8564827665687
 31
0.0
  0
LINE
  5
   757
  8
0
  6
DASHDOT
 62
     7
 10
236.435763418674
 20
-29.806482706219
 30
0.0
 11
226.035763263702
 21
-29.806482706219
 31
0.0
  0
LINE
  5
   758
  8
0
  6
DASHDOT
 62
     7
 10
245.235763549805
 20
-18.6711427971945
 30
0.0
 11
245.235763549805
 21
-61.4564831778407
 31
0.0
  0
LINE
  5
   759
  8
0
  6
DASHDOT
 62
     7
 10
250.435763627291
 20
-29.806482706219
 30
0.0
 11
240.035763472319
 21
-29.806482706219
 31
0.0
  0
LINE
  5
   75A
  8
0
  6
DASHDOT
 62
     7
 10
259.235763758421
 20
-24.6064826287329
 30
0.0
 11
259.235763758421
 21
-35.006482783705
 31
0.0
  0
LINE
  5
   75B
  8
0
  6
DASHDOT
 62
     7
 10
264.435763835907
 20
-29.806482706219
 30
0.0
 11
254.035763680935
 21
-29.806482706219
 31
0.0
  0
LINE
  5
   75C
  8
0
  6
DASHDOT
 62
     7
 10
259.235763758421
 20
-99.2564837411046
 30
0.0
 11
259.235763758421
 21
-109.656483896077
 31
0.0
  0
LINE
  5
   75D
  8
0
  6
DASHDOT
 62
     7
 10
264.435763835907
 20
-105.606483835727
 30
0.0
 11
254.035763680935
 21
-105.606483835727
 31
0.0
  0
LINE
  5
   75E
  8
0
  6
DASHDOT
 62
     7
 10
245.235763549805
 20
-99.2564837411046
 30
0.0
 11
245.235763549805
 21
-116.145108851718
 31
0.0
  0
LINE
  5
   75F
  8
0
  6
DASHDOT
 62
     7
 10
250.435763627291
 20
-105.606483835727
 30
0.0
 11
240.035763472319
 21
-105.606483835727
 31
0.0
  0
LINE
  5
   760
  8
0
  6
DASHDOT
 62
     7
 10
231.235763341188
 20
-99.2564837411046
 30
0.0
 11
231.235763341188
 21
-109.656483896077
 31
0.0
  0
LINE
  5
   761
  8
0
  6
DASHDOT
 62
     7
 10
236.435763418674
 20
-105.606483835727
 30
0.0
 11
226.035763263702
 21
-105.606483835727
 31
0.0
  0
LINE
  5
   762
  8
0
  6
CONTINUOUS
 62
     7
 10
225.415216178175
 20
-20.6175865169941
 30
0.0
 11
225.415216178175
 21
-111.226899924378
 31
0.0
  0
CIRCLE
  5
   763
  8
0
  6
CONTINUOUS
 62
     7
 10
227.144874110193
 20
-25.729040556843
 30
0.0
 40
0.175
  0
LINE
  5
   764
  8
0
  6
CONTINUOUS
 62
     7
 10
264.826608755044
 20
-21.5667427922534
 30
0.0
 11
225.415216178175
 21
-21.5667427922534
 31
0.0
  0
LINE
  5
   765
  8
0
  6
CONTINUOUS
 62
     7
 10
264.826608755044
 20
-111.226899924378
 30
0.0
 11
225.415216178175
 21
-111.226899924378
 31
0.0
  0
LINE
  5
   766
  8
0
  6
CONTINUOUS
 62
     7
 10
264.826608755044
 20
-20.7287985320059
 30
0.0
 11
264.826608755044
 21
-111.226899924378
 31
0.0
  0
ARC
  5
   767
  8
0
  6
CONTINUOUS
 62
     7
 10
231.235763341188
 20
-29.806482706219
 30
0.0
 40
3.50000005215406
 50
359.999999896069
 51
629.999999896069
  0
ARC
  5
   768
  8
0
  6
CONTINUOUS
 62
     7
 10
245.235763549805
 20
-29.806482706219
 30
0.0
 40
3.50000005215406
 50
359.999999896069
 51
539.999999896069
  0
ARC
  5
   769
  8
0
  6
CONTINUOUS
 62
     7
 10
259.235763758421
 20
-29.806482706219
 30
0.0
 40
3.50000005215406
 50
269.999999896069
 51
539.999999896069
  0
ARC
  5
   76A
  8
0
  6
CONTINUOUS
 62
     7
 10
231.235763341188
 20
-105.606483835727
 30
0.0
 40
3.50000005215406
 50
449.999999896069
 51
719.999999896069
  0
ARC
  5
   76B
  8
0
  6
CONTINUOUS
 62
     7
 10
245.235763549805
 20
-105.606483835727
 30
0.0
 40
3.50000005215406
 50
179.999999896069
 51
359.999999896069
  0
ARC
  5
   76C
  8
0
  6
CONTINUOUS
 62
     7
 10
259.235763758421
 20
-105.606483835727
 30
0.0
 40
3.50000005215406
 50
179.999999896069
 51
449.999999896069
  0
LINE
  5
   76D
  8
0
  6
CONTINUOUS
 62
     7
 10
259.235763758421
 20
-33.306482758373
 30
0.0
 11
231.235763341188
 21
-33.306482758373
 31
0.0
  0
LINE
  5
   76E
  8
0
  6
CONTINUOUS
 62
     7
 10
259.235763758421
 20
-102.106483783573
 30
0.0
 11
231.235763341188
 21
-102.106483783573
 31
0.0
  0
LINE
  5
   76F
  8
0
  6
CONTINUOUS
 62
     7
 10
255.735763706267
 20
-103.706483807415
 30
0.0
 11
248.735763601959
 21
-103.706483807415
 31
0.0
  0
LINE
  5
   770
  8
0
  6
CONTINUOUS
 62
     7
 10
255.735763706267
 20
-31.7064827345312
 30
0.0
 11
248.735763601959
 21
-31.7064827345312
 31
0.0
  0
LINE
  5
   771
  8
0
  6
CONTINUOUS
 62
     7
 10
234.735763393343
 20
-29.806482706219
 30
0.0
 11
234.735763393343
 21
-31.7064827345312
 31
0.0
  0
LINE
  5
   772
  8
0
  6
CONTINUOUS
 62
     7
 10
241.735763497651
 20
-29.806482706219
 30
0.0
 11
241.735763497651
 21
-31.7064827345312
 31
0.0
  0
LINE
  5
   773
  8
0
  6
CONTINUOUS
 62
     7
 10
248.735763601959
 20
-29.806482706219
 30
0.0
 11
248.735763601959
 21
-31.7064827345312
 31
0.0
  0
LINE
  5
   774
  8
0
  6
CONTINUOUS
 62
     7
 10
255.735763706267
 20
-29.806482706219
 30
0.0
 11
255.735763706267
 21
-31.7064827345312
 31
0.0
  0
LINE
  5
   775
  8
0
  6
CONTINUOUS
 62
     7
 10
241.735763497651
 20
-31.7064827345312
 30
0.0
 11
234.735763393343
 21
-31.7064827345312
 31
0.0
  0
LINE
  5
   776
  8
0
  6
CONTINUOUS
 62
     7
 10
234.735763393343
 20
-103.706483807415
 30
0.0
 11
234.735763393343
 21
-105.606483835727
 31
0.0
  0
LINE
  5
   777
  8
0
  6
CONTINUOUS
 62
     7
 10
241.735763497651
 20
-103.706483807415
 30
0.0
 11
241.735763497651
 21
-105.606483835727
 31
0.0
  0
LINE
  5
   778
  8
0
  6
CONTINUOUS
 62
     7
 10
248.735763601959
 20
-103.706483807415
 30
0.0
 11
248.735763601959
 21
-105.606483835727
 31
0.0
  0
LINE
  5
   779
  8
0
  6
CONTINUOUS
 62
     7
 10
255.735763706267
 20
-103.706483807415
 30
0.0
 11
255.735763706267
 21
-105.606483835727
 31
0.0
  0
LINE
  5
   77A
  8
0
  6
CONTINUOUS
 62
     7
 10
241.735763497651
 20
-103.706483807415
 30
0.0
 11
234.735763393343
 21
-103.706483807415
 31
0.0
  0
ARC
  5
   77B
  8
0
  6
CONTINUOUS
 62
     7
 10
259.235763758421
 20
-105.606483835727
 30
0.0
 40
3.50000005215406
 50
483.928032185622
 51
547.491880120627
  0
CIRCLE
  5
   77C
  8
0
  6
CONTINUOUS
 62
     7
 10
238.235763445497
 20
-30.2064827121794
 30
0.0
 40
0.550000008195639
  0
CIRCLE
  5
   77D
  8
0
  6
CONTINUOUS
 62
     7
 10
252.235763654113
 20
-30.2064827121794
 30
0.0
 40
0.550000008195639
  0
LINE
  5
   77E
  8
0
  6
DASHDOT
 62
     2
 10
254.15278659887
 20
-30.2064827121794
 30
0.0
 11
235.671252693255
 21
-30.2064827121794
 31
0.0
  0
LINE
  5
   77F
  8
0
  6
CONTINUOUS
 62
     7
 10
292.50061728503
 20
-12.5914328996395
 30
0.0
 11
212.43388917765
 21
-12.5914328996395
 31
0.0
  0
LINE
  5
   780
  8
0
  6
CONTINUOUS
 62
     7
 10
259.589753584451
 20
-12.5914328996395
 30
0.0
 11
259.589753584451
 21
-24.7630342758974
 31
0.0
  0
LINE
  5
   781
  8
0
  6
CONTINUOUS
 62
     7
 10
259.589753584451
 20
-24.7630342758974
 30
0.0
 11
258.892072994103
 21
-22.1592548652645
 31
0.0
  0
LINE
  5
   782
  8
0
  6
CONTINUOUS
 62
     7
 10
260.2874341748
 20
-22.1592548652579
 30
0.0
 11
259.589753584451
 21
-24.7630342758974
 31
0.0
  0
TEXT
  5
   783
  8
0
  6
CONTINUOUS
 62
     7
 10
243.802582622305
 20
-17.3103202418874
 30
0.0
 40
2.99999994933605
  1
Y
 50
359.999999896069
 41
0.916666607525612
 72
     1
 11
244.902582534122
 21
-15.8103202692092
 31
0.0
 73
     2
  0
TEXT
  5
   784
  8
0
  6
CONTINUOUS
 62
     7
 10
244.183597007374
 20
-120.684679942129
 30
0.0
 40
2.99999994933605
  1
Y
 50
359.999999896069
 41
0.916666607525612
 72
     2
 11
246.38359682558
 21
-120.684679946109
 31
0.0
  0
INSERT
  5
   785
  8
0
  6
CONTINUOUS
 62
     7
  2
*UDIM145
 10
0.0
 20
0.0
 30
0.0
  0
INSERT
  5
   786
  8
0
  6
CONTINUOUS
 62
     7
  2
*UDIM146
 10
0.0
 20
0.0
 30
0.0
  0
TEXT
  5
   787
  8
0
  6
CONTINUOUS
 62
     1
 10
213.221663149811
 20
-7.99804729857142
 30
0.0
 40
2.00000007748604
  1
FORATURA DA ESEGUIRE PER ESECUZIONE TERM. POSTERIORI
 50
359.999999896069
 41
0.749999997615814
 72
     1
 11
252.071664526849
 21
-6.99804733010478
 31
0.0
 73
     2
  0
TEXT
  5
   788
  8
0
  6
CONTINUOUS
 62
     1
 10
218.471663336523
 20
-10.9980473080682
 30
0.0
 40
2.00000007748604
  1
REAR TERMINAL EXECTION ONLY DRILLING TEMPLATE
 50
359.999999896069
 41
0.749999997615814
 72
     1
 11
252.071664526849
 21
-9.99804733010478
 31
0.0
 73
     2
  0
INSERT
  5
   789
  8
0
  6
CONTINUOUS
 62
     7
  2
*UDIM147
 10
0.0
 20
0.0
 30
0.0
  0
INSERT
  5
   78A
  8
0
  6
CONTINUOUS
 62
     7
  2
*UDIM148
 10
0.0
 20
0.0
 30
0.0
  0
INSERT
  5
   78B
  8
0
  6
CONTINUOUS
 62
     7
  2
*UDIM149
 10
0.0
 20
0.0
 30
0.0
  0
INSERT
  5
   78C
  8
0
  6
CONTINUOUS
 62
     7
  2
*UDIM150
 10
0.0
 20
0.0
 30
0.0
  0
INSERT
  5
   78D
  8
0
  6
CONTINUOUS
 62
     7
  2
*UDIM151
 10
0.0
 20
0.0
 30
0.0
  0
INSERT
  5
   78E
  8
0
  6
CONTINUOUS
 62
     7
  2
*UDIM152
 10
0.0
 20
0.0
 30
0.0
  0
INSERT
  5
   78F
  8
0
  6
CONTINUOUS
 62
     7
  2
*UDIM153
 10
0.0
 20
0.0
 30
0.0
  0
INSERT
  5
   790
  8
0
  6
CONTINUOUS
 62
     7
  2
*UDIM154
 10
0.0
 20
0.0
 30
0.0
  0
TEXT
  5
   791
  8
0
  6
CONTINUOUS
 62
     7
 10
205.539556290533
 20
-79.4922980159861
 30
0.0
 40
2.99999994933605
  1
X
 50
359.999999896069
 41
0.916666607525612
 72
     2
 11
207.739556108739
 21
-79.4922980199657
 31
0.0
  0
TEXT
  5
   792
  8
0
  6
CONTINUOUS
 62
     7
 10
278.011261472008
 20
-79.2648768242428
 30
0.0
 40
2.99999994933605
  1
X
 50
359.999999896069
 41
0.916666607525612
 72
     2
 11
280.211261290214
 21
-79.2648768282224
 31
0.0
  0
TEXT
  5
   793
  8
0
  6
CONTINUOUS
 62
     7
 10
248.831337025963
 20
-77.079917761533
 30
0.0
 40
2.99999994933605
  1
=
 50
359.999999896069
 41
0.916666607525612
 72
     2
 11
251.031336844168
 21
-77.0799177655126
 31
0.0
  0
TEXT
  5
   794
  8
0
  6
CONTINUOUS
 62
     7
 10
240.582679676485
 20
-77.079917761533
 30
0.0
 40
2.99999994933605
  1
=
 50
359.999999896069
 41
0.916666607525612
 72
     2
 11
242.782679494691
 21
-77.0799177655126
 31
0.0
  0
INSERT
  5
   795
  8
0
  6
CONTINUOUS
 62
     7
  2
*UDIM155
 10
0.0
 20
0.0
 30
0.0
  0
ENDSEC
  0
EOF
