  0
SECTION
  2
HEADER
  9
$ACADVER
  1
AC1009
  9
$DWGCODEPAGE
  3
iso8859-1
  9
$INSBASE
 10
0.0
 20
0.0
 30
0.0
  9
$EXTMIN
 10
1.0E20
 20
1.0E20
  9
$EXTMAX
 10
-1.0E20
 20
-1.0E20
  9
$LIMMIN
 10
0.0
 20
0.0
  9
$LIMMAX
 10
12.0
 20
9.0
  9
$ORTHOMODE
 70
     0
  9
$REGENMODE
 70
     1
  9
$FILLMODE
 70
     1
  9
$QTEXTMODE
 70
     0
  9
$MIRRTEXT
 70
     1
  9
$DRAGMODE
 70
     2
  9
$LTSCALE
 40
15.0
  9
$OSMODE
 70
     0
  9
$ATTMODE
 70
     1
  9
$TEXTSIZE
 40
0.2
  9
$TRACEWID
 40
0.05
  9
$TEXTSTYLE
  7
STANDARD
  9
$CLAYER
  8
0
  9
$CELTYPE
  6
DASHED
  9
$CECOLOR
 62
   256
  9
$DIMSCALE
 40
1.0
  9
$DIMASZ
 40
0.18
  9
$DIMEXO
 40
0.0625
  9
$DIMDLI
 40
0.38
  9
$DIMRND
 40
0.0
  9
$DIMDLE
 40
0.0
  9
$DIMEXE
 40
0.18
  9
$DIMTP
 40
0.0
  9
$DIMTM
 40
0.0
  9
$DIMTXT
 40
0.18
  9
$DIMCEN
 40
0.09
  9
$DIMTSZ
 40
0.0
  9
$DIMTOL
 70
     0
  9
$DIMLIM
 70
     0
  9
$DIMTIH
 70
     1
  9
$DIMTOH
 70
     1
  9
$DIMSE1
 70
     0
  9
$DIMSE2
 70
     0
  9
$DIMTAD
 70
     0
  9
$DIMZIN
 70
     0
  9
$DIMBLK
  1

  9
$DIMASO
 70
     1
  9
$DIMSHO
 70
     1
  9
$DIMPOST
  1

  9
$DIMAPOST
  1

  9
$DIMALT
 70
     0
  9
$DIMALTD
 70
     2
  9
$DIMALTF
 40
25.4
  9
$DIMLFAC
 40
1.0
  9
$DIMTOFL
 70
     0
  9
$DIMTVP
 40
0.0
  9
$DIMTIX
 70
     0
  9
$DIMSOXD
 70
     0
  9
$DIMSAH
 70
     0
  9
$DIMBLK1
  1

  9
$DIMBLK2
  1

  9
$DIMSTYLE
  2
STANDARD
  9
$DIMCLRD
 70
     0
  9
$DIMCLRE
 70
     0
  9
$DIMCLRT
 70
     0
  9
$DIMTFAC
 40
1.0
  9
$DIMGAP
 40
0.09
  9
$LUNITS
 70
     2
  9
$LUPREC
 70
     4
  9
$AXISMODE
 70
     0
  9
$AXISUNIT
 10
0.0
 20
0.0
  9
$SKETCHINC
 40
0.1
  9
$FILLETRAD
 40
0.0
  9
$AUNITS
 70
     0
  9
$AUPREC
 70
     0
  9
$MENU
  1
acad
  9
$ELEVATION
 40
0.0
  9
$PELEVATION
 40
0.0
  9
$THICKNESS
 40
0.0
  9
$LIMCHECK
 70
     0
  9
$BLIPMODE
 70
     1
  9
$CHAMFERA
 40
0.0
  9
$CHAMFERB
 40
0.0
  9
$SKPOLY
 70
     0
  9
$TDCREATE
 40
0.000000000
  9
$TDUPDATE
 40
0.000000000
  9
$TDINDWG
 40
0.0
  9
$TDUSRTIMER
 40
0.0
  9
$USRTIMER
 70
     1
  9
$ANGBASE
 50
0.0
  9
$ANGDIR
 70
     0
  9
$PDMODE
 70
     0
  9
$PDSIZE
 40
0.0
  9
$PLINEWID
 40
0.0
  9
$COORDS
 70
     1
  9
$SPLFRAME
 70
     0
  9
$SPLINETYPE
 70
     6
  9
$SPLINESEGS
 70
     8
  9
$ATTDIA
 70
     0
  9
$ATTREQ
 70
     1
  9
$HANDLING
 70
     1
  9
$HANDSEED
  5
   597
  9
$SURFTAB1
 70
     6
  9
$SURFTAB2
 70
     6
  9
$SURFTYPE
 70
     6
  9
$SURFU
 70
     6
  9
$SURFV
 70
     6
  9
$UCSNAME
  2

  9
$UCSORG
 10
0.0
 20
0.0
 30
0.0
  9
$UCSXDIR
 10
1.0
 20
0.0
 30
0.0
  9
$UCSYDIR
 10
0.0
 20
1.0
 30
0.0
  9
$PUCSNAME
  2

  9
$PUCSORG
 10
0.0
 20
0.0
 30
0.0
  9
$PUCSXDIR
 10
1.0
 20
0.0
 30
0.0
  9
$PUCSYDIR
 10
0.0
 20
1.0
 30
0.0
  9
$USERI1
 70
     0
  9
$USERI2
 70
     0
  9
$USERI3
 70
     0
  9
$USERI4
 70
     0
  9
$USERI5
 70
     0
  9
$USERR1
 40
0.0
  9
$USERR2
 40
0.0
  9
$USERR3
 40
0.0
  9
$USERR4
 40
0.0
  9
$USERR5
 40
0.0
  9
$WORLDVIEW
 70
     1
  9
$SHADEDGE
 70
     3
  9
$SHADEDIF
 70
    70
  9
$TILEMODE
 70
     1
  9
$MAXACTVP
 70
    16
  9
$PINSBASE
 10
0.0
 20
0.0
 30
0.0
  9
$PLIMCHECK
 70
     0
  9
$PEXTMIN
 10
1.0E20
 20
1.0E20
 30
1.0E20
  9
$PEXTMAX
 10
-1.0E20
 20
-1.0E20
 30
-1.0E20
  9
$PLIMMIN
 10
0.0
 20
0.0
  9
$PLIMMAX
 10
12.0
 20
9.0
  9
$UNITMODE
 70
     0
  9
$VISRETAIN
 70
     0
  0
ENDSEC
  0
SECTION
  2
TABLES
  0
TABLE
  2
VPORT
 70
     1
  0
VPORT
  2
*ACTIVE
 70
     0
 10
0.0
 20
0.0
 11
1.0
 21
1.0
 12
6.801242
 22
4.5
 13
0.0
 23
0.0
 14
1.0
 24
1.0
 15
0.0
 25
0.0
 16
0.0
 26
0.0
 36
1.0
 17
0.0
 27
0.0
 37
0.0
 40
9.0
 41
1.511387
 42
50.0
 43
0.0
 44
0.0
 50
0.0
 51
0.0
 71
     0
 72
   100
 73
     1
 74
     1
 75
     0
 76
     0
 77
     0
 78
     0
  0
ENDTAB
  0
TABLE
  2
LTYPE
 70
    41
  0
LTYPE
  2
BYBLOCK
 70
     0
  3

 72
    65
 73
     0
 40
0.0
  0
LTYPE
  2
BYLAYER
 70
     0
  3

 72
    65
 73
     0
 40
0.0
  0
LTYPE
  2
CONTINUOUS
 70
     0
  3
Solid line
 72
    65
 73
     0
 40
0.0
  0
LTYPE
  2
BORDER
 70
    64
  3
__ __ . __ __ . __ __ . __ __ . __ __ . __ __ .
 72
    65
 73
     6
 40
1.75
 49
0.5
 49
-0.25
 49
0.5
 49
-0.25
 49
0.0
 49
-0.25
  0
LTYPE
  2
BORDER2
 70
    64
  3
__.__.__.__.__.__.__.__.__.__.__.__.__.__.__.__
 72
    65
 73
     6
 40
0.875
 49
0.25
 49
-0.125
 49
0.25
 49
-0.125
 49
0.0
 49
-0.125
  0
LTYPE
  2
BORDERX2
 70
    64
  3
____  ____  .  ____  ____  .  ____  ____  .  __
 72
    65
 73
     6
 40
3.5
 49
1.0
 49
-0.5
 49
1.0
 49
-0.5
 49
0.0
 49
-0.5
  0
LTYPE
  2
CENTER
 70
    64
  3
____ _ ____ _ ____ _ ____ _ ____ _ ____ _ ____
 72
    65
 73
     4
 40
2.0
 49
1.25
 49
-0.25
 49
0.25
 49
-0.25
  0
LTYPE
  2
CENTER2
 70
    64
  3
___ _ ___ _ ___ _ ___ _ ___ _ ___ _ ___ _ ___ _
 72
    65
 73
     4
 40
1.125
 49
0.75
 49
-0.125
 49
0.125
 49
-0.125
  0
LTYPE
  2
CENTERX2
 70
    64
  3
________  __  ________  __  ________  __  _____
 72
    65
 73
     4
 40
4.0
 49
2.5
 49
-0.5
 49
0.5
 49
-0.5
  0
LTYPE
  2
DASHDOT
 70
    64
  3
__ . __ . __ . __ . __ . __ . __ . __ . __ . __
 72
    65
 73
     4
 40
1.0
 49
0.5
 49
-0.25
 49
0.0
 49
-0.25
  0
LTYPE
  2
DASHDOT2
 70
    64
  3
_._._._._._._._._._._._._._._._._._._._._._._._
 72
    65
 73
     4
 40
0.5
 49
0.25
 49
-0.125
 49
0.0
 49
-0.125
  0
LTYPE
  2
DASHDOTX2
 70
    64
  3
____  .  ____  .  ____  .  ____  .  ____  .  __
 72
    65
 73
     4
 40
2.0
 49
1.0
 49
-0.5
 49
0.0
 49
-0.5
  0
LTYPE
  2
DASHED
 70
    64
  3
__ __ __ __ __ __ __ __ __ __ __ __ __ __ __ __
 72
    65
 73
     2
 40
0.75
 49
0.5
 49
-0.25
  0
LTYPE
  2
DASHED2
 70
    64
  3
_ _ _ _ _ _ _ _ _ _ _ _ _ _ _ _ _ _ _ _ _ _ _ _
 72
    65
 73
     2
 40
0.375
 49
0.25
 49
-0.125
  0
LTYPE
  2
DASHEDX2
 70
    64
  3
____  ____  ____  ____  ____  ____  ____  ____
 72
    65
 73
     2
 40
1.5
 49
1.0
 49
-0.5
  0
LTYPE
  2
DIVIDE
 70
    64
  3
____ . . ____ . . ____ . . ____ . . ____ . . __
 72
    65
 73
     6
 40
1.25
 49
0.5
 49
-0.25
 49
0.0
 49
-0.25
 49
0.0
 49
-0.25
  0
LTYPE
  2
DIVIDE2
 70
    64
  3
__..__..__..__..__..__..__..__..__..__..__..__.
 72
    65
 73
     6
 40
0.625
 49
0.25
 49
-0.125
 49
0.0
 49
-0.125
 49
0.0
 49
-0.125
  0
LTYPE
  2
DIVIDEX2
 70
    64
  3
________  .  .  ________  .  .  ________  .  .
 72
    65
 73
     6
 40
2.5
 49
1.0
 49
-0.5
 49
0.0
 49
-0.5
 49
0.0
 49
-0.5
  0
LTYPE
  2
DOT
 70
    64
  3
. . . . . . . . . . . . . . . . . . . . . . . .
 72
    65
 73
     2
 40
0.25
 49
0.0
 49
-0.25
  0
LTYPE
  2
DOT2
 70
    64
  3
...............................................
 72
    65
 73
     2
 40
0.125
 49
0.0
 49
-0.125
  0
LTYPE
  2
DOTX2
 70
    64
  3
.  .  .  .  .  .  .  .  .  .  .  .  .  .  .  .
 72
    65
 73
     2
 40
0.5
 49
0.0
 49
-0.5
  0
LTYPE
  2
HIDDEN
 70
    64
  3
__ __ __ __ __ __ __ __ __ __ __ __ __ __ __ __
 72
    65
 73
     2
 40
0.375
 49
0.25
 49
-0.125
  0
LTYPE
  2
HIDDEN2
 70
    64
  3
_ _ _ _ _ _ _ _ _ _ _ _ _ _ _ _ _ _ _ _ _ _ _ _
 72
    65
 73
     2
 40
0.1875
 49
0.125
 49
-0.0625
  0
LTYPE
  2
HIDDENX2
 70
    64
  3
____ ____ ____ ____ ____ ____ ____ ____ ____ __
 72
    65
 73
     2
 40
0.75
 49
0.5
 49
-0.25
  0
LTYPE
  2
PHANTOM
 70
    64
  3
______  __  __  ______  __  __  ______  __  __
 72
    65
 73
     6
 40
2.5
 49
1.25
 49
-0.25
 49
0.25
 49
-0.25
 49
0.25
 49
-0.25
  0
LTYPE
  2
PHANTOM2
 70
    64
  3
___ _ _ ___ _ _ ___ _ _ ___ _ _ ___ _ _ ___ _ _
 72
    65
 73
     6
 40
1.25
 49
0.625
 49
-0.125
 49
0.125
 49
-0.125
 49
0.125
 49
-0.125
  0
LTYPE
  2
PHANTOMX2
 70
    64
  3
____________    ____    ____    ____________
 72
    65
 73
     6
 40
5.0
 49
2.5
 49
-0.5
 49
0.5
 49
-0.5
 49
0.5
 49
-0.5
  0
LTYPE
  2
ACAD_ISO02W100
 70
    64
  3
__ __ __ __ __ __ __ __ __ __ __ __ __ __ __ __
 72
    65
 73
     2
 40
15.0
 49
12.0
 49
-3.0
  0
LTYPE
  2
ACAD_ISO03W100
 70
    64
  3
__    __    __    __    __    __    __    __
 72
    65
 73
     2
 40
30.0
 49
12.0
 49
-18.0
  0
LTYPE
  2
ACAD_ISO04W100
 70
    64
  3
____ . ____ . ____ . ____ . ____ . ____ . ____
 72
    65
 73
     4
 40
30.5
 49
24.0
 49
-3.0
 49
0.5
 49
-3.0
  0
LTYPE
  2
ACAD_ISO05W100
 70
    64
  3
____ .. ____ .. ____ .. ____ .. ____ .. ____ ..
 72
    65
 73
     6
 40
34.0
 49
24.0
 49
-3.0
 49
0.5
 49
-3.0
 49
0.5
 49
-3.0
  0
LTYPE
  2
ACAD_ISO06W100
 70
    64
  3
____ ... ____ ... ____ ... ____ ... ____ ... __
 72
    65
 73
     8
 40
37.5
 49
24.0
 49
-3.0
 49
0.5
 49
-3.0
 49
0.5
 49
-3.0
 49
0.5
 49
-3.0
  0
LTYPE
  2
ACAD_ISO07W100
 70
    64
  3
. . . . . . . . . . . . . . . . . . . . . . . .
 72
    65
 73
     2
 40
3.5
 49
0.5
 49
-3.0
  0
LTYPE
  2
ACAD_ISO08W100
 70
    64
  3
____ __ ____ __ ____ __ ____ ____ __ __ ____ __
 72
    65
 73
     4
 40
36.0
 49
24.0
 49
-3.0
 49
6.0
 49
-3.0
  0
LTYPE
  2
ACAD_ISO09W100
 70
    64
  3
____ __ __ ____ __ __ ____ __ __ ____ __ __ ___
 72
    65
 73
     6
 40
45.0
 49
24.0
 49
-3.0
 49
6.0
 49
-3.0
 49
6.0
 49
-3.0
  0
LTYPE
  2
ACAD_ISO10W100
 70
    64
  3
__ . __ . __ . __ . __ . __ . __ . __ . __ . __
 72
    65
 73
     4
 40
18.5
 49
12.0
 49
-3.0
 49
0.5
 49
-3.0
  0
LTYPE
  2
ACAD_ISO11W100
 70
    64
  3
__ __ . __ __ . __ __ . __ __ . __ __ . __ __ .
 72
    65
 73
     6
 40
33.5
 49
12.0
 49
-3.0
 49
12.0
 49
-3.0
 49
0.5
 49
-3.0
  0
LTYPE
  2
ACAD_ISO12W100
 70
    64
  3
__ . . __ . . __ . . __ . . __ . . __ . . __ .
 72
    65
 73
     6
 40
22.0
 49
12.0
 49
-3.0
 49
0.5
 49
-3.0
 49
0.5
 49
-3.0
  0
LTYPE
  2
ACAD_ISO13W100
 70
    64
  3
__ __ . . __ __ . . __ __ . . __ __ . . __ __ .
 72
    65
 73
     8
 40
37.0
 49
12.0
 49
-3.0
 49
12.0
 49
-3.0
 49
0.5
 49
-3.0
 49
0.5
 49
-3.0
  0
LTYPE
  2
ACAD_ISO14W100
 70
    64
  3
__ . . . __ . . . __ . . . __ . . . __ . . . __
 72
    65
 73
     8
 40
25.5
 49
12.0
 49
-3.0
 49
0.5
 49
-3.0
 49
0.5
 49
-3.0
 49
0.5
 49
-3.0
  0
LTYPE
  2
ACAD_ISO15W100
 70
    64
  3
__ __ . . . __ __ . . . __ __ . . . __ __ . . .
 72
    65
 73
    10
 40
40.5
 49
12.0
 49
-3.0
 49
12.0
 49
-3.0
 49
0.5
 49
-3.0
 49
0.5
 49
-3.0
 49
0.5
 49
-3.0
  0
ENDTAB
  0
TABLE
  2
STYLE
 70
     4
  0
STYLE
  2
STANDARD
 70
    64
 40
0.0
 41
1.0
 50
0.0
 71
     0
 42
0.2
  3
txt
  4

  0
STYLE
  2
TOLERANCE
 70
    64
 40
0.0
 41
1.0
 50
0.0
 71
     0
 42
0.2
  3
../igesfont/iges1003.shx
  4

  0
STYLE
  2
ROMANS
 70
    64
 40
0.0
 41
1.0
 50
0.0
 71
     0
 42
0.2
  3
romans.shx
  4

  0
STYLE
  2
ROMANC
 70
    64
 40
0.0
 41
1.0
 50
0.0
 71
     0
 42
0.2
  3
romanc.shx
  4

  0
ENDTAB
  0
TABLE
  2
DIMSTYLE
 70
     2
  0
DIMSTYLE
  2
UNNAMED
 70
     0
  3

  4

  5

  6

  7

 40
1.0
 41
0.18
 42
0.0625
 43
0.38
 44
0.18
 45
0.0
 46
0.0
 47
0.0
 48
0.0
140
0.18
141
0.09
142
0.0
143
25.4
144
1.0
145
0.0
146
1.0
147
0.09
 71
     0
 72
     0
 73
     1
 74
     1
 75
     0
 76
     0
 77
     0
 78
     0
170
     0
171
     2
172
     0
173
     0
174
     0
175
     0
176
     0
177
     0
178
     0
  0
DIMSTYLE
  2
STANDARD
 70
     0
  3

  4

  5

  6

  7

 40
1.0
 41
0.18
 42
0.0625
 43
0.38
 44
0.18
 45
0.0
 46
0.0
 47
0.0
 48
0.0
140
0.18
141
0.09
142
0.0
143
25.4
144
1.0
145
0.0
146
1.0
147
0.09
 71
     0
 72
     0
 73
     1
 74
     1
 75
     0
 76
     0
 77
     0
 78
     0
170
     0
171
     2
172
     0
173
     0
174
     0
175
     0
176
     0
177
     0
178
     0
  0
ENDTAB
  0
TABLE
  2
LAYER
 70
     2
  0
LAYER
  2
0
 70
     0
 62
     7
  6
CONTINUOUS
  0
LAYER
  2
255
 70
     0
 62
     7
  6
CONTINUOUS
  0
ENDTAB
  0
ENDSEC
  0
SECTION
  2
BLOCKS
  0
BLOCK
  5
     B
  8
0
  6
CONTINUOUS
 62
     5
  2
*UDIM580
 70
    65
 10
0.0
 20
0.0
 30
0.0
  3
*UDIM580
  0
TEXT
  5
     C
  8
0
  6
CONTINUOUS
 62
     5
 10
-642.475942623806
 20
-116.737411192784
 30
0.0
 40
3.00000002980232
  1
65,75
 50
449.999999896069
 41
0.933333333333333
 72
     1
 11
-643.975942626596
 21
-110.037411123514
 31
0.0
 73
     2
  0
LINE
  5
     D
  8
0
  6
CONTINUOUS
 62
     5
 10
-629.271847574581
 20
-102.093521118164
 30
0.0
 11
-643.475942611694
 21
-102.093521118164
 31
0.0
  0
LINE
  5
     E
  8
0
  6
CONTINUOUS
 62
     5
 10
-641.475942611694
 20
-102.093521118164
 30
0.0
 11
-641.475942611694
 21
-118.531021118164
 31
0.0
  0
LINE
  5
     F
  8
0
  6
CONTINUOUS
 62
     5
 10
-640.954998181743
 20
-105.047944395371
 30
0.0
 11
-641.475942611694
 21
-102.093521118164
 31
0.0
  0
LINE
  5
    10
  8
0
  6
CONTINUOUS
 62
     5
 10
-641.475942611694
 20
-102.093521118164
 30
0.0
 11
-641.996887041646
 21
-105.047944395371
 31
0.0
  0
LINE
  5
    11
  8
0
  6
CONTINUOUS
 62
     5
 10
-641.996887041646
 20
-115.576597840957
 30
0.0
 11
-641.475942611694
 21
-118.531021118164
 31
0.0
  0
LINE
  5
    12
  8
0
  6
CONTINUOUS
 62
     5
 10
-641.475942611694
 20
-118.531021118164
 30
0.0
 11
-640.954998181743
 21
-115.576597840957
 31
0.0
  0
ENDBLK
  5
    13
  8
0
  6
CONTINUOUS
 62
     5
  0
BLOCK
  5
    14
  8
0
  6
CONTINUOUS
 62
     7
  2
*UDIM581
 70
    65
 10
0.0
 20
0.0
 30
0.0
  3
*UDIM581
  0
TEXT
  5
    15
  8
0
  6
CONTINUOUS
 62
     7
 10
-581.643321917415
 20
-97.7790487944257
 30
0.0
 40
3.00000002980232
  1
6
 50
372.466948566418
 41
0.933333333333334
 72
     1
 11
-580.893073733935
 21
-96.0769536936957
 31
0.0
 73
     2
  0
TEXT
  5
    16
  8
0
  6
CONTINUOUS
 62
     7
 10
-584.719047128483
 20
-98.4590594477155
 30
0.0
 40
3.00000002980232
  1
Ø
 50
372.466948566418
 41
0.933333333333334
 72
     1
 11
-583.968798945003
 21
-96.7569643469855
 31
0.0
 73
     2
  0
TEXT
  5
    17
  8
0
  6
CONTINUOUS
 62
     7
 10
-578.958164964793
 20
-97.1853886849745
 30
0.0
 40
3.00000002980232
  1
 (M5)
 50
372.466948566418
 41
0.933333333333333
 72
     1
 11
-572.739960811265
 21
-94.2743857578669
 31
0.0
 73
     2
  0
LINE
  5
    18
  8
0
  6
CONTINUOUS
 62
     7
 10
-565.658251067812
 20
-95.2690656439995
 30
0.0
 11
-597.25795028976
 21
-102.255428416056
 31
0.0
  0
LINE
  5
    19
  8
0
  6
CONTINUOUS
 62
     7
 10
-593.021018807143
 20
-100.785162643064
 30
0.0
 11
-595.79331924149
 21
-101.931613820272
 31
0.0
  0
LINE
  5
    1A
  8
0
  6
CONTINUOUS
 62
     7
 10
-595.79331924149
 20
-101.931613820272
 30
0.0
 11
-592.796099593796
 21
-101.802484491771
 31
0.0
  0
LINE
  5
    1B
  8
0
  6
CONTINUOUS
 62
     7
 10
-600.030250724107
 20
-103.401879593264
 30
0.0
 11
-597.25795028976
 21
-102.255428416056
 31
0.0
  0
LINE
  5
    1C
  8
0
  6
CONTINUOUS
 62
     7
 10
-597.25795028976
 20
-102.255428416056
 30
0.0
 11
-600.255169937454
 21
-102.384557744557
 31
0.0
  0
ENDBLK
  5
    1D
  8
0
  6
CONTINUOUS
 62
     7
  0
BLOCK
  5
    1E
  8
0
  6
CONTINUOUS
 62
     7
  2
*UDIM582
 70
    65
 10
0.0
 20
0.0
 30
0.0
  3
*UDIM582
  0
TEXT
  5
    1F
  8
0
  6
CONTINUOUS
 62
     7
 10
-608.494139617415
 20
-145.681266777613
 30
0.0
 40
3.00000002980232
  1
115
 50
359.999999896069
 41
0.933333333333333
 72
     1
 11
-604.594139575958
 21
-144.181266769767
 31
0.0
 73
     2
  0
LINE
  5
    20
  8
0
  6
CONTINUOUS
 62
     7
 10
-596.525634765625
 20
-141.632569357113
 30
0.0
 11
-596.525634765625
 21
-148.681266784668
 31
0.0
  0
LINE
  5
    21
  8
0
  6
CONTINUOUS
 62
     7
 10
-625.275634765625
 20
-140.804216581347
 30
0.0
 11
-625.275634765625
 21
-148.681266784668
 31
0.0
  0
LINE
  5
    22
  8
0
  6
CONTINUOUS
 62
     7
 10
-596.525634765625
 20
-146.681266784668
 30
0.0
 11
-625.275634765625
 21
-146.681266784668
 31
0.0
  0
LINE
  5
    23
  8
0
  6
CONTINUOUS
 62
     7
 10
-599.480058042832
 20
-147.20221121462
 30
0.0
 11
-596.525634765625
 21
-146.681266784668
 31
0.0
  0
LINE
  5
    24
  8
0
  6
CONTINUOUS
 62
     7
 10
-596.525634765625
 20
-146.681266784668
 30
0.0
 11
-599.480058042832
 21
-146.160322354716
 31
0.0
  0
LINE
  5
    25
  8
0
  6
CONTINUOUS
 62
     7
 10
-622.321211488418
 20
-146.160322354716
 30
0.0
 11
-625.275634765625
 21
-146.681266784668
 31
0.0
  0
LINE
  5
    26
  8
0
  6
CONTINUOUS
 62
     7
 10
-625.275634765625
 20
-146.681266784668
 30
0.0
 11
-622.321211488418
 21
-147.20221121462
 31
0.0
  0
ENDBLK
  5
    27
  8
0
  6
CONTINUOUS
 62
     7
  0
BLOCK
  5
    28
  8
0
  6
CONTINUOUS
 62
     7
  2
*UDIM583
 70
    65
 10
0.0
 20
0.0
 30
0.0
  3
*UDIM583
  0
TEXT
  5
    29
  8
0
  6
CONTINUOUS
 62
     7
 10
-652.701683051484
 20
-123.143518777385
 30
0.0
 40
3.00000002980232
  1
135
 50
449.999999896069
 41
0.933333333333333
 72
     1
 11
-654.201683059335
 21
-119.24351873593
 31
0.0
 73
     2
  0
LINE
  5
    2A
  8
0
  6
CONTINUOUS
 62
     7
 10
-629.27184757458
 20
-102.093520334452
 30
0.0
 11
-653.701683044433
 21
-102.093501188501
 31
0.0
  0
LINE
  5
    2B
  8
0
  6
CONTINUOUS
 62
     7
 10
-629.323619623066
 20
-135.843520332717
 30
0.0
 11
-653.701683044433
 21
-135.84350118503
 31
0.0
  0
LINE
  5
    2C
  8
0
  6
CONTINUOUS
 62
     7
 10
-651.701683044434
 20
-102.093502755925
 30
0.0
 11
-651.701683044434
 21
-135.843502755925
 31
0.0
  0
LINE
  5
    2D
  8
0
  6
CONTINUOUS
 62
     7
 10
-651.180738614482
 20
-105.047926033132
 30
0.0
 11
-651.701683044434
 21
-102.093502755925
 31
0.0
  0
LINE
  5
    2E
  8
0
  6
CONTINUOUS
 62
     7
 10
-651.701683044434
 20
-102.093502755925
 30
0.0
 11
-652.222627474385
 21
-105.047926033132
 31
0.0
  0
LINE
  5
    2F
  8
0
  6
CONTINUOUS
 62
     7
 10
-652.222627474385
 20
-132.889079478718
 30
0.0
 11
-651.701683044434
 21
-135.843502755925
 31
0.0
  0
LINE
  5
    30
  8
0
  6
CONTINUOUS
 62
     7
 10
-651.701683044434
 20
-135.843502755925
 30
0.0
 11
-651.180738614482
 21
-132.889079478718
 31
0.0
  0
ENDBLK
  5
    31
  8
0
  6
CONTINUOUS
 62
     7
  0
BLOCK
  5
    32
  8
0
  6
CONTINUOUS
 62
     7
  2
MOSTRA
 70
    64
 10
0.0
 20
0.0
 30
0.0
  3
MOSTRA
  0
LINE
  5
    33
  8
0
  6
CONTINUOUS
 62
     2
 10
175.338317871094
 20
34.312744140625
 30
0.0
 11
210.838317871094
 21
34.312744140625
 31
0.0
  0
LINE
  5
    34
  8
0
  6
CONTINUOUS
 62
     2
 10
175.338317871094
 20
49.312744140625
 30
0.0
 11
210.838317871094
 21
49.312744140625
 31
0.0
  0
LINE
  5
    35
  8
0
  6
CONTINUOUS
 62
     2
 10
210.838317871094
 20
33.312744140625
 30
0.0
 11
210.838317871094
 21
50.312744140625
 31
0.0
  0
LINE
  5
    36
  8
0
  6
CONTINUOUS
 62
     2
 10
175.338317871094
 20
34.312744140625
 30
0.0
 11
175.338317871094
 21
49.312744140625
 31
0.0
  0
LINE
  5
    37
  8
0
  6
CONTINUOUS
 62
     2
 10
210.838317871094
 20
50.312744140625
 30
0.0
 11
210.838317871094
 21
148.306442260742
 31
0.0
  0
LINE
  5
    38
  8
0
  6
CONTINUOUS
 62
     2
 10
210.838317871094
 20
-10.187255859375
 30
0.0
 11
210.838317871094
 21
33.3127403259278
 31
0.0
  0
LINE
  5
    39
  8
0
  6
CONTINUOUS
 62
     2
 10
37.5883140563965
 20
-11.437255859375
 30
0.0
 11
209.588317871094
 21
-11.437255859375
 31
0.0
  0
LINE
  5
    3A
  8
0
  6
CONTINUOUS
 62
     2
 10
36.3383140563965
 20
-10.187255859375
 30
0.0
 11
36.3383140563965
 21
148.306442260742
 31
0.0
  0
LINE
  5
    3B
  8
0
  6
CONTINUOUS
 62
     2
 10
175.338317871094
 20
128.562744140625
 30
0.0
 11
175.338317871094
 21
129.562744140625
 31
0.0
  0
LINE
  5
    3C
  8
0
  6
CONTINUOUS
 62
     2
 10
45.3383140563965
 20
128.562744140625
 30
0.0
 11
45.3383140563965
 21
129.562744140625
 31
0.0
  0
LINE
  5
    3D
  8
0
  6
CONTINUOUS
 62
     2
 10
175.338317871094
 20
8.56274414062501
 30
0.0
 11
175.338317871094
 21
9.56274414062501
 31
0.0
  0
LINE
  5
    3E
  8
0
  6
CONTINUOUS
 62
     2
 10
46.3383140563965
 20
8.562744140625
 30
0.0
 11
174.338314056396
 21
8.56274414062501
 31
0.0
  0
LINE
  5
    3F
  8
0
  6
CONTINUOUS
 62
     2
 10
45.3383140563965
 20
8.562744140625
 30
0.0
 11
45.3383140563965
 21
9.562744140625
 31
0.0
  0
LINE
  5
    40
  8
0
  6
CONTINUOUS
 62
     2
 10
174.338317871094
 20
-11.437255859375
 30
0.0
 11
174.338317871094
 21
8.56274414062501
 31
0.0
  0
LINE
  5
    41
  8
0
  6
CONTINUOUS
 62
     2
 10
175.338317871094
 20
129.562744140625
 30
0.0
 11
175.338317871094
 21
149.562744140625
 31
0.0
  0
LINE
  5
    42
  8
0
  6
CONTINUOUS
 62
     2
 10
175.338317871094
 20
9.56274414062501
 30
0.0
 11
175.338317871094
 21
33.312744140625
 31
0.0
  0
LINE
  5
    43
  8
0
  6
CONTINUOUS
 62
     2
 10
175.338317871094
 20
50.312744140625
 30
0.0
 11
175.338317871094
 21
128.562744140625
 31
0.0
  0
LINE
  5
    44
  8
0
  6
CONTINUOUS
 62
     2
 10
175.338317871094
 20
-11.437255859375
 30
0.0
 11
175.338317871094
 21
8.56274414062501
 31
0.0
  0
LINE
  5
    45
  8
0
  6
CONTINUOUS
 62
     2
 10
45.3383140563965
 20
129.562744140625
 30
0.0
 11
45.3383140563965
 21
149.562744140625
 31
0.0
  0
LINE
  5
    46
  8
0
  6
CONTINUOUS
 62
     2
 10
45.3383140563965
 20
9.562744140625
 30
0.0
 11
45.3383140563965
 21
128.562744140625
 31
0.0
  0
LINE
  5
    47
  8
0
  6
CONTINUOUS
 62
     2
 10
45.3383140563965
 20
-11.437255859375
 30
0.0
 11
45.3383140563965
 21
8.562744140625
 31
0.0
  0
LINE
  5
    48
  8
0
  6
CONTINUOUS
 62
     2
 10
46.3383140563965
 20
-11.437255859375
 30
0.0
 11
46.3383140563965
 21
8.562744140625
 31
0.0
  0
LINE
  5
    49
  8
0
  6
CONTINUOUS
 62
     2
 10
175.338317871094
 20
33.312744140625
 30
0.0
 11
210.838317871094
 21
33.312744140625
 31
0.0
  0
LINE
  5
    4A
  8
0
  6
CONTINUOUS
 62
     2
 10
175.338317871094
 20
50.312744140625
 30
0.0
 11
210.838317871094
 21
50.312744140625
 31
0.0
  0
LINE
  5
    4B
  8
0
  6
CONTINUOUS
 62
     2
 10
175.388320922852
 20
49.312744140625
 30
0.0
 11
175.388320922852
 21
50.312744140625
 31
0.0
  0
LINE
  5
    4C
  8
0
  6
CONTINUOUS
 62
     2
 10
175.388320922852
 20
33.312744140625
 30
0.0
 11
175.388320922852
 21
34.312744140625
 31
0.0
  0
LINE
  5
    4D
  8
0
  6
CONTINUOUS
 62
     2
 10
46.3383140563965
 20
128.562744140625
 30
0.0
 11
174.338314056396
 21
128.562744140625
 31
0.0
  0
LINE
  5
    4E
  8
0
  6
CONTINUOUS
 62
     2
 10
46.3383140563965
 20
9.562744140625
 30
0.0
 11
174.338314056396
 21
9.56274414062501
 31
0.0
  0
LINE
  5
    4F
  8
0
  6
CONTINUOUS
 62
     2
 10
174.338317871094
 20
9.56274414062501
 30
0.0
 11
174.338317871094
 21
128.562744140625
 31
0.0
  0
LINE
  5
    50
  8
0
  6
CONTINUOUS
 62
     2
 10
46.3383140563965
 20
9.562744140625
 30
0.0
 11
46.3383140563965
 21
128.562744140625
 31
0.0
  0
LINE
  5
    51
  8
0
  6
CONTINUOUS
 62
     2
 10
167.338315963745
 20
121.562743016692
 30
0.0
 11
174.338312295455
 21
128.562739348402
 31
0.0
  0
LINE
  5
    52
  8
0
  6
CONTINUOUS
 62
     2
 10
46.3383156391412
 20
128.562746004959
 30
0.0
 11
62.3383159637451
 21
121.033336629486
 31
0.0
  0
LINE
  5
    53
  8
0
  6
CONTINUOUS
 62
     2
 10
167.338315963745
 20
16.5627619426901
 30
0.0
 11
174.338335117812
 21
9.56273924827786
 31
0.0
  0
LINE
  5
    54
  8
0
  6
CONTINUOUS
 62
     2
 10
46.3383186567184
 20
9.56274576222224
 30
0.0
 11
62.3383159637451
 21
17.092157375641
 31
0.0
  0
LINE
  5
    55
  8
0
  6
CONTINUOUS
 62
     2
 10
174.338256835938
 20
129.556442260742
 30
0.0
 11
174.338256835938
 21
149.556442260742
 31
0.0
  0
LINE
  5
    56
  8
0
  6
CONTINUOUS
 62
     2
 10
45.3383140563965
 20
129.556442260742
 30
0.0
 11
175.338317871094
 21
129.556442260742
 31
0.0
  0
LINE
  5
    57
  8
0
  6
CONTINUOUS
 62
     2
 10
37.5883140563965
 20
149.556442260742
 30
0.0
 11
45.3383140563965
 21
149.556442260742
 31
0.0
  0
LINE
  5
    58
  8
0
  6
CONTINUOUS
 62
     2
 10
115.343585020102
 20
149.556442260742
 30
0.0
 11
175.338317871094
 21
149.556442260742
 31
0.0
  0
ARC
  5
    59
  8
0
  6
CONTINUOUS
 62
     2
 10
110.338285446167
 20
153.703627621259
 30
0.0
 40
6.50016693934245
 50
219.643748317915
 51
320.356251682085
  0
LINE
  5
    5A
  8
0
  6
CONTINUOUS
 62
     2
 10
105.332985872232
 20
149.556442260742
 30
0.0
 11
115.343585020102
 21
149.556442260742
 31
0.0
  0
LINE
  5
    5B
  8
0
  6
CONTINUOUS
 62
     2
 10
46.3383140563965
 20
129.562744140625
 30
0.0
 11
46.3383140563965
 21
149.562744140625
 31
0.0
  0
LINE
  5
    5C
  8
0
  6
CONTINUOUS
 62
     2
 10
45.3383140563965
 20
149.556442260742
 30
0.0
 11
105.332985872232
 21
149.556442260742
 31
0.0
  0
LINE
  5
    5D
  8
0
  6
CONTINUOUS
 62
     2
 10
175.338317871094
 20
149.556442260742
 30
0.0
 11
209.588317871094
 21
149.556442260742
 31
0.0
  0
POINT
  5
    5E
  8
0
  6
CONTINUOUS
 62
     2
 10
114.838315963745
 20
69.062744140625
 30
0.0
  0
ARC
  5
    5F
  8
0
  6
CONTINUOUS
 62
     2
 10
37.5883140563965
 20
148.306442260742
 30
0.0
 40
1.25
 50
90.0
 51
180.0
  0
ARC
  5
    60
  8
0
  6
CONTINUOUS
 62
     2
 10
37.5883140563965
 20
-10.187255859375
 30
0.0
 40
1.25
 50
180.0
 51
270.0
  0
ARC
  5
    61
  8
0
  6
CONTINUOUS
 62
     2
 10
209.588317871094
 20
-10.187255859375
 30
0.0
 40
1.25
 50
270.0
 51
360.0
  0
ARC
  5
    62
  8
0
  6
CONTINUOUS
 62
     2
 10
209.588317871094
 20
148.306442260742
 30
0.0
 40
1.25
 50
0.0
 51
90.0
  0
ENDBLK
  5
    63
  8
0
  6
CONTINUOUS
 62
     7
  0
BLOCK
  5
    64
  8
0
  6
CONTINUOUS
 62
     3
  2
*UDIM584
 70
    65
 10
0.0
 20
0.0
 30
0.0
  3
*UDIM584
  0
TEXT
  5
    65
  8
0
  6
CONTINUOUS
 62
     3
 10
-507.45128631945
 20
13.2305785643766
 30
0.0
 40
3.00000002980232
  1
161
 50
89.9999999480344
 41
0.933333333333333
 72
     1
 11
-508.951286330819
 21
17.1305786044781
 31
0.0
 73
     2
  0
LINE
  5
    66
  8
0
  6
CONTINUOUS
 62
     3
 10
-503.249101371415
 20
-22.8428453235442
 30
0.0
 11
-508.451286315918
 21
-22.8428453235442
 31
0.0
  0
LINE
  5
    67
  8
0
  6
CONTINUOUS
 62
     3
 10
-499.374101371415
 20
57.6540037365144
 30
0.0
 11
-508.451286315918
 21
57.6540037365144
 31
0.0
  0
LINE
  5
    68
  8
0
  6
CONTINUOUS
 62
     3
 10
-506.451286315918
 20
-22.8428453235442
 30
0.0
 11
-506.451286315918
 21
57.6540037365144
 31
0.0
  0
LINE
  5
    69
  8
0
  6
CONTINUOUS
 62
     3
 10
-506.97223074587
 20
-19.8884220463373
 30
0.0
 11
-506.451286315918
 21
-22.8428453235442
 31
0.0
  0
LINE
  5
    6A
  8
0
  6
CONTINUOUS
 62
     3
 10
-506.451286315918
 20
-22.8428453235442
 30
0.0
 11
-505.930341885966
 21
-19.8884220463373
 31
0.0
  0
LINE
  5
    6B
  8
0
  6
CONTINUOUS
 62
     3
 10
-505.930341885966
 20
54.6995804593074
 30
0.0
 11
-506.451286315918
 21
57.6540037365144
 31
0.0
  0
LINE
  5
    6C
  8
0
  6
CONTINUOUS
 62
     3
 10
-506.451286315918
 20
57.6540037365144
 30
0.0
 11
-506.97223074587
 21
54.6995804593074
 31
0.0
  0
ENDBLK
  5
    6D
  8
0
  6
CONTINUOUS
 62
     3
  0
BLOCK
  5
    6E
  8
0
  6
CONTINUOUS
 62
     7
  2
*UDIM585
 70
    65
 10
0.0
 20
0.0
 30
0.0
  3
*UDIM585
  0
TEXT
  5
    6F
  8
0
  6
CONTINUOUS
 62
     7
 10
-442.399099764436
 20
-89.1795539833408
 30
0.0
 40
3.00000002980232
  1
96
 50
359.999999948034
 41
0.933333333333333
 72
     1
 11
-439.899099738247
 21
-87.6795539706946
 31
0.0
 73
     2
  0
LINE
  5
    70
  8
0
  6
CONTINUOUS
 62
     7
 10
-415.624099464066
 20
-23.2178453235443
 30
0.0
 11
-415.624099464066
 21
-92.1795539855957
 31
0.0
  0
LINE
  5
    71
  8
0
  6
CONTINUOUS
 62
     7
 10
-463.62410041774
 20
-89.4242407390496
 30
0.0
 11
-463.62410041774
 21
-92.1795539855957
 31
0.0
  0
LINE
  5
    72
  8
0
  6
CONTINUOUS
 62
     7
 10
-415.624099464066
 20
-90.1795539855957
 30
0.0
 11
-463.62410041774
 21
-90.1795539855957
 31
0.0
  0
LINE
  5
    73
  8
0
  6
CONTINUOUS
 62
     7
 10
-418.578522741273
 20
-90.7004984155474
 30
0.0
 11
-415.624099464066
 21
-90.1795539855957
 31
0.0
  0
LINE
  5
    74
  8
0
  6
CONTINUOUS
 62
     7
 10
-415.624099464066
 20
-90.1795539855957
 30
0.0
 11
-418.578522741273
 21
-89.658609555644
 31
0.0
  0
LINE
  5
    75
  8
0
  6
CONTINUOUS
 62
     7
 10
-460.669677140533
 20
-89.658609555644
 30
0.0
 11
-463.62410041774
 21
-90.1795539855957
 31
0.0
  0
LINE
  5
    76
  8
0
  6
CONTINUOUS
 62
     7
 10
-463.62410041774
 20
-90.1795539855957
 30
0.0
 11
-460.669677140533
 21
-90.7004984155474
 31
0.0
  0
ENDBLK
  5
    77
  8
0
  6
CONTINUOUS
 62
     7
  0
BLOCK
  5
    78
  8
0
  6
CONTINUOUS
 62
     7
  2
*UDIM586
 70
    65
 10
0.0
 20
0.0
 30
0.0
  3
*UDIM586
  0
TEXT
  5
    79
  8
0
  6
CONTINUOUS
 62
     7
 10
-488.824099792251
 20
-89.1795539808154
 30
0.0
 40
3.00000002980232
  1
78,5
 50
359.999999948034
 41
0.933333333333333
 72
     1
 11
-483.524099738247
 21
-87.6795539706946
 31
0.0
 73
     2
  0
LINE
  5
    7A
  8
0
  6
CONTINUOUS
 62
     7
 10
-502.874101371415
 20
-23.2178453235442
 30
0.0
 11
-502.874101371415
 21
-92.1795539855957
 31
0.0
  0
LINE
  5
    7B
  8
0
  6
CONTINUOUS
 62
     7
 10
-463.62410041774
 20
-90.1795539855957
 30
0.0
 11
-502.874101371415
 21
-90.1795539855957
 31
0.0
  0
LINE
  5
    7C
  8
0
  6
CONTINUOUS
 62
     7
 10
-466.578523694947
 20
-90.7004984155474
 30
0.0
 11
-463.62410041774
 21
-90.1795539855957
 31
0.0
  0
LINE
  5
    7D
  8
0
  6
CONTINUOUS
 62
     7
 10
-463.62410041774
 20
-90.1795539855957
 30
0.0
 11
-466.578523694947
 21
-89.658609555644
 31
0.0
  0
LINE
  5
    7E
  8
0
  6
CONTINUOUS
 62
     7
 10
-499.919678094208
 20
-89.658609555644
 30
0.0
 11
-502.874101371415
 21
-90.1795539855957
 31
0.0
  0
LINE
  5
    7F
  8
0
  6
CONTINUOUS
 62
     7
 10
-502.874101371415
 20
-90.1795539855957
 30
0.0
 11
-499.919678094208
 21
-90.7004984155474
 31
0.0
  0
ENDBLK
  5
    80
  8
0
  6
CONTINUOUS
 62
     7
  0
BLOCK
  5
    81
  8
0
  6
CONTINUOUS
 62
     7
  2
*UDIM587
 70
    65
 10
0.0
 20
0.0
 30
0.0
  3
*UDIM587
  0
TEXT
  5
    82
  8
0
  6
CONTINUOUS
 62
     7
 10
-535.603248598456
 20
-75.2428493229128
 30
0.0
 40
3.00000002980232
  1
14
 50
89.9999999480344
 41
0.933333333333333
 72
     1
 11
-537.103248611093
 21
-72.7428492967189
 31
0.0
 73
     2
  0
LINE
  5
    83
  8
0
  6
CONTINUOUS
 62
     5
 10
-491.374084472656
 20
-66.7178497314453
 30
0.0
 11
-536.603248596191
 21
-66.7178497314453
 31
0.0
  0
LINE
  5
    84
  8
0
  6
CONTINUOUS
 62
     5
 10
-490.049065128946
 20
-59.7178172000052
 30
0.0
 11
-536.603248596191
 21
-59.7178172000052
 31
0.0
  0
LINE
  5
    85
  8
0
  6
CONTINUOUS
 62
     5
 10
-534.603248596191
 20
-75.2428493215542
 30
0.0
 11
-534.603248596191
 21
-59.7178172000052
 31
0.0
  0
LINE
  5
    86
  8
0
  6
CONTINUOUS
 62
     5
 10
-535.124193026143
 20
-63.7634264542384
 30
0.0
 11
-534.603248596191
 21
-66.7178497314453
 31
0.0
  0
LINE
  5
    87
  8
0
  6
CONTINUOUS
 62
     5
 10
-534.603248596191
 20
-66.7178497314453
 30
0.0
 11
-534.08230416624
 21
-63.7634264542384
 31
0.0
  0
LINE
  5
    88
  8
0
  6
CONTINUOUS
 62
     5
 10
-534.08230416624
 20
-62.6722404772122
 30
0.0
 11
-534.603248596191
 21
-59.7178172000052
 31
0.0
  0
LINE
  5
    89
  8
0
  6
CONTINUOUS
 62
     5
 10
-534.603248596191
 20
-59.7178172000052
 30
0.0
 11
-535.124193026143
 21
-62.6722404772122
 31
0.0
  0
ENDBLK
  5
    8A
  8
0
  6
CONTINUOUS
 62
     7
  0
BLOCK
  5
    8B
  8
0
  6
CONTINUOUS
 62
     7
  2
*UDIM588
 70
    65
 10
0.0
 20
0.0
 30
0.0
  3
*UDIM588
  0
TEXT
  5
    8C
  8
0
  6
CONTINUOUS
 62
     7
 10
-535.603248599724
 20
12.3571425930981
 30
0.0
 40
3.00000002980232
  1
305
 50
89.9999999480344
 41
0.933333333333333
 72
     1
 11
-537.103248611093
 21
16.2571426331997
 31
0.0
 73
     2
  0
LINE
  5
    8D
  8
0
  6
CONTINUOUS
 62
     5
 10
-490.049065128946
 20
92.7821024783256
 30
0.0
 11
-536.603248596191
 21
92.7821024783256
 31
0.0
  0
LINE
  5
    8E
  8
0
  6
CONTINUOUS
 62
     5
 10
-534.603248596191
 20
-59.7178172000052
 30
0.0
 11
-534.603248596191
 21
92.7821024783256
 31
0.0
  0
LINE
  5
    8F
  8
0
  6
CONTINUOUS
 62
     5
 10
-535.124193026143
 20
-56.7633939227983
 30
0.0
 11
-534.603248596191
 21
-59.7178172000052
 31
0.0
  0
LINE
  5
    90
  8
0
  6
CONTINUOUS
 62
     5
 10
-534.603248596191
 20
-59.7178172000052
 30
0.0
 11
-534.08230416624
 21
-56.7633939227983
 31
0.0
  0
LINE
  5
    91
  8
0
  6
CONTINUOUS
 62
     5
 10
-534.08230416624
 20
89.8276792011186
 30
0.0
 11
-534.603248596191
 21
92.7821024783256
 31
0.0
  0
LINE
  5
    92
  8
0
  6
CONTINUOUS
 62
     5
 10
-534.603248596191
 20
92.7821024783256
 30
0.0
 11
-535.124193026143
 21
89.8276792011186
 31
0.0
  0
ENDBLK
  5
    93
  8
0
  6
CONTINUOUS
 62
     7
  0
BLOCK
  5
    94
  8
0
  6
CONTINUOUS
 62
     7
  2
*UDIM589
 70
    65
 10
0.0
 20
0.0
 30
0.0
  3
*UDIM589
  0
TEXT
  5
    95
  8
0
  6
CONTINUOUS
 62
     7
 10
-535.603248598456
 20
102.757135311785
 30
0.0
 40
3.00000002980232
  1
14
 50
89.9999999480344
 41
0.933333333333333
 72
     1
 11
-537.103248611093
 21
105.257135337979
 31
0.0
 73
     2
  0
LINE
  5
    96
  8
0
  6
CONTINUOUS
 62
     5
 10
-491.374084472656
 20
99.7821350097656
 30
0.0
 11
-536.603248596191
 21
99.7821350097656
 31
0.0
  0
LINE
  5
    97
  8
0
  6
CONTINUOUS
 62
     5
 10
-534.603248596191
 20
92.7821024783256
 30
0.0
 11
-534.603248596191
 21
107.757135362814
 31
0.0
  0
LINE
  5
    98
  8
0
  6
CONTINUOUS
 62
     5
 10
-535.124193026143
 20
95.7365257555325
 30
0.0
 11
-534.603248596191
 21
92.7821024783256
 31
0.0
  0
LINE
  5
    99
  8
0
  6
CONTINUOUS
 62
     5
 10
-534.603248596191
 20
92.7821024783256
 30
0.0
 11
-534.08230416624
 21
95.7365257555325
 31
0.0
  0
LINE
  5
    9A
  8
0
  6
CONTINUOUS
 62
     5
 10
-534.08230416624
 20
96.8277117325587
 30
0.0
 11
-534.603248596191
 21
99.7821350097656
 31
0.0
  0
LINE
  5
    9B
  8
0
  6
CONTINUOUS
 62
     5
 10
-534.603248596191
 20
99.7821350097656
 30
0.0
 11
-535.124193026143
 21
96.8277117325587
 31
0.0
  0
ENDBLK
  5
    9C
  8
0
  6
CONTINUOUS
 62
     7
  0
BLOCK
  5
    9D
  8
0
  6
CONTINUOUS
 62
     5
  2
*UDIM590
 70
    65
 10
0.0
 20
0.0
 30
0.0
  3
*UDIM590
  0
TEXT
  5
    9E
  8
0
  6
CONTINUOUS
 62
     5
 10
-528.389472968762
 20
46.7196272975124
 30
0.0
 40
3.00000002980232
  1
150,75
 50
89.9999999480344
 41
0.933333333333333
 72
     1
 11
-529.889472976327
 21
54.8196273793373
 31
0.0
 73
     2
  0
LINE
  5
    9F
  8
0
  6
CONTINUOUS
 62
     5
 10
-490.049065128946
 20
92.7821024783256
 30
0.0
 11
-529.389472961426
 21
92.7821024783256
 31
0.0
  0
LINE
  5
    A0
  8
0
  6
CONTINUOUS
 62
     5
 10
-527.389472961426
 20
17.4071546764557
 30
0.0
 11
-527.389472961426
 21
92.7821024783256
 31
0.0
  0
LINE
  5
    A1
  8
0
  6
CONTINUOUS
 62
     5
 10
-527.910417391378
 20
20.3615779536627
 30
0.0
 11
-527.389472961426
 21
17.4071546764557
 31
0.0
  0
LINE
  5
    A2
  8
0
  6
CONTINUOUS
 62
     5
 10
-527.389472961426
 20
17.4071546764557
 30
0.0
 11
-526.868528531474
 21
20.3615779536627
 31
0.0
  0
LINE
  5
    A3
  8
0
  6
CONTINUOUS
 62
     5
 10
-526.868528531474
 20
89.8276792011186
 30
0.0
 11
-527.389472961426
 21
92.7821024783256
 31
0.0
  0
LINE
  5
    A4
  8
0
  6
CONTINUOUS
 62
     5
 10
-527.389472961426
 20
92.7821024783256
 30
0.0
 11
-527.910417391378
 21
89.8276792011186
 31
0.0
  0
ENDBLK
  5
    A5
  8
0
  6
CONTINUOUS
 62
     5
  0
BLOCK
  5
    A6
  8
0
  6
CONTINUOUS
 62
     5
  2
*UDIM591
 70
    65
 10
0.0
 20
0.0
 30
0.0
  3
*UDIM591
  0
TEXT
  5
    A7
  8
0
  6
CONTINUOUS
 62
     5
 10
-514.62103272218
 20
40.9696349168824
 30
0.0
 40
3.00000002980232
  1
127,75
 50
89.9999999480344
 41
0.933333333333333
 72
     1
 11
-516.121032729745
 21
49.0696349987073
 31
0.0
 73
     2
  0
LINE
  5
    A8
  8
0
  6
CONTINUOUS
 62
     5
 10
-498.999103377543
 20
81.2821122930428
 30
0.0
 11
-515.621032714844
 21
81.2821122930428
 31
0.0
  0
LINE
  5
    A9
  8
0
  6
CONTINUOUS
 62
     5
 10
-513.621032714844
 20
17.4071546764557
 30
0.0
 11
-513.621032714844
 21
81.2821122930428
 31
0.0
  0
LINE
  5
    AA
  8
0
  6
CONTINUOUS
 62
     5
 10
-514.141977144795
 20
20.3615779536627
 30
0.0
 11
-513.621032714844
 21
17.4071546764557
 31
0.0
  0
LINE
  5
    AB
  8
0
  6
CONTINUOUS
 62
     5
 10
-513.621032714844
 20
17.4071546764557
 30
0.0
 11
-513.100088284892
 21
20.3615779536627
 31
0.0
  0
LINE
  5
    AC
  8
0
  6
CONTINUOUS
 62
     5
 10
-513.100088284892
 20
78.3276890158359
 30
0.0
 11
-513.621032714844
 21
81.2821122930428
 31
0.0
  0
LINE
  5
    AD
  8
0
  6
CONTINUOUS
 62
     5
 10
-513.621032714844
 20
81.2821122930428
 30
0.0
 11
-514.141977144795
 21
78.3276890158359
 31
0.0
  0
ENDBLK
  5
    AE
  8
0
  6
CONTINUOUS
 62
     5
  0
BLOCK
  5
    AF
  8
0
  6
CONTINUOUS
 62
     7
  2
*UDIM592
 70
    65
 10
0.0
 20
0.0
 30
0.0
  3
*UDIM592
  0
TEXT
  5
    B0
  8
0
  6
CONTINUOUS
 62
     7
 10
-445.224086439397
 20
-97.035831445373
 30
0.0
 40
3.00000002980232
  1
101,5
 50
359.999999948034
 41
0.933333333333333
 72
     1
 11
-438.524086371485
 21
-95.5358314365149
 31
0.0
 73
     2
  0
LINE
  5
    B1
  8
0
  6
CONTINUOUS
 62
     7
 10
-412.874079704285
 20
10.532123565674
 30
0.0
 11
-412.874079704285
 21
-100.035831451416
 31
0.0
  0
LINE
  5
    B2
  8
0
  6
CONTINUOUS
 62
     7
 10
-463.62410041774
 20
-89.4242407390496
 30
0.0
 11
-463.62410041774
 21
-100.035831451416
 31
0.0
  0
LINE
  5
    B3
  8
0
  6
CONTINUOUS
 62
     7
 10
-412.874079704285
 20
-98.035831451416
 30
0.0
 11
-463.62410041774
 21
-98.035831451416
 31
0.0
  0
LINE
  5
    B4
  8
0
  6
CONTINUOUS
 62
     7
 10
-415.828502981492
 20
-98.5567758813677
 30
0.0
 11
-412.874079704285
 21
-98.035831451416
 31
0.0
  0
LINE
  5
    B5
  8
0
  6
CONTINUOUS
 62
     7
 10
-412.874079704285
 20
-98.035831451416
 30
0.0
 11
-415.828502981492
 21
-97.5148870214644
 31
0.0
  0
LINE
  5
    B6
  8
0
  6
CONTINUOUS
 62
     7
 10
-460.669677140533
 20
-97.5148870214644
 30
0.0
 11
-463.62410041774
 21
-98.035831451416
 31
0.0
  0
LINE
  5
    B7
  8
0
  6
CONTINUOUS
 62
     7
 10
-463.62410041774
 20
-98.035831451416
 30
0.0
 11
-460.669677140533
 21
-98.5567758813677
 31
0.0
  0
ENDBLK
  5
    B8
  8
0
  6
CONTINUOUS
 62
     7
  0
BLOCK
  5
    B9
  8
0
  6
CONTINUOUS
 62
     7
  2
*UDIM593
 70
    65
 10
0.0
 20
0.0
 30
0.0
  3
*UDIM593
  0
TEXT
  5
    BA
  8
0
  6
CONTINUOUS
 62
     7
 10
-408.902860944919
 20
99.0453904088674
 30
0.0
 40
3.00000002980232
  1
10,2
 50
369.082105988187
 41
0.933333333333333
 72
     1
 11
-403.906080706553
 21
101.363188470019
 31
0.0
 73
     2
  0
TEXT
  5
    BB
  8
0
  6
CONTINUOUS
 62
     7
 10
-412.013369885157
 20
98.5481639058698
 30
0.0
 40
3.00000002980232
  1
Ø
 50
369.082105988187
 41
0.933333333333334
 72
     1
 11
-411.163934929958
 21
100.20299330059
 31
0.0
 73
     2
  0
LINE
  5
    BC
  8
0
  6
CONTINUOUS
 62
     7
 10
-444.267096419518
 20
92.3795889521547
 30
0.0
 11
-398.277901738349
 21
99.7311338954215
 31
0.0
  0
LINE
  5
    BD
  8
0
  6
CONTINUOUS
 62
     7
 10
-447.102249630752
 20
91.3988207487417
 30
0.0
 11
-444.267096419518
 21
92.3795889521547
 31
0.0
  0
LINE
  5
    BE
  8
0
  6
CONTINUOUS
 62
     7
 10
-444.267096419518
 20
92.3795889521547
 30
0.0
 11
-447.266711455765
 21
92.427647607112
 31
0.0
  0
LINE
  5
    BF
  8
0
  6
CONTINUOUS
 62
     7
 10
-436.395920696081
 20
94.1653842079094
 30
0.0
 11
-439.231073907316
 21
93.1846160044964
 31
0.0
  0
LINE
  5
    C0
  8
0
  6
CONTINUOUS
 62
     7
 10
-439.231073907316
 20
93.1846160044964
 30
0.0
 11
-436.231458871068
 21
93.1365573495392
 31
0.0
  0
ENDBLK
  5
    C1
  8
0
  6
CONTINUOUS
 62
     7
  0
BLOCK
  5
    C2
  8
0
  6
CONTINUOUS
 62
     7
  2
*UDIM594
 70
    65
 10
0.0
 20
0.0
 30
0.0
  3
*UDIM594
  0
TEXT
  5
    C3
  8
0
  6
CONTINUOUS
 62
     7
 10
-521.790771487907
 20
6.5831099109177
 30
0.0
 40
3.00000002980232
  1
259
 50
89.9999999480344
 41
0.933333333333333
 72
     1
 11
-523.290771499276
 21
10.4831099510193
 31
0.0
 73
     2
  0
LINE
  5
    C4
  8
0
  6
CONTINUOUS
 62
     7
 10
-498.999103377543
 20
-48.2178270147225
 30
0.0
 11
-522.790771484375
 21
-48.2178270147225
 31
0.0
  0
LINE
  5
    C5
  8
0
  6
CONTINUOUS
 62
     7
 10
-498.999103377543
 20
81.2821122930428
 30
0.0
 11
-522.790771484375
 21
81.2821122930428
 31
0.0
  0
LINE
  5
    C6
  8
0
  6
CONTINUOUS
 62
     7
 10
-520.790771484375
 20
-48.2178270147225
 30
0.0
 11
-520.790771484375
 21
81.2821122930428
 31
0.0
  0
LINE
  5
    C7
  8
0
  6
CONTINUOUS
 62
     7
 10
-521.311715914327
 20
-45.2634037375156
 30
0.0
 11
-520.790771484375
 21
-48.2178270147225
 31
0.0
  0
LINE
  5
    C8
  8
0
  6
CONTINUOUS
 62
     7
 10
-520.790771484375
 20
-48.2178270147225
 30
0.0
 11
-520.269827054423
 21
-45.2634037375156
 31
0.0
  0
LINE
  5
    C9
  8
0
  6
CONTINUOUS
 62
     7
 10
-520.269827054423
 20
78.3276890158359
 30
0.0
 11
-520.790771484375
 21
81.2821122930428
 31
0.0
  0
LINE
  5
    CA
  8
0
  6
CONTINUOUS
 62
     7
 10
-520.790771484375
 20
81.2821122930428
 30
0.0
 11
-521.311715914327
 21
78.3276890158359
 31
0.0
  0
ENDBLK
  5
    CB
  8
0
  6
CONTINUOUS
 62
     7
  0
BLOCK
  5
    CC
  8
0
  6
CONTINUOUS
 62
     7
  2
*UDIM595
 70
    65
 10
0.0
 20
0.0
 30
0.0
  3
*UDIM595
  0
TEXT
  5
    CD
  8
0
  6
CONTINUOUS
 62
     7
 10
-499.343923873167
 20
-72.4081191994053
 30
0.0
 40
3.00000002980232
  1
25
 50
359.999999948034
 41
0.933333333333333
 72
     1
 11
-496.843923846979
 21
-70.908119186759
 31
0.0
 73
     2
  0
LINE
  5
    CE
  8
0
  6
CONTINUOUS
 62
     7
 10
-479.249084884722
 20
-55.2178497314452
 30
0.0
 11
-479.249093204435
 21
-75.40811920166
 31
0.0
  0
LINE
  5
    CF
  8
0
  6
CONTINUOUS
 62
     7
 10
-491.749084884722
 20
-55.2178497314452
 30
0.0
 11
-491.749093204435
 21
-75.40811920166
 31
0.0
  0
LINE
  5
    D0
  8
0
  6
CONTINUOUS
 62
     7
 10
-479.249092380304
 20
-73.4081192016602
 30
0.0
 11
-499.343923871814
 21
-73.4081192016602
 31
0.0
  0
LINE
  5
    D1
  8
0
  6
CONTINUOUS
 62
     7
 10
-482.203515657511
 20
-73.9290636316118
 30
0.0
 11
-479.249092380304
 21
-73.4081192016602
 31
0.0
  0
LINE
  5
    D2
  8
0
  6
CONTINUOUS
 62
     7
 10
-479.249092380304
 20
-73.4081192016602
 30
0.0
 11
-482.203515657511
 21
-72.8871747717085
 31
0.0
  0
LINE
  5
    D3
  8
0
  6
CONTINUOUS
 62
     7
 10
-488.794669103097
 20
-72.8871747717085
 30
0.0
 11
-491.749092380304
 21
-73.4081192016602
 31
0.0
  0
LINE
  5
    D4
  8
0
  6
CONTINUOUS
 62
     7
 10
-491.749092380304
 20
-73.4081192016602
 30
0.0
 11
-488.794669103097
 21
-73.9290636316118
 31
0.0
  0
ENDBLK
  5
    D5
  8
0
  6
CONTINUOUS
 62
     7
  0
BLOCK
  5
    D6
  8
0
  6
CONTINUOUS
 62
     7
  2
*UDIM596
 70
    65
 10
0.0
 20
0.0
 30
0.0
  3
*UDIM596
  0
TEXT
  5
    D7
  8
0
  6
CONTINUOUS
 62
     7
 10
-459.661588354232
 20
-80.9475517212519
 30
0.0
 40
3.00000002980232
  1
43,75
 50
359.999999948034
 41
0.933333333333333
 72
     1
 11
-452.96158828632
 21
-79.4475517123938
 31
0.0
 73
     2
  0
LINE
  5
    D8
  8
0
  6
CONTINUOUS
 62
     7
 10
-441.749085596649
 20
-64.2677971655344
 30
0.0
 11
-441.749094122559
 21
-83.9475517272947
 31
0.0
  0
LINE
  5
    D9
  8
0
  6
CONTINUOUS
 62
     7
 10
-441.749093256094
 20
-81.9475517272949
 30
0.0
 11
-463.624098384601
 21
-81.9475517272949
 31
0.0
  0
LINE
  5
    DA
  8
0
  6
CONTINUOUS
 62
     7
 10
-444.703516533301
 20
-82.4684961572466
 30
0.0
 11
-441.749093256094
 21
-81.9475517272949
 31
0.0
  0
LINE
  5
    DB
  8
0
  6
CONTINUOUS
 62
     7
 10
-441.749093256094
 20
-81.9475517272949
 30
0.0
 11
-444.703516533301
 21
-81.4266072973433
 31
0.0
  0
LINE
  5
    DC
  8
0
  6
CONTINUOUS
 62
     7
 10
-460.669675107394
 20
-81.4266072973433
 30
0.0
 11
-463.624098384601
 21
-81.9475517272949
 31
0.0
  0
LINE
  5
    DD
  8
0
  6
CONTINUOUS
 62
     7
 10
-463.624098384601
 20
-81.9475517272949
 30
0.0
 11
-460.669675107394
 21
-82.4684961572466
 31
0.0
  0
ENDBLK
  5
    DE
  8
0
  6
CONTINUOUS
 62
     7
  0
BLOCK
  5
    DF
  8
0
  6
CONTINUOUS
 62
     7
  2
*UDIM597
 70
    65
 10
0.0
 20
0.0
 30
0.0
  3
*UDIM597
  0
TEXT
  5
    E0
  8
0
  6
CONTINUOUS
 62
     7
 10
-481.536592157175
 20
-80.9475517212519
 30
0.0
 40
3.00000002980232
  1
43,75
 50
359.999999948034
 41
0.933333333333333
 72
     1
 11
-474.836592089264
 21
-79.4475517123938
 31
0.0
 73
     2
  0
LINE
  5
    E1
  8
0
  6
CONTINUOUS
 62
     7
 10
-485.499085761316
 20
-64.2677971655343
 30
0.0
 11
-485.499097527826
 21
-83.9475517272946
 31
0.0
  0
LINE
  5
    E2
  8
0
  6
CONTINUOUS
 62
     7
 10
-463.624098384601
 20
-81.9475517272949
 30
0.0
 11
-485.499096332027
 21
-81.9475517272949
 31
0.0
  0
LINE
  5
    E3
  8
0
  6
CONTINUOUS
 62
     7
 10
-466.578521661808
 20
-82.4684961572466
 30
0.0
 11
-463.624098384601
 21
-81.9475517272949
 31
0.0
  0
LINE
  5
    E4
  8
0
  6
CONTINUOUS
 62
     7
 10
-463.624098384601
 20
-81.9475517272949
 30
0.0
 11
-466.578521661808
 21
-81.4266072973433
 31
0.0
  0
LINE
  5
    E5
  8
0
  6
CONTINUOUS
 62
     7
 10
-482.54467305482
 20
-81.4266072973433
 30
0.0
 11
-485.499096332027
 21
-81.9475517272949
 31
0.0
  0
LINE
  5
    E6
  8
0
  6
CONTINUOUS
 62
     7
 10
-485.499096332027
 20
-81.9475517272949
 30
0.0
 11
-482.54467305482
 21
-82.4684961572466
 31
0.0
  0
ENDBLK
  5
    E7
  8
0
  6
CONTINUOUS
 62
     7
  0
BLOCK
  5
    E8
  8
0
  6
CONTINUOUS
 62
     7
  2
*UDIM598
 70
    65
 10
0.0
 20
0.0
 30
0.0
  3
*UDIM598
  0
TEXT
  5
    E9
  8
0
  6
CONTINUOUS
 62
     7
 10
-478.903179599735
 20
107.644073489846
 30
0.0
 40
3.00000002980232
  1
140
 50
359.999999948034
 41
0.933333333333333
 72
     1
 11
-475.003179559639
 21
109.144073501229
 31
0.0
 73
     2
  0
LINE
  5
    EA
  8
0
  6
CONTINUOUS
 62
     7
 10
-428.624100103824
 20
69.0321502685546
 30
0.0
 11
-428.624087668988
 21
108.644073486328
 31
0.0
  0
LINE
  5
    EB
  8
0
  6
CONTINUOUS
 62
     7
 10
-498.624100103824
 20
69.0321502685546
 30
0.0
 11
-498.624087668989
 21
108.644073486328
 31
0.0
  0
LINE
  5
    EC
  8
0
  6
CONTINUOUS
 62
     7
 10
-428.624088296821
 20
106.644073486328
 30
0.0
 11
-498.624088296822
 21
106.644073486328
 31
0.0
  0
LINE
  5
    ED
  8
0
  6
CONTINUOUS
 62
     7
 10
-431.578511574028
 20
106.123129056376
 30
0.0
 11
-428.624088296821
 21
106.644073486328
 31
0.0
  0
LINE
  5
    EE
  8
0
  6
CONTINUOUS
 62
     7
 10
-428.624088296821
 20
106.644073486328
 30
0.0
 11
-431.578511574028
 21
107.16501791628
 31
0.0
  0
LINE
  5
    EF
  8
0
  6
CONTINUOUS
 62
     7
 10
-495.669665019615
 20
107.16501791628
 30
0.0
 11
-498.624088296822
 21
106.644073486328
 31
0.0
  0
LINE
  5
    F0
  8
0
  6
CONTINUOUS
 62
     7
 10
-498.624088296822
 20
106.644073486328
 30
0.0
 11
-495.669665019615
 21
106.123129056376
 31
0.0
  0
ENDBLK
  5
    F1
  8
0
  6
CONTINUOUS
 62
     7
  0
BLOCK
  5
    F2
  8
0
  6
CONTINUOUS
 62
     7
  2
*HATCH97
 70
    65
 10
0.0
 20
0.0
 30
0.0
  3
*HATCH97
  0
LINE
  5
    F3
  8
0
  6
CONTINUOUS
 62
    52
 10
187.992431640625
 20
39.5
 30
0.0
 11
185.992431640625
 21
37.5
 31
0.0
  0
LINE
  5
    F4
  8
0
  6
CONTINUOUS
 62
    52
 10
192.235076904297
 20
39.5
 30
0.0
 11
190.235076904297
 21
37.5
 31
0.0
  0
LINE
  5
    F5
  8
0
  6
CONTINUOUS
 62
    52
 10
196.477722167969
 20
39.5
 30
0.0
 11
194.477722167969
 21
37.5
 31
0.0
  0
LINE
  5
    F6
  8
0
  6
CONTINUOUS
 62
    52
 10
200.720367431641
 20
39.5
 30
0.0
 11
198.720367431641
 21
37.5
 31
0.0
  0
LINE
  5
    F7
  8
0
  6
CONTINUOUS
 62
    52
 10
204.963012695313
 20
39.5
 30
0.0
 11
202.963012695313
 21
37.5
 31
0.0
  0
LINE
  5
    F8
  8
0
  6
CONTINUOUS
 62
    52
 10
209.205657958984
 20
39.5
 30
0.0
 11
207.205657958984
 21
37.5
 31
0.0
  0
LINE
  5
    F9
  8
0
  6
CONTINUOUS
 62
    52
 10
213.448303222656
 20
39.5
 30
0.0
 11
211.448303222656
 21
37.5
 31
0.0
  0
LINE
  5
    FA
  8
0
  6
CONTINUOUS
 62
    52
 10
217.690948486328
 20
39.5
 30
0.0
 11
215.690948486328
 21
37.5
 31
0.0
  0
LINE
  5
    FB
  8
0
  6
CONTINUOUS
 62
    52
 10
221.93359375
 20
39.5
 30
0.0
 11
219.93359375
 21
37.5
 31
0.0
  0
LINE
  5
    FC
  8
0
  6
CONTINUOUS
 62
    52
 10
226.176239013672
 20
39.5
 30
0.0
 11
224.176239013672
 21
37.5
 31
0.0
  0
LINE
  5
    FD
  8
0
  6
CONTINUOUS
 62
    52
 10
229.369522094727
 20
38.4506874084473
 30
0.0
 11
228.418838500977
 21
37.5
 31
0.0
  0
ENDBLK
  5
    FE
  8
0
  6
CONTINUOUS
 62
     7
  0
BLOCK
  5
    FF
  8
0
  6
CONTINUOUS
 62
     7
  2
*HATCH98
 70
    65
 10
0.0
 20
0.0
 30
0.0
  3
*HATCH98
  0
LINE
  5
   100
  8
0
  6
CONTINUOUS
 62
    52
 10
115.867530822754
 20
39.4999961853027
 30
0.0
 11
113.867530822754
 21
37.4999961853027
 31
0.0
  0
LINE
  5
   101
  8
0
  6
CONTINUOUS
 62
    52
 10
120.110176086426
 20
39.4999961853027
 30
0.0
 11
118.110176086426
 21
37.4999961853027
 31
0.0
  0
LINE
  5
   102
  8
0
  6
CONTINUOUS
 62
    52
 10
124.352821350098
 20
39.4999961853027
 30
0.0
 11
122.352821350098
 21
37.4999961853027
 31
0.0
  0
LINE
  5
   103
  8
0
  6
CONTINUOUS
 62
    52
 10
128.595458984375
 20
39.4999961853027
 30
0.0
 11
126.59546661377
 21
37.4999961853027
 31
0.0
  0
LINE
  5
   104
  8
0
  6
CONTINUOUS
 62
    52
 10
132.838104248047
 20
39.4999961853027
 30
0.0
 11
130.838104248047
 21
37.4999961853027
 31
0.0
  0
LINE
  5
   105
  8
0
  6
CONTINUOUS
 62
    52
 10
137.080749511719
 20
39.4999961853027
 30
0.0
 11
135.080749511719
 21
37.4999961853027
 31
0.0
  0
LINE
  5
   106
  8
0
  6
CONTINUOUS
 62
    52
 10
141.323394775391
 20
39.4999961853027
 30
0.0
 11
139.323394775391
 21
37.4999961853027
 31
0.0
  0
LINE
  5
   107
  8
0
  6
CONTINUOUS
 62
    52
 10
145.566040039063
 20
39.4999961853027
 30
0.0
 11
143.566040039063
 21
37.4999961853027
 31
0.0
  0
LINE
  5
   108
  8
0
  6
CONTINUOUS
 62
    52
 10
149.808685302734
 20
39.4999961853027
 30
0.0
 11
147.808685302734
 21
37.4999961853027
 31
0.0
  0
LINE
  5
   109
  8
0
  6
CONTINUOUS
 62
    52
 10
154.051330566406
 20
39.4999961853027
 30
0.0
 11
152.051330566406
 21
37.4999961853027
 31
0.0
  0
LINE
  5
   10A
  8
0
  6
CONTINUOUS
 62
    52
 10
158.293975830078
 20
39.4999961853027
 30
0.0
 11
156.293975830078
 21
37.4999961853027
 31
0.0
  0
LINE
  5
   10B
  8
0
  6
CONTINUOUS
 62
    52
 10
162.53662109375
 20
39.4999961853027
 30
0.0
 11
160.53662109375
 21
37.4999961853027
 31
0.0
  0
LINE
  5
   10C
  8
0
  6
CONTINUOUS
 62
    52
 10
166.779266357422
 20
39.4999961853027
 30
0.0
 11
164.779266357422
 21
37.4999961853027
 31
0.0
  0
LINE
  5
   10D
  8
0
  6
CONTINUOUS
 62
    52
 10
171.021911621094
 20
39.4999961853027
 30
0.0
 11
169.021911621094
 21
37.4999961853027
 31
0.0
  0
LINE
  5
   10E
  8
0
  6
CONTINUOUS
 62
    52
 10
175.264556884766
 20
39.4999961853027
 30
0.0
 11
173.264556884766
 21
37.4999961853027
 31
0.0
  0
ENDBLK
  5
   10F
  8
0
  6
CONTINUOUS
 62
     7
  0
BLOCK
  5
   110
  8
0
  6
CONTINUOUS
 62
     7
  2
*HATCH99
 70
    65
 10
0.0
 20
0.0
 30
0.0
  3
*HATCH99
  0
LINE
  5
   111
  8
0
  6
CONTINUOUS
 62
    52
 10
92.5330123901367
 20
39.4999961853027
 30
0.0
 11
90.5330123901367
 21
37.4999961853027
 31
0.0
  0
LINE
  5
   112
  8
0
  6
CONTINUOUS
 62
    52
 10
96.7756576538086
 20
39.4999961853027
 30
0.0
 11
94.7756576538086
 21
37.4999961853027
 31
0.0
  0
LINE
  5
   113
  8
0
  6
CONTINUOUS
 62
    52
 10
101.01830291748
 20
39.4999961853027
 30
0.0
 11
99.0183029174805
 21
37.4999961853027
 31
0.0
  0
LINE
  5
   114
  8
0
  6
CONTINUOUS
 62
    52
 10
105.260948181152
 20
39.4999961853027
 30
0.0
 11
103.260948181152
 21
37.4999961853027
 31
0.0
  0
ENDBLK
  5
   115
  8
0
  6
CONTINUOUS
 62
     7
  0
BLOCK
  5
   116
  8
0
  6
CONTINUOUS
 62
     7
  2
*HATCH100
 70
    65
 10
0.0
 20
0.0
 30
0.0
  3
*HATCH100
  0
LINE
  5
   117
  8
0
  6
CONTINUOUS
 62
    52
 10
45.8639602661133
 20
39.4999961853027
 30
0.0
 11
43.8639640808105
 21
37.5
 31
0.0
  0
LINE
  5
   118
  8
0
  6
CONTINUOUS
 62
    52
 10
50.1065979003906
 20
39.4999961853027
 30
0.0
 11
48.1066017150879
 21
37.5
 31
0.0
  0
LINE
  5
   119
  8
0
  6
CONTINUOUS
 62
    52
 10
54.349235534668
 20
39.4999961853027
 30
0.0
 11
52.3492393493652
 21
37.5
 31
0.0
  0
LINE
  5
   11A
  8
0
  6
CONTINUOUS
 62
    52
 10
58.5918731689453
 20
39.4999961853027
 30
0.0
 11
56.5918769836426
 21
37.5
 31
0.0
  0
LINE
  5
   11B
  8
0
  6
CONTINUOUS
 62
    52
 10
62.8345108032227
 20
39.4999961853027
 30
0.0
 11
60.8345146179199
 21
37.5
 31
0.0
  0
LINE
  5
   11C
  8
0
  6
CONTINUOUS
 62
    52
 10
67.0771560668945
 20
39.4999961853027
 30
0.0
 11
65.0771560668945
 21
37.5
 31
0.0
  0
LINE
  5
   11D
  8
0
  6
CONTINUOUS
 62
    52
 10
71.3198013305664
 20
39.4999961853027
 30
0.0
 11
69.3198013305664
 21
37.5
 31
0.0
  0
LINE
  5
   11E
  8
0
  6
CONTINUOUS
 62
    52
 10
75.2370758056641
 20
39.1746253967285
 30
0.0
 11
73.5624465942383
 21
37.4999961853027
 31
0.0
  0
ENDBLK
  5
   11F
  8
0
  6
CONTINUOUS
 62
     7
  0
BLOCK
  5
   120
  8
0
  6
CONTINUOUS
 62
     7
  2
*HATCH101
 70
    65
 10
0.0
 20
0.0
 30
0.0
  3
*HATCH101
  0
LINE
  5
   121
  8
0
  6
CONTINUOUS
 62
    52
 10
-34.7462120056152
 20
39.5
 30
0.0
 11
-36.7462120056152
 21
37.5
 31
0.0
  0
LINE
  5
   122
  8
0
  6
CONTINUOUS
 62
    52
 10
-30.5035724639893
 20
39.5
 30
0.0
 11
-32.5035743713379
 21
37.5
 31
0.0
  0
LINE
  5
   123
  8
0
  6
CONTINUOUS
 62
    52
 10
-26.2609310150147
 20
39.5
 30
0.0
 11
-28.2609329223633
 21
37.5
 31
0.0
  0
LINE
  5
   124
  8
0
  6
CONTINUOUS
 62
    52
 10
-22.01828956604
 20
39.5
 30
0.0
 11
-24.0182914733887
 21
37.5
 31
0.0
  0
LINE
  5
   125
  8
0
  6
CONTINUOUS
 62
    52
 10
-17.7756481170654
 20
39.5
 30
0.0
 11
-19.7756500244141
 21
37.5
 31
0.0
  0
LINE
  5
   126
  8
0
  6
CONTINUOUS
 62
    52
 10
-13.5330066680908
 20
39.5
 30
0.0
 11
-15.5330085754395
 21
37.5
 31
0.0
  0
LINE
  5
   127
  8
0
  6
CONTINUOUS
 62
    52
 10
-9.29036521911621
 20
39.5
 30
0.0
 11
-11.2903671264648
 21
37.5
 31
0.0
  0
LINE
  5
   128
  8
0
  6
CONTINUOUS
 62
    52
 10
-5.0477237701416
 20
39.5
 30
0.0
 11
-7.04772567749023
 21
37.5
 31
0.0
  0
LINE
  5
   129
  8
0
  6
CONTINUOUS
 62
    52
 10
-0.80508279800415
 20
39.5
 30
0.0
 11
-2.8050844669342
 21
37.5
 31
0.0
  0
LINE
  5
   12A
  8
0
  6
CONTINUOUS
 62
    52
 10
3.4375581741333
 20
39.5
 30
0.0
 11
1.43755650520325
 21
37.5
 31
0.0
  0
LINE
  5
   12B
  8
0
  6
CONTINUOUS
 62
    52
 10
7.68019962310791
 20
39.5
 30
0.0
 11
5.68019771575928
 21
37.5
 31
0.0
  0
LINE
  5
   12C
  8
0
  6
CONTINUOUS
 62
    52
 10
11.9228410720825
 20
39.5
 30
0.0
 11
9.92283916473389
 21
37.5
 31
0.0
  0
LINE
  5
   12D
  8
0
  6
CONTINUOUS
 62
    52
 10
16.1654815673828
 20
39.5
 30
0.0
 11
14.1654806137085
 21
37.5
 31
0.0
  0
LINE
  5
   12E
  8
0
  6
CONTINUOUS
 62
    52
 10
20.4081230163574
 20
39.5
 30
0.0
 11
18.4081211090088
 21
37.5
 31
0.0
  0
LINE
  5
   12F
  8
0
  6
CONTINUOUS
 62
    52
 10
24.650764465332
 20
39.5
 30
0.0
 11
22.6507625579834
 21
37.5
 31
0.0
  0
LINE
  5
   130
  8
0
  6
CONTINUOUS
 62
    52
 10
28.8934059143066
 20
39.5
 30
0.0
 11
26.893404006958
 21
37.5
 31
0.0
  0
LINE
  5
   131
  8
0
  6
CONTINUOUS
 62
    52
 10
33.1360473632813
 20
39.5
 30
0.0
 11
31.1360454559326
 21
37.5
 31
0.0
  0
LINE
  5
   132
  8
0
  6
CONTINUOUS
 62
    52
 10
35.486873626709
 20
37.6081924438477
 30
0.0
 11
35.3786811828613
 21
37.5
 31
0.0
  0
ENDBLK
  5
   133
  8
0
  6
CONTINUOUS
 62
     7
  0
BLOCK
  5
   134
  8
0
  6
CONTINUOUS
 62
     7
  2
*HATCH102
 70
    65
 10
0.0
 20
0.0
 30
0.0
  3
*HATCH102
  0
LINE
  5
   135
  8
0
  6
CONTINUOUS
 62
    52
 10
166.264526367187
 20
30.5000076293945
 30
0.0
 11
163.987060546875
 21
28.2225513458252
 31
0.0
  0
LINE
  5
   136
  8
0
  6
CONTINUOUS
 62
    52
 10
170.50715637207
 20
30.5000076293945
 30
0.0
 11
168.00715637207
 21
28.0000019073486
 31
0.0
  0
LINE
  5
   137
  8
0
  6
CONTINUOUS
 62
    52
 10
172.987060546875
 20
28.7372703552246
 30
0.0
 11
172.249786376953
 21
28.0000019073486
 31
0.0
  0
ENDBLK
  5
   138
  8
0
  6
CONTINUOUS
 62
     7
  0
BLOCK
  5
   139
  8
0
  6
CONTINUOUS
 62
     7
  2
*UDIM599
 70
    65
 10
0.0
 20
0.0
 30
0.0
  3
*UDIM599
  0
TEXT
  5
   13A
  8
0
  6
CONTINUOUS
 62
     7
 10
-628.825301550949
 20
8.27773617678478
 30
0.0
 40
3.00000002980232
  1
5,5
 50
306.27250751355
 41
0.933333333333333
 72
     1
 11
-625.308640175067
 21
6.02094794695928
 31
0.0
 73
     2
  0
TEXT
  5
   13B
  8
0
  6
CONTINUOUS
 62
     7
 10
-630.688924716571
 20
10.8173047935269
 30
0.0
 40
3.00000002980232
  1
Ø
 50
306.27250751355
 41
0.933333333333334
 72
     1
 11
-628.82881727307
 21
10.817910907825
 31
0.0
 73
     2
  0
LINE
  5
   13C
  8
0
  6
CONTINUOUS
 62
     7
 10
-625.016827850036
 20
1.397654105588
 30
0.0
 11
-636.936441761684
 21
17.6405716776724
 31
0.0
  0
LINE
  5
   13D
  8
0
  6
CONTINUOUS
 62
     7
 10
-633.141560182707
 20
13.3497969305959
 30
0.0
 11
-635.309466772882
 21
15.4234847123694
 31
0.0
  0
LINE
  5
   13E
  8
0
  6
CONTINUOUS
 62
     7
 10
-635.309466772882
 20
15.4234847123694
 30
0.0
 11
-633.981543752218
 21
12.7333879759695
 31
0.0
  0
LINE
  5
   13F
  8
0
  6
CONTINUOUS
 62
     7
 10
-639.104348351859
 20
19.714259459446
 30
0.0
 11
-636.936441761684
 21
17.6405716776724
 31
0.0
  0
LINE
  5
   140
  8
0
  6
CONTINUOUS
 62
     7
 10
-636.936441761684
 20
17.6405716776724
 30
0.0
 11
-638.264364782349
 21
20.3306684140723
 31
0.0
  0
ENDBLK
  5
   141
  8
0
  6
CONTINUOUS
 62
     7
  0
BLOCK
  5
   142
  8
0
  6
CONTINUOUS
 62
     7
  2
*UDIM600
 70
    65
 10
0.0
 20
0.0
 30
0.0
  3
*UDIM600
  0
TEXT
  5
   143
  8
0
  6
CONTINUOUS
 62
     7
 10
-680.389948708179
 20
99.6949424791455
 30
0.0
 40
3.00000002980232
  1
27,5
 50
359.999999948034
 41
0.933333333333333
 72
     1
 11
-675.089948654175
 21
101.194942489266
 31
0.0
 73
     2
  0
TEXT
  5
   144
  8
0
  6
CONTINUOUS
 62
     7
 10
-669.239948590956
 20
99.6949425069255
 30
0.0
 40
3.00000002980232
  1
     CORSA DI SEZIONAMENTO
 50
359.999999948034
 41
0.933333333333333
 72
     1
 11
-633.139948230982
 21
101.194942489266
 31
0.0
 73
     2
  0
LINE
  5
   145
  8
0
  6
CONTINUOUS
 62
     7
 10
-650.372922897339
 20
58.6569938659668
 30
0.0
 11
-650.372922897339
 21
100.694942474365
 31
0.0
  0
LINE
  5
   146
  8
0
  6
CONTINUOUS
 62
     7
 10
-664.122922897339
 20
44.6570854187012
 30
0.0
 11
-664.122922897339
 21
100.694942474365
 31
0.0
  0
LINE
  5
   147
  8
0
  6
CONTINUOUS
 62
     7
 10
-597.039947872361
 20
98.6949424743652
 30
0.0
 11
-680.389948706826
 21
98.6949424743652
 31
0.0
  0
LINE
  5
   148
  8
0
  6
CONTINUOUS
 62
     7
 10
-647.418499620132
 20
99.2158869043169
 30
0.0
 11
-650.372922897339
 21
98.6949424743652
 31
0.0
  0
LINE
  5
   149
  8
0
  6
CONTINUOUS
 62
     7
 10
-650.372922897339
 20
98.6949424743652
 30
0.0
 11
-647.418499620132
 21
98.1739980444136
 31
0.0
  0
LINE
  5
   14A
  8
0
  6
CONTINUOUS
 62
     7
 10
-667.077346174546
 20
98.1739980444136
 30
0.0
 11
-664.122922897339
 21
98.6949424743652
 31
0.0
  0
LINE
  5
   14B
  8
0
  6
CONTINUOUS
 62
     7
 10
-664.122922897339
 20
98.6949424743652
 30
0.0
 11
-667.077346174546
 21
99.2158869043169
 31
0.0
  0
ENDBLK
  5
   14C
  8
0
  6
CONTINUOUS
 62
     7
  0
BLOCK
  5
   14D
  8
0
  6
CONTINUOUS
 62
     7
  2
*UDIM601
 70
    65
 10
0.0
 20
0.0
 30
0.0
  3
*UDIM601
  0
TEXT
  5
   14E
  8
0
  6
CONTINUOUS
 62
     7
 10
-608.47292487856
 20
-83.2832374512324
 30
0.0
 40
3.00000002980232
  1
195,5
 50
359.999999948034
 41
0.933333333333333
 72
     1
 11
-601.772924810648
 21
-81.7832374423742
 31
0.0
 73
     2
  0
LINE
  5
   14F
  8
0
  6
CONTINUOUS
 62
     7
 10
-552.622924804688
 20
-65.2804689294813
 30
0.0
 11
-552.622924804688
 21
-86.2832374572754
 31
0.0
  0
LINE
  5
   150
  8
0
  6
CONTINUOUS
 62
     7
 10
-650.372922897339
 20
-23.8430089950562
 30
0.0
 11
-650.372922897339
 21
-86.2832374572754
 31
0.0
  0
LINE
  5
   151
  8
0
  6
CONTINUOUS
 62
     7
 10
-552.622924804688
 20
-84.2832374572754
 30
0.0
 11
-650.372922897339
 21
-84.2832374572754
 31
0.0
  0
LINE
  5
   152
  8
0
  6
CONTINUOUS
 62
     7
 10
-555.577348081895
 20
-84.8041818872271
 30
0.0
 11
-552.622924804688
 21
-84.2832374572754
 31
0.0
  0
LINE
  5
   153
  8
0
  6
CONTINUOUS
 62
     7
 10
-552.622924804688
 20
-84.2832374572754
 30
0.0
 11
-555.577348081895
 21
-83.7622930273237
 31
0.0
  0
LINE
  5
   154
  8
0
  6
CONTINUOUS
 62
     7
 10
-647.418499620132
 20
-83.7622930273237
 30
0.0
 11
-650.372922897339
 21
-84.2832374572754
 31
0.0
  0
LINE
  5
   155
  8
0
  6
CONTINUOUS
 62
     7
 10
-650.372922897339
 20
-84.2832374572754
 30
0.0
 11
-647.418499620132
 21
-84.8041818872271
 31
0.0
  0
ENDBLK
  5
   156
  8
0
  6
CONTINUOUS
 62
     7
  0
BLOCK
  5
   157
  8
0
  6
CONTINUOUS
 62
     7
  2
*UDIM602
 70
    65
 10
0.0
 20
0.0
 30
0.0
  3
*UDIM602
  0
TEXT
  5
   158
  8
0
  6
CONTINUOUS
 62
     7
 10
-604.297924850744
 20
-74.7711029017559
 30
0.0
 40
3.00000002980232
  1
190
 50
359.999999948034
 41
0.933333333333333
 72
     1
 11
-600.397924810648
 21
-73.2711028903723
 31
0.0
 73
     2
  0
LINE
  5
   159
  8
0
  6
CONTINUOUS
 62
     7
 10
-552.622924804688
 20
-65.2804689294813
 30
0.0
 11
-552.622924804688
 21
-77.7711029052734
 31
0.0
  0
LINE
  5
   15A
  8
0
  6
CONTINUOUS
 62
     7
 10
-647.622924804688
 20
-57.8273644601001
 30
0.0
 11
-647.622924804688
 21
-77.7711029052734
 31
0.0
  0
LINE
  5
   15B
  8
0
  6
CONTINUOUS
 62
     7
 10
-552.622924804688
 20
-75.7711029052734
 30
0.0
 11
-647.622924804688
 21
-75.7711029052734
 31
0.0
  0
LINE
  5
   15C
  8
0
  6
CONTINUOUS
 62
     7
 10
-555.577348081895
 20
-76.2920473352251
 30
0.0
 11
-552.622924804688
 21
-75.7711029052734
 31
0.0
  0
LINE
  5
   15D
  8
0
  6
CONTINUOUS
 62
     7
 10
-552.622924804688
 20
-75.7711029052734
 30
0.0
 11
-555.577348081895
 21
-75.2501584753218
 31
0.0
  0
LINE
  5
   15E
  8
0
  6
CONTINUOUS
 62
     7
 10
-644.668501527481
 20
-75.2501584753218
 30
0.0
 11
-647.622924804688
 21
-75.7711029052734
 31
0.0
  0
LINE
  5
   15F
  8
0
  6
CONTINUOUS
 62
     7
 10
-647.622924804688
 20
-75.7711029052734
 30
0.0
 11
-644.668501527481
 21
-76.2920473352251
 31
0.0
  0
ENDBLK
  5
   160
  8
0
  6
CONTINUOUS
 62
     7
  0
BLOCK
  5
   161
  8
0
  6
CONTINUOUS
 62
     7
  2
*UDIM603
 70
    65
 10
0.0
 20
0.0
 30
0.0
  3
*UDIM603
  0
TEXT
  5
   162
  8
0
  6
CONTINUOUS
 62
     7
 10
-641.340316880109
 20
-74.7711029042813
 30
0.0
 40
3.00000002980232
  1
2
 50
359.999999948034
 41
0.933333333333334
 72
     1
 11
-640.240316867828
 21
-73.2711028903723
 31
0.0
 73
     2
  0
LINE
  5
   163
  8
0
  6
CONTINUOUS
 62
     7
 10
-648.622924804688
 20
-57.9959037859428
 30
0.0
 11
-648.622924804688
 21
-77.7711029052734
 31
0.0
  0
LINE
  5
   164
  8
0
  6
CONTINUOUS
 62
     7
 10
-639.140316856901
 20
-75.7711029052734
 30
0.0
 11
-648.622924804688
 21
-75.7711029052734
 31
0.0
  0
LINE
  5
   165
  8
0
  6
CONTINUOUS
 62
     7
 10
-644.668501527481
 20
-75.2501584753218
 30
0.0
 11
-647.622924804688
 21
-75.7711029052734
 31
0.0
  0
LINE
  5
   166
  8
0
  6
CONTINUOUS
 62
     7
 10
-647.622924804688
 20
-75.7711029052734
 30
0.0
 11
-644.668501527481
 21
-76.2920473352251
 31
0.0
  0
LINE
  5
   167
  8
0
  6
CONTINUOUS
 62
     7
 10
-651.577348081894
 20
-76.2920473352251
 30
0.0
 11
-648.622924804688
 21
-75.7711029052734
 31
0.0
  0
LINE
  5
   168
  8
0
  6
CONTINUOUS
 62
     7
 10
-648.622924804688
 20
-75.7711029052734
 30
0.0
 11
-651.577348081894
 21
-75.2501584753218
 31
0.0
  0
ENDBLK
  5
   169
  8
0
  6
CONTINUOUS
 62
     7
  0
BLOCK
  5
   16A
  8
0
  6
CONTINUOUS
 62
     7
  2
*UDIM604
 70
    65
 10
0.0
 20
0.0
 30
0.0
  3
*UDIM604
  0
TEXT
  5
   16B
  8
0
  6
CONTINUOUS
 62
     7
 10
-598.5479401164
 20
-66.9984416926494
 30
0.0
 40
3.00000002980232
  1
167
 50
359.999999948034
 41
0.933333333333333
 72
     1
 11
-594.647940076304
 21
-65.4984416812658
 31
0.0
 73
     2
  0
LINE
  5
   16C
  8
0
  6
CONTINUOUS
 62
     7
 10
-552.622924804688
 20
-65.2804689294813
 30
0.0
 11
-552.622924804688
 21
-69.998441696167
 31
0.0
  0
LINE
  5
   16D
  8
0
  6
CONTINUOUS
 62
     7
 10
-636.122958614256
 20
10.0320354479873
 30
0.0
 11
-636.122958614256
 21
-69.998441696167
 31
0.0
  0
LINE
  5
   16E
  8
0
  6
CONTINUOUS
 62
     7
 10
-552.622924804688
 20
-67.998441696167
 30
0.0
 11
-636.122958614256
 21
-67.998441696167
 31
0.0
  0
LINE
  5
   16F
  8
0
  6
CONTINUOUS
 62
     7
 10
-555.577348081895
 20
-68.5193861261187
 30
0.0
 11
-552.622924804688
 21
-67.998441696167
 31
0.0
  0
LINE
  5
   170
  8
0
  6
CONTINUOUS
 62
     7
 10
-552.622924804688
 20
-67.998441696167
 30
0.0
 11
-555.577348081895
 21
-67.4774972662153
 31
0.0
  0
LINE
  5
   171
  8
0
  6
CONTINUOUS
 62
     7
 10
-633.168535337049
 20
-67.4774972662153
 30
0.0
 11
-636.122958614256
 21
-67.998441696167
 31
0.0
  0
LINE
  5
   172
  8
0
  6
CONTINUOUS
 62
     7
 10
-636.122958614256
 20
-67.998441696167
 30
0.0
 11
-633.168535337049
 21
-68.5193861261187
 31
0.0
  0
ENDBLK
  5
   173
  8
0
  6
CONTINUOUS
 62
     7
  0
BLOCK
  5
   174
  8
0
  6
CONTINUOUS
 62
     7
  2
*UDIM605
 70
    65
 10
0.0
 20
0.0
 30
0.0
  3
*UDIM605
  0
TEXT
  5
   175
  8
0
  6
CONTINUOUS
 62
     7
 10
-548.122924912335
 20
105.571468354264
 30
0.0
 40
3.00000002980232
  1
3
 50
359.999999948034
 41
0.933333333333334
 72
     1
 11
-547.022924900055
 21
107.071468368173
 31
0.0
 73
     2
  0
TEXT
  5
   176
  8
0
  6
CONTINUOUS
 62
     7
 10
-550.872924946111
 20
105.571468354264
 30
0.0
 40
3.00000002980232
  1
_
 50
359.999999948034
 41
0.933333333333334
 72
     1
 11
-549.772924933831
 21
107.071468368173
 31
0.0
 73
     2
  0
LINE
  5
   177
  8
0
  6
CONTINUOUS
 62
     7
 10
-551.122924804688
 20
89.2916566360054
 30
0.0
 11
-551.122924804688
 21
106.571468353271
 31
0.0
  0
LINE
  5
   178
  8
0
  6
CONTINUOUS
 62
     7
 10
-552.622924804688
 20
88.637542485671
 30
0.0
 11
-552.622924804688
 21
106.571468353271
 31
0.0
  0
LINE
  5
   179
  8
0
  6
CONTINUOUS
 62
     7
 10
-545.922924889128
 20
104.571468353271
 30
0.0
 11
-552.622924804688
 21
104.571468353271
 31
0.0
  0
LINE
  5
   17A
  8
0
  6
CONTINUOUS
 62
     7
 10
-548.168501527481
 20
105.092412783223
 30
0.0
 11
-551.122924804688
 21
104.571468353271
 31
0.0
  0
LINE
  5
   17B
  8
0
  6
CONTINUOUS
 62
     7
 10
-551.122924804688
 20
104.571468353271
 30
0.0
 11
-548.168501527481
 21
104.05052392332
 31
0.0
  0
LINE
  5
   17C
  8
0
  6
CONTINUOUS
 62
     7
 10
-555.577348081895
 20
104.05052392332
 30
0.0
 11
-552.622924804688
 21
104.571468353271
 31
0.0
  0
LINE
  5
   17D
  8
0
  6
CONTINUOUS
 62
     7
 10
-552.622924804688
 20
104.571468353271
 30
0.0
 11
-555.577348081895
 21
105.092412783223
 31
0.0
  0
ENDBLK
  5
   17E
  8
0
  6
CONTINUOUS
 62
     7
  0
BLOCK
  5
   17F
  8
0
  6
CONTINUOUS
 62
     7
  2
*UDIM606
 70
    65
 10
0.0
 20
0.0
 30
0.0
  3
*UDIM606
  0
TEXT
  5
   180
  8
0
  6
CONTINUOUS
 62
     7
 10
-563.147924836836
 20
105.571468355526
 30
0.0
 40
3.00000002980232
  1
31
 50
359.999999948034
 41
0.933333333333333
 72
     1
 11
-560.647924810648
 21
107.071468368173
 31
0.0
 73
     2
  0
LINE
  5
   181
  8
0
  6
CONTINUOUS
 62
     7
 10
-568.122924804688
 20
100.782032012939
 30
0.0
 11
-568.122924804688
 21
106.571468353271
 31
0.0
  0
LINE
  5
   182
  8
0
  6
CONTINUOUS
 62
     7
 10
-552.622924804688
 20
104.571468353271
 30
0.0
 11
-568.122924804688
 21
104.571468353271
 31
0.0
  0
LINE
  5
   183
  8
0
  6
CONTINUOUS
 62
     7
 10
-555.577348081895
 20
104.05052392332
 30
0.0
 11
-552.622924804688
 21
104.571468353271
 31
0.0
  0
LINE
  5
   184
  8
0
  6
CONTINUOUS
 62
     7
 10
-552.622924804688
 20
104.571468353271
 30
0.0
 11
-555.577348081895
 21
105.092412783223
 31
0.0
  0
LINE
  5
   185
  8
0
  6
CONTINUOUS
 62
     7
 10
-565.168501527481
 20
105.092412783223
 30
0.0
 11
-568.122924804688
 21
104.571468353271
 31
0.0
  0
LINE
  5
   186
  8
0
  6
CONTINUOUS
 62
     7
 10
-568.122924804688
 20
104.571468353271
 30
0.0
 11
-565.168501527481
 21
104.05052392332
 31
0.0
  0
ENDBLK
  5
   187
  8
0
  6
CONTINUOUS
 62
     7
  0
BLOCK
  5
   188
  8
0
  6
CONTINUOUS
 62
     7
  2
*UDIM607
 70
    65
 10
0.0
 20
0.0
 30
0.0
  3
*UDIM607
  0
TEXT
  5
   189
  8
0
  6
CONTINUOUS
 62
     7
 10
-576.872924912335
 20
105.571468354264
 30
0.0
 40
3.00000002980232
  1
6
 50
359.999999948034
 41
0.933333333333334
 72
     1
 11
-575.772924900055
 21
107.071468368173
 31
0.0
 73
     2
  0
LINE
  5
   18A
  8
0
  6
CONTINUOUS
 62
     7
 10
-571.122924804688
 20
100.782032012939
 30
0.0
 11
-571.122924804688
 21
106.571468353271
 31
0.0
  0
LINE
  5
   18B
  8
0
  6
CONTINUOUS
 62
     7
 10
-568.122924804688
 20
104.571468353271
 30
0.0
 11
-576.872924910982
 21
104.571468353271
 31
0.0
  0
LINE
  5
   18C
  8
0
  6
CONTINUOUS
 62
     7
 10
-565.168501527481
 20
105.092412783223
 30
0.0
 11
-568.122924804688
 21
104.571468353271
 31
0.0
  0
LINE
  5
   18D
  8
0
  6
CONTINUOUS
 62
     7
 10
-568.122924804688
 20
104.571468353271
 30
0.0
 11
-565.168501527481
 21
104.05052392332
 31
0.0
  0
LINE
  5
   18E
  8
0
  6
CONTINUOUS
 62
     7
 10
-574.077348081894
 20
104.05052392332
 30
0.0
 11
-571.122924804688
 21
104.571468353271
 31
0.0
  0
LINE
  5
   18F
  8
0
  6
CONTINUOUS
 62
     7
 10
-571.122924804688
 20
104.571468353271
 30
0.0
 11
-574.077348081894
 21
105.092412783223
 31
0.0
  0
ENDBLK
  5
   190
  8
0
  6
CONTINUOUS
 62
     7
  0
BLOCK
  5
   191
  8
0
  6
CONTINUOUS
 62
     7
  2
*UDIM608
 70
    65
 10
0.0
 20
0.0
 30
0.0
  3
*UDIM608
  0
TEXT
  5
   192
  8
0
  6
CONTINUOUS
 62
     7
 10
-674.964633945183
 20
13.2320701138501
 30
0.0
 40
3.00000002980232
  1
105
 50
89.9999999480344
 41
0.933333333333333
 72
     1
 11
-676.464633956552
 21
17.1320701539516
 31
0.0
 73
     2
  0
LINE
  5
   193
  8
0
  6
CONTINUOUS
 62
     7
 10
-648.622922897339
 20
-8.84293937683105
 30
0.0
 11
-675.96463394165
 21
-8.84293937683105
 31
0.0
  0
LINE
  5
   194
  8
0
  6
CONTINUOUS
 62
     7
 10
-648.622922897339
 20
43.6570854187012
 30
0.0
 11
-675.96463394165
 21
43.6570854187012
 31
0.0
  0
LINE
  5
   195
  8
0
  6
CONTINUOUS
 62
     7
 10
-673.96463394165
 20
-8.84293937683105
 30
0.0
 11
-673.96463394165
 21
43.6570854187012
 31
0.0
  0
LINE
  5
   196
  8
0
  6
CONTINUOUS
 62
     7
 10
-674.485578371602
 20
-5.88851609962409
 30
0.0
 11
-673.96463394165
 21
-8.84293937683105
 31
0.0
  0
LINE
  5
   197
  8
0
  6
CONTINUOUS
 62
     7
 10
-673.96463394165
 20
-8.84293937683105
 30
0.0
 11
-673.443689511699
 21
-5.88851609962409
 31
0.0
  0
LINE
  5
   198
  8
0
  6
CONTINUOUS
 62
     7
 10
-673.443689511699
 20
40.7026621414942
 30
0.0
 11
-673.96463394165
 21
43.6570854187012
 31
0.0
  0
LINE
  5
   199
  8
0
  6
CONTINUOUS
 62
     7
 10
-673.96463394165
 20
43.6570854187012
 30
0.0
 11
-674.485578371602
 21
40.7026621414942
 31
0.0
  0
ENDBLK
  5
   19A
  8
0
  6
CONTINUOUS
 62
     7
  0
BLOCK
  5
   19B
  8
0
  6
CONTINUOUS
 62
     7
  2
*UDIM609
 70
    65
 10
0.0
 20
0.0
 30
0.0
  3
*UDIM609
  0
TEXT
  5
   19C
  8
0
  6
CONTINUOUS
 62
     7
 10
-610.276664738687
 20
0.806244575363071
 30
0.0
 40
3.00000002980232
  1
1,75
 50
89.9999999480344
 41
0.933333333333333
 72
     1
 11
-611.776664748788
 21
6.10624462937241
 31
0.0
 73
     2
  0
LINE
  5
   19D
  8
0
  6
CONTINUOUS
 62
     7
 10
-629.622962872346
 20
16.5320311898972
 30
0.0
 11
-607.276664733887
 21
16.5320311898972
 31
0.0
  0
LINE
  5
   19E
  8
0
  6
CONTINUOUS
 62
     7
 10
-609.276664733887
 20
0.806244576721639
 30
0.0
 11
-609.276664733887
 21
17.4070854187012
 31
0.0
  0
LINE
  5
   19F
  8
0
  6
CONTINUOUS
 62
     7
 10
-608.755720303935
 20
13.5776079126902
 30
0.0
 11
-609.276664733887
 21
16.5320311898972
 31
0.0
  0
LINE
  5
   1A0
  8
0
  6
CONTINUOUS
 62
     7
 10
-609.276664733887
 20
16.5320311898972
 30
0.0
 11
-609.797609163838
 21
13.5776079126902
 31
0.0
  0
LINE
  5
   1A1
  8
0
  6
CONTINUOUS
 62
     7
 10
-609.797609163838
 20
20.3615086959081
 30
0.0
 11
-609.276664733887
 21
17.4070854187012
 31
0.0
  0
LINE
  5
   1A2
  8
0
  6
CONTINUOUS
 62
     7
 10
-609.276664733887
 20
17.4070854187012
 30
0.0
 11
-608.755720303935
 21
20.3615086959081
 31
0.0
  0
ENDBLK
  5
   1A3
  8
0
  6
CONTINUOUS
 62
     7
  0
BLOCK
  5
   1A4
  8
0
  6
CONTINUOUS
 62
     7
  2
*UDIM610
 70
    65
 10
0.0
 20
0.0
 30
0.0
  3
*UDIM610
  0
TEXT
  5
   1A5
  8
0
  6
CONTINUOUS
 62
     7
 10
-316.648466107512
 20
87.5437497279641
 30
0.0
 40
3.00000002980232
  1
8
 50
406.249477420785
 41
0.933333333333334
 72
     1
 11
-316.971330984458
 21
89.3756226329383
 31
0.0
 73
     2
  0
TEXT
  5
   1A6
  8
0
  6
CONTINUOUS
 62
     7
 10
-318.826752987542
 20
85.2683231018402
 30
0.0
 40
3.00000002980232
  1
Ø
 50
406.249477420785
 41
0.933333333333334
 72
     1
 11
-319.149617864489
 21
87.1001960068144
 31
0.0
 73
     2
  0
TEXT
  5
   1A7
  8
0
  6
CONTINUOUS
 62
     7
 10
-330.409707128879
 20
73.1688322385734
 30
0.0
 40
3.00000002980232
  1
3 fori
 50
406.249477420785
 41
0.933333333333333
 72
     1
 11
-325.891934448096
 21
80.0572087782979
 31
0.0
 73
     2
  0
LINE
  5
   1A8
  8
0
  6
CONTINUOUS
 62
     7
 10
-314.404765217615
 20
88.4414169473342
 30
0.0
 11
-338.871725941101
 21
62.8833628632107
 31
0.0
  0
LINE
  5
   1A9
  8
0
  6
CONTINUOUS
 62
     7
 10
-335.821953126525
 20
66.8224717584175
 30
0.0
 11
-337.488686656555
 21
64.3280781768284
 31
0.0
  0
LINE
  5
   1AA
  8
0
  6
CONTINUOUS
 62
     7
 10
-337.488686656555
 20
64.3280781768284
 30
0.0
 11
-335.06933673103
 21
66.1019851467288
 31
0.0
  0
LINE
  5
   1AB
  8
0
  6
CONTINUOUS
 62
     7
 10
-340.538459471132
 20
60.3889692816215
 30
0.0
 11
-338.871725941101
 21
62.8833628632107
 31
0.0
  0
LINE
  5
   1AC
  8
0
  6
CONTINUOUS
 62
     7
 10
-338.871725941101
 20
62.8833628632107
 30
0.0
 11
-341.291075866627
 21
61.1094558933103
 31
0.0
  0
ENDBLK
  5
   1AD
  8
0
  6
CONTINUOUS
 62
     7
  0
BLOCK
  5
   1AE
  8
0
  6
CONTINUOUS
 62
     3
  2
*UDIM611
 70
    65
 10
0.0
 20
0.0
 30
0.0
  3
*UDIM611
  0
TEXT
  5
   1AF
  8
0
  6
CONTINUOUS
 62
     3
 10
-381.026426468281
 20
73.9764873825172
 30
0.0
 40
3.00000002980232
  1
7
 50
321.87846230731
 41
0.933333333333334
 72
     1
 11
-379.235055663194
 21
74.4774771103822
 31
0.0
 73
     2
  0
TEXT
  5
   1B0
  8
0
  6
CONTINUOUS
 62
     3
 10
-384.173238579096
 20
76.4458139663546
 30
0.0
 40
3.00000002980232
  1
Ø
 50
321.87846230731
 41
1.2
 72
     1
 11
-382.06718656275
 21
76.6998710344534
 31
0.0
 73
     2
  0
LINE
  5
   1B1
  8
0
  6
CONTINUOUS
 62
     3
 10
-384.790570219552
 20
75.6591109386237
 30
0.0
 11
-364.808326044519
 21
59.9788971282857
 31
0.0
  0
LINE
  5
   1B2
  8
0
  6
CONTINUOUS
 62
     3
 10
-372.877593309026
 20
65.3239342378201
 30
0.0
 11
-370.118571443087
 21
64.1458857060225
 31
0.0
  0
LINE
  5
   1B3
  8
0
  6
CONTINUOUS
 62
     3
 10
-370.118571443087
 20
64.1458857060225
 30
0.0
 11
-371.918930167723
 21
66.5456166206517
 31
0.0
  0
LINE
  5
   1B4
  8
0
  6
CONTINUOUS
 62
     3
 10
-365.98281928863
 20
61.8875068022189
 30
0.0
 11
-368.741841154569
 21
63.0655553340166
 31
0.0
  0
LINE
  5
   1B5
  8
0
  6
CONTINUOUS
 62
     3
 10
-368.741841154569
 20
63.0655553340166
 30
0.0
 11
-366.941482429933
 21
60.6658244193873
 31
0.0
  0
ENDBLK
  5
   1B6
  8
0
  6
CONTINUOUS
 62
     3
  0
BLOCK
  5
   1B7
  8
0
  6
CONTINUOUS
 62
     3
  2
*UDIM612
 70
    65
 10
0.0
 20
0.0
 30
0.0
  3
*UDIM612
  0
TEXT
  5
   1B8
  8
0
  6
CONTINUOUS
 62
     3
 10
-324.50669951311
 20
15.1841888594246
 30
0.0
 40
3.00000002980232
  1
7
 50
313.572637250259
 41
0.933333333333334
 72
     1
 11
-322.661746829507
 21
15.421148062681
 31
0.0
 73
     2
  0
TEXT
  5
   1B9
  8
0
  6
CONTINUOUS
 62
     3
 10
-327.263794029936
 20
18.082193356265
 30
0.0
 40
3.00000002980232
  1
Ø
 50
313.572637250259
 41
1.2
 72
     1
 11
-325.143131894674
 21
18.0293521084436
 31
0.0
 73
     2
  0
LINE
  5
   1BA
  8
0
  6
CONTINUOUS
 62
     3
 10
-342.229688841402
 20
32.3621645919408
 30
0.0
 11
-323.714798642638
 21
12.9010127533361
 31
0.0
  0
LINE
  5
   1BB
  8
0
  6
CONTINUOUS
 62
     3
 10
-341.343226379733
 20
30.3039105813901
 30
0.0
 11
-338.783320720062
 21
28.7396589988163
 31
0.0
  0
LINE
  5
   1BC
  8
0
  6
CONTINUOUS
 62
     3
 10
-338.783320720062
 20
28.7396589988163
 30
0.0
 11
-340.218138222954
 21
31.3742934579766
 31
0.0
  0
LINE
  5
   1BD
  8
0
  6
CONTINUOUS
 62
     3
 10
-335.017186217923
 20
25.907530458649
 30
0.0
 11
-337.577091877594
 21
27.4717820412228
 31
0.0
  0
LINE
  5
   1BE
  8
0
  6
CONTINUOUS
 62
     3
 10
-337.577091877594
 20
27.4717820412228
 30
0.0
 11
-336.142274374702
 21
24.8371475820624
 31
0.0
  0
ENDBLK
  5
   1BF
  8
0
  6
CONTINUOUS
 62
     3
  0
BLOCK
  5
   1C0
  8
0
  6
CONTINUOUS
 62
     7
  2
*UDIM613
 70
    65
 10
0.0
 20
0.0
 30
0.0
  3
*UDIM613
  0
TEXT
  5
   1C1
  8
0
  6
CONTINUOUS
 62
     7
 10
-356.436047871585
 20
7.27512744429406
 30
0.0
 40
3.00000002980232
  1
R min.200
 50
359.999999844103
 41
0.933333333333333
 72
     1
 11
-344.136047745322
 21
8.77512742578983
 31
0.0
 73
     2
  0
LINE
  5
   1C2
  8
0
  6
CONTINUOUS
 62
     7
 10
-358.430206298828
 20
21.7105392024681
 30
0.0
 11
-358.430206298828
 21
4.27512741088867
 31
0.0
  0
LINE
  5
   1C3
  8
0
  6
CONTINUOUS
 62
     7
 10
-329.787830334553
 20
9.27485871162738
 30
0.0
 11
-329.787830334553
 21
4.27512741088867
 31
0.0
  0
LINE
  5
   1C4
  8
0
  6
CONTINUOUS
 62
     7
 10
-358.430206298828
 20
6.27512741088867
 30
0.0
 11
-329.787830334553
 21
6.27512741088867
 31
0.0
  0
LINE
  5
   1C5
  8
0
  6
CONTINUOUS
 62
     7
 10
-361.384629576035
 20
5.75418298093701
 30
0.0
 11
-358.430206298828
 21
6.27512741088867
 31
0.0
  0
LINE
  5
   1C6
  8
0
  6
CONTINUOUS
 62
     7
 10
-358.430206298828
 20
6.27512741088867
 30
0.0
 11
-361.384629576035
 21
6.79607184084033
 31
0.0
  0
LINE
  5
   1C7
  8
0
  6
CONTINUOUS
 62
     7
 10
-326.833407057346
 20
6.79607184084033
 30
0.0
 11
-329.787830334553
 21
6.27512741088867
 31
0.0
  0
LINE
  5
   1C8
  8
0
  6
CONTINUOUS
 62
     7
 10
-329.787830334553
 20
6.27512741088867
 30
0.0
 11
-326.833407057346
 21
5.75418298093701
 31
0.0
  0
ENDBLK
  5
   1C9
  8
0
  6
CONTINUOUS
 62
     7
  0
BLOCK
  5
   1CA
  8
0
  6
CONTINUOUS
 62
     7
  2
*UDIM614
 70
    65
 10
0.0
 20
0.0
 30
0.0
  3
*UDIM614
  0
TEXT
  5
   1CB
  8
0
  6
CONTINUOUS
 62
     7
 10
-395.9701271201
 20
49.3432204573364
 30
0.0
 40
3.00000002980232
  1
72,5
 50
449.999999844103
 41
0.933333333333333
 72
     1
 11
-397.470127120614
 21
54.6432205140591
 31
0.0
 73
     2
  0
LINE
  5
   1CC
  8
0
  6
CONTINUOUS
 62
     7
 10
-366.725206298828
 20
63.9807205200195
 30
0.0
 11
-396.970127105713
 21
63.9807205200195
 31
0.0
  0
LINE
  5
   1CD
  8
0
  6
CONTINUOUS
 62
     7
 10
-386.890931061972
 20
45.8557205200195
 30
0.0
 11
-396.970127105713
 21
45.8557205200195
 31
0.0
  0
LINE
  5
   1CE
  8
0
  6
CONTINUOUS
 62
     7
 10
-394.970127105713
 20
63.9807205200195
 30
0.0
 11
-394.970127105713
 21
45.8557205200195
 31
0.0
  0
LINE
  5
   1CF
  8
0
  6
CONTINUOUS
 62
     7
 10
-394.449182675761
 20
61.0262972428126
 30
0.0
 11
-394.970127105713
 21
63.9807205200195
 31
0.0
  0
LINE
  5
   1D0
  8
0
  6
CONTINUOUS
 62
     7
 10
-394.970127105713
 20
63.9807205200195
 30
0.0
 11
-395.491071535665
 21
61.0262972428126
 31
0.0
  0
LINE
  5
   1D1
  8
0
  6
CONTINUOUS
 62
     7
 10
-395.491071535665
 20
48.8101437972265
 30
0.0
 11
-394.970127105713
 21
45.8557205200195
 31
0.0
  0
LINE
  5
   1D2
  8
0
  6
CONTINUOUS
 62
     7
 10
-394.970127105713
 20
45.8557205200195
 30
0.0
 11
-394.449182675761
 21
48.8101437972265
 31
0.0
  0
ENDBLK
  5
   1D3
  8
0
  6
CONTINUOUS
 62
     7
  0
BLOCK
  5
   1D4
  8
0
  6
CONTINUOUS
 62
     7
  2
*UDIM615
 70
    65
 10
0.0
 20
0.0
 30
0.0
  3
*UDIM615
  0
TEXT
  5
   1D5
  8
0
  6
CONTINUOUS
 62
     7
 10
-349.126187353433
 20
74.7132778235622
 30
0.0
 40
3.00000002980232
  1
45
 50
359.999999844103
 41
0.933333333333333
 72
     1
 11
-346.626187324524
 21
76.2132778316736
 31
0.0
 73
     2
  0
LINE
  5
   1D6
  8
0
  6
CONTINUOUS
 62
     7
 10
-364.055206298828
 20
66.6507205200195
 30
0.0
 11
-364.055206298828
 21
75.7132778167725
 31
0.0
  0
LINE
  5
   1D7
  8
0
  6
CONTINUOUS
 62
     7
 10
-352.805206298828
 20
66.6507205200195
 30
0.0
 11
-352.805206298828
 21
75.7132778167725
 31
0.0
  0
LINE
  5
   1D8
  8
0
  6
CONTINUOUS
 62
     7
 10
-364.055206298828
 20
73.7132778167725
 30
0.0
 11
-344.126187299689
 21
73.7132778167725
 31
0.0
  0
LINE
  5
   1D9
  8
0
  6
CONTINUOUS
 62
     7
 10
-367.009629576035
 20
73.1923333868208
 30
0.0
 11
-364.055206298828
 21
73.7132778167725
 31
0.0
  0
LINE
  5
   1DA
  8
0
  6
CONTINUOUS
 62
     7
 10
-364.055206298828
 20
73.7132778167725
 30
0.0
 11
-367.009629576035
 21
74.2342222467241
 31
0.0
  0
LINE
  5
   1DB
  8
0
  6
CONTINUOUS
 62
     7
 10
-349.850783021621
 20
74.2342222467241
 30
0.0
 11
-352.805206298828
 21
73.7132778167725
 31
0.0
  0
LINE
  5
   1DC
  8
0
  6
CONTINUOUS
 62
     7
 10
-352.805206298828
 20
73.7132778167725
 30
0.0
 11
-349.850783021621
 21
73.1923333868208
 31
0.0
  0
ENDBLK
  5
   1DD
  8
0
  6
CONTINUOUS
 62
     7
  0
BLOCK
  5
   1DE
  8
0
  6
CONTINUOUS
 62
     7
  2
*UDIM616
 70
    65
 10
0.0
 20
0.0
 30
0.0
  3
*UDIM616
  0
TEXT
  5
   1DF
  8
0
  6
CONTINUOUS
 62
     7
 10
-320.138549822876
 20
48.7557208308588
 30
0.0
 40
3.00000002980232
  1
27,25
 50
449.999999844103
 41
0.933333333333333
 72
     1
 11
-321.638549819589
 21
55.4557209014893
 31
0.0
 73
     2
  0
LINE
  5
   1E0
  8
0
  6
CONTINUOUS
 62
     7
 10
-329.437477998691
 20
45.8557205200195
 30
0.0
 11
-317.138549804688
 21
45.8557205200195
 31
0.0
  0
LINE
  5
   1E1
  8
0
  6
CONTINUOUS
 62
     7
 10
-332.174899899386
 20
39.0432205200195
 30
0.0
 11
-317.138549804688
 21
39.0432205200195
 31
0.0
  0
LINE
  5
   1E2
  8
0
  6
CONTINUOUS
 62
     7
 10
-319.138549804688
 20
62.1557209680478
 30
0.0
 11
-319.138549804688
 21
39.0432205200195
 31
0.0
  0
LINE
  5
   1E3
  8
0
  6
CONTINUOUS
 62
     7
 10
-319.659494234639
 20
48.8101437972265
 30
0.0
 11
-319.138549804688
 21
45.8557205200195
 31
0.0
  0
LINE
  5
   1E4
  8
0
  6
CONTINUOUS
 62
     7
 10
-319.138549804688
 20
45.8557205200195
 30
0.0
 11
-318.617605374736
 21
48.8101437972265
 31
0.0
  0
LINE
  5
   1E5
  8
0
  6
CONTINUOUS
 62
     7
 10
-318.617605374736
 20
36.0887972428126
 30
0.0
 11
-319.138549804688
 21
39.0432205200195
 31
0.0
  0
LINE
  5
   1E6
  8
0
  6
CONTINUOUS
 62
     7
 10
-319.138549804688
 20
39.0432205200195
 30
0.0
 11
-319.659494234639
 21
36.0887972428126
 31
0.0
  0
ENDBLK
  5
   1E7
  8
0
  6
CONTINUOUS
 62
     7
  0
BLOCK
  5
   1E8
  8
0
  6
CONTINUOUS
 62
     7
  2
*UDIM617
 70
    65
 10
0.0
 20
0.0
 30
0.0
  3
*UDIM617
  0
TEXT
  5
   1E9
  8
0
  6
CONTINUOUS
 62
     7
 10
-314.721073153621
 20
54.2889862148971
 30
0.0
 40
3.00000002980232
  1
=
 50
449.999999844103
 41
0.933333333333334
 72
     1
 11
-316.221073165536
 21
55.3889862298966
 31
0.0
 73
     2
  0
LINE
  5
   1EA
  8
0
  6
CONTINUOUS
 62
     7
 10
-335.555206298828
 20
63.6057205200195
 30
0.0
 11
-311.721073150635
 21
63.6057205200195
 31
0.0
  0
LINE
  5
   1EB
  8
0
  6
CONTINUOUS
 62
     7
 10
-335.555206298828
 20
45.8557205200195
 30
0.0
 11
-311.721073150635
 21
45.8557205200195
 31
0.0
  0
LINE
  5
   1EC
  8
0
  6
CONTINUOUS
 62
     7
 10
-313.721073150635
 20
63.6057205200195
 30
0.0
 11
-313.721073150635
 21
45.8557205200195
 31
0.0
  0
LINE
  5
   1ED
  8
0
  6
CONTINUOUS
 62
     7
 10
-313.200128720683
 20
60.6512972428126
 30
0.0
 11
-313.721073150635
 21
63.6057205200195
 31
0.0
  0
LINE
  5
   1EE
  8
0
  6
CONTINUOUS
 62
     7
 10
-313.721073150635
 20
63.6057205200195
 30
0.0
 11
-314.242017580586
 21
60.6512972428126
 31
0.0
  0
LINE
  5
   1EF
  8
0
  6
CONTINUOUS
 62
     7
 10
-314.242017580586
 20
48.8101437972265
 30
0.0
 11
-313.721073150635
 21
45.8557205200195
 31
0.0
  0
LINE
  5
   1F0
  8
0
  6
CONTINUOUS
 62
     7
 10
-313.721073150635
 20
45.8557205200195
 30
0.0
 11
-313.200128720683
 21
48.8101437972265
 31
0.0
  0
ENDBLK
  5
   1F1
  8
0
  6
CONTINUOUS
 62
     7
  0
BLOCK
  5
   1F2
  8
0
  6
CONTINUOUS
 62
     7
  2
*UDIM618
 70
    65
 10
0.0
 20
0.0
 30
0.0
  3
*UDIM618
  0
TEXT
  5
   1F3
  8
0
  6
CONTINUOUS
 62
     7
 10
-314.721073153621
 20
36.5389862148971
 30
0.0
 40
3.00000002980232
  1
=
 50
449.999999844103
 41
0.933333333333334
 72
     1
 11
-316.221073165536
 21
37.6389862298965
 31
0.0
 73
     2
  0
LINE
  5
   1F4
  8
0
  6
CONTINUOUS
 62
     7
 10
-335.555206298828
 20
28.1057205200195
 30
0.0
 11
-311.721073150635
 21
28.1057205200195
 31
0.0
  0
LINE
  5
   1F5
  8
0
  6
CONTINUOUS
 62
     7
 10
-313.721073150635
 20
45.8557205200195
 30
0.0
 11
-313.721073150635
 21
28.1057205200195
 31
0.0
  0
LINE
  5
   1F6
  8
0
  6
CONTINUOUS
 62
     7
 10
-313.200128720683
 20
42.9012972428126
 30
0.0
 11
-313.721073150635
 21
45.8557205200195
 31
0.0
  0
LINE
  5
   1F7
  8
0
  6
CONTINUOUS
 62
     7
 10
-313.721073150635
 20
45.8557205200195
 30
0.0
 11
-314.242017580586
 21
42.9012972428126
 31
0.0
  0
LINE
  5
   1F8
  8
0
  6
CONTINUOUS
 62
     7
 10
-314.242017580586
 20
31.0601437972265
 30
0.0
 11
-313.721073150635
 21
28.1057205200195
 31
0.0
  0
LINE
  5
   1F9
  8
0
  6
CONTINUOUS
 62
     7
 10
-313.721073150635
 20
28.1057205200195
 30
0.0
 11
-313.200128720683
 21
31.0601437972265
 31
0.0
  0
ENDBLK
  5
   1FA
  8
0
  6
CONTINUOUS
 62
     7
  0
BLOCK
  5
   1FB
  8
0
  6
CONTINUOUS
 62
     7
  2
*UDIM619
 70
    65
 10
0.0
 20
0.0
 30
0.0
  3
*UDIM619
  0
TEXT
  5
   1FC
  8
0
  6
CONTINUOUS
 62
     7
 10
-388.57354546652
 20
41.6807204712441
 30
0.0
 40
3.00000002980232
  1
126
 50
449.999999844103
 41
0.933333333333333
 72
     1
 11
-390.073545470834
 21
45.5807205140591
 31
0.0
 73
     2
  0
LINE
  5
   1FD
  8
0
  6
CONTINUOUS
 62
     7
 10
-377.430206298828
 20
61.6057205200195
 30
0.0
 11
-389.573545455933
 21
61.6057205200195
 31
0.0
  0
LINE
  5
   1FE
  8
0
  6
CONTINUOUS
 62
     7
 10
-377.430206298828
 20
30.1057205200195
 30
0.0
 11
-389.573545455933
 21
30.1057205200195
 31
0.0
  0
LINE
  5
   1FF
  8
0
  6
CONTINUOUS
 62
     7
 10
-387.573545455933
 20
61.6057205200195
 30
0.0
 11
-387.573545455933
 21
30.1057205200195
 31
0.0
  0
LINE
  5
   200
  8
0
  6
CONTINUOUS
 62
     7
 10
-387.052601025981
 20
58.6512972428126
 30
0.0
 11
-387.573545455933
 21
61.6057205200195
 31
0.0
  0
LINE
  5
   201
  8
0
  6
CONTINUOUS
 62
     7
 10
-387.573545455933
 20
61.6057205200195
 30
0.0
 11
-388.094489885884
 21
58.6512972428126
 31
0.0
  0
LINE
  5
   202
  8
0
  6
CONTINUOUS
 62
     7
 10
-388.094489885884
 20
33.0601437972265
 30
0.0
 11
-387.573545455933
 21
30.1057205200195
 31
0.0
  0
LINE
  5
   203
  8
0
  6
CONTINUOUS
 62
     7
 10
-387.573545455933
 20
30.1057205200195
 30
0.0
 11
-387.052601025981
 21
33.0601437972265
 31
0.0
  0
ENDBLK
  5
   204
  8
0
  6
CONTINUOUS
 62
     7
  0
BLOCK
  5
   205
  8
0
  6
CONTINUOUS
 62
     7
  2
*UDIM620
 70
    65
 10
0.0
 20
0.0
 30
0.0
  3
*UDIM620
  0
TEXT
  5
   206
  8
0
  6
CONTINUOUS
 62
     7
 10
-308.024059306241
 20
41.6807204712441
 30
0.0
 40
3.00000002980232
  1
142
 50
449.999999844103
 41
0.933333333333333
 72
     1
 11
-309.524059310555
 21
45.5807205140591
 31
0.0
 73
     2
  0
LINE
  5
   207
  8
0
  6
CONTINUOUS
 62
     7
 10
-366.805206298828
 20
63.6057205200195
 30
0.0
 11
-305.024059295654
 21
63.6057205200195
 31
0.0
  0
LINE
  5
   208
  8
0
  6
CONTINUOUS
 62
     7
 10
-335.555206298828
 20
28.1057205200195
 30
0.0
 11
-305.024059295654
 21
28.1057205200195
 31
0.0
  0
LINE
  5
   209
  8
0
  6
CONTINUOUS
 62
     7
 10
-307.024059295654
 20
63.6057205200195
 30
0.0
 11
-307.024059295654
 21
28.1057205200195
 31
0.0
  0
LINE
  5
   20A
  8
0
  6
CONTINUOUS
 62
     7
 10
-306.503114865703
 20
60.6512972428126
 30
0.0
 11
-307.024059295654
 21
63.6057205200195
 31
0.0
  0
LINE
  5
   20B
  8
0
  6
CONTINUOUS
 62
     7
 10
-307.024059295654
 20
63.6057205200195
 30
0.0
 11
-307.545003725606
 21
60.6512972428126
 31
0.0
  0
LINE
  5
   20C
  8
0
  6
CONTINUOUS
 62
     7
 10
-307.545003725606
 20
31.0601437972265
 30
0.0
 11
-307.024059295654
 21
28.1057205200195
 31
0.0
  0
LINE
  5
   20D
  8
0
  6
CONTINUOUS
 62
     7
 10
-307.024059295654
 20
28.1057205200195
 30
0.0
 11
-306.503114865703
 21
31.0601437972265
 31
0.0
  0
ENDBLK
  5
   20E
  8
0
  6
CONTINUOUS
 62
     7
  0
BLOCK
  5
   20F
  8
0
  6
CONTINUOUS
 62
     7
  2
*UDIM621
 70
    65
 10
0.0
 20
0.0
 30
0.0
  3
*UDIM621
  0
TEXT
  5
   210
  8
0
  6
CONTINUOUS
 62
     7
 10
-351.412736899487
 20
36.3534827837358
 30
0.0
 40
3.00000002980232
  1
16
 50
449.999999844103
 41
0.933333333333333
 72
     1
 11
-352.912736907601
 21
38.8534828126431
 31
0.0
 73
     2
  0
LINE
  5
   211
  8
0
  6
CONTINUOUS
 62
     7
 10
-343.680206298828
 20
41.0432205200195
 30
0.0
 11
-352.4127368927
 21
41.0432205200195
 31
0.0
  0
LINE
  5
   212
  8
0
  6
CONTINUOUS
 62
     7
 10
-343.680206298828
 20
37.0432205200195
 30
0.0
 11
-352.4127368927
 21
37.0432205200195
 31
0.0
  0
LINE
  5
   213
  8
0
  6
CONTINUOUS
 62
     7
 10
-350.4127368927
 20
41.3534828374783
 30
0.0
 11
-350.4127368927
 21
36.3534827878078
 31
0.0
  0
LINE
  5
   214
  8
0
  6
CONTINUOUS
 62
     7
 10
-350.933681322652
 20
43.9976437972265
 30
0.0
 11
-350.4127368927
 21
41.0432205200195
 31
0.0
  0
LINE
  5
   215
  8
0
  6
CONTINUOUS
 62
     7
 10
-350.4127368927
 20
41.0432205200195
 30
0.0
 11
-349.891792462749
 21
43.9976437972265
 31
0.0
  0
LINE
  5
   216
  8
0
  6
CONTINUOUS
 62
     7
 10
-349.891792462749
 20
34.0887972428126
 30
0.0
 11
-350.4127368927
 21
37.0432205200195
 31
0.0
  0
LINE
  5
   217
  8
0
  6
CONTINUOUS
 62
     7
 10
-350.4127368927
 20
37.0432205200195
 30
0.0
 11
-350.933681322652
 21
34.0887972428126
 31
0.0
  0
ENDBLK
  5
   218
  8
0
  6
CONTINUOUS
 62
     7
  0
BLOCK
  5
   219
  8
0
  6
CONTINUOUS
 62
     7
  2
*UDIM622
 70
    65
 10
0.0
 20
0.0
 30
0.0
  3
*UDIM622
  0
TEXT
  5
   21A
  8
0
  6
CONTINUOUS
 62
     7
 10
-349.455206333698
 20
50.4043018885799
 30
0.0
 40
3.00000002980232
  1
94
 50
359.999999844103
 41
0.933333333333333
 72
     1
 11
-346.955206304789
 21
51.9043018966913
 31
0.0
 73
     2
  0
LINE
  5
   21B
  8
0
  6
CONTINUOUS
 62
     7
 10
-334.930206298828
 20
39.9182205200195
 30
0.0
 11
-334.930206298828
 21
51.4043018817902
 31
0.0
  0
LINE
  5
   21C
  8
0
  6
CONTINUOUS
 62
     7
 10
-358.430206298828
 20
49.4043018817902
 30
0.0
 11
-334.930206298828
 21
49.4043018817902
 31
0.0
  0
LINE
  5
   21D
  8
0
  6
CONTINUOUS
 62
     7
 10
-355.475783021621
 20
49.9252463117418
 30
0.0
 11
-358.430206298828
 21
49.4043018817902
 31
0.0
  0
LINE
  5
   21E
  8
0
  6
CONTINUOUS
 62
     7
 10
-358.430206298828
 20
49.4043018817902
 30
0.0
 11
-355.475783021621
 21
48.8833574518385
 31
0.0
  0
LINE
  5
   21F
  8
0
  6
CONTINUOUS
 62
     7
 10
-337.884629576035
 20
48.8833574518385
 30
0.0
 11
-334.930206298828
 21
49.4043018817902
 31
0.0
  0
LINE
  5
   220
  8
0
  6
CONTINUOUS
 62
     7
 10
-334.930206298828
 20
49.4043018817902
 30
0.0
 11
-337.884629576035
 21
49.9252463117418
 31
0.0
  0
ENDBLK
  5
   221
  8
0
  6
CONTINUOUS
 62
     7
  0
BLOCK
  5
   222
  8
0
  6
CONTINUOUS
 62
     7
  2
*UDIM623
 70
    65
 10
0.0
 20
0.0
 30
0.0
  3
*UDIM623
  0
TEXT
  5
   223
  8
0
  6
CONTINUOUS
 62
     7
 10
-357.980206377408
 20
14.7975387679162
 30
0.0
 40
3.00000002980232
  1
125
 50
359.999999844103
 41
0.933333333333333
 72
     1
 11
-354.080206334591
 21
16.2975387722254
 31
0.0
 73
     2
  0
LINE
  5
   224
  8
0
  6
CONTINUOUS
 62
     7
 10
-369.430206298828
 20
25.4807205200195
 30
0.0
 11
-369.430206298828
 21
11.7975387573242
 31
0.0
  0
LINE
  5
   225
  8
0
  6
CONTINUOUS
 62
     7
 10
-338.180206298828
 20
25.4807205200195
 30
0.0
 11
-338.180206298828
 21
11.7975387573242
 31
0.0
  0
LINE
  5
   226
  8
0
  6
CONTINUOUS
 62
     7
 10
-369.430206298828
 20
13.7975387573242
 30
0.0
 11
-338.180206298828
 21
13.7975387573242
 31
0.0
  0
LINE
  5
   227
  8
0
  6
CONTINUOUS
 62
     7
 10
-366.475783021621
 20
14.3184831872759
 30
0.0
 11
-369.430206298828
 21
13.7975387573242
 31
0.0
  0
LINE
  5
   228
  8
0
  6
CONTINUOUS
 62
     7
 10
-369.430206298828
 20
13.7975387573242
 30
0.0
 11
-366.475783021621
 21
13.2765943273726
 31
0.0
  0
LINE
  5
   229
  8
0
  6
CONTINUOUS
 62
     7
 10
-341.134629576035
 20
13.2765943273726
 30
0.0
 11
-338.180206298828
 21
13.7975387573242
 31
0.0
  0
LINE
  5
   22A
  8
0
  6
CONTINUOUS
 62
     7
 10
-338.180206298828
 20
13.7975387573242
 30
0.0
 11
-341.134629576035
 21
14.3184831872759
 31
0.0
  0
ENDBLK
  5
   22B
  8
0
  6
CONTINUOUS
 62
     7
  0
BLOCK
  5
   22C
  8
0
  6
CONTINUOUS
 62
     7
  2
*UDIM624
 70
    65
 10
0.0
 20
0.0
 30
0.0
  3
*UDIM624
  0
TEXT
  5
   22D
  8
0
  6
CONTINUOUS
 62
     7
 10
-351.080206333698
 20
21.9007930823512
 30
0.0
 40
3.00000002980232
  1
81
 50
359.999999844103
 41
0.933333333333333
 72
     1
 11
-348.580206304789
 21
23.4007930904627
 31
0.0
 73
     2
  0
LINE
  5
   22E
  8
0
  6
CONTINUOUS
 62
     7
 10
-358.430206298828
 20
21.7105392024681
 30
0.0
 11
-358.430206298828
 21
18.9007930755615
 31
0.0
  0
LINE
  5
   22F
  8
0
  6
CONTINUOUS
 62
     7
 10
-338.180206298828
 20
25.4807205200195
 30
0.0
 11
-338.180206298828
 21
18.9007930755615
 31
0.0
  0
LINE
  5
   230
  8
0
  6
CONTINUOUS
 62
     7
 10
-358.430206298828
 20
20.9007930755615
 30
0.0
 11
-338.180206298828
 21
20.9007930755615
 31
0.0
  0
LINE
  5
   231
  8
0
  6
CONTINUOUS
 62
     7
 10
-355.475783021621
 20
21.4217375055132
 30
0.0
 11
-358.430206298828
 21
20.9007930755615
 31
0.0
  0
LINE
  5
   232
  8
0
  6
CONTINUOUS
 62
     7
 10
-358.430206298828
 20
20.9007930755615
 30
0.0
 11
-355.475783021621
 21
20.3798486456099
 31
0.0
  0
LINE
  5
   233
  8
0
  6
CONTINUOUS
 62
     7
 10
-341.134629576035
 20
20.3798486456099
 30
0.0
 11
-338.180206298828
 21
20.9007930755615
 31
0.0
  0
LINE
  5
   234
  8
0
  6
CONTINUOUS
 62
     7
 10
-338.180206298828
 20
20.9007930755615
 30
0.0
 11
-341.134629576035
 21
21.4217375055132
 31
0.0
  0
ENDBLK
  5
   235
  8
0
  6
CONTINUOUS
 62
     7
  0
BLOCK
  5
   236
  8
0
  6
CONTINUOUS
 62
     7
  2
*UDIM625
 70
    65
 10
0.0
 20
0.0
 30
0.0
  3
*UDIM625
  0
TEXT
  5
   237
  8
0
  6
CONTINUOUS
 62
     7
 10
-363.730206347605
 20
90.3889846907677
 30
0.0
 40
3.00000002980232
  1
135
 50
359.999999844103
 41
0.933333333333333
 72
     1
 11
-359.830206304789
 21
91.8889846950769
 31
0.0
 73
     2
  0
LINE
  5
   238
  8
0
  6
CONTINUOUS
 62
     7
 10
-376.430206298828
 20
62.6057205200195
 30
0.0
 11
-376.430206298828
 21
91.3889846801758
 31
0.0
  0
LINE
  5
   239
  8
0
  6
CONTINUOUS
 62
     7
 10
-342.680206298828
 20
62.6057205200195
 30
0.0
 11
-342.680206298828
 21
91.3889846801758
 31
0.0
  0
LINE
  5
   23A
  8
0
  6
CONTINUOUS
 62
     7
 10
-376.430206298828
 20
89.3889846801758
 30
0.0
 11
-342.680206298828
 21
89.3889846801758
 31
0.0
  0
LINE
  5
   23B
  8
0
  6
CONTINUOUS
 62
     7
 10
-373.475783021621
 20
89.9099291101274
 30
0.0
 11
-376.430206298828
 21
89.3889846801758
 31
0.0
  0
LINE
  5
   23C
  8
0
  6
CONTINUOUS
 62
     7
 10
-376.430206298828
 20
89.3889846801758
 30
0.0
 11
-373.475783021621
 21
88.8680402502241
 31
0.0
  0
LINE
  5
   23D
  8
0
  6
CONTINUOUS
 62
     7
 10
-345.634629576035
 20
88.8680402502241
 30
0.0
 11
-342.680206298828
 21
89.3889846801758
 31
0.0
  0
LINE
  5
   23E
  8
0
  6
CONTINUOUS
 62
     7
 10
-342.680206298828
 20
89.3889846801758
 30
0.0
 11
-345.634629576035
 21
89.9099291101274
 31
0.0
  0
ENDBLK
  5
   23F
  8
0
  6
CONTINUOUS
 62
     7
  0
BLOCK
  5
   240
  8
0
  6
CONTINUOUS
 62
     7
  2
*UDIM626
 70
    65
 10
0.0
 20
0.0
 30
0.0
  3
*UDIM626
  0
TEXT
  5
   241
  8
0
  6
CONTINUOUS
 62
     7
 10
-353.330206810535
 20
82.1518859931179
 30
0.0
 40
3.00000002980232
  1
63
 50
359.999999844103
 41
0.933333333333333
 72
     1
 11
-350.830206781626
 21
83.6518860012293
 31
0.0
 73
     2
  0
LINE
  5
   242
  8
0
  6
CONTINUOUS
 62
     7
 10
-358.430206298828
 20
72.4832116808746
 30
0.0
 11
-358.430206298828
 21
83.1518859863281
 31
0.0
  0
LINE
  5
   243
  8
0
  6
CONTINUOUS
 62
     7
 10
-342.680206298828
 20
62.6057205200195
 30
0.0
 11
-342.680206298828
 21
83.1518859863281
 31
0.0
  0
LINE
  5
   244
  8
0
  6
CONTINUOUS
 62
     7
 10
-358.430206298828
 20
81.1518859863281
 30
0.0
 11
-342.680206298828
 21
81.1518859863281
 31
0.0
  0
LINE
  5
   245
  8
0
  6
CONTINUOUS
 62
     7
 10
-355.475783021621
 20
81.6728304162798
 30
0.0
 11
-358.430206298828
 21
81.1518859863281
 31
0.0
  0
LINE
  5
   246
  8
0
  6
CONTINUOUS
 62
     7
 10
-358.430206298828
 20
81.1518859863281
 30
0.0
 11
-355.475783021621
 21
80.6309415563765
 31
0.0
  0
LINE
  5
   247
  8
0
  6
CONTINUOUS
 62
     7
 10
-345.634629576035
 20
80.6309415563765
 30
0.0
 11
-342.680206298828
 21
81.1518859863281
 31
0.0
  0
LINE
  5
   248
  8
0
  6
CONTINUOUS
 62
     7
 10
-342.680206298828
 20
81.1518859863281
 30
0.0
 11
-345.634629576035
 21
81.6728304162798
 31
0.0
  0
ENDBLK
  5
   249
  8
0
  6
CONTINUOUS
 62
     7
  0
BLOCK
  5
   24A
  8
0
  6
CONTINUOUS
 62
     7
  2
*HATCH103
 70
    65
 10
0.0
 20
0.0
 30
0.0
  3
*HATCH103
  0
LINE
  5
   24B
  8
0
  6
CONTINUOUS
 62
    52
 10
-11.7279224395752
 20
1.0
 30
0.0
 11
-11.9763488769531
 21
0.75157368183136
 31
0.0
  0
LINE
  5
   24C
  8
0
  6
CONTINUOUS
 62
    52
 10
-9.60660171508789
 20
1.0
 30
0.0
 11
-11.6066026687622
 21
-1.0
 31
0.0
  0
LINE
  5
   24D
  8
0
  6
CONTINUOUS
 62
    52
 10
-7.48528146743774
 20
1.0
 30
0.0
 11
-9.48528289794922
 21
-1.0
 31
0.0
  0
LINE
  5
   24E
  8
0
  6
CONTINUOUS
 62
    52
 10
-5.3639612197876
 20
1.0
 30
0.0
 11
-7.36396265029907
 21
-1.0
 31
0.0
  0
LINE
  5
   24F
  8
0
  6
CONTINUOUS
 62
    52
 10
-3.47947335243225
 20
0.763167560100555
 30
0.0
 11
-5.24264097213745
 21
-1.0
 31
0.0
  0
LINE
  5
   250
  8
0
  6
CONTINUOUS
 62
    52
 10
-2.51160907745361
 20
-0.390288293361664
 30
0.0
 11
-3.1213207244873
 21
-1.0
 31
0.0
  0
ENDBLK
  5
   251
  8
0
  6
CONTINUOUS
 62
     7
  0
BLOCK
  5
   252
  8
0
  6
CONTINUOUS
 62
     7
  2
*HATCH104
 70
    65
 10
0.0
 20
0.0
 30
0.0
  3
*HATCH104
  0
LINE
  5
   253
  8
0
  6
CONTINUOUS
 62
    52
 10
5.24264097213745
 20
1.0
 30
0.0
 11
3.24264073371887
 21
-1.0
 31
0.0
  0
LINE
  5
   254
  8
0
  6
CONTINUOUS
 62
    52
 10
7.3639612197876
 20
1.0
 30
0.0
 11
5.3639612197876
 21
-1.0
 31
0.0
  0
LINE
  5
   255
  8
0
  6
CONTINUOUS
 62
    52
 10
9.48528099060059
 20
1.0
 30
0.0
 11
7.4852819442749
 21
-1.0
 31
0.0
  0
ENDBLK
  5
   256
  8
0
  6
CONTINUOUS
 62
     7
  0
BLOCK
  5
   257
  8
0
  6
CONTINUOUS
 62
     7
  2
*UDIM627
 70
    65
 10
0.0
 20
0.0
 30
0.0
  3
*UDIM627
  0
TEXT
  5
   258
  8
0
  6
CONTINUOUS
 62
     7
 10
-512.441850896909
 20
-118.437900616
 30
0.0
 40
3.00000002980232
  1
80
 50
449.241125536518
 41
0.933333333333333
 72
     1
 11
-513.908608166843
 21
-115.918253164476
 31
0.0
 73
     2
  0
TEXT
  5
   259
  8
0
  6
CONTINUOUS
 62
     7
 10
-512.97557593117
 20
-113.430392444554
 30
0.0
 40
3.00000002980232
  1
°
 50
449.241125536518
 41
0.933333333333334
 72
     1
 11
-514.460875460332
 21
-112.310622210347
 31
0.0
 73
     2
  0
LINE
  5
   25A
  8
0
  6
CONTINUOUS
 62
     7
 10
-529.504280263912
 20
-118.864359979951
 30
0.0
 11
-515.302313097682
 21
-130.781225391127
 31
0.0
  0
LINE
  5
   25B
  8
0
  6
CONTINUOUS
 62
     7
 10
-529.504280263912
 20
-110.222386235869
 30
0.0
 11
-515.302313097682
 21
-98.3055208246932
 31
0.0
  0
ARC
  5
   25C
  8
0
  6
CONTINUOUS
 62
     7
 10
-534.65383189222
 20
-114.54337310791
 30
0.0
 40
23.2616136940404
 50
319.999999815233
 51
399.999999769042
  0
LINE
  5
   25D
  8
0
  6
CONTINUOUS
 62
     7
 10
-515.3344018933
 20
-126.89757401272
 30
0.0
 11
-516.83440198392
 21
-129.495650171754
 31
0.0
  0
LINE
  5
   25E
  8
0
  6
CONTINUOUS
 62
     7
 10
-516.83440198392
 20
-129.495650171754
 30
0.0
 11
-514.536268721823
 21
-127.567287262536
 31
0.0
  0
LINE
  5
   25F
  8
0
  6
CONTINUOUS
 62
     7
 10
-514.536268721823
 20
-101.519458953284
 30
0.0
 11
-516.83440198392
 21
-99.5910960440663
 31
0.0
  0
LINE
  5
   260
  8
0
  6
CONTINUOUS
 62
     7
 10
-516.83440198392
 20
-99.5910960440663
 30
0.0
 11
-515.3344018933
 21
-102.1891722031
 31
0.0
  0
ENDBLK
  5
   261
  8
0
  6
CONTINUOUS
 62
     7
  0
BLOCK
  5
   262
  8
0
  6
CONTINUOUS
 62
     7
  2
*UDIM628
 70
    65
 10
0.0
 20
0.0
 30
0.0
  3
*UDIM628
  0
TEXT
  5
   263
  8
0
  6
CONTINUOUS
 62
     7
 10
-552.715991980664
 20
-108.658306150733
 30
0.0
 40
3.00000002980232
  1
Ø4
 50
449.999999844103
 41
0.933333333333333
 72
     1
 11
-554.215991988778
 21
-106.158306121826
 31
0.0
 73
     2
  0
LINE
  5
   264
  8
0
  6
CONTINUOUS
 62
     7
 10
-533.270324707031
 20
-112.54337310791
 30
0.0
 11
-553.715991973877
 21
-112.54337310791
 31
0.0
  0
LINE
  5
   265
  8
0
  6
CONTINUOUS
 62
     7
 10
-533.270324707031
 20
-116.54337310791
 30
0.0
 11
-553.715991973877
 21
-116.54337310791
 31
0.0
  0
LINE
  5
   266
  8
0
  6
CONTINUOUS
 62
     7
 10
-551.715991973877
 20
-103.658306096991
 30
0.0
 11
-551.715991973877
 21
-116.54337310791
 31
0.0
  0
LINE
  5
   267
  8
0
  6
CONTINUOUS
 62
     7
 10
-552.236936403829
 20
-109.588949830703
 30
0.0
 11
-551.715991973877
 21
-112.54337310791
 31
0.0
  0
LINE
  5
   268
  8
0
  6
CONTINUOUS
 62
     7
 10
-551.715991973877
 20
-112.54337310791
 30
0.0
 11
-551.195047543925
 21
-109.588949830703
 31
0.0
  0
LINE
  5
   269
  8
0
  6
CONTINUOUS
 62
     7
 10
-551.195047543925
 20
-119.497796385117
 30
0.0
 11
-551.715991973877
 21
-116.54337310791
 31
0.0
  0
LINE
  5
   26A
  8
0
  6
CONTINUOUS
 62
     7
 10
-551.715991973877
 20
-116.54337310791
 30
0.0
 11
-552.236936403829
 21
-119.497796385117
 31
0.0
  0
ENDBLK
  5
   26B
  8
0
  6
CONTINUOUS
 62
     7
  0
ENDSEC
  0
SECTION
  2
ENTITIES
  0
LINE
  5
   26C
  8
0
  6
DASHDOT
 62
     7
 10
-610.900634765625
 20
-92.2083073437402
 30
0.0
 11
-610.900634765625
 21
-155.853551611806
 31
0.0
  0
LINE
  5
   26D
  8
0
  6
CONTINUOUS
 62
     7
 10
-629.338134765625
 20
-94.4400620012341
 30
0.0
 11
-629.338134765625
 21
-151.443929717153
 31
0.0
  0
LINE
  5
   26E
  8
0
  6
CONTINUOUS
 62
     7
 10
-592.463134765625
 20
-93.9917176807492
 30
0.0
 11
-592.463134765625
 21
-153.046093606325
 31
0.0
  0
LINE
  5
   26F
  8
0
  6
CONTINUOUS
 62
     7
 10
-587.033858281278
 20
-150.718521118164
 30
0.0
 11
-633.021427364833
 21
-150.718521118164
 31
0.0
  0
LINE
  5
   270
  8
0
  6
DASHDOT
 62
     7
 10
-593.207654718908
 20
-102.093521118164
 30
0.0
 11
-628.271847574581
 21
-102.093521118164
 31
0.0
  0
LINE
  5
   271
  8
0
  6
DASHDOT
 62
     7
 10
-593.207654718908
 20
-135.843521118164
 30
0.0
 11
-628.323619623066
 21
-135.843521118164
 31
0.0
  0
LINE
  5
   272
  8
0
  6
DASHDOT
 62
     7
 10
-625.275634765625
 20
-98.3434344193297
 30
0.0
 11
-625.275634765625
 21
-139.804216581347
 31
0.0
  0
LINE
  5
   273
  8
0
  6
DASHDOT
 62
     7
 10
-596.525634765625
 20
-99.1113864718624
 30
0.0
 11
-596.525634765625
 21
-140.632569357113
 31
0.0
  0
CIRCLE
  5
   274
  8
0
  6
CONTINUOUS
 62
     7
 10
-625.275634765625
 20
-102.093521118164
 30
0.0
 40
0.75
  0
CIRCLE
  5
   275
  8
0
  6
CONTINUOUS
 62
     7
 10
-596.525634765625
 20
-102.093521118164
 30
0.0
 40
0.75
  0
CIRCLE
  5
   276
  8
0
  6
CONTINUOUS
 62
     7
 10
-625.275634765625
 20
-135.843521118164
 30
0.0
 40
0.75
  0
CIRCLE
  5
   277
  8
0
  6
CONTINUOUS
 62
     7
 10
-596.525634765625
 20
-135.843521118164
 30
0.0
 40
0.75
  0
LINE
  5
   278
  8
0
  6
CONTINUOUS
 62
     7
 10
-591.109464501259
 20
-95.5491242676968
 30
0.0
 11
-630.610958842929
 21
-95.5491242676968
 31
0.0
  0
LINE
  5
   279
  8
0
  6
DASHDOT
 62
     7
 10
-581.431167400766
 20
-118.531021118164
 30
0.0
 11
-650.543106703314
 21
-118.531021118164
 31
0.0
  0
TEXT
  5
   27A
  8
0
  6
CONTINUOUS
 62
     5
 10
-611.9069132832
 20
-91.5310688296924
 30
0.0
 40
3.00000002980232
  1
Y
 50
359.999999896069
 41
0.916666604744064
 72
     2
 11
-609.706913414331
 21
-91.531068833672
 31
0.0
  0
INSERT
  5
   27B
  8
0
  6
CONTINUOUS
 62
     5
  2
*UDIM580
 10
0.0
 20
0.0
 30
0.0
  0
TEXT
  5
   27C
  8
0
  6
CONTINUOUS
 62
     7
 10
-619.03916549954
 20
-149.180805221675
 30
0.0
 40
3.00000002980232
  1
=    =
 50
359.999999896069
 41
0.916666604744064
 72
     2
 11
-603.089166422915
 21
-149.180805250527
 31
0.0
  0
INSERT
  5
   27D
  8
0
  6
CONTINUOUS
 62
     7
  2
*UDIM581
 10
0.0
 20
0.0
 30
0.0
  0
INSERT
  5
   27E
  8
0
  6
CONTINUOUS
 62
     7
  2
*UDIM582
 10
0.0
 20
0.0
 30
0.0
  0
INSERT
  5
   27F
  8
0
  6
CONTINUOUS
 62
     7
  2
*UDIM583
 10
0.0
 20
0.0
 30
0.0
  0
TEXT
  5
   280
  8
0
  6
CONTINUOUS
 62
     7
 10
-661.322956087919
 20
-119.588903931774
 30
0.0
 40
3.00000002980232
  1
X
 50
359.999999896069
 41
0.916666604744064
 72
     2
 11
-659.122956219049
 21
-119.588903935753
 31
0.0
  0
TEXT
  5
   281
  8
0
  6
CONTINUOUS
 62
     7
 10
-580.470455172391
 20
-120.41931488911
 30
0.0
 40
3.00000002980232
  1
X
 50
359.999999896069
 41
0.916666604744064
 72
     2
 11
-578.270455303521
 21
-120.41931489309
 31
0.0
  0
TEXT
  5
   282
  8
0
  6
CONTINUOUS
 62
     7
 10
-612.033080342145
 20
-160.233085660137
 30
0.0
 40
3.00000002980232
  1
Y
 50
359.999999896069
 41
0.916666604744064
 72
     2
 11
-609.833080473275
 21
-160.233085664116
 31
0.0
  0
LINE
  5
   283
  8
0
  6
CONTINUOUS
 62
     7
 10
-498.624076845366
 20
68.0321502685547
 30
0.0
 11
-498.624076845366
 21
78.6321426391601
 31
0.0
  0
LINE
  5
   284
  8
0
  6
CONTINUOUS
 62
     7
 10
-428.624100222114
 20
-45.5678311157405
 30
0.0
 11
-428.624100222114
 21
-22.8428453235442
 31
0.0
  0
LINE
  5
   285
  8
0
  6
CONTINUOUS
 62
     7
 10
-498.624100222114
 20
-45.5678326654612
 30
0.0
 11
-498.624100222114
 21
-22.8428453235442
 31
0.0
  0
LINE
  5
   286
  8
0
  6
CONTINUOUS
 62
     1
 10
-428.62410041774
 20
57.6540037365144
 30
0.0
 11
-428.62410041774
 21
68.0321502685547
 31
0.0
  0
LINE
  5
   287
  8
0
  6
CONTINUOUS
 62
     1
 10
-498.62410041774
 20
57.6540037365144
 30
0.0
 11
-498.62410041774
 21
68.0321502685547
 31
0.0
  0
LINE
  5
   288
  8
0
  6
DOT
 62
     1
 10
-428.62410041774
 20
-22.8428453235442
 30
0.0
 11
-428.62410041774
 21
57.6540037365144
 31
0.0
  0
LINE
  5
   289
  8
0
  6
CONTINUOUS
 62
     1
 10
-437.199104995377
 20
-8.59285736083984
 30
0.0
 11
-437.199104995377
 21
43.9071426391601
 31
0.0
  0
LINE
  5
   28A
  8
0
  6
CONTINUOUS
 62
     1
 10
-437.199104995377
 20
57.6540037365144
 30
0.0
 11
-437.199104995377
 21
68.0321426391601
 31
0.0
  0
LINE
  5
   28B
  8
0
  6
CONTINUOUS
 62
     1
 10
-437.199104995377
 20
-48.2178270147225
 30
0.0
 11
-437.199104995377
 21
-22.8428453235442
 31
0.0
  0
LINE
  5
   28C
  8
0
  6
CONTINUOUS
 62
     1
 10
-489.12410041774
 20
57.6540037365144
 30
0.0
 11
-489.12410041774
 21
65.5321502685547
 31
0.0
  0
LINE
  5
   28D
  8
0
  6
CONTINUOUS
 62
     1
 10
-438.12410041774
 20
57.6540037365144
 30
0.0
 11
-438.12410041774
 21
65.5321502685547
 31
0.0
  0
LINE
  5
   28E
  8
0
  6
CONTINUOUS
 62
     1
 10
-438.12410041774
 20
65.5321502685547
 30
0.0
 11
-489.12410041774
 21
65.5321502685547
 31
0.0
  0
LINE
  5
   28F
  8
0
  6
DASHDOT
 62
     3
 10
-463.62410041774
 20
-88.4242407390496
 30
0.0
 11
-463.62410041774
 21
33.0083524123997
 31
0.0
  0
LINE
  5
   290
  8
0
  6
DASHDOT
 62
     3
 10
-463.62410041774
 20
32.6219860561401
 30
0.0
 11
-463.62410041774
 21
100.89874855114
 31
0.0
  0
LINE
  5
   291
  8
0
  6
CONTINUOUS
 62
     7
 10
-458.24910041774
 20
6.62115809554799
 30
0.0
 11
-468.99910041774
 21
6.62115809554799
 31
0.0
  0
LINE
  5
   292
  8
0
  6
CONTINUOUS
 62
     7
 10
-458.24910041774
 20
9.09421868351984
 30
0.0
 11
-468.99910041774
 21
9.09421868351984
 31
0.0
  0
LINE
  5
   293
  8
0
  6
CONTINUOUS
 62
     7
 10
-458.24910041774
 20
2.66068226922709
 30
0.0
 11
-468.99910041774
 21
2.66068226922709
 31
0.0
  0
LINE
  5
   294
  8
0
  6
CONTINUOUS
 62
     2
 10
-435.499084472656
 20
-54.2178497314453
 30
0.0
 11
-435.499084472656
 21
-48.2178270147225
 31
0.0
  0
LINE
  5
   295
  8
0
  6
CONTINUOUS
 62
     2
 10
-447.999084472656
 20
-54.2178497314453
 30
0.0
 11
-447.999084472656
 21
-48.2178270147225
 31
0.0
  0
LINE
  5
   296
  8
0
  6
CONTINUOUS
 62
     2
 10
-446.624084472656
 20
-54.2178497314453
 30
0.0
 11
-447.999084472656
 21
-54.2178497314453
 31
0.0
  0
LINE
  5
   297
  8
0
  6
CONTINUOUS
 62
     2
 10
-446.624084472656
 20
-66.7178497314453
 30
0.0
 11
-446.624084472656
 21
-54.2178497314453
 31
0.0
  0
LINE
  5
   298
  8
0
  6
CONTINUOUS
 62
     2
 10
-436.874084472656
 20
-66.7178497314453
 30
0.0
 11
-446.624084472656
 21
-66.7178497314453
 31
0.0
  0
LINE
  5
   299
  8
0
  6
CONTINUOUS
 62
     2
 10
-436.874084472656
 20
-66.7178497314453
 30
0.0
 11
-436.874084472656
 21
-54.2178497314453
 31
0.0
  0
LINE
  5
   29A
  8
0
  6
CONTINUOUS
 62
     2
 10
-435.499084472656
 20
-54.2178497314453
 30
0.0
 11
-436.874084472656
 21
-54.2178497314453
 31
0.0
  0
CIRCLE
  5
   29B
  8
0
  6
CONTINUOUS
 62
     2
 10
-441.749085163417
 20
-59.7178172000052
 30
0.0
 40
2.54997996552924
  0
LINE
  5
   29C
  8
0
  6
CONTINUOUS
 62
     7
 10
-469.874084472656
 20
-54.2178497314453
 30
0.0
 11
-469.874084472656
 21
-48.2178270147225
 31
0.0
  0
LINE
  5
   29D
  8
0
  6
CONTINUOUS
 62
     7
 10
-457.374084472656
 20
-54.2178497314453
 30
0.0
 11
-457.374084472656
 21
-48.2178270147225
 31
0.0
  0
LINE
  5
   29E
  8
0
  6
CONTINUOUS
 62
     7
 10
-457.374084472656
 20
-54.2178497314453
 30
0.0
 11
-458.749084472656
 21
-54.2178497314453
 31
0.0
  0
LINE
  5
   29F
  8
0
  6
CONTINUOUS
 62
     7
 10
-468.499084472656
 20
-66.7178497314453
 30
0.0
 11
-468.499084472656
 21
-54.2178497314453
 31
0.0
  0
LINE
  5
   2A0
  8
0
  6
CONTINUOUS
 62
     7
 10
-468.499084472656
 20
-54.2178497314453
 30
0.0
 11
-469.874084472656
 21
-54.2178497314453
 31
0.0
  0
CIRCLE
  5
   2A1
  8
0
  6
CONTINUOUS
 62
     7
 10
-463.624085163417
 20
-59.7178172000052
 30
0.0
 40
2.54997996552924
  0
LINE
  5
   2A2
  8
0
  6
CONTINUOUS
 62
     7
 10
-458.749084472656
 20
-66.7178497314453
 30
0.0
 11
-458.749084472656
 21
-54.2178497314453
 31
0.0
  0
LINE
  5
   2A3
  8
0
  6
CONTINUOUS
 62
     7
 10
-458.749084472656
 20
-66.7178497314453
 30
0.0
 11
-468.499084472656
 21
-66.7178497314453
 31
0.0
  0
LINE
  5
   2A4
  8
0
  6
CONTINUOUS
 62
     7
 10
-491.749084472656
 20
-54.2178497314453
 30
0.0
 11
-491.749084472656
 21
-48.2178270147225
 31
0.0
  0
CIRCLE
  5
   2A5
  8
0
  6
CONTINUOUS
 62
     7
 10
-485.499085163417
 20
-59.7178172000052
 30
0.0
 40
2.54997996552924
  0
LINE
  5
   2A6
  8
0
  6
CONTINUOUS
 62
     7
 10
-490.374084472656
 20
-66.7178497314453
 30
0.0
 11
-490.374084472656
 21
-54.2178497314453
 31
0.0
  0
LINE
  5
   2A7
  8
0
  6
CONTINUOUS
 62
     7
 10
-480.624084472656
 20
-66.7178497314453
 30
0.0
 11
-480.624084472656
 21
-54.2178497314453
 31
0.0
  0
LINE
  5
   2A8
  8
0
  6
CONTINUOUS
 62
     7
 10
-479.249084472656
 20
-54.2178497314453
 30
0.0
 11
-480.624084472656
 21
-54.2178497314453
 31
0.0
  0
LINE
  5
   2A9
  8
0
  6
CONTINUOUS
 62
     7
 10
-479.249084472656
 20
-54.2178497314453
 30
0.0
 11
-479.249084472656
 21
-48.2178270147225
 31
0.0
  0
LINE
  5
   2AA
  8
0
  6
CONTINUOUS
 62
     7
 10
-490.374084472656
 20
-54.2178497314453
 30
0.0
 11
-491.749084472656
 21
-54.2178497314453
 31
0.0
  0
LINE
  5
   2AB
  8
0
  6
CONTINUOUS
 62
     7
 10
-480.624084472656
 20
-66.7178497314453
 30
0.0
 11
-490.374084472656
 21
-66.7178497314453
 31
0.0
  0
LINE
  5
   2AC
  8
0
  6
CONTINUOUS
 62
     7
 10
-447.999084472656
 20
81.2821122930428
 30
0.0
 11
-447.999084472656
 21
87.2821350097656
 31
0.0
  0
LINE
  5
   2AD
  8
0
  6
CONTINUOUS
 62
     7
 10
-446.624084472656
 20
87.2821350097656
 30
0.0
 11
-447.999084472656
 21
87.2821350097656
 31
0.0
  0
LINE
  5
   2AE
  8
0
  6
CONTINUOUS
 62
     7
 10
-446.624084472656
 20
87.2821350097656
 30
0.0
 11
-446.624084472656
 21
99.7821350097656
 31
0.0
  0
LINE
  5
   2AF
  8
0
  6
CONTINUOUS
 62
     7
 10
-436.874084472656
 20
99.7821350097656
 30
0.0
 11
-446.624084472656
 21
99.7821350097656
 31
0.0
  0
CIRCLE
  5
   2B0
  8
0
  6
CONTINUOUS
 62
     7
 10
-441.749085163417
 20
92.7821024783256
 30
0.0
 40
2.54997996552924
  0
LINE
  5
   2B1
  8
0
  6
CONTINUOUS
 62
     7
 10
-457.374084472656
 20
81.2821122930428
 30
0.0
 11
-457.374084472656
 21
87.2821350097656
 31
0.0
  0
LINE
  5
   2B2
  8
0
  6
CONTINUOUS
 62
     7
 10
-457.374084472656
 20
87.2821350097656
 30
0.0
 11
-458.749084472656
 21
87.2821350097656
 31
0.0
  0
CIRCLE
  5
   2B3
  8
0
  6
CONTINUOUS
 62
     7
 10
-463.624085163417
 20
92.7821024783256
 30
0.0
 40
2.54997996552924
  0
LINE
  5
   2B4
  8
0
  6
CONTINUOUS
 62
     7
 10
-458.749084472656
 20
87.2821350097656
 30
0.0
 11
-458.749084472656
 21
99.7821350097656
 31
0.0
  0
LINE
  5
   2B5
  8
0
  6
CONTINUOUS
 62
     7
 10
-469.874084472656
 20
81.2821122930428
 30
0.0
 11
-469.874084472656
 21
87.2821350097656
 31
0.0
  0
LINE
  5
   2B6
  8
0
  6
CONTINUOUS
 62
     7
 10
-468.499084472656
 20
87.2821350097656
 30
0.0
 11
-468.499084472656
 21
99.7821350097656
 31
0.0
  0
LINE
  5
   2B7
  8
0
  6
CONTINUOUS
 62
     7
 10
-468.499084472656
 20
87.2821350097656
 30
0.0
 11
-469.874084472656
 21
87.2821350097656
 31
0.0
  0
LINE
  5
   2B8
  8
0
  6
CONTINUOUS
 62
     7
 10
-458.749084472656
 20
99.7821350097656
 30
0.0
 11
-468.499084472656
 21
99.7821350097656
 31
0.0
  0
CIRCLE
  5
   2B9
  8
0
  6
CONTINUOUS
 62
     7
 10
-485.499085163417
 20
92.7821024783256
 30
0.0
 40
2.54997996552924
  0
LINE
  5
   2BA
  8
0
  6
CONTINUOUS
 62
     7
 10
-480.624084472656
 20
87.2821350097656
 30
0.0
 11
-480.624084472656
 21
99.7821350097656
 31
0.0
  0
LINE
  5
   2BB
  8
0
  6
CONTINUOUS
 62
     7
 10
-479.249084472656
 20
87.2821350097656
 30
0.0
 11
-480.624084472656
 21
87.2821350097656
 31
0.0
  0
LINE
  5
   2BC
  8
0
  6
CONTINUOUS
 62
     7
 10
-479.249084472656
 20
81.2821122930428
 30
0.0
 11
-479.249084472656
 21
87.2821350097656
 31
0.0
  0
LINE
  5
   2BD
  8
0
  6
CONTINUOUS
 62
     7
 10
-480.624084472656
 20
99.7821350097656
 30
0.0
 11
-490.374084472656
 21
99.7821350097656
 31
0.0
  0
LINE
  5
   2BE
  8
0
  6
CONTINUOUS
 62
     7
 10
-491.749084472656
 20
81.2821122930428
 30
0.0
 11
-491.749084472656
 21
87.2821350097656
 31
0.0
  0
LINE
  5
   2BF
  8
0
  6
CONTINUOUS
 62
     7
 10
-490.374084472656
 20
87.2821350097656
 30
0.0
 11
-490.374084472656
 21
99.7821350097656
 31
0.0
  0
LINE
  5
   2C0
  8
0
  6
CONTINUOUS
 62
     7
 10
-490.374084472656
 20
87.2821350097656
 30
0.0
 11
-491.749084472656
 21
87.2821350097656
 31
0.0
  0
LINE
  5
   2C1
  8
0
  6
CONTINUOUS
 62
     7
 10
-435.499084472656
 20
81.2821122930428
 30
0.0
 11
-435.499084472656
 21
87.2821350097656
 31
0.0
  0
LINE
  5
   2C2
  8
0
  6
CONTINUOUS
 62
     7
 10
-436.874084472656
 20
87.2821350097656
 30
0.0
 11
-436.874084472656
 21
99.7821350097656
 31
0.0
  0
LINE
  5
   2C3
  8
0
  6
CONTINUOUS
 62
     7
 10
-435.499084472656
 20
87.2821350097656
 30
0.0
 11
-436.874084472656
 21
87.2821350097656
 31
0.0
  0
LINE
  5
   2C4
  8
0
  6
CONTINUOUS
 62
     3
 10
-498.624103981626
 20
67.2821255195286
 30
0.0
 11
-498.624103981626
 21
80.6571275199511
 31
0.0
  0
LINE
  5
   2C5
  8
0
  6
CONTINUOUS
 62
     3
 10
-429.124103981627
 20
66.7821255493279
 30
0.0
 11
-498.124103981627
 21
66.7821255493279
 31
0.0
  0
LINE
  5
   2C6
  8
0
  6
CONTINUOUS
 62
     3
 10
-428.624103981641
 20
67.2821255773163
 30
0.0
 11
-428.624103981641
 21
80.6571262532698
 31
0.0
  0
LINE
  5
   2C7
  8
0
  6
CONTINUOUS
 62
     3
 10
-494.799104172362
 20
-48.2178270147225
 30
0.0
 11
-494.799104172362
 21
-22.8428453235442
 31
0.0
  0
LINE
  5
   2C8
  8
0
  6
CONTINUOUS
 62
     3
 10
-492.999104458464
 20
-48.2178270147225
 30
0.0
 11
-492.999104458464
 21
-22.8428453235442
 31
0.0
  0
LINE
  5
   2C9
  8
0
  6
CONTINUOUS
 62
     3
 10
-489.399105507506
 20
67.2821255195286
 30
0.0
 11
-489.399105507506
 21
81.2821122930428
 31
0.0
  0
LINE
  5
   2CA
  8
0
  6
CONTINUOUS
 62
     3
 10
-487.599110085143
 20
67.2821255195286
 30
0.0
 11
-487.599110085143
 21
81.2821122930428
 31
0.0
  0
LINE
  5
   2CB
  8
0
  6
CONTINUOUS
 62
     3
 10
-485.799107033385
 20
67.2821255195286
 30
0.0
 11
-485.799107033385
 21
81.2821122930428
 31
0.0
  0
LINE
  5
   2CC
  8
0
  6
CONTINUOUS
 62
     3
 10
-483.999111611022
 20
67.2821255195286
 30
0.0
 11
-483.999111611022
 21
81.2821122930428
 31
0.0
  0
LINE
  5
   2CD
  8
0
  6
CONTINUOUS
 62
     3
 10
-482.199108559264
 20
67.2821255195286
 30
0.0
 11
-482.199108559264
 21
81.2821122930428
 31
0.0
  0
LINE
  5
   2CE
  8
0
  6
CONTINUOUS
 62
     3
 10
-480.399105507506
 20
67.2821255195286
 30
0.0
 11
-480.399105507506
 21
81.2821122930428
 31
0.0
  0
LINE
  5
   2CF
  8
0
  6
CONTINUOUS
 62
     3
 10
-478.599110085143
 20
67.2821255195286
 30
0.0
 11
-478.599110085143
 21
81.2821122930428
 31
0.0
  0
LINE
  5
   2D0
  8
0
  6
CONTINUOUS
 62
     3
 10
-476.799107033385
 20
67.2821255195286
 30
0.0
 11
-476.799107033385
 21
81.2821122930428
 31
0.0
  0
LINE
  5
   2D1
  8
0
  6
CONTINUOUS
 62
     3
 10
-474.999111611022
 20
67.2821255195286
 30
0.0
 11
-474.999111611022
 21
81.2821122930428
 31
0.0
  0
LINE
  5
   2D2
  8
0
  6
CONTINUOUS
 62
     3
 10
-473.199108559264
 20
67.2821255195286
 30
0.0
 11
-473.199108559264
 21
81.2821122930428
 31
0.0
  0
LINE
  5
   2D3
  8
0
  6
CONTINUOUS
 62
     3
 10
-471.399105507506
 20
67.2821255195286
 30
0.0
 11
-471.399105507506
 21
81.2821122930428
 31
0.0
  0
LINE
  5
   2D4
  8
0
  6
CONTINUOUS
 62
     3
 10
-469.599110085143
 20
67.2821255195286
 30
0.0
 11
-469.599110085143
 21
81.2821122930428
 31
0.0
  0
LINE
  5
   2D5
  8
0
  6
CONTINUOUS
 62
     3
 10
-467.799107033385
 20
67.2821255195286
 30
0.0
 11
-467.799107033385
 21
81.2821122930428
 31
0.0
  0
LINE
  5
   2D6
  8
0
  6
CONTINUOUS
 62
     3
 10
-465.999111611022
 20
67.2821255195286
 30
0.0
 11
-465.999111611022
 21
81.2821122930428
 31
0.0
  0
LINE
  5
   2D7
  8
0
  6
CONTINUOUS
 62
     3
 10
-464.199108559264
 20
67.2821255195286
 30
0.0
 11
-464.199108559264
 21
81.2821122930428
 31
0.0
  0
LINE
  5
   2D8
  8
0
  6
CONTINUOUS
 62
     3
 10
-462.399105507506
 20
67.2821255195286
 30
0.0
 11
-462.399105507506
 21
81.2821122930428
 31
0.0
  0
LINE
  5
   2D9
  8
0
  6
CONTINUOUS
 62
     3
 10
-460.599110085143
 20
67.2821255195286
 30
0.0
 11
-460.599110085143
 21
81.2821122930428
 31
0.0
  0
LINE
  5
   2DA
  8
0
  6
CONTINUOUS
 62
     3
 10
-458.799107033385
 20
67.2821255195286
 30
0.0
 11
-458.799107033385
 21
81.2821122930428
 31
0.0
  0
LINE
  5
   2DB
  8
0
  6
CONTINUOUS
 62
     3
 10
-456.999111611022
 20
67.2821255195286
 30
0.0
 11
-456.999111611022
 21
81.2821122930428
 31
0.0
  0
LINE
  5
   2DC
  8
0
  6
CONTINUOUS
 62
     3
 10
-455.199108559264
 20
67.2821255195286
 30
0.0
 11
-455.199108559264
 21
81.2821122930428
 31
0.0
  0
LINE
  5
   2DD
  8
0
  6
CONTINUOUS
 62
     3
 10
-453.399105507506
 20
67.2821255195286
 30
0.0
 11
-453.399105507506
 21
81.2821122930428
 31
0.0
  0
LINE
  5
   2DE
  8
0
  6
CONTINUOUS
 62
     3
 10
-451.599110085143
 20
67.2821255195286
 30
0.0
 11
-451.599110085143
 21
81.2821122930428
 31
0.0
  0
LINE
  5
   2DF
  8
0
  6
CONTINUOUS
 62
     3
 10
-449.799107033385
 20
67.2821255195286
 30
0.0
 11
-449.799107033385
 21
81.2821122930428
 31
0.0
  0
LINE
  5
   2E0
  8
0
  6
CONTINUOUS
 62
     3
 10
-447.999111611022
 20
67.2821255195286
 30
0.0
 11
-447.999111611022
 21
81.2821122930428
 31
0.0
  0
LINE
  5
   2E1
  8
0
  6
CONTINUOUS
 62
     3
 10
-446.199108559264
 20
67.2821255195286
 30
0.0
 11
-446.199108559264
 21
81.2821122930428
 31
0.0
  0
LINE
  5
   2E2
  8
0
  6
CONTINUOUS
 62
     3
 10
-444.399105507506
 20
67.2821255195286
 30
0.0
 11
-444.399105507506
 21
81.2821122930428
 31
0.0
  0
LINE
  5
   2E3
  8
0
  6
CONTINUOUS
 62
     3
 10
-442.599110085143
 20
67.2821255195286
 30
0.0
 11
-442.599110085143
 21
81.2821122930428
 31
0.0
  0
LINE
  5
   2E4
  8
0
  6
CONTINUOUS
 62
     3
 10
-440.799107033385
 20
67.2821255195286
 30
0.0
 11
-440.799107033385
 21
81.2821122930428
 31
0.0
  0
LINE
  5
   2E5
  8
0
  6
CONTINUOUS
 62
     3
 10
-438.999111611022
 20
67.2821255195286
 30
0.0
 11
-438.999111611022
 21
81.2821122930428
 31
0.0
  0
LINE
  5
   2E6
  8
0
  6
CONTINUOUS
 62
     3
 10
-437.199108559264
 20
67.2821255195286
 30
0.0
 11
-437.199108559264
 21
81.2821122930428
 31
0.0
  0
LINE
  5
   2E7
  8
0
  6
CONTINUOUS
 62
     3
 10
-435.399105507506
 20
-48.2178270147225
 30
0.0
 11
-435.399105507506
 21
-22.8428453235442
 31
0.0
  0
LINE
  5
   2E8
  8
0
  6
CONTINUOUS
 62
     3
 10
-431.799107033385
 20
-48.2178270147225
 30
0.0
 11
-431.799107033385
 21
-22.8428453235442
 31
0.0
  0
LINE
  5
   2E9
  8
0
  6
CONTINUOUS
 62
     3
 10
-428.675888705624
 20
67.2821255195286
 30
0.0
 11
-498.572327304257
 21
67.2821255195286
 31
0.0
  0
LINE
  5
   2EA
  8
0
  6
CONTINUOUS
 62
     3
 10
-428.624104063026
 20
67.2821198330804
 30
0.0
 11
-428.807163755409
 21
67.2821198330804
 31
0.0
  0
LINE
  5
   2EB
  8
0
  6
CONTINUOUS
 62
     3
 10
-429.124103981627
 20
66.7821255493309
 30
0.0
 11
-429.124103981627
 21
67.2821255195286
 31
0.0
  0
LINE
  5
   2EC
  8
0
  6
CONTINUOUS
 62
     3
 10
-498.572327304256
 20
67.2821255195286
 30
0.0
 11
-498.624103981626
 21
67.2821255195286
 31
0.0
  0
LINE
  5
   2ED
  8
0
  6
CONTINUOUS
 62
     3
 10
-498.124103981627
 20
66.7821255493279
 30
0.0
 11
-498.124103981627
 21
67.2821255195255
 31
0.0
  0
ARC
  5
   2EE
  8
0
  6
CONTINUOUS
 62
     3
 10
-497.999118009041
 20
80.6571275199511
 30
0.0
 40
0.624986446726238
 50
449.998658602021
 51
540.001080379242
  0
ARC
  5
   2EF
  8
0
  6
CONTINUOUS
 62
     3
 10
-429.249097883777
 20
80.6571262532698
 30
0.0
 40
0.624984366596091
 50
359.998931305817
 51
450.001731127297
  0
LINE
  5
   2F0
  8
0
  6
CONTINUOUS
 62
     7
 10
-429.249116767541
 20
81.2821122930428
 30
0.0
 11
-497.999103377543
 21
81.2821122930428
 31
0.0
  0
LINE
  5
   2F1
  8
0
  6
CONTINUOUS
 62
     3
 10
-498.624103981626
 20
-47.5928422416307
 30
0.0
 11
-498.624103981626
 21
-34.2178402412083
 31
0.0
  0
LINE
  5
   2F2
  8
0
  6
CONTINUOUS
 62
     3
 10
-429.124103981627
 20
-33.7178402710076
 30
0.0
 11
-498.124103981627
 21
-33.7178402710076
 31
0.0
  0
LINE
  5
   2F3
  8
0
  6
CONTINUOUS
 62
     3
 10
-428.624103981641
 20
-47.5928409749495
 30
0.0
 11
-428.624103981641
 21
-34.217840298996
 31
0.0
  0
LINE
  5
   2F4
  8
0
  6
CONTINUOUS
 62
     3
 10
-496.599104363097
 20
-48.2178270147225
 30
0.0
 11
-496.599104363097
 21
-22.8428453235442
 31
0.0
  0
LINE
  5
   2F5
  8
0
  6
CONTINUOUS
 62
     3
 10
-491.199104267729
 20
-48.2178270147225
 30
0.0
 11
-491.199104267729
 21
-22.8428453235442
 31
0.0
  0
LINE
  5
   2F6
  8
0
  6
CONTINUOUS
 62
     3
 10
-489.399105507506
 20
-48.2178270147225
 30
0.0
 11
-489.399105507506
 21
-34.2178402412083
 31
0.0
  0
LINE
  5
   2F7
  8
0
  6
CONTINUOUS
 62
     3
 10
-487.599110085143
 20
-48.2178270147225
 30
0.0
 11
-487.599110085143
 21
-34.2178402412083
 31
0.0
  0
LINE
  5
   2F8
  8
0
  6
CONTINUOUS
 62
     3
 10
-485.799107033385
 20
-48.2178270147225
 30
0.0
 11
-485.799107033385
 21
-34.2178402412083
 31
0.0
  0
LINE
  5
   2F9
  8
0
  6
CONTINUOUS
 62
     3
 10
-483.999111611022
 20
-48.2178270147225
 30
0.0
 11
-483.999111611022
 21
-34.2178402412083
 31
0.0
  0
LINE
  5
   2FA
  8
0
  6
CONTINUOUS
 62
     3
 10
-482.199108559264
 20
-48.2178270147225
 30
0.0
 11
-482.199108559264
 21
-34.2178402412083
 31
0.0
  0
LINE
  5
   2FB
  8
0
  6
CONTINUOUS
 62
     3
 10
-480.399105507506
 20
-48.2178270147225
 30
0.0
 11
-480.399105507506
 21
-34.2178402412083
 31
0.0
  0
LINE
  5
   2FC
  8
0
  6
CONTINUOUS
 62
     3
 10
-478.599110085143
 20
-48.2178270147225
 30
0.0
 11
-478.599110085143
 21
-34.2178402412083
 31
0.0
  0
LINE
  5
   2FD
  8
0
  6
CONTINUOUS
 62
     3
 10
-476.799107033385
 20
-48.2178270147225
 30
0.0
 11
-476.799107033385
 21
-34.2178402412083
 31
0.0
  0
LINE
  5
   2FE
  8
0
  6
CONTINUOUS
 62
     3
 10
-474.999111611022
 20
-48.2178270147225
 30
0.0
 11
-474.999111611022
 21
-34.2178402412083
 31
0.0
  0
LINE
  5
   2FF
  8
0
  6
CONTINUOUS
 62
     3
 10
-473.199108559264
 20
-48.2178270147225
 30
0.0
 11
-473.199108559264
 21
-34.2178402412083
 31
0.0
  0
LINE
  5
   300
  8
0
  6
CONTINUOUS
 62
     3
 10
-471.399105507506
 20
-48.2178270147225
 30
0.0
 11
-471.399105507506
 21
-34.2178402412083
 31
0.0
  0
LINE
  5
   301
  8
0
  6
CONTINUOUS
 62
     3
 10
-469.599110085143
 20
-48.2178270147225
 30
0.0
 11
-469.599110085143
 21
-34.2178402412083
 31
0.0
  0
LINE
  5
   302
  8
0
  6
CONTINUOUS
 62
     3
 10
-467.799107033385
 20
-48.2178270147225
 30
0.0
 11
-467.799107033385
 21
-34.2178402412083
 31
0.0
  0
LINE
  5
   303
  8
0
  6
CONTINUOUS
 62
     3
 10
-465.999111611022
 20
-48.2178270147225
 30
0.0
 11
-465.999111611022
 21
-34.2178402412083
 31
0.0
  0
LINE
  5
   304
  8
0
  6
CONTINUOUS
 62
     3
 10
-464.199108559264
 20
-48.2178270147225
 30
0.0
 11
-464.199108559264
 21
-34.2178402412083
 31
0.0
  0
LINE
  5
   305
  8
0
  6
CONTINUOUS
 62
     3
 10
-462.399105507506
 20
-48.2178270147225
 30
0.0
 11
-462.399105507506
 21
-34.2178402412083
 31
0.0
  0
LINE
  5
   306
  8
0
  6
CONTINUOUS
 62
     3
 10
-460.599110085143
 20
-48.2178270147225
 30
0.0
 11
-460.599110085143
 21
-34.2178402412083
 31
0.0
  0
LINE
  5
   307
  8
0
  6
CONTINUOUS
 62
     3
 10
-458.799107033385
 20
-48.2178270147225
 30
0.0
 11
-458.799107033385
 21
-34.2178402412083
 31
0.0
  0
LINE
  5
   308
  8
0
  6
CONTINUOUS
 62
     3
 10
-456.999111611022
 20
-48.2178270147225
 30
0.0
 11
-456.999111611022
 21
-34.2178402412083
 31
0.0
  0
LINE
  5
   309
  8
0
  6
CONTINUOUS
 62
     3
 10
-455.199108559264
 20
-48.2178270147225
 30
0.0
 11
-455.199108559264
 21
-34.2178402412083
 31
0.0
  0
LINE
  5
   30A
  8
0
  6
CONTINUOUS
 62
     3
 10
-453.399105507506
 20
-48.2178270147225
 30
0.0
 11
-453.399105507506
 21
-34.2178402412083
 31
0.0
  0
LINE
  5
   30B
  8
0
  6
CONTINUOUS
 62
     3
 10
-451.599110085143
 20
-48.2178270147225
 30
0.0
 11
-451.599110085143
 21
-34.2178402412083
 31
0.0
  0
LINE
  5
   30C
  8
0
  6
CONTINUOUS
 62
     3
 10
-449.799107033385
 20
-48.2178270147225
 30
0.0
 11
-449.799107033385
 21
-34.2178402412083
 31
0.0
  0
LINE
  5
   30D
  8
0
  6
CONTINUOUS
 62
     3
 10
-447.999111611022
 20
-48.2178270147225
 30
0.0
 11
-447.999111611022
 21
-34.2178402412083
 31
0.0
  0
LINE
  5
   30E
  8
0
  6
CONTINUOUS
 62
     3
 10
-446.199108559264
 20
-48.2178270147225
 30
0.0
 11
-446.199108559264
 21
-34.2178402412083
 31
0.0
  0
LINE
  5
   30F
  8
0
  6
CONTINUOUS
 62
     3
 10
-444.399105507506
 20
-48.2178270147225
 30
0.0
 11
-444.399105507506
 21
-34.2178402412083
 31
0.0
  0
LINE
  5
   310
  8
0
  6
CONTINUOUS
 62
     3
 10
-442.599110085143
 20
-48.2178270147225
 30
0.0
 11
-442.599110085143
 21
-34.2178402412083
 31
0.0
  0
LINE
  5
   311
  8
0
  6
CONTINUOUS
 62
     3
 10
-440.799107033385
 20
-48.2178270147225
 30
0.0
 11
-440.799107033385
 21
-34.2178402412083
 31
0.0
  0
LINE
  5
   312
  8
0
  6
CONTINUOUS
 62
     3
 10
-438.999111611022
 20
-48.2178270147225
 30
0.0
 11
-438.999111611022
 21
-34.2178402412083
 31
0.0
  0
LINE
  5
   313
  8
0
  6
CONTINUOUS
 62
     3
 10
-433.599110085143
 20
-48.2178270147225
 30
0.0
 11
-433.599110085143
 21
-22.8428453235442
 31
0.0
  0
LINE
  5
   314
  8
0
  6
CONTINUOUS
 62
     3
 10
-429.999111611022
 20
-48.2178270147225
 30
0.0
 11
-429.999111611022
 21
-22.8428453235442
 31
0.0
  0
LINE
  5
   315
  8
0
  6
CONTINUOUS
 62
     3
 10
-428.675888705624
 20
-34.2178402412083
 30
0.0
 11
-498.572327304257
 21
-34.2178402412083
 31
0.0
  0
LINE
  5
   316
  8
0
  6
CONTINUOUS
 62
     3
 10
-428.624104063026
 20
-34.2178345547601
 30
0.0
 11
-428.807163755409
 21
-34.2178345547601
 31
0.0
  0
LINE
  5
   317
  8
0
  6
CONTINUOUS
 62
     3
 10
-429.124103981627
 20
-34.2178402412083
 30
0.0
 11
-429.124103981627
 21
-33.7178402710106
 31
0.0
  0
LINE
  5
   318
  8
0
  6
CONTINUOUS
 62
     3
 10
-498.572327304256
 20
-34.2178402412083
 30
0.0
 11
-498.624103981626
 21
-34.2178402412083
 31
0.0
  0
LINE
  5
   319
  8
0
  6
CONTINUOUS
 62
     3
 10
-498.124103981627
 20
-34.2178402412053
 30
0.0
 11
-498.124103981627
 21
-33.7178402710076
 31
0.0
  0
ARC
  5
   31A
  8
0
  6
CONTINUOUS
 62
     3
 10
-497.999118009041
 20
-47.5928422416307
 30
0.0
 40
0.624986446726238
 50
179.998919516826
 51
270.001341294048
  0
ARC
  5
   31B
  8
0
  6
CONTINUOUS
 62
     3
 10
-429.249097883777
 20
-47.5928409749495
 30
0.0
 40
0.624984366596091
 50
269.998268768772
 51
360.001068590252
  0
LINE
  5
   31C
  8
0
  6
CONTINUOUS
 62
     7
 10
-429.249116767541
 20
-48.2178270147225
 30
0.0
 11
-497.999103377543
 21
-48.2178270147225
 31
0.0
  0
LINE
  5
   31D
  8
0
  6
DASHDOT
 62
     7
 10
-485.499085163417
 20
89.2321225127963
 30
0.0
 11
-485.499085163417
 21
96.3320824438548
 31
0.0
  0
LINE
  5
   31E
  8
0
  6
DASHDOT
 62
     7
 10
-481.949105197888
 20
92.7821024783256
 30
0.0
 11
-489.049065128946
 21
92.7821024783256
 31
0.0
  0
LINE
  5
   31F
  8
0
  6
DASHDOT
 62
     7
 10
-463.624085163417
 20
84.2321225127963
 30
0.0
 11
-463.624085163417
 21
91.3320824438548
 31
0.0
  0
LINE
  5
   320
  8
0
  6
DASHDOT
 62
     7
 10
-460.074105197888
 20
92.7821024783256
 30
0.0
 11
-467.174065128946
 21
92.7821024783256
 31
0.0
  0
LINE
  5
   321
  8
0
  6
DASHDOT
 62
     7
 10
-441.749085163417
 20
89.2321225127963
 30
0.0
 11
-441.749085163417
 21
96.3320824438548
 31
0.0
  0
LINE
  5
   322
  8
0
  6
DASHDOT
 62
     7
 10
-438.199105197888
 20
92.7821024783256
 30
0.0
 11
-445.299065128946
 21
92.7821024783256
 31
0.0
  0
LINE
  5
   323
  8
0
  6
DASHDOT
 62
     7
 10
-441.749085163417
 20
-63.2677971655345
 30
0.0
 11
-441.749085163417
 21
-56.167837234476
 31
0.0
  0
LINE
  5
   324
  8
0
  6
DASHDOT
 62
     7
 10
-438.199105197888
 20
-59.7178172000052
 30
0.0
 11
-445.299065128946
 21
-59.7178172000052
 31
0.0
  0
LINE
  5
   325
  8
0
  6
DASHDOT
 62
     7
 10
-485.499085163417
 20
-63.2677971655345
 30
0.0
 11
-485.499085163417
 21
-56.167837234476
 31
0.0
  0
LINE
  5
   326
  8
0
  6
DASHDOT
 62
     7
 10
-481.949105197888
 20
-59.7178172000052
 30
0.0
 11
-489.049065128946
 21
-59.7178172000052
 31
0.0
  0
LINE
  5
   327
  8
0
  6
DASHDOT
 62
     7
 10
-463.624085163417
 20
-58.2677971655345
 30
0.0
 11
-463.624085163417
 21
-51.167837234476
 31
0.0
  0
LINE
  5
   328
  8
0
  6
DASHDOT
 62
     7
 10
-460.074105197888
 20
-59.7178172000052
 30
0.0
 11
-467.174065128946
 21
-59.7178172000052
 31
0.0
  0
LINE
  5
   329
  8
0
  6
CONTINUOUS
 62
   130
 10
-413.374082446098
 20
55.0321502685547
 30
0.0
 11
-415.624099464066
 21
55.0321502685547
 31
0.0
  0
LINE
  5
   32A
  8
0
  6
CONTINUOUS
 62
   130
 10
-413.374075174332
 20
-17.3428592681885
 30
0.0
 11
-415.624099464066
 21
-17.3428592681885
 31
0.0
  0
LINE
  5
   32B
  8
0
  6
CONTINUOUS
 62
   130
 10
-413.374075174332
 20
-17.3428592681883
 30
0.0
 11
-413.37407541275
 21
-14.9678630828855
 31
0.0
  0
LINE
  5
   32C
  8
0
  6
CONTINUOUS
 62
   130
 10
-413.37407541275
 20
-14.9678649902334
 30
0.0
 11
-413.374082446098
 21
55.0321502685556
 31
0.0
  0
LINE
  5
   32D
  8
0
  6
CONTINUOUS
 62
   130
 10
-412.874079704285
 20
11.532123565674
 30
0.0
 11
-412.874079227448
 21
21.532123565674
 31
0.0
  0
LINE
  5
   32E
  8
0
  6
CONTINUOUS
 62
   130
 10
-412.874079227448
 20
21.5321235656738
 30
0.0
 11
-413.374077916145
 21
21.5321235656738
 31
0.0
  0
LINE
  5
   32F
  8
0
  6
CONTINUOUS
 62
   130
 10
-412.874079704285
 20
11.5321235656738
 30
0.0
 11
-413.374078392983
 21
11.5321235656738
 31
0.0
  0
CIRCLE
  5
   330
  8
0
  6
CONTINUOUS
 62
   130
 10
-420.124001956833
 20
3.78212934054355
 30
0.0
 40
2.62496941959897
  0
LINE
  5
   331
  8
0
  6
DASHDOT
 62
     7
 10
-420.124001956833
 20
0.657159920944579
 30
0.0
 11
-420.124001956833
 21
6.90709876014252
 31
0.0
  0
LINE
  5
   332
  8
0
  6
DASHDOT
 62
     7
 10
-416.999032537234
 20
3.78212934054355
 30
0.0
 11
-423.248971376432
 21
3.78212934054355
 31
0.0
  0
LINE
  5
   333
  8
0
  6
CONTINUOUS
 62
   150
 10
-453.874073714846
 20
-7.09289689532151
 30
0.0
 11
-453.874073714846
 21
36.1571031046785
 31
0.0
  0
LINE
  5
   334
  8
0
  6
CONTINUOUS
 62
   150
 10
-489.800871991814
 20
43.5839264300671
 30
0.0
 11
-489.624091287974
 21
43.6571609893233
 31
0.0
  0
LINE
  5
   335
  8
0
  6
CONTINUOUS
 62
   150
 10
-489.874095734987
 20
43.4071510675008
 30
0.0
 11
-489.800872620875
 21
43.5839317727566
 31
0.0
  0
LINE
  5
   336
  8
0
  6
CONTINUOUS
 62
   150
 10
-489.874108047121
 20
-8.34224663653245
 30
0.0
 11
-489.874108047121
 21
-8.09223137774338
 31
0.0
  0
LINE
  5
   337
  8
0
  6
CONTINUOUS
 62
   150
 10
-489.874100417726
 20
37.6571011973299
 30
0.0
 11
-489.874100417726
 21
43.4071393443025
 31
0.0
  0
LINE
  5
   338
  8
0
  6
CONTINUOUS
 62
   150
 10
-489.800877691866
 20
-8.7696591641445
 30
0.0
 11
-489.874108435955
 21
-8.59288228281097
 31
0.0
  0
LINE
  5
   339
  8
0
  6
CONTINUOUS
 62
   150
 10
-489.624108137141
 20
-8.84285029326341
 30
0.0
 11
-489.80087549029
 21
-8.76965769607288
 31
0.0
  0
LINE
  5
   33A
  8
0
  6
CONTINUOUS
 62
   150
 10
-437.581428669791
 20
-8.84284814843487
 30
0.0
 11
-452.874073714799
 21
-8.84284814843487
 31
0.0
  0
LINE
  5
   33B
  8
0
  6
CONTINUOUS
 62
   150
 10
-489.374100417726
 20
-8.84285111895433
 30
0.0
 11
-489.62410995447
 21
-8.84285111895433
 31
0.0
  0
LINE
  5
   33C
  8
0
  6
CONTINUOUS
 62
   150
 10
-437.581428669791
 20
-8.84284814843487
 30
0.0
 11
-437.374063409839
 21
-8.34224835438668
 31
0.0
  0
LINE
  5
   33D
  8
0
  6
CONTINUOUS
 62
   150
 10
-437.374061831548
 20
-8.34224854387934
 30
0.0
 11
-437.374061831548
 21
43.6577743443043
 31
0.0
  0
LINE
  5
   33E
  8
0
  6
CONTINUOUS
 62
   150
 10
-437.374071221056
 20
43.4071438115687
 30
0.0
 11
-437.447313410657
 21
43.5839245105606
 31
0.0
  0
LINE
  5
   33F
  8
0
  6
CONTINUOUS
 62
   150
 10
-437.447316855015
 20
43.5839195617234
 30
0.0
 11
-437.624097559262
 21
43.6571388608862
 31
0.0
  0
LINE
  5
   340
  8
0
  6
CONTINUOUS
 62
   150
 10
-437.624096603026
 20
43.6571546764557
 30
0.0
 11
-489.624096603026
 21
43.6571546764557
 31
0.0
  0
LINE
  5
   341
  8
0
  6
CONTINUOUS
 62
     3
 10
-451.024105758303
 20
-3.62761254778734
 30
0.0
 11
-451.024105758303
 21
0.441784424868906
 31
0.0
  0
LINE
  5
   342
  8
0
  6
CONTINUOUS
 62
     3
 10
-450.325175057393
 20
-4.43098131854194
 30
0.0
 11
-451.024111494254
 21
-3.62761370996697
 31
0.0
  0
LINE
  5
   343
  8
0
  6
CONTINUOUS
 62
     3
 10
-449.428549590937
 20
-5.00552647760436
 30
0.0
 11
-450.325163681823
 21
-4.43097968265192
 31
0.0
  0
LINE
  5
   344
  8
0
  6
CONTINUOUS
 62
     3
 10
-448.4065825474
 20
-5.30487389828314
 30
0.0
 11
-449.428555223828
 21
-5.00552698729415
 31
0.0
  0
LINE
  5
   345
  8
0
  6
CONTINUOUS
 62
     3
 10
-447.341679305666
 20
-5.3048739003264
 30
0.0
 11
-448.406582564943
 21
-5.3048739003264
 31
0.0
  0
LINE
  5
   346
  8
0
  6
CONTINUOUS
 62
     3
 10
-447.341680249832
 20
-5.30487425015561
 30
0.0
 11
-446.31970758745
 21
-5.00553113180323
 31
0.0
  0
LINE
  5
   347
  8
0
  6
CONTINUOUS
 62
     3
 10
-446.319696250586
 20
-5.00552524183215
 30
0.0
 11
-445.423074518128
 21
-4.430978401343
 31
0.0
  0
LINE
  5
   348
  8
0
  6
CONTINUOUS
 62
     3
 10
-445.423090440921
 20
-4.43098792304558
 30
0.0
 11
-444.724131064806
 21
-3.62757071373768
 31
0.0
  0
LINE
  5
   349
  8
0
  6
CONTINUOUS
 62
     3
 10
-444.724125593521
 20
-3.62756677595623
 30
0.0
 11
-444.724102705338
 21
0.441807309370262
 31
0.0
  0
LINE
  5
   34A
  8
0
  6
CONTINUOUS
 62
     3
 10
-444.724104135659
 20
0.441806967021073
 30
0.0
 11
-445.423063501646
 21
1.24520510596095
 31
0.0
  0
LINE
  5
   34B
  8
0
  6
CONTINUOUS
 62
     3
 10
-445.423053993113
 20
1.24520658598485
 30
0.0
 11
-446.319675725571
 21
1.81975342647399
 31
0.0
  0
LINE
  5
   34C
  8
0
  6
CONTINUOUS
 62
     3
 10
-446.31968062991
 20
1.81975278617817
 30
0.0
 11
-447.341645628067
 21
2.11909588982778
 31
0.0
  0
LINE
  5
   34D
  8
0
  6
CONTINUOUS
 62
     3
 10
-447.341648788088
 20
2.11909536847243
 30
0.0
 11
-448.40655967676
 21
2.11909536847243
 31
0.0
  0
LINE
  5
   34E
  8
0
  6
CONTINUOUS
 62
     3
 10
-449.428521135249
 20
1.81975373581224
 30
0.0
 11
-448.406556137092
 21
2.11909683946185
 31
0.0
  0
LINE
  5
   34F
  8
0
  6
CONTINUOUS
 62
     3
 10
-450.325136298344
 20
1.2452114464534
 30
0.0
 11
-449.428514565886
 21
1.81975828694253
 31
0.0
  0
LINE
  5
   350
  8
0
  6
CONTINUOUS
 62
     3
 10
-451.024111539037
 20
0.441779842315718
 30
0.0
 11
-450.325152189271
 21
1.24520086043102
 31
0.0
  0
LINE
  5
   351
  8
0
  6
CONTINUOUS
 62
     3
 10
-452.87407371127
 20
37.6571088268702
 30
0.0
 11
-437.37407371127
 21
37.6571393444475
 31
0.0
  0
LINE
  5
   352
  8
0
  6
CONTINUOUS
 62
     3
 10
-437.374073714845
 20
42.6571393443025
 30
0.0
 11
-489.874104232424
 21
42.6571393443025
 31
0.0
  0
LINE
  5
   353
  8
0
  6
CONTINUOUS
 62
     3
 10
-443.121870803188
 20
34.0320746011863
 30
0.0
 11
-443.178961560308
 21
34.3190924211226
 31
0.0
  0
LINE
  5
   354
  8
0
  6
CONTINUOUS
 62
     3
 10
-443.178958678749
 20
34.3190972542054
 30
0.0
 11
-443.341533454974
 21
34.5624139039993
 31
0.0
  0
LINE
  5
   355
  8
0
  6
CONTINUOUS
 62
     3
 10
-443.341536146461
 20
34.5624117083341
 30
0.0
 11
-443.584860429131
 21
34.7249864703476
 31
0.0
  0
LINE
  5
   356
  8
0
  6
CONTINUOUS
 62
     3
 10
-443.584865458877
 20
34.7249845703188
 30
0.0
 11
-443.871875645642
 21
34.7820753288966
 31
0.0
  0
LINE
  5
   357
  8
0
  6
CONTINUOUS
 62
     3
 10
-444.158887179879
 20
34.7249831047079
 30
0.0
 11
-443.871876993114
 21
34.7820738632857
 31
0.0
  0
LINE
  5
   358
  8
0
  6
CONTINUOUS
 62
     3
 10
-444.402193519902
 20
34.5624144797483
 30
0.0
 11
-444.158876870109
 21
34.7249892559736
 31
0.0
  0
LINE
  5
   359
  8
0
  6
CONTINUOUS
 62
     3
 10
-444.564777704033
 20
34.3190965511632
 30
0.0
 11
-444.402195309085
 21
34.5624131963244
 31
0.0
  0
LINE
  5
   35A
  8
0
  6
CONTINUOUS
 62
     3
 10
-444.621871566316
 20
34.0320737293587
 30
0.0
 11
-444.564780809196
 21
34.319091549295
 31
0.0
  0
LINE
  5
   35B
  8
0
  6
CONTINUOUS
 62
     3
 10
-444.621868819826
 20
32.5320783091463
 30
0.0
 11
-444.621868819826
 21
34.0320783091463
 31
0.0
  0
LINE
  5
   35C
  8
0
  6
CONTINUOUS
 62
     3
 10
-444.564781326221
 20
32.2450620638718
 30
0.0
 11
-444.621872084799
 21
32.5320722506367
 31
0.0
  0
LINE
  5
   35D
  8
0
  6
CONTINUOUS
 62
     3
 10
-444.402195480815
 20
32.0017516859782
 30
0.0
 11
-444.564777875763
 21
32.2450683311394
 31
0.0
  0
LINE
  5
   35E
  8
0
  6
CONTINUOUS
 62
     3
 10
-444.158878750685
 20
31.839169216428
 30
0.0
 11
-444.402195395846
 21
32.0017516113758
 31
0.0
  0
LINE
  5
   35F
  8
0
  6
CONTINUOUS
 62
     3
 10
-443.871875651749
 20
31.7820754779742
 30
0.0
 11
-444.158885838513
 21
31.839166236552
 31
0.0
  0
LINE
  5
   360
  8
0
  6
CONTINUOUS
 62
     3
 10
-443.871876987008
 20
31.7820740123633
 30
0.0
 11
-443.584866800243
 21
31.8391647709412
 31
0.0
  0
LINE
  5
   361
  8
0
  6
CONTINUOUS
 62
     3
 10
-443.58485796722
 20
31.8391695783405
 30
0.0
 11
-443.341533689225
 21
32.0017519765825
 31
0.0
  0
LINE
  5
   362
  8
0
  6
CONTINUOUS
 62
     3
 10
-443.341532592776
 20
32.0017534793418
 30
0.0
 11
-443.178957816551
 21
32.2450701291358
 31
0.0
  0
LINE
  5
   363
  8
0
  6
CONTINUOUS
 62
     3
 10
-443.178964237664
 20
32.2450606032085
 30
0.0
 11
-443.121873479086
 21
32.5320707899734
 31
0.0
  0
LINE
  5
   364
  8
0
  6
CONTINUOUS
 62
     3
 10
-443.121868819826
 20
32.5320783091463
 30
0.0
 11
-443.121868819826
 21
34.0320783091463
 31
0.0
  0
LINE
  5
   365
  8
0
  6
CONTINUOUS
 62
     3
 10
-443.124073714846
 20
21.7820897532381
 30
0.0
 11
-444.624073714846
 21
21.7820897532381
 31
0.0
  0
LINE
  5
   366
  8
0
  6
CONTINUOUS
 62
     3
 10
-444.624073714846
 20
8.28208975323805
 30
0.0
 11
-444.624073714846
 21
21.7820897532381
 31
0.0
  0
LINE
  5
   367
  8
0
  6
CONTINUOUS
 62
     3
 10
-443.124073714846
 20
8.28208975323805
 30
0.0
 11
-444.624073714846
 21
8.28208975323805
 31
0.0
  0
LINE
  5
   368
  8
0
  6
CONTINUOUS
 62
     3
 10
-443.124073714846
 20
8.28208975323805
 30
0.0
 11
-443.124073714846
 21
21.7820897532381
 31
0.0
  0
LINE
  5
   369
  8
0
  6
CONTINUOUS
 62
     3
 10
-452.874073714846
 20
37.6571011973299
 30
0.0
 11
-488.124115676515
 21
37.6571011973299
 31
0.0
  0
LINE
  5
   36A
  8
0
  6
CONTINUOUS
 62
   150
 10
-454.374073714846
 20
36.6571011973299
 30
0.0
 11
-488.124115676515
 21
36.6571011973299
 31
0.0
  0
LINE
  5
   36B
  8
0
  6
CONTINUOUS
 62
   150
 10
-453.874074808139
 20
36.1570998790056
 30
0.0
 11
-454.374074791024
 21
36.6570998618913
 31
0.0
  0
LINE
  5
   36C
  8
0
  6
CONTINUOUS
 62
   150
 10
-488.624114988478
 20
36.1571028091907
 30
0.0
 11
-488.477668760195
 21
36.5106565812253
 31
0.0
  0
LINE
  5
   36D
  8
0
  6
CONTINUOUS
 62
   150
 10
-488.477668499096
 20
36.5106560217353
 30
0.0
 11
-488.124114727061
 21
36.6571022500185
 31
0.0
  0
LINE
  5
   36E
  8
0
  6
CONTINUOUS
 62
     3
 10
-488.124115660491
 20
37.6571011980447
 30
0.0
 11
-489.874102309153
 21
37.6571088274395
 31
0.0
  0
LINE
  5
   36F
  8
0
  6
CONTINUOUS
 62
   150
 10
-489.874105444982
 20
-8.09223137774334
 30
0.0
 11
-489.874105444982
 21
37.9077457340731
 31
0.0
  0
LINE
  5
   370
  8
0
  6
CONTINUOUS
 62
   150
 10
-454.020518990942
 20
-7.44644980166145
 30
0.0
 11
-453.874072762659
 21
-7.09289602962681
 31
0.0
  0
LINE
  5
   371
  8
0
  6
CONTINUOUS
 62
   150
 10
-454.37407224735
 20
-7.59289626182079
 30
0.0
 11
-454.020518475315
 21
-7.44645003353768
 31
0.0
  0
LINE
  5
   372
  8
0
  6
CONTINUOUS
 62
   150
 10
-454.374073714846
 20
-7.59289689532151
 30
0.0
 11
-488.124115676515
 21
-7.59289689532151
 31
0.0
  0
LINE
  5
   373
  8
0
  6
CONTINUOUS
 62
   150
 10
-488.124115128023
 20
-7.59289664783163
 30
0.0
 11
-488.477668900058
 21
-7.4464504195485
 31
0.0
  0
LINE
  5
   374
  8
0
  6
CONTINUOUS
 62
   150
 10
-488.477669158226
 20
-7.44645018474134
 30
0.0
 11
-488.624115386509
 21
-7.09289641270673
 31
0.0
  0
LINE
  5
   375
  8
0
  6
CONTINUOUS
 62
   150
 10
-488.624115676516
 20
-7.09289689532151
 30
0.0
 11
-488.624115676516
 21
36.1571031046785
 31
0.0
  0
LINE
  5
   376
  8
0
  6
CONTINUOUS
 62
   150
 10
-468.999085158937
 20
1.74618200787673
 30
0.0
 11
-468.999085158937
 21
22.634743256656
 31
0.0
  0
LINE
  5
   377
  8
0
  6
CONTINUOUS
 62
   150
 10
-458.249085158937
 20
1.74618200787672
 30
0.0
 11
-458.249085158937
 21
22.634743256656
 31
0.0
  0
LINE
  5
   378
  8
0
  6
CONTINUOUS
 62
     3
 10
-439.874066085451
 20
4.61729864606032
 30
0.0
 11
-440.874066085451
 21
4.61729864606032
 31
0.0
  0
LINE
  5
   379
  8
0
  6
CONTINUOUS
 62
     3
 10
-441.050834894863
 20
4.54408111379443
 30
0.0
 11
-440.874054189607
 21
4.61730422790632
 31
0.0
  0
LINE
  5
   37A
  8
0
  6
CONTINUOUS
 62
     3
 10
-441.124066418911
 20
4.36729831396507
 30
0.0
 11
-441.050847119668
 21
4.54407519659092
 31
0.0
  0
LINE
  5
   37B
  8
0
  6
CONTINUOUS
 62
     3
 10
-441.124066085451
 20
-1.13270135393969
 30
0.0
 11
-441.124066085451
 21
4.36729864606031
 31
0.0
  0
LINE
  5
   37C
  8
0
  6
CONTINUOUS
 62
     3
 10
-441.050847033222
 20
-1.30947836196928
 30
0.0
 11
-441.124066332464
 21
-1.13270147934339
 31
0.0
  0
LINE
  5
   37D
  8
0
  6
CONTINUOUS
 62
     3
 10
-440.874056206258
 20
-1.38270039643196
 30
0.0
 11
-441.050836911514
 21
-1.30947728232005
 31
0.0
  0
LINE
  5
   37E
  8
0
  6
CONTINUOUS
 62
     3
 10
-439.874066085451
 20
-1.38270135393968
 30
0.0
 11
-440.874066085451
 21
-1.38270135393968
 31
0.0
  0
LINE
  5
   37F
  8
0
  6
CONTINUOUS
 62
     3
 10
-439.124066085451
 20
-1.38270135393968
 30
0.0
 11
-439.874066085451
 21
-1.38270135393968
 31
0.0
  0
LINE
  5
   380
  8
0
  6
CONTINUOUS
 62
     3
 10
-439.124074484244
 20
-1.38270495053107
 30
0.0
 11
-438.947301417444
 21
-1.30948183640932
 31
0.0
  0
LINE
  5
   381
  8
0
  6
CONTINUOUS
 62
     3
 10
-438.947290315768
 20
-1.30947581097251
 30
0.0
 11
-438.874063386678
 21
-1.13269892158429
 31
0.0
  0
LINE
  5
   382
  8
0
  6
CONTINUOUS
 62
     3
 10
-438.874066085451
 20
-1.13270135393969
 30
0.0
 11
-438.874066085451
 21
4.36729864606031
 31
0.0
  0
LINE
  5
   383
  8
0
  6
CONTINUOUS
 62
     3
 10
-438.874064082831
 20
4.3672998751012
 30
0.0
 11
-438.947291011921
 21
4.54407676448939
 31
0.0
  0
LINE
  5
   384
  8
0
  6
CONTINUOUS
 62
     3
 10
-438.947300005569
 20
4.54407455036539
 30
0.0
 11
-439.124073072368
 21
4.61729766448715
 31
0.0
  0
LINE
  5
   385
  8
0
  6
CONTINUOUS
 62
     3
 10
-439.124066085451
 20
4.61729864606032
 30
0.0
 11
-439.874066085451
 21
4.61729864606032
 31
0.0
  0
LINE
  5
   386
  8
0
  6
CONTINUOUS
 62
   150
 10
-453.874096603029
 20
24.4077476414217
 30
0.0
 11
-453.874096603029
 21
24.9077476414217
 31
0.0
  0
LINE
  5
   387
  8
0
  6
CONTINUOUS
 62
     3
 10
-453.874096603029
 20
24.6571126414216
 30
0.0
 11
-488.624119491213
 21
24.6571126414216
 31
0.0
  0
LINE
  5
   388
  8
0
  6
CONTINUOUS
 62
     3
 10
-453.874096603029
 20
24.1571126414216
 30
0.0
 11
-488.624119491213
 21
24.1571126414216
 31
0.0
  0
LINE
  5
   389
  8
0
  6
CONTINUOUS
 62
   150
 10
-453.874096603029
 20
-9.22523585783566E-2
 30
0.0
 11
-453.874096603029
 21
0.407747641421643
 31
0.0
  0
LINE
  5
   38A
  8
0
  6
CONTINUOUS
 62
     3
 10
-453.874096603029
 20
0.157112641421648
 30
0.0
 11
-488.624119491213
 21
0.157112641421648
 31
0.0
  0
LINE
  5
   38B
  8
0
  6
CONTINUOUS
 62
     3
 10
-453.874096603029
 20
-0.342887358578352
 30
0.0
 11
-488.624119491213
 21
-0.342887358578352
 31
0.0
  0
LINE
  5
   38C
  8
0
  6
CONTINUOUS
 62
     3
 10
-468.999100417726
 20
18.1571126414216
 30
0.0
 11
-488.624119491213
 21
18.1571126414216
 31
0.0
  0
LINE
  5
   38D
  8
0
  6
CONTINUOUS
 62
     3
 10
-468.999100417726
 20
17.6571126414216
 30
0.0
 11
-488.624119491213
 21
17.6571126414216
 31
0.0
  0
LINE
  5
   38E
  8
0
  6
CONTINUOUS
 62
     3
 10
-468.999104232424
 20
6.65711264142165
 30
0.0
 11
-488.624119491213
 21
6.65711264142165
 31
0.0
  0
LINE
  5
   38F
  8
0
  6
CONTINUOUS
 62
     3
 10
-468.999104232424
 20
6.15711264142165
 30
0.0
 11
-488.624119491213
 21
6.15711264142165
 31
0.0
  0
LINE
  5
   390
  8
0
  6
CONTINUOUS
 62
   150
 10
-453.874096603029
 20
17.9077476414217
 30
0.0
 11
-453.874096603029
 21
18.4077476414217
 31
0.0
  0
LINE
  5
   391
  8
0
  6
CONTINUOUS
 62
     3
 10
-453.874096603029
 20
18.1571126414216
 30
0.0
 11
-458.249085158937
 21
18.1571126414216
 31
0.0
  0
LINE
  5
   392
  8
0
  6
CONTINUOUS
 62
     3
 10
-453.874096603029
 20
17.6571126414216
 30
0.0
 11
-458.249085158937
 21
17.6571126414216
 31
0.0
  0
LINE
  5
   393
  8
0
  6
CONTINUOUS
 62
   150
 10
-453.874096603029
 20
6.40774764142164
 30
0.0
 11
-453.874096603029
 21
6.90774764142164
 31
0.0
  0
LINE
  5
   394
  8
0
  6
CONTINUOUS
 62
     3
 10
-453.874096603029
 20
6.65711264142165
 30
0.0
 11
-458.249088973635
 21
6.65711264142165
 31
0.0
  0
LINE
  5
   395
  8
0
  6
CONTINUOUS
 62
     3
 10
-453.874096603029
 20
6.15711264142165
 30
0.0
 11
-458.249088973635
 21
6.15711264142165
 31
0.0
  0
LINE
  5
   396
  8
0
  6
CONTINUOUS
 62
   150
 10
-453.077162651055
 20
-8.84301473032639
 30
0.0
 11
-489.625876140098
 21
-8.84212631798215
 31
0.0
  0
LINE
  5
   397
  8
0
  6
CONTINUOUS
 62
   150
 10
-458.249085158937
 20
22.4143338633455
 30
0.0
 11
-468.999085158937
 21
22.4143338633455
 31
0.0
  0
LINE
  5
   398
  8
0
  6
CONTINUOUS
 62
   150
 10
-458.249085158937
 20
22.634743256656
 30
0.0
 11
-468.999085158937
 21
22.634743256656
 31
0.0
  0
LINE
  5
   399
  8
0
  6
CONTINUOUS
 62
   150
 10
-458.249085158937
 20
1.99681700787673
 30
0.0
 11
-468.999085158937
 21
1.99681700787673
 31
0.0
  0
LINE
  5
   39A
  8
0
  6
CONTINUOUS
 62
   150
 10
-458.249085158937
 20
2.08112005719313
 30
0.0
 11
-468.999085158937
 21
2.08112005719313
 31
0.0
  0
LINE
  5
   39B
  8
0
  6
DASHDOT
 62
     3
 10
-405.7360953864
 20
17.4071546764557
 30
0.0
 11
-532.468481539194
 21
17.4071546764557
 31
0.0
  0
LINE
  5
   39C
  8
0
  6
CONTINUOUS
 62
     3
 10
-479.249084472656
 20
85.570765366686
 30
0.0
 11
-491.749084472656
 21
85.570765366686
 31
0.0
  0
LINE
  5
   39D
  8
0
  6
CONTINUOUS
 62
     3
 10
-479.249084472656
 20
82.539676453708
 30
0.0
 11
-491.749084472656
 21
82.539676453708
 31
0.0
  0
LINE
  5
   39E
  8
0
  6
CONTINUOUS
 62
     3
 10
-479.249084472656
 20
-52.5065238673314
 30
0.0
 11
-491.749084472656
 21
-52.5065238673314
 31
0.0
  0
LINE
  5
   39F
  8
0
  6
CONTINUOUS
 62
     3
 10
-479.249084472656
 20
-49.4754349543534
 30
0.0
 11
-491.749084472656
 21
-49.4754349543534
 31
0.0
  0
LINE
  5
   3A0
  8
0
  6
CONTINUOUS
 62
     3
 10
-457.374084472656
 20
-49.4754349543534
 30
0.0
 11
-469.874084472656
 21
-49.4754349543534
 31
0.0
  0
LINE
  5
   3A1
  8
0
  6
CONTINUOUS
 62
     3
 10
-457.374084472656
 20
-52.5065238673314
 30
0.0
 11
-469.874084472656
 21
-52.5065238673314
 31
0.0
  0
LINE
  5
   3A2
  8
0
  6
CONTINUOUS
 62
     3
 10
-435.499084472656
 20
-52.5065238673314
 30
0.0
 11
-447.999084472656
 21
-52.5065238673314
 31
0.0
  0
LINE
  5
   3A3
  8
0
  6
CONTINUOUS
 62
     3
 10
-435.499084472656
 20
-49.4754349543534
 30
0.0
 11
-447.999084472656
 21
-49.4754349543534
 31
0.0
  0
LINE
  5
   3A4
  8
0
  6
CONTINUOUS
 62
     3
 10
-457.374084472656
 20
85.570765366686
 30
0.0
 11
-469.874084472656
 21
85.570765366686
 31
0.0
  0
LINE
  5
   3A5
  8
0
  6
CONTINUOUS
 62
     3
 10
-457.374084472656
 20
82.539676453708
 30
0.0
 11
-469.874084472656
 21
82.539676453708
 31
0.0
  0
LINE
  5
   3A6
  8
0
  6
CONTINUOUS
 62
     3
 10
-435.499084472656
 20
85.570765366686
 30
0.0
 11
-447.999084472656
 21
85.570765366686
 31
0.0
  0
LINE
  5
   3A7
  8
0
  6
CONTINUOUS
 62
     3
 10
-435.499084472656
 20
82.539676453708
 30
0.0
 11
-447.999084472656
 21
82.539676453708
 31
0.0
  0
INSERT
  5
   3A8
  8
255
  6
CONTINUOUS
 62
     7
  2
MOSTRA
 10
-521.043258399613
 20
-17.1242173938567
 30
0.0
 41
0.5
 42
0.5
 50
359.999999792138
 43
0.5
  0
LINE
  5
   3A9
  8
0
  6
CONTINUOUS
 62
     3
 10
-496.599104363097
 20
57.6540037365144
 30
0.0
 11
-496.599104363097
 21
81.2821122930428
 31
0.0
  0
LINE
  5
   3AA
  8
0
  6
CONTINUOUS
 62
     3
 10
-494.799104172362
 20
57.6540037365144
 30
0.0
 11
-494.799104172362
 21
81.2821122930428
 31
0.0
  0
LINE
  5
   3AB
  8
0
  6
CONTINUOUS
 62
     3
 10
-492.999104458464
 20
57.6540037365144
 30
0.0
 11
-492.999104458464
 21
81.2821122930428
 31
0.0
  0
LINE
  5
   3AC
  8
0
  6
CONTINUOUS
 62
     3
 10
-491.199104267729
 20
57.6540037365144
 30
0.0
 11
-491.199104267729
 21
81.2821122930428
 31
0.0
  0
LINE
  5
   3AD
  8
0
  6
CONTINUOUS
 62
     3
 10
-435.399105507506
 20
57.6540037365144
 30
0.0
 11
-435.399105507506
 21
81.2821122930428
 31
0.0
  0
LINE
  5
   3AE
  8
0
  6
CONTINUOUS
 62
     3
 10
-433.599110085143
 20
57.6540037365144
 30
0.0
 11
-433.599110085143
 21
81.2821122930428
 31
0.0
  0
LINE
  5
   3AF
  8
0
  6
CONTINUOUS
 62
     3
 10
-431.799107033385
 20
57.6540037365144
 30
0.0
 11
-431.799107033385
 21
81.2821122930428
 31
0.0
  0
LINE
  5
   3B0
  8
0
  6
CONTINUOUS
 62
     3
 10
-429.999111611022
 20
57.6540037365144
 30
0.0
 11
-429.999111611022
 21
81.2821122930428
 31
0.0
  0
LINE
  5
   3B1
  8
0
  6
DOT
 62
     1
 10
-415.624099464066
 20
55.0321502685547
 30
0.0
 11
-428.624090194702
 21
55.0321502685547
 31
0.0
  0
LINE
  5
   3B2
  8
0
  6
DOT
 62
     1
 10
-415.624099464066
 20
-17.3428592681885
 30
0.0
 11
-428.62410041774
 21
-17.3428592681885
 31
0.0
  0
TEXT
  5
   3B3
  8
0
  6
CONTINUOUS
 62
     1
 10
-469.410064698168
 20
-143.815530859079
 30
0.0
 40
2.00000008940697
  1
SCARPELLINI
 50
359.999999948034
 41
0.749999861419206
 72
     2
 11
-453.210066975065
 21
-143.81553087369
 31
0.0
  0
TEXT
  5
   3B4
  8
0
  6
CONTINUOUS
 62
     1
 10
-429.441801501967
 20
-149.838420880639
 30
0.0
 40
2.00000008940697
  1
M4504 98-11-17
 50
359.999999948034
 41
0.749999861419206
 72
     1
 11
-419.091802954674
 21
-148.838420845271
 31
0.0
 73
     2
  0
TEXT
  5
   3B5
  8
0
  6
CONTINUOUS
 62
     1
 10
-455.031797734805
 20
-149.838424719098
 30
0.0
 40
2.00000008940697
  1
M 3076 95-01-16
 50
359.999999948034
 41
0.749999861419206
 72
     1
 11
-443.931799292564
 21
-148.838424684406
 31
0.0
 73
     2
  0
TEXT
  5
   3B6
  8
0
  6
CONTINUOUS
 62
     3
 10
-503.722984322433
 20
6.2599384145264
 30
0.0
 40
3.00000002980232
  1
=     =
 50
89.9999999480344
 41
0.916666604744064
 72
     2
 11
-503.722984305497
 21
24.9599373327021
 31
0.0
  0
INSERT
  5
   3B7
  8
0
  6
CONTINUOUS
 62
     3
  2
*UDIM584
 10
0.0
 20
0.0
 30
0.0
  0
INSERT
  5
   3B8
  8
0
  6
CONTINUOUS
 62
     7
  2
*UDIM585
 10
0.0
 20
0.0
 30
0.0
  0
INSERT
  5
   3B9
  8
0
  6
CONTINUOUS
 62
     7
  2
*UDIM586
 10
0.0
 20
0.0
 30
0.0
  0
TEXT
  5
   3BA
  8
0
  6
CONTINUOUS
 62
     1
 10
-469.410064654456
 20
-135.34878486075
 30
0.0
 40
2.00000008940697
  1
93-04-05 FERRARI M.
 50
359.999999948034
 41
0.749999861419206
 72
     2
 11
-441.210068612205
 21
-135.348784886185
 31
0.0
  0
INSERT
  5
   3BB
  8
0
  6
CONTINUOUS
 62
     7
  2
*UDIM587
 10
0.0
 20
0.0
 30
0.0
  0
INSERT
  5
   3BC
  8
0
  6
CONTINUOUS
 62
     7
  2
*UDIM588
 10
0.0
 20
0.0
 30
0.0
  0
INSERT
  5
   3BD
  8
0
  6
CONTINUOUS
 62
     7
  2
*UDIM589
 10
0.0
 20
0.0
 30
0.0
  0
INSERT
  5
   3BE
  8
0
  6
CONTINUOUS
 62
     5
  2
*UDIM590
 10
0.0
 20
0.0
 30
0.0
  0
INSERT
  5
   3BF
  8
0
  6
CONTINUOUS
 62
     5
  2
*UDIM591
 10
0.0
 20
0.0
 30
0.0
  0
INSERT
  5
   3C0
  8
0
  6
CONTINUOUS
 62
     7
  2
*UDIM592
 10
0.0
 20
0.0
 30
0.0
  0
INSERT
  5
   3C1
  8
0
  6
CONTINUOUS
 62
     7
  2
*UDIM593
 10
0.0
 20
0.0
 30
0.0
  0
INSERT
  5
   3C2
  8
0
  6
CONTINUOUS
 62
     7
  2
*UDIM594
 10
0.0
 20
0.0
 30
0.0
  0
INSERT
  5
   3C3
  8
0
  6
CONTINUOUS
 62
     7
  2
*UDIM595
 10
0.0
 20
0.0
 30
0.0
  0
INSERT
  5
   3C4
  8
0
  6
CONTINUOUS
 62
     7
  2
*UDIM596
 10
0.0
 20
0.0
 30
0.0
  0
INSERT
  5
   3C5
  8
0
  6
CONTINUOUS
 62
     7
  2
*UDIM597
 10
0.0
 20
0.0
 30
0.0
  0
INSERT
  5
   3C6
  8
0
  6
CONTINUOUS
 62
     7
  2
*UDIM598
 10
0.0
 20
0.0
 30
0.0
  0
TEXT
  5
   3C7
  8
0
  6
CONTINUOUS
 62
     7
 10
-464.665615375201
 20
-106.438629667361
 30
0.0
 40
3.00000002980232
  1
Y
 50
359.999999948034
 41
0.916666604744064
 72
     2
 11
-462.465615506331
 21
-106.438629669345
 31
0.0
  0
TEXT
  5
   3C8
  8
0
  6
CONTINUOUS
 62
     1
 10
-360.440429601881
 20
-160.981749847325
 30
0.0
 40
4.00000017881393
  1
601812/341
 50
359.999999948034
 41
0.937499973922969
 72
     2
 11
-323.690429002109
 21
-160.981749880472
 31
0.0
  0
TEXT
  5
   3C9
  8
0
  6
CONTINUOUS
 62
     1
 10
-349.354736263911
 20
-152.000167704721
 30
0.0
 40
3.00000002980232
  1
 S5
 50
359.999999948034
 41
0.916666604744064
 72
     2
 11
-341.654736711939
 21
-152.000167711666
 31
0.0
  0
TEXT
  5
   3CA
  8
0
  6
CONTINUOUS
 62
     1
 10
-370.889156118939
 20
-133.689895654896
 30
0.0
 40
2.00000008940697
  1
3POLE LOW VOLTAGE M.C.C.B SERIES ISOMAX
 50
359.999999948034
 41
0.749999861419206
 72
     1
 11
-341.789160197975
 21
-132.68989563644
 31
0.0
 73
     2
  0
TEXT
  5
   3CB
  8
0
  6
CONTINUOUS
 62
     1
 10
-368.639156302965
 20
-136.689895656926
 30
0.0
 40
2.00000008940697
  1
WITHDRAWABLE VERSION FRONT TERMINALS
 50
359.999999948034
 41
0.749999861419206
 72
     1
 11
-341.789160066841
 21
-135.68989563644
 31
0.0
 73
     2
  0
TEXT
  5
   3CC
  8
0
  6
CONTINUOUS
 62
     1
 10
-367.686764486293
 20
-141.760162384617
 30
0.0
 40
2.00000008940697
  1
INTERR.AUTOMATICO SERIE ISOMAX
 50
359.999999948034
 41
0.749999861419206
 72
     1
 11
-345.33676761985
 21
-140.760162360072
 31
0.0
 73
     2
  0
TEXT
  5
   3CD
  8
0
  6
CONTINUOUS
 62
     1
 10
-378.936762779361
 20
-144.76016237447
 30
0.0
 40
2.00000008940697
  1
TRIPOL.ESECUZIONE ESTRAIBILE TERMIN.ANTERIORI
 50
359.999999948034
 41
0.749999861419206
 72
     1
 11
-345.336767488716
 21
-143.760162360072
 31
0.0
 73
     2
  0
TEXT
  5
   3CE
  8
0
  6
CONTINUOUS
 62
     7
 10
-543.90283957259
 20
16.5321085519568
 30
0.0
 40
3.00000002980232
  1
X
 50
359.999999948034
 41
0.916666604744064
 72
     1
 11
-542.802839636803
 21
18.0321085658658
 31
0.0
 73
     2
  0
TEXT
  5
   3CF
  8
0
  6
CONTINUOUS
 62
     7
 10
-464.424613864583
 20
108.79104638765
 30
0.0
 40
3.00000002980232
  1
Y
 50
359.999999948034
 41
0.916666604744064
 72
     1
 11
-463.324613928795
 21
110.291046401559
 31
0.0
 73
     2
  0
LINE
  5
   3D0
  8
0
  6
DASHDOT
 62
     3
 10
-541.823540142411
 20
17.4070854187012
 30
0.0
 11
-671.514799572164
 21
17.4070854187012
 31
0.0
  0
LINE
  5
   3D1
  8
0
  6
DASHDOT
 62
     7
 10
-518.145219225367
 20
17.4070854187012
 30
0.0
 11
-525.096711662504
 21
17.4070854187012
 31
0.0
  0
LINE
  5
   3D2
  8
0
  6
CONTINUOUS
 62
     5
 10
-578.372947692871
 20
81.2820625305176
 30
0.0
 11
-627.622940063477
 21
81.2820625305176
 31
0.0
  0
LINE
  5
   3D3
  8
0
  6
CONTINUOUS
 62
     5
 10
-628.122940063477
 20
68.2820796203437
 30
0.0
 11
-628.122940063477
 21
80.7820625305176
 31
0.0
  0
ARC
  5
   3D4
  8
0
  6
CONTINUOUS
 62
     5
 10
-627.622940063477
 20
80.7820625305176
 30
0.0
 40
0.5
 50
89.9999999480344
 51
179.999999948034
  0
LINE
  5
   3D5
  8
0
  6
CONTINUOUS
 62
     5
 10
-627.622940063477
 20
67.7820796203437
 30
0.0
 11
-627.622940063477
 21
68.2820796203437
 31
0.0
  0
LINE
  5
   3D6
  8
0
  6
CONTINUOUS
 62
     5
 10
-627.622940063477
 20
68.2820796203437
 30
0.0
 11
-628.122940063477
 21
68.2820796203437
 31
0.0
  0
LINE
  5
   3D7
  8
0
  6
CONTINUOUS
 62
     5
 10
-578.372947216034
 20
-48.2179051208673
 30
0.0
 11
-627.622940063477
 21
-48.2179051208673
 31
0.0
  0
LINE
  5
   3D8
  8
0
  6
CONTINUOUS
 62
     5
 10
-628.122940063477
 20
-47.7179051208673
 30
0.0
 11
-628.122940063477
 21
-35.467912750262
 31
0.0
  0
ARC
  5
   3D9
  8
0
  6
CONTINUOUS
 62
     5
 10
-627.622940063477
 20
-47.7179051208673
 30
0.0
 40
0.5
 50
179.999999948034
 51
269.999999948034
  0
LINE
  5
   3DA
  8
0
  6
CONTINUOUS
 62
     5
 10
-627.622940063477
 20
-35.467912750262
 30
0.0
 11
-628.122940063477
 21
-35.467912750262
 31
0.0
  0
LINE
  5
   3DB
  8
0
  6
CONTINUOUS
 62
     5
 10
-627.622940063477
 20
-35.467912750262
 30
0.0
 11
-627.622940063477
 21
-34.967912750262
 31
0.0
  0
LINE
  5
   3DC
  8
0
  6
CONTINUOUS
 62
     3
 10
-568.122924804688
 20
85.5707071475343
 30
0.0
 11
-568.122924804688
 21
99.7820320129395
 31
0.0
  0
LINE
  5
   3DD
  8
0
  6
CONTINUOUS
 62
     3
 10
-571.122924804688
 20
85.5707071475343
 30
0.0
 11
-571.122924804688
 21
99.7820320129395
 31
0.0
  0
LINE
  5
   3DE
  8
0
  6
CONTINUOUS
 62
     3
 10
-563.872924804688
 20
80.0320625305176
 30
0.0
 11
-563.872924804688
 21
80.8075674267199
 31
0.0
  0
LINE
  5
   3DF
  8
0
  6
CONTINUOUS
 62
     3
 10
-566.872924804688
 20
80.0320625305176
 30
0.0
 11
-566.872924804688
 21
80.8075674267199
 31
0.0
  0
LINE
  5
   3E0
  8
0
  6
DASHDOT
 62
     7
 10
-564.212184096217
 20
92.7820320129395
 30
0.0
 11
-575.098865907729
 21
92.7820320129395
 31
0.0
  0
LINE
  5
   3E1
  8
0
  6
CONTINUOUS
 62
     3
 10
-568.122924804688
 20
99.7820320129395
 30
0.0
 11
-571.122924804688
 21
99.7820320129395
 31
0.0
  0
LINE
  5
   3E2
  8
0
  6
CONTINUOUS
 62
     3
 10
-565.622924804688
 20
83.8386563399654
 30
0.0
 11
-567.872924804688
 21
85.1376944456421
 31
0.0
  0
LINE
  5
   3E3
  8
0
  6
CONTINUOUS
 62
     3
 10
-567.122924804688
 20
81.2405801286121
 30
0.0
 11
-569.372924804688
 21
82.5396182342888
 31
0.0
  0
ARC
  5
   3E4
  8
0
  6
CONTINUOUS
 62
     3
 10
-567.622924804688
 20
85.5707071475343
 30
0.0
 40
3.5
 50
179.999999948034
 51
239.999999948035
  0
ARC
  5
   3E5
  8
0
  6
CONTINUOUS
 62
     3
 10
-567.372924804688
 20
80.8075674267199
 30
0.0
 40
3.5
 50
359.999999948034
 51
419.999999948035
  0
ARC
  5
   3E6
  8
0
  6
CONTINUOUS
 62
     3
 10
-567.622924804688
 20
85.5707071475343
 30
0.0
 40
0.5
 50
179.999999948034
 51
239.999999948035
  0
ARC
  5
   3E7
  8
0
  6
CONTINUOUS
 62
     3
 10
-567.372924804688
 20
80.8075674267199
 30
0.0
 40
0.5
 50
359.999999948034
 51
419.999999948035
  0
LINE
  5
   3E8
  8
0
  6
CONTINUOUS
 62
     3
 10
-568.122924804688
 20
87.2820320129395
 30
0.0
 11
-571.122924804688
 21
87.2820320129395
 31
0.0
  0
LINE
  5
   3E9
  8
0
  6
CONTINUOUS
 62
     3
 10
-568.122924804688
 20
-66.7179069519043
 30
0.0
 11
-571.122924804688
 21
-66.7179069519043
 31
0.0
  0
LINE
  5
   3EA
  8
0
  6
CONTINUOUS
 62
     3
 10
-571.122924804688
 20
-66.7179069519043
 30
0.0
 11
-571.122924804688
 21
-52.5065820864992
 31
0.0
  0
LINE
  5
   3EB
  8
0
  6
CONTINUOUS
 62
     3
 10
-568.122924804688
 20
-66.7179069519043
 30
0.0
 11
-568.122924804688
 21
-52.5065820864991
 31
0.0
  0
LINE
  5
   3EC
  8
0
  6
DASHDOT
 62
     3
 10
-564.212184096217
 20
-59.7179069519043
 30
0.0
 11
-575.098865907729
 21
-59.7179069519043
 31
0.0
  0
LINE
  5
   3ED
  8
0
  6
CONTINUOUS
 62
     3
 10
-568.122924804688
 20
-54.2179069519043
 30
0.0
 11
-571.122924804688
 21
-54.2179069519043
 31
0.0
  0
ARC
  5
   3EE
  8
0
  6
CONTINUOUS
 62
     3
 10
-567.622924804688
 20
-52.5065820864992
 30
0.0
 40
3.5
 50
119.999999948034
 51
179.999999948034
  0
ARC
  5
   3EF
  8
0
  6
CONTINUOUS
 62
     3
 10
-567.622924804688
 20
-52.5065820864991
 30
0.0
 40
0.5
 50
119.999999948034
 51
179.999999948034
  0
LINE
  5
   3F0
  8
0
  6
CONTINUOUS
 62
     3
 10
-567.872924804688
 20
-52.0735693846069
 30
0.0
 11
-565.622924804688
 21
-50.7745312789303
 31
0.0
  0
LINE
  5
   3F1
  8
0
  6
CONTINUOUS
 62
     3
 10
-569.372924804688
 20
-49.4754931732536
 30
0.0
 11
-567.122924804688
 21
-48.176455067577
 31
0.0
  0
ARC
  5
   3F2
  8
0
  6
CONTINUOUS
 62
     3
 10
-567.372924804688
 20
-47.7434423656847
 30
0.0
 40
0.5
 50
299.999999948034
 51
359.999999948034
  0
ARC
  5
   3F3
  8
0
  6
CONTINUOUS
 62
     3
 10
-567.372924804688
 20
-47.7434423656847
 30
0.0
 40
3.5
 50
299.999999948034
 51
359.999999948034
  0
LINE
  5
   3F4
  8
0
  6
CONTINUOUS
 62
     3
 10
-563.872924804688
 20
-47.7434423656847
 30
0.0
 11
-563.872924804688
 21
-46.9679374694824
 31
0.0
  0
LINE
  5
   3F5
  8
0
  6
CONTINUOUS
 62
     3
 10
-566.872924804688
 20
-47.7434423656847
 30
0.0
 11
-566.872924804688
 21
-46.9679374694824
 31
0.0
  0
LINE
  5
   3F6
  8
0
  6
CONTINUOUS
 62
     3
 10
-556.872932434082
 20
78.6320686340332
 30
0.0
 11
-558.872924804688
 21
78.6320686340332
 31
0.0
  0
LINE
  5
   3F7
  8
0
  6
CONTINUOUS
 62
     7
 10
-553.372924804688
 20
78.6320686340332
 30
0.0
 11
-556.872932434082
 21
78.6320686340332
 31
0.0
  0
LINE
  5
   3F8
  8
0
  6
CONTINUOUS
 62
     3
 10
-556.872932434082
 20
63.4319953918457
 30
0.0
 11
-558.872924804688
 21
63.4319953918457
 31
0.0
  0
LINE
  5
   3F9
  8
0
  6
CONTINUOUS
 62
     3
 10
-556.872932434082
 20
62.2820320129395
 30
0.0
 11
-556.872932434082
 21
63.4319953918457
 31
0.0
  0
LINE
  5
   3FA
  8
0
  6
CONTINUOUS
 62
     7
 10
-553.372924804688
 20
63.4319953918457
 30
0.0
 11
-556.872932434082
 21
63.4319953918457
 31
0.0
  0
LINE
  5
   3FB
  8
0
  6
CONTINUOUS
 62
     3
 10
-556.872932434082
 20
-45.567943572998
 30
0.0
 11
-558.872924804688
 21
-45.567943572998
 31
0.0
  0
LINE
  5
   3FC
  8
0
  6
CONTINUOUS
 62
     3
 10
-556.872932434082
 20
-46.7179069519043
 30
0.0
 11
-556.872932434082
 21
-45.567943572998
 31
0.0
  0
LINE
  5
   3FD
  8
0
  6
CONTINUOUS
 62
     7
 10
-553.372924804688
 20
-45.567943572998
 30
0.0
 11
-556.872932434082
 21
-45.567943572998
 31
0.0
  0
LINE
  5
   3FE
  8
0
  6
CONTINUOUS
 62
     7
 10
-553.372924804688
 20
-45.567943572998
 30
0.0
 11
-553.372924804688
 21
-30.3678703308105
 31
0.0
  0
LINE
  5
   3FF
  8
0
  6
CONTINUOUS
 62
     3
 10
-553.372980052826
 20
-46.7178729395151
 30
0.0
 11
-552.87298006994
 21
-46.2178729566294
 31
0.0
  0
LINE
  5
   400
  8
0
  6
CONTINUOUS
 62
     3
 10
-553.372924804688
 20
-46.7179069519043
 30
0.0
 11
-556.872932434082
 21
-46.7179069519043
 31
0.0
  0
LINE
  5
   401
  8
0
  6
CONTINUOUS
 62
     3
 10
-552.872924804688
 20
-46.2178176913765
 30
0.0
 11
-552.872924804688
 21
-29.7179157654791
 31
0.0
  0
LINE
  5
   402
  8
0
  6
CONTINUOUS
 62
     3
 10
-556.872932434082
 20
-30.3678703308105
 30
0.0
 11
-558.872924804688
 21
-30.3678703308105
 31
0.0
  0
LINE
  5
   403
  8
0
  6
CONTINUOUS
 62
     3
 10
-556.872932434082
 20
-30.3678703308105
 30
0.0
 11
-556.872932434082
 21
-29.2179069519043
 31
0.0
  0
LINE
  5
   404
  8
0
  6
CONTINUOUS
 62
     3
 10
-553.372924804688
 20
-29.2179069519043
 30
0.0
 11
-556.872932434082
 21
-29.2179069519043
 31
0.0
  0
LINE
  5
   405
  8
0
  6
CONTINUOUS
 62
     3
 10
-552.872889723739
 20
-29.7179508464278
 30
0.0
 11
-553.372889706625
 21
-29.217950863542
 31
0.0
  0
LINE
  5
   406
  8
0
  6
CONTINUOUS
 62
     7
 10
-553.372924804688
 20
-30.3678703308105
 30
0.0
 11
-556.872932434082
 21
-30.3678703308105
 31
0.0
  0
LINE
  5
   407
  8
0
  6
CONTINUOUS
 62
     2
 10
-578.372901916272
 20
58.532039642334
 30
0.0
 11
-578.372901916272
 21
68.8393516540527
 31
0.0
  0
LINE
  5
   408
  8
0
  6
CONTINUOUS
 62
     7
 10
-612.622932434082
 20
67.532039642334
 30
0.0
 11
-614.372932434082
 21
67.532039642334
 31
0.0
  0
LINE
  5
   409
  8
0
  6
CONTINUOUS
 62
     7
 10
-612.622879027965
 20
58.7820352827272
 30
0.0
 11
-612.622879027965
 21
67.5320352827272
 31
0.0
  0
LINE
  5
   40A
  8
0
  6
CONTINUOUS
 62
     7
 10
-578.372932434082
 20
59.782039642334
 30
0.0
 11
-580.372932434082
 21
59.782039642334
 31
0.0
  0
LINE
  5
   40B
  8
0
  6
CONTINUOUS
 62
     7
 10
-580.372933705465
 20
59.7820332940976
 30
0.0
 11
-580.372981643557
 21
78.6320628356757
 31
0.0
  0
LINE
  5
   40C
  8
0
  6
CONTINUOUS
 62
     2
 10
-578.122947692871
 20
58.532039642334
 30
0.0
 11
-578.372932434082
 21
58.532039642334
 31
0.0
  0
LINE
  5
   40D
  8
0
  6
CONTINUOUS
 62
     2
 10
-577.372947692871
 20
66.532039642334
 30
0.0
 11
-578.372947692871
 21
66.532039642334
 31
0.0
  0
LINE
  5
   40E
  8
0
  6
CONTINUOUS
 62
     2
 10
-577.372947692871
 20
72.032039642334
 30
0.0
 11
-578.372947692871
 21
72.032039642334
 31
0.0
  0
LINE
  5
   40F
  8
0
  6
CONTINUOUS
 62
     2
 10
-577.372947692871
 20
70.6878623962402
 30
0.0
 11
-578.372947692871
 21
70.6878623962402
 31
0.0
  0
LINE
  5
   410
  8
0
  6
CONTINUOUS
 62
     2
 10
-577.372947692871
 20
68.8393516540527
 30
0.0
 11
-578.372947692871
 21
68.8393516540527
 31
0.0
  0
LINE
  5
   411
  8
0
  6
CONTINUOUS
 62
     7
 10
-614.372932434082
 20
67.2820491027655
 30
0.0
 11
-614.372932434082
 21
67.7820567321601
 31
0.0
  0
LINE
  5
   412
  8
0
  6
CONTINUOUS
 62
     7
 10
-625.472930908203
 20
67.7820567321601
 30
0.0
 11
-625.622932434082
 21
67.7820567321601
 31
0.0
  0
LINE
  5
   413
  8
0
  6
CONTINUOUS
 62
     7
 10
-612.872932434082
 20
67.2820643615546
 30
0.0
 11
-614.372932434082
 21
67.2820643615546
 31
0.0
  0
LINE
  5
   414
  8
0
  6
CONTINUOUS
 62
     7
 10
-612.872932434082
 20
55.032054901123
 30
0.0
 11
-612.872932434082
 21
67.2820643615546
 31
0.0
  0
LINE
  5
   415
  8
0
  6
CONTINUOUS
 62
     7
 10
-625.472915649413
 20
55.032054901123
 30
0.0
 11
-625.472915649413
 21
67.7820504757674
 31
0.0
  0
LINE
  5
   416
  8
0
  6
CONTINUOUS
 62
     2
 10
-578.372901916272
 20
78.6320628356757
 30
0.0
 11
-625.472938537598
 21
78.6320628356757
 31
0.0
  0
LINE
  5
   417
  8
0
  6
CONTINUOUS
 62
     2
 10
-625.472885131829
 20
67.782053286677
 30
0.0
 11
-625.472885131829
 21
78.6320593901927
 31
0.0
  0
LINE
  5
   418
  8
0
  6
CONTINUOUS
 62
     7
 10
-614.372932434082
 20
67.7820643615546
 30
0.0
 11
-614.372932434082
 21
78.6320628356757
 31
0.0
  0
LINE
  5
   419
  8
0
  6
CONTINUOUS
 62
     7
 10
-628.122940063477
 20
-16.9679051208673
 30
0.0
 11
-628.122940063477
 21
-14.9679565429688
 31
0.0
  0
LINE
  5
   41A
  8
0
  6
CONTINUOUS
 62
     7
 10
-628.122940063477
 20
55.032054901123
 30
0.0
 11
-628.122940063477
 21
67.7820796203437
 31
0.0
  0
LINE
  5
   41B
  8
0
  6
CONTINUOUS
 62
     7
 10
-625.622940063477
 20
67.7820796203437
 30
0.0
 11
-628.122940063477
 21
67.7820796203437
 31
0.0
  0
LINE
  5
   41C
  8
0
  6
CONTINUOUS
 62
     7
 10
-625.622940063477
 20
-16.9679051208673
 30
0.0
 11
-628.122940063477
 21
-16.9679051208673
 31
0.0
  0
LINE
  5
   41D
  8
0
  6
CONTINUOUS
 62
   218
 10
-578.372947216034
 20
-45.5679055023372
 30
0.0
 11
-625.472938060761
 21
-45.5679055023372
 31
0.0
  0
LINE
  5
   41E
  8
0
  6
CONTINUOUS
 62
   218
 10
-625.472942065563
 20
-32.9679127507098
 30
0.0
 11
-625.622940063027
 21
-32.967910990108
 31
0.0
  0
LINE
  5
   41F
  8
0
  6
CONTINUOUS
 62
   218
 10
-625.472946166992
 20
-34.967912750262
 30
0.0
 11
-627.622940063477
 21
-34.967912750262
 31
0.0
  0
LINE
  5
   420
  8
0
  6
CONTINUOUS
 62
   218
 10
-625.472946166992
 20
-45.5679035949886
 30
0.0
 11
-625.472946166992
 21
-32.9679051208675
 31
0.0
  0
LINE
  5
   421
  8
0
  6
CONTINUOUS
 62
   218
 10
-625.472946166992
 20
-32.9679051208675
 30
0.0
 11
-625.472946166992
 21
-16.9679546356201
 31
0.0
  0
LINE
  5
   422
  8
0
  6
CONTINUOUS
 62
     7
 10
-625.472946166992
 20
-17.4679051208675
 30
0.0
 11
-625.622940063477
 21
-17.4679051208675
 31
0.0
  0
LINE
  5
   423
  8
0
  6
CONTINUOUS
 62
   218
 10
-577.372947692709
 20
-29.9679127497673
 30
0.0
 11
-578.372947215849
 21
-29.9679051203727
 31
0.0
  0
LINE
  5
   424
  8
0
  6
CONTINUOUS
 62
   218
 10
-578.372947216034
 20
-48.2179051208673
 30
0.0
 11
-578.372947216034
 21
-29.9679127502618
 31
0.0
  0
LINE
  5
   425
  8
0
  6
CONTINUOUS
 62
   218
 10
-577.372947692871
 20
-35.342912750262
 30
0.0
 11
-578.372947692871
 21
-35.342912750262
 31
0.0
  0
LINE
  5
   426
  8
0
  6
CONTINUOUS
 62
   218
 10
-577.372947692871
 20
-39.7017083931148
 30
0.0
 11
-578.372947692871
 21
-39.7017083931148
 31
0.0
  0
LINE
  5
   427
  8
0
  6
CONTINUOUS
 62
   218
 10
-577.372947692871
 20
-38.4752140808284
 30
0.0
 11
-578.372947692871
 21
-38.4752140808284
 31
0.0
  0
LINE
  5
   428
  8
0
  6
CONTINUOUS
 62
     7
 10
-625.622940063477
 20
-17.2179051208673
 30
0.0
 11
-628.122940063477
 21
-17.2179051208673
 31
0.0
  0
LINE
  5
   429
  8
0
  6
CONTINUOUS
 62
     7
 10
-625.622940063477
 20
-34.7179051208673
 30
0.0
 11
-628.122940063477
 21
-34.7179051208673
 31
0.0
  0
LINE
  5
   42A
  8
0
  6
CONTINUOUS
 62
     7
 10
-628.122940063477
 20
-34.7179051208673
 30
0.0
 11
-628.122940063477
 21
-17.2179051208673
 31
0.0
  0
LINE
  5
   42B
  8
0
  6
CONTINUOUS
 62
     7
 10
-627.122940063477
 20
-34.7179051208673
 30
0.0
 11
-627.122940063477
 21
-17.2179051208673
 31
0.0
  0
LINE
  5
   42C
  8
0
  6
CONTINUOUS
 62
     7
 10
-625.622940063477
 20
-34.7179051208673
 30
0.0
 11
-625.622940063477
 21
-17.2179051208673
 31
0.0
  0
LINE
  5
   42D
  8
0
  6
CONTINUOUS
 62
     2
 10
-578.372901916272
 20
70.6878623962402
 30
0.0
 11
-578.372901916272
 21
81.2820625305176
 31
0.0
  0
LINE
  5
   42E
  8
0
  6
CONTINUOUS
 62
     7
 10
-577.372947692871
 20
66.532039642334
 30
0.0
 11
-577.372947692871
 21
72.032039642334
 31
0.0
  0
LINE
  5
   42F
  8
0
  6
CONTINUOUS
 62
     7
 10
-577.372947692871
 20
-39.7017083931155
 30
0.0
 11
-577.372947692871
 21
-35.3429127502627
 31
0.0
  0
LINE
  5
   430
  8
0
  6
CONTINUOUS
 62
     7
 10
-553.372924804688
 20
63.4319953918457
 30
0.0
 11
-553.372924804688
 21
78.6320686340332
 31
0.0
  0
LINE
  5
   431
  8
0
  6
CONTINUOUS
 62
     7
 10
-558.872928673595
 20
-46.9679222106926
 30
0.0
 11
-577.372951561778
 21
-46.9679222106926
 31
0.0
  0
LINE
  5
   432
  8
0
  6
CONTINUOUS
 62
     7
 10
-558.872924804688
 20
80.0320625305176
 30
0.0
 11
-577.372947692871
 21
80.0320625305176
 31
0.0
  0
LINE
  5
   433
  8
0
  6
CONTINUOUS
 62
     7
 10
-577.372947692871
 20
-37.967945098877
 30
0.0
 11
-577.372947692871
 21
-17.3429565429688
 31
0.0
  0
LINE
  5
   434
  8
0
  6
CONTINUOUS
 62
     7
 10
-577.372947692871
 20
-46.967945098877
 30
0.0
 11
-577.372947692871
 21
-45.5679206848145
 31
0.0
  0
LINE
  5
   435
  8
0
  6
CONTINUOUS
 62
     7
 10
-577.372947692871
 20
78.6320762634277
 30
0.0
 11
-577.372947692871
 21
80.0320625305176
 31
0.0
  0
LINE
  5
   436
  8
0
  6
CONTINUOUS
 62
     7
 10
-577.372947692871
 20
55.032054901123
 30
0.0
 11
-577.372947692871
 21
71.0320777893066
 31
0.0
  0
LINE
  5
   437
  8
0
  6
CONTINUOUS
 62
     7
 10
-558.872924804688
 20
78.6320533752441
 30
0.0
 11
-558.872924804688
 21
80.0320625305176
 31
0.0
  0
LINE
  5
   438
  8
0
  6
CONTINUOUS
 62
     7
 10
-558.872924804688
 20
-46.9679527282715
 30
0.0
 11
-558.872924804688
 21
-45.5679316520691
 31
0.0
  0
LINE
  5
   439
  8
0
  6
CONTINUOUS
 62
     7
 10
-558.872924804688
 20
-37.967960357666
 30
0.0
 11
-558.872924804688
 21
-30.3678703308105
 31
0.0
  0
LINE
  5
   43A
  8
0
  6
CONTINUOUS
 62
     7
 10
-552.622924804688
 20
46.5320625305176
 30
0.0
 11
-552.622924804688
 21
54.0320625305176
 31
0.0
  0
LINE
  5
   43B
  8
0
  6
CONTINUOUS
 62
     7
 10
-552.622924804688
 20
-20.9679069519043
 30
0.0
 11
-552.622924804688
 21
-13.4679069519043
 31
0.0
  0
LINE
  5
   43C
  8
0
  6
CONTINUOUS
 62
     7
 10
-553.622924804688
 20
3.20396423339844E-2
 30
0.0
 11
-554.622925928397
 21
3.20396423339844E-2
 31
0.0
  0
LINE
  5
   43D
  8
0
  6
CONTINUOUS
 62
     7
 10
-553.622924804688
 20
3.53203201293945
 30
0.0
 11
-554.622926342394
 21
3.53203201293945
 31
0.0
  0
LINE
  5
   43E
  8
0
  6
CONTINUOUS
 62
     7
 10
-558.872924804688
 20
78.6320686340332
 30
0.0
 11
-577.372947692871
 21
78.6320686340332
 31
0.0
  0
LINE
  5
   43F
  8
0
  6
CONTINUOUS
 62
     7
 10
-577.372947692871
 20
71.0320625305176
 30
0.0
 11
-577.372947692871
 21
78.6320686340332
 31
0.0
  0
LINE
  5
   440
  8
0
  6
CONTINUOUS
 62
     7
 10
-558.872924804688
 20
71.0320701599121
 30
0.0
 11
-558.872924804688
 21
78.6320686340332
 31
0.0
  0
LINE
  5
   441
  8
0
  6
CONTINUOUS
 62
     7
 10
-558.872924804688
 20
-45.5679297447205
 30
0.0
 11
-577.372947692871
 21
-45.5679297447205
 31
0.0
  0
LINE
  5
   442
  8
0
  6
CONTINUOUS
 62
     7
 10
-577.372947692871
 20
-45.5679297447205
 30
0.0
 11
-577.372947692871
 21
-37.9679527282715
 31
0.0
  0
LINE
  5
   443
  8
0
  6
CONTINUOUS
 62
     3
 10
-552.872924804688
 20
-12.967945098877
 30
0.0
 11
-553.622924804688
 21
-12.967945098877
 31
0.0
  0
LINE
  5
   444
  8
0
  6
CONTINUOUS
 62
     3
 10
-552.872924804688
 20
-21.467945098877
 30
0.0
 11
-553.622924804688
 21
-21.467945098877
 31
0.0
  0
LINE
  5
   445
  8
0
  6
CONTINUOUS
 62
     3
 10
-552.872924804688
 20
-26.967945098877
 30
0.0
 11
-553.622924804688
 21
-26.967945098877
 31
0.0
  0
LINE
  5
   446
  8
0
  6
CONTINUOUS
 62
     3
 10
-552.872924804688
 20
60.032054901123
 30
0.0
 11
-553.622924804688
 21
60.032054901123
 31
0.0
  0
LINE
  5
   447
  8
0
  6
CONTINUOUS
 62
     3
 10
-552.872924804688
 20
54.5320549011231
 30
0.0
 11
-553.622924804688
 21
54.5320549011231
 31
0.0
  0
LINE
  5
   448
  8
0
  6
CONTINUOUS
 62
     3
 10
-552.872924804688
 20
46.032054901123
 30
0.0
 11
-553.622924804688
 21
46.032054901123
 31
0.0
  0
LINE
  5
   449
  8
0
  6
CONTINUOUS
 62
     3
 10
-553.622924804688
 20
54.0320625305176
 30
0.0
 11
-553.622924804688
 21
60.032054901123
 31
0.0
  0
LINE
  5
   44A
  8
0
  6
CONTINUOUS
 62
     3
 10
-553.622924804688
 20
-13.4678688049316
 30
0.0
 11
-553.622924804688
 21
46.5320777893066
 31
0.0
  0
LINE
  5
   44B
  8
0
  6
CONTINUOUS
 62
     3
 10
-553.622924804688
 20
-26.967945098877
 30
0.0
 11
-553.622924804688
 21
-20.9678688049316
 31
0.0
  0
LINE
  5
   44C
  8
0
  6
CONTINUOUS
 62
     3
 10
-552.872924804688
 20
-26.967945098877
 30
0.0
 11
-552.872924804688
 21
-20.9679145812988
 31
0.0
  0
LINE
  5
   44D
  8
0
  6
CONTINUOUS
 62
     3
 10
-552.872924804688
 20
-13.4679222106934
 30
0.0
 11
-552.872924804688
 21
46.5320091247559
 31
0.0
  0
LINE
  5
   44E
  8
0
  6
CONTINUOUS
 62
     3
 10
-552.872924804688
 20
54.0320243835449
 30
0.0
 11
-552.872924804688
 21
60.032054901123
 31
0.0
  0
LINE
  5
   44F
  8
0
  6
CONTINUOUS
 62
     3
 10
-552.872924804688
 20
62.7820408265142
 30
0.0
 11
-552.872924804688
 21
79.2819427524117
 31
0.0
  0
LINE
  5
   450
  8
0
  6
CONTINUOUS
 62
     3
 10
-556.872932434082
 20
78.6320686340332
 30
0.0
 11
-556.872932434082
 21
79.7820320129395
 31
0.0
  0
LINE
  5
   451
  8
0
  6
CONTINUOUS
 62
     7
 10
-552.622924804688
 20
54.0320625305176
 30
0.0
 11
-554.622932315797
 21
54.0320625305176
 31
0.0
  0
LINE
  5
   452
  8
0
  6
CONTINUOUS
 62
     7
 10
-552.622924804688
 20
46.5320625305176
 30
0.0
 11
-554.622931428659
 21
46.5320625305176
 31
0.0
  0
LINE
  5
   453
  8
0
  6
CONTINUOUS
 62
     7
 10
-552.622924804688
 20
-13.4679069519043
 30
0.0
 11
-554.622930353065
 21
-13.4679069519043
 31
0.0
  0
LINE
  5
   454
  8
0
  6
CONTINUOUS
 62
     7
 10
-552.622924804688
 20
-20.9679069519043
 30
0.0
 11
-558.872924804688
 21
-20.9679069519043
 31
0.0
  0
LINE
  5
   455
  8
0
  6
CONTINUOUS
 62
     3
 10
-552.87298006994
 20
79.2819980176646
 30
0.0
 11
-553.372980052826
 21
79.7819980005502
 31
0.0
  0
LINE
  5
   456
  8
0
  6
CONTINUOUS
 62
     3
 10
-553.372889706625
 20
62.2820759245772
 30
0.0
 11
-552.872889723739
 21
62.7820759074629
 31
0.0
  0
LINE
  5
   457
  8
0
  6
CONTINUOUS
 62
     3
 10
-553.372924804688
 20
79.7820320129395
 30
0.0
 11
-556.872932434082
 21
79.7820320129395
 31
0.0
  0
LINE
  5
   458
  8
0
  6
CONTINUOUS
 62
     3
 10
-553.372924804688
 20
62.2820320129395
 30
0.0
 11
-556.872932434082
 21
62.2820320129395
 31
0.0
  0
LINE
  5
   459
  8
0
  6
DASHDOT
 62
     7
 10
-552.622924804688
 20
-13.4679069519043
 30
0.0
 11
-552.622924804688
 21
46.5320625305176
 31
0.0
  0
LINE
  5
   45A
  8
0
  6
DASHDOT
 62
     7
 10
-552.622924804688
 20
-64.2804689294814
 30
0.0
 11
-552.622924804688
 21
-20.9679069519043
 31
0.0
  0
LINE
  5
   45B
  8
0
  6
DASHDOT
 62
     7
 10
-552.622924804688
 20
54.0320625305176
 30
0.0
 11
-552.622924804688
 21
87.637542485671
 31
0.0
  0
LINE
  5
   45C
  8
0
  6
DASHDOT
 62
     7
 10
-551.122924804688
 20
-62.6451835536455
 30
0.0
 11
-551.122924804688
 21
88.2916566360054
 31
0.0
  0
LINE
  5
   45D
  8
0
  6
CONTINUOUS
 62
     7
 10
-556.631156662268
 20
87.8622617792769
 30
0.0
 11
-547.026760755912
 21
89.2542032149806
 31
0.0
  0
LINE
  5
   45E
  8
0
  6
CONTINUOUS
 62
     7
 10
-557.048739092979
 20
-65.1816990763527
 30
0.0
 11
-548.001119760904
 21
-60.7274864821006
 31
0.0
  0
LINE
  5
   45F
  8
0
  6
CONTINUOUS
 62
     7
 10
-558.872924804688
 20
63.4319953918457
 30
0.0
 11
-558.872924804688
 21
71.0320320129395
 31
0.0
  0
LINE
  5
   460
  8
0
  6
CONTINUOUS
 62
     7
 10
-558.872924804688
 20
55.032054901123
 30
0.0
 11
-558.872924804688
 21
63.4319953918457
 31
0.0
  0
LINE
  5
   461
  8
0
  6
CONTINUOUS
 62
     7
 10
-558.872924804688
 20
-20.9679069519043
 30
0.0
 11
-558.872924804688
 21
-14.9680701288046
 31
0.0
  0
LINE
  5
   462
  8
0
  6
CONTINUOUS
 62
     7
 10
-558.872924804688
 20
-30.3678703308105
 30
0.0
 11
-558.872924804688
 21
-20.9679069519043
 31
0.0
  0
LINE
  5
   463
  8
0
  6
CONTINUOUS
 62
     7
 10
-558.872924804688
 20
-45.567943572998
 30
0.0
 11
-558.872924804688
 21
-37.9679527282715
 31
0.0
  0
LINE
  5
   464
  8
0
  6
DASHDOT
 62
     7
 10
-546.218623250225
 20
50.2820625305176
 30
0.0
 11
-561.587662162397
 21
50.2820625305176
 31
0.0
  0
LINE
  5
   465
  8
0
  6
DASHDOT
 62
     7
 10
-546.50062396421
 20
-17.2179374694824
 30
0.0
 11
-562.715665018336
 21
-17.2179374694824
 31
0.0
  0
LINE
  5
   466
  8
0
  6
CONTINUOUS
 62
   130
 10
-642.122891427185
 20
-9.4679622603539
 30
0.0
 11
-642.122917176392
 21
-7.46794890891347
 31
0.0
  0
LINE
  5
   467
  8
0
  6
CONTINUOUS
 62
   130
 10
-642.122917176311
 20
-14.9679603541894
 30
0.0
 11
-642.122892380779
 21
-12.967967983584
 31
0.0
  0
LINE
  5
   468
  8
0
  6
CONTINUOUS
 62
   130
 10
-576.372947484882
 20
-14.9680194406758
 30
0.0
 11
-577.372947484882
 21
-14.9679564981709
 31
0.0
  0
LINE
  5
   469
  8
0
  6
CONTINUOUS
 62
   130
 10
-579.872955322266
 20
-14.9679565429688
 30
0.0
 11
-639.622917175293
 21
-14.9679565429688
 31
0.0
  0
LINE
  5
   46A
  8
0
  6
CONTINUOUS
 62
   130
 10
-554.622932434082
 20
55.032054901123
 30
0.0
 11
-576.372955322266
 21
55.032054901123
 31
0.0
  0
LINE
  5
   46B
  8
0
  6
CONTINUOUS
 62
   130
 10
-554.62293243346
 20
-14.9680824278838
 30
0.0
 11
-576.372947692249
 21
-14.9680194853801
 31
0.0
  0
LINE
  5
   46C
  8
0
  6
CONTINUOUS
 62
   130
 10
-554.622932434011
 20
-14.968082427935
 30
0.0
 11
-554.622924804616
 21
-9.46797370906292
 31
0.0
  0
LINE
  5
   46D
  8
0
  6
CONTINUOUS
 62
     7
 10
-596.872924804688
 20
39.0320625305176
 30
0.0
 11
-642.122917175293
 21
39.0320625305176
 31
0.0
  0
LINE
  5
   46E
  8
0
  6
CONTINUOUS
 62
     7
 10
-596.872924804688
 20
24.0320358276367
 30
0.0
 11
-642.122917175293
 21
24.0320358276367
 31
0.0
  0
LINE
  5
   46F
  8
0
  6
CONTINUOUS
 62
   130
 10
-642.122892379761
 20
-12.9679679870587
 30
0.0
 11
-642.122891426087
 21
-9.46796226501282
 31
0.0
  0
LINE
  5
   470
  8
0
  6
CONTINUOUS
 62
   130
 10
-576.372955322266
 20
55.032054901123
 30
0.0
 11
-642.122917175293
 21
55.032054901123
 31
0.0
  0
LINE
  5
   471
  8
0
  6
CONTINUOUS
 62
   130
 10
-642.122917175293
 20
39.0320625305176
 30
0.0
 11
-642.122917175293
 21
55.032054901123
 31
0.0
  0
LINE
  5
   472
  8
0
  6
CONTINUOUS
 62
     7
 10
-590.9979553221
 20
-12.9679374694418
 30
0.0
 11
-578.372947692705
 21
-12.9679145812584
 31
0.0
  0
LINE
  5
   473
  8
0
  6
CONTINUOUS
 62
     7
 10
-611.435424804674
 20
-12.967948913569
 30
0.0
 11
-592.997955322252
 21
-12.9679374694777
 31
0.0
  0
LINE
  5
   474
  8
0
  6
CONTINUOUS
 62
     7
 10
-640.122862815851
 20
-12.9679660797065
 30
0.0
 11
-613.435423851007
 21
-12.9679489135691
 31
0.0
  0
LINE
  5
   475
  8
0
  6
CONTINUOUS
 62
     7
 10
-640.122858047479
 20
-10.7179622650093
 30
0.0
 11
-613.435422897333
 21
-10.7179450988714
 31
0.0
  0
LINE
  5
   476
  8
0
  6
CONTINUOUS
 62
     7
 10
-611.435422897325
 20
-10.7179431915228
 30
0.0
 11
-592.997951507555
 21
-10.7179317474313
 31
0.0
  0
LINE
  5
   477
  8
0
  6
CONTINUOUS
 62
     7
 10
-590.99795150755
 20
-10.717929840083
 30
0.0
 11
-578.372947692853
 21
-10.7179222106885
 31
0.0
  0
LINE
  5
   478
  8
0
  6
CONTINUOUS
 62
     7
 10
-640.122862815873
 20
-12.9679660796412
 30
0.0
 11
-640.122859001176
 21
-10.7179622649439
 31
0.0
  0
LINE
  5
   479
  8
0
  6
CONTINUOUS
 62
     7
 10
-578.372947692871
 20
-12.9679145812988
 30
0.0
 11
-578.372947692871
 21
-10.7179222106934
 31
0.0
  0
LINE
  5
   47A
  8
0
  6
CONTINUOUS
 62
     7
 10
-590.997955322211
 20
-12.9679374694052
 30
0.0
 11
-590.997951507514
 21
-10.7179183959189
 31
0.0
  0
LINE
  5
   47B
  8
0
  6
CONTINUOUS
 62
     7
 10
-592.997955322214
 20
-12.9679374694117
 30
0.0
 11
-592.997951507517
 21
-10.717920303274
 31
0.0
  0
LINE
  5
   47C
  8
0
  6
CONTINUOUS
 62
     7
 10
-611.435424804681
 20
-12.9679489135549
 30
0.0
 11
-611.435422897333
 21
-10.7179317474172
 31
0.0
  0
LINE
  5
   47D
  8
0
  6
CONTINUOUS
 62
     7
 10
-613.435423851008
 20
-12.9679489135565
 30
0.0
 11
-613.435421943659
 21
-10.7179336547675
 31
0.0
  0
LINE
  5
   47E
  8
0
  6
CONTINUOUS
 62
   130
 10
-626.122917890549
 20
-16.9679546356201
 30
0.0
 11
-626.122917890549
 21
-14.9679546356201
 31
0.0
  0
LINE
  5
   47F
  8
0
  6
CONTINUOUS
 62
   130
 10
-624.12291765213
 20
-16.9679546356201
 30
0.0
 11
-624.12291765213
 21
-14.9679546356201
 31
0.0
  0
LINE
  5
   480
  8
0
  6
CONTINUOUS
 62
   130
 10
-624.12291765213
 20
-16.9679546356201
 30
0.0
 11
-626.122917890549
 21
-16.9679546356201
 31
0.0
  0
LINE
  5
   481
  8
0
  6
CONTINUOUS
 62
   130
 10
-584.247917175293
 20
-16.9679279327393
 30
0.0
 11
-584.247917175293
 21
-14.9679641723633
 31
0.0
  0
LINE
  5
   482
  8
0
  6
CONTINUOUS
 62
   130
 10
-582.247917175293
 20
-16.9679279327393
 30
0.0
 11
-582.247917175293
 21
-14.9679641723633
 31
0.0
  0
LINE
  5
   483
  8
0
  6
CONTINUOUS
 62
   130
 10
-582.247917175293
 20
-16.9679279327393
 30
0.0
 11
-584.247917175293
 21
-16.9679279327393
 31
0.0
  0
LINE
  5
   484
  8
0
  6
CONTINUOUS
 62
   130
 10
-639.622917175293
 20
-17.3429565429688
 30
0.0
 11
-639.622917175293
 21
-16.0929565429688
 31
0.0
  0
LINE
  5
   485
  8
0
  6
CONTINUOUS
 62
   130
 10
-642.122917175293
 20
-17.3429565429688
 30
0.0
 11
-642.122917175293
 21
-14.967960357666
 31
0.0
  0
LINE
  5
   486
  8
0
  6
CONTINUOUS
 62
   130
 10
-639.622917175293
 20
-17.3429565429688
 30
0.0
 11
-642.122917175293
 21
-17.3429565429688
 31
0.0
  0
LINE
  5
   487
  8
0
  6
CONTINUOUS
 62
   130
 10
-639.622917175293
 20
-16.0929565429688
 30
0.0
 11
-639.622917175293
 21
-14.9679565429688
 31
0.0
  0
LINE
  5
   488
  8
0
  6
CONTINUOUS
 62
   130
 10
-579.87296295166
 20
-17.3429565429688
 30
0.0
 11
-579.87296295166
 21
-16.0929565429688
 31
0.0
  0
LINE
  5
   489
  8
0
  6
CONTINUOUS
 62
   130
 10
-577.37296295166
 20
-17.3429565429688
 30
0.0
 11
-579.87296295166
 21
-17.3429565429688
 31
0.0
  0
LINE
  5
   48A
  8
0
  6
CONTINUOUS
 62
   130
 10
-577.372962950597
 20
-17.3429565421331
 30
0.0
 11
-577.372947691808
 21
-14.9679565421331
 31
0.0
  0
LINE
  5
   48B
  8
0
  6
CONTINUOUS
 62
   130
 10
-579.872962950533
 20
-16.0929565419802
 30
0.0
 11
-579.872955321139
 21
-14.9679641713747
 31
0.0
  0
LINE
  5
   48C
  8
0
  6
CONTINUOUS
 62
     7
 10
-638.622920924526
 20
44.7820711582208
 30
0.0
 11
-640.122920957477
 21
46.2820711911717
 31
0.0
  0
LINE
  5
   48D
  8
0
  6
CONTINUOUS
 62
   130
 10
-642.122917175293
 20
-7.46794891357422
 30
0.0
 11
-642.122917175293
 21
24.0320472717285
 31
0.0
  0
LINE
  5
   48E
  8
0
  6
CONTINUOUS
 62
     7
 10
-596.872924804688
 20
24.0320358276367
 30
0.0
 11
-596.872924804688
 21
39.0320625305176
 31
0.0
  0
LINE
  5
   48F
  8
0
  6
CONTINUOUS
 62
     7
 10
-634.37291765213
 20
38.7820625305176
 30
0.0
 11
-634.37291765213
 21
39.0320625305176
 31
0.0
  0
LINE
  5
   490
  8
0
  6
CONTINUOUS
 62
     7
 10
-590.997955322247
 20
48.4070549011386
 30
0.0
 11
-578.372947692853
 21
48.4070625305333
 31
0.0
  0
LINE
  5
   491
  8
0
  6
CONTINUOUS
 62
     7
 10
-590.997955322266
 20
44.782054901123
 30
0.0
 11
-590.997955322266
 21
48.4070549011231
 31
0.0
  0
LINE
  5
   492
  8
0
  6
CONTINUOUS
 62
     7
 10
-590.997955322247
 20
44.7820549011379
 30
0.0
 11
-578.372947692853
 21
44.7820625305326
 31
0.0
  0
LINE
  5
   493
  8
0
  6
CONTINUOUS
 62
     7
 10
-578.372947692871
 20
44.7820625305176
 30
0.0
 11
-578.372947692871
 21
48.4070625305176
 31
0.0
  0
LINE
  5
   494
  8
0
  6
CONTINUOUS
 62
     7
 10
-613.435423851013
 20
44.7820625305176
 30
0.0
 11
-613.435423851013
 21
48.4070625305176
 31
0.0
  0
LINE
  5
   495
  8
0
  6
CONTINUOUS
 62
     7
 10
-592.997955322266
 20
44.7820625305176
 30
0.0
 11
-613.435424804688
 21
44.7820625305176
 31
0.0
  0
LINE
  5
   496
  8
0
  6
CONTINUOUS
 62
     7
 10
-592.997955322266
 20
44.7820625305176
 30
0.0
 11
-592.997955322266
 21
48.4070625305176
 31
0.0
  0
LINE
  5
   497
  8
0
  6
CONTINUOUS
 62
     7
 10
-592.997955322266
 20
48.4070625305176
 30
0.0
 11
-613.435424804688
 21
48.4070625305176
 31
0.0
  0
LINE
  5
   498
  8
0
  6
CONTINUOUS
 62
     7
 10
-615.435423851013
 20
44.7820625305176
 30
0.0
 11
-640.122916221619
 21
44.7820625305176
 31
0.0
  0
LINE
  5
   499
  8
0
  6
CONTINUOUS
 62
     7
 10
-615.435423851013
 20
44.7820625305176
 30
0.0
 11
-615.435423851013
 21
48.4070625305176
 31
0.0
  0
LINE
  5
   49A
  8
0
  6
CONTINUOUS
 62
     7
 10
-615.435423851013
 20
48.4070625305176
 30
0.0
 11
-640.122916221619
 21
48.4070625305176
 31
0.0
  0
LINE
  5
   49B
  8
0
  6
CONTINUOUS
 62
     7
 10
-640.122917175293
 20
44.7820625305176
 30
0.0
 11
-640.122917175293
 21
48.4070625305176
 31
0.0
  0
LINE
  5
   49C
  8
0
  6
CONTINUOUS
 62
     7
 10
-635.12291765213
 20
-12.9679622650146
 30
0.0
 11
-635.12291765213
 21
-10.7179470062256
 31
0.0
  0
LINE
  5
   49D
  8
0
  6
CONTINUOUS
 62
     7
 10
-633.122916221619
 20
-12.967960357666
 30
0.0
 11
-633.122916221619
 21
-10.7179470062256
 31
0.0
  0
LINE
  5
   49E
  8
0
  6
CONTINUOUS
 62
     7
 10
-640.122721672059
 20
-12.9679775237993
 30
0.0
 11
-640.122720718385
 21
-10.7179622650102
 31
0.0
  0
LINE
  5
   49F
  8
0
  6
CONTINUOUS
 62
   130
 10
-642.122917175389
 20
-14.9679832455205
 30
0.0
 11
-642.122915268041
 21
-14.4679470058965
 31
0.0
  0
LINE
  5
   4A0
  8
0
  6
CONTINUOUS
 62
   130
 10
-576.372951495345
 20
-14.9680156681433
 30
0.0
 11
-577.372947680648
 21
-14.9680004093542
 31
0.0
  0
LINE
  5
   4A1
  8
0
  6
CONTINUOUS
 62
   130
 10
-554.622924804687
 20
-9.46797370910605
 30
0.0
 11
-554.622932434081
 21
55.0320568084721
 31
0.0
  0
LINE
  5
   4A2
  8
0
  6
CONTINUOUS
 62
     7
 10
-590.971923828125
 20
-12.967945098877
 30
0.0
 11
-590.971923828125
 21
-10.7179298400879
 31
0.0
  0
LINE
  5
   4A3
  8
0
  6
CONTINUOUS
 62
     7
 10
-592.998561859131
 20
-12.9679679870605
 30
0.0
 11
-592.998561859131
 21
-10.7179317474365
 31
0.0
  0
LINE
  5
   4A4
  8
0
  6
CONTINUOUS
 62
     7
 10
-604.122917175293
 20
38.7820625305176
 30
0.0
 11
-642.122917175293
 21
38.7820625305176
 31
0.0
  0
LINE
  5
   4A5
  8
0
  6
CONTINUOUS
 62
     7
 10
-604.122917175293
 20
24.0320358276367
 30
0.0
 11
-604.122917175293
 21
38.7820625305176
 31
0.0
  0
LINE
  5
   4A6
  8
0
  6
CONTINUOUS
 62
     7
 10
-642.122917175293
 20
24.0320472717285
 30
0.0
 11
-642.122917175293
 21
38.7820625305176
 31
0.0
  0
LINE
  5
   4A7
  8
0
  6
CONTINUOUS
 62
   150
 10
-642.122899055481
 20
-8.84293937683105
 30
0.0
 11
-647.622922897339
 21
-8.84293937683105
 31
0.0
  0
LINE
  5
   4A8
  8
0
  6
CONTINUOUS
 62
   150
 10
-642.122917175293
 20
43.6570854187012
 30
0.0
 11
-647.622922897339
 21
43.6570854187012
 31
0.0
  0
LINE
  5
   4A9
  8
0
  6
CONTINUOUS
 62
   150
 10
-650.373068073803
 20
-8.59321146637521
 30
0.0
 11
-650.372925022651
 21
-8.59217577605011
 31
0.0
  0
LINE
  5
   4AA
  8
0
  6
CONTINUOUS
 62
     7
 10
-638.622858047486
 20
-12.9679527282667
 30
0.0
 11
-638.622859001161
 21
-10.7179489135694
 31
0.0
  0
LINE
  5
   4AB
  8
0
  6
CONTINUOUS
 62
     7
 10
-578.372947692871
 20
45.5320625305176
 30
0.0
 11
-590.997947692871
 21
45.5320625305176
 31
0.0
  0
LINE
  5
   4AC
  8
0
  6
CONTINUOUS
 62
     7
 10
-592.997951507568
 20
45.5320625305176
 30
0.0
 11
-613.435419082642
 21
45.5320625305176
 31
0.0
  0
LINE
  5
   4AD
  8
0
  6
CONTINUOUS
 62
     7
 10
-615.435419082642
 20
45.5320625305176
 30
0.0
 11
-638.622917175293
 21
45.5320625305176
 31
0.0
  0
LINE
  5
   4AE
  8
0
  6
CONTINUOUS
 62
     7
 10
-638.997915374102
 20
45.157070570561
 30
0.0
 11
-638.622915365864
 21
45.5320705787987
 31
0.0
  0
LINE
  5
   4AF
  8
0
  6
CONTINUOUS
 62
     7
 10
-638.622917175293
 20
45.5320625305176
 30
0.0
 11
-638.622917175293
 21
48.4070625305176
 31
0.0
  0
CIRCLE
  5
   4B0
  8
0
  6
CONTINUOUS
 62
   130
 10
-636.122958614256
 20
16.5320311898972
 30
0.0
 40
4.99999574190984
  0
CIRCLE
  5
   4B1
  8
0
  6
CONTINUOUS
 62
   130
 10
-636.122954267283
 20
16.5320281950209
 30
0.0
 40
1.37500202053542
  0
CIRCLE
  5
   4B2
  8
0
  6
CONTINUOUS
 62
   130
 10
-564.872928956032
 20
43.5320230604305
 30
0.0
 40
3.00003377345636
  0
CIRCLE
  5
   4B3
  8
0
  6
CONTINUOUS
 62
   130
 10
-564.872948448064
 20
43.5320453327831
 30
0.0
 40
1.62500474936432
  0
CIRCLE
  5
   4B4
  8
0
  6
CONTINUOUS
 62
   130
 10
-564.872949621964
 20
-6.46795207942174
 30
0.0
 40
3.00000118551883
  0
CIRCLE
  5
   4B5
  8
0
  6
CONTINUOUS
 62
   130
 10
-564.872944770293
 20
-6.46794781825749
 30
0.0
 40
1.62500420410752
  0
LINE
  5
   4B6
  8
0
  6
DASHDOT
 62
     7
 10
-564.872928956032
 20
40.0319892869742
 30
0.0
 11
-564.872928956032
 21
47.0320568338869
 31
0.0
  0
LINE
  5
   4B7
  8
0
  6
DASHDOT
 62
     7
 10
-561.372895182575
 20
43.5320230604305
 30
0.0
 11
-568.372962729488
 21
43.5320230604305
 31
0.0
  0
LINE
  5
   4B8
  8
0
  6
DASHDOT
 62
     7
 10
-564.872949621964
 20
-9.96795326494057
 30
0.0
 11
-564.872949621964
 21
-2.9679508939029
 31
0.0
  0
LINE
  5
   4B9
  8
0
  6
DASHDOT
 62
     7
 10
-561.372948436446
 20
-6.46795207942174
 30
0.0
 11
-568.372950807483
 21
-6.46795207942174
 31
0.0
  0
LINE
  5
   4BA
  8
0
  6
CONTINUOUS
 62
     7
 10
-578.122947692871
 20
55.032054901123
 30
0.0
 11
-578.122947692871
 21
58.532039642334
 31
0.0
  0
LINE
  5
   4BB
  8
0
  6
CONTINUOUS
 62
     7
 10
-647.622924804688
 20
-56.8273644601001
 30
0.0
 11
-647.622924804688
 21
-19.5930080413818
 31
0.0
  0
LINE
  5
   4BC
  8
0
  6
CONTINUOUS
 62
     7
 10
-648.622924804688
 20
-56.9959037859428
 30
0.0
 11
-648.622924804688
 21
-8.84293937683105
 31
0.0
  0
LINE
  5
   4BD
  8
0
  6
CONTINUOUS
 62
     7
 10
-651.221122491255
 20
-57.433802272443
 30
0.0
 11
-644.736619314948
 21
-56.3409084786834
 31
0.0
  0
LINE
  5
   4BE
  8
0
  6
CONTINUOUS
 62
     7
 10
-645.319496004954
 20
76.3363980837276
 30
0.0
 11
-649.836790352493
 21
77.5750110499884
 31
0.0
  0
LINE
  5
   4BF
  8
0
  6
CONTINUOUS
 62
     7
 10
-648.622924804688
 20
43.6570854187012
 30
0.0
 11
-648.622924804688
 21
77.2421769481708
 31
0.0
  0
LINE
  5
   4C0
  8
0
  6
DASHDOT
 62
     7
 10
-636.122958614256
 20
11.0320354479873
 30
0.0
 11
-636.122958614256
 21
22.032026931807
 31
0.0
  0
LINE
  5
   4C1
  8
0
  6
DASHDOT
 62
     7
 10
-630.622962872346
 20
16.5320311898972
 30
0.0
 11
-641.622954356165
 21
16.5320311898972
 31
0.0
  0
LINE
  5
   4C2
  8
0
  6
CONTINUOUS
 62
     7
 10
-643.622922897339
 20
0.532093048095703
 30
0.0
 11
-643.622922897339
 21
7.03199005126953
 31
0.0
  0
LINE
  5
   4C3
  8
0
  6
CONTINUOUS
 62
     1
 10
-648.622922897339
 20
-22.8430089950562
 30
0.0
 11
-648.622922897339
 21
57.6569910049438
 31
0.0
  0
LINE
  5
   4C4
  8
0
  6
CONTINUOUS
 62
     1
 10
-648.622922897339
 20
-22.8430089950562
 30
0.0
 11
-650.372922897339
 21
-22.8430089950562
 31
0.0
  0
LINE
  5
   4C5
  8
0
  6
CONTINUOUS
 62
     1
 10
-650.372922897339
 20
-22.8430089950562
 30
0.0
 11
-650.372922897339
 21
-0.468008995056152
 31
0.0
  0
LINE
  5
   4C6
  8
0
  6
CONTINUOUS
 62
     1
 10
-650.372922897339
 20
8.03199005126953
 30
0.0
 11
-650.372922897339
 21
57.6569938659668
 31
0.0
  0
LINE
  5
   4C7
  8
0
  6
CONTINUOUS
 62
     1
 10
-648.622922897339
 20
57.6569938659668
 30
0.0
 11
-650.372922897339
 21
57.6569938659668
 31
0.0
  0
LINE
  5
   4C8
  8
0
  6
CONTINUOUS
 62
     1
 10
-647.622922897339
 20
18.9069938659668
 30
0.0
 11
-647.622922897339
 21
51.4069938659668
 31
0.0
  0
LINE
  5
   4C9
  8
0
  6
CONTINUOUS
 62
     1
 10
-647.622922897339
 20
7.0319938659668
 30
0.0
 11
-647.622922897339
 21
15.9069976806641
 31
0.0
  0
LINE
  5
   4CA
  8
0
  6
CONTINUOUS
 62
     7
 10
-645.372922897339
 20
-19.3043327331543
 30
0.0
 11
-645.372922897339
 21
-16.8816833496094
 31
0.0
  0
LINE
  5
   4CB
  8
0
  6
CONTINUOUS
 62
     7
 10
-645.372922897339
 20
51.6956672668457
 30
0.0
 11
-645.372922897339
 21
54.1183204650879
 31
0.0
  0
LINE
  5
   4CC
  8
0
  6
CONTINUOUS
 62
     7
 10
-645.372922897339
 20
16.1956672668457
 30
0.0
 11
-645.372922897339
 21
18.6183166503906
 31
0.0
  0
LINE
  5
   4CD
  8
0
  6
CONTINUOUS
 62
     1
 10
-649.872922897339
 20
-0.468009948730469
 30
0.0
 11
-650.372922897339
 21
-0.468009948730469
 31
0.0
  0
LINE
  5
   4CE
  8
0
  6
CONTINUOUS
 62
     1
 10
-649.872922897339
 20
8.03199005126953
 30
0.0
 11
-650.372922897339
 21
8.03199005126953
 31
0.0
  0
LINE
  5
   4CF
  8
0
  6
CONTINUOUS
 62
     3
 10
-650.372922897339
 20
3.19900512695313E-2
 30
0.0
 11
-650.372922897339
 21
7.53199005126953
 31
0.0
  0
LINE
  5
   4D0
  8
0
  6
CONTINUOUS
 62
     7
 10
-649.872922897339
 20
3.19900512695313E-2
 30
0.0
 11
-650.372922897339
 21
3.19900512695313E-2
 31
0.0
  0
LINE
  5
   4D1
  8
0
  6
CONTINUOUS
 62
     7
 10
-649.872922897339
 20
-1.96800994873047
 30
0.0
 11
-649.872922897339
 21
3.19900512695313E-2
 31
0.0
  0
LINE
  5
   4D2
  8
0
  6
CONTINUOUS
 62
     7
 10
-649.372922897339
 20
-1.96800994873047
 30
0.0
 11
-649.872922897339
 21
-1.96800994873047
 31
0.0
  0
LINE
  5
   4D3
  8
0
  6
CONTINUOUS
 62
     7
 10
-649.372922897339
 20
-1.96800994873047
 30
0.0
 11
-649.372922897339
 21
9.53199005126953
 31
0.0
  0
LINE
  5
   4D4
  8
0
  6
CONTINUOUS
 62
     7
 10
-649.372922897339
 20
9.53199005126953
 30
0.0
 11
-649.872922897339
 21
9.53199005126953
 31
0.0
  0
LINE
  5
   4D5
  8
0
  6
CONTINUOUS
 62
     7
 10
-649.872922897339
 20
7.53199005126953
 30
0.0
 11
-649.872922897339
 21
9.53199005126953
 31
0.0
  0
LINE
  5
   4D6
  8
0
  6
CONTINUOUS
 62
     7
 10
-649.872922897339
 20
7.53199005126953
 30
0.0
 11
-650.372922897339
 21
7.53199005126953
 31
0.0
  0
LINE
  5
   4D7
  8
0
  6
CONTINUOUS
 62
     7
 10
-643.622922897339
 20
0.532093048095703
 30
0.0
 11
-648.622922897339
 21
0.532093048095703
 31
0.0
  0
LINE
  5
   4D8
  8
0
  6
CONTINUOUS
 62
     7
 10
-643.622922897339
 20
7.03199005126953
 30
0.0
 11
-648.622922897339
 21
7.03199005126953
 31
0.0
  0
LINE
  5
   4D9
  8
0
  6
CONTINUOUS
 62
     1
 10
-650.372922897339
 20
-0.468006134033203
 30
0.0
 11
-650.372922897339
 21
3.19900512695313E-2
 31
0.0
  0
LINE
  5
   4DA
  8
0
  6
CONTINUOUS
 62
     1
 10
-650.372922897339
 20
7.53199005126953
 30
0.0
 11
-650.372922897339
 21
8.0319938659668
 31
0.0
  0
LINE
  5
   4DB
  8
0
  6
CONTINUOUS
 62
     7
 10
-645.872922897339
 20
-19.5930080413818
 30
0.0
 11
-648.622922897339
 21
-19.5930080413818
 31
0.0
  0
LINE
  5
   4DC
  8
0
  6
CONTINUOUS
 62
     7
 10
-645.872922897339
 20
-16.5930080413818
 30
0.0
 11
-648.622922897339
 21
-16.5930080413818
 31
0.0
  0
LINE
  5
   4DD
  8
0
  6
CONTINUOUS
 62
     7
 10
-645.872922897339
 20
-16.7071876525879
 30
0.0
 11
-645.872922897339
 21
-16.5930080413818
 31
0.0
  0
LINE
  5
   4DE
  8
0
  6
CONTINUOUS
 62
     7
 10
-645.872922897339
 20
-17.0323467254639
 30
0.0
 11
-645.872922897339
 21
-16.7071876525879
 31
0.0
  0
LINE
  5
   4DF
  8
0
  6
CONTINUOUS
 62
     7
 10
-645.872922897339
 20
-17.5189819335938
 30
0.0
 11
-645.872922897339
 21
-17.0323467254639
 31
0.0
  0
LINE
  5
   4E0
  8
0
  6
CONTINUOUS
 62
     7
 10
-645.872922897339
 20
-18.0930080413818
 30
0.0
 11
-645.872922897339
 21
-17.5189819335938
 31
0.0
  0
LINE
  5
   4E1
  8
0
  6
CONTINUOUS
 62
     7
 10
-645.872922897339
 20
-18.6670322418213
 30
0.0
 11
-645.872922897339
 21
-18.0930080413818
 31
0.0
  0
LINE
  5
   4E2
  8
0
  6
CONTINUOUS
 62
     7
 10
-645.872922897339
 20
-19.1536674499512
 30
0.0
 11
-645.872922897339
 21
-18.6670322418213
 31
0.0
  0
LINE
  5
   4E3
  8
0
  6
CONTINUOUS
 62
     7
 10
-645.872922897339
 20
-19.4788265228271
 30
0.0
 11
-645.872922897339
 21
-19.1536674499512
 31
0.0
  0
LINE
  5
   4E4
  8
0
  6
CONTINUOUS
 62
     7
 10
-645.872922897339
 20
-19.5930080413818
 30
0.0
 11
-645.872922897339
 21
-19.4788265228271
 31
0.0
  0
LINE
  5
   4E5
  8
0
  6
CONTINUOUS
 62
     7
 10
-645.872922298035
 20
-19.5930084543326
 30
0.0
 11
-645.37292228157
 21
-19.304333162076
 31
0.0
  0
LINE
  5
   4E6
  8
0
  6
CONTINUOUS
 62
     7
 10
-645.372921820824
 20
-16.8816842507472
 30
0.0
 11
-645.872921837289
 21
-16.5930089584907
 31
0.0
  0
LINE
  5
   4E7
  8
0
  6
CONTINUOUS
 62
     7
 10
-645.872922897339
 20
51.4069938659668
 30
0.0
 11
-648.622922897339
 21
51.4069938659668
 31
0.0
  0
LINE
  5
   4E8
  8
0
  6
CONTINUOUS
 62
     7
 10
-645.872922897339
 20
54.4069938659668
 30
0.0
 11
-648.622922897339
 21
54.4069938659668
 31
0.0
  0
LINE
  5
   4E9
  8
0
  6
CONTINUOUS
 62
     7
 10
-645.872922897339
 20
54.2928123474121
 30
0.0
 11
-645.872922897339
 21
54.4069938659668
 31
0.0
  0
LINE
  5
   4EA
  8
0
  6
CONTINUOUS
 62
     7
 10
-645.872922897339
 20
53.9676551818848
 30
0.0
 11
-645.872922897339
 21
54.2928123474121
 31
0.0
  0
LINE
  5
   4EB
  8
0
  6
CONTINUOUS
 62
     7
 10
-645.872922897339
 20
53.481014251709
 30
0.0
 11
-645.872922897339
 21
53.9676551818848
 31
0.0
  0
LINE
  5
   4EC
  8
0
  6
CONTINUOUS
 62
     7
 10
-645.872922897339
 20
52.9069938659668
 30
0.0
 11
-645.872922897339
 21
53.481014251709
 31
0.0
  0
LINE
  5
   4ED
  8
0
  6
CONTINUOUS
 62
     7
 10
-645.872922897339
 20
52.3329658508301
 30
0.0
 11
-645.872922897339
 21
52.9069938659668
 31
0.0
  0
LINE
  5
   4EE
  8
0
  6
CONTINUOUS
 62
     7
 10
-645.872922897339
 20
51.8463325500488
 30
0.0
 11
-645.872922897339
 21
52.3329658508301
 31
0.0
  0
LINE
  5
   4EF
  8
0
  6
CONTINUOUS
 62
     7
 10
-645.872922897339
 20
51.5211753845215
 30
0.0
 11
-645.872922897339
 21
51.8463325500488
 31
0.0
  0
LINE
  5
   4F0
  8
0
  6
CONTINUOUS
 62
     7
 10
-645.872922897339
 20
51.4069938659668
 30
0.0
 11
-645.872922897339
 21
51.5211753845215
 31
0.0
  0
LINE
  5
   4F1
  8
0
  6
CONTINUOUS
 62
     7
 10
-645.872922988046
 20
51.4069927934
 30
0.0
 11
-645.372922971582
 21
51.6956661978982
 31
0.0
  0
LINE
  5
   4F2
  8
0
  6
CONTINUOUS
 62
     7
 10
-645.372922162417
 20
54.1183191981742
 30
0.0
 11
-645.872922178881
 21
54.4069926026724
 31
0.0
  0
LINE
  5
   4F3
  8
0
  6
CONTINUOUS
 62
     7
 10
-645.872922897339
 20
15.9069938659668
 30
0.0
 11
-648.622922897339
 21
15.9069938659668
 31
0.0
  0
LINE
  5
   4F4
  8
0
  6
CONTINUOUS
 62
     7
 10
-645.872922897339
 20
18.9069938659668
 30
0.0
 11
-648.622922897339
 21
18.9069938659668
 31
0.0
  0
LINE
  5
   4F5
  8
0
  6
CONTINUOUS
 62
     7
 10
-645.872922897339
 20
18.7928123474121
 30
0.0
 11
-645.872922897339
 21
18.9069938659668
 31
0.0
  0
LINE
  5
   4F6
  8
0
  6
CONTINUOUS
 62
     7
 10
-645.872922897339
 20
18.4676513671875
 30
0.0
 11
-645.872922897339
 21
18.7928123474121
 31
0.0
  0
LINE
  5
   4F7
  8
0
  6
CONTINUOUS
 62
     7
 10
-645.872922897339
 20
17.9810180664063
 30
0.0
 11
-645.872922897339
 21
18.4676513671875
 31
0.0
  0
LINE
  5
   4F8
  8
0
  6
CONTINUOUS
 62
     7
 10
-645.872922897339
 20
17.4069938659668
 30
0.0
 11
-645.872922897339
 21
17.9810180664063
 31
0.0
  0
LINE
  5
   4F9
  8
0
  6
CONTINUOUS
 62
     7
 10
-645.872922897339
 20
16.8329658508301
 30
0.0
 11
-645.872922897339
 21
17.4069938659668
 31
0.0
  0
LINE
  5
   4FA
  8
0
  6
CONTINUOUS
 62
     7
 10
-645.872922897339
 20
16.3463325500488
 30
0.0
 11
-645.872922897339
 21
16.8329658508301
 31
0.0
  0
LINE
  5
   4FB
  8
0
  6
CONTINUOUS
 62
     7
 10
-645.872922897339
 20
16.0211715698242
 30
0.0
 11
-645.872922897339
 21
16.3463325500488
 31
0.0
  0
LINE
  5
   4FC
  8
0
  6
CONTINUOUS
 62
     7
 10
-645.872922897339
 20
15.9069938659668
 30
0.0
 11
-645.872922897339
 21
16.0211715698242
 31
0.0
  0
LINE
  5
   4FD
  8
0
  6
CONTINUOUS
 62
     7
 10
-645.87292282933
 20
15.9069932515717
 30
0.0
 11
-645.372922812867
 21
16.19566665607
 31
0.0
  0
LINE
  5
   4FE
  8
0
  6
CONTINUOUS
 62
     7
 10
-645.372922097539
 20
18.6183155247968
 30
0.0
 11
-645.872922114002
 21
18.9069927392291
 31
0.0
  0
LINE
  5
   4FF
  8
0
  6
CONTINUOUS
 62
     7
 10
-647.622924804688
 20
-16.3430080413818
 30
0.0
 11
-648.622922897339
 21
-16.3430080413818
 31
0.0
  0
LINE
  5
   500
  8
0
  6
CONTINUOUS
 62
     7
 10
-647.622924804688
 20
-19.8430080413818
 30
0.0
 11
-648.622922897339
 21
-19.8430080413818
 31
0.0
  0
LINE
  5
   501
  8
0
  6
CONTINUOUS
 62
     7
 10
-647.622924804688
 20
-16.5930080413818
 30
0.0
 11
-647.622924804688
 21
0.531997680664063
 31
0.0
  0
LINE
  5
   502
  8
0
  6
CONTINUOUS
 62
     7
 10
-647.622922897339
 20
3.20930480957031E-2
 30
0.0
 11
-648.622922897339
 21
3.20930480957031E-2
 31
0.0
  0
LINE
  5
   503
  8
0
  6
CONTINUOUS
 62
     7
 10
-647.622922897339
 20
7.53199005126953
 30
0.0
 11
-648.622922897339
 21
7.53199005126953
 31
0.0
  0
LINE
  5
   504
  8
0
  6
CONTINUOUS
 62
     7
 10
-647.622922897339
 20
19.1569938659668
 30
0.0
 11
-648.622922897339
 21
19.1569938659668
 31
0.0
  0
LINE
  5
   505
  8
0
  6
CONTINUOUS
 62
     7
 10
-647.622922897339
 20
15.6569938659668
 30
0.0
 11
-648.622922897339
 21
15.6569938659668
 31
0.0
  0
LINE
  5
   506
  8
0
  6
CONTINUOUS
 62
     7
 10
-647.622924804688
 20
54.4069938659668
 30
0.0
 11
-647.622924804688
 21
76.9679833997836
 31
0.0
  0
LINE
  5
   507
  8
0
  6
CONTINUOUS
 62
     7
 10
-647.622924804688
 20
54.6569938659668
 30
0.0
 11
-648.622922897339
 21
54.6569938659668
 31
0.0
  0
LINE
  5
   508
  8
0
  6
CONTINUOUS
 62
     7
 10
-647.622924804688
 20
51.1569938659668
 30
0.0
 11
-648.622922897339
 21
51.1569938659668
 31
0.0
  0
INSERT
  5
   509
  8
0
  6
CONTINUOUS
 62
     7
  2
*HATCH97
 10
-628.872924804688
 20
-37.5864448547363
 30
0.0
 41
0.5
 42
0.5
 50
89.9999999480344
 43
0.5
  0
INSERT
  5
   50A
  8
0
  6
CONTINUOUS
 62
     7
  2
*HATCH98
 10
-628.872924804688
 20
-37.5864448547363
 30
0.0
 41
0.5
 42
0.5
 50
89.9999999480344
 43
0.5
  0
INSERT
  5
   50B
  8
0
  6
CONTINUOUS
 62
     7
  2
*HATCH99
 10
-628.872924804688
 20
-37.5864448547363
 30
0.0
 41
0.5
 42
0.5
 50
89.9999999480344
 43
0.5
  0
INSERT
  5
   50C
  8
0
  6
CONTINUOUS
 62
     7
  2
*HATCH100
 10
-628.872924804688
 20
-37.5864448547363
 30
0.0
 41
0.5
 42
0.5
 50
89.9999999480344
 43
0.5
  0
INSERT
  5
   50D
  8
0
  6
CONTINUOUS
 62
     7
  2
*HATCH101
 10
-628.872924804688
 20
-37.5864448547363
 30
0.0
 41
0.5
 42
0.5
 50
89.9999999480344
 43
0.5
  0
CIRCLE
  5
   50E
  8
0
  6
CONTINUOUS
 62
     7
 10
-648.421232279531
 20
-54.4308271191873
 30
0.0
 40
0.125
  0
LINE
  5
   50F
  8
0
  6
CONTINUOUS
 62
     3
 10
-645.872922897339
 20
43.6570854187012
 30
0.0
 11
-645.872922897339
 21
47.1570854187012
 31
0.0
  0
LINE
  5
   510
  8
0
  6
CONTINUOUS
 62
     3
 10
-644.872922897339
 20
43.6570854187012
 30
0.0
 11
-644.872922897339
 21
47.1570854187012
 31
0.0
  0
LINE
  5
   511
  8
0
  6
CONTINUOUS
 62
     3
 10
-644.872922897339
 20
47.1570854187012
 30
0.0
 11
-645.872922897339
 21
47.1570854187012
 31
0.0
  0
LINE
  5
   512
  8
0
  6
CONTINUOUS
 62
     7
 10
-642.872925758362
 20
44.4070854187012
 30
0.0
 11
-644.122928619385
 21
44.4070854187012
 31
0.0
  0
LINE
  5
   513
  8
0
  6
CONTINUOUS
 62
     7
 10
-642.872925758362
 20
44.4070854187012
 30
0.0
 11
-642.872925758362
 21
49.6570854187012
 31
0.0
  0
LINE
  5
   514
  8
0
  6
CONTINUOUS
 62
     7
 10
-644.622928619385
 20
51.4070854187012
 30
0.0
 11
-645.872928619385
 21
51.4070854187012
 31
0.0
  0
LINE
  5
   515
  8
0
  6
CONTINUOUS
 62
     7
 10
-646.372928619385
 20
54.4069938659668
 30
0.0
 11
-646.372928619385
 21
55.9070854187012
 31
0.0
  0
LINE
  5
   516
  8
0
  6
CONTINUOUS
 62
     7
 10
-646.372928619385
 20
55.9070854187012
 30
0.0
 11
-647.622924804688
 21
55.9070854187012
 31
0.0
  0
LINE
  5
   517
  8
0
  6
CONTINUOUS
 62
     7
 10
-644.622928619385
 20
50.1570854187012
 30
0.0
 11
-645.872928619385
 21
50.1570854187012
 31
0.0
  0
LINE
  5
   518
  8
0
  6
CONTINUOUS
 62
     7
 10
-644.122928619385
 20
44.4070854187012
 30
0.0
 11
-644.122928619385
 21
49.6570854187012
 31
0.0
  0
ARC
  5
   519
  8
0
  6
CONTINUOUS
 62
     7
 10
-644.622935946138
 20
49.6570790755489
 30
0.0
 40
1.75000922655776
 50
360.000319242658
 51
449.999813057862
  0
ARC
  5
   51A
  8
0
  6
CONTINUOUS
 62
     7
 10
-644.62290649531
 20
49.6571058660924
 30
0.0
 40
0.499974910621752
 50
359.998830132094
 51
450.002235749312
  0
ARC
  5
   51B
  8
0
  6
CONTINUOUS
 62
     7
 10
-645.872938295576
 20
51.907069395234
 30
0.0
 40
1.74998552797211
 50
196.604271282219
 51
270.000346548696
  0
LINE
  5
   51C
  8
0
  6
CONTINUOUS
 62
     7
 10
-642.872925758362
 20
48.9070854187012
 30
0.0
 11
-644.122928619385
 21
48.9070854187012
 31
0.0
  0
INSERT
  5
   51D
  8
0
  6
CONTINUOUS
 62
     7
  2
*HATCH102
 10
-628.872924804688
 20
-37.5864448547363
 30
0.0
 41
0.5
 42
0.5
 50
89.9999999480344
 43
0.5
  0
LINE
  5
   51E
  8
0
  6
DOT
 62
     3
 10
-664.122922897339
 20
-8.84293937683105
 30
0.0
 11
-664.122922897339
 21
43.6570854187012
 31
0.0
  0
LINE
  5
   51F
  8
0
  6
DOT
 62
     3
 10
-654.715931735465
 20
43.6570854187012
 30
0.0
 11
-664.122922897339
 21
43.6570854187012
 31
0.0
  0
LINE
  5
   520
  8
0
  6
DOT
 62
     3
 10
-655.765860975259
 20
-8.84293937683105
 30
0.0
 11
-664.122922897339
 21
-8.84293937683105
 31
0.0
  0
LINE
  5
   521
  8
0
  6
CONTINUOUS
 62
     3
 10
-549.122924804688
 20
48.2820625305176
 30
0.0
 11
-549.122924804688
 21
52.2820625305176
 31
0.0
  0
LINE
  5
   522
  8
0
  6
CONTINUOUS
 62
     3
 10
-547.122924804688
 20
49.0320625305176
 30
0.0
 11
-547.122924804688
 21
51.5320625305176
 31
0.0
  0
LINE
  5
   523
  8
0
  6
CONTINUOUS
 62
     3
 10
-549.122924804688
 20
52.2820625305176
 30
0.0
 11
-551.122924804688
 21
52.2820625305176
 31
0.0
  0
LINE
  5
   524
  8
0
  6
CONTINUOUS
 62
     3
 10
-549.122924804688
 20
48.2820625305176
 30
0.0
 11
-551.122924804688
 21
48.2820625305176
 31
0.0
  0
LINE
  5
   525
  8
0
  6
CONTINUOUS
 62
     3
 10
-547.122924804688
 20
51.5320625305176
 30
0.0
 11
-551.122924804688
 21
51.5320625305176
 31
0.0
  0
LINE
  5
   526
  8
0
  6
CONTINUOUS
 62
     3
 10
-547.122924804688
 20
49.0320625305176
 30
0.0
 11
-551.122924804688
 21
49.0320625305176
 31
0.0
  0
LINE
  5
   527
  8
0
  6
CONTINUOUS
 62
     3
 10
-549.122924804688
 20
-15.2179374694824
 30
0.0
 11
-551.122924804688
 21
-15.2179374694824
 31
0.0
  0
LINE
  5
   528
  8
0
  6
CONTINUOUS
 62
     3
 10
-547.122924804688
 20
-15.9679374694824
 30
0.0
 11
-551.122924804688
 21
-15.9679374694824
 31
0.0
  0
LINE
  5
   529
  8
0
  6
CONTINUOUS
 62
     3
 10
-547.122924804688
 20
-18.4679374694824
 30
0.0
 11
-551.122924804688
 21
-18.4679374694824
 31
0.0
  0
LINE
  5
   52A
  8
0
  6
CONTINUOUS
 62
     3
 10
-549.122924804688
 20
-19.2179374694824
 30
0.0
 11
-551.122924804688
 21
-19.2179374694824
 31
0.0
  0
LINE
  5
   52B
  8
0
  6
CONTINUOUS
 62
     3
 10
-549.122924804688
 20
-19.2179374694824
 30
0.0
 11
-549.122924804688
 21
-15.2179374694824
 31
0.0
  0
LINE
  5
   52C
  8
0
  6
CONTINUOUS
 62
     3
 10
-547.122924804688
 20
-18.4679374694824
 30
0.0
 11
-547.122924804688
 21
-15.9679374694824
 31
0.0
  0
TEXT
  5
   52D
  8
0
  6
CONTINUOUS
 62
     7
 10
-655.405495780818
 20
106.464092273833
 30
0.0
 40
3.00000002980232
  1
ISOLATING DISTANCE
 50
359.999999948034
 41
0.916666689183977
 72
     1
 11
-630.93049493432
 21
107.964092266659
 31
0.0
 73
     2
  0
INSERT
  5
   52E
  8
0
  6
CONTINUOUS
 62
     7
  2
*UDIM599
 10
0.0
 20
0.0
 30
0.0
  0
INSERT
  5
   52F
  8
0
  6
CONTINUOUS
 62
     7
  2
*UDIM600
 10
0.0
 20
0.0
 30
0.0
  0
INSERT
  5
   530
  8
0
  6
CONTINUOUS
 62
     7
  2
*UDIM601
 10
0.0
 20
0.0
 30
0.0
  0
INSERT
  5
   531
  8
0
  6
CONTINUOUS
 62
     7
  2
*UDIM602
 10
0.0
 20
0.0
 30
0.0
  0
INSERT
  5
   532
  8
0
  6
CONTINUOUS
 62
     7
  2
*UDIM603
 10
0.0
 20
0.0
 30
0.0
  0
TEXT
  5
   533
  8
0
  6
CONTINUOUS
 62
     7
 10
-686.61396765248
 20
15.8023377196003
 30
0.0
 40
3.00000002980232
  1
X
 50
359.999999948034
 41
0.916666604744064
 72
     2
 11
-684.41396778361
 21
15.802337717616
 31
0.0
  0
INSERT
  5
   534
  8
0
  6
CONTINUOUS
 62
     7
  2
*UDIM604
 10
0.0
 20
0.0
 30
0.0
  0
INSERT
  5
   535
  8
0
  6
CONTINUOUS
 62
     7
  2
*UDIM605
 10
0.0
 20
0.0
 30
0.0
  0
INSERT
  5
   536
  8
0
  6
CONTINUOUS
 62
     7
  2
*UDIM606
 10
0.0
 20
0.0
 30
0.0
  0
INSERT
  5
   537
  8
0
  6
CONTINUOUS
 62
     7
  2
*UDIM607
 10
0.0
 20
0.0
 30
0.0
  0
TEXT
  5
   538
  8
0
  6
CONTINUOUS
 62
     5
 10
-670.364875804416
 20
6.25130988620958
 30
0.0
 40
3.00000002980232
  1
=       =
 50
89.9999999480344
 41
0.916666604744064
 72
     2
 11
-670.364875782498
 21
30.4513084874873
 31
0.0
  0
INSERT
  5
   539
  8
0
  6
CONTINUOUS
 62
     7
  2
*UDIM608
 10
0.0
 20
0.0
 30
0.0
  0
INSERT
  5
   53A
  8
0
  6
CONTINUOUS
 62
     7
  2
*UDIM609
 10
0.0
 20
0.0
 30
0.0
  0
LINE
  5
   53B
  8
0
  6
CONTINUOUS
 62
     7
 10
-376.430206298828
 20
30.1057205200195
 30
0.0
 11
-342.680206298828
 21
30.1057205200195
 31
0.0
  0
LINE
  5
   53C
  8
0
  6
CONTINUOUS
 62
     7
 10
-376.430206298828
 20
61.6057205200195
 30
0.0
 11
-342.680206298828
 21
61.6057205200195
 31
0.0
  0
LINE
  5
   53D
  8
0
  6
CONTINUOUS
 62
     7
 10
-342.680206298828
 20
61.6057205200195
 30
0.0
 11
-342.680206298828
 21
41.0432205200195
 31
0.0
  0
LINE
  5
   53E
  8
0
  6
CONTINUOUS
 62
     7
 10
-376.430206298828
 20
61.6057205200195
 30
0.0
 11
-376.430206298828
 21
30.1057205200195
 31
0.0
  0
LINE
  5
   53F
  8
0
  6
DASHDOT
 62
     7
 10
-347.155192845423
 20
39.0432205200195
 30
0.0
 11
-333.174899899386
 21
39.0432205200195
 31
0.0
  0
LINE
  5
   540
  8
0
  6
CONTINUOUS
 62
     7
 10
-342.680206298828
 20
41.0432205200195
 30
0.0
 11
-336.930206298828
 21
41.0432205200195
 31
0.0
  0
LINE
  5
   541
  8
0
  6
CONTINUOUS
 62
     7
 10
-342.680206298828
 20
37.0432205200195
 30
0.0
 11
-336.930206298828
 21
37.0432205200195
 31
0.0
  0
ARC
  5
   542
  8
0
  6
CONTINUOUS
 62
     7
 10
-336.930206298828
 20
39.0432205200195
 30
0.0
 40
2.0
 50
269.999999844103
 51
449.999999844103
  0
LINE
  5
   543
  8
0
  6
CONTINUOUS
 62
     7
 10
-342.680206298828
 20
37.0432205200195
 30
0.0
 11
-342.680206298828
 21
30.1057205200195
 31
0.0
  0
LINE
  5
   544
  8
0
  6
DASHDOT
 62
     7
 10
-358.430206298828
 20
71.4832116808746
 30
0.0
 11
-358.430206298828
 21
22.7105392024681
 31
0.0
  0
CIRCLE
  5
   545
  8
0
  6
CONTINUOUS
 62
     7
 10
-369.430206298828
 20
63.6057205200195
 30
0.0
 40
0.875
  0
CIRCLE
  5
   546
  8
0
  6
CONTINUOUS
 62
     7
 10
-338.180206298828
 20
63.6057205200195
 30
0.0
 40
1.0
  0
CIRCLE
  5
   547
  8
0
  6
CONTINUOUS
 62
     7
 10
-338.180206298828
 20
45.8557205200195
 30
0.0
 40
1.0
  0
CIRCLE
  5
   548
  8
0
  6
CONTINUOUS
 62
     7
 10
-338.180206298828
 20
28.1057205200195
 30
0.0
 40
0.875
  0
CIRCLE
  5
   549
  8
0
  6
CONTINUOUS
 62
     7
 10
-369.430206298828
 20
28.1057205200195
 30
0.0
 40
1.0
  0
LINE
  5
   54A
  8
0
  6
DASHDOT
 62
     7
 10
-369.430206298828
 20
65.2307205200195
 30
0.0
 11
-369.430206298828
 21
61.9807205200195
 31
0.0
  0
LINE
  5
   54B
  8
0
  6
DASHDOT
 62
     7
 10
-371.055206298828
 20
63.6057205200195
 30
0.0
 11
-367.805206298828
 21
63.6057205200195
 31
0.0
  0
LINE
  5
   54C
  8
0
  6
DASHDOT
 62
     7
 10
-338.180206298828
 20
65.2307205200195
 30
0.0
 11
-338.180206298828
 21
61.9807205200195
 31
0.0
  0
LINE
  5
   54D
  8
0
  6
DASHDOT
 62
     7
 10
-339.805206298828
 20
63.6057205200195
 30
0.0
 11
-336.555206298828
 21
63.6057205200195
 31
0.0
  0
LINE
  5
   54E
  8
0
  6
DASHDOT
 62
     7
 10
-338.180206298828
 20
47.4807205200195
 30
0.0
 11
-338.180206298828
 21
44.2307205200195
 31
0.0
  0
LINE
  5
   54F
  8
0
  6
DASHDOT
 62
     7
 10
-339.805206298828
 20
45.8557205200195
 30
0.0
 11
-336.555206298828
 21
45.8557205200195
 31
0.0
  0
LINE
  5
   550
  8
0
  6
DASHDOT
 62
     7
 10
-338.180206298828
 20
29.7307205200195
 30
0.0
 11
-338.180206298828
 21
26.4807205200195
 31
0.0
  0
LINE
  5
   551
  8
0
  6
DASHDOT
 62
     7
 10
-339.805206298828
 20
28.1057205200195
 30
0.0
 11
-336.555206298828
 21
28.1057205200195
 31
0.0
  0
LINE
  5
   552
  8
0
  6
DASHDOT
 62
     7
 10
-369.430206298828
 20
29.7307205200195
 30
0.0
 11
-369.430206298828
 21
26.4807205200195
 31
0.0
  0
LINE
  5
   553
  8
0
  6
DASHDOT
 62
     7
 10
-371.055206298828
 20
28.1057205200195
 30
0.0
 11
-367.805206298828
 21
28.1057205200195
 31
0.0
  0
LINE
  5
   554
  8
0
  6
CONTINUOUS
 62
     7
 10
-382.354765376221
 20
66.6057205200195
 30
0.0
 11
-332.767706900958
 21
66.6057205200195
 31
0.0
  0
LINE
  5
   555
  8
0
  6
CONTINUOUS
 62
     7
 10
-382.98817670711
 20
25.1057205200195
 30
0.0
 11
-332.315270236038
 21
25.1057205200195
 31
0.0
  0
LINE
  5
   556
  8
0
  6
CONTINUOUS
 62
     7
 10
-333.180206298828
 20
67.4357655676163
 30
0.0
 11
-333.180206298828
 21
24.1828204012373
 31
0.0
  0
LINE
  5
   557
  8
0
  6
CONTINUOUS
 62
     7
 10
-381.430206298828
 20
67.4357655676163
 30
0.0
 11
-381.430206298828
 21
23.5946527368409
 31
0.0
  0
POINT
  5
   558
  8
0
  6
CONTINUOUS
 62
     7
 10
-334.930206298828
 20
38.9182205200195
 30
0.0
  0
LINE
  5
   559
  8
0
  6
DASHDOT
 62
     7
 10
-385.890931061972
 20
45.8557205200195
 30
0.0
 11
-330.437477998691
 21
45.8557205200195
 31
0.0
  0
CIRCLE
  5
   55A
  8
0
  6
CONTINUOUS
 62
     7
 10
-352.805206298828
 20
63.9807205200195
 30
0.0
 40
0.5
  0
CIRCLE
  5
   55B
  8
0
  6
CONTINUOUS
 62
     7
 10
-364.055206298828
 20
63.9807205200195
 30
0.0
 40
0.5
  0
CIRCLE
  5
   55C
  8
0
  6
CONTINUOUS
 62
     7
 10
-352.805206298828
 20
63.9807205200195
 30
0.0
 40
0.92
  0
CIRCLE
  5
   55D
  8
0
  6
CONTINUOUS
 62
     7
 10
-364.055206298828
 20
63.9807205200195
 30
0.0
 40
0.92
  0
LINE
  5
   55E
  8
0
  6
DASHDOT
 62
     7
 10
-352.805206298828
 20
65.6507205200195
 30
0.0
 11
-352.805206298828
 21
62.3107205200195
 31
0.0
  0
LINE
  5
   55F
  8
0
  6
DASHDOT
 62
     7
 10
-354.475206298828
 20
63.9807205200195
 30
0.0
 11
-351.135206298828
 21
63.9807205200195
 31
0.0
  0
LINE
  5
   560
  8
0
  6
DASHDOT
 62
     7
 10
-364.055206298828
 20
65.6507205200195
 30
0.0
 11
-364.055206298828
 21
62.3107205200195
 31
0.0
  0
LINE
  5
   561
  8
0
  6
DASHDOT
 62
     7
 10
-365.725206298828
 20
63.9807205200195
 30
0.0
 11
-362.385206298828
 21
63.9807205200195
 31
0.0
  0
LINE
  5
   562
  8
0
  6
CONTINUOUS
 62
     7
 10
-331.087742726678
 20
62.3213510271144
 30
0.0
 11
-331.087742726678
 21
54.0219103696976
 31
0.0
  0
LINE
  5
   563
  8
0
  6
CONTINUOUS
 62
     7
 10
-328.487917942427
 20
62.3213510271144
 30
0.0
 11
-328.487917942427
 21
54.0219103696976
 31
0.0
  0
LINE
  5
   564
  8
0
  6
CONTINUOUS
 62
     7
 10
-331.087742726678
 20
62.3213510271144
 30
0.0
 11
-328.487917942427
 21
62.3213510271144
 31
0.0
  0
LINE
  5
   565
  8
0
  6
CONTINUOUS
 62
     7
 10
-331.087742726678
 20
54.0219103696976
 30
0.0
 11
-328.487917942427
 21
54.0219103696976
 31
0.0
  0
LINE
  5
   566
  8
0
  6
CONTINUOUS
 62
     7
 10
-331.087742726678
 20
29.3900900129247
 30
0.0
 11
-328.487917942427
 21
29.3900900129247
 31
0.0
  0
LINE
  5
   567
  8
0
  6
CONTINUOUS
 62
     7
 10
-328.487917942427
 20
37.6895306703415
 30
0.0
 11
-328.487917942427
 21
29.3900900129247
 31
0.0
  0
LINE
  5
   568
  8
0
  6
CONTINUOUS
 62
     7
 10
-331.087742726678
 20
37.6895306703415
 30
0.0
 11
-328.487917942427
 21
37.6895306703415
 31
0.0
  0
LINE
  5
   569
  8
0
  6
CONTINUOUS
 62
     7
 10
-331.087742726678
 20
37.6895306703415
 30
0.0
 11
-331.087742726678
 21
29.3900900129247
 31
0.0
  0
LINE
  5
   56A
  8
0
  6
DASHDOT
 62
     7
 10
-329.787830334553
 20
66.7210545081546
 30
0.0
 11
-329.787830334553
 21
10.2748587116274
 31
0.0
  0
INSERT
  5
   56B
  8
0
  6
CONTINUOUS
 62
     7
  2
*UDIM610
 10
0.0
 20
0.0
 30
0.0
  0
INSERT
  5
   56C
  8
0
  6
CONTINUOUS
 62
     3
  2
*UDIM611
 10
0.0
 20
0.0
 30
0.0
  0
INSERT
  5
   56D
  8
0
  6
CONTINUOUS
 62
     3
  2
*UDIM612
 10
0.0
 20
0.0
 30
0.0
  0
INSERT
  5
   56E
  8
0
  6
CONTINUOUS
 62
     7
  2
*UDIM613
 10
0.0
 20
0.0
 30
0.0
  0
INSERT
  5
   56F
  8
0
  6
CONTINUOUS
 62
     7
  2
*UDIM614
 10
0.0
 20
0.0
 30
0.0
  0
INSERT
  5
   570
  8
0
  6
CONTINUOUS
 62
     7
  2
*UDIM615
 10
0.0
 20
0.0
 30
0.0
  0
TEXT
  5
   571
  8
0
  6
CONTINUOUS
 62
     7
 10
-383.951334890501
 20
36.6652548957915
 30
0.0
 40
3.00000002980232
  1
=     =
 50
449.999999844103
 41
0.916666604744064
 72
     2
 11
-383.951334839737
 21
55.3652538139672
 31
0.0
  0
INSERT
  5
   572
  8
0
  6
CONTINUOUS
 62
     7
  2
*UDIM616
 10
0.0
 20
0.0
 30
0.0
  0
INSERT
  5
   573
  8
0
  6
CONTINUOUS
 62
     7
  2
*UDIM617
 10
0.0
 20
0.0
 30
0.0
  0
INSERT
  5
   574
  8
0
  6
CONTINUOUS
 62
     7
  2
*UDIM618
 10
0.0
 20
0.0
 30
0.0
  0
INSERT
  5
   575
  8
0
  6
CONTINUOUS
 62
     7
  2
*UDIM619
 10
0.0
 20
0.0
 30
0.0
  0
INSERT
  5
   576
  8
0
  6
CONTINUOUS
 62
     7
  2
*UDIM620
 10
0.0
 20
0.0
 30
0.0
  0
INSERT
  5
   577
  8
0
  6
CONTINUOUS
 62
     7
  2
*UDIM621
 10
0.0
 20
0.0
 30
0.0
  0
INSERT
  5
   578
  8
0
  6
CONTINUOUS
 62
     7
  2
*UDIM622
 10
0.0
 20
0.0
 30
0.0
  0
INSERT
  5
   579
  8
0
  6
CONTINUOUS
 62
     7
  2
*UDIM623
 10
0.0
 20
0.0
 30
0.0
  0
INSERT
  5
   57A
  8
0
  6
CONTINUOUS
 62
     7
  2
*UDIM624
 10
0.0
 20
0.0
 30
0.0
  0
INSERT
  5
   57B
  8
0
  6
CONTINUOUS
 62
     7
  2
*UDIM625
 10
0.0
 20
0.0
 30
0.0
  0
INSERT
  5
   57C
  8
0
  6
CONTINUOUS
 62
     7
  2
*UDIM626
 10
0.0
 20
0.0
 30
0.0
  0
TEXT
  5
   57D
  8
0
  6
CONTINUOUS
 62
     7
 10
-359.236030946277
 20
1.22546761274845
 30
0.0
 40
3.00000002980232
  1
Y
 50
359.999999844103
 41
0.916666604744064
 72
     2
 11
-357.036031077408
 21
1.2254676067735
 31
0.0
  0
TEXT
  5
   57E
  8
0
  6
CONTINUOUS
 62
     7
 10
-359.728595386051
 20
96.9956969523481
 30
0.0
 40
3.00000002980232
  1
Y
 50
359.999999844103
 41
0.916666604744064
 72
     2
 11
-357.528595517181
 21
96.9956969463731
 31
0.0
  0
TEXT
  5
   57F
  8
0
  6
CONTINUOUS
 62
     7
 10
-305.928348432087
 20
45.1513977551511
 30
0.0
 40
3.00000002980232
  1
X
 50
359.999999844103
 41
0.916666604744064
 72
     2
 11
-303.728348563217
 21
45.1513977491761
 31
0.0
  0
TEXT
  5
   580
  8
0
  6
CONTINUOUS
 62
     7
 10
-403.111743817829
 20
44.6084737086347
 30
0.0
 40
3.00000002980232
  1
X
 50
359.999999844103
 41
0.916666604744064
 72
     2
 11
-400.911743948959
 21
44.6084737026597
 31
0.0
  0
LINE
  5
   581
  8
0
  6
CONTINUOUS
 62
     7
 10
-530.270324707031
 20
-102.585112364809
 30
0.0
 11
-530.270324707031
 21
-126.501633851012
 31
0.0
  0
LINE
  5
   582
  8
0
  6
CONTINUOUS
 62
     7
 10
-532.270324707031
 20
-102.585112364809
 30
0.0
 11
-532.270324707031
 21
-126.501633851012
 31
0.0
  0
LINE
  5
   583
  8
0
  6
DASHDOT
 62
     7
 10
-535.472927809428
 20
-114.54337310791
 30
0.0
 11
-527.046708616991
 21
-114.54337310791
 31
0.0
  0
POINT
  5
   584
  8
0
  6
CONTINUOUS
 62
     7
 10
-532.270324707031
 20
-112.54337310791
 30
0.0
  0
POINT
  5
   585
  8
0
  6
CONTINUOUS
 62
     7
 10
-532.270324707031
 20
-116.54337310791
 30
0.0
  0
LINE
  5
   586
  8
0
  6
CONTINUOUS
 62
     7
 10
-530.270324707031
 20
-110.865173845556
 30
0.0
 11
-532.270324707031
 21
-112.54337310791
 31
0.0
  0
LINE
  5
   587
  8
0
  6
CONTINUOUS
 62
     7
 10
-532.270324707031
 20
-116.54337310791
 30
0.0
 11
-530.270324707031
 21
-118.221572370265
 31
0.0
  0
LINE
  5
   588
  8
0
  6
CONTINUOUS
 62
     7
 10
-532.270324707031
 20
-124.04337310791
 30
0.0
 11
-530.270324707031
 21
-124.04337310791
 31
0.0
  0
CIRCLE
  5
   589
  8
0
  6
CONTINUOUS
 62
     7
 10
-531.270324707031
 20
-114.54337310791
 30
0.0
 40
12.0
  0
LINE
  5
   58A
  8
0
  6
CONTINUOUS
 62
     7
 10
-538.270317077637
 20
-119.04337310791
 30
0.0
 11
-535.770317077637
 21
-119.04337310791
 31
0.0
  0
LINE
  5
   58B
  8
0
  6
CONTINUOUS
 62
     7
 10
-534.770317077637
 20
-110.04337310791
 30
0.0
 11
-534.770317077637
 21
-118.04337310791
 31
0.0
  0
LINE
  5
   58C
  8
0
  6
CONTINUOUS
 62
     7
 10
-534.770317077637
 20
-110.04337310791
 30
0.0
 11
-532.270324707031
 21
-110.04337310791
 31
0.0
  0
LINE
  5
   58D
  8
0
  6
CONTINUOUS
 62
     7
 10
-538.270317077637
 20
-121.54337310791
 30
0.0
 11
-535.770317077637
 21
-121.54337310791
 31
0.0
  0
LINE
  5
   58E
  8
0
  6
CONTINUOUS
 62
     7
 10
-539.270317077637
 20
-122.54337310791
 30
0.0
 11
-539.270317077637
 21
-123.487651841841
 31
0.0
  0
ARC
  5
   58F
  8
0
  6
CONTINUOUS
 62
     7
 10
-535.770312930357
 20
-118.043373779249
 30
0.0
 40
0.999996977799109
 50
629.999840735313
 51
720.000252836193
  0
ARC
  5
   590
  8
0
  6
CONTINUOUS
 62
     7
 10
-538.27030242413
 20
-122.543385794215
 30
0.0
 40
3.50001845311552
 50
450.000186734275
 51
513.408761128067
  0
ARC
  5
   591
  8
0
  6
CONTINUOUS
 62
     7
 10
-538.270361325787
 20
-122.543332213128
 30
0.0
 40
0.999949821243504
 50
449.997764042825
 51
540.001169660043
  0
ARC
  5
   592
  8
0
  6
CONTINUOUS
 62
     7
 10
-535.770297725255
 20
-118.043405154844
 30
0.0
 40
3.49997105594423
 50
629.999653243441
 51
720.000420168909
  0
INSERT
  5
   593
  8
0
  6
CONTINUOUS
 62
     7
  2
*HATCH103
 10
-531.270324707031
 20
-114.54337310791
 30
0.0
 50
269.999999844103
  0
INSERT
  5
   594
  8
0
  6
CONTINUOUS
 62
     7
  2
*HATCH104
 10
-531.270324707031
 20
-114.54337310791
 30
0.0
 50
269.999999844103
  0
INSERT
  5
   595
  8
0
  6
CONTINUOUS
 62
     7
  2
*UDIM627
 10
0.0
 20
0.0
 30
0.0
  0
INSERT
  5
   596
  8
0
  6
CONTINUOUS
 62
     7
  2
*UDIM628
 10
0.0
 20
0.0
 30
0.0
  0
ENDSEC
  0
EOF
