  0
SECTION
  2
HEADER
  9
$ACADVER
  1
AC1009
  9
$DWGCODEPAGE
  3
iso8859-1
  9
$INSBASE
 10
0.0
 20
0.0
 30
0.0
  9
$EXTMIN
 10
1.0E20
 20
1.0E20
  9
$EXTMAX
 10
-1.0E20
 20
-1.0E20
  9
$LIMMIN
 10
0.0
 20
0.0
  9
$LIMMAX
 10
12.0
 20
9.0
  9
$ORTHOMODE
 70
     0
  9
$REGENMODE
 70
     1
  9
$FILLMODE
 70
     1
  9
$QTEXTMODE
 70
     0
  9
$MIRRTEXT
 70
     1
  9
$DRAGMODE
 70
     2
  9
$LTSCALE
 40
15.0
  9
$OSMODE
 70
     0
  9
$ATTMODE
 70
     1
  9
$TEXTSIZE
 40
0.2
  9
$TRACEWID
 40
0.05
  9
$TEXTSTYLE
  7
STANDARD
  9
$CLAYER
  8
0
  9
$CELTYPE
  6
DASHED
  9
$CECOLOR
 62
   256
  9
$DIMSCALE
 40
1.0
  9
$DIMASZ
 40
0.18
  9
$DIMEXO
 40
0.0625
  9
$DIMDLI
 40
0.38
  9
$DIMRND
 40
0.0
  9
$DIMDLE
 40
0.0
  9
$DIMEXE
 40
0.18
  9
$DIMTP
 40
0.0
  9
$DIMTM
 40
0.0
  9
$DIMTXT
 40
0.18
  9
$DIMCEN
 40
0.09
  9
$DIMTSZ
 40
0.0
  9
$DIMTOL
 70
     0
  9
$DIMLIM
 70
     0
  9
$DIMTIH
 70
     1
  9
$DIMTOH
 70
     1
  9
$DIMSE1
 70
     0
  9
$DIMSE2
 70
     0
  9
$DIMTAD
 70
     0
  9
$DIMZIN
 70
     0
  9
$DIMBLK
  1

  9
$DIMASO
 70
     1
  9
$DIMSHO
 70
     1
  9
$DIMPOST
  1

  9
$DIMAPOST
  1

  9
$DIMALT
 70
     0
  9
$DIMALTD
 70
     2
  9
$DIMALTF
 40
25.4
  9
$DIMLFAC
 40
1.0
  9
$DIMTOFL
 70
     0
  9
$DIMTVP
 40
0.0
  9
$DIMTIX
 70
     0
  9
$DIMSOXD
 70
     0
  9
$DIMSAH
 70
     0
  9
$DIMBLK1
  1

  9
$DIMBLK2
  1

  9
$DIMSTYLE
  2
STANDARD
  9
$DIMCLRD
 70
     0
  9
$DIMCLRE
 70
     0
  9
$DIMCLRT
 70
     0
  9
$DIMTFAC
 40
1.0
  9
$DIMGAP
 40
0.09
  9
$LUNITS
 70
     2
  9
$LUPREC
 70
     4
  9
$AXISMODE
 70
     0
  9
$AXISUNIT
 10
0.0
 20
0.0
  9
$SKETCHINC
 40
0.1
  9
$FILLETRAD
 40
0.0
  9
$AUNITS
 70
     0
  9
$AUPREC
 70
     0
  9
$MENU
  1
acad
  9
$ELEVATION
 40
0.0
  9
$PELEVATION
 40
0.0
  9
$THICKNESS
 40
0.0
  9
$LIMCHECK
 70
     0
  9
$BLIPMODE
 70
     1
  9
$CHAMFERA
 40
0.0
  9
$CHAMFERB
 40
0.0
  9
$SKPOLY
 70
     0
  9
$TDCREATE
 40
0.000000000
  9
$TDUPDATE
 40
0.000000000
  9
$TDINDWG
 40
0.0
  9
$TDUSRTIMER
 40
0.0
  9
$USRTIMER
 70
     1
  9
$ANGBASE
 50
0.0
  9
$ANGDIR
 70
     0
  9
$PDMODE
 70
     0
  9
$PDSIZE
 40
0.0
  9
$PLINEWID
 40
0.0
  9
$COORDS
 70
     1
  9
$SPLFRAME
 70
     0
  9
$SPLINETYPE
 70
     6
  9
$SPLINESEGS
 70
     8
  9
$ATTDIA
 70
     0
  9
$ATTREQ
 70
     1
  9
$HANDLING
 70
     1
  9
$HANDSEED
  5
   807
  9
$SURFTAB1
 70
     6
  9
$SURFTAB2
 70
     6
  9
$SURFTYPE
 70
     6
  9
$SURFU
 70
     6
  9
$SURFV
 70
     6
  9
$UCSNAME
  2

  9
$UCSORG
 10
0.0
 20
0.0
 30
0.0
  9
$UCSXDIR
 10
1.0
 20
0.0
 30
0.0
  9
$UCSYDIR
 10
0.0
 20
1.0
 30
0.0
  9
$PUCSNAME
  2

  9
$PUCSORG
 10
0.0
 20
0.0
 30
0.0
  9
$PUCSXDIR
 10
1.0
 20
0.0
 30
0.0
  9
$PUCSYDIR
 10
0.0
 20
1.0
 30
0.0
  9
$USERI1
 70
     0
  9
$USERI2
 70
     0
  9
$USERI3
 70
     0
  9
$USERI4
 70
     0
  9
$USERI5
 70
     0
  9
$USERR1
 40
0.0
  9
$USERR2
 40
0.0
  9
$USERR3
 40
0.0
  9
$USERR4
 40
0.0
  9
$USERR5
 40
0.0
  9
$WORLDVIEW
 70
     1
  9
$SHADEDGE
 70
     3
  9
$SHADEDIF
 70
    70
  9
$TILEMODE
 70
     1
  9
$MAXACTVP
 70
    16
  9
$PINSBASE
 10
0.0
 20
0.0
 30
0.0
  9
$PLIMCHECK
 70
     0
  9
$PEXTMIN
 10
1.0E20
 20
1.0E20
 30
1.0E20
  9
$PEXTMAX
 10
-1.0E20
 20
-1.0E20
 30
-1.0E20
  9
$PLIMMIN
 10
0.0
 20
0.0
  9
$PLIMMAX
 10
12.0
 20
9.0
  9
$UNITMODE
 70
     0
  9
$VISRETAIN
 70
     0
  0
ENDSEC
  0
SECTION
  2
TABLES
  0
TABLE
  2
VPORT
 70
     1
  0
VPORT
  2
*ACTIVE
 70
     0
 10
0.0
 20
0.0
 11
1.0
 21
1.0
 12
6.801242
 22
4.5
 13
0.0
 23
0.0
 14
1.0
 24
1.0
 15
0.0
 25
0.0
 16
0.0
 26
0.0
 36
1.0
 17
0.0
 27
0.0
 37
0.0
 40
9.0
 41
1.511387
 42
50.0
 43
0.0
 44
0.0
 50
0.0
 51
0.0
 71
     0
 72
   100
 73
     1
 74
     1
 75
     0
 76
     0
 77
     0
 78
     0
  0
ENDTAB
  0
TABLE
  2
LTYPE
 70
    41
  0
LTYPE
  2
BYBLOCK
 70
     0
  3

 72
    65
 73
     0
 40
0.0
  0
LTYPE
  2
BYLAYER
 70
     0
  3

 72
    65
 73
     0
 40
0.0
  0
LTYPE
  2
CONTINUOUS
 70
     0
  3
Solid line
 72
    65
 73
     0
 40
0.0
  0
LTYPE
  2
BORDER
 70
    64
  3
__ __ . __ __ . __ __ . __ __ . __ __ . __ __ .
 72
    65
 73
     6
 40
1.75
 49
0.5
 49
-0.25
 49
0.5
 49
-0.25
 49
0.0
 49
-0.25
  0
LTYPE
  2
BORDER2
 70
    64
  3
__.__.__.__.__.__.__.__.__.__.__.__.__.__.__.__
 72
    65
 73
     6
 40
0.875
 49
0.25
 49
-0.125
 49
0.25
 49
-0.125
 49
0.0
 49
-0.125
  0
LTYPE
  2
BORDERX2
 70
    64
  3
____  ____  .  ____  ____  .  ____  ____  .  __
 72
    65
 73
     6
 40
3.5
 49
1.0
 49
-0.5
 49
1.0
 49
-0.5
 49
0.0
 49
-0.5
  0
LTYPE
  2
CENTER
 70
    64
  3
____ _ ____ _ ____ _ ____ _ ____ _ ____ _ ____
 72
    65
 73
     4
 40
2.0
 49
1.25
 49
-0.25
 49
0.25
 49
-0.25
  0
LTYPE
  2
CENTER2
 70
    64
  3
___ _ ___ _ ___ _ ___ _ ___ _ ___ _ ___ _ ___ _
 72
    65
 73
     4
 40
1.125
 49
0.75
 49
-0.125
 49
0.125
 49
-0.125
  0
LTYPE
  2
CENTERX2
 70
    64
  3
________  __  ________  __  ________  __  _____
 72
    65
 73
     4
 40
4.0
 49
2.5
 49
-0.5
 49
0.5
 49
-0.5
  0
LTYPE
  2
DASHDOT
 70
    64
  3
__ . __ . __ . __ . __ . __ . __ . __ . __ . __
 72
    65
 73
     4
 40
1.0
 49
0.5
 49
-0.25
 49
0.0
 49
-0.25
  0
LTYPE
  2
DASHDOT2
 70
    64
  3
_._._._._._._._._._._._._._._._._._._._._._._._
 72
    65
 73
     4
 40
0.5
 49
0.25
 49
-0.125
 49
0.0
 49
-0.125
  0
LTYPE
  2
DASHDOTX2
 70
    64
  3
____  .  ____  .  ____  .  ____  .  ____  .  __
 72
    65
 73
     4
 40
2.0
 49
1.0
 49
-0.5
 49
0.0
 49
-0.5
  0
LTYPE
  2
DASHED
 70
    64
  3
__ __ __ __ __ __ __ __ __ __ __ __ __ __ __ __
 72
    65
 73
     2
 40
0.75
 49
0.5
 49
-0.25
  0
LTYPE
  2
DASHED2
 70
    64
  3
_ _ _ _ _ _ _ _ _ _ _ _ _ _ _ _ _ _ _ _ _ _ _ _
 72
    65
 73
     2
 40
0.375
 49
0.25
 49
-0.125
  0
LTYPE
  2
DASHEDX2
 70
    64
  3
____  ____  ____  ____  ____  ____  ____  ____
 72
    65
 73
     2
 40
1.5
 49
1.0
 49
-0.5
  0
LTYPE
  2
DIVIDE
 70
    64
  3
____ . . ____ . . ____ . . ____ . . ____ . . __
 72
    65
 73
     6
 40
1.25
 49
0.5
 49
-0.25
 49
0.0
 49
-0.25
 49
0.0
 49
-0.25
  0
LTYPE
  2
DIVIDE2
 70
    64
  3
__..__..__..__..__..__..__..__..__..__..__..__.
 72
    65
 73
     6
 40
0.625
 49
0.25
 49
-0.125
 49
0.0
 49
-0.125
 49
0.0
 49
-0.125
  0
LTYPE
  2
DIVIDEX2
 70
    64
  3
________  .  .  ________  .  .  ________  .  .
 72
    65
 73
     6
 40
2.5
 49
1.0
 49
-0.5
 49
0.0
 49
-0.5
 49
0.0
 49
-0.5
  0
LTYPE
  2
DOT
 70
    64
  3
. . . . . . . . . . . . . . . . . . . . . . . .
 72
    65
 73
     2
 40
0.25
 49
0.0
 49
-0.25
  0
LTYPE
  2
DOT2
 70
    64
  3
...............................................
 72
    65
 73
     2
 40
0.125
 49
0.0
 49
-0.125
  0
LTYPE
  2
DOTX2
 70
    64
  3
.  .  .  .  .  .  .  .  .  .  .  .  .  .  .  .
 72
    65
 73
     2
 40
0.5
 49
0.0
 49
-0.5
  0
LTYPE
  2
HIDDEN
 70
    64
  3
__ __ __ __ __ __ __ __ __ __ __ __ __ __ __ __
 72
    65
 73
     2
 40
0.375
 49
0.25
 49
-0.125
  0
LTYPE
  2
HIDDEN2
 70
    64
  3
_ _ _ _ _ _ _ _ _ _ _ _ _ _ _ _ _ _ _ _ _ _ _ _
 72
    65
 73
     2
 40
0.1875
 49
0.125
 49
-0.0625
  0
LTYPE
  2
HIDDENX2
 70
    64
  3
____ ____ ____ ____ ____ ____ ____ ____ ____ __
 72
    65
 73
     2
 40
0.75
 49
0.5
 49
-0.25
  0
LTYPE
  2
PHANTOM
 70
    64
  3
______  __  __  ______  __  __  ______  __  __
 72
    65
 73
     6
 40
2.5
 49
1.25
 49
-0.25
 49
0.25
 49
-0.25
 49
0.25
 49
-0.25
  0
LTYPE
  2
PHANTOM2
 70
    64
  3
___ _ _ ___ _ _ ___ _ _ ___ _ _ ___ _ _ ___ _ _
 72
    65
 73
     6
 40
1.25
 49
0.625
 49
-0.125
 49
0.125
 49
-0.125
 49
0.125
 49
-0.125
  0
LTYPE
  2
PHANTOMX2
 70
    64
  3
____________    ____    ____    ____________
 72
    65
 73
     6
 40
5.0
 49
2.5
 49
-0.5
 49
0.5
 49
-0.5
 49
0.5
 49
-0.5
  0
LTYPE
  2
ACAD_ISO02W100
 70
    64
  3
__ __ __ __ __ __ __ __ __ __ __ __ __ __ __ __
 72
    65
 73
     2
 40
15.0
 49
12.0
 49
-3.0
  0
LTYPE
  2
ACAD_ISO03W100
 70
    64
  3
__    __    __    __    __    __    __    __
 72
    65
 73
     2
 40
30.0
 49
12.0
 49
-18.0
  0
LTYPE
  2
ACAD_ISO04W100
 70
    64
  3
____ . ____ . ____ . ____ . ____ . ____ . ____
 72
    65
 73
     4
 40
30.5
 49
24.0
 49
-3.0
 49
0.5
 49
-3.0
  0
LTYPE
  2
ACAD_ISO05W100
 70
    64
  3
____ .. ____ .. ____ .. ____ .. ____ .. ____ ..
 72
    65
 73
     6
 40
34.0
 49
24.0
 49
-3.0
 49
0.5
 49
-3.0
 49
0.5
 49
-3.0
  0
LTYPE
  2
ACAD_ISO06W100
 70
    64
  3
____ ... ____ ... ____ ... ____ ... ____ ... __
 72
    65
 73
     8
 40
37.5
 49
24.0
 49
-3.0
 49
0.5
 49
-3.0
 49
0.5
 49
-3.0
 49
0.5
 49
-3.0
  0
LTYPE
  2
ACAD_ISO07W100
 70
    64
  3
. . . . . . . . . . . . . . . . . . . . . . . .
 72
    65
 73
     2
 40
3.5
 49
0.5
 49
-3.0
  0
LTYPE
  2
ACAD_ISO08W100
 70
    64
  3
____ __ ____ __ ____ __ ____ ____ __ __ ____ __
 72
    65
 73
     4
 40
36.0
 49
24.0
 49
-3.0
 49
6.0
 49
-3.0
  0
LTYPE
  2
ACAD_ISO09W100
 70
    64
  3
____ __ __ ____ __ __ ____ __ __ ____ __ __ ___
 72
    65
 73
     6
 40
45.0
 49
24.0
 49
-3.0
 49
6.0
 49
-3.0
 49
6.0
 49
-3.0
  0
LTYPE
  2
ACAD_ISO10W100
 70
    64
  3
__ . __ . __ . __ . __ . __ . __ . __ . __ . __
 72
    65
 73
     4
 40
18.5
 49
12.0
 49
-3.0
 49
0.5
 49
-3.0
  0
LTYPE
  2
ACAD_ISO11W100
 70
    64
  3
__ __ . __ __ . __ __ . __ __ . __ __ . __ __ .
 72
    65
 73
     6
 40
33.5
 49
12.0
 49
-3.0
 49
12.0
 49
-3.0
 49
0.5
 49
-3.0
  0
LTYPE
  2
ACAD_ISO12W100
 70
    64
  3
__ . . __ . . __ . . __ . . __ . . __ . . __ .
 72
    65
 73
     6
 40
22.0
 49
12.0
 49
-3.0
 49
0.5
 49
-3.0
 49
0.5
 49
-3.0
  0
LTYPE
  2
ACAD_ISO13W100
 70
    64
  3
__ __ . . __ __ . . __ __ . . __ __ . . __ __ .
 72
    65
 73
     8
 40
37.0
 49
12.0
 49
-3.0
 49
12.0
 49
-3.0
 49
0.5
 49
-3.0
 49
0.5
 49
-3.0
  0
LTYPE
  2
ACAD_ISO14W100
 70
    64
  3
__ . . . __ . . . __ . . . __ . . . __ . . . __
 72
    65
 73
     8
 40
25.5
 49
12.0
 49
-3.0
 49
0.5
 49
-3.0
 49
0.5
 49
-3.0
 49
0.5
 49
-3.0
  0
LTYPE
  2
ACAD_ISO15W100
 70
    64
  3
__ __ . . . __ __ . . . __ __ . . . __ __ . . .
 72
    65
 73
    10
 40
40.5
 49
12.0
 49
-3.0
 49
12.0
 49
-3.0
 49
0.5
 49
-3.0
 49
0.5
 49
-3.0
 49
0.5
 49
-3.0
  0
ENDTAB
  0
TABLE
  2
STYLE
 70
     4
  0
STYLE
  2
STANDARD
 70
    64
 40
0.0
 41
1.0
 50
0.0
 71
     0
 42
0.2
  3
txt
  4

  0
STYLE
  2
TOLERANCE
 70
    64
 40
0.0
 41
1.0
 50
0.0
 71
     0
 42
0.2
  3
../igesfont/iges1003.shx
  4

  0
STYLE
  2
ROMANS
 70
    64
 40
0.0
 41
1.0
 50
0.0
 71
     0
 42
0.2
  3
romans.shx
  4

  0
STYLE
  2
ROMANC
 70
    64
 40
0.0
 41
1.0
 50
0.0
 71
     0
 42
0.2
  3
romanc.shx
  4

  0
ENDTAB
  0
TABLE
  2
DIMSTYLE
 70
     2
  0
DIMSTYLE
  2
UNNAMED
 70
     0
  3

  4

  5

  6

  7

 40
1.0
 41
0.18
 42
0.0625
 43
0.38
 44
0.18
 45
0.0
 46
0.0
 47
0.0
 48
0.0
140
0.18
141
0.09
142
0.0
143
25.4
144
1.0
145
0.0
146
1.0
147
0.09
 71
     0
 72
     0
 73
     1
 74
     1
 75
     0
 76
     0
 77
     0
 78
     0
170
     0
171
     2
172
     0
173
     0
174
     0
175
     0
176
     0
177
     0
178
     0
  0
DIMSTYLE
  2
STANDARD
 70
     0
  3

  4

  5

  6

  7

 40
1.0
 41
0.18
 42
0.0625
 43
0.38
 44
0.18
 45
0.0
 46
0.0
 47
0.0
 48
0.0
140
0.18
141
0.09
142
0.0
143
25.4
144
1.0
145
0.0
146
1.0
147
0.09
 71
     0
 72
     0
 73
     1
 74
     1
 75
     0
 76
     0
 77
     0
 78
     0
170
     0
171
     2
172
     0
173
     0
174
     0
175
     0
176
     0
177
     0
178
     0
  0
ENDTAB
  0
TABLE
  2
LAYER
 70
     2
  0
LAYER
  2
0
 70
     0
 62
     7
  6
CONTINUOUS
  0
LAYER
  2
255
 70
     0
 62
     7
  6
CONTINUOUS
  0
ENDTAB
  0
ENDSEC
  0
SECTION
  2
BLOCKS
  0
BLOCK
  5
     B
  8
0
  6
CONTINUOUS
 62
     7
  2
*UDIM742
 70
    65
 10
0.0
 20
0.0
 30
0.0
  3
*UDIM742
  0
TEXT
  5
     C
  8
0
  6
CONTINUOUS
 62
     7
 10
84.5144827076133
 20
-107.911087641895
 30
0.0
 40
3.00000002980232
  1
7
 50
401.743212308633
 41
0.933333333333334
 72
     1
 11
84.3365426699662
 21
-106.059510635194
 31
0.0
 73
     2
  0
TEXT
  5
     D
  8
0
  6
CONTINUOUS
 62
     7
 10
82.1641535020137
 20
-110.008336479752
 30
0.0
 40
3.00000002980232
  1
Ø
 50
401.743212308633
 41
0.933333333333334
 72
     1
 11
81.9862134643665
 21
-108.15675947305
 31
0.0
 73
     2
  0
LINE
  5
     E
  8
0
  6
CONTINUOUS
 62
     7
 10
97.322737690957
 20
-97.8222465540386
 30
0.0
 11
82.8299467868007
 21
-110.754472732661
 31
0.0
  0
LINE
  5
     F
  8
0
  6
CONTINUOUS
 62
     7
 10
99.1802987053589
 20
-95.4665158653192
 30
0.0
 11
97.322737690957
 21
-97.8222465540386
 31
0.0
  0
LINE
  5
    10
  8
0
  6
CONTINUOUS
 62
     7
 10
97.322737690957
 20
-97.8222465540386
 30
0.0
 11
99.8739813065388
 21
-96.2439069156992
 31
0.0
  0
LINE
  5
    11
  8
0
  6
CONTINUOUS
 62
     7
 10
94.1594382331177
 20
-101.343115482337
 30
0.0
 11
96.0169992475195
 21
-98.9873847936177
 31
0.0
  0
LINE
  5
    12
  8
0
  6
CONTINUOUS
 62
     7
 10
96.0169992475195
 20
-98.9873847936177
 30
0.0
 11
93.4657556319378
 21
-100.565724431957
 31
0.0
  0
ENDBLK
  5
    13
  8
0
  6
CONTINUOUS
 62
     7
  0
BLOCK
  5
    14
  8
0
  6
CONTINUOUS
 62
     7
  2
*UDIM743
 70
    65
 10
0.0
 20
0.0
 30
0.0
  3
*UDIM743
  0
TEXT
  5
    15
  8
0
  6
CONTINUOUS
 62
     7
 10
65.9008331192958
 20
-84.8298157226036
 30
0.0
 40
3.00000002980232
  1
142
 50
449.999999844103
 41
0.933333333333333
 72
     1
 11
64.4008331149817
 21
-80.9298156797886
 31
0.0
 73
     2
  0
LINE
  5
    16
  8
0
  6
CONTINUOUS
 62
     7
 10
94.0448684692383
 20
-62.9048156738281
 30
0.0
 11
64.9008331298828
 21
-62.9048156738281
 31
0.0
  0
LINE
  5
    17
  8
0
  6
CONTINUOUS
 62
     7
 10
94.0448684692383
 20
-98.4048156738281
 30
0.0
 11
64.9008331298828
 21
-98.4048156738281
 31
0.0
  0
LINE
  5
    18
  8
0
  6
CONTINUOUS
 62
     7
 10
66.9008331298828
 20
-62.9048156738281
 30
0.0
 11
66.9008331298828
 21
-98.4048156738281
 31
0.0
  0
LINE
  5
    19
  8
0
  6
CONTINUOUS
 62
     7
 10
67.4217775598345
 20
-65.8592389510351
 30
0.0
 11
66.9008331298828
 21
-62.9048156738281
 31
0.0
  0
LINE
  5
    1A
  8
0
  6
CONTINUOUS
 62
     7
 10
66.9008331298828
 20
-62.9048156738281
 30
0.0
 11
66.3798886999311
 21
-65.8592389510351
 31
0.0
  0
LINE
  5
    1B
  8
0
  6
CONTINUOUS
 62
     7
 10
66.3798886999311
 20
-95.4503923966212
 30
0.0
 11
66.9008331298828
 21
-98.4048156738281
 31
0.0
  0
LINE
  5
    1C
  8
0
  6
CONTINUOUS
 62
     7
 10
66.9008331298828
 20
-98.4048156738281
 30
0.0
 11
67.4217775598345
 21
-95.4503923966212
 31
0.0
  0
ENDBLK
  5
    1D
  8
0
  6
CONTINUOUS
 62
     7
  0
BLOCK
  5
    1E
  8
0
  6
CONTINUOUS
 62
     7
  2
*UDIM744
 70
    65
 10
0.0
 20
0.0
 30
0.0
  3
*UDIM744
  0
TEXT
  5
    1F
  8
0
  6
CONTINUOUS
 62
     7
 10
75.9325275315272
 20
-84.8298157226036
 30
0.0
 40
3.00000002980232
  1
112
 50
449.999999844103
 41
0.933333333333333
 72
     1
 11
74.4325275272131
 21
-80.9298156797886
 31
0.0
 73
     2
  0
LINE
  5
    20
  8
0
  6
CONTINUOUS
 62
     7
 10
91.6698684692383
 20
-66.6548156738281
 30
0.0
 11
74.9325275421143
 21
-66.6548156738281
 31
0.0
  0
LINE
  5
    21
  8
0
  6
CONTINUOUS
 62
     7
 10
91.6698684692383
 20
-94.6548156738281
 30
0.0
 11
74.9325275421143
 21
-94.6548156738281
 31
0.0
  0
LINE
  5
    22
  8
0
  6
CONTINUOUS
 62
     7
 10
76.9325275421143
 20
-66.6548156738281
 30
0.0
 11
76.9325275421143
 21
-94.6548156738281
 31
0.0
  0
LINE
  5
    23
  8
0
  6
CONTINUOUS
 62
     7
 10
77.4534719720659
 20
-69.6092389510351
 30
0.0
 11
76.9325275421143
 21
-66.6548156738281
 31
0.0
  0
LINE
  5
    24
  8
0
  6
CONTINUOUS
 62
     7
 10
76.9325275421143
 20
-66.6548156738281
 30
0.0
 11
76.4115831121626
 21
-69.6092389510351
 31
0.0
  0
LINE
  5
    25
  8
0
  6
CONTINUOUS
 62
     7
 10
76.4115831121626
 20
-91.7003923966212
 30
0.0
 11
76.9325275421143
 21
-94.6548156738281
 31
0.0
  0
LINE
  5
    26
  8
0
  6
CONTINUOUS
 62
     7
 10
76.9325275421143
 20
-94.6548156738281
 30
0.0
 11
77.4534719720659
 21
-91.7003923966212
 31
0.0
  0
ENDBLK
  5
    27
  8
0
  6
CONTINUOUS
 62
     7
  0
BLOCK
  5
    28
  8
0
  6
CONTINUOUS
 62
     7
  2
*UDIM745
 70
    65
 10
0.0
 20
0.0
 30
0.0
  3
*UDIM745
  0
TEXT
  5
    29
  8
0
  6
CONTINUOUS
 62
     7
 10
102.494868420461
 20
-41.9390487564979
 30
0.0
 40
3.00000002980232
  1
112
 50
359.999999844103
 41
0.933333333333333
 72
     1
 11
106.394868463278
 21
-40.4390487521887
 31
0.0
 73
     2
  0
LINE
  5
    2A
  8
0
  6
CONTINUOUS
 62
     7
 10
92.6698684692383
 20
-65.6548156738281
 30
0.0
 11
92.6698684692383
 21
-40.9390487670898
 31
0.0
  0
LINE
  5
    2B
  8
0
  6
CONTINUOUS
 62
     7
 10
120.669868469238
 20
-65.6548156738281
 30
0.0
 11
120.669868469238
 21
-40.9390487670898
 31
0.0
  0
LINE
  5
    2C
  8
0
  6
CONTINUOUS
 62
     7
 10
92.6698684692383
 20
-42.9390487670898
 30
0.0
 11
120.669868469238
 21
-42.9390487670898
 31
0.0
  0
LINE
  5
    2D
  8
0
  6
CONTINUOUS
 62
     7
 10
95.6242917464452
 20
-42.4181043371382
 30
0.0
 11
92.6698684692383
 21
-42.9390487670898
 31
0.0
  0
LINE
  5
    2E
  8
0
  6
CONTINUOUS
 62
     7
 10
92.6698684692383
 20
-42.9390487670898
 30
0.0
 11
95.6242917464452
 21
-43.4599931970415
 31
0.0
  0
LINE
  5
    2F
  8
0
  6
CONTINUOUS
 62
     7
 10
117.715445192031
 20
-43.4599931970415
 30
0.0
 11
120.669868469238
 21
-42.9390487670898
 31
0.0
  0
LINE
  5
    30
  8
0
  6
CONTINUOUS
 62
     7
 10
120.669868469238
 20
-42.9390487670898
 30
0.0
 11
117.715445192031
 21
-42.4181043371382
 31
0.0
  0
ENDBLK
  5
    31
  8
0
  6
CONTINUOUS
 62
     7
  0
BLOCK
  5
    32
  8
0
  6
CONTINUOUS
 62
     7
  2
*UDIM746
 70
    65
 10
0.0
 20
0.0
 30
0.0
  3
*UDIM746
  0
TEXT
  5
    33
  8
0
  6
CONTINUOUS
 62
     7
 10
103.894868434369
 20
-50.0599422386937
 30
0.0
 40
3.00000002980232
  1
80
 50
359.999999844103
 41
0.933333333333333
 72
     1
 11
106.394868463278
 21
-48.5599422305822
 31
0.0
 73
     2
  0
LINE
  5
    34
  8
0
  6
CONTINUOUS
 62
     7
 10
96.6698684692383
 20
-60.2798156738281
 30
0.0
 11
96.6698684692383
 21
-49.0599422454834
 31
0.0
  0
LINE
  5
    35
  8
0
  6
CONTINUOUS
 62
     7
 10
116.669868469238
 20
-60.2798156738281
 30
0.0
 11
116.669868469238
 21
-49.0599422454834
 31
0.0
  0
LINE
  5
    36
  8
0
  6
CONTINUOUS
 62
     7
 10
96.6698684692383
 20
-51.0599422454834
 30
0.0
 11
116.669868469238
 21
-51.0599422454834
 31
0.0
  0
LINE
  5
    37
  8
0
  6
CONTINUOUS
 62
     7
 10
99.6242917464452
 20
-50.5389978155317
 30
0.0
 11
96.6698684692383
 21
-51.0599422454834
 31
0.0
  0
LINE
  5
    38
  8
0
  6
CONTINUOUS
 62
     7
 10
96.6698684692383
 20
-51.0599422454834
 30
0.0
 11
99.6242917464452
 21
-51.5808866754351
 31
0.0
  0
LINE
  5
    39
  8
0
  6
CONTINUOUS
 62
     7
 10
113.715445192031
 20
-51.5808866754351
 30
0.0
 11
116.669868469238
 21
-51.0599422454834
 31
0.0
  0
LINE
  5
    3A
  8
0
  6
CONTINUOUS
 62
     7
 10
116.669868469238
 20
-51.0599422454834
 30
0.0
 11
113.715445192031
 21
-50.5389978155317
 31
0.0
  0
ENDBLK
  5
    3B
  8
0
  6
CONTINUOUS
 62
     7
  0
BLOCK
  5
    3C
  8
0
  6
CONTINUOUS
 62
     7
  2
*UDIM747
 70
    65
 10
0.0
 20
0.0
 30
0.0
  3
*UDIM747
  0
TEXT
  5
    3D
  8
0
  6
CONTINUOUS
 62
     7
 10
151.355578603078
 20
-16.7546032114023
 30
0.0
 40
3.00000002980232
  1
5,5
 50
338.440974983981
 41
0.933333333333333
 72
     1
 11
155.533922036223
 21
-16.7926361128651
 31
0.0
 73
     2
  0
TEXT
  5
    3E
  8
0
  6
CONTINUOUS
 62
     7
 10
148.797969910568
 20
-15.7440894995875
 30
0.0
 40
3.00000002980232
  1
Ø
 50
338.440974983981
 41
0.933333333333334
 72
     1
 11
150.372202684847
 21
-14.7532357055645
 31
0.0
 73
     2
  0
TEXT
  5
    3F
  8
0
  6
CONTINUOUS
 62
     7
 10
159.121408617043
 20
-19.822890304766
 30
0.0
 40
3.00000002980232
  1
 - M5
 50
338.440974983981
 41
0.933333333333333
 72
     1
 11
165.903862709054
 21
-20.8898099017146
 31
0.0
 73
     2
  0
LINE
  5
    40
  8
0
  6
CONTINUOUS
 62
     7
 10
187.776944889418
 20
-32.2199440998569
 30
0.0
 11
148.430510383592
 21
-16.6741290148849
 31
0.0
  0
LINE
  5
    41
  8
0
  6
CONTINUOUS
 62
     7
 10
190.716101268465
 20
-32.8210761814383
 30
0.0
 11
187.776944889418
 21
-32.2199440998569
 31
0.0
  0
LINE
  5
    42
  8
0
  6
CONTINUOUS
 62
     7
 10
187.776944889418
 20
-32.2199440998569
 30
0.0
 11
190.333249278976
 21
-33.7900739887291
 31
0.0
  0
LINE
  5
    43
  8
0
  6
CONTINUOUS
 62
     7
 10
183.558984180753
 20
-31.113555166218
 30
0.0
 11
186.498140559801
 21
-31.7146872477994
 31
0.0
  0
LINE
  5
    44
  8
0
  6
CONTINUOUS
 62
     7
 10
186.498140559801
 20
-31.7146872477994
 30
0.0
 11
183.941836170243
 21
-30.1445573589272
 31
0.0
  0
ENDBLK
  5
    45
  8
0
  6
CONTINUOUS
 62
     7
  0
BLOCK
  5
    46
  8
0
  6
CONTINUOUS
 62
     7
  2
*UDIM748
 70
    65
 10
0.0
 20
0.0
 30
0.0
  3
*UDIM748
  0
TEXT
  5
    47
  8
0
  6
CONTINUOUS
 62
     7
 10
162.080883011481
 20
-102.623565762966
 30
0.0
 40
3.00000002980232
  1
108,75
 50
449.999999896069
 41
0.933333333333333
 72
     1
 11
160.580883011222
 21
-94.5235656797886
 31
0.0
 73
     2
  0
LINE
  5
    48
  8
0
  6
CONTINUOUS
 62
     7
 10
170.257589276463
 20
-107.842315673828
 30
0.0
 11
161.080883026123
 21
-107.842315673828
 31
0.0
  0
LINE
  5
    49
  8
0
  6
CONTINUOUS
 62
     7
 10
163.080883026123
 20
-80.6548156738281
 30
0.0
 11
163.080883026123
 21
-107.842315673828
 31
0.0
  0
LINE
  5
    4A
  8
0
  6
CONTINUOUS
 62
     7
 10
163.601827456075
 20
-83.6092389510351
 30
0.0
 11
163.080883026123
 21
-80.6548156738281
 31
0.0
  0
LINE
  5
    4B
  8
0
  6
CONTINUOUS
 62
     7
 10
163.080883026123
 20
-80.6548156738281
 30
0.0
 11
162.559938596171
 21
-83.6092389510351
 31
0.0
  0
LINE
  5
    4C
  8
0
  6
CONTINUOUS
 62
     7
 10
162.559938596171
 20
-104.887892396621
 30
0.0
 11
163.080883026123
 21
-107.842315673828
 31
0.0
  0
LINE
  5
    4D
  8
0
  6
CONTINUOUS
 62
     7
 10
163.080883026123
 20
-107.842315673828
 30
0.0
 11
163.601827456075
 21
-104.887892396621
 31
0.0
  0
ENDBLK
  5
    4E
  8
0
  6
CONTINUOUS
 62
     7
  0
BLOCK
  5
    4F
  8
0
  6
CONTINUOUS
 62
     7
  2
*UDIM749
 70
    65
 10
0.0
 20
0.0
 30
0.0
  3
*UDIM749
  0
TEXT
  5
    50
  8
0
  6
CONTINUOUS
 62
     7
 10
199.823533984292
 20
-59.5145683243351
 30
0.0
 40
3.00000002980232
  1
35
 50
359.999999896069
 41
0.933333333333333
 72
     1
 11
202.323534011841
 21
-58.0145683139563
 31
0.0
 73
     2
  0
LINE
  5
    51
  8
0
  6
CONTINUOUS
 62
     7
 10
204.823534036676
 20
-60.5145683288574
 30
0.0
 11
178.387542724609
 21
-60.5145683288574
 31
0.0
  0
LINE
  5
    52
  8
0
  6
CONTINUOUS
 62
     7
 10
190.091966001816
 20
-59.9936238989058
 30
0.0
 11
187.137542724609
 21
-60.5145683288574
 31
0.0
  0
LINE
  5
    53
  8
0
  6
CONTINUOUS
 62
     7
 10
187.137542724609
 20
-60.5145683288574
 30
0.0
 11
190.091966001816
 21
-61.0355127588091
 31
0.0
  0
LINE
  5
    54
  8
0
  6
CONTINUOUS
 62
     7
 10
175.433119447402
 20
-61.0355127588091
 30
0.0
 11
178.387542724609
 21
-60.5145683288574
 31
0.0
  0
LINE
  5
    55
  8
0
  6
CONTINUOUS
 62
     7
 10
178.387542724609
 20
-60.5145683288574
 30
0.0
 11
175.433119447402
 21
-59.9936238989058
 31
0.0
  0
ENDBLK
  5
    56
  8
0
  6
CONTINUOUS
 62
     7
  0
BLOCK
  5
    57
  8
0
  6
CONTINUOUS
 62
     7
  2
*UDIM750
 70
    65
 10
0.0
 20
0.0
 30
0.0
  3
*UDIM750
  0
TEXT
  5
    58
  8
0
  6
CONTINUOUS
 62
     7
 10
152.454547869969
 20
-76.8798152702774
 30
0.0
 40
3.00000002980232
  1
303,5
 50
449.999999896069
 41
0.933333333333333
 72
     1
 11
150.954547867179
 21
-70.1798152010073
 31
0.0
 73
     2
  0
LINE
  5
    59
  8
0
  6
CONTINUOUS
 62
     7
 10
169.410874322173
 20
-31.9673153599117
 30
0.0
 11
151.45454788208
 21
-31.967309723125
 31
0.0
  0
LINE
  5
    5A
  8
0
  6
CONTINUOUS
 62
     7
 10
170.257589276463
 20
-107.842315359912
 30
0.0
 11
151.45454788208
 21
-107.842309457327
 31
0.0
  0
LINE
  5
    5B
  8
0
  6
CONTINUOUS
 62
     7
 10
153.45454788208
 20
-31.9673103509579
 30
0.0
 11
153.45454788208
 21
-107.84231008516
 31
0.0
  0
LINE
  5
    5C
  8
0
  6
CONTINUOUS
 62
     7
 10
153.975492312032
 20
-34.9217336281649
 30
0.0
 11
153.45454788208
 21
-31.9673103509579
 31
0.0
  0
LINE
  5
    5D
  8
0
  6
CONTINUOUS
 62
     7
 10
153.45454788208
 20
-31.9673103509579
 30
0.0
 11
152.933603452128
 21
-34.9217336281649
 31
0.0
  0
LINE
  5
    5E
  8
0
  6
CONTINUOUS
 62
     7
 10
152.933603452128
 20
-104.887886807953
 30
0.0
 11
153.45454788208
 21
-107.84231008516
 31
0.0
  0
LINE
  5
    5F
  8
0
  6
CONTINUOUS
 62
     7
 10
153.45454788208
 20
-107.84231008516
 30
0.0
 11
153.975492312032
 21
-104.887886807953
 31
0.0
  0
ENDBLK
  5
    60
  8
0
  6
CONTINUOUS
 62
     7
  0
BLOCK
  5
    61
  8
0
  6
CONTINUOUS
 62
     7
  2
*HATCH157
 70
    65
 10
0.0
 20
0.0
 30
0.0
  3
*HATCH157
  0
LINE
  5
    62
  8
0
  6
CONTINUOUS
 62
   210
 10
-10.7629547119141
 20
80.7665863037109
 30
0.0
 11
-7.99633836746216
 21
77.9999618530274
 31
0.0
  0
LINE
  5
    63
  8
0
  6
CONTINUOUS
 62
   210
 10
-8.75369358062744
 20
82.9999618530274
 30
0.0
 11
-4.76300573348999
 21
79.0092697143555
 31
0.0
  0
ENDBLK
  5
    64
  8
0
  6
CONTINUOUS
 62
     7
  0
BLOCK
  5
    65
  8
0
  6
CONTINUOUS
 62
     7
  2
*HATCH158
 70
    65
 10
0.0
 20
0.0
 30
0.0
  3
*HATCH158
  0
LINE
  5
    66
  8
0
  6
CONTINUOUS
 62
   210
 10
3.23699402809143
 20
81.6158676147461
 30
0.0
 11
6.8528938293457
 21
77.9999618530274
 31
0.0
  0
LINE
  5
    67
  8
0
  6
CONTINUOUS
 62
   210
 10
6.09554004669189
 20
82.9999618530274
 30
0.0
 11
11.095531463623
 21
77.9999618530274
 31
0.0
  0
LINE
  5
    68
  8
0
  6
CONTINUOUS
 62
   210
 10
10.3381776809692
 20
82.9999618530274
 30
0.0
 11
15.3381690979004
 21
77.9999618530274
 31
0.0
  0
LINE
  5
    69
  8
0
  6
CONTINUOUS
 62
   210
 10
14.5808153152466
 20
82.9999618530274
 30
0.0
 11
19.5808067321777
 21
77.9999618530274
 31
0.0
  0
LINE
  5
    6A
  8
0
  6
CONTINUOUS
 62
   210
 10
18.8234539031982
 20
82.9999618530274
 30
0.0
 11
19.7282676696777
 21
82.0951461791992
 31
0.0
  0
ENDBLK
  5
    6B
  8
0
  6
CONTINUOUS
 62
     7
  0
BLOCK
  5
    6C
  8
0
  6
CONTINUOUS
 62
     7
  2
*HATCH159
 70
    65
 10
0.0
 20
0.0
 30
0.0
  3
*HATCH159
  0
LINE
  5
    6D
  8
0
  6
CONTINUOUS
 62
     3
 10
17.0864696502686
 20
102.999938964844
 30
0.0
 11
15.2370948791504
 21
101.150566101074
 31
0.0
  0
LINE
  5
    6E
  8
0
  6
CONTINUOUS
 62
     3
 10
18.1471290588379
 20
102.999938964844
 30
0.0
 11
14.2369937896729
 21
99.0898056030274
 31
0.0
  0
LINE
  5
    6F
  8
0
  6
CONTINUOUS
 62
     3
 10
18.2369937896729
 20
100.968482971191
 30
0.0
 11
14.2369937896729
 21
96.9684829711914
 31
0.0
  0
LINE
  5
    70
  8
0
  6
CONTINUOUS
 62
     3
 10
18.2369937896729
 20
98.8471603393555
 30
0.0
 11
14.2369937896729
 21
94.8471603393555
 31
0.0
  0
LINE
  5
    71
  8
0
  6
CONTINUOUS
 62
     3
 10
18.2369937896729
 20
96.7258377075195
 30
0.0
 11
14.2369937896729
 21
92.7258377075195
 31
0.0
  0
LINE
  5
    72
  8
0
  6
CONTINUOUS
 62
     3
 10
18.2369937896729
 20
94.6045150756836
 30
0.0
 11
14.2369937896729
 21
90.6045150756836
 31
0.0
  0
LINE
  5
    73
  8
0
  6
CONTINUOUS
 62
     3
 10
18.2369937896729
 20
92.4831924438477
 30
0.0
 11
14.2369937896729
 21
88.4831924438477
 31
0.0
  0
LINE
  5
    74
  8
0
  6
CONTINUOUS
 62
     3
 10
18.2369937896729
 20
90.3618698120117
 30
0.0
 11
14.2369937896729
 21
86.3618698120117
 31
0.0
  0
LINE
  5
    75
  8
0
  6
CONTINUOUS
 62
     3
 10
18.2369937896729
 20
88.2405471801758
 30
0.0
 11
14.2369937896729
 21
84.2405471801758
 31
0.0
  0
LINE
  5
    76
  8
0
  6
CONTINUOUS
 62
     3
 10
18.2369937896729
 20
86.1192398071289
 30
0.0
 11
15.117714881897
 21
82.9999618530274
 31
0.0
  0
LINE
  5
    77
  8
0
  6
CONTINUOUS
 62
     3
 10
18.2369937896729
 20
83.997917175293
 30
0.0
 11
17.23903465271
 21
82.9999618530274
 31
0.0
  0
ENDBLK
  5
    78
  8
0
  6
CONTINUOUS
 62
     7
  0
BLOCK
  5
    79
  8
0
  6
CONTINUOUS
 62
     7
  2
*HATCH160
 70
    65
 10
0.0
 20
0.0
 30
0.0
  3
*HATCH160
  0
LINE
  5
    7A
  8
0
  6
CONTINUOUS
 62
     3
 10
12.2390375137329
 20
77.9999618530274
 30
0.0
 11
10.2369937896729
 21
75.997917175293
 31
0.0
  0
LINE
  5
    7B
  8
0
  6
CONTINUOUS
 62
     3
 10
14.2369937896729
 20
77.8766021728516
 30
0.0
 11
10.2369937896729
 21
73.8766021728516
 31
0.0
  0
LINE
  5
    7C
  8
0
  6
CONTINUOUS
 62
     3
 10
14.2369937896729
 20
75.7552795410156
 30
0.0
 11
10.2369937896729
 21
71.7552795410156
 31
0.0
  0
LINE
  5
    7D
  8
0
  6
CONTINUOUS
 62
     3
 10
14.2369937896729
 20
73.6339569091797
 30
0.0
 11
10.2369937896729
 21
69.6339569091797
 31
0.0
  0
LINE
  5
    7E
  8
0
  6
CONTINUOUS
 62
     3
 10
14.2369937896729
 20
71.5126342773438
 30
0.0
 11
10.2369937896729
 21
67.5126342773438
 31
0.0
  0
LINE
  5
    7F
  8
0
  6
CONTINUOUS
 62
     3
 10
14.2369937896729
 20
69.3913116455078
 30
0.0
 11
10.2369937896729
 21
65.3913116455078
 31
0.0
  0
LINE
  5
    80
  8
0
  6
CONTINUOUS
 62
     3
 10
14.2369937896729
 20
67.2699890136719
 30
0.0
 11
10.2369937896729
 21
63.2699890136719
 31
0.0
  0
LINE
  5
    81
  8
0
  6
CONTINUOUS
 62
     3
 10
14.2369937896729
 20
65.148681640625
 30
0.0
 11
10.8553380966187
 21
61.7670249938965
 31
0.0
  0
LINE
  5
    82
  8
0
  6
CONTINUOUS
 62
     3
 10
14.2369937896729
 20
63.0273590087891
 30
0.0
 11
13.7800302505493
 21
62.5703964233398
 31
0.0
  0
ENDBLK
  5
    83
  8
0
  6
CONTINUOUS
 62
     7
  0
BLOCK
  5
    84
  8
0
  6
CONTINUOUS
 62
     7
  2
*HATCH161
 70
    65
 10
0.0
 20
0.0
 30
0.0
  3
*HATCH161
  0
LINE
  5
    85
  8
0
  6
CONTINUOUS
 62
     3
 10
167.826889038086
 20
-4.00005149841309
 30
0.0
 11
165.980621337891
 21
-5.84633255004883
 31
0.0
  0
LINE
  5
    86
  8
0
  6
CONTINUOUS
 62
     3
 10
169.948211669922
 20
-4.00005149841309
 30
0.0
 11
167.948211669922
 21
-6.00005149841309
 31
0.0
  0
LINE
  5
    87
  8
0
  6
CONTINUOUS
 62
     3
 10
172.069519042969
 20
-4.00005149841309
 30
0.0
 11
170.069519042969
 21
-6.00005149841309
 31
0.0
  0
LINE
  5
    88
  8
0
  6
CONTINUOUS
 62
     3
 10
174.190826416016
 20
-4.00005149841309
 30
0.0
 11
172.190826416016
 21
-6.00005149841309
 31
0.0
  0
LINE
  5
    89
  8
0
  6
CONTINUOUS
 62
     3
 10
176.312133789062
 20
-4.00005149841309
 30
0.0
 11
174.312133789063
 21
-6.00005149841309
 31
0.0
  0
LINE
  5
    8A
  8
0
  6
CONTINUOUS
 62
     3
 10
177.480621337891
 20
-4.95293474197388
 30
0.0
 11
176.433502197266
 21
-6.00005149841309
 31
0.0
  0
ENDBLK
  5
    8B
  8
0
  6
CONTINUOUS
 62
     7
  0
BLOCK
  5
    8C
  8
0
  6
CONTINUOUS
 62
     7
  2
*HATCH162
 70
    65
 10
0.0
 20
0.0
 30
0.0
  3
*HATCH162
  0
LINE
  5
    8D
  8
0
  6
CONTINUOUS
 62
     3
 10
43.7296600341797
 20
-4.00005149841309
 30
0.0
 11
42.4806251525879
 21
-5.24908351898193
 31
0.0
  0
LINE
  5
    8E
  8
0
  6
CONTINUOUS
 62
     3
 10
45.8509788513184
 20
-4.00005149841309
 30
0.0
 11
43.8509788513184
 21
-6.00005149841309
 31
0.0
  0
LINE
  5
    8F
  8
0
  6
CONTINUOUS
 62
     3
 10
47.9723014831543
 20
-4.00005149841309
 30
0.0
 11
45.9723014831543
 21
-6.00005149841309
 31
0.0
  0
LINE
  5
    90
  8
0
  6
CONTINUOUS
 62
     3
 10
50.0936241149902
 20
-4.00005149841309
 30
0.0
 11
48.0936241149902
 21
-6.00005149841309
 31
0.0
  0
LINE
  5
    91
  8
0
  6
CONTINUOUS
 62
     3
 10
52.2149467468262
 20
-4.00005149841309
 30
0.0
 11
50.2149467468262
 21
-6.00005149841309
 31
0.0
  0
LINE
  5
    92
  8
0
  6
CONTINUOUS
 62
     3
 10
53.9806251525879
 20
-4.35568618774414
 30
0.0
 11
52.3362579345703
 21
-6.00005149841309
 31
0.0
  0
ENDBLK
  5
    93
  8
0
  6
CONTINUOUS
 62
     7
  0
BLOCK
  5
    94
  8
0
  6
CONTINUOUS
 62
     7
  2
*HATCH163
 70
    65
 10
0.0
 20
0.0
 30
0.0
  3
*HATCH163
  0
LINE
  5
    95
  8
0
  6
CONTINUOUS
 62
     3
 10
-24.1525974273682
 20
-4.00005149841309
 30
0.0
 11
-25.3908443450928
 21
-5.23830080032349
 31
0.0
  0
LINE
  5
    96
  8
0
  6
CONTINUOUS
 62
     3
 10
-22.0312747955322
 20
-4.00005149841309
 30
0.0
 11
-24.0312747955322
 21
-6.00005149841309
 31
0.0
  0
LINE
  5
    97
  8
0
  6
CONTINUOUS
 62
     3
 10
-19.9099559783936
 20
-4.00005149841309
 30
0.0
 11
-21.9099559783936
 21
-6.00005149841309
 31
0.0
  0
LINE
  5
    98
  8
0
  6
CONTINUOUS
 62
     3
 10
-17.7886371612549
 20
-4.00005149841309
 30
0.0
 11
-19.7886371612549
 21
-6.00005149841309
 31
0.0
  0
LINE
  5
    99
  8
0
  6
CONTINUOUS
 62
     3
 10
-15.6673173904419
 20
-4.00005149841309
 30
0.0
 11
-17.6673183441162
 21
-6.00005149841309
 31
0.0
  0
LINE
  5
    9A
  8
0
  6
CONTINUOUS
 62
     3
 10
-13.5459966659546
 20
-4.00005149841309
 30
0.0
 11
-15.5459985733032
 21
-6.00005149841309
 31
0.0
  0
LINE
  5
    9B
  8
0
  6
CONTINUOUS
 62
     3
 10
-11.4246759414673
 20
-4.00005149841309
 30
0.0
 11
-13.4246778488159
 21
-6.00005149841309
 31
0.0
  0
LINE
  5
    9C
  8
0
  6
CONTINUOUS
 62
     3
 10
-9.30335521697998
 20
-4.00005149841309
 30
0.0
 11
-11.3033571243286
 21
-6.00005149841309
 31
0.0
  0
LINE
  5
    9D
  8
0
  6
CONTINUOUS
 62
     3
 10
-7.18203449249268
 20
-4.00005149841309
 30
0.0
 11
-9.18203639984131
 21
-6.00005149841309
 31
0.0
  0
LINE
  5
    9E
  8
0
  6
CONTINUOUS
 62
     3
 10
-5.06071376800537
 20
-4.00005149841309
 30
0.0
 11
-7.060715675354
 21
-6.00005149841309
 31
0.0
  0
LINE
  5
    9F
  8
0
  6
CONTINUOUS
 62
     3
 10
-2.93939328193665
 20
-4.00005149841309
 30
0.0
 11
-4.9393949508667
 21
-6.00005149841309
 31
0.0
  0
LINE
  5
    A0
  8
0
  6
CONTINUOUS
 62
     3
 10
-0.818073034286499
 20
-4.00005149841309
 30
0.0
 11
-2.81807422637939
 21
-6.00005149841309
 31
0.0
  0
LINE
  5
    A1
  8
0
  6
CONTINUOUS
 62
     3
 10
1.30324721336365
 20
-4.00005149841309
 30
0.0
 11
-0.696753740310669
 21
-6.00005149841309
 31
0.0
  0
LINE
  5
    A2
  8
0
  6
CONTINUOUS
 62
     3
 10
3.42456746101379
 20
-4.00005149841309
 30
0.0
 11
1.42456674575806
 21
-6.00005149841309
 31
0.0
  0
LINE
  5
    A3
  8
0
  6
CONTINUOUS
 62
     3
 10
5.54588794708252
 20
-4.00005149841309
 30
0.0
 11
3.54588747024536
 21
-6.00005149841309
 31
0.0
  0
LINE
  5
    A4
  8
0
  6
CONTINUOUS
 62
     3
 10
7.66720867156982
 20
-4.00005149841309
 30
0.0
 11
5.66720819473267
 21
-6.00005149841309
 31
0.0
  0
LINE
  5
    A5
  8
0
  6
CONTINUOUS
 62
     3
 10
9.78852939605713
 20
-4.00005149841309
 30
0.0
 11
7.78852891921997
 21
-6.00005149841309
 31
0.0
  0
LINE
  5
    A6
  8
0
  6
CONTINUOUS
 62
     3
 10
11.9098501205444
 20
-4.00005149841309
 30
0.0
 11
9.90984916687012
 21
-6.00005149841309
 31
0.0
  0
LINE
  5
    A7
  8
0
  6
CONTINUOUS
 62
     3
 10
14.0311708450317
 20
-4.00005149841309
 30
0.0
 11
12.0311698913574
 21
-6.00005149841309
 31
0.0
  0
LINE
  5
    A8
  8
0
  6
CONTINUOUS
 62
     3
 10
16.1524906158447
 20
-4.00005149841309
 30
0.0
 11
14.1524906158447
 21
-6.00005149841309
 31
0.0
  0
LINE
  5
    A9
  8
0
  6
CONTINUOUS
 62
     3
 10
18.2738094329834
 20
-4.00005149841309
 30
0.0
 11
16.273811340332
 21
-6.00005149841309
 31
0.0
  0
LINE
  5
    AA
  8
0
  6
CONTINUOUS
 62
     3
 10
20.3951282501221
 20
-4.00005149841309
 30
0.0
 11
18.3951301574707
 21
-6.00005149841309
 31
0.0
  0
LINE
  5
    AB
  8
0
  6
CONTINUOUS
 62
     3
 10
22.5164470672607
 20
-4.00005149841309
 30
0.0
 11
20.5164489746094
 21
-6.00005149841309
 31
0.0
  0
LINE
  5
    AC
  8
0
  6
CONTINUOUS
 62
     3
 10
24.6377658843994
 20
-4.00005149841309
 30
0.0
 11
22.637767791748
 21
-6.00005149841309
 31
0.0
  0
LINE
  5
    AD
  8
0
  6
CONTINUOUS
 62
     3
 10
26.7590847015381
 20
-4.00005149841309
 30
0.0
 11
24.7590866088867
 21
-6.00005149841309
 31
0.0
  0
LINE
  5
    AE
  8
0
  6
CONTINUOUS
 62
     3
 10
28.8804035186768
 20
-4.00005149841309
 30
0.0
 11
26.8804054260254
 21
-6.00005149841309
 31
0.0
  0
LINE
  5
    AF
  8
0
  6
CONTINUOUS
 62
     3
 10
31.0017223358154
 20
-4.00005149841309
 30
0.0
 11
29.0017242431641
 21
-6.00005149841309
 31
0.0
  0
LINE
  5
    B0
  8
0
  6
CONTINUOUS
 62
     3
 10
33.1230430603027
 20
-4.00005149841309
 30
0.0
 11
31.1230430603027
 21
-6.00005149841309
 31
0.0
  0
LINE
  5
    B1
  8
0
  6
CONTINUOUS
 62
     3
 10
35.2443656921387
 20
-4.00005149841309
 30
0.0
 11
33.2443656921387
 21
-6.00005149841309
 31
0.0
  0
LINE
  5
    B2
  8
0
  6
CONTINUOUS
 62
     3
 10
35.4806251525879
 20
-5.88512229919434
 30
0.0
 11
35.3656959533691
 21
-6.00005149841309
 31
0.0
  0
ENDBLK
  5
    B3
  8
0
  6
CONTINUOUS
 62
     7
  0
BLOCK
  5
    B4
  8
0
  6
CONTINUOUS
 62
     7
  2
*HATCH164
 70
    65
 10
0.0
 20
0.0
 30
0.0
  3
*HATCH164
  0
LINE
  5
    B5
  8
0
  6
CONTINUOUS
 62
     3
 10
185.858123779297
 20
-4.00005149841309
 30
0.0
 11
184.480621337891
 21
-5.37755584716797
 31
0.0
  0
LINE
  5
    B6
  8
0
  6
CONTINUOUS
 62
     3
 10
187.979446411133
 20
-4.00005149841309
 30
0.0
 11
185.979446411133
 21
-6.00005149841309
 31
0.0
  0
LINE
  5
    B7
  8
0
  6
CONTINUOUS
 62
     3
 10
190.10075378418
 20
-4.00005149841309
 30
0.0
 11
188.10075378418
 21
-6.00005149841309
 31
0.0
  0
LINE
  5
    B8
  8
0
  6
CONTINUOUS
 62
     3
 10
192.222061157227
 20
-4.00005149841309
 30
0.0
 11
190.222061157227
 21
-6.00005149841309
 31
0.0
  0
LINE
  5
    B9
  8
0
  6
CONTINUOUS
 62
     3
 10
194.343368530273
 20
-4.00005149841309
 30
0.0
 11
192.343368530273
 21
-6.00005149841309
 31
0.0
  0
LINE
  5
    BA
  8
0
  6
CONTINUOUS
 62
     3
 10
196.46467590332
 20
-4.00005149841309
 30
0.0
 11
194.46467590332
 21
-6.00005149841309
 31
0.0
  0
LINE
  5
    BB
  8
0
  6
CONTINUOUS
 62
     3
 10
198.585983276367
 20
-4.00005149841309
 30
0.0
 11
196.585983276367
 21
-6.00005149841309
 31
0.0
  0
LINE
  5
    BC
  8
0
  6
CONTINUOUS
 62
     3
 10
200.707290649414
 20
-4.00005149841309
 30
0.0
 11
198.707290649414
 21
-6.00005149841309
 31
0.0
  0
LINE
  5
    BD
  8
0
  6
CONTINUOUS
 62
     3
 10
202.828598022461
 20
-4.00005149841309
 30
0.0
 11
200.828598022461
 21
-6.00005149841309
 31
0.0
  0
LINE
  5
    BE
  8
0
  6
CONTINUOUS
 62
     3
 10
204.949905395508
 20
-4.00005149841309
 30
0.0
 11
202.949905395508
 21
-6.00005149841309
 31
0.0
  0
LINE
  5
    BF
  8
0
  6
CONTINUOUS
 62
     3
 10
207.071212768555
 20
-4.00005149841309
 30
0.0
 11
205.071212768555
 21
-6.00005149841309
 31
0.0
  0
LINE
  5
    C0
  8
0
  6
CONTINUOUS
 62
     3
 10
209.192520141602
 20
-4.00005149841309
 30
0.0
 11
207.192520141602
 21
-6.00005149841309
 31
0.0
  0
LINE
  5
    C1
  8
0
  6
CONTINUOUS
 62
     3
 10
211.313827514648
 20
-4.00005149841309
 30
0.0
 11
209.313827514648
 21
-6.00005149841309
 31
0.0
  0
LINE
  5
    C2
  8
0
  6
CONTINUOUS
 62
     3
 10
213.435134887695
 20
-4.00005149841309
 30
0.0
 11
211.435134887695
 21
-6.00005149841309
 31
0.0
  0
LINE
  5
    C3
  8
0
  6
CONTINUOUS
 62
     3
 10
215.556442260742
 20
-4.00005149841309
 30
0.0
 11
213.556442260742
 21
-6.00005149841309
 31
0.0
  0
LINE
  5
    C4
  8
0
  6
CONTINUOUS
 62
     3
 10
217.677749633789
 20
-4.00005149841309
 30
0.0
 11
215.677749633789
 21
-6.00005149841309
 31
0.0
  0
LINE
  5
    C5
  8
0
  6
CONTINUOUS
 62
     3
 10
219.799057006836
 20
-4.00005149841309
 30
0.0
 11
217.799057006836
 21
-6.00005149841309
 31
0.0
  0
LINE
  5
    C6
  8
0
  6
CONTINUOUS
 62
     3
 10
221.920364379883
 20
-4.00005149841309
 30
0.0
 11
219.920364379883
 21
-6.00005149841309
 31
0.0
  0
LINE
  5
    C7
  8
0
  6
CONTINUOUS
 62
     3
 10
224.04167175293
 20
-4.00005149841309
 30
0.0
 11
222.04167175293
 21
-6.00005149841309
 31
0.0
  0
LINE
  5
    C8
  8
0
  6
CONTINUOUS
 62
     3
 10
226.162979125977
 20
-4.00005149841309
 30
0.0
 11
224.162979125977
 21
-6.00005149841309
 31
0.0
  0
LINE
  5
    C9
  8
0
  6
CONTINUOUS
 62
     3
 10
228.284286499023
 20
-4.00005149841309
 30
0.0
 11
226.284286499023
 21
-6.00005149841309
 31
0.0
  0
LINE
  5
    CA
  8
0
  6
CONTINUOUS
 62
     3
 10
230.40559387207
 20
-4.00005149841309
 30
0.0
 11
228.40559387207
 21
-6.00005149841309
 31
0.0
  0
LINE
  5
    CB
  8
0
  6
CONTINUOUS
 62
     3
 10
232.526901245117
 20
-4.00005149841309
 30
0.0
 11
230.526901245117
 21
-6.00005149841309
 31
0.0
  0
LINE
  5
    CC
  8
0
  6
CONTINUOUS
 62
     3
 10
234.648208618164
 20
-4.00005149841309
 30
0.0
 11
232.648208618164
 21
-6.00005149841309
 31
0.0
  0
LINE
  5
    CD
  8
0
  6
CONTINUOUS
 62
     3
 10
236.769515991211
 20
-4.00005149841309
 30
0.0
 11
234.769515991211
 21
-6.00005149841309
 31
0.0
  0
LINE
  5
    CE
  8
0
  6
CONTINUOUS
 62
     3
 10
238.890823364258
 20
-4.00005149841309
 30
0.0
 11
236.890823364258
 21
-6.00005149841309
 31
0.0
  0
LINE
  5
    CF
  8
0
  6
CONTINUOUS
 62
     3
 10
241.012130737305
 20
-4.00005149841309
 30
0.0
 11
239.012130737305
 21
-6.00005149841309
 31
0.0
  0
LINE
  5
    D0
  8
0
  6
CONTINUOUS
 62
     3
 10
243.133438110352
 20
-4.00005149841309
 30
0.0
 11
241.133438110352
 21
-6.00005149841309
 31
0.0
  0
LINE
  5
    D1
  8
0
  6
CONTINUOUS
 62
     3
 10
245.254745483398
 20
-4.00005149841309
 30
0.0
 11
243.254745483398
 21
-6.00005149841309
 31
0.0
  0
LINE
  5
    D2
  8
0
  6
CONTINUOUS
 62
     3
 10
247.376052856445
 20
-4.00005149841309
 30
0.0
 11
245.376052856445
 21
-6.00005149841309
 31
0.0
  0
LINE
  5
    D3
  8
0
  6
CONTINUOUS
 62
     3
 10
249.497360229492
 20
-4.00005149841309
 30
0.0
 11
247.497360229492
 21
-6.00005149841309
 31
0.0
  0
LINE
  5
    D4
  8
0
  6
CONTINUOUS
 62
     3
 10
251.618667602539
 20
-4.00005149841309
 30
0.0
 11
249.618667602539
 21
-6.00005149841309
 31
0.0
  0
LINE
  5
    D5
  8
0
  6
CONTINUOUS
 62
     3
 10
253.739974975586
 20
-4.00005149841309
 30
0.0
 11
251.739974975586
 21
-6.00005149841309
 31
0.0
  0
LINE
  5
    D6
  8
0
  6
CONTINUOUS
 62
     3
 10
255.861282348633
 20
-4.00005149841309
 30
0.0
 11
253.861282348633
 21
-6.00005149841309
 31
0.0
  0
LINE
  5
    D7
  8
0
  6
CONTINUOUS
 62
     3
 10
257.982604980469
 20
-4.00005149841309
 30
0.0
 11
255.98258972168
 21
-6.00005149841309
 31
0.0
  0
LINE
  5
    D8
  8
0
  6
CONTINUOUS
 62
     3
 10
260.103942871094
 20
-4.00005149841309
 30
0.0
 11
258.103912353516
 21
-6.00005149841309
 31
0.0
  0
LINE
  5
    D9
  8
0
  6
CONTINUOUS
 62
     3
 10
262.225280761719
 20
-4.00005149841309
 30
0.0
 11
260.225250244141
 21
-6.00005149841309
 31
0.0
  0
LINE
  5
    DA
  8
0
  6
CONTINUOUS
 62
     3
 10
264.346618652344
 20
-4.00005149841309
 30
0.0
 11
262.346588134766
 21
-6.00005149841309
 31
0.0
  0
LINE
  5
    DB
  8
0
  6
CONTINUOUS
 62
     3
 10
266.467956542969
 20
-4.00005149841309
 30
0.0
 11
264.467926025391
 21
-6.00005149841309
 31
0.0
  0
LINE
  5
    DC
  8
0
  6
CONTINUOUS
 62
     3
 10
268.589294433594
 20
-4.00005149841309
 30
0.0
 11
266.589263916016
 21
-6.00005149841309
 31
0.0
  0
LINE
  5
    DD
  8
0
  6
CONTINUOUS
 62
     3
 10
270.710632324219
 20
-4.00005149841309
 30
0.0
 11
268.710601806641
 21
-6.00005149841309
 31
0.0
  0
LINE
  5
    DE
  8
0
  6
CONTINUOUS
 62
     3
 10
272.831970214844
 20
-4.00005149841309
 30
0.0
 11
270.831939697266
 21
-6.00005149841309
 31
0.0
  0
LINE
  5
    DF
  8
0
  6
CONTINUOUS
 62
     3
 10
274.953308105469
 20
-4.00005149841309
 30
0.0
 11
272.953277587891
 21
-6.00005149841309
 31
0.0
  0
LINE
  5
    E0
  8
0
  6
CONTINUOUS
 62
     3
 10
277.074645996094
 20
-4.00005149841309
 30
0.0
 11
275.074615478516
 21
-6.00005149841309
 31
0.0
  0
LINE
  5
    E1
  8
0
  6
CONTINUOUS
 62
     3
 10
279.195983886719
 20
-4.00005149841309
 30
0.0
 11
277.195953369141
 21
-6.00005149841309
 31
0.0
  0
LINE
  5
    E2
  8
0
  6
CONTINUOUS
 62
     3
 10
281.317321777344
 20
-4.00005149841309
 30
0.0
 11
279.317291259766
 21
-6.00005149841309
 31
0.0
  0
LINE
  5
    E3
  8
0
  6
CONTINUOUS
 62
     3
 10
283.438659667969
 20
-4.00005149841309
 30
0.0
 11
281.438629150391
 21
-6.00005149841309
 31
0.0
  0
LINE
  5
    E4
  8
0
  6
CONTINUOUS
 62
     3
 10
285.559997558594
 20
-4.00005149841309
 30
0.0
 11
283.559967041016
 21
-6.00005149841309
 31
0.0
  0
LINE
  5
    E5
  8
0
  6
CONTINUOUS
 62
     3
 10
287.681335449219
 20
-4.00005149841309
 30
0.0
 11
285.681304931641
 21
-6.00005149841309
 31
0.0
  0
LINE
  5
    E6
  8
0
  6
CONTINUOUS
 62
     3
 10
289.802673339844
 20
-4.00005149841309
 30
0.0
 11
287.802642822266
 21
-6.00005149841309
 31
0.0
  0
LINE
  5
    E7
  8
0
  6
CONTINUOUS
 62
     3
 10
291.924011230469
 20
-4.00005149841309
 30
0.0
 11
289.923980712891
 21
-6.00005149841309
 31
0.0
  0
LINE
  5
    E8
  8
0
  6
CONTINUOUS
 62
     3
 10
294.045349121094
 20
-4.00005149841309
 30
0.0
 11
292.045318603516
 21
-6.00005149841309
 31
0.0
  0
LINE
  5
    E9
  8
0
  6
CONTINUOUS
 62
     3
 10
296.166687011719
 20
-4.00005149841309
 30
0.0
 11
294.166656494141
 21
-6.00005149841309
 31
0.0
  0
LINE
  5
    EA
  8
0
  6
CONTINUOUS
 62
     3
 10
298.288024902344
 20
-4.00005149841309
 30
0.0
 11
296.287994384766
 21
-6.00005149841309
 31
0.0
  0
LINE
  5
    EB
  8
0
  6
CONTINUOUS
 62
     3
 10
300.409362792969
 20
-4.00005149841309
 30
0.0
 11
298.409332275391
 21
-6.00005149841309
 31
0.0
  0
LINE
  5
    EC
  8
0
  6
CONTINUOUS
 62
     3
 10
302.530700683594
 20
-4.00005149841309
 30
0.0
 11
300.530670166016
 21
-6.00005149841309
 31
0.0
  0
LINE
  5
    ED
  8
0
  6
CONTINUOUS
 62
     3
 10
304.652038574219
 20
-4.00005149841309
 30
0.0
 11
302.652008056641
 21
-6.00005149841309
 31
0.0
  0
LINE
  5
    EE
  8
0
  6
CONTINUOUS
 62
     3
 10
306.773376464844
 20
-4.00005149841309
 30
0.0
 11
304.773345947266
 21
-6.00005149841309
 31
0.0
  0
LINE
  5
    EF
  8
0
  6
CONTINUOUS
 62
     3
 10
308.894714355469
 20
-4.00005149841309
 30
0.0
 11
306.894683837891
 21
-6.00005149841309
 31
0.0
  0
LINE
  5
    F0
  8
0
  6
CONTINUOUS
 62
     3
 10
311.016052246094
 20
-4.00005149841309
 30
0.0
 11
309.016021728516
 21
-6.00005149841309
 31
0.0
  0
LINE
  5
    F1
  8
0
  6
CONTINUOUS
 62
     3
 10
313.137390136719
 20
-4.00005149841309
 30
0.0
 11
311.137359619141
 21
-6.00005149841309
 31
0.0
  0
LINE
  5
    F2
  8
0
  6
CONTINUOUS
 62
     3
 10
315.258728027344
 20
-4.00005149841309
 30
0.0
 11
313.258697509766
 21
-6.00005149841309
 31
0.0
  0
LINE
  5
    F3
  8
0
  6
CONTINUOUS
 62
     3
 10
317.380065917969
 20
-4.00005149841309
 30
0.0
 11
315.380035400391
 21
-6.00005149841309
 31
0.0
  0
LINE
  5
    F4
  8
0
  6
CONTINUOUS
 62
     3
 10
319.501403808594
 20
-4.00005149841309
 30
0.0
 11
317.501373291016
 21
-6.00005149841309
 31
0.0
  0
LINE
  5
    F5
  8
0
  6
CONTINUOUS
 62
     3
 10
321.622741699219
 20
-4.00005149841309
 30
0.0
 11
319.622711181641
 21
-6.00005149841309
 31
0.0
  0
LINE
  5
    F6
  8
0
  6
CONTINUOUS
 62
     3
 10
323.744079589844
 20
-4.00005149841309
 30
0.0
 11
321.744049072266
 21
-6.00005149841309
 31
0.0
  0
LINE
  5
    F7
  8
0
  6
CONTINUOUS
 62
     3
 10
325.865417480469
 20
-4.00005149841309
 30
0.0
 11
323.865386962891
 21
-6.00005149841309
 31
0.0
  0
LINE
  5
    F8
  8
0
  6
CONTINUOUS
 62
     3
 10
327.986755371094
 20
-4.00005149841309
 30
0.0
 11
325.986724853516
 21
-6.00005149841309
 31
0.0
  0
LINE
  5
    F9
  8
0
  6
CONTINUOUS
 62
     3
 10
330.108093261719
 20
-4.00005149841309
 30
0.0
 11
328.108062744141
 21
-6.00005149841309
 31
0.0
  0
LINE
  5
    FA
  8
0
  6
CONTINUOUS
 62
     3
 10
332.229431152344
 20
-4.00005149841309
 30
0.0
 11
330.229400634766
 21
-6.00005149841309
 31
0.0
  0
LINE
  5
    FB
  8
0
  6
CONTINUOUS
 62
     3
 10
333.858581542969
 20
-4.49203109741211
 30
0.0
 11
332.350555419922
 21
-6.00005149841309
 31
0.0
  0
LINE
  5
    FC
  8
0
  6
CONTINUOUS
 62
     3
 10
334.601745605469
 20
-5.87021350860596
 30
0.0
 11
334.471893310547
 21
-6.00005149841309
 31
0.0
  0
ENDBLK
  5
    FD
  8
0
  6
CONTINUOUS
 62
     7
  0
BLOCK
  5
    FE
  8
0
  6
CONTINUOUS
 62
     7
  2
*HATCH165
 70
    65
 10
0.0
 20
0.0
 30
0.0
  3
*HATCH165
  0
LINE
  5
    FF
  8
0
  6
CONTINUOUS
 62
   210
 10
-10.7629547119141
 20
80.7665863037109
 30
0.0
 11
-7.99633836746216
 21
77.9999618530274
 31
0.0
  0
LINE
  5
   100
  8
0
  6
CONTINUOUS
 62
   210
 10
-8.75369358062744
 20
82.9999618530274
 30
0.0
 11
-4.76300573348999
 21
79.0092697143555
 31
0.0
  0
ENDBLK
  5
   101
  8
0
  6
CONTINUOUS
 62
     7
  0
BLOCK
  5
   102
  8
0
  6
CONTINUOUS
 62
     7
  2
*HATCH166
 70
    65
 10
0.0
 20
0.0
 30
0.0
  3
*HATCH166
  0
LINE
  5
   103
  8
0
  6
CONTINUOUS
 62
   210
 10
3.23699402809143
 20
81.6158676147461
 30
0.0
 11
6.8528938293457
 21
77.9999618530274
 31
0.0
  0
LINE
  5
   104
  8
0
  6
CONTINUOUS
 62
   210
 10
6.09554004669189
 20
82.9999618530274
 30
0.0
 11
11.095531463623
 21
77.9999618530274
 31
0.0
  0
LINE
  5
   105
  8
0
  6
CONTINUOUS
 62
   210
 10
10.3381776809692
 20
82.9999618530274
 30
0.0
 11
15.3381690979004
 21
77.9999618530274
 31
0.0
  0
LINE
  5
   106
  8
0
  6
CONTINUOUS
 62
   210
 10
14.5808153152466
 20
82.9999618530274
 30
0.0
 11
19.5808067321777
 21
77.9999618530274
 31
0.0
  0
LINE
  5
   107
  8
0
  6
CONTINUOUS
 62
   210
 10
18.8234539031982
 20
82.9999618530274
 30
0.0
 11
19.7282676696777
 21
82.0951461791992
 31
0.0
  0
ENDBLK
  5
   108
  8
0
  6
CONTINUOUS
 62
     7
  0
BLOCK
  5
   109
  8
0
  6
CONTINUOUS
 62
     7
  2
*HATCH167
 70
    65
 10
0.0
 20
0.0
 30
0.0
  3
*HATCH167
  0
LINE
  5
   10A
  8
0
  6
CONTINUOUS
 62
     3
 10
17.0864696502686
 20
102.999938964844
 30
0.0
 11
15.2370948791504
 21
101.150566101074
 31
0.0
  0
LINE
  5
   10B
  8
0
  6
CONTINUOUS
 62
     3
 10
18.1471290588379
 20
102.999938964844
 30
0.0
 11
14.2369937896729
 21
99.0898056030274
 31
0.0
  0
LINE
  5
   10C
  8
0
  6
CONTINUOUS
 62
     3
 10
18.2369937896729
 20
100.968482971191
 30
0.0
 11
14.2369937896729
 21
96.9684829711914
 31
0.0
  0
LINE
  5
   10D
  8
0
  6
CONTINUOUS
 62
     3
 10
18.2369937896729
 20
98.8471603393555
 30
0.0
 11
14.2369937896729
 21
94.8471603393555
 31
0.0
  0
LINE
  5
   10E
  8
0
  6
CONTINUOUS
 62
     3
 10
18.2369937896729
 20
96.7258377075195
 30
0.0
 11
14.2369937896729
 21
92.7258377075195
 31
0.0
  0
LINE
  5
   10F
  8
0
  6
CONTINUOUS
 62
     3
 10
18.2369937896729
 20
94.6045150756836
 30
0.0
 11
14.2369937896729
 21
90.6045150756836
 31
0.0
  0
LINE
  5
   110
  8
0
  6
CONTINUOUS
 62
     3
 10
18.2369937896729
 20
92.4831924438477
 30
0.0
 11
14.2369937896729
 21
88.4831924438477
 31
0.0
  0
LINE
  5
   111
  8
0
  6
CONTINUOUS
 62
     3
 10
18.2369937896729
 20
90.3618698120117
 30
0.0
 11
14.2369937896729
 21
86.3618698120117
 31
0.0
  0
LINE
  5
   112
  8
0
  6
CONTINUOUS
 62
     3
 10
18.2369937896729
 20
88.2405471801758
 30
0.0
 11
14.2369937896729
 21
84.2405471801758
 31
0.0
  0
LINE
  5
   113
  8
0
  6
CONTINUOUS
 62
     3
 10
18.2369937896729
 20
86.1192398071289
 30
0.0
 11
15.117714881897
 21
82.9999618530274
 31
0.0
  0
LINE
  5
   114
  8
0
  6
CONTINUOUS
 62
     3
 10
18.2369937896729
 20
83.997917175293
 30
0.0
 11
17.23903465271
 21
82.9999618530274
 31
0.0
  0
ENDBLK
  5
   115
  8
0
  6
CONTINUOUS
 62
     7
  0
BLOCK
  5
   116
  8
0
  6
CONTINUOUS
 62
     7
  2
*HATCH168
 70
    65
 10
0.0
 20
0.0
 30
0.0
  3
*HATCH168
  0
LINE
  5
   117
  8
0
  6
CONTINUOUS
 62
     3
 10
12.2390375137329
 20
77.9999618530274
 30
0.0
 11
10.2369937896729
 21
75.997917175293
 31
0.0
  0
LINE
  5
   118
  8
0
  6
CONTINUOUS
 62
     3
 10
14.2369937896729
 20
77.8766021728516
 30
0.0
 11
10.2369937896729
 21
73.8766021728516
 31
0.0
  0
LINE
  5
   119
  8
0
  6
CONTINUOUS
 62
     3
 10
14.2369937896729
 20
75.7552795410156
 30
0.0
 11
10.2369937896729
 21
71.7552795410156
 31
0.0
  0
LINE
  5
   11A
  8
0
  6
CONTINUOUS
 62
     3
 10
14.2369937896729
 20
73.6339569091797
 30
0.0
 11
10.2369937896729
 21
69.6339569091797
 31
0.0
  0
LINE
  5
   11B
  8
0
  6
CONTINUOUS
 62
     3
 10
14.2369937896729
 20
71.5126342773438
 30
0.0
 11
10.2369937896729
 21
67.5126342773438
 31
0.0
  0
LINE
  5
   11C
  8
0
  6
CONTINUOUS
 62
     3
 10
14.2369937896729
 20
69.3913116455078
 30
0.0
 11
10.2369937896729
 21
65.3913116455078
 31
0.0
  0
LINE
  5
   11D
  8
0
  6
CONTINUOUS
 62
     3
 10
14.2369937896729
 20
67.2699890136719
 30
0.0
 11
10.2369937896729
 21
63.2699890136719
 31
0.0
  0
LINE
  5
   11E
  8
0
  6
CONTINUOUS
 62
     3
 10
14.2369937896729
 20
65.148681640625
 30
0.0
 11
10.8553380966187
 21
61.7670249938965
 31
0.0
  0
LINE
  5
   11F
  8
0
  6
CONTINUOUS
 62
     3
 10
14.2369937896729
 20
63.0273590087891
 30
0.0
 11
13.7800302505493
 21
62.5703964233398
 31
0.0
  0
ENDBLK
  5
   120
  8
0
  6
CONTINUOUS
 62
     7
  0
BLOCK
  5
   121
  8
0
  6
CONTINUOUS
 62
     7
  2
*HATCH169
 70
    65
 10
0.0
 20
0.0
 30
0.0
  3
*HATCH169
  0
LINE
  5
   122
  8
0
  6
CONTINUOUS
 62
     3
 10
320.237060546875
 20
37.5587959289551
 30
0.0
 11
322.382019042969
 21
35.4138374328613
 31
0.0
  0
LINE
  5
   123
  8
0
  6
CONTINUOUS
 62
     3
 10
320.237060546875
 20
39.680118560791
 30
0.0
 11
322.737060546875
 21
37.1801147460938
 31
0.0
  0
LINE
  5
   124
  8
0
  6
CONTINUOUS
 62
     3
 10
320.237060546875
 20
41.801441192627
 30
0.0
 11
322.737060546875
 21
39.3014373779297
 31
0.0
  0
LINE
  5
   125
  8
0
  6
CONTINUOUS
 62
     3
 10
320.237060546875
 20
43.9227638244629
 30
0.0
 11
322.737060546875
 21
41.4227600097656
 31
0.0
  0
LINE
  5
   126
  8
0
  6
CONTINUOUS
 62
     3
 10
320.237060546875
 20
46.0440864562988
 30
0.0
 11
322.737060546875
 21
43.5440826416016
 31
0.0
  0
LINE
  5
   127
  8
0
  6
CONTINUOUS
 62
     3
 10
320.237060546875
 20
48.1654090881348
 30
0.0
 11
322.737060546875
 21
45.6654052734375
 31
0.0
  0
LINE
  5
   128
  8
0
  6
CONTINUOUS
 62
     3
 10
320.237060546875
 20
50.2867317199707
 30
0.0
 11
322.737060546875
 21
47.7867279052734
 31
0.0
  0
LINE
  5
   129
  8
0
  6
CONTINUOUS
 62
     3
 10
320.237060546875
 20
52.4080543518066
 30
0.0
 11
322.737060546875
 21
49.9080505371094
 31
0.0
  0
LINE
  5
   12A
  8
0
  6
CONTINUOUS
 62
     3
 10
320.237060546875
 20
54.5293769836426
 30
0.0
 11
322.737060546875
 21
52.0293731689453
 31
0.0
  0
LINE
  5
   12B
  8
0
  6
CONTINUOUS
 62
     3
 10
320.237060546875
 20
56.6506996154785
 30
0.0
 11
322.737060546875
 21
54.1506958007813
 31
0.0
  0
LINE
  5
   12C
  8
0
  6
CONTINUOUS
 62
     3
 10
320.237060546875
 20
58.7720222473145
 30
0.0
 11
322.737060546875
 21
56.2720184326172
 31
0.0
  0
LINE
  5
   12D
  8
0
  6
CONTINUOUS
 62
     3
 10
320.237060546875
 20
60.8933448791504
 30
0.0
 11
322.737060546875
 21
58.3933410644531
 31
0.0
  0
LINE
  5
   12E
  8
0
  6
CONTINUOUS
 62
     3
 10
320.237060546875
 20
63.0146675109863
 30
0.0
 11
322.737060546875
 21
60.5146636962891
 31
0.0
  0
LINE
  5
   12F
  8
0
  6
CONTINUOUS
 62
     3
 10
320.237060546875
 20
65.135986328125
 30
0.0
 11
322.737060546875
 21
62.635986328125
 31
0.0
  0
LINE
  5
   130
  8
0
  6
CONTINUOUS
 62
     3
 10
320.237060546875
 20
67.2573089599609
 30
0.0
 11
322.737060546875
 21
64.7573089599609
 31
0.0
  0
LINE
  5
   131
  8
0
  6
CONTINUOUS
 62
     3
 10
320.237060546875
 20
69.3786315917969
 30
0.0
 11
322.737060546875
 21
66.8786315917969
 31
0.0
  0
LINE
  5
   132
  8
0
  6
CONTINUOUS
 62
     3
 10
320.237060546875
 20
71.4999542236328
 30
0.0
 11
322.737060546875
 21
68.9999542236328
 31
0.0
  0
LINE
  5
   133
  8
0
  6
CONTINUOUS
 62
     3
 10
322.3583984375
 20
71.4999389648438
 30
0.0
 11
322.737060546875
 21
71.1212768554688
 31
0.0
  0
ENDBLK
  5
   134
  8
0
  6
CONTINUOUS
 62
     7
  0
BLOCK
  5
   135
  8
0
  6
CONTINUOUS
 62
     7
  2
*HATCH170
 70
    65
 10
0.0
 20
0.0
 30
0.0
  3
*HATCH170
  0
LINE
  5
   136
  8
0
  6
CONTINUOUS
 62
   210
 10
297.253295898438
 20
82.9999389648438
 30
0.0
 11
294.995452880859
 21
80.742073059082
 31
0.0
  0
LINE
  5
   137
  8
0
  6
CONTINUOUS
 62
   210
 10
301.495941162109
 20
82.9999389648438
 30
0.0
 11
297.495941162109
 21
78.9999389648438
 31
0.0
  0
LINE
  5
   138
  8
0
  6
CONTINUOUS
 62
   210
 10
302.537048339844
 20
79.7983932495117
 30
0.0
 11
301.738586425781
 21
78.9999389648438
 31
0.0
  0
ENDBLK
  5
   139
  8
0
  6
CONTINUOUS
 62
     7
  0
BLOCK
  5
   13A
  8
0
  6
CONTINUOUS
 62
     7
  2
*HATCH171
 70
    65
 10
0.0
 20
0.0
 30
0.0
  3
*HATCH171
  0
LINE
  5
   13B
  8
0
  6
CONTINUOUS
 62
     3
 10
-21.2629413604736
 20
54.4970092773438
 30
0.0
 11
-20.0450592041016
 21
53.279125213623
 31
0.0
  0
LINE
  5
   13C
  8
0
  6
CONTINUOUS
 62
     3
 10
-21.2629413604736
 20
56.6183280944824
 30
0.0
 11
-18.7629413604736
 21
54.1183242797852
 31
0.0
  0
LINE
  5
   13D
  8
0
  6
CONTINUOUS
 62
     3
 10
-21.2629413604736
 20
58.7396507263184
 30
0.0
 11
-18.7629413604736
 21
56.2396469116211
 31
0.0
  0
LINE
  5
   13E
  8
0
  6
CONTINUOUS
 62
     3
 10
-21.2629413604736
 20
60.8609733581543
 30
0.0
 11
-18.7629413604736
 21
58.360969543457
 31
0.0
  0
LINE
  5
   13F
  8
0
  6
CONTINUOUS
 62
     3
 10
-21.2629413604736
 20
62.9822959899902
 30
0.0
 11
-18.7629413604736
 21
60.482292175293
 31
0.0
  0
LINE
  5
   140
  8
0
  6
CONTINUOUS
 62
     3
 10
-21.2629413604736
 20
65.1036148071289
 30
0.0
 11
-18.7629413604736
 21
62.6036148071289
 31
0.0
  0
LINE
  5
   141
  8
0
  6
CONTINUOUS
 62
     3
 10
-21.2629413604736
 20
67.2249374389648
 30
0.0
 11
-18.7629413604736
 21
64.7249374389648
 31
0.0
  0
LINE
  5
   142
  8
0
  6
CONTINUOUS
 62
     3
 10
-21.2629413604736
 20
69.3462600708008
 30
0.0
 11
-18.7629413604736
 21
66.8462600708008
 31
0.0
  0
LINE
  5
   143
  8
0
  6
CONTINUOUS
 62
     3
 10
-21.2629413604736
 20
71.4675827026367
 30
0.0
 11
-18.7629413604736
 21
68.9675827026367
 31
0.0
  0
LINE
  5
   144
  8
0
  6
CONTINUOUS
 62
     3
 10
-19.1739807128906
 20
71.4999389648438
 30
0.0
 11
-18.7629413604736
 21
71.0888977050781
 31
0.0
  0
ENDBLK
  5
   145
  8
0
  6
CONTINUOUS
 62
     7
  0
BLOCK
  5
   146
  8
0
  6
CONTINUOUS
 62
     7
  2
*HATCH172
 70
    65
 10
0.0
 20
0.0
 30
0.0
  3
*HATCH172
  0
LINE
  5
   147
  8
0
  6
CONTINUOUS
 62
   210
 10
294.995452880859
 20
67.7501907348633
 30
0.0
 11
296.737060546875
 21
66.0085906982422
 31
0.0
  0
LINE
  5
   148
  8
0
  6
CONTINUOUS
 62
   210
 10
294.995452880859
 20
71.9928359985352
 30
0.0
 11
296.737060546875
 21
70.2512359619141
 31
0.0
  0
LINE
  5
   149
  8
0
  6
CONTINUOUS
 62
   210
 10
294.995452880859
 20
76.235481262207
 30
0.0
 11
296.737060546875
 21
74.4938812255859
 31
0.0
  0
LINE
  5
   14A
  8
0
  6
CONTINUOUS
 62
   210
 10
296.4736328125
 20
78.9999389648438
 30
0.0
 11
296.737060546875
 21
78.7365188598633
 31
0.0
  0
ENDBLK
  5
   14B
  8
0
  6
CONTINUOUS
 62
     7
  0
BLOCK
  5
   14C
  8
0
  6
CONTINUOUS
 62
     7
  2
*HATCH173
 70
    65
 10
0.0
 20
0.0
 30
0.0
  3
*HATCH173
  0
LINE
  5
   14D
  8
0
  6
CONTINUOUS
 62
   210
 10
314.223846435547
 20
82.9999389648438
 30
0.0
 11
310.937042236328
 21
79.7131118774414
 31
0.0
  0
LINE
  5
   14E
  8
0
  6
CONTINUOUS
 62
   210
 10
315.737060546875
 20
80.2704696655274
 30
0.0
 11
313.466491699219
 21
77.9999389648438
 31
0.0
  0
ENDBLK
  5
   14F
  8
0
  6
CONTINUOUS
 62
     7
  0
BLOCK
  5
   150
  8
0
  6
CONTINUOUS
 62
     7
  2
*HATCH174
 70
    65
 10
0.0
 20
0.0
 30
0.0
  3
*HATCH174
  0
LINE
  5
   151
  8
0
  6
CONTINUOUS
 62
   210
 10
23.0000019073486
 20
74.5807647705078
 30
0.0
 11
23.5807666778564
 21
74.0
 31
0.0
  0
LINE
  5
   152
  8
0
  6
CONTINUOUS
 62
   210
 10
23.0000019073486
 20
76.7020874023438
 30
0.0
 11
25.7020854949951
 21
74.0
 31
0.0
  0
LINE
  5
   153
  8
0
  6
CONTINUOUS
 62
   210
 10
23.0000019073486
 20
78.8234100341797
 30
0.0
 11
27.8234043121338
 21
74.0
 31
0.0
  0
LINE
  5
   154
  8
0
  6
CONTINUOUS
 62
   210
 10
24.194730758667
 20
79.75
 30
0.0
 11
28.0000019073486
 21
75.9447250366211
 31
0.0
  0
LINE
  5
   155
  8
0
  6
CONTINUOUS
 62
   210
 10
26.3160495758057
 20
79.75
 30
0.0
 11
28.0000019073486
 21
78.066047668457
 31
0.0
  0
ENDBLK
  5
   156
  8
0
  6
CONTINUOUS
 62
     7
  0
BLOCK
  5
   157
  8
0
  6
CONTINUOUS
 62
     7
  2
*HATCH175
 70
    65
 10
0.0
 20
0.0
 30
0.0
  3
*HATCH175
  0
LINE
  5
   158
  8
0
  6
CONTINUOUS
 62
   210
 10
23.0000019073486
 20
74.5807647705078
 30
0.0
 11
23.5807666778564
 21
74.0
 31
0.0
  0
LINE
  5
   159
  8
0
  6
CONTINUOUS
 62
   210
 10
23.0000019073486
 20
76.7020874023438
 30
0.0
 11
25.7020854949951
 21
74.0
 31
0.0
  0
LINE
  5
   15A
  8
0
  6
CONTINUOUS
 62
   210
 10
23.0000019073486
 20
78.8234100341797
 30
0.0
 11
27.8234043121338
 21
74.0
 31
0.0
  0
LINE
  5
   15B
  8
0
  6
CONTINUOUS
 62
   210
 10
24.194730758667
 20
79.75
 30
0.0
 11
28.0000019073486
 21
75.9447250366211
 31
0.0
  0
LINE
  5
   15C
  8
0
  6
CONTINUOUS
 62
   210
 10
26.3160495758057
 20
79.75
 30
0.0
 11
28.0000019073486
 21
78.066047668457
 31
0.0
  0
ENDBLK
  5
   15D
  8
0
  6
CONTINUOUS
 62
     7
  0
BLOCK
  5
   15E
  8
0
  6
CONTINUOUS
 62
     7
  2
*HATCH176
 70
    65
 10
0.0
 20
0.0
 30
0.0
  3
*HATCH176
  0
LINE
  5
   15F
  8
0
  6
CONTINUOUS
 62
   210
 10
23.0
 20
89.4300155639649
 30
0.0
 11
24.1800174713135
 21
88.25
 31
0.0
  0
LINE
  5
   160
  8
0
  6
CONTINUOUS
 62
   210
 10
22.9999980926514
 20
91.5513381958008
 30
0.0
 11
26.3013362884521
 21
88.25
 31
0.0
  0
LINE
  5
   161
  8
0
  6
CONTINUOUS
 62
   210
 10
22.9999961853027
 20
93.6726684570313
 30
0.0
 11
28.0000019073486
 21
88.6726531982422
 31
0.0
  0
LINE
  5
   162
  8
0
  6
CONTINUOUS
 62
   210
 10
22.9999942779541
 20
95.7939910888672
 30
0.0
 11
28.0000019073486
 21
90.7939758300781
 31
0.0
  0
LINE
  5
   163
  8
0
  6
CONTINUOUS
 62
   210
 10
22.9999923706055
 20
97.9153137207031
 30
0.0
 11
28.0000019073486
 21
92.9152984619141
 31
0.0
  0
LINE
  5
   164
  8
0
  6
CONTINUOUS
 62
   210
 10
22.9999904632568
 20
100.036636352539
 30
0.0
 11
28.0000019073486
 21
95.03662109375
 31
0.0
  0
LINE
  5
   165
  8
0
  6
CONTINUOUS
 62
   210
 10
22.9999885559082
 20
102.157958984375
 30
0.0
 11
28.0000019073486
 21
97.1579437255859
 31
0.0
  0
LINE
  5
   166
  8
0
  6
CONTINUOUS
 62
   210
 10
22.9999866485596
 20
104.279281616211
 30
0.0
 11
28.0000019073486
 21
99.2792663574219
 31
0.0
  0
LINE
  5
   167
  8
0
  6
CONTINUOUS
 62
   210
 10
23.0440235137939
 20
106.356567382813
 30
0.0
 11
28.0000019073486
 21
101.400581359863
 31
0.0
  0
LINE
  5
   168
  8
0
  6
CONTINUOUS
 62
   210
 10
23.3986186981201
 20
108.12329864502
 30
0.0
 11
28.0000019073486
 21
103.521903991699
 31
0.0
  0
LINE
  5
   169
  8
0
  6
CONTINUOUS
 62
   210
 10
24.1018161773682
 20
109.54141998291
 30
0.0
 11
28.0000019073486
 21
105.643226623535
 31
0.0
  0
LINE
  5
   16A
  8
0
  6
CONTINUOUS
 62
   210
 10
25.0352230072022
 20
110.729331970215
 30
0.0
 11
28.5697040557861
 21
107.194847106934
 31
0.0
  0
LINE
  5
   16B
  8
0
  6
CONTINUOUS
 62
   210
 10
26.2040405273438
 20
111.681831359863
 30
0.0
 11
29.907772064209
 21
107.978096008301
 31
0.0
  0
LINE
  5
   16C
  8
0
  6
CONTINUOUS
 62
   210
 10
27.5920448303223
 20
112.415153503418
 30
0.0
 11
31.3544807434082
 21
108.652709960937
 31
0.0
  0
LINE
  5
   16D
  8
0
  6
CONTINUOUS
 62
   210
 10
29.0387535095215
 20
113.089767456055
 30
0.0
 11
32.8011894226074
 21
109.327323913574
 31
0.0
  0
LINE
  5
   16E
  8
0
  6
CONTINUOUS
 62
   210
 10
30.4854621887207
 20
113.764381408691
 30
0.0
 11
34.2478981018066
 21
110.001937866211
 31
0.0
  0
LINE
  5
   16F
  8
0
  6
CONTINUOUS
 62
   210
 10
31.9321708679199
 20
114.438995361328
 30
0.0
 11
35.6946067810059
 21
110.676551818848
 31
0.0
  0
LINE
  5
   170
  8
0
  6
CONTINUOUS
 62
   210
 10
33.3788795471191
 20
115.113609313965
 30
0.0
 11
37.1413154602051
 21
111.351165771484
 31
0.0
  0
LINE
  5
   171
  8
0
  6
CONTINUOUS
 62
   210
 10
34.8255882263184
 20
115.788223266602
 30
0.0
 11
38.5880241394043
 21
112.025779724121
 31
0.0
  0
LINE
  5
   172
  8
0
  6
CONTINUOUS
 62
   210
 10
36.2722969055176
 20
116.462837219238
 30
0.0
 11
40.0347328186035
 21
112.700393676758
 31
0.0
  0
LINE
  5
   173
  8
0
  6
CONTINUOUS
 62
   210
 10
37.7190055847168
 20
117.137451171875
 30
0.0
 11
41.4814414978027
 21
113.375007629395
 31
0.0
  0
LINE
  5
   174
  8
0
  6
CONTINUOUS
 62
   210
 10
39.165714263916
 20
117.812065124512
 30
0.0
 11
42.928150177002
 21
114.049621582031
 31
0.0
  0
LINE
  5
   175
  8
0
  6
CONTINUOUS
 62
   210
 10
40.6124229431152
 20
118.48664855957
 30
0.0
 11
44.3475799560547
 21
114.751487731934
 31
0.0
  0
LINE
  5
   176
  8
0
  6
CONTINUOUS
 62
   210
 10
42.0123329162598
 20
119.208061218262
 30
0.0
 11
45.5996932983398
 21
115.620697021484
 31
0.0
  0
LINE
  5
   177
  8
0
  6
CONTINUOUS
 62
   210
 10
42.8798370361328
 20
120.461875915527
 30
0.0
 11
46.624397277832
 21
116.717308044434
 31
0.0
  0
LINE
  5
   178
  8
0
  6
CONTINUOUS
 62
   210
 10
43.0000038146973
 20
122.463035583496
 30
0.0
 11
47.3902053833008
 21
118.072830200195
 31
0.0
  0
LINE
  5
   179
  8
0
  6
CONTINUOUS
 62
   210
 10
43.0000038146973
 20
124.584358215332
 30
0.0
 11
47.8946495056152
 21
119.68970489502
 31
0.0
  0
LINE
  5
   17A
  8
0
  6
CONTINUOUS
 62
   210
 10
43.0000038146973
 20
126.705680847168
 30
0.0
 11
48.0000038146973
 21
121.705673217773
 31
0.0
  0
LINE
  5
   17B
  8
0
  6
CONTINUOUS
 62
   210
 10
43.0000038146973
 20
128.826995849609
 30
0.0
 11
48.0000038146973
 21
123.826995849609
 31
0.0
  0
LINE
  5
   17C
  8
0
  6
CONTINUOUS
 62
   210
 10
43.0000038146973
 20
130.948318481445
 30
0.0
 11
48.0000038146973
 21
125.948318481445
 31
0.0
  0
LINE
  5
   17D
  8
0
  6
CONTINUOUS
 62
   210
 10
43.0000038146973
 20
133.069641113281
 30
0.0
 11
48.0000038146973
 21
128.069641113281
 31
0.0
  0
LINE
  5
   17E
  8
0
  6
CONTINUOUS
 62
   210
 10
43.0000038146973
 20
135.190963745117
 30
0.0
 11
48.0000038146973
 21
130.190963745117
 31
0.0
  0
LINE
  5
   17F
  8
0
  6
CONTINUOUS
 62
   210
 10
43.0000038146973
 20
137.312286376953
 30
0.0
 11
48.0000038146973
 21
132.312286376953
 31
0.0
  0
LINE
  5
   180
  8
0
  6
CONTINUOUS
 62
   210
 10
43.0000038146973
 20
139.433609008789
 30
0.0
 11
48.0000038146973
 21
134.433609008789
 31
0.0
  0
LINE
  5
   181
  8
0
  6
CONTINUOUS
 62
   210
 10
44.8049278259277
 20
139.75
 30
0.0
 11
48.0000038146973
 21
136.554916381836
 31
0.0
  0
LINE
  5
   182
  8
0
  6
CONTINUOUS
 62
   210
 10
46.9262466430664
 20
139.75
 30
0.0
 11
48.0000038146973
 21
138.676239013672
 31
0.0
  0
ENDBLK
  5
   183
  8
0
  6
CONTINUOUS
 62
     7
  0
BLOCK
  5
   184
  8
0
  6
CONTINUOUS
 62
     7
  2
*HATCH177
 70
    65
 10
0.0
 20
0.0
 30
0.0
  3
*HATCH177
  0
LINE
  5
   185
  8
0
  6
CONTINUOUS
 62
   210
 10
43.0000038146973
 20
150.040222167969
 30
0.0
 11
44.7902145385742
 21
148.25
 31
0.0
  0
LINE
  5
   186
  8
0
  6
CONTINUOUS
 62
   210
 10
43.0000038146973
 20
152.161544799805
 30
0.0
 11
46.9115333557129
 21
148.25
 31
0.0
  0
LINE
  5
   187
  8
0
  6
CONTINUOUS
 62
   210
 10
43.0000038146973
 20
154.282852172852
 30
0.0
 11
48.0000038146973
 21
149.282852172852
 31
0.0
  0
LINE
  5
   188
  8
0
  6
CONTINUOUS
 62
   210
 10
43.0000038146973
 20
156.404174804688
 30
0.0
 11
48.0000038146973
 21
151.404174804688
 31
0.0
  0
LINE
  5
   189
  8
0
  6
CONTINUOUS
 62
   210
 10
45.0255165100098
 20
156.499984741211
 30
0.0
 11
48.0000038146973
 21
153.525497436523
 31
0.0
  0
LINE
  5
   18A
  8
0
  6
CONTINUOUS
 62
   210
 10
47.1468353271484
 20
156.499984741211
 30
0.0
 11
48.0000038146973
 21
155.646820068359
 31
0.0
  0
ENDBLK
  5
   18B
  8
0
  6
CONTINUOUS
 62
     7
  0
BLOCK
  5
   18C
  8
0
  6
CONTINUOUS
 62
     7
  2
T_A_D_L_
 70
    64
 10
0.0
 20
0.0
 30
0.0
  3
T_A_D_L_
  0
LINE
  5
   18D
  8
0
  6
CONTINUOUS
 62
     1
 10
99.5000028312206
 20
100.999999046326
 30
0.0
 11
99.5000028312206
 21
102.999999046326
 31
0.0
  0
LINE
  5
   18E
  8
0
  6
CONTINUOUS
 62
     1
 10
-1.49999716877938
 20
102.999999046326
 30
0.0
 11
23.0000019073486
 21
102.999999046326
 31
0.0
  0
LINE
  5
   18F
  8
0
  6
CONTINUOUS
 62
     1
 10
-1.49999716877937
 20
100.999999046326
 30
0.0
 11
-1.49999716877937
 21
102.999999046326
 31
0.0
  0
LINE
  5
   190
  8
0
  6
CONTINUOUS
 62
     1
 10
-0.499997138977059
 20
99.9999990463257
 30
0.0
 11
1.50000190734862
 21
99.9999990463257
 31
0.0
  0
LINE
  5
   191
  8
0
  6
CONTINUOUS
 62
     1
 10
19.0000019073486
 20
99.9999990463257
 30
0.0
 11
23.0000019073486
 21
99.9999990463257
 31
0.0
  0
LINE
  5
   192
  8
0
  6
CONTINUOUS
 62
     1
 10
-1.49999716877937
 20
102.999999046326
 30
0.0
 11
-1.49999716877937
 21
186.499705392366
 31
0.0
  0
LINE
  5
   193
  8
0
  6
CONTINUOUS
 62
     1
 10
99.5000028312206
 20
102.999999046326
 30
0.0
 11
99.5000028312206
 21
189.197535108559
 31
0.0
  0
LINE
  5
   194
  8
0
  6
CONTINUOUS
 62
     1
 10
98.5000015647646
 20
99.9999985671261
 30
0.0
 11
99.5000015305361
 21
100.999998532898
 31
0.0
  0
LINE
  5
   195
  8
0
  6
CONTINUOUS
 62
     1
 10
-1.49999712599373
 20
100.999998952197
 30
0.0
 11
-0.499997160222257
 21
99.9999989864258
 31
0.0
  0
LINE
  5
   196
  8
0
  6
CONTINUOUS
 62
     1
 10
28.0000019073486
 20
102.999999046326
 30
0.0
 11
99.5000028312206
 21
102.999999046326
 31
0.0
  0
LINE
  5
   197
  8
0
  6
CONTINUOUS
 62
     1
 10
28.0000019073486
 20
99.9999990463257
 30
0.0
 11
98.5000020439642
 21
99.9999990463257
 31
0.0
  0
INSERT
  5
   198
  8
0
  6
CONTINUOUS
 62
     7
  2
*HATCH174
 10
0.0
 20
0.0
 30
0.0
  0
LINE
  5
   199
  8
0
  6
CONTINUOUS
 62
     7
 10
27.0416736602783
 20
112.158508300781
 30
0.0
 11
41.8452396392822
 21
119.0615234375
 31
0.0
  0
LINE
  5
   19A
  8
0
  6
CONTINUOUS
 62
     7
 10
41.8452396392822
 20
119.0615234375
 30
0.0
 11
42.6867847442627
 21
119.799545288086
 31
0.0
  0
LINE
  5
   19B
  8
0
  6
CONTINUOUS
 62
     7
 10
43.0000019073486
 20
120.874145507813
 30
0.0
 11
43.0000019073486
 21
127.262603759766
 31
0.0
  0
LINE
  5
   19C
  8
0
  6
CONTINUOUS
 62
     7
 10
43.0000019073486
 20
139.75
 30
0.0
 11
43.0000019073486
 21
148.25
 31
0.0
  0
LINE
  5
   19D
  8
0
  6
CONTINUOUS
 62
     7
 10
43.0000019073486
 20
148.25
 30
0.0
 11
43.0000019073486
 21
156.499984741211
 31
0.0
  0
LINE
  5
   19E
  8
0
  6
CONTINUOUS
 62
     7
 10
43.0000019073486
 20
156.499984741211
 30
0.0
 11
48.0000038146973
 21
156.499984741211
 31
0.0
  0
LINE
  5
   19F
  8
0
  6
CONTINUOUS
 62
     7
 10
48.0000038146973
 20
148.25
 30
0.0
 11
48.0000038146973
 21
156.499984741211
 31
0.0
  0
LINE
  5
   1A0
  8
0
  6
CONTINUOUS
 62
     7
 10
43.0000019073486
 20
148.25
 30
0.0
 11
48.0000038146973
 21
148.25
 31
0.0
  0
LINE
  5
   1A1
  8
0
  6
CONTINUOUS
 62
     7
 10
43.0000019073486
 20
139.75
 30
0.0
 11
48.0000038146973
 21
139.75
 31
0.0
  0
LINE
  5
   1A2
  8
0
  6
CONTINUOUS
 62
     7
 10
48.0000038146973
 20
127.262603759766
 30
0.0
 11
48.0000038146973
 21
139.75
 31
0.0
  0
LINE
  5
   1A3
  8
0
  6
CONTINUOUS
 62
     7
 10
43.0000019073486
 20
127.262603759766
 30
0.0
 11
43.0000019073486
 21
139.75
 31
0.0
  0
LINE
  5
   1A4
  8
0
  6
CONTINUOUS
 62
     7
 10
48.0000038146973
 20
139.75
 30
0.0
 11
48.0000038146973
 21
148.25
 31
0.0
  0
LINE
  5
   1A5
  8
0
  6
CONTINUOUS
 62
     7
 10
48.0000038146973
 20
120.874145507813
 30
0.0
 11
48.0000038146973
 21
127.262603759766
 31
0.0
  0
LINE
  5
   1A6
  8
0
  6
CONTINUOUS
 62
     7
 10
42.6867847442627
 20
119.799545288086
 30
0.0
 11
43.0000019073486
 21
120.874145507813
 31
0.0
  0
ARC
  5
   1A7
  8
0
  6
CONTINUOUS
 62
     7
 10
40.9999714505164
 20
120.874153954629
 30
0.0
 40
7.00003236418596
 50
295.000173925889
 51
359.999930860147
  0
LINE
  5
   1A8
  8
0
  6
CONTINUOUS
 62
     7
 10
29.1547471084667
 20
107.626958646517
 30
0.0
 11
43.9583301544189
 21
114.529983520508
 31
0.0
  0
LINE
  5
   1A9
  8
0
  6
CONTINUOUS
 62
     7
 10
28.0000019073486
 20
88.2500000000001
 30
0.0
 11
28.0000019073486
 21
105.81437167807
 31
0.0
  0
ARC
  5
   1AA
  8
0
  6
CONTINUOUS
 62
     7
 10
29.999970382496
 20
105.81437167807
 30
0.0
 40
1.99996847516997
 50
115.000002325622
 51
180.0
  0
ARC
  5
   1AB
  8
0
  6
CONTINUOUS
 62
     7
 10
30.0000475353922
 20
105.814307270603
 30
0.0
 40
7.00006162089133
 50
115.000180631326
 51
179.999555538035
  0
LINE
  5
   1AC
  8
0
  6
CONTINUOUS
 62
     7
 10
23.0000019073486
 20
88.2500000000001
 30
0.0
 11
23.0000019073486
 21
105.814361572266
 31
0.0
  0
LINE
  5
   1AD
  8
0
  6
CONTINUOUS
 62
     7
 10
23.0000019073486
 20
88.2500000000001
 30
0.0
 11
28.0000019073486
 21
88.2500000000001
 31
0.0
  0
LINE
  5
   1AE
  8
0
  6
CONTINUOUS
 62
     7
 10
23.0000019073486
 20
74.0000000000001
 30
0.0
 11
23.0000019073486
 21
79.7500000000001
 31
0.0
  0
LINE
  5
   1AF
  8
0
  6
CONTINUOUS
 62
     7
 10
23.0000019073486
 20
74.0000000000001
 30
0.0
 11
28.0000019073486
 21
74.0000000000001
 31
0.0
  0
LINE
  5
   1B0
  8
0
  6
CONTINUOUS
 62
     7
 10
28.0000019073486
 20
74.0000000000001
 30
0.0
 11
28.0000019073486
 21
79.7500000000001
 31
0.0
  0
LINE
  5
   1B1
  8
0
  6
DASHDOT
 62
     7
 10
41.0000019073486
 20
144.0
 30
0.0
 11
50.0000038146973
 21
144.0
 31
0.0
  0
INSERT
  5
   1B2
  8
0
  6
CONTINUOUS
 62
     7
  2
*HATCH175
 10
0.0
 20
0.0
 30
0.0
  0
INSERT
  5
   1B3
  8
0
  6
CONTINUOUS
 62
     7
  2
*HATCH176
 10
0.0
 20
0.0
 30
0.0
  0
INSERT
  5
   1B4
  8
0
  6
CONTINUOUS
 62
     7
  2
*HATCH177
 10
0.0
 20
0.0
 30
0.0
  0
POINT
  5
   1B5
  8
0
  6
CONTINUOUS
 62
     7
 10
29.0000019073486
 20
84.0
 30
0.0
  0
LINE
  5
   1B6
  8
0
  6
CONTINUOUS
 62
     3
 10
-8.95514807263996
 20
194.08088103724
 30
0.0
 11
106.197994010985
 21
196.019486122823
 31
0.0
  0
LINE
  5
   1B7
  8
0
  6
CONTINUOUS
 62
     3
 10
-7.98584552984849
 20
186.326460694908
 30
0.0
 11
108.136599096568
 21
189.428228831841
 31
0.0
  0
LINE
  5
   1B8
  8
0
  6
CONTINUOUS
 62
     1
 10
99.5000028312206
 20
195.90672532855
 30
0.0
 11
99.5000028312206
 21
213.000017223622
 31
0.0
  0
LINE
  5
   1B9
  8
0
  6
CONTINUOUS
 62
     1
 10
-1.49999716877937
 20
194.206388628214
 30
0.0
 11
-1.49999716877937
 21
213.000017223622
 31
0.0
  0
LINE
  5
   1BA
  8
0
  6
CONTINUOUS
 62
     1
 10
-1.49999716877937
 20
213.000017223622
 30
0.0
 11
99.5000028312206
 21
213.000017223622
 31
0.0
  0
LINE
  5
   1BB
  8
0
  6
CONTINUOUS
 62
     7
 10
23.0000019073486
 20
79.7499999999999
 30
0.0
 11
28.0000019073486
 21
79.7499999999999
 31
0.0
  0
ENDBLK
  5
   1BC
  8
0
  6
CONTINUOUS
 62
     7
  0
BLOCK
  5
   1BD
  8
0
  6
CONTINUOUS
 62
     7
  2
*UDIM751
 70
    65
 10
0.0
 20
0.0
 30
0.0
  3
*UDIM751
  0
TEXT
  5
   1BE
  8
0
  6
CONTINUOUS
 62
     7
 10
228.468721859356
 20
180.803214665112
 30
0.0
 40
2.99999997871263
  1
101,5
 50
359.999999948034
 41
0.933333333333333
 72
     1
 11
235.168721813167
 21
182.303214648425
 31
0.0
 73
     2
  0
LINE
  5
   1BF
  8
0
  6
CONTINUOUS
 62
     7
 10
253.206222543102
 20
134.500714204933
 30
0.0
 11
253.206222543102
 21
181.803214659069
 31
0.0
  0
LINE
  5
   1C0
  8
0
  6
CONTINUOUS
 62
     7
 10
217.681223148107
 20
140.052483036302
 30
0.0
 11
217.681223148107
 21
181.803214659069
 31
0.0
  0
LINE
  5
   1C1
  8
0
  6
CONTINUOUS
 62
     7
 10
253.206222543102
 20
179.803214659069
 30
0.0
 11
217.681223148107
 21
179.803214659069
 31
0.0
  0
LINE
  5
   1C2
  8
0
  6
CONTINUOUS
 62
     7
 10
250.251799265895
 20
179.282270229117
 30
0.0
 11
253.206222543102
 21
179.803214659069
 31
0.0
  0
LINE
  5
   1C3
  8
0
  6
CONTINUOUS
 62
     7
 10
253.206222543102
 20
179.803214659069
 30
0.0
 11
250.251799265895
 21
180.324159089021
 31
0.0
  0
LINE
  5
   1C4
  8
0
  6
CONTINUOUS
 62
     7
 10
220.635646425314
 20
180.324159089021
 30
0.0
 11
217.681223148107
 21
179.803214659069
 31
0.0
  0
LINE
  5
   1C5
  8
0
  6
CONTINUOUS
 62
     7
 10
217.681223148107
 20
179.803214659069
 30
0.0
 11
220.635646425314
 21
179.282270229117
 31
0.0
  0
ENDBLK
  5
   1C6
  8
0
  6
CONTINUOUS
 62
     7
  0
BLOCK
  5
   1C7
  8
0
  6
CONTINUOUS
 62
     7
  2
*HATCH178
 70
    65
 10
0.0
 20
0.0
 30
0.0
  3
*HATCH178
  0
LINE
  5
   1C8
  8
0
  6
CONTINUOUS
 62
   210
 10
3.48709654808044
 20
77.1231231689453
 30
0.0
 11
7.61027431488037
 21
72.9999389648438
 31
0.0
  0
LINE
  5
   1C9
  8
0
  6
CONTINUOUS
 62
   210
 10
6.85291862487793
 20
77.9999389648438
 30
0.0
 11
9.23709678649902
 21
75.6157608032227
 31
0.0
  0
ENDBLK
  5
   1CA
  8
0
  6
CONTINUOUS
 62
     7
  0
BLOCK
  5
   1CB
  8
0
  6
CONTINUOUS
 62
     7
  2
*HATCH179
 70
    65
 10
0.0
 20
0.0
 30
0.0
  3
*HATCH179
  0
LINE
  5
   1CC
  8
0
  6
CONTINUOUS
 62
   210
 10
3.48709654808044
 20
77.1231231689453
 30
0.0
 11
7.61027431488037
 21
72.9999389648438
 31
0.0
  0
LINE
  5
   1CD
  8
0
  6
CONTINUOUS
 62
   210
 10
6.85291862487793
 20
77.9999389648438
 30
0.0
 11
9.23709678649902
 21
75.6157608032227
 31
0.0
  0
ENDBLK
  5
   1CE
  8
0
  6
CONTINUOUS
 62
     7
  0
BLOCK
  5
   1CF
  8
0
  6
CONTINUOUS
 62
     7
  2
*HATCH180
 70
    65
 10
0.0
 20
0.0
 30
0.0
  3
*HATCH180
  0
LINE
  5
   1D0
  8
0
  6
CONTINUOUS
 62
   210
 10
-56.5129051208496
 20
56.5129737854004
 30
0.0
 11
-52.999870300293
 21
52.9999389648438
 31
0.0
  0
LINE
  5
   1D1
  8
0
  6
CONTINUOUS
 62
   210
 10
-53.7572288513184
 20
57.9999389648438
 30
0.0
 11
-48.7572326660156
 21
52.9999389648438
 31
0.0
  0
LINE
  5
   1D2
  8
0
  6
CONTINUOUS
 62
   210
 10
-49.514591217041
 20
57.9999389648438
 30
0.0
 11
-44.5145950317383
 21
52.9999389648438
 31
0.0
  0
LINE
  5
   1D3
  8
0
  6
CONTINUOUS
 62
   210
 10
-45.2719535827637
 20
57.9999389648438
 30
0.0
 11
-40.2719573974609
 21
52.9999389648438
 31
0.0
  0
LINE
  5
   1D4
  8
0
  6
CONTINUOUS
 62
   210
 10
-41.0293159484863
 20
57.9999389648438
 30
0.0
 11
-36.1978530883789
 21
53.1684722900391
 31
0.0
  0
LINE
  5
   1D5
  8
0
  6
CONTINUOUS
 62
   210
 10
-36.9785957336426
 20
58.1918601989746
 30
0.0
 11
-33.302864074707
 21
54.5161209106445
 31
0.0
  0
LINE
  5
   1D6
  8
0
  6
CONTINUOUS
 62
   210
 10
-35.1484451293945
 20
60.6043472290039
 30
0.0
 11
-31.3990859985352
 21
56.8549842834473
 31
0.0
  0
LINE
  5
   1D7
  8
0
  6
CONTINUOUS
 62
   210
 10
-33.7992248535156
 20
63.4977684020996
 30
0.0
 11
-30.0367832183838
 21
59.7353248596191
 31
0.0
  0
LINE
  5
   1D8
  8
0
  6
CONTINUOUS
 62
   210
 10
-32.4500045776367
 20
66.3911895751953
 30
0.0
 11
-28.6875591278076
 21
62.6287422180176
 31
0.0
  0
LINE
  5
   1D9
  8
0
  6
CONTINUOUS
 62
   210
 10
-31.1007804870605
 20
69.2846069335938
 30
0.0
 11
-27.3383350372314
 21
65.5221633911133
 31
0.0
  0
LINE
  5
   1DA
  8
0
  6
CONTINUOUS
 62
   210
 10
-29.7515563964844
 20
72.1780242919922
 30
0.0
 11
-25.9891109466553
 21
68.4155807495117
 31
0.0
  0
LINE
  5
   1DB
  8
0
  6
CONTINUOUS
 62
   210
 10
-28.322114944458
 20
74.9912261962891
 30
0.0
 11
-24.639892578125
 21
71.3089981079102
 31
0.0
  0
LINE
  5
   1DC
  8
0
  6
CONTINUOUS
 62
   210
 10
-26.1101036071777
 20
77.021858215332
 30
0.0
 11
-22.088191986084
 21
72.9999389648438
 31
0.0
  0
LINE
  5
   1DD
  8
0
  6
CONTINUOUS
 62
   210
 10
-22.8254089355469
 20
77.9797973632813
 30
0.0
 11
-17.8455543518066
 21
72.9999389648438
 31
0.0
  0
LINE
  5
   1DE
  8
0
  6
CONTINUOUS
 62
   210
 10
-18.6029224395752
 20
77.9999542236328
 30
0.0
 11
-13.602915763855
 21
72.9999389648438
 31
0.0
  0
LINE
  5
   1DF
  8
0
  6
CONTINUOUS
 62
   210
 10
-14.3602809906006
 20
77.9999542236328
 30
0.0
 11
-9.36027812957764
 21
72.9999389648438
 31
0.0
  0
LINE
  5
   1E0
  8
0
  6
CONTINUOUS
 62
   210
 10
-10.117639541626
 20
77.9999542236328
 30
0.0
 11
-5.11764049530029
 21
72.9999389648438
 31
0.0
  0
LINE
  5
   1E1
  8
0
  6
CONTINUOUS
 62
   210
 10
-5.87499618530273
 20
77.9999389648438
 30
0.0
 11
-5.01290369033813
 21
77.1378479003906
 31
0.0
  0
ENDBLK
  5
   1E2
  8
0
  6
CONTINUOUS
 62
     7
  0
BLOCK
  5
   1E3
  8
0
  6
CONTINUOUS
 62
     7
  2
*HATCH181
 70
    65
 10
0.0
 20
0.0
 30
0.0
  3
*HATCH181
  0
LINE
  5
   1E4
  8
0
  6
CONTINUOUS
 62
   210
 10
-73.2628860473633
 20
56.292407989502
 30
0.0
 11
-69.9704208374023
 21
52.9999389648438
 31
0.0
  0
LINE
  5
   1E5
  8
0
  6
CONTINUOUS
 62
   210
 10
-70.7277755737305
 20
57.9999389648438
 30
0.0
 11
-65.727783203125
 21
52.9999389648438
 31
0.0
  0
LINE
  5
   1E6
  8
0
  6
CONTINUOUS
 62
   210
 10
-66.4851379394531
 20
57.9999389648438
 30
0.0
 11
-65.0129013061524
 21
56.5276985168457
 31
0.0
  0
ENDBLK
  5
   1E7
  8
0
  6
CONTINUOUS
 62
     7
  0
BLOCK
  5
   1E8
  8
0
  6
CONTINUOUS
 62
     7
  2
*UDIM752
 70
    65
 10
0.0
 20
0.0
 30
0.0
  3
*UDIM752
  0
TEXT
  5
   1E9
  8
0
  6
CONTINUOUS
 62
     7
 10
228.818719183116
 20
-31.1402647591729
 30
0.0
 40
2.99999997871263
  1
103,5
 50
359.999999948034
 41
0.933333333333333
 72
     1
 11
235.518719136928
 21
-29.6402647758596
 31
0.0
 73
     2
  0
LINE
  5
   1EA
  8
0
  6
CONTINUOUS
 62
     7
 10
253.906217190623
 20
40.1007337424208
 30
0.0
 11
253.906217190623
 21
-34.1402647652159
 31
0.0
  0
LINE
  5
   1EB
  8
0
  6
CONTINUOUS
 62
     7
 10
217.681223148107
 20
10.9476117568904
 30
0.0
 11
217.681223148107
 21
-34.1402647652159
 31
0.0
  0
LINE
  5
   1EC
  8
0
  6
CONTINUOUS
 62
     7
 10
253.906217190623
 20
-32.1402647652159
 30
0.0
 11
217.681223148107
 21
-32.1402647652159
 31
0.0
  0
LINE
  5
   1ED
  8
0
  6
CONTINUOUS
 62
     7
 10
250.951793913416
 20
-32.6612091951676
 30
0.0
 11
253.906217190623
 21
-32.1402647652159
 31
0.0
  0
LINE
  5
   1EE
  8
0
  6
CONTINUOUS
 62
     7
 10
253.906217190623
 20
-32.1402647652159
 30
0.0
 11
250.951793913416
 21
-31.6193203352642
 31
0.0
  0
LINE
  5
   1EF
  8
0
  6
CONTINUOUS
 62
     7
 10
220.635646425314
 20
-31.6193203352642
 30
0.0
 11
217.681223148107
 21
-32.1402647652159
 31
0.0
  0
LINE
  5
   1F0
  8
0
  6
CONTINUOUS
 62
     7
 10
217.681223148107
 20
-32.1402647652159
 30
0.0
 11
220.635646425314
 21
-32.6612091951676
 31
0.0
  0
ENDBLK
  5
   1F1
  8
0
  6
CONTINUOUS
 62
     7
  0
BLOCK
  5
   1F2
  8
0
  6
CONTINUOUS
 62
     7
  2
*UDIM753
 70
    65
 10
0.0
 20
0.0
 30
0.0
  3
*UDIM753
  0
TEXT
  5
   1F3
  8
0
  6
CONTINUOUS
 62
     7
 10
258.831218811084
 20
-37.3121333424512
 30
0.0
 40
2.99999997871263
  1
2
 50
359.999999948034
 41
0.933333333333333
 72
     1
 11
259.931218804632
 21
-35.812133354087
 31
0.0
 73
     2
  0
LINE
  5
   1F4
  8
0
  6
CONTINUOUS
 62
     7
 10
255.831219160557
 20
11.2570950245394
 30
0.0
 11
255.831219160557
 21
-40.3121333434434
 31
0.0
  0
LINE
  5
   1F5
  8
0
  6
CONTINUOUS
 62
     7
 10
255.131219172477
 20
10.8274398594426
 30
0.0
 11
255.131219172477
 21
-40.3121333434434
 31
0.0
  0
LINE
  5
   1F6
  8
0
  6
CONTINUOUS
 62
     7
 10
261.031218796826
 20
-38.3121333434434
 30
0.0
 11
255.131219172477
 21
-38.3121333434434
 31
0.0
  0
LINE
  5
   1F7
  8
0
  6
CONTINUOUS
 62
     7
 10
258.785642437763
 20
-37.7911889134917
 30
0.0
 11
255.831219160557
 21
-38.3121333434434
 31
0.0
  0
LINE
  5
   1F8
  8
0
  6
CONTINUOUS
 62
     7
 10
255.831219160557
 20
-38.3121333434434
 30
0.0
 11
258.785642437763
 21
-38.833077773395
 31
0.0
  0
LINE
  5
   1F9
  8
0
  6
CONTINUOUS
 62
     7
 10
252.17679589527
 20
-38.833077773395
 30
0.0
 11
255.131219172477
 21
-38.3121333434434
 31
0.0
  0
LINE
  5
   1FA
  8
0
  6
CONTINUOUS
 62
     7
 10
255.131219172477
 20
-38.3121333434434
 30
0.0
 11
252.17679589527
 21
-37.7911889134917
 31
0.0
  0
ENDBLK
  5
   1FB
  8
0
  6
CONTINUOUS
 62
     7
  0
BLOCK
  5
   1FC
  8
0
  6
CONTINUOUS
 62
     7
  2
*UDIM754
 70
    65
 10
0.0
 20
0.0
 30
0.0
  3
*UDIM754
  0
TEXT
  5
   1FD
  8
0
  6
CONTINUOUS
 62
     7
 10
232.231219298849
 20
-37.3121333399258
 30
0.0
 40
2.99999997871263
  1
107
 50
359.999999948034
 41
0.933333333333333
 72
     1
 11
236.131219272528
 21
-35.812133354087
 31
0.0
 73
     2
  0
LINE
  5
   1FE
  8
0
  6
CONTINUOUS
 62
     7
 10
217.681223148107
 20
10.9476117568904
 30
0.0
 11
217.681223148107
 21
-40.3121333434434
 31
0.0
  0
LINE
  5
   1FF
  8
0
  6
CONTINUOUS
 62
     7
 10
255.131219172477
 20
-38.3121333434434
 30
0.0
 11
217.681223148107
 21
-38.3121333434434
 31
0.0
  0
LINE
  5
   200
  8
0
  6
CONTINUOUS
 62
     7
 10
252.17679589527
 20
-38.833077773395
 30
0.0
 11
255.131219172477
 21
-38.3121333434434
 31
0.0
  0
LINE
  5
   201
  8
0
  6
CONTINUOUS
 62
     7
 10
255.131219172477
 20
-38.3121333434434
 30
0.0
 11
252.17679589527
 21
-37.7911889134917
 31
0.0
  0
LINE
  5
   202
  8
0
  6
CONTINUOUS
 62
     7
 10
220.635646425314
 20
-37.7911889134917
 30
0.0
 11
217.681223148107
 21
-38.3121333434434
 31
0.0
  0
LINE
  5
   203
  8
0
  6
CONTINUOUS
 62
     7
 10
217.681223148107
 20
-38.3121333434434
 30
0.0
 11
220.635646425314
 21
-38.833077773395
 31
0.0
  0
ENDBLK
  5
   204
  8
0
  6
CONTINUOUS
 62
     7
  0
BLOCK
  5
   205
  8
0
  6
CONTINUOUS
 62
     7
  2
*UDIM755
 70
    65
 10
0.0
 20
0.0
 30
0.0
  3
*UDIM755
  0
TEXT
  5
   206
  8
0
  6
CONTINUOUS
 62
     7
 10
237.138935007169
 20
-44.7546807430824
 30
0.0
 40
2.99999997871263
  1
135
 50
359.999999948034
 41
0.933333333333333
 72
     1
 11
241.038934980848
 21
-43.2546807572437
 31
0.0
 73
     2
  0
LINE
  5
   207
  8
0
  6
CONTINUOUS
 62
     7
 10
264.946645916114
 20
54.8882334905911
 30
0.0
 11
264.946645916114
 21
-47.7546807466
 31
0.0
  0
LINE
  5
   208
  8
0
  6
CONTINUOUS
 62
     7
 10
217.681223148107
 20
10.9476117568904
 30
0.0
 11
217.681223148107
 21
-47.7546807466
 31
0.0
  0
LINE
  5
   209
  8
0
  6
CONTINUOUS
 62
     7
 10
264.946645916114
 20
-45.7546807466
 30
0.0
 11
217.681223148107
 21
-45.7546807466
 31
0.0
  0
LINE
  5
   20A
  8
0
  6
CONTINUOUS
 62
     7
 10
261.992222638907
 20
-46.2756251765517
 30
0.0
 11
264.946645916114
 21
-45.7546807466
 31
0.0
  0
LINE
  5
   20B
  8
0
  6
CONTINUOUS
 62
     7
 10
264.946645916114
 20
-45.7546807466
 30
0.0
 11
261.992222638907
 21
-45.2337363166483
 31
0.0
  0
LINE
  5
   20C
  8
0
  6
CONTINUOUS
 62
     7
 10
220.635646425314
 20
-45.2337363166483
 30
0.0
 11
217.681223148107
 21
-45.7546807466
 31
0.0
  0
LINE
  5
   20D
  8
0
  6
CONTINUOUS
 62
     7
 10
217.681223148107
 20
-45.7546807466
 30
0.0
 11
220.635646425314
 21
-46.2756251765517
 31
0.0
  0
ENDBLK
  5
   20E
  8
0
  6
CONTINUOUS
 62
     7
  0
BLOCK
  5
   20F
  8
0
  6
CONTINUOUS
 62
     7
  2
*UDIM756
 70
    65
 10
0.0
 20
0.0
 30
0.0
  3
*UDIM756
  0
TEXT
  5
   210
  8
0
  6
CONTINUOUS
 62
     7
 10
210.881222631742
 20
-44.7546807456079
 30
0.0
 40
2.99999997871263
  1
3
 50
359.999999948034
 41
0.933333333333333
 72
     1
 11
211.981222625289
 21
-43.2546807572437
 31
0.0
 73
     2
  0
TEXT
  5
   211
  8
0
  6
CONTINUOUS
 62
     7
 10
208.131222635432
 20
-44.7546807456079
 30
0.0
 40
2.99999997871263
  1
_
 50
359.999999948034
 41
0.933333333333333
 72
     1
 11
209.231222628979
 21
-43.2546807572437
 31
0.0
 73
     2
  0
LINE
  5
   212
  8
0
  6
CONTINUOUS
 62
     7
 10
216.631223165989
 20
10.980019163746
 30
0.0
 11
216.631223165989
 21
-47.7546807466
 31
0.0
  0
LINE
  5
   213
  8
0
  6
CONTINUOUS
 62
     7
 10
217.681223148107
 20
-45.7546807466
 30
0.0
 11
208.131222636784
 21
-45.7546807466
 31
0.0
  0
LINE
  5
   214
  8
0
  6
CONTINUOUS
 62
     7
 10
220.635646425314
 20
-45.2337363166483
 30
0.0
 11
217.681223148107
 21
-45.7546807466
 31
0.0
  0
LINE
  5
   215
  8
0
  6
CONTINUOUS
 62
     7
 10
217.681223148107
 20
-45.7546807466
 30
0.0
 11
220.635646425314
 21
-46.2756251765517
 31
0.0
  0
LINE
  5
   216
  8
0
  6
CONTINUOUS
 62
     7
 10
213.676799888782
 20
-46.2756251765517
 30
0.0
 11
216.631223165989
 21
-45.7546807466
 31
0.0
  0
LINE
  5
   217
  8
0
  6
CONTINUOUS
 62
     7
 10
216.631223165989
 20
-45.7546807466
 30
0.0
 11
213.676799888782
 21
-45.2337363166483
 31
0.0
  0
ENDBLK
  5
   218
  8
0
  6
CONTINUOUS
 62
     7
  0
BLOCK
  5
   219
  8
0
  6
CONTINUOUS
 62
     7
  2
*UDIM757
 70
    65
 10
0.0
 20
0.0
 30
0.0
  3
*UDIM757
  0
TEXT
  5
   21A
  8
0
  6
CONTINUOUS
 62
     7
 10
223.056223030374
 20
158.553931244324
 30
0.0
 40
2.99999997871263
  1
45
 50
359.999999948034
 41
0.933333333333333
 72
     1
 11
225.556223013988
 21
160.053931231425
 31
0.0
 73
     2
  0
LINE
  5
   21B
  8
0
  6
CONTINUOUS
 62
     7
 10
233.431222879868
 20
154.713204173821
 30
0.0
 11
233.431222879868
 21
159.553931242069
 31
0.0
  0
LINE
  5
   21C
  8
0
  6
CONTINUOUS
 62
     7
 10
217.681223148107
 20
140.052483036302
 30
0.0
 11
217.681223148107
 21
159.553931242069
 31
0.0
  0
LINE
  5
   21D
  8
0
  6
CONTINUOUS
 62
     7
 10
233.431222879868
 20
157.553931242069
 30
0.0
 11
217.681223148107
 21
157.553931242069
 31
0.0
  0
LINE
  5
   21E
  8
0
  6
CONTINUOUS
 62
     7
 10
230.533445406658
 20
156.777474085651
 30
0.0
 11
233.431222879868
 21
157.553931242069
 31
0.0
  0
LINE
  5
   21F
  8
0
  6
CONTINUOUS
 62
     7
 10
233.431222879868
 20
157.553931242069
 30
0.0
 11
230.533445406658
 21
158.330388398488
 31
0.0
  0
LINE
  5
   220
  8
0
  6
CONTINUOUS
 62
     7
 10
220.579000621318
 20
158.330388398488
 30
0.0
 11
217.681223148107
 21
157.553931242069
 31
0.0
  0
LINE
  5
   221
  8
0
  6
CONTINUOUS
 62
     7
 10
217.681223148107
 20
157.553931242069
 30
0.0
 11
220.579000621318
 21
156.777474085651
 31
0.0
  0
ENDBLK
  5
   222
  8
0
  6
CONTINUOUS
 62
     7
  0
BLOCK
  5
   223
  8
0
  6
CONTINUOUS
 62
     7
  2
*UDIM758
 70
    65
 10
0.0
 20
0.0
 30
0.0
  3
*UDIM758
  0
TEXT
  5
   224
  8
0
  6
CONTINUOUS
 62
     7
 10
240.596504375126
 20
158.553931243061
 30
0.0
 40
2.99999997871263
  1
5
 50
359.999999948034
 41
0.933333333333333
 72
     1
 11
241.696504368674
 21
160.053931231425
 31
0.0
 73
     2
  0
LINE
  5
   225
  8
0
  6
CONTINUOUS
 62
     7
 10
235.181223517638
 20
154.713204173821
 30
0.0
 11
235.181223517638
 21
159.553931242069
 31
0.0
  0
LINE
  5
   226
  8
0
  6
CONTINUOUS
 62
     7
 10
242.796504360868
 20
157.553931242069
 30
0.0
 11
233.431222879868
 21
157.553931242069
 31
0.0
  0
LINE
  5
   227
  8
0
  6
CONTINUOUS
 62
     7
 10
238.079000990848
 20
158.330388398488
 30
0.0
 11
235.181223517638
 21
157.553931242069
 31
0.0
  0
LINE
  5
   228
  8
0
  6
CONTINUOUS
 62
     7
 10
235.181223517638
 20
157.553931242069
 30
0.0
 11
238.079000990848
 21
156.777474085651
 31
0.0
  0
LINE
  5
   229
  8
0
  6
CONTINUOUS
 62
     7
 10
230.533445406658
 20
156.777474085651
 30
0.0
 11
233.431222879868
 21
157.553931242069
 31
0.0
  0
LINE
  5
   22A
  8
0
  6
CONTINUOUS
 62
     7
 10
233.431222879868
 20
157.553931242069
 30
0.0
 11
230.533445406658
 21
158.330388398488
 31
0.0
  0
ENDBLK
  5
   22B
  8
0
  6
CONTINUOUS
 62
     7
  0
BLOCK
  5
   22C
  8
0
  6
CONTINUOUS
 62
     7
  2
*UDIM759
 70
    65
 10
0.0
 20
0.0
 30
0.0
  3
*UDIM759
  0
TEXT
  5
   22D
  8
0
  6
CONTINUOUS
 62
     7
 10
184.423584775217
 20
158.335037270167
 30
0.0
 40
2.99999997871263
  1
12,5
 50
89.9999999480344
 41
0.933333333333333
 72
     1
 11
182.923584790661
 21
163.635037233918
 31
0.0
 73
     2
  0
LINE
  5
   22E
  8
0
  6
CONTINUOUS
 62
     7
 10
231.731222891789
 20
149.338209588903
 30
0.0
 11
183.423584780017
 21
149.338209588903
 31
0.0
  0
LINE
  5
   22F
  8
0
  6
CONTINUOUS
 62
     7
 10
232.431222879868
 20
153.713204173821
 30
0.0
 11
183.423584780017
 21
153.713204173821
 31
0.0
  0
LINE
  5
   230
  8
0
  6
CONTINUOUS
 62
     7
 10
185.423584780017
 20
149.338209588903
 30
0.0
 11
185.423584780017
 21
168.93503719631
 31
0.0
  0
LINE
  5
   231
  8
0
  6
CONTINUOUS
 62
     7
 10
186.200041936436
 20
146.440432115692
 30
0.0
 11
185.423584780017
 21
149.338209588903
 31
0.0
  0
LINE
  5
   232
  8
0
  6
CONTINUOUS
 62
     7
 10
185.423584780017
 20
149.338209588903
 30
0.0
 11
184.647127623599
 21
146.440432115692
 31
0.0
  0
LINE
  5
   233
  8
0
  6
CONTINUOUS
 62
     7
 10
184.647127623599
 20
156.610981647032
 30
0.0
 11
185.423584780017
 21
153.713204173821
 31
0.0
  0
LINE
  5
   234
  8
0
  6
CONTINUOUS
 62
     7
 10
185.423584780017
 20
153.713204173821
 30
0.0
 11
186.200041936436
 21
156.610981647032
 31
0.0
  0
ENDBLK
  5
   235
  8
0
  6
CONTINUOUS
 62
     7
  0
BLOCK
  5
   236
  8
0
  6
CONTINUOUS
 62
     7
  2
*UDIM760
 70
    65
 10
0.0
 20
0.0
 30
0.0
  3
*UDIM760
  0
TEXT
  5
   237
  8
0
  6
CONTINUOUS
 62
     7
 10
184.423584777753
 20
136.338209784098
 30
0.0
 40
2.99999997871263
  1
60
 50
89.9999999480344
 41
0.933333333333333
 72
     1
 11
182.923584790661
 21
138.838209767717
 31
0.0
 73
     2
  0
LINE
  5
   238
  8
0
  6
CONTINUOUS
 62
     7
 10
222.631223046761
 20
128.338209946531
 30
0.0
 11
183.423584780017
 21
128.338209946531
 31
0.0
  0
LINE
  5
   239
  8
0
  6
CONTINUOUS
 62
     7
 10
185.423584780017
 20
128.338209946531
 30
0.0
 11
185.423584780017
 21
149.338209588903
 31
0.0
  0
LINE
  5
   23A
  8
0
  6
CONTINUOUS
 62
     7
 10
184.647127623599
 20
131.235987419741
 30
0.0
 11
185.423584780017
 21
128.338209946531
 31
0.0
  0
LINE
  5
   23B
  8
0
  6
CONTINUOUS
 62
     7
 10
185.423584780017
 20
128.338209946531
 30
0.0
 11
186.200041936436
 21
131.235987419741
 31
0.0
  0
LINE
  5
   23C
  8
0
  6
CONTINUOUS
 62
     7
 10
186.200041936436
 20
146.440432115692
 30
0.0
 11
185.423584780017
 21
149.338209588903
 31
0.0
  0
LINE
  5
   23D
  8
0
  6
CONTINUOUS
 62
     7
 10
185.423584780017
 20
149.338209588903
 30
0.0
 11
184.647127623599
 21
146.440432115692
 31
0.0
  0
ENDBLK
  5
   23E
  8
0
  6
CONTINUOUS
 62
     7
  0
BLOCK
  5
   23F
  8
0
  6
CONTINUOUS
 62
     7
  2
*UDIM761
 70
    65
 10
0.0
 20
0.0
 30
0.0
  3
*UDIM761
  0
TEXT
  5
   240
  8
0
  6
CONTINUOUS
 62
     7
 10
184.423584773949
 20
67.8257196953279
 30
0.0
 40
2.99999997871263
  1
307,5
 50
89.9999999480344
 41
0.933333333333333
 72
     1
 11
182.923584790661
 21
74.5257196491447
 31
0.0
 73
     2
  0
LINE
  5
   241
  8
0
  6
CONTINUOUS
 62
     7
 10
222.63121421122
 20
20.7132293517586
 30
0.0
 11
183.423584780017
 21
20.7132293517586
 31
0.0
  0
LINE
  5
   242
  8
0
  6
CONTINUOUS
 62
     7
 10
185.423584780017
 20
20.7132293517586
 30
0.0
 11
185.423584780017
 21
128.338209946531
 31
0.0
  0
LINE
  5
   243
  8
0
  6
CONTINUOUS
 62
     7
 10
184.647127623599
 20
23.6110068249691
 30
0.0
 11
185.423584780017
 21
20.7132293517586
 31
0.0
  0
LINE
  5
   244
  8
0
  6
CONTINUOUS
 62
     7
 10
185.423584780017
 20
20.7132293517586
 30
0.0
 11
186.200041936436
 21
23.6110068249691
 31
0.0
  0
LINE
  5
   245
  8
0
  6
CONTINUOUS
 62
     7
 10
186.200041936436
 20
125.44043247332
 30
0.0
 11
185.423584780017
 21
128.338209946531
 31
0.0
  0
LINE
  5
   246
  8
0
  6
CONTINUOUS
 62
     7
 10
185.423584780017
 20
128.338209946531
 30
0.0
 11
184.647127623599
 21
125.44043247332
 31
0.0
  0
ENDBLK
  5
   247
  8
0
  6
CONTINUOUS
 62
     7
  0
BLOCK
  5
   248
  8
0
  6
CONTINUOUS
 62
     7
  2
*UDIM762
 70
    65
 10
0.0
 20
0.0
 30
0.0
  3
*UDIM762
  0
TEXT
  5
   249
  8
0
  6
CONTINUOUS
 62
     7
 10
184.423584777753
 20
7.71322954695342
 30
0.0
 40
2.99999997871263
  1
60
 50
89.9999999480344
 41
0.933333333333333
 72
     1
 11
182.923584790661
 21
10.2132295305725
 31
0.0
 73
     2
  0
LINE
  5
   24A
  8
0
  6
CONTINUOUS
 62
     7
 10
231.731222891789
 20
-0.286770290613557
 30
0.0
 11
183.423584780017
 21
-0.286770290613557
 31
0.0
  0
LINE
  5
   24B
  8
0
  6
CONTINUOUS
 62
     7
 10
185.423584780017
 20
-0.286770290613557
 30
0.0
 11
185.423584780017
 21
20.7132293517586
 31
0.0
  0
LINE
  5
   24C
  8
0
  6
CONTINUOUS
 62
     7
 10
184.647127623599
 20
2.61100718259698
 30
0.0
 11
185.423584780017
 21
-0.286770290613557
 31
0.0
  0
LINE
  5
   24D
  8
0
  6
CONTINUOUS
 62
     7
 10
185.423584780017
 20
-0.286770290613557
 30
0.0
 11
186.200041936436
 21
2.61100718259698
 31
0.0
  0
LINE
  5
   24E
  8
0
  6
CONTINUOUS
 62
     7
 10
186.200041936436
 20
17.815451878548
 30
0.0
 11
185.423584780017
 21
20.7132293517586
 31
0.0
  0
LINE
  5
   24F
  8
0
  6
CONTINUOUS
 62
     7
 10
185.423584780017
 20
20.7132293517586
 30
0.0
 11
184.647127623599
 21
17.815451878548
 31
0.0
  0
ENDBLK
  5
   250
  8
0
  6
CONTINUOUS
 62
     7
  0
BLOCK
  5
   251
  8
0
  6
CONTINUOUS
 62
     7
  2
*UDIM763
 70
    65
 10
0.0
 20
0.0
 30
0.0
  3
*UDIM763
  0
TEXT
  5
   252
  8
0
  6
CONTINUOUS
 62
     7
 10
184.423584775217
 20
-19.1969466812149
 30
0.0
 40
2.99999997871263
  1
12,5
 50
89.9999999480344
 41
0.933333333333333
 72
     1
 11
182.923584790661
 21
-13.896946717464
 31
0.0
 73
     2
  0
LINE
  5
   253
  8
0
  6
CONTINUOUS
 62
     7
 10
232.431222879868
 20
-4.66176487553171
 30
0.0
 11
183.423584780017
 21
-4.66176487553171
 31
0.0
  0
LINE
  5
   254
  8
0
  6
CONTINUOUS
 62
     7
 10
185.423584780017
 20
-19.1969466798563
 30
0.0
 11
185.423584780017
 21
-0.286770290613557
 31
0.0
  0
LINE
  5
   255
  8
0
  6
CONTINUOUS
 62
     7
 10
186.200041936436
 20
-7.55954234874224
 30
0.0
 11
185.423584780017
 21
-4.66176487553171
 31
0.0
  0
LINE
  5
   256
  8
0
  6
CONTINUOUS
 62
     7
 10
185.423584780017
 20
-4.66176487553171
 30
0.0
 11
184.647127623599
 21
-7.55954234874224
 31
0.0
  0
LINE
  5
   257
  8
0
  6
CONTINUOUS
 62
     7
 10
184.647127623599
 20
2.61100718259698
 30
0.0
 11
185.423584780017
 21
-0.286770290613557
 31
0.0
  0
LINE
  5
   258
  8
0
  6
CONTINUOUS
 62
     7
 10
185.423584780017
 20
-0.286770290613557
 30
0.0
 11
186.200041936436
 21
2.61100718259698
 31
0.0
  0
ENDBLK
  5
   259
  8
0
  6
CONTINUOUS
 62
     7
  0
BLOCK
  5
   25A
  8
0
  6
CONTINUOUS
 62
     7
  2
*UDIM764
 70
    65
 10
0.0
 20
0.0
 30
0.0
  3
*UDIM764
  0
TEXT
  5
   25B
  8
0
  6
CONTINUOUS
 62
     7
 10
276.4581069685
 20
55.300729961702
 30
0.0
 40
2.99999997871263
  1
105
 50
89.9999999480344
 41
0.933333333333333
 72
     1
 11
274.958106982676
 21
59.200729935387
 31
0.0
 73
     2
  0
LINE
  5
   25C
  8
0
  6
CONTINUOUS
 62
     7
 10
256.131219172477
 20
41.1007337424208
 30
0.0
 11
279.458106972032
 21
41.1007337424208
 31
0.0
  0
LINE
  5
   25D
  8
0
  6
CONTINUOUS
 62
     7
 10
256.131219172477
 20
77.8507224354198
 30
0.0
 11
279.458106972032
 21
77.8507224354198
 31
0.0
  0
LINE
  5
   25E
  8
0
  6
CONTINUOUS
 62
     7
 10
277.458106972032
 20
41.1007337424208
 30
0.0
 11
277.458106972032
 21
77.8507224354198
 31
0.0
  0
LINE
  5
   25F
  8
0
  6
CONTINUOUS
 62
     7
 10
276.93716254208
 20
44.0551570196277
 30
0.0
 11
277.458106972032
 21
41.1007337424208
 31
0.0
  0
LINE
  5
   260
  8
0
  6
CONTINUOUS
 62
     7
 10
277.458106972032
 20
41.1007337424208
 30
0.0
 11
277.979051401984
 21
44.0551570196277
 31
0.0
  0
LINE
  5
   261
  8
0
  6
CONTINUOUS
 62
     7
 10
277.979051401984
 20
74.8962991582129
 30
0.0
 11
277.458106972032
 21
77.8507224354198
 31
0.0
  0
LINE
  5
   262
  8
0
  6
CONTINUOUS
 62
     7
 10
277.458106972032
 20
77.8507224354198
 30
0.0
 11
276.93716254208
 21
74.8962991582129
 31
0.0
  0
ENDBLK
  5
   263
  8
0
  6
CONTINUOUS
 62
     7
  0
BLOCK
  5
   264
  8
0
  6
CONTINUOUS
 62
     7
  2
*UDIM765
 70
    65
 10
0.0
 20
0.0
 30
0.0
  3
*UDIM765
  0
TEXT
  5
   265
  8
0
  6
CONTINUOUS
 62
     7
 10
263.108867752371
 20
116.313218422088
 30
0.0
 40
2.99999997871263
  1
10
 50
89.9999999480344
 41
0.933333333333333
 72
     1
 11
261.608867765279
 21
118.813218405707
 31
0.0
 73
     2
  0
LINE
  5
   266
  8
0
  6
CONTINUOUS
 62
     7
 10
231.800452282447
 20
124.838210006135
 30
0.0
 11
266.108867754635
 21
124.838210006135
 31
0.0
  0
LINE
  5
   267
  8
0
  6
CONTINUOUS
 62
     7
 10
232.85622290669
 20
128.338209946531
 30
0.0
 11
266.108867754635
 21
128.338209946531
 31
0.0
  0
LINE
  5
   268
  8
0
  6
CONTINUOUS
 62
     7
 10
264.108867754635
 20
116.313218423446
 30
0.0
 11
264.108867754635
 21
128.338209946531
 31
0.0
  0
LINE
  5
   269
  8
0
  6
CONTINUOUS
 62
     7
 10
264.629812184587
 20
121.883786728928
 30
0.0
 11
264.108867754635
 21
124.838210006135
 31
0.0
  0
LINE
  5
   26A
  8
0
  6
CONTINUOUS
 62
     7
 10
264.108867754635
 20
124.838210006135
 30
0.0
 11
263.587923324684
 21
121.883786728928
 31
0.0
  0
LINE
  5
   26B
  8
0
  6
CONTINUOUS
 62
     7
 10
263.587923324684
 20
131.292633223738
 30
0.0
 11
264.108867754635
 21
128.338209946531
 31
0.0
  0
LINE
  5
   26C
  8
0
  6
CONTINUOUS
 62
     7
 10
264.108867754635
 20
128.338209946531
 30
0.0
 11
264.629812184587
 21
131.292633223738
 31
0.0
  0
ENDBLK
  5
   26D
  8
0
  6
CONTINUOUS
 62
     7
  0
BLOCK
  5
   26E
  8
0
  6
CONTINUOUS
 62
     7
  2
*UDIM766
 70
    65
 10
0.0
 20
0.0
 30
0.0
  3
*UDIM766
  0
TEXT
  5
   26F
  8
0
  6
CONTINUOUS
 62
     7
 10
193.998124924767
 20
31.7194767635228
 30
0.0
 40
2.99999997871263
  1
110,75
 50
89.9999999480344
 41
0.933333333333333
 72
     1
 11
192.498124942747
 21
39.8194767074055
 31
0.0
 73
     2
  0
LINE
  5
   270
  8
0
  6
CONTINUOUS
 62
     7
 10
222.63121421122
 20
20.7132293517586
 30
0.0
 11
192.998124932103
 21
20.7132293517586
 31
0.0
  0
LINE
  5
   271
  8
0
  6
CONTINUOUS
 62
     7
 10
206.509294059185
 20
59.4757227483442
 30
0.0
 11
192.998124932103
 21
59.4757227483442
 31
0.0
  0
LINE
  5
   272
  8
0
  6
CONTINUOUS
 62
     7
 10
194.998124932103
 20
20.7132293517586
 30
0.0
 11
194.998124932103
 21
59.4757227483442
 31
0.0
  0
LINE
  5
   273
  8
0
  6
CONTINUOUS
 62
     7
 10
194.477180502151
 20
23.6676526289655
 30
0.0
 11
194.998124932103
 21
20.7132293517586
 31
0.0
  0
LINE
  5
   274
  8
0
  6
CONTINUOUS
 62
     7
 10
194.998124932103
 20
20.7132293517586
 30
0.0
 11
195.519069362055
 21
23.6676526289655
 31
0.0
  0
LINE
  5
   275
  8
0
  6
CONTINUOUS
 62
     7
 10
195.519069362055
 20
56.5212994711373
 30
0.0
 11
194.998124932103
 21
59.4757227483442
 31
0.0
  0
LINE
  5
   276
  8
0
  6
CONTINUOUS
 62
     7
 10
194.998124932103
 20
59.4757227483442
 30
0.0
 11
194.477180502151
 21
56.5212994711373
 31
0.0
  0
ENDBLK
  5
   277
  8
0
  6
CONTINUOUS
 62
     7
  0
BLOCK
  5
   278
  8
0
  6
CONTINUOUS
 62
     7
  2
*UDIM767
 70
    65
 10
0.0
 20
0.0
 30
0.0
  3
*UDIM767
  0
TEXT
  5
   279
  8
0
  6
CONTINUOUS
 62
     7
 10
201.660468396762
 20
28.5619034167738
 30
0.0
 40
2.99999997871263
  1
11
 50
89.9999999480344
 41
0.933333333333333
 72
     1
 11
200.16046840967
 21
31.0619034003929
 31
0.0
 73
     2
  0
LINE
  5
   27A
  8
0
  6
CONTINUOUS
 62
     7
 10
222.63121421122
 20
20.7132293517586
 30
0.0
 11
200.660468399026
 21
20.7132293517586
 31
0.0
  0
LINE
  5
   27B
  8
0
  6
CONTINUOUS
 62
     7
 10
225.431214163537
 20
24.5631934738515
 30
0.0
 11
200.660468399026
 21
24.5631934738515
 31
0.0
  0
LINE
  5
   27C
  8
0
  6
CONTINUOUS
 62
     7
 10
202.660468399026
 20
20.7132293517586
 30
0.0
 11
202.660468399026
 21
33.5619033826534
 31
0.0
  0
LINE
  5
   27D
  8
0
  6
CONTINUOUS
 62
     7
 10
203.181412828978
 20
17.7588060745516
 30
0.0
 11
202.660468399026
 21
20.7132293517586
 31
0.0
  0
LINE
  5
   27E
  8
0
  6
CONTINUOUS
 62
     7
 10
202.660468399026
 20
20.7132293517586
 30
0.0
 11
202.139523969075
 21
17.7588060745516
 31
0.0
  0
LINE
  5
   27F
  8
0
  6
CONTINUOUS
 62
     7
 10
202.139523969075
 20
27.5176167510585
 30
0.0
 11
202.660468399026
 21
24.5631934738515
 31
0.0
  0
LINE
  5
   280
  8
0
  6
CONTINUOUS
 62
     7
 10
202.660468399026
 20
24.5631934738515
 30
0.0
 11
203.181412828978
 21
27.5176167510585
 31
0.0
  0
ENDBLK
  5
   281
  8
0
  6
CONTINUOUS
 62
     7
  0
BLOCK
  5
   282
  8
0
  6
CONTINUOUS
 62
     0
  2
ON-OFF
 70
    64
 10
0.0
 20
0.0
 30
0.0
  3
ON-OFF
  0
LINE
  5
   283
  8
0
  6
CONTINUOUS
 62
     0
 10
5.09999999999999
 20
-29.65
 30
0.0
 11
5.54999999999999
 21
-29.65
 31
0.0
  0
LINE
  5
   284
  8
0
  6
CONTINUOUS
 62
     0
 10
3.79999999999999
 20
-37.35
 30
0.0
 11
4.59999999999999
 21
-37.35
 31
0.0
  0
LINE
  5
   285
  8
0
  6
CONTINUOUS
 62
     0
 10
-2.6
 20
-34.75
 30
0.0
 11
-2.6
 21
-34.25
 31
0.0
  0
LINE
  5
   286
  8
0
  6
CONTINUOUS
 62
     0
 10
2.6
 20
-34.75
 30
0.0
 11
2.6
 21
-34.25
 31
0.0
  0
ARC
  5
   287
  8
0
  6
CONTINUOUS
 62
     0
 10
-3.5527136788005E-15
 20
-34.25
 30
0.0
 40
2.6
 50
0.0
 51
180.0
  0
ARC
  5
   288
  8
0
  6
CONTINUOUS
 62
     0
 10
-3.5527136788005E-15
 20
-34.75
 30
0.0
 40
2.6
 50
180.0
 51
360.0
  0
ARC
  5
   289
  8
0
  6
CONTINUOUS
 62
     0
 10
-3.5527136788005E-15
 20
-34.25
 30
0.0
 40
1.8
 50
0.0
 51
180.0
  0
ARC
  5
   28A
  8
0
  6
CONTINUOUS
 62
     0
 10
-3.5527136788005E-15
 20
-34.75
 30
0.0
 40
1.8
 50
180.0
 51
360.0
  0
LINE
  5
   28B
  8
0
  6
CONTINUOUS
 62
     0
 10
-1.8
 20
-34.75
 30
0.0
 11
-1.8
 21
-34.25
 31
0.0
  0
LINE
  5
   28C
  8
0
  6
CONTINUOUS
 62
     0
 10
1.8
 20
-34.75
 30
0.0
 11
1.8
 21
-34.25
 31
0.0
  0
LINE
  5
   28D
  8
0
  6
CONTINUOUS
 62
     0
 10
2.84999999999999
 20
-32.85
 30
0.0
 11
2.84999999999999
 21
-32.05
 31
0.0
  0
LINE
  5
   28E
  8
0
  6
CONTINUOUS
 62
     0
 10
2.84999999999999
 20
-32.85
 30
0.0
 11
3.79999999999999
 21
-32.85
 31
0.0
  0
LINE
  5
   28F
  8
0
  6
CONTINUOUS
 62
     0
 10
5.54999999999999
 20
-32.85
 30
0.0
 11
5.54999999999999
 21
-32.05
 31
0.0
  0
LINE
  5
   290
  8
0
  6
CONTINUOUS
 62
     0
 10
2.84999999999999
 20
-32.05
 30
0.0
 11
3.79999999999999
 21
-32.05
 31
0.0
  0
LINE
  5
   291
  8
0
  6
CONTINUOUS
 62
     0
 10
3.79999999999999
 20
-37.35
 30
0.0
 11
3.79999999999999
 21
-32.85
 31
0.0
  0
LINE
  5
   292
  8
0
  6
CONTINUOUS
 62
     0
 10
4.59999999999999
 20
-37.35
 30
0.0
 11
4.59999999999999
 21
-32.85
 31
0.0
  0
LINE
  5
   293
  8
0
  6
CONTINUOUS
 62
     0
 10
4.59999999999999
 20
-32.85
 30
0.0
 11
5.54999999999999
 21
-32.85
 31
0.0
  0
LINE
  5
   294
  8
0
  6
CONTINUOUS
 62
     0
 10
4.59999999999999
 20
-32.05
 30
0.0
 11
5.54999999999999
 21
-32.05
 31
0.0
  0
LINE
  5
   295
  8
0
  6
CONTINUOUS
 62
     0
 10
3.79999999999999
 20
-32.05
 30
0.0
 11
3.79999999999999
 21
-30.95
 31
0.0
  0
LINE
  5
   296
  8
0
  6
CONTINUOUS
 62
     0
 10
4.59999999999999
 20
-32.05
 30
0.0
 11
4.59999999999999
 21
-30.95
 31
0.0
  0
ARC
  5
   297
  8
0
  6
CONTINUOUS
 62
     0
 10
5.09999999999999
 20
-30.95
 30
0.0
 40
1.3
 50
89.9999999999999
 51
180.0
  0
ARC
  5
   298
  8
0
  6
CONTINUOUS
 62
     0
 10
5.09999999999999
 20
-30.95
 30
0.0
 40
0.5
 50
89.9999999999999
 51
180.0
  0
LINE
  5
   299
  8
0
  6
CONTINUOUS
 62
     0
 10
5.54999999999999
 20
-30.45
 30
0.0
 11
5.54999999999999
 21
-29.65
 31
0.0
  0
LINE
  5
   29A
  8
0
  6
CONTINUOUS
 62
     0
 10
5.09999999999999
 20
-30.45
 30
0.0
 11
5.54999999999999
 21
-30.45
 31
0.0
  0
LINE
  5
   29B
  8
0
  6
CONTINUOUS
 62
     0
 10
8.29999999999998
 20
-29.65
 30
0.0
 11
8.74999999999999
 21
-29.65
 31
0.0
  0
LINE
  5
   29C
  8
0
  6
CONTINUOUS
 62
     0
 10
6.99999999999999
 20
-37.35
 30
0.0
 11
7.79999999999999
 21
-37.35
 31
0.0
  0
LINE
  5
   29D
  8
0
  6
CONTINUOUS
 62
     0
 10
6.04999999999999
 20
-32.85
 30
0.0
 11
6.04999999999999
 21
-32.05
 31
0.0
  0
LINE
  5
   29E
  8
0
  6
CONTINUOUS
 62
     0
 10
6.04999999999999
 20
-32.85
 30
0.0
 11
6.99999999999999
 21
-32.85
 31
0.0
  0
LINE
  5
   29F
  8
0
  6
CONTINUOUS
 62
     0
 10
8.74999999999999
 20
-32.85
 30
0.0
 11
8.74999999999999
 21
-32.05
 31
0.0
  0
LINE
  5
   2A0
  8
0
  6
CONTINUOUS
 62
     0
 10
6.04999999999999
 20
-32.05
 30
0.0
 11
6.99999999999999
 21
-32.05
 31
0.0
  0
LINE
  5
   2A1
  8
0
  6
CONTINUOUS
 62
     0
 10
6.99999999999999
 20
-37.35
 30
0.0
 11
6.99999999999999
 21
-32.85
 31
0.0
  0
LINE
  5
   2A2
  8
0
  6
CONTINUOUS
 62
     0
 10
7.79999999999999
 20
-37.35
 30
0.0
 11
7.79999999999999
 21
-32.85
 31
0.0
  0
LINE
  5
   2A3
  8
0
  6
CONTINUOUS
 62
     0
 10
7.79999999999999
 20
-32.85
 30
0.0
 11
8.74999999999999
 21
-32.85
 31
0.0
  0
LINE
  5
   2A4
  8
0
  6
CONTINUOUS
 62
     0
 10
7.79999999999999
 20
-32.05
 30
0.0
 11
8.74999999999999
 21
-32.05
 31
0.0
  0
LINE
  5
   2A5
  8
0
  6
CONTINUOUS
 62
     0
 10
6.99999999999999
 20
-32.05
 30
0.0
 11
6.99999999999999
 21
-30.95
 31
0.0
  0
LINE
  5
   2A6
  8
0
  6
CONTINUOUS
 62
     0
 10
7.79999999999999
 20
-32.05
 30
0.0
 11
7.79999999999999
 21
-30.95
 31
0.0
  0
ARC
  5
   2A7
  8
0
  6
CONTINUOUS
 62
     0
 10
8.29999999999998
 20
-30.95
 30
0.0
 40
1.3
 50
89.9999999999999
 51
180.0
  0
ARC
  5
   2A8
  8
0
  6
CONTINUOUS
 62
     0
 10
8.29999999999998
 20
-30.95
 30
0.0
 40
0.5
 50
89.9999999999999
 51
180.0
  0
LINE
  5
   2A9
  8
0
  6
CONTINUOUS
 62
     0
 10
8.74999999999999
 20
-30.45
 30
0.0
 11
8.74999999999999
 21
-29.65
 31
0.0
  0
LINE
  5
   2AA
  8
0
  6
CONTINUOUS
 62
     0
 10
8.29999999999998
 20
-30.45
 30
0.0
 11
8.74999999999999
 21
-30.45
 31
0.0
  0
LINE
  5
   2AB
  8
0
  6
CONTINUOUS
 62
     0
 10
3.4
 20
-2.85000000000002
 30
0.0
 11
4.19999999999999
 21
-2.85000000000002
 31
0.0
  0
ARC
  5
   2AC
  8
0
  6
CONTINUOUS
 62
     0
 10
-3.5527136788005E-15
 20
0.249999999999979
 30
0.0
 40
2.6
 50
0.0
 51
180.0
  0
ARC
  5
   2AD
  8
0
  6
CONTINUOUS
 62
     0
 10
-3.5527136788005E-15
 20
0.249999999999979
 30
0.0
 40
1.8
 50
0.0
 51
180.0
  0
ARC
  5
   2AE
  8
0
  6
CONTINUOUS
 62
     0
 10
-3.5527136788005E-15
 20
-0.250000000000018
 30
0.0
 40
2.6
 50
180.0
 51
360.0
  0
ARC
  5
   2AF
  8
0
  6
CONTINUOUS
 62
     0
 10
-3.5527136788005E-15
 20
-0.250000000000018
 30
0.0
 40
1.8
 50
180.0
 51
360.0
  0
LINE
  5
   2B0
  8
0
  6
CONTINUOUS
 62
     0
 10
1.8
 20
-0.250000000000018
 30
0.0
 11
1.8
 21
0.249999999999979
 31
0.0
  0
LINE
  5
   2B1
  8
0
  6
CONTINUOUS
 62
     0
 10
2.6
 20
-0.250000000000018
 30
0.0
 11
2.6
 21
0.249999999999979
 31
0.0
  0
LINE
  5
   2B2
  8
0
  6
CONTINUOUS
 62
     0
 10
-1.8
 20
-0.250000000000032
 30
0.0
 11
-1.8
 21
0.249999999999964
 31
0.0
  0
LINE
  5
   2B3
  8
0
  6
CONTINUOUS
 62
     0
 10
-2.6
 20
-0.250000000000018
 30
0.0
 11
-2.6
 21
0.249999999999979
 31
0.0
  0
LINE
  5
   2B4
  8
0
  6
CONTINUOUS
 62
     0
 10
3.4
 20
-2.85000000000002
 30
0.0
 11
3.4
 21
2.84999999999998
 31
0.0
  0
LINE
  5
   2B5
  8
0
  6
CONTINUOUS
 62
     0
 10
4.19999999999999
 20
-2.85000000000002
 30
0.0
 11
4.19999999999999
 21
0.649999999999981
 31
0.0
  0
LINE
  5
   2B6
  8
0
  6
CONTINUOUS
 62
     0
 10
6.99999999999999
 20
-2.85000000000002
 30
0.0
 11
6.99999999999999
 21
0.649999999999981
 31
0.0
  0
LINE
  5
   2B7
  8
0
  6
CONTINUOUS
 62
     0
 10
7.79999999999999
 20
-2.85000000000002
 30
0.0
 11
7.79999999999999
 21
0.84999999999998
 31
0.0
  0
LINE
  5
   2B8
  8
0
  6
CONTINUOUS
 62
     0
 10
3.4
 20
2.84999999999998
 30
0.0
 11
4.19999999999999
 21
2.84999999999998
 31
0.0
  0
ARC
  5
   2B9
  8
0
  6
CONTINUOUS
 62
     0
 10
5.59999999999999
 20
0.649999999999981
 30
0.0
 40
1.4
 50
0.0
 51
180.0
  0
LINE
  5
   2BA
  8
0
  6
CONTINUOUS
 62
     0
 10
4.19999999999999
 20
2.05
 30
0.0
 11
4.19999999999999
 21
2.84999999999998
 31
0.0
  0
ARC
  5
   2BB
  8
0
  6
CONTINUOUS
 62
     0
 10
5.79999999999999
 20
0.84999999999998
 30
0.0
 40
2.0
 50
0.0
 51
143.130102354155
  0
LINE
  5
   2BC
  8
0
  6
CONTINUOUS
 62
     0
 10
6.99999999999999
 20
-2.85000000000002
 30
0.0
 11
7.79999999999999
 21
-2.85000000000002
 31
0.0
  0
ENDBLK
  5
   2BD
  8
0
  6
CONTINUOUS
 62
     0
  0
BLOCK
  5
   2BE
  8
0
  6
CONTINUOUS
 62
     7
  2
MOSTRINA
 70
    64
 10
0.0
 20
0.0
 30
0.0
  3
MOSTRINA
  0
LINE
  5
   2BF
  8
0
  6
CONTINUOUS
 62
     3
 10
173.338256835938
 20
30.7306251525879
 30
0.0
 11
173.338256835938
 21
189.230621337891
 31
0.0
  0
LINE
  5
   2C0
  8
0
  6
CONTINUOUS
 62
     3
 10
57.5882568359375
 20
29.4806251525879
 30
0.0
 11
172.088256835938
 21
29.4806251525879
 31
0.0
  0
LINE
  5
   2C1
  8
0
  6
CONTINUOUS
 62
     3
 10
56.3382568359375
 20
30.7306251525879
 30
0.0
 11
56.3382568359375
 21
189.230621337891
 31
0.0
  0
LINE
  5
   2C2
  8
0
  6
CONTINUOUS
 62
     3
 10
57.5882568359375
 20
190.480621337891
 30
0.0
 11
172.088256835938
 21
190.480621337891
 31
0.0
  0
LINE
  5
   2C3
  8
0
  6
CONTINUOUS
 62
     3
 10
167.838256835938
 20
56.9806251525879
 30
0.0
 11
167.838256835938
 21
162.980625152588
 31
0.0
  0
LINE
  5
   2C4
  8
0
  6
CONTINUOUS
 62
     3
 10
61.8382568359375
 20
56.9806251525879
 30
0.0
 11
167.838256835938
 21
56.9806251525879
 31
0.0
  0
LINE
  5
   2C5
  8
0
  6
CONTINUOUS
 62
     3
 10
61.8382568359375
 20
56.9806251525879
 30
0.0
 11
61.8382568359375
 21
162.980625152588
 31
0.0
  0
LINE
  5
   2C6
  8
0
  6
CONTINUOUS
 62
     3
 10
61.8382568359375
 20
162.980621337891
 30
0.0
 11
167.838256835938
 21
162.980621337891
 31
0.0
  0
LINE
  5
   2C7
  8
0
  6
CONTINUOUS
 62
     3
 10
168.838256835938
 20
48.4806251525879
 30
0.0
 11
168.838256835938
 21
49.4806251525879
 31
0.0
  0
LINE
  5
   2C8
  8
0
  6
CONTINUOUS
 62
     3
 10
61.8382568359375
 20
50.4806251525879
 30
0.0
 11
167.838256835938
 21
50.4806251525879
 31
0.0
  0
LINE
  5
   2C9
  8
0
  6
CONTINUOUS
 62
     3
 10
60.8382568359375
 20
48.4806251525879
 30
0.0
 11
60.8382568359375
 21
49.4806251525879
 31
0.0
  0
LINE
  5
   2CA
  8
0
  6
CONTINUOUS
 62
     3
 10
61.8382568359375
 20
49.4806251525879
 30
0.0
 11
167.838256835938
 21
49.4806251525879
 31
0.0
  0
LINE
  5
   2CB
  8
0
  6
CONTINUOUS
 62
     3
 10
60.8382568359375
 20
29.4806251525879
 30
0.0
 11
60.8382568359375
 21
48.4806251525879
 31
0.0
  0
LINE
  5
   2CC
  8
0
  6
CONTINUOUS
 62
     3
 10
60.8382568359375
 20
49.4806213378906
 30
0.0
 11
60.8382568359375
 21
190.480621337891
 31
0.0
  0
LINE
  5
   2CD
  8
0
  6
CONTINUOUS
 62
     3
 10
61.8382568359375
 20
29.4806251525879
 30
0.0
 11
61.8382568359375
 21
49.4806251525879
 31
0.0
  0
LINE
  5
   2CE
  8
0
  6
CONTINUOUS
 62
     3
 10
61.8382568359375
 20
162.980621337891
 30
0.0
 11
61.8382568359375
 21
169.480621337891
 31
0.0
  0
LINE
  5
   2CF
  8
0
  6
CONTINUOUS
 62
     3
 10
61.8382568359375
 20
50.4806251525879
 30
0.0
 11
61.8382568359375
 21
56.9806251525879
 31
0.0
  0
LINE
  5
   2D0
  8
0
  6
CONTINUOUS
 62
     3
 10
168.838256835938
 20
29.4806251525879
 30
0.0
 11
168.838256835938
 21
48.4806251525879
 31
0.0
  0
LINE
  5
   2D1
  8
0
  6
CONTINUOUS
 62
     3
 10
168.838256835938
 20
49.4806251525879
 30
0.0
 11
168.838256835938
 21
190.480621337891
 31
0.0
  0
LINE
  5
   2D2
  8
0
  6
CONTINUOUS
 62
     3
 10
167.838256835938
 20
50.4806251525879
 30
0.0
 11
167.838256835938
 21
56.9806251525879
 31
0.0
  0
LINE
  5
   2D3
  8
0
  6
CONTINUOUS
 62
     3
 10
167.838256835938
 20
162.980621337891
 30
0.0
 11
167.838256835938
 21
169.480621337891
 31
0.0
  0
LINE
  5
   2D4
  8
0
  6
CONTINUOUS
 62
     3
 10
167.838256835938
 20
29.4806251525879
 30
0.0
 11
167.838256835938
 21
49.4806251525879
 31
0.0
  0
LINE
  5
   2D5
  8
0
  6
CONTINUOUS
 62
     3
 10
60.8382568359375
 20
170.480621337891
 30
0.0
 11
168.838256835938
 21
170.480621337891
 31
0.0
  0
LINE
  5
   2D6
  8
0
  6
CONTINUOUS
 62
     3
 10
61.8382568359375
 20
169.480621337891
 30
0.0
 11
167.838256835938
 21
169.480621337891
 31
0.0
  0
ARC
  5
   2D7
  8
0
  6
CONTINUOUS
 62
     3
 10
57.5882568359375
 20
30.7306251525879
 30
0.0
 40
1.25
 50
180.0
 51
270.0
  0
ARC
  5
   2D8
  8
0
  6
CONTINUOUS
 62
     3
 10
172.088256835938
 20
30.7306251525879
 30
0.0
 40
1.25
 50
270.0
 51
360.0
  0
ARC
  5
   2D9
  8
0
  6
CONTINUOUS
 62
     3
 10
172.088256835938
 20
189.230621337891
 30
0.0
 40
1.25
 50
0.0
 51
90.0
  0
ARC
  5
   2DA
  8
0
  6
CONTINUOUS
 62
     3
 10
57.5882568359375
 20
189.230621337891
 30
0.0
 40
1.25
 50
90.0
 51
180.0
  0
LINE
  5
   2DB
  8
0
  6
DOT
 62
     3
 10
60.3382577409677
 20
179.7306252571
 30
0.0
 11
60.8382568359375
 21
179.7306252571
 31
0.0
  0
LINE
  5
   2DC
  8
0
  6
DOT
 62
     3
 10
60.3382577409676
 20
181.2306252571
 30
0.0
 11
60.8382568359375
 21
181.2306252571
 31
0.0
  0
LINE
  5
   2DD
  8
0
  6
CONTINUOUS
 62
     3
 10
168.338257745313
 20
179.730625257273
 30
0.0
 11
168.838256835938
 21
179.730625257273
 31
0.0
  0
LINE
  5
   2DE
  8
0
  6
CONTINUOUS
 62
     3
 10
168.338257745314
 20
181.230625257273
 30
0.0
 11
168.838256835938
 21
181.230625257273
 31
0.0
  0
ARC
  5
   2DF
  8
0
  6
DOT
 62
     3
 10
60.3382577401871
 20
180.480625257147
 30
0.0
 40
0.749999999345164
 50
90.0
 51
270.0
  0
ARC
  5
   2E0
  8
0
  6
CONTINUOUS
 62
     3
 10
61.338257740822
 20
180.480625256974
 30
0.0
 40
0.750000000009701
 50
270.0
 51
450.0
  0
LINE
  5
   2E1
  8
0
  6
CONTINUOUS
 62
     3
 10
60.8382568359375
 20
181.2306252571
 30
0.0
 11
61.3382577409688
 21
181.2306252571
 31
0.0
  0
LINE
  5
   2E2
  8
0
  6
CONTINUOUS
 62
     3
 10
60.8382568359375
 20
179.7306252571
 30
0.0
 11
61.3382577409689
 21
179.7306252571
 31
0.0
  0
ARC
  5
   2E3
  8
0
  6
CONTINUOUS
 62
     3
 10
168.338257745503
 20
180.480625256952
 30
0.0
 40
0.750000000048506
 50
90.0000000038822
 51
269.999999996024
  0
ARC
  5
   2E4
  8
0
  6
DOT
 62
     3
 10
169.338257745421
 20
180.480625256965
 30
0.0
 40
0.750000000029104
 50
270.000000002449
 51
449.999999997486
  0
LINE
  5
   2E5
  8
0
  6
DOT
 62
     3
 10
168.838256835938
 20
181.230625257273
 30
0.0
 11
169.338257745315
 21
181.230625257273
 31
0.0
  0
LINE
  5
   2E6
  8
0
  6
DOT
 62
     3
 10
168.838256835938
 20
179.730625257273
 30
0.0
 11
169.338257745315
 21
179.730625257273
 31
0.0
  0
POINT
  5
   2E7
  8
0
  6
CONTINUOUS
 62
     3
 10
114.838256835938
 20
109.980621337891
 30
0.0
  0
ENDBLK
  5
   2E8
  8
0
  6
CONTINUOUS
 62
     7
  0
BLOCK
  5
   2E9
  8
0
  6
CONTINUOUS
 62
     7
  2
T_A_D_F_
 70
    64
 10
0.0
 20
0.0
 30
0.0
  3
T_A_D_F_
  0
LINE
  5
   2EA
  8
0
  6
CONTINUOUS
 62
     1
 10
-23.0000351141653
 20
97.5000172236092
 30
0.0
 11
-23.0000351141653
 21
100.000017223609
 31
0.0
  0
LINE
  5
   2EB
  8
0
  6
CONTINUOUS
 62
     1
 10
-19.2500351141653
 20
94.7000167944558
 30
0.0
 11
-19.0000351141653
 21
94.7000167944558
 31
0.0
  0
LINE
  5
   2EC
  8
0
  6
CONTINUOUS
 62
     1
 10
-19.7500351141653
 20
91.500016746772
 30
0.0
 11
-19.7500351141653
 21
94.5000172236092
 31
0.0
  0
LINE
  5
   2ED
  8
0
  6
CONTINUOUS
 62
     1
 10
-19.7500351141653
 20
91.500016746772
 30
0.0
 11
-15.2500351141653
 21
91.500016746772
 31
0.0
  0
LINE
  5
   2EE
  8
0
  6
CONTINUOUS
 62
     1
 10
-15.2500351141653
 20
91.500016746772
 30
0.0
 11
-15.2500351141653
 21
94.5000172236092
 31
0.0
  0
LINE
  5
   2EF
  8
0
  6
CONTINUOUS
 62
     1
 10
-16.0000351141653
 20
94.7000167944558
 30
0.0
 11
-15.7500351141653
 21
94.7000167944558
 31
0.0
  0
LINE
  5
   2F0
  8
0
  6
CONTINUOUS
 62
     1
 10
-16.0000351141653
 20
94.7000165560372
 30
0.0
 11
-16.0000351141653
 21
100.000016746772
 31
0.0
  0
LINE
  5
   2F1
  8
0
  6
CONTINUOUS
 62
     1
 10
-19.0000351141653
 20
94.7000165560372
 30
0.0
 11
-19.0000351141653
 21
100.000016746772
 31
0.0
  0
LINE
  5
   2F2
  8
0
  6
CONTINUOUS
 62
     1
 10
-19.0000351141653
 20
93.7000167944558
 30
0.0
 11
-19.0000351141653
 21
94.7000167944558
 31
0.0
  0
LINE
  5
   2F3
  8
0
  6
CONTINUOUS
 62
     1
 10
-16.0000351141653
 20
93.7000167944558
 30
0.0
 11
-16.0000351141653
 21
94.7000167944558
 31
0.0
  0
LINE
  5
   2F4
  8
0
  6
CONTINUOUS
 62
     1
 10
-19.7500351141653
 20
93.7000167944558
 30
0.0
 11
-19.0000351141653
 21
93.7000167944558
 31
0.0
  0
LINE
  5
   2F5
  8
0
  6
CONTINUOUS
 62
     1
 10
-16.0000351141653
 20
93.7000167944558
 30
0.0
 11
-15.2500351141653
 21
93.7000167944558
 31
0.0
  0
LINE
  5
   2F6
  8
0
  6
CONTINUOUS
 62
     7
 10
-65.0000350414602
 20
136.499969482422
 30
0.0
 11
-45.0000293194143
 21
116.54997482426
 31
0.0
  0
LINE
  5
   2F7
  8
0
  6
CONTINUOUS
 62
     7
 10
-65.0000350414602
 20
136.499969482422
 30
0.0
 11
-65.0000350414602
 21
156.499954223633
 31
0.0
  0
LINE
  5
   2F8
  8
0
  6
CONTINUOUS
 62
     7
 10
-35.0000350414602
 20
136.499969482422
 30
0.0
 11
-35.0000350414602
 21
156.499984741211
 31
0.0
  0
LINE
  5
   2F9
  8
0
  6
CONTINUOUS
 62
     7
 10
-35.0000350414602
 20
136.500078882797
 30
0.0
 11
-25.0000312267629
 21
116.549949934608
 31
0.0
  0
CIRCLE
  5
   2FA
  8
0
  6
CONTINUOUS
 62
     7
 10
-50.0000350490287
 20
143.999969482422
 30
0.0
 40
4.24999989315225
  0
LINE
  5
   2FB
  8
0
  6
CONTINUOUS
 62
     7
 10
-45.0000293194143
 20
97.5000172236092
 30
0.0
 11
-45.0000293194143
 21
116.54997482426
 31
0.0
  0
LINE
  5
   2FC
  8
0
  6
CONTINUOUS
 62
     7
 10
-25.000031226763
 20
97.5000172236092
 30
0.0
 11
-25.000031226763
 21
116.549949934608
 31
0.0
  0
LINE
  5
   2FD
  8
0
  6
CONTINUOUS
 62
     7
 10
-43.4148668831296
 20
116.414616582203
 30
0.0
 11
-26.2511121498852
 21
116.414616582203
 31
0.0
  0
LINE
  5
   2FE
  8
0
  6
CONTINUOUS
 62
     7
 10
-43.3102098420734
 20
107.088461541377
 30
0.0
 11
-26.4080977114697
 21
107.088461541377
 31
0.0
  0
LINE
  5
   2FF
  8
0
  6
CONTINUOUS
 62
     7
 10
-65.0000351189409
 20
156.499954223633
 30
0.0
 11
-35.0000351135236
 21
156.499984741211
 31
0.0
  0
LINE
  5
   300
  8
0
  6
CONTINUOUS
 62
     7
 10
24.9999649585398
 20
100.000017223609
 30
0.0
 11
24.9999649585398
 21
116.549972224341
 31
0.0
  0
LINE
  5
   301
  8
0
  6
CONTINUOUS
 62
     7
 10
44.9999649585398
 20
100.000017223609
 30
0.0
 11
44.9999649585398
 21
116.54997516363
 31
0.0
  0
LINE
  5
   302
  8
0
  6
CONTINUOUS
 62
     7
 10
26.6897781178244
 20
107.088461541377
 30
0.0
 11
43.5918902484281
 21
107.088461541377
 31
0.0
  0
LINE
  5
   303
  8
0
  6
CONTINUOUS
 62
     7
 10
26.5851210767682
 20
116.414616582203
 30
0.0
 11
43.7488758100126
 21
116.414616582203
 31
0.0
  0
LINE
  5
   304
  8
0
  6
CONTINUOUS
 62
     7
 10
24.9999649585398
 20
116.549972224341
 30
0.0
 11
34.9999679051964
 21
136.499969482422
 31
0.0
  0
LINE
  5
   305
  8
0
  6
CONTINUOUS
 62
     7
 10
44.9999649585397
 20
116.54997516363
 30
0.0
 11
64.9999679051964
 21
136.499969482422
 31
0.0
  0
LINE
  5
   306
  8
0
  6
CONTINUOUS
 62
     7
 10
34.9999679051964
 20
136.499969482422
 30
0.0
 11
34.9999679051964
 21
156.499984741211
 31
0.0
  0
LINE
  5
   307
  8
0
  6
CONTINUOUS
 62
     7
 10
64.9999679051964
 20
136.499969482422
 30
0.0
 11
64.9999679051964
 21
156.499954223633
 31
0.0
  0
LINE
  5
   308
  8
0
  6
CONTINUOUS
 62
     7
 10
34.999967933899
 20
156.499984741211
 30
0.0
 11
64.9999679284816
 21
156.499954223633
 31
0.0
  0
CIRCLE
  5
   309
  8
0
  6
CONTINUOUS
 62
     7
 10
49.9999679051964
 20
143.999969482422
 30
0.0
 40
4.24999966037541
  0
LINE
  5
   30A
  8
0
  6
CONTINUOUS
 62
     7
 10
-15.0000462517952
 20
156.499969144498
 30
0.0
 11
14.9999537482047
 21
156.499969144498
 31
0.0
  0
LINE
  5
   30B
  8
0
  6
CONTINUOUS
 62
     7
 10
-10.0000906795993
 20
100.000017223609
 30
0.0
 11
-10.0000906795993
 21
116.500324563773
 31
0.0
  0
LINE
  5
   30C
  8
0
  6
CONTINUOUS
 62
     7
 10
9.99990932040068
 20
100.000017223609
 30
0.0
 11
9.99990932040068
 21
116.499969144498
 31
0.0
  0
LINE
  5
   30D
  8
0
  6
CONTINUOUS
 62
     7
 10
-15.0000462517952
 20
136.499969144499
 30
0.0
 11
-10.0000018239912
 21
116.499969144498
 31
0.0
  0
LINE
  5
   30E
  8
0
  6
CONTINUOUS
 62
     7
 10
9.99990932040071
 20
116.499969144498
 30
0.0
 11
14.9999537482048
 21
136.499969144498
 31
0.0
  0
LINE
  5
   30F
  8
0
  6
CONTINUOUS
 62
     7
 10
14.9999537482047
 20
136.499969144498
 30
0.0
 11
14.9999537482047
 21
156.499969144498
 31
0.0
  0
LINE
  5
   310
  8
0
  6
CONTINUOUS
 62
     7
 10
-15.0000462517953
 20
136.499969144498
 30
0.0
 11
-15.0000462517953
 21
156.499969144498
 31
0.0
  0
CIRCLE
  5
   311
  8
0
  6
CONTINUOUS
 62
     7
 10
-4.62517952169538E-5
 20
143.999969144498
 30
0.0
 40
4.25
  0
LINE
  5
   312
  8
0
  6
CONTINUOUS
 62
     7
 10
-8.41493456137091
 20
116.414616582203
 30
0.0
 11
8.7488201718735
 21
116.414616582203
 31
0.0
  0
LINE
  5
   313
  8
0
  6
CONTINUOUS
 62
     7
 10
-8.31027752031465
 20
107.088461541377
 30
0.0
 11
8.59183461028898
 21
107.088461541377
 31
0.0
  0
LINE
  5
   314
  8
0
  6
CONTINUOUS
 62
     1
 10
22.9999648858347
 20
100.000017223609
 30
0.0
 11
22.9999648858347
 21
103.000017223609
 31
0.0
  0
LINE
  5
   315
  8
0
  6
CONTINUOUS
 62
     1
 10
11.9999648858347
 20
103.000017223609
 30
0.0
 11
15.9999648858347
 21
103.000017223609
 31
0.0
  0
LINE
  5
   316
  8
0
  6
CONTINUOUS
 62
     1
 10
18.9999648858347
 20
103.000017223609
 30
0.0
 11
22.9999648858347
 21
103.000017223609
 31
0.0
  0
LINE
  5
   317
  8
0
  6
CONTINUOUS
 62
     1
 10
11.9999648858347
 20
100.000017223609
 30
0.0
 11
11.9999648858347
 21
103.000017223609
 31
0.0
  0
LINE
  5
   318
  8
0
  6
CONTINUOUS
 62
     1
 10
11.9999648858347
 20
100.000017223609
 30
0.0
 11
22.9999648858347
 21
100.000017223609
 31
0.0
  0
LINE
  5
   319
  8
0
  6
CONTINUOUS
 62
     1
 10
11.9999648858347
 20
101.000017223609
 30
0.0
 11
22.9999648858347
 21
101.000017223609
 31
0.0
  0
LINE
  5
   31A
  8
0
  6
CONTINUOUS
 62
     1
 10
18.9999648858348
 20
103.000017223609
 30
0.0
 11
18.9999648858348
 21
115.183092282225
 31
0.0
  0
LINE
  5
   31B
  8
0
  6
DASHDOT
 62
     7
 10
17.4999648858348
 20
96.8752352351778
 30
0.0
 11
17.4999648858348
 21
113.717726607193
 31
0.0
  0
LINE
  5
   31C
  8
0
  6
CONTINUOUS
 62
     1
 10
18.9999648858348
 20
115.183092282226
 30
0.0
 11
29.1991225179144
 21
132.521658671251
 31
0.0
  0
LINE
  5
   31D
  8
0
  6
CONTINUOUS
 62
     1
 10
15.9999648858348
 20
116.000017223609
 30
0.0
 11
26.1697615495216
 21
133.288669970931
 31
0.0
  0
LINE
  5
   31E
  8
0
  6
CONTINUOUS
 62
     1
 10
15.9999648858348
 20
103.000017223609
 30
0.0
 11
15.9999648858348
 21
116.000017223609
 31
0.0
  0
LINE
  5
   31F
  8
0
  6
CONTINUOUS
 62
     1
 10
26.1697615495216
 20
133.288669970934
 30
0.0
 11
26.3099367312506
 21
199.309587085808
 31
0.0
  0
LINE
  5
   320
  8
0
  6
CONTINUOUS
 62
     1
 10
-22.9999648858347
 20
100.000017223609
 30
0.0
 11
-22.9999648858347
 21
103.000017223609
 31
0.0
  0
LINE
  5
   321
  8
0
  6
CONTINUOUS
 62
     1
 10
-15.9999648858347
 20
103.000017223609
 30
0.0
 11
-11.9999648858347
 21
103.000017223609
 31
0.0
  0
LINE
  5
   322
  8
0
  6
CONTINUOUS
 62
     1
 10
-22.9999648858347
 20
103.000017223609
 30
0.0
 11
-18.9999648858347
 21
103.000017223609
 31
0.0
  0
LINE
  5
   323
  8
0
  6
CONTINUOUS
 62
     1
 10
-11.9999648858347
 20
100.000017223609
 30
0.0
 11
-11.9999648858347
 21
103.000017223609
 31
0.0
  0
LINE
  5
   324
  8
0
  6
CONTINUOUS
 62
     1
 10
-22.9999648858347
 20
100.000017223609
 30
0.0
 11
-11.9999648858347
 21
100.000017223609
 31
0.0
  0
LINE
  5
   325
  8
0
  6
CONTINUOUS
 62
     1
 10
-22.9999648858347
 20
101.000017223609
 30
0.0
 11
-11.9999648858347
 21
101.000017223609
 31
0.0
  0
LINE
  5
   326
  8
0
  6
CONTINUOUS
 62
     1
 10
-18.9999648858348
 20
103.000017223609
 30
0.0
 11
-18.9999648858348
 21
115.183092282225
 31
0.0
  0
LINE
  5
   327
  8
0
  6
DASHDOT
 62
     7
 10
-17.4999648858348
 20
96.8752352351778
 30
0.0
 11
-17.4999648858348
 21
113.717726607193
 31
0.0
  0
LINE
  5
   328
  8
0
  6
CONTINUOUS
 62
     1
 10
-29.1991225179144
 20
132.521658671251
 30
0.0
 11
-18.9999648858347
 21
115.183092282225
 31
0.0
  0
LINE
  5
   329
  8
0
  6
CONTINUOUS
 62
     1
 10
-26.1697615495216
 20
133.288669970931
 30
0.0
 11
-15.9999648858347
 21
116.000017223609
 31
0.0
  0
LINE
  5
   32A
  8
0
  6
CONTINUOUS
 62
     1
 10
-15.9999648858348
 20
103.000017223609
 30
0.0
 11
-15.9999648858348
 21
116.000017223609
 31
0.0
  0
LINE
  5
   32B
  8
0
  6
CONTINUOUS
 62
     1
 10
-26.3099367312505
 20
199.30958708581
 30
0.0
 11
-26.1697615495216
 21
133.288669970934
 31
0.0
  0
LINE
  5
   32C
  8
0
  6
CONTINUOUS
 62
     1
 10
-29.1991225179144
 20
132.521658671253
 30
0.0
 11
-28.8995799341105
 21
199.600804158551
 31
0.0
  0
LINE
  5
   32D
  8
0
  6
DASHDOT
 62
     7
 10
-50.0000350490287
 20
137.74996958927
 30
0.0
 11
-50.0000350490287
 21
150.249969375574
 31
0.0
  0
LINE
  5
   32E
  8
0
  6
DASHDOT
 62
     7
 10
-56.250034942181
 20
143.999969482422
 30
0.0
 11
-43.7500351558765
 21
143.999969482422
 31
0.0
  0
LINE
  5
   32F
  8
0
  6
DASHDOT
 62
     7
 10
-4.62517952168926E-5
 20
104.44072495936
 30
0.0
 11
-4.62517952168926E-5
 21
168.878595036318
 31
0.0
  0
LINE
  5
   330
  8
0
  6
DASHDOT
 62
     7
 10
-6.25004625179523
 20
143.999969144498
 30
0.0
 11
6.24995374820477
 21
143.999969144498
 31
0.0
  0
LINE
  5
   331
  8
0
  6
DASHDOT
 62
     7
 10
49.9999679051964
 20
137.749969822046
 30
0.0
 11
49.9999679051964
 21
150.249969142797
 31
0.0
  0
LINE
  5
   332
  8
0
  6
DASHDOT
 62
     7
 10
43.749968244821
 20
143.999969482422
 30
0.0
 11
56.2499675655718
 21
143.999969482422
 31
0.0
  0
LINE
  5
   333
  8
0
  6
CONTINUOUS
 62
     1
 10
-28.0003668690514
 20
213.000017223609
 30
0.0
 11
-27.5003668690511
 21
213.000017223609
 31
0.0
  0
LINE
  5
   334
  8
0
  6
CONTINUOUS
 62
     1
 10
-27.500366869051
 20
213.000017223609
 30
0.0
 11
-26.4258969827603
 21
211.925547337319
 31
0.0
  0
LINE
  5
   335
  8
0
  6
CONTINUOUS
 62
     1
 10
-28.6551180010125
 20
212.345266091648
 30
0.0
 11
-28.0003668690514
 21
213.000017223609
 31
0.0
  0
LINE
  5
   336
  8
0
  6
CONTINUOUS
 62
     1
 10
-28.7002200905975
 20
202.245167499209
 30
0.0
 11
-28.6551180010125
 21
212.345266091649
 31
0.0
  0
LINE
  5
   337
  8
0
  6
CONTINUOUS
 62
     1
 10
-26.4258969827605
 20
211.925547337318
 30
0.0
 11
-26.4049101328224
 21
202.040979590205
 31
0.0
  0
LINE
  5
   338
  8
0
  6
CONTINUOUS
 62
     1
 10
28.8995799341106
 20
199.600804158551
 30
0.0
 11
29.1991225179144
 21
132.521658671252
 31
0.0
  0
POINT
  5
   339
  8
0
  6
CONTINUOUS
 62
     7
 10
-4.62517952168926E-5
 20
100.000017223609
 30
0.0
  0
LINE
  5
   33A
  8
0
  6
CONTINUOUS
 62
     7
 10
-33.8628974177532
 20
202.704432830553
 30
0.0
 11
-20.4842652556106
 21
201.514286411648
 31
0.0
  0
LINE
  5
   33B
  8
0
  6
CONTINUOUS
 62
     7
 10
-35.9866503607963
 20
200.397777232558
 30
0.0
 11
-21.8770611967985
 21
198.811090213522
 31
0.0
  0
LINE
  5
   33C
  8
0
  6
CONTINUOUS
 62
     7
 10
21.876968693208
 20
198.811090213522
 30
0.0
 11
35.9865578572059
 21
200.397777232558
 31
0.0
  0
LINE
  5
   33D
  8
0
  6
CONTINUOUS
 62
     7
 10
20.4841727520202
 20
201.514286411648
 30
0.0
 11
33.8628049141628
 21
202.704432830553
 31
0.0
  0
LINE
  5
   33E
  8
0
  6
CONTINUOUS
 62
     1
 10
26.404817629232
 20
202.040979590206
 30
0.0
 11
26.4258044791701
 21
211.925547337319
 31
0.0
  0
LINE
  5
   33F
  8
0
  6
CONTINUOUS
 62
     1
 10
28.655025497422
 20
212.34526609165
 30
0.0
 11
28.700127587007
 21
202.24516749921
 31
0.0
  0
LINE
  5
   340
  8
0
  6
CONTINUOUS
 62
     1
 10
28.000274365461
 20
213.000017223609
 30
0.0
 11
28.6550254974221
 21
212.345266091648
 31
0.0
  0
LINE
  5
   341
  8
0
  6
CONTINUOUS
 62
     1
 10
26.4258044791699
 20
211.925547337319
 30
0.0
 11
27.5002743654605
 21
213.000017223609
 31
0.0
  0
LINE
  5
   342
  8
0
  6
CONTINUOUS
 62
     1
 10
27.5002743654606
 20
213.000017223609
 30
0.0
 11
28.000274365461
 21
213.000017223609
 31
0.0
  0
ENDBLK
  5
   343
  8
0
  6
CONTINUOUS
 62
     7
  0
BLOCK
  5
   344
  8
0
  6
CONTINUOUS
 62
     7
  2
*UDIM768
 70
    65
 10
0.0
 20
0.0
 30
0.0
  3
*UDIM768
  0
TEXT
  5
   345
  8
0
  6
CONTINUOUS
 62
     7
 10
133.053623596577
 20
166.48330107169
 30
0.0
 40
2.99999997871263
  1
30
 50
359.999999948034
 41
0.933333333333333
 72
     1
 11
135.55362358019
 21
167.983301058791
 31
0.0
 73
     2
  0
LINE
  5
   346
  8
0
  6
CONTINUOUS
 62
     7
 10
129.419834431413
 20
154.713177975346
 30
0.0
 11
129.419834431413
 21
167.483301069435
 31
0.0
  0
LINE
  5
   347
  8
0
  6
CONTINUOUS
 62
     7
 10
118.919834610227
 20
154.713188656499
 30
0.0
 11
118.919834610227
 21
167.483301069435
 31
0.0
  0
LINE
  5
   348
  8
0
  6
CONTINUOUS
 62
     7
 10
138.053623562451
 20
165.483301069435
 30
0.0
 11
118.919834610227
 21
165.483301069435
 31
0.0
  0
LINE
  5
   349
  8
0
  6
CONTINUOUS
 62
     7
 10
126.522056958202
 20
164.706843913016
 30
0.0
 11
129.419834431413
 21
165.483301069435
 31
0.0
  0
LINE
  5
   34A
  8
0
  6
CONTINUOUS
 62
     7
 10
129.419834431413
 20
165.483301069435
 30
0.0
 11
126.522056958202
 21
166.259758225853
 31
0.0
  0
LINE
  5
   34B
  8
0
  6
CONTINUOUS
 62
     7
 10
121.817612083437
 20
166.259758225853
 30
0.0
 11
118.919834610227
 21
165.483301069435
 31
0.0
  0
LINE
  5
   34C
  8
0
  6
CONTINUOUS
 62
     7
 10
118.919834610227
 20
165.483301069435
 30
0.0
 11
121.817612083437
 21
164.706843913016
 31
0.0
  0
ENDBLK
  5
   34D
  8
0
  6
CONTINUOUS
 62
     7
  0
BLOCK
  5
   34E
  8
0
  6
CONTINUOUS
 62
     7
  2
*UDIM769
 70
    65
 10
0.0
 20
0.0
 30
0.0
  3
*UDIM769
  0
TEXT
  5
   34F
  8
0
  6
CONTINUOUS
 62
     7
 10
139.646076519973
 20
135.282637043283
 30
0.0
 40
2.99999997871263
  1
8,5
 50
89.9999999480344
 41
0.933333333333333
 72
     1
 11
138.146076534149
 21
139.182637016968
 31
0.0
 73
     2
  0
TEXT
  5
   350
  8
0
  6
CONTINUOUS
 62
     7
 10
139.646076522146
 20
131.28263706457
 30
0.0
 40
2.99999997871263
  1
Ø
 50
89.9999999480344
 41
1.2
 72
     1
 11
138.146076534149
 21
132.782637055285
 31
0.0
 73
     2
  0
LINE
  5
   351
  8
0
  6
CONTINUOUS
 62
     7
 10
125.16983452082
 20
150.825683246228
 30
0.0
 11
142.646076523505
 21
150.825683246228
 31
0.0
  0
LINE
  5
   352
  8
0
  6
CONTINUOUS
 62
     7
 10
125.16983452082
 20
147.850683534629
 30
0.0
 11
142.646076523505
 21
147.850683534629
 31
0.0
  0
LINE
  5
   353
  8
0
  6
CONTINUOUS
 62
     7
 10
140.646076523505
 20
155.825683246228
 30
0.0
 11
140.646076523505
 21
131.282637065929
 31
0.0
  0
LINE
  5
   354
  8
0
  6
CONTINUOUS
 62
     7
 10
139.869619367086
 20
153.723460719438
 30
0.0
 11
140.646076523505
 21
150.825683246228
 31
0.0
  0
LINE
  5
   355
  8
0
  6
CONTINUOUS
 62
     7
 10
140.646076523505
 20
150.825683246228
 30
0.0
 11
141.422533679923
 21
153.723460719438
 31
0.0
  0
LINE
  5
   356
  8
0
  6
CONTINUOUS
 62
     7
 10
141.422533679923
 20
144.952906061418
 30
0.0
 11
140.646076523505
 21
147.850683534629
 31
0.0
  0
LINE
  5
   357
  8
0
  6
CONTINUOUS
 62
     7
 10
140.646076523505
 20
147.850683534629
 30
0.0
 11
139.869619367086
 21
144.952906061418
 31
0.0
  0
ENDBLK
  5
   358
  8
0
  6
CONTINUOUS
 62
     7
  0
BLOCK
  5
   359
  8
0
  6
CONTINUOUS
 62
     7
  2
*UDIM770
 70
    65
 10
0.0
 20
0.0
 30
0.0
  3
*UDIM770
  0
TEXT
  5
   35A
  8
0
  6
CONTINUOUS
 62
     7
 10
102.49483775486
 20
-29.6851223548708
 30
0.0
 40
2.99999997871263
  1
117
 50
359.999999948034
 41
0.933333333333333
 72
     1
 11
106.39483772854
 21
-28.1851223690321
 31
0.0
 73
     2
  0
LINE
  5
   35B
  8
0
  6
CONTINUOUS
 62
     7
 10
127.144834698921
 20
30.7382114485664
 30
0.0
 11
127.144834698921
 21
-32.6851223583884
 31
0.0
  0
LINE
  5
   35C
  8
0
  6
CONTINUOUS
 62
     7
 10
86.194835396295
 20
30.7382114485664
 30
0.0
 11
86.194835396295
 21
-32.6851223583884
 31
0.0
  0
LINE
  5
   35D
  8
0
  6
CONTINUOUS
 62
     7
 10
127.144834698921
 20
-30.6851223583884
 30
0.0
 11
86.194835396295
 21
-30.6851223583884
 31
0.0
  0
LINE
  5
   35E
  8
0
  6
CONTINUOUS
 62
     7
 10
124.190411421714
 20
-31.20606678834
 30
0.0
 11
127.144834698921
 21
-30.6851223583884
 31
0.0
  0
LINE
  5
   35F
  8
0
  6
CONTINUOUS
 62
     7
 10
127.144834698921
 20
-30.6851223583884
 30
0.0
 11
124.190411421714
 21
-30.1641779284367
 31
0.0
  0
LINE
  5
   360
  8
0
  6
CONTINUOUS
 62
     7
 10
89.149258673502
 20
-30.1641779284367
 30
0.0
 11
86.194835396295
 21
-30.6851223583884
 31
0.0
  0
LINE
  5
   361
  8
0
  6
CONTINUOUS
 62
     7
 10
86.194835396295
 20
-30.6851223583884
 30
0.0
 11
89.149258673502
 21
-31.20606678834
 31
0.0
  0
ENDBLK
  5
   362
  8
0
  6
CONTINUOUS
 62
     7
  0
BLOCK
  5
   363
  8
0
  6
CONTINUOUS
 62
     7
  2
*UDIM771
 70
    65
 10
0.0
 20
0.0
 30
0.0
  3
*UDIM771
  0
TEXT
  5
   364
  8
0
  6
CONTINUOUS
 62
     7
 10
98.7953050501229
 20
-14.7549766628449
 30
0.0
 40
2.99999997871263
  1
50
 50
359.999999948034
 41
0.933333333333333
 72
     1
 11
101.295305033736
 21
-13.2549766757435
 31
0.0
 73
     2
  0
LINE
  5
   365
  8
0
  6
CONTINUOUS
 62
     7
 10
106.669829863896
 20
-11.5692780490912
 30
0.0
 11
106.669829863896
 21
-17.7549766650998
 31
0.0
  0
LINE
  5
   366
  8
0
  6
CONTINUOUS
 62
     7
 10
89.1698340828876
 20
-3.47425920568829
 30
0.0
 11
89.1698340828876
 21
-17.7549766650998
 31
0.0
  0
LINE
  5
   367
  8
0
  6
CONTINUOUS
 62
     7
 10
106.669829863896
 20
-15.7549766650998
 30
0.0
 11
89.1698340828876
 21
-15.7549766650998
 31
0.0
  0
LINE
  5
   368
  8
0
  6
CONTINUOUS
 62
     7
 10
103.772052390686
 20
-16.5314338215183
 30
0.0
 11
106.669829863896
 21
-15.7549766650998
 31
0.0
  0
LINE
  5
   369
  8
0
  6
CONTINUOUS
 62
     7
 10
106.669829863896
 20
-15.7549766650998
 30
0.0
 11
103.772052390686
 21
-14.9785195086812
 31
0.0
  0
LINE
  5
   36A
  8
0
  6
CONTINUOUS
 62
     7
 10
92.0676115560982
 20
-14.9785195086812
 30
0.0
 11
89.1698340828876
 21
-15.7549766650998
 31
0.0
  0
LINE
  5
   36B
  8
0
  6
CONTINUOUS
 62
     7
 10
89.1698340828876
 20
-15.7549766650998
 30
0.0
 11
92.0676115560982
 21
-16.5314338215183
 31
0.0
  0
ENDBLK
  5
   36C
  8
0
  6
CONTINUOUS
 62
     7
  0
BLOCK
  5
   36D
  8
0
  6
CONTINUOUS
 62
     7
  2
*UDIM772
 70
    65
 10
0.0
 20
0.0
 30
0.0
  3
*UDIM772
  0
TEXT
  5
   36E
  8
0
  6
CONTINUOUS
 62
     7
 10
109.018789718416
 20
-14.7549766628449
 30
0.0
 40
2.99999997871263
  1
50
 50
359.999999948034
 41
0.933333333333333
 72
     1
 11
111.51878970203
 21
-13.2549766757435
 31
0.0
 73
     2
  0
LINE
  5
   36F
  8
0
  6
CONTINUOUS
 62
     7
 10
124.16983452082
 20
-3.4742591242164
 30
0.0
 11
124.16983452082
 21
-17.7549766650998
 31
0.0
  0
LINE
  5
   370
  8
0
  6
CONTINUOUS
 62
     7
 10
124.16983452082
 20
-15.7549766650998
 30
0.0
 11
106.669829863896
 21
-15.7549766650998
 31
0.0
  0
LINE
  5
   371
  8
0
  6
CONTINUOUS
 62
     7
 10
121.272057047609
 20
-16.5314338215183
 30
0.0
 11
124.16983452082
 21
-15.7549766650998
 31
0.0
  0
LINE
  5
   372
  8
0
  6
CONTINUOUS
 62
     7
 10
124.16983452082
 20
-15.7549766650998
 30
0.0
 11
121.272057047609
 21
-14.9785195086812
 31
0.0
  0
LINE
  5
   373
  8
0
  6
CONTINUOUS
 62
     7
 10
109.567607337107
 20
-14.9785195086812
 30
0.0
 11
106.669829863896
 21
-15.7549766650998
 31
0.0
  0
LINE
  5
   374
  8
0
  6
CONTINUOUS
 62
     7
 10
106.669829863896
 20
-15.7549766650998
 30
0.0
 11
109.567607337107
 21
-16.5314338215183
 31
0.0
  0
ENDBLK
  5
   375
  8
0
  6
CONTINUOUS
 62
     7
  0
BLOCK
  5
   376
  8
0
  6
CONTINUOUS
 62
     7
  2
*UDIM773
 70
    65
 10
0.0
 20
0.0
 30
0.0
  3
*UDIM773
  0
TEXT
  5
   377
  8
0
  6
CONTINUOUS
 62
     7
 10
102.769834329499
 20
181.576204185319
 30
0.0
 40
2.99999997871263
  1
130
 50
359.999999948034
 41
0.933333333333333
 72
     1
 11
106.669834303178
 21
183.076204171158
 31
0.0
 73
     2
  0
LINE
  5
   378
  8
0
  6
CONTINUOUS
 62
     7
 10
129.419834431413
 20
154.713177975346
 30
0.0
 11
129.419834431413
 21
182.576204181801
 31
0.0
  0
LINE
  5
   379
  8
0
  6
CONTINUOUS
 62
     7
 10
83.9198341749436
 20
154.713177975346
 30
0.0
 11
83.9198341749436
 21
182.576204181801
 31
0.0
  0
LINE
  5
   37A
  8
0
  6
CONTINUOUS
 62
     7
 10
129.419834431413
 20
180.576204181801
 30
0.0
 11
83.9198341749436
 21
180.576204181801
 31
0.0
  0
LINE
  5
   37B
  8
0
  6
CONTINUOUS
 62
     7
 10
126.522056958202
 20
179.799747025383
 30
0.0
 11
129.419834431413
 21
180.576204181801
 31
0.0
  0
LINE
  5
   37C
  8
0
  6
CONTINUOUS
 62
     7
 10
129.419834431413
 20
180.576204181801
 30
0.0
 11
126.522056958202
 21
181.35266133822
 31
0.0
  0
LINE
  5
   37D
  8
0
  6
CONTINUOUS
 62
     7
 10
86.8176116481541
 20
181.35266133822
 30
0.0
 11
83.9198341749436
 21
180.576204181801
 31
0.0
  0
LINE
  5
   37E
  8
0
  6
CONTINUOUS
 62
     7
 10
83.9198341749436
 20
180.576204181801
 30
0.0
 11
86.8176116481541
 21
179.799747025383
 31
0.0
  0
ENDBLK
  5
   37F
  8
0
  6
CONTINUOUS
 62
     7
  0
BLOCK
  5
   380
  8
0
  6
CONTINUOUS
 62
     7
  2
*UDIM774
 70
    65
 10
0.0
 20
0.0
 30
0.0
  3
*UDIM774
  0
TEXT
  5
   381
  8
0
  6
CONTINUOUS
 62
     7
 10
102.49482973267
 20
175.864790445754
 30
0.0
 40
2.99999997871263
  1
105
 50
359.999999948034
 41
0.933333333333333
 72
     1
 11
106.394829706349
 21
177.364790431593
 31
0.0
 73
     2
  0
LINE
  5
   382
  8
0
  6
CONTINUOUS
 62
     7
 10
125.044842125337
 20
134.500660976278
 30
0.0
 11
125.044842125337
 21
176.864790442236
 31
0.0
  0
LINE
  5
   383
  8
0
  6
CONTINUOUS
 62
     7
 10
88.294815972654
 20
133.083199325579
 30
0.0
 11
88.294815972654
 21
176.864790442236
 31
0.0
  0
LINE
  5
   384
  8
0
  6
CONTINUOUS
 62
     7
 10
125.044842125337
 20
174.864790442236
 30
0.0
 11
88.294815972654
 21
174.864790442236
 31
0.0
  0
LINE
  5
   385
  8
0
  6
CONTINUOUS
 62
     7
 10
122.09041884813
 20
174.343846012285
 30
0.0
 11
125.044842125337
 21
174.864790442236
 31
0.0
  0
LINE
  5
   386
  8
0
  6
CONTINUOUS
 62
     7
 10
125.044842125337
 20
174.864790442236
 30
0.0
 11
122.09041884813
 21
175.385734872188
 31
0.0
  0
LINE
  5
   387
  8
0
  6
CONTINUOUS
 62
     7
 10
91.249239249861
 20
175.385734872188
 30
0.0
 11
88.294815972654
 21
174.864790442236
 31
0.0
  0
LINE
  5
   388
  8
0
  6
CONTINUOUS
 62
     7
 10
88.294815972654
 20
174.864790442236
 30
0.0
 11
91.249239249861
 21
174.343846012285
 31
0.0
  0
ENDBLK
  5
   389
  8
0
  6
CONTINUOUS
 62
     7
  0
BLOCK
  5
   38A
  8
0
  6
CONTINUOUS
 62
     7
  2
*UDIM775
 70
    65
 10
0.0
 20
0.0
 30
0.0
  3
*UDIM775
  0
TEXT
  5
   38B
  8
0
  6
CONTINUOUS
 62
     7
 10
76.6837706429561
 20
33.1868187391529
 30
0.0
 40
2.99999997871263
  1
131,25
 50
89.9999999480344
 41
0.933333333333333
 72
     1
 11
75.1837706609361
 21
41.2868186830356
 31
0.0
 73
     2
  0
LINE
  5
   38C
  8
0
  6
CONTINUOUS
 62
     7
 10
87.7309854723972
 20
13.5382237748085
 30
0.0
 11
75.6837706502924
 21
13.5382237748085
 31
0.0
  0
LINE
  5
   38D
  8
0
  6
CONTINUOUS
 62
     7
 10
77.6837706502924
 20
13.5382237748085
 30
0.0
 11
77.6837706502924
 21
59.4757229924971
 31
0.0
  0
LINE
  5
   38E
  8
0
  6
CONTINUOUS
 62
     7
 10
76.9073134938739
 20
16.436001248019
 30
0.0
 11
77.6837706502924
 21
13.5382237748085
 31
0.0
  0
LINE
  5
   38F
  8
0
  6
CONTINUOUS
 62
     7
 10
77.6837706502924
 20
13.5382237748085
 30
0.0
 11
78.460227806711
 21
16.436001248019
 31
0.0
  0
LINE
  5
   390
  8
0
  6
CONTINUOUS
 62
     7
 10
78.460227806711
 20
56.5779455192866
 30
0.0
 11
77.6837706502924
 21
59.4757229924971
 31
0.0
  0
LINE
  5
   391
  8
0
  6
CONTINUOUS
 62
     7
 10
77.6837706502924
 20
59.4757229924971
 30
0.0
 11
76.9073134938739
 21
56.5779455192866
 31
0.0
  0
ENDBLK
  5
   392
  8
0
  6
CONTINUOUS
 62
     7
  0
BLOCK
  5
   393
  8
0
  6
CONTINUOUS
 62
     7
  2
*UDIM776
 70
    65
 10
0.0
 20
0.0
 30
0.0
  3
*UDIM776
  0
TEXT
  5
   394
  8
0
  6
CONTINUOUS
 62
     7
 10
76.6837706480281
 20
1.93823497115712
 30
0.0
 40
2.99999997871263
  1
52
 50
89.9999999480344
 41
0.933333333333333
 72
     1
 11
75.1837706609361
 21
4.43823495477622
 31
0.0
 73
     2
  0
LINE
  5
   395
  8
0
  6
CONTINUOUS
 62
     7
 10
82.9198341415763
 20
-4.66175386525602
 30
0.0
 11
75.6837706502924
 21
-4.66175386525602
 31
0.0
  0
LINE
  5
   396
  8
0
  6
CONTINUOUS
 62
     7
 10
77.6837706502924
 20
-4.66175386525602
 30
0.0
 11
77.6837706502924
 21
13.5382237748085
 31
0.0
  0
LINE
  5
   397
  8
0
  6
CONTINUOUS
 62
     7
 10
76.9073134938739
 20
-1.76397639204549
 30
0.0
 11
77.6837706502924
 21
-4.66175386525602
 31
0.0
  0
LINE
  5
   398
  8
0
  6
CONTINUOUS
 62
     7
 10
77.6837706502924
 20
-4.66175386525602
 30
0.0
 11
78.460227806711
 21
-1.76397639204549
 31
0.0
  0
LINE
  5
   399
  8
0
  6
CONTINUOUS
 62
     7
 10
78.460227806711
 20
10.6404463015979
 30
0.0
 11
77.6837706502924
 21
13.5382237748085
 31
0.0
  0
LINE
  5
   39A
  8
0
  6
CONTINUOUS
 62
     7
 10
77.6837706502924
 20
13.5382237748085
 30
0.0
 11
76.9073134938739
 21
10.6404463015979
 31
0.0
  0
ENDBLK
  5
   39B
  8
0
  6
CONTINUOUS
 62
     7
  0
BLOCK
  5
   39C
  8
0
  6
CONTINUOUS
 62
     7
  2
*UDIM777
 70
    65
 10
0.0
 20
0.0
 30
0.0
  3
*UDIM777
  0
TEXT
  5
   39D
  8
0
  6
CONTINUOUS
 62
     7
 10
77.861493831898
 20
138.525672059984
 30
0.0
 40
2.99999997871263
  1
56,5
 50
89.9999999480344
 41
0.933333333333333
 72
     1
 11
76.3614938473419
 21
143.825672023734
 31
0.0
 73
     2
  0
LINE
  5
   39E
  8
0
  6
CONTINUOUS
 62
     7
 10
101.511577123903
 20
133.938199344851
 30
0.0
 11
76.8615038947813
 21
133.9381742695
 31
0.0
  0
LINE
  5
   39F
  8
0
  6
CONTINUOUS
 62
     7
 10
82.919834121402
 20
153.713176958094
 30
0.0
 11
76.8614837786146
 21
153.713170795221
 31
0.0
  0
LINE
  5
   3A0
  8
0
  6
CONTINUOUS
 62
     7
 10
78.8615038947803
 20
133.938176304005
 30
0.0
 11
78.8614837786136
 21
153.713172829726
 31
0.0
  0
LINE
  5
   3A1
  8
0
  6
CONTINUOUS
 62
     7
 10
78.0850437905905
 20
136.835952987361
 30
0.0
 11
78.8615038947803
 21
133.938176304005
 31
0.0
  0
LINE
  5
   3A2
  8
0
  6
CONTINUOUS
 62
     7
 10
78.8615038947803
 20
133.938176304005
 30
0.0
 11
79.6379581034268
 21
136.835954567068
 31
0.0
  0
LINE
  5
   3A3
  8
0
  6
CONTINUOUS
 62
     7
 10
79.6379438828034
 20
150.81539614637
 30
0.0
 11
78.8614837786136
 21
153.713172829726
 31
0.0
  0
LINE
  5
   3A4
  8
0
  6
CONTINUOUS
 62
     7
 10
78.8614837786136
 20
153.713172829726
 30
0.0
 11
78.0850295699671
 21
150.815394566664
 31
0.0
  0
ENDBLK
  5
   3A5
  8
0
  6
CONTINUOUS
 62
     7
  0
BLOCK
  5
   3A6
  8
0
  6
CONTINUOUS
 62
     7
  2
*UDIM778
 70
    65
 10
0.0
 20
0.0
 30
0.0
  3
*UDIM778
  0
TEXT
  5
   3A7
  8
0
  6
CONTINUOUS
 62
     7
 10
55.8118861002685
 20
149.813200051653
 30
0.0
 40
2.99999997871263
  1
155
 50
89.9999999480344
 41
0.933333333333333
 72
     1
 11
54.3118861144445
 21
153.713200025338
 31
0.0
 73
     2
  0
LINE
  5
   3A8
  8
0
  6
CONTINUOUS
 62
     7
 10
101.511577123903
 20
133.938200362104
 30
0.0
 11
54.8118861038008
 21
133.938200362104
 31
0.0
  0
LINE
  5
   3A9
  8
0
  6
CONTINUOUS
 62
     7
 10
95.8697178147514
 20
173.488199688572
 30
0.0
 11
54.8118861038008
 21
173.488199688572
 31
0.0
  0
LINE
  5
   3AA
  8
0
  6
CONTINUOUS
 62
     7
 10
56.8118861038008
 20
133.938200362104
 30
0.0
 11
56.8118861038008
 21
173.488199688572
 31
0.0
  0
LINE
  5
   3AB
  8
0
  6
CONTINUOUS
 62
     7
 10
56.0354289473822
 20
136.835977835315
 30
0.0
 11
56.8118861038008
 21
133.938200362104
 31
0.0
  0
LINE
  5
   3AC
  8
0
  6
CONTINUOUS
 62
     7
 10
56.8118861038008
 20
133.938200362104
 30
0.0
 11
57.5883432602193
 21
136.835977835315
 31
0.0
  0
LINE
  5
   3AD
  8
0
  6
CONTINUOUS
 62
     7
 10
57.5883432602193
 20
170.590422215361
 30
0.0
 11
56.8118861038008
 21
173.488199688572
 31
0.0
  0
LINE
  5
   3AE
  8
0
  6
CONTINUOUS
 62
     7
 10
56.8118861038008
 20
173.488199688572
 30
0.0
 11
56.0354289473822
 21
170.590422215361
 31
0.0
  0
ENDBLK
  5
   3AF
  8
0
  6
CONTINUOUS
 62
     7
  0
BLOCK
  5
   3B0
  8
0
  6
CONTINUOUS
 62
     7
  2
*UDIM779
 70
    65
 10
0.0
 20
0.0
 30
0.0
  3
*UDIM779
  0
TEXT
  5
   3B1
  8
0
  6
CONTINUOUS
 62
     7
 10
55.8118861002685
 20
69.8382120947712
 30
0.0
 40
2.99999997871263
  1
344
 50
89.9999999480344
 41
0.933333333333333
 72
     1
 11
54.3118861144445
 21
73.7382120684562
 31
0.0
 73
     2
  0
LINE
  5
   3B2
  8
0
  6
CONTINUOUS
 62
     7
 10
87.7309854723972
 20
13.5382237748085
 30
0.0
 11
54.8118861038008
 21
13.5382237748085
 31
0.0
  0
LINE
  5
   3B3
  8
0
  6
CONTINUOUS
 62
     7
 10
56.8118861038008
 20
13.5382237748085
 30
0.0
 11
56.8118861038008
 21
133.938200362104
 31
0.0
  0
LINE
  5
   3B4
  8
0
  6
CONTINUOUS
 62
     7
 10
56.0354289473822
 20
16.436001248019
 30
0.0
 11
56.8118861038008
 21
13.5382237748085
 31
0.0
  0
LINE
  5
   3B5
  8
0
  6
CONTINUOUS
 62
     7
 10
56.8118861038008
 20
13.5382237748085
 30
0.0
 11
57.5883432602193
 21
16.436001248019
 31
0.0
  0
LINE
  5
   3B6
  8
0
  6
CONTINUOUS
 62
     7
 10
57.5883432602193
 20
131.040422888893
 30
0.0
 11
56.8118861038008
 21
133.938200362104
 31
0.0
  0
LINE
  5
   3B7
  8
0
  6
CONTINUOUS
 62
     7
 10
56.8118861038008
 20
133.938200362104
 30
0.0
 11
56.0354289473822
 21
131.040422888893
 31
0.0
  0
ENDBLK
  5
   3B8
  8
0
  6
CONTINUOUS
 62
     7
  0
BLOCK
  5
   3B9
  8
0
  6
CONTINUOUS
 62
     7
  2
*UDIM780
 70
    65
 10
0.0
 20
0.0
 30
0.0
  3
*UDIM780
  0
TEXT
  5
   3BA
  8
0
  6
CONTINUOUS
 62
     7
 10
55.8118861002685
 20
-10.1367758621103
 30
0.0
 40
2.99999997871263
  1
155
 50
89.9999999480344
 41
0.933333333333333
 72
     1
 11
54.3118861144445
 21
-6.2367758884253
 31
0.0
 73
     2
  0
LINE
  5
   3BB
  8
0
  6
CONTINUOUS
 62
     7
 10
95.8697178147514
 20
-26.0117755516591
 30
0.0
 11
54.8118861038008
 21
-26.0117755516591
 31
0.0
  0
LINE
  5
   3BC
  8
0
  6
CONTINUOUS
 62
     7
 10
56.8118861038008
 20
-26.0117755516591
 30
0.0
 11
56.8118861038008
 21
13.5382237748085
 31
0.0
  0
LINE
  5
   3BD
  8
0
  6
CONTINUOUS
 62
     7
 10
56.0354289473822
 20
-23.1139980784485
 30
0.0
 11
56.8118861038008
 21
-26.0117755516591
 31
0.0
  0
LINE
  5
   3BE
  8
0
  6
CONTINUOUS
 62
     7
 10
56.8118861038008
 20
-26.0117755516591
 30
0.0
 11
57.5883432602193
 21
-23.1139980784485
 31
0.0
  0
LINE
  5
   3BF
  8
0
  6
CONTINUOUS
 62
     7
 10
57.5883432602193
 20
10.6404463015979
 30
0.0
 11
56.8118861038008
 21
13.5382237748085
 31
0.0
  0
LINE
  5
   3C0
  8
0
  6
CONTINUOUS
 62
     7
 10
56.8118861038008
 20
13.5382237748085
 30
0.0
 11
56.0354289473822
 21
10.6404463015979
 31
0.0
  0
ENDBLK
  5
   3C1
  8
0
  6
CONTINUOUS
 62
     7
  0
BLOCK
  5
   3C2
  8
0
  6
CONTINUOUS
 62
     7
  2
*UDIM781
 70
    65
 10
0.0
 20
0.0
 30
0.0
  3
*UDIM781
  0
TEXT
  5
   3C3
  8
0
  6
CONTINUOUS
 62
     7
 10
68.7654011130951
 20
55.3007101161084
 30
0.0
 40
2.99999997871263
  1
161
 50
89.9999999480344
 41
0.933333333333333
 72
     1
 11
67.2654011272711
 21
59.2007100897934
 31
0.0
 73
     2
  0
LINE
  5
   3C4
  8
0
  6
CONTINUOUS
 62
     7
 10
85.6323353888444
 20
31.300711456017
 30
0.0
 11
67.7654011166274
 21
31.300711456017
 31
0.0
  0
LINE
  5
   3C5
  8
0
  6
CONTINUOUS
 62
     7
 10
85.6323353888444
 20
87.6507091612382
 30
0.0
 11
67.7654011166274
 21
87.6507091612382
 31
0.0
  0
LINE
  5
   3C6
  8
0
  6
CONTINUOUS
 62
     7
 10
69.7654011166274
 20
31.300711456017
 30
0.0
 11
69.7654011166274
 21
87.6507091612382
 31
0.0
  0
LINE
  5
   3C7
  8
0
  6
CONTINUOUS
 62
     7
 10
69.2444566866757
 20
34.255134733224
 30
0.0
 11
69.7654011166274
 21
31.300711456017
 31
0.0
  0
LINE
  5
   3C8
  8
0
  6
CONTINUOUS
 62
     7
 10
69.7654011166274
 20
31.300711456017
 30
0.0
 11
70.2863455465791
 21
34.255134733224
 31
0.0
  0
LINE
  5
   3C9
  8
0
  6
CONTINUOUS
 62
     7
 10
70.2863455465791
 20
84.6962858840312
 30
0.0
 11
69.7654011166274
 21
87.6507091612382
 31
0.0
  0
LINE
  5
   3CA
  8
0
  6
CONTINUOUS
 62
     7
 10
69.7654011166274
 20
87.6507091612382
 30
0.0
 11
69.2444566866757
 21
84.6962858840312
 31
0.0
  0
ENDBLK
  5
   3CB
  8
0
  6
CONTINUOUS
 62
     7
  0
ENDSEC
  0
SECTION
  2
ENTITIES
  0
LINE
  5
   3CC
  8
0
  6
CONTINUOUS
 62
     7
 10
92.6698684692383
 20
-94.6548156738281
 30
0.0
 11
120.669868469238
 21
-94.6548156738281
 31
0.0
  0
LINE
  5
   3CD
  8
0
  6
CONTINUOUS
 62
     7
 10
92.6698684692383
 20
-66.6548156738281
 30
0.0
 11
120.669868469238
 21
-66.6548156738281
 31
0.0
  0
LINE
  5
   3CE
  8
0
  6
CONTINUOUS
 62
     7
 10
92.6698684692383
 20
-66.6548156738281
 30
0.0
 11
92.6698684692383
 21
-94.6548156738281
 31
0.0
  0
LINE
  5
   3CF
  8
0
  6
CONTINUOUS
 62
     7
 10
120.669868469238
 20
-66.6548156738281
 30
0.0
 11
120.669868469238
 21
-94.6548156738281
 31
0.0
  0
LINE
  5
   3D0
  8
0
  6
DASHDOT
 62
     7
 10
106.669868469238
 20
-51.5608524278526
 30
0.0
 11
106.669868469238
 21
-110.691605951635
 31
0.0
  0
CIRCLE
  5
   3D1
  8
0
  6
CONTINUOUS
 62
     7
 10
96.6698684692383
 20
-62.9048156738281
 30
0.0
 40
0.875
  0
CIRCLE
  5
   3D2
  8
0
  6
CONTINUOUS
 62
     7
 10
116.669868469238
 20
-62.9048156738281
 30
0.0
 40
0.875
  0
CIRCLE
  5
   3D3
  8
0
  6
CONTINUOUS
 62
     7
 10
116.669868469238
 20
-98.4048156738281
 30
0.0
 40
0.875
  0
CIRCLE
  5
   3D4
  8
0
  6
CONTINUOUS
 62
     7
 10
96.6698684692383
 20
-98.4048156738281
 30
0.0
 40
0.875
  0
LINE
  5
   3D5
  8
0
  6
CONTINUOUS
 62
     3
 10
88.7053727998238
 20
-60.5550153765369
 30
0.0
 11
124.508742069809
 21
-60.5550153765369
 31
0.0
  0
LINE
  5
   3D6
  8
0
  6
CONTINUOUS
 62
     3
 10
88.7053727998238
 20
-101.760296501292
 30
0.0
 11
124.508742069809
 21
-101.760296501292
 31
0.0
  0
LINE
  5
   3D7
  8
0
  6
CONTINUOUS
 62
     3
 10
124.508742069809
 20
-60.5550153765369
 30
0.0
 11
124.508742069809
 21
-101.760296501292
 31
0.0
  0
LINE
  5
   3D8
  8
0
  6
CONTINUOUS
 62
     3
 10
88.7053727998238
 20
-60.5550153765369
 30
0.0
 11
88.7053727998238
 21
-101.760296501292
 31
0.0
  0
LINE
  5
   3D9
  8
0
  6
DASHDOT
 62
     7
 10
116.669868469238
 20
-61.2798156738281
 30
0.0
 11
116.669868469238
 21
-64.5298156738281
 31
0.0
  0
LINE
  5
   3DA
  8
0
  6
DASHDOT
 62
     7
 10
115.044868469238
 20
-62.9048156738281
 30
0.0
 11
118.294868469238
 21
-62.9048156738281
 31
0.0
  0
LINE
  5
   3DB
  8
0
  6
DASHDOT
 62
     7
 10
96.6698684692383
 20
-61.2798156738281
 30
0.0
 11
96.6698684692383
 21
-64.5298156738281
 31
0.0
  0
LINE
  5
   3DC
  8
0
  6
DASHDOT
 62
     7
 10
95.0448684692383
 20
-62.9048156738281
 30
0.0
 11
98.2948684692383
 21
-62.9048156738281
 31
0.0
  0
LINE
  5
   3DD
  8
0
  6
DASHDOT
 62
     7
 10
96.6698684692383
 20
-96.7798156738281
 30
0.0
 11
96.6698684692383
 21
-100.029815673828
 31
0.0
  0
LINE
  5
   3DE
  8
0
  6
DASHDOT
 62
     7
 10
95.0448684692383
 20
-98.4048156738281
 30
0.0
 11
98.2948684692383
 21
-98.4048156738281
 31
0.0
  0
LINE
  5
   3DF
  8
0
  6
DASHDOT
 62
     7
 10
116.669868469238
 20
-96.7798156738281
 30
0.0
 11
116.669868469238
 21
-100.029815673828
 31
0.0
  0
LINE
  5
   3E0
  8
0
  6
DASHDOT
 62
     7
 10
115.044868469238
 20
-98.4048156738281
 30
0.0
 11
118.294868469238
 21
-98.4048156738281
 31
0.0
  0
LINE
  5
   3E1
  8
0
  6
DASHDOT
 62
     7
 10
81.3040109158817
 20
-80.6548156738281
 30
0.0
 11
134.300161768609
 21
-80.6548156738281
 31
0.0
  0
INSERT
  5
   3E2
  8
0
  6
CONTINUOUS
 62
     7
  2
*UDIM742
 10
0.0
 20
0.0
 30
0.0
  0
INSERT
  5
   3E3
  8
0
  6
CONTINUOUS
 62
     7
  2
*UDIM743
 10
0.0
 20
0.0
 30
0.0
  0
INSERT
  5
   3E4
  8
0
  6
CONTINUOUS
 62
     7
  2
*UDIM744
 10
0.0
 20
0.0
 30
0.0
  0
INSERT
  5
   3E5
  8
0
  6
CONTINUOUS
 62
     7
  2
*UDIM745
 10
0.0
 20
0.0
 30
0.0
  0
INSERT
  5
   3E6
  8
0
  6
CONTINUOUS
 62
     7
  2
*UDIM746
 10
0.0
 20
0.0
 30
0.0
  0
TEXT
  5
   3E7
  8
0
  6
CONTINUOUS
 62
     7
 10
99.4198644438358
 20
-54.1169379319407
 30
0.0
 40
3.00000002980232
  1
=   =
 50
359.999999844103
 41
0.916666604744064
 72
     2
 11
112.61986367891
 21
-54.1169379677904
 31
0.0
  0
TEXT
  5
   3E8
  8
0
  6
CONTINUOUS
 62
     7
 10
98.2035150005392
 20
-45.5966571502968
 30
0.0
 40
3.00000002980232
  1
=    =
 50
359.999999844103
 41
0.916666604744064
 72
     2
 11
114.153514077164
 21
-45.5966571936152
 31
0.0
  0
TEXT
  5
   3E9
  8
0
  6
CONTINUOUS
 62
     7
 10
80.1111708315449
 20
-90.9187151740938
 30
0.0
 40
3.00000002980232
  1
=     =
 50
449.999999844103
 41
0.916666604744064
 72
     2
 11
80.1111708823084
 21
-72.2187162559181
 31
0.0
  0
TEXT
  5
   3EA
  8
0
  6
CONTINUOUS
 62
     7
 10
70.3980510768311
 20
-93.0106023312558
 30
0.0
 40
3.00000002980232
  1
=       =
 50
449.999999844103
 41
0.916666604744064
 72
     2
 11
70.3980511425251
 21
-68.8106037299781
 31
0.0
  0
TEXT
  5
   3EB
  8
0
  6
CONTINUOUS
 62
     7
 10
105.478100528218
 20
-114.099720070357
 30
0.0
 40
3.00000002980232
  1
Y
 50
359.999999844103
 41
0.916666604744064
 72
     2
 11
107.678100397087
 21
-114.099720076332
 31
0.0
  0
TEXT
  5
   3EC
  8
0
  6
CONTINUOUS
 62
     7
 10
105.648506154515
 20
-36.224346230025
 30
0.0
 40
3.00000002980232
  1
Y
 50
359.999999844103
 41
0.916666604744064
 72
     2
 11
107.848506023384
 21
-36.2243462359999
 31
0.0
  0
TEXT
  5
   3ED
  8
0
  6
CONTINUOUS
 62
     7
 10
57.2533074517023
 20
-82.0634601807544
 30
0.0
 40
3.00000002980232
  1
X
 50
359.999999844103
 41
0.916666604744064
 72
     2
 11
59.4533073205721
 21
-82.0634601867293
 31
0.0
  0
LINE
  5
   3EE
  8
0
  6
DASHDOT
 62
     7
 10
182.762542724609
 20
-25.2985217205801
 30
0.0
 11
182.762542724609
 21
-114.874073889942
 31
0.0
  0
LINE
  5
   3EF
  8
0
  6
DASHDOT
 62
     7
 10
194.705080318329
 20
-31.9673156738281
 30
0.0
 11
170.410874322173
 21
-31.9673156738281
 31
0.0
  0
LINE
  5
   3F0
  8
0
  6
DASHDOT
 62
     7
 10
195.204425034961
 20
-107.842315673828
 30
0.0
 11
171.257589276463
 21
-107.842315673828
 31
0.0
  0
LINE
  5
   3F1
  8
0
  6
CONTINUOUS
 62
     7
 10
196.512542724609
 20
-26.9673156738281
 30
0.0
 11
196.512542724609
 21
-112.842315673828
 31
0.0
  0
LINE
  5
   3F2
  8
0
  6
CONTINUOUS
 62
     7
 10
169.012542724609
 20
-26.9673156738281
 30
0.0
 11
169.012542724609
 21
-112.842315673828
 31
0.0
  0
LINE
  5
   3F3
  8
0
  6
CONTINUOUS
 62
     7
 10
196.512542724609
 20
-112.842315673828
 30
0.0
 11
169.012542724609
 21
-112.842315673828
 31
0.0
  0
LINE
  5
   3F4
  8
0
  6
CONTINUOUS
 62
     7
 10
196.512542724609
 20
-26.9673156738281
 30
0.0
 11
169.012542724609
 21
-26.9673156738281
 31
0.0
  0
CIRCLE
  5
   3F5
  8
0
  6
CONTINUOUS
 62
     7
 10
178.387542724609
 20
-31.9673156738281
 30
0.0
 40
0.6875
  0
CIRCLE
  5
   3F6
  8
0
  6
CONTINUOUS
 62
     7
 10
187.137542724609
 20
-31.9673156738281
 30
0.0
 40
0.6875
  0
CIRCLE
  5
   3F7
  8
0
  6
CONTINUOUS
 62
     7
 10
178.387542724609
 20
-107.842315673828
 30
0.0
 40
0.6875
  0
CIRCLE
  5
   3F8
  8
0
  6
CONTINUOUS
 62
     7
 10
187.137542724609
 20
-107.842315673828
 30
0.0
 40
0.6875
  0
LINE
  5
   3F9
  8
0
  6
DASHDOT
 62
     7
 10
178.387542724609
 20
-25.2077587145511
 30
0.0
 11
178.387542724609
 21
-110.943839522643
 31
0.0
  0
LINE
  5
   3FA
  8
0
  6
DASHDOT
 62
     7
 10
187.137542724609
 20
-25.0262327024933
 30
0.0
 11
187.137542724609
 21
-110.671378330982
 31
0.0
  0
LINE
  5
   3FB
  8
0
  6
DASHDOT
 62
     7
 10
203.426833113606
 20
-80.6548156738281
 30
0.0
 11
157.214983459345
 21
-80.6548156738281
 31
0.0
  0
INSERT
  5
   3FC
  8
0
  6
CONTINUOUS
 62
     7
  2
*UDIM747
 10
0.0
 20
0.0
 30
0.0
  0
INSERT
  5
   3FD
  8
0
  6
CONTINUOUS
 62
     7
  2
*UDIM748
 10
0.0
 20
0.0
 30
0.0
  0
TEXT
  5
   3FE
  8
0
  6
CONTINUOUS
 62
     7
 10
184.248217818408
 20
-64.7404632846485
 30
0.0
 40
3.00000002980232
  1
=
 50
359.999999896069
 41
0.916666604744064
 72
     2
 11
186.448217687278
 21
-64.7404632886281
 31
0.0
  0
TEXT
  5
   3FF
  8
0
  6
CONTINUOUS
 62
     7
 10
179.528541562228
 20
-64.6497001926074
 30
0.0
 40
3.00000002980232
  1
=
 50
359.999999896069
 41
0.916666604744064
 72
     2
 11
181.728541431098
 21
-64.649700196587
 31
0.0
  0
TEXT
  5
   400
  8
0
  6
CONTINUOUS
 62
     7
 10
182.372099086906
 20
-24.6373547665295
 30
0.0
 40
3.00000002980232
  1
Y
 50
359.999999896069
 41
0.916666604744064
 72
     2
 11
184.572098955775
 21
-24.6373547705092
 31
0.0
  0
INSERT
  5
   401
  8
0
  6
CONTINUOUS
 62
     7
  2
*UDIM749
 10
0.0
 20
0.0
 30
0.0
  0
INSERT
  5
   402
  8
0
  6
CONTINUOUS
 62
     7
  2
*UDIM750
 10
0.0
 20
0.0
 30
0.0
  0
TEXT
  5
   403
  8
0
  6
CONTINUOUS
 62
     7
 10
141.536434170871
 20
-81.4228306094776
 30
0.0
 40
3.00000002980232
  1
X
 50
359.999999896069
 41
0.916666604744064
 72
     2
 11
143.73643403974
 21
-81.4228306134572
 31
0.0
  0
TEXT
  5
   404
  8
0
  6
CONTINUOUS
 62
     7
 10
204.757102963595
 20
-82.7028374950061
 30
0.0
 40
3.00000002980232
  1
X
 50
359.999999896069
 41
0.916666604744064
 72
     2
 11
206.957102832465
 21
-82.7028374989857
 31
0.0
  0
TEXT
  5
   405
  8
0
  6
CONTINUOUS
 62
     7
 10
181.765539166598
 20
-120.457637814678
 30
0.0
 40
3.00000002980232
  1
Y
 50
359.999999896069
 41
0.916666604744064
 72
     2
 11
183.965539035468
 21
-120.457637818657
 31
0.0
  0
LINE
  5
   406
  8
0
  6
CONTINUOUS
 62
     7
 10
218.381212455034
 20
69.1882159606394
 30
0.0
 11
218.381212455034
 21
69.363205276507
 31
0.0
  0
LINE
  5
   407
  8
0
  6
CONTINUOUS
 62
     7
 10
218.381212455034
 20
74.6132051871
 30
0.0
 11
218.381212455034
 21
81.6131943867386
 31
0.0
  0
LINE
  5
   408
  8
0
  6
CONTINUOUS
 62
     7
 10
219.256223121285
 20
69.363205276507
 30
0.0
 11
219.256223121285
 21
74.6132051871
 31
0.0
  0
LINE
  5
   409
  8
0
  6
CONTINUOUS
 62
     7
 10
219.256223121285
 20
69.363205276507
 30
0.0
 11
218.381212455034
 21
69.363205276507
 31
0.0
  0
LINE
  5
   40A
  8
0
  6
CONTINUOUS
 62
     7
 10
219.256223121285
 20
74.6132051871
 30
0.0
 11
218.381212455034
 21
74.6132051871
 31
0.0
  0
LINE
  5
   40B
  8
0
  6
CONTINUOUS
 62
     7
 10
219.256223121285
 20
81.6131943867386
 30
0.0
 11
219.256223121285
 21
86.8631942973316
 31
0.0
  0
LINE
  5
   40C
  8
0
  6
CONTINUOUS
 62
     7
 10
219.256223121285
 20
81.6131943867386
 30
0.0
 11
218.381212455034
 21
81.6131943867386
 31
0.0
  0
LINE
  5
   40D
  8
0
  6
CONTINUOUS
 62
     7
 10
219.256223121285
 20
86.8631942973316
 30
0.0
 11
218.381212455034
 21
86.8631942973316
 31
0.0
  0
LINE
  5
   40E
  8
0
  6
CONTINUOUS
 62
     7
 10
242.356206706166
 20
69.1882052794872
 30
0.0
 11
242.356206706166
 21
88.4381942705095
 31
0.0
  0
LINE
  5
   40F
  8
0
  6
CONTINUOUS
 62
     2
 10
218.381191092567
 20
88.2631942734897
 30
0.0
 11
218.381191092567
 21
95.4783125588201
 31
0.0
  0
LINE
  5
   410
  8
0
  6
CONTINUOUS
 62
     7
 10
243.581212025881
 20
94.5631941662014
 30
0.0
 11
242.356212046742
 21
94.5631941662014
 31
0.0
  0
LINE
  5
   411
  8
0
  6
CONTINUOUS
 62
     7
 10
242.356174662461
 20
88.4381912187848
 30
0.0
 11
242.356174662461
 21
94.5631911144767
 31
0.0
  0
LINE
  5
   412
  8
0
  6
CONTINUOUS
 62
     7
 10
219.781212431192
 20
89.1381942585886
 30
0.0
 11
218.381212455034
 21
89.1381942585886
 31
0.0
  0
LINE
  5
   413
  8
0
  6
CONTINUOUS
 62
     7
 10
219.78121332116
 20
89.1381898148232
 30
0.0
 11
219.781226672608
 21
94.3881941691816
 31
0.0
  0
LINE
  5
   414
  8
0
  6
CONTINUOUS
 62
     7
 10
242.356206706166
 20
65.8632106766877
 30
0.0
 11
242.356206706166
 21
69.1882159606394
 31
0.0
  0
LINE
  5
   415
  8
0
  6
CONTINUOUS
 62
     7
 10
218.381216024797
 20
44.5132199433131
 30
0.0
 11
218.381226705949
 21
44.6162022301773
 31
0.0
  0
LINE
  5
   416
  8
0
  6
CONTINUOUS
 62
     7
 10
218.381223136089
 20
50.0102363120731
 30
0.0
 11
218.381223136089
 21
69.1882129752202
 31
0.0
  0
LINE
  5
   417
  8
0
  6
CONTINUOUS
 62
     7
 10
243.231212031841
 20
49.2382163003858
 30
0.0
 11
219.431200687885
 21
49.2382163003858
 31
0.0
  0
LINE
  5
   418
  8
0
  6
CONTINUOUS
 62
     7
 10
243.231212031841
 20
45.3882163659509
 30
0.0
 11
219.431200687885
 21
45.3882163659509
 31
0.0
  0
LINE
  5
   419
  8
0
  6
CONTINUOUS
 62
     7
 10
221.262433054655
 20
49.2382198596137
 30
0.0
 11
218.381224425818
 21
50.0102398456142
 31
0.0
  0
LINE
  5
   41A
  8
0
  6
CONTINUOUS
 62
     7
 10
218.381226040711
 20
44.6161992380729
 30
0.0
 11
221.262434735889
 21
45.3882167400028
 31
0.0
  0
LINE
  5
   41B
  8
0
  6
CONTINUOUS
 62
     7
 10
243.581206685305
 20
50.2882162825044
 30
0.0
 11
240.781206732988
 21
50.2882162825044
 31
0.0
  0
LINE
  5
   41C
  8
0
  6
CONTINUOUS
 62
     7
 10
240.781206732988
 20
50.2882162825044
 30
0.0
 11
240.781206732988
 21
65.1632106886086
 31
0.0
  0
LINE
  5
   41D
  8
0
  6
CONTINUOUS
 62
     7
 10
218.731223130226
 20
47.4882163301882
 30
0.0
 11
218.731223130226
 21
49.9164534409351
 31
0.0
  0
LINE
  5
   41E
  8
0
  6
CONTINUOUS
 62
     7
 10
218.731218200476
 20
44.7099827048677
 30
0.0
 11
218.731223541047
 21
45.0382198526289
 31
0.0
  0
LINE
  5
   41F
  8
0
  6
CONTINUOUS
 62
     2
 10
218.381223136186
 20
50.2882162825044
 30
0.0
 11
217.681223148107
 21
50.2882162825044
 31
0.0
  0
LINE
  5
   420
  8
0
  6
CONTINUOUS
 62
     2
 10
218.381223136186
 20
52.2132162497219
 30
0.0
 11
217.681223148107
 21
52.2132162497219
 31
0.0
  0
LINE
  5
   421
  8
0
  6
CONTINUOUS
 62
     7
 10
243.581199121806
 20
45.0382300310788
 30
0.0
 11
243.231204479751
 21
45.3882246731338
 31
0.0
  0
LINE
  5
   422
  8
0
  6
CONTINUOUS
 62
     7
 10
243.231207609057
 20
49.2382167910706
 30
0.0
 11
243.581207591117
 21
49.5882167731302
 31
0.0
  0
LINE
  5
   423
  8
0
  6
CONTINUOUS
 62
     7
 10
242.356206706166
 20
65.1632106886086
 30
0.0
 11
242.356206706166
 21
65.8632106766877
 31
0.0
  0
LINE
  5
   424
  8
0
  6
CONTINUOUS
 62
     2
 10
219.081223124265
 20
38.213227169293
 30
0.0
 11
217.681223148107
 21
38.213227169293
 31
0.0
  0
LINE
  5
   425
  8
0
  6
CONTINUOUS
 62
     7
 10
218.381212455034
 20
43.113216404694
 30
0.0
 11
218.381212455034
 21
44.5132163808521
 31
0.0
  0
LINE
  5
   426
  8
0
  6
CONTINUOUS
 62
     7
 10
243.581206685305
 20
39.9632271394903
 30
0.0
 11
240.081212085485
 21
39.9632271394903
 31
0.0
  0
LINE
  5
   427
  8
0
  6
CONTINUOUS
 62
     7
 10
240.081212085485
 20
38.2132271692926
 30
0.0
 11
240.081212085485
 21
39.9632271394903
 31
0.0
  0
LINE
  5
   428
  8
0
  6
CONTINUOUS
 62
     7
 10
218.381212455034
 20
39.0882337766933
 30
0.0
 11
218.381212455034
 21
43.113216404694
 31
0.0
  0
LINE
  5
   429
  8
0
  6
CONTINUOUS
 62
     2
 10
218.381212455034
 20
88.2631942734897
 30
0.0
 11
218.206223139166
 21
88.2631942734897
 31
0.0
  0
LINE
  5
   42A
  8
0
  6
CONTINUOUS
 62
     7
 10
218.38121779561
 20
63.5882160560068
 30
0.0
 11
218.206223139166
 21
63.5882160560068
 31
0.0
  0
LINE
  5
   42B
  8
0
  6
CONTINUOUS
 62
     7
 10
218.381223136186
 20
52.3882175818857
 30
0.0
 11
218.206223139166
 21
52.3882175818857
 31
0.0
  0
LINE
  5
   42C
  8
0
  6
CONTINUOUS
 62
     7
 10
218.731223130226
 20
49.7632166252311
 30
0.0
 11
218.206223139166
 21
49.7632166252311
 31
0.0
  0
LINE
  5
   42D
  8
0
  6
CONTINUOUS
 62
     7
 10
218.381212455034
 20
44.1632217273887
 30
0.0
 11
218.206223139166
 21
44.1632217273887
 31
0.0
  0
LINE
  5
   42E
  8
0
  6
CONTINUOUS
 62
     2
 10
218.206223139166
 20
39.4032304918463
 30
0.0
 11
218.206223139166
 21
50.2882109419284
 31
0.0
  0
LINE
  5
   42F
  8
0
  6
CONTINUOUS
 62
     2
 10
218.206223139166
 20
52.2132109091458
 30
0.0
 11
218.206223139166
 21
88.2631889329136
 31
0.0
  0
LINE
  5
   430
  8
0
  6
CONTINUOUS
 62
     7
 10
218.731223130226
 20
81.6132104084668
 30
0.0
 11
218.731223130226
 21
86.8631942973316
 31
0.0
  0
LINE
  5
   431
  8
0
  6
CONTINUOUS
 62
     7
 10
218.731223130226
 20
69.3632266388113
 30
0.0
 11
218.731223130226
 21
74.6132212088282
 31
0.0
  0
LINE
  5
   432
  8
0
  6
CONTINUOUS
 62
     7
 10
218.731223130226
 20
45.0382430747918
 30
0.0
 11
218.731223130226
 21
47.4882430330686
 31
0.0
  0
LINE
  5
   433
  8
0
  6
CONTINUOUS
 62
     2
 10
218.346220403621
 20
39.2632332273918
 30
0.0
 11
218.206222543849
 21
39.4032310871634
 31
0.0
  0
LINE
  5
   434
  8
0
  6
CONTINUOUS
 62
     2
 10
218.381223136186
 20
93.8631941781223
 30
0.0
 11
217.681223148107
 21
93.8631941781223
 31
0.0
  0
LINE
  5
   435
  8
0
  6
CONTINUOUS
 62
     2
 10
218.381223136186
 20
97.7131941125572
 30
0.0
 11
217.681223148107
 21
97.7131941125572
 31
0.0
  0
LINE
  5
   436
  8
0
  6
CONTINUOUS
 62
     2
 10
218.381223136186
 20
96.7722700563154
 30
0.0
 11
217.681223148107
 21
96.7722700563154
 31
0.0
  0
LINE
  5
   437
  8
0
  6
CONTINUOUS
 62
     2
 10
218.381223136186
 20
95.4783125588201
 30
0.0
 11
217.681223148107
 21
95.4783125588201
 31
0.0
  0
LINE
  5
   438
  8
0
  6
CONTINUOUS
 62
     7
 10
242.531201362609
 20
70.2381931184042
 30
0.0
 11
242.531201362609
 21
89.3132088152871
 31
0.0
  0
LINE
  5
   439
  8
0
  6
CONTINUOUS
 62
     7
 10
252.156211879849
 20
94.7382061260992
 30
0.0
 11
252.156211879849
 21
94.913206123119
 31
0.0
  0
LINE
  5
   43A
  8
0
  6
CONTINUOUS
 62
     7
 10
243.581212025881
 20
94.3882007914836
 30
0.0
 11
243.581212025881
 21
94.7382061260992
 31
0.0
  0
LINE
  5
   43B
  8
0
  6
CONTINUOUS
 62
     7
 10
251.45621189177
 20
94.7382061260992
 30
0.0
 11
251.351210825443
 21
94.7382061260992
 31
0.0
  0
LINE
  5
   43C
  8
0
  6
CONTINUOUS
 62
     7
 10
243.581212025881
 20
94.3882114726357
 30
0.0
 11
242.531212043762
 21
94.3882114726357
 31
0.0
  0
LINE
  5
   43D
  8
0
  6
CONTINUOUS
 62
     7
 10
242.531212043762
 20
89.3132115590625
 30
0.0
 11
242.531212043762
 21
94.3882114726357
 31
0.0
  0
LINE
  5
   43E
  8
0
  6
CONTINUOUS
 62
     7
 10
243.581196004152
 20
40.3132177341036
 30
0.0
 11
243.581196004152
 21
42.8600316555753
 31
0.0
  0
LINE
  5
   43F
  8
0
  6
CONTINUOUS
 62
     7
 10
242.531206703186
 20
66.0382066148573
 30
0.0
 11
242.531206703186
 21
70.2381958621795
 31
0.0
  0
LINE
  5
   440
  8
0
  6
CONTINUOUS
 62
     7
 10
242.531206703186
 20
65.1631959486063
 30
0.0
 11
242.181206709146
 21
65.1631959486063
 31
0.0
  0
LINE
  5
   441
  8
0
  6
CONTINUOUS
 62
     7
 10
251.351199879678
 20
39.2632284331446
 30
0.0
 11
243.581195739539
 21
39.2632284331446
 31
0.0
  0
LINE
  5
   442
  8
0
  6
CONTINUOUS
 62
     7
 10
243.581196004152
 20
39.263217751985
 30
0.0
 11
243.581196004152
 21
40.3132177341036
 31
0.0
  0
LINE
  5
   443
  8
0
  6
CONTINUOUS
 62
     7
 10
243.581201344728
 20
42.8600316555753
 30
0.0
 11
243.581201344728
 21
45.3007208727661
 31
0.0
  0
LINE
  5
   444
  8
0
  6
CONTINUOUS
 62
     7
 10
251.456195870042
 20
38.2132124292903
 30
0.0
 11
251.456195870042
 21
39.2632124114089
 31
0.0
  0
LINE
  5
   445
  8
0
  6
CONTINUOUS
 62
     7
 10
251.456195870042
 20
39.2632124114089
 30
0.0
 11
251.351200165153
 21
39.2632124114089
 31
0.0
  0
LINE
  5
   446
  8
0
  6
CONTINUOUS
 62
     7
 10
242.181206709146
 20
65.1631959486063
 30
0.0
 11
240.781206732988
 21
65.1631959486063
 31
0.0
  0
LINE
  5
   447
  8
0
  6
CONTINUOUS
 62
     7
 10
242.531206703186
 20
65.1631959486063
 30
0.0
 11
242.531206703186
 21
66.0382066148573
 31
0.0
  0
LINE
  5
   448
  8
0
  6
CONTINUOUS
 62
     7
 10
251.351198688867
 20
45.3007283303251
 30
0.0
 11
243.581199889304
 21
45.3007283303251
 31
0.0
  0
LINE
  5
   449
  8
0
  6
CONTINUOUS
 62
     7
 10
251.351196114806
 20
49.3257282617788
 30
0.0
 11
243.581197315243
 21
49.3257282617788
 31
0.0
  0
LINE
  5
   44A
  8
0
  6
CONTINUOUS
 62
     7
 10
244.035860243549
 20
40.5757237204638
 30
0.0
 11
244.106195619515
 21
40.8382237123695
 31
0.0
  0
LINE
  5
   44B
  8
0
  6
CONTINUOUS
 62
     7
 10
243.84369926934
 20
40.3835565508258
 30
0.0
 11
244.035858524618
 21
40.5757211514566
 31
0.0
  0
LINE
  5
   44C
  8
0
  6
CONTINUOUS
 62
     7
 10
243.581189954264
 20
40.3132259365914
 30
0.0
 11
243.843695279785
 21
40.3835613179106
 31
0.0
  0
LINE
  5
   44D
  8
0
  6
CONTINUOUS
 62
     7
 10
243.843698204303
 20
44.4428830373487
 30
0.0
 11
243.581198210698
 21
44.5132237587199
 31
0.0
  0
LINE
  5
   44E
  8
0
  6
CONTINUOUS
 62
     7
 10
244.03585701427
 20
44.2507208405249
 30
0.0
 11
243.843697756318
 21
44.4428800984764
 31
0.0
  0
LINE
  5
   44F
  8
0
  6
CONTINUOUS
 62
     7
 10
244.10619198657
 20
43.9882213316115
 30
0.0
 11
244.035851265198
 21
44.2507213252164
 31
0.0
  0
LINE
  5
   450
  8
0
  6
CONTINUOUS
 62
     7
 10
244.106193028237
 20
40.8382198029851
 30
0.0
 11
244.106198368813
 21
43.9882197493409
 31
0.0
  0
LINE
  5
   451
  8
0
  6
CONTINUOUS
 62
     7
 10
251.35120014429
 20
39.2632124114089
 30
0.0
 11
251.35120014429
 21
94.7382017466244
 31
0.0
  0
LINE
  5
   452
  8
0
  6
CONTINUOUS
 62
     7
 10
251.351216166019
 20
102.333210269218
 30
0.0
 11
218.381191092567
 21
102.333210269218
 31
0.0
  0
LINE
  5
   453
  8
0
  6
CONTINUOUS
 62
     7
 10
251.351178781982
 20
94.7382037142611
 30
0.0
 11
251.351178781982
 21
102.33320785738
 31
0.0
  0
LINE
  5
   454
  8
0
  6
CONTINUOUS
 62
     7
 10
243.581212025881
 20
94.7382114666753
 30
0.0
 11
243.581212025881
 21
103.313210038918
 31
0.0
  0
LINE
  5
   455
  8
0
  6
CONTINUOUS
 62
     7
 10
257.056217136979
 20
41.1007337424208
 30
0.0
 11
257.056217136979
 21
47.5757216692741
 31
0.0
  0
LINE
  5
   456
  8
0
  6
CONTINUOUS
 62
     7
 10
257.056217136979
 20
77.0632224488309
 30
0.0
 11
257.056217136979
 21
77.1507224473408
 31
0.0
  0
LINE
  5
   457
  8
0
  6
CONTINUOUS
 62
     7
 10
255.131219172477
 20
77.8507224354198
 30
0.0
 11
253.906217190623
 21
77.8507224354198
 31
0.0
  0
LINE
  5
   458
  8
0
  6
CONTINUOUS
 62
     7
 10
255.131219172477
 20
41.1007337424208
 30
0.0
 11
253.906217190623
 21
41.1007337424208
 31
0.0
  0
LINE
  5
   459
  8
0
  6
CONTINUOUS
 62
     7
 10
251.456217232346
 20
35.4132338392783
 30
0.0
 11
251.456217232346
 21
39.2632124114089
 31
0.0
  0
LINE
  5
   45A
  8
0
  6
CONTINUOUS
 62
     7
 10
253.206217202544
 20
35.4132338392783
 30
0.0
 11
253.206217202544
 21
41.1007337424208
 31
0.0
  0
LINE
  5
   45B
  8
0
  6
CONTINUOUS
 62
     7
 10
253.206217202544
 20
77.8507224354198
 30
0.0
 11
253.206217202544
 21
94.7382221478274
 31
0.0
  0
LINE
  5
   45C
  8
0
  6
CONTINUOUS
 62
     7
 10
253.206217202544
 20
94.7382221478274
 30
0.0
 11
251.456217232346
 21
94.7382221478274
 31
0.0
  0
LINE
  5
   45D
  8
0
  6
CONTINUOUS
 62
     7
 10
253.206217202544
 20
35.4132338392783
 30
0.0
 11
251.456217232346
 21
35.4132338392783
 31
0.0
  0
LINE
  5
   45E
  8
0
  6
CONTINUOUS
 62
     7
 10
253.906217190623
 20
41.1007337424208
 30
0.0
 11
253.906217190623
 21
77.8507224354198
 31
0.0
  0
LINE
  5
   45F
  8
0
  6
CONTINUOUS
 62
     7
 10
253.906217190623
 20
41.1007337424208
 30
0.0
 11
253.206217202544
 21
41.1007337424208
 31
0.0
  0
LINE
  5
   460
  8
0
  6
CONTINUOUS
 62
     7
 10
253.906217190623
 20
77.8507224354198
 30
0.0
 11
253.206217202544
 21
77.8507224354198
 31
0.0
  0
LINE
  5
   461
  8
0
  6
CONTINUOUS
 62
     7
 10
251.35119203821
 20
49.5182068623134
 30
0.0
 11
251.456193099669
 21
49.5273926520482
 31
0.0
  0
LINE
  5
   462
  8
0
  6
CONTINUOUS
 62
     7
 10
251.456211149893
 20
45.0990280366828
 30
0.0
 11
251.351210085499
 21
45.1082191670108
 31
0.0
  0
LINE
  5
   463
  8
0
  6
CONTINUOUS
 62
     7
 10
243.581201344728
 20
49.3257208042217
 30
0.0
 11
243.581201344728
 21
50.2882068830782
 31
0.0
  0
LINE
  5
   464
  8
0
  6
CONTINUOUS
 62
     7
 10
251.351215832233
 20
15.3932339131879
 30
0.0
 11
234.691048715059
 21
15.3932339131879
 31
0.0
  0
LINE
  5
   465
  8
0
  6
CONTINUOUS
 62
     2
 10
219.081223124265
 20
39.0882337766933
 30
0.0
 11
217.681223148107
 21
39.0882337766933
 31
0.0
  0
LINE
  5
   466
  8
0
  6
CONTINUOUS
 62
     7
 10
251.351221506595
 20
39.0882337766933
 30
0.0
 11
245.331217336654
 21
39.0882337766933
 31
0.0
  0
LINE
  5
   467
  8
0
  6
CONTINUOUS
 62
     2
 10
219.081223124265
 20
38.2132337915944
 30
0.0
 11
219.081223124265
 21
39.0882337766933
 31
0.0
  0
LINE
  5
   468
  8
0
  6
CONTINUOUS
 62
   218
 10
251.351218635637
 20
24.2132286891235
 30
0.0
 11
251.456217232073
 21
24.2132299215448
 31
0.0
  0
LINE
  5
   469
  8
0
  6
CONTINUOUS
 62
     7
 10
251.351221506595
 20
15.3932352483319
 30
0.0
 11
251.351221506595
 21
24.213234030013
 31
0.0
  0
LINE
  5
   46A
  8
0
  6
CONTINUOUS
 62
   218
 10
251.351221506595
 20
24.213234030013
 30
0.0
 11
251.351221506595
 21
39.0882337766933
 31
0.0
  0
LINE
  5
   46B
  8
0
  6
CONTINUOUS
 62
     7
 10
251.456217232346
 20
35.0632338452386
 30
0.0
 11
251.351221506595
 21
35.0632338452386
 31
0.0
  0
LINE
  5
   46C
  8
0
  6
CONTINUOUS
 62
   218
 10
217.681223148078
 20
26.3132286540205
 30
0.0
 11
218.381222802355
 21
26.3132339945966
 31
0.0
  0
LINE
  5
   46D
  8
0
  6
CONTINUOUS
 62
   218
 10
218.3812228024
 20
16.6181936091541
 30
0.0
 11
218.3812228024
 21
26.3132286536743
 31
0.0
  0
LINE
  5
   46E
  8
0
  6
CONTINUOUS
 62
   218
 10
218.381223136186
 20
22.5507287177491
 30
0.0
 11
217.681223148107
 21
22.5507287177491
 31
0.0
  0
LINE
  5
   46F
  8
0
  6
CONTINUOUS
 62
     7
 10
243.581213361778
 20
39.0882337785979
 30
0.0
 11
243.581218702355
 21
39.788233766693
 31
0.0
  0
LINE
  5
   470
  8
0
  6
CONTINUOUS
 62
     7
 10
243.581222707033
 20
39.7882337647724
 30
0.0
 11
240.081222766637
 21
39.7882337647724
 31
0.0
  0
LINE
  5
   471
  8
0
  6
CONTINUOUS
 62
     7
 10
245.331217336654
 20
39.0882337766933
 30
0.0
 11
243.581217366457
 21
39.0882337766933
 31
0.0
  0
LINE
  5
   472
  8
0
  6
CONTINUOUS
 62
   218
 10
218.381223136186
 20
19.4995718197131
 30
0.0
 11
217.681223148107
 21
19.4995718197131
 31
0.0
  0
LINE
  5
   473
  8
0
  6
CONTINUOUS
 62
   218
 10
218.381223136186
 20
20.3581178236926
 30
0.0
 11
217.681223148107
 21
20.3581178236926
 31
0.0
  0
LINE
  5
   474
  8
0
  6
CONTINUOUS
 62
   218
 10
218.381223136186
 20
22.5060067336475
 30
0.0
 11
217.681223148107
 21
22.5060067336475
 31
0.0
  0
LINE
  5
   475
  8
0
  6
CONTINUOUS
 62
     7
 10
253.206217202544
 20
35.2382338422586
 30
0.0
 11
251.456217232346
 21
35.2382338422586
 31
0.0
  0
LINE
  5
   476
  8
0
  6
CONTINUOUS
 62
     7
 10
253.206217202544
 20
22.9882340508748
 30
0.0
 11
251.456217232346
 21
22.9882340508748
 31
0.0
  0
LINE
  5
   477
  8
0
  6
CONTINUOUS
 62
     7
 10
253.206217202544
 20
22.9882340508748
 30
0.0
 11
253.206217202544
 21
35.2382338422586
 31
0.0
  0
LINE
  5
   478
  8
0
  6
CONTINUOUS
 62
     7
 10
252.506217214465
 20
22.9882340508748
 30
0.0
 11
252.506217214465
 21
35.2382338422586
 31
0.0
  0
LINE
  5
   479
  8
0
  6
CONTINUOUS
 62
     7
 10
251.456217232346
 20
22.9882340508748
 30
0.0
 11
251.456217232346
 21
35.2382338422586
 31
0.0
  0
ARC
  5
   47A
  8
0
  6
CONTINUOUS
 62
     7
 10
264.292485483425
 20
51.7603750481161
 30
0.0
 40
0.349999922554071
 50
348.623573369035
 51
436.688788706936
  0
ARC
  5
   47B
  8
0
  6
CONTINUOUS
 62
     7
 10
263.873624950616
 20
49.6786387947687
 30
0.0
 40
0.35000025487589
 50
260.593992196011
 51
348.623573369035
  0
LINE
  5
   47C
  8
0
  6
DASHDOT
 62
     7
 10
269.472690023249
 20
49.6223436379985
 30
0.0
 11
251.93185005785
 21
53.1516876954229
 31
0.0
  0
LINE
  5
   47D
  8
0
  6
CONTINUOUS
 62
     7
 10
264.373069462696
 20
52.1009715711049
 30
0.0
 11
257.056217136979
 21
53.832113953204
 31
0.0
  0
LINE
  5
   47E
  8
0
  6
CONTINUOUS
 62
     7
 10
264.216748456189
 20
49.609599860046
 30
0.0
 11
264.635608873993
 21
51.6913361365332
 31
0.0
  0
LINE
  5
   47F
  8
0
  6
CONTINUOUS
 62
     7
 10
263.816424634574
 20
49.3333443946391
 30
0.0
 11
257.056217136979
 21
50.4532177699986
 31
0.0
  0
LINE
  5
   480
  8
0
  6
CONTINUOUS
 62
     7
 10
219.431200687885
 20
45.3882163659509
 30
0.0
 11
219.431200687885
 21
49.2382163003858
 31
0.0
  0
LINE
  5
   481
  8
0
  6
CONTINUOUS
 62
     2
 10
218.381191092567
 20
96.7722700563154
 30
0.0
 11
218.381191092567
 21
103.31320966194
 31
0.0
  0
LINE
  5
   482
  8
0
  6
DASHDOT
 62
     7
 10
217.681223148107
 20
11.9476117568904
 30
0.0
 11
217.681223148107
 21
139.052483036302
 31
0.0
  0
LINE
  5
   483
  8
0
  6
DASHDOT
 62
     7
 10
216.631223165989
 20
11.980019163746
 30
0.0
 11
216.631223165989
 21
139.052483036302
 31
0.0
  0
LINE
  5
   484
  8
0
  6
CONTINUOUS
 62
     7
 10
218.776625567349
 20
139.052483036302
 30
0.0
 11
215.228398517356
 21
139.052483036302
 31
0.0
  0
ARC
  5
   485
  8
0
  6
CONTINUOUS
 62
     7
 10
238.331217455864
 20
55.8882334905912
 30
0.0
 40
26.61542846025
 50
333.082565820193
 51
379.93594827737
  0
LINE
  5
   486
  8
0
  6
CONTINUOUS
 62
     7
 10
264.946645916114
 20
55.8882334905911
 30
0.0
 11
264.946645916114
 21
71.0604808930119
 31
0.0
  0
LINE
  5
   487
  8
0
  6
DASHDOT
 62
     7
 10
231.927594078039
 20
20.7131935394166
 30
0.0
 11
222.08094483352
 21
20.7131935394166
 31
0.0
  0
LINE
  5
   488
  8
0
  6
CONTINUOUS
 62
     7
 10
226.431214831109
 20
17.2132115051923
 30
0.0
 11
224.681214860911
 21
17.2132115051923
 31
0.0
  0
LINE
  5
   489
  8
0
  6
CONTINUOUS
 62
     7
 10
224.681214860911
 20
17.2132115051922
 30
0.0
 11
224.681214860911
 21
27.8851389880198
 31
0.0
  0
LINE
  5
   48A
  8
0
  6
CONTINUOUS
 62
     7
 10
226.431214163537
 20
22.1131935155748
 30
0.0
 11
224.681214860911
 21
22.1131935155748
 31
0.0
  0
LINE
  5
   48B
  8
0
  6
CONTINUOUS
 62
     7
 10
226.431214163537
 20
19.3131935632585
 30
0.0
 11
224.681214860911
 21
19.3131935632585
 31
0.0
  0
LINE
  5
   48C
  8
0
  6
CONTINUOUS
 62
     7
 10
226.431214163537
 20
17.2132115051922
 30
0.0
 11
226.431214163537
 21
19.3131935632585
 31
0.0
  0
LINE
  5
   48D
  8
0
  6
CONTINUOUS
 62
     7
 10
231.983353887458
 20
27.8851389880198
 30
0.0
 11
214.493224110272
 21
27.8851389880198
 31
0.0
  0
LINE
  5
   48E
  8
0
  6
CONTINUOUS
 62
     7
 10
235.259368907643
 20
13.3242512512992
 30
0.0
 11
231.116969749888
 21
28.40475014587
 31
0.0
  0
INSERT
  5
   48F
  8
0
  6
CONTINUOUS
 62
     7
  2
*HATCH157
 10
253.731201171875
 20
20.98024559021
 30
0.0
 41
0.349999994039536
 42
0.349999994039536
 50
89.9999999480344
 43
0.349999994039536
  0
INSERT
  5
   490
  8
0
  6
CONTINUOUS
 62
     7
  2
*HATCH158
 10
253.731201171875
 20
20.98024559021
 30
0.0
 41
0.349999994039536
 42
0.349999994039536
 50
89.9999999480344
 43
0.349999994039536
  0
LINE
  5
   491
  8
0
  6
CONTINUOUS
 62
     7
 10
224.681214860911
 20
25.9631934500097
 30
0.0
 11
218.3812228024
 21
25.9631934500097
 31
0.0
  0
LINE
  5
   492
  8
0
  6
CONTINUOUS
 62
     7
 10
224.681214860911
 20
27.3631934261678
 30
0.0
 11
217.681223148107
 21
27.3631934261678
 31
0.0
  0
LINE
  5
   493
  8
0
  6
CONTINUOUS
 62
     7
 10
232.172190882418
 20
24.5631934738515
 30
0.0
 11
226.431214163537
 21
24.5631934738515
 31
0.0
  0
INSERT
  5
   494
  8
0
  6
CONTINUOUS
 62
     7
  2
*HATCH159
 10
253.731201171875
 20
20.98024559021
 30
0.0
 41
0.349999994039536
 42
0.349999994039536
 50
89.9999999480344
 43
0.349999994039536
  0
LINE
  5
   495
  8
0
  6
CONTINUOUS
 62
     7
 10
231.78763074534
 20
25.9631934500097
 30
0.0
 11
226.431214163537
 21
25.9631934500097
 31
0.0
  0
INSERT
  5
   496
  8
0
  6
CONTINUOUS
 62
     7
  2
*HATCH160
 10
253.731201171875
 20
20.98024559021
 30
0.0
 41
0.349999994039536
 42
0.349999994039536
 50
89.9999999480344
 43
0.349999994039536
  0
LINE
  5
   497
  8
0
  6
CONTINUOUS
 62
     7
 10
240.081212085485
 20
38.213227169293
 30
0.0
 11
219.081223124265
 21
38.213227169293
 31
0.0
  0
LINE
  5
   498
  8
0
  6
CONTINUOUS
 62
     7
 10
257.056217136979
 20
64.2007213861521
 30
0.0
 11
257.056217136979
 21
77.8507224354198
 31
0.0
  0
LINE
  5
   499
  8
0
  6
CONTINUOUS
 62
     7
 10
257.056217136979
 20
59.6507214636381
 30
0.0
 11
257.056217136979
 21
63.8507213921125
 31
0.0
  0
LINE
  5
   49A
  8
0
  6
CONTINUOUS
 62
     7
 10
257.056217136979
 20
52.475732266979
 30
0.0
 11
257.056217136979
 21
59.3007214695986
 31
0.0
  0
LINE
  5
   49B
  8
0
  6
CONTINUOUS
 62
     7
 10
257.056217136979
 20
47.9257216633137
 30
0.0
 11
257.056217136979
 21
52.1257322729395
 31
0.0
  0
LINE
  5
   49C
  8
0
  6
CONTINUOUS
 62
     1
 10
255.131219172477
 20
40.2234640659057
 30
0.0
 11
255.131219172477
 21
40.9234640539847
 31
0.0
  0
LINE
  5
   49D
  8
0
  6
CONTINUOUS
 62
     1
 10
255.831219160557
 20
40.2234640659057
 30
0.0
 11
255.131219172477
 21
40.2234640659057
 31
0.0
  0
LINE
  5
   49E
  8
0
  6
CONTINUOUS
 62
     1
 10
255.131219172477
 20
78.0234620870315
 30
0.0
 11
255.131219172477
 21
78.7234620751105
 31
0.0
  0
LINE
  5
   49F
  8
0
  6
CONTINUOUS
 62
     1
 10
255.831219160557
 20
78.7234620751105
 30
0.0
 11
255.131219172477
 21
78.7234620751105
 31
0.0
  0
LINE
  5
   4A0
  8
0
  6
CONTINUOUS
 62
     1
 10
255.131219172477
 20
40.9234640539847
 30
0.0
 11
255.131219172477
 21
78.0234634221755
 31
0.0
  0
LINE
  5
   4A1
  8
0
  6
CONTINUOUS
 62
     1
 10
253.5562191993
 20
83.4755333747985
 30
0.0
 11
253.5562191993
 21
85.1713905846877
 31
0.0
  0
LINE
  5
   4A2
  8
0
  6
CONTINUOUS
 62
     1
 10
255.831219160557
 20
31.3007152707143
 30
0.0
 11
255.831219160557
 21
87.6507129759355
 31
0.0
  0
LINE
  5
   4A3
  8
0
  6
CONTINUOUS
 62
     1
 10
257.056219139695
 20
31.3007152707143
 30
0.0
 11
257.056219139695
 21
87.6507129759355
 31
0.0
  0
LINE
  5
   4A4
  8
0
  6
CONTINUOUS
 62
     1
 10
255.831219160557
 20
83.2734619976245
 30
0.0
 11
253.906218074519
 21
83.2734619976245
 31
0.0
  0
LINE
  5
   4A5
  8
0
  6
CONTINUOUS
 62
     1
 10
255.831219160557
 20
85.3734619618617
 30
0.0
 11
253.906220340124
 21
85.3734619618617
 31
0.0
  0
LINE
  5
   4A6
  8
0
  6
CONTINUOUS
 62
     1
 10
253.906219188544
 20
83.2734619976245
 30
0.0
 11
253.906219188544
 21
83.3533890592516
 31
0.0
  0
LINE
  5
   4A7
  8
0
  6
CONTINUOUS
 62
     1
 10
253.906219467047
 20
83.273461193653
 30
0.0
 11
253.556219461483
 21
83.4755325733605
 31
0.0
  0
LINE
  5
   4A8
  8
0
  6
CONTINUOUS
 62
     1
 10
253.906219188544
 20
83.3533890592516
 30
0.0
 11
253.906219188544
 21
83.5809990712446
 31
0.0
  0
LINE
  5
   4A9
  8
0
  6
CONTINUOUS
 62
     1
 10
253.906219188544
 20
83.5809990712446
 30
0.0
 11
253.906219188544
 21
83.9216477165664
 31
0.0
  0
LINE
  5
   4AA
  8
0
  6
CONTINUOUS
 62
     1
 10
253.906219188544
 20
83.9216477165664
 30
0.0
 11
253.906219188544
 21
84.3234619797431
 31
0.0
  0
LINE
  5
   4AB
  8
0
  6
CONTINUOUS
 62
     1
 10
253.906219188544
 20
84.3234619797431
 30
0.0
 11
253.906219188544
 21
84.7252815834959
 31
0.0
  0
LINE
  5
   4AC
  8
0
  6
CONTINUOUS
 62
     1
 10
253.906219188544
 20
84.7252815834959
 30
0.0
 11
253.906219188544
 21
85.0659248882416
 31
0.0
  0
LINE
  5
   4AD
  8
0
  6
CONTINUOUS
 62
     1
 10
253.906219188544
 20
85.0659248882416
 30
0.0
 11
253.906219188544
 21
85.2935349002346
 31
0.0
  0
LINE
  5
   4AE
  8
0
  6
CONTINUOUS
 62
     1
 10
253.906219188544
 20
85.2935349002346
 30
0.0
 11
253.906219188544
 21
85.3734619618617
 31
0.0
  0
LINE
  5
   4AF
  8
0
  6
CONTINUOUS
 62
     1
 10
253.556218895087
 20
85.1713897510795
 30
0.0
 11
253.906218900651
 21
85.3734611307869
 31
0.0
  0
LINE
  5
   4B0
  8
0
  6
CONTINUOUS
 62
     1
 10
255.831219160557
 20
35.6734641433917
 30
0.0
 11
253.906219890333
 21
35.6734641433917
 31
0.0
  0
LINE
  5
   4B1
  8
0
  6
CONTINUOUS
 62
     1
 10
255.831219160557
 20
33.5734641791545
 30
0.0
 11
253.906219200204
 21
33.5734641791545
 31
0.0
  0
LINE
  5
   4B2
  8
0
  6
CONTINUOUS
 62
     1
 10
253.906219200204
 20
35.5935370817646
 30
0.0
 11
253.906219200204
 21
35.6734641433917
 31
0.0
  0
LINE
  5
   4B3
  8
0
  6
CONTINUOUS
 62
     1
 10
253.906219200196
 20
35.3659257346276
 30
0.0
 11
253.906219200196
 21
35.5935370817646
 31
0.0
  0
LINE
  5
   4B4
  8
0
  6
CONTINUOUS
 62
     1
 10
253.906219200206
 20
35.0252824298818
 30
0.0
 11
253.906219200206
 21
35.3659257346276
 31
0.0
  0
LINE
  5
   4B5
  8
0
  6
CONTINUOUS
 62
     1
 10
253.906219200181
 20
34.6234641612731
 30
0.0
 11
253.906219200181
 21
35.0252824298818
 31
0.0
  0
LINE
  5
   4B6
  8
0
  6
CONTINUOUS
 62
     1
 10
253.906219200224
 20
34.2216472278084
 30
0.0
 11
253.906219200224
 21
34.6234641612731
 31
0.0
  0
LINE
  5
   4B7
  8
0
  6
CONTINUOUS
 62
     1
 10
253.906219200205
 20
33.8810025879186
 30
0.0
 11
253.906219200205
 21
34.2216472278084
 31
0.0
  0
LINE
  5
   4B8
  8
0
  6
CONTINUOUS
 62
     1
 10
253.906219200197
 20
33.5734641791545
 30
0.0
 11
253.906219200197
 21
33.8810025879186
 31
0.0
  0
LINE
  5
   4B9
  8
0
  6
CONTINUOUS
 62
     1
 10
253.906219200204
 20
33.5734641791545
 30
0.0
 11
253.906219200204
 21
33.6533912407816
 31
0.0
  0
LINE
  5
   4BA
  8
0
  6
CONTINUOUS
 62
     1
 10
253.556219016547
 20
35.4713909409856
 30
0.0
 11
253.906219022112
 21
35.6734636421239
 31
0.0
  0
LINE
  5
   4BB
  8
0
  6
CONTINUOUS
 62
     1
 10
253.906219345218
 20
33.5734637495298
 30
0.0
 11
253.556219339653
 21
33.7755364506681
 31
0.0
  0
LINE
  5
   4BC
  8
0
  6
CONTINUOUS
 62
     7
 10
255.131219172477
 20
11.8274398594426
 30
0.0
 11
255.131219172477
 21
33.5734641791545
 31
0.0
  0
LINE
  5
   4BD
  8
0
  6
CONTINUOUS
 62
     7
 10
255.831219160557
 20
12.2570950245394
 30
0.0
 11
255.831219160557
 21
31.3007152707143
 31
0.0
  0
LINE
  5
   4BE
  8
0
  6
CONTINUOUS
 62
     7
 10
255.831219160557
 20
85.5484619588815
 30
0.0
 11
255.831219160557
 21
138.115347022915
 31
0.0
  0
LINE
  5
   4BF
  8
0
  6
CONTINUOUS
 62
     7
 10
255.831219160557
 20
39.8734640718661
 30
0.0
 11
255.131219172477
 21
39.8734640718661
 31
0.0
  0
LINE
  5
   4C0
  8
0
  6
CONTINUOUS
 62
     7
 10
255.831219160557
 20
79.0734620691501
 30
0.0
 11
255.131219172477
 21
79.0734620691501
 31
0.0
  0
LINE
  5
   4C1
  8
0
  6
CONTINUOUS
 62
     7
 10
255.831219160557
 20
85.5484619588815
 30
0.0
 11
255.131219172477
 21
85.5484619588815
 31
0.0
  0
LINE
  5
   4C2
  8
0
  6
CONTINUOUS
 62
     7
 10
255.831219160557
 20
83.0984620006048
 30
0.0
 11
255.131219172477
 21
83.0984620006048
 31
0.0
  0
LINE
  5
   4C3
  8
0
  6
CONTINUOUS
 62
     7
 10
255.831219160557
 20
35.8484641404115
 30
0.0
 11
255.131219172477
 21
35.8484641404115
 31
0.0
  0
LINE
  5
   4C4
  8
0
  6
CONTINUOUS
 62
     7
 10
255.831219160557
 20
33.3984641821347
 30
0.0
 11
255.131219172477
 21
33.3984641821347
 31
0.0
  0
LINE
  5
   4C5
  8
0
  6
CONTINUOUS
 62
     7
 10
255.131219172477
 20
35.6734641433917
 30
0.0
 11
255.131219172477
 21
83.2734619976245
 31
0.0
  0
LINE
  5
   4C6
  8
0
  6
CONTINUOUS
 62
     7
 10
255.131219172477
 20
85.3734619618617
 30
0.0
 11
255.131219172477
 21
137.73789604895
 31
0.0
  0
LINE
  5
   4C7
  8
0
  6
CONTINUOUS
 62
     7
 10
254.293392852179
 20
137.286126954672
 30
0.0
 11
256.851299268377
 21
138.665390218308
 31
0.0
  0
LINE
  5
   4C8
  8
0
  6
CONTINUOUS
 62
     7
 10
253.967385171683
 20
11.1130865761962
 30
0.0
 11
257.603624684906
 21
13.3449853118985
 31
0.0
  0
INSERT
  5
   4C9
  8
0
  6
CONTINUOUS
 62
     7
  2
*HATCH161
 10
253.731201171875
 20
20.98024559021
 30
0.0
 41
0.349999994039536
 42
0.349999994039536
 50
89.9999999480344
 43
0.349999994039536
  0
INSERT
  5
   4CA
  8
0
  6
CONTINUOUS
 62
     7
  2
*HATCH162
 10
253.731201171875
 20
20.98024559021
 30
0.0
 41
0.349999994039536
 42
0.349999994039536
 50
89.9999999480344
 43
0.349999994039536
  0
INSERT
  5
   4CB
  8
0
  6
CONTINUOUS
 62
     7
  2
*HATCH163
 10
253.731201171875
 20
20.98024559021
 30
0.0
 41
0.349999994039536
 42
0.349999994039536
 50
89.9999999480344
 43
0.349999994039536
  0
LINE
  5
   4CC
  8
0
  6
CONTINUOUS
 62
     1
 10
253.556219339653
 20
33.7755364506681
 30
0.0
 11
253.556219016547
 21
35.4713909409856
 31
0.0
  0
LINE
  5
   4CD
  8
0
  6
DASHDOT
 62
     7
 10
269.751421447778
 20
59.4757227483442
 30
0.0
 11
207.509294059185
 21
59.4757227483442
 31
0.0
  0
LINE
  5
   4CE
  8
0
  6
CONTINUOUS
 62
     7
 10
226.431214163537
 20
22.1131935155748
 30
0.0
 11
226.431214163537
 21
27.8851389880198
 31
0.0
  0
LINE
  5
   4CF
  8
0
  6
CONTINUOUS
 62
     1
 10
215.23122318983
 20
126.238822886407
 30
0.0
 11
215.23122318983
 21
129.038822838723
 31
0.0
  0
LINE
  5
   4D0
  8
0
  6
CONTINUOUS
 62
     1
 10
213.831223213672
 20
126.763822877466
 30
0.0
 11
213.831223213672
 21
128.513822847664
 31
0.0
  0
LINE
  5
   4D1
  8
0
  6
CONTINUOUS
 62
     1
 10
216.631223165989
 20
129.038822838723
 30
0.0
 11
215.23122318983
 21
129.038822838723
 31
0.0
  0
LINE
  5
   4D2
  8
0
  6
CONTINUOUS
 62
     1
 10
216.631223165989
 20
126.238822886407
 30
0.0
 11
215.23122318983
 21
126.238822886407
 31
0.0
  0
LINE
  5
   4D3
  8
0
  6
CONTINUOUS
 62
     1
 10
216.631223165989
 20
128.513822847664
 30
0.0
 11
213.831223213672
 21
128.513822847664
 31
0.0
  0
LINE
  5
   4D4
  8
0
  6
CONTINUOUS
 62
     1
 10
216.631223165989
 20
126.763822877466
 30
0.0
 11
213.831223213672
 21
126.763822877466
 31
0.0
  0
LINE
  5
   4D5
  8
0
  6
CONTINUOUS
 62
     1
 10
216.631223165989
 20
22.8132233727029
 30
0.0
 11
215.23122318983
 21
22.8132233727029
 31
0.0
  0
LINE
  5
   4D6
  8
0
  6
CONTINUOUS
 62
     1
 10
216.631223165989
 20
22.2882233816436
 30
0.0
 11
213.831223213672
 21
22.2882233816436
 31
0.0
  0
LINE
  5
   4D7
  8
0
  6
DASHDOT
 62
   218
 10
219.479402643312
 20
21.4132233965447
 30
0.0
 11
212.101920133556
 21
21.4132233965447
 31
0.0
  0
LINE
  5
   4D8
  8
0
  6
CONTINUOUS
 62
     1
 10
216.631223165989
 20
20.5382234114459
 30
0.0
 11
213.831223213672
 21
20.5382234114459
 31
0.0
  0
LINE
  5
   4D9
  8
0
  6
CONTINUOUS
 62
     1
 10
216.631223165989
 20
20.0132234203866
 30
0.0
 11
215.23122318983
 21
20.0132234203866
 31
0.0
  0
LINE
  5
   4DA
  8
0
  6
CONTINUOUS
 62
     1
 10
215.23122318983
 20
20.0132234203866
 30
0.0
 11
215.23122318983
 21
22.8132233727029
 31
0.0
  0
LINE
  5
   4DB
  8
0
  6
CONTINUOUS
 62
     1
 10
213.831223213672
 20
20.5382234114459
 30
0.0
 11
213.831223213672
 21
22.2882233816436
 31
0.0
  0
CIRCLE
  5
   4DC
  8
0
  6
CONTINUOUS
 62
     1
 10
215.654041341957
 20
127.629860589627
 30
0.0
 40
6.99999988079071E-2
  0
LINE
  5
   4DD
  8
0
  6
CONTINUOUS
 62
     1
 10
257.056219139695
 20
87.6507129759355
 30
0.0
 11
255.831219160557
 21
87.6507129759355
 31
0.0
  0
LINE
  5
   4DE
  8
0
  6
CONTINUOUS
 62
     1
 10
257.056219139695
 20
31.3007152707143
 30
0.0
 11
255.831219160557
 21
31.3007152707143
 31
0.0
  0
LINE
  5
   4DF
  8
0
  6
CONTINUOUS
 62
     7
 10
219.781212431192
 20
94.3881941691816
 30
0.0
 11
218.381212455034
 21
94.3881941691816
 31
0.0
  0
LINE
  5
   4E0
  8
0
  6
DASHDOT
 62
     7
 10
223.008049661015
 20
127.638822862565
 30
0.0
 11
211.368765894772
 21
127.638822862565
 31
0.0
  0
LINE
  5
   4E1
  8
0
  6
CONTINUOUS
 62
   130
 10
243.581222707015
 20
127.183209558557
 30
0.0
 11
243.581222707015
 21
132.188214227284
 31
0.0
  0
LINE
  5
   4E2
  8
0
  6
CONTINUOUS
 62
   130
 10
243.581222707015
 20
102.438210053819
 30
0.0
 11
243.581222707015
 21
103.733300747701
 31
0.0
  0
LINE
  5
   4E3
  8
0
  6
CONTINUOUS
 62
   130
 10
218.381223136168
 20
102.438210053819
 30
0.0
 11
218.381223136168
 21
133.938209517377
 31
0.0
  0
LINE
  5
   4E4
  8
0
  6
CONTINUOUS
 62
   130
 10
242.391222193223
 20
124.73320960028
 30
0.0
 11
242.356222727876
 21
124.73320960028
 31
0.0
  0
LINE
  5
   4E5
  8
0
  6
CONTINUOUS
 62
   130
 10
243.581222707015
 20
127.183209558557
 30
0.0
 11
242.356222727876
 21
127.183209558557
 31
0.0
  0
LINE
  5
   4E6
  8
0
  6
CONTINUOUS
 62
   130
 10
243.581222707015
 20
103.733242001364
 30
0.0
 11
242.356222727876
 21
103.733242001364
 31
0.0
  0
LINE
  5
   4E7
  8
0
  6
CONTINUOUS
 62
   130
 10
242.391222193223
 20
106.183241959641
 30
0.0
 11
242.356222727876
 21
106.183241959641
 31
0.0
  0
LINE
  5
   4E8
  8
0
  6
CONTINUOUS
 62
   130
 10
242.356222727876
 20
103.733242001364
 30
0.0
 11
242.356222727876
 21
127.183209558557
 31
0.0
  0
LINE
  5
   4E9
  8
0
  6
CONTINUOUS
 62
   130
 10
217.681223148107
 20
126.085436200787
 30
0.0
 11
217.681223148107
 21
129.192209524344
 31
0.0
  0
LINE
  5
   4EA
  8
0
  6
CONTINUOUS
 62
   210
 10
251.351221506577
 20
131.978208408783
 30
0.0
 11
243.7375177645
 21
131.978208408783
 31
0.0
  0
LINE
  5
   4EB
  8
0
  6
CONTINUOUS
 62
   210
 10
243.581222707015
 20
103.733242001364
 30
0.0
 11
243.581222707015
 21
103.820709956418
 31
0.0
  0
LINE
  5
   4EC
  8
0
  6
CONTINUOUS
 62
   210
 10
243.581222707015
 20
127.095709560047
 30
0.0
 11
243.581222707015
 21
127.183209558557
 31
0.0
  0
LINE
  5
   4ED
  8
0
  6
CONTINUOUS
 62
   210
 10
251.456222572904
 20
106.270709914694
 30
0.0
 11
251.351221506577
 21
106.270709914694
 31
0.0
  0
LINE
  5
   4EE
  8
0
  6
CONTINUOUS
 62
   210
 10
251.456222572904
 20
103.645709959398
 30
0.0
 11
251.351221506577
 21
103.645709959398
 31
0.0
  0
LINE
  5
   4EF
  8
0
  6
CONTINUOUS
 62
   210
 10
251.456222572904
 20
103.208209966848
 30
0.0
 11
251.351221506577
 21
103.208209966848
 31
0.0
  0
LINE
  5
   4F0
  8
0
  6
CONTINUOUS
 62
   210
 10
251.351221506577
 20
103.313210038918
 30
0.0
 11
251.351221506577
 21
131.978208408783
 31
0.0
  0
LINE
  5
   4F1
  8
0
  6
CONTINUOUS
 62
   210
 10
243.581222707015
 20
103.820709956418
 30
0.0
 11
242.566222190243
 21
103.820709956418
 31
0.0
  0
LINE
  5
   4F2
  8
0
  6
CONTINUOUS
 62
   210
 10
242.566222813926
 20
103.820711475601
 30
0.0
 11
242.442478993462
 21
103.871970325091
 31
0.0
  0
LINE
  5
   4F3
  8
0
  6
CONTINUOUS
 62
   210
 10
242.442478015024
 20
103.871963562455
 30
0.0
 11
242.391221836012
 21
103.995704707108
 31
0.0
  0
LINE
  5
   4F4
  8
0
  6
CONTINUOUS
 62
   210
 10
242.391222193223
 20
103.995709953437
 30
0.0
 11
242.391222193223
 21
105.920709920655
 31
0.0
  0
LINE
  5
   4F5
  8
0
  6
CONTINUOUS
 62
   210
 10
242.391222193223
 20
124.99570959581
 30
0.0
 11
242.391222193223
 21
126.920709563027
 31
0.0
  0
LINE
  5
   4F6
  8
0
  6
CONTINUOUS
 62
   210
 10
242.391219246723
 20
126.92070125316
 30
0.0
 11
242.442475425736
 21
127.044442397813
 31
0.0
  0
LINE
  5
   4F7
  8
0
  6
CONTINUOUS
 62
   210
 10
242.442480273619
 20
127.044453342364
 30
0.0
 11
242.566224094083
 21
127.095712191854
 31
0.0
  0
LINE
  5
   4F8
  8
0
  6
CONTINUOUS
 62
   210
 10
243.581222707015
 20
127.095709560047
 30
0.0
 11
242.566222190243
 21
127.095709560047
 31
0.0
  0
LINE
  5
   4F9
  8
0
  6
CONTINUOUS
 62
   210
 10
242.391222193223
 20
105.920709920655
 30
0.0
 11
242.391222193223
 21
124.99570959581
 31
0.0
  0
LINE
  5
   4FA
  8
0
  6
CONTINUOUS
 62
     7
 10
251.456222572904
 20
94.9132101081114
 30
0.0
 11
251.456222572904
 21
124.488209604452
 31
0.0
  0
LINE
  5
   4FB
  8
0
  6
CONTINUOUS
 62
     2
 10
253.206222543102
 20
95.263210102151
 30
0.0
 11
253.206222543102
 21
119.763209684918
 31
0.0
  0
LINE
  5
   4FC
  8
0
  6
CONTINUOUS
 62
     2
 10
253.206222543102
 20
120.113209678958
 30
0.0
 11
253.206222543102
 21
124.488209604452
 31
0.0
  0
LINE
  5
   4FD
  8
0
  6
CONTINUOUS
 62
     7
 10
252.856222549062
 20
124.488209604452
 30
0.0
 11
251.456222572904
 21
124.488209604452
 31
0.0
  0
LINE
  5
   4FE
  8
0
  6
CONTINUOUS
 62
     2
 10
252.856222549062
 20
94.9132101081114
 30
0.0
 11
252.156211879849
 21
94.9132101081114
 31
0.0
  0
LINE
  5
   4FF
  8
0
  6
CONTINUOUS
 62
     2
 10
253.206222543102
 20
120.113209678958
 30
0.0
 11
252.856222549062
 21
120.113209678958
 31
0.0
  0
LINE
  5
   500
  8
0
  6
CONTINUOUS
 62
     2
 10
253.206222543102
 20
119.763209684918
 30
0.0
 11
252.856222549062
 21
119.763209684918
 31
0.0
  0
LINE
  5
   501
  8
0
  6
CONTINUOUS
 62
     2
 10
252.856222549062
 20
119.763209684918
 30
0.0
 11
252.856222549062
 21
120.113209678958
 31
0.0
  0
LINE
  5
   502
  8
0
  6
CONTINUOUS
 62
     2
 10
252.856222549062
 20
94.9132101081114
 30
0.0
 11
252.856222549062
 21
95.263210102151
 31
0.0
  0
LINE
  5
   503
  8
0
  6
CONTINUOUS
 62
     7
 10
252.856222549062
 20
95.263210102151
 30
0.0
 11
251.631222569924
 21
95.263210102151
 31
0.0
  0
LINE
  5
   504
  8
0
  6
CONTINUOUS
 62
     7
 10
251.631222569924
 20
95.263210102151
 30
0.0
 11
251.631222569924
 21
124.488209604452
 31
0.0
  0
LINE
  5
   505
  8
0
  6
CONTINUOUS
 62
   130
 10
218.381223136168
 20
129.192209524344
 30
0.0
 11
217.681223148107
 21
129.192209524344
 31
0.0
  0
LINE
  5
   506
  8
0
  6
CONTINUOUS
 62
   130
 10
218.381223136168
 20
126.085436200787
 30
0.0
 11
217.681223148089
 21
126.085436200787
 31
0.0
  0
LINE
  5
   507
  8
0
  6
CONTINUOUS
 62
   210
 10
251.456219125888
 20
107.274523349201
 30
0.0
 11
251.351220728771
 21
107.320708651978
 31
0.0
  0
LINE
  5
   508
  8
0
  6
CONTINUOUS
 62
     7
 10
251.351222947061
 20
123.595711279741
 30
0.0
 11
251.45622401598
 21
123.641896580717
 31
0.0
  0
LINE
  5
   509
  8
0
  6
CONTINUOUS
 62
     2
 10
253.206222543102
 20
95.263210102151
 30
0.0
 11
252.856222549062
 21
95.263210102151
 31
0.0
  0
LINE
  5
   50A
  8
0
  6
CONTINUOUS
 62
     2
 10
253.206222543102
 20
124.488209604452
 30
0.0
 11
252.856222549062
 21
124.488209604452
 31
0.0
  0
LINE
  5
   50B
  8
0
  6
CONTINUOUS
 62
   130
 10
251.456222572904
 20
102.438210053819
 30
0.0
 11
218.381223136168
 21
102.438210053819
 31
0.0
  0
INSERT
  5
   50C
  8
0
  6
CONTINUOUS
 62
     7
  2
*HATCH164
 10
253.731201171875
 20
20.98024559021
 30
0.0
 41
0.349999994039536
 42
0.349999994039536
 50
89.9999999480344
 43
0.349999994039536
  0
LINE
  5
   50D
  8
0
  6
CONTINUOUS
 62
     7
 10
218.906223127228
 20
133.063214212383
 30
0.0
 11
218.381223136168
 21
133.063214212383
 31
0.0
  0
LINE
  5
   50E
  8
0
  6
CONTINUOUS
 62
     7
 10
252.156211879849
 20
94.9132101081114
 30
0.0
 11
251.456222572904
 21
94.9132101081114
 31
0.0
  0
LINE
  5
   50F
  8
0
  6
CONTINUOUS
 62
   218
 10
217.68122314795
 20
26.3132286540205
 30
0.0
 11
218.381222802309
 21
26.3132339945966
 31
0.0
  0
LINE
  5
   510
  8
0
  6
CONTINUOUS
 62
   218
 10
218.3812228024
 20
14.4132341969062
 30
0.0
 11
218.3812228024
 21
26.3132286536743
 31
0.0
  0
LINE
  5
   511
  8
0
  6
CONTINUOUS
 62
   218
 10
218.381223136186
 20
22.5507287177491
 30
0.0
 11
217.681223148107
 21
22.5507287177491
 31
0.0
  0
LINE
  5
   512
  8
0
  6
CONTINUOUS
 62
   218
 10
218.381223136186
 20
19.4995718197131
 30
0.0
 11
217.681223148107
 21
19.4995718197131
 31
0.0
  0
LINE
  5
   513
  8
0
  6
CONTINUOUS
 62
   218
 10
218.381223136186
 20
20.3581178236926
 30
0.0
 11
217.681223148107
 21
20.3581178236926
 31
0.0
  0
LINE
  5
   514
  8
0
  6
CONTINUOUS
 62
   218
 10
218.381223136186
 20
22.5060067336475
 30
0.0
 11
217.681223148107
 21
22.5060067336475
 31
0.0
  0
LINE
  5
   515
  8
0
  6
DASHDOT
 62
     7
 10
231.927594078039
 20
20.7131935394166
 30
0.0
 11
222.08094483352
 21
20.7131935394166
 31
0.0
  0
LINE
  5
   516
  8
0
  6
CONTINUOUS
 62
     7
 10
226.431214831109
 20
17.2132115051923
 30
0.0
 11
224.681214860911
 21
17.2132115051923
 31
0.0
  0
LINE
  5
   517
  8
0
  6
CONTINUOUS
 62
     7
 10
224.681214860911
 20
17.2132115051923
 30
0.0
 11
224.681214860911
 21
27.8851389880198
 31
0.0
  0
LINE
  5
   518
  8
0
  6
CONTINUOUS
 62
     7
 10
226.431214163537
 20
22.1131935155748
 30
0.0
 11
224.681214860911
 21
22.1131935155748
 31
0.0
  0
LINE
  5
   519
  8
0
  6
CONTINUOUS
 62
     7
 10
226.431214163537
 20
19.3131935632585
 30
0.0
 11
224.681214860911
 21
19.3131935632585
 31
0.0
  0
LINE
  5
   51A
  8
0
  6
CONTINUOUS
 62
     7
 10
226.431214163537
 20
22.1132293279167
 30
0.0
 11
226.431214163537
 21
27.8851389880198
 31
0.0
  0
LINE
  5
   51B
  8
0
  6
CONTINUOUS
 62
     7
 10
231.983353887458
 20
27.8851389880198
 30
0.0
 11
214.493224110272
 21
27.8851389880198
 31
0.0
  0
LINE
  5
   51C
  8
0
  6
CONTINUOUS
 62
     7
 10
235.35481806807
 20
12.9767663992884
 30
0.0
 11
231.116969749888
 21
28.40475014587
 31
0.0
  0
INSERT
  5
   51D
  8
0
  6
CONTINUOUS
 62
     7
  2
*HATCH165
 10
253.731201171875
 20
20.98024559021
 30
0.0
 41
0.349999994039536
 42
0.349999994039536
 50
89.9999999480344
 43
0.349999994039536
  0
INSERT
  5
   51E
  8
0
  6
CONTINUOUS
 62
     7
  2
*HATCH166
 10
253.731201171875
 20
20.98024559021
 30
0.0
 41
0.349999994039536
 42
0.349999994039536
 50
89.9999999480344
 43
0.349999994039536
  0
LINE
  5
   51F
  8
0
  6
CONTINUOUS
 62
     7
 10
224.681214860911
 20
25.9631934500097
 30
0.0
 11
218.3812228024
 21
25.9631934500097
 31
0.0
  0
LINE
  5
   520
  8
0
  6
CONTINUOUS
 62
     7
 10
224.681214860911
 20
27.3631934261678
 30
0.0
 11
217.681223148107
 21
27.3631934261678
 31
0.0
  0
LINE
  5
   521
  8
0
  6
CONTINUOUS
 62
     7
 10
232.172190882418
 20
24.5631934738515
 30
0.0
 11
226.431214163537
 21
24.5631934738515
 31
0.0
  0
INSERT
  5
   522
  8
0
  6
CONTINUOUS
 62
     7
  2
*HATCH167
 10
253.731201171875
 20
20.98024559021
 30
0.0
 41
0.349999994039536
 42
0.349999994039536
 50
89.9999999480344
 43
0.349999994039536
  0
LINE
  5
   523
  8
0
  6
CONTINUOUS
 62
     7
 10
231.78763074534
 20
25.9631934500097
 30
0.0
 11
226.431214163537
 21
25.9631934500097
 31
0.0
  0
INSERT
  5
   524
  8
0
  6
CONTINUOUS
 62
     7
  2
*HATCH168
 10
253.731201171875
 20
20.98024559021
 30
0.0
 41
0.349999994039536
 42
0.349999994039536
 50
89.9999999480344
 43
0.349999994039536
  0
LINE
  5
   525
  8
0
  6
CONTINUOUS
 62
     7
 10
218.906214959259
 20
14.4132341969062
 30
0.0
 11
218.3812228024
 21
14.4132341969062
 31
0.0
  0
LINE
  5
   526
  8
0
  6
CONTINUOUS
 62
     7
 10
228.531214127774
 20
17.5632294054028
 30
0.0
 11
228.531214127774
 21
23.8632292981144
 31
0.0
  0
LINE
  5
   527
  8
0
  6
CONTINUOUS
 62
     7
 10
228.531214127774
 20
17.5632294054028
 30
0.0
 11
228.181214133734
 21
17.5632294054028
 31
0.0
  0
LINE
  5
   528
  8
0
  6
CONTINUOUS
 62
     7
 10
228.531214127774
 20
23.8632292981144
 30
0.0
 11
228.181214133734
 21
23.8632292981144
 31
0.0
  0
LINE
  5
   529
  8
0
  6
CONTINUOUS
 62
     7
 10
228.181214133734
 20
19.3132293756004
 30
0.0
 11
226.081214169497
 21
19.3132293756004
 31
0.0
  0
LINE
  5
   52A
  8
0
  6
CONTINUOUS
 62
     7
 10
228.181214133734
 20
19.5932293708321
 30
0.0
 11
224.681214860911
 21
19.5932293708321
 31
0.0
  0
LINE
  5
   52B
  8
0
  6
CONTINUOUS
 62
     7
 10
228.181214133734
 20
21.8332293326851
 30
0.0
 11
224.681214860911
 21
21.8332293326851
 31
0.0
  0
LINE
  5
   52C
  8
0
  6
CONTINUOUS
 62
     7
 10
228.181214133734
 20
22.1132293279167
 30
0.0
 11
226.081214169497
 21
22.1132293279167
 31
0.0
  0
LINE
  5
   52D
  8
0
  6
CONTINUOUS
 62
     7
 10
228.181214133734
 20
17.5632294054028
 30
0.0
 11
228.181214133734
 21
23.8632292981144
 31
0.0
  0
LINE
  5
   52E
  8
0
  6
CONTINUOUS
 62
     7
 10
226.431214831109
 20
17.2132115051923
 30
0.0
 11
226.431214831109
 21
19.3132293756004
 31
0.0
  0
LINE
  5
   52F
  8
0
  6
CONTINUOUS
 62
     1
 10
228.67121412539
 20
18.1967293946143
 30
0.0
 11
228.67121412539
 21
23.2297293089028
 31
0.0
  0
ARC
  5
   530
  8
0
  6
CONTINUOUS
 62
     1
 10
229.49499664405
 20
18.8258543839004
 30
0.0
 40
0.961217450941453
 50
319.117607838934
 51
400.882392057134
  0
ARC
  5
   531
  8
0
  6
CONTINUOUS
 62
     1
 10
229.49499664405
 20
22.6006043196168
 30
0.0
 40
0.961217450941453
 50
319.117607838934
 51
400.882392057134
  0
LINE
  5
   532
  8
0
  6
CONTINUOUS
 62
     1
 10
230.24033252838
 20
19.4549793731864
 30
0.0
 11
228.67121412539
 21
19.4549793731864
 31
0.0
  0
ARC
  5
   533
  8
0
  6
CONTINUOUS
 62
     1
 10
226.681464159275
 20
20.7132293517586
 30
0.0
 40
3.77474993571639
 50
340.528779313544
 51
379.471220582525
  0
LINE
  5
   534
  8
0
  6
CONTINUOUS
 62
     1
 10
230.24033252838
 20
21.9714793303307
 30
0.0
 11
228.67121412539
 21
21.9714793303307
 31
0.0
  0
LINE
  5
   535
  8
0
  6
CONTINUOUS
 62
     1
 10
230.221729563251
 20
18.1967293946143
 30
0.0
 11
228.67121412539
 21
18.1967293946143
 31
0.0
  0
LINE
  5
   536
  8
0
  6
CONTINUOUS
 62
     1
 10
230.221729563251
 20
23.2297293089028
 30
0.0
 11
228.67121412539
 21
23.2297293089028
 31
0.0
  0
LINE
  5
   537
  8
0
  6
CONTINUOUS
 62
     1
 10
228.67121412539
 20
18.5782293881174
 30
0.0
 11
228.531214127774
 21
18.5782293881174
 31
0.0
  0
LINE
  5
   538
  8
0
  6
CONTINUOUS
 62
     1
 10
228.67121412539
 20
22.8482293153997
 30
0.0
 11
228.531214127774
 21
22.8482293153997
 31
0.0
  0
LINE
  5
   539
  8
0
  6
CONTINUOUS
 62
     7
 10
227.656214142675
 20
21.8448537074871
 30
0.0
 11
225.031214187379
 21
21.8448537074871
 31
0.0
  0
LINE
  5
   53A
  8
0
  6
CONTINUOUS
 62
     1
 10
228.181214133734
 20
22.1132293279167
 30
0.0
 11
225.031214187379
 21
22.1132293279167
 31
0.0
  0
LINE
  5
   53B
  8
0
  6
CONTINUOUS
 62
     1
 10
228.181214133734
 20
19.3132293756004
 30
0.0
 11
225.031214187379
 21
19.3132293756004
 31
0.0
  0
LINE
  5
   53C
  8
0
  6
CONTINUOUS
 62
     1
 10
227.656214142675
 20
19.3132293756004
 30
0.0
 11
227.656214142675
 21
22.1132293279167
 31
0.0
  0
LINE
  5
   53D
  8
0
  6
CONTINUOUS
 62
     1
 10
230.456214094991
 20
18.8258543839004
 30
0.0
 11
230.456214094991
 21
22.6006043196168
 31
0.0
  0
LINE
  5
   53E
  8
0
  6
DASHDOT
 62
     7
 10
231.85621407115
 20
20.7132293517586
 30
0.0
 11
223.63121421122
 21
20.7132293517586
 31
0.0
  0
LINE
  5
   53F
  8
0
  6
CONTINUOUS
 62
     3
 10
224.681214862391
 20
13.538177632177
 30
0.0
 11
224.331214868365
 21
13.5381829727531
 31
0.0
  0
LINE
  5
   540
  8
0
  6
CONTINUOUS
 62
     3
 10
224.681215247266
 20
13.5381792781419
 30
0.0
 11
225.031215229325
 21
13.8881792602014
 31
0.0
  0
LINE
  5
   541
  8
0
  6
CONTINUOUS
 62
     3
 10
225.031214854951
 20
13.8881776339174
 30
0.0
 11
225.031214854951
 21
14.4131776249767
 31
0.0
  0
LINE
  5
   542
  8
0
  6
CONTINUOUS
 62
     3
 10
225.03121485529
 20
14.413177623077
 30
0.0
 11
224.331214867263
 21
14.4131829636531
 31
0.0
  0
LINE
  5
   543
  8
0
  6
CONTINUOUS
 62
     3
 10
225.031214854951
 20
14.413193646705
 30
0.0
 11
224.331214866872
 21
14.413193646705
 31
0.0
  0
LINE
  5
   544
  8
0
  6
CONTINUOUS
 62
     3
 10
224.506214863891
 20
17.7381935900806
 30
0.0
 11
224.506214863891
 21
23.6881934887527
 31
0.0
  0
LINE
  5
   545
  8
0
  6
CONTINUOUS
 62
     3
 10
224.331214866872
 20
16.688193607962
 30
0.0
 11
223.193713884885
 21
16.688193607962
 31
0.0
  0
LINE
  5
   546
  8
0
  6
CONTINUOUS
 62
     3
 10
224.331214866872
 20
14.413193646705
 30
0.0
 11
224.331214866872
 21
16.688193607962
 31
0.0
  0
LINE
  5
   547
  8
0
  6
CONTINUOUS
 62
     3
 10
219.431214950318
 20
24.213193479812
 30
0.0
 11
218.906214959259
 21
24.213193479812
 31
0.0
  0
LINE
  5
   548
  8
0
  6
CONTINUOUS
 62
     3
 10
219.431214950318
 20
24.2131988203881
 30
0.0
 11
218.906214959259
 21
24.2131988203881
 31
0.0
  0
LINE
  5
   549
  8
0
  6
CONTINUOUS
 62
     3
 10
224.331214866872
 20
13.5381883210301
 30
0.0
 11
218.906214959259
 21
13.5381883210301
 31
0.0
  0
LINE
  5
   54A
  8
0
  6
CONTINUOUS
 62
     3
 10
218.906214959259
 20
13.5381883210301
 30
0.0
 11
218.906214959259
 21
24.213193479812
 31
0.0
  0
LINE
  5
   54B
  8
0
  6
CONTINUOUS
 62
     3
 10
224.331214866872
 20
13.5381883210301
 30
0.0
 11
224.331214866872
 21
14.4131883061289
 31
0.0
  0
LINE
  5
   54C
  8
0
  6
CONTINUOUS
 62
     3
 10
224.331214866872
 20
15.5331872189402
 30
0.0
 11
223.981214872832
 21
15.5331872189402
 31
0.0
  0
LINE
  5
   54D
  8
0
  6
CONTINUOUS
 62
     3
 10
223.841215400187
 20
15.3931909529817
 30
0.0
 11
223.981215269091
 21
15.5331888157119
 31
0.0
  0
LINE
  5
   54E
  8
0
  6
CONTINUOUS
 62
     3
 10
224.331214913037
 20
14.4131881434113
 30
0.0
 11
219.431215104498
 21
24.2131936381411
 31
0.0
  0
LINE
  5
   54F
  8
0
  6
CONTINUOUS
 62
   210
 10
224.681214860911
 20
18.4381935781596
 30
0.0
 11
224.681214860911
 21
22.9881935006736
 31
0.0
  0
LINE
  5
   550
  8
0
  6
CONTINUOUS
 62
     3
 10
224.506214863891
 20
23.6881934887527
 30
0.0
 11
219.693712943132
 21
23.6881934887527
 31
0.0
  0
LINE
  5
   551
  8
0
  6
CONTINUOUS
 62
     3
 10
224.506214863891
 20
17.7381935900806
 30
0.0
 11
222.668713226254
 21
17.7381935900806
 31
0.0
  0
LINE
  5
   552
  8
0
  6
CONTINUOUS
 62
     3
 10
224.331214866872
 20
13.8881883150696
 30
0.0
 11
218.906214959259
 21
13.8881883150696
 31
0.0
  0
LINE
  5
   553
  8
0
  6
CONTINUOUS
 62
     3
 10
219.606214947338
 20
23.8631881451964
 30
0.0
 11
218.906214959259
 21
23.8631881451964
 31
0.0
  0
LINE
  5
   554
  8
0
  6
CONTINUOUS
 62
   210
 10
224.681214860911
 20
18.4381935781596
 30
0.0
 11
224.506214863891
 21
18.4381935781596
 31
0.0
  0
LINE
  5
   555
  8
0
  6
CONTINUOUS
 62
   210
 10
224.681214860911
 20
22.9881935006736
 30
0.0
 11
224.506214863891
 21
22.9881935006736
 31
0.0
  0
LINE
  5
   556
  8
0
  6
CONTINUOUS
 62
     7
 10
230.800452282447
 20
124.838210006135
 30
0.0
 11
226.431222999078
 21
124.838210006135
 31
0.0
  0
LINE
  5
   557
  8
0
  6
CONTINUOUS
 62
     7
 10
226.431222999078
 20
131.488209892887
 30
0.0
 11
224.68122302888
 21
131.488209892887
 31
0.0
  0
LINE
  5
   558
  8
0
  6
CONTINUOUS
 62
     7
 10
224.68122302888
 20
124.228650450597
 30
0.0
 11
224.68122302888
 21
126.868209971565
 31
0.0
  0
LINE
  5
   559
  8
0
  6
DASHDOT
 62
     7
 10
228.647639577252
 20
128.338209946531
 30
0.0
 11
222.816763181543
 21
128.338209946531
 31
0.0
  0
LINE
  5
   55A
  8
0
  6
CONTINUOUS
 62
     7
 10
226.431222999078
 20
129.808209921497
 30
0.0
 11
224.68122302888
 21
129.808209921497
 31
0.0
  0
LINE
  5
   55B
  8
0
  6
CONTINUOUS
 62
     7
 10
226.431222999078
 20
126.868209971565
 30
0.0
 11
224.68122302888
 21
126.868209971565
 31
0.0
  0
LINE
  5
   55C
  8
0
  6
CONTINUOUS
 62
     3
 10
240.880576859075
 20
125.37210493633
 30
0.0
 11
241.353496894831
 21
134.131406468169
 31
0.0
  0
LINE
  5
   55D
  8
0
  6
CONTINUOUS
 62
     3
 10
230.800452282447
 20
124.228650450597
 30
0.0
 11
218.146401210785
 21
124.228650450597
 31
0.0
  0
LINE
  5
   55E
  8
0
  6
CONTINUOUS
 62
     3
 10
230.800452282447
 20
124.228650450597
 30
0.0
 11
230.800452282447
 21
125.37210493633
 31
0.0
  0
LINE
  5
   55F
  8
0
  6
CONTINUOUS
 62
     7
 10
224.68122302888
 20
130.613209740895
 30
0.0
 11
224.68122302888
 21
131.488209892887
 31
0.0
  0
LINE
  5
   560
  8
0
  6
CONTINUOUS
 62
     2
 10
225.381223016959
 20
133.063209392084
 30
0.0
 11
225.381223016959
 21
133.588209383143
 31
0.0
  0
LINE
  5
   561
  8
0
  6
CONTINUOUS
 62
     2
 10
225.381223016959
 20
133.063209392051
 30
0.0
 11
224.33122303484
 21
133.063209392051
 31
0.0
  0
LINE
  5
   562
  8
0
  6
CONTINUOUS
 62
     2
 10
225.031223022919
 20
133.938209350484
 30
0.0
 11
224.33122303484
 21
133.938209350484
 31
0.0
  0
LINE
  5
   563
  8
0
  6
CONTINUOUS
 62
     2
 10
219.431223118287
 20
124.838209338563
 30
0.0
 11
218.906223127228
 21
124.838209338563
 31
0.0
  0
LINE
  5
   564
  8
0
  6
CONTINUOUS
 62
     2
 10
224.33122303484
 20
133.938209350484
 30
0.0
 11
218.906223127228
 21
133.938209350484
 31
0.0
  0
LINE
  5
   565
  8
0
  6
CONTINUOUS
 62
     2
 10
218.906223127228
 20
124.838209505456
 30
0.0
 11
218.906223127228
 21
133.938209350484
 31
0.0
  0
LINE
  5
   566
  8
0
  6
CONTINUOUS
 62
     2
 10
224.33122303484
 20
133.063209392073
 30
0.0
 11
224.33122303484
 21
133.938209377171
 31
0.0
  0
LINE
  5
   567
  8
0
  6
CONTINUOUS
 62
     2
 10
224.33122303484
 20
131.943209451216
 30
0.0
 11
224.126197651522
 21
131.943209451216
 31
0.0
  0
LINE
  5
   568
  8
0
  6
CONTINUOUS
 62
     2
 10
224.33122303484
 20
131.313209728974
 30
0.0
 11
224.33122303484
 21
133.063209365385
 31
0.0
  0
LINE
  5
   569
  8
0
  6
CONTINUOUS
 62
     2
 10
223.98619778742
 20
132.083209398764
 30
0.0
 11
223.74739326039
 21
132.083209398764
 31
0.0
  0
LINE
  5
   56A
  8
0
  6
CONTINUOUS
 62
     2
 10
224.1261978944
 20
131.943209332875
 30
0.0
 11
223.986198031388
 21
132.083209278494
 31
0.0
  0
LINE
  5
   56B
  8
0
  6
CONTINUOUS
 62
     2
 10
219.431223132655
 20
124.838209444826
 30
0.0
 11
224.331223005497
 21
133.0632091091
 31
0.0
  0
LINE
  5
   56C
  8
0
  6
CONTINUOUS
 62
     2
 10
224.50622303186
 20
125.363209997195
 30
0.0
 11
224.50622303186
 21
131.313209895867
 31
0.0
  0
LINE
  5
   56D
  8
0
  6
CONTINUOUS
 62
     2
 10
225.381223256869
 20
133.588209343169
 30
0.0
 11
225.03122327481
 21
133.938209295726
 31
0.0
  0
LINE
  5
   56E
  8
0
  6
CONTINUOUS
 62
   210
 10
224.68122302888
 20
126.063209985274
 30
0.0
 11
224.68122302888
 21
130.613209907788
 31
0.0
  0
LINE
  5
   56F
  8
0
  6
CONTINUOUS
 62
     2
 10
224.33122303484
 20
133.588209398168
 30
0.0
 11
218.906223127228
 21
133.588209398168
 31
0.0
  0
LINE
  5
   570
  8
0
  6
CONTINUOUS
 62
     2
 10
219.639733728177
 20
125.188209332603
 30
0.0
 11
218.906223127228
 21
125.188209332603
 31
0.0
  0
LINE
  5
   571
  8
0
  6
CONTINUOUS
 62
     2
 10
224.506223198753
 20
125.363209997195
 30
0.0
 11
219.743989450355
 21
125.363209997195
 31
0.0
  0
LINE
  5
   572
  8
0
  6
CONTINUOUS
 62
     2
 10
224.50622303186
 20
131.313209728974
 30
0.0
 11
223.288669818495
 21
131.313209728974
 31
0.0
  0
LINE
  5
   573
  8
0
  6
CONTINUOUS
 62
   210
 10
224.68122302888
 20
130.613209740895
 30
0.0
 11
224.50622303186
 21
130.613209740895
 31
0.0
  0
LINE
  5
   574
  8
0
  6
CONTINUOUS
 62
   210
 10
224.68122302888
 20
126.063209985274
 30
0.0
 11
224.50622303186
 21
126.063209985274
 31
0.0
  0
LINE
  5
   575
  8
0
  6
CONTINUOUS
 62
     7
 10
228.531222963315
 20
125.188210000175
 30
0.0
 11
228.531222963315
 21
131.488209892887
 31
0.0
  0
LINE
  5
   576
  8
0
  6
CONTINUOUS
 62
     7
 10
228.531222963315
 20
131.488209892887
 30
0.0
 11
228.181222969275
 21
131.488209892887
 31
0.0
  0
LINE
  5
   577
  8
0
  6
CONTINUOUS
 62
     7
 10
228.881222957354
 20
125.188210000175
 30
0.0
 11
228.531222963315
 21
125.188210000175
 31
0.0
  0
LINE
  5
   578
  8
0
  6
CONTINUOUS
 62
     1
 10
228.671222960931
 20
125.821709989387
 30
0.0
 11
228.671222960931
 21
130.854709903675
 31
0.0
  0
ARC
  5
   579
  8
0
  6
CONTINUOUS
 62
     1
 10
229.495005479591
 20
126.450834978673
 30
0.0
 40
0.961217450941453
 50
319.117607838934
 51
400.882392057134
  0
ARC
  5
   57A
  8
0
  6
CONTINUOUS
 62
     1
 10
229.495005479591
 20
130.225584914389
 30
0.0
 40
0.961217450941453
 50
319.117607838934
 51
400.882392057134
  0
LINE
  5
   57B
  8
0
  6
CONTINUOUS
 62
     1
 10
230.240341363921
 20
127.079959967959
 30
0.0
 11
228.671222960931
 21
127.079959967959
 31
0.0
  0
ARC
  5
   57C
  8
0
  6
CONTINUOUS
 62
     1
 10
226.681472994816
 20
128.338209946531
 30
0.0
 40
3.77474993571639
 50
340.528779313544
 51
379.471220582525
  0
LINE
  5
   57D
  8
0
  6
CONTINUOUS
 62
     1
 10
230.240341363921
 20
129.596459925103
 30
0.0
 11
228.671222960931
 21
129.596459925103
 31
0.0
  0
LINE
  5
   57E
  8
0
  6
CONTINUOUS
 62
     1
 10
230.221738398792
 20
125.821709989387
 30
0.0
 11
228.671222960931
 21
125.821709989387
 31
0.0
  0
LINE
  5
   57F
  8
0
  6
CONTINUOUS
 62
     1
 10
230.221738398792
 20
130.854709903675
 30
0.0
 11
228.671222960931
 21
130.854709903675
 31
0.0
  0
LINE
  5
   580
  8
0
  6
CONTINUOUS
 62
     1
 10
228.671222960931
 20
126.20320998289
 30
0.0
 11
228.531222963315
 21
126.20320998289
 31
0.0
  0
LINE
  5
   581
  8
0
  6
CONTINUOUS
 62
     1
 10
228.671222960931
 20
130.473209910172
 30
0.0
 11
228.531222963315
 21
130.473209910172
 31
0.0
  0
LINE
  5
   582
  8
0
  6
CONTINUOUS
 62
     7
 10
227.306222984176
 20
127.206585590802
 30
0.0
 11
224.33122303484
 21
127.206585590802
 31
0.0
  0
LINE
  5
   583
  8
0
  6
CONTINUOUS
 62
     7
 10
227.306222984176
 20
129.469834302259
 30
0.0
 11
224.33122303484
 21
129.469834302259
 31
0.0
  0
LINE
  5
   584
  8
0
  6
CONTINUOUS
 62
     1
 10
228.181222969275
 20
129.738209922689
 30
0.0
 11
224.33122303484
 21
129.738209922689
 31
0.0
  0
LINE
  5
   585
  8
0
  6
CONTINUOUS
 62
     1
 10
228.181222969275
 20
126.938209970373
 30
0.0
 11
224.33122303484
 21
126.938209970373
 31
0.0
  0
LINE
  5
   586
  8
0
  6
CONTINUOUS
 62
     1
 10
227.306222984176
 20
126.938209970373
 30
0.0
 11
227.306222984176
 21
129.738209922689
 31
0.0
  0
LINE
  5
   587
  8
0
  6
CONTINUOUS
 62
     1
 10
228.531222963315
 20
126.20320998289
 30
0.0
 11
228.531222963315
 21
130.473209910172
 31
0.0
  0
LINE
  5
   588
  8
0
  6
CONTINUOUS
 62
     1
 10
230.456222930532
 20
126.450834978673
 30
0.0
 11
230.456222930532
 21
130.225584914389
 31
0.0
  0
LINE
  5
   589
  8
0
  6
DASHDOT
 62
     7
 10
231.85622290669
 20
128.338209946531
 30
0.0
 11
223.631223046761
 21
128.338209946531
 31
0.0
  0
LINE
  5
   58A
  8
0
  6
CONTINUOUS
 62
     3
 10
240.880576859075
 20
125.37210493633
 30
0.0
 11
230.800452282447
 21
125.37210493633
 31
0.0
  0
LINE
  5
   58B
  8
0
  6
CONTINUOUS
 62
   130
 10
243.581222707015
 20
131.978213088888
 30
0.0
 11
241.237244670128
 21
131.978213088888
 31
0.0
  0
LINE
  5
   58C
  8
0
  6
CONTINUOUS
 62
   130
 10
242.391222193223
 20
124.733214280384
 30
0.0
 11
242.356222727876
 21
124.733214280384
 31
0.0
  0
LINE
  5
   58D
  8
0
  6
CONTINUOUS
 62
   210
 10
243.581222707015
 20
127.095714240151
 30
0.0
 11
243.581222707015
 21
127.183214238661
 31
0.0
  0
LINE
  5
   58E
  8
0
  6
CONTINUOUS
 62
   210
 10
242.391219246724
 20
126.920705933265
 30
0.0
 11
242.442475425736
 21
127.044447077918
 31
0.0
  0
LINE
  5
   58F
  8
0
  6
CONTINUOUS
 62
   210
 10
242.442480273619
 20
127.044458022468
 30
0.0
 11
242.566224094083
 21
127.095716871958
 31
0.0
  0
LINE
  5
   590
  8
0
  6
CONTINUOUS
 62
     7
 10
253.206222543102
 20
124.838214278596
 30
0.0
 11
253.206222543102
 21
133.500714204933
 31
0.0
  0
ARC
  5
   591
  8
0
  6
CONTINUOUS
 62
     7
 10
252.768722550553
 20
133.500714204933
 30
0.0
 40
0.437499992549419
 50
359.999999948034
 51
449.999999948034
  0
LINE
  5
   592
  8
0
  6
CONTINUOUS
 62
     7
 10
251.456222572904
 20
124.488214284557
 30
0.0
 11
251.456222572904
 21
132.188214227284
 31
0.0
  0
LINE
  5
   593
  8
0
  6
CONTINUOUS
 62
     7
 10
251.456222572904
 20
132.188214227284
 30
0.0
 11
241.24858275976
 21
132.188214227284
 31
0.0
  0
LINE
  5
   594
  8
0
  6
CONTINUOUS
 62
     7
 10
251.631222569924
 20
132.363214224304
 30
0.0
 11
241.258031116407
 21
132.363214224304
 31
0.0
  0
LINE
  5
   595
  8
0
  6
CONTINUOUS
 62
     7
 10
251.631222569924
 20
124.838214278596
 30
0.0
 11
251.631222569924
 21
132.363214224304
 31
0.0
  0
LINE
  5
   596
  8
0
  6
CONTINUOUS
 62
     7
 10
252.856222549062
 20
124.838214278596
 30
0.0
 11
251.631222569924
 21
124.838214278596
 31
0.0
  0
LINE
  5
   597
  8
0
  6
CONTINUOUS
 62
     7
 10
252.856222549062
 20
124.49039929976
 30
0.0
 11
252.856222549062
 21
124.838214278596
 31
0.0
  0
LINE
  5
   598
  8
0
  6
CONTINUOUS
 62
     7
 10
252.768722550553
 20
133.938214197482
 30
0.0
 11
228.501917554288
 21
133.938214197482
 31
0.0
  0
LINE
  5
   599
  8
0
  6
CONTINUOUS
 62
     7
 10
241.295824542993
 20
133.063214212383
 30
0.0
 11
228.181222969275
 21
133.063214212383
 31
0.0
  0
LINE
  5
   59A
  8
0
  6
CONTINUOUS
 62
     7
 10
226.431222999078
 20
133.063214212383
 30
0.0
 11
225.381223016959
 21
133.063214212383
 31
0.0
  0
LINE
  5
   59B
  8
0
  6
CONTINUOUS
 62
     7
 10
228.706222960335
 20
133.063214212383
 30
0.0
 11
228.706222960335
 21
133.938214197482
 31
0.0
  0
INSERT
  5
   59C
  8
0
  6
CONTINUOUS
 62
     7
  2
*HATCH169
 10
253.731201171875
 20
20.98024559021
 30
0.0
 41
0.349999994039536
 42
0.349999994039536
 50
89.9999999480344
 43
0.349999994039536
  0
LINE
  5
   59D
  8
0
  6
CONTINUOUS
 62
     7
 10
253.206222543102
 20
124.838214278596
 30
0.0
 11
252.856222549062
 21
124.838214278596
 31
0.0
  0
INSERT
  5
   59E
  8
0
  6
CONTINUOUS
 62
     7
  2
*HATCH170
 10
253.731201171875
 20
20.98024559021
 30
0.0
 41
0.349999994039536
 42
0.349999994039536
 50
89.9999999480344
 43
0.349999994039536
  0
LINE
  5
   59F
  8
0
  6
CONTINUOUS
 62
     7
 10
221.636739204602
 20
11.8255279279863
 30
0.0
 11
211.939086181053
 21
12.1248382064909
 31
0.0
  0
TEXT
  5
   5A0
  8
0
  6
CONTINUOUS
 62
     1
 10
231.973709104641
 20
-204.689865164703
 30
0.0
 40
4.00000006897109
  1
605032/401
 50
359.999999948034
 41
0.937499981746078
 72
     2
 11
268.723709008156
 21
-204.689865197849
 31
0.0
  0
TEXT
  5
   5A1
  8
0
  6
CONTINUOUS
 62
     1
 10
219.424979431414
 20
-177.398010242873
 30
0.0
 40
2.00000003448554
  1
3POLE LOW VOLTAGE M.C.C.B SERIES ISOMAX SUPERLIMITING
 50
359.999999948034
 41
0.593749974779785
 72
     1
 11
250.774978637695
 21
-176.398010253906
 31
0.0
 73
     2
  0
TEXT
  5
   5A2
  8
0
  6
CONTINUOUS
 62
     1
 10
222.98747934152
 20
-180.398010246086
 30
0.0
 40
2.00000003448554
  1
FIXED VERSION SPREADED EXTENDED FRONT TERMINALS
 50
359.999999948034
 41
0.593749974779785
 72
     1
 11
250.774978637695
 21
-179.398010253906
 31
0.0
 73
     2
  0
TEXT
  5
   5A3
  8
0
  6
CONTINUOUS
 62
     1
 10
215.739870034068
 20
-185.468276966382
 30
0.0
 40
2.00000003448554
  1
INTERR.AUTOMATICO SERIE ISOMAX SUPERLIMITATORE
 50
359.999999948034
 41
0.687500013932585
 72
     1
 11
247.22737121582
 21
-184.468276977539
 31
0.0
 73
     2
  0
TEXT
  5
   5A4
  8
0
  6
CONTINUOUS
 62
     1
 10
217.802370111429
 20
-188.468276968242
 30
0.0
 40
2.00000003448554
  1
TRIPOL.ESEC. FISSA TERM.ANT.PROL.DIVARICATI
 50
359.999999948034
 41
0.687500013932585
 72
     1
 11
247.22737121582
 21
-187.468276977539
 31
0.0
 73
     2
  0
TEXT
  5
   5A5
  8
0
  6
CONTINUOUS
 62
     1
 10
138.596893125173
 20
-193.480718947878
 30
0.0
 40
2.00000003448554
  1
M4371 97-07-07
 50
359.999999948034
 41
0.749999888539317
 72
     2
 11
159.296890408883
 21
-193.480718966548
 31
0.0
  0
TEXT
  5
   5A6
  8
0
  6
CONTINUOUS
 62
     1
 10
130.442901610426
 20
-178.463390373463
 30
0.0
 40
2.00000003448554
  1
97-07-07 BARCELLA
 50
359.999999948034
 41
0.749999888539317
 72
     2
 11
155.642898302964
 21
-178.463390396192
 31
0.0
  0
LINE
  5
   5A7
  8
0
  6
CONTINUOUS
 62
     7
 10
228.181222969275
 20
125.188210000175
 30
0.0
 11
228.181222969275
 21
131.488209892887
 31
0.0
  0
POINT
  5
   5A8
  8
0
  6
CONTINUOUS
 62
     7
 10
228.531222963315
 20
128.338209946531
 30
0.0
  0
LINE
  5
   5A9
  8
0
  6
CONTINUOUS
 62
     7
 10
228.706222960335
 20
13.5382162478817
 30
0.0
 11
228.706222960335
 21
14.4132162329806
 31
0.0
  0
LINE
  5
   5AA
  8
0
  6
CONTINUOUS
 62
     7
 10
252.768722550553
 20
13.5382162478817
 30
0.0
 11
228.501917554288
 21
13.5382162478817
 31
0.0
  0
LINE
  5
   5AB
  8
0
  6
CONTINUOUS
 62
     7
 10
234.9602456721
 20
14.4132162329806
 30
0.0
 11
228.181222969275
 21
14.4132162329806
 31
0.0
  0
ARC
  5
   5AC
  8
0
  6
CONTINUOUS
 62
     7
 10
252.768722550553
 20
13.9757162404311
 30
0.0
 40
0.437499992549419
 50
269.999999948034
 51
359.999999948034
  0
LINE
  5
   5AD
  8
0
  6
CONTINUOUS
 62
     7
 10
253.206222543102
 20
13.9757162404311
 30
0.0
 11
253.206222543102
 21
22.6382161667674
 31
0.0
  0
LINE
  5
   5AE
  8
0
  6
CONTINUOUS
 62
     7
 10
253.206222543102
 20
22.6382161667674
 30
0.0
 11
252.856222549062
 21
22.6382161667674
 31
0.0
  0
LINE
  5
   5AF
  8
0
  6
CONTINUOUS
 62
     7
 10
252.856222549062
 20
22.6382161667674
 30
0.0
 11
252.856222549062
 21
22.9860311456041
 31
0.0
  0
LINE
  5
   5B0
  8
0
  6
CONTINUOUS
 62
     7
 10
252.856222549062
 20
22.6382161667674
 30
0.0
 11
251.631222569924
 21
22.6382161667674
 31
0.0
  0
LINE
  5
   5B1
  8
0
  6
CONTINUOUS
 62
     7
 10
251.631222569924
 20
15.1132162210596
 30
0.0
 11
251.631222569924
 21
22.6382161667674
 31
0.0
  0
LINE
  5
   5B2
  8
0
  6
CONTINUOUS
 62
     7
 10
251.631222569924
 20
15.1132162210596
 30
0.0
 11
234.767965603561
 21
15.1132162210596
 31
0.0
  0
INSERT
  5
   5B3
  8
0
  6
CONTINUOUS
 62
     7
  2
*HATCH171
 10
253.731201171875
 20
20.98024559021
 30
0.0
 41
0.349999994039536
 42
0.349999994039536
 50
89.9999999480344
 43
0.349999994039536
  0
INSERT
  5
   5B4
  8
0
  6
CONTINUOUS
 62
     7
  2
*HATCH172
 10
253.731201171875
 20
20.98024559021
 30
0.0
 41
0.349999994039536
 42
0.349999994039536
 50
89.9999999480344
 43
0.349999994039536
  0
LINE
  5
   5B5
  8
0
  6
CONTINUOUS
 62
     7
 10
226.431222999078
 20
124.228650450597
 30
0.0
 11
226.431222999078
 21
126.938209970373
 31
0.0
  0
LINE
  5
   5B6
  8
0
  6
CONTINUOUS
 62
     7
 10
226.431222999078
 20
129.738209922689
 30
0.0
 11
226.431222999078
 21
131.488209892887
 31
0.0
  0
INSERT
  5
   5B7
  8
0
  6
CONTINUOUS
 62
     7
  2
*HATCH173
 10
253.731201171875
 20
20.98024559021
 30
0.0
 41
0.349999994039536
 42
0.349999994039536
 50
89.9999999480344
 43
0.349999994039536
  0
INSERT
  5
   5B8
  8
255
  6
CONTINUOUS
 62
     7
  2
T_A_D_L_
 10
218.381222468596
 20
98.9382104472098
 30
0.0
 41
0.349999994039536
 42
0.349999994039536
 50
3.50835464724173E-15
 43
0.349999994039536
  0
INSERT
  5
   5B9
  8
0
  6
CONTINUOUS
 62
     7
  2
*UDIM751
 10
0.0
 20
0.0
 30
0.0
  0
LINE
  5
   5BA
  8
0
  6
CONTINUOUS
 62
     1
 10
253.206222866457
 20
12.4882162657631
 30
0.0
 11
253.206222866457
 21
13.1882162538422
 31
0.0
  0
LINE
  5
   5BB
  8
0
  6
CONTINUOUS
 62
     1
 10
226.503319924413
 20
12.4882162657631
 30
0.0
 11
217.856223468464
 21
12.4882162657631
 31
0.0
  0
LINE
  5
   5BC
  8
0
  6
CONTINUOUS
 62
     1
 10
217.856223468464
 20
12.4882162657631
 30
0.0
 11
217.856223468464
 21
13.1882162538422
 31
0.0
  0
LINE
  5
   5BD
  8
0
  6
CONTINUOUS
 62
     1
 10
218.906223127228
 20
13.5382162478817
 30
0.0
 11
218.206223472934
 21
13.5382162478817
 31
0.0
  0
LINE
  5
   5BE
  8
0
  6
CONTINUOUS
 62
     1
 10
226.431222999078
 20
13.5382162478817
 30
0.0
 11
224.681252217006
 21
13.5382162478817
 31
0.0
  0
LINE
  5
   5BF
  8
0
  6
CONTINUOUS
 62
     1
 10
217.856223468464
 20
-15.1616669246236
 30
0.0
 11
217.856223468464
 21
12.4882162657631
 31
0.0
  0
LINE
  5
   5C0
  8
0
  6
CONTINUOUS
 62
     1
 10
253.206222866457
 20
-16.105907309211
 30
0.0
 11
253.206222866457
 21
12.4882162657631
 31
0.0
  0
LINE
  5
   5C1
  8
0
  6
CONTINUOUS
 62
     1
 10
253.206222411218
 20
13.188216433542
 30
0.0
 11
252.856222429158
 21
13.5382164156015
 31
0.0
  0
LINE
  5
   5C2
  8
0
  6
CONTINUOUS
 62
     1
 10
217.856223483439
 20
13.1882162867871
 30
0.0
 11
218.206223465499
 21
13.5382162688467
 31
0.0
  0
LINE
  5
   5C3
  8
0
  6
CONTINUOUS
 62
     1
 10
253.206222866457
 20
12.4882162657631
 30
0.0
 11
228.504509860851
 21
12.4882162657631
 31
0.0
  0
LINE
  5
   5C4
  8
0
  6
CONTINUOUS
 62
     1
 10
252.856222596878
 20
13.5382162478817
 30
0.0
 11
228.181222969275
 21
13.5382162478817
 31
0.0
  0
INSERT
  5
   5C5
  8
0
  6
CONTINUOUS
 62
     7
  2
*HATCH178
 10
253.731201171875
 20
20.98024559021
 30
0.0
 41
0.349999994039536
 42
0.349999994039536
 50
89.9999999480344
 43
0.349999994039536
  0
LINE
  5
   5C6
  8
0
  6
CONTINUOUS
 62
     7
 10
233.027056092928
 20
8.44169635761652
 30
0.0
 11
227.845808088513
 21
10.8577516143229
 31
0.0
  0
LINE
  5
   5C7
  8
0
  6
CONTINUOUS
 62
     7
 10
233.321596874655
 20
8.18338871431031
 30
0.0
 11
233.027056092928
 21
8.44169635761644
 31
0.0
  0
LINE
  5
   5C8
  8
0
  6
CONTINUOUS
 62
     7
 10
233.431222879868
 20
5.57131829370578
 30
0.0
 11
233.431222879868
 21
7.80727864381119
 31
0.0
  0
LINE
  5
   5C9
  8
0
  6
CONTINUOUS
 62
     7
 10
233.431222879868
 20
-1.77427026528163
 30
0.0
 11
233.431222879868
 21
1.20072968405443
 31
0.0
  0
LINE
  5
   5CA
  8
0
  6
CONTINUOUS
 62
     7
 10
233.431222879868
 20
-4.66176487553171
 30
0.0
 11
233.431222879868
 21
-1.77427026528163
 31
0.0
  0
LINE
  5
   5CB
  8
0
  6
CONTINUOUS
 62
     7
 10
235.181223517638
 20
-4.66176487553171
 30
0.0
 11
233.431222879868
 21
-4.66176487553171
 31
0.0
  0
LINE
  5
   5CC
  8
0
  6
CONTINUOUS
 62
     7
 10
235.181223517638
 20
-4.66176487553172
 30
0.0
 11
235.181223517638
 21
-1.77427026528164
 31
0.0
  0
LINE
  5
   5CD
  8
0
  6
CONTINUOUS
 62
     7
 10
235.181223517638
 20
-1.77427026528162
 30
0.0
 11
233.431222879868
 21
-1.77427026528162
 31
0.0
  0
LINE
  5
   5CE
  8
0
  6
CONTINUOUS
 62
     7
 10
235.181223517638
 20
1.20072968405443
 30
0.0
 11
233.431222879868
 21
1.20072968405443
 31
0.0
  0
LINE
  5
   5CF
  8
0
  6
CONTINUOUS
 62
     7
 10
235.181223517638
 20
1.20072968405442
 30
0.0
 11
235.181223517638
 21
5.57131829370578
 31
0.0
  0
LINE
  5
   5D0
  8
0
  6
CONTINUOUS
 62
     7
 10
233.431222879868
 20
1.20072968405443
 30
0.0
 11
233.431222879868
 21
5.57131829370578
 31
0.0
  0
LINE
  5
   5D1
  8
0
  6
CONTINUOUS
 62
     7
 10
235.181223517638
 20
-1.77427026528164
 30
0.0
 11
235.181223517638
 21
1.20072968405442
 31
0.0
  0
LINE
  5
   5D2
  8
0
  6
CONTINUOUS
 62
     7
 10
235.181223517638
 20
5.57131829370578
 30
0.0
 11
235.181223517638
 21
7.80727864381119
 31
0.0
  0
LINE
  5
   5D3
  8
0
  6
CONTINUOUS
 62
     7
 10
233.431222879868
 20
7.80727864381116
 30
0.0
 11
233.321596874655
 21
8.18338871431033
 31
0.0
  0
ARC
  5
   5D4
  8
0
  6
CONTINUOUS
 62
     7
 10
232.731212231898
 20
7.80727568742536
 30
0.0
 40
2.45001128574164
 50
360.000069087887
 51
424.999826022145
  0
LINE
  5
   5D5
  8
0
  6
CONTINUOUS
 62
     7
 10
233.766637760631
 20
10.0277353015536
 30
0.0
 11
228.585383782784
 21
12.4437939663053
 31
0.0
  0
LINE
  5
   5D6
  8
0
  6
CONTINUOUS
 62
     7
 10
228.181222969275
 20
13.078199394458
 30
0.0
 11
228.181222969275
 21
19.2257293770905
 31
0.0
  0
ARC
  5
   5D7
  8
0
  6
CONTINUOUS
 62
     7
 10
228.881211923656
 20
13.078199394458
 30
0.0
 40
0.69998895438875
 50
179.999999948034
 51
244.999997622412
  0
ARC
  5
   5D8
  8
0
  6
CONTINUOUS
 62
     7
 10
228.881238927169
 20
13.078221937071
 30
0.0
 40
2.45002152558835
 50
180.000444409999
 51
244.999819316708
  0
LINE
  5
   5D9
  8
0
  6
CONTINUOUS
 62
     7
 10
226.431222999078
 20
13.0782029314893
 30
0.0
 11
226.431222999078
 21
19.2257293770905
 31
0.0
  0
LINE
  5
   5DA
  8
0
  6
CONTINUOUS
 62
     7
 10
228.181222969275
 20
19.2257293770905
 30
0.0
 11
226.431222999078
 21
19.2257293770905
 31
0.0
  0
LINE
  5
   5DB
  8
0
  6
CONTINUOUS
 62
     7
 10
226.431222999078
 20
22.2007293264266
 30
0.0
 11
226.431222999078
 21
24.2132292921539
 31
0.0
  0
LINE
  5
   5DC
  8
0
  6
CONTINUOUS
 62
     7
 10
228.181222969275
 20
24.2132292921539
 30
0.0
 11
226.431222999078
 21
24.2132292921539
 31
0.0
  0
LINE
  5
   5DD
  8
0
  6
CONTINUOUS
 62
     7
 10
228.181222969275
 20
22.2007293264266
 30
0.0
 11
228.181222969275
 21
24.2132292921539
 31
0.0
  0
LINE
  5
   5DE
  8
0
  6
DASHDOT
 62
     7
 10
235.881223505717
 20
-0.286770290613557
 30
0.0
 11
232.731222891789
 21
-0.286770290613557
 31
0.0
  0
INSERT
  5
   5DF
  8
0
  6
CONTINUOUS
 62
     7
  2
*HATCH179
 10
253.731201171875
 20
20.98024559021
 30
0.0
 41
0.349999994039536
 42
0.349999994039536
 50
89.9999999480344
 43
0.349999994039536
  0
INSERT
  5
   5E0
  8
0
  6
CONTINUOUS
 62
     7
  2
*HATCH180
 10
253.731201171875
 20
20.98024559021
 30
0.0
 41
0.349999994039536
 42
0.349999994039536
 50
89.9999999480344
 43
0.349999994039536
  0
INSERT
  5
   5E1
  8
0
  6
CONTINUOUS
 62
     7
  2
*HATCH181
 10
253.731201171875
 20
20.98024559021
 30
0.0
 41
0.349999994039536
 42
0.349999994039536
 50
89.9999999480344
 43
0.349999994039536
  0
POINT
  5
   5E2
  8
0
  6
CONTINUOUS
 62
     7
 10
228.531222963315
 20
20.7132293517586
 30
0.0
  0
LINE
  5
   5E3
  8
0
  6
CONTINUOUS
 62
     3
 10
255.550519739452
 20
-18.4935901235412
 30
0.0
 11
215.246920696549
 21
-17.8150783551422
 31
0.0
  0
LINE
  5
   5E4
  8
0
  6
CONTINUOUS
 62
     3
 10
256.22903150785
 20
-16.1866501109845
 30
0.0
 11
215.586176580748
 21
-15.101031281546
 31
0.0
  0
LINE
  5
   5E5
  8
0
  6
CONTINUOUS
 62
     1
 10
253.206222866457
 20
-26.0117755516591
 30
0.0
 11
253.206222866457
 21
-18.454123846218
 31
0.0
  0
LINE
  5
   5E6
  8
0
  6
CONTINUOUS
 62
     1
 10
217.856223468464
 20
-26.0117755516591
 30
0.0
 11
217.856223468464
 21
-17.859006011235
 31
0.0
  0
LINE
  5
   5E7
  8
0
  6
CONTINUOUS
 62
     1
 10
253.206222866457
 20
-26.0117755516591
 30
0.0
 11
217.856223468464
 21
-26.0117755516591
 31
0.0
  0
LINE
  5
   5E8
  8
0
  6
CONTINUOUS
 62
     7
 10
228.181222969275
 20
22.2007293264266
 30
0.0
 11
226.431222999078
 21
22.2007293264266
 31
0.0
  0
INSERT
  5
   5E9
  8
0
  6
CONTINUOUS
 62
     7
  2
*UDIM752
 10
0.0
 20
0.0
 30
0.0
  0
INSERT
  5
   5EA
  8
0
  6
CONTINUOUS
 62
     7
  2
*UDIM753
 10
0.0
 20
0.0
 30
0.0
  0
INSERT
  5
   5EB
  8
0
  6
CONTINUOUS
 62
     7
  2
*UDIM754
 10
0.0
 20
0.0
 30
0.0
  0
INSERT
  5
   5EC
  8
0
  6
CONTINUOUS
 62
     7
  2
*UDIM755
 10
0.0
 20
0.0
 30
0.0
  0
INSERT
  5
   5ED
  8
0
  6
CONTINUOUS
 62
     7
  2
*UDIM756
 10
0.0
 20
0.0
 30
0.0
  0
INSERT
  5
   5EE
  8
0
  6
CONTINUOUS
 62
     7
  2
*UDIM757
 10
0.0
 20
0.0
 30
0.0
  0
INSERT
  5
   5EF
  8
0
  6
CONTINUOUS
 62
     7
  2
*UDIM758
 10
0.0
 20
0.0
 30
0.0
  0
INSERT
  5
   5F0
  8
0
  6
CONTINUOUS
 62
     7
  2
*UDIM759
 10
0.0
 20
0.0
 30
0.0
  0
INSERT
  5
   5F1
  8
0
  6
CONTINUOUS
 62
     7
  2
*UDIM760
 10
0.0
 20
0.0
 30
0.0
  0
INSERT
  5
   5F2
  8
0
  6
CONTINUOUS
 62
     7
  2
*UDIM761
 10
0.0
 20
0.0
 30
0.0
  0
INSERT
  5
   5F3
  8
0
  6
CONTINUOUS
 62
     7
  2
*UDIM762
 10
0.0
 20
0.0
 30
0.0
  0
INSERT
  5
   5F4
  8
0
  6
CONTINUOUS
 62
     7
  2
*UDIM763
 10
0.0
 20
0.0
 30
0.0
  0
INSERT
  5
   5F5
  8
0
  6
CONTINUOUS
 62
     7
  2
*UDIM764
 10
0.0
 20
0.0
 30
0.0
  0
INSERT
  5
   5F6
  8
0
  6
CONTINUOUS
 62
     7
  2
*UDIM765
 10
0.0
 20
0.0
 30
0.0
  0
INSERT
  5
   5F7
  8
0
  6
CONTINUOUS
 62
     7
  2
*UDIM766
 10
0.0
 20
0.0
 30
0.0
  0
INSERT
  5
   5F8
  8
0
  6
CONTINUOUS
 62
     7
  2
*UDIM767
 10
0.0
 20
0.0
 30
0.0
  0
TEXT
  5
   5F9
  8
0
  6
CONTINUOUS
 62
     1
 10
250.059402640249
 20
-195.708272916515
 30
0.0
 40
2.99999997871263
  1
S4X
 50
359.999999948034
 41
0.91666663951344
 72
     2
 11
257.759402374015
 21
-195.70827292346
 31
0.0
  0
TEXT
  5
   5FA
  8
0
  6
CONTINUOUS
 62
     7
 10
281.578906546374
 20
51.8737440253946
 30
0.0
 40
2.99999997871263
  1
=    =
 50
89.9999999480344
 41
0.916666703091727
 72
     1
 11
280.078906564241
 21
59.8487442920293
 31
0.0
 73
     2
  0
TEXT
  5
   5FB
  8
0
  6
CONTINUOUS
 62
     7
 10
283.699676415999
 20
58.0660153815563
 30
0.0
 40
2.99999997871263
  1
X
 50
359.999999948034
 41
0.91666663951344
 72
     1
 11
284.799676385208
 21
59.5660153699204
 31
0.0
 73
     2
  0
LINE
  5
   5FC
  8
0
  6
CONTINUOUS
 62
     7
 10
97.0448666766654
 20
41.1007233054215
 30
0.0
 11
93.5448667362701
 21
41.1007233054215
 31
0.0
  0
LINE
  5
   5FD
  8
0
  6
CONTINUOUS
 62
     7
 10
88.294866825677
 20
77.1507120103415
 30
0.0
 11
88.294866825677
 21
77.8507119984206
 31
0.0
  0
LINE
  5
   5FE
  8
0
  6
CONTINUOUS
 62
     7
 10
93.5448667362701
 20
41.1007233054215
 30
0.0
 11
88.294866825677
 21
41.1007233054215
 31
0.0
  0
LINE
  5
   5FF
  8
0
  6
CONTINUOUS
 62
     7
 10
106.6698558316
 20
41.1007233054215
 30
0.0
 11
97.0448666766654
 21
41.1007233054215
 31
0.0
  0
LINE
  5
   600
  8
0
  6
CONTINUOUS
 62
    52
 10
119.794844926931
 20
41.1007233054215
 30
0.0
 11
116.294844986536
 21
41.1007233054215
 31
0.0
  0
LINE
  5
   601
  8
0
  6
CONTINUOUS
 62
    52
 10
125.044844837524
 20
41.1007233054215
 30
0.0
 11
119.794844926931
 21
41.1007233054215
 31
0.0
  0
LINE
  5
   602
  8
0
  6
CONTINUOUS
 62
    52
 10
116.294844986536
 20
41.1007233054215
 30
0.0
 11
106.6698558316
 21
41.1007233054215
 31
0.0
  0
LINE
  5
   603
  8
0
  6
DASHDOT
 62
     3
 10
102.557362321686
 20
41.188229278059
 30
0.0
 11
98.5323712350794
 21
41.188229278059
 31
0.0
  0
LINE
  5
   604
  8
0
  6
DASHDOT
 62
     3
 10
114.807504273796
 20
41.1880744919533
 30
0.0
 11
110.78225403825
 21
41.1880744919533
 31
0.0
  0
LINE
  5
   605
  8
0
  6
CONTINUOUS
 62
     7
 10
97.0448613360893
 20
41.1007233054215
 30
0.0
 11
93.5448667362701
 21
41.1007233054215
 31
0.0
  0
LINE
  5
   606
  8
0
  6
CONTINUOUS
 62
     7
 10
119.794855608083
 20
41.1007233054215
 30
0.0
 11
116.294855667688
 21
41.1007233054215
 31
0.0
  0
LINE
  5
   607
  8
0
  6
CONTINUOUS
 62
     7
 10
125.044866199828
 20
41.2757233024413
 30
0.0
 11
125.044866199828
 21
47.5757178545769
 31
0.0
  0
LINE
  5
   608
  8
0
  6
CONTINUOUS
 62
     7
 10
88.294866825677
 20
41.1007233054215
 30
0.0
 11
88.294866825677
 21
47.5757178545769
 31
0.0
  0
LINE
  5
   609
  8
0
  6
CONTINUOUS
 62
     7
 10
125.044860859252
 20
77.8507226795728
 30
0.0
 11
88.2948668256868
 21
77.8507226795728
 31
0.0
  0
LINE
  5
   60A
  8
0
  6
CONTINUOUS
 62
     7
 10
93.5448667362701
 20
41.1007233054215
 30
0.0
 11
88.294866825677
 21
41.1007233054215
 31
0.0
  0
LINE
  5
   60B
  8
0
  6
CONTINUOUS
 62
     7
 10
116.294855667688
 20
41.1007233054215
 30
0.0
 11
97.0448613360893
 21
41.1007233054215
 31
0.0
  0
LINE
  5
   60C
  8
0
  6
CONTINUOUS
 62
     7
 10
124.869866202809
 20
41.1007233054215
 30
0.0
 11
119.794855608083
 21
41.1007233054215
 31
0.0
  0
LINE
  5
   60D
  8
0
  6
CONTINUOUS
 62
     7
 10
110.432366448678
 20
48.8882178322251
 30
0.0
 11
110.432366448678
 21
62.8882122532305
 31
0.0
  0
LINE
  5
   60E
  8
0
  6
CONTINUOUS
 62
     7
 10
102.907366576828
 20
48.8882178322251
 30
0.0
 11
102.907366576828
 21
62.8882122532305
 31
0.0
  0
LINE
  5
   60F
  8
0
  6
CONTINUOUS
 62
     7
 10
125.044866199828
 20
73.6507120699462
 30
0.0
 11
88.294866825677
 21
73.6507120699462
 31
0.0
  0
LINE
  5
   610
  8
0
  6
CONTINUOUS
 62
     7
 10
125.044866199828
 20
77.1507120103415
 30
0.0
 11
88.294866825677
 21
77.1507120103415
 31
0.0
  0
LINE
  5
   611
  8
0
  6
CONTINUOUS
 62
     7
 10
110.432366448678
 20
62.7956493885958
 30
0.0
 11
102.907366576828
 21
62.7956493885958
 31
0.0
  0
LINE
  5
   612
  8
0
  6
CONTINUOUS
 62
     7
 10
110.432366448678
 20
62.8882122532304
 30
0.0
 11
102.907366576828
 21
62.8882122532304
 31
0.0
  0
LINE
  5
   613
  8
0
  6
CONTINUOUS
 62
     7
 10
110.432366448678
 20
48.8882178322251
 30
0.0
 11
102.907366576828
 21
48.8882178322251
 31
0.0
  0
LINE
  5
   614
  8
0
  6
CONTINUOUS
 62
     7
 10
110.432366448678
 20
48.9807913780119
 30
0.0
 11
102.907366576828
 21
48.9807913780119
 31
0.0
  0
LINE
  5
   615
  8
0
  6
DASHDOT
 62
     7
 10
106.669866512753
 20
10.4282122722305
 30
0.0
 11
106.669866512753
 21
136.987862363126
 31
0.0
  0
LINE
  5
   616
  8
0
  6
CONTINUOUS
 62
     7
 10
125.044860859252
 20
47.9257178486164
 30
0.0
 11
125.044860859252
 21
52.1257149934574
 31
0.0
  0
LINE
  5
   617
  8
0
  6
CONTINUOUS
 62
     7
 10
125.044860859252
 20
64.2007175714548
 30
0.0
 11
125.044860859252
 21
77.8507226795728
 31
0.0
  0
LINE
  5
   618
  8
0
  6
CONTINUOUS
 62
     7
 10
125.044860859252
 20
52.4757149874969
 30
0.0
 11
125.044860859252
 21
59.3007176549013
 31
0.0
  0
LINE
  5
   619
  8
0
  6
CONTINUOUS
 62
     7
 10
125.044860859252
 20
59.6507176489408
 30
0.0
 11
125.044860859252
 21
63.8507175774153
 31
0.0
  0
LINE
  5
   61A
  8
0
  6
CONTINUOUS
 62
     7
 10
88.2948668256752
 20
47.9257178486164
 30
0.0
 11
88.2948668256752
 21
52.1257177770916
 31
0.0
  0
LINE
  5
   61B
  8
0
  6
CONTINUOUS
 62
     7
 10
88.294866825669
 20
52.4757177711311
 30
0.0
 11
88.294866825669
 21
59.3007176549013
 31
0.0
  0
LINE
  5
   61C
  8
0
  6
CONTINUOUS
 62
     7
 10
88.2948668256788
 20
59.6507176489408
 30
0.0
 11
88.2948668256788
 21
63.8507175774153
 31
0.0
  0
LINE
  5
   61D
  8
0
  6
CONTINUOUS
 62
     7
 10
88.2948668256868
 20
64.2007175714548
 30
0.0
 11
88.2948668256868
 21
77.8507226795728
 31
0.0
  0
LINE
  5
   61E
  8
0
  6
CONTINUOUS
 62
     7
 10
102.907363786024
 20
52.1257177770901
 30
0.0
 11
88.6448667988549
 21
52.1257177770901
 31
0.0
  0
LINE
  5
   61F
  8
0
  6
CONTINUOUS
 62
     7
 10
125.044860859252
 20
52.1257284582423
 30
0.0
 11
124.694860865213
 21
52.1257284582423
 31
0.0
  0
LINE
  5
   620
  8
0
  6
CONTINUOUS
 62
     7
 10
102.907356940344
 20
52.4757177711296
 30
0.0
 11
88.6448667988549
 21
52.4757177711296
 31
0.0
  0
LINE
  5
   621
  8
0
  6
CONTINUOUS
 62
     7
 10
125.044860859252
 20
52.4757284522818
 30
0.0
 11
124.694860865213
 21
52.4757284522818
 31
0.0
  0
LINE
  5
   622
  8
0
  6
CONTINUOUS
 62
     7
 10
88.6448667988549
 20
52.1257177770908
 30
0.0
 11
88.6448667988549
 21
52.4757177711304
 31
0.0
  0
LINE
  5
   623
  8
0
  6
CONTINUOUS
 62
     7
 10
124.694860865213
 20
52.1257177770908
 30
0.0
 11
124.694860865213
 21
52.4757177711304
 31
0.0
  0
LINE
  5
   624
  8
0
  6
CONTINUOUS
 62
     7
 10
125.044866199828
 20
47.5757178545769
 30
0.0
 11
124.694860865213
 21
47.5757178545769
 31
0.0
  0
LINE
  5
   625
  8
0
  6
CONTINUOUS
 62
     7
 10
125.044860859252
 20
47.9257178486164
 30
0.0
 11
124.694860865213
 21
47.9257178486164
 31
0.0
  0
LINE
  5
   626
  8
0
  6
CONTINUOUS
 62
     7
 10
88.6448667988549
 20
47.5757178545769
 30
0.0
 11
88.6448667988549
 21
47.9257178486164
 31
0.0
  0
LINE
  5
   627
  8
0
  6
CONTINUOUS
 62
     7
 10
124.694860865213
 20
47.5757178545769
 30
0.0
 11
124.694860865213
 21
47.9257178486164
 31
0.0
  0
LINE
  5
   628
  8
0
  6
CONTINUOUS
 62
     7
 10
125.044860859252
 20
63.8507175774152
 30
0.0
 11
124.694860865213
 21
63.8507175774152
 31
0.0
  0
LINE
  5
   629
  8
0
  6
CONTINUOUS
 62
     7
 10
125.044860859252
 20
64.2007175714548
 30
0.0
 11
124.694860865213
 21
64.2007175714548
 31
0.0
  0
LINE
  5
   62A
  8
0
  6
CONTINUOUS
 62
     7
 10
88.6448667988549
 20
63.8507175774153
 30
0.0
 11
88.6448667988549
 21
64.2007175714548
 31
0.0
  0
LINE
  5
   62B
  8
0
  6
CONTINUOUS
 62
     7
 10
124.694860865213
 20
63.8507175774153
 30
0.0
 11
124.694860865213
 21
64.2007175714548
 31
0.0
  0
LINE
  5
   62C
  8
0
  6
CONTINUOUS
 62
     7
 10
102.907363802231
 20
59.3007176549013
 30
0.0
 11
88.6448667988549
 21
59.3007176549013
 31
0.0
  0
LINE
  5
   62D
  8
0
  6
CONTINUOUS
 62
     7
 10
125.044860859252
 20
59.3007176549013
 30
0.0
 11
124.694860865213
 21
59.3007176549013
 31
0.0
  0
LINE
  5
   62E
  8
0
  6
CONTINUOUS
 62
     7
 10
102.907366576828
 20
59.6507176489408
 30
0.0
 11
88.6448667988549
 21
59.6507176489408
 31
0.0
  0
LINE
  5
   62F
  8
0
  6
CONTINUOUS
 62
     7
 10
125.044860859252
 20
59.6507176489408
 30
0.0
 11
124.694860865213
 21
59.6507176489408
 31
0.0
  0
LINE
  5
   630
  8
0
  6
CONTINUOUS
 62
     7
 10
88.6448667988549
 20
59.3007176549013
 30
0.0
 11
88.6448667988549
 21
59.6507176489408
 31
0.0
  0
LINE
  5
   631
  8
0
  6
CONTINUOUS
 62
     7
 10
124.694860865213
 20
59.3007176549013
 30
0.0
 11
124.694860865213
 21
59.6507176489408
 31
0.0
  0
ARC
  5
   632
  8
0
  6
CONTINUOUS
 62
     7
 10
124.869866202809
 20
41.2757233024413
 30
0.0
 40
0.174999997019768
 50
269.999999948034
 51
359.999999948034
  0
INSERT
  5
   633
  8
255
  6
CONTINUOUS
 62
     7
  2
ON-OFF
 10
113.669862975575
 20
61.7507176131781
 30
0.0
 41
0.349999994039536
 42
0.349999994039536
 50
359.999999792137
 43
0.349999994039536
  0
LINE
  5
   634
  8
0
  6
CONTINUOUS
 62
     7
 10
98.7948666468631
 20
63.3257175863559
 30
0.0
 11
98.2698666558038
 21
63.3257175863559
 31
0.0
  0
LINE
  5
   635
  8
0
  6
CONTINUOUS
 62
     7
 10
98.7948666468631
 20
60.1757176400001
 30
0.0
 11
98.2698666558038
 21
60.1757176400001
 31
0.0
  0
CIRCLE
  5
   636
  8
0
  6
CONTINUOUS
 62
     7
 10
98.5323666513334
 20
50.0257178128536
 30
0.0
 40
1.57499997317791
  0
CIRCLE
  5
   637
  8
0
  6
CONTINUOUS
 62
     7
 10
98.5323666513334
 20
50.0257178128536
 30
0.0
 40
1.04999998211861
  0
LINE
  5
   638
  8
0
  6
CONTINUOUS
 62
     7
 10
98.2698666558038
 20
60.1757176400001
 30
0.0
 11
98.2698666558038
 21
63.3257175863559
 31
0.0
  0
LINE
  5
   639
  8
0
  6
CONTINUOUS
 62
     7
 10
98.7948666468631
 20
60.1757176400001
 30
0.0
 11
98.7948666468631
 21
63.3257175863559
 31
0.0
  0
LINE
  5
   63A
  8
0
  6
CONTINUOUS
 62
     7
 10
101.944866593219
 20
47.9257178486164
 30
0.0
 11
101.944866593219
 21
52.1257227782987
 31
0.0
  0
LINE
  5
   63B
  8
0
  6
CONTINUOUS
 62
     7
 10
111.394866432286
 20
47.9257178486164
 30
0.0
 11
111.394866432286
 21
52.1257199946625
 31
0.0
  0
LINE
  5
   63C
  8
0
  6
CONTINUOUS
 62
     7
 10
111.394866432286
 20
59.6507176489408
 30
0.0
 11
111.394866432286
 21
63.8507175774153
 31
0.0
  0
LINE
  5
   63D
  8
0
  6
CONTINUOUS
 62
     7
 10
101.944866593219
 20
59.6507176489408
 30
0.0
 11
101.944866593219
 21
63.8507175774153
 31
0.0
  0
LINE
  5
   63E
  8
0
  6
DASHDOT
 62
     7
 10
106.669842400716
 20
121.337835653317
 30
0.0
 11
106.669842400716
 21
173.743183763769
 31
0.0
  0
LINE
  5
   63F
  8
0
  6
DASHDOT
 62
     7
 10
106.669829863896
 20
127.673211292349
 30
0.0
 11
106.669829863896
 21
135.653236902308
 31
0.0
  0
LINE
  5
   640
  8
0
  6
CONTINUOUS
 62
     7
 10
110.432366448678
 20
52.1009680019166
 30
0.0
 11
102.907366576828
 21
52.1009680019166
 31
0.0
  0
LINE
  5
   641
  8
0
  6
CONTINUOUS
 62
     7
 10
110.432366448678
 20
49.3286347251955
 30
0.0
 11
102.907366576828
 21
49.3286347251955
 31
0.0
  0
LINE
  5
   642
  8
0
  6
CONTINUOUS
 62
     7
 10
110.432366448678
 20
52.1009677564076
 30
0.0
 11
102.907366576828
 21
52.1009677564076
 31
0.0
  0
LINE
  5
   643
  8
0
  6
CONTINUOUS
 62
     7
 10
110.432366448678
 20
53.8321101385067
 30
0.0
 11
102.907366576828
 21
53.8321101385067
 31
0.0
  0
LINE
  5
   644
  8
0
  6
CONTINUOUS
 62
     7
 10
88.6448667988549
 20
64.2007175714548
 30
0.0
 11
88.2948668256868
 21
64.2007175714548
 31
0.0
  0
LINE
  5
   645
  8
0
  6
CONTINUOUS
 62
     7
 10
88.6448667988549
 20
63.8507175774152
 30
0.0
 11
88.2948668256788
 21
63.8507175774152
 31
0.0
  0
LINE
  5
   646
  8
0
  6
CONTINUOUS
 62
     7
 10
88.6448667988549
 20
59.6507176489408
 30
0.0
 11
88.2948668256788
 21
59.6507176489408
 31
0.0
  0
LINE
  5
   647
  8
0
  6
CONTINUOUS
 62
     7
 10
88.6448667988549
 20
59.3007176549013
 30
0.0
 11
88.294866825669
 21
59.3007176549013
 31
0.0
  0
LINE
  5
   648
  8
0
  6
CONTINUOUS
 62
     7
 10
88.6448667988549
 20
52.4757177711296
 30
0.0
 11
88.294866825669
 21
52.4757177711296
 31
0.0
  0
LINE
  5
   649
  8
0
  6
CONTINUOUS
 62
     7
 10
88.6448667988549
 20
52.1257177770901
 30
0.0
 11
88.2948668256752
 21
52.1257177770901
 31
0.0
  0
LINE
  5
   64A
  8
0
  6
CONTINUOUS
 62
     7
 10
88.6448667988549
 20
47.9257178486164
 30
0.0
 11
88.2948668256752
 21
47.9257178486164
 31
0.0
  0
LINE
  5
   64B
  8
0
  6
CONTINUOUS
 62
     7
 10
88.6448667988549
 20
47.5757178545769
 30
0.0
 11
88.294866825677
 21
47.5757178545769
 31
0.0
  0
LINE
  5
   64C
  8
0
  6
CONTINUOUS
 62
     7
 10
124.694860865213
 20
47.9257178486164
 30
0.0
 11
88.6448667988549
 21
47.9257178486164
 31
0.0
  0
LINE
  5
   64D
  8
0
  6
CONTINUOUS
 62
     7
 10
124.694860865213
 20
47.5757178545769
 30
0.0
 11
88.6448667988549
 21
47.5757178545769
 31
0.0
  0
LINE
  5
   64E
  8
0
  6
CONTINUOUS
 62
     7
 10
124.694860865213
 20
52.4757284522818
 30
0.0
 11
110.432365404012
 21
52.4757284522818
 31
0.0
  0
LINE
  5
   64F
  8
0
  6
CONTINUOUS
 62
     7
 10
124.694860865213
 20
52.1257284582423
 30
0.0
 11
110.432365275776
 21
52.1257284582423
 31
0.0
  0
LINE
  5
   650
  8
0
  6
CONTINUOUS
 62
     7
 10
124.694860865213
 20
59.6507176489408
 30
0.0
 11
110.432366448678
 21
59.6507176489408
 31
0.0
  0
LINE
  5
   651
  8
0
  6
CONTINUOUS
 62
     7
 10
124.694860865213
 20
59.3007176549013
 30
0.0
 11
110.432366448678
 21
59.3007176549013
 31
0.0
  0
LINE
  5
   652
  8
0
  6
CONTINUOUS
 62
     7
 10
124.694860865213
 20
64.2007175714548
 30
0.0
 11
88.6448667988549
 21
64.2007175714548
 31
0.0
  0
LINE
  5
   653
  8
0
  6
CONTINUOUS
 62
     7
 10
124.694860865213
 20
63.8507175774152
 30
0.0
 11
88.6448667988549
 21
63.8507175774152
 31
0.0
  0
LINE
  5
   654
  8
0
  6
DASHDOT
 62
     7
 10
158.600691761759
 20
59.4757229924971
 30
0.0
 11
76.1677495843486
 21
59.4757229924971
 31
0.0
  0
LINE
  5
   655
  8
0
  6
DASHDOT
 62
     7
 10
63.1483122873758
 20
59.4757229924971
 30
0.0
 11
58.4412849569318
 21
59.4757229924971
 31
0.0
  0
INSERT
  5
   656
  8
255
  6
CONTINUOUS
 62
     7
  2
MOSTRINA
 10
66.4764458395191
 20
20.9824928283295
 30
0.0
 41
0.349999994039536
 42
0.349999994039536
 50
3.50835464724173E-15
 43
0.349999994039536
  0
LINE
  5
   657
  8
0
  6
CONTINUOUS
 62
     7
 10
125.044819282253
 20
87.6507091612382
 30
0.0
 11
125.044819282253
 21
94.913204798606
 31
0.0
  0
LINE
  5
   658
  8
0
  6
CONTINUOUS
 62
     7
 10
88.294815972654
 20
87.6507091612382
 30
0.0
 11
88.294815972654
 21
94.913204798606
 31
0.0
  0
LINE
  5
   659
  8
0
  6
CONTINUOUS
 62
     7
 10
88.6448159666936
 20
94.913204798606
 30
0.0
 11
88.294815972654
 21
94.913204798606
 31
0.0
  0
LINE
  5
   65A
  8
0
  6
CONTINUOUS
 62
     7
 10
125.044819282253
 20
94.913204798606
 30
0.0
 11
124.694819288214
 21
94.913204798606
 31
0.0
  0
LINE
  5
   65B
  8
0
  6
CONTINUOUS
 62
     3
 10
88.294866825677
 20
15.3932237265283
 30
0.0
 11
88.294866825677
 21
31.3007248074585
 31
0.0
  0
LINE
  5
   65C
  8
0
  6
CONTINUOUS
 62
     7
 10
110.957366439737
 20
22.8132236168558
 30
0.0
 11
102.382366585768
 21
22.8132236168558
 31
0.0
  0
LINE
  5
   65D
  8
0
  6
CONTINUOUS
 62
     7
 10
110.957366439737
 20
22.6382253756386
 30
0.0
 11
110.957366439737
 21
22.8132236168558
 31
0.0
  0
LINE
  5
   65E
  8
0
  6
CONTINUOUS
 62
     7
 10
114.632366377152
 20
22.6382253756386
 30
0.0
 11
114.632366377152
 21
22.8132236168558
 31
0.0
  0
LINE
  5
   65F
  8
0
  6
CONTINUOUS
 62
     7
 10
122.769866238571
 20
22.8132236168558
 30
0.0
 11
114.632366377152
 21
22.8132236168558
 31
0.0
  0
LINE
  5
   660
  8
0
  6
DOT
 62
     7
 10
101.41986660216
 20
19.1382236794407
 30
0.0
 11
101.41986660216
 21
19.7974451034806
 31
0.0
  0
LINE
  5
   661
  8
0
  6
DOT
 62
     7
 10
99.6698666319619
 20
19.1382236794407
 30
0.0
 11
99.6698666319619
 21
19.7974456140491
 31
0.0
  0
LINE
  5
   662
  8
0
  6
DOT
 62
     7
 10
101.41986660216
 20
19.1382236794407
 30
0.0
 11
99.6698666319619
 21
19.1382236794407
 31
0.0
  0
LINE
  5
   663
  8
0
  6
CONTINUOUS
 62
     7
 10
111.919866423346
 20
19.1382236794407
 30
0.0
 11
111.919866423346
 21
19.8304010587052
 31
0.0
  0
LINE
  5
   664
  8
0
  6
CONTINUOUS
 62
     7
 10
120.144866283275
 20
22.8132236168558
 30
0.0
 11
120.144866283275
 21
22.9882236138756
 31
0.0
  0
LINE
  5
   665
  8
0
  6
CONTINUOUS
 62
     7
 10
124.432366210259
 20
22.6382253756386
 30
0.0
 11
124.432366210259
 21
22.9882236138756
 31
0.0
  0
LINE
  5
   666
  8
0
  6
CONTINUOUS
 62
     7
 10
88.9073668152462
 20
22.6382253756386
 30
0.0
 11
88.9073668152462
 21
22.9882236138756
 31
0.0
  0
LINE
  5
   667
  8
0
  6
CONTINUOUS
 62
     7
 10
122.769866238571
 20
22.6382253756386
 30
0.0
 11
122.769866238571
 21
22.9882236138756
 31
0.0
  0
CIRCLE
  5
   668
  8
0
  6
DOT
 62
     7
 10
94.4198667684566
 20
20.7132222257749
 30
0.0
 40
1.92499852271199
  0
CIRCLE
  5
   669
  8
0
  6
DOT
 62
     7
 10
100.544867225414
 20
21.4132255150348
 30
0.0
 40
0.96249829047196
  0
ARC
  5
   66A
  8
0
  6
DOT
 62
     7
 10
100.544867088471
 20
21.413229773881
 30
0.0
 40
1.83749401361082
 50
298.436973936778
 51
418.997218532549
  0
CIRCLE
  5
   66B
  8
0
  6
DOT
 62
     7
 10
106.669866670876
 20
20.7132248241341
 30
0.0
 40
1.92499882604943
  0
ARC
  5
   66C
  8
0
  6
DOT
 62
     7
 10
112.794867358974
 20
21.4132289709848
 30
0.0
 40
1.83749475538989
 50
298.436944421718
 51
418.99722864746
  0
CIRCLE
  5
   66D
  8
0
  6
DOT
 62
     7
 10
118.919866573295
 20
20.7132246380631
 30
0.0
 40
1.92499899795655
  0
LINE
  5
   66E
  8
0
  6
DASHDOT
 62
     3
 10
94.4198667684566
 20
18.0882237149838
 30
0.0
 11
94.4198667684566
 21
23.3382207365659
 31
0.0
  0
LINE
  5
   66F
  8
0
  6
DASHDOT
 62
     3
 10
97.0448652792477
 20
20.7132222257749
 30
0.0
 11
91.7948682576655
 21
20.7132222257749
 31
0.0
  0
LINE
  5
   670
  8
0
  6
DASHDOT
 62
     3
 10
100.544867088471
 20
13.2971654156101
 30
0.0
 11
100.544867088471
 21
29.1981415077963
 31
0.0
  0
LINE
  5
   671
  8
0
  6
DASHDOT
 62
     3
 10
103.082361090161
 20
21.413229773881
 30
0.0
 11
98.0073730867815
 21
21.413229773881
 31
0.0
  0
LINE
  5
   672
  8
0
  6
DASHDOT
 62
     3
 10
109.294865485004
 20
20.7132248241341
 30
0.0
 11
104.044867856747
 21
20.7132248241341
 31
0.0
  0
LINE
  5
   673
  8
0
  6
DASHDOT
 62
     3
 10
112.794867358974
 20
14.2611925003216
 30
0.0
 11
112.794867358974
 21
28.473778451668
 31
0.0
  0
LINE
  5
   674
  8
0
  6
DASHDOT
 62
     3
 10
115.332362102443
 20
21.4132289709848
 30
0.0
 11
110.257372615505
 21
21.4132289709848
 31
0.0
  0
LINE
  5
   675
  8
0
  6
DASHDOT
 62
     3
 10
118.919866573295
 20
18.0882256520275
 30
0.0
 11
118.919866573295
 21
23.3382236240988
 31
0.0
  0
LINE
  5
   676
  8
0
  6
DASHDOT
 62
     3
 10
121.54486555933
 20
20.7132246380631
 30
0.0
 11
116.294867587259
 21
20.7132246380631
 31
0.0
  0
LINE
  5
   677
  8
0
  6
CONTINUOUS
 62
     3
 10
125.044866199828
 20
22.9882236138759
 30
0.0
 11
125.044866199828
 21
31.3007248074585
 31
0.0
  0
LINE
  5
   678
  8
0
  6
CONTINUOUS
 62
     7
 10
98.7073666483532
 20
22.6382253756386
 30
0.0
 11
98.7073666483532
 21
22.8132236168558
 31
0.0
  0
LINE
  5
   679
  8
0
  6
CONTINUOUS
 62
     7
 10
102.382366585768
 20
22.6382253756386
 30
0.0
 11
102.382366585768
 21
22.8132236168558
 31
0.0
  0
LINE
  5
   67A
  8
0
  6
DOT
 62
     7
 10
113.669866393543
 20
19.1382236794407
 30
0.0
 11
113.669866393543
 21
19.7974431975645
 31
0.0
  0
LINE
  5
   67B
  8
0
  6
DOT
 62
     7
 10
113.669866393543
 20
19.1382236794407
 30
0.0
 11
111.919866423346
 21
19.1382236794407
 31
0.0
  0
LINE
  5
   67C
  8
0
  6
CONTINUOUS
 62
     7
 10
93.1948667422305
 20
22.8132236168558
 30
0.0
 11
93.1948667422305
 21
22.9882236138756
 31
0.0
  0
LINE
  5
   67D
  8
0
  6
CONTINUOUS
 62
     7
 10
90.569866786934
 20
22.6382253756386
 30
0.0
 11
90.569866786934
 21
22.9882236138756
 31
0.0
  0
CIRCLE
  5
   67E
  8
0
  6
DOT
 62
     7
 10
112.794867629594
 20
21.4132247527058
 30
0.0
 40
0.962498950668041
  0
LINE
  5
   67F
  8
0
  6
DASHDOT
 62
     3
 10
103.082361090161
 20
21.413229773881
 30
0.0
 11
98.0073730867815
 21
21.413229773881
 31
0.0
  0
LINE
  5
   680
  8
0
  6
DASHDOT
 62
     3
 10
109.294865485004
 20
20.7132248241341
 30
0.0
 11
104.044867856747
 21
20.7132248241341
 31
0.0
  0
LINE
  5
   681
  8
0
  6
DASHDOT
 62
     3
 10
112.794867358974
 20
14.2611925003216
 30
0.0
 11
112.794867358974
 21
29.0383044987019
 31
0.0
  0
LINE
  5
   682
  8
0
  6
DASHDOT
 62
     3
 10
115.332362102443
 20
21.4132289709848
 30
0.0
 11
110.257372615505
 21
21.4132289709848
 31
0.0
  0
LINE
  5
   683
  8
0
  6
CONTINUOUS
 62
     7
 10
98.7073666483532
 20
22.8132236168558
 30
0.0
 11
90.569866786934
 21
22.8132236168558
 31
0.0
  0
LINE
  5
   684
  8
0
  6
CONTINUOUS
 62
     7
 10
125.044844837524
 20
22.9882236138756
 30
0.0
 11
88.294866825677
 21
22.9882236138756
 31
0.0
  0
ARC
  5
   685
  8
0
  6
DOT
 62
     7
 10
100.544867088471
 20
21.413229773881
 30
0.0
 40
1.83749401361082
 50
121.002781363519
 51
241.56299252681
  0
ARC
  5
   686
  8
0
  6
DOT
 62
     7
 10
112.794867358974
 20
21.4132289709848
 30
0.0
 40
1.83749475538989
 50
121.002771248608
 51
241.562988062779
  0
LINE
  5
   687
  8
0
  6
CONTINUOUS
 62
     2
 10
88.294815972654
 20
95.2632047926456
 30
0.0
 11
88.294815972654
 21
124.488200523037
 31
0.0
  0
LINE
  5
   688
  8
0
  6
CONTINUOUS
 62
     2
 10
125.044819282253
 20
95.2632047926456
 30
0.0
 11
125.044819282253
 21
124.488200523037
 31
0.0
  0
ARC
  5
   689
  8
0
  6
CONTINUOUS
 62
     7
 10
112.794818644103
 20
95.0882023751546
 30
0.0
 40
1.3125023390205
 50
180.000125709671
 51
187.662301267597
  0
ARC
  5
   68A
  8
0
  6
CONTINUOUS
 62
     7
 10
100.544816195778
 20
95.0882087793155
 30
0.0
 40
1.31250826904194
 50
352.337451371484
 51
359.999970304232
  0
LINE
  5
   68B
  8
0
  6
CONTINUOUS
 62
     2
 10
125.044819282253
 20
95.2632047926456
 30
0.0
 11
88.294815972654
 21
95.2632047926456
 31
0.0
  0
LINE
  5
   68C
  8
0
  6
CONTINUOUS
 62
     2
 10
124.694819288214
 20
94.913204798606
 30
0.0
 11
88.6448159666936
 21
94.913204798606
 31
0.0
  0
LINE
  5
   68D
  8
0
  6
CONTINUOUS
 62
     2
 10
125.044819282253
 20
124.488200523037
 30
0.0
 11
88.294815972654
 21
124.488200523037
 31
0.0
  0
LINE
  5
   68E
  8
0
  6
CONTINUOUS
 62
     2
 10
125.044819282253
 20
120.113200597542
 30
0.0
 11
88.294815972654
 21
120.113200597542
 31
0.0
  0
LINE
  5
   68F
  8
0
  6
CONTINUOUS
 62
     2
 10
125.044819282253
 20
119.763200603503
 30
0.0
 11
88.294815972654
 21
119.763200603503
 31
0.0
  0
LINE
  5
   690
  8
0
  6
CONTINUOUS
 62
     7
 10
88.6448159666936
 20
94.913204798606
 30
0.0
 11
88.6448159666936
 21
95.2632047926456
 31
0.0
  0
LINE
  5
   691
  8
0
  6
CONTINUOUS
 62
     7
 10
124.694819288214
 20
94.913204798606
 30
0.0
 11
124.694819288214
 21
95.2632047926456
 31
0.0
  0
LINE
  5
   692
  8
0
  6
CONTINUOUS
 62
     7
 10
99.9323176886775
 20
133.063200377005
 30
0.0
 11
89.5198198872405
 21
133.063200377005
 31
0.0
  0
LINE
  5
   693
  8
0
  6
CONTINUOUS
 62
     7
 10
101.95776827422
 20
133.063200377005
 30
0.0
 11
101.157317667816
 21
133.063200377005
 31
0.0
  0
LINE
  5
   694
  8
0
  6
CONTINUOUS
 62
     7
 10
89.169819893201
 20
132.083199325579
 30
0.0
 11
89.169819893201
 21
132.713200382966
 31
0.0
  0
LINE
  5
   695
  8
0
  6
CONTINUOUS
 62
     7
 10
89.169819893201
 20
132.083199325579
 30
0.0
 11
88.2948199081021
 21
132.083199325579
 31
0.0
  0
LINE
  5
   696
  8
0
  6
CONTINUOUS
 62
     7
 10
88.294815972654
 20
124.488198767234
 30
0.0
 11
88.294815972654
 21
132.083199325579
 31
0.0
  0
LINE
  5
   697
  8
0
  6
CONTINUOUS
 62
     7
 10
101.419817663346
 20
130.788200415748
 30
0.0
 11
99.6698176931478
 21
130.788200415748
 31
0.0
  0
LINE
  5
   698
  8
0
  6
CONTINUOUS
 62
     7
 10
89.1698178185159
 20
124.488198767234
 30
0.0
 11
89.1698178185159
 21
132.083199325579
 31
0.0
  0
CIRCLE
  5
   699
  8
0
  6
CONTINUOUS
 62
     7
 10
94.4198195898811
 20
128.688197265962
 30
0.0
 40
1.9250004510233
  0
ARC
  5
   69A
  8
0
  6
CONTINUOUS
 62
     7
 10
89.5198207800682
 20
132.713200779281
 30
0.0
 40
0.350001390934821
 50
90.0000472185487
 51
180.000478784316
  0
LINE
  5
   69B
  8
0
  6
DASHDOT
 62
     7
 10
94.4198179188483
 20
130.123202102764
 30
0.0
 11
94.4198179188483
 21
133.203205220645
 31
0.0
  0
LINE
  5
   69C
  8
0
  6
DASHDOT
 62
     7
 10
94.4198195898811
 20
125.71319683282
 30
0.0
 11
94.4198195898811
 21
131.663197699104
 31
0.0
  0
LINE
  5
   69D
  8
0
  6
DASHDOT
 62
     7
 10
97.394820023023
 20
128.688197265962
 30
0.0
 11
91.4448191567392
 21
128.688197265962
 31
0.0
  0
LINE
  5
   69E
  8
0
  6
CONTINUOUS
 62
     7
 10
99.9323176886775
 20
132.013200394887
 30
0.0
 11
99.9323176886775
 21
133.063200377005
 31
0.0
  0
LINE
  5
   69F
  8
0
  6
CONTINUOUS
 62
     7
 10
101.157317667816
 20
132.013200394887
 30
0.0
 11
101.157317667816
 21
133.063200377005
 31
0.0
  0
LINE
  5
   6A0
  8
0
  6
CONTINUOUS
 62
     7
 10
99.6698176931478
 20
130.788200415748
 30
0.0
 11
99.6698176931478
 21
132.013200394887
 31
0.0
  0
LINE
  5
   6A1
  8
0
  6
CONTINUOUS
 62
     7
 10
101.419817663346
 20
130.788200415748
 30
0.0
 11
101.419817663346
 21
132.013200394887
 31
0.0
  0
LINE
  5
   6A2
  8
0
  6
CONTINUOUS
 62
     7
 10
101.419817663346
 20
132.013200394887
 30
0.0
 11
101.157317667816
 21
132.013200394887
 31
0.0
  0
LINE
  5
   6A3
  8
0
  6
CONTINUOUS
 62
     7
 10
99.9323176886775
 20
132.013200394887
 30
0.0
 11
99.6698176931478
 21
132.013200394887
 31
0.0
  0
LINE
  5
   6A4
  8
0
  6
CONTINUOUS
 62
     3
 10
124.607323275601
 20
133.938200362104
 30
0.0
 11
102.511577123903
 21
133.938200362104
 31
0.0
  0
LINE
  5
   6A5
  8
0
  6
CONTINUOUS
 62
     3
 10
125.044842125337
 20
124.488198767234
 30
0.0
 11
125.044842125337
 21
133.500660976278
 31
0.0
  0
LINE
  5
   6A6
  8
0
  6
CONTINUOUS
 62
     3
 10
124.222323816215
 20
124.838198761274
 30
0.0
 11
124.222323816215
 21
133.829471573672
 31
0.0
  0
LINE
  5
   6A7
  8
0
  6
CONTINUOUS
 62
     3
 10
122.96232437173
 20
124.838198761274
 30
0.0
 11
122.96232437173
 21
133.829471573672
 31
0.0
  0
LINE
  5
   6A8
  8
0
  6
CONTINUOUS
 62
     3
 10
121.702324927245
 20
124.838198761274
 30
0.0
 11
121.702324927245
 21
133.829471573672
 31
0.0
  0
LINE
  5
   6A9
  8
0
  6
CONTINUOUS
 62
     3
 10
120.442325482761
 20
124.838198761274
 30
0.0
 11
120.442325482761
 21
133.829471573672
 31
0.0
  0
LINE
  5
   6AA
  8
0
  6
CONTINUOUS
 62
     3
 10
119.182323367988
 20
124.838198761274
 30
0.0
 11
119.182323367988
 21
133.829471573672
 31
0.0
  0
LINE
  5
   6AB
  8
0
  6
CONTINUOUS
 62
     3
 10
117.922323923503
 20
124.838198761274
 30
0.0
 11
117.922323923503
 21
133.829471573672
 31
0.0
  0
LINE
  5
   6AC
  8
0
  6
CONTINUOUS
 62
     3
 10
116.662324479018
 20
124.838198761274
 30
0.0
 11
116.662324479018
 21
133.829471573672
 31
0.0
  0
LINE
  5
   6AD
  8
0
  6
CONTINUOUS
 62
     3
 10
115.402325034534
 20
124.838198761274
 30
0.0
 11
115.402325034534
 21
133.829471573672
 31
0.0
  0
LINE
  5
   6AE
  8
0
  6
CONTINUOUS
 62
     3
 10
114.142325590049
 20
124.838198761274
 30
0.0
 11
114.142325590049
 21
133.829471573672
 31
0.0
  0
LINE
  5
   6AF
  8
0
  6
CONTINUOUS
 62
     3
 10
112.882323475276
 20
124.838198761274
 30
0.0
 11
112.882323475276
 21
133.829471573672
 31
0.0
  0
LINE
  5
   6B0
  8
0
  6
CONTINUOUS
 62
     3
 10
111.622324030792
 20
124.838198761274
 30
0.0
 11
111.622324030792
 21
133.829471573672
 31
0.0
  0
LINE
  5
   6B1
  8
0
  6
CONTINUOUS
 62
     3
 10
110.362324586307
 20
124.838198761274
 30
0.0
 11
110.362324586307
 21
133.829471573672
 31
0.0
  0
LINE
  5
   6B2
  8
0
  6
CONTINUOUS
 62
     3
 10
109.102325141822
 20
124.838198761274
 30
0.0
 11
109.102325141822
 21
133.829471573672
 31
0.0
  0
LINE
  5
   6B3
  8
0
  6
CONTINUOUS
 62
     3
 10
107.842324362193
 20
124.838198761274
 30
0.0
 11
107.842324362193
 21
133.829471573672
 31
0.0
  0
LINE
  5
   6B4
  8
0
  6
CONTINUOUS
 62
     3
 10
106.582324917709
 20
124.838198761274
 30
0.0
 11
106.582324917709
 21
133.829471573672
 31
0.0
  0
LINE
  5
   6B5
  8
0
  6
CONTINUOUS
 62
     3
 10
105.322325473224
 20
124.838198761274
 30
0.0
 11
105.322325473224
 21
133.829471573672
 31
0.0
  0
LINE
  5
   6B6
  8
0
  6
CONTINUOUS
 62
     3
 10
104.062324693595
 20
124.838198761274
 30
0.0
 11
104.062324693595
 21
133.829471573672
 31
0.0
  0
LINE
  5
   6B7
  8
0
  6
CONTINUOUS
 62
     3
 10
102.802325249111
 20
124.838198761274
 30
0.0
 11
102.802325249111
 21
133.829471573672
 31
0.0
  0
POLYLINE
  5
   6B8
  8
0
  6
CONTINUOUS
 62
     3
 66
     1
 10
0.0
 20
0.0
 30
0.0
  0
VERTEX
  5
   6B9
  8
0
  6
CONTINUOUS
 10
102.511577123903
 20
133.938200110932
 30
0.0
 40
0.0
 41
0.0
  0
VERTEX
  5
   6BA
  8
0
  6
CONTINUOUS
 10
102.456499064638
 20
133.894557105047
 30
0.0
 40
0.0
 41
0.0
  0
VERTEX
  5
   6BB
  8
0
  6
CONTINUOUS
 10
102.404366694077
 20
133.849944561038
 30
0.0
 40
0.0
 41
0.0
  0
VERTEX
  5
   6BC
  8
0
  6
CONTINUOUS
 10
102.355170606566
 20
133.804364801078
 30
0.0
 40
0.0
 41
0.0
  0
VERTEX
  5
   6BD
  8
0
  6
CONTINUOUS
 10
102.308898160317
 20
133.757820946317
 30
0.0
 40
0.0
 41
0.0
  0
VERTEX
  5
   6BE
  8
0
  6
CONTINUOUS
 10
102.265532997167
 20
133.710317035443
 30
0.0
 40
0.0
 41
0.0
  0
VERTEX
  5
   6BF
  8
0
  6
CONTINUOUS
 10
102.244934400451
 20
133.686206601122
 30
0.0
 40
0.0
 41
0.0
  0
VERTEX
  5
   6C0
  8
0
  6
CONTINUOUS
 10
102.225054562351
 20
133.66185814325
 30
0.0
 40
0.0
 41
0.0
  0
VERTEX
  5
   6C1
  8
0
  6
CONTINUOUS
 10
102.205890179014
 20
133.63727247752
 30
0.0
 40
0.0
 41
0.0
  0
VERTEX
  5
   6C2
  8
0
  6
CONTINUOUS
 10
102.187437624269
 20
133.612450499203
 30
0.0
 40
0.0
 41
0.0
  0
VERTEX
  5
   6C3
  8
0
  6
CONTINUOUS
 10
102.169692934623
 20
133.58739318685
 30
0.0
 40
0.0
 41
0.0
  0
VERTEX
  5
   6C4
  8
0
  6
CONTINUOUS
 10
102.15265179425
 20
133.562101606001
 30
0.0
 40
0.0
 41
0.0
  0
VERTEX
  5
   6C5
  8
0
  6
CONTINUOUS
 10
102.136309519987
 20
133.53657691289
 30
0.0
 40
0.0
 41
0.0
  0
VERTEX
  5
   6C6
  8
0
  6
CONTINUOUS
 10
102.120661046323
 20
133.510820358146
 30
0.0
 40
0.0
 41
0.0
  0
VERTEX
  5
   6C7
  8
0
  6
CONTINUOUS
 10
102.105700910396
 20
133.484833290504
 30
0.0
 40
0.0
 41
0.0
  0
VERTEX
  5
   6C8
  8
0
  6
CONTINUOUS
 10
102.091423236981
 20
133.458617160506
 30
0.0
 40
0.0
 41
0.0
  0
VERTEX
  5
   6C9
  8
0
  6
CONTINUOUS
 10
102.077821723489
 20
133.432173524206
 30
0.0
 40
0.0
 41
0.0
  0
VERTEX
  5
   6CA
  8
0
  6
CONTINUOUS
 10
102.064889624952
 20
133.405504046879
 30
0.0
 40
0.0
 41
0.0
  0
VERTEX
  5
   6CB
  8
0
  6
CONTINUOUS
 10
102.041004390963
 20
133.351494798562
 30
0.0
 40
0.0
 41
0.0
  0
VERTEX
  5
   6CC
  8
0
  6
CONTINUOUS
 10
102.019704157509
 20
133.296605062914
 30
0.0
 40
0.0
 41
0.0
  0
VERTEX
  5
   6CD
  8
0
  6
CONTINUOUS
 10
102.000917508619
 20
133.24085247192
 30
0.0
 40
0.0
 41
0.0
  0
VERTEX
  5
   6CE
  8
0
  6
CONTINUOUS
 10
101.984564509627
 20
133.184256760759
 30
0.0
 40
0.0
 41
0.0
  0
VERTEX
  5
   6CF
  8
0
  6
CONTINUOUS
 10
101.970556226933
 20
133.126839886369
 30
0.0
 40
0.0
 41
0.0
  0
VERTEX
  5
   6D0
  8
0
  6
CONTINUOUS
 10
101.958794247777
 20
133.068626146011
 30
0.0
 40
0.0
 41
0.0
  0
VERTEX
  5
   6D1
  8
0
  6
CONTINUOUS
 10
101.949170200002
 20
133.009642295833
 30
0.0
 40
0.0
 41
0.0
  0
VERTEX
  5
   6D2
  8
0
  6
CONTINUOUS
 10
101.941565271822
 20
132.949917669439
 30
0.0
 40
0.0
 41
0.0
  0
VERTEX
  5
   6D3
  8
0
  6
CONTINUOUS
 10
101.935849731591
 20
132.889484296453
 30
0.0
 40
0.0
 41
0.0
  0
VERTEX
  5
   6D4
  8
0
  6
CONTINUOUS
 10
101.931083882706
 20
132.811594363303
 30
0.0
 40
0.0
 41
0.0
  0
VERTEX
  5
   6D5
  8
0
  6
CONTINUOUS
 10
101.928831795173
 20
132.732691423088
 30
0.0
 40
0.0
 41
0.0
  0
VERTEX
  5
   6D6
  8
0
  6
CONTINUOUS
 10
101.928749263047
 20
132.652861011617
 30
0.0
 40
0.0
 41
0.0
  0
VERTEX
  5
   6D7
  8
0
  6
CONTINUOUS
 10
101.930469826652
 20
132.572195045889
 30
0.0
 40
0.0
 41
0.0
  0
VERTEX
  5
   6D8
  8
0
  6
CONTINUOUS
 10
101.933609235844
 20
132.490791165616
 30
0.0
 40
0.0
 41
0.0
  0
VERTEX
  5
   6D9
  8
0
  6
CONTINUOUS
 10
101.937769913282
 20
132.408752074754
 30
0.0
 40
0.0
 41
0.0
  0
VERTEX
  5
   6DA
  8
0
  6
CONTINUOUS
 10
101.947524907135
 20
132.243200447433
 30
0.0
 40
0.0
 41
0.0
  0
VERTEX
  5
   6DB
  8
0
  6
CONTINUOUS
 10
101.956457249608
 20
132.076438058356
 30
0.0
 40
0.0
 41
0.0
  0
VERTEX
  5
   6DC
  8
0
  6
CONTINUOUS
 10
101.959606584817
 20
131.992894629087
 30
0.0
 40
0.0
 41
0.0
  0
VERTEX
  5
   6DD
  8
0
  6
CONTINUOUS
 10
101.961361795943
 20
131.909401687452
 30
0.0
 40
0.0
 41
0.0
  0
VERTEX
  5
   6DE
  8
0
  6
CONTINUOUS
 10
101.961356986703
 20
131.826078949813
 30
0.0
 40
0.0
 41
0.0
  0
VERTEX
  5
   6DF
  8
0
  6
CONTINUOUS
 10
101.959248639742
 20
131.743045928978
 30
0.0
 40
0.0
 41
0.0
  0
VERTEX
  5
   6E0
  8
0
  6
CONTINUOUS
 10
101.9547200799
 20
131.660421275726
 30
0.0
 40
0.0
 41
0.0
  0
VERTEX
  5
   6E1
  8
0
  6
CONTINUOUS
 10
101.951457697207
 20
131.619298767557
 30
0.0
 40
0.0
 41
0.0
  0
VERTEX
  5
   6E2
  8
0
  6
CONTINUOUS
 10
101.947485937482
 20
131.578322120338
 30
0.0
 40
0.0
 41
0.0
  0
VERTEX
  5
   6E3
  8
0
  6
CONTINUOUS
 10
101.942774753245
 20
131.537505629746
 30
0.0
 40
0.0
 41
0.0
  0
VERTEX
  5
   6E4
  8
0
  6
CONTINUOUS
 10
101.937296611517
 20
131.496863414116
 30
0.0
 40
0.0
 41
0.0
  0
VERTEX
  5
   6E5
  8
0
  6
CONTINUOUS
 10
101.931026633296
 20
131.456409393865
 30
0.0
 40
0.0
 41
0.0
  0
VERTEX
  5
   6E6
  8
0
  6
CONTINUOUS
 10
101.923942733032
 20
131.416157270914
 30
0.0
 40
0.0
 41
0.0
  0
VERTEX
  5
   6E7
  8
0
  6
CONTINUOUS
 10
101.916025758108
 20
131.376120508112
 30
0.0
 40
0.0
 41
0.0
  0
VERTEX
  5
   6E8
  8
0
  6
CONTINUOUS
 10
101.907259628313
 20
131.336312308659
 30
0.0
 40
0.0
 41
0.0
  0
VERTEX
  5
   6E9
  8
0
  6
CONTINUOUS
 10
101.897631475321
 20
131.296745595527
 30
0.0
 40
0.0
 41
0.0
  0
VERTEX
  5
   6EA
  8
0
  6
CONTINUOUS
 10
101.887131782171
 20
131.257432990884
 30
0.0
 40
0.0
 41
0.0
  0
VERTEX
  5
   6EB
  8
0
  6
CONTINUOUS
 10
101.871258120456
 20
131.203805826714
 30
0.0
 40
0.0
 41
0.0
  0
VERTEX
  5
   6EC
  8
0
  6
CONTINUOUS
 10
101.853720440248
 20
131.150713365199
 30
0.0
 40
0.0
 41
0.0
  0
VERTEX
  5
   6ED
  8
0
  6
CONTINUOUS
 10
101.834526072791
 20
131.098185005606
 30
0.0
 40
0.0
 41
0.0
  0
VERTEX
  5
   6EE
  8
0
  6
CONTINUOUS
 10
101.813693568734
 20
131.04624839696
 30
0.0
 40
0.0
 41
0.0
  0
VERTEX
  5
   6EF
  8
0
  6
CONTINUOUS
 10
101.791251814852
 20
130.994929174536
 30
0.0
 40
0.0
 41
0.0
  0
VERTEX
  5
   6F0
  8
0
  6
CONTINUOUS
 10
101.767239150775
 20
130.944250696343
 30
0.0
 40
0.0
 41
0.0
  0
VERTEX
  5
   6F1
  8
0
  6
CONTINUOUS
 10
101.741702485717
 20
130.894233779618
 30
0.0
 40
0.0
 41
0.0
  0
VERTEX
  5
   6F2
  8
0
  6
CONTINUOUS
 10
101.7146964152
 20
130.84489643731
 30
0.0
 40
0.0
 41
0.0
  0
VERTEX
  5
   6F3
  8
0
  6
CONTINUOUS
 10
101.686282337783
 20
130.796253614569
 30
0.0
 40
0.0
 41
0.0
  0
VERTEX
  5
   6F4
  8
0
  6
CONTINUOUS
 10
101.656527571789
 20
130.748316925234
 30
0.0
 40
0.0
 41
0.0
  0
VERTEX
  5
   6F5
  8
0
  6
CONTINUOUS
 10
101.62550447203
 20
130.701094388326
 30
0.0
 40
0.0
 41
0.0
  0
VERTEX
  5
   6F6
  8
0
  6
CONTINUOUS
 10
101.593289546534
 20
130.654590164529
 30
0.0
 40
0.0
 41
0.0
  0
VERTEX
  5
   6F7
  8
0
  6
CONTINUOUS
 10
101.559962573277
 20
130.608804292684
 30
0.0
 40
0.0
 41
0.0
  0
VERTEX
  5
   6F8
  8
0
  6
CONTINUOUS
 10
101.525605716904
 20
130.563732426275
 30
0.0
 40
0.0
 41
0.0
  0
VERTEX
  5
   6F9
  8
0
  6
CONTINUOUS
 10
101.490302645458
 20
130.519365569917
 30
0.0
 40
0.0
 41
0.0
  0
VERTEX
  5
   6FA
  8
0
  6
CONTINUOUS
 10
101.454137647107
 20
130.475689815845
 30
0.0
 40
0.0
 41
0.0
  0
VERTEX
  5
   6FB
  8
0
  6
CONTINUOUS
 10
101.417194746873
 20
130.432686080405
 30
0.0
 40
0.0
 41
0.0
  0
VERTEX
  5
   6FC
  8
0
  6
CONTINUOUS
 10
101.379556823356
 20
130.390329840537
 30
0.0
 40
0.0
 41
0.0
  0
VERTEX
  5
   6FD
  8
0
  6
CONTINUOUS
 10
101.341304725462
 20
130.348590870267
 30
0.0
 40
0.0
 41
0.0
  0
VERTEX
  5
   6FE
  8
0
  6
CONTINUOUS
 10
101.302516389131
 20
130.307432977194
 30
0.0
 40
0.0
 41
0.0
  0
VERTEX
  5
   6FF
  8
0
  6
CONTINUOUS
 10
101.254373497185
 20
130.257739051903
 30
0.0
 40
0.0
 41
0.0
  0
VERTEX
  5
   700
  8
0
  6
CONTINUOUS
 10
101.205664264757
 20
130.208762498109
 30
0.0
 40
0.0
 41
0.0
  0
VERTEX
  5
   701
  8
0
  6
CONTINUOUS
 10
101.107012860824
 20
130.11253692697
 30
0.0
 40
0.0
 41
0.0
  0
VERTEX
  5
   702
  8
0
  6
CONTINUOUS
 10
100.907694098856
 20
129.923522432473
 30
0.0
 40
0.0
 41
0.0
  0
VERTEX
  5
   703
  8
0
  6
CONTINUOUS
 10
100.808574371236
 20
129.828562457052
 30
0.0
 40
0.0
 41
0.0
  0
VERTEX
  5
   704
  8
0
  6
CONTINUOUS
 10
100.759484867818
 20
129.780483425537
 30
0.0
 40
0.0
 41
0.0
  0
VERTEX
  5
   705
  8
0
  6
CONTINUOUS
 10
100.71084341075
 20
129.731826321699
 30
0.0
 40
0.0
 41
0.0
  0
VERTEX
  5
   706
  8
0
  6
CONTINUOUS
 10
100.662757249444
 20
129.682464359195
 30
0.0
 40
0.0
 41
0.0
  0
VERTEX
  5
   707
  8
0
  6
CONTINUOUS
 10
100.615340488928
 20
129.632278817908
 30
0.0
 40
0.0
 41
0.0
  0
VERTEX
  5
   708
  8
0
  6
CONTINUOUS
 10
100.568715539618
 20
129.581160935141
 30
0.0
 40
0.0
 41
0.0
  0
VERTEX
  5
   709
  8
0
  6
CONTINUOUS
 10
100.523014567105
 20
129.529013796806
 30
0.0
 40
0.0
 41
0.0
  0
VERTEX
  5
   70A
  8
0
  6
CONTINUOUS
 10
100.478380941929
 20
129.475754228616
 30
0.0
 40
0.0
 41
0.0
  0
VERTEX
  5
   70B
  8
0
  6
CONTINUOUS
 10
100.43497068936
 20
129.421314687277
 30
0.0
 40
0.0
 41
0.0
  0
VERTEX
  5
   70C
  8
0
  6
CONTINUOUS
 10
100.392953939175
 20
129.365645151678
 30
0.0
 40
0.0
 41
0.0
  0
VERTEX
  5
   70D
  8
0
  6
CONTINUOUS
 10
100.352516375442
 20
129.308715014085
 30
0.0
 40
0.0
 41
0.0
  0
VERTEX
  5
   70E
  8
0
  6
CONTINUOUS
 10
100.326023686733
 20
129.269277009968
 30
0.0
 40
0.0
 41
0.0
  0
VERTEX
  5
   70F
  8
0
  6
CONTINUOUS
 10
100.300422720497
 20
129.229254284353
 30
0.0
 40
0.0
 41
0.0
  0
VERTEX
  5
   710
  8
0
  6
CONTINUOUS
 10
100.275784336273
 20
129.188654368982
 30
0.0
 40
0.0
 41
0.0
  0
VERTEX
  5
   711
  8
0
  6
CONTINUOUS
 10
100.252180816573
 20
129.147488986563
 30
0.0
 40
0.0
 41
0.0
  0
VERTEX
  5
   712
  8
0
  6
CONTINUOUS
 10
100.229684605574
 20
129.10577366653
 30
0.0
 40
0.0
 41
0.0
  0
VERTEX
  5
   713
  8
0
  6
CONTINUOUS
 10
100.208367047801
 20
129.063527360788
 30
0.0
 40
0.0
 41
0.0
  0
VERTEX
  5
   714
  8
0
  6
CONTINUOUS
 10
100.18829712682
 20
129.020772059479
 30
0.0
 40
0.0
 41
0.0
  0
VERTEX
  5
   715
  8
0
  6
CONTINUOUS
 10
100.169540203923
 20
128.977532406723
 30
0.0
 40
0.0
 41
0.0
  0
VERTEX
  5
   716
  8
0
  6
CONTINUOUS
 10
100.152156756819
 20
128.933835316384
 30
0.0
 40
0.0
 41
0.0
  0
VERTEX
  5
   717
  8
0
  6
CONTINUOUS
 10
100.136201118319
 20
128.889709587816
 30
0.0
 40
0.0
 41
0.0
  0
VERTEX
  5
   718
  8
0
  6
CONTINUOUS
 10
100.121720215029
 20
128.84518552162
 30
0.0
 40
0.0
 41
0.0
  0
VERTEX
  5
   719
  8
0
  6
CONTINUOUS
 10
100.108752306035
 20
128.8002945354
 30
0.0
 40
0.0
 41
0.0
  0
VERTEX
  5
   71A
  8
0
  6
CONTINUOUS
 10
100.097325721592
 20
128.755068779511
 30
0.0
 40
0.0
 41
0.0
  0
VERTEX
  5
   71B
  8
0
  6
CONTINUOUS
 10
100.087457601812
 20
128.709540752821
 30
0.0
 40
0.0
 41
0.0
  0
VERTEX
  5
   71C
  8
0
  6
CONTINUOUS
 10
100.079152635355
 20
128.663742918459
 30
0.0
 40
0.0
 41
0.0
  0
VERTEX
  5
   71D
  8
0
  6
CONTINUOUS
 10
100.072401798113
 20
128.617707319571
 30
0.0
 40
0.0
 41
0.0
  0
VERTEX
  5
   71E
  8
0
  6
CONTINUOUS
 10
100.067181091902
 20
128.571465195076
 30
0.0
 40
0.0
 41
0.0
  0
VERTEX
  5
   71F
  8
0
  6
CONTINUOUS
 10
100.063450283151
 20
128.525046595416
 30
0.0
 40
0.0
 41
0.0
  0
VERTEX
  5
   720
  8
0
  6
CONTINUOUS
 10
100.061151641586
 20
128.478479998314
 30
0.0
 40
0.0
 41
0.0
  0
VERTEX
  5
   721
  8
0
  6
CONTINUOUS
 10
100.060208678922
 20
128.431791924526
 30
0.0
 40
0.0
 41
0.0
  0
VERTEX
  5
   722
  8
0
  6
CONTINUOUS
 10
100.060353326268
 20
128.395279558636
 30
0.0
 40
0.0
 41
0.0
  0
VERTEX
  5
   723
  8
0
  6
CONTINUOUS
 10
100.061211036585
 20
128.358718383071
 30
0.0
 40
0.0
 41
0.0
  0
VERTEX
  5
   724
  8
0
  6
CONTINUOUS
 10
100.064812376571
 20
128.285486888844
 30
0.0
 40
0.0
 41
0.0
  0
VERTEX
  5
   725
  8
0
  6
CONTINUOUS
 10
100.070446743292
 20
128.212164787922
 30
0.0
 40
0.0
 41
0.0
  0
VERTEX
  5
   726
  8
0
  6
CONTINUOUS
 10
100.077469989859
 20
128.13881035703
 30
0.0
 40
0.0
 41
0.0
  0
VERTEX
  5
   727
  8
0
  6
CONTINUOUS
 10
100.092860221617
 20
127.992213624585
 30
0.0
 40
0.0
 41
0.0
  0
VERTEX
  5
   728
  8
0
  6
CONTINUOUS
 10
100.099764921237
 20
127.919074568388
 30
0.0
 40
0.0
 41
0.0
  0
VERTEX
  5
   729
  8
0
  6
CONTINUOUS
 10
100.105182143948
 20
127.846116792638
 30
0.0
 40
0.0
 41
0.0
  0
VERTEX
  5
   72A
  8
0
  6
CONTINUOUS
 10
100.108438394213
 20
127.773406625081
 30
0.0
 40
0.0
 41
0.0
  0
VERTEX
  5
   72B
  8
0
  6
CONTINUOUS
 10
100.109063198569
 20
127.737168384938
 30
0.0
 40
0.0
 41
0.0
  0
VERTEX
  5
   72C
  8
0
  6
CONTINUOUS
 10
100.108926628342
 20
127.701022683226
 30
0.0
 40
0.0
 41
0.0
  0
VERTEX
  5
   72D
  8
0
  6
CONTINUOUS
 10
100.108104441436
 20
127.66865596565
 30
0.0
 40
0.0
 41
0.0
  0
VERTEX
  5
   72E
  8
0
  6
CONTINUOUS
 10
100.106578882353
 20
127.63638350895
 30
0.0
 40
0.0
 41
0.0
  0
VERTEX
  5
   72F
  8
0
  6
CONTINUOUS
 10
100.104314652284
 20
127.604215767318
 30
0.0
 40
0.0
 41
0.0
  0
VERTEX
  5
   730
  8
0
  6
CONTINUOUS
 10
100.101280804587
 20
127.572163863703
 30
0.0
 40
0.0
 41
0.0
  0
VERTEX
  5
   731
  8
0
  6
CONTINUOUS
 10
100.097450591584
 20
127.54023952991
 30
0.0
 40
0.0
 41
0.0
  0
VERTEX
  5
   732
  8
0
  6
CONTINUOUS
 10
100.092801311358
 20
127.508455046704
 30
0.0
 40
0.0
 41
0.0
  0
VERTEX
  5
   733
  8
0
  6
CONTINUOUS
 10
100.087314154552
 20
127.476823183908
 30
0.0
 40
0.0
 41
0.0
  0
VERTEX
  5
   734
  8
0
  6
CONTINUOUS
 10
100.080974051171
 20
127.445357140508
 30
0.0
 40
0.0
 41
0.0
  0
VERTEX
  5
   735
  8
0
  6
CONTINUOUS
 10
100.073769517374
 20
127.414070484754
 30
0.0
 40
0.0
 41
0.0
  0
VERTEX
  5
   736
  8
0
  6
CONTINUOUS
 10
100.06569250228
 20
127.38297709426
 30
0.0
 40
0.0
 41
0.0
  0
VERTEX
  5
   737
  8
0
  6
CONTINUOUS
 10
100.056738234763
 20
127.352091096108
 30
0.0
 40
0.0
 41
0.0
  0
VERTEX
  5
   738
  8
0
  6
CONTINUOUS
 10
100.046905070251
 20
127.321426806947
 30
0.0
 40
0.0
 41
0.0
  0
VERTEX
  5
   739
  8
0
  6
CONTINUOUS
 10
100.036194337525
 20
127.290998673095
 30
0.0
 40
0.0
 41
0.0
  0
VERTEX
  5
   73A
  8
0
  6
CONTINUOUS
 10
100.024610185517
 20
127.260821210643
 30
0.0
 40
0.0
 41
0.0
  0
VERTEX
  5
   73B
  8
0
  6
CONTINUOUS
 10
100.01215943011
 20
127.230908945556
 30
0.0
 40
0.0
 41
0.0
  0
VERTEX
  5
   73C
  8
0
  6
CONTINUOUS
 10
99.9988514009353
 20
127.201276353771
 30
0.0
 40
0.0
 41
0.0
  0
VERTEX
  5
   73D
  8
0
  6
CONTINUOUS
 10
99.9846977881737
 20
127.171937801302
 30
0.0
 40
0.0
 41
0.0
  0
VERTEX
  5
   73E
  8
0
  6
CONTINUOUS
 10
99.9697124893507
 20
127.142907484342
 30
0.0
 40
0.0
 41
0.0
  0
VERTEX
  5
   73F
  8
0
  6
CONTINUOUS
 10
99.9539114561375
 20
127.114199369363
 30
0.0
 40
0.0
 41
0.0
  0
VERTEX
  5
   740
  8
0
  6
CONTINUOUS
 10
99.9373125411494
 20
127.085827133217
 30
0.0
 40
0.0
 41
0.0
  0
VERTEX
  5
   741
  8
0
  6
CONTINUOUS
 10
99.9199353447439
 20
127.05780410324
 30
0.0
 40
0.0
 41
0.0
  0
VERTEX
  5
   742
  8
0
  6
CONTINUOUS
 10
99.90180106182
 20
127.030143197352
 30
0.0
 40
0.0
 41
0.0
  0
VERTEX
  5
   743
  8
0
  6
CONTINUOUS
 10
99.8829323286166
 20
127.002856864157
 30
0.0
 40
0.0
 41
0.0
  0
VERTEX
  5
   744
  8
0
  6
CONTINUOUS
 10
99.8633530695113
 20
126.97595702305
 30
0.0
 40
0.0
 41
0.0
  0
VERTEX
  5
   745
  8
0
  6
CONTINUOUS
 10
99.8430883438191
 20
126.949455004312
 30
0.0
 40
0.0
 41
0.0
  0
VERTEX
  5
   746
  8
0
  6
CONTINUOUS
 10
99.822164192591
 20
126.923361489215
 30
0.0
 40
0.0
 41
0.0
  0
VERTEX
  5
   747
  8
0
  6
CONTINUOUS
 10
99.8006074854128
 20
126.897686450125
 30
0.0
 40
0.0
 41
0.0
  0
VERTEX
  5
   748
  8
0
  6
CONTINUOUS
 10
99.7784457672038
 20
126.872439090601
 30
0.0
 40
0.0
 41
0.0
  0
VERTEX
  5
   749
  8
0
  6
CONTINUOUS
 10
99.7557071050157
 20
126.847627785497
 30
0.0
 40
0.0
 41
0.0
  0
VERTEX
  5
   74A
  8
0
  6
CONTINUOUS
 10
99.7324199348307
 20
126.823260021064
 30
0.0
 40
0.0
 41
0.0
  0
VERTEX
  5
   74B
  8
0
  6
CONTINUOUS
 10
99.6843147398466
 20
126.775880256813
 30
0.0
 40
0.0
 41
0.0
  0
VERTEX
  5
   74C
  8
0
  6
CONTINUOUS
 10
99.6343592270796
 20
126.730339639661
 30
0.0
 40
0.0
 41
0.0
  0
VERTEX
  5
   74D
  8
0
  6
CONTINUOUS
 10
99.5827785393689
 20
126.686659960277
 30
0.0
 40
0.0
 41
0.0
  0
VERTEX
  5
   74E
  8
0
  6
CONTINUOUS
 10
99.5297890151238
 20
126.644843041437
 30
0.0
 40
0.0
 41
0.0
  0
VERTEX
  5
   74F
  8
0
  6
CONTINUOUS
 10
99.4755932858821
 20
126.604868821277
 30
0.0
 40
0.0
 41
0.0
  0
VERTEX
  5
   750
  8
0
  6
CONTINUOUS
 10
99.4284941019179
 20
126.572157055581
 30
0.0
 40
0.0
 41
0.0
  0
VERTEX
  5
   751
  8
0
  6
CONTINUOUS
 10
99.3807518330768
 20
126.54071607131
 30
0.0
 40
0.0
 41
0.0
  0
VERTEX
  5
   752
  8
0
  6
CONTINUOUS
 10
99.3324569177899
 20
126.510491766455
 30
0.0
 40
0.0
 41
0.0
  0
VERTEX
  5
   753
  8
0
  6
CONTINUOUS
 10
99.2836891096405
 20
126.481418677388
 30
0.0
 40
0.0
 41
0.0
  0
VERTEX
  5
   754
  8
0
  6
CONTINUOUS
 10
99.2345183881046
 20
126.453421138035
 30
0.0
 40
0.0
 41
0.0
  0
VERTEX
  5
   755
  8
0
  6
CONTINUOUS
 10
99.1850058692906
 20
126.426414439034
 30
0.0
 40
0.0
 41
0.0
  0
VERTEX
  5
   756
  8
0
  6
CONTINUOUS
 10
99.1352047166806
 20
126.400305986903
 30
0.0
 40
0.0
 41
0.0
  0
VERTEX
  5
   757
  8
0
  6
CONTINUOUS
 10
99.0851610518705
 20
126.374996463203
 30
0.0
 40
0.0
 41
0.0
  0
VERTEX
  5
   758
  8
0
  6
CONTINUOUS
 10
98.9845009270435
 20
126.326350257558
 30
0.0
 40
0.0
 41
0.0
  0
VERTEX
  5
   759
  8
0
  6
CONTINUOUS
 10
98.883288237986
 20
126.279590823743
 30
0.0
 40
0.0
 41
0.0
  0
VERTEX
  5
   75A
  8
0
  6
CONTINUOUS
 10
98.6800133696118
 20
126.18806230773
 30
0.0
 40
0.0
 41
0.0
  0
VERTEX
  5
   75B
  8
0
  6
CONTINUOUS
 10
98.5783213374546
 20
126.141504538196
 30
0.0
 40
0.0
 41
0.0
  0
VERTEX
  5
   75C
  8
0
  6
CONTINUOUS
 10
98.4768753227727
 20
126.093330352367
 30
0.0
 40
0.0
 41
0.0
  0
VERTEX
  5
   75D
  8
0
  6
CONTINUOUS
 10
98.4193072397478
 20
126.064901591645
 30
0.0
 40
0.0
 41
0.0
  0
VERTEX
  5
   75E
  8
0
  6
CONTINUOUS
 10
98.3619727326224
 20
126.035618895745
 30
0.0
 40
0.0
 41
0.0
  0
VERTEX
  5
   75F
  8
0
  6
CONTINUOUS
 10
98.3049444285381
 20
126.005391604716
 30
0.0
 40
0.0
 41
0.0
  0
VERTEX
  5
   760
  8
0
  6
CONTINUOUS
 10
98.2483028926291
 20
125.97414324902
 30
0.0
 40
0.0
 41
0.0
  0
VERTEX
  5
   761
  8
0
  6
CONTINUOUS
 10
98.1921357901584
 20
125.941810642372
 30
0.0
 40
0.0
 41
0.0
  0
VERTEX
  5
   762
  8
0
  6
CONTINUOUS
 10
98.1365370486538
 20
125.908342974591
 30
0.0
 40
0.0
 41
0.0
  0
VERTEX
  5
   763
  8
0
  6
CONTINUOUS
 10
98.0816060200447
 20
125.873700904449
 30
0.0
 40
0.0
 41
0.0
  0
VERTEX
  5
   764
  8
0
  6
CONTINUOUS
 10
98.0274466427984
 20
125.837855652523
 30
0.0
 40
0.0
 41
0.0
  0
VERTEX
  5
   765
  8
0
  6
CONTINUOUS
 10
97.974166604056
 20
125.800788094036
 30
0.0
 40
0.0
 41
0.0
  0
VERTEX
  5
   766
  8
0
  6
CONTINUOUS
 10
97.9218765017689
 20
125.762487851713
 30
0.0
 40
0.0
 41
0.0
  0
VERTEX
  5
   767
  8
0
  6
CONTINUOUS
 10
97.8706890068357
 20
125.722952388627
 30
0.0
 40
0.0
 41
0.0
  0
VERTEX
  5
   768
  8
0
  6
CONTINUOUS
 10
97.8207180252377
 20
125.682186101044
 30
0.0
 40
0.0
 41
0.0
  0
VERTEX
  5
   769
  8
0
  6
CONTINUOUS
 10
97.7720778601755
 20
125.640199411279
 30
0.0
 40
0.0
 41
0.0
  0
VERTEX
  5
   76A
  8
0
  6
CONTINUOUS
 10
97.7248823742057
 20
125.597007860538
 30
0.0
 40
0.0
 41
0.0
  0
VERTEX
  5
   76B
  8
0
  6
CONTINUOUS
 10
97.6792441513768
 20
125.55263120177
 30
0.0
 40
0.0
 41
0.0
  0
VERTEX
  5
   76C
  8
0
  6
CONTINUOUS
 10
97.6352736593657
 20
125.507092492516
 30
0.0
 40
0.0
 41
0.0
  0
VERTEX
  5
   76D
  8
0
  6
CONTINUOUS
 10
97.5930784116138
 20
125.460417187756
 30
0.0
 40
0.0
 41
0.0
  0
VERTEX
  5
   76E
  8
0
  6
CONTINUOUS
 10
97.5527621294639
 20
125.412632232757
 30
0.0
 40
0.0
 41
0.0
  0
VERTEX
  5
   76F
  8
0
  6
CONTINUOUS
 10
97.5144239042959
 20
125.363765155924
 30
0.0
 40
0.0
 41
0.0
  0
VERTEX
  5
   770
  8
0
  6
CONTINUOUS
 10
97.4781573596634
 20
125.313843161648
 30
0.0
 40
0.0
 41
0.0
  0
VERTEX
  5
   771
  8
0
  6
CONTINUOUS
 10
97.4483495752813
 20
125.269558938218
 30
0.0
 40
0.0
 41
0.0
  0
VERTEX
  5
   772
  8
0
  6
CONTINUOUS
 10
97.42023041486
 20
125.224511405786
 30
0.0
 40
0.0
 41
0.0
  0
VERTEX
  5
   773
  8
0
  6
CONTINUOUS
 10
97.3938492592885
 20
125.178715345791
 30
0.0
 40
0.0
 41
0.0
  0
VERTEX
  5
   774
  8
0
  6
CONTINUOUS
 10
97.3692516951475
 20
125.132184403903
 30
0.0
 40
0.0
 41
0.0
  0
VERTEX
  5
   775
  8
0
  6
CONTINUOUS
 10
97.3464796664277
 20
125.084931135434
 30
0.0
 40
0.0
 41
0.0
  0
VERTEX
  5
   776
  8
0
  6
CONTINUOUS
 10
97.3255716262477
 20
125.036967050758
 30
0.0
 40
0.0
 41
0.0
  0
VERTEX
  5
   777
  8
0
  6
CONTINUOUS
 10
97.3065626885721
 20
124.988302660721
 30
0.0
 40
0.0
 41
0.0
  0
VERTEX
  5
   778
  8
0
  6
CONTINUOUS
 10
97.2894847799298
 20
124.938947522057
 30
0.0
 40
0.0
 41
0.0
  0
VERTEX
  5
   779
  8
0
  6
CONTINUOUS
 10
97.2743667911318
 20
124.888910282803
 30
0.0
 40
0.0
 41
0.0
  0
VERTEX
  5
   77A
  8
0
  6
CONTINUOUS
 10
97.2612347289897
 20
124.838198727715
 30
0.0
 40
0.0
 41
0.0
  0
SEQEND
  5
   77B
  8
0
  6
CONTINUOUS
 62
     3
  0
LINE
  5
   77C
  8
0
  6
CONTINUOUS
 62
     7
 10
125.044842125337
 20
124.838198761274
 30
0.0
 11
97.2612347289897
 21
124.838198761274
 31
0.0
  0
LINE
  5
   77D
  8
0
  6
CONTINUOUS
 62
     7
 10
124.694842131297
 20
124.488198767234
 30
0.0
 11
124.694842131297
 21
124.838198761274
 31
0.0
  0
LINE
  5
   77E
  8
0
  6
CONTINUOUS
 62
     3
 10
101.542325804626
 20
124.838198761274
 30
0.0
 11
101.542325804626
 21
130.585416089672
 31
0.0
  0
LINE
  5
   77F
  8
0
  6
CONTINUOUS
 62
     3
 10
100.282326360141
 20
124.838198761274
 30
0.0
 11
100.282326360141
 21
129.199654027975
 31
0.0
  0
LINE
  5
   780
  8
0
  6
CONTINUOUS
 62
     3
 10
99.0223269156563
 20
124.838198761274
 30
0.0
 11
99.0223269156563
 21
126.344287061062
 31
0.0
  0
LINE
  5
   781
  8
0
  6
CONTINUOUS
 62
     3
 10
97.7623274711716
 20
124.838198761274
 30
0.0
 11
97.7623274711716
 21
125.631484882431
 31
0.0
  0
ARC
  5
   782
  8
0
  6
CONTINUOUS
 62
     3
 10
124.607323671708
 20
133.500702219023
 30
0.0
 40
0.437500460157204
 50
360.000287653909
 51
449.999800479664
  0
LINE
  5
   783
  8
0
  6
CONTINUOUS
 62
     3
 10
124.607323275601
 20
13.5382237748085
 30
0.0
 11
88.7309854723972
 21
13.5382237748085
 31
0.0
  0
ARC
  5
   784
  8
0
  6
CONTINUOUS
 62
     3
 10
124.607323671708
 20
13.9757219178897
 30
0.0
 40
0.437500460157204
 50
270.000199416405
 51
359.99971224216
  0
LINE
  5
   785
  8
0
  6
CONTINUOUS
 62
     3
 10
125.044842125337
 20
13.9757631606341
 30
0.0
 11
125.044842125337
 21
22.9882253696782
 31
0.0
  0
LINE
  5
   786
  8
0
  6
CONTINUOUS
 62
     7
 10
125.044842125337
 20
22.6382253756386
 30
0.0
 11
88.2948909001687
 21
22.6382253756386
 31
0.0
  0
LINE
  5
   787
  8
0
  6
CONTINUOUS
 62
     7
 10
124.694842131297
 20
22.6382253756386
 30
0.0
 11
124.694842131297
 21
22.9882253696782
 31
0.0
  0
LINE
  5
   788
  8
0
  6
CONTINUOUS
 62
     2
 10
125.044819282253
 20
22.9882236138759
 30
0.0
 11
88.294815972654
 21
22.9882236138759
 31
0.0
  0
LINE
  5
   789
  8
0
  6
CONTINUOUS
 62
     3
 10
99.0223269156563
 20
13.5382237748085
 30
0.0
 11
99.0223269156563
 21
22.6382253756386
 31
0.0
  0
LINE
  5
   78A
  8
0
  6
CONTINUOUS
 62
     3
 10
100.282326360141
 20
13.5382237748085
 30
0.0
 11
100.282326360141
 21
22.6382253756386
 31
0.0
  0
LINE
  5
   78B
  8
0
  6
CONTINUOUS
 62
     3
 10
101.542325804626
 20
13.5382237748085
 30
0.0
 11
101.542325804626
 21
22.6382253756386
 31
0.0
  0
LINE
  5
   78C
  8
0
  6
CONTINUOUS
 62
     3
 10
102.802325249111
 20
13.64695256324
 30
0.0
 11
102.802325249111
 21
22.6382253756386
 31
0.0
  0
LINE
  5
   78D
  8
0
  6
CONTINUOUS
 62
     3
 10
104.062324693595
 20
13.64695256324
 30
0.0
 11
104.062324693595
 21
22.6382253756386
 31
0.0
  0
LINE
  5
   78E
  8
0
  6
CONTINUOUS
 62
     3
 10
106.582324917709
 20
13.64695256324
 30
0.0
 11
106.582324917709
 21
22.6382253756386
 31
0.0
  0
LINE
  5
   78F
  8
0
  6
CONTINUOUS
 62
     3
 10
107.842324362193
 20
13.64695256324
 30
0.0
 11
107.842324362193
 21
22.6382253756386
 31
0.0
  0
LINE
  5
   790
  8
0
  6
CONTINUOUS
 62
     3
 10
109.102325141822
 20
13.64695256324
 30
0.0
 11
109.102325141822
 21
22.6382253756386
 31
0.0
  0
LINE
  5
   791
  8
0
  6
CONTINUOUS
 62
     3
 10
110.362324586307
 20
13.64695256324
 30
0.0
 11
110.362324586307
 21
22.6382253756386
 31
0.0
  0
LINE
  5
   792
  8
0
  6
CONTINUOUS
 62
     3
 10
111.622324030792
 20
13.64695256324
 30
0.0
 11
111.622324030792
 21
22.6382253756386
 31
0.0
  0
LINE
  5
   793
  8
0
  6
CONTINUOUS
 62
     3
 10
112.882323475276
 20
13.64695256324
 30
0.0
 11
112.882323475276
 21
22.6382253756386
 31
0.0
  0
LINE
  5
   794
  8
0
  6
CONTINUOUS
 62
     3
 10
114.142325590049
 20
13.64695256324
 30
0.0
 11
114.142325590049
 21
22.6382253756386
 31
0.0
  0
LINE
  5
   795
  8
0
  6
CONTINUOUS
 62
     3
 10
115.402325034534
 20
13.64695256324
 30
0.0
 11
115.402325034534
 21
22.6382253756386
 31
0.0
  0
LINE
  5
   796
  8
0
  6
CONTINUOUS
 62
     3
 10
116.662324479018
 20
13.64695256324
 30
0.0
 11
116.662324479018
 21
22.6382253756386
 31
0.0
  0
LINE
  5
   797
  8
0
  6
CONTINUOUS
 62
     3
 10
117.922323923503
 20
13.64695256324
 30
0.0
 11
117.922323923503
 21
22.6382253756386
 31
0.0
  0
LINE
  5
   798
  8
0
  6
CONTINUOUS
 62
     3
 10
119.182323367988
 20
13.64695256324
 30
0.0
 11
119.182323367988
 21
22.6382253756386
 31
0.0
  0
LINE
  5
   799
  8
0
  6
CONTINUOUS
 62
     3
 10
120.442325482761
 20
13.64695256324
 30
0.0
 11
120.442325482761
 21
22.6382253756386
 31
0.0
  0
LINE
  5
   79A
  8
0
  6
CONTINUOUS
 62
     3
 10
121.702324927245
 20
13.64695256324
 30
0.0
 11
121.702324927245
 21
22.6382253756386
 31
0.0
  0
LINE
  5
   79B
  8
0
  6
CONTINUOUS
 62
     3
 10
122.96232437173
 20
13.64695256324
 30
0.0
 11
122.96232437173
 21
22.6382253756386
 31
0.0
  0
LINE
  5
   79C
  8
0
  6
CONTINUOUS
 62
     3
 10
124.222323816215
 20
13.64695256324
 30
0.0
 11
124.222323816215
 21
22.6382253756386
 31
0.0
  0
ARC
  5
   79D
  8
0
  6
CONTINUOUS
 62
     3
 10
88.7324093537977
 20
13.9757219178897
 30
0.0
 40
0.437500460157204
 50
179.999999948034
 51
269.81352576976
  0
LINE
  5
   79E
  8
0
  6
CONTINUOUS
 62
     3
 10
88.2948909001687
 20
13.9757631606341
 30
0.0
 11
88.2948909001687
 21
22.9882253696782
 31
0.0
  0
LINE
  5
   79F
  8
0
  6
CONTINUOUS
 62
     3
 10
89.1174092092904
 20
13.64695256324
 30
0.0
 11
89.1174092092904
 21
22.6382253756386
 31
0.0
  0
LINE
  5
   7A0
  8
0
  6
CONTINUOUS
 62
     3
 10
90.3774086537751
 20
13.64695256324
 30
0.0
 11
90.3774086537751
 21
22.6382253756386
 31
0.0
  0
LINE
  5
   7A1
  8
0
  6
CONTINUOUS
 62
     3
 10
91.6374080982599
 20
13.64695256324
 30
0.0
 11
91.6374080982599
 21
22.6382253756386
 31
0.0
  0
LINE
  5
   7A2
  8
0
  6
CONTINUOUS
 62
     3
 10
92.8974075427446
 20
13.64695256324
 30
0.0
 11
92.8974075427446
 21
22.6382253756386
 31
0.0
  0
LINE
  5
   7A3
  8
0
  6
CONTINUOUS
 62
     3
 10
94.1574096575173
 20
13.64695256324
 30
0.0
 11
94.1574096575173
 21
22.6382253756386
 31
0.0
  0
LINE
  5
   7A4
  8
0
  6
CONTINUOUS
 62
     3
 10
95.4174091020021
 20
13.64695256324
 30
0.0
 11
95.4174091020021
 21
22.6382253756386
 31
0.0
  0
LINE
  5
   7A5
  8
0
  6
CONTINUOUS
 62
     3
 10
96.6774085464868
 20
13.64695256324
 30
0.0
 11
96.6774085464868
 21
22.6382253756386
 31
0.0
  0
LINE
  5
   7A6
  8
0
  6
CONTINUOUS
 62
     3
 10
97.9374079909715
 20
13.64695256324
 30
0.0
 11
97.9374079909715
 21
22.6382253756386
 31
0.0
  0
LINE
  5
   7A7
  8
0
  6
CONTINUOUS
 62
     3
 10
105.322324805652
 20
13.64695256324
 30
0.0
 11
105.322324805652
 21
22.6382253756386
 31
0.0
  0
POINT
  5
   7A8
  8
0
  6
CONTINUOUS
 62
     7
 10
106.669829863896
 20
133.938200362104
 30
0.0
  0
INSERT
  5
   7A9
  8
255
  6
CONTINUOUS
 62
     7
  2
T_A_D_F_
 10
106.669846052024
 20
98.9381949298873
 30
0.0
 41
0.349999994039536
 42
0.349999994039536
 50
3.50835464724173E-15
 43
0.349999994039536
  0
LINE
  5
   7AA
  8
0
  6
CONTINUOUS
 62
     7
 10
83.9198341749436
 20
2.33824067495862
 30
0.0
 11
90.9198360584503
 21
9.32073868640403
 31
0.0
  0
LINE
  5
   7AB
  8
0
  6
CONTINUOUS
 62
     7
 10
83.9198341749436
 20
-4.66175386525602
 30
0.0
 11
83.9198341749436
 21
2.33824067495861
 31
0.0
  0
LINE
  5
   7AC
  8
0
  6
CONTINUOUS
 62
     7
 10
94.4198339961296
 20
-4.66176454640819
 30
0.0
 11
94.4198339961296
 21
2.3382406749586
 31
0.0
  0
LINE
  5
   7AD
  8
0
  6
CONTINUOUS
 62
     7
 10
94.4198339961296
 20
2.33820238482778
 30
0.0
 11
97.919835271669
 21
9.32074739778224
 31
0.0
  0
CIRCLE
  5
   7AE
  8
0
  6
CONTINUOUS
 62
     7
 10
89.1698340828876
 20
-0.286759280337911
 30
0.0
 40
1.48749993727131
  0
LINE
  5
   7AF
  8
0
  6
CONTINUOUS
 62
     7
 10
90.9198360584503
 20
9.32073868640402
 30
0.0
 11
90.9198360584503
 21
13.5382237748085
 31
0.0
  0
LINE
  5
   7B0
  8
0
  6
CONTINUOUS
 62
     7
 10
97.919835271669
 20
9.32074739778222
 30
0.0
 11
97.919835271669
 21
13.5382237748085
 31
0.0
  0
LINE
  5
   7B1
  8
0
  6
CONTINUOUS
 62
     7
 10
97.4819569560333
 20
9.36811407031712
 30
0.0
 11
91.4746429017016
 21
9.36811407031712
 31
0.0
  0
LINE
  5
   7B2
  8
0
  6
CONTINUOUS
 62
     7
 10
97.4270120104144
 20
12.6322682790181
 30
0.0
 11
91.5112728654475
 21
12.6322682790181
 31
0.0
  0
LINE
  5
   7B3
  8
0
  6
CONTINUOUS
 62
     7
 10
94.4198339719092
 20
-4.6617645464082
 30
0.0
 11
83.9198341415763
 21
-4.66175386525602
 31
0.0
  0
LINE
  5
   7B4
  8
0
  6
CONTINUOUS
 62
     7
 10
115.419833638502
 20
9.3207395963757
 30
0.0
 11
115.419833638502
 21
13.5382237748085
 31
0.0
  0
LINE
  5
   7B5
  8
0
  6
CONTINUOUS
 62
     7
 10
122.419833519292
 20
9.32073856762464
 30
0.0
 11
122.419833519292
 21
13.5382237748085
 31
0.0
  0
LINE
  5
   7B6
  8
0
  6
CONTINUOUS
 62
     7
 10
121.927007379146
 20
12.6322682790181
 30
0.0
 11
116.011268234179
 21
12.6322682790181
 31
0.0
  0
LINE
  5
   7B7
  8
0
  6
CONTINUOUS
 62
     7
 10
121.981952324765
 20
9.36811407031712
 30
0.0
 11
115.974638270433
 21
9.36811407031712
 31
0.0
  0
LINE
  5
   7B8
  8
0
  6
CONTINUOUS
 62
     7
 10
118.919834610227
 20
2.33824067495858
 30
0.0
 11
115.419833638502
 21
9.32073959637566
 31
0.0
  0
LINE
  5
   7B9
  8
0
  6
CONTINUOUS
 62
     7
 10
129.419834431413
 20
2.33824067495856
 30
0.0
 11
122.419833519292
 21
9.32073856762462
 31
0.0
  0
LINE
  5
   7BA
  8
0
  6
CONTINUOUS
 62
     7
 10
118.919834610227
 20
-4.66176454640818
 30
0.0
 11
118.919834610227
 21
2.33824067495862
 31
0.0
  0
LINE
  5
   7BB
  8
0
  6
CONTINUOUS
 62
     7
 10
129.419834431413
 20
-4.66175386525602
 30
0.0
 11
129.419834431413
 21
2.33824067495862
 31
0.0
  0
LINE
  5
   7BC
  8
0
  6
CONTINUOUS
 62
     7
 10
118.919834623275
 20
-4.66176454640824
 30
0.0
 11
129.419834435314
 21
-4.66175386525608
 31
0.0
  0
CIRCLE
  5
   7BD
  8
0
  6
CONTINUOUS
 62
     7
 10
124.16983452082
 20
-0.286759280337932
 30
0.0
 40
1.48749985579942
  0
LINE
  5
   7BE
  8
0
  6
CONTINUOUS
 62
     7
 10
111.919829774489
 20
-4.66175908755883
 30
0.0
 11
101.419829953303
 21
-4.66175908755883
 31
0.0
  0
LINE
  5
   7BF
  8
0
  6
CONTINUOUS
 62
     7
 10
103.16981437377
 20
9.33811627727866
 30
0.0
 11
103.16981437377
 21
13.5382237748085
 31
0.0
  0
LINE
  5
   7C0
  8
0
  6
CONTINUOUS
 62
     7
 10
110.16981425456
 20
9.33824067402268
 30
0.0
 11
110.16981425456
 21
13.5382237748085
 31
0.0
  0
LINE
  5
   7C1
  8
0
  6
CONTINUOUS
 62
     7
 10
101.419829953303
 20
2.33824079323178
 30
0.0
 11
103.169845473232
 21
9.33824067402252
 31
0.0
  0
LINE
  5
   7C2
  8
0
  6
CONTINUOUS
 62
     7
 10
111.919829774489
 20
2.33824079323189
 30
0.0
 11
110.16981425456
 21
9.33824067402263
 31
0.0
  0
LINE
  5
   7C3
  8
0
  6
CONTINUOUS
 62
     7
 10
111.919829774489
 20
-4.66175908755882
 30
0.0
 11
111.919829774489
 21
2.33824079323187
 31
0.0
  0
LINE
  5
   7C4
  8
0
  6
CONTINUOUS
 62
     7
 10
101.419829953303
 20
-4.66175908755882
 30
0.0
 11
101.419829953303
 21
2.33824079323186
 31
0.0
  0
CIRCLE
  5
   7C5
  8
0
  6
CONTINUOUS
 62
     7
 10
106.669829863896
 20
-0.286759162064669
 30
0.0
 40
1.48749997466803
  0
LINE
  5
   7C6
  8
0
  6
CONTINUOUS
 62
     7
 10
109.731933060033
 20
9.36811407031712
 30
0.0
 11
103.724619005701
 21
9.36811407031712
 31
0.0
  0
LINE
  5
   7C7
  8
0
  6
CONTINUOUS
 62
     7
 10
109.676988114414
 20
12.6322682790181
 30
0.0
 11
103.761248969447
 21
12.6322682790181
 31
0.0
  0
LINE
  5
   7C8
  8
0
  6
CONTINUOUS
 62
     1
 10
114.719833624976
 20
12.4882237926899
 30
0.0
 11
114.719833624976
 21
13.5382237748085
 31
0.0
  0
LINE
  5
   7C9
  8
0
  6
CONTINUOUS
 62
     1
 10
112.269833666699
 20
12.4882237926898
 30
0.0
 11
110.869833690541
 21
12.4882237926898
 31
0.0
  0
LINE
  5
   7CA
  8
0
  6
CONTINUOUS
 62
     1
 10
114.719833624976
 20
12.4882237926898
 30
0.0
 11
113.319833648818
 21
12.4882237926898
 31
0.0
  0
LINE
  5
   7CB
  8
0
  6
CONTINUOUS
 62
     1
 10
110.869833690541
 20
12.4882237926899
 30
0.0
 11
110.869833690541
 21
13.5382237748085
 31
0.0
  0
LINE
  5
   7CC
  8
0
  6
CONTINUOUS
 62
     1
 10
114.719833624976
 20
13.1882237807689
 30
0.0
 11
110.869833690541
 21
13.1882237807689
 31
0.0
  0
LINE
  5
   7CD
  8
0
  6
CONTINUOUS
 62
     1
 10
113.319833648818
 20
8.22414759479096
 30
0.0
 11
113.319833648818
 21
12.4882237926899
 31
0.0
  0
LINE
  5
   7CE
  8
0
  6
DASHDOT
 62
     7
 10
112.794833657759
 20
8.73702557231791
 30
0.0
 11
112.794833657759
 21
14.6318974521343
 31
0.0
  0
LINE
  5
   7CF
  8
0
  6
CONTINUOUS
 62
     1
 10
116.889538759254
 20
2.15564946197793
 30
0.0
 11
113.319833648818
 21
8.22414759479092
 31
0.0
  0
LINE
  5
   7D0
  8
0
  6
CONTINUOUS
 62
     1
 10
115.829262438373
 20
1.88719551166162
 30
0.0
 11
112.269833666699
 21
7.93822387017588
 31
0.0
  0
LINE
  5
   7D1
  8
0
  6
CONTINUOUS
 62
     1
 10
112.269833666699
 20
7.93822387017589
 30
0.0
 11
112.269833666699
 21
12.4882237926899
 31
0.0
  0
LINE
  5
   7D2
  8
0
  6
CONTINUOUS
 62
     1
 10
115.878323751143
 20
-21.2201250850301
 30
0.0
 11
115.829262438373
 21
1.88719551166074
 31
0.0
  0
LINE
  5
   7D3
  8
0
  6
CONTINUOUS
 62
     1
 10
98.6198584790726
 20
12.4882237926899
 30
0.0
 11
98.6198584790726
 21
13.5382237748085
 31
0.0
  0
LINE
  5
   7D4
  8
0
  6
CONTINUOUS
 62
     1
 10
102.469858413507
 20
12.4882237926898
 30
0.0
 11
101.069858437349
 21
12.4882237926898
 31
0.0
  0
LINE
  5
   7D5
  8
0
  6
CONTINUOUS
 62
     1
 10
100.019858455231
 20
12.4882237926898
 30
0.0
 11
98.6198584790726
 21
12.4882237926898
 31
0.0
  0
LINE
  5
   7D6
  8
0
  6
CONTINUOUS
 62
     1
 10
102.469858413507
 20
12.4882237926899
 30
0.0
 11
102.469858413507
 21
13.5382237748085
 31
0.0
  0
LINE
  5
   7D7
  8
0
  6
CONTINUOUS
 62
     1
 10
102.469858413507
 20
13.1882237807689
 30
0.0
 11
98.6198584790726
 21
13.1882237807689
 31
0.0
  0
LINE
  5
   7D8
  8
0
  6
CONTINUOUS
 62
     1
 10
100.019858455231
 20
8.22414759479096
 30
0.0
 11
100.019858455231
 21
12.4882237926899
 31
0.0
  0
LINE
  5
   7D9
  8
0
  6
DASHDOT
 62
     7
 10
100.54485844629
 20
8.7370255723179
 30
0.0
 11
100.54485844629
 21
14.6318974521343
 31
0.0
  0
LINE
  5
   7DA
  8
0
  6
CONTINUOUS
 62
     1
 10
96.4501533447945
 20
2.15564946197794
 30
0.0
 11
100.019858455231
 21
8.22414759479094
 31
0.0
  0
LINE
  5
   7DB
  8
0
  6
CONTINUOUS
 62
     1
 10
97.5104296656756
 20
1.8871955116616
 30
0.0
 11
101.069858437349
 21
7.93822387017589
 31
0.0
  0
LINE
  5
   7DC
  8
0
  6
CONTINUOUS
 62
     1
 10
101.069858437349
 20
7.93822387017589
 30
0.0
 11
101.069858437349
 21
12.4882237926899
 31
0.0
  0
LINE
  5
   7DD
  8
0
  6
CONTINUOUS
 62
     1
 10
97.461368352906
 20
-21.2201250850306
 30
0.0
 11
97.5104296656756
 21
1.88719551166062
 31
0.0
  0
LINE
  5
   7DE
  8
0
  6
CONTINUOUS
 62
     1
 10
96.5549932473405
 20
-21.322051058754
 30
0.0
 11
96.4501533447945
 21
2.15564946197706
 31
0.0
  0
LINE
  5
   7DF
  8
0
  6
DASHDOT
 62
     7
 10
89.1698340828876
 20
-2.47425920568829
 30
0.0
 11
89.1698340828876
 21
1.90074064501248
 31
0.0
  0
LINE
  5
   7E0
  8
0
  6
DASHDOT
 62
     7
 10
91.357334008238
 20
-0.286759280337922
 30
0.0
 11
86.9823341575372
 21
-0.286759280337922
 31
0.0
  0
LINE
  5
   7E1
  8
0
  6
DASHDOT
 62
     7
 10
106.669829863896
 20
-10.5692780490912
 30
0.0
 11
106.669829863896
 21
11.9839760937643
 31
0.0
  0
LINE
  5
   7E2
  8
0
  6
DASHDOT
 62
     7
 10
108.857329826643
 20
-0.286759162064669
 30
0.0
 11
104.482329901149
 21
-0.286759162064669
 31
0.0
  0
LINE
  5
   7E3
  8
0
  6
DASHDOT
 62
     7
 10
124.16983452082
 20
-2.4742591242164
 30
0.0
 11
124.16983452082
 21
1.90074056354058
 31
0.0
  0
LINE
  5
   7E4
  8
0
  6
DASHDOT
 62
     7
 10
126.357334364698
 20
-0.286759280337922
 30
0.0
 11
121.982334676941
 21
-0.286759280337922
 31
0.0
  0
LINE
  5
   7E5
  8
0
  6
CONTINUOUS
 62
     1
 10
97.0447178117713
 20
-26.0117755516591
 30
0.0
 11
96.8697178147514
 21
-26.0117755516591
 31
0.0
  0
LINE
  5
   7E6
  8
0
  6
CONTINUOUS
 62
     1
 10
97.0447178117713
 20
-26.0117755516591
 30
0.0
 11
97.4207822655687
 21
-25.6357110978617
 31
0.0
  0
LINE
  5
   7E7
  8
0
  6
CONTINUOUS
 62
     1
 10
96.8697178147514
 20
-26.0117755516591
 30
0.0
 11
96.6405549224677
 21
-25.7826126593753
 31
0.0
  0
LINE
  5
   7E8
  8
0
  6
CONTINUOUS
 62
     1
 10
96.6405549224677
 20
-25.7826126593757
 30
0.0
 11
96.6247691913818
 21
-22.2475782122229
 31
0.0
  0
LINE
  5
   7E9
  8
0
  6
CONTINUOUS
 62
     1
 10
97.4207822655687
 20
-25.6357110978616
 30
0.0
 11
97.4281276629219
 21
-22.1761124452885
 31
0.0
  0
LINE
  5
   7EA
  8
0
  6
CONTINUOUS
 62
     1
 10
116.784698856708
 20
-21.3220510587543
 30
0.0
 11
116.889538759254
 21
2.15564946197759
 31
0.0
  0
POINT
  5
   7EB
  8
0
  6
CONTINUOUS
 62
     7
 10
106.669829863896
 20
13.5382237748085
 30
0.0
  0
LINE
  5
   7EC
  8
0
  6
CONTINUOUS
 62
     7
 10
94.8178321576492
 20
-22.408321075456
 30
0.0
 11
99.5003533346564
 21
-21.9917698359328
 31
0.0
  0
LINE
  5
   7ED
  8
0
  6
CONTINUOUS
 62
     7
 10
94.0745186402426
 20
-21.6009916299065
 30
0.0
 11
99.0128747635422
 21
-21.0456511827011
 31
0.0
  0
LINE
  5
   7EE
  8
0
  6
CONTINUOUS
 62
     7
 10
119.26514108755
 20
-21.6009916299065
 30
0.0
 11
114.32678496425
 21
-21.0456511827011
 31
0.0
  0
LINE
  5
   7EF
  8
0
  6
CONTINUOUS
 62
     7
 10
118.521827570143
 20
-22.408321075456
 30
0.0
 11
113.839306393136
 21
-21.9917698359328
 31
0.0
  0
LINE
  5
   7F0
  8
0
  6
CONTINUOUS
 62
     1
 10
115.918877462224
 20
-25.6357110978619
 30
0.0
 11
115.91153206487
 21
-22.1761124452889
 31
0.0
  0
LINE
  5
   7F1
  8
0
  6
CONTINUOUS
 62
     1
 10
116.699104805325
 20
-25.7826126593761
 30
0.0
 11
116.714890536411
 21
-22.2475782122232
 31
0.0
  0
LINE
  5
   7F2
  8
0
  6
CONTINUOUS
 62
     1
 10
116.469941913041
 20
-26.0117755516591
 30
0.0
 11
116.699104805325
 21
-25.7826126593753
 31
0.0
  0
LINE
  5
   7F3
  8
0
  6
CONTINUOUS
 62
     1
 10
116.294941916021
 20
-26.0117755516591
 30
0.0
 11
115.918877462224
 21
-25.6357110978617
 31
0.0
  0
LINE
  5
   7F4
  8
0
  6
CONTINUOUS
 62
     1
 10
116.469941913041
 20
-26.0117755516591
 30
0.0
 11
116.294941916021
 21
-26.0117755516591
 31
0.0
  0
INSERT
  5
   7F5
  8
0
  6
CONTINUOUS
 62
     7
  2
*UDIM768
 10
0.0
 20
0.0
 30
0.0
  0
INSERT
  5
   7F6
  8
0
  6
CONTINUOUS
 62
     7
  2
*UDIM769
 10
0.0
 20
0.0
 30
0.0
  0
INSERT
  5
   7F7
  8
0
  6
CONTINUOUS
 62
     7
  2
*UDIM770
 10
0.0
 20
0.0
 30
0.0
  0
INSERT
  5
   7F8
  8
0
  6
CONTINUOUS
 62
     7
  2
*UDIM771
 10
0.0
 20
0.0
 30
0.0
  0
INSERT
  5
   7F9
  8
0
  6
CONTINUOUS
 62
     7
  2
*UDIM772
 10
0.0
 20
0.0
 30
0.0
  0
INSERT
  5
   7FA
  8
0
  6
CONTINUOUS
 62
     7
  2
*UDIM773
 10
0.0
 20
0.0
 30
0.0
  0
INSERT
  5
   7FB
  8
0
  6
CONTINUOUS
 62
     7
  2
*UDIM774
 10
0.0
 20
0.0
 30
0.0
  0
TEXT
  5
   7FC
  8
0
  6
CONTINUOUS
 62
     7
 10
106.020762323113
 20
186.867506197156
 30
0.0
 40
2.99999997871263
  1
Y
 50
359.999999948034
 41
0.91666663951344
 72
     1
 11
107.120762292322
 21
188.36750618552
 31
0.0
 73
     2
  0
INSERT
  5
   7FD
  8
0
  6
CONTINUOUS
 62
     7
  2
*UDIM775
 10
0.0
 20
0.0
 30
0.0
  0
INSERT
  5
   7FE
  8
0
  6
CONTINUOUS
 62
     7
  2
*UDIM776
 10
0.0
 20
0.0
 30
0.0
  0
INSERT
  5
   7FF
  8
0
  6
CONTINUOUS
 62
     7
  2
*UDIM777
 10
0.0
 20
0.0
 30
0.0
  0
INSERT
  5
   800
  8
0
  6
CONTINUOUS
 62
     7
  2
*UDIM778
 10
0.0
 20
0.0
 30
0.0
  0
INSERT
  5
   801
  8
0
  6
CONTINUOUS
 62
     7
  2
*UDIM779
 10
0.0
 20
0.0
 30
0.0
  0
INSERT
  5
   802
  8
0
  6
CONTINUOUS
 62
     7
  2
*UDIM780
 10
0.0
 20
0.0
 30
0.0
  0
INSERT
  5
   803
  8
0
  6
CONTINUOUS
 62
     7
  2
*UDIM781
 10
0.0
 20
0.0
 30
0.0
  0
TEXT
  5
   804
  8
0
  6
CONTINUOUS
 62
     7
 10
73.3007109987156
 20
51.2855879074811
 30
0.0
 40
2.99999997871263
  1
=    =
 50
89.9999999480344
 41
0.916666703091727
 72
     1
 11
71.8007110165824
 21
59.2605881741158
 31
0.0
 73
     2
  0
TEXT
  5
   805
  8
0
  6
CONTINUOUS
 62
     7
 10
161.916351250123
 20
58.4428474311844
 30
0.0
 40
2.99999997871263
  1
X
 50
359.999999948034
 41
0.91666663951344
 72
     1
 11
163.016351219332
 21
59.9428474195485
 31
0.0
 73
     2
  0
TEXT
  5
   806
  8
0
  6
CONTINUOUS
 62
     7
 10
45.5588062346102
 20
57.7474990848718
 30
0.0
 40
2.99999997871263
  1
X
 50
359.999999948034
 41
0.91666663951344
 72
     1
 11
46.6588062038192
 21
59.2474990732359
 31
0.0
 73
     2
  0
ENDSEC
  0
EOF
