  0
SECTION
  2
HEADER
  9
$ACADVER
  1
AC1009
999
I-DEAS Drafting Master Series 7m3 Not Encoded
  9
$EXTMIN
 10
0.0
 20
0.0
  9
$EXTMAX
 10
8.9486471E+002
 20
4.3459192E+002
  9
$TEXTSIZE
 40
1.25E-001
  9
$LTSCALE
 40
1.0
  9
$CLAYER
  8
AUTOCAD0
  9
$CECOLOR
 62
2
  9
$DIMASZ
 40
1.25E-001
  9
$DIMEXO
 40
6.25E-002
  9
$DIMDLI
 40
2.5E-001
  9
$DIMEXE
 40
1.25E-001
  9
$DIMTP
 40
5.0E-003
  9
$DIMTM
 40
-5.0E-003
  9
$DIMTXT
 40
3.0
  9
$DIMLIM
 70
0
  9
$DIMTIH
 70
1
  9
$DIMTOH
 70
1
  9
$DIMSE1
 70
0
  9
$DIMSE2
 70
0
  9
$DIMTAD
 70
0
  9
$DIMASO
 70
1
  9
$DIMALT
 70
0
  9
$DIMALTD
 70
0
  9
$DIMTOFL
 70
1
  9
$DIMTIX
 70
0
  9
$DIMSAH
 70
0
  9
$DIMTFAC
 40
1.0
  9
$DIMGAP
 40
6.25E-002
  9
$LUNITS
 70
2
  9
$LUPREC
 70
3
  9
$FILLETRAD
 40
1.0E+001
  9
$AUNITS
 70
0
  9
$AUPREC
 70
1
  9
$CHAMFERA
 40
6.0
  9
$CHAMFERB
 40
6.0
  9
$ANGBASE
 50
0.0
  9
$ANGDIR
 70
0
  9
$PDMODE
 70
2
  9
$PDSIZE
 40
-1.0E-002
  9
$SPLINETYPE
 70
6
  0
ENDSEC
  0
SECTION
  2
TABLES
  0
TABLE
  2
LTYPE
 70
8
  0
LTYPE
  2
HIDDENNEW00
  3
_ 
 70
64
 72
65
 73
2
 40
4.5
 49
3.0
 49
-1.5
  0
LTYPE
  2
HIDDENNEW01
  3
_ 
 70
64
 72
65
 73
2
 40
4.5
 49
3.0
 49
-1.5
  0
LTYPE
  2
HIDDEN
  3
_ 
 70
64
 72
65
 73
2
 40
4.5
 49
3.0
 49
-1.5
  0
LTYPE
  2
CENTERLINE
  3
_ 
 70
64
 72
65
 73
4
 40
3.0E+001
 49
2.4E+001
 49
-1.5
 49
3.0
 49
-1.5
  0
LTYPE
  2
PHANTOM
  3
_ 
 70
64
 72
65
 73
6
 40
2.95E+001
 49
1.9E+001
 49
-1.5
 49
3.0
 49
-1.5
 49
3.0
 49
-1.5
  0
LTYPE
  2
SHORT_DASH
  3
_ 
 70
64
 72
65
 73
2
 40
3.0
 49
1.5
 49
-1.5
  0
LTYPE
  2
LONG_DASH
  3
_ 
 70
64
 72
65
 73
2
 40
9.0
 49
4.5
 49
-4.5
  0
LTYPE
  2
KV
  3
_ 
 70
64
 72
65
 73
2
 40
3.25
 49
2.25
 49
-1.0
  0
ENDTAB
  0
TABLE
  2
LAYER
 70
258
  0
LAYER
  2
AUTOCAD0
 70
0
 62
7
  6
HIDDENNEW00
  0
LAYER
  2
DEFPOINTS
 70
0
 62
7
  6
HIDDENNEW00
  0
LAYER
  2
Drafting_Hidden_Entities
 70
1
 62
7
  6
CONTINUOUS
  0
ENDTAB
  0
TABLE
  2
STYLE
 70
1
  0
STYLE
  2
STANDARD
 70
64
 40
0.0
 41
1.0
 50
0.0
 71
0
 42
1.0
  3
monotxt.shx
  4

  0
ENDTAB
  0
TABLE
  2
VIEW
 70
0
  0
ENDTAB
  0
TABLE
  2
DIMSTYLE
 70
0
  0
ENDTAB
  0
ENDSEC
  0
SECTION
  2
BLOCKS
  0
BLOCK
  2
YASDB37S
 10
0.0
 20
0.0
 70
0
  0
LINE
  8
AUTOCAD0
  6
CONTINUOUS
 62
2
 10
-7.499461
 20
-1.6E+001
 11
-7.499856
 21
1.6E+001
  0
LINE
  8
AUTOCAD0
  6
CONTINUOUS
 62
2
 10
1.97E-004
 20
-1.6E+001
 11
-7.499461
 21
-1.6E+001
  0
LINE
  8
AUTOCAD0
  6
CONTINUOUS
 62
2
 10
2.53E-004
 20
-2.05E+001
 11
-2.53E-004
 21
2.05E+001
  0
LINE
  8
AUTOCAD0
  6
CONTINUOUS
 62
2
 10
5.2500341E+001
 20
-8.0E+001
 11
5.2500341E+001
 21
2.2E+001
  0
LINE
  8
AUTOCAD0
  6
CONTINUOUS
 62
2
 10
1.2500341E+001
 20
-2.6E+001
 11
2.7500341E+001
 21
-2.6E+001
  0
LINE
  8
AUTOCAD0
  6
CONTINUOUS
 62
2
 10
1.2500341E+001
 20
-3.4E+001
 11
1.2500341E+001
 21
3.4E+001
  0
LINE
  8
AUTOCAD0
  6
CONTINUOUS
 62
2
 10
1.500341
 20
3.4E+001
 11
1.2500341E+001
 21
3.4E+001
  0
LINE
  8
AUTOCAD0
  6
CONTINUOUS
 62
2
 10
1.500341
 20
-3.4E+001
 11
1.2500341E+001
 21
-3.4E+001
  0
LINE
  8
AUTOCAD0
  6
CONTINUOUS
 62
2
 10
1.500341
 20
-3.4E+001
 11
1.500341
 21
3.4E+001
  0
LINE
  8
AUTOCAD0
  6
CONTINUOUS
 62
2
 10
1.2500341E+001
 20
-2.9E+001
 11
1.4500341E+001
 21
-2.9E+001
  0
LINE
  8
AUTOCAD0
  6
CONTINUOUS
 62
2
 10
2.0000341E+001
 20
-8.1E+001
 11
1.8500341E+001
 21
-3.3E+001
  0
ARC
  8
AUTOCAD0
  6
CONTINUOUS
 62
2
 10
1.4500341E+001
 20
-3.3E+001
 40
4.0
 50
0.0
 51
9.0E+001
  0
ARC
  8
AUTOCAD0
  6
CONTINUOUS
 62
2
 10
-1.4049966E+002
 20
0.0
 40
1.7E+002
 50
3.5120259E+002
 51
3.6852609E+002
  0
ARC
  8
AUTOCAD0
  6
CONTINUOUS
 62
2
 10
5.0500341E+001
 20
2.2E+001
 40
2.0
 50
0.0
 51
9.0E+001
  0
LINE
  8
AUTOCAD0
  6
CONTINUOUS
 62
2
 10
1.500341
 20
-2.05E+001
 11
2.53E-004
 21
-2.05E+001
  0
LINE
  8
AUTOCAD0
  6
CONTINUOUS
 62
2
 10
1.500341
 20
2.05E+001
 11
-2.53E-004
 21
2.05E+001
  0
LINE
  8
AUTOCAD0
  6
CONTINUOUS
 62
2
 10
-1.98E-004
 20
1.6E+001
 11
-7.499856
 21
1.6E+001
  0
LINE
  8
AUTOCAD0
  6
HIDDEN
 62
2
 10
2.7500367E+001
 20
-2.999568
 11
-7.499622
 21
-2.999568
  0
LINE
  8
AUTOCAD0
  6
HIDDEN
 62
2
 10
2.7500303E+001
 20
3.000432
 11
-7.499696
 21
3.000432
  0
LINE
  8
AUTOCAD0
  6
HIDDEN
 62
2
 10
2.1500341E+001
 20
-2.999568
 11
2.1500267E+001
 21
3.000432
  0
LINE
  8
AUTOCAD0
  6
HIDDEN
 62
2
 10
2.7500367E+001
 20
-2.999568
 11
2.7500303E+001
 21
3.000432
  0
LINE
  8
AUTOCAD0
  6
CONTINUOUS
 62
2
 10
2.0000341E+001
 20
-8.1E+001
 11
5.2500341E+001
 21
-8.0E+001
  0
LINE
  8
AUTOCAD0
  6
CONTINUOUS
 62
2
 10
1.2500341E+001
 20
2.6E+001
 11
5.0500341E+001
 21
2.4E+001
  0
ENDBLK
  0
BLOCK
  2
YASDB37Y
 10
0.0
 20
0.0
 70
0
  0
TEXT
  8
AUTOCAD0
  6
CONTINUOUS
 62
2
 10
2.8697598E+001
 20
-2.045521
 40
3.0
  1
II
 41
6.65E-001
  0
TEXT
  8
AUTOCAD0
  6
CONTINUOUS
 62
2
 10
-5.49765E-001
 20
2.8439647E+001
 40
3.0
  1
0
 41
8.3E-001
  0
TEXT
  8
AUTOCAD0
  6
CONTINUOUS
 62
2
 10
3.275057
 20
-4.9475109E+001
 40
3.0
  1
YASDB 37
 41
9.5E-001
 50
2.7E+002
  0
TEXT
  8
AUTOCAD0
  6
CONTINUOUS
 62
2
 10
-2.9972969E+001
 20
-2.045521
 40
3.0
  1
1
 41
6.65E-001
  0
ARC
  8
AUTOCAD0
  6
CONTINUOUS
 62
2
 10
0.0
 20
-5.5E+001
 40
2.6E+001
 50
2.4856875E+002
 51
2.9143126E+002
  0
LINE
  8
AUTOCAD0
  6
CONTINUOUS
 62
2
 10
3.5
 20
1.5E+001
 11
-3.5
 21
1.5E+001
  0
LINE
  8
AUTOCAD0
  6
CONTINUOUS
 62
2
 10
0.0
 20
2.2E+001
 11
-3.5
 21
1.5E+001
  0
LINE
  8
AUTOCAD0
  6
CONTINUOUS
 62
2
 10
3.5
 20
1.5E+001
 11
0.0
 21
2.2E+001
  0
LINE
  8
AUTOCAD0
  6
CONTINUOUS
 62
2
 10
-8.0
 20
2.4738633E+001
 11
-8.0
 21
-7.9738634E+001
  0
LINE
  8
AUTOCAD0
  6
CONTINUOUS
 62
2
 10
8.0
 20
2.4738633E+001
 11
8.0
 21
-7.9738634E+001
  0
LINE
  8
AUTOCAD0
  6
CONTINUOUS
 62
2
 10
-9.5
 20
2.4202272E+001
 11
-9.5
 21
-7.9202273E+001
  0
LINE
  8
AUTOCAD0
  6
CONTINUOUS
 62
2
 10
9.5
 20
2.4202272E+001
 11
9.5
 21
-7.9202273E+001
  0
CIRCLE
  8
AUTOCAD0
  6
HIDDEN
 62
2
 10
-1.9798989E+001
 20
-1.979899E+001
 40
3.5
  0
CIRCLE
  8
AUTOCAD0
  6
HIDDEN
 62
2
 10
1.979899E+001
 20
1.979899E+001
 40
3.5
  0
CIRCLE
  8
AUTOCAD0
  6
HIDDEN
 62
2
 10
0.0
 20
0.0
 40
2.25E+001
  0
ARC
  8
AUTOCAD0
  6
CONTINUOUS
 62
2
 10
0.0
 20
0.0
 40
2.6E+001
 50
2.9143126E+002
 51
6.0856875E+002
  0
ARC
  8
AUTOCAD0
  6
CONTINUOUS
 62
2
 10
0.0
 20
0.0
 40
3.4E+001
 50
2.862251E+002
 51
6.137749E+002
  0
ENDBLK
  0
BLOCK
  2
YASDB37P
 10
0.0
 20
0.0
 70
0
  0
LINE
  8
AUTOCAD0
  6
CONTINUOUS
 62
2
 10
-3.4E+001
 20
1.500341
 11
3.4E+001
 21
1.500341
  0
LINE
  8
AUTOCAD0
  6
CONTINUOUS
 62
2
 10
-3.4E+001
 20
1.500341
 11
-3.4E+001
 21
1.2500341E+001
  0
LINE
  8
AUTOCAD0
  6
CONTINUOUS
 62
2
 10
3.4E+001
 20
1.500341
 11
3.4E+001
 21
1.2500341E+001
  0
LINE
  8
AUTOCAD0
  6
CONTINUOUS
 62
2
 10
-3.4E+001
 20
1.2500341E+001
 11
3.4E+001
 21
1.2500341E+001
  0
LINE
  8
AUTOCAD0
  6
CONTINUOUS
 62
2
 10
-2.6E+001
 20
1.2500341E+001
 11
-2.6E+001
 21
2.7500341E+001
  0
LINE
  8
AUTOCAD0
  6
CONTINUOUS
 62
2
 10
2.6E+001
 20
1.2500341E+001
 11
2.6E+001
 21
2.7500341E+001
  0
LINE
  8
AUTOCAD0
  6
CONTINUOUS
 62
2
 10
1.2325395E+001
 20
2.7500341E+001
 11
2.6E+001
 21
2.7500341E+001
  0
LINE
  8
AUTOCAD0
  6
CONTINUOUS
 62
2
 10
-8.0
 20
5.2500341E+001
 11
8.0
 21
5.2500341E+001
  0
LINE
  8
AUTOCAD0
  6
CONTINUOUS
 62
2
 10
-8.0
 20
5.2500341E+001
 11
-9.33078
 21
3.0320664E+001
  0
LINE
  8
AUTOCAD0
  6
CONTINUOUS
 62
2
 10
9.330781
 20
3.0320664E+001
 11
8.0
 21
5.2500341E+001
  0
ARC
  8
AUTOCAD0
  6
CONTINUOUS
 62
2
 10
1.2325395E+001
 20
3.0500341E+001
 40
3.0
 50
1.8343363E+002
 51
2.7E+002
  0
ARC
  8
AUTOCAD0
  6
CONTINUOUS
 62
2
 10
-1.2325395E+001
 20
3.0500341E+001
 40
3.0
 50
2.7E+002
 51
3.5656637E+002
  0
LINE
  8
AUTOCAD0
  6
CONTINUOUS
 62
2
 10
-1.2325395E+001
 20
2.7500341E+001
 11
-2.6E+001
 21
2.7500341E+001
  0
LINE
  8
AUTOCAD0
  6
CONTINUOUS
 62
2
 10
-1.6E+001
 20
-1.98E-004
 11
-1.6E+001
 21
-7.499857
  0
LINE
  8
AUTOCAD0
  6
CONTINUOUS
 62
2
 10
-2.05E+001
 20
1.500341
 11
-2.05E+001
 21
-2.53E-004
  0
LINE
  8
AUTOCAD0
  6
CONTINUOUS
 62
2
 10
2.05E+001
 20
1.500341
 11
2.05E+001
 21
2.53E-004
  0
LINE
  8
AUTOCAD0
  6
CONTINUOUS
 62
2
 10
2.05E+001
 20
2.53E-004
 11
-2.05E+001
 21
-2.53E-004
  0
LINE
  8
AUTOCAD0
  6
CONTINUOUS
 62
2
 10
1.6E+001
 20
1.97E-004
 11
1.6E+001
 21
-7.499462
  0
LINE
  8
AUTOCAD0
  6
CONTINUOUS
 62
2
 10
1.6E+001
 20
-7.499462
 11
-1.6E+001
 21
-7.499857
  0
LINE
  8
AUTOCAD0
  6
HIDDEN
 62
2
 10
2.999568
 20
2.7500378E+001
 11
-3.000432
 21
2.7500304E+001
  0
LINE
  8
AUTOCAD0
  6
HIDDEN
 62
2
 10
2.999568
 20
2.1500378E+001
 11
-3.000432
 21
2.1500304E+001
  0
LINE
  8
AUTOCAD0
  6
HIDDEN
 62
2
 10
-3.000432
 20
2.7500304E+001
 11
-3.000432
 21
-7.499696
  0
LINE
  8
AUTOCAD0
  6
HIDDEN
 62
2
 10
2.999568
 20
2.7500378E+001
 11
2.999568
 21
-7.499622
  0
ENDBLK
  0
ENDSEC
  0
SECTION
  2
ENTITIES
  0
TEXT
  8
AUTOCAD0
  6
CONTINUOUS
 62
40
 10
3.052062E+002
 20
1.0131757E+002
 40
2.0
  1
OESAZW 1
 41
9.4975E-001
  0
LINE
  8
AUTOCAD0
  6
CONTINUOUS
 62
40
 10
3.0045338E+002
 20
4.7E+001
 11
3.9045338E+002
 21
4.7E+001
  0
LINE
  8
AUTOCAD0
  6
CONTINUOUS
 62
40
 10
3.0045338E+002
 20
1.2E+002
 11
3.9045338E+002
 21
1.2E+002
  0
LINE
  8
AUTOCAD0
  6
CONTINUOUS
 62
40
 10
3.0045338E+002
 20
1.2E+002
 11
3.0045338E+002
 21
4.7E+001
  0
LINE
  8
AUTOCAD0
  6
CONTINUOUS
 62
40
 10
3.9045338E+002
 20
1.2E+002
 11
3.9045338E+002
 21
4.7E+001
  0
LINE
  8
AUTOCAD0
  6
CONTINUOUS
 62
40
 10
5.7245338E+002
 20
9.0E+001
 11
5.7245338E+002
 21
6.0E+001
  0
LINE
  8
AUTOCAD0
  6
KV
 62
40
 10
5.5545338E+002
 20
8.4E+001
 11
5.6145338E+002
 21
8.4E+001
  0
LINE
  8
AUTOCAD0
  6
KV
 62
40
 10
5.5545338E+002
 20
7.8E+001
 11
5.6145338E+002
 21
7.8E+001
  0
LINE
  8
AUTOCAD0
  6
KV
 62
40
 10
5.6145338E+002
 20
8.4E+001
 11
5.6145338E+002
 21
7.8E+001
  0
LINE
  8
AUTOCAD0
  6
KV
 62
40
 10
5.5545338E+002
 20
8.4E+001
 11
5.5545338E+002
 21
7.8E+001
  0
LINE
  8
AUTOCAD0
  6
CONTINUOUS
 62
40
 10
3.5445338E+002
 20
8.4E+001
 11
3.5445338E+002
 21
7.8E+001
  0
LINE
  8
AUTOCAD0
  6
CONTINUOUS
 62
40
 10
3.6045338E+002
 20
8.4E+001
 11
3.6045338E+002
 21
7.8E+001
  0
LINE
  8
AUTOCAD0
  6
CONTINUOUS
 62
40
 10
3.5445338E+002
 20
7.8E+001
 11
3.6045338E+002
 21
7.8E+001
  0
LINE
  8
AUTOCAD0
  6
CONTINUOUS
 62
40
 10
3.5445338E+002
 20
8.4E+001
 11
3.6045338E+002
 21
8.4E+001
  0
LINE
  8
AUTOCAD0
  6
KV
 62
40
 10
3.1545338E+002
 20
8.4E+001
 11
3.2145338E+002
 21
8.4E+001
  0
LINE
  8
AUTOCAD0
  6
KV
 62
40
 10
3.1545338E+002
 20
7.8E+001
 11
3.2145338E+002
 21
7.8E+001
  0
LINE
  8
AUTOCAD0
  6
KV
 62
40
 10
3.2145338E+002
 20
8.4E+001
 11
3.2145338E+002
 21
7.8E+001
  0
LINE
  8
AUTOCAD0
  6
KV
 62
40
 10
3.1545338E+002
 20
8.4E+001
 11
3.1545338E+002
 21
7.8E+001
  0
LINE
  8
AUTOCAD0
  6
CONTINUOUS
 62
40
 10
3.9045338E+002
 20
6.0E+001
 11
5.7245338E+002
 21
6.0E+001
  0
LINE
  8
AUTOCAD0
  6
CONTINUOUS
 62
40
 10
3.9045338E+002
 20
7.2E+001
 11
5.7245338E+002
 21
7.2E+001
  0
LINE
  8
AUTOCAD0
  6
CONTINUOUS
 62
40
 10
5.6076709E+002
 20
9.0E+001
 11
5.7245338E+002
 21
9.0E+001
  0
LINE
  8
AUTOCAD0
  6
CONTINUOUS
 62
40
 10
5.4445338E+002
 20
8.3686292E+001
 11
5.4445338E+002
 21
7.2E+001
  0
LINE
  8
AUTOCAD0
  6
CONTINUOUS
 62
40
 10
3.9045338E+002
 20
8.8E+001
 11
5.5145338E+002
 21
8.8E+001
  0
LINE
  8
AUTOCAD0
  6
CONTINUOUS
 62
40
 10
3.9045338E+002
 20
1.0E+002
 11
5.5145338E+002
 21
1.0E+002
  0
LINE
  8
AUTOCAD0
  6
CONTINUOUS
 62
40
 10
5.5145338E+002
 20
1.0E+002
 11
5.5145338E+002
 21
8.8E+001
  0
CIRCLE
  8
AUTOCAD0
  6
CONTINUOUS
 62
40
 10
5.4545338E+002
 20
9.4E+001
 40
2.5
  0
ARC
  8
AUTOCAD0
  6
CONTINUOUS
 62
40
 10
5.4545338E+002
 20
9.4E+001
 40
8.0
 50
4.8590378E+001
 51
1.3140962E+002
  0
ARC
  8
AUTOCAD0
  6
CONTINUOUS
 62
40
 10
5.5845338E+002
 20
8.1E+001
 40
8.0
 50
2.25E+002
 51
4.05E+002
  0
LINE
  8
AUTOCAD0
  6
CONTINUOUS
 62
40
 10
5.5145338E+002
 20
9.9313709E+001
 11
5.6411023E+002
 21
8.6656855E+001
  0
LINE
  8
AUTOCAD0
  6
CONTINUOUS
 62
40
 10
5.5279653E+002
 20
7.5343146E+001
 11
5.4013967E+002
 21
8.8E+001
  0
CIRCLE
  8
AUTOCAD0
  6
CONTINUOUS
 62
40
 10
5.6545338E+002
 20
6.6E+001
 40
5.0
  0
CIRCLE
  8
AUTOCAD0
  6
CONTINUOUS
 62
40
 10
5.5045338E+002
 20
6.6E+001
 40
5.0
  0
CIRCLE
  8
AUTOCAD0
  6
CONTINUOUS
 62
40
 10
5.3545338E+002
 20
6.6E+001
 40
2.5
  0
CIRCLE
  8
AUTOCAD0
  6
CONTINUOUS
 62
40
 10
5.3045338E+002
 20
9.4E+001
 40
2.5
  0
CIRCLE
  8
AUTOCAD0
  6
CONTINUOUS
 62
40
 10
5.2045338E+002
 20
6.6E+001
 40
2.5
  0
CIRCLE
  8
AUTOCAD0
  6
CONTINUOUS
 62
40
 10
5.1545338E+002
 20
9.4E+001
 40
2.5
  0
CIRCLE
  8
AUTOCAD0
  6
CONTINUOUS
 62
40
 10
5.0545338E+002
 20
6.6E+001
 40
2.5
  0
CIRCLE
  8
AUTOCAD0
  6
CONTINUOUS
 62
40
 10
5.0045338E+002
 20
9.4E+001
 40
2.5
  0
CIRCLE
  8
AUTOCAD0
  6
CONTINUOUS
 62
40
 10
4.9045338E+002
 20
6.6E+001
 40
2.5
  0
CIRCLE
  8
AUTOCAD0
  6
CONTINUOUS
 62
40
 10
4.8545338E+002
 20
9.4E+001
 40
2.5
  0
CIRCLE
  8
AUTOCAD0
  6
CONTINUOUS
 62
40
 10
4.7545338E+002
 20
6.6E+001
 40
2.5
  0
CIRCLE
  8
AUTOCAD0
  6
CONTINUOUS
 62
40
 10
4.7045338E+002
 20
9.4E+001
 40
2.5
  0
CIRCLE
  8
AUTOCAD0
  6
CONTINUOUS
 62
40
 10
4.6045338E+002
 20
6.6E+001
 40
2.5
  0
CIRCLE
  8
AUTOCAD0
  6
CONTINUOUS
 62
40
 10
4.5545338E+002
 20
9.4E+001
 40
2.5
  0
CIRCLE
  8
AUTOCAD0
  6
CONTINUOUS
 62
40
 10
4.4545338E+002
 20
6.6E+001
 40
2.5
  0
CIRCLE
  8
AUTOCAD0
  6
CONTINUOUS
 62
40
 10
4.4045338E+002
 20
9.4E+001
 40
2.5
  0
CIRCLE
  8
AUTOCAD0
  6
CONTINUOUS
 62
40
 10
4.3045338E+002
 20
6.6E+001
 40
2.5
  0
CIRCLE
  8
AUTOCAD0
  6
CONTINUOUS
 62
40
 10
4.2545338E+002
 20
9.4E+001
 40
2.5
  0
CIRCLE
  8
AUTOCAD0
  6
CONTINUOUS
 62
40
 10
4.1545338E+002
 20
6.6E+001
 40
2.5
  0
CIRCLE
  8
AUTOCAD0
  6
CONTINUOUS
 62
40
 10
4.1045338E+002
 20
9.4E+001
 40
2.5
  0
CIRCLE
  8
AUTOCAD0
  6
CONTINUOUS
 62
40
 10
4.0045338E+002
 20
6.6E+001
 40
2.5
  0
CIRCLE
  8
AUTOCAD0
  6
CONTINUOUS
 62
40
 10
3.9545338E+002
 20
9.4E+001
 40
2.5
  0
CIRCLE
  8
AUTOCAD0
  6
CONTINUOUS
 62
40
 10
3.8545338E+002
 20
6.6E+001
 40
2.5
  0
ARC
  8
AUTOCAD0
  6
CONTINUOUS
 62
40
 10
3.5745338E+002
 20
8.1E+001
 40
8.0
 50
2.8080692E+002
 51
4.3919308E+002
  0
LINE
  8
AUTOCAD0
  6
CONTINUOUS
 62
40
 10
3.4745338E+002
 20
1.1E+002
 11
3.4745338E+002
 21
5.2E+001
  0
LINE
  8
AUTOCAD0
  6
CONTINUOUS
 62
40
 10
3.6745338E+002
 20
1.1E+002
 11
3.6745338E+002
 21
5.2E+001
  0
LINE
  8
AUTOCAD0
  6
CONTINUOUS
 62
40
 10
3.4745338E+002
 20
1.02E+002
 11
3.6749673E+002
 21
1.02E+002
  0
LINE
  8
AUTOCAD0
  6
CONTINUOUS
 62
40
 10
3.4745338E+002
 20
6.0E+001
 11
3.6749673E+002
 21
6.0E+001
  0
LINE
  8
AUTOCAD0
  6
CONTINUOUS
 62
40
 10
3.4745338E+002
 20
1.1E+002
 11
3.6745338E+002
 21
1.1E+002
  0
LINE
  8
AUTOCAD0
  6
CONTINUOUS
 62
40
 10
3.4745338E+002
 20
5.2E+001
 11
3.6745338E+002
 21
5.2E+001
  0
CIRCLE
  8
AUTOCAD0
  6
CONTINUOUS
 62
40
 10
3.7845338E+002
 20
1.12E+002
 40
4.0
  0
LINE
  8
AUTOCAD0
  6
CONTINUOUS
 62
40
 10
3.7795338E+002
 20
1.115E+002
 11
3.7795338E+002
 21
1.1E+002
  0
LINE
  8
AUTOCAD0
  6
CONTINUOUS
 62
40
 10
3.7895338E+002
 20
1.115E+002
 11
3.7895338E+002
 21
1.1E+002
  0
LINE
  8
AUTOCAD0
  6
CONTINUOUS
 62
40
 10
3.7645338E+002
 20
1.115E+002
 11
3.7795338E+002
 21
1.115E+002
  0
LINE
  8
AUTOCAD0
  6
CONTINUOUS
 62
40
 10
3.7645338E+002
 20
1.125E+002
 11
3.7795338E+002
 21
1.125E+002
  0
LINE
  8
AUTOCAD0
  6
CONTINUOUS
 62
40
 10
3.7795338E+002
 20
1.1E+002
 11
3.7895338E+002
 21
1.1E+002
  0
LINE
  8
AUTOCAD0
  6
CONTINUOUS
 62
40
 10
3.8045338E+002
 20
1.125E+002
 11
3.8045338E+002
 21
1.115E+002
  0
LINE
  8
AUTOCAD0
  6
CONTINUOUS
 62
40
 10
3.7795338E+002
 20
1.14E+002
 11
3.7895338E+002
 21
1.14E+002
  0
LINE
  8
AUTOCAD0
  6
CONTINUOUS
 62
40
 10
3.7895338E+002
 20
1.125E+002
 11
3.7895338E+002
 21
1.14E+002
  0
LINE
  8
AUTOCAD0
  6
CONTINUOUS
 62
40
 10
3.7795338E+002
 20
1.125E+002
 11
3.7795338E+002
 21
1.14E+002
  0
LINE
  8
AUTOCAD0
  6
CONTINUOUS
 62
40
 10
3.7645338E+002
 20
1.125E+002
 11
3.7645338E+002
 21
1.115E+002
  0
LINE
  8
AUTOCAD0
  6
CONTINUOUS
 62
40
 10
3.7895338E+002
 20
1.115E+002
 11
3.8045338E+002
 21
1.115E+002
  0
LINE
  8
AUTOCAD0
  6
CONTINUOUS
 62
40
 10
3.7895338E+002
 20
1.125E+002
 11
3.8045338E+002
 21
1.125E+002
  0
LINE
  8
AUTOCAD0
  6
CONTINUOUS
 62
40
 10
3.7895338E+002
 20
5.55E+001
 11
3.8045338E+002
 21
5.55E+001
  0
LINE
  8
AUTOCAD0
  6
CONTINUOUS
 62
40
 10
3.7895338E+002
 20
5.45E+001
 11
3.8045338E+002
 21
5.45E+001
  0
LINE
  8
AUTOCAD0
  6
CONTINUOUS
 62
40
 10
3.7645338E+002
 20
5.55E+001
 11
3.7645338E+002
 21
5.45E+001
  0
LINE
  8
AUTOCAD0
  6
CONTINUOUS
 62
40
 10
3.7795338E+002
 20
5.55E+001
 11
3.7795338E+002
 21
5.7E+001
  0
LINE
  8
AUTOCAD0
  6
CONTINUOUS
 62
40
 10
3.7895338E+002
 20
5.55E+001
 11
3.7895338E+002
 21
5.7E+001
  0
LINE
  8
AUTOCAD0
  6
CONTINUOUS
 62
40
 10
3.7795338E+002
 20
5.7E+001
 11
3.7895338E+002
 21
5.7E+001
  0
LINE
  8
AUTOCAD0
  6
CONTINUOUS
 62
40
 10
3.8045338E+002
 20
5.55E+001
 11
3.8045338E+002
 21
5.45E+001
  0
LINE
  8
AUTOCAD0
  6
CONTINUOUS
 62
40
 10
3.7795338E+002
 20
5.3E+001
 11
3.7895338E+002
 21
5.3E+001
  0
LINE
  8
AUTOCAD0
  6
CONTINUOUS
 62
40
 10
3.7645338E+002
 20
5.55E+001
 11
3.7795338E+002
 21
5.55E+001
  0
LINE
  8
AUTOCAD0
  6
CONTINUOUS
 62
40
 10
3.7645338E+002
 20
5.45E+001
 11
3.7795338E+002
 21
5.45E+001
  0
LINE
  8
AUTOCAD0
  6
CONTINUOUS
 62
40
 10
3.7895338E+002
 20
5.45E+001
 11
3.7895338E+002
 21
5.3E+001
  0
LINE
  8
AUTOCAD0
  6
CONTINUOUS
 62
40
 10
3.7795338E+002
 20
5.45E+001
 11
3.7795338E+002
 21
5.3E+001
  0
CIRCLE
  8
AUTOCAD0
  6
CONTINUOUS
 62
40
 10
3.7845338E+002
 20
5.5E+001
 40
4.0
  0
LINE
  8
AUTOCAD0
  6
CONTINUOUS
 62
40
 10
3.0995338E+002
 20
1.125E+002
 11
3.0845338E+002
 21
1.125E+002
  0
LINE
  8
AUTOCAD0
  6
CONTINUOUS
 62
40
 10
3.0995338E+002
 20
1.115E+002
 11
3.0845338E+002
 21
1.115E+002
  0
LINE
  8
AUTOCAD0
  6
CONTINUOUS
 62
40
 10
3.1245338E+002
 20
1.125E+002
 11
3.1245338E+002
 21
1.115E+002
  0
LINE
  8
AUTOCAD0
  6
CONTINUOUS
 62
40
 10
3.1095338E+002
 20
1.125E+002
 11
3.1095338E+002
 21
1.14E+002
  0
LINE
  8
AUTOCAD0
  6
CONTINUOUS
 62
40
 10
3.0995338E+002
 20
1.125E+002
 11
3.0995338E+002
 21
1.14E+002
  0
LINE
  8
AUTOCAD0
  6
CONTINUOUS
 62
40
 10
3.1095338E+002
 20
1.14E+002
 11
3.0995338E+002
 21
1.14E+002
  0
LINE
  8
AUTOCAD0
  6
CONTINUOUS
 62
40
 10
3.0845338E+002
 20
1.125E+002
 11
3.0845338E+002
 21
1.115E+002
  0
LINE
  8
AUTOCAD0
  6
CONTINUOUS
 62
40
 10
3.1095338E+002
 20
1.1E+002
 11
3.0995338E+002
 21
1.1E+002
  0
LINE
  8
AUTOCAD0
  6
CONTINUOUS
 62
40
 10
3.1245338E+002
 20
1.125E+002
 11
3.1095338E+002
 21
1.125E+002
  0
LINE
  8
AUTOCAD0
  6
CONTINUOUS
 62
40
 10
3.1245338E+002
 20
1.115E+002
 11
3.1095338E+002
 21
1.115E+002
  0
LINE
  8
AUTOCAD0
  6
CONTINUOUS
 62
40
 10
3.0995338E+002
 20
1.115E+002
 11
3.0995338E+002
 21
1.1E+002
  0
LINE
  8
AUTOCAD0
  6
CONTINUOUS
 62
40
 10
3.1095338E+002
 20
1.115E+002
 11
3.1095338E+002
 21
1.1E+002
  0
CIRCLE
  8
AUTOCAD0
  6
CONTINUOUS
 62
40
 10
3.1045338E+002
 20
1.12E+002
 40
4.0
  0
CIRCLE
  8
AUTOCAD0
  6
CONTINUOUS
 62
40
 10
3.1045338E+002
 20
5.5E+001
 40
4.0
  0
LINE
  8
AUTOCAD0
  6
CONTINUOUS
 62
40
 10
3.1095338E+002
 20
5.45E+001
 11
3.1095338E+002
 21
5.3E+001
  0
LINE
  8
AUTOCAD0
  6
CONTINUOUS
 62
40
 10
3.0995338E+002
 20
5.45E+001
 11
3.0995338E+002
 21
5.3E+001
  0
LINE
  8
AUTOCAD0
  6
CONTINUOUS
 62
40
 10
3.1245338E+002
 20
5.45E+001
 11
3.1095338E+002
 21
5.45E+001
  0
LINE
  8
AUTOCAD0
  6
CONTINUOUS
 62
40
 10
3.1245338E+002
 20
5.55E+001
 11
3.1095338E+002
 21
5.55E+001
  0
LINE
  8
AUTOCAD0
  6
CONTINUOUS
 62
40
 10
3.1095338E+002
 20
5.3E+001
 11
3.0995338E+002
 21
5.3E+001
  0
LINE
  8
AUTOCAD0
  6
CONTINUOUS
 62
40
 10
3.0845338E+002
 20
5.55E+001
 11
3.0845338E+002
 21
5.45E+001
  0
LINE
  8
AUTOCAD0
  6
CONTINUOUS
 62
40
 10
3.1095338E+002
 20
5.7E+001
 11
3.0995338E+002
 21
5.7E+001
  0
LINE
  8
AUTOCAD0
  6
CONTINUOUS
 62
40
 10
3.0995338E+002
 20
5.55E+001
 11
3.0995338E+002
 21
5.7E+001
  0
LINE
  8
AUTOCAD0
  6
CONTINUOUS
 62
40
 10
3.1095338E+002
 20
5.55E+001
 11
3.1095338E+002
 21
5.7E+001
  0
LINE
  8
AUTOCAD0
  6
CONTINUOUS
 62
40
 10
3.1245338E+002
 20
5.55E+001
 11
3.1245338E+002
 21
5.45E+001
  0
LINE
  8
AUTOCAD0
  6
CONTINUOUS
 62
40
 10
3.0995338E+002
 20
5.45E+001
 11
3.0845338E+002
 21
5.45E+001
  0
LINE
  8
AUTOCAD0
  6
CONTINUOUS
 62
40
 10
3.0995338E+002
 20
5.55E+001
 11
3.0845338E+002
 21
5.55E+001
  0
LINE
  8
AUTOCAD0
  6
CONTINUOUS
 62
40
 10
3.5345338E+002
 20
8.9E+001
 11
3.5595338E+002
 21
8.9E+001
  0
LINE
  8
AUTOCAD0
  6
CONTINUOUS
 62
40
 10
3.5345338E+002
 20
9.3E+001
 11
3.6145338E+002
 21
9.3E+001
  0
LINE
  8
AUTOCAD0
  6
CONTINUOUS
 62
40
 10
3.6145338E+002
 20
8.9E+001
 11
3.6145338E+002
 21
9.3E+001
  0
LINE
  8
AUTOCAD0
  6
CONTINUOUS
 62
40
 10
3.5345338E+002
 20
8.9E+001
 11
3.5345338E+002
 21
9.3E+001
  0
LINE
  8
AUTOCAD0
  6
CONTINUOUS
 62
40
 10
3.5745338E+002
 20
9.3E+001
 11
3.5745338E+002
 21
9.1E+001
  0
LINE
  8
AUTOCAD0
  6
CONTINUOUS
 62
40
 10
3.5745338E+002
 20
6.9E+001
 11
3.5745338E+002
 21
7.1E+001
  0
LINE
  8
AUTOCAD0
  6
CONTINUOUS
 62
40
 10
3.5345338E+002
 20
7.3E+001
 11
3.5345338E+002
 21
6.9E+001
  0
LINE
  8
AUTOCAD0
  6
CONTINUOUS
 62
40
 10
3.6145338E+002
 20
7.3E+001
 11
3.6145338E+002
 21
6.9E+001
  0
LINE
  8
AUTOCAD0
  6
CONTINUOUS
 62
40
 10
3.5345338E+002
 20
6.9E+001
 11
3.6145338E+002
 21
6.9E+001
  0
LINE
  8
AUTOCAD0
  6
CONTINUOUS
 62
40
 10
3.5345338E+002
 20
7.3E+001
 11
3.5595338E+002
 21
7.3E+001
  0
LINE
  8
AUTOCAD0
  6
CONTINUOUS
 62
40
 10
3.0045338E+002
 20
2.6039914E+002
 11
3.0045338E+002
 21
2.9289914E+002
  0
LINE
  8
AUTOCAD0
  6
CONTINUOUS
 62
40
 10
3.9045338E+002
 20
2.6039914E+002
 11
3.9045338E+002
 21
2.9289914E+002
  0
LINE
  8
AUTOCAD0
  6
CONTINUOUS
 62
40
 10
3.5445338E+002
 20
3.1539914E+002
 11
3.5445338E+002
 21
3.8539914E+002
  0
LINE
  8
AUTOCAD0
  6
CONTINUOUS
 62
40
 10
3.6045338E+002
 20
3.1539914E+002
 11
3.6045338E+002
 21
3.8539914E+002
  0
LINE
  8
AUTOCAD0
  6
CONTINUOUS
 62
40
 10
3.1545338E+002
 20
1.4439914E+002
 11
3.1545338E+002
 21
2.6039914E+002
  0
LINE
  8
AUTOCAD0
  6
CONTINUOUS
 62
40
 10
3.2145338E+002
 20
1.4439914E+002
 11
3.2145338E+002
 21
2.6039914E+002
  0
LINE
  8
AUTOCAD0
  6
CONTINUOUS
 62
40
 10
5.5545338E+002
 20
1.4439914E+002
 11
5.5545338E+002
 21
2.6439914E+002
  0
LINE
  8
AUTOCAD0
  6
CONTINUOUS
 62
40
 10
5.6145338E+002
 20
1.4439914E+002
 11
5.6145338E+002
 21
2.6439914E+002
  0
LINE
  8
AUTOCAD0
  6
CONTINUOUS
 62
40
 10
3.0045338E+002
 20
2.6039914E+002
 11
3.9045338E+002
 21
2.6039914E+002
  0
LINE
  8
AUTOCAD0
  6
CONTINUOUS
 62
40
 10
3.0045338E+002
 20
2.9289914E+002
 11
3.9045338E+002
 21
2.9289914E+002
  0
LINE
  8
AUTOCAD0
  6
CONTINUOUS
 62
40
 10
3.1545338E+002
 20
1.4439914E+002
 11
3.2145338E+002
 21
1.4439914E+002
  0
LINE
  8
AUTOCAD0
  6
CONTINUOUS
 62
40
 10
5.5545338E+002
 20
1.4439914E+002
 11
5.6145338E+002
 21
1.4439914E+002
  0
LINE
  8
AUTOCAD0
  6
CONTINUOUS
 62
40
 10
3.4945338E+002
 20
3.1539914E+002
 11
3.6545338E+002
 21
3.1539914E+002
  0
LINE
  8
AUTOCAD0
  6
CONTINUOUS
 62
40
 10
3.6545338E+002
 20
3.0639914E+002
 11
3.6545338E+002
 21
3.1539914E+002
  0
LINE
  8
AUTOCAD0
  6
CONTINUOUS
 62
40
 10
3.4945338E+002
 20
3.0639914E+002
 11
3.4945338E+002
 21
3.1539914E+002
  0
LINE
  8
AUTOCAD0
  6
CONTINUOUS
 62
40
 10
3.4745338E+002
 20
3.0639914E+002
 11
3.6745338E+002
 21
3.0639914E+002
  0
LINE
  8
AUTOCAD0
  6
CONTINUOUS
 62
40
 10
3.6745338E+002
 20
2.9289914E+002
 11
3.6745338E+002
 21
3.0639914E+002
  0
LINE
  8
AUTOCAD0
  6
CONTINUOUS
 62
40
 10
3.4745338E+002
 20
2.9289914E+002
 11
3.4745338E+002
 21
3.0639914E+002
  0
LINE
  8
AUTOCAD0
  6
CONTINUOUS
 62
40
 10
3.1445338E+002
 20
2.9289914E+002
 11
3.1445338E+002
 21
2.9339914E+002
  0
LINE
  8
AUTOCAD0
  6
CONTINUOUS
 62
40
 10
3.0645338E+002
 20
2.9289914E+002
 11
3.0645338E+002
 21
2.9339914E+002
  0
LINE
  8
AUTOCAD0
  6
CONTINUOUS
 62
40
 10
3.0845338E+002
 20
2.9539914E+002
 11
3.1245338E+002
 21
2.9539914E+002
  0
ARC
  8
AUTOCAD0
  6
CONTINUOUS
 62
40
 10
3.0845338E+002
 20
2.9339914E+002
 40
2.0
 50
9.0E+001
 51
1.8E+002
  0
ARC
  8
AUTOCAD0
  6
CONTINUOUS
 62
40
 10
3.1245338E+002
 20
2.9339914E+002
 40
2.0
 50
0.0
 51
9.0E+001
  0
ARC
  8
AUTOCAD0
  6
CONTINUOUS
 62
40
 10
3.8045338E+002
 20
2.9339914E+002
 40
2.0
 50
0.0
 51
9.0E+001
  0
ARC
  8
AUTOCAD0
  6
CONTINUOUS
 62
40
 10
3.7645338E+002
 20
2.9339914E+002
 40
2.0
 50
9.0E+001
 51
1.8E+002
  0
LINE
  8
AUTOCAD0
  6
CONTINUOUS
 62
40
 10
3.7645338E+002
 20
2.9539914E+002
 11
3.8045338E+002
 21
2.9539914E+002
  0
LINE
  8
AUTOCAD0
  6
CONTINUOUS
 62
40
 10
3.7445338E+002
 20
2.9289914E+002
 11
3.7445338E+002
 21
2.9339914E+002
  0
LINE
  8
AUTOCAD0
  6
CONTINUOUS
 62
40
 10
3.8245338E+002
 20
2.9289914E+002
 11
3.8245338E+002
 21
2.9339914E+002
  0
LINE
  8
AUTOCAD0
  6
CONTINUOUS
 62
40
 10
3.5445338E+002
 20
3.8539914E+002
 11
3.6045338E+002
 21
3.8539914E+002
  0
LINE
  8
AUTOCAD0
  6
CONTINUOUS
 62
40
 10
5.7245338E+002
 20
2.6739914E+002
 11
3.9045338E+002
 21
2.6739914E+002
  0
LINE
  8
AUTOCAD0
  6
CONTINUOUS
 62
40
 10
5.5145338E+002
 20
2.7739914E+002
 11
3.9045338E+002
 21
2.7739914E+002
  0
LINE
  8
AUTOCAD0
  6
CONTINUOUS
 62
40
 10
5.7245338E+002
 20
2.7139914E+002
 11
3.9045338E+002
 21
2.7139914E+002
  0
LINE
  8
AUTOCAD0
  6
CONTINUOUS
 62
40
 10
5.4545338E+002
 20
2.7339914E+002
 11
3.9045338E+002
 21
2.7339914E+002
  0
LINE
  8
AUTOCAD0
  6
CONTINUOUS
 62
40
 10
5.7245338E+002
 20
2.6439914E+002
 11
5.7245338E+002
 21
2.7139914E+002
  0
LINE
  8
AUTOCAD0
  6
CONTINUOUS
 62
40
 10
5.4445338E+002
 20
2.6439914E+002
 11
5.4445338E+002
 21
2.6739914E+002
  0
LINE
  8
AUTOCAD0
  6
CONTINUOUS
 62
40
 10
5.7245338E+002
 20
2.6439914E+002
 11
5.4445338E+002
 21
2.6439914E+002
  0
LINE
  8
AUTOCAD0
  6
CONTINUOUS
 62
40
 10
5.5145338E+002
 20
2.7539914E+002
 11
5.5145338E+002
 21
2.7739914E+002
  0
LINE
  8
AUTOCAD0
  6
CONTINUOUS
 62
40
 10
5.6595338E+002
 20
6.65E+001
 11
5.6745338E+002
 21
6.65E+001
  0
LINE
  8
AUTOCAD0
  6
CONTINUOUS
 62
40
 10
5.6595338E+002
 20
6.55E+001
 11
5.6745338E+002
 21
6.55E+001
  0
LINE
  8
AUTOCAD0
  6
CONTINUOUS
 62
40
 10
5.6345338E+002
 20
6.65E+001
 11
5.6345338E+002
 21
6.55E+001
  0
LINE
  8
AUTOCAD0
  6
CONTINUOUS
 62
40
 10
5.6495338E+002
 20
6.65E+001
 11
5.6495338E+002
 21
6.8E+001
  0
LINE
  8
AUTOCAD0
  6
CONTINUOUS
 62
40
 10
5.6595338E+002
 20
6.65E+001
 11
5.6595338E+002
 21
6.8E+001
  0
LINE
  8
AUTOCAD0
  6
CONTINUOUS
 62
40
 10
5.6495338E+002
 20
6.8E+001
 11
5.6595338E+002
 21
6.8E+001
  0
LINE
  8
AUTOCAD0
  6
CONTINUOUS
 62
40
 10
5.6745338E+002
 20
6.65E+001
 11
5.6745338E+002
 21
6.55E+001
  0
LINE
  8
AUTOCAD0
  6
CONTINUOUS
 62
40
 10
5.6495338E+002
 20
6.4E+001
 11
5.6595338E+002
 21
6.4E+001
  0
LINE
  8
AUTOCAD0
  6
CONTINUOUS
 62
40
 10
5.6345338E+002
 20
6.65E+001
 11
5.6495338E+002
 21
6.65E+001
  0
LINE
  8
AUTOCAD0
  6
CONTINUOUS
 62
40
 10
5.6345338E+002
 20
6.55E+001
 11
5.6495338E+002
 21
6.55E+001
  0
LINE
  8
AUTOCAD0
  6
CONTINUOUS
 62
40
 10
5.6595338E+002
 20
6.55E+001
 11
5.6595338E+002
 21
6.4E+001
  0
LINE
  8
AUTOCAD0
  6
CONTINUOUS
 62
40
 10
5.6495338E+002
 20
6.55E+001
 11
5.6495338E+002
 21
6.4E+001
  0
LINE
  8
AUTOCAD0
  6
CONTINUOUS
 62
40
 10
5.5095338E+002
 20
6.65E+001
 11
5.5245338E+002
 21
6.65E+001
  0
LINE
  8
AUTOCAD0
  6
CONTINUOUS
 62
40
 10
5.5095338E+002
 20
6.55E+001
 11
5.5245338E+002
 21
6.55E+001
  0
LINE
  8
AUTOCAD0
  6
CONTINUOUS
 62
40
 10
5.4845338E+002
 20
6.65E+001
 11
5.4845338E+002
 21
6.55E+001
  0
LINE
  8
AUTOCAD0
  6
CONTINUOUS
 62
40
 10
5.4995338E+002
 20
6.65E+001
 11
5.4995338E+002
 21
6.8E+001
  0
LINE
  8
AUTOCAD0
  6
CONTINUOUS
 62
40
 10
5.5095338E+002
 20
6.65E+001
 11
5.5095338E+002
 21
6.8E+001
  0
LINE
  8
AUTOCAD0
  6
CONTINUOUS
 62
40
 10
5.4995338E+002
 20
6.8E+001
 11
5.5095338E+002
 21
6.8E+001
  0
LINE
  8
AUTOCAD0
  6
CONTINUOUS
 62
40
 10
5.5245338E+002
 20
6.65E+001
 11
5.5245338E+002
 21
6.55E+001
  0
LINE
  8
AUTOCAD0
  6
CONTINUOUS
 62
40
 10
5.4995338E+002
 20
6.4E+001
 11
5.5095338E+002
 21
6.4E+001
  0
LINE
  8
AUTOCAD0
  6
CONTINUOUS
 62
40
 10
5.4845338E+002
 20
6.65E+001
 11
5.4995338E+002
 21
6.65E+001
  0
LINE
  8
AUTOCAD0
  6
CONTINUOUS
 62
40
 10
5.4845338E+002
 20
6.55E+001
 11
5.4995338E+002
 21
6.55E+001
  0
LINE
  8
AUTOCAD0
  6
CONTINUOUS
 62
40
 10
5.5095338E+002
 20
6.55E+001
 11
5.5095338E+002
 21
6.4E+001
  0
LINE
  8
AUTOCAD0
  6
CONTINUOUS
 62
40
 10
5.4995338E+002
 20
6.55E+001
 11
5.4995338E+002
 21
6.4E+001
  0
LINE
  8
AUTOCAD0
  6
CONTINUOUS
 62
40
 10
5.6845338E+002
 20
2.7539914E+002
 11
5.6245338E+002
 21
2.7539914E+002
  0
LINE
  8
AUTOCAD0
  6
CONTINUOUS
 62
40
 10
5.7045338E+002
 20
2.7339914E+002
 11
5.7045338E+002
 21
2.7139914E+002
  0
LINE
  8
AUTOCAD0
  6
CONTINUOUS
 62
40
 10
5.6045338E+002
 20
2.7339914E+002
 11
5.6045338E+002
 21
2.7139914E+002
  0
ARC
  8
AUTOCAD0
  6
CONTINUOUS
 62
40
 10
5.6245338E+002
 20
2.7339914E+002
 40
2.0
 50
9.0E+001
 51
1.8E+002
  0
ARC
  8
AUTOCAD0
  6
CONTINUOUS
 62
40
 10
5.6845338E+002
 20
2.7339914E+002
 40
2.0
 50
0.0
 51
9.0E+001
  0
ARC
  8
AUTOCAD0
  6
CONTINUOUS
 62
40
 10
5.5345338E+002
 20
2.7339914E+002
 40
2.0
 50
0.0
 51
9.0E+001
  0
ARC
  8
AUTOCAD0
  6
CONTINUOUS
 62
40
 10
5.4745338E+002
 20
2.7339914E+002
 40
2.0
 50
9.0E+001
 51
1.8E+002
  0
LINE
  8
AUTOCAD0
  6
CONTINUOUS
 62
40
 10
5.4545338E+002
 20
2.7339914E+002
 11
5.4545338E+002
 21
2.7139914E+002
  0
LINE
  8
AUTOCAD0
  6
CONTINUOUS
 62
40
 10
5.5545338E+002
 20
2.7339914E+002
 11
5.5545338E+002
 21
2.7139914E+002
  0
LINE
  8
AUTOCAD0
  6
CONTINUOUS
 62
40
 10
5.5345338E+002
 20
2.7539914E+002
 11
5.4745338E+002
 21
2.7539914E+002
  0
CIRCLE
  8
AUTOCAD0
  6
CONTINUOUS
 62
40
 10
3.5745338E+002
 20
3.1089914E+002
 40
4.0
  0
LINE
  8
AUTOCAD0
  6
CONTINUOUS
 62
40
 10
3.6145338E+002
 20
3.1320854E+002
 11
3.5745338E+002
 21
3.1551794E+002
  0
LINE
  8
AUTOCAD0
  6
CONTINUOUS
 62
40
 10
3.5745338E+002
 20
3.1551794E+002
 11
3.5345338E+002
 21
3.1320854E+002
  0
LINE
  8
AUTOCAD0
  6
CONTINUOUS
 62
40
 10
3.5345338E+002
 20
3.1320854E+002
 11
3.5345338E+002
 21
3.0858974E+002
  0
LINE
  8
AUTOCAD0
  6
CONTINUOUS
 62
40
 10
3.5345338E+002
 20
3.0858974E+002
 11
3.5745338E+002
 21
3.0628034E+002
  0
LINE
  8
AUTOCAD0
  6
CONTINUOUS
 62
40
 10
3.5745338E+002
 20
3.0628034E+002
 11
3.6145338E+002
 21
3.0858974E+002
  0
LINE
  8
AUTOCAD0
  6
CONTINUOUS
 62
40
 10
3.6145338E+002
 20
3.0858974E+002
 11
3.6145338E+002
 21
3.1320854E+002
  0
CIRCLE
  8
AUTOCAD0
  6
CONTINUOUS
 62
40
 10
3.5745338E+002
 20
3.1089914E+002
 40
2.5
  0
LINE
  8
AUTOCAD0
  6
CONTINUOUS
 62
40
 10
3.5895338E+002
 20
8.4E+001
 11
3.5895338E+002
 21
9.0E+001
  0
LINE
  8
AUTOCAD0
  6
CONTINUOUS
 62
40
 10
3.5595338E+002
 20
8.4E+001
 11
3.5595338E+002
 21
9.0E+001
  0
LINE
  8
AUTOCAD0
  6
CONTINUOUS
 62
40
 10
3.5795338E+002
 20
9.1E+001
 11
3.5695338E+002
 21
9.1E+001
  0
LINE
  8
AUTOCAD0
  6
CONTINUOUS
 62
40
 10
3.5595338E+002
 20
9.0E+001
 11
3.5695338E+002
 21
9.1E+001
  0
LINE
  8
AUTOCAD0
  6
CONTINUOUS
 62
40
 10
3.5795338E+002
 20
9.1E+001
 11
3.5895338E+002
 21
9.0E+001
  0
LINE
  8
AUTOCAD0
  6
CONTINUOUS
 62
40
 10
3.5595338E+002
 20
7.8E+001
 11
3.5595338E+002
 21
7.2E+001
  0
LINE
  8
AUTOCAD0
  6
CONTINUOUS
 62
40
 10
3.5895338E+002
 20
7.8E+001
 11
3.5895338E+002
 21
7.2E+001
  0
LINE
  8
AUTOCAD0
  6
CONTINUOUS
 62
40
 10
3.5795338E+002
 20
7.1E+001
 11
3.5895338E+002
 21
7.2E+001
  0
LINE
  8
AUTOCAD0
  6
CONTINUOUS
 62
40
 10
3.5595338E+002
 20
7.2E+001
 11
3.5695338E+002
 21
7.1E+001
  0
LINE
  8
AUTOCAD0
  6
CONTINUOUS
 62
40
 10
3.5795338E+002
 20
7.1E+001
 11
3.5695338E+002
 21
7.1E+001
  0
LINE
  8
AUTOCAD0
  6
CONTINUOUS
 62
40
 10
3.5895338E+002
 20
7.3E+001
 11
3.6145338E+002
 21
7.3E+001
  0
LINE
  8
AUTOCAD0
  6
CONTINUOUS
 62
40
 10
3.5895338E+002
 20
8.9E+001
 11
3.6145338E+002
 21
8.9E+001
  0
ARC
  8
AUTOCAD0
  6
CONTINUOUS
 62
40
 10
3.5745338E+002
 20
8.1E+001
 40
8.0
 50
1.0080692E+002
 51
2.5919308E+002
  0
LINE
  8
AUTOCAD0
  6
CONTINUOUS
 62
40
 10
1.255002E+002
 20
1.08E+002
 11
1.250002E+002
 21
1.08E+002
  0
LINE
  8
AUTOCAD0
  6
CONTINUOUS
 62
40
 10
1.255002E+002
 20
1.16E+002
 11
1.250002E+002
 21
1.16E+002
  0
LINE
  8
AUTOCAD0
  6
CONTINUOUS
 62
40
 10
1.230002E+002
 20
1.14E+002
 11
1.230002E+002
 21
1.1E+002
  0
ARC
  8
AUTOCAD0
  6
CONTINUOUS
 62
40
 10
1.250002E+002
 20
1.14E+002
 40
2.0
 50
9.0E+001
 51
1.8E+002
  0
ARC
  8
AUTOCAD0
  6
CONTINUOUS
 62
40
 10
1.250002E+002
 20
1.1E+002
 40
2.0
 50
1.8E+002
 51
2.7E+002
  0
ARC
  8
AUTOCAD0
  6
CONTINUOUS
 62
40
 10
1.250002E+002
 20
5.3E+001
 40
2.0
 50
1.8E+002
 51
2.7E+002
  0
ARC
  8
AUTOCAD0
  6
CONTINUOUS
 62
40
 10
1.250002E+002
 20
5.7E+001
 40
2.0
 50
9.0E+001
 51
1.8E+002
  0
LINE
  8
AUTOCAD0
  6
CONTINUOUS
 62
40
 10
1.230002E+002
 20
5.7E+001
 11
1.230002E+002
 21
5.3E+001
  0
LINE
  8
AUTOCAD0
  6
CONTINUOUS
 62
40
 10
1.255002E+002
 20
5.9E+001
 11
1.250002E+002
 21
5.9E+001
  0
LINE
  8
AUTOCAD0
  6
CONTINUOUS
 62
40
 10
1.255002E+002
 20
5.1E+001
 11
1.250002E+002
 21
5.1E+001
  0
LINE
  8
AUTOCAD0
  6
CONTINUOUS
 62
40
 10
1.028814E+002
 20
9.3E+001
 11
1.120002E+002
 21
9.3E+001
  0
LINE
  8
AUTOCAD0
  6
CONTINUOUS
 62
40
 10
2.740002E+002
 20
7.8E+001
 11
2.740002E+002
 21
8.4E+001
  0
LINE
  8
AUTOCAD0
  6
CONTINUOUS
 62
40
 10
2.740002E+002
 20
8.4E+001
 11
1.580002E+002
 21
8.4E+001
  0
LINE
  8
AUTOCAD0
  6
CONTINUOUS
 62
40
 10
2.740002E+002
 20
7.8E+001
 11
1.580002E+002
 21
7.8E+001
  0
LINE
  8
AUTOCAD0
  6
CONTINUOUS
 62
40
 10
3.7500197E+001
 20
7.8E+001
 11
3.7500197E+001
 21
7.2E+001
  0
LINE
  8
AUTOCAD0
  6
CONTINUOUS
 62
40
 10
4.0500197E+001
 20
7.8E+001
 11
4.0500197E+001
 21
7.2E+001
  0
LINE
  8
AUTOCAD0
  6
CONTINUOUS
 62
40
 10
3.9500197E+001
 20
7.1E+001
 11
4.0500197E+001
 21
7.2E+001
  0
LINE
  8
AUTOCAD0
  6
CONTINUOUS
 62
40
 10
3.7500197E+001
 20
7.2E+001
 11
3.8500197E+001
 21
7.1E+001
  0
LINE
  8
AUTOCAD0
  6
CONTINUOUS
 62
40
 10
3.9500197E+001
 20
7.1E+001
 11
3.8500197E+001
 21
7.1E+001
  0
LINE
  8
AUTOCAD0
  6
CONTINUOUS
 62
40
 10
3.9500197E+001
 20
9.1E+001
 11
3.8500197E+001
 21
9.1E+001
  0
LINE
  8
AUTOCAD0
  6
CONTINUOUS
 62
40
 10
3.7500197E+001
 20
9.0E+001
 11
3.8500197E+001
 21
9.1E+001
  0
LINE
  8
AUTOCAD0
  6
CONTINUOUS
 62
40
 10
3.9500197E+001
 20
9.1E+001
 11
4.0500197E+001
 21
9.0E+001
  0
LINE
  8
AUTOCAD0
  6
CONTINUOUS
 62
40
 10
3.7500197E+001
 20
8.4E+001
 11
3.7500197E+001
 21
9.0E+001
  0
LINE
  8
AUTOCAD0
  6
CONTINUOUS
 62
40
 10
4.0500197E+001
 20
8.4E+001
 11
4.0500197E+001
 21
9.0E+001
  0
LINE
  8
AUTOCAD0
  6
CONTINUOUS
 62
40
 10
1.120002E+002
 20
6.0E+001
 11
1.255002E+002
 21
6.0E+001
  0
LINE
  8
AUTOCAD0
  6
CONTINUOUS
 62
40
 10
1.120002E+002
 20
1.02E+002
 11
1.120002E+002
 21
6.0E+001
  0
LINE
  8
AUTOCAD0
  6
CONTINUOUS
 62
40
 10
1.255002E+002
 20
1.02E+002
 11
1.120002E+002
 21
1.02E+002
  0
LINE
  8
AUTOCAD0
  6
CONTINUOUS
 62
40
 10
1.120002E+002
 20
7.3E+001
 11
1.030002E+002
 21
7.3E+001
  0
LINE
  8
AUTOCAD0
  6
CONTINUOUS
 62
40
 10
1.120002E+002
 20
8.9E+001
 11
1.028814E+002
 21
8.9E+001
  0
LINE
  8
AUTOCAD0
  6
CONTINUOUS
 62
40
 10
1.030002E+002
 20
7.3E+001
 11
1.030002E+002
 21
8.9E+001
  0
LINE
  8
AUTOCAD0
  6
CONTINUOUS
 62
40
 10
3.3000197E+001
 20
7.8E+001
 11
3.3000197E+001
 21
8.4E+001
  0
LINE
  8
AUTOCAD0
  6
CONTINUOUS
 62
40
 10
1.030002E+002
 20
8.4E+001
 11
3.3000197E+001
 21
8.4E+001
  0
LINE
  8
AUTOCAD0
  6
CONTINUOUS
 62
40
 10
1.030002E+002
 20
7.8E+001
 11
3.3000197E+001
 21
7.8E+001
  0
LINE
  8
AUTOCAD0
  6
CONTINUOUS
 62
40
 10
1.580002E+002
 20
1.2E+002
 11
1.580002E+002
 21
4.7E+001
  0
LINE
  8
AUTOCAD0
  6
CONTINUOUS
 62
40
 10
1.255002E+002
 20
4.7E+001
 11
1.255002E+002
 21
1.2E+002
  0
LINE
  8
AUTOCAD0
  6
CONTINUOUS
 62
40
 10
1.580002E+002
 20
4.7E+001
 11
1.255002E+002
 21
4.7E+001
  0
LINE
  8
AUTOCAD0
  6
CONTINUOUS
 62
40
 10
1.580002E+002
 20
1.2E+002
 11
1.255002E+002
 21
1.2E+002
  0
LINE
  8
AUTOCAD0
  6
CONTINUOUS
 62
40
 10
1.450002E+002
 20
1.0E+002
 11
1.410002E+002
 21
1.0E+002
  0
LINE
  8
AUTOCAD0
  6
CONTINUOUS
 62
40
 10
1.450002E+002
 20
8.8E+001
 11
1.410002E+002
 21
8.8E+001
  0
LINE
  8
AUTOCAD0
  6
CONTINUOUS
 62
40
 10
1.540002E+002
 20
6.0E+001
 11
1.470002E+002
 21
6.0E+001
  0
LINE
  8
AUTOCAD0
  6
CONTINUOUS
 62
40
 10
1.510002E+002
 20
7.2E+001
 11
1.470002E+002
 21
7.2E+001
  0
LINE
  8
AUTOCAD0
  6
CONTINUOUS
 62
40
 10
1.470002E+002
 20
7.2E+001
 11
1.470002E+002
 21
6.0E+001
  0
LINE
  8
AUTOCAD0
  6
CONTINUOUS
 62
40
 10
1.410002E+002
 20
1.0E+002
 11
1.410002E+002
 21
8.8E+001
  0
LINE
  8
AUTOCAD0
  6
CONTINUOUS
 62
40
 10
1.450002E+002
 20
1.0E+002
 11
1.450002E+002
 21
8.8E+001
  0
LINE
  8
AUTOCAD0
  6
CONTINUOUS
 62
40
 10
1.510002E+002
 20
1.02E+002
 11
1.510002E+002
 21
6.0E+001
  0
LINE
  8
AUTOCAD0
  6
CONTINUOUS
 62
40
 10
1.540002E+002
 20
9.0E+001
 11
1.540002E+002
 21
6.0E+001
  0
LINE
  8
AUTOCAD0
  6
CONTINUOUS
 62
40
 10
7.6936451E+002
 20
1.08E+002
 11
7.6986451E+002
 21
1.08E+002
  0
LINE
  8
AUTOCAD0
  6
CONTINUOUS
 62
40
 10
7.6936451E+002
 20
1.16E+002
 11
7.6986451E+002
 21
1.16E+002
  0
LINE
  8
AUTOCAD0
  6
CONTINUOUS
 62
40
 10
7.7186451E+002
 20
1.14E+002
 11
7.7186451E+002
 21
1.1E+002
  0
ARC
  8
AUTOCAD0
  6
CONTINUOUS
 62
40
 10
7.6986451E+002
 20
1.14E+002
 40
2.0
 50
0.0
 51
9.0E+001
  0
ARC
  8
AUTOCAD0
  6
CONTINUOUS
 62
40
 10
7.6986451E+002
 20
1.1E+002
 40
2.0
 50
2.7E+002
 51
3.6E+002
  0
ARC
  8
AUTOCAD0
  6
CONTINUOUS
 62
40
 10
7.6986451E+002
 20
5.3E+001
 40
2.0
 50
2.7E+002
 51
3.6E+002
  0
ARC
  8
AUTOCAD0
  6
CONTINUOUS
 62
40
 10
7.6986451E+002
 20
5.7E+001
 40
2.0
 50
0.0
 51
9.0E+001
  0
LINE
  8
AUTOCAD0
  6
CONTINUOUS
 62
40
 10
7.7186451E+002
 20
5.7E+001
 11
7.7186451E+002
 21
5.3E+001
  0
LINE
  8
AUTOCAD0
  6
CONTINUOUS
 62
40
 10
7.6936451E+002
 20
5.9E+001
 11
7.6986451E+002
 21
5.9E+001
  0
LINE
  8
AUTOCAD0
  6
CONTINUOUS
 62
40
 10
7.6936451E+002
 20
5.1E+001
 11
7.6986451E+002
 21
5.1E+001
  0
LINE
  8
AUTOCAD0
  6
CONTINUOUS
 62
40
 10
6.2086451E+002
 20
7.8E+001
 11
6.2086451E+002
 21
8.4E+001
  0
LINE
  8
AUTOCAD0
  6
CONTINUOUS
 62
40
 10
6.2086451E+002
 20
8.4E+001
 11
7.3686451E+002
 21
8.4E+001
  0
LINE
  8
AUTOCAD0
  6
CONTINUOUS
 62
40
 10
6.2086451E+002
 20
7.8E+001
 11
7.3686451E+002
 21
7.8E+001
  0
LINE
  8
AUTOCAD0
  6
CONTINUOUS
 62
40
 10
8.5736451E+002
 20
7.8E+001
 11
8.5736451E+002
 21
7.2E+001
  0
LINE
  8
AUTOCAD0
  6
CONTINUOUS
 62
40
 10
8.5436451E+002
 20
7.8E+001
 11
8.5436451E+002
 21
7.2E+001
  0
LINE
  8
AUTOCAD0
  6
CONTINUOUS
 62
40
 10
8.5536451E+002
 20
7.1E+001
 11
8.5436451E+002
 21
7.2E+001
  0
LINE
  8
AUTOCAD0
  6
CONTINUOUS
 62
40
 10
8.5736451E+002
 20
7.2E+001
 11
8.5636451E+002
 21
7.1E+001
  0
LINE
  8
AUTOCAD0
  6
CONTINUOUS
 62
40
 10
8.5536451E+002
 20
7.1E+001
 11
8.5636451E+002
 21
7.1E+001
  0
LINE
  8
AUTOCAD0
  6
CONTINUOUS
 62
40
 10
8.5536451E+002
 20
9.1E+001
 11
8.5636451E+002
 21
9.1E+001
  0
LINE
  8
AUTOCAD0
  6
CONTINUOUS
 62
40
 10
8.5736451E+002
 20
9.0E+001
 11
8.5636451E+002
 21
9.1E+001
  0
LINE
  8
AUTOCAD0
  6
CONTINUOUS
 62
40
 10
8.5536451E+002
 20
9.1E+001
 11
8.5436451E+002
 21
9.0E+001
  0
LINE
  8
AUTOCAD0
  6
CONTINUOUS
 62
40
 10
8.5736451E+002
 20
8.4E+001
 11
8.5736451E+002
 21
9.0E+001
  0
LINE
  8
AUTOCAD0
  6
CONTINUOUS
 62
40
 10
8.5436451E+002
 20
8.4E+001
 11
8.5436451E+002
 21
9.0E+001
  0
LINE
  8
AUTOCAD0
  6
CONTINUOUS
 62
40
 10
7.8286451E+002
 20
6.0E+001
 11
7.6936451E+002
 21
6.0E+001
  0
LINE
  8
AUTOCAD0
  6
CONTINUOUS
 62
40
 10
7.8286451E+002
 20
1.02E+002
 11
7.8286451E+002
 21
6.0E+001
  0
LINE
  8
AUTOCAD0
  6
CONTINUOUS
 62
40
 10
7.6936451E+002
 20
1.02E+002
 11
7.8286451E+002
 21
1.02E+002
  0
LINE
  8
AUTOCAD0
  6
CONTINUOUS
 62
40
 10
8.6186451E+002
 20
7.8E+001
 11
8.6186451E+002
 21
8.4E+001
  0
LINE
  8
AUTOCAD0
  6
CONTINUOUS
 62
40
 10
7.9186451E+002
 20
8.4E+001
 11
8.6186451E+002
 21
8.4E+001
  0
LINE
  8
AUTOCAD0
  6
CONTINUOUS
 62
40
 10
7.9186451E+002
 20
7.8E+001
 11
8.6186451E+002
 21
7.8E+001
  0
LINE
  8
AUTOCAD0
  6
CONTINUOUS
 62
40
 10
7.3686451E+002
 20
1.2E+002
 11
7.3686451E+002
 21
4.7E+001
  0
LINE
  8
AUTOCAD0
  6
CONTINUOUS
 62
40
 10
7.6936451E+002
 20
4.7E+001
 11
7.6936451E+002
 21
1.2E+002
  0
LINE
  8
AUTOCAD0
  6
CONTINUOUS
 62
40
 10
7.3686451E+002
 20
4.7E+001
 11
7.6936451E+002
 21
4.7E+001
  0
LINE
  8
AUTOCAD0
  6
CONTINUOUS
 62
40
 10
7.3686451E+002
 20
1.2E+002
 11
7.6936451E+002
 21
1.2E+002
  0
LINE
  8
AUTOCAD0
  6
CONTINUOUS
 62
40
 10
1.540002E+002
 20
9.0E+001
 11
1.510002E+002
 21
9.0E+001
  0
LINE
  8
AUTOCAD0
  6
CONTINUOUS
 62
40
 10
1.510002E+002
 20
1.02E+002
 11
1.480002E+002
 21
1.02E+002
  0
LINE
  8
AUTOCAD0
  6
CONTINUOUS
 62
40
 10
1.510002E+002
 20
7.3E+001
 11
1.480002E+002
 21
7.3E+001
  0
LINE
  8
AUTOCAD0
  6
CONTINUOUS
 62
40
 10
1.255002E+002
 20
7.3E+001
 11
1.255002E+002
 21
7.3E+001
  0
LINE
  8
AUTOCAD0
  6
CONTINUOUS
 62
40
 10
1.480002E+002
 20
1.02E+002
 11
1.480002E+002
 21
7.3E+001
  0
LINE
  8
AUTOCAD0
  6
CONTINUOUS
 62
40
 10
1.430002E+002
 20
6.3E+001
 11
1.430002E+002
 21
6.9E+001
  0
LINE
  8
AUTOCAD0
  6
CONTINUOUS
 62
40
 10
1.450002E+002
 20
6.1E+001
 11
1.470002E+002
 21
6.1E+001
  0
LINE
  8
AUTOCAD0
  6
CONTINUOUS
 62
40
 10
1.450002E+002
 20
7.1E+001
 11
1.470002E+002
 21
7.1E+001
  0
ARC
  8
AUTOCAD0
  6
CONTINUOUS
 62
40
 10
1.450002E+002
 20
6.9E+001
 40
2.0
 50
9.0E+001
 51
1.8E+002
  0
ARC
  8
AUTOCAD0
  6
CONTINUOUS
 62
40
 10
1.450002E+002
 20
6.3E+001
 40
2.0
 50
1.8E+002
 51
2.7E+002
  0
LINE
  8
AUTOCAD0
  6
CONTINUOUS
 62
40
 10
1.450002E+002
 20
9.7E+001
 11
1.480002E+002
 21
9.7E+001
  0
LINE
  8
AUTOCAD0
  6
CONTINUOUS
 62
40
 10
1.450002E+002
 20
9.1E+001
 11
1.480002E+002
 21
9.1E+001
  0
LINE
  8
AUTOCAD0
  6
CONTINUOUS
 62
40
 10
1.028814E+002
 20
9.3E+001
 11
1.028814E+002
 21
8.9E+001
  0
LINE
  8
AUTOCAD0
  6
CONTINUOUS
 62
40
 10
1.051908E+002
 20
9.3E+001
 11
1.051908E+002
 21
8.9E+001
  0
LINE
  8
AUTOCAD0
  6
CONTINUOUS
 62
40
 10
1.098096E+002
 20
9.3E+001
 11
1.098096E+002
 21
8.9E+001
  0
LINE
  8
AUTOCAD0
  6
CONTINUOUS
 62
40
 10
1.098096E+002
 20
6.9E+001
 11
1.098096E+002
 21
7.3E+001
  0
LINE
  8
AUTOCAD0
  6
CONTINUOUS
 62
40
 10
1.051908E+002
 20
6.9E+001
 11
1.051908E+002
 21
7.3E+001
  0
LINE
  8
AUTOCAD0
  6
CONTINUOUS
 62
40
 10
1.028814E+002
 20
6.9E+001
 11
1.028814E+002
 21
7.3E+001
  0
LINE
  8
AUTOCAD0
  6
CONTINUOUS
 62
40
 10
1.028814E+002
 20
6.9E+001
 11
1.120002E+002
 21
6.9E+001
  0
CIRCLE
  8
AUTOCAD0
  6
CONTINUOUS
 62
40
 10
3.5745338E+002
 20
3.7939914E+002
 40
1.5
  0
LINE
  8
AUTOCAD0
  6
CONTINUOUS
 62
40
 10
7.9198332E+002
 20
6.9E+001
 11
7.8286451E+002
 21
6.9E+001
  0
LINE
  8
AUTOCAD0
  6
CONTINUOUS
 62
40
 10
7.9198332E+002
 20
6.9E+001
 11
7.9198332E+002
 21
7.3E+001
  0
LINE
  8
AUTOCAD0
  6
CONTINUOUS
 62
40
 10
7.8967392E+002
 20
6.9E+001
 11
7.8967392E+002
 21
7.3E+001
  0
LINE
  8
AUTOCAD0
  6
CONTINUOUS
 62
40
 10
7.8505511E+002
 20
6.9E+001
 11
7.8505511E+002
 21
7.3E+001
  0
LINE
  8
AUTOCAD0
  6
CONTINUOUS
 62
40
 10
7.8505511E+002
 20
9.3E+001
 11
7.8505511E+002
 21
8.9E+001
  0
LINE
  8
AUTOCAD0
  6
CONTINUOUS
 62
40
 10
7.8967392E+002
 20
9.3E+001
 11
7.8967392E+002
 21
8.9E+001
  0
LINE
  8
AUTOCAD0
  6
CONTINUOUS
 62
40
 10
7.9198332E+002
 20
9.3E+001
 11
7.9198332E+002
 21
8.9E+001
  0
LINE
  8
AUTOCAD0
  6
CONTINUOUS
 62
40
 10
7.9186451E+002
 20
7.3E+001
 11
7.9186451E+002
 21
8.9E+001
  0
LINE
  8
AUTOCAD0
  6
CONTINUOUS
 62
40
 10
7.8286451E+002
 20
8.9E+001
 11
7.9198332E+002
 21
8.9E+001
  0
LINE
  8
AUTOCAD0
  6
CONTINUOUS
 62
40
 10
7.8286451E+002
 20
7.3E+001
 11
7.9186451E+002
 21
7.3E+001
  0
LINE
  8
AUTOCAD0
  6
CONTINUOUS
 62
40
 10
7.9198332E+002
 20
9.3E+001
 11
7.8286451E+002
 21
9.3E+001
  0
INSERT
  2
YASDB37Y
  8
AUTOCAD0
 10
3.5745338E+002
 20
8.1E+001
  0
INSERT
  2
YASDB37P
  8
AUTOCAD0
 10
3.5745338E+002
 20
3.658986E+002
  0
INSERT
  2
YASDB37S
  8
AUTOCAD0
 10
8.4236437E+002
 20
8.1E+001
  0
INSERT
  2
YASDB37S
  8
AUTOCAD0
 10
5.2500341E+001
 20
8.1E+001
 41
-1.0
 43
-1.0
 42
1.0
  0
LINE
  8
AUTOCAD0
  6
KV
 62
40
 10
5.7676709E+002
 20
8.8E+001
 11
5.6411023E+002
 21
7.5343146E+001
  0
ARC
  8
AUTOCAD0
  6
KV
 62
40
 10
5.5845338E+002
 20
8.1E+001
 40
8.0
 50
1.35E+002
 51
3.15E+002
  0
LINE
  8
AUTOCAD0
  6
KV
 62
40
 10
5.5279653E+002
 20
8.6656855E+001
 11
5.5413967E+002
 21
8.8E+001
  0
ARC
  8
AUTOCAD0
  6
KV
 62
40
 10
5.7145338E+002
 20
9.4E+001
 40
8.0
 50
3.1859038E+002
 51
4.0140962E+002
  0
LINE
  8
AUTOCAD0
  6
KV
 62
40
 10
5.7745338E+002
 20
1.0E+002
 11
5.7745338E+002
 21
8.8E+001
  0
LINE
  8
AUTOCAD0
  6
KV
 62
40
 10
5.5145338E+002
 20
1.0E+002
 11
5.7745338E+002
 21
1.0E+002
  0
LINE
  8
AUTOCAD0
  6
KV
 62
40
 10
5.5145338E+002
 20
8.8E+001
 11
5.7745338E+002
 21
8.8E+001
  0
CIRCLE
  8
AUTOCAD0
  6
KV
 62
40
 10
5.7145338E+002
 20
9.4E+001
 40
2.5
  0
LINE
  8
AUTOCAD0
  6
CONTINUOUS
 62
40
 10
3.6812366E+002
 20
3.1539914E+002
 11
3.862719E+002
 21
3.1539914E+002
  0
LINE
  8
AUTOCAD0
  6
CONTINUOUS
 62
40
 10
3.8005287E+002
 20
3.658987E+002
 11
3.862719E+002
 21
3.658987E+002
  0
LINE
  8
AUTOCAD0
  6
CONTINUOUS
 62
40
 10
3.852719E+002
 20
3.1739914E+002
 11
3.852719E+002
 21
3.638987E+002
  0
LINE
  8
AUTOCAD0
  6
CONTINUOUS
 62
40
 10
3.8493857E+002
 20
3.1739914E+002
 11
3.8560523E+002
 21
3.1739914E+002
  0
LINE
  8
AUTOCAD0
  6
CONTINUOUS
 62
40
 10
3.8493857E+002
 20
3.1739914E+002
 11
3.852719E+002
 21
3.1539914E+002
  0
LINE
  8
AUTOCAD0
  6
CONTINUOUS
 62
40
 10
3.852719E+002
 20
3.1539914E+002
 11
3.8560523E+002
 21
3.1739914E+002
  0
LINE
  8
AUTOCAD0
  6
CONTINUOUS
 62
40
 10
3.8493857E+002
 20
3.638987E+002
 11
3.8560523E+002
 21
3.638987E+002
  0
LINE
  8
AUTOCAD0
  6
CONTINUOUS
 62
40
 10
3.8493857E+002
 20
3.638987E+002
 11
3.852719E+002
 21
3.658987E+002
  0
LINE
  8
AUTOCAD0
  6
CONTINUOUS
 62
40
 10
3.852719E+002
 20
3.658987E+002
 11
3.8560523E+002
 21
3.638987E+002
  0
TEXT
  8
AUTOCAD0
  6
CONTINUOUS
 62
40
 10
3.840219E+002
 20
3.3606559E+002
 40
2.5
  1
8...65
 41
6.665E-001
 50
9.0E+001
  0
POINT
  8
DEFPOINTS
  6
CONTINUOUS
 62
40
 10
3.6812366E+002
 20
3.1539914E+002
  0
POINT
  8
DEFPOINTS
  6
CONTINUOUS
 62
40
 10
3.8005287E+002
 20
3.658987E+002
  0
POINT
  8
DEFPOINTS
  6
CONTINUOUS
 62
40
 10
3.852719E+002
 20
3.658987E+002
  0
ENDSEC
  0
EOF
