  0
SECTION
  2
HEADER
  9
$ACADVER
  1
AC1009
  9
$DWGCODEPAGE
  3
iso8859-1
  9
$INSBASE
 10
0.0
 20
0.0
 30
0.0
  9
$EXTMIN
 10
1.0E20
 20
1.0E20
  9
$EXTMAX
 10
-1.0E20
 20
-1.0E20
  9
$LIMMIN
 10
0.0
 20
0.0
  9
$LIMMAX
 10
12.0
 20
9.0
  9
$ORTHOMODE
 70
     0
  9
$REGENMODE
 70
     1
  9
$FILLMODE
 70
     1
  9
$QTEXTMODE
 70
     0
  9
$MIRRTEXT
 70
     1
  9
$DRAGMODE
 70
     2
  9
$LTSCALE
 40
15.0
  9
$OSMODE
 70
     0
  9
$ATTMODE
 70
     1
  9
$TEXTSIZE
 40
0.2
  9
$TRACEWID
 40
0.05
  9
$TEXTSTYLE
  7
STANDARD
  9
$CLAYER
  8
0
  9
$CELTYPE
  6
DASHED
  9
$CECOLOR
 62
   256
  9
$DIMSCALE
 40
1.0
  9
$DIMASZ
 40
0.18
  9
$DIMEXO
 40
0.0625
  9
$DIMDLI
 40
0.38
  9
$DIMRND
 40
0.0
  9
$DIMDLE
 40
0.0
  9
$DIMEXE
 40
0.18
  9
$DIMTP
 40
0.0
  9
$DIMTM
 40
0.0
  9
$DIMTXT
 40
0.18
  9
$DIMCEN
 40
0.09
  9
$DIMTSZ
 40
0.0
  9
$DIMTOL
 70
     0
  9
$DIMLIM
 70
     0
  9
$DIMTIH
 70
     1
  9
$DIMTOH
 70
     1
  9
$DIMSE1
 70
     0
  9
$DIMSE2
 70
     0
  9
$DIMTAD
 70
     0
  9
$DIMZIN
 70
     0
  9
$DIMBLK
  1

  9
$DIMASO
 70
     1
  9
$DIMSHO
 70
     1
  9
$DIMPOST
  1

  9
$DIMAPOST
  1

  9
$DIMALT
 70
     0
  9
$DIMALTD
 70
     2
  9
$DIMALTF
 40
25.4
  9
$DIMLFAC
 40
1.0
  9
$DIMTOFL
 70
     0
  9
$DIMTVP
 40
0.0
  9
$DIMTIX
 70
     0
  9
$DIMSOXD
 70
     0
  9
$DIMSAH
 70
     0
  9
$DIMBLK1
  1

  9
$DIMBLK2
  1

  9
$DIMSTYLE
  2
STANDARD
  9
$DIMCLRD
 70
     0
  9
$DIMCLRE
 70
     0
  9
$DIMCLRT
 70
     0
  9
$DIMTFAC
 40
1.0
  9
$DIMGAP
 40
0.09
  9
$LUNITS
 70
     2
  9
$LUPREC
 70
     4
  9
$AXISMODE
 70
     0
  9
$AXISUNIT
 10
0.0
 20
0.0
  9
$SKETCHINC
 40
0.1
  9
$FILLETRAD
 40
0.0
  9
$AUNITS
 70
     0
  9
$AUPREC
 70
     0
  9
$MENU
  1
acad
  9
$ELEVATION
 40
0.0
  9
$PELEVATION
 40
0.0
  9
$THICKNESS
 40
0.0
  9
$LIMCHECK
 70
     0
  9
$BLIPMODE
 70
     1
  9
$CHAMFERA
 40
0.0
  9
$CHAMFERB
 40
0.0
  9
$SKPOLY
 70
     0
  9
$TDCREATE
 40
0.000000000
  9
$TDUPDATE
 40
0.000000000
  9
$TDINDWG
 40
0.0
  9
$TDUSRTIMER
 40
0.0
  9
$USRTIMER
 70
     1
  9
$ANGBASE
 50
0.0
  9
$ANGDIR
 70
     0
  9
$PDMODE
 70
     0
  9
$PDSIZE
 40
0.0
  9
$PLINEWID
 40
0.0
  9
$COORDS
 70
     1
  9
$SPLFRAME
 70
     0
  9
$SPLINETYPE
 70
     6
  9
$SPLINESEGS
 70
     8
  9
$ATTDIA
 70
     0
  9
$ATTREQ
 70
     1
  9
$HANDLING
 70
     1
  9
$HANDSEED
  5
   422
  9
$SURFTAB1
 70
     6
  9
$SURFTAB2
 70
     6
  9
$SURFTYPE
 70
     6
  9
$SURFU
 70
     6
  9
$SURFV
 70
     6
  9
$UCSNAME
  2

  9
$UCSORG
 10
0.0
 20
0.0
 30
0.0
  9
$UCSXDIR
 10
1.0
 20
0.0
 30
0.0
  9
$UCSYDIR
 10
0.0
 20
1.0
 30
0.0
  9
$PUCSNAME
  2

  9
$PUCSORG
 10
0.0
 20
0.0
 30
0.0
  9
$PUCSXDIR
 10
1.0
 20
0.0
 30
0.0
  9
$PUCSYDIR
 10
0.0
 20
1.0
 30
0.0
  9
$USERI1
 70
     0
  9
$USERI2
 70
     0
  9
$USERI3
 70
     0
  9
$USERI4
 70
     0
  9
$USERI5
 70
     0
  9
$USERR1
 40
0.0
  9
$USERR2
 40
0.0
  9
$USERR3
 40
0.0
  9
$USERR4
 40
0.0
  9
$USERR5
 40
0.0
  9
$WORLDVIEW
 70
     1
  9
$SHADEDGE
 70
     3
  9
$SHADEDIF
 70
    70
  9
$TILEMODE
 70
     1
  9
$MAXACTVP
 70
    16
  9
$PINSBASE
 10
0.0
 20
0.0
 30
0.0
  9
$PLIMCHECK
 70
     0
  9
$PEXTMIN
 10
1.0E20
 20
1.0E20
 30
1.0E20
  9
$PEXTMAX
 10
-1.0E20
 20
-1.0E20
 30
-1.0E20
  9
$PLIMMIN
 10
0.0
 20
0.0
  9
$PLIMMAX
 10
12.0
 20
9.0
  9
$UNITMODE
 70
     0
  9
$VISRETAIN
 70
     0
  0
ENDSEC
  0
SECTION
  2
TABLES
  0
TABLE
  2
VPORT
 70
     1
  0
VPORT
  2
*ACTIVE
 70
     0
 10
0.0
 20
0.0
 11
1.0
 21
1.0
 12
6.801242
 22
4.5
 13
0.0
 23
0.0
 14
1.0
 24
1.0
 15
0.0
 25
0.0
 16
0.0
 26
0.0
 36
1.0
 17
0.0
 27
0.0
 37
0.0
 40
9.0
 41
1.511387
 42
50.0
 43
0.0
 44
0.0
 50
0.0
 51
0.0
 71
     0
 72
   100
 73
     1
 74
     1
 75
     0
 76
     0
 77
     0
 78
     0
  0
ENDTAB
  0
TABLE
  2
LTYPE
 70
    41
  0
LTYPE
  2
BYBLOCK
 70
     0
  3

 72
    65
 73
     0
 40
0.0
  0
LTYPE
  2
BYLAYER
 70
     0
  3

 72
    65
 73
     0
 40
0.0
  0
LTYPE
  2
CONTINUOUS
 70
     0
  3
Solid line
 72
    65
 73
     0
 40
0.0
  0
LTYPE
  2
BORDER
 70
    64
  3
__ __ . __ __ . __ __ . __ __ . __ __ . __ __ .
 72
    65
 73
     6
 40
1.75
 49
0.5
 49
-0.25
 49
0.5
 49
-0.25
 49
0.0
 49
-0.25
  0
LTYPE
  2
BORDER2
 70
    64
  3
__.__.__.__.__.__.__.__.__.__.__.__.__.__.__.__
 72
    65
 73
     6
 40
0.875
 49
0.25
 49
-0.125
 49
0.25
 49
-0.125
 49
0.0
 49
-0.125
  0
LTYPE
  2
BORDERX2
 70
    64
  3
____  ____  .  ____  ____  .  ____  ____  .  __
 72
    65
 73
     6
 40
3.5
 49
1.0
 49
-0.5
 49
1.0
 49
-0.5
 49
0.0
 49
-0.5
  0
LTYPE
  2
CENTER
 70
    64
  3
____ _ ____ _ ____ _ ____ _ ____ _ ____ _ ____
 72
    65
 73
     4
 40
2.0
 49
1.25
 49
-0.25
 49
0.25
 49
-0.25
  0
LTYPE
  2
CENTER2
 70
    64
  3
___ _ ___ _ ___ _ ___ _ ___ _ ___ _ ___ _ ___ _
 72
    65
 73
     4
 40
1.125
 49
0.75
 49
-0.125
 49
0.125
 49
-0.125
  0
LTYPE
  2
CENTERX2
 70
    64
  3
________  __  ________  __  ________  __  _____
 72
    65
 73
     4
 40
4.0
 49
2.5
 49
-0.5
 49
0.5
 49
-0.5
  0
LTYPE
  2
DASHDOT
 70
    64
  3
__ . __ . __ . __ . __ . __ . __ . __ . __ . __
 72
    65
 73
     4
 40
1.0
 49
0.5
 49
-0.25
 49
0.0
 49
-0.25
  0
LTYPE
  2
DASHDOT2
 70
    64
  3
_._._._._._._._._._._._._._._._._._._._._._._._
 72
    65
 73
     4
 40
0.5
 49
0.25
 49
-0.125
 49
0.0
 49
-0.125
  0
LTYPE
  2
DASHDOTX2
 70
    64
  3
____  .  ____  .  ____  .  ____  .  ____  .  __
 72
    65
 73
     4
 40
2.0
 49
1.0
 49
-0.5
 49
0.0
 49
-0.5
  0
LTYPE
  2
DASHED
 70
    64
  3
__ __ __ __ __ __ __ __ __ __ __ __ __ __ __ __
 72
    65
 73
     2
 40
0.75
 49
0.5
 49
-0.25
  0
LTYPE
  2
DASHED2
 70
    64
  3
_ _ _ _ _ _ _ _ _ _ _ _ _ _ _ _ _ _ _ _ _ _ _ _
 72
    65
 73
     2
 40
0.375
 49
0.25
 49
-0.125
  0
LTYPE
  2
DASHEDX2
 70
    64
  3
____  ____  ____  ____  ____  ____  ____  ____
 72
    65
 73
     2
 40
1.5
 49
1.0
 49
-0.5
  0
LTYPE
  2
DIVIDE
 70
    64
  3
____ . . ____ . . ____ . . ____ . . ____ . . __
 72
    65
 73
     6
 40
1.25
 49
0.5
 49
-0.25
 49
0.0
 49
-0.25
 49
0.0
 49
-0.25
  0
LTYPE
  2
DIVIDE2
 70
    64
  3
__..__..__..__..__..__..__..__..__..__..__..__.
 72
    65
 73
     6
 40
0.625
 49
0.25
 49
-0.125
 49
0.0
 49
-0.125
 49
0.0
 49
-0.125
  0
LTYPE
  2
DIVIDEX2
 70
    64
  3
________  .  .  ________  .  .  ________  .  .
 72
    65
 73
     6
 40
2.5
 49
1.0
 49
-0.5
 49
0.0
 49
-0.5
 49
0.0
 49
-0.5
  0
LTYPE
  2
DOT
 70
    64
  3
. . . . . . . . . . . . . . . . . . . . . . . .
 72
    65
 73
     2
 40
0.25
 49
0.0
 49
-0.25
  0
LTYPE
  2
DOT2
 70
    64
  3
...............................................
 72
    65
 73
     2
 40
0.125
 49
0.0
 49
-0.125
  0
LTYPE
  2
DOTX2
 70
    64
  3
.  .  .  .  .  .  .  .  .  .  .  .  .  .  .  .
 72
    65
 73
     2
 40
0.5
 49
0.0
 49
-0.5
  0
LTYPE
  2
HIDDEN
 70
    64
  3
__ __ __ __ __ __ __ __ __ __ __ __ __ __ __ __
 72
    65
 73
     2
 40
0.375
 49
0.25
 49
-0.125
  0
LTYPE
  2
HIDDEN2
 70
    64
  3
_ _ _ _ _ _ _ _ _ _ _ _ _ _ _ _ _ _ _ _ _ _ _ _
 72
    65
 73
     2
 40
0.1875
 49
0.125
 49
-0.0625
  0
LTYPE
  2
HIDDENX2
 70
    64
  3
____ ____ ____ ____ ____ ____ ____ ____ ____ __
 72
    65
 73
     2
 40
0.75
 49
0.5
 49
-0.25
  0
LTYPE
  2
PHANTOM
 70
    64
  3
______  __  __  ______  __  __  ______  __  __
 72
    65
 73
     6
 40
2.5
 49
1.25
 49
-0.25
 49
0.25
 49
-0.25
 49
0.25
 49
-0.25
  0
LTYPE
  2
PHANTOM2
 70
    64
  3
___ _ _ ___ _ _ ___ _ _ ___ _ _ ___ _ _ ___ _ _
 72
    65
 73
     6
 40
1.25
 49
0.625
 49
-0.125
 49
0.125
 49
-0.125
 49
0.125
 49
-0.125
  0
LTYPE
  2
PHANTOMX2
 70
    64
  3
____________    ____    ____    ____________
 72
    65
 73
     6
 40
5.0
 49
2.5
 49
-0.5
 49
0.5
 49
-0.5
 49
0.5
 49
-0.5
  0
LTYPE
  2
ACAD_ISO02W100
 70
    64
  3
__ __ __ __ __ __ __ __ __ __ __ __ __ __ __ __
 72
    65
 73
     2
 40
15.0
 49
12.0
 49
-3.0
  0
LTYPE
  2
ACAD_ISO03W100
 70
    64
  3
__    __    __    __    __    __    __    __
 72
    65
 73
     2
 40
30.0
 49
12.0
 49
-18.0
  0
LTYPE
  2
ACAD_ISO04W100
 70
    64
  3
____ . ____ . ____ . ____ . ____ . ____ . ____
 72
    65
 73
     4
 40
30.5
 49
24.0
 49
-3.0
 49
0.5
 49
-3.0
  0
LTYPE
  2
ACAD_ISO05W100
 70
    64
  3
____ .. ____ .. ____ .. ____ .. ____ .. ____ ..
 72
    65
 73
     6
 40
34.0
 49
24.0
 49
-3.0
 49
0.5
 49
-3.0
 49
0.5
 49
-3.0
  0
LTYPE
  2
ACAD_ISO06W100
 70
    64
  3
____ ... ____ ... ____ ... ____ ... ____ ... __
 72
    65
 73
     8
 40
37.5
 49
24.0
 49
-3.0
 49
0.5
 49
-3.0
 49
0.5
 49
-3.0
 49
0.5
 49
-3.0
  0
LTYPE
  2
ACAD_ISO07W100
 70
    64
  3
. . . . . . . . . . . . . . . . . . . . . . . .
 72
    65
 73
     2
 40
3.5
 49
0.5
 49
-3.0
  0
LTYPE
  2
ACAD_ISO08W100
 70
    64
  3
____ __ ____ __ ____ __ ____ ____ __ __ ____ __
 72
    65
 73
     4
 40
36.0
 49
24.0
 49
-3.0
 49
6.0
 49
-3.0
  0
LTYPE
  2
ACAD_ISO09W100
 70
    64
  3
____ __ __ ____ __ __ ____ __ __ ____ __ __ ___
 72
    65
 73
     6
 40
45.0
 49
24.0
 49
-3.0
 49
6.0
 49
-3.0
 49
6.0
 49
-3.0
  0
LTYPE
  2
ACAD_ISO10W100
 70
    64
  3
__ . __ . __ . __ . __ . __ . __ . __ . __ . __
 72
    65
 73
     4
 40
18.5
 49
12.0
 49
-3.0
 49
0.5
 49
-3.0
  0
LTYPE
  2
ACAD_ISO11W100
 70
    64
  3
__ __ . __ __ . __ __ . __ __ . __ __ . __ __ .
 72
    65
 73
     6
 40
33.5
 49
12.0
 49
-3.0
 49
12.0
 49
-3.0
 49
0.5
 49
-3.0
  0
LTYPE
  2
ACAD_ISO12W100
 70
    64
  3
__ . . __ . . __ . . __ . . __ . . __ . . __ .
 72
    65
 73
     6
 40
22.0
 49
12.0
 49
-3.0
 49
0.5
 49
-3.0
 49
0.5
 49
-3.0
  0
LTYPE
  2
ACAD_ISO13W100
 70
    64
  3
__ __ . . __ __ . . __ __ . . __ __ . . __ __ .
 72
    65
 73
     8
 40
37.0
 49
12.0
 49
-3.0
 49
12.0
 49
-3.0
 49
0.5
 49
-3.0
 49
0.5
 49
-3.0
  0
LTYPE
  2
ACAD_ISO14W100
 70
    64
  3
__ . . . __ . . . __ . . . __ . . . __ . . . __
 72
    65
 73
     8
 40
25.5
 49
12.0
 49
-3.0
 49
0.5
 49
-3.0
 49
0.5
 49
-3.0
 49
0.5
 49
-3.0
  0
LTYPE
  2
ACAD_ISO15W100
 70
    64
  3
__ __ . . . __ __ . . . __ __ . . . __ __ . . .
 72
    65
 73
    10
 40
40.5
 49
12.0
 49
-3.0
 49
12.0
 49
-3.0
 49
0.5
 49
-3.0
 49
0.5
 49
-3.0
 49
0.5
 49
-3.0
  0
ENDTAB
  0
TABLE
  2
STYLE
 70
     4
  0
STYLE
  2
STANDARD
 70
    64
 40
0.0
 41
1.0
 50
0.0
 71
     0
 42
0.2
  3
txt
  4

  0
STYLE
  2
TOLERANCE
 70
    64
 40
0.0
 41
1.0
 50
0.0
 71
     0
 42
0.2
  3
../igesfont/iges1003.shx
  4

  0
STYLE
  2
ROMANS
 70
    64
 40
0.0
 41
1.0
 50
0.0
 71
     0
 42
0.2
  3
romans.shx
  4

  0
STYLE
  2
ROMANC
 70
    64
 40
0.0
 41
1.0
 50
0.0
 71
     0
 42
0.2
  3
romanc.shx
  4

  0
ENDTAB
  0
TABLE
  2
DIMSTYLE
 70
     2
  0
DIMSTYLE
  2
UNNAMED
 70
     0
  3

  4

  5

  6

  7

 40
1.0
 41
0.18
 42
0.0625
 43
0.38
 44
0.18
 45
0.0
 46
0.0
 47
0.0
 48
0.0
140
0.18
141
0.09
142
0.0
143
25.4
144
1.0
145
0.0
146
1.0
147
0.09
 71
     0
 72
     0
 73
     1
 74
     1
 75
     0
 76
     0
 77
     0
 78
     0
170
     0
171
     2
172
     0
173
     0
174
     0
175
     0
176
     0
177
     0
178
     0
  0
DIMSTYLE
  2
STANDARD
 70
     0
  3

  4

  5

  6

  7

 40
1.0
 41
0.18
 42
0.0625
 43
0.38
 44
0.18
 45
0.0
 46
0.0
 47
0.0
 48
0.0
140
0.18
141
0.09
142
0.0
143
25.4
144
1.0
145
0.0
146
1.0
147
0.09
 71
     0
 72
     0
 73
     1
 74
     1
 75
     0
 76
     0
 77
     0
 78
     0
170
     0
171
     2
172
     0
173
     0
174
     0
175
     0
176
     0
177
     0
178
     0
  0
ENDTAB
  0
TABLE
  2
LAYER
 70
     1
  0
LAYER
  2
0
 70
     0
 62
     7
  6
CONTINUOUS
  0
ENDTAB
  0
ENDSEC
  0
SECTION
  2
BLOCKS
  0
BLOCK
  5
     B
  8
0
  6
CONTINUOUS
 62
     7
  2
*UDIM1347
 70
    65
 10
0.0
 20
0.0
 30
0.0
  3
*UDIM1347
  0
TEXT
  5
     C
  8
0
  6
CONTINUOUS
 62
     7
 10
-680.930714864779
 20
-148.30430889186
 30
0.0
 40
3.49999987987691
  1
115
 41
0.933333333333333
 72
     1
 11
-676.380715020939
 21
-146.554308951921
 31
0.0
 73
     2
  0
TEXT
  5
     D
  8
0
  6
CONTINUOUS
 62
     7
 10
-670.830715177099
 20
-148.30430889186
 30
0.0
 40
3.49999987987691
  1
 per S1
 41
0.933333333333333
 72
     1
 11
-659.747382224155
 21
-146.554308951921
 31
0.0
 73
     2
  0
LINE
  5
     E
  8
0
  6
CONTINUOUS
 62
     7
 10
-761.23271191959
 20
-149.30430889186
 30
0.0
 11
-591.528718122288
 21
-149.30430889186
 31
0.0
  0
LINE
  5
     F
  8
0
  6
CONTINUOUS
 62
     2
 10
-758.334934446379
 20
-148.527851735441
 30
0.0
 11
-761.23271191959
 21
-149.30430889186
 31
0.0
  0
LINE
  5
    10
  8
0
  6
CONTINUOUS
 62
     2
 10
-761.23271191959
 20
-149.30430889186
 30
0.0
 11
-758.334934446379
 21
-150.080766048278
 31
0.0
  0
LINE
  5
    11
  8
0
  6
CONTINUOUS
 62
     2
 10
-594.426495595498
 20
-150.080766048278
 30
0.0
 11
-591.528718122288
 21
-149.30430889186
 31
0.0
  0
LINE
  5
    12
  8
0
  6
CONTINUOUS
 62
     2
 10
-591.528718122288
 20
-149.30430889186
 30
0.0
 11
-594.426495595498
 21
-148.527851735441
 31
0.0
  0
ENDBLK
  5
    13
  8
0
  6
CONTINUOUS
 62
     7
  0
BLOCK
  5
    14
  8
0
  6
CONTINUOUS
 62
     7
  2
*UDIM1348
 70
    65
 10
0.0
 20
0.0
 30
0.0
  3
*UDIM1348
  0
TEXT
  5
    15
  8
0
  6
CONTINUOUS
 62
     7
 10
-680.930714864779
 20
-129.964764721566
 30
0.0
 40
3.49999987987691
  1
120
 41
0.933333333333333
 72
     1
 11
-676.380715020939
 21
-128.214764781628
 31
0.0
 73
     2
  0
TEXT
  5
    16
  8
0
  6
CONTINUOUS
 62
     7
 10
-670.830715177099
 20
-129.964764721566
 30
0.0
 40
3.49999987987691
  1
 per S2
 41
0.933333333333333
 72
     1
 11
-659.747382224155
 21
-128.214764781628
 31
0.0
 73
     2
  0
LINE
  5
    17
  8
0
  6
CONTINUOUS
 62
     7
 10
-761.23271191959
 20
-142.32616546409
 30
0.0
 11
-761.23271191959
 21
-128.964764721566
 31
0.0
  0
LINE
  5
    18
  8
0
  6
CONTINUOUS
 62
     7
 10
-591.528718122288
 20
-142.32616546409
 30
0.0
 11
-591.528718122288
 21
-128.964764721566
 31
0.0
  0
LINE
  5
    19
  8
0
  6
CONTINUOUS
 62
     7
 10
-761.23271191959
 20
-130.964764721566
 30
0.0
 11
-591.528718122288
 21
-130.964764721566
 31
0.0
  0
LINE
  5
    1A
  8
0
  6
CONTINUOUS
 62
     2
 10
-758.334934446379
 20
-130.188307565148
 30
0.0
 11
-761.23271191959
 21
-130.964764721566
 31
0.0
  0
LINE
  5
    1B
  8
0
  6
CONTINUOUS
 62
     2
 10
-761.23271191959
 20
-130.964764721566
 30
0.0
 11
-758.334934446379
 21
-131.741221877985
 31
0.0
  0
LINE
  5
    1C
  8
0
  6
CONTINUOUS
 62
     2
 10
-594.426495595498
 20
-131.741221877985
 30
0.0
 11
-591.528718122288
 21
-130.964764721566
 31
0.0
  0
LINE
  5
    1D
  8
0
  6
CONTINUOUS
 62
     2
 10
-591.528718122288
 20
-130.964764721566
 30
0.0
 11
-594.426495595498
 21
-130.188307565148
 31
0.0
  0
ENDBLK
  5
    1E
  8
0
  6
CONTINUOUS
 62
     7
  0
BLOCK
  5
    1F
  8
0
  6
CONTINUOUS
 62
     7
  2
*UDIM1349
 70
    65
 10
0.0
 20
0.0
 30
0.0
  3
*UDIM1349
  0
TEXT
  5
    20
  8
0
  6
CONTINUOUS
 62
     7
 10
-754.616830868942
 20
-340.06268774562
 30
0.0
 40
3.49999987987691
  1
RIMUOVERE LE VITI DI STAFFAGGIO DEL COPERCHIO
 41
0.933333333333333
 72
     1
 11
-681.466833379514
 21
-338.312687805681
 31
0.0
 73
     2
  0
TEXT
  5
    21
  8
0
  6
CONTINUOUS
 62
     7
 10
-746.450164482562
 20
-344.962687840987
 30
0.0
 40
3.49999987987691
  1
E SOSTITUIRLE CON QUELLE FORNITE NEL KIT
 41
0.933333333333333
 72
     1
 11
-681.466833379514
 21
-343.212687901049
 31
0.0
 73
     2
  0
TEXT
  5
    22
  8
0
  6
CONTINUOUS
 62
     7
 10
-741.550164650735
 20
-349.862687936355
 30
0.0
 40
3.49999987987691
  1
REMOVE THE SCREWS FIXING THE CB COVER
 41
0.933333333333333
 72
     1
 11
-681.466833379514
 21
-348.112687996416
 31
0.0
 73
     2
  0
TEXT
  5
    23
  8
0
  6
CONTINUOUS
 62
     7
 10
-766.050163809873
 20
-354.762688031722
 30
0.0
 40
3.49999987987691
  1
AND REPLACE THEM WITH THE SCREWS SUPPLIED IN THE KIT
 41
0.933333333333333
 72
     1
 11
-681.466833379514
 21
-353.012688091784
 31
0.0
 73
     2
  0
LINE
  5
    24
  8
0
  6
CONTINUOUS
 62
     7
 10
-612.741601447053
 20
-310.443201688582
 30
0.0
 11
-586.169190346797
 21
-340.544938141289
 31
0.0
  0
LINE
  5
    25
  8
0
  6
CONTINUOUS
 62
     7
 10
-586.169190346797
 20
-340.544938141289
 30
0.0
 11
-591.883502949156
 21
-356.762688031722
 31
0.0
  0
LINE
  5
    26
  8
0
  6
CONTINUOUS
 62
     7
 10
-740.019661584748
 20
-169.023181360351
 30
0.0
 11
-847.326124704207
 21
-311.2773506702
 31
0.0
  0
LINE
  5
    27
  8
0
  6
CONTINUOUS
 62
     7
 10
-847.326124704207
 20
-311.2773506702
 30
0.0
 11
-771.050163809873
 21
-356.762688031722
 31
0.0
  0
LINE
  5
    28
  8
0
  6
CONTINUOUS
 62
     7
 10
-771.050163809873
 20
-356.762688031722
 30
0.0
 11
-591.883502949156
 21
-356.762688031722
 31
0.0
  0
LINE
  5
    29
  8
0
  6
CONTINUOUS
 62
     2
 10
-610.241778738352
 20
-312.101781329438
 30
0.0
 11
-612.741601447053
 21
-310.443201688582
 31
0.0
  0
LINE
  5
    2A
  8
0
  6
CONTINUOUS
 62
     2
 10
-612.741601447053
 20
-310.443201688582
 30
0.0
 11
-611.405981335929
 21
-313.129485165574
 31
0.0
  0
LINE
  5
    2B
  8
0
  6
CONTINUOUS
 62
     2
 10
-741.144855776158
 20
-171.80417723083
 30
0.0
 11
-740.019661584748
 21
-169.023181360351
 31
0.0
  0
LINE
  5
    2C
  8
0
  6
CONTINUOUS
 62
     2
 10
-740.019661584748
 20
-169.023181360351
 30
0.0
 11
-742.384606300833
 21
-170.868997301842
 31
0.0
  0
ENDBLK
  5
    2D
  8
0
  6
CONTINUOUS
 62
     7
  0
BLOCK
  5
    2E
  8
0
  6
CONTINUOUS
 62
     7
  2
*UDIM1350
 70
    65
 10
0.0
 20
0.0
 30
0.0
  3
*UDIM1350
  0
TEXT
  5
    2F
  8
0
  6
CONTINUOUS
 62
     7
 10
-724.333707267484
 20
-139.377123369812
 30
0.0
 40
3.49999987987691
  1
117.5
 41
0.933333333333333
 72
     1
 11
-716.517040869092
 21
-137.627123429874
 31
0.0
 73
     2
  0
TEXT
  5
    30
  8
0
  6
CONTINUOUS
 62
     7
 10
-707.7003744707
 20
-139.377123369812
 30
0.0
 40
3.49999987987691
  1
 for S1 interlocked with S2
 41
0.933333333333333
 72
     1
 11
-663.950375972239
 21
-137.627123429874
 31
0.0
 73
     2
  0
LINE
  5
    31
  8
0
  6
CONTINUOUS
 62
     7
 10
-761.23271191959
 20
-142.32616546409
 30
0.0
 11
-761.23271191959
 21
-138.377123369812
 31
0.0
  0
LINE
  5
    32
  8
0
  6
CONTINUOUS
 62
     7
 10
-591.528718122288
 20
-142.32616546409
 30
0.0
 11
-591.528718122288
 21
-138.377123369812
 31
0.0
  0
LINE
  5
    33
  8
0
  6
CONTINUOUS
 62
     7
 10
-761.23271191959
 20
-140.377123369812
 30
0.0
 11
-591.528718122288
 21
-140.377123369812
 31
0.0
  0
LINE
  5
    34
  8
0
  6
CONTINUOUS
 62
     2
 10
-758.334934446379
 20
-139.600666213394
 30
0.0
 11
-761.23271191959
 21
-140.377123369812
 31
0.0
  0
LINE
  5
    35
  8
0
  6
CONTINUOUS
 62
     2
 10
-761.23271191959
 20
-140.377123369812
 30
0.0
 11
-758.334934446379
 21
-141.153580526231
 31
0.0
  0
LINE
  5
    36
  8
0
  6
CONTINUOUS
 62
     2
 10
-594.426495595498
 20
-141.153580526231
 30
0.0
 11
-591.528718122288
 21
-140.377123369812
 31
0.0
  0
LINE
  5
    37
  8
0
  6
CONTINUOUS
 62
     2
 10
-591.528718122288
 20
-140.377123369812
 30
0.0
 11
-594.426495595498
 21
-139.600666213394
 31
0.0
  0
ENDBLK
  5
    38
  8
0
  6
CONTINUOUS
 62
     7
  0
ENDSEC
  0
SECTION
  2
ENTITIES
  0
LINE
  5
    39
  8
0
  6
CONTINUOUS
 62
     7
 10
-697.593627929688
 20
-154.881210327148
 30
0.0
 11
-697.593627929688
 21
-154.881210327148
 31
0.0
  0
LINE
  5
    3A
  8
0
  6
CONTINUOUS
 62
     7
 10
-697.593627929688
 20
-154.881210327148
 30
0.0
 11
-697.593627929688
 21
-154.881210327148
 31
0.0
  0
LINE
  5
    3B
  8
0
  6
CONTINUOUS
 62
     7
 10
-697.593627929688
 20
-154.881210327148
 30
0.0
 11
-697.593627929688
 21
-154.881210327148
 31
0.0
  0
LINE
  5
    3C
  8
0
  6
CONTINUOUS
 62
     7
 10
-697.593627929688
 20
-154.881210327148
 30
0.0
 11
-697.593627929688
 21
-154.881210327148
 31
0.0
  0
LINE
  5
    3D
  8
0
  6
CONTINUOUS
 62
     7
 10
-697.593627929688
 20
-154.881210327148
 30
0.0
 11
-697.593627929688
 21
-154.881210327148
 31
0.0
  0
LINE
  5
    3E
  8
0
  6
CONTINUOUS
 62
     7
 10
-697.593627929688
 20
-154.881210327148
 30
0.0
 11
-697.593627929688
 21
-154.881210327148
 31
0.0
  0
LINE
  5
    3F
  8
0
  6
CONTINUOUS
 62
     7
 10
-697.593627929688
 20
-154.881210327148
 30
0.0
 11
-697.593627929688
 21
-154.881210327148
 31
0.0
  0
LINE
  5
    40
  8
0
  6
CONTINUOUS
 62
     7
 10
-697.593627929688
 20
-154.881210327148
 30
0.0
 11
-697.593627929688
 21
-154.881210327148
 31
0.0
  0
LINE
  5
    41
  8
0
  6
CONTINUOUS
 62
     7
 10
-780.32443145208
 20
-324.585247282405
 30
0.0
 11
-761.232732046286
 21
-324.585247282405
 31
0.0
  0
LINE
  5
    42
  8
0
  6
CONTINUOUS
 62
     7
 10
-819.922025635034
 20
-324.585247282405
 30
0.0
 11
-784.567031297012
 21
-324.585247282405
 31
0.0
  0
LINE
  5
    43
  8
0
  6
CONTINUOUS
 62
     7
 10
-819.922026066611
 20
-154.88127506408
 30
0.0
 11
-784.567072413553
 21
-154.88127506408
 31
0.0
  0
LINE
  5
    44
  8
0
  6
CONTINUOUS
 62
     7
 10
-780.32447256862
 20
-154.881275064082
 30
0.0
 11
-761.23275405684
 21
-154.881275064082
 31
0.0
  0
LINE
  5
    45
  8
0
  6
CONTINUOUS
 62
     7
 10
-824.871666435616
 20
-317.514242816448
 30
0.0
 11
-824.871666435616
 21
-161.952270081233
 31
0.0
  0
LINE
  5
    46
  8
0
  6
CONTINUOUS
 62
     7
 10
-824.871705277788
 20
-288.523127021493
 30
0.0
 11
-761.232707603799
 21
-288.523127021493
 31
0.0
  0
LINE
  5
    47
  8
0
  6
CONTINUOUS
 62
     7
 10
-778.910231503769
 20
-324.585247282405
 30
0.0
 11
-778.910231503769
 21
-319.635547463318
 31
0.0
  0
LINE
  5
    48
  8
0
  6
CONTINUOUS
 62
     7
 10
-780.32443145208
 20
-324.585247282405
 30
0.0
 11
-780.32443145208
 21
-322.817497347017
 31
0.0
  0
LINE
  5
    49
  8
0
  6
CONTINUOUS
 62
     7
 10
-784.567031297012
 20
-324.585247282405
 30
0.0
 11
-784.567031297012
 21
-322.817475768038
 31
0.0
  0
LINE
  5
    4A
  8
0
  6
CONTINUOUS
 62
     7
 10
-785.981231245323
 20
-324.585247282405
 30
0.0
 11
-785.981231245323
 21
-319.635547463318
 31
0.0
  0
LINE
  5
    4B
  8
0
  6
CONTINUOUS
 62
     7
 10
-785.981231245323
 20
-319.635547463318
 30
0.0
 11
-778.910231503769
 21
-319.635547463318
 31
0.0
  0
LINE
  5
    4C
  8
0
  6
CONTINUOUS
 62
     7
 10
-785.981232594009
 20
-159.83097488317
 30
0.0
 11
-778.910232852455
 21
-159.83097488317
 31
0.0
  0
LINE
  5
    4D
  8
0
  6
CONTINUOUS
 62
     7
 10
-785.981232594009
 20
-159.83097488317
 30
0.0
 11
-785.981232594009
 21
-158.063224947781
 31
0.0
  0
LINE
  5
    4E
  8
0
  6
CONTINUOUS
 62
     7
 10
-784.567032645699
 20
-156.649024999471
 30
0.0
 11
-784.567032645699
 21
-154.881275064082
 31
0.0
  0
LINE
  5
    4F
  8
0
  6
CONTINUOUS
 62
     7
 10
-780.324432800766
 20
-156.649024999471
 30
0.0
 11
-780.324432800766
 21
-154.881275064082
 31
0.0
  0
LINE
  5
    50
  8
0
  6
CONTINUOUS
 62
     7
 10
-778.910308378843
 20
-159.830985672573
 30
0.0
 11
-778.910308378843
 21
-158.063235737184
 31
0.0
  0
LINE
  5
    51
  8
0
  6
CONTINUOUS
 62
     7
 10
-763.000483433958
 20
-154.881253485103
 30
0.0
 11
-759.464984911867
 21
-154.881253485103
 31
0.0
  0
LINE
  5
    52
  8
0
  6
CONTINUOUS
 62
     7
 10
-824.871714988327
 20
-224.884129347521
 30
0.0
 11
-775.374625086783
 21
-224.884129347521
 31
0.0
  0
CIRCLE
  5
    53
  8
0
  6
CONTINUOUS
 62
     7
 10
-803.658730495612
 20
-320.342647437473
 30
0.0
 40
1.76774993538857
  0
ARC
  5
    54
  8
0
  6
CONTINUOUS
 62
     7
 10
-761.232732046286
 20
-320.342647437473
 30
0.0
 40
1.76774993538857
 50
89.9999999999996
 51
270.0
  0
ARC
  5
    55
  8
0
  6
CONTINUOUS
 62
     7
 10
-761.23275405684
 20
-159.123874909015
 30
0.0
 40
1.76774993538857
 50
90.0
 51
270.0
  0
CIRCLE
  5
    56
  8
0
  6
CONTINUOUS
 62
     7
 10
-803.658699089592
 20
-159.123887856391
 30
0.0
 40
1.76774993538857
  0
LINE
  5
    57
  8
0
  6
CONTINUOUS
 62
     7
 10
-780.32447256862
 20
-157.709674960704
 30
0.0
 11
-780.32447256862
 21
-154.881275064082
 31
0.0
  0
LINE
  5
    58
  8
0
  6
CONTINUOUS
 62
     7
 10
-784.567072413553
 20
-157.709674960704
 30
0.0
 11
-784.567072413553
 21
-154.881275064082
 31
0.0
  0
LINE
  5
    59
  8
0
  6
CONTINUOUS
 62
     7
 10
-785.98119548668
 20
-159.830991067314
 30
0.0
 11
-785.98119548668
 21
-154.88127506408
 31
0.0
  0
LINE
  5
    5A
  8
0
  6
CONTINUOUS
 62
     7
 10
-778.910272620309
 20
-159.83097488317
 30
0.0
 11
-778.910272620309
 21
-154.881275064082
 31
0.0
  0
LINE
  5
    5B
  8
0
  6
CONTINUOUS
 62
     7
 10
-785.981272361864
 20
-159.83097488317
 30
0.0
 11
-778.910272620309
 21
-159.83097488317
 31
0.0
  0
LINE
  5
    5C
  8
0
  6
CONTINUOUS
 62
     7
 10
-780.32447256862
 20
-157.709674960704
 30
0.0
 11
-778.910272620309
 21
-157.709674960704
 31
0.0
  0
LINE
  5
    5D
  8
0
  6
CONTINUOUS
 62
     7
 10
-785.981273710535
 20
-157.709674960704
 30
0.0
 11
-784.567072413553
 21
-157.709674960704
 31
0.0
  0
LINE
  5
    5E
  8
0
  6
CONTINUOUS
 62
     7
 10
-784.567072413553
 20
-324.585268861384
 30
0.0
 11
-784.567072413553
 21
-321.756868964763
 31
0.0
  0
LINE
  5
    5F
  8
0
  6
CONTINUOUS
 62
     7
 10
-780.32447256862
 20
-324.585268861384
 30
0.0
 11
-780.32447256862
 21
-321.756868964763
 31
0.0
  0
LINE
  5
    60
  8
0
  6
CONTINUOUS
 62
     7
 10
-785.981273710535
 20
-321.756868964763
 30
0.0
 11
-784.567072413553
 21
-321.756868964763
 31
0.0
  0
LINE
  5
    61
  8
0
  6
CONTINUOUS
 62
     7
 10
-780.32447256862
 20
-321.756868964763
 30
0.0
 11
-778.910272620309
 21
-321.756868964763
 31
0.0
  0
LINE
  5
    62
  8
0
  6
CONTINUOUS
 62
     7
 10
-771.839231762214
 20
-272.135167014256
 30
0.0
 11
-771.839231762214
 21
-258.117806553841
 31
0.0
  0
LINE
  5
    63
  8
0
  6
CONTINUOUS
 62
     7
 10
-771.839231308417
 20
-272.135167014256
 30
0.0
 11
-770.425031360107
 21
-272.135167014256
 31
0.0
  0
LINE
  5
    64
  8
0
  6
CONTINUOUS
 62
     7
 10
-771.839231328713
 20
-271.60314006494
 30
0.0
 11
-770.425031380402
 21
-271.60314006494
 31
0.0
  0
LINE
  5
    65
  8
0
  6
CONTINUOUS
 62
     7
 10
-822.75037050527
 20
-234.076429011542
 30
0.0
 11
-776.788932579332
 21
-234.076429011542
 31
0.0
  0
LINE
  5
    66
  8
0
  6
CONTINUOUS
 62
     7
 10
-822.750370181585
 20
-236.197728934008
 30
0.0
 11
-776.788932498411
 21
-236.197728934008
 31
0.0
  0
LINE
  5
    67
  8
0
  6
CONTINUOUS
 62
     7
 10
-822.75037050527
 20
-279.330827357473
 30
0.0
 11
-797.436227359503
 21
-279.330827357473
 31
0.0
  0
LINE
  5
    68
  8
0
  6
CONTINUOUS
 62
     7
 10
-822.75037050527
 20
-277.209527435006
 30
0.0
 11
-770.425031166535
 21
-277.209527435006
 31
0.0
  0
LINE
  5
    69
  8
0
  6
CONTINUOUS
 62
     7
 10
-783.294227876394
 20
-279.330827357473
 30
0.0
 11
-719.089549144132
 21
-279.330827357473
 31
0.0
  0
LINE
  5
    6A
  8
0
  6
CONTINUOUS
 62
     7
 10
-770.425031813903
 20
-276.690045041547
 30
0.0
 11
-770.425031813903
 21
-264.792365042642
 31
0.0
  0
LINE
  5
    6B
  8
0
  6
CONTINUOUS
 62
     7
 10
-697.593627929688
 20
-154.881210327148
 30
0.0
 11
-697.593627929688
 21
-154.881210327148
 31
0.0
  0
LINE
  5
    6C
  8
0
  6
CONTINUOUS
 62
     7
 10
-697.593627929688
 20
-154.881210327148
 30
0.0
 11
-697.593627929688
 21
-154.881210327148
 31
0.0
  0
LINE
  5
    6D
  8
0
  6
CONTINUOUS
 62
     7
 10
-697.593627929688
 20
-154.881210327148
 30
0.0
 11
-697.593627929688
 21
-154.881210327148
 31
0.0
  0
LINE
  5
    6E
  8
0
  6
CONTINUOUS
 62
     7
 10
-697.593627929688
 20
-154.881210327148
 30
0.0
 11
-697.593627929688
 21
-154.881210327148
 31
0.0
  0
LINE
  5
    6F
  8
0
  6
CONTINUOUS
 62
     7
 10
-697.593627929688
 20
-154.881210327148
 30
0.0
 11
-697.593627929688
 21
-154.881210327148
 31
0.0
  0
LINE
  5
    70
  8
0
  6
CONTINUOUS
 62
     7
 10
-697.593627929688
 20
-154.881210327148
 30
0.0
 11
-697.593627929688
 21
-154.881210327148
 31
0.0
  0
LINE
  5
    71
  8
0
  6
CONTINUOUS
 62
     7
 10
-823.457522592647
 20
-304.079343091712
 30
0.0
 11
-761.232702478788
 21
-304.079343091712
 31
0.0
  0
ARC
  5
    72
  8
0
  6
CONTINUOUS
 62
     7
 10
-819.922025635034
 20
-156.295470072207
 30
0.0
 40
1.41419994831085
 50
90.0
 51
180.00000874264
  0
ARC
  5
    73
  8
0
  6
CONTINUOUS
 62
     7
 10
-819.922025635034
 20
-323.171063972887
 30
0.0
 40
1.41419994831085
 50
179.99999125736
 51
270.0
  0
LINE
  5
    74
  8
0
  6
CONTINUOUS
 62
     7
 10
-821.336215980699
 20
-318.928442548976
 30
0.0
 11
-821.336215980699
 21
-304.079343091712
 31
0.0
  0
LINE
  5
    75
  8
0
  6
CONTINUOUS
 62
     7
 10
-824.871703227782
 20
-301.958043169246
 30
0.0
 11
-761.232732046286
 21
-301.958043169246
 31
0.0
  0
LINE
  5
    76
  8
0
  6
CONTINUOUS
 62
     7
 10
-823.457515903165
 20
-304.079343091712
 30
0.0
 11
-823.457515903165
 21
-301.958043169246
 31
0.0
  0
LINE
  5
    77
  8
0
  6
CONTINUOUS
 62
     7
 10
-823.457509645261
 20
-177.508490875848
 30
0.0
 11
-823.457509645261
 21
-175.387190953382
 31
0.0
  0
LINE
  5
    78
  8
0
  6
CONTINUOUS
 62
     7
 10
-823.457522592647
 20
-175.387190953382
 30
0.0
 11
-775.374625086783
 21
-175.387190953382
 31
0.0
  0
LINE
  5
    79
  8
0
  6
CONTINUOUS
 62
     7
 10
-824.871703227782
 20
-177.508490875848
 30
0.0
 11
-775.374625086783
 21
-177.508490875848
 31
0.0
  0
LINE
  5
    7A
  8
0
  6
CONTINUOUS
 62
     7
 10
-821.336209722795
 20
-160.538069917139
 30
0.0
 11
-821.336209722795
 21
-156.295470287996
 31
0.0
  0
LINE
  5
    7B
  8
0
  6
CONTINUOUS
 62
     7
 10
-823.457524642653
 20
-160.538069917139
 30
0.0
 11
-821.336224935976
 21
-160.538069917139
 31
0.0
  0
LINE
  5
    7C
  8
0
  6
CONTINUOUS
 62
     7
 10
-823.457500905784
 20
-318.928442548976
 30
0.0
 11
-821.336224935973
 21
-318.928442548976
 31
0.0
  0
ARC
  5
    7D
  8
0
  6
CONTINUOUS
 62
     7
 10
-823.457524642653
 20
-161.95226986545
 30
0.0
 40
1.41419994831085
 50
90.0
 51
180.00000874264
  0
ARC
  5
    7E
  8
0
  6
CONTINUOUS
 62
     7
 10
-823.457500905784
 20
-317.514242600665
 30
0.0
 40
1.41419994831085
 50
180.00000874264
 51
270.0
  0
LINE
  5
    7F
  8
0
  6
CONTINUOUS
 62
     7
 10
-761.232691792898
 20
-324.585247282405
 30
0.0
 11
-742.140992387104
 21
-324.585247282405
 31
0.0
  0
LINE
  5
    80
  8
0
  6
CONTINUOUS
 62
     7
 10
-737.898392542172
 20
-324.585247282405
 30
0.0
 11
-702.543398204149
 21
-324.585247282405
 31
0.0
  0
LINE
  5
    81
  8
0
  6
CONTINUOUS
 62
     7
 10
-737.898403547465
 20
-154.88127506408
 30
0.0
 11
-702.543398204149
 21
-154.88127506408
 31
0.0
  0
LINE
  5
    82
  8
0
  6
CONTINUOUS
 62
     7
 10
-761.232669782344
 20
-154.881275064082
 30
0.0
 11
-742.140951270564
 21
-154.881275064082
 31
0.0
  0
LINE
  5
    83
  8
0
  6
CONTINUOUS
 62
     7
 10
-697.593757403564
 20
-317.514242816448
 30
0.0
 11
-697.593757403564
 21
-267.309976743983
 31
0.0
  0
LINE
  5
    84
  8
0
  6
CONTINUOUS
 62
     7
 10
-761.232716235385
 20
-288.523127021493
 30
0.0
 11
-697.593718561396
 21
-288.523127021493
 31
0.0
  0
LINE
  5
    85
  8
0
  6
CONTINUOUS
 62
     7
 10
-743.555192335415
 20
-324.585247282405
 30
0.0
 11
-743.555192335415
 21
-319.635547463318
 31
0.0
  0
LINE
  5
    86
  8
0
  6
CONTINUOUS
 62
     7
 10
-742.140992387104
 20
-324.585247282405
 30
0.0
 11
-742.140992387104
 21
-322.817497347017
 31
0.0
  0
LINE
  5
    87
  8
0
  6
CONTINUOUS
 62
     7
 10
-737.898392542172
 20
-324.585247282405
 30
0.0
 11
-737.898392542172
 21
-322.817475768038
 31
0.0
  0
LINE
  5
    88
  8
0
  6
CONTINUOUS
 62
     7
 10
-736.484192593861
 20
-324.585247282405
 30
0.0
 11
-736.484192593861
 21
-319.635547463318
 31
0.0
  0
LINE
  5
    89
  8
0
  6
CONTINUOUS
 62
     7
 10
-743.555192335415
 20
-319.635547463318
 30
0.0
 11
-736.484192593861
 21
-319.635547463318
 31
0.0
  0
LINE
  5
    8A
  8
0
  6
CONTINUOUS
 62
     7
 10
-743.555190986729
 20
-159.83097488317
 30
0.0
 11
-736.484191245175
 21
-159.83097488317
 31
0.0
  0
LINE
  5
    8B
  8
0
  6
CONTINUOUS
 62
     7
 10
-736.484191245175
 20
-159.83097488317
 30
0.0
 11
-736.484191245175
 21
-158.063224947781
 31
0.0
  0
LINE
  5
    8C
  8
0
  6
CONTINUOUS
 62
     7
 10
-737.898391193485
 20
-156.649024999471
 30
0.0
 11
-737.898391193485
 21
-154.881275064082
 31
0.0
  0
LINE
  5
    8D
  8
0
  6
CONTINUOUS
 62
     7
 10
-742.140991038418
 20
-156.649024999471
 30
0.0
 11
-742.140991038418
 21
-154.881275064082
 31
0.0
  0
LINE
  5
    8E
  8
0
  6
CONTINUOUS
 62
     7
 10
-743.555115460245
 20
-159.830985672573
 30
0.0
 11
-743.555115460245
 21
-158.063235737184
 31
0.0
  0
LINE
  5
    8F
  8
0
  6
CONTINUOUS
 62
     7
 10
-763.000438927317
 20
-154.881253485103
 30
0.0
 11
-759.464940405226
 21
-154.881253485103
 31
0.0
  0
CIRCLE
  5
    90
  8
0
  6
CONTINUOUS
 62
     7
 10
-718.806693343572
 20
-320.342647437473
 30
0.0
 40
1.76774993538857
  0
ARC
  5
    91
  8
0
  6
CONTINUOUS
 62
     7
 10
-761.232691792898
 20
-320.342647437473
 30
0.0
 40
1.76774993538857
 50
270.0
 51
450.0
  0
ARC
  5
    92
  8
0
  6
CONTINUOUS
 62
     7
 10
-761.232669782344
 20
-159.123874909015
 30
0.0
 40
1.76774993538857
 50
270.0
 51
450.0
  0
CIRCLE
  5
    93
  8
0
  6
CONTINUOUS
 62
     7
 10
-718.806724749592
 20
-159.123887856391
 30
0.0
 40
1.76774993538857
  0
LINE
  5
    94
  8
0
  6
CONTINUOUS
 62
     7
 10
-742.140951270564
 20
-157.709674960704
 30
0.0
 11
-742.140951270564
 21
-154.881275064082
 31
0.0
  0
LINE
  5
    95
  8
0
  6
CONTINUOUS
 62
     7
 10
-737.898351425631
 20
-157.709674960704
 30
0.0
 11
-737.898351425631
 21
-154.881275064082
 31
0.0
  0
LINE
  5
    96
  8
0
  6
CONTINUOUS
 62
     7
 10
-736.484228352409
 20
-159.830991067314
 30
0.0
 11
-736.484228352409
 21
-154.88127506408
 31
0.0
  0
LINE
  5
    97
  8
0
  6
CONTINUOUS
 62
     7
 10
-743.555151218874
 20
-159.83097488317
 30
0.0
 11
-743.555151218874
 21
-154.881275064082
 31
0.0
  0
LINE
  5
    98
  8
0
  6
CONTINUOUS
 62
     7
 10
-743.555151218874
 20
-159.83097488317
 30
0.0
 11
-736.48415147732
 21
-159.83097488317
 31
0.0
  0
LINE
  5
    99
  8
0
  6
CONTINUOUS
 62
     7
 10
-743.555151218874
 20
-157.709674960704
 30
0.0
 11
-742.140951270564
 21
-157.709674960704
 31
0.0
  0
LINE
  5
    9A
  8
0
  6
CONTINUOUS
 62
     7
 10
-737.898351425631
 20
-157.709674960704
 30
0.0
 11
-736.484150128649
 21
-157.709674960704
 31
0.0
  0
LINE
  5
    9B
  8
0
  6
CONTINUOUS
 62
     7
 10
-737.898351425631
 20
-324.585268861384
 30
0.0
 11
-737.898351425631
 21
-321.756868964763
 31
0.0
  0
LINE
  5
    9C
  8
0
  6
CONTINUOUS
 62
     7
 10
-742.140951270564
 20
-324.585268861384
 30
0.0
 11
-742.140951270564
 21
-321.756868964763
 31
0.0
  0
LINE
  5
    9D
  8
0
  6
CONTINUOUS
 62
     7
 10
-737.898351425631
 20
-321.756868964763
 30
0.0
 11
-736.484150128649
 21
-321.756868964763
 31
0.0
  0
LINE
  5
    9E
  8
0
  6
CONTINUOUS
 62
     7
 10
-743.555151218874
 20
-321.756868964763
 30
0.0
 11
-742.140951270564
 21
-321.756868964763
 31
0.0
  0
LINE
  5
    9F
  8
0
  6
CONTINUOUS
 62
     7
 10
-750.62619207697
 20
-272.135167014256
 30
0.0
 11
-750.62619207697
 21
-258.117806553841
 31
0.0
  0
LINE
  5
    A0
  8
0
  6
CONTINUOUS
 62
     7
 10
-752.040392479077
 20
-272.135167014256
 30
0.0
 11
-750.626192530767
 21
-272.135167014256
 31
0.0
  0
LINE
  5
    A1
  8
0
  6
CONTINUOUS
 62
     7
 10
-752.040392458782
 20
-271.60314006494
 30
0.0
 11
-750.626192510471
 21
-271.60314006494
 31
0.0
  0
LINE
  5
    A2
  8
0
  6
CONTINUOUS
 62
     7
 10
-752.040392025281
 20
-276.690045041547
 30
0.0
 11
-752.040392025281
 21
-264.792365042642
 31
0.0
  0
LINE
  5
    A3
  8
0
  6
CONTINUOUS
 62
     7
 10
-761.232721360396
 20
-304.079343091712
 30
0.0
 11
-699.007901246537
 21
-304.079343091712
 31
0.0
  0
ARC
  5
    A4
  8
0
  6
CONTINUOUS
 62
     7
 10
-702.543398204149
 20
-156.295470072207
 30
0.0
 40
1.41419994831085
 50
359.99999125736
 51
450.0
  0
ARC
  5
    A5
  8
0
  6
CONTINUOUS
 62
     7
 10
-702.543398204149
 20
-323.171063972887
 30
0.0
 40
1.41419994831085
 50
270.0
 51
360.00000874264
  0
LINE
  5
    A6
  8
0
  6
CONTINUOUS
 62
     7
 10
-701.129207858481
 20
-318.928442548976
 30
0.0
 11
-701.129207858481
 21
-304.079343091712
 31
0.0
  0
LINE
  5
    A7
  8
0
  6
CONTINUOUS
 62
     7
 10
-761.232691792898
 20
-301.958043169246
 30
0.0
 11
-697.593720611402
 21
-301.958043169246
 31
0.0
  0
LINE
  5
    A8
  8
0
  6
CONTINUOUS
 62
     7
 10
-699.007907936014
 20
-304.079343091712
 30
0.0
 11
-699.007907936014
 21
-301.958043169246
 31
0.0
  0
LINE
  5
    A9
  8
0
  6
CONTINUOUS
 62
     7
 10
-699.007914193919
 20
-177.508490875848
 30
0.0
 11
-699.007914193919
 21
-175.387190953382
 31
0.0
  0
LINE
  5
    AA
  8
0
  6
CONTINUOUS
 62
     7
 10
-723.655741501844
 20
-175.387190953382
 30
0.0
 11
-699.007901246537
 21
-175.387190953382
 31
0.0
  0
LINE
  5
    AB
  8
0
  6
CONTINUOUS
 62
     7
 10
-721.534441579378
 20
-177.508490875848
 30
0.0
 11
-697.593720611402
 21
-177.508490875848
 31
0.0
  0
LINE
  5
    AC
  8
0
  6
CONTINUOUS
 62
     7
 10
-701.129214116385
 20
-160.538069917139
 30
0.0
 11
-701.129214116385
 21
-156.295470287996
 31
0.0
  0
LINE
  5
    AD
  8
0
  6
CONTINUOUS
 62
     7
 10
-701.129198903208
 20
-160.538069917139
 30
0.0
 11
-699.007899196531
 21
-160.538069917139
 31
0.0
  0
LINE
  5
    AE
  8
0
  6
CONTINUOUS
 62
     7
 10
-701.129198903211
 20
-318.928442548976
 30
0.0
 11
-699.0079229334
 21
-318.928442548976
 31
0.0
  0
ARC
  5
    AF
  8
0
  6
CONTINUOUS
 62
     7
 10
-699.007899196531
 20
-161.95226986545
 30
0.0
 40
1.41419994831085
 50
359.99999125736
 51
450.0
  0
ARC
  5
    B0
  8
0
  6
CONTINUOUS
 62
     7
 10
-699.0079229334
 20
-317.514242600665
 30
0.0
 40
1.41419994831085
 50
270.0
 51
359.99999125736
  0
LINE
  5
    B1
  8
0
  6
CONTINUOUS
 62
     7
 10
-708.612222944311
 20
-275.217422201809
 30
0.0
 11
-707.775949557645
 21
-274.381148815143
 31
0.0
  0
LINE
  5
    B2
  8
0
  6
CONTINUOUS
 62
     7
 10
-707.775949557645
 20
-274.381148815143
 30
0.0
 11
-706.939676170978
 21
-275.217422201809
 31
0.0
  0
ARC
  5
    B3
  8
0
  6
CONTINUOUS
 62
     7
 10
-707.775949557645
 20
-281.169308567035
 30
0.0
 40
6.01034978032112
 50
97.9980204987734
 51
442.001979501227
  0
ARC
  5
    B4
  8
0
  6
CONTINUOUS
 62
     7
 10
-707.775949557645
 20
-281.169308567035
 30
0.0
 40
6.78815975189209
 50
2.19360828024407E-14
 51
180.0
  0
LINE
  5
    B5
  8
0
  6
CONTINUOUS
 62
     7
 10
-714.564109309537
 20
-281.169308567035
 30
0.0
 11
-713.786299337966
 21
-281.169308567035
 31
0.0
  0
LINE
  5
    B6
  8
0
  6
CONTINUOUS
 62
     7
 10
-701.765599777324
 20
-281.169308567035
 30
0.0
 11
-700.987789805753
 21
-281.169308567035
 31
0.0
  0
CIRCLE
  5
    B7
  8
0
  6
CONTINUOUS
 62
     7
 10
-707.775949557645
 20
-272.824217785872
 30
0.0
 40
1.13135995864868
  0
LINE
  5
    B8
  8
0
  6
CONTINUOUS
 62
     7
 10
-770.425031640212
 20
-264.792365042642
 30
0.0
 11
-752.040392198972
 21
-264.792365042642
 31
0.0
  0
LINE
  5
    B9
  8
0
  6
CONTINUOUS
 62
     7
 10
-769.717931342599
 20
-272.564519683468
 30
0.0
 11
-752.747492496585
 21
-272.564519683468
 31
0.0
  0
LINE
  5
    BA
  8
0
  6
CONTINUOUS
 62
     7
 10
-769.717931212196
 20
-277.397144988729
 30
0.0
 11
-752.747492626988
 21
-277.397144988729
 31
0.0
  0
LINE
  5
    BB
  8
0
  6
CONTINUOUS
 62
     7
 10
-752.040392672649
 20
-277.209527435006
 30
0.0
 11
-719.089549144132
 21
-277.209527435006
 31
0.0
  0
ARC
  5
    BC
  8
0
  6
CONTINUOUS
 62
     7
 10
-769.717931212196
 20
-276.690045014574
 30
0.0
 40
0.707099974155426
 50
180.000002185662
 51
270.0
  0
ARC
  5
    BD
  8
0
  6
CONTINUOUS
 62
     7
 10
-752.747492626988
 20
-276.690045014574
 30
0.0
 40
0.707099974155426
 50
270.0
 51
359.999997814338
  0
ARC
  5
    BE
  8
0
  6
CONTINUOUS
 62
     7
 10
-752.747492496585
 20
-273.271619657624
 30
0.0
 40
0.707099974155426
 50
359.999997814338
 51
450.0
  0
ARC
  5
    BF
  8
0
  6
CONTINUOUS
 62
     7
 10
-769.717931342599
 20
-273.271619657624
 30
0.0
 40
0.707099974155426
 50
90.0
 51
180.000002185662
  0
LINE
  5
    C0
  8
0
  6
CONTINUOUS
 62
     7
 10
-761.232716235385
 20
-288.523127021493
 30
0.0
 11
-697.593718561396
 21
-288.523127021493
 31
0.0
  0
LINE
  5
    C1
  8
0
  6
CONTINUOUS
 62
     7
 10
-780.704417036755
 20
-239.229565960401
 30
0.0
 11
-779.643767075522
 21
-239.229565960401
 31
0.0
  0
LINE
  5
    C2
  8
0
  6
CONTINUOUS
 62
     7
 10
-780.704417036755
 20
-245.593465727799
 30
0.0
 11
-779.643767075522
 21
-245.593465727799
 31
0.0
  0
CIRCLE
  5
    C3
  8
0
  6
CONTINUOUS
 62
     7
 10
-780.174092056139
 20
-266.099364978307
 30
0.0
 40
3.18194988369942
  0
CIRCLE
  5
    C4
  8
0
  6
CONTINUOUS
 62
     7
 10
-780.174092056139
 20
-266.099364978307
 30
0.0
 40
2.12129992246628
  0
LINE
  5
    C5
  8
0
  6
CONTINUOUS
 62
     7
 10
-780.704417036755
 20
-245.593465727799
 30
0.0
 11
-780.704417036755
 21
-239.229565960401
 31
0.0
  0
LINE
  5
    C6
  8
0
  6
CONTINUOUS
 62
     7
 10
-779.643767075522
 20
-245.593465727799
 30
0.0
 11
-779.643767075522
 21
-239.229565960401
 31
0.0
  0
LINE
  5
    C7
  8
0
  6
CONTINUOUS
 62
     7
 10
-741.248245384156
 20
-268.821699878805
 30
0.0
 11
-740.682565404832
 21
-268.821699878805
 31
0.0
  0
LINE
  5
    C8
  8
0
  6
CONTINUOUS
 62
     7
 10
-742.096765353142
 20
-266.983239946001
 30
0.0
 11
-742.096765353142
 21
-266.629689958923
 31
0.0
  0
ARC
  5
    C9
  8
0
  6
CONTINUOUS
 62
     7
 10
-743.935225285946
 20
-266.629689958923
 30
0.0
 40
1.83845993280411
 50
360.0
 51
411.604748790973
  0
ARC
  5
    CA
  8
0
  6
CONTINUOUS
 62
     7
 10
-743.935225285946
 20
-266.983239946001
 30
0.0
 40
1.83845993280411
 50
180.0
 51
360.0
  0
ARC
  5
    CB
  8
0
  6
CONTINUOUS
 62
     7
 10
-743.935225285946
 20
-266.629689958923
 30
0.0
 40
1.27277995347977
 50
360.0
 51
540.0
  0
ARC
  5
    CC
  8
0
  6
CONTINUOUS
 62
     7
 10
-743.935225285946
 20
-266.983239946001
 30
0.0
 40
1.27277995347977
 50
180.0
 51
360.0
  0
LINE
  5
    CD
  8
0
  6
CONTINUOUS
 62
     7
 10
-742.662445332467
 20
-266.983239946001
 30
0.0
 11
-742.662445332467
 21
-266.629689958923
 31
0.0
  0
LINE
  5
    CE
  8
0
  6
CONTINUOUS
 62
     7
 10
-741.919990359603
 20
-265.639749995106
 30
0.0
 11
-741.919990359603
 21
-265.188806295395
 31
0.0
  0
LINE
  5
    CF
  8
0
  6
CONTINUOUS
 62
     7
 10
-741.919990359604
 20
-265.639749995106
 30
0.0
 11
-741.248245384156
 21
-265.639749995106
 31
0.0
  0
LINE
  5
    D0
  8
0
  6
CONTINUOUS
 62
     7
 10
-740.010820429384
 20
-265.639749995106
 30
0.0
 11
-740.010820429384
 21
-265.188806295395
 31
0.0
  0
LINE
  5
    D1
  8
0
  6
CONTINUOUS
 62
     7
 10
-741.248245384156
 20
-268.821699878805
 30
0.0
 11
-741.248245384156
 21
-265.639749995106
 31
0.0
  0
LINE
  5
    D2
  8
0
  6
CONTINUOUS
 62
     7
 10
-740.682565404832
 20
-268.821699878805
 30
0.0
 11
-740.682565404832
 21
-265.639749995106
 31
0.0
  0
LINE
  5
    D3
  8
0
  6
CONTINUOUS
 62
     7
 10
-740.682565404832
 20
-265.639749995106
 30
0.0
 11
-740.010820429384
 21
-265.639749995106
 31
0.0
  0
LINE
  5
    D4
  8
0
  6
CONTINUOUS
 62
     7
 10
-738.985525466859
 20
-268.821699878805
 30
0.0
 11
-738.419845487534
 21
-268.821699878805
 31
0.0
  0
LINE
  5
    D5
  8
0
  6
CONTINUOUS
 62
     7
 10
-739.657270442306
 20
-265.639749995106
 30
0.0
 11
-739.657270442306
 21
-265.188806295395
 31
0.0
  0
LINE
  5
    D6
  8
0
  6
CONTINUOUS
 62
     7
 10
-739.657270442306
 20
-265.639749995106
 30
0.0
 11
-738.985525466859
 21
-265.639749995106
 31
0.0
  0
LINE
  5
    D7
  8
0
  6
CONTINUOUS
 62
     7
 10
-737.748100512087
 20
-265.639749995106
 30
0.0
 11
-737.748100512087
 21
-265.188806295395
 31
0.0
  0
LINE
  5
    D8
  8
0
  6
CONTINUOUS
 62
     7
 10
-738.985525466859
 20
-268.821699878805
 30
0.0
 11
-738.985525466859
 21
-265.639749995106
 31
0.0
  0
LINE
  5
    D9
  8
0
  6
CONTINUOUS
 62
     7
 10
-738.419845487534
 20
-268.821699878805
 30
0.0
 11
-738.419845487534
 21
-265.639749995106
 31
0.0
  0
LINE
  5
    DA
  8
0
  6
CONTINUOUS
 62
     7
 10
-738.419845487534
 20
-265.639749995106
 30
0.0
 11
-737.748100512087
 21
-265.639749995106
 31
0.0
  0
LINE
  5
    DB
  8
0
  6
CONTINUOUS
 62
     7
 10
-818.875925493992
 20
-228.324689128084
 30
0.0
 11
-818.234080505806
 21
-226.490821620927
 31
0.0
  0
LINE
  5
    DC
  8
0
  6
CONTINUOUS
 62
     7
 10
-818.875936413372
 20
-228.324683713952
 30
0.0
 11
-817.716843151294
 21
-228.324683713952
 31
0.0
  0
LINE
  5
    DD
  8
0
  6
CONTINUOUS
 62
     7
 10
-817.716843151294
 20
-228.324683713952
 30
0.0
 11
-817.716843151294
 21
-226.490815787816
 31
0.0
  0
LINE
  5
    DE
  8
0
  6
CONTINUOUS
 62
     7
 10
-818.234091270816
 20
-226.490815787816
 30
0.0
 11
-817.716843151294
 21
-226.490815787816
 31
0.0
  0
LINE
  5
    DF
  8
0
  6
CONTINUOUS
 62
     7
 10
-819.55071107743
 20
-230.252582714132
 30
0.0
 11
-818.610266817064
 21
-230.252582714132
 31
0.0
  0
LINE
  5
    E0
  8
0
  6
CONTINUOUS
 62
     7
 10
-818.610258877115
 20
-230.252584838712
 30
0.0
 11
-818.346930610277
 21
-229.500231013592
 31
0.0
  0
LINE
  5
    E1
  8
0
  6
CONTINUOUS
 62
     7
 10
-818.346938539946
 20
-229.500228924263
 30
0.0
 11
-817.716843151294
 21
-229.500228924263
 31
0.0
  0
LINE
  5
    E2
  8
0
  6
CONTINUOUS
 62
     7
 10
-817.716843151294
 20
-229.500228924263
 30
0.0
 11
-817.716843151294
 21
-228.418724903142
 31
0.0
  0
LINE
  5
    E3
  8
0
  6
CONTINUOUS
 62
     7
 10
-818.908855145384
 20
-228.418724903142
 30
0.0
 11
-817.716843151294
 21
-228.418724903142
 31
0.0
  0
LINE
  5
    E4
  8
0
  6
CONTINUOUS
 62
     7
 10
-819.550703380886
 20
-230.252586147734
 30
0.0
 11
-818.908847640647
 21
-228.418728718078
 31
0.0
  0
LINE
  5
    E5
  8
0
  6
CONTINUOUS
 62
     7
 10
-816.43076986358
 20
-228.418728970827
 30
0.0
 11
-815.78891412334
 21
-230.252586400482
 31
0.0
  0
LINE
  5
    E6
  8
0
  6
CONTINUOUS
 62
     7
 10
-817.622801962104
 20
-228.418724903142
 30
0.0
 11
-816.430789968014
 21
-228.418724903142
 31
0.0
  0
LINE
  5
    E7
  8
0
  6
CONTINUOUS
 62
     7
 10
-817.622801962104
 20
-229.500228924263
 30
0.0
 11
-817.622801962104
 21
-228.418724903142
 31
0.0
  0
LINE
  5
    E8
  8
0
  6
CONTINUOUS
 62
     7
 10
-817.622801962104
 20
-229.500228924263
 30
0.0
 11
-816.992706573452
 21
-229.500228924263
 31
0.0
  0
LINE
  5
    E9
  8
0
  6
CONTINUOUS
 62
     7
 10
-816.992690192808
 20
-229.500227736522
 30
0.0
 11
-816.729361925971
 21
-230.252581561642
 31
0.0
  0
LINE
  5
    EA
  8
0
  6
CONTINUOUS
 62
     7
 10
-816.729378296333
 20
-230.252582714132
 30
0.0
 11
-815.788934035968
 21
-230.252582714132
 31
0.0
  0
LINE
  5
    EB
  8
0
  6
CONTINUOUS
 62
     7
 10
-817.622801962104
 20
-226.490815787816
 30
0.0
 11
-817.105553842582
 21
-226.490815787816
 31
0.0
  0
LINE
  5
    EC
  8
0
  6
CONTINUOUS
 62
     7
 10
-817.622801962104
 20
-228.324683713952
 30
0.0
 11
-817.622801962104
 21
-226.490815787816
 31
0.0
  0
LINE
  5
    ED
  8
0
  6
CONTINUOUS
 62
     7
 10
-817.622801962104
 20
-228.324683713952
 30
0.0
 11
-816.463697910536
 21
-228.324683713952
 31
0.0
  0
LINE
  5
    EE
  8
0
  6
CONTINUOUS
 62
     7
 10
-817.105543042408
 20
-226.490819508398
 30
0.0
 11
-816.463687254241
 21
-228.324687282628
 31
0.0
  0
LINE
  5
    EF
  8
0
  6
CONTINUOUS
 62
     7
 10
-815.553820273504
 20
-228.324683713952
 30
0.0
 11
-814.472314229354
 21
-228.324683713952
 31
0.0
  0
LINE
  5
    F0
  8
0
  6
CONTINUOUS
 62
     7
 10
-814.472314229354
 20
-228.324683713952
 30
0.0
 11
-814.472314229354
 21
-226.490815787816
 31
0.0
  0
LINE
  5
    F1
  8
0
  6
CONTINUOUS
 62
     7
 10
-815.553820273504
 20
-226.490815787816
 30
0.0
 11
-814.472314229354
 21
-226.490815787816
 31
0.0
  0
LINE
  5
    F2
  8
0
  6
CONTINUOUS
 62
     7
 10
-815.553820273504
 20
-230.252582714132
 30
0.0
 11
-814.472314229354
 21
-230.252582714132
 31
0.0
  0
LINE
  5
    F3
  8
0
  6
CONTINUOUS
 62
     7
 10
-814.472314229354
 20
-230.252582714132
 30
0.0
 11
-814.472314229354
 21
-228.418724903142
 31
0.0
  0
LINE
  5
    F4
  8
0
  6
CONTINUOUS
 62
     7
 10
-815.553820273504
 20
-228.418724903142
 30
0.0
 11
-814.472314229354
 21
-228.418724903142
 31
0.0
  0
LINE
  5
    F5
  8
0
  6
CONTINUOUS
 62
     7
 10
-812.638457092708
 20
-228.324683713952
 30
0.0
 11
-812.638457092708
 21
-226.490815787816
 31
0.0
  0
LINE
  5
    F6
  8
0
  6
CONTINUOUS
 62
     7
 10
-812.638457092708
 20
-228.324683713952
 30
0.0
 11
-811.556940259068
 21
-228.324683713952
 31
0.0
  0
LINE
  5
    F7
  8
0
  6
CONTINUOUS
 62
     7
 10
-811.556940259068
 20
-228.324683713952
 30
0.0
 11
-811.556940259068
 21
-226.490815787816
 31
0.0
  0
LINE
  5
    F8
  8
0
  6
CONTINUOUS
 62
     7
 10
-812.638457092708
 20
-226.490815787816
 30
0.0
 11
-811.556940259068
 21
-226.490815787816
 31
0.0
  0
LINE
  5
    F9
  8
0
  6
CONTINUOUS
 62
     7
 10
-812.638457092708
 20
-230.252582714132
 30
0.0
 11
-811.556940259068
 21
-230.252582714132
 31
0.0
  0
LINE
  5
    FA
  8
0
  6
CONTINUOUS
 62
     7
 10
-811.556940259068
 20
-230.252582714132
 30
0.0
 11
-811.556940259068
 21
-228.418724903142
 31
0.0
  0
LINE
  5
    FB
  8
0
  6
CONTINUOUS
 62
     7
 10
-812.638457092708
 20
-228.418724903142
 30
0.0
 11
-811.556940259068
 21
-228.418724903142
 31
0.0
  0
LINE
  5
    FC
  8
0
  6
CONTINUOUS
 62
     7
 10
-812.638457092708
 20
-230.252582714132
 30
0.0
 11
-812.638457092708
 21
-228.418724903142
 31
0.0
  0
LINE
  5
    FD
  8
0
  6
CONTINUOUS
 62
     7
 10
-811.462899069878
 20
-226.490815787816
 30
0.0
 11
-811.16063152569
 21
-226.490815787816
 31
0.0
  0
LINE
  5
    FE
  8
0
  6
CONTINUOUS
 62
     7
 10
-811.462899069878
 20
-228.324683713952
 30
0.0
 11
-811.462899069878
 21
-226.490815787816
 31
0.0
  0
LINE
  5
    FF
  8
0
  6
CONTINUOUS
 62
     7
 10
-811.462899069878
 20
-228.324683713952
 30
0.0
 11
-810.36805721689
 21
-228.324683713952
 31
0.0
  0
LINE
  5
   100
  8
0
  6
CONTINUOUS
 62
     7
 10
-810.529580209101
 20
-228.202867044974
 30
0.0
 11
-810.368061531412
 21
-228.324680398052
 31
0.0
  0
LINE
  5
   101
  8
0
  6
CONTINUOUS
 62
     7
 10
-810.710544747169
 20
-228.112465112754
 30
0.0
 11
-810.529572615799
 21
-228.202870252331
 31
0.0
  0
LINE
  5
   102
  8
0
  6
CONTINUOUS
 62
     7
 10
-810.710542540933
 20
-228.112470542244
 30
0.0
 11
-810.495130406168
 21
-227.929567144971
 31
0.0
  0
LINE
  5
   103
  8
0
  6
CONTINUOUS
 62
     7
 10
-810.495123977183
 20
-227.929569198718
 30
0.0
 11
-810.34940115017
 21
-227.687453065746
 31
0.0
  0
LINE
  5
   104
  8
0
  6
CONTINUOUS
 62
     7
 10
-810.349404481516
 20
-227.687452198148
 30
0.0
 11
-810.288627295257
 21
-227.411489461955
 31
0.0
  0
LINE
  5
   105
  8
0
  6
CONTINUOUS
 62
     7
 10
-810.319152980827
 20
-227.130549126051
 30
0.0
 11
-810.288629524495
 21
-227.411485909074
 31
0.0
  0
LINE
  5
   106
  8
0
  6
CONTINUOUS
 62
     7
 10
-810.437791136625
 20
-226.874076729897
 30
0.0
 11
-810.319160682658
 21
-227.130542922903
 31
0.0
  0
LINE
  5
   107
  8
0
  6
CONTINUOUS
 62
     7
 10
-810.632114028916
 20
-226.668901493314
 30
0.0
 11
-810.437795307248
 21
-226.874074435701
 31
0.0
  0
LINE
  5
   108
  8
0
  6
CONTINUOUS
 62
     7
 10
-810.881761478506
 20
-226.536554266723
 30
0.0
 11
-810.632103473787
 21
-226.668919732937
 31
0.0
  0
LINE
  5
   109
  8
0
  6
CONTINUOUS
 62
     7
 10
-811.462899069878
 20
-228.418724903142
 30
0.0
 11
-810.276163136081
 21
-228.418724903142
 31
0.0
  0
LINE
  5
   10A
  8
0
  6
CONTINUOUS
 62
     7
 10
-811.462899069878
 20
-230.252582714132
 30
0.0
 11
-811.462899069878
 21
-228.418724903142
 31
0.0
  0
LINE
  5
   10B
  8
0
  6
CONTINUOUS
 62
     7
 10
-811.462899069878
 20
-230.252582714132
 30
0.0
 11
-811.113146983053
 21
-230.252582714132
 31
0.0
  0
LINE
  5
   10C
  8
0
  6
CONTINUOUS
 62
     7
 10
-811.113142430377
 20
-230.252584777532
 30
0.0
 11
-810.800937732806
 21
-230.207687693152
 31
0.0
  0
LINE
  5
   10D
  8
0
  6
CONTINUOUS
 62
     7
 10
-810.800939451749
 20
-230.20768699164
 30
0.0
 11
-810.514036122545
 21
-230.076634480133
 31
0.0
  0
LINE
  5
   10E
  8
0
  6
CONTINUOUS
 62
     7
 10
-810.514038796137
 20
-230.076635364349
 30
0.0
 11
-810.275698954304
 21
-229.870048330686
 31
0.0
  0
LINE
  5
   10F
  8
0
  6
CONTINUOUS
 62
     7
 10
-810.275697085227
 20
-229.870047476014
 30
0.0
 11
-810.105223154281
 21
-229.604669199085
 31
0.0
  0
LINE
  5
   110
  8
0
  6
CONTINUOUS
 62
     7
 10
-810.105211211736
 20
-229.604672807928
 30
0.0
 11
-810.01643529578
 21
-229.302012136722
 31
0.0
  0
LINE
  5
   111
  8
0
  6
CONTINUOUS
 62
     7
 10
-810.016541715778
 20
-228.986592077632
 30
0.0
 11
-810.016444610378
 21
-229.302005955159
 31
0.0
  0
LINE
  5
   112
  8
0
  6
CONTINUOUS
 62
     7
 10
-810.105509778601
 20
-228.683985202169
 30
0.0
 11
-810.01653965605
 21
-228.986589933254
 31
0.0
  0
LINE
  5
   113
  8
0
  6
CONTINUOUS
 62
     7
 10
-810.276160540143
 20
-228.418728862085
 30
0.0
 11
-810.105513978385
 21
-228.683992499663
 31
0.0
  0
LINE
  5
   114
  8
0
  6
CONTINUOUS
 62
     7
 10
-814.378273040164
 20
-226.490815787816
 30
0.0
 11
-814.075994706486
 21
-226.490815787816
 31
0.0
  0
LINE
  5
   115
  8
0
  6
CONTINUOUS
 62
     7
 10
-814.378273040164
 20
-228.324683713952
 30
0.0
 11
-814.378273040164
 21
-226.490815787816
 31
0.0
  0
LINE
  5
   116
  8
0
  6
CONTINUOUS
 62
     7
 10
-814.378273040164
 20
-228.324683713952
 30
0.0
 11
-813.283431187176
 21
-228.324683713952
 31
0.0
  0
LINE
  5
   117
  8
0
  6
CONTINUOUS
 62
     7
 10
-813.444947164922
 20
-228.202872534551
 30
0.0
 11
-813.283428487234
 21
-228.324685887629
 31
0.0
  0
LINE
  5
   118
  8
0
  6
CONTINUOUS
 62
     7
 10
-813.625920808149
 20
-228.112464902357
 30
0.0
 11
-813.44494867678
 21
-228.202870041934
 31
0.0
  0
LINE
  5
   119
  8
0
  6
CONTINUOUS
 62
     7
 10
-813.625918109084
 20
-228.112464901577
 30
0.0
 11
-813.410505974318
 21
-227.929561504304
 31
0.0
  0
LINE
  5
   11A
  8
0
  6
CONTINUOUS
 62
     7
 10
-813.410502321331
 20
-227.929565977446
 30
0.0
 11
-813.264779494319
 21
-227.687449844474
 31
0.0
  0
LINE
  5
   11B
  8
0
  6
CONTINUOUS
 62
     7
 10
-813.264780226747
 20
-227.687451028007
 30
0.0
 11
-813.203992248806
 21
-227.411488275709
 31
0.0
  0
LINE
  5
   11C
  8
0
  6
CONTINUOUS
 62
     7
 10
-813.234514921283
 20
-227.130544459233
 30
0.0
 11
-813.203991464951
 21
-227.411481242256
 31
0.0
  0
LINE
  5
   11D
  8
0
  6
CONTINUOUS
 62
     7
 10
-813.353160816595
 20
-226.874085307544
 30
0.0
 11
-813.234519583259
 21
-227.130551488339
 31
0.0
  0
LINE
  5
   11E
  8
0
  6
CONTINUOUS
 62
     7
 10
-813.54748363082
 20
-226.668896575483
 30
0.0
 11
-813.353164909152
 21
-226.87406951787
 31
0.0
  0
LINE
  5
   11F
  8
0
  6
CONTINUOUS
 62
     7
 10
-813.797142496112
 20
-226.536550853773
 30
0.0
 11
-813.547484491393
 21
-226.668916319987
 31
0.0
  0
LINE
  5
   120
  8
0
  6
CONTINUOUS
 62
     7
 10
-814.07599559065
 20
-226.490815079771
 30
0.0
 11
-813.797141179366
 21
-226.536540934193
 31
0.0
  0
LINE
  5
   121
  8
0
  6
CONTINUOUS
 62
     7
 10
-814.378273040164
 20
-228.418724903142
 30
0.0
 11
-813.191537106367
 21
-228.418724903142
 31
0.0
  0
LINE
  5
   122
  8
0
  6
CONTINUOUS
 62
     7
 10
-814.378273040164
 20
-230.252582714132
 30
0.0
 11
-814.378273040164
 21
-228.418724903142
 31
0.0
  0
LINE
  5
   123
  8
0
  6
CONTINUOUS
 62
     7
 10
-814.378273040164
 20
-230.252582714132
 30
0.0
 11
-814.028520953339
 21
-230.252582714132
 31
0.0
  0
LINE
  5
   124
  8
0
  6
CONTINUOUS
 62
     7
 10
-814.028520056655
 20
-230.252591715721
 30
0.0
 11
-813.716315359083
 21
-230.207694631341
 31
0.0
  0
LINE
  5
   125
  8
0
  6
CONTINUOUS
 62
     7
 10
-813.716313118756
 20
-230.207688840489
 30
0.0
 11
-813.429409789553
 21
-230.076636328981
 31
0.0
  0
LINE
  5
   126
  8
0
  6
CONTINUOUS
 62
     7
 10
-813.429411952218
 20
-230.076636742303
 30
0.0
 11
-813.191072110385
 21
-229.87004970864
 31
0.0
  0
LINE
  5
   127
  8
0
  6
CONTINUOUS
 62
     7
 10
-813.191072517257
 20
-229.870047113446
 30
0.0
 11
-813.020598586311
 21
-229.604668836517
 31
0.0
  0
LINE
  5
   128
  8
0
  6
CONTINUOUS
 62
     7
 10
-813.020591190766
 20
-229.604668839071
 30
0.0
 11
-812.931804476224
 21
-229.302008135224
 31
0.0
  0
LINE
  5
   129
  8
0
  6
CONTINUOUS
 62
     7
 10
-812.931919002847
 20
-228.986591749955
 30
0.0
 11
-812.931811108006
 21
-229.302005631014
 31
0.0
  0
LINE
  5
   12A
  8
0
  6
CONTINUOUS
 62
     7
 10
-813.020881114339
 20
-228.683985346493
 30
0.0
 11
-812.931910991789
 21
-228.986590077578
 31
0.0
  0
LINE
  5
   12B
  8
0
  6
CONTINUOUS
 62
     7
 10
-813.191531685834
 20
-228.4187281408
 30
0.0
 11
-813.020885124076
 21
-228.683991778378
 31
0.0
  0
LINE
  5
   12C
  8
0
  6
CONTINUOUS
 62
     7
 10
-815.553820273504
 20
-230.252582714132
 30
0.0
 11
-815.553820273504
 21
-226.490815787816
 31
0.0
  0
LINE
  5
   12D
  8
0
  6
CONTINUOUS
 62
     7
 10
-822.75037050527
 20
-232.662229063231
 30
0.0
 11
-776.788932633279
 21
-232.662229063231
 31
0.0
  0
LINE
  5
   12E
  8
0
  6
CONTINUOUS
 62
     7
 10
-776.081831607146
 20
-236.197728934008
 30
0.0
 11
-776.081831607146
 21
-229.833829166609
 31
0.0
  0
LINE
  5
   12F
  8
0
  6
CONTINUOUS
 62
     7
 10
-776.081832767019
 20
-229.833829166609
 30
0.0
 11
-775.374625086783
 21
-229.833829166609
 31
0.0
  0
LINE
  5
   130
  8
0
  6
CONTINUOUS
 62
     7
 10
-776.788932768148
 20
-229.126729192454
 30
0.0
 11
-775.374625086783
 21
-229.126729192454
 31
0.0
  0
LINE
  5
   131
  8
0
  6
CONTINUOUS
 62
     7
 10
-776.788931581302
 20
-236.197728934008
 30
0.0
 11
-776.788931581302
 21
-229.126729192454
 31
0.0
  0
LINE
  5
   132
  8
0
  6
CONTINUOUS
 62
     7
 10
-701.129214116385
 20
-175.387190953382
 30
0.0
 11
-701.129214116385
 21
-160.538069917139
 31
0.0
  0
LINE
  5
   133
  8
0
  6
CONTINUOUS
 62
     7
 10
-821.336209722795
 20
-175.387190953382
 30
0.0
 11
-821.336209722795
 21
-160.538069917139
 31
0.0
  0
LINE
  5
   134
  8
0
  6
CONTINUOUS
 62
     7
 10
-821.336215980699
 20
-323.171063757098
 30
0.0
 11
-821.336215980699
 21
-318.928442548976
 31
0.0
  0
LINE
  5
   135
  8
0
  6
CONTINUOUS
 62
     7
 10
-701.129207858481
 20
-323.171063757098
 30
0.0
 11
-701.129207858481
 21
-318.928442548976
 31
0.0
  0
CIRCLE
  5
   136
  8
0
  6
CONTINUOUS
 62
     7
 10
-782.445595244355
 20
-310.443201688582
 30
0.0
 40
6.36389976739883
  0
CIRCLE
  5
   137
  8
0
  6
CONTINUOUS
 62
     7
 10
-740.01959679503
 20
-310.443201688582
 30
0.0
 40
6.36389976739883
  0
CIRCLE
  5
   138
  8
0
  6
CONTINUOUS
 62
     7
 10
-782.445660034073
 20
-169.023181360351
 30
0.0
 40
6.36383967423219
  0
LINE
  5
   139
  8
0
  6
CONTINUOUS
 62
     7
 10
-746.383592232037
 20
-274.963566910878
 30
0.0
 11
-746.383592232037
 21
-269.306767117634
 31
0.0
  0
LINE
  5
   13A
  8
0
  6
CONTINUOUS
 62
     7
 10
-776.081831607146
 20
-274.963566910878
 30
0.0
 11
-776.081831607146
 21
-269.306767117634
 31
0.0
  0
LINE
  5
   13B
  8
0
  6
CONTINUOUS
 62
     7
 10
-776.081831045455
 20
-274.963566910878
 30
0.0
 11
-770.425031252212
 21
-274.963566910878
 31
0.0
  0
LINE
  5
   13C
  8
0
  6
CONTINUOUS
 62
     7
 10
-752.040392586972
 20
-274.963566910878
 30
0.0
 11
-746.383592793729
 21
-274.963566910878
 31
0.0
  0
CIRCLE
  5
   13D
  8
0
  6
CONTINUOUS
 62
     7
 10
-803.658752506165
 20
-167.326222767784
 30
0.0
 40
4.94969981908798
  0
CIRCLE
  5
   13E
  8
0
  6
CONTINUOUS
 62
     7
 10
-803.658752506165
 20
-312.140321157682
 30
0.0
 40
4.94969981908798
  0
CIRCLE
  5
   13F
  8
0
  6
CONTINUOUS
 62
     7
 10
-761.23275405684
 20
-312.140321157682
 30
0.0
 40
4.94969981908798
  0
CIRCLE
  5
   140
  8
0
  6
CONTINUOUS
 62
     7
 10
-718.806713470268
 20
-312.140321157682
 30
0.0
 40
4.94969981908798
  0
ARC
  5
   141
  8
0
  6
CONTINUOUS
 62
     7
 10
-761.232669782344
 20
-167.326222767784
 30
0.0
 40
4.94969981908798
 50
287.322788854765
 51
464.281906530356
  0
CIRCLE
  5
   142
  8
0
  6
CONTINUOUS
 62
     7
 10
-718.806671333019
 20
-167.326222767784
 30
0.0
 40
4.94969981908798
  0
ARC
  5
   143
  8
0
  6
CONTINUOUS
 62
     7
 10
-778.839450165881
 20
-165.416971492159
 30
0.0
 40
2.8283998966217
 50
178.557523870135
 51
271.442476129865
  0
CIRCLE
  5
   144
  8
0
  6
CONTINUOUS
 62
     7
 10
-782.445660034073
 20
-169.023181360351
 30
0.0
 40
5.30334419611677
  0
ARC
  5
   145
  8
0
  6
CONTINUOUS
 62
     7
 10
-786.051869902266
 20
-165.416971492159
 30
0.0
 40
2.8283998966217
 50
268.557523870135
 51
361.442476129865
  0
ARC
  5
   146
  8
0
  6
CONTINUOUS
 62
     7
 10
-782.445660034073
 20
-169.023181360351
 30
0.0
 40
3.75895303957286
 50
78.0440027883074
 51
101.955997211693
  0
ARC
  5
   147
  8
0
  6
CONTINUOUS
 62
     7
 10
-782.445660034073
 20
-169.023181360351
 30
0.0
 40
3.75895303957286
 50
168.044002788308
 51
191.955997211693
  0
ARC
  5
   148
  8
0
  6
CONTINUOUS
 62
     7
 10
-782.445660034073
 20
-169.023181360351
 30
0.0
 40
3.75895303957286
 50
348.044002788307
 51
371.955997211692
  0
ARC
  5
   149
  8
0
  6
CONTINUOUS
 62
     7
 10
-778.839450165881
 20
-172.629391228544
 30
0.0
 40
2.8283998966217
 50
88.5575238701351
 51
181.442476129865
  0
ARC
  5
   14A
  8
0
  6
CONTINUOUS
 62
     7
 10
-786.051869902266
 20
-172.629391228544
 30
0.0
 40
2.8283998966217
 50
358.557523870135
 51
451.442476129865
  0
ARC
  5
   14B
  8
0
  6
CONTINUOUS
 62
     7
 10
-782.445660034073
 20
-169.023181360351
 30
0.0
 40
3.75895303957286
 50
258.044002788307
 51
281.955997211693
  0
ARC
  5
   14C
  8
0
  6
CONTINUOUS
 62
     7
 10
-778.839385376162
 20
-306.836991820389
 30
0.0
 40
2.8283998966217
 50
178.557523870135
 51
271.442476129865
  0
CIRCLE
  5
   14D
  8
0
  6
CONTINUOUS
 62
     7
 10
-782.445595244355
 20
-310.443201688582
 30
0.0
 40
5.30334419611677
  0
ARC
  5
   14E
  8
0
  6
CONTINUOUS
 62
     7
 10
-786.051805112548
 20
-306.836991820389
 30
0.0
 40
2.8283998966217
 50
268.557523870135
 51
361.442476129865
  0
ARC
  5
   14F
  8
0
  6
CONTINUOUS
 62
     7
 10
-782.445595244355
 20
-310.443201688582
 30
0.0
 40
3.75895303957286
 50
78.0440027883074
 51
101.955997211693
  0
ARC
  5
   150
  8
0
  6
CONTINUOUS
 62
     7
 10
-782.445595244355
 20
-310.443201688582
 30
0.0
 40
3.75895303957286
 50
168.044002788308
 51
191.955997211693
  0
ARC
  5
   151
  8
0
  6
CONTINUOUS
 62
     7
 10
-782.445595244355
 20
-310.443201688582
 30
0.0
 40
3.75895303957286
 50
348.044002788307
 51
371.955997211692
  0
ARC
  5
   152
  8
0
  6
CONTINUOUS
 62
     7
 10
-778.839385376162
 20
-314.049411556775
 30
0.0
 40
2.8283998966217
 50
88.5575238701351
 51
181.442476129865
  0
ARC
  5
   153
  8
0
  6
CONTINUOUS
 62
     7
 10
-786.051805112548
 20
-314.049411556775
 30
0.0
 40
2.8283998966217
 50
358.557523870135
 51
451.442476129865
  0
ARC
  5
   154
  8
0
  6
CONTINUOUS
 62
     7
 10
-782.445595244355
 20
-310.443201688582
 30
0.0
 40
3.75895303957286
 50
258.044002788307
 51
281.955997211693
  0
ARC
  5
   155
  8
0
  6
CONTINUOUS
 62
     7
 10
-736.413386926837
 20
-306.836991820389
 30
0.0
 40
2.8283998966217
 50
178.557523870135
 51
271.442476129865
  0
CIRCLE
  5
   156
  8
0
  6
CONTINUOUS
 62
     7
 10
-740.01959679503
 20
-310.443201688582
 30
0.0
 40
5.30334419611677
  0
ARC
  5
   157
  8
0
  6
CONTINUOUS
 62
     7
 10
-743.625806663222
 20
-306.836991820389
 30
0.0
 40
2.8283998966217
 50
268.557523870135
 51
361.442476129865
  0
ARC
  5
   158
  8
0
  6
CONTINUOUS
 62
     7
 10
-740.01959679503
 20
-310.443201688582
 30
0.0
 40
3.75895303957286
 50
78.0440027883074
 51
101.955997211693
  0
ARC
  5
   159
  8
0
  6
CONTINUOUS
 62
     7
 10
-740.01959679503
 20
-310.443201688582
 30
0.0
 40
3.75895303957286
 50
168.044002788308
 51
191.955997211693
  0
ARC
  5
   15A
  8
0
  6
CONTINUOUS
 62
     7
 10
-740.01959679503
 20
-310.443201688582
 30
0.0
 40
3.75895303957286
 50
348.044002788307
 51
371.955997211692
  0
ARC
  5
   15B
  8
0
  6
CONTINUOUS
 62
     7
 10
-736.413386926837
 20
-314.049411556775
 30
0.0
 40
2.8283998966217
 50
88.5575238701351
 51
181.442476129865
  0
ARC
  5
   15C
  8
0
  6
CONTINUOUS
 62
     7
 10
-743.625806663222
 20
-314.049411556775
 30
0.0
 40
2.8283998966217
 50
358.557523870135
 51
451.442476129865
  0
ARC
  5
   15D
  8
0
  6
CONTINUOUS
 62
     7
 10
-740.01959679503
 20
-310.443201688582
 30
0.0
 40
3.75895303957286
 50
258.044002788307
 51
281.955997211693
  0
LINE
  5
   15E
  8
0
  6
CONTINUOUS
 62
     7
 10
-719.089549144132
 20
-279.330827357473
 30
0.0
 11
-719.089549144132
 21
-277.209527435006
 31
0.0
  0
LINE
  5
   15F
  8
0
  6
CONTINUOUS
 62
     7
 10
-776.081832524255
 20
-236.197728934008
 30
0.0
 11
-775.374625086783
 21
-236.197728934008
 31
0.0
  0
LINE
  5
   160
  8
0
  6
CONTINUOUS
 62
     7
 10
-776.081831261245
 20
-269.306767117634
 30
0.0
 11
-771.839231416312
 21
-269.306767117634
 31
0.0
  0
LINE
  5
   161
  8
0
  6
CONTINUOUS
 62
     7
 10
-750.626192422871
 20
-269.306767117634
 30
0.0
 11
-746.383592577939
 21
-269.306767117634
 31
0.0
  0
LINE
  5
   162
  8
0
  6
CONTINUOUS
 62
     7
 10
-796.729127385347
 20
-277.704518995901
 30
0.0
 11
-784.00132785055
 21
-277.704518995901
 31
0.0
  0
LINE
  5
   163
  8
0
  6
CONTINUOUS
 62
     7
 10
-796.729127385347
 20
-285.199778721948
 30
0.0
 11
-784.00132785055
 21
-285.199778721948
 31
0.0
  0
LINE
  5
   164
  8
0
  6
CONTINUOUS
 62
     7
 10
-797.436227359503
 20
-284.492678747793
 30
0.0
 11
-797.436227359503
 21
-278.411618970056
 31
0.0
  0
LINE
  5
   165
  8
0
  6
CONTINUOUS
 62
     7
 10
-783.294227876394
 20
-284.492678747793
 30
0.0
 11
-783.294227876394
 21
-278.411618970056
 31
0.0
  0
ARC
  5
   166
  8
0
  6
CONTINUOUS
 62
     7
 10
-796.729127385347
 20
-278.411618970056
 30
0.0
 40
0.707099974155426
 50
90.0
 51
180.0
  0
ARC
  5
   167
  8
0
  6
CONTINUOUS
 62
     7
 10
-796.729127385347
 20
-284.492678747793
 30
0.0
 40
0.707099974155426
 50
180.0
 51
270.0
  0
ARC
  5
   168
  8
0
  6
CONTINUOUS
 62
     7
 10
-784.00132785055
 20
-284.492678747793
 30
0.0
 40
0.707099974155426
 50
270.0
 51
360.0
  0
ARC
  5
   169
  8
0
  6
CONTINUOUS
 62
     7
 10
-784.00132785055
 20
-278.411618970056
 30
0.0
 40
0.707099974155426
 50
360.0
 51
450.0
  0
LINE
  5
   16A
  8
0
  6
CONTINUOUS
 62
     7
 10
-822.75036651315
 20
-236.197728934008
 30
0.0
 11
-822.75036651315
 21
-234.076429011542
 31
0.0
  0
LINE
  5
   16B
  8
0
  6
CONTINUOUS
 62
     7
 10
-822.75037050527
 20
-279.330827357473
 30
0.0
 11
-822.75037050527
 21
-277.209527435006
 31
0.0
  0
LINE
  5
   16C
  8
0
  6
CONTINUOUS
 62
     7
 10
-710.957899441344
 20
-280.60362858771
 30
0.0
 11
-704.593999673945
 21
-280.60362858771
 31
0.0
  0
LINE
  5
   16D
  8
0
  6
CONTINUOUS
 62
     7
 10
-710.957899441344
 20
-281.734988546359
 30
0.0
 11
-704.593999673945
 21
-281.734988546359
 31
0.0
  0
LINE
  5
   16E
  8
0
  6
CONTINUOUS
 62
     7
 10
-704.593999673945
 20
-281.734988546359
 30
0.0
 11
-704.593999673945
 21
-280.60362858771
 31
0.0
  0
LINE
  5
   16F
  8
0
  6
CONTINUOUS
 62
     7
 10
-710.957899441344
 20
-281.734988546359
 30
0.0
 11
-710.957899441344
 21
-280.60362858771
 31
0.0
  0
LINE
  5
   170
  8
0
  6
CONTINUOUS
 62
     7
 10
-710.658233014997
 20
-280.60362858771
 30
0.0
 11
-707.775949557645
 21
-274.946828794467
 31
0.0
  0
LINE
  5
   171
  8
0
  6
CONTINUOUS
 62
     7
 10
-707.775949557645
 20
-274.946828794467
 30
0.0
 11
-704.893666100293
 21
-280.60362858771
 31
0.0
  0
LINE
  5
   172
  8
0
  6
CONTINUOUS
 62
     7
 10
-758.687169275814
 20
-285.694727124881
 30
0.0
 11
-719.08957072311
 21
-285.694727124881
 31
0.0
  0
LINE
  5
   173
  8
0
  6
CONTINUOUS
 62
     7
 10
-719.08957072311
 20
-285.694727124881
 30
0.0
 11
-719.08957072311
 21
-279.330827357482
 31
0.0
  0
LINE
  5
   174
  8
0
  6
CONTINUOUS
 62
     7
 10
-758.687169275814
 20
-285.694727124881
 30
0.0
 11
-758.687169275814
 21
-279.330827357482
 31
0.0
  0
LINE
  5
   175
  8
0
  6
CONTINUOUS
 62
     3
 10
-603.549331367015
 20
-215.691808104515
 30
0.0
 11
-603.549331367015
 21
-208.620808362961
 31
0.0
  0
POLYLINE
  5
   176
  8
0
  6
CONTINUOUS
 62
     3
 66
     1
 10
0.0
 20
0.0
 30
0.0
  0
VERTEX
  5
   177
  8
0
  6
CONTINUOUS
 10
-732.948626637458
 20
-164.023257944506
 30
0.0
 40
0.0
 41
0.0
  0
VERTEX
  5
   178
  8
0
  6
CONTINUOUS
 10
-732.951181836031
 20
-163.949657141505
 30
0.0
 40
0.0
 41
0.0
  0
VERTEX
  5
   179
  8
0
  6
CONTINUOUS
 10
-732.95884127623
 20
-163.876233649283
 30
0.0
 40
0.0
 41
0.0
  0
VERTEX
  5
   17A
  8
0
  6
CONTINUOUS
 10
-732.971586505792
 20
-163.803164351463
 30
0.0
 40
0.0
 41
0.0
  0
VERTEX
  5
   17B
  8
0
  6
CONTINUOUS
 10
-732.989386820342
 20
-163.730625278384
 30
0.0
 40
0.0
 41
0.0
  0
VERTEX
  5
   17C
  8
0
  6
CONTINUOUS
 10
-733.012199337365
 20
-163.658791183027
 30
0.0
 40
0.0
 41
0.0
  0
VERTEX
  5
   17D
  8
0
  6
CONTINUOUS
 10
-733.039969099508
 20
-163.58783512002
 30
0.0
 40
0.0
 41
0.0
  0
VERTEX
  5
   17E
  8
0
  6
CONTINUOUS
 10
-733.072629206981
 20
-163.517928028733
 30
0.0
 40
0.0
 41
0.0
  0
VERTEX
  5
   17F
  8
0
  6
CONTINUOUS
 10
-733.110100978725
 20
-163.449238321474
 30
0.0
 40
0.0
 41
0.0
  0
VERTEX
  5
   180
  8
0
  6
CONTINUOUS
 10
-733.152294141961
 20
-163.381931477763
 30
0.0
 40
0.0
 41
0.0
  0
VERTEX
  5
   181
  8
0
  6
CONTINUOUS
 10
-733.19910704966
 20
-163.316169645683
 30
0.0
 40
0.0
 41
0.0
  0
VERTEX
  5
   182
  8
0
  6
CONTINUOUS
 10
-733.25042692543
 20
-163.252111251247
 30
0.0
 40
0.0
 41
0.0
  0
VERTEX
  5
   183
  8
0
  6
CONTINUOUS
 10
-733.306130135193
 20
-163.189910616738
 30
0.0
 40
0.0
 41
0.0
  0
VERTEX
  5
   184
  8
0
  6
CONTINUOUS
 10
-733.366082485038
 20
-163.129717588934
 30
0.0
 40
0.0
 41
0.0
  0
VERTEX
  5
   185
  8
0
  6
CONTINUOUS
 10
-733.430139544503
 20
-163.071677178111
 30
0.0
 40
0.0
 41
0.0
  0
VERTEX
  5
   186
  8
0
  6
CONTINUOUS
 10
-733.498146994521
 20
-163.015929208702
 30
0.0
 40
0.0
 41
0.0
  0
VERTEX
  5
   187
  8
0
  6
CONTINUOUS
 10
-733.569940999187
 20
-162.962607982448
 30
0.0
 40
0.0
 41
0.0
  0
VERTEX
  5
   188
  8
0
  6
CONTINUOUS
 10
-733.645348600457
 20
-162.911841954855
 30
0.0
 40
0.0
 41
0.0
  0
VERTEX
  5
   189
  8
0
  6
CONTINUOUS
 10
-733.724188134813
 20
-162.863753425729
 30
0.0
 40
0.0
 41
0.0
  0
VERTEX
  5
   18A
  8
0
  6
CONTINUOUS
 10
-733.806269670911
 20
-162.81845824455
 30
0.0
 40
0.0
 41
0.0
  0
VERTEX
  5
   18B
  8
0
  6
CONTINUOUS
 10
-733.891395467142
 20
-162.776065531376
 30
0.0
 40
0.0
 41
0.0
  0
VERTEX
  5
   18C
  8
0
  6
CONTINUOUS
 10
-733.979360448005
 20
-162.736677413966
 30
0.0
 40
0.0
 41
0.0
  0
VERTEX
  5
   18D
  8
0
  6
CONTINUOUS
 10
-734.069952698157
 20
-162.700388781746
 30
0.0
 40
0.0
 41
0.0
  0
VERTEX
  5
   18E
  8
0
  6
CONTINUOUS
 10
-734.162953972932
 20
-162.667287057209
 30
0.0
 40
0.0
 41
0.0
  0
VERTEX
  5
   18F
  8
0
  6
CONTINUOUS
 10
-734.258140224113
 20
-162.63745198531
 30
0.0
 40
0.0
 41
0.0
  0
VERTEX
  5
   190
  8
0
  6
CONTINUOUS
 10
-734.355282139683
 20
-162.610955441348
 30
0.0
 40
0.0
 41
0.0
  0
VERTEX
  5
   191
  8
0
  6
CONTINUOUS
 10
-734.454145696259
 20
-162.587861257821
 30
0.0
 40
0.0
 41
0.0
  0
VERTEX
  5
   192
  8
0
  6
CONTINUOUS
 10
-734.554492722873
 20
-162.568225070638
 30
0.0
 40
0.0
 41
0.0
  0
VERTEX
  5
   193
  8
0
  6
CONTINUOUS
 10
-734.656081474749
 20
-162.552094185095
 30
0.0
 40
0.0
 41
0.0
  0
VERTEX
  5
   194
  8
0
  6
CONTINUOUS
 10
-734.758667215684
 20
-162.539507461908
 30
0.0
 40
0.0
 41
0.0
  0
VERTEX
  5
   195
  8
0
  6
CONTINUOUS
 10
-734.862002807643
 20
-162.530495223596
 30
0.0
 40
0.0
 41
0.0
  0
VERTEX
  5
   196
  8
0
  6
CONTINUOUS
 10
-734.965839306135
 20
-162.525079181429
 30
0.0
 40
0.0
 41
0.0
  0
VERTEX
  5
   197
  8
0
  6
CONTINUOUS
 10
-735.069926559938
 20
-162.523272383129
 30
0.0
 40
0.0
 41
0.0
  0
SEQEND
  5
   198
  8
0
  6
CONTINUOUS
 62
     3
  0
POLYLINE
  5
   199
  8
0
  6
CONTINUOUS
 62
     3
 66
     1
 10
0.0
 20
0.0
 30
0.0
  0
VERTEX
  5
   19A
  8
0
  6
CONTINUOUS
 10
-745.676426172267
 20
-162.523272383129
 30
0.0
 40
0.0
 41
0.0
  0
VERTEX
  5
   19B
  8
0
  6
CONTINUOUS
 10
-745.78051342607
 20
-162.52507918143
 30
0.0
 40
0.0
 41
0.0
  0
VERTEX
  5
   19C
  8
0
  6
CONTINUOUS
 10
-745.884349924561
 20
-162.530495223598
 30
0.0
 40
0.0
 41
0.0
  0
VERTEX
  5
   19D
  8
0
  6
CONTINUOUS
 10
-745.987685516521
 20
-162.539507461911
 30
0.0
 40
0.0
 41
0.0
  0
VERTEX
  5
   19E
  8
0
  6
CONTINUOUS
 10
-746.090271257456
 20
-162.552094185099
 30
0.0
 40
0.0
 41
0.0
  0
VERTEX
  5
   19F
  8
0
  6
CONTINUOUS
 10
-746.191860009331
 20
-162.568225070643
 30
0.0
 40
0.0
 41
0.0
  0
VERTEX
  5
   1A0
  8
0
  6
CONTINUOUS
 10
-746.292207035944
 20
-162.587861257827
 30
0.0
 40
0.0
 41
0.0
  0
VERTEX
  5
   1A1
  8
0
  6
CONTINUOUS
 10
-746.39107059252
 20
-162.610955441355
 30
0.0
 40
0.0
 41
0.0
  0
VERTEX
  5
   1A2
  8
0
  6
CONTINUOUS
 10
-746.48821250809
 20
-162.637451985317
 30
0.0
 40
0.0
 41
0.0
  0
VERTEX
  5
   1A3
  8
0
  6
CONTINUOUS
 10
-746.58339875927
 20
-162.667287057218
 30
0.0
 40
0.0
 41
0.0
  0
VERTEX
  5
   1A4
  8
0
  6
CONTINUOUS
 10
-746.676400034045
 20
-162.700388781756
 30
0.0
 40
0.0
 41
0.0
  0
VERTEX
  5
   1A5
  8
0
  6
CONTINUOUS
 10
-746.766992284196
 20
-162.736677413977
 30
0.0
 40
0.0
 41
0.0
  0
VERTEX
  5
   1A6
  8
0
  6
CONTINUOUS
 10
-746.854957265059
 20
-162.776065531387
 30
0.0
 40
0.0
 41
0.0
  0
VERTEX
  5
   1A7
  8
0
  6
CONTINUOUS
 10
-746.940083061289
 20
-162.818458244562
 30
0.0
 40
0.0
 41
0.0
  0
VERTEX
  5
   1A8
  8
0
  6
CONTINUOUS
 10
-747.022164597386
 20
-162.863753425742
 30
0.0
 40
0.0
 41
0.0
  0
VERTEX
  5
   1A9
  8
0
  6
CONTINUOUS
 10
-747.101004131741
 20
-162.911841954869
 30
0.0
 40
0.0
 41
0.0
  0
VERTEX
  5
   1AA
  8
0
  6
CONTINUOUS
 10
-747.17641173301
 20
-162.962607982463
 30
0.0
 40
0.0
 41
0.0
  0
VERTEX
  5
   1AB
  8
0
  6
CONTINUOUS
 10
-747.248205737676
 20
-163.015929208717
 30
0.0
 40
0.0
 41
0.0
  0
VERTEX
  5
   1AC
  8
0
  6
CONTINUOUS
 10
-747.316213187693
 20
-163.071677178126
 30
0.0
 40
0.0
 41
0.0
  0
VERTEX
  5
   1AD
  8
0
  6
CONTINUOUS
 10
-747.380270247157
 20
-163.129717588951
 30
0.0
 40
0.0
 41
0.0
  0
VERTEX
  5
   1AE
  8
0
  6
CONTINUOUS
 10
-747.440222597001
 20
-163.189910616755
 30
0.0
 40
0.0
 41
0.0
  0
VERTEX
  5
   1AF
  8
0
  6
CONTINUOUS
 10
-747.495925806763
 20
-163.252111251264
 30
0.0
 40
0.0
 41
0.0
  0
VERTEX
  5
   1B0
  8
0
  6
CONTINUOUS
 10
-747.547245682531
 20
-163.316169645701
 30
0.0
 40
0.0
 41
0.0
  0
VERTEX
  5
   1B1
  8
0
  6
CONTINUOUS
 10
-747.59405859023
 20
-163.381931477782
 30
0.0
 40
0.0
 41
0.0
  0
VERTEX
  5
   1B2
  8
0
  6
CONTINUOUS
 10
-747.636251753464
 20
-163.449238321493
 30
0.0
 40
0.0
 41
0.0
  0
VERTEX
  5
   1B3
  8
0
  6
CONTINUOUS
 10
-747.673723525207
 20
-163.517928028752
 30
0.0
 40
0.0
 41
0.0
  0
VERTEX
  5
   1B4
  8
0
  6
CONTINUOUS
 10
-747.706383632679
 20
-163.587835120039
 30
0.0
 40
0.0
 41
0.0
  0
VERTEX
  5
   1B5
  8
0
  6
CONTINUOUS
 10
-747.734153394821
 20
-163.658791183047
 30
0.0
 40
0.0
 41
0.0
  0
VERTEX
  5
   1B6
  8
0
  6
CONTINUOUS
 10
-747.756965911842
 20
-163.730625278404
 30
0.0
 40
0.0
 41
0.0
  0
VERTEX
  5
   1B7
  8
0
  6
CONTINUOUS
 10
-747.774766226392
 20
-163.803164351483
 30
0.0
 40
0.0
 41
0.0
  0
VERTEX
  5
   1B8
  8
0
  6
CONTINUOUS
 10
-747.787511455952
 20
-163.876233649303
 30
0.0
 40
0.0
 41
0.0
  0
VERTEX
  5
   1B9
  8
0
  6
CONTINUOUS
 10
-747.79517089615
 20
-163.949657141526
 30
0.0
 40
0.0
 41
0.0
  0
VERTEX
  5
   1BA
  8
0
  6
CONTINUOUS
 10
-747.797726094722
 20
-164.023257944526
 30
0.0
 40
0.0
 41
0.0
  0
SEQEND
  5
   1BB
  8
0
  6
CONTINUOUS
 62
     3
  0
POLYLINE
  5
   1BC
  8
0
  6
CONTINUOUS
 62
     3
 66
     1
 10
0.0
 20
0.0
 30
0.0
  0
VERTEX
  5
   1BD
  8
0
  6
CONTINUOUS
 10
-760.525525629519
 20
-164.023257944506
 30
0.0
 40
0.0
 41
0.0
  0
VERTEX
  5
   1BE
  8
0
  6
CONTINUOUS
 10
-760.528080828093
 20
-163.949657141505
 30
0.0
 40
0.0
 41
0.0
  0
VERTEX
  5
   1BF
  8
0
  6
CONTINUOUS
 10
-760.535740268291
 20
-163.876233649283
 30
0.0
 40
0.0
 41
0.0
  0
VERTEX
  5
   1C0
  8
0
  6
CONTINUOUS
 10
-760.548485497853
 20
-163.803164351463
 30
0.0
 40
0.0
 41
0.0
  0
VERTEX
  5
   1C1
  8
0
  6
CONTINUOUS
 10
-760.566285812404
 20
-163.730625278384
 30
0.0
 40
0.0
 41
0.0
  0
VERTEX
  5
   1C2
  8
0
  6
CONTINUOUS
 10
-760.589098329427
 20
-163.658791183027
 30
0.0
 40
0.0
 41
0.0
  0
VERTEX
  5
   1C3
  8
0
  6
CONTINUOUS
 10
-760.616868091569
 20
-163.58783512002
 30
0.0
 40
0.0
 41
0.0
  0
VERTEX
  5
   1C4
  8
0
  6
CONTINUOUS
 10
-760.649528199043
 20
-163.517928028733
 30
0.0
 40
0.0
 41
0.0
  0
VERTEX
  5
   1C5
  8
0
  6
CONTINUOUS
 10
-760.686999970787
 20
-163.449238321474
 30
0.0
 40
0.0
 41
0.0
  0
VERTEX
  5
   1C6
  8
0
  6
CONTINUOUS
 10
-760.729193134022
 20
-163.381931477763
 30
0.0
 40
0.0
 41
0.0
  0
VERTEX
  5
   1C7
  8
0
  6
CONTINUOUS
 10
-760.776006041722
 20
-163.316169645683
 30
0.0
 40
0.0
 41
0.0
  0
VERTEX
  5
   1C8
  8
0
  6
CONTINUOUS
 10
-760.827325917491
 20
-163.252111251247
 30
0.0
 40
0.0
 41
0.0
  0
VERTEX
  5
   1C9
  8
0
  6
CONTINUOUS
 10
-760.883029127254
 20
-163.189910616738
 30
0.0
 40
0.0
 41
0.0
  0
VERTEX
  5
   1CA
  8
0
  6
CONTINUOUS
 10
-760.942981477099
 20
-163.129717588934
 30
0.0
 40
0.0
 41
0.0
  0
VERTEX
  5
   1CB
  8
0
  6
CONTINUOUS
 10
-761.007038536564
 20
-163.071677178111
 30
0.0
 40
0.0
 41
0.0
  0
VERTEX
  5
   1CC
  8
0
  6
CONTINUOUS
 10
-761.075045986582
 20
-163.015929208702
 30
0.0
 40
0.0
 41
0.0
  0
VERTEX
  5
   1CD
  8
0
  6
CONTINUOUS
 10
-761.146839991249
 20
-162.962607982448
 30
0.0
 40
0.0
 41
0.0
  0
VERTEX
  5
   1CE
  8
0
  6
CONTINUOUS
 10
-761.222247592519
 20
-162.911841954855
 30
0.0
 40
0.0
 41
0.0
  0
VERTEX
  5
   1CF
  8
0
  6
CONTINUOUS
 10
-761.301087126875
 20
-162.863753425729
 30
0.0
 40
0.0
 41
0.0
  0
VERTEX
  5
   1D0
  8
0
  6
CONTINUOUS
 10
-761.383168662973
 20
-162.81845824455
 30
0.0
 40
0.0
 41
0.0
  0
VERTEX
  5
   1D1
  8
0
  6
CONTINUOUS
 10
-761.468294459203
 20
-162.776065531376
 30
0.0
 40
0.0
 41
0.0
  0
VERTEX
  5
   1D2
  8
0
  6
CONTINUOUS
 10
-761.556259440067
 20
-162.736677413966
 30
0.0
 40
0.0
 41
0.0
  0
VERTEX
  5
   1D3
  8
0
  6
CONTINUOUS
 10
-761.646851690219
 20
-162.700388781746
 30
0.0
 40
0.0
 41
0.0
  0
VERTEX
  5
   1D4
  8
0
  6
CONTINUOUS
 10
-761.739852964994
 20
-162.667287057209
 30
0.0
 40
0.0
 41
0.0
  0
VERTEX
  5
   1D5
  8
0
  6
CONTINUOUS
 10
-761.835039216175
 20
-162.63745198531
 30
0.0
 40
0.0
 41
0.0
  0
VERTEX
  5
   1D6
  8
0
  6
CONTINUOUS
 10
-761.932181131745
 20
-162.610955441348
 30
0.0
 40
0.0
 41
0.0
  0
VERTEX
  5
   1D7
  8
0
  6
CONTINUOUS
 10
-762.031044688321
 20
-162.587861257821
 30
0.0
 40
0.0
 41
0.0
  0
VERTEX
  5
   1D8
  8
0
  6
CONTINUOUS
 10
-762.131391714935
 20
-162.568225070638
 30
0.0
 40
0.0
 41
0.0
  0
VERTEX
  5
   1D9
  8
0
  6
CONTINUOUS
 10
-762.23298046681
 20
-162.552094185095
 30
0.0
 40
0.0
 41
0.0
  0
VERTEX
  5
   1DA
  8
0
  6
CONTINUOUS
 10
-762.335566207746
 20
-162.539507461908
 30
0.0
 40
0.0
 41
0.0
  0
VERTEX
  5
   1DB
  8
0
  6
CONTINUOUS
 10
-762.438901799705
 20
-162.530495223596
 30
0.0
 40
0.0
 41
0.0
  0
VERTEX
  5
   1DC
  8
0
  6
CONTINUOUS
 10
-762.542738298196
 20
-162.525079181429
 30
0.0
 40
0.0
 41
0.0
  0
VERTEX
  5
   1DD
  8
0
  6
CONTINUOUS
 10
-762.646825551999
 20
-162.523272383129
 30
0.0
 40
0.0
 41
0.0
  0
SEQEND
  5
   1DE
  8
0
  6
CONTINUOUS
 62
     3
  0
POLYLINE
  5
   1DF
  8
0
  6
CONTINUOUS
 62
     3
 66
     1
 10
0.0
 20
0.0
 30
0.0
  0
VERTEX
  5
   1E0
  8
0
  6
CONTINUOUS
 10
-773.253325164329
 20
-162.523272383129
 30
0.0
 40
0.0
 41
0.0
  0
VERTEX
  5
   1E1
  8
0
  6
CONTINUOUS
 10
-773.357412418132
 20
-162.52507918143
 30
0.0
 40
0.0
 41
0.0
  0
VERTEX
  5
   1E2
  8
0
  6
CONTINUOUS
 10
-773.461248916623
 20
-162.530495223598
 30
0.0
 40
0.0
 41
0.0
  0
VERTEX
  5
   1E3
  8
0
  6
CONTINUOUS
 10
-773.564584508582
 20
-162.539507461911
 30
0.0
 40
0.0
 41
0.0
  0
VERTEX
  5
   1E4
  8
0
  6
CONTINUOUS
 10
-773.667170249517
 20
-162.552094185099
 30
0.0
 40
0.0
 41
0.0
  0
VERTEX
  5
   1E5
  8
0
  6
CONTINUOUS
 10
-773.768759001393
 20
-162.568225070643
 30
0.0
 40
0.0
 41
0.0
  0
VERTEX
  5
   1E6
  8
0
  6
CONTINUOUS
 10
-773.869106028006
 20
-162.587861257827
 30
0.0
 40
0.0
 41
0.0
  0
VERTEX
  5
   1E7
  8
0
  6
CONTINUOUS
 10
-773.967969584582
 20
-162.610955441355
 30
0.0
 40
0.0
 41
0.0
  0
VERTEX
  5
   1E8
  8
0
  6
CONTINUOUS
 10
-774.065111500151
 20
-162.637451985317
 30
0.0
 40
0.0
 41
0.0
  0
VERTEX
  5
   1E9
  8
0
  6
CONTINUOUS
 10
-774.160297751332
 20
-162.667287057218
 30
0.0
 40
0.0
 41
0.0
  0
VERTEX
  5
   1EA
  8
0
  6
CONTINUOUS
 10
-774.253299026106
 20
-162.700388781756
 30
0.0
 40
0.0
 41
0.0
  0
VERTEX
  5
   1EB
  8
0
  6
CONTINUOUS
 10
-774.343891276258
 20
-162.736677413977
 30
0.0
 40
0.0
 41
0.0
  0
VERTEX
  5
   1EC
  8
0
  6
CONTINUOUS
 10
-774.43185625712
 20
-162.776065531387
 30
0.0
 40
0.0
 41
0.0
  0
VERTEX
  5
   1ED
  8
0
  6
CONTINUOUS
 10
-774.51698205335
 20
-162.818458244562
 30
0.0
 40
0.0
 41
0.0
  0
VERTEX
  5
   1EE
  8
0
  6
CONTINUOUS
 10
-774.599063589448
 20
-162.863753425742
 30
0.0
 40
0.0
 41
0.0
  0
VERTEX
  5
   1EF
  8
0
  6
CONTINUOUS
 10
-774.677903123803
 20
-162.911841954869
 30
0.0
 40
0.0
 41
0.0
  0
VERTEX
  5
   1F0
  8
0
  6
CONTINUOUS
 10
-774.753310725072
 20
-162.962607982463
 30
0.0
 40
0.0
 41
0.0
  0
VERTEX
  5
   1F1
  8
0
  6
CONTINUOUS
 10
-774.825104729737
 20
-163.015929208717
 30
0.0
 40
0.0
 41
0.0
  0
VERTEX
  5
   1F2
  8
0
  6
CONTINUOUS
 10
-774.893112179754
 20
-163.071677178126
 30
0.0
 40
0.0
 41
0.0
  0
VERTEX
  5
   1F3
  8
0
  6
CONTINUOUS
 10
-774.957169239218
 20
-163.129717588951
 30
0.0
 40
0.0
 41
0.0
  0
VERTEX
  5
   1F4
  8
0
  6
CONTINUOUS
 10
-775.017121589062
 20
-163.189910616755
 30
0.0
 40
0.0
 41
0.0
  0
VERTEX
  5
   1F5
  8
0
  6
CONTINUOUS
 10
-775.072824798825
 20
-163.252111251264
 30
0.0
 40
0.0
 41
0.0
  0
VERTEX
  5
   1F6
  8
0
  6
CONTINUOUS
 10
-775.124144674593
 20
-163.316169645701
 30
0.0
 40
0.0
 41
0.0
  0
VERTEX
  5
   1F7
  8
0
  6
CONTINUOUS
 10
-775.170957582291
 20
-163.381931477782
 30
0.0
 40
0.0
 41
0.0
  0
VERTEX
  5
   1F8
  8
0
  6
CONTINUOUS
 10
-775.213150745526
 20
-163.449238321493
 30
0.0
 40
0.0
 41
0.0
  0
VERTEX
  5
   1F9
  8
0
  6
CONTINUOUS
 10
-775.250622517269
 20
-163.517928028752
 30
0.0
 40
0.0
 41
0.0
  0
VERTEX
  5
   1FA
  8
0
  6
CONTINUOUS
 10
-775.283282624741
 20
-163.587835120039
 30
0.0
 40
0.0
 41
0.0
  0
VERTEX
  5
   1FB
  8
0
  6
CONTINUOUS
 10
-775.311052386883
 20
-163.658791183047
 30
0.0
 40
0.0
 41
0.0
  0
VERTEX
  5
   1FC
  8
0
  6
CONTINUOUS
 10
-775.333864903904
 20
-163.730625278404
 30
0.0
 40
0.0
 41
0.0
  0
VERTEX
  5
   1FD
  8
0
  6
CONTINUOUS
 10
-775.351665218453
 20
-163.803164351483
 30
0.0
 40
0.0
 41
0.0
  0
VERTEX
  5
   1FE
  8
0
  6
CONTINUOUS
 10
-775.364410448014
 20
-163.876233649303
 30
0.0
 40
0.0
 41
0.0
  0
VERTEX
  5
   1FF
  8
0
  6
CONTINUOUS
 10
-775.372069888211
 20
-163.949657141526
 30
0.0
 40
0.0
 41
0.0
  0
VERTEX
  5
   200
  8
0
  6
CONTINUOUS
 10
-775.374625086783
 20
-164.023257944526
 30
0.0
 40
0.0
 41
0.0
  0
SEQEND
  5
   201
  8
0
  6
CONTINUOUS
 62
     3
  0
LINE
  5
   202
  8
0
  6
CONTINUOUS
 62
     3
 10
-727.998926818371
 20
-262.360406398773
 30
0.0
 11
-725.877626895905
 21
-262.360406398773
 31
0.0
  0
LINE
  5
   203
  8
0
  6
CONTINUOUS
 62
     3
 10
-747.090626120567
 20
-262.360406398773
 30
0.0
 11
-744.969326198101
 21
-262.360406398773
 31
0.0
  0
LINE
  5
   204
  8
0
  6
CONTINUOUS
 62
     3
 10
-727.998926818371
 20
-260.239106476307
 30
0.0
 11
-725.877626895905
 21
-260.239106476307
 31
0.0
  0
LINE
  5
   205
  8
0
  6
CONTINUOUS
 62
     3
 10
-747.090626120567
 20
-260.239106476307
 30
0.0
 11
-744.969326198101
 21
-260.239106476307
 31
0.0
  0
LINE
  5
   206
  8
0
  6
CONTINUOUS
 62
     3
 10
-744.969326198101
 20
-262.360406398773
 30
0.0
 11
-727.998926818371
 21
-262.360406398773
 31
0.0
  0
LINE
  5
   207
  8
0
  6
CONTINUOUS
 62
     3
 10
-744.969326198101
 20
-260.239106476307
 30
0.0
 11
-727.998926818371
 21
-260.239106476307
 31
0.0
  0
LINE
  5
   208
  8
0
  6
CONTINUOUS
 62
     3
 10
-747.090626120566
 20
-260.239106476307
 30
0.0
 11
-747.090626120566
 21
-258.117806553841
 31
0.0
  0
LINE
  5
   209
  8
0
  6
CONTINUOUS
 62
     3
 10
-747.090626120566
 20
-262.360406398773
 30
0.0
 11
-747.090626120566
 21
-260.239106476307
 31
0.0
  0
LINE
  5
   20A
  8
0
  6
CONTINUOUS
 62
     3
 10
-725.877626895904
 20
-262.360406398773
 30
0.0
 11
-725.877626895904
 21
-260.239106476307
 31
0.0
  0
LINE
  5
   20B
  8
0
  6
CONTINUOUS
 62
     3
 10
-725.877626895904
 20
-260.239106476307
 30
0.0
 11
-725.877626895904
 21
-258.117806553841
 31
0.0
  0
LINE
  5
   20C
  8
0
  6
CONTINUOUS
 62
     3
 10
-745.676426172257
 20
-162.523272383129
 30
0.0
 11
-735.069926559925
 21
-162.523272383129
 31
0.0
  0
LINE
  5
   20D
  8
0
  6
CONTINUOUS
 62
     3
 10
-732.948626637458
 20
-169.023209810257
 30
0.0
 11
-732.948626637458
 21
-167.523223980797
 31
0.0
  0
LINE
  5
   20E
  8
0
  6
CONTINUOUS
 62
     3
 10
-732.948626637458
 20
-167.523223980797
 30
0.0
 11
-732.948626637458
 21
-164.023257944513
 31
0.0
  0
LINE
  5
   20F
  8
0
  6
CONTINUOUS
 62
     3
 10
-747.797726094722
 20
-169.023209810257
 30
0.0
 11
-747.797726094722
 21
-167.523223980797
 31
0.0
  0
LINE
  5
   210
  8
0
  6
CONTINUOUS
 62
     3
 10
-747.797726094722
 20
-167.523223980797
 30
0.0
 11
-747.797726094722
 21
-164.023257944513
 31
0.0
  0
LINE
  5
   211
  8
0
  6
CONTINUOUS
 62
     3
 10
-773.253325164318
 20
-162.523272383129
 30
0.0
 11
-762.646825551987
 21
-162.523272383129
 31
0.0
  0
LINE
  5
   212
  8
0
  6
CONTINUOUS
 62
     3
 10
-775.374625086783
 20
-167.523223980797
 30
0.0
 11
-775.374625086783
 21
-164.023257944513
 31
0.0
  0
LINE
  5
   213
  8
0
  6
CONTINUOUS
 62
     3
 10
-775.374625086783
 20
-169.023209810257
 30
0.0
 11
-775.374625086783
 21
-167.523223980797
 31
0.0
  0
LINE
  5
   214
  8
0
  6
CONTINUOUS
 62
     3
 10
-760.525525629519
 20
-167.523223980797
 30
0.0
 11
-760.525525629519
 21
-164.023257944513
 31
0.0
  0
LINE
  5
   215
  8
0
  6
CONTINUOUS
 62
     3
 10
-760.525525629519
 20
-169.023209810257
 30
0.0
 11
-760.525525629519
 21
-167.523223980797
 31
0.0
  0
LINE
  5
   216
  8
0
  6
CONTINUOUS
 62
     3
 10
-607.791931211948
 20
-208.620808362961
 30
0.0
 11
-605.670631289482
 21
-208.620808362961
 31
0.0
  0
LINE
  5
   217
  8
0
  6
CONTINUOUS
 62
     3
 10
-605.670631289482
 20
-208.620808362961
 30
0.0
 11
-603.549331367016
 21
-208.620808362961
 31
0.0
  0
LINE
  5
   218
  8
0
  6
CONTINUOUS
 62
     3
 10
-605.670631289482
 20
-215.691808104515
 30
0.0
 11
-603.549331367016
 21
-215.691808104515
 31
0.0
  0
ARC
  5
   219
  8
0
  6
CONTINUOUS
 62
     3
 10
-705.725277632474
 20
-241.854507148266
 30
0.0
 40
2.12129992246581
 50
180.0
 51
269.999999999985
  0
ARC
  5
   21A
  8
0
  6
CONTINUOUS
 62
     3
 10
-705.725277632474
 20
-224.884107768536
 30
0.0
 40
2.12129992246634
 50
90.0000000000306
 51
180.0
  0
ARC
  5
   21B
  8
0
  6
CONTINUOUS
 62
     3
 10
-607.791931211948
 20
-221.487307655502
 30
0.0
 40
2.12129992246638
 50
2.35523948486069E-5
 51
60.0000084867838
  0
LINE
  5
   21C
  8
0
  6
CONTINUOUS
 62
     3
 10
-732.948626637458
 20
-206.499508440495
 30
0.0
 11
-732.948626637458
 21
-169.023209810257
 31
0.0
  0
LINE
  5
   21D
  8
0
  6
CONTINUOUS
 62
     3
 10
-775.374625086783
 20
-255.996506631374
 30
0.0
 11
-775.374625086783
 21
-169.023209810257
 31
0.0
  0
LINE
  5
   21E
  8
0
  6
CONTINUOUS
 62
     3
 10
-730.827326714993
 20
-208.620808362961
 30
0.0
 11
-697.593627929686
 21
-208.620808362961
 31
0.0
  0
LINE
  5
   21F
  8
0
  6
CONTINUOUS
 62
     3
 10
-619.812630772591
 20
-208.620808362961
 30
0.0
 11
-607.791931211948
 21
-208.620808362961
 31
0.0
  0
LINE
  5
   220
  8
0
  6
CONTINUOUS
 62
     3
 10
-707.84657755494
 20
-241.854507148266
 30
0.0
 11
-707.84657755494
 21
-224.884107768536
 31
0.0
  0
ARC
  5
   221
  8
0
  6
CONTINUOUS
 62
     3
 10
-605.670573799483
 20
-217.813118636385
 30
0.0
 40
2.12133176714972
 50
90.0015527827109
 51
239.998508687731
  0
LINE
  5
   222
  8
0
  6
CONTINUOUS
 62
     3
 10
-705.725277632475
 20
-222.762807846069
 30
0.0
 11
-693.704578071833
 21
-222.762807846069
 31
0.0
  0
LINE
  5
   223
  8
0
  6
CONTINUOUS
 62
     3
 10
-705.725277632475
 20
-243.975807070732
 30
0.0
 11
-693.704578071833
 21
-243.975807070732
 31
0.0
  0
ARC
  5
   224
  8
0
  6
CONTINUOUS
 62
     3
 10
-754.161625862121
 20
-169.023209810257
 30
0.0
 40
6.36389976739884
 50
180.0
 51
360.0
  0
ARC
  5
   225
  8
0
  6
CONTINUOUS
 62
     3
 10
-607.791931211949
 20
-255.996506631373
 30
0.0
 40
2.12129992246768
 50
270.000000000019
 51
360.0
  0
LINE
  5
   226
  8
0
  6
CONTINUOUS
 62
     3
 10
-605.670631289481
 20
-255.996506631374
 30
0.0
 11
-605.670631289481
 21
-221.487306783375
 31
0.0
  0
ARC
  5
   227
  8
0
  6
CONTINUOUS
 62
     3
 10
-730.827326714992
 20
-206.499508440494
 30
0.0
 40
2.12129992246632
 50
180.0
 51
269.999999999972
  0
ARC
  5
   228
  8
0
  6
CONTINUOUS
 62
     3
 10
-773.253325164317
 20
-255.996506631374
 30
0.0
 40
2.12129992246658
 50
180.0
 51
269.999999999961
  0
LINE
  5
   229
  8
0
  6
CONTINUOUS
 62
     3
 10
-773.253325164318
 20
-258.117806553841
 30
0.0
 11
-747.090626120567
 21
-258.117806553841
 31
0.0
  0
LINE
  5
   22A
  8
0
  6
CONTINUOUS
 62
     3
 10
-619.812630772591
 20
-258.117806553841
 30
0.0
 11
-607.791931211948
 21
-258.117806553841
 31
0.0
  0
LINE
  5
   22B
  8
0
  6
CONTINUOUS
 62
     3
 10
-725.877626895905
 20
-258.117806553841
 30
0.0
 11
-697.593627929686
 21
-258.117806553841
 31
0.0
  0
LINE
  5
   22C
  8
0
  6
CONTINUOUS
 62
   210
 10
-689.4619782269
 20
-220.641507923603
 30
0.0
 11
-688.543423143057
 21
-220.925643730936
 31
0.0
  0
ARC
  5
   22D
  8
0
  6
CONTINUOUS
 62
   210
 10
-689.461957448724
 20
-222.762787067896
 30
0.0
 40
2.12129992246824
 50
359.999438781
 51
418.133433103481
  0
LINE
  5
   22E
  8
0
  6
CONTINUOUS
 62
   210
 10
-689.4619782269
 20
-246.097106993198
 30
0.0
 11
-688.543423143057
 21
-245.81297658061
 31
0.0
  0
ARC
  5
   22F
  8
0
  6
CONTINUOUS
 62
   210
 10
-689.461978228585
 20
-243.975807069046
 30
0.0
 40
2.12129992246608
 50
301.86684166189
 51
360.0
  0
LINE
  5
   230
  8
0
  6
CONTINUOUS
 62
   210
 10
-692.501832896038
 20
-220.925643730936
 30
0.0
 11
-691.583278149366
 21
-220.641507923603
 31
0.0
  0
ARC
  5
   231
  8
0
  6
CONTINUOUS
 62
   210
 10
-691.583278147678
 20
-222.762807847756
 30
0.0
 40
2.12129992246764
 50
121.86675950652
 51
180.0
  0
LINE
  5
   232
  8
0
  6
CONTINUOUS
 62
   210
 10
-692.501832896038
 20
-245.81297658061
 30
0.0
 11
-691.583278149366
 21
-246.097106993198
 31
0.0
  0
ARC
  5
   233
  8
0
  6
CONTINUOUS
 62
   210
 10
-691.583298927536
 20
-243.975827848902
 30
0.0
 40
2.12129992246653
 50
179.999438781
 51
238.133350947187
  0
LINE
  5
   234
  8
0
  6
CONTINUOUS
 62
   210
 10
-687.340678304433
 20
-243.975807070732
 30
0.0
 11
-687.340678304433
 21
-222.762807846069
 31
0.0
  0
LINE
  5
   235
  8
0
  6
CONTINUOUS
 62
   210
 10
-693.704578071832
 20
-243.975807070732
 30
0.0
 11
-693.704578071832
 21
-222.762807846069
 31
0.0
  0
LINE
  5
   236
  8
0
  6
CONTINUOUS
 62
   210
 10
-691.583278149366
 20
-220.641507923603
 30
0.0
 11
-689.4619782269
 21
-220.641507923603
 31
0.0
  0
LINE
  5
   237
  8
0
  6
CONTINUOUS
 62
   210
 10
-691.583278149366
 20
-246.097106993198
 30
0.0
 11
-689.4619782269
 21
-246.097106993198
 31
0.0
  0
LINE
  5
   238
  8
0
  6
CONTINUOUS
 62
     2
 10
-697.593627929691
 20
-265.188806295395
 30
0.0
 11
-697.593627929691
 21
-263.067506372929
 31
0.0
  0
LINE
  5
   239
  8
0
  6
CONTINUOUS
 62
     2
 10
-747.090626120566
 20
-265.188806295395
 30
0.0
 11
-747.090626120566
 21
-263.067506372929
 31
0.0
  0
LINE
  5
   23A
  8
0
  6
CONTINUOUS
 62
     2
 10
-699.714927852154
 20
-265.188806295395
 30
0.0
 11
-697.593627929686
 21
-265.188806295395
 31
0.0
  0
LINE
  5
   23B
  8
0
  6
CONTINUOUS
 62
     2
 10
-744.969326198101
 20
-265.188806295395
 30
0.0
 11
-699.714927852154
 21
-265.188806295395
 31
0.0
  0
LINE
  5
   23C
  8
0
  6
CONTINUOUS
 62
     2
 10
-747.090626120567
 20
-265.188806295395
 30
0.0
 11
-744.969326198101
 21
-265.188806295395
 31
0.0
  0
LINE
  5
   23D
  8
0
  6
CONTINUOUS
 62
     2
 10
-699.714927852154
 20
-263.067506372929
 30
0.0
 11
-697.593627929686
 21
-263.067506372929
 31
0.0
  0
LINE
  5
   23E
  8
0
  6
CONTINUOUS
 62
     2
 10
-744.969326198101
 20
-263.067506372929
 30
0.0
 11
-699.714927852154
 21
-263.067506372929
 31
0.0
  0
LINE
  5
   23F
  8
0
  6
CONTINUOUS
 62
     2
 10
-747.090626120567
 20
-263.067506372929
 30
0.0
 11
-744.969326198101
 21
-263.067506372929
 31
0.0
  0
LINE
  5
   240
  8
0
  6
CONTINUOUS
 62
     2
 10
-706.078827619552
 20
-263.067506372929
 30
0.0
 11
-706.078827619552
 21
-260.946206450462
 31
0.0
  0
LINE
  5
   241
  8
0
  6
CONTINUOUS
 62
     2
 10
-747.090626120566
 20
-263.067506372929
 30
0.0
 11
-747.090626120566
 21
-262.360406398773
 31
0.0
  0
LINE
  5
   242
  8
0
  6
CONTINUOUS
 62
     2
 10
-697.593627929686
 20
-260.239106476307
 30
0.0
 11
-697.593627929686
 21
-258.117806553841
 31
0.0
  0
LINE
  5
   243
  8
0
  6
CONTINUOUS
 62
     2
 10
-617.974170839786
 20
-306.20060479641
 30
0.0
 11
-617.974170839786
 21
-301.958004951477
 31
0.0
  0
LINE
  5
   244
  8
0
  6
CONTINUOUS
 62
     2
 10
-607.509091222285
 20
-306.20060479641
 30
0.0
 11
-607.509091222285
 21
-301.958004951477
 31
0.0
  0
LINE
  5
   245
  8
0
  6
CONTINUOUS
 62
     2
 10
-626.984134607456
 20
-306.200604796405
 30
0.0
 11
-617.974171918735
 21
-306.200604796405
 31
0.0
  0
LINE
  5
   246
  8
0
  6
CONTINUOUS
 62
     2
 10
-607.509090143337
 20
-306.200604796405
 30
0.0
 11
-598.599631547928
 21
-306.200604796405
 31
0.0
  0
LINE
  5
   247
  8
0
  6
CONTINUOUS
 62
     2
 10
-697.593627929686
 20
-258.117806553841
 30
0.0
 11
-697.593627929686
 21
-253.875206708908
 31
0.0
  0
LINE
  5
   248
  8
0
  6
CONTINUOUS
 62
     2
 10
-697.593627929686
 20
-253.875206708908
 30
0.0
 11
-619.812630772591
 21
-253.875206708908
 31
0.0
  0
LINE
  5
   249
  8
0
  6
CONTINUOUS
 62
     2
 10
-697.593627929686
 20
-260.239106476307
 30
0.0
 11
-619.812630772591
 21
-260.239106476307
 31
0.0
  0
LINE
  5
   24A
  8
0
  6
CONTINUOUS
 62
     2
 10
-619.81263077259
 20
-260.239106476307
 30
0.0
 11
-619.81263077259
 21
-258.117806553841
 31
0.0
  0
LINE
  5
   24B
  8
0
  6
CONTINUOUS
 62
     2
 10
-619.81263077259
 20
-258.117806553841
 30
0.0
 11
-619.81263077259
 21
-253.875206708908
 31
0.0
  0
LINE
  5
   24C
  8
0
  6
CONTINUOUS
 62
     2
 10
-697.593627929686
 20
-212.863408207893
 30
0.0
 11
-697.593627929686
 21
-208.620808362961
 31
0.0
  0
LINE
  5
   24D
  8
0
  6
CONTINUOUS
 62
     2
 10
-697.593627929686
 20
-212.863408207893
 30
0.0
 11
-619.812630772591
 21
-212.863408207893
 31
0.0
  0
LINE
  5
   24E
  8
0
  6
CONTINUOUS
 62
     2
 10
-697.593627929686
 20
-206.499508440494
 30
0.0
 11
-619.812630772591
 21
-206.499508440494
 31
0.0
  0
LINE
  5
   24F
  8
0
  6
CONTINUOUS
 62
     2
 10
-697.593627929686
 20
-208.620808362961
 30
0.0
 11
-697.593627929686
 21
-206.499508440495
 31
0.0
  0
LINE
  5
   250
  8
0
  6
CONTINUOUS
 62
     2
 10
-619.81263077259
 20
-212.863408207893
 30
0.0
 11
-619.81263077259
 21
-208.620808362961
 31
0.0
  0
LINE
  5
   251
  8
0
  6
CONTINUOUS
 62
     2
 10
-619.81263077259
 20
-208.620808362961
 30
0.0
 11
-619.81263077259
 21
-206.499508440495
 31
0.0
  0
ARC
  5
   252
  8
0
  6
CONTINUOUS
 62
     2
 10
-627.449310493498
 20
-284.98760557174
 30
0.0
 40
0.707099974156602
 50
180.0
 51
269.999825149509
  0
LINE
  5
   253
  8
0
  6
CONTINUOUS
 62
     2
 10
-628.156410467656
 20
-284.987605571747
 30
0.0
 11
-628.156410467656
 21
-277.916605830193
 31
0.0
  0
ARC
  5
   254
  8
0
  6
CONTINUOUS
 62
     2
 10
-627.449310493498
 20
-277.91660583019
 30
0.0
 40
0.707099974157466
 50
90.0001748505102
 51
180.0
  0
LINE
  5
   255
  8
0
  6
CONTINUOUS
 62
     2
 10
-627.449312651367
 20
-277.209505856032
 30
0.0
 11
-613.307313168259
 21
-277.209505856032
 31
0.0
  0
ARC
  5
   256
  8
0
  6
CONTINUOUS
 62
     2
 10
-613.307311010392
 20
-277.916605830193
 30
0.0
 40
0.707099974157131
 50
0.0
 51
90.0001748502887
  0
LINE
  5
   257
  8
0
  6
CONTINUOUS
 62
     2
 10
-612.600211036236
 20
-284.987605571747
 30
0.0
 11
-612.600211036236
 21
-277.916605830193
 31
0.0
  0
ARC
  5
   258
  8
0
  6
CONTINUOUS
 62
     2
 10
-613.307311010395
 20
-284.987605571742
 30
0.0
 40
0.707099974159522
 50
269.999825149894
 51
360.0
  0
LINE
  5
   259
  8
0
  6
CONTINUOUS
 62
     2
 10
-627.449312651367
 20
-285.694705545897
 30
0.0
 11
-613.307313168259
 21
-285.694705545897
 31
0.0
  0
LINE
  5
   25A
  8
0
  6
CONTINUOUS
 62
     2
 10
-617.974170839786
 20
-301.958004951477
 30
0.0
 11
-617.974170839786
 21
-301.250904977322
 31
0.0
  0
ARC
  5
   25B
  8
0
  6
CONTINUOUS
 62
     2
 10
-616.559970891476
 20
-301.250904977321
 30
0.0
 40
1.41419994830953
 50
90.0000437131971
 51
180.0
  0
LINE
  5
   25C
  8
0
  6
CONTINUOUS
 62
     2
 10
-616.559971970425
 20
-299.836705029011
 30
0.0
 11
-608.923290091648
 21
-299.836705029011
 31
0.0
  0
ARC
  5
   25D
  8
0
  6
CONTINUOUS
 62
     2
 10
-608.923291170598
 20
-301.250904977323
 30
0.0
 40
1.41419994831278
 50
0.0
 51
89.999956286752
  0
LINE
  5
   25E
  8
0
  6
CONTINUOUS
 62
     2
 10
-607.509091222285
 20
-301.958004951477
 30
0.0
 11
-607.509091222285
 21
-301.250904977322
 31
0.0
  0
LINE
  5
   25F
  8
0
  6
CONTINUOUS
 62
     2
 10
-617.974171648998
 20
-306.200604329211
 30
0.0
 11
-616.843476317334
 21
-306.853411583318
 31
0.0
  0
LINE
  5
   260
  8
0
  6
CONTINUOUS
 62
     2
 10
-608.653407920216
 20
-306.861276349998
 30
0.0
 11
-607.509090413074
 21
-306.200604329211
 31
0.0
  0
LINE
  5
   261
  8
0
  6
CONTINUOUS
 62
     2
 10
-754.161625862122
 20
-173.265809655189
 30
0.0
 11
-749.761526446377
 21
-173.265809655189
 31
0.0
  0
LINE
  5
   262
  8
0
  6
CONTINUOUS
 62
     2
 10
-732.948626637459
 20
-173.265809655189
 30
0.0
 11
-725.777122802593
 21
-173.265809655189
 31
0.0
  0
LINE
  5
   263
  8
0
  6
CONTINUOUS
 62
     2
 10
-754.161625862121
 20
-175.355384432903
 30
0.0
 11
-754.161625862121
 21
-173.26580965519
 31
0.0
  0
LINE
  5
   264
  8
0
  6
CONTINUOUS
 62
     2
 10
-754.161625862121
 20
-173.26580965519
 30
0.0
 11
-754.161625862121
 21
-173.165305561878
 31
0.0
  0
LINE
  5
   265
  8
0
  6
CONTINUOUS
 62
     2
 10
-706.078827619553
 20
-260.946206450462
 30
0.0
 11
-701.83622777462
 21
-260.946206450462
 31
0.0
  0
LINE
  5
   266
  8
0
  6
CONTINUOUS
 62
     2
 10
-701.836227774619
 20
-263.067506372929
 30
0.0
 11
-701.836227774619
 21
-260.946206450462
 31
0.0
  0
LINE
  5
   267
  8
0
  6
CONTINUOUS
 62
     2
 10
-699.714927852153
 20
-265.188806295394
 30
0.0
 11
-688.315541710174
 21
-276.588192437374
 31
0.0
  0
ARC
  5
   268
  8
0
  6
CONTINUOUS
 62
     2
 10
-686.815557093768
 20
-275.088205933564
 30
0.0
 40
2.1212999224681
 50
225.000036047088
 51
269.999996336612
  0
LINE
  5
   269
  8
0
  6
CONTINUOUS
 62
     2
 10
-686.8155572294
 20
-277.209505856037
 30
0.0
 11
-656.853905284283
 21
-277.209505856037
 31
0.0
  0
ARC
  5
   26A
  8
0
  6
CONTINUOUS
 62
     2
 10
-656.853904748129
 20
-279.330805778502
 30
0.0
 40
2.12129992246518
 50
45.0000102398517
 51
90.000014481382
  0
LINE
  5
   26B
  8
0
  6
CONTINUOUS
 62
     2
 10
-624.862834686265
 20
-308.321904720151
 30
0.0
 11
-617.741580200683
 21
-315.443159205734
 31
0.0
  0
LINE
  5
   26C
  8
0
  6
CONTINUOUS
 62
     2
 10
-631.226734453666
 20
-301.958004952754
 30
0.0
 11
-626.984134608734
 21
-306.200604797687
 31
0.0
  0
LINE
  5
   26D
  8
0
  6
CONTINUOUS
 62
     2
 10
-655.3539194561
 20
-277.83081995032
 30
0.0
 11
-631.226734453666
 21
-301.958004952754
 31
0.0
  0
LINE
  5
   26E
  8
0
  6
CONTINUOUS
 62
     2
 10
-626.984134608734
 20
-306.200604797687
 30
0.0
 11
-624.862834686267
 21
-308.321904720153
 31
0.0
  0
ARC
  5
   26F
  8
0
  6
CONTINUOUS
 62
     2
 10
-612.741631031036
 20
-310.443204641342
 30
0.0
 40
7.07099974155448
 50
270.38293078867
 51
314.999969090102
  0
ARC
  5
   270
  8
0
  6
CONTINUOUS
 62
     2
 10
-612.741631031036
 20
-310.443204641343
 30
0.0
 40
7.07099974155334
 50
225.000030909881
 51
270.382930788672
  0
LINE
  5
   271
  8
0
  6
CONTINUOUS
 62
     2
 10
-607.741681861389
 20
-315.443159205735
 30
0.0
 11
-600.620427375806
 21
-308.321904720152
 31
0.0
  0
LINE
  5
   272
  8
0
  6
CONTINUOUS
 62
     2
 10
-600.620427375805
 20
-308.321904720154
 30
0.0
 11
-598.59963154665
 21
-306.301108890999
 31
0.0
  0
LINE
  5
   273
  8
0
  6
CONTINUOUS
 62
     2
 10
-598.599631547927
 20
-306.20060479641
 30
0.0
 11
-598.599631547927
 21
-301.958004951477
 31
0.0
  0
LINE
  5
   274
  8
0
  6
CONTINUOUS
 62
     2
 10
-598.599631547927
 20
-301.958004951477
 30
0.0
 11
-598.599631547927
 21
-290.108879850506
 31
0.0
  0
LINE
  5
   275
  8
0
  6
CONTINUOUS
 62
     2
 10
-598.599631547927
 20
-306.301108889721
 30
0.0
 11
-598.599631547927
 21
-306.20060479641
 31
0.0
  0
ARC
  5
   276
  8
0
  6
CONTINUOUS
 62
     2
 10
-600.720931470393
 20
-290.108876614424
 30
0.0
 40
2.12129992246514
 50
359.999912593424
 51
404.999938194807
  0
LINE
  5
   277
  8
0
  6
CONTINUOUS
 62
     2
 10
-605.049318545162
 20
-282.780518419444
 30
0.0
 11
-599.220944292247
 21
-288.608892672359
 31
0.0
  0
ARC
  5
   278
  8
0
  6
CONTINUOUS
 62
     2
 10
-603.549331367015
 20
-281.280534477378
 30
0.0
 40
2.12129992246615
 50
179.999912593424
 51
224.999938194822
  0
LINE
  5
   279
  8
0
  6
CONTINUOUS
 62
     2
 10
-605.670631289481
 20
-208.620808362961
 30
0.0
 11
-605.670631289481
 21
-198.014308750629
 31
0.0
  0
LINE
  5
   27A
  8
0
  6
CONTINUOUS
 62
     2
 10
-605.670631289481
 20
-221.487306783375
 30
0.0
 11
-605.670631289481
 21
-215.691808104515
 31
0.0
  0
LINE
  5
   27B
  8
0
  6
CONTINUOUS
 62
     2
 10
-605.670631289481
 20
-281.280531241298
 30
0.0
 11
-605.670631289481
 21
-255.996506631374
 31
0.0
  0
ARC
  5
   27C
  8
0
  6
CONTINUOUS
 62
     2
 10
-607.791931211948
 20
-198.01430875063
 30
0.0
 40
2.12129992246664
 50
0.0
 51
90.000000000022
  0
LINE
  5
   27D
  8
0
  6
CONTINUOUS
 62
     2
 10
-702.271252567508
 20
-195.893008828163
 30
0.0
 11
-607.791931211948
 21
-195.893008828163
 31
0.0
  0
ARC
  5
   27E
  8
0
  6
CONTINUOUS
 62
     2
 10
-702.271252429317
 20
-193.771708905697
 30
0.0
 40
2.12129992246634
 50
224.99998448158
 51
269.999996267482
  0
LINE
  5
   27F
  8
0
  6
CONTINUOUS
 62
     2
 10
-732.948626636182
 20
-166.094305819047
 30
0.0
 11
-727.898422723783
 21
-171.144509731447
 31
0.0
  0
LINE
  5
   280
  8
0
  6
CONTINUOUS
 62
     2
 10
-721.534522956382
 20
-177.508409498844
 30
0.0
 11
-703.77123839569
 21
-195.271694059536
 31
0.0
  0
LINE
  5
   281
  8
0
  6
CONTINUOUS
 62
     2
 10
-725.777122801315
 20
-173.265809653911
 30
0.0
 11
-721.534522956382
 21
-177.508409498844
 31
0.0
  0
LINE
  5
   282
  8
0
  6
CONTINUOUS
 62
     2
 10
-727.898422723781
 20
-171.144509731445
 30
0.0
 11
-725.777122801315
 21
-173.265809653911
 31
0.0
  0
ARC
  5
   283
  8
0
  6
CONTINUOUS
 62
     2
 10
-740.019626379012
 20
-169.023209810257
 30
0.0
 40
7.07099974155438
 50
70.0208683042392
 51
89.9970712148946
  0
ARC
  5
   284
  8
0
  6
CONTINUOUS
 62
     2
 10
-740.019626379012
 20
-169.023209810257
 30
0.0
 40
7.07099974155456
 50
89.9970712148949
 51
109.813322595127
  0
LINE
  5
   285
  8
0
  6
CONTINUOUS
 62
     2
 10
-752.140830034242
 20
-171.144509731448
 30
0.0
 11
-747.797726095998
 21
-166.801405793204
 31
0.0
  0
LINE
  5
   286
  8
0
  6
CONTINUOUS
 62
     2
 10
-754.161625863399
 20
-173.165305560601
 30
0.0
 11
-752.140830034244
 21
-171.144509731446
 31
0.0
  0
CIRCLE
  5
   287
  8
0
  6
CONTINUOUS
 62
   130
 10
-612.741631031035
 20
-310.443204641342
 30
0.0
 40
5.65679979324365
  0
ARC
  5
   288
  8
0
  6
CONTINUOUS
 62
     5
 10
-612.741631031032
 20
-310.443204641311
 30
0.0
 40
4.94969981905739
 50
80.129137393546
 51
90.0000000000525
  0
ARC
  5
   289
  8
0
  6
CONTINUOUS
 62
     5
 10
-612.741631031032
 20
-310.443204641329
 30
0.0
 40
4.94969981910181
 50
260.12913739353
 51
269.999999999947
  0
ARC
  5
   28A
  8
0
  6
CONTINUOUS
 62
     5
 10
-612.741631031043
 20
-310.443204641263
 30
0.0
 40
4.94969981900913
 50
89.9999999999283
 51
99.8708626065307
  0
ARC
  5
   28B
  8
0
  6
CONTINUOUS
 62
     5
 10
-612.741631031022
 20
-310.443204641481
 30
0.0
 40
4.94969981894923
 50
269.999999999838
 51
279.87086260656
  0
LINE
  5
   28C
  8
0
  6
CONTINUOUS
 62
     5
 10
-611.893111062049
 20
-315.319633038243
 30
0.0
 11
-611.893111062049
 21
-305.566776244442
 31
0.0
  0
LINE
  5
   28D
  8
0
  6
CONTINUOUS
 62
     5
 10
-613.590151000022
 20
-315.319633038243
 30
0.0
 11
-613.590151000022
 21
-305.566776244442
 31
0.0
  0
ARC
  5
   28E
  8
0
  6
CONTINUOUS
 62
     5
 10
-612.741631031035
 20
-310.443204641342
 30
0.0
 40
4.94969981908772
 50
99.8708626064563
 51
260.129137393543
  0
ARC
  5
   28F
  8
0
  6
CONTINUOUS
 62
     5
 10
-612.741631031035
 20
-310.443204641342
 30
0.0
 40
4.94969981908814
 50
279.870862606432
 51
440.129137393567
  0
LINE
  5
   290
  8
0
  6
DASHDOT
 62
     7
 10
-761.798305601965
 20
-169.023209810257
 30
0.0
 11
-746.397668123135
 21
-169.023209810257
 31
0.0
  0
LINE
  5
   291
  8
0
  6
DASHDOT
 62
     7
 10
-754.161625862121
 20
-176.659889550101
 30
0.0
 11
-754.161625862121
 21
-161.386530070412
 31
0.0
  0
LINE
  5
   292
  8
0
  6
DASHDOT
 62
     7
 10
-619.529790799786
 20
-310.443204641342
 30
0.0
 11
-605.840335263048
 21
-310.443204641342
 31
0.0
  0
LINE
  5
   293
  8
0
  6
DASHDOT
 62
     7
 10
-612.741631031035
 20
-317.231364410093
 30
0.0
 11
-612.741631031035
 21
-303.655044872591
 31
0.0
  0
LINE
  5
   294
  8
0
  6
DASHDOT
 62
     7
 10
-618.681270828692
 20
-310.443204641342
 30
0.0
 11
-606.702997234046
 21
-310.443204641342
 31
0.0
  0
LINE
  5
   295
  8
0
  6
DASHDOT
 62
     7
 10
-612.741631031035
 20
-316.382844438999
 30
0.0
 11
-612.741631031035
 21
-304.503564843685
 31
0.0
  0
LINE
  5
   296
  8
0
  6
DASHDOT
 62
     7
 10
-782.445595244355
 20
-318.221301404292
 30
0.0
 11
-782.445595244355
 21
-302.665101972872
 31
0.0
  0
LINE
  5
   297
  8
0
  6
DASHDOT
 62
     7
 10
-790.223694960065
 20
-310.443201688582
 30
0.0
 11
-774.667495528645
 21
-310.443201688582
 31
0.0
  0
LINE
  5
   298
  8
0
  6
DASHDOT
 62
     7
 10
-740.019661584748
 20
-176.801220982894
 30
0.0
 11
-740.019661584748
 21
-161.245141737808
 31
0.0
  0
LINE
  5
   299
  8
0
  6
DASHDOT
 62
     7
 10
-747.797701207291
 20
-169.023181360351
 30
0.0
 11
-732.241621962205
 21
-169.023181360351
 31
0.0
  0
LINE
  5
   29A
  8
0
  6
DASHDOT
 62
     7
 10
-782.445660034073
 20
-176.801220982894
 30
0.0
 11
-782.445660034073
 21
-161.245141737808
 31
0.0
  0
LINE
  5
   29B
  8
0
  6
DASHDOT
 62
     7
 10
-790.223699656616
 20
-169.023181360351
 30
0.0
 11
-774.66762041153
 21
-169.023181360351
 31
0.0
  0
LINE
  5
   29C
  8
0
  6
DASHDOT
 62
     7
 10
-740.01959679503
 20
-318.221301404292
 30
0.0
 11
-740.01959679503
 21
-302.665101972872
 31
0.0
  0
LINE
  5
   29D
  8
0
  6
DASHDOT
 62
     7
 10
-747.797696510739
 20
-310.443201688582
 30
0.0
 11
-732.24149707932
 21
-310.443201688582
 31
0.0
  0
LINE
  5
   29E
  8
0
  6
DASHDOT
 62
     7
 10
-761.23271191959
 20
-336.216713227064
 30
0.0
 11
-761.23271191959
 21
-143.32616546409
 31
0.0
  0
LINE
  5
   29F
  8
0
  6
DASHDOT
 62
     7
 10
-832.658162936141
 20
-260.239128055276
 30
0.0
 11
-518.178283467541
 21
-260.239128055276
 31
0.0
  0
LINE
  5
   2A0
  8
0
  6
CONTINUOUS
 62
     7
 10
-697.593627929688
 20
-154.881210327148
 30
0.0
 11
-697.593627929688
 21
-154.881210327148
 31
0.0
  0
LINE
  5
   2A1
  8
0
  6
CONTINUOUS
 62
     7
 10
-697.593627929688
 20
-154.881210327148
 30
0.0
 11
-697.593627929688
 21
-154.881210327148
 31
0.0
  0
LINE
  5
   2A2
  8
0
  6
CONTINUOUS
 62
     7
 10
-697.593627929688
 20
-154.881210327148
 30
0.0
 11
-697.593627929688
 21
-154.881210327148
 31
0.0
  0
LINE
  5
   2A3
  8
0
  6
CONTINUOUS
 62
     7
 10
-697.593627929688
 20
-154.881210327148
 30
0.0
 11
-697.593627929688
 21
-154.881210327148
 31
0.0
  0
LINE
  5
   2A4
  8
0
  6
CONTINUOUS
 62
     7
 10
-697.593627929688
 20
-154.881210327148
 30
0.0
 11
-697.593627929688
 21
-154.881210327148
 31
0.0
  0
LINE
  5
   2A5
  8
0
  6
CONTINUOUS
 62
     7
 10
-697.593627929688
 20
-154.881210327148
 30
0.0
 11
-697.593627929688
 21
-154.881210327148
 31
0.0
  0
LINE
  5
   2A6
  8
0
  6
CONTINUOUS
 62
     7
 10
-697.593627929688
 20
-154.881210327148
 30
0.0
 11
-697.593627929688
 21
-154.881210327148
 31
0.0
  0
LINE
  5
   2A7
  8
0
  6
CONTINUOUS
 62
     7
 10
-697.593627929688
 20
-154.881210327148
 30
0.0
 11
-697.593627929688
 21
-154.881210327148
 31
0.0
  0
LINE
  5
   2A8
  8
0
  6
CONTINUOUS
 62
     7
 10
-610.620437654778
 20
-324.585247282405
 30
0.0
 11
-591.528738248984
 21
-324.585247282405
 31
0.0
  0
LINE
  5
   2A9
  8
0
  6
CONTINUOUS
 62
     7
 10
-650.218031837732
 20
-324.585247282405
 30
0.0
 11
-614.86303749971
 21
-324.585247282405
 31
0.0
  0
LINE
  5
   2AA
  8
0
  6
CONTINUOUS
 62
     7
 10
-650.218032269309
 20
-154.88127506408
 30
0.0
 11
-614.863078616251
 21
-154.88127506408
 31
0.0
  0
LINE
  5
   2AB
  8
0
  6
CONTINUOUS
 62
     7
 10
-610.620478771318
 20
-154.881275064082
 30
0.0
 11
-591.528760259537
 21
-154.881275064082
 31
0.0
  0
LINE
  5
   2AC
  8
0
  6
CONTINUOUS
 62
     7
 10
-655.167672638313
 20
-317.514242816448
 30
0.0
 11
-655.167672638313
 21
-278.017066768107
 31
0.0
  0
LINE
  5
   2AD
  8
0
  6
CONTINUOUS
 62
     7
 10
-655.167711480486
 20
-288.523127021493
 30
0.0
 11
-644.661612384927
 21
-288.523127021493
 31
0.0
  0
LINE
  5
   2AE
  8
0
  6
CONTINUOUS
 62
     7
 10
-609.206237706467
 20
-324.585247282405
 30
0.0
 11
-609.206237706467
 21
-319.635547463318
 31
0.0
  0
LINE
  5
   2AF
  8
0
  6
CONTINUOUS
 62
     7
 10
-610.620437654778
 20
-324.585247282405
 30
0.0
 11
-610.620437654778
 21
-322.817497347017
 31
0.0
  0
LINE
  5
   2B0
  8
0
  6
CONTINUOUS
 62
     7
 10
-614.86303749971
 20
-324.585247282405
 30
0.0
 11
-614.86303749971
 21
-322.817475768038
 31
0.0
  0
LINE
  5
   2B1
  8
0
  6
CONTINUOUS
 62
     7
 10
-616.277237448021
 20
-324.585247282405
 30
0.0
 11
-616.277237448021
 21
-319.635547463318
 31
0.0
  0
LINE
  5
   2B2
  8
0
  6
CONTINUOUS
 62
     7
 10
-616.277237448021
 20
-319.635547463318
 30
0.0
 11
-609.206237706467
 21
-319.635547463318
 31
0.0
  0
LINE
  5
   2B3
  8
0
  6
CONTINUOUS
 62
     7
 10
-616.277238796707
 20
-159.83097488317
 30
0.0
 11
-609.206239055153
 21
-159.83097488317
 31
0.0
  0
LINE
  5
   2B4
  8
0
  6
CONTINUOUS
 62
     7
 10
-616.277238796707
 20
-159.83097488317
 30
0.0
 11
-616.277238796707
 21
-158.063224947781
 31
0.0
  0
LINE
  5
   2B5
  8
0
  6
CONTINUOUS
 62
     7
 10
-614.863038848396
 20
-156.649024999471
 30
0.0
 11
-614.863038848396
 21
-154.881275064082
 31
0.0
  0
LINE
  5
   2B6
  8
0
  6
CONTINUOUS
 62
     7
 10
-610.620439003464
 20
-156.649024999471
 30
0.0
 11
-610.620439003464
 21
-154.881275064082
 31
0.0
  0
LINE
  5
   2B7
  8
0
  6
CONTINUOUS
 62
     7
 10
-609.206314581541
 20
-159.830985672573
 30
0.0
 11
-609.206314581541
 21
-158.063235737184
 31
0.0
  0
LINE
  5
   2B8
  8
0
  6
CONTINUOUS
 62
     7
 10
-593.296489636656
 20
-154.881253485103
 30
0.0
 11
-589.760991114565
 21
-154.881253485103
 31
0.0
  0
LINE
  5
   2B9
  8
0
  6
CONTINUOUS
 62
     7
 10
-605.670631289481
 20
-224.884129347521
 30
0.0
 11
-591.528723517035
 21
-224.884129347521
 31
0.0
  0
CIRCLE
  5
   2BA
  8
0
  6
CONTINUOUS
 62
     7
 10
-633.954736698309
 20
-320.342647437473
 30
0.0
 40
1.76774993538857
  0
ARC
  5
   2BB
  8
0
  6
CONTINUOUS
 62
     7
 10
-591.528738248984
 20
-320.342647437473
 30
0.0
 40
1.76774993538857
 50
89.9999999999996
 51
270.0
  0
ARC
  5
   2BC
  8
0
  6
CONTINUOUS
 62
     7
 10
-591.528760259537
 20
-159.123874909015
 30
0.0
 40
1.76774993538857
 50
90.0
 51
270.0
  0
CIRCLE
  5
   2BD
  8
0
  6
CONTINUOUS
 62
     7
 10
-633.95470529229
 20
-159.123887856391
 30
0.0
 40
1.76774993538857
  0
LINE
  5
   2BE
  8
0
  6
CONTINUOUS
 62
     7
 10
-610.620478771318
 20
-157.709674960704
 30
0.0
 11
-610.620478771318
 21
-154.881275064082
 31
0.0
  0
LINE
  5
   2BF
  8
0
  6
CONTINUOUS
 62
     7
 10
-614.863078616251
 20
-157.709674960704
 30
0.0
 11
-614.863078616251
 21
-154.881275064082
 31
0.0
  0
LINE
  5
   2C0
  8
0
  6
CONTINUOUS
 62
     7
 10
-616.277201689377
 20
-159.830991067314
 30
0.0
 11
-616.277201689377
 21
-154.88127506408
 31
0.0
  0
LINE
  5
   2C1
  8
0
  6
CONTINUOUS
 62
     7
 10
-609.206278823007
 20
-159.83097488317
 30
0.0
 11
-609.206278823007
 21
-154.881275064082
 31
0.0
  0
LINE
  5
   2C2
  8
0
  6
CONTINUOUS
 62
     7
 10
-616.277278564561
 20
-159.83097488317
 30
0.0
 11
-609.206278823007
 21
-159.83097488317
 31
0.0
  0
LINE
  5
   2C3
  8
0
  6
CONTINUOUS
 62
     7
 10
-610.620478771318
 20
-157.709674960704
 30
0.0
 11
-609.206278823007
 21
-157.709674960704
 31
0.0
  0
LINE
  5
   2C4
  8
0
  6
CONTINUOUS
 62
     7
 10
-616.277279913233
 20
-157.709674960704
 30
0.0
 11
-614.863078616251
 21
-157.709674960704
 31
0.0
  0
LINE
  5
   2C5
  8
0
  6
CONTINUOUS
 62
     7
 10
-614.863078616251
 20
-324.585268861384
 30
0.0
 11
-614.863078616251
 21
-321.756868964763
 31
0.0
  0
LINE
  5
   2C6
  8
0
  6
CONTINUOUS
 62
     7
 10
-610.620478771318
 20
-324.585268861384
 30
0.0
 11
-610.620478771318
 21
-321.756868964763
 31
0.0
  0
LINE
  5
   2C7
  8
0
  6
CONTINUOUS
 62
     7
 10
-616.277279913233
 20
-321.756868964763
 30
0.0
 11
-614.863078616251
 21
-321.756868964763
 31
0.0
  0
LINE
  5
   2C8
  8
0
  6
CONTINUOUS
 62
     7
 10
-610.620478771318
 20
-321.756868964763
 30
0.0
 11
-609.206278823007
 21
-321.756868964763
 31
0.0
  0
LINE
  5
   2C9
  8
0
  6
CONTINUOUS
 62
     7
 10
-602.135237964912
 20
-272.135167014256
 30
0.0
 11
-602.135237964912
 21
-234.076429011542
 31
0.0
  0
LINE
  5
   2CA
  8
0
  6
CONTINUOUS
 62
     7
 10
-602.135237511115
 20
-272.135167014256
 30
0.0
 11
-600.721037562804
 21
-272.135167014256
 31
0.0
  0
LINE
  5
   2CB
  8
0
  6
CONTINUOUS
 62
     7
 10
-602.13523753141
 20
-271.60314006494
 30
0.0
 11
-600.7210375831
 21
-271.60314006494
 31
0.0
  0
LINE
  5
   2CC
  8
0
  6
CONTINUOUS
 62
     7
 10
-605.670631289481
 20
-277.209527435006
 30
0.0
 11
-600.721037369233
 21
-277.209527435006
 31
0.0
  0
LINE
  5
   2CD
  8
0
  6
CONTINUOUS
 62
     7
 10
-605.670631289481
 20
-279.330827357473
 30
0.0
 11
-549.385555346829
 21
-279.330827357473
 31
0.0
  0
LINE
  5
   2CE
  8
0
  6
CONTINUOUS
 62
     7
 10
-600.721038016601
 20
-276.690045041547
 30
0.0
 11
-600.721038016601
 21
-264.792365042642
 31
0.0
  0
LINE
  5
   2CF
  8
0
  6
CONTINUOUS
 62
     7
 10
-697.593627929688
 20
-154.881210327148
 30
0.0
 11
-697.593627929688
 21
-154.881210327148
 31
0.0
  0
LINE
  5
   2D0
  8
0
  6
CONTINUOUS
 62
     7
 10
-697.593627929688
 20
-154.881210327148
 30
0.0
 11
-697.593627929688
 21
-154.881210327148
 31
0.0
  0
LINE
  5
   2D1
  8
0
  6
CONTINUOUS
 62
     7
 10
-697.593627929688
 20
-154.881210327148
 30
0.0
 11
-697.593627929688
 21
-154.881210327148
 31
0.0
  0
LINE
  5
   2D2
  8
0
  6
CONTINUOUS
 62
     7
 10
-697.593627929688
 20
-154.881210327148
 30
0.0
 11
-697.593627929688
 21
-154.881210327148
 31
0.0
  0
LINE
  5
   2D3
  8
0
  6
CONTINUOUS
 62
     7
 10
-697.593627929688
 20
-154.881210327148
 30
0.0
 11
-697.593627929688
 21
-154.881210327148
 31
0.0
  0
LINE
  5
   2D4
  8
0
  6
CONTINUOUS
 62
     7
 10
-697.593627929688
 20
-154.881210327148
 30
0.0
 11
-697.593627929688
 21
-154.881210327148
 31
0.0
  0
LINE
  5
   2D5
  8
0
  6
CONTINUOUS
 62
     7
 10
-653.753528795345
 20
-304.079343091712
 30
0.0
 11
-629.105396314708
 21
-304.079343091712
 31
0.0
  0
ARC
  5
   2D6
  8
0
  6
CONTINUOUS
 62
     7
 10
-650.218031837732
 20
-156.295470072207
 30
0.0
 40
1.41419994831085
 50
90.0
 51
180.00000874264
  0
ARC
  5
   2D7
  8
0
  6
CONTINUOUS
 62
     7
 10
-650.218031837732
 20
-323.171063972887
 30
0.0
 40
1.41419994831085
 50
179.99999125736
 51
270.0
  0
LINE
  5
   2D8
  8
0
  6
CONTINUOUS
 62
     7
 10
-651.632222183397
 20
-318.928442548976
 30
0.0
 11
-651.632222183397
 21
-304.079343091712
 31
0.0
  0
LINE
  5
   2D9
  8
0
  6
CONTINUOUS
 62
     7
 10
-655.16770943048
 20
-301.958043169246
 30
0.0
 11
-631.226696237174
 21
-301.958043169246
 31
0.0
  0
LINE
  5
   2DA
  8
0
  6
CONTINUOUS
 62
     7
 10
-653.753522105863
 20
-304.079343091712
 30
0.0
 11
-653.753522105863
 21
-301.958043169246
 31
0.0
  0
LINE
  5
   2DB
  8
0
  6
CONTINUOUS
 62
     7
 10
-653.753515847959
 20
-177.508490875848
 30
0.0
 11
-653.753515847959
 21
-175.387190953382
 31
0.0
  0
LINE
  5
   2DC
  8
0
  6
CONTINUOUS
 62
     7
 10
-653.753528795345
 20
-175.387190953382
 30
0.0
 11
-591.528760259537
 21
-175.387190953382
 31
0.0
  0
LINE
  5
   2DD
  8
0
  6
CONTINUOUS
 62
     7
 10
-655.16770943048
 20
-177.508490875848
 30
0.0
 11
-591.528718122288
 21
-177.508490875848
 31
0.0
  0
LINE
  5
   2DE
  8
0
  6
CONTINUOUS
 62
     7
 10
-651.632215925493
 20
-160.538069917139
 30
0.0
 11
-651.632215925493
 21
-156.295470287996
 31
0.0
  0
LINE
  5
   2DF
  8
0
  6
CONTINUOUS
 62
     7
 10
-653.75353084535
 20
-160.538069917139
 30
0.0
 11
-651.632231138674
 21
-160.538069917139
 31
0.0
  0
LINE
  5
   2E0
  8
0
  6
CONTINUOUS
 62
     7
 10
-653.753507108482
 20
-318.928442548976
 30
0.0
 11
-651.632231138671
 21
-318.928442548976
 31
0.0
  0
ARC
  5
   2E1
  8
0
  6
CONTINUOUS
 62
     7
 10
-653.75353084535
 20
-161.95226986545
 30
0.0
 40
1.41419994831085
 50
90.0
 51
180.00000874264
  0
ARC
  5
   2E2
  8
0
  6
CONTINUOUS
 62
     7
 10
-653.753507108482
 20
-317.514242600665
 30
0.0
 40
1.41419994831085
 50
180.00000874264
 51
270.0
  0
LINE
  5
   2E3
  8
0
  6
CONTINUOUS
 62
     7
 10
-591.528697995596
 20
-324.585247282405
 30
0.0
 11
-572.436998589802
 21
-324.585247282405
 31
0.0
  0
LINE
  5
   2E4
  8
0
  6
CONTINUOUS
 62
     7
 10
-568.194398744869
 20
-324.585247282405
 30
0.0
 11
-532.839404406847
 21
-324.585247282405
 31
0.0
  0
LINE
  5
   2E5
  8
0
  6
CONTINUOUS
 62
     7
 10
-568.194409750163
 20
-154.88127506408
 30
0.0
 11
-532.839404406847
 21
-154.88127506408
 31
0.0
  0
LINE
  5
   2E6
  8
0
  6
CONTINUOUS
 62
     7
 10
-591.528675985042
 20
-154.881275064082
 30
0.0
 11
-572.436957473261
 21
-154.881275064082
 31
0.0
  0
LINE
  5
   2E7
  8
0
  6
CONTINUOUS
 62
     7
 10
-527.889763606262
 20
-317.514242816448
 30
0.0
 11
-527.889763606262
 21
-161.952270081233
 31
0.0
  0
LINE
  5
   2E8
  8
0
  6
CONTINUOUS
 62
     7
 10
-591.528722438083
 20
-288.523127021493
 30
0.0
 11
-527.889724764094
 21
-288.523127021493
 31
0.0
  0
LINE
  5
   2E9
  8
0
  6
CONTINUOUS
 62
     7
 10
-573.851198538113
 20
-324.585247282405
 30
0.0
 11
-573.851198538113
 21
-319.635547463318
 31
0.0
  0
LINE
  5
   2EA
  8
0
  6
CONTINUOUS
 62
     7
 10
-572.436998589802
 20
-324.585247282405
 30
0.0
 11
-572.436998589802
 21
-322.817497347017
 31
0.0
  0
LINE
  5
   2EB
  8
0
  6
CONTINUOUS
 62
     7
 10
-568.194398744869
 20
-324.585247282405
 30
0.0
 11
-568.194398744869
 21
-322.817475768038
 31
0.0
  0
LINE
  5
   2EC
  8
0
  6
CONTINUOUS
 62
     7
 10
-566.780198796558
 20
-324.585247282405
 30
0.0
 11
-566.780198796558
 21
-319.635547463318
 31
0.0
  0
LINE
  5
   2ED
  8
0
  6
CONTINUOUS
 62
     7
 10
-573.851198538113
 20
-319.635547463318
 30
0.0
 11
-566.780198796558
 21
-319.635547463318
 31
0.0
  0
LINE
  5
   2EE
  8
0
  6
CONTINUOUS
 62
     7
 10
-573.851197189427
 20
-159.83097488317
 30
0.0
 11
-566.780197447872
 21
-159.83097488317
 31
0.0
  0
LINE
  5
   2EF
  8
0
  6
CONTINUOUS
 62
     7
 10
-566.780197447872
 20
-159.83097488317
 30
0.0
 11
-566.780197447872
 21
-158.063224947781
 31
0.0
  0
LINE
  5
   2F0
  8
0
  6
CONTINUOUS
 62
     7
 10
-568.194397396183
 20
-156.649024999471
 30
0.0
 11
-568.194397396183
 21
-154.881275064082
 31
0.0
  0
LINE
  5
   2F1
  8
0
  6
CONTINUOUS
 62
     7
 10
-572.436997241116
 20
-156.649024999471
 30
0.0
 11
-572.436997241116
 21
-154.881275064082
 31
0.0
  0
LINE
  5
   2F2
  8
0
  6
CONTINUOUS
 62
     7
 10
-573.851121662943
 20
-159.830985672573
 30
0.0
 11
-573.851121662943
 21
-158.063235737184
 31
0.0
  0
LINE
  5
   2F3
  8
0
  6
CONTINUOUS
 62
     7
 10
-593.296445130015
 20
-154.881253485103
 30
0.0
 11
-589.760946607924
 21
-154.881253485103
 31
0.0
  0
CIRCLE
  5
   2F4
  8
0
  6
CONTINUOUS
 62
     7
 10
-570.315667787446
 20
-169.023181360351
 30
0.0
 40
6.36383967423219
  0
LINE
  5
   2F5
  8
0
  6
CONTINUOUS
 62
     7
 10
-591.528712727544
 20
-224.884129347521
 30
0.0
 11
-527.889715053555
 21
-224.884129347521
 31
0.0
  0
CIRCLE
  5
   2F6
  8
0
  6
CONTINUOUS
 62
     7
 10
-549.10269954627
 20
-320.342647437473
 30
0.0
 40
1.76774993538857
  0
ARC
  5
   2F7
  8
0
  6
CONTINUOUS
 62
     7
 10
-591.528697995596
 20
-320.342647437473
 30
0.0
 40
1.76774993538857
 50
270.0
 51
450.0
  0
ARC
  5
   2F8
  8
0
  6
CONTINUOUS
 62
     7
 10
-591.528675985042
 20
-159.123874909015
 30
0.0
 40
1.76774993538857
 50
270.0
 51
450.0
  0
CIRCLE
  5
   2F9
  8
0
  6
CONTINUOUS
 62
     7
 10
-549.10273095229
 20
-159.123887856391
 30
0.0
 40
1.76774993538857
  0
LINE
  5
   2FA
  8
0
  6
CONTINUOUS
 62
     7
 10
-572.436957473261
 20
-157.709674960704
 30
0.0
 11
-572.436957473261
 21
-154.881275064082
 31
0.0
  0
LINE
  5
   2FB
  8
0
  6
CONTINUOUS
 62
     7
 10
-568.194357628329
 20
-157.709674960704
 30
0.0
 11
-568.194357628329
 21
-154.881275064082
 31
0.0
  0
LINE
  5
   2FC
  8
0
  6
CONTINUOUS
 62
     7
 10
-566.780234555107
 20
-159.830991067314
 30
0.0
 11
-566.780234555107
 21
-154.88127506408
 31
0.0
  0
LINE
  5
   2FD
  8
0
  6
CONTINUOUS
 62
     7
 10
-573.851157421572
 20
-159.83097488317
 30
0.0
 11
-573.851157421572
 21
-154.881275064082
 31
0.0
  0
LINE
  5
   2FE
  8
0
  6
CONTINUOUS
 62
     7
 10
-573.851157421572
 20
-159.83097488317
 30
0.0
 11
-566.780157680018
 21
-159.83097488317
 31
0.0
  0
LINE
  5
   2FF
  8
0
  6
CONTINUOUS
 62
     7
 10
-573.851157421572
 20
-157.709674960704
 30
0.0
 11
-572.436957473261
 21
-157.709674960704
 31
0.0
  0
LINE
  5
   300
  8
0
  6
CONTINUOUS
 62
     7
 10
-568.194357628329
 20
-157.709674960704
 30
0.0
 11
-566.780156331347
 21
-157.709674960704
 31
0.0
  0
LINE
  5
   301
  8
0
  6
CONTINUOUS
 62
     7
 10
-568.194357628329
 20
-324.585268861384
 30
0.0
 11
-568.194357628329
 21
-321.756868964763
 31
0.0
  0
LINE
  5
   302
  8
0
  6
CONTINUOUS
 62
     7
 10
-572.436957473261
 20
-324.585268861384
 30
0.0
 11
-572.436957473261
 21
-321.756868964763
 31
0.0
  0
LINE
  5
   303
  8
0
  6
CONTINUOUS
 62
     7
 10
-568.194357628329
 20
-321.756868964763
 30
0.0
 11
-566.780156331347
 21
-321.756868964763
 31
0.0
  0
LINE
  5
   304
  8
0
  6
CONTINUOUS
 62
     7
 10
-573.851157421572
 20
-321.756868964763
 30
0.0
 11
-572.436957473261
 21
-321.756868964763
 31
0.0
  0
LINE
  5
   305
  8
0
  6
CONTINUOUS
 62
     7
 10
-580.922198279668
 20
-272.135167014256
 30
0.0
 11
-580.922198279668
 21
-234.076429011542
 31
0.0
  0
LINE
  5
   306
  8
0
  6
CONTINUOUS
 62
     7
 10
-582.336398681775
 20
-272.135167014256
 30
0.0
 11
-580.922198733464
 21
-272.135167014256
 31
0.0
  0
LINE
  5
   307
  8
0
  6
CONTINUOUS
 62
     7
 10
-582.33639866148
 20
-271.60314006494
 30
0.0
 11
-580.922198713169
 21
-271.60314006494
 31
0.0
  0
LINE
  5
   308
  8
0
  6
CONTINUOUS
 62
     7
 10
-602.135238962942
 20
-234.076429011542
 30
0.0
 11
-580.922197281638
 21
-234.076429011542
 31
0.0
  0
LINE
  5
   309
  8
0
  6
CONTINUOUS
 62
     7
 10
-575.972497543471
 20
-236.197728934008
 30
0.0
 11
-530.011059860297
 21
-236.197728934008
 31
0.0
  0
LINE
  5
   30A
  8
0
  6
CONTINUOUS
 62
     7
 10
-582.336398227979
 20
-276.690045041547
 30
0.0
 11
-582.336398227979
 21
-264.792365042642
 31
0.0
  0
LINE
  5
   30B
  8
0
  6
CONTINUOUS
 62
     7
 10
-591.528727563094
 20
-304.079343091712
 30
0.0
 11
-529.303907449235
 21
-304.079343091712
 31
0.0
  0
ARC
  5
   30C
  8
0
  6
CONTINUOUS
 62
     7
 10
-532.839404406847
 20
-156.295470072207
 30
0.0
 40
1.41419994831085
 50
359.99999125736
 51
450.0
  0
ARC
  5
   30D
  8
0
  6
CONTINUOUS
 62
     7
 10
-532.839404406847
 20
-323.171063972887
 30
0.0
 40
1.41419994831085
 50
270.0
 51
360.00000874264
  0
LINE
  5
   30E
  8
0
  6
CONTINUOUS
 62
     7
 10
-531.425214061179
 20
-318.928442548976
 30
0.0
 11
-531.425214061179
 21
-304.079343091712
 31
0.0
  0
LINE
  5
   30F
  8
0
  6
CONTINUOUS
 62
     7
 10
-591.528697995596
 20
-301.958043169246
 30
0.0
 11
-527.889726814099
 21
-301.958043169246
 31
0.0
  0
LINE
  5
   310
  8
0
  6
CONTINUOUS
 62
     7
 10
-529.303914138712
 20
-304.079343091712
 30
0.0
 11
-529.303914138712
 21
-301.958043169246
 31
0.0
  0
LINE
  5
   311
  8
0
  6
CONTINUOUS
 62
     7
 10
-529.303920396616
 20
-177.508490875848
 30
0.0
 11
-529.303920396616
 21
-175.387190953382
 31
0.0
  0
LINE
  5
   312
  8
0
  6
CONTINUOUS
 62
     7
 10
-591.528675985042
 20
-175.387190953382
 30
0.0
 11
-529.303907449235
 21
-175.387190953382
 31
0.0
  0
LINE
  5
   313
  8
0
  6
CONTINUOUS
 62
     7
 10
-591.528718122291
 20
-177.508490875848
 30
0.0
 11
-527.889726814099
 21
-177.508490875848
 31
0.0
  0
LINE
  5
   314
  8
0
  6
CONTINUOUS
 62
     7
 10
-531.425220319083
 20
-160.538069917139
 30
0.0
 11
-531.425220319083
 21
-156.295470287996
 31
0.0
  0
LINE
  5
   315
  8
0
  6
CONTINUOUS
 62
     7
 10
-531.425205105906
 20
-160.538069917139
 30
0.0
 11
-529.303905399229
 21
-160.538069917139
 31
0.0
  0
LINE
  5
   316
  8
0
  6
CONTINUOUS
 62
     7
 10
-531.425205105909
 20
-318.928442548976
 30
0.0
 11
-529.303929136097
 21
-318.928442548976
 31
0.0
  0
ARC
  5
   317
  8
0
  6
CONTINUOUS
 62
     7
 10
-529.303905399229
 20
-161.95226986545
 30
0.0
 40
1.41419994831085
 50
359.99999125736
 51
450.0
  0
ARC
  5
   318
  8
0
  6
CONTINUOUS
 62
     7
 10
-529.303929136097
 20
-317.514242600665
 30
0.0
 40
1.41419994831085
 50
270.0
 51
359.99999125736
  0
LINE
  5
   319
  8
0
  6
CONTINUOUS
 62
     7
 10
-538.908229147009
 20
-275.217422201809
 30
0.0
 11
-538.071955760342
 21
-274.381148815143
 31
0.0
  0
LINE
  5
   31A
  8
0
  6
CONTINUOUS
 62
     7
 10
-538.071955760342
 20
-274.381148815143
 30
0.0
 11
-537.235682373676
 21
-275.217422201809
 31
0.0
  0
ARC
  5
   31B
  8
0
  6
CONTINUOUS
 62
     7
 10
-538.071955760342
 20
-281.169308567035
 30
0.0
 40
6.01034978032112
 50
97.9980204987734
 51
442.001979501227
  0
ARC
  5
   31C
  8
0
  6
CONTINUOUS
 62
     7
 10
-538.071955760342
 20
-281.169308567035
 30
0.0
 40
6.78815975189209
 50
2.19360828024407E-14
 51
180.0
  0
LINE
  5
   31D
  8
0
  6
CONTINUOUS
 62
     7
 10
-544.860115512235
 20
-281.169308567035
 30
0.0
 11
-544.082305540664
 21
-281.169308567035
 31
0.0
  0
LINE
  5
   31E
  8
0
  6
CONTINUOUS
 62
     7
 10
-532.061605980021
 20
-281.169308567035
 30
0.0
 11
-531.28379600845
 21
-281.169308567035
 31
0.0
  0
CIRCLE
  5
   31F
  8
0
  6
CONTINUOUS
 62
     7
 10
-538.071955760342
 20
-272.824217785872
 30
0.0
 40
1.13135995864868
  0
LINE
  5
   320
  8
0
  6
CONTINUOUS
 62
     7
 10
-600.72103784291
 20
-264.792365042642
 30
0.0
 11
-582.336398401669
 21
-264.792365042642
 31
0.0
  0
LINE
  5
   321
  8
0
  6
CONTINUOUS
 62
     7
 10
-600.013937545297
 20
-272.564519683468
 30
0.0
 11
-583.043498699283
 21
-272.564519683468
 31
0.0
  0
LINE
  5
   322
  8
0
  6
CONTINUOUS
 62
     7
 10
-600.013937414894
 20
-277.397144988729
 30
0.0
 11
-583.043498829685
 21
-277.397144988729
 31
0.0
  0
LINE
  5
   323
  8
0
  6
CONTINUOUS
 62
     7
 10
-582.336398875347
 20
-277.209527435006
 30
0.0
 11
-549.385555346829
 21
-277.209527435006
 31
0.0
  0
ARC
  5
   324
  8
0
  6
CONTINUOUS
 62
     7
 10
-600.013937414894
 20
-276.690045014574
 30
0.0
 40
0.707099974155426
 50
180.000002185662
 51
270.0
  0
ARC
  5
   325
  8
0
  6
CONTINUOUS
 62
     7
 10
-583.043498829685
 20
-276.690045014574
 30
0.0
 40
0.707099974155426
 50
270.0
 51
359.999997814338
  0
ARC
  5
   326
  8
0
  6
CONTINUOUS
 62
     7
 10
-583.043498699283
 20
-273.271619657624
 30
0.0
 40
0.707099974155426
 50
359.999997814338
 51
450.0
  0
ARC
  5
   327
  8
0
  6
CONTINUOUS
 62
     7
 10
-600.013937545297
 20
-273.271619657624
 30
0.0
 40
0.707099974155426
 50
90.0
 51
180.000002185662
  0
LINE
  5
   328
  8
0
  6
CONTINUOUS
 62
     7
 10
-591.528722438083
 20
-288.523127021493
 30
0.0
 11
-527.889724764094
 21
-288.523127021493
 31
0.0
  0
LINE
  5
   329
  8
0
  6
CONTINUOUS
 62
     7
 10
-591.528712727544
 20
-224.884129347521
 30
0.0
 11
-527.889715053555
 21
-224.884129347521
 31
0.0
  0
LINE
  5
   32A
  8
0
  6
CONTINUOUS
 62
     7
 10
-570.625021620452
 20
-263.377030077808
 30
0.0
 11
-570.306826632082
 21
-263.377030077808
 31
0.0
  0
LINE
  5
   32B
  8
0
  6
CONTINUOUS
 62
     7
 10
-571.544251586854
 20
-268.821699878805
 30
0.0
 11
-570.978571607529
 21
-268.821699878805
 31
0.0
  0
LINE
  5
   32C
  8
0
  6
CONTINUOUS
 62
     7
 10
-572.39277155584
 20
-266.983239946001
 30
0.0
 11
-572.39277155584
 21
-266.629689958923
 31
0.0
  0
ARC
  5
   32D
  8
0
  6
CONTINUOUS
 62
     7
 10
-574.231231488644
 20
-266.629689958923
 30
0.0
 40
1.83845993280411
 50
360.0
 51
540.0
  0
ARC
  5
   32E
  8
0
  6
CONTINUOUS
 62
     7
 10
-574.231231488644
 20
-266.983239946001
 30
0.0
 40
1.83845993280411
 50
180.0
 51
360.0
  0
ARC
  5
   32F
  8
0
  6
CONTINUOUS
 62
     7
 10
-574.231231488644
 20
-266.629689958923
 30
0.0
 40
1.27277995347977
 50
360.0
 51
540.0
  0
ARC
  5
   330
  8
0
  6
CONTINUOUS
 62
     7
 10
-574.231231488644
 20
-266.983239946001
 30
0.0
 40
1.27277995347977
 50
180.0
 51
360.0
  0
LINE
  5
   331
  8
0
  6
CONTINUOUS
 62
     7
 10
-572.958451535164
 20
-266.983239946001
 30
0.0
 11
-572.958451535164
 21
-266.629689958923
 31
0.0
  0
LINE
  5
   332
  8
0
  6
CONTINUOUS
 62
     7
 10
-572.215996562301
 20
-265.639749995106
 30
0.0
 11
-572.215996562301
 21
-265.074070015781
 31
0.0
  0
LINE
  5
   333
  8
0
  6
CONTINUOUS
 62
     7
 10
-572.215996562301
 20
-265.639749995106
 30
0.0
 11
-571.544251586854
 21
-265.639749995106
 31
0.0
  0
LINE
  5
   334
  8
0
  6
CONTINUOUS
 62
     7
 10
-570.306826632082
 20
-265.639749995106
 30
0.0
 11
-570.306826632082
 21
-265.074070015781
 31
0.0
  0
LINE
  5
   335
  8
0
  6
CONTINUOUS
 62
     7
 10
-572.215996562301
 20
-265.074070015781
 30
0.0
 11
-571.544251586854
 21
-265.074070015781
 31
0.0
  0
LINE
  5
   336
  8
0
  6
CONTINUOUS
 62
     7
 10
-571.544251586854
 20
-268.821699878805
 30
0.0
 11
-571.544251586854
 21
-265.639749995106
 31
0.0
  0
LINE
  5
   337
  8
0
  6
CONTINUOUS
 62
     7
 10
-570.978571607529
 20
-268.821699878805
 30
0.0
 11
-570.978571607529
 21
-265.639749995106
 31
0.0
  0
LINE
  5
   338
  8
0
  6
CONTINUOUS
 62
     7
 10
-570.978571607529
 20
-265.639749995106
 30
0.0
 11
-570.306826632082
 21
-265.639749995106
 31
0.0
  0
LINE
  5
   339
  8
0
  6
CONTINUOUS
 62
     7
 10
-570.978571607529
 20
-265.074070015781
 30
0.0
 11
-570.306826632082
 21
-265.074070015781
 31
0.0
  0
LINE
  5
   33A
  8
0
  6
CONTINUOUS
 62
     7
 10
-571.544251586854
 20
-265.074070015781
 30
0.0
 11
-571.544251586854
 21
-264.29626004421
 31
0.0
  0
LINE
  5
   33B
  8
0
  6
CONTINUOUS
 62
     7
 10
-570.978571607529
 20
-265.074070015781
 30
0.0
 11
-570.978571607529
 21
-264.29626004421
 31
0.0
  0
ARC
  5
   33C
  8
0
  6
CONTINUOUS
 62
     7
 10
-570.625021620452
 20
-264.296260044211
 30
0.0
 40
0.919229966402054
 50
89.9999999999997
 51
180.0
  0
ARC
  5
   33D
  8
0
  6
CONTINUOUS
 62
     7
 10
-570.625021620452
 20
-264.296260044211
 30
0.0
 40
0.353549987077713
 50
89.9999999999997
 51
180.0
  0
LINE
  5
   33E
  8
0
  6
CONTINUOUS
 62
     7
 10
-570.306826632082
 20
-263.942710057133
 30
0.0
 11
-570.306826632082
 21
-263.377030077808
 31
0.0
  0
LINE
  5
   33F
  8
0
  6
CONTINUOUS
 62
     7
 10
-570.625021620452
 20
-263.942710057133
 30
0.0
 11
-570.306826632082
 21
-263.942710057133
 31
0.0
  0
LINE
  5
   340
  8
0
  6
CONTINUOUS
 62
     7
 10
-569.281531669556
 20
-268.821699878805
 30
0.0
 11
-568.715851690232
 21
-268.821699878805
 31
0.0
  0
LINE
  5
   341
  8
0
  6
CONTINUOUS
 62
     7
 10
-569.953276645004
 20
-265.639749995106
 30
0.0
 11
-569.953276645004
 21
-265.074070015781
 31
0.0
  0
LINE
  5
   342
  8
0
  6
CONTINUOUS
 62
     7
 10
-569.953276645004
 20
-265.639749995106
 30
0.0
 11
-569.281531669556
 21
-265.639749995106
 31
0.0
  0
LINE
  5
   343
  8
0
  6
CONTINUOUS
 62
     7
 10
-568.044106714784
 20
-265.639749995106
 30
0.0
 11
-568.044106714784
 21
-265.074070015781
 31
0.0
  0
LINE
  5
   344
  8
0
  6
CONTINUOUS
 62
     7
 10
-569.953276645004
 20
-265.074070015781
 30
0.0
 11
-569.281531669556
 21
-265.074070015781
 31
0.0
  0
LINE
  5
   345
  8
0
  6
CONTINUOUS
 62
     7
 10
-569.281531669556
 20
-268.821699878805
 30
0.0
 11
-569.281531669556
 21
-265.639749995106
 31
0.0
  0
LINE
  5
   346
  8
0
  6
CONTINUOUS
 62
     7
 10
-568.715851690232
 20
-268.821699878805
 30
0.0
 11
-568.715851690232
 21
-265.639749995106
 31
0.0
  0
LINE
  5
   347
  8
0
  6
CONTINUOUS
 62
     7
 10
-568.715851690232
 20
-265.639749995106
 30
0.0
 11
-568.044106714784
 21
-265.639749995106
 31
0.0
  0
LINE
  5
   348
  8
0
  6
CONTINUOUS
 62
     7
 10
-568.715851690232
 20
-265.074070015781
 30
0.0
 11
-568.044106714784
 21
-265.074070015781
 31
0.0
  0
LINE
  5
   349
  8
0
  6
CONTINUOUS
 62
     7
 10
-569.281531669556
 20
-265.074070015781
 30
0.0
 11
-569.281531669556
 21
-264.29626004421
 31
0.0
  0
LINE
  5
   34A
  8
0
  6
CONTINUOUS
 62
     7
 10
-568.715851690232
 20
-265.074070015781
 30
0.0
 11
-568.715851690232
 21
-264.29626004421
 31
0.0
  0
ARC
  5
   34B
  8
0
  6
CONTINUOUS
 62
     7
 10
-568.362301703154
 20
-264.296260044211
 30
0.0
 40
0.919229966402054
 50
89.9999999999997
 51
180.0
  0
ARC
  5
   34C
  8
0
  6
CONTINUOUS
 62
     7
 10
-568.362301703154
 20
-264.296260044211
 30
0.0
 40
0.353549987077713
 50
89.9999999999997
 51
180.0
  0
LINE
  5
   34D
  8
0
  6
CONTINUOUS
 62
     7
 10
-568.044106714784
 20
-263.942710057133
 30
0.0
 11
-568.044106714784
 21
-263.377030077808
 31
0.0
  0
LINE
  5
   34E
  8
0
  6
CONTINUOUS
 62
     7
 10
-571.827091576516
 20
-244.426750770443
 30
0.0
 11
-571.261411597191
 21
-244.426750770443
 31
0.0
  0
ARC
  5
   34F
  8
0
  6
CONTINUOUS
 62
     7
 10
-574.231231488644
 20
-242.234740850561
 30
0.0
 40
1.83845993280411
 50
360.0
 51
540.0
  0
ARC
  5
   350
  8
0
  6
CONTINUOUS
 62
     7
 10
-574.231231488644
 20
-242.234740850561
 30
0.0
 40
1.27277995347977
 50
360.0
 51
540.0
  0
ARC
  5
   351
  8
0
  6
CONTINUOUS
 62
     7
 10
-574.231231488644
 20
-242.588290837639
 30
0.0
 40
1.83845993280411
 50
180.0
 51
360.0
  0
ARC
  5
   352
  8
0
  6
CONTINUOUS
 62
     7
 10
-574.231231488644
 20
-242.588290837639
 30
0.0
 40
1.27277995347977
 50
180.0
 51
360.0
  0
LINE
  5
   353
  8
0
  6
CONTINUOUS
 62
     7
 10
-571.827091576516
 20
-244.426750770443
 30
0.0
 11
-571.827091576516
 21
-240.396280917757
 31
0.0
  0
LINE
  5
   354
  8
0
  6
CONTINUOUS
 62
     7
 10
-571.261411597191
 20
-244.426750770443
 30
0.0
 11
-571.261411597191
 21
-241.951900860899
 31
0.0
  0
LINE
  5
   355
  8
0
  6
CONTINUOUS
 62
     7
 10
-569.281531669556
 20
-244.426750770443
 30
0.0
 11
-569.281531669556
 21
-241.951900860899
 31
0.0
  0
LINE
  5
   356
  8
0
  6
CONTINUOUS
 62
     7
 10
-568.715851690232
 20
-244.426750770443
 30
0.0
 11
-568.715851690232
 21
-241.810480866068
 31
0.0
  0
LINE
  5
   357
  8
0
  6
CONTINUOUS
 62
     7
 10
-571.827091576516
 20
-240.396280917757
 30
0.0
 11
-571.261411597191
 21
-240.396280917757
 31
0.0
  0
ARC
  5
   358
  8
0
  6
CONTINUOUS
 62
     7
 10
-570.271471633374
 20
-241.951900860899
 30
0.0
 40
0.989939963817595
 50
360.0
 51
540.0
  0
LINE
  5
   359
  8
0
  6
CONTINUOUS
 62
     7
 10
-571.261411597191
 20
-240.961960897081
 30
0.0
 11
-571.261411597191
 21
-240.396280917757
 31
0.0
  0
ARC
  5
   35A
  8
0
  6
CONTINUOUS
 62
     7
 10
-570.130051638543
 20
-241.810480866068
 30
0.0
 40
1.41419994831085
 50
360.0
 51
503.130102354155
  0
LINE
  5
   35B
  8
0
  6
CONTINUOUS
 62
     7
 10
-569.281531669556
 20
-244.426750770443
 30
0.0
 11
-568.715851690232
 21
-244.426750770443
 31
0.0
  0
LINE
  5
   35C
  8
0
  6
CONTINUOUS
 62
     7
 10
-571.495754286533
 20
-226.838774588845
 30
0.0
 11
-571.164786676909
 21
-226.780416944487
 31
0.0
  0
LINE
  5
   35D
  8
0
  6
CONTINUOUS
 62
     7
 10
-571.786780295417
 20
-227.006796939913
 30
0.0
 11
-571.495733844429
 21
-226.838763479459
 31
0.0
  0
LINE
  5
   35E
  8
0
  6
CONTINUOUS
 62
     7
 10
-572.002808658084
 20
-227.264251173801
 30
0.0
 11
-571.786792267614
 21
-227.006809209429
 31
0.0
  0
LINE
  5
   35F
  8
0
  6
CONTINUOUS
 62
     7
 10
-572.11774505028
 20
-227.580049177801
 30
0.0
 11
-572.00280462652
 21
-227.26424959773
 31
0.0
  0
LINE
  5
   360
  8
0
  6
CONTINUOUS
 62
     7
 10
-572.117755325966
 20
-227.91611557153
 30
0.0
 11
-572.117755325966
 21
-227.580048603261
 31
0.0
  0
LINE
  5
   361
  8
0
  6
CONTINUOUS
 62
     7
 10
-572.117745986876
 20
-227.916112147299
 30
0.0
 11
-572.002805563116
 21
-228.23191172737
 31
0.0
  0
LINE
  5
   362
  8
0
  6
CONTINUOUS
 62
     7
 10
-572.002810597549
 20
-228.231913075319
 30
0.0
 11
-571.786794207079
 21
-228.489355039692
 31
0.0
  0
LINE
  5
   363
  8
0
  6
CONTINUOUS
 62
     7
 10
-571.78677557839
 20
-228.489361545559
 30
0.0
 11
-571.495729127402
 21
-228.657395006012
 31
0.0
  0
LINE
  5
   364
  8
0
  6
CONTINUOUS
 62
     7
 10
-571.4957519861
 20
-228.65739086578
 30
0.0
 11
-571.164784376476
 21
-228.715748510139
 31
0.0
  0
LINE
  5
   365
  8
0
  6
CONTINUOUS
 62
     7
 10
-571.164784468463
 20
-228.715748229395
 30
0.0
 11
-570.840333734167
 21
-228.715748229395
 31
0.0
  0
LINE
  5
   366
  8
0
  6
CONTINUOUS
 62
     7
 10
-570.840316471247
 20
-228.715741347437
 30
0.0
 11
-570.716528681086
 21
-228.755964556386
 31
0.0
  0
LINE
  5
   367
  8
0
  6
CONTINUOUS
 62
     7
 10
-570.716530046134
 20
-228.755964880729
 30
0.0
 11
-570.640021790195
 21
-228.861269609103
 31
0.0
  0
LINE
  5
   368
  8
0
  6
CONTINUOUS
 62
     7
 10
-570.640037653842
 20
-228.991439912625
 30
0.0
 11
-570.640037653842
 21
-228.861276187428
 31
0.0
  0
LINE
  5
   369
  8
0
  6
CONTINUOUS
 62
     7
 10
-570.716535700901
 20
-229.096740000416
 30
0.0
 11
-570.640027444962
 21
-228.991435272042
 31
0.0
  0
LINE
  5
   36A
  8
0
  6
CONTINUOUS
 62
     7
 10
-570.840319953719
 20
-229.136963206391
 30
0.0
 11
-570.716532163559
 21
-229.096739997442
 31
0.0
  0
LINE
  5
   36B
  8
0
  6
CONTINUOUS
 62
     7
 10
-572.018610708313
 20
-229.136967870658
 30
0.0
 11
-570.840333734167
 21
-229.136967870658
 31
0.0
  0
LINE
  5
   36C
  8
0
  6
CONTINUOUS
 62
     7
 10
-572.018610708313
 20
-229.911100244783
 30
0.0
 11
-572.018610708313
 21
-229.136967870658
 31
0.0
  0
LINE
  5
   36D
  8
0
  6
CONTINUOUS
 62
     7
 10
-572.018610708313
 20
-229.911100244783
 30
0.0
 11
-570.840333734167
 21
-229.911100244783
 31
0.0
  0
LINE
  5
   36E
  8
0
  6
CONTINUOUS
 62
     7
 10
-570.840326328714
 20
-229.911098513124
 30
0.0
 11
-570.50353243777
 21
-229.85171182097
 31
0.0
  0
LINE
  5
   36F
  8
0
  6
CONTINUOUS
 62
     7
 10
-570.503535380817
 20
-229.851710360919
 30
0.0
 11
-570.207353066715
 21
-229.680711089394
 31
0.0
  0
LINE
  5
   370
  8
0
  6
CONTINUOUS
 62
     7
 10
-570.207340941532
 20
-229.680709173376
 30
0.0
 11
-569.987505097103
 21
-229.418724205344
 31
0.0
  0
LINE
  5
   371
  8
0
  6
CONTINUOUS
 62
     7
 10
-569.987515810249
 20
-229.418732847968
 30
0.0
 11
-569.870546951586
 21
-229.097360445143
 31
0.0
  0
LINE
  5
   372
  8
0
  6
CONTINUOUS
 62
     7
 10
-569.870552852255
 20
-229.097356957875
 30
0.0
 11
-569.870552852255
 21
-228.755359142178
 31
0.0
  0
LINE
  5
   373
  8
0
  6
CONTINUOUS
 62
     7
 10
-569.987516078645
 20
-228.433984743017
 30
0.0
 11
-569.870547219982
 21
-228.755357145842
 31
0.0
  0
LINE
  5
   374
  8
0
  6
CONTINUOUS
 62
     7
 10
-570.207348198477
 20
-228.171992799872
 30
0.0
 11
-569.987512339307
 21
-228.433978479936
 31
0.0
  0
LINE
  5
   375
  8
0
  6
CONTINUOUS
 62
     7
 10
-570.503541521333
 20
-228.001001189679
 30
0.0
 11
-570.207359220471
 21
-228.171999779172
 31
0.0
  0
LINE
  5
   376
  8
0
  6
CONTINUOUS
 62
     7
 10
-570.84031636235
 20
-227.941617167164
 30
0.0
 11
-570.503522476259
 21
-228.001004532322
 31
0.0
  0
LINE
  5
   377
  8
0
  6
CONTINUOUS
 62
     7
 10
-571.164784468463
 20
-227.941615180927
 30
0.0
 11
-570.840333734167
 21
-227.941615180927
 31
0.0
  0
LINE
  5
   378
  8
0
  6
CONTINUOUS
 62
     7
 10
-571.278536919694
 20
-227.904650424241
 30
0.0
 11
-571.164772545616
 21
-227.941611841565
 31
0.0
  0
LINE
  5
   379
  8
0
  6
CONTINUOUS
 62
     7
 10
-571.348848999611
 20
-227.807888835333
 30
0.0
 11
-571.278544686958
 21
-227.904655722712
 31
0.0
  0
LINE
  5
   37A
  8
0
  6
CONTINUOUS
 62
     7
 10
-571.348853156804
 20
-227.807886878186
 30
0.0
 11
-571.348853156804
 21
-227.688277296605
 31
0.0
  0
LINE
  5
   37B
  8
0
  6
CONTINUOUS
 62
     7
 10
-571.348838557248
 20
-227.688280561222
 30
0.0
 11
-571.278534244595
 21
-227.591513673843
 31
0.0
  0
LINE
  5
   37C
  8
0
  6
CONTINUOUS
 62
     7
 10
-571.278532528188
 20
-227.591505123367
 30
0.0
 11
-571.16476815411
 21
-227.554543706043
 31
0.0
  0
LINE
  5
   37D
  8
0
  6
CONTINUOUS
 62
     7
 10
-571.164784468463
 20
-227.554548993864
 30
0.0
 11
-569.969438522163
 21
-227.554548993864
 31
0.0
  0
LINE
  5
   37E
  8
0
  6
CONTINUOUS
 62
     7
 10
-569.969438522163
 20
-227.554548993864
 30
0.0
 11
-569.969438522163
 21
-226.780415945396
 31
0.0
  0
LINE
  5
   37F
  8
0
  6
CONTINUOUS
 62
     7
 10
-571.164784468463
 20
-226.780415945396
 30
0.0
 11
-569.969438522163
 21
-226.780415945396
 31
0.0
  0
LINE
  5
   380
  8
0
  6
CONTINUOUS
 62
     7
 10
-569.855598620013
 20
-229.911100244783
 30
0.0
 11
-569.049364817694
 21
-229.911100244783
 31
0.0
  0
LINE
  5
   381
  8
0
  6
CONTINUOUS
 62
     7
 10
-569.049356409797
 20
-229.911098004555
 30
0.0
 11
-568.867208256115
 21
-229.284961690577
 31
0.0
  0
LINE
  5
   382
  8
0
  6
CONTINUOUS
 62
     7
 10
-568.867216658458
 20
-229.28496392438
 30
0.0
 11
-567.99788592241
 21
-229.28496392438
 31
0.0
  0
LINE
  5
   383
  8
0
  6
CONTINUOUS
 62
     7
 10
-567.997879255326
 20
-229.28496225508
 30
0.0
 11
-567.815731101645
 21
-229.911098569058
 31
0.0
  0
LINE
  5
   384
  8
0
  6
CONTINUOUS
 62
     7
 10
-567.815737763174
 20
-229.911100244783
 30
0.0
 11
-567.009514750344
 21
-229.911100244783
 31
0.0
  0
LINE
  5
   385
  8
0
  6
CONTINUOUS
 62
     7
 10
-567.920258645826
 20
-226.780415466935
 30
0.0
 11
-567.009506821238
 21
-229.911100559429
 31
0.0
  0
LINE
  5
   386
  8
0
  6
CONTINUOUS
 62
     7
 10
-568.944847034344
 20
-226.780415945396
 30
0.0
 11
-567.920266336013
 21
-226.780415945396
 31
0.0
  0
LINE
  5
   387
  8
0
  6
CONTINUOUS
 62
     7
 10
-569.855594522079
 20
-229.911112963848
 30
0.0
 11
-568.944842697492
 21
-226.780427871354
 31
0.0
  0
LINE
  5
   388
  8
0
  6
CONTINUOUS
 62
     7
 10
-568.432545093485
 20
-227.790801949733
 30
0.0
 11
-568.223088629999
 21
-228.510830782045
 31
0.0
  0
LINE
  5
   389
  8
0
  6
CONTINUOUS
 62
     7
 10
-568.642018436708
 20
-228.510830875912
 30
0.0
 11
-568.223094933649
 21
-228.510830875912
 31
0.0
  0
LINE
  5
   38A
  8
0
  6
CONTINUOUS
 62
     7
 10
-568.642005802563
 20
-228.510829680904
 30
0.0
 11
-568.432538672006
 21
-227.790801244794
 31
0.0
  0
LINE
  5
   38B
  8
0
  6
CONTINUOUS
 62
     7
 10
-564.368679646647
 20
-227.208375151079
 30
0.0
 11
-564.091799780657
 21
-227.557446837881
 31
0.0
  0
LINE
  5
   38C
  8
0
  6
CONTINUOUS
 62
     7
 10
-564.732669478744
 20
-226.951452512758
 30
0.0
 11
-564.368675288426
 21
-227.208381254336
 31
0.0
  0
LINE
  5
   38D
  8
0
  6
CONTINUOUS
 62
     7
 10
-565.154317135353
 20
-226.807487953455
 30
0.0
 11
-564.732674684582
 21
-226.951458164318
 31
0.0
  0
LINE
  5
   38E
  8
0
  6
CONTINUOUS
 62
     7
 10
-565.599436605785
 20
-226.78813706531
 30
0.0
 11
-565.1543162107
 21
-226.807485991988
 31
0.0
  0
LINE
  5
   38F
  8
0
  6
CONTINUOUS
 62
     7
 10
-566.031995139623
 20
-226.894976467993
 30
0.0
 11
-565.599444511857
 21
-226.78813625279
 31
0.0
  0
LINE
  5
   390
  8
0
  6
CONTINUOUS
 62
     7
 10
-566.416903364938
 20
-227.119345636513
 30
0.0
 11
-566.031988354982
 21
-226.894971465056
 31
0.0
  0
LINE
  5
   391
  8
0
  6
CONTINUOUS
 62
     7
 10
-566.72302875793
 20
-227.443082977053
 30
0.0
 11
-566.41690936928
 21
-227.119352444227
 31
0.0
  0
LINE
  5
   392
  8
0
  6
CONTINUOUS
 62
     7
 10
-566.925529222706
 20
-227.839936284902
 30
0.0
 11
-566.72302132021
 21
-227.443076619542
 31
0.0
  0
LINE
  5
   393
  8
0
  6
CONTINUOUS
 62
     7
 10
-567.008029184339
 20
-228.277781009826
 30
0.0
 11
-566.925532748784
 21
-227.839942846267
 31
0.0
  0
LINE
  5
   394
  8
0
  6
CONTINUOUS
 62
     7
 10
-567.008028304928
 20
-228.27777833987
 30
0.0
 11
-566.96383457769
 21
-228.721123845887
 31
0.0
  0
LINE
  5
   395
  8
0
  6
CONTINUOUS
 62
     7
 10
-566.963838011596
 20
-228.721122805279
 30
0.0
 11
-566.796525420772
 21
-229.134058120389
 31
0.0
  0
LINE
  5
   396
  8
0
  6
CONTINUOUS
 62
     7
 10
-566.796524596269
 20
-229.134054525106
 30
0.0
 11
-566.547578700642
 21
-229.456063476375
 31
0.0
  0
LINE
  5
   397
  8
0
  6
CONTINUOUS
 62
     7
 10
-566.547574430309
 20
-229.456070856666
 30
0.0
 11
-566.224019225993
 21
-229.70301058157
 31
0.0
  0
LINE
  5
   398
  8
0
  6
CONTINUOUS
 62
     7
 10
-566.224025825463
 20
-229.703007005932
 30
0.0
 11
-565.84774239125
 21
-229.858181438763
 31
0.0
  0
LINE
  5
   399
  8
0
  6
CONTINUOUS
 62
     7
 10
-565.847738372097
 20
-229.858183320507
 30
0.0
 11
-565.444168320691
 21
-229.911100368828
 31
0.0
  0
LINE
  5
   39A
  8
0
  6
CONTINUOUS
 62
     7
 10
-565.444162504017
 20
-229.911098856535
 30
0.0
 11
-565.04059245261
 21
-229.858181808214
 31
0.0
  0
LINE
  5
   39B
  8
0
  6
CONTINUOUS
 62
     7
 10
-565.040605287989
 20
-229.858183088042
 30
0.0
 11
-564.664321853776
 21
-229.703008655212
 31
0.0
  0
LINE
  5
   39C
  8
0
  6
CONTINUOUS
 62
     7
 10
-564.664311008804
 20
-229.703000503487
 30
0.0
 11
-564.340755804488
 21
-229.456060778583
 31
0.0
  0
LINE
  5
   39D
  8
0
  6
CONTINUOUS
 62
     7
 10
-564.340758474359
 20
-229.456068106174
 30
0.0
 11
-564.091801799716
 21
-229.134059176502
 31
0.0
  0
LINE
  5
   39E
  8
0
  6
CONTINUOUS
 62
     7
 10
-564.76060762622
 20
-228.744205634178
 30
0.0
 11
-564.091799623103
 21
-229.134056804772
 31
0.0
  0
LINE
  5
   39F
  8
0
  6
CONTINUOUS
 62
     7
 10
-564.937275993025
 20
-228.953271855446
 30
0.0
 11
-564.760619672233
 21
-228.744213343914
 31
0.0
  0
LINE
  5
   3A0
  8
0
  6
CONTINUOUS
 62
     7
 10
-565.17459832304
 20
-229.089625085766
 30
0.0
 11
-564.937272669262
 21
-228.953266145315
 31
0.0
  0
LINE
  5
   3A1
  8
0
  6
CONTINUOUS
 62
     7
 10
-565.444167259178
 20
-229.136967700104
 30
0.0
 11
-565.174591834267
 21
-229.089626119201
 31
0.0
  0
LINE
  5
   3A2
  8
0
  6
CONTINUOUS
 62
     7
 10
-565.713756106851
 20
-229.089625816297
 30
0.0
 11
-565.44418068194
 21
-229.1369673972
 31
0.0
  0
LINE
  5
   3A3
  8
0
  6
CONTINUOUS
 62
     7
 10
-565.951076693798
 20
-228.953264283038
 30
0.0
 11
-565.71375104002
 21
-229.089623223489
 31
0.0
  0
LINE
  5
   3A4
  8
0
  6
CONTINUOUS
 62
     7
 10
-566.127732111755
 20
-228.744204442815
 30
0.0
 11
-565.951075790963
 21
-228.953262954346
 31
0.0
  0
LINE
  5
   3A5
  8
0
  6
CONTINUOUS
 62
     7
 10
-566.228173271375
 20
-228.452290467702
 30
0.0
 11
-566.12772312566
 21
-228.744206180325
 31
0.0
  0
LINE
  5
   3A6
  8
0
  6
CONTINUOUS
 62
     7
 10
-566.22817
 20
-228.452296480664
 30
0.0
 11
-566.209256022955
 21
-228.144161445499
 31
0.0
  0
LINE
  5
   3A7
  8
0
  6
CONTINUOUS
 62
     7
 10
-566.209256466617
 20
-228.144155170215
 30
0.0
 11
-566.073869947573
 21
-227.866712204349
 31
0.0
  0
LINE
  5
   3A8
  8
0
  6
CONTINUOUS
 62
     7
 10
-566.073880393625
 20
-227.866712033499
 30
0.0
 11
-565.842618460692
 21
-227.66219858076
 31
0.0
  0
LINE
  5
   3A9
  8
0
  6
CONTINUOUS
 62
     7
 10
-565.842616258829
 20
-227.662200244571
 30
0.0
 11
-565.550706624433
 21
-227.561752805745
 31
0.0
  0
LINE
  5
   3AA
  8
0
  6
CONTINUOUS
 62
     7
 10
-565.550711730629
 20
-227.56175569421
 30
0.0
 11
-565.242574609838
 21
-227.580664953316
 31
0.0
  0
LINE
  5
   3AB
  8
0
  6
CONTINUOUS
 62
     7
 10
-565.242566132578
 20
-227.580667566266
 30
0.0
 11
-564.965125168867
 21
-227.716056121281
 31
0.0
  0
LINE
  5
   3AC
  8
0
  6
CONTINUOUS
 62
     7
 10
-564.965121455531
 20
-227.716039637647
 30
0.0
 11
-564.760606669262
 21
-227.947294815877
 31
0.0
  0
LINE
  5
   3AD
  8
0
  6
CONTINUOUS
 62
     7
 10
-564.760602622781
 20
-227.947297817756
 30
0.0
 11
-564.091794619664
 21
-227.557446647161
 31
0.0
  0
LINE
  5
   3AE
  8
0
  6
CONTINUOUS
 62
     7
 10
-563.807205100238
 20
-229.911100244783
 30
0.0
 11
-563.807205100238
 21
-226.780416619739
 31
0.0
  0
LINE
  5
   3AF
  8
0
  6
CONTINUOUS
 62
     7
 10
-563.807205100238
 20
-229.911100244783
 30
0.0
 11
-561.758032914088
 21
-229.911100244783
 31
0.0
  0
LINE
  5
   3B0
  8
0
  6
CONTINUOUS
 62
     7
 10
-561.758032914088
 20
-229.911100244783
 30
0.0
 11
-561.758032914088
 21
-229.136967870658
 31
0.0
  0
LINE
  5
   3B1
  8
0
  6
CONTINUOUS
 62
     7
 10
-563.03307002874
 20
-229.136967870658
 30
0.0
 11
-561.758032914088
 21
-229.136967870658
 31
0.0
  0
LINE
  5
   3B2
  8
0
  6
CONTINUOUS
 62
     7
 10
-563.03307002874
 20
-229.136967870658
 30
0.0
 11
-563.03307002874
 21
-228.732824619324
 31
0.0
  0
LINE
  5
   3B3
  8
0
  6
CONTINUOUS
 62
     7
 10
-563.03307002874
 20
-228.732824619324
 30
0.0
 11
-561.928798162058
 21
-228.732824619324
 31
0.0
  0
LINE
  5
   3B4
  8
0
  6
CONTINUOUS
 62
     7
 10
-561.928798162058
 20
-228.732824619324
 30
0.0
 11
-561.928798162058
 21
-227.958691570855
 31
0.0
  0
LINE
  5
   3B5
  8
0
  6
CONTINUOUS
 62
     7
 10
-563.03307002874
 20
-227.958691570855
 30
0.0
 11
-561.928798162058
 21
-227.958691570855
 31
0.0
  0
LINE
  5
   3B6
  8
0
  6
CONTINUOUS
 62
     7
 10
-563.03307002874
 20
-227.958691570855
 30
0.0
 11
-563.03307002874
 21
-227.55454903601
 31
0.0
  0
LINE
  5
   3B7
  8
0
  6
CONTINUOUS
 62
     7
 10
-563.03307002874
 20
-227.554548993864
 30
0.0
 11
-561.758032914088
 21
-227.554548993864
 31
0.0
  0
LINE
  5
   3B8
  8
0
  6
CONTINUOUS
 62
     7
 10
-561.758032914088
 20
-227.554548993864
 30
0.0
 11
-561.758032914088
 21
-226.780415945396
 31
0.0
  0
LINE
  5
   3B9
  8
0
  6
CONTINUOUS
 62
     7
 10
-563.807205100238
 20
-226.780415945396
 30
0.0
 11
-561.758032914088
 21
-226.780415945396
 31
0.0
  0
LINE
  5
   3BA
  8
0
  6
CONTINUOUS
 62
     7
 10
-576.679598434735
 20
-236.197728934008
 30
0.0
 11
-576.679598434735
 21
-229.833829166609
 31
0.0
  0
LINE
  5
   3BB
  8
0
  6
CONTINUOUS
 62
     7
 10
-605.670631289481
 20
-229.833829166609
 30
0.0
 11
-576.679597274863
 21
-229.833829166609
 31
0.0
  0
LINE
  5
   3BC
  8
0
  6
CONTINUOUS
 62
     7
 10
-575.972497408602
 20
-232.662229063231
 30
0.0
 11
-530.011059536612
 21
-232.662229063231
 31
0.0
  0
LINE
  5
   3BD
  8
0
  6
CONTINUOUS
 62
     7
 10
-605.670631289481
 20
-229.126729192454
 30
0.0
 11
-575.972497273734
 21
-229.126729192454
 31
0.0
  0
LINE
  5
   3BE
  8
0
  6
CONTINUOUS
 62
     7
 10
-575.97249846058
 20
-236.197728934008
 30
0.0
 11
-575.97249846058
 21
-229.126729192454
 31
0.0
  0
LINE
  5
   3BF
  8
0
  6
CONTINUOUS
 62
     7
 10
-531.425220319083
 20
-175.387190953382
 30
0.0
 11
-531.425220319083
 21
-160.538069917139
 31
0.0
  0
LINE
  5
   3C0
  8
0
  6
CONTINUOUS
 62
     7
 10
-651.632215925493
 20
-175.387190953382
 30
0.0
 11
-651.632215925493
 21
-160.538069917139
 31
0.0
  0
LINE
  5
   3C1
  8
0
  6
CONTINUOUS
 62
     7
 10
-651.632222183397
 20
-323.171063757098
 30
0.0
 11
-651.632222183397
 21
-318.928442548976
 31
0.0
  0
LINE
  5
   3C2
  8
0
  6
CONTINUOUS
 62
     7
 10
-531.425214061179
 20
-323.171063757098
 30
0.0
 11
-531.425214061179
 21
-318.928442548976
 31
0.0
  0
ARC
  5
   3C3
  8
0
  6
CONTINUOUS
 62
     7
 10
-612.741601447053
 20
-310.443201688582
 30
0.0
 40
6.36389976739883
 50
39.5693389498875
 51
140.430931160542
  0
CIRCLE
  5
   3C4
  8
0
  6
CONTINUOUS
 62
     7
 10
-570.315602997727
 20
-310.443201688582
 30
0.0
 40
6.36389976739883
  0
CIRCLE
  5
   3C5
  8
0
  6
CONTINUOUS
 62
     7
 10
-612.741666236771
 20
-169.023181360351
 30
0.0
 40
6.36383967423219
  0
LINE
  5
   3C6
  8
0
  6
CONTINUOUS
 62
     7
 10
-576.679598434735
 20
-274.963566910878
 30
0.0
 11
-576.679598434735
 21
-269.306767117634
 31
0.0
  0
LINE
  5
   3C7
  8
0
  6
CONTINUOUS
 62
     7
 10
-605.670631289481
 20
-274.963566910878
 30
0.0
 11
-600.721037454909
 21
-274.963566910878
 31
0.0
  0
LINE
  5
   3C8
  8
0
  6
CONTINUOUS
 62
     7
 10
-582.33639878967
 20
-274.963566910878
 30
0.0
 11
-576.679598996427
 21
-274.963566910878
 31
0.0
  0
CIRCLE
  5
   3C9
  8
0
  6
CONTINUOUS
 62
     7
 10
-633.954758708863
 20
-167.326222767784
 30
0.0
 40
4.94969981908798
  0
CIRCLE
  5
   3CA
  8
0
  6
CONTINUOUS
 62
     7
 10
-633.954758708863
 20
-312.140321157682
 30
0.0
 40
4.94969981908798
  0
CIRCLE
  5
   3CB
  8
0
  6
CONTINUOUS
 62
     7
 10
-591.528760259537
 20
-312.140321157682
 30
0.0
 40
4.94969981908798
  0
CIRCLE
  5
   3CC
  8
0
  6
CONTINUOUS
 62
     7
 10
-549.102719672965
 20
-312.140321157682
 30
0.0
 40
4.94969981908798
  0
CIRCLE
  5
   3CD
  8
0
  6
CONTINUOUS
 62
     7
 10
-591.528675985042
 20
-167.326222767784
 30
0.0
 40
4.94969981908798
  0
CIRCLE
  5
   3CE
  8
0
  6
CONTINUOUS
 62
     7
 10
-549.102677535716
 20
-167.326222767784
 30
0.0
 40
4.94969981908798
  0
ARC
  5
   3CF
  8
0
  6
CONTINUOUS
 62
     7
 10
-609.135456368578
 20
-165.416971492159
 30
0.0
 40
2.8283998966217
 50
178.557523870135
 51
271.442476129865
  0
CIRCLE
  5
   3D0
  8
0
  6
CONTINUOUS
 62
     7
 10
-612.741666236771
 20
-169.023181360351
 30
0.0
 40
5.30334419611677
  0
ARC
  5
   3D1
  8
0
  6
CONTINUOUS
 62
     7
 10
-616.347876104964
 20
-165.416971492159
 30
0.0
 40
2.8283998966217
 50
268.557523870135
 51
361.442476129865
  0
ARC
  5
   3D2
  8
0
  6
CONTINUOUS
 62
     7
 10
-612.741666236771
 20
-169.023181360351
 30
0.0
 40
3.75895303957286
 50
78.0440027883074
 51
101.955997211693
  0
ARC
  5
   3D3
  8
0
  6
CONTINUOUS
 62
     7
 10
-612.741666236771
 20
-169.023181360351
 30
0.0
 40
3.75895303957286
 50
168.044002788308
 51
191.955997211693
  0
ARC
  5
   3D4
  8
0
  6
CONTINUOUS
 62
     7
 10
-612.741666236771
 20
-169.023181360351
 30
0.0
 40
3.75895303957286
 50
348.044002788307
 51
371.955997211692
  0
ARC
  5
   3D5
  8
0
  6
CONTINUOUS
 62
     7
 10
-609.135456368578
 20
-172.629391228544
 30
0.0
 40
2.8283998966217
 50
88.5575238701351
 51
181.442476129865
  0
ARC
  5
   3D6
  8
0
  6
CONTINUOUS
 62
     7
 10
-616.347876104964
 20
-172.629391228544
 30
0.0
 40
2.8283998966217
 50
358.557523870135
 51
451.442476129865
  0
ARC
  5
   3D7
  8
0
  6
CONTINUOUS
 62
     7
 10
-612.741666236771
 20
-169.023181360351
 30
0.0
 40
3.75895303957286
 50
258.044002788307
 51
281.955997211693
  0
ARC
  5
   3D8
  8
0
  6
CONTINUOUS
 62
     7
 10
-566.709457919253
 20
-165.416971492159
 30
0.0
 40
2.8283998966217
 50
178.557523870135
 51
271.442476129865
  0
CIRCLE
  5
   3D9
  8
0
  6
CONTINUOUS
 62
     7
 10
-570.315667787446
 20
-169.023181360351
 30
0.0
 40
5.30334419611677
  0
ARC
  5
   3DA
  8
0
  6
CONTINUOUS
 62
     7
 10
-573.921877655638
 20
-165.416971492159
 30
0.0
 40
2.8283998966217
 50
268.557523870135
 51
361.442476129865
  0
ARC
  5
   3DB
  8
0
  6
CONTINUOUS
 62
     7
 10
-570.315667787446
 20
-169.023181360351
 30
0.0
 40
3.75895303957286
 50
78.0440027883074
 51
101.955997211693
  0
ARC
  5
   3DC
  8
0
  6
CONTINUOUS
 62
     7
 10
-570.315667787446
 20
-169.023181360351
 30
0.0
 40
3.75895303957286
 50
168.044002788308
 51
191.955997211693
  0
ARC
  5
   3DD
  8
0
  6
CONTINUOUS
 62
     7
 10
-570.315667787446
 20
-169.023181360351
 30
0.0
 40
3.75895303957286
 50
348.044002788307
 51
371.955997211692
  0
ARC
  5
   3DE
  8
0
  6
CONTINUOUS
 62
     7
 10
-566.709457919253
 20
-172.629391228544
 30
0.0
 40
2.8283998966217
 50
88.5575238701351
 51
181.442476129865
  0
ARC
  5
   3DF
  8
0
  6
CONTINUOUS
 62
     7
 10
-573.921877655638
 20
-172.629391228544
 30
0.0
 40
2.8283998966217
 50
358.557523870135
 51
451.442476129865
  0
ARC
  5
   3E0
  8
0
  6
CONTINUOUS
 62
     7
 10
-570.315667787446
 20
-169.023181360351
 30
0.0
 40
3.75895303957286
 50
258.044002788307
 51
281.955997211693
  0
ARC
  5
   3E1
  8
0
  6
CONTINUOUS
 62
     7
 10
-566.709393129534
 20
-306.836991820389
 30
0.0
 40
2.8283998966217
 50
178.557523870135
 51
271.442476129865
  0
CIRCLE
  5
   3E2
  8
0
  6
CONTINUOUS
 62
     7
 10
-570.315602997727
 20
-310.443201688582
 30
0.0
 40
5.30334419611677
  0
ARC
  5
   3E3
  8
0
  6
CONTINUOUS
 62
     7
 10
-573.92181286592
 20
-306.836991820389
 30
0.0
 40
2.8283998966217
 50
268.557523870135
 51
361.442476129865
  0
ARC
  5
   3E4
  8
0
  6
CONTINUOUS
 62
     7
 10
-570.315602997727
 20
-310.443201688582
 30
0.0
 40
3.75895303957286
 50
78.0440027883074
 51
101.955997211693
  0
ARC
  5
   3E5
  8
0
  6
CONTINUOUS
 62
     7
 10
-570.315602997727
 20
-310.443201688582
 30
0.0
 40
3.75895303957286
 50
168.044002788308
 51
191.955997211693
  0
ARC
  5
   3E6
  8
0
  6
CONTINUOUS
 62
     7
 10
-570.315602997727
 20
-310.443201688582
 30
0.0
 40
3.75895303957286
 50
348.044002788307
 51
371.955997211692
  0
ARC
  5
   3E7
  8
0
  6
CONTINUOUS
 62
     7
 10
-566.709393129534
 20
-314.049411556775
 30
0.0
 40
2.8283998966217
 50
88.5575238701351
 51
181.442476129865
  0
ARC
  5
   3E8
  8
0
  6
CONTINUOUS
 62
     7
 10
-573.92181286592
 20
-314.049411556775
 30
0.0
 40
2.8283998966217
 50
358.557523870135
 51
451.442476129865
  0
ARC
  5
   3E9
  8
0
  6
CONTINUOUS
 62
     7
 10
-570.315602997727
 20
-310.443201688582
 30
0.0
 40
3.75895303957286
 50
258.044002788307
 51
281.955997211693
  0
LINE
  5
   3EA
  8
0
  6
CONTINUOUS
 62
     7
 10
-575.97249746255
 20
-234.076429011542
 30
0.0
 11
-530.011059536612
 21
-234.076429011542
 31
0.0
  0
LINE
  5
   3EB
  8
0
  6
CONTINUOUS
 62
     7
 10
-549.385555346829
 20
-279.330827357473
 30
0.0
 11
-549.385555346829
 21
-277.209527435006
 31
0.0
  0
LINE
  5
   3EC
  8
0
  6
CONTINUOUS
 62
     7
 10
-605.670631289481
 20
-236.197728934008
 30
0.0
 11
-602.13523888202
 21
-236.197728934008
 31
0.0
  0
LINE
  5
   3ED
  8
0
  6
CONTINUOUS
 62
     7
 10
-580.922197362559
 20
-236.197728934008
 30
0.0
 11
-575.972497543471
 21
-236.197728934008
 31
0.0
  0
LINE
  5
   3EE
  8
0
  6
CONTINUOUS
 62
     7
 10
-605.670631289481
 20
-269.306767117634
 30
0.0
 11
-602.13523761901
 21
-269.306767117634
 31
0.0
  0
LINE
  5
   3EF
  8
0
  6
CONTINUOUS
 62
     7
 10
-580.922198625569
 20
-269.306767117634
 30
0.0
 11
-576.679598780637
 21
-269.306767117634
 31
0.0
  0
LINE
  5
   3F0
  8
0
  6
CONTINUOUS
 62
     7
 10
-530.011063528728
 20
-236.197728934008
 30
0.0
 11
-530.011063528728
 21
-234.076429011542
 31
0.0
  0
LINE
  5
   3F1
  8
0
  6
CONTINUOUS
 62
     7
 10
-541.253905644042
 20
-280.60362858771
 30
0.0
 11
-534.890005876643
 21
-280.60362858771
 31
0.0
  0
LINE
  5
   3F2
  8
0
  6
CONTINUOUS
 62
     7
 10
-541.253905644042
 20
-281.734988546359
 30
0.0
 11
-534.890005876643
 21
-281.734988546359
 31
0.0
  0
LINE
  5
   3F3
  8
0
  6
CONTINUOUS
 62
     7
 10
-534.890005876643
 20
-281.734988546359
 30
0.0
 11
-534.890005876643
 21
-280.60362858771
 31
0.0
  0
LINE
  5
   3F4
  8
0
  6
CONTINUOUS
 62
     7
 10
-541.253905644042
 20
-281.734988546359
 30
0.0
 11
-541.253905644042
 21
-280.60362858771
 31
0.0
  0
LINE
  5
   3F5
  8
0
  6
CONTINUOUS
 62
     7
 10
-540.954239217695
 20
-280.60362858771
 30
0.0
 11
-538.071955760342
 21
-274.946828794467
 31
0.0
  0
LINE
  5
   3F6
  8
0
  6
CONTINUOUS
 62
     7
 10
-538.071955760342
 20
-274.946828794467
 30
0.0
 11
-535.18967230299
 21
-280.60362858771
 31
0.0
  0
LINE
  5
   3F7
  8
0
  6
CONTINUOUS
 62
     7
 10
-588.983175478512
 20
-285.694727124881
 30
0.0
 11
-549.385576925808
 21
-285.694727124881
 31
0.0
  0
LINE
  5
   3F8
  8
0
  6
CONTINUOUS
 62
     7
 10
-549.385576925808
 20
-285.694727124881
 30
0.0
 11
-549.385576925808
 21
-279.330827357482
 31
0.0
  0
LINE
  5
   3F9
  8
0
  6
CONTINUOUS
 62
     7
 10
-588.983175478512
 20
-285.694727124881
 30
0.0
 11
-588.983175478512
 21
-279.330827357482
 31
0.0
  0
LINE
  5
   3FA
  8
0
  6
DASHDOT
 62
     7
 10
-612.741601447053
 20
-318.221301404292
 30
0.0
 11
-612.741601447053
 21
-302.665101972872
 31
0.0
  0
LINE
  5
   3FB
  8
0
  6
DASHDOT
 62
     7
 10
-620.519701162763
 20
-310.443201688582
 30
0.0
 11
-604.963501731343
 21
-310.443201688582
 31
0.0
  0
LINE
  5
   3FC
  8
0
  6
DASHDOT
 62
     7
 10
-570.315667787446
 20
-176.801220982894
 30
0.0
 11
-570.315667787446
 21
-161.245141737808
 31
0.0
  0
LINE
  5
   3FD
  8
0
  6
DASHDOT
 62
     7
 10
-578.093707409989
 20
-169.023181360351
 30
0.0
 11
-562.537628164903
 21
-169.023181360351
 31
0.0
  0
LINE
  5
   3FE
  8
0
  6
DASHDOT
 62
     7
 10
-612.741666236771
 20
-176.801220982894
 30
0.0
 11
-612.741666236771
 21
-161.245141737808
 31
0.0
  0
LINE
  5
   3FF
  8
0
  6
DASHDOT
 62
     7
 10
-620.519705859314
 20
-169.023181360351
 30
0.0
 11
-604.963626614228
 21
-169.023181360351
 31
0.0
  0
LINE
  5
   400
  8
0
  6
DASHDOT
 62
     7
 10
-570.315602997727
 20
-318.221301404292
 30
0.0
 11
-570.315602997727
 21
-302.665101972872
 31
0.0
  0
LINE
  5
   401
  8
0
  6
DASHDOT
 62
     7
 10
-578.093702713437
 20
-310.443201688582
 30
0.0
 11
-562.537503282018
 21
-310.443201688582
 31
0.0
  0
LINE
  5
   402
  8
0
  6
DASHDOT
 62
     7
 10
-591.528718122288
 20
-336.216713227064
 30
0.0
 11
-591.528718122288
 21
-143.32616546409
 31
0.0
  0
LINE
  5
   403
  8
0
  6
CONTINUOUS
 62
     7
 10
-655.167672638313
 20
-195.893008828163
 30
0.0
 11
-655.167672638313
 21
-161.952270081233
 31
0.0
  0
LINE
  5
   404
  8
0
  6
CONTINUOUS
 62
     7
 10
-599.306709943113
 20
-288.523127021493
 30
0.0
 11
-591.528713806497
 21
-288.523127021493
 31
0.0
  0
LINE
  5
   405
  8
0
  6
CONTINUOUS
 62
     7
 10
-697.593757403564
 20
-195.893008828163
 30
0.0
 11
-697.593757403564
 21
-161.952270081233
 31
0.0
  0
LINE
  5
   406
  8
0
  6
CONTINUOUS
 62
     7
 10
-745.773685218751
 20
-266.983239946001
 30
0.0
 11
-745.773685218751
 21
-266.629689958923
 31
0.0
  0
LINE
  5
   407
  8
0
  6
CONTINUOUS
 62
     7
 10
-745.208005239426
 20
-266.983239946001
 30
0.0
 11
-745.208005239426
 21
-266.629689958923
 31
0.0
  0
ARC
  5
   408
  8
0
  6
CONTINUOUS
 62
     7
 10
-743.935225285946
 20
-266.629689958923
 30
0.0
 40
1.83845993280411
 50
128.395251209028
 51
180.0
  0
LINE
  5
   409
  8
0
  6
CONTINUOUS
 62
     7
 10
-598.599631547927
 20
-301.958043169246
 30
0.0
 11
-591.528738248984
 21
-301.958043169246
 31
0.0
  0
LINE
  5
   40A
  8
0
  6
CONTINUOUS
 62
     7
 10
-598.599631547927
 20
-304.079343091712
 30
0.0
 11
-591.528708681485
 21
-304.079343091712
 31
0.0
  0
INSERT
  5
   40B
  8
0
  6
CONTINUOUS
 62
     7
  2
*UDIM1347
 10
0.0
 20
0.0
 30
0.0
  0
INSERT
  5
   40C
  8
0
  6
CONTINUOUS
 62
     7
  2
*UDIM1348
 10
0.0
 20
0.0
 30
0.0
  0
POINT
  5
   40D
  8
0
  6
CONTINUOUS
 62
     7
 10
-612.741601447053
 20
-310.443201688582
 30
0.0
  0
POINT
  5
   40E
  8
0
  6
CONTINUOUS
 62
     7
 10
-740.019661584748
 20
-169.023181360351
 30
0.0
  0
INSERT
  5
   40F
  8
0
  6
CONTINUOUS
 62
     7
  2
*UDIM1349
 10
0.0
 20
0.0
 30
0.0
  0
TEXT
  5
   410
  8
0
  6
CONTINUOUS
 62
     2
 10
-673.373748779297
 20
-362.31980891706
 30
0.0
 40
2.49999991419779
  1
98-04-21
 41
1.09999993880828
 11
-673.373748779297
 21
-361.069808959961
 31
0.0
 73
     2
  0
TEXT
  5
   411
  8
0
  6
CONTINUOUS
 62
     2
 10
-673.373748779297
 20
-366.31980891706
 30
0.0
 40
2.49999991419779
  1
O.Carrara
 41
1.09800001318355
 11
-673.373748779297
 21
-365.069808959961
 31
0.0
 73
     2
  0
TEXT
  5
   412
  8
0
  6
CONTINUOUS
 62
     2
 10
-661.907012939453
 20
-379.00520987989
 30
0.0
 40
2.49999991419779
  1
M4385 98-06-01
 41
0.649999613899708
 11
-661.907012939453
 21
-377.755209922791
 31
0.0
 73
     2
  0
TEXT
  5
   413
  8
0
  6
CONTINUOUS
 62
     2
 10
-571.902018114905
 20
-390.588646811511
 30
0.0
 40
4.49999984555602
  1
601855/441
 41
1.09999993880828
 72
     1
 11
-547.977020263672
 21
-388.338646888733
 31
0.0
 73
     2
  0
TEXT
  5
   414
  8
0
  6
CONTINUOUS
 62
     2
 10
-568.018685489217
 20
-381.121896700873
 30
0.0
 40
2.49999991419779
  1
S1 S2 III IV
 41
1.09999993880828
 72
     1
 11
-551.977020263672
 21
-379.871896743774
 31
0.0
 73
     2
  0
TEXT
  5
   415
  8
0
  6
CONTINUOUS
 62
     2
 10
-569.577018682744
 20
-366.671783395784
 30
0.0
 40
2.99999989703735
  1
INTERBLOCCO
 41
1.09999993880828
 72
     1
 11
-551.977020263672
 21
-365.171783447266
 31
0.0
 73
     2
  0
TEXT
  5
   416
  8
0
  6
CONTINUOUS
 62
     2
 10
-566.277020307191
 20
-370.671783395784
 30
0.0
 40
2.99999989703735
  1
INTERLOCK
 41
1.10000003714999
 72
     1
 11
-551.977020263672
 21
-369.171783447266
 31
0.0
 73
     2
  0
TEXT
  5
   417
  8
0
  6
CONTINUOUS
 62
     2
 10
-512.389032671681
 20
-391.893981890693
 30
0.0
 40
2.49999991419779
  1
1/1
 41
1.09999993880828
 72
     1
 11
-508.722366333008
 21
-390.643981933594
 31
0.0
 73
     2
  0
TEXT
  5
   418
  8
0
  6
CONTINUOUS
 62
     2
 10
-511.014032795362
 20
-374.960403399482
 30
0.0
 40
2.49999991419779
  1
IT
 41
1.09999993880828
 72
     1
 11
-508.722366333008
 21
-373.710403442383
 31
0.0
 73
     2
  0
TEXT
  5
   419
  8
0
  6
CONTINUOUS
 62
     2
 10
-673.373748779297
 20
-374.78650891706
 30
0.0
 40
2.49999991419779
  1
GIUPPONI
 41
1.09800001318355
 11
-673.373748779297
 21
-373.536508959961
 31
0.0
 73
     2
  0
TEXT
  5
   41A
  8
0
  6
CONTINUOUS
 62
     2
 10
-673.373748779297
 20
-370.78650891706
 30
0.0
 40
2.49999991419779
  1
98-06-01
 41
1.09999993880828
 11
-673.373748779297
 21
-369.536508959961
 31
0.0
 73
     2
  0
TEXT
  5
   41B
  8
0
  6
CONTINUOUS
 62
     7
 10
-763.277408631306
 20
-124.440546848678
 30
0.0
 40
5.00000454879717
  1
Y
 41
0.933333333333333
 72
     1
 11
-761.44407363008
 21
-121.940544574279
 31
0.0
 73
     2
  0
TEXT
  5
   41C
  8
0
  6
CONTINUOUS
 62
     7
 10
-593.466814461924
 20
-124.925719974876
 30
0.0
 40
5.00000454879717
  1
Y
 41
0.933333333333333
 72
     1
 11
-591.633479460698
 21
-122.425717700477
 31
0.0
 73
     2
  0
TEXT
  5
   41D
  8
0
  6
CONTINUOUS
 62
     7
 10
-763.277403728484
 20
-341.992170055863
 30
0.0
 40
5.00000454879717
  1
Y
 41
0.933333333333333
 72
     1
 11
-761.444068727258
 21
-339.492167781464
 31
0.0
 73
     2
  0
TEXT
  5
   41E
  8
0
  6
CONTINUOUS
 62
     7
 10
-593.07868520214
 20
-341.604031587159
 30
0.0
 40
5.00000454879717
  1
Y
 41
0.933333333333333
 72
     1
 11
-591.245350200915
 21
-339.104029312761
 31
0.0
 73
     2
  0
TEXT
  5
   41F
  8
0
  6
CONTINUOUS
 62
     7
 10
-838.382197422549
 20
-262.811922440414
 30
0.0
 40
5.00000454879717
  1
X
 41
0.933333333333333
 72
     1
 11
-836.548862421323
 21
-260.311920166016
 31
0.0
 73
     2
  0
TEXT
  5
   420
  8
0
  6
CONTINUOUS
 62
     7
 10
-515.936164547383
 20
-262.811922440414
 30
0.0
 40
5.00000454879717
  1
X
 41
0.933333333333333
 72
     1
 11
-514.102829546158
 21
-260.311920166016
 31
0.0
 73
     2
  0
INSERT
  5
   421
  8
0
  6
CONTINUOUS
 62
     7
  2
*UDIM1350
 10
0.0
 20
0.0
 30
0.0
  0
ENDSEC
  0
EOF
