  0
SECTION
  2
HEADER
  9
$ACADVER
  1
AC1009
  9
$INSBASE
 10
0.0
 20
0.0
 30
0.0
  9
$EXTMIN
 10
-341.0212818
 20
318.8966751968502
 30
0.0
  9
$EXTMAX
 10
812.89135699999986
 20
721.90062900000009
 30
0.0
  9
$LIMMIN
 10
0.0
 20
0.0
  9
$LIMMAX
 10
420.0
 20
297.0
  9
$ORTHOMODE
 70
     0
  9
$REGENMODE
 70
     1
  9
$FILLMODE
 70
     1
  9
$QTEXTMODE
 70
     0
  9
$MIRRTEXT
 70
     1
  9
$DRAGMODE
 70
     2
  9
$LTSCALE
 40
1.0
  9
$OSMODE
 70
    47
  9
$ATTMODE
 70
     1
  9
$TEXTSIZE
 40
0.0
  9
$TRACEWID
 40
1.0
  9
$TEXTSTYLE
  7
STANDARD
  9
$CLAYER
  8
0
  9
$CELTYPE
  6
BYLAYER
  9
$CECOLOR
 62
   256
  9
$DIMSCALE
 40
1.0
  9
$DIMASZ
 40
2.5
  9
$DIMEXO
 40
0.625
  9
$DIMDLI
 40
3.75
  9
$DIMRND
 40
0.0
  9
$DIMDLE
 40
0.0
  9
$DIMEXE
 40
1.25
  9
$DIMTP
 40
0.0
  9
$DIMTM
 40
0.0
  9
$DIMTXT
 40
2.5
  9
$DIMCEN
 40
2.5
  9
$DIMTSZ
 40
0.0
  9
$DIMTOL
 70
     0
  9
$DIMLIM
 70
     0
  9
$DIMTIH
 70
     0
  9
$DIMTOH
 70
     0
  9
$DIMSE1
 70
     0
  9
$DIMSE2
 70
     0
  9
$DIMTAD
 70
     1
  9
$DIMZIN
 70
     8
  9
$DIMBLK
  1

  9
$DIMASO
 70
     1
  9
$DIMSHO
 70
     1
  9
$DIMPOST
  1

  9
$DIMAPOST
  1

  9
$DIMALT
 70
     0
  9
$DIMALTD
 70
     3
  9
$DIMALTF
 40
0.03937
  9
$DIMLFAC
 40
1.0
  9
$DIMTOFL
 70
     1
  9
$DIMTVP
 40
0.0
  9
$DIMTIX
 70
     0
  9
$DIMSOXD
 70
     0
  9
$DIMSAH
 70
     0
  9
$DIMBLK1
  1

  9
$DIMBLK2
  1

  9
$DIMSTYLE
  2
STANDARD
  9
$DIMCLRD
 70
     0
  9
$DIMCLRE
 70
     0
  9
$DIMCLRT
 70
     0
  9
$DIMTFAC
 40
1.0
  9
$DIMGAP
 40
0.625
  9
$LUNITS
 70
     2
  9
$LUPREC
 70
     4
  9
$SKETCHINC
 40
1.0
  9
$FILLETRAD
 40
2.5
  9
$AUNITS
 70
     0
  9
$AUPREC
 70
     0
  9
$MENU
  1
.
  9
$ELEVATION
 40
0.0
  9
$PELEVATION
 40
0.0
  9
$THICKNESS
 40
0.0
  9
$LIMCHECK
 70
     0
  9
$BLIPMODE
 70
     0
  9
$CHAMFERA
 40
2.5
  9
$CHAMFERB
 40
2.5
  9
$SKPOLY
 70
     0
  9
$TDCREATE
 40
2311942.6599061568
  9
$TDUPDATE
 40
2454455.3868101272
  9
$TDINDWG
 40
0.0003267477
  9
$TDUSRTIMER
 40
0.0003265741
  9
$USRTIMER
 70
     1
  9
$ANGBASE
 50
0.0
  9
$ANGDIR
 70
     0
  9
$PDMODE
 70
     0
  9
$PDSIZE
 40
0.0
  9
$PLINEWID
 40
0.0
  9
$COORDS
 70
     1
  9
$SPLFRAME
 70
     0
  9
$SPLINETYPE
 70
     6
  9
$SPLINESEGS
 70
     8
  9
$ATTDIA
 70
     0
  9
$ATTREQ
 70
     1
  9
$HANDLING
 70
 22529
  9
$HANDSEED
  5
8A0
  9
$SURFTAB1
 70
     6
  9
$SURFTAB2
 70
     6
  9
$SURFTYPE
 70
     6
  9
$SURFU
 70
     6
  9
$SURFV
 70
     6
  9
$UCSNAME
  2

  9
$UCSORG
 10
0.0
 20
0.0
 30
0.0
  9
$UCSXDIR
 10
1.0
 20
0.0
 30
0.0
  9
$UCSYDIR
 10
0.0
 20
1.0
 30
0.0
  9
$PUCSNAME
  2

  9
$PUCSORG
 10
0.0
 20
0.0
 30
0.0
  9
$PUCSXDIR
 10
1.0
 20
0.0
 30
0.0
  9
$PUCSYDIR
 10
0.0
 20
1.0
 30
0.0
  9
$USERI1
 70
     0
  9
$USERI2
 70
     0
  9
$USERI3
 70
     0
  9
$USERI4
 70
     0
  9
$USERI5
 70
     0
  9
$USERR1
 40
0.0
  9
$USERR2
 40
0.0
  9
$USERR3
 40
0.0
  9
$USERR4
 40
0.0
  9
$USERR5
 40
0.0
  9
$WORLDVIEW
 70
     1
  9
$SHADEDGE
 70
     3
  9
$SHADEDIF
 70
    70
  9
$TILEMODE
 70
     1
  9
$MAXACTVP
 70
    48
  9
$PLIMCHECK
 70
     0
  9
$PEXTMIN
 10
0.0
 20
0.0
 30
0.0
  9
$PEXTMAX
 10
297.29998799999993
 20
244.38226299999999
 30
2.0
  9
$PLIMMIN
 10
0.0
 20
0.0
  9
$PLIMMAX
 10
420.0
 20
297.0
  9
$UNITMODE
 70
     0
  9
$VISRETAIN
 70
     0
  9
$PLINEGEN
 70
     0
  9
$PSLTSCALE
 70
     1
  0
ENDSEC
  0
SECTION
  2
TABLES
  0
TABLE
  2
VPORT
 70
     2
  0
VPORT
  2
*ACTIVE
 70
     0
 10
0.0
 20
0.0
 11
1.0
 21
1.0
 12
235.92315774634849
 22
520.28249471562731
 13
0.0
 23
0.0
 14
1.0
 24
1.0
 15
0.0
 25
0.0
 16
0.0
 26
0.0
 36
1.0
 17
0.0
 27
0.0
 37
0.0
 40
747.92371244541482
 41
1.550724637681159
 42
50.0
 43
0.0
 44
0.0
 50
0.0
 51
0.0
 71
     0
 72
   100
 73
     1
 74
     1
 75
     0
 76
     0
 77
     0
 78
     0
  0
ENDTAB
  0
TABLE
  2
LTYPE
 70
     8
  0
LTYPE
  2
CONTINUOUS
 70
     0
  3
Solid line
 72
    65
 73
     0
 40
0.0
  0
LTYPE
  2
DASHED
 70
     0
  3
__ __ __ __ __ __ __ __ __ __ __ __ __ __ __ __
 72
    65
 73
     2
 40
15.0
 49
12.0
 49
-3.0
  0
LTYPE
  2
DASHDOT
 70
     0
  3
 __ . __ . __ . __ . __ . __ . __ . 
 72
    65
 73
     4
 40
18.5
 49
12.0
 49
-3.0
 49
0.5
 49
-3.0
  0
LTYPE
  2
DOT
 70
     0
  3
 . . . . . . . . . . . . . . . .
 72
    65
 73
     2
 40
3.5
 49
0.5
 49
-3.0
  0
LTYPE
  2
DASHSPACE
 70
     0
  3
__    __    __    __    __   
 72
    65
 73
     2
 40
30.0
 49
12.0
 49
-18.0
  0
LTYPE
  2
DASHDOT2
 70
     0
  3
__ . . __ . . __ . . __ 
 72
    65
 73
     6
 40
22.0
 49
12.0
 49
-3.0
 49
0.5
 49
-3.0
 49
0.5
 49
-3.0
  0
LTYPE
  2
PHANTOM
 70
     0
  3
____________    ____    ____   _
 72
    65
 73
     6
 40
20.0
 49
10.0
 49
-2.0
 49
2.0
 49
-2.0
 49
2.0
 49
-2.0
  0
LTYPE
  2
AXES
 70
     0
  3
________  __  ________  __  _____
 72
    65
 73
     4
 40
24.0
 49
15.0
 49
-3.0
 49
3.0
 49
-3.0
  0
ENDTAB
  0
TABLE
  2
LAYER
 70
     1
  0
LAYER
  2
0
 70
     0
 62
     7
  6
CONTINUOUS
  0
ENDTAB
  0
TABLE
  2
STYLE
 70
     2
  0
STYLE
  2
STANDARD
 70
     0
 40
0.0
 41
1.0
 50
0.0
 71
     0
 42
0.0
  3
isocp.shx
  4

  0
STYLE
  2
GDT
 70
     0
 40
0.0
 41
1.0
 50
0.0
 71
     0
 42
0.0
  3
amgdt.shx
  4

  0
ENDTAB
  0
TABLE
  2
VIEW
 70
     0
  0
ENDTAB
  0
TABLE
  2
UCS
 70
     0
  0
ENDTAB
  0
TABLE
  2
APPID
 70
     1
  0
APPID
  2
ACAD
 70
     0
  0
ENDTAB
  0
TABLE
  2
DIMSTYLE
 70
     1
  0
DIMSTYLE
  2
STANDARD
 70
     0
  3

  4

  5

  6

  7

 40
1.0
 41
2.5
 42
0.625
 43
3.75
 44
1.25
 45
0.0
 46
0.0
 47
0.0
 48
0.0
140
2.5
141
2.5
142
0.0
143
0.03937
144
1.0
145
0.0
146
1.0
147
0.625
 71
     0
 72
     0
 73
     0
 74
     0
 75
     0
 76
     0
 77
     1
 78
     8
170
     0
171
     3
172
     1
173
     0
174
     0
175
     0
176
     0
177
     0
178
     0
  0
ENDTAB
  0
ENDSEC
  0
SECTION
  2
BLOCKS
  0
BLOCK
  8
0
  2
$MODEL_SPACE
 70
     0
 10
0.0
 20
0.0
 30
0.0
  3
$MODEL_SPACE
  1

  0
ENDBLK
  5
E
  8
0
  0
BLOCK
 67
     1
  8
0
  2
$PAPER_SPACE
 70
     0
 10
0.0
 20
0.0
 30
0.0
  3
$PAPER_SPACE
  1

  0
ENDBLK
  5
10
 67
     1
  8
0
  0
BLOCK
  8
0
  2
BLOCK0
 70
     0
 10
0.0
 20
0.0
 30
0.0
  3
BLOCK0
  1

  0
TEXT
  5
56A
  8
0
 62
     1
 10
-496.0
 20
-49.0
 30
0.0
 40
3.0
  1
Ts3
 50
180.0
 41
1.2257674620974599
 72
     5
 11
-503.69998199999998
 21
-49.0
 31
0.0
  0
ENDBLK
  5
56B
  8
0
  0
BLOCK
  8
0
  2
BLOCK1
 70
     0
 10
0.0
 20
0.0
 30
0.0
  3
BLOCK1
  1

  0
TEXT
  5
56D
  8
0
 62
     1
 10
-429.15213
 20
-49.0
 30
0.0
 40
2.0
  1
N0204 2007-09-17
 50
180.0
 41
1.1017693073406229
 72
     5
 11
-452.84786999999989
 21
-49.0
 31
0.0
  0
ENDBLK
  5
56E
  8
0
  0
BLOCK
  8
0
  2
BLOCK2
 70
     0
 10
0.0
 20
0.0
 30
0.0
  3
BLOCK2
  1

  0
TEXT
  5
570
  8
0
 62
     1
 10
-469.0
 20
-38.0
 30
0.0
 40
4.0
  1
1SDH000637R0.108
 50
180.0
 41
1.391145938967135
 72
     5
 11
-528.26281700000004
 21
-38.0
 31
0.0
  0
ENDBLK
  5
571
  8
0
  0
BLOCK
  8
0
  2
BLOCK3
 70
     0
 10
0.0
 20
0.0
 30
0.0
  3
BLOCK3
  1

  0
TEXT
  5
573
  8
0
 62
     1
 10
-471.0
 20
-61.0
 30
0.0
 40
2.0
  1
INTERR.AUTOMATICO SERIE ISOMAX
 50
179.99999487194501
 41
1.0769160722891591
 72
     5
 11
-515.69201699999985
 21
-60.999996000000003
 31
0.0
  0
ENDBLK
  5
574
  8
0
  0
BLOCK
  8
0
  2
BLOCK4
 70
     0
 10
0.0
 20
0.0
 30
0.0
  3
BLOCK4
  1

  0
TEXT
  5
576
  8
0
 62
     1
 10
-462.0
 20
-57.0
 30
0.0
 40
2.0
  1
TETRAP.ESECUZIONE RIMOVIBILE TERMIN.ANTERIORI
 50
179.99999317785429
 41
1.114228656716427
 72
     5
 11
-529.18798800000002
 21
-56.999991999999999
 31
0.0
  0
ENDBLK
  5
577
  8
0
  0
BLOCK
  8
0
  2
BLOCK5
 70
     0
 10
0.0
 20
0.0
 30
0.0
  3
BLOCK5
  1

  0
TEXT
  5
579
  8
0
 62
     1
 10
-465.0
 20
-71.0
 30
0.0
 40
2.0
  1
4POLE LOW VOLTAGE M.C.C.B SERIES ISOMAX
 50
179.9999921228804
 41
1.095848870056507
 72
     5
 11
-523.18957499999988
 21
-70.999992000000006
 31
0.0
  0
ENDBLK
  5
57A
  8
0
  0
BLOCK
  8
0
  2
BLOCK6
 70
     0
 10
0.0
 20
0.0
 30
0.0
  3
BLOCK6
  1

  0
TEXT
  5
57C
  8
0
 62
     1
 10
-470.0
 20
-67.0
 30
0.0
 40
2.0
  1
PLUG-IN VERSION FRONT TERMINALS
 50
179.99999007687251
 41
1.064835164889038
 72
     5
 11
-516.19171100000005
 21
-66.999992000000006
 31
0.0
  0
ENDBLK
  5
57D
  8
0
  0
BLOCK
  8
0
  2
BLOCK7
 70
     0
 10
0.0
 20
0.0
 30
0.0
  3
BLOCK7
  1

  0
TEXT
  5
57F
  8
0
 62
     7
 10
-132.0
 20
2.0
 30
0.0
 40
3.0
  1
X
 50
180.0
 41
0.9777764444444425
 72
     5
 11
-134.199997
 21
2.0
 31
0.0
  0
ENDBLK
  5
580
  8
0
  0
BLOCK
  8
0
  2
BLOCK8
 70
     0
 10
0.0
 20
0.0
 30
0.0
  3
BLOCK8
  1

  0
TEXT
  5
582
  8
0
 62
     7
 10
125.0
 20
0.0
 30
0.0
 40
3.0
  1
X
 50
180.0
 41
0.9777764444444425
 72
     5
 11
122.800003
 21
0.0
 31
0.0
  0
ENDBLK
  5
583
  8
0
  0
BLOCK
  8
0
  2
BLOCK9
 70
     0
 10
0.0
 20
0.0
 30
0.0
  3
BLOCK9
  1

  0
TEXT
  5
585
  8
0
 62
     7
 10
5.5146480000000002
 20
-113.74215700000001
 30
0.0
 40
3.0
  1
Y
 50
180.0
 41
0.9777777777777776
 72
     5
 11
3.314648
 21
-113.74215700000001
 31
0.0
  0
ENDBLK
  5
586
  8
0
  0
BLOCK
  8
0
  2
BLOCK10
 70
     0
 10
0.0
 20
0.0
 30
0.0
  3
BLOCK10
  1

  0
TEXT
  5
588
  8
0
 62
     7
 10
5.0
 20
160.0
 30
0.0
 40
3.0
  1
Y
 50
180.0
 41
0.9777777777777778
 72
     5
 11
2.7999999999999989
 21
160.0
 31
0.0
  0
ENDBLK
  5
589
  8
0
  0
BLOCK
  8
0
  2
BLOCK11
 70
     0
 10
0.0
 20
0.0
 30
0.0
  3
BLOCK11
  1

  0
TEXT
  5
58B
  8
0
 62
     7
 10
148.66870099999991
 20
16.5
 30
0.0
 40
3.0
  1
100
 50
269.99988838455522
 41
1.4660032381408521
 72
     5
 11
148.66868600000001
 21
8.8000199999999982
 31
0.0
  0
ENDBLK
  5
58C
  8
0
  0
BLOCK
  8
0
  2
BLOCK12
 70
     0
 10
0.0
 20
0.0
 30
0.0
  3
BLOCK12
  1

  0
TEXT
  5
58E
  8
0
 62
     7
 10
-37.0
 20
138.13629199999991
 30
0.0
 40
3.0
  1
25
 50
180.0
 41
1.2776591662854091
 72
     5
 11
-41.949989000000002
 21
138.13629199999991
 31
0.0
  0
ENDBLK
  5
58F
  8
0
  0
BLOCK
  8
0
  2
BLOCK13
 70
     0
 10
0.0
 20
0.0
 30
0.0
  3
BLOCK13
  1

  0
TEXT
  5
591
  8
0
 62
     7
 10
51.0
 20
138.13629199999991
 30
0.0
 40
3.0
  1
80
 50
180.0
 41
1.319166095897597
 72
     5
 11
46.050010999999991
 21
138.13629199999991
 31
0.0
  0
ENDBLK
  5
592
  8
0
  0
BLOCK
  8
0
  2
BLOCK14
 70
     0
 10
0.0
 20
0.0
 30
0.0
  3
BLOCK14
  1

  0
TEXT
  5
594
  8
0
 62
     7
 10
219.566666
 20
134.860489
 30
0.0
 40
3.0
  1
 5
 50
212.70408315676451
 41
1.664275729172219
 72
     5
 11
215.4013819999999
 21
132.18600499999991
 31
0.0
  0
ENDBLK
  5
595
  8
0
  0
BLOCK
  8
0
  2
BLOCK15
 70
     0
 10
0.0
 20
0.0
 30
0.0
  3
BLOCK15
  1

  0
TEXT
  5
597
  8
0
 62
     7
 10
220.9128419999999
 20
135.72497599999991
 30
0.0
 40
3.0
  1
%%c
 50
212.7040272305745
 41
0.977778741228206
 72
     5
 11
219.06159999999991
 21
134.536316
 31
0.0
  0
ENDBLK
  5
598
  8
0
  0
BLOCK
  8
0
  2
BLOCK16
 70
     0
 10
0.0
 20
0.0
 30
0.0
  3
BLOCK16
  1

  0
TEXT
  5
59A
  8
0
 62
     7
 10
201.05419900000001
 20
122.9738769999999
 30
0.0
 40
3.0
  1
 (M4)
 50
212.7040437984592
 41
1.600224341829795
 72
     5
 11
189.9467929999999
 21
115.8419419999999
 31
0.0
  0
ENDBLK
  5
59B
  8
0
  0
BLOCK
  8
0
  2
BLOCK17
 70
     0
 10
0.0
 20
0.0
 30
0.0
  3
BLOCK17
  1

  0
TEXT
  5
59D
  8
0
 62
     7
 10
-105.80175800000001
 20
-62.0
 30
0.0
 40
3.0
  1
52,25
 50
270.00003472482268
 41
1.4466875246702331
 72
     5
 11
-105.80175
 21
-75.199958999999993
 31
0.0
  0
ENDBLK
  5
59E
  8
0
  0
BLOCK
  8
0
  2
BLOCK18
 70
     0
 10
0.0
 20
0.0
 30
0.0
  3
BLOCK18
  1

  0
TEXT
  5
5A0
  8
0
 62
     7
 10
93.280272999999994
 20
-49.451842999999997
 30
0.0
 40
3.0
  1
105
 50
359.99997023588912
 41
1.4327509593041881
 72
     5
 11
100.980255
 21
-49.451846999999987
 31
0.0
  0
ENDBLK
  5
5A1
  8
0
  0
BLOCK
  8
0
  2
BLOCK19
 70
     0
 10
0.0
 20
0.0
 30
0.0
  3
BLOCK19
  1

  0
TEXT
  5
5A3
  8
0
 62
     7
 10
112.0
 20
207.0
 30
0.0
 40
3.0
  1
X
 50
270.0
 41
0.9777764444444425
 72
     5
 11
112.0
 21
204.80000299999989
 31
0.0
  0
ENDBLK
  5
5A4
  8
0
  0
BLOCK
  8
0
  2
BLOCK20
 70
     0
 10
0.0
 20
0.0
 30
0.0
  3
BLOCK20
  1

  0
TEXT
  5
5A6
  8
0
 62
     7
 10
113.0
 20
-60.0
 30
0.0
 40
3.0
  1
X
 50
270.0
 41
0.9777782222222221
 72
     5
 11
113.0
 21
-62.200001
 31
0.0
  0
ENDBLK
  5
5A7
  8
0
  0
BLOCK
  8
0
  2
BLOCK21
 70
     0
 10
0.0
 20
0.0
 30
0.0
  3
BLOCK21
  1

  0
TEXT
  5
5A9
  8
0
 62
     7
 10
259.03808599999991
 20
110.4999389999999
 30
0.0
 40
3.0
  1
5
 50
270.0
 41
1.2399490238209789
 72
     5
 11
259.03808599999991
 21
108.2999419999999
 31
0.0
  0
ENDBLK
  5
5AA
  8
0
  0
BLOCK
  8
0
  2
BLOCK22
 70
     0
 10
0.0
 20
0.0
 30
0.0
  3
BLOCK22
  1

  0
TEXT
  5
5AC
  8
0
 62
     7
 10
259.03808599999991
 20
142.4999389999999
 30
0.0
 40
3.0
  1
31
 50
270.0
 41
1.5714276190476171
 72
     5
 11
259.03808599999991
 21
137.5499419999999
 31
0.0
  0
ENDBLK
  5
5AD
  8
0
  0
BLOCK
  8
0
  2
BLOCK23
 70
     0
 10
0.0
 20
0.0
 30
0.0
  3
BLOCK23
  1

  0
TEXT
  5
5AF
  8
0
 62
     7
 10
259.03808599999991
 20
167.0
 30
0.0
 40
3.0
  1
3
 50
270.0
 41
1.2399490238209789
 72
     5
 11
259.03808599999991
 21
164.800003
 31
0.0
  0
ENDBLK
  5
5B0
  8
0
  0
BLOCK
  8
0
  2
BLOCK24
 70
     0
 10
0.0
 20
0.0
 30
0.0
  3
BLOCK24
  1

  0
TEXT
  5
5B2
  8
0
 62
     7
 10
259.03808599999991
 20
172.5
 30
0.0
 40
3.0
  1
\U+2265
 50
270.0
 41
1.2422315693532049
 72
     5
 11
259.03808599999991
 21
170.300003
 31
0.0
  0
ENDBLK
  5
5B3
  8
0
  0
BLOCK
  8
0
  2
BLOCK25
 70
     0
 10
0.0
 20
0.0
 30
0.0
  3
BLOCK25
  1

  0
TEXT
  5
5B5
  8
0
 62
     7
 10
-32.436500999999993
 20
84.249267999999987
 30
0.0
 40
3.0
  1
153
 50
269.99997767691679
 41
1.432750959304103
 72
     5
 11
-32.436503999999992
 21
76.549285999999995
 31
0.0
  0
ENDBLK
  5
5B6
  8
0
  0
BLOCK
  8
0
  2
BLOCK26
 70
     0
 10
0.0
 20
0.0
 30
0.0
  3
BLOCK26
  1

  0
TEXT
  5
5B8
  8
0
 62
     7
 10
-76.356064000000003
 20
73.977417000000003
 30
0.0
 40
3.0
  1
184,5
 50
269.99996961578012
 41
1.4958708054538821
 72
     5
 11
-76.356071
 21
60.777457999999989
 31
0.0
  0
ENDBLK
  5
5B9
  8
0
  0
BLOCK
  8
0
  2
BLOCK27
 70
     0
 10
0.0
 20
0.0
 30
0.0
  3
BLOCK27
  1

  0
TEXT
  5
5BB
  8
0
 62
     7
 10
-53.962378999999999
 20
-12.000061000000001
 30
0.0
 40
3.0
  1
2
 50
270.0
 41
1.2020694180030751
 72
     5
 11
-53.962378999999999
 21
-14.200060999999989
 31
0.0
  0
ENDBLK
  5
5BC
  8
0
  0
BLOCK
  8
0
  2
BLOCK28
 70
     0
 10
0.0
 20
0.0
 30
0.0
  3
BLOCK28
  1

  0
TEXT
  5
5BE
  8
0
 62
     7
 10
-53.962387
 20
87.999938999999998
 30
0.0
 40
3.0
  1
156,5
 50
270.00001736241131
 41
1.5485159649676581
 72
     5
 11
-53.962383000000003
 21
74.799980000000005
 31
0.0
  0
ENDBLK
  5
5BF
  8
0
  0
BLOCK
  8
0
  2
BLOCK29
 70
     0
 10
0.0
 20
0.0
 30
0.0
  3
BLOCK29
  1

  0
LINE
  5
5C1
  8
0
 62
     2
 10
184.4806209999999
 20
-4.168404999999999
 30
0.0
 11
186.31227100000001
 21
-6.000051
 31
0.0
  0
LINE
  5
5C2
  8
0
 62
     2
 10
186.433594
 20
-4.000051
 30
0.0
 11
188.43359399999991
 21
-6.000051
 31
0.0
  0
LINE
  5
5C3
  8
0
 62
     2
 10
188.554901
 20
-4.000051
 30
0.0
 11
190.554901
 21
-6.000051
 31
0.0
  0
LINE
  5
5C4
  8
0
 62
     2
 10
190.67622399999991
 20
-4.000051
 30
0.0
 11
192.67622399999999
 21
-6.000051
 31
0.0
  0
LINE
  5
5C5
  8
0
 62
     2
 10
192.7975459999999
 20
-4.000051
 30
0.0
 11
194.7975459999999
 21
-6.000051
 31
0.0
  0
LINE
  5
5C6
  8
0
 62
     2
 10
194.91886899999989
 20
-4.000051
 30
0.0
 11
196.918869
 21
-6.000051
 31
0.0
  0
LINE
  5
5C7
  8
0
 62
     2
 10
197.04019199999999
 20
-4.000051
 30
0.0
 11
199.04019199999999
 21
-6.000051
 31
0.0
  0
LINE
  5
5C8
  8
0
 62
     2
 10
199.16151400000001
 20
-4.000051
 30
0.0
 11
201.1615139999999
 21
-6.000051
 31
0.0
  0
LINE
  5
5C9
  8
0
 62
     2
 10
201.282837
 20
-4.000051
 30
0.0
 11
203.28283699999989
 21
-6.000051
 31
0.0
  0
LINE
  5
5CA
  8
0
 62
     2
 10
203.404144
 20
-4.000051
 30
0.0
 11
205.404144
 21
-6.000051
 31
0.0
  0
LINE
  5
5CB
  8
0
 62
     2
 10
205.52546699999999
 20
-4.000051
 30
0.0
 11
207.52546699999999
 21
-6.000051
 31
0.0
  0
LINE
  5
5CC
  8
0
 62
     2
 10
207.6467899999999
 20
-4.000051
 30
0.0
 11
209.6467899999999
 21
-6.000051
 31
0.0
  0
LINE
  5
5CD
  8
0
 62
     2
 10
209.76811199999989
 20
-4.000051
 30
0.0
 11
211.76811199999989
 21
-6.000051
 31
0.0
  0
LINE
  5
5CE
  8
0
 62
     2
 10
211.88943499999999
 20
-4.000051
 30
0.0
 11
213.88943499999999
 21
-6.000051
 31
0.0
  0
LINE
  5
5CF
  8
0
 62
     2
 10
214.01075700000001
 20
-4.000051
 30
0.0
 11
216.01075700000001
 21
-6.000051
 31
0.0
  0
LINE
  5
5D0
  8
0
 62
     2
 10
216.1320649999999
 20
-4.000051
 30
0.0
 11
218.1320649999999
 21
-6.000051
 31
0.0
  0
LINE
  5
5D1
  8
0
 62
     2
 10
218.25338699999989
 20
-4.000051
 30
0.0
 11
220.25338699999989
 21
-6.000051
 31
0.0
  0
LINE
  5
5D2
  8
0
 62
     2
 10
220.37470999999999
 20
-4.000051
 30
0.0
 11
222.37470999999999
 21
-6.000051
 31
0.0
  0
LINE
  5
5D3
  8
0
 62
     2
 10
222.49603300000001
 20
-4.000051
 30
0.0
 11
224.49603300000001
 21
-6.000051
 31
0.0
  0
LINE
  5
5D4
  8
0
 62
     2
 10
224.61735499999989
 20
-4.000051
 30
0.0
 11
226.61735499999989
 21
-6.000051
 31
0.0
  0
LINE
  5
5D5
  8
0
 62
     2
 10
226.73867799999991
 20
-4.000051
 30
0.0
 11
228.73867799999991
 21
-6.000051
 31
0.0
  0
LINE
  5
5D6
  8
0
 62
     2
 10
228.85998499999999
 20
-4.000051
 30
0.0
 11
229.86621099999991
 21
-5.0062680000000004
 31
0.0
  0
ENDBLK
  5
5D7
  8
0
  0
BLOCK
  8
0
  2
BLOCK30
 70
     0
 10
0.0
 20
0.0
 30
0.0
  3
BLOCK30
  1

  0
LINE
  5
5D9
  8
0
 62
     2
 10
165.9806209999999
 20
-4.760286999999999
 30
0.0
 11
167.22038299999991
 21
-6.000051
 31
0.0
  0
LINE
  5
5DA
  8
0
 62
     2
 10
167.34170499999999
 20
-4.000051
 30
0.0
 11
169.34170499999999
 21
-6.000051
 31
0.0
  0
LINE
  5
5DB
  8
0
 62
     2
 10
169.46302800000001
 20
-4.000051
 30
0.0
 11
171.46302800000001
 21
-6.000051
 31
0.0
  0
LINE
  5
5DC
  8
0
 62
     2
 10
171.584351
 20
-4.000051
 30
0.0
 11
173.584351
 21
-6.000051
 31
0.0
  0
LINE
  5
5DD
  8
0
 62
     2
 10
173.7056729999999
 20
-4.000051
 30
0.0
 11
175.7056729999999
 21
-6.000051
 31
0.0
  0
LINE
  5
5DE
  8
0
 62
     2
 10
175.82698099999999
 20
-4.000051
 30
0.0
 11
177.4806209999999
 21
-5.6536860000000004
 31
0.0
  0
ENDBLK
  5
5DF
  8
0
  0
BLOCK
  8
0
  2
BLOCK31
 70
     0
 10
0.0
 20
0.0
 30
0.0
  3
BLOCK31
  1

  0
LINE
  5
5E1
  8
0
 62
     2
 10
42.480625000000003
 20
-4.2968619999999991
 30
0.0
 11
44.183815000000003
 21
-6.000051
 31
0.0
  0
LINE
  5
5E2
  8
0
 62
     2
 10
44.305134000000002
 20
-4.000051
 30
0.0
 11
46.305134000000002
 21
-6.000051
 31
0.0
  0
LINE
  5
5E3
  8
0
 62
     2
 10
46.426456000000002
 20
-4.000051
 30
0.0
 11
48.426456000000002
 21
-6.000051
 31
0.0
  0
LINE
  5
5E4
  8
0
 62
     2
 10
48.547775000000001
 20
-4.000051
 30
0.0
 11
50.547775000000001
 21
-6.000051
 31
0.0
  0
LINE
  5
5E5
  8
0
 62
     2
 10
50.669094000000001
 20
-4.000051
 30
0.0
 11
52.669093999999987
 21
-6.000051
 31
0.0
  0
LINE
  5
5E6
  8
0
 62
     2
 10
52.790416999999998
 20
-4.000051
 30
0.0
 11
53.980625000000003
 21
-5.1902609999999996
 31
0.0
  0
ENDBLK
  5
5E7
  8
0
  0
BLOCK
  8
0
  2
BLOCK32
 70
     0
 10
0.0
 20
0.0
 30
0.0
  3
BLOCK32
  1

  0
LINE
  5
5E9
  8
0
 62
     2
 10
-0.401725
 20
-5.962235999999999
 30
0.0
 11
-0.36391
 21
-6.000051
 31
0.0
  0
LINE
  5
5EA
  8
0
 62
     2
 10
0.16282
 20
-4.405460999999999
 30
0.0
 11
1.757409999999999
 21
-6.000051
 31
0.0
  0
LINE
  5
5EB
  8
0
 62
     2
 10
1.8787309999999999
 20
-4.000051
 30
0.0
 11
3.8787309999999988
 21
-6.000051
 31
0.0
  0
LINE
  5
5EC
  8
0
 62
     2
 10
4.000051
 20
-4.000051
 30
0.0
 11
6.000051
 21
-6.000051
 31
0.0
  0
LINE
  5
5ED
  8
0
 62
     2
 10
6.121370999999999
 20
-4.000051
 30
0.0
 11
8.1213709999999981
 21
-6.000051
 31
0.0
  0
LINE
  5
5EE
  8
0
 62
     2
 10
8.2426910000000007
 20
-4.000051
 30
0.0
 11
10.242691000000001
 21
-6.000051
 31
0.0
  0
LINE
  5
5EF
  8
0
 62
     2
 10
10.364012000000001
 20
-4.000051
 30
0.0
 11
12.36401199999999
 21
-6.000051
 31
0.0
  0
LINE
  5
5F0
  8
0
 62
     2
 10
12.485332
 20
-4.000051
 30
0.0
 11
14.485332
 21
-6.000051
 31
0.0
  0
LINE
  5
5F1
  8
0
 62
     2
 10
14.606652
 20
-4.000051
 30
0.0
 11
16.606650999999999
 21
-6.000051
 31
0.0
  0
LINE
  5
5F2
  8
0
 62
     2
 10
16.727972000000001
 20
-4.000051
 30
0.0
 11
18.727972000000001
 21
-6.000051
 31
0.0
  0
LINE
  5
5F3
  8
0
 62
     2
 10
18.849292999999989
 20
-4.000051
 30
0.0
 11
20.849292999999999
 21
-6.000051
 31
0.0
  0
LINE
  5
5F4
  8
0
 62
     2
 10
20.970613
 20
-4.000051
 30
0.0
 11
22.970611999999988
 21
-6.000051
 31
0.0
  0
LINE
  5
5F5
  8
0
 62
     2
 10
23.091932
 20
-4.000051
 30
0.0
 11
25.091932
 21
-6.000051
 31
0.0
  0
LINE
  5
5F6
  8
0
 62
     2
 10
25.213252999999991
 20
-4.000051
 30
0.0
 11
27.213253000000002
 21
-6.000051
 31
0.0
  0
LINE
  5
5F7
  8
0
 62
     2
 10
27.334574
 20
-4.000051
 30
0.0
 11
29.334573999999989
 21
-6.000051
 31
0.0
  0
LINE
  5
5F8
  8
0
 62
     2
 10
29.455892999999989
 20
-4.000051
 30
0.0
 11
31.455893
 21
-6.000051
 31
0.0
  0
LINE
  5
5F9
  8
0
 62
     2
 10
31.577213
 20
-4.000051
 30
0.0
 11
33.577213
 21
-6.000051
 31
0.0
  0
LINE
  5
5FA
  8
0
 62
     2
 10
33.698532
 20
-4.000051
 30
0.0
 11
35.480625000000003
 21
-5.7821429999999987
 31
0.0
  0
ENDBLK
  5
5FB
  8
0
  0
BLOCK
  8
0
  2
BLOCK33
 70
     0
 10
0.0
 20
0.0
 30
0.0
  3
BLOCK33
  1

  0
LINE
  5
5FD
  8
0
 62
     3
 10
30.737057
 20
-173.338257
 30
0.0
 11
189.23706100000001
 21
-173.338257
 31
0.0
  0
LINE
  5
5FE
  8
0
 62
     3
 10
29.487057
 20
-57.588248999999998
 30
0.0
 11
29.487057
 21
-172.088257
 31
0.0
  0
LINE
  5
5FF
  8
0
 62
     3
 10
30.737057
 20
-56.338248999999998
 30
0.0
 11
189.23706100000001
 21
-56.338248999999998
 31
0.0
  0
LINE
  5
600
  8
0
 62
     3
 10
190.48706100000001
 20
-57.588248999999998
 30
0.0
 11
190.48706100000001
 21
-172.088257
 31
0.0
  0
LINE
  5
601
  8
0
 62
     3
 10
56.987056999999993
 20
-167.838257
 30
0.0
 11
162.98706100000001
 21
-167.838257
 31
0.0
  0
LINE
  5
602
  8
0
 62
     3
 10
56.987056999999993
 20
-61.838248999999998
 30
0.0
 11
56.987056999999993
 21
-167.838257
 31
0.0
  0
LINE
  5
603
  8
0
 62
     3
 10
56.987056999999993
 20
-61.838248999999998
 30
0.0
 11
162.98706100000001
 21
-61.838248999999998
 31
0.0
  0
LINE
  5
604
  8
0
 62
     3
 10
162.98706100000001
 20
-61.838248999999998
 30
0.0
 11
162.98706100000001
 21
-167.838257
 31
0.0
  0
LINE
  5
605
  8
0
 62
     3
 10
48.487057
 20
-168.83825699999991
 30
0.0
 11
49.487057
 21
-168.83825699999991
 31
0.0
  0
LINE
  5
606
  8
0
 62
     3
 10
50.487057
 20
-61.838248999999998
 30
0.0
 11
50.487057
 21
-167.838257
 31
0.0
  0
LINE
  5
607
  8
0
 62
     3
 10
48.487057
 20
-60.83824899999999
 30
0.0
 11
49.487057
 21
-60.83824899999999
 31
0.0
  0
LINE
  5
608
  8
0
 62
     3
 10
49.487057
 20
-61.838248999999998
 30
0.0
 11
49.487057
 21
-167.838257
 31
0.0
  0
LINE
  5
609
  8
0
 62
     3
 10
29.487057
 20
-60.83824899999999
 30
0.0
 11
48.487057
 21
-60.83824899999999
 31
0.0
  0
LINE
  5
60A
  8
0
 62
     3
 10
49.487053000000003
 20
-60.83824899999999
 30
0.0
 11
190.48706100000001
 21
-60.83824899999999
 31
0.0
  0
LINE
  5
60B
  8
0
 62
     3
 10
29.487057
 20
-61.838248999999998
 30
0.0
 11
49.487057
 21
-61.838248999999998
 31
0.0
  0
LINE
  5
60C
  8
0
 62
     3
 10
162.98706100000001
 20
-61.838248999999998
 30
0.0
 11
169.48706100000001
 21
-61.838248999999998
 31
0.0
  0
LINE
  5
60D
  8
0
 62
     3
 10
50.487057
 20
-61.838248999999998
 30
0.0
 11
56.987056999999993
 21
-61.838248999999998
 31
0.0
  0
LINE
  5
60E
  8
0
 62
     3
 10
29.487057
 20
-168.83825699999991
 30
0.0
 11
48.487057
 21
-168.83825699999991
 31
0.0
  0
LINE
  5
60F
  8
0
 62
     3
 10
49.487057
 20
-168.83825699999991
 30
0.0
 11
190.48706100000001
 21
-168.83825699999991
 31
0.0
  0
LINE
  5
610
  8
0
 62
     3
 10
50.487057
 20
-167.838257
 30
0.0
 11
56.987056999999993
 21
-167.838257
 31
0.0
  0
LINE
  5
611
  8
0
 62
     3
 10
162.98706100000001
 20
-167.838257
 30
0.0
 11
169.48706100000001
 21
-167.838257
 31
0.0
  0
LINE
  5
612
  8
0
 62
     3
 10
29.487057
 20
-167.838257
 30
0.0
 11
49.487057
 21
-167.838257
 31
0.0
  0
LINE
  5
613
  8
0
 62
     3
 10
170.48706100000001
 20
-60.83824899999999
 30
0.0
 11
170.48706100000001
 21
-168.83825699999991
 31
0.0
  0
LINE
  5
614
  8
0
 62
     3
 10
169.48706100000001
 20
-61.838248999999998
 30
0.0
 11
169.48706100000001
 21
-167.838257
 31
0.0
  0
ARC
  5
615
  8
0
 62
     3
 10
30.737057
 20
-57.588248999999998
 30
0.0
 40
1.25
 50
90.000005000000002
 51
180.00000099999991
  0
ARC
  5
616
  8
0
 62
     3
 10
30.737057
 20
-172.088257
 30
0.0
 40
1.25
 50
180.00000099999991
 51
270.0
  0
ARC
  5
617
  8
0
 62
     3
 10
189.23706100000001
 20
-172.088257
 30
0.0
 40
1.25
 50
270.0
 51
0.000003
  0
ARC
  5
618
  8
0
 62
     3
 10
189.23706100000001
 20
-57.588248999999998
 30
0.0
 40
1.25
 50
0.000003
 51
90.000005000000002
  0
LINE
  5
619
  8
0
  6
DASHSPACE
 62
     3
 10
179.73706100000001
 20
-60.33824899999999
 30
0.0
 11
179.73706100000001
 21
-60.83824899999999
 31
0.0
  0
LINE
  5
61A
  8
0
  6
DASHSPACE
 62
     3
 10
181.23706100000001
 20
-60.33824899999999
 30
0.0
 11
181.23706100000001
 21
-60.83824899999999
 31
0.0
  0
LINE
  5
61B
  8
0
 62
     3
 10
179.73706100000001
 20
-168.338257
 30
0.0
 11
179.73706100000001
 21
-168.83825699999991
 31
0.0
  0
LINE
  5
61C
  8
0
 62
     3
 10
181.23706100000001
 20
-168.338257
 30
0.0
 11
181.23706100000001
 21
-168.83825699999991
 31
0.0
  0
ARC
  5
61D
  8
0
  6
DASHSPACE
 62
     3
 10
180.48706100000001
 20
-60.33824899999999
 30
0.0
 40
0.75
 50
0.000003
 51
180.00000099999991
  0
ARC
  5
61E
  8
0
 62
     3
 10
180.48706100000001
 20
-61.338248999999998
 30
0.0
 40
0.75
 50
180.00000099999991
 51
0.000003
  0
LINE
  5
61F
  8
0
 62
     3
 10
181.23706100000001
 20
-60.83824899999999
 30
0.0
 11
181.23706100000001
 21
-61.338248999999998
 31
0.0
  0
LINE
  5
620
  8
0
 62
     3
 10
179.73706100000001
 20
-60.83824899999999
 30
0.0
 11
179.73706100000001
 21
-61.338248999999998
 31
0.0
  0
ARC
  5
621
  8
0
 62
     3
 10
180.48706100000001
 20
-168.338257
 30
0.0
 40
0.75
 50
0.000003
 51
180.00000099999991
  0
ARC
  5
622
  8
0
  6
DASHSPACE
 62
     3
 10
180.48706100000001
 20
-169.33825699999991
 30
0.0
 40
0.75
 50
180.00000099999991
 51
0.000003
  0
LINE
  5
623
  8
0
  6
DASHSPACE
 62
     3
 10
181.23706100000001
 20
-168.83825699999991
 30
0.0
 11
181.23706100000001
 21
-169.33825699999991
 31
0.0
  0
LINE
  5
624
  8
0
  6
DASHSPACE
 62
     3
 10
179.73706100000001
 20
-168.83825699999991
 30
0.0
 11
179.73706100000001
 21
-169.33825699999991
 31
0.0
  0
POINT
  5
625
  8
0
 62
     3
 10
109.987053
 20
-114.838249
 30
0.0
  0
ENDBLK
  5
626
  8
0
  0
BLOCK
  8
0
  2
BLOCK34
 70
     0
 10
0.0
 20
0.0
 30
0.0
  3
BLOCK34
  1

  0
TEXT
  5
628
  8
0
 62
     7
 10
108.783615
 20
55.682251000000001
 30
0.0
 40
3.0
  1
X
 50
270.0
 41
0.9777782222222221
 72
     5
 11
108.783615
 21
53.482250000000001
 31
0.0
  0
ENDBLK
  5
629
  8
0
  0
BLOCK
  8
0
  2
BLOCK35
 70
     0
 10
0.0
 20
0.0
 30
0.0
  3
BLOCK35
  1

  0
TEXT
  5
62B
  8
0
 62
     7
 10
293.0
 20
-114.0
 30
0.0
 40
3.0
  1
Y
 50
270.0
 41
0.9777764444444427
 72
     5
 11
293.0
 21
-116.1999969999999
 31
0.0
  0
ENDBLK
  5
62C
  8
0
  0
BLOCK
  8
0
  2
BLOCK36
 70
     0
 10
0.0
 20
0.0
 30
0.0
  3
BLOCK36
  1

  0
TEXT
  5
62E
  8
0
 62
     7
 10
103.98704499999999
 20
5.7484129999999993
 30
0.0
 40
3.0
  1
175
 50
359.99997767691679
 41
1.432750959304103
 72
     5
 11
111.6870269999999
 21
5.7484099999999989
 31
0.0
  0
ENDBLK
  5
62F
  8
0
  0
BLOCK
  8
0
  2
BLOCK37
 70
     0
 10
0.0
 20
0.0
 30
0.0
  3
BLOCK37
  1

  0
TEXT
  5
631
  8
0
 62
     7
 10
-3.9215390000000001
 20
33.980468999999999
 30
0.0
 40
3.0
  1
10
 41
1.570247858124141
 72
     5
 11
1.028451
 21
33.980468999999999
 31
0.0
  0
ENDBLK
  5
632
  8
0
  0
BLOCK
  8
0
  2
BLOCK38
 70
     0
 10
0.0
 20
0.0
 30
0.0
  3
BLOCK38
  1

  0
TEXT
  5
634
  8
0
 62
     7
 10
103.9870379999999
 20
33.980468999999999
 30
0.0
 40
3.0
  1
210
 50
359.9999702358852
 41
1.466003428528792
 72
     5
 11
111.68701899999991
 21
33.980465000000002
 31
0.0
  0
ENDBLK
  5
635
  8
0
  0
BLOCK
  8
0
  2
BLOCK39
 70
     0
 10
0.0
 20
0.0
 30
0.0
  3
BLOCK39
  1

  0
TEXT
  5
637
  8
0
 62
     7
 10
216.48550399999991
 20
33.980468999999999
 30
0.0
 40
3.0
  1
10
 41
1.5702500786811531
 72
     5
 11
221.4355009999999
 21
33.980468999999999
 31
0.0
  0
ENDBLK
  5
638
  8
0
  0
BLOCK
  8
0
  2
BLOCK40
 70
     0
 10
0.0
 20
0.0
 30
0.0
  3
BLOCK40
  1

  0
TEXT
  5
63A
  8
0
 62
     7
 10
-34.893813999999999
 20
-126.838257
 30
0.0
 40
3.0
  1
35
 50
269.99995370035219
 41
1.2776612311941129
 72
     5
 11
-34.893817999999989
 21
-131.78825399999999
 31
0.0
  0
ENDBLK
  5
63B
  8
0
  0
BLOCK
  8
0
  2
BLOCK41
 70
     0
 10
0.0
 20
0.0
 30
0.0
  3
BLOCK41
  1

  0
TEXT
  5
63D
  8
0
 62
     7
 10
-34.893805999999998
 20
-91.838256999999984
 30
0.0
 40
3.0
  1
35
 50
269.99995370027727
 41
1.2776591662858261
 72
     5
 11
-34.893809999999988
 21
-96.788246000000001
 31
0.0
  0
ENDBLK
  5
63E
  8
0
  0
BLOCK
  8
0
  2
BLOCK42
 70
     0
 10
0.0
 20
0.0
 30
0.0
  3
BLOCK42
  1

  0
TEXT
  5
640
  8
0
 62
     7
 10
-34.893791
 20
-56.838256999999992
 30
0.0
 40
3.0
  1
35
 50
269.99995370027722
 41
1.2776591662858261
 72
     5
 11
-34.893794999999997
 21
-61.788245999999987
 31
0.0
  0
ENDBLK
  5
641
  8
0
  0
BLOCK
  8
0
  2
BLOCK43
 70
     0
 10
0.0
 20
0.0
 30
0.0
  3
BLOCK43
  1

  0
TEXT
  5
643
  8
0
 62
     7
 10
267.46487400000001
 20
-89.088256999999984
 30
0.0
 40
3.0
  1
140
 50
270.0
 41
1.3867938934978381
 72
     5
 11
267.46487400000001
 21
-96.788239000000004
 31
0.0
  0
ENDBLK
  5
644
  8
0
  0
BLOCK
  8
0
  2
BLOCK44
 70
     0
 10
0.0
 20
0.0
 30
0.0
  3
BLOCK44
  1

  0
TEXT
  5
646
  8
0
 62
     7
 10
-50.06008099999999
 20
-130.08825699999991
 30
0.0
 40
3.0
  1
52,5
 50
269.9999780685298
 41
1.48769549347495
 72
     5
 11
-50.060085000000001
 21
-140.5382229999999
 31
0.0
  0
ENDBLK
  5
647
  8
0
  0
BLOCK
  8
0
  2
BLOCK45
 70
     0
 10
0.0
 20
0.0
 30
0.0
  3
BLOCK45
  1

  0
TEXT
  5
649
  8
0
 62
     7
 10
-19.727547000000001
 20
-95.838256999999999
 30
0.0
 40
3.0
  1
20
 50
269.99997685013858
 41
1.3191660958977049
 72
     5
 11
-19.727548999999989
 21
-100.788246
 31
0.0
  0
ENDBLK
  5
64A
  8
0
  0
BLOCK
  8
0
  2
BLOCK46
 70
     0
 10
0.0
 20
0.0
 30
0.0
  3
BLOCK46
  1

  0
TEXT
  5
64C
  8
0
 62
     7
 10
-13.684694
 20
-181.421448
 30
0.0
 40
3.0
  1
 8,2
 50
233.45199116035749
 41
1.6908844247698871
 72
     5
 11
-19.907608
 21
-189.8165129999999
 31
0.0
  0
ENDBLK
  5
64D
  8
0
  0
BLOCK
  8
0
  2
BLOCK47
 70
     0
 10
0.0
 20
0.0
 30
0.0
  3
BLOCK47
  1

  0
TEXT
  5
64F
  8
0
 62
     7
 10
-13.208292999999991
 20
-180.77874800000001
 30
0.0
 40
3.0
  1
%%c
 50
233.452110756656
 41
0.9777801529573146
 72
     5
 11
-14.51838399999999
 21
-182.546143
 31
0.0
  0
ENDBLK
  5
650
  8
0
  0
BLOCK
  8
0
  2
BLOCK48
 70
     0
 10
0.0
 20
0.0
 30
0.0
  3
BLOCK48
  1

  0
TEXT
  5
652
  8
0
 62
     7
 10
250.50775100000001
 20
-106.588257
 30
0.0
 40
3.0
  1
105
 50
270.0
 41
1.4327509593039891
 72
     5
 11
250.50775100000001
 21
-114.288239
 31
0.0
  0
ENDBLK
  5
653
  8
0
  0
BLOCK
  8
0
  2
BLOCK49
 70
     0
 10
0.0
 20
0.0
 30
0.0
  3
BLOCK49
  1

  0
TEXT
  5
655
  8
0
 62
     7
 10
141.11204499999999
 20
-8.8148189999999982
 30
0.0
 40
3.0
  1
89,75
 50
359.9999782969989
 41
1.4450281888505341
 72
     5
 11
154.31201200000001
 21
-8.8148239999999998
 31
0.0
  0
ENDBLK
  5
656
  8
0
  0
BLOCK
  8
0
  2
BLOCK50
 70
     0
 10
0.0
 20
0.0
 30
0.0
  3
BLOCK50
  1

  0
TEXT
  5
658
  8
0
 62
     7
 10
147.11204499999991
 20
21.377929999999989
 30
0.0
 40
3.0
  1
107,25
 50
359.99997844666251
 41
1.5012758433756499
 72
     5
 11
163.06199599999991
 21
21.377923999999989
 31
0.0
  0
ENDBLK
  5
659
  8
0
  0
BLOCK
  8
0
  2
BLOCK51
 70
     0
 10
0.0
 20
0.0
 30
0.0
  3
BLOCK51
  1

  0
TEXT
  5
65B
  8
0
 62
     7
 10
282.468414
 20
-106.588257
 30
0.0
 40
3.0
  1
117
 50
270.0
 41
1.6559101075268761
 72
     5
 11
282.468414
 21
-114.288239
 31
0.0
  0
ENDBLK
  5
65C
  8
0
  0
BLOCK
  8
0
  2
BLOCK52
 70
     0
 10
0.0
 20
0.0
 30
0.0
  3
BLOCK52
  1

  0
TEXT
  5
65E
  8
0
 62
     7
 10
101.7370609999999
 20
-191.98644999999991
 30
0.0
 40
3.0
  1
161
 41
1.655909892473117
 72
     5
 11
109.43704199999991
 21
-191.98644999999991
 31
0.0
  0
ENDBLK
  5
65F
  8
0
  0
BLOCK
  8
0
  2
BLOCK53
 70
     0
 10
0.0
 20
0.0
 30
0.0
  3
BLOCK53
  1

  0
TEXT
  5
661
  8
0
 62
     7
 10
9.0313110000000005
 20
102.265991
 30
0.0
 40
3.0
  1
X
 50
90.0
 41
0.9777764444444425
 72
     5
 11
9.0313110000000005
 21
104.4659879999999
 31
0.0
  0
ENDBLK
  5
662
  8
0
  0
BLOCK
  8
0
  2
BLOCK54
 70
     0
 10
0.0
 20
0.0
 30
0.0
  3
BLOCK54
  1

  0
TEXT
  5
664
  8
0
 62
     7
 10
-141.0
 20
-1.0
 30
0.0
 40
3.0
  1
Y
 50
90.0
 41
0.9777777777777778
 72
     5
 11
-141.0
 21
1.1999999999999991
 31
0.0
  0
ENDBLK
  5
665
  8
0
  0
BLOCK
  8
0
  2
BLOCK55
 70
     0
 10
0.0
 20
0.0
 30
0.0
  3
BLOCK55
  1

  0
TEXT
  5
667
  8
0
 62
     7
 10
18.75
 20
-114.04821800000001
 30
0.0
 40
3.0
  1
112
 50
179.9999404717629
 41
1.5941402843842269
 72
     5
 11
11.05002
 21
-114.04821
 31
0.0
  0
ENDBLK
  5
668
  8
0
  0
BLOCK
  8
0
  2
BLOCK56
 70
     0
 10
0.0
 20
0.0
 30
0.0
  3
BLOCK56
  1

  0
TEXT
  5
66A
  8
0
 62
     7
 10
-107.01321399999991
 20
-11.0
 30
0.0
 40
3.0
  1
80
 50
90.0
 41
1.3191663623963901
 72
     5
 11
-107.01321399999991
 21
-6.0500099999999994
 31
0.0
  0
ENDBLK
  5
66B
  8
0
  0
BLOCK
  8
0
  2
BLOCK57
 70
     0
 10
0.0
 20
0.0
 30
0.0
  3
BLOCK57
  1

  0
TEXT
  5
66D
  8
0
 62
     7
 10
-133.64590499999991
 20
-16.5
 30
0.0
 40
3.0
  1
112
 50
90.0
 41
1.594140284383367
 72
     5
 11
-133.64590499999991
 21
-8.8000199999999982
 31
0.0
  0
ENDBLK
  5
66E
  8
0
  0
BLOCK
  8
0
  2
BLOCK58
 70
     0
 10
0.0
 20
0.0
 30
0.0
  3
BLOCK58
  1

  0
TEXT
  5
670
  8
0
 62
     7
 10
122.342232
 20
-111.2702639999999
 30
0.0
 40
3.0
  1
 7
 50
127.2089918158961
 41
1.736838417501275
 72
     5
 11
119.348854
 21
-107.32791899999999
 31
0.0
  0
ENDBLK
  5
671
  8
0
  0
BLOCK
  8
0
  2
BLOCK59
 70
     0
 10
0.0
 20
0.0
 30
0.0
  3
BLOCK59
  1

  0
TEXT
  5
673
  8
0
 62
     7
 10
123.309799
 20
-112.5445629999999
 30
0.0
 40
3.0
  1
%%c
 50
127.2089187033535
 41
0.9777779165819998
 72
     5
 11
121.97940800000001
 21
-110.792404
 31
0.0
  0
ENDBLK
  5
674
  8
0
  0
BLOCK
  8
0
  2
BLOCK60
 70
     0
 10
0.0
 20
0.0
 30
0.0
  3
BLOCK60
  1

  0
TEXT
  5
676
  8
0
 62
     7
 10
3.0
 20
-105.0
 30
0.0
 40
3.0
  1
X
 50
90.0
 41
0.9777764444444425
 72
     5
 11
3.0
 21
-102.800003
 31
0.0
  0
ENDBLK
  5
677
  8
0
  0
BLOCK
  8
0
  2
BLOCK61
 70
     0
 10
0.0
 20
0.0
 30
0.0
  3
BLOCK61
  1

  0
TEXT
  5
679
  8
0
 62
     7
 10
111.0
 20
0.0
 30
0.0
 40
3.0
  1
Y
 50
90.0
 41
0.9777777777777778
 72
     5
 11
111.0
 21
2.2000000000000002
 31
0.0
  0
ENDBLK
  5
67A
  8
0
  0
BLOCK
  8
0
  2
BLOCK62
 70
     0
 10
0.0
 20
0.0
 30
0.0
  3
BLOCK62
  1

  0
TEXT
  5
67C
  8
0
 62
     7
 10
18.75
 20
-114.04821800000001
 30
0.0
 40
3.0
  1
112
 50
179.9999404717629
 41
1.5941402843842269
 72
     5
 11
11.05002
 21
-114.04821
 31
0.0
  0
ENDBLK
  5
67D
  8
0
  0
BLOCK
  8
0
  2
BLOCK63
 70
     0
 10
0.0
 20
0.0
 30
0.0
  3
BLOCK63
  1

  0
TEXT
  5
67F
  8
0
 62
     7
 10
18.75
 20
-148.4989009999999
 30
0.0
 40
3.0
  1
142
 50
180.0
 41
1.3437594995413831
 72
     5
 11
11.05002
 21
-148.4989009999999
 31
0.0
  0
ENDBLK
  5
680
  8
0
  0
BLOCK
  8
0
  2
BLOCK64
 70
     0
 10
0.0
 20
0.0
 30
0.0
  3
BLOCK64
  1

  0
TEXT
  5
682
  8
0
 62
     7
 10
-107.01321399999991
 20
-11.0
 30
0.0
 40
3.0
  1
80
 50
90.0
 41
1.3191663623963901
 72
     5
 11
-107.01321399999991
 21
-6.0500099999999994
 31
0.0
  0
ENDBLK
  5
683
  8
0
  0
BLOCK
  8
0
  2
BLOCK65
 70
     0
 10
0.0
 20
0.0
 30
0.0
  3
BLOCK65
  1

  0
TEXT
  5
685
  8
0
 62
     7
 10
-133.64590499999991
 20
-16.5
 30
0.0
 40
3.0
  1
112
 50
90.0
 41
1.594140284383367
 72
     5
 11
-133.64590499999991
 21
-8.8000199999999982
 31
0.0
  0
ENDBLK
  5
686
  8
0
  0
BLOCK
  8
0
  2
BLOCK66
 70
     0
 10
0.0
 20
0.0
 30
0.0
  3
BLOCK66
  1

  0
TEXT
  5
688
  8
0
 62
     7
 10
122.342232
 20
-111.2702639999999
 30
0.0
 40
3.0
  1
 7
 50
127.2089918158961
 41
1.736838417501275
 72
     5
 11
119.348854
 21
-107.32791899999999
 31
0.0
  0
ENDBLK
  5
689
  8
0
  0
BLOCK
  8
0
  2
BLOCK67
 70
     0
 10
0.0
 20
0.0
 30
0.0
  3
BLOCK67
  1

  0
TEXT
  5
68B
  8
0
 62
     7
 10
123.309799
 20
-112.5445629999999
 30
0.0
 40
3.0
  1
%%c
 50
127.2089187033535
 41
0.9777779165819998
 72
     5
 11
121.97940800000001
 21
-110.792404
 31
0.0
  0
ENDBLK
  5
68C
  8
0
  0
ENDSEC
  0
SECTION
  2
ENTITIES
  0
LINE
  5
25
  8
0
  6
DASHDOT
 62
     7
 10
678.69135999999992
 20
654.85865799999999
 30
0.0
 11
678.69135999999992
 21
411.97602799999993
 31
0.0
  0
POLYLINE
  5
26
  8
0
 62
     3
 66
     1
 10
0.0
 20
0.0
 30
0.0
  0
VERTEX
  5
6E4
  8
0
 62
     3
 10
746.19135999999992
 20
643.85833699999989
 30
0.0
  0
VERTEX
  5
6E5
  8
0
 62
     3
 10
746.19135999999992
 20
627.85833699999989
 30
0.0
  0
VERTEX
  5
6E6
  8
0
 62
     3
 10
748.19135999999992
 20
626.85833699999989
 30
0.0
  0
VERTEX
  5
6E7
  8
0
 62
     3
 10
744.19135999999992
 20
625.85833700000001
 30
0.0
  0
VERTEX
  5
6E8
  8
0
 62
     3
 10
746.19135999999992
 20
624.85833700000001
 30
0.0
  0
VERTEX
  5
6E9
  8
0
 62
     3
 10
746.19135999999992
 20
608.85833700000001
 30
0.0
  0
VERTEX
  5
6EA
  8
0
 62
     3
 10
748.19135999999992
 20
607.85833700000001
 30
0.0
  0
VERTEX
  5
6EB
  8
0
 62
     3
 10
744.19135999999992
 20
606.85833699999989
 30
0.0
  0
VERTEX
  5
6EC
  8
0
 62
     3
 10
746.19135999999992
 20
605.85833700000001
 30
0.0
  0
VERTEX
  5
6ED
  8
0
 62
     3
 10
746.19135999999992
 20
589.85833699999989
 30
0.0
  0
VERTEX
  5
6EE
  8
0
 62
     3
 10
748.19135999999992
 20
588.85833700000001
 30
0.0
  0
VERTEX
  5
6EF
  8
0
 62
     3
 10
744.19135999999992
 20
587.85833700000001
 30
0.0
  0
VERTEX
  5
6F0
  8
0
 62
     3
 10
746.19135999999992
 20
586.85833700000001
 30
0.0
  0
VERTEX
  5
6F1
  8
0
 62
     3
 10
746.19135999999992
 20
570.85833700000001
 30
0.0
  0
VERTEX
  5
6F2
  8
0
 62
     3
 10
748.19135999999992
 20
569.85833700000001
 30
0.0
  0
VERTEX
  5
6F3
  8
0
 62
     3
 10
744.19135999999992
 20
568.85833699999989
 30
0.0
  0
VERTEX
  5
6F4
  8
0
 62
     3
 10
746.19135999999992
 20
567.85833700000001
 30
0.0
  0
VERTEX
  5
6F5
  8
0
 62
     3
 10
746.19135999999992
 20
551.85833699999989
 30
0.0
  0
VERTEX
  5
6F6
  8
0
 62
     3
 10
748.19135999999992
 20
550.85833700000001
 30
0.0
  0
VERTEX
  5
6F7
  8
0
 62
     3
 10
744.19135999999992
 20
549.85833700000001
 30
0.0
  0
VERTEX
  5
6F8
  8
0
 62
     3
 10
746.19135999999992
 20
548.85833699999989
 30
0.0
  0
VERTEX
  5
6F9
  8
0
 62
     3
 10
746.19135999999992
 20
532.85833700000001
 30
0.0
  0
VERTEX
  5
6FA
  8
0
 62
     3
 10
748.19135999999992
 20
531.85833699999989
 30
0.0
  0
VERTEX
  5
6FB
  8
0
 62
     3
 10
744.19135999999992
 20
530.85833700000001
 30
0.0
  0
VERTEX
  5
6FC
  8
0
 62
     3
 10
746.19135999999992
 20
529.85833700000001
 30
0.0
  0
VERTEX
  5
6FD
  8
0
 62
     3
 10
746.19135999999992
 20
513.85833700000001
 30
0.0
  0
VERTEX
  5
6FE
  8
0
 62
     3
 10
748.19135999999992
 20
512.85833700000001
 30
0.0
  0
VERTEX
  5
6FF
  8
0
 62
     3
 10
744.19135999999992
 20
511.85833700000001
 30
0.0
  0
VERTEX
  5
700
  8
0
 62
     3
 10
746.19135999999992
 20
510.85833699999989
 30
0.0
  0
VERTEX
  5
701
  8
0
 62
     3
 10
746.19135999999992
 20
494.85833700000001
 30
0.0
  0
VERTEX
  5
702
  8
0
 62
     3
 10
748.19135999999992
 20
493.85833699999989
 30
0.0
  0
VERTEX
  5
703
  8
0
 62
     3
 10
744.19135999999992
 20
492.85833700000001
 30
0.0
  0
VERTEX
  5
704
  8
0
 62
     3
 10
746.19135999999992
 20
491.85833700000001
 30
0.0
  0
VERTEX
  5
705
  8
0
 62
     3
 10
746.19135999999992
 20
475.85833700000001
 30
0.0
  0
VERTEX
  5
706
  8
0
 62
     3
 10
748.19135999999992
 20
474.85833700000001
 30
0.0
  0
VERTEX
  5
707
  8
0
 62
     3
 10
744.19135999999992
 20
473.85833699999989
 30
0.0
  0
VERTEX
  5
708
  8
0
 62
     3
 10
746.19135999999992
 20
472.85833699999989
 30
0.0
  0
VERTEX
  5
709
  8
0
 62
     3
 10
746.19135999999992
 20
456.85833699999989
 30
0.0
  0
VERTEX
  5
70A
  8
0
 62
     3
 10
748.19135999999992
 20
455.85833700000001
 30
0.0
  0
VERTEX
  5
70B
  8
0
 62
     3
 10
744.19135999999992
 20
454.85833700000001
 30
0.0
  0
VERTEX
  5
70C
  8
0
 62
     3
 10
746.19135999999992
 20
453.85833700000001
 30
0.0
  0
VERTEX
  5
70D
  8
0
 62
     3
 10
746.19135999999992
 20
438.78768200000002
 30
0.0
  0
SEQEND
  5
70E
  8
0
 62
     3
  0
POLYLINE
  5
52
  8
0
 62
     3
 66
     1
 10
0.0
 20
0.0
 30
0.0
  0
VERTEX
  5
70F
  8
0
 62
     3
 10
746.19135999999992
 20
438.78768200000002
 30
0.0
  0
VERTEX
  5
710
  8
0
 62
     3
 10
730.1913599999998
 20
438.78768200000002
 30
0.0
  0
VERTEX
  5
711
  8
0
 62
     3
 10
729.19135999999992
 20
436.78768200000002
 30
0.0
  0
VERTEX
  5
712
  8
0
 62
     3
 10
728.19135999999992
 20
440.78768200000002
 30
0.0
  0
VERTEX
  5
713
  8
0
 62
     3
 10
727.19135999999992
 20
438.78768200000002
 30
0.0
  0
VERTEX
  5
714
  8
0
 62
     3
 10
711.19135999999992
 20
438.78768200000002
 30
0.0
  0
VERTEX
  5
715
  8
0
 62
     3
 10
710.19135999999992
 20
436.78768200000002
 30
0.0
  0
VERTEX
  5
716
  8
0
 62
     3
 10
709.1913599999998
 20
440.78768200000002
 30
0.0
  0
VERTEX
  5
717
  8
0
 62
     3
 10
708.19135999999992
 20
438.78768200000002
 30
0.0
  0
VERTEX
  5
718
  8
0
 62
     3
 10
692.19135999999992
 20
438.78768200000002
 30
0.0
  0
VERTEX
  5
719
  8
0
 62
     3
 10
691.19135999999992
 20
436.78768200000002
 30
0.0
  0
VERTEX
  5
71A
  8
0
 62
     3
 10
690.19135999999992
 20
440.78768200000002
 30
0.0
  0
VERTEX
  5
71B
  8
0
 62
     3
 10
689.19135999999992
 20
438.78768200000002
 30
0.0
  0
VERTEX
  5
71C
  8
0
 62
     3
 10
673.19135999999992
 20
438.78768200000002
 30
0.0
  0
VERTEX
  5
71D
  8
0
 62
     3
 10
672.19135999999992
 20
436.78768200000002
 30
0.0
  0
VERTEX
  5
71E
  8
0
 62
     3
 10
671.19135999999992
 20
440.78768200000002
 30
0.0
  0
VERTEX
  5
71F
  8
0
 62
     3
 10
670.19135999999992
 20
438.78768200000002
 30
0.0
  0
VERTEX
  5
720
  8
0
 62
     3
 10
654.19135999999992
 20
438.78768200000002
 30
0.0
  0
VERTEX
  5
721
  8
0
 62
     3
 10
653.19135999999992
 20
436.78768200000002
 30
0.0
  0
VERTEX
  5
722
  8
0
 62
     3
 10
652.19135999999992
 20
440.78768200000002
 30
0.0
  0
VERTEX
  5
723
  8
0
 62
     3
 10
651.19135999999992
 20
438.78768200000002
 30
0.0
  0
VERTEX
  5
724
  8
0
 62
     3
 10
635.19135999999992
 20
438.78768200000002
 30
0.0
  0
VERTEX
  5
725
  8
0
 62
     3
 10
634.1913599999998
 20
436.78768200000002
 30
0.0
  0
VERTEX
  5
726
  8
0
 62
     3
 10
633.19135999999992
 20
440.78768200000002
 30
0.0
  0
VERTEX
  5
727
  8
0
 62
     3
 10
632.19135999999992
 20
438.78768200000002
 30
0.0
  0
VERTEX
  5
728
  8
0
 62
     3
 10
616.19135999999992
 20
438.78768200000002
 30
0.0
  0
VERTEX
  5
729
  8
0
 62
     3
 10
615.19135999999992
 20
436.78768200000002
 30
0.0
  0
VERTEX
  5
72A
  8
0
 62
     3
 10
614.19135999999992
 20
440.78768200000002
 30
0.0
  0
VERTEX
  5
72B
  8
0
 62
     3
 10
613.1913599999998
 20
438.78768200000002
 30
0.0
  0
VERTEX
  5
72C
  8
0
 62
     3
 10
597.19135999999992
 20
438.78768200000002
 30
0.0
  0
VERTEX
  5
72D
  8
0
 62
     3
 10
596.19135999999992
 20
436.78768200000002
 30
0.0
  0
VERTEX
  5
72E
  8
0
 62
     3
 10
595.19135999999992
 20
440.78768200000002
 30
0.0
  0
VERTEX
  5
72F
  8
0
 62
     3
 10
594.19135999999992
 20
438.78768200000002
 30
0.0
  0
VERTEX
  5
730
  8
0
 62
     3
 10
578.69135999999992
 20
438.78768200000002
 30
0.0
  0
SEQEND
  5
731
  8
0
 62
     3
  0
POLYLINE
  5
76
  8
0
 62
     3
 66
     1
 10
0.0
 20
0.0
 30
0.0
  0
VERTEX
  5
732
  8
0
 62
     3
 10
578.69135999999992
 20
643.85833699999989
 30
0.0
  0
VERTEX
  5
733
  8
0
 62
     3
 10
578.69135999999992
 20
627.85833699999989
 30
0.0
  0
VERTEX
  5
734
  8
0
 62
     3
 10
580.69135999999992
 20
626.85833699999989
 30
0.0
  0
VERTEX
  5
735
  8
0
 62
     3
 10
576.69135999999992
 20
625.85833700000001
 30
0.0
  0
VERTEX
  5
736
  8
0
 62
     3
 10
578.69135999999992
 20
624.85833700000001
 30
0.0
  0
VERTEX
  5
737
  8
0
 62
     3
 10
578.69135999999992
 20
608.85833700000001
 30
0.0
  0
VERTEX
  5
738
  8
0
 62
     3
 10
580.69135999999992
 20
607.85833700000001
 30
0.0
  0
VERTEX
  5
739
  8
0
 62
     3
 10
576.69135999999992
 20
606.85833699999989
 30
0.0
  0
VERTEX
  5
73A
  8
0
 62
     3
 10
578.69135999999992
 20
605.85833700000001
 30
0.0
  0
VERTEX
  5
73B
  8
0
 62
     3
 10
578.69135999999992
 20
589.85833699999989
 30
0.0
  0
VERTEX
  5
73C
  8
0
 62
     3
 10
580.69135999999992
 20
588.85833700000001
 30
0.0
  0
VERTEX
  5
73D
  8
0
 62
     3
 10
576.69135999999992
 20
587.85833700000001
 30
0.0
  0
VERTEX
  5
73E
  8
0
 62
     3
 10
578.69135999999992
 20
586.85833700000001
 30
0.0
  0
VERTEX
  5
73F
  8
0
 62
     3
 10
578.69135999999992
 20
570.85833700000001
 30
0.0
  0
VERTEX
  5
740
  8
0
 62
     3
 10
580.69135999999992
 20
569.85833700000001
 30
0.0
  0
VERTEX
  5
741
  8
0
 62
     3
 10
576.69135999999992
 20
568.85833699999989
 30
0.0
  0
VERTEX
  5
742
  8
0
 62
     3
 10
578.69135999999992
 20
567.85833700000001
 30
0.0
  0
VERTEX
  5
743
  8
0
 62
     3
 10
578.69135999999992
 20
551.85833699999989
 30
0.0
  0
VERTEX
  5
744
  8
0
 62
     3
 10
580.69135999999992
 20
550.85833700000001
 30
0.0
  0
VERTEX
  5
745
  8
0
 62
     3
 10
576.69135999999992
 20
549.85833700000001
 30
0.0
  0
VERTEX
  5
746
  8
0
 62
     3
 10
578.69135999999992
 20
548.85833699999989
 30
0.0
  0
VERTEX
  5
747
  8
0
 62
     3
 10
578.69135999999992
 20
532.85833700000001
 30
0.0
  0
VERTEX
  5
748
  8
0
 62
     3
 10
580.69135999999992
 20
531.85833699999989
 30
0.0
  0
VERTEX
  5
749
  8
0
 62
     3
 10
576.69135999999992
 20
530.85833700000001
 30
0.0
  0
VERTEX
  5
74A
  8
0
 62
     3
 10
578.69135999999992
 20
529.85833700000001
 30
0.0
  0
VERTEX
  5
74B
  8
0
 62
     3
 10
578.69135999999992
 20
513.85833700000001
 30
0.0
  0
VERTEX
  5
74C
  8
0
 62
     3
 10
580.69135999999992
 20
512.85833700000001
 30
0.0
  0
VERTEX
  5
74D
  8
0
 62
     3
 10
576.69135999999992
 20
511.85833700000001
 30
0.0
  0
VERTEX
  5
74E
  8
0
 62
     3
 10
578.69135999999992
 20
510.85833699999989
 30
0.0
  0
VERTEX
  5
74F
  8
0
 62
     3
 10
578.69135999999992
 20
494.85833700000001
 30
0.0
  0
VERTEX
  5
750
  8
0
 62
     3
 10
580.69135999999992
 20
493.85833699999989
 30
0.0
  0
VERTEX
  5
751
  8
0
 62
     3
 10
576.69135999999992
 20
492.85833700000001
 30
0.0
  0
VERTEX
  5
752
  8
0
 62
     3
 10
578.69135999999992
 20
491.85833700000001
 30
0.0
  0
VERTEX
  5
753
  8
0
 62
     3
 10
578.69135999999992
 20
475.85833700000001
 30
0.0
  0
VERTEX
  5
754
  8
0
 62
     3
 10
580.69135999999992
 20
474.85833700000001
 30
0.0
  0
VERTEX
  5
755
  8
0
 62
     3
 10
576.69135999999992
 20
473.85833699999989
 30
0.0
  0
VERTEX
  5
756
  8
0
 62
     3
 10
578.69135999999992
 20
472.85833699999989
 30
0.0
  0
VERTEX
  5
757
  8
0
 62
     3
 10
578.69135999999992
 20
456.85833699999989
 30
0.0
  0
VERTEX
  5
758
  8
0
 62
     3
 10
580.69135999999992
 20
455.85833700000001
 30
0.0
  0
VERTEX
  5
759
  8
0
 62
     3
 10
576.69135999999992
 20
454.85833700000001
 30
0.0
  0
VERTEX
  5
75A
  8
0
 62
     3
 10
578.69135999999992
 20
453.85833700000001
 30
0.0
  0
VERTEX
  5
75B
  8
0
 62
     3
 10
578.69135999999992
 20
438.78768200000002
 30
0.0
  0
SEQEND
  5
75C
  8
0
 62
     3
  0
POLYLINE
  5
A2
  8
0
 62
     3
 66
     1
 10
0.0
 20
0.0
 30
0.0
  0
VERTEX
  5
75D
  8
0
 62
     3
 10
746.19135999999992
 20
643.85833699999989
 30
0.0
  0
VERTEX
  5
75E
  8
0
 62
     3
 10
730.1913599999998
 20
643.85833699999989
 30
0.0
  0
VERTEX
  5
75F
  8
0
 62
     3
 10
729.19135999999992
 20
641.85833700000001
 30
0.0
  0
VERTEX
  5
760
  8
0
 62
     3
 10
728.19135999999992
 20
645.85833700000001
 30
0.0
  0
VERTEX
  5
761
  8
0
 62
     3
 10
727.19135999999992
 20
643.85833699999989
 30
0.0
  0
VERTEX
  5
762
  8
0
 62
     3
 10
711.19135999999992
 20
643.85833699999989
 30
0.0
  0
VERTEX
  5
763
  8
0
 62
     3
 10
710.19135999999992
 20
641.85833700000001
 30
0.0
  0
VERTEX
  5
764
  8
0
 62
     3
 10
709.1913599999998
 20
645.85833700000001
 30
0.0
  0
VERTEX
  5
765
  8
0
 62
     3
 10
708.19135999999992
 20
643.85833699999989
 30
0.0
  0
VERTEX
  5
766
  8
0
 62
     3
 10
692.19135999999992
 20
643.85833699999989
 30
0.0
  0
VERTEX
  5
767
  8
0
 62
     3
 10
691.19135999999992
 20
641.85833700000001
 30
0.0
  0
VERTEX
  5
768
  8
0
 62
     3
 10
690.19135999999992
 20
645.85833700000001
 30
0.0
  0
VERTEX
  5
769
  8
0
 62
     3
 10
689.19135999999992
 20
643.85833699999989
 30
0.0
  0
VERTEX
  5
76A
  8
0
 62
     3
 10
673.19135999999992
 20
643.85833699999989
 30
0.0
  0
VERTEX
  5
76B
  8
0
 62
     3
 10
672.19135999999992
 20
641.85833700000001
 30
0.0
  0
VERTEX
  5
76C
  8
0
 62
     3
 10
671.19135999999992
 20
645.85833700000001
 30
0.0
  0
VERTEX
  5
76D
  8
0
 62
     3
 10
670.19135999999992
 20
643.85833699999989
 30
0.0
  0
VERTEX
  5
76E
  8
0
 62
     3
 10
654.19135999999992
 20
643.85833699999989
 30
0.0
  0
VERTEX
  5
76F
  8
0
 62
     3
 10
653.19135999999992
 20
641.85833700000001
 30
0.0
  0
VERTEX
  5
770
  8
0
 62
     3
 10
652.19135999999992
 20
645.85833700000001
 30
0.0
  0
VERTEX
  5
771
  8
0
 62
     3
 10
651.19135999999992
 20
643.85833699999989
 30
0.0
  0
VERTEX
  5
772
  8
0
 62
     3
 10
635.19135999999992
 20
643.85833699999989
 30
0.0
  0
VERTEX
  5
773
  8
0
 62
     3
 10
634.1913599999998
 20
641.85833700000001
 30
0.0
  0
VERTEX
  5
774
  8
0
 62
     3
 10
633.19135999999992
 20
645.85833700000001
 30
0.0
  0
VERTEX
  5
775
  8
0
 62
     3
 10
632.19135999999992
 20
643.85833699999989
 30
0.0
  0
VERTEX
  5
776
  8
0
 62
     3
 10
616.19135999999992
 20
643.85833699999989
 30
0.0
  0
VERTEX
  5
777
  8
0
 62
     3
 10
615.19135999999992
 20
641.85833700000001
 30
0.0
  0
VERTEX
  5
778
  8
0
 62
     3
 10
614.19135999999992
 20
645.85833700000001
 30
0.0
  0
VERTEX
  5
779
  8
0
 62
     3
 10
613.1913599999998
 20
643.85833699999989
 30
0.0
  0
VERTEX
  5
77A
  8
0
 62
     3
 10
597.19135999999992
 20
643.85833699999989
 30
0.0
  0
VERTEX
  5
77B
  8
0
 62
     3
 10
596.19135999999992
 20
641.85833700000001
 30
0.0
  0
VERTEX
  5
77C
  8
0
 62
     3
 10
595.19135999999992
 20
645.85833700000001
 30
0.0
  0
VERTEX
  5
77D
  8
0
 62
     3
 10
594.19135999999992
 20
643.85833699999989
 30
0.0
  0
VERTEX
  5
77E
  8
0
 62
     3
 10
578.69135999999992
 20
643.85833699999989
 30
0.0
  0
SEQEND
  5
77F
  8
0
 62
     3
  0
CIRCLE
  5
C6
  8
0
 62
     7
 10
611.30409199999986
 20
624.07515000000001
 30
0.0
 40
0.2
  0
LINE
  5
C7
  8
0
  6
DASHDOT
 62
     7
 10
703.69135999999992
 20
604.40418199999999
 30
0.0
 11
703.69135999999992
 21
469.12885999999997
 31
0.0
  0
LINE
  5
C8
  8
0
  6
DASHDOT
 62
     7
 10
598.69135999999992
 20
605.59080499999993
 30
0.0
 11
598.69135999999992
 21
468.53554500000001
 31
0.0
  0
LINE
  5
C9
  8
0
  6
DASHDOT
 62
     7
 10
733.300163
 20
588.2876819999999
 30
0.0
 11
603.36465499999997
 21
588.2876819999999
 31
0.0
  0
LINE
  5
CA
  8
0
  6
DASHDOT
 62
     7
 10
735.08010100000001
 20
488.2876819999999
 30
0.0
 11
601.58471699999996
 21
488.2876819999999
 31
0.0
  0
CIRCLE
  5
CB
  8
0
 62
     7
 10
598.69135999999992
 20
588.2876819999999
 30
0.0
 40
2.5
  0
CIRCLE
  5
CC
  8
0
 62
     7
 10
703.69135999999992
 20
588.2876819999999
 30
0.0
 40
2.5
  0
CIRCLE
  5
CD
  8
0
 62
     7
 10
598.69135999999992
 20
488.2876819999999
 30
0.0
 40
2.5
  0
CIRCLE
  5
CE
  8
0
 62
     7
 10
703.69135999999992
 20
488.2876819999999
 30
0.0
 40
2.5
  0
CIRCLE
  5
CF
  8
0
 62
     7
 10
611.30409199999986
 20
624.07515000000001
 30
0.0
 40
0.25
  0
LINE
  5
D0
  8
0
  6
DASHDOT
 62
     7
 10
800.43785100000002
 20
536.0376819999999
 30
0.0
 11
570.53340900000001
 21
536.0376819999999
 31
0.0
  0
LINE
  5
D1
  8
0
 62
     7
 10
534.02265899999986
 20
588.28765099999998
 30
0.0
 11
531.93891900000006
 21
576.46996299999989
 31
0.0
  0
LINE
  5
D2
  8
0
 62
     7
 10
534.02265899999986
 20
588.28765099999998
 30
0.0
 11
536.10639999999989
 21
576.46996299999989
 31
0.0
  0
LINE
  5
D3
  8
0
 62
     7
 10
534.02265899999986
 20
488.2876819999999
 30
0.0
 11
536.10639999999989
 21
500.10536999999988
 31
0.0
  0
LINE
  5
D4
  8
0
 62
     7
 10
534.02265899999986
 20
488.2876819999999
 30
0.0
 11
531.93891900000006
 21
500.10536999999988
 31
0.0
  0
LINE
  5
D5
  8
0
 62
     7
 10
534.02265899999986
 20
588.28765099999998
 30
0.0
 11
534.02265899999986
 21
488.2876819999999
 31
0.0
  0
LINE
  5
D6
  8
0
 62
     7
 10
526.02265899999998
 20
588.28765099999998
 30
0.0
 11
603.36469999999997
 21
588.28765099999998
 31
0.0
  0
LINE
  5
D7
  8
0
 62
     7
 10
526.02265899999998
 20
488.2876819999999
 30
0.0
 11
601.58467099999984
 21
488.28765099999998
 31
0.0
  0
LINE
  5
D8
  8
0
 62
     7
 10
703.69135999999992
 20
396.15138999999988
 30
0.0
 11
715.50898700000005
 21
394.06758899999988
 31
0.0
  0
LINE
  5
D9
  8
0
 62
     7
 10
703.69135999999992
 20
396.15138999999988
 30
0.0
 11
715.50898700000005
 21
398.23519099999999
 31
0.0
  0
LINE
  5
DA
  8
0
 62
     7
 10
678.69135999999992
 20
396.15138999999988
 30
0.0
 11
666.8737339999999
 21
398.23519099999999
 31
0.0
  0
LINE
  5
DB
  8
0
 62
     7
 10
678.69135999999992
 20
396.15138999999988
 30
0.0
 11
666.8737339999999
 21
394.06758899999988
 31
0.0
  0
LINE
  5
DC
  8
0
 62
     7
 10
598.69135999999992
 20
396.15138999999988
 30
0.0
 11
610.50898700000005
 21
394.06758899999988
 31
0.0
  0
LINE
  5
DD
  8
0
 62
     7
 10
598.69135999999992
 20
396.15138999999988
 30
0.0
 11
610.50898700000005
 21
398.23519099999999
 31
0.0
  0
LINE
  5
DE
  8
0
 62
     7
 10
737.69135999999992
 20
396.15138999999988
 30
0.0
 11
598.69135999999992
 21
396.15138999999988
 31
0.0
  0
LINE
  5
DF
  8
0
 62
     7
 10
703.69135999999992
 20
388.15138999999988
 30
0.0
 11
703.69135999999992
 21
469.1288679999999
 31
0.0
  0
LINE
  5
E0
  8
0
 62
     7
 10
678.69135999999992
 20
388.15138999999988
 30
0.0
 11
678.69135999999992
 21
411.97603599999991
 31
0.0
  0
LINE
  5
E1
  8
0
 62
     7
 10
598.69135999999992
 20
388.15138999999988
 30
0.0
 11
598.69135999999992
 21
468.53554500000001
 31
0.0
  0
LINE
  5
E2
  8
0
 62
     7
 10
596.58760099999995
 20
486.93694299999993
 30
0.0
 11
585.51753199999996
 21
482.30525999999992
 31
0.0
  0
LINE
  5
E3
  8
0
 62
     7
 10
596.58760099999995
 20
486.93694299999993
 30
0.0
 11
587.76924099999985
 21
478.79839299999998
 31
0.0
  0
LINE
  5
E4
  8
0
 62
     7
 10
600.79511999999988
 20
489.63841999999988
 30
0.0
 11
611.86518899999987
 21
494.27007300000002
 31
0.0
  0
LINE
  5
E5
  8
0
 62
     7
 10
600.79511999999988
 20
489.63841999999988
 30
0.0
 11
609.61347999999987
 21
497.77697000000001
 31
0.0
  0
LINE
  5
E6
  8
0
 62
     7
 10
601.00532499999986
 20
489.77352100000002
 30
0.0
 11
458.971878
 21
398.57546200000002
 31
0.0
  0
LINE
  5
E7
  8
0
 62
     7
 10
788.49311799999987
 20
588.2876819999999
 30
0.0
 11
786.40937800000006
 21
576.46999400000004
 31
0.0
  0
LINE
  5
E8
  8
0
 62
     7
 10
788.49311799999987
 20
588.2876819999999
 30
0.0
 11
790.57685900000001
 21
576.46999400000004
 31
0.0
  0
LINE
  5
E9
  8
0
 62
     7
 10
788.49311799999987
 20
536.0376819999999
 30
0.0
 11
790.57685900000001
 21
547.85540000000003
 31
0.0
  0
LINE
  5
EA
  8
0
 62
     7
 10
788.49311799999987
 20
536.0376819999999
 30
0.0
 11
786.40913399999988
 21
547.85540000000003
 31
0.0
  0
LINE
  5
EB
  8
0
 62
     7
 10
788.49311799999987
 20
655.28768200000002
 30
0.0
 11
788.49311799999987
 21
536.0376819999999
 31
0.0
  0
LINE
  5
EC
  8
0
 62
     7
 10
796.49311799999987
 20
588.2876819999999
 30
0.0
 11
736.21455400000002
 21
588.2876819999999
 31
0.0
  0
LINE
  5
ED
  8
0
 62
     7
 10
796.49311799999987
 20
536.0376819999999
 30
0.0
 11
776.42866500000002
 21
536.0376819999999
 31
0.0
  0
LINE
  5
EE
  8
0
 62
     7
 10
106.60328699999999
 20
456.08769599999988
 30
0.0
 11
34.603287000000002
 21
456.08769599999988
 31
0.0
  0
LINE
  5
EF
  8
0
 62
     7
 10
34.603287000000002
 20
450.78769499999999
 30
0.0
 11
34.603287000000002
 21
493.58191699999998
 31
0.0
  0
LINE
  5
F0
  8
0
 62
     7
 10
34.603287000000002
 20
493.581886
 30
0.0
 11
34.603287000000002
 21
625.7876819999999
 31
0.0
  0
LINE
  5
F1
  8
0
 62
     7
 10
32.603287000000002
 20
612.61728700000003
 30
0.0
 11
32.603287000000002
 21
612.78765099999998
 31
0.0
  0
LINE
  5
F2
  8
0
 62
     7
 10
103.103283
 20
552.28765899999996
 30
0.0
 11
103.103264
 21
560.53768200000002
 31
0.0
  0
LINE
  5
F3
  8
0
 62
     7
 10
105.6032279999999
 20
606.78768200000002
 30
0.0
 11
106.3103499999999
 21
607.08057399999996
 31
0.0
  0
LINE
  5
F4
  8
0
 62
     7
 10
106.31036400000001
 20
607.08054299999992
 30
0.0
 11
106.603256
 21
607.78765099999998
 31
0.0
  0
LINE
  5
F5
  8
0
 62
     7
 10
103.10327099999991
 20
599.78768200000002
 30
0.0
 11
103.1032869999999
 21
606.78768200000002
 31
0.0
  0
LINE
  5
F6
  8
0
 62
     7
 10
105.603256
 20
606.78768200000002
 30
0.0
 11
103.1032869999999
 21
606.78768200000002
 31
0.0
  0
LINE
  5
F7
  8
0
 62
     7
 10
103.10327099999991
 20
560.53768200000002
 30
0.0
 11
103.10327099999991
 21
599.78768200000002
 31
0.0
  0
LINE
  5
F8
  8
0
 62
     7
 10
98.603286999999995
 20
509.78768200000002
 30
0.0
 11
98.603286999999995
 21
550.28768200000002
 31
0.0
  0
LINE
  5
F9
  8
0
 62
     7
 10
98.603317000000004
 20
550.287735
 30
0.0
 11
98.871262000000002
 21
551.287735
 31
0.0
  0
LINE
  5
FA
  8
0
 62
     7
 10
98.871296000000015
 20
551.28777300000002
 30
0.0
 11
99.603335999999999
 21
552.01982899999985
 31
0.0
  0
LINE
  5
FB
  8
0
 62
     7
 10
99.603232999999975
 20
552.01971400000002
 30
0.0
 11
100.60324900000001
 21
552.28765899999996
 31
0.0
  0
LINE
  5
FC
  8
0
 62
     7
 10
106.60328699999999
 20
509.78768200000002
 30
0.0
 11
98.603286999999995
 21
509.78768200000002
 31
0.0
  0
LINE
  5
FD
  8
0
 62
     7
 10
106.603245
 20
494.787666
 30
0.0
 11
105.603168
 21
495.787666
 31
0.0
  0
LINE
  5
FE
  8
0
 62
     7
 10
105.6031909999999
 20
506.78768899999989
 30
0.0
 11
106.603283
 21
507.78768899999989
 31
0.0
  0
LINE
  5
FF
  8
0
 62
     7
 10
105.603178
 20
506.78765099999993
 30
0.0
 11
42.83537299999999
 21
506.78765099999993
 31
0.0
  0
LINE
  5
100
  8
0
 62
     7
 10
105.60319299999991
 20
495.78768200000002
 30
0.0
 11
42.835326999999999
 21
495.78768200000002
 31
0.0
  0
LINE
  5
101
  8
0
 62
     7
 10
42.835365000000003
 20
506.78763600000002
 30
0.0
 11
39.103279000000001
 21
507.78765099999998
 31
0.0
  0
LINE
  5
102
  8
0
 62
     7
 10
39.103316999999997
 20
507.78764299999989
 30
0.0
 11
35.603279000000001
 21
508.72547900000001
 31
0.0
  0
LINE
  5
103
  8
0
 62
     7
 10
34.603287000000002
 20
493.58191699999998
 30
0.0
 11
42.835326999999999
 21
495.78768200000002
 31
0.0
  0
LINE
  5
104
  8
0
 62
     7
 10
34.603301999999999
 20
511.08198499999992
 30
0.0
 11
35.603293999999998
 21
511.34992999999992
 31
0.0
  0
LINE
  5
105
  8
0
 62
     7
 10
38.603287000000002
 20
487.287666
 30
0.0
 11
34.603287000000002
 21
487.287666
 31
0.0
  0
LINE
  5
106
  8
0
 62
     7
 10
38.603287000000002
 20
456.08769599999988
 30
0.0
 11
38.603287000000002
 21
487.287666
 31
0.0
  0
LINE
  5
107
  8
0
 62
     7
 10
35.603287000000002
 20
493.8498459999999
 30
0.0
 11
35.603287000000002
 21
538.28766599999994
 31
0.0
  0
LINE
  5
108
  8
0
 62
     7
 10
39.103287000000002
 20
507.78768200000002
 30
0.0
 11
39.103287000000002
 21
532.78768200000002
 31
0.0
  0
LINE
  5
109
  8
0
 62
     7
 10
37.603287000000002
 20
538.28766599999994
 30
0.0
 11
34.603287000000002
 21
538.28766599999994
 31
0.0
  0
LINE
  5
10A
  8
0
 62
     7
 10
38.353293999999991
 20
538.08669999999995
 30
0.0
 11
37.603293999999991
 21
538.28765899999985
 31
0.0
  0
LINE
  5
10B
  8
0
 62
     7
 10
38.353293999999991
 20
538.08669999999995
 30
0.0
 11
37.603293999999991
 21
538.28765899999985
 31
0.0
  0
LINE
  5
10C
  8
0
 62
     7
 10
38.902327999999997
 20
537.53765099999987
 30
0.0
 11
38.353287000000002
 21
538.08669299999985
 31
0.0
  0
LINE
  5
10D
  8
0
 62
     7
 10
39.103270999999992
 20
536.78763600000002
 30
0.0
 11
38.902312999999992
 21
537.53763600000002
 31
0.0
  0
LINE
  5
10E
  8
0
 62
     7
 10
39.103301999999999
 20
532.78766599999994
 30
0.0
 11
39.103301999999999
 21
536.78765099999998
 31
0.0
  0
LINE
  5
10F
  8
0
 62
     7
 10
38.902335999999998
 20
532.03765899999985
 30
0.0
 11
38.997559000000003
 21
532.39303600000005
 31
0.0
  0
LINE
  5
110
  8
0
 62
     7
 10
38.997551000000001
 20
532.39302799999996
 30
0.0
 11
39.103293999999998
 21
532.78766599999994
 31
0.0
  0
LINE
  5
111
  8
0
 62
     7
 10
38.353287000000002
 20
531.48858600000005
 30
0.0
 11
38.902327999999997
 21
532.03762800000004
 31
0.0
  0
LINE
  5
112
  8
0
 62
     7
 10
37.603270999999999
 20
531.287643
 30
0.0
 11
38.353270999999999
 21
531.4886019999999
 31
0.0
  0
LINE
  5
113
  8
0
 62
     7
 10
37.603287000000002
 20
531.28766599999994
 30
0.0
 11
35.603287000000002
 21
531.28766599999994
 31
0.0
  0
LINE
  5
114
  8
0
 62
     7
 10
34.603287000000002
 20
463.78766599999989
 30
0.0
 11
32.603287000000002
 21
463.78766599999989
 31
0.0
  0
LINE
  5
115
  8
0
 62
     7
 10
34.603287000000002
 20
612.78765099999998
 30
0.0
 11
32.603287000000002
 21
612.78765099999998
 31
0.0
  0
LINE
  5
116
  8
0
 62
     7
 10
34.603287000000002
 20
602.91930400000001
 30
0.0
 11
32.603287000000002
 21
602.91930400000001
 31
0.0
  0
LINE
  5
117
  8
0
 62
     7
 10
41.902298000000002
 20
495.53767399999998
 30
0.0
 11
39.103264000000003
 21
496.28767399999998
 31
0.0
  0
LINE
  5
118
  8
0
 62
     7
 10
39.103256000000002
 20
496.2876819999999
 30
0.0
 11
39.103256000000002
 21
506.28768200000002
 31
0.0
  0
LINE
  5
119
  8
0
 62
     7
 10
39.103256000000002
 20
506.28766599999989
 30
0.0
 11
41.902312999999992
 21
507.03766599999989
 31
0.0
  0
LINE
  5
11A
  8
0
 62
     7
 10
34.603287000000002
 20
473.787666
 30
0.0
 11
32.603287000000002
 21
473.787666
 31
0.0
  0
LINE
  5
11B
  8
0
 62
     7
 10
38.902335999999998
 20
531.50836900000002
 30
0.0
 11
39.103293999999998
 21
532.39304299999981
 31
0.0
  0
LINE
  5
11C
  8
0
 62
     7
 10
39.103287000000002
 20
532.39304299999981
 30
0.0
 11
38.997543
 21
532.39304299999981
 31
0.0
  0
LINE
  5
11D
  8
0
 62
     7
 10
38.969307000000001
 20
518.28765899999985
 30
0.0
 11
39.103279000000001
 21
518.38711499999988
 31
0.0
  0
LINE
  5
11E
  8
0
 62
     7
 10
38.969321999999998
 20
518.28762099999994
 30
0.0
 11
38.902327999999997
 21
518.33734900000002
 31
0.0
  0
LINE
  5
11F
  8
0
 62
     7
 10
39.103287000000002
 20
528.28768200000002
 30
0.0
 11
38.902321000000001
 21
528.28768200000002
 31
0.0
  0
LINE
  5
120
  8
0
 62
     7
 10
38.902321000000001
 20
522.23789199999987
 30
0.0
 11
38.969307000000001
 21
522.28762099999994
 31
0.0
  0
LINE
  5
121
  8
0
 62
     7
 10
39.103287000000002
 20
522.18819400000007
 30
0.0
 11
38.969315000000002
 21
522.28765099999987
 31
0.0
  0
LINE
  5
122
  8
0
 62
     7
 10
39.011490000000002
 20
530.00975000000005
 30
0.0
 11
38.902321000000001
 21
530.61952199999985
 31
0.0
  0
LINE
  5
123
  8
0
 62
     7
 10
39.103287000000002
 20
528.28768200000002
 30
0.0
 11
39.011496999999991
 21
530.00975800000003
 31
0.0
  0
LINE
  5
124
  8
0
 62
     7
 10
38.902321000000001
 20
518.33737900000006
 30
0.0
 11
38.386963000000002
 21
518.43988799999988
 31
0.0
  0
LINE
  5
125
  8
0
 62
     7
 10
38.386963000000002
 20
518.43989599999998
 30
0.0
 11
38.353287000000002
 21
518.462402
 31
0.0
  0
LINE
  5
126
  8
0
 62
     7
 10
38.353270999999999
 20
522.11290699999995
 30
0.0
 11
38.38694799999999
 21
522.13541399999986
 31
0.0
  0
LINE
  5
127
  8
0
 62
     7
 10
38.386955
 20
522.13540599999999
 30
0.0
 11
38.902312999999992
 21
522.23791500000004
 31
0.0
  0
LINE
  5
128
  8
0
 62
     7
 10
38.902321000000001
 20
528.28768200000002
 30
0.0
 11
38.353287000000002
 21
528.28768200000002
 31
0.0
  0
LINE
  5
129
  8
0
 62
     7
 10
38.353279000000001
 20
518.46238700000004
 30
0.0
 11
37.603279000000001
 21
518.59666399999992
 31
0.0
  0
LINE
  5
12A
  8
0
 62
     7
 10
37.603279000000001
 20
521.97862999999995
 30
0.0
 11
38.353279000000001
 21
522.11290699999995
 31
0.0
  0
LINE
  5
12B
  8
0
 62
     7
 10
38.353287000000002
 20
528.28768200000002
 30
0.0
 11
37.603287000000002
 21
528.28768200000002
 31
0.0
  0
LINE
  5
12C
  8
0
 62
     7
 10
37.603287000000002
 20
521.97864499999991
 30
0.0
 11
35.603287000000002
 21
521.97864499999991
 31
0.0
  0
LINE
  5
12D
  8
0
 62
     7
 10
37.603287000000002
 20
528.28768200000002
 30
0.0
 11
35.603287000000002
 21
528.28768200000002
 31
0.0
  0
LINE
  5
12E
  8
0
 62
     7
 10
37.603287000000002
 20
518.59668699999986
 30
0.0
 11
35.603287000000002
 21
518.59668699999986
 31
0.0
  0
LINE
  5
12F
  8
0
 62
     7
 10
128.80328399999999
 20
620.48769400000003
 30
0.0
 11
34.603287000000002
 21
620.48769400000003
 31
0.0
  0
LINE
  5
130
  8
0
 62
     7
 10
128.80328399999999
 20
456.08769599999988
 30
0.0
 11
106.60328699999999
 21
456.08769599999988
 31
0.0
  0
LINE
  5
131
  8
0
 62
     3
 10
106.60328699999999
 20
456.08769599999988
 30
0.0
 11
106.60328699999999
 21
495.53768200000002
 31
0.0
  0
LINE
  5
132
  8
0
 62
     3
 10
106.60328699999999
 20
507.03766599999989
 30
0.0
 11
106.60328699999999
 21
509.78774299999992
 31
0.0
  0
LINE
  5
133
  8
0
 62
     3
 10
106.60328699999999
 20
607.7877269999999
 30
0.0
 11
106.60328699999999
 21
620.48769400000003
 31
0.0
  0
LINE
  5
134
  8
0
 62
     3
 10
136.10328699999999
 20
551.23654899999985
 30
0.0
 11
136.10328699999999
 21
560.78736100000003
 31
0.0
  0
LINE
  5
135
  8
0
 62
     3
 10
136.1032779999999
 20
493.78738399999992
 30
0.0
 11
136.10323299999999
 21
500.33810399999987
 31
0.0
  0
LINE
  5
136
  8
0
 62
     7
 10
128.80328399999999
 20
456.08769999999993
 30
0.0
 11
128.80328399999999
 21
478.03770099999991
 31
0.0
  0
LINE
  5
137
  8
0
 62
     3
 10
128.803281
 20
507.0376819999999
 30
0.0
 11
106.603283
 21
507.0376819999999
 31
0.0
  0
LINE
  5
138
  8
0
 62
     3
 10
128.803281
 20
495.53768200000002
 30
0.0
 11
106.603285
 21
495.53768200000002
 31
0.0
  0
LINE
  5
139
  8
0
 62
     1
 10
134.103286
 20
599.03768200000002
 30
0.0
 11
128.80328399999999
 21
599.03768200000002
 31
0.0
  0
LINE
  5
13A
  8
0
 62
     1
 10
131.60328699999999
 20
478.03769699999992
 30
0.0
 11
131.10328699999999
 21
478.03769699999992
 31
0.0
  0
LINE
  5
13B
  8
0
 62
     1
 10
134.103286
 20
478.03772399999991
 30
0.0
 11
128.80328399999999
 21
478.03772399999991
 31
0.0
  0
LINE
  5
13C
  8
0
 62
     2
 10
136.1045969999999
 20
483.53768200000002
 30
0.0
 11
136.1045969999999
 21
588.53768200000002
 31
0.0
  0
LINE
  5
13D
  8
0
 62
     2
 10
139.60327699999991
 20
588.53768200000002
 30
0.0
 11
134.103286
 21
588.53768200000002
 31
0.0
  0
LINE
  5
13E
  8
0
 62
     2
 10
139.60327699999991
 20
483.53768200000002
 30
0.0
 11
134.103286
 21
483.53768200000002
 31
0.0
  0
LINE
  5
13F
  8
0
 62
     7
 10
103.103279
 20
552.28765899999996
 30
0.0
 11
100.60324900000001
 21
552.28765899999996
 31
0.0
  0
LINE
  5
140
  8
0
 62
     7
 10
134.103286
 20
588.53768200000002
 30
0.0
 11
134.103286
 21
599.03768200000002
 31
0.0
  0
LINE
  5
141
  8
0
 62
     7
 10
134.103286
 20
478.03769699999992
 30
0.0
 11
134.103286
 21
483.53768200000002
 31
0.0
  0
LINE
  5
142
  8
0
 62
     7
 10
128.80328399999999
 20
599.03768200000002
 30
0.0
 11
128.80328399999999
 21
620.48769400000003
 31
0.0
  0
LINE
  5
143
  8
0
 62
     3
 10
128.80328399999999
 20
478.03770099999991
 30
0.0
 11
128.80328399999999
 21
599.03768200000002
 31
0.0
  0
ARC
  5
144
  8
0
 62
     7
 10
165.77932699999991
 20
513.99379699999997
 30
0.0
 40
1.0
 50
348.62360999999993
 51
76.688818000000012
  0
ARC
  5
145
  8
0
 62
     7
 10
164.582584
 20
508.04598199999998
 30
0.0
 40
1.000000999999999
 50
260.59401500000001
 51
348.62360999999993
  0
LINE
  5
146
  8
0
  6
DASHDOT
 62
     7
 10
180.57991399999989
 20
507.88514700000002
 30
0.0
 11
130.46322299999991
 21
517.96896399999991
 31
0.0
  0
LINE
  5
147
  8
0
 62
     7
 10
166.0095649999999
 20
514.96693400000004
 30
0.0
 11
145.10440500000001
 21
519.91300999999987
 31
0.0
  0
LINE
  5
148
  8
0
 62
     7
 10
165.562939
 20
507.848724
 30
0.0
 11
166.75968
 21
513.79654699999992
 31
0.0
  0
LINE
  5
149
  8
0
 62
     7
 10
164.41915700000001
 20
507.05942499999998
 30
0.0
 11
145.10445599999991
 21
510.25902600000001
 31
0.0
  0
ARC
  5
14A
  8
0
  6
DASHDOT
 62
     7
 10
91.604083999999986
 20
525.7876819999999
 30
0.0
 40
76.044273000000004
 50
337.49231500000002
 51
0.000001
  0
LINE
  5
14B
  8
0
  6
DASHDOT
 62
     7
 10
167.64835400000001
 20
525.7876819999999
 30
0.0
 11
167.64835400000001
 21
531.53787999999986
 31
0.0
  0
LINE
  5
14C
  8
0
 62
     7
 10
32.603287000000002
 20
602.91930400000001
 30
0.0
 11
32.603287000000002
 21
612.78765099999998
 31
0.0
  0
LINE
  5
14D
  8
0
 62
     7
 10
32.603287000000002
 20
463.78766599999989
 30
0.0
 11
32.603287000000002
 21
473.787666
 31
0.0
  0
LINE
  5
14E
  8
0
 62
     6
 10
-14.896744
 20
508.28764299999989
 30
0.0
 11
-10.896744
 21
508.28765899999991
 31
0.0
  0
LINE
  5
14F
  8
0
 62
     6
 10
-14.896744
 20
501.28764299999989
 30
0.0
 11
-10.896744
 21
501.28765899999991
 31
0.0
  0
LINE
  5
150
  8
0
 62
     3
 10
-15.396743999999989
 20
454.287666
 30
0.0
 11
-15.396743999999989
 21
479.287666
 31
0.0
  0
LINE
  5
151
  8
0
 62
     3
 10
-15.396758999999991
 20
597.28766599999994
 30
0.0
 11
-15.396758999999991
 21
622.28766599999994
 31
0.0
  0
LINE
  5
152
  8
0
 62
     3
 10
32.603287000000002
 20
456.08766900000001
 30
0.0
 11
-4.3967589999999994
 21
456.08766900000001
 31
0.0
  0
LINE
  5
153
  8
0
 62
     6
 10
32.603287000000002
 20
453.287666
 30
0.0
 11
-4.3967589999999994
 21
453.287666
 31
0.0
  0
LINE
  5
154
  8
0
 62
     6
 10
32.603287000000002
 20
623.28766599999994
 30
0.0
 11
-4.3967589999999994
 21
623.28766599999994
 31
0.0
  0
LINE
  5
155
  8
0
 62
     3
 10
32.603287000000002
 20
620.48767899999996
 30
0.0
 11
-4.3967589999999994
 21
620.48767899999996
 31
0.0
  0
LINE
  5
156
  8
0
 62
     6
 10
32.603287000000002
 20
453.287666
 30
0.0
 11
32.603287000000002
 21
623.28766599999994
 31
0.0
  0
LINE
  5
157
  8
0
 62
     6
 10
-10.896744
 20
498.28762099999989
 30
0.0
 11
-10.896744
 21
501.28765899999991
 31
0.0
  0
LINE
  5
158
  8
0
 62
     6
 10
-4.3967439999999991
 20
453.28766100000001
 30
0.0
 11
-4.3967439999999991
 21
454.287666
 31
0.0
  0
LINE
  5
159
  8
0
 62
     3
 10
-4.3967589999999994
 20
570.28766599999994
 30
0.0
 11
-10.896758999999999
 21
570.28766599999994
 31
0.0
  0
LINE
  5
15A
  8
0
 62
     3
 10
-4.3967589999999994
 20
570.28766599999994
 30
0.0
 11
-4.3967589999999994
 21
578.28766599999994
 31
0.0
  0
LINE
  5
15B
  8
0
 62
     3
 10
-4.3967439999999991
 20
491.28760499999999
 30
0.0
 11
-10.896744
 21
491.28760499999999
 31
0.0
  0
LINE
  5
15C
  8
0
 62
     6
 10
-10.896744
 20
494.787666
 30
0.0
 11
-10.896744
 21
498.28762099999989
 31
0.0
  0
LINE
  5
15D
  8
0
 62
     3
 10
31.603332999999999
 20
506.78764299999989
 30
0.0
 11
-10.89672899999999
 21
506.78765900000002
 31
0.0
  0
LINE
  5
15E
  8
0
 62
     3
 10
31.603325000000002
 20
506.78764299999989
 30
0.0
 11
32.603293999999991
 21
507.78765899999991
 31
0.0
  0
LINE
  5
15F
  8
0
 62
     3
 10
31.60331699999999
 20
495.78768200000002
 30
0.0
 11
-10.896744
 21
495.78768200000002
 31
0.0
  0
LINE
  5
160
  8
0
 62
     3
 10
32.603301999999999
 20
494.78765099999993
 30
0.0
 11
31.603332999999999
 21
495.787666
 31
0.0
  0
LINE
  5
161
  8
0
 62
     6
 10
-16.896758999999999
 20
481.7876619999999
 30
0.0
 11
-16.896744000000002
 21
494.78765899999991
 31
0.0
  0
LINE
  5
162
  8
0
 62
     6
 10
-16.896744000000002
 20
581.78765099999987
 30
0.0
 11
-16.896758999999999
 21
594.78765099999987
 31
0.0
  0
LINE
  5
163
  8
0
 62
     3
 10
-10.896744
 20
570.28766599999994
 30
0.0
 11
-10.896744
 21
574.28766599999994
 31
0.0
  0
LINE
  5
164
  8
0
 62
     6
 10
32.603301999999999
 20
595.28766599999994
 30
0.0
 11
32.603301999999999
 21
596.28766599999994
 31
0.0
  0
LINE
  5
165
  8
0
 62
     6
 10
32.603301999999999
 20
595.28766599999994
 30
0.0
 11
32.603301999999999
 21
596.28766599999994
 31
0.0
  0
LINE
  5
166
  8
0
 62
     6
 10
32.603301999999999
 20
595.28766599999994
 30
0.0
 11
32.603301999999999
 21
596.28766599999994
 31
0.0
  0
LINE
  5
167
  8
0
 62
     6
 10
32.603301999999999
 20
480.28766599999989
 30
0.0
 11
32.603301999999999
 21
481.28766599999989
 31
0.0
  0
LINE
  5
168
  8
0
 62
     2
 10
-14.896744
 20
595.28766599999994
 30
0.0
 11
-16.396744000000002
 21
595.28766599999994
 31
0.0
  0
LINE
  5
169
  8
0
 62
     2
 10
-14.896744
 20
481.28766599999989
 30
0.0
 11
-16.396744000000002
 21
481.28766599999989
 31
0.0
  0
LINE
  5
16A
  8
0
 62
     2
 10
-14.896744
 20
594.78766599999994
 30
0.0
 11
-14.896744
 21
595.28766599999994
 31
0.0
  0
LINE
  5
16B
  8
0
 62
     2
 10
-14.896744
 20
494.78777300000002
 30
0.0
 11
-14.896744
 21
581.78766599999994
 31
0.0
  0
LINE
  5
16C
  8
0
 62
     2
 10
-14.896744
 20
481.28766599999989
 30
0.0
 11
-14.896744
 21
481.78774299999998
 31
0.0
  0
LINE
  5
16D
  8
0
 62
     2
 10
-16.396744000000002
 20
481.28766599999989
 30
0.0
 11
-16.396744000000002
 21
481.78765099999993
 31
0.0
  0
LINE
  5
16E
  8
0
 62
     2
 10
-16.396744000000002
 20
494.78765099999993
 30
0.0
 11
-16.396744000000002
 21
581.78759000000002
 31
0.0
  0
LINE
  5
16F
  8
0
 62
     2
 10
-16.396744000000002
 20
594.78759000000002
 30
0.0
 11
-16.396744000000002
 21
595.28766599999994
 31
0.0
  0
LINE
  5
170
  8
0
 62
     4
 10
-16.3965
 20
453.78761500000002
 30
0.0
 11
-16.396560999999991
 21
479.78761299999991
 31
0.0
  0
LINE
  5
171
  8
0
 62
     4
 10
-8.3965449999999997
 20
479.287666
 30
0.0
 11
-8.3965610000000002
 21
480.78765099999993
 31
0.0
  0
LINE
  5
172
  8
0
 62
     4
 10
-8.3965149999999991
 20
452.78765099999993
 30
0.0
 11
-8.3965149999999991
 21
454.28769699999998
 31
0.0
  0
LINE
  5
173
  8
0
 62
     3
 10
-16.396744000000002
 20
596.78766599999994
 30
0.0
 11
-16.396744000000002
 21
622.78766599999994
 31
0.0
  0
LINE
  5
174
  8
0
 62
     3
 10
-8.3967289999999988
 20
622.28766599999994
 30
0.0
 11
-8.3967289999999988
 21
623.78766599999994
 31
0.0
  0
LINE
  5
175
  8
0
 62
     3
 10
-8.3967289999999988
 20
595.78766600000006
 30
0.0
 11
-8.3967289999999988
 21
597.28769699999987
 31
0.0
  0
LINE
  5
176
  8
0
 62
     3
 10
19.103286999999991
 20
443.28765099999993
 30
0.0
 11
14.103286999999989
 21
443.28765099999993
 31
0.0
  0
LINE
  5
177
  8
0
 62
     3
 10
19.103286999999991
 20
423.28765199999992
 30
0.0
 11
14.103286999999989
 21
423.28765199999992
 31
0.0
  0
LINE
  5
178
  8
0
 62
     3
 10
19.103286999999991
 20
423.287666
 30
0.0
 11
19.103286999999991
 21
453.28769699999998
 31
0.0
  0
LINE
  5
179
  8
0
 62
     3
 10
14.103286999999989
 20
423.28765199999992
 30
0.0
 11
14.103286999999989
 21
453.287621
 31
0.0
  0
LINE
  5
17A
  8
0
 62
     6
 10
-4.3967439999999991
 20
479.287666
 30
0.0
 11
-5.3967130000000001
 21
479.287666
 31
0.0
  0
LINE
  5
17B
  8
0
 62
     6
 10
-5.3967130000000001
 20
479.287666
 30
0.0
 11
-8.3965449999999997
 21
479.287666
 31
0.0
  0
LINE
  5
17C
  8
0
 62
     6
 10
-4.3967439999999991
 20
454.287666
 30
0.0
 11
-8.3965149999999991
 21
454.287666
 31
0.0
  0
LINE
  5
17D
  8
0
 62
     6
 10
-5.3967130000000001
 20
597.28766599999994
 30
0.0
 11
-8.3967289999999988
 21
597.28766599999994
 31
0.0
  0
LINE
  5
17E
  8
0
 62
     6
 10
-4.3967589999999994
 20
597.28766599999994
 30
0.0
 11
-5.3967130000000001
 21
597.28766599999994
 31
0.0
  0
LINE
  5
17F
  8
0
 62
     6
 10
-4.3967589999999994
 20
622.28766599999994
 30
0.0
 11
-8.3967289999999988
 21
622.28766599999994
 31
0.0
  0
LINE
  5
180
  8
0
 62
     6
 10
-4.3967589999999994
 20
481.787666
 30
0.0
 11
-16.896758999999999
 21
481.787666
 31
0.0
  0
LINE
  5
181
  8
0
 62
     6
 10
-10.896744
 20
494.787666
 30
0.0
 11
-16.896744000000002
 21
494.787666
 31
0.0
  0
LINE
  5
182
  8
0
 62
     6
 10
-4.3967589999999994
 20
594.78766599999994
 30
0.0
 11
-16.896758999999999
 21
594.78766599999994
 31
0.0
  0
LINE
  5
183
  8
0
 62
     6
 10
-4.3967439999999991
 20
581.78766599999994
 30
0.0
 11
-16.896744000000002
 21
581.78766599999994
 31
0.0
  0
LINE
  5
184
  8
0
 62
     6
 10
-4.396895999999999
 20
578.28766599999994
 30
0.0
 11
-14.896744
 21
578.28766599999994
 31
0.0
  0
LINE
  5
185
  8
0
 62
     3
 10
-4.3968199999999991
 20
574.28766599999994
 30
0.0
 11
-10.896744
 21
574.28766599999994
 31
0.0
  0
LINE
  5
186
  8
0
 62
     6
 10
-10.896744
 20
570.28766599999994
 30
0.0
 11
-14.896744
 21
570.28766599999994
 31
0.0
  0
LINE
  5
187
  8
0
 62
     4
 10
-15.39651499999999
 20
452.78763600000002
 30
0.0
 11
-16.396515000000001
 21
453.787621
 31
0.0
  0
LINE
  5
188
  8
0
 62
     4
 10
-16.396622000000001
 20
479.78761700000001
 30
0.0
 11
-15.396637
 21
480.78763199999997
 31
0.0
  0
LINE
  5
189
  8
0
 62
     4
 10
-15.39651499999999
 20
452.78762599999999
 30
0.0
 11
-8.3965149999999991
 21
452.78764200000001
 31
0.0
  0
LINE
  5
18A
  8
0
 62
     4
 10
-15.396591000000001
 20
480.78762799999998
 30
0.0
 11
-8.3965759999999996
 21
480.78764299999989
 31
0.0
  0
LINE
  5
18B
  8
0
 62
     3
 10
-16.396758999999999
 20
622.78769699999987
 30
0.0
 11
-15.396758999999991
 21
623.78769699999998
 31
0.0
  0
LINE
  5
18C
  8
0
 62
     3
 10
-15.396805000000001
 20
595.7877269999999
 30
0.0
 11
-16.396805000000001
 21
596.78772699999979
 31
0.0
  0
LINE
  5
18D
  8
0
 62
     3
 10
-8.3967289999999988
 20
623.78766599999994
 30
0.0
 11
-15.396743999999989
 21
623.78766599999994
 31
0.0
  0
LINE
  5
18E
  8
0
 62
     3
 10
-8.3967289999999988
 20
595.78766600000006
 30
0.0
 11
-15.396743999999989
 21
595.78766600000006
 31
0.0
  0
LINE
  5
18F
  8
0
 62
     7
 10
19.103286999999991
 20
623.28766599999994
 30
0.0
 11
19.103286999999991
 21
653.28769699999998
 31
0.0
  0
LINE
  5
190
  8
0
 62
     7
 10
14.103286999999989
 20
623.28774299999998
 30
0.0
 11
14.103286999999989
 21
653.28771200000006
 31
0.0
  0
LINE
  5
191
  8
0
 62
     7
 10
19.103286999999991
 20
653.28771200000006
 30
0.0
 11
14.103286999999989
 21
653.28771200000006
 31
0.0
  0
LINE
  5
192
  8
0
 62
     7
 10
19.103286999999991
 20
633.28771200000006
 30
0.0
 11
14.103286999999989
 21
633.28771200000006
 31
0.0
  0
LINE
  5
193
  8
0
  6
DASHDOT
 62
     7
 10
28.606949
 20
643.28771200000006
 30
0.0
 11
6.2968289999999989
 21
643.28771200000006
 31
0.0
  0
LINE
  5
194
  8
0
  6
DASHDOT
 62
     7
 10
8.3483350000000005
 20
588.2876819999999
 30
0.0
 11
-32.398345999999997
 21
588.2876819999999
 31
0.0
  0
LINE
  5
195
  8
0
  6
DASHDOT
 62
     7
 10
28.606949
 20
433.28765199999998
 30
0.0
 11
6.2968289999999989
 21
433.28765199999998
 31
0.0
  0
LINE
  5
196
  8
0
  6
DASHDOT
 62
     7
 10
8.3483350000000005
 20
488.2876819999999
 30
0.0
 11
-33.052002000000002
 21
488.2876819999999
 31
0.0
  0
LINE
  5
197
  8
0
 62
     3
 10
-8.3967289999999988
 20
622.28766599999994
 30
0.0
 11
-15.396758999999991
 21
622.28766599999994
 31
0.0
  0
LINE
  5
198
  8
0
 62
     3
 10
-8.3967289999999988
 20
597.28766599999994
 30
0.0
 11
-15.396758999999991
 21
597.28766599999994
 31
0.0
  0
LINE
  5
199
  8
0
 62
     6
 10
-4.3967589999999994
 20
622.28766599999994
 30
0.0
 11
-4.3967589999999994
 21
623.28766599999994
 31
0.0
  0
LINE
  5
19A
  8
0
 62
     3
 10
-4.3967589999999994
 20
597.28766599999994
 30
0.0
 11
-4.3967589999999994
 21
622.28766599999994
 31
0.0
  0
LINE
  5
19B
  8
0
 62
     6
 10
-4.3967589999999994
 20
594.78766599999994
 30
0.0
 11
-4.3967589999999994
 21
597.28766599999994
 31
0.0
  0
LINE
  5
19C
  8
0
 62
     3
 10
-4.3967589999999994
 20
581.78766599999994
 30
0.0
 11
-4.3967589999999994
 21
594.78766599999994
 31
0.0
  0
LINE
  5
19D
  8
0
 62
     6
 10
-4.3967589999999994
 20
578.28766599999994
 30
0.0
 11
-4.3967589999999994
 21
581.78766599999994
 31
0.0
  0
LINE
  5
19E
  8
0
 62
     6
 10
-10.896744
 20
508.28765899999991
 30
0.0
 11
-10.896758999999999
 21
570.28765099999998
 31
0.0
  0
LINE
  5
19F
  8
0
 62
     3
 10
-10.896744
 20
501.28765899999991
 30
0.0
 11
-10.896744
 21
508.28765899999991
 31
0.0
  0
LINE
  5
1A0
  8
0
 62
     3
 10
-4.3967439999999991
 20
481.787666
 30
0.0
 11
-4.3967289999999988
 21
491.28753699999999
 31
0.0
  0
LINE
  5
1A1
  8
0
 62
     6
 10
-4.3967439999999991
 20
479.287666
 30
0.0
 11
-4.3967439999999991
 21
481.787666
 31
0.0
  0
LINE
  5
1A2
  8
0
 62
     3
 10
-4.3967439999999991
 20
454.287666
 30
0.0
 11
-4.3967439999999991
 21
479.287666
 31
0.0
  0
LINE
  5
1A3
  8
0
 62
     3
 10
-8.3965149999999991
 20
454.287666
 30
0.0
 11
-15.396743999999989
 21
454.287666
 31
0.0
  0
LINE
  5
1A4
  8
0
 62
     3
 10
-8.3965449999999997
 20
479.287666
 30
0.0
 11
-15.396743999999989
 21
479.287666
 31
0.0
  0
LINE
  5
1A5
  8
0
  6
DASHDOT
 62
     7
 10
-16.896758999999999
 20
594.78766599999994
 30
0.0
 11
-16.896758999999999
 21
655.96595000000002
 31
0.0
  0
LINE
  5
1A6
  8
0
 62
     7
 10
-16.896744000000002
 20
494.787666
 30
0.0
 11
-16.896744000000002
 21
581.78766599999994
 31
0.0
  0
LINE
  5
1A7
  8
0
  6
DASHDOT
 62
     7
 10
-16.896758999999999
 20
418.3546869999999
 30
0.0
 11
-16.896758999999999
 21
481.787666
 31
0.0
  0
LINE
  5
1A8
  8
0
  6
DASHDOT
 62
     7
 10
-19.896758999999989
 20
417.30136800000002
 30
0.0
 11
-19.896758999999989
 21
657.01927899999998
 31
0.0
  0
POLYLINE
  5
1A9
  8
0
 62
     3
 66
     1
 10
0.0
 20
0.0
 30
0.0
  0
VERTEX
  5
780
  8
0
 62
     3
 10
-25.600158999999991
 20
415.19472999999988
 30
0.0
  0
VERTEX
  5
781
  8
0
 62
     3
 10
-13.496551999999991
 20
419.60898800000001
 30
0.0
  0
VERTEX
  5
782
  8
0
 62
     3
 10
-13.24233999999999
 20
421.83055899999988
 30
0.0
  0
VERTEX
  5
783
  8
0
 62
     3
 10
-10.932342999999991
 20
418.41530799999992
 30
0.0
  0
VERTEX
  5
784
  8
0
 62
     3
 10
-10.678145999999989
 20
420.63687899999991
 30
0.0
  0
SEQEND
  5
785
  8
0
 62
     3
  0
POLYLINE
  5
1B0
  8
0
 62
     3
 66
     1
 10
0.0
 20
0.0
 30
0.0
  0
VERTEX
  5
786
  8
0
 62
     3
 10
-11.907012999999999
 20
649.20716100000004
 30
0.0
  0
VERTEX
  5
787
  8
0
 62
     3
 10
-23.676528999999999
 20
658.41808300000002
 30
0.0
  0
VERTEX
  5
788
  8
0
 62
     3
 10
-25.696655
 20
657.45938899999999
 30
0.0
  0
VERTEX
  5
789
  8
0
 62
     3
 10
-24.018920999999992
 20
661.22571600000003
 30
0.0
  0
VERTEX
  5
78A
  8
0
 62
     3
 10
-26.039047
 20
660.267021
 30
0.0
  0
SEQEND
  5
78B
  8
0
 62
     3
  0
CIRCLE
  5
1B7
  8
0
 62
     7
 10
0.8096159999999999
 20
598.91991399999995
 30
0.0
 40
0.25
  0
CIRCLE
  5
1B8
  8
0
 62
     7
 10
16.858924999999999
 20
627.57524899999999
 30
0.0
 40
0.25
  0
CIRCLE
  5
1B9
  8
0
 62
     7
 10
92.385207999999992
 20
604.28330199999994
 30
0.0
 40
0.25
  0
LINE
  5
1BA
  8
0
 62
     1
 10
139.60327699999991
 20
481.03124600000001
 30
0.0
 11
139.60327699999991
 21
483.03124600000001
 31
0.0
  0
LINE
  5
1BB
  8
0
 62
     1
 10
141.60327699999991
 20
481.03124600000001
 30
0.0
 11
139.60327699999991
 21
481.03124600000001
 31
0.0
  0
LINE
  5
1BC
  8
0
 62
     1
 10
139.60327699999991
 20
589.03124199999991
 30
0.0
 11
139.60327699999991
 21
591.03124200000002
 31
0.0
  0
LINE
  5
1BD
  8
0
 62
     1
 10
141.60327699999991
 20
591.03124200000002
 30
0.0
 11
139.60327699999991
 21
591.03124200000002
 31
0.0
  0
LINE
  5
1BE
  8
0
 62
     1
 10
139.60327699999991
 20
483.03124600000001
 30
0.0
 11
139.60327699999991
 21
589.03124199999991
 31
0.0
  0
LINE
  5
1BF
  8
0
 62
     1
 10
135.10327699999991
 20
604.60858899999994
 30
0.0
 11
135.10327699999991
 21
609.45389599999999
 31
0.0
  0
LINE
  5
1C0
  8
0
 62
     1
 10
135.10327699999991
 20
462.60859699999997
 30
0.0
 11
135.10327699999991
 21
467.45389599999987
 31
0.0
  0
LINE
  5
1C1
  8
0
 62
     1
 10
141.60327699999991
 20
454.5312459999999
 30
0.0
 11
141.60327699999991
 21
617.53124200000002
 31
0.0
  0
LINE
  5
1C2
  8
0
 62
     1
 10
145.10327699999991
 20
454.5312459999999
 30
0.0
 11
141.60327699999991
 21
454.5312459999999
 31
0.0
  0
LINE
  5
1C3
  8
0
 62
     1
 10
145.10327699999991
 20
454.53124200000002
 30
0.0
 11
145.10327699999991
 21
617.53124200000002
 31
0.0
  0
LINE
  5
1C4
  8
0
 62
     1
 10
145.10327699999991
 20
617.53124200000002
 30
0.0
 11
144.10327699999991
 21
617.53124200000002
 31
0.0
  0
LINE
  5
1C5
  8
0
 62
     1
 10
143.10327699999991
 20
617.53124200000002
 30
0.0
 11
141.60327699999991
 21
617.53124200000002
 31
0.0
  0
LINE
  5
1C6
  8
0
 62
     1
 10
141.60327699999991
 20
604.03124200000002
 30
0.0
 11
136.10327399999991
 21
604.03124200000002
 31
0.0
  0
LINE
  5
1C7
  8
0
 62
     1
 10
141.60327699999991
 20
610.03124200000002
 30
0.0
 11
136.10328100000001
 21
610.03124200000002
 31
0.0
  0
LINE
  5
1C8
  8
0
 62
     1
 10
136.10327699999999
 20
604.03124200000002
 30
0.0
 11
136.10327699999999
 21
604.25960499999997
 31
0.0
  0
LINE
  5
1C9
  8
0
 62
     1
 10
136.1032779999999
 20
604.03124200000002
 30
0.0
 11
135.1032779999999
 21
604.60858899999994
 31
0.0
  0
LINE
  5
1CA
  8
0
 62
     1
 10
136.10327699999999
 20
604.25960499999997
 30
0.0
 11
136.10327699999999
 21
604.90992000000006
 31
0.0
  0
LINE
  5
1CB
  8
0
 62
     1
 10
136.10327699999999
 20
604.90992000000006
 30
0.0
 11
136.10327699999999
 21
605.88320199999987
 31
0.0
  0
LINE
  5
1CC
  8
0
 62
     1
 10
136.10327699999999
 20
605.88320199999987
 30
0.0
 11
136.10327699999999
 21
607.03124200000002
 31
0.0
  0
LINE
  5
1CD
  8
0
 62
     1
 10
136.10327699999999
 20
607.03124200000002
 30
0.0
 11
136.10327699999999
 21
608.17929800000002
 31
0.0
  0
LINE
  5
1CE
  8
0
 62
     1
 10
136.10327699999999
 20
608.17929800000002
 30
0.0
 11
136.10327699999999
 21
609.15256499999998
 31
0.0
  0
LINE
  5
1CF
  8
0
 62
     1
 10
136.10327699999999
 20
609.15256499999998
 30
0.0
 11
136.10327699999999
 21
609.80287899999985
 31
0.0
  0
LINE
  5
1D0
  8
0
 62
     1
 10
136.10327699999999
 20
609.80287899999985
 30
0.0
 11
136.10327699999999
 21
610.03124200000002
 31
0.0
  0
LINE
  5
1D1
  8
0
 62
     1
 10
135.10327699999991
 20
609.45389599999999
 30
0.0
 11
136.10327699999999
 21
610.03124200000002
 31
0.0
  0
LINE
  5
1D2
  8
0
 62
     1
 10
141.60327699999991
 20
468.03124600000001
 30
0.0
 11
136.10327899999999
 21
468.03124600000001
 31
0.0
  0
LINE
  5
1D3
  8
0
 62
     1
 10
141.60327699999991
 20
462.03124600000001
 30
0.0
 11
136.10327599999999
 21
462.03124600000001
 31
0.0
  0
LINE
  5
1D4
  8
0
 62
     1
 10
135.10327699999991
 20
467.45389599999987
 30
0.0
 11
136.10327699999999
 21
468.03124600000001
 31
0.0
  0
LINE
  5
1D5
  8
0
 62
     1
 10
136.10327699999999
 20
467.80288300000001
 30
0.0
 11
136.10327699999999
 21
468.03124600000001
 31
0.0
  0
LINE
  5
1D6
  8
0
 62
     1
 10
136.10327699999999
 20
467.15256499999998
 30
0.0
 11
136.10327699999999
 21
467.80288300000001
 31
0.0
  0
LINE
  5
1D7
  8
0
 62
     1
 10
136.10327699999999
 20
466.17929800000002
 30
0.0
 11
136.10327699999999
 21
467.15256499999998
 31
0.0
  0
LINE
  5
1D8
  8
0
 62
     1
 10
136.10327699999999
 20
465.03124600000001
 30
0.0
 11
136.10327699999999
 21
466.17929800000002
 31
0.0
  0
LINE
  5
1D9
  8
0
 62
     1
 10
136.10327699999999
 20
463.88319799999999
 30
0.0
 11
136.10327699999999
 21
465.03124600000001
 31
0.0
  0
LINE
  5
1DA
  8
0
 62
     1
 10
136.10327699999999
 20
462.90992699999998
 30
0.0
 11
136.10327699999999
 21
463.88319799999999
 31
0.0
  0
LINE
  5
1DB
  8
0
 62
     1
 10
136.10327699999999
 20
462.25960900000001
 30
0.0
 11
136.10327699999999
 21
462.90992699999998
 31
0.0
  0
LINE
  5
1DC
  8
0
 62
     1
 10
136.1032779999999
 20
462.03124600000001
 30
0.0
 11
135.1032779999999
 21
462.60859699999997
 31
0.0
  0
LINE
  5
1DD
  8
0
 62
     1
 10
136.10327699999999
 20
462.03124600000001
 30
0.0
 11
136.10327699999999
 21
462.25960900000001
 31
0.0
  0
LINE
  5
1DE
  8
0
 62
     1
 10
144.10327699999991
 20
617.53124200000002
 30
0.0
 11
143.10327699999991
 21
617.53124200000002
 31
0.0
  0
LINE
  5
1DF
  8
0
 62
     7
 10
139.60327699999991
 20
426.360457
 30
0.0
 11
139.60327699999991
 21
462.03124600000001
 31
0.0
  0
LINE
  5
1E0
  8
0
 62
     7
 10
141.60327699999991
 20
425.63518299999993
 30
0.0
 11
141.60327699999991
 21
454.5312459999999
 31
0.0
  0
LINE
  5
1E1
  8
0
 62
     7
 10
139.60327699999991
 20
591.03124200000002
 30
0.0
 11
139.60327699999991
 21
604.03124200000002
 31
0.0
  0
POLYLINE
  5
1E2
  8
0
 62
     3
 66
     1
 10
0.0
 20
0.0
 30
0.0
  0
VERTEX
  5
78C
  8
0
 62
     3
 10
148.10223699999989
 20
653.8005599999999
 30
0.0
  0
VERTEX
  5
78D
  8
0
 62
     3
 10
136.837593
 20
656.98217
 30
0.0
  0
VERTEX
  5
78E
  8
0
 62
     3
 10
135.33162300000001
 20
655.32927699999993
 30
0.0
  0
VERTEX
  5
78F
  8
0
 62
     3
 10
135.45650900000001
 20
659.45049299999994
 30
0.0
  0
VERTEX
  5
790
  8
0
 62
     3
 10
133.95053899999999
 20
657.79759999999987
 30
0.0
  0
SEQEND
  5
791
  8
0
 62
     3
  0
POLYLINE
  5
1E9
  8
0
 62
     3
 66
     1
 10
0.0
 20
0.0
 30
0.0
  0
VERTEX
  5
792
  8
0
 62
     3
 10
147.83216599999989
 20
423.37635499999988
 30
0.0
  0
VERTEX
  5
793
  8
0
 62
     3
 10
135.906598
 20
427.70101199999988
 30
0.0
  0
VERTEX
  5
794
  8
0
 62
     3
 10
134.28467599999999
 20
426.16173600000002
 30
0.0
  0
VERTEX
  5
795
  8
0
 62
     3
 10
134.70823499999989
 20
430.26302800000002
 30
0.0
  0
VERTEX
  5
796
  8
0
 62
     3
 10
133.08631299999999
 20
428.72375199999988
 30
0.0
  0
SEQEND
  5
797
  8
0
 62
     3
  0
LINE
  5
1F0
  8
0
 62
     7
 10
141.60327699999991
 20
610.53124200000002
 30
0.0
 11
139.60327699999991
 21
610.53124200000002
 31
0.0
  0
LINE
  5
1F1
  8
0
 62
     7
 10
141.60327699999991
 20
603.53124200000002
 30
0.0
 11
139.60327699999991
 21
603.53124200000002
 31
0.0
  0
LINE
  5
1F2
  8
0
 62
     7
 10
141.60327699999991
 20
592.03124200000002
 30
0.0
 11
139.60327699999991
 21
592.03124200000002
 31
0.0
  0
LINE
  5
1F3
  8
0
 62
     7
 10
141.60327699999991
 20
480.0312459999999
 30
0.0
 11
139.60327699999991
 21
480.0312459999999
 31
0.0
  0
LINE
  5
1F4
  8
0
 62
     7
 10
141.60327699999991
 20
468.53124600000001
 30
0.0
 11
139.60327699999991
 21
468.53124600000001
 31
0.0
  0
LINE
  5
1F5
  8
0
 62
     7
 10
141.60327699999991
 20
461.53124600000001
 30
0.0
 11
139.60327699999991
 21
461.53124600000001
 31
0.0
  0
LINE
  5
1F6
  8
0
 62
     7
 10
139.60327699999991
 20
468.03124600000001
 30
0.0
 11
139.60327699999991
 21
481.03124600000001
 31
0.0
  0
LINE
  5
1F7
  8
0
 62
     7
 10
139.60327699999991
 20
610.03124200000002
 30
0.0
 11
139.60327699999991
 21
656.20102699999995
 31
0.0
  0
LINE
  5
1F8
  8
0
 62
     7
 10
141.60327699999991
 20
617.53124200000002
 30
0.0
 11
141.60327699999991
 21
655.63614699999994
 31
0.0
  0
LINE
  5
1F9
  8
0
 62
     7
 10
133.103286
 20
625.7876819999999
 30
0.0
 11
34.603287000000002
 21
625.7876819999999
 31
0.0
  0
LINE
  5
1FA
  8
0
 62
     7
 10
133.103286
 20
450.78769499999999
 30
0.0
 11
34.603287000000002
 21
450.78769499999999
 31
0.0
  0
LINE
  5
1FB
  8
0
 62
     7
 10
134.103286
 20
451.78769499999999
 30
0.0
 11
134.103286
 21
477.03772400000003
 31
0.0
  0
LINE
  5
1FC
  8
0
 62
     7
 10
134.103286
 20
600.03768200000002
 30
0.0
 11
134.103286
 21
624.78768200000002
 31
0.0
  0
LINE
  5
1FD
  8
0
 62
     7
 10
133.103286
 20
599.03768200000002
 30
0.0
 11
133.103286
 21
600.03768200000002
 31
0.0
  0
LINE
  5
1FE
  8
0
 62
     7
 10
134.103286
 20
600.03768200000002
 30
0.0
 11
133.103286
 21
600.03768200000002
 31
0.0
  0
LINE
  5
1FF
  8
0
 62
     7
 10
134.103286
 20
477.03772400000003
 30
0.0
 11
133.103286
 21
477.03772400000003
 31
0.0
  0
LINE
  5
200
  8
0
 62
     7
 10
133.103286
 20
477.03772400000003
 30
0.0
 11
133.103286
 21
478.03772399999991
 31
0.0
  0
ARC
  5
201
  8
0
 62
     7
 10
133.103286
 20
451.78769499999999
 30
0.0
 40
1.0
 50
270.00000499999987
 51
0.000001
  0
ARC
  5
202
  8
0
 62
     7
 10
133.103286
 20
624.78768200000002
 30
0.0
 40
1.0
 50
0.000001
 51
90.000010000000003
  0
LINE
  5
203
  8
0
  6
DASHDOT
 62
     7
 10
190.74602899999991
 20
536.0376819999999
 30
0.0
 11
-37.396056999999999
 21
536.0376819999999
 31
0.0
  0
LINE
  5
204
  8
0
 62
     7
 10
-23.096755999999989
 20
584.38768800000003
 30
0.0
 11
-23.096755999999989
 21
592.18767500000001
 31
0.0
  0
LINE
  5
205
  8
0
 62
     7
 10
-26.296752999999999
 20
586.28768200000002
 30
0.0
 11
-26.296752999999999
 21
590.28768200000002
 31
0.0
  0
LINE
  5
206
  8
0
 62
     7
 10
-19.896758999999989
 20
592.18767500000001
 30
0.0
 11
-23.096755999999989
 21
592.18767500000001
 31
0.0
  0
LINE
  5
207
  8
0
 62
     7
 10
-19.896758999999989
 20
584.38768800000003
 30
0.0
 11
-23.096755999999989
 21
584.38768800000003
 31
0.0
  0
LINE
  5
208
  8
0
 62
     7
 10
-19.896758999999989
 20
590.28768200000002
 30
0.0
 11
-26.296752999999999
 21
590.28768200000002
 31
0.0
  0
LINE
  5
209
  8
0
 62
     7
 10
-19.896758999999989
 20
586.28768200000002
 30
0.0
 11
-26.296752999999999
 21
586.28768200000002
 31
0.0
  0
LINE
  5
20A
  8
0
 62
     7
 10
-19.896758999999989
 20
492.18768299999999
 30
0.0
 11
-23.096755999999989
 21
492.18768299999999
 31
0.0
  0
LINE
  5
20B
  8
0
 62
     7
 10
-19.896758999999989
 20
490.28768200000002
 30
0.0
 11
-26.296752999999999
 21
490.28768200000002
 31
0.0
  0
LINE
  5
20C
  8
0
 62
     7
 10
-19.896758999999989
 20
486.28768200000002
 30
0.0
 11
-26.296752999999999
 21
486.28768200000002
 31
0.0
  0
LINE
  5
20D
  8
0
 62
     7
 10
-19.896758999999989
 20
484.38767999999999
 30
0.0
 11
-23.096755999999989
 21
484.38767999999999
 31
0.0
  0
LINE
  5
20E
  8
0
 62
     7
 10
-23.096755999999989
 20
484.38767999999999
 30
0.0
 11
-23.096755999999989
 21
492.18768299999999
 31
0.0
  0
LINE
  5
20F
  8
0
 62
     7
 10
-26.296752999999999
 20
486.28768200000002
 30
0.0
 11
-26.296752999999999
 21
490.28768200000002
 31
0.0
  0
CIRCLE
  5
210
  8
0
 62
     7
 10
-21.58331299999999
 20
487.88120599999991
 30
0.0
 40
0.2
  0
CIRCLE
  5
211
  8
0
 62
     7
 10
-108.5790409999999
 20
600.22096999999985
 30
0.0
 40
0.2
  0
LINE
  5
212
  8
0
 62
     7
 10
187.05506899999989
 20
483.53768200000002
 30
0.0
 11
188.09693899999991
 21
489.446529
 31
0.0
  0
LINE
  5
213
  8
0
 62
     7
 10
187.05506899999989
 20
483.53768200000002
 30
0.0
 11
186.013138
 21
489.446529
 31
0.0
  0
LINE
  5
214
  8
0
 62
     7
 10
187.05506899999989
 20
588.53768200000002
 30
0.0
 11
186.01319899999999
 21
582.62883799999997
 31
0.0
  0
LINE
  5
215
  8
0
 62
     7
 10
187.05506899999989
 20
588.53768200000002
 30
0.0
 11
188.09693899999991
 21
582.62883799999997
 31
0.0
  0
LINE
  5
216
  8
0
 62
     7
 10
187.05506899999989
 20
483.53768200000002
 30
0.0
 11
187.05506899999989
 21
588.53768200000002
 31
0.0
  0
LINE
  5
217
  8
0
 62
     7
 10
191.05506899999989
 20
483.53768200000002
 30
0.0
 11
139.60328699999999
 21
483.53767800000003
 31
0.0
  0
LINE
  5
218
  8
0
 62
     7
 10
191.05506899999989
 20
588.53768200000002
 30
0.0
 11
139.60328699999999
 21
588.53768200000002
 31
0.0
  0
LINE
  5
219
  8
0
 62
     7
 10
19.103286999999991
 20
683.088707
 30
0.0
 11
25.012160999999999
 21
682.04682200000002
 31
0.0
  0
LINE
  5
21A
  8
0
 62
     7
 10
19.103286999999991
 20
683.088707
 30
0.0
 11
25.012160999999999
 21
684.1305769999999
 31
0.0
  0
LINE
  5
21B
  8
0
 62
     7
 10
14.103286999999989
 20
683.088707
 30
0.0
 11
8.1944119999999998
 21
684.1305769999999
 31
0.0
  0
LINE
  5
21C
  8
0
 62
     7
 10
14.103286999999989
 20
683.088707
 30
0.0
 11
8.1944119999999998
 21
682.04682200000002
 31
0.0
  0
LINE
  5
21D
  8
0
 62
     7
 10
-16.896774000000001
 20
683.088707
 30
0.0
 11
-10.987899999999989
 21
682.04682200000002
 31
0.0
  0
LINE
  5
21E
  8
0
 62
     7
 10
-16.896774000000001
 20
683.088707
 30
0.0
 11
-10.987899999999989
 21
684.1305769999999
 31
0.0
  0
LINE
  5
21F
  8
0
 62
     7
 10
-19.896774000000001
 20
683.088707
 30
0.0
 11
-25.805588
 21
684.1305769999999
 31
0.0
  0
LINE
  5
220
  8
0
 62
     7
 10
-19.896774000000001
 20
683.088707
 30
0.0
 11
-25.805588
 21
682.04682200000002
 31
0.0
  0
LINE
  5
221
  8
0
 62
     7
 10
30.603286999999991
 20
683.088707
 30
0.0
 11
-36.896774000000001
 21
683.088707
 31
0.0
  0
LINE
  5
222
  8
0
 62
     7
 10
19.103286999999991
 20
687.088707
 30
0.0
 11
19.103286999999991
 21
653.28748299999995
 31
0.0
  0
LINE
  5
223
  8
0
 62
     7
 10
14.103286999999989
 20
687.088707
 30
0.0
 11
14.103286999999989
 21
653.28748299999995
 31
0.0
  0
LINE
  5
224
  8
0
 62
     7
 10
-16.896774000000001
 20
687.088707
 30
0.0
 11
-16.896774000000001
 21
655.96575199999995
 31
0.0
  0
LINE
  5
225
  8
0
 62
     7
 10
-19.896774000000001
 20
687.088707
 30
0.0
 11
-19.896774000000001
 21
657.01906599999995
 31
0.0
  0
LINE
  5
226
  8
0
 62
     7
 10
136.10462999999999
 20
391.61409800000001
 30
0.0
 11
130.19575499999999
 21
392.65598299999999
 31
0.0
  0
LINE
  5
227
  8
0
 62
     7
 10
136.10462999999999
 20
391.61409800000001
 30
0.0
 11
130.19575499999999
 21
390.57220499999988
 31
0.0
  0
LINE
  5
228
  8
0
 62
     7
 10
-16.896774000000001
 20
391.61414300000001
 30
0.0
 11
-10.987899999999989
 21
390.57225799999998
 31
0.0
  0
LINE
  5
229
  8
0
 62
     7
 10
-16.896774000000001
 20
391.61414300000001
 30
0.0
 11
-10.987899999999989
 21
392.65603599999992
 31
0.0
  0
LINE
  5
22A
  8
0
 62
     7
 10
136.10462999999999
 20
391.61409800000001
 30
0.0
 11
-16.896712999999998
 21
391.61414300000001
 31
0.0
  0
LINE
  5
22B
  8
0
 62
     7
 10
136.10462999999999
 20
387.61409800000001
 30
0.0
 11
136.10462999999999
 21
483.53767399999998
 31
0.0
  0
LINE
  5
22C
  8
0
 62
     7
 10
-16.896774000000001
 20
387.61414300000001
 30
0.0
 11
-16.896712999999998
 21
418.35474399999993
 31
0.0
  0
LINE
  5
22D
  8
0
 62
     7
 10
167.64833100000001
 20
347.69452699999988
 30
0.0
 11
161.73951699999989
 21
348.73641199999997
 31
0.0
  0
LINE
  5
22E
  8
0
 62
     7
 10
167.64833100000001
 20
347.69452699999988
 30
0.0
 11
161.73951699999989
 21
346.65264100000002
 31
0.0
  0
LINE
  5
22F
  8
0
 62
     7
 10
-16.896774000000001
 20
347.69458800000001
 30
0.0
 11
-10.987899999999989
 21
346.65270199999998
 31
0.0
  0
LINE
  5
230
  8
0
 62
     7
 10
-16.896774000000001
 20
347.69458800000001
 30
0.0
 11
-10.987899999999989
 21
348.73647299999988
 31
0.0
  0
LINE
  5
231
  8
0
 62
     7
 10
167.64833100000001
 20
347.69452699999988
 30
0.0
 11
-16.896774000000001
 21
347.69458800000001
 31
0.0
  0
LINE
  5
232
  8
0
 62
     7
 10
167.64833100000001
 20
343.69452699999988
 30
0.0
 11
167.648392
 21
525.7876819999999
 31
0.0
  0
LINE
  5
233
  8
0
 62
     7
 10
-16.896774000000001
 20
343.69458800000001
 30
0.0
 11
-16.896712999999998
 21
418.35474399999993
 31
0.0
  0
LINE
  5
234
  8
0
 62
     7
 10
141.60328699999999
 20
370.08824199999992
 30
0.0
 11
147.5121
 21
369.04635599999989
 31
0.0
  0
LINE
  5
235
  8
0
 62
     7
 10
141.60328699999999
 20
370.08824199999992
 30
0.0
 11
147.5121
 21
371.13013499999988
 31
0.0
  0
LINE
  5
236
  8
0
 62
     7
 10
139.60328699999999
 20
370.08824199999992
 30
0.0
 11
133.694412
 21
371.13012700000002
 31
0.0
  0
LINE
  5
237
  8
0
 62
     7
 10
139.60328699999999
 20
370.08824199999992
 30
0.0
 11
133.694412
 21
369.04634900000002
 31
0.0
  0
LINE
  5
238
  8
0
 62
     7
 10
-16.896774000000001
 20
370.088234
 30
0.0
 11
-10.987899999999989
 21
369.04634900000002
 31
0.0
  0
LINE
  5
239
  8
0
 62
     7
 10
-16.896774000000001
 20
370.088234
 30
0.0
 11
-10.987899999999989
 21
371.13012700000002
 31
0.0
  0
LINE
  5
23A
  8
0
 62
     7
 10
153.10328699999999
 20
370.08824199999992
 30
0.0
 11
-16.896774000000001
 21
370.088234
 31
0.0
  0
LINE
  5
23B
  8
0
 62
     7
 10
141.60328699999999
 20
366.08824199999998
 30
0.0
 11
141.60328699999999
 21
425.63518099999987
 31
0.0
  0
LINE
  5
23C
  8
0
 62
     7
 10
139.60328699999999
 20
366.08824199999998
 30
0.0
 11
139.60328699999999
 21
426.360455
 31
0.0
  0
LINE
  5
23D
  8
0
 62
     7
 10
-16.896774000000001
 20
366.088234
 30
0.0
 11
-16.896774000000001
 21
418.35468300000002
 31
0.0
  0
LINE
  5
23E
  8
0
 62
     7
 10
-258.44082200000003
 20
456.087673
 30
0.0
 11
-258.44082200000003
 21
620.48767099999986
 31
0.0
  0
LINE
  5
23F
  8
0
 62
     3
 10
-118.94078999999989
 20
588.53767400000004
 30
0.0
 11
-222.94078200000001
 21
588.53767400000004
 31
0.0
  0
LINE
  5
240
  8
0
 62
     3
 10
-118.94078999999989
 20
483.53769699999992
 30
0.0
 11
-132.44078999999991
 21
483.53769699999992
 31
0.0
  0
LINE
  5
241
  8
0
 62
     3
 10
-143.94078999999991
 20
483.53769699999992
 30
0.0
 11
-168.491502
 21
483.53769699999992
 31
0.0
  0
LINE
  5
242
  8
0
 62
     3
 10
-209.44078200000001
 20
483.53769699999992
 30
0.0
 11
-222.94078200000001
 21
483.53769699999992
 31
0.0
  0
LINE
  5
243
  8
0
 62
     3
 10
-197.94078200000001
 20
483.53769699999992
 30
0.0
 11
-209.44078200000001
 21
483.53769699999992
 31
0.0
  0
LINE
  5
244
  8
0
 62
     3
 10
-132.44078999999991
 20
483.53769699999992
 30
0.0
 11
-143.94078999999991
 21
483.53769699999992
 31
0.0
  0
LINE
  5
245
  8
0
  6
DASHDOT
 62
     7
 10
-170.94078200000001
 20
376.74858499999988
 30
0.0
 11
-170.94078200000001
 21
701.30615199999988
 31
0.0
  0
ARC
  5
246
  8
0
 62
     3
 10
-222.94078200000001
 20
484.03769699999998
 30
0.0
 40
0.5
 50
180.00000299999991
 51
270.00000499999987
  0
ARC
  5
247
  8
0
 62
     3
 10
-222.94078200000001
 20
588.03767400000004
 30
0.0
 40
0.5
 50
90.0
 51
180.00000299999991
  0
ARC
  5
248
  8
0
 62
     3
 10
-118.94078999999989
 20
588.03767400000004
 30
0.0
 40
0.5
 50
0.000001
 51
90.0
  0
ARC
  5
249
  8
0
 62
     3
 10
-118.94078999999989
 20
484.03769699999998
 30
0.0
 40
0.5
 50
270.00000499999987
 51
0.000001
  0
LINE
  5
24A
  8
0
 62
     3
 10
-173.39023
 20
483.53769699999992
 30
0.0
 11
-197.94078200000001
 21
483.53769699999992
 31
0.0
  0
LINE
  5
24B
  8
0
 62
     7
 10
-198.440797
 20
483.53768200000002
 30
0.0
 11
-208.44078200000001
 21
483.53768200000002
 31
0.0
  0
LINE
  5
24C
  8
0
 62
     7
 10
-133.44080500000001
 20
483.53768200000002
 30
0.0
 11
-143.44080500000001
 21
483.53768200000002
 31
0.0
  0
LINE
  5
24D
  8
0
 62
     7
 10
-223.4407819999999
 20
484.03768200000002
 30
0.0
 11
-223.4407819999999
 21
502.037666
 31
0.0
  0
LINE
  5
24E
  8
0
 62
     7
 10
-118.940774
 20
588.53767400000004
 30
0.0
 11
-222.94078200000001
 21
588.53767400000004
 31
0.0
  0
LINE
  5
24F
  8
0
 62
     7
 10
-208.44078200000001
 20
483.53768200000002
 30
0.0
 11
-222.94078200000001
 21
483.53768200000002
 31
0.0
  0
LINE
  5
250
  8
0
 62
     7
 10
-143.44080500000001
 20
483.53768200000002
 30
0.0
 11
-198.440797
 21
483.53768200000002
 31
0.0
  0
LINE
  5
251
  8
0
 62
     7
 10
-118.940774
 20
483.53768200000002
 30
0.0
 11
-133.44080500000001
 21
483.53768200000002
 31
0.0
  0
LINE
  5
252
  8
0
 62
     7
 10
-160.19078200000001
 20
505.78766599999989
 30
0.0
 11
-160.19078200000001
 21
545.78765099999998
 31
0.0
  0
LINE
  5
253
  8
0
 62
     7
 10
-181.69078200000001
 20
505.78766599999989
 30
0.0
 11
-181.69078200000001
 21
545.78765099999998
 31
0.0
  0
LINE
  5
254
  8
0
 62
     7
 10
-118.440774
 20
576.53764299999989
 30
0.0
 11
-223.4407819999999
 21
576.53764299999989
 31
0.0
  0
LINE
  5
255
  8
0
 62
     7
 10
-118.440774
 20
586.537643
 30
0.0
 11
-223.4407819999999
 21
586.537643
 31
0.0
  0
LINE
  5
256
  8
0
 62
     7
 10
-160.19078200000001
 20
545.52318600000001
 30
0.0
 11
-181.69078200000001
 21
545.52318600000001
 31
0.0
  0
LINE
  5
257
  8
0
 62
     7
 10
-160.19078200000001
 20
545.78765099999998
 30
0.0
 11
-181.69078200000001
 21
545.78765099999998
 31
0.0
  0
LINE
  5
258
  8
0
 62
     7
 10
-160.19078200000001
 20
505.78766599999989
 30
0.0
 11
-181.69078200000001
 21
505.78766599999989
 31
0.0
  0
LINE
  5
259
  8
0
 62
     7
 10
-160.19078200000001
 20
506.05216200000001
 30
0.0
 11
-181.69078200000001
 21
506.05216200000001
 31
0.0
  0
LINE
  5
25A
  8
0
 62
     7
 10
-118.44078999999989
 20
503.03766599999989
 30
0.0
 11
-118.44078999999989
 21
515.03765899999985
 31
0.0
  0
LINE
  5
25B
  8
0
 62
     7
 10
-118.44078999999989
 20
516.03765899999985
 30
0.0
 11
-118.44078999999989
 21
535.53766600000006
 31
0.0
  0
LINE
  5
25C
  8
0
 62
     7
 10
-118.44078999999989
 20
536.53766599999994
 30
0.0
 11
-118.44078999999989
 21
548.53766599999994
 31
0.0
  0
LINE
  5
25D
  8
0
 62
     7
 10
-223.4407819999999
 20
503.03766599999989
 30
0.0
 11
-223.4407819999999
 21
515.03766599999994
 31
0.0
  0
LINE
  5
25E
  8
0
 62
     7
 10
-223.4407819999999
 20
516.03766599999994
 30
0.0
 11
-223.4407819999999
 21
535.53766600000006
 31
0.0
  0
LINE
  5
25F
  8
0
 62
     7
 10
-223.4407819999999
 20
536.53766599999994
 30
0.0
 11
-223.4407819999999
 21
548.53766599999994
 31
0.0
  0
LINE
  5
260
  8
0
 62
     7
 10
-223.4407819999999
 20
484.03768200000002
 30
0.0
 11
-223.4407819999999
 21
588.03767400000004
 31
0.0
  0
ARC
  5
261
  8
0
 62
     7
 10
-222.94078200000001
 20
484.03768200000002
 30
0.0
 40
0.5
 50
180.00000299999991
 51
270.00000499999987
  0
ARC
  5
262
  8
0
 62
     7
 10
-118.940774
 20
484.03768200000002
 30
0.0
 40
0.5
 50
270.00000499999987
 51
359.52399100000002
  0
ARC
  5
263
  8
0
 62
     7
 10
-118.940774
 20
588.03767400000004
 30
0.0
 40
0.5
 50
0.000001
 51
90.0
  0
ARC
  5
264
  8
0
 62
     7
 10
-222.94078200000001
 20
588.03767400000004
 30
0.0
 40
0.5
 50
90.0
 51
180.00000299999991
  0
LINE
  5
265
  8
0
 62
     7
 10
-193.44078200000001
 20
547.03766599999994
 30
0.0
 11
-194.94078200000001
 21
547.03766599999994
 31
0.0
  0
LINE
  5
266
  8
0
 62
     7
 10
-193.44078200000001
 20
538.03766599999994
 30
0.0
 11
-194.94078200000001
 21
538.03766599999994
 31
0.0
  0
CIRCLE
  5
267
  8
0
 62
     7
 10
-194.19078200000001
 20
509.037666
 30
0.0
 40
4.5
  0
CIRCLE
  5
268
  8
0
 62
     7
 10
-194.19078200000001
 20
509.037666
 30
0.0
 40
3.0
  0
LINE
  5
269
  8
0
 62
     7
 10
-194.94078200000001
 20
538.03766599999994
 30
0.0
 11
-194.94078200000001
 21
547.03766599999994
 31
0.0
  0
LINE
  5
26A
  8
0
 62
     7
 10
-193.44078200000001
 20
538.03766599999994
 30
0.0
 11
-193.44078200000001
 21
547.03766599999994
 31
0.0
  0
LINE
  5
26B
  8
0
 62
     7
 10
-145.39078699999999
 20
512.88766500000008
 30
0.0
 11
-145.84078400000001
 21
512.88766500000008
 31
0.0
  0
LINE
  5
26C
  8
0
 62
     7
 10
-146.34078400000001
 20
505.18766799999992
 30
0.0
 11
-147.14078699999999
 21
505.18766799999992
 31
0.0
  0
LINE
  5
26D
  8
0
 62
     7
 10
-153.540796
 20
507.787666
 30
0.0
 11
-153.540796
 21
508.287666
 31
0.0
  0
LINE
  5
26E
  8
0
 62
     7
 10
-148.34078400000001
 20
507.787666
 30
0.0
 11
-148.34078400000001
 21
508.287666
 31
0.0
  0
ARC
  5
26F
  8
0
 62
     7
 10
-150.94078999999999
 20
508.287666
 30
0.0
 40
2.6000000000000001
 50
0.000001
 51
180.00000299999991
  0
ARC
  5
270
  8
0
 62
     7
 10
-150.94078999999999
 20
507.787666
 30
0.0
 40
2.6000000000000001
 50
180.00000299999991
 51
0.000001
  0
ARC
  5
271
  8
0
 62
     7
 10
-150.94078999999999
 20
508.287666
 30
0.0
 40
1.8
 50
0.000001
 51
180.00000299999991
  0
ARC
  5
272
  8
0
 62
     7
 10
-150.94078999999999
 20
507.787666
 30
0.0
 40
1.8
 50
180.00000299999991
 51
0.000001
  0
LINE
  5
273
  8
0
 62
     7
 10
-152.740793
 20
507.787666
 30
0.0
 11
-152.740793
 21
508.287666
 31
0.0
  0
LINE
  5
274
  8
0
 62
     7
 10
-149.14078699999999
 20
507.787666
 30
0.0
 11
-149.14078699999999
 21
508.287666
 31
0.0
  0
LINE
  5
275
  8
0
 62
     7
 10
-148.09078400000001
 20
509.68766799999997
 30
0.0
 11
-148.09078400000001
 21
510.48766299999988
 31
0.0
  0
LINE
  5
276
  8
0
 62
     7
 10
-147.14078699999999
 20
509.68766799999997
 30
0.0
 11
-148.09078400000001
 21
509.68766799999997
 31
0.0
  0
LINE
  5
277
  8
0
 62
     7
 10
-145.39078699999999
 20
509.68766799999997
 30
0.0
 11
-145.39078699999999
 21
510.48766299999988
 31
0.0
  0
LINE
  5
278
  8
0
 62
     7
 10
-147.14078699999999
 20
510.48766299999988
 30
0.0
 11
-148.09078400000001
 21
510.48766299999988
 31
0.0
  0
LINE
  5
279
  8
0
 62
     7
 10
-147.14078699999999
 20
505.18766799999992
 30
0.0
 11
-147.14078699999999
 21
509.68766799999997
 31
0.0
  0
LINE
  5
27A
  8
0
 62
     7
 10
-146.34078400000001
 20
505.18766799999992
 30
0.0
 11
-146.34078400000001
 21
509.68766799999997
 31
0.0
  0
LINE
  5
27B
  8
0
 62
     7
 10
-145.39078699999999
 20
509.68766799999997
 30
0.0
 11
-146.34078400000001
 21
509.68766799999997
 31
0.0
  0
LINE
  5
27C
  8
0
 62
     7
 10
-145.39078699999999
 20
510.48766299999988
 30
0.0
 11
-146.34078400000001
 21
510.48766299999988
 31
0.0
  0
LINE
  5
27D
  8
0
 62
     7
 10
-147.14078699999999
 20
510.48766299999988
 30
0.0
 11
-147.14078699999999
 21
511.58766900000001
 31
0.0
  0
LINE
  5
27E
  8
0
 62
     7
 10
-146.34078400000001
 20
510.48766299999988
 30
0.0
 11
-146.34078400000001
 21
511.58766900000001
 31
0.0
  0
ARC
  5
27F
  8
0
 62
     7
 10
-145.84078400000001
 20
511.58766900000001
 30
0.0
 40
1.3
 50
90.0
 51
180.00000299999991
  0
ARC
  5
280
  8
0
 62
     7
 10
-145.84078400000001
 20
511.58766900000001
 30
0.0
 40
0.5
 50
90.0
 51
180.00000299999991
  0
LINE
  5
281
  8
0
 62
     7
 10
-145.39078699999999
 20
512.08766900000001
 30
0.0
 11
-145.39078699999999
 21
512.88766500000008
 31
0.0
  0
LINE
  5
282
  8
0
 62
     7
 10
-145.39078699999999
 20
512.08766900000001
 30
0.0
 11
-145.84078400000001
 21
512.08766900000001
 31
0.0
  0
LINE
  5
283
  8
0
 62
     7
 10
-142.19078999999991
 20
512.88766500000008
 30
0.0
 11
-142.64078699999999
 21
512.88766500000008
 31
0.0
  0
LINE
  5
284
  8
0
 62
     7
 10
-143.14078699999999
 20
505.18766799999992
 30
0.0
 11
-143.94078999999991
 21
505.18766799999992
 31
0.0
  0
LINE
  5
285
  8
0
 62
     7
 10
-144.89078699999999
 20
509.68766799999997
 30
0.0
 11
-144.89078699999999
 21
510.48766299999988
 31
0.0
  0
LINE
  5
286
  8
0
 62
     7
 10
-143.94078999999991
 20
509.68766799999997
 30
0.0
 11
-144.89078699999999
 21
509.68766799999997
 31
0.0
  0
LINE
  5
287
  8
0
 62
     7
 10
-142.19078999999991
 20
509.68766799999997
 30
0.0
 11
-142.19078999999991
 21
510.48766299999988
 31
0.0
  0
LINE
  5
288
  8
0
 62
     7
 10
-143.94078999999991
 20
510.48766299999988
 30
0.0
 11
-144.89078699999999
 21
510.48766299999988
 31
0.0
  0
LINE
  5
289
  8
0
 62
     7
 10
-143.94078999999991
 20
505.18766799999992
 30
0.0
 11
-143.94078999999991
 21
509.68766799999997
 31
0.0
  0
LINE
  5
28A
  8
0
 62
     7
 10
-143.14078699999999
 20
505.18766799999992
 30
0.0
 11
-143.14078699999999
 21
509.68766799999997
 31
0.0
  0
LINE
  5
28B
  8
0
 62
     7
 10
-142.19078999999991
 20
509.68766799999997
 30
0.0
 11
-143.14078699999999
 21
509.68766799999997
 31
0.0
  0
LINE
  5
28C
  8
0
 62
     7
 10
-142.19078999999991
 20
510.48766299999988
 30
0.0
 11
-143.14078699999999
 21
510.48766299999988
 31
0.0
  0
LINE
  5
28D
  8
0
 62
     7
 10
-143.94078999999991
 20
510.48766299999988
 30
0.0
 11
-143.94078999999991
 21
511.58766900000001
 31
0.0
  0
LINE
  5
28E
  8
0
 62
     7
 10
-143.14078699999999
 20
510.48766299999988
 30
0.0
 11
-143.14078699999999
 21
511.58766900000001
 31
0.0
  0
ARC
  5
28F
  8
0
 62
     7
 10
-142.64078699999999
 20
511.58766900000001
 30
0.0
 40
1.3
 50
90.0
 51
180.00000299999991
  0
ARC
  5
290
  8
0
 62
     7
 10
-142.64078699999999
 20
511.58766900000001
 30
0.0
 40
0.5
 50
90.0
 51
180.00000299999991
  0
LINE
  5
291
  8
0
 62
     7
 10
-142.19078999999991
 20
512.08766900000001
 30
0.0
 11
-142.19078999999991
 21
512.88766500000008
 31
0.0
  0
LINE
  5
292
  8
0
 62
     7
 10
-142.19078999999991
 20
512.08766900000001
 30
0.0
 11
-142.64078699999999
 21
512.08766900000001
 31
0.0
  0
LINE
  5
293
  8
0
 62
     7
 10
-146.740793
 20
539.68766799999992
 30
0.0
 11
-147.540796
 21
539.68766799999992
 31
0.0
  0
ARC
  5
294
  8
0
 62
     7
 10
-150.94078999999999
 20
542.78766599999994
 30
0.0
 40
2.6000000000000001
 50
0.000001
 51
180.00000299999991
  0
ARC
  5
295
  8
0
 62
     7
 10
-150.94078999999999
 20
542.78766599999994
 30
0.0
 40
1.8
 50
0.000001
 51
180.00000299999991
  0
ARC
  5
296
  8
0
 62
     7
 10
-150.94078999999999
 20
542.28766599999994
 30
0.0
 40
2.6000000000000001
 50
180.00000299999991
 51
0.000001
  0
ARC
  5
297
  8
0
 62
     7
 10
-150.94078999999999
 20
542.28766599999994
 30
0.0
 40
1.8
 50
180.00000299999991
 51
0.000001
  0
LINE
  5
298
  8
0
 62
     7
 10
-149.14078699999999
 20
542.28766599999994
 30
0.0
 11
-149.14078699999999
 21
542.78766599999994
 31
0.0
  0
LINE
  5
299
  8
0
 62
     7
 10
-148.34078400000001
 20
542.28766599999994
 30
0.0
 11
-148.34078400000001
 21
542.78766599999994
 31
0.0
  0
LINE
  5
29A
  8
0
 62
     7
 10
-152.740793
 20
542.28766599999994
 30
0.0
 11
-152.740793
 21
542.78766599999994
 31
0.0
  0
LINE
  5
29B
  8
0
 62
     7
 10
-153.540796
 20
542.28766599999994
 30
0.0
 11
-153.540796
 21
542.78766599999994
 31
0.0
  0
LINE
  5
29C
  8
0
 62
     7
 10
-147.540796
 20
539.68766799999992
 30
0.0
 11
-147.540796
 21
545.38766499999997
 31
0.0
  0
LINE
  5
29D
  8
0
 62
     7
 10
-146.740793
 20
539.68766799999992
 30
0.0
 11
-146.740793
 21
543.18766799999992
 31
0.0
  0
LINE
  5
29E
  8
0
 62
     7
 10
-143.94078999999991
 20
539.68766799999992
 30
0.0
 11
-143.94078999999991
 21
543.18766799999992
 31
0.0
  0
LINE
  5
29F
  8
0
 62
     7
 10
-143.14078699999999
 20
539.68766799999992
 30
0.0
 11
-143.14078699999999
 21
543.38766500000008
 31
0.0
  0
LINE
  5
2A0
  8
0
 62
     7
 10
-146.740793
 20
545.38766499999997
 30
0.0
 11
-147.540796
 21
545.38766499999997
 31
0.0
  0
ARC
  5
2A1
  8
0
 62
     7
 10
-145.34078400000001
 20
543.18766799999992
 30
0.0
 40
1.399999999999999
 50
0.000001
 51
180.00000299999991
  0
LINE
  5
2A2
  8
0
 62
     7
 10
-146.740793
 20
544.58766900000001
 30
0.0
 11
-146.740793
 21
545.38766499999997
 31
0.0
  0
ARC
  5
2A3
  8
0
 62
     7
 10
-145.14078699999999
 20
543.38766500000008
 30
0.0
 40
2.0
 50
0.000001
 51
143.13010199999999
  0
LINE
  5
2A4
  8
0
 62
     7
 10
-143.14078699999999
 20
539.68766799999992
 30
0.0
 11
-143.94078999999991
 21
539.68766799999992
 31
0.0
  0
LINE
  5
2A5
  8
0
 62
     7
 10
-160.19078200000001
 20
519.91298700000004
 30
0.0
 11
-181.69078200000001
 21
519.91298700000004
 31
0.0
  0
LINE
  5
2A6
  8
0
 62
     7
 10
-160.19078200000001
 20
513.79652399999986
 30
0.0
 11
-181.69078200000001
 21
513.79652399999986
 31
0.0
  0
LINE
  5
2A7
  8
0
 62
     7
 10
-160.19078200000001
 20
507.84870099999989
 30
0.0
 11
-181.69078200000001
 21
507.84870099999989
 31
0.0
  0
LINE
  5
2A8
  8
0
 62
     7
 10
-160.19078200000001
 20
507.04595899999993
 30
0.0
 11
-181.69078200000001
 21
507.04595899999993
 31
0.0
  0
LINE
  5
2A9
  8
0
 62
     7
 10
-229.4407819999999
 20
588.53767400000004
 30
0.0
 11
-258.44082200000003
 21
588.53767400000004
 31
0.0
  0
LINE
  5
2AA
  8
0
 62
     7
 10
-229.4407819999999
 20
483.53768200000002
 30
0.0
 11
-258.44082200000003
 21
483.53768200000002
 31
0.0
  0
LINE
  5
2AB
  8
0
 62
     3
 10
-145.94078999999991
 20
443.28765899999991
 30
0.0
 11
-145.94078999999991
 21
450.78767399999998
 31
0.0
  0
LINE
  5
2AC
  8
0
 62
     3
 10
-144.69078999999999
 20
443.28765899999991
 30
0.0
 11
-145.94078999999991
 21
443.28765899999991
 31
0.0
  0
LINE
  5
2AD
  8
0
 62
     3
 10
-144.69078999999999
 20
423.2876599999999
 30
0.0
 11
-144.69078999999999
 21
443.28764299999989
 31
0.0
  0
LINE
  5
2AE
  8
0
 62
     3
 10
-127.19078999999989
 20
423.2876599999999
 30
0.0
 11
-144.69078999999999
 21
423.2876599999999
 31
0.0
  0
LINE
  5
2AF
  8
0
 62
     3
 10
-127.19078999999989
 20
423.2876599999999
 30
0.0
 11
-127.19078999999989
 21
443.28764299999989
 31
0.0
  0
LINE
  5
2B0
  8
0
 62
     3
 10
-125.94079000000001
 20
443.28765899999991
 30
0.0
 11
-127.19078999999989
 21
443.28765899999991
 31
0.0
  0
LINE
  5
2B1
  8
0
 62
     3
 10
-125.94079000000001
 20
443.28765899999991
 30
0.0
 11
-125.94079000000001
 21
450.78767399999998
 31
0.0
  0
LINE
  5
2B2
  8
0
 62
     7
 10
-180.94078999999999
 20
443.28765899999991
 30
0.0
 11
-180.94078999999999
 21
450.78767399999998
 31
0.0
  0
LINE
  5
2B3
  8
0
 62
     7
 10
-160.94078999999991
 20
443.28765899999991
 30
0.0
 11
-160.94078999999991
 21
450.78767399999998
 31
0.0
  0
LINE
  5
2B4
  8
0
 62
     7
 10
-162.19078999999999
 20
423.2876599999999
 30
0.0
 11
-162.19078999999999
 21
443.28764299999989
 31
0.0
  0
LINE
  5
2B5
  8
0
 62
     7
 10
-179.69078999999991
 20
423.2876599999999
 30
0.0
 11
-179.69078999999991
 21
443.28764299999989
 31
0.0
  0
LINE
  5
2B6
  8
0
 62
     7
 10
-162.19078999999999
 20
423.2876599999999
 30
0.0
 11
-179.69078999999991
 21
423.2876599999999
 31
0.0
  0
CIRCLE
  5
2B7
  8
0
 62
     3
 10
-135.940729
 20
433.28768599999989
 30
0.0
 40
4.0999970000000001
  0
CIRCLE
  5
2B8
  8
0
 62
     3
 10
-170.94073599999999
 20
433.28768599999989
 30
0.0
 40
4.0999970000000001
  0
LINE
  5
2B9
  8
0
 62
     3
 10
-179.69078999999991
 20
443.28765899999991
 30
0.0
 11
-180.94078999999999
 21
443.28765899999991
 31
0.0
  0
LINE
  5
2BA
  8
0
 62
     3
 10
-160.94078999999991
 20
443.28765899999991
 30
0.0
 11
-162.19078999999999
 21
443.28765899999991
 31
0.0
  0
CIRCLE
  5
2BB
  8
0
 62
     3
 10
-205.94073599999999
 20
433.28768599999989
 30
0.0
 40
4.0999970000000001
  0
LINE
  5
2BC
  8
0
 62
     3
 10
-214.69078999999991
 20
423.2876599999999
 30
0.0
 11
-214.69078999999991
 21
443.28764299999989
 31
0.0
  0
LINE
  5
2BD
  8
0
 62
     3
 10
-197.19078999999991
 20
423.2876599999999
 30
0.0
 11
-197.19078999999991
 21
443.28764299999989
 31
0.0
  0
LINE
  5
2BE
  8
0
 62
     3
 10
-215.94078999999999
 20
443.28765899999991
 30
0.0
 11
-215.94078999999999
 21
450.78767399999998
 31
0.0
  0
LINE
  5
2BF
  8
0
 62
     3
 10
-195.94078999999999
 20
443.28765899999991
 30
0.0
 11
-195.94078999999999
 21
450.78767399999998
 31
0.0
  0
LINE
  5
2C0
  8
0
 62
     3
 10
-197.19078999999991
 20
423.2876599999999
 30
0.0
 11
-214.69078999999991
 21
423.2876599999999
 31
0.0
  0
LINE
  5
2C1
  8
0
 62
     3
 10
-214.69078999999991
 20
443.28765899999991
 30
0.0
 11
-215.94078999999999
 21
443.28765899999991
 31
0.0
  0
LINE
  5
2C2
  8
0
 62
     3
 10
-195.94078999999999
 20
443.28765899999991
 30
0.0
 11
-197.19078999999991
 21
443.28765899999991
 31
0.0
  0
LINE
  5
2C3
  8
0
 62
     3
 10
-250.94078999999991
 20
443.28765899999991
 30
0.0
 11
-250.94078999999991
 21
450.78767399999998
 31
0.0
  0
LINE
  5
2C4
  8
0
 62
     3
 10
-230.94078999999999
 20
443.28765899999991
 30
0.0
 11
-230.94078999999999
 21
450.78767399999998
 31
0.0
  0
LINE
  5
2C5
  8
0
 62
     3
 10
-232.19078999999991
 20
423.2876599999999
 30
0.0
 11
-232.19078999999991
 21
443.28764299999989
 31
0.0
  0
LINE
  5
2C6
  8
0
 62
     3
 10
-249.69078999999999
 20
423.2876599999999
 30
0.0
 11
-249.69078999999999
 21
443.28764299999989
 31
0.0
  0
CIRCLE
  5
2C7
  8
0
 62
     3
 10
-240.940732
 20
433.28768599999989
 30
0.0
 40
4.0999970000000001
  0
LINE
  5
2C8
  8
0
 62
     3
 10
-232.19078999999991
 20
423.2876599999999
 30
0.0
 11
-249.69078999999999
 21
423.2876599999999
 31
0.0
  0
LINE
  5
2C9
  8
0
 62
     3
 10
-249.69078999999999
 20
443.28765899999991
 30
0.0
 11
-250.94078999999991
 21
443.28765899999991
 31
0.0
  0
LINE
  5
2CA
  8
0
 62
     3
 10
-230.94078999999999
 20
443.28765899999991
 30
0.0
 11
-232.19078999999991
 21
443.28765899999991
 31
0.0
  0
CIRCLE
  5
2CB
  8
0
 62
     3
 10
-240.940732
 20
643.28765899999985
 30
0.0
 40
4.0999970000000001
  0
CIRCLE
  5
2CC
  8
0
 62
     3
 10
-205.94073599999999
 20
643.28765899999985
 30
0.0
 40
4.0999970000000001
  0
CIRCLE
  5
2CD
  8
0
 62
     3
 10
-170.94073599999999
 20
643.28765899999985
 30
0.0
 40
4.0999970000000001
  0
CIRCLE
  5
2CE
  8
0
 62
     3
 10
-135.940729
 20
643.28765899999985
 30
0.0
 40
4.0999970000000001
  0
LINE
  5
2CF
  8
0
 62
     3
 10
-127.19078999999989
 20
653.28768899999989
 30
0.0
 11
-144.69078999999999
 21
653.28768899999989
 31
0.0
  0
LINE
  5
2D0
  8
0
 62
     3
 10
-162.19078999999999
 20
653.28768899999989
 30
0.0
 11
-179.69078999999991
 21
653.28768899999989
 31
0.0
  0
LINE
  5
2D1
  8
0
 62
     3
 10
-197.19078999999991
 20
653.28768899999989
 30
0.0
 11
-214.69078999999991
 21
653.28768899999989
 31
0.0
  0
LINE
  5
2D2
  8
0
 62
     3
 10
-232.19078999999991
 20
653.28768899999989
 30
0.0
 11
-249.69078999999999
 21
653.28768899999989
 31
0.0
  0
LINE
  5
2D3
  8
0
 62
     3
 10
-249.69078999999999
 20
633.28770399999985
 30
0.0
 11
-249.69078999999999
 21
653.28768899999989
 31
0.0
  0
LINE
  5
2D4
  8
0
 62
     3
 10
-232.19078999999991
 20
633.28770399999985
 30
0.0
 11
-232.19078999999991
 21
653.28768899999989
 31
0.0
  0
LINE
  5
2D5
  8
0
 62
     3
 10
-214.69078999999991
 20
633.28770399999985
 30
0.0
 11
-214.69078999999991
 21
653.28768899999989
 31
0.0
  0
LINE
  5
2D6
  8
0
 62
     3
 10
-197.19078999999991
 20
633.28770399999985
 30
0.0
 11
-197.19078999999991
 21
653.28768899999989
 31
0.0
  0
LINE
  5
2D7
  8
0
 62
     3
 10
-179.69078999999991
 20
633.28770399999985
 30
0.0
 11
-179.69078999999991
 21
653.28768899999989
 31
0.0
  0
LINE
  5
2D8
  8
0
 62
     3
 10
-162.19078999999999
 20
633.28770399999985
 30
0.0
 11
-162.19078999999999
 21
653.28768899999989
 31
0.0
  0
LINE
  5
2D9
  8
0
 62
     3
 10
-144.69078999999999
 20
633.28770399999985
 30
0.0
 11
-144.69078999999999
 21
653.28768899999989
 31
0.0
  0
LINE
  5
2DA
  8
0
 62
     3
 10
-127.19078999999989
 20
633.28770399999985
 30
0.0
 11
-127.19078999999989
 21
653.28768899999989
 31
0.0
  0
LINE
  5
2DB
  8
0
 62
     3
 10
-125.94079000000001
 20
625.78767400000004
 30
0.0
 11
-125.94079000000001
 21
633.287689
 31
0.0
  0
LINE
  5
2DC
  8
0
 62
     3
 10
-145.94078999999991
 20
625.78767400000004
 30
0.0
 11
-145.94078999999991
 21
633.287689
 31
0.0
  0
LINE
  5
2DD
  8
0
 62
     3
 10
-160.94078999999991
 20
625.78767400000004
 30
0.0
 11
-160.94078999999991
 21
633.287689
 31
0.0
  0
LINE
  5
2DE
  8
0
 62
     3
 10
-180.94078999999999
 20
625.78767400000004
 30
0.0
 11
-180.94078999999999
 21
633.287689
 31
0.0
  0
LINE
  5
2DF
  8
0
 62
     3
 10
-195.94078999999999
 20
625.78767400000004
 30
0.0
 11
-195.94078999999999
 21
633.287689
 31
0.0
  0
LINE
  5
2E0
  8
0
 62
     3
 10
-215.94078999999999
 20
625.78767400000004
 30
0.0
 11
-215.94078999999999
 21
633.287689
 31
0.0
  0
LINE
  5
2E1
  8
0
 62
     3
 10
-230.94078999999999
 20
625.78767400000004
 30
0.0
 11
-230.94078999999999
 21
633.287689
 31
0.0
  0
LINE
  5
2E2
  8
0
 62
     3
 10
-250.94078999999991
 20
625.78767400000004
 30
0.0
 11
-250.94078999999991
 21
633.287689
 31
0.0
  0
LINE
  5
2E3
  8
0
 62
     3
 10
-249.69078999999999
 20
633.287689
 30
0.0
 11
-250.94078999999991
 21
633.287689
 31
0.0
  0
LINE
  5
2E4
  8
0
 62
     3
 10
-230.94078999999999
 20
633.287689
 30
0.0
 11
-232.19078999999991
 21
633.287689
 31
0.0
  0
LINE
  5
2E5
  8
0
 62
     3
 10
-214.69078999999991
 20
633.287689
 30
0.0
 11
-215.94078999999999
 21
633.287689
 31
0.0
  0
LINE
  5
2E6
  8
0
 62
     3
 10
-195.94078999999999
 20
633.287689
 30
0.0
 11
-197.19078999999991
 21
633.287689
 31
0.0
  0
LINE
  5
2E7
  8
0
 62
     3
 10
-179.69078999999991
 20
633.287689
 30
0.0
 11
-180.94078999999999
 21
633.287689
 31
0.0
  0
LINE
  5
2E8
  8
0
 62
     3
 10
-160.94078999999991
 20
633.287689
 30
0.0
 11
-162.19078999999999
 21
633.287689
 31
0.0
  0
LINE
  5
2E9
  8
0
 62
     3
 10
-144.69078999999999
 20
633.287689
 30
0.0
 11
-145.94078999999991
 21
633.287689
 31
0.0
  0
LINE
  5
2EA
  8
0
 62
     3
 10
-125.94079000000001
 20
633.287689
 30
0.0
 11
-127.19078999999989
 21
633.287689
 31
0.0
  0
LINE
  5
2EB
  8
0
 62
     7
 10
-118.440805
 20
484.03352699999988
 30
0.0
 11
-118.440805
 21
588.03767400000004
 31
0.0
  0
LINE
  5
2EC
  8
0
 62
     7
 10
-119.6908199999999
 20
625.78767400000004
 30
0.0
 11
-257.19079699999998
 21
625.78767400000004
 31
0.0
  0
LINE
  5
2ED
  8
0
 62
     7
 10
-229.4407819999999
 20
596.787689
 30
0.0
 11
-257.44079699999998
 21
596.787689
 31
0.0
  0
LINE
  5
2EE
  8
0
 62
     7
 10
-118.440805
 20
616.53767400000004
 30
0.0
 11
-118.440805
 21
624.53767400000004
 31
0.0
  0
LINE
  5
2EF
  8
0
 62
     7
 10
-258.44079699999998
 20
597.787689
 30
0.0
 11
-258.44079699999998
 21
624.53767400000004
 31
0.0
  0
LINE
  5
2F0
  8
0
 62
     7
 10
-257.44079699999998
 20
596.787689
 30
0.0
 11
-257.44079699999998
 21
597.787689
 31
0.0
  0
LINE
  5
2F1
  8
0
 62
     7
 10
-258.19079699999998
 20
597.787689
 30
0.0
 11
-258.44079699999998
 21
597.787689
 31
0.0
  0
LINE
  5
2F2
  8
0
 62
     7
 10
-254.3907979999999
 20
450.78767399999998
 30
0.0
 11
-254.3907979999999
 21
625.78767400000004
 31
0.0
  0
LINE
  5
2F3
  8
0
 62
     7
 10
-247.190797
 20
450.78767399999998
 30
0.0
 11
-247.190797
 21
625.78767400000004
 31
0.0
  0
LINE
  5
2F4
  8
0
 62
     7
 10
-239.99079999999989
 20
450.78767399999998
 30
0.0
 11
-239.99079999999989
 21
625.78767400000004
 31
0.0
  0
LINE
  5
2F5
  8
0
 62
     7
 10
-229.190797
 20
616.03765899999985
 30
0.0
 11
-229.190797
 21
625.78767400000004
 31
0.0
  0
LINE
  5
2F6
  8
0
 62
     7
 10
-225.59080599999999
 20
616.53767400000004
 30
0.0
 11
-225.59080599999999
 21
625.78767400000004
 31
0.0
  0
LINE
  5
2F7
  8
0
 62
     7
 10
-221.99080000000001
 20
616.53767400000004
 30
0.0
 11
-221.99080000000001
 21
625.78767400000004
 31
0.0
  0
LINE
  5
2F8
  8
0
 62
     7
 10
-218.39080999999999
 20
616.53767400000004
 30
0.0
 11
-218.39080999999999
 21
625.78767400000004
 31
0.0
  0
LINE
  5
2F9
  8
0
 62
     7
 10
-214.7908029999999
 20
616.53767400000004
 30
0.0
 11
-214.7908029999999
 21
625.78767400000004
 31
0.0
  0
LINE
  5
2FA
  8
0
 62
     7
 10
-211.190797
 20
616.53767400000004
 30
0.0
 11
-211.190797
 21
625.78767400000004
 31
0.0
  0
LINE
  5
2FB
  8
0
 62
     7
 10
-207.59080599999999
 20
616.53767400000004
 30
0.0
 11
-207.59080599999999
 21
625.78767400000004
 31
0.0
  0
LINE
  5
2FC
  8
0
 62
     7
 10
-203.99080000000001
 20
616.53767400000004
 30
0.0
 11
-203.99080000000001
 21
625.78767400000004
 31
0.0
  0
LINE
  5
2FD
  8
0
 62
     7
 10
-200.39080999999999
 20
616.53767400000004
 30
0.0
 11
-200.39080999999999
 21
625.78767400000004
 31
0.0
  0
LINE
  5
2FE
  8
0
 62
     7
 10
-196.79080300000001
 20
616.53767400000004
 30
0.0
 11
-196.79080300000001
 21
625.78767400000004
 31
0.0
  0
LINE
  5
2FF
  8
0
 62
     7
 10
-193.190797
 20
616.53767400000004
 30
0.0
 11
-193.190797
 21
625.78767400000004
 31
0.0
  0
LINE
  5
300
  8
0
 62
     7
 10
-189.59080599999999
 20
616.53767400000004
 30
0.0
 11
-189.59080599999999
 21
625.78767400000004
 31
0.0
  0
LINE
  5
301
  8
0
 62
     7
 10
-185.99080000000001
 20
616.53767400000004
 30
0.0
 11
-185.99080000000001
 21
625.78767400000004
 31
0.0
  0
LINE
  5
302
  8
0
 62
     7
 10
-182.39080999999999
 20
616.53767400000004
 30
0.0
 11
-182.39080999999999
 21
625.78767400000004
 31
0.0
  0
LINE
  5
303
  8
0
 62
     7
 10
-178.79080300000001
 20
616.53767400000004
 30
0.0
 11
-178.79080300000001
 21
625.78767400000004
 31
0.0
  0
LINE
  5
304
  8
0
 62
     7
 10
-175.19079699999989
 20
616.53767400000004
 30
0.0
 11
-175.19079699999989
 21
625.78767400000004
 31
0.0
  0
LINE
  5
305
  8
0
 62
     7
 10
-171.59080599999999
 20
616.53767400000004
 30
0.0
 11
-171.59080599999999
 21
625.78767400000004
 31
0.0
  0
LINE
  5
306
  8
0
 62
     7
 10
-167.99080000000001
 20
616.53767400000004
 30
0.0
 11
-167.99080000000001
 21
625.78767400000004
 31
0.0
  0
LINE
  5
307
  8
0
 62
     7
 10
-164.39080999999999
 20
616.53767400000004
 30
0.0
 11
-164.39080999999999
 21
625.78767400000004
 31
0.0
  0
LINE
  5
308
  8
0
 62
     7
 10
-160.79080300000001
 20
616.53767400000004
 30
0.0
 11
-160.79080300000001
 21
625.78767400000004
 31
0.0
  0
LINE
  5
309
  8
0
 62
     7
 10
-157.19080500000001
 20
616.53767400000004
 30
0.0
 11
-157.19080500000001
 21
625.78767400000004
 31
0.0
  0
LINE
  5
30A
  8
0
 62
     7
 10
-153.59081399999999
 20
616.53767400000004
 30
0.0
 11
-153.59081399999999
 21
625.78767400000004
 31
0.0
  0
LINE
  5
30B
  8
0
 62
     7
 10
-149.99080799999999
 20
616.53767400000004
 30
0.0
 11
-149.99080799999999
 21
625.78767400000004
 31
0.0
  0
LINE
  5
30C
  8
0
 62
     7
 10
-146.390817
 20
616.53767400000004
 30
0.0
 11
-146.390817
 21
625.78767400000004
 31
0.0
  0
LINE
  5
30D
  8
0
 62
     7
 10
-142.79081099999999
 20
616.53767400000004
 30
0.0
 11
-142.79081099999999
 21
625.78767400000004
 31
0.0
  0
LINE
  5
30E
  8
0
 62
     7
 10
-139.19080500000001
 20
616.53767400000004
 30
0.0
 11
-139.19080500000001
 21
625.78767400000004
 31
0.0
  0
LINE
  5
30F
  8
0
 62
     7
 10
-135.59081399999991
 20
616.53767400000004
 30
0.0
 11
-135.59081399999991
 21
625.78767400000004
 31
0.0
  0
LINE
  5
310
  8
0
 62
     7
 10
-131.99080799999999
 20
616.53767400000004
 30
0.0
 11
-131.99080799999999
 21
625.78767400000004
 31
0.0
  0
LINE
  5
311
  8
0
 62
     7
 10
-128.39081699999991
 20
616.53767400000004
 30
0.0
 11
-128.39081699999991
 21
625.78767400000004
 31
0.0
  0
LINE
  5
312
  8
0
 62
     7
 10
-124.79081100000001
 20
616.53767400000004
 30
0.0
 11
-124.79081100000001
 21
625.78767400000004
 31
0.0
  0
LINE
  5
313
  8
0
 62
     7
 10
-121.190805
 20
616.53767400000004
 30
0.0
 11
-121.190805
 21
625.78767400000004
 31
0.0
  0
ARC
  5
314
  8
0
 62
     7
 10
-257.19079699999998
 20
624.53767400000004
 30
0.0
 40
1.25
 50
90.0
 51
180.00000299999991
  0
ARC
  5
315
  8
0
 62
     7
 10
-119.6908199999999
 20
624.53767400000004
 30
0.0
 40
1.25
 50
0.000028
 51
90.0
  0
LINE
  5
316
  8
0
 62
     7
 10
-119.6908199999999
 20
450.78767399999998
 30
0.0
 11
-257.19079699999998
 21
450.78767399999998
 31
0.0
  0
LINE
  5
317
  8
0
 62
     7
 10
-229.4407819999999
 20
479.78765899999991
 30
0.0
 11
-257.44079699999998
 21
479.78765899999991
 31
0.0
  0
LINE
  5
318
  8
0
 62
     7
 10
-118.440805
 20
452.03767399999998
 30
0.0
 11
-118.440805
 21
455.53768500000001
 31
0.0
  0
LINE
  5
319
  8
0
 62
     7
 10
-258.44079699999998
 20
452.03767399999998
 30
0.0
 11
-258.44079699999998
 21
478.78765899999991
 31
0.0
  0
LINE
  5
31A
  8
0
 62
     7
 10
-229.4407819999999
 20
478.78765899999991
 30
0.0
 11
-258.19079699999998
 21
478.78765899999991
 31
0.0
  0
LINE
  5
31B
  8
0
 62
     7
 10
-257.44079699999998
 20
478.78765899999991
 30
0.0
 11
-257.44079699999998
 21
479.78765899999991
 31
0.0
  0
LINE
  5
31C
  8
0
 62
     7
 10
-258.19079699999998
 20
478.78765899999991
 30
0.0
 11
-258.44079699999998
 21
478.78765899999991
 31
0.0
  0
LINE
  5
31D
  8
0
 62
     7
 10
-250.790796
 20
450.78767399999998
 30
0.0
 11
-250.790796
 21
625.78767400000004
 31
0.0
  0
LINE
  5
31E
  8
0
 62
     7
 10
-243.590799
 20
450.78767399999998
 30
0.0
 11
-243.590799
 21
625.78767400000004
 31
0.0
  0
LINE
  5
31F
  8
0
 62
     7
 10
-236.39080999999999
 20
450.78767399999998
 30
0.0
 11
-236.39080999999999
 21
625.78767400000004
 31
0.0
  0
LINE
  5
320
  8
0
 62
     7
 10
-232.7908029999999
 20
450.78767399999998
 30
0.0
 11
-232.7908029999999
 21
625.78767400000004
 31
0.0
  0
LINE
  5
321
  8
0
 62
     7
 10
-221.99080000000001
 20
450.78767399999998
 30
0.0
 11
-221.99080000000001
 21
455.53768500000001
 31
0.0
  0
LINE
  5
322
  8
0
 62
     7
 10
-218.39080999999999
 20
450.78767399999998
 30
0.0
 11
-218.39080999999999
 21
455.53768500000001
 31
0.0
  0
LINE
  5
323
  8
0
 62
     7
 10
-214.7908029999999
 20
450.78767399999998
 30
0.0
 11
-214.7908029999999
 21
455.53768500000001
 31
0.0
  0
LINE
  5
324
  8
0
 62
     7
 10
-211.190797
 20
450.78767399999998
 30
0.0
 11
-211.190797
 21
455.53768500000001
 31
0.0
  0
LINE
  5
325
  8
0
 62
     7
 10
-207.59080599999999
 20
450.78767399999998
 30
0.0
 11
-207.59080599999999
 21
455.53768500000001
 31
0.0
  0
LINE
  5
326
  8
0
 62
     7
 10
-203.99080000000001
 20
450.78767399999998
 30
0.0
 11
-203.99080000000001
 21
455.53768500000001
 31
0.0
  0
LINE
  5
327
  8
0
 62
     7
 10
-200.39080999999999
 20
450.78767399999998
 30
0.0
 11
-200.39080999999999
 21
455.53768500000001
 31
0.0
  0
LINE
  5
328
  8
0
 62
     7
 10
-196.79080300000001
 20
450.78767399999998
 30
0.0
 11
-196.79080300000001
 21
455.53768500000001
 31
0.0
  0
LINE
  5
329
  8
0
 62
     7
 10
-193.190797
 20
450.78767399999998
 30
0.0
 11
-193.190797
 21
455.53768500000001
 31
0.0
  0
LINE
  5
32A
  8
0
 62
     7
 10
-189.59080599999999
 20
450.78767399999998
 30
0.0
 11
-189.59080599999999
 21
455.53768500000001
 31
0.0
  0
LINE
  5
32B
  8
0
 62
     7
 10
-185.99080000000001
 20
450.78767399999998
 30
0.0
 11
-185.99080000000001
 21
455.53768500000001
 31
0.0
  0
LINE
  5
32C
  8
0
 62
     7
 10
-182.39080999999999
 20
450.78767399999998
 30
0.0
 11
-182.39080999999999
 21
455.53768500000001
 31
0.0
  0
LINE
  5
32D
  8
0
 62
     7
 10
-178.79080300000001
 20
450.78767399999998
 30
0.0
 11
-178.79080300000001
 21
455.53768500000001
 31
0.0
  0
LINE
  5
32E
  8
0
 62
     7
 10
-175.19079699999989
 20
450.78767399999998
 30
0.0
 11
-175.19079699999989
 21
455.53768500000001
 31
0.0
  0
LINE
  5
32F
  8
0
 62
     7
 10
-171.59080599999999
 20
450.78767399999998
 30
0.0
 11
-171.59080599999999
 21
455.53768500000001
 31
0.0
  0
LINE
  5
330
  8
0
 62
     7
 10
-167.99080000000001
 20
450.78767399999998
 30
0.0
 11
-167.99080000000001
 21
455.53768500000001
 31
0.0
  0
LINE
  5
331
  8
0
 62
     7
 10
-164.39080999999999
 20
450.78767399999998
 30
0.0
 11
-164.39080999999999
 21
455.53768500000001
 31
0.0
  0
LINE
  5
332
  8
0
 62
     7
 10
-160.79080300000001
 20
450.78767399999998
 30
0.0
 11
-160.79080300000001
 21
455.53768500000001
 31
0.0
  0
LINE
  5
333
  8
0
 62
     7
 10
-157.19080500000001
 20
450.78767399999998
 30
0.0
 11
-157.19080500000001
 21
455.53768500000001
 31
0.0
  0
LINE
  5
334
  8
0
 62
     7
 10
-153.59081399999999
 20
450.78767399999998
 30
0.0
 11
-153.59081399999999
 21
455.53768500000001
 31
0.0
  0
LINE
  5
335
  8
0
 62
     7
 10
-149.99080799999999
 20
450.78767399999998
 30
0.0
 11
-149.99080799999999
 21
455.53768500000001
 31
0.0
  0
LINE
  5
336
  8
0
 62
     7
 10
-146.390817
 20
450.78767399999998
 30
0.0
 11
-146.390817
 21
455.53768500000001
 31
0.0
  0
LINE
  5
337
  8
0
 62
     7
 10
-142.79081099999999
 20
450.78767399999998
 30
0.0
 11
-142.79081099999999
 21
455.53768500000001
 31
0.0
  0
LINE
  5
338
  8
0
 62
     7
 10
-139.19080500000001
 20
450.78767399999998
 30
0.0
 11
-139.19080500000001
 21
455.53768500000001
 31
0.0
  0
LINE
  5
339
  8
0
 62
     7
 10
-135.59081399999991
 20
450.78767399999998
 30
0.0
 11
-135.59081399999991
 21
455.53768500000001
 31
0.0
  0
LINE
  5
33A
  8
0
 62
     7
 10
-131.99080799999999
 20
450.78767399999998
 30
0.0
 11
-131.99080799999999
 21
455.53768500000001
 31
0.0
  0
LINE
  5
33B
  8
0
 62
     7
 10
-128.39081699999991
 20
450.78767399999998
 30
0.0
 11
-128.39081699999991
 21
455.53768500000001
 31
0.0
  0
LINE
  5
33C
  8
0
 62
     7
 10
-124.79081100000001
 20
450.78767399999998
 30
0.0
 11
-124.79081100000001
 21
455.53768500000001
 31
0.0
  0
LINE
  5
33D
  8
0
 62
     7
 10
-121.190805
 20
450.78767399999998
 30
0.0
 11
-121.190805
 21
455.53768500000001
 31
0.0
  0
ARC
  5
33E
  8
0
 62
     7
 10
-257.19079699999998
 20
452.03767399999998
 30
0.0
 40
1.25
 50
180.00000299999991
 51
270.00000499999987
  0
ARC
  5
33F
  8
0
 62
     7
 10
-119.6908199999999
 20
452.03767399999998
 30
0.0
 40
1.25
 50
270.00000499999987
 51
359.99997300000001
  0
LINE
  5
340
  8
0
  6
DASHDOT
 62
     7
 10
-240.940732
 20
427.18768999999998
 30
0.0
 11
-240.940732
 21
439.38768299999992
 31
0.0
  0
LINE
  5
341
  8
0
  6
DASHDOT
 62
     7
 10
-234.8407379999999
 20
433.28768599999989
 30
0.0
 11
-247.04073099999999
 21
433.28768599999989
 31
0.0
  0
LINE
  5
342
  8
0
  6
DASHDOT
 62
     7
 10
-205.94073599999999
 20
427.18768999999998
 30
0.0
 11
-205.94073599999999
 21
439.38768299999992
 31
0.0
  0
LINE
  5
343
  8
0
  6
DASHDOT
 62
     7
 10
-199.8407379999999
 20
433.28768599999989
 30
0.0
 11
-212.040727
 21
433.28768599999989
 31
0.0
  0
LINE
  5
344
  8
0
  6
DASHDOT
 62
     7
 10
-170.94073599999999
 20
427.18768999999998
 30
0.0
 11
-170.94073599999999
 21
439.38768299999992
 31
0.0
  0
LINE
  5
345
  8
0
  6
DASHDOT
 62
     7
 10
-164.8407379999999
 20
433.28768599999989
 30
0.0
 11
-177.04072699999989
 21
433.28768599999989
 31
0.0
  0
LINE
  5
346
  8
0
  6
DASHDOT
 62
     7
 10
-135.940729
 20
427.18768999999998
 30
0.0
 11
-135.940729
 21
439.38768299999992
 31
0.0
  0
LINE
  5
347
  8
0
  6
DASHDOT
 62
     7
 10
-129.8407379999999
 20
433.28768599999989
 30
0.0
 11
-142.04073500000001
 21
433.28768599999989
 31
0.0
  0
LINE
  5
348
  8
0
  6
DASHDOT
 62
     7
 10
-135.940729
 20
637.18766799999992
 30
0.0
 11
-135.940729
 21
649.38766499999997
 31
0.0
  0
LINE
  5
349
  8
0
  6
DASHDOT
 62
     7
 10
-129.8407379999999
 20
643.28765899999985
 30
0.0
 11
-142.04073500000001
 21
643.28765899999985
 31
0.0
  0
LINE
  5
34A
  8
0
  6
DASHDOT
 62
     7
 10
-170.94073599999999
 20
637.18766799999992
 30
0.0
 11
-170.94073599999999
 21
649.38766499999997
 31
0.0
  0
LINE
  5
34B
  8
0
  6
DASHDOT
 62
     7
 10
-164.8407379999999
 20
643.28765899999985
 30
0.0
 11
-177.04072699999989
 21
643.28765899999985
 31
0.0
  0
LINE
  5
34C
  8
0
  6
DASHDOT
 62
     7
 10
-205.94073599999999
 20
637.18766799999992
 30
0.0
 11
-205.94073599999999
 21
649.38766499999997
 31
0.0
  0
LINE
  5
34D
  8
0
  6
DASHDOT
 62
     7
 10
-199.8407379999999
 20
643.28765899999985
 30
0.0
 11
-212.040727
 21
643.28765899999985
 31
0.0
  0
LINE
  5
34E
  8
0
  6
DASHDOT
 62
     7
 10
-240.940732
 20
637.18766799999992
 30
0.0
 11
-240.940732
 21
649.38766499999997
 31
0.0
  0
LINE
  5
34F
  8
0
  6
DASHDOT
 62
     7
 10
-234.8407379999999
 20
643.28765899999985
 30
0.0
 11
-247.04073099999999
 21
643.28765899999985
 31
0.0
  0
LINE
  5
350
  8
0
  6
DASHDOT
 62
     7
 10
-101.2556239999999
 20
536.0376819999999
 30
0.0
 11
-275.99497100000002
 21
536.0376819999999
 31
0.0
  0
LINE
  5
351
  8
0
 62
     7
 10
-229.190797
 20
450.78767399999998
 30
0.0
 11
-229.190797
 21
456.03770800000001
 31
0.0
  0
LINE
  5
352
  8
0
 62
     7
 10
-225.59080599999999
 20
450.78767399999998
 30
0.0
 11
-225.59080599999999
 21
455.53768500000001
 31
0.0
  0
LINE
  5
353
  8
0
 62
     7
 10
-289.527444
 20
450.78767399999998
 30
0.0
 11
-288.48557399999999
 21
456.69652000000002
 31
0.0
  0
LINE
  5
354
  8
0
 62
     7
 10
-289.527444
 20
450.78767399999998
 30
0.0
 11
-290.56943699999988
 21
456.69652000000002
 31
0.0
  0
LINE
  5
355
  8
0
 62
     7
 10
-289.527444
 20
625.78767400000004
 30
0.0
 11
-290.56943699999988
 21
619.87882999999999
 31
0.0
  0
LINE
  5
356
  8
0
 62
     7
 10
-289.527444
 20
625.78767400000004
 30
0.0
 11
-288.48557399999999
 21
619.87882999999999
 31
0.0
  0
LINE
  5
357
  8
0
 62
     7
 10
-289.527444
 20
450.78767399999998
 30
0.0
 11
-289.527444
 21
625.78767400000004
 31
0.0
  0
LINE
  5
358
  8
0
 62
     7
 10
-293.527444
 20
450.78767399999998
 30
0.0
 11
-257.19077399999998
 21
450.78767599999998
 31
0.0
  0
LINE
  5
359
  8
0
 62
     7
 10
-293.527444
 20
625.78767400000004
 30
0.0
 11
-257.19077399999998
 21
625.78767400000004
 31
0.0
  0
LINE
  5
35A
  8
0
 62
     7
 10
-317.7595
 20
423.28765900000002
 30
0.0
 11
-318.80137000000002
 21
417.37881499999997
 31
0.0
  0
LINE
  5
35B
  8
0
 62
     7
 10
-317.7595
 20
423.28765900000002
 30
0.0
 11
-316.71762999999987
 21
417.37881499999997
 31
0.0
  0
LINE
  5
35C
  8
0
 62
     7
 10
-317.7595
 20
433.2876849999999
 30
0.0
 11
-316.71762999999987
 21
439.19653299999987
 31
0.0
  0
LINE
  5
35D
  8
0
 62
     7
 10
-317.7595
 20
433.2876849999999
 30
0.0
 11
-318.80137000000002
 21
439.19653299999987
 31
0.0
  0
LINE
  5
35E
  8
0
 62
     7
 10
-317.7595
 20
643.28765899999985
 30
0.0
 11
-318.80137000000002
 21
637.37881500000003
 31
0.0
  0
LINE
  5
35F
  8
0
 62
     7
 10
-317.7595
 20
643.28765899999985
 30
0.0
 11
-316.71762999999987
 21
637.37881500000003
 31
0.0
  0
LINE
  5
360
  8
0
 62
     7
 10
-317.7595
 20
653.28768899999989
 30
0.0
 11
-316.71762999999987
 21
659.19653300000004
 31
0.0
  0
LINE
  5
361
  8
0
 62
     7
 10
-317.7595
 20
653.28768899999989
 30
0.0
 11
-318.80137000000002
 21
659.19653300000004
 31
0.0
  0
LINE
  5
362
  8
0
 62
     7
 10
-317.7595
 20
422.12908899999991
 30
0.0
 11
-317.7595
 21
653.53613299999995
 31
0.0
  0
LINE
  5
363
  8
0
 62
     7
 10
-321.7595
 20
423.28765900000002
 30
0.0
 11
-144.690774
 21
423.287666
 31
0.0
  0
LINE
  5
364
  8
0
 62
     7
 10
-321.7595
 20
433.2876849999999
 30
0.0
 11
-142.04075
 21
433.28769299999999
 31
0.0
  0
LINE
  5
365
  8
0
 62
     7
 10
-321.7595
 20
643.28765899999985
 30
0.0
 11
-142.04075
 21
643.28767400000004
 31
0.0
  0
LINE
  5
366
  8
0
 62
     7
 10
-321.7595
 20
653.28768899999989
 30
0.0
 11
-144.690774
 21
653.28768899999989
 31
0.0
  0
LINE
  5
367
  8
0
 62
     7
 10
-135.94077399999989
 20
389.1568069999999
 30
0.0
 11
-141.8495879999999
 21
390.19869199999999
 31
0.0
  0
LINE
  5
368
  8
0
 62
     7
 10
-135.94077399999989
 20
389.1568069999999
 30
0.0
 11
-141.8495879999999
 21
388.114914
 31
0.0
  0
LINE
  5
369
  8
0
 62
     7
 10
-170.940774
 20
389.15681499999988
 30
0.0
 11
-165.03183899999991
 21
388.11492900000002
 31
0.0
  0
LINE
  5
36A
  8
0
 62
     7
 10
-170.940774
 20
389.15681499999988
 30
0.0
 11
-165.03183899999991
 21
390.1987079999999
 31
0.0
  0
LINE
  5
36B
  8
0
 62
     7
 10
-170.940774
 20
389.15681499999988
 30
0.0
 11
-176.8495879999999
 21
390.1987079999999
 31
0.0
  0
LINE
  5
36C
  8
0
 62
     7
 10
-170.940774
 20
389.15681499999988
 30
0.0
 11
-176.8495879999999
 21
388.11492900000002
 31
0.0
  0
LINE
  5
36D
  8
0
 62
     7
 10
-205.940774
 20
389.1568299999999
 30
0.0
 11
-200.03183899999991
 21
388.114937
 31
0.0
  0
LINE
  5
36E
  8
0
 62
     7
 10
-205.940774
 20
389.1568299999999
 30
0.0
 11
-200.03183899999991
 21
390.19871499999999
 31
0.0
  0
LINE
  5
36F
  8
0
 62
     7
 10
-205.940774
 20
389.1568299999999
 30
0.0
 11
-211.8495879999999
 21
390.19871499999999
 31
0.0
  0
LINE
  5
370
  8
0
 62
     7
 10
-205.940774
 20
389.1568299999999
 30
0.0
 11
-211.8495879999999
 21
388.114937
 31
0.0
  0
LINE
  5
371
  8
0
 62
     7
 10
-240.940652
 20
389.15684499999998
 30
0.0
 11
-235.03183899999999
 21
388.11495200000002
 31
0.0
  0
LINE
  5
372
  8
0
 62
     7
 10
-240.940652
 20
389.15684499999998
 30
0.0
 11
-235.03183899999999
 21
390.1987299999999
 31
0.0
  0
LINE
  5
373
  8
0
 62
     7
 10
-135.94077399999989
 20
389.1568069999999
 30
0.0
 11
-240.940652
 21
389.15683699999988
 31
0.0
  0
LINE
  5
374
  8
0
 62
     7
 10
-135.94077399999989
 20
385.1568069999999
 30
0.0
 11
-135.94077399999989
 21
427.18769800000001
 31
0.0
  0
LINE
  5
375
  8
0
 62
     7
 10
-170.940774
 20
385.15681499999988
 30
0.0
 11
-170.940774
 21
427.18770999999998
 31
0.0
  0
LINE
  5
376
  8
0
 62
     7
 10
-205.940774
 20
385.1568299999999
 30
0.0
 11
-205.940774
 21
427.18772100000001
 31
0.0
  0
LINE
  5
377
  8
0
 62
     7
 10
-240.940774
 20
385.15684499999998
 30
0.0
 11
-240.940652
 21
427.18773299999992
 31
0.0
  0
LINE
  5
378
  8
0
 62
     7
 10
-118.440774
 20
691.51547199999993
 30
0.0
 11
-124.34971
 21
692.55737299999998
 31
0.0
  0
LINE
  5
379
  8
0
 62
     7
 10
-118.440774
 20
691.51547199999993
 30
0.0
 11
-124.34971
 21
690.47360199999991
 31
0.0
  0
LINE
  5
37A
  8
0
 62
     7
 10
-258.44077399999998
 20
691.51550300000008
 30
0.0
 11
-252.53196099999991
 21
690.47360199999991
 31
0.0
  0
LINE
  5
37B
  8
0
 62
     7
 10
-258.44077399999998
 20
691.51550300000008
 30
0.0
 11
-252.53196099999991
 21
692.55740400000002
 31
0.0
  0
LINE
  5
37C
  8
0
 62
     7
 10
-118.440774
 20
691.51547199999993
 30
0.0
 11
-258.44077399999998
 21
691.515533
 31
0.0
  0
LINE
  5
37D
  8
0
 62
     7
 10
-118.440774
 20
695.51547199999993
 30
0.0
 11
-118.440774
 21
624.53767400000004
 31
0.0
  0
LINE
  5
37E
  8
0
 62
     7
 10
-258.44077399999998
 20
695.51550300000008
 30
0.0
 11
-258.44077399999998
 21
624.53770399999996
 31
0.0
  0
LINE
  5
37F
  8
0
 62
     7
 10
-118.440774
 20
373.99053199999992
 30
0.0
 11
-124.34971
 21
375.03241700000001
 31
0.0
  0
LINE
  5
380
  8
0
 62
     7
 10
-118.440774
 20
373.99053199999992
 30
0.0
 11
-124.34971
 21
372.94863900000001
 31
0.0
  0
LINE
  5
381
  8
0
 62
     7
 10
-170.940774
 20
373.99054699999999
 30
0.0
 11
-165.031961
 21
372.94865399999992
 31
0.0
  0
LINE
  5
382
  8
0
 62
     7
 10
-170.940774
 20
373.99054699999999
 30
0.0
 11
-165.031961
 21
375.03243300000003
 31
0.0
  0
LINE
  5
383
  8
0
 62
     7
 10
-118.440774
 20
373.99053199999992
 30
0.0
 11
-170.940774
 21
373.99054699999999
 31
0.0
  0
LINE
  5
384
  8
0
 62
     7
 10
-118.440774
 20
369.99053199999992
 30
0.0
 11
-118.440774
 21
484.03353099999993
 31
0.0
  0
LINE
  5
385
  8
0
 62
     7
 10
-170.940774
 20
369.99054699999999
 30
0.0
 11
-170.940774
 21
376.748604
 31
0.0
  0
LINE
  5
386
  8
0
 62
     7
 10
-195.94077399999989
 20
404.32308199999989
 30
0.0
 11
-201.8495879999999
 21
405.36496699999992
 31
0.0
  0
LINE
  5
387
  8
0
 62
     7
 10
-195.94077399999989
 20
404.32308199999989
 30
0.0
 11
-201.8495879999999
 21
403.28118899999998
 31
0.0
  0
LINE
  5
388
  8
0
 62
     7
 10
-215.940774
 20
404.32308999999998
 30
0.0
 11
-210.031961
 21
403.28119700000002
 31
0.0
  0
LINE
  5
389
  8
0
 62
     7
 10
-215.940774
 20
404.32308999999998
 30
0.0
 11
-210.031961
 21
405.3649749999999
 31
0.0
  0
LINE
  5
38A
  8
0
 62
     7
 10
-178.940774
 20
404.32307400000002
 30
0.0
 11
-215.940774
 21
404.32308999999998
 31
0.0
  0
LINE
  5
38B
  8
0
 62
     7
 10
-195.94077399999989
 20
400.32308199999989
 30
0.0
 11
-195.94077399999989
 21
443.28765899999991
 31
0.0
  0
LINE
  5
38C
  8
0
 62
     7
 10
-215.940774
 20
400.32308999999998
 30
0.0
 11
-215.940774
 21
443.28766599999989
 31
0.0
  0
LINE
  5
38D
  8
0
 62
     7
 10
-132.646951
 20
430.84615300000002
 30
0.0
 11
-128.52048600000001
 21
426.49044800000007
 31
0.0
  0
LINE
  5
38E
  8
0
 62
     7
 10
-132.646951
 20
430.84615300000002
 30
0.0
 11
-127.2796419999999
 21
428.16447099999999
 31
0.0
  0
LINE
  5
38F
  8
0
 62
     7
 10
-139.234476
 20
435.72921799999989
 30
0.0
 11
-143.36093999999991
 21
440.084923
 31
0.0
  0
LINE
  5
390
  8
0
 62
     7
 10
-139.234476
 20
435.72921799999989
 30
0.0
 11
-144.60190700000001
 21
438.41090400000002
 31
0.0
  0
LINE
  5
391
  8
0
 62
     7
 10
-139.234476
 20
435.72921799999989
 30
0.0
 11
-85.665444999999991
 21
396.020691
 31
0.0
  0
LINE
  5
392
  8
0
 62
     7
 10
-118.440774
 20
674.55837999999994
 30
0.0
 11
-124.34971
 21
675.60026600000003
 31
0.0
  0
LINE
  5
393
  8
0
 62
     7
 10
-118.440774
 20
674.55837999999994
 30
0.0
 11
-124.34971
 21
673.51649499999985
 31
0.0
  0
LINE
  5
394
  8
0
 62
     7
 10
-223.440774
 20
674.55837999999994
 30
0.0
 11
-217.53196099999991
 21
673.51649499999985
 31
0.0
  0
LINE
  5
395
  8
0
 62
     7
 10
-223.440774
 20
674.55837999999994
 30
0.0
 11
-217.53196099999991
 21
675.60026600000003
 31
0.0
  0
LINE
  5
396
  8
0
 62
     7
 10
-118.440774
 20
674.55837999999994
 30
0.0
 11
-223.440774
 21
674.55837999999994
 31
0.0
  0
LINE
  5
397
  8
0
 62
     7
 10
-118.440774
 20
678.55837999999994
 30
0.0
 11
-118.440774
 21
588.03768899999989
 31
0.0
  0
LINE
  5
398
  8
0
 62
     7
 10
-223.440774
 20
678.55837999999994
 30
0.0
 11
-223.440774
 21
588.03768899999989
 31
0.0
  0
LINE
  5
399
  8
0
 62
     7
 10
-274.96421199999997
 20
536.0376819999999
 30
0.0
 11
-273.92221999999998
 21
541.94653300000004
 31
0.0
  0
LINE
  5
39A
  8
0
 62
     7
 10
-274.96421199999997
 20
536.0376819999999
 30
0.0
 11
-276.00608199999999
 21
541.94652599999995
 31
0.0
  0
LINE
  5
39B
  8
0
 62
     7
 10
-274.96421199999997
 20
625.78767400000004
 30
0.0
 11
-276.00608199999999
 21
619.87882999999999
 31
0.0
  0
LINE
  5
39C
  8
0
 62
     7
 10
-274.96421199999997
 20
625.78767400000004
 30
0.0
 11
-273.92221999999998
 21
619.87882999999999
 31
0.0
  0
LINE
  5
39D
  8
0
 62
     7
 10
-274.96421199999997
 20
536.0376819999999
 30
0.0
 11
-274.96421199999997
 21
625.78767400000004
 31
0.0
  0
LINE
  5
39E
  8
0
 62
     7
 10
-278.96421199999997
 20
625.78767400000004
 30
0.0
 11
-257.19077399999998
 21
625.78767400000004
 31
0.0
  0
LINE
  5
39F
  8
0
 62
     7
 10
-305.15696099999991
 20
536.0376819999999
 30
0.0
 11
-304.11509100000001
 21
541.94653300000004
 31
0.0
  0
LINE
  5
3A0
  8
0
 62
     7
 10
-305.15696099999991
 20
536.0376819999999
 30
0.0
 11
-306.19883099999993
 21
541.94653300000004
 31
0.0
  0
LINE
  5
3A1
  8
0
 62
     7
 10
-305.15696099999991
 20
643.28765899999985
 30
0.0
 11
-306.19883099999993
 21
637.37881500000003
 31
0.0
  0
LINE
  5
3A2
  8
0
 62
     7
 10
-305.15696099999991
 20
643.28765899999985
 30
0.0
 11
-304.11509100000001
 21
637.37881500000003
 31
0.0
  0
LINE
  5
3A3
  8
0
 62
     7
 10
-305.15696099999991
 20
536.0376819999999
 30
0.0
 11
-305.15696099999991
 21
643.28765899999985
 31
0.0
  0
LINE
  5
3A4
  8
0
 62
     7
 10
-309.15696099999991
 20
536.0376819999999
 30
0.0
 11
-275.99497400000001
 21
536.0376819999999
 31
0.0
  0
LINE
  5
3A5
  8
0
 62
     7
 10
-309.15696099999991
 20
643.28765899999985
 30
0.0
 11
-247.04074999999989
 21
643.28765899999985
 31
0.0
  0
LINE
  5
3A6
  8
0
 62
     7
 10
-112.440774
 20
706.51904300000001
 30
0.0
 11
-118.3495879999999
 21
707.56094399999995
 31
0.0
  0
LINE
  5
3A7
  8
0
 62
     7
 10
-112.440774
 20
706.51904300000001
 30
0.0
 11
-118.3495879999999
 21
705.47717299999988
 31
0.0
  0
LINE
  5
3A8
  8
0
 62
     7
 10
-229.440774
 20
706.51904300000001
 30
0.0
 11
-223.53196099999991
 21
705.47714199999984
 31
0.0
  0
LINE
  5
3A9
  8
0
 62
     7
 10
-229.440774
 20
706.51904300000001
 30
0.0
 11
-223.53196099999991
 21
707.56094399999995
 31
0.0
  0
LINE
  5
3AA
  8
0
 62
     7
 10
-112.440774
 20
706.51904300000001
 30
0.0
 11
-229.440774
 21
706.51904300000001
 31
0.0
  0
LINE
  5
3AB
  8
0
 62
     7
 10
-112.440774
 20
710.51904300000001
 30
0.0
 11
-112.440774
 21
615.28768899999989
 31
0.0
  0
LINE
  5
3AC
  8
0
 62
     7
 10
-229.440774
 20
710.51904300000001
 30
0.0
 11
-229.440774
 21
615.28768899999989
 31
0.0
  0
LINE
  5
3AD
  8
0
 62
     7
 10
-91.792581000000013
 20
455.53768500000001
 30
0.0
 11
-90.750649999999993
 21
461.44653299999987
 31
0.0
  0
LINE
  5
3AE
  8
0
 62
     7
 10
-91.792581000000013
 20
455.53768500000001
 30
0.0
 11
-92.834450999999987
 21
461.44653299999987
 31
0.0
  0
LINE
  5
3AF
  8
0
 62
     7
 10
-91.792581000000013
 20
616.537689
 30
0.0
 11
-92.834450999999987
 21
610.62884499999996
 31
0.0
  0
LINE
  5
3B0
  8
0
 62
     7
 10
-91.792581000000013
 20
616.537689
 30
0.0
 11
-90.750649999999993
 21
610.62884499999996
 31
0.0
  0
LINE
  5
3B1
  8
0
 62
     7
 10
-91.792581000000013
 20
455.53768500000001
 30
0.0
 11
-91.792581000000013
 21
616.537689
 31
0.0
  0
LINE
  5
3B2
  8
0
 62
     7
 10
-87.792581000000013
 20
455.53768500000001
 30
0.0
 11
-113.690774
 21
455.53768300000002
 31
0.0
  0
LINE
  5
3B3
  8
0
 62
     7
 10
-87.792581000000013
 20
616.537689
 30
0.0
 11
-113.690774
 21
616.537689
 31
0.0
  0
LINE
  5
3B4
  8
0
 62
     7
 10
320.60078399999992
 20
480.03768200000002
 30
0.0
 11
432.60078399999992
 21
480.03768200000002
 31
0.0
  0
LINE
  5
3B5
  8
0
 62
     7
 10
320.60078399999992
 20
592.03768200000002
 30
0.0
 11
432.60078399999992
 21
592.03768200000002
 31
0.0
  0
LINE
  5
3B6
  8
0
 62
     7
 10
320.60078399999992
 20
592.03768200000002
 30
0.0
 11
320.60078399999992
 21
480.03768200000002
 31
0.0
  0
LINE
  5
3B7
  8
0
 62
     7
 10
432.60078399999992
 20
592.03768200000002
 30
0.0
 11
432.60078399999992
 21
480.03768200000002
 31
0.0
  0
LINE
  5
3B8
  8
0
  6
DASHDOT
 62
     7
 10
376.60078399999992
 20
665.92355299999997
 30
0.0
 11
376.60078399999992
 21
438.55066699999992
 31
0.0
  0
CIRCLE
  5
3B9
  8
0
 62
     7
 10
336.60078399999992
 20
607.0376819999999
 30
0.0
 40
3.5
  0
CIRCLE
  5
3BA
  8
0
 62
     7
 10
416.60078399999992
 20
607.0376819999999
 30
0.0
 40
3.5
  0
CIRCLE
  5
3BB
  8
0
 62
     7
 10
416.60078399999992
 20
465.0376819999999
 30
0.0
 40
3.5
  0
CIRCLE
  5
3BC
  8
0
 62
     7
 10
336.60078399999992
 20
465.0376819999999
 30
0.0
 40
3.5
  0
POLYLINE
  5
3BD
  8
0
 62
     3
 66
     1
 10
0.0
 20
0.0
 30
0.0
  0
VERTEX
  5
798
  8
0
 62
     3
 10
304.74279799999999
 20
616.43688199999997
 30
0.0
  0
VERTEX
  5
799
  8
0
 62
     3
 10
320.74279799999988
 20
616.43688199999997
 30
0.0
  0
VERTEX
  5
79A
  8
0
 62
     3
 10
321.74279799999999
 20
618.43688200000008
 30
0.0
  0
VERTEX
  5
79B
  8
0
 62
     3
 10
322.74279799999988
 20
614.43688200000008
 30
0.0
  0
VERTEX
  5
79C
  8
0
 62
     3
 10
323.74279799999999
 20
616.43688199999997
 30
0.0
  0
VERTEX
  5
79D
  8
0
 62
     3
 10
339.74279799999988
 20
616.43688199999997
 30
0.0
  0
VERTEX
  5
79E
  8
0
 62
     3
 10
340.74279799999999
 20
618.43688200000008
 30
0.0
  0
VERTEX
  5
79F
  8
0
 62
     3
 10
341.74279799999988
 20
614.43688200000008
 30
0.0
  0
VERTEX
  5
7A0
  8
0
 62
     3
 10
342.74279799999999
 20
616.43688199999997
 30
0.0
  0
VERTEX
  5
7A1
  8
0
 62
     3
 10
358.74279799999999
 20
616.43688199999997
 30
0.0
  0
VERTEX
  5
7A2
  8
0
 62
     3
 10
359.74279799999988
 20
618.43688200000008
 30
0.0
  0
VERTEX
  5
7A3
  8
0
 62
     3
 10
360.74279799999999
 20
614.43688200000008
 30
0.0
  0
VERTEX
  5
7A4
  8
0
 62
     3
 10
361.74279799999988
 20
616.43688199999997
 30
0.0
  0
VERTEX
  5
7A5
  8
0
 62
     3
 10
377.74279799999999
 20
616.43688199999997
 30
0.0
  0
VERTEX
  5
7A6
  8
0
 62
     3
 10
378.74279799999988
 20
618.43688200000008
 30
0.0
  0
VERTEX
  5
7A7
  8
0
 62
     3
 10
379.74279799999999
 20
614.43688200000008
 30
0.0
  0
VERTEX
  5
7A8
  8
0
 62
     3
 10
380.74279799999988
 20
616.43688199999997
 30
0.0
  0
VERTEX
  5
7A9
  8
0
 62
     3
 10
396.74279799999999
 20
616.43688199999997
 30
0.0
  0
VERTEX
  5
7AA
  8
0
 62
     3
 10
397.74279799999988
 20
618.43688200000008
 30
0.0
  0
VERTEX
  5
7AB
  8
0
 62
     3
 10
398.74279799999999
 20
614.43688200000008
 30
0.0
  0
VERTEX
  5
7AC
  8
0
 62
     3
 10
399.74279799999988
 20
616.43688199999997
 30
0.0
  0
VERTEX
  5
7AD
  8
0
 62
     3
 10
415.74279799999988
 20
616.43688199999997
 30
0.0
  0
VERTEX
  5
7AE
  8
0
 62
     3
 10
416.74279799999999
 20
618.43688200000008
 30
0.0
  0
VERTEX
  5
7AF
  8
0
 62
     3
 10
417.74279799999999
 20
614.43688200000008
 30
0.0
  0
VERTEX
  5
7B0
  8
0
 62
     3
 10
418.74279799999988
 20
616.43688199999997
 30
0.0
  0
VERTEX
  5
7B1
  8
0
 62
     3
 10
434.74279799999999
 20
616.43688199999997
 30
0.0
  0
VERTEX
  5
7B2
  8
0
 62
     3
 10
435.74279799999999
 20
618.43688200000008
 30
0.0
  0
VERTEX
  5
7B3
  8
0
 62
     3
 10
436.74279799999999
 20
614.43688200000008
 30
0.0
  0
VERTEX
  5
7B4
  8
0
 62
     3
 10
437.74279799999999
 20
616.43688199999997
 30
0.0
  0
VERTEX
  5
7B5
  8
0
 62
     3
 10
447.956276
 20
616.43688199999997
 30
0.0
  0
SEQEND
  5
7B6
  8
0
 62
     3
  0
POLYLINE
  5
3DD
  8
0
 62
     3
 66
     1
 10
0.0
 20
0.0
 30
0.0
  0
VERTEX
  5
7B7
  8
0
 62
     3
 10
304.74279799999999
 20
451.61576100000002
 30
0.0
  0
VERTEX
  5
7B8
  8
0
 62
     3
 10
320.74279799999988
 20
451.61576100000002
 30
0.0
  0
VERTEX
  5
7B9
  8
0
 62
     3
 10
321.74279799999999
 20
453.61576100000002
 30
0.0
  0
VERTEX
  5
7BA
  8
0
 62
     3
 10
322.74279799999988
 20
449.61576100000002
 30
0.0
  0
VERTEX
  5
7BB
  8
0
 62
     3
 10
323.74279799999999
 20
451.61576100000002
 30
0.0
  0
VERTEX
  5
7BC
  8
0
 62
     3
 10
339.74279799999988
 20
451.61576100000002
 30
0.0
  0
VERTEX
  5
7BD
  8
0
 62
     3
 10
340.74279799999999
 20
453.61576100000002
 30
0.0
  0
VERTEX
  5
7BE
  8
0
 62
     3
 10
341.74279799999988
 20
449.61576100000002
 30
0.0
  0
VERTEX
  5
7BF
  8
0
 62
     3
 10
342.74279799999999
 20
451.61576100000002
 30
0.0
  0
VERTEX
  5
7C0
  8
0
 62
     3
 10
358.74279799999999
 20
451.61576100000002
 30
0.0
  0
VERTEX
  5
7C1
  8
0
 62
     3
 10
359.74279799999988
 20
453.61576100000002
 30
0.0
  0
VERTEX
  5
7C2
  8
0
 62
     3
 10
360.74279799999999
 20
449.61576100000002
 30
0.0
  0
VERTEX
  5
7C3
  8
0
 62
     3
 10
361.74279799999988
 20
451.61576100000002
 30
0.0
  0
VERTEX
  5
7C4
  8
0
 62
     3
 10
377.74279799999999
 20
451.61576100000002
 30
0.0
  0
VERTEX
  5
7C5
  8
0
 62
     3
 10
378.74279799999988
 20
453.61576100000002
 30
0.0
  0
VERTEX
  5
7C6
  8
0
 62
     3
 10
379.74279799999999
 20
449.61576100000002
 30
0.0
  0
VERTEX
  5
7C7
  8
0
 62
     3
 10
380.74279799999988
 20
451.61576100000002
 30
0.0
  0
VERTEX
  5
7C8
  8
0
 62
     3
 10
396.74279799999999
 20
451.61576100000002
 30
0.0
  0
VERTEX
  5
7C9
  8
0
 62
     3
 10
397.74279799999988
 20
453.61576100000002
 30
0.0
  0
VERTEX
  5
7CA
  8
0
 62
     3
 10
398.74279799999999
 20
449.61576100000002
 30
0.0
  0
VERTEX
  5
7CB
  8
0
 62
     3
 10
399.74279799999988
 20
451.61576100000002
 30
0.0
  0
VERTEX
  5
7CC
  8
0
 62
     3
 10
415.74279799999988
 20
451.61576100000002
 30
0.0
  0
VERTEX
  5
7CD
  8
0
 62
     3
 10
416.74279799999999
 20
453.61576100000002
 30
0.0
  0
VERTEX
  5
7CE
  8
0
 62
     3
 10
417.74279799999999
 20
449.61576100000002
 30
0.0
  0
VERTEX
  5
7CF
  8
0
 62
     3
 10
418.74279799999988
 20
451.61576100000002
 30
0.0
  0
VERTEX
  5
7D0
  8
0
 62
     3
 10
434.74279799999999
 20
451.61576100000002
 30
0.0
  0
VERTEX
  5
7D1
  8
0
 62
     3
 10
435.74279799999999
 20
453.61576100000002
 30
0.0
  0
VERTEX
  5
7D2
  8
0
 62
     3
 10
436.74279799999999
 20
449.61576100000002
 30
0.0
  0
VERTEX
  5
7D3
  8
0
 62
     3
 10
437.74279799999999
 20
451.61576100000002
 30
0.0
  0
VERTEX
  5
7D4
  8
0
 62
     3
 10
447.956276
 20
451.61576100000002
 30
0.0
  0
SEQEND
  5
7D5
  8
0
 62
     3
  0
POLYLINE
  5
3FD
  8
0
 62
     3
 66
     1
 10
0.0
 20
0.0
 30
0.0
  0
VERTEX
  5
7D6
  8
0
 62
     3
 10
447.956276
 20
616.43688199999997
 30
0.0
  0
VERTEX
  5
7D7
  8
0
 62
     3
 10
447.956276
 20
600.43688199999997
 30
0.0
  0
VERTEX
  5
7D8
  8
0
 62
     3
 10
449.95627599999989
 20
599.43688199999997
 30
0.0
  0
VERTEX
  5
7D9
  8
0
 62
     3
 10
445.95627599999989
 20
598.43688200000008
 30
0.0
  0
VERTEX
  5
7DA
  8
0
 62
     3
 10
447.956276
 20
597.43688200000008
 30
0.0
  0
VERTEX
  5
7DB
  8
0
 62
     3
 10
447.956276
 20
581.43688200000008
 30
0.0
  0
VERTEX
  5
7DC
  8
0
 62
     3
 10
449.95627599999989
 20
580.43688199999997
 30
0.0
  0
VERTEX
  5
7DD
  8
0
 62
     3
 10
445.95627599999989
 20
579.43688199999997
 30
0.0
  0
VERTEX
  5
7DE
  8
0
 62
     3
 10
447.956276
 20
578.43688199999997
 30
0.0
  0
VERTEX
  5
7DF
  8
0
 62
     3
 10
447.956276
 20
562.43688199999997
 30
0.0
  0
VERTEX
  5
7E0
  8
0
 62
     3
 10
449.95627599999989
 20
561.43688200000008
 30
0.0
  0
VERTEX
  5
7E1
  8
0
 62
     3
 10
445.95627599999989
 20
560.43688200000008
 30
0.0
  0
VERTEX
  5
7E2
  8
0
 62
     3
 10
447.956276
 20
559.43688199999997
 30
0.0
  0
VERTEX
  5
7E3
  8
0
 62
     3
 10
447.956276
 20
543.43688200000008
 30
0.0
  0
VERTEX
  5
7E4
  8
0
 62
     3
 10
449.95627599999989
 20
542.43688199999997
 30
0.0
  0
VERTEX
  5
7E5
  8
0
 62
     3
 10
445.95627599999989
 20
541.43688199999997
 30
0.0
  0
VERTEX
  5
7E6
  8
0
 62
     3
 10
447.956276
 20
540.43688200000008
 30
0.0
  0
VERTEX
  5
7E7
  8
0
 62
     3
 10
447.956276
 20
524.43688199999997
 30
0.0
  0
VERTEX
  5
7E8
  8
0
 62
     3
 10
449.95627599999989
 20
523.43688200000008
 30
0.0
  0
VERTEX
  5
7E9
  8
0
 62
     3
 10
445.95627599999989
 20
522.43688200000008
 30
0.0
  0
VERTEX
  5
7EA
  8
0
 62
     3
 10
447.956276
 20
521.43688199999997
 30
0.0
  0
VERTEX
  5
7EB
  8
0
 62
     3
 10
447.956276
 20
505.43688200000003
 30
0.0
  0
VERTEX
  5
7EC
  8
0
 62
     3
 10
449.95627599999989
 20
504.43688200000003
 30
0.0
  0
VERTEX
  5
7ED
  8
0
 62
     3
 10
445.95627599999989
 20
503.43688200000003
 30
0.0
  0
VERTEX
  5
7EE
  8
0
 62
     3
 10
447.956276
 20
502.43688200000003
 30
0.0
  0
VERTEX
  5
7EF
  8
0
 62
     3
 10
447.956276
 20
486.43688200000003
 30
0.0
  0
VERTEX
  5
7F0
  8
0
 62
     3
 10
449.95627599999989
 20
485.43688200000003
 30
0.0
  0
VERTEX
  5
7F1
  8
0
 62
     3
 10
445.95627599999989
 20
484.43688200000003
 30
0.0
  0
VERTEX
  5
7F2
  8
0
 62
     3
 10
447.956276
 20
483.43688200000003
 30
0.0
  0
VERTEX
  5
7F3
  8
0
 62
     3
 10
447.956276
 20
467.43688200000003
 30
0.0
  0
VERTEX
  5
7F4
  8
0
 62
     3
 10
449.95627599999989
 20
466.43688199999991
 30
0.0
  0
VERTEX
  5
7F5
  8
0
 62
     3
 10
445.95627599999989
 20
465.43688200000003
 30
0.0
  0
VERTEX
  5
7F6
  8
0
 62
     3
 10
447.956276
 20
464.43688200000003
 30
0.0
  0
VERTEX
  5
7F7
  8
0
 62
     3
 10
447.956276
 20
451.61576100000002
 30
0.0
  0
SEQEND
  5
7F8
  8
0
 62
     3
  0
POLYLINE
  5
421
  8
0
 62
     3
 66
     1
 10
0.0
 20
0.0
 30
0.0
  0
VERTEX
  5
7F9
  8
0
 62
     3
 10
304.74279799999999
 20
616.43688199999997
 30
0.0
  0
VERTEX
  5
7FA
  8
0
 62
     3
 10
304.74279799999999
 20
600.43688199999997
 30
0.0
  0
VERTEX
  5
7FB
  8
0
 62
     3
 10
306.74279799999999
 20
599.43688199999997
 30
0.0
  0
VERTEX
  5
7FC
  8
0
 62
     3
 10
302.74279799999999
 20
598.43688200000008
 30
0.0
  0
VERTEX
  5
7FD
  8
0
 62
     3
 10
304.74279799999999
 20
597.43688200000008
 30
0.0
  0
VERTEX
  5
7FE
  8
0
 62
     3
 10
304.74279799999999
 20
581.43688200000008
 30
0.0
  0
VERTEX
  5
7FF
  8
0
 62
     3
 10
306.74279799999999
 20
580.43688199999997
 30
0.0
  0
VERTEX
  5
800
  8
0
 62
     3
 10
302.74279799999999
 20
579.43688199999997
 30
0.0
  0
VERTEX
  5
801
  8
0
 62
     3
 10
304.74279799999999
 20
578.43688199999997
 30
0.0
  0
VERTEX
  5
802
  8
0
 62
     3
 10
304.74279799999999
 20
562.43688199999997
 30
0.0
  0
VERTEX
  5
803
  8
0
 62
     3
 10
306.74279799999999
 20
561.43688200000008
 30
0.0
  0
VERTEX
  5
804
  8
0
 62
     3
 10
302.74279799999999
 20
560.43688200000008
 30
0.0
  0
VERTEX
  5
805
  8
0
 62
     3
 10
304.74279799999999
 20
559.43688199999997
 30
0.0
  0
VERTEX
  5
806
  8
0
 62
     3
 10
304.74279799999999
 20
543.43688200000008
 30
0.0
  0
VERTEX
  5
807
  8
0
 62
     3
 10
306.74279799999999
 20
542.43688199999997
 30
0.0
  0
VERTEX
  5
808
  8
0
 62
     3
 10
302.74279799999999
 20
541.43688199999997
 30
0.0
  0
VERTEX
  5
809
  8
0
 62
     3
 10
304.74279799999999
 20
540.43688200000008
 30
0.0
  0
VERTEX
  5
80A
  8
0
 62
     3
 10
304.74279799999999
 20
524.43688199999997
 30
0.0
  0
VERTEX
  5
80B
  8
0
 62
     3
 10
306.74279799999999
 20
523.43688200000008
 30
0.0
  0
VERTEX
  5
80C
  8
0
 62
     3
 10
302.74279799999999
 20
522.43688200000008
 30
0.0
  0
VERTEX
  5
80D
  8
0
 62
     3
 10
304.74279799999999
 20
521.43688199999997
 30
0.0
  0
VERTEX
  5
80E
  8
0
 62
     3
 10
304.74279799999999
 20
505.43688200000003
 30
0.0
  0
VERTEX
  5
80F
  8
0
 62
     3
 10
306.74279799999999
 20
504.43688200000003
 30
0.0
  0
VERTEX
  5
810
  8
0
 62
     3
 10
302.74279799999999
 20
503.43688200000003
 30
0.0
  0
VERTEX
  5
811
  8
0
 62
     3
 10
304.74279799999999
 20
502.43688200000003
 30
0.0
  0
VERTEX
  5
812
  8
0
 62
     3
 10
304.74279799999999
 20
486.43688200000003
 30
0.0
  0
VERTEX
  5
813
  8
0
 62
     3
 10
306.74279799999999
 20
485.43688200000003
 30
0.0
  0
VERTEX
  5
814
  8
0
 62
     3
 10
302.74279799999999
 20
484.43688200000003
 30
0.0
  0
VERTEX
  5
815
  8
0
 62
     3
 10
304.74279799999999
 20
483.43688200000003
 30
0.0
  0
VERTEX
  5
816
  8
0
 62
     3
 10
304.74279799999999
 20
467.43688200000003
 30
0.0
  0
VERTEX
  5
817
  8
0
 62
     3
 10
306.74279799999999
 20
466.43688199999991
 30
0.0
  0
VERTEX
  5
818
  8
0
 62
     3
 10
302.74279799999999
 20
465.43688200000003
 30
0.0
  0
VERTEX
  5
819
  8
0
 62
     3
 10
304.74279799999999
 20
464.43688200000003
 30
0.0
  0
VERTEX
  5
81A
  8
0
 62
     3
 10
304.74279799999999
 20
451.61576100000002
 30
0.0
  0
SEQEND
  5
81B
  8
0
 62
     3
  0
LINE
  5
445
  8
0
  6
DASHDOT
 62
     7
 10
416.60078399999992
 20
613.53768200000002
 30
0.0
 11
416.60078399999992
 21
600.53768200000002
 31
0.0
  0
LINE
  5
446
  8
0
  6
DASHDOT
 62
     7
 10
410.10078399999992
 20
607.0376819999999
 30
0.0
 11
423.10078399999998
 21
607.0376819999999
 31
0.0
  0
LINE
  5
447
  8
0
  6
DASHDOT
 62
     7
 10
336.60078399999992
 20
613.53768200000002
 30
0.0
 11
336.60078399999992
 21
600.53768200000002
 31
0.0
  0
LINE
  5
448
  8
0
  6
DASHDOT
 62
     7
 10
330.10078399999998
 20
607.0376819999999
 30
0.0
 11
343.10078399999992
 21
607.0376819999999
 31
0.0
  0
LINE
  5
449
  8
0
  6
DASHDOT
 62
     7
 10
336.60078399999992
 20
471.53768200000002
 30
0.0
 11
336.60078399999992
 21
458.53768200000002
 31
0.0
  0
LINE
  5
44A
  8
0
  6
DASHDOT
 62
     7
 10
330.10078399999998
 20
465.0376819999999
 30
0.0
 11
343.10078399999992
 21
465.0376819999999
 31
0.0
  0
LINE
  5
44B
  8
0
  6
DASHDOT
 62
     7
 10
416.60078399999992
 20
471.53768200000002
 30
0.0
 11
416.60078399999992
 21
458.53768200000002
 31
0.0
  0
LINE
  5
44C
  8
0
  6
DASHDOT
 62
     7
 10
410.10078399999992
 20
465.0376819999999
 30
0.0
 11
423.10078399999998
 21
465.0376819999999
 31
0.0
  0
CIRCLE
  5
44D
  8
0
 62
     7
 10
311.27533
 20
611.15068099999985
 30
0.0
 40
0.25
  0
LINE
  5
44E
  8
0
 62
     7
 10
320.60078399999992
 20
480.03768200000002
 30
0.0
 11
432.60078399999992
 21
480.03768200000002
 31
0.0
  0
LINE
  5
44F
  8
0
 62
     7
 10
320.60078399999992
 20
592.03768200000002
 30
0.0
 11
432.60078399999992
 21
592.03768200000002
 31
0.0
  0
LINE
  5
450
  8
0
 62
     7
 10
320.60078399999992
 20
592.03768200000002
 30
0.0
 11
320.60078399999992
 21
480.03768200000002
 31
0.0
  0
LINE
  5
451
  8
0
 62
     7
 10
432.60078399999992
 20
592.03768200000002
 30
0.0
 11
432.60078399999992
 21
480.03768200000002
 31
0.0
  0
LINE
  5
452
  8
0
  6
DASHDOT
 62
     7
 10
376.60078399999992
 20
665.92355299999997
 30
0.0
 11
376.60078399999992
 21
438.55066699999992
 31
0.0
  0
CIRCLE
  5
453
  8
0
 62
     7
 10
336.60078399999992
 20
607.0376819999999
 30
0.0
 40
3.5
  0
CIRCLE
  5
454
  8
0
 62
     7
 10
416.60078399999992
 20
607.0376819999999
 30
0.0
 40
3.5
  0
CIRCLE
  5
455
  8
0
 62
     7
 10
416.60078399999992
 20
465.0376819999999
 30
0.0
 40
3.5
  0
CIRCLE
  5
456
  8
0
 62
     7
 10
336.60078399999992
 20
465.0376819999999
 30
0.0
 40
3.5
  0
POLYLINE
  5
457
  8
0
 62
     3
 66
     1
 10
0.0
 20
0.0
 30
0.0
  0
VERTEX
  5
81C
  8
0
 62
     3
 10
304.74279799999999
 20
616.43688199999997
 30
0.0
  0
VERTEX
  5
81D
  8
0
 62
     3
 10
320.74279799999988
 20
616.43688199999997
 30
0.0
  0
VERTEX
  5
81E
  8
0
 62
     3
 10
321.74279799999999
 20
618.43688200000008
 30
0.0
  0
VERTEX
  5
81F
  8
0
 62
     3
 10
322.74279799999988
 20
614.43688200000008
 30
0.0
  0
VERTEX
  5
820
  8
0
 62
     3
 10
323.74279799999999
 20
616.43688199999997
 30
0.0
  0
VERTEX
  5
821
  8
0
 62
     3
 10
339.74279799999988
 20
616.43688199999997
 30
0.0
  0
VERTEX
  5
822
  8
0
 62
     3
 10
340.74279799999999
 20
618.43688200000008
 30
0.0
  0
VERTEX
  5
823
  8
0
 62
     3
 10
341.74279799999988
 20
614.43688200000008
 30
0.0
  0
VERTEX
  5
824
  8
0
 62
     3
 10
342.74279799999999
 20
616.43688199999997
 30
0.0
  0
VERTEX
  5
825
  8
0
 62
     3
 10
358.74279799999999
 20
616.43688199999997
 30
0.0
  0
VERTEX
  5
826
  8
0
 62
     3
 10
359.74279799999988
 20
618.43688200000008
 30
0.0
  0
VERTEX
  5
827
  8
0
 62
     3
 10
360.74279799999999
 20
614.43688200000008
 30
0.0
  0
VERTEX
  5
828
  8
0
 62
     3
 10
361.74279799999988
 20
616.43688199999997
 30
0.0
  0
VERTEX
  5
829
  8
0
 62
     3
 10
377.74279799999999
 20
616.43688199999997
 30
0.0
  0
VERTEX
  5
82A
  8
0
 62
     3
 10
378.74279799999988
 20
618.43688200000008
 30
0.0
  0
VERTEX
  5
82B
  8
0
 62
     3
 10
379.74279799999999
 20
614.43688200000008
 30
0.0
  0
VERTEX
  5
82C
  8
0
 62
     3
 10
380.74279799999988
 20
616.43688199999997
 30
0.0
  0
VERTEX
  5
82D
  8
0
 62
     3
 10
396.74279799999999
 20
616.43688199999997
 30
0.0
  0
VERTEX
  5
82E
  8
0
 62
     3
 10
397.74279799999988
 20
618.43688200000008
 30
0.0
  0
VERTEX
  5
82F
  8
0
 62
     3
 10
398.74279799999999
 20
614.43688200000008
 30
0.0
  0
VERTEX
  5
830
  8
0
 62
     3
 10
399.74279799999988
 20
616.43688199999997
 30
0.0
  0
VERTEX
  5
831
  8
0
 62
     3
 10
415.74279799999988
 20
616.43688199999997
 30
0.0
  0
VERTEX
  5
832
  8
0
 62
     3
 10
416.74279799999999
 20
618.43688200000008
 30
0.0
  0
VERTEX
  5
833
  8
0
 62
     3
 10
417.74279799999999
 20
614.43688200000008
 30
0.0
  0
VERTEX
  5
834
  8
0
 62
     3
 10
418.74279799999988
 20
616.43688199999997
 30
0.0
  0
VERTEX
  5
835
  8
0
 62
     3
 10
434.74279799999999
 20
616.43688199999997
 30
0.0
  0
VERTEX
  5
836
  8
0
 62
     3
 10
435.74279799999999
 20
618.43688200000008
 30
0.0
  0
VERTEX
  5
837
  8
0
 62
     3
 10
436.74279799999999
 20
614.43688200000008
 30
0.0
  0
VERTEX
  5
838
  8
0
 62
     3
 10
437.74279799999999
 20
616.43688199999997
 30
0.0
  0
VERTEX
  5
839
  8
0
 62
     3
 10
447.956276
 20
616.43688199999997
 30
0.0
  0
SEQEND
  5
83A
  8
0
 62
     3
  0
POLYLINE
  5
477
  8
0
 62
     3
 66
     1
 10
0.0
 20
0.0
 30
0.0
  0
VERTEX
  5
83B
  8
0
 62
     3
 10
304.74279799999999
 20
451.61576100000002
 30
0.0
  0
VERTEX
  5
83C
  8
0
 62
     3
 10
320.74279799999988
 20
451.61576100000002
 30
0.0
  0
VERTEX
  5
83D
  8
0
 62
     3
 10
321.74279799999999
 20
453.61576100000002
 30
0.0
  0
VERTEX
  5
83E
  8
0
 62
     3
 10
322.74279799999988
 20
449.61576100000002
 30
0.0
  0
VERTEX
  5
83F
  8
0
 62
     3
 10
323.74279799999999
 20
451.61576100000002
 30
0.0
  0
VERTEX
  5
840
  8
0
 62
     3
 10
339.74279799999988
 20
451.61576100000002
 30
0.0
  0
VERTEX
  5
841
  8
0
 62
     3
 10
340.74279799999999
 20
453.61576100000002
 30
0.0
  0
VERTEX
  5
842
  8
0
 62
     3
 10
341.74279799999988
 20
449.61576100000002
 30
0.0
  0
VERTEX
  5
843
  8
0
 62
     3
 10
342.74279799999999
 20
451.61576100000002
 30
0.0
  0
VERTEX
  5
844
  8
0
 62
     3
 10
358.74279799999999
 20
451.61576100000002
 30
0.0
  0
VERTEX
  5
845
  8
0
 62
     3
 10
359.74279799999988
 20
453.61576100000002
 30
0.0
  0
VERTEX
  5
846
  8
0
 62
     3
 10
360.74279799999999
 20
449.61576100000002
 30
0.0
  0
VERTEX
  5
847
  8
0
 62
     3
 10
361.74279799999988
 20
451.61576100000002
 30
0.0
  0
VERTEX
  5
848
  8
0
 62
     3
 10
377.74279799999999
 20
451.61576100000002
 30
0.0
  0
VERTEX
  5
849
  8
0
 62
     3
 10
378.74279799999988
 20
453.61576100000002
 30
0.0
  0
VERTEX
  5
84A
  8
0
 62
     3
 10
379.74279799999999
 20
449.61576100000002
 30
0.0
  0
VERTEX
  5
84B
  8
0
 62
     3
 10
380.74279799999988
 20
451.61576100000002
 30
0.0
  0
VERTEX
  5
84C
  8
0
 62
     3
 10
396.74279799999999
 20
451.61576100000002
 30
0.0
  0
VERTEX
  5
84D
  8
0
 62
     3
 10
397.74279799999988
 20
453.61576100000002
 30
0.0
  0
VERTEX
  5
84E
  8
0
 62
     3
 10
398.74279799999999
 20
449.61576100000002
 30
0.0
  0
VERTEX
  5
84F
  8
0
 62
     3
 10
399.74279799999988
 20
451.61576100000002
 30
0.0
  0
VERTEX
  5
850
  8
0
 62
     3
 10
415.74279799999988
 20
451.61576100000002
 30
0.0
  0
VERTEX
  5
851
  8
0
 62
     3
 10
416.74279799999999
 20
453.61576100000002
 30
0.0
  0
VERTEX
  5
852
  8
0
 62
     3
 10
417.74279799999999
 20
449.61576100000002
 30
0.0
  0
VERTEX
  5
853
  8
0
 62
     3
 10
418.74279799999988
 20
451.61576100000002
 30
0.0
  0
VERTEX
  5
854
  8
0
 62
     3
 10
434.74279799999999
 20
451.61576100000002
 30
0.0
  0
VERTEX
  5
855
  8
0
 62
     3
 10
435.74279799999999
 20
453.61576100000002
 30
0.0
  0
VERTEX
  5
856
  8
0
 62
     3
 10
436.74279799999999
 20
449.61576100000002
 30
0.0
  0
VERTEX
  5
857
  8
0
 62
     3
 10
437.74279799999999
 20
451.61576100000002
 30
0.0
  0
VERTEX
  5
858
  8
0
 62
     3
 10
447.956276
 20
451.61576100000002
 30
0.0
  0
SEQEND
  5
859
  8
0
 62
     3
  0
POLYLINE
  5
497
  8
0
 62
     3
 66
     1
 10
0.0
 20
0.0
 30
0.0
  0
VERTEX
  5
85A
  8
0
 62
     3
 10
447.956276
 20
616.43688199999997
 30
0.0
  0
VERTEX
  5
85B
  8
0
 62
     3
 10
447.956276
 20
600.43688199999997
 30
0.0
  0
VERTEX
  5
85C
  8
0
 62
     3
 10
449.95627599999989
 20
599.43688199999997
 30
0.0
  0
VERTEX
  5
85D
  8
0
 62
     3
 10
445.95627599999989
 20
598.43688200000008
 30
0.0
  0
VERTEX
  5
85E
  8
0
 62
     3
 10
447.956276
 20
597.43688200000008
 30
0.0
  0
VERTEX
  5
85F
  8
0
 62
     3
 10
447.956276
 20
581.43688200000008
 30
0.0
  0
VERTEX
  5
860
  8
0
 62
     3
 10
449.95627599999989
 20
580.43688199999997
 30
0.0
  0
VERTEX
  5
861
  8
0
 62
     3
 10
445.95627599999989
 20
579.43688199999997
 30
0.0
  0
VERTEX
  5
862
  8
0
 62
     3
 10
447.956276
 20
578.43688199999997
 30
0.0
  0
VERTEX
  5
863
  8
0
 62
     3
 10
447.956276
 20
562.43688199999997
 30
0.0
  0
VERTEX
  5
864
  8
0
 62
     3
 10
449.95627599999989
 20
561.43688200000008
 30
0.0
  0
VERTEX
  5
865
  8
0
 62
     3
 10
445.95627599999989
 20
560.43688200000008
 30
0.0
  0
VERTEX
  5
866
  8
0
 62
     3
 10
447.956276
 20
559.43688199999997
 30
0.0
  0
VERTEX
  5
867
  8
0
 62
     3
 10
447.956276
 20
543.43688200000008
 30
0.0
  0
VERTEX
  5
868
  8
0
 62
     3
 10
449.95627599999989
 20
542.43688199999997
 30
0.0
  0
VERTEX
  5
869
  8
0
 62
     3
 10
445.95627599999989
 20
541.43688199999997
 30
0.0
  0
VERTEX
  5
86A
  8
0
 62
     3
 10
447.956276
 20
540.43688200000008
 30
0.0
  0
VERTEX
  5
86B
  8
0
 62
     3
 10
447.956276
 20
524.43688199999997
 30
0.0
  0
VERTEX
  5
86C
  8
0
 62
     3
 10
449.95627599999989
 20
523.43688200000008
 30
0.0
  0
VERTEX
  5
86D
  8
0
 62
     3
 10
445.95627599999989
 20
522.43688200000008
 30
0.0
  0
VERTEX
  5
86E
  8
0
 62
     3
 10
447.956276
 20
521.43688199999997
 30
0.0
  0
VERTEX
  5
86F
  8
0
 62
     3
 10
447.956276
 20
505.43688200000003
 30
0.0
  0
VERTEX
  5
870
  8
0
 62
     3
 10
449.95627599999989
 20
504.43688200000003
 30
0.0
  0
VERTEX
  5
871
  8
0
 62
     3
 10
445.95627599999989
 20
503.43688200000003
 30
0.0
  0
VERTEX
  5
872
  8
0
 62
     3
 10
447.956276
 20
502.43688200000003
 30
0.0
  0
VERTEX
  5
873
  8
0
 62
     3
 10
447.956276
 20
486.43688200000003
 30
0.0
  0
VERTEX
  5
874
  8
0
 62
     3
 10
449.95627599999989
 20
485.43688200000003
 30
0.0
  0
VERTEX
  5
875
  8
0
 62
     3
 10
445.95627599999989
 20
484.43688200000003
 30
0.0
  0
VERTEX
  5
876
  8
0
 62
     3
 10
447.956276
 20
483.43688200000003
 30
0.0
  0
VERTEX
  5
877
  8
0
 62
     3
 10
447.956276
 20
467.43688200000003
 30
0.0
  0
VERTEX
  5
878
  8
0
 62
     3
 10
449.95627599999989
 20
466.43688199999991
 30
0.0
  0
VERTEX
  5
879
  8
0
 62
     3
 10
445.95627599999989
 20
465.43688200000003
 30
0.0
  0
VERTEX
  5
87A
  8
0
 62
     3
 10
447.956276
 20
464.43688200000003
 30
0.0
  0
VERTEX
  5
87B
  8
0
 62
     3
 10
447.956276
 20
451.61576100000002
 30
0.0
  0
SEQEND
  5
87C
  8
0
 62
     3
  0
POLYLINE
  5
4BB
  8
0
 62
     3
 66
     1
 10
0.0
 20
0.0
 30
0.0
  0
VERTEX
  5
87D
  8
0
 62
     3
 10
304.74279799999999
 20
616.43688199999997
 30
0.0
  0
VERTEX
  5
87E
  8
0
 62
     3
 10
304.74279799999999
 20
600.43688199999997
 30
0.0
  0
VERTEX
  5
87F
  8
0
 62
     3
 10
306.74279799999999
 20
599.43688199999997
 30
0.0
  0
VERTEX
  5
880
  8
0
 62
     3
 10
302.74279799999999
 20
598.43688200000008
 30
0.0
  0
VERTEX
  5
881
  8
0
 62
     3
 10
304.74279799999999
 20
597.43688200000008
 30
0.0
  0
VERTEX
  5
882
  8
0
 62
     3
 10
304.74279799999999
 20
581.43688200000008
 30
0.0
  0
VERTEX
  5
883
  8
0
 62
     3
 10
306.74279799999999
 20
580.43688199999997
 30
0.0
  0
VERTEX
  5
884
  8
0
 62
     3
 10
302.74279799999999
 20
579.43688199999997
 30
0.0
  0
VERTEX
  5
885
  8
0
 62
     3
 10
304.74279799999999
 20
578.43688199999997
 30
0.0
  0
VERTEX
  5
886
  8
0
 62
     3
 10
304.74279799999999
 20
562.43688199999997
 30
0.0
  0
VERTEX
  5
887
  8
0
 62
     3
 10
306.74279799999999
 20
561.43688200000008
 30
0.0
  0
VERTEX
  5
888
  8
0
 62
     3
 10
302.74279799999999
 20
560.43688200000008
 30
0.0
  0
VERTEX
  5
889
  8
0
 62
     3
 10
304.74279799999999
 20
559.43688199999997
 30
0.0
  0
VERTEX
  5
88A
  8
0
 62
     3
 10
304.74279799999999
 20
543.43688200000008
 30
0.0
  0
VERTEX
  5
88B
  8
0
 62
     3
 10
306.74279799999999
 20
542.43688199999997
 30
0.0
  0
VERTEX
  5
88C
  8
0
 62
     3
 10
302.74279799999999
 20
541.43688199999997
 30
0.0
  0
VERTEX
  5
88D
  8
0
 62
     3
 10
304.74279799999999
 20
540.43688200000008
 30
0.0
  0
VERTEX
  5
88E
  8
0
 62
     3
 10
304.74279799999999
 20
524.43688199999997
 30
0.0
  0
VERTEX
  5
88F
  8
0
 62
     3
 10
306.74279799999999
 20
523.43688200000008
 30
0.0
  0
VERTEX
  5
890
  8
0
 62
     3
 10
302.74279799999999
 20
522.43688200000008
 30
0.0
  0
VERTEX
  5
891
  8
0
 62
     3
 10
304.74279799999999
 20
521.43688199999997
 30
0.0
  0
VERTEX
  5
892
  8
0
 62
     3
 10
304.74279799999999
 20
505.43688200000003
 30
0.0
  0
VERTEX
  5
893
  8
0
 62
     3
 10
306.74279799999999
 20
504.43688200000003
 30
0.0
  0
VERTEX
  5
894
  8
0
 62
     3
 10
302.74279799999999
 20
503.43688200000003
 30
0.0
  0
VERTEX
  5
895
  8
0
 62
     3
 10
304.74279799999999
 20
502.43688200000003
 30
0.0
  0
VERTEX
  5
896
  8
0
 62
     3
 10
304.74279799999999
 20
486.43688200000003
 30
0.0
  0
VERTEX
  5
897
  8
0
 62
     3
 10
306.74279799999999
 20
485.43688200000003
 30
0.0
  0
VERTEX
  5
898
  8
0
 62
     3
 10
302.74279799999999
 20
484.43688200000003
 30
0.0
  0
VERTEX
  5
899
  8
0
 62
     3
 10
304.74279799999999
 20
483.43688200000003
 30
0.0
  0
VERTEX
  5
89A
  8
0
 62
     3
 10
304.74279799999999
 20
467.43688200000003
 30
0.0
  0
VERTEX
  5
89B
  8
0
 62
     3
 10
306.74279799999999
 20
466.43688199999991
 30
0.0
  0
VERTEX
  5
89C
  8
0
 62
     3
 10
302.74279799999999
 20
465.43688200000003
 30
0.0
  0
VERTEX
  5
89D
  8
0
 62
     3
 10
304.74279799999999
 20
464.43688200000003
 30
0.0
  0
VERTEX
  5
89E
  8
0
 62
     3
 10
304.74279799999999
 20
451.61576100000002
 30
0.0
  0
SEQEND
  5
89F
  8
0
 62
     3
  0
LINE
  5
4DF
  8
0
  6
DASHDOT
 62
     7
 10
416.60078399999992
 20
613.53768200000002
 30
0.0
 11
416.60078399999992
 21
600.53768200000002
 31
0.0
  0
LINE
  5
4E0
  8
0
  6
DASHDOT
 62
     7
 10
410.10078399999992
 20
607.0376819999999
 30
0.0
 11
423.10078399999998
 21
607.0376819999999
 31
0.0
  0
LINE
  5
4E1
  8
0
  6
DASHDOT
 62
     7
 10
336.60078399999992
 20
613.53768200000002
 30
0.0
 11
336.60078399999992
 21
600.53768200000002
 31
0.0
  0
LINE
  5
4E2
  8
0
  6
DASHDOT
 62
     7
 10
330.10078399999998
 20
607.0376819999999
 30
0.0
 11
343.10078399999992
 21
607.0376819999999
 31
0.0
  0
LINE
  5
4E3
  8
0
  6
DASHDOT
 62
     7
 10
336.60078399999992
 20
471.53768200000002
 30
0.0
 11
336.60078399999992
 21
458.53768200000002
 31
0.0
  0
LINE
  5
4E4
  8
0
  6
DASHDOT
 62
     7
 10
330.10078399999998
 20
465.0376819999999
 30
0.0
 11
343.10078399999992
 21
465.0376819999999
 31
0.0
  0
LINE
  5
4E5
  8
0
  6
DASHDOT
 62
     7
 10
416.60078399999992
 20
471.53768200000002
 30
0.0
 11
416.60078399999992
 21
458.53768200000002
 31
0.0
  0
LINE
  5
4E6
  8
0
  6
DASHDOT
 62
     7
 10
410.10078399999992
 20
465.0376819999999
 30
0.0
 11
423.10078399999998
 21
465.0376819999999
 31
0.0
  0
CIRCLE
  5
4E7
  8
0
 62
     7
 10
311.27533
 20
611.15068099999985
 30
0.0
 40
0.25
  0
LINE
  5
4E8
  8
0
  6
DASHDOT
 62
     7
 10
277.84750400000001
 20
536.0376819999999
 30
0.0
 11
475.80569500000001
 21
536.0376819999999
 31
0.0
  0
LINE
  5
4E9
  8
0
 62
     7
 10
266.55256700000001
 20
592.03768200000002
 30
0.0
 11
264.46870399999989
 21
580.21999400000004
 31
0.0
  0
LINE
  5
4EA
  8
0
 62
     7
 10
266.55256700000001
 20
592.03768200000002
 30
0.0
 11
268.63630699999999
 21
580.21999400000004
 31
0.0
  0
LINE
  5
4EB
  8
0
 62
     7
 10
266.55256700000001
 20
480.03768200000002
 30
0.0
 11
268.63630699999999
 21
491.85536999999999
 31
0.0
  0
LINE
  5
4EC
  8
0
 62
     7
 10
266.55256700000001
 20
480.03768200000002
 30
0.0
 11
264.46870399999989
 21
491.85536999999999
 31
0.0
  0
LINE
  5
4ED
  8
0
 62
     7
 10
266.55256700000001
 20
592.03768200000002
 30
0.0
 11
266.55256700000001
 21
480.03768200000002
 31
0.0
  0
LINE
  5
4EE
  8
0
 62
     7
 10
258.5525669999999
 20
592.03768200000002
 30
0.0
 11
320.60078399999992
 21
592.03768200000002
 31
0.0
  0
LINE
  5
4EF
  8
0
 62
     7
 10
258.5525669999999
 20
480.03768200000002
 30
0.0
 11
320.60078399999992
 21
480.03768200000002
 31
0.0
  0
LINE
  5
4F0
  8
0
 62
     7
 10
336.60078399999992
 20
641.30089599999985
 30
0.0
 11
348.41853300000002
 21
639.21712500000001
 31
0.0
  0
LINE
  5
4F1
  8
0
 62
     7
 10
336.60078399999992
 20
641.30089599999985
 30
0.0
 11
348.41853300000002
 21
643.38466600000004
 31
0.0
  0
LINE
  5
4F2
  8
0
 62
     7
 10
416.60078399999992
 20
641.30089599999985
 30
0.0
 11
404.78303499999993
 21
643.38466600000004
 31
0.0
  0
LINE
  5
4F3
  8
0
 62
     7
 10
416.60078399999992
 20
641.30089599999985
 30
0.0
 11
404.78303499999993
 21
639.21709399999997
 31
0.0
  0
LINE
  5
4F4
  8
0
 62
     7
 10
336.60078399999992
 20
641.30089599999985
 30
0.0
 11
416.60078399999992
 21
641.30089599999985
 31
0.0
  0
LINE
  5
4F5
  8
0
 62
     7
 10
336.60078399999992
 20
649.30089599999997
 30
0.0
 11
336.60078399999992
 21
613.53768200000002
 31
0.0
  0
LINE
  5
4F6
  8
0
 62
     7
 10
416.60078399999992
 20
649.30089599999997
 30
0.0
 11
416.60078399999992
 21
613.53768200000002
 31
0.0
  0
LINE
  5
4F7
  8
0
 62
     7
 10
320.60078399999992
 20
667.93358599999999
 30
0.0
 11
332.41853300000002
 21
665.84978499999988
 31
0.0
  0
LINE
  5
4F8
  8
0
 62
     7
 10
320.60078399999992
 20
667.93358599999999
 30
0.0
 11
332.41853300000002
 21
670.01735699999995
 31
0.0
  0
LINE
  5
4F9
  8
0
 62
     7
 10
432.60078399999992
 20
667.93358599999999
 30
0.0
 11
420.78303499999998
 21
670.01735699999995
 31
0.0
  0
LINE
  5
4FA
  8
0
 62
     7
 10
432.60078399999992
 20
667.93358599999999
 30
0.0
 11
420.78303499999998
 21
665.84978499999988
 31
0.0
  0
LINE
  5
4FB
  8
0
 62
     7
 10
320.60078399999992
 20
667.93358599999999
 30
0.0
 11
432.60078399999992
 21
667.93358599999999
 31
0.0
  0
LINE
  5
4FC
  8
0
 62
     7
 10
320.60078399999992
 20
675.93358599999999
 30
0.0
 11
320.60078399999992
 21
592.03768200000002
 31
0.0
  0
LINE
  5
4FD
  8
0
 62
     7
 10
432.60078399999992
 20
675.93358599999999
 30
0.0
 11
432.60078399999992
 21
592.03768200000002
 31
0.0
  0
LINE
  5
4FE
  8
0
 62
     7
 10
333.81330899999989
 20
462.92115000000001
 30
0.0
 11
323.14106800000002
 21
457.434303
 31
0.0
  0
LINE
  5
4FF
  8
0
 62
     7
 10
333.81330899999989
 20
462.92115000000001
 30
0.0
 11
325.66133100000002
 21
454.11511999999988
 31
0.0
  0
LINE
  5
500
  8
0
 62
     7
 10
339.38825999999989
 20
467.15421299999991
 30
0.0
 11
350.06050099999999
 21
472.64105999999998
 31
0.0
  0
LINE
  5
501
  8
0
 62
     7
 10
339.38825999999989
 20
467.15421299999991
 30
0.0
 11
347.54023699999988
 21
475.96025800000001
 31
0.0
  0
LINE
  5
502
  8
0
 62
     7
 10
339.38825999999989
 20
467.15421299999991
 30
0.0
 11
265.55927999999989
 21
411.09671800000001
 31
0.0
  0
LINE
  5
503
  8
0
 62
     7
 10
266.55256700000001
 20
592.03768200000002
 30
0.0
 11
264.46870399999989
 21
580.21999400000004
 31
0.0
  0
LINE
  5
504
  8
0
 62
     7
 10
266.55256700000001
 20
592.03768200000002
 30
0.0
 11
268.63630699999999
 21
580.21999400000004
 31
0.0
  0
LINE
  5
505
  8
0
 62
     7
 10
266.55256700000001
 20
480.03768200000002
 30
0.0
 11
268.63630699999999
 21
491.85536999999999
 31
0.0
  0
LINE
  5
506
  8
0
 62
     7
 10
266.55256700000001
 20
480.03768200000002
 30
0.0
 11
264.46870399999989
 21
491.85536999999999
 31
0.0
  0
LINE
  5
507
  8
0
 62
     7
 10
266.55256700000001
 20
592.03768200000002
 30
0.0
 11
266.55256700000001
 21
480.03768200000002
 31
0.0
  0
LINE
  5
508
  8
0
 62
     7
 10
258.5525669999999
 20
592.03768200000002
 30
0.0
 11
320.60078399999992
 21
592.03768200000002
 31
0.0
  0
LINE
  5
509
  8
0
 62
     7
 10
258.5525669999999
 20
480.03768200000002
 30
0.0
 11
320.60078399999992
 21
480.03768200000002
 31
0.0
  0
LINE
  5
50A
  8
0
 62
     7
 10
232.10188299999999
 20
607.0376819999999
 30
0.0
 11
230.01814300000001
 21
595.21999400000004
 31
0.0
  0
LINE
  5
50B
  8
0
 62
     7
 10
232.10188299999999
 20
607.0376819999999
 30
0.0
 11
234.185745
 21
595.21999400000004
 31
0.0
  0
LINE
  5
50C
  8
0
 62
     7
 10
232.10188299999999
 20
465.0376819999999
 30
0.0
 11
234.185745
 21
476.85536999999999
 31
0.0
  0
LINE
  5
50D
  8
0
 62
     7
 10
232.10188299999999
 20
465.0376819999999
 30
0.0
 11
230.01814300000001
 21
476.85536999999999
 31
0.0
  0
LINE
  5
50E
  8
0
 62
     7
 10
232.10188299999999
 20
607.0376819999999
 30
0.0
 11
232.10188299999999
 21
465.0376819999999
 31
0.0
  0
LINE
  5
50F
  8
0
 62
     7
 10
224.10188299999999
 20
607.0376819999999
 30
0.0
 11
330.10078399999998
 21
607.0376819999999
 31
0.0
  0
LINE
  5
510
  8
0
 62
     7
 10
224.10188299999999
 20
465.0376819999999
 30
0.0
 11
330.10078399999998
 21
465.0376819999999
 31
0.0
  0
LINE
  5
511
  8
0
 62
     7
 10
336.60078399999992
 20
641.30089599999985
 30
0.0
 11
348.41853300000002
 21
639.21712500000001
 31
0.0
  0
LINE
  5
512
  8
0
 62
     7
 10
336.60078399999992
 20
641.30089599999985
 30
0.0
 11
348.41853300000002
 21
643.38466600000004
 31
0.0
  0
LINE
  5
513
  8
0
 62
     7
 10
416.60078399999992
 20
641.30089599999985
 30
0.0
 11
404.78303499999993
 21
643.38466600000004
 31
0.0
  0
LINE
  5
514
  8
0
 62
     7
 10
416.60078399999992
 20
641.30089599999985
 30
0.0
 11
404.78303499999993
 21
639.21709399999997
 31
0.0
  0
LINE
  5
515
  8
0
 62
     7
 10
336.60078399999992
 20
641.30089599999985
 30
0.0
 11
416.60078399999992
 21
641.30089599999985
 31
0.0
  0
LINE
  5
516
  8
0
 62
     7
 10
336.60078399999992
 20
649.30089599999997
 30
0.0
 11
336.60078399999992
 21
613.53768200000002
 31
0.0
  0
LINE
  5
517
  8
0
 62
     7
 10
416.60078399999992
 20
649.30089599999997
 30
0.0
 11
416.60078399999992
 21
613.53768200000002
 31
0.0
  0
LINE
  5
518
  8
0
 62
     7
 10
320.60078399999992
 20
667.93358599999999
 30
0.0
 11
332.41853300000002
 21
665.84978499999988
 31
0.0
  0
LINE
  5
519
  8
0
 62
     7
 10
320.60078399999992
 20
667.93358599999999
 30
0.0
 11
332.41853300000002
 21
670.01735699999995
 31
0.0
  0
LINE
  5
51A
  8
0
 62
     7
 10
432.60078399999992
 20
667.93358599999999
 30
0.0
 11
420.78303499999998
 21
670.01735699999995
 31
0.0
  0
LINE
  5
51B
  8
0
 62
     7
 10
432.60078399999992
 20
667.93358599999999
 30
0.0
 11
420.78303499999998
 21
665.84978499999988
 31
0.0
  0
LINE
  5
51C
  8
0
 62
     7
 10
320.60078399999992
 20
667.93358599999999
 30
0.0
 11
432.60078399999992
 21
667.93358599999999
 31
0.0
  0
LINE
  5
51D
  8
0
 62
     7
 10
320.60078399999992
 20
675.93358599999999
 30
0.0
 11
320.60078399999992
 21
592.03768200000002
 31
0.0
  0
LINE
  5
51E
  8
0
 62
     7
 10
432.60078399999992
 20
675.93358599999999
 30
0.0
 11
432.60078399999992
 21
592.03768200000002
 31
0.0
  0
LINE
  5
51F
  8
0
 62
     7
 10
333.81330899999989
 20
462.92115000000001
 30
0.0
 11
323.14106800000002
 21
457.434303
 31
0.0
  0
LINE
  5
520
  8
0
 62
     7
 10
333.81330899999989
 20
462.92115000000001
 30
0.0
 11
325.66133100000002
 21
454.11511999999988
 31
0.0
  0
LINE
  5
521
  8
0
 62
     7
 10
339.38825999999989
 20
467.15421299999991
 30
0.0
 11
350.06050099999999
 21
472.64105999999998
 31
0.0
  0
LINE
  5
522
  8
0
 62
     7
 10
339.38825999999989
 20
467.15421299999991
 30
0.0
 11
347.54023699999988
 21
475.96025800000001
 31
0.0
  0
LINE
  5
523
  8
0
 62
     7
 10
339.38825999999989
 20
467.15421299999991
 30
0.0
 11
265.55927999999989
 21
411.09671800000001
 31
0.0
  0
INSERT
  5
68D
  8
0
  2
BLOCK0
 10
-145.71296699999999
 20
280.69824999999992
 30
0.0
 50
180.0
  0
INSERT
  5
68E
  8
0
  2
BLOCK1
 10
-145.71296699999999
 20
280.69824999999992
 30
0.0
 50
180.0
  0
INSERT
  5
68F
  8
0
  2
BLOCK2
 10
-145.71296699999999
 20
280.69824999999992
 30
0.0
 50
180.0
  0
INSERT
  5
690
  8
0
  2
BLOCK3
 10
-145.71296699999999
 20
280.69824999999992
 30
0.0
 50
180.0
  0
INSERT
  5
691
  8
0
  2
BLOCK4
 10
-145.71296699999999
 20
280.69824999999992
 30
0.0
 50
180.0
  0
INSERT
  5
692
  8
0
  2
BLOCK5
 10
-145.71296699999999
 20
280.69824999999992
 30
0.0
 50
180.0
  0
INSERT
  5
693
  8
0
  2
BLOCK6
 10
-145.71296699999999
 20
280.69824999999992
 30
0.0
 50
180.0
  0
INSERT
  5
694
  8
0
  2
BLOCK7
 10
678.69135999999992
 20
538.2876819999999
 30
0.0
 50
180.0
  0
INSERT
  5
695
  8
0
  2
BLOCK8
 10
678.69135999999992
 20
538.2876819999999
 30
0.0
 50
180.0
  0
INSERT
  5
696
  8
0
  2
BLOCK9
 10
678.69135999999992
 20
538.2876819999999
 30
0.0
 50
180.0
  0
INSERT
  5
697
  8
0
  2
BLOCK10
 10
678.69135999999992
 20
538.2876819999999
 30
0.0
 50
180.0
  0
INSERT
  5
698
  8
0
  2
BLOCK11
 10
678.69135999999992
 20
538.2876819999999
 30
0.0
 50
180.0
  0
INSERT
  5
699
  8
0
  2
BLOCK12
 10
678.69135999999992
 20
538.2876819999999
 30
0.0
 50
180.0
  0
INSERT
  5
69A
  8
0
  2
BLOCK13
 10
678.69135999999992
 20
538.2876819999999
 30
0.0
 50
180.0
  0
INSERT
  5
69B
  8
0
  2
BLOCK14
 10
678.69135999999992
 20
538.2876819999999
 30
0.0
 50
180.0
  0
INSERT
  5
69C
  8
0
  2
BLOCK15
 10
678.69135999999992
 20
538.2876819999999
 30
0.0
 50
180.0
  0
INSERT
  5
69D
  8
0
  2
BLOCK16
 10
678.69135999999992
 20
538.2876819999999
 30
0.0
 50
180.0
  0
INSERT
  5
69E
  8
0
  2
BLOCK17
 10
678.69135999999992
 20
538.2876819999999
 30
0.0
 50
180.0
  0
INSERT
  5
69F
  8
0
  2
BLOCK18
 10
135.60322600000001
 20
426.05062099999992
 30
0.0
 50
90.0
  0
INSERT
  5
6A0
  8
0
  2
BLOCK19
 10
135.60322600000001
 20
426.05062099999992
 30
0.0
 50
90.0
  0
INSERT
  5
6A1
  8
0
  2
BLOCK20
 10
135.60322600000001
 20
426.05062099999992
 30
0.0
 50
90.0
  0
INSERT
  5
6A2
  8
0
  2
BLOCK21
 10
135.60322600000001
 20
426.05062099999992
 30
0.0
 50
90.0
  0
INSERT
  5
6A3
  8
0
  2
BLOCK22
 10
135.60322600000001
 20
426.05062099999992
 30
0.0
 50
90.0
  0
INSERT
  5
6A4
  8
0
  2
BLOCK23
 10
135.60322600000001
 20
426.05062099999992
 30
0.0
 50
90.0
  0
INSERT
  5
6A5
  8
0
  2
BLOCK24
 10
135.60322600000001
 20
426.05062099999992
 30
0.0
 50
90.0
  0
INSERT
  5
6A6
  8
0
  2
BLOCK25
 10
135.60322600000001
 20
426.05062099999992
 30
0.0
 50
90.0
  0
INSERT
  5
6A7
  8
0
  2
BLOCK26
 10
135.60322600000001
 20
426.05062099999992
 30
0.0
 50
90.0
  0
INSERT
  5
6A8
  8
0
  2
BLOCK27
 10
135.60322600000001
 20
426.05062099999992
 30
0.0
 50
90.0
  0
INSERT
  5
6A9
  8
0
  2
BLOCK28
 10
135.60322600000001
 20
426.05062099999992
 30
0.0
 50
90.0
  0
INSERT
  5
6AA
  8
0
  2
BLOCK29
 10
135.60322600000001
 20
426.05062099999992
 30
0.0
 50
90.0
  0
INSERT
  5
6AB
  8
0
  2
BLOCK30
 10
135.60322600000001
 20
426.05062099999992
 30
0.0
 50
90.0
  0
INSERT
  5
6AC
  8
0
  2
BLOCK31
 10
135.60322600000001
 20
426.05062099999992
 30
0.0
 50
90.0
  0
INSERT
  5
6AD
  8
0
  2
BLOCK32
 10
135.60322600000001
 20
426.05062099999992
 30
0.0
 50
90.0
  0
INSERT
  5
6AE
  8
0
  2
BLOCK33
 10
-285.77903099999997
 20
426.05062900000001
 30
0.0
 50
90.0
  0
INSERT
  5
6AF
  8
0
  2
BLOCK34
 10
-285.77903099999997
 20
426.05062900000001
 30
0.0
 50
90.0
  0
INSERT
  5
6B0
  8
0
  2
BLOCK35
 10
-285.77903099999997
 20
426.05062900000001
 30
0.0
 50
90.0
  0
INSERT
  5
6B1
  8
0
  2
BLOCK36
 10
-285.77903099999997
 20
426.05062900000001
 30
0.0
 50
90.0
  0
INSERT
  5
6B2
  8
0
  2
BLOCK37
 10
-285.77903099999997
 20
426.05062900000001
 30
0.0
 50
90.0
  0
INSERT
  5
6B3
  8
0
  2
BLOCK38
 10
-285.77903099999997
 20
426.05062900000001
 30
0.0
 50
90.0
  0
INSERT
  5
6B4
  8
0
  2
BLOCK39
 10
-285.77903099999997
 20
426.05062900000001
 30
0.0
 50
90.0
  0
INSERT
  5
6B5
  8
0
  2
BLOCK40
 10
-285.77903099999997
 20
426.05062900000001
 30
0.0
 50
90.0
  0
INSERT
  5
6B6
  8
0
  2
BLOCK41
 10
-285.77903099999997
 20
426.05062900000001
 30
0.0
 50
90.0
  0
INSERT
  5
6B7
  8
0
  2
BLOCK42
 10
-285.77903099999997
 20
426.05062900000001
 30
0.0
 50
90.0
  0
INSERT
  5
6B8
  8
0
  2
BLOCK43
 10
-285.77903099999997
 20
426.05062900000001
 30
0.0
 50
90.0
  0
INSERT
  5
6B9
  8
0
  2
BLOCK44
 10
-285.77903099999997
 20
426.05062900000001
 30
0.0
 50
90.0
  0
INSERT
  5
6BA
  8
0
  2
BLOCK45
 10
-285.77903099999997
 20
426.05062900000001
 30
0.0
 50
90.0
  0
INSERT
  5
6BB
  8
0
  2
BLOCK46
 10
-285.77903099999997
 20
426.05062900000001
 30
0.0
 50
90.0
  0
INSERT
  5
6BC
  8
0
  2
BLOCK47
 10
-285.77903099999997
 20
426.05062900000001
 30
0.0
 50
90.0
  0
INSERT
  5
6BD
  8
0
  2
BLOCK48
 10
-285.77903099999997
 20
426.05062900000001
 30
0.0
 50
90.0
  0
INSERT
  5
6BE
  8
0
  2
BLOCK49
 10
-285.77903099999997
 20
426.05062900000001
 30
0.0
 50
90.0
  0
INSERT
  5
6BF
  8
0
  2
BLOCK50
 10
-285.77903099999997
 20
426.05062900000001
 30
0.0
 50
90.0
  0
INSERT
  5
6C0
  8
0
  2
BLOCK51
 10
-285.77903099999997
 20
426.05062900000001
 30
0.0
 50
90.0
  0
INSERT
  5
6C1
  8
0
  2
BLOCK52
 10
-285.77903099999997
 20
426.05062900000001
 30
0.0
 50
90.0
  0
INSERT
  5
6C2
  8
0
  2
BLOCK53
 10
376.60078399999992
 20
538.2876819999999
 30
0.0
 50
270.0
  0
INSERT
  5
6C3
  8
0
  2
BLOCK54
 10
376.60078399999992
 20
538.2876819999999
 30
0.0
 50
270.0
  0
INSERT
  5
6C4
  8
0
  2
BLOCK55
 10
376.60078399999992
 20
538.2876819999999
 30
0.0
 50
270.0
  0
INSERT
  5
6C5
  8
0
  2
BLOCK56
 10
376.60078399999992
 20
538.2876819999999
 30
0.0
 50
270.0
  0
INSERT
  5
6C6
  8
0
  2
BLOCK57
 10
376.60078399999992
 20
538.2876819999999
 30
0.0
 50
270.0
  0
INSERT
  5
6C7
  8
0
  2
BLOCK58
 10
376.60078399999992
 20
538.2876819999999
 30
0.0
 50
270.0
  0
INSERT
  5
6C8
  8
0
  2
BLOCK59
 10
376.60078399999992
 20
538.2876819999999
 30
0.0
 50
270.0
  0
INSERT
  5
6C9
  8
0
  2
BLOCK60
 10
376.60078399999992
 20
538.2876819999999
 30
0.0
 50
270.0
  0
INSERT
  5
6CA
  8
0
  2
BLOCK61
 10
376.60078399999992
 20
538.2876819999999
 30
0.0
 50
270.0
  0
INSERT
  5
6CB
  8
0
  2
BLOCK62
 10
376.60078399999992
 20
538.2876819999999
 30
0.0
 50
270.0
  0
INSERT
  5
6CC
  8
0
  2
BLOCK63
 10
376.60078399999992
 20
538.2876819999999
 30
0.0
 50
270.0
  0
INSERT
  5
6CD
  8
0
  2
BLOCK64
 10
376.60078399999992
 20
538.2876819999999
 30
0.0
 50
270.0
  0
INSERT
  5
6CE
  8
0
  2
BLOCK65
 10
376.60078399999992
 20
538.2876819999999
 30
0.0
 50
270.0
  0
INSERT
  5
6CF
  8
0
  2
BLOCK66
 10
376.60078399999992
 20
538.2876819999999
 30
0.0
 50
270.0
  0
INSERT
  5
6D0
  8
0
  2
BLOCK67
 10
376.60078399999992
 20
538.2876819999999
 30
0.0
 50
270.0
  0
VIEWPORT
  5
524
 67
     1
  8
0
 62
     0
 10
0.0
 20
0.0
 30
0.0
 40
1000.0
 41
1000.0
 68
     1
 69
     1
1001
ACAD
1000
MVIEW
1002
{
1070
    16
1010
0.0
1020
0.0
1030
0.0
1010
0.0
1020
0.0
1030
1.0
1040
0.0
1040
1000.0
1040
0.0
1040
0.0
1040
50.0
1040
0.0
1040
0.0
1070
     0
1070
   100
1070
     1
1070
     1
1070
     0
1070
     0
1070
     0
1070
     0
1040
0.0
1040
0.0
1040
0.0
1040
1.0
1040
1.0
1040
1.0
1040
1.0
1070
     0
1002
{
1002
}
1002
}
  0
ENDSEC
  0
EOF
