  0
SECTION
  2
HEADER
  9
$ACADVER
  1
AC1009
  9
$DWGCODEPAGE
  3
iso8859-1
  9
$INSBASE
 10
0.0
 20
0.0
 30
0.0
  9
$EXTMIN
 10
1.0E20
 20
1.0E20
  9
$EXTMAX
 10
-1.0E20
 20
-1.0E20
  9
$LIMMIN
 10
0.0
 20
0.0
  9
$LIMMAX
 10
12.0
 20
9.0
  9
$ORTHOMODE
 70
     0
  9
$REGENMODE
 70
     1
  9
$FILLMODE
 70
     1
  9
$QTEXTMODE
 70
     0
  9
$MIRRTEXT
 70
     1
  9
$DRAGMODE
 70
     2
  9
$LTSCALE
 40
15.0
  9
$OSMODE
 70
     0
  9
$ATTMODE
 70
     1
  9
$TEXTSIZE
 40
0.2
  9
$TRACEWID
 40
0.05
  9
$TEXTSTYLE
  7
STANDARD
  9
$CLAYER
  8
0
  9
$CELTYPE
  6
DASHED
  9
$CECOLOR
 62
   256
  9
$DIMSCALE
 40
1.0
  9
$DIMASZ
 40
0.18
  9
$DIMEXO
 40
0.0625
  9
$DIMDLI
 40
0.38
  9
$DIMRND
 40
0.0
  9
$DIMDLE
 40
0.0
  9
$DIMEXE
 40
0.18
  9
$DIMTP
 40
0.0
  9
$DIMTM
 40
0.0
  9
$DIMTXT
 40
0.18
  9
$DIMCEN
 40
0.09
  9
$DIMTSZ
 40
0.0
  9
$DIMTOL
 70
     0
  9
$DIMLIM
 70
     0
  9
$DIMTIH
 70
     1
  9
$DIMTOH
 70
     1
  9
$DIMSE1
 70
     0
  9
$DIMSE2
 70
     0
  9
$DIMTAD
 70
     0
  9
$DIMZIN
 70
     0
  9
$DIMBLK
  1

  9
$DIMASO
 70
     1
  9
$DIMSHO
 70
     1
  9
$DIMPOST
  1

  9
$DIMAPOST
  1

  9
$DIMALT
 70
     0
  9
$DIMALTD
 70
     2
  9
$DIMALTF
 40
25.4
  9
$DIMLFAC
 40
1.0
  9
$DIMTOFL
 70
     0
  9
$DIMTVP
 40
0.0
  9
$DIMTIX
 70
     0
  9
$DIMSOXD
 70
     0
  9
$DIMSAH
 70
     0
  9
$DIMBLK1
  1

  9
$DIMBLK2
  1

  9
$DIMSTYLE
  2
STANDARD
  9
$DIMCLRD
 70
     0
  9
$DIMCLRE
 70
     0
  9
$DIMCLRT
 70
     0
  9
$DIMTFAC
 40
1.0
  9
$DIMGAP
 40
0.09
  9
$LUNITS
 70
     2
  9
$LUPREC
 70
     4
  9
$AXISMODE
 70
     0
  9
$AXISUNIT
 10
0.0
 20
0.0
  9
$SKETCHINC
 40
0.1
  9
$FILLETRAD
 40
0.0
  9
$AUNITS
 70
     0
  9
$AUPREC
 70
     0
  9
$MENU
  1
acad
  9
$ELEVATION
 40
0.0
  9
$PELEVATION
 40
0.0
  9
$THICKNESS
 40
0.0
  9
$LIMCHECK
 70
     0
  9
$BLIPMODE
 70
     1
  9
$CHAMFERA
 40
0.0
  9
$CHAMFERB
 40
0.0
  9
$SKPOLY
 70
     0
  9
$TDCREATE
 40
0.000000000
  9
$TDUPDATE
 40
0.000000000
  9
$TDINDWG
 40
0.0
  9
$TDUSRTIMER
 40
0.0
  9
$USRTIMER
 70
     1
  9
$ANGBASE
 50
0.0
  9
$ANGDIR
 70
     0
  9
$PDMODE
 70
     0
  9
$PDSIZE
 40
0.0
  9
$PLINEWID
 40
0.0
  9
$COORDS
 70
     1
  9
$SPLFRAME
 70
     0
  9
$SPLINETYPE
 70
     6
  9
$SPLINESEGS
 70
     8
  9
$ATTDIA
 70
     0
  9
$ATTREQ
 70
     1
  9
$HANDLING
 70
     1
  9
$HANDSEED
  5
   8C8
  9
$SURFTAB1
 70
     6
  9
$SURFTAB2
 70
     6
  9
$SURFTYPE
 70
     6
  9
$SURFU
 70
     6
  9
$SURFV
 70
     6
  9
$UCSNAME
  2

  9
$UCSORG
 10
0.0
 20
0.0
 30
0.0
  9
$UCSXDIR
 10
1.0
 20
0.0
 30
0.0
  9
$UCSYDIR
 10
0.0
 20
1.0
 30
0.0
  9
$PUCSNAME
  2

  9
$PUCSORG
 10
0.0
 20
0.0
 30
0.0
  9
$PUCSXDIR
 10
1.0
 20
0.0
 30
0.0
  9
$PUCSYDIR
 10
0.0
 20
1.0
 30
0.0
  9
$USERI1
 70
     0
  9
$USERI2
 70
     0
  9
$USERI3
 70
     0
  9
$USERI4
 70
     0
  9
$USERI5
 70
     0
  9
$USERR1
 40
0.0
  9
$USERR2
 40
0.0
  9
$USERR3
 40
0.0
  9
$USERR4
 40
0.0
  9
$USERR5
 40
0.0
  9
$WORLDVIEW
 70
     1
  9
$SHADEDGE
 70
     3
  9
$SHADEDIF
 70
    70
  9
$TILEMODE
 70
     1
  9
$MAXACTVP
 70
    16
  9
$PINSBASE
 10
0.0
 20
0.0
 30
0.0
  9
$PLIMCHECK
 70
     0
  9
$PEXTMIN
 10
1.0E20
 20
1.0E20
 30
1.0E20
  9
$PEXTMAX
 10
-1.0E20
 20
-1.0E20
 30
-1.0E20
  9
$PLIMMIN
 10
0.0
 20
0.0
  9
$PLIMMAX
 10
12.0
 20
9.0
  9
$UNITMODE
 70
     0
  9
$VISRETAIN
 70
     0
  0
ENDSEC
  0
SECTION
  2
TABLES
  0
TABLE
  2
VPORT
 70
     1
  0
VPORT
  2
*ACTIVE
 70
     0
 10
0.0
 20
0.0
 11
1.0
 21
1.0
 12
6.801242
 22
4.5
 13
0.0
 23
0.0
 14
1.0
 24
1.0
 15
0.0
 25
0.0
 16
0.0
 26
0.0
 36
1.0
 17
0.0
 27
0.0
 37
0.0
 40
9.0
 41
1.511387
 42
50.0
 43
0.0
 44
0.0
 50
0.0
 51
0.0
 71
     0
 72
   100
 73
     1
 74
     1
 75
     0
 76
     0
 77
     0
 78
     0
  0
ENDTAB
  0
TABLE
  2
LTYPE
 70
    41
  0
LTYPE
  2
BYBLOCK
 70
     0
  3

 72
    65
 73
     0
 40
0.0
  0
LTYPE
  2
BYLAYER
 70
     0
  3

 72
    65
 73
     0
 40
0.0
  0
LTYPE
  2
CONTINUOUS
 70
     0
  3
Solid line
 72
    65
 73
     0
 40
0.0
  0
LTYPE
  2
BORDER
 70
    64
  3
__ __ . __ __ . __ __ . __ __ . __ __ . __ __ .
 72
    65
 73
     6
 40
1.75
 49
0.5
 49
-0.25
 49
0.5
 49
-0.25
 49
0.0
 49
-0.25
  0
LTYPE
  2
BORDER2
 70
    64
  3
__.__.__.__.__.__.__.__.__.__.__.__.__.__.__.__
 72
    65
 73
     6
 40
0.875
 49
0.25
 49
-0.125
 49
0.25
 49
-0.125
 49
0.0
 49
-0.125
  0
LTYPE
  2
BORDERX2
 70
    64
  3
____  ____  .  ____  ____  .  ____  ____  .  __
 72
    65
 73
     6
 40
3.5
 49
1.0
 49
-0.5
 49
1.0
 49
-0.5
 49
0.0
 49
-0.5
  0
LTYPE
  2
CENTER
 70
    64
  3
____ _ ____ _ ____ _ ____ _ ____ _ ____ _ ____
 72
    65
 73
     4
 40
2.0
 49
1.25
 49
-0.25
 49
0.25
 49
-0.25
  0
LTYPE
  2
CENTER2
 70
    64
  3
___ _ ___ _ ___ _ ___ _ ___ _ ___ _ ___ _ ___ _
 72
    65
 73
     4
 40
1.125
 49
0.75
 49
-0.125
 49
0.125
 49
-0.125
  0
LTYPE
  2
CENTERX2
 70
    64
  3
________  __  ________  __  ________  __  _____
 72
    65
 73
     4
 40
4.0
 49
2.5
 49
-0.5
 49
0.5
 49
-0.5
  0
LTYPE
  2
DASHDOT
 70
    64
  3
__ . __ . __ . __ . __ . __ . __ . __ . __ . __
 72
    65
 73
     4
 40
1.0
 49
0.5
 49
-0.25
 49
0.0
 49
-0.25
  0
LTYPE
  2
DASHDOT2
 70
    64
  3
_._._._._._._._._._._._._._._._._._._._._._._._
 72
    65
 73
     4
 40
0.5
 49
0.25
 49
-0.125
 49
0.0
 49
-0.125
  0
LTYPE
  2
DASHDOTX2
 70
    64
  3
____  .  ____  .  ____  .  ____  .  ____  .  __
 72
    65
 73
     4
 40
2.0
 49
1.0
 49
-0.5
 49
0.0
 49
-0.5
  0
LTYPE
  2
DASHED
 70
    64
  3
__ __ __ __ __ __ __ __ __ __ __ __ __ __ __ __
 72
    65
 73
     2
 40
0.75
 49
0.5
 49
-0.25
  0
LTYPE
  2
DASHED2
 70
    64
  3
_ _ _ _ _ _ _ _ _ _ _ _ _ _ _ _ _ _ _ _ _ _ _ _
 72
    65
 73
     2
 40
0.375
 49
0.25
 49
-0.125
  0
LTYPE
  2
DASHEDX2
 70
    64
  3
____  ____  ____  ____  ____  ____  ____  ____
 72
    65
 73
     2
 40
1.5
 49
1.0
 49
-0.5
  0
LTYPE
  2
DIVIDE
 70
    64
  3
____ . . ____ . . ____ . . ____ . . ____ . . __
 72
    65
 73
     6
 40
1.25
 49
0.5
 49
-0.25
 49
0.0
 49
-0.25
 49
0.0
 49
-0.25
  0
LTYPE
  2
DIVIDE2
 70
    64
  3
__..__..__..__..__..__..__..__..__..__..__..__.
 72
    65
 73
     6
 40
0.625
 49
0.25
 49
-0.125
 49
0.0
 49
-0.125
 49
0.0
 49
-0.125
  0
LTYPE
  2
DIVIDEX2
 70
    64
  3
________  .  .  ________  .  .  ________  .  .
 72
    65
 73
     6
 40
2.5
 49
1.0
 49
-0.5
 49
0.0
 49
-0.5
 49
0.0
 49
-0.5
  0
LTYPE
  2
DOT
 70
    64
  3
. . . . . . . . . . . . . . . . . . . . . . . .
 72
    65
 73
     2
 40
0.25
 49
0.0
 49
-0.25
  0
LTYPE
  2
DOT2
 70
    64
  3
...............................................
 72
    65
 73
     2
 40
0.125
 49
0.0
 49
-0.125
  0
LTYPE
  2
DOTX2
 70
    64
  3
.  .  .  .  .  .  .  .  .  .  .  .  .  .  .  .
 72
    65
 73
     2
 40
0.5
 49
0.0
 49
-0.5
  0
LTYPE
  2
HIDDEN
 70
    64
  3
__ __ __ __ __ __ __ __ __ __ __ __ __ __ __ __
 72
    65
 73
     2
 40
0.375
 49
0.25
 49
-0.125
  0
LTYPE
  2
HIDDEN2
 70
    64
  3
_ _ _ _ _ _ _ _ _ _ _ _ _ _ _ _ _ _ _ _ _ _ _ _
 72
    65
 73
     2
 40
0.1875
 49
0.125
 49
-0.0625
  0
LTYPE
  2
HIDDENX2
 70
    64
  3
____ ____ ____ ____ ____ ____ ____ ____ ____ __
 72
    65
 73
     2
 40
0.75
 49
0.5
 49
-0.25
  0
LTYPE
  2
PHANTOM
 70
    64
  3
______  __  __  ______  __  __  ______  __  __
 72
    65
 73
     6
 40
2.5
 49
1.25
 49
-0.25
 49
0.25
 49
-0.25
 49
0.25
 49
-0.25
  0
LTYPE
  2
PHANTOM2
 70
    64
  3
___ _ _ ___ _ _ ___ _ _ ___ _ _ ___ _ _ ___ _ _
 72
    65
 73
     6
 40
1.25
 49
0.625
 49
-0.125
 49
0.125
 49
-0.125
 49
0.125
 49
-0.125
  0
LTYPE
  2
PHANTOMX2
 70
    64
  3
____________    ____    ____    ____________
 72
    65
 73
     6
 40
5.0
 49
2.5
 49
-0.5
 49
0.5
 49
-0.5
 49
0.5
 49
-0.5
  0
LTYPE
  2
ACAD_ISO02W100
 70
    64
  3
__ __ __ __ __ __ __ __ __ __ __ __ __ __ __ __
 72
    65
 73
     2
 40
15.0
 49
12.0
 49
-3.0
  0
LTYPE
  2
ACAD_ISO03W100
 70
    64
  3
__    __    __    __    __    __    __    __
 72
    65
 73
     2
 40
30.0
 49
12.0
 49
-18.0
  0
LTYPE
  2
ACAD_ISO04W100
 70
    64
  3
____ . ____ . ____ . ____ . ____ . ____ . ____
 72
    65
 73
     4
 40
30.5
 49
24.0
 49
-3.0
 49
0.5
 49
-3.0
  0
LTYPE
  2
ACAD_ISO05W100
 70
    64
  3
____ .. ____ .. ____ .. ____ .. ____ .. ____ ..
 72
    65
 73
     6
 40
34.0
 49
24.0
 49
-3.0
 49
0.5
 49
-3.0
 49
0.5
 49
-3.0
  0
LTYPE
  2
ACAD_ISO06W100
 70
    64
  3
____ ... ____ ... ____ ... ____ ... ____ ... __
 72
    65
 73
     8
 40
37.5
 49
24.0
 49
-3.0
 49
0.5
 49
-3.0
 49
0.5
 49
-3.0
 49
0.5
 49
-3.0
  0
LTYPE
  2
ACAD_ISO07W100
 70
    64
  3
. . . . . . . . . . . . . . . . . . . . . . . .
 72
    65
 73
     2
 40
3.5
 49
0.5
 49
-3.0
  0
LTYPE
  2
ACAD_ISO08W100
 70
    64
  3
____ __ ____ __ ____ __ ____ ____ __ __ ____ __
 72
    65
 73
     4
 40
36.0
 49
24.0
 49
-3.0
 49
6.0
 49
-3.0
  0
LTYPE
  2
ACAD_ISO09W100
 70
    64
  3
____ __ __ ____ __ __ ____ __ __ ____ __ __ ___
 72
    65
 73
     6
 40
45.0
 49
24.0
 49
-3.0
 49
6.0
 49
-3.0
 49
6.0
 49
-3.0
  0
LTYPE
  2
ACAD_ISO10W100
 70
    64
  3
__ . __ . __ . __ . __ . __ . __ . __ . __ . __
 72
    65
 73
     4
 40
18.5
 49
12.0
 49
-3.0
 49
0.5
 49
-3.0
  0
LTYPE
  2
ACAD_ISO11W100
 70
    64
  3
__ __ . __ __ . __ __ . __ __ . __ __ . __ __ .
 72
    65
 73
     6
 40
33.5
 49
12.0
 49
-3.0
 49
12.0
 49
-3.0
 49
0.5
 49
-3.0
  0
LTYPE
  2
ACAD_ISO12W100
 70
    64
  3
__ . . __ . . __ . . __ . . __ . . __ . . __ .
 72
    65
 73
     6
 40
22.0
 49
12.0
 49
-3.0
 49
0.5
 49
-3.0
 49
0.5
 49
-3.0
  0
LTYPE
  2
ACAD_ISO13W100
 70
    64
  3
__ __ . . __ __ . . __ __ . . __ __ . . __ __ .
 72
    65
 73
     8
 40
37.0
 49
12.0
 49
-3.0
 49
12.0
 49
-3.0
 49
0.5
 49
-3.0
 49
0.5
 49
-3.0
  0
LTYPE
  2
ACAD_ISO14W100
 70
    64
  3
__ . . . __ . . . __ . . . __ . . . __ . . . __
 72
    65
 73
     8
 40
25.5
 49
12.0
 49
-3.0
 49
0.5
 49
-3.0
 49
0.5
 49
-3.0
 49
0.5
 49
-3.0
  0
LTYPE
  2
ACAD_ISO15W100
 70
    64
  3
__ __ . . . __ __ . . . __ __ . . . __ __ . . .
 72
    65
 73
    10
 40
40.5
 49
12.0
 49
-3.0
 49
12.0
 49
-3.0
 49
0.5
 49
-3.0
 49
0.5
 49
-3.0
 49
0.5
 49
-3.0
  0
ENDTAB
  0
TABLE
  2
STYLE
 70
     4
  0
STYLE
  2
STANDARD
 70
    64
 40
0.0
 41
1.0
 50
0.0
 71
     0
 42
0.2
  3
txt
  4

  0
STYLE
  2
TOLERANCE
 70
    64
 40
0.0
 41
1.0
 50
0.0
 71
     0
 42
0.2
  3
../igesfont/iges1003.shx
  4

  0
STYLE
  2
ROMANS
 70
    64
 40
0.0
 41
1.0
 50
0.0
 71
     0
 42
0.2
  3
romans.shx
  4

  0
STYLE
  2
ROMANC
 70
    64
 40
0.0
 41
1.0
 50
0.0
 71
     0
 42
0.2
  3
romanc.shx
  4

  0
ENDTAB
  0
TABLE
  2
DIMSTYLE
 70
     2
  0
DIMSTYLE
  2
UNNAMED
 70
     0
  3

  4

  5

  6

  7

 40
1.0
 41
0.18
 42
0.0625
 43
0.38
 44
0.18
 45
0.0
 46
0.0
 47
0.0
 48
0.0
140
0.18
141
0.09
142
0.0
143
25.4
144
1.0
145
0.0
146
1.0
147
0.09
 71
     0
 72
     0
 73
     1
 74
     1
 75
     0
 76
     0
 77
     0
 78
     0
170
     0
171
     2
172
     0
173
     0
174
     0
175
     0
176
     0
177
     0
178
     0
  0
DIMSTYLE
  2
STANDARD
 70
     0
  3

  4

  5

  6

  7

 40
1.0
 41
0.18
 42
0.0625
 43
0.38
 44
0.18
 45
0.0
 46
0.0
 47
0.0
 48
0.0
140
0.18
141
0.09
142
0.0
143
25.4
144
1.0
145
0.0
146
1.0
147
0.09
 71
     0
 72
     0
 73
     1
 74
     1
 75
     0
 76
     0
 77
     0
 78
     0
170
     0
171
     2
172
     0
173
     0
174
     0
175
     0
176
     0
177
     0
178
     0
  0
ENDTAB
  0
TABLE
  2
LAYER
 70
     2
  0
LAYER
  2
0
 70
     0
 62
     7
  6
CONTINUOUS
  0
LAYER
  2
255
 70
     0
 62
     7
  6
CONTINUOUS
  0
ENDTAB
  0
ENDSEC
  0
SECTION
  2
BLOCKS
  0
BLOCK
  5
     B
  8
0
  6
CONTINUOUS
 62
     7
  2
*UDIM78
 70
    65
 10
0.0
 20
0.0
 30
0.0
  3
*UDIM78
  0
TEXT
  5
     C
  8
0
  6
CONTINUOUS
 62
     7
 10
58.6164037891563
 20
-129.025131831348
 30
0.0
 40
3.00000002980232
  1
7
 50
401.743212308633
 41
0.933333333333334
 72
     1
 11
58.4384637515091
 21
-127.173554824647
 31
0.0
 73
     2
  0
TEXT
  5
     D
  8
0
  6
CONTINUOUS
 62
     7
 10
56.2660745835566
 20
-131.122380669205
 30
0.0
 40
3.00000002980232
  1
Ø
 50
401.743212308633
 41
0.933333333333334
 72
     1
 11
56.0881345459095
 21
-129.270803662503
 31
0.0
 73
     2
  0
LINE
  5
     E
  8
0
  6
CONTINUOUS
 62
     7
 10
71.4246587725
 20
-118.936290743492
 30
0.0
 11
56.9318678683437
 21
-131.868516922115
 31
0.0
  0
LINE
  5
     F
  8
0
  6
CONTINUOUS
 62
     7
 10
73.2822197869019
 20
-116.580560054772
 30
0.0
 11
71.4246587725
 21
-118.936290743492
 31
0.0
  0
LINE
  5
    10
  8
0
  6
CONTINUOUS
 62
     7
 10
71.4246587725
 20
-118.936290743492
 30
0.0
 11
73.9759023880818
 21
-117.357951105152
 31
0.0
  0
LINE
  5
    11
  8
0
  6
CONTINUOUS
 62
     7
 10
68.2613593146606
 20
-122.45715967179
 30
0.0
 11
70.1189203290625
 21
-120.101428983071
 31
0.0
  0
LINE
  5
    12
  8
0
  6
CONTINUOUS
 62
     7
 10
70.1189203290625
 20
-120.101428983071
 30
0.0
 11
67.5676767134807
 21
-121.67976862141
 31
0.0
  0
ENDBLK
  5
    13
  8
0
  6
CONTINUOUS
 62
     7
  0
BLOCK
  5
    14
  8
0
  6
CONTINUOUS
 62
     7
  2
*UDIM79
 70
    65
 10
0.0
 20
0.0
 30
0.0
  3
*UDIM79
  0
TEXT
  5
    15
  8
0
  6
CONTINUOUS
 62
     7
 10
40.0027542008387
 20
-105.943859912057
 30
0.0
 40
3.00000002980232
  1
142
 50
449.999999844103
 41
0.933333333333333
 72
     1
 11
38.5027541965246
 21
-102.043859869242
 31
0.0
 73
     2
  0
LINE
  5
    16
  8
0
  6
CONTINUOUS
 62
     7
 10
68.1467895507813
 20
-84.0188598632813
 30
0.0
 11
39.0027542114258
 21
-84.0188598632813
 31
0.0
  0
LINE
  5
    17
  8
0
  6
CONTINUOUS
 62
     7
 10
68.1467895507813
 20
-119.518859863281
 30
0.0
 11
39.0027542114258
 21
-119.518859863281
 31
0.0
  0
LINE
  5
    18
  8
0
  6
CONTINUOUS
 62
     7
 10
41.0027542114258
 20
-84.0188598632813
 30
0.0
 11
41.0027542114258
 21
-119.518859863281
 31
0.0
  0
LINE
  5
    19
  8
0
  6
CONTINUOUS
 62
     7
 10
41.5236986413774
 20
-86.9732831404882
 30
0.0
 11
41.0027542114258
 21
-84.0188598632813
 31
0.0
  0
LINE
  5
    1A
  8
0
  6
CONTINUOUS
 62
     7
 10
41.0027542114258
 20
-84.0188598632813
 30
0.0
 11
40.4818097814741
 21
-86.9732831404882
 31
0.0
  0
LINE
  5
    1B
  8
0
  6
CONTINUOUS
 62
     7
 10
40.4818097814741
 20
-116.564436586074
 30
0.0
 11
41.0027542114258
 21
-119.518859863281
 31
0.0
  0
LINE
  5
    1C
  8
0
  6
CONTINUOUS
 62
     7
 10
41.0027542114258
 20
-119.518859863281
 30
0.0
 11
41.5236986413774
 21
-116.564436586074
 31
0.0
  0
ENDBLK
  5
    1D
  8
0
  6
CONTINUOUS
 62
     7
  0
BLOCK
  5
    1E
  8
0
  6
CONTINUOUS
 62
     7
  2
*UDIM80
 70
    65
 10
0.0
 20
0.0
 30
0.0
  3
*UDIM80
  0
TEXT
  5
    1F
  8
0
  6
CONTINUOUS
 62
     7
 10
50.0344486130702
 20
-105.943859912057
 30
0.0
 40
3.00000002980232
  1
112
 50
449.999999844103
 41
0.933333333333333
 72
     1
 11
48.5344486087561
 21
-102.043859869242
 31
0.0
 73
     2
  0
LINE
  5
    20
  8
0
  6
CONTINUOUS
 62
     7
 10
65.7717895507813
 20
-87.7688598632813
 30
0.0
 11
49.0344486236572
 21
-87.7688598632813
 31
0.0
  0
LINE
  5
    21
  8
0
  6
CONTINUOUS
 62
     7
 10
65.7717895507813
 20
-115.768859863281
 30
0.0
 11
49.0344486236572
 21
-115.768859863281
 31
0.0
  0
LINE
  5
    22
  8
0
  6
CONTINUOUS
 62
     7
 10
51.0344486236572
 20
-87.7688598632813
 30
0.0
 11
51.0344486236572
 21
-115.768859863281
 31
0.0
  0
LINE
  5
    23
  8
0
  6
CONTINUOUS
 62
     7
 10
51.5553930536089
 20
-90.7232831404882
 30
0.0
 11
51.0344486236572
 21
-87.7688598632813
 31
0.0
  0
LINE
  5
    24
  8
0
  6
CONTINUOUS
 62
     7
 10
51.0344486236572
 20
-87.7688598632813
 30
0.0
 11
50.5135041937056
 21
-90.7232831404882
 31
0.0
  0
LINE
  5
    25
  8
0
  6
CONTINUOUS
 62
     7
 10
50.5135041937056
 20
-112.814436586074
 30
0.0
 11
51.0344486236572
 21
-115.768859863281
 31
0.0
  0
LINE
  5
    26
  8
0
  6
CONTINUOUS
 62
     7
 10
51.0344486236572
 20
-115.768859863281
 30
0.0
 11
51.5553930536089
 21
-112.814436586074
 31
0.0
  0
ENDBLK
  5
    27
  8
0
  6
CONTINUOUS
 62
     7
  0
BLOCK
  5
    28
  8
0
  6
CONTINUOUS
 62
     7
  2
*UDIM81
 70
    65
 10
0.0
 20
0.0
 30
0.0
  3
*UDIM81
  0
TEXT
  5
    29
  8
0
  6
CONTINUOUS
 62
     7
 10
76.5967895020039
 20
-63.053092945951
 30
0.0
 40
3.00000002980232
  1
112
 50
359.999999844103
 41
0.933333333333333
 72
     1
 11
80.4967895448208
 21
-61.5530929416418
 31
0.0
 73
     2
  0
LINE
  5
    2A
  8
0
  6
CONTINUOUS
 62
     7
 10
66.7717895507813
 20
-86.7688598632813
 30
0.0
 11
66.7717895507813
 21
-62.053092956543
 31
0.0
  0
LINE
  5
    2B
  8
0
  6
CONTINUOUS
 62
     7
 10
94.7717895507813
 20
-86.7688598632813
 30
0.0
 11
94.7717895507813
 21
-62.053092956543
 31
0.0
  0
LINE
  5
    2C
  8
0
  6
CONTINUOUS
 62
     7
 10
66.7717895507813
 20
-64.053092956543
 30
0.0
 11
94.7717895507813
 21
-64.053092956543
 31
0.0
  0
LINE
  5
    2D
  8
0
  6
CONTINUOUS
 62
     7
 10
69.7262128279882
 20
-63.5321485265913
 30
0.0
 11
66.7717895507813
 21
-64.053092956543
 31
0.0
  0
LINE
  5
    2E
  8
0
  6
CONTINUOUS
 62
     7
 10
66.7717895507813
 20
-64.053092956543
 30
0.0
 11
69.7262128279882
 21
-64.5740373864946
 31
0.0
  0
LINE
  5
    2F
  8
0
  6
CONTINUOUS
 62
     7
 10
91.8173662735743
 20
-64.5740373864946
 30
0.0
 11
94.7717895507813
 21
-64.053092956543
 31
0.0
  0
LINE
  5
    30
  8
0
  6
CONTINUOUS
 62
     7
 10
94.7717895507813
 20
-64.053092956543
 30
0.0
 11
91.8173662735743
 21
-63.5321485265913
 31
0.0
  0
ENDBLK
  5
    31
  8
0
  6
CONTINUOUS
 62
     7
  0
BLOCK
  5
    32
  8
0
  6
CONTINUOUS
 62
     7
  2
*UDIM82
 70
    65
 10
0.0
 20
0.0
 30
0.0
  3
*UDIM82
  0
TEXT
  5
    33
  8
0
  6
CONTINUOUS
 62
     7
 10
77.9967895159117
 20
-71.1739864281468
 30
0.0
 40
3.00000002980232
  1
80
 50
359.999999844103
 41
0.933333333333333
 72
     1
 11
80.4967895448208
 21
-69.6739864200354
 31
0.0
 73
     2
  0
LINE
  5
    34
  8
0
  6
CONTINUOUS
 62
     7
 10
70.7717895507813
 20
-81.3938598632813
 30
0.0
 11
70.7717895507813
 21
-70.1739864349365
 31
0.0
  0
LINE
  5
    35
  8
0
  6
CONTINUOUS
 62
     7
 10
90.7717895507813
 20
-81.3938598632813
 30
0.0
 11
90.7717895507813
 21
-70.1739864349365
 31
0.0
  0
LINE
  5
    36
  8
0
  6
CONTINUOUS
 62
     7
 10
70.7717895507813
 20
-72.1739864349365
 30
0.0
 11
90.7717895507813
 21
-72.1739864349365
 31
0.0
  0
LINE
  5
    37
  8
0
  6
CONTINUOUS
 62
     7
 10
73.7262128279882
 20
-71.6530420049849
 30
0.0
 11
70.7717895507813
 21
-72.1739864349365
 31
0.0
  0
LINE
  5
    38
  8
0
  6
CONTINUOUS
 62
     7
 10
70.7717895507813
 20
-72.1739864349365
 30
0.0
 11
73.7262128279882
 21
-72.6949308648882
 31
0.0
  0
LINE
  5
    39
  8
0
  6
CONTINUOUS
 62
     7
 10
87.8173662735743
 20
-72.6949308648882
 30
0.0
 11
90.7717895507813
 21
-72.1739864349365
 31
0.0
  0
LINE
  5
    3A
  8
0
  6
CONTINUOUS
 62
     7
 10
90.7717895507813
 20
-72.1739864349365
 30
0.0
 11
87.8173662735743
 21
-71.6530420049849
 31
0.0
  0
ENDBLK
  5
    3B
  8
0
  6
CONTINUOUS
 62
     7
  0
BLOCK
  5
    3C
  8
0
  6
CONTINUOUS
 62
     7
  2
*HATCH8
 70
    65
 10
0.0
 20
0.0
 30
0.0
  3
*HATCH8
  0
LINE
  5
    3D
  8
0
  6
CONTINUOUS
 62
     3
 10
167.826889038086
 20
-4.00005149841309
 30
0.0
 11
165.980621337891
 21
-5.84633255004883
 31
0.0
  0
LINE
  5
    3E
  8
0
  6
CONTINUOUS
 62
     3
 10
169.948211669922
 20
-4.00005149841309
 30
0.0
 11
167.948211669922
 21
-6.00005149841309
 31
0.0
  0
LINE
  5
    3F
  8
0
  6
CONTINUOUS
 62
     3
 10
172.069519042969
 20
-4.00005149841309
 30
0.0
 11
170.069519042969
 21
-6.00005149841309
 31
0.0
  0
LINE
  5
    40
  8
0
  6
CONTINUOUS
 62
     3
 10
174.190826416016
 20
-4.00005149841309
 30
0.0
 11
172.190826416016
 21
-6.00005149841309
 31
0.0
  0
LINE
  5
    41
  8
0
  6
CONTINUOUS
 62
     3
 10
176.312133789062
 20
-4.00005149841309
 30
0.0
 11
174.312133789063
 21
-6.00005149841309
 31
0.0
  0
LINE
  5
    42
  8
0
  6
CONTINUOUS
 62
     3
 10
177.480621337891
 20
-4.95293474197388
 30
0.0
 11
176.433502197266
 21
-6.00005149841309
 31
0.0
  0
ENDBLK
  5
    43
  8
0
  6
CONTINUOUS
 62
     7
  0
BLOCK
  5
    44
  8
0
  6
CONTINUOUS
 62
     7
  2
*HATCH9
 70
    65
 10
0.0
 20
0.0
 30
0.0
  3
*HATCH9
  0
LINE
  5
    45
  8
0
  6
CONTINUOUS
 62
     3
 10
43.7296600341797
 20
-4.00005149841309
 30
0.0
 11
42.4806251525879
 21
-5.24908351898193
 31
0.0
  0
LINE
  5
    46
  8
0
  6
CONTINUOUS
 62
     3
 10
45.8509788513184
 20
-4.00005149841309
 30
0.0
 11
43.8509788513184
 21
-6.00005149841309
 31
0.0
  0
LINE
  5
    47
  8
0
  6
CONTINUOUS
 62
     3
 10
47.9723014831543
 20
-4.00005149841309
 30
0.0
 11
45.9723014831543
 21
-6.00005149841309
 31
0.0
  0
LINE
  5
    48
  8
0
  6
CONTINUOUS
 62
     3
 10
50.0936241149902
 20
-4.00005149841309
 30
0.0
 11
48.0936241149902
 21
-6.00005149841309
 31
0.0
  0
LINE
  5
    49
  8
0
  6
CONTINUOUS
 62
     3
 10
52.2149467468262
 20
-4.00005149841309
 30
0.0
 11
50.2149467468262
 21
-6.00005149841309
 31
0.0
  0
LINE
  5
    4A
  8
0
  6
CONTINUOUS
 62
     3
 10
53.9806251525879
 20
-4.35568618774414
 30
0.0
 11
52.3362579345703
 21
-6.00005149841309
 31
0.0
  0
ENDBLK
  5
    4B
  8
0
  6
CONTINUOUS
 62
     7
  0
BLOCK
  5
    4C
  8
0
  6
CONTINUOUS
 62
     7
  2
*HATCH10
 70
    65
 10
0.0
 20
0.0
 30
0.0
  3
*HATCH10
  0
LINE
  5
    4D
  8
0
  6
CONTINUOUS
 62
     3
 10
-24.1525974273682
 20
-4.00005149841309
 30
0.0
 11
-25.3908443450928
 21
-5.23830080032349
 31
0.0
  0
LINE
  5
    4E
  8
0
  6
CONTINUOUS
 62
     3
 10
-22.0312747955322
 20
-4.00005149841309
 30
0.0
 11
-24.0312747955322
 21
-6.00005149841309
 31
0.0
  0
LINE
  5
    4F
  8
0
  6
CONTINUOUS
 62
     3
 10
-19.9099559783936
 20
-4.00005149841309
 30
0.0
 11
-21.9099559783936
 21
-6.00005149841309
 31
0.0
  0
LINE
  5
    50
  8
0
  6
CONTINUOUS
 62
     3
 10
-17.7886371612549
 20
-4.00005149841309
 30
0.0
 11
-19.7886371612549
 21
-6.00005149841309
 31
0.0
  0
LINE
  5
    51
  8
0
  6
CONTINUOUS
 62
     3
 10
-15.6673173904419
 20
-4.00005149841309
 30
0.0
 11
-17.6673183441162
 21
-6.00005149841309
 31
0.0
  0
LINE
  5
    52
  8
0
  6
CONTINUOUS
 62
     3
 10
-13.5459966659546
 20
-4.00005149841309
 30
0.0
 11
-15.5459985733032
 21
-6.00005149841309
 31
0.0
  0
LINE
  5
    53
  8
0
  6
CONTINUOUS
 62
     3
 10
-11.4246759414673
 20
-4.00005149841309
 30
0.0
 11
-13.4246778488159
 21
-6.00005149841309
 31
0.0
  0
LINE
  5
    54
  8
0
  6
CONTINUOUS
 62
     3
 10
-9.30335521697998
 20
-4.00005149841309
 30
0.0
 11
-11.3033571243286
 21
-6.00005149841309
 31
0.0
  0
LINE
  5
    55
  8
0
  6
CONTINUOUS
 62
     3
 10
-7.18203449249268
 20
-4.00005149841309
 30
0.0
 11
-9.18203639984131
 21
-6.00005149841309
 31
0.0
  0
LINE
  5
    56
  8
0
  6
CONTINUOUS
 62
     3
 10
-5.06071376800537
 20
-4.00005149841309
 30
0.0
 11
-7.060715675354
 21
-6.00005149841309
 31
0.0
  0
LINE
  5
    57
  8
0
  6
CONTINUOUS
 62
     3
 10
-2.93939328193665
 20
-4.00005149841309
 30
0.0
 11
-4.9393949508667
 21
-6.00005149841309
 31
0.0
  0
LINE
  5
    58
  8
0
  6
CONTINUOUS
 62
     3
 10
-0.818073034286499
 20
-4.00005149841309
 30
0.0
 11
-2.81807422637939
 21
-6.00005149841309
 31
0.0
  0
LINE
  5
    59
  8
0
  6
CONTINUOUS
 62
     3
 10
1.30324721336365
 20
-4.00005149841309
 30
0.0
 11
-0.696753740310669
 21
-6.00005149841309
 31
0.0
  0
LINE
  5
    5A
  8
0
  6
CONTINUOUS
 62
     3
 10
3.42456746101379
 20
-4.00005149841309
 30
0.0
 11
1.42456674575806
 21
-6.00005149841309
 31
0.0
  0
LINE
  5
    5B
  8
0
  6
CONTINUOUS
 62
     3
 10
5.54588794708252
 20
-4.00005149841309
 30
0.0
 11
3.54588747024536
 21
-6.00005149841309
 31
0.0
  0
LINE
  5
    5C
  8
0
  6
CONTINUOUS
 62
     3
 10
7.66720867156982
 20
-4.00005149841309
 30
0.0
 11
5.66720819473267
 21
-6.00005149841309
 31
0.0
  0
LINE
  5
    5D
  8
0
  6
CONTINUOUS
 62
     3
 10
9.78852939605713
 20
-4.00005149841309
 30
0.0
 11
7.78852891921997
 21
-6.00005149841309
 31
0.0
  0
LINE
  5
    5E
  8
0
  6
CONTINUOUS
 62
     3
 10
11.9098501205444
 20
-4.00005149841309
 30
0.0
 11
9.90984916687012
 21
-6.00005149841309
 31
0.0
  0
LINE
  5
    5F
  8
0
  6
CONTINUOUS
 62
     3
 10
14.0311708450317
 20
-4.00005149841309
 30
0.0
 11
12.0311698913574
 21
-6.00005149841309
 31
0.0
  0
LINE
  5
    60
  8
0
  6
CONTINUOUS
 62
     3
 10
16.1524906158447
 20
-4.00005149841309
 30
0.0
 11
14.1524906158447
 21
-6.00005149841309
 31
0.0
  0
LINE
  5
    61
  8
0
  6
CONTINUOUS
 62
     3
 10
18.2738094329834
 20
-4.00005149841309
 30
0.0
 11
16.273811340332
 21
-6.00005149841309
 31
0.0
  0
LINE
  5
    62
  8
0
  6
CONTINUOUS
 62
     3
 10
20.3951282501221
 20
-4.00005149841309
 30
0.0
 11
18.3951301574707
 21
-6.00005149841309
 31
0.0
  0
LINE
  5
    63
  8
0
  6
CONTINUOUS
 62
     3
 10
22.5164470672607
 20
-4.00005149841309
 30
0.0
 11
20.5164489746094
 21
-6.00005149841309
 31
0.0
  0
LINE
  5
    64
  8
0
  6
CONTINUOUS
 62
     3
 10
24.6377658843994
 20
-4.00005149841309
 30
0.0
 11
22.637767791748
 21
-6.00005149841309
 31
0.0
  0
LINE
  5
    65
  8
0
  6
CONTINUOUS
 62
     3
 10
26.7590847015381
 20
-4.00005149841309
 30
0.0
 11
24.7590866088867
 21
-6.00005149841309
 31
0.0
  0
LINE
  5
    66
  8
0
  6
CONTINUOUS
 62
     3
 10
28.8804035186768
 20
-4.00005149841309
 30
0.0
 11
26.8804054260254
 21
-6.00005149841309
 31
0.0
  0
LINE
  5
    67
  8
0
  6
CONTINUOUS
 62
     3
 10
31.0017223358154
 20
-4.00005149841309
 30
0.0
 11
29.0017242431641
 21
-6.00005149841309
 31
0.0
  0
LINE
  5
    68
  8
0
  6
CONTINUOUS
 62
     3
 10
33.1230430603027
 20
-4.00005149841309
 30
0.0
 11
31.1230430603027
 21
-6.00005149841309
 31
0.0
  0
LINE
  5
    69
  8
0
  6
CONTINUOUS
 62
     3
 10
35.2443656921387
 20
-4.00005149841309
 30
0.0
 11
33.2443656921387
 21
-6.00005149841309
 31
0.0
  0
LINE
  5
    6A
  8
0
  6
CONTINUOUS
 62
     3
 10
35.4806251525879
 20
-5.88512229919434
 30
0.0
 11
35.3656959533691
 21
-6.00005149841309
 31
0.0
  0
ENDBLK
  5
    6B
  8
0
  6
CONTINUOUS
 62
     7
  0
BLOCK
  5
    6C
  8
0
  6
CONTINUOUS
 62
     7
  2
*HATCH11
 70
    65
 10
0.0
 20
0.0
 30
0.0
  3
*HATCH11
  0
LINE
  5
    6D
  8
0
  6
CONTINUOUS
 62
     3
 10
185.858123779297
 20
-4.00005149841309
 30
0.0
 11
184.480621337891
 21
-5.37755584716797
 31
0.0
  0
LINE
  5
    6E
  8
0
  6
CONTINUOUS
 62
     3
 10
187.979446411133
 20
-4.00005149841309
 30
0.0
 11
185.979446411133
 21
-6.00005149841309
 31
0.0
  0
LINE
  5
    6F
  8
0
  6
CONTINUOUS
 62
     3
 10
190.10075378418
 20
-4.00005149841309
 30
0.0
 11
188.10075378418
 21
-6.00005149841309
 31
0.0
  0
LINE
  5
    70
  8
0
  6
CONTINUOUS
 62
     3
 10
192.222061157227
 20
-4.00005149841309
 30
0.0
 11
190.222061157227
 21
-6.00005149841309
 31
0.0
  0
LINE
  5
    71
  8
0
  6
CONTINUOUS
 62
     3
 10
194.343368530273
 20
-4.00005149841309
 30
0.0
 11
192.343368530273
 21
-6.00005149841309
 31
0.0
  0
LINE
  5
    72
  8
0
  6
CONTINUOUS
 62
     3
 10
196.46467590332
 20
-4.00005149841309
 30
0.0
 11
194.46467590332
 21
-6.00005149841309
 31
0.0
  0
LINE
  5
    73
  8
0
  6
CONTINUOUS
 62
     3
 10
198.585983276367
 20
-4.00005149841309
 30
0.0
 11
196.585983276367
 21
-6.00005149841309
 31
0.0
  0
LINE
  5
    74
  8
0
  6
CONTINUOUS
 62
     3
 10
200.707290649414
 20
-4.00005149841309
 30
0.0
 11
198.707290649414
 21
-6.00005149841309
 31
0.0
  0
LINE
  5
    75
  8
0
  6
CONTINUOUS
 62
     3
 10
202.828598022461
 20
-4.00005149841309
 30
0.0
 11
200.828598022461
 21
-6.00005149841309
 31
0.0
  0
LINE
  5
    76
  8
0
  6
CONTINUOUS
 62
     3
 10
204.949905395508
 20
-4.00005149841309
 30
0.0
 11
202.949905395508
 21
-6.00005149841309
 31
0.0
  0
LINE
  5
    77
  8
0
  6
CONTINUOUS
 62
     3
 10
207.071212768555
 20
-4.00005149841309
 30
0.0
 11
205.071212768555
 21
-6.00005149841309
 31
0.0
  0
LINE
  5
    78
  8
0
  6
CONTINUOUS
 62
     3
 10
209.192520141602
 20
-4.00005149841309
 30
0.0
 11
207.192520141602
 21
-6.00005149841309
 31
0.0
  0
LINE
  5
    79
  8
0
  6
CONTINUOUS
 62
     3
 10
211.313827514648
 20
-4.00005149841309
 30
0.0
 11
209.313827514648
 21
-6.00005149841309
 31
0.0
  0
LINE
  5
    7A
  8
0
  6
CONTINUOUS
 62
     3
 10
213.435134887695
 20
-4.00005149841309
 30
0.0
 11
211.435134887695
 21
-6.00005149841309
 31
0.0
  0
LINE
  5
    7B
  8
0
  6
CONTINUOUS
 62
     3
 10
215.556442260742
 20
-4.00005149841309
 30
0.0
 11
213.556442260742
 21
-6.00005149841309
 31
0.0
  0
LINE
  5
    7C
  8
0
  6
CONTINUOUS
 62
     3
 10
217.677749633789
 20
-4.00005149841309
 30
0.0
 11
215.677749633789
 21
-6.00005149841309
 31
0.0
  0
LINE
  5
    7D
  8
0
  6
CONTINUOUS
 62
     3
 10
219.799057006836
 20
-4.00005149841309
 30
0.0
 11
217.799057006836
 21
-6.00005149841309
 31
0.0
  0
LINE
  5
    7E
  8
0
  6
CONTINUOUS
 62
     3
 10
221.920364379883
 20
-4.00005149841309
 30
0.0
 11
219.920364379883
 21
-6.00005149841309
 31
0.0
  0
LINE
  5
    7F
  8
0
  6
CONTINUOUS
 62
     3
 10
224.04167175293
 20
-4.00005149841309
 30
0.0
 11
222.04167175293
 21
-6.00005149841309
 31
0.0
  0
LINE
  5
    80
  8
0
  6
CONTINUOUS
 62
     3
 10
226.162979125977
 20
-4.00005149841309
 30
0.0
 11
224.162979125977
 21
-6.00005149841309
 31
0.0
  0
LINE
  5
    81
  8
0
  6
CONTINUOUS
 62
     3
 10
228.284286499023
 20
-4.00005149841309
 30
0.0
 11
226.284286499023
 21
-6.00005149841309
 31
0.0
  0
LINE
  5
    82
  8
0
  6
CONTINUOUS
 62
     3
 10
230.40559387207
 20
-4.00005149841309
 30
0.0
 11
228.40559387207
 21
-6.00005149841309
 31
0.0
  0
LINE
  5
    83
  8
0
  6
CONTINUOUS
 62
     3
 10
232.526901245117
 20
-4.00005149841309
 30
0.0
 11
230.526901245117
 21
-6.00005149841309
 31
0.0
  0
LINE
  5
    84
  8
0
  6
CONTINUOUS
 62
     3
 10
234.648208618164
 20
-4.00005149841309
 30
0.0
 11
232.648208618164
 21
-6.00005149841309
 31
0.0
  0
LINE
  5
    85
  8
0
  6
CONTINUOUS
 62
     3
 10
236.769515991211
 20
-4.00005149841309
 30
0.0
 11
234.769515991211
 21
-6.00005149841309
 31
0.0
  0
LINE
  5
    86
  8
0
  6
CONTINUOUS
 62
     3
 10
238.890823364258
 20
-4.00005149841309
 30
0.0
 11
236.890823364258
 21
-6.00005149841309
 31
0.0
  0
LINE
  5
    87
  8
0
  6
CONTINUOUS
 62
     3
 10
241.012130737305
 20
-4.00005149841309
 30
0.0
 11
239.012130737305
 21
-6.00005149841309
 31
0.0
  0
LINE
  5
    88
  8
0
  6
CONTINUOUS
 62
     3
 10
243.133438110352
 20
-4.00005149841309
 30
0.0
 11
241.133438110352
 21
-6.00005149841309
 31
0.0
  0
LINE
  5
    89
  8
0
  6
CONTINUOUS
 62
     3
 10
245.254745483398
 20
-4.00005149841309
 30
0.0
 11
243.254745483398
 21
-6.00005149841309
 31
0.0
  0
LINE
  5
    8A
  8
0
  6
CONTINUOUS
 62
     3
 10
247.376052856445
 20
-4.00005149841309
 30
0.0
 11
245.376052856445
 21
-6.00005149841309
 31
0.0
  0
LINE
  5
    8B
  8
0
  6
CONTINUOUS
 62
     3
 10
249.497360229492
 20
-4.00005149841309
 30
0.0
 11
247.497360229492
 21
-6.00005149841309
 31
0.0
  0
LINE
  5
    8C
  8
0
  6
CONTINUOUS
 62
     3
 10
251.618667602539
 20
-4.00005149841309
 30
0.0
 11
249.618667602539
 21
-6.00005149841309
 31
0.0
  0
LINE
  5
    8D
  8
0
  6
CONTINUOUS
 62
     3
 10
253.739974975586
 20
-4.00005149841309
 30
0.0
 11
251.739974975586
 21
-6.00005149841309
 31
0.0
  0
LINE
  5
    8E
  8
0
  6
CONTINUOUS
 62
     3
 10
255.861282348633
 20
-4.00005149841309
 30
0.0
 11
253.861282348633
 21
-6.00005149841309
 31
0.0
  0
LINE
  5
    8F
  8
0
  6
CONTINUOUS
 62
     3
 10
257.982604980469
 20
-4.00005149841309
 30
0.0
 11
255.98258972168
 21
-6.00005149841309
 31
0.0
  0
LINE
  5
    90
  8
0
  6
CONTINUOUS
 62
     3
 10
260.103942871094
 20
-4.00005149841309
 30
0.0
 11
258.103912353516
 21
-6.00005149841309
 31
0.0
  0
LINE
  5
    91
  8
0
  6
CONTINUOUS
 62
     3
 10
262.225280761719
 20
-4.00005149841309
 30
0.0
 11
260.225250244141
 21
-6.00005149841309
 31
0.0
  0
LINE
  5
    92
  8
0
  6
CONTINUOUS
 62
     3
 10
264.346618652344
 20
-4.00005149841309
 30
0.0
 11
262.346588134766
 21
-6.00005149841309
 31
0.0
  0
LINE
  5
    93
  8
0
  6
CONTINUOUS
 62
     3
 10
266.467956542969
 20
-4.00005149841309
 30
0.0
 11
264.467926025391
 21
-6.00005149841309
 31
0.0
  0
LINE
  5
    94
  8
0
  6
CONTINUOUS
 62
     3
 10
268.589294433594
 20
-4.00005149841309
 30
0.0
 11
266.589263916016
 21
-6.00005149841309
 31
0.0
  0
LINE
  5
    95
  8
0
  6
CONTINUOUS
 62
     3
 10
270.710632324219
 20
-4.00005149841309
 30
0.0
 11
268.710601806641
 21
-6.00005149841309
 31
0.0
  0
LINE
  5
    96
  8
0
  6
CONTINUOUS
 62
     3
 10
272.831970214844
 20
-4.00005149841309
 30
0.0
 11
270.831939697266
 21
-6.00005149841309
 31
0.0
  0
LINE
  5
    97
  8
0
  6
CONTINUOUS
 62
     3
 10
274.953308105469
 20
-4.00005149841309
 30
0.0
 11
272.953277587891
 21
-6.00005149841309
 31
0.0
  0
LINE
  5
    98
  8
0
  6
CONTINUOUS
 62
     3
 10
277.074645996094
 20
-4.00005149841309
 30
0.0
 11
275.074615478516
 21
-6.00005149841309
 31
0.0
  0
LINE
  5
    99
  8
0
  6
CONTINUOUS
 62
     3
 10
279.195983886719
 20
-4.00005149841309
 30
0.0
 11
277.195953369141
 21
-6.00005149841309
 31
0.0
  0
LINE
  5
    9A
  8
0
  6
CONTINUOUS
 62
     3
 10
281.317321777344
 20
-4.00005149841309
 30
0.0
 11
279.317291259766
 21
-6.00005149841309
 31
0.0
  0
LINE
  5
    9B
  8
0
  6
CONTINUOUS
 62
     3
 10
283.438659667969
 20
-4.00005149841309
 30
0.0
 11
281.438629150391
 21
-6.00005149841309
 31
0.0
  0
LINE
  5
    9C
  8
0
  6
CONTINUOUS
 62
     3
 10
285.559997558594
 20
-4.00005149841309
 30
0.0
 11
283.559967041016
 21
-6.00005149841309
 31
0.0
  0
LINE
  5
    9D
  8
0
  6
CONTINUOUS
 62
     3
 10
287.681335449219
 20
-4.00005149841309
 30
0.0
 11
285.681304931641
 21
-6.00005149841309
 31
0.0
  0
LINE
  5
    9E
  8
0
  6
CONTINUOUS
 62
     3
 10
289.802673339844
 20
-4.00005149841309
 30
0.0
 11
287.802642822266
 21
-6.00005149841309
 31
0.0
  0
LINE
  5
    9F
  8
0
  6
CONTINUOUS
 62
     3
 10
291.924011230469
 20
-4.00005149841309
 30
0.0
 11
289.923980712891
 21
-6.00005149841309
 31
0.0
  0
LINE
  5
    A0
  8
0
  6
CONTINUOUS
 62
     3
 10
294.045349121094
 20
-4.00005149841309
 30
0.0
 11
292.045318603516
 21
-6.00005149841309
 31
0.0
  0
LINE
  5
    A1
  8
0
  6
CONTINUOUS
 62
     3
 10
296.166687011719
 20
-4.00005149841309
 30
0.0
 11
294.166656494141
 21
-6.00005149841309
 31
0.0
  0
LINE
  5
    A2
  8
0
  6
CONTINUOUS
 62
     3
 10
298.288024902344
 20
-4.00005149841309
 30
0.0
 11
296.287994384766
 21
-6.00005149841309
 31
0.0
  0
LINE
  5
    A3
  8
0
  6
CONTINUOUS
 62
     3
 10
300.409362792969
 20
-4.00005149841309
 30
0.0
 11
298.409332275391
 21
-6.00005149841309
 31
0.0
  0
LINE
  5
    A4
  8
0
  6
CONTINUOUS
 62
     3
 10
302.530700683594
 20
-4.00005149841309
 30
0.0
 11
300.530670166016
 21
-6.00005149841309
 31
0.0
  0
LINE
  5
    A5
  8
0
  6
CONTINUOUS
 62
     3
 10
304.652038574219
 20
-4.00005149841309
 30
0.0
 11
302.652008056641
 21
-6.00005149841309
 31
0.0
  0
LINE
  5
    A6
  8
0
  6
CONTINUOUS
 62
     3
 10
306.773376464844
 20
-4.00005149841309
 30
0.0
 11
304.773345947266
 21
-6.00005149841309
 31
0.0
  0
LINE
  5
    A7
  8
0
  6
CONTINUOUS
 62
     3
 10
308.894714355469
 20
-4.00005149841309
 30
0.0
 11
306.894683837891
 21
-6.00005149841309
 31
0.0
  0
LINE
  5
    A8
  8
0
  6
CONTINUOUS
 62
     3
 10
311.016052246094
 20
-4.00005149841309
 30
0.0
 11
309.016021728516
 21
-6.00005149841309
 31
0.0
  0
LINE
  5
    A9
  8
0
  6
CONTINUOUS
 62
     3
 10
313.137390136719
 20
-4.00005149841309
 30
0.0
 11
311.137359619141
 21
-6.00005149841309
 31
0.0
  0
LINE
  5
    AA
  8
0
  6
CONTINUOUS
 62
     3
 10
315.258728027344
 20
-4.00005149841309
 30
0.0
 11
313.258697509766
 21
-6.00005149841309
 31
0.0
  0
LINE
  5
    AB
  8
0
  6
CONTINUOUS
 62
     3
 10
317.380065917969
 20
-4.00005149841309
 30
0.0
 11
315.380035400391
 21
-6.00005149841309
 31
0.0
  0
LINE
  5
    AC
  8
0
  6
CONTINUOUS
 62
     3
 10
319.501403808594
 20
-4.00005149841309
 30
0.0
 11
317.501373291016
 21
-6.00005149841309
 31
0.0
  0
LINE
  5
    AD
  8
0
  6
CONTINUOUS
 62
     3
 10
321.622741699219
 20
-4.00005149841309
 30
0.0
 11
319.622711181641
 21
-6.00005149841309
 31
0.0
  0
LINE
  5
    AE
  8
0
  6
CONTINUOUS
 62
     3
 10
323.744079589844
 20
-4.00005149841309
 30
0.0
 11
321.744049072266
 21
-6.00005149841309
 31
0.0
  0
LINE
  5
    AF
  8
0
  6
CONTINUOUS
 62
     3
 10
325.865417480469
 20
-4.00005149841309
 30
0.0
 11
323.865386962891
 21
-6.00005149841309
 31
0.0
  0
LINE
  5
    B0
  8
0
  6
CONTINUOUS
 62
     3
 10
327.986755371094
 20
-4.00005149841309
 30
0.0
 11
325.986724853516
 21
-6.00005149841309
 31
0.0
  0
LINE
  5
    B1
  8
0
  6
CONTINUOUS
 62
     3
 10
330.108093261719
 20
-4.00005149841309
 30
0.0
 11
328.108062744141
 21
-6.00005149841309
 31
0.0
  0
LINE
  5
    B2
  8
0
  6
CONTINUOUS
 62
     3
 10
332.229431152344
 20
-4.00005149841309
 30
0.0
 11
330.229400634766
 21
-6.00005149841309
 31
0.0
  0
LINE
  5
    B3
  8
0
  6
CONTINUOUS
 62
     3
 10
333.858581542969
 20
-4.49203109741211
 30
0.0
 11
332.350555419922
 21
-6.00005149841309
 31
0.0
  0
LINE
  5
    B4
  8
0
  6
CONTINUOUS
 62
     3
 10
334.601745605469
 20
-5.87021350860596
 30
0.0
 11
334.471893310547
 21
-6.00005149841309
 31
0.0
  0
ENDBLK
  5
    B5
  8
0
  6
CONTINUOUS
 62
     7
  0
BLOCK
  5
    B6
  8
0
  6
CONTINUOUS
 62
     7
  2
P_F_S4
 70
    64
 10
0.0
 20
0.0
 30
0.0
  3
P_F_S4
  0
LINE
  5
    B7
  8
0
  6
CONTINUOUS
 62
     7
 10
-100.9999592831
 20
67.2370707253018
 30
0.0
 11
-100.999928765523
 21
67.5313058356388
 31
0.0
  0
LINE
  5
    B8
  8
0
  6
CONTINUOUS
 62
     7
 10
-101.499938964844
 20
121.737060546875
 30
0.0
 11
-100.999954223633
 21
121.737060546875
 31
0.0
  0
LINE
  5
    B9
  8
0
  6
CONTINUOUS
 62
     7
 10
-102.999938964844
 20
208.236999511719
 30
0.0
 11
-102.999938964844
 21
219.236999511719
 31
0.0
  0
LINE
  5
    BA
  8
0
  6
CONTINUOUS
 62
     7
 10
-102.999938964844
 20
83.737060546875
 30
0.0
 11
-102.999938964844
 21
89.237060546875
 31
0.0
  0
LINE
  5
    BB
  8
0
  6
CONTINUOUS
 62
     7
 10
-102.999938964842
 20
49.237091064459
 30
0.0
 11
-102.999938964842
 21
51.7371099853205
 31
0.0
  0
LINE
  5
    BC
  8
0
  6
CONTINUOUS
 62
     7
 10
-102.999938964966
 20
15.2370947272561
 30
0.0
 11
-102.999938964966
 21
49.2370910641988
 31
0.0
  0
LINE
  5
    BD
  8
0
  6
CONTINUOUS
 62
     7
 10
-102.999938964844
 20
-4.23049655918018
 30
0.0
 11
-102.999938964844
 21
4.48709472652538
 31
0.0
  0
LINE
  5
    BE
  8
0
  6
CONTINUOUS
 62
     7
 10
-150.999984741211
 20
204.737045288086
 30
0.0
 11
-150.999984741211
 21
229.737045288086
 31
0.0
  0
LINE
  5
    BF
  8
0
  6
CONTINUOUS
 62
     7
 10
-150.999984741211
 20
-13.2629384994507
 30
0.0
 11
-150.999984741211
 21
11.7370462417603
 31
0.0
  0
LINE
  5
    C0
  8
0
  6
CONTINUOUS
 62
     7
 10
-139.999977003396
 20
-18.7629819302125
 30
0.0
 11
-102.999931227029
 21
-18.7629666714241
 31
0.0
  0
LINE
  5
    C1
  8
0
  6
CONTINUOUS
 62
     7
 10
-139.999984741211
 20
235.237045288086
 30
0.0
 11
-102.999938964844
 21
235.237045288086
 31
0.0
  0
LINE
  5
    C2
  8
0
  6
CONTINUOUS
 62
     7
 10
-102.999938964844
 20
-0.762969970703119
 30
0.0
 11
-102.999938964844
 21
22.2370452880859
 31
0.0
  0
LINE
  5
    C3
  8
0
  6
CONTINUOUS
 62
     7
 10
-102.999938964844
 20
-18.7629699707031
 30
0.0
 11
-102.999938964844
 21
-15.9629211425781
 31
0.0
  0
LINE
  5
    C4
  8
0
  6
CONTINUOUS
 62
     7
 10
-102.999938964844
 20
232.437072753906
 30
0.0
 11
-102.999938964844
 21
235.237045288086
 31
0.0
  0
LINE
  5
    C5
  8
0
  6
CONTINUOUS
 62
     7
 10
-102.999938964844
 20
194.237045288086
 30
0.0
 11
-102.999938964844
 21
217.237075805664
 31
0.0
  0
LINE
  5
    C6
  8
0
  6
CONTINUOUS
 62
     7
 10
-102.999938964844
 20
128.237045288086
 30
0.0
 11
-102.999938964844
 21
194.237045288086
 31
0.0
  0
LINE
  5
    C7
  8
0
  6
CONTINUOUS
 62
     7
 10
-102.999938964844
 20
88.237060546875
 30
0.0
 11
-102.999938964844
 21
128.237045288086
 31
0.0
  0
LINE
  5
    C8
  8
0
  6
CONTINUOUS
 62
     7
 10
-102.999938964844
 20
22.237060546875
 30
0.0
 11
-102.999938964844
 21
88.237060546875
 31
0.0
  0
LINE
  5
    C9
  8
0
  6
CONTINUOUS
 62
     7
 10
-139.999984741211
 20
144.237045288086
 30
0.0
 11
-139.999984741211
 21
168.237045288086
 31
0.0
  0
LINE
  5
    CA
  8
0
  6
CONTINUOUS
 62
     7
 10
-139.999984741211
 20
232.437026977539
 30
0.0
 11
-139.999984741211
 21
235.237045288086
 31
0.0
  0
LINE
  5
    CB
  8
0
  6
CONTINUOUS
 62
     7
 10
-146.499984741211
 20
144.237045288086
 30
0.0
 11
-139.999984741211
 21
144.237045288086
 31
0.0
  0
LINE
  5
    CC
  8
0
  6
CONTINUOUS
 62
     7
 10
-146.500015258786
 20
72.2370000415226
 30
0.0
 11
-146.500015258786
 21
75.2369995117188
 31
0.0
  0
LINE
  5
    CD
  8
0
  6
CONTINUOUS
 62
     7
 10
-139.999984741211
 20
-18.7629852294922
 30
0.0
 11
-139.999984741211
 21
-15.9629430770874
 31
0.0
  0
LINE
  5
    CE
  8
0
  6
CONTINUOUS
 62
     7
 10
-139.999984741211
 20
-0.763000488281241
 30
0.0
 11
-139.999984741211
 21
11.737060546875
 31
0.0
  0
LINE
  5
    CF
  8
0
  6
CONTINUOUS
 62
     7
 10
-152.499984741211
 20
168.237045288086
 30
0.0
 11
-152.499984741211
 21
183.237045288086
 31
0.0
  0
LINE
  5
    D0
  8
0
  6
CONTINUOUS
 62
     7
 10
-152.499984741211
 20
33.2371063232422
 30
0.0
 11
-152.499984741211
 21
48.2371063232422
 31
0.0
  0
LINE
  5
    D1
  8
0
  6
CONTINUOUS
 62
     7
 10
-146.5
 20
65.2369995117188
 30
0.0
 11
-140.0
 21
65.2369995117188
 31
0.0
  0
LINE
  5
    D2
  8
0
  6
CONTINUOUS
 62
     7
 10
-146.5
 20
65.2369995117188
 30
0.0
 11
-146.5
 21
72.2369995117188
 31
0.0
  0
LINE
  5
    D3
  8
0
  6
CONTINUOUS
 62
     7
 10
-150.499984741211
 20
75.2369995117188
 30
0.0
 11
-146.499984741211
 21
75.2369995117188
 31
0.0
  0
LINE
  5
    D4
  8
0
  6
CONTINUOUS
 62
     7
 10
-150.499984741211
 20
82.2369842529297
 30
0.0
 11
-146.499984741211
 21
82.2369842529297
 31
0.0
  0
LINE
  5
    D5
  8
0
  6
CONTINUOUS
 62
     7
 10
-146.499986271829
 20
80.7370368507537
 30
0.0
 11
-103.999894719094
 21
80.7370215919665
 31
0.0
  0
LINE
  5
    D6
  8
0
  6
CONTINUOUS
 62
     7
 10
-103.999899420573
 20
80.7370196257666
 30
0.0
 11
-102.999929968944
 21
81.7370348485211
 31
0.0
  0
LINE
  5
    D7
  8
0
  6
CONTINUOUS
 62
     7
 10
-146.5
 20
69.737060546875
 30
0.0
 11
-103.999908447266
 21
69.737060546875
 31
0.0
  0
LINE
  5
    D8
  8
0
  6
CONTINUOUS
 62
     7
 10
-103.999890727308
 20
69.7370466585365
 30
0.0
 11
-102.999921275679
 21
68.737031435782
 31
0.0
  0
LINE
  5
    D9
  8
0
  6
CONTINUOUS
 62
     7
 10
-139.999984741211
 20
232.437057495117
 30
0.0
 11
-102.999938964844
 21
232.437057495117
 31
0.0
  0
LINE
  5
    DA
  8
0
  6
CONTINUOUS
 62
     7
 10
-102.999938964844
 20
217.237045288086
 30
0.0
 11
-102.999938964844
 21
232.437057495117
 31
0.0
  0
LINE
  5
    DB
  8
0
  6
CONTINUOUS
 62
     7
 10
-139.999984741211
 20
217.237060546875
 30
0.0
 11
-139.999984741211
 21
229.737045288086
 31
0.0
  0
LINE
  5
    DC
  8
0
  6
CONTINUOUS
 62
     7
 10
-139.999984741211
 20
-15.9629392623901
 30
0.0
 11
-102.999938964844
 21
-15.9629392623901
 31
0.0
  0
LINE
  5
    DD
  8
0
  6
CONTINUOUS
 62
     7
 10
-102.999938964844
 20
-15.9629392623901
 30
0.0
 11
-102.999938964844
 21
-0.762985229492181
 31
0.0
  0
LINE
  5
    DE
  8
0
  6
CONTINUOUS
 62
     7
 10
-139.999984741211
 20
-15.9629392623901
 30
0.0
 11
-139.999984741211
 21
-13.2629384994507
 31
0.0
  0
LINE
  5
    DF
  8
0
  6
CONTINUOUS
 62
     3
 10
-151.999984741211
 20
49.2370300292969
 30
0.0
 11
-150.499984741211
 21
49.2370300292969
 31
0.0
  0
LINE
  5
    E0
  8
0
  6
CONTINUOUS
 62
     3
 10
-151.999984741211
 20
32.2370300292969
 30
0.0
 11
-150.499984741211
 21
32.2370300292969
 31
0.0
  0
LINE
  5
    E1
  8
0
  6
CONTINUOUS
 62
     3
 10
-151.999984741211
 20
21.2370300292969
 30
0.0
 11
-150.499984741211
 21
21.2370300292969
 31
0.0
  0
LINE
  5
    E2
  8
0
  6
CONTINUOUS
 62
     3
 10
-151.999984741211
 20
195.237030029297
 30
0.0
 11
-150.499984741211
 21
195.237030029297
 31
0.0
  0
LINE
  5
    E3
  8
0
  6
CONTINUOUS
 62
     3
 10
-151.999984741211
 20
184.237030029297
 30
0.0
 11
-150.499984741211
 21
184.237030029297
 31
0.0
  0
LINE
  5
    E4
  8
0
  6
CONTINUOUS
 62
     3
 10
-151.999984741211
 20
167.237030029297
 30
0.0
 11
-150.499984741211
 21
167.237030029297
 31
0.0
  0
LINE
  5
    E5
  8
0
  6
CONTINUOUS
 62
     3
 10
-150.499984741211
 20
183.237045288086
 30
0.0
 11
-150.499984741211
 21
195.237030029297
 31
0.0
  0
LINE
  5
    E6
  8
0
  6
CONTINUOUS
 62
     3
 10
-150.499984741211
 20
48.2371826171875
 30
0.0
 11
-150.499984741211
 21
168.237075805664
 31
0.0
  0
LINE
  5
    E7
  8
0
  6
CONTINUOUS
 62
     3
 10
-150.499984741211
 20
21.2370300292969
 30
0.0
 11
-150.499984741211
 21
33.2371826171875
 31
0.0
  0
LINE
  5
    E8
  8
0
  6
CONTINUOUS
 62
     3
 10
-151.999984741211
 20
21.2370300292969
 30
0.0
 11
-151.999984741211
 21
33.2370910644531
 31
0.0
  0
LINE
  5
    E9
  8
0
  6
CONTINUOUS
 62
     3
 10
-151.999984741211
 20
48.2370758056641
 30
0.0
 11
-151.999984741211
 21
168.236938476563
 31
0.0
  0
LINE
  5
    EA
  8
0
  6
CONTINUOUS
 62
     3
 10
-151.999984741211
 20
183.236968994141
 30
0.0
 11
-151.999984741211
 21
195.237030029297
 31
0.0
  0
LINE
  5
    EB
  8
0
  6
CONTINUOUS
 62
     7
 10
-150.999984741211
 20
229.737045288086
 30
0.0
 11
-139.999984741211
 21
229.737045288086
 31
0.0
  0
LINE
  5
    EC
  8
0
  6
CONTINUOUS
 62
     7
 10
-140.999938964844
 20
204.737045288086
 30
0.0
 11
-139.999984741211
 21
204.737045288086
 31
0.0
  0
LINE
  5
    ED
  8
0
  6
CONTINUOUS
 62
     7
 10
-150.999984741211
 20
204.737045288086
 30
0.0
 11
-140.999938964844
 21
204.737045288086
 31
0.0
  0
LINE
  5
    EE
  8
0
  6
CONTINUOUS
 62
     7
 10
-150.999984741211
 20
-13.2629384994507
 30
0.0
 11
-139.999984741211
 21
-13.2629384994507
 31
0.0
  0
LINE
  5
    EF
  8
0
  6
CONTINUOUS
 62
     7
 10
-150.999984741211
 20
11.737060546875
 30
0.0
 11
-140.999938964844
 21
11.737060546875
 31
0.0
  0
LINE
  5
    F0
  8
0
  6
CONTINUOUS
 62
     7
 10
-140.999938964844
 20
11.737060546875
 30
0.0
 11
-139.999984741211
 21
11.737060546875
 31
0.0
  0
LINE
  5
    F1
  8
0
  6
CONTINUOUS
 62
     7
 10
-150.5
 20
183.237045288086
 30
0.0
 11
-139.999984741211
 21
183.237045288086
 31
0.0
  0
LINE
  5
    F2
  8
0
  6
CONTINUOUS
 62
     7
 10
-150.5
 20
168.237045288086
 30
0.0
 11
-139.999984741211
 21
168.237045288086
 31
0.0
  0
LINE
  5
    F3
  8
0
  6
CONTINUOUS
 62
     7
 10
-150.5
 20
48.2371063232422
 30
0.0
 11
-139.999984741211
 21
48.2371063232422
 31
0.0
  0
LINE
  5
    F4
  8
0
  6
CONTINUOUS
 62
     7
 10
-150.5
 20
33.2371063232422
 30
0.0
 11
-139.999984741211
 21
33.2371063232422
 31
0.0
  0
LINE
  5
    F5
  8
0
  6
CONTINUOUS
 62
     7
 10
-139.999984741211
 20
229.737045288086
 30
0.0
 11
-139.999984741211
 21
232.437057495117
 31
0.0
  0
LINE
  5
    F6
  8
0
  6
CONTINUOUS
 62
     7
 10
-139.999984741211
 20
204.737045288086
 30
0.0
 11
-139.999984741211
 21
217.23698425293
 31
0.0
  0
LINE
  5
    F7
  8
0
  6
CONTINUOUS
 62
     7
 10
-139.999984741211
 20
183.237045288086
 30
0.0
 11
-139.999984741211
 21
204.737045288086
 31
0.0
  0
LINE
  5
    F8
  8
0
  6
CONTINUOUS
 62
     7
 10
-139.999984741211
 20
168.237045288086
 30
0.0
 11
-139.999984741211
 21
183.237045288086
 31
0.0
  0
LINE
  5
    F9
  8
0
  6
CONTINUOUS
 62
     7
 10
-146.500015258786
 20
82.2369842529297
 30
0.0
 11
-146.500015258786
 21
144.237030559101
 31
0.0
  0
LINE
  5
    FA
  8
0
  6
CONTINUOUS
 62
     7
 10
-146.500015258786
 20
75.2369995117188
 30
0.0
 11
-146.500015258786
 21
82.2369842529297
 31
0.0
  0
LINE
  5
    FB
  8
0
  6
CONTINUOUS
 62
     7
 10
-139.999984741211
 20
65.2369995117188
 30
0.0
 11
-139.999984741211
 21
68.7370300292969
 31
0.0
  0
LINE
  5
    FC
  8
0
  6
CONTINUOUS
 62
     7
 10
-139.999984741211
 20
48.2371063232422
 30
0.0
 11
-139.999984741211
 21
65.2369995117188
 31
0.0
  0
LINE
  5
    FD
  8
0
  6
CONTINUOUS
 62
     7
 10
-139.999984741211
 20
33.2371063232422
 30
0.0
 11
-139.999984741211
 21
48.2371063232422
 31
0.0
  0
LINE
  5
    FE
  8
0
  6
CONTINUOUS
 62
     7
 10
-139.999984741211
 20
11.737060546875
 30
0.0
 11
-139.999984741211
 21
33.2371063232422
 31
0.0
  0
LINE
  5
    FF
  8
0
  6
CONTINUOUS
 62
     7
 10
-139.999984741211
 20
-13.2629384994507
 30
0.0
 11
-139.999984741211
 21
-0.762985229492179
 31
0.0
  0
LINE
  5
   100
  8
0
  6
DASHDOT
 62
     7
 10
-168.909676229633
 20
175.737045288086
 30
0.0
 11
-134.570510025793
 21
175.737045288086
 31
0.0
  0
LINE
  5
   101
  8
0
  6
DASHDOT
 62
     7
 10
-169.742276969866
 20
40.7370452880859
 30
0.0
 11
-135.397496435264
 21
40.7370452880859
 31
0.0
  0
LINE
  5
   102
  8
0
  6
CONTINUOUS
 62
   253
 10
-151.0
 20
205.237030029297
 30
0.0
 11
-151.0
 21
229.237030029297
 31
0.0
  0
LINE
  5
   103
  8
0
  6
CONTINUOUS
 62
   253
 10
-167.0
 20
205.237030029297
 30
0.0
 11
-167.0
 21
229.237030029297
 31
0.0
  0
LINE
  5
   104
  8
0
  6
CONTINUOUS
 62
   253
 10
-150.999954223633
 20
-12.7629699707031
 30
0.0
 11
-150.999954223633
 21
11.2370300292969
 31
0.0
  0
LINE
  5
   105
  8
0
  6
CONTINUOUS
 62
   253
 10
-166.999954223633
 20
-11.7629699707031
 30
0.0
 11
-166.999954223633
 21
10.2370300292969
 31
0.0
  0
LINE
  5
   106
  8
0
  6
CONTINUOUS
 62
     7
 10
-232.799957275391
 20
222.80451965332
 30
0.0
 11
-232.799957275391
 21
228.237030029297
 31
0.0
  0
LINE
  5
   107
  8
0
  6
CONTINUOUS
 62
     7
 10
-232.799957275391
 20
211.950546264648
 30
0.0
 11
-232.799957275391
 21
222.523513793945
 31
0.0
  0
LINE
  5
   108
  8
0
  6
CONTINUOUS
 62
     7
 10
-232.799957275391
 20
206.237030029297
 30
0.0
 11
-232.799957275391
 21
211.669525146484
 31
0.0
  0
LINE
  5
   109
  8
0
  6
CONTINUOUS
 62
     7
 10
-235.299957275391
 20
206.237030029297
 30
0.0
 11
-235.299957275391
 21
228.237030029297
 31
0.0
  0
LINE
  5
   10A
  8
0
  6
CONTINUOUS
 62
     7
 10
-241.299957275391
 20
206.237030029297
 30
0.0
 11
-241.299957275391
 21
228.237030029297
 31
0.0
  0
LINE
  5
   10B
  8
0
  6
CONTINUOUS
 62
     7
 10
-243.799957275391
 20
206.237030029297
 30
0.0
 11
-243.799957275391
 21
211.669525146484
 31
0.0
  0
LINE
  5
   10C
  8
0
  6
CONTINUOUS
 62
     7
 10
-243.799957275391
 20
211.950546264648
 30
0.0
 11
-243.799957275391
 21
222.523513793945
 31
0.0
  0
LINE
  5
   10D
  8
0
  6
CONTINUOUS
 62
     7
 10
-243.799957275391
 20
222.80451965332
 30
0.0
 11
-243.799957275391
 21
228.237030029297
 31
0.0
  0
LINE
  5
   10E
  8
0
  6
CONTINUOUS
 62
     7
 10
-218.999954223633
 20
207.237030029297
 30
0.0
 11
-218.999954223633
 21
227.237030029297
 31
0.0
  0
LINE
  5
   10F
  8
0
  6
CONTINUOUS
 62
     7
 10
-219.799957275391
 20
207.603607177734
 30
0.0
 11
-219.799957275391
 21
210.363204956055
 31
0.0
  0
LINE
  5
   110
  8
0
  6
CONTINUOUS
 62
     7
 10
-219.799957275391
 20
214.126129150391
 30
0.0
 11
-219.799957275391
 21
220.347930908203
 31
0.0
  0
LINE
  5
   111
  8
0
  6
CONTINUOUS
 62
     7
 10
-219.799957275391
 20
224.110824584961
 30
0.0
 11
-219.799957275391
 21
226.870452880859
 31
0.0
  0
LINE
  5
   112
  8
0
  6
CONTINUOUS
 62
     3
 10
-232.799957275391
 20
211.669525146484
 30
0.0
 11
-232.799957275391
 21
211.950546264648
 31
0.0
  0
LINE
  5
   113
  8
0
  6
CONTINUOUS
 62
     3
 10
-232.799957275391
 20
222.523513793945
 30
0.0
 11
-232.799957275391
 21
222.80451965332
 31
0.0
  0
LINE
  5
   114
  8
0
  6
CONTINUOUS
 62
     3
 10
-226.799957275391
 20
206.267379760742
 30
0.0
 11
-226.799957275391
 21
228.206680297852
 31
0.0
  0
LINE
  5
   115
  8
0
  6
CONTINUOUS
 62
     3
 10
-243.799957275391
 20
222.523513793945
 30
0.0
 11
-243.799957275391
 21
222.80451965332
 31
0.0
  0
LINE
  5
   116
  8
0
  6
CONTINUOUS
 62
     3
 10
-243.799957275391
 20
211.669525146484
 30
0.0
 11
-243.799957275391
 21
211.950546264648
 31
0.0
  0
LINE
  5
   117
  8
0
  6
CONTINUOUS
 62
     3
 10
-249.799957275391
 20
206.267379760742
 30
0.0
 11
-249.799957275391
 21
228.206680297852
 31
0.0
  0
LINE
  5
   118
  8
0
  6
CONTINUOUS
 62
     3
 10
-225.799957275391
 20
206.267379760742
 30
0.0
 11
-225.799957275391
 21
228.206680297852
 31
0.0
  0
LINE
  5
   119
  8
0
  6
CONTINUOUS
 62
     3
 10
-219.799957275391
 20
226.870468139648
 30
0.0
 11
-219.799957275391
 21
228.206680297852
 31
0.0
  0
LINE
  5
   11A
  8
0
  6
CONTINUOUS
 62
     3
 10
-219.799957275391
 20
220.347930908203
 30
0.0
 11
-219.799957275391
 21
224.11083984375
 31
0.0
  0
LINE
  5
   11B
  8
0
  6
CONTINUOUS
 62
     3
 10
-219.799957275391
 20
210.363204956055
 30
0.0
 11
-219.799957275391
 21
214.126113891602
 31
0.0
  0
LINE
  5
   11C
  8
0
  6
CONTINUOUS
 62
     3
 10
-219.799957275391
 20
206.267379760742
 30
0.0
 11
-219.799957275391
 21
207.603607177734
 31
0.0
  0
LINE
  5
   11D
  8
0
  6
CONTINUOUS
 62
     3
 10
-152.0
 20
49.2370376586914
 30
0.0
 11
-150.5
 21
49.2370376586914
 31
0.0
  0
LINE
  5
   11E
  8
0
  6
CONTINUOUS
 62
     3
 10
-152.0
 20
32.2370376586914
 30
0.0
 11
-150.5
 21
32.2370376586914
 31
0.0
  0
LINE
  5
   11F
  8
0
  6
CONTINUOUS
 62
     3
 10
-152.0
 20
21.2370376586914
 30
0.0
 11
-150.5
 21
21.2370376586914
 31
0.0
  0
LINE
  5
   120
  8
0
  6
CONTINUOUS
 62
     3
 10
-152.0
 20
195.237045288086
 30
0.0
 11
-150.5
 21
195.237045288086
 31
0.0
  0
LINE
  5
   121
  8
0
  6
CONTINUOUS
 62
     3
 10
-152.0
 20
184.237045288086
 30
0.0
 11
-150.5
 21
184.237045288086
 31
0.0
  0
LINE
  5
   122
  8
0
  6
CONTINUOUS
 62
     3
 10
-152.0
 20
167.237045288086
 30
0.0
 11
-150.5
 21
167.237045288086
 31
0.0
  0
LINE
  5
   123
  8
0
  6
CONTINUOUS
 62
     3
 10
-150.5
 20
21.2370452880859
 30
0.0
 11
-150.5
 21
195.237045288086
 31
0.0
  0
LINE
  5
   124
  8
0
  6
CONTINUOUS
 62
     3
 10
-152.0
 20
21.2370376586914
 30
0.0
 11
-152.0
 21
195.237037658691
 31
0.0
  0
LINE
  5
   125
  8
0
  6
CONTINUOUS
 62
   212
 10
-252.499954223633
 20
213.237030029297
 30
0.0
 11
-252.499954223633
 21
221.237030029297
 31
0.0
  0
LINE
  5
   126
  8
0
  6
CONTINUOUS
 62
   253
 10
-167.0
 20
-12.7629699707031
 30
0.0
 11
-167.0
 21
-11.7629699707031
 31
0.0
  0
LINE
  5
   127
  8
0
  6
CONTINUOUS
 62
   253
 10
-167.0
 20
10.2370309829712
 30
0.0
 11
-167.0
 21
11.2370300292969
 31
0.0
  0
LINE
  5
   128
  8
0
  6
CONTINUOUS
 62
     7
 10
-232.799957275391
 20
4.80452251434328
 30
0.0
 11
-232.799957275391
 21
10.2370300292969
 31
0.0
  0
LINE
  5
   129
  8
0
  6
CONTINUOUS
 62
     7
 10
-232.799957275391
 20
-6.04945564270018
 30
0.0
 11
-232.799957275391
 21
4.52351379394533
 31
0.0
  0
LINE
  5
   12A
  8
0
  6
CONTINUOUS
 62
     7
 10
-232.799957275391
 20
-11.7629699707031
 30
0.0
 11
-232.799957275391
 21
-6.33046388626097
 31
0.0
  0
LINE
  5
   12B
  8
0
  6
CONTINUOUS
 62
     7
 10
-235.299957275391
 20
-11.7629699707031
 30
0.0
 11
-235.299957275391
 21
10.2370300292969
 31
0.0
  0
LINE
  5
   12C
  8
0
  6
CONTINUOUS
 62
     7
 10
-241.299957275391
 20
-11.7629699707031
 30
0.0
 11
-241.299957275391
 21
10.2370300292969
 31
0.0
  0
LINE
  5
   12D
  8
0
  6
CONTINUOUS
 62
     7
 10
-243.799957275391
 20
-11.7629699707031
 30
0.0
 11
-243.799957275391
 21
-6.33046197891234
 31
0.0
  0
LINE
  5
   12E
  8
0
  6
CONTINUOUS
 62
     7
 10
-243.799957275391
 20
-6.04945373535155
 30
0.0
 11
-243.799957275391
 21
4.52351570129396
 31
0.0
  0
LINE
  5
   12F
  8
0
  6
CONTINUOUS
 62
     7
 10
-243.799957275391
 20
4.80452394485475
 30
0.0
 11
-243.799957275391
 21
10.2370300292969
 31
0.0
  0
LINE
  5
   130
  8
0
  6
CONTINUOUS
 62
     7
 10
-218.999954223633
 20
-10.7629699707031
 30
0.0
 11
-218.999954223633
 21
9.23703002929689
 31
0.0
  0
LINE
  5
   131
  8
0
  6
CONTINUOUS
 62
     7
 10
-219.799957275391
 20
-10.3964042663574
 30
0.0
 11
-219.799957275391
 21
-7.63677692413329
 31
0.0
  0
LINE
  5
   132
  8
0
  6
CONTINUOUS
 62
     7
 10
-219.799957275391
 20
-3.87387752532958
 30
0.0
 11
-219.799957275391
 21
2.34793949127199
 31
0.0
  0
LINE
  5
   133
  8
0
  6
CONTINUOUS
 62
     7
 10
-219.799957275391
 20
6.11083698272706
 30
0.0
 11
-219.799957275391
 21
8.87046623229982
 31
0.0
  0
LINE
  5
   134
  8
0
  6
CONTINUOUS
 62
     3
 10
-243.799957275391
 20
4.52351665496828
 30
0.0
 11
-243.799957275391
 21
4.80452156066896
 31
0.0
  0
LINE
  5
   135
  8
0
  6
CONTINUOUS
 62
     3
 10
-243.799957275391
 20
-6.33046531677245
 30
0.0
 11
-243.799957275391
 21
-6.04945182800291
 31
0.0
  0
LINE
  5
   136
  8
0
  6
CONTINUOUS
 62
     3
 10
-249.799957275391
 20
-11.7326250076294
 30
0.0
 11
-249.799957275391
 21
10.2066850662232
 31
0.0
  0
LINE
  5
   137
  8
0
  6
CONTINUOUS
 62
     3
 10
-225.799957275391
 20
-11.7326250076294
 30
0.0
 11
-225.799957275391
 21
10.2066850662232
 31
0.0
  0
LINE
  5
   138
  8
0
  6
CONTINUOUS
 62
     3
 10
-219.799957275391
 20
8.87046432495119
 30
0.0
 11
-219.799957275391
 21
10.2066850662232
 31
0.0
  0
LINE
  5
   139
  8
0
  6
CONTINUOUS
 62
     3
 10
-219.799957275391
 20
2.34793829917909
 30
0.0
 11
-219.799957275391
 21
6.11083745956422
 31
0.0
  0
LINE
  5
   13A
  8
0
  6
CONTINUOUS
 62
     3
 10
-219.799957275391
 20
-7.63677692413329
 30
0.0
 11
-219.799957275391
 21
-3.87387895584105
 31
0.0
  0
LINE
  5
   13B
  8
0
  6
CONTINUOUS
 62
     3
 10
-219.799957275391
 20
-11.7326250076294
 30
0.0
 11
-219.799957275391
 21
-10.3964052200317
 31
0.0
  0
LINE
  5
   13C
  8
0
  6
CONTINUOUS
 62
     3
 10
-232.799957275391
 20
-6.33046483993529
 30
0.0
 11
-232.799957275391
 21
-6.04945135116576
 31
0.0
  0
LINE
  5
   13D
  8
0
  6
CONTINUOUS
 62
     3
 10
-232.799957275391
 20
4.52351713180543
 30
0.0
 11
-232.799957275391
 21
4.80452156066896
 31
0.0
  0
LINE
  5
   13E
  8
0
  6
CONTINUOUS
 62
     3
 10
-226.799957275391
 20
-11.7326250076294
 30
0.0
 11
-226.799957275391
 21
10.2066850662232
 31
0.0
  0
LINE
  5
   13F
  8
0
  6
CONTINUOUS
 62
   212
 10
-252.499954223633
 20
-4.76296997070311
 30
0.0
 11
-252.499954223633
 21
3.23703002929689
 31
0.0
  0
LINE
  5
   140
  8
0
  6
CONTINUOUS
 62
   253
 10
-167.0
 20
229.237030029297
 30
0.0
 11
-151.0
 21
229.237030029297
 31
0.0
  0
LINE
  5
   141
  8
0
  6
CONTINUOUS
 62
   253
 10
-167.0
 20
205.237030029297
 30
0.0
 11
-151.0
 21
205.237030029297
 31
0.0
  0
LINE
  5
   142
  8
0
  6
CONTINUOUS
 62
   253
 10
-174.799957275391
 20
207.237030029297
 30
0.0
 11
-173.799957275391
 21
207.237030029297
 31
0.0
  0
LINE
  5
   143
  8
0
  6
CONTINUOUS
 62
   253
 10
-218.70711106629
 20
226.944139568556
 30
0.0
 11
-218.000003522221
 21
227.237032025123
 31
0.0
  0
LINE
  5
   144
  8
0
  6
CONTINUOUS
 62
   253
 10
-219.000001855536
 20
226.237033764579
 30
0.0
 11
-218.70710939897
 21
226.944141308648
 31
0.0
  0
LINE
  5
   145
  8
0
  6
CONTINUOUS
 62
   253
 10
-218.707112737555
 20
207.529925909357
 30
0.0
 11
-218.000005193486
 21
207.237033452791
 31
0.0
  0
LINE
  5
   146
  8
0
  6
CONTINUOUS
 62
   253
 10
-219.000003526801
 20
208.237035055882
 30
0.0
 11
-218.707111070235
 21
207.529927511813
 31
0.0
  0
LINE
  5
   147
  8
0
  6
CONTINUOUS
 62
   253
 10
-165.999954223633
 20
11.2370300292969
 30
0.0
 11
-150.999954223633
 21
11.2370300292969
 31
0.0
  0
LINE
  5
   148
  8
0
  6
CONTINUOUS
 62
   253
 10
-165.999954223633
 20
-12.7629699707031
 30
0.0
 11
-150.999954223633
 21
-12.7629699707031
 31
0.0
  0
LINE
  5
   149
  8
0
  6
CONTINUOUS
 62
   253
 10
-166.999950024109
 20
10.2370311955391
 30
0.0
 11
-165.999950058337
 21
11.2370311613106
 31
0.0
  0
LINE
  5
   14A
  8
0
  6
CONTINUOUS
 62
   253
 10
-166.999950037166
 20
-11.7629710977724
 30
0.0
 11
-165.999950071395
 21
-12.7629710635438
 31
0.0
  0
LINE
  5
   14B
  8
0
  6
CONTINUOUS
 62
     7
 10
-235.299957275391
 20
228.237030029297
 30
0.0
 11
-232.799957275391
 21
228.237030029297
 31
0.0
  0
LINE
  5
   14C
  8
0
  6
CONTINUOUS
 62
     7
 10
-235.299957275391
 20
206.237030029297
 30
0.0
 11
-232.799957275391
 21
206.237030029297
 31
0.0
  0
LINE
  5
   14D
  8
0
  6
CONTINUOUS
 62
     7
 10
-243.799957275391
 20
228.237030029297
 30
0.0
 11
-241.299957275391
 21
228.237030029297
 31
0.0
  0
LINE
  5
   14E
  8
0
  6
CONTINUOUS
 62
     7
 10
-243.799957275391
 20
206.237030029297
 30
0.0
 11
-241.299957275391
 21
206.237030029297
 31
0.0
  0
LINE
  5
   14F
  8
0
  6
CONTINUOUS
 62
     7
 10
-219.799957275391
 20
227.237030029297
 30
0.0
 11
-218.999954223633
 21
227.237030029297
 31
0.0
  0
LINE
  5
   150
  8
0
  6
CONTINUOUS
 62
     7
 10
-219.799957275391
 20
207.237030029297
 30
0.0
 11
-218.999954223633
 21
207.237030029297
 31
0.0
  0
LINE
  5
   151
  8
0
  6
CONTINUOUS
 62
     3
 10
-232.799957275391
 20
228.206680297852
 30
0.0
 11
-226.799957275391
 21
228.206680297852
 31
0.0
  0
LINE
  5
   152
  8
0
  6
CONTINUOUS
 62
     3
 10
-232.799957275391
 20
222.721862792969
 30
0.0
 11
-226.799957275391
 21
222.721862792969
 31
0.0
  0
LINE
  5
   153
  8
0
  6
CONTINUOUS
 62
     3
 10
-232.799957275391
 20
211.752197265625
 30
0.0
 11
-226.799957275391
 21
211.752197265625
 31
0.0
  0
LINE
  5
   154
  8
0
  6
CONTINUOUS
 62
     3
 10
-232.799957275391
 20
206.267379760742
 30
0.0
 11
-226.799957275391
 21
206.267379760742
 31
0.0
  0
LINE
  5
   155
  8
0
  6
CONTINUOUS
 62
     3
 10
-249.799957275391
 20
228.206680297852
 30
0.0
 11
-243.799957275391
 21
228.206680297852
 31
0.0
  0
LINE
  5
   156
  8
0
  6
CONTINUOUS
 62
     3
 10
-249.799957275391
 20
222.721862792969
 30
0.0
 11
-243.799957275391
 21
222.721862792969
 31
0.0
  0
LINE
  5
   157
  8
0
  6
CONTINUOUS
 62
     3
 10
-249.799957275391
 20
211.752197265625
 30
0.0
 11
-243.799957275391
 21
211.752197265625
 31
0.0
  0
LINE
  5
   158
  8
0
  6
CONTINUOUS
 62
     3
 10
-249.799957275391
 20
206.267379760742
 30
0.0
 11
-243.799957275391
 21
206.267379760742
 31
0.0
  0
LINE
  5
   159
  8
0
  6
CONTINUOUS
 62
     3
 10
-225.799957275391
 20
228.206680297852
 30
0.0
 11
-219.799957275391
 21
228.206680297852
 31
0.0
  0
LINE
  5
   15A
  8
0
  6
CONTINUOUS
 62
     3
 10
-225.799957275391
 20
222.721862792969
 30
0.0
 11
-219.799957275391
 21
222.721862792969
 31
0.0
  0
LINE
  5
   15B
  8
0
  6
CONTINUOUS
 62
     3
 10
-225.799957275391
 20
211.752197265625
 30
0.0
 11
-219.799957275391
 21
211.752197265625
 31
0.0
  0
LINE
  5
   15C
  8
0
  6
CONTINUOUS
 62
     3
 10
-225.799957275391
 20
206.267379760742
 30
0.0
 11
-219.799957275391
 21
206.267379760742
 31
0.0
  0
LINE
  5
   15D
  8
0
  6
CONTINUOUS
 62
   212
 10
-252.499949634759
 20
221.237026510508
 30
0.0
 11
-250.499949703216
 21
223.237026442051
 31
0.0
  0
LINE
  5
   15E
  8
0
  6
CONTINUOUS
 62
   212
 10
-252.499945916906
 20
213.237022394526
 30
0.0
 11
-250.499945985363
 21
211.237022462983
 31
0.0
  0
LINE
  5
   15F
  8
0
  6
CONTINUOUS
 62
   212
 10
-250.499954223633
 20
211.237030029297
 30
0.0
 11
-250.499954223633
 21
223.237030029297
 31
0.0
  0
LINE
  5
   160
  8
0
  6
CONTINUOUS
 62
   212
 10
-250.499954223633
 20
223.237030029297
 30
0.0
 11
-249.799957275391
 21
223.237030029297
 31
0.0
  0
LINE
  5
   161
  8
0
  6
CONTINUOUS
 62
   212
 10
-241.299957275391
 20
223.237030029297
 30
0.0
 11
-235.299957275391
 21
223.237030029297
 31
0.0
  0
LINE
  5
   162
  8
0
  6
CONTINUOUS
 62
   212
 10
-226.799957275391
 20
223.237030029297
 30
0.0
 11
-225.799957275391
 21
223.237030029297
 31
0.0
  0
LINE
  5
   163
  8
0
  6
CONTINUOUS
 62
   212
 10
-250.499954223633
 20
211.237030029297
 30
0.0
 11
-249.799957275391
 21
211.237030029297
 31
0.0
  0
LINE
  5
   164
  8
0
  6
CONTINUOUS
 62
   212
 10
-241.299957275391
 20
211.237030029297
 30
0.0
 11
-235.299957275391
 21
211.237030029297
 31
0.0
  0
LINE
  5
   165
  8
0
  6
CONTINUOUS
 62
   212
 10
-226.799957275391
 20
211.237030029297
 30
0.0
 11
-225.799957275391
 21
211.237030029297
 31
0.0
  0
LINE
  5
   166
  8
0
  6
CONTINUOUS
 62
   253
 10
-167.0
 20
11.2370300292969
 30
0.0
 11
-165.999954223633
 21
11.2370300292969
 31
0.0
  0
LINE
  5
   167
  8
0
  6
CONTINUOUS
 62
   253
 10
-167.0
 20
-12.7629699707031
 30
0.0
 11
-165.999954223633
 21
-12.7629699707031
 31
0.0
  0
LINE
  5
   168
  8
0
  6
CONTINUOUS
 62
   253
 10
-218.0
 20
9.23703002929688
 30
0.0
 11
-197.799957275391
 21
9.23703002929688
 31
0.0
  0
LINE
  5
   169
  8
0
  6
CONTINUOUS
 62
   253
 10
-218.0
 20
-10.7629699707031
 30
0.0
 11
-197.799957275391
 21
-10.7629699707031
 31
0.0
  0
LINE
  5
   16A
  8
0
  6
CONTINUOUS
 62
   253
 10
-218.707095343508
 20
8.94413864191446
 30
0.0
 11
-217.999987778922
 21
9.23703205648889
 31
0.0
  0
LINE
  5
   16B
  8
0
  6
CONTINUOUS
 62
   253
 10
-218.999987690501
 20
8.23703304937547
 30
0.0
 11
-218.707095233934
 21
8.9441396400215
 31
0.0
  0
LINE
  5
   16C
  8
0
  6
CONTINUOUS
 62
   253
 10
-218.707095359958
 20
-10.4700785299794
 30
0.0
 11
-217.999987795372
 21
-10.7629719445538
 31
0.0
  0
LINE
  5
   16D
  8
0
  6
CONTINUOUS
 62
   253
 10
-218.999987717327
 20
-9.7629728501456
 30
0.0
 11
-218.70709526076
 21
-10.4700794407916
 31
0.0
  0
LINE
  5
   16E
  8
0
  6
CONTINUOUS
 62
     7
 10
-235.299957275391
 20
10.2370300292969
 30
0.0
 11
-232.799957275391
 21
10.2370300292969
 31
0.0
  0
LINE
  5
   16F
  8
0
  6
CONTINUOUS
 62
     7
 10
-235.299957275391
 20
-11.7629699707031
 30
0.0
 11
-232.799957275391
 21
-11.7629699707031
 31
0.0
  0
LINE
  5
   170
  8
0
  6
CONTINUOUS
 62
     7
 10
-243.799957275391
 20
10.2370300292969
 30
0.0
 11
-241.299957275391
 21
10.2370300292969
 31
0.0
  0
LINE
  5
   171
  8
0
  6
CONTINUOUS
 62
     7
 10
-243.799957275391
 20
-11.7629699707031
 30
0.0
 11
-241.299957275391
 21
-11.7629699707031
 31
0.0
  0
LINE
  5
   172
  8
0
  6
CONTINUOUS
 62
     7
 10
-219.799957275391
 20
9.23703002929688
 30
0.0
 11
-218.999954223633
 21
9.23703002929688
 31
0.0
  0
LINE
  5
   173
  8
0
  6
CONTINUOUS
 62
     7
 10
-219.799957275391
 20
-10.7629699707031
 30
0.0
 11
-218.999954223633
 21
-10.7629699707031
 31
0.0
  0
LINE
  5
   174
  8
0
  6
CONTINUOUS
 62
     3
 10
-249.799957275391
 20
10.2066850662231
 30
0.0
 11
-243.799957275391
 21
10.2066850662231
 31
0.0
  0
LINE
  5
   175
  8
0
  6
CONTINUOUS
 62
     3
 10
-249.799957275391
 20
4.72185754776001
 30
0.0
 11
-243.799957275391
 21
4.72185754776001
 31
0.0
  0
LINE
  5
   176
  8
0
  6
CONTINUOUS
 62
     3
 10
-249.799957275391
 20
-6.24779748916626
 30
0.0
 11
-243.799957275391
 21
-6.24779748916626
 31
0.0
  0
LINE
  5
   177
  8
0
  6
CONTINUOUS
 62
     3
 10
-249.799957275391
 20
-11.7326250076294
 30
0.0
 11
-243.799957275391
 21
-11.7326250076294
 31
0.0
  0
LINE
  5
   178
  8
0
  6
CONTINUOUS
 62
     3
 10
-225.799957275391
 20
10.2066850662231
 30
0.0
 11
-219.799957275391
 21
10.2066850662231
 31
0.0
  0
LINE
  5
   179
  8
0
  6
CONTINUOUS
 62
     3
 10
-225.799957275391
 20
4.72185754776001
 30
0.0
 11
-219.799957275391
 21
4.72185754776001
 31
0.0
  0
LINE
  5
   17A
  8
0
  6
CONTINUOUS
 62
     3
 10
-225.799957275391
 20
-6.24779748916626
 30
0.0
 11
-219.799957275391
 21
-6.24779748916626
 31
0.0
  0
LINE
  5
   17B
  8
0
  6
CONTINUOUS
 62
     3
 10
-225.799957275391
 20
-11.7326250076294
 30
0.0
 11
-219.799957275391
 21
-11.7326250076294
 31
0.0
  0
LINE
  5
   17C
  8
0
  6
CONTINUOUS
 62
     3
 10
-232.799957275391
 20
10.2066850662231
 30
0.0
 11
-226.799957275391
 21
10.2066850662231
 31
0.0
  0
LINE
  5
   17D
  8
0
  6
CONTINUOUS
 62
     3
 10
-232.799957275391
 20
4.72185754776001
 30
0.0
 11
-226.799957275391
 21
4.72185754776001
 31
0.0
  0
LINE
  5
   17E
  8
0
  6
CONTINUOUS
 62
     3
 10
-232.799957275391
 20
-6.24779748916626
 30
0.0
 11
-226.799957275391
 21
-6.24779748916626
 31
0.0
  0
LINE
  5
   17F
  8
0
  6
CONTINUOUS
 62
     3
 10
-232.799957275391
 20
-11.7326250076294
 30
0.0
 11
-226.799957275391
 21
-11.7326250076294
 31
0.0
  0
LINE
  5
   180
  8
0
  6
CONTINUOUS
 62
   212
 10
-252.499947769304
 20
3.2370321068741
 30
0.0
 11
-250.499947837761
 21
5.23703203841698
 31
0.0
  0
LINE
  5
   181
  8
0
  6
CONTINUOUS
 62
   212
 10
-252.499947782361
 20
-4.76297200910727
 30
0.0
 11
-250.499947850818
 21
-6.76297194065022
 31
0.0
  0
LINE
  5
   182
  8
0
  6
CONTINUOUS
 62
   212
 10
-250.499954223633
 20
-6.76296997070311
 30
0.0
 11
-250.499954223633
 21
5.23703002929689
 31
0.0
  0
LINE
  5
   183
  8
0
  6
CONTINUOUS
 62
   212
 10
-250.499954223633
 20
5.23703002929688
 30
0.0
 11
-249.799957275391
 21
5.23703002929688
 31
0.0
  0
LINE
  5
   184
  8
0
  6
CONTINUOUS
 62
   212
 10
-241.299957275391
 20
5.23703002929688
 30
0.0
 11
-235.299957275391
 21
5.23703002929688
 31
0.0
  0
LINE
  5
   185
  8
0
  6
CONTINUOUS
 62
   212
 10
-226.799957275391
 20
5.23703002929688
 30
0.0
 11
-225.799957275391
 21
5.23703002929688
 31
0.0
  0
LINE
  5
   186
  8
0
  6
CONTINUOUS
 62
   212
 10
-250.499954223633
 20
-6.76296997070313
 30
0.0
 11
-249.799957275391
 21
-6.76296997070313
 31
0.0
  0
LINE
  5
   187
  8
0
  6
CONTINUOUS
 62
   212
 10
-241.299957275391
 20
-6.76296997070313
 30
0.0
 11
-235.299957275391
 21
-6.76296997070313
 31
0.0
  0
LINE
  5
   188
  8
0
  6
CONTINUOUS
 62
   212
 10
-226.799957275391
 20
-6.76296997070313
 30
0.0
 11
-225.799957275391
 21
-6.76296997070313
 31
0.0
  0
LINE
  5
   189
  8
0
  6
CONTINUOUS
 62
     7
 10
-152.499984741211
 20
48.2371063232422
 30
0.0
 11
-152.0
 21
48.2371063232422
 31
0.0
  0
LINE
  5
   18A
  8
0
  6
CONTINUOUS
 62
     7
 10
-152.499984741211
 20
33.2371063232422
 30
0.0
 11
-152.0
 21
33.2371063232422
 31
0.0
  0
LINE
  5
   18B
  8
0
  6
CONTINUOUS
 62
     7
 10
-152.499984741211
 20
183.237045288086
 30
0.0
 11
-152.0
 21
183.237045288086
 31
0.0
  0
LINE
  5
   18C
  8
0
  6
CONTINUOUS
 62
     7
 10
-152.499984741211
 20
168.237045288086
 30
0.0
 11
-152.0
 21
168.237045288086
 31
0.0
  0
LINE
  5
   18D
  8
0
  6
DASHDOT
 62
     7
 10
-259.87369905761
 20
-0.762969970703125
 30
0.0
 11
-95.1842699820459
 21
-0.762969970703125
 31
0.0
  0
LINE
  5
   18E
  8
0
  6
DASHDOT
 62
     7
 10
-259.87369905761
 20
217.237030029297
 30
0.0
 11
-95.1842699820459
 21
217.237030029297
 31
0.0
  0
LINE
  5
   18F
  8
0
  6
CONTINUOUS
 62
     3
 10
-241.299957275391
 20
4.23703002929688
 30
0.0
 11
-235.299957275391
 21
4.23703002929688
 31
0.0
  0
LINE
  5
   190
  8
0
  6
CONTINUOUS
 62
     3
 10
-241.299957275391
 20
-5.76296997070313
 30
0.0
 11
-235.299957275391
 21
-5.76296997070313
 31
0.0
  0
LINE
  5
   191
  8
0
  6
CONTINUOUS
 62
     3
 10
-241.299957275391
 20
222.237030029297
 30
0.0
 11
-235.299957275391
 21
222.237030029297
 31
0.0
  0
LINE
  5
   192
  8
0
  6
CONTINUOUS
 62
     3
 10
-241.299957275391
 20
212.237030029297
 30
0.0
 11
-235.299957275391
 21
212.237030029297
 31
0.0
  0
LINE
  5
   193
  8
0
  6
CONTINUOUS
 62
   212
 10
-200.499954223633
 20
213.237030029297
 30
0.0
 11
-200.499954223633
 21
221.237030029297
 31
0.0
  0
LINE
  5
   194
  8
0
  6
CONTINUOUS
 62
   212
 10
-200.499949104217
 20
221.237031661903
 30
0.0
 11
-198.499949172674
 21
223.237031593446
 31
0.0
  0
LINE
  5
   195
  8
0
  6
CONTINUOUS
 62
   212
 10
-198.499954223633
 20
211.237030029297
 30
0.0
 11
-198.499954223633
 21
223.237030029297
 31
0.0
  0
LINE
  5
   196
  8
0
  6
CONTINUOUS
 62
   212
 10
-198.499954223633
 20
223.237030029297
 30
0.0
 11
-197.799957275391
 21
223.237030029297
 31
0.0
  0
LINE
  5
   197
  8
0
  6
CONTINUOUS
 62
   212
 10
-198.499954223633
 20
211.237030029297
 30
0.0
 11
-197.799957275391
 21
211.237030029297
 31
0.0
  0
LINE
  5
   198
  8
0
  6
CONTINUOUS
 62
   212
 10
-200.499949117274
 20
213.237028435864
 30
0.0
 11
-198.499949185732
 21
211.237028504321
 31
0.0
  0
LINE
  5
   199
  8
0
  6
CONTINUOUS
 62
     3
 10
-197.799957275391
 20
206.267374992371
 30
0.0
 11
-197.799957275391
 21
228.206685066223
 31
0.0
  0
LINE
  5
   19A
  8
0
  6
CONTINUOUS
 62
     3
 10
-197.799957275391
 20
228.206685066223
 30
0.0
 11
-191.799957275391
 21
228.206685066223
 31
0.0
  0
LINE
  5
   19B
  8
0
  6
CONTINUOUS
 62
     3
 10
-197.799957275391
 20
222.72185754776
 30
0.0
 11
-191.799957275391
 21
222.72185754776
 31
0.0
  0
LINE
  5
   19C
  8
0
  6
CONTINUOUS
 62
     3
 10
-197.799957275391
 20
211.752202510834
 30
0.0
 11
-191.799957275391
 21
211.752202510834
 31
0.0
  0
LINE
  5
   19D
  8
0
  6
CONTINUOUS
 62
     3
 10
-197.799957275391
 20
206.267374992371
 30
0.0
 11
-191.799957275391
 21
206.267374992371
 31
0.0
  0
LINE
  5
   19E
  8
0
  6
CONTINUOUS
 62
     7
 10
-191.799957275391
 20
206.237030029297
 30
0.0
 11
-191.799957275391
 21
228.237030029297
 31
0.0
  0
LINE
  5
   19F
  8
0
  6
CONTINUOUS
 62
     7
 10
-189.299957275391
 20
206.237030029297
 30
0.0
 11
-189.299957275391
 21
228.237030029297
 31
0.0
  0
LINE
  5
   1A0
  8
0
  6
CONTINUOUS
 62
     7
 10
-191.799957275391
 20
206.237030029297
 30
0.0
 11
-189.299957275391
 21
206.237030029297
 31
0.0
  0
LINE
  5
   1A1
  8
0
  6
CONTINUOUS
 62
     7
 10
-191.799957275391
 20
228.237030029297
 30
0.0
 11
-189.299957275391
 21
228.237030029297
 31
0.0
  0
LINE
  5
   1A2
  8
0
  6
CONTINUOUS
 62
   212
 10
-189.299957275391
 20
223.237030029297
 30
0.0
 11
-183.299957275391
 21
223.237030029297
 31
0.0
  0
LINE
  5
   1A3
  8
0
  6
CONTINUOUS
 62
     3
 10
-189.299957275391
 20
222.237030029297
 30
0.0
 11
-183.299957275391
 21
222.237030029297
 31
0.0
  0
LINE
  5
   1A4
  8
0
  6
CONTINUOUS
 62
     3
 10
-189.299957275391
 20
212.237030029297
 30
0.0
 11
-183.299957275391
 21
212.237030029297
 31
0.0
  0
LINE
  5
   1A5
  8
0
  6
CONTINUOUS
 62
   212
 10
-189.299957275391
 20
211.237030029297
 30
0.0
 11
-183.299957275391
 21
211.237030029297
 31
0.0
  0
LINE
  5
   1A6
  8
0
  6
CONTINUOUS
 62
     7
 10
-183.299957275391
 20
206.237030029297
 30
0.0
 11
-183.299957275391
 21
228.237030029297
 31
0.0
  0
LINE
  5
   1A7
  8
0
  6
CONTINUOUS
 62
     7
 10
-180.799957275391
 20
206.237030029297
 30
0.0
 11
-180.799957275391
 21
228.237030029297
 31
0.0
  0
LINE
  5
   1A8
  8
0
  6
CONTINUOUS
 62
     7
 10
-183.299957275391
 20
228.237030029297
 30
0.0
 11
-180.799957275391
 21
228.237030029297
 31
0.0
  0
LINE
  5
   1A9
  8
0
  6
CONTINUOUS
 62
     3
 10
-180.799957275391
 20
228.206685066223
 30
0.0
 11
-174.799957275391
 21
228.206685066223
 31
0.0
  0
LINE
  5
   1AA
  8
0
  6
CONTINUOUS
 62
     3
 10
-180.799957275391
 20
222.72185754776
 30
0.0
 11
-174.799957275391
 21
222.72185754776
 31
0.0
  0
LINE
  5
   1AB
  8
0
  6
CONTINUOUS
 62
     3
 10
-180.799957275391
 20
211.752202510834
 30
0.0
 11
-174.799957275391
 21
211.752202510834
 31
0.0
  0
LINE
  5
   1AC
  8
0
  6
CONTINUOUS
 62
     3
 10
-180.799957275391
 20
206.267374992371
 30
0.0
 11
-174.799957275391
 21
206.267374992371
 31
0.0
  0
LINE
  5
   1AD
  8
0
  6
CONTINUOUS
 62
     7
 10
-183.299957275391
 20
206.237030029297
 30
0.0
 11
-180.799957275391
 21
206.237030029297
 31
0.0
  0
LINE
  5
   1AE
  8
0
  6
CONTINUOUS
 62
     3
 10
-174.799957275391
 20
206.267374992371
 30
0.0
 11
-174.799957275391
 21
228.206685066223
 31
0.0
  0
LINE
  5
   1AF
  8
0
  6
CONTINUOUS
 62
   212
 10
-174.799957275391
 20
211.237030029297
 30
0.0
 11
-173.799957275391
 21
211.237030029297
 31
0.0
  0
LINE
  5
   1B0
  8
0
  6
CONTINUOUS
 62
   212
 10
-174.799957275391
 20
223.237030029297
 30
0.0
 11
-173.799957275391
 21
223.237030029297
 31
0.0
  0
LINE
  5
   1B1
  8
0
  6
CONTINUOUS
 62
     3
 10
-173.799957275391
 20
206.267374992371
 30
0.0
 11
-173.799957275391
 21
228.206685066223
 31
0.0
  0
LINE
  5
   1B2
  8
0
  6
CONTINUOUS
 62
     3
 10
-173.799957275391
 20
228.206685066223
 30
0.0
 11
-167.799957275391
 21
228.206685066223
 31
0.0
  0
LINE
  5
   1B3
  8
0
  6
CONTINUOUS
 62
     3
 10
-173.799957275391
 20
222.72185754776
 30
0.0
 11
-167.799957275391
 21
222.72185754776
 31
0.0
  0
LINE
  5
   1B4
  8
0
  6
CONTINUOUS
 62
     3
 10
-173.799957275391
 20
211.752202510834
 30
0.0
 11
-167.799957275391
 21
211.752202510834
 31
0.0
  0
LINE
  5
   1B5
  8
0
  6
CONTINUOUS
 62
     3
 10
-173.799957275391
 20
206.267374992371
 30
0.0
 11
-167.799957275391
 21
206.267374992371
 31
0.0
  0
LINE
  5
   1B6
  8
0
  6
CONTINUOUS
 62
     3
 10
-167.799957275391
 20
206.267374992371
 30
0.0
 11
-167.799957275391
 21
207.603594779968
 31
0.0
  0
LINE
  5
   1B7
  8
0
  6
CONTINUOUS
 62
     7
 10
-167.799957275391
 20
207.603595733643
 30
0.0
 11
-167.799957275391
 21
228.206685066223
 31
0.0
  0
LINE
  5
   1B8
  8
0
  6
CONTINUOUS
 62
     7
 10
-167.799957275391
 20
227.237030029297
 30
0.0
 11
-166.999954223633
 21
227.237030029297
 31
0.0
  0
LINE
  5
   1B9
  8
0
  6
CONTINUOUS
 62
     7
 10
-167.799957275391
 20
207.237030029297
 30
0.0
 11
-166.999954223633
 21
207.237030029297
 31
0.0
  0
LINE
  5
   1BA
  8
0
  6
CONTINUOUS
 62
   253
 10
-174.799957275391
 20
227.237030029297
 30
0.0
 11
-173.799957275391
 21
227.237030029297
 31
0.0
  0
LINE
  5
   1BB
  8
0
  6
CONTINUOUS
 62
   253
 10
-189.299957275391
 20
227.237030029297
 30
0.0
 11
-183.299957275391
 21
227.237030029297
 31
0.0
  0
LINE
  5
   1BC
  8
0
  6
CONTINUOUS
 62
   253
 10
-218.0
 20
227.237030029297
 30
0.0
 11
-197.799957275391
 21
227.237030029297
 31
0.0
  0
LINE
  5
   1BD
  8
0
  6
CONTINUOUS
 62
   253
 10
-218.0
 20
207.237030029297
 30
0.0
 11
-197.799957275391
 21
207.237030029297
 31
0.0
  0
LINE
  5
   1BE
  8
0
  6
CONTINUOUS
 62
   253
 10
-189.299957275391
 20
207.237030029297
 30
0.0
 11
-183.299957275391
 21
207.237030029297
 31
0.0
  0
LINE
  5
   1BF
  8
0
  6
CONTINUOUS
 62
     7
 10
-158.699984741211
 20
171.837045288086
 30
0.0
 11
-158.699984741211
 21
179.637045288086
 31
0.0
  0
LINE
  5
   1C0
  8
0
  6
CONTINUOUS
 62
     7
 10
-161.899984741211
 20
173.737045288086
 30
0.0
 11
-161.899984741211
 21
177.737045288086
 31
0.0
  0
LINE
  5
   1C1
  8
0
  6
CONTINUOUS
 62
     7
 10
-158.699984741211
 20
179.637045288086
 30
0.0
 11
-155.499984741211
 21
179.637045288086
 31
0.0
  0
LINE
  5
   1C2
  8
0
  6
CONTINUOUS
 62
     7
 10
-158.699984741211
 20
171.837045288086
 30
0.0
 11
-155.499984741211
 21
171.837045288086
 31
0.0
  0
LINE
  5
   1C3
  8
0
  6
CONTINUOUS
 62
     7
 10
-161.899984741211
 20
177.737045288086
 30
0.0
 11
-155.499984741211
 21
177.737045288086
 31
0.0
  0
LINE
  5
   1C4
  8
0
  6
CONTINUOUS
 62
     7
 10
-161.899984741211
 20
173.737045288086
 30
0.0
 11
-155.499984741211
 21
173.737045288086
 31
0.0
  0
LINE
  5
   1C5
  8
0
  6
CONTINUOUS
 62
     7
 10
-158.699984741211
 20
44.6370452880859
 30
0.0
 11
-155.499984741211
 21
44.6370452880859
 31
0.0
  0
LINE
  5
   1C6
  8
0
  6
CONTINUOUS
 62
     7
 10
-161.899984741211
 20
42.7370452880859
 30
0.0
 11
-155.499984741211
 21
42.7370452880859
 31
0.0
  0
LINE
  5
   1C7
  8
0
  6
CONTINUOUS
 62
     7
 10
-161.899984741211
 20
38.7370452880859
 30
0.0
 11
-155.499984741211
 21
38.7370452880859
 31
0.0
  0
LINE
  5
   1C8
  8
0
  6
CONTINUOUS
 62
     7
 10
-158.699984741211
 20
36.8370452880859
 30
0.0
 11
-155.499984741211
 21
36.8370452880859
 31
0.0
  0
LINE
  5
   1C9
  8
0
  6
CONTINUOUS
 62
     7
 10
-158.699984741211
 20
36.8370452880859
 30
0.0
 11
-158.699984741211
 21
44.637045288086
 31
0.0
  0
LINE
  5
   1CA
  8
0
  6
CONTINUOUS
 62
     7
 10
-161.899984741211
 20
38.7370452880859
 30
0.0
 11
-161.899984741211
 21
42.7370452880859
 31
0.0
  0
CIRCLE
  5
   1CB
  8
0
  6
CONTINUOUS
 62
     7
 10
-158.294016791665
 20
175.806408428297
 30
0.0
 40
0.2
  0
LINE
  5
   1CC
  8
0
  6
CONTINUOUS
 62
   253
 10
-174.799957275391
 20
-10.7629699707031
 30
0.0
 11
-173.799957275391
 21
-10.7629699707031
 31
0.0
  0
LINE
  5
   1CD
  8
0
  6
CONTINUOUS
 62
   212
 10
-200.499954223633
 20
-4.76296997070311
 30
0.0
 11
-200.499954223633
 21
3.23703002929689
 31
0.0
  0
LINE
  5
   1CE
  8
0
  6
CONTINUOUS
 62
   212
 10
-200.499949104217
 20
3.23703166190299
 30
0.0
 11
-198.499949172674
 21
5.23703159344595
 31
0.0
  0
LINE
  5
   1CF
  8
0
  6
CONTINUOUS
 62
   212
 10
-198.499954223633
 20
-6.76296997070311
 30
0.0
 11
-198.499954223633
 21
5.23703002929689
 31
0.0
  0
LINE
  5
   1D0
  8
0
  6
CONTINUOUS
 62
   212
 10
-198.499954223633
 20
5.23703002929688
 30
0.0
 11
-197.799957275391
 21
5.23703002929688
 31
0.0
  0
LINE
  5
   1D1
  8
0
  6
CONTINUOUS
 62
   212
 10
-198.499954223633
 20
-6.76296997070313
 30
0.0
 11
-197.799957275391
 21
-6.76296997070313
 31
0.0
  0
LINE
  5
   1D2
  8
0
  6
CONTINUOUS
 62
   212
 10
-200.499949117274
 20
-4.76297156413625
 30
0.0
 11
-198.499949185732
 21
-6.76297149567915
 31
0.0
  0
LINE
  5
   1D3
  8
0
  6
CONTINUOUS
 62
     3
 10
-197.799957275391
 20
-11.7326250076294
 30
0.0
 11
-197.799957275391
 21
10.2066850662232
 31
0.0
  0
LINE
  5
   1D4
  8
0
  6
CONTINUOUS
 62
     3
 10
-197.799957275391
 20
10.2066850662231
 30
0.0
 11
-191.799957275391
 21
10.2066850662231
 31
0.0
  0
LINE
  5
   1D5
  8
0
  6
CONTINUOUS
 62
     3
 10
-197.799957275391
 20
4.72185754776001
 30
0.0
 11
-191.799957275391
 21
4.72185754776001
 31
0.0
  0
LINE
  5
   1D6
  8
0
  6
CONTINUOUS
 62
     3
 10
-197.799957275391
 20
-6.24779748916626
 30
0.0
 11
-191.799957275391
 21
-6.24779748916626
 31
0.0
  0
LINE
  5
   1D7
  8
0
  6
CONTINUOUS
 62
     3
 10
-197.799957275391
 20
-11.7326250076294
 30
0.0
 11
-191.799957275391
 21
-11.7326250076294
 31
0.0
  0
LINE
  5
   1D8
  8
0
  6
CONTINUOUS
 62
     7
 10
-191.799957275391
 20
-11.7629699707031
 30
0.0
 11
-191.799957275391
 21
10.2370300292969
 31
0.0
  0
LINE
  5
   1D9
  8
0
  6
CONTINUOUS
 62
     7
 10
-189.299957275391
 20
-11.7629699707031
 30
0.0
 11
-189.299957275391
 21
10.2370300292969
 31
0.0
  0
LINE
  5
   1DA
  8
0
  6
CONTINUOUS
 62
     7
 10
-191.799957275391
 20
-11.7629699707031
 30
0.0
 11
-189.299957275391
 21
-11.7629699707031
 31
0.0
  0
LINE
  5
   1DB
  8
0
  6
CONTINUOUS
 62
     7
 10
-191.799957275391
 20
10.2370300292969
 30
0.0
 11
-189.299957275391
 21
10.2370300292969
 31
0.0
  0
LINE
  5
   1DC
  8
0
  6
CONTINUOUS
 62
   212
 10
-189.299957275391
 20
5.23703002929688
 30
0.0
 11
-183.299957275391
 21
5.23703002929688
 31
0.0
  0
LINE
  5
   1DD
  8
0
  6
CONTINUOUS
 62
     3
 10
-189.299957275391
 20
4.23703002929688
 30
0.0
 11
-183.299957275391
 21
4.23703002929688
 31
0.0
  0
LINE
  5
   1DE
  8
0
  6
CONTINUOUS
 62
     3
 10
-189.299957275391
 20
-5.76296997070313
 30
0.0
 11
-183.299957275391
 21
-5.76296997070313
 31
0.0
  0
LINE
  5
   1DF
  8
0
  6
CONTINUOUS
 62
   212
 10
-189.299957275391
 20
-6.76296997070313
 30
0.0
 11
-183.299957275391
 21
-6.76296997070313
 31
0.0
  0
LINE
  5
   1E0
  8
0
  6
CONTINUOUS
 62
     7
 10
-183.299957275391
 20
-11.7629699707031
 30
0.0
 11
-183.299957275391
 21
10.2370300292969
 31
0.0
  0
LINE
  5
   1E1
  8
0
  6
CONTINUOUS
 62
     7
 10
-180.799957275391
 20
-11.7629699707031
 30
0.0
 11
-180.799957275391
 21
10.2370300292969
 31
0.0
  0
LINE
  5
   1E2
  8
0
  6
CONTINUOUS
 62
     7
 10
-183.299957275391
 20
10.2370300292969
 30
0.0
 11
-180.799957275391
 21
10.2370300292969
 31
0.0
  0
LINE
  5
   1E3
  8
0
  6
CONTINUOUS
 62
     3
 10
-180.799957275391
 20
10.2066850662231
 30
0.0
 11
-174.799957275391
 21
10.2066850662231
 31
0.0
  0
LINE
  5
   1E4
  8
0
  6
CONTINUOUS
 62
     3
 10
-180.799957275391
 20
4.72185754776001
 30
0.0
 11
-174.799957275391
 21
4.72185754776001
 31
0.0
  0
LINE
  5
   1E5
  8
0
  6
CONTINUOUS
 62
     3
 10
-180.799957275391
 20
-6.24779748916626
 30
0.0
 11
-174.799957275391
 21
-6.24779748916626
 31
0.0
  0
LINE
  5
   1E6
  8
0
  6
CONTINUOUS
 62
     3
 10
-180.799957275391
 20
-11.7326250076294
 30
0.0
 11
-174.799957275391
 21
-11.7326250076294
 31
0.0
  0
LINE
  5
   1E7
  8
0
  6
CONTINUOUS
 62
     7
 10
-183.299957275391
 20
-11.7629699707031
 30
0.0
 11
-180.799957275391
 21
-11.7629699707031
 31
0.0
  0
LINE
  5
   1E8
  8
0
  6
CONTINUOUS
 62
     3
 10
-174.799957275391
 20
-11.7326250076294
 30
0.0
 11
-174.799957275391
 21
10.2066850662232
 31
0.0
  0
LINE
  5
   1E9
  8
0
  6
CONTINUOUS
 62
   212
 10
-174.799957275391
 20
-6.76296997070313
 30
0.0
 11
-173.799957275391
 21
-6.76296997070313
 31
0.0
  0
LINE
  5
   1EA
  8
0
  6
CONTINUOUS
 62
   212
 10
-174.799957275391
 20
5.23703002929688
 30
0.0
 11
-173.799957275391
 21
5.23703002929688
 31
0.0
  0
LINE
  5
   1EB
  8
0
  6
CONTINUOUS
 62
     3
 10
-173.799957275391
 20
-11.7326250076294
 30
0.0
 11
-173.799957275391
 21
10.2066850662232
 31
0.0
  0
LINE
  5
   1EC
  8
0
  6
CONTINUOUS
 62
     3
 10
-173.799957275391
 20
10.2066850662231
 30
0.0
 11
-167.799957275391
 21
10.2066850662231
 31
0.0
  0
LINE
  5
   1ED
  8
0
  6
CONTINUOUS
 62
     3
 10
-173.799957275391
 20
4.72185754776001
 30
0.0
 11
-167.799957275391
 21
4.72185754776001
 31
0.0
  0
LINE
  5
   1EE
  8
0
  6
CONTINUOUS
 62
     3
 10
-173.799957275391
 20
-6.24779748916626
 30
0.0
 11
-167.799957275391
 21
-6.24779748916626
 31
0.0
  0
LINE
  5
   1EF
  8
0
  6
CONTINUOUS
 62
     3
 10
-173.799957275391
 20
-11.7326250076294
 30
0.0
 11
-167.799957275391
 21
-11.7326250076294
 31
0.0
  0
LINE
  5
   1F0
  8
0
  6
CONTINUOUS
 62
     3
 10
-167.799957275391
 20
-11.7326250076294
 30
0.0
 11
-167.799957275391
 21
-10.3964052200317
 31
0.0
  0
LINE
  5
   1F1
  8
0
  6
CONTINUOUS
 62
     7
 10
-167.799957275391
 20
-10.3964042663574
 30
0.0
 11
-167.799957275391
 21
10.2066850662232
 31
0.0
  0
LINE
  5
   1F2
  8
0
  6
CONTINUOUS
 62
     7
 10
-167.799957275391
 20
9.23703002929688
 30
0.0
 11
-166.999954223633
 21
9.23703002929688
 31
0.0
  0
LINE
  5
   1F3
  8
0
  6
CONTINUOUS
 62
     7
 10
-167.799957275391
 20
-10.7629699707031
 30
0.0
 11
-166.999954223633
 21
-10.7629699707031
 31
0.0
  0
LINE
  5
   1F4
  8
0
  6
CONTINUOUS
 62
   253
 10
-174.799957275391
 20
9.23703002929688
 30
0.0
 11
-173.799957275391
 21
9.23703002929688
 31
0.0
  0
LINE
  5
   1F5
  8
0
  6
CONTINUOUS
 62
   253
 10
-189.299957275391
 20
9.23703002929688
 30
0.0
 11
-183.299957275391
 21
9.23703002929688
 31
0.0
  0
LINE
  5
   1F6
  8
0
  6
CONTINUOUS
 62
   253
 10
-189.299957275391
 20
-10.7629699707031
 30
0.0
 11
-183.299957275391
 21
-10.7629699707031
 31
0.0
  0
POINT
  5
   1F7
  8
0
  6
CONTINUOUS
 62
     7
 10
-152.499984741211
 20
109.987079467738
 30
0.0
  0
ENDBLK
  5
   1F8
  8
0
  6
CONTINUOUS
 62
     7
  0
BLOCK
  5
   1F9
  8
0
  6
CONTINUOUS
 62
     7
  2
*UDIM83
 70
    65
 10
0.0
 20
0.0
 30
0.0
  3
*UDIM83
  0
TEXT
  5
   1FA
  8
0
  6
CONTINUOUS
 62
     7
 10
160.495051797967
 20
81.9671461311794
 30
0.0
 40
2.99999997871263
  1
218
 50
89.9999999480344
 41
0.933333333333333
 72
     1
 11
158.995051812143
 21
85.8671461048644
 31
0.0
 73
     2
  0
LINE
  5
   1FB
  8
0
  6
CONTINUOUS
 62
     7
 10
172.45656039443
 20
47.9921463058172
 30
0.0
 11
159.495051801499
 21
47.9921463058172
 31
0.0
  0
LINE
  5
   1FC
  8
0
  6
CONTINUOUS
 62
     7
 10
172.45656039443
 20
124.292145006436
 30
0.0
 11
159.495051801499
 21
124.292145006436
 31
0.0
  0
LINE
  5
   1FD
  8
0
  6
CONTINUOUS
 62
     7
 10
161.495051801499
 20
47.9921463058172
 30
0.0
 11
161.495051801499
 21
124.292145006436
 31
0.0
  0
LINE
  5
   1FE
  8
0
  6
CONTINUOUS
 62
     7
 10
160.974107371548
 20
50.9465695830242
 30
0.0
 11
161.495051801499
 21
47.9921463058172
 31
0.0
  0
LINE
  5
   1FF
  8
0
  6
CONTINUOUS
 62
     7
 10
161.495051801499
 20
47.9921463058172
 30
0.0
 11
162.015996231451
 21
50.9465695830242
 31
0.0
  0
LINE
  5
   200
  8
0
  6
CONTINUOUS
 62
     7
 10
162.015996231451
 20
121.337721729229
 30
0.0
 11
161.495051801499
 21
124.292145006436
 31
0.0
  0
LINE
  5
   201
  8
0
  6
CONTINUOUS
 62
     7
 10
161.495051801499
 20
124.292145006436
 30
0.0
 11
160.974107371548
 21
121.337721729229
 31
0.0
  0
ENDBLK
  5
   202
  8
0
  6
CONTINUOUS
 62
     7
  0
BLOCK
  5
   203
  8
0
  6
CONTINUOUS
 62
     7
  2
*UDIM84
 70
    65
 10
0.0
 20
0.0
 30
0.0
  3
*UDIM84
  0
TEXT
  5
   204
  8
0
  6
CONTINUOUS
 62
     7
 10
168.909930496073
 20
58.998404277012
 30
0.0
 40
2.99999997871263
  1
110,75
 50
89.9999999480344
 41
0.933333333333333
 72
     1
 11
167.409930514053
 21
67.0984042208947
 31
0.0
 73
     2
  0
LINE
  5
   205
  8
0
  6
CONTINUOUS
 62
     7
 10
172.45656039443
 20
47.9921463058172
 30
0.0
 11
167.90993050341
 21
47.9921463058172
 31
0.0
  0
LINE
  5
   206
  8
0
  6
CONTINUOUS
 62
     7
 10
169.90993050341
 20
47.9921463058172
 30
0.0
 11
169.90993050341
 21
86.7546629491499
 31
0.0
  0
LINE
  5
   207
  8
0
  6
CONTINUOUS
 62
     7
 10
169.388986073458
 20
50.9465695830242
 30
0.0
 11
169.90993050341
 21
47.9921463058172
 31
0.0
  0
LINE
  5
   208
  8
0
  6
CONTINUOUS
 62
     7
 10
169.90993050341
 20
47.9921463058172
 30
0.0
 11
170.430874933361
 21
50.9465695830242
 31
0.0
  0
LINE
  5
   209
  8
0
  6
CONTINUOUS
 62
     7
 10
170.430874933361
 20
83.8002396719429
 30
0.0
 11
169.90993050341
 21
86.7546629491499
 31
0.0
  0
LINE
  5
   20A
  8
0
  6
CONTINUOUS
 62
     7
 10
169.90993050341
 20
86.7546629491499
 30
0.0
 11
169.388986073458
 21
83.8002396719429
 31
0.0
  0
ENDBLK
  5
   20B
  8
0
  6
CONTINUOUS
 62
     7
  0
BLOCK
  5
   20C
  8
0
  6
CONTINUOUS
 62
     7
  2
*UDIM85
 70
    65
 10
0.0
 20
0.0
 30
0.0
  3
*UDIM85
  0
TEXT
  5
   20D
  8
0
  6
CONTINUOUS
 62
     7
 10
201.738769880973
 20
171.125118471324
 30
0.0
 40
2.99999997871263
  1
31
 50
359.999999948034
 41
0.933333333333333
 72
     1
 11
204.238769864586
 21
172.625118458425
 31
0.0
 73
     2
  0
LINE
  5
   20E
  8
0
  6
CONTINUOUS
 62
     7
 10
211.0373757869
 20
167.331423237107
 30
0.0
 11
211.0373757869
 21
172.125118469069
 31
0.0
  0
LINE
  5
   20F
  8
0
  6
CONTINUOUS
 62
     7
 10
200.257369561791
 20
129.142144940871
 30
0.0
 11
200.257369561791
 21
172.125118469069
 31
0.0
  0
LINE
  5
   210
  8
0
  6
CONTINUOUS
 62
     7
 10
211.0373757869
 20
170.125118469069
 30
0.0
 11
200.257369561791
 21
170.125118469069
 31
0.0
  0
LINE
  5
   211
  8
0
  6
CONTINUOUS
 62
     7
 10
213.991799064107
 20
170.646062899021
 30
0.0
 11
211.0373757869
 21
170.125118469069
 31
0.0
  0
LINE
  5
   212
  8
0
  6
CONTINUOUS
 62
     7
 10
211.0373757869
 20
170.125118469069
 30
0.0
 11
213.991799064107
 21
169.604174039117
 31
0.0
  0
LINE
  5
   213
  8
0
  6
CONTINUOUS
 62
     7
 10
197.302946284584
 20
169.604174039117
 30
0.0
 11
200.257369561791
 21
170.125118469069
 31
0.0
  0
LINE
  5
   214
  8
0
  6
CONTINUOUS
 62
     7
 10
200.257369561791
 20
170.125118469069
 30
0.0
 11
197.302946284584
 21
170.646062899021
 31
0.0
  0
ENDBLK
  5
   215
  8
0
  6
CONTINUOUS
 62
     7
  0
BLOCK
  5
   216
  8
0
  6
CONTINUOUS
 62
     7
  2
*UDIM86
 70
    65
 10
0.0
 20
0.0
 30
0.0
  3
*UDIM86
  0
TEXT
  5
   217
  8
0
  6
CONTINUOUS
 62
     7
 10
283.924582319266
 20
82.5796701625077
 30
0.0
 40
2.99999997871263
  1
105
 50
89.9999999480344
 41
0.933333333333333
 72
     1
 11
282.424582333442
 21
86.4796701361927
 31
0.0
 73
     2
  0
LINE
  5
   218
  8
0
  6
CONTINUOUS
 62
     7
 10
266.812371516227
 20
68.3796739432264
 30
0.0
 11
286.924582322798
 21
68.3796739432264
 31
0.0
  0
LINE
  5
   219
  8
0
  6
CONTINUOUS
 62
     7
 10
266.812371516227
 20
105.129662636226
 30
0.0
 11
286.924582322798
 21
105.129662636226
 31
0.0
  0
LINE
  5
   21A
  8
0
  6
CONTINUOUS
 62
     7
 10
284.924582322798
 20
68.3796739432264
 30
0.0
 11
284.924582322798
 21
105.129662636226
 31
0.0
  0
LINE
  5
   21B
  8
0
  6
CONTINUOUS
 62
     7
 10
284.403637892846
 20
71.3340972204334
 30
0.0
 11
284.924582322798
 21
68.3796739432264
 31
0.0
  0
LINE
  5
   21C
  8
0
  6
CONTINUOUS
 62
     7
 10
284.924582322798
 20
68.3796739432264
 30
0.0
 11
285.44552675275
 21
71.3340972204334
 31
0.0
  0
LINE
  5
   21D
  8
0
  6
CONTINUOUS
 62
     7
 10
285.44552675275
 20
102.175239359019
 30
0.0
 11
284.924582322798
 21
105.129662636226
 31
0.0
  0
LINE
  5
   21E
  8
0
  6
CONTINUOUS
 62
     7
 10
284.924582322798
 20
105.129662636226
 30
0.0
 11
284.403637892846
 21
102.175239359019
 31
0.0
  0
ENDBLK
  5
   21F
  8
0
  6
CONTINUOUS
 62
     7
  0
BLOCK
  5
   220
  8
0
  6
CONTINUOUS
 62
     7
  2
*UDIM87
 70
    65
 10
0.0
 20
0.0
 30
0.0
  3
*UDIM87
  0
TEXT
  5
   221
  8
0
  6
CONTINUOUS
 62
     7
 10
236.357583387707
 20
12.9627375168681
 30
0.0
 40
2.99999997871263
  1
184,5
 50
359.999999948034
 41
0.933333333333333
 72
     1
 11
243.057583341518
 21
14.4627375001813
 31
0.0
 73
     2
  0
LINE
  5
   222
  8
0
  6
CONTINUOUS
 62
     7
 10
275.627798259864
 20
82.1671736913968
 30
0.0
 11
275.627798259864
 21
9.96273751082504
 31
0.0
  0
LINE
  5
   223
  8
0
  6
CONTINUOUS
 62
     7
 10
211.0373757869
 20
38.7612741708121
 30
0.0
 11
211.0373757869
 21
9.96273751082504
 31
0.0
  0
LINE
  5
   224
  8
0
  6
CONTINUOUS
 62
     7
 10
275.627798259864
 20
11.962737510825
 30
0.0
 11
211.0373757869
 21
11.962737510825
 31
0.0
  0
LINE
  5
   225
  8
0
  6
CONTINUOUS
 62
     7
 10
272.673374982657
 20
11.4417930808734
 30
0.0
 11
275.627798259864
 21
11.962737510825
 31
0.0
  0
LINE
  5
   226
  8
0
  6
CONTINUOUS
 62
     7
 10
275.627798259864
 20
11.962737510825
 30
0.0
 11
272.673374982657
 21
12.4836819407767
 31
0.0
  0
LINE
  5
   227
  8
0
  6
CONTINUOUS
 62
     7
 10
213.991799064107
 20
12.4836819407767
 30
0.0
 11
211.0373757869
 21
11.962737510825
 31
0.0
  0
LINE
  5
   228
  8
0
  6
CONTINUOUS
 62
     7
 10
211.0373757869
 20
11.962737510825
 30
0.0
 11
213.991799064107
 21
11.4417930808734
 31
0.0
  0
ENDBLK
  5
   229
  8
0
  6
CONTINUOUS
 62
     7
  0
BLOCK
  5
   22A
  8
0
  6
CONTINUOUS
 62
     7
  2
*UDIM88
 70
    65
 10
0.0
 20
0.0
 30
0.0
  3
*UDIM88
  0
TEXT
  5
   22B
  8
0
  6
CONTINUOUS
 62
     7
 10
189.362373889694
 20
12.9627375143426
 30
0.0
 40
2.99999997871263
  1
100
 50
359.999999948034
 41
0.933333333333333
 72
     1
 11
193.262373863373
 21
14.4627375001813
 31
0.0
 73
     2
  0
LINE
  5
   22C
  8
0
  6
CONTINUOUS
 62
     7
 10
176.037371042371
 20
45.592146329659
 30
0.0
 11
176.037371042371
 21
9.96273751082504
 31
0.0
  0
LINE
  5
   22D
  8
0
  6
CONTINUOUS
 62
     7
 10
211.0373757869
 20
11.962737510825
 30
0.0
 11
176.037371042371
 21
11.962737510825
 31
0.0
  0
LINE
  5
   22E
  8
0
  6
CONTINUOUS
 62
     7
 10
208.082952509693
 20
11.4417930808734
 30
0.0
 11
211.0373757869
 21
11.962737510825
 31
0.0
  0
LINE
  5
   22F
  8
0
  6
CONTINUOUS
 62
     7
 10
211.0373757869
 20
11.962737510825
 30
0.0
 11
208.082952509693
 21
12.4836819407767
 31
0.0
  0
LINE
  5
   230
  8
0
  6
CONTINUOUS
 62
     7
 10
178.991794319577
 20
12.4836819407767
 30
0.0
 11
176.037371042371
 21
11.962737510825
 31
0.0
  0
LINE
  5
   231
  8
0
  6
CONTINUOUS
 62
     7
 10
176.037371042371
 20
11.962737510825
 30
0.0
 11
178.991794319577
 21
11.4417930808734
 31
0.0
  0
ENDBLK
  5
   232
  8
0
  6
CONTINUOUS
 62
     7
  0
BLOCK
  5
   233
  8
0
  6
CONTINUOUS
 62
     7
  2
*UDIM89
 70
    65
 10
0.0
 20
0.0
 30
0.0
  3
*UDIM89
  0
TEXT
  5
   234
  8
0
  6
CONTINUOUS
 62
     7
 10
269.51237148862
 20
23.0312588399851
 30
0.0
 40
2.99999997871263
  1
2
 50
359.999999948034
 41
0.933333333333333
 72
     1
 11
270.612371482168
 21
24.5312588283492
 31
0.0
 73
     2
  0
LINE
  5
   235
  8
0
  6
CONTINUOUS
 62
     7
 10
266.512371504307
 20
38.5360352253451
 30
0.0
 11
266.512371504307
 21
20.0312588389929
 31
0.0
  0
LINE
  5
   236
  8
0
  6
CONTINUOUS
 62
     7
 10
265.812371516227
 20
38.1063800602483
 30
0.0
 11
265.812371516227
 21
20.0312588389929
 31
0.0
  0
LINE
  5
   237
  8
0
  6
CONTINUOUS
 62
     7
 10
271.712371474362
 20
22.0312588389929
 30
0.0
 11
265.812371516227
 21
22.0312588389929
 31
0.0
  0
LINE
  5
   238
  8
0
  6
CONTINUOUS
 62
     7
 10
269.466794781513
 20
22.5522032689446
 30
0.0
 11
266.512371504307
 21
22.0312588389929
 31
0.0
  0
LINE
  5
   239
  8
0
  6
CONTINUOUS
 62
     7
 10
266.512371504307
 20
22.0312588389929
 30
0.0
 11
269.466794781513
 21
21.5103144090413
 31
0.0
  0
LINE
  5
   23A
  8
0
  6
CONTINUOUS
 62
     7
 10
262.85794823902
 20
21.5103144090413
 30
0.0
 11
265.812371516227
 21
22.0312588389929
 31
0.0
  0
LINE
  5
   23B
  8
0
  6
CONTINUOUS
 62
     7
 10
265.812371516227
 20
22.0312588389929
 30
0.0
 11
262.85794823902
 21
22.5522032689446
 31
0.0
  0
ENDBLK
  5
   23C
  8
0
  6
CONTINUOUS
 62
     7
  0
BLOCK
  5
   23D
  8
0
  6
CONTINUOUS
 62
     7
  2
*UDIM90
 70
    65
 10
0.0
 20
0.0
 30
0.0
  3
*UDIM90
  0
TEXT
  5
   23E
  8
0
  6
CONTINUOUS
 62
     7
 10
231.449874334245
 20
23.031258845036
 30
0.0
 40
2.99999997871263
  1
156,5
 50
359.999999948034
 41
0.933333333333333
 72
     1
 11
238.149874288056
 21
24.5312588283492
 31
0.0
 73
     2
  0
LINE
  5
   23F
  8
0
  6
CONTINUOUS
 62
     7
 10
211.0373757869
 20
38.7612741708121
 30
0.0
 11
211.0373757869
 21
20.0312588389929
 31
0.0
  0
LINE
  5
   240
  8
0
  6
CONTINUOUS
 62
     7
 10
265.812371516227
 20
22.0312588389929
 30
0.0
 11
211.0373757869
 21
22.0312588389929
 31
0.0
  0
LINE
  5
   241
  8
0
  6
CONTINUOUS
 62
     7
 10
262.85794823902
 20
21.5103144090413
 30
0.0
 11
265.812371516227
 21
22.0312588389929
 31
0.0
  0
LINE
  5
   242
  8
0
  6
CONTINUOUS
 62
     7
 10
265.812371516227
 20
22.0312588389929
 30
0.0
 11
262.85794823902
 21
22.5522032689446
 31
0.0
  0
LINE
  5
   243
  8
0
  6
CONTINUOUS
 62
     7
 10
213.991799064107
 20
22.5522032689446
 30
0.0
 11
211.0373757869
 21
22.0312588389929
 31
0.0
  0
LINE
  5
   244
  8
0
  6
CONTINUOUS
 62
     7
 10
211.0373757869
 20
22.0312588389929
 30
0.0
 11
213.991799064107
 21
21.5103144090413
 31
0.0
  0
ENDBLK
  5
   245
  8
0
  6
CONTINUOUS
 62
     7
  0
BLOCK
  5
   246
  8
0
  6
CONTINUOUS
 62
     7
  2
*UDIM91
 70
    65
 10
0.0
 20
0.0
 30
0.0
  3
*UDIM91
  0
TEXT
  5
   247
  8
0
  6
CONTINUOUS
 62
     7
 10
199.862374475806
 20
23.0312588412478
 30
0.0
 40
2.99999997871263
  1
48
 50
359.999999948034
 41
0.933333333333333
 72
     1
 11
202.36237445942
 21
24.5312588283492
 31
0.0
 73
     2
  0
LINE
  5
   248
  8
0
  6
CONTINUOUS
 62
     7
 10
194.237370732426
 20
45.592146329659
 30
0.0
 11
194.237370732426
 21
20.0312588389929
 31
0.0
  0
LINE
  5
   249
  8
0
  6
CONTINUOUS
 62
     7
 10
211.0373757869
 20
22.0312588389929
 30
0.0
 11
194.237370732426
 21
22.0312588389929
 31
0.0
  0
LINE
  5
   24A
  8
0
  6
CONTINUOUS
 62
     7
 10
208.082952509693
 20
21.5103144090413
 30
0.0
 11
211.0373757869
 21
22.0312588389929
 31
0.0
  0
LINE
  5
   24B
  8
0
  6
CONTINUOUS
 62
     7
 10
211.0373757869
 20
22.0312588389929
 30
0.0
 11
208.082952509693
 21
22.5522032689446
 31
0.0
  0
LINE
  5
   24C
  8
0
  6
CONTINUOUS
 62
     7
 10
197.191794009633
 20
22.5522032689446
 30
0.0
 11
194.237370732426
 21
22.0312588389929
 31
0.0
  0
LINE
  5
   24D
  8
0
  6
CONTINUOUS
 62
     7
 10
194.237370732426
 20
22.0312588389929
 30
0.0
 11
197.191794009633
 21
21.5103144090413
 31
0.0
  0
ENDBLK
  5
   24E
  8
0
  6
CONTINUOUS
 62
     7
  0
BLOCK
  5
   24F
  8
0
  6
CONTINUOUS
 62
     7
  2
*UDIM92
 70
    65
 10
0.0
 20
0.0
 30
0.0
  3
*UDIM92
  0
TEXT
  5
   250
  8
0
  6
CONTINUOUS
 62
     7
 10
233.637373135695
 20
30.9844073581922
 30
0.0
 40
2.99999997871263
  1
153
 50
359.999999948034
 41
0.933333333333333
 72
     1
 11
237.537373109374
 21
32.484407344031
 31
0.0
 73
     2
  0
LINE
  5
   251
  8
0
  6
CONTINUOUS
 62
     7
 10
264.587369534373
 20
67.3796739432264
 30
0.0
 11
264.587369534373
 21
27.9844073546747
 31
0.0
  0
LINE
  5
   252
  8
0
  6
CONTINUOUS
 62
     7
 10
211.0373757869
 20
38.7612741708121
 30
0.0
 11
211.0373757869
 21
27.9844073546747
 31
0.0
  0
LINE
  5
   253
  8
0
  6
CONTINUOUS
 62
     7
 10
264.587369534373
 20
29.9844073546747
 30
0.0
 11
211.0373757869
 21
29.9844073546747
 31
0.0
  0
LINE
  5
   254
  8
0
  6
CONTINUOUS
 62
     7
 10
261.632946257166
 20
29.463462924723
 30
0.0
 11
264.587369534373
 21
29.9844073546747
 31
0.0
  0
LINE
  5
   255
  8
0
  6
CONTINUOUS
 62
     7
 10
264.587369534373
 20
29.9844073546747
 30
0.0
 11
261.632946257166
 21
30.5053517846263
 31
0.0
  0
LINE
  5
   256
  8
0
  6
CONTINUOUS
 62
     7
 10
213.991799064107
 20
30.5053517846263
 30
0.0
 11
211.0373757869
 21
29.9844073546747
 31
0.0
  0
LINE
  5
   257
  8
0
  6
CONTINUOUS
 62
     7
 10
211.0373757869
 20
29.9844073546747
 30
0.0
 11
213.991799064107
 21
29.463462924723
 31
0.0
  0
ENDBLK
  5
   258
  8
0
  6
CONTINUOUS
 62
     7
  0
BLOCK
  5
   259
  8
0
  6
CONTINUOUS
 62
     7
  2
*UDIM93
 70
    65
 10
0.0
 20
0.0
 30
0.0
  3
*UDIM93
  0
TEXT
  5
   25A
  8
0
  6
CONTINUOUS
 62
     7
 10
204.237375270535
 20
30.9844073556668
 30
0.0
 40
2.99999997871263
  1
3
 50
359.999999948034
 41
0.933333333333333
 72
     1
 11
205.337375264082
 21
32.484407344031
 31
0.0
 73
     2
  0
TEXT
  5
   25B
  8
0
  6
CONTINUOUS
 62
     7
 10
201.487375274225
 20
30.9844073556668
 30
0.0
 40
2.99999997871263
  1
_
 50
359.999999948034
 41
0.933333333333333
 72
     1
 11
202.587375267772
 21
32.484407344031
 31
0.0
 73
     2
  0
LINE
  5
   25C
  8
0
  6
CONTINUOUS
 62
     7
 10
209.987375804782
 20
38.7936815776676
 30
0.0
 11
209.987375804782
 21
27.9844073546747
 31
0.0
  0
LINE
  5
   25D
  8
0
  6
CONTINUOUS
 62
     7
 10
211.0373757869
 20
29.9844073546747
 30
0.0
 11
201.487375275577
 21
29.9844073546747
 31
0.0
  0
LINE
  5
   25E
  8
0
  6
CONTINUOUS
 62
     7
 10
213.991799064107
 20
30.5053517846263
 30
0.0
 11
211.0373757869
 21
29.9844073546747
 31
0.0
  0
LINE
  5
   25F
  8
0
  6
CONTINUOUS
 62
     7
 10
211.0373757869
 20
29.9844073546747
 30
0.0
 11
213.991799064107
 21
29.463462924723
 31
0.0
  0
LINE
  5
   260
  8
0
  6
CONTINUOUS
 62
     7
 10
207.032952527575
 20
29.463462924723
 30
0.0
 11
209.987375804782
 21
29.9844073546747
 31
0.0
  0
LINE
  5
   261
  8
0
  6
CONTINUOUS
 62
     7
 10
209.987375804782
 20
29.9844073546747
 30
0.0
 11
207.032952527575
 21
30.5053517846263
 31
0.0
  0
ENDBLK
  5
   262
  8
0
  6
CONTINUOUS
 62
     7
  0
BLOCK
  5
   263
  8
0
  6
CONTINUOUS
 62
     7
  2
*UDIM94
 70
    65
 10
0.0
 20
0.0
 30
0.0
  3
*UDIM94
  0
TEXT
  5
   264
  8
0
  6
CONTINUOUS
 62
     7
 10
233.287375811935
 20
179.047692190205
 30
0.0
 40
2.99999997871263
  1
151
 50
359.999999948034
 41
0.933333333333333
 72
     1
 11
237.187375785614
 21
180.547692176044
 31
0.0
 73
     2
  0
LINE
  5
   265
  8
0
  6
CONTINUOUS
 62
     7
 10
263.887374886852
 20
161.779654405738
 30
0.0
 11
263.887374886852
 21
180.047692186688
 31
0.0
  0
LINE
  5
   266
  8
0
  6
CONTINUOUS
 62
     7
 10
211.0373757869
 20
167.331423237107
 30
0.0
 11
211.0373757869
 21
180.047692186688
 31
0.0
  0
LINE
  5
   267
  8
0
  6
CONTINUOUS
 62
     7
 10
263.887374886852
 20
178.047692186688
 30
0.0
 11
211.0373757869
 21
178.047692186688
 31
0.0
  0
LINE
  5
   268
  8
0
  6
CONTINUOUS
 62
     7
 10
260.932951609645
 20
177.526747756736
 30
0.0
 11
263.887374886852
 21
178.047692186688
 31
0.0
  0
LINE
  5
   269
  8
0
  6
CONTINUOUS
 62
     7
 10
263.887374886852
 20
178.047692186688
 30
0.0
 11
260.932951609645
 21
178.568636616639
 31
0.0
  0
LINE
  5
   26A
  8
0
  6
CONTINUOUS
 62
     7
 10
213.991799064107
 20
178.568636616639
 30
0.0
 11
211.0373757869
 21
178.047692186688
 31
0.0
  0
LINE
  5
   26B
  8
0
  6
CONTINUOUS
 62
     7
 10
211.0373757869
 20
178.047692186688
 30
0.0
 11
213.991799064107
 21
177.526747756736
 31
0.0
  0
ENDBLK
  5
   26C
  8
0
  6
CONTINUOUS
 62
     7
  0
BLOCK
  5
   26D
  8
0
  6
CONTINUOUS
 62
     7
  2
*UDIM95
 70
    65
 10
0.0
 20
0.0
 30
0.0
  3
*UDIM95
  0
TEXT
  5
   26E
  8
0
  6
CONTINUOUS
 62
     7
 10
193.772376715749
 20
179.047692188942
 30
0.0
 40
2.99999997871263
  1
83
 50
359.999999948034
 41
0.933333333333333
 72
     1
 11
196.272376699362
 21
180.547692176044
 31
0.0
 73
     2
  0
LINE
  5
   26F
  8
0
  6
CONTINUOUS
 62
     7
 10
182.057369871735
 20
129.142144940871
 30
0.0
 11
182.057369871735
 21
180.047692186688
 31
0.0
  0
LINE
  5
   270
  8
0
  6
CONTINUOUS
 62
     7
 10
211.0373757869
 20
178.047692186688
 30
0.0
 11
182.057369871735
 21
178.047692186688
 31
0.0
  0
LINE
  5
   271
  8
0
  6
CONTINUOUS
 62
     7
 10
208.082952509693
 20
177.526747756736
 30
0.0
 11
211.0373757869
 21
178.047692186688
 31
0.0
  0
LINE
  5
   272
  8
0
  6
CONTINUOUS
 62
     7
 10
211.0373757869
 20
178.047692186688
 30
0.0
 11
208.082952509693
 21
178.568636616639
 31
0.0
  0
LINE
  5
   273
  8
0
  6
CONTINUOUS
 62
     7
 10
185.011793148942
 20
178.568636616639
 30
0.0
 11
182.057369871735
 21
178.047692186688
 31
0.0
  0
LINE
  5
   274
  8
0
  6
CONTINUOUS
 62
     7
 10
182.057369871735
 20
178.047692186688
 30
0.0
 11
185.011793148942
 21
177.526747756736
 31
0.0
  0
ENDBLK
  5
   275
  8
0
  6
CONTINUOUS
 62
     7
  0
BLOCK
  5
   276
  8
0
  6
CONTINUOUS
 62
     7
  2
*UDIM96
 70
    65
 10
0.0
 20
0.0
 30
0.0
  3
*UDIM96
  0
TEXT
  5
   277
  8
0
  6
CONTINUOUS
 62
     7
 10
149.666934156685
 20
-144.984024040797
 30
0.0
 40
3.00000002980232
  1
105
 50
359.999999896069
 41
0.933333333333333
 72
     1
 11
153.566934198141
 21
-143.48402403295
 31
0.0
 73
     2
  0
LINE
  5
   278
  8
0
  6
CONTINUOUS
 62
     7
 10
166.966934204102
 20
-137.735003217298
 30
0.0
 11
166.966934204102
 21
-147.984024047852
 31
0.0
  0
LINE
  5
   279
  8
0
  6
CONTINUOUS
 62
     7
 10
140.716934204102
 20
-137.735003217298
 30
0.0
 11
140.716934204102
 21
-147.984024047852
 31
0.0
  0
LINE
  5
   27A
  8
0
  6
CONTINUOUS
 62
     7
 10
166.966934204102
 20
-145.984024047852
 30
0.0
 11
140.716934204102
 21
-145.984024047852
 31
0.0
  0
LINE
  5
   27B
  8
0
  6
CONTINUOUS
 62
     7
 10
164.012510926895
 20
-146.504968477803
 30
0.0
 11
166.966934204102
 21
-145.984024047852
 31
0.0
  0
LINE
  5
   27C
  8
0
  6
CONTINUOUS
 62
     7
 10
166.966934204102
 20
-145.984024047852
 30
0.0
 11
164.012510926895
 21
-145.4630796179
 31
0.0
  0
LINE
  5
   27D
  8
0
  6
CONTINUOUS
 62
     7
 10
143.671357481309
 20
-145.4630796179
 30
0.0
 11
140.716934204102
 21
-145.984024047852
 31
0.0
  0
LINE
  5
   27E
  8
0
  6
CONTINUOUS
 62
     7
 10
140.716934204102
 20
-145.984024047852
 30
0.0
 11
143.671357481309
 21
-146.504968477803
 31
0.0
  0
ENDBLK
  5
   27F
  8
0
  6
CONTINUOUS
 62
     7
  0
BLOCK
  5
   280
  8
0
  6
CONTINUOUS
 62
     7
  2
*UDIM97
 70
    65
 10
0.0
 20
0.0
 30
0.0
  3
*UDIM97
  0
TEXT
  5
   281
  8
0
  6
CONTINUOUS
 62
     7
 10
160.228913845885
 20
-112.731895442255
 30
0.0
 40
3.00000002980232
  1
35
 50
359.999999896069
 41
0.933333333333333
 72
     1
 11
162.728913873434
 21
-111.231895431876
 31
0.0
 73
     2
  0
LINE
  5
   282
  8
0
  6
CONTINUOUS
 62
     7
 10
166.966934204102
 20
-113.731895446777
 30
0.0
 11
158.216934204102
 21
-113.731895446777
 31
0.0
  0
LINE
  5
   283
  8
0
  6
CONTINUOUS
 62
     7
 10
169.921357481309
 20
-113.210951016826
 30
0.0
 11
166.966934204102
 21
-113.731895446777
 31
0.0
  0
LINE
  5
   284
  8
0
  6
CONTINUOUS
 62
     7
 10
166.966934204102
 20
-113.731895446777
 30
0.0
 11
169.921357481309
 21
-114.252839876729
 31
0.0
  0
LINE
  5
   285
  8
0
  6
CONTINUOUS
 62
     7
 10
155.262510926895
 20
-114.252839876729
 30
0.0
 11
158.216934204102
 21
-113.731895446777
 31
0.0
  0
LINE
  5
   286
  8
0
  6
CONTINUOUS
 62
     7
 10
158.216934204102
 20
-113.731895446777
 30
0.0
 11
155.262510926895
 21
-113.210951016826
 31
0.0
  0
ENDBLK
  5
   287
  8
0
  6
CONTINUOUS
 62
     7
  0
BLOCK
  5
   288
  8
0
  6
CONTINUOUS
 62
     7
  2
*UDIM98
 70
    65
 10
0.0
 20
0.0
 30
0.0
  3
*UDIM98
  0
TEXT
  5
   289
  8
0
  6
CONTINUOUS
 62
     7
 10
149.666934156685
 20
-58.5637588430429
 30
0.0
 40
3.00000002980232
  1
117
 50
359.999999896069
 41
0.933333333333333
 72
     1
 11
153.566934198141
 21
-57.0637588351965
 31
0.0
 73
     2
  0
LINE
  5
   28A
  8
0
  6
CONTINUOUS
 62
     7
 10
168.466934204102
 20
-80.1859742437214
 30
0.0
 11
168.466934204102
 21
-57.5637588500977
 31
0.0
  0
LINE
  5
   28B
  8
0
  6
CONTINUOUS
 62
     7
 10
139.216934204102
 20
-79.8783163030535
 30
0.0
 11
139.216934204102
 21
-57.5637588500977
 31
0.0
  0
LINE
  5
   28C
  8
0
  6
CONTINUOUS
 62
     7
 10
168.466934204102
 20
-59.5637588500977
 30
0.0
 11
139.216934204102
 21
-59.5637588500977
 31
0.0
  0
LINE
  5
   28D
  8
0
  6
CONTINUOUS
 62
     7
 10
165.512510926895
 20
-60.0847032800493
 30
0.0
 11
168.466934204102
 21
-59.5637588500977
 31
0.0
  0
LINE
  5
   28E
  8
0
  6
CONTINUOUS
 62
     7
 10
168.466934204102
 20
-59.5637588500977
 30
0.0
 11
165.512510926895
 21
-59.042814420146
 31
0.0
  0
LINE
  5
   28F
  8
0
  6
CONTINUOUS
 62
     7
 10
142.171357481309
 20
-59.042814420146
 30
0.0
 11
139.216934204102
 21
-59.5637588500977
 31
0.0
  0
LINE
  5
   290
  8
0
  6
CONTINUOUS
 62
     7
 10
139.216934204102
 20
-59.5637588500977
 30
0.0
 11
142.171357481309
 21
-60.0847032800493
 31
0.0
  0
ENDBLK
  5
   291
  8
0
  6
CONTINUOUS
 62
     7
  0
BLOCK
  5
   292
  8
0
  6
CONTINUOUS
 62
     7
  2
*UDIM99
 70
    65
 10
0.0
 20
0.0
 30
0.0
  3
*UDIM99
  0
TEXT
  5
   293
  8
0
  6
CONTINUOUS
 62
     7
 10
160.769390652347
 20
-95.4963135674076
 30
0.0
 40
3.00000002980232
  1
41
 50
359.999999896069
 41
0.933333333333333
 72
     1
 11
163.269390679896
 21
-93.9963135570288
 31
0.0
 73
     2
  0
LINE
  5
   294
  8
0
  6
CONTINUOUS
 62
     7
 10
168.466934204102
 20
-96.4963135719299
 30
0.0
 11
158.216934204102
 21
-96.4963135719299
 31
0.0
  0
LINE
  5
   295
  8
0
  6
CONTINUOUS
 62
     7
 10
171.421357481309
 20
-95.9753691419783
 30
0.0
 11
168.466934204102
 21
-96.4963135719299
 31
0.0
  0
LINE
  5
   296
  8
0
  6
CONTINUOUS
 62
     7
 10
168.466934204102
 20
-96.4963135719299
 30
0.0
 11
171.421357481309
 21
-97.0172580018816
 31
0.0
  0
LINE
  5
   297
  8
0
  6
CONTINUOUS
 62
     7
 10
155.262510926895
 20
-97.0172580018816
 30
0.0
 11
158.216934204102
 21
-96.4963135719299
 31
0.0
  0
LINE
  5
   298
  8
0
  6
CONTINUOUS
 62
     7
 10
158.216934204102
 20
-96.4963135719299
 30
0.0
 11
155.262510926895
 21
-95.9753691419783
 31
0.0
  0
ENDBLK
  5
   299
  8
0
  6
CONTINUOUS
 62
     7
  0
BLOCK
  5
   29A
  8
0
  6
CONTINUOUS
 62
     7
  2
*UDIM100
 70
    65
 10
0.0
 20
0.0
 30
0.0
  3
*UDIM100
  0
TEXT
  5
   29B
  8
0
  6
CONTINUOUS
 62
     7
 10
184.471656784674
 20
-123.987609952419
 30
0.0
 40
3.00000002980232
  1
110,75
 50
449.999999896069
 41
0.933333333333333
 72
     1
 11
182.971656784415
 21
-115.887609869242
 31
0.0
 73
     2
  0
LINE
  5
   29C
  8
0
  6
CONTINUOUS
 62
     7
 10
177.542399914774
 20
-101.768859863281
 30
0.0
 11
187.471656799316
 21
-101.768859863281
 31
0.0
  0
LINE
  5
   29D
  8
0
  6
CONTINUOUS
 62
     7
 10
174.097649454659
 20
-129.456359863281
 30
0.0
 11
187.471656799316
 21
-129.456359863281
 31
0.0
  0
LINE
  5
   29E
  8
0
  6
CONTINUOUS
 62
     7
 10
185.471656799316
 20
-101.768859863281
 30
0.0
 11
185.471656799316
 21
-129.456359863281
 31
0.0
  0
LINE
  5
   29F
  8
0
  6
CONTINUOUS
 62
     7
 10
185.992601229268
 20
-104.723283140488
 30
0.0
 11
185.471656799316
 21
-101.768859863281
 31
0.0
  0
LINE
  5
   2A0
  8
0
  6
CONTINUOUS
 62
     7
 10
185.471656799316
 20
-101.768859863281
 30
0.0
 11
184.950712369365
 21
-104.723283140488
 31
0.0
  0
LINE
  5
   2A1
  8
0
  6
CONTINUOUS
 62
     7
 10
184.950712369365
 20
-126.501936586074
 30
0.0
 11
185.471656799316
 21
-129.456359863281
 31
0.0
  0
LINE
  5
   2A2
  8
0
  6
CONTINUOUS
 62
     7
 10
185.471656799316
 20
-129.456359863281
 30
0.0
 11
185.992601229268
 21
-126.501936586074
 31
0.0
  0
ENDBLK
  5
   2A3
  8
0
  6
CONTINUOUS
 62
     7
  0
BLOCK
  5
   2A4
  8
0
  6
CONTINUOUS
 62
     7
  2
*UDIM101
 70
    65
 10
0.0
 20
0.0
 30
0.0
  3
*UDIM101
  0
TEXT
  5
   2A5
  8
0
  6
CONTINUOUS
 62
     7
 10
125.890710818577
 20
-117.319854430089
 30
0.0
 40
3.00000002980232
  1
69,25
 50
449.999999896069
 41
0.933333333333333
 72
     1
 11
124.390710815787
 21
-110.619854360819
 31
0.0
 73
     2
  0
LINE
  5
   2A6
  8
0
  6
CONTINUOUS
 62
     7
 10
138.4107085663
 20
-119.081359863281
 30
0.0
 11
124.890710830689
 21
-119.081359863281
 31
0.0
  0
LINE
  5
   2A7
  8
0
  6
CONTINUOUS
 62
     7
 10
126.890710830688
 20
-101.768859863281
 30
0.0
 11
126.890710830688
 21
-119.081359863281
 31
0.0
  0
LINE
  5
   2A8
  8
0
  6
CONTINUOUS
 62
     7
 10
126.369766400737
 20
-98.8144365860743
 30
0.0
 11
126.890710830688
 21
-101.768859863281
 31
0.0
  0
LINE
  5
   2A9
  8
0
  6
CONTINUOUS
 62
     7
 10
126.890710830688
 20
-101.768859863281
 30
0.0
 11
127.41165526064
 21
-98.8144365860743
 31
0.0
  0
LINE
  5
   2AA
  8
0
  6
CONTINUOUS
 62
     7
 10
127.41165526064
 20
-122.035783140488
 30
0.0
 11
126.890710830688
 21
-119.081359863281
 31
0.0
  0
LINE
  5
   2AB
  8
0
  6
CONTINUOUS
 62
     7
 10
126.890710830688
 20
-119.081359863281
 30
0.0
 11
126.369766400737
 21
-122.035783140488
 31
0.0
  0
ENDBLK
  5
   2AC
  8
0
  6
CONTINUOUS
 62
     7
  0
BLOCK
  5
   2AD
  8
0
  6
CONTINUOUS
 62
     7
  2
*UDIM102
 70
    65
 10
0.0
 20
0.0
 30
0.0
  3
*UDIM102
  0
TEXT
  5
   2AE
  8
0
  6
CONTINUOUS
 62
     7
 10
180.830777448436
 20
-60.6260039216042
 30
0.0
 40
3.00000002980232
  1
14
 50
403.073198876622
 41
0.933333333333333
 72
     1
 11
181.632583753198
 21
-57.8229507971481
 31
0.0
 73
     2
  0
TEXT
  5
   2AF
  8
0
  6
CONTINUOUS
 62
     7
 10
178.821952450771
 20
-62.5040673695537
 30
0.0
 40
3.00000002980232
  1
R
 50
403.073198876622
 41
0.933333333333334
 72
     1
 11
178.601084211059
 21
-60.6571192681088
 31
0.0
 73
     2
  0
LINE
  5
   2B0
  8
0
  6
CONTINUOUS
 62
     7
 10
185.166118688566
 20
-57.9418249289703
 30
0.0
 11
158.566393400722
 21
-82.8100796323304
 31
0.0
  0
LINE
  5
   2B1
  8
0
  6
CONTINUOUS
 62
     7
 10
167.721237777083
 20
-74.9643084064786
 30
0.0
 11
169.523620535565
 21
-72.566097324875
 31
0.0
  0
LINE
  5
   2B2
  8
0
  6
CONTINUOUS
 62
     7
 10
169.523620535565
 20
-72.566097324875
 30
0.0
 11
167.009698373937
 21
-74.2032275473304
 31
0.0
  0
ENDBLK
  5
   2B3
  8
0
  6
CONTINUOUS
 62
     7
  0
BLOCK
  5
   2B4
  8
0
  6
CONTINUOUS
 62
     7
  2
*UDIM103
 70
    65
 10
0.0
 20
0.0
 30
0.0
  3
*UDIM103
  0
TEXT
  5
   2B5
  8
0
  6
CONTINUOUS
 62
     7
 10
191.387565605743
 20
-106.381359438171
 30
0.0
 40
3.00000002980232
  1
218
 50
449.999999896069
 41
0.933333333333333
 72
     1
 11
189.887565597892
 21
-102.481359396717
 31
0.0
 73
     2
  0
LINE
  5
   2B6
  8
0
  6
CONTINUOUS
 62
     7
 10
178.472649454659
 20
-74.9563601771977
 30
0.0
 11
194.387565612793
 21
-74.9563651731521
 31
0.0
  0
LINE
  5
   2B7
  8
0
  6
CONTINUOUS
 62
     7
 10
174.097649454659
 20
-129.456360177198
 30
0.0
 11
194.387565612793
 21
-129.456366546537
 31
0.0
  0
LINE
  5
   2B8
  8
0
  6
CONTINUOUS
 62
     7
 10
192.387565612793
 20
-74.9563645453191
 30
0.0
 11
192.387565612793
 21
-129.456365918704
 31
0.0
  0
LINE
  5
   2B9
  8
0
  6
CONTINUOUS
 62
     7
 10
192.908510042745
 20
-77.9107878225261
 30
0.0
 11
192.387565612793
 21
-74.9563645453191
 31
0.0
  0
LINE
  5
   2BA
  8
0
  6
CONTINUOUS
 62
     7
 10
192.387565612793
 20
-74.9563645453191
 30
0.0
 11
191.866621182841
 21
-77.9107878225261
 31
0.0
  0
LINE
  5
   2BB
  8
0
  6
CONTINUOUS
 62
     7
 10
191.866621182841
 20
-126.501942641497
 30
0.0
 11
192.387565612793
 21
-129.456365918704
 31
0.0
  0
LINE
  5
   2BC
  8
0
  6
CONTINUOUS
 62
     7
 10
192.387565612793
 20
-129.456365918704
 30
0.0
 11
192.908510042745
 21
-126.501942641497
 31
0.0
  0
ENDBLK
  5
   2BD
  8
0
  6
CONTINUOUS
 62
     7
  0
BLOCK
  5
   2BE
  8
0
  6
CONTINUOUS
 62
     7
  2
*UDIM104
 70
    65
 10
0.0
 20
0.0
 30
0.0
  3
*UDIM104
  0
TEXT
  5
   2BF
  8
0
  6
CONTINUOUS
 62
     7
 10
115.474361412628
 20
-106.381359442382
 30
0.0
 40
3.00000002980232
  1
135
 50
449.999999896069
 41
0.933333333333333
 72
     1
 11
113.974361404777
 21
-102.481359400928
 31
0.0
 73
     2
  0
LINE
  5
   2C0
  8
0
  6
CONTINUOUS
 62
     7
 10
137.795392684964
 20
-85.3313590185019
 30
0.0
 11
114.474361419678
 21
-85.3313393173757
 31
0.0
  0
LINE
  5
   2C1
  8
0
  6
CONTINUOUS
 62
     7
 10
138.4107085663
 20
-119.081359041165
 30
0.0
 11
114.474361419678
 21
-119.081339362702
 31
0.0
  0
LINE
  5
   2C2
  8
0
  6
CONTINUOUS
 62
     7
 10
116.474361419678
 20
-85.3313410069345
 30
0.0
 11
116.474361419678
 21
-119.081341006934
 31
0.0
  0
LINE
  5
   2C3
  8
0
  6
CONTINUOUS
 62
     7
 10
116.995305849629
 20
-88.2857642841414
 30
0.0
 11
116.474361419678
 21
-85.3313410069345
 31
0.0
  0
LINE
  5
   2C4
  8
0
  6
CONTINUOUS
 62
     7
 10
116.474361419678
 20
-85.3313410069345
 30
0.0
 11
115.953416989726
 21
-88.2857642841414
 31
0.0
  0
LINE
  5
   2C5
  8
0
  6
CONTINUOUS
 62
     7
 10
115.953416989726
 20
-116.126917729727
 30
0.0
 11
116.474361419678
 21
-119.081341006934
 31
0.0
  0
LINE
  5
   2C6
  8
0
  6
CONTINUOUS
 62
     7
 10
116.474361419678
 20
-119.081341006934
 30
0.0
 11
116.995305849629
 21
-116.126917729727
 31
0.0
  0
ENDBLK
  5
   2C7
  8
0
  6
CONTINUOUS
 62
     7
  0
BLOCK
  5
   2C8
  8
0
  6
CONTINUOUS
 62
     7
  2
*UDIM105
 70
    65
 10
0.0
 20
0.0
 30
0.0
  3
*UDIM105
  0
TEXT
  5
   2C9
  8
0
  6
CONTINUOUS
 62
     7
 10
115.854716649911
 20
-141.22604755084
 30
0.0
 40
3.00000002980232
  1
5
 50
405.24765093927
 41
0.933333333333334
 72
     1
 11
115.563930104865
 21
-139.388809609265
 31
0.0
 73
     2
  0
TEXT
  5
   2CA
  8
0
  6
CONTINUOUS
 62
     7
 10
113.636978548947
 20
-143.463040572313
 30
0.0
 40
3.00000002980232
  1
Ø
 50
405.24765093927
 41
0.933333333333334
 72
     1
 11
113.346192003901
 21
-141.625802630738
 31
0.0
 73
     2
  0
TEXT
  5
   2CB
  8
0
  6
CONTINUOUS
 62
     7
 10
117.790837224727
 20
-139.273117110312
 30
0.0
 40
3.00000002980232
  1
 (M4)
 50
405.24765093927
 41
0.933333333333333
 72
     1
 11
121.44269622643
 21
-133.459002666283
 31
0.0
 73
     2
  0
LINE
  5
   2CC
  8
0
  6
CONTINUOUS
 62
     7
 10
139.656961603699
 20
-118.63751204296
 30
0.0
 11
114.347135064782
 21
-144.167084411143
 31
0.0
  0
LINE
  5
   2CD
  8
0
  6
CONTINUOUS
 62
     7
 10
141.367053031277
 20
-116.172641395376
 30
0.0
 11
139.656961603699
 21
-118.63751204296
 31
0.0
  0
LINE
  5
   2CE
  8
0
  6
CONTINUOUS
 62
     7
 10
139.656961603699
 20
-118.63751204296
 30
0.0
 11
142.106957190453
 21
-116.906176828484
 31
0.0
  0
LINE
  5
   2CF
  8
0
  6
CONTINUOUS
 62
     7
 10
137.066815376926
 20
-121.990078331187
 30
0.0
 11
138.776906804504
 21
-119.525207683602
 31
0.0
  0
LINE
  5
   2D0
  8
0
  6
CONTINUOUS
 62
     7
 10
138.776906804504
 20
-119.525207683602
 30
0.0
 11
136.32691121775
 21
-121.256542898078
 31
0.0
  0
ENDBLK
  5
   2D1
  8
0
  6
CONTINUOUS
 62
     7
  0
BLOCK
  5
   2D2
  8
0
  6
CONTINUOUS
 62
     7
  2
P_F_P_
 70
    64
 10
0.0
 20
0.0
 30
0.0
  3
P_F_P_
  0
LINE
  5
   2D3
  8
0
  6
CONTINUOUS
 62
     7
 10
-151.0
 20
161.838256835938
 30
0.0
 11
-151.0
 21
162.338226318359
 31
0.0
  0
LINE
  5
   2D4
  8
0
  6
CONTINUOUS
 62
     7
 10
-151.0
 20
102.338256835938
 30
0.0
 11
-151.0
 21
127.338256835938
 31
0.0
  0
LINE
  5
   2D5
  8
0
  6
CONTINUOUS
 62
     7
 10
-151.0
 20
67.3382720947266
 30
0.0
 11
-151.0
 21
92.3382720947266
 31
0.0
  0
LINE
  5
   2D6
  8
0
  6
CONTINUOUS
 62
   210
 10
-146.5
 20
27.3382987976074
 30
0.0
 11
-102.999954223633
 21
27.3382987976074
 31
0.0
  0
LINE
  5
   2D7
  8
0
  6
CONTINUOUS
 62
   210
 10
-146.500000000807
 20
167.338302612766
 30
0.0
 11
-140.000000000807
 21
167.338287353976
 31
0.0
  0
LINE
  5
   2D8
  8
0
  6
CONTINUOUS
 62
   210
 10
-140.0
 20
167.338272094727
 30
0.0
 11
-102.999954223633
 21
167.338272094727
 31
0.0
  0
LINE
  5
   2D9
  8
0
  6
CONTINUOUS
 62
   210
 10
-102.999954223633
 20
162.338271248666
 30
0.0
 11
-102.999954223633
 21
167.338272094727
 31
0.0
  0
LINE
  5
   2DA
  8
0
  6
CONTINUOUS
 62
   210
 10
-102.999954223633
 20
132.338256835938
 30
0.0
 11
-102.999954223633
 21
137.338271408478
 31
0.0
  0
LINE
  5
   2DB
  8
0
  6
CONTINUOUS
 62
   210
 10
-102.999954223633
 20
97.3382568359375
 30
0.0
 11
-102.999954223633
 21
102.33827158744
 31
0.0
  0
LINE
  5
   2DC
  8
0
  6
CONTINUOUS
 62
   210
 10
-102.999954223633
 20
27.3382987976074
 30
0.0
 11
-102.999954223633
 21
32.3382717664028
 31
0.0
  0
LINE
  5
   2DD
  8
0
  6
CONTINUOUS
 62
     7
 10
-140.0
 20
132.338256835937
 30
0.0
 11
-140.0
 21
167.338268280029
 31
0.0
  0
LINE
  5
   2DE
  8
0
  6
CONTINUOUS
 62
   210
 10
-146.5
 20
27.3382987976074
 30
0.0
 11
-146.5
 21
31.3382720947265
 31
0.0
  0
LINE
  5
   2DF
  8
0
  6
CONTINUOUS
 62
     7
 10
-146.5
 20
92.3382720947266
 30
0.0
 11
-146.5
 21
102.338256835938
 31
0.0
  0
LINE
  5
   2E0
  8
0
  6
CONTINUOUS
 62
     7
 10
-146.5
 20
127.338256835938
 30
0.0
 11
-146.5
 21
129.838180541992
 31
0.0
  0
LINE
  5
   2E1
  8
0
  6
CONTINUOUS
 62
   210
 10
-146.5
 20
162.338241577148
 30
0.0
 11
-146.5
 21
167.338302612305
 31
0.0
  0
LINE
  5
   2E2
  8
0
  6
CONTINUOUS
 62
   210
 10
-152.5
 20
28.3381767272949
 30
0.0
 11
-152.5
 21
32.8382568359375
 31
0.0
  0
LINE
  5
   2E3
  8
0
  6
CONTINUOUS
 62
   210
 10
-121.499954223633
 20
104.588256835938
 30
0.0
 11
-121.499954223633
 21
125.088256835937
 31
0.0
  0
LINE
  5
   2E4
  8
0
  6
CONTINUOUS
 62
   210
 10
-121.499954223633
 20
104.588256835938
 30
0.0
 11
-113.999954223633
 21
104.588256835938
 31
0.0
  0
LINE
  5
   2E5
  8
0
  6
CONTINUOUS
 62
   210
 10
-121.499954223633
 20
125.088256835938
 30
0.0
 11
-113.999954223633
 21
125.088256835938
 31
0.0
  0
LINE
  5
   2E6
  8
0
  6
CONTINUOUS
 62
   210
 10
-121.499954223633
 20
69.5882568359375
 30
0.0
 11
-121.499954223633
 21
90.0882568359375
 31
0.0
  0
LINE
  5
   2E7
  8
0
  6
CONTINUOUS
 62
   210
 10
-121.499954223633
 20
69.5882568359375
 30
0.0
 11
-113.999954223633
 21
69.5882568359375
 31
0.0
  0
LINE
  5
   2E8
  8
0
  6
CONTINUOUS
 62
   210
 10
-121.499954223633
 20
90.0882568359375
 30
0.0
 11
-113.999954223633
 21
90.0882568359375
 31
0.0
  0
LINE
  5
   2E9
  8
0
  6
CONTINUOUS
 62
   210
 10
-121.499954223633
 20
139.588256835937
 30
0.0
 11
-121.499954223633
 21
160.088256835938
 31
0.0
  0
LINE
  5
   2EA
  8
0
  6
CONTINUOUS
 62
   210
 10
-121.499954223633
 20
139.588256835938
 30
0.0
 11
-113.999954223633
 21
139.588256835938
 31
0.0
  0
LINE
  5
   2EB
  8
0
  6
CONTINUOUS
 62
   210
 10
-121.499954223633
 20
160.088256835938
 30
0.0
 11
-113.999954223633
 21
160.088256835938
 31
0.0
  0
LINE
  5
   2EC
  8
0
  6
CONTINUOUS
 62
     7
 10
-140.0
 20
164.838272094727
 30
0.0
 11
-102.999954223633
 21
164.838272094727
 31
0.0
  0
LINE
  5
   2ED
  8
0
  6
CONTINUOUS
 62
     7
 10
-140.0
 20
29.8382720947266
 30
0.0
 11
-102.999954223633
 21
29.8382720947266
 31
0.0
  0
LINE
  5
   2EE
  8
0
  6
CONTINUOUS
 62
   253
 10
-167.0
 20
67.8382568359375
 30
0.0
 11
-167.0
 21
91.8382568359375
 31
0.0
  0
LINE
  5
   2EF
  8
0
  6
CONTINUOUS
 62
   253
 10
-167.0
 20
137.838256835937
 30
0.0
 11
-167.0
 21
161.838256835938
 31
0.0
  0
LINE
  5
   2F0
  8
0
  6
CONTINUOUS
 62
   253
 10
-166.999954223633
 20
103.838241577148
 30
0.0
 11
-166.999954223633
 21
125.838241577148
 31
0.0
  0
LINE
  5
   2F1
  8
0
  6
CONTINUOUS
 62
     7
 10
-189.299957275391
 20
138.83821105957
 30
0.0
 11
-189.299957275391
 21
160.83821105957
 31
0.0
  0
LINE
  5
   2F2
  8
0
  6
CONTINUOUS
 62
     7
 10
-191.799957275391
 20
138.83821105957
 30
0.0
 11
-191.799957275391
 21
140.33821105957
 31
0.0
  0
LINE
  5
   2F3
  8
0
  6
CONTINUOUS
 62
     7
 10
-191.799957275391
 20
140.481399536133
 30
0.0
 11
-191.799957275391
 21
159.195022583008
 31
0.0
  0
LINE
  5
   2F4
  8
0
  6
CONTINUOUS
 62
     7
 10
-191.799957275391
 20
159.33821105957
 30
0.0
 11
-191.799957275391
 21
160.83821105957
 31
0.0
  0
LINE
  5
   2F5
  8
0
  6
CONTINUOUS
 62
     7
 10
-180.799957275391
 20
159.33821105957
 30
0.0
 11
-180.799957275391
 21
160.83821105957
 31
0.0
  0
LINE
  5
   2F6
  8
0
  6
CONTINUOUS
 62
     7
 10
-180.799957275391
 20
140.481399536133
 30
0.0
 11
-180.799957275391
 21
159.195022583008
 31
0.0
  0
LINE
  5
   2F7
  8
0
  6
CONTINUOUS
 62
     7
 10
-180.799957275391
 20
138.83821105957
 30
0.0
 11
-180.799957275391
 21
140.33821105957
 31
0.0
  0
LINE
  5
   2F8
  8
0
  6
CONTINUOUS
 62
     7
 10
-183.299957275391
 20
138.83821105957
 30
0.0
 11
-183.299957275391
 21
160.83821105957
 31
0.0
  0
LINE
  5
   2F9
  8
0
  6
CONTINUOUS
 62
     3
 10
-173.799957275391
 20
159.33821105957
 30
0.0
 11
-167.799957275391
 21
159.33821105957
 31
0.0
  0
LINE
  5
   2FA
  8
0
  6
CONTINUOUS
 62
     3
 10
-173.799957275391
 20
140.33821105957
 30
0.0
 11
-167.799957275391
 21
140.33821105957
 31
0.0
  0
LINE
  5
   2FB
  8
0
  6
CONTINUOUS
 62
     3
 10
-173.799957275391
 20
140.33821105957
 30
0.0
 11
-173.799957275391
 21
159.33821105957
 31
0.0
  0
LINE
  5
   2FC
  8
0
  6
CONTINUOUS
 62
     3
 10
-167.799957275391
 20
156.932388305664
 30
0.0
 11
-167.799957275391
 21
159.33821105957
 31
0.0
  0
LINE
  5
   2FD
  8
0
  6
CONTINUOUS
 62
     3
 10
-167.799957275391
 20
147.523803710937
 30
0.0
 11
-167.799957275391
 21
152.152603149414
 31
0.0
  0
LINE
  5
   2FE
  8
0
  6
CONTINUOUS
 62
     3
 10
-167.799957275391
 20
140.33821105957
 30
0.0
 11
-167.799957275391
 21
142.743995666504
 31
0.0
  0
LINE
  5
   2FF
  8
0
  6
CONTINUOUS
 62
     3
 10
-180.799957275391
 20
159.33821105957
 30
0.0
 11
-174.799957275391
 21
159.33821105957
 31
0.0
  0
LINE
  5
   300
  8
0
  6
CONTINUOUS
 62
     3
 10
-180.799957275391
 20
140.33821105957
 30
0.0
 11
-174.799957275391
 21
140.33821105957
 31
0.0
  0
LINE
  5
   301
  8
0
  6
CONTINUOUS
 62
     3
 10
-180.799957275391
 20
140.33821105957
 30
0.0
 11
-180.799957275391
 21
140.481399536133
 31
0.0
  0
LINE
  5
   302
  8
0
  6
CONTINUOUS
 62
     3
 10
-180.799957275391
 20
159.195014953613
 30
0.0
 11
-180.799957275391
 21
159.33821105957
 31
0.0
  0
LINE
  5
   303
  8
0
  6
CONTINUOUS
 62
     3
 10
-174.799957275391
 20
140.33821105957
 30
0.0
 11
-174.799957275391
 21
159.33821105957
 31
0.0
  0
LINE
  5
   304
  8
0
  6
CONTINUOUS
 62
     3
 10
-197.799957275391
 20
159.33821105957
 30
0.0
 11
-191.799957275391
 21
159.33821105957
 31
0.0
  0
LINE
  5
   305
  8
0
  6
CONTINUOUS
 62
     3
 10
-197.799957275391
 20
140.33821105957
 30
0.0
 11
-191.799957275391
 21
140.33821105957
 31
0.0
  0
LINE
  5
   306
  8
0
  6
CONTINUOUS
 62
     3
 10
-191.799957275391
 20
159.195014953613
 30
0.0
 11
-191.799957275391
 21
159.33821105957
 31
0.0
  0
LINE
  5
   307
  8
0
  6
CONTINUOUS
 62
     3
 10
-191.799957275391
 20
140.33821105957
 30
0.0
 11
-191.799957275391
 21
140.481399536133
 31
0.0
  0
LINE
  5
   308
  8
0
  6
CONTINUOUS
 62
     3
 10
-197.799957275391
 20
140.33821105957
 30
0.0
 11
-197.799957275391
 21
159.33821105957
 31
0.0
  0
LINE
  5
   309
  8
0
  6
CONTINUOUS
 62
     7
 10
-167.799957275391
 20
139.83821105957
 30
0.0
 11
-167.799957275391
 21
140.33821105957
 31
0.0
  0
LINE
  5
   30A
  8
0
  6
CONTINUOUS
 62
     7
 10
-167.799957275391
 20
142.744018554687
 30
0.0
 11
-167.799957275391
 21
147.523788452148
 31
0.0
  0
LINE
  5
   30B
  8
0
  6
CONTINUOUS
 62
     7
 10
-167.799957275391
 20
152.152618408203
 30
0.0
 11
-167.799957275391
 21
156.932418823242
 31
0.0
  0
LINE
  5
   30C
  8
0
  6
CONTINUOUS
 62
     7
 10
-167.799957275391
 20
159.33821105957
 30
0.0
 11
-167.799957275391
 21
159.83821105957
 31
0.0
  0
LINE
  5
   30D
  8
0
  6
CONTINUOUS
 62
   212
 10
-200.499954223633
 20
145.838241577148
 30
0.0
 11
-200.499954223633
 21
153.838241577148
 31
0.0
  0
LINE
  5
   30E
  8
0
  6
CONTINUOUS
 62
   212
 10
-119.499954223633
 20
106.338241577148
 30
0.0
 11
-118.999954223633
 21
106.338241577148
 31
0.0
  0
LINE
  5
   30F
  8
0
  6
CONTINUOUS
 62
   212
 10
-119.499954223633
 20
123.338241577148
 30
0.0
 11
-118.999954223633
 21
123.338241577148
 31
0.0
  0
LINE
  5
   310
  8
0
  6
CONTINUOUS
 62
   212
 10
-119.499954223633
 20
118.338241577148
 30
0.0
 11
-118.999954223633
 21
118.338241577148
 31
0.0
  0
LINE
  5
   311
  8
0
  6
CONTINUOUS
 62
   212
 10
-119.499954223633
 20
111.338241577148
 30
0.0
 11
-118.999954223633
 21
111.338241577148
 31
0.0
  0
LINE
  5
   312
  8
0
  6
CONTINUOUS
 62
   212
 10
-119.499954223633
 20
141.338241577148
 30
0.0
 11
-118.999954223633
 21
141.338241577148
 31
0.0
  0
LINE
  5
   313
  8
0
  6
CONTINUOUS
 62
   212
 10
-119.499954223633
 20
158.338241577148
 30
0.0
 11
-118.999954223633
 21
158.338241577148
 31
0.0
  0
LINE
  5
   314
  8
0
  6
CONTINUOUS
 62
   212
 10
-119.499954223633
 20
146.338241577148
 30
0.0
 11
-118.999954223633
 21
146.338241577148
 31
0.0
  0
LINE
  5
   315
  8
0
  6
CONTINUOUS
 62
   212
 10
-119.499954223633
 20
153.338241577148
 30
0.0
 11
-118.999954223633
 21
153.338241577148
 31
0.0
  0
LINE
  5
   316
  8
0
  6
CONTINUOUS
 62
   212
 10
-119.499954223633
 20
71.3382415771484
 30
0.0
 11
-118.999954223633
 21
71.3382415771484
 31
0.0
  0
LINE
  5
   317
  8
0
  6
CONTINUOUS
 62
   212
 10
-119.499954223633
 20
88.3382415771484
 30
0.0
 11
-118.999954223633
 21
88.3382415771484
 31
0.0
  0
LINE
  5
   318
  8
0
  6
CONTINUOUS
 62
   212
 10
-119.499954223633
 20
76.3382415771484
 30
0.0
 11
-118.999954223633
 21
76.3382415771484
 31
0.0
  0
LINE
  5
   319
  8
0
  6
CONTINUOUS
 62
   212
 10
-119.499954223633
 20
83.3382415771484
 30
0.0
 11
-118.999954223633
 21
83.3382415771484
 31
0.0
  0
LINE
  5
   31A
  8
0
  6
CONTINUOUS
 62
   210
 10
-150.5
 20
92.338264465332
 30
0.0
 11
-150.5
 21
102.338249206543
 31
0.0
  0
LINE
  5
   31B
  8
0
  6
CONTINUOUS
 62
     3
 10
-152.0
 20
91.8382568359375
 30
0.0
 11
-152.0
 21
102.838241577148
 31
0.0
  0
LINE
  5
   31C
  8
0
  6
CONTINUOUS
 62
     3
 10
-152.0
 20
126.838241577148
 30
0.0
 11
-152.0
 21
137.838256835937
 31
0.0
  0
LINE
  5
   31D
  8
0
  6
CONTINUOUS
 62
   253
 10
-167.0
 20
102.838256835938
 30
0.0
 11
-167.0
 21
103.838241577148
 31
0.0
  0
LINE
  5
   31E
  8
0
  6
CONTINUOUS
 62
   253
 10
-167.0
 20
125.838241577148
 30
0.0
 11
-167.0
 21
126.838256835938
 31
0.0
  0
LINE
  5
   31F
  8
0
  6
CONTINUOUS
 62
     7
 10
-232.799957275391
 20
124.338241577148
 30
0.0
 11
-232.799957275391
 21
125.838241577148
 31
0.0
  0
LINE
  5
   320
  8
0
  6
CONTINUOUS
 62
     7
 10
-232.799957275391
 20
105.481422424316
 30
0.0
 11
-232.799957275391
 21
124.195053100586
 31
0.0
  0
LINE
  5
   321
  8
0
  6
CONTINUOUS
 62
     7
 10
-232.799957275391
 20
103.838241577148
 30
0.0
 11
-232.799957275391
 21
105.338241577148
 31
0.0
  0
LINE
  5
   322
  8
0
  6
CONTINUOUS
 62
     7
 10
-235.299957275391
 20
103.838241577148
 30
0.0
 11
-235.299957275391
 21
125.838241577148
 31
0.0
  0
LINE
  5
   323
  8
0
  6
CONTINUOUS
 62
     7
 10
-241.299957275391
 20
103.838241577148
 30
0.0
 11
-241.299957275391
 21
125.838241577148
 31
0.0
  0
LINE
  5
   324
  8
0
  6
CONTINUOUS
 62
     7
 10
-243.799957275391
 20
103.838241577148
 30
0.0
 11
-243.799957275391
 21
105.338241577148
 31
0.0
  0
LINE
  5
   325
  8
0
  6
CONTINUOUS
 62
     7
 10
-243.799957275391
 20
105.481422424316
 30
0.0
 11
-243.799957275391
 21
124.195053100586
 31
0.0
  0
LINE
  5
   326
  8
0
  6
CONTINUOUS
 62
     7
 10
-243.799957275391
 20
124.338241577148
 30
0.0
 11
-243.799957275391
 21
125.838241577148
 31
0.0
  0
LINE
  5
   327
  8
0
  6
CONTINUOUS
 62
     3
 10
-225.799957275391
 20
105.338241577148
 30
0.0
 11
-219.799957275391
 21
105.338241577148
 31
0.0
  0
LINE
  5
   328
  8
0
  6
CONTINUOUS
 62
     3
 10
-225.799957275391
 20
124.338241577148
 30
0.0
 11
-219.799957275391
 21
124.338241577148
 31
0.0
  0
LINE
  5
   329
  8
0
  6
CONTINUOUS
 62
     3
 10
-225.799957275391
 20
105.338241577148
 30
0.0
 11
-225.799957275391
 21
124.338241577148
 31
0.0
  0
LINE
  5
   32A
  8
0
  6
CONTINUOUS
 62
     3
 10
-219.799957275391
 20
121.932441711426
 30
0.0
 11
-219.799957275391
 21
124.338241577148
 31
0.0
  0
LINE
  5
   32B
  8
0
  6
CONTINUOUS
 62
     3
 10
-219.799957275391
 20
112.52384185791
 30
0.0
 11
-219.799957275391
 21
117.152648925781
 31
0.0
  0
LINE
  5
   32C
  8
0
  6
CONTINUOUS
 62
     3
 10
-219.799957275391
 20
105.338241577148
 30
0.0
 11
-219.799957275391
 21
107.744026184082
 31
0.0
  0
LINE
  5
   32D
  8
0
  6
CONTINUOUS
 62
     3
 10
-232.799957275391
 20
105.338241577148
 30
0.0
 11
-226.799957275391
 21
105.338241577148
 31
0.0
  0
LINE
  5
   32E
  8
0
  6
CONTINUOUS
 62
     3
 10
-232.799957275391
 20
124.338241577148
 30
0.0
 11
-226.799957275391
 21
124.338241577148
 31
0.0
  0
LINE
  5
   32F
  8
0
  6
CONTINUOUS
 62
     3
 10
-232.799957275391
 20
105.338241577148
 30
0.0
 11
-232.799957275391
 21
105.481422424316
 31
0.0
  0
LINE
  5
   330
  8
0
  6
CONTINUOUS
 62
     3
 10
-232.799957275391
 20
124.195045471191
 30
0.0
 11
-232.799957275391
 21
124.338241577148
 31
0.0
  0
LINE
  5
   331
  8
0
  6
CONTINUOUS
 62
     3
 10
-226.799957275391
 20
105.338241577148
 30
0.0
 11
-226.799957275391
 21
124.338241577148
 31
0.0
  0
LINE
  5
   332
  8
0
  6
CONTINUOUS
 62
     3
 10
-249.799957275391
 20
105.338241577148
 30
0.0
 11
-243.799957275391
 21
105.338241577148
 31
0.0
  0
LINE
  5
   333
  8
0
  6
CONTINUOUS
 62
     3
 10
-249.799957275391
 20
124.338241577148
 30
0.0
 11
-243.799957275391
 21
124.338241577148
 31
0.0
  0
LINE
  5
   334
  8
0
  6
CONTINUOUS
 62
     3
 10
-243.799957275391
 20
124.195045471191
 30
0.0
 11
-243.799957275391
 21
124.338241577148
 31
0.0
  0
LINE
  5
   335
  8
0
  6
CONTINUOUS
 62
     3
 10
-243.799957275391
 20
105.338241577148
 30
0.0
 11
-243.799957275391
 21
105.481422424316
 31
0.0
  0
LINE
  5
   336
  8
0
  6
CONTINUOUS
 62
     3
 10
-249.799957275391
 20
105.338241577148
 30
0.0
 11
-249.799957275391
 21
124.338241577148
 31
0.0
  0
LINE
  5
   337
  8
0
  6
CONTINUOUS
 62
     7
 10
-218.999954223633
 20
104.838241577148
 30
0.0
 11
-218.999954223633
 21
124.838241577148
 31
0.0
  0
LINE
  5
   338
  8
0
  6
CONTINUOUS
 62
     7
 10
-219.799957275391
 20
104.838241577148
 30
0.0
 11
-219.799957275391
 21
105.338241577148
 31
0.0
  0
LINE
  5
   339
  8
0
  6
CONTINUOUS
 62
     7
 10
-219.799957275391
 20
107.744018554687
 30
0.0
 11
-219.799957275391
 21
112.523834228516
 31
0.0
  0
LINE
  5
   33A
  8
0
  6
CONTINUOUS
 62
     7
 10
-219.799957275391
 20
117.152641296387
 30
0.0
 11
-219.799957275391
 21
121.932434082031
 31
0.0
  0
LINE
  5
   33B
  8
0
  6
CONTINUOUS
 62
     7
 10
-219.799957275391
 20
124.338241577148
 30
0.0
 11
-219.799957275391
 21
124.838241577148
 31
0.0
  0
LINE
  5
   33C
  8
0
  6
CONTINUOUS
 62
   212
 10
-252.499954223633
 20
110.838241577148
 30
0.0
 11
-252.499954223633
 21
118.838241577148
 31
0.0
  0
LINE
  5
   33D
  8
0
  6
CONTINUOUS
 62
     7
 10
-146.5
 20
137.338226318359
 30
0.0
 11
-140.0
 21
137.338226318359
 31
0.0
  0
LINE
  5
   33E
  8
0
  6
CONTINUOUS
 62
     7
 10
-146.499984741211
 20
162.338226318359
 30
0.0
 11
-140.0
 21
162.338226318359
 31
0.0
  0
LINE
  5
   33F
  8
0
  6
CONTINUOUS
 62
     7
 10
-146.5
 20
102.338256835938
 30
0.0
 11
-140.0
 21
102.338256835938
 31
0.0
  0
LINE
  5
   340
  8
0
  6
CONTINUOUS
 62
     7
 10
-146.5
 20
127.338256835938
 30
0.0
 11
-140.0
 21
127.338256835938
 31
0.0
  0
LINE
  5
   341
  8
0
  6
CONTINUOUS
 62
     7
 10
-151.0
 20
32.3382720947266
 30
0.0
 11
-140.0
 21
32.3382720947266
 31
0.0
  0
LINE
  5
   342
  8
0
  6
CONTINUOUS
 62
     7
 10
-146.5
 20
92.3382720947266
 30
0.0
 11
-140.0
 21
92.3382720947266
 31
0.0
  0
LINE
  5
   343
  8
0
  6
CONTINUOUS
 62
     7
 10
-146.5
 20
31.3382720947266
 30
0.0
 11
-140.0
 21
31.3382720947266
 31
0.0
  0
LINE
  5
   344
  8
0
  6
CONTINUOUS
 62
     7
 10
-140.0
 20
163.838272094727
 30
0.0
 11
-102.999954223633
 21
163.838272094727
 31
0.0
  0
LINE
  5
   345
  8
0
  6
CONTINUOUS
 62
     7
 10
-140.0
 20
30.8382720947266
 30
0.0
 11
-102.999954223633
 21
30.8382720947266
 31
0.0
  0
LINE
  5
   346
  8
0
  6
CONTINUOUS
 62
   253
 10
-167.0
 20
91.8382568359375
 30
0.0
 11
-151.0
 21
91.8382568359375
 31
0.0
  0
LINE
  5
   347
  8
0
  6
CONTINUOUS
 62
   253
 10
-167.0
 20
67.8382568359375
 30
0.0
 11
-151.0
 21
67.8382568359375
 31
0.0
  0
LINE
  5
   348
  8
0
  6
CONTINUOUS
 62
   253
 10
-180.799957275391
 20
89.8382568359375
 30
0.0
 11
-167.0
 21
89.8382568359375
 31
0.0
  0
LINE
  5
   349
  8
0
  6
CONTINUOUS
 62
   253
 10
-180.799957275391
 20
69.8382568359375
 30
0.0
 11
-167.0
 21
69.8382568359375
 31
0.0
  0
LINE
  5
   34A
  8
0
  6
CONTINUOUS
 62
   253
 10
-167.0
 20
161.838256835938
 30
0.0
 11
-151.0
 21
161.838256835938
 31
0.0
  0
LINE
  5
   34B
  8
0
  6
CONTINUOUS
 62
   253
 10
-167.0
 20
137.838256835938
 30
0.0
 11
-151.0
 21
137.838256835938
 31
0.0
  0
LINE
  5
   34C
  8
0
  6
CONTINUOUS
 62
   253
 10
-180.799957275391
 20
159.838256835938
 30
0.0
 11
-167.0
 21
159.838256835938
 31
0.0
  0
LINE
  5
   34D
  8
0
  6
CONTINUOUS
 62
   253
 10
-180.799957275391
 20
139.838256835938
 30
0.0
 11
-167.0
 21
139.838256835938
 31
0.0
  0
LINE
  5
   34E
  8
0
  6
CONTINUOUS
 62
   253
 10
-165.999954223633
 20
126.838241577148
 30
0.0
 11
-150.999954223633
 21
126.838241577148
 31
0.0
  0
LINE
  5
   34F
  8
0
  6
CONTINUOUS
 62
   253
 10
-165.999954223633
 20
102.838241577148
 30
0.0
 11
-150.999954223633
 21
102.838241577148
 31
0.0
  0
LINE
  5
   350
  8
0
  6
CONTINUOUS
 62
   253
 10
-166.999951013324
 20
125.838239775745
 30
0.0
 11
-165.999951047553
 21
126.838239741516
 31
0.0
  0
LINE
  5
   351
  8
0
  6
CONTINUOUS
 62
   253
 10
-166.999949047951
 20
103.838237482434
 30
0.0
 11
-165.99994908218
 21
102.838237516662
 31
0.0
  0
LINE
  5
   352
  8
0
  6
CONTINUOUS
 62
     7
 10
-191.799957275391
 20
160.83821105957
 30
0.0
 11
-189.299957275391
 21
160.83821105957
 31
0.0
  0
LINE
  5
   353
  8
0
  6
CONTINUOUS
 62
     7
 10
-191.799957275391
 20
138.83821105957
 30
0.0
 11
-189.299957275391
 21
138.83821105957
 31
0.0
  0
LINE
  5
   354
  8
0
  6
CONTINUOUS
 62
     7
 10
-183.299957275391
 20
160.83821105957
 30
0.0
 11
-180.799957275391
 21
160.83821105957
 31
0.0
  0
LINE
  5
   355
  8
0
  6
CONTINUOUS
 62
     7
 10
-183.299957275391
 20
138.83821105957
 30
0.0
 11
-180.799957275391
 21
138.83821105957
 31
0.0
  0
LINE
  5
   356
  8
0
  6
CONTINUOUS
 62
     7
 10
-167.799957275391
 20
159.83821105957
 30
0.0
 11
-166.999954223633
 21
159.83821105957
 31
0.0
  0
LINE
  5
   357
  8
0
  6
CONTINUOUS
 62
     7
 10
-167.799957275391
 20
139.83821105957
 30
0.0
 11
-166.999954223633
 21
139.83821105957
 31
0.0
  0
LINE
  5
   358
  8
0
  6
CONTINUOUS
 62
   212
 10
-200.499950093432
 20
153.838240242109
 30
0.0
 11
-198.499950161889
 21
155.838240173652
 31
0.0
  0
LINE
  5
   359
  8
0
  6
CONTINUOUS
 62
   212
 10
-200.499948128059
 20
145.83823701607
 30
0.0
 11
-198.499948196516
 21
143.838237084527
 31
0.0
  0
LINE
  5
   35A
  8
0
  6
CONTINUOUS
 62
   212
 10
-198.499954223633
 20
155.838241577148
 30
0.0
 11
-197.799957275391
 21
155.838241577148
 31
0.0
  0
LINE
  5
   35B
  8
0
  6
CONTINUOUS
 62
   212
 10
-189.299957275391
 20
155.838241577148
 30
0.0
 11
-183.299957275391
 21
155.838241577148
 31
0.0
  0
LINE
  5
   35C
  8
0
  6
CONTINUOUS
 62
   212
 10
-174.799957275391
 20
155.838241577148
 30
0.0
 11
-173.799957275391
 21
155.838241577148
 31
0.0
  0
LINE
  5
   35D
  8
0
  6
CONTINUOUS
 62
   212
 10
-198.499954223633
 20
143.838241577148
 30
0.0
 11
-198.499954223633
 21
155.838241577148
 31
0.0
  0
LINE
  5
   35E
  8
0
  6
CONTINUOUS
 62
   212
 10
-198.499954223633
 20
143.838241577148
 30
0.0
 11
-197.799957275391
 21
143.838241577148
 31
0.0
  0
LINE
  5
   35F
  8
0
  6
CONTINUOUS
 62
   212
 10
-189.299957275391
 20
143.838241577148
 30
0.0
 11
-183.299957275391
 21
143.838241577148
 31
0.0
  0
LINE
  5
   360
  8
0
  6
CONTINUOUS
 62
   212
 10
-174.799957275391
 20
143.838241577148
 30
0.0
 11
-173.799957275391
 21
143.838241577148
 31
0.0
  0
LINE
  5
   361
  8
0
  6
CONTINUOUS
 62
   253
 10
-167.0
 20
126.838256835938
 30
0.0
 11
-165.999954223633
 21
126.838256835938
 31
0.0
  0
LINE
  5
   362
  8
0
  6
CONTINUOUS
 62
   253
 10
-167.0
 20
102.838256835938
 30
0.0
 11
-165.999954223633
 21
102.838256835938
 31
0.0
  0
LINE
  5
   363
  8
0
  6
CONTINUOUS
 62
   253
 10
-218.0
 20
124.838256835938
 30
0.0
 11
-166.999954223633
 21
124.838256835938
 31
0.0
  0
LINE
  5
   364
  8
0
  6
CONTINUOUS
 62
   253
 10
-218.0
 20
104.838256835938
 30
0.0
 11
-166.999954223633
 21
104.838256835938
 31
0.0
  0
LINE
  5
   365
  8
0
  6
CONTINUOUS
 62
   253
 10
-218.707111981906
 20
124.545357573971
 30
0.0
 11
-218.000004431085
 21
124.838257649005
 31
0.0
  0
LINE
  5
   366
  8
0
  6
CONTINUOUS
 62
   253
 10
-218.999995859702
 20
123.838253769334
 30
0.0
 11
-218.707103403151
 21
124.545353674958
 31
0.0
  0
LINE
  5
   367
  8
0
  6
CONTINUOUS
 62
   253
 10
-218.707112343664
 20
105.131151438749
 30
0.0
 11
-218.000004799595
 21
104.838258982182
 31
0.0
  0
LINE
  5
   368
  8
0
  6
CONTINUOUS
 62
   253
 10
-219.00000313291
 20
105.838259797487
 30
0.0
 11
-218.707110676343
 21
105.131152253417
 31
0.0
  0
LINE
  5
   369
  8
0
  6
CONTINUOUS
 62
     7
 10
-235.299957275391
 20
103.838241577148
 30
0.0
 11
-232.799957275391
 21
103.838241577148
 31
0.0
  0
LINE
  5
   36A
  8
0
  6
CONTINUOUS
 62
     7
 10
-235.299957275391
 20
125.838241577148
 30
0.0
 11
-232.799957275391
 21
125.838241577148
 31
0.0
  0
LINE
  5
   36B
  8
0
  6
CONTINUOUS
 62
     7
 10
-243.799957275391
 20
103.838241577148
 30
0.0
 11
-241.299957275391
 21
103.838241577148
 31
0.0
  0
LINE
  5
   36C
  8
0
  6
CONTINUOUS
 62
     7
 10
-243.799957275391
 20
125.838241577148
 30
0.0
 11
-241.299957275391
 21
125.838241577148
 31
0.0
  0
LINE
  5
   36D
  8
0
  6
CONTINUOUS
 62
     3
 10
-225.799957275391
 20
114.838241577148
 30
0.0
 11
-219.799957275391
 21
114.838241577148
 31
0.0
  0
LINE
  5
   36E
  8
0
  6
CONTINUOUS
 62
     3
 10
-232.799957275391
 20
114.838241577148
 30
0.0
 11
-226.799957275391
 21
114.838241577148
 31
0.0
  0
LINE
  5
   36F
  8
0
  6
CONTINUOUS
 62
     3
 10
-249.799957275391
 20
114.838241577148
 30
0.0
 11
-243.799957275391
 21
114.838241577148
 31
0.0
  0
LINE
  5
   370
  8
0
  6
CONTINUOUS
 62
     7
 10
-219.799957275391
 20
104.838241577148
 30
0.0
 11
-218.999954223633
 21
104.838241577148
 31
0.0
  0
LINE
  5
   371
  8
0
  6
CONTINUOUS
 62
     7
 10
-219.799957275391
 20
124.838241577148
 30
0.0
 11
-218.999954223633
 21
124.838241577148
 31
0.0
  0
LINE
  5
   372
  8
0
  6
CONTINUOUS
 62
   212
 10
-252.499946793146
 20
110.838236571099
 30
0.0
 11
-250.499946861603
 21
108.838236639556
 31
0.0
  0
LINE
  5
   373
  8
0
  6
CONTINUOUS
 62
   212
 10
-252.499948758519
 20
118.83824068708
 30
0.0
 11
-250.499948826976
 21
120.838240618623
 31
0.0
  0
LINE
  5
   374
  8
0
  6
CONTINUOUS
 62
   212
 10
-250.499954223633
 20
108.838241577148
 30
0.0
 11
-249.799957275391
 21
108.838241577148
 31
0.0
  0
LINE
  5
   375
  8
0
  6
CONTINUOUS
 62
   212
 10
-241.299957275391
 20
108.838241577148
 30
0.0
 11
-235.299957275391
 21
108.838241577148
 31
0.0
  0
LINE
  5
   376
  8
0
  6
CONTINUOUS
 62
   212
 10
-226.799957275391
 20
108.838241577148
 30
0.0
 11
-225.799957275391
 21
108.838241577148
 31
0.0
  0
LINE
  5
   377
  8
0
  6
CONTINUOUS
 62
   212
 10
-250.499954223633
 20
108.838241577148
 30
0.0
 11
-250.499954223633
 21
120.838241577148
 31
0.0
  0
LINE
  5
   378
  8
0
  6
CONTINUOUS
 62
   212
 10
-250.499954223633
 20
120.838241577148
 30
0.0
 11
-249.799957275391
 21
120.838241577148
 31
0.0
  0
LINE
  5
   379
  8
0
  6
CONTINUOUS
 62
   212
 10
-241.299957275391
 20
120.838241577148
 30
0.0
 11
-235.299957275391
 21
120.838241577148
 31
0.0
  0
LINE
  5
   37A
  8
0
  6
CONTINUOUS
 62
   212
 10
-226.799957275391
 20
120.838241577148
 30
0.0
 11
-225.799957275391
 21
120.838241577148
 31
0.0
  0
LINE
  5
   37B
  8
0
  6
CONTINUOUS
 62
     7
 10
-140.0
 20
97.3382568359375
 30
0.0
 11
-140.0
 21
132.338256835937
 31
0.0
  0
LINE
  5
   37C
  8
0
  6
CONTINUOUS
 62
     7
 10
-140.0
 20
62.3382987976074
 30
0.0
 11
-140.0
 21
97.3382568359375
 31
0.0
  0
LINE
  5
   37D
  8
0
  6
CONTINUOUS
 62
   210
 10
-102.999954223633
 20
92.3382716065908
 30
0.0
 11
-102.999954223633
 21
97.3382568359375
 31
0.0
  0
LINE
  5
   37E
  8
0
  6
CONTINUOUS
 62
   210
 10
-102.999954223633
 20
127.338271427629
 30
0.0
 11
-102.999954223633
 21
132.338256835938
 31
0.0
  0
LINE
  5
   37F
  8
0
  6
CONTINUOUS
 62
     7
 10
-150.499984741211
 20
137.338226318359
 30
0.0
 11
-146.5
 21
137.338226318359
 31
0.0
  0
LINE
  5
   380
  8
0
  6
CONTINUOUS
 62
     7
 10
-150.499984741211
 20
127.338256835938
 30
0.0
 11
-146.5
 21
127.338256835938
 31
0.0
  0
LINE
  5
   381
  8
0
  6
CONTINUOUS
 62
     7
 10
-150.5
 20
102.338256835938
 30
0.0
 11
-146.5
 21
102.338256835938
 31
0.0
  0
LINE
  5
   382
  8
0
  6
CONTINUOUS
 62
     7
 10
-150.5
 20
92.3382720947266
 30
0.0
 11
-146.5
 21
92.3382720947266
 31
0.0
  0
LINE
  5
   383
  8
0
  6
CONTINUOUS
 62
   210
 10
-152.5
 20
31.3382720947266
 30
0.0
 11
-146.5
 21
31.3382720947266
 31
0.0
  0
LINE
  5
   384
  8
0
  6
CONTINUOUS
 62
     2
 10
-118.999954223633
 20
105.588241577148
 30
0.0
 11
-113.999954223633
 21
105.588241577148
 31
0.0
  0
LINE
  5
   385
  8
0
  6
CONTINUOUS
 62
     2
 10
-118.999954223633
 20
124.088241577148
 30
0.0
 11
-113.999954223633
 21
124.088241577148
 31
0.0
  0
LINE
  5
   386
  8
0
  6
CONTINUOUS
 62
     2
 10
-118.999954223633
 20
105.588241577148
 30
0.0
 11
-118.999954223633
 21
124.088241577148
 31
0.0
  0
LINE
  5
   387
  8
0
  6
CONTINUOUS
 62
     2
 10
-113.999954223693
 20
105.588241577179
 30
0.0
 11
-103.999954223693
 21
105.588249206574
 31
0.0
  0
LINE
  5
   388
  8
0
  6
CONTINUOUS
 62
     2
 10
-113.999954223699
 20
124.088241577185
 30
0.0
 11
-103.999954223699
 21
124.088249206579
 31
0.0
  0
LINE
  5
   389
  8
0
  6
CONTINUOUS
 62
     2
 10
-113.999954223633
 20
101.838272094727
 30
0.0
 11
-113.999954223633
 21
105.588264465332
 31
0.0
  0
LINE
  5
   38A
  8
0
  6
CONTINUOUS
 62
     2
 10
-113.999954223633
 20
124.088272094727
 30
0.0
 11
-113.999954223633
 21
127.838272094727
 31
0.0
  0
LINE
  5
   38B
  8
0
  6
CONTINUOUS
 62
     2
 10
-102.999954223633
 20
124.838272094727
 30
0.0
 11
-102.999954223633
 21
127.838272094727
 31
0.0
  0
LINE
  5
   38C
  8
0
  6
CONTINUOUS
 62
     2
 10
-102.999954223633
 20
101.838272094727
 30
0.0
 11
-102.999954223633
 21
104.838272094727
 31
0.0
  0
LINE
  5
   38D
  8
0
  6
CONTINUOUS
 62
     2
 10
-103.999954223633
 20
104.838272094727
 30
0.0
 11
-102.999954223633
 21
104.838272094727
 31
0.0
  0
LINE
  5
   38E
  8
0
  6
CONTINUOUS
 62
     2
 10
-103.999954223633
 20
124.838272094727
 30
0.0
 11
-102.999954223633
 21
124.838272094727
 31
0.0
  0
LINE
  5
   38F
  8
0
  6
CONTINUOUS
 62
     2
 10
-102.999954223633
 20
104.838272094727
 30
0.0
 11
-102.999954223633
 21
124.838272094727
 31
0.0
  0
LINE
  5
   390
  8
0
  6
CONTINUOUS
 62
     2
 10
-103.999954223633
 20
124.088241577148
 30
0.0
 11
-103.999954223633
 21
124.838272094727
 31
0.0
  0
LINE
  5
   391
  8
0
  6
CONTINUOUS
 62
     2
 10
-103.999954223633
 20
104.838272094727
 30
0.0
 11
-103.999954223633
 21
105.588241577148
 31
0.0
  0
LINE
  5
   392
  8
0
  6
CONTINUOUS
 62
     2
 10
-110.267906188965
 20
104.588287353516
 30
0.0
 11
-110.267906188965
 21
105.588241577148
 31
0.0
  0
LINE
  5
   393
  8
0
  6
CONTINUOUS
 62
     2
 10
-113.999951160413
 20
105.58826277516
 30
0.0
 11
-110.267903221236
 21
104.588285627659
 31
0.0
  0
LINE
  5
   394
  8
0
  6
CONTINUOUS
 62
     2
 10
-110.267906188965
 20
124.08829498291
 30
0.0
 11
-110.267906188965
 21
125.08829498291
 31
0.0
  0
LINE
  5
   395
  8
0
  6
CONTINUOUS
 62
     2
 10
-113.99994737657
 20
124.088268214342
 30
0.0
 11
-110.267899437386
 21
125.088291051691
 31
0.0
  0
LINE
  5
   396
  8
0
  6
CONTINUOUS
 62
     2
 10
-118.999954223633
 20
140.588241577148
 30
0.0
 11
-113.999954223633
 21
140.588241577148
 31
0.0
  0
LINE
  5
   397
  8
0
  6
CONTINUOUS
 62
     2
 10
-118.999954223633
 20
159.088241577148
 30
0.0
 11
-113.999954223633
 21
159.088241577148
 31
0.0
  0
LINE
  5
   398
  8
0
  6
CONTINUOUS
 62
     2
 10
-118.999954223633
 20
140.588241577148
 30
0.0
 11
-118.999954223633
 21
159.088241577148
 31
0.0
  0
LINE
  5
   399
  8
0
  6
CONTINUOUS
 62
     2
 10
-113.999954223633
 20
140.588241577148
 30
0.0
 11
-103.999954223633
 21
140.588241577148
 31
0.0
  0
LINE
  5
   39A
  8
0
  6
CONTINUOUS
 62
     2
 10
-113.999954223633
 20
159.088241577148
 30
0.0
 11
-103.999954223633
 21
159.088241577148
 31
0.0
  0
LINE
  5
   39B
  8
0
  6
CONTINUOUS
 62
     2
 10
-113.999954223633
 20
136.838272094727
 30
0.0
 11
-113.999954223633
 21
140.588272094727
 31
0.0
  0
LINE
  5
   39C
  8
0
  6
CONTINUOUS
 62
     2
 10
-113.999954223633
 20
159.088272094727
 30
0.0
 11
-113.999954223633
 21
162.838272094727
 31
0.0
  0
LINE
  5
   39D
  8
0
  6
CONTINUOUS
 62
     2
 10
-102.999954223633
 20
159.838272094727
 30
0.0
 11
-102.999954223633
 21
162.838272094727
 31
0.0
  0
LINE
  5
   39E
  8
0
  6
CONTINUOUS
 62
     2
 10
-102.999954223633
 20
136.838272094727
 30
0.0
 11
-102.999954223633
 21
139.838272094727
 31
0.0
  0
LINE
  5
   39F
  8
0
  6
CONTINUOUS
 62
     2
 10
-103.999954223633
 20
139.838272094727
 30
0.0
 11
-102.999954223633
 21
139.838272094727
 31
0.0
  0
LINE
  5
   3A0
  8
0
  6
CONTINUOUS
 62
     2
 10
-103.999954223633
 20
159.838272094727
 30
0.0
 11
-102.999954223633
 21
159.838272094727
 31
0.0
  0
LINE
  5
   3A1
  8
0
  6
CONTINUOUS
 62
     2
 10
-102.999954223633
 20
139.838272094727
 30
0.0
 11
-102.999954223633
 21
159.838272094727
 31
0.0
  0
LINE
  5
   3A2
  8
0
  6
CONTINUOUS
 62
     2
 10
-103.999954223633
 20
159.088241577148
 30
0.0
 11
-103.999954223633
 21
159.838272094727
 31
0.0
  0
LINE
  5
   3A3
  8
0
  6
CONTINUOUS
 62
     2
 10
-103.999954223633
 20
139.838272094727
 30
0.0
 11
-103.999954223633
 21
140.588241577148
 31
0.0
  0
LINE
  5
   3A4
  8
0
  6
CONTINUOUS
 62
     2
 10
-110.267906188965
 20
139.588287353516
 30
0.0
 11
-110.267906188965
 21
140.588241577148
 31
0.0
  0
LINE
  5
   3A5
  8
0
  6
CONTINUOUS
 62
     2
 10
-113.999955425772
 20
140.588273057154
 30
0.0
 11
-110.26790748659
 21
139.588288276883
 31
0.0
  0
LINE
  5
   3A6
  8
0
  6
CONTINUOUS
 62
     2
 10
-110.267906188965
 20
159.088287353516
 30
0.0
 11
-110.267906188965
 21
160.088287353516
 31
0.0
  0
LINE
  5
   3A7
  8
0
  6
CONTINUOUS
 62
     2
 10
-113.99994464545
 20
159.088264302966
 30
0.0
 11
-110.267896706263
 21
160.08827950751
 31
0.0
  0
LINE
  5
   3A8
  8
0
  6
CONTINUOUS
 62
     2
 10
-118.999954223633
 20
70.5882415771484
 30
0.0
 11
-113.999954223633
 21
70.5882415771484
 31
0.0
  0
LINE
  5
   3A9
  8
0
  6
CONTINUOUS
 62
     2
 10
-118.999954223633
 20
89.0882415771484
 30
0.0
 11
-113.999954223633
 21
89.0882415771484
 31
0.0
  0
LINE
  5
   3AA
  8
0
  6
CONTINUOUS
 62
     2
 10
-118.999954223633
 20
70.5882415771484
 30
0.0
 11
-118.999954223633
 21
89.0882415771484
 31
0.0
  0
LINE
  5
   3AB
  8
0
  6
CONTINUOUS
 62
     2
 10
-113.999954223693
 20
70.5882415771687
 30
0.0
 11
-103.999946594299
 21
70.5882492065635
 31
0.0
  0
LINE
  5
   3AC
  8
0
  6
CONTINUOUS
 62
     2
 10
-113.999954223699
 20
89.0882415771744
 30
0.0
 11
-103.999961853094
 21
89.0882492065689
 31
0.0
  0
LINE
  5
   3AD
  8
0
  6
CONTINUOUS
 62
     2
 10
-113.999954223633
 20
66.8382720947266
 30
0.0
 11
-113.999954223633
 21
70.588264465332
 31
0.0
  0
LINE
  5
   3AE
  8
0
  6
CONTINUOUS
 62
     2
 10
-113.999954223633
 20
89.0882720947265
 30
0.0
 11
-113.999954223633
 21
92.8382720947265
 31
0.0
  0
LINE
  5
   3AF
  8
0
  6
CONTINUOUS
 62
     2
 10
-102.999954223633
 20
89.8382720947266
 30
0.0
 11
-102.999954223633
 21
92.8382720947265
 31
0.0
  0
LINE
  5
   3B0
  8
0
  6
CONTINUOUS
 62
     2
 10
-102.999954223633
 20
66.8382720947266
 30
0.0
 11
-102.999954223633
 21
69.8382720947266
 31
0.0
  0
LINE
  5
   3B1
  8
0
  6
CONTINUOUS
 62
     2
 10
-103.999954223633
 20
69.8382720947266
 30
0.0
 11
-102.999954223633
 21
69.8382720947266
 31
0.0
  0
LINE
  5
   3B2
  8
0
  6
CONTINUOUS
 62
     2
 10
-103.999954223633
 20
89.8382720947266
 30
0.0
 11
-102.999954223633
 21
89.8382720947266
 31
0.0
  0
LINE
  5
   3B3
  8
0
  6
CONTINUOUS
 62
     2
 10
-102.999954223633
 20
69.8382720947266
 30
0.0
 11
-102.999954223633
 21
89.8382720947266
 31
0.0
  0
LINE
  5
   3B4
  8
0
  6
CONTINUOUS
 62
     2
 10
-103.999954223633
 20
89.0882415771484
 30
0.0
 11
-103.999954223633
 21
89.8382720947266
 31
0.0
  0
LINE
  5
   3B5
  8
0
  6
CONTINUOUS
 62
     2
 10
-103.999954223633
 20
69.8382720947266
 30
0.0
 11
-103.999954223633
 21
70.5882415771484
 31
0.0
  0
LINE
  5
   3B6
  8
0
  6
CONTINUOUS
 62
     2
 10
-110.267906188965
 20
69.5882873535156
 30
0.0
 11
-110.267906188965
 21
70.5882415771484
 31
0.0
  0
LINE
  5
   3B7
  8
0
  6
CONTINUOUS
 62
     2
 10
-113.999951268927
 20
70.5882632383026
 30
0.0
 11
-110.267903329751
 21
69.588286090802
 31
0.0
  0
LINE
  5
   3B8
  8
0
  6
CONTINUOUS
 62
     2
 10
-110.267906188965
 20
89.0882949829101
 30
0.0
 11
-110.267906188965
 21
90.0882949829101
 31
0.0
  0
LINE
  5
   3B9
  8
0
  6
CONTINUOUS
 62
     2
 10
-113.999947051747
 20
89.0882696006441
 30
0.0
 11
-110.267899112563
 21
90.0882924379935
 31
0.0
  0
LINE
  5
   3BA
  8
0
  6
CONTINUOUS
 62
     2
 10
-113.999954223633
 20
101.838272094727
 30
0.0
 11
-102.999954223633
 21
101.838272094727
 31
0.0
  0
LINE
  5
   3BB
  8
0
  6
CONTINUOUS
 62
     2
 10
-113.999954223633
 20
127.838272094727
 30
0.0
 11
-102.999954223633
 21
127.838272094727
 31
0.0
  0
LINE
  5
   3BC
  8
0
  6
CONTINUOUS
 62
     2
 10
-102.999953505902
 20
127.338271403704
 30
0.0
 11
-100.999954223633
 21
127.271604765435
 31
0.0
  0
LINE
  5
   3BD
  8
0
  6
CONTINUOUS
 62
     2
 10
-102.999953545005
 20
102.338271610061
 30
0.0
 11
-100.999954223633
 21
102.404938249634
 31
0.0
  0
LINE
  5
   3BE
  8
0
  6
CONTINUOUS
 62
     2
 10
-113.999954223633
 20
136.838272094727
 30
0.0
 11
-102.999954223633
 21
136.838272094727
 31
0.0
  0
LINE
  5
   3BF
  8
0
  6
CONTINUOUS
 62
     2
 10
-113.999954223633
 20
162.838272094727
 30
0.0
 11
-102.999954223633
 21
162.838272094727
 31
0.0
  0
LINE
  5
   3C0
  8
0
  6
CONTINUOUS
 62
     2
 10
-102.999953499943
 20
162.338271224543
 30
0.0
 11
-100.999954223633
 21
162.271604586472
 31
0.0
  0
LINE
  5
   3C1
  8
0
  6
CONTINUOUS
 62
     2
 10
-102.999953550963
 20
137.3382714309
 30
0.0
 11
-100.999954223633
 21
137.404938070672
 31
0.0
  0
LINE
  5
   3C2
  8
0
  6
CONTINUOUS
 62
     2
 10
-113.999954223633
 20
66.8382720947266
 30
0.0
 11
-102.999954223633
 21
66.8382720947266
 31
0.0
  0
LINE
  5
   3C3
  8
0
  6
CONTINUOUS
 62
     2
 10
-113.999954223633
 20
92.8382720947266
 30
0.0
 11
-102.999954223633
 21
92.8382720947266
 31
0.0
  0
LINE
  5
   3C4
  8
0
  6
CONTINUOUS
 62
     2
 10
-102.999953511861
 20
92.3382715828651
 30
0.0
 11
-100.999954223633
 21
92.271604944397
 31
0.0
  0
LINE
  5
   3C5
  8
0
  6
CONTINUOUS
 62
     2
 10
-102.999953539046
 20
67.3382717892224
 30
0.0
 11
-100.999954223633
 21
67.4049384285966
 31
0.0
  0
LINE
  5
   3C6
  8
0
  6
CONTINUOUS
 62
   210
 10
-121.499954223633
 20
34.5882568359375
 30
0.0
 11
-121.499954223633
 21
55.0882568359375
 31
0.0
  0
LINE
  5
   3C7
  8
0
  6
CONTINUOUS
 62
   210
 10
-121.499954223633
 20
34.5882568359375
 30
0.0
 11
-113.999954223633
 21
34.5882568359375
 31
0.0
  0
LINE
  5
   3C8
  8
0
  6
CONTINUOUS
 62
   210
 10
-121.499954223633
 20
55.0882568359375
 30
0.0
 11
-113.999954223633
 21
55.0882568359375
 31
0.0
  0
LINE
  5
   3C9
  8
0
  6
CONTINUOUS
 62
   212
 10
-119.499954223633
 20
36.3382415771484
 30
0.0
 11
-118.999954223633
 21
36.3382415771484
 31
0.0
  0
LINE
  5
   3CA
  8
0
  6
CONTINUOUS
 62
   212
 10
-119.499954223633
 20
53.3382415771484
 30
0.0
 11
-118.999954223633
 21
53.3382415771484
 31
0.0
  0
LINE
  5
   3CB
  8
0
  6
CONTINUOUS
 62
   212
 10
-119.499954223633
 20
41.3382415771484
 30
0.0
 11
-118.999954223633
 21
41.3382415771484
 31
0.0
  0
LINE
  5
   3CC
  8
0
  6
CONTINUOUS
 62
   212
 10
-119.499954223633
 20
48.3382415771484
 30
0.0
 11
-118.999954223633
 21
48.3382415771484
 31
0.0
  0
LINE
  5
   3CD
  8
0
  6
CONTINUOUS
 62
   210
 10
-102.999954223633
 20
57.3382716065908
 30
0.0
 11
-102.999954223633
 21
62.3382568359375
 31
0.0
  0
LINE
  5
   3CE
  8
0
  6
CONTINUOUS
 62
     2
 10
-118.999954223633
 20
35.5882415771484
 30
0.0
 11
-113.999954223633
 21
35.5882415771484
 31
0.0
  0
LINE
  5
   3CF
  8
0
  6
CONTINUOUS
 62
     2
 10
-118.999954223633
 20
54.0882415771484
 30
0.0
 11
-113.999954223633
 21
54.0882415771484
 31
0.0
  0
LINE
  5
   3D0
  8
0
  6
CONTINUOUS
 62
     2
 10
-118.999954223633
 20
35.5882415771484
 30
0.0
 11
-118.999954223633
 21
54.0882415771484
 31
0.0
  0
LINE
  5
   3D1
  8
0
  6
CONTINUOUS
 62
     2
 10
-113.999954223693
 20
35.5882415771688
 30
0.0
 11
-103.999946594299
 21
35.5882492065635
 31
0.0
  0
LINE
  5
   3D2
  8
0
  6
CONTINUOUS
 62
     2
 10
-113.999954223699
 20
54.0882415771744
 30
0.0
 11
-103.999961853094
 21
54.0882492065689
 31
0.0
  0
LINE
  5
   3D3
  8
0
  6
CONTINUOUS
 62
     2
 10
-113.999954223633
 20
31.8382720947266
 30
0.0
 11
-113.999954223633
 21
35.588264465332
 31
0.0
  0
LINE
  5
   3D4
  8
0
  6
CONTINUOUS
 62
     2
 10
-113.999954223633
 20
54.0882720947265
 30
0.0
 11
-113.999954223633
 21
57.8382720947265
 31
0.0
  0
LINE
  5
   3D5
  8
0
  6
CONTINUOUS
 62
     2
 10
-102.999954223633
 20
54.8382720947266
 30
0.0
 11
-102.999954223633
 21
57.8382720947265
 31
0.0
  0
LINE
  5
   3D6
  8
0
  6
CONTINUOUS
 62
     2
 10
-102.999954223633
 20
31.8382720947266
 30
0.0
 11
-102.999954223633
 21
34.8382720947266
 31
0.0
  0
LINE
  5
   3D7
  8
0
  6
CONTINUOUS
 62
     2
 10
-103.999954223633
 20
34.8382720947266
 30
0.0
 11
-102.999954223633
 21
34.8382720947266
 31
0.0
  0
LINE
  5
   3D8
  8
0
  6
CONTINUOUS
 62
     2
 10
-103.999954223633
 20
54.8382720947266
 30
0.0
 11
-102.999954223633
 21
54.8382720947266
 31
0.0
  0
LINE
  5
   3D9
  8
0
  6
CONTINUOUS
 62
     2
 10
-102.999954223633
 20
34.8382720947266
 30
0.0
 11
-102.999954223633
 21
54.8382720947266
 31
0.0
  0
LINE
  5
   3DA
  8
0
  6
CONTINUOUS
 62
     2
 10
-103.999954223633
 20
54.0882415771484
 30
0.0
 11
-103.999954223633
 21
54.8382720947266
 31
0.0
  0
LINE
  5
   3DB
  8
0
  6
CONTINUOUS
 62
     2
 10
-103.999954223633
 20
34.8382720947266
 30
0.0
 11
-103.999954223633
 21
35.5882415771484
 31
0.0
  0
LINE
  5
   3DC
  8
0
  6
CONTINUOUS
 62
     2
 10
-110.267906188965
 20
34.5882873535156
 30
0.0
 11
-110.267906188965
 21
35.5882415771484
 31
0.0
  0
LINE
  5
   3DD
  8
0
  6
CONTINUOUS
 62
     2
 10
-113.999951268927
 20
35.5882632383026
 30
0.0
 11
-110.267903329751
 21
34.588286090802
 31
0.0
  0
LINE
  5
   3DE
  8
0
  6
CONTINUOUS
 62
     2
 10
-110.267906188965
 20
54.0882949829101
 30
0.0
 11
-110.267906188965
 21
55.0882949829101
 31
0.0
  0
LINE
  5
   3DF
  8
0
  6
CONTINUOUS
 62
     2
 10
-113.999947051747
 20
54.0882696006441
 30
0.0
 11
-110.267899112563
 21
55.0882924379935
 31
0.0
  0
LINE
  5
   3E0
  8
0
  6
CONTINUOUS
 62
     2
 10
-113.999954223633
 20
31.8382720947266
 30
0.0
 11
-102.999954223633
 21
31.8382720947266
 31
0.0
  0
LINE
  5
   3E1
  8
0
  6
CONTINUOUS
 62
     2
 10
-113.999954223633
 20
57.8382720947266
 30
0.0
 11
-102.999954223633
 21
57.8382720947266
 31
0.0
  0
LINE
  5
   3E2
  8
0
  6
CONTINUOUS
 62
     2
 10
-102.999953511861
 20
57.3382715828651
 30
0.0
 11
-100.999954223633
 21
57.2716049443969
 31
0.0
  0
LINE
  5
   3E3
  8
0
  6
CONTINUOUS
 62
     2
 10
-102.999953539046
 20
32.3382717892224
 30
0.0
 11
-100.999954223633
 21
32.4049384285966
 31
0.0
  0
LINE
  5
   3E4
  8
0
  6
CONTINUOUS
 62
   210
 10
-102.999954223633
 20
62.3382568359375
 30
0.0
 11
-102.999954223633
 21
67.3382715874405
 31
0.0
  0
LINE
  5
   3E5
  8
0
  6
CONTINUOUS
 62
     7
 10
-140.0
 20
27.3382987976074
 30
0.0
 11
-140.0
 21
62.3382568359375
 31
0.0
  0
LINE
  5
   3E6
  8
0
  6
CONTINUOUS
 62
   253
 10
-166.999954223633
 20
33.8382415771484
 30
0.0
 11
-166.999954223633
 21
55.8382415771484
 31
0.0
  0
LINE
  5
   3E7
  8
0
  6
CONTINUOUS
 62
     7
 10
-189.299957275391
 20
68.8382110595703
 30
0.0
 11
-189.299957275391
 21
90.8382110595703
 31
0.0
  0
LINE
  5
   3E8
  8
0
  6
CONTINUOUS
 62
     7
 10
-191.799957275391
 20
68.8382110595703
 30
0.0
 11
-191.799957275391
 21
70.3382110595703
 31
0.0
  0
LINE
  5
   3E9
  8
0
  6
CONTINUOUS
 62
     7
 10
-191.799957275391
 20
70.4813995361328
 30
0.0
 11
-191.799957275391
 21
89.1950225830078
 31
0.0
  0
LINE
  5
   3EA
  8
0
  6
CONTINUOUS
 62
     7
 10
-191.799957275391
 20
89.3382110595703
 30
0.0
 11
-191.799957275391
 21
90.8382110595703
 31
0.0
  0
LINE
  5
   3EB
  8
0
  6
CONTINUOUS
 62
     7
 10
-180.799957275391
 20
89.3382110595703
 30
0.0
 11
-180.799957275391
 21
90.8382110595703
 31
0.0
  0
LINE
  5
   3EC
  8
0
  6
CONTINUOUS
 62
     7
 10
-180.799957275391
 20
70.4813995361328
 30
0.0
 11
-180.799957275391
 21
89.1950225830078
 31
0.0
  0
LINE
  5
   3ED
  8
0
  6
CONTINUOUS
 62
     7
 10
-180.799957275391
 20
68.8382110595703
 30
0.0
 11
-180.799957275391
 21
70.3382110595703
 31
0.0
  0
LINE
  5
   3EE
  8
0
  6
CONTINUOUS
 62
     7
 10
-183.299957275391
 20
68.8382110595703
 30
0.0
 11
-183.299957275391
 21
90.8382110595703
 31
0.0
  0
LINE
  5
   3EF
  8
0
  6
CONTINUOUS
 62
     3
 10
-173.799957275391
 20
89.3382110595703
 30
0.0
 11
-167.799957275391
 21
89.3382110595703
 31
0.0
  0
LINE
  5
   3F0
  8
0
  6
CONTINUOUS
 62
     3
 10
-173.799957275391
 20
70.3382110595703
 30
0.0
 11
-167.799957275391
 21
70.3382110595703
 31
0.0
  0
LINE
  5
   3F1
  8
0
  6
CONTINUOUS
 62
     3
 10
-173.799957275391
 20
70.3382110595703
 30
0.0
 11
-173.799957275391
 21
89.3382110595703
 31
0.0
  0
LINE
  5
   3F2
  8
0
  6
CONTINUOUS
 62
     3
 10
-167.799957275391
 20
86.9323883056641
 30
0.0
 11
-167.799957275391
 21
89.3382110595703
 31
0.0
  0
LINE
  5
   3F3
  8
0
  6
CONTINUOUS
 62
     3
 10
-167.799957275391
 20
77.5238037109375
 30
0.0
 11
-167.799957275391
 21
82.1526031494141
 31
0.0
  0
LINE
  5
   3F4
  8
0
  6
CONTINUOUS
 62
     3
 10
-167.799957275391
 20
70.3382110595703
 30
0.0
 11
-167.799957275391
 21
72.7439956665039
 31
0.0
  0
LINE
  5
   3F5
  8
0
  6
CONTINUOUS
 62
     3
 10
-180.799957275391
 20
89.3382110595703
 30
0.0
 11
-174.799957275391
 21
89.3382110595703
 31
0.0
  0
LINE
  5
   3F6
  8
0
  6
CONTINUOUS
 62
     3
 10
-180.799957275391
 20
70.3382110595703
 30
0.0
 11
-174.799957275391
 21
70.3382110595703
 31
0.0
  0
LINE
  5
   3F7
  8
0
  6
CONTINUOUS
 62
     3
 10
-180.799957275391
 20
70.3382110595703
 30
0.0
 11
-180.799957275391
 21
70.4813995361328
 31
0.0
  0
LINE
  5
   3F8
  8
0
  6
CONTINUOUS
 62
     3
 10
-180.799957275391
 20
89.1950149536133
 30
0.0
 11
-180.799957275391
 21
89.3382110595703
 31
0.0
  0
LINE
  5
   3F9
  8
0
  6
CONTINUOUS
 62
     3
 10
-174.799957275391
 20
70.3382110595703
 30
0.0
 11
-174.799957275391
 21
89.3382110595703
 31
0.0
  0
LINE
  5
   3FA
  8
0
  6
CONTINUOUS
 62
     3
 10
-197.799957275391
 20
89.3382110595703
 30
0.0
 11
-191.799957275391
 21
89.3382110595703
 31
0.0
  0
LINE
  5
   3FB
  8
0
  6
CONTINUOUS
 62
     3
 10
-197.799957275391
 20
70.3382110595703
 30
0.0
 11
-191.799957275391
 21
70.3382110595703
 31
0.0
  0
LINE
  5
   3FC
  8
0
  6
CONTINUOUS
 62
     3
 10
-191.799957275391
 20
89.1950149536133
 30
0.0
 11
-191.799957275391
 21
89.3382110595703
 31
0.0
  0
LINE
  5
   3FD
  8
0
  6
CONTINUOUS
 62
     3
 10
-191.799957275391
 20
70.3382110595703
 30
0.0
 11
-191.799957275391
 21
70.4813995361328
 31
0.0
  0
LINE
  5
   3FE
  8
0
  6
CONTINUOUS
 62
     3
 10
-197.799957275391
 20
70.3382110595703
 30
0.0
 11
-197.799957275391
 21
89.3382110595703
 31
0.0
  0
LINE
  5
   3FF
  8
0
  6
CONTINUOUS
 62
     7
 10
-167.799957275391
 20
69.8382110595703
 30
0.0
 11
-167.799957275391
 21
70.3382110595703
 31
0.0
  0
LINE
  5
   400
  8
0
  6
CONTINUOUS
 62
     7
 10
-167.799957275391
 20
72.7440185546875
 30
0.0
 11
-167.799957275391
 21
77.5237884521484
 31
0.0
  0
LINE
  5
   401
  8
0
  6
CONTINUOUS
 62
     7
 10
-167.799957275391
 20
82.1526184082031
 30
0.0
 11
-167.799957275391
 21
86.9324188232422
 31
0.0
  0
LINE
  5
   402
  8
0
  6
CONTINUOUS
 62
     7
 10
-167.799957275391
 20
89.3382110595703
 30
0.0
 11
-167.799957275391
 21
89.8382110595703
 31
0.0
  0
LINE
  5
   403
  8
0
  6
CONTINUOUS
 62
   212
 10
-200.499954223633
 20
75.8382415771484
 30
0.0
 11
-200.499954223633
 21
83.8382415771484
 31
0.0
  0
LINE
  5
   404
  8
0
  6
CONTINUOUS
 62
   253
 10
-167.0
 20
32.8382568359375
 30
0.0
 11
-167.0
 21
33.8382415771484
 31
0.0
  0
LINE
  5
   405
  8
0
  6
CONTINUOUS
 62
   253
 10
-167.0
 20
55.8382415771484
 30
0.0
 11
-167.0
 21
56.8382568359375
 31
0.0
  0
LINE
  5
   406
  8
0
  6
CONTINUOUS
 62
     7
 10
-232.799957275391
 20
54.3382415771484
 30
0.0
 11
-232.799957275391
 21
55.8382415771484
 31
0.0
  0
LINE
  5
   407
  8
0
  6
CONTINUOUS
 62
     7
 10
-232.799957275391
 20
35.4814224243164
 30
0.0
 11
-232.799957275391
 21
54.1950531005859
 31
0.0
  0
LINE
  5
   408
  8
0
  6
CONTINUOUS
 62
     7
 10
-232.799957275391
 20
33.8382415771484
 30
0.0
 11
-232.799957275391
 21
35.3382415771484
 31
0.0
  0
LINE
  5
   409
  8
0
  6
CONTINUOUS
 62
     7
 10
-235.299957275391
 20
33.8382415771484
 30
0.0
 11
-235.299957275391
 21
55.8382415771484
 31
0.0
  0
LINE
  5
   40A
  8
0
  6
CONTINUOUS
 62
     7
 10
-241.299957275391
 20
33.8382415771484
 30
0.0
 11
-241.299957275391
 21
55.8382415771484
 31
0.0
  0
LINE
  5
   40B
  8
0
  6
CONTINUOUS
 62
     7
 10
-243.799957275391
 20
33.8382415771484
 30
0.0
 11
-243.799957275391
 21
35.3382415771484
 31
0.0
  0
LINE
  5
   40C
  8
0
  6
CONTINUOUS
 62
     7
 10
-243.799957275391
 20
35.4814224243164
 30
0.0
 11
-243.799957275391
 21
54.1950531005859
 31
0.0
  0
LINE
  5
   40D
  8
0
  6
CONTINUOUS
 62
     7
 10
-243.799957275391
 20
54.3382415771484
 30
0.0
 11
-243.799957275391
 21
55.8382415771484
 31
0.0
  0
LINE
  5
   40E
  8
0
  6
CONTINUOUS
 62
     3
 10
-225.799957275391
 20
35.3382415771484
 30
0.0
 11
-219.799957275391
 21
35.3382415771484
 31
0.0
  0
LINE
  5
   40F
  8
0
  6
CONTINUOUS
 62
     3
 10
-225.799957275391
 20
54.3382415771484
 30
0.0
 11
-219.799957275391
 21
54.3382415771484
 31
0.0
  0
LINE
  5
   410
  8
0
  6
CONTINUOUS
 62
     3
 10
-225.799957275391
 20
35.3382415771484
 30
0.0
 11
-225.799957275391
 21
54.3382415771484
 31
0.0
  0
LINE
  5
   411
  8
0
  6
CONTINUOUS
 62
     3
 10
-219.799957275391
 20
51.9324417114258
 30
0.0
 11
-219.799957275391
 21
54.3382415771484
 31
0.0
  0
LINE
  5
   412
  8
0
  6
CONTINUOUS
 62
     3
 10
-219.799957275391
 20
42.5238418579101
 30
0.0
 11
-219.799957275391
 21
47.1526489257812
 31
0.0
  0
LINE
  5
   413
  8
0
  6
CONTINUOUS
 62
     3
 10
-219.799957275391
 20
35.3382415771484
 30
0.0
 11
-219.799957275391
 21
37.744026184082
 31
0.0
  0
LINE
  5
   414
  8
0
  6
CONTINUOUS
 62
     3
 10
-232.799957275391
 20
35.3382415771484
 30
0.0
 11
-226.799957275391
 21
35.3382415771484
 31
0.0
  0
LINE
  5
   415
  8
0
  6
CONTINUOUS
 62
     3
 10
-232.799957275391
 20
54.3382415771484
 30
0.0
 11
-226.799957275391
 21
54.3382415771484
 31
0.0
  0
LINE
  5
   416
  8
0
  6
CONTINUOUS
 62
     3
 10
-232.799957275391
 20
35.3382415771484
 30
0.0
 11
-232.799957275391
 21
35.4814224243164
 31
0.0
  0
LINE
  5
   417
  8
0
  6
CONTINUOUS
 62
     3
 10
-232.799957275391
 20
54.1950454711914
 30
0.0
 11
-232.799957275391
 21
54.3382415771484
 31
0.0
  0
LINE
  5
   418
  8
0
  6
CONTINUOUS
 62
     3
 10
-226.799957275391
 20
35.3382415771484
 30
0.0
 11
-226.799957275391
 21
54.3382415771484
 31
0.0
  0
LINE
  5
   419
  8
0
  6
CONTINUOUS
 62
     3
 10
-249.799957275391
 20
35.3382415771484
 30
0.0
 11
-243.799957275391
 21
35.3382415771484
 31
0.0
  0
LINE
  5
   41A
  8
0
  6
CONTINUOUS
 62
     3
 10
-249.799957275391
 20
54.3382415771484
 30
0.0
 11
-243.799957275391
 21
54.3382415771484
 31
0.0
  0
LINE
  5
   41B
  8
0
  6
CONTINUOUS
 62
     3
 10
-243.799957275391
 20
54.1950454711914
 30
0.0
 11
-243.799957275391
 21
54.3382415771484
 31
0.0
  0
LINE
  5
   41C
  8
0
  6
CONTINUOUS
 62
     3
 10
-243.799957275391
 20
35.3382415771484
 30
0.0
 11
-243.799957275391
 21
35.4814224243164
 31
0.0
  0
LINE
  5
   41D
  8
0
  6
CONTINUOUS
 62
     3
 10
-249.799957275391
 20
35.3382415771484
 30
0.0
 11
-249.799957275391
 21
54.3382415771484
 31
0.0
  0
LINE
  5
   41E
  8
0
  6
CONTINUOUS
 62
     7
 10
-218.999954223633
 20
34.8382415771484
 30
0.0
 11
-218.999954223633
 21
54.8382415771484
 31
0.0
  0
LINE
  5
   41F
  8
0
  6
CONTINUOUS
 62
     7
 10
-219.799957275391
 20
34.8382415771484
 30
0.0
 11
-219.799957275391
 21
35.3382415771484
 31
0.0
  0
LINE
  5
   420
  8
0
  6
CONTINUOUS
 62
     7
 10
-219.799957275391
 20
37.7440185546875
 30
0.0
 11
-219.799957275391
 21
42.5238342285156
 31
0.0
  0
LINE
  5
   421
  8
0
  6
CONTINUOUS
 62
     7
 10
-219.799957275391
 20
47.1526412963867
 30
0.0
 11
-219.799957275391
 21
51.9324340820312
 31
0.0
  0
LINE
  5
   422
  8
0
  6
CONTINUOUS
 62
     7
 10
-219.799957275391
 20
54.3382415771484
 30
0.0
 11
-219.799957275391
 21
54.8382415771484
 31
0.0
  0
LINE
  5
   423
  8
0
  6
CONTINUOUS
 62
   212
 10
-252.499954223633
 20
40.8382415771484
 30
0.0
 11
-252.499954223633
 21
48.8382415771484
 31
0.0
  0
LINE
  5
   424
  8
0
  6
CONTINUOUS
 62
   253
 10
-165.999954223633
 20
56.8382415771484
 30
0.0
 11
-150.999954223633
 21
56.8382415771484
 31
0.0
  0
LINE
  5
   425
  8
0
  6
CONTINUOUS
 62
   253
 10
-165.999954223633
 20
32.8382415771484
 30
0.0
 11
-150.999954223633
 21
32.8382415771484
 31
0.0
  0
LINE
  5
   426
  8
0
  6
CONTINUOUS
 62
   253
 10
-166.999951013324
 20
55.8382397757451
 30
0.0
 11
-165.999951047553
 21
56.8382397415165
 31
0.0
  0
LINE
  5
   427
  8
0
  6
CONTINUOUS
 62
   253
 10
-166.999949047951
 20
33.8382374824335
 30
0.0
 11
-165.99994908218
 21
32.838237516662
 31
0.0
  0
LINE
  5
   428
  8
0
  6
CONTINUOUS
 62
     7
 10
-191.799957275391
 20
90.8382110595703
 30
0.0
 11
-189.299957275391
 21
90.8382110595703
 31
0.0
  0
LINE
  5
   429
  8
0
  6
CONTINUOUS
 62
     7
 10
-191.799957275391
 20
68.8382110595703
 30
0.0
 11
-189.299957275391
 21
68.8382110595703
 31
0.0
  0
LINE
  5
   42A
  8
0
  6
CONTINUOUS
 62
     7
 10
-183.299957275391
 20
90.8382110595703
 30
0.0
 11
-180.799957275391
 21
90.8382110595703
 31
0.0
  0
LINE
  5
   42B
  8
0
  6
CONTINUOUS
 62
     7
 10
-183.299957275391
 20
68.8382110595703
 30
0.0
 11
-180.799957275391
 21
68.8382110595703
 31
0.0
  0
LINE
  5
   42C
  8
0
  6
CONTINUOUS
 62
     7
 10
-167.799957275391
 20
89.8382110595703
 30
0.0
 11
-166.999954223633
 21
89.8382110595703
 31
0.0
  0
LINE
  5
   42D
  8
0
  6
CONTINUOUS
 62
     7
 10
-167.799957275391
 20
69.8382110595703
 30
0.0
 11
-166.999954223633
 21
69.8382110595703
 31
0.0
  0
LINE
  5
   42E
  8
0
  6
CONTINUOUS
 62
   212
 10
-200.499950093432
 20
83.8382402421089
 30
0.0
 11
-198.499950161889
 21
85.8382401736519
 31
0.0
  0
LINE
  5
   42F
  8
0
  6
CONTINUOUS
 62
   212
 10
-200.499948128059
 20
75.8382370160696
 30
0.0
 11
-198.499948196516
 21
73.8382370845266
 31
0.0
  0
LINE
  5
   430
  8
0
  6
CONTINUOUS
 62
   212
 10
-198.499954223633
 20
85.8382415771484
 30
0.0
 11
-197.799957275391
 21
85.8382415771484
 31
0.0
  0
LINE
  5
   431
  8
0
  6
CONTINUOUS
 62
   212
 10
-189.299957275391
 20
85.8382415771484
 30
0.0
 11
-183.299957275391
 21
85.8382415771484
 31
0.0
  0
LINE
  5
   432
  8
0
  6
CONTINUOUS
 62
   212
 10
-174.799957275391
 20
85.8382415771484
 30
0.0
 11
-173.799957275391
 21
85.8382415771484
 31
0.0
  0
LINE
  5
   433
  8
0
  6
CONTINUOUS
 62
   212
 10
-198.499954223633
 20
73.8382415771484
 30
0.0
 11
-198.499954223633
 21
85.8382415771484
 31
0.0
  0
LINE
  5
   434
  8
0
  6
CONTINUOUS
 62
   212
 10
-198.499954223633
 20
73.8382415771484
 30
0.0
 11
-197.799957275391
 21
73.8382415771484
 31
0.0
  0
LINE
  5
   435
  8
0
  6
CONTINUOUS
 62
   212
 10
-189.299957275391
 20
73.8382415771484
 30
0.0
 11
-183.299957275391
 21
73.8382415771484
 31
0.0
  0
LINE
  5
   436
  8
0
  6
CONTINUOUS
 62
   212
 10
-174.799957275391
 20
73.8382415771484
 30
0.0
 11
-173.799957275391
 21
73.8382415771484
 31
0.0
  0
LINE
  5
   437
  8
0
  6
CONTINUOUS
 62
   253
 10
-167.0
 20
56.8382568359375
 30
0.0
 11
-165.999954223633
 21
56.8382568359375
 31
0.0
  0
LINE
  5
   438
  8
0
  6
CONTINUOUS
 62
   253
 10
-167.0
 20
32.8382568359375
 30
0.0
 11
-165.999954223633
 21
32.8382568359375
 31
0.0
  0
LINE
  5
   439
  8
0
  6
CONTINUOUS
 62
   253
 10
-218.0
 20
54.8382568359375
 30
0.0
 11
-166.999954223633
 21
54.8382568359375
 31
0.0
  0
LINE
  5
   43A
  8
0
  6
CONTINUOUS
 62
   253
 10
-218.0
 20
34.8382568359375
 30
0.0
 11
-166.999954223633
 21
34.8382568359375
 31
0.0
  0
LINE
  5
   43B
  8
0
  6
CONTINUOUS
 62
   253
 10
-218.707111981906
 20
54.5453575739707
 30
0.0
 11
-218.000004431085
 21
54.8382576490049
 31
0.0
  0
LINE
  5
   43C
  8
0
  6
CONTINUOUS
 62
   253
 10
-218.999995859702
 20
53.8382537693345
 30
0.0
 11
-218.707103403151
 21
54.5453536749582
 31
0.0
  0
LINE
  5
   43D
  8
0
  6
CONTINUOUS
 62
   253
 10
-218.707112343664
 20
35.1311514387486
 30
0.0
 11
-218.000004799595
 21
34.8382589821824
 31
0.0
  0
LINE
  5
   43E
  8
0
  6
CONTINUOUS
 62
   253
 10
-219.00000313291
 20
35.8382597974866
 30
0.0
 11
-218.707110676343
 21
35.1311522534174
 31
0.0
  0
LINE
  5
   43F
  8
0
  6
CONTINUOUS
 62
     7
 10
-235.299957275391
 20
33.8382415771484
 30
0.0
 11
-232.799957275391
 21
33.8382415771484
 31
0.0
  0
LINE
  5
   440
  8
0
  6
CONTINUOUS
 62
     7
 10
-235.299957275391
 20
55.8382415771484
 30
0.0
 11
-232.799957275391
 21
55.8382415771484
 31
0.0
  0
LINE
  5
   441
  8
0
  6
CONTINUOUS
 62
     7
 10
-243.799957275391
 20
33.8382415771484
 30
0.0
 11
-241.299957275391
 21
33.8382415771484
 31
0.0
  0
LINE
  5
   442
  8
0
  6
CONTINUOUS
 62
     7
 10
-243.799957275391
 20
55.8382415771484
 30
0.0
 11
-241.299957275391
 21
55.8382415771484
 31
0.0
  0
LINE
  5
   443
  8
0
  6
CONTINUOUS
 62
     3
 10
-225.799957275391
 20
44.8382415771484
 30
0.0
 11
-219.799957275391
 21
44.8382415771484
 31
0.0
  0
LINE
  5
   444
  8
0
  6
CONTINUOUS
 62
     3
 10
-232.799957275391
 20
44.8382415771484
 30
0.0
 11
-226.799957275391
 21
44.8382415771484
 31
0.0
  0
LINE
  5
   445
  8
0
  6
CONTINUOUS
 62
     3
 10
-249.799957275391
 20
44.8382415771484
 30
0.0
 11
-243.799957275391
 21
44.8382415771484
 31
0.0
  0
LINE
  5
   446
  8
0
  6
CONTINUOUS
 62
     7
 10
-219.799957275391
 20
34.8382415771484
 30
0.0
 11
-218.999954223633
 21
34.8382415771484
 31
0.0
  0
LINE
  5
   447
  8
0
  6
CONTINUOUS
 62
     7
 10
-219.799957275391
 20
54.8382415771484
 30
0.0
 11
-218.999954223633
 21
54.8382415771484
 31
0.0
  0
LINE
  5
   448
  8
0
  6
CONTINUOUS
 62
   212
 10
-252.499946793146
 20
40.8382365710985
 30
0.0
 11
-250.499946861603
 21
38.8382366395556
 31
0.0
  0
LINE
  5
   449
  8
0
  6
CONTINUOUS
 62
   212
 10
-252.499948758519
 20
48.8382406870799
 30
0.0
 11
-250.499948826976
 21
50.8382406186229
 31
0.0
  0
LINE
  5
   44A
  8
0
  6
CONTINUOUS
 62
   212
 10
-250.499954223633
 20
38.8382415771484
 30
0.0
 11
-249.799957275391
 21
38.8382415771484
 31
0.0
  0
LINE
  5
   44B
  8
0
  6
CONTINUOUS
 62
   212
 10
-241.299957275391
 20
38.8382415771484
 30
0.0
 11
-235.299957275391
 21
38.8382415771484
 31
0.0
  0
LINE
  5
   44C
  8
0
  6
CONTINUOUS
 62
   212
 10
-226.799957275391
 20
38.8382415771484
 30
0.0
 11
-225.799957275391
 21
38.8382415771484
 31
0.0
  0
LINE
  5
   44D
  8
0
  6
CONTINUOUS
 62
   212
 10
-250.499954223633
 20
38.8382415771484
 30
0.0
 11
-250.499954223633
 21
50.8382415771484
 31
0.0
  0
LINE
  5
   44E
  8
0
  6
CONTINUOUS
 62
   212
 10
-250.499954223633
 20
50.8382415771484
 30
0.0
 11
-249.799957275391
 21
50.8382415771484
 31
0.0
  0
LINE
  5
   44F
  8
0
  6
CONTINUOUS
 62
   212
 10
-241.299957275391
 20
50.8382415771484
 30
0.0
 11
-235.299957275391
 21
50.8382415771484
 31
0.0
  0
LINE
  5
   450
  8
0
  6
CONTINUOUS
 62
   212
 10
-226.799957275391
 20
50.8382415771484
 30
0.0
 11
-225.799957275391
 21
50.8382415771484
 31
0.0
  0
LINE
  5
   451
  8
0
  6
CONTINUOUS
 62
     3
 10
-152.0
 20
56.8382415771484
 30
0.0
 11
-152.0
 21
67.8382568359375
 31
0.0
  0
LINE
  5
   452
  8
0
  6
CONTINUOUS
 62
   210
 10
-150.5
 20
57.3382568359375
 30
0.0
 11
-150.5
 21
67.3382263183594
 31
0.0
  0
LINE
  5
   453
  8
0
  6
CONTINUOUS
 62
     7
 10
-150.5
 20
57.3382568359375
 30
0.0
 11
-140.0
 21
57.3382568359375
 31
0.0
  0
LINE
  5
   454
  8
0
  6
CONTINUOUS
 62
     7
 10
-150.5
 20
67.3382263183594
 30
0.0
 11
-140.0
 21
67.3382263183594
 31
0.0
  0
LINE
  5
   455
  8
0
  6
CONTINUOUS
 62
     7
 10
-146.5
 20
57.3382568359375
 30
0.0
 11
-146.5
 21
67.3382263183594
 31
0.0
  0
LINE
  5
   456
  8
0
  6
CONTINUOUS
 62
   210
 10
-151.0
 20
32.8382415771484
 30
0.0
 11
-151.0
 21
57.3382568359375
 31
0.0
  0
LINE
  5
   457
  8
0
  6
CONTINUOUS
 62
     7
 10
-241.299957275391
 20
119.838256835937
 30
0.0
 11
-235.299957275391
 21
119.838256835937
 31
0.0
  0
LINE
  5
   458
  8
0
  6
CONTINUOUS
 62
     7
 10
-241.299957275391
 20
109.838256835938
 30
0.0
 11
-235.299957275391
 21
109.838256835938
 31
0.0
  0
LINE
  5
   459
  8
0
  6
CONTINUOUS
 62
     7
 10
-241.299957275391
 20
49.8382568359375
 30
0.0
 11
-235.299957275391
 21
49.8382568359375
 31
0.0
  0
LINE
  5
   45A
  8
0
  6
CONTINUOUS
 62
     7
 10
-241.299957275391
 20
39.8382568359375
 30
0.0
 11
-235.299957275391
 21
39.8382568359375
 31
0.0
  0
LINE
  5
   45B
  8
0
  6
CONTINUOUS
 62
     7
 10
-189.299957275391
 20
84.8382568359375
 30
0.0
 11
-183.299957275391
 21
84.8382568359375
 31
0.0
  0
LINE
  5
   45C
  8
0
  6
CONTINUOUS
 62
     7
 10
-189.299957275391
 20
74.8382568359375
 30
0.0
 11
-183.299957275391
 21
74.8382568359375
 31
0.0
  0
LINE
  5
   45D
  8
0
  6
CONTINUOUS
 62
     7
 10
-189.299957275391
 20
144.838256835938
 30
0.0
 11
-183.299957275391
 21
144.838256835938
 31
0.0
  0
LINE
  5
   45E
  8
0
  6
CONTINUOUS
 62
     7
 10
-189.299957275391
 20
154.838256835938
 30
0.0
 11
-183.299957275391
 21
154.838256835938
 31
0.0
  0
LINE
  5
   45F
  8
0
  6
CONTINUOUS
 62
   210
 10
-150.999984741211
 20
67.338249206543
 30
0.0
 11
-150.999984741211
 21
92.338249206543
 31
0.0
  0
LINE
  5
   460
  8
0
  6
CONTINUOUS
 62
   210
 10
-150.999984741211
 20
102.338249206543
 30
0.0
 11
-150.999984741211
 21
127.338249206543
 31
0.0
  0
LINE
  5
   461
  8
0
  6
CONTINUOUS
 62
     7
 10
-139.999984741211
 20
134.088180541992
 30
0.0
 11
-102.999938964844
 21
134.088180541992
 31
0.0
  0
LINE
  5
   462
  8
0
  6
CONTINUOUS
 62
     7
 10
-139.999984741211
 20
130.588180541992
 30
0.0
 11
-102.999938964844
 21
130.588180541992
 31
0.0
  0
LINE
  5
   463
  8
0
  6
CONTINUOUS
 62
     7
 10
-139.999984741211
 20
99.0881805419922
 30
0.0
 11
-102.999938964844
 21
99.0881805419922
 31
0.0
  0
LINE
  5
   464
  8
0
  6
CONTINUOUS
 62
     7
 10
-139.999984741211
 20
95.5881805419922
 30
0.0
 11
-102.999938964844
 21
95.5881805419922
 31
0.0
  0
LINE
  5
   465
  8
0
  6
CONTINUOUS
 62
   210
 10
-152.499984741211
 20
133.338180541992
 30
0.0
 11
-152.499984741211
 21
137.838256835937
 31
0.0
  0
LINE
  5
   466
  8
0
  6
CONTINUOUS
 62
     3
 10
-150.499984741211
 20
133.73600769043
 30
0.0
 11
-150.499984741211
 21
137.338226318359
 31
0.0
  0
LINE
  5
   467
  8
0
  6
CONTINUOUS
 62
     7
 10
-121.499938964844
 20
32.838249206543
 30
0.0
 11
-113.999954223633
 21
32.838249206543
 31
0.0
  0
LINE
  5
   468
  8
0
  6
CONTINUOUS
 62
     7
 10
-121.499938964844
 20
91.838249206543
 30
0.0
 11
-113.999954223633
 21
91.838249206543
 31
0.0
  0
LINE
  5
   469
  8
0
  6
CONTINUOUS
 62
     7
 10
-121.499938964844
 20
32.838249206543
 30
0.0
 11
-121.499938964844
 21
34.588249206543
 31
0.0
  0
LINE
  5
   46A
  8
0
  6
CONTINUOUS
 62
     7
 10
-121.499938964844
 20
90.088249206543
 30
0.0
 11
-121.499938964844
 21
91.838249206543
 31
0.0
  0
LINE
  5
   46B
  8
0
  6
CONTINUOUS
 62
     7
 10
-136.999938964844
 20
32.838249206543
 30
0.0
 11
-121.499938964844
 21
32.838249206543
 31
0.0
  0
LINE
  5
   46C
  8
0
  6
CONTINUOUS
 62
     7
 10
-136.999938964844
 20
34.588249206543
 30
0.0
 11
-121.499938964844
 21
34.588249206543
 31
0.0
  0
LINE
  5
   46D
  8
0
  6
CONTINUOUS
 62
     7
 10
-127.999938964844
 20
91.838249206543
 30
0.0
 11
-121.499938964844
 21
91.838249206543
 31
0.0
  0
LINE
  5
   46E
  8
0
  6
CONTINUOUS
 62
     7
 10
-127.999938964844
 20
90.088249206543
 30
0.0
 11
-121.499938964844
 21
90.088249206543
 31
0.0
  0
LINE
  5
   46F
  8
0
  6
CONTINUOUS
 62
     7
 10
-121.499938964844
 20
102.838249206543
 30
0.0
 11
-113.999954223633
 21
102.838249206543
 31
0.0
  0
LINE
  5
   470
  8
0
  6
CONTINUOUS
 62
     7
 10
-121.499938964844
 20
126.838249206543
 30
0.0
 11
-113.999954223633
 21
126.838249206543
 31
0.0
  0
LINE
  5
   471
  8
0
  6
CONTINUOUS
 62
     7
 10
-121.499938964844
 20
102.838249206543
 30
0.0
 11
-121.499938964844
 21
104.588249206543
 31
0.0
  0
LINE
  5
   472
  8
0
  6
CONTINUOUS
 62
     7
 10
-121.499938964844
 20
125.088249206543
 30
0.0
 11
-121.499938964844
 21
126.838249206543
 31
0.0
  0
LINE
  5
   473
  8
0
  6
CONTINUOUS
 62
     7
 10
-127.999938964844
 20
102.838249206543
 30
0.0
 11
-121.499938964844
 21
102.838249206543
 31
0.0
  0
LINE
  5
   474
  8
0
  6
CONTINUOUS
 62
     7
 10
-127.999938964844
 20
104.588249206543
 30
0.0
 11
-121.499938964844
 21
104.588249206543
 31
0.0
  0
LINE
  5
   475
  8
0
  6
CONTINUOUS
 62
     7
 10
-127.999938964844
 20
126.838249206543
 30
0.0
 11
-121.499938964844
 21
126.838249206543
 31
0.0
  0
LINE
  5
   476
  8
0
  6
CONTINUOUS
 62
     7
 10
-127.999938964844
 20
125.088249206543
 30
0.0
 11
-121.499938964844
 21
125.088249206543
 31
0.0
  0
LINE
  5
   477
  8
0
  6
CONTINUOUS
 62
     7
 10
-121.499938964844
 20
137.838256835938
 30
0.0
 11
-113.999954223633
 21
137.838256835938
 31
0.0
  0
LINE
  5
   478
  8
0
  6
CONTINUOUS
 62
     7
 10
-121.499938964844
 20
161.838256835938
 30
0.0
 11
-113.999954223633
 21
161.838256835938
 31
0.0
  0
LINE
  5
   479
  8
0
  6
CONTINUOUS
 62
     7
 10
-121.499938964844
 20
137.838256835937
 30
0.0
 11
-121.499938964844
 21
139.588256835937
 31
0.0
  0
LINE
  5
   47A
  8
0
  6
CONTINUOUS
 62
     7
 10
-121.499938964844
 20
160.088256835938
 30
0.0
 11
-121.499938964844
 21
161.838256835938
 31
0.0
  0
LINE
  5
   47B
  8
0
  6
CONTINUOUS
 62
     7
 10
-127.999938964844
 20
137.838256835938
 30
0.0
 11
-121.499938964844
 21
137.838256835938
 31
0.0
  0
LINE
  5
   47C
  8
0
  6
CONTINUOUS
 62
     7
 10
-127.999938964844
 20
139.588256835938
 30
0.0
 11
-121.499938964844
 21
139.588256835938
 31
0.0
  0
LINE
  5
   47D
  8
0
  6
CONTINUOUS
 62
     7
 10
-136.999938964844
 20
161.838256835938
 30
0.0
 11
-121.499938964844
 21
161.838256835938
 31
0.0
  0
LINE
  5
   47E
  8
0
  6
CONTINUOUS
 62
     7
 10
-136.999938964844
 20
160.088256835938
 30
0.0
 11
-121.499938964844
 21
160.088256835938
 31
0.0
  0
LINE
  5
   47F
  8
0
  6
CONTINUOUS
 62
     7
 10
-123.999938964844
 20
81.838249206543
 30
0.0
 11
-121.499938964844
 21
81.838249206543
 31
0.0
  0
LINE
  5
   480
  8
0
  6
CONTINUOUS
 62
     7
 10
-123.999938964844
 20
77.838249206543
 30
0.0
 11
-121.499938964844
 21
77.838249206543
 31
0.0
  0
LINE
  5
   481
  8
0
  6
CONTINUOUS
 62
     7
 10
-123.999938964844
 20
77.838249206543
 30
0.0
 11
-123.999938964844
 21
81.838249206543
 31
0.0
  0
LINE
  5
   482
  8
0
  6
CONTINUOUS
 62
     7
 10
-123.999938964844
 20
116.838249206543
 30
0.0
 11
-121.499938964844
 21
116.838249206543
 31
0.0
  0
LINE
  5
   483
  8
0
  6
CONTINUOUS
 62
     7
 10
-123.999938964844
 20
112.838249206543
 30
0.0
 11
-121.499938964844
 21
112.838249206543
 31
0.0
  0
LINE
  5
   484
  8
0
  6
CONTINUOUS
 62
     7
 10
-123.999938964844
 20
112.838249206543
 30
0.0
 11
-123.999938964844
 21
116.838249206543
 31
0.0
  0
LINE
  5
   485
  8
0
  6
CONTINUOUS
 62
     7
 10
-123.999938964844
 20
151.838256835938
 30
0.0
 11
-121.499938964844
 21
151.838256835938
 31
0.0
  0
LINE
  5
   486
  8
0
  6
CONTINUOUS
 62
     7
 10
-123.999938964844
 20
147.838256835938
 30
0.0
 11
-121.499938964844
 21
147.838256835938
 31
0.0
  0
LINE
  5
   487
  8
0
  6
CONTINUOUS
 62
     7
 10
-123.999938964844
 20
147.838256835937
 30
0.0
 11
-123.999938964844
 21
151.838256835937
 31
0.0
  0
LINE
  5
   488
  8
0
  6
CONTINUOUS
 62
     7
 10
-146.5
 20
28.3381767272949
 30
0.0
 11
-140.0
 21
28.3381767272949
 31
0.0
  0
LINE
  5
   489
  8
0
  6
CONTINUOUS
 62
   210
 10
-152.499984741211
 20
133.338180541992
 30
0.0
 11
-152.0
 21
133.338180541992
 31
0.0
  0
LINE
  5
   48A
  8
0
  6
CONTINUOUS
 62
     7
 10
-150.499984741211
 20
133.73600769043
 30
0.0
 11
-139.999969482422
 21
133.73600769043
 31
0.0
  0
LINE
  5
   48B
  8
0
  6
CONTINUOUS
 62
     7
 10
-136.999938964844
 20
32.838249206543
 30
0.0
 11
-136.999938964844
 21
34.588249206543
 31
0.0
  0
LINE
  5
   48C
  8
0
  6
CONTINUOUS
 62
     7
 10
-127.999938964844
 20
90.088249206543
 30
0.0
 11
-127.999938964844
 21
91.838249206543
 31
0.0
  0
LINE
  5
   48D
  8
0
  6
CONTINUOUS
 62
     7
 10
-127.999938964844
 20
102.838249206543
 30
0.0
 11
-127.999938964844
 21
104.588249206543
 31
0.0
  0
LINE
  5
   48E
  8
0
  6
CONTINUOUS
 62
     7
 10
-127.999938964844
 20
125.088249206543
 30
0.0
 11
-127.999938964844
 21
126.838249206543
 31
0.0
  0
LINE
  5
   48F
  8
0
  6
CONTINUOUS
 62
     7
 10
-127.999938964844
 20
137.838256835937
 30
0.0
 11
-127.999938964844
 21
139.588256835937
 31
0.0
  0
LINE
  5
   490
  8
0
  6
CONTINUOUS
 62
     7
 10
-136.999938964844
 20
160.088256835938
 30
0.0
 11
-136.999938964844
 21
161.838256835938
 31
0.0
  0
LINE
  5
   491
  8
0
  6
CONTINUOUS
 62
   210
 10
-151.0
 20
137.338226318359
 30
0.0
 11
-150.499984741211
 21
137.338226318359
 31
0.0
  0
LINE
  5
   492
  8
0
  6
CONTINUOUS
 62
   210
 10
-151.0
 20
127.338256835938
 30
0.0
 11
-150.499984741211
 21
127.338256835938
 31
0.0
  0
LINE
  5
   493
  8
0
  6
CONTINUOUS
 62
   210
 10
-151.0
 20
67.3382263183594
 30
0.0
 11
-150.5
 21
67.3382263183594
 31
0.0
  0
LINE
  5
   494
  8
0
  6
CONTINUOUS
 62
   210
 10
-151.0
 20
57.3382568359375
 30
0.0
 11
-150.5
 21
57.3382568359375
 31
0.0
  0
LINE
  5
   495
  8
0
  6
CONTINUOUS
 62
   210
 10
-151.0
 20
92.3382720947266
 30
0.0
 11
-150.5
 21
92.3382720947266
 31
0.0
  0
LINE
  5
   496
  8
0
  6
CONTINUOUS
 62
   210
 10
-151.0
 20
102.338256835938
 30
0.0
 11
-150.5
 21
102.338256835938
 31
0.0
  0
LINE
  5
   497
  8
0
  6
CONTINUOUS
 62
     7
 10
-139.999984741211
 20
64.0881805419922
 30
0.0
 11
-102.999938964844
 21
64.0881805419922
 31
0.0
  0
LINE
  5
   498
  8
0
  6
CONTINUOUS
 62
     7
 10
-139.999984741211
 20
60.5881805419922
 30
0.0
 11
-102.999938964844
 21
60.5881805419922
 31
0.0
  0
LINE
  5
   499
  8
0
  6
CONTINUOUS
 62
     7
 10
-127.999938964844
 20
67.838249206543
 30
0.0
 11
-121.499938964844
 21
67.838249206543
 31
0.0
  0
LINE
  5
   49A
  8
0
  6
CONTINUOUS
 62
     7
 10
-121.499938964844
 20
67.838249206543
 30
0.0
 11
-113.999954223633
 21
67.838249206543
 31
0.0
  0
LINE
  5
   49B
  8
0
  6
CONTINUOUS
 62
     7
 10
-121.499938964844
 20
67.838249206543
 30
0.0
 11
-121.499938964844
 21
69.588249206543
 31
0.0
  0
LINE
  5
   49C
  8
0
  6
CONTINUOUS
 62
     7
 10
-127.999938964844
 20
69.588249206543
 30
0.0
 11
-121.499938964844
 21
69.588249206543
 31
0.0
  0
LINE
  5
   49D
  8
0
  6
CONTINUOUS
 62
     7
 10
-127.999938964844
 20
67.838249206543
 30
0.0
 11
-127.999938964844
 21
69.588249206543
 31
0.0
  0
LINE
  5
   49E
  8
0
  6
CONTINUOUS
 62
     7
 10
-123.999938964844
 20
46.838249206543
 30
0.0
 11
-121.499938964844
 21
46.838249206543
 31
0.0
  0
LINE
  5
   49F
  8
0
  6
CONTINUOUS
 62
     7
 10
-123.999938964844
 20
42.838249206543
 30
0.0
 11
-121.499938964844
 21
42.838249206543
 31
0.0
  0
LINE
  5
   4A0
  8
0
  6
CONTINUOUS
 62
     7
 10
-123.999938964844
 20
42.838249206543
 30
0.0
 11
-123.999938964844
 21
46.838249206543
 31
0.0
  0
LINE
  5
   4A1
  8
0
  6
CONTINUOUS
 62
     7
 10
-127.999938964844
 20
55.088249206543
 30
0.0
 11
-121.499938964844
 21
55.088249206543
 31
0.0
  0
LINE
  5
   4A2
  8
0
  6
CONTINUOUS
 62
     7
 10
-127.999938964844
 20
55.088249206543
 30
0.0
 11
-127.999938964844
 21
56.838249206543
 31
0.0
  0
LINE
  5
   4A3
  8
0
  6
CONTINUOUS
 62
     7
 10
-127.999938964844
 20
56.838249206543
 30
0.0
 11
-121.499938964844
 21
56.838249206543
 31
0.0
  0
LINE
  5
   4A4
  8
0
  6
CONTINUOUS
 62
     7
 10
-121.499938964844
 20
56.838249206543
 30
0.0
 11
-113.999954223633
 21
56.838249206543
 31
0.0
  0
LINE
  5
   4A5
  8
0
  6
CONTINUOUS
 62
     7
 10
-121.499938964844
 20
55.088249206543
 30
0.0
 11
-121.499938964844
 21
56.838249206543
 31
0.0
  0
LINE
  5
   4A6
  8
0
  6
CONTINUOUS
 62
     7
 10
-151.0
 20
32.3382568359375
 30
0.0
 11
-151.0
 21
32.8382415771484
 31
0.0
  0
LINE
  5
   4A7
  8
0
  6
CONTINUOUS
 62
   210
 10
-151.0
 20
137.338226318359
 30
0.0
 11
-151.0
 21
161.838256835938
 31
0.0
  0
LINE
  5
   4A8
  8
0
  6
CONTINUOUS
 62
   210
 10
-152.499984741211
 20
28.3381767272949
 30
0.0
 11
-146.5
 21
28.3381767272949
 31
0.0
  0
LINE
  5
   4A9
  8
0
  6
CONTINUOUS
 62
     7
 10
-150.499984741211
 20
129.838180541992
 30
0.0
 11
-140.0
 21
129.838180541992
 31
0.0
  0
LINE
  5
   4AA
  8
0
  6
CONTINUOUS
 62
   210
 10
-150.499984741211
 20
127.338249206543
 30
0.0
 11
-150.499984741211
 21
133.73600769043
 31
0.0
  0
LINE
  5
   4AB
  8
0
  6
CONTINUOUS
 62
   210
 10
-151.0
 20
162.338226318359
 30
0.0
 11
-146.499984741211
 21
162.338226318359
 31
0.0
  0
LINE
  5
   4AC
  8
0
  6
CONTINUOUS
 62
   253
 10
-189.299957275391
 20
159.838256835938
 30
0.0
 11
-183.299957275391
 21
159.838256835938
 31
0.0
  0
LINE
  5
   4AD
  8
0
  6
CONTINUOUS
 62
   253
 10
-189.299957275391
 20
139.838256835938
 30
0.0
 11
-183.299957275391
 21
139.838256835938
 31
0.0
  0
LINE
  5
   4AE
  8
0
  6
CONTINUOUS
 62
   253
 10
-189.299957275391
 20
89.8382568359375
 30
0.0
 11
-183.299957275391
 21
89.8382568359375
 31
0.0
  0
LINE
  5
   4AF
  8
0
  6
CONTINUOUS
 62
   253
 10
-189.299957275391
 20
69.8382568359375
 30
0.0
 11
-183.299957275391
 21
69.8382568359375
 31
0.0
  0
POINT
  5
   4B0
  8
0
  6
CONTINUOUS
 62
     7
 10
-252.499954223633
 20
114.838256835938
 30
0.0
  0
ENDBLK
  5
   4B1
  8
0
  6
CONTINUOUS
 62
     7
  0
BLOCK
  5
   4B2
  8
0
  6
CONTINUOUS
 62
     7
  2
*UDIM106
 70
    65
 10
0.0
 20
0.0
 30
0.0
  3
*UDIM106
  0
TEXT
  5
   4B3
  8
0
  6
CONTINUOUS
 62
     7
 10
157.52401043859
 20
-10.777081908051
 30
0.0
 40
2.99999994933605
  1
M12
 50
449.999999896069
 41
0.933333333333333
 72
     1
 11
156.024010470971
 21
-6.87708197120263
 31
0.0
 73
     2
  0
LINE
  5
   4B4
  8
0
  6
CONTINUOUS
 62
     7
 10
166.892369167209
 20
-15.8194954345331
 30
0.0
 11
156.52401044564
 21
-15.8194954345331
 31
0.0
  0
LINE
  5
   4B5
  8
0
  6
CONTINUOUS
 62
     7
 10
166.892369167209
 20
-20.6194955060587
 30
0.0
 11
156.52401044564
 21
-20.6194955060587
 31
0.0
  0
LINE
  5
   4B6
  8
0
  6
CONTINUOUS
 62
     7
 10
158.52401044564
 20
-2.97708203706576
 30
0.0
 11
158.52401044564
 21
-20.6194955060587
 31
0.0
  0
LINE
  5
   4B7
  8
0
  6
CONTINUOUS
 62
     7
 10
158.003066015688
 20
-12.8650721573261
 30
0.0
 11
158.52401044564
 21
-15.8194954345331
 31
0.0
  0
LINE
  5
   4B8
  8
0
  6
CONTINUOUS
 62
     7
 10
158.52401044564
 20
-15.8194954345331
 30
0.0
 11
159.044954875591
 21
-12.8650721573261
 31
0.0
  0
LINE
  5
   4B9
  8
0
  6
CONTINUOUS
 62
     7
 10
159.044954875591
 20
-23.5739187832656
 30
0.0
 11
158.52401044564
 21
-20.6194955060587
 31
0.0
  0
LINE
  5
   4BA
  8
0
  6
CONTINUOUS
 62
     7
 10
158.52401044564
 20
-20.6194955060587
 30
0.0
 11
158.003066015688
 21
-23.5739187832656
 31
0.0
  0
ENDBLK
  5
   4BB
  8
0
  6
CONTINUOUS
 62
     7
  0
BLOCK
  5
   4BC
  8
0
  6
CONTINUOUS
 62
     7
  2
*UDIM107
 70
    65
 10
0.0
 20
0.0
 30
0.0
  3
*UDIM107
  0
TEXT
  5
   4BD
  8
0
  6
CONTINUOUS
 62
     7
 10
283.836127008803
 20
-13.9944892747451
 30
0.0
 40
2.99999994933605
  1
35
 50
449.999999896069
 41
0.933333333333333
 72
     1
 11
282.336127038654
 21
-11.4944893142536
 31
0.0
 73
     2
  0
LINE
  5
   4BE
  8
0
  6
CONTINUOUS
 62
     7
 10
228.637761112436
 20
-4.21948305464821
 30
0.0
 11
286.836127013322
 21
-4.21948305464821
 31
0.0
  0
LINE
  5
   4BF
  8
0
  6
CONTINUOUS
 62
     7
 10
281.592826272672
 20
-18.2194954702959
 30
0.0
 11
286.836127013322
 21
-18.2194954702959
 31
0.0
  0
LINE
  5
   4C0
  8
0
  6
CONTINUOUS
 62
     7
 10
284.836127013322
 20
-4.21948305464821
 30
0.0
 11
284.836127013322
 21
-18.2194954702959
 31
0.0
  0
LINE
  5
   4C1
  8
0
  6
CONTINUOUS
 62
     7
 10
285.357071443274
 20
-7.17390633185517
 30
0.0
 11
284.836127013322
 21
-4.21948305464821
 31
0.0
  0
LINE
  5
   4C2
  8
0
  6
CONTINUOUS
 62
     7
 10
284.836127013322
 20
-4.21948305464821
 30
0.0
 11
284.315182583371
 21
-7.17390633185517
 31
0.0
  0
LINE
  5
   4C3
  8
0
  6
CONTINUOUS
 62
     7
 10
284.315182583371
 20
-15.2650721930889
 30
0.0
 11
284.836127013322
 21
-18.2194954702959
 31
0.0
  0
LINE
  5
   4C4
  8
0
  6
CONTINUOUS
 62
     7
 10
284.836127013322
 20
-18.2194954702959
 30
0.0
 11
285.357071443274
 21
-15.2650721930889
 31
0.0
  0
ENDBLK
  5
   4C5
  8
0
  6
CONTINUOUS
 62
     7
  0
BLOCK
  5
   4C6
  8
0
  6
CONTINUOUS
 62
     7
  2
*UDIM108
 70
    65
 10
0.0
 20
0.0
 30
0.0
  3
*UDIM108
  0
TEXT
  5
   4C7
  8
0
  6
CONTINUOUS
 62
     7
 10
283.836127008803
 20
-27.9944894833614
 30
0.0
 40
2.99999994933605
  1
35
 50
449.999999896069
 41
0.933333333333333
 72
     1
 11
282.336127038654
 21
-25.4944895228698
 31
0.0
 73
     2
  0
LINE
  5
   4C8
  8
0
  6
CONTINUOUS
 62
     7
 10
228.637761112436
 20
-32.2194834718807
 30
0.0
 11
286.836127013322
 21
-32.2194834718807
 31
0.0
  0
LINE
  5
   4C9
  8
0
  6
CONTINUOUS
 62
     7
 10
284.836127013322
 20
-18.2194954702959
 30
0.0
 11
284.836127013322
 21
-32.2194834718807
 31
0.0
  0
LINE
  5
   4CA
  8
0
  6
CONTINUOUS
 62
     7
 10
285.357071443274
 20
-21.1739187475029
 30
0.0
 11
284.836127013322
 21
-18.2194954702959
 31
0.0
  0
LINE
  5
   4CB
  8
0
  6
CONTINUOUS
 62
     7
 10
284.836127013322
 20
-18.2194954702959
 30
0.0
 11
284.315182583371
 21
-21.1739187475029
 31
0.0
  0
LINE
  5
   4CC
  8
0
  6
CONTINUOUS
 62
     7
 10
284.315182583371
 20
-29.2650601946738
 30
0.0
 11
284.836127013322
 21
-32.2194834718807
 31
0.0
  0
LINE
  5
   4CD
  8
0
  6
CONTINUOUS
 62
     7
 10
284.836127013322
 20
-32.2194834718807
 30
0.0
 11
285.357071443274
 21
-29.2650601946738
 31
0.0
  0
ENDBLK
  5
   4CE
  8
0
  6
CONTINUOUS
 62
     7
  0
BLOCK
  5
   4CF
  8
0
  6
CONTINUOUS
 62
     7
  2
*UDIM109
 70
    65
 10
0.0
 20
0.0
 30
0.0
  3
*UDIM109
  0
TEXT
  5
   4D0
  8
0
  6
CONTINUOUS
 62
     7
 10
283.836127008803
 20
-41.9944835884619
 30
0.0
 40
2.99999994933605
  1
35
 50
449.999999896069
 41
0.933333333333333
 72
     1
 11
282.336127038654
 21
-39.4944836279704
 31
0.0
 73
     2
  0
LINE
  5
   4D1
  8
0
  6
CONTINUOUS
 62
     7
 10
228.637761112436
 20
-46.219483680497
 30
0.0
 11
286.836127013322
 21
-46.219483680497
 31
0.0
  0
LINE
  5
   4D2
  8
0
  6
CONTINUOUS
 62
     7
 10
284.836127013322
 20
-32.2194834718807
 30
0.0
 11
284.836127013322
 21
-46.219483680497
 31
0.0
  0
LINE
  5
   4D3
  8
0
  6
CONTINUOUS
 62
     7
 10
285.357071443274
 20
-35.1739067490877
 30
0.0
 11
284.836127013322
 21
-32.2194834718807
 31
0.0
  0
LINE
  5
   4D4
  8
0
  6
CONTINUOUS
 62
     7
 10
284.836127013322
 20
-32.2194834718807
 30
0.0
 11
284.315182583371
 21
-35.1739067490877
 31
0.0
  0
LINE
  5
   4D5
  8
0
  6
CONTINUOUS
 62
     7
 10
284.315182583371
 20
-43.26506040329
 30
0.0
 11
284.836127013322
 21
-46.219483680497
 31
0.0
  0
LINE
  5
   4D6
  8
0
  6
CONTINUOUS
 62
     7
 10
284.836127013322
 20
-46.219483680497
 30
0.0
 11
285.357071443274
 21
-43.26506040329
 31
0.0
  0
ENDBLK
  5
   4D7
  8
0
  6
CONTINUOUS
 62
     7
  0
BLOCK
  5
   4D8
  8
0
  6
CONTINUOUS
 62
     0
  2
$1ON-OFF
 70
    64
 10
0.0
 20
0.0
 30
0.0
  3
$1ON-OFF
  0
LINE
  5
   4D9
  8
0
  6
CONTINUOUS
 62
     0
 10
5.09999999999999
 20
-29.65
 30
0.0
 11
5.54999999999999
 21
-29.65
 31
0.0
  0
LINE
  5
   4DA
  8
0
  6
CONTINUOUS
 62
     0
 10
3.79999999999999
 20
-37.35
 30
0.0
 11
4.59999999999999
 21
-37.35
 31
0.0
  0
LINE
  5
   4DB
  8
0
  6
CONTINUOUS
 62
     0
 10
-2.6
 20
-34.75
 30
0.0
 11
-2.6
 21
-34.25
 31
0.0
  0
LINE
  5
   4DC
  8
0
  6
CONTINUOUS
 62
     0
 10
2.6
 20
-34.75
 30
0.0
 11
2.6
 21
-34.25
 31
0.0
  0
ARC
  5
   4DD
  8
0
  6
CONTINUOUS
 62
     0
 10
-3.5527136788005E-15
 20
-34.25
 30
0.0
 40
2.6
 50
0.0
 51
180.0
  0
ARC
  5
   4DE
  8
0
  6
CONTINUOUS
 62
     0
 10
-3.5527136788005E-15
 20
-34.75
 30
0.0
 40
2.6
 50
180.0
 51
360.0
  0
ARC
  5
   4DF
  8
0
  6
CONTINUOUS
 62
     0
 10
-3.5527136788005E-15
 20
-34.25
 30
0.0
 40
1.8
 50
0.0
 51
180.0
  0
ARC
  5
   4E0
  8
0
  6
CONTINUOUS
 62
     0
 10
-3.5527136788005E-15
 20
-34.75
 30
0.0
 40
1.8
 50
180.0
 51
360.0
  0
LINE
  5
   4E1
  8
0
  6
CONTINUOUS
 62
     0
 10
-1.8
 20
-34.75
 30
0.0
 11
-1.8
 21
-34.25
 31
0.0
  0
LINE
  5
   4E2
  8
0
  6
CONTINUOUS
 62
     0
 10
1.8
 20
-34.75
 30
0.0
 11
1.8
 21
-34.25
 31
0.0
  0
LINE
  5
   4E3
  8
0
  6
CONTINUOUS
 62
     0
 10
2.84999999999999
 20
-32.85
 30
0.0
 11
2.84999999999999
 21
-32.05
 31
0.0
  0
LINE
  5
   4E4
  8
0
  6
CONTINUOUS
 62
     0
 10
2.84999999999999
 20
-32.85
 30
0.0
 11
3.79999999999999
 21
-32.85
 31
0.0
  0
LINE
  5
   4E5
  8
0
  6
CONTINUOUS
 62
     0
 10
5.54999999999999
 20
-32.85
 30
0.0
 11
5.54999999999999
 21
-32.05
 31
0.0
  0
LINE
  5
   4E6
  8
0
  6
CONTINUOUS
 62
     0
 10
2.84999999999999
 20
-32.05
 30
0.0
 11
3.79999999999999
 21
-32.05
 31
0.0
  0
LINE
  5
   4E7
  8
0
  6
CONTINUOUS
 62
     0
 10
3.79999999999999
 20
-37.35
 30
0.0
 11
3.79999999999999
 21
-32.85
 31
0.0
  0
LINE
  5
   4E8
  8
0
  6
CONTINUOUS
 62
     0
 10
4.59999999999999
 20
-37.35
 30
0.0
 11
4.59999999999999
 21
-32.85
 31
0.0
  0
LINE
  5
   4E9
  8
0
  6
CONTINUOUS
 62
     0
 10
4.59999999999999
 20
-32.85
 30
0.0
 11
5.54999999999999
 21
-32.85
 31
0.0
  0
LINE
  5
   4EA
  8
0
  6
CONTINUOUS
 62
     0
 10
4.59999999999999
 20
-32.05
 30
0.0
 11
5.54999999999999
 21
-32.05
 31
0.0
  0
LINE
  5
   4EB
  8
0
  6
CONTINUOUS
 62
     0
 10
3.79999999999999
 20
-32.05
 30
0.0
 11
3.79999999999999
 21
-30.95
 31
0.0
  0
LINE
  5
   4EC
  8
0
  6
CONTINUOUS
 62
     0
 10
4.59999999999999
 20
-32.05
 30
0.0
 11
4.59999999999999
 21
-30.95
 31
0.0
  0
ARC
  5
   4ED
  8
0
  6
CONTINUOUS
 62
     0
 10
5.09999999999999
 20
-30.95
 30
0.0
 40
1.3
 50
89.9999999999999
 51
180.0
  0
ARC
  5
   4EE
  8
0
  6
CONTINUOUS
 62
     0
 10
5.09999999999999
 20
-30.95
 30
0.0
 40
0.5
 50
89.9999999999999
 51
180.0
  0
LINE
  5
   4EF
  8
0
  6
CONTINUOUS
 62
     0
 10
5.54999999999999
 20
-30.45
 30
0.0
 11
5.54999999999999
 21
-29.65
 31
0.0
  0
LINE
  5
   4F0
  8
0
  6
CONTINUOUS
 62
     0
 10
5.09999999999999
 20
-30.45
 30
0.0
 11
5.54999999999999
 21
-30.45
 31
0.0
  0
LINE
  5
   4F1
  8
0
  6
CONTINUOUS
 62
     0
 10
8.29999999999998
 20
-29.65
 30
0.0
 11
8.74999999999999
 21
-29.65
 31
0.0
  0
LINE
  5
   4F2
  8
0
  6
CONTINUOUS
 62
     0
 10
6.99999999999999
 20
-37.35
 30
0.0
 11
7.79999999999999
 21
-37.35
 31
0.0
  0
LINE
  5
   4F3
  8
0
  6
CONTINUOUS
 62
     0
 10
6.04999999999999
 20
-32.85
 30
0.0
 11
6.04999999999999
 21
-32.05
 31
0.0
  0
LINE
  5
   4F4
  8
0
  6
CONTINUOUS
 62
     0
 10
6.04999999999999
 20
-32.85
 30
0.0
 11
6.99999999999999
 21
-32.85
 31
0.0
  0
LINE
  5
   4F5
  8
0
  6
CONTINUOUS
 62
     0
 10
8.74999999999999
 20
-32.85
 30
0.0
 11
8.74999999999999
 21
-32.05
 31
0.0
  0
LINE
  5
   4F6
  8
0
  6
CONTINUOUS
 62
     0
 10
6.04999999999999
 20
-32.05
 30
0.0
 11
6.99999999999999
 21
-32.05
 31
0.0
  0
LINE
  5
   4F7
  8
0
  6
CONTINUOUS
 62
     0
 10
6.99999999999999
 20
-37.35
 30
0.0
 11
6.99999999999999
 21
-32.85
 31
0.0
  0
LINE
  5
   4F8
  8
0
  6
CONTINUOUS
 62
     0
 10
7.79999999999999
 20
-37.35
 30
0.0
 11
7.79999999999999
 21
-32.85
 31
0.0
  0
LINE
  5
   4F9
  8
0
  6
CONTINUOUS
 62
     0
 10
7.79999999999999
 20
-32.85
 30
0.0
 11
8.74999999999999
 21
-32.85
 31
0.0
  0
LINE
  5
   4FA
  8
0
  6
CONTINUOUS
 62
     0
 10
7.79999999999999
 20
-32.05
 30
0.0
 11
8.74999999999999
 21
-32.05
 31
0.0
  0
LINE
  5
   4FB
  8
0
  6
CONTINUOUS
 62
     0
 10
6.99999999999999
 20
-32.05
 30
0.0
 11
6.99999999999999
 21
-30.95
 31
0.0
  0
LINE
  5
   4FC
  8
0
  6
CONTINUOUS
 62
     0
 10
7.79999999999999
 20
-32.05
 30
0.0
 11
7.79999999999999
 21
-30.95
 31
0.0
  0
ARC
  5
   4FD
  8
0
  6
CONTINUOUS
 62
     0
 10
8.29999999999998
 20
-30.95
 30
0.0
 40
1.3
 50
89.9999999999999
 51
180.0
  0
ARC
  5
   4FE
  8
0
  6
CONTINUOUS
 62
     0
 10
8.29999999999998
 20
-30.95
 30
0.0
 40
0.5
 50
89.9999999999999
 51
180.0
  0
LINE
  5
   4FF
  8
0
  6
CONTINUOUS
 62
     0
 10
8.74999999999999
 20
-30.45
 30
0.0
 11
8.74999999999999
 21
-29.65
 31
0.0
  0
LINE
  5
   500
  8
0
  6
CONTINUOUS
 62
     0
 10
8.29999999999998
 20
-30.45
 30
0.0
 11
8.74999999999999
 21
-30.45
 31
0.0
  0
LINE
  5
   501
  8
0
  6
CONTINUOUS
 62
     0
 10
3.4
 20
-2.85000000000002
 30
0.0
 11
4.19999999999999
 21
-2.85000000000002
 31
0.0
  0
ARC
  5
   502
  8
0
  6
CONTINUOUS
 62
     0
 10
-3.5527136788005E-15
 20
0.249999999999979
 30
0.0
 40
2.6
 50
0.0
 51
180.0
  0
ARC
  5
   503
  8
0
  6
CONTINUOUS
 62
     0
 10
-3.5527136788005E-15
 20
0.249999999999979
 30
0.0
 40
1.8
 50
0.0
 51
180.0
  0
ARC
  5
   504
  8
0
  6
CONTINUOUS
 62
     0
 10
-3.5527136788005E-15
 20
-0.250000000000018
 30
0.0
 40
2.6
 50
180.0
 51
360.0
  0
ARC
  5
   505
  8
0
  6
CONTINUOUS
 62
     0
 10
-3.5527136788005E-15
 20
-0.250000000000018
 30
0.0
 40
1.8
 50
180.0
 51
360.0
  0
LINE
  5
   506
  8
0
  6
CONTINUOUS
 62
     0
 10
1.8
 20
-0.250000000000018
 30
0.0
 11
1.8
 21
0.249999999999979
 31
0.0
  0
LINE
  5
   507
  8
0
  6
CONTINUOUS
 62
     0
 10
2.6
 20
-0.250000000000018
 30
0.0
 11
2.6
 21
0.249999999999979
 31
0.0
  0
LINE
  5
   508
  8
0
  6
CONTINUOUS
 62
     0
 10
-1.8
 20
-0.250000000000032
 30
0.0
 11
-1.8
 21
0.249999999999964
 31
0.0
  0
LINE
  5
   509
  8
0
  6
CONTINUOUS
 62
     0
 10
-2.6
 20
-0.250000000000018
 30
0.0
 11
-2.6
 21
0.249999999999979
 31
0.0
  0
LINE
  5
   50A
  8
0
  6
CONTINUOUS
 62
     0
 10
3.4
 20
-2.85000000000002
 30
0.0
 11
3.4
 21
2.84999999999998
 31
0.0
  0
LINE
  5
   50B
  8
0
  6
CONTINUOUS
 62
     0
 10
4.19999999999999
 20
-2.85000000000002
 30
0.0
 11
4.19999999999999
 21
0.649999999999981
 31
0.0
  0
LINE
  5
   50C
  8
0
  6
CONTINUOUS
 62
     0
 10
6.99999999999999
 20
-2.85000000000002
 30
0.0
 11
6.99999999999999
 21
0.649999999999981
 31
0.0
  0
LINE
  5
   50D
  8
0
  6
CONTINUOUS
 62
     0
 10
7.79999999999999
 20
-2.85000000000002
 30
0.0
 11
7.79999999999999
 21
0.84999999999998
 31
0.0
  0
LINE
  5
   50E
  8
0
  6
CONTINUOUS
 62
     0
 10
3.4
 20
2.84999999999998
 30
0.0
 11
4.19999999999999
 21
2.84999999999998
 31
0.0
  0
ARC
  5
   50F
  8
0
  6
CONTINUOUS
 62
     0
 10
5.59999999999999
 20
0.649999999999981
 30
0.0
 40
1.4
 50
0.0
 51
180.0
  0
LINE
  5
   510
  8
0
  6
CONTINUOUS
 62
     0
 10
4.19999999999999
 20
2.05
 30
0.0
 11
4.19999999999999
 21
2.84999999999998
 31
0.0
  0
ARC
  5
   511
  8
0
  6
CONTINUOUS
 62
     0
 10
5.79999999999999
 20
0.84999999999998
 30
0.0
 40
2.0
 50
0.0
 51
143.130102354155
  0
LINE
  5
   512
  8
0
  6
CONTINUOUS
 62
     0
 10
6.99999999999999
 20
-2.85000000000002
 30
0.0
 11
7.79999999999999
 21
-2.85000000000002
 31
0.0
  0
ENDBLK
  5
   513
  8
0
  6
CONTINUOUS
 62
     0
  0
BLOCK
  5
   514
  8
0
  6
CONTINUOUS
 62
     7
  2
$1MOSTRINA
 70
    64
 10
0.0
 20
0.0
 30
0.0
  3
$1MOSTRINA
  0
LINE
  5
   515
  8
0
  6
CONTINUOUS
 62
     3
 10
173.338256835938
 20
30.7306251525879
 30
0.0
 11
173.338256835938
 21
189.230621337891
 31
0.0
  0
LINE
  5
   516
  8
0
  6
CONTINUOUS
 62
     3
 10
57.5882568359375
 20
29.4806251525879
 30
0.0
 11
172.088256835938
 21
29.4806251525879
 31
0.0
  0
LINE
  5
   517
  8
0
  6
CONTINUOUS
 62
     3
 10
56.3382568359375
 20
30.7306251525879
 30
0.0
 11
56.3382568359375
 21
189.230621337891
 31
0.0
  0
LINE
  5
   518
  8
0
  6
CONTINUOUS
 62
     3
 10
57.5882568359375
 20
190.480621337891
 30
0.0
 11
172.088256835938
 21
190.480621337891
 31
0.0
  0
LINE
  5
   519
  8
0
  6
CONTINUOUS
 62
     3
 10
167.838256835938
 20
56.9806251525879
 30
0.0
 11
167.838256835938
 21
162.980625152588
 31
0.0
  0
LINE
  5
   51A
  8
0
  6
CONTINUOUS
 62
     3
 10
61.8382568359375
 20
56.9806251525879
 30
0.0
 11
167.838256835938
 21
56.9806251525879
 31
0.0
  0
LINE
  5
   51B
  8
0
  6
CONTINUOUS
 62
     3
 10
61.8382568359375
 20
56.9806251525879
 30
0.0
 11
61.8382568359375
 21
162.980625152588
 31
0.0
  0
LINE
  5
   51C
  8
0
  6
CONTINUOUS
 62
     3
 10
61.8382568359375
 20
162.980621337891
 30
0.0
 11
167.838256835938
 21
162.980621337891
 31
0.0
  0
LINE
  5
   51D
  8
0
  6
CONTINUOUS
 62
     3
 10
168.838256835938
 20
48.4806251525879
 30
0.0
 11
168.838256835938
 21
49.4806251525879
 31
0.0
  0
LINE
  5
   51E
  8
0
  6
CONTINUOUS
 62
     3
 10
61.8382568359375
 20
50.4806251525879
 30
0.0
 11
167.838256835938
 21
50.4806251525879
 31
0.0
  0
LINE
  5
   51F
  8
0
  6
CONTINUOUS
 62
     3
 10
60.8382568359375
 20
48.4806251525879
 30
0.0
 11
60.8382568359375
 21
49.4806251525879
 31
0.0
  0
LINE
  5
   520
  8
0
  6
CONTINUOUS
 62
     3
 10
61.8382568359375
 20
49.4806251525879
 30
0.0
 11
167.838256835938
 21
49.4806251525879
 31
0.0
  0
LINE
  5
   521
  8
0
  6
CONTINUOUS
 62
     3
 10
60.8382568359375
 20
29.4806251525879
 30
0.0
 11
60.8382568359375
 21
48.4806251525879
 31
0.0
  0
LINE
  5
   522
  8
0
  6
CONTINUOUS
 62
     3
 10
60.8382568359375
 20
49.4806213378906
 30
0.0
 11
60.8382568359375
 21
190.480621337891
 31
0.0
  0
LINE
  5
   523
  8
0
  6
CONTINUOUS
 62
     3
 10
61.8382568359375
 20
29.4806251525879
 30
0.0
 11
61.8382568359375
 21
49.4806251525879
 31
0.0
  0
LINE
  5
   524
  8
0
  6
CONTINUOUS
 62
     3
 10
61.8382568359375
 20
162.980621337891
 30
0.0
 11
61.8382568359375
 21
169.480621337891
 31
0.0
  0
LINE
  5
   525
  8
0
  6
CONTINUOUS
 62
     3
 10
61.8382568359375
 20
50.4806251525879
 30
0.0
 11
61.8382568359375
 21
56.9806251525879
 31
0.0
  0
LINE
  5
   526
  8
0
  6
CONTINUOUS
 62
     3
 10
168.838256835938
 20
29.4806251525879
 30
0.0
 11
168.838256835938
 21
48.4806251525879
 31
0.0
  0
LINE
  5
   527
  8
0
  6
CONTINUOUS
 62
     3
 10
168.838256835938
 20
49.4806251525879
 30
0.0
 11
168.838256835938
 21
190.480621337891
 31
0.0
  0
LINE
  5
   528
  8
0
  6
CONTINUOUS
 62
     3
 10
167.838256835938
 20
50.4806251525879
 30
0.0
 11
167.838256835938
 21
56.9806251525879
 31
0.0
  0
LINE
  5
   529
  8
0
  6
CONTINUOUS
 62
     3
 10
167.838256835938
 20
162.980621337891
 30
0.0
 11
167.838256835938
 21
169.480621337891
 31
0.0
  0
LINE
  5
   52A
  8
0
  6
CONTINUOUS
 62
     3
 10
167.838256835938
 20
29.4806251525879
 30
0.0
 11
167.838256835938
 21
49.4806251525879
 31
0.0
  0
LINE
  5
   52B
  8
0
  6
CONTINUOUS
 62
     3
 10
60.8382568359375
 20
170.480621337891
 30
0.0
 11
168.838256835938
 21
170.480621337891
 31
0.0
  0
LINE
  5
   52C
  8
0
  6
CONTINUOUS
 62
     3
 10
61.8382568359375
 20
169.480621337891
 30
0.0
 11
167.838256835938
 21
169.480621337891
 31
0.0
  0
ARC
  5
   52D
  8
0
  6
CONTINUOUS
 62
     3
 10
57.5882568359375
 20
30.7306251525879
 30
0.0
 40
1.25
 50
180.0
 51
270.0
  0
ARC
  5
   52E
  8
0
  6
CONTINUOUS
 62
     3
 10
172.088256835938
 20
30.7306251525879
 30
0.0
 40
1.25
 50
270.0
 51
360.0
  0
ARC
  5
   52F
  8
0
  6
CONTINUOUS
 62
     3
 10
172.088256835938
 20
189.230621337891
 30
0.0
 40
1.25
 50
0.0
 51
90.0
  0
ARC
  5
   530
  8
0
  6
CONTINUOUS
 62
     3
 10
57.5882568359375
 20
189.230621337891
 30
0.0
 40
1.25
 50
90.0
 51
180.0
  0
LINE
  5
   531
  8
0
  6
DOT
 62
     3
 10
60.3382577409677
 20
179.7306252571
 30
0.0
 11
60.8382568359375
 21
179.7306252571
 31
0.0
  0
LINE
  5
   532
  8
0
  6
DOT
 62
     3
 10
60.3382577409676
 20
181.2306252571
 30
0.0
 11
60.8382568359375
 21
181.2306252571
 31
0.0
  0
LINE
  5
   533
  8
0
  6
CONTINUOUS
 62
     3
 10
168.338257745313
 20
179.730625257273
 30
0.0
 11
168.838256835938
 21
179.730625257273
 31
0.0
  0
LINE
  5
   534
  8
0
  6
CONTINUOUS
 62
     3
 10
168.338257745314
 20
181.230625257273
 30
0.0
 11
168.838256835938
 21
181.230625257273
 31
0.0
  0
ARC
  5
   535
  8
0
  6
DOT
 62
     3
 10
60.3382577401871
 20
180.480625257147
 30
0.0
 40
0.749999999345164
 50
90.0
 51
270.0
  0
ARC
  5
   536
  8
0
  6
CONTINUOUS
 62
     3
 10
61.338257740822
 20
180.480625256974
 30
0.0
 40
0.750000000009701
 50
270.0
 51
450.0
  0
LINE
  5
   537
  8
0
  6
CONTINUOUS
 62
     3
 10
60.8382568359375
 20
181.2306252571
 30
0.0
 11
61.3382577409688
 21
181.2306252571
 31
0.0
  0
LINE
  5
   538
  8
0
  6
CONTINUOUS
 62
     3
 10
60.8382568359375
 20
179.7306252571
 30
0.0
 11
61.3382577409689
 21
179.7306252571
 31
0.0
  0
ARC
  5
   539
  8
0
  6
CONTINUOUS
 62
     3
 10
168.338257745503
 20
180.480625256952
 30
0.0
 40
0.750000000048506
 50
90.0000000038822
 51
269.999999996024
  0
ARC
  5
   53A
  8
0
  6
DOT
 62
     3
 10
169.338257745421
 20
180.480625256965
 30
0.0
 40
0.750000000029104
 50
270.000000002449
 51
449.999999997486
  0
LINE
  5
   53B
  8
0
  6
DOT
 62
     3
 10
168.838256835938
 20
181.230625257273
 30
0.0
 11
169.338257745315
 21
181.230625257273
 31
0.0
  0
LINE
  5
   53C
  8
0
  6
DOT
 62
     3
 10
168.838256835938
 20
179.730625257273
 30
0.0
 11
169.338257745315
 21
179.730625257273
 31
0.0
  0
POINT
  5
   53D
  8
0
  6
CONTINUOUS
 62
     3
 10
114.838256835938
 20
109.980621337891
 30
0.0
  0
ENDBLK
  5
   53E
  8
0
  6
CONTINUOUS
 62
     7
  0
BLOCK
  5
   53F
  8
0
  6
CONTINUOUS
 62
     7
  2
*UDIM110
 70
    65
 10
0.0
 20
0.0
 30
0.0
  3
*UDIM110
  0
TEXT
  5
   540
  8
0
  6
CONTINUOUS
 62
     7
 10
122.891163738792
 20
96.8421874661265
 30
0.0
 40
2.99999997871263
  1
344
 50
89.9999999480344
 41
0.933333333333333
 72
     1
 11
121.391163752968
 21
100.742187439812
 31
0.0
 73
     2
  0
LINE
  5
   541
  8
0
  6
CONTINUOUS
 62
     7
 10
99.7092443571437
 20
40.8171931273718
 30
0.0
 11
125.891163742324
 21
40.8171931273718
 31
0.0
  0
LINE
  5
   542
  8
0
  6
CONTINUOUS
 62
     7
 10
99.7092443571437
 20
161.217191076972
 30
0.0
 11
125.891163742324
 21
161.217191076972
 31
0.0
  0
LINE
  5
   543
  8
0
  6
CONTINUOUS
 62
     7
 10
123.891163742324
 20
40.8171931273718
 30
0.0
 11
123.891163742324
 21
161.217191076972
 31
0.0
  0
LINE
  5
   544
  8
0
  6
CONTINUOUS
 62
     7
 10
123.370219312373
 20
43.7716164045788
 30
0.0
 11
123.891163742324
 21
40.8171931273718
 31
0.0
  0
LINE
  5
   545
  8
0
  6
CONTINUOUS
 62
     7
 10
123.891163742324
 20
40.8171931273718
 30
0.0
 11
124.412108172276
 21
43.7716164045788
 31
0.0
  0
LINE
  5
   546
  8
0
  6
CONTINUOUS
 62
     7
 10
124.412108172276
 20
158.262767799765
 30
0.0
 11
123.891163742324
 21
161.217191076972
 31
0.0
  0
LINE
  5
   547
  8
0
  6
CONTINUOUS
 62
     7
 10
123.891163742324
 20
161.217191076972
 30
0.0
 11
123.370219312373
 21
158.262767799765
 31
0.0
  0
ENDBLK
  5
   548
  8
0
  6
CONTINUOUS
 62
     7
  0
BLOCK
  5
   549
  8
0
  6
CONTINUOUS
 62
     7
  2
*UDIM111
 70
    65
 10
0.0
 20
0.0
 30
0.0
  3
*UDIM111
  0
TEXT
  5
   54A
  8
0
  6
CONTINUOUS
 62
     7
 10
111.107951655382
 20
55.4109305636004
 30
0.0
 40
2.99999997871263
  1
131,25
 50
89.9999999480344
 41
0.933333333333333
 72
     1
 11
109.607951673362
 21
63.510930507483
 31
0.0
 73
     2
  0
LINE
  5
   54B
  8
0
  6
CONTINUOUS
 62
     7
 10
99.7092443571437
 20
40.8171931273718
 30
0.0
 11
114.107951662718
 21
40.8171931273718
 31
0.0
  0
LINE
  5
   54C
  8
0
  6
CONTINUOUS
 62
     7
 10
112.107951662718
 20
40.8171931273718
 30
0.0
 11
112.107951662718
 21
86.7546631933028
 31
0.0
  0
LINE
  5
   54D
  8
0
  6
CONTINUOUS
 62
     7
 10
111.587007232766
 20
43.7716164045788
 30
0.0
 11
112.107951662718
 21
40.8171931273718
 31
0.0
  0
LINE
  5
   54E
  8
0
  6
CONTINUOUS
 62
     7
 10
112.107951662718
 20
40.8171931273718
 30
0.0
 11
112.62889609267
 21
43.7716164045788
 31
0.0
  0
LINE
  5
   54F
  8
0
  6
CONTINUOUS
 62
     7
 10
112.62889609267
 20
83.8002399160958
 30
0.0
 11
112.107951662718
 21
86.7546631933028
 31
0.0
  0
LINE
  5
   550
  8
0
  6
CONTINUOUS
 62
     7
 10
112.107951662718
 20
86.7546631933028
 30
0.0
 11
111.587007232766
 21
83.8002399160958
 31
0.0
  0
ENDBLK
  5
   551
  8
0
  6
CONTINUOUS
 62
     7
  0
BLOCK
  5
   552
  8
0
  6
CONTINUOUS
 62
     7
  2
*UDIM112
 70
    65
 10
0.0
 20
0.0
 30
0.0
  3
*UDIM112
  0
TEXT
  5
   553
  8
0
  6
CONTINUOUS
 62
     7
 10
40.4876706410013
 20
82.5796503169141
 30
0.0
 40
2.99999997871263
  1
161
 50
89.9999999480344
 41
0.933333333333333
 72
     1
 11
38.9876706551773
 21
86.4796502905991
 31
0.0
 73
     2
  0
LINE
  5
   554
  8
0
  6
CONTINUOUS
 62
     7
 10
59.7342564703874
 20
58.5796516568227
 30
0.0
 11
39.4876706445336
 21
58.5796516568227
 31
0.0
  0
LINE
  5
   555
  8
0
  6
CONTINUOUS
 62
     7
 10
59.7342564703874
 20
114.929649362044
 30
0.0
 11
39.4876706445336
 21
114.929649362044
 31
0.0
  0
LINE
  5
   556
  8
0
  6
CONTINUOUS
 62
     7
 10
41.4876706445336
 20
58.5796516568227
 30
0.0
 11
41.4876706445336
 21
114.929649362044
 31
0.0
  0
LINE
  5
   557
  8
0
  6
CONTINUOUS
 62
     7
 10
40.9667262145819
 20
61.5340749340296
 30
0.0
 11
41.4876706445336
 21
58.5796516568227
 31
0.0
  0
LINE
  5
   558
  8
0
  6
CONTINUOUS
 62
     7
 10
41.4876706445336
 20
58.5796516568227
 30
0.0
 11
42.0086150744853
 21
61.5340749340296
 31
0.0
  0
LINE
  5
   559
  8
0
  6
CONTINUOUS
 62
     7
 10
42.0086150744853
 20
111.975226084837
 30
0.0
 11
41.4876706445336
 21
114.929649362044
 31
0.0
  0
LINE
  5
   55A
  8
0
  6
CONTINUOUS
 62
     7
 10
41.4876706445336
 20
114.929649362044
 30
0.0
 11
40.9667262145819
 21
111.975226084837
 31
0.0
  0
ENDBLK
  5
   55B
  8
0
  6
CONTINUOUS
 62
     7
  0
BLOCK
  5
   55C
  8
0
  6
CONTINUOUS
 62
     7
  2
*UDIM113
 70
    65
 10
0.0
 20
0.0
 30
0.0
  3
*UDIM113
  0
TEXT
  5
   55D
  8
0
  6
CONTINUOUS
 62
     7
 10
76.5967588364032
 20
21.7932160321733
 30
0.0
 40
2.99999997871263
  1
117
 50
359.999999948034
 41
0.933333333333333
 72
     1
 11
80.4967588100825
 21
23.293216018012
 31
0.0
 73
     2
  0
LINE
  5
   55E
  8
0
  6
CONTINUOUS
 62
     7
 10
101.246755780464
 20
58.0171516493721
 30
0.0
 11
101.246755780464
 21
18.7932160286557
 31
0.0
  0
LINE
  5
   55F
  8
0
  6
CONTINUOUS
 62
     7
 10
60.296756477838
 20
58.0171516493721
 30
0.0
 11
60.296756477838
 21
18.7932160286557
 31
0.0
  0
LINE
  5
   560
  8
0
  6
CONTINUOUS
 62
     7
 10
101.246755780464
 20
20.7932160286557
 30
0.0
 11
60.296756477838
 21
20.7932160286557
 31
0.0
  0
LINE
  5
   561
  8
0
  6
CONTINUOUS
 62
     7
 10
98.2923325032567
 20
20.272271598704
 30
0.0
 11
101.246755780464
 21
20.7932160286557
 31
0.0
  0
LINE
  5
   562
  8
0
  6
CONTINUOUS
 62
     7
 10
101.246755780464
 20
20.7932160286557
 30
0.0
 11
98.2923325032567
 21
21.3141604586074
 31
0.0
  0
LINE
  5
   563
  8
0
  6
CONTINUOUS
 62
     7
 10
63.2511797550449
 20
21.3141604586074
 30
0.0
 11
60.296756477838
 21
20.7932160286557
 31
0.0
  0
LINE
  5
   564
  8
0
  6
CONTINUOUS
 62
     7
 10
60.296756477838
 20
20.7932160286557
 30
0.0
 11
63.2511797550449
 21
20.272271598704
 31
0.0
  0
ENDBLK
  5
   565
  8
0
  6
CONTINUOUS
 62
     7
  0
BLOCK
  5
   566
  8
0
  6
CONTINUOUS
 62
     7
  2
*UDIM114
 70
    65
 10
0.0
 20
0.0
 30
0.0
  3
*UDIM114
  0
TEXT
  5
   567
  8
0
  6
CONTINUOUS
 62
     7
 10
76.5967828539526
 20
174.974954375042
 30
0.0
 40
2.99999997871263
  1
105
 50
359.999999948034
 41
0.933333333333333
 72
     1
 11
80.496782827632
 21
176.474954360881
 31
0.0
 73
     2
  0
LINE
  5
   568
  8
0
  6
CONTINUOUS
 62
     7
 10
99.1467819407951
 20
105.954662883359
 30
0.0
 11
99.1467819407951
 21
175.974954371524
 31
0.0
  0
LINE
  5
   569
  8
0
  6
CONTINUOUS
 62
     7
 10
62.3967879072297
 20
105.954662883359
 30
0.0
 11
62.3967879072297
 21
175.974954371524
 31
0.0
  0
LINE
  5
   56A
  8
0
  6
CONTINUOUS
 62
     7
 10
99.1467819407951
 20
173.974954371524
 30
0.0
 11
62.3967879072297
 21
173.974954371524
 31
0.0
  0
LINE
  5
   56B
  8
0
  6
CONTINUOUS
 62
     7
 10
96.1923586635882
 20
173.454009941573
 30
0.0
 11
99.1467819407951
 21
173.974954371524
 31
0.0
  0
LINE
  5
   56C
  8
0
  6
CONTINUOUS
 62
     7
 10
99.1467819407951
 20
173.974954371524
 30
0.0
 11
96.1923586635882
 21
174.495898801476
 31
0.0
  0
LINE
  5
   56D
  8
0
  6
CONTINUOUS
 62
     7
 10
65.3512111844367
 20
174.495898801476
 30
0.0
 11
62.3967879072297
 21
173.974954371524
 31
0.0
  0
LINE
  5
   56E
  8
0
  6
CONTINUOUS
 62
     7
 10
62.3967879072297
 20
173.974954371524
 30
0.0
 11
65.3512111844367
 21
173.454009941573
 31
0.0
  0
ENDBLK
  5
   56F
  8
0
  6
CONTINUOUS
 62
     7
  0
BLOCK
  5
   570
  8
0
  6
CONTINUOUS
 62
     7
  2
*UDIM115
 70
    65
 10
0.0
 20
0.0
 30
0.0
  3
*UDIM115
  0
TEXT
  5
   571
  8
0
  6
CONTINUOUS
 62
     7
 10
84.927321251503
 20
31.6656354108189
 30
0.0
 40
2.99999997871263
  1
35
 50
359.999999948034
 41
0.933333333333333
 72
     1
 11
87.4273212351164
 21
33.1656353979204
 31
0.0
 73
     2
  0
LINE
  5
   572
  8
0
  6
CONTINUOUS
 62
     7
 10
93.0217872262329
 20
40.9021657062717
 30
0.0
 11
93.0217872262329
 21
28.6656354085641
 31
0.0
  0
LINE
  5
   573
  8
0
  6
CONTINUOUS
 62
     7
 10
80.7717877524187
 20
36.5018129505713
 30
0.0
 11
80.7717877524187
 21
28.6656354085641
 31
0.0
  0
LINE
  5
   574
  8
0
  6
CONTINUOUS
 62
     7
 10
93.0217872262329
 20
30.6656354085641
 30
0.0
 11
80.7717877524187
 21
30.6656354085641
 31
0.0
  0
LINE
  5
   575
  8
0
  6
CONTINUOUS
 62
     7
 10
90.0673639490259
 20
30.1446909786124
 30
0.0
 11
93.0217872262329
 21
30.6656354085641
 31
0.0
  0
LINE
  5
   576
  8
0
  6
CONTINUOUS
 62
     7
 10
93.0217872262329
 20
30.6656354085641
 30
0.0
 11
90.0673639490259
 21
31.1865798385157
 31
0.0
  0
LINE
  5
   577
  8
0
  6
CONTINUOUS
 62
     7
 10
83.7262110296256
 20
31.1865798385157
 30
0.0
 11
80.7717877524187
 21
30.6656354085641
 31
0.0
  0
LINE
  5
   578
  8
0
  6
CONTINUOUS
 62
     7
 10
80.7717877524187
 20
30.6656354085641
 30
0.0
 11
83.7262110296256
 21
30.1446909786124
 31
0.0
  0
ENDBLK
  5
   579
  8
0
  6
CONTINUOUS
 62
     7
  0
BLOCK
  5
   57A
  8
0
  6
CONTINUOUS
 62
     7
  2
*UDIM116
 70
    65
 10
0.0
 20
0.0
 30
0.0
  3
*UDIM116
  0
TEXT
  5
   57B
  8
0
  6
CONTINUOUS
 62
     7
 10
73.6218076243728
 20
31.6656354108189
 30
0.0
 40
2.99999997871263
  1
35
 50
359.999999948034
 41
0.933333333333333
 72
     1
 11
76.1218076079863
 21
33.1656353979204
 31
0.0
 73
     2
  0
LINE
  5
   57C
  8
0
  6
CONTINUOUS
 62
     7
 10
68.521787364104
 20
40.9021625296207
 30
0.0
 11
68.521787364104
 21
28.6656354085641
 31
0.0
  0
LINE
  5
   57D
  8
0
  6
CONTINUOUS
 62
     7
 10
80.7717877524187
 20
30.6656354085641
 30
0.0
 11
68.521787364104
 21
30.6656354085641
 31
0.0
  0
LINE
  5
   57E
  8
0
  6
CONTINUOUS
 62
     7
 10
77.8173644752117
 20
30.1446909786124
 30
0.0
 11
80.7717877524187
 21
30.6656354085641
 31
0.0
  0
LINE
  5
   57F
  8
0
  6
CONTINUOUS
 62
     7
 10
80.7717877524187
 20
30.6656354085641
 30
0.0
 11
77.8173644752117
 21
31.1865798385157
 31
0.0
  0
LINE
  5
   580
  8
0
  6
CONTINUOUS
 62
     7
 10
71.476210641311
 20
31.1865798385157
 30
0.0
 11
68.521787364104
 21
30.6656354085641
 31
0.0
  0
LINE
  5
   581
  8
0
  6
CONTINUOUS
 62
     7
 10
68.521787364104
 20
30.6656354085641
 30
0.0
 11
71.476210641311
 21
30.1446909786124
 31
0.0
  0
ENDBLK
  5
   582
  8
0
  6
CONTINUOUS
 62
     7
  0
BLOCK
  5
   583
  8
0
  6
CONTINUOUS
 62
     7
  2
*UDIM117
 70
    65
 10
0.0
 20
0.0
 30
0.0
  3
*UDIM117
  0
TEXT
  5
   584
  8
0
  6
CONTINUOUS
 62
     7
 10
60.0074242253276
 20
31.6656354108189
 30
0.0
 40
2.99999997871263
  1
35
 50
359.999999948034
 41
0.933333333333333
 72
     1
 11
62.5074242089411
 21
33.1656353979204
 31
0.0
 73
     2
  0
LINE
  5
   585
  8
0
  6
CONTINUOUS
 62
     7
 10
56.2717875727203
 20
38.1021625773045
 30
0.0
 11
56.2717875727203
 21
28.6656354085641
 31
0.0
  0
LINE
  5
   586
  8
0
  6
CONTINUOUS
 62
     7
 10
68.521787364104
 20
30.6656354085641
 30
0.0
 11
56.2717875727203
 21
30.6656354085641
 31
0.0
  0
LINE
  5
   587
  8
0
  6
CONTINUOUS
 62
     7
 10
65.5673640868971
 20
30.1446909786124
 30
0.0
 11
68.521787364104
 21
30.6656354085641
 31
0.0
  0
LINE
  5
   588
  8
0
  6
CONTINUOUS
 62
     7
 10
68.521787364104
 20
30.6656354085641
 30
0.0
 11
65.5673640868971
 21
31.1865798385157
 31
0.0
  0
LINE
  5
   589
  8
0
  6
CONTINUOUS
 62
     7
 10
59.2262108499272
 20
31.1865798385157
 30
0.0
 11
56.2717875727203
 21
30.6656354085641
 31
0.0
  0
LINE
  5
   58A
  8
0
  6
CONTINUOUS
 62
     7
 10
56.2717875727203
 20
30.6656354085641
 30
0.0
 11
59.2262108499272
 21
30.1446909786124
 31
0.0
  0
ENDBLK
  5
   58B
  8
0
  6
CONTINUOUS
 62
     7
  0
BLOCK
  5
   58C
  8
0
  6
CONTINUOUS
 62
     7
  2
*UDIM118
 70
    65
 10
0.0
 20
0.0
 30
0.0
  3
*UDIM118
  0
TEXT
  5
   58D
  8
0
  6
CONTINUOUS
 62
     7
 10
70.4717749473037
 20
182.936589066116
 30
0.0
 40
2.99999997871263
  1
140
 50
359.999999948034
 41
0.933333333333333
 72
     1
 11
74.3717749209831
 21
184.436589051955
 31
0.0
 73
     2
  0
LINE
  5
   58E
  8
0
  6
CONTINUOUS
 62
     7
 10
99.1467632068795
 20
161.779691084428
 30
0.0
 11
99.1467632068795
 21
183.936589062599
 31
0.0
  0
LINE
  5
   58F
  8
0
  6
CONTINUOUS
 62
     7
 10
50.1467827752602
 20
161.779691084423
 30
0.0
 11
50.1467827752602
 21
183.936589062599
 31
0.0
  0
LINE
  5
   590
  8
0
  6
CONTINUOUS
 62
     7
 10
99.1467632068795
 20
181.936589062599
 30
0.0
 11
50.1467827752602
 21
181.936589062599
 31
0.0
  0
LINE
  5
   591
  8
0
  6
CONTINUOUS
 62
     7
 10
96.1923399296726
 20
181.415644632647
 30
0.0
 11
99.1467632068795
 21
181.936589062599
 31
0.0
  0
LINE
  5
   592
  8
0
  6
CONTINUOUS
 62
     7
 10
99.1467632068795
 20
181.936589062599
 30
0.0
 11
96.1923399296726
 21
182.45753349255
 31
0.0
  0
LINE
  5
   593
  8
0
  6
CONTINUOUS
 62
     7
 10
53.1012060524672
 20
182.45753349255
 30
0.0
 11
50.1467827752602
 21
181.936589062599
 31
0.0
  0
LINE
  5
   594
  8
0
  6
CONTINUOUS
 62
     7
 10
50.1467827752602
 20
181.936589062599
 30
0.0
 11
53.1012060524672
 21
181.415644632647
 31
0.0
  0
ENDBLK
  5
   595
  8
0
  6
CONTINUOUS
 62
     7
  0
BLOCK
  5
   596
  8
0
  6
CONTINUOUS
 62
     7
  2
*UDIM119
 70
    65
 10
0.0
 20
0.0
 30
0.0
  3
*UDIM119
  0
TEXT
  5
   597
  8
0
  6
CONTINUOUS
 62
     7
 10
85.9058548437157
 20
167.092947674597
 30
0.0
 40
2.99999997871263
  1
52,5
 50
359.999999948034
 41
0.933333333333333
 72
     1
 11
91.205854807461
 21
168.592947659173
 31
0.0
 73
     2
  0
LINE
  5
   598
  8
0
  6
CONTINUOUS
 62
     7
 10
99.1467632068795
 20
161.779691084428
 30
0.0
 11
99.1467632068795
 21
168.092947669817
 31
0.0
  0
LINE
  5
   599
  8
0
  6
CONTINUOUS
 62
     7
 10
80.7717877524187
 20
165.27900175177
 30
0.0
 11
80.7717877524187
 21
168.092947669817
 31
0.0
  0
LINE
  5
   59A
  8
0
  6
CONTINUOUS
 62
     7
 10
99.1467632068795
 20
166.092947669817
 30
0.0
 11
80.7717877524187
 21
166.092947669817
 31
0.0
  0
LINE
  5
   59B
  8
0
  6
CONTINUOUS
 62
     7
 10
102.101186484087
 20
166.613892099768
 30
0.0
 11
99.1467632068795
 21
166.092947669817
 31
0.0
  0
LINE
  5
   59C
  8
0
  6
CONTINUOUS
 62
     7
 10
99.1467632068795
 20
166.092947669817
 30
0.0
 11
102.101186484087
 21
165.572003239865
 31
0.0
  0
LINE
  5
   59D
  8
0
  6
CONTINUOUS
 62
     7
 10
77.8173644752117
 20
165.572003239865
 30
0.0
 11
80.7717877524187
 21
166.092947669817
 31
0.0
  0
LINE
  5
   59E
  8
0
  6
CONTINUOUS
 62
     7
 10
80.7717877524187
 20
166.092947669817
 30
0.0
 11
77.8173644752117
 21
166.613892099768
 31
0.0
  0
ENDBLK
  5
   59F
  8
0
  6
CONTINUOUS
 62
     7
  0
ENDSEC
  0
SECTION
  2
ENTITIES
  0
LINE
  5
   5A0
  8
0
  6
CONTINUOUS
 62
     7
 10
66.7717895507813
 20
-115.768859863281
 30
0.0
 11
94.7717895507813
 21
-115.768859863281
 31
0.0
  0
LINE
  5
   5A1
  8
0
  6
CONTINUOUS
 62
     7
 10
66.7717895507813
 20
-87.7688598632813
 30
0.0
 11
94.7717895507813
 21
-87.7688598632813
 31
0.0
  0
LINE
  5
   5A2
  8
0
  6
CONTINUOUS
 62
     7
 10
66.7717895507813
 20
-87.7688598632813
 30
0.0
 11
66.7717895507813
 21
-115.768859863281
 31
0.0
  0
LINE
  5
   5A3
  8
0
  6
CONTINUOUS
 62
     7
 10
94.7717895507813
 20
-87.7688598632813
 30
0.0
 11
94.7717895507813
 21
-115.768859863281
 31
0.0
  0
LINE
  5
   5A4
  8
0
  6
DASHDOT
 62
     7
 10
80.7717895507813
 20
-72.6748966173057
 30
0.0
 11
80.7717895507813
 21
-131.805650141088
 31
0.0
  0
CIRCLE
  5
   5A5
  8
0
  6
CONTINUOUS
 62
     7
 10
70.7717895507813
 20
-84.0188598632813
 30
0.0
 40
0.875
  0
CIRCLE
  5
   5A6
  8
0
  6
CONTINUOUS
 62
     7
 10
90.7717895507813
 20
-84.0188598632813
 30
0.0
 40
0.875
  0
CIRCLE
  5
   5A7
  8
0
  6
CONTINUOUS
 62
     7
 10
90.7717895507813
 20
-119.518859863281
 30
0.0
 40
0.875
  0
CIRCLE
  5
   5A8
  8
0
  6
CONTINUOUS
 62
     7
 10
70.7717895507813
 20
-119.518859863281
 30
0.0
 40
0.875
  0
LINE
  5
   5A9
  8
0
  6
CONTINUOUS
 62
     3
 10
62.8072938813668
 20
-81.66905956599
 30
0.0
 11
98.6106631513523
 21
-81.66905956599
 31
0.0
  0
LINE
  5
   5AA
  8
0
  6
CONTINUOUS
 62
     3
 10
62.8072938813668
 20
-122.874340690745
 30
0.0
 11
98.6106631513523
 21
-122.874340690745
 31
0.0
  0
LINE
  5
   5AB
  8
0
  6
CONTINUOUS
 62
     3
 10
98.6106631513523
 20
-81.66905956599
 30
0.0
 11
98.6106631513523
 21
-122.874340690745
 31
0.0
  0
LINE
  5
   5AC
  8
0
  6
CONTINUOUS
 62
     3
 10
62.8072938813668
 20
-81.66905956599
 30
0.0
 11
62.8072938813668
 21
-122.874340690745
 31
0.0
  0
LINE
  5
   5AD
  8
0
  6
DASHDOT
 62
     7
 10
90.7717895507813
 20
-82.3938598632813
 30
0.0
 11
90.7717895507813
 21
-85.6438598632812
 31
0.0
  0
LINE
  5
   5AE
  8
0
  6
DASHDOT
 62
     7
 10
89.1467895507813
 20
-84.0188598632813
 30
0.0
 11
92.3967895507812
 21
-84.0188598632813
 31
0.0
  0
LINE
  5
   5AF
  8
0
  6
DASHDOT
 62
     7
 10
70.7717895507813
 20
-82.3938598632813
 30
0.0
 11
70.7717895507813
 21
-85.6438598632812
 31
0.0
  0
LINE
  5
   5B0
  8
0
  6
DASHDOT
 62
     7
 10
69.1467895507813
 20
-84.0188598632813
 30
0.0
 11
72.3967895507813
 21
-84.0188598632813
 31
0.0
  0
LINE
  5
   5B1
  8
0
  6
DASHDOT
 62
     7
 10
70.7717895507813
 20
-117.893859863281
 30
0.0
 11
70.7717895507813
 21
-121.143859863281
 31
0.0
  0
LINE
  5
   5B2
  8
0
  6
DASHDOT
 62
     7
 10
69.1467895507813
 20
-119.518859863281
 30
0.0
 11
72.3967895507813
 21
-119.518859863281
 31
0.0
  0
LINE
  5
   5B3
  8
0
  6
DASHDOT
 62
     7
 10
90.7717895507813
 20
-117.893859863281
 30
0.0
 11
90.7717895507813
 21
-121.143859863281
 31
0.0
  0
LINE
  5
   5B4
  8
0
  6
DASHDOT
 62
     7
 10
89.1467895507813
 20
-119.518859863281
 30
0.0
 11
92.3967895507812
 21
-119.518859863281
 31
0.0
  0
LINE
  5
   5B5
  8
0
  6
DASHDOT
 62
     7
 10
55.4059319974247
 20
-101.768859863281
 30
0.0
 11
102.464087547231
 21
-101.768859863281
 31
0.0
  0
INSERT
  5
   5B6
  8
0
  6
CONTINUOUS
 62
     7
  2
*UDIM78
 10
0.0
 20
0.0
 30
0.0
  0
INSERT
  5
   5B7
  8
0
  6
CONTINUOUS
 62
     7
  2
*UDIM79
 10
0.0
 20
0.0
 30
0.0
  0
INSERT
  5
   5B8
  8
0
  6
CONTINUOUS
 62
     7
  2
*UDIM80
 10
0.0
 20
0.0
 30
0.0
  0
INSERT
  5
   5B9
  8
0
  6
CONTINUOUS
 62
     7
  2
*UDIM81
 10
0.0
 20
0.0
 30
0.0
  0
INSERT
  5
   5BA
  8
0
  6
CONTINUOUS
 62
     7
  2
*UDIM82
 10
0.0
 20
0.0
 30
0.0
  0
TEXT
  5
   5BB
  8
0
  6
CONTINUOUS
 62
     7
 10
73.5217855253788
 20
-75.2309821213938
 30
0.0
 40
3.00000002980232
  1
=   =
 50
359.999999844103
 41
0.916666604744064
 72
     2
 11
86.7217847604525
 21
-75.2309821572435
 31
0.0
  0
TEXT
  5
   5BC
  8
0
  6
CONTINUOUS
 62
     7
 10
72.3054360820822
 20
-66.7107013397499
 30
0.0
 40
3.00000002980232
  1
=    =
 50
359.999999844103
 41
0.916666604744064
 72
     2
 11
88.2554351587069
 21
-66.7107013830683
 31
0.0
  0
TEXT
  5
   5BD
  8
0
  6
CONTINUOUS
 62
     7
 10
54.2130919130878
 20
-112.032759363547
 30
0.0
 40
3.00000002980232
  1
=     =
 50
449.999999844103
 41
0.916666604744064
 72
     2
 11
54.2130919638514
 21
-93.3327604453712
 31
0.0
  0
TEXT
  5
   5BE
  8
0
  6
CONTINUOUS
 62
     7
 10
44.499972158374
 20
-114.124646520709
 30
0.0
 40
3.00000002980232
  1
=       =
 50
449.999999844103
 41
0.916666604744064
 72
     2
 11
44.4999722240681
 21
-89.9246479194313
 31
0.0
  0
TEXT
  5
   5BF
  8
0
  6
CONTINUOUS
 62
     7
 10
79.5800216097605
 20
-135.21376425981
 30
0.0
 40
3.00000002980232
  1
Y
 50
359.999999844103
 41
0.916666604744064
 72
     2
 11
81.7800214786303
 21
-135.213764265785
 31
0.0
  0
TEXT
  5
   5C0
  8
0
  6
CONTINUOUS
 62
     7
 10
79.7504272360575
 20
-57.3383904194781
 30
0.0
 40
3.00000002980232
  1
Y
 50
359.999999844103
 41
0.916666604744064
 72
     2
 11
81.9504271049273
 21
-57.3383904254531
 31
0.0
  0
TEXT
  5
   5C1
  8
0
  6
CONTINUOUS
 62
     7
 10
31.3552285332453
 20
-103.177504370207
 30
0.0
 40
3.00000002980232
  1
X
 50
359.999999844103
 41
0.916666604744064
 72
     2
 11
33.5552284021151
 21
-103.177504376182
 31
0.0
  0
LINE
  5
   5C2
  8
0
  6
CONTINUOUS
 62
     7
 10
229.062364798784
 20
96.467156161445
 30
0.0
 11
229.062364798784
 21
96.6421454773126
 31
0.0
  0
LINE
  5
   5C3
  8
0
  6
CONTINUOUS
 62
     7
 10
229.062364798784
 20
101.892145387906
 30
0.0
 11
229.062364798784
 21
108.892134587544
 31
0.0
  0
LINE
  5
   5C4
  8
0
  6
CONTINUOUS
 62
     7
 10
229.937375465035
 20
96.6421454773126
 30
0.0
 11
229.937375465035
 21
101.892145387906
 31
0.0
  0
LINE
  5
   5C5
  8
0
  6
CONTINUOUS
 62
     7
 10
229.937375465035
 20
96.6421454773126
 30
0.0
 11
229.062364798784
 21
96.6421454773126
 31
0.0
  0
LINE
  5
   5C6
  8
0
  6
CONTINUOUS
 62
     7
 10
229.937375465035
 20
101.892145387906
 30
0.0
 11
229.062364798784
 21
101.892145387906
 31
0.0
  0
LINE
  5
   5C7
  8
0
  6
CONTINUOUS
 62
     7
 10
229.937375465035
 20
108.892134587544
 30
0.0
 11
229.937375465035
 21
114.142134498137
 31
0.0
  0
LINE
  5
   5C8
  8
0
  6
CONTINUOUS
 62
     7
 10
229.937375465035
 20
108.892134587544
 30
0.0
 11
229.062364798784
 21
108.892134587544
 31
0.0
  0
LINE
  5
   5C9
  8
0
  6
CONTINUOUS
 62
     7
 10
229.937375465035
 20
114.142134498137
 30
0.0
 11
229.062364798784
 21
114.142134498137
 31
0.0
  0
LINE
  5
   5CA
  8
0
  6
CONTINUOUS
 62
     7
 10
253.037359049916
 20
96.4671454802929
 30
0.0
 11
253.037359049916
 21
115.717134471315
 31
0.0
  0
LINE
  5
   5CB
  8
0
  6
CONTINUOUS
 62
     2
 10
229.062343436317
 20
115.542134474295
 30
0.0
 11
229.062343436317
 21
122.757252759626
 31
0.0
  0
LINE
  5
   5CC
  8
0
  6
CONTINUOUS
 62
     7
 10
254.262364369631
 20
121.842134367007
 30
0.0
 11
253.037364390492
 21
121.842134367007
 31
0.0
  0
LINE
  5
   5CD
  8
0
  6
CONTINUOUS
 62
     7
 10
253.037327006211
 20
115.71713141959
 30
0.0
 11
253.037327006211
 21
121.842131315282
 31
0.0
  0
LINE
  5
   5CE
  8
0
  6
CONTINUOUS
 62
     7
 10
230.462364774942
 20
116.417134459394
 30
0.0
 11
229.062364798784
 21
116.417134459394
 31
0.0
  0
LINE
  5
   5CF
  8
0
  6
CONTINUOUS
 62
     7
 10
230.46236566491
 20
116.417130015629
 30
0.0
 11
230.462379016358
 21
121.667134369987
 31
0.0
  0
LINE
  5
   5D0
  8
0
  6
CONTINUOUS
 62
     7
 10
253.037359049916
 20
93.1421508774934
 30
0.0
 11
253.037359049916
 21
96.467156161445
 31
0.0
  0
LINE
  5
   5D1
  8
0
  6
CONTINUOUS
 62
     7
 10
229.062368368547
 20
71.7921601441187
 30
0.0
 11
229.062379049699
 21
71.895142430983
 31
0.0
  0
LINE
  5
   5D2
  8
0
  6
CONTINUOUS
 62
     7
 10
229.062375479839
 20
77.2891765128787
 30
0.0
 11
229.062375479839
 21
96.4671531760258
 31
0.0
  0
LINE
  5
   5D3
  8
0
  6
CONTINUOUS
 62
     7
 10
253.912364375591
 20
76.5171565011915
 30
0.0
 11
230.112353031635
 21
76.5171565011915
 31
0.0
  0
LINE
  5
   5D4
  8
0
  6
CONTINUOUS
 62
     7
 10
253.912364375591
 20
72.6671565667566
 30
0.0
 11
230.112353031635
 21
72.6671565667566
 31
0.0
  0
LINE
  5
   5D5
  8
0
  6
CONTINUOUS
 62
     7
 10
231.943585398405
 20
76.5171600604194
 30
0.0
 11
229.062376769568
 21
77.2891800464199
 31
0.0
  0
LINE
  5
   5D6
  8
0
  6
CONTINUOUS
 62
     7
 10
229.062378384461
 20
71.8951394388785
 30
0.0
 11
231.943587079639
 21
72.6671569408085
 31
0.0
  0
LINE
  5
   5D7
  8
0
  6
CONTINUOUS
 62
     7
 10
254.262359029055
 20
77.5671564833101
 30
0.0
 11
251.462359076738
 21
77.5671564833101
 31
0.0
  0
LINE
  5
   5D8
  8
0
  6
CONTINUOUS
 62
     7
 10
251.462359076738
 20
77.5671564833101
 30
0.0
 11
251.462359076738
 21
92.4421508894143
 31
0.0
  0
LINE
  5
   5D9
  8
0
  6
CONTINUOUS
 62
     7
 10
229.412375473976
 20
74.7671565309938
 30
0.0
 11
229.412375473976
 21
77.1953936417408
 31
0.0
  0
LINE
  5
   5DA
  8
0
  6
CONTINUOUS
 62
     7
 10
229.412370544226
 20
71.9889229056733
 30
0.0
 11
229.412375884797
 21
72.3171600534345
 31
0.0
  0
LINE
  5
   5DB
  8
0
  6
CONTINUOUS
 62
     2
 10
229.062375479936
 20
77.5671564833101
 30
0.0
 11
228.362375491857
 21
77.5671564833101
 31
0.0
  0
LINE
  5
   5DC
  8
0
  6
CONTINUOUS
 62
     2
 10
229.062375479936
 20
79.4921564505275
 30
0.0
 11
228.362375491857
 21
79.4921564505275
 31
0.0
  0
LINE
  5
   5DD
  8
0
  6
CONTINUOUS
 62
     7
 10
254.262351465556
 20
72.3171702318845
 30
0.0
 11
253.912356823501
 21
72.6671648739394
 31
0.0
  0
LINE
  5
   5DE
  8
0
  6
CONTINUOUS
 62
     7
 10
253.912359952807
 20
76.5171569918763
 30
0.0
 11
254.262359934867
 21
76.8671569739358
 31
0.0
  0
LINE
  5
   5DF
  8
0
  6
CONTINUOUS
 62
     7
 10
253.037359049916
 20
92.4421508894143
 30
0.0
 11
253.037359049916
 21
93.1421508774934
 31
0.0
  0
LINE
  5
   5E0
  8
0
  6
CONTINUOUS
 62
     2
 10
229.762375468015
 20
65.4921673700987
 30
0.0
 11
228.362375491857
 21
65.4921673700987
 31
0.0
  0
LINE
  5
   5E1
  8
0
  6
CONTINUOUS
 62
     7
 10
229.062364798784
 20
70.3921566054996
 30
0.0
 11
229.062364798784
 21
71.7921565816578
 31
0.0
  0
LINE
  5
   5E2
  8
0
  6
CONTINUOUS
 62
     7
 10
254.262359029055
 20
67.242167340296
 30
0.0
 11
250.762364429235
 21
67.242167340296
 31
0.0
  0
LINE
  5
   5E3
  8
0
  6
CONTINUOUS
 62
     7
 10
250.762364429235
 20
65.4921673700983
 30
0.0
 11
250.762364429235
 21
67.242167340296
 31
0.0
  0
LINE
  5
   5E4
  8
0
  6
CONTINUOUS
 62
     7
 10
229.062364798784
 20
66.3671739774989
 30
0.0
 11
229.062364798784
 21
70.3921566054996
 31
0.0
  0
LINE
  5
   5E5
  8
0
  6
CONTINUOUS
 62
     2
 10
229.062364798784
 20
115.542134474295
 30
0.0
 11
228.887375482916
 21
115.542134474295
 31
0.0
  0
LINE
  5
   5E6
  8
0
  6
CONTINUOUS
 62
     7
 10
229.06237013936
 20
90.8671562568125
 30
0.0
 11
228.887375482916
 21
90.8671562568125
 31
0.0
  0
LINE
  5
   5E7
  8
0
  6
CONTINUOUS
 62
     7
 10
229.062375479936
 20
79.6671577826913
 30
0.0
 11
228.887375482916
 21
79.6671577826913
 31
0.0
  0
LINE
  5
   5E8
  8
0
  6
CONTINUOUS
 62
     7
 10
229.412375473976
 20
77.0421568260368
 30
0.0
 11
228.887375482916
 21
77.0421568260368
 31
0.0
  0
LINE
  5
   5E9
  8
0
  6
CONTINUOUS
 62
     7
 10
229.062364798784
 20
71.4421619281943
 30
0.0
 11
228.887375482916
 21
71.4421619281943
 31
0.0
  0
LINE
  5
   5EA
  8
0
  6
CONTINUOUS
 62
     2
 10
228.887375482916
 20
66.682170692652
 30
0.0
 11
228.887375482916
 21
77.567151142734
 31
0.0
  0
LINE
  5
   5EB
  8
0
  6
CONTINUOUS
 62
     2
 10
228.887375482916
 20
79.4921511099515
 30
0.0
 11
228.887375482916
 21
115.542129133719
 31
0.0
  0
LINE
  5
   5EC
  8
0
  6
CONTINUOUS
 62
     7
 10
229.412375473976
 20
108.892150609272
 30
0.0
 11
229.412375473976
 21
114.142134498137
 31
0.0
  0
LINE
  5
   5ED
  8
0
  6
CONTINUOUS
 62
     7
 10
229.412375473976
 20
96.642166839617
 30
0.0
 11
229.412375473976
 21
101.892161409634
 31
0.0
  0
LINE
  5
   5EE
  8
0
  6
CONTINUOUS
 62
     7
 10
229.412375473976
 20
72.3171832755975
 30
0.0
 11
229.412375473976
 21
74.7671832338742
 31
0.0
  0
LINE
  5
   5EF
  8
0
  6
CONTINUOUS
 62
     2
 10
229.027372747371
 20
66.5421734281974
 30
0.0
 11
228.887374887599
 21
66.6821712879691
 31
0.0
  0
LINE
  5
   5F0
  8
0
  6
CONTINUOUS
 62
     2
 10
229.062375479936
 20
121.142134378928
 30
0.0
 11
228.362375491857
 21
121.142134378928
 31
0.0
  0
LINE
  5
   5F1
  8
0
  6
CONTINUOUS
 62
     2
 10
229.062375479936
 20
124.992134313363
 30
0.0
 11
228.362375491857
 21
124.992134313363
 31
0.0
  0
LINE
  5
   5F2
  8
0
  6
CONTINUOUS
 62
     2
 10
229.062375479936
 20
124.051210257121
 30
0.0
 11
228.362375491857
 21
124.051210257121
 31
0.0
  0
LINE
  5
   5F3
  8
0
  6
CONTINUOUS
 62
     2
 10
229.062375479936
 20
122.757252759626
 30
0.0
 11
228.362375491857
 21
122.757252759626
 31
0.0
  0
LINE
  5
   5F4
  8
0
  6
CONTINUOUS
 62
     7
 10
253.212353706359
 20
97.5171333192098
 30
0.0
 11
253.212353706359
 21
116.592149016093
 31
0.0
  0
LINE
  5
   5F5
  8
0
  6
CONTINUOUS
 62
     7
 10
262.837364223599
 20
122.017146326905
 30
0.0
 11
262.837364223599
 21
122.192146323925
 31
0.0
  0
LINE
  5
   5F6
  8
0
  6
CONTINUOUS
 62
     7
 10
254.262364369631
 20
121.667140992289
 30
0.0
 11
254.262364369631
 21
122.017146326905
 31
0.0
  0
LINE
  5
   5F7
  8
0
  6
CONTINUOUS
 62
     7
 10
262.13736423552
 20
122.017146326905
 30
0.0
 11
262.032363169193
 21
122.017146326905
 31
0.0
  0
LINE
  5
   5F8
  8
0
  6
CONTINUOUS
 62
     7
 10
254.262364369631
 20
121.667151673441
 30
0.0
 11
253.212364387512
 21
121.667151673441
 31
0.0
  0
LINE
  5
   5F9
  8
0
  6
CONTINUOUS
 62
     7
 10
253.212364387512
 20
116.592151759868
 30
0.0
 11
253.212364387512
 21
121.667151673441
 31
0.0
  0
LINE
  5
   5FA
  8
0
  6
CONTINUOUS
 62
     7
 10
254.262348347902
 20
67.5921579349092
 30
0.0
 11
254.262348347902
 21
70.138971856381
 31
0.0
  0
LINE
  5
   5FB
  8
0
  6
CONTINUOUS
 62
     7
 10
253.212359046936
 20
93.3171468156629
 30
0.0
 11
253.212359046936
 21
97.5171360629852
 31
0.0
  0
LINE
  5
   5FC
  8
0
  6
CONTINUOUS
 62
     7
 10
253.212359046936
 20
92.4421361494119
 30
0.0
 11
252.862359052896
 21
92.4421361494119
 31
0.0
  0
LINE
  5
   5FD
  8
0
  6
CONTINUOUS
 62
     7
 10
262.032352223428
 20
66.5421686339502
 30
0.0
 11
254.262348083289
 21
66.5421686339502
 31
0.0
  0
LINE
  5
   5FE
  8
0
  6
CONTINUOUS
 62
     7
 10
254.262348347902
 20
66.5421579527906
 30
0.0
 11
254.262348347902
 21
67.5921579349092
 31
0.0
  0
LINE
  5
   5FF
  8
0
  6
CONTINUOUS
 62
     7
 10
254.262353688478
 20
70.138971856381
 30
0.0
 11
254.262353688478
 21
72.5796610735718
 31
0.0
  0
LINE
  5
   600
  8
0
  6
CONTINUOUS
 62
     7
 10
262.137348213792
 20
65.4921526300959
 30
0.0
 11
262.137348213792
 21
66.5421526122146
 31
0.0
  0
LINE
  5
   601
  8
0
  6
CONTINUOUS
 62
     7
 10
262.137348213792
 20
66.5421526122146
 30
0.0
 11
262.032352508903
 21
66.5421526122146
 31
0.0
  0
LINE
  5
   602
  8
0
  6
CONTINUOUS
 62
     7
 10
252.862359052896
 20
92.4421361494119
 30
0.0
 11
251.462359076738
 21
92.4421361494119
 31
0.0
  0
LINE
  5
   603
  8
0
  6
CONTINUOUS
 62
     7
 10
253.212359046936
 20
92.4421361494119
 30
0.0
 11
253.212359046936
 21
93.3171468156629
 31
0.0
  0
LINE
  5
   604
  8
0
  6
CONTINUOUS
 62
     7
 10
262.032351032617
 20
72.5796685311308
 30
0.0
 11
254.262352233054
 21
72.5796685311308
 31
0.0
  0
LINE
  5
   605
  8
0
  6
CONTINUOUS
 62
     7
 10
262.032348458556
 20
76.6046684625845
 30
0.0
 11
254.262349658993
 21
76.6046684625845
 31
0.0
  0
LINE
  5
   606
  8
0
  6
CONTINUOUS
 62
     7
 10
254.717012587299
 20
67.8546639212695
 30
0.0
 11
254.787347963265
 21
68.1171639131752
 31
0.0
  0
LINE
  5
   607
  8
0
  6
CONTINUOUS
 62
     7
 10
254.52485161309
 20
67.6624967516314
 30
0.0
 11
254.717010868368
 21
67.8546613522622
 31
0.0
  0
LINE
  5
   608
  8
0
  6
CONTINUOUS
 62
     7
 10
254.262342298014
 20
67.5921661373971
 30
0.0
 11
254.524847623535
 21
67.6625015187163
 31
0.0
  0
LINE
  5
   609
  8
0
  6
CONTINUOUS
 62
     7
 10
254.524850548053
 20
71.7218232381544
 30
0.0
 11
254.262350554448
 21
71.7921639595256
 31
0.0
  0
LINE
  5
   60A
  8
0
  6
CONTINUOUS
 62
     7
 10
254.71700935802
 20
71.5296610413305
 30
0.0
 11
254.524850100068
 21
71.7218202992821
 31
0.0
  0
LINE
  5
   60B
  8
0
  6
CONTINUOUS
 62
     7
 10
254.78734433032
 20
71.2671615324172
 30
0.0
 11
254.717003608948
 21
71.5296615260221
 31
0.0
  0
LINE
  5
   60C
  8
0
  6
CONTINUOUS
 62
     7
 10
254.787345371987
 20
68.1171600037908
 30
0.0
 11
254.787350712563
 21
71.2671599501466
 31
0.0
  0
LINE
  5
   60D
  8
0
  6
CONTINUOUS
 62
     7
 10
262.03235248804
 20
66.5421526122146
 30
0.0
 11
262.03235248804
 21
122.01714194743
 31
0.0
  0
LINE
  5
   60E
  8
0
  6
CONTINUOUS
 62
     7
 10
262.032368509769
 20
129.612150470024
 30
0.0
 11
229.062343436317
 21
129.612150470024
 31
0.0
  0
LINE
  5
   60F
  8
0
  6
CONTINUOUS
 62
     7
 10
262.032331125732
 20
122.017143915067
 30
0.0
 11
262.032331125732
 21
129.612148058186
 31
0.0
  0
LINE
  5
   610
  8
0
  6
CONTINUOUS
 62
     7
 10
254.262364369631
 20
122.017151667481
 30
0.0
 11
254.262364369631
 21
130.592150239724
 31
0.0
  0
LINE
  5
   611
  8
0
  6
CONTINUOUS
 62
     7
 10
267.737369480729
 20
68.3796739432264
 30
0.0
 11
267.737369480729
 21
74.8546618700798
 31
0.0
  0
LINE
  5
   612
  8
0
  6
CONTINUOUS
 62
     7
 10
267.737369480729
 20
104.342162649637
 30
0.0
 11
267.737369480729
 21
104.429662648146
 31
0.0
  0
LINE
  5
   613
  8
0
  6
CONTINUOUS
 62
     7
 10
265.812371516227
 20
105.129662636226
 30
0.0
 11
264.587369534373
 21
105.129662636226
 31
0.0
  0
LINE
  5
   614
  8
0
  6
CONTINUOUS
 62
     7
 10
265.812371516227
 20
68.3796739432264
 30
0.0
 11
264.587369534373
 21
68.3796739432264
 31
0.0
  0
LINE
  5
   615
  8
0
  6
CONTINUOUS
 62
     7
 10
262.137369576096
 20
62.692174040084
 30
0.0
 11
262.137369576096
 21
66.5421526122146
 31
0.0
  0
LINE
  5
   616
  8
0
  6
CONTINUOUS
 62
     7
 10
263.887369546294
 20
62.692174040084
 30
0.0
 11
263.887369546294
 21
68.3796739432264
 31
0.0
  0
LINE
  5
   617
  8
0
  6
CONTINUOUS
 62
     7
 10
263.887369546294
 20
105.129662636226
 30
0.0
 11
263.887369546294
 21
122.017162348633
 31
0.0
  0
LINE
  5
   618
  8
0
  6
CONTINUOUS
 62
     7
 10
263.887369546294
 20
122.017162348633
 30
0.0
 11
262.137369576096
 21
122.017162348633
 31
0.0
  0
LINE
  5
   619
  8
0
  6
CONTINUOUS
 62
     7
 10
263.887369546294
 20
62.692174040084
 30
0.0
 11
262.137369576096
 21
62.692174040084
 31
0.0
  0
LINE
  5
   61A
  8
0
  6
CONTINUOUS
 62
     7
 10
264.587369534373
 20
68.3796739432264
 30
0.0
 11
264.587369534373
 21
105.129662636226
 31
0.0
  0
LINE
  5
   61B
  8
0
  6
CONTINUOUS
 62
     7
 10
264.587369534373
 20
68.3796739432264
 30
0.0
 11
263.887369546294
 21
68.3796739432264
 31
0.0
  0
LINE
  5
   61C
  8
0
  6
CONTINUOUS
 62
     7
 10
264.587369534373
 20
105.129662636226
 30
0.0
 11
263.887369546294
 21
105.129662636226
 31
0.0
  0
LINE
  5
   61D
  8
0
  6
CONTINUOUS
 62
     7
 10
262.03234438196
 20
76.7971470631191
 30
0.0
 11
262.137345443419
 21
76.8063328528538
 31
0.0
  0
LINE
  5
   61E
  8
0
  6
CONTINUOUS
 62
     7
 10
262.137363493643
 20
72.3779682374885
 30
0.0
 11
262.032362429249
 21
72.3871593678164
 31
0.0
  0
LINE
  5
   61F
  8
0
  6
CONTINUOUS
 62
     7
 10
254.262353688478
 20
76.6046610050274
 30
0.0
 11
254.262353688478
 21
77.5671470838838
 31
0.0
  0
LINE
  5
   620
  8
0
  6
CONTINUOUS
 62
     2
 10
229.762375468015
 20
66.3671739774989
 30
0.0
 11
228.362375491857
 21
66.3671739774989
 31
0.0
  0
LINE
  5
   621
  8
0
  6
CONTINUOUS
 62
     7
 10
262.032373850345
 20
66.3671739774989
 30
0.0
 11
256.012369680404
 21
66.3671739774989
 31
0.0
  0
LINE
  5
   622
  8
0
  6
CONTINUOUS
 62
     2
 10
229.762375468015
 20
65.4921739924001
 30
0.0
 11
229.762375468015
 21
66.3671739774989
 31
0.0
  0
LINE
  5
   623
  8
0
  6
CONTINUOUS
 62
   218
 10
262.032370979387
 20
51.4921688899292
 30
0.0
 11
262.137369575823
 21
51.4921701223504
 31
0.0
  0
LINE
  5
   624
  8
0
  6
CONTINUOUS
 62
   218
 10
262.032373850345
 20
51.4921742308187
 30
0.0
 11
262.032373850345
 21
66.3671739774989
 31
0.0
  0
LINE
  5
   625
  8
0
  6
CONTINUOUS
 62
     7
 10
262.137369576096
 20
62.3421740460443
 30
0.0
 11
262.032373850345
 21
62.3421740460443
 31
0.0
  0
LINE
  5
   626
  8
0
  6
CONTINUOUS
 62
   218
 10
228.362375491828
 20
53.5921688548262
 30
0.0
 11
229.062375146105
 21
53.5921741954022
 31
0.0
  0
LINE
  5
   627
  8
0
  6
CONTINUOUS
 62
     7
 10
254.262365705528
 20
66.3671739794036
 30
0.0
 11
254.262371046105
 21
67.0671739674987
 31
0.0
  0
LINE
  5
   628
  8
0
  6
CONTINUOUS
 62
     7
 10
254.262375050783
 20
67.067173965578
 30
0.0
 11
250.762375110387
 21
67.067173965578
 31
0.0
  0
LINE
  5
   629
  8
0
  6
CONTINUOUS
 62
     7
 10
256.012369680404
 20
66.3671739774989
 30
0.0
 11
254.262369710207
 21
66.3671739774989
 31
0.0
  0
LINE
  5
   62A
  8
0
  6
CONTINUOUS
 62
     7
 10
263.887369546294
 20
62.5171740430642
 30
0.0
 11
262.137369576096
 21
62.5171740430642
 31
0.0
  0
LINE
  5
   62B
  8
0
  6
CONTINUOUS
 62
     7
 10
263.887369546294
 20
50.2671742516805
 30
0.0
 11
262.137369576096
 21
50.2671742516805
 31
0.0
  0
LINE
  5
   62C
  8
0
  6
CONTINUOUS
 62
     7
 10
263.887369546294
 20
50.2671742516805
 30
0.0
 11
263.887369546294
 21
62.5171740430642
 31
0.0
  0
LINE
  5
   62D
  8
0
  6
CONTINUOUS
 62
     7
 10
263.187369558215
 20
50.2671742516805
 30
0.0
 11
263.187369558215
 21
62.5171740430642
 31
0.0
  0
LINE
  5
   62E
  8
0
  6
CONTINUOUS
 62
     7
 10
262.137369576096
 20
50.2671742516805
 30
0.0
 11
262.137369576096
 21
62.5171740430642
 31
0.0
  0
ARC
  5
   62F
  8
0
  6
CONTINUOUS
 62
     7
 10
274.973637827175
 20
79.0393152489218
 30
0.0
 40
0.349999922554071
 50
348.623573369035
 51
436.688788706936
  0
ARC
  5
   630
  8
0
  6
CONTINUOUS
 62
     7
 10
274.554777294366
 20
76.9575789955744
 30
0.0
 40
0.35000025487589
 50
260.593992196011
 51
348.623573369035
  0
LINE
  5
   631
  8
0
  6
DASHDOT
 62
     7
 10
280.153842366999
 20
76.9012838388042
 30
0.0
 11
262.6130024016
 21
80.4306278962286
 31
0.0
  0
LINE
  5
   632
  8
0
  6
CONTINUOUS
 62
     7
 10
275.054221806446
 20
79.3799117719106
 30
0.0
 11
267.737369480729
 21
81.1110541540097
 31
0.0
  0
LINE
  5
   633
  8
0
  6
CONTINUOUS
 62
     7
 10
274.897900799939
 20
76.8885400608516
 30
0.0
 11
275.316761217743
 21
78.9702763373389
 31
0.0
  0
LINE
  5
   634
  8
0
  6
CONTINUOUS
 62
     7
 10
274.497576978324
 20
76.6122845954447
 30
0.0
 11
267.737369480729
 21
77.7321579708043
 31
0.0
  0
LINE
  5
   635
  8
0
  6
CONTINUOUS
 62
     7
 10
230.112353031635
 20
72.6671565667566
 30
0.0
 11
230.112353031635
 21
76.5171565011915
 31
0.0
  0
LINE
  5
   636
  8
0
  6
CONTINUOUS
 62
     2
 10
229.062343436317
 20
124.051210257121
 30
0.0
 11
229.062343436317
 21
130.592149862746
 31
0.0
  0
LINE
  5
   637
  8
0
  6
DASHDOT
 62
     7
 10
211.0373757869
 20
39.7612741708121
 30
0.0
 11
211.0373757869
 21
43.7921463773428
 31
0.0
  0
LINE
  5
   638
  8
0
  6
DASHDOT
 62
     7
 10
209.987375804782
 20
39.7936815776676
 30
0.0
 11
209.987375804782
 21
43.7921463773428
 31
0.0
  0
LINE
  5
   639
  8
0
  6
CONTINUOUS
 62
     7
 10
212.132778206142
 20
166.331423237107
 30
0.0
 11
208.584551156149
 21
166.331423237107
 31
0.0
  0
ARC
  5
   63A
  8
0
  6
CONTINUOUS
 62
     7
 10
249.012369799614
 20
83.1671736913968
 30
0.0
 40
26.61542846025
 50
333.082565820193
 51
379.93594827737
  0
LINE
  5
   63B
  8
0
  6
CONTINUOUS
 62
     7
 10
275.627798259864
 20
83.1671736913968
 30
0.0
 11
275.627798259864
 21
98.3394210938176
 31
0.0
  0
LINE
  5
   63C
  8
0
  6
CONTINUOUS
 62
     7
 10
250.762364429235
 20
65.4921673700987
 30
0.0
 11
229.762375468015
 21
65.4921673700987
 31
0.0
  0
LINE
  5
   63D
  8
0
  6
CONTINUOUS
 62
     7
 10
267.737369480729
 20
91.4796615869577
 30
0.0
 11
267.737369480729
 21
105.129662636226
 31
0.0
  0
LINE
  5
   63E
  8
0
  6
CONTINUOUS
 62
     7
 10
267.737369480729
 20
86.9296616644438
 30
0.0
 11
267.737369480729
 21
91.1296615929182
 31
0.0
  0
LINE
  5
   63F
  8
0
  6
CONTINUOUS
 62
     7
 10
267.737369480729
 20
79.7546724677847
 30
0.0
 11
267.737369480729
 21
86.5796616704042
 31
0.0
  0
LINE
  5
   640
  8
0
  6
CONTINUOUS
 62
     7
 10
267.737369480729
 20
75.2046618641193
 30
0.0
 11
267.737369480729
 21
79.4046724737452
 31
0.0
  0
LINE
  5
   641
  8
0
  6
CONTINUOUS
 62
     1
 10
265.812371516227
 20
67.5024042667113
 30
0.0
 11
265.812371516227
 21
68.2024042547904
 31
0.0
  0
LINE
  5
   642
  8
0
  6
CONTINUOUS
 62
     1
 10
266.512371504307
 20
67.5024042667113
 30
0.0
 11
265.812371516227
 21
67.5024042667113
 31
0.0
  0
LINE
  5
   643
  8
0
  6
CONTINUOUS
 62
     1
 10
265.812371516227
 20
105.302402287837
 30
0.0
 11
265.812371516227
 21
106.002402275916
 31
0.0
  0
LINE
  5
   644
  8
0
  6
CONTINUOUS
 62
     1
 10
266.512371504307
 20
106.002402275916
 30
0.0
 11
265.812371516227
 21
106.002402275916
 31
0.0
  0
LINE
  5
   645
  8
0
  6
CONTINUOUS
 62
     1
 10
265.812371516227
 20
68.2024042547904
 30
0.0
 11
265.812371516227
 21
105.302403622981
 31
0.0
  0
LINE
  5
   646
  8
0
  6
CONTINUOUS
 62
     1
 10
264.23737154305
 20
110.754473575604
 30
0.0
 11
264.23737154305
 21
112.450330785493
 31
0.0
  0
LINE
  5
   647
  8
0
  6
CONTINUOUS
 62
     1
 10
266.512371504307
 20
58.5796554715199
 30
0.0
 11
266.512371504307
 21
114.929653176741
 31
0.0
  0
LINE
  5
   648
  8
0
  6
CONTINUOUS
 62
     1
 10
267.737371483445
 20
58.5796554715199
 30
0.0
 11
267.737371483445
 21
114.929653176741
 31
0.0
  0
LINE
  5
   649
  8
0
  6
CONTINUOUS
 62
     1
 10
266.512371504307
 20
110.55240219843
 30
0.0
 11
264.587370418269
 21
110.55240219843
 31
0.0
  0
LINE
  5
   64A
  8
0
  6
CONTINUOUS
 62
     1
 10
266.512371504307
 20
112.652402162667
 30
0.0
 11
264.587372683874
 21
112.652402162667
 31
0.0
  0
LINE
  5
   64B
  8
0
  6
CONTINUOUS
 62
     1
 10
264.587371532294
 20
110.55240219843
 30
0.0
 11
264.587371532294
 21
110.632329260057
 31
0.0
  0
LINE
  5
   64C
  8
0
  6
CONTINUOUS
 62
     1
 10
264.587371810797
 20
110.552401394459
 30
0.0
 11
264.237371805233
 21
110.754472774166
 31
0.0
  0
LINE
  5
   64D
  8
0
  6
CONTINUOUS
 62
     1
 10
264.587371532294
 20
110.632329260057
 30
0.0
 11
264.587371532294
 21
110.85993927205
 31
0.0
  0
LINE
  5
   64E
  8
0
  6
CONTINUOUS
 62
     1
 10
264.587371532294
 20
110.85993927205
 30
0.0
 11
264.587371532294
 21
111.200587917372
 31
0.0
  0
LINE
  5
   64F
  8
0
  6
CONTINUOUS
 62
     1
 10
264.587371532294
 20
111.200587917372
 30
0.0
 11
264.587371532294
 21
111.602402180549
 31
0.0
  0
LINE
  5
   650
  8
0
  6
CONTINUOUS
 62
     1
 10
264.587371532294
 20
111.602402180549
 30
0.0
 11
264.587371532294
 21
112.004221784302
 31
0.0
  0
LINE
  5
   651
  8
0
  6
CONTINUOUS
 62
     1
 10
264.587371532294
 20
112.004221784302
 30
0.0
 11
264.587371532294
 21
112.344865089047
 31
0.0
  0
LINE
  5
   652
  8
0
  6
CONTINUOUS
 62
     1
 10
264.587371532294
 20
112.344865089047
 30
0.0
 11
264.587371532294
 21
112.57247510104
 31
0.0
  0
LINE
  5
   653
  8
0
  6
CONTINUOUS
 62
     1
 10
264.587371532294
 20
112.57247510104
 30
0.0
 11
264.587371532294
 21
112.652402162667
 31
0.0
  0
LINE
  5
   654
  8
0
  6
CONTINUOUS
 62
     1
 10
264.237371238837
 20
112.450329951885
 30
0.0
 11
264.587371244401
 21
112.652401331593
 31
0.0
  0
LINE
  5
   655
  8
0
  6
CONTINUOUS
 62
     1
 10
266.512371504307
 20
62.9524043441974
 30
0.0
 11
264.587372234083
 21
62.9524043441974
 31
0.0
  0
LINE
  5
   656
  8
0
  6
CONTINUOUS
 62
     1
 10
266.512371504307
 20
60.8524043799602
 30
0.0
 11
264.587371543954
 21
60.8524043799602
 31
0.0
  0
LINE
  5
   657
  8
0
  6
CONTINUOUS
 62
     1
 10
264.587371543954
 20
62.8724772825702
 30
0.0
 11
264.587371543954
 21
62.9524043441974
 31
0.0
  0
LINE
  5
   658
  8
0
  6
CONTINUOUS
 62
     1
 10
264.587371543946
 20
62.6448659354332
 30
0.0
 11
264.587371543946
 21
62.8724772825702
 31
0.0
  0
LINE
  5
   659
  8
0
  6
CONTINUOUS
 62
     1
 10
264.587371543956
 20
62.3042226306875
 30
0.0
 11
264.587371543956
 21
62.6448659354332
 31
0.0
  0
LINE
  5
   65A
  8
0
  6
CONTINUOUS
 62
     1
 10
264.587371543931
 20
61.9024043620788
 30
0.0
 11
264.587371543931
 21
62.3042226306875
 31
0.0
  0
LINE
  5
   65B
  8
0
  6
CONTINUOUS
 62
     1
 10
264.587371543974
 20
61.500587428614
 30
0.0
 11
264.587371543974
 21
61.9024043620788
 31
0.0
  0
LINE
  5
   65C
  8
0
  6
CONTINUOUS
 62
     1
 10
264.587371543955
 20
61.1599427887243
 30
0.0
 11
264.587371543955
 21
61.500587428614
 31
0.0
  0
LINE
  5
   65D
  8
0
  6
CONTINUOUS
 62
     1
 10
264.587371543947
 20
60.8524043799602
 30
0.0
 11
264.587371543947
 21
61.1599427887243
 31
0.0
  0
LINE
  5
   65E
  8
0
  6
CONTINUOUS
 62
     1
 10
264.587371543954
 20
60.8524043799601
 30
0.0
 11
264.587371543954
 21
60.9323314415873
 31
0.0
  0
LINE
  5
   65F
  8
0
  6
CONTINUOUS
 62
     7
 10
264.237371360297
 20
62.7503311417913
 30
0.0
 11
264.587371365862
 21
62.9524038429296
 31
0.0
  0
LINE
  5
   660
  8
0
  6
CONTINUOUS
 62
     7
 10
264.587371688968
 20
60.8524039503355
 30
0.0
 11
264.237371683403
 21
61.0544766514738
 31
0.0
  0
LINE
  5
   661
  8
0
  6
CONTINUOUS
 62
     7
 10
265.812371516227
 20
39.1063800602483
 30
0.0
 11
265.812371516227
 21
60.8524043799602
 31
0.0
  0
LINE
  5
   662
  8
0
  6
CONTINUOUS
 62
     7
 10
266.512371504307
 20
39.5360352253451
 30
0.0
 11
266.512371504307
 21
58.5796554715199
 31
0.0
  0
LINE
  5
   663
  8
0
  6
CONTINUOUS
 62
     7
 10
266.512371504307
 20
112.827402159687
 30
0.0
 11
266.512371504307
 21
165.39428722372
 31
0.0
  0
LINE
  5
   664
  8
0
  6
CONTINUOUS
 62
     7
 10
266.512371504307
 20
67.1524042726718
 30
0.0
 11
265.812371516227
 21
67.1524042726718
 31
0.0
  0
LINE
  5
   665
  8
0
  6
CONTINUOUS
 62
     7
 10
266.512371504307
 20
106.352402269956
 30
0.0
 11
265.812371516227
 21
106.352402269956
 31
0.0
  0
LINE
  5
   666
  8
0
  6
CONTINUOUS
 62
     7
 10
266.512371504307
 20
112.827402159687
 30
0.0
 11
265.812371516227
 21
112.827402159687
 31
0.0
  0
LINE
  5
   667
  8
0
  6
CONTINUOUS
 62
     7
 10
266.512371504307
 20
110.37740220141
 30
0.0
 11
265.812371516227
 21
110.37740220141
 31
0.0
  0
LINE
  5
   668
  8
0
  6
CONTINUOUS
 62
     7
 10
266.512371504307
 20
63.1274043412171
 30
0.0
 11
265.812371516227
 21
63.1274043412171
 31
0.0
  0
LINE
  5
   669
  8
0
  6
CONTINUOUS
 62
     7
 10
266.512371504307
 20
60.6774043829404
 30
0.0
 11
265.812371516227
 21
60.6774043829404
 31
0.0
  0
LINE
  5
   66A
  8
0
  6
CONTINUOUS
 62
     7
 10
265.812371516227
 20
62.9524043441974
 30
0.0
 11
265.812371516227
 21
110.55240219843
 31
0.0
  0
LINE
  5
   66B
  8
0
  6
CONTINUOUS
 62
     7
 10
265.812371516227
 20
112.652402162667
 30
0.0
 11
265.812371516227
 21
165.016836249756
 31
0.0
  0
LINE
  5
   66C
  8
0
  6
CONTINUOUS
 62
     7
 10
264.974545195929
 20
164.565067155477
 30
0.0
 11
267.532451612127
 21
165.944330419113
 31
0.0
  0
LINE
  5
   66D
  8
0
  6
CONTINUOUS
 62
     7
 10
264.648537515433
 20
38.3920267770019
 30
0.0
 11
268.284777028656
 21
40.6239255127041
 31
0.0
  0
INSERT
  5
   66E
  8
0
  6
CONTINUOUS
 62
     7
  2
*HATCH8
 10
264.412353515625
 20
48.2591857910156
 30
0.0
 41
0.349999994039536
 42
0.349999994039536
 50
89.9999999480344
 43
0.349999994039536
  0
INSERT
  5
   66F
  8
0
  6
CONTINUOUS
 62
     7
  2
*HATCH9
 10
264.412353515625
 20
48.2591857910156
 30
0.0
 41
0.349999994039536
 42
0.349999994039536
 50
89.9999999480344
 43
0.349999994039536
  0
INSERT
  5
   670
  8
0
  6
CONTINUOUS
 62
     7
  2
*HATCH10
 10
264.412353515625
 20
48.2591857910156
 30
0.0
 41
0.349999994039536
 42
0.349999994039536
 50
89.9999999480344
 43
0.349999994039536
  0
LINE
  5
   671
  8
0
  6
CONTINUOUS
 62
     7
 10
264.237371683403
 20
61.0544766514738
 30
0.0
 11
264.237371360297
 21
62.7503311417913
 31
0.0
  0
LINE
  5
   672
  8
0
  6
DASHDOT
 62
     7
 10
280.432573791528
 20
86.7546629491499
 30
0.0
 11
167.652280657459
 21
86.7546629491499
 31
0.0
  0
LINE
  5
   673
  8
0
  6
CONTINUOUS
 62
     1
 10
267.737371483445
 20
114.929653176741
 30
0.0
 11
266.512371504307
 21
114.929653176741
 31
0.0
  0
LINE
  5
   674
  8
0
  6
CONTINUOUS
 62
     1
 10
267.737371483445
 20
58.5796554715199
 30
0.0
 11
266.512371504307
 21
58.5796554715199
 31
0.0
  0
LINE
  5
   675
  8
0
  6
CONTINUOUS
 62
     7
 10
230.462364774942
 20
121.667134369987
 30
0.0
 11
229.062364798784
 21
121.667134369987
 31
0.0
  0
LINE
  5
   676
  8
0
  6
CONTINUOUS
 62
   130
 10
254.262375050765
 20
154.462149759362
 30
0.0
 11
254.262375050765
 21
159.46715442809
 31
0.0
  0
LINE
  5
   677
  8
0
  6
CONTINUOUS
 62
   130
 10
254.262375050765
 20
129.717150254625
 30
0.0
 11
254.262375050765
 21
131.012240948507
 31
0.0
  0
LINE
  5
   678
  8
0
  6
CONTINUOUS
 62
   130
 10
229.062375479918
 20
129.717150254625
 30
0.0
 11
229.062375479918
 21
161.217154398288
 31
0.0
  0
LINE
  5
   679
  8
0
  6
CONTINUOUS
 62
   130
 10
253.072374536973
 20
152.012149801086
 30
0.0
 11
253.037375071626
 21
152.012149801086
 31
0.0
  0
LINE
  5
   67A
  8
0
  6
CONTINUOUS
 62
   130
 10
254.262375050765
 20
154.462149759362
 30
0.0
 11
253.037375071626
 21
154.462149759362
 31
0.0
  0
LINE
  5
   67B
  8
0
  6
CONTINUOUS
 62
   130
 10
254.262375050765
 20
131.01218220217
 30
0.0
 11
253.037375071626
 21
131.01218220217
 31
0.0
  0
LINE
  5
   67C
  8
0
  6
CONTINUOUS
 62
   130
 10
253.072374536973
 20
133.462182160447
 30
0.0
 11
253.037375071626
 21
133.462182160447
 31
0.0
  0
LINE
  5
   67D
  8
0
  6
CONTINUOUS
 62
   130
 10
253.037375071626
 20
131.01218220217
 30
0.0
 11
253.037375071626
 21
154.462149759362
 31
0.0
  0
LINE
  5
   67E
  8
0
  6
CONTINUOUS
 62
   210
 10
262.032373850327
 20
159.257148609589
 30
0.0
 11
254.41867010825
 21
159.257148609589
 31
0.0
  0
LINE
  5
   67F
  8
0
  6
CONTINUOUS
 62
   210
 10
254.262375050765
 20
131.01218220217
 30
0.0
 11
254.262375050765
 21
131.099650157223
 31
0.0
  0
LINE
  5
   680
  8
0
  6
CONTINUOUS
 62
   210
 10
254.262375050765
 20
154.374649760852
 30
0.0
 11
254.262375050765
 21
154.462149759362
 31
0.0
  0
LINE
  5
   681
  8
0
  6
CONTINUOUS
 62
   210
 10
262.137374916654
 20
133.5496501155
 30
0.0
 11
262.032373850327
 21
133.5496501155
 31
0.0
  0
LINE
  5
   682
  8
0
  6
CONTINUOUS
 62
   210
 10
262.137374916654
 20
130.924650160204
 30
0.0
 11
262.032373850327
 21
130.924650160204
 31
0.0
  0
LINE
  5
   683
  8
0
  6
CONTINUOUS
 62
   210
 10
262.137374916654
 20
130.487150167654
 30
0.0
 11
262.032373850327
 21
130.487150167654
 31
0.0
  0
LINE
  5
   684
  8
0
  6
CONTINUOUS
 62
   210
 10
262.032373850327
 20
130.592150239724
 30
0.0
 11
262.032373850327
 21
159.257148609589
 31
0.0
  0
LINE
  5
   685
  8
0
  6
CONTINUOUS
 62
   210
 10
254.262375050765
 20
131.099650157223
 30
0.0
 11
253.247374533993
 21
131.099650157223
 31
0.0
  0
LINE
  5
   686
  8
0
  6
CONTINUOUS
 62
   210
 10
253.247375157676
 20
131.099651676406
 30
0.0
 11
253.123631337212
 21
131.150910525897
 31
0.0
  0
LINE
  5
   687
  8
0
  6
CONTINUOUS
 62
   210
 10
253.123630358774
 20
131.150903763261
 30
0.0
 11
253.072374179762
 21
131.274644907913
 31
0.0
  0
LINE
  5
   688
  8
0
  6
CONTINUOUS
 62
   210
 10
253.072374536973
 20
131.274650154243
 30
0.0
 11
253.072374536973
 21
133.199650121461
 31
0.0
  0
LINE
  5
   689
  8
0
  6
CONTINUOUS
 62
   210
 10
253.072374536973
 20
152.274649796615
 30
0.0
 11
253.072374536973
 21
154.199649763833
 31
0.0
  0
LINE
  5
   68A
  8
0
  6
CONTINUOUS
 62
   210
 10
253.072371590473
 20
154.199641453966
 30
0.0
 11
253.123627769486
 21
154.323382598619
 31
0.0
  0
LINE
  5
   68B
  8
0
  6
CONTINUOUS
 62
   210
 10
253.123632617369
 20
154.323393543169
 30
0.0
 11
253.247376437833
 21
154.37465239266
 31
0.0
  0
LINE
  5
   68C
  8
0
  6
CONTINUOUS
 62
   210
 10
254.262375050765
 20
154.374649760852
 30
0.0
 11
253.247374533993
 21
154.374649760852
 31
0.0
  0
LINE
  5
   68D
  8
0
  6
CONTINUOUS
 62
   210
 10
253.072374536973
 20
133.199650121461
 30
0.0
 11
253.072374536973
 21
152.274649796615
 31
0.0
  0
LINE
  5
   68E
  8
0
  6
CONTINUOUS
 62
     7
 10
262.137374916654
 20
122.192150308917
 30
0.0
 11
262.137374916654
 21
151.767149805258
 31
0.0
  0
LINE
  5
   68F
  8
0
  6
CONTINUOUS
 62
     2
 10
263.887374886852
 20
122.542150302957
 30
0.0
 11
263.887374886852
 21
147.042149885724
 31
0.0
  0
LINE
  5
   690
  8
0
  6
CONTINUOUS
 62
     2
 10
263.887374886852
 20
147.392149879764
 30
0.0
 11
263.887374886852
 21
151.767149805258
 31
0.0
  0
LINE
  5
   691
  8
0
  6
CONTINUOUS
 62
     7
 10
263.537374892812
 20
151.767149805258
 30
0.0
 11
262.137374916654
 21
151.767149805258
 31
0.0
  0
LINE
  5
   692
  8
0
  6
CONTINUOUS
 62
     2
 10
263.537374892812
 20
122.192150308917
 30
0.0
 11
262.837364223599
 21
122.192150308917
 31
0.0
  0
LINE
  5
   693
  8
0
  6
CONTINUOUS
 62
     2
 10
263.887374886852
 20
147.392149879764
 30
0.0
 11
263.537374892812
 21
147.392149879764
 31
0.0
  0
LINE
  5
   694
  8
0
  6
CONTINUOUS
 62
     2
 10
263.887374886852
 20
147.042149885724
 30
0.0
 11
263.537374892812
 21
147.042149885724
 31
0.0
  0
LINE
  5
   695
  8
0
  6
CONTINUOUS
 62
     2
 10
263.537374892812
 20
147.042149885724
 30
0.0
 11
263.537374892812
 21
147.392149879764
 31
0.0
  0
LINE
  5
   696
  8
0
  6
CONTINUOUS
 62
     2
 10
263.537374892812
 20
122.192150308917
 30
0.0
 11
263.537374892812
 21
122.542150302957
 31
0.0
  0
LINE
  5
   697
  8
0
  6
CONTINUOUS
 62
     7
 10
263.537374892812
 20
122.542150302957
 30
0.0
 11
262.312374913674
 21
122.542150302957
 31
0.0
  0
LINE
  5
   698
  8
0
  6
CONTINUOUS
 62
     7
 10
262.312374913674
 20
122.542150302957
 30
0.0
 11
262.312374913674
 21
151.767149805258
 31
0.0
  0
LINE
  5
   699
  8
0
  6
CONTINUOUS
 62
   210
 10
262.137371469638
 20
134.553463550006
 30
0.0
 11
262.032373072521
 21
134.599648852784
 31
0.0
  0
LINE
  5
   69A
  8
0
  6
CONTINUOUS
 62
     7
 10
262.032375290811
 20
150.874651480547
 30
0.0
 11
262.13737635973
 21
150.920836781523
 31
0.0
  0
LINE
  5
   69B
  8
0
  6
CONTINUOUS
 62
     2
 10
263.887374886852
 20
122.542150302957
 30
0.0
 11
263.537374892812
 21
122.542150302957
 31
0.0
  0
LINE
  5
   69C
  8
0
  6
CONTINUOUS
 62
     2
 10
263.887374886852
 20
151.767149805258
 30
0.0
 11
263.537374892812
 21
151.767149805258
 31
0.0
  0
LINE
  5
   69D
  8
0
  6
CONTINUOUS
 62
   130
 10
262.137374916654
 20
129.717150254625
 30
0.0
 11
229.062375479918
 21
129.717150254625
 31
0.0
  0
INSERT
  5
   69E
  8
0
  6
CONTINUOUS
 62
     7
  2
*HATCH11
 10
264.412353515625
 20
48.2591857910156
 30
0.0
 41
0.349999994039536
 42
0.349999994039536
 50
89.9999999480344
 43
0.349999994039536
  0
LINE
  5
   69F
  8
0
  6
CONTINUOUS
 62
     7
 10
262.837364223599
 20
122.192150308917
 30
0.0
 11
262.137374916654
 21
122.192150308917
 31
0.0
  0
LINE
  5
   6A0
  8
0
  6
CONTINUOUS
 62
     7
 10
228.3623754917
 20
53.5921688548262
 30
0.0
 11
229.062375146059
 21
53.5921741954022
 31
0.0
  0
LINE
  5
   6A1
  8
0
  6
CONTINUOUS
 62
     7
 10
229.06237514615
 20
40.8171564486874
 30
0.0
 11
229.06237514615
 21
53.5921741954022
 31
0.0
  0
LINE
  5
   6A2
  8
0
  6
CONTINUOUS
 62
   130
 10
254.262375050765
 20
159.257153289693
 30
0.0
 11
229.062375479918
 21
159.257153289693
 31
0.0
  0
LINE
  5
   6A3
  8
0
  6
CONTINUOUS
 62
   130
 10
253.072374536973
 20
152.01215448119
 30
0.0
 11
253.037375071626
 21
152.01215448119
 31
0.0
  0
LINE
  5
   6A4
  8
0
  6
CONTINUOUS
 62
   210
 10
254.262375050765
 20
154.374654440957
 30
0.0
 11
254.262375050765
 21
154.462154439467
 31
0.0
  0
LINE
  5
   6A5
  8
0
  6
CONTINUOUS
 62
   210
 10
253.072371590474
 20
154.199646134071
 30
0.0
 11
253.123627769486
 21
154.323387278723
 31
0.0
  0
LINE
  5
   6A6
  8
0
  6
CONTINUOUS
 62
   210
 10
253.123632617369
 20
154.323398223274
 30
0.0
 11
253.247376437833
 21
154.374657072764
 31
0.0
  0
LINE
  5
   6A7
  8
0
  6
CONTINUOUS
 62
     7
 10
263.887374886852
 20
152.117154479402
 30
0.0
 11
263.887374886852
 21
160.779654405738
 31
0.0
  0
ARC
  5
   6A8
  8
0
  6
CONTINUOUS
 62
     7
 10
263.449874894303
 20
160.779654405738
 30
0.0
 40
0.437499992549419
 50
359.999999948034
 51
449.999999948034
  0
LINE
  5
   6A9
  8
0
  6
CONTINUOUS
 62
     7
 10
262.137374916654
 20
151.767154485362
 30
0.0
 11
262.137374916654
 21
159.46715442809
 31
0.0
  0
LINE
  5
   6AA
  8
0
  6
CONTINUOUS
 62
     7
 10
262.137374916654
 20
159.46715442809
 30
0.0
 11
229.062375479918
 21
159.46715442809
 31
0.0
  0
LINE
  5
   6AB
  8
0
  6
CONTINUOUS
 62
     7
 10
262.312374913674
 20
159.64215442511
 30
0.0
 11
229.062375479918
 21
159.64215442511
 31
0.0
  0
LINE
  5
   6AC
  8
0
  6
CONTINUOUS
 62
     7
 10
262.312374913674
 20
152.117154479402
 30
0.0
 11
262.312374913674
 21
159.64215442511
 31
0.0
  0
LINE
  5
   6AD
  8
0
  6
CONTINUOUS
 62
     7
 10
263.537374892812
 20
152.117154479402
 30
0.0
 11
262.312374913674
 21
152.117154479402
 31
0.0
  0
LINE
  5
   6AE
  8
0
  6
CONTINUOUS
 62
     7
 10
263.537374892812
 20
151.769339500565
 30
0.0
 11
263.537374892812
 21
152.117154479402
 31
0.0
  0
LINE
  5
   6AF
  8
0
  6
CONTINUOUS
 62
     7
 10
263.449874894303
 20
161.217154398288
 30
0.0
 11
229.062375479918
 21
161.217154398288
 31
0.0
  0
LINE
  5
   6B0
  8
0
  6
CONTINUOUS
 62
     7
 10
263.887374886852
 20
152.117154479402
 30
0.0
 11
263.537374892812
 21
152.117154479402
 31
0.0
  0
LINE
  5
   6B1
  8
0
  6
CONTINUOUS
 62
     7
 10
215.485343612251
 20
39.6239912132395
 30
0.0
 11
203.604593826683
 21
39.990681021436
 31
0.0
  0
LINE
  5
   6B2
  8
0
  6
CONTINUOUS
 62
     7
 10
263.449874894303
 20
40.8171564486874
 30
0.0
 11
229.062375479918
 21
40.8171564486874
 31
0.0
  0
LINE
  5
   6B3
  8
0
  6
CONTINUOUS
 62
   210
 10
262.032373850327
 20
42.7771622373863
 30
0.0
 11
229.06237514615
 21
42.7771622373863
 31
0.0
  0
LINE
  5
   6B4
  8
0
  6
CONTINUOUS
 62
     7
 10
262.137374916654
 20
42.5671564188851
 30
0.0
 11
229.06237514615
 21
42.5671564188851
 31
0.0
  0
LINE
  5
   6B5
  8
0
  6
CONTINUOUS
 62
     7
 10
262.312374913674
 20
42.3921564218653
 30
0.0
 11
229.06237514615
 21
42.3921564218653
 31
0.0
  0
ARC
  5
   6B6
  8
0
  6
CONTINUOUS
 62
     7
 10
263.449874894303
 20
41.2546564412368
 30
0.0
 40
0.437499992549419
 50
269.999999948034
 51
359.999999948034
  0
LINE
  5
   6B7
  8
0
  6
CONTINUOUS
 62
     7
 10
263.887374886852
 20
41.2546564412368
 30
0.0
 11
263.887374886852
 21
49.917156367573
 31
0.0
  0
LINE
  5
   6B8
  8
0
  6
CONTINUOUS
 62
     7
 10
262.312374913674
 20
42.3921564218653
 30
0.0
 11
262.312374913674
 21
49.917156367573
 31
0.0
  0
LINE
  5
   6B9
  8
0
  6
CONTINUOUS
 62
     7
 10
262.137374916654
 20
42.5671564188851
 30
0.0
 11
262.137374916654
 21
50.2671563616126
 31
0.0
  0
LINE
  5
   6BA
  8
0
  6
CONTINUOUS
 62
   210
 10
262.032373850327
 20
42.7771622373863
 30
0.0
 11
262.032373850327
 21
71.4421606072513
 31
0.0
  0
LINE
  5
   6BB
  8
0
  6
CONTINUOUS
 62
     7
 10
263.887374886852
 20
49.917156367573
 30
0.0
 11
263.537374892812
 21
49.917156367573
 31
0.0
  0
LINE
  5
   6BC
  8
0
  6
CONTINUOUS
 62
     7
 10
263.537374892812
 20
49.917156367573
 30
0.0
 11
263.537374892812
 21
50.2649713464098
 31
0.0
  0
LINE
  5
   6BD
  8
0
  6
CONTINUOUS
 62
     7
 10
263.537374892812
 20
50.2671610417171
 30
0.0
 11
262.137374916654
 21
50.2671610417171
 31
0.0
  0
LINE
  5
   6BE
  8
0
  6
CONTINUOUS
 62
     7
 10
263.537374892812
 20
49.917156367573
 30
0.0
 11
262.312374913674
 21
49.917156367573
 31
0.0
  0
LINE
  5
   6BF
  8
0
  6
DASHDOT
 62
     7
 10
211.0373757869
 20
52.1921462342916
 30
0.0
 11
211.0373757869
 21
120.092145077962
 31
0.0
  0
LINE
  5
   6C0
  8
0
  6
DASHDOT
 62
     7
 10
209.987375804782
 20
52.1921462342916
 30
0.0
 11
209.987375804782
 21
120.092145077962
 31
0.0
  0
LINE
  5
   6C1
  8
0
  6
DASHDOT
 62
     7
 10
211.0373757869
 20
128.49214493491
 30
0.0
 11
211.0373757869
 21
166.331423237107
 31
0.0
  0
LINE
  5
   6C2
  8
0
  6
DASHDOT
 62
     7
 10
209.987375804782
 20
128.49214493491
 30
0.0
 11
209.987375804782
 21
166.331423237107
 31
0.0
  0
POINT
  5
   6C3
  8
0
  6
CONTINUOUS
 62
     7
 10
211.0373757869
 20
86.7546629491499
 30
0.0
  0
LINE
  5
   6C4
  8
0
  6
DASHDOT
 62
     7
 10
233.689202004765
 20
154.917767743475
 30
0.0
 11
225.508982822244
 21
154.917767743475
 31
0.0
  0
LINE
  5
   6C5
  8
0
  6
CONTINUOUS
 62
   130
 10
230.462375456076
 20
148.337154543775
 30
0.0
 11
229.062375479918
 21
148.337154543775
 31
0.0
  0
LINE
  5
   6C6
  8
0
  6
CONTINUOUS
 62
   130
 10
230.462375456076
 20
156.037154412645
 30
0.0
 11
229.062375479918
 21
156.037154412645
 31
0.0
  0
LINE
  5
   6C7
  8
0
  6
CONTINUOUS
 62
   130
 10
230.462375456076
 20
148.337154543775
 30
0.0
 11
230.462375456076
 21
156.037154412645
 31
0.0
  0
LINE
  5
   6C8
  8
0
  6
CONTINUOUS
 62
   130
 10
228.362375491857
 20
153.364381081697
 30
0.0
 11
228.362375491857
 21
156.471154405254
 31
0.0
  0
LINE
  5
   6C9
  8
0
  6
CONTINUOUS
 62
   130
 10
229.062375479918
 20
156.471154405254
 30
0.0
 11
228.362375491857
 21
156.471154405254
 31
0.0
  0
LINE
  5
   6CA
  8
0
  6
CONTINUOUS
 62
   130
 10
229.062375479918
 20
153.364381081697
 30
0.0
 11
228.362375491839
 21
153.364381081697
 31
0.0
  0
INSERT
  5
   6CB
  8
255
  6
CONTINUOUS
 62
     7
  2
P_F_S4
 10
264.412353515625
 20
48.2591857910156
 30
0.0
 41
0.349999994039536
 42
0.349999994039536
 50
3.50835464724173E-15
 43
0.349999994039536
  0
LINE
  5
   6CC
  8
0
  6
DASHDOT
 62
     7
 10
211.0373757869
 20
52.8921462223707
 30
0.0
 11
209.987375804782
 21
52.8921462223707
 31
0.0
  0
LINE
  5
   6CD
  8
0
  6
DASHDOT
 62
     7
 10
211.0373757869
 20
43.0921463892637
 30
0.0
 11
209.987375804782
 21
43.0921463892637
 31
0.0
  0
LINE
  5
   6CE
  8
0
  6
DASHDOT
 62
     7
 10
211.0373757869
 20
129.192144922989
 30
0.0
 11
209.987375804782
 21
129.192144922989
 31
0.0
  0
LINE
  5
   6CF
  8
0
  6
DASHDOT
 62
     7
 10
211.0373757869
 20
119.392145089882
 30
0.0
 11
209.987375804782
 21
119.392145089882
 31
0.0
  0
INSERT
  5
   6D0
  8
0
  6
CONTINUOUS
 62
     7
  2
*UDIM83
 10
0.0
 20
0.0
 30
0.0
  0
INSERT
  5
   6D1
  8
0
  6
CONTINUOUS
 62
     7
  2
*UDIM84
 10
0.0
 20
0.0
 30
0.0
  0
INSERT
  5
   6D2
  8
0
  6
CONTINUOUS
 62
     7
  2
*UDIM85
 10
0.0
 20
0.0
 30
0.0
  0
INSERT
  5
   6D3
  8
0
  6
CONTINUOUS
 62
     7
  2
*UDIM86
 10
0.0
 20
0.0
 30
0.0
  0
INSERT
  5
   6D4
  8
0
  6
CONTINUOUS
 62
     7
  2
*UDIM87
 10
0.0
 20
0.0
 30
0.0
  0
INSERT
  5
   6D5
  8
0
  6
CONTINUOUS
 62
     7
  2
*UDIM88
 10
0.0
 20
0.0
 30
0.0
  0
INSERT
  5
   6D6
  8
0
  6
CONTINUOUS
 62
     7
  2
*UDIM89
 10
0.0
 20
0.0
 30
0.0
  0
INSERT
  5
   6D7
  8
0
  6
CONTINUOUS
 62
     7
  2
*UDIM90
 10
0.0
 20
0.0
 30
0.0
  0
INSERT
  5
   6D8
  8
0
  6
CONTINUOUS
 62
     7
  2
*UDIM91
 10
0.0
 20
0.0
 30
0.0
  0
INSERT
  5
   6D9
  8
0
  6
CONTINUOUS
 62
     7
  2
*UDIM92
 10
0.0
 20
0.0
 30
0.0
  0
INSERT
  5
   6DA
  8
0
  6
CONTINUOUS
 62
     7
  2
*UDIM93
 10
0.0
 20
0.0
 30
0.0
  0
INSERT
  5
   6DB
  8
0
  6
CONTINUOUS
 62
     7
  2
*UDIM94
 10
0.0
 20
0.0
 30
0.0
  0
INSERT
  5
   6DC
  8
0
  6
CONTINUOUS
 62
     7
  2
*UDIM95
 10
0.0
 20
0.0
 30
0.0
  0
TEXT
  5
   6DD
  8
0
  6
CONTINUOUS
 62
     7
 10
288.01521147401
 20
78.7866598336299
 30
0.0
 40
2.99999997871263
  1
=    =
 50
89.9999999480344
 41
0.916666703091727
 72
     1
 11
286.515211491877
 21
86.7616601002646
 31
0.0
 73
     2
  0
TEXT
  5
   6DE
  8
0
  6
CONTINUOUS
 62
     7
 10
289.042992394353
 20
85.405474990511
 30
0.0
 40
2.99999997871263
  1
X
 50
359.999999948034
 41
0.91666663951344
 72
     1
 11
290.142992363562
 21
86.9054749788751
 31
0.0
 73
     2
  0
LINE
  5
   6DF
  8
0
  6
DASHDOT
 62
     3
 10
158.216934204102
 20
-66.7235180516607
 30
0.0
 11
158.216934204102
 21
-135.988118079395
 31
0.0
  0
LINE
  5
   6E0
  8
0
  6
CONTINUOUS
 62
     7
 10
179.466934204102
 20
-65.1271771023074
 30
0.0
 11
179.466934204102
 21
-138.927590295252
 31
0.0
  0
LINE
  5
   6E1
  8
0
  6
CONTINUOUS
 62
     7
 10
181.406017467467
 20
-136.456359863281
 30
0.0
 11
131.884057689326
 21
-136.456359863281
 31
0.0
  0
LINE
  5
   6E2
  8
0
  6
CONTINUOUS
 62
     7
 10
180.790701586132
 20
-67.9563598632813
 30
0.0
 11
131.703898878231
 21
-67.9563598632813
 31
0.0
  0
LINE
  5
   6E3
  8
0
  6
CONTINUOUS
 62
     7
 10
133.902868373109
 20
-64.5013963233961
 30
0.0
 11
133.902868373109
 21
-138.927590295252
 31
0.0
  0
LINE
  5
   6E4
  8
0
  6
DASHDOT
 62
     3
 10
139.216934204102
 20
-80.8783163030535
 30
0.0
 11
139.216934204102
 21
-123.950427996559
 31
0.0
  0
LINE
  5
   6E5
  8
0
  6
DASHDOT
 62
     3
 10
168.466934204102
 20
-81.1859742437214
 30
0.0
 11
168.466934204102
 21
-124.411914907561
 31
0.0
  0
LINE
  5
   6E6
  8
0
  6
DASHDOT
 62
     3
 10
176.542399914774
 20
-85.3313598632812
 30
0.0
 11
138.795392684964
 21
-85.3313598632812
 31
0.0
  0
LINE
  5
   6E7
  8
0
  6
DASHDOT
 62
     3
 10
176.542399914774
 20
-119.081359863281
 30
0.0
 11
139.4107085663
 21
-119.081359863281
 31
0.0
  0
CIRCLE
  5
   6E8
  8
0
  6
CONTINUOUS
 62
     7
 10
139.216934204102
 20
-85.3313598632812
 30
0.0
 40
0.625
  0
CIRCLE
  5
   6E9
  8
0
  6
CONTINUOUS
 62
     7
 10
168.466934204102
 20
-85.3313598632812
 30
0.0
 40
0.625
  0
CIRCLE
  5
   6EA
  8
0
  6
CONTINUOUS
 62
     7
 10
139.216934204102
 20
-119.081359863281
 30
0.0
 40
0.625
  0
CIRCLE
  5
   6EB
  8
0
  6
CONTINUOUS
 62
     7
 10
168.466934204102
 20
-119.081359863281
 30
0.0
 40
0.625
  0
LINE
  5
   6EC
  8
0
  6
DASHDOT
 62
     3
 10
177.472649454659
 20
-74.9563598632813
 30
0.0
 11
138.59606588808
 21
-74.9563598632813
 31
0.0
  0
LINE
  5
   6ED
  8
0
  6
DASHDOT
 62
     3
 10
173.097649454659
 20
-129.456359863281
 30
0.0
 11
133.732052258311
 21
-129.456359863281
 31
0.0
  0
LINE
  5
   6EE
  8
0
  6
DASHDOT
 62
     3
 10
140.716934204102
 20
-68.6417132535899
 30
0.0
 11
140.716934204102
 21
-136.735003217298
 31
0.0
  0
LINE
  5
   6EF
  8
0
  6
DASHDOT
 62
     3
 10
166.966934204102
 20
-68.6417132535899
 30
0.0
 11
166.966934204102
 21
-136.735003217298
 31
0.0
  0
ARC
  5
   6F0
  8
0
  6
CONTINUOUS
 62
     7
 10
166.966934204102
 20
-74.9563598632813
 30
0.0
 40
3.5
 50
269.999999896069
 51
449.999999896069
  0
ARC
  5
   6F1
  8
0
  6
CONTINUOUS
 62
     7
 10
140.716934204102
 20
-74.9563598632813
 30
0.0
 40
3.5
 50
449.999999896069
 51
629.999999896069
  0
ARC
  5
   6F2
  8
0
  6
CONTINUOUS
 62
     7
 10
140.716934204102
 20
-129.456359863281
 30
0.0
 40
3.5
 50
449.999999896069
 51
629.999999896069
  0
ARC
  5
   6F3
  8
0
  6
CONTINUOUS
 62
     7
 10
166.966934204102
 20
-129.456359863281
 30
0.0
 40
3.5
 50
269.999999896069
 51
449.999999896069
  0
LINE
  5
   6F4
  8
0
  6
CONTINUOUS
 62
     7
 10
166.966934204102
 20
-71.4563598632813
 30
0.0
 11
140.716934204102
 21
-71.4563598632813
 31
0.0
  0
LINE
  5
   6F5
  8
0
  6
CONTINUOUS
 62
     7
 10
166.966934204102
 20
-78.4563598632813
 30
0.0
 11
140.716934204102
 21
-78.4563598632813
 31
0.0
  0
LINE
  5
   6F6
  8
0
  6
CONTINUOUS
 62
     7
 10
166.966934204102
 20
-125.956359863281
 30
0.0
 11
140.716934204102
 21
-125.956359863281
 31
0.0
  0
LINE
  5
   6F7
  8
0
  6
CONTINUOUS
 62
     7
 10
166.966934204102
 20
-132.956359863281
 30
0.0
 11
140.716934204102
 21
-132.956359863281
 31
0.0
  0
LINE
  5
   6F8
  8
0
  6
DASHDOT
 62
     3
 10
176.542399914774
 20
-101.768859863281
 30
0.0
 11
127.818356177254
 21
-101.768859863281
 31
0.0
  0
TEXT
  5
   6F9
  8
0
  6
CONTINUOUS
 62
     1
 10
138.296893362876
 20
-193.480718893192
 30
0.0
 40
2.00000008940697
  1
M4352 96-12-17
 50
359.999999896069
 41
0.749999861419206
 72
     2
 11
158.99689045566
 21
-193.480718930637
 31
0.0
  0
TEXT
  5
   6FA
  8
0
  6
CONTINUOUS
 62
     1
 10
130.442901609519
 20
-178.463394231654
 30
0.0
 40
2.00000008940697
  1
96-11-19 BARCELLA
 50
359.999999896069
 41
0.749999861419206
 72
     2
 11
155.642898071984
 21
-178.463394277238
 31
0.0
  0
TEXT
  5
   6FB
  8
0
  6
CONTINUOUS
 62
     1
 10
231.973709102828
 20
-204.68986525788
 30
0.0
 40
4.00000017881393
  1
605032/191
 50
359.999999896069
 41
0.937499973922969
 72
     2
 11
268.723709702599
 21
-204.689865324357
 31
0.0
  0
TEXT
  5
   6FC
  8
0
  6
CONTINUOUS
 62
     1
 10
250.059402463107
 20
-195.708282493541
 30
0.0
 40
3.00000002980232
  1
S4X
 50
359.999999896069
 41
0.916666604744064
 72
     2
 11
257.759402015079
 21
-195.70828250747
 31
0.0
  0
TEXT
  5
   6FD
  8
0
  6
CONTINUOUS
 62
     1
 10
223.962477530593
 20
-177.398010250357
 30
0.0
 40
2.00000008940697
  1
4POLE LOW VOLTAGE M.C.C.B SERIES ISOMAX
 50
359.999999896069
 41
0.687499997764826
 72
     1
 11
250.637478634715
 21
-176.398010253906
 31
0.0
 73
     2
  0
TEXT
  5
   6FE
  8
0
  6
CONTINUOUS
 62
     1
 10
220.5249773881
 20
-180.398010244139
 30
0.0
 40
2.00000008940697
  1
SUPERLIMITING PLUG-IN VERSION REAR TERMINALS
 50
359.999999896069
 41
0.687499997764826
 72
     1
 11
250.637478634715
 21
-179.398010253906
 31
0.0
 73
     2
  0
TEXT
  5
   6FF
  8
0
  6
CONTINUOUS
 62
     1
 10
215.602369909228
 20
-185.468276965284
 30
0.0
 40
2.00000008940697
  1
INTERR.AUTOMATICO SERIE ISOMAX SUPERLIMITATORE
 50
359.999999896069
 41
0.687499997764826
 72
     1
 11
247.08987121284
 21
-184.468276977539
 31
0.0
 73
     2
  0
TEXT
  5
   700
  8
0
  6
CONTINUOUS
 62
     1
 10
212.852369795235
 20
-188.46827696031
 30
0.0
 40
2.00000008940697
  1
TETRAP. ESECUZIONE RIMOVIBILE TERMINALI POSTERIORI
 50
359.999999896069
 41
0.687499997764826
 72
     1
 11
247.08987121284
 21
-187.468276977539
 31
0.0
 73
     2
  0
INSERT
  5
   701
  8
0
  6
CONTINUOUS
 62
     7
  2
*UDIM96
 10
0.0
 20
0.0
 30
0.0
  0
INSERT
  5
   702
  8
0
  6
CONTINUOUS
 62
     7
  2
*UDIM97
 10
0.0
 20
0.0
 30
0.0
  0
INSERT
  5
   703
  8
0
  6
CONTINUOUS
 62
     7
  2
*UDIM98
 10
0.0
 20
0.0
 30
0.0
  0
INSERT
  5
   704
  8
0
  6
CONTINUOUS
 62
     7
  2
*UDIM99
 10
0.0
 20
0.0
 30
0.0
  0
INSERT
  5
   705
  8
0
  6
CONTINUOUS
 62
     7
  2
*UDIM100
 10
0.0
 20
0.0
 30
0.0
  0
INSERT
  5
   706
  8
0
  6
CONTINUOUS
 62
     7
  2
*UDIM101
 10
0.0
 20
0.0
 30
0.0
  0
INSERT
  5
   707
  8
0
  6
CONTINUOUS
 62
     7
  2
*UDIM102
 10
0.0
 20
0.0
 30
0.0
  0
INSERT
  5
   708
  8
0
  6
CONTINUOUS
 62
     7
  2
*UDIM103
 10
0.0
 20
0.0
 30
0.0
  0
INSERT
  5
   709
  8
0
  6
CONTINUOUS
 62
     7
  2
*UDIM104
 10
0.0
 20
0.0
 30
0.0
  0
INSERT
  5
   70A
  8
0
  6
CONTINUOUS
 62
     7
  2
*UDIM105
 10
0.0
 20
0.0
 30
0.0
  0
TEXT
  5
   70B
  8
0
  6
CONTINUOUS
 62
     7
 10
156.750935313372
 20
-64.8625526706348
 30
0.0
 40
3.00000002980232
  1
Y
 50
359.999999896069
 41
0.916666604744064
 72
     2
 11
158.950935182242
 21
-64.8625526746144
 31
0.0
  0
TEXT
  5
   70C
  8
0
  6
CONTINUOUS
 62
     7
 10
104.476253506808
 20
-103.518810657657
 30
0.0
 40
3.00000002980232
  1
X
 50
359.999999896069
 41
0.916666604744064
 72
     2
 11
106.676253375678
 21
-103.518810661637
 31
0.0
  0
TEXT
  5
   70D
  8
0
  6
CONTINUOUS
 62
     7
 10
194.789928433566
 20
-102.708649663127
 30
0.0
 40
3.00000002980232
  1
X
 50
359.999999896069
 41
0.916666604744064
 72
     2
 11
196.989928302436
 21
-102.708649667107
 31
0.0
  0
TEXT
  5
   70E
  8
0
  6
CONTINUOUS
 62
     7
 10
157.238081690936
 20
-151.067295102275
 30
0.0
 40
3.00000002980232
  1
Y
 50
359.999999896069
 41
0.916666604744064
 72
     2
 11
159.438081559806
 21
-151.067295106255
 31
0.0
  0
LINE
  5
   70F
  8
0
  6
CONTINUOUS
 62
   210
 10
203.41235871017
 20
-37.0194835434063
 30
0.0
 11
203.41235871017
 21
-38.8195217172016
 31
0.0
  0
LINE
  5
   710
  8
0
  6
CONTINUOUS
 62
   210
 10
203.41235871017
 20
-9.01948312617378
 30
0.0
 11
203.41235871017
 21
-10.8195197740902
 31
0.0
  0
LINE
  5
   711
  8
0
  6
CONTINUOUS
 62
   210
 10
215.812377205491
 20
-5.01948917008485
 30
0.0
 11
214.81237719059
 21
-5.01948917008485
 31
0.0
  0
LINE
  5
   712
  8
0
  6
CONTINUOUS
 62
     3
 10
166.892369152308
 20
-18.2194954702959
 30
0.0
 11
164.492369116545
 21
-18.2194954702959
 31
0.0
  0
LINE
  5
   713
  8
0
  6
CONTINUOUS
 62
     3
 10
173.692369253636
 20
-18.2194954702959
 30
0.0
 11
171.292369217873
 21
-18.2194954702959
 31
0.0
  0
LINE
  5
   714
  8
0
  6
DASHDOT
 62
     7
 10
280.592826272672
 20
-18.2194954702959
 30
0.0
 11
160.019406944718
 21
-18.2194954702959
 31
0.0
  0
LINE
  5
   715
  8
0
  6
CONTINUOUS
 62
   212
 10
164.212370333076
 20
-18.2194954702959
 30
0.0
 11
164.212370333076
 21
-18.9611367166988
 31
0.0
  0
LINE
  5
   716
  8
0
  6
CONTINUOUS
 62
   212
 10
164.212370333076
 20
-17.4778572756509
 30
0.0
 11
164.212370333076
 21
-18.2194954702959
 31
0.0
  0
LINE
  5
   717
  8
0
  6
CONTINUOUS
 62
   210
 10
204.012358719111
 20
-37.0194835434063
 30
0.0
 11
204.012358719111
 21
-37.2194927016601
 31
0.0
  0
LINE
  5
   718
  8
0
  6
DASHDOT
 62
     7
 10
227.637761112436
 20
-4.21948305464821
 30
0.0
 11
180.139681729487
 21
-4.21948305464821
 31
0.0
  0
LINE
  5
   719
  8
0
  6
DASHDOT
 62
     7
 10
227.637761112436
 20
-32.2194834718807
 30
0.0
 11
180.367135437262
 21
-32.2194834718807
 31
0.0
  0
LINE
  5
   71A
  8
0
  6
CONTINUOUS
 62
   212
 10
185.01237064302
 20
-4.21950136519536
 30
0.0
 11
185.01237064302
 21
-4.96113955984038
 31
0.0
  0
LINE
  5
   71B
  8
0
  6
CONTINUOUS
 62
     7
 10
224.012371224165
 20
2.78050484262849
 30
0.0
 11
224.012371224165
 21
-53.2194959918365
 31
0.0
  0
LINE
  5
   71C
  8
0
  6
DASHDOT
 62
     7
 10
203.412370917201
 20
5.37804264495591
 30
0.0
 11
203.412370917201
 21
0.580517016877366
 31
0.0
  0
LINE
  5
   71D
  8
0
  6
DASHDOT
 62
     7
 10
202.21237089932
 20
5.37804264495591
 30
0.0
 11
202.21237089932
 21
0.580517016877366
 31
0.0
  0
LINE
  5
   71E
  8
0
  6
DASHDOT
 62
     7
 10
203.412370917201
 20
-9.01948312617378
 30
0.0
 11
203.412370917201
 21
-13.4194892952546
 31
0.0
  0
LINE
  5
   71F
  8
0
  6
DASHDOT
 62
     7
 10
202.21237089932
 20
-9.01948312617378
 30
0.0
 11
202.21237089932
 21
-13.4194892952546
 31
0.0
  0
LINE
  5
   720
  8
0
  6
DASHDOT
 62
     7
 10
203.412370917201
 20
-23.0194894383058
 30
0.0
 11
203.412370917201
 21
-27.4194834003552
 31
0.0
  0
LINE
  5
   721
  8
0
  6
DASHDOT
 62
     7
 10
202.21237089932
 20
-23.0194894383058
 30
0.0
 11
202.21237089932
 21
-27.4194834003552
 31
0.0
  0
LINE
  5
   722
  8
0
  6
DASHDOT
 62
     7
 10
203.412370917201
 20
-37.0194835434063
 30
0.0
 11
203.412370917201
 21
-41.4194958160028
 31
0.0
  0
LINE
  5
   723
  8
0
  6
DASHDOT
 62
     7
 10
202.21237089932
 20
-37.0194835434063
 30
0.0
 11
202.21237089932
 21
-41.4194958160028
 31
0.0
  0
LINE
  5
   724
  8
0
  6
DASHDOT
 62
     7
 10
203.412370917201
 20
-26.6194833884342
 30
0.0
 11
202.21237089932
 21
-26.6194833884342
 31
0.0
  0
LINE
  5
   725
  8
0
  6
DASHDOT
 62
     7
 10
203.412370917201
 20
-37.8194835553272
 30
0.0
 11
202.21237089932
 21
-37.8194835553272
 31
0.0
  0
LINE
  5
   726
  8
0
  6
DASHDOT
 62
     7
 10
203.412370917201
 20
-23.8194955537424
 30
0.0
 11
202.21237089932
 21
-23.8194955537424
 31
0.0
  0
LINE
  5
   727
  8
0
  6
DASHDOT
 62
     7
 10
203.412370917201
 20
-12.6194953868494
 30
0.0
 11
202.21237089932
 21
-12.6194953868494
 31
0.0
  0
LINE
  5
   728
  8
0
  6
DASHDOT
 62
     7
 10
203.412370917201
 20
-9.81948313809471
 30
0.0
 11
202.21237089932
 21
-9.81948313809471
 31
0.0
  0
LINE
  5
   729
  8
0
  6
DASHDOT
 62
     7
 10
203.412370917201
 20
1.38051702879829
 30
0.0
 11
202.21237089932
 21
1.38051702879829
 31
0.0
  0
LINE
  5
   72A
  8
0
  6
CONTINUOUS
 62
     7
 10
266.012371850014
 20
10.7733226497518
 30
0.0
 11
266.012371850014
 21
-56.7985781997051
 31
0.0
  0
LINE
  5
   72B
  8
0
  6
CONTINUOUS
 62
     7
 10
266.812371861935
 20
10.7733226497518
 30
0.0
 11
266.812371861935
 21
-57.1607214947843
 31
0.0
  0
LINE
  5
   72C
  8
0
  6
CONTINUOUS
 62
     1
 10
268.212371882797
 20
5.18050487839128
 30
0.0
 11
268.212371882797
 21
-41.6194958189831
 31
0.0
  0
LINE
  5
   72D
  8
0
  6
CONTINUOUS
 62
     1
 10
268.212371882797
 20
5.18050487839128
 30
0.0
 11
266.812371861935
 21
5.18050487839128
 31
0.0
  0
LINE
  5
   72E
  8
0
  6
CONTINUOUS
 62
     1
 10
268.212371882797
 20
-41.6194958189831
 30
0.0
 11
266.812371861935
 21
-41.6194958189831
 31
0.0
  0
LINE
  5
   72F
  8
0
  6
CONTINUOUS
 62
     7
 10
266.012371850014
 20
2.78050484262849
 30
0.0
 11
224.012371224165
 21
2.78050484262849
 31
0.0
  0
LINE
  5
   730
  8
0
  6
CONTINUOUS
 62
     7
 10
266.012371850014
 20
-39.2194957832203
 30
0.0
 11
263.812371817231
 21
-39.2194957832203
 31
0.0
  0
LINE
  5
   731
  8
0
  6
CONTINUOUS
 62
     7
 10
263.812371817231
 20
2.78050484262849
 30
0.0
 11
263.812371817231
 21
-53.2194959918365
 31
0.0
  0
LINE
  5
   732
  8
0
  6
CONTINUOUS
 62
     7
 10
264.612371829152
 20
2.78050484262849
 30
0.0
 11
264.612371829152
 21
-39.2194957832203
 31
0.0
  0
LINE
  5
   733
  8
0
  6
CONTINUOUS
 62
     7
 10
277.212372016907
 20
-13.8194954047308
 30
0.0
 11
277.212372016907
 21
-22.619495535861
 31
0.0
  0
LINE
  5
   734
  8
0
  6
CONTINUOUS
 62
     7
 10
277.212372016907
 20
-13.8194954047308
 30
0.0
 11
268.212371882797
 21
-13.8194954047308
 31
0.0
  0
LINE
  5
   735
  8
0
  6
CONTINUOUS
 62
     7
 10
277.212372016907
 20
-22.619495535861
 30
0.0
 11
268.212371882797
 21
-22.619495535861
 31
0.0
  0
LINE
  5
   736
  8
0
  6
CONTINUOUS
 62
     7
 10
263.812371817231
 20
-53.2194959918365
 30
0.0
 11
224.012371224165
 21
-53.2194959918365
 31
0.0
  0
POINT
  5
   737
  8
0
  6
CONTINUOUS
 62
     7
 10
163.412370321155
 20
-18.2194954702959
 30
0.0
  0
LINE
  5
   738
  8
0
  6
DASHDOT
 62
     7
 10
227.637761112436
 20
-46.219483680497
 30
0.0
 11
161.421154031204
 21
-46.219483680497
 31
0.0
  0
LINE
  5
   739
  8
0
  6
DASHDOT
 62
     7
 10
203.412370917201
 20
-40.6194835970505
 30
0.0
 11
202.21237089932
 21
-40.6194835970505
 31
0.0
  0
LINE
  5
   73A
  8
0
  6
DASHDOT
 62
     7
 10
203.412370917201
 20
-51.8194837639435
 30
0.0
 11
202.21237089932
 21
-51.8194837639435
 31
0.0
  0
LINE
  5
   73B
  8
0
  6
DASHDOT
 62
     7
 10
202.21237089932
 20
-51.019495959054
 30
0.0
 11
202.21237089932
 21
-56.7985781997051
 31
0.0
  0
LINE
  5
   73C
  8
0
  6
DASHDOT
 62
     7
 10
203.412370917201
 20
-51.019495959054
 30
0.0
 11
203.412370917201
 21
-57.1607214947843
 31
0.0
  0
INSERT
  5
   73D
  8
255
  6
CONTINUOUS
 62
     7
  2
P_F_P_
 10
264.412353515625
 20
-64.1547927856445
 30
0.0
 41
0.400000005960464
 42
0.400000005960464
 50
359.999999792138
 43
0.400000005960464
  0
INSERT
  5
   73E
  8
0
  6
CONTINUOUS
 62
     7
  2
*UDIM106
 10
0.0
 20
0.0
 30
0.0
  0
INSERT
  5
   73F
  8
0
  6
CONTINUOUS
 62
     7
  2
*UDIM107
 10
0.0
 20
0.0
 30
0.0
  0
INSERT
  5
   740
  8
0
  6
CONTINUOUS
 62
     7
  2
*UDIM108
 10
0.0
 20
0.0
 30
0.0
  0
INSERT
  5
   741
  8
0
  6
CONTINUOUS
 62
     7
  2
*UDIM109
 10
0.0
 20
0.0
 30
0.0
  0
TEXT
  5
   742
  8
0
  6
CONTINUOUS
 62
     7
 10
150.705661694132
 20
-19.5678760409247
 30
0.0
 40
2.99999994933605
  1
Y
 50
359.999999896069
 41
0.916666607525612
 72
     2
 11
152.905661512338
 21
-19.5678760449043
 31
0.0
  0
TEXT
  5
   743
  8
0
  6
CONTINUOUS
 62
     7
 10
287.424422886674
 20
-19.9841327609946
 30
0.0
 40
2.99999994933605
  1
Y
 50
359.999999896069
 41
0.916666607525612
 72
     2
 11
289.62442270488
 21
-19.9841327649742
 31
0.0
  0
LINE
  5
   744
  8
0
  6
CONTINUOUS
 62
     7
 10
71.1467877582084
 20
68.3796635062272
 30
0.0
 11
67.646787817813
 21
68.3796635062272
 31
0.0
  0
LINE
  5
   745
  8
0
  6
CONTINUOUS
 62
     7
 10
62.39678790722
 20
104.429652211147
 30
0.0
 11
62.39678790722
 21
105.129652199226
 31
0.0
  0
LINE
  5
   746
  8
0
  6
CONTINUOUS
 62
     7
 10
67.646787817813
 20
68.3796635062272
 30
0.0
 11
62.39678790722
 21
68.3796635062272
 31
0.0
  0
LINE
  5
   747
  8
0
  6
CONTINUOUS
 62
     7
 10
80.7717769131435
 20
68.3796635062272
 30
0.0
 11
71.1467877582084
 21
68.3796635062272
 31
0.0
  0
LINE
  5
   748
  8
0
  6
CONTINUOUS
 62
    52
 10
93.8967660084739
 20
68.3796635062272
 30
0.0
 11
90.3967660680785
 21
68.3796635062272
 31
0.0
  0
LINE
  5
   749
  8
0
  6
CONTINUOUS
 62
    52
 10
99.1467659190669
 20
68.3796635062272
 30
0.0
 11
93.8967660084739
 21
68.3796635062272
 31
0.0
  0
LINE
  5
   74A
  8
0
  6
CONTINUOUS
 62
    52
 10
90.3967660680785
 20
68.3796635062272
 30
0.0
 11
80.7717769131435
 21
68.3796635062272
 31
0.0
  0
LINE
  5
   74B
  8
0
  6
CONTINUOUS
 62
     7
 10
50.1467881158363
 20
105.129641518074
 30
0.0
 11
50.1467881158363
 21
122.017151911634
 31
0.0
  0
LINE
  5
   74C
  8
0
  6
CONTINUOUS
 62
     7
 10
80.7717769131435
 20
122.017151911634
 30
0.0
 11
50.1467827752602
 21
122.017151911634
 31
0.0
  0
LINE
  5
   74D
  8
0
  6
CONTINUOUS
 62
     2
 10
99.1467659190669
 20
114.929649362044
 30
0.0
 11
99.1467659190669
 21
122.192161305777
 31
0.0
  0
LINE
  5
   74E
  8
0
  6
CONTINUOUS
 62
     7
 10
99.1467659190669
 20
122.017151911634
 30
0.0
 11
80.7717769131435
 21
122.017151911634
 31
0.0
  0
LINE
  5
   74F
  8
0
  6
CONTINUOUS
 62
     3
 10
50.1467881158363
 20
50.2671638146812
 30
0.0
 11
50.1467881158363
 21
68.3796635062282
 31
0.0
  0
LINE
  5
   750
  8
0
  6
DASHDOT
 62
     3
 10
80.7717877524187
 20
37.5018129505713
 30
0.0
 11
80.7717877524187
 21
164.27900175177
 31
0.0
  0
LINE
  5
   751
  8
0
  6
CONTINUOUS
 62
     3
 10
99.1467872813712
 20
50.2671638146812
 30
0.0
 11
99.1467872813712
 21
58.5796516568227
 31
0.0
  0
LINE
  5
   752
  8
0
  6
CONTINUOUS
 62
     7
 10
99.1467659190669
 20
50.2671638146812
 30
0.0
 11
50.1467881158363
 21
50.2671638146812
 31
0.0
  0
LINE
  5
   753
  8
0
  6
CONTINUOUS
 62
     7
 10
71.1467824176323
 20
68.3796635062272
 30
0.0
 11
67.646787817813
 21
68.3796635062272
 31
0.0
  0
LINE
  5
   754
  8
0
  6
CONTINUOUS
 62
     7
 10
93.896776689626
 20
68.3796635062272
 30
0.0
 11
90.3967767492307
 21
68.3796635062272
 31
0.0
  0
LINE
  5
   755
  8
0
  6
CONTINUOUS
 62
     7
 10
99.1467872813712
 20
68.554663503247
 30
0.0
 11
99.1467872813712
 21
74.8546580553825
 31
0.0
  0
LINE
  5
   756
  8
0
  6
CONTINUOUS
 62
     7
 10
62.39678790722
 20
68.2046514929099
 30
0.0
 11
62.39678790722
 21
74.8546580553825
 31
0.0
  0
LINE
  5
   757
  8
0
  6
CONTINUOUS
 62
     7
 10
98.9717872843515
 20
105.129662880378
 30
0.0
 11
62.5717879042495
 21
105.129662880378
 31
0.0
  0
LINE
  5
   758
  8
0
  6
CONTINUOUS
 62
     7
 10
67.646787817813
 20
68.3796635062272
 30
0.0
 11
62.5717879042398
 21
68.3796635062272
 31
0.0
  0
LINE
  5
   759
  8
0
  6
CONTINUOUS
 62
     7
 10
90.3967767492307
 20
68.3796635062272
 30
0.0
 11
71.1467824176323
 21
68.3796635062272
 31
0.0
  0
LINE
  5
   75A
  8
0
  6
CONTINUOUS
 62
     7
 10
98.9717872843515
 20
68.3796635062272
 30
0.0
 11
93.896776689626
 21
68.3796635062272
 31
0.0
  0
LINE
  5
   75B
  8
0
  6
CONTINUOUS
 62
     7
 10
84.5342875302206
 20
76.1671580330308
 30
0.0
 11
84.5342875302206
 21
90.1671524540361
 31
0.0
  0
LINE
  5
   75C
  8
0
  6
CONTINUOUS
 62
     7
 10
77.0092876583706
 20
76.1671580330308
 30
0.0
 11
77.0092876583706
 21
90.1671524540361
 31
0.0
  0
LINE
  5
   75D
  8
0
  6
CONTINUOUS
 62
     7
 10
99.1467872813712
 20
100.929652270752
 30
0.0
 11
62.39678790722
 21
100.929652270752
 31
0.0
  0
LINE
  5
   75E
  8
0
  6
CONTINUOUS
 62
     7
 10
99.1467872813712
 20
104.429652211147
 30
0.0
 11
62.39678790722
 21
104.429652211147
 31
0.0
  0
LINE
  5
   75F
  8
0
  6
CONTINUOUS
 62
     7
 10
84.5342875302206
 20
90.0745895894015
 30
0.0
 11
77.0092876583706
 21
90.0745895894015
 31
0.0
  0
LINE
  5
   760
  8
0
  6
CONTINUOUS
 62
     7
 10
84.5342875302206
 20
90.1671524540361
 30
0.0
 11
77.0092876583706
 21
90.1671524540361
 31
0.0
  0
LINE
  5
   761
  8
0
  6
CONTINUOUS
 62
     7
 10
84.5342875302206
 20
76.1671580330308
 30
0.0
 11
77.0092876583706
 21
76.1671580330308
 31
0.0
  0
LINE
  5
   762
  8
0
  6
CONTINUOUS
 62
     7
 10
84.5342875302206
 20
76.2597315788175
 30
0.0
 11
77.0092876583706
 21
76.2597315788175
 31
0.0
  0
LINE
  5
   763
  8
0
  6
CONTINUOUS
 62
     7
 10
99.1467819407951
 20
75.2046580494221
 30
0.0
 11
99.1467819407951
 21
79.404655194263
 31
0.0
  0
LINE
  5
   764
  8
0
  6
CONTINUOUS
 62
     7
 10
99.1467819407951
 20
91.4796577722605
 30
0.0
 11
99.1467819407951
 21
104.954662883359
 31
0.0
  0
LINE
  5
   765
  8
0
  6
CONTINUOUS
 62
     7
 10
99.1467819407951
 20
79.7546551883026
 30
0.0
 11
99.1467819407951
 21
86.579657855707
 31
0.0
  0
LINE
  5
   766
  8
0
  6
CONTINUOUS
 62
     7
 10
99.1467819407951
 20
86.9296578497465
 30
0.0
 11
99.1467819407951
 21
91.1296577782209
 31
0.0
  0
LINE
  5
   767
  8
0
  6
CONTINUOUS
 62
     7
 10
62.3967879072182
 20
75.2046580494221
 30
0.0
 11
62.3967879072182
 21
79.4046579778972
 31
0.0
  0
LINE
  5
   768
  8
0
  6
CONTINUOUS
 62
     7
 10
62.396787907212
 20
79.7546579719368
 30
0.0
 11
62.396787907212
 21
86.579657855707
 31
0.0
  0
LINE
  5
   769
  8
0
  6
CONTINUOUS
 62
     7
 10
62.3967879072218
 20
86.9296578497465
 30
0.0
 11
62.3967879072218
 21
91.1296577782209
 31
0.0
  0
LINE
  5
   76A
  8
0
  6
CONTINUOUS
 62
     7
 10
62.3967879072297
 20
91.4796577722605
 30
0.0
 11
62.3967879072297
 21
104.954662883359
 31
0.0
  0
LINE
  5
   76B
  8
0
  6
CONTINUOUS
 62
     7
 10
77.0092848675672
 20
79.4046579778958
 30
0.0
 11
62.7467878803979
 21
79.4046579778958
 31
0.0
  0
LINE
  5
   76C
  8
0
  6
CONTINUOUS
 62
     7
 10
99.1467819407951
 20
79.4046686590479
 30
0.0
 11
98.7967819467556
 21
79.4046686590479
 31
0.0
  0
LINE
  5
   76D
  8
0
  6
CONTINUOUS
 62
     7
 10
77.0092780218865
 20
79.7546579719353
 30
0.0
 11
62.7467878803979
 21
79.7546579719353
 31
0.0
  0
LINE
  5
   76E
  8
0
  6
CONTINUOUS
 62
     7
 10
99.1467819407951
 20
79.7546686530874
 30
0.0
 11
98.7967819467556
 21
79.7546686530874
 31
0.0
  0
LINE
  5
   76F
  8
0
  6
CONTINUOUS
 62
     7
 10
62.7467878803979
 20
79.4046579778965
 30
0.0
 11
62.7467878803979
 21
79.754657971936
 31
0.0
  0
LINE
  5
   770
  8
0
  6
CONTINUOUS
 62
     7
 10
98.7967819467556
 20
79.4046579778965
 30
0.0
 11
98.7967819467556
 21
79.754657971936
 31
0.0
  0
LINE
  5
   771
  8
0
  6
CONTINUOUS
 62
     7
 10
99.1467872813712
 20
74.8546580553825
 30
0.0
 11
98.7967819467556
 21
74.8546580553825
 31
0.0
  0
LINE
  5
   772
  8
0
  6
CONTINUOUS
 62
     7
 10
99.1467819407951
 20
75.2046580494221
 30
0.0
 11
98.7967819467556
 21
75.2046580494221
 31
0.0
  0
LINE
  5
   773
  8
0
  6
CONTINUOUS
 62
     7
 10
62.7467878803979
 20
74.8546580553825
 30
0.0
 11
62.7467878803979
 21
75.2046580494221
 31
0.0
  0
LINE
  5
   774
  8
0
  6
CONTINUOUS
 62
     7
 10
98.7967819467556
 20
74.8546580553825
 30
0.0
 11
98.7967819467556
 21
75.2046580494221
 31
0.0
  0
LINE
  5
   775
  8
0
  6
CONTINUOUS
 62
     7
 10
99.1467819407951
 20
91.1296577782209
 30
0.0
 11
98.7967819467556
 21
91.1296577782209
 31
0.0
  0
LINE
  5
   776
  8
0
  6
CONTINUOUS
 62
     7
 10
99.1467819407951
 20
91.4796577722605
 30
0.0
 11
98.7967819467556
 21
91.4796577722605
 31
0.0
  0
LINE
  5
   777
  8
0
  6
CONTINUOUS
 62
     7
 10
62.7467878803979
 20
91.1296577782209
 30
0.0
 11
62.7467878803979
 21
91.4796577722605
 31
0.0
  0
LINE
  5
   778
  8
0
  6
CONTINUOUS
 62
     7
 10
98.7967819467556
 20
91.1296577782209
 30
0.0
 11
98.7967819467556
 21
91.4796577722605
 31
0.0
  0
LINE
  5
   779
  8
0
  6
CONTINUOUS
 62
     7
 10
77.0092848837744
 20
86.579657855707
 30
0.0
 11
62.7467878803979
 21
86.579657855707
 31
0.0
  0
LINE
  5
   77A
  8
0
  6
CONTINUOUS
 62
     7
 10
99.1467819407951
 20
86.579657855707
 30
0.0
 11
98.7967819467556
 21
86.579657855707
 31
0.0
  0
LINE
  5
   77B
  8
0
  6
CONTINUOUS
 62
     7
 10
77.0092876583706
 20
86.9296578497465
 30
0.0
 11
62.7467878803979
 21
86.9296578497465
 31
0.0
  0
LINE
  5
   77C
  8
0
  6
CONTINUOUS
 62
     7
 10
99.1467819407951
 20
86.9296578497465
 30
0.0
 11
98.7967819467556
 21
86.9296578497465
 31
0.0
  0
LINE
  5
   77D
  8
0
  6
CONTINUOUS
 62
     7
 10
62.7467878803979
 20
86.579657855707
 30
0.0
 11
62.7467878803979
 21
86.9296578497465
 31
0.0
  0
LINE
  5
   77E
  8
0
  6
CONTINUOUS
 62
     7
 10
98.7967819467556
 20
86.579657855707
 30
0.0
 11
98.7967819467556
 21
86.9296578497465
 31
0.0
  0
ARC
  5
   77F
  8
0
  6
CONTINUOUS
 62
     7
 10
62.5717879042398
 20
68.554663503247
 30
0.0
 40
0.174999997019768
 50
179.999999948034
 51
269.999999948034
  0
ARC
  5
   780
  8
0
  6
CONTINUOUS
 62
     7
 10
98.9717872843515
 20
68.554663503247
 30
0.0
 40
0.174999997019768
 50
269.999999948034
 51
359.999999948034
  0
ARC
  5
   781
  8
0
  6
CONTINUOUS
 62
     7
 10
98.9717872843515
 20
104.954662883359
 30
0.0
 40
0.174999997019768
 50
359.999999948034
 51
449.999999948034
  0
ARC
  5
   782
  8
0
  6
CONTINUOUS
 62
     7
 10
62.5717879042495
 20
104.954662883359
 30
0.0
 40
0.174999997019768
 50
449.999999948034
 51
539.999999948034
  0
INSERT
  5
   783
  8
255
  6
CONTINUOUS
 62
     7
  2
$1ON-OFF
 10
87.7717840571176
 20
89.0296578139837
 30
0.0
 41
0.349999994039536
 42
0.349999994039536
 50
359.999999792137
 43
0.349999994039536
  0
LINE
  5
   784
  8
0
  6
CONTINUOUS
 62
     7
 10
72.8967877284061
 20
90.6046577871616
 30
0.0
 11
72.3717877373468
 21
90.6046577871616
 31
0.0
  0
LINE
  5
   785
  8
0
  6
CONTINUOUS
 62
     7
 10
72.8967877284061
 20
87.4546578408058
 30
0.0
 11
72.3717877373468
 21
87.4546578408058
 31
0.0
  0
CIRCLE
  5
   786
  8
0
  6
CONTINUOUS
 62
     7
 10
72.6342877328764
 20
77.3046580136593
 30
0.0
 40
1.57499997317791
  0
CIRCLE
  5
   787
  8
0
  6
CONTINUOUS
 62
     7
 10
72.6342877328764
 20
77.3046580136593
 30
0.0
 40
1.04999998211861
  0
LINE
  5
   788
  8
0
  6
CONTINUOUS
 62
     7
 10
72.3717877373468
 20
87.4546578408058
 30
0.0
 11
72.3717877373468
 21
90.6046577871616
 31
0.0
  0
LINE
  5
   789
  8
0
  6
CONTINUOUS
 62
     7
 10
72.8967877284061
 20
87.4546578408058
 30
0.0
 11
72.8967877284061
 21
90.6046577871616
 31
0.0
  0
LINE
  5
   78A
  8
0
  6
CONTINUOUS
 62
     7
 10
76.0467876747619
 20
75.2046580494221
 30
0.0
 11
76.0467876747619
 21
79.4046629791043
 31
0.0
  0
LINE
  5
   78B
  8
0
  6
CONTINUOUS
 62
     7
 10
85.4967875138293
 20
75.2046580494221
 30
0.0
 11
85.4967875138293
 21
79.4046601954682
 31
0.0
  0
LINE
  5
   78C
  8
0
  6
CONTINUOUS
 62
     7
 10
85.4967875138293
 20
86.9296578497465
 30
0.0
 11
85.4967875138293
 21
91.1296577782209
 31
0.0
  0
LINE
  5
   78D
  8
0
  6
CONTINUOUS
 62
     7
 10
76.0467876747619
 20
86.9296578497465
 30
0.0
 11
76.0467876747619
 21
91.1296577782209
 31
0.0
  0
LINE
  5
   78E
  8
0
  6
CONTINUOUS
 62
     7
 10
84.5342875302206
 20
79.3799082027222
 30
0.0
 11
77.0092876583706
 21
79.3799082027222
 31
0.0
  0
LINE
  5
   78F
  8
0
  6
CONTINUOUS
 62
     7
 10
84.5342875302206
 20
76.6075749260012
 30
0.0
 11
77.0092876583706
 21
76.6075749260012
 31
0.0
  0
LINE
  5
   790
  8
0
  6
CONTINUOUS
 62
     7
 10
84.5342875302206
 20
79.3799079572133
 30
0.0
 11
77.0092876583706
 21
79.3799079572133
 31
0.0
  0
LINE
  5
   791
  8
0
  6
CONTINUOUS
 62
     7
 10
84.5342875302206
 20
81.1110503393124
 30
0.0
 11
77.0092876583706
 21
81.1110503393124
 31
0.0
  0
LINE
  5
   792
  8
0
  6
CONTINUOUS
 62
     7
 10
98.6217658814265
 20
120.267151941436
 30
0.0
 11
62.9217664893926
 21
120.267151941436
 31
0.0
  0
LINE
  5
   793
  8
0
  6
CONTINUOUS
 62
     7
 10
62.9217679099254
 20
114.929649362044
 30
0.0
 11
62.9217664893926
 21
120.267151941436
 31
0.0
  0
LINE
  5
   794
  8
0
  6
CONTINUOUS
 62
     7
 10
98.6217673019592
 20
114.929649362044
 30
0.0
 11
98.6217658814264
 21
120.267151941436
 31
0.0
  0
LINE
  5
   795
  8
0
  6
CONTINUOUS
 62
     7
 10
62.7467878803979
 20
91.4796577722605
 30
0.0
 11
62.3967879072297
 21
91.4796577722605
 31
0.0
  0
LINE
  5
   796
  8
0
  6
CONTINUOUS
 62
     7
 10
62.7467878803979
 20
91.1296577782209
 30
0.0
 11
62.3967879072218
 21
91.1296577782209
 31
0.0
  0
LINE
  5
   797
  8
0
  6
CONTINUOUS
 62
     7
 10
62.7467878803979
 20
86.9296578497465
 30
0.0
 11
62.3967879072218
 21
86.9296578497465
 31
0.0
  0
LINE
  5
   798
  8
0
  6
CONTINUOUS
 62
     7
 10
62.7467878803979
 20
86.579657855707
 30
0.0
 11
62.396787907212
 21
86.579657855707
 31
0.0
  0
LINE
  5
   799
  8
0
  6
CONTINUOUS
 62
     7
 10
62.7467878803979
 20
79.7546579719353
 30
0.0
 11
62.396787907212
 21
79.7546579719353
 31
0.0
  0
LINE
  5
   79A
  8
0
  6
CONTINUOUS
 62
     7
 10
62.7467878803979
 20
79.4046579778958
 30
0.0
 11
62.3967879072182
 21
79.4046579778958
 31
0.0
  0
LINE
  5
   79B
  8
0
  6
CONTINUOUS
 62
     7
 10
62.7467878803979
 20
75.2046580494221
 30
0.0
 11
62.3967879072182
 21
75.2046580494221
 31
0.0
  0
LINE
  5
   79C
  8
0
  6
CONTINUOUS
 62
     7
 10
62.7467878803979
 20
74.8546580553825
 30
0.0
 11
62.39678790722
 21
74.8546580553825
 31
0.0
  0
LINE
  5
   79D
  8
0
  6
CONTINUOUS
 62
     7
 10
98.7967819467556
 20
75.2046580494221
 30
0.0
 11
62.7467878803979
 21
75.2046580494221
 31
0.0
  0
LINE
  5
   79E
  8
0
  6
CONTINUOUS
 62
     7
 10
98.7967819467556
 20
74.8546580553825
 30
0.0
 11
62.7467878803979
 21
74.8546580553825
 31
0.0
  0
LINE
  5
   79F
  8
0
  6
CONTINUOUS
 62
     7
 10
98.7967819467556
 20
79.7546686530874
 30
0.0
 11
84.5342864855551
 21
79.7546686530874
 31
0.0
  0
LINE
  5
   7A0
  8
0
  6
CONTINUOUS
 62
     7
 10
98.7967819467556
 20
79.4046686590479
 30
0.0
 11
84.5342863573191
 21
79.4046686590479
 31
0.0
  0
LINE
  5
   7A1
  8
0
  6
CONTINUOUS
 62
     7
 10
98.7967819467556
 20
86.9296578497465
 30
0.0
 11
84.5342875302206
 21
86.9296578497465
 31
0.0
  0
LINE
  5
   7A2
  8
0
  6
CONTINUOUS
 62
     7
 10
98.7967819467556
 20
86.579657855707
 30
0.0
 11
84.5342875302206
 21
86.579657855707
 31
0.0
  0
LINE
  5
   7A3
  8
0
  6
CONTINUOUS
 62
     7
 10
98.7967819467556
 20
91.4796577722605
 30
0.0
 11
62.7467878803979
 21
91.4796577722605
 31
0.0
  0
LINE
  5
   7A4
  8
0
  6
CONTINUOUS
 62
     7
 10
98.7967819467556
 20
91.1296577782209
 30
0.0
 11
62.7467878803979
 21
91.1296577782209
 31
0.0
  0
LINE
  5
   7A5
  8
0
  6
CONTINUOUS
 62
     7
 10
56.7967718799404
 20
100.40466192067
 30
0.0
 11
56.7967714141922
 21
102.154661890868
 31
0.0
  0
LINE
  5
   7A6
  8
0
  6
CONTINUOUS
 62
     7
 10
57.6717718650392
 20
100.404668301421
 30
0.0
 11
56.7967718799404
 21
100.404668301421
 31
0.0
  0
LINE
  5
   7A7
  8
0
  6
CONTINUOUS
 62
     7
 10
57.6717718650392
 20
100.404662153544
 30
0.0
 11
57.671771399291
 21
102.154662123742
 31
0.0
  0
LINE
  5
   7A8
  8
0
  6
CONTINUOUS
 62
     7
 10
57.671771399291
 20
102.154668271619
 30
0.0
 11
56.7967714141922
 21
102.154668271619
 31
0.0
  0
LINE
  5
   7A9
  8
0
  6
CONTINUOUS
 62
     7
 10
56.7967805894324
 20
67.6796624779747
 30
0.0
 11
56.7967797510856
 21
70.8296624243304
 31
0.0
  0
LINE
  5
   7AA
  8
0
  6
CONTINUOUS
 62
     7
 10
57.6717805745313
 20
67.6796688587255
 30
0.0
 11
56.7967805894324
 21
67.6796688587255
 31
0.0
  0
LINE
  5
   7AB
  8
0
  6
CONTINUOUS
 62
     7
 10
57.671777459207
 20
67.6796624529577
 30
0.0
 11
57.6717712802844
 21
70.829662399312
 31
0.0
  0
LINE
  5
   7AC
  8
0
  6
CONTINUOUS
 62
     7
 10
57.6717743956083
 20
70.8296688050812
 30
0.0
 11
56.7967797510856
 21
70.8296688050812
 31
0.0
  0
LINE
  5
   7AD
  8
0
  6
CONTINUOUS
 62
     7
 10
56.7967804031346
 20
68.3796635062285
 30
0.0
 11
50.3217805134034
 21
68.3796635062285
 31
0.0
  0
LINE
  5
   7AE
  8
0
  6
CONTINUOUS
 62
     2
 10
50.1467805163836
 20
68.3796553556344
 30
0.0
 11
50.1467707356707
 21
105.129654729784
 31
0.0
  0
LINE
  5
   7AF
  8
0
  6
CONTINUOUS
 62
     2
 10
50.1467707356707
 20
105.129654729784
 30
0.0
 11
50.1467661946235
 21
122.192161305777
 31
0.0
  0
LINE
  5
   7B0
  8
0
  6
CONTINUOUS
 62
     7
 10
57.3217805804917
 20
67.6796626176992
 30
0.0
 11
57.3217797421449
 21
70.8296625640549
 31
0.0
  0
LINE
  5
   7B1
  8
0
  6
CONTINUOUS
 62
     7
 10
57.3217718709997
 20
100.404662060395
 30
0.0
 11
57.3217714052514
 21
102.154662030592
 31
0.0
  0
LINE
  5
   7B2
  8
0
  6
CONTINUOUS
 62
     7
 10
56.6042793382962
 20
68.3796624148212
 30
0.0
 11
56.6042695575846
 21
105.129656448395
 31
0.0
  0
LINE
  5
   7B3
  8
0
  6
CONTINUOUS
 62
     7
 10
55.3442802275975
 20
68.3796620794826
 30
0.0
 11
55.344270446886
 21
105.129656113056
 31
0.0
  0
LINE
  5
   7B4
  8
0
  6
CONTINUOUS
 62
     7
 10
54.0842849360346
 20
50.2671638146812
 30
0.0
 11
54.0842703348293
 21
105.129655777718
 31
0.0
  0
LINE
  5
   7B5
  8
0
  6
CONTINUOUS
 62
     7
 10
52.8242851577638
 20
50.2671638146812
 30
0.0
 11
52.8242705565586
 21
105.129655442379
 31
0.0
  0
LINE
  5
   7B6
  8
0
  6
CONTINUOUS
 62
     7
 10
59.1242782272655
 20
68.3796630854983
 30
0.0
 11
59.124268446554
 21
105.129657119072
 31
0.0
  0
LINE
  5
   7B7
  8
0
  6
CONTINUOUS
 62
     7
 10
57.8642761124928
 20
68.379662750159
 30
0.0
 11
57.8642663317813
 21
105.129656783733
 31
0.0
  0
LINE
  5
   7B8
  8
0
  6
CONTINUOUS
 62
     7
 10
51.7392802222332
 20
68.3796611200413
 30
0.0
 11
51.7392704415217
 21
105.129655153615
 31
0.0
  0
LINE
  5
   7B9
  8
0
  6
CONTINUOUS
 62
     7
 10
50.9342801691851
 20
68.3796609057971
 30
0.0
 11
50.9342703884736
 21
105.129654939371
 31
0.0
  0
LINE
  5
   7BA
  8
0
  6
CONTINUOUS
 62
     7
 10
61.6442819367292
 20
50.2671638146812
 30
0.0
 11
61.6442797244282
 21
58.5796516568227
 31
0.0
  0
LINE
  5
   7BB
  8
0
  6
CONTINUOUS
 62
     7
 10
60.3842798219564
 20
50.2671638146812
 30
0.0
 11
60.3842776096555
 21
58.5796516568227
 31
0.0
  0
LINE
  5
   7BC
  8
0
  6
CONTINUOUS
 62
     7
 10
56.6042841587901
 20
50.2671638146812
 30
0.0
 11
56.6042793382961
 21
68.3796627277455
 31
0.0
  0
LINE
  5
   7BD
  8
0
  6
CONTINUOUS
 62
     7
 10
55.3442850480914
 20
50.2671638146812
 30
0.0
 11
55.3442802275974
 21
68.379662392407
 31
0.0
  0
LINE
  5
   7BE
  8
0
  6
CONTINUOUS
 62
     7
 10
59.1242830477596
 20
50.2671638146812
 30
0.0
 11
59.1242782272654
 21
68.3796633984227
 31
0.0
  0
LINE
  5
   7BF
  8
0
  6
CONTINUOUS
 62
     7
 10
57.8642809329869
 20
50.2671638146812
 30
0.0
 11
57.8642761124927
 21
68.3796630630834
 31
0.0
  0
LINE
  5
   7C0
  8
0
  6
CONTINUOUS
 62
     7
 10
51.7392850427268
 20
50.2671638146812
 30
0.0
 11
51.7392802222331
 21
68.3796614329657
 31
0.0
  0
LINE
  5
   7C1
  8
0
  6
CONTINUOUS
 62
     7
 10
50.9342846558926
 20
50.2671638146812
 30
0.0
 11
50.934279835399
 21
68.3796611903359
 31
0.0
  0
LINE
  5
   7C2
  8
0
  6
CONTINUOUS
 62
     7
 10
51.7392704415217
 20
105.129655153615
 30
0.0
 11
51.7392659470512
 21
122.017154866022
 31
0.0
  0
LINE
  5
   7C3
  8
0
  6
CONTINUOUS
 62
     7
 10
50.9342703884736
 20
105.129654939371
 30
0.0
 11
50.9342658940031
 21
122.017154651778
 31
0.0
  0
LINE
  5
   7C4
  8
0
  6
CONTINUOUS
 62
     7
 10
61.6442647273354
 20
114.929649362044
 30
0.0
 11
61.6442628410528
 21
122.017157502156
 31
0.0
  0
LINE
  5
   7C5
  8
0
  6
CONTINUOUS
 62
     7
 10
60.3842626125626
 20
114.929649362044
 30
0.0
 11
60.3842607262802
 21
122.017157166817
 31
0.0
  0
LINE
  5
   7C6
  8
0
  6
CONTINUOUS
 62
     7
 10
59.124268446554
 20
105.129657119072
 30
0.0
 11
59.1242639520835
 21
122.017156831479
 31
0.0
  0
LINE
  5
   7C7
  8
0
  6
CONTINUOUS
 62
     7
 10
57.8642663317813
 20
105.129656783733
 30
0.0
 11
57.8642618373108
 21
122.01715649614
 31
0.0
  0
LINE
  5
   7C8
  8
0
  6
CONTINUOUS
 62
     7
 10
56.6042695575846
 20
105.129656448395
 30
0.0
 11
56.6042650631142
 21
122.017156160802
 31
0.0
  0
LINE
  5
   7C9
  8
0
  6
CONTINUOUS
 62
     7
 10
55.344270446886
 20
105.129656113056
 30
0.0
 11
55.3442659524155
 21
122.017155825464
 31
0.0
  0
LINE
  5
   7CA
  8
0
  6
CONTINUOUS
 62
     7
 10
54.0842703348293
 20
105.129655777718
 30
0.0
 11
54.0842658403588
 21
122.017155490125
 31
0.0
  0
LINE
  5
   7CB
  8
0
  6
CONTINUOUS
 62
     7
 10
52.8242705565586
 20
105.129655442379
 30
0.0
 11
52.8242660620881
 21
122.017155154786
 31
0.0
  0
ARC
  5
   7CC
  8
0
  6
CONTINUOUS
 62
     7
 10
50.3217707792653
 20
104.954654779339
 30
0.0
 40
0.174999997019768
 50
90.0000151968393
 51
180.000015196839
  0
ARC
  5
   7CD
  8
0
  6
CONTINUOUS
 62
     2
 10
98.9717646101829
 20
104.954667727139
 30
0.0
 40
0.174999997019768
 50
360.000015196839
 51
450.000015196839
  0
ARC
  5
   7CE
  8
0
  6
CONTINUOUS
 62
     7
 10
50.3217804668286
 20
68.554655399229
 30
0.0
 40
0.174999997019768
 50
180.000015196839
 51
270.000015196839
  0
LINE
  5
   7CF
  8
0
  6
CONTINUOUS
 62
     7
 10
60.296756477838
 20
105.129654776359
 30
0.0
 11
50.3217707792653
 21
105.129654776359
 31
0.0
  0
LINE
  5
   7D0
  8
0
  6
CONTINUOUS
 62
     7
 10
60.296756477838
 20
68.3796635062272
 30
0.0
 11
57.671776086111
 21
68.3796635062272
 31
0.0
  0
LINE
  5
   7D1
  8
0
  6
CONTINUOUS
 62
     7
 10
60.296756477838
 20
62.6921636030847
 30
0.0
 11
50.1467881158363
 21
62.6921636030847
 31
0.0
  0
LINE
  5
   7D2
  8
0
  6
DASHDOT
 62
     2
 10
111.419131113045
 20
86.7546631933028
 30
0.0
 11
47.680080708797
 21
86.7546631933028
 31
0.0
  0
INSERT
  5
   7D3
  8
255
  6
CONTINUOUS
 62
     7
  2
$1MOSTRINA
 10
40.578366921062
 20
48.2614330291351
 30
0.0
 41
0.349999994039536
 42
0.349999994039536
 50
3.50835464724173E-15
 43
0.349999994039536
  0
LINE
  5
   7D4
  8
0
  6
CONTINUOUS
 62
     2
 10
99.1467506325148
 20
122.542161299816
 30
0.0
 11
99.1467506325148
 21
151.767160802117
 31
0.0
  0
LINE
  5
   7D5
  8
0
  6
CONTINUOUS
 62
     2
 10
99.1467506325148
 20
151.767160802117
 30
0.0
 11
50.1467372628132
 21
151.767160802117
 31
0.0
  0
LINE
  5
   7D6
  8
0
  6
CONTINUOUS
 62
     2
 10
99.1467506325148
 20
147.392160876623
 30
0.0
 11
50.1467372628132
 21
147.392160876623
 31
0.0
  0
LINE
  5
   7D7
  8
0
  6
CONTINUOUS
 62
     2
 10
99.1467506325148
 20
147.042160882584
 30
0.0
 11
50.1467372628132
 21
147.042160882584
 31
0.0
  0
LINE
  5
   7D8
  8
0
  6
CONTINUOUS
 62
     2
 10
99.1467506325148
 20
122.542161299816
 30
0.0
 11
88.4717884136946
 21
122.542161299816
 31
0.0
  0
LINE
  5
   7D9
  8
0
  6
CONTINUOUS
 62
     2
 10
98.7967506384753
 20
122.192161305777
 30
0.0
 11
50.4967372568528
 21
122.192161305777
 31
0.0
  0
LINE
  5
   7DA
  8
0
  6
CONTINUOUS
 62
     2
 10
50.1467372628133
 20
122.542161299816
 30
0.0
 11
50.1467372628133
 21
151.767160802117
 31
0.0
  0
LINE
  5
   7DB
  8
0
  6
CONTINUOUS
 62
     2
 10
50.4967372568528
 20
122.192161305777
 30
0.0
 11
50.4967372568528
 21
122.542161299816
 31
0.0
  0
LINE
  5
   7DC
  8
0
  6
CONTINUOUS
 62
     7
 10
62.4492512574695
 20
126.741287222707
 30
0.0
 11
62.4492512574695
 21
147.042160882584
 31
0.0
  0
LINE
  5
   7DD
  8
0
  6
CONTINUOUS
 62
     7
 10
51.0567514514924
 20
122.542161299816
 30
0.0
 11
51.0567514514924
 21
147.042160882584
 31
0.0
  0
LINE
  5
   7DE
  8
0
  6
CONTINUOUS
 62
     7
 10
52.3167514300347
 20
122.542161299816
 30
0.0
 11
52.3167514300347
 21
147.042160882584
 31
0.0
  0
LINE
  5
   7DF
  8
0
  6
CONTINUOUS
 62
     7
 10
53.576751408577
 20
122.542161299816
 30
0.0
 11
53.576751408577
 21
147.042160882584
 31
0.0
  0
LINE
  5
   7E0
  8
0
  6
CONTINUOUS
 62
     7
 10
54.8367513871194
 20
122.542161299816
 30
0.0
 11
54.8367513871194
 21
147.042160882584
 31
0.0
  0
LINE
  5
   7E1
  8
0
  6
CONTINUOUS
 62
     7
 10
56.0967513656617
 20
122.542161299816
 30
0.0
 11
56.0967513656617
 21
147.042160882584
 31
0.0
  0
LINE
  5
   7E2
  8
0
  6
CONTINUOUS
 62
     7
 10
57.356751344204
 20
122.542161299816
 30
0.0
 11
57.356751344204
 21
147.042160882584
 31
0.0
  0
LINE
  5
   7E3
  8
0
  6
CONTINUOUS
 62
     7
 10
58.6167513227463
 20
122.542161299816
 30
0.0
 11
58.6167513227463
 21
147.042160882584
 31
0.0
  0
LINE
  5
   7E4
  8
0
  6
CONTINUOUS
 62
     7
 10
59.8767513012887
 20
122.542161299816
 30
0.0
 11
59.8767513012887
 21
147.042160882584
 31
0.0
  0
LINE
  5
   7E5
  8
0
  6
CONTINUOUS
 62
     7
 10
61.136751279831
 20
126.112111743318
 30
0.0
 11
61.136751279831
 21
147.042160882584
 31
0.0
  0
LINE
  5
   7E6
  8
0
  6
CONTINUOUS
 62
     7
 10
62.4492512574695
 20
147.392160876623
 30
0.0
 11
62.4492512574695
 21
151.767160802117
 31
0.0
  0
LINE
  5
   7E7
  8
0
  6
CONTINUOUS
 62
     7
 10
61.136751279831
 20
147.392160876623
 30
0.0
 11
61.136751279831
 21
151.767160802117
 31
0.0
  0
LINE
  5
   7E8
  8
0
  6
CONTINUOUS
 62
     7
 10
59.8767513012887
 20
147.392160876623
 30
0.0
 11
59.8767513012887
 21
151.767160802117
 31
0.0
  0
LINE
  5
   7E9
  8
0
  6
CONTINUOUS
 62
     7
 10
58.6167513227463
 20
147.392160876623
 30
0.0
 11
58.6167513227463
 21
151.767160802117
 31
0.0
  0
LINE
  5
   7EA
  8
0
  6
CONTINUOUS
 62
     7
 10
57.356751344204
 20
147.392160876623
 30
0.0
 11
57.356751344204
 21
151.767160802117
 31
0.0
  0
LINE
  5
   7EB
  8
0
  6
CONTINUOUS
 62
     7
 10
56.0967513656617
 20
147.392160876623
 30
0.0
 11
56.0967513656617
 21
151.767160802117
 31
0.0
  0
LINE
  5
   7EC
  8
0
  6
CONTINUOUS
 62
     7
 10
54.8367513871194
 20
147.392160876623
 30
0.0
 11
54.8367513871194
 21
151.767160802117
 31
0.0
  0
LINE
  5
   7ED
  8
0
  6
CONTINUOUS
 62
     7
 10
53.576751408577
 20
147.392160876623
 30
0.0
 11
53.576751408577
 21
151.767160802117
 31
0.0
  0
LINE
  5
   7EE
  8
0
  6
CONTINUOUS
 62
     7
 10
52.3167514300347
 20
147.392160876623
 30
0.0
 11
52.3167514300347
 21
151.767160802117
 31
0.0
  0
LINE
  5
   7EF
  8
0
  6
CONTINUOUS
 62
     7
 10
51.0567514514924
 20
147.392160876623
 30
0.0
 11
51.0567514514924
 21
151.767160802117
 31
0.0
  0
LINE
  5
   7F0
  8
0
  6
CONTINUOUS
 62
     7
 10
50.4967372568528
 20
122.192161305777
 30
0.0
 11
50.1467372628132
 21
122.192161305777
 31
0.0
  0
LINE
  5
   7F1
  8
0
  6
CONTINUOUS
 62
     2
 10
98.7967506384753
 20
122.192161305777
 30
0.0
 11
98.7967506384753
 21
122.542161299816
 31
0.0
  0
LINE
  5
   7F2
  8
0
  6
CONTINUOUS
 62
     2
 10
99.1467506325148
 20
122.192161305777
 30
0.0
 11
98.7967506384753
 21
122.192161305777
 31
0.0
  0
LINE
  5
   7F3
  8
0
  6
CONTINUOUS
 62
     3
 10
50.1467881158363
 20
41.2546931199212
 30
0.0
 11
50.1467881158363
 21
50.2671638146812
 31
0.0
  0
LINE
  5
   7F4
  8
0
  6
CONTINUOUS
 62
     7
 10
85.0592875212799
 20
48.6921638415033
 30
0.0
 11
85.0592875212799
 21
49.7421961850675
 31
0.0
  0
LINE
  5
   7F5
  8
0
  6
DOT
 62
     7
 10
88.734287458695
 20
48.6921638415033
 30
0.0
 11
88.734287458695
 21
49.7421961850675
 31
0.0
  0
LINE
  5
   7F6
  8
0
  6
DOT
 62
     7
 10
75.5217876837026
 20
46.4171638802463
 30
0.0
 11
75.5217876837026
 21
47.0763853042862
 31
0.0
  0
LINE
  5
   7F7
  8
0
  6
DOT
 62
     7
 10
73.7717877135049
 20
46.4171638802463
 30
0.0
 11
73.7717877135049
 21
47.0763858148547
 31
0.0
  0
LINE
  5
   7F8
  8
0
  6
DOT
 62
     7
 10
75.5217876837026
 20
46.4171638802463
 30
0.0
 11
73.7717877135049
 21
46.4171638802463
 31
0.0
  0
LINE
  5
   7F9
  8
0
  6
DOT
 62
     7
 10
86.0217875048886
 20
46.4171638802463
 30
0.0
 11
86.0217875048886
 21
47.1093412595109
 31
0.0
  0
LINE
  5
   7FA
  8
0
  6
CONTINUOUS
 62
     7
 10
50.7592881054054
 20
49.7421638236219
 30
0.0
 11
50.7592881054054
 21
50.2671638146812
 31
0.0
  0
ARC
  5
   7FB
  8
0
  6
DOT
 62
     7
 10
68.5217878499996
 20
47.9921624265805
 30
0.0
 40
1.92499852271199
 50
359.999999948034
 51
425.382530583917
  0
CIRCLE
  5
   7FC
  8
0
  6
DOT
 62
     7
 10
74.6467883069568
 20
48.6921657158405
 30
0.0
 40
0.96249829047196
  0
ARC
  5
   7FD
  8
0
  6
DOT
 62
     7
 10
74.6467881700144
 20
48.6921699746867
 30
0.0
 40
1.83749401361082
 50
298.436973936778
 51
394.851030400612
  0
ARC
  5
   7FE
  8
0
  6
DOT
 62
     7
 10
80.7717877524187
 20
47.9921650249397
 30
0.0
 40
1.92499882604943
 50
359.999999948034
 51
425.382325221581
  0
ARC
  5
   7FF
  8
0
  6
DOT
 62
     7
 10
86.8967884405167
 20
48.6921691717905
 30
0.0
 40
1.83749475538989
 50
298.436944421718
 51
394.85104480168
  0
CIRCLE
  5
   800
  8
0
  6
DOT
 62
     7
 10
93.0217876548378
 20
47.9921648388688
 30
0.0
 40
1.92499899795655
  0
CIRCLE
  5
   801
  8
0
  6
DOT
 62
     7
 10
93.0217872262329
 20
43.0921647977772
 30
0.0
 40
0.48999910342635
  0
CIRCLE
  5
   802
  8
0
  6
DOT
 62
     7
 10
80.7717862648106
 20
43.0921643360515
 30
0.0
 40
0.489999750772785
  0
CIRCLE
  5
   803
  8
0
  6
DOT
 62
     7
 10
68.521787364104
 20
43.0921632280391
 30
0.0
 40
0.490000710339291
  0
LINE
  5
   804
  8
0
  6
DASHDOT
 62
     3
 10
68.5217878499996
 20
45.3671639157895
 30
0.0
 11
68.5217878499996
 21
50.6171609373716
 31
0.0
  0
LINE
  5
   805
  8
0
  6
DASHDOT
 62
     3
 10
71.1467863607907
 20
47.9921624265805
 30
0.0
 11
65.8967893392085
 21
47.9921624265805
 31
0.0
  0
LINE
  5
   806
  8
0
  6
DASHDOT
 62
     3
 10
74.6467881700144
 20
40.5761056164158
 30
0.0
 11
74.6467881700144
 21
56.477081708602
 31
0.0
  0
LINE
  5
   807
  8
0
  6
DASHDOT
 62
     3
 10
77.1842821717043
 20
48.6921699746867
 30
0.0
 11
72.1092941683245
 21
48.6921699746867
 31
0.0
  0
LINE
  5
   808
  8
0
  6
DASHDOT
 62
     3
 10
83.3967865665472
 20
47.9921650249397
 30
0.0
 11
78.1467889382902
 21
47.9921650249397
 31
0.0
  0
LINE
  5
   809
  8
0
  6
DASHDOT
 62
     3
 10
86.8967884405167
 20
41.5401327011273
 30
0.0
 11
86.8967884405167
 21
55.7527186524737
 31
0.0
  0
LINE
  5
   80A
  8
0
  6
DASHDOT
 62
     3
 10
89.4342831839857
 20
48.6921691717905
 30
0.0
 11
84.3592936970477
 21
48.6921691717905
 31
0.0
  0
LINE
  5
   80B
  8
0
  6
DASHDOT
 62
     3
 10
93.0217876548378
 20
45.3671658528332
 30
0.0
 11
93.0217876548378
 21
50.6171638249044
 31
0.0
  0
LINE
  5
   80C
  8
0
  6
DASHDOT
 62
     3
 10
95.6467866408734
 20
47.9921648388688
 30
0.0
 11
90.3967886688022
 21
47.9921648388688
 31
0.0
  0
LINE
  5
   80D
  8
0
  6
DASHDOT
 62
     3
 10
93.0217872262329
 20
41.9021657062717
 30
0.0
 11
93.0217872262329
 21
44.2821638892826
 31
0.0
  0
LINE
  5
   80E
  8
0
  6
DASHDOT
 62
     3
 10
94.2117863177383
 20
43.0921647977772
 30
0.0
 11
91.8317881347275
 21
43.0921647977772
 31
0.0
  0
LINE
  5
   80F
  8
0
  6
DASHDOT
 62
     3
 10
81.9617860036625
 20
43.0921643360515
 30
0.0
 11
79.5817865259588
 21
43.0921643360515
 31
0.0
  0
LINE
  5
   810
  8
0
  6
DASHDOT
 62
     3
 10
68.521787364104
 20
41.9021625296207
 30
0.0
 11
68.521787364104
 21
44.2821639264575
 31
0.0
  0
LINE
  5
   811
  8
0
  6
DASHDOT
 62
     3
 10
69.7117880625224
 20
43.0921632280391
 30
0.0
 11
67.3317866656857
 21
43.0921632280391
 31
0.0
  0
LINE
  5
   812
  8
0
  6
CONTINUOUS
 62
     3
 10
99.1467872813712
 20
42.6721650121385
 30
0.0
 11
99.1467872813712
 21
50.2671638146812
 31
0.0
  0
LINE
  5
   813
  8
0
  6
CONTINUOUS
 62
     7
 10
52.4217880770932
 20
49.7421638236219
 30
0.0
 11
50.7592881054054
 21
49.7421638236219
 31
0.0
  0
LINE
  5
   814
  8
0
  6
DOT
 62
     7
 10
72.8092877298962
 20
48.6921638415033
 30
0.0
 11
72.8092877298962
 21
49.7421961850675
 31
0.0
  0
LINE
  5
   815
  8
0
  6
DOT
 62
     7
 10
76.4842876673113
 20
48.6921638415033
 30
0.0
 11
76.4842876673113
 21
49.7421961850675
 31
0.0
  0
LINE
  5
   816
  8
0
  6
DOT
 62
     7
 10
87.7717874750863
 20
46.4171638802463
 30
0.0
 11
87.7717874750863
 21
47.0763833983702
 31
0.0
  0
LINE
  5
   817
  8
0
  6
DOT
 62
     7
 10
87.7717874750863
 20
46.4171638802463
 30
0.0
 11
86.0217875048886
 21
46.4171638802463
 31
0.0
  0
LINE
  5
   818
  8
0
  6
CONTINUOUS
 62
     7
 10
67.2967878237735
 20
50.0921638176615
 30
0.0
 11
67.2967878237735
 21
50.2671638146812
 31
0.0
  0
LINE
  5
   819
  8
0
  6
CONTINUOUS
 62
     7
 10
52.4217880770932
 20
49.7421638236219
 30
0.0
 11
52.4217880770932
 21
50.2671638146812
 31
0.0
  0
CIRCLE
  5
   81A
  8
0
  6
DOT
 62
     7
 10
86.8967887111366
 20
48.6921649535114
 30
0.0
 40
0.962498950668041
  0
LINE
  5
   81B
  8
0
  6
DASHDOT
 62
     3
 10
77.1842821717043
 20
48.6921699746867
 30
0.0
 11
72.1092941683245
 21
48.6921699746867
 31
0.0
  0
LINE
  5
   81C
  8
0
  6
DASHDOT
 62
     3
 10
83.3967865665472
 20
47.9921650249397
 30
0.0
 11
78.1467889382902
 21
47.9921650249397
 31
0.0
  0
LINE
  5
   81D
  8
0
  6
DASHDOT
 62
     3
 10
86.8967884405167
 20
41.5401327011273
 30
0.0
 11
86.8967884405167
 21
56.3172446995076
 31
0.0
  0
LINE
  5
   81E
  8
0
  6
DASHDOT
 62
     3
 10
89.4342831839857
 20
48.6921691717905
 30
0.0
 11
84.3592936970477
 21
48.6921691717905
 31
0.0
  0
ARC
  5
   81F
  8
0
  6
DOT
 62
     7
 10
74.6467881700144
 20
48.6921699746867
 30
0.0
 40
1.83749401361082
 50
121.002781363519
 51
145.148969495457
  0
ARC
  5
   820
  8
0
  6
DOT
 62
     7
 10
86.8967884405167
 20
48.6921691717905
 30
0.0
 40
1.83749475538989
 50
121.002771248608
 51
145.148955094388
  0
CIRCLE
  5
   821
  8
0
  6
DOT
 62
     7
 10
56.2717875727203
 20
43.0921632280391
 30
0.0
 40
0.490000710339291
  0
CIRCLE
  5
   822
  8
0
  6
DOT
 62
     7
 10
56.2717880586158
 20
47.9921624265805
 30
0.0
 40
1.92499852271199
  0
LINE
  5
   823
  8
0
  6
DOT
 62
     7
 10
60.5592879385124
 20
48.6921638415033
 30
0.0
 11
60.5592879385124
 21
49.7421961850675
 31
0.0
  0
ARC
  5
   824
  8
0
  6
DOT
 62
     7
 10
62.3967883786306
 20
48.6921699746867
 30
0.0
 40
1.83749401361082
 50
121.002781363519
 51
145.148969495457
  0
CIRCLE
  5
   825
  8
0
  6
DOT
 62
     7
 10
62.3967885155731
 20
48.6921657158405
 30
0.0
 40
0.96249829047196
  0
LINE
  5
   826
  8
0
  6
DOT
 62
     7
 10
63.2717878923188
 20
46.4171638802463
 30
0.0
 11
61.5217879221212
 21
46.4171638802463
 31
0.0
  0
LINE
  5
   827
  8
0
  6
DOT
 62
     7
 10
63.2717878923188
 20
46.4171638802463
 30
0.0
 11
63.2717878923188
 21
47.0763853042862
 31
0.0
  0
LINE
  5
   828
  8
0
  6
CONTINUOUS
 62
     7
 10
61.5217879221212
 20
46.4171638802463
 30
0.0
 11
61.5217879221212
 21
47.0763858148547
 31
0.0
  0
LINE
  5
   829
  8
0
  6
DOT
 62
     7
 10
64.2342878759275
 20
48.6921638415033
 30
0.0
 11
64.2342878759275
 21
49.7421961850675
 31
0.0
  0
ARC
  5
   82A
  8
0
  6
DOT
 62
     7
 10
62.3967883786306
 20
48.6921699746867
 30
0.0
 40
1.83749401361082
 50
298.436973936778
 51
394.851030400612
  0
LINE
  5
   82B
  8
0
  6
DOT
 62
     7
 10
60.5592879385124
 20
50.0921638176615
 30
0.0
 11
57.1950369425837
 21
50.0921638176615
 31
0.0
  0
LINE
  5
   82C
  8
0
  6
CONTINUOUS
 62
     7
 10
55.0467880323897
 20
50.0921638176615
 30
0.0
 11
55.0467880323897
 21
50.2671638146812
 31
0.0
  0
LINE
  5
   82D
  8
0
  6
DASHDOT
 62
     7
 10
56.2717880586158
 20
42.5671639634732
 30
0.0
 11
56.2717880586158
 21
53.4171608896879
 31
0.0
  0
LINE
  5
   82E
  8
0
  6
DASHDOT
 62
     7
 10
61.6967865217232
 20
47.9921624265805
 30
0.0
 11
50.8467895955085
 21
47.9921624265805
 31
0.0
  0
LINE
  5
   82F
  8
0
  6
DASHDOT
 62
     7
 10
62.3967885155731
 20
44.2296674849732
 30
0.0
 11
62.3967885155731
 21
53.1546639467078
 31
0.0
  0
LINE
  5
   830
  8
0
  6
DASHDOT
 62
     7
 10
66.8592867464404
 20
48.6921657158405
 30
0.0
 11
57.9342902847058
 21
48.6921657158405
 31
0.0
  0
LINE
  5
   831
  8
0
  6
DASHDOT
 62
     7
 10
56.2717875727203
 20
39.1021625773045
 30
0.0
 11
56.2717875727203
 21
47.0821638787737
 31
0.0
  0
LINE
  5
   832
  8
0
  6
DASHDOT
 62
     7
 10
60.2617882234549
 20
43.0921632280391
 30
0.0
 11
52.2817869219856
 21
43.0921632280391
 31
0.0
  0
LINE
  5
   833
  8
0
  6
CONTINUOUS
 62
     3
 10
50.1467827752602
 20
151.767151962555
 30
0.0
 11
50.1467827752602
 21
160.779691084423
 31
0.0
  0
LINE
  5
   834
  8
0
  6
CONTINUOUS
 62
     3
 10
98.7092443571437
 20
161.217191076972
 30
0.0
 11
50.5842827678096
 21
161.217191076972
 31
0.0
  0
LINE
  5
   835
  8
0
  6
CONTINUOUS
 62
     3
 10
99.1467632068795
 20
151.767160802117
 30
0.0
 11
99.1467632068795
 21
160.779691084428
 31
0.0
  0
LINE
  5
   836
  8
0
  6
CONTINUOUS
 62
     3
 10
99.0186044884111
 20
161.089051609265
 30
0.0
 11
98.7092462763558
 21
161.217193394048
 31
0.0
  0
LINE
  5
   837
  8
0
  6
CONTINUOUS
 62
     3
 10
99.1467452134025
 20
160.779695130762
 30
0.0
 11
99.0186034286196
 21
161.089053342817
 31
0.0
  0
LINE
  5
   838
  8
0
  6
CONTINUOUS
 62
     3
 10
97.6942465106595
 20
152.292191228964
 30
0.0
 11
97.6942465106595
 21
161.10846228854
 31
0.0
  0
LINE
  5
   839
  8
0
  6
CONTINUOUS
 62
     3
 10
96.4342443958867
 20
152.292191228964
 30
0.0
 11
96.4342443958867
 21
161.10846228854
 31
0.0
  0
LINE
  5
   83A
  8
0
  6
CONTINUOUS
 62
     3
 10
95.174244951402
 20
152.292191228964
 30
0.0
 11
95.174244951402
 21
161.10846228854
 31
0.0
  0
LINE
  5
   83B
  8
0
  6
CONTINUOUS
 62
     3
 10
93.9142455069173
 20
152.292191228964
 30
0.0
 11
93.9142455069173
 21
161.10846228854
 31
0.0
  0
LINE
  5
   83C
  8
0
  6
CONTINUOUS
 62
     3
 10
92.6542460624326
 20
152.292191228964
 30
0.0
 11
92.6542460624326
 21
161.10846228854
 31
0.0
  0
LINE
  5
   83D
  8
0
  6
CONTINUOUS
 62
     3
 10
91.3942466179478
 20
152.292191228964
 30
0.0
 11
91.3942466179478
 21
161.10846228854
 31
0.0
  0
LINE
  5
   83E
  8
0
  6
CONTINUOUS
 62
     3
 10
90.1342445031751
 20
152.292191228964
 30
0.0
 11
90.1342445031751
 21
161.10846228854
 31
0.0
  0
LINE
  5
   83F
  8
0
  6
CONTINUOUS
 62
     3
 10
88.8742450586903
 20
152.292191228964
 30
0.0
 11
88.8742450586903
 21
161.10846228854
 31
0.0
  0
LINE
  5
   840
  8
0
  6
CONTINUOUS
 62
     3
 10
87.6142456142056
 20
152.292191228964
 30
0.0
 11
87.6142456142056
 21
161.10846228854
 31
0.0
  0
LINE
  5
   841
  8
0
  6
CONTINUOUS
 62
     3
 10
86.3542461697209
 20
152.292191228964
 30
0.0
 11
86.3542461697209
 21
161.10846228854
 31
0.0
  0
LINE
  5
   842
  8
0
  6
CONTINUOUS
 62
     3
 10
85.0942467252362
 20
152.292191228964
 30
0.0
 11
85.0942467252362
 21
161.10846228854
 31
0.0
  0
LINE
  5
   843
  8
0
  6
CONTINUOUS
 62
     3
 10
83.8342459456075
 20
152.292191228964
 30
0.0
 11
83.8342459456075
 21
161.10846228854
 31
0.0
  0
LINE
  5
   844
  8
0
  6
CONTINUOUS
 62
     3
 10
82.5742465011227
 20
152.292191228964
 30
0.0
 11
82.5742465011227
 21
161.10846228854
 31
0.0
  0
LINE
  5
   845
  8
0
  6
CONTINUOUS
 62
     3
 10
81.314245721494
 20
152.292191228964
 30
0.0
 11
81.314245721494
 21
161.10846228854
 31
0.0
  0
LINE
  5
   846
  8
0
  6
CONTINUOUS
 62
     3
 10
80.0542462770093
 20
152.292191228964
 30
0.0
 11
80.0542462770093
 21
161.10846228854
 31
0.0
  0
LINE
  5
   847
  8
0
  6
CONTINUOUS
 62
     3
 10
78.7942454973805
 20
152.292191228964
 30
0.0
 11
78.7942454973805
 21
161.10846228854
 31
0.0
  0
LINE
  5
   848
  8
0
  6
CONTINUOUS
 62
     3
 10
77.5342460528958
 20
152.292191228964
 30
0.0
 11
77.5342460528958
 21
161.10846228854
 31
0.0
  0
LINE
  5
   849
  8
0
  6
CONTINUOUS
 62
     3
 10
69.9042464498627
 20
152.292191228964
 30
0.0
 11
69.9042464498627
 21
161.10846228854
 31
0.0
  0
LINE
  5
   84A
  8
0
  6
CONTINUOUS
 62
     3
 10
62.2742468468297
 20
152.292191228964
 30
0.0
 11
62.2742468468297
 21
161.217191076972
 31
0.0
  0
LINE
  5
   84B
  8
0
  6
CONTINUOUS
 62
     3
 10
61.0142460672009
 20
152.292191228964
 30
0.0
 11
61.0142460672009
 21
161.217191076972
 31
0.0
  0
LINE
  5
   84C
  8
0
  6
CONTINUOUS
 62
     3
 10
59.7542466227162
 20
152.292191228964
 30
0.0
 11
59.7542466227162
 21
161.217191076972
 31
0.0
  0
LINE
  5
   84D
  8
0
  6
CONTINUOUS
 62
     3
 10
58.4942465106595
 20
152.292191228964
 30
0.0
 11
58.4942465106595
 21
161.217191076972
 31
0.0
  0
LINE
  5
   84E
  8
0
  6
CONTINUOUS
 62
     3
 10
98.7967496962297
 20
151.767160802117
 30
0.0
 11
98.7967496962297
 21
152.29219656954
 31
0.0
  0
LINE
  5
   84F
  8
0
  6
CONTINUOUS
 62
     3
 10
99.1467470294116
 20
152.292191234953
 30
0.0
 11
98.7967497056398
 21
152.29219657553
 31
0.0
  0
LINE
  5
   850
  8
0
  6
CONTINUOUS
 62
     3
 10
98.7967496962305
 20
152.292188019276
 30
0.0
 11
50.4967827692997
 21
152.292188019276
 31
0.0
  0
LINE
  5
   851
  8
0
  6
CONTINUOUS
 62
     3
 10
71.1642458943475
 20
152.292191228964
 30
0.0
 11
71.1642458943475
 21
161.10846228854
 31
0.0
  0
LINE
  5
   852
  8
0
  6
CONTINUOUS
 62
     3
 10
72.4242466739762
 20
152.292191228964
 30
0.0
 11
72.4242466739762
 21
161.10846228854
 31
0.0
  0
LINE
  5
   853
  8
0
  6
CONTINUOUS
 62
     3
 10
73.6842461184609
 20
152.292191228964
 30
0.0
 11
73.6842461184609
 21
161.10846228854
 31
0.0
  0
LINE
  5
   854
  8
0
  6
CONTINUOUS
 62
     3
 10
74.9442460970033
 20
152.292191228964
 30
0.0
 11
74.9442460970033
 21
161.10846228854
 31
0.0
  0
LINE
  5
   855
  8
0
  6
CONTINUOUS
 62
     3
 10
76.2042460755456
 20
152.292191228964
 30
0.0
 11
76.2042460755456
 21
161.10846228854
 31
0.0
  0
LINE
  5
   856
  8
0
  6
CONTINUOUS
 62
     3
 10
68.6442464713204
 20
152.292191228964
 30
0.0
 11
68.6442464713204
 21
161.10846228854
 31
0.0
  0
LINE
  5
   857
  8
0
  6
CONTINUOUS
 62
     3
 10
67.3842464927781
 20
152.292191228964
 30
0.0
 11
67.3842464927781
 21
161.10846228854
 31
0.0
  0
LINE
  5
   858
  8
0
  6
CONTINUOUS
 62
     3
 10
66.1242465142358
 20
152.292191228964
 30
0.0
 11
66.1242465142358
 21
161.10846228854
 31
0.0
  0
LINE
  5
   859
  8
0
  6
CONTINUOUS
 62
     3
 10
64.8642465356934
 20
152.292191228964
 30
0.0
 11
64.8642465356934
 21
161.10846228854
 31
0.0
  0
LINE
  5
   85A
  8
0
  6
CONTINUOUS
 62
     3
 10
63.6042465571511
 20
152.292191228964
 30
0.0
 11
63.6042465571511
 21
161.217191076972
 31
0.0
  0
LINE
  5
   85B
  8
0
  6
CONTINUOUS
 62
     3
 10
98.7092443571437
 20
40.8171931273718
 30
0.0
 11
50.5842881083857
 21
40.8171931273718
 31
0.0
  0
LINE
  5
   85C
  8
0
  6
CONTINUOUS
 62
     3
 10
98.7092462763558
 20
40.8171908102962
 30
0.0
 11
99.0186044884111
 21
40.9453325950791
 31
0.0
  0
LINE
  5
   85D
  8
0
  6
CONTINUOUS
 62
     3
 10
99.0186034286196
 20
40.9453308615264
 30
0.0
 11
99.1467452134025
 21
41.2546890735817
 31
0.0
  0
LINE
  5
   85E
  8
0
  6
CONTINUOUS
 62
     3
 10
99.1467632068795
 20
41.2546931199161
 30
0.0
 11
99.1467632068795
 21
49.7421929753749
 31
0.0
  0
LINE
  5
   85F
  8
0
  6
CONTINUOUS
 62
     3
 10
98.7967497056444
 20
49.7421876288143
 30
0.0
 11
99.1467470294162
 21
49.7421929693904
 31
0.0
  0
LINE
  5
   860
  8
0
  6
CONTINUOUS
 62
     3
 10
98.7967496962297
 20
49.7421876348039
 30
0.0
 11
98.7967496962297
 21
50.2672234022263
 31
0.0
  0
LINE
  5
   861
  8
0
  6
CONTINUOUS
 62
     3
 10
58.4942465106595
 20
40.8171931273718
 30
0.0
 11
58.4942465106595
 21
49.74219297538
 31
0.0
  0
LINE
  5
   862
  8
0
  6
CONTINUOUS
 62
     3
 10
59.7542466227162
 20
40.8171931273718
 30
0.0
 11
59.7542466227162
 21
49.74219297538
 31
0.0
  0
LINE
  5
   863
  8
0
  6
CONTINUOUS
 62
     3
 10
61.0142460672009
 20
40.8171931273718
 30
0.0
 11
61.0142460672009
 21
49.74219297538
 31
0.0
  0
LINE
  5
   864
  8
0
  6
CONTINUOUS
 62
     3
 10
62.2742468468297
 20
40.8171931273718
 30
0.0
 11
62.2742468468297
 21
49.74219297538
 31
0.0
  0
LINE
  5
   865
  8
0
  6
CONTINUOUS
 62
     3
 10
63.6042465571511
 20
40.8171931273718
 30
0.0
 11
63.6042465571511
 21
49.74219297538
 31
0.0
  0
LINE
  5
   866
  8
0
  6
CONTINUOUS
 62
     3
 10
64.8642465356934
 20
40.9259219158034
 30
0.0
 11
64.8642465356934
 21
49.74219297538
 31
0.0
  0
LINE
  5
   867
  8
0
  6
CONTINUOUS
 62
     3
 10
66.1242465142358
 20
40.9259219158034
 30
0.0
 11
66.1242465142358
 21
49.74219297538
 31
0.0
  0
LINE
  5
   868
  8
0
  6
CONTINUOUS
 62
     3
 10
67.3842464927781
 20
40.9259219158034
 30
0.0
 11
67.3842464927781
 21
49.74219297538
 31
0.0
  0
LINE
  5
   869
  8
0
  6
CONTINUOUS
 62
     3
 10
68.6442464713204
 20
40.9259219158034
 30
0.0
 11
68.6442464713204
 21
49.74219297538
 31
0.0
  0
LINE
  5
   86A
  8
0
  6
CONTINUOUS
 62
     3
 10
69.9042464498627
 20
40.9259219158034
 30
0.0
 11
69.9042464498627
 21
49.74219297538
 31
0.0
  0
LINE
  5
   86B
  8
0
  6
CONTINUOUS
 62
     3
 10
71.1642458943475
 20
40.9259219158034
 30
0.0
 11
71.1642458943475
 21
49.74219297538
 31
0.0
  0
LINE
  5
   86C
  8
0
  6
CONTINUOUS
 62
     3
 10
72.4242466739762
 20
40.9259219158034
 30
0.0
 11
72.4242466739762
 21
49.74219297538
 31
0.0
  0
LINE
  5
   86D
  8
0
  6
CONTINUOUS
 62
     3
 10
73.6842461184609
 20
40.9259219158034
 30
0.0
 11
73.6842461184609
 21
49.74219297538
 31
0.0
  0
LINE
  5
   86E
  8
0
  6
CONTINUOUS
 62
     3
 10
74.9442460970033
 20
40.9259219158034
 30
0.0
 11
74.9442460970033
 21
49.74219297538
 31
0.0
  0
LINE
  5
   86F
  8
0
  6
CONTINUOUS
 62
     3
 10
76.2042460755456
 20
40.9259219158034
 30
0.0
 11
76.2042460755456
 21
49.74219297538
 31
0.0
  0
LINE
  5
   870
  8
0
  6
CONTINUOUS
 62
     3
 10
77.5342460528958
 20
40.9259219158034
 30
0.0
 11
77.5342460528958
 21
49.74219297538
 31
0.0
  0
LINE
  5
   871
  8
0
  6
CONTINUOUS
 62
     3
 10
78.7942454973805
 20
40.9259219158034
 30
0.0
 11
78.7942454973805
 21
49.74219297538
 31
0.0
  0
LINE
  5
   872
  8
0
  6
CONTINUOUS
 62
     3
 10
80.0542462770093
 20
40.9259219158034
 30
0.0
 11
80.0542462770093
 21
49.74219297538
 31
0.0
  0
LINE
  5
   873
  8
0
  6
CONTINUOUS
 62
     3
 10
81.314245721494
 20
40.9259219158034
 30
0.0
 11
81.314245721494
 21
49.74219297538
 31
0.0
  0
LINE
  5
   874
  8
0
  6
CONTINUOUS
 62
     3
 10
82.5742465011227
 20
40.9259219158034
 30
0.0
 11
82.5742465011227
 21
49.74219297538
 31
0.0
  0
LINE
  5
   875
  8
0
  6
CONTINUOUS
 62
     3
 10
83.8342459456075
 20
40.9259219158034
 30
0.0
 11
83.8342459456075
 21
49.74219297538
 31
0.0
  0
LINE
  5
   876
  8
0
  6
CONTINUOUS
 62
     3
 10
85.0942467252362
 20
40.9259219158034
 30
0.0
 11
85.0942467252362
 21
49.74219297538
 31
0.0
  0
LINE
  5
   877
  8
0
  6
CONTINUOUS
 62
     3
 10
86.3542461697209
 20
40.9259219158034
 30
0.0
 11
86.3542461697209
 21
49.74219297538
 31
0.0
  0
LINE
  5
   878
  8
0
  6
CONTINUOUS
 62
     3
 10
87.6142456142056
 20
40.9259219158034
 30
0.0
 11
87.6142456142056
 21
49.74219297538
 31
0.0
  0
LINE
  5
   879
  8
0
  6
CONTINUOUS
 62
     3
 10
88.8742450586903
 20
40.9259219158034
 30
0.0
 11
88.8742450586903
 21
49.74219297538
 31
0.0
  0
LINE
  5
   87A
  8
0
  6
CONTINUOUS
 62
     3
 10
90.1342445031751
 20
40.9259219158034
 30
0.0
 11
90.1342445031751
 21
49.74219297538
 31
0.0
  0
LINE
  5
   87B
  8
0
  6
CONTINUOUS
 62
     3
 10
91.3942466179478
 20
40.9259219158034
 30
0.0
 11
91.3942466179478
 21
49.74219297538
 31
0.0
  0
LINE
  5
   87C
  8
0
  6
CONTINUOUS
 62
     3
 10
92.6542460624326
 20
40.9259219158034
 30
0.0
 11
92.6542460624326
 21
49.74219297538
 31
0.0
  0
LINE
  5
   87D
  8
0
  6
CONTINUOUS
 62
     3
 10
93.9142455069173
 20
40.9259219158034
 30
0.0
 11
93.9142455069173
 21
49.74219297538
 31
0.0
  0
LINE
  5
   87E
  8
0
  6
CONTINUOUS
 62
     3
 10
95.174244951402
 20
40.9259219158034
 30
0.0
 11
95.174244951402
 21
49.74219297538
 31
0.0
  0
LINE
  5
   87F
  8
0
  6
CONTINUOUS
 62
     3
 10
96.4342443958867
 20
40.9259219158034
 30
0.0
 11
96.4342443958867
 21
49.74219297538
 31
0.0
  0
LINE
  5
   880
  8
0
  6
CONTINUOUS
 62
     3
 10
97.6942465106595
 20
40.9259219158034
 30
0.0
 11
97.6942465106595
 21
49.74219297538
 31
0.0
  0
LINE
  5
   881
  8
0
  6
CONTINUOUS
 62
     3
 10
98.7967496962305
 20
49.7421961850675
 30
0.0
 11
50.1467881158363
 21
49.7421961850675
 31
0.0
  0
LINE
  5
   882
  8
0
  6
DOT
 62
     7
 10
60.5592879385124
 20
49.7421961850675
 30
0.0
 11
60.5592879385124
 21
50.0921638176615
 31
0.0
  0
ARC
  5
   883
  8
0
  6
DOT
 62
     7
 10
62.3967883786306
 20
48.6921699746867
 30
0.0
 40
1.83749401361082
 50
145.148969495457
 51
241.56299252681
  0
ARC
  5
   884
  8
0
  6
DOT
 62
     7
 10
62.3967883786306
 20
48.6921699746867
 30
0.0
 40
1.83749401361082
 50
394.851030400612
 51
418.997218532549
  0
LINE
  5
   885
  8
0
  6
DOT
 62
     7
 10
64.2342878759275
 20
49.7421961850675
 30
0.0
 11
64.2342878759275
 21
50.0921638176615
 31
0.0
  0
ARC
  5
   886
  8
0
  6
DOT
 62
     7
 10
68.5217878499996
 20
47.9921624265805
 30
0.0
 40
1.92499852271199
 50
425.382530583917
 51
474.617469312152
  0
ARC
  5
   887
  8
0
  6
DOT
 62
     7
 10
68.5217878499996
 20
47.9921624265805
 30
0.0
 40
1.92499852271199
 50
114.617469312152
 51
359.999999948034
  0
LINE
  5
   888
  8
0
  6
DOT
 62
     7
 10
72.8092877298962
 20
49.7421961850675
 30
0.0
 11
72.8092877298962
 21
50.0921638176615
 31
0.0
  0
LINE
  5
   889
  8
0
  6
DOT
 62
     7
 10
76.4842876673113
 20
49.7421961850675
 30
0.0
 11
76.4842876673113
 21
50.0921638176615
 31
0.0
  0
ARC
  5
   88A
  8
0
  6
CONTINUOUS
 62
     7
 10
74.6467881700144
 20
48.6921699746867
 30
0.0
 40
1.83749401361082
 50
394.851030400612
 51
418.997218532549
  0
ARC
  5
   88B
  8
0
  6
DOT
 62
     7
 10
74.6467881700144
 20
48.6921699746867
 30
0.0
 40
1.83749401361082
 50
145.148969495457
 51
241.56299252681
  0
ARC
  5
   88C
  8
0
  6
DOT
 62
     7
 10
80.7717877524187
 20
47.9921650249397
 30
0.0
 40
1.92499882604943
 50
425.382325221581
 51
474.617674674487
  0
ARC
  5
   88D
  8
0
  6
DOT
 62
     7
 10
80.7717877524187
 20
47.9921650249397
 30
0.0
 40
1.92499882604943
 50
114.617674674488
 51
359.999999948034
  0
LINE
  5
   88E
  8
0
  6
CONTINUOUS
 62
     7
 10
85.0592875212799
 20
49.7421961850675
 30
0.0
 11
85.0592875212799
 21
50.0921638176615
 31
0.0
  0
ARC
  5
   88F
  8
0
  6
DOT
 62
     7
 10
86.8967884405167
 20
48.6921691717905
 30
0.0
 40
1.83749475538989
 50
145.148955094388
 51
241.562988062779
  0
ARC
  5
   890
  8
0
  6
DOT
 62
     7
 10
86.8967884405167
 20
48.6921691717905
 30
0.0
 40
1.83749475538989
 50
394.85104480168
 51
418.99722864746
  0
LINE
  5
   891
  8
0
  6
DOT
 62
     7
 10
88.734287458695
 20
49.7421961850675
 30
0.0
 11
88.734287458695
 21
50.0921638176615
 31
0.0
  0
LINE
  5
   892
  8
0
  6
CONTINUOUS
 62
     7
 10
57.1950369425837
 20
50.0921638176615
 30
0.0
 11
52.4217880770932
 21
50.0921638176615
 31
0.0
  0
ARC
  5
   893
  8
0
  6
CONTINUOUS
 62
     3
 10
50.5842827678096
 20
160.779691084423
 30
0.0
 40
0.437499992549419
 50
89.9999999480344
 51
179.999999948034
  0
LINE
  5
   894
  8
0
  6
CONTINUOUS
 62
     3
 10
50.4967827692997
 20
151.767151962555
 30
0.0
 11
50.4967827692997
 21
152.292188019276
 31
0.0
  0
LINE
  5
   895
  8
0
  6
CONTINUOUS
 62
     3
 10
50.4967827692997
 20
152.292188019276
 30
0.0
 11
50.1467827752602
 21
152.292188019276
 31
0.0
  0
LINE
  5
   896
  8
0
  6
CONTINUOUS
 62
     3
 10
57.2342463986028
 20
152.292191228964
 30
0.0
 11
57.2342463986028
 21
161.217191076972
 31
0.0
  0
LINE
  5
   897
  8
0
  6
CONTINUOUS
 62
     3
 10
55.974246286546
 20
152.292191228964
 30
0.0
 11
55.974246286546
 21
161.217191076972
 31
0.0
  0
LINE
  5
   898
  8
0
  6
CONTINUOUS
 62
     3
 10
54.7142461744893
 20
152.292191228964
 30
0.0
 11
54.7142461744893
 21
161.217191076972
 31
0.0
  0
LINE
  5
   899
  8
0
  6
CONTINUOUS
 62
     3
 10
53.4542460624326
 20
152.292191228964
 30
0.0
 11
53.4542460624326
 21
161.217191076972
 31
0.0
  0
LINE
  5
   89A
  8
0
  6
CONTINUOUS
 62
     3
 10
52.1942459503758
 20
152.292191228964
 30
0.0
 11
52.1942459503758
 21
161.217191076972
 31
0.0
  0
LINE
  5
   89B
  8
0
  6
CONTINUOUS
 62
     3
 10
50.9342458383191
 20
152.292191228964
 30
0.0
 11
50.9342458383191
 21
161.217191076972
 31
0.0
  0
ARC
  5
   89C
  8
0
  6
CONTINUOUS
 62
     3
 10
50.5842881083857
 20
41.2546931199212
 30
0.0
 40
0.437499992549419
 50
179.999999948034
 51
269.999999948034
  0
LINE
  5
   89D
  8
0
  6
CONTINUOUS
 62
     3
 10
57.2342463986028
 20
40.8171931273718
 30
0.0
 11
57.2342463986028
 21
49.74219297538
 31
0.0
  0
LINE
  5
   89E
  8
0
  6
CONTINUOUS
 62
     3
 10
55.974246286546
 20
40.8171931273718
 30
0.0
 11
55.974246286546
 21
49.74219297538
 31
0.0
  0
LINE
  5
   89F
  8
0
  6
CONTINUOUS
 62
     3
 10
54.7142461744893
 20
40.8171931273718
 30
0.0
 11
54.7142461744893
 21
49.74219297538
 31
0.0
  0
LINE
  5
   8A0
  8
0
  6
CONTINUOUS
 62
     3
 10
53.4542460624326
 20
40.8171931273718
 30
0.0
 11
53.4542460624326
 21
49.74219297538
 31
0.0
  0
LINE
  5
   8A1
  8
0
  6
CONTINUOUS
 62
     3
 10
52.1942459503758
 20
40.8171931273718
 30
0.0
 11
52.1942459503758
 21
49.74219297538
 31
0.0
  0
LINE
  5
   8A2
  8
0
  6
CONTINUOUS
 62
     3
 10
50.9342458383191
 20
40.8171931273718
 30
0.0
 11
50.9342458383191
 21
49.74219297538
 31
0.0
  0
CIRCLE
  5
   8A3
  8
0
  6
CONTINUOUS
 62
     7
 10
86.8967887111366
 20
123.592163677972
 30
0.0
 40
0.962498950668041
  0
ARC
  5
   8A4
  8
0
  6
CONTINUOUS
 62
     7
 10
86.8967884405167
 20
123.592167896251
 30
0.0
 40
1.83749475538989
 50
89.9999999480344
 51
148.997551329563
  0
ARC
  5
   8A5
  8
0
  6
CONTINUOUS
 62
     7
 10
62.3967883786306
 20
123.592168699147
 30
0.0
 40
1.83749401361082
 50
89.9999999480344
 51
148.997589820257
  0
CIRCLE
  5
   8A6
  8
0
  6
CONTINUOUS
 62
     7
 10
62.3967885155731
 20
123.592164440301
 30
0.0
 40
0.96249829047196
  0
LINE
  5
   8A7
  8
0
  6
DASHDOT
 62
     7
 10
65.2842823743601
 20
123.592168699147
 30
0.0
 11
59.5092943829012
 21
123.592168699147
 31
0.0
  0
LINE
  5
   8A8
  8
0
  6
DASHDOT
 62
     7
 10
86.8967884405167
 20
120.704673158743
 30
0.0
 11
86.8967884405167
 21
126.47966263376
 31
0.0
  0
LINE
  5
   8A9
  8
0
  6
DASHDOT
 62
     7
 10
89.7842831780252
 20
123.592167896251
 30
0.0
 11
84.0092937030082
 21
123.592167896251
 31
0.0
  0
LINE
  5
   8AA
  8
0
  6
CONTINUOUS
 62
     2
 10
88.4717884136946
 20
122.192161305777
 30
0.0
 11
88.4717884136946
 21
125.167161255113
 31
0.0
  0
LINE
  5
   8AB
  8
0
  6
CONTINUOUS
 62
     2
 10
85.3217884673388
 20
122.192161305777
 30
0.0
 11
85.3217884673388
 21
125.167161255113
 31
0.0
  0
ARC
  5
   8AC
  8
0
  6
CONTINUOUS
 62
     2
 10
86.8967884405167
 20
125.167161255113
 30
0.0
 40
1.57499997317791
 50
359.999999948034
 51
539.999999948034
  0
LINE
  5
   8AD
  8
0
  6
CONTINUOUS
 62
     2
 10
85.3217884673388
 20
122.542161299816
 30
0.0
 11
63.9717883518085
 21
122.542161299816
 31
0.0
  0
ARC
  5
   8AE
  8
0
  6
CONTINUOUS
 62
     7
 10
86.8967884405167
 20
123.592167896251
 30
0.0
 40
1.83749475538989
 50
391.002448566506
 51
449.999999948034
  0
ARC
  5
   8AF
  8
0
  6
CONTINUOUS
 62
     7
 10
86.8967884405167
 20
123.592167896251
 30
0.0
 40
1.83749475538989
 50
211.002448566506
 51
229.632916062271
  0
ARC
  5
   8B0
  8
0
  6
CONTINUOUS
 62
     7
 10
86.8967884405167
 20
123.592167896251
 30
0.0
 40
1.83749475538989
 50
310.367083833798
 51
328.997551329563
  0
ARC
  5
   8B1
  8
0
  6
CONTINUOUS
 62
     2
 10
62.3967883786306
 20
125.167161255113
 30
0.0
 40
1.57499997317791
 50
359.999999948034
 51
539.999999948034
  0
LINE
  5
   8B2
  8
0
  6
CONTINUOUS
 62
     2
 10
60.8217884054527
 20
122.192161305777
 30
0.0
 11
60.8217884054527
 21
125.167161255113
 31
0.0
  0
LINE
  5
   8B3
  8
0
  6
CONTINUOUS
 62
     2
 10
63.9717883518085
 20
122.192161305777
 30
0.0
 11
63.9717883518085
 21
125.167161255113
 31
0.0
  0
ARC
  5
   8B4
  8
0
  6
CONTINUOUS
 62
     7
 10
62.3967883786306
 20
123.592168699147
 30
0.0
 40
1.83749401361082
 50
391.002410075812
 51
449.999999948034
  0
ARC
  5
   8B5
  8
0
  6
CONTINUOUS
 62
     7
 10
62.3967883786306
 20
123.592168699147
 30
0.0
 40
1.83749401361082
 50
211.002410075812
 51
229.632981925322
  0
ARC
  5
   8B6
  8
0
  6
CONTINUOUS
 62
     7
 10
62.3967883786306
 20
123.592168699147
 30
0.0
 40
1.83749401361082
 50
310.367017970747
 51
328.997589820257
  0
LINE
  5
   8B7
  8
0
  6
CONTINUOUS
 62
     2
 10
60.8217884054527
 20
122.542161299816
 30
0.0
 11
50.1467372628132
 21
122.542161299816
 31
0.0
  0
INSERT
  5
   8B8
  8
0
  6
CONTINUOUS
 62
     7
  2
*UDIM110
 10
0.0
 20
0.0
 30
0.0
  0
INSERT
  5
   8B9
  8
0
  6
CONTINUOUS
 62
     7
  2
*UDIM111
 10
0.0
 20
0.0
 30
0.0
  0
INSERT
  5
   8BA
  8
0
  6
CONTINUOUS
 62
     7
  2
*UDIM112
 10
0.0
 20
0.0
 30
0.0
  0
TEXT
  5
   8BB
  8
0
  6
CONTINUOUS
 62
     7
 10
72.3299032209931
 20
16.5066449847522
 30
0.0
 40
2.99999997871263
  1
=    =
 50
359.999999948034
 41
0.916666703091727
 72
     1
 11
80.3049034876221
 21
18.0066449669155
 31
0.0
 73
     2
  0
INSERT
  5
   8BC
  8
0
  6
CONTINUOUS
 62
     7
  2
*UDIM113
 10
0.0
 20
0.0
 30
0.0
  0
INSERT
  5
   8BD
  8
0
  6
CONTINUOUS
 62
     7
  2
*UDIM114
 10
0.0
 20
0.0
 30
0.0
  0
INSERT
  5
   8BE
  8
0
  6
CONTINUOUS
 62
     7
  2
*UDIM115
 10
0.0
 20
0.0
 30
0.0
  0
INSERT
  5
   8BF
  8
0
  6
CONTINUOUS
 62
     7
  2
*UDIM116
 10
0.0
 20
0.0
 30
0.0
  0
INSERT
  5
   8C0
  8
0
  6
CONTINUOUS
 62
     7
  2
*UDIM117
 10
0.0
 20
0.0
 30
0.0
  0
INSERT
  5
   8C1
  8
0
  6
CONTINUOUS
 62
     7
  2
*UDIM118
 10
0.0
 20
0.0
 30
0.0
  0
INSERT
  5
   8C2
  8
0
  6
CONTINUOUS
 62
     7
  2
*UDIM119
 10
0.0
 20
0.0
 30
0.0
  0
TEXT
  5
   8C3
  8
0
  6
CONTINUOUS
 62
     7
 10
44.9094532305815
 20
78.2223547284938
 30
0.0
 40
2.99999997871263
  1
=    =
 50
89.9999999480344
 41
0.916666703091727
 72
     1
 11
43.4094532484483
 21
86.1973549951285
 31
0.0
 73
     2
  0
TEXT
  5
   8C4
  8
0
  6
CONTINUOUS
 62
     7
 10
79.390035479137
 20
7.56607513745331
 30
0.0
 40
2.99999997871263
  1
Y
 50
359.999999948034
 41
0.91666663951344
 72
     2
 11
81.5900354148491
 21
7.56607513546903
 31
0.0
  0
TEXT
  5
   8C5
  8
0
  6
CONTINUOUS
 62
     7
 10
31.264073671776
 20
85.4046979590368
 30
0.0
 40
2.99999997871263
  1
X
 50
359.999999948034
 41
0.91666663951344
 72
     2
 11
33.4640736074882
 21
85.4046979570525
 31
0.0
  0
TEXT
  5
   8C6
  8
0
  6
CONTINUOUS
 62
     7
 10
130.669258140533
 20
84.5332637874844
 30
0.0
 40
2.99999997871263
  1
X
 50
359.999999948034
 41
0.91666663951344
 72
     1
 11
131.769258109742
 21
86.0332637758485
 31
0.0
 73
     2
  0
TEXT
  5
   8C7
  8
0
  6
CONTINUOUS
 62
     7
 10
79.4312638654056
 20
187.331892560516
 30
0.0
 40
2.99999997871263
  1
Y
 50
359.999999948034
 41
0.91666663951344
 72
     1
 11
80.5312638346146
 21
188.83189254888
 31
0.0
 73
     2
  0
ENDSEC
  0
EOF
