ISO-10303-21;
HEADER;
FILE_DESCRIPTION(('CATIA V5 STEP Exchange'),'2;1');

FILE_NAME('C:\\Users\\uff.tecnico\\Desktop\\STP\\1SDH001295R0500_1PA_001_00_XT3_4P_FIXED_MOSTRINA_DIFFERENZIAL.stp','2014-11-11T15:26:16+00:00',('none'),('none'),'CATIA Version 5 Release 20 SP 1 (IN-10)','CATIA V5 STEP AP214','none');

FILE_SCHEMA(('AUTOMOTIVE_DESIGN { 1 0 10303 214 1 1 1 1 }'));

ENDSEC;
/* file written by CATIA V5R20 */
DATA;
#5=PRODUCT('1SDH001295R0500_1PA_001_00_XT3_4P_FIXED_MOSTRINA_DIFFERENZIAL','','',(#2)) ;
#2=PRODUCT_CONTEXT(' ',#1,'mechanical') ;
#1=APPLICATION_CONTEXT('automotive design') ;
#10=PRODUCT_DEFINITION('',' ',#6,#3) ;
#3=PRODUCT_DEFINITION_CONTEXT('part definition',#1,' ') ;
#11=PRODUCT_DEFINITION_SHAPE(' ',' ',#10) ;
#532=MECHANICAL_DESIGN_GEOMETRIC_PRESENTATION_REPRESENTATION(' ',(#30),#17) ;
#20=SHAPE_REPRESENTATION(' ',(#19),#17) ;
#19=AXIS2_PLACEMENT_3D(' ',#18,$,$) ;
#35=AXIS2_PLACEMENT_3D('Plane Axis2P3D',#32,#33,#34) ;
#75=AXIS2_PLACEMENT_3D('Plane Axis2P3D',#72,#73,#74) ;
#106=AXIS2_PLACEMENT_3D('Plane Axis2P3D',#103,#104,#105) ;
#137=AXIS2_PLACEMENT_3D('Plane Axis2P3D',#134,#135,#136) ;
#159=AXIS2_PLACEMENT_3D('Cylinder Axis2P3D',#156,#157,#158) ;
#163=AXIS2_PLACEMENT_3D('Circle Axis2P3D',#161,#162,$) ;
#179=AXIS2_PLACEMENT_3D('Circle Axis2P3D',#177,#178,$) ;
#199=AXIS2_PLACEMENT_3D('Plane Axis2P3D',#196,#197,#198) ;
#231=AXIS2_PLACEMENT_3D('Circle Axis2P3D',#229,#230,$) ;
#246=AXIS2_PLACEMENT_3D('Plane Axis2P3D',#243,#244,#245) ;
#276=AXIS2_PLACEMENT_3D('Cylinder Axis2P3D',#273,#274,#275) ;
#287=AXIS2_PLACEMENT_3D('Circle Axis2P3D',#285,#286,$) ;
#300=AXIS2_PLACEMENT_3D('Plane Axis2P3D',#297,#298,#299) ;
#324=AXIS2_PLACEMENT_3D('Plane Axis2P3D',#321,#322,#323) ;
#348=AXIS2_PLACEMENT_3D('Plane Axis2P3D',#345,#346,#347) ;
#394=AXIS2_PLACEMENT_3D('Plane Axis2P3D',#391,#392,#393) ;
#425=AXIS2_PLACEMENT_3D('Plane Axis2P3D',#422,#423,#424) ;
#456=AXIS2_PLACEMENT_3D('Plane Axis2P3D',#453,#454,#455) ;
#473=AXIS2_PLACEMENT_3D('Plane Axis2P3D',#470,#471,#472) ;
#490=AXIS2_PLACEMENT_3D('Plane Axis2P3D',#487,#488,#489) ;
#513=AXIS2_PLACEMENT_3D('Plane Axis2P3D',#510,#511,#512) ;
#529=AXIS2_PLACEMENT_3D('Sistema di assi.1',#526,#527,#528) ;
#18=CARTESIAN_POINT(' ',(0.,0.,0.)) ;
#32=CARTESIAN_POINT('Axis2P3D Location',(118.5,0.,13.5)) ;
#37=CARTESIAN_POINT('Line Origine',(33.8,74.,13.5)) ;
#41=CARTESIAN_POINT('Vertex',(118.5,74.,13.5)) ;
#43=CARTESIAN_POINT('Vertex',(-50.9,74.,13.5)) ;
#46=CARTESIAN_POINT('Line Origine',(-50.9,76.25,13.5)) ;
#50=CARTESIAN_POINT('Vertex',(-50.9,78.5,13.5)) ;
#53=CARTESIAN_POINT('Line Origine',(33.8,78.5,13.5)) ;
#57=CARTESIAN_POINT('Vertex',(118.5,78.5,13.5)) ;
#60=CARTESIAN_POINT('Line Origine',(118.5,76.25,13.5)) ;
#72=CARTESIAN_POINT('Axis2P3D Location',(-50.9,0.,-33.5)) ;
#77=CARTESIAN_POINT('Line Origine',(-50.9,76.25,-33.5)) ;
#81=CARTESIAN_POINT('Vertex',(-50.9,74.,-33.5)) ;
#83=CARTESIAN_POINT('Vertex',(-50.9,78.5,-33.5)) ;
#86=CARTESIAN_POINT('Line Origine',(-50.9,78.5,-10.)) ;
#91=CARTESIAN_POINT('Line Origine',(-50.9,74.,-10.)) ;
#103=CARTESIAN_POINT('Axis2P3D Location',(118.5,0.,13.5)) ;
#108=CARTESIAN_POINT('Line Origine',(118.5,78.5,-10.)) ;
#112=CARTESIAN_POINT('Vertex',(118.5,78.5,-33.5)) ;
#115=CARTESIAN_POINT('Line Origine',(118.5,76.25,-33.5)) ;
#119=CARTESIAN_POINT('Vertex',(118.5,74.,-33.5)) ;
#122=CARTESIAN_POINT('Line Origine',(118.5,74.,-10.)) ;
#134=CARTESIAN_POINT('Axis2P3D Location',(-50.9,0.,-33.5)) ;
#139=CARTESIAN_POINT('Line Origine',(33.8,74.,-33.5)) ;
#144=CARTESIAN_POINT('Line Origine',(33.8,78.5,-33.5)) ;
#156=CARTESIAN_POINT('Axis2P3D Location',(-55.9,76.5,-10.)) ;
#161=CARTESIAN_POINT('Axis2P3D Location',(-55.9,76.5,31.)) ;
#165=CARTESIAN_POINT('Vertex',(-57.9,76.5,31.)) ;
#167=CARTESIAN_POINT('Vertex',(-55.9,78.5,31.)) ;
#170=CARTESIAN_POINT('Line Origine',(-55.9,78.5,-10.)) ;
#174=CARTESIAN_POINT('Vertex',(-55.9,78.5,-51.)) ;
#177=CARTESIAN_POINT('Axis2P3D Location',(-55.9,76.5,-51.)) ;
#181=CARTESIAN_POINT('Vertex',(-57.9,76.5,-51.)) ;
#184=CARTESIAN_POINT('Line Origine',(-57.9,76.5,-10.)) ;
#196=CARTESIAN_POINT('Axis2P3D Location',(0.,76.,31.)) ;
#201=CARTESIAN_POINT('Line Origine',(33.8,78.5,31.)) ;
#205=CARTESIAN_POINT('Vertex',(123.5,78.5,31.)) ;
#208=CARTESIAN_POINT('Line Origine',(-57.9,76.25,31.)) ;
#212=CARTESIAN_POINT('Vertex',(-57.9,76.,31.)) ;
#215=CARTESIAN_POINT('Line Origine',(33.8,76.,31.)) ;
#219=CARTESIAN_POINT('Vertex',(125.5,76.,31.)) ;
#222=CARTESIAN_POINT('Line Origine',(125.5,76.25,31.)) ;
#226=CARTESIAN_POINT('Vertex',(125.5,76.5,31.)) ;
#229=CARTESIAN_POINT('Axis2P3D Location',(123.5,76.5,31.)) ;
#243=CARTESIAN_POINT('Axis2P3D Location',(0.,78.5,-51.)) ;
#248=CARTESIAN_POINT('Line Origine',(123.5,78.5,-10.)) ;
#252=CARTESIAN_POINT('Vertex',(123.5,78.5,-51.)) ;
#255=CARTESIAN_POINT('Line Origine',(33.8,78.5,-51.)) ;
#273=CARTESIAN_POINT('Axis2P3D Location',(123.5,76.5,-10.)) ;
#278=CARTESIAN_POINT('Line Origine',(125.5,76.5,-10.)) ;
#282=CARTESIAN_POINT('Vertex',(125.5,76.5,-51.)) ;
#285=CARTESIAN_POINT('Axis2P3D Location',(123.5,76.5,-51.)) ;
#297=CARTESIAN_POINT('Axis2P3D Location',(125.5,0.,0.)) ;
#302=CARTESIAN_POINT('Line Origine',(125.5,76.,-10.)) ;
#306=CARTESIAN_POINT('Vertex',(125.5,76.,-51.)) ;
#309=CARTESIAN_POINT('Line Origine',(125.5,76.25,-51.)) ;
#321=CARTESIAN_POINT('Axis2P3D Location',(-57.9,0.,0.)) ;
#326=CARTESIAN_POINT('Line Origine',(-57.9,76.25,-51.)) ;
#330=CARTESIAN_POINT('Vertex',(-57.9,76.,-51.)) ;
#333=CARTESIAN_POINT('Line Origine',(-57.9,76.,-10.)) ;
#345=CARTESIAN_POINT('Axis2P3D Location',(0.,74.,16.5)) ;
#350=CARTESIAN_POINT('Line Origine',(33.8,74.,16.5)) ;
#354=CARTESIAN_POINT('Vertex',(121.5,74.,16.5)) ;
#356=CARTESIAN_POINT('Vertex',(-53.9,74.,16.5)) ;
#359=CARTESIAN_POINT('Line Origine',(-53.9,74.,-10.)) ;
#363=CARTESIAN_POINT('Vertex',(-53.9,74.,-36.5)) ;
#366=CARTESIAN_POINT('Line Origine',(33.8,74.,-36.5)) ;
#370=CARTESIAN_POINT('Vertex',(121.5,74.,-36.5)) ;
#373=CARTESIAN_POINT('Line Origine',(121.5,74.,-10.)) ;
#391=CARTESIAN_POINT('Axis2P3D Location',(0.,74.,-36.5)) ;
#396=CARTESIAN_POINT('Line Origine',(-53.9,75.,-36.5)) ;
#400=CARTESIAN_POINT('Vertex',(-53.9,76.,-36.5)) ;
#403=CARTESIAN_POINT('Line Origine',(33.8,76.,-36.5)) ;
#407=CARTESIAN_POINT('Vertex',(121.5,76.,-36.5)) ;
#410=CARTESIAN_POINT('Line Origine',(121.5,75.,-36.5)) ;
#422=CARTESIAN_POINT('Axis2P3D Location',(0.,74.,16.5)) ;
#427=CARTESIAN_POINT('Line Origine',(121.5,75.,16.5)) ;
#431=CARTESIAN_POINT('Vertex',(121.5,76.,16.5)) ;
#434=CARTESIAN_POINT('Line Origine',(33.8,76.,16.5)) ;
#438=CARTESIAN_POINT('Vertex',(-53.9,76.,16.5)) ;
#441=CARTESIAN_POINT('Line Origine',(-53.9,75.,16.5)) ;
#453=CARTESIAN_POINT('Axis2P3D Location',(121.5,76.,0.)) ;
#458=CARTESIAN_POINT('Line Origine',(121.5,76.,-10.)) ;
#470=CARTESIAN_POINT('Axis2P3D Location',(-53.9,51.,0.)) ;
#475=CARTESIAN_POINT('Line Origine',(-53.9,76.,-10.)) ;
#487=CARTESIAN_POINT('Axis2P3D Location',(0.,76.,31.)) ;
#492=CARTESIAN_POINT('Line Origine',(33.8,76.,-51.)) ;
#510=CARTESIAN_POINT('Axis2P3D Location',(0.,78.5,-51.)) ;
#526=CARTESIAN_POINT('Axis2P3D Location',(0.,0.,0.)) ;
#33=DIRECTION('Axis2P3D Direction',(0.,0.,-1.)) ;
#34=DIRECTION('Axis2P3D XDirection',(-1.,0.,0.)) ;
#38=DIRECTION('Vector Direction',(-1.,0.,0.)) ;
#47=DIRECTION('Vector Direction',(0.,1.,0.)) ;
#54=DIRECTION('Vector Direction',(-1.,0.,0.)) ;
#61=DIRECTION('Vector Direction',(0.,1.,0.)) ;
#73=DIRECTION('Axis2P3D Direction',(-1.,0.,0.)) ;
#74=DIRECTION('Axis2P3D XDirection',(0.,0.,1.)) ;
#78=DIRECTION('Vector Direction',(0.,1.,0.)) ;
#87=DIRECTION('Vector Direction',(0.,0.,1.)) ;
#92=DIRECTION('Vector Direction',(0.,0.,1.)) ;
#104=DIRECTION('Axis2P3D Direction',(1.,-0.,0.)) ;
#105=DIRECTION('Axis2P3D XDirection',(0.,0.,-1.)) ;
#109=DIRECTION('Vector Direction',(0.,0.,-1.)) ;
#116=DIRECTION('Vector Direction',(0.,1.,0.)) ;
#123=DIRECTION('Vector Direction',(0.,0.,-1.)) ;
#135=DIRECTION('Axis2P3D Direction',(0.,0.,1.)) ;
#136=DIRECTION('Axis2P3D XDirection',(1.,0.,0.)) ;
#140=DIRECTION('Vector Direction',(1.,0.,0.)) ;
#145=DIRECTION('Vector Direction',(1.,0.,0.)) ;
#157=DIRECTION('Axis2P3D Direction',(0.,0.,1.)) ;
#158=DIRECTION('Axis2P3D XDirection',(1.83697019872E-016,1.,-0.)) ;
#162=DIRECTION('Axis2P3D Direction',(0.,0.,1.)) ;
#171=DIRECTION('Vector Direction',(0.,0.,1.)) ;
#178=DIRECTION('Axis2P3D Direction',(0.,0.,1.)) ;
#185=DIRECTION('Vector Direction',(0.,0.,1.)) ;
#197=DIRECTION('Axis2P3D Direction',(0.,-0.,1.)) ;
#198=DIRECTION('Axis2P3D XDirection',(0.,1.,0.)) ;
#202=DIRECTION('Vector Direction',(-1.,0.,0.)) ;
#209=DIRECTION('Vector Direction',(0.,1.,0.)) ;
#216=DIRECTION('Vector Direction',(-1.,0.,0.)) ;
#223=DIRECTION('Vector Direction',(0.,1.,0.)) ;
#230=DIRECTION('Axis2P3D Direction',(0.,-0.,1.)) ;
#244=DIRECTION('Axis2P3D Direction',(0.,-1.,0.)) ;
#245=DIRECTION('Axis2P3D XDirection',(0.,0.,1.)) ;
#249=DIRECTION('Vector Direction',(0.,0.,1.)) ;
#256=DIRECTION('Vector Direction',(-1.,0.,0.)) ;
#274=DIRECTION('Axis2P3D Direction',(0.,-0.,1.)) ;
#275=DIRECTION('Axis2P3D XDirection',(1.,-1.83697019872E-016,-0.)) ;
#279=DIRECTION('Vector Direction',(0.,0.,1.)) ;
#286=DIRECTION('Axis2P3D Direction',(0.,-0.,1.)) ;
#298=DIRECTION('Axis2P3D Direction',(1.,0.,0.)) ;
#299=DIRECTION('Axis2P3D XDirection',(0.,1.,0.)) ;
#303=DIRECTION('Vector Direction',(0.,0.,1.)) ;
#310=DIRECTION('Vector Direction',(0.,-1.,0.)) ;
#322=DIRECTION('Axis2P3D Direction',(1.,0.,0.)) ;
#323=DIRECTION('Axis2P3D XDirection',(0.,1.,0.)) ;
#327=DIRECTION('Vector Direction',(0.,-1.,0.)) ;
#334=DIRECTION('Vector Direction',(0.,0.,1.)) ;
#346=DIRECTION('Axis2P3D Direction',(0.,1.,0.)) ;
#347=DIRECTION('Axis2P3D XDirection',(0.,0.,-1.)) ;
#351=DIRECTION('Vector Direction',(-1.,0.,0.)) ;
#360=DIRECTION('Vector Direction',(0.,0.,-1.)) ;
#367=DIRECTION('Vector Direction',(-1.,0.,0.)) ;
#374=DIRECTION('Vector Direction',(0.,0.,-1.)) ;
#392=DIRECTION('Axis2P3D Direction',(0.,-0.,1.)) ;
#393=DIRECTION('Axis2P3D XDirection',(0.,1.,0.)) ;
#397=DIRECTION('Vector Direction',(-7.1054273576E-015,-1.,0.)) ;
#404=DIRECTION('Vector Direction',(-1.,0.,0.)) ;
#411=DIRECTION('Vector Direction',(2.84217094304E-014,-1.,0.)) ;
#423=DIRECTION('Axis2P3D Direction',(0.,-0.,1.)) ;
#424=DIRECTION('Axis2P3D XDirection',(0.,1.,0.)) ;
#428=DIRECTION('Vector Direction',(2.84217094304E-014,-1.,0.)) ;
#435=DIRECTION('Vector Direction',(-1.,0.,0.)) ;
#442=DIRECTION('Vector Direction',(-7.1054273576E-015,-1.,0.)) ;
#454=DIRECTION('Axis2P3D Direction',(1.,0.,0.)) ;
#455=DIRECTION('Axis2P3D XDirection',(0.,-1.,0.)) ;
#459=DIRECTION('Vector Direction',(0.,0.,-1.)) ;
#471=DIRECTION('Axis2P3D Direction',(-1.,0.,0.)) ;
#472=DIRECTION('Axis2P3D XDirection',(0.,1.,0.)) ;
#476=DIRECTION('Vector Direction',(0.,0.,-1.)) ;
#488=DIRECTION('Axis2P3D Direction',(0.,1.,0.)) ;
#489=DIRECTION('Axis2P3D XDirection',(0.,0.,-1.)) ;
#493=DIRECTION('Vector Direction',(-1.,0.,0.)) ;
#511=DIRECTION('Axis2P3D Direction',(-0.,-0.,-1.)) ;
#512=DIRECTION('Axis2P3D XDirection',(0.,-1.,0.)) ;
#527=DIRECTION('Axis2P3D Direction',(0.,0.,1.)) ;
#528=DIRECTION('Axis2P3D XDirection',(1.,0.,0.)) ;
#8=PRODUCT_RELATED_PRODUCT_CATEGORY('part',$,(#5)) ;
#7=PRODUCT_CATEGORY('part','specification') ;
#30=STYLED_ITEM(' ',(#29),#22) ;
#29=PRESENTATION_STYLE_ASSIGNMENT((#28)) ;
#28=SURFACE_STYLE_USAGE(.BOTH.,#27) ;
#27=SURFACE_SIDE_STYLE(' ',(#26)) ;
#26=SURFACE_STYLE_FILL_AREA(#25) ;
#25=FILL_AREA_STYLE(' ',(#24)) ;
#24=FILL_AREA_STYLE_COLOUR(' ',#23) ;
#39=VECTOR('Line Direction',#38,1.) ;
#48=VECTOR('Line Direction',#47,1.) ;
#55=VECTOR('Line Direction',#54,1.) ;
#62=VECTOR('Line Direction',#61,1.) ;
#79=VECTOR('Line Direction',#78,1.) ;
#88=VECTOR('Line Direction',#87,1.) ;
#93=VECTOR('Line Direction',#92,1.) ;
#110=VECTOR('Line Direction',#109,1.) ;
#117=VECTOR('Line Direction',#116,1.) ;
#124=VECTOR('Line Direction',#123,1.) ;
#141=VECTOR('Line Direction',#140,1.) ;
#146=VECTOR('Line Direction',#145,1.) ;
#172=VECTOR('Line Direction',#171,1.) ;
#186=VECTOR('Line Direction',#185,1.) ;
#203=VECTOR('Line Direction',#202,1.) ;
#210=VECTOR('Line Direction',#209,1.) ;
#217=VECTOR('Line Direction',#216,1.) ;
#224=VECTOR('Line Direction',#223,1.) ;
#250=VECTOR('Line Direction',#249,1.) ;
#257=VECTOR('Line Direction',#256,1.) ;
#280=VECTOR('Line Direction',#279,1.) ;
#304=VECTOR('Line Direction',#303,1.) ;
#311=VECTOR('Line Direction',#310,1.) ;
#328=VECTOR('Line Direction',#327,1.) ;
#335=VECTOR('Line Direction',#334,1.) ;
#352=VECTOR('Line Direction',#351,1.) ;
#361=VECTOR('Line Direction',#360,1.) ;
#368=VECTOR('Line Direction',#367,1.) ;
#375=VECTOR('Line Direction',#374,1.) ;
#398=VECTOR('Line Direction',#397,1.) ;
#405=VECTOR('Line Direction',#404,1.) ;
#412=VECTOR('Line Direction',#411,1.) ;
#429=VECTOR('Line Direction',#428,1.) ;
#436=VECTOR('Line Direction',#435,1.) ;
#443=VECTOR('Line Direction',#442,1.) ;
#460=VECTOR('Line Direction',#459,1.) ;
#477=VECTOR('Line Direction',#476,1.) ;
#494=VECTOR('Line Direction',#493,1.) ;
#16=UNCERTAINTY_MEASURE_WITH_UNIT(LENGTH_MEASURE(0.005),#12,'distance_accuracy_value','CONFUSED CURVE UNCERTAINTY') ;
#525=SHAPE_REPRESENTATION_RELATIONSHIP(' ',' ',#20,#524) ;
#66=ORIENTED_EDGE('',*,*,#45,.T.) ;
#67=ORIENTED_EDGE('',*,*,#52,.T.) ;
#68=ORIENTED_EDGE('',*,*,#59,.F.) ;
#69=ORIENTED_EDGE('',*,*,#64,.F.) ;
#97=ORIENTED_EDGE('',*,*,#85,.T.) ;
#98=ORIENTED_EDGE('',*,*,#90,.T.) ;
#99=ORIENTED_EDGE('',*,*,#52,.F.) ;
#100=ORIENTED_EDGE('',*,*,#95,.F.) ;
#128=ORIENTED_EDGE('',*,*,#64,.T.) ;
#129=ORIENTED_EDGE('',*,*,#114,.T.) ;
#130=ORIENTED_EDGE('',*,*,#121,.F.) ;
#131=ORIENTED_EDGE('',*,*,#126,.F.) ;
#150=ORIENTED_EDGE('',*,*,#143,.T.) ;
#151=ORIENTED_EDGE('',*,*,#121,.T.) ;
#152=ORIENTED_EDGE('',*,*,#148,.F.) ;
#153=ORIENTED_EDGE('',*,*,#85,.F.) ;
#190=ORIENTED_EDGE('',*,*,#169,.T.) ;
#191=ORIENTED_EDGE('',*,*,#176,.F.) ;
#192=ORIENTED_EDGE('',*,*,#183,.T.) ;
#193=ORIENTED_EDGE('',*,*,#188,.T.) ;
#235=ORIENTED_EDGE('',*,*,#207,.T.) ;
#236=ORIENTED_EDGE('',*,*,#169,.F.) ;
#237=ORIENTED_EDGE('',*,*,#214,.T.) ;
#238=ORIENTED_EDGE('',*,*,#221,.F.) ;
#239=ORIENTED_EDGE('',*,*,#228,.F.) ;
#240=ORIENTED_EDGE('',*,*,#233,.F.) ;
#261=ORIENTED_EDGE('',*,*,#254,.F.) ;
#262=ORIENTED_EDGE('',*,*,#259,.T.) ;
#263=ORIENTED_EDGE('',*,*,#176,.T.) ;
#264=ORIENTED_EDGE('',*,*,#207,.F.) ;
#267=ORIENTED_EDGE('',*,*,#90,.F.) ;
#268=ORIENTED_EDGE('',*,*,#148,.T.) ;
#269=ORIENTED_EDGE('',*,*,#114,.F.) ;
#270=ORIENTED_EDGE('',*,*,#59,.T.) ;
#291=ORIENTED_EDGE('',*,*,#233,.T.) ;
#292=ORIENTED_EDGE('',*,*,#284,.F.) ;
#293=ORIENTED_EDGE('',*,*,#289,.T.) ;
#294=ORIENTED_EDGE('',*,*,#254,.T.) ;
#315=ORIENTED_EDGE('',*,*,#308,.T.) ;
#316=ORIENTED_EDGE('',*,*,#313,.T.) ;
#317=ORIENTED_EDGE('',*,*,#284,.T.) ;
#318=ORIENTED_EDGE('',*,*,#228,.T.) ;
#339=ORIENTED_EDGE('',*,*,#214,.F.) ;
#340=ORIENTED_EDGE('',*,*,#188,.F.) ;
#341=ORIENTED_EDGE('',*,*,#332,.F.) ;
#342=ORIENTED_EDGE('',*,*,#337,.F.) ;
#379=ORIENTED_EDGE('',*,*,#358,.T.) ;
#380=ORIENTED_EDGE('',*,*,#365,.T.) ;
#381=ORIENTED_EDGE('',*,*,#372,.F.) ;
#382=ORIENTED_EDGE('',*,*,#377,.F.) ;
#385=ORIENTED_EDGE('',*,*,#45,.F.) ;
#386=ORIENTED_EDGE('',*,*,#126,.T.) ;
#387=ORIENTED_EDGE('',*,*,#143,.F.) ;
#388=ORIENTED_EDGE('',*,*,#95,.T.) ;
#416=ORIENTED_EDGE('',*,*,#372,.T.) ;
#417=ORIENTED_EDGE('',*,*,#402,.F.) ;
#418=ORIENTED_EDGE('',*,*,#409,.F.) ;
#419=ORIENTED_EDGE('',*,*,#414,.T.) ;
#447=ORIENTED_EDGE('',*,*,#433,.F.) ;
#448=ORIENTED_EDGE('',*,*,#440,.T.) ;
#449=ORIENTED_EDGE('',*,*,#445,.T.) ;
#450=ORIENTED_EDGE('',*,*,#358,.F.) ;
#464=ORIENTED_EDGE('',*,*,#462,.F.) ;
#465=ORIENTED_EDGE('',*,*,#433,.T.) ;
#466=ORIENTED_EDGE('',*,*,#377,.T.) ;
#467=ORIENTED_EDGE('',*,*,#414,.F.) ;
#481=ORIENTED_EDGE('',*,*,#479,.T.) ;
#482=ORIENTED_EDGE('',*,*,#402,.T.) ;
#483=ORIENTED_EDGE('',*,*,#365,.F.) ;
#484=ORIENTED_EDGE('',*,*,#445,.F.) ;
#498=ORIENTED_EDGE('',*,*,#337,.T.) ;
#499=ORIENTED_EDGE('',*,*,#496,.F.) ;
#500=ORIENTED_EDGE('',*,*,#308,.F.) ;
#501=ORIENTED_EDGE('',*,*,#221,.T.) ;
#504=ORIENTED_EDGE('',*,*,#409,.T.) ;
#505=ORIENTED_EDGE('',*,*,#479,.F.) ;
#506=ORIENTED_EDGE('',*,*,#440,.F.) ;
#507=ORIENTED_EDGE('',*,*,#462,.T.) ;
#516=ORIENTED_EDGE('',*,*,#313,.F.) ;
#517=ORIENTED_EDGE('',*,*,#496,.T.) ;
#518=ORIENTED_EDGE('',*,*,#332,.T.) ;
#519=ORIENTED_EDGE('',*,*,#183,.F.) ;
#520=ORIENTED_EDGE('',*,*,#259,.F.) ;
#521=ORIENTED_EDGE('',*,*,#289,.F.) ;
#271=FACE_BOUND('',#266,.T.) ;
#389=FACE_BOUND('',#384,.T.) ;
#508=FACE_BOUND('',#503,.T.) ;
#31=CLOSED_SHELL('Closed Shell',(#71,#102,#133,#155,#195,#242,#272,#296,#320,#344,#390,#421,#452,#469,#486,#509,#523)) ;
#524=ADVANCED_BREP_SHAPE_REPRESENTATION('NONE',(#22),#17) ;
#71=ADVANCED_FACE('Mostrina',(#70),#36,.T.) ;
#102=ADVANCED_FACE('Mostrina',(#101),#76,.F.) ;
#133=ADVANCED_FACE('Mostrina',(#132),#107,.F.) ;
#155=ADVANCED_FACE('Mostrina',(#154),#138,.T.) ;
#195=ADVANCED_FACE('Mostrina',(#194),#160,.T.) ;
#242=ADVANCED_FACE('Mostrina',(#241),#200,.T.) ;
#272=ADVANCED_FACE('Mostrina',(#265,#271),#247,.F.) ;
#296=ADVANCED_FACE('Mostrina',(#295),#277,.T.) ;
#320=ADVANCED_FACE('Mostrina',(#319),#301,.T.) ;
#344=ADVANCED_FACE('Mostrina',(#343),#325,.F.) ;
#390=ADVANCED_FACE('Mostrina',(#383,#389),#349,.F.) ;
#421=ADVANCED_FACE('Mostrina',(#420),#395,.F.) ;
#452=ADVANCED_FACE('Mostrina',(#451),#426,.T.) ;
#469=ADVANCED_FACE('Mostrina',(#468),#457,.T.) ;
#486=ADVANCED_FACE('Mostrina',(#485),#474,.T.) ;
#509=ADVANCED_FACE('Mostrina',(#502,#508),#491,.F.) ;
#523=ADVANCED_FACE('Mostrina',(#522),#514,.T.) ;
#4=APPLICATION_PROTOCOL_DEFINITION('international standard','automotive_design',2001,#1) ;
#22=MANIFOLD_SOLID_BREP('Mostrina',#31) ;
#164=CIRCLE('generated circle',#163,2.) ;
#180=CIRCLE('generated circle',#179,2.) ;
#232=CIRCLE('generated circle',#231,2.) ;
#288=CIRCLE('generated circle',#287,2.) ;
#23=COLOUR_RGB('Colour',0.341176470588,0.364705882353,0.36862745098) ;
#530=CONSTRUCTIVE_GEOMETRY_REPRESENTATION('supplemental geometry',(#529),#17) ;
#531=CONSTRUCTIVE_GEOMETRY_REPRESENTATION_RELATIONSHIP('supplemental geometry','',#20,#530) ;
#160=CYLINDRICAL_SURFACE('generated cylinder',#159,2.) ;
#277=CYLINDRICAL_SURFACE('generated cylinder',#276,2.) ;
#45=EDGE_CURVE('',#42,#44,#40,.T.) ;
#52=EDGE_CURVE('',#44,#51,#49,.T.) ;
#59=EDGE_CURVE('',#58,#51,#56,.T.) ;
#64=EDGE_CURVE('',#42,#58,#63,.T.) ;
#85=EDGE_CURVE('',#82,#84,#80,.T.) ;
#90=EDGE_CURVE('',#84,#51,#89,.T.) ;
#95=EDGE_CURVE('',#82,#44,#94,.T.) ;
#114=EDGE_CURVE('',#58,#113,#111,.T.) ;
#121=EDGE_CURVE('',#120,#113,#118,.T.) ;
#126=EDGE_CURVE('',#42,#120,#125,.T.) ;
#143=EDGE_CURVE('',#82,#120,#142,.T.) ;
#148=EDGE_CURVE('',#84,#113,#147,.T.) ;
#169=EDGE_CURVE('',#166,#168,#164,.F.) ;
#176=EDGE_CURVE('',#175,#168,#173,.T.) ;
#183=EDGE_CURVE('',#175,#182,#180,.T.) ;
#188=EDGE_CURVE('',#182,#166,#187,.T.) ;
#207=EDGE_CURVE('',#206,#168,#204,.T.) ;
#214=EDGE_CURVE('',#166,#213,#211,.F.) ;
#221=EDGE_CURVE('',#220,#213,#218,.T.) ;
#228=EDGE_CURVE('',#227,#220,#225,.F.) ;
#233=EDGE_CURVE('',#206,#227,#232,.F.) ;
#254=EDGE_CURVE('',#253,#206,#251,.T.) ;
#259=EDGE_CURVE('',#253,#175,#258,.T.) ;
#284=EDGE_CURVE('',#283,#227,#281,.T.) ;
#289=EDGE_CURVE('',#283,#253,#288,.T.) ;
#308=EDGE_CURVE('',#220,#307,#305,.F.) ;
#313=EDGE_CURVE('',#307,#283,#312,.F.) ;
#332=EDGE_CURVE('',#331,#182,#329,.F.) ;
#337=EDGE_CURVE('',#213,#331,#336,.F.) ;
#358=EDGE_CURVE('',#355,#357,#353,.T.) ;
#365=EDGE_CURVE('',#357,#364,#362,.T.) ;
#372=EDGE_CURVE('',#371,#364,#369,.T.) ;
#377=EDGE_CURVE('',#355,#371,#376,.T.) ;
#402=EDGE_CURVE('',#401,#364,#399,.T.) ;
#409=EDGE_CURVE('',#408,#401,#406,.T.) ;
#414=EDGE_CURVE('',#408,#371,#413,.T.) ;
#433=EDGE_CURVE('',#432,#355,#430,.T.) ;
#440=EDGE_CURVE('',#432,#439,#437,.T.) ;
#445=EDGE_CURVE('',#439,#357,#444,.T.) ;
#462=EDGE_CURVE('',#432,#408,#461,.T.) ;
#479=EDGE_CURVE('',#439,#401,#478,.T.) ;
#496=EDGE_CURVE('',#307,#331,#495,.T.) ;
#65=EDGE_LOOP('',(#66,#67,#68,#69)) ;
#96=EDGE_LOOP('',(#97,#98,#99,#100)) ;
#127=EDGE_LOOP('',(#128,#129,#130,#131)) ;
#149=EDGE_LOOP('',(#150,#151,#152,#153)) ;
#189=EDGE_LOOP('',(#190,#191,#192,#193)) ;
#234=EDGE_LOOP('',(#235,#236,#237,#238,#239,#240)) ;
#260=EDGE_LOOP('',(#261,#262,#263,#264)) ;
#266=EDGE_LOOP('',(#267,#268,#269,#270)) ;
#290=EDGE_LOOP('',(#291,#292,#293,#294)) ;
#314=EDGE_LOOP('',(#315,#316,#317,#318)) ;
#338=EDGE_LOOP('',(#339,#340,#341,#342)) ;
#378=EDGE_LOOP('',(#379,#380,#381,#382)) ;
#384=EDGE_LOOP('',(#385,#386,#387,#388)) ;
#415=EDGE_LOOP('',(#416,#417,#418,#419)) ;
#446=EDGE_LOOP('',(#447,#448,#449,#450)) ;
#463=EDGE_LOOP('',(#464,#465,#466,#467)) ;
#480=EDGE_LOOP('',(#481,#482,#483,#484)) ;
#497=EDGE_LOOP('',(#498,#499,#500,#501)) ;
#503=EDGE_LOOP('',(#504,#505,#506,#507)) ;
#515=EDGE_LOOP('',(#516,#517,#518,#519,#520,#521)) ;
#70=FACE_OUTER_BOUND('',#65,.T.) ;
#101=FACE_OUTER_BOUND('',#96,.T.) ;
#132=FACE_OUTER_BOUND('',#127,.T.) ;
#154=FACE_OUTER_BOUND('',#149,.T.) ;
#194=FACE_OUTER_BOUND('',#189,.T.) ;
#241=FACE_OUTER_BOUND('',#234,.T.) ;
#265=FACE_OUTER_BOUND('',#260,.T.) ;
#295=FACE_OUTER_BOUND('',#290,.T.) ;
#319=FACE_OUTER_BOUND('',#314,.T.) ;
#343=FACE_OUTER_BOUND('',#338,.T.) ;
#383=FACE_OUTER_BOUND('',#378,.T.) ;
#420=FACE_OUTER_BOUND('',#415,.T.) ;
#451=FACE_OUTER_BOUND('',#446,.T.) ;
#468=FACE_OUTER_BOUND('',#463,.T.) ;
#485=FACE_OUTER_BOUND('',#480,.T.) ;
#502=FACE_OUTER_BOUND('',#497,.T.) ;
#522=FACE_OUTER_BOUND('',#515,.T.) ;
#40=LINE('Line',#37,#39) ;
#49=LINE('Line',#46,#48) ;
#56=LINE('Line',#53,#55) ;
#63=LINE('Line',#60,#62) ;
#80=LINE('Line',#77,#79) ;
#89=LINE('Line',#86,#88) ;
#94=LINE('Line',#91,#93) ;
#111=LINE('Line',#108,#110) ;
#118=LINE('Line',#115,#117) ;
#125=LINE('Line',#122,#124) ;
#142=LINE('Line',#139,#141) ;
#147=LINE('Line',#144,#146) ;
#173=LINE('Line',#170,#172) ;
#187=LINE('Line',#184,#186) ;
#204=LINE('Line',#201,#203) ;
#211=LINE('Line',#208,#210) ;
#218=LINE('Line',#215,#217) ;
#225=LINE('Line',#222,#224) ;
#251=LINE('Line',#248,#250) ;
#258=LINE('Line',#255,#257) ;
#281=LINE('Line',#278,#280) ;
#305=LINE('Line',#302,#304) ;
#312=LINE('Line',#309,#311) ;
#329=LINE('Line',#326,#328) ;
#336=LINE('Line',#333,#335) ;
#353=LINE('Line',#350,#352) ;
#362=LINE('Line',#359,#361) ;
#369=LINE('Line',#366,#368) ;
#376=LINE('Line',#373,#375) ;
#399=LINE('Line',#396,#398) ;
#406=LINE('Line',#403,#405) ;
#413=LINE('Line',#410,#412) ;
#430=LINE('Line',#427,#429) ;
#437=LINE('Line',#434,#436) ;
#444=LINE('Line',#441,#443) ;
#461=LINE('Line',#458,#460) ;
#478=LINE('Line',#475,#477) ;
#495=LINE('Line',#492,#494) ;
#36=PLANE('',#35) ;
#76=PLANE('',#75) ;
#107=PLANE('',#106) ;
#138=PLANE('',#137) ;
#200=PLANE('',#199) ;
#247=PLANE('',#246) ;
#301=PLANE('',#300) ;
#325=PLANE('',#324) ;
#349=PLANE('',#348) ;
#395=PLANE('',#394) ;
#426=PLANE('',#425) ;
#457=PLANE('',#456) ;
#474=PLANE('',#473) ;
#491=PLANE('',#490) ;
#514=PLANE('',#513) ;
#14=PLANE_ANGLE_MEASURE_WITH_UNIT(PLANE_ANGLE_MEASURE(0.0174532925199),#13) ;
#9=PRODUCT_CATEGORY_RELATIONSHIP(' ',' ',#7,#8) ;
#6=PRODUCT_DEFINITION_FORMATION_WITH_SPECIFIED_SOURCE('',' ',#5,.NOT_KNOWN.) ;
#21=SHAPE_DEFINITION_REPRESENTATION(#11,#20) ;
#42=VERTEX_POINT('',#41) ;
#44=VERTEX_POINT('',#43) ;
#51=VERTEX_POINT('',#50) ;
#58=VERTEX_POINT('',#57) ;
#82=VERTEX_POINT('',#81) ;
#84=VERTEX_POINT('',#83) ;
#113=VERTEX_POINT('',#112) ;
#120=VERTEX_POINT('',#119) ;
#166=VERTEX_POINT('',#165) ;
#168=VERTEX_POINT('',#167) ;
#175=VERTEX_POINT('',#174) ;
#182=VERTEX_POINT('',#181) ;
#206=VERTEX_POINT('',#205) ;
#213=VERTEX_POINT('',#212) ;
#220=VERTEX_POINT('',#219) ;
#227=VERTEX_POINT('',#226) ;
#253=VERTEX_POINT('',#252) ;
#283=VERTEX_POINT('',#282) ;
#307=VERTEX_POINT('',#306) ;
#331=VERTEX_POINT('',#330) ;
#355=VERTEX_POINT('',#354) ;
#357=VERTEX_POINT('',#356) ;
#364=VERTEX_POINT('',#363) ;
#371=VERTEX_POINT('',#370) ;
#401=VERTEX_POINT('',#400) ;
#408=VERTEX_POINT('',#407) ;
#432=VERTEX_POINT('',#431) ;
#439=VERTEX_POINT('',#438) ;
#12=(LENGTH_UNIT()NAMED_UNIT(*)SI_UNIT(.MILLI.,.METRE.)) ;
#13=(NAMED_UNIT(*)PLANE_ANGLE_UNIT()SI_UNIT($,.RADIAN.)) ;
#15=(NAMED_UNIT(*)SI_UNIT($,.STERADIAN.)SOLID_ANGLE_UNIT()) ;
#17=(GEOMETRIC_REPRESENTATION_CONTEXT(3)GLOBAL_UNCERTAINTY_ASSIGNED_CONTEXT((#16))GLOBAL_UNIT_ASSIGNED_CONTEXT((#12,#13,#15))REPRESENTATION_CONTEXT(' ',' ')) ;
ENDSEC;
END-ISO-10303-21;
