  0
SECTION
  2
HEADER
  9
$ACADVER
  1
AC1009
  9
$DWGCODEPAGE
  3
iso8859-1
  9
$INSBASE
 10
0.0
 20
0.0
 30
0.0
  9
$EXTMIN
 10
1.0E20
 20
1.0E20
  9
$EXTMAX
 10
-1.0E20
 20
-1.0E20
  9
$LIMMIN
 10
0.0
 20
0.0
  9
$LIMMAX
 10
12.0
 20
9.0
  9
$ORTHOMODE
 70
     0
  9
$REGENMODE
 70
     1
  9
$FILLMODE
 70
     1
  9
$QTEXTMODE
 70
     0
  9
$MIRRTEXT
 70
     1
  9
$DRAGMODE
 70
     2
  9
$LTSCALE
 40
15.0
  9
$OSMODE
 70
     0
  9
$ATTMODE
 70
     1
  9
$TEXTSIZE
 40
0.2
  9
$TRACEWID
 40
0.05
  9
$TEXTSTYLE
  7
STANDARD
  9
$CLAYER
  8
0
  9
$CELTYPE
  6
DASHED
  9
$CECOLOR
 62
   256
  9
$DIMSCALE
 40
1.0
  9
$DIMASZ
 40
0.18
  9
$DIMEXO
 40
0.0625
  9
$DIMDLI
 40
0.38
  9
$DIMRND
 40
0.0
  9
$DIMDLE
 40
0.0
  9
$DIMEXE
 40
0.18
  9
$DIMTP
 40
0.0
  9
$DIMTM
 40
0.0
  9
$DIMTXT
 40
0.18
  9
$DIMCEN
 40
0.09
  9
$DIMTSZ
 40
0.0
  9
$DIMTOL
 70
     0
  9
$DIMLIM
 70
     0
  9
$DIMTIH
 70
     1
  9
$DIMTOH
 70
     1
  9
$DIMSE1
 70
     0
  9
$DIMSE2
 70
     0
  9
$DIMTAD
 70
     0
  9
$DIMZIN
 70
     0
  9
$DIMBLK
  1

  9
$DIMASO
 70
     1
  9
$DIMSHO
 70
     1
  9
$DIMPOST
  1

  9
$DIMAPOST
  1

  9
$DIMALT
 70
     0
  9
$DIMALTD
 70
     2
  9
$DIMALTF
 40
25.4
  9
$DIMLFAC
 40
1.0
  9
$DIMTOFL
 70
     0
  9
$DIMTVP
 40
0.0
  9
$DIMTIX
 70
     0
  9
$DIMSOXD
 70
     0
  9
$DIMSAH
 70
     0
  9
$DIMBLK1
  1

  9
$DIMBLK2
  1

  9
$DIMSTYLE
  2
STANDARD
  9
$DIMCLRD
 70
     0
  9
$DIMCLRE
 70
     0
  9
$DIMCLRT
 70
     0
  9
$DIMTFAC
 40
1.0
  9
$DIMGAP
 40
0.09
  9
$LUNITS
 70
     2
  9
$LUPREC
 70
     4
  9
$AXISMODE
 70
     0
  9
$AXISUNIT
 10
0.0
 20
0.0
  9
$SKETCHINC
 40
0.1
  9
$FILLETRAD
 40
0.0
  9
$AUNITS
 70
     0
  9
$AUPREC
 70
     0
  9
$MENU
  1
acad
  9
$ELEVATION
 40
0.0
  9
$PELEVATION
 40
0.0
  9
$THICKNESS
 40
0.0
  9
$LIMCHECK
 70
     0
  9
$BLIPMODE
 70
     1
  9
$CHAMFERA
 40
0.0
  9
$CHAMFERB
 40
0.0
  9
$SKPOLY
 70
     0
  9
$TDCREATE
 40
0.000000000
  9
$TDUPDATE
 40
0.000000000
  9
$TDINDWG
 40
0.0
  9
$TDUSRTIMER
 40
0.0
  9
$USRTIMER
 70
     1
  9
$ANGBASE
 50
0.0
  9
$ANGDIR
 70
     0
  9
$PDMODE
 70
     0
  9
$PDSIZE
 40
0.0
  9
$PLINEWID
 40
0.0
  9
$COORDS
 70
     1
  9
$SPLFRAME
 70
     0
  9
$SPLINETYPE
 70
     6
  9
$SPLINESEGS
 70
     8
  9
$ATTDIA
 70
     0
  9
$ATTREQ
 70
     1
  9
$HANDLING
 70
     1
  9
$HANDSEED
  5
   609
  9
$SURFTAB1
 70
     6
  9
$SURFTAB2
 70
     6
  9
$SURFTYPE
 70
     6
  9
$SURFU
 70
     6
  9
$SURFV
 70
     6
  9
$UCSNAME
  2

  9
$UCSORG
 10
0.0
 20
0.0
 30
0.0
  9
$UCSXDIR
 10
1.0
 20
0.0
 30
0.0
  9
$UCSYDIR
 10
0.0
 20
1.0
 30
0.0
  9
$PUCSNAME
  2

  9
$PUCSORG
 10
0.0
 20
0.0
 30
0.0
  9
$PUCSXDIR
 10
1.0
 20
0.0
 30
0.0
  9
$PUCSYDIR
 10
0.0
 20
1.0
 30
0.0
  9
$USERI1
 70
     0
  9
$USERI2
 70
     0
  9
$USERI3
 70
     0
  9
$USERI4
 70
     0
  9
$USERI5
 70
     0
  9
$USERR1
 40
0.0
  9
$USERR2
 40
0.0
  9
$USERR3
 40
0.0
  9
$USERR4
 40
0.0
  9
$USERR5
 40
0.0
  9
$WORLDVIEW
 70
     1
  9
$SHADEDGE
 70
     3
  9
$SHADEDIF
 70
    70
  9
$TILEMODE
 70
     1
  9
$MAXACTVP
 70
    16
  9
$PINSBASE
 10
0.0
 20
0.0
 30
0.0
  9
$PLIMCHECK
 70
     0
  9
$PEXTMIN
 10
1.0E20
 20
1.0E20
 30
1.0E20
  9
$PEXTMAX
 10
-1.0E20
 20
-1.0E20
 30
-1.0E20
  9
$PLIMMIN
 10
0.0
 20
0.0
  9
$PLIMMAX
 10
12.0
 20
9.0
  9
$UNITMODE
 70
     0
  9
$VISRETAIN
 70
     0
  0
ENDSEC
  0
SECTION
  2
TABLES
  0
TABLE
  2
VPORT
 70
     1
  0
VPORT
  2
*ACTIVE
 70
     0
 10
0.0
 20
0.0
 11
1.0
 21
1.0
 12
6.801242
 22
4.5
 13
0.0
 23
0.0
 14
1.0
 24
1.0
 15
0.0
 25
0.0
 16
0.0
 26
0.0
 36
1.0
 17
0.0
 27
0.0
 37
0.0
 40
9.0
 41
1.511387
 42
50.0
 43
0.0
 44
0.0
 50
0.0
 51
0.0
 71
     0
 72
   100
 73
     1
 74
     1
 75
     0
 76
     0
 77
     0
 78
     0
  0
ENDTAB
  0
TABLE
  2
LTYPE
 70
    41
  0
LTYPE
  2
BYBLOCK
 70
     0
  3

 72
    65
 73
     0
 40
0.0
  0
LTYPE
  2
BYLAYER
 70
     0
  3

 72
    65
 73
     0
 40
0.0
  0
LTYPE
  2
CONTINUOUS
 70
     0
  3
Solid line
 72
    65
 73
     0
 40
0.0
  0
LTYPE
  2
BORDER
 70
    64
  3
__ __ . __ __ . __ __ . __ __ . __ __ . __ __ .
 72
    65
 73
     6
 40
1.75
 49
0.5
 49
-0.25
 49
0.5
 49
-0.25
 49
0.0
 49
-0.25
  0
LTYPE
  2
BORDER2
 70
    64
  3
__.__.__.__.__.__.__.__.__.__.__.__.__.__.__.__
 72
    65
 73
     6
 40
0.875
 49
0.25
 49
-0.125
 49
0.25
 49
-0.125
 49
0.0
 49
-0.125
  0
LTYPE
  2
BORDERX2
 70
    64
  3
____  ____  .  ____  ____  .  ____  ____  .  __
 72
    65
 73
     6
 40
3.5
 49
1.0
 49
-0.5
 49
1.0
 49
-0.5
 49
0.0
 49
-0.5
  0
LTYPE
  2
CENTER
 70
    64
  3
____ _ ____ _ ____ _ ____ _ ____ _ ____ _ ____
 72
    65
 73
     4
 40
2.0
 49
1.25
 49
-0.25
 49
0.25
 49
-0.25
  0
LTYPE
  2
CENTER2
 70
    64
  3
___ _ ___ _ ___ _ ___ _ ___ _ ___ _ ___ _ ___ _
 72
    65
 73
     4
 40
1.125
 49
0.75
 49
-0.125
 49
0.125
 49
-0.125
  0
LTYPE
  2
CENTERX2
 70
    64
  3
________  __  ________  __  ________  __  _____
 72
    65
 73
     4
 40
4.0
 49
2.5
 49
-0.5
 49
0.5
 49
-0.5
  0
LTYPE
  2
DASHDOT
 70
    64
  3
__ . __ . __ . __ . __ . __ . __ . __ . __ . __
 72
    65
 73
     4
 40
1.0
 49
0.5
 49
-0.25
 49
0.0
 49
-0.25
  0
LTYPE
  2
DASHDOT2
 70
    64
  3
_._._._._._._._._._._._._._._._._._._._._._._._
 72
    65
 73
     4
 40
0.5
 49
0.25
 49
-0.125
 49
0.0
 49
-0.125
  0
LTYPE
  2
DASHDOTX2
 70
    64
  3
____  .  ____  .  ____  .  ____  .  ____  .  __
 72
    65
 73
     4
 40
2.0
 49
1.0
 49
-0.5
 49
0.0
 49
-0.5
  0
LTYPE
  2
DASHED
 70
    64
  3
__ __ __ __ __ __ __ __ __ __ __ __ __ __ __ __
 72
    65
 73
     2
 40
0.75
 49
0.5
 49
-0.25
  0
LTYPE
  2
DASHED2
 70
    64
  3
_ _ _ _ _ _ _ _ _ _ _ _ _ _ _ _ _ _ _ _ _ _ _ _
 72
    65
 73
     2
 40
0.375
 49
0.25
 49
-0.125
  0
LTYPE
  2
DASHEDX2
 70
    64
  3
____  ____  ____  ____  ____  ____  ____  ____
 72
    65
 73
     2
 40
1.5
 49
1.0
 49
-0.5
  0
LTYPE
  2
DIVIDE
 70
    64
  3
____ . . ____ . . ____ . . ____ . . ____ . . __
 72
    65
 73
     6
 40
1.25
 49
0.5
 49
-0.25
 49
0.0
 49
-0.25
 49
0.0
 49
-0.25
  0
LTYPE
  2
DIVIDE2
 70
    64
  3
__..__..__..__..__..__..__..__..__..__..__..__.
 72
    65
 73
     6
 40
0.625
 49
0.25
 49
-0.125
 49
0.0
 49
-0.125
 49
0.0
 49
-0.125
  0
LTYPE
  2
DIVIDEX2
 70
    64
  3
________  .  .  ________  .  .  ________  .  .
 72
    65
 73
     6
 40
2.5
 49
1.0
 49
-0.5
 49
0.0
 49
-0.5
 49
0.0
 49
-0.5
  0
LTYPE
  2
DOT
 70
    64
  3
. . . . . . . . . . . . . . . . . . . . . . . .
 72
    65
 73
     2
 40
0.25
 49
0.0
 49
-0.25
  0
LTYPE
  2
DOT2
 70
    64
  3
...............................................
 72
    65
 73
     2
 40
0.125
 49
0.0
 49
-0.125
  0
LTYPE
  2
DOTX2
 70
    64
  3
.  .  .  .  .  .  .  .  .  .  .  .  .  .  .  .
 72
    65
 73
     2
 40
0.5
 49
0.0
 49
-0.5
  0
LTYPE
  2
HIDDEN
 70
    64
  3
__ __ __ __ __ __ __ __ __ __ __ __ __ __ __ __
 72
    65
 73
     2
 40
0.375
 49
0.25
 49
-0.125
  0
LTYPE
  2
HIDDEN2
 70
    64
  3
_ _ _ _ _ _ _ _ _ _ _ _ _ _ _ _ _ _ _ _ _ _ _ _
 72
    65
 73
     2
 40
0.1875
 49
0.125
 49
-0.0625
  0
LTYPE
  2
HIDDENX2
 70
    64
  3
____ ____ ____ ____ ____ ____ ____ ____ ____ __
 72
    65
 73
     2
 40
0.75
 49
0.5
 49
-0.25
  0
LTYPE
  2
PHANTOM
 70
    64
  3
______  __  __  ______  __  __  ______  __  __
 72
    65
 73
     6
 40
2.5
 49
1.25
 49
-0.25
 49
0.25
 49
-0.25
 49
0.25
 49
-0.25
  0
LTYPE
  2
PHANTOM2
 70
    64
  3
___ _ _ ___ _ _ ___ _ _ ___ _ _ ___ _ _ ___ _ _
 72
    65
 73
     6
 40
1.25
 49
0.625
 49
-0.125
 49
0.125
 49
-0.125
 49
0.125
 49
-0.125
  0
LTYPE
  2
PHANTOMX2
 70
    64
  3
____________    ____    ____    ____________
 72
    65
 73
     6
 40
5.0
 49
2.5
 49
-0.5
 49
0.5
 49
-0.5
 49
0.5
 49
-0.5
  0
LTYPE
  2
ACAD_ISO02W100
 70
    64
  3
__ __ __ __ __ __ __ __ __ __ __ __ __ __ __ __
 72
    65
 73
     2
 40
15.0
 49
12.0
 49
-3.0
  0
LTYPE
  2
ACAD_ISO03W100
 70
    64
  3
__    __    __    __    __    __    __    __
 72
    65
 73
     2
 40
30.0
 49
12.0
 49
-18.0
  0
LTYPE
  2
ACAD_ISO04W100
 70
    64
  3
____ . ____ . ____ . ____ . ____ . ____ . ____
 72
    65
 73
     4
 40
30.5
 49
24.0
 49
-3.0
 49
0.5
 49
-3.0
  0
LTYPE
  2
ACAD_ISO05W100
 70
    64
  3
____ .. ____ .. ____ .. ____ .. ____ .. ____ ..
 72
    65
 73
     6
 40
34.0
 49
24.0
 49
-3.0
 49
0.5
 49
-3.0
 49
0.5
 49
-3.0
  0
LTYPE
  2
ACAD_ISO06W100
 70
    64
  3
____ ... ____ ... ____ ... ____ ... ____ ... __
 72
    65
 73
     8
 40
37.5
 49
24.0
 49
-3.0
 49
0.5
 49
-3.0
 49
0.5
 49
-3.0
 49
0.5
 49
-3.0
  0
LTYPE
  2
ACAD_ISO07W100
 70
    64
  3
. . . . . . . . . . . . . . . . . . . . . . . .
 72
    65
 73
     2
 40
3.5
 49
0.5
 49
-3.0
  0
LTYPE
  2
ACAD_ISO08W100
 70
    64
  3
____ __ ____ __ ____ __ ____ ____ __ __ ____ __
 72
    65
 73
     4
 40
36.0
 49
24.0
 49
-3.0
 49
6.0
 49
-3.0
  0
LTYPE
  2
ACAD_ISO09W100
 70
    64
  3
____ __ __ ____ __ __ ____ __ __ ____ __ __ ___
 72
    65
 73
     6
 40
45.0
 49
24.0
 49
-3.0
 49
6.0
 49
-3.0
 49
6.0
 49
-3.0
  0
LTYPE
  2
ACAD_ISO10W100
 70
    64
  3
__ . __ . __ . __ . __ . __ . __ . __ . __ . __
 72
    65
 73
     4
 40
18.5
 49
12.0
 49
-3.0
 49
0.5
 49
-3.0
  0
LTYPE
  2
ACAD_ISO11W100
 70
    64
  3
__ __ . __ __ . __ __ . __ __ . __ __ . __ __ .
 72
    65
 73
     6
 40
33.5
 49
12.0
 49
-3.0
 49
12.0
 49
-3.0
 49
0.5
 49
-3.0
  0
LTYPE
  2
ACAD_ISO12W100
 70
    64
  3
__ . . __ . . __ . . __ . . __ . . __ . . __ .
 72
    65
 73
     6
 40
22.0
 49
12.0
 49
-3.0
 49
0.5
 49
-3.0
 49
0.5
 49
-3.0
  0
LTYPE
  2
ACAD_ISO13W100
 70
    64
  3
__ __ . . __ __ . . __ __ . . __ __ . . __ __ .
 72
    65
 73
     8
 40
37.0
 49
12.0
 49
-3.0
 49
12.0
 49
-3.0
 49
0.5
 49
-3.0
 49
0.5
 49
-3.0
  0
LTYPE
  2
ACAD_ISO14W100
 70
    64
  3
__ . . . __ . . . __ . . . __ . . . __ . . . __
 72
    65
 73
     8
 40
25.5
 49
12.0
 49
-3.0
 49
0.5
 49
-3.0
 49
0.5
 49
-3.0
 49
0.5
 49
-3.0
  0
LTYPE
  2
ACAD_ISO15W100
 70
    64
  3
__ __ . . . __ __ . . . __ __ . . . __ __ . . .
 72
    65
 73
    10
 40
40.5
 49
12.0
 49
-3.0
 49
12.0
 49
-3.0
 49
0.5
 49
-3.0
 49
0.5
 49
-3.0
 49
0.5
 49
-3.0
  0
ENDTAB
  0
TABLE
  2
STYLE
 70
     4
  0
STYLE
  2
STANDARD
 70
    64
 40
0.0
 41
1.0
 50
0.0
 71
     0
 42
0.2
  3
txt
  4

  0
STYLE
  2
TOLERANCE
 70
    64
 40
0.0
 41
1.0
 50
0.0
 71
     0
 42
0.2
  3
../igesfont/iges1003.shx
  4

  0
STYLE
  2
ROMANS
 70
    64
 40
0.0
 41
1.0
 50
0.0
 71
     0
 42
0.2
  3
romans.shx
  4

  0
STYLE
  2
ROMANC
 70
    64
 40
0.0
 41
1.0
 50
0.0
 71
     0
 42
0.2
  3
romanc.shx
  4

  0
ENDTAB
  0
TABLE
  2
DIMSTYLE
 70
     2
  0
DIMSTYLE
  2
UNNAMED
 70
     0
  3

  4

  5

  6

  7

 40
1.0
 41
0.18
 42
0.0625
 43
0.38
 44
0.18
 45
0.0
 46
0.0
 47
0.0
 48
0.0
140
0.18
141
0.09
142
0.0
143
25.4
144
1.0
145
0.0
146
1.0
147
0.09
 71
     0
 72
     0
 73
     1
 74
     1
 75
     0
 76
     0
 77
     0
 78
     0
170
     0
171
     2
172
     0
173
     0
174
     0
175
     0
176
     0
177
     0
178
     0
  0
DIMSTYLE
  2
STANDARD
 70
     0
  3

  4

  5

  6

  7

 40
1.0
 41
0.18
 42
0.0625
 43
0.38
 44
0.18
 45
0.0
 46
0.0
 47
0.0
 48
0.0
140
0.18
141
0.09
142
0.0
143
25.4
144
1.0
145
0.0
146
1.0
147
0.09
 71
     0
 72
     0
 73
     1
 74
     1
 75
     0
 76
     0
 77
     0
 78
     0
170
     0
171
     2
172
     0
173
     0
174
     0
175
     0
176
     0
177
     0
178
     0
  0
ENDTAB
  0
TABLE
  2
LAYER
 70
     2
  0
LAYER
  2
0
 70
     0
 62
     7
  6
CONTINUOUS
  0
LAYER
  2
255
 70
     0
 62
     7
  6
CONTINUOUS
  0
ENDTAB
  0
ENDSEC
  0
SECTION
  2
BLOCKS
  0
BLOCK
  5
     B
  8
0
  6
CONTINUOUS
 62
     7
  2
*HATCH208
 70
    65
 10
0.0
 20
0.0
 30
0.0
  3
*HATCH208
  0
LINE
  5
     C
  8
0
  6
CONTINUOUS
 62
    52
 10
28.5000305175781
 20
28.7756195068359
 30
0.0
 11
32.2755928039551
 21
25.0000514984131
 31
0.0
  0
LINE
  5
     D
  8
0
  6
CONTINUOUS
 62
    52
 10
28.5000305175781
 20
33.0182609558105
 30
0.0
 11
32.5000305175781
 21
29.0182571411133
 31
0.0
  0
LINE
  5
     E
  8
0
  6
CONTINUOUS
 62
    52
 10
28.5000305175781
 20
37.2609062194824
 30
0.0
 11
32.5000305175781
 21
33.2609024047852
 31
0.0
  0
ENDBLK
  5
     F
  8
0
  6
CONTINUOUS
 62
     7
  0
BLOCK
  5
    10
  8
0
  6
CONTINUOUS
 62
     7
  2
*HATCH209
 70
    65
 10
0.0
 20
0.0
 30
0.0
  3
*HATCH209
  0
LINE
  5
    11
  8
0
  6
CONTINUOUS
 62
    52
 10
35.0000305175781
 20
18.0329666137695
 30
0.0
 11
37.9912528991699
 21
15.0417423248291
 31
0.0
  0
LINE
  5
    12
  8
0
  6
CONTINUOUS
 62
    52
 10
37.2755851745606
 20
20.0000534057617
 30
0.0
 11
37.9912528991699
 21
19.2843856811523
 31
0.0
  0
ENDBLK
  5
    13
  8
0
  6
CONTINUOUS
 62
     7
  0
BLOCK
  5
    14
  8
0
  6
CONTINUOUS
 62
     7
  2
*HATCH210
 70
    65
 10
0.0
 20
0.0
 30
0.0
  3
*HATCH210
  0
LINE
  5
    15
  8
0
  6
CONTINUOUS
 62
   210
 10
243.496063232422
 20
25.0000514984131
 30
0.0
 11
239.500076293945
 21
21.0040760040283
 31
0.0
  0
LINE
  5
    16
  8
0
  6
CONTINUOUS
 62
   210
 10
245.500030517578
 20
22.7613830566406
 30
0.0
 11
242.738708496094
 21
20.0000534057617
 31
0.0
  0
ENDBLK
  5
    17
  8
0
  6
CONTINUOUS
 62
     7
  0
BLOCK
  5
    18
  8
0
  6
CONTINUOUS
 62
     7
  2
*HATCH211
 70
    65
 10
0.0
 20
0.0
 30
0.0
  3
*HATCH211
  0
LINE
  5
    19
  8
0
  6
CONTINUOUS
 62
   210
 10
218.04020690918
 20
25.0000514984131
 30
0.0
 11
215.008804321289
 21
21.9686470031738
 31
0.0
  0
LINE
  5
    1A
  8
0
  6
CONTINUOUS
 62
   210
 10
222.282852172852
 20
25.0000514984131
 30
0.0
 11
217.282852172852
 21
20.0000534057617
 31
0.0
  0
LINE
  5
    1B
  8
0
  6
CONTINUOUS
 62
   210
 10
226.525497436523
 20
25.0000514984131
 30
0.0
 11
221.525497436523
 21
20.0000534057617
 31
0.0
  0
LINE
  5
    1C
  8
0
  6
CONTINUOUS
 62
   210
 10
230.768142700195
 20
25.0000514984131
 30
0.0
 11
225.768142700195
 21
20.0000534057617
 31
0.0
  0
LINE
  5
    1D
  8
0
  6
CONTINUOUS
 62
   210
 10
231.500076293945
 20
21.4893569946289
 30
0.0
 11
230.010772705078
 21
20.0000534057617
 31
0.0
  0
ENDBLK
  5
    1E
  8
0
  6
CONTINUOUS
 62
     7
  0
BLOCK
  5
    1F
  8
0
  6
CONTINUOUS
 62
     7
  2
*HATCH212
 70
    65
 10
0.0
 20
0.0
 30
0.0
  3
*HATCH212
  0
LINE
  5
    20
  8
0
  6
CONTINUOUS
 62
    52
 10
216.500076293945
 20
4.11710214614868
 30
0.0
 11
219.499984741211
 21
1.11719882488251
 31
0.0
  0
LINE
  5
    21
  8
0
  6
CONTINUOUS
 62
    52
 10
216.500076293945
 20
8.35974502563477
 30
0.0
 11
220.500076293945
 21
4.35974025726318
 31
0.0
  0
LINE
  5
    22
  8
0
  6
CONTINUOUS
 62
    52
 10
216.500076293945
 20
12.602388381958
 30
0.0
 11
220.500076293945
 21
8.60238361358643
 31
0.0
  0
LINE
  5
    23
  8
0
  6
CONTINUOUS
 62
    52
 10
216.500076293945
 20
16.8450317382813
 30
0.0
 11
220.500076293945
 21
12.8450269699097
 31
0.0
  0
LINE
  5
    24
  8
0
  6
CONTINUOUS
 62
    52
 10
217.587707519531
 20
20.0000534057617
 30
0.0
 11
220.500076293945
 21
17.0876693725586
 31
0.0
  0
ENDBLK
  5
    25
  8
0
  6
CONTINUOUS
 62
     7
  0
BLOCK
  5
    26
  8
0
  6
CONTINUOUS
 62
     7
  2
$2146558
 70
    64
 10
0.0
 20
0.0
 30
0.0
  3
$2146558
  0
LINE
  5
    27
  8
0
  6
CONTINUOUS
 62
     2
 10
-52.099964209298
 20
223.237096448575
 30
0.0
 11
-35.099964209298
 21
223.237096448575
 31
0.0
  0
LINE
  5
    28
  8
0
  6
CONTINUOUS
 62
     2
 10
-52.099964209298
 20
211.237096448575
 30
0.0
 11
-35.099964209298
 21
211.237096448575
 31
0.0
  0
LINE
  5
    29
  8
0
  6
CONTINUOUS
 62
     2
 10
-53.099964209298
 20
212.237096448575
 30
0.0
 11
-53.099964209298
 21
222.237096448575
 31
0.0
  0
LINE
  5
    2A
  8
0
  6
CONTINUOUS
 62
     2
 10
-34.099964209298
 20
212.237096448575
 30
0.0
 11
-34.099964209298
 21
222.237096448575
 31
0.0
  0
LINE
  5
    2B
  8
0
  6
CONTINUOUS
 62
     2
 10
-53.099964209298
 20
222.237096448575
 30
0.0
 11
-52.099964209298
 21
223.237096448575
 31
0.0
  0
LINE
  5
    2C
  8
0
  6
CONTINUOUS
 62
     2
 10
-53.099964209298
 20
212.237096448575
 30
0.0
 11
-52.099964209298
 21
211.237096448575
 31
0.0
  0
LINE
  5
    2D
  8
0
  6
CONTINUOUS
 62
     2
 10
-35.099964209298
 20
223.237096448575
 30
0.0
 11
-34.099964209298
 21
222.237096448575
 31
0.0
  0
LINE
  5
    2E
  8
0
  6
CONTINUOUS
 62
     2
 10
-35.099964209298
 20
211.237096448575
 30
0.0
 11
-34.099964209298
 21
212.237096448575
 31
0.0
  0
LINE
  5
    2F
  8
0
  6
CONTINUOUS
 62
     2
 10
-53.099964209298
 20
222.237096448575
 30
0.0
 11
-34.099964209298
 21
222.237096448575
 31
0.0
  0
LINE
  5
    30
  8
0
  6
CONTINUOUS
 62
     2
 10
-53.099964209298
 20
212.237096448575
 30
0.0
 11
-34.099964209298
 21
212.237096448575
 31
0.0
  0
LINE
  5
    31
  8
0
  6
CONTINUOUS
 62
     2
 10
-52.099964209298
 20
211.237096448575
 30
0.0
 11
-52.099964209298
 21
223.237096448575
 31
0.0
  0
LINE
  5
    32
  8
0
  6
CONTINUOUS
 62
     2
 10
-35.099964209298
 20
211.237096448575
 30
0.0
 11
-35.099964209298
 21
223.237096448575
 31
0.0
  0
LINE
  5
    33
  8
0
  6
CONTINUOUS
 62
    98
 10
-53.099964209298
 20
212.737096448575
 30
0.0
 11
-53.099964209298
 21
221.737096448575
 31
0.0
  0
LINE
  5
    34
  8
0
  6
CONTINUOUS
 62
    98
 10
-58.099964209298
 20
208.737096448575
 30
0.0
 11
-58.099964209298
 21
225.737096448575
 31
0.0
  0
LINE
  5
    35
  8
0
  6
CONTINUOUS
 62
    98
 10
-58.099964209298
 20
225.737096448575
 30
0.0
 11
-55.1884296840102
 21
225.737096448575
 31
0.0
  0
LINE
  5
    36
  8
0
  6
CONTINUOUS
 62
    98
 10
-58.099964209298
 20
208.737096448575
 30
0.0
 11
-55.1884296840102
 21
208.737096448575
 31
0.0
  0
LINE
  5
    37
  8
0
  6
CONTINUOUS
 62
    98
 10
-55.599964209298
 20
208.737096448575
 30
0.0
 11
-55.599964209298
 21
225.737096448575
 31
0.0
  0
LINE
  5
    38
  8
0
  6
CONTINUOUS
 62
    98
 10
-55.1884296840102
 20
208.737096448575
 30
0.0
 11
-55.1884296840102
 21
210.237096448577
 31
0.0
  0
LINE
  5
    39
  8
0
  6
CONTINUOUS
 62
    98
 10
-55.1884296840102
 20
221.737096448575
 30
0.0
 11
-53.099964209298
 21
221.737096448575
 31
0.0
  0
LINE
  5
    3A
  8
0
  6
CONTINUOUS
 62
    98
 10
-55.1884296840102
 20
212.737096448575
 30
0.0
 11
-53.099964209298
 21
212.737096448575
 31
0.0
  0
ARC
  5
    3B
  8
0
  6
CONTINUOUS
 62
    98
 10
-30.7911578871332
 20
217.237096448575
 30
0.0
 40
24.8088063221649
 50
169.549429087188
 51
190.450570912812
  0
LINE
  5
    3C
  8
0
  6
CONTINUOUS
 62
    98
 10
-55.1884296840102
 20
221.737096448576
 30
0.0
 11
-55.1884296840102
 21
222.237096448581
 31
0.0
  0
ARC
  5
    3D
  8
0
  6
CONTINUOUS
 62
    98
 10
-54.4384296840195
 20
211.237096448576
 30
0.0
 40
1.24999999999367
 50
126.869897645536
 51
158.314733460268
  0
ARC
  5
    3E
  8
0
  6
CONTINUOUS
 62
    98
 10
-54.4384296840122
 20
223.237096448576
 30
0.0
 40
1.24999999999803
 50
126.869897645902
 51
158.314733460726
  0
ARC
  5
    3F
  8
0
  6
CONTINUOUS
 62
    98
 10
-54.4384296840122
 20
223.237096448576
 30
0.0
 40
1.24999999999803
 50
201.685266539274
 51
233.130102354098
  0
ARC
  5
    40
  8
0
  6
CONTINUOUS
 62
    98
 10
-54.4384296840195
 20
211.237096448576
 30
0.0
 40
1.24999999999367
 50
201.685266539732
 51
233.130102354464
  0
LINE
  5
    41
  8
0
  6
CONTINUOUS
 62
    98
 10
-55.1884296840102
 20
224.237096448572
 30
0.0
 11
-55.1884296840102
 21
225.737096448575
 31
0.0
  0
LINE
  5
    42
  8
0
  6
CONTINUOUS
 62
    98
 10
-55.1884296840102
 20
212.237096448575
 30
0.0
 11
-55.1884296840102
 21
212.737096448575
 31
0.0
  0
ENDBLK
  5
    43
  8
0
  6
CONTINUOUS
 62
     7
  0
BLOCK
  5
    44
  8
0
  6
CONTINUOUS
 62
    98
  2
*HATCH213
 70
    65
 10
0.0
 20
0.0
 30
0.0
  3
*HATCH213
  0
LINE
  5
    45
  8
0
  6
CONTINUOUS
 62
    52
 10
225.500076293945
 20
52.3927764892578
 30
0.0
 11
228.892807006836
 21
49.0000534057617
 31
0.0
  0
LINE
  5
    46
  8
0
  6
CONTINUOUS
 62
    52
 10
229.135452270508
 20
53.0000534057617
 30
0.0
 11
229.500076293945
 21
52.6354141235352
 31
0.0
  0
ENDBLK
  5
    47
  8
0
  6
CONTINUOUS
 62
    98
  0
BLOCK
  5
    48
  8
0
  6
CONTINUOUS
 62
    98
  2
*HATCH214
 70
    65
 10
0.0
 20
0.0
 30
0.0
  3
*HATCH214
  0
LINE
  5
    49
  8
0
  6
CONTINUOUS
 62
    52
 10
241.500076293945
 20
51.2420082092285
 30
0.0
 11
243.742034912109
 21
49.0000534057617
 31
0.0
  0
LINE
  5
    4A
  8
0
  6
CONTINUOUS
 62
    52
 10
243.984680175781
 20
53.0000534057617
 30
0.0
 11
245.500076293945
 21
51.4846458435059
 31
0.0
  0
ENDBLK
  5
    4B
  8
0
  6
CONTINUOUS
 62
    98
  0
BLOCK
  5
    4C
  8
0
  6
CONTINUOUS
 62
    98
  2
*HATCH215
 70
    65
 10
0.0
 20
0.0
 30
0.0
  3
*HATCH215
  0
LINE
  5
    4D
  8
0
  6
CONTINUOUS
 62
    52
 10
226.072982788086
 20
20.0000534057617
 30
0.0
 11
228.572982788086
 21
17.5000534057617
 31
0.0
  0
LINE
  5
    4E
  8
0
  6
CONTINUOUS
 62
    52
 10
230.315612792969
 20
20.0000534057617
 30
0.0
 11
232.526565551758
 21
17.789098739624
 31
0.0
  0
LINE
  5
    4F
  8
0
  6
CONTINUOUS
 62
    52
 10
232.244812011719
 20
22.3135013580322
 30
0.0
 11
233.727554321289
 21
20.8307495117187
 31
0.0
  0
LINE
  5
    50
  8
0
  6
CONTINUOUS
 62
    52
 10
237.58903503418
 20
19.0905933380127
 30
0.0
 11
239.06120300293
 21
17.6184196472168
 31
0.0
  0
LINE
  5
    51
  8
0
  6
CONTINUOUS
 62
    52
 10
237.514663696289
 20
23.4076080322266
 30
0.0
 11
238.907638549805
 21
22.0146293640137
 31
0.0
  0
LINE
  5
    52
  8
0
  6
CONTINUOUS
 62
    52
 10
243.043533325195
 20
20.0000534057617
 30
0.0
 11
245.500076293945
 21
17.5434989929199
 31
0.0
  0
ENDBLK
  5
    53
  8
0
  6
CONTINUOUS
 62
    98
  0
BLOCK
  5
    54
  8
0
  6
CONTINUOUS
 62
     7
  2
*HATCH216
 70
    65
 10
0.0
 20
0.0
 30
0.0
  3
*HATCH216
  0
LINE
  5
    55
  8
0
  6
CONTINUOUS
 62
    52
 10
220.500076293945
 20
27.694278717041
 30
0.0
 11
223.194305419922
 21
25.0000514984131
 31
0.0
  0
LINE
  5
    56
  8
0
  6
CONTINUOUS
 62
    52
 10
220.500076293945
 20
31.9369201660156
 30
0.0
 11
224.500076293945
 21
27.9369163513184
 31
0.0
  0
LINE
  5
    57
  8
0
  6
CONTINUOUS
 62
    52
 10
220.500076293945
 20
36.1795654296875
 30
0.0
 11
224.500076293945
 21
32.1795616149902
 31
0.0
  0
LINE
  5
    58
  8
0
  6
CONTINUOUS
 62
    52
 10
220.500076293945
 20
40.4222106933594
 30
0.0
 11
224.500076293945
 21
36.4222068786621
 31
0.0
  0
LINE
  5
    59
  8
0
  6
CONTINUOUS
 62
    52
 10
220.500076293945
 20
44.6648559570313
 30
0.0
 11
224.500076293945
 21
40.664852142334
 31
0.0
  0
LINE
  5
    5A
  8
0
  6
CONTINUOUS
 62
    52
 10
220.500076293945
 20
48.9075012207031
 30
0.0
 11
224.500076293945
 21
44.9074974060059
 31
0.0
  0
LINE
  5
    5B
  8
0
  6
CONTINUOUS
 62
    52
 10
220.500076293945
 20
53.150146484375
 30
0.0
 11
224.500076293945
 21
49.1501426696777
 31
0.0
  0
LINE
  5
    5C
  8
0
  6
CONTINUOUS
 62
    52
 10
220.500076293945
 20
57.3927917480469
 30
0.0
 11
224.500076293945
 21
53.3927879333496
 31
0.0
  0
LINE
  5
    5D
  8
0
  6
CONTINUOUS
 62
    52
 10
221.544509887695
 20
60.5909881591797
 30
0.0
 11
224.500076293945
 21
57.6354217529297
 31
0.0
  0
ENDBLK
  5
    5E
  8
0
  6
CONTINUOUS
 62
     7
  0
BLOCK
  5
    5F
  8
0
  6
CONTINUOUS
 62
     7
  2
*HATCH217
 70
    65
 10
0.0
 20
0.0
 30
0.0
  3
*HATCH217
  0
LINE
  5
    60
  8
0
  6
CONTINUOUS
 62
     7
 10
-30.0000038146973
 20
-46.3675384521484
 30
0.0
 11
-27.7500038146973
 21
-48.6175384521484
 31
0.0
  0
ENDBLK
  5
    61
  8
0
  6
CONTINUOUS
 62
     7
  0
BLOCK
  5
    62
  8
0
  6
CONTINUOUS
 62
     7
  2
*HATCH218
 70
    65
 10
0.0
 20
0.0
 30
0.0
  3
*HATCH218
  0
LINE
  5
    63
  8
0
  6
CONTINUOUS
 62
     7
 10
-22.2500038146973
 20
-45.6322631835938
 30
0.0
 11
-19.7500038146973
 21
-48.1322631835938
 31
0.0
  0
ENDBLK
  5
    64
  8
0
  6
CONTINUOUS
 62
     7
  0
BLOCK
  5
    65
  8
0
  6
CONTINUOUS
 62
     7
  2
*HATCH219
 70
    65
 10
0.0
 20
0.0
 30
0.0
  3
*HATCH219
  0
LINE
  5
    66
  8
0
  6
CONTINUOUS
 62
     7
 10
-9.50000381469727
 20
-54.1396331787109
 30
0.0
 11
-7.63963317871094
 21
-56.0000076293945
 31
0.0
  0
LINE
  5
    67
  8
0
  6
CONTINUOUS
 62
     7
 10
-5.25000381469727
 20
-49.904354095459
 30
0.0
 11
-3.0
 21
-52.1543579101563
 31
0.0
  0
ENDBLK
  5
    68
  8
0
  6
CONTINUOUS
 62
     7
  0
BLOCK
  5
    69
  8
0
  6
CONTINUOUS
 62
     7
  2
*UDIM724
 70
    65
 10
0.0
 20
0.0
 30
0.0
  3
*UDIM724
  0
TEXT
  5
    6A
  8
0
  6
CONTINUOUS
 62
     7
 10
-171.195207634933
 20
-98.4906397533262
 30
0.0
 40
3.5
  1
145.5
 50
449.999999896069
 41
0.933333333333333
 72
     1
 11
-172.945207620803
 21
-90.6739730834961
 31
0.0
 73
     2
  0
LINE
  5
    6B
  8
0
  6
CONTINUOUS
 62
     7
 10
-132.25
 20
-54.298957824707
 30
0.0
 11
-172.195207620803
 21
-54.298957824707
 31
0.0
  0
LINE
  5
    6C
  8
0
  6
CONTINUOUS
 62
     7
 10
-97.7499829101739
 20
-127.048988342285
 30
0.0
 11
-172.195207620803
 21
-127.048988342285
 31
0.0
  0
LINE
  5
    6D
  8
0
  6
CONTINUOUS
 62
     7
 10
-170.195207620803
 20
-54.298957824707
 30
0.0
 11
-170.195207620803
 21
-127.048988342285
 31
0.0
  0
LINE
  5
    6E
  8
0
  6
CONTINUOUS
 62
     3
 10
-169.418750464385
 20
-57.1967352979176
 30
0.0
 11
-170.195207620803
 21
-54.298957824707
 31
0.0
  0
LINE
  5
    6F
  8
0
  6
CONTINUOUS
 62
     3
 10
-170.195207620803
 20
-54.298957824707
 30
0.0
 11
-170.971664777222
 21
-57.1967352979176
 31
0.0
  0
LINE
  5
    70
  8
0
  6
CONTINUOUS
 62
     3
 10
-170.971664777222
 20
-124.151210869075
 30
0.0
 11
-170.195207620803
 21
-127.048988342285
 31
0.0
  0
LINE
  5
    71
  8
0
  6
CONTINUOUS
 62
     3
 10
-170.195207620803
 20
-127.048988342285
 30
0.0
 11
-169.418750464385
 21
-124.151210869075
 31
0.0
  0
ENDBLK
  5
    72
  8
0
  6
CONTINUOUS
 62
     7
  0
BLOCK
  5
    73
  8
0
  6
CONTINUOUS
 62
     7
  2
*UDIM725
 70
    65
 10
0.0
 20
0.0
 30
0.0
  3
*UDIM725
  0
TEXT
  5
    74
  8
0
  6
CONTINUOUS
 62
     7
 10
-187.179646649727
 20
-110.240625739041
 30
0.0
 40
3.5
  1
192.5
 50
449.999999896069
 41
0.933333333333333
 72
     1
 11
-188.929646635597
 21
-102.423959069211
 31
0.0
 73
     2
  0
LINE
  5
    75
  8
0
  6
CONTINUOUS
 62
     7
 10
-132.25
 20
-54.298957824707
 30
0.0
 11
-188.179646635597
 21
-54.298957824707
 31
0.0
  0
LINE
  5
    76
  8
0
  6
CONTINUOUS
 62
     7
 10
1.25
 20
-150.548960313715
 30
0.0
 11
-188.179646635597
 21
-150.548960313715
 31
0.0
  0
LINE
  5
    77
  8
0
  6
CONTINUOUS
 62
     7
 10
-186.179646635597
 20
-54.298957824707
 30
0.0
 11
-186.179646635597
 21
-150.548960313715
 31
0.0
  0
LINE
  5
    78
  8
0
  6
CONTINUOUS
 62
     3
 10
-185.403189479178
 20
-57.1967352979176
 30
0.0
 11
-186.179646635597
 21
-54.298957824707
 31
0.0
  0
LINE
  5
    79
  8
0
  6
CONTINUOUS
 62
     3
 10
-186.179646635597
 20
-54.298957824707
 30
0.0
 11
-186.956103792015
 21
-57.1967352979176
 31
0.0
  0
LINE
  5
    7A
  8
0
  6
CONTINUOUS
 62
     3
 10
-186.956103792015
 20
-147.651182840504
 30
0.0
 11
-186.179646635597
 21
-150.548960313715
 31
0.0
  0
LINE
  5
    7B
  8
0
  6
CONTINUOUS
 62
     3
 10
-186.179646635597
 20
-150.548960313715
 30
0.0
 11
-185.403189479178
 21
-147.651182840504
 31
0.0
  0
ENDBLK
  5
    7C
  8
0
  6
CONTINUOUS
 62
     7
  0
BLOCK
  5
    7D
  8
0
  6
CONTINUOUS
 62
     3
  2
*UDIM726
 70
    65
 10
0.0
 20
0.0
 30
0.0
  3
*UDIM726
  0
TEXT
  5
    7E
  8
0
  6
CONTINUOUS
 62
     3
 10
-162.430166296476
 20
-68.2156244945371
 30
0.0
 40
3.5
  1
44
 50
449.999999896069
 41
0.933333333333333
 72
     1
 11
-164.180166291204
 21
-65.298957824707
 31
0.0
 73
     2
  0
LINE
  5
    7F
  8
0
  6
CONTINUOUS
 62
     3
 10
-132.25
 20
-54.298957824707
 30
0.0
 11
-163.430166291204
 21
-54.298957824707
 31
0.0
  0
LINE
  5
    80
  8
0
  6
CONTINUOUS
 62
     3
 10
-156.25
 20
-76.298957824707
 30
0.0
 11
-163.430166291204
 21
-76.298957824707
 31
0.0
  0
LINE
  5
    81
  8
0
  6
CONTINUOUS
 62
     3
 10
-161.430166291204
 20
-54.298957824707
 30
0.0
 11
-161.430166291204
 21
-76.298957824707
 31
0.0
  0
LINE
  5
    82
  8
0
  6
CONTINUOUS
 62
     3
 10
-160.653709134785
 20
-57.1967352979176
 30
0.0
 11
-161.430166291204
 21
-54.298957824707
 31
0.0
  0
LINE
  5
    83
  8
0
  6
CONTINUOUS
 62
     3
 10
-161.430166291204
 20
-54.298957824707
 30
0.0
 11
-162.206623447622
 21
-57.1967352979176
 31
0.0
  0
LINE
  5
    84
  8
0
  6
CONTINUOUS
 62
     3
 10
-162.206623447622
 20
-73.4011803514965
 30
0.0
 11
-161.430166291204
 21
-76.298957824707
 31
0.0
  0
LINE
  5
    85
  8
0
  6
CONTINUOUS
 62
     3
 10
-161.430166291204
 20
-76.298957824707
 30
0.0
 11
-160.653709134785
 21
-73.4011803514965
 31
0.0
  0
ENDBLK
  5
    86
  8
0
  6
CONTINUOUS
 62
     3
  0
BLOCK
  5
    87
  8
0
  6
CONTINUOUS
 62
     3
  2
*UDIM727
 70
    65
 10
0.0
 20
0.0
 30
0.0
  3
*UDIM727
  0
TEXT
  5
    88
  8
0
  6
CONTINUOUS
 62
     3
 10
-179.122169137587
 20
-102.102045763253
 30
0.0
 40
3.5
  1
178
 50
449.999999896069
 41
0.933333333333333
 72
     1
 11
-180.872169129362
 21
-97.5520457600897
 31
0.0
 73
     2
  0
LINE
  5
    89
  8
0
  6
CONTINUOUS
 62
     3
 10
-132.25
 20
-54.298957824707
 30
0.0
 11
-180.122169129362
 21
-54.298957824707
 31
0.0
  0
LINE
  5
    8A
  8
0
  6
CONTINUOUS
 62
     3
 10
-79.2747789507486
 20
-143.296514625419
 30
0.0
 11
-180.122169129362
 21
-143.296514625419
 31
0.0
  0
LINE
  5
    8B
  8
0
  6
CONTINUOUS
 62
     3
 10
-178.122169129362
 20
-54.298957824707
 30
0.0
 11
-178.122169129362
 21
-143.296514625419
 31
0.0
  0
LINE
  5
    8C
  8
0
  6
CONTINUOUS
 62
     3
 10
-177.345711972943
 20
-57.1967352979176
 30
0.0
 11
-178.122169129362
 21
-54.298957824707
 31
0.0
  0
LINE
  5
    8D
  8
0
  6
CONTINUOUS
 62
     3
 10
-178.122169129362
 20
-54.298957824707
 30
0.0
 11
-178.89862628578
 21
-57.1967352979176
 31
0.0
  0
LINE
  5
    8E
  8
0
  6
CONTINUOUS
 62
     3
 10
-178.89862628578
 20
-140.398737152209
 30
0.0
 11
-178.122169129362
 21
-143.296514625419
 31
0.0
  0
LINE
  5
    8F
  8
0
  6
CONTINUOUS
 62
     3
 10
-178.122169129362
 20
-143.296514625419
 30
0.0
 11
-177.345711972943
 21
-140.398737152209
 31
0.0
  0
ENDBLK
  5
    90
  8
0
  6
CONTINUOUS
 62
     3
  0
BLOCK
  5
    91
  8
0
  6
CONTINUOUS
 62
     7
  2
*UDIM728
 70
    65
 10
0.0
 20
0.0
 30
0.0
  3
*UDIM728
  0
TEXT
  5
    92
  8
0
  6
CONTINUOUS
 62
     7
 10
38.6075800707941
 20
-39.7000942676337
 30
0.0
 40
2.499995470047
  1
COPPIA DI SERRAGGIO
 50
359.999999896069
 41
0.933333333333333
 72
     1
 11
60.5242070271339
 21
-38.4500965722555
 31
0.0
 73
     2
  0
TEXT
  5
    93
  8
0
  6
CONTINUOUS
 62
     7
 10
38.6075796424225
 20
-44.6000942631184
 30
0.0
 40
2.499995470047
  1
THIGHTENING TORQUE
 50
359.999999896069
 41
0.933333333333333
 72
     1
 11
59.3575420460737
 21
-43.3500965656299
 31
0.0
 73
     2
  0
TEXT
  5
    94
  8
0
  6
CONTINUOUS
 62
     7
 10
38.6075792140509
 20
-49.5000931598939
 30
0.0
 40
2.499995470047
  1
3.7 Nm
 50
359.999999896069
 41
0.933333333333333
 72
     1
 11
45.3575669854389
 21
-48.2500954370806
 31
0.0
 73
     2
  0
LINE
  5
    95
  8
0
  6
CONTINUOUS
 62
     7
 10
38.6075789321882
 20
-51.5000925820014
 30
0.0
 11
82.4408328403454
 21
-51.5000964140263
 31
0.0
  0
ENDBLK
  5
    96
  8
0
  6
CONTINUOUS
 62
     7
  0
BLOCK
  5
    97
  8
0
  6
CONTINUOUS
 62
     7
  2
*UDIM729
 70
    65
 10
0.0
 20
0.0
 30
0.0
  3
*UDIM729
  0
TEXT
  5
    98
  8
0
  6
CONTINUOUS
 62
     7
 10
-169.807179899707
 20
32.8991246640704
 30
0.0
 40
3.5
  1
150
 50
90.0
 41
0.933333333333333
 72
     1
 11
-171.557179899713
 21
37.4491246640682
 31
0.0
 73
     2
  0
LINE
  5
    99
  8
0
  6
CONTINUOUS
 62
     7
 10
-7.28984754835517
 20
0.304249763488754
 30
0.0
 11
-170.807179899713
 21
0.304249763488755
 31
0.0
  0
LINE
  5
    9A
  8
0
  6
CONTINUOUS
 62
     7
 10
-130.0
 20
75.3042497634888
 30
0.0
 11
-170.807179899713
 21
75.3042497634888
 31
0.0
  0
LINE
  5
    9B
  8
0
  6
CONTINUOUS
 62
     7
 10
-168.807179899713
 20
0.304249763488755
 30
0.0
 11
-168.807179899713
 21
75.3042497634888
 31
0.0
  0
LINE
  5
    9C
  8
0
  6
CONTINUOUS
 62
     3
 10
-169.583637056132
 20
3.20202723669929
 30
0.0
 11
-168.807179899713
 21
0.304249763488755
 31
0.0
  0
LINE
  5
    9D
  8
0
  6
CONTINUOUS
 62
     3
 10
-168.807179899713
 20
0.304249763488755
 30
0.0
 11
-168.030722743295
 21
3.20202723669929
 31
0.0
  0
LINE
  5
    9E
  8
0
  6
CONTINUOUS
 62
     3
 10
-168.030722743295
 20
72.4064722902782
 30
0.0
 11
-168.807179899713
 21
75.3042497634888
 31
0.0
  0
LINE
  5
    9F
  8
0
  6
CONTINUOUS
 62
     3
 10
-168.807179899713
 20
75.3042497634888
 30
0.0
 11
-169.583637056132
 21
72.4064722902782
 31
0.0
  0
ENDBLK
  5
    A0
  8
0
  6
CONTINUOUS
 62
     7
  0
BLOCK
  5
    A1
  8
0
  6
CONTINUOUS
 62
     7
  2
*UDIM730
 70
    65
 10
0.0
 20
0.0
 30
0.0
  3
*UDIM730
  0
TEXT
  5
    A2
  8
0
  6
CONTINUOUS
 62
     7
 10
-67.0499997742147
 20
85.3042497634888
 30
0.0
 40
3.5
  1
250
 41
0.933333333333333
 72
     1
 11
-62.4999997742147
 21
87.0542497634888
 31
0.0
 73
     2
  0
LINE
  5
    A3
  8
0
  6
CONTINUOUS
 62
     7
 10
-125.0
 20
80.3042497634888
 30
0.0
 11
-125.0
 21
86.3042497634888
 31
0.0
  0
LINE
  5
    A4
  8
0
  6
CONTINUOUS
 62
     7
 10
4.51570648353736E-7
 20
3.5908802263461
 30
0.0
 11
4.51570642060401E-7
 21
86.3042497634888
 31
0.0
  0
LINE
  5
    A5
  8
0
  6
CONTINUOUS
 62
     7
 10
-125.0
 20
84.3042497634888
 30
0.0
 11
4.51570642212573E-7
 21
84.3042497634888
 31
0.0
  0
LINE
  5
    A6
  8
0
  6
CONTINUOUS
 62
     3
 10
-122.102222526789
 20
85.0807069199073
 30
0.0
 11
-125.0
 21
84.3042497634888
 31
0.0
  0
LINE
  5
    A7
  8
0
  6
CONTINUOUS
 62
     3
 10
-125.0
 20
84.3042497634888
 30
0.0
 11
-122.102222526789
 21
83.5277926070702
 31
0.0
  0
LINE
  5
    A8
  8
0
  6
CONTINUOUS
 62
     3
 10
-2.89777702163989
 20
83.5277926070702
 30
0.0
 11
4.51570642212573E-7
 21
84.3042497634888
 31
0.0
  0
LINE
  5
    A9
  8
0
  6
CONTINUOUS
 62
     3
 10
4.51570642212573E-7
 20
84.3042497634888
 30
0.0
 11
-2.89777702163989
 21
85.0807069199073
 31
0.0
  0
ENDBLK
  5
    AA
  8
0
  6
CONTINUOUS
 62
     7
  0
BLOCK
  5
    AB
  8
0
  6
CONTINUOUS
 62
     7
  2
*UDIM731
 70
    65
 10
0.0
 20
0.0
 30
0.0
  3
*UDIM731
  0
TEXT
  5
    AC
  8
0
  6
CONTINUOUS
 62
     7
 10
-179.824587169338
 20
32.6813549518607
 30
0.0
 40
3.5
  1
159
 50
90.0
 41
0.933333333333333
 72
     1
 11
-181.574587169343
 21
37.2313549518585
 31
0.0
 73
     2
  0
LINE
  5
    AD
  8
0
  6
CONTINUOUS
 62
     7
 10
-5.0
 20
-1.94575023651123
 30
0.0
 11
-180.824587169343
 21
-1.94575023651123
 31
0.0
  0
LINE
  5
    AE
  8
0
  6
CONTINUOUS
 62
     7
 10
-137.25
 20
77.5542497634888
 30
0.0
 11
-180.824587169343
 21
77.5542497634888
 31
0.0
  0
LINE
  5
    AF
  8
0
  6
CONTINUOUS
 62
     7
 10
-178.824587169343
 20
-1.94575023651123
 30
0.0
 11
-178.824587169343
 21
77.5542497634888
 31
0.0
  0
LINE
  5
    B0
  8
0
  6
CONTINUOUS
 62
     3
 10
-179.601044325762
 20
0.952027236699304
 30
0.0
 11
-178.824587169343
 21
-1.94575023651123
 31
0.0
  0
LINE
  5
    B1
  8
0
  6
CONTINUOUS
 62
     3
 10
-178.824587169343
 20
-1.94575023651123
 30
0.0
 11
-178.048130012925
 21
0.952027236699304
 31
0.0
  0
LINE
  5
    B2
  8
0
  6
CONTINUOUS
 62
     3
 10
-178.048130012925
 20
74.6564722902783
 30
0.0
 11
-178.824587169343
 21
77.5542497634888
 31
0.0
  0
LINE
  5
    B3
  8
0
  6
CONTINUOUS
 62
     3
 10
-178.824587169343
 20
77.5542497634888
 30
0.0
 11
-179.601044325762
 21
74.6564722902783
 31
0.0
  0
ENDBLK
  5
    B4
  8
0
  6
CONTINUOUS
 62
     7
  0
BLOCK
  5
    B5
  8
0
  6
CONTINUOUS
 62
     7
  2
*UDIM732
 70
    65
 10
0.0
 20
0.0
 30
0.0
  3
*UDIM732
  0
TEXT
  5
    B6
  8
0
  6
CONTINUOUS
 62
     7
 10
-79.3
 20
-16.9328538813078
 30
0.0
 40
3.5
  1
322
 41
0.933333333333333
 72
     1
 11
-74.75
 21
-15.1828538813078
 31
0.0
 73
     2
  0
LINE
  5
    B7
  8
0
  6
CONTINUOUS
 62
     7
 10
-155.25
 20
2.80424976348877
 30
0.0
 11
-155.25
 21
-19.9328538813079
 31
0.0
  0
LINE
  5
    B8
  8
0
  6
CONTINUOUS
 62
     7
 10
5.75
 20
2.80424976348877
 30
0.0
 11
5.75
 21
-19.9328538813079
 31
0.0
  0
LINE
  5
    B9
  8
0
  6
CONTINUOUS
 62
     7
 10
-155.25
 20
-17.9328538813079
 30
0.0
 11
5.75
 21
-17.9328538813079
 31
0.0
  0
LINE
  5
    BA
  8
0
  6
CONTINUOUS
 62
     3
 10
-152.352222526789
 20
-17.1563967248893
 30
0.0
 11
-155.25
 21
-17.9328538813079
 31
0.0
  0
LINE
  5
    BB
  8
0
  6
CONTINUOUS
 62
     3
 10
-155.25
 20
-17.9328538813079
 30
0.0
 11
-152.352222526789
 21
-18.7093110377264
 31
0.0
  0
LINE
  5
    BC
  8
0
  6
CONTINUOUS
 62
     3
 10
2.85222252678947
 20
-18.7093110377264
 30
0.0
 11
5.75
 21
-17.9328538813079
 31
0.0
  0
LINE
  5
    BD
  8
0
  6
CONTINUOUS
 62
     3
 10
5.75
 20
-17.9328538813079
 30
0.0
 11
2.85222252678947
 21
-17.1563967248893
 31
0.0
  0
ENDBLK
  5
    BE
  8
0
  6
CONTINUOUS
 62
     7
  0
BLOCK
  5
    BF
  8
0
  6
CONTINUOUS
 62
     7
  2
*UDIM733
 70
    65
 10
0.0
 20
0.0
 30
0.0
  3
*UDIM733
  0
TEXT
  5
    C0
  8
0
  6
CONTINUOUS
 62
     7
 10
-18.6447493520548
 20
-10.0386804258039
 30
0.0
 40
3.5
  1
11.5
 41
0.933333333333333
 72
     1
 11
-12.4614160187215
 21
-8.28868042580393
 31
0.0
 73
     2
  0
LINE
  5
    C1
  8
0
  6
CONTINUOUS
 62
     7
 10
4.51570648429822E-7
 20
-5.79420069023805
 30
0.0
 11
4.51570648429822E-7
 21
-13.0386804258039
 31
0.0
  0
LINE
  5
    C2
  8
0
  6
CONTINUOUS
 62
     7
 10
5.75
 20
2.80424976348877
 30
0.0
 11
5.75
 21
-13.0386804258039
 31
0.0
  0
LINE
  5
    C3
  8
0
  6
CONTINUOUS
 62
     7
 10
-18.6447493520548
 20
-11.0386804258039
 30
0.0
 11
10.75
 21
-11.0386804258039
 31
0.0
  0
LINE
  5
    C4
  8
0
  6
CONTINUOUS
 62
     3
 10
-2.89777702163989
 20
-11.8151375822225
 30
0.0
 11
4.51570648429822E-7
 21
-11.0386804258039
 31
0.0
  0
LINE
  5
    C5
  8
0
  6
CONTINUOUS
 62
     3
 10
4.51570648429822E-7
 20
-11.0386804258039
 30
0.0
 11
-2.89777702163989
 21
-10.2622232693854
 31
0.0
  0
LINE
  5
    C6
  8
0
  6
CONTINUOUS
 62
     3
 10
8.64777747321054
 20
-10.2622232693854
 30
0.0
 11
5.75
 21
-11.0386804258039
 31
0.0
  0
LINE
  5
    C7
  8
0
  6
CONTINUOUS
 62
     3
 10
5.75
 20
-11.0386804258039
 30
0.0
 11
8.64777747321054
 21
-11.8151375822225
 31
0.0
  0
ENDBLK
  5
    C8
  8
0
  6
CONTINUOUS
 62
     7
  0
BLOCK
  5
    C9
  8
0
  6
CONTINUOUS
 62
     7
  2
*UDIM734
 70
    65
 10
0.0
 20
0.0
 30
0.0
  3
*UDIM734
  0
TEXT
  5
    CA
  8
0
  6
CONTINUOUS
 62
     7
 10
24.5399392052646
 20
9.88758309682429
 30
0.0
 40
3.5
  1
50
 50
90.0
 41
0.933333333333333
 72
     1
 11
22.7899392052609
 21
12.8042497634888
 31
0.0
 73
     2
  0
LINE
  5
    CB
  8
0
  6
CONTINUOUS
 62
     3
 10
19.802410750022
 20
0.304249763488754
 30
0.0
 11
27.5399392052609
 21
0.304249763488754
 31
0.0
  0
LINE
  5
    CC
  8
0
  6
CONTINUOUS
 62
     3
 10
16.4590796937702
 20
25.3042497634888
 30
0.0
 11
27.5399392052609
 21
25.3042497634888
 31
0.0
  0
LINE
  5
    CD
  8
0
  6
CONTINUOUS
 62
     3
 10
25.5399392052609
 20
0.304249763488754
 30
0.0
 11
25.5399392052609
 21
25.3042497634888
 31
0.0
  0
LINE
  5
    CE
  8
0
  6
CONTINUOUS
 62
     3
 10
24.7634820488424
 20
3.20202723669929
 30
0.0
 11
25.5399392052609
 21
0.304249763488754
 31
0.0
  0
LINE
  5
    CF
  8
0
  6
CONTINUOUS
 62
     3
 10
25.5399392052609
 20
0.304249763488754
 30
0.0
 11
26.3163963616795
 21
3.20202723669929
 31
0.0
  0
LINE
  5
    D0
  8
0
  6
CONTINUOUS
 62
     7
 10
26.3163963616795
 20
22.4064722902782
 30
0.0
 11
25.5399392052609
 21
25.3042497634888
 31
0.0
  0
LINE
  5
    D1
  8
0
  6
CONTINUOUS
 62
     7
 10
25.5399392052609
 20
25.3042497634888
 30
0.0
 11
24.7634820488424
 21
22.4064722902782
 31
0.0
  0
ENDBLK
  5
    D2
  8
0
  6
CONTINUOUS
 62
     7
  0
BLOCK
  5
    D3
  8
0
  6
CONTINUOUS
 62
     7
  2
*UDIM735
 70
    65
 10
0.0
 20
0.0
 30
0.0
  3
*UDIM735
  0
TEXT
  5
    D4
  8
0
  6
CONTINUOUS
 62
     7
 10
24.5399392052646
 20
34.8875830968243
 30
0.0
 40
3.5
  1
50
 50
90.0
 41
0.933333333333333
 72
     1
 11
22.7899392052609
 21
37.8042497634888
 31
0.0
 73
     2
  0
LINE
  5
    D5
  8
0
  6
CONTINUOUS
 62
     3
 10
16.9955227388718
 20
50.3042497634888
 30
0.0
 11
27.5399392052609
 21
50.3042497634888
 31
0.0
  0
LINE
  5
    D6
  8
0
  6
CONTINUOUS
 62
     3
 10
25.5399392052609
 20
25.3042497634888
 30
0.0
 11
25.5399392052609
 21
50.3042497634888
 31
0.0
  0
LINE
  5
    D7
  8
0
  6
CONTINUOUS
 62
     7
 10
24.7634820488424
 20
28.2020272366993
 30
0.0
 11
25.5399392052609
 21
25.3042497634888
 31
0.0
  0
LINE
  5
    D8
  8
0
  6
CONTINUOUS
 62
     7
 10
25.5399392052609
 20
25.3042497634888
 30
0.0
 11
26.3163963616795
 21
28.2020272366993
 31
0.0
  0
LINE
  5
    D9
  8
0
  6
CONTINUOUS
 62
     3
 10
26.3163963616795
 20
47.4064722902782
 30
0.0
 11
25.5399392052609
 21
50.3042497634888
 31
0.0
  0
LINE
  5
    DA
  8
0
  6
CONTINUOUS
 62
     3
 10
25.5399392052609
 20
50.3042497634888
 30
0.0
 11
24.7634820488424
 21
47.4064722902782
 31
0.0
  0
ENDBLK
  5
    DB
  8
0
  6
CONTINUOUS
 62
     7
  0
BLOCK
  5
    DC
  8
0
  6
CONTINUOUS
 62
     7
  2
*UDIM736
 70
    65
 10
0.0
 20
0.0
 30
0.0
  3
*UDIM736
  0
TEXT
  5
    DD
  8
0
  6
CONTINUOUS
 62
     7
 10
38.5603901957631
 20
-14.6548739181376
 30
0.0
 40
2.499995470047
  1
COPPIA DI SERRAGGIO
 41
0.933333333333333
 72
     1
 11
60.4770171498418
 21
-13.4048761831141
 31
0.0
 73
     2
  0
TEXT
  5
    DE
  8
0
  6
CONTINUOUS
 62
     7
 10
38.5603901957631
 20
-19.5548740135051
 30
0.0
 40
2.499995470047
  1
THIGHTENING TORQUE
 41
0.933333333333333
 72
     1
 11
59.3103525971532
 21
-18.3048762784816
 31
0.0
 73
     2
  0
TEXT
  5
    DF
  8
0
  6
CONTINUOUS
 62
     7
 10
38.5603901957631
 20
-24.4548741088725
 30
0.0
 40
2.499995470047
  1
3.7 Nm
 41
0.933333333333333
 72
     1
 11
45.31037796489
 21
-23.204876373849
 31
0.0
 73
     2
  0
LINE
  5
    E0
  8
0
  6
CONTINUOUS
 62
     7
 10
38.5603901957631
 20
-26.4548741088725
 30
0.0
 11
82.3936441039205
 21
-26.4548741088725
 31
0.0
  0
ENDBLK
  5
    E1
  8
0
  6
CONTINUOUS
 62
     7
  0
ENDSEC
  0
SECTION
  2
ENTITIES
  0
LINE
  5
    E2
  8
0
  6
CONTINUOUS
 62
     7
 10
94.5295257568359
 20
73.5
 30
0.0
 11
94.5295257568359
 21
48.5
 31
0.0
  0
LINE
  5
    E3
  8
0
  6
CONTINUOUS
 62
     7
 10
72.5295257568359
 20
77.25
 30
0.0
 11
72.5295257568359
 21
-2.25
 31
0.0
  0
LINE
  5
    E4
  8
0
  6
CONTINUOUS
 62
     7
 10
91.5295257568359
 20
67.25
 30
0.0
 11
91.5295257568359
 21
64.75
 31
0.0
  0
LINE
  5
    E5
  8
0
  6
CONTINUOUS
 62
     7
 10
72.5295257568359
 20
3.5
 30
0.0
 11
98.0295257568359
 21
3.5
 31
0.0
  0
LINE
  5
    E6
  8
0
  6
CONTINUOUS
 62
     7
 10
77.0295257568359
 20
68.5
 30
0.0
 11
93.5295257568359
 21
68.5
 31
0.0
  0
LINE
  5
    E7
  8
0
  6
CONTINUOUS
 62
     7
 10
77.0295257568359
 20
67.25
 30
0.0
 11
91.5295257568359
 21
67.25
 31
0.0
  0
LINE
  5
    E8
  8
0
  6
CONTINUOUS
 62
     7
 10
77.0295257568359
 20
64.75
 30
0.0
 11
91.5295257568359
 21
64.75
 31
0.0
  0
LINE
  5
    E9
  8
0
  6
CONTINUOUS
 62
     7
 10
77.0295257568359
 20
63.5
 30
0.0
 11
91.5295257568359
 21
63.5
 31
0.0
  0
LINE
  5
    EA
  8
0
  6
CONTINUOUS
 62
     7
 10
77.0295257568359
 20
4.75
 30
0.0
 11
91.5295257568359
 21
4.75
 31
0.0
  0
LINE
  5
    EB
  8
0
  6
CONTINUOUS
 62
     7
 10
77.0295257568359
 20
7.25
 30
0.0
 11
91.5295257568359
 21
7.25
 31
0.0
  0
LINE
  5
    EC
  8
0
  6
CONTINUOUS
 62
     7
 10
77.0295257568359
 20
8.5
 30
0.0
 11
91.5295257568359
 21
8.5
 31
0.0
  0
LINE
  5
    ED
  8
0
  6
CONTINUOUS
 62
     7
 10
91.5295257568359
 20
63.5
 30
0.0
 11
91.5295257568359
 21
8.5
 31
0.0
  0
LINE
  5
    EE
  8
0
  6
CONTINUOUS
 62
     7
 10
91.5295257568359
 20
7.25
 30
0.0
 11
91.5295257568359
 21
4.75
 31
0.0
  0
LINE
  5
    EF
  8
0
  6
CONTINUOUS
 62
     2
 10
89.1545257568359
 20
77.25
 30
0.0
 11
89.1545257568359
 21
68.5
 31
0.0
  0
LINE
  5
    F0
  8
0
  6
CONTINUOUS
 62
     7
 10
72.5295257568359
 20
77.25
 30
0.0
 11
89.9045257568359
 21
77.25
 31
0.0
  0
LINE
  5
    F1
  8
0
  6
CONTINUOUS
 62
     7
 10
89.9045257568359
 20
74.5
 30
0.0
 11
93.5295257568359
 21
74.5
 31
0.0
  0
LINE
  5
    F2
  8
0
  6
CONTINUOUS
 62
     7
 10
89.9045257568359
 20
73.25
 30
0.0
 11
94.5295257568359
 21
73.25
 31
0.0
  0
LINE
  5
    F3
  8
0
  6
CONTINUOUS
 62
     7
 10
89.1545257568359
 20
0.5
 30
0.0
 11
89.1545257568359
 21
-1.25
 31
0.0
  0
LINE
  5
    F4
  8
0
  6
CONTINUOUS
 62
     7
 10
72.5295257568359
 20
-2.25
 30
0.0
 11
88.1545257568359
 21
-2.25
 31
0.0
  0
LINE
  5
    F5
  8
0
  6
CONTINUOUS
 62
     7
 10
81.0295257568359
 20
0.5
 30
0.0
 11
93.5295257568359
 21
0.5
 31
0.0
  0
LINE
  5
    F6
  8
0
  6
CONTINUOUS
 62
     7
 10
81.0295257568359
 20
3.5
 30
0.0
 11
81.0295257568359
 21
0.5
 31
0.0
  0
LINE
  5
    F7
  8
0
  6
CONTINUOUS
 62
     7
 10
90.2795257568359
 20
50.5
 30
0.0
 11
90.2795257568359
 21
24.5
 31
0.0
  0
LINE
  5
    F8
  8
0
  6
CONTINUOUS
 62
     7
 10
90.2795257568359
 20
50.5
 30
0.0
 11
91.5295257568359
 21
50.5
 31
0.0
  0
LINE
  5
    F9
  8
0
  6
CONTINUOUS
 62
     7
 10
90.2795257568359
 20
24.5
 30
0.0
 11
91.5295257568359
 21
24.5
 31
0.0
  0
LINE
  5
    FA
  8
0
  6
CONTINUOUS
 62
     3
 10
104.529525756836
 20
67.5
 30
0.0
 11
104.529525756836
 21
60.0
 31
0.0
  0
LINE
  5
    FB
  8
0
  6
CONTINUOUS
 62
     7
 10
104.529525756836
 20
67.5
 30
0.0
 11
107.029525756836
 21
67.5
 31
0.0
  0
LINE
  5
    FC
  8
0
  6
CONTINUOUS
 62
     7
 10
104.529525756836
 20
60.0
 30
0.0
 11
107.029525756836
 21
60.0
 31
0.0
  0
ARC
  5
    FD
  8
0
  6
CONTINUOUS
 62
     7
 10
53.5295257568359
 20
4.0
 30
0.0
 40
0.5
 50
539.999999844103
 51
629.499999844103
  0
LINE
  5
    FE
  8
0
  6
CONTINUOUS
 62
     7
 10
53.5251624890869
 20
3.50001903846791
 30
0.0
 11
72.5295257568361
 21
3.33417047278272
 31
0.0
  0
LINE
  5
    FF
  8
0
  6
CONTINUOUS
 62
     7
 10
53.5251624890894
 20
27.7500190384679
 30
0.0
 11
72.5295257568386
 21
27.5841704727827
 31
0.0
  0
ARC
  5
   100
  8
0
  6
CONTINUOUS
 62
     7
 10
53.5295257568359
 20
28.25
 30
0.0
 40
0.5
 50
539.999999844103
 51
629.499999844103
  0
LINE
  5
   101
  8
0
  6
CONTINUOUS
 62
     7
 10
53.5251624890914
 20
52.7500190384679
 30
0.0
 11
72.5295257568402
 21
52.5841704727827
 31
0.0
  0
ARC
  5
   102
  8
0
  6
CONTINUOUS
 62
     7
 10
53.5295257568359
 20
53.25
 30
0.0
 40
0.5
 50
539.999999844103
 51
629.499999844103
  0
ARC
  5
   103
  8
0
  6
CONTINUOUS
 62
     7
 10
53.5295257568359
 20
71.0
 30
0.0
 40
0.5
 50
450.499999844103
 51
539.999999844103
  0
LINE
  5
   104
  8
0
  6
CONTINUOUS
 62
     7
 10
72.5295257568288
 20
47.4158295272173
 30
0.0
 11
53.5251624890799
 21
47.2499809615321
 31
0.0
  0
ARC
  5
   105
  8
0
  6
CONTINUOUS
 62
     7
 10
53.5295257568359
 20
46.75
 30
0.0
 40
0.5
 50
450.499999844103
 51
539.999999844103
  0
LINE
  5
   106
  8
0
  6
CONTINUOUS
 62
     7
 10
72.5295257568341
 20
22.4158295272173
 30
0.0
 11
53.5251624890848
 21
22.2499809615321
 31
0.0
  0
ARC
  5
   107
  8
0
  6
CONTINUOUS
 62
     7
 10
53.5295257568359
 20
21.75
 30
0.0
 40
0.5
 50
450.499999844103
 51
539.999999844103
  0
LINE
  5
   108
  8
0
  6
CONTINUOUS
 62
     7
 10
53.0295257568359
 20
21.75
 30
0.0
 11
53.0295257568359
 21
4.0
 31
0.0
  0
LINE
  5
   109
  8
0
  6
CONTINUOUS
 62
     7
 10
53.0295257568359
 20
46.75
 30
0.0
 11
53.0295257568359
 21
28.25
 31
0.0
  0
LINE
  5
   10A
  8
0
  6
CONTINUOUS
 62
     7
 10
53.0295257568359
 20
71.0
 30
0.0
 11
53.0295257568359
 21
53.25
 31
0.0
  0
LINE
  5
   10B
  8
0
  6
DASHDOT
 62
     7
 10
61.8089232587254
 20
50.0
 30
0.0
 11
77.6753746401792
 21
50.0
 31
0.0
  0
LINE
  5
   10C
  8
0
  6
CONTINUOUS
 62
     7
 10
66.5295257568359
 20
50.5
 30
0.0
 11
66.5295257568359
 21
49.5
 31
0.0
  0
LINE
  5
   10D
  8
0
  6
CONTINUOUS
 62
     7
 10
72.5295257568359
 20
52.25
 30
0.0
 11
74.5295257568359
 21
52.25
 31
0.0
  0
LINE
  5
   10E
  8
0
  6
CONTINUOUS
 62
     7
 10
72.5295257568359
 20
47.75
 30
0.0
 11
74.5295257568359
 21
47.75
 31
0.0
  0
LINE
  5
   10F
  8
0
  6
CONTINUOUS
 62
     7
 10
74.5295257568359
 20
52.25
 30
0.0
 11
74.5295257568359
 21
47.75
 31
0.0
  0
LINE
  5
   110
  8
0
  6
CONTINUOUS
 62
     7
 10
72.5295257568359
 20
22.75
 30
0.0
 11
74.5295257568359
 21
22.75
 31
0.0
  0
LINE
  5
   111
  8
0
  6
CONTINUOUS
 62
     7
 10
74.5295257568359
 20
27.25
 30
0.0
 11
74.5295257568359
 21
22.75
 31
0.0
  0
LINE
  5
   112
  8
0
  6
DASHDOT
 62
     7
 10
61.8089232587254
 20
25.0
 30
0.0
 11
77.6753746401792
 21
25.0
 31
0.0
  0
LINE
  5
   113
  8
0
  6
CONTINUOUS
 62
     7
 10
72.5295257568359
 20
27.25
 30
0.0
 11
74.5295257568359
 21
27.25
 31
0.0
  0
LINE
  5
   114
  8
0
  6
CONTINUOUS
 62
     7
 10
74.5295257568359
 20
76.75
 30
0.0
 11
74.5295257568359
 21
73.25
 31
0.0
  0
LINE
  5
   115
  8
0
  6
CONTINUOUS
 62
     7
 10
72.5295257568359
 20
73.25
 30
0.0
 11
74.5295257568359
 21
73.25
 31
0.0
  0
LINE
  5
   116
  8
0
  6
CONTINUOUS
 62
     7
 10
72.5295257568359
 20
76.75
 30
0.0
 11
74.5295257568359
 21
76.75
 31
0.0
  0
LINE
  5
   117
  8
0
  6
CONTINUOUS
 62
     2
 10
89.9045257568359
 20
77.25
 30
0.0
 11
89.9045257568359
 21
68.5
 31
0.0
  0
LINE
  5
   118
  8
0
  6
CONTINUOUS
 62
     7
 10
90.4045257568359
 20
73.25
 30
0.0
 11
90.4045257568359
 21
68.5
 31
0.0
  0
ARC
  5
   119
  8
0
  6
CONTINUOUS
 62
     7
 10
93.5295257568359
 20
73.5
 30
0.0
 40
1.0
 50
359.999999844103
 51
449.999999844103
  0
ARC
  5
   11A
  8
0
  6
CONTINUOUS
 62
     7
 10
93.5295257568359
 20
1.5
 30
0.0
 40
1.0
 50
269.999999844103
 51
359.999999844103
  0
ARC
  5
   11B
  8
0
  6
CONTINUOUS
 62
     7
 10
88.1545257568359
 20
-1.25
 30
0.0
 40
1.0
 50
269.999999844103
 51
359.999999844103
  0
ARC
  5
   11C
  8
0
  6
CONTINUOUS
 62
     7
 10
93.5295257568359
 20
67.5
 30
0.0
 40
1.0
 50
359.999999844103
 51
449.999999844103
  0
LINE
  5
   11D
  8
0
  6
CONTINUOUS
 62
     7
 10
53.5295257568359
 20
71.5
 30
0.0
 11
89.1545257568359
 21
71.5
 31
0.0
  0
LINE
  5
   11E
  8
0
  6
CONTINUOUS
 62
     7
 10
94.5295257568359
 20
48.5
 30
0.0
 11
98.0295257568359
 21
48.5
 31
0.0
  0
ARC
  5
   11F
  8
0
  6
CONTINUOUS
 62
     7
 10
98.0295257568359
 20
48.0
 30
0.0
 40
0.5
 50
359.999999844103
 51
449.999999844103
  0
ARC
  5
   120
  8
0
  6
CONTINUOUS
 62
     7
 10
98.0295257568359
 20
4.0
 30
0.0
 40
0.5
 50
269.999999844103
 51
359.999999844103
  0
LINE
  5
   121
  8
0
  6
CONTINUOUS
 62
     7
 10
98.2795257568359
 20
47.25
 30
0.0
 11
98.2795257568359
 21
37.5
 31
0.0
  0
LINE
  5
   122
  8
0
  6
CONTINUOUS
 62
     7
 10
94.5295257568359
 20
3.5
 30
0.0
 11
94.5295257568359
 21
1.5
 31
0.0
  0
LINE
  5
   123
  8
0
  6
CONTINUOUS
 62
     7
 10
98.2795257568359
 20
47.25
 30
0.0
 11
98.529525756836
 21
47.25
 31
0.0
  0
LINE
  5
   124
  8
0
  6
CONTINUOUS
 62
     7
 10
98.2795257568359
 20
37.5
 30
0.0
 11
98.529525756836
 21
37.5
 31
0.0
  0
LINE
  5
   125
  8
0
  6
CONTINUOUS
 62
     7
 10
98.2795257568359
 20
36.25
 30
0.0
 11
98.529525756836
 21
36.25
 31
0.0
  0
LINE
  5
   126
  8
0
  6
CONTINUOUS
 62
     7
 10
98.2795257568359
 20
26.625
 30
0.0
 11
98.529525756836
 21
26.625
 31
0.0
  0
LINE
  5
   127
  8
0
  6
CONTINUOUS
 62
     7
 10
98.2795257568359
 20
25.375
 30
0.0
 11
98.529525756836
 21
25.375
 31
0.0
  0
LINE
  5
   128
  8
0
  6
CONTINUOUS
 62
     7
 10
98.2795257568359
 20
15.75
 30
0.0
 11
98.529525756836
 21
15.75
 31
0.0
  0
LINE
  5
   129
  8
0
  6
CONTINUOUS
 62
     7
 10
98.2795257568359
 20
14.5
 30
0.0
 11
98.529525756836
 21
14.5
 31
0.0
  0
LINE
  5
   12A
  8
0
  6
CONTINUOUS
 62
     7
 10
98.2795257568359
 20
4.75
 30
0.0
 11
98.529525756836
 21
4.75
 31
0.0
  0
LINE
  5
   12B
  8
0
  6
CONTINUOUS
 62
     7
 10
98.2795257568359
 20
14.5
 30
0.0
 11
98.2795257568359
 21
4.75
 31
0.0
  0
LINE
  5
   12C
  8
0
  6
CONTINUOUS
 62
     7
 10
98.2795257568359
 20
25.375
 30
0.0
 11
98.2795257568359
 21
15.75
 31
0.0
  0
LINE
  5
   12D
  8
0
  6
CONTINUOUS
 62
     7
 10
98.2795257568359
 20
36.25
 30
0.0
 11
98.2795257568359
 21
26.625
 31
0.0
  0
LINE
  5
   12E
  8
0
  6
CONTINUOUS
 62
     7
 10
98.529525756836
 20
48.0
 30
0.0
 11
98.529525756836
 21
4.0
 31
0.0
  0
LINE
  5
   12F
  8
0
  6
CONTINUOUS
 62
     7
 10
150.779556274414
 20
55.0
 30
0.0
 11
150.779556274414
 21
2.5
 31
0.0
  0
LINE
  5
   130
  8
0
  6
CONTINUOUS
 62
     7
 10
146.279556274414
 20
72.5
 30
0.0
 11
146.279556274414
 21
2.5
 31
0.0
  0
LINE
  5
   131
  8
0
  6
CONTINUOUS
 62
     7
 10
161.607258940257
 20
33.75
 30
0.0
 11
161.607258940257
 21
23.75
 31
0.0
  0
LINE
  5
   132
  8
0
  6
CONTINUOUS
 62
     7
 10
95.5295257568359
 20
72.5
 30
0.0
 11
146.279556274414
 21
72.5
 31
0.0
  0
LINE
  5
   133
  8
0
  6
CONTINUOUS
 62
     7
 10
95.5295257568359
 20
2.5
 30
0.0
 11
150.779556274414
 21
2.5
 31
0.0
  0
LINE
  5
   134
  8
0
  6
CONTINUOUS
 62
     7
 10
146.279556274414
 20
55.0
 30
0.0
 11
150.779556274414
 21
55.0
 31
0.0
  0
LINE
  5
   135
  8
0
  6
CONTINUOUS
 62
     7
 10
150.779556274414
 20
33.75
 30
0.0
 11
161.607258940257
 21
33.75
 31
0.0
  0
LINE
  5
   136
  8
0
  6
CONTINUOUS
 62
     7
 10
150.779556274414
 20
23.75
 30
0.0
 11
161.607258940257
 21
23.75
 31
0.0
  0
LINE
  5
   137
  8
0
  6
CONTINUOUS
 62
     7
 10
145.279556274414
 20
72.5
 30
0.0
 11
145.279556274414
 21
2.5
 31
0.0
  0
LINE
  5
   138
  8
0
  6
CONTINUOUS
 62
     7
 10
98.529525756836
 20
38.5
 30
0.0
 11
145.279556274414
 21
38.5
 31
0.0
  0
LINE
  5
   139
  8
0
  6
CONTINUOUS
 62
     7
 10
98.529525756836
 20
36.5
 30
0.0
 11
145.279556274414
 21
36.5
 31
0.0
  0
LINE
  5
   13A
  8
0
  6
CONTINUOUS
 62
     7
 10
98.529525756836
 20
19.0
 30
0.0
 11
145.279556274414
 21
19.0
 31
0.0
  0
LINE
  5
   13B
  8
0
  6
CONTINUOUS
 62
     7
 10
98.529525756836
 20
21.0
 30
0.0
 11
145.279556274414
 21
21.0
 31
0.0
  0
LINE
  5
   13C
  8
0
  6
CONTINUOUS
 62
     7
 10
95.5295257568359
 20
56.0
 30
0.0
 11
145.279556274414
 21
56.0
 31
0.0
  0
LINE
  5
   13D
  8
0
  6
CONTINUOUS
 62
     7
 10
95.5295257568359
 20
54.0
 30
0.0
 11
145.279556274414
 21
54.0
 31
0.0
  0
LINE
  5
   13E
  8
0
  6
CONTINUOUS
 62
     7
 10
95.5295257568359
 20
58.0
 30
0.0
 11
140.279556274414
 21
58.0
 31
0.0
  0
LINE
  5
   13F
  8
0
  6
CONTINUOUS
 62
     7
 10
95.5295257568359
 20
52.0
 30
0.0
 11
140.279556274414
 21
52.0
 31
0.0
  0
LINE
  5
   140
  8
0
  6
CONTINUOUS
 62
     7
 10
98.529525756836
 20
40.5
 30
0.0
 11
140.279556274414
 21
40.5
 31
0.0
  0
LINE
  5
   141
  8
0
  6
CONTINUOUS
 62
     7
 10
98.529525756836
 20
34.5
 30
0.0
 11
140.279556274414
 21
34.5
 31
0.0
  0
LINE
  5
   142
  8
0
  6
CONTINUOUS
 62
     7
 10
98.529525756836
 20
23.0
 30
0.0
 11
140.279556274414
 21
23.0
 31
0.0
  0
LINE
  5
   143
  8
0
  6
CONTINUOUS
 62
     7
 10
98.529525756836
 20
17.0
 30
0.0
 11
140.279556274414
 21
17.0
 31
0.0
  0
LINE
  5
   144
  8
0
  6
CONTINUOUS
 62
     7
 10
125.779556274414
 20
52.0
 30
0.0
 11
125.779556274414
 21
40.5
 31
0.0
  0
LINE
  5
   145
  8
0
  6
CONTINUOUS
 62
     7
 10
95.5295257568359
 20
70.0
 30
0.0
 11
140.279556274414
 21
70.0
 31
0.0
  0
LINE
  5
   146
  8
0
  6
CONTINUOUS
 62
     7
 10
98.529525756836
 20
5.0
 30
0.0
 11
140.279556274414
 21
5.0
 31
0.0
  0
LINE
  5
   147
  8
0
  6
CONTINUOUS
 62
     7
 10
125.779556274414
 20
70.0
 30
0.0
 11
125.779556274414
 21
58.0
 31
0.0
  0
LINE
  5
   148
  8
0
  6
CONTINUOUS
 62
     7
 10
125.779556274414
 20
34.5
 30
0.0
 11
125.779556274414
 21
23.0
 31
0.0
  0
LINE
  5
   149
  8
0
  6
CONTINUOUS
 62
     7
 10
125.779556274414
 20
17.0
 30
0.0
 11
125.779556274414
 21
5.0
 31
0.0
  0
LINE
  5
   14A
  8
0
  6
CONTINUOUS
 62
     7
 10
140.279556274414
 20
70.0
 30
0.0
 11
140.279556274414
 21
58.0
 31
0.0
  0
LINE
  5
   14B
  8
0
  6
CONTINUOUS
 62
     7
 10
140.279556274414
 20
52.0
 30
0.0
 11
140.279556274414
 21
40.5
 31
0.0
  0
LINE
  5
   14C
  8
0
  6
CONTINUOUS
 62
     7
 10
140.279556274414
 20
34.5
 30
0.0
 11
140.279556274414
 21
23.0
 31
0.0
  0
LINE
  5
   14D
  8
0
  6
CONTINUOUS
 62
     7
 10
140.279556274414
 20
17.0
 30
0.0
 11
140.279556274414
 21
5.0
 31
0.0
  0
LINE
  5
   14E
  8
0
  6
CONTINUOUS
 62
     7
 10
146.279556274414
 20
71.4999937138974
 30
0.0
 11
168.779524761071
 21
71.4999937138974
 31
0.0
  0
LINE
  5
   14F
  8
0
  6
CONTINUOUS
 62
     7
 10
168.779524761071
 20
71.4999937138974
 30
0.0
 11
168.779524761071
 21
23.4999937138974
 31
0.0
  0
LINE
  5
   150
  8
0
  6
CONTINUOUS
 62
     7
 10
163.779524761071
 20
71.4999937138974
 30
0.0
 11
163.779524761071
 21
23.4999937138974
 31
0.0
  0
LINE
  5
   151
  8
0
  6
CONTINUOUS
 62
     7
 10
161.607258940257
 20
27.4999937138974
 30
0.0
 11
162.279524761071
 21
27.4999937138974
 31
0.0
  0
LINE
  5
   152
  8
0
  6
CONTINUOUS
 62
     7
 10
147.279524761071
 20
67.4999937138974
 30
0.0
 11
162.279524761071
 21
67.4999937138974
 31
0.0
  0
LINE
  5
   153
  8
0
  6
CONTINUOUS
 62
     7
 10
165.779524761071
 20
69.9999937138974
 30
0.0
 11
166.779524761071
 21
69.9999937138974
 31
0.0
  0
LINE
  5
   154
  8
0
  6
CONTINUOUS
 62
     7
 10
167.279524761071
 20
69.4999937138974
 30
0.0
 11
167.279524761071
 21
56.4999937138974
 31
0.0
  0
ARC
  5
   155
  8
0
  6
CONTINUOUS
 62
     7
 10
165.779524761071
 20
69.4999937138974
 30
0.0
 40
0.5
 50
449.999999844103
 51
539.999999844103
  0
ARC
  5
   156
  8
0
  6
CONTINUOUS
 62
     7
 10
166.779524761071
 20
69.4999937138974
 30
0.0
 40
0.5
 50
359.999999844103
 51
449.999999844103
  0
LINE
  5
   157
  8
0
  6
CONTINUOUS
 62
     7
 10
165.779524761071
 20
24.9999937138974
 30
0.0
 11
166.77952476107
 21
24.9999937138974
 31
0.0
  0
LINE
  5
   158
  8
0
  6
CONTINUOUS
 62
     7
 10
165.779524761071
 20
40.4999937138974
 30
0.0
 11
166.77952476107
 21
40.4999937138974
 31
0.0
  0
LINE
  5
   159
  8
0
  6
CONTINUOUS
 62
     7
 10
165.779524761071
 20
55.9999937138974
 30
0.0
 11
166.779524761071
 21
55.9999937138974
 31
0.0
  0
LINE
  5
   15A
  8
0
  6
CONTINUOUS
 62
     7
 10
165.779524761071
 20
38.9999937138974
 30
0.0
 11
166.77952476107
 21
38.9999937138974
 31
0.0
  0
LINE
  5
   15B
  8
0
  6
CONTINUOUS
 62
     7
 10
165.779524761071
 20
54.4999937138974
 30
0.0
 11
166.77952476107
 21
54.4999937138974
 31
0.0
  0
LINE
  5
   15C
  8
0
  6
CONTINUOUS
 62
     7
 10
167.27952476107
 20
38.4999937138974
 30
0.0
 11
167.27952476107
 21
25.4999937138974
 31
0.0
  0
LINE
  5
   15D
  8
0
  6
CONTINUOUS
 62
     7
 10
165.279524761071
 20
38.4999937138974
 30
0.0
 11
165.279524761071
 21
25.4999937138974
 31
0.0
  0
LINE
  5
   15E
  8
0
  6
CONTINUOUS
 62
     7
 10
165.279524761071
 20
53.9999937138974
 30
0.0
 11
165.279524761071
 21
40.9999937138974
 31
0.0
  0
LINE
  5
   15F
  8
0
  6
CONTINUOUS
 62
     7
 10
167.27952476107
 20
53.9999937138974
 30
0.0
 11
167.27952476107
 21
40.9999937138974
 31
0.0
  0
LINE
  5
   160
  8
0
  6
CONTINUOUS
 62
     7
 10
165.279524761071
 20
69.4999937138974
 30
0.0
 11
165.279524761071
 21
56.4999937138974
 31
0.0
  0
ARC
  5
   161
  8
0
  6
CONTINUOUS
 62
     7
 10
166.779524761071
 20
56.4999937138974
 30
0.0
 40
0.5
 50
269.999999844103
 51
359.999999844103
  0
ARC
  5
   162
  8
0
  6
CONTINUOUS
 62
     7
 10
165.779524761071
 20
56.4999937138974
 30
0.0
 40
0.5
 50
539.999999844103
 51
629.999999844103
  0
ARC
  5
   163
  8
0
  6
CONTINUOUS
 62
     7
 10
166.77952476107
 20
53.9999937138974
 30
0.0
 40
0.5
 50
359.999999844103
 51
449.999999844103
  0
ARC
  5
   164
  8
0
  6
CONTINUOUS
 62
     7
 10
166.77952476107
 20
40.9999937138974
 30
0.0
 40
0.5
 50
269.999999844103
 51
359.999999844103
  0
ARC
  5
   165
  8
0
  6
CONTINUOUS
 62
     7
 10
165.779524761071
 20
40.9999937138974
 30
0.0
 40
0.5
 50
539.999999844103
 51
629.999999844103
  0
ARC
  5
   166
  8
0
  6
CONTINUOUS
 62
     7
 10
165.779524761071
 20
53.9999937138974
 30
0.0
 40
0.5
 50
449.999999844103
 51
539.999999844103
  0
ARC
  5
   167
  8
0
  6
CONTINUOUS
 62
     7
 10
165.779524761071
 20
38.4999937138974
 30
0.0
 40
0.5
 50
449.999999844103
 51
539.999999844103
  0
ARC
  5
   168
  8
0
  6
CONTINUOUS
 62
     7
 10
166.77952476107
 20
38.4999937138974
 30
0.0
 40
0.5
 50
359.999999844103
 51
449.999999844103
  0
ARC
  5
   169
  8
0
  6
CONTINUOUS
 62
     7
 10
166.77952476107
 20
25.4999937138974
 30
0.0
 40
0.5
 50
269.999999844103
 51
359.999999844103
  0
ARC
  5
   16A
  8
0
  6
CONTINUOUS
 62
     7
 10
165.779524761071
 20
25.4999937138974
 30
0.0
 40
0.5
 50
539.999999844103
 51
629.999999844103
  0
LINE
  5
   16B
  8
0
  6
CONTINUOUS
 62
     7
 10
161.607258940257
 20
24.9999937138974
 30
0.0
 11
163.779524761071
 21
24.9999937138974
 31
0.0
  0
LINE
  5
   16C
  8
0
  6
CONTINUOUS
 62
     7
 10
161.607258940257
 20
25.9999937138974
 30
0.0
 11
163.779524761071
 21
25.9999937138974
 31
0.0
  0
LINE
  5
   16D
  8
0
  6
CONTINUOUS
 62
     7
 10
146.779524761071
 20
68.9999937138974
 30
0.0
 11
163.779524761071
 21
68.9999937138974
 31
0.0
  0
LINE
  5
   16E
  8
0
  6
CONTINUOUS
 62
     7
 10
146.779524761071
 20
69.9999937138974
 30
0.0
 11
163.779524761071
 21
69.9999937138974
 31
0.0
  0
ARC
  5
   16F
  8
0
  6
CONTINUOUS
 62
     7
 10
147.279524761071
 20
66.4999937138974
 30
0.0
 40
1.0
 50
449.999999844103
 51
539.999999844103
  0
ARC
  5
   170
  8
0
  6
CONTINUOUS
 62
     7
 10
146.779524761071
 20
69.4999937138974
 30
0.0
 40
0.5
 50
449.999999844103
 51
629.999999844103
  0
ARC
  5
   171
  8
0
  6
CONTINUOUS
 62
     7
 10
162.279524761071
 20
28.9999937138974
 30
0.0
 40
1.5
 50
269.999999844103
 51
359.999999844103
  0
ARC
  5
   172
  8
0
  6
CONTINUOUS
 62
     7
 10
162.279524761071
 20
65.9999937138974
 30
0.0
 40
1.5
 50
359.999999844103
 51
449.999999844103
  0
LINE
  5
   173
  8
0
  6
CONTINUOUS
 62
     7
 10
150.779556274414
 20
23.4999937138974
 30
0.0
 11
168.779524761071
 21
23.4999937138974
 31
0.0
  0
LINE
  5
   174
  8
0
  6
CONTINUOUS
 62
     7
 10
107.029525756836
 20
67.5
 30
0.0
 11
107.029525756836
 21
60.0
 31
0.0
  0
LINE
  5
   175
  8
0
  6
CONTINUOUS
 62
     7
 10
117.279527022777
 20
68.1249996129446
 30
0.0
 11
119.279527022777
 21
68.1249996129446
 31
0.0
  0
LINE
  5
   176
  8
0
  6
CONTINUOUS
 62
     7
 10
117.279527022777
 20
59.3749996129446
 30
0.0
 11
119.279527022777
 21
59.3749996129446
 31
0.0
  0
LINE
  5
   177
  8
0
  6
CONTINUOUS
 62
     7
 10
117.279527022777
 20
68.2499996129446
 30
0.0
 11
117.279527022777
 21
59.2499996129446
 31
0.0
  0
LINE
  5
   178
  8
0
  6
CONTINUOUS
 62
     7
 10
119.279527022777
 20
68.2499997321539
 30
0.0
 11
119.279527022777
 21
59.2500006858282
 31
0.0
  0
LINE
  5
   179
  8
0
  6
CONTINUOUS
 62
     7
 10
104.779527022777
 20
59.2499996129446
 30
0.0
 11
121.779527022777
 21
59.2499996129446
 31
0.0
  0
LINE
  5
   17A
  8
0
  6
CONTINUOUS
 62
     7
 10
104.529527022777
 20
67.9999996129446
 30
0.0
 11
104.529527022777
 21
59.4999996129446
 31
0.0
  0
LINE
  5
   17B
  8
0
  6
CONTINUOUS
 62
     7
 10
104.779527022777
 20
68.2499996129446
 30
0.0
 11
121.779527022777
 21
68.2499996129446
 31
0.0
  0
LINE
  5
   17C
  8
0
  6
CONTINUOUS
 62
     7
 10
121.779527022777
 20
69.4999996129436
 30
0.0
 11
121.779527022777
 21
68.2499996129436
 31
0.0
  0
LINE
  5
   17D
  8
0
  6
CONTINUOUS
 62
     7
 10
104.779527022777
 20
69.4999996129431
 30
0.0
 11
121.779527022777
 21
69.4999996129431
 31
0.0
  0
LINE
  5
   17E
  8
0
  6
CONTINUOUS
 62
     7
 10
103.279527022776
 20
67.9999996129446
 30
0.0
 11
103.279527022776
 21
59.4999996129446
 31
0.0
  0
LINE
  5
   17F
  8
0
  6
CONTINUOUS
 62
     7
 10
121.779527022777
 20
59.2499996129446
 30
0.0
 11
121.779527022777
 21
57.9999996129446
 31
0.0
  0
ARC
  5
   180
  8
0
  6
CONTINUOUS
 62
     7
 10
104.779527115278
 20
67.9999995156269
 30
0.0
 40
0.250000119543609
 50
450.000034238403
 51
539.999966996518
  0
ARC
  5
   181
  8
0
  6
CONTINUOUS
 62
     7
 10
104.779526981173
 20
67.9999994754086
 30
0.0
 40
1.50000012842215
 50
450.000001823921
 51
539.99999284071
  0
ARC
  5
   182
  8
0
  6
CONTINUOUS
 62
     7
 10
104.779526342308
 20
59.4999996946365
 30
0.0
 40
0.24999947102871
 50
539.99988595107
 51
630.000082816211
  0
ARC
  5
   183
  8
0
  6
CONTINUOUS
 62
     7
 10
104.779526801313
 20
59.4999990752958
 30
0.0
 40
1.4999996500699
 50
539.99995551438
 51
630.000005555155
  0
LINE
  5
   184
  8
0
  6
DASHDOT
 62
     7
 10
101.290365843274
 20
63.7499998115611
 30
0.0
 11
125.925637967744
 21
63.7499998115611
 31
0.0
  0
LINE
  5
   185
  8
0
  6
CONTINUOUS
 62
     7
 10
112.030129528771
 20
67.8749998115611
 30
0.0
 11
113.280129528771
 21
67.8749998115611
 31
0.0
  0
LINE
  5
   186
  8
0
  6
CONTINUOUS
 62
     7
 10
112.030129528771
 20
59.6249998115611
 30
0.0
 11
113.280129528771
 21
59.6249998115611
 31
0.0
  0
ARC
  5
   187
  8
0
  6
CONTINUOUS
 62
     7
 10
105.030129528771
 20
63.7499998115611
 30
0.0
 40
8.75
 50
340.537048897788
 51
342.208409271096
  0
ARC
  5
   188
  8
0
  6
CONTINUOUS
 62
     7
 10
105.030129528771
 20
63.7499998115611
 30
0.0
 40
8.75
 50
377.791590417111
 51
379.462950790418
  0
LINE
  5
   189
  8
0
  6
CONTINUOUS
 62
     7
 10
113.599697779273
 20
66.2499998115611
 30
0.0
 11
114.530129528771
 21
66.2499998115611
 31
0.0
  0
LINE
  5
   18A
  8
0
  6
CONTINUOUS
 62
     7
 10
113.599697779273
 20
61.2499998115611
 30
0.0
 11
114.530129528771
 21
61.2499998115611
 31
0.0
  0
LINE
  5
   18B
  8
0
  6
CONTINUOUS
 62
     7
 10
113.280129528771
 20
67.8749998115611
 30
0.0
 11
113.280129528771
 21
66.6654757589838
 31
0.0
  0
ARC
  5
   18C
  8
0
  6
CONTINUOUS
 62
     7
 10
113.599697779273
 20
60.9999998115611
 30
0.0
 40
0.25
 50
449.999999844103
 51
522.208409271096
  0
ARC
  5
   18D
  8
0
  6
CONTINUOUS
 62
     7
 10
113.599697779273
 20
66.4999998115611
 30
0.0
 40
0.25
 50
557.791590417111
 51
629.999999844103
  0
LINE
  5
   18E
  8
0
  6
CONTINUOUS
 62
     7
 10
113.280129528771
 20
60.8345238641385
 30
0.0
 11
113.280129528771
 21
59.6249998115611
 31
0.0
  0
LINE
  5
   18F
  8
0
  6
CONTINUOUS
 62
     7
 10
112.030129528771
 20
67.8749998115611
 30
0.0
 11
112.030129528771
 21
59.6249998115611
 31
0.0
  0
LINE
  5
   190
  8
0
  6
CONTINUOUS
 62
     7
 10
119.279527022777
 20
66.7499998115611
 30
0.0
 11
123.530129528771
 21
66.7499998115611
 31
0.0
  0
LINE
  5
   191
  8
0
  6
CONTINUOUS
 62
     7
 10
119.279527022777
 20
60.7499998115611
 30
0.0
 11
123.530129528771
 21
60.7499998115611
 31
0.0
  0
LINE
  5
   192
  8
0
  6
CONTINUOUS
 62
     7
 10
114.530129528771
 20
66.2499998115611
 30
0.0
 11
114.530129528771
 21
61.2499998115611
 31
0.0
  0
LINE
  5
   193
  8
0
  6
CONTINUOUS
 62
     7
 10
124.030129528771
 20
66.2499998115611
 30
0.0
 11
124.030129528771
 21
61.2499998115611
 31
0.0
  0
LINE
  5
   194
  8
0
  6
CONTINUOUS
 62
     7
 10
123.530129528771
 20
66.7499998115611
 30
0.0
 11
123.530129528771
 21
60.7499998115611
 31
0.0
  0
LINE
  5
   195
  8
0
  6
CONTINUOUS
 62
     7
 10
115.030129528771
 20
66.7499998115612
 30
0.0
 11
114.530129528771
 21
66.2499998115612
 31
0.0
  0
LINE
  5
   196
  8
0
  6
CONTINUOUS
 62
     7
 10
124.030129528771
 20
61.2499998115612
 30
0.0
 11
123.530129528771
 21
60.7499998115612
 31
0.0
  0
LINE
  5
   197
  8
0
  6
CONTINUOUS
 62
     7
 10
114.530129528771
 20
61.2499998115611
 30
0.0
 11
115.030129528771
 21
60.7499998115611
 31
0.0
  0
LINE
  5
   198
  8
0
  6
CONTINUOUS
 62
     7
 10
123.530129528771
 20
66.7499998115611
 30
0.0
 11
124.030129528771
 21
66.2499998115611
 31
0.0
  0
LINE
  5
   199
  8
0
  6
CONTINUOUS
 62
     7
 10
115.030129528771
 20
66.7499998115611
 30
0.0
 11
115.030129528771
 21
60.7499998115611
 31
0.0
  0
LINE
  5
   19A
  8
0
  6
CONTINUOUS
 62
     7
 10
119.279527022777
 20
66.3499998115611
 30
0.0
 11
123.530129528771
 21
66.3499998115611
 31
0.0
  0
LINE
  5
   19B
  8
0
  6
CONTINUOUS
 62
     7
 10
119.279527022777
 20
61.1499998115611
 30
0.0
 11
123.530129528771
 21
61.1499998115611
 31
0.0
  0
LINE
  5
   19C
  8
0
  6
CONTINUOUS
 62
     7
 10
115.030129528771
 20
66.7499998115611
 30
0.0
 11
117.279527022777
 21
66.7499998115611
 31
0.0
  0
LINE
  5
   19D
  8
0
  6
CONTINUOUS
 62
     7
 10
115.030129528771
 20
66.3499998115611
 30
0.0
 11
117.279527022777
 21
66.3499998115611
 31
0.0
  0
LINE
  5
   19E
  8
0
  6
CONTINUOUS
 62
     7
 10
115.030129528771
 20
61.1499998115611
 30
0.0
 11
117.279527022777
 21
61.1499998115611
 31
0.0
  0
LINE
  5
   19F
  8
0
  6
CONTINUOUS
 62
     7
 10
115.030129528771
 20
60.7499998115611
 30
0.0
 11
117.279527022777
 21
60.7499998115611
 31
0.0
  0
LINE
  5
   1A0
  8
0
  6
CONTINUOUS
 62
     3
 10
104.529525756836
 20
50.0
 30
0.0
 11
104.529525756836
 21
42.5
 31
0.0
  0
LINE
  5
   1A1
  8
0
  6
CONTINUOUS
 62
     7
 10
104.529525756836
 20
50.0
 30
0.0
 11
107.029525756836
 21
50.0
 31
0.0
  0
LINE
  5
   1A2
  8
0
  6
CONTINUOUS
 62
     7
 10
104.529525756836
 20
42.5
 30
0.0
 11
107.029525756836
 21
42.5
 31
0.0
  0
LINE
  5
   1A3
  8
0
  6
CONTINUOUS
 62
     7
 10
107.029525756836
 20
50.0
 30
0.0
 11
107.029525756836
 21
42.5
 31
0.0
  0
LINE
  5
   1A4
  8
0
  6
CONTINUOUS
 62
     7
 10
117.279527022777
 20
50.6249996129446
 30
0.0
 11
119.279527022777
 21
50.6249996129446
 31
0.0
  0
LINE
  5
   1A5
  8
0
  6
CONTINUOUS
 62
     7
 10
117.279527022777
 20
41.8749996129446
 30
0.0
 11
119.279527022777
 21
41.8749996129446
 31
0.0
  0
LINE
  5
   1A6
  8
0
  6
CONTINUOUS
 62
     7
 10
117.279527022777
 20
50.7499996129446
 30
0.0
 11
117.279527022777
 21
41.7499996129446
 31
0.0
  0
LINE
  5
   1A7
  8
0
  6
CONTINUOUS
 62
     7
 10
119.279527022777
 20
50.7499997321539
 30
0.0
 11
119.279527022777
 21
41.7500006858282
 31
0.0
  0
LINE
  5
   1A8
  8
0
  6
CONTINUOUS
 62
     7
 10
104.779527022777
 20
41.7499996129446
 30
0.0
 11
121.779527022777
 21
41.7499996129446
 31
0.0
  0
LINE
  5
   1A9
  8
0
  6
CONTINUOUS
 62
     7
 10
104.529527022777
 20
50.4999996129446
 30
0.0
 11
104.529527022777
 21
41.9999996129446
 31
0.0
  0
LINE
  5
   1AA
  8
0
  6
CONTINUOUS
 62
     7
 10
104.779527022777
 20
50.7499996129446
 30
0.0
 11
121.779527022777
 21
50.7499996129446
 31
0.0
  0
LINE
  5
   1AB
  8
0
  6
CONTINUOUS
 62
     7
 10
121.779527022777
 20
51.9999996129436
 30
0.0
 11
121.779527022777
 21
50.7499996129436
 31
0.0
  0
LINE
  5
   1AC
  8
0
  6
CONTINUOUS
 62
     7
 10
103.279527022776
 20
50.4999996129446
 30
0.0
 11
103.279527022776
 21
41.9999996129446
 31
0.0
  0
LINE
  5
   1AD
  8
0
  6
CONTINUOUS
 62
     7
 10
121.779527022777
 20
41.7499996129446
 30
0.0
 11
121.779527022777
 21
40.4999996129446
 31
0.0
  0
ARC
  5
   1AE
  8
0
  6
CONTINUOUS
 62
     7
 10
104.779527115278
 20
50.4999995156269
 30
0.0
 40
0.250000119543609
 50
450.000034238403
 51
539.999966996518
  0
ARC
  5
   1AF
  8
0
  6
CONTINUOUS
 62
     7
 10
104.779526981173
 20
50.4999994754086
 30
0.0
 40
1.50000012842215
 50
450.000001823921
 51
539.99999284071
  0
ARC
  5
   1B0
  8
0
  6
CONTINUOUS
 62
     7
 10
104.779526342308
 20
41.9999996946365
 30
0.0
 40
0.24999947102871
 50
539.99988595107
 51
630.000082816211
  0
ARC
  5
   1B1
  8
0
  6
CONTINUOUS
 62
     7
 10
104.779526801313
 20
41.9999990752958
 30
0.0
 40
1.4999996500699
 50
539.99995551438
 51
630.000005555155
  0
LINE
  5
   1B2
  8
0
  6
DASHDOT
 62
     7
 10
101.290365843274
 20
46.2499998115611
 30
0.0
 11
125.925637967744
 21
46.2499998115611
 31
0.0
  0
LINE
  5
   1B3
  8
0
  6
CONTINUOUS
 62
     7
 10
112.030129528771
 20
50.3749998115611
 30
0.0
 11
113.280129528771
 21
50.3749998115611
 31
0.0
  0
LINE
  5
   1B4
  8
0
  6
CONTINUOUS
 62
     7
 10
112.030129528771
 20
42.1249998115611
 30
0.0
 11
113.280129528771
 21
42.1249998115611
 31
0.0
  0
ARC
  5
   1B5
  8
0
  6
CONTINUOUS
 62
     7
 10
105.030129528771
 20
46.2499998115611
 30
0.0
 40
8.75
 50
340.537048897788
 51
342.208409271096
  0
ARC
  5
   1B6
  8
0
  6
CONTINUOUS
 62
     7
 10
105.030129528771
 20
46.2499998115611
 30
0.0
 40
8.75
 50
377.791590417111
 51
379.462950790418
  0
LINE
  5
   1B7
  8
0
  6
CONTINUOUS
 62
     7
 10
113.599697779273
 20
48.7499998115611
 30
0.0
 11
114.530129528771
 21
48.7499998115611
 31
0.0
  0
LINE
  5
   1B8
  8
0
  6
CONTINUOUS
 62
     7
 10
113.599697779273
 20
43.7499998115611
 30
0.0
 11
114.530129528771
 21
43.7499998115611
 31
0.0
  0
LINE
  5
   1B9
  8
0
  6
CONTINUOUS
 62
     7
 10
113.280129528771
 20
50.3749998115611
 30
0.0
 11
113.280129528771
 21
49.1654757589838
 31
0.0
  0
ARC
  5
   1BA
  8
0
  6
CONTINUOUS
 62
     7
 10
113.599697779273
 20
43.4999998115611
 30
0.0
 40
0.25
 50
449.999999844103
 51
522.208409271096
  0
ARC
  5
   1BB
  8
0
  6
CONTINUOUS
 62
     7
 10
113.599697779273
 20
48.9999998115611
 30
0.0
 40
0.25
 50
557.791590417111
 51
629.999999844103
  0
LINE
  5
   1BC
  8
0
  6
CONTINUOUS
 62
     7
 10
113.280129528771
 20
43.3345238641385
 30
0.0
 11
113.280129528771
 21
42.1249998115611
 31
0.0
  0
LINE
  5
   1BD
  8
0
  6
CONTINUOUS
 62
     7
 10
112.030129528771
 20
50.3749998115611
 30
0.0
 11
112.030129528771
 21
42.1249998115611
 31
0.0
  0
LINE
  5
   1BE
  8
0
  6
CONTINUOUS
 62
     7
 10
119.279527022777
 20
49.2499998115611
 30
0.0
 11
123.530129528771
 21
49.2499998115611
 31
0.0
  0
LINE
  5
   1BF
  8
0
  6
CONTINUOUS
 62
     7
 10
119.279527022777
 20
43.2499998115611
 30
0.0
 11
123.530129528771
 21
43.2499998115611
 31
0.0
  0
LINE
  5
   1C0
  8
0
  6
CONTINUOUS
 62
     7
 10
114.530129528771
 20
48.7499998115611
 30
0.0
 11
114.530129528771
 21
43.7499998115611
 31
0.0
  0
LINE
  5
   1C1
  8
0
  6
CONTINUOUS
 62
     7
 10
124.030129528771
 20
48.7499998115611
 30
0.0
 11
124.030129528771
 21
43.7499998115611
 31
0.0
  0
LINE
  5
   1C2
  8
0
  6
CONTINUOUS
 62
     7
 10
123.530129528771
 20
49.2499998115611
 30
0.0
 11
123.530129528771
 21
43.2499998115611
 31
0.0
  0
LINE
  5
   1C3
  8
0
  6
CONTINUOUS
 62
     7
 10
115.030129528771
 20
49.2499998115611
 30
0.0
 11
115.030129528771
 21
43.2499998115611
 31
0.0
  0
LINE
  5
   1C4
  8
0
  6
CONTINUOUS
 62
     7
 10
115.030129528771
 20
49.2499998115612
 30
0.0
 11
114.530129528771
 21
48.7499998115612
 31
0.0
  0
LINE
  5
   1C5
  8
0
  6
CONTINUOUS
 62
     7
 10
124.030129528771
 20
43.7499998115612
 30
0.0
 11
123.530129528771
 21
43.2499998115612
 31
0.0
  0
LINE
  5
   1C6
  8
0
  6
CONTINUOUS
 62
     7
 10
114.530129528771
 20
43.7499998115611
 30
0.0
 11
115.030129528771
 21
43.2499998115611
 31
0.0
  0
LINE
  5
   1C7
  8
0
  6
CONTINUOUS
 62
     7
 10
123.530129528771
 20
49.2499998115611
 30
0.0
 11
124.030129528771
 21
48.7499998115611
 31
0.0
  0
LINE
  5
   1C8
  8
0
  6
CONTINUOUS
 62
     7
 10
119.279527022777
 20
48.8499998115611
 30
0.0
 11
123.530129528771
 21
48.8499998115611
 31
0.0
  0
LINE
  5
   1C9
  8
0
  6
CONTINUOUS
 62
     7
 10
119.279527022777
 20
43.6499998115611
 30
0.0
 11
123.530129528771
 21
43.6499998115611
 31
0.0
  0
LINE
  5
   1CA
  8
0
  6
CONTINUOUS
 62
     7
 10
115.030129528771
 20
49.2499998115611
 30
0.0
 11
117.279527022777
 21
49.2499998115611
 31
0.0
  0
LINE
  5
   1CB
  8
0
  6
CONTINUOUS
 62
     7
 10
115.030129528771
 20
48.8499998115611
 30
0.0
 11
117.279527022777
 21
48.8499998115611
 31
0.0
  0
LINE
  5
   1CC
  8
0
  6
CONTINUOUS
 62
     7
 10
115.030129528771
 20
43.6499998115611
 30
0.0
 11
117.279527022777
 21
43.6499998115611
 31
0.0
  0
LINE
  5
   1CD
  8
0
  6
CONTINUOUS
 62
     7
 10
115.030129528771
 20
43.2499998115611
 30
0.0
 11
117.279527022777
 21
43.2499998115611
 31
0.0
  0
LINE
  5
   1CE
  8
0
  6
CONTINUOUS
 62
     3
 10
104.529525756836
 20
32.5
 30
0.0
 11
104.529525756836
 21
25.0
 31
0.0
  0
LINE
  5
   1CF
  8
0
  6
CONTINUOUS
 62
     7
 10
104.529525756836
 20
32.5
 30
0.0
 11
107.029525756836
 21
32.5
 31
0.0
  0
LINE
  5
   1D0
  8
0
  6
CONTINUOUS
 62
     7
 10
104.529525756836
 20
25.0
 30
0.0
 11
107.029525756836
 21
25.0
 31
0.0
  0
LINE
  5
   1D1
  8
0
  6
CONTINUOUS
 62
     7
 10
107.029525756836
 20
32.5
 30
0.0
 11
107.029525756836
 21
25.0
 31
0.0
  0
LINE
  5
   1D2
  8
0
  6
CONTINUOUS
 62
     7
 10
117.279527022777
 20
33.1249996129446
 30
0.0
 11
119.279527022777
 21
33.1249996129446
 31
0.0
  0
LINE
  5
   1D3
  8
0
  6
CONTINUOUS
 62
     7
 10
117.279527022777
 20
24.3749996129446
 30
0.0
 11
119.279527022777
 21
24.3749996129446
 31
0.0
  0
LINE
  5
   1D4
  8
0
  6
CONTINUOUS
 62
     7
 10
117.279527022777
 20
33.2499996129446
 30
0.0
 11
117.279527022777
 21
24.2499996129446
 31
0.0
  0
LINE
  5
   1D5
  8
0
  6
CONTINUOUS
 62
     7
 10
119.279527022777
 20
33.2499997321539
 30
0.0
 11
119.279527022777
 21
24.2500006858282
 31
0.0
  0
LINE
  5
   1D6
  8
0
  6
CONTINUOUS
 62
     7
 10
104.779527022777
 20
24.2499996129446
 30
0.0
 11
121.779527022777
 21
24.2499996129446
 31
0.0
  0
LINE
  5
   1D7
  8
0
  6
CONTINUOUS
 62
     7
 10
104.529527022777
 20
32.9999996129446
 30
0.0
 11
104.529527022777
 21
24.4999996129446
 31
0.0
  0
LINE
  5
   1D8
  8
0
  6
CONTINUOUS
 62
     7
 10
104.779527022777
 20
33.2499996129446
 30
0.0
 11
121.779527022777
 21
33.2499996129446
 31
0.0
  0
LINE
  5
   1D9
  8
0
  6
CONTINUOUS
 62
     7
 10
121.779527022777
 20
34.4999996129436
 30
0.0
 11
121.779527022777
 21
33.2499996129436
 31
0.0
  0
LINE
  5
   1DA
  8
0
  6
CONTINUOUS
 62
     7
 10
103.279527022776
 20
32.9999996129446
 30
0.0
 11
103.279527022776
 21
24.4999996129446
 31
0.0
  0
LINE
  5
   1DB
  8
0
  6
CONTINUOUS
 62
     7
 10
121.779527022777
 20
24.2499996129446
 30
0.0
 11
121.779527022777
 21
22.9999996129446
 31
0.0
  0
ARC
  5
   1DC
  8
0
  6
CONTINUOUS
 62
     7
 10
104.779527115278
 20
32.9999995156269
 30
0.0
 40
0.250000119543609
 50
450.000034238403
 51
539.999966996518
  0
ARC
  5
   1DD
  8
0
  6
CONTINUOUS
 62
     7
 10
104.779526981173
 20
32.9999994754086
 30
0.0
 40
1.50000012842215
 50
450.000001823921
 51
539.99999284071
  0
ARC
  5
   1DE
  8
0
  6
CONTINUOUS
 62
     7
 10
104.779526342308
 20
24.4999996946365
 30
0.0
 40
0.24999947102871
 50
539.99988595107
 51
630.000082816211
  0
ARC
  5
   1DF
  8
0
  6
CONTINUOUS
 62
     7
 10
104.779526801313
 20
24.4999990752958
 30
0.0
 40
1.4999996500699
 50
539.99995551438
 51
630.000005555155
  0
LINE
  5
   1E0
  8
0
  6
DASHDOT
 62
     7
 10
101.290365843274
 20
28.7499998115611
 30
0.0
 11
125.925637967744
 21
28.7499998115611
 31
0.0
  0
LINE
  5
   1E1
  8
0
  6
CONTINUOUS
 62
     7
 10
112.030129528771
 20
32.8749998115611
 30
0.0
 11
113.280129528771
 21
32.8749998115611
 31
0.0
  0
LINE
  5
   1E2
  8
0
  6
CONTINUOUS
 62
     7
 10
112.030129528771
 20
24.6249998115611
 30
0.0
 11
113.280129528771
 21
24.6249998115611
 31
0.0
  0
ARC
  5
   1E3
  8
0
  6
CONTINUOUS
 62
     7
 10
105.030129528771
 20
28.7499998115611
 30
0.0
 40
8.75
 50
340.537048897788
 51
342.208409271096
  0
ARC
  5
   1E4
  8
0
  6
CONTINUOUS
 62
     7
 10
105.030129528771
 20
28.7499998115611
 30
0.0
 40
8.75
 50
377.791590417111
 51
379.462950790418
  0
LINE
  5
   1E5
  8
0
  6
CONTINUOUS
 62
     7
 10
113.599697779273
 20
31.2499998115611
 30
0.0
 11
114.530129528771
 21
31.2499998115611
 31
0.0
  0
LINE
  5
   1E6
  8
0
  6
CONTINUOUS
 62
     7
 10
113.599697779273
 20
26.2499998115611
 30
0.0
 11
114.530129528771
 21
26.2499998115611
 31
0.0
  0
LINE
  5
   1E7
  8
0
  6
CONTINUOUS
 62
     7
 10
113.280129528771
 20
32.8749998115611
 30
0.0
 11
113.280129528771
 21
31.6654757589838
 31
0.0
  0
ARC
  5
   1E8
  8
0
  6
CONTINUOUS
 62
     7
 10
113.599697779273
 20
25.9999998115611
 30
0.0
 40
0.25
 50
449.999999844103
 51
522.208409271096
  0
ARC
  5
   1E9
  8
0
  6
CONTINUOUS
 62
     7
 10
113.599697779273
 20
31.4999998115611
 30
0.0
 40
0.25
 50
557.791590417111
 51
629.999999844103
  0
LINE
  5
   1EA
  8
0
  6
CONTINUOUS
 62
     7
 10
113.280129528771
 20
25.8345238641385
 30
0.0
 11
113.280129528771
 21
24.6249998115611
 31
0.0
  0
LINE
  5
   1EB
  8
0
  6
CONTINUOUS
 62
     7
 10
112.030129528771
 20
32.8749998115611
 30
0.0
 11
112.030129528771
 21
24.6249998115611
 31
0.0
  0
LINE
  5
   1EC
  8
0
  6
CONTINUOUS
 62
     7
 10
119.279527022777
 20
31.7499998115611
 30
0.0
 11
123.530129528771
 21
31.7499998115611
 31
0.0
  0
LINE
  5
   1ED
  8
0
  6
CONTINUOUS
 62
     7
 10
119.279527022777
 20
25.7499998115611
 30
0.0
 11
123.530129528771
 21
25.7499998115611
 31
0.0
  0
LINE
  5
   1EE
  8
0
  6
CONTINUOUS
 62
     7
 10
114.530129528771
 20
31.2499998115611
 30
0.0
 11
114.530129528771
 21
26.2499998115611
 31
0.0
  0
LINE
  5
   1EF
  8
0
  6
CONTINUOUS
 62
     7
 10
124.030129528771
 20
31.2499998115611
 30
0.0
 11
124.030129528771
 21
26.2499998115611
 31
0.0
  0
LINE
  5
   1F0
  8
0
  6
CONTINUOUS
 62
     7
 10
123.530129528771
 20
31.7499998115611
 30
0.0
 11
123.530129528771
 21
25.7499998115611
 31
0.0
  0
LINE
  5
   1F1
  8
0
  6
CONTINUOUS
 62
     7
 10
115.030129528771
 20
31.7499998115612
 30
0.0
 11
114.530129528771
 21
31.2499998115612
 31
0.0
  0
LINE
  5
   1F2
  8
0
  6
CONTINUOUS
 62
     7
 10
124.030129528771
 20
26.2499998115612
 30
0.0
 11
123.530129528771
 21
25.7499998115612
 31
0.0
  0
LINE
  5
   1F3
  8
0
  6
CONTINUOUS
 62
     7
 10
114.530129528771
 20
26.2499998115611
 30
0.0
 11
115.030129528771
 21
25.7499998115611
 31
0.0
  0
LINE
  5
   1F4
  8
0
  6
CONTINUOUS
 62
     7
 10
123.530129528771
 20
31.7499998115611
 30
0.0
 11
124.030129528771
 21
31.2499998115611
 31
0.0
  0
LINE
  5
   1F5
  8
0
  6
CONTINUOUS
 62
     7
 10
115.030129528771
 20
31.7499998115611
 30
0.0
 11
115.030129528771
 21
25.7499998115611
 31
0.0
  0
LINE
  5
   1F6
  8
0
  6
CONTINUOUS
 62
     7
 10
119.279527022777
 20
31.3499998115611
 30
0.0
 11
123.530129528771
 21
31.3499998115611
 31
0.0
  0
LINE
  5
   1F7
  8
0
  6
CONTINUOUS
 62
     7
 10
119.279527022777
 20
26.1499998115611
 30
0.0
 11
123.530129528771
 21
26.1499998115611
 31
0.0
  0
LINE
  5
   1F8
  8
0
  6
CONTINUOUS
 62
     7
 10
115.030129528771
 20
31.7499998115611
 30
0.0
 11
117.279527022777
 21
31.7499998115611
 31
0.0
  0
LINE
  5
   1F9
  8
0
  6
CONTINUOUS
 62
     7
 10
115.030129528771
 20
31.3499998115611
 30
0.0
 11
117.279527022777
 21
31.3499998115611
 31
0.0
  0
LINE
  5
   1FA
  8
0
  6
CONTINUOUS
 62
     7
 10
115.030129528771
 20
26.1499998115611
 30
0.0
 11
117.279527022777
 21
26.1499998115611
 31
0.0
  0
LINE
  5
   1FB
  8
0
  6
CONTINUOUS
 62
     7
 10
115.030129528771
 20
25.7499998115611
 30
0.0
 11
117.279527022777
 21
25.7499998115611
 31
0.0
  0
LINE
  5
   1FC
  8
0
  6
CONTINUOUS
 62
     3
 10
104.529525756836
 20
15.0
 30
0.0
 11
104.529525756836
 21
7.5
 31
0.0
  0
LINE
  5
   1FD
  8
0
  6
CONTINUOUS
 62
     7
 10
104.529525756836
 20
15.0
 30
0.0
 11
107.029525756836
 21
15.0
 31
0.0
  0
LINE
  5
   1FE
  8
0
  6
CONTINUOUS
 62
     7
 10
104.529525756836
 20
7.5
 30
0.0
 11
107.029525756836
 21
7.5
 31
0.0
  0
LINE
  5
   1FF
  8
0
  6
CONTINUOUS
 62
     7
 10
107.029525756836
 20
15.0
 30
0.0
 11
107.029525756836
 21
7.5
 31
0.0
  0
LINE
  5
   200
  8
0
  6
CONTINUOUS
 62
     7
 10
117.279527022777
 20
15.6249996129446
 30
0.0
 11
119.279527022777
 21
15.6249996129446
 31
0.0
  0
LINE
  5
   201
  8
0
  6
CONTINUOUS
 62
     7
 10
117.279527022777
 20
6.87499961294463
 30
0.0
 11
119.279527022777
 21
6.87499961294463
 31
0.0
  0
LINE
  5
   202
  8
0
  6
CONTINUOUS
 62
     7
 10
117.279527022777
 20
15.7499996129446
 30
0.0
 11
117.279527022777
 21
6.74999961294463
 31
0.0
  0
LINE
  5
   203
  8
0
  6
CONTINUOUS
 62
     7
 10
119.279527022777
 20
15.7499997321539
 30
0.0
 11
119.279527022777
 21
6.75000068582824
 31
0.0
  0
LINE
  5
   204
  8
0
  6
CONTINUOUS
 62
     7
 10
104.779527022777
 20
6.74999961294463
 30
0.0
 11
121.779527022777
 21
6.74999961294463
 31
0.0
  0
LINE
  5
   205
  8
0
  6
CONTINUOUS
 62
     7
 10
104.529527022777
 20
15.4999996129446
 30
0.0
 11
104.529527022777
 21
6.99999961294463
 31
0.0
  0
LINE
  5
   206
  8
0
  6
CONTINUOUS
 62
     7
 10
104.779527022777
 20
15.7499996129446
 30
0.0
 11
121.779527022777
 21
15.7499996129446
 31
0.0
  0
LINE
  5
   207
  8
0
  6
CONTINUOUS
 62
     7
 10
121.779527022777
 20
16.9999996129436
 30
0.0
 11
121.779527022777
 21
15.7499996129436
 31
0.0
  0
LINE
  5
   208
  8
0
  6
CONTINUOUS
 62
     7
 10
103.279527022776
 20
15.4999996129446
 30
0.0
 11
103.279527022776
 21
6.99999961294463
 31
0.0
  0
LINE
  5
   209
  8
0
  6
CONTINUOUS
 62
     7
 10
121.779527022777
 20
6.74999961294463
 30
0.0
 11
121.779527022777
 21
5.49999961294463
 31
0.0
  0
ARC
  5
   20A
  8
0
  6
CONTINUOUS
 62
     7
 10
104.779527115278
 20
15.4999995156269
 30
0.0
 40
0.250000119543609
 50
450.000034238403
 51
539.999966996518
  0
ARC
  5
   20B
  8
0
  6
CONTINUOUS
 62
     7
 10
104.779526981173
 20
15.4999994754086
 30
0.0
 40
1.50000012842215
 50
450.000001823921
 51
539.99999284071
  0
ARC
  5
   20C
  8
0
  6
CONTINUOUS
 62
     7
 10
104.779526342308
 20
6.9999996946365
 30
0.0
 40
0.24999947102871
 50
539.99988595107
 51
630.000082816211
  0
ARC
  5
   20D
  8
0
  6
CONTINUOUS
 62
     7
 10
104.779526801313
 20
6.99999907529582
 30
0.0
 40
1.4999996500699
 50
539.99995551438
 51
630.000005555155
  0
LINE
  5
   20E
  8
0
  6
DASHDOT
 62
     7
 10
101.290365843274
 20
11.2499998115611
 30
0.0
 11
125.925637967744
 21
11.2499998115611
 31
0.0
  0
LINE
  5
   20F
  8
0
  6
CONTINUOUS
 62
     7
 10
112.030129528771
 20
15.3749998115611
 30
0.0
 11
113.280129528771
 21
15.3749998115611
 31
0.0
  0
LINE
  5
   210
  8
0
  6
CONTINUOUS
 62
     7
 10
112.030129528771
 20
7.12499981156114
 30
0.0
 11
113.280129528771
 21
7.12499981156114
 31
0.0
  0
ARC
  5
   211
  8
0
  6
CONTINUOUS
 62
     7
 10
105.030129528771
 20
11.2499998115611
 30
0.0
 40
8.75
 50
340.537048897788
 51
342.208409271096
  0
ARC
  5
   212
  8
0
  6
CONTINUOUS
 62
     7
 10
105.030129528771
 20
11.2499998115611
 30
0.0
 40
8.75
 50
377.791590417111
 51
379.462950790418
  0
LINE
  5
   213
  8
0
  6
CONTINUOUS
 62
     7
 10
113.599697779273
 20
13.7499998115611
 30
0.0
 11
114.530129528771
 21
13.7499998115611
 31
0.0
  0
LINE
  5
   214
  8
0
  6
CONTINUOUS
 62
     7
 10
113.599697779273
 20
8.74999981156114
 30
0.0
 11
114.530129528771
 21
8.74999981156114
 31
0.0
  0
LINE
  5
   215
  8
0
  6
CONTINUOUS
 62
     7
 10
113.280129528771
 20
15.3749998115611
 30
0.0
 11
113.280129528771
 21
14.1654757589838
 31
0.0
  0
ARC
  5
   216
  8
0
  6
CONTINUOUS
 62
     7
 10
113.599697779273
 20
8.49999981156114
 30
0.0
 40
0.25
 50
449.999999844103
 51
522.208409271096
  0
ARC
  5
   217
  8
0
  6
CONTINUOUS
 62
     7
 10
113.599697779273
 20
13.9999998115611
 30
0.0
 40
0.25
 50
557.791590417111
 51
629.999999844103
  0
LINE
  5
   218
  8
0
  6
CONTINUOUS
 62
     7
 10
113.280129528771
 20
8.33452386413849
 30
0.0
 11
113.280129528771
 21
7.12499981156114
 31
0.0
  0
LINE
  5
   219
  8
0
  6
CONTINUOUS
 62
     7
 10
112.030129528771
 20
15.3749998115611
 30
0.0
 11
112.030129528771
 21
7.12499981156114
 31
0.0
  0
LINE
  5
   21A
  8
0
  6
CONTINUOUS
 62
     7
 10
119.279527022777
 20
14.2499998115611
 30
0.0
 11
123.530129528771
 21
14.2499998115611
 31
0.0
  0
LINE
  5
   21B
  8
0
  6
CONTINUOUS
 62
     7
 10
119.279527022777
 20
8.24999981156114
 30
0.0
 11
123.530129528771
 21
8.24999981156114
 31
0.0
  0
LINE
  5
   21C
  8
0
  6
CONTINUOUS
 62
     7
 10
114.530129528771
 20
13.7499998115611
 30
0.0
 11
114.530129528771
 21
8.74999981156114
 31
0.0
  0
LINE
  5
   21D
  8
0
  6
CONTINUOUS
 62
     7
 10
124.030129528771
 20
13.7499998115611
 30
0.0
 11
124.030129528771
 21
8.74999981156114
 31
0.0
  0
LINE
  5
   21E
  8
0
  6
CONTINUOUS
 62
     7
 10
123.530129528771
 20
14.2499998115611
 30
0.0
 11
123.530129528771
 21
8.24999981156114
 31
0.0
  0
LINE
  5
   21F
  8
0
  6
CONTINUOUS
 62
     7
 10
115.030129528771
 20
14.2499998115611
 30
0.0
 11
115.030129528771
 21
8.24999981156114
 31
0.0
  0
LINE
  5
   220
  8
0
  6
CONTINUOUS
 62
     7
 10
115.030129528771
 20
14.2499998115612
 30
0.0
 11
114.530129528771
 21
13.7499998115612
 31
0.0
  0
LINE
  5
   221
  8
0
  6
CONTINUOUS
 62
     7
 10
124.030129528771
 20
8.74999981156115
 30
0.0
 11
123.530129528771
 21
8.24999981156115
 31
0.0
  0
LINE
  5
   222
  8
0
  6
CONTINUOUS
 62
     7
 10
114.530129528771
 20
8.74999981156111
 30
0.0
 11
115.030129528771
 21
8.24999981156111
 31
0.0
  0
LINE
  5
   223
  8
0
  6
CONTINUOUS
 62
     7
 10
123.530129528771
 20
14.2499998115611
 30
0.0
 11
124.030129528771
 21
13.7499998115611
 31
0.0
  0
LINE
  5
   224
  8
0
  6
CONTINUOUS
 62
     7
 10
119.279527022777
 20
13.8499998115611
 30
0.0
 11
123.530129528771
 21
13.8499998115611
 31
0.0
  0
LINE
  5
   225
  8
0
  6
CONTINUOUS
 62
     7
 10
119.279527022777
 20
8.64999981156114
 30
0.0
 11
123.530129528771
 21
8.64999981156114
 31
0.0
  0
LINE
  5
   226
  8
0
  6
CONTINUOUS
 62
     7
 10
115.030129528771
 20
14.2499998115611
 30
0.0
 11
117.279527022777
 21
14.2499998115611
 31
0.0
  0
LINE
  5
   227
  8
0
  6
CONTINUOUS
 62
     7
 10
115.030129528771
 20
13.8499998115611
 30
0.0
 11
117.279527022777
 21
13.8499998115611
 31
0.0
  0
LINE
  5
   228
  8
0
  6
CONTINUOUS
 62
     7
 10
115.030129528771
 20
8.64999981156114
 30
0.0
 11
117.279527022777
 21
8.64999981156114
 31
0.0
  0
LINE
  5
   229
  8
0
  6
CONTINUOUS
 62
     7
 10
115.030129528771
 20
8.24999981156114
 30
0.0
 11
117.279527022777
 21
8.24999981156114
 31
0.0
  0
LINE
  5
   22A
  8
0
  6
CONTINUOUS
 62
     7
 10
104.779526950828
 20
5.49999942522593
 30
0.0
 11
121.779527022777
 21
5.49999942522593
 31
0.0
  0
LINE
  5
   22B
  8
0
  6
DASHDOT
 62
     7
 10
64.1100560457624
 20
75.0
 30
0.0
 11
76.0177884002876
 21
75.0
 31
0.0
  0
LINE
  5
   22C
  8
0
  6
CONTINUOUS
 62
     7
 10
67.5295257568359
 20
73.5
 30
0.0
 11
72.5295257568359
 21
73.5
 31
0.0
  0
LINE
  5
   22D
  8
0
  6
CONTINUOUS
 62
     7
 10
67.5295257568359
 20
76.5
 30
0.0
 11
72.5295257568359
 21
76.5
 31
0.0
  0
LINE
  5
   22E
  8
0
  6
CONTINUOUS
 62
     7
 10
67.0295257568359
 20
76.0
 30
0.0
 11
67.0295257568359
 21
74.0
 31
0.0
  0
LINE
  5
   22F
  8
0
  6
CONTINUOUS
 62
     7
 10
67.5295257568359
 20
76.5
 30
0.0
 11
67.5295257568359
 21
73.5
 31
0.0
  0
LINE
  5
   230
  8
0
  6
CONTINUOUS
 62
     7
 10
67.5295257568359
 20
74.0
 30
0.0
 11
72.5295257568359
 21
74.0
 31
0.0
  0
LINE
  5
   231
  8
0
  6
CONTINUOUS
 62
     7
 10
67.5295257568359
 20
76.0
 30
0.0
 11
72.5295257568359
 21
76.0
 31
0.0
  0
LINE
  5
   232
  8
0
  6
CONTINUOUS
 62
     7
 10
67.5295257568359
 20
76.5
 30
0.0
 11
67.0295257568359
 21
76.0
 31
0.0
  0
LINE
  5
   233
  8
0
  6
CONTINUOUS
 62
     7
 10
67.0295257568359
 20
74.0
 30
0.0
 11
67.5295257568359
 21
73.5
 31
0.0
  0
LINE
  5
   234
  8
0
  6
DASHDOT
 62
     7
 10
64.1100560457624
 20
0.0
 30
0.0
 11
76.0177884002876
 21
0.0
 31
0.0
  0
LINE
  5
   235
  8
0
  6
CONTINUOUS
 62
     7
 10
67.5295257568359
 20
1.5
 30
0.0
 11
67.5295257568359
 21
-1.5
 31
0.0
  0
LINE
  5
   236
  8
0
  6
CONTINUOUS
 62
     7
 10
67.5295257568359
 20
-1.0
 30
0.0
 11
72.5295257568359
 21
-1.0
 31
0.0
  0
LINE
  5
   237
  8
0
  6
CONTINUOUS
 62
     7
 10
67.5295257568359
 20
1.0
 30
0.0
 11
72.5295257568359
 21
1.0
 31
0.0
  0
LINE
  5
   238
  8
0
  6
CONTINUOUS
 62
     7
 10
95.5295257568359
 20
72.5
 30
0.0
 11
95.5295257568359
 21
48.5
 31
0.0
  0
LINE
  5
   239
  8
0
  6
CONTINUOUS
 62
     7
 10
95.5295257568359
 20
3.5
 30
0.0
 11
95.5295257568359
 21
2.5
 31
0.0
  0
LINE
  5
   23A
  8
0
  6
CONTINUOUS
 62
     7
 10
77.0295257568359
 20
68.5
 30
0.0
 11
77.0295257568359
 21
67.25
 31
0.0
  0
LINE
  5
   23B
  8
0
  6
CONTINUOUS
 62
     7
 10
77.0295257568359
 20
64.75
 30
0.0
 11
77.0295257568359
 21
63.5
 31
0.0
  0
LINE
  5
   23C
  8
0
  6
CONTINUOUS
 62
     7
 10
77.0295257568359
 20
8.5
 30
0.0
 11
77.0295257568359
 21
7.25
 31
0.0
  0
LINE
  5
   23D
  8
0
  6
CONTINUOUS
 62
     7
 10
77.0295257568359
 20
4.75
 30
0.0
 11
77.0295257568359
 21
3.5
 31
0.0
  0
LINE
  5
   23E
  8
0
  6
CONTINUOUS
 62
     7
 10
67.5295257568359
 20
24.0
 30
0.0
 11
72.5295257568359
 21
24.0
 31
0.0
  0
LINE
  5
   23F
  8
0
  6
CONTINUOUS
 62
     7
 10
67.5295257568359
 20
26.0
 30
0.0
 11
72.5295257568359
 21
26.0
 31
0.0
  0
LINE
  5
   240
  8
0
  6
CONTINUOUS
 62
     5
 10
67.5295234954432
 20
27.6278048314714
 30
0.0
 11
67.5295234954432
 21
22.3721951685286
 31
0.0
  0
LINE
  5
   241
  8
0
  6
CONTINUOUS
 62
     5
 10
67.5295234954432
 20
52.6278048314714
 30
0.0
 11
67.5295234954432
 21
47.3721951685287
 31
0.0
  0
LINE
  5
   242
  8
0
  6
CONTINUOUS
 62
     5
 10
65.0295234954432
 20
27.6496220009483
 30
0.0
 11
65.0295234954432
 21
22.3503779990517
 31
0.0
  0
LINE
  5
   243
  8
0
  6
CONTINUOUS
 62
     5
 10
65.0295234954432
 20
52.6496220009483
 30
0.0
 11
65.0295234954432
 21
47.3503779990518
 31
0.0
  0
LINE
  5
   244
  8
0
  6
CONTINUOUS
 62
     5
 10
67.5295234954432
 20
23.5566242933273
 30
0.0
 11
72.5295234954432
 21
23.5566242933273
 31
0.0
  0
LINE
  5
   245
  8
0
  6
CONTINUOUS
 62
     5
 10
67.5295234954432
 20
48.5566242933273
 30
0.0
 11
72.5295234954432
 21
48.5566242933273
 31
0.0
  0
LINE
  5
   246
  8
0
  6
CONTINUOUS
 62
     5
 10
67.5295234954432
 20
26.4433757066727
 30
0.0
 11
72.5295234954432
 21
26.4433757066727
 31
0.0
  0
LINE
  5
   247
  8
0
  6
CONTINUOUS
 62
     5
 10
67.5295234954432
 20
51.4433757066727
 30
0.0
 11
72.5295234954432
 21
51.4433757066727
 31
0.0
  0
LINE
  5
   248
  8
0
  6
CONTINUOUS
 62
     1
 10
56.5295234954433
 20
51.25
 30
0.0
 11
65.0295234954432
 21
51.25
 31
0.0
  0
LINE
  5
   249
  8
0
  6
CONTINUOUS
 62
     7
 10
56.5295234954433
 20
51.0
 30
0.0
 11
65.0295234954432
 21
51.0
 31
0.0
  0
LINE
  5
   24A
  8
0
  6
CONTINUOUS
 62
     7
 10
56.5295234954433
 20
49.0
 30
0.0
 11
65.0295234954432
 21
49.0
 31
0.0
  0
LINE
  5
   24B
  8
0
  6
CONTINUOUS
 62
     1
 10
56.5295234954433
 20
48.75
 30
0.0
 11
65.0295234954432
 21
48.75
 31
0.0
  0
LINE
  5
   24C
  8
0
  6
CONTINUOUS
 62
     1
 10
56.5295234954433
 20
51.25
 30
0.0
 11
56.5295234954433
 21
48.75
 31
0.0
  0
LINE
  5
   24D
  8
0
  6
CONTINUOUS
 62
     1
 10
56.5295234954433
 20
51.25
 30
0.0
 11
56.2795234954433
 21
51.0
 31
0.0
  0
LINE
  5
   24E
  8
0
  6
CONTINUOUS
 62
     1
 10
56.2795234954432
 20
49.0
 30
0.0
 11
56.5295234954432
 21
48.75
 31
0.0
  0
LINE
  5
   24F
  8
0
  6
CONTINUOUS
 62
     1
 10
56.2795234954432
 20
51.0
 30
0.0
 11
56.2795234954432
 21
49.0
 31
0.0
  0
LINE
  5
   250
  8
0
  6
CONTINUOUS
 62
     5
 10
66.5295234954433
 20
27.6365316992622
 30
0.0
 11
66.5295234954433
 21
22.3634683007379
 31
0.0
  0
LINE
  5
   251
  8
0
  6
CONTINUOUS
 62
     5
 10
66.5295234954433
 20
52.6365316992622
 30
0.0
 11
66.5295234954433
 21
47.3634683007379
 31
0.0
  0
LINE
  5
   252
  8
0
  6
CONTINUOUS
 62
     5
 10
72.5295234954432
 20
-2.25
 30
0.0
 11
72.5295234954432
 21
-4.49999613012392
 31
0.0
  0
LINE
  5
   253
  8
0
  6
CONTINUOUS
 62
     5
 10
65.0295234954432
 20
-4.49999613012392
 30
0.0
 11
72.5295234954432
 21
-4.49999613012392
 31
0.0
  0
LINE
  5
   254
  8
0
  6
CONTINUOUS
 62
     5
 10
65.0295234954432
 20
3.39962200094828
 30
0.0
 11
65.0295234954432
 21
-4.49999613012392
 31
0.0
  0
LINE
  5
   255
  8
0
  6
CONTINUOUS
 62
     5
 10
67.5295234954432
 20
3.37780483147138
 30
0.0
 11
67.5295234954432
 21
-4.49999613012392
 31
0.0
  0
LINE
  5
   256
  8
0
  6
CONTINUOUS
 62
     5
 10
67.5295234954432
 20
1.44337570667267
 30
0.0
 11
72.5295234954432
 21
1.44337570667267
 31
0.0
  0
LINE
  5
   257
  8
0
  6
CONTINUOUS
 62
     5
 10
67.5295234954432
 20
-1.44337570667267
 30
0.0
 11
72.5295234954432
 21
-1.44337570667267
 31
0.0
  0
LINE
  5
   258
  8
0
  6
CONTINUOUS
 62
     5
 10
66.5295234954433
 20
3.38653169926214
 30
0.0
 11
66.5295234954433
 21
-4.49999613012392
 31
0.0
  0
LINE
  5
   259
  8
0
  6
CONTINUOUS
 62
     1
 10
56.2795234954432
 20
1.0
 30
0.0
 11
56.2795234954432
 21
-1.0
 31
0.0
  0
LINE
  5
   25A
  8
0
  6
CONTINUOUS
 62
     1
 10
56.5295234954433
 20
1.25
 30
0.0
 11
65.0295234954432
 21
1.25
 31
0.0
  0
LINE
  5
   25B
  8
0
  6
CONTINUOUS
 62
     1
 10
56.5295234954433
 20
-1.25
 30
0.0
 11
65.0295234954432
 21
-1.25
 31
0.0
  0
LINE
  5
   25C
  8
0
  6
CONTINUOUS
 62
     1
 10
56.5295234954433
 20
1.25
 30
0.0
 11
56.2795234954432
 21
1.0
 31
0.0
  0
LINE
  5
   25D
  8
0
  6
CONTINUOUS
 62
     1
 10
56.2795234954432
 20
-1.0
 30
0.0
 11
56.5295234954433
 21
-1.25
 31
0.0
  0
LINE
  5
   25E
  8
0
  6
CONTINUOUS
 62
     1
 10
56.5295234954433
 20
1.25
 30
0.0
 11
56.5295234954433
 21
-1.25
 31
0.0
  0
LINE
  5
   25F
  8
0
  6
CONTINUOUS
 62
     7
 10
56.5295234954433
 20
1.0
 30
0.0
 11
65.0295234954432
 21
1.0
 31
0.0
  0
LINE
  5
   260
  8
0
  6
CONTINUOUS
 62
     7
 10
56.5295234954433
 20
-1.0
 30
0.0
 11
65.0295234954432
 21
-1.0
 31
0.0
  0
LINE
  5
   261
  8
0
  6
CONTINUOUS
 62
     7
 10
5.75
 20
-76.298957824707
 30
0.0
 11
-155.25
 21
-76.298957824707
 31
0.0
  0
ARC
  5
   262
  8
0
  6
CONTINUOUS
 62
     7
 10
-98.75
 20
-35.298957824707
 30
0.0
 40
0.5
 50
449.999999896069
 51
539.499999896069
  0
ARC
  5
   263
  8
0
  6
CONTINUOUS
 62
     7
 10
-48.75
 20
-35.298957824707
 30
0.0
 40
0.5
 50
449.999999896069
 51
539.499999896069
  0
ARC
  5
   264
  8
0
  6
CONTINUOUS
 62
     7
 10
-26.25
 20
-35.298957824707
 30
0.0
 40
0.5
 50
360.499999896068
 51
449.999999896069
  0
LINE
  5
   265
  8
0
  6
CONTINUOUS
 62
     7
 10
5.75
 20
-54.298957824707
 30
0.0
 11
-6.25
 21
-54.298957824707
 31
0.0
  0
LINE
  5
   266
  8
0
  6
CONTINUOUS
 62
     7
 10
-6.25
 20
-62.798957824707
 30
0.0
 11
-65.5
 21
-62.798957824707
 31
0.0
  0
LINE
  5
   267
  8
0
  6
CONTINUOUS
 62
     7
 10
-7.25
 20
-62.798957824707
 30
0.0
 11
-7.25
 21
-76.298957824707
 31
0.0
  0
LINE
  5
   268
  8
0
  6
CONTINUOUS
 62
     7
 10
-26.25
 20
-34.798957824707
 30
0.0
 11
-32.0
 21
-34.798957824707
 31
0.0
  0
LINE
  5
   269
  8
0
  6
CONTINUOUS
 62
     7
 10
-49.2499809615321
 20
-35.2945945569576
 30
0.0
 11
-49.4900079034387
 21
-62.798957824706
 31
0.0
  0
LINE
  5
   26A
  8
0
  6
CONTINUOUS
 62
     7
 10
-25.5099920965613
 20
-62.798957824707
 30
0.0
 11
-25.7500190384679
 21
-35.2945945569578
 31
0.0
  0
LINE
  5
   26B
  8
0
  6
CONTINUOUS
 62
     7
 10
-99.2499809615321
 20
-35.2945945569578
 30
0.0
 11
-99.4900079034387
 21
-62.798957824707
 31
0.0
  0
LINE
  5
   26C
  8
0
  6
CONTINUOUS
 62
     7
 10
-118.75
 20
-54.298957824707
 30
0.0
 11
-131.25
 21
-54.298957824707
 31
0.0
  0
LINE
  5
   26D
  8
0
  6
CONTINUOUS
 62
     7
 10
-155.25
 20
-73.298957824707
 30
0.0
 11
-155.25
 21
-77.798957824707
 31
0.0
  0
LINE
  5
   26E
  8
0
  6
CONTINUOUS
 62
     7
 10
-131.25
 20
-54.298957824707
 30
0.0
 11
-131.25
 21
-70.923957824707
 31
0.0
  0
LINE
  5
   26F
  8
0
  6
CONTINUOUS
 62
     7
 10
-131.25
 20
-59.442551364156
 30
0.0
 11
-155.25
 21
-73.298957824707
 31
0.0
  0
LINE
  5
   270
  8
0
  6
CONTINUOUS
 62
     7
 10
-118.75
 20
-54.298957824707
 30
0.0
 11
-118.75
 21
-76.298957824707
 31
0.0
  0
LINE
  5
   271
  8
0
  6
CONTINUOUS
 62
     2
 10
-118.75
 20
-70.923957824707
 30
0.0
 11
-137.25
 21
-70.923957824707
 31
0.0
  0
ARC
  5
   272
  8
0
  6
CONTINUOUS
 62
     7
 10
-32.0
 20
-36.798957824707
 30
0.0
 40
2.0
 50
449.999999896069
 51
539.999999896069
  0
LINE
  5
   273
  8
0
  6
CONTINUOUS
 62
     7
 10
-34.0
 20
-36.798957824707
 30
0.0
 11
-34.0
 21
-44.298957824707
 31
0.0
  0
ARC
  5
   274
  8
0
  6
CONTINUOUS
 62
     7
 10
-36.0
 20
-44.298957824707
 30
0.0
 40
2.0
 50
269.999999896069
 51
359.999999896069
  0
LINE
  5
   275
  8
0
  6
CONTINUOUS
 62
     7
 10
-36.0
 20
-46.298957824707
 30
0.0
 11
-39.0
 21
-46.298957824707
 31
0.0
  0
ARC
  5
   276
  8
0
  6
CONTINUOUS
 62
     7
 10
-39.0
 20
-44.298957824707
 30
0.0
 40
2.0
 50
179.999999896069
 51
269.999999896069
  0
LINE
  5
   277
  8
0
  6
CONTINUOUS
 62
     7
 10
-41.0
 20
-36.798957824707
 30
0.0
 11
-41.0
 21
-44.298957824707
 31
0.0
  0
ARC
  5
   278
  8
0
  6
CONTINUOUS
 62
     7
 10
-43.0
 20
-36.798957824707
 30
0.0
 40
2.0
 50
359.999999896069
 51
449.999999896069
  0
ARC
  5
   279
  8
0
  6
CONTINUOUS
 62
     7
 10
-68.0
 20
-36.798957824707
 30
0.0
 40
2.0
 50
359.999999896069
 51
449.999999896069
  0
LINE
  5
   27A
  8
0
  6
CONTINUOUS
 62
     7
 10
-66.0
 20
-36.798957824707
 30
0.0
 11
-66.0
 21
-44.298957824707
 31
0.0
  0
ARC
  5
   27B
  8
0
  6
CONTINUOUS
 62
     7
 10
-64.0
 20
-44.298957824707
 30
0.0
 40
2.0
 50
179.999999896069
 51
269.999999896069
  0
LINE
  5
   27C
  8
0
  6
CONTINUOUS
 62
     7
 10
-61.0
 20
-46.298957824707
 30
0.0
 11
-64.0
 21
-46.298957824707
 31
0.0
  0
ARC
  5
   27D
  8
0
  6
CONTINUOUS
 62
     7
 10
-61.0
 20
-44.298957824707
 30
0.0
 40
2.0
 50
269.999999896069
 51
359.999999896069
  0
LINE
  5
   27E
  8
0
  6
CONTINUOUS
 62
     7
 10
-59.0
 20
-36.798957824707
 30
0.0
 11
-59.0
 21
-44.298957824707
 31
0.0
  0
ARC
  5
   27F
  8
0
  6
CONTINUOUS
 62
     7
 10
-57.0
 20
-36.798957824707
 30
0.0
 40
2.0
 50
449.999999896069
 51
539.999999896069
  0
LINE
  5
   280
  8
0
  6
CONTINUOUS
 62
     7
 10
-84.0
 20
-36.798957824707
 30
0.0
 11
-84.0
 21
-44.298957824707
 31
0.0
  0
ARC
  5
   281
  8
0
  6
CONTINUOUS
 62
     7
 10
-86.0
 20
-44.298957824707
 30
0.0
 40
2.0
 50
269.999999896069
 51
359.999999896069
  0
LINE
  5
   282
  8
0
  6
CONTINUOUS
 62
     7
 10
-86.0
 20
-46.298957824707
 30
0.0
 11
-89.0
 21
-46.298957824707
 31
0.0
  0
ARC
  5
   283
  8
0
  6
CONTINUOUS
 62
     7
 10
-89.0
 20
-44.298957824707
 30
0.0
 40
2.0
 50
179.999999896069
 51
269.999999896069
  0
LINE
  5
   284
  8
0
  6
CONTINUOUS
 62
     7
 10
-91.0
 20
-36.798957824707
 30
0.0
 11
-91.0
 21
-44.298957824707
 31
0.0
  0
ARC
  5
   285
  8
0
  6
CONTINUOUS
 62
     7
 10
-93.0
 20
-36.798957824707
 30
0.0
 40
2.0
 50
359.999999896069
 51
449.999999896069
  0
ARC
  5
   286
  8
0
  6
CONTINUOUS
 62
     7
 10
-82.0
 20
-36.798957824707
 30
0.0
 40
2.0
 50
449.999999896069
 51
539.999999896069
  0
LINE
  5
   287
  8
0
  6
CONTINUOUS
 62
     7
 10
-43.0
 20
-34.798957824707
 30
0.0
 11
-48.75
 21
-34.798957824707
 31
0.0
  0
LINE
  5
   288
  8
0
  6
CONTINUOUS
 62
     7
 10
-68.0
 20
-34.798957824707
 30
0.0
 11
-82.0
 21
-34.798957824707
 31
0.0
  0
LINE
  5
   289
  8
0
  6
CONTINUOUS
 62
     7
 10
-93.0
 20
-34.798957824707
 30
0.0
 11
-98.75
 21
-34.798957824707
 31
0.0
  0
LINE
  5
   28A
  8
0
  6
CONTINUOUS
 62
     3
 10
-3.75
 20
-83.298957824707
 30
0.0
 11
-3.75
 21
-86.298957824707
 31
0.0
  0
LINE
  5
   28B
  8
0
  6
CONTINUOUS
 62
     3
 10
-15.9564296565297
 20
-82.6433445956427
 30
0.0
 11
-18.22499048746
 21
-77.2989501950805
 31
0.0
  0
LINE
  5
   28C
  8
0
  6
CONTINUOUS
 62
     7
 10
-86.0
 20
-39.2479157055352
 30
0.0
 11
-86.0
 21
-46.298957824707
 31
0.0
  0
LINE
  5
   28D
  8
0
  6
CONTINUOUS
 62
     7
 10
-89.0
 20
-39.2479157055352
 30
0.0
 11
-89.0
 21
-46.298957824707
 31
0.0
  0
ARC
  5
   28E
  8
0
  6
CONTINUOUS
 62
     7
 10
-83.25
 20
-38.048957824707
 30
0.0
 40
3.0
 50
449.999999896069
 51
563.55646420517
  0
ARC
  5
   28F
  8
0
  6
CONTINUOUS
 62
     7
 10
-91.75
 20
-38.048957824707
 30
0.0
 40
3.0
 50
336.443535586968
 51
449.999999896069
  0
LINE
  5
   290
  8
0
  6
CONTINUOUS
 62
     7
 10
-82.75
 20
-35.048957824707
 30
0.0
 11
-83.25
 21
-35.048957824707
 31
0.0
  0
LINE
  5
   291
  8
0
  6
CONTINUOUS
 62
     7
 10
-91.75
 20
-35.048957824707
 30
0.0
 11
-92.25
 21
-35.048957824707
 31
0.0
  0
LINE
  5
   292
  8
0
  6
CONTINUOUS
 62
     7
 10
-61.0
 20
-39.2479157055352
 30
0.0
 11
-61.0
 21
-46.298957824707
 31
0.0
  0
LINE
  5
   293
  8
0
  6
CONTINUOUS
 62
     7
 10
-64.0
 20
-39.2479157055352
 30
0.0
 11
-64.0
 21
-46.298957824707
 31
0.0
  0
ARC
  5
   294
  8
0
  6
CONTINUOUS
 62
     7
 10
-66.75
 20
-38.048957824707
 30
0.0
 40
3.0
 50
336.443535586968
 51
449.999999896069
  0
ARC
  5
   295
  8
0
  6
CONTINUOUS
 62
     7
 10
-58.25
 20
-38.048957824707
 30
0.0
 40
3.0
 50
449.999999896069
 51
563.55646420517
  0
LINE
  5
   296
  8
0
  6
CONTINUOUS
 62
     7
 10
-66.75
 20
-35.048957824707
 30
0.0
 11
-67.25
 21
-35.048957824707
 31
0.0
  0
LINE
  5
   297
  8
0
  6
CONTINUOUS
 62
     7
 10
-57.75
 20
-35.048957824707
 30
0.0
 11
-58.25
 21
-35.048957824707
 31
0.0
  0
LINE
  5
   298
  8
0
  6
CONTINUOUS
 62
     7
 10
-36.0
 20
-39.2479157055352
 30
0.0
 11
-36.0
 21
-46.298957824707
 31
0.0
  0
LINE
  5
   299
  8
0
  6
CONTINUOUS
 62
     7
 10
-39.0
 20
-39.2479157055352
 30
0.0
 11
-39.0
 21
-46.298957824707
 31
0.0
  0
ARC
  5
   29A
  8
0
  6
CONTINUOUS
 62
     7
 10
-33.25
 20
-38.048957824707
 30
0.0
 40
3.0
 50
449.999999896069
 51
563.55646420517
  0
ARC
  5
   29B
  8
0
  6
CONTINUOUS
 62
     7
 10
-41.75
 20
-38.048957824707
 30
0.0
 40
3.0
 50
336.443535586968
 51
449.999999896069
  0
LINE
  5
   29C
  8
0
  6
CONTINUOUS
 62
     7
 10
-41.75
 20
-35.048957824707
 30
0.0
 11
-42.25
 21
-35.048957824707
 31
0.0
  0
LINE
  5
   29D
  8
0
  6
CONTINUOUS
 62
     7
 10
-32.75
 20
-35.048957824707
 30
0.0
 11
-33.25
 21
-35.048957824707
 31
0.0
  0
LINE
  5
   29E
  8
0
  6
CONTINUOUS
 62
     3
 10
-3.75
 20
-83.298957824707
 30
0.0
 11
-10.4334005358151
 21
-83.298957824707
 31
0.0
  0
LINE
  5
   29F
  8
0
  6
CONTINUOUS
 62
     3
 10
-13.1949150961724
 20
-81.4711512101749
 30
0.0
 11
-14.9659093552441
 21
-77.2989501950805
 31
0.0
  0
ARC
  5
   2A0
  8
0
  6
CONTINUOUS
 62
     3
 10
-10.4334005358151
 20
-80.298957824707
 30
0.0
 40
3.0
 50
202.999999896069
 51
269.999999896069
  0
ARC
  5
   2A1
  8
0
  6
CONTINUOUS
 62
     3
 10
-10.4334005358151
 20
-80.298957824707
 30
0.0
 40
6.0
 50
202.999999896069
 51
269.999999896069
  0
LINE
  5
   2A2
  8
0
  6
DASHDOT
 62
     7
 10
-70.5
 20
-56.5019745175833
 30
0.0
 11
-70.5
 21
-63.951052013168
 31
0.0
  0
LINE
  5
   2A3
  8
0
  6
DASHDOT
 62
     7
 10
-66.9485997011644
 20
-60.298957824707
 30
0.0
 11
-73.9981998547146
 21
-60.298957824707
 31
0.0
  0
ARC
  5
   2A4
  8
0
  6
CONTINUOUS
 62
     7
 10
-70.5
 20
-60.298957824707
 30
0.0
 40
2.5
 50
359.999999896069
 51
539.999999896069
  0
CIRCLE
  5
   2A5
  8
0
  6
CONTINUOUS
 62
     7
 10
-70.5
 20
-60.298957824707
 30
0.0
 40
1.25
  0
LINE
  5
   2A6
  8
0
  6
CONTINUOUS
 62
     7
 10
-75.5
 20
-62.798957824707
 30
0.0
 11
-118.75
 21
-62.798957824707
 31
0.0
  0
ARC
  5
   2A7
  8
0
  6
CONTINUOUS
 62
     7
 10
-65.5
 20
-60.298957824707
 30
0.0
 40
2.5
 50
179.999999896069
 51
269.999999896069
  0
ARC
  5
   2A8
  8
0
  6
CONTINUOUS
 62
     7
 10
-75.5
 20
-60.298957824707
 30
0.0
 40
2.5
 50
269.999999896069
 51
359.999999896069
  0
LINE
  5
   2A9
  8
0
  6
DASHDOT
 62
     7
 10
-125.0
 20
-43.5214268629047
 30
0.0
 11
-125.0
 21
-67.5695212809826
 31
0.0
  0
LINE
  5
   2AA
  8
0
  6
CONTINUOUS
 62
     7
 10
-121.5
 20
-61.298957824707
 30
0.0
 11
-121.5
 21
-70.923957824707
 31
0.0
  0
LINE
  5
   2AB
  8
0
  6
CONTINUOUS
 62
     7
 10
-128.5
 20
-61.298957824707
 30
0.0
 11
-128.5
 21
-70.923957824707
 31
0.0
  0
LINE
  5
   2AC
  8
0
  6
CONTINUOUS
 62
     7
 10
-121.5
 20
-61.298957824707
 30
0.0
 11
-128.5
 21
-61.298957824707
 31
0.0
  0
LINE
  5
   2AD
  8
0
  6
CONTINUOUS
 62
     3
 10
-124.0
 20
-48.798957824707
 30
0.0
 11
-126.0
 21
-48.798957824707
 31
0.0
  0
LINE
  5
   2AE
  8
0
  6
CONTINUOUS
 62
     3
 10
-123.5
 20
-49.2989578247071
 30
0.0
 11
-123.5
 21
-54.298957824707
 31
0.0
  0
LINE
  5
   2AF
  8
0
  6
CONTINUOUS
 62
     3
 10
-126.5
 20
-49.298957824707
 30
0.0
 11
-126.5
 21
-54.298957824707
 31
0.0
  0
LINE
  5
   2B0
  8
0
  6
CONTINUOUS
 62
     3
 10
-123.5
 20
-49.298957824707
 30
0.0
 11
-126.5
 21
-49.298957824707
 31
0.0
  0
LINE
  5
   2B1
  8
0
  6
CONTINUOUS
 62
     3
 10
-126.0
 20
-48.798957824707
 30
0.0
 11
-126.5
 21
-49.298957824707
 31
0.0
  0
LINE
  5
   2B2
  8
0
  6
CONTINUOUS
 62
     3
 10
-123.5
 20
-49.2989578247071
 30
0.0
 11
-124.0
 21
-48.798957824707
 31
0.0
  0
LINE
  5
   2B3
  8
0
  6
CONTINUOUS
 62
     7
 10
-124.0
 20
-49.298957824707
 30
0.0
 11
-124.0
 21
-54.298957824707
 31
0.0
  0
LINE
  5
   2B4
  8
0
  6
CONTINUOUS
 62
     7
 10
-126.0
 20
-49.2989578247071
 30
0.0
 11
-126.0
 21
-54.298957824707
 31
0.0
  0
LINE
  5
   2B5
  8
0
  6
CONTINUOUS
 62
     7
 10
-122.0
 20
-62.798957824707
 30
0.0
 11
-128.0
 21
-62.798957824707
 31
0.0
  0
LINE
  5
   2B6
  8
0
  6
CONTINUOUS
 62
     3
 10
-122.0
 20
-61.298957824707
 30
0.0
 11
-122.0
 21
-62.798957824707
 31
0.0
  0
LINE
  5
   2B7
  8
0
  6
CONTINUOUS
 62
     3
 10
-128.0
 20
-61.298957824707
 30
0.0
 11
-128.0
 21
-62.798957824707
 31
0.0
  0
ARC
  5
   2B8
  8
0
  6
CONTINUOUS
 62
     3
 10
-125.0
 20
-59.4306889498939
 30
0.0
 40
4.51056927815489
 50
228.309655764143
 51
311.690344027995
  0
LINE
  5
   2B9
  8
0
  6
CONTINUOUS
 62
     2
 10
-137.25
 20
-70.923957824707
 30
0.0
 11
-137.25
 21
-71.673957824707
 31
0.0
  0
LINE
  5
   2BA
  8
0
  6
CONTINUOUS
 62
     2
 10
-118.75
 20
-71.673957824707
 30
0.0
 11
-137.25
 21
-71.673957824707
 31
0.0
  0
LINE
  5
   2BB
  8
0
  6
CONTINUOUS
 62
     7
 10
-21.2500381469727
 20
-77.2989807128906
 30
0.0
 11
-107.504404309404
 21
-77.2989807128906
 31
0.0
  0
LINE
  5
   2BC
  8
0
  6
CONTINUOUS
 62
     7
 10
-75.5000076293945
 20
-109.298973083496
 30
0.0
 11
-75.5000076293945
 21
-113.298973083496
 31
0.0
  0
LINE
  5
   2BD
  8
0
  6
CONTINUOUS
 62
     7
 10
-54.2500152587891
 20
-109.298973083496
 30
0.0
 11
-75.5000076293945
 21
-109.298973083496
 31
0.0
  0
LINE
  5
   2BE
  8
0
  6
CONTINUOUS
 62
     7
 10
-90.4999829101742
 20
-108.298980712891
 30
0.0
 11
-92.7499923706055
 21
-108.298980712891
 31
0.0
  0
LINE
  5
   2BF
  8
0
  6
CONTINUOUS
 62
     2
 10
-21.2500381469727
 20
-77.0489959716797
 30
0.0
 11
-21.2500381469727
 21
-77.2989807128906
 31
0.0
  0
LINE
  5
   2C0
  8
0
  6
CONTINUOUS
 62
     7
 10
-19.7500173474312
 20
-111.798965454101
 30
0.0
 11
-47.0000402356148
 21
-111.798965454101
 31
0.0
  0
LINE
  5
   2C1
  8
0
  6
CONTINUOUS
 62
     7
 10
-12.0000210571466
 20
-113.298980712891
 30
0.0
 11
-12.5000286865411
 21
-113.298980712891
 31
0.0
  0
LINE
  5
   2C2
  8
0
  6
CONTINUOUS
 62
     7
 10
-12.0000210571466
 20
-124.398979187012
 30
0.0
 11
-12.0000210571466
 21
-124.548980712891
 31
0.0
  0
LINE
  5
   2C3
  8
0
  6
CONTINUOUS
 62
     7
 10
-12.500013427752
 20
-111.798980712891
 30
0.0
 11
-12.500013427752
 21
-113.298980712891
 31
0.0
  0
LINE
  5
   2C4
  8
0
  6
CONTINUOUS
 62
     7
 10
-12.500013427752
 20
-111.798980712891
 30
0.0
 11
-19.750013427752
 21
-111.798980712891
 31
0.0
  0
LINE
  5
   2C5
  8
0
  6
CONTINUOUS
 62
     7
 10
-86.111700134295
 20
-113.298957824707
 30
0.0
 11
-91.2499905395578
 21
-113.298957824707
 31
0.0
  0
LINE
  5
   2C6
  8
0
  6
CONTINUOUS
 62
     7
 10
-47.0000363159356
 20
-111.798973083496
 30
0.0
 11
-53.0000210571466
 21
-111.798973083496
 31
0.0
  0
LINE
  5
   2C7
  8
0
  6
CONTINUOUS
 62
     7
 10
-54.2500363159356
 20
-111.298973083496
 30
0.0
 11
-54.2500363159356
 21
-111.798973083496
 31
0.0
  0
LINE
  5
   2C8
  8
0
  6
CONTINUOUS
 62
     7
 10
-91.2499905395578
 20
-113.298957446689
 30
0.0
 11
-91.2499905395578
 21
-124.398963550204
 31
0.0
  0
LINE
  5
   2C9
  8
0
  6
CONTINUOUS
 62
     7
 10
-89.7500057983575
 20
-113.298957824707
 30
0.0
 11
-91.2500057983575
 21
-113.298957824707
 31
0.0
  0
LINE
  5
   2CA
  8
0
  6
CONTINUOUS
 62
     7
 10
-91.250013427752
 20
-124.548957824707
 30
0.0
 11
-92.750013427752
 21
-124.548957824707
 31
0.0
  0
LINE
  5
   2CB
  8
0
  6
CONTINUOUS
 62
     7
 10
-91.250013427752
 20
-124.398963958025
 30
0.0
 11
-91.250013427752
 21
-124.548957824707
 31
0.0
  0
LINE
  5
   2CC
  8
0
  6
CONTINUOUS
 62
     7
 10
-54.2500363159356
 20
-109.298973083496
 30
0.0
 11
-54.2500363159356
 21
-111.298973083496
 31
0.0
  0
LINE
  5
   2CD
  8
0
  6
CONTINUOUS
 62
     7
 10
-53.0000210571466
 20
-111.798973083496
 30
0.0
 11
-54.2500363159356
 21
-111.798973083496
 31
0.0
  0
LINE
  5
   2CE
  8
0
  6
CONTINUOUS
 62
     7
 10
-12.0000273135392
 20
-124.398963928222
 30
0.0
 11
-91.250013427752
 21
-124.398963928222
 31
0.0
  0
LINE
  5
   2CF
  8
0
  6
CONTINUOUS
 62
     7
 10
-1.15001495363094
 20
-103.590257962823
 30
0.0
 11
-1.15001495363094
 21
-124.398986816406
 31
0.0
  0
LINE
  5
   2D0
  8
0
  6
CONTINUOUS
 62
     7
 10
-1.15001839911397
 20
-124.398933410638
 30
0.0
 11
-12.0000245026296
 21
-124.398933410638
 31
0.0
  0
LINE
  5
   2D1
  8
0
  6
CONTINUOUS
 62
     7
 10
-1.15001495363094
 20
-113.298980712891
 30
0.0
 11
-12.000013427752
 21
-113.298980712891
 31
0.0
  0
LINE
  5
   2D2
  8
0
  6
CONTINUOUS
 62
     7
 10
-36.124998168963
 20
-128.048988342285
 30
0.0
 11
-36.124998168963
 21
-132.548988342285
 31
0.0
  0
LINE
  5
   2D3
  8
0
  6
CONTINUOUS
 62
     7
 10
-88.6249829101739
 20
-128.048988342285
 30
0.0
 11
-88.6249829101739
 21
-132.548988342285
 31
0.0
  0
LINE
  5
   2D4
  8
0
  6
CONTINUOUS
 62
     7
 10
-91.250013427752
 20
-124.548988342285
 30
0.0
 11
-96.7499829101739
 21
-124.548988342285
 31
0.0
  0
LINE
  5
   2D5
  8
0
  6
CONTINUOUS
 62
     7
 10
-88.6249829101739
 20
-127.048988342285
 30
0.0
 11
-96.7499829101739
 21
-127.048988342285
 31
0.0
  0
LINE
  5
   2D6
  8
0
  6
CONTINUOUS
 62
     7
 10
1.24999420163434
 20
-127.048988342285
 30
0.0
 11
-36.124998168963
 21
-127.048988342285
 31
0.0
  0
LINE
  5
   2D7
  8
0
  6
CONTINUOUS
 62
     7
 10
-11.999998168963
 20
-124.548988342285
 30
0.0
 11
-11.999998168963
 21
-127.048988342285
 31
0.0
  0
LINE
  5
   2D8
  8
0
  6
CONTINUOUS
 62
     7
 10
-96.7499829101739
 20
-124.548988342285
 30
0.0
 11
-96.7499829101739
 21
-127.048988342285
 31
0.0
  0
LINE
  5
   2D9
  8
0
  6
CONTINUOUS
 62
     7
 10
-36.124998168963
 20
-128.048988342285
 30
0.0
 11
-88.6249829101739
 21
-128.048988342285
 31
0.0
  0
LINE
  5
   2DA
  8
0
  6
CONTINUOUS
 62
     7
 10
-88.6249829101739
 20
-127.048988342285
 30
0.0
 11
-88.6249829101739
 21
-128.048988342285
 31
0.0
  0
LINE
  5
   2DB
  8
0
  6
CONTINUOUS
 62
     7
 10
-36.124998168963
 20
-127.048988342285
 30
0.0
 11
-36.124998168963
 21
-128.048988342285
 31
0.0
  0
LINE
  5
   2DC
  8
0
  6
CONTINUOUS
 62
     7
 10
-75.5000210571466
 20
-113.298965454102
 30
0.0
 11
-86.111700134295
 21
-113.298965454102
 31
0.0
  0
LINE
  5
   2DD
  8
0
  6
CONTINUOUS
 62
     7
 10
-125.349983291644
 20
-110.598747195434
 30
0.0
 11
-125.349983291644
 21
-124.398986339569
 31
0.0
  0
LINE
  5
   2DE
  8
0
  6
CONTINUOUS
 62
     7
 10
-114.499982910174
 20
-124.398994445801
 30
0.0
 11
-125.349981384295
 21
-124.398994445801
 31
0.0
  0
LINE
  5
   2DF
  8
0
  6
CONTINUOUS
 62
   218
 10
-109.749982909679
 20
-77.2989954955642
 30
0.0
 11
-109.749990539074
 21
-76.2989959724239
 31
0.0
  0
LINE
  5
   2E0
  8
0
  6
CONTINUOUS
 62
   218
 10
-109.749990539568
 20
-77.2989954948425
 30
0.0
 11
-126.749998168963
 21
-77.2989954948425
 31
0.0
  0
LINE
  5
   2E1
  8
0
  6
CONTINUOUS
 62
     7
 10
-90.4999829101742
 20
-108.29899597168
 30
0.0
 11
-90.4999829101742
 21
-113.29899597168
 31
0.0
  0
LINE
  5
   2E2
  8
0
  6
CONTINUOUS
 62
     7
 10
-96.9999829101739
 20
-124.548988342285
 30
0.0
 11
-96.9999829101739
 21
-127.048988342285
 31
0.0
  0
LINE
  5
   2E3
  8
0
  6
CONTINUOUS
 62
     7
 10
-114.499982910174
 20
-124.398994445801
 30
0.0
 11
-114.499982910174
 21
-127.048988342285
 31
0.0
  0
LINE
  5
   2E4
  8
0
  6
CONTINUOUS
 62
     7
 10
-96.9999829101739
 20
-127.048988342285
 30
0.0
 11
-149.646824904736
 21
-127.048988342285
 31
0.0
  0
LINE
  5
   2E5
  8
0
  6
CONTINUOUS
 62
     7
 10
-96.9999829101739
 20
-126.048988342285
 30
0.0
 11
-114.499982910174
 21
-126.048988342285
 31
0.0
  0
LINE
  5
   2E6
  8
0
  6
CONTINUOUS
 62
     7
 10
-96.9999829101739
 20
-124.548988342285
 30
0.0
 11
-114.499982910174
 21
-124.548988342285
 31
0.0
  0
ARC
  5
   2E7
  8
0
  6
CONTINUOUS
 62
     7
 10
-73.3969236427054
 20
-142.886514727541
 30
0.0
 40
0.499999897877905
 50
258.62357331707
 51
346.68878865497
  0
ARC
  5
   2E8
  8
0
  6
CONTINUOUS
 62
     7
 10
-76.3708326267042
 20
-142.288142527623
 30
0.0
 40
0.50000037262337
 50
530.593992144045
 51
618.62357331707
  0
LINE
  5
   2E9
  8
0
  6
CONTINUOUS
 62
     7
 10
-70.4372965850348
 20
-132.548988342285
 30
0.0
 11
-72.9103571730067
 21
-143.001634699888
 31
0.0
  0
LINE
  5
   2EA
  8
0
  6
CONTINUOUS
 62
     7
 10
-73.495550660932
 20
-143.376691008128
 30
0.0
 11
-76.4694596779877
 21
-142.778318972504
 31
0.0
  0
LINE
  5
   2EB
  8
0
  6
CONTINUOUS
 62
     7
 10
-75.2642912146743
 20
-132.548988342285
 30
0.0
 11
-76.8641103495756
 21
-142.20642778903
 31
0.0
  0
LINE
  5
   2EC
  8
0
  6
CONTINUOUS
 62
     7
 10
-3.75001525878908
 20
-86.2989843031269
 30
0.0
 11
-3.75001525878908
 21
-88.7989843031269
 31
0.0
  0
LINE
  5
   2ED
  8
0
  6
DASHDOT
 62
     7
 10
-8.74998967854438
 20
-82.5843127721646
 30
0.0
 11
-8.74998967854438
 21
-96.6509547896029
 31
0.0
  0
LINE
  5
   2EE
  8
0
  6
CONTINUOUS
 62
     7
 10
-13.983830093408
 20
-95.6967592403502
 30
0.0
 11
-18.995626208174
 21
-93.4253311766405
 31
0.0
  0
LINE
  5
   2EF
  8
0
  6
CONTINUOUS
 62
     7
 10
-3.75001525878908
 20
-88.7989833494526
 30
0.0
 11
-18.9956262081739
 21
-88.7989833494526
 31
0.0
  0
LINE
  5
   2F0
  8
0
  6
CONTINUOUS
 62
     7
 10
-10.4334005358151
 20
-86.2989843031269
 30
0.0
 11
-18.9956262081739
 21
-86.2989843031269
 31
0.0
  0
LINE
  5
   2F1
  8
0
  6
CONTINUOUS
 62
     2
 10
1.24999420163434
 20
-77.2989501950805
 30
0.0
 11
-14.9659093552441
 21
-77.2989501950805
 31
0.0
  0
LINE
  5
   2F2
  8
0
  6
CONTINUOUS
 62
     7
 10
-14.2500152587891
 20
-88.7989833494526
 30
0.0
 11
-14.2500152587891
 21
-95.5761197648121
 31
0.0
  0
LINE
  5
   2F3
  8
0
  6
CONTINUOUS
 62
     7
 10
-16.2500152587891
 20
-88.7989833494526
 30
0.0
 11
-16.2500152587891
 21
-94.6696870162741
 31
0.0
  0
INSERT
  5
   2F4
  8
0
  6
CONTINUOUS
 62
     7
  2
*HATCH208
 10
0.0
 20
-76.298957824707
 30
0.0
 41
0.5
 42
0.5
 50
179.999999896069
 43
0.5
  0
LINE
  5
   2F5
  8
0
  6
CONTINUOUS
 62
     7
 10
-18.9956262081739
 20
-77.2989501950805
 30
0.0
 11
-18.9956262081739
 21
-93.4253311766406
 31
0.0
  0
LINE
  5
   2F6
  8
0
  6
CONTINUOUS
 62
     7
 10
-17.5000152587891
 20
-83.7989843031269
 30
0.0
 11
-17.5000152587891
 21
-86.2989843031269
 31
0.0
  0
LINE
  5
   2F7
  8
0
  6
CONTINUOUS
 62
     7
 10
-17.5000152587891
 20
-83.7989843031267
 30
0.0
 11
-18.995626208174
 21
-82.3033733537418
 31
0.0
  0
INSERT
  5
   2F8
  8
0
  6
CONTINUOUS
 62
     7
  2
*HATCH209
 10
0.0
 20
-76.298957824707
 30
0.0
 41
0.5
 42
0.5
 50
179.999999896069
 43
0.5
  0
LINE
  5
   2F9
  8
0
  6
CONTINUOUS
 62
     7
 10
-115.750040839034
 20
-86.2989843031269
 30
0.0
 11
-115.750040839034
 21
-88.7989833494526
 31
0.0
  0
LINE
  5
   2FA
  8
0
  6
CONTINUOUS
 62
     7
 10
-119.750040839034
 20
-86.2989843031269
 30
0.0
 11
-119.750040839034
 21
-88.7989833494526
 31
0.0
  0
LINE
  5
   2FB
  8
0
  6
CONTINUOUS
 62
     7
 10
-107.504404309404
 20
-88.7989833494526
 30
0.0
 11
-122.750015258789
 21
-88.7989833494526
 31
0.0
  0
LINE
  5
   2FC
  8
0
  6
CONTINUOUS
 62
     7
 10
-107.504404309404
 20
-77.0489959716797
 30
0.0
 11
-107.504404309404
 21
-105.69681975507
 31
0.0
  0
LINE
  5
   2FD
  8
0
  6
CONTINUOUS
 62
     7
 10
-106.762102642691
 20
-105.49292001538
 30
0.0
 11
-149.646824904736
 21
-117.272744981436
 31
0.0
  0
INSERT
  5
   2FE
  8
0
  6
CONTINUOUS
 62
     7
  2
*HATCH210
 10
0.0
 20
-76.298957824707
 30
0.0
 41
0.5
 42
0.5
 50
179.999999896069
 43
0.5
  0
INSERT
  5
   2FF
  8
0
  6
CONTINUOUS
 62
     7
  2
*HATCH211
 10
0.0
 20
-76.298957824707
 30
0.0
 41
0.5
 42
0.5
 50
179.999999896069
 43
0.5
  0
LINE
  5
   300
  8
0
  6
CONTINUOUS
 62
     7
 10
-110.250040839034
 20
-77.2989954948425
 30
0.0
 11
-110.250040839034
 21
-86.2989843031269
 31
0.0
  0
LINE
  5
   301
  8
0
  6
CONTINUOUS
 62
     7
 10
-108.250040839034
 20
-76.2989959716797
 30
0.0
 11
-108.250040839034
 21
-86.2989843031269
 31
0.0
  0
LINE
  5
   302
  8
0
  6
CONTINUOUS
 62
     7
 10
-112.250040839034
 20
-88.7989833494526
 30
0.0
 11
-112.250040839034
 21
-107.000378801808
 31
0.0
  0
INSERT
  5
   303
  8
0
  6
CONTINUOUS
 62
     7
  2
*HATCH212
 10
0.0
 20
-76.298957824707
 30
0.0
 41
0.5
 42
0.5
 50
179.999999896069
 43
0.5
  0
LINE
  5
   304
  8
0
  6
CONTINUOUS
 62
     7
 10
-110.250040839034
 20
-88.7989833494525
 30
0.0
 11
-110.250040839034
 21
-106.451007168056
 31
0.0
  0
LINE
  5
   305
  8
0
  6
CONTINUOUS
 62
     7
 10
-92.7499923706049
 20
-77.2989807128906
 30
0.0
 11
-92.7499923706049
 21
-108.298980712891
 31
0.0
  0
LINE
  5
   306
  8
0
  6
CONTINUOUS
 62
     7
 10
-36.124998168963
 20
-132.548988342285
 30
0.0
 11
-88.6249829101739
 21
-132.548988342285
 31
0.0
  0
LINE
  5
   307
  8
0
  6
CONTINUOUS
 62
     7
 10
-13.983830093408
 20
-95.6967592403502
 30
0.0
 11
-13.983830093408
 21
-97.7737627971341
 31
0.0
  0
LINE
  5
   308
  8
0
  6
CONTINUOUS
 62
     7
 10
1.24999420163434
 20
-104.677981410384
 30
0.0
 11
-13.983830093408
 21
-97.7737627971341
 31
0.0
  0
LINE
  5
   309
  8
0
  6
CONTINUOUS
 62
     7
 10
-126.749998168963
 20
-76.298957824707
 30
0.0
 11
-126.749998168963
 21
-110.983311425649
 31
0.0
  0
LINE
  5
   30A
  8
0
  6
CONTINUOUS
 62
     7
 10
-114.249998168963
 20
-76.2989959716797
 30
0.0
 11
-114.249998168963
 21
-77.2989954948425
 31
0.0
  0
LINE
  5
   30B
  8
0
  6
CONTINUOUS
 62
     7
 10
-119.249998168963
 20
-76.2989959716797
 30
0.0
 11
-119.249998168963
 21
-77.2989954948425
 31
0.0
  0
LINE
  5
   30C
  8
0
  6
CONTINUOUS
 62
     7
 10
-114.249998168963
 20
-76.2989959716797
 30
0.0
 11
-119.249998168963
 21
-76.2989959716797
 31
0.0
  0
LINE
  5
   30D
  8
0
  6
CONTINUOUS
 62
     7
 10
-7.24999816896297
 20
-76.2989506719177
 30
0.0
 11
-7.24999816896297
 21
-77.2989501950805
 31
0.0
  0
LINE
  5
   30E
  8
0
  6
CONTINUOUS
 62
     7
 10
-12.249998168963
 20
-76.2989506719177
 30
0.0
 11
-12.249998168963
 21
-77.2989501950805
 31
0.0
  0
LINE
  5
   30F
  8
0
  6
CONTINUOUS
 62
     1
 10
-5.99998967854438
 20
-93.2989833494526
 30
0.0
 11
-11.4999896785444
 21
-93.2989833494526
 31
0.0
  0
LINE
  5
   310
  8
0
  6
CONTINUOUS
 62
     1
 10
-11.9999896785444
 20
-89.2989833494526
 30
0.0
 11
-11.9999896785444
 21
-92.7989833494526
 31
0.0
  0
LINE
  5
   311
  8
0
  6
CONTINUOUS
 62
     1
 10
-5.49998967854438
 20
-89.2989833494526
 30
0.0
 11
-5.49998967854438
 21
-92.7989833494526
 31
0.0
  0
ARC
  5
   312
  8
0
  6
CONTINUOUS
 62
     7
 10
-152.75
 20
-77.798957824707
 30
0.0
 40
2.5
 50
179.999999896069
 51
269.999999896069
  0
LINE
  5
   313
  8
0
  6
CONTINUOUS
 62
     3
 10
-112.750040839034
 20
-85.0489843031269
 30
0.0
 11
-122.750040839034
 21
-85.0489843031269
 31
0.0
  0
LINE
  5
   314
  8
0
  6
DASHDOT
 62
     3
 10
-117.750040839034
 20
-83.9641594902327
 30
0.0
 11
-117.750040839034
 21
-110.593491233072
 31
0.0
  0
LINE
  5
   315
  8
0
  6
CONTINUOUS
 62
     3
 10
-119.750040839034
 20
-86.2989843031269
 30
0.0
 11
-122.750040839034
 21
-86.2989843031269
 31
0.0
  0
LINE
  5
   316
  8
0
  6
CONTINUOUS
 62
     3
 10
-112.750040839034
 20
-85.0489843031269
 30
0.0
 11
-112.750040839034
 21
-86.2989843031269
 31
0.0
  0
LINE
  5
   317
  8
0
  6
CONTINUOUS
 62
     3
 10
-122.750040839034
 20
-85.0489843031269
 30
0.0
 11
-122.750040839034
 21
-103.548984303127
 31
0.0
  0
LINE
  5
   318
  8
0
  6
CONTINUOUS
 62
     3
 10
-120.750040839034
 20
-104.548984303127
 30
0.0
 11
-121.750040839034
 21
-104.548984303127
 31
0.0
  0
ARC
  5
   319
  8
0
  6
CONTINUOUS
 62
     3
 10
-117.750040839034
 20
-86.2989843031269
 30
0.0
 40
2.0
 50
269.999999896069
 51
359.999999896069
  0
ARC
  5
   31A
  8
0
  6
CONTINUOUS
 62
     3
 10
-113.750040839034
 20
-103.548984303127
 30
0.0
 40
1.0
 50
269.999999896069
 51
359.999999896069
  0
ARC
  5
   31B
  8
0
  6
CONTINUOUS
 62
     3
 10
-121.750040839034
 20
-103.548984303127
 30
0.0
 40
1.0
 50
179.999999896069
 51
269.999999896069
  0
ARC
  5
   31C
  8
0
  6
CONTINUOUS
 62
     3
 10
-117.750040839034
 20
-86.2989843031269
 30
0.0
 40
2.0
 50
179.999999896069
 51
269.999999896069
  0
ARC
  5
   31D
  8
0
  6
CONTINUOUS
 62
     3
 10
-117.750040839034
 20
-86.2989843031269
 30
0.0
 40
1.0
 50
532.819244114611
 51
727.180755677527
  0
ARC
  5
   31E
  8
0
  6
CONTINUOUS
 62
     3
 10
-115.765727355735
 20
-86.0489843031269
 30
0.0
 40
1.0
 50
449.999999896069
 51
547.180755677527
  0
ARC
  5
   31F
  8
0
  6
CONTINUOUS
 62
     3
 10
-119.734354322332
 20
-86.0489843031269
 30
0.0
 40
1.0
 50
352.819244114611
 51
449.999999896069
  0
LINE
  5
   320
  8
0
  6
CONTINUOUS
 62
     3
 10
-107.504404309404
 20
-86.2989843031269
 30
0.0
 11
-115.750040839034
 21
-86.2989843031269
 31
0.0
  0
LINE
  5
   321
  8
0
  6
CONTINUOUS
 62
     3
 10
-120.750040839034
 20
-100.798984303127
 30
0.0
 11
-122.750040839034
 21
-100.798984303127
 31
0.0
  0
LINE
  5
   322
  8
0
  6
CONTINUOUS
 62
     3
 10
-120.750040839034
 20
-102.798984303127
 30
0.0
 11
-122.750040839034
 21
-102.798984303127
 31
0.0
  0
LINE
  5
   323
  8
0
  6
CONTINUOUS
 62
     3
 10
-114.750040839034
 20
-102.048984303127
 30
0.0
 11
-114.750040839034
 21
-104.048984303127
 31
0.0
  0
LINE
  5
   324
  8
0
  6
CONTINUOUS
 62
     3
 10
-120.750040839034
 20
-102.048984303127
 30
0.0
 11
-120.750040839034
 21
-104.048984303127
 31
0.0
  0
INSERT
  5
   325
  8
255
  6
CONTINUOUS
 62
     7
  2
$2146558
 10
-226.368589063321
 20
-124.048966407776
 30
0.0
 41
0.5
 42
0.5
 50
269.999999844103
 43
0.5
  0
INSERT
  5
   326
  8
0
  6
CONTINUOUS
 62
    98
  2
*HATCH213
 10
0.0
 20
-76.298957824707
 30
0.0
 41
0.5
 42
0.5
 50
179.999999896069
 43
0.5
  0
INSERT
  5
   327
  8
0
  6
CONTINUOUS
 62
    98
  2
*HATCH214
 10
0.0
 20
-76.298957824707
 30
0.0
 41
0.5
 42
0.5
 50
179.999999896069
 43
0.5
  0
INSERT
  5
   328
  8
0
  6
CONTINUOUS
 62
    98
  2
*HATCH215
 10
0.0
 20
-76.298957824707
 30
0.0
 41
0.5
 42
0.5
 50
179.999999896069
 43
0.5
  0
LINE
  5
   329
  8
0
  6
CONTINUOUS
 62
     3
 10
-112.750040839034
 20
-88.7989833494526
 30
0.0
 11
-112.750040839034
 21
-103.548984303127
 31
0.0
  0
LINE
  5
   32A
  8
0
  6
CONTINUOUS
 62
     3
 10
-112.750040839034
 20
-100.798984303127
 30
0.0
 11
-114.750040839034
 21
-100.798984303127
 31
0.0
  0
LINE
  5
   32B
  8
0
  6
CONTINUOUS
 62
     3
 10
-112.750040839034
 20
-102.798984303127
 30
0.0
 11
-114.750040839034
 21
-102.798984303127
 31
0.0
  0
LINE
  5
   32C
  8
0
  6
CONTINUOUS
 62
     3
 10
-113.750040839034
 20
-104.548984303127
 30
0.0
 11
-114.750040839034
 21
-104.548984303127
 31
0.0
  0
INSERT
  5
   32D
  8
0
  6
CONTINUOUS
 62
     7
  2
*HATCH216
 10
0.0
 20
-76.298957824707
 30
0.0
 41
0.5
 42
0.5
 50
179.999999896069
 43
0.5
  0
LINE
  5
   32E
  8
0
  6
CONTINUOUS
 62
     7
 10
-4.74998967854438
 20
-88.7989833494526
 30
0.0
 11
-4.74998967854438
 21
-89.2989833494526
 31
0.0
  0
LINE
  5
   32F
  8
0
  6
CONTINUOUS
 62
     7
 10
-12.7499896785444
 20
-88.7989833494526
 30
0.0
 11
-12.7499896785444
 21
-89.2989833494526
 31
0.0
  0
LINE
  5
   330
  8
0
  6
CONTINUOUS
 62
     7
 10
-4.74998967854438
 20
-89.2989833494526
 30
0.0
 11
-12.7499896785444
 21
-89.2989833494526
 31
0.0
  0
ARC
  5
   331
  8
0
  6
CONTINUOUS
 62
     1
 10
-5.99998967854438
 20
-92.7989833494526
 30
0.0
 40
0.5
 50
269.999999896069
 51
359.999999896069
  0
ARC
  5
   332
  8
0
  6
CONTINUOUS
 62
     1
 10
-11.4999896785444
 20
-92.7989833494526
 30
0.0
 40
0.5
 50
179.999999896069
 51
269.999999896069
  0
LINE
  5
   333
  8
0
  6
CONTINUOUS
 62
     7
 10
-7.24998967854438
 20
-79.2989833494526
 30
0.0
 11
-10.2499896785444
 21
-79.2989833494526
 31
0.0
  0
LINE
  5
   334
  8
0
  6
CONTINUOUS
 62
     7
 10
-6.74998967854438
 20
-79.7989833494526
 30
0.0
 11
-6.74998967854438
 21
-83.298957824707
 31
0.0
  0
LINE
  5
   335
  8
0
  6
CONTINUOUS
 62
     7
 10
-10.7499896785444
 20
-79.7989833494526
 30
0.0
 11
-10.7499896785444
 21
-83.298957824707
 31
0.0
  0
LINE
  5
   336
  8
0
  6
CONTINUOUS
 62
     7
 10
-6.74998967854438
 20
-79.7989833494526
 30
0.0
 11
-7.24998967854438
 21
-79.2989833494526
 31
0.0
  0
LINE
  5
   337
  8
0
  6
CONTINUOUS
 62
     7
 10
-10.2499896785444
 20
-79.2989833494526
 30
0.0
 11
-10.7499896785444
 21
-79.7989833494526
 31
0.0
  0
LINE
  5
   338
  8
0
  6
CONTINUOUS
 62
     7
 10
-7.24998967854438
 20
-79.7989833494526
 30
0.0
 11
-7.24998967854438
 21
-83.298957824707
 31
0.0
  0
LINE
  5
   339
  8
0
  6
CONTINUOUS
 62
     7
 10
-10.2499896785444
 20
-79.7989833494526
 30
0.0
 11
-10.2499896785444
 21
-83.298957824707
 31
0.0
  0
LINE
  5
   33A
  8
0
  6
CONTINUOUS
 62
     7
 10
-6.74998967854438
 20
-79.7989833494526
 30
0.0
 11
-10.7499896785444
 21
-79.7989833494526
 31
0.0
  0
LINE
  5
   33B
  8
0
  6
CONTINUOUS
 62
     7
 10
5.75
 20
-78.2720692681856
 30
0.0
 11
2.25
 21
-78.2720692681856
 31
0.0
  0
LINE
  5
   33C
  8
0
  6
CONTINUOUS
 62
     7
 10
5.75
 20
-54.298957824707
 30
0.0
 11
5.75
 21
-145.548960313715
 31
0.0
  0
LINE
  5
   33D
  8
0
  6
CONTINUOUS
 62
     7
 10
5.75
 20
-150.548960313715
 30
0.0
 11
2.25
 21
-150.548960313715
 31
0.0
  0
ARC
  5
   33E
  8
0
  6
CONTINUOUS
 62
     7
 10
2.25
 20
-148.048960313715
 30
0.0
 40
2.5
 50
449.999999896069
 51
629.999999896069
  0
ARC
  5
   33F
  8
0
  6
CONTINUOUS
 62
     7
 10
5.75
 20
-148.048960313715
 30
0.0
 40
2.5
 50
269.999999896069
 51
449.999999896069
  0
LINE
  5
   340
  8
0
  6
CONTINUOUS
 62
     7
 10
5.75
 20
-77.298960313715
 30
0.0
 11
2.25
 21
-77.298960313715
 31
0.0
  0
LINE
  5
   341
  8
0
  6
CONTINUOUS
 62
     7
 10
2.25
 20
-76.298957824707
 30
0.0
 11
2.25
 21
-145.548960313715
 31
0.0
  0
LINE
  5
   342
  8
0
  6
CONTINUOUS
 62
     7
 10
4.5
 20
-76.298957824707
 30
0.0
 11
4.5
 21
-77.298960313715
 31
0.0
  0
LINE
  5
   343
  8
0
  6
CONTINUOUS
 62
     7
 10
-150.25
 20
-80.298957824707
 30
0.0
 11
-152.75
 21
-80.298957824707
 31
0.0
  0
LINE
  5
   344
  8
0
  6
CONTINUOUS
 62
     7
 10
-50.5099920965613
 20
-62.7989578247076
 30
0.0
 11
-50.7500190384679
 21
-35.2945945569588
 31
0.0
  0
ARC
  5
   345
  8
0
  6
CONTINUOUS
 62
     7
 10
-51.25
 20
-35.298957824707
 30
0.0
 40
0.5
 50
360.499999896068
 51
449.999999896069
  0
LINE
  5
   346
  8
0
  6
CONTINUOUS
 62
     7
 10
-51.25
 20
-34.798957824707
 30
0.0
 11
-57.0
 21
-34.798957824707
 31
0.0
  0
LINE
  5
   347
  8
0
  6
CONTINUOUS
 62
     7
 10
-6.25
 20
-54.298957824707
 30
0.0
 11
-6.25
 21
-62.798957824707
 31
0.0
  0
LINE
  5
   348
  8
0
  6
CONTINUOUS
 62
     3
 10
-3.75
 20
-86.298957824707
 30
0.0
 11
-10.4334005358151
 21
-86.2989843031269
 31
0.0
  0
LINE
  5
   349
  8
0
  6
CONTINUOUS
 62
     2
 10
-18.22499048746
 20
-77.2989501950805
 30
0.0
 11
-21.2500381469727
 21
-77.2989501950805
 31
0.0
  0
LINE
  5
   34A
  8
0
  6
CONTINUOUS
 62
     3
 10
1.5
 20
-49.2989578247071
 30
0.0
 11
1.5
 21
-54.298957824707
 31
0.0
  0
LINE
  5
   34B
  8
0
  6
CONTINUOUS
 62
     3
 10
1.5
 20
-49.298957824707
 30
0.0
 11
-1.5
 21
-49.298957824707
 31
0.0
  0
LINE
  5
   34C
  8
0
  6
CONTINUOUS
 62
     3
 10
1.0
 20
-48.798957824707
 30
0.0
 11
-1.0
 21
-48.798957824707
 31
0.0
  0
LINE
  5
   34D
  8
0
  6
CONTINUOUS
 62
     3
 10
1.5
 20
-49.2989578247071
 30
0.0
 11
0.999999999999998
 21
-48.798957824707
 31
0.0
  0
LINE
  5
   34E
  8
0
  6
CONTINUOUS
 62
     3
 10
-1.0
 20
-48.798957824707
 30
0.0
 11
-1.49999999999999
 21
-49.298957824707
 31
0.0
  0
LINE
  5
   34F
  8
0
  6
DASHDOT
 62
     7
 10
0.0
 20
-43.5214268629047
 30
0.0
 11
0.0
 21
-60.4020001313859
 31
0.0
  0
LINE
  5
   350
  8
0
  6
CONTINUOUS
 62
     5
 10
15.0000020168875
 20
-49.2989542011833
 30
0.0
 11
15.0000020168875
 21
-54.2989542011833
 31
0.0
  0
LINE
  5
   351
  8
0
  6
CONTINUOUS
 62
     5
 10
-2.49999798311246
 20
-49.2989542011833
 30
0.0
 11
-2.49999798311246
 21
-54.2989542011833
 31
0.0
  0
LINE
  5
   352
  8
0
  6
CONTINUOUS
 62
     5
 10
15.0000020168875
 20
-54.2989542011833
 30
0.0
 11
-2.49999798311246
 21
-54.2989542011833
 31
0.0
  0
LINE
  5
   353
  8
0
  6
DASHDOT
 62
     7
 10
12.5000020421541
 20
-48.8676570922051
 30
0.0
 11
12.5000020421541
 21
-56.6430506556293
 31
0.0
  0
LINE
  5
   354
  8
0
  6
CONTINUOUS
 62
     5
 10
4.12500201688754
 20
-47.7989542011833
 30
0.0
 11
4.12500201688754
 21
-48.2989542011833
 31
0.0
  0
LINE
  5
   355
  8
0
  6
CONTINUOUS
 62
     5
 10
8.37500201688754
 20
-47.7989542011833
 30
0.0
 11
8.37500201688754
 21
-48.2989542011833
 31
0.0
  0
LINE
  5
   356
  8
0
  6
CONTINUOUS
 62
     5
 10
9.70577498186555
 20
-48.2989542011833
 30
0.0
 11
9.70577498186555
 21
-49.2989542011833
 31
0.0
  0
LINE
  5
   357
  8
0
  6
CONTINUOUS
 62
     5
 10
2.79422896669135
 20
-48.2989542011833
 30
0.0
 11
2.79422896669135
 21
-49.2989542011833
 31
0.0
  0
LINE
  5
   358
  8
0
  6
CONTINUOUS
 62
     5
 10
9.70577498186555
 20
-48.2989542011833
 30
0.0
 11
8.37500201688754
 21
-48.2989542011833
 31
0.0
  0
LINE
  5
   359
  8
0
  6
CONTINUOUS
 62
     5
 10
4.39295120931865
 20
-46.7989542011834
 30
0.0
 11
4.12500201688754
 21
-47.7989542011833
 31
0.0
  0
LINE
  5
   35A
  8
0
  6
CONTINUOUS
 62
     5
 10
8.37500201688751
 20
-47.7989542011833
 30
0.0
 11
8.1070528244564
 21
-46.7989542011833
 31
0.0
  0
LINE
  5
   35B
  8
0
  6
CONTINUOUS
 62
     5
 10
4.12500201688754
 20
-48.2989542011833
 30
0.0
 11
2.79422896669135
 21
-48.2989542011833
 31
0.0
  0
LINE
  5
   35C
  8
0
  6
CONTINUOUS
 62
     5
 10
15.0000020168875
 20
-49.2989542011833
 30
0.0
 11
9.70577498186555
 21
-49.2989542011833
 31
0.0
  0
LINE
  5
   35D
  8
0
  6
CONTINUOUS
 62
     5
 10
2.79422896669135
 20
-49.2989542011833
 30
0.0
 11
1.5
 21
-49.2989542011833
 31
0.0
  0
LINE
  5
   35E
  8
0
  6
CONTINUOUS
 62
     5
 10
9.87500204215405
 20
-50.5489542011833
 30
0.0
 11
2.62500199162102
 21
-50.5489542011833
 31
0.0
  0
LINE
  5
   35F
  8
0
  6
CONTINUOUS
 62
     5
 10
7.75000190734863
 20
-46.7989540100097
 30
0.0
 11
7.75000190734863
 21
-50.5489542011833
 31
0.0
  0
LINE
  5
   360
  8
0
  6
CONTINUOUS
 62
     5
 10
4.75000190734863
 20
-46.7989540100097
 30
0.0
 11
4.75000190734863
 21
-50.5489542011833
 31
0.0
  0
LINE
  5
   361
  8
0
  6
CONTINUOUS
 62
     1
 10
7.50000201688753
 20
-49.7489542011833
 30
0.0
 11
5.00000201688753
 21
-49.7489542011833
 31
0.0
  0
LINE
  5
   362
  8
0
  6
CONTINUOUS
 62
     1
 10
7.50000201688753
 20
-38.0489542011833
 30
0.0
 11
5.00000201688753
 21
-38.0489542011833
 31
0.0
  0
LINE
  5
   363
  8
0
  6
CONTINUOUS
 62
     1
 10
8.58021657725655
 20
-51.7989542011833
 30
0.0
 11
3.91978745651851
 21
-51.7989542011833
 31
0.0
  0
LINE
  5
   364
  8
0
  6
CONTINUOUS
 62
     1
 10
5.00000201688754
 20
-38.0489542011833
 30
0.0
 11
5.00000201688754
 21
-50.5489542011833
 31
0.0
  0
LINE
  5
   365
  8
0
  6
CONTINUOUS
 62
     1
 10
7.50000201688754
 20
-38.0489542011833
 30
0.0
 11
7.50000201688754
 21
-50.5489542011833
 31
0.0
  0
ARC
  5
   366
  8
0
  6
CONTINUOUS
 62
     1
 10
6.25000201688754
 20
-47.4489542011833
 30
0.0
 40
5.0
 50
242.309896323207
 51
268.137559096537
  0
LINE
  5
   367
  8
0
  6
CONTINUOUS
 62
     1
 10
3.92655647205343
 20
-51.8763237136806
 30
0.0
 11
3.81042565306982
 21
-50.5489542011833
 31
0.0
  0
LINE
  5
   368
  8
0
  6
CONTINUOUS
 62
     1
 10
8.68957838070525
 20
-50.5489542011833
 30
0.0
 11
8.57344756172164
 21
-51.8763237136806
 31
0.0
  0
LINE
  5
   369
  8
0
  6
CONTINUOUS
 62
     1
 10
8.68957838070525
 20
-50.5489542011833
 30
0.0
 11
3.81042565306981
 21
-50.5489542011833
 31
0.0
  0
LINE
  5
   36A
  8
0
  6
CONTINUOUS
 62
     7
 10
5.24537401688753
 20
-38.0489542011833
 30
0.0
 11
5.24537401688753
 21
-49.7489542011833
 31
0.0
  0
LINE
  5
   36B
  8
0
  6
CONTINUOUS
 62
     7
 10
7.25463001688754
 20
-38.0489542011833
 30
0.0
 11
7.25463001688754
 21
-49.7489542011833
 31
0.0
  0
LINE
  5
   36C
  8
0
  6
DASHDOT
 62
     7
 10
6.25000201688754
 20
-32.6235127352336
 30
0.0
 11
6.25000201688754
 21
-54.4489542011833
 31
0.0
  0
LINE
  5
   36D
  8
0
  6
CONTINUOUS
 62
     1
 10
6.41250201688753
 20
-52.1239542011833
 30
0.0
 11
6.08750201688753
 21
-52.1239542011833
 31
0.0
  0
LINE
  5
   36E
  8
0
  6
CONTINUOUS
 62
     1
 10
6.08750201688754
 20
-52.1239542011833
 30
0.0
 11
6.08750201688754
 21
-52.4463128785248
 31
0.0
  0
LINE
  5
   36F
  8
0
  6
CONTINUOUS
 62
     1
 10
6.41250201688753
 20
-52.1239542011833
 30
0.0
 11
6.41250201688753
 21
-52.4463128785248
 31
0.0
  0
ARC
  5
   370
  8
0
  6
CONTINUOUS
 62
     1
 10
6.25000201688754
 20
-47.4489542011833
 30
0.0
 40
5.0
 50
271.862440695601
 51
297.69010346893
  0
LINE
  5
   371
  8
0
  6
CONTINUOUS
 62
     5
 10
11.1250020421541
 20
-49.2989542011833
 30
0.0
 11
11.1250020421541
 21
-54.2989542011833
 31
0.0
  0
LINE
  5
   372
  8
0
  6
CONTINUOUS
 62
     5
 10
13.8750020421541
 20
-49.2989542011833
 30
0.0
 11
13.8750020421541
 21
-54.2989542011833
 31
0.0
  0
LINE
  5
   373
  8
0
  6
CONTINUOUS
 62
     7
 10
1.0
 20
-49.2989578247071
 30
0.0
 11
1.0
 21
-53.5193906442447
 31
0.0
  0
LINE
  5
   374
  8
0
  6
CONTINUOUS
 62
     5
 10
-1.49999999999999
 20
-49.298957824707
 30
0.0
 11
-2.49999798311246
 21
-49.2989542011833
 31
0.0
  0
LINE
  5
   375
  8
0
  6
CONTINUOUS
 62
     7
 10
-1.0
 20
-49.298957824707
 30
0.0
 11
-1.0
 21
-50.4329708911583
 31
0.0
  0
INSERT
  5
   376
  8
0
  6
CONTINUOUS
 62
     7
  2
*HATCH217
 10
0.0
 20
-76.298957824707
 30
0.0
 41
0.5
 42
0.5
 50
179.999999896069
 43
0.5
  0
LINE
  5
   377
  8
0
  6
CONTINUOUS
 62
     5
 10
9.87500204215405
 20
-50.5489542011833
 30
0.0
 11
9.87500204215405
 21
-54.2989542011833
 31
0.0
  0
LINE
  5
   378
  8
0
  6
CONTINUOUS
 62
     5
 10
2.62500199162102
 20
-50.5489542011833
 30
0.0
 11
2.62500199162102
 21
-54.2989542011833
 31
0.0
  0
INSERT
  5
   379
  8
0
  6
CONTINUOUS
 62
     7
  2
*HATCH218
 10
0.0
 20
-76.298957824707
 30
0.0
 41
0.5
 42
0.5
 50
179.999999896069
 43
0.5
  0
INSERT
  5
   37A
  8
0
  6
CONTINUOUS
 62
     7
  2
*HATCH219
 10
0.0
 20
-76.298957824707
 30
0.0
 41
0.5
 42
0.5
 50
179.999999896069
 43
0.5
  0
INSERT
  5
   37B
  8
0
  6
CONTINUOUS
 62
     7
  2
*UDIM724
 10
0.0
 20
0.0
 30
0.0
  0
INSERT
  5
   37C
  8
0
  6
CONTINUOUS
 62
     7
  2
*UDIM725
 10
0.0
 20
0.0
 30
0.0
  0
LINE
  5
   37D
  8
0
  6
CONTINUOUS
 62
     7
 10
-149.646824904736
 20
-76.298957824707
 30
0.0
 11
-149.646824904736
 21
-127.048988342285
 31
0.0
  0
LINE
  5
   37E
  8
0
  6
CONTINUOUS
 62
     7
 10
1.24999420163434
 20
-77.2989501950805
 30
0.0
 11
1.24999420163434
 21
-127.048988342285
 31
0.0
  0
INSERT
  5
   37F
  8
0
  6
CONTINUOUS
 62
     3
  2
*UDIM726
 10
0.0
 20
0.0
 30
0.0
  0
LINE
  5
   380
  8
0
  6
CONTINUOUS
 62
     7
 10
-73.3969236427054
 20
-143.296514625419
 30
0.0
 11
-78.2747789507486
 21
-143.296514625419
 31
0.0
  0
INSERT
  5
   381
  8
0
  6
CONTINUOUS
 62
     3
  2
*UDIM727
 10
0.0
 20
0.0
 30
0.0
  0
TEXT
  5
   382
  8
0
  6
CONTINUOUS
 62
     2
 10
24.0529022194185
 20
-152.134108586222
 30
0.0
 40
2.50000005960464
  1
96-08-27
 50
359.999999896069
 41
1.09999991695086
 11
24.0529022216796
 21
-150.88410855642
 31
0.0
 73
     2
  0
TEXT
  5
   383
  8
0
  6
CONTINUOUS
 62
     2
 10
24.0529022194185
 20
-156.134108465462
 30
0.0
 40
2.50000005960464
  1
MAZZOLENI
 50
359.999999896069
 41
1.09799996061325
 11
24.0529022216796
 21
-154.884108435659
 31
0.0
 73
     2
  0
TEXT
  5
   384
  8
0
  6
CONTINUOUS
 62
     2
 10
139.03296440713
 20
-170.936197299079
 30
0.0
 40
2.50000005960464
  1
S4 IV
 50
359.999999896069
 41
1.09999991695086
 72
     1
 11
145.449630737305
 21
-169.686197280884
 31
0.0
 73
     2
  0
TEXT
  5
   385
  8
0
  6
CONTINUOUS
 62
     2
 10
185.037633454525
 20
-173.241485618873
 30
0.0
 40
2.50000005960464
  1
1:2
 50
359.999999896069
 41
1.09999991695086
 72
     1
 11
188.704299926758
 21
-171.991485595703
 31
0.0
 73
     2
  0
TEXT
  5
   386
  8
0
  6
CONTINUOUS
 62
     7
 10
130.938898354972
 20
-151.866537259116
 30
0.0
 40
2.499995470047
  1
ADATTATORE PER
 50
359.999999896069
 41
0.933333333333333
 72
     1
 11
147.022202547869
 21
-150.616539553186
 31
0.0
 73
     2
  0
TEXT
  5
   387
  8
0
  6
CONTINUOUS
 62
     7
 10
129.772233452592
 20
-155.866537257006
 30
0.0
 40
2.499995470047
  1
QUADRO MNS 2000
 50
359.999999896069
 41
0.933333333333333
 72
     1
 11
147.022202198178
 21
-154.616539553186
 31
0.0
 73
     2
  0
TEXT
  5
   388
  8
0
  6
CONTINUOUS
 62
     7
 10
134.438891313656
 20
-159.866537265447
 30
0.0
 40
2.499995470047
  1
ADAPTER FOR
 50
359.999999896069
 41
0.933333333333333
 72
     1
 11
147.022201848487
 21
-158.616539553186
 31
0.0
 73
     2
  0
TEXT
  5
   389
  8
0
  6
CONTINUOUS
 62
     7
 10
129.77223275321
 20
-163.866537257006
 30
0.0
 40
2.499995470047
  1
MNS SYSTEM 2000
 50
359.999999896069
 41
0.933333333333333
 72
     1
 11
147.022201498795
 21
-162.616539553186
 31
0.0
 73
     2
  0
TEXT
  5
   38A
  8
0
  6
CONTINUOUS
 62
     2
 10
125.524632257623
 20
-180.402947352762
 30
0.0
 40
4.49999994039536
  1
601812/811
 50
359.999999896069
 41
1.09999994414824
 72
     1
 11
149.449630737305
 21
-178.152947425842
 31
0.0
 73
     2
  0
INSERT
  5
   38B
  8
0
  6
CONTINUOUS
 62
     7
  2
*UDIM728
 10
0.0
 20
0.0
 30
0.0
  0
TEXT
  5
   38C
  8
0
  6
CONTINUOUS
 62
     2
 10
35.5196380592623
 20
-168.819508535518
 30
0.0
 40
2.50000005960464
  1
N0006 99-04-15
 50
359.999999896069
 41
0.64999958527089
 11
35.5196380615234
 21
-167.569508505716
 31
0.0
 73
     2
  0
TEXT
  5
   38D
  8
0
  6
CONTINUOUS
 62
     2
 10
24.0529022194185
 20
-164.600858587932
 30
0.0
 40
2.50000005960464
  1
GIUPPONI
 50
359.999999896069
 41
1.09799996061325
 11
24.0529022216796
 21
-163.35085855813
 31
0.0
 73
     2
  0
TEXT
  5
   38E
  8
0
  6
CONTINUOUS
 62
     2
 10
24.0529022194185
 20
-160.600858586222
 30
0.0
 40
2.50000005960464
  1
99-04-15
 50
359.999999896069
 41
1.09999991695086
 11
24.0529022216796
 21
-159.35085855642
 31
0.0
 73
     2
  0
TEXT
  5
   38F
  8
0
  6
CONTINUOUS
 62
     2
 10
184.57930014106
 20
-181.708282533942
 30
0.0
 40
2.50000005960464
  1
1/1
 50
359.999999896069
 41
1.09999991695086
 72
     1
 11
188.245966613293
 21
-180.458282510772
 31
0.0
 73
     2
  0
TEXT
  5
   390
  8
0
  6
CONTINUOUS
 62
     2
 10
184.57930014106
 20
-164.774704042731
 30
0.0
 40
2.50000005960464
  1
ITA
 50
359.999999896069
 41
1.09999991695086
 72
     1
 11
188.245966613293
 21
-163.524704019561
 31
0.0
 73
     2
  0
LINE
  5
   391
  8
0
  6
CONTINUOUS
 62
     7
 10
38.7438340605953
 20
-51.1368996084898
 30
0.0
 11
4.88069893507338
 21
-42.9705486939749
 31
0.0
  0
LINE
  5
   392
  8
0
  6
CONTINUOUS
 62
     7
 10
-150.25
 20
3.80424976348877
 30
0.0
 11
-150.25
 21
5.05424976348877
 31
0.0
  0
LINE
  5
   393
  8
0
  6
CONTINUOUS
 62
     7
 10
-150.25
 20
16.0542497634888
 30
0.0
 11
-150.25
 21
17.3042497634888
 31
0.0
  0
LINE
  5
   394
  8
0
  6
CONTINUOUS
 62
     7
 10
-150.25
 20
28.1792497634888
 30
0.0
 11
-150.25
 21
29.4292497634888
 31
0.0
  0
LINE
  5
   395
  8
0
  6
CONTINUOUS
 62
     7
 10
-150.25
 20
40.3042497634888
 30
0.0
 11
-150.25
 21
41.5542497634888
 31
0.0
  0
LINE
  5
   396
  8
0
  6
CONTINUOUS
 62
     7
 10
2.25
 20
42.8042497634888
 30
0.0
 11
5.75
 21
42.8042497634888
 31
0.0
  0
LINE
  5
   397
  8
0
  6
CONTINUOUS
 62
     7
 10
4.75
 20
42.8042497634888
 30
0.0
 11
4.75
 21
70.8042497634888
 31
0.0
  0
LINE
  5
   398
  8
0
  6
CONTINUOUS
 62
     7
 10
2.25
 20
24.3042497634888
 30
0.0
 11
2.25
 21
33.8042497634888
 31
0.0
  0
LINE
  5
   399
  8
0
  6
CONTINUOUS
 62
     7
 10
2.25
 20
70.8042497634888
 30
0.0
 11
4.75
 21
70.8042497634888
 31
0.0
  0
LINE
  5
   39A
  8
0
  6
CONTINUOUS
 62
     7
 10
5.75
 20
42.8042497634888
 30
0.0
 11
5.75
 21
71.8042497634888
 31
0.0
  0
LINE
  5
   39B
  8
0
  6
CONTINUOUS
 62
     7
 10
2.25
 20
35.0542497634888
 30
0.0
 11
5.75
 21
35.0542497634888
 31
0.0
  0
LINE
  5
   39C
  8
0
  6
CONTINUOUS
 62
     7
 10
2.25
 20
33.8042497634888
 30
0.0
 11
5.75
 21
33.8042497634888
 31
0.0
  0
LINE
  5
   39D
  8
0
  6
CONTINUOUS
 62
     7
 10
2.25
 20
33.3042497634888
 30
0.0
 11
5.75
 21
33.3042497634888
 31
0.0
  0
LINE
  5
   39E
  8
0
  6
CONTINUOUS
 62
     7
 10
2.25
 20
24.3042497634888
 30
0.0
 11
5.75
 21
24.3042497634888
 31
0.0
  0
LINE
  5
   39F
  8
0
  6
CONTINUOUS
 62
     7
 10
5.75
 20
33.8042497634888
 30
0.0
 11
5.75
 21
35.0542497634888
 31
0.0
  0
LINE
  5
   3A0
  8
0
  6
CONTINUOUS
 62
     7
 10
2.25
 20
35.0542497634888
 30
0.0
 11
2.25
 21
70.8042497634888
 31
0.0
  0
LINE
  5
   3A1
  8
0
  6
CONTINUOUS
 62
     7
 10
2.25
 20
43.8042497634888
 30
0.0
 11
4.75
 21
43.8042497634888
 31
0.0
  0
LINE
  5
   3A2
  8
0
  6
CONTINUOUS
 62
     7
 10
-76.8490702339645
 20
23.8042024072897
 30
0.0
 11
-68.77093760457
 21
23.8042024072897
 31
0.0
  0
LINE
  5
   3A3
  8
0
  6
CONTINUOUS
 62
     7
 10
-88.6250158974167
 20
10.3042100366842
 30
0.0
 11
-88.6250158974167
 21
15.3042100366842
 31
0.0
  0
LINE
  5
   3A4
  8
0
  6
CONTINUOUS
 62
     7
 10
-88.6250158974167
 20
10.3042100366842
 30
0.0
 11
-88.3750158974167
 21
10.3042100366842
 31
0.0
  0
LINE
  5
   3A5
  8
0
  6
CONTINUOUS
 62
     7
 10
-88.6250158974167
 20
15.3042100366842
 30
0.0
 11
-88.3750158974167
 21
15.3042100366842
 31
0.0
  0
LINE
  5
   3A6
  8
0
  6
CONTINUOUS
 62
     7
 10
-36.1250178047653
 20
3.05504164068812
 30
0.0
 11
-36.1250178047653
 21
72.8042497634888
 31
0.0
  0
LINE
  5
   3A7
  8
0
  6
CONTINUOUS
 62
     7
 10
-88.6250158974167
 20
3.05504164068812
 30
0.0
 11
-88.6250158974167
 21
10.3042100366842
 31
0.0
  0
LINE
  5
   3A8
  8
0
  6
CONTINUOUS
 62
     7
 10
-88.6250158974167
 20
15.3042100366842
 30
0.0
 11
-88.6250158974167
 21
54.9685730275416
 31
0.0
  0
LINE
  5
   3A9
  8
0
  6
CONTINUOUS
 62
     7
 10
-88.6250113443027
 20
3.05419802773093
 30
0.0
 11
-88.5517882301908
 21
2.87741732247513
 31
0.0
  0
LINE
  5
   3AA
  8
0
  6
CONTINUOUS
 62
     7
 10
-88.551793043276
 20
2.87742966811213
 30
0.0
 11
-88.3750161606501
 21
2.80421036886969
 31
0.0
  0
LINE
  5
   3AB
  8
0
  6
CONTINUOUS
 62
     7
 10
-36.3750187202922
 20
2.80421054774233
 30
0.0
 11
-36.1982380160454
 21
2.87742984690509
 31
0.0
  0
LINE
  5
   3AC
  8
0
  6
CONTINUOUS
 62
     7
 10
-36.1982375873162
 20
2.87743028867919
 30
0.0
 11
-36.1250182881534
 21
3.05421099292598
 31
0.0
  0
LINE
  5
   3AD
  8
0
  6
CONTINUOUS
 62
     7
 10
-77.6145426460739
 20
23.6792100366842
 30
0.0
 11
-57.5000216194626
 21
23.6792100366842
 31
0.0
  0
LINE
  5
   3AE
  8
0
  6
CONTINUOUS
 62
     7
 10
-72.875013990068
 20
2.80421003668421
 30
0.0
 11
-72.875013990068
 21
23.6792100366842
 31
0.0
  0
LINE
  5
   3AF
  8
0
  6
CONTINUOUS
 62
     7
 10
-72.375013990068
 20
2.80421003668421
 30
0.0
 11
-72.375013990068
 21
23.6792100366842
 31
0.0
  0
LINE
  5
   3B0
  8
0
  6
CONTINUOUS
 62
     7
 10
-79.375013990068
 20
2.94385847418421
 30
0.0
 11
-79.375013990068
 21
29.0542100366842
 31
0.0
  0
LINE
  5
   3B1
  8
0
  6
CONTINUOUS
 62
     7
 10
-78.875013990068
 20
2.80421003668421
 30
0.0
 11
-78.875013990068
 21
29.0542100366842
 31
0.0
  0
LINE
  5
   3B2
  8
0
  6
CONTINUOUS
 62
     7
 10
-79.375013990068
 20
2.80421003668421
 30
0.0
 11
-79.375013990068
 21
3.00170454352015
 31
0.0
  0
LINE
  5
   3B3
  8
0
  6
CONTINUOUS
 62
     7
 10
-78.875013990068
 20
2.80421003668421
 30
0.0
 11
-78.875013990068
 21
2.94386610357874
 31
0.0
  0
LINE
  5
   3B4
  8
0
  6
CONTINUOUS
 62
     7
 10
-56.125013990068
 20
2.80421003668421
 30
0.0
 11
-56.125013990068
 21
29.0542100366842
 31
0.0
  0
LINE
  5
   3B5
  8
0
  6
CONTINUOUS
 62
     7
 10
-55.625013990068
 20
2.80421003668421
 30
0.0
 11
-55.625013990068
 21
29.0542100366842
 31
0.0
  0
LINE
  5
   3B6
  8
0
  6
CONTINUOUS
 62
     7
 10
-62.625013990068
 20
2.80421003668421
 30
0.0
 11
-62.625013990068
 21
23.6792100366842
 31
0.0
  0
LINE
  5
   3B7
  8
0
  6
CONTINUOUS
 62
     7
 10
-62.125013990068
 20
2.80421003668421
 30
0.0
 11
-62.125013990068
 21
23.6792100366842
 31
0.0
  0
LINE
  5
   3B8
  8
0
  6
CONTINUOUS
 62
     7
 10
-78.0000808548036
 20
11.3042176660787
 30
0.0
 11
-76.0000808548041
 21
11.3042176660787
 31
0.0
  0
LINE
  5
   3B9
  8
0
  6
CONTINUOUS
 62
     7
 10
-78.2500808548036
 20
5.55421766607874
 30
0.0
 11
-78.2500808548036
 21
11.0542176660787
 31
0.0
  0
LINE
  5
   3BA
  8
0
  6
CONTINUOUS
 62
     7
 10
-78.0000808548036
 20
5.30421766607874
 30
0.0
 11
-76.0000808548041
 21
5.30421766607874
 31
0.0
  0
LINE
  5
   3BB
  8
0
  6
CONTINUOUS
 62
     7
 10
-12.0000254341077
 20
2.80424976348877
 30
0.0
 11
1.24997456584018
 21
2.80424976348877
 31
0.0
  0
LINE
  5
   3BC
  8
0
  6
CONTINUOUS
 62
     7
 10
-36.2500254341598
 20
2.80421003668421
 30
0.0
 11
-12.0000254341598
 21
2.80421003668421
 31
0.0
  0
LINE
  5
   3BD
  8
0
  6
CONTINUOUS
 62
     7
 10
-94.2500235268112
 20
2.80421003668421
 30
0.0
 11
-88.5000197121139
 21
2.80421003668421
 31
0.0
  0
LINE
  5
   3BE
  8
0
  6
CONTINUOUS
 62
     7
 10
-12.0000254341598
 20
2.80421003668421
 30
0.0
 11
-12.0000254341598
 21
29.0542100366842
 31
0.0
  0
LINE
  5
   3BF
  8
0
  6
CONTINUOUS
 62
     7
 10
-88.5000235268112
 20
2.80421003668421
 30
0.0
 11
-88.3750158974167
 21
2.80421003668421
 31
0.0
  0
LINE
  5
   3C0
  8
0
  6
CONTINUOUS
 62
     7
 10
-79.375013990068
 20
2.80421003668421
 30
0.0
 11
-78.875013990068
 21
2.80421003668421
 31
0.0
  0
LINE
  5
   3C1
  8
0
  6
CONTINUOUS
 62
     7
 10
-36.3750178047653
 20
2.80421003668421
 30
0.0
 11
-36.2500254341598
 21
2.80421003668421
 31
0.0
  0
LINE
  5
   3C2
  8
0
  6
CONTINUOUS
 62
     7
 10
-88.6250235268112
 20
2.92921003668421
 30
0.0
 11
-88.6250235268112
 21
3.05421003668421
 31
0.0
  0
LINE
  5
   3C3
  8
0
  6
CONTINUOUS
 62
     7
 10
-36.1250254341598
 20
2.92921003668421
 30
0.0
 11
-36.1250254341598
 21
3.05421003668421
 31
0.0
  0
LINE
  5
   3C4
  8
0
  6
CONTINUOUS
 62
     7
 10
-36.1250254341598
 20
2.80421003668421
 30
0.0
 11
-36.1250254341598
 21
2.92921003668421
 31
0.0
  0
LINE
  5
   3C5
  8
0
  6
CONTINUOUS
 62
     7
 10
-36.1616412161706
 20
2.84082809749758
 30
0.0
 11
-36.12502775166
 21
2.92921463259312
 31
0.0
  0
LINE
  5
   3C6
  8
0
  6
CONTINUOUS
 62
     7
 10
-36.2500305755201
 20
2.80421289929201
 30
0.0
 11
-36.1616516709794
 21
2.84081873416319
 31
0.0
  0
LINE
  5
   3C7
  8
0
  6
CONTINUOUS
 62
     7
 10
-88.6250235268112
 20
2.80421003668421
 30
0.0
 11
-88.6250235268112
 21
2.92921003668421
 31
0.0
  0
LINE
  5
   3C8
  8
0
  6
CONTINUOUS
 62
     7
 10
-88.6250267093126
 20
2.9292184409686
 30
0.0
 11
-88.5884151522517
 21
2.8408319075687
 31
0.0
  0
LINE
  5
   3C9
  8
0
  6
CONTINUOUS
 62
     7
 10
-88.5884062076291
 20
2.84082100984245
 30
0.0
 11
-88.5000215776004
 21
2.80420754539167
 31
0.0
  0
LINE
  5
   3CA
  8
0
  6
CONTINUOUS
 62
     7
 10
-36.1250254341598
 20
3.55421003668421
 30
0.0
 11
-14.5000254341598
 21
3.55421003668421
 31
0.0
  0
LINE
  5
   3CB
  8
0
  6
CONTINUOUS
 62
     7
 10
-14.5000254341598
 20
3.55421003668421
 30
0.0
 11
-14.5000254341598
 21
29.0542100366842
 31
0.0
  0
LINE
  5
   3CC
  8
0
  6
CONTINUOUS
 62
     7
 10
-94.2500235268112
 20
2.80421003668421
 30
0.0
 11
-94.2500235268112
 21
2.8559907373678
 31
0.0
  0
LINE
  5
   3CD
  8
0
  6
CONTINUOUS
 62
     7
 10
-91.296825715359
 20
55.3041871485006
 30
0.0
 11
-48.4968058296676
 21
55.3041871485006
 31
0.0
  0
LINE
  5
   3CE
  8
0
  6
CONTINUOUS
 62
     7
 10
-1.1500193306442
 20
11.5542039176583
 30
0.0
 11
-1.14680735554654
 21
11.5542039176583
 31
0.0
  0
LINE
  5
   3CF
  8
0
  6
CONTINUOUS
 62
     7
 10
-48.4968287178512
 20
55.3041871485006
 30
0.0
 11
-36.1250178047653
 21
55.3041871485006
 31
0.0
  0
LINE
  5
   3D0
  8
0
  6
CONTINUOUS
 62
     7
 10
-76.4762636848922
 20
24.3042024072897
 30
0.0
 11
-73.523005170488
 21
24.3042024072897
 31
0.0
  0
LINE
  5
   3D1
  8
0
  6
CONTINUOUS
 62
     7
 10
-76.8524232835654
 20
23.8113241568524
 30
0.0
 11
-76.7836404753075
 21
23.9506483452321
 31
0.0
  0
LINE
  5
   3D2
  8
0
  6
CONTINUOUS
 62
     7
 10
-76.783638709637
 20
23.9506423848373
 30
0.0
 11
-76.7824065624182
 21
23.9651916406307
 31
0.0
  0
LINE
  5
   3D3
  8
0
  6
CONTINUOUS
 62
     7
 10
-76.7824084102798
 20
23.9651978760984
 30
0.0
 11
-76.4762636840808
 21
24.3042024051111
 31
0.0
  0
LINE
  5
   3D4
  8
0
  6
CONTINUOUS
 62
     7
 10
-76.4762636848922
 20
24.3042024072897
 30
0.0
 11
-76.4762636848922
 21
29.0542024072897
 31
0.0
  0
LINE
  5
   3D5
  8
0
  6
CONTINUOUS
 62
     7
 10
-73.523005170488
 20
24.3042024072897
 30
0.0
 11
-73.523005170488
 21
29.0542024072897
 31
0.0
  0
LINE
  5
   3D6
  8
0
  6
CONTINUOUS
 62
     7
 10
-73.5230020263851
 20
24.3041988261433
 30
0.0
 11
-73.1525529517564
 21
23.9649349184627
 31
0.0
  0
LINE
  5
   3D7
  8
0
  6
CONTINUOUS
 62
     7
 10
-73.1525552716589
 20
23.9649367544508
 30
0.0
 11
-73.1486413924052
 21
23.9506468980545
 31
0.0
  0
LINE
  5
   3D8
  8
0
  6
CONTINUOUS
 62
     7
 10
-73.1486434066439
 20
23.9506497710776
 30
0.0
 11
-72.9261206731284
 21
23.8111958823074
 31
0.0
  0
LINE
  5
   3D9
  8
0
  6
CONTINUOUS
 62
     7
 10
-72.9261162649994
 20
23.811189931579
 30
0.0
 11
-72.9217026602324
 21
23.8041975913374
 31
0.0
  0
LINE
  5
   3DA
  8
0
  6
CONTINUOUS
 62
     7
 10
-68.7808863350387
 20
23.8042024072897
 30
0.0
 11
-68.7808863350387
 21
29.0542024072897
 31
0.0
  0
LINE
  5
   3DB
  8
0
  6
CONTINUOUS
 62
     7
 10
-76.8524273279626
 20
23.8113315994619
 30
0.0
 11
-76.8490742091073
 21
23.8042095596217
 31
0.0
  0
LINE
  5
   3DC
  8
0
  6
CONTINUOUS
 62
     7
 10
-76.852423352861
 20
23.8113244470846
 30
0.0
 11
-76.852423352861
 21
29.0542024072897
 31
0.0
  0
LINE
  5
   3DD
  8
0
  6
CONTINUOUS
 62
     7
 10
-68.77093760457
 20
23.8042024072897
 30
0.0
 11
-68.77093760457
 21
29.0542024072897
 31
0.0
  0
LINE
  5
   3DE
  8
0
  6
CONTINUOUS
 62
     7
 10
-78.875013990068
 20
2.80421003668421
 30
0.0
 11
-36.3750199541912
 21
2.80421003668421
 31
0.0
  0
LINE
  5
   3DF
  8
0
  6
CONTINUOUS
 62
     7
 10
-88.3750158974167
 20
2.80421003668421
 30
0.0
 11
-79.375013990068
 21
2.80421003668421
 31
0.0
  0
LINE
  5
   3E0
  8
0
  6
CONTINUOUS
 62
     7
 10
-36.1982360456269
 20
3.25618860225287
 30
0.0
 11
-36.1953445050369
 21
3.22960779171465
 31
0.0
  0
LINE
  5
   3E1
  8
0
  6
CONTINUOUS
 62
     7
 10
-36.1953438983315
 20
3.22960730708941
 30
0.0
 11
-36.1250161410385
 21
3.055039130041
 31
0.0
  0
LINE
  5
   3E2
  8
0
  6
CONTINUOUS
 62
     7
 10
-36.3750177645214
 20
3.53461007137213
 30
0.0
 11
-36.1982370622571
 21
3.25619057476113
 31
0.0
  0
LINE
  5
   3E3
  8
0
  6
CONTINUOUS
 62
     7
 10
-88.3750158321826
 20
3.53708958190324
 30
0.0
 11
-79.3750139247005
 21
3.53666233580988
 31
0.0
  0
LINE
  5
   3E4
  8
0
  6
CONTINUOUS
 62
     7
 10
-55.625013990068
 20
3.53552555602722
 30
0.0
 11
-36.3750188135597
 21
3.53461172354755
 31
0.0
  0
LINE
  5
   3E5
  8
0
  6
CONTINUOUS
 62
     7
 10
-88.5517927891463
 20
3.25619026395169
 30
0.0
 11
-88.3750158978949
 21
3.53708931624008
 31
0.0
  0
LINE
  5
   3E6
  8
0
  6
CONTINUOUS
 62
     7
 10
-88.3750158974167
 20
3.53708967535609
 30
0.0
 11
-88.3750158974167
 21
10.3042100366842
 31
0.0
  0
LINE
  5
   3E7
  8
0
  6
CONTINUOUS
 62
     7
 10
-88.6250158448362
 20
3.05503965204134
 30
0.0
 11
-88.5546880875432
 21
3.22960782908972
 31
0.0
  0
LINE
  5
   3E8
  8
0
  6
CONTINUOUS
 62
     7
 10
-88.5546885069283
 20
3.22961277998663
 30
0.0
 11
-88.5517931516958
 21
3.25619359042954
 31
0.0
  0
LINE
  5
   3E9
  8
0
  6
CONTINUOUS
 62
     7
 10
-88.3750158974167
 20
15.3042100366842
 30
0.0
 11
-88.3750158974167
 21
54.5713219535789
 31
0.0
  0
LINE
  5
   3EA
  8
0
  6
CONTINUOUS
 62
     7
 10
-77.6145426460739
 20
23.6792100366842
 30
0.0
 11
-77.6145426460739
 21
29.0542100366842
 31
0.0
  0
LINE
  5
   3EB
  8
0
  6
CONTINUOUS
 62
     7
 10
-77.3465944954391
 20
23.6792100366842
 30
0.0
 11
-77.3465944954391
 21
29.0542100366842
 31
0.0
  0
LINE
  5
   3EC
  8
0
  6
CONTINUOUS
 62
     7
 10
-57.6763521858688
 20
23.6792100366842
 30
0.0
 11
-57.6763521858688
 21
29.0542100366842
 31
0.0
  0
LINE
  5
   3ED
  8
0
  6
CONTINUOUS
 62
     7
 10
-57.5000216194626
 20
23.6792100366842
 30
0.0
 11
-57.5000216194626
 21
29.0542100366842
 31
0.0
  0
LINE
  5
   3EE
  8
0
  6
CONTINUOUS
 62
     7
 10
-79.375013990068
 20
3.4153169092428
 30
0.0
 11
-78.875013990068
 21
3.4153169092428
 31
0.0
  0
LINE
  5
   3EF
  8
0
  6
CONTINUOUS
 62
     7
 10
-79.375013990068
 20
3.30421003668421
 30
0.0
 11
-78.875013990068
 21
3.30421003668421
 31
0.0
  0
LINE
  5
   3F0
  8
0
  6
CONTINUOUS
 62
     7
 10
-58.2061182686325
 20
23.6792100366842
 30
0.0
 11
-58.2061182686325
 21
29.054206221987
 31
0.0
  0
LINE
  5
   3F1
  8
0
  6
CONTINUOUS
 62
     7
 10
-77.3000246712204
 20
23.6792100366842
 30
0.0
 11
-77.3000246712204
 21
29.0542062219869
 31
0.0
  0
LINE
  5
   3F2
  8
0
  6
CONTINUOUS
 62
     7
 10
-76.4526697823044
 20
23.6792100366842
 30
0.0
 11
-76.4526697823044
 21
23.8042024072897
 31
0.0
  0
LINE
  5
   3F3
  8
0
  6
CONTINUOUS
 62
     7
 10
-64.739458722734
 20
23.6792024072897
 30
0.0
 11
-64.739458722734
 21
29.0542024072897
 31
0.0
  0
LINE
  5
   3F4
  8
0
  6
CONTINUOUS
 62
     7
 10
-36.1982399035243
 20
2.87742454761627
 30
0.0
 11
-36.161641698783
 21
2.84082634287493
 31
0.0
  0
LINE
  5
   3F5
  8
0
  6
CONTINUOUS
 62
     7
 10
-79.375013990068
 20
2.92921003668421
 30
0.0
 11
-78.8750101753708
 21
2.92921003668421
 31
0.0
  0
LINE
  5
   3F6
  8
0
  6
CONTINUOUS
 62
     7
 10
-88.5884118791716
 20
2.84081604007139
 30
0.0
 11
-88.551798414185
 21
2.87742950505793
 31
0.0
  0
LINE
  5
   3F7
  8
0
  6
CONTINUOUS
 62
     7
 10
-36.1250254341598
 20
3.42921003668421
 30
0.0
 11
-12.0000254341598
 21
3.42921003668421
 31
0.0
  0
LINE
  5
   3F8
  8
0
  6
CONTINUOUS
 62
     7
 10
-91.296825715359
 20
3.42921003668421
 30
0.0
 11
-88.6250235268112
 21
3.42921003668421
 31
0.0
  0
ARC
  5
   3F9
  8
0
  6
CONTINUOUS
 62
     7
 10
-76.0000808548041
 20
11.0542176660787
 30
0.0
 40
0.25
 50
0.0
 51
90.0
  0
ARC
  5
   3FA
  8
0
  6
CONTINUOUS
 62
     7
 10
-76.0000808548041
 20
5.55421766607874
 30
0.0
 40
0.25
 50
270.0
 51
360.0
  0
ARC
  5
   3FB
  8
0
  6
CONTINUOUS
 62
     7
 10
-78.0000808548036
 20
5.55421766607874
 30
0.0
 40
0.25
 50
180.0
 51
270.0
  0
ARC
  5
   3FC
  8
0
  6
CONTINUOUS
 62
     7
 10
-78.0000808548036
 20
11.0542176660787
 30
0.0
 40
0.25
 50
90.0
 51
180.0
  0
ARC
  5
   3FD
  8
0
  6
CONTINUOUS
 62
     7
 10
-76.1250808548041
 20
10.9292176660787
 30
0.0
 40
0.375
 50
0.0
 51
90.0
  0
ARC
  5
   3FE
  8
0
  6
CONTINUOUS
 62
     7
 10
-76.1250808548041
 20
5.67921766607874
 30
0.0
 40
0.375
 50
270.0
 51
360.0
  0
ARC
  5
   3FF
  8
0
  6
CONTINUOUS
 62
     7
 10
-77.8750808548036
 20
5.67921766607874
 30
0.0
 40
0.375
 50
180.0
 51
270.0
  0
ARC
  5
   400
  8
0
  6
CONTINUOUS
 62
     7
 10
-77.8750808548036
 20
10.9292176660787
 30
0.0
 40
0.375
 50
90.0
 51
180.0
  0
LINE
  5
   401
  8
0
  6
CONTINUOUS
 62
     7
 10
-78.875013990068
 20
22.0542307986112
 30
0.0
 11
-72.875013990068
 21
22.0542307986112
 31
0.0
  0
LINE
  5
   402
  8
0
  6
CONTINUOUS
 62
     7
 10
-62.125013990068
 20
22.0542307986112
 30
0.0
 11
-56.125013990068
 21
22.0542307986112
 31
0.0
  0
LINE
  5
   403
  8
0
  6
CONTINUOUS
 62
     7
 10
-14.5000255948712
 20
3.55420664160094
 30
0.0
 11
-14.5000255948712
 21
29.0542307986112
 31
0.0
  0
LINE
  5
   404
  8
0
  6
CONTINUOUS
 62
     7
 10
-24.5000255948712
 20
3.55420664160094
 30
0.0
 11
-14.5000255948712
 21
3.55420664160094
 31
0.0
  0
LINE
  5
   405
  8
0
  6
CONTINUOUS
 62
     7
 10
-12.0000254341598
 20
54.0542363017491
 30
0.0
 11
1.24997456584018
 21
54.0542363017491
 31
0.0
  0
LINE
  5
   406
  8
0
  6
CONTINUOUS
 62
     7
 10
-12.0000254341598
 20
29.0542515605382
 30
0.0
 11
-12.0000254341598
 21
72.8042497634888
 31
0.0
  0
LINE
  5
   407
  8
0
  6
CONTINUOUS
 62
     7
 10
-36.1250254341598
 20
54.6792515605382
 30
0.0
 11
-12.0000254341598
 21
54.6792515605382
 31
0.0
  0
LINE
  5
   408
  8
0
  6
CONTINUOUS
 62
     7
 10
-42.1250249573228
 20
54.0542439311437
 30
0.0
 11
-37.1250254341598
 21
54.0542439311437
 31
0.0
  0
LINE
  5
   409
  8
0
  6
CONTINUOUS
 62
     7
 10
-44.5704128486846
 20
54.5734608233305
 30
0.0
 11
-36.3750188133493
 21
54.5738498736749
 31
0.0
  0
LINE
  5
   40A
  8
0
  6
CONTINUOUS
 62
     7
 10
-36.3750177645213
 20
54.5738515258503
 30
0.0
 11
-36.1982370622571
 21
54.8522710224613
 31
0.0
  0
LINE
  5
   40B
  8
0
  6
CONTINUOUS
 62
     7
 10
-36.1953438983315
 20
54.878854290133
 30
0.0
 11
-36.1250161410385
 21
55.0534224671814
 31
0.0
  0
LINE
  5
   40C
  8
0
  6
CONTINUOUS
 62
     7
 10
-36.1982375873162
 20
55.2310313085432
 30
0.0
 11
-36.1250182881534
 21
55.0542506042964
 31
0.0
  0
LINE
  5
   40D
  8
0
  6
CONTINUOUS
 62
     7
 10
-36.3750187202922
 20
55.3042510494801
 30
0.0
 11
-36.1982380160455
 21
55.2310317503173
 31
0.0
  0
LINE
  5
   40E
  8
0
  6
CONTINUOUS
 62
     7
 10
-36.1982399035243
 20
55.2310370496062
 30
0.0
 11
-36.161641698783
 21
55.2676352543475
 31
0.0
  0
LINE
  5
   40F
  8
0
  6
CONTINUOUS
 62
     7
 10
-36.1616412161706
 20
55.2676334997248
 30
0.0
 11
-36.1250277516601
 21
55.1792469646293
 31
0.0
  0
LINE
  5
   410
  8
0
  6
CONTINUOUS
 62
     7
 10
-36.2500305755201
 20
55.3042486979304
 30
0.0
 11
-36.1616516709794
 21
55.2676428630592
 31
0.0
  0
LINE
  5
   411
  8
0
  6
CONTINUOUS
 62
     7
 10
-36.1250254341598
 20
55.1792515605382
 30
0.0
 11
-36.1250254341598
 21
55.3042515605382
 31
0.0
  0
LINE
  5
   412
  8
0
  6
CONTINUOUS
 62
     7
 10
-36.1250254341598
 20
55.0542515605382
 30
0.0
 11
-36.1250254341598
 21
55.1792515605382
 31
0.0
  0
LINE
  5
   413
  8
0
  6
CONTINUOUS
 62
     7
 10
-14.5000255948712
 20
29.0542307986112
 30
0.0
 11
-14.5000255948712
 21
54.5542549556215
 31
0.0
  0
LINE
  5
   414
  8
0
  6
CONTINUOUS
 62
     7
 10
-36.1250254341598
 20
54.5542515605382
 30
0.0
 11
-14.5000254341598
 21
54.5542515605382
 31
0.0
  0
LINE
  5
   415
  8
0
  6
CONTINUOUS
 62
     7
 10
-15.0000255948712
 20
3.80420664160094
 30
0.0
 11
-15.0000255948712
 21
72.8042497634888
 31
0.0
  0
LINE
  5
   416
  8
0
  6
CONTINUOUS
 62
     7
 10
-14.5000255948712
 20
3.80420664160094
 30
0.0
 11
-14.5000255948712
 21
72.8042497634888
 31
0.0
  0
LINE
  5
   417
  8
0
  6
CONTINUOUS
 62
     7
 10
-37.1250254341598
 20
4.05421766607874
 30
0.0
 11
-37.1250254341598
 21
54.0542439311437
 31
0.0
  0
LINE
  5
   418
  8
0
  6
CONTINUOUS
 62
     7
 10
-41.3750249573227
 20
4.05421766607874
 30
0.0
 11
-41.3750249573227
 21
54.0542439311437
 31
0.0
  0
LINE
  5
   419
  8
0
  6
CONTINUOUS
 62
     7
 10
-42.1250249573228
 20
4.05421766607874
 30
0.0
 11
-37.1250249573227
 21
4.05421766607874
 31
0.0
  0
LINE
  5
   41A
  8
0
  6
CONTINUOUS
 62
     7
 10
-42.0595152505871
 20
4.05421766607874
 30
0.0
 11
-42.0595152505871
 21
54.0542439311437
 31
0.0
  0
LINE
  5
   41B
  8
0
  6
CONTINUOUS
 62
     7
 10
-42.1250249573228
 20
4.05421766607874
 30
0.0
 11
-42.1250249573228
 21
54.0542439311437
 31
0.0
  0
LINE
  5
   41C
  8
0
  6
CONTINUOUS
 62
     7
 10
-114.646824904736
 20
2.80420852908374
 30
0.0
 11
-114.646824904736
 21
7.05420852908374
 31
0.0
  0
LINE
  5
   41D
  8
0
  6
CONTINUOUS
 62
     7
 10
-114.646824904736
 20
10.8042085290837
 30
0.0
 11
-114.646824904736
 21
72.8042497634888
 31
0.0
  0
LINE
  5
   41E
  8
0
  6
CONTINUOUS
 62
     7
 10
-95.1468241894801
 20
2.8042066217351
 30
0.0
 11
-95.1468241894801
 21
72.8042497634888
 31
0.0
  0
LINE
  5
   41F
  8
0
  6
CONTINUOUS
 62
     7
 10
-114.646824904736
 20
2.80420852908374
 30
0.0
 11
-95.1468249047358
 21
2.80420852908374
 31
0.0
  0
LINE
  5
   420
  8
0
  6
CONTINUOUS
 62
     7
 10
-113.146824666317
 20
3.67920852908374
 30
0.0
 11
-113.146824666317
 21
5.17920852908374
 31
0.0
  0
LINE
  5
   421
  8
0
  6
CONTINUOUS
 62
     7
 10
-114.146824904736
 20
5.17920852908374
 30
0.0
 11
-113.146824666317
 21
5.17920852908374
 31
0.0
  0
LINE
  5
   422
  8
0
  6
CONTINUOUS
 62
     7
 10
-114.146824904736
 20
3.67920852908374
 30
0.0
 11
-114.146824904736
 21
5.17920852908374
 31
0.0
  0
LINE
  5
   423
  8
0
  6
CONTINUOUS
 62
     7
 10
-114.146824904736
 20
3.67920852908374
 30
0.0
 11
-113.146824666317
 21
3.67920852908374
 31
0.0
  0
LINE
  5
   424
  8
0
  6
CONTINUOUS
 62
     7
 10
-113.146824666317
 20
52.9292085290837
 30
0.0
 11
-113.146824666317
 21
54.4292085290837
 31
0.0
  0
LINE
  5
   425
  8
0
  6
CONTINUOUS
 62
     7
 10
-114.146824904736
 20
52.9292085290837
 30
0.0
 11
-113.146824666317
 21
52.9292085290837
 31
0.0
  0
LINE
  5
   426
  8
0
  6
CONTINUOUS
 62
     7
 10
-114.146824904736
 20
52.9292085290837
 30
0.0
 11
-114.146824904736
 21
54.4292085290837
 31
0.0
  0
LINE
  5
   427
  8
0
  6
CONTINUOUS
 62
     7
 10
-114.146824904736
 20
54.4292085290837
 30
0.0
 11
-113.146824666317
 21
54.4292085290837
 31
0.0
  0
LINE
  5
   428
  8
0
  6
CONTINUOUS
 62
     7
 10
-109.521824666317
 20
51.8042085290837
 30
0.0
 11
-109.521824666317
 21
53.3042085290837
 31
0.0
  0
LINE
  5
   429
  8
0
  6
CONTINUOUS
 62
     7
 10
-110.771824666317
 20
51.8042085290837
 30
0.0
 11
-110.771824666317
 21
53.3042085290837
 31
0.0
  0
LINE
  5
   42A
  8
0
  6
CONTINUOUS
 62
     7
 10
-109.521824666317
 20
4.80420852908374
 30
0.0
 11
-109.521824666317
 21
6.30420852908374
 31
0.0
  0
LINE
  5
   42B
  8
0
  6
CONTINUOUS
 62
     7
 10
-110.771824666317
 20
4.80420852908374
 30
0.0
 11
-110.771824666317
 21
6.30420852908374
 31
0.0
  0
LINE
  5
   42C
  8
0
  6
CONTINUOUS
 62
     7
 10
-114.646824904736
 20
7.05420852908374
 30
0.0
 11
-113.896824904736
 21
7.05420852908374
 31
0.0
  0
LINE
  5
   42D
  8
0
  6
CONTINUOUS
 62
     7
 10
-114.646824904736
 20
7.05420852908374
 30
0.0
 11
-114.646824904736
 21
10.8042085290837
 31
0.0
  0
LINE
  5
   42E
  8
0
  6
CONTINUOUS
 62
     7
 10
-114.646824904736
 20
10.8042085290837
 30
0.0
 11
-113.896824904736
 21
10.8042085290837
 31
0.0
  0
LINE
  5
   42F
  8
0
  6
CONTINUOUS
 62
     7
 10
-113.896824904736
 20
7.05420852908374
 30
0.0
 11
-113.896824904736
 21
10.8042085290837
 31
0.0
  0
LINE
  5
   430
  8
0
  6
CONTINUOUS
 62
     7
 10
-114.646824904736
 20
51.0542085290837
 30
0.0
 11
-113.896824904736
 21
51.0542085290837
 31
0.0
  0
LINE
  5
   431
  8
0
  6
CONTINUOUS
 62
     7
 10
-114.646824904736
 20
47.3042085290837
 30
0.0
 11
-114.646824904736
 21
51.0542085290837
 31
0.0
  0
LINE
  5
   432
  8
0
  6
CONTINUOUS
 62
     7
 10
-114.646824904736
 20
47.3042085290837
 30
0.0
 11
-113.896824904736
 21
47.3042085290837
 31
0.0
  0
LINE
  5
   433
  8
0
  6
CONTINUOUS
 62
     7
 10
-113.896824904736
 20
47.3042085290837
 30
0.0
 11
-113.896824904736
 21
51.0542085290837
 31
0.0
  0
LINE
  5
   434
  8
0
  6
CONTINUOUS
 62
     7
 10
-114.146824904736
 20
3.80420852908374
 30
0.0
 11
-113.146824666317
 21
3.80420852908374
 31
0.0
  0
LINE
  5
   435
  8
0
  6
CONTINUOUS
 62
     7
 10
-114.146824904736
 20
54.3042085290837
 30
0.0
 11
-113.146824666317
 21
54.3042085290837
 31
0.0
  0
LINE
  5
   436
  8
0
  6
CONTINUOUS
 62
     7
 10
-110.646824666317
 20
4.80420852908374
 30
0.0
 11
-110.646824666317
 21
6.30420852908374
 31
0.0
  0
LINE
  5
   437
  8
0
  6
CONTINUOUS
 62
     7
 10
-109.646824666317
 20
4.80420852908374
 30
0.0
 11
-109.646824666317
 21
6.30420852908374
 31
0.0
  0
LINE
  5
   438
  8
0
  6
CONTINUOUS
 62
     7
 10
-110.646824666317
 20
51.8042085290837
 30
0.0
 11
-110.646824666317
 21
53.3042085290837
 31
0.0
  0
LINE
  5
   439
  8
0
  6
CONTINUOUS
 62
     7
 10
-109.646824666317
 20
51.8042085290837
 30
0.0
 11
-109.646824666317
 21
53.3042085290837
 31
0.0
  0
LINE
  5
   43A
  8
0
  6
CONTINUOUS
 62
     7
 10
-110.771824666317
 20
52.1792085290837
 30
0.0
 11
-110.646824666317
 21
52.1792085290837
 31
0.0
  0
LINE
  5
   43B
  8
0
  6
CONTINUOUS
 62
     7
 10
-109.646824666317
 20
52.1792085290837
 30
0.0
 11
-109.521824666317
 21
52.1792085290837
 31
0.0
  0
LINE
  5
   43C
  8
0
  6
CONTINUOUS
 62
     7
 10
-109.646824666317
 20
52.9292085290837
 30
0.0
 11
-109.521824666317
 21
52.9292085290837
 31
0.0
  0
LINE
  5
   43D
  8
0
  6
CONTINUOUS
 62
     7
 10
-110.771824666317
 20
52.9292085290837
 30
0.0
 11
-110.646824666317
 21
52.9292085290837
 31
0.0
  0
LINE
  5
   43E
  8
0
  6
CONTINUOUS
 62
     7
 10
-110.771824666317
 20
5.17920852908374
 30
0.0
 11
-110.646824666317
 21
5.17920852908374
 31
0.0
  0
LINE
  5
   43F
  8
0
  6
CONTINUOUS
 62
     7
 10
-109.646824666317
 20
5.17920852908374
 30
0.0
 11
-109.521824666317
 21
5.17920852908374
 31
0.0
  0
LINE
  5
   440
  8
0
  6
CONTINUOUS
 62
     7
 10
-109.646824666317
 20
5.92920852908374
 30
0.0
 11
-109.521824666317
 21
5.92920852908374
 31
0.0
  0
LINE
  5
   441
  8
0
  6
CONTINUOUS
 62
     7
 10
-110.771824666317
 20
5.92920852908374
 30
0.0
 11
-110.646824666317
 21
5.92920852908374
 31
0.0
  0
LINE
  5
   442
  8
0
  6
CONTINUOUS
 62
     7
 10
-95.1468241894801
 20
2.80420852908374
 30
0.0
 11
-91.6468241894801
 21
2.80420852908374
 31
0.0
  0
LINE
  5
   443
  8
0
  6
CONTINUOUS
 62
     7
 10
-149.646824904736
 20
2.80420852908374
 30
0.0
 11
-114.646825619992
 21
2.80420852908374
 31
0.0
  0
LINE
  5
   444
  8
0
  6
CONTINUOUS
 62
     7
 10
-91.6468245316605
 20
2.80421217210717
 30
0.0
 11
-91.2968260532229
 21
3.00628431589239
 31
0.0
  0
LINE
  5
   445
  8
0
  6
CONTINUOUS
 62
     7
 10
-91.296825715359
 20
3.00627876528979
 30
0.0
 11
-91.296825715359
 21
72.8042497634888
 31
0.0
  0
LINE
  5
   446
  8
0
  6
CONTINUOUS
 62
     7
 10
-91.6468264701802
 20
55.3042085747339
 30
0.0
 11
-91.2968279917427
 21
55.1021364309487
 31
0.0
  0
LINE
  5
   447
  8
0
  6
CONTINUOUS
 62
     7
 10
-95.1468203747828
 20
55.3042066217351
 30
0.0
 11
-91.6468241894801
 21
55.3042066217351
 31
0.0
  0
LINE
  5
   448
  8
0
  6
CONTINUOUS
 62
     7
 10
-91.6468241894801
 20
2.80420852908374
 30
0.0
 11
-90.6468241894801
 21
2.80420852908374
 31
0.0
  0
LINE
  5
   449
  8
0
  6
CONTINUOUS
 62
     7
 10
-114.64682418948
 20
54.6792066217351
 30
0.0
 11
-95.1468241894801
 21
54.6792066217351
 31
0.0
  0
LINE
  5
   44A
  8
0
  6
CONTINUOUS
 62
     7
 10
-114.64682418948
 20
3.42920852908374
 30
0.0
 11
-95.1468241894801
 21
3.42920852908374
 31
0.0
  0
LINE
  5
   44B
  8
0
  6
CONTINUOUS
 62
     7
 10
-91.296825715359
 20
54.6791967488216
 30
0.0
 11
-88.6250158974167
 21
54.6791933514396
 31
0.0
  0
LINE
  5
   44C
  8
0
  6
CONTINUOUS
 62
     7
 10
-16.2964550865101
 20
53.4535433876276
 30
0.0
 11
-16.2553999779332
 21
53.4833712685028
 31
0.0
  0
LINE
  5
   44D
  8
0
  6
CONTINUOUS
 62
     7
 10
-73.950013990068
 20
16.2792307986112
 30
0.0
 11
-73.950013990068
 21
16.5042307986112
 31
0.0
  0
LINE
  5
   44E
  8
0
  6
CONTINUOUS
 62
     7
 10
-77.800013990068
 20
16.7542307986112
 30
0.0
 11
-77.800013990068
 21
17.1542307986112
 31
0.0
  0
LINE
  5
   44F
  8
0
  6
CONTINUOUS
 62
     7
 10
-76.500013990068
 20
20.3542307986112
 30
0.0
 11
-76.250013990068
 21
20.3542307986112
 31
0.0
  0
LINE
  5
   450
  8
0
  6
CONTINUOUS
 62
     7
 10
-76.500013990068
 20
17.7542307986112
 30
0.0
 11
-76.250013990068
 21
17.7542307986112
 31
0.0
  0
ARC
  5
   451
  8
0
  6
CONTINUOUS
 62
     7
 10
-76.250013990068
 20
19.0542307986112
 30
0.0
 40
1.3
 50
270.0
 51
450.0
  0
ARC
  5
   452
  8
0
  6
CONTINUOUS
 62
     7
 10
-76.500013990068
 20
19.0542307986112
 30
0.0
 40
1.3
 50
90.0
 51
270.0
  0
ARC
  5
   453
  8
0
  6
CONTINUOUS
 62
     7
 10
-76.250013990068
 20
19.0542307986112
 30
0.0
 40
0.900000000000001
 50
270.0
 51
450.0
  0
ARC
  5
   454
  8
0
  6
CONTINUOUS
 62
     7
 10
-76.500013990068
 20
19.0542307986112
 30
0.0
 40
0.899999999999999
 50
90.0
 51
270.0
  0
LINE
  5
   455
  8
0
  6
CONTINUOUS
 62
     7
 10
-76.500013990068
 20
19.9542307986112
 30
0.0
 11
-76.250013990068
 21
19.9542307986112
 31
0.0
  0
LINE
  5
   456
  8
0
  6
CONTINUOUS
 62
     7
 10
-76.500013990068
 20
18.1542307986112
 30
0.0
 11
-76.250013990068
 21
18.1542307986112
 31
0.0
  0
LINE
  5
   457
  8
0
  6
CONTINUOUS
 62
     7
 10
-75.550013990068
 20
17.6292307986112
 30
0.0
 11
-75.150013990068
 21
17.6292307986112
 31
0.0
  0
LINE
  5
   458
  8
0
  6
CONTINUOUS
 62
     7
 10
-75.550013990068
 20
17.1542307986112
 30
0.0
 11
-75.550013990068
 21
17.6292307986112
 31
0.0
  0
LINE
  5
   459
  8
0
  6
CONTINUOUS
 62
     7
 10
-75.550013990068
 20
16.2792307986112
 30
0.0
 11
-75.150013990068
 21
16.2792307986112
 31
0.0
  0
LINE
  5
   45A
  8
0
  6
CONTINUOUS
 62
     7
 10
-75.150013990068
 20
17.1542307986112
 30
0.0
 11
-75.150013990068
 21
17.6292307986112
 31
0.0
  0
LINE
  5
   45B
  8
0
  6
CONTINUOUS
 62
     7
 10
-77.800013990068
 20
17.1542307986112
 30
0.0
 11
-75.550013990068
 21
17.1542307986112
 31
0.0
  0
LINE
  5
   45C
  8
0
  6
CONTINUOUS
 62
     7
 10
-77.800013990068
 20
16.7542307986112
 30
0.0
 11
-75.550013990068
 21
16.7542307986112
 31
0.0
  0
LINE
  5
   45D
  8
0
  6
CONTINUOUS
 62
     7
 10
-75.550013990068
 20
16.2792307986112
 30
0.0
 11
-75.550013990068
 21
16.7542307986112
 31
0.0
  0
LINE
  5
   45E
  8
0
  6
CONTINUOUS
 62
     7
 10
-75.150013990068
 20
16.2792307986112
 30
0.0
 11
-75.150013990068
 21
16.7542307986112
 31
0.0
  0
LINE
  5
   45F
  8
0
  6
CONTINUOUS
 62
     7
 10
-75.150013990068
 20
17.1542307986112
 30
0.0
 11
-74.600013990068
 21
17.1542307986112
 31
0.0
  0
LINE
  5
   460
  8
0
  6
CONTINUOUS
 62
     7
 10
-75.150013990068
 20
16.7542307986112
 30
0.0
 11
-74.600013990068
 21
16.7542307986112
 31
0.0
  0
ARC
  5
   461
  8
0
  6
CONTINUOUS
 62
     7
 10
-74.600013990068
 20
16.5042307986112
 30
0.0
 40
0.65
 50
360.0
 51
450.0
  0
ARC
  5
   462
  8
0
  6
CONTINUOUS
 62
     7
 10
-74.600013990068
 20
16.5042307986112
 30
0.0
 40
0.25
 50
360.0
 51
450.0
  0
LINE
  5
   463
  8
0
  6
CONTINUOUS
 62
     7
 10
-74.350013990068
 20
16.2792307986112
 30
0.0
 11
-73.950013990068
 21
16.2792307986112
 31
0.0
  0
LINE
  5
   464
  8
0
  6
CONTINUOUS
 62
     7
 10
-74.350013990068
 20
16.2792307986112
 30
0.0
 11
-74.350013990068
 21
16.5042307986112
 31
0.0
  0
LINE
  5
   465
  8
0
  6
CONTINUOUS
 62
     7
 10
-73.950013990068
 20
14.6792307986112
 30
0.0
 11
-73.950013990068
 21
14.9042307986112
 31
0.0
  0
LINE
  5
   466
  8
0
  6
CONTINUOUS
 62
     7
 10
-77.800013990068
 20
15.1542307986112
 30
0.0
 11
-77.800013990068
 21
15.5542307986112
 31
0.0
  0
LINE
  5
   467
  8
0
  6
CONTINUOUS
 62
     7
 10
-75.550013990068
 20
16.0292307986112
 30
0.0
 11
-75.150013990068
 21
16.0292307986112
 31
0.0
  0
LINE
  5
   468
  8
0
  6
CONTINUOUS
 62
     7
 10
-75.550013990068
 20
15.5542307986112
 30
0.0
 11
-75.550013990068
 21
16.0292307986112
 31
0.0
  0
LINE
  5
   469
  8
0
  6
CONTINUOUS
 62
     7
 10
-75.550013990068
 20
14.6792307986112
 30
0.0
 11
-75.150013990068
 21
14.6792307986112
 31
0.0
  0
LINE
  5
   46A
  8
0
  6
CONTINUOUS
 62
     7
 10
-75.150013990068
 20
15.5542307986112
 30
0.0
 11
-75.150013990068
 21
16.0292307986112
 31
0.0
  0
LINE
  5
   46B
  8
0
  6
CONTINUOUS
 62
     7
 10
-77.800013990068
 20
15.5542307986112
 30
0.0
 11
-75.550013990068
 21
15.5542307986112
 31
0.0
  0
LINE
  5
   46C
  8
0
  6
CONTINUOUS
 62
     7
 10
-77.800013990068
 20
15.1542307986112
 30
0.0
 11
-75.550013990068
 21
15.1542307986112
 31
0.0
  0
LINE
  5
   46D
  8
0
  6
CONTINUOUS
 62
     7
 10
-75.550013990068
 20
14.6792307986112
 30
0.0
 11
-75.550013990068
 21
15.1542307986112
 31
0.0
  0
LINE
  5
   46E
  8
0
  6
CONTINUOUS
 62
     7
 10
-75.150013990068
 20
14.6792307986112
 30
0.0
 11
-75.150013990068
 21
15.1542307986112
 31
0.0
  0
LINE
  5
   46F
  8
0
  6
CONTINUOUS
 62
     7
 10
-75.150013990068
 20
15.5542307986112
 30
0.0
 11
-74.600013990068
 21
15.5542307986112
 31
0.0
  0
LINE
  5
   470
  8
0
  6
CONTINUOUS
 62
     7
 10
-75.150013990068
 20
15.1542307986112
 30
0.0
 11
-74.600013990068
 21
15.1542307986112
 31
0.0
  0
ARC
  5
   471
  8
0
  6
CONTINUOUS
 62
     7
 10
-74.600013990068
 20
14.9042307986112
 30
0.0
 40
0.65
 50
360.0
 51
450.0
  0
ARC
  5
   472
  8
0
  6
CONTINUOUS
 62
     7
 10
-74.600013990068
 20
14.9042307986112
 30
0.0
 40
0.25
 50
360.0
 51
450.0
  0
LINE
  5
   473
  8
0
  6
CONTINUOUS
 62
     7
 10
-74.350013990068
 20
14.6792307986112
 30
0.0
 11
-73.950013990068
 21
14.6792307986112
 31
0.0
  0
LINE
  5
   474
  8
0
  6
CONTINUOUS
 62
     7
 10
-74.350013990068
 20
14.6792307986112
 30
0.0
 11
-74.350013990068
 21
14.9042307986112
 31
0.0
  0
LINE
  5
   475
  8
0
  6
CONTINUOUS
 62
     7
 10
-60.5500139900681
 20
16.9542307986112
 30
0.0
 11
-60.5500139900681
 21
17.3542307986112
 31
0.0
  0
ARC
  5
   476
  8
0
  6
CONTINUOUS
 62
     7
 10
-59.000013990068
 20
19.0542307986112
 30
0.0
 40
1.3
 50
270.0
 51
450.0
  0
ARC
  5
   477
  8
0
  6
CONTINUOUS
 62
     7
 10
-59.000013990068
 20
19.0542307986112
 30
0.0
 40
0.900000000000001
 50
270.0
 51
450.0
  0
ARC
  5
   478
  8
0
  6
CONTINUOUS
 62
     7
 10
-59.250013990068
 20
19.0542307986112
 30
0.0
 40
1.3
 50
90.0
 51
270.0
  0
ARC
  5
   479
  8
0
  6
CONTINUOUS
 62
     7
 10
-59.250013990068
 20
19.0542307986112
 30
0.0
 40
0.899999999999999
 50
90.0
 51
270.0
  0
LINE
  5
   47A
  8
0
  6
CONTINUOUS
 62
     7
 10
-59.250013990068
 20
18.1542307986112
 30
0.0
 11
-59.000013990068
 21
18.1542307986112
 31
0.0
  0
LINE
  5
   47B
  8
0
  6
CONTINUOUS
 62
     7
 10
-59.250013990068
 20
17.7542307986112
 30
0.0
 11
-59.000013990068
 21
17.7542307986112
 31
0.0
  0
LINE
  5
   47C
  8
0
  6
CONTINUOUS
 62
     7
 10
-59.250013990068
 20
19.9542307986112
 30
0.0
 11
-59.000013990068
 21
19.9542307986112
 31
0.0
  0
LINE
  5
   47D
  8
0
  6
CONTINUOUS
 62
     7
 10
-59.250013990068
 20
20.3542307986112
 30
0.0
 11
-59.000013990068
 21
20.3542307986112
 31
0.0
  0
LINE
  5
   47E
  8
0
  6
CONTINUOUS
 62
     7
 10
-60.550013990068
 20
17.3542307986112
 30
0.0
 11
-57.700013990068
 21
17.3542307986112
 31
0.0
  0
LINE
  5
   47F
  8
0
  6
CONTINUOUS
 62
     7
 10
-60.550013990068
 20
16.9542307986112
 30
0.0
 11
-58.800013990068
 21
16.9542307986112
 31
0.0
  0
LINE
  5
   480
  8
0
  6
CONTINUOUS
 62
     7
 10
-60.550013990068
 20
15.5542307986112
 30
0.0
 11
-58.800013990068
 21
15.5542307986112
 31
0.0
  0
LINE
  5
   481
  8
0
  6
CONTINUOUS
 62
     7
 10
-60.550013990068
 20
15.1542307986112
 30
0.0
 11
-58.700013990068
 21
15.1542307986112
 31
0.0
  0
LINE
  5
   482
  8
0
  6
CONTINUOUS
 62
     7
 10
-57.7000139900681
 20
16.9542307986112
 30
0.0
 11
-57.7000139900681
 21
17.3542307986112
 31
0.0
  0
ARC
  5
   483
  8
0
  6
CONTINUOUS
 62
     7
 10
-58.800013990068
 20
16.2542307986112
 30
0.0
 40
0.699999999999999
 50
270.0
 51
450.0
  0
LINE
  5
   484
  8
0
  6
CONTINUOUS
 62
     7
 10
-58.100013990068
 20
16.9542307986112
 30
0.0
 11
-57.700013990068
 21
16.9542307986112
 31
0.0
  0
ARC
  5
   485
  8
0
  6
CONTINUOUS
 62
     7
 10
-58.700013990068
 20
16.1542307986112
 30
0.0
 40
1.0
 50
270.0
 51
413.130102354156
  0
LINE
  5
   486
  8
0
  6
CONTINUOUS
 62
     7
 10
-60.5500139900681
 20
15.1542307986112
 30
0.0
 11
-60.5500139900681
 21
15.5542307986112
 31
0.0
  0
LINE
  5
   487
  8
0
  6
CONTINUOUS
 62
     7
 10
-56.125013990068
 20
3.4153169092428
 30
0.0
 11
-55.625013990068
 21
3.4153169092428
 31
0.0
  0
LINE
  5
   488
  8
0
  6
CONTINUOUS
 62
     7
 10
-56.125013990068
 20
3.30421003668421
 30
0.0
 11
-55.625013990068
 21
3.30421003668421
 31
0.0
  0
LINE
  5
   489
  8
0
  6
CONTINUOUS
 62
     7
 10
-62.625013990068
 20
3.4153169092428
 30
0.0
 11
-62.125013990068
 21
3.4153169092428
 31
0.0
  0
LINE
  5
   48A
  8
0
  6
CONTINUOUS
 62
     7
 10
-62.625013990068
 20
3.30421003668421
 30
0.0
 11
-62.125013990068
 21
3.30421003668421
 31
0.0
  0
LINE
  5
   48B
  8
0
  6
CONTINUOUS
 62
     7
 10
-72.875013990068
 20
3.4153169092428
 30
0.0
 11
-72.375013990068
 21
3.4153169092428
 31
0.0
  0
LINE
  5
   48C
  8
0
  6
CONTINUOUS
 62
     7
 10
-72.875013990068
 20
3.30421003668421
 30
0.0
 11
-72.375013990068
 21
3.30421003668421
 31
0.0
  0
LINE
  5
   48D
  8
0
  6
CONTINUOUS
 62
     7
 10
-72.875013990068
 20
2.92921003668421
 30
0.0
 11
-72.375013990068
 21
2.92921003668421
 31
0.0
  0
LINE
  5
   48E
  8
0
  6
CONTINUOUS
 62
     7
 10
-62.625013990068
 20
2.92921003668421
 30
0.0
 11
-62.125013990068
 21
2.92921003668421
 31
0.0
  0
LINE
  5
   48F
  8
0
  6
CONTINUOUS
 62
     7
 10
-56.125013990068
 20
2.92921003668421
 30
0.0
 11
-55.625013990068
 21
2.92921003668421
 31
0.0
  0
CIRCLE
  5
   490
  8
0
  6
CONTINUOUS
 62
     7
 10
-108.396830050257
 20
52.5542075245034
 30
0.0
 40
0.374995547855731
  0
CIRCLE
  5
   491
  8
0
  6
CONTINUOUS
 62
     7
 10
-111.896815909764
 20
52.5541992468091
 30
0.0
 40
0.374990625113988
  0
ARC
  5
   492
  8
0
  6
CONTINUOUS
 62
     7
 10
-110.146826559921
 20
53.3042039535925
 30
0.0
 40
0.50000106618154
 50
8.66178883150062E-4
 51
179.999300229046
  0
ARC
  5
   493
  8
0
  6
CONTINUOUS
 62
     7
 10
-110.146841788345
 20
53.3042242483403
 30
0.0
 40
0.624982818798112
 50
359.998326800391
 51
540.001289308433
  0
ARC
  5
   494
  8
0
  6
CONTINUOUS
 62
     7
 10
-110.146842001521
 20
51.8042156321844
 30
0.0
 40
0.500019442588717
 50
180.001210275104
 51
359.999446921893
  0
ARC
  5
   495
  8
0
  6
CONTINUOUS
 62
     7
 10
-110.146841942089
 20
51.8042055589495
 30
0.0
 40
0.625012718087895
 50
179.999641728196
 51
360.000349240823
  0
ARC
  5
   496
  8
0
  6
CONTINUOUS
 62
     7
 10
-110.146824916223
 20
6.30420286077758
 30
0.0
 40
0.500003275819109
 50
1.46223506858021E-3
 51
179.998916038183
  0
ARC
  5
   497
  8
0
  6
CONTINUOUS
 62
     7
 10
-110.146824951031
 20
6.30420438677932
 30
0.0
 40
0.625001218379743
 50
359.99982715595
 51
539.99924298263
  0
ARC
  5
   498
  8
0
  6
CONTINUOUS
 62
     7
 10
-110.146824745153
 20
4.80419298563383
 30
0.0
 40
0.499990909100353
 50
179.997763154711
 51
360.002587334486
  0
ARC
  5
   499
  8
0
  6
CONTINUOUS
 62
     7
 10
-110.146825046237
 20
4.80420940951315
 30
0.0
 40
0.625002762086378
 50
179.999946207564
 51
359.999912087525
  0
LINE
  5
   49A
  8
0
  6
DASHDOT
 62
     7
 10
-110.271825598113
 20
52.5542075245034
 30
0.0
 11
-106.521834502402
 21
52.5542075245034
 31
0.0
  0
LINE
  5
   49B
  8
0
  6
DASHDOT
 62
     7
 10
-108.396830050257
 20
50.6792119766477
 30
0.0
 11
-108.396830050257
 21
54.4292030723591
 31
0.0
  0
LINE
  5
   49C
  8
0
  6
DASHDOT
 62
     7
 10
-113.771806534878
 20
52.5541992468091
 30
0.0
 11
-110.02182528465
 21
52.5541992468091
 31
0.0
  0
LINE
  5
   49D
  8
0
  6
DASHDOT
 62
     7
 10
-111.896815909764
 20
50.6792086216951
 30
0.0
 11
-111.896815909764
 21
54.4291898719231
 31
0.0
  0
CIRCLE
  5
   49E
  8
0
  6
CONTINUOUS
 62
     7
 10
-108.396830050257
 20
5.55420401098186
 30
0.0
 40
0.374995547855731
  0
LINE
  5
   49F
  8
0
  6
DASHDOT
 62
     7
 10
-108.396830050257
 20
3.67920846312613
 30
0.0
 11
-108.396830050257
 21
7.4291995588376
 31
0.0
  0
LINE
  5
   4A0
  8
0
  6
DASHDOT
 62
     7
 10
-110.271825598113
 20
5.55420401098186
 30
0.0
 11
-106.521834502402
 21
5.55420401098186
 31
0.0
  0
LINE
  5
   4A1
  8
0
  6
DASHDOT
 62
     7
 10
-113.771806534878
 20
5.5542122886762
 30
0.0
 11
-110.02182528465
 21
5.5542122886762
 31
0.0
  0
LINE
  5
   4A2
  8
0
  6
DASHDOT
 62
     7
 10
-111.896815909764
 20
3.6792216635622
 30
0.0
 11
-111.896815909764
 21
7.42920291379018
 31
0.0
  0
CIRCLE
  5
   4A3
  8
0
  6
CONTINUOUS
 62
     7
 10
-111.896815909764
 20
5.5542122886762
 30
0.0
 40
0.374990625113988
  0
LINE
  5
   4A4
  8
0
  6
CONTINUOUS
 62
     7
 10
-55.625013990068
 20
29.0542014988011
 30
0.0
 11
-55.625013990068
 21
55.3042014988011
 31
0.0
  0
LINE
  5
   4A5
  8
0
  6
CONTINUOUS
 62
     7
 10
-56.125013990068
 20
29.0542014988011
 30
0.0
 11
-56.125013990068
 21
55.3042014988011
 31
0.0
  0
LINE
  5
   4A6
  8
0
  6
CONTINUOUS
 62
     7
 10
-57.5000216194626
 20
29.0542014988011
 30
0.0
 11
-57.5000216194626
 21
34.4292014988011
 31
0.0
  0
LINE
  5
   4A7
  8
0
  6
CONTINUOUS
 62
     7
 10
-57.6763521858688
 20
29.0542014988011
 30
0.0
 11
-57.6763521858688
 21
34.4292014988011
 31
0.0
  0
LINE
  5
   4A8
  8
0
  6
CONTINUOUS
 62
     7
 10
-58.2061182686325
 20
29.0542053134983
 30
0.0
 11
-58.2061182686325
 21
34.4292014988011
 31
0.0
  0
LINE
  5
   4A9
  8
0
  6
CONTINUOUS
 62
     7
 10
-77.6145426460739
 20
34.4292014988011
 30
0.0
 11
-57.5000216194626
 21
34.4292014988011
 31
0.0
  0
LINE
  5
   4AA
  8
0
  6
CONTINUOUS
 62
     7
 10
-62.125013990068
 20
36.0541807368741
 30
0.0
 11
-56.125013990068
 21
36.0541807368741
 31
0.0
  0
LINE
  5
   4AB
  8
0
  6
CONTINUOUS
 62
     7
 10
-64.739458722734
 20
29.0542091281956
 30
0.0
 11
-64.739458722734
 21
34.4292091281956
 31
0.0
  0
LINE
  5
   4AC
  8
0
  6
CONTINUOUS
 62
     7
 10
-68.77093760457
 20
29.0542091281956
 30
0.0
 11
-68.77093760457
 21
34.3042091281956
 31
0.0
  0
LINE
  5
   4AD
  8
0
  6
CONTINUOUS
 62
     7
 10
-76.8490702339645
 20
34.3042091281956
 30
0.0
 11
-68.77093760457
 21
34.3042091281956
 31
0.0
  0
LINE
  5
   4AE
  8
0
  6
CONTINUOUS
 62
     7
 10
-73.5230020263851
 20
33.804212709342
 30
0.0
 11
-73.1525529517564
 21
34.1434766170226
 31
0.0
  0
LINE
  5
   4AF
  8
0
  6
CONTINUOUS
 62
     7
 10
-73.523005170488
 20
29.0542091281956
 30
0.0
 11
-73.523005170488
 21
33.8042091281956
 31
0.0
  0
LINE
  5
   4B0
  8
0
  6
CONTINUOUS
 62
     7
 10
-76.4762636848922
 20
33.8042091281956
 30
0.0
 11
-73.523005170488
 21
33.8042091281956
 31
0.0
  0
LINE
  5
   4B1
  8
0
  6
CONTINUOUS
 62
     7
 10
-76.4762636848922
 20
29.0542091281956
 30
0.0
 11
-76.4762636848922
 21
33.8042091281956
 31
0.0
  0
LINE
  5
   4B2
  8
0
  6
CONTINUOUS
 62
     7
 10
-76.852423352861
 20
29.0542091281956
 30
0.0
 11
-76.852423352861
 21
34.2970870884007
 31
0.0
  0
LINE
  5
   4B3
  8
0
  6
CONTINUOUS
 62
     7
 10
-73.1486434066438
 20
34.1577617644077
 30
0.0
 11
-72.9261206731283
 21
34.2972156531778
 31
0.0
  0
LINE
  5
   4B4
  8
0
  6
CONTINUOUS
 62
     7
 10
-76.8524232835654
 20
34.2970873786328
 30
0.0
 11
-76.7836404753075
 21
34.1577631902532
 31
0.0
  0
LINE
  5
   4B5
  8
0
  6
CONTINUOUS
 62
     7
 10
-76.7824084102798
 20
34.1432136593868
 30
0.0
 11
-76.4762636840809
 21
33.8042091303742
 31
0.0
  0
LINE
  5
   4B6
  8
0
  6
CONTINUOUS
 62
     7
 10
-76.4526697823044
 20
34.3042091281956
 30
0.0
 11
-76.4526697823044
 21
34.4292014988011
 31
0.0
  0
LINE
  5
   4B7
  8
0
  6
CONTINUOUS
 62
     7
 10
-77.3000246712204
 20
29.0542053134983
 30
0.0
 11
-77.3000246712204
 21
34.4292014988011
 31
0.0
  0
LINE
  5
   4B8
  8
0
  6
CONTINUOUS
 62
     7
 10
-77.3465944954391
 20
29.0542014988011
 30
0.0
 11
-77.3465944954391
 21
34.4292014988011
 31
0.0
  0
LINE
  5
   4B9
  8
0
  6
CONTINUOUS
 62
     7
 10
-77.6145426460739
 20
29.0542014988011
 30
0.0
 11
-77.6145426460739
 21
34.4292014988011
 31
0.0
  0
LINE
  5
   4BA
  8
0
  6
CONTINUOUS
 62
     7
 10
-78.875013990068
 20
29.0542014988011
 30
0.0
 11
-78.875013990068
 21
55.3042014988011
 31
0.0
  0
LINE
  5
   4BB
  8
0
  6
CONTINUOUS
 62
     7
 10
-79.375013990068
 20
29.0542014988011
 30
0.0
 11
-79.375013990068
 21
55.164553061301
 31
0.0
  0
LINE
  5
   4BC
  8
0
  6
CONTINUOUS
 62
     7
 10
-78.875013990068
 20
36.0541807368741
 30
0.0
 11
-72.875013990068
 21
36.0541807368741
 31
0.0
  0
LINE
  5
   4BD
  8
0
  6
CONTINUOUS
 62
     7
 10
-72.875013990068
 20
34.4292014988011
 30
0.0
 11
-72.875013990068
 21
55.3042014988011
 31
0.0
  0
LINE
  5
   4BE
  8
0
  6
CONTINUOUS
 62
     7
 10
-72.375013990068
 20
34.4292014988011
 30
0.0
 11
-72.375013990068
 21
55.3042014988011
 31
0.0
  0
LINE
  5
   4BF
  8
0
  6
CONTINUOUS
 62
     7
 10
-62.625013990068
 20
34.4292014988011
 30
0.0
 11
-62.625013990068
 21
55.3042014988011
 31
0.0
  0
LINE
  5
   4C0
  8
0
  6
CONTINUOUS
 62
     7
 10
-62.625013990068
 20
54.6930946262425
 30
0.0
 11
-62.125013990068
 21
54.6930946262425
 31
0.0
  0
LINE
  5
   4C1
  8
0
  6
CONTINUOUS
 62
     7
 10
-62.625013990068
 20
54.8042014988011
 30
0.0
 11
-62.125013990068
 21
54.8042014988011
 31
0.0
  0
LINE
  5
   4C2
  8
0
  6
CONTINUOUS
 62
     7
 10
-62.625013990068
 20
55.179201498801
 30
0.0
 11
-62.125013990068
 21
55.179201498801
 31
0.0
  0
LINE
  5
   4C3
  8
0
  6
CONTINUOUS
 62
     7
 10
-72.875013990068
 20
54.6930946262425
 30
0.0
 11
-72.375013990068
 21
54.6930946262425
 31
0.0
  0
LINE
  5
   4C4
  8
0
  6
CONTINUOUS
 62
     7
 10
-72.875013990068
 20
54.8042014988011
 30
0.0
 11
-72.375013990068
 21
54.8042014988011
 31
0.0
  0
LINE
  5
   4C5
  8
0
  6
CONTINUOUS
 62
     7
 10
-72.875013990068
 20
55.179201498801
 30
0.0
 11
-72.375013990068
 21
55.179201498801
 31
0.0
  0
LINE
  5
   4C6
  8
0
  6
CONTINUOUS
 62
     7
 10
-79.375013990068
 20
54.6930946262425
 30
0.0
 11
-78.875013990068
 21
54.6930946262425
 31
0.0
  0
LINE
  5
   4C7
  8
0
  6
CONTINUOUS
 62
     7
 10
-79.375013990068
 20
54.8042014988011
 30
0.0
 11
-78.875013990068
 21
54.8042014988011
 31
0.0
  0
LINE
  5
   4C8
  8
0
  6
CONTINUOUS
 62
     7
 10
-79.375013990068
 20
55.179201498801
 30
0.0
 11
-78.8750101753708
 21
55.179201498801
 31
0.0
  0
LINE
  5
   4C9
  8
0
  6
CONTINUOUS
 62
     7
 10
-88.6250158974167
 20
54.9685730275416
 30
0.0
 11
-88.3750158978949
 21
54.5713222192452
 31
0.0
  0
LINE
  5
   4CA
  8
0
  6
CONTINUOUS
 62
     7
 10
-88.6250158448363
 20
55.0533718834439
 30
0.0
 11
-88.5546880875432
 21
54.8788037063955
 31
0.0
  0
LINE
  5
   4CB
  8
0
  6
CONTINUOUS
 62
     7
 10
-88.6250113443027
 20
55.0542135077543
 30
0.0
 11
-88.5517882301908
 21
55.2309942130101
 31
0.0
  0
LINE
  5
   4CC
  8
0
  6
CONTINUOUS
 62
     7
 10
-88.551793043276
 20
55.2309818673731
 30
0.0
 11
-88.3750161606501
 21
55.3042011666156
 31
0.0
  0
LINE
  5
   4CD
  8
0
  6
CONTINUOUS
 62
     7
 10
-88.3750158321247
 20
54.5713219535821
 30
0.0
 11
-79.3750139246426
 21
54.5717491996754
 31
0.0
  0
LINE
  5
   4CE
  8
0
  6
CONTINUOUS
 62
     7
 10
-62.125013990068
 20
34.4292014988011
 30
0.0
 11
-62.125013990068
 21
55.3042014988011
 31
0.0
  0
LINE
  5
   4CF
  8
0
  6
CONTINUOUS
 62
     7
 10
-55.6250139898767
 20
54.5728859794581
 30
0.0
 11
-36.3750188133584
 21
54.5737998119377
 31
0.0
  0
LINE
  5
   4D0
  8
0
  6
CONTINUOUS
 62
     7
 10
-56.875013990068
 20
40.3042057677426
 30
0.0
 11
-56.875013990068
 21
41.0542057677426
 31
0.0
  0
LINE
  5
   4D1
  8
0
  6
CONTINUOUS
 62
     7
 10
-61.375013990068
 20
40.3042057677426
 30
0.0
 11
-61.375013990068
 21
41.0542057677426
 31
0.0
  0
CIRCLE
  5
   4D2
  8
0
  6
CONTINUOUS
 62
     7
 10
-75.875013990068
 20
40.6792057677426
 30
0.0
 40
2.25
  0
CIRCLE
  5
   4D3
  8
0
  6
CONTINUOUS
 62
     7
 10
-75.875013990068
 20
40.6792057677426
 30
0.0
 40
1.5
  0
LINE
  5
   4D4
  8
0
  6
CONTINUOUS
 62
     7
 10
-61.375013990068
 20
41.0542057677426
 30
0.0
 11
-56.875013990068
 21
41.0542057677426
 31
0.0
  0
LINE
  5
   4D5
  8
0
  6
CONTINUOUS
 62
     7
 10
-61.375013990068
 20
40.3042057677426
 30
0.0
 11
-56.875013990068
 21
40.3042057677426
 31
0.0
  0
LINE
  5
   4D6
  8
0
  6
CONTINUOUS
 62
     7
 10
-12.0000001238647
 20
9.16437776646566
 30
0.0
 11
-12.0000001238647
 21
13.8210394611435
 31
0.0
  0
LINE
  5
   4D7
  8
0
  6
DASHDOT
 62
     7
 10
0.0
 20
-2.98636289152836
 30
0.0
 11
0.0
 21
2.60630984059787
 31
0.0
  0
LINE
  5
   4D8
  8
0
  6
DASHDOT
 62
     7
 10
-125.0
 20
74.3042497634888
 30
0.0
 11
-125.0
 21
76.3042497634888
 31
0.0
  0
LINE
  5
   4D9
  8
0
  6
DASHDOT
 62
     7
 10
-126.0
 20
75.3042497634888
 30
0.0
 11
-124.0
 21
75.3042497634888
 31
0.0
  0
LINE
  5
   4DA
  8
0
  6
CONTINUOUS
 62
     7
 10
5.75
 20
3.80424976348877
 30
0.0
 11
5.75
 21
33.3042497634888
 31
0.0
  0
LINE
  5
   4DB
  8
0
  6
CONTINUOUS
 62
     7
 10
-155.25
 20
3.80424976348877
 30
0.0
 11
-155.25
 21
68.8042497634888
 31
0.0
  0
LINE
  5
   4DC
  8
0
  6
CONTINUOUS
 62
     7
 10
-131.25
 20
77.5542497634888
 30
0.0
 11
-126.984313483298
 21
77.5542497634888
 31
0.0
  0
LINE
  5
   4DD
  8
0
  6
CONTINUOUS
 62
     7
 10
-4.0
 20
-1.94575023651123
 30
0.0
 11
-1.98431348329844
 21
-1.94575023651123
 31
0.0
  0
LINE
  5
   4DE
  8
0
  6
CONTINUOUS
 62
     7
 10
1.24997456584018
 20
3.80424976348877
 30
0.0
 11
5.75
 21
3.80424976348877
 31
0.0
  0
LINE
  5
   4DF
  8
0
  6
CONTINUOUS
 62
     7
 10
-7.25
 20
72.8042497634888
 30
0.0
 11
-7.25
 21
74.8042497634888
 31
0.0
  0
LINE
  5
   4E0
  8
0
  6
CONTINUOUS
 62
     7
 10
-155.25
 20
68.8042497634888
 30
0.0
 11
-149.646824904736
 21
68.8042497634888
 31
0.0
  0
LINE
  5
   4E1
  8
0
  6
CONTINUOUS
 62
     7
 10
-6.25
 20
0.80424976348877
 30
0.0
 11
-6.25
 21
2.80424976348877
 31
0.0
  0
LINE
  5
   4E2
  8
0
  6
CONTINUOUS
 62
     7
 10
-120.25
 20
74.8042497634888
 30
0.0
 11
-7.25
 21
74.8042497634888
 31
0.0
  0
LINE
  5
   4E3
  8
0
  6
CONTINUOUS
 62
     7
 10
-117.75
 20
0.80424976348877
 30
0.0
 11
-4.5
 21
0.80424976348877
 31
0.0
  0
LINE
  5
   4E4
  8
0
  6
CONTINUOUS
 62
     7
 10
-118.75
 20
73.5542497634888
 30
0.0
 11
-118.75
 21
74.8042497634888
 31
0.0
  0
LINE
  5
   4E5
  8
0
  6
CONTINUOUS
 62
     7
 10
-155.25
 20
3.80424976348877
 30
0.0
 11
-149.646824904736
 21
3.80424976348877
 31
0.0
  0
LINE
  5
   4E6
  8
0
  6
CONTINUOUS
 62
     7
 10
-117.75
 20
0.80424976348877
 30
0.0
 11
-117.75
 21
2.80420852908374
 31
0.0
  0
LINE
  5
   4E7
  8
0
  6
CONTINUOUS
 62
     7
 10
-118.75
 20
73.5542497634888
 30
0.0
 11
-117.75
 21
73.5542497634888
 31
0.0
  0
LINE
  5
   4E8
  8
0
  6
CONTINUOUS
 62
     2
 10
-137.25
 20
72.8042497634888
 30
0.0
 11
-137.25
 21
76.5542497634888
 31
0.0
  0
LINE
  5
   4E9
  8
0
  6
CONTINUOUS
 62
     2
 10
-121.394448724536
 20
73.4292497634888
 30
0.0
 11
-117.75
 21
73.4292497634888
 31
0.0
  0
LINE
  5
   4EA
  8
0
  6
CONTINUOUS
 62
     2
 10
-136.25
 20
77.5542497634888
 30
0.0
 11
-130.25
 21
77.5542497634888
 31
0.0
  0
ARC
  5
   4EB
  8
0
  6
CONTINUOUS
 62
     2
 10
-125.0
 20
75.6792497634888
 30
0.0
 40
4.25
 50
180.0
 51
222.568454203294
  0
ARC
  5
   4EC
  8
0
  6
CONTINUOUS
 62
     2
 10
-136.25
 20
76.5542497634888
 30
0.0
 40
1.0
 50
90.0
 51
180.0
  0
LINE
  5
   4ED
  8
0
  6
CONTINUOUS
 62
     2
 10
-129.25
 20
75.6792497634888
 30
0.0
 11
-129.25
 21
76.5542497634888
 31
0.0
  0
ARC
  5
   4EE
  8
0
  6
CONTINUOUS
 62
     2
 10
-130.25
 20
76.5542497634888
 30
0.0
 40
1.0
 50
0.0
 51
90.0
  0
LINE
  5
   4EF
  8
0
  6
CONTINUOUS
 62
     7
 10
3.5
 20
-1.44575023651123
 30
0.0
 11
3.5
 21
3.80424976348877
 31
0.0
  0
LINE
  5
   4F0
  8
0
  6
CONTINUOUS
 62
     7
 10
-3.5
 20
-1.44575023651123
 30
0.0
 11
-3.5
 21
2.80424976348877
 31
0.0
  0
LINE
  5
   4F1
  8
0
  6
CONTINUOUS
 62
     7
 10
1.98431348329844
 20
-1.94575023651123
 30
0.0
 11
4.0
 21
-1.94575023651123
 31
0.0
  0
LINE
  5
   4F2
  8
0
  6
CONTINUOUS
 62
     7
 10
-121.5
 20
73.4292497634888
 30
0.0
 11
-121.5
 21
77.5542497634888
 31
0.0
  0
LINE
  5
   4F3
  8
0
  6
CONTINUOUS
 62
     7
 10
-123.015686516702
 20
77.5542497634888
 30
0.0
 11
-120.75
 21
77.5542497634888
 31
0.0
  0
LINE
  5
   4F4
  8
0
  6
CONTINUOUS
 62
     7
 10
4.5
 20
-1.44575023651123
 30
0.0
 11
4.5
 21
3.80424976348877
 31
0.0
  0
LINE
  5
   4F5
  8
0
  6
CONTINUOUS
 62
     7
 10
-4.5
 20
-1.44575023651123
 30
0.0
 11
-4.5
 21
0.80424976348877
 31
0.0
  0
LINE
  5
   4F6
  8
0
  6
CONTINUOUS
 62
     7
 10
-120.25
 20
74.8042497634888
 30
0.0
 11
-120.25
 21
77.0542497634888
 31
0.0
  0
ARC
  5
   4F7
  8
0
  6
CONTINUOUS
 62
     7
 10
-120.75
 20
77.0542497634888
 30
0.0
 40
0.5
 50
0.0
 51
90.0
  0
ARC
  5
   4F8
  8
0
  6
CONTINUOUS
 62
     7
 10
-4.0
 20
-1.44575023651123
 30
0.0
 40
0.5
 50
180.0
 51
270.0
  0
ARC
  5
   4F9
  8
0
  6
CONTINUOUS
 62
     7
 10
4.0
 20
-1.44575023651123
 30
0.0
 40
0.5
 50
270.0
 51
360.0
  0
ARC
  5
   4FA
  8
0
  6
CONTINUOUS
 62
     7
 10
4.0
 20
-1.44575023651123
 30
0.0
 40
0.5
 50
180.0
 51
270.0
  0
ARC
  5
   4FB
  8
0
  6
CONTINUOUS
 62
     7
 10
-4.0
 20
-1.44575023651123
 30
0.0
 40
0.5
 50
270.0
 51
360.0
  0
LINE
  5
   4FC
  8
0
  6
CONTINUOUS
 62
     7
 10
-154.0
 20
5.55424976348877
 30
0.0
 11
-154.0
 21
15.5542497634888
 31
0.0
  0
LINE
  5
   4FD
  8
0
  6
CONTINUOUS
 62
     7
 10
-153.5
 20
5.05424976348877
 30
0.0
 11
-152.875
 21
5.05424976348877
 31
0.0
  0
ARC
  5
   4FE
  8
0
  6
CONTINUOUS
 62
     7
 10
-153.5
 20
5.55424976348877
 30
0.0
 40
0.5
 50
180.0
 51
270.0
  0
LINE
  5
   4FF
  8
0
  6
CONTINUOUS
 62
     7
 10
-150.25
 20
52.5542497634888
 30
0.0
 11
-150.25
 21
66.3042497634888
 31
0.0
  0
LINE
  5
   500
  8
0
  6
CONTINUOUS
 62
     7
 10
1.24997456584018
 20
71.8042497634888
 30
0.0
 11
5.75
 21
71.8042497634888
 31
0.0
  0
LINE
  5
   501
  8
0
  6
CONTINUOUS
 62
     7
 10
-152.375
 20
5.55424976348877
 30
0.0
 11
-152.375
 21
15.5542497634888
 31
0.0
  0
ARC
  5
   502
  8
0
  6
CONTINUOUS
 62
     7
 10
-152.875
 20
5.55424976348877
 30
0.0
 40
0.5
 50
270.0
 51
360.0
  0
LINE
  5
   503
  8
0
  6
CONTINUOUS
 62
     7
 10
-150.625
 20
5.05424976348877
 30
0.0
 11
-150.25
 21
5.05424976348877
 31
0.0
  0
LINE
  5
   504
  8
0
  6
CONTINUOUS
 62
     7
 10
-151.125
 20
5.55424976348877
 30
0.0
 11
-151.125
 21
15.5542497634888
 31
0.0
  0
ARC
  5
   505
  8
0
  6
CONTINUOUS
 62
     7
 10
-150.625
 20
5.55424976348877
 30
0.0
 40
0.5
 50
180.0
 51
270.0
  0
LINE
  5
   506
  8
0
  6
CONTINUOUS
 62
     7
 10
-117.75
 20
72.8042497634888
 30
0.0
 11
-117.75
 21
73.5542497634888
 31
0.0
  0
LINE
  5
   507
  8
0
  6
CONTINUOUS
 62
     7
 10
-12.0000002486749
 20
26.6643731683257
 30
0.0
 11
-12.0000002486749
 21
31.3210348630035
 31
0.0
  0
LINE
  5
   508
  8
0
  6
CONTINUOUS
 62
     7
 10
-11.9999977248615
 20
44.1643780900536
 30
0.0
 11
-11.9999977248615
 21
48.8210397847314
 31
0.0
  0
LINE
  5
   509
  8
0
  6
DASHDOT
 62
     7
 10
-102.833393940799
 20
29.0542526279574
 30
0.0
 11
-47.5199564475696
 21
29.0542526279574
 31
0.0
  0
LINE
  5
   50A
  8
0
  6
CONTINUOUS
 62
     7
 10
-155.25
 20
53.8042497634888
 30
0.0
 11
-149.646824904736
 21
53.8042497634888
 31
0.0
  0
LINE
  5
   50B
  8
0
  6
CONTINUOUS
 62
     7
 10
-150.25
 20
66.3042497634888
 30
0.0
 11
-149.646824904736
 21
66.3042497634888
 31
0.0
  0
LINE
  5
   50C
  8
0
  6
CONTINUOUS
 62
     7
 10
-153.5
 20
28.1792497634888
 30
0.0
 11
-152.875
 21
28.1792497634888
 31
0.0
  0
LINE
  5
   50D
  8
0
  6
CONTINUOUS
 62
     7
 10
-153.5
 20
17.3042497634888
 30
0.0
 11
-152.875
 21
17.3042497634888
 31
0.0
  0
LINE
  5
   50E
  8
0
  6
CONTINUOUS
 62
     7
 10
-154.0
 20
17.8042497634888
 30
0.0
 11
-154.0
 21
27.6792497634888
 31
0.0
  0
LINE
  5
   50F
  8
0
  6
CONTINUOUS
 62
     7
 10
-152.375
 20
17.8042497634888
 30
0.0
 11
-152.375
 21
27.6792497634888
 31
0.0
  0
LINE
  5
   510
  8
0
  6
CONTINUOUS
 62
     7
 10
-151.125
 20
17.8042497634888
 30
0.0
 11
-151.125
 21
27.6792497634888
 31
0.0
  0
LINE
  5
   511
  8
0
  6
CONTINUOUS
 62
     7
 10
-153.5
 20
16.0542497634888
 30
0.0
 11
-152.875
 21
16.0542497634888
 31
0.0
  0
LINE
  5
   512
  8
0
  6
CONTINUOUS
 62
     7
 10
-150.625
 20
16.0542497634888
 30
0.0
 11
-150.25
 21
16.0542497634888
 31
0.0
  0
LINE
  5
   513
  8
0
  6
CONTINUOUS
 62
     7
 10
-150.625
 20
17.3042497634888
 30
0.0
 11
-150.25
 21
17.3042497634888
 31
0.0
  0
ARC
  5
   514
  8
0
  6
CONTINUOUS
 62
     7
 10
-150.625
 20
15.5542497634888
 30
0.0
 40
0.5
 50
90.0
 51
180.0
  0
ARC
  5
   515
  8
0
  6
CONTINUOUS
 62
     7
 10
-152.875
 20
15.5542497634888
 30
0.0
 40
0.5
 50
0.0
 51
90.0
  0
ARC
  5
   516
  8
0
  6
CONTINUOUS
 62
     7
 10
-153.5
 20
15.5542497634888
 30
0.0
 40
0.5
 50
90.0
 51
180.0
  0
ARC
  5
   517
  8
0
  6
CONTINUOUS
 62
     7
 10
-153.5
 20
17.8042497634888
 30
0.0
 40
0.5
 50
180.0
 51
270.0
  0
ARC
  5
   518
  8
0
  6
CONTINUOUS
 62
     7
 10
-152.875
 20
17.8042497634888
 30
0.0
 40
0.5
 50
270.0
 51
360.0
  0
ARC
  5
   519
  8
0
  6
CONTINUOUS
 62
     7
 10
-150.625
 20
17.8042497634888
 30
0.0
 40
0.5
 50
180.0
 51
270.0
  0
LINE
  5
   51A
  8
0
  6
CONTINUOUS
 62
     7
 10
-150.625
 20
28.1792497634888
 30
0.0
 11
-150.25
 21
28.1792497634888
 31
0.0
  0
ARC
  5
   51B
  8
0
  6
CONTINUOUS
 62
     7
 10
-152.875
 20
27.6792497634888
 30
0.0
 40
0.5
 50
0.0
 51
90.0
  0
ARC
  5
   51C
  8
0
  6
CONTINUOUS
 62
     7
 10
-153.5
 20
27.6792497634888
 30
0.0
 40
0.5
 50
90.0
 51
180.0
  0
ARC
  5
   51D
  8
0
  6
CONTINUOUS
 62
     7
 10
-150.625
 20
27.6792497634888
 30
0.0
 40
0.5
 50
90.0
 51
180.0
  0
LINE
  5
   51E
  8
0
  6
CONTINUOUS
 62
     7
 10
-154.0
 20
42.0542497634888
 30
0.0
 11
-154.0
 21
52.0542497634888
 31
0.0
  0
LINE
  5
   51F
  8
0
  6
CONTINUOUS
 62
     7
 10
-153.5
 20
52.5542497634888
 30
0.0
 11
-152.875
 21
52.5542497634888
 31
0.0
  0
ARC
  5
   520
  8
0
  6
CONTINUOUS
 62
     7
 10
-153.5
 20
52.0542497634888
 30
0.0
 40
0.5
 50
90.0
 51
180.0
  0
LINE
  5
   521
  8
0
  6
CONTINUOUS
 62
     7
 10
-152.375
 20
42.0542497634888
 30
0.0
 11
-152.375
 21
52.0542497634888
 31
0.0
  0
ARC
  5
   522
  8
0
  6
CONTINUOUS
 62
     7
 10
-152.875
 20
52.0542497634888
 30
0.0
 40
0.5
 50
1.40334185970697E-14
 51
90.0
  0
LINE
  5
   523
  8
0
  6
CONTINUOUS
 62
     7
 10
-151.125
 20
42.0542497634888
 30
0.0
 11
-151.125
 21
52.0542497634888
 31
0.0
  0
ARC
  5
   524
  8
0
  6
CONTINUOUS
 62
     7
 10
-150.625
 20
52.0542497634888
 30
0.0
 40
0.5
 50
90.0
 51
180.0
  0
LINE
  5
   525
  8
0
  6
CONTINUOUS
 62
     7
 10
-153.5
 20
29.4292497634888
 30
0.0
 11
-152.875
 21
29.4292497634888
 31
0.0
  0
LINE
  5
   526
  8
0
  6
CONTINUOUS
 62
     7
 10
-153.5
 20
40.3042497634888
 30
0.0
 11
-152.875
 21
40.3042497634888
 31
0.0
  0
LINE
  5
   527
  8
0
  6
CONTINUOUS
 62
     7
 10
-154.0
 20
29.9292497634888
 30
0.0
 11
-154.0
 21
39.8042497634888
 31
0.0
  0
LINE
  5
   528
  8
0
  6
CONTINUOUS
 62
     7
 10
-152.375
 20
29.9292497634888
 30
0.0
 11
-152.375
 21
39.8042497634888
 31
0.0
  0
LINE
  5
   529
  8
0
  6
CONTINUOUS
 62
     7
 10
-151.125
 20
29.9292497634888
 30
0.0
 11
-151.125
 21
39.8042497634888
 31
0.0
  0
LINE
  5
   52A
  8
0
  6
CONTINUOUS
 62
     7
 10
-153.5
 20
41.5542497634888
 30
0.0
 11
-152.875
 21
41.5542497634888
 31
0.0
  0
LINE
  5
   52B
  8
0
  6
CONTINUOUS
 62
     7
 10
-150.625
 20
41.5542497634888
 30
0.0
 11
-150.25
 21
41.5542497634888
 31
0.0
  0
LINE
  5
   52C
  8
0
  6
CONTINUOUS
 62
     7
 10
-150.625
 20
40.3042497634888
 30
0.0
 11
-150.25
 21
40.3042497634888
 31
0.0
  0
ARC
  5
   52D
  8
0
  6
CONTINUOUS
 62
     7
 10
-150.625
 20
42.0542497634888
 30
0.0
 40
0.5
 50
180.0
 51
270.0
  0
ARC
  5
   52E
  8
0
  6
CONTINUOUS
 62
     7
 10
-152.875
 20
42.0542497634888
 30
0.0
 40
0.5
 50
270.0
 51
360.0
  0
ARC
  5
   52F
  8
0
  6
CONTINUOUS
 62
     7
 10
-153.5
 20
42.0542497634888
 30
0.0
 40
0.5
 50
180.0
 51
270.0
  0
ARC
  5
   530
  8
0
  6
CONTINUOUS
 62
     7
 10
-153.5
 20
39.8042497634888
 30
0.0
 40
0.5
 50
90.0
 51
180.0
  0
ARC
  5
   531
  8
0
  6
CONTINUOUS
 62
     7
 10
-152.875
 20
39.8042497634888
 30
0.0
 40
0.5
 50
1.40334185970697E-14
 51
90.0
  0
ARC
  5
   532
  8
0
  6
CONTINUOUS
 62
     7
 10
-150.625
 20
39.8042497634888
 30
0.0
 40
0.5
 50
90.0
 51
180.0
  0
LINE
  5
   533
  8
0
  6
CONTINUOUS
 62
     7
 10
-150.625
 20
29.4292497634888
 30
0.0
 11
-150.25
 21
29.4292497634888
 31
0.0
  0
ARC
  5
   534
  8
0
  6
CONTINUOUS
 62
     7
 10
-152.875
 20
29.9292497634888
 30
0.0
 40
0.5
 50
270.0
 51
360.0
  0
ARC
  5
   535
  8
0
  6
CONTINUOUS
 62
     7
 10
-153.5
 20
29.9292497634888
 30
0.0
 40
0.5
 50
180.0
 51
270.0
  0
ARC
  5
   536
  8
0
  6
CONTINUOUS
 62
     7
 10
-150.625
 20
29.9292497634888
 30
0.0
 40
0.5
 50
180.0
 51
270.0
  0
LINE
  5
   537
  8
0
  6
DASHDOT
 62
     7
 10
4.51570648429822E-7
 20
-4.79420069023805
 30
0.0
 11
4.51570648429822E-7
 21
2.5908802263461
 31
0.0
  0
ARC
  5
   538
  8
0
  6
CONTINUOUS
 62
     1
 10
6.25000079118334
 20
0.304250044142389
 30
0.0
 40
2.5
 50
225.535362919653
 51
494.427029391511
  0
LINE
  5
   539
  8
0
  6
CONTINUOUS
 62
     1
 10
5.92500079118334
 20
1.62925004414239
 30
0.0
 11
6.57500079118334
 21
1.62925004414239
 31
0.0
  0
LINE
  5
   53A
  8
0
  6
CONTINUOUS
 62
     1
 10
5.92500079118334
 20
-1.02074995585761
 30
0.0
 11
6.57500079118334
 21
-1.02074995585761
 31
0.0
  0
LINE
  5
   53B
  8
0
  6
CONTINUOUS
 62
     1
 10
4.92500079118334
 20
-2.07499558576109E-2
 30
0.0
 11
4.92500079118334
 21
0.629250044142389
 31
0.0
  0
LINE
  5
   53C
  8
0
  6
CONTINUOUS
 62
     1
 10
7.57500079118334
 20
-2.07499558576109E-2
 30
0.0
 11
7.57500079118334
 21
0.629250044142389
 31
0.0
  0
LINE
  5
   53D
  8
0
  6
CONTINUOUS
 62
     1
 10
4.92500079118334
 20
0.629250044142389
 30
0.0
 11
5.92500079118334
 21
0.629250044142389
 31
0.0
  0
LINE
  5
   53E
  8
0
  6
CONTINUOUS
 62
     1
 10
4.92500079118334
 20
-2.07499558576109E-2
 30
0.0
 11
5.92500079118334
 21
-2.07499558576109E-2
 31
0.0
  0
LINE
  5
   53F
  8
0
  6
CONTINUOUS
 62
     1
 10
5.92500079118334
 20
-1.02074995585761
 30
0.0
 11
5.92500079118334
 21
-2.07499558576109E-2
 31
0.0
  0
LINE
  5
   540
  8
0
  6
CONTINUOUS
 62
     1
 10
6.57500079118334
 20
-1.02074995585761
 30
0.0
 11
6.57500079118334
 21
-2.07499558576109E-2
 31
0.0
  0
LINE
  5
   541
  8
0
  6
CONTINUOUS
 62
     1
 10
5.92500079118334
 20
0.629250044142389
 30
0.0
 11
5.92500079118334
 21
1.62925004414239
 31
0.0
  0
LINE
  5
   542
  8
0
  6
CONTINUOUS
 62
     1
 10
6.57500079118334
 20
0.629250044142389
 30
0.0
 11
6.57500079118334
 21
1.62925004414239
 31
0.0
  0
LINE
  5
   543
  8
0
  6
CONTINUOUS
 62
     1
 10
6.57500079118334
 20
0.629250044142389
 30
0.0
 11
7.57500079118334
 21
0.629250044142389
 31
0.0
  0
LINE
  5
   544
  8
0
  6
CONTINUOUS
 62
     1
 10
6.57500079118334
 20
-2.07499558576109E-2
 30
0.0
 11
7.57500079118334
 21
-2.07499558576109E-2
 31
0.0
  0
LINE
  5
   545
  8
0
  6
DASHDOT
 62
     7
 10
6.25000079118334
 20
-3.19574995585761
 30
0.0
 11
6.25000079118334
 21
3.80425004414239
 31
0.0
  0
ARC
  5
   546
  8
0
  6
CONTINUOUS
 62
     3
 10
0.0
 20
0.30424976348877
 30
0.0
 40
3.0
 50
123.557309761921
 51
425.376215997586
  0
LINE
  5
   547
  8
0
  6
CONTINUOUS
 62
     3
 10
-0.355
 20
2.00424976348877
 30
0.0
 11
0.355
 21
2.00424976348877
 31
0.0
  0
LINE
  5
   548
  8
0
  6
CONTINUOUS
 62
     3
 10
-0.355
 20
-1.39575023651123
 30
0.0
 11
0.355
 21
-1.39575023651123
 31
0.0
  0
LINE
  5
   549
  8
0
  6
CONTINUOUS
 62
     3
 10
-1.7
 20
-5.07502365112305E-2
 30
0.0
 11
-1.7
 21
0.65924976348877
 31
0.0
  0
LINE
  5
   54A
  8
0
  6
CONTINUOUS
 62
     3
 10
1.7
 20
-5.07502365112305E-2
 30
0.0
 11
1.7
 21
0.65924976348877
 31
0.0
  0
LINE
  5
   54B
  8
0
  6
CONTINUOUS
 62
     3
 10
-1.7
 20
0.65924976348877
 30
0.0
 11
-0.355
 21
0.65924976348877
 31
0.0
  0
LINE
  5
   54C
  8
0
  6
CONTINUOUS
 62
     3
 10
-1.7
 20
-5.07502365112305E-2
 30
0.0
 11
-0.355
 21
-5.07502365112305E-2
 31
0.0
  0
LINE
  5
   54D
  8
0
  6
CONTINUOUS
 62
     3
 10
-0.355
 20
-1.39575023651123
 30
0.0
 11
-0.355
 21
-5.07502365112305E-2
 31
0.0
  0
LINE
  5
   54E
  8
0
  6
CONTINUOUS
 62
     3
 10
0.355
 20
-1.39575023651123
 30
0.0
 11
0.355
 21
-5.07502365112305E-2
 31
0.0
  0
LINE
  5
   54F
  8
0
  6
CONTINUOUS
 62
     3
 10
-0.355
 20
0.65924976348877
 30
0.0
 11
-0.355
 21
2.00424976348877
 31
0.0
  0
LINE
  5
   550
  8
0
  6
CONTINUOUS
 62
     3
 10
0.355
 20
0.65924976348877
 30
0.0
 11
0.355
 21
2.00424976348877
 31
0.0
  0
LINE
  5
   551
  8
0
  6
CONTINUOUS
 62
     3
 10
0.355
 20
0.65924976348877
 30
0.0
 11
1.7
 21
0.65924976348877
 31
0.0
  0
LINE
  5
   552
  8
0
  6
CONTINUOUS
 62
     3
 10
0.355
 20
-5.07502365112305E-2
 30
0.0
 11
1.7
 21
-5.07502365112305E-2
 31
0.0
  0
LINE
  5
   553
  8
0
  6
DASHDOT
 62
     7
 10
0.0
 20
-3.69575023651123
 30
0.0
 11
0.0
 21
4.30424976348877
 31
0.0
  0
ARC
  5
   554
  8
0
  6
CONTINUOUS
 62
     3
 10
-125.0
 20
75.3042497634888
 30
0.0
 40
3.0
 50
303.557309761921
 51
596.442690238079
  0
LINE
  5
   555
  8
0
  6
CONTINUOUS
 62
     3
 10
-125.355
 20
77.0042497634888
 30
0.0
 11
-124.645
 21
77.0042497634888
 31
0.0
  0
LINE
  5
   556
  8
0
  6
CONTINUOUS
 62
     3
 10
-125.355
 20
73.6042497634888
 30
0.0
 11
-124.645
 21
73.6042497634888
 31
0.0
  0
LINE
  5
   557
  8
0
  6
CONTINUOUS
 62
     3
 10
-126.7
 20
74.9492497634888
 30
0.0
 11
-126.7
 21
75.6592497634888
 31
0.0
  0
LINE
  5
   558
  8
0
  6
CONTINUOUS
 62
     3
 10
-123.3
 20
74.9492497634888
 30
0.0
 11
-123.3
 21
75.6592497634888
 31
0.0
  0
LINE
  5
   559
  8
0
  6
CONTINUOUS
 62
     3
 10
-126.7
 20
75.6592497634888
 30
0.0
 11
-125.355
 21
75.6592497634888
 31
0.0
  0
LINE
  5
   55A
  8
0
  6
CONTINUOUS
 62
     3
 10
-126.7
 20
74.9492497634888
 30
0.0
 11
-125.355
 21
74.9492497634888
 31
0.0
  0
LINE
  5
   55B
  8
0
  6
CONTINUOUS
 62
     3
 10
-125.355
 20
73.6042497634888
 30
0.0
 11
-125.355
 21
74.9492497634888
 31
0.0
  0
LINE
  5
   55C
  8
0
  6
CONTINUOUS
 62
     3
 10
-124.645
 20
73.6042497634888
 30
0.0
 11
-124.645
 21
74.9492497634888
 31
0.0
  0
LINE
  5
   55D
  8
0
  6
CONTINUOUS
 62
     3
 10
-125.355
 20
75.6592497634888
 30
0.0
 11
-125.355
 21
77.0042497634888
 31
0.0
  0
LINE
  5
   55E
  8
0
  6
CONTINUOUS
 62
     3
 10
-124.645
 20
75.6592497634888
 30
0.0
 11
-124.645
 21
77.0042497634888
 31
0.0
  0
LINE
  5
   55F
  8
0
  6
CONTINUOUS
 62
     3
 10
-124.645
 20
75.6592497634888
 30
0.0
 11
-123.3
 21
75.6592497634888
 31
0.0
  0
LINE
  5
   560
  8
0
  6
CONTINUOUS
 62
     3
 10
-124.645
 20
74.9492497634888
 30
0.0
 11
-123.3
 21
74.9492497634888
 31
0.0
  0
LINE
  5
   561
  8
0
  6
DASHDOT
 62
     7
 10
-125.0
 20
71.3042497634888
 30
0.0
 11
-125.0
 21
79.3042497634888
 31
0.0
  0
LINE
  5
   562
  8
0
  6
DASHDOT
 62
     7
 10
-129.0
 20
75.3042497634888
 30
0.0
 11
-121.0
 21
75.3042497634888
 31
0.0
  0
LINE
  5
   563
  8
0
  6
DASHDOT
 62
     7
 10
-3.8870691102182
 20
0.30424976348877
 30
0.0
 11
8.85950781161968
 21
0.30424976348877
 31
0.0
  0
LINE
  5
   564
  8
0
  6
CONTINUOUS
 62
     5
 10
9.75000079118334
 20
4.77871514192536
 30
0.0
 11
15.0000010372823
 21
1.74762624080812
 31
0.0
  0
LINE
  5
   565
  8
0
  6
CONTINUOUS
 62
     5
 10
0.186142175652112
 20
-2.68996984943936
 30
0.0
 11
2.79423044379378
 21
-4.19575023651125
 31
0.0
  0
LINE
  5
   566
  8
0
  6
CONTINUOUS
 62
     5
 10
9.70577059509871
 20
-4.19575023651125
 30
0.0
 11
15.0000010372823
 21
-1.13912502107745
 31
0.0
  0
LINE
  5
   567
  8
0
  6
CONTINUOUS
 62
     5
 10
15.0000004768372
 20
-1.13912509680733
 30
0.0
 11
15.0000004768372
 21
1.747626316538
 31
0.0
  0
CIRCLE
  5
   568
  8
0
  6
CONTINUOUS
 62
     5
 10
12.5000004243367
 20
0.304249763488755
 30
0.0
 40
1.375
  0
LINE
  5
   569
  8
0
  6
DASHDOT
 62
     7
 10
12.5000004243367
 20
-1.94063902952739
 30
0.0
 11
12.5000004243367
 21
2.4168883932597
 31
0.0
  0
LINE
  5
   56A
  8
0
  6
DASHDOT
 62
     7
 10
-6.28984754835517
 20
0.304249763488754
 30
0.0
 11
18.802410750022
 21
0.304249763488754
 31
0.0
  0
LINE
  5
   56B
  8
0
  6
DASHDOT
 62
     7
 10
4.51570648429822E-7
 20
-4.79419984386149
 30
0.0
 11
4.51570648429822E-7
 21
2.59088107272267
 31
0.0
  0
LINE
  5
   56C
  8
0
  6
CONTINUOUS
 62
     5
 10
8.50000047683716
 20
5.05424976348875
 30
0.0
 11
8.50000047683716
 21
20.5542497634888
 31
0.0
  0
LINE
  5
   56D
  8
0
  6
CONTINUOUS
 62
     5
 10
5.75
 20
4.80424976348875
 30
0.0
 11
8.25000047683716
 21
4.80424976348875
 31
0.0
  0
LINE
  5
   56E
  8
0
  6
CONTINUOUS
 62
     5
 10
2.79422751185915
 20
-4.19575023651125
 30
0.0
 11
9.70577059509871
 21
-4.19575023651125
 31
0.0
  0
LINE
  5
   56F
  8
0
  6
CONTINUOUS
 62
     5
 10
7.12500079118334
 20
4.80424976348875
 30
0.0
 11
7.12500079118334
 21
20.8042497634888
 31
0.0
  0
ARC
  5
   570
  8
0
  6
CONTINUOUS
 62
     5
 10
8.25000047683716
 20
5.05424976348875
 30
0.0
 40
0.25
 50
270.0
 51
360.0
  0
LINE
  5
   571
  8
0
  6
CONTINUOUS
 62
     5
 10
9.75000079118334
 20
4.77871514192536
 30
0.0
 11
9.75000079118334
 21
20.8297860778053
 31
0.0
  0
CIRCLE
  5
   572
  8
0
  6
CONTINUOUS
 62
     5
 10
12.5000004243367
 20
0.304249763488755
 30
0.0
 40
1.625
  0
LINE
  5
   573
  8
0
  6
CONTINUOUS
 62
     5
 10
9.75000079118334
 20
29.7787151419254
 30
0.0
 11
15.0000010372823
 21
26.7476262408081
 31
0.0
  0
LINE
  5
   574
  8
0
  6
CONTINUOUS
 62
     5
 10
9.75000079118334
 20
20.8297860778053
 30
0.0
 11
15.0000010372823
 21
23.8608749789226
 31
0.0
  0
LINE
  5
   575
  8
0
  6
CONTINUOUS
 62
     5
 10
15.0000004768372
 20
23.8608749031927
 30
0.0
 11
15.0000004768372
 21
26.747626316538
 31
0.0
  0
CIRCLE
  5
   576
  8
0
  6
CONTINUOUS
 62
     5
 10
12.5000004243367
 20
25.3042497634888
 30
0.0
 40
1.375
  0
LINE
  5
   577
  8
0
  6
DASHDOT
 62
     7
 10
12.5000004243367
 20
22.8943313036404
 30
0.0
 11
12.5000004243367
 21
27.4168883932597
 31
0.0
  0
LINE
  5
   578
  8
0
  6
DASHDOT
 62
     7
 10
9.88007202471394
 20
25.3042497634888
 30
0.0
 11
15.4590796937702
 21
25.3042497634888
 31
0.0
  0
LINE
  5
   579
  8
0
  6
CONTINUOUS
 62
     5
 10
5.75
 20
20.8042497634888
 30
0.0
 11
8.25000047683716
 21
20.8042497634888
 31
0.0
  0
CIRCLE
  5
   57A
  8
0
  6
CONTINUOUS
 62
     5
 10
12.5000004243367
 20
25.3042497634888
 30
0.0
 40
1.625
  0
LINE
  5
   57B
  8
0
  6
CONTINUOUS
 62
     5
 10
9.70577352703334
 20
54.8042497634888
 30
0.0
 11
15.0000010372823
 21
51.7476262408081
 31
0.0
  0
LINE
  5
   57C
  8
0
  6
CONTINUOUS
 62
     5
 10
9.75000079118335
 20
45.8297860778053
 30
0.0
 11
15.0000010372823
 21
48.8608749789226
 31
0.0
  0
LINE
  5
   57D
  8
0
  6
CONTINUOUS
 62
     5
 10
15.0000004768372
 20
48.8608749031927
 30
0.0
 11
15.0000004768372
 21
51.747626316538
 31
0.0
  0
CIRCLE
  5
   57E
  8
0
  6
CONTINUOUS
 62
     5
 10
12.5000004243367
 20
50.3042497634888
 30
0.0
 40
1.375
  0
LINE
  5
   57F
  8
0
  6
DASHDOT
 62
     7
 10
12.5000004243367
 20
47.8557381117054
 30
0.0
 11
12.5000004243367
 21
52.6700974960702
 31
0.0
  0
LINE
  5
   580
  8
0
  6
DASHDOT
 62
     7
 10
9.99865417152587
 20
50.3042497634888
 30
0.0
 11
15.9955227388718
 21
50.3042497634888
 31
0.0
  0
LINE
  5
   581
  8
0
  6
DASHDOT
 62
     7
 10
4.51570648429822E-7
 20
47.9080681050137
 30
0.0
 11
4.51570648429822E-7
 21
52.7224274893785
 31
0.0
  0
CIRCLE
  5
   582
  8
0
  6
CONTINUOUS
 62
     5
 10
12.5000004243367
 20
50.3042497634888
 30
0.0
 40
1.625
  0
ARC
  5
   583
  8
0
  6
CONTINUOUS
 62
     5
 10
8.25000047683716
 20
20.5542497634888
 30
0.0
 40
0.25
 50
360.0
 51
450.0
  0
LINE
  5
   584
  8
0
  6
CONTINUOUS
 62
     5
 10
9.75000079118334
 20
29.7787134491722
 30
0.0
 11
9.75000079118334
 21
45.8297843850522
 31
0.0
  0
LINE
  5
   585
  8
0
  6
CONTINUOUS
 62
     5
 10
5.75
 20
54.8042497634888
 30
0.0
 11
9.70577352703334
 21
54.8042497634888
 31
0.0
  0
ARC
  5
   586
  8
0
  6
CONTINUOUS
 62
     5
 10
12.5000004243367
 20
0.304249763488755
 30
0.0
 40
2.625
 50
129.645574218739
 51
230.354394620329
  0
LINE
  5
   587
  8
0
  6
CONTINUOUS
 62
     5
 10
9.37083705125208
 20
3.55424976348875
 30
0.0
 11
10.7906449938561
 21
2.73452330733423
 31
0.0
  0
LINE
  5
   588
  8
0
  6
CONTINUOUS
 62
     5
 10
4.5
 20
3.55424976348875
 30
0.0
 11
9.37083705125208
 21
3.55424976348875
 31
0.0
  0
LINE
  5
   589
  8
0
  6
CONTINUOUS
 62
     5
 10
9.37083411931745
 20
-2.94575023651125
 30
0.0
 11
10.790643789875
 21
-2.12602278272229
 31
0.0
  0
LINE
  5
   58A
  8
0
  6
CONTINUOUS
 62
     5
 10
3.12916691957504
 20
-2.94575023651125
 30
0.0
 11
9.37083411931745
 21
-2.94575023651125
 31
0.0
  0
LINE
  5
   58B
  8
0
  6
CONTINUOUS
 62
     5
 10
1.73680622668662
 20
-2.14187045656228
 30
0.0
 11
3.12916691957504
 21
-2.94575023651125
 31
0.0
  0
ARC
  5
   58C
  8
0
  6
CONTINUOUS
 62
     5
 10
10.6656449986258
 20
2.5180169536343
 30
0.0
 40
0.25
 50
309.645574218739
 51
420.000001262255
  0
ARC
  5
   58D
  8
0
  6
CONTINUOUS
 62
     5
 10
10.6656437946448
 20
-1.90951642902237
 30
0.0
 40
0.25
 50
299.999998737745
 51
410.354394620329
  0
LINE
  5
   58E
  8
0
  6
CONTINUOUS
 62
     5
 10
5.75
 20
28.5542497634888
 30
0.0
 11
9.37083705125208
 21
28.5542497634888
 31
0.0
  0
LINE
  5
   58F
  8
0
  6
CONTINUOUS
 62
     5
 10
9.37083705125208
 20
28.5542497634888
 30
0.0
 11
10.7906449938561
 21
27.7345233073342
 31
0.0
  0
ARC
  5
   590
  8
0
  6
CONTINUOUS
 62
     5
 10
12.5000004243367
 20
25.3042497634888
 30
0.0
 40
2.625
 50
129.645574218739
 51
230.354394620329
  0
ARC
  5
   591
  8
0
  6
CONTINUOUS
 62
     5
 10
10.6656437946448
 20
23.0904835709776
 30
0.0
 40
0.25
 50
299.999998737745
 51
410.354394620329
  0
LINE
  5
   592
  8
0
  6
CONTINUOUS
 62
     5
 10
9.37083411931746
 20
22.0542497634888
 30
0.0
 11
10.790643789875
 21
22.8739772172777
 31
0.0
  0
LINE
  5
   593
  8
0
  6
CONTINUOUS
 62
     5
 10
5.75
 20
22.0542497634888
 30
0.0
 11
9.37083411931745
 21
22.0542497634888
 31
0.0
  0
ARC
  5
   594
  8
0
  6
CONTINUOUS
 62
     5
 10
10.6656449986258
 20
27.5180169536343
 30
0.0
 40
0.25
 50
309.645574218739
 51
420.000001262255
  0
ARC
  5
   595
  8
0
  6
CONTINUOUS
 62
     5
 10
10.6656449986258
 20
52.5180169536343
 30
0.0
 40
0.25
 50
309.645574218739
 51
420.000001262255
  0
LINE
  5
   596
  8
0
  6
CONTINUOUS
 62
     5
 10
5.75
 20
53.5542497634888
 30
0.0
 11
9.37083705125208
 21
53.5542497634888
 31
0.0
  0
LINE
  5
   597
  8
0
  6
CONTINUOUS
 62
     5
 10
9.37083705125209
 20
53.5542497634888
 30
0.0
 11
10.7906449938561
 21
52.7345233073342
 31
0.0
  0
ARC
  5
   598
  8
0
  6
CONTINUOUS
 62
     5
 10
12.5000004243367
 20
50.3042497634888
 30
0.0
 40
2.625
 50
129.645574218739
 51
230.354394620329
  0
LINE
  5
   599
  8
0
  6
CONTINUOUS
 62
     5
 10
9.37083411931746
 20
47.0542497634888
 30
0.0
 11
10.790643789875
 21
47.8739772172777
 31
0.0
  0
LINE
  5
   59A
  8
0
  6
CONTINUOUS
 62
     5
 10
5.75
 20
47.0542497634888
 30
0.0
 11
9.37083411931745
 21
47.0542497634888
 31
0.0
  0
ARC
  5
   59B
  8
0
  6
CONTINUOUS
 62
     5
 10
10.6656437946448
 20
48.0904835709776
 30
0.0
 40
0.25
 50
299.999998737745
 51
410.354394620329
  0
LINE
  5
   59C
  8
0
  6
CONTINUOUS
 62
     7
 10
1.24997456584018
 20
2.80424976348877
 30
0.0
 11
1.24997456584018
 21
72.8042497634888
 31
0.0
  0
LINE
  5
   59D
  8
0
  6
CONTINUOUS
 62
     7
 10
-12.0000254341598
 20
52.5542363017491
 30
0.0
 11
1.24997456584018
 21
52.5542363017491
 31
0.0
  0
LINE
  5
   59E
  8
0
  6
CONTINUOUS
 62
     7
 10
-12.0000254341598
 20
51.0542363017491
 30
0.0
 11
1.24997456584018
 21
51.0542363017491
 31
0.0
  0
LINE
  5
   59F
  8
0
  6
CONTINUOUS
 62
     7
 10
-12.0000254341598
 20
49.5542363017491
 30
0.0
 11
1.24997456584018
 21
49.5542363017491
 31
0.0
  0
LINE
  5
   5A0
  8
0
  6
CONTINUOUS
 62
     7
 10
-12.0000254341598
 20
48.0542363017491
 30
0.0
 11
1.24997456584018
 21
48.0542363017491
 31
0.0
  0
LINE
  5
   5A1
  8
0
  6
CONTINUOUS
 62
     7
 10
-12.0000254341598
 20
46.5542363017491
 30
0.0
 11
1.24997456584018
 21
46.5542363017491
 31
0.0
  0
LINE
  5
   5A2
  8
0
  6
CONTINUOUS
 62
     7
 10
-12.0000254341598
 20
45.0542363017491
 30
0.0
 11
1.24997456584018
 21
45.0542363017491
 31
0.0
  0
LINE
  5
   5A3
  8
0
  6
CONTINUOUS
 62
     7
 10
-12.0000254341598
 20
43.5542363017491
 30
0.0
 11
1.24997456584018
 21
43.5542363017491
 31
0.0
  0
LINE
  5
   5A4
  8
0
  6
CONTINUOUS
 62
     7
 10
-12.0000254341598
 20
42.0542363017491
 30
0.0
 11
1.24997456584018
 21
42.0542363017491
 31
0.0
  0
LINE
  5
   5A5
  8
0
  6
CONTINUOUS
 62
     7
 10
-12.0000254341598
 20
40.5542363017491
 30
0.0
 11
1.24997456584018
 21
40.5542363017491
 31
0.0
  0
LINE
  5
   5A6
  8
0
  6
CONTINUOUS
 62
     7
 10
-12.0000254341598
 20
39.0542363017491
 30
0.0
 11
1.24997456584018
 21
39.0542363017491
 31
0.0
  0
LINE
  5
   5A7
  8
0
  6
CONTINUOUS
 62
     7
 10
-12.0000254341598
 20
37.5542363017491
 30
0.0
 11
1.24997456584018
 21
37.5542363017491
 31
0.0
  0
LINE
  5
   5A8
  8
0
  6
CONTINUOUS
 62
     7
 10
-12.0000254341598
 20
36.0542363017491
 30
0.0
 11
1.24997456584018
 21
36.0542363017491
 31
0.0
  0
LINE
  5
   5A9
  8
0
  6
CONTINUOUS
 62
     7
 10
-12.0000254341598
 20
34.5542363017491
 30
0.0
 11
1.24997456584018
 21
34.5542363017491
 31
0.0
  0
LINE
  5
   5AA
  8
0
  6
CONTINUOUS
 62
     7
 10
-12.0000254341598
 20
33.0542363017491
 30
0.0
 11
1.24997456584018
 21
33.0542363017491
 31
0.0
  0
LINE
  5
   5AB
  8
0
  6
CONTINUOUS
 62
     7
 10
-12.0000254341598
 20
31.5542363017491
 30
0.0
 11
1.24997456584018
 21
31.5542363017491
 31
0.0
  0
LINE
  5
   5AC
  8
0
  6
CONTINUOUS
 62
     7
 10
-12.0000254341598
 20
30.0542363017491
 30
0.0
 11
1.24997456584018
 21
30.0542363017491
 31
0.0
  0
LINE
  5
   5AD
  8
0
  6
CONTINUOUS
 62
     7
 10
-12.0000254341598
 20
28.5542363017491
 30
0.0
 11
1.24997456584018
 21
28.5542363017491
 31
0.0
  0
LINE
  5
   5AE
  8
0
  6
CONTINUOUS
 62
     7
 10
-12.0000254341598
 20
27.0542363017491
 30
0.0
 11
1.24997456584018
 21
27.0542363017491
 31
0.0
  0
LINE
  5
   5AF
  8
0
  6
CONTINUOUS
 62
     7
 10
-12.0000254341598
 20
25.5542363017491
 30
0.0
 11
1.24997456584018
 21
25.5542363017491
 31
0.0
  0
LINE
  5
   5B0
  8
0
  6
CONTINUOUS
 62
     7
 10
-12.0000254341598
 20
24.0542363017491
 30
0.0
 11
1.24997456584018
 21
24.0542363017491
 31
0.0
  0
LINE
  5
   5B1
  8
0
  6
CONTINUOUS
 62
     7
 10
-12.0000254341598
 20
22.5542363017491
 30
0.0
 11
1.24997456584018
 21
22.5542363017491
 31
0.0
  0
LINE
  5
   5B2
  8
0
  6
CONTINUOUS
 62
     7
 10
-12.0000254341598
 20
21.0542363017491
 30
0.0
 11
1.24997456584018
 21
21.0542363017491
 31
0.0
  0
LINE
  5
   5B3
  8
0
  6
CONTINUOUS
 62
     7
 10
-12.0000254341598
 20
19.5542363017491
 30
0.0
 11
1.24997456584018
 21
19.5542363017491
 31
0.0
  0
LINE
  5
   5B4
  8
0
  6
CONTINUOUS
 62
     7
 10
-12.0000254341598
 20
18.0542363017491
 30
0.0
 11
1.24997456584018
 21
18.0542363017491
 31
0.0
  0
LINE
  5
   5B5
  8
0
  6
CONTINUOUS
 62
     7
 10
-12.0000254341598
 20
16.5542363017491
 30
0.0
 11
1.24997456584018
 21
16.5542363017491
 31
0.0
  0
LINE
  5
   5B6
  8
0
  6
CONTINUOUS
 62
     7
 10
-12.0000254341598
 20
15.0542363017491
 30
0.0
 11
1.24997456584018
 21
15.0542363017491
 31
0.0
  0
LINE
  5
   5B7
  8
0
  6
CONTINUOUS
 62
     7
 10
-12.0000254341598
 20
13.5542363017491
 30
0.0
 11
1.24997456584018
 21
13.5542363017491
 31
0.0
  0
LINE
  5
   5B8
  8
0
  6
CONTINUOUS
 62
     7
 10
-12.0000254341598
 20
12.0542363017491
 30
0.0
 11
1.24997456584018
 21
12.0542363017491
 31
0.0
  0
LINE
  5
   5B9
  8
0
  6
CONTINUOUS
 62
     7
 10
-12.0000254341598
 20
10.5542363017491
 30
0.0
 11
1.24997456584018
 21
10.5542363017491
 31
0.0
  0
LINE
  5
   5BA
  8
0
  6
CONTINUOUS
 62
     7
 10
-12.0000254341598
 20
9.05423630174913
 30
0.0
 11
1.24997456584018
 21
9.05423630174913
 31
0.0
  0
LINE
  5
   5BB
  8
0
  6
CONTINUOUS
 62
     7
 10
-12.0000254341598
 20
7.55423630174913
 30
0.0
 11
1.24997456584018
 21
7.55423630174913
 31
0.0
  0
LINE
  5
   5BC
  8
0
  6
CONTINUOUS
 62
     7
 10
-12.0000254341598
 20
6.05423630174913
 30
0.0
 11
1.24997456584018
 21
6.05423630174913
 31
0.0
  0
LINE
  5
   5BD
  8
0
  6
CONTINUOUS
 62
     7
 10
-12.0000254341598
 20
4.55423630174913
 30
0.0
 11
1.24997456584018
 21
4.55423630174913
 31
0.0
  0
INSERT
  5
   5BE
  8
0
  6
CONTINUOUS
 62
     7
  2
*UDIM729
 10
0.0
 20
0.0
 30
0.0
  0
INSERT
  5
   5BF
  8
0
  6
CONTINUOUS
 62
     7
  2
*UDIM730
 10
0.0
 20
0.0
 30
0.0
  0
INSERT
  5
   5C0
  8
0
  6
CONTINUOUS
 62
     7
  2
*UDIM731
 10
0.0
 20
0.0
 30
0.0
  0
INSERT
  5
   5C1
  8
0
  6
CONTINUOUS
 62
     7
  2
*UDIM732
 10
0.0
 20
0.0
 30
0.0
  0
INSERT
  5
   5C2
  8
0
  6
CONTINUOUS
 62
     7
  2
*UDIM733
 10
0.0
 20
0.0
 30
0.0
  0
LINE
  5
   5C3
  8
0
  6
CONTINUOUS
 62
     7
 10
-75.7500808548041
 20
5.67921766607874
 30
0.0
 11
-75.7500808548041
 21
11.0542176660787
 31
0.0
  0
LINE
  5
   5C4
  8
0
  6
CONTINUOUS
 62
     7
 10
-149.646824904736
 20
2.80420852908374
 30
0.0
 11
-149.646824904736
 21
72.8042497634888
 31
0.0
  0
LINE
  5
   5C5
  8
0
  6
CONTINUOUS
 62
     7
 10
-149.646824904736
 20
53.8042066217351
 30
0.0
 11
-114.64682418948
 21
53.8042066217351
 31
0.0
  0
LINE
  5
   5C6
  8
0
  6
CONTINUOUS
 62
     7
 10
-149.646824904736
 20
52.3042066217351
 30
0.0
 11
-114.64682418948
 21
52.3042066217351
 31
0.0
  0
LINE
  5
   5C7
  8
0
  6
CONTINUOUS
 62
     7
 10
-149.646824904736
 20
50.8042066217351
 30
0.0
 11
-114.64682418948
 21
50.8042066217351
 31
0.0
  0
LINE
  5
   5C8
  8
0
  6
CONTINUOUS
 62
     7
 10
-149.646824904736
 20
49.3042066217351
 30
0.0
 11
-114.64682418948
 21
49.3042066217351
 31
0.0
  0
LINE
  5
   5C9
  8
0
  6
CONTINUOUS
 62
     7
 10
-149.646824904736
 20
47.8042066217351
 30
0.0
 11
-114.64682418948
 21
47.8042066217351
 31
0.0
  0
LINE
  5
   5CA
  8
0
  6
CONTINUOUS
 62
     7
 10
-149.646824904736
 20
46.3042066217351
 30
0.0
 11
-114.64682418948
 21
46.3042066217351
 31
0.0
  0
LINE
  5
   5CB
  8
0
  6
CONTINUOUS
 62
     7
 10
-149.646824904736
 20
44.8042066217351
 30
0.0
 11
-114.64682418948
 21
44.8042066217351
 31
0.0
  0
LINE
  5
   5CC
  8
0
  6
CONTINUOUS
 62
     7
 10
-149.646824904736
 20
43.3042066217351
 30
0.0
 11
-114.64682418948
 21
43.3042066217351
 31
0.0
  0
LINE
  5
   5CD
  8
0
  6
CONTINUOUS
 62
     7
 10
-149.646824904736
 20
41.8042066217351
 30
0.0
 11
-114.64682418948
 21
41.8042066217351
 31
0.0
  0
LINE
  5
   5CE
  8
0
  6
CONTINUOUS
 62
     7
 10
-149.646824904736
 20
40.3042066217351
 30
0.0
 11
-114.64682418948
 21
40.3042066217351
 31
0.0
  0
LINE
  5
   5CF
  8
0
  6
CONTINUOUS
 62
     7
 10
-149.646824904736
 20
38.8042066217351
 30
0.0
 11
-114.64682418948
 21
38.8042066217351
 31
0.0
  0
LINE
  5
   5D0
  8
0
  6
CONTINUOUS
 62
     7
 10
-149.646824904736
 20
37.3042066217351
 30
0.0
 11
-114.64682418948
 21
37.3042066217351
 31
0.0
  0
LINE
  5
   5D1
  8
0
  6
CONTINUOUS
 62
     7
 10
-149.646824904736
 20
35.8042066217351
 30
0.0
 11
-114.64682418948
 21
35.8042066217351
 31
0.0
  0
LINE
  5
   5D2
  8
0
  6
CONTINUOUS
 62
     7
 10
-149.646824904736
 20
34.3042066217351
 30
0.0
 11
-114.64682418948
 21
34.3042066217351
 31
0.0
  0
LINE
  5
   5D3
  8
0
  6
CONTINUOUS
 62
     7
 10
-149.646824904736
 20
32.8042066217351
 30
0.0
 11
-114.64682418948
 21
32.8042066217351
 31
0.0
  0
LINE
  5
   5D4
  8
0
  6
CONTINUOUS
 62
     7
 10
-149.646824904736
 20
31.3042066217351
 30
0.0
 11
-114.64682418948
 21
31.3042066217351
 31
0.0
  0
LINE
  5
   5D5
  8
0
  6
CONTINUOUS
 62
     7
 10
-149.646824904736
 20
29.8042066217351
 30
0.0
 11
-114.64682418948
 21
29.8042066217351
 31
0.0
  0
LINE
  5
   5D6
  8
0
  6
CONTINUOUS
 62
     7
 10
-149.646824904736
 20
28.3042066217351
 30
0.0
 11
-114.64682418948
 21
28.3042066217351
 31
0.0
  0
LINE
  5
   5D7
  8
0
  6
CONTINUOUS
 62
     7
 10
-149.646824904736
 20
26.8042066217351
 30
0.0
 11
-114.64682418948
 21
26.8042066217351
 31
0.0
  0
LINE
  5
   5D8
  8
0
  6
CONTINUOUS
 62
     7
 10
-149.646824904736
 20
25.3042066217351
 30
0.0
 11
-114.64682418948
 21
25.3042066217351
 31
0.0
  0
LINE
  5
   5D9
  8
0
  6
CONTINUOUS
 62
     7
 10
-149.646824904736
 20
23.8042066217351
 30
0.0
 11
-114.64682418948
 21
23.8042066217351
 31
0.0
  0
LINE
  5
   5DA
  8
0
  6
CONTINUOUS
 62
     7
 10
-149.646824904736
 20
22.3042066217351
 30
0.0
 11
-114.64682418948
 21
22.3042066217351
 31
0.0
  0
LINE
  5
   5DB
  8
0
  6
CONTINUOUS
 62
     7
 10
-149.646824904736
 20
20.8042066217351
 30
0.0
 11
-114.64682418948
 21
20.8042066217351
 31
0.0
  0
LINE
  5
   5DC
  8
0
  6
CONTINUOUS
 62
     7
 10
-149.646824904736
 20
19.3042066217351
 30
0.0
 11
-114.64682418948
 21
19.3042066217351
 31
0.0
  0
LINE
  5
   5DD
  8
0
  6
CONTINUOUS
 62
     7
 10
-149.646824904736
 20
17.8042066217351
 30
0.0
 11
-114.64682418948
 21
17.8042066217351
 31
0.0
  0
LINE
  5
   5DE
  8
0
  6
CONTINUOUS
 62
     7
 10
-149.646824904736
 20
16.3042066217351
 30
0.0
 11
-114.64682418948
 21
16.3042066217351
 31
0.0
  0
LINE
  5
   5DF
  8
0
  6
CONTINUOUS
 62
     7
 10
-149.646824904736
 20
14.8042066217351
 30
0.0
 11
-114.64682418948
 21
14.8042066217351
 31
0.0
  0
LINE
  5
   5E0
  8
0
  6
CONTINUOUS
 62
     7
 10
-149.646824904736
 20
13.3042066217351
 30
0.0
 11
-114.64682418948
 21
13.3042066217351
 31
0.0
  0
LINE
  5
   5E1
  8
0
  6
CONTINUOUS
 62
     7
 10
-149.646824904736
 20
11.8042066217351
 30
0.0
 11
-114.64682418948
 21
11.8042066217351
 31
0.0
  0
LINE
  5
   5E2
  8
0
  6
CONTINUOUS
 62
     7
 10
-149.646824904736
 20
10.3042066217351
 30
0.0
 11
-114.64682418948
 21
10.3042066217351
 31
0.0
  0
LINE
  5
   5E3
  8
0
  6
CONTINUOUS
 62
     7
 10
-149.646824904736
 20
8.8042066217351
 30
0.0
 11
-114.64682418948
 21
8.8042066217351
 31
0.0
  0
LINE
  5
   5E4
  8
0
  6
CONTINUOUS
 62
     7
 10
-149.646824904736
 20
7.3042066217351
 30
0.0
 11
-114.64682418948
 21
7.3042066217351
 31
0.0
  0
LINE
  5
   5E5
  8
0
  6
CONTINUOUS
 62
     7
 10
-149.646824904736
 20
5.8042066217351
 30
0.0
 11
-114.64682418948
 21
5.8042066217351
 31
0.0
  0
LINE
  5
   5E6
  8
0
  6
CONTINUOUS
 62
     7
 10
-149.646824904736
 20
4.3042066217351
 30
0.0
 11
-114.64682418948
 21
4.3042066217351
 31
0.0
  0
INSERT
  5
   5E7
  8
0
  6
CONTINUOUS
 62
     7
  2
*UDIM734
 10
0.0
 20
0.0
 30
0.0
  0
INSERT
  5
   5E8
  8
0
  6
CONTINUOUS
 62
     7
  2
*UDIM735
 10
0.0
 20
0.0
 30
0.0
  0
LINE
  5
   5E9
  8
0
  6
CONTINUOUS
 62
     5
 10
5.75
 20
29.8042497634888
 30
0.0
 11
8.50000047683716
 21
29.8042497634888
 31
0.0
  0
LINE
  5
   5EA
  8
0
  6
CONTINUOUS
 62
     5
 10
5.37500079118334
 20
35.0542497634888
 30
0.0
 11
5.37500079118334
 21
42.8042497634888
 31
0.0
  0
LINE
  5
   5EB
  8
0
  6
CONTINUOUS
 62
     5
 10
4.00000110552953
 20
35.0542497634888
 30
0.0
 11
4.00000110552953
 21
42.8042497634888
 31
0.0
  0
LINE
  5
   5EC
  8
0
  6
CONTINUOUS
 62
     5
 10
5.75
 20
45.8042497634888
 30
0.0
 11
8.50000047683716
 21
45.8042497634888
 31
0.0
  0
LINE
  5
   5ED
  8
0
  6
CONTINUOUS
 62
     5
 10
7.12500079118334
 20
29.8042497634888
 30
0.0
 11
7.12500079118334
 21
45.8042497634888
 31
0.0
  0
LINE
  5
   5EE
  8
0
  6
CONTINUOUS
 62
     5
 10
8.50000047683716
 20
29.8042497634888
 30
0.0
 11
8.50000047683716
 21
45.8042497634888
 31
0.0
  0
INSERT
  5
   5EF
  8
0
  6
CONTINUOUS
 62
     7
  2
*UDIM736
 10
0.0
 20
0.0
 30
0.0
  0
ARC
  5
   5F0
  8
0
  6
CONTINUOUS
 62
     1
 10
6.25000079118334
 20
50.3042500441424
 30
0.0
 40
2.5
 50
258.46302246069
 51
461.53697753931
  0
LINE
  5
   5F1
  8
0
  6
CONTINUOUS
 62
     1
 10
6.57500079118334
 20
49.9792500441424
 30
0.0
 11
7.57500079118334
 21
49.9792500441424
 31
0.0
  0
LINE
  5
   5F2
  8
0
  6
CONTINUOUS
 62
     1
 10
6.57500079118334
 20
50.6292500441424
 30
0.0
 11
7.57500079118334
 21
50.6292500441424
 31
0.0
  0
LINE
  5
   5F3
  8
0
  6
CONTINUOUS
 62
     1
 10
7.57500079118334
 20
49.9792500441424
 30
0.0
 11
7.57500079118334
 21
50.6292500441424
 31
0.0
  0
LINE
  5
   5F4
  8
0
  6
CONTINUOUS
 62
     1
 10
6.57500079118334
 20
50.6292500441424
 30
0.0
 11
6.57500079118334
 21
51.6292500441424
 31
0.0
  0
LINE
  5
   5F5
  8
0
  6
CONTINUOUS
 62
     1
 10
6.57500079118334
 20
48.9792500441424
 30
0.0
 11
6.57500079118334
 21
49.9792500441424
 31
0.0
  0
LINE
  5
   5F6
  8
0
  6
CONTINUOUS
 62
     1
 10
5.92500079118334
 20
48.9792500441424
 30
0.0
 11
6.57500079118334
 21
48.9792500441424
 31
0.0
  0
LINE
  5
   5F7
  8
0
  6
CONTINUOUS
 62
     1
 10
5.92500079118334
 20
51.6292500441424
 30
0.0
 11
6.57500079118334
 21
51.6292500441424
 31
0.0
  0
LINE
  5
   5F8
  8
0
  6
CONTINUOUS
 62
     7
 10
-149.646824904736
 20
72.8042497634888
 30
0.0
 11
1.24997456584018
 21
72.8042497634888
 31
0.0
  0
ARC
  5
   5F9
  8
0
  6
CONTINUOUS
 62
     2
 10
-125.0
 20
75.6792497634888
 30
0.0
 40
4.25
 50
317.431545796706
 51
328.034281249203
  0
LINE
  5
   5FA
  8
0
  6
CONTINUOUS
 62
     7
 10
-149.646824904736
 20
55.3042066217351
 30
0.0
 11
-114.64682418948
 21
55.3042066217351
 31
0.0
  0
LINE
  5
   5FB
  8
0
  6
CONTINUOUS
 62
     7
 10
-149.646824904736
 20
56.8042066217351
 30
0.0
 11
1.24997456584018
 21
56.8042066217351
 31
0.0
  0
LINE
  5
   5FC
  8
0
  6
CONTINUOUS
 62
     7
 10
-149.646824904736
 20
58.3042066217351
 30
0.0
 11
1.24997456584018
 21
58.3042066217351
 31
0.0
  0
LINE
  5
   5FD
  8
0
  6
CONTINUOUS
 62
     7
 10
-149.646824904736
 20
59.8042066217351
 30
0.0
 11
1.24997456584018
 21
59.8042066217351
 31
0.0
  0
LINE
  5
   5FE
  8
0
  6
CONTINUOUS
 62
     7
 10
-149.646824904736
 20
61.3042066217351
 30
0.0
 11
1.24997456584018
 21
61.3042066217351
 31
0.0
  0
LINE
  5
   5FF
  8
0
  6
CONTINUOUS
 62
     7
 10
-149.646824904736
 20
62.8042066217351
 30
0.0
 11
1.24997456584018
 21
62.8042066217351
 31
0.0
  0
LINE
  5
   600
  8
0
  6
CONTINUOUS
 62
     7
 10
-149.646824904736
 20
64.3042066217351
 30
0.0
 11
1.24997456584018
 21
64.3042066217351
 31
0.0
  0
LINE
  5
   601
  8
0
  6
CONTINUOUS
 62
     7
 10
-149.646824904736
 20
65.8042066217351
 30
0.0
 11
1.24997456584018
 21
65.8042066217351
 31
0.0
  0
LINE
  5
   602
  8
0
  6
CONTINUOUS
 62
     7
 10
-149.646824904736
 20
67.3042066217351
 30
0.0
 11
1.24997456584018
 21
67.3042066217351
 31
0.0
  0
LINE
  5
   603
  8
0
  6
CONTINUOUS
 62
     7
 10
-149.646824904736
 20
68.8042066217351
 30
0.0
 11
1.24997456584018
 21
68.8042066217351
 31
0.0
  0
LINE
  5
   604
  8
0
  6
CONTINUOUS
 62
     7
 10
-149.646824904736
 20
70.3042066217351
 30
0.0
 11
1.24997456584018
 21
70.3042066217351
 31
0.0
  0
LINE
  5
   605
  8
0
  6
CONTINUOUS
 62
     7
 10
-149.646824904736
 20
71.8042066217351
 30
0.0
 11
1.24997456584018
 21
71.8042066217351
 31
0.0
  0
LINE
  5
   606
  8
0
  6
CONTINUOUS
 62
     7
 10
-12.0000254341598
 20
55.5542363017491
 30
0.0
 11
1.24997456584018
 21
55.5542363017491
 31
0.0
  0
LINE
  5
   607
  8
0
  6
CONTINUOUS
 62
     7
 10
-150.625
 20
52.5542497634888
 30
0.0
 11
-150.25
 21
52.5542497634888
 31
0.0
  0
LINE
  5
   608
  8
0
  6
CONTINUOUS
 62
     7
 10
0.743081138385813
 20
-2.13879412140024
 30
0.0
 11
39.1793727760361
 21
-25.9845387917838
 31
0.0
  0
ENDSEC
  0
EOF
