  0
SECTION
  2
HEADER
  9
$ACADVER
  1
AC1009
  9
$DWGCODEPAGE
  3
iso8859-1
  9
$INSBASE
 10
0.0
 20
0.0
 30
0.0
  9
$EXTMIN
 10
1.0E20
 20
1.0E20
  9
$EXTMAX
 10
-1.0E20
 20
-1.0E20
  9
$LIMMIN
 10
0.0
 20
0.0
  9
$LIMMAX
 10
12.0
 20
9.0
  9
$ORTHOMODE
 70
     0
  9
$REGENMODE
 70
     1
  9
$FILLMODE
 70
     1
  9
$QTEXTMODE
 70
     0
  9
$MIRRTEXT
 70
     1
  9
$DRAGMODE
 70
     2
  9
$LTSCALE
 40
15.0
  9
$OSMODE
 70
     0
  9
$ATTMODE
 70
     1
  9
$TEXTSIZE
 40
0.2
  9
$TRACEWID
 40
0.05
  9
$TEXTSTYLE
  7
STANDARD
  9
$CLAYER
  8
0
  9
$CELTYPE
  6
DASHED
  9
$CECOLOR
 62
   256
  9
$DIMSCALE
 40
1.0
  9
$DIMASZ
 40
0.18
  9
$DIMEXO
 40
0.0625
  9
$DIMDLI
 40
0.38
  9
$DIMRND
 40
0.0
  9
$DIMDLE
 40
0.0
  9
$DIMEXE
 40
0.18
  9
$DIMTP
 40
0.0
  9
$DIMTM
 40
0.0
  9
$DIMTXT
 40
0.18
  9
$DIMCEN
 40
0.09
  9
$DIMTSZ
 40
0.0
  9
$DIMTOL
 70
     0
  9
$DIMLIM
 70
     0
  9
$DIMTIH
 70
     1
  9
$DIMTOH
 70
     1
  9
$DIMSE1
 70
     0
  9
$DIMSE2
 70
     0
  9
$DIMTAD
 70
     0
  9
$DIMZIN
 70
     0
  9
$DIMBLK
  1

  9
$DIMASO
 70
     1
  9
$DIMSHO
 70
     1
  9
$DIMPOST
  1

  9
$DIMAPOST
  1

  9
$DIMALT
 70
     0
  9
$DIMALTD
 70
     2
  9
$DIMALTF
 40
25.4
  9
$DIMLFAC
 40
1.0
  9
$DIMTOFL
 70
     0
  9
$DIMTVP
 40
0.0
  9
$DIMTIX
 70
     0
  9
$DIMSOXD
 70
     0
  9
$DIMSAH
 70
     0
  9
$DIMBLK1
  1

  9
$DIMBLK2
  1

  9
$DIMSTYLE
  2
STANDARD
  9
$DIMCLRD
 70
     0
  9
$DIMCLRE
 70
     0
  9
$DIMCLRT
 70
     0
  9
$DIMTFAC
 40
1.0
  9
$DIMGAP
 40
0.09
  9
$LUNITS
 70
     2
  9
$LUPREC
 70
     4
  9
$AXISMODE
 70
     0
  9
$AXISUNIT
 10
0.0
 20
0.0
  9
$SKETCHINC
 40
0.1
  9
$FILLETRAD
 40
0.0
  9
$AUNITS
 70
     0
  9
$AUPREC
 70
     0
  9
$MENU
  1
acad
  9
$ELEVATION
 40
0.0
  9
$PELEVATION
 40
0.0
  9
$THICKNESS
 40
0.0
  9
$LIMCHECK
 70
     0
  9
$BLIPMODE
 70
     1
  9
$CHAMFERA
 40
0.0
  9
$CHAMFERB
 40
0.0
  9
$SKPOLY
 70
     0
  9
$TDCREATE
 40
0.000000000
  9
$TDUPDATE
 40
0.000000000
  9
$TDINDWG
 40
0.0
  9
$TDUSRTIMER
 40
0.0
  9
$USRTIMER
 70
     1
  9
$ANGBASE
 50
0.0
  9
$ANGDIR
 70
     0
  9
$PDMODE
 70
     0
  9
$PDSIZE
 40
0.0
  9
$PLINEWID
 40
0.0
  9
$COORDS
 70
     1
  9
$SPLFRAME
 70
     0
  9
$SPLINETYPE
 70
     6
  9
$SPLINESEGS
 70
     8
  9
$ATTDIA
 70
     0
  9
$ATTREQ
 70
     1
  9
$HANDLING
 70
     1
  9
$HANDSEED
  5
   836
  9
$SURFTAB1
 70
     6
  9
$SURFTAB2
 70
     6
  9
$SURFTYPE
 70
     6
  9
$SURFU
 70
     6
  9
$SURFV
 70
     6
  9
$UCSNAME
  2

  9
$UCSORG
 10
0.0
 20
0.0
 30
0.0
  9
$UCSXDIR
 10
1.0
 20
0.0
 30
0.0
  9
$UCSYDIR
 10
0.0
 20
1.0
 30
0.0
  9
$PUCSNAME
  2

  9
$PUCSORG
 10
0.0
 20
0.0
 30
0.0
  9
$PUCSXDIR
 10
1.0
 20
0.0
 30
0.0
  9
$PUCSYDIR
 10
0.0
 20
1.0
 30
0.0
  9
$USERI1
 70
     0
  9
$USERI2
 70
     0
  9
$USERI3
 70
     0
  9
$USERI4
 70
     0
  9
$USERI5
 70
     0
  9
$USERR1
 40
0.0
  9
$USERR2
 40
0.0
  9
$USERR3
 40
0.0
  9
$USERR4
 40
0.0
  9
$USERR5
 40
0.0
  9
$WORLDVIEW
 70
     1
  9
$SHADEDGE
 70
     3
  9
$SHADEDIF
 70
    70
  9
$TILEMODE
 70
     1
  9
$MAXACTVP
 70
    16
  9
$PINSBASE
 10
0.0
 20
0.0
 30
0.0
  9
$PLIMCHECK
 70
     0
  9
$PEXTMIN
 10
1.0E20
 20
1.0E20
 30
1.0E20
  9
$PEXTMAX
 10
-1.0E20
 20
-1.0E20
 30
-1.0E20
  9
$PLIMMIN
 10
0.0
 20
0.0
  9
$PLIMMAX
 10
12.0
 20
9.0
  9
$UNITMODE
 70
     0
  9
$VISRETAIN
 70
     0
  0
ENDSEC
  0
SECTION
  2
TABLES
  0
TABLE
  2
VPORT
 70
     1
  0
VPORT
  2
*ACTIVE
 70
     0
 10
0.0
 20
0.0
 11
1.0
 21
1.0
 12
6.801242
 22
4.5
 13
0.0
 23
0.0
 14
1.0
 24
1.0
 15
0.0
 25
0.0
 16
0.0
 26
0.0
 36
1.0
 17
0.0
 27
0.0
 37
0.0
 40
9.0
 41
1.511387
 42
50.0
 43
0.0
 44
0.0
 50
0.0
 51
0.0
 71
     0
 72
   100
 73
     1
 74
     1
 75
     0
 76
     0
 77
     0
 78
     0
  0
ENDTAB
  0
TABLE
  2
LTYPE
 70
    41
  0
LTYPE
  2
BYBLOCK
 70
     0
  3

 72
    65
 73
     0
 40
0.0
  0
LTYPE
  2
BYLAYER
 70
     0
  3

 72
    65
 73
     0
 40
0.0
  0
LTYPE
  2
CONTINUOUS
 70
     0
  3
Solid line
 72
    65
 73
     0
 40
0.0
  0
LTYPE
  2
BORDER
 70
    64
  3
__ __ . __ __ . __ __ . __ __ . __ __ . __ __ .
 72
    65
 73
     6
 40
1.75
 49
0.5
 49
-0.25
 49
0.5
 49
-0.25
 49
0.0
 49
-0.25
  0
LTYPE
  2
BORDER2
 70
    64
  3
__.__.__.__.__.__.__.__.__.__.__.__.__.__.__.__
 72
    65
 73
     6
 40
0.875
 49
0.25
 49
-0.125
 49
0.25
 49
-0.125
 49
0.0
 49
-0.125
  0
LTYPE
  2
BORDERX2
 70
    64
  3
____  ____  .  ____  ____  .  ____  ____  .  __
 72
    65
 73
     6
 40
3.5
 49
1.0
 49
-0.5
 49
1.0
 49
-0.5
 49
0.0
 49
-0.5
  0
LTYPE
  2
CENTER
 70
    64
  3
____ _ ____ _ ____ _ ____ _ ____ _ ____ _ ____
 72
    65
 73
     4
 40
2.0
 49
1.25
 49
-0.25
 49
0.25
 49
-0.25
  0
LTYPE
  2
CENTER2
 70
    64
  3
___ _ ___ _ ___ _ ___ _ ___ _ ___ _ ___ _ ___ _
 72
    65
 73
     4
 40
1.125
 49
0.75
 49
-0.125
 49
0.125
 49
-0.125
  0
LTYPE
  2
CENTERX2
 70
    64
  3
________  __  ________  __  ________  __  _____
 72
    65
 73
     4
 40
4.0
 49
2.5
 49
-0.5
 49
0.5
 49
-0.5
  0
LTYPE
  2
DASHDOT
 70
    64
  3
__ . __ . __ . __ . __ . __ . __ . __ . __ . __
 72
    65
 73
     4
 40
1.0
 49
0.5
 49
-0.25
 49
0.0
 49
-0.25
  0
LTYPE
  2
DASHDOT2
 70
    64
  3
_._._._._._._._._._._._._._._._._._._._._._._._
 72
    65
 73
     4
 40
0.5
 49
0.25
 49
-0.125
 49
0.0
 49
-0.125
  0
LTYPE
  2
DASHDOTX2
 70
    64
  3
____  .  ____  .  ____  .  ____  .  ____  .  __
 72
    65
 73
     4
 40
2.0
 49
1.0
 49
-0.5
 49
0.0
 49
-0.5
  0
LTYPE
  2
DASHED
 70
    64
  3
__ __ __ __ __ __ __ __ __ __ __ __ __ __ __ __
 72
    65
 73
     2
 40
0.75
 49
0.5
 49
-0.25
  0
LTYPE
  2
DASHED2
 70
    64
  3
_ _ _ _ _ _ _ _ _ _ _ _ _ _ _ _ _ _ _ _ _ _ _ _
 72
    65
 73
     2
 40
0.375
 49
0.25
 49
-0.125
  0
LTYPE
  2
DASHEDX2
 70
    64
  3
____  ____  ____  ____  ____  ____  ____  ____
 72
    65
 73
     2
 40
1.5
 49
1.0
 49
-0.5
  0
LTYPE
  2
DIVIDE
 70
    64
  3
____ . . ____ . . ____ . . ____ . . ____ . . __
 72
    65
 73
     6
 40
1.25
 49
0.5
 49
-0.25
 49
0.0
 49
-0.25
 49
0.0
 49
-0.25
  0
LTYPE
  2
DIVIDE2
 70
    64
  3
__..__..__..__..__..__..__..__..__..__..__..__.
 72
    65
 73
     6
 40
0.625
 49
0.25
 49
-0.125
 49
0.0
 49
-0.125
 49
0.0
 49
-0.125
  0
LTYPE
  2
DIVIDEX2
 70
    64
  3
________  .  .  ________  .  .  ________  .  .
 72
    65
 73
     6
 40
2.5
 49
1.0
 49
-0.5
 49
0.0
 49
-0.5
 49
0.0
 49
-0.5
  0
LTYPE
  2
DOT
 70
    64
  3
. . . . . . . . . . . . . . . . . . . . . . . .
 72
    65
 73
     2
 40
0.25
 49
0.0
 49
-0.25
  0
LTYPE
  2
DOT2
 70
    64
  3
...............................................
 72
    65
 73
     2
 40
0.125
 49
0.0
 49
-0.125
  0
LTYPE
  2
DOTX2
 70
    64
  3
.  .  .  .  .  .  .  .  .  .  .  .  .  .  .  .
 72
    65
 73
     2
 40
0.5
 49
0.0
 49
-0.5
  0
LTYPE
  2
HIDDEN
 70
    64
  3
__ __ __ __ __ __ __ __ __ __ __ __ __ __ __ __
 72
    65
 73
     2
 40
0.375
 49
0.25
 49
-0.125
  0
LTYPE
  2
HIDDEN2
 70
    64
  3
_ _ _ _ _ _ _ _ _ _ _ _ _ _ _ _ _ _ _ _ _ _ _ _
 72
    65
 73
     2
 40
0.1875
 49
0.125
 49
-0.0625
  0
LTYPE
  2
HIDDENX2
 70
    64
  3
____ ____ ____ ____ ____ ____ ____ ____ ____ __
 72
    65
 73
     2
 40
0.75
 49
0.5
 49
-0.25
  0
LTYPE
  2
PHANTOM
 70
    64
  3
______  __  __  ______  __  __  ______  __  __
 72
    65
 73
     6
 40
2.5
 49
1.25
 49
-0.25
 49
0.25
 49
-0.25
 49
0.25
 49
-0.25
  0
LTYPE
  2
PHANTOM2
 70
    64
  3
___ _ _ ___ _ _ ___ _ _ ___ _ _ ___ _ _ ___ _ _
 72
    65
 73
     6
 40
1.25
 49
0.625
 49
-0.125
 49
0.125
 49
-0.125
 49
0.125
 49
-0.125
  0
LTYPE
  2
PHANTOMX2
 70
    64
  3
____________    ____    ____    ____________
 72
    65
 73
     6
 40
5.0
 49
2.5
 49
-0.5
 49
0.5
 49
-0.5
 49
0.5
 49
-0.5
  0
LTYPE
  2
ACAD_ISO02W100
 70
    64
  3
__ __ __ __ __ __ __ __ __ __ __ __ __ __ __ __
 72
    65
 73
     2
 40
15.0
 49
12.0
 49
-3.0
  0
LTYPE
  2
ACAD_ISO03W100
 70
    64
  3
__    __    __    __    __    __    __    __
 72
    65
 73
     2
 40
30.0
 49
12.0
 49
-18.0
  0
LTYPE
  2
ACAD_ISO04W100
 70
    64
  3
____ . ____ . ____ . ____ . ____ . ____ . ____
 72
    65
 73
     4
 40
30.5
 49
24.0
 49
-3.0
 49
0.5
 49
-3.0
  0
LTYPE
  2
ACAD_ISO05W100
 70
    64
  3
____ .. ____ .. ____ .. ____ .. ____ .. ____ ..
 72
    65
 73
     6
 40
34.0
 49
24.0
 49
-3.0
 49
0.5
 49
-3.0
 49
0.5
 49
-3.0
  0
LTYPE
  2
ACAD_ISO06W100
 70
    64
  3
____ ... ____ ... ____ ... ____ ... ____ ... __
 72
    65
 73
     8
 40
37.5
 49
24.0
 49
-3.0
 49
0.5
 49
-3.0
 49
0.5
 49
-3.0
 49
0.5
 49
-3.0
  0
LTYPE
  2
ACAD_ISO07W100
 70
    64
  3
. . . . . . . . . . . . . . . . . . . . . . . .
 72
    65
 73
     2
 40
3.5
 49
0.5
 49
-3.0
  0
LTYPE
  2
ACAD_ISO08W100
 70
    64
  3
____ __ ____ __ ____ __ ____ ____ __ __ ____ __
 72
    65
 73
     4
 40
36.0
 49
24.0
 49
-3.0
 49
6.0
 49
-3.0
  0
LTYPE
  2
ACAD_ISO09W100
 70
    64
  3
____ __ __ ____ __ __ ____ __ __ ____ __ __ ___
 72
    65
 73
     6
 40
45.0
 49
24.0
 49
-3.0
 49
6.0
 49
-3.0
 49
6.0
 49
-3.0
  0
LTYPE
  2
ACAD_ISO10W100
 70
    64
  3
__ . __ . __ . __ . __ . __ . __ . __ . __ . __
 72
    65
 73
     4
 40
18.5
 49
12.0
 49
-3.0
 49
0.5
 49
-3.0
  0
LTYPE
  2
ACAD_ISO11W100
 70
    64
  3
__ __ . __ __ . __ __ . __ __ . __ __ . __ __ .
 72
    65
 73
     6
 40
33.5
 49
12.0
 49
-3.0
 49
12.0
 49
-3.0
 49
0.5
 49
-3.0
  0
LTYPE
  2
ACAD_ISO12W100
 70
    64
  3
__ . . __ . . __ . . __ . . __ . . __ . . __ .
 72
    65
 73
     6
 40
22.0
 49
12.0
 49
-3.0
 49
0.5
 49
-3.0
 49
0.5
 49
-3.0
  0
LTYPE
  2
ACAD_ISO13W100
 70
    64
  3
__ __ . . __ __ . . __ __ . . __ __ . . __ __ .
 72
    65
 73
     8
 40
37.0
 49
12.0
 49
-3.0
 49
12.0
 49
-3.0
 49
0.5
 49
-3.0
 49
0.5
 49
-3.0
  0
LTYPE
  2
ACAD_ISO14W100
 70
    64
  3
__ . . . __ . . . __ . . . __ . . . __ . . . __
 72
    65
 73
     8
 40
25.5
 49
12.0
 49
-3.0
 49
0.5
 49
-3.0
 49
0.5
 49
-3.0
 49
0.5
 49
-3.0
  0
LTYPE
  2
ACAD_ISO15W100
 70
    64
  3
__ __ . . . __ __ . . . __ __ . . . __ __ . . .
 72
    65
 73
    10
 40
40.5
 49
12.0
 49
-3.0
 49
12.0
 49
-3.0
 49
0.5
 49
-3.0
 49
0.5
 49
-3.0
 49
0.5
 49
-3.0
  0
ENDTAB
  0
TABLE
  2
STYLE
 70
     4
  0
STYLE
  2
STANDARD
 70
    64
 40
0.0
 41
1.0
 50
0.0
 71
     0
 42
0.2
  3
txt
  4

  0
STYLE
  2
TOLERANCE
 70
    64
 40
0.0
 41
1.0
 50
0.0
 71
     0
 42
0.2
  3
../igesfont/iges1003.shx
  4

  0
STYLE
  2
ROMANS
 70
    64
 40
0.0
 41
1.0
 50
0.0
 71
     0
 42
0.2
  3
romans.shx
  4

  0
STYLE
  2
ROMANC
 70
    64
 40
0.0
 41
1.0
 50
0.0
 71
     0
 42
0.2
  3
romanc.shx
  4

  0
ENDTAB
  0
TABLE
  2
DIMSTYLE
 70
     2
  0
DIMSTYLE
  2
UNNAMED
 70
     0
  3

  4

  5

  6

  7

 40
1.0
 41
0.18
 42
0.0625
 43
0.38
 44
0.18
 45
0.0
 46
0.0
 47
0.0
 48
0.0
140
0.18
141
0.09
142
0.0
143
25.4
144
1.0
145
0.0
146
1.0
147
0.09
 71
     0
 72
     0
 73
     1
 74
     1
 75
     0
 76
     0
 77
     0
 78
     0
170
     0
171
     2
172
     0
173
     0
174
     0
175
     0
176
     0
177
     0
178
     0
  0
DIMSTYLE
  2
STANDARD
 70
     0
  3

  4

  5

  6

  7

 40
1.0
 41
0.18
 42
0.0625
 43
0.38
 44
0.18
 45
0.0
 46
0.0
 47
0.0
 48
0.0
140
0.18
141
0.09
142
0.0
143
25.4
144
1.0
145
0.0
146
1.0
147
0.09
 71
     0
 72
     0
 73
     1
 74
     1
 75
     0
 76
     0
 77
     0
 78
     0
170
     0
171
     2
172
     0
173
     0
174
     0
175
     0
176
     0
177
     0
178
     0
  0
ENDTAB
  0
TABLE
  2
LAYER
 70
     1
  0
LAYER
  2
0
 70
     0
 62
     7
  6
CONTINUOUS
  0
ENDTAB
  0
ENDSEC
  0
SECTION
  2
BLOCKS
  0
BLOCK
  5
     B
  8
0
  6
CONTINUOUS
 62
     2
  2
*HATCH19
 70
    65
 10
0.0
 20
0.0
 30
0.0
  3
*HATCH19
  0
LINE
  5
     C
  8
0
  6
CONTINUOUS
 62
    52
 10
49.0999908447266
 20
55.4639472961426
 30
0.0
 11
46.0999908447266
 21
52.4639472961426
 31
0.0
  0
LINE
  5
     D
  8
0
  6
CONTINUOUS
 62
    52
 10
49.0999908447266
 20
51.2213096618652
 30
0.0
 11
46.0999908447266
 21
48.2213096618652
 31
0.0
  0
LINE
  5
     E
  8
0
  6
CONTINUOUS
 62
    52
 10
49.0999908447266
 20
46.9786720275879
 30
0.0
 11
46.0999908447266
 21
43.9786720275879
 31
0.0
  0
LINE
  5
     F
  8
0
  6
CONTINUOUS
 62
    52
 10
49.0999908447266
 20
42.7360343933105
 30
0.0
 11
46.0999908447266
 21
39.7360343933105
 31
0.0
  0
LINE
  5
    10
  8
0
  6
CONTINUOUS
 62
    52
 10
49.0999908447266
 20
38.4933967590332
 30
0.0
 11
46.0999908447266
 21
35.4933967590332
 31
0.0
  0
LINE
  5
    11
  8
0
  6
CONTINUOUS
 62
    52
 10
46.0278282165527
 20
33.2999038696289
 30
0.0
 11
44.5999908447266
 21
31.8720664978027
 31
0.0
  0
LINE
  5
    12
  8
0
  6
CONTINUOUS
 62
    52
 10
49.0999908447266
 20
32.1294250488281
 30
0.0
 11
48.7704696655273
 21
31.7999038696289
 31
0.0
  0
ENDBLK
  5
    13
  8
0
  6
CONTINUOUS
 62
     2
  0
BLOCK
  5
    14
  8
0
  6
CONTINUOUS
 62
     2
  2
*HATCH20
 70
    65
 10
0.0
 20
0.0
 30
0.0
  3
*HATCH20
  0
LINE
  5
    15
  8
0
  6
CONTINUOUS
 62
    52
 10
48.4395141601563
 20
-15.2000961303711
 30
0.0
 11
46.0999908447266
 21
-17.5396213531494
 31
0.0
  0
LINE
  5
    16
  8
0
  6
CONTINUOUS
 62
    52
 10
49.0999908447266
 20
-18.7822608947754
 30
0.0
 11
46.0999908447266
 21
-21.7822608947754
 31
0.0
  0
LINE
  5
    17
  8
0
  6
CONTINUOUS
 62
    52
 10
49.0999908447266
 20
-23.02490234375
 30
0.0
 11
46.0999908447266
 21
-26.02490234375
 31
0.0
  0
LINE
  5
    18
  8
0
  6
CONTINUOUS
 62
    52
 10
49.0999908447266
 20
-27.2675437927246
 30
0.0
 11
46.0999908447266
 21
-30.2675437927246
 31
0.0
  0
LINE
  5
    19
  8
0
  6
CONTINUOUS
 62
    52
 10
49.0999908447266
 20
-31.5101852416992
 30
0.0
 11
46.0999908447266
 21
-34.510181427002
 31
0.0
  0
LINE
  5
    1A
  8
0
  6
CONTINUOUS
 62
    52
 10
49.0999908447266
 20
-35.7528228759766
 30
0.0
 11
46.0999908447266
 21
-38.7528190612793
 31
0.0
  0
ENDBLK
  5
    1B
  8
0
  6
CONTINUOUS
 62
     2
  0
BLOCK
  5
    1C
  8
0
  6
CONTINUOUS
 62
     2
  2
*HATCH21
 70
    65
 10
0.0
 20
0.0
 30
0.0
  3
*HATCH21
  0
LINE
  5
    1D
  8
0
  6
CONTINUOUS
 62
     7
 10
-26.8729400634766
 20
154.287780761719
 30
0.0
 11
-29.1637897491455
 21
151.996932983398
 31
0.0
  0
LINE
  5
    1E
  8
0
  6
CONTINUOUS
 62
     7
 10
-26.0244102478027
 20
154.287780761719
 30
0.0
 11
-29.2315006256104
 21
151.080688476563
 31
0.0
  0
LINE
  5
    1F
  8
0
  6
CONTINUOUS
 62
     7
 10
-25.278377532959
 20
154.185287475586
 30
0.0
 11
-29.0234107971191
 21
150.44026184082
 31
0.0
  0
LINE
  5
    20
  8
0
  6
CONTINUOUS
 62
     7
 10
-24.7869148254395
 20
153.828231811523
 30
0.0
 11
-28.8153190612793
 21
149.799819946289
 31
0.0
  0
LINE
  5
    21
  8
0
  6
CONTINUOUS
 62
     7
 10
-24.2954559326172
 20
153.471160888672
 30
0.0
 11
-28.3807411193848
 21
149.385879516602
 31
0.0
  0
LINE
  5
    22
  8
0
  6
CONTINUOUS
 62
     7
 10
-23.8705635070801
 20
153.047515869141
 30
0.0
 11
-27.8892822265625
 21
149.02880859375
 31
0.0
  0
LINE
  5
    23
  8
0
  6
CONTINUOUS
 62
     7
 10
-23.6624717712402
 20
152.407073974609
 30
0.0
 11
-27.397819519043
 21
148.671752929688
 31
0.0
  0
LINE
  5
    24
  8
0
  6
CONTINUOUS
 62
     7
 10
-23.4543800354004
 20
151.766647338867
 30
0.0
 11
-26.6395816802979
 21
148.581451416016
 31
0.0
  0
LINE
  5
    25
  8
0
  6
CONTINUOUS
 62
     7
 10
-23.5431652069092
 20
150.829330444336
 30
0.0
 11
-25.7910537719727
 21
148.581451416016
 31
0.0
  0
ENDBLK
  5
    26
  8
0
  6
CONTINUOUS
 62
     2
  0
BLOCK
  5
    27
  8
0
  6
CONTINUOUS
 62
     2
  2
*HATCH22
 70
    65
 10
0.0
 20
0.0
 30
0.0
  3
*HATCH22
  0
LINE
  5
    28
  8
0
  6
CONTINUOUS
 62
     7
 10
53.899227142334
 20
151.904205322266
 30
0.0
 11
52.0078086853027
 21
150.012786865234
 31
0.0
  0
LINE
  5
    29
  8
0
  6
CONTINUOUS
 62
     7
 10
54.7477531433105
 20
151.904205322266
 30
0.0
 11
51.7441825866699
 21
148.900634765625
 31
0.0
  0
LINE
  5
    2A
  8
0
  6
CONTINUOUS
 62
     7
 10
55.5962791442871
 20
151.904205322266
 30
0.0
 11
51.9522743225098
 21
148.260192871094
 31
0.0
  0
LINE
  5
    2B
  8
0
  6
CONTINUOUS
 62
     7
 10
56.0987205505371
 20
151.558120727539
 30
0.0
 11
52.1603660583496
 21
147.619750976563
 31
0.0
  0
LINE
  5
    2C
  8
0
  6
CONTINUOUS
 62
     7
 10
56.5901794433594
 20
151.201049804688
 30
0.0
 11
52.5048942565918
 21
147.115753173828
 31
0.0
  0
LINE
  5
    2D
  8
0
  6
CONTINUOUS
 62
     7
 10
57.0816421508789
 20
150.843994140625
 30
0.0
 11
52.9963569641113
 21
146.758697509766
 31
0.0
  0
LINE
  5
    2E
  8
0
  6
CONTINUOUS
 62
     7
 10
57.3132133483887
 20
150.227020263672
 30
0.0
 11
53.4878158569336
 21
146.401626586914
 31
0.0
  0
LINE
  5
    2F
  8
0
  6
CONTINUOUS
 62
     7
 10
57.5213050842285
 20
149.586578369141
 30
0.0
 11
54.1325836181641
 21
146.197860717773
 31
0.0
  0
LINE
  5
    30
  8
0
  6
CONTINUOUS
 62
     7
 10
57.6284332275391
 20
148.845184326172
 30
0.0
 11
54.9811096191406
 21
146.197860717773
 31
0.0
  0
LINE
  5
    31
  8
0
  6
CONTINUOUS
 62
     7
 10
57.2200317382813
 20
147.588256835938
 30
0.0
 11
56.3803291320801
 21
146.748550415039
 31
0.0
  0
ENDBLK
  5
    32
  8
0
  6
CONTINUOUS
 62
     2
  0
BLOCK
  5
    33
  8
0
  6
CONTINUOUS
 62
     3
  2
*UDIM129
 70
    65
 10
0.0
 20
0.0
 30
0.0
  3
*UDIM129
  0
TEXT
  5
    34
  8
0
  6
CONTINUOUS
 62
     3
 10
186.061632804529
 20
-14.83897432188
 30
0.0
 40
3.00000002980232
  1
50
 50
90.0
 41
0.933333333333333
 72
     1
 11
184.561632789624
 21
-12.3389742970467
 31
0.0
 73
     2
  0
LINE
  5
    35
  8
0
  6
CONTINUOUS
 62
     3
 10
169.755386471748
 20
-24.5639820098877
 30
0.0
 11
189.061632804526
 21
-24.5639820098877
 31
0.0
  0
LINE
  5
    36
  8
0
  6
CONTINUOUS
 62
     3
 10
187.061632804526
 20
-24.5639820098877
 30
0.0
 11
187.061632804526
 21
0.436033248901392
 31
0.0
  0
LINE
  5
    37
  8
0
  6
CONTINUOUS
 62
     3
 10
186.540688374574
 20
-21.6095587326807
 30
0.0
 11
187.061632804526
 21
-24.5639820098877
 31
0.0
  0
LINE
  5
    38
  8
0
  6
CONTINUOUS
 62
     3
 10
187.061632804526
 20
-24.5639820098877
 30
0.0
 11
187.582577234477
 21
-21.6095587326807
 31
0.0
  0
LINE
  5
    39
  8
0
  6
CONTINUOUS
 62
     3
 10
187.582577234477
 20
-2.51839002830557
 30
0.0
 11
187.061632804526
 21
0.436033248901392
 31
0.0
  0
LINE
  5
    3A
  8
0
  6
CONTINUOUS
 62
     3
 10
187.061632804526
 20
0.436033248901392
 30
0.0
 11
186.540688374574
 21
-2.51839002830557
 31
0.0
  0
ENDBLK
  5
    3B
  8
0
  6
CONTINUOUS
 62
     3
  0
BLOCK
  5
    3C
  8
0
  6
CONTINUOUS
 62
     3
  2
*UDIM130
 70
    65
 10
0.0
 20
0.0
 30
0.0
  3
*UDIM130
  0
TEXT
  5
    3D
  8
0
  6
CONTINUOUS
 62
     3
 10
197.489952358481
 20
2.26102232635209
 30
0.0
 40
3.00000002980232
  1
124
 50
90.0
 41
0.933333333333333
 72
     1
 11
195.989952343575
 21
6.16102236509322
 31
0.0
 73
     2
  0
LINE
  5
    3E
  8
0
  6
CONTINUOUS
 62
     3
 10
169.755386471748
 20
-24.5639820098877
 30
0.0
 11
200.489952358476
 21
-24.5639820098877
 31
0.0
  0
LINE
  5
    3F
  8
0
  6
CONTINUOUS
 62
     3
 10
169.755386471748
 20
37.4360256195068
 30
0.0
 11
200.489952358476
 21
37.4360256195068
 31
0.0
  0
LINE
  5
    40
  8
0
  6
CONTINUOUS
 62
     3
 10
198.489952358476
 20
-24.5639820098877
 30
0.0
 11
198.489952358476
 21
37.4360256195068
 31
0.0
  0
LINE
  5
    41
  8
0
  6
CONTINUOUS
 62
     3
 10
197.969007928525
 20
-21.6095587326807
 30
0.0
 11
198.489952358476
 21
-24.5639820098877
 31
0.0
  0
LINE
  5
    42
  8
0
  6
CONTINUOUS
 62
     3
 10
198.489952358476
 20
-24.5639820098877
 30
0.0
 11
199.010896788428
 21
-21.6095587326807
 31
0.0
  0
LINE
  5
    43
  8
0
  6
CONTINUOUS
 62
     3
 10
199.010896788428
 20
34.4816023422999
 30
0.0
 11
198.489952358476
 21
37.4360256195068
 31
0.0
  0
LINE
  5
    44
  8
0
  6
CONTINUOUS
 62
     3
 10
198.489952358476
 20
37.4360256195068
 30
0.0
 11
197.969007928525
 21
34.4816023422999
 31
0.0
  0
ENDBLK
  5
    45
  8
0
  6
CONTINUOUS
 62
     3
  0
BLOCK
  5
    46
  8
0
  6
CONTINUOUS
 62
     3
  2
*UDIM131
 70
    65
 10
0.0
 20
0.0
 30
0.0
  3
*UDIM131
  0
TEXT
  5
    47
  8
0
  6
CONTINUOUS
 62
     3
 10
53.1713177024546
 20
2.26101469695756
 30
0.0
 40
3.00000002980232
  1
102
 50
90.0
 41
0.933333333333333
 72
     1
 11
51.6713176875486
 21
6.16101473569869
 31
0.0
 73
     2
  0
LINE
  5
    48
  8
0
  6
CONTINUOUS
 62
     3
 10
86.3571178641163
 20
-19.063985824585
 30
0.0
 11
52.1713177024497
 21
-19.063985824585
 31
0.0
  0
LINE
  5
    49
  8
0
  6
CONTINUOUS
 62
     3
 10
86.3571178641163
 20
31.936014175415
 30
0.0
 11
52.1713177024497
 21
31.936014175415
 31
0.0
  0
LINE
  5
    4A
  8
0
  6
CONTINUOUS
 62
     3
 10
54.1713177024497
 20
-19.063985824585
 30
0.0
 11
54.1713177024497
 21
31.936014175415
 31
0.0
  0
LINE
  5
    4B
  8
0
  6
CONTINUOUS
 62
     3
 10
53.6503732724981
 20
-16.109562547378
 30
0.0
 11
54.1713177024497
 21
-19.063985824585
 31
0.0
  0
LINE
  5
    4C
  8
0
  6
CONTINUOUS
 62
     3
 10
54.1713177024497
 20
-19.063985824585
 30
0.0
 11
54.6922621324014
 21
-16.109562547378
 31
0.0
  0
LINE
  5
    4D
  8
0
  6
CONTINUOUS
 62
     3
 10
54.6922621324014
 20
28.9815908982081
 30
0.0
 11
54.1713177024497
 21
31.936014175415
 31
0.0
  0
LINE
  5
    4E
  8
0
  6
CONTINUOUS
 62
     3
 10
54.1713177024497
 20
31.936014175415
 30
0.0
 11
53.6503732724981
 21
28.9815908982081
 31
0.0
  0
ENDBLK
  5
    4F
  8
0
  6
CONTINUOUS
 62
     3
  0
BLOCK
  5
    50
  8
0
  6
CONTINUOUS
 62
     3
  2
*UDIM132
 70
    65
 10
0.0
 20
0.0
 30
0.0
  3
*UDIM132
  0
TEXT
  5
    51
  8
0
  6
CONTINUOUS
 62
     3
 10
87.480400716265
 20
70.4834384918213
 30
0.0
 40
3.00000002980232
  1
76
 41
0.933333333333333
 72
     1
 11
89.9804007411002
 21
71.9834385067225
 31
0.0
 73
     2
  0
LINE
  5
    52
  8
0
  6
CONTINUOUS
 62
     3
 10
71.255401134491
 20
33.436014175415
 30
0.0
 11
71.255401134491
 21
71.4834384918213
 31
0.0
  0
LINE
  5
    53
  8
0
  6
CONTINUOUS
 62
     3
 10
109.255401134491
 20
49.6807605172001
 30
0.0
 11
109.255401134491
 21
71.4834384918213
 31
0.0
  0
LINE
  5
    54
  8
0
  6
CONTINUOUS
 62
     3
 10
71.255401134491
 20
69.4834384918213
 30
0.0
 11
109.255401134491
 21
69.4834384918213
 31
0.0
  0
LINE
  5
    55
  8
0
  6
CONTINUOUS
 62
     3
 10
74.2098244116979
 20
70.004382921773
 30
0.0
 11
71.255401134491
 21
69.4834384918213
 31
0.0
  0
LINE
  5
    56
  8
0
  6
CONTINUOUS
 62
     3
 10
71.255401134491
 20
69.4834384918213
 30
0.0
 11
74.2098244116979
 21
68.9624940618696
 31
0.0
  0
LINE
  5
    57
  8
0
  6
CONTINUOUS
 62
     3
 10
106.300977857284
 20
68.9624940618696
 30
0.0
 11
109.255401134491
 21
69.4834384918213
 31
0.0
  0
LINE
  5
    58
  8
0
  6
CONTINUOUS
 62
     3
 10
109.255401134491
 20
69.4834384918213
 30
0.0
 11
106.300977857284
 21
70.004382921773
 31
0.0
  0
ENDBLK
  5
    59
  8
0
  6
CONTINUOUS
 62
     3
  0
BLOCK
  5
    5A
  8
0
  6
CONTINUOUS
 62
     3
  2
*UDIM133
 70
    65
 10
0.0
 20
0.0
 30
0.0
  3
*UDIM133
  0
TEXT
  5
    5B
  8
0
  6
CONTINUOUS
 62
     3
 10
96.480400716265
 20
61.4962024688721
 30
0.0
 40
3.00000002980232
  1
40
 41
0.933333333333333
 72
     1
 11
98.9804007411002
 21
62.9962024837732
 31
0.0
 73
     2
  0
LINE
  5
    5C
  8
0
  6
CONTINUOUS
 62
     3
 10
89.255401134491
 20
33.485998916626
 30
0.0
 11
89.255401134491
 21
62.4962024688721
 31
0.0
  0
LINE
  5
    5D
  8
0
  6
CONTINUOUS
 62
     3
 10
109.255401134491
 20
49.6807605172001
 30
0.0
 11
109.255401134491
 21
62.4962024688721
 31
0.0
  0
LINE
  5
    5E
  8
0
  6
CONTINUOUS
 62
     3
 10
89.255401134491
 20
60.4962024688721
 30
0.0
 11
109.255401134491
 21
60.4962024688721
 31
0.0
  0
LINE
  5
    5F
  8
0
  6
CONTINUOUS
 62
     3
 10
92.2098244116979
 20
61.0171468988237
 30
0.0
 11
89.255401134491
 21
60.4962024688721
 31
0.0
  0
LINE
  5
    60
  8
0
  6
CONTINUOUS
 62
     3
 10
89.255401134491
 20
60.4962024688721
 30
0.0
 11
92.2098244116979
 21
59.9752580389204
 31
0.0
  0
LINE
  5
    61
  8
0
  6
CONTINUOUS
 62
     3
 10
106.300977857284
 20
59.9752580389204
 30
0.0
 11
109.255401134491
 21
60.4962024688721
 31
0.0
  0
LINE
  5
    62
  8
0
  6
CONTINUOUS
 62
     3
 10
109.255401134491
 20
60.4962024688721
 30
0.0
 11
106.300977857284
 21
61.0171468988237
 31
0.0
  0
ENDBLK
  5
    63
  8
0
  6
CONTINUOUS
 62
     3
  0
BLOCK
  5
    64
  8
0
  6
CONTINUOUS
 62
     3
  2
*UDIM134
 70
    65
 10
0.0
 20
0.0
 30
0.0
  3
*UDIM134
  0
TEXT
  5
    65
  8
0
  6
CONTINUOUS
 62
     3
 10
117.597721790274
 20
61.4962024688721
 30
0.0
 40
3.00000002980232
  1
10
 41
0.933333333333333
 72
     1
 11
120.097721815109
 21
62.9962024837732
 31
0.0
 73
     2
  0
LINE
  5
    66
  8
0
  6
CONTINUOUS
 62
     3
 10
109.255401134491
 20
49.6807605172001
 30
0.0
 11
109.255401134491
 21
62.4962024688721
 31
0.0
  0
LINE
  5
    67
  8
0
  6
CONTINUOUS
 62
     3
 10
114.255393981934
 20
47.4360218048096
 30
0.0
 11
114.255393981934
 21
62.4962024688721
 31
0.0
  0
LINE
  5
    68
  8
0
  6
CONTINUOUS
 62
     3
 10
109.255401134491
 20
60.4962024688721
 30
0.0
 11
122.597721839944
 21
60.4962024688721
 31
0.0
  0
LINE
  5
    69
  8
0
  6
CONTINUOUS
 62
     3
 10
106.300977857284
 20
59.9752580389204
 30
0.0
 11
109.255401134491
 21
60.4962024688721
 31
0.0
  0
LINE
  5
    6A
  8
0
  6
CONTINUOUS
 62
     3
 10
109.255401134491
 20
60.4962024688721
 30
0.0
 11
106.300977857284
 21
61.0171468988237
 31
0.0
  0
LINE
  5
    6B
  8
0
  6
CONTINUOUS
 62
     3
 10
117.209817259141
 20
61.0171468988237
 30
0.0
 11
114.255393981934
 21
60.4962024688721
 31
0.0
  0
LINE
  5
    6C
  8
0
  6
CONTINUOUS
 62
     3
 10
114.255393981934
 20
60.4962024688721
 30
0.0
 11
117.209817259141
 21
59.9752580389204
 31
0.0
  0
ENDBLK
  5
    6D
  8
0
  6
CONTINUOUS
 62
     3
  0
BLOCK
  5
    6E
  8
0
  6
CONTINUOUS
 62
     3
  2
*UDIM135
 70
    65
 10
0.0
 20
0.0
 30
0.0
  3
*UDIM135
  0
TEXT
  5
    6F
  8
0
  6
CONTINUOUS
 62
     3
 10
121.480393086871
 20
-42.7106266021728
 30
0.0
 40
3.00000002980232
  1
40
 41
0.933333333333333
 72
     1
 11
123.980393111706
 21
-41.2106265872717
 31
0.0
 73
     2
  0
LINE
  5
    70
  8
0
  6
CONTINUOUS
 62
     3
 10
114.255393981934
 20
-26.9109297903315
 30
0.0
 11
114.255393981934
 21
-45.7106266021729
 31
0.0
  0
LINE
  5
    71
  8
0
  6
CONTINUOUS
 62
     3
 10
134.255393981934
 20
-33.4271512804013
 30
0.0
 11
134.255393981934
 21
-45.7106266021729
 31
0.0
  0
LINE
  5
    72
  8
0
  6
CONTINUOUS
 62
     3
 10
114.255393981934
 20
-43.7106266021729
 30
0.0
 11
134.255393981934
 21
-43.7106266021729
 31
0.0
  0
LINE
  5
    73
  8
0
  6
CONTINUOUS
 62
     3
 10
117.209817259141
 20
-43.1896821722212
 30
0.0
 11
114.255393981934
 21
-43.7106266021729
 31
0.0
  0
LINE
  5
    74
  8
0
  6
CONTINUOUS
 62
     3
 10
114.255393981934
 20
-43.7106266021729
 30
0.0
 11
117.209817259141
 21
-44.2315710321245
 31
0.0
  0
LINE
  5
    75
  8
0
  6
CONTINUOUS
 62
     3
 10
131.300970704727
 20
-44.2315710321245
 30
0.0
 11
134.255393981934
 21
-43.7106266021729
 31
0.0
  0
LINE
  5
    76
  8
0
  6
CONTINUOUS
 62
     3
 10
134.255393981934
 20
-43.7106266021729
 30
0.0
 11
131.300970704727
 21
-43.1896821722212
 31
0.0
  0
ENDBLK
  5
    77
  8
0
  6
CONTINUOUS
 62
     3
  0
BLOCK
  5
    78
  8
0
  6
CONTINUOUS
 62
     3
  2
*UDIM136
 70
    65
 10
0.0
 20
0.0
 30
0.0
  3
*UDIM136
  0
TEXT
  5
    79
  8
0
  6
CONTINUOUS
 62
     3
 10
119.480396923423
 20
-50.6539897918701
 30
0.0
 40
3.00000002980232
  1
52
 41
0.933333333333333
 72
     1
 11
121.980396948258
 21
-49.153989776969
 31
0.0
 73
     2
  0
LINE
  5
    7A
  8
0
  6
CONTINUOUS
 62
     3
 10
109.255401134491
 20
-36.808716907581
 30
0.0
 11
109.255401134491
 21
-53.6539897918701
 31
0.0
  0
LINE
  5
    7B
  8
0
  6
CONTINUOUS
 62
     3
 10
135.255393250783
 20
-25.0639820098877
 30
0.0
 11
135.255393250783
 21
-53.6539897918701
 31
0.0
  0
LINE
  5
    7C
  8
0
  6
CONTINUOUS
 62
     3
 10
109.255401134491
 20
-51.6539897918701
 30
0.0
 11
135.255393250783
 21
-51.6539897918701
 31
0.0
  0
LINE
  5
    7D
  8
0
  6
CONTINUOUS
 62
     3
 10
112.209824411698
 20
-51.1330453619185
 30
0.0
 11
109.255401134491
 21
-51.6539897918701
 31
0.0
  0
LINE
  5
    7E
  8
0
  6
CONTINUOUS
 62
     3
 10
109.255401134491
 20
-51.6539897918701
 30
0.0
 11
112.209824411698
 21
-52.1749342218218
 31
0.0
  0
LINE
  5
    7F
  8
0
  6
CONTINUOUS
 62
     3
 10
132.300969973576
 20
-52.1749342218218
 30
0.0
 11
135.255393250783
 21
-51.6539897918701
 31
0.0
  0
LINE
  5
    80
  8
0
  6
CONTINUOUS
 62
     3
 10
135.255393250783
 20
-51.6539897918701
 30
0.0
 11
132.300969973576
 21
-51.1330453619185
 31
0.0
  0
ENDBLK
  5
    81
  8
0
  6
CONTINUOUS
 62
     3
  0
BLOCK
  5
    82
  8
0
  6
CONTINUOUS
 62
     3
  2
*UDIM137
 70
    65
 10
0.0
 20
0.0
 30
0.0
  3
*UDIM137
  0
TEXT
  5
    83
  8
0
  6
CONTINUOUS
 62
     3
 10
151.230389294028
 20
-50.6539897918701
 30
0.0
 40
3.00000002980232
  1
75
 41
0.933333333333333
 72
     1
 11
153.730389318864
 21
-49.153989776969
 31
0.0
 73
     2
  0
LINE
  5
    84
  8
0
  6
CONTINUOUS
 62
     3
 10
135.255393250783
 20
-25.0639820098877
 30
0.0
 11
135.255393250783
 21
-53.6539897918701
 31
0.0
  0
LINE
  5
    85
  8
0
  6
CONTINUOUS
 62
     3
 10
172.755386471748
 20
-10.8139667510986
 30
0.0
 11
172.755386471748
 21
-53.6539897918701
 31
0.0
  0
LINE
  5
    86
  8
0
  6
CONTINUOUS
 62
     3
 10
135.255393250783
 20
-51.6539897918701
 30
0.0
 11
172.755386471748
 21
-51.6539897918701
 31
0.0
  0
LINE
  5
    87
  8
0
  6
CONTINUOUS
 62
     3
 10
138.20981652799
 20
-51.1330453619185
 30
0.0
 11
135.255393250783
 21
-51.6539897918701
 31
0.0
  0
LINE
  5
    88
  8
0
  6
CONTINUOUS
 62
     3
 10
135.255393250783
 20
-51.6539897918701
 30
0.0
 11
138.20981652799
 21
-52.1749342218218
 31
0.0
  0
LINE
  5
    89
  8
0
  6
CONTINUOUS
 62
     3
 10
169.800963194541
 20
-52.1749342218218
 30
0.0
 11
172.755386471748
 21
-51.6539897918701
 31
0.0
  0
LINE
  5
    8A
  8
0
  6
CONTINUOUS
 62
     3
 10
172.755386471748
 20
-51.6539897918701
 30
0.0
 11
169.800963194541
 21
-51.1330453619185
 31
0.0
  0
ENDBLK
  5
    8B
  8
0
  6
CONTINUOUS
 62
     3
  0
BLOCK
  5
    8C
  8
0
  6
CONTINUOUS
 62
     3
  2
*UDIM138
 70
    65
 10
0.0
 20
0.0
 30
0.0
  3
*UDIM138
  0
TEXT
  5
    8D
  8
0
  6
CONTINUOUS
 62
     3
 10
155.730392147104
 20
-59.0432262420654
 30
0.0
 40
3.00000002980232
  1
93
 41
0.933333333333333
 72
     1
 11
158.230392171939
 21
-57.5432262271643
 31
0.0
 73
     2
  0
LINE
  5
    8E
  8
0
  6
CONTINUOUS
 62
     3
 10
135.255393250783
 20
-25.0639820098877
 30
0.0
 11
135.255393250783
 21
-62.0432262420654
 31
0.0
  0
LINE
  5
    8F
  8
0
  6
CONTINUOUS
 62
     3
 10
181.755393250783
 20
-7.92911592810744
 30
0.0
 11
181.755393250783
 21
-62.0432262420654
 31
0.0
  0
LINE
  5
    90
  8
0
  6
CONTINUOUS
 62
     3
 10
135.255393250783
 20
-60.0432262420654
 30
0.0
 11
181.755393250783
 21
-60.0432262420654
 31
0.0
  0
LINE
  5
    91
  8
0
  6
CONTINUOUS
 62
     3
 10
138.20981652799
 20
-59.5222818121138
 30
0.0
 11
135.255393250783
 21
-60.0432262420654
 31
0.0
  0
LINE
  5
    92
  8
0
  6
CONTINUOUS
 62
     3
 10
135.255393250783
 20
-60.0432262420654
 30
0.0
 11
138.20981652799
 21
-60.5641706720171
 31
0.0
  0
LINE
  5
    93
  8
0
  6
CONTINUOUS
 62
     3
 10
178.800969973576
 20
-60.5641706720171
 30
0.0
 11
181.755393250783
 21
-60.0432262420654
 31
0.0
  0
LINE
  5
    94
  8
0
  6
CONTINUOUS
 62
     3
 10
181.755393250783
 20
-60.0432262420654
 30
0.0
 11
178.800969973576
 21
-59.5222818121138
 31
0.0
  0
ENDBLK
  5
    95
  8
0
  6
CONTINUOUS
 62
     3
  0
BLOCK
  5
    96
  8
0
  6
CONTINUOUS
 62
     3
  2
*UDIM139
 70
    65
 10
0.0
 20
0.0
 30
0.0
  3
*UDIM139
  0
TEXT
  5
    97
  8
0
  6
CONTINUOUS
 62
     3
 10
65.4191284179719
 20
-12.0889762292287
 30
0.0
 40
3.00000002980232
  1
39
 50
90.0
 41
0.933333333333333
 72
     1
 11
63.9191284030676
 21
-9.58897620439529
 31
0.0
 73
     2
  0
LINE
  5
    98
  8
0
  6
CONTINUOUS
 62
     3
 10
86.3571178641163
 20
-19.063985824585
 30
0.0
 11
64.4191284179688
 21
-19.063985824585
 31
0.0
  0
LINE
  5
    99
  8
0
  6
CONTINUOUS
 62
     3
 10
100.172415346459
 20
0.436033248901392
 30
0.0
 11
64.4191284179688
 21
0.436033248901392
 31
0.0
  0
LINE
  5
    9A
  8
0
  6
CONTINUOUS
 62
     3
 10
66.4191284179688
 20
-19.063985824585
 30
0.0
 11
66.4191284179688
 21
0.436033248901392
 31
0.0
  0
LINE
  5
    9B
  8
0
  6
CONTINUOUS
 62
     3
 10
65.8981839880171
 20
-16.109562547378
 30
0.0
 11
66.4191284179688
 21
-19.063985824585
 31
0.0
  0
LINE
  5
    9C
  8
0
  6
CONTINUOUS
 62
     3
 10
66.4191284179688
 20
-19.063985824585
 30
0.0
 11
66.9400728479204
 21
-16.109562547378
 31
0.0
  0
LINE
  5
    9D
  8
0
  6
CONTINUOUS
 62
     3
 10
66.9400728479204
 20
-2.51839002830557
 30
0.0
 11
66.4191284179688
 21
0.436033248901392
 31
0.0
  0
LINE
  5
    9E
  8
0
  6
CONTINUOUS
 62
     3
 10
66.4191284179688
 20
0.436033248901392
 30
0.0
 11
65.8981839880171
 21
-2.51839002830557
 31
0.0
  0
ENDBLK
  5
    9F
  8
0
  6
CONTINUOUS
 62
     3
  0
BLOCK
  5
    A0
  8
0
  6
CONTINUOUS
 62
     3
  2
*UDIM140
 70
    65
 10
0.0
 20
0.0
 30
0.0
  3
*UDIM140
  0
TEXT
  5
    A1
  8
0
  6
CONTINUOUS
 62
     3
 10
97.5581613153218
 20
54.3130359649658
 30
0.0
 40
3.00000002980232
  1
2.5
 41
0.933333333333333
 72
     1
 11
101.458161354065
 21
55.813035979867
 31
0.0
 73
     2
  0
TEXT
  5
    A2
  8
0
  6
CONTINUOUS
 62
     3
 10
94.3581612934668
 20
54.3130359649658
 30
0.0
 40
3.00000002980232
  1
_
 41
0.933333333333334
 72
     1
 11
95.4581613043943
 21
55.813035979867
 31
0.0
 73
     2
  0
LINE
  5
    A3
  8
0
  6
CONTINUOUS
 62
     3
 10
108.255401134491
 20
50.922215924656
 30
0.0
 11
108.255401134491
 21
55.3130359649658
 31
0.0
  0
LINE
  5
    A4
  8
0
  6
CONTINUOUS
 62
     3
 10
109.255401134491
 20
50.6807605172001
 30
0.0
 11
109.255401134491
 21
55.3130359649658
 31
0.0
  0
LINE
  5
    A5
  8
0
  6
CONTINUOUS
 62
     3
 10
94.3581612934667
 20
53.3130359649658
 30
0.0
 11
114.255401134491
 21
53.3130359649658
 31
0.0
  0
LINE
  5
    A6
  8
0
  6
CONTINUOUS
 62
     3
 10
105.35762366128
 20
52.5365788085473
 30
0.0
 11
108.255401134491
 21
53.3130359649658
 31
0.0
  0
LINE
  5
    A7
  8
0
  6
CONTINUOUS
 62
     3
 10
108.255401134491
 20
53.3130359649658
 30
0.0
 11
105.35762366128
 21
54.0894931213844
 31
0.0
  0
LINE
  5
    A8
  8
0
  6
CONTINUOUS
 62
     3
 10
112.153178607701
 20
54.0894931213844
 30
0.0
 11
109.255401134491
 21
53.3130359649658
 31
0.0
  0
LINE
  5
    A9
  8
0
  6
CONTINUOUS
 62
     3
 10
109.255401134491
 20
53.3130359649658
 30
0.0
 11
112.153178607701
 21
52.5365788085473
 31
0.0
  0
ENDBLK
  5
    AA
  8
0
  6
CONTINUOUS
 62
     3
  0
BLOCK
  5
    AB
  8
0
  6
CONTINUOUS
 62
     3
  2
*UDIM141
 70
    65
 10
0.0
 20
0.0
 30
0.0
  3
*UDIM141
  0
TEXT
  5
    AC
  8
0
  6
CONTINUOUS
 62
     3
 10
135.980389890075
 20
70.4834384918213
 30
0.0
 40
3.00000002980232
  1
123
 41
0.933333333333333
 72
     1
 11
139.880389928818
 21
71.9834385067225
 31
0.0
 73
     2
  0
LINE
  5
    AD
  8
0
  6
CONTINUOUS
 62
     3
 10
109.255401134491
 20
50.6807605172001
 30
0.0
 11
109.255401134491
 21
71.4834384918213
 31
0.0
  0
LINE
  5
    AE
  8
0
  6
CONTINUOUS
 62
     3
 10
170.505378723145
 20
51.4166017498791
 30
0.0
 11
170.505378723145
 21
71.4834384918213
 31
0.0
  0
LINE
  5
    AF
  8
0
  6
CONTINUOUS
 62
     3
 10
109.255401134491
 20
69.4834384918213
 30
0.0
 11
170.505378723145
 21
69.4834384918213
 31
0.0
  0
LINE
  5
    B0
  8
0
  6
CONTINUOUS
 62
     3
 10
112.153178607701
 20
70.2598956482398
 30
0.0
 11
109.255401134491
 21
69.4834384918213
 31
0.0
  0
LINE
  5
    B1
  8
0
  6
CONTINUOUS
 62
     3
 10
109.255401134491
 20
69.4834384918213
 30
0.0
 11
112.153178607701
 21
68.7069813354027
 31
0.0
  0
LINE
  5
    B2
  8
0
  6
CONTINUOUS
 62
     3
 10
167.607601249934
 20
68.7069813354027
 30
0.0
 11
170.505378723145
 21
69.4834384918213
 31
0.0
  0
LINE
  5
    B3
  8
0
  6
CONTINUOUS
 62
     3
 10
170.505378723145
 20
69.4834384918213
 30
0.0
 11
167.607601249934
 21
70.2598956482398
 31
0.0
  0
ENDBLK
  5
    B4
  8
0
  6
CONTINUOUS
 62
     3
  0
BLOCK
  5
    B5
  8
0
  6
CONTINUOUS
 62
     3
  2
*UDIM142
 70
    65
 10
0.0
 20
0.0
 30
0.0
  3
*UDIM142
  0
TEXT
  5
    B6
  8
0
  6
CONTINUOUS
 62
     3
 10
174.432697829604
 20
54.3748607635498
 30
0.0
 40
3.00000002980232
  1
1.5
 41
0.933333333333333
 72
     1
 11
178.332697868347
 21
55.874860778451
 31
0.0
 73
     2
  0
TEXT
  5
    B7
  8
0
  6
CONTINUOUS
 62
     3
 10
183.23269790709
 20
54.3748607635498
 30
0.0
 40
3.00000002980232
  1
-2
 41
0.933333333333333
 72
     1
 11
185.732697931925
 21
55.874860778451
 31
0.0
 73
     2
  0
LINE
  5
    B8
  8
0
  6
CONTINUOUS
 62
     3
 10
170.505378723145
 20
51.4166017498791
 30
0.0
 11
170.505378723145
 21
55.3748607635498
 31
0.0
  0
LINE
  5
    B9
  8
0
  6
CONTINUOUS
 62
     3
 10
171.255378723145
 20
51.1549923310963
 30
0.0
 11
171.255378723145
 21
55.3748607635498
 31
0.0
  0
LINE
  5
    BA
  8
0
  6
CONTINUOUS
 62
     3
 10
165.505378723145
 20
53.3748607635498
 30
0.0
 11
188.232697956761
 21
53.3748607635498
 31
0.0
  0
LINE
  5
    BB
  8
0
  6
CONTINUOUS
 62
     3
 10
167.607601249934
 20
52.5984036071313
 30
0.0
 11
170.505378723145
 21
53.3748607635498
 31
0.0
  0
LINE
  5
    BC
  8
0
  6
CONTINUOUS
 62
     3
 10
170.505378723145
 20
53.3748607635498
 30
0.0
 11
167.607601249934
 21
54.1513179199683
 31
0.0
  0
LINE
  5
    BD
  8
0
  6
CONTINUOUS
 62
     3
 10
174.153156196355
 20
54.1513179199683
 30
0.0
 11
171.255378723145
 21
53.3748607635498
 31
0.0
  0
LINE
  5
    BE
  8
0
  6
CONTINUOUS
 62
     3
 10
171.255378723145
 20
53.3748607635498
 30
0.0
 11
174.153156196355
 21
52.5984036071313
 31
0.0
  0
ENDBLK
  5
    BF
  8
0
  6
CONTINUOUS
 62
     3
  0
BLOCK
  5
    C0
  8
0
  6
CONTINUOUS
 62
     3
  2
*UDIM143
 70
    65
 10
0.0
 20
0.0
 30
0.0
  3
*UDIM143
  0
TEXT
  5
    C1
  8
0
  6
CONTINUOUS
 62
     3
 10
72.93364645982
 20
-139.002500166227
 30
0.0
 40
3.00000002980232
  1
8
 50
449.999999896069
 41
0.933333333333334
 72
     1
 11
71.4336464469073
 21
-137.902500152588
 31
0.0
 73
     2
  0
TEXT
  5
    C2
  8
0
  6
CONTINUOUS
 62
     3
 10
72.93364645982
 20
-142.202500188082
 30
0.0
 40
3.00000002980232
  1
M
 50
449.999999896069
 41
0.933333333333334
 72
     1
 11
71.4336464469073
 21
-141.102500174443
 31
0.0
 73
     2
  0
LINE
  5
    C3
  8
0
  6
CONTINUOUS
 62
     3
 10
73.9336464618084
 20
-121.261268615723
 30
0.0
 11
73.9336464618084
 21
-142.20250018537
 31
0.0
  0
LINE
  5
    C4
  8
0
  6
CONTINUOUS
 62
     3
 10
73.1571893053899
 20
-123.363491142512
 30
0.0
 11
73.9336464618084
 21
-126.261268615723
 31
0.0
  0
LINE
  5
    C5
  8
0
  6
CONTINUOUS
 62
     3
 10
73.9336464618084
 20
-126.261268615723
 30
0.0
 11
74.710103618227
 21
-123.363491142512
 31
0.0
  0
LINE
  5
    C6
  8
0
  6
CONTINUOUS
 62
     3
 10
74.710103618227
 20
-133.159046088933
 30
0.0
 11
73.9336464618084
 21
-130.261268615723
 31
0.0
  0
LINE
  5
    C7
  8
0
  6
CONTINUOUS
 62
     3
 10
73.9336464618084
 20
-130.261268615723
 30
0.0
 11
73.1571893053899
 21
-133.159046088933
 31
0.0
  0
ENDBLK
  5
    C8
  8
0
  6
CONTINUOUS
 62
     3
  0
BLOCK
  5
    C9
  8
0
  6
CONTINUOUS
 62
     3
  2
*UDIM144
 70
    65
 10
0.0
 20
0.0
 30
0.0
  3
*UDIM144
  0
TEXT
  5
    CA
  8
0
  6
CONTINUOUS
 62
     3
 10
85.7053822440591
 20
-63.1101153588219
 30
0.0
 40
3.00000002980232
  1
65.5
 50
359.999999896069
 41
0.933333333333333
 72
     1
 11
91.0053822994232
 21
-61.610115353508
 31
0.0
 73
     2
  0
LINE
  5
    CB
  8
0
  6
CONTINUOUS
 62
     3
 10
105.755378723145
 20
-87.2112841288249
 30
0.0
 11
105.755378723145
 21
-62.1101153684091
 31
0.0
  0
LINE
  5
    CC
  8
0
  6
CONTINUOUS
 62
     3
 10
76.2553858757019
 20
-93.2612686157227
 30
0.0
 11
76.2553858757019
 21
-62.1101153684091
 31
0.0
  0
LINE
  5
    CD
  8
0
  6
CONTINUOUS
 62
     3
 10
105.755378723145
 20
-64.1101153684091
 30
0.0
 11
76.2553858757019
 21
-64.1101153684091
 31
0.0
  0
LINE
  5
    CE
  8
0
  6
CONTINUOUS
 62
     3
 10
102.857601249934
 20
-64.8865725248277
 30
0.0
 11
105.755378723145
 21
-64.1101153684091
 31
0.0
  0
LINE
  5
    CF
  8
0
  6
CONTINUOUS
 62
     3
 10
105.755378723145
 20
-64.1101153684091
 30
0.0
 11
102.857601249934
 21
-63.3336582119906
 31
0.0
  0
LINE
  5
    D0
  8
0
  6
CONTINUOUS
 62
     3
 10
79.1531633489124
 20
-63.3336582119906
 30
0.0
 11
76.2553858757019
 21
-64.1101153684091
 31
0.0
  0
LINE
  5
    D1
  8
0
  6
CONTINUOUS
 62
     3
 10
76.2553858757019
 20
-64.1101153684091
 30
0.0
 11
79.1531633489124
 21
-64.8865725248277
 31
0.0
  0
ENDBLK
  5
    D2
  8
0
  6
CONTINUOUS
 62
     3
  0
BLOCK
  5
    D3
  8
0
  6
CONTINUOUS
 62
     3
  2
*UDIM145
 70
    65
 10
0.0
 20
0.0
 30
0.0
  3
*UDIM145
  0
TEXT
  5
    D4
  8
0
  6
CONTINUOUS
 62
     3
 10
97.5053822718746
 20
-68.9736895467837
 30
0.0
 40
3.00000002980232
  1
26
 50
359.999999896069
 41
0.933333333333333
 72
     1
 11
100.005382299423
 21
-67.4736895364048
 31
0.0
 73
     2
  0
LINE
  5
    D5
  8
0
  6
CONTINUOUS
 62
     3
 10
105.755378723145
 20
-87.2112841288249
 30
0.0
 11
105.755378723145
 21
-67.973689551306
 31
0.0
  0
LINE
  5
    D6
  8
0
  6
CONTINUOUS
 62
     3
 10
94.2553858757019
 20
-78.2112838745117
 30
0.0
 11
94.2553858757019
 21
-67.973689551306
 31
0.0
  0
LINE
  5
    D7
  8
0
  6
CONTINUOUS
 62
     3
 10
110.755378723145
 20
-69.973689551306
 30
0.0
 11
89.2553858757019
 21
-69.973689551306
 31
0.0
  0
LINE
  5
    D8
  8
0
  6
CONTINUOUS
 62
     3
 10
108.653156196355
 20
-69.1972323948874
 30
0.0
 11
105.755378723145
 21
-69.973689551306
 31
0.0
  0
LINE
  5
    D9
  8
0
  6
CONTINUOUS
 62
     3
 10
105.755378723145
 20
-69.973689551306
 30
0.0
 11
108.653156196355
 21
-70.7501467077245
 31
0.0
  0
LINE
  5
    DA
  8
0
  6
CONTINUOUS
 62
     3
 10
91.3576084024914
 20
-70.7501467077245
 30
0.0
 11
94.2553858757019
 21
-69.973689551306
 31
0.0
  0
LINE
  5
    DB
  8
0
  6
CONTINUOUS
 62
     3
 10
94.2553858757019
 20
-69.973689551306
 30
0.0
 11
91.3576084024914
 21
-69.1972323948874
 31
0.0
  0
ENDBLK
  5
    DC
  8
0
  6
CONTINUOUS
 62
     3
  0
BLOCK
  5
    DD
  8
0
  6
CONTINUOUS
 62
     7
  2
*UDIM146
 70
    65
 10
0.0
 20
0.0
 30
0.0
  3
*UDIM146
  0
TEXT
  5
    DE
  8
0
  6
CONTINUOUS
 62
     7
 10
63.2583770706762
 20
-93.5362704671716
 30
0.0
 40
3.00000002980232
  1
30
 50
449.999999896069
 41
0.933333333333333
 72
     1
 11
61.7583770602942
 21
-91.0362704396248
 31
0.0
 73
     2
  0
LINE
  5
    DF
  8
0
  6
CONTINUOUS
 62
     3
 10
104.427600768273
 20
-83.2612686157227
 30
0.0
 11
62.2583770751953
 21
-83.2612686157227
 31
0.0
  0
LINE
  5
    E0
  8
0
  6
CONTINUOUS
 62
     3
 10
82.8571026053272
 20
-98.2612686157227
 30
0.0
 11
62.2583770751953
 21
-98.2612686157227
 31
0.0
  0
LINE
  5
    E1
  8
0
  6
CONTINUOUS
 62
     3
 10
64.2583770751953
 20
-83.2612686157227
 30
0.0
 11
64.2583770751953
 21
-98.2612686157227
 31
0.0
  0
LINE
  5
    E2
  8
0
  6
CONTINUOUS
 62
     3
 10
64.779321505147
 20
-86.2156918929296
 30
0.0
 11
64.2583770751953
 21
-83.2612686157227
 31
0.0
  0
LINE
  5
    E3
  8
0
  6
CONTINUOUS
 62
     3
 10
64.2583770751953
 20
-83.2612686157227
 30
0.0
 11
63.7374326452436
 21
-86.2156918929296
 31
0.0
  0
LINE
  5
    E4
  8
0
  6
CONTINUOUS
 62
     3
 10
63.7374326452436
 20
-95.3068453385157
 30
0.0
 11
64.2583770751953
 21
-98.2612686157227
 31
0.0
  0
LINE
  5
    E5
  8
0
  6
CONTINUOUS
 62
     3
 10
64.2583770751953
 20
-98.2612686157227
 30
0.0
 11
64.779321505147
 21
-95.3068453385157
 31
0.0
  0
ENDBLK
  5
    E6
  8
0
  6
CONTINUOUS
 62
     7
  0
BLOCK
  5
    E7
  8
0
  6
CONTINUOUS
 62
     7
  2
*UDIM147
 70
    65
 10
0.0
 20
0.0
 30
0.0
  3
*UDIM147
  0
TEXT
  5
    E8
  8
0
  6
CONTINUOUS
 62
     7
 10
63.2583770706762
 20
-108.536269513497
 30
0.0
 40
3.00000002980232
  1
30
 50
449.999999896069
 41
0.933333333333333
 72
     1
 11
61.7583770602942
 21
-106.03626948595
 31
0.0
 73
     2
  0
LINE
  5
    E9
  8
0
  6
CONTINUOUS
 62
     3
 10
104.427600768273
 20
-113.261268615723
 30
0.0
 11
62.2583770751953
 21
-113.261268615723
 31
0.0
  0
LINE
  5
    EA
  8
0
  6
CONTINUOUS
 62
     3
 10
64.2583770751953
 20
-98.2612686157227
 30
0.0
 11
64.2583770751953
 21
-113.261268615723
 31
0.0
  0
LINE
  5
    EB
  8
0
  6
CONTINUOUS
 62
     3
 10
64.779321505147
 20
-101.21569189293
 30
0.0
 11
64.2583770751953
 21
-98.2612686157227
 31
0.0
  0
LINE
  5
    EC
  8
0
  6
CONTINUOUS
 62
     3
 10
64.2583770751953
 20
-98.2612686157227
 30
0.0
 11
63.7374326452436
 21
-101.21569189293
 31
0.0
  0
LINE
  5
    ED
  8
0
  6
CONTINUOUS
 62
     3
 10
63.7374326452436
 20
-110.306845338516
 30
0.0
 11
64.2583770751953
 21
-113.261268615723
 31
0.0
  0
LINE
  5
    EE
  8
0
  6
CONTINUOUS
 62
     3
 10
64.2583770751953
 20
-113.261268615723
 30
0.0
 11
64.779321505147
 21
-110.306845338516
 31
0.0
  0
ENDBLK
  5
    EF
  8
0
  6
CONTINUOUS
 62
     7
  0
BLOCK
  5
    F0
  8
0
  6
CONTINUOUS
 62
     3
  2
*UDIM148
 70
    65
 10
0.0
 20
0.0
 30
0.0
  3
*UDIM148
  0
TEXT
  5
    F1
  8
0
  6
CONTINUOUS
 62
     3
 10
63.2583770706762
 20
-123.536269513497
 30
0.0
 40
3.00000002980232
  1
30
 50
449.999999896069
 41
0.933333333333333
 72
     1
 11
61.7583770602942
 21
-121.03626948595
 31
0.0
 73
     2
  0
LINE
  5
    F2
  8
0
  6
CONTINUOUS
 62
     3
 10
105.427600768273
 20
-113.261268615723
 30
0.0
 11
62.2583770751953
 21
-113.261268615723
 31
0.0
  0
LINE
  5
    F3
  8
0
  6
CONTINUOUS
 62
     3
 10
83.8571026053272
 20
-128.261268615723
 30
0.0
 11
62.2583770751953
 21
-128.261268615723
 31
0.0
  0
LINE
  5
    F4
  8
0
  6
CONTINUOUS
 62
     3
 10
64.2583770751953
 20
-113.261268615723
 30
0.0
 11
64.2583770751953
 21
-128.261268615723
 31
0.0
  0
LINE
  5
    F5
  8
0
  6
CONTINUOUS
 62
     3
 10
64.779321505147
 20
-116.21569189293
 30
0.0
 11
64.2583770751953
 21
-113.261268615723
 31
0.0
  0
LINE
  5
    F6
  8
0
  6
CONTINUOUS
 62
     3
 10
64.2583770751953
 20
-113.261268615723
 30
0.0
 11
63.7374326452436
 21
-116.21569189293
 31
0.0
  0
LINE
  5
    F7
  8
0
  6
CONTINUOUS
 62
     3
 10
63.7374326452436
 20
-125.306845338516
 30
0.0
 11
64.2583770751953
 21
-128.261268615723
 31
0.0
  0
LINE
  5
    F8
  8
0
  6
CONTINUOUS
 62
     3
 10
64.2583770751953
 20
-128.261268615723
 30
0.0
 11
64.779321505147
 21
-125.306845338516
 31
0.0
  0
ENDBLK
  5
    F9
  8
0
  6
CONTINUOUS
 62
     3
  0
BLOCK
  5
    FA
  8
0
  6
CONTINUOUS
 62
     3
  2
*UDIM149
 70
    65
 10
0.0
 20
0.0
 30
0.0
  3
*UDIM149
  0
TEXT
  5
    FB
  8
0
  6
CONTINUOUS
 62
     3
 10
53.7901797615712
 20
-137.948805100817
 30
0.0
 40
3.00000002980232
  1
144
 50
449.999999844103
 41
0.933333333333333
 72
     1
 11
52.2901797572571
 21
-134.048805058002
 31
0.0
 73
     2
  0
LINE
  5
    FC
  8
0
  6
CONTINUOUS
 62
     3
 10
-9.91808128356934
 20
-97.7738037109375
 30
0.0
 11
56.7901797721582
 21
-97.7738037109375
 31
0.0
  0
LINE
  5
    FD
  8
0
  6
CONTINUOUS
 62
     3
 10
-8.66808128356934
 20
-169.773803710938
 30
0.0
 11
56.7901797721582
 21
-169.773803710938
 31
0.0
  0
LINE
  5
    FE
  8
0
  6
CONTINUOUS
 62
     3
 10
54.7901797721582
 20
-97.7738037109375
 30
0.0
 11
54.7901797721582
 21
-169.773803710938
 31
0.0
  0
LINE
  5
    FF
  8
0
  6
CONTINUOUS
 62
     3
 10
55.3111242021099
 20
-100.728226988144
 30
0.0
 11
54.7901797721582
 21
-97.7738037109375
 31
0.0
  0
LINE
  5
   100
  8
0
  6
CONTINUOUS
 62
     3
 10
54.7901797721582
 20
-97.7738037109375
 30
0.0
 11
54.2692353422066
 21
-100.728226988144
 31
0.0
  0
LINE
  5
   101
  8
0
  6
CONTINUOUS
 62
     3
 10
54.2692353422066
 20
-166.819380433731
 30
0.0
 11
54.7901797721582
 21
-169.773803710938
 31
0.0
  0
LINE
  5
   102
  8
0
  6
CONTINUOUS
 62
     3
 10
54.7901797721582
 20
-169.773803710938
 30
0.0
 11
55.3111242021099
 21
-166.819380433731
 31
0.0
  0
ENDBLK
  5
   103
  8
0
  6
CONTINUOUS
 62
     3
  0
BLOCK
  5
   104
  8
0
  6
CONTINUOUS
 62
     3
  2
*UDIM150
 70
    65
 10
0.0
 20
0.0
 30
0.0
  3
*UDIM150
  0
TEXT
  5
   105
  8
0
  6
CONTINUOUS
 62
     3
 10
46.9414395234636
 20
-137.94880128612
 30
0.0
 40
3.00000002980232
  1
102
 50
449.999999844103
 41
0.933333333333333
 72
     1
 11
45.4414395191495
 21
-134.048801243305
 31
0.0
 73
     2
  0
LINE
  5
   106
  8
0
  6
CONTINUOUS
 62
     3
 10
2.83191871643066
 20
-108.273803710938
 30
0.0
 11
49.9414395340506
 21
-108.273803710938
 31
0.0
  0
LINE
  5
   107
  8
0
  6
CONTINUOUS
 62
     3
 10
2.83191871643066
 20
-159.273803710938
 30
0.0
 11
49.9414395340506
 21
-159.273803710938
 31
0.0
  0
LINE
  5
   108
  8
0
  6
CONTINUOUS
 62
     3
 10
47.9414395340506
 20
-108.273803710938
 30
0.0
 11
47.9414395340506
 21
-159.273803710938
 31
0.0
  0
LINE
  5
   109
  8
0
  6
CONTINUOUS
 62
     3
 10
48.4623839640023
 20
-111.228226988144
 30
0.0
 11
47.9414395340506
 21
-108.273803710938
 31
0.0
  0
LINE
  5
   10A
  8
0
  6
CONTINUOUS
 62
     3
 10
47.9414395340506
 20
-108.273803710938
 30
0.0
 11
47.420495104099
 21
-111.228226988144
 31
0.0
  0
LINE
  5
   10B
  8
0
  6
CONTINUOUS
 62
     3
 10
47.420495104099
 20
-156.319380433731
 30
0.0
 11
47.9414395340506
 21
-159.273803710938
 31
0.0
  0
LINE
  5
   10C
  8
0
  6
CONTINUOUS
 62
     3
 10
47.9414395340506
 20
-159.273803710938
 30
0.0
 11
48.4623839640023
 21
-156.319380433731
 31
0.0
  0
ENDBLK
  5
   10D
  8
0
  6
CONTINUOUS
 62
     3
  0
BLOCK
  5
   10E
  8
0
  6
CONTINUOUS
 62
     3
  2
*UDIM151
 70
    65
 10
0.0
 20
0.0
 30
0.0
  3
*UDIM151
  0
TEXT
  5
   10F
  8
0
  6
CONTINUOUS
 62
     3
 10
33.5327613502462
 20
-136.548803656398
 30
0.0
 40
3.00000002980232
  1
35
 50
449.999999844103
 41
0.933333333333333
 72
     1
 11
32.0327613421316
 21
-134.048803627491
 31
0.0
 73
     2
  0
LINE
  5
   110
  8
0
  6
CONTINUOUS
 62
     3
 10
6.33191871643066
 20
-125.023803710938
 30
0.0
 11
36.5327613570328
 21
-125.023803710938
 31
0.0
  0
LINE
  5
   111
  8
0
  6
CONTINUOUS
 62
     3
 10
-3.66808128356934
 20
-142.523803710938
 30
0.0
 11
36.5327613570328
 21
-142.523803710938
 31
0.0
  0
LINE
  5
   112
  8
0
  6
CONTINUOUS
 62
     3
 10
34.5327613570328
 20
-125.023803710938
 30
0.0
 11
34.5327613570328
 21
-142.523803710938
 31
0.0
  0
LINE
  5
   113
  8
0
  6
CONTINUOUS
 62
     3
 10
35.0537057869844
 20
-127.978226988144
 30
0.0
 11
34.5327613570328
 21
-125.023803710938
 31
0.0
  0
LINE
  5
   114
  8
0
  6
CONTINUOUS
 62
     3
 10
34.5327613570328
 20
-125.023803710938
 30
0.0
 11
34.0118169270811
 21
-127.978226988144
 31
0.0
  0
LINE
  5
   115
  8
0
  6
CONTINUOUS
 62
     3
 10
34.0118169270811
 20
-139.569380433731
 30
0.0
 11
34.5327613570328
 21
-142.523803710938
 31
0.0
  0
LINE
  5
   116
  8
0
  6
CONTINUOUS
 62
     3
 10
34.5327613570328
 20
-142.523803710938
 30
0.0
 11
35.0537057869844
 21
-139.569380433731
 31
0.0
  0
ENDBLK
  5
   117
  8
0
  6
CONTINUOUS
 62
     3
  0
BLOCK
  5
   118
  8
0
  6
CONTINUOUS
 62
     3
  2
*UDIM152
 70
    65
 10
0.0
 20
0.0
 30
0.0
  3
*UDIM152
  0
TEXT
  5
   119
  8
0
  6
CONTINUOUS
 62
     3
 10
-5.74592718392696
 20
-79.18329788629
 30
0.0
 40
3.00000002980232
  1
15
 50
359.999999844103
 41
0.933333333333333
 72
     1
 11
-3.24592715501786
 21
-77.6832978781786
 31
0.0
 73
     2
  0
LINE
  5
   11A
  8
0
  6
CONTINUOUS
 62
     3
 10
-6.16808128356934
 20
-92.7738037109375
 30
0.0
 11
-6.16808128356934
 21
-78.1832978930798
 31
0.0
  0
LINE
  5
   11B
  8
0
  6
CONTINUOUS
 62
     3
 10
1.33191871643066
 20
-120.023803710938
 30
0.0
 11
1.33191871643066
 21
-78.1832978930798
 31
0.0
  0
LINE
  5
   11C
  8
0
  6
CONTINUOUS
 62
     3
 10
-6.16808128356934
 20
-80.1832978930798
 30
0.0
 11
1.33191871643066
 21
-80.1832978930798
 31
0.0
  0
CIRCLE
  5
   11D
  8
0
  6
CONTINUOUS
 62
     3
 10
-6.16808128356934
 20
-80.1832978930798
 30
0.0
 40
0.5
  0
LINE
  5
   11E
  8
0
  6
CONTINUOUS
 62
     3
 10
4.28634199363762
 20
-79.6623534631281
 30
0.0
 11
1.33191871643066
 21
-80.1832978930798
 31
0.0
  0
LINE
  5
   11F
  8
0
  6
CONTINUOUS
 62
     3
 10
1.33191871643066
 20
-80.1832978930798
 30
0.0
 11
4.28634199363762
 21
-80.7042423230314
 31
0.0
  0
ENDBLK
  5
   120
  8
0
  6
CONTINUOUS
 62
     3
  0
BLOCK
  5
   121
  8
0
  6
CONTINUOUS
 62
     3
  2
*UDIM153
 70
    65
 10
0.0
 20
0.0
 30
0.0
  3
*UDIM153
  0
TEXT
  5
   122
  8
0
  6
CONTINUOUS
 62
     3
 10
-13.7127526095518
 20
-79.18329788629
 30
0.0
 40
3.00000002980232
  1
15
 50
359.999999844103
 41
0.933333333333333
 72
     1
 11
-11.2127525806427
 21
-77.6832978781786
 31
0.0
 73
     2
  0
LINE
  5
   123
  8
0
  6
CONTINUOUS
 62
     3
 10
-13.6680812835693
 20
-80.5603564364833
 30
0.0
 11
-13.6680812835693
 21
-78.1832978930798
 31
0.0
  0
LINE
  5
   124
  8
0
  6
CONTINUOUS
 62
     3
 10
-6.16808128356934
 20
-92.7738037109375
 30
0.0
 11
-6.16808128356934
 21
-78.1832978930798
 31
0.0
  0
LINE
  5
   125
  8
0
  6
CONTINUOUS
 62
     3
 10
-13.712752605478
 20
-80.1832978930798
 30
0.0
 11
-6.16808128356934
 21
-80.1832978930798
 31
0.0
  0
LINE
  5
   126
  8
0
  6
CONTINUOUS
 62
     3
 10
-16.6225045607763
 20
-80.7042423230314
 30
0.0
 11
-13.6680812835693
 21
-80.1832978930798
 31
0.0
  0
LINE
  5
   127
  8
0
  6
CONTINUOUS
 62
     3
 10
-13.6680812835693
 20
-80.1832978930798
 30
0.0
 11
-16.6225045607763
 21
-79.6623534631281
 31
0.0
  0
CIRCLE
  5
   128
  8
0
  6
CONTINUOUS
 62
     3
 10
-6.16808128356934
 20
-80.1832978930798
 30
0.0
 40
0.5
  0
ENDBLK
  5
   129
  8
0
  6
CONTINUOUS
 62
     3
  0
BLOCK
  5
   12A
  8
0
  6
CONTINUOUS
 62
     3
  2
*UDIM154
 70
    65
 10
0.0
 20
0.0
 30
0.0
  3
*UDIM154
  0
TEXT
  5
   12B
  8
0
  6
CONTINUOUS
 62
     3
 10
-7.20869256124624
 20
-136.823805279631
 30
0.0
 40
3.00000002980232
  1
5,5
 50
449.999999844103
 41
0.933333333333333
 72
     1
 11
-8.70869256556034
 21
-132.923805236816
 31
0.0
 73
     2
  0
LINE
  5
   12C
  8
0
  6
CONTINUOUS
 62
     3
 10
-6.20869255065918
 20
-129.023805198073
 30
0.0
 11
-6.20869255065918
 21
-142.523803710938
 31
0.0
  0
LINE
  5
   12D
  8
0
  6
CONTINUOUS
 62
     3
 10
-6.72963698061084
 20
-136.819380433731
 30
0.0
 11
-6.20869255065918
 21
-139.773803710938
 31
0.0
  0
LINE
  5
   12E
  8
0
  6
CONTINUOUS
 62
     3
 10
-6.20869255065918
 20
-139.773803710938
 30
0.0
 11
-5.68774812070751
 21
-136.819380433731
 31
0.0
  0
LINE
  5
   12F
  8
0
  6
CONTINUOUS
 62
     3
 10
-5.68774812070752
 20
-145.478226988144
 30
0.0
 11
-6.20869255065918
 21
-142.523803710938
 31
0.0
  0
LINE
  5
   130
  8
0
  6
CONTINUOUS
 62
     3
 10
-6.20869255065918
 20
-142.523803710938
 30
0.0
 11
-6.72963698061084
 21
-145.478226988144
 31
0.0
  0
ENDBLK
  5
   131
  8
0
  6
CONTINUOUS
 62
     3
  0
BLOCK
  5
   132
  8
0
  6
CONTINUOUS
 62
     3
  2
*UDIM155
 70
    65
 10
0.0
 20
0.0
 30
0.0
  3
*UDIM155
  0
TEXT
  5
   133
  8
0
  6
CONTINUOUS
 62
     3
 10
-63.447652823559
 20
-126.798804610073
 30
0.0
 40
3.00000002980232
  1
63
 50
449.999999844103
 41
0.933333333333333
 72
     1
 11
-64.9476528316736
 21
-124.298804581165
 31
0.0
 73
     2
  0
LINE
  5
   134
  8
0
  6
CONTINUOUS
 62
     3
 10
-45.1680812835693
 20
-108.273803710938
 30
0.0
 11
-64.4476528167725
 21
-108.273803710938
 31
0.0
  0
LINE
  5
   135
  8
0
  6
CONTINUOUS
 62
     3
 10
-60.1464019390985
 20
-139.773803710938
 30
0.0
 11
-64.4476528167725
 21
-139.773803710938
 31
0.0
  0
LINE
  5
   136
  8
0
  6
CONTINUOUS
 62
     3
 10
-62.4476528167725
 20
-108.273803710938
 30
0.0
 11
-62.4476528167725
 21
-139.773803710938
 31
0.0
  0
LINE
  5
   137
  8
0
  6
CONTINUOUS
 62
     3
 10
-61.9267083868208
 20
-111.228226988144
 30
0.0
 11
-62.4476528167725
 21
-108.273803710938
 31
0.0
  0
LINE
  5
   138
  8
0
  6
CONTINUOUS
 62
     3
 10
-62.4476528167725
 20
-108.273803710938
 30
0.0
 11
-62.9685972467241
 21
-111.228226988144
 31
0.0
  0
LINE
  5
   139
  8
0
  6
CONTINUOUS
 62
     3
 10
-62.9685972467241
 20
-136.819380433731
 30
0.0
 11
-62.4476528167725
 21
-139.773803710938
 31
0.0
  0
LINE
  5
   13A
  8
0
  6
CONTINUOUS
 62
     3
 10
-62.4476528167725
 20
-139.773803710938
 30
0.0
 11
-61.9267083868208
 21
-136.819380433731
 31
0.0
  0
ENDBLK
  5
   13B
  8
0
  6
CONTINUOUS
 62
     3
  0
BLOCK
  5
   13C
  8
0
  6
CONTINUOUS
 62
     3
  2
*UDIM156
 70
    65
 10
0.0
 20
0.0
 30
0.0
  3
*UDIM156
  0
TEXT
  5
   13D
  8
0
  6
CONTINUOUS
 62
     3
 10
-72.6211147376215
 20
-121.548802702724
 30
0.0
 40
3.00000002980232
  1
84
 50
449.999999844103
 41
0.933333333333333
 72
     1
 11
-74.1211147457361
 21
-119.048802673817
 31
0.0
 73
     2
  0
LINE
  5
   13E
  8
0
  6
CONTINUOUS
 62
     3
 10
-33.6680812835693
 20
-97.7738037109375
 30
0.0
 11
-73.621114730835
 21
-97.7738037109375
 31
0.0
  0
LINE
  5
   13F
  8
0
  6
CONTINUOUS
 62
     3
 10
-60.1464019390985
 20
-139.773803710938
 30
0.0
 11
-73.621114730835
 21
-139.773803710938
 31
0.0
  0
LINE
  5
   140
  8
0
  6
CONTINUOUS
 62
     3
 10
-71.621114730835
 20
-97.7738037109375
 30
0.0
 11
-71.621114730835
 21
-139.773803710938
 31
0.0
  0
LINE
  5
   141
  8
0
  6
CONTINUOUS
 62
     3
 10
-71.1001703008833
 20
-100.728226988144
 30
0.0
 11
-71.621114730835
 21
-97.7738037109375
 31
0.0
  0
LINE
  5
   142
  8
0
  6
CONTINUOUS
 62
     3
 10
-71.621114730835
 20
-97.7738037109375
 30
0.0
 11
-72.1420591607866
 21
-100.728226988144
 31
0.0
  0
LINE
  5
   143
  8
0
  6
CONTINUOUS
 62
     3
 10
-72.1420591607866
 20
-136.819380433731
 30
0.0
 11
-71.621114730835
 21
-139.773803710938
 31
0.0
  0
LINE
  5
   144
  8
0
  6
CONTINUOUS
 62
     3
 10
-71.621114730835
 20
-139.773803710938
 30
0.0
 11
-71.1001703008833
 21
-136.819380433731
 31
0.0
  0
ENDBLK
  5
   145
  8
0
  6
CONTINUOUS
 62
     3
  0
BLOCK
  5
   146
  8
0
  6
CONTINUOUS
 62
     3
  2
*UDIM157
 70
    65
 10
0.0
 20
0.0
 30
0.0
  3
*UDIM157
  0
TEXT
  5
   147
  8
0
  6
CONTINUOUS
 62
     3
 10
14.6177414803928
 20
-82.2286699113996
 30
0.0
 40
3.00000002980232
  1
13
 50
421.01350771866
 41
0.933333333333333
 72
     1
 11
14.5171490401381
 21
-79.3149298183502
 31
0.0
 73
     2
  0
TEXT
  5
   148
  8
0
  6
CONTINUOUS
 62
     3
 10
13.2850821788232
 20
-84.6341882314776
 30
0.0
 40
3.00000002980232
  1
R
 50
421.01350771866
 41
0.933333333333334
 72
     1
 11
12.5060449556847
 21
-82.9450757208057
 31
0.0
 73
     2
  0
LINE
  5
   149
  8
0
  6
CONTINUOUS
 62
     3
 10
-2.2745199156853
 20
-114.783610201829
 30
0.0
 11
17.9154925381952
 21
-78.3396033766423
 31
0.0
  0
LINE
  5
   14A
  8
0
  6
CONTINUOUS
 62
     3
 10
5.45787667358335
 20
-99.7512469619625
 30
0.0
 11
4.48184087594798
 21
-102.588032840688
 31
0.0
  0
LINE
  5
   14B
  8
0
  6
CONTINUOUS
 62
     3
 10
4.48184087594798
 20
-102.588032840688
 30
0.0
 11
6.3692522627643
 21
-100.256149855434
 31
0.0
  0
ENDBLK
  5
   14C
  8
0
  6
CONTINUOUS
 62
     3
  0
BLOCK
  5
   14D
  8
0
  6
CONTINUOUS
 62
     3
  2
*UDIM158
 70
    65
 10
0.0
 20
0.0
 30
0.0
  3
*UDIM158
  0
TEXT
  5
   14E
  8
0
  6
CONTINUOUS
 62
     3
 10
-23.9430762190832
 20
-64.0421066216282
 30
0.0
 40
3.00000002980232
  1
60
 50
359.999999844103
 41
0.933333333333333
 72
     1
 11
-21.4430761901741
 21
-62.5421066135168
 31
0.0
 73
     2
  0
LINE
  5
   14F
  8
0
  6
CONTINUOUS
 62
     3
 10
-36.1680812835693
 20
-92.7738037109375
 30
0.0
 11
-36.1680719502996
 21
-63.0421066284181
 31
0.0
  0
LINE
  5
   150
  8
0
  6
CONTINUOUS
 62
     3
 10
-6.16808128356934
 20
-92.7738037109375
 30
0.0
 11
-6.16807195029964
 21
-63.0421066284181
 31
0.0
  0
LINE
  5
   151
  8
0
  6
CONTINUOUS
 62
     3
 10
-36.1680725781326
 20
-65.042106628418
 30
0.0
 11
-6.1680725781326
 21
-65.042106628418
 31
0.0
  0
LINE
  5
   152
  8
0
  6
CONTINUOUS
 62
     3
 10
-33.2136493009256
 20
-64.5211621984663
 30
0.0
 11
-36.1680725781326
 21
-65.042106628418
 31
0.0
  0
LINE
  5
   153
  8
0
  6
CONTINUOUS
 62
     3
 10
-36.1680725781326
 20
-65.042106628418
 30
0.0
 11
-33.2136493009256
 21
-65.5630510583696
 31
0.0
  0
LINE
  5
   154
  8
0
  6
CONTINUOUS
 62
     3
 10
-9.12249585533957
 20
-65.5630510583696
 30
0.0
 11
-6.1680725781326
 21
-65.042106628418
 31
0.0
  0
LINE
  5
   155
  8
0
  6
CONTINUOUS
 62
     3
 10
-6.1680725781326
 20
-65.042106628418
 30
0.0
 11
-9.12249585533957
 21
-64.5211621984663
 31
0.0
  0
ENDBLK
  5
   156
  8
0
  6
CONTINUOUS
 62
     3
  0
BLOCK
  5
   157
  8
0
  6
CONTINUOUS
 62
     3
  2
*UDIM159
 70
    65
 10
0.0
 20
0.0
 30
0.0
  3
*UDIM159
  0
TEXT
  5
   158
  8
0
  6
CONTINUOUS
 62
     3
 10
-23.9430781275961
 20
-57.2133941582494
 30
0.0
 40
3.00000002980232
  1
90
 50
359.999999844103
 41
0.933333333333333
 72
     1
 11
-21.443078098687
 21
-55.7133941501379
 31
0.0
 73
     2
  0
LINE
  5
   159
  8
0
  6
CONTINUOUS
 62
     3
 10
-43.6680812835693
 20
-120.023803710938
 30
0.0
 11
-43.6680612524302
 21
-56.2133941650392
 31
0.0
  0
LINE
  5
   15A
  8
0
  6
CONTINUOUS
 62
     3
 10
1.33191871643066
 20
-120.023803710938
 30
0.0
 11
1.33193874756984
 21
-56.2133941650392
 31
0.0
  0
LINE
  5
   15B
  8
0
  6
CONTINUOUS
 62
     3
 10
-43.6680618802631
 20
-58.2133941650391
 30
0.0
 11
1.33193811973688
 21
-58.2133941650391
 31
0.0
  0
LINE
  5
   15C
  8
0
  6
CONTINUOUS
 62
     3
 10
-40.7136386030562
 20
-57.6924497350874
 30
0.0
 11
-43.6680618802631
 21
-58.2133941650391
 31
0.0
  0
LINE
  5
   15D
  8
0
  6
CONTINUOUS
 62
     3
 10
-43.6680618802631
 20
-58.2133941650391
 30
0.0
 11
-40.7136386030562
 21
-58.7343385949907
 31
0.0
  0
LINE
  5
   15E
  8
0
  6
CONTINUOUS
 62
     3
 10
-1.62248515747009
 20
-58.7343385949907
 30
0.0
 11
1.33193811973688
 21
-58.2133941650391
 31
0.0
  0
LINE
  5
   15F
  8
0
  6
CONTINUOUS
 62
     3
 10
1.33193811973688
 20
-58.2133941650391
 30
0.0
 11
-1.62248515747009
 21
-57.6924497350874
 31
0.0
  0
ENDBLK
  5
   160
  8
0
  6
CONTINUOUS
 62
     3
  0
BLOCK
  5
   161
  8
0
  6
CONTINUOUS
 62
     7
  2
*UDIM160
 70
    65
 10
0.0
 20
0.0
 30
0.0
  3
*UDIM160
  0
TEXT
  5
   162
  8
0
  6
CONTINUOUS
 62
     7
 10
9.87562869229001
 20
-184.308402434366
 30
0.0
 40
3.00000002980232
  1
4.5
 50
315.177800020094
 41
0.933333333333333
 72
     1
 11
13.6992532529422
 21
-185.99360140365
 31
0.0
 73
     2
  0
TEXT
  5
   163
  8
0
  6
CONTINUOUS
 62
     7
 10
7.03843800377803
 20
-181.488766068548
 30
0.0
 40
3.00000002980232
  1
Ø
 50
315.177800020094
 41
1.2
 72
     1
 11
9.15974815444847
 21
-181.482183206742
 31
0.0
 73
     2
  0
TEXT
  5
   164
  8
0
  6
CONTINUOUS
 62
     7
 10
-1.18941498569031
 20
-173.311820573641
 30
0.0
 40
3.00000002980232
  1
M4 o
 50
315.177800020094
 41
0.933333333333333
 72
     1
 11
3.62722631411788
 21
-175.983892277728
 31
0.0
 73
     2
  0
LINE
  5
   165
  8
0
  6
CONTINUOUS
 62
     7
 10
14.7032414477305
 20
-190.515991046463
 30
0.0
 11
-7.58667661495809
 21
-168.363985536221
 31
0.0
  0
LINE
  5
   166
  8
0
  6
CONTINUOUS
 62
     3
 10
-2.85606511492124
 20
-171.970643223745
 30
0.0
 11
-5.45878361787515
 21
-170.478712798296
 31
0.0
  0
LINE
  5
   167
  8
0
  6
CONTINUOUS
 62
     3
 10
-5.45878361787515
 20
-170.478712798296
 30
0.0
 11
-3.95072852592908
 21
-173.072121720864
 31
0.0
  0
ENDBLK
  5
   168
  8
0
  6
CONTINUOUS
 62
     7
  0
BLOCK
  5
   169
  8
0
  6
CONTINUOUS
 62
     3
  2
*UDIM161
 70
    65
 10
0.0
 20
0.0
 30
0.0
  3
*UDIM161
  0
TEXT
  5
   16A
  8
0
  6
CONTINUOUS
 62
     3
 10
40.3815015883538
 20
-142.117303877174
 30
0.0
 40
3.00000002980232
  1
60
 50
449.999999844103
 41
0.933333333333333
 72
     1
 11
38.8815015802392
 21
-139.617303848267
 31
0.0
 73
     2
  0
TEXT
  5
   16B
  8
0
  6
CONTINUOUS
 62
     3
 10
40.3815015807528
 20
-136.117303827503
 30
0.0
 40
3.00000002980232
  1
 MAX
 50
449.999999844103
 41
0.933333333333333
 72
     1
 11
38.8815015802392
 21
-130.817303770781
 31
0.0
 73
     2
  0
LINE
  5
   16C
  8
0
  6
CONTINUOUS
 62
     3
 10
11.593988350232
 20
-118.773803710938
 30
0.0
 11
43.3815015951404
 21
-118.773803710938
 31
0.0
  0
LINE
  5
   16D
  8
0
  6
CONTINUOUS
 62
     3
 10
4.093988350232
 20
-148.773803710938
 30
0.0
 11
43.3815015951404
 21
-148.773803710938
 31
0.0
  0
LINE
  5
   16E
  8
0
  6
CONTINUOUS
 62
     3
 10
41.3815015951404
 20
-118.773803710938
 30
0.0
 11
41.3815015951404
 21
-148.773803710938
 31
0.0
  0
LINE
  5
   16F
  8
0
  6
CONTINUOUS
 62
     3
 10
42.1579587515589
 20
-121.671581184148
 30
0.0
 11
41.3815015951404
 21
-118.773803710938
 31
0.0
  0
LINE
  5
   170
  8
0
  6
CONTINUOUS
 62
     3
 10
41.3815015951404
 20
-118.773803710938
 30
0.0
 11
40.6050444387218
 21
-121.671581184148
 31
0.0
  0
LINE
  5
   171
  8
0
  6
CONTINUOUS
 62
     3
 10
40.6050444387218
 20
-145.876026237727
 30
0.0
 11
41.3815015951404
 21
-148.773803710938
 31
0.0
  0
LINE
  5
   172
  8
0
  6
CONTINUOUS
 62
     3
 10
41.3815015951404
 20
-148.773803710938
 30
0.0
 11
42.1579587515589
 21
-145.876026237727
 31
0.0
  0
ENDBLK
  5
   173
  8
0
  6
CONTINUOUS
 62
     3
  0
BLOCK
  5
   174
  8
0
  6
CONTINUOUS
 62
     7
  2
*HATCH23
 70
    65
 10
0.0
 20
0.0
 30
0.0
  3
*HATCH23
  0
LINE
  5
   175
  8
0
  6
CONTINUOUS
 62
    12
 10
9.41289710998535
 20
-20.6999988555908
 30
0.0
 11
8.38521766662598
 21
-20.6999988555908
 31
0.0
  0
ENDBLK
  5
   176
  8
0
  6
CONTINUOUS
 62
     7
  0
BLOCK
  5
   177
  8
0
  6
CONTINUOUS
 62
     3
  2
*UDIM162
 70
    65
 10
0.0
 20
0.0
 30
0.0
  3
*UDIM162
  0
TEXT
  5
   178
  8
0
  6
CONTINUOUS
 62
     3
 10
-75.6519762201917
 20
-2.06355288535253
 30
0.0
 40
3.00000002980232
  1
96
 50
449.999999844103
 41
0.933333333333333
 72
     1
 11
-77.1519762283063
 21
0.436447143554688
 31
0.0
 73
     2
  0
LINE
  5
   179
  8
0
  6
CONTINUOUS
 62
     3
 10
-54.7931308746338
 20
24.4364471435547
 30
0.0
 11
-76.6519762134051
 21
24.4364471435547
 31
0.0
  0
LINE
  5
   17A
  8
0
  6
CONTINUOUS
 62
     3
 10
-54.7931308746338
 20
-23.5635528564453
 30
0.0
 11
-76.6519762134051
 21
-23.5635528564453
 31
0.0
  0
LINE
  5
   17B
  8
0
  6
CONTINUOUS
 62
     3
 10
-74.6519762134051
 20
24.4364471435547
 30
0.0
 11
-74.6519762134051
 21
-23.5635528564453
 31
0.0
  0
LINE
  5
   17C
  8
0
  6
CONTINUOUS
 62
     3
 10
-73.8755190569866
 20
21.5386696703442
 30
0.0
 11
-74.6519762134051
 21
24.4364471435547
 31
0.0
  0
LINE
  5
   17D
  8
0
  6
CONTINUOUS
 62
     3
 10
-74.6519762134051
 20
24.4364471435547
 30
0.0
 11
-75.4284333698237
 21
21.5386696703442
 31
0.0
  0
LINE
  5
   17E
  8
0
  6
CONTINUOUS
 62
     3
 10
-75.4284333698237
 20
-20.6657753832348
 30
0.0
 11
-74.6519762134051
 21
-23.5635528564453
 31
0.0
  0
LINE
  5
   17F
  8
0
  6
CONTINUOUS
 62
     3
 10
-74.6519762134051
 20
-23.5635528564453
 30
0.0
 11
-73.8755190569866
 21
-20.6657753832348
 31
0.0
  0
ENDBLK
  5
   180
  8
0
  6
CONTINUOUS
 62
     3
  0
BLOCK
  5
   181
  8
0
  6
CONTINUOUS
 62
     3
  2
*UDIM163
 70
    65
 10
0.0
 20
0.0
 30
0.0
  3
*UDIM163
  0
TEXT
  5
   182
  8
0
  6
CONTINUOUS
 62
     3
 10
-25.0681309174506
 20
69.6326014234311
 30
0.0
 40
3.00000002980232
  1
133
 50
359.999999844103
 41
0.933333333333333
 72
     1
 11
-21.1681308746338
 21
71.1326014277403
 31
0.0
 73
     2
  0
LINE
  5
   183
  8
0
  6
CONTINUOUS
 62
     3
 10
-54.4181308746338
 20
24.8114471435547
 30
0.0
 11
-54.4181308746338
 21
70.6326014128391
 31
0.0
  0
LINE
  5
   184
  8
0
  6
CONTINUOUS
 62
     3
 10
12.0818691253662
 20
24.8114471435547
 30
0.0
 11
12.0818691253662
 21
70.6326014128391
 31
0.0
  0
LINE
  5
   185
  8
0
  6
CONTINUOUS
 62
     3
 10
-54.4181308746338
 20
68.6326014128391
 30
0.0
 11
12.0818691253662
 21
68.6326014128391
 31
0.0
  0
LINE
  5
   186
  8
0
  6
CONTINUOUS
 62
     3
 10
-51.5203534014233
 20
69.4090585692577
 30
0.0
 11
-54.4181308746338
 21
68.6326014128391
 31
0.0
  0
LINE
  5
   187
  8
0
  6
CONTINUOUS
 62
     3
 10
-54.4181308746338
 20
68.6326014128391
 30
0.0
 11
-51.5203534014233
 21
67.8561442564206
 31
0.0
  0
LINE
  5
   188
  8
0
  6
CONTINUOUS
 62
     3
 10
9.18409165215568
 20
67.8561442564206
 30
0.0
 11
12.0818691253662
 21
68.6326014128391
 31
0.0
  0
LINE
  5
   189
  8
0
  6
CONTINUOUS
 62
     3
 10
12.0818691253662
 20
68.6326014128391
 30
0.0
 11
9.18409165215568
 21
69.4090585692577
 31
0.0
  0
ENDBLK
  5
   18A
  8
0
  6
CONTINUOUS
 62
     3
  0
BLOCK
  5
   18B
  8
0
  6
CONTINUOUS
 62
     3
  2
*UDIM164
 70
    65
 10
0.0
 20
0.0
 30
0.0
  3
*UDIM164
  0
TEXT
  5
   18C
  8
0
  6
CONTINUOUS
 62
     3
 10
-25.0680760239904
 20
62.332251558465
 30
0.0
 40
3.00000002980232
  1
120
 50
359.999999844103
 41
0.933333333333333
 72
     1
 11
-21.1680759811735
 21
63.8322515627742
 31
0.0
 73
     2
  0
LINE
  5
   18D
  8
0
  6
CONTINUOUS
 62
     3
 10
-51.168070096958
 20
47.4360217285156
 30
0.0
 11
-51.1680657005822
 21
63.3322515478729
 31
0.0
  0
LINE
  5
   18E
  8
0
  6
CONTINUOUS
 62
     3
 10
8.83191357964848
 20
47.4360217285156
 30
0.0
 11
8.83191439380322
 21
63.332251547873
 31
0.0
  0
LINE
  5
   18F
  8
0
  6
CONTINUOUS
 62
     3
 10
-51.1680662537166
 20
61.332251547873
 30
0.0
 11
8.83191429136953
 21
61.332251547873
 31
0.0
  0
LINE
  5
   190
  8
0
  6
CONTINUOUS
 62
     3
 10
-48.2702887805061
 20
62.1087087042915
 30
0.0
 11
-51.1680662537166
 21
61.332251547873
 31
0.0
  0
LINE
  5
   191
  8
0
  6
CONTINUOUS
 62
     3
 10
-51.1680662537166
 20
61.332251547873
 30
0.0
 11
-48.2702887805061
 21
60.5557943914545
 31
0.0
  0
LINE
  5
   192
  8
0
  6
CONTINUOUS
 62
     3
 10
5.93413681815899
 20
60.5557943914545
 30
0.0
 11
8.83191429136953
 21
61.332251547873
 31
0.0
  0
LINE
  5
   193
  8
0
  6
CONTINUOUS
 62
     3
 10
8.83191429136953
 20
61.332251547873
 30
0.0
 11
5.93413681815899
 21
62.1087087042915
 31
0.0
  0
ENDBLK
  5
   194
  8
0
  6
CONTINUOUS
 62
     3
  0
BLOCK
  5
   195
  8
0
  6
CONTINUOUS
 62
     3
  2
*UDIM165
 70
    65
 10
0.0
 20
0.0
 30
0.0
  3
*UDIM165
  0
TEXT
  5
   196
  8
0
  6
CONTINUOUS
 62
     3
 10
-83.3255069127266
 20
2.01102345476651
 30
0.0
 40
3.00000002980232
  1
163
 50
449.999999844103
 41
0.933333333333333
 72
     1
 11
-84.8255069170407
 21
5.91102349758148
 31
0.0
 73
     2
  0
LINE
  5
   197
  8
0
  6
CONTINUOUS
 62
     3
 10
-50.6680703735253
 20
46.9360218048096
 30
0.0
 11
-84.3255069021395
 21
46.9360218048096
 31
0.0
  0
LINE
  5
   198
  8
0
  6
CONTINUOUS
 62
     3
 10
-50.6680580902027
 20
-34.5639781951904
 30
0.0
 11
-84.3255069021395
 21
-34.5639781951904
 31
0.0
  0
LINE
  5
   199
  8
0
  6
CONTINUOUS
 62
     3
 10
-82.3255069021395
 20
46.9360218048096
 30
0.0
 11
-82.3255069021395
 21
-34.5639781951904
 31
0.0
  0
LINE
  5
   19A
  8
0
  6
CONTINUOUS
 62
     3
 10
-81.8045624721878
 20
43.9815985276026
 30
0.0
 11
-82.3255069021395
 21
46.9360218048096
 31
0.0
  0
LINE
  5
   19B
  8
0
  6
CONTINUOUS
 62
     3
 10
-82.3255069021395
 20
46.9360218048096
 30
0.0
 11
-82.8464513320912
 21
43.9815985276026
 31
0.0
  0
LINE
  5
   19C
  8
0
  6
CONTINUOUS
 62
     3
 10
-82.8464513320912
 20
-31.6095549179835
 30
0.0
 11
-82.3255069021395
 21
-34.5639781951904
 31
0.0
  0
LINE
  5
   19D
  8
0
  6
CONTINUOUS
 62
     3
 10
-82.3255069021395
 20
-34.5639781951904
 30
0.0
 11
-81.8045624721878
 21
-31.6095549179835
 31
0.0
  0
ENDBLK
  5
   19E
  8
0
  6
CONTINUOUS
 62
     3
  0
BLOCK
  5
   19F
  8
0
  6
CONTINUOUS
 62
     3
  2
*UDIM166
 70
    65
 10
0.0
 20
0.0
 30
0.0
  3
*UDIM166
  0
TEXT
  5
   1A0
  8
0
  6
CONTINUOUS
 62
     3
 10
22.2380576065862
 20
-19.8389455369117
 30
0.0
 40
3.00000002980232
  1
70
 50
449.999999844103
 41
0.933333333333333
 72
     1
 11
20.7380575984716
 21
-17.3389455080045
 31
0.0
 73
     2
  0
LINE
  5
   1A1
  8
0
  6
CONTINUOUS
 62
     3
 10
11.2198817578178
 20
0.436085879800181
 30
0.0
 11
25.2380576133728
 21
0.436085879800181
 31
0.0
  0
LINE
  5
   1A2
  8
0
  6
CONTINUOUS
 62
     3
 10
8.331901245109
 20
-34.5639781951904
 30
0.0
 11
25.2380576133728
 21
-34.5639781951904
 31
0.0
  0
LINE
  5
   1A3
  8
0
  6
CONTINUOUS
 62
     3
 10
23.2380576133728
 20
0.436085879800181
 30
0.0
 11
23.2380576133728
 21
-34.5639781951904
 31
0.0
  0
LINE
  5
   1A4
  8
0
  6
CONTINUOUS
 62
     3
 10
23.7590020433245
 20
-2.51833739740678
 30
0.0
 11
23.2380576133728
 21
0.436085879800181
 31
0.0
  0
LINE
  5
   1A5
  8
0
  6
CONTINUOUS
 62
     3
 10
23.2380576133728
 20
0.436085879800181
 30
0.0
 11
22.7171131834211
 21
-2.51833739740678
 31
0.0
  0
LINE
  5
   1A6
  8
0
  6
CONTINUOUS
 62
     3
 10
22.7171131834211
 20
-31.6095549179835
 30
0.0
 11
23.2380576133728
 21
-34.5639781951904
 31
0.0
  0
LINE
  5
   1A7
  8
0
  6
CONTINUOUS
 62
     3
 10
23.2380576133728
 20
-34.5639781951904
 30
0.0
 11
23.7590020433245
 21
-31.6095549179835
 31
0.0
  0
ENDBLK
  5
   1A8
  8
0
  6
CONTINUOUS
 62
     3
  0
BLOCK
  5
   1A9
  8
0
  6
CONTINUOUS
 62
     3
  2
*UDIM167
 70
    65
 10
0.0
 20
0.0
 30
0.0
  3
*UDIM167
  0
TEXT
  5
   1AA
  8
0
  6
CONTINUOUS
 62
     3
 10
-67.9495573111689
 20
-2.33891406565756
 30
0.0
 40
3.00000002980232
  1
45
 50
449.999999844103
 41
0.933333333333333
 72
     1
 11
-69.4495573192835
 21
0.161085963249654
 31
0.0
 73
     2
  0
TEXT
  5
   1AB
  8
0
  6
CONTINUOUS
 62
     3
 10
-63.9495572889675
 20
-5.13891409347306
 30
0.0
 40
3.00000002980232
  1
=  =
 50
449.999999844103
 41
0.933333333333333
 72
     1
 11
-65.4495572894812
 21
0.161085963249654
 31
0.0
 73
     2
  0
LINE
  5
   1AC
  8
0
  6
CONTINUOUS
 62
     3
 10
-51.168065071107
 20
11.6860858798002
 30
0.0
 11
-68.9495573043823
 21
11.6860858798002
 31
0.0
  0
LINE
  5
   1AD
  8
0
  6
CONTINUOUS
 62
     3
 10
-51.1680616378801
 20
-10.8139141201939
 30
0.0
 11
-68.9495573043823
 21
-10.8139141201939
 31
0.0
  0
LINE
  5
   1AE
  8
0
  6
CONTINUOUS
 62
     3
 10
-66.9495573043823
 20
11.6860858798002
 30
0.0
 11
-66.9495573043823
 21
-10.8139141201939
 31
0.0
  0
LINE
  5
   1AF
  8
0
  6
CONTINUOUS
 62
     3
 10
-66.4286128744307
 20
8.73166260259322
 30
0.0
 11
-66.9495573043823
 21
11.6860858798002
 31
0.0
  0
LINE
  5
   1B0
  8
0
  6
CONTINUOUS
 62
     3
 10
-66.9495573043823
 20
11.6860858798002
 30
0.0
 11
-67.470501734334
 21
8.73166260259322
 31
0.0
  0
LINE
  5
   1B1
  8
0
  6
CONTINUOUS
 62
     3
 10
-67.470501734334
 20
-7.85949084298692
 30
0.0
 11
-66.9495573043823
 21
-10.8139141201939
 31
0.0
  0
LINE
  5
   1B2
  8
0
  6
CONTINUOUS
 62
     3
 10
-66.9495573043823
 20
-10.8139141201939
 30
0.0
 11
-66.4286128744307
 21
-7.85949084298692
 31
0.0
  0
ENDBLK
  5
   1B3
  8
0
  6
CONTINUOUS
 62
     3
  0
BLOCK
  5
   1B4
  8
0
  6
CONTINUOUS
 62
     3
  2
*UDIM168
 70
    65
 10
0.0
 20
0.0
 30
0.0
  3
*UDIM168
  0
TEXT
  5
   1B5
  8
0
  6
CONTINUOUS
 62
     3
 10
247.518878691295
 20
-4.05344261987366
 30
0.0
 40
3.00000002980232
  1
128
 50
359.999999844103
 41
0.933333333333333
 72
     1
 11
251.418878734112
 21
-2.55344261556446
 31
0.0
 73
     2
  0
LINE
  5
   1B6
  8
0
  6
CONTINUOUS
 62
     3
 10
219.693878173828
 20
-5.05344263046562
 30
0.0
 11
283.693878173828
 21
-5.05344263046562
 31
0.0
  0
LINE
  5
   1B7
  8
0
  6
CONTINUOUS
 62
     3
 10
222.648301451035
 20
-4.53249820051395
 30
0.0
 11
219.693878173828
 21
-5.05344263046562
 31
0.0
  0
LINE
  5
   1B8
  8
0
  6
CONTINUOUS
 62
     3
 10
219.693878173828
 20
-5.05344263046562
 30
0.0
 11
222.648301451035
 21
-5.57438706041728
 31
0.0
  0
LINE
  5
   1B9
  8
0
  6
CONTINUOUS
 62
     3
 10
280.739454896621
 20
-5.57438706041728
 30
0.0
 11
283.693878173828
 21
-5.05344263046562
 31
0.0
  0
LINE
  5
   1BA
  8
0
  6
CONTINUOUS
 62
     3
 10
283.693878173828
 20
-5.05344263046562
 30
0.0
 11
280.739454896621
 21
-4.53249820051395
 31
0.0
  0
ENDBLK
  5
   1BB
  8
0
  6
CONTINUOUS
 62
     3
  0
BLOCK
  5
   1BC
  8
0
  6
CONTINUOUS
 62
     3
  2
*UDIM169
 70
    65
 10
0.0
 20
0.0
 30
0.0
  3
*UDIM169
  0
TEXT
  5
   1BD
  8
0
  6
CONTINUOUS
 62
     3
 10
295.311416836949
 20
-2.33896669655934
 30
0.0
 40
3.00000002980232
  1
53
 50
449.999999844103
 41
0.933333333333333
 72
     1
 11
293.811416828835
 21
0.16103333234787
 31
0.0
 73
     2
  0
LINE
  5
   1BE
  8
0
  6
CONTINUOUS
 62
     3
 10
282.943878173828
 20
13.6860332489014
 30
0.0
 11
298.311416843736
 21
13.6860332489014
 31
0.0
  0
LINE
  5
   1BF
  8
0
  6
CONTINUOUS
 62
     3
 10
282.943878173828
 20
-12.8139667510986
 30
0.0
 11
298.311416843736
 21
-12.8139667510986
 31
0.0
  0
LINE
  5
   1C0
  8
0
  6
CONTINUOUS
 62
     3
 10
296.311416843736
 20
13.6860332489014
 30
0.0
 11
296.311416843736
 21
-12.8139667510986
 31
0.0
  0
LINE
  5
   1C1
  8
0
  6
CONTINUOUS
 62
     3
 10
296.832361273688
 20
10.7316099716944
 30
0.0
 11
296.311416843736
 21
13.6860332489014
 31
0.0
  0
LINE
  5
   1C2
  8
0
  6
CONTINUOUS
 62
     3
 10
296.311416843736
 20
13.6860332489014
 30
0.0
 11
295.790472413784
 21
10.7316099716944
 31
0.0
  0
LINE
  5
   1C3
  8
0
  6
CONTINUOUS
 62
     3
 10
295.790472413784
 20
-9.85954347389167
 30
0.0
 11
296.311416843736
 21
-12.8139667510986
 31
0.0
  0
LINE
  5
   1C4
  8
0
  6
CONTINUOUS
 62
     3
 10
296.311416843736
 20
-12.8139667510986
 30
0.0
 11
296.832361273688
 21
-9.85954347389167
 31
0.0
  0
ENDBLK
  5
   1C5
  8
0
  6
CONTINUOUS
 62
     3
  0
BLOCK
  5
   1C6
  8
0
  6
CONTINUOUS
 62
     3
  2
*UDIM170
 70
    65
 10
0.0
 20
0.0
 30
0.0
  3
*UDIM170
  0
TEXT
  5
   1C7
  8
0
  6
CONTINUOUS
 62
     3
 10
269.056934017836
 20
-25.1360104650794
 30
0.0
 40
3.00000002980232
  1
48
 50
359.999999844103
 41
0.933333333333333
 72
     1
 11
271.556934046745
 21
-23.636010456968
 31
0.0
 73
     2
  0
LINE
  5
   1C8
  8
0
  6
CONTINUOUS
 62
     3
 10
259.193878173828
 20
-19.4795241095918
 30
0.0
 11
259.193878173828
 21
-28.1360104718691
 31
0.0
  0
LINE
  5
   1C9
  8
0
  6
CONTINUOUS
 62
     3
 10
283.168878173828
 20
-21.0639667510986
 30
0.0
 11
283.168878173828
 21
-28.1360104718691
 31
0.0
  0
LINE
  5
   1CA
  8
0
  6
CONTINUOUS
 62
     3
 10
259.193878173828
 20
-26.1360104718691
 30
0.0
 11
283.168878173828
 21
-26.1360104718691
 31
0.0
  0
LINE
  5
   1CB
  8
0
  6
CONTINUOUS
 62
     3
 10
262.091655647039
 20
-25.3595533154506
 30
0.0
 11
259.193878173828
 21
-26.1360104718691
 31
0.0
  0
LINE
  5
   1CC
  8
0
  6
CONTINUOUS
 62
     3
 10
259.193878173828
 20
-26.1360104718691
 30
0.0
 11
262.091655647039
 21
-26.9124676282877
 31
0.0
  0
LINE
  5
   1CD
  8
0
  6
CONTINUOUS
 62
     3
 10
280.271100700618
 20
-26.9124676282877
 30
0.0
 11
283.168878173828
 21
-26.1360104718691
 31
0.0
  0
LINE
  5
   1CE
  8
0
  6
CONTINUOUS
 62
     3
 10
283.168878173828
 20
-26.1360104718691
 30
0.0
 11
280.271100700618
 21
-25.3595533154506
 31
0.0
  0
ENDBLK
  5
   1CF
  8
0
  6
CONTINUOUS
 62
     3
  0
BLOCK
  5
   1D0
  8
0
  6
CONTINUOUS
 62
     3
  2
*UDIM171
 70
    65
 10
0.0
 20
0.0
 30
0.0
  3
*UDIM171
  0
TEXT
  5
   1D1
  8
0
  6
CONTINUOUS
 62
     3
 10
245.754724753796
 20
-37.1006771347041
 30
0.0
 40
3.00000002980232
  1
125.5
 50
359.999999844103
 41
0.933333333333333
 72
     1
 11
252.454724824429
 21
-35.6006771379993
 31
0.0
 73
     2
  0
LINE
  5
   1D2
  8
0
  6
CONTINUOUS
 62
     3
 10
220.418878173828
 20
-21.0639667510986
 30
0.0
 11
220.418878173828
 21
-40.1006771529005
 31
0.0
  0
LINE
  5
   1D3
  8
0
  6
CONTINUOUS
 62
     3
 10
283.168878173828
 20
-21.0639667510986
 30
0.0
 11
283.168878173828
 21
-40.1006771529005
 31
0.0
  0
LINE
  5
   1D4
  8
0
  6
CONTINUOUS
 62
     3
 10
220.418878173828
 20
-38.1006771529005
 30
0.0
 11
283.168878173828
 21
-38.1006771529005
 31
0.0
  0
LINE
  5
   1D5
  8
0
  6
CONTINUOUS
 62
     3
 10
223.316655647039
 20
-37.324219996482
 30
0.0
 11
220.418878173828
 21
-38.1006771529005
 31
0.0
  0
LINE
  5
   1D6
  8
0
  6
CONTINUOUS
 62
     3
 10
220.418878173828
 20
-38.1006771529005
 30
0.0
 11
223.316655647039
 21
-38.877134309319
 31
0.0
  0
LINE
  5
   1D7
  8
0
  6
CONTINUOUS
 62
     3
 10
280.271100700618
 20
-38.877134309319
 30
0.0
 11
283.168878173828
 21
-38.1006771529005
 31
0.0
  0
LINE
  5
   1D8
  8
0
  6
CONTINUOUS
 62
     3
 10
283.168878173828
 20
-38.1006771529005
 30
0.0
 11
280.271100700618
 21
-37.324219996482
 31
0.0
  0
ENDBLK
  5
   1D9
  8
0
  6
CONTINUOUS
 62
     3
  0
BLOCK
  5
   1DA
  8
0
  6
CONTINUOUS
 62
     3
  2
*UDIM172
 70
    65
 10
0.0
 20
0.0
 30
0.0
  3
*UDIM172
  0
TEXT
  5
   1DB
  8
0
  6
CONTINUOUS
 62
     3
 10
205.328871901331
 20
-2.10745644479886
 30
0.0
 40
3.00000002980232
  1
64
 50
449.999999844103
 41
0.933333333333333
 72
     1
 11
203.828871893216
 21
0.392543584108353
 31
0.0
 73
     2
  0
LINE
  5
   1DC
  8
0
  6
CONTINUOUS
 62
     3
 10
214.918878173828
 20
16.4360332489014
 30
0.0
 11
204.328871908117
 21
16.4360332489014
 31
0.0
  0
LINE
  5
   1DD
  8
0
  6
CONTINUOUS
 62
     3
 10
214.918878173828
 20
-15.5639667510986
 30
0.0
 11
204.328871908117
 21
-15.5639667510986
 31
0.0
  0
LINE
  5
   1DE
  8
0
  6
CONTINUOUS
 62
     3
 10
206.328871908117
 20
16.4360332489014
 30
0.0
 11
206.328871908117
 21
-15.5639667510986
 31
0.0
  0
LINE
  5
   1DF
  8
0
  6
CONTINUOUS
 62
     3
 10
207.105329064536
 20
13.5382557756908
 30
0.0
 11
206.328871908117
 21
16.4360332489014
 31
0.0
  0
LINE
  5
   1E0
  8
0
  6
CONTINUOUS
 62
     3
 10
206.328871908117
 20
16.4360332489014
 30
0.0
 11
205.552414751699
 21
13.5382557756908
 31
0.0
  0
LINE
  5
   1E1
  8
0
  6
CONTINUOUS
 62
     3
 10
205.552414751699
 20
-12.6661892778881
 30
0.0
 11
206.328871908117
 21
-15.5639667510986
 31
0.0
  0
LINE
  5
   1E2
  8
0
  6
CONTINUOUS
 62
     3
 10
206.328871908117
 20
-15.5639667510986
 30
0.0
 11
207.105329064536
 21
-12.6661892778881
 31
0.0
  0
ENDBLK
  5
   1E3
  8
0
  6
CONTINUOUS
 62
     3
  0
BLOCK
  5
   1E4
  8
0
  6
CONTINUOUS
 62
     3
  2
*UDIM173
 70
    65
 10
0.0
 20
0.0
 30
0.0
  3
*UDIM173
  0
TEXT
  5
   1E5
  8
0
  6
CONTINUOUS
 62
     3
 10
268.668878228366
 20
30.5158386298366
 30
0.0
 40
3.00000002980232
  1
49
 50
359.999999844103
 41
0.933333333333333
 72
     1
 11
271.168878257275
 21
32.015838637948
 31
0.0
 73
     2
  0
LINE
  5
   1E6
  8
0
  6
CONTINUOUS
 62
     3
 10
259.193878173828
 20
19.2786998646765
 30
0.0
 11
259.193878173828
 21
31.5158386230469
 31
0.0
  0
LINE
  5
   1E7
  8
0
  6
CONTINUOUS
 62
     3
 10
283.693878173828
 20
12.9360332489014
 30
0.0
 11
283.693878173828
 21
31.5158386230469
 31
0.0
  0
LINE
  5
   1E8
  8
0
  6
CONTINUOUS
 62
     3
 10
259.193878173828
 20
29.5158386230469
 30
0.0
 11
283.693878173828
 21
29.5158386230469
 31
0.0
  0
LINE
  5
   1E9
  8
0
  6
CONTINUOUS
 62
     3
 10
262.148301451035
 20
30.0367830529985
 30
0.0
 11
259.193878173828
 21
29.5158386230469
 31
0.0
  0
LINE
  5
   1EA
  8
0
  6
CONTINUOUS
 62
     3
 10
259.193878173828
 20
29.5158386230469
 30
0.0
 11
262.148301451035
 21
28.9948941930952
 31
0.0
  0
LINE
  5
   1EB
  8
0
  6
CONTINUOUS
 62
     3
 10
280.739454896621
 20
28.9948941930952
 30
0.0
 11
283.693878173828
 21
29.5158386230469
 31
0.0
  0
LINE
  5
   1EC
  8
0
  6
CONTINUOUS
 62
     3
 10
283.693878173828
 20
29.5158386230469
 30
0.0
 11
280.739454896621
 21
30.0367830529985
 31
0.0
  0
ENDBLK
  5
   1ED
  8
0
  6
CONTINUOUS
 62
     3
  0
BLOCK
  5
   1EE
  8
0
  6
CONTINUOUS
 62
     3
  2
*UDIM174
 70
    65
 10
0.0
 20
0.0
 30
0.0
  3
*UDIM174
  0
TEXT
  5
   1EF
  8
0
  6
CONTINUOUS
 62
     3
 10
226.963159214569
 20
24.3486713863962
 30
0.0
 40
3.00000002980232
  1
4
 50
404.818233515836
 41
0.933333333333334
 72
     1
 11
226.68615034271
 21
26.188037079687
 31
0.0
 73
     2
  0
TEXT
  5
   1F0
  8
0
  6
CONTINUOUS
 62
     3
 10
225.012456553813
 20
22.4103065261057
 30
0.0
 40
3.00000002980232
  1
Ø
 50
404.818233515836
 41
0.933333333333334
 72
     1
 11
224.735447681954
 21
24.2496722193965
 31
0.0
 73
     2
  0
LINE
  5
   1F1
  8
0
  6
CONTINUOUS
 62
     3
 10
229.228581432349
 20
25.1900169130657
 30
0.0
 11
219.709531714323
 21
15.7311732625297
 31
0.0
  0
LINE
  5
   1F2
  8
0
  6
CONTINUOUS
 62
     3
 10
222.856741441103
 20
19.5928780731661
 30
0.0
 11
221.128224633333
 21
17.140893235273
 31
0.0
  0
LINE
  5
   1F3
  8
0
  6
CONTINUOUS
 62
     3
 10
221.128224633333
 20
17.140893235273
 30
0.0
 11
223.591127208695
 21
18.8538178991961
 31
0.0
  0
LINE
  5
   1F4
  8
0
  6
CONTINUOUS
 62
     3
 10
217.981014906554
 20
13.2791884246366
 30
0.0
 11
219.709531714323
 21
15.7311732625297
 31
0.0
  0
LINE
  5
   1F5
  8
0
  6
CONTINUOUS
 62
     3
 10
219.709531714323
 20
15.7311732625297
 30
0.0
 11
217.246629138961
 21
14.0182485986067
 31
0.0
  0
ENDBLK
  5
   1F6
  8
0
  6
CONTINUOUS
 62
     3
  0
BLOCK
  5
   1F7
  8
0
  6
CONTINUOUS
 62
     7
  2
*UDIM175
 70
    65
 10
0.0
 20
0.0
 30
0.0
  3
*UDIM175
  0
TEXT
  5
   1F8
  8
0
  6
CONTINUOUS
 62
     7
 10
273.161618855378
 20
5.44886268245525
 30
0.0
 40
3.00000002980232
  1
1.5
 50
402.08605915353
 41
0.933333333333333
 72
     1
 11
275.050591652343
 21
9.17603079232439
 31
0.0
 73
     2
  0
TEXT
  5
   1F9
  8
0
  6
CONTINUOUS
 62
     7
 10
270.193063073031
 20
2.76787838456902
 30
0.0
 40
3.00000002980232
  1
R
 50
402.08605915353
 41
1.2
 72
     1
 11
270.300902389176
 21
4.88645591944954
 31
0.0
 73
     2
  0
LINE
  5
   1FA
  8
0
  6
CONTINUOUS
 62
     7
 10
283.50048237969
 20
13.438717800103
 30
0.0
 11
270.863309147052
 21
2.02573944312686
 31
0.0
  0
LINE
  5
   1FB
  8
0
  6
CONTINUOUS
 62
     3
 10
281.870346230304
 20
10.9202547500535
 30
0.0
 11
283.50048237969
 21
13.438717800103
 31
0.0
  0
LINE
  5
   1FC
  8
0
  6
CONTINUOUS
 62
     3
 10
283.50048237969
 20
13.438717800103
 30
0.0
 11
280.829511517767
 21
12.0727329338781
 31
0.0
  0
ENDBLK
  5
   1FD
  8
0
  6
CONTINUOUS
 62
     7
  0
ENDSEC
  0
SECTION
  2
ENTITIES
  0
LINE
  5
   1FE
  8
0
  6
CONTINUOUS
 62
   130
 10
114.255393981934
 20
-34.5639781951904
 30
0.0
 11
137.755393981934
 21
-34.5639781951904
 31
0.0
  0
LINE
  5
   1FF
  8
0
  6
CONTINUOUS
 62
   130
 10
114.255401134491
 20
-4.45777581233282
 30
0.0
 11
114.255401134491
 21
0.629355430603027
 31
0.0
  0
LINE
  5
   200
  8
0
  6
CONTINUOUS
 62
   130
 10
134.255393981934
 20
-34.5639781951904
 30
0.0
 11
134.255393981934
 21
-32.5639751434326
 31
0.0
  0
LINE
  5
   201
  8
0
  6
CONTINUOUS
 62
   130
 10
114.255401134491
 20
0.629355430603028
 30
0.0
 11
114.505401134491
 21
0.629355430603028
 31
0.0
  0
LINE
  5
   202
  8
0
  6
CONTINUOUS
 62
   130
 10
114.255401134491
 20
-5.37064170837402
 30
0.0
 11
114.505401134491
 21
-5.37064170837402
 31
0.0
  0
LINE
  5
   203
  8
0
  6
CONTINUOUS
 62
   130
 10
114.255401134491
 20
13.8063569011139
 30
0.0
 11
114.255401134491
 21
18.2426853179932
 31
0.0
  0
LINE
  5
   204
  8
0
  6
CONTINUOUS
 62
   130
 10
134.255393981934
 20
33.8703547267192
 30
0.0
 11
134.255393981934
 21
47.4360218048096
 31
0.0
  0
LINE
  5
   205
  8
0
  6
CONTINUOUS
 62
   130
 10
114.255401134491
 20
12.2426881790161
 30
0.0
 11
114.505401134491
 21
12.2426881790161
 31
0.0
  0
LINE
  5
   206
  8
0
  6
CONTINUOUS
 62
   130
 10
114.255401134491
 20
18.2426853179932
 30
0.0
 11
114.505401134491
 21
18.2426853179932
 31
0.0
  0
LINE
  5
   207
  8
0
  6
CONTINUOUS
 62
   130
 10
110.255401134491
 20
37.436014175415
 30
0.0
 11
114.255393981934
 21
37.436014175415
 31
0.0
  0
LINE
  5
   208
  8
0
  6
CONTINUOUS
 62
   130
 10
110.255401134491
 20
-24.5639705657959
 30
0.0
 11
114.255393981934
 21
-24.5639705657959
 31
0.0
  0
LINE
  5
   209
  8
0
  6
DASHDOT
 62
   130
 10
104.141380354692
 20
15.2426867485046
 30
0.0
 11
117.629472552593
 21
15.2426867485046
 31
0.0
  0
LINE
  5
   20A
  8
0
  6
DASHDOT
 62
   130
 10
105.562060611612
 20
-2.3706431388855
 30
0.0
 11
118.181370626778
 21
-2.3706431388855
 31
0.0
  0
LINE
  5
   20B
  8
0
  6
CONTINUOUS
 62
   130
 10
110.255401134491
 20
26.9598836718071
 30
0.0
 11
110.255401134491
 21
37.4360139211019
 31
0.0
  0
LINE
  5
   20C
  8
0
  6
CONTINUOUS
 62
   130
 10
110.255401134491
 20
-15.5639705657959
 30
0.0
 11
110.255401134491
 21
-13.5639703114828
 31
0.0
  0
LINE
  5
   20D
  8
0
  6
CONTINUOUS
 62
   130
 10
134.255393981934
 20
-26.067250164668
 30
0.0
 11
134.255393981934
 21
35.486014175415
 31
0.0
  0
LINE
  5
   20E
  8
0
  6
CONTINUOUS
 62
   130
 10
110.255401134491
 20
26.436014175415
 30
0.0
 11
114.255393981934
 21
26.436014175415
 31
0.0
  0
LINE
  5
   20F
  8
0
  6
CONTINUOUS
 62
   130
 10
110.255401134491
 20
-13.5639703114828
 30
0.0
 11
114.255393981934
 21
-13.5639703114828
 31
0.0
  0
LINE
  5
   210
  8
0
  6
DASHDOT
 62
   130
 10
106.487441932699
 20
-29.5639781951904
 30
0.0
 11
121.955177741614
 21
-29.5639781951904
 31
0.0
  0
LINE
  5
   211
  8
0
  6
CONTINUOUS
 62
   130
 10
109.255401134491
 20
45.4360218048096
 30
0.0
 11
113.505393981934
 21
45.4360218048096
 31
0.0
  0
LINE
  5
   212
  8
0
  6
CONTINUOUS
 62
   130
 10
109.255401134491
 20
39.4360218048096
 30
0.0
 11
113.505393981934
 21
39.4360218048096
 31
0.0
  0
LINE
  5
   213
  8
0
  6
CONTINUOUS
 62
   130
 10
109.255401134491
 20
-26.5639781951904
 30
0.0
 11
113.505393981934
 21
-26.5639781951904
 31
0.0
  0
LINE
  5
   214
  8
0
  6
CONTINUOUS
 62
   130
 10
109.255401134491
 20
-32.5639781951904
 30
0.0
 11
113.505393981934
 21
-32.5639781951904
 31
0.0
  0
LINE
  5
   215
  8
0
  6
CONTINUOUS
 62
   130
 10
109.255401134491
 20
39.4360218048096
 30
0.0
 11
109.255401134491
 21
45.4360218048096
 31
0.0
  0
LINE
  5
   216
  8
0
  6
CONTINUOUS
 62
   130
 10
109.255401134491
 20
-32.5639781951904
 30
0.0
 11
109.255401134491
 21
-26.5639781951904
 31
0.0
  0
LINE
  5
   217
  8
0
  6
CONTINUOUS
 62
   130
 10
114.255393981934
 20
22.436012828391
 30
0.0
 11
114.255393981934
 21
26.436014175415
 31
0.0
  0
LINE
  5
   218
  8
0
  6
CONTINUOUS
 62
   130
 10
114.255393981934
 20
-26.9109297903315
 30
0.0
 11
114.255393981934
 21
-9.56397031148276
 31
0.0
  0
LINE
  5
   219
  8
0
  6
CONTINUOUS
 62
   130
 10
114.505401134491
 20
18.2426853179932
 30
0.0
 11
114.505401134491
 21
22.436012828391
 31
0.0
  0
LINE
  5
   21A
  8
0
  6
CONTINUOUS
 62
   130
 10
114.255393981934
 20
24.2789100624938
 30
0.0
 11
114.255393981934
 21
47.4360218048096
 31
0.0
  0
ARC
  5
   21B
  8
0
  6
CONTINUOUS
 62
   130
 10
113.505393981934
 20
46.1860218048096
 30
0.0
 40
0.75
 50
270.0
 51
360.0
  0
ARC
  5
   21C
  8
0
  6
CONTINUOUS
 62
   130
 10
113.505393981934
 20
38.6860218048096
 30
0.0
 40
0.75
 50
360.0
 51
450.0
  0
LINE
  5
   21D
  8
0
  6
CONTINUOUS
 62
   130
 10
114.255393981934
 20
-34.5639781951904
 30
0.0
 11
114.255393981934
 21
-24.5639705657959
 31
0.0
  0
ARC
  5
   21E
  8
0
  6
CONTINUOUS
 62
   130
 10
113.505393981934
 20
-25.8139781951904
 30
0.0
 40
0.75
 50
270.0
 51
360.0
  0
ARC
  5
   21F
  8
0
  6
CONTINUOUS
 62
   130
 10
113.505393981934
 20
-33.3139781951904
 30
0.0
 40
0.75
 50
360.0
 51
450.0
  0
LINE
  5
   220
  8
0
  6
CONTINUOUS
 62
   130
 10
110.255401134491
 20
26.436014175415
 30
0.0
 11
110.255401134491
 21
28.436014175415
 31
0.0
  0
LINE
  5
   221
  8
0
  6
CONTINUOUS
 62
   130
 10
110.255401134491
 20
-24.563970820109
 30
0.0
 11
110.255401134491
 21
-15.433011525459
 31
0.0
  0
LINE
  5
   222
  8
0
  6
CONTINUOUS
 62
   130
 10
134.255393981934
 20
47.4360218048096
 30
0.0
 11
135.255393981934
 21
47.4360218048096
 31
0.0
  0
LINE
  5
   223
  8
0
  6
CONTINUOUS
 62
   130
 10
134.255393981934
 20
-34.5639781951904
 30
0.0
 11
135.255393981934
 21
-34.5639781951904
 31
0.0
  0
LINE
  5
   224
  8
0
  6
DASHDOT
 62
   130
 10
133.655393981934
 20
23.886014175415
 30
0.0
 11
133.905393981934
 21
23.886014175415
 31
0.0
  0
LINE
  5
   225
  8
0
  6
CONTINUOUS
 62
   130
 10
114.505401134491
 20
0.629355430603028
 30
0.0
 11
114.505401134491
 21
12.2426881790161
 31
0.0
  0
LINE
  5
   226
  8
0
  6
CONTINUOUS
 62
   130
 10
114.505401134491
 20
-9.56397031148276
 30
0.0
 11
114.505401134491
 21
-5.37064170837402
 31
0.0
  0
LINE
  5
   227
  8
0
  6
DASHDOT
 62
   130
 10
108.124492581049
 20
-19.0689110565186
 30
0.0
 11
120.664229095408
 21
-19.0689110565186
 31
0.0
  0
LINE
  5
   228
  8
0
  6
DASHDOT
 62
   130
 10
104.449178742563
 20
31.936014175415
 30
0.0
 11
136.283997981522
 21
31.936014175415
 31
0.0
  0
LINE
  5
   229
  8
0
  6
CONTINUOUS
 62
   130
 10
134.255393981934
 20
-33.4271512804013
 30
0.0
 11
134.255393981934
 21
-24.2299561810182
 31
0.0
  0
LINE
  5
   22A
  8
0
  6
CONTINUOUS
 62
   130
 10
113.255401134491
 20
12.7926867485046
 30
0.0
 11
113.255401134491
 21
17.6926867485046
 31
0.0
  0
LINE
  5
   22B
  8
0
  6
CONTINUOUS
 62
   130
 10
112.855401134491
 20
12.7926867485046
 30
0.0
 11
112.855401134491
 21
17.6926867485046
 31
0.0
  0
LINE
  5
   22C
  8
0
  6
CONTINUOUS
 62
   130
 10
111.355401134491
 20
13.2926867485046
 30
0.0
 11
111.355401134491
 21
17.1926867485046
 31
0.0
  0
LINE
  5
   22D
  8
0
  6
CONTINUOUS
 62
   130
 10
109.505393981934
 20
16.2426867485046
 30
0.0
 11
111.355401134491
 21
16.2426867485046
 31
0.0
  0
LINE
  5
   22E
  8
0
  6
CONTINUOUS
 62
   130
 10
109.505393981934
 20
14.2426867485046
 30
0.0
 11
111.355401134491
 21
14.2426867485046
 31
0.0
  0
LINE
  5
   22F
  8
0
  6
CONTINUOUS
 62
   130
 10
114.255401134491
 20
12.2426881790161
 30
0.0
 11
114.255401134491
 21
14.2426867485046
 31
0.0
  0
LINE
  5
   230
  8
0
  6
CONTINUOUS
 62
   130
 10
111.355401134491
 20
17.1926867485046
 30
0.0
 11
112.855401134491
 21
17.1926867485046
 31
0.0
  0
LINE
  5
   231
  8
0
  6
CONTINUOUS
 62
   130
 10
111.355401134491
 20
13.2926867485046
 30
0.0
 11
112.855401134491
 21
13.2926867485046
 31
0.0
  0
LINE
  5
   232
  8
0
  6
CONTINUOUS
 62
   130
 10
112.855401134491
 20
17.6926867485046
 30
0.0
 11
113.255401134491
 21
17.6926867485046
 31
0.0
  0
LINE
  5
   233
  8
0
  6
CONTINUOUS
 62
   130
 10
112.855401134491
 20
12.7926867485046
 30
0.0
 11
113.255401134491
 21
12.7926867485046
 31
0.0
  0
LINE
  5
   234
  8
0
  6
CONTINUOUS
 62
   130
 10
111.355401134491
 20
16.2426867485046
 30
0.0
 11
112.855401134491
 21
16.2426867485046
 31
0.0
  0
LINE
  5
   235
  8
0
  6
CONTINUOUS
 62
   130
 10
111.355401134491
 20
14.2426867485046
 30
0.0
 11
112.855401134491
 21
14.2426867485046
 31
0.0
  0
LINE
  5
   236
  8
0
  6
CONTINUOUS
 62
   130
 10
109.255393981934
 20
14.4926867485046
 30
0.0
 11
109.255393981934
 21
15.9926867485046
 31
0.0
  0
LINE
  5
   237
  8
0
  6
CONTINUOUS
 62
   130
 10
109.255393981934
 20
15.9926867485046
 30
0.0
 11
109.505393981934
 21
16.2426867485046
 31
0.0
  0
LINE
  5
   238
  8
0
  6
CONTINUOUS
 62
   130
 10
109.255393981934
 20
14.4926867485046
 30
0.0
 11
109.505393981934
 21
14.2426867485046
 31
0.0
  0
LINE
  5
   239
  8
0
  6
CONTINUOUS
 62
   130
 10
109.505393981934
 20
14.2426867485046
 30
0.0
 11
109.505393981934
 21
16.2426867485046
 31
0.0
  0
LINE
  5
   23A
  8
0
  6
CONTINUOUS
 62
   130
 10
111.355401134491
 20
-3.3706431388855
 30
0.0
 11
112.855401134491
 21
-3.3706431388855
 31
0.0
  0
LINE
  5
   23B
  8
0
  6
CONTINUOUS
 62
   130
 10
111.355401134491
 20
-1.3706431388855
 30
0.0
 11
112.855401134491
 21
-1.3706431388855
 31
0.0
  0
LINE
  5
   23C
  8
0
  6
CONTINUOUS
 62
   130
 10
111.355401134491
 20
-4.3206431388855
 30
0.0
 11
112.855401134491
 21
-4.3206431388855
 31
0.0
  0
LINE
  5
   23D
  8
0
  6
CONTINUOUS
 62
   130
 10
111.355401134491
 20
-0.420643138885497
 30
0.0
 11
112.855401134491
 21
-0.420643138885497
 31
0.0
  0
LINE
  5
   23E
  8
0
  6
CONTINUOUS
 62
   130
 10
109.505393981934
 20
-3.3706431388855
 30
0.0
 11
111.355401134491
 21
-3.3706431388855
 31
0.0
  0
LINE
  5
   23F
  8
0
  6
CONTINUOUS
 62
   130
 10
109.505393981934
 20
-1.3706431388855
 30
0.0
 11
111.355401134491
 21
-1.3706431388855
 31
0.0
  0
LINE
  5
   240
  8
0
  6
CONTINUOUS
 62
   130
 10
113.255401134491
 20
-4.8206431388855
 30
0.0
 11
113.255401134491
 21
7.93568611145035E-2
 31
0.0
  0
LINE
  5
   241
  8
0
  6
CONTINUOUS
 62
   130
 10
112.855401134491
 20
-4.8206431388855
 30
0.0
 11
112.855401134491
 21
7.93568611145035E-2
 31
0.0
  0
LINE
  5
   242
  8
0
  6
CONTINUOUS
 62
   130
 10
112.855401134491
 20
-4.8206431388855
 30
0.0
 11
113.255401134491
 21
-4.8206431388855
 31
0.0
  0
LINE
  5
   243
  8
0
  6
CONTINUOUS
 62
   130
 10
112.855401134491
 20
7.93568611145035E-2
 30
0.0
 11
113.255401134491
 21
7.93568611145035E-2
 31
0.0
  0
LINE
  5
   244
  8
0
  6
CONTINUOUS
 62
   130
 10
111.355401134491
 20
-4.3206431388855
 30
0.0
 11
111.355401134491
 21
-0.420643138885497
 31
0.0
  0
LINE
  5
   245
  8
0
  6
CONTINUOUS
 62
   130
 10
109.505393981934
 20
-3.3706431388855
 30
0.0
 11
109.505393981934
 21
-1.3706431388855
 31
0.0
  0
LINE
  5
   246
  8
0
  6
CONTINUOUS
 62
   130
 10
109.255393981934
 20
-3.1206431388855
 30
0.0
 11
109.255393981934
 21
-1.6206431388855
 31
0.0
  0
LINE
  5
   247
  8
0
  6
CONTINUOUS
 62
   130
 10
109.505393981934
 20
-3.3706431388855
 30
0.0
 11
109.505393981934
 21
-1.3706431388855
 31
0.0
  0
LINE
  5
   248
  8
0
  6
CONTINUOUS
 62
   130
 10
109.505393981934
 20
-3.3706431388855
 30
0.0
 11
109.505393981934
 21
-1.3706431388855
 31
0.0
  0
LINE
  5
   249
  8
0
  6
CONTINUOUS
 62
   130
 10
109.255393981934
 20
-3.1206431388855
 30
0.0
 11
109.505393981934
 21
-3.37064313888549
 31
0.0
  0
LINE
  5
   24A
  8
0
  6
CONTINUOUS
 62
   130
 10
109.255393981934
 20
-3.1206431388855
 30
0.0
 11
109.505393981934
 21
-3.37064313888549
 31
0.0
  0
LINE
  5
   24B
  8
0
  6
CONTINUOUS
 62
   130
 10
109.255393981934
 20
-1.62064313888549
 30
0.0
 11
109.505393981934
 21
-1.37064313888549
 31
0.0
  0
LINE
  5
   24C
  8
0
  6
CONTINUOUS
 62
   130
 10
109.505393981934
 20
-3.1206431388855
 30
0.0
 11
111.355401134491
 21
-3.1206431388855
 31
0.0
  0
LINE
  5
   24D
  8
0
  6
CONTINUOUS
 62
   130
 10
109.505393981934
 20
-1.6206431388855
 30
0.0
 11
111.355401134491
 21
-1.6206431388855
 31
0.0
  0
LINE
  5
   24E
  8
0
  6
CONTINUOUS
 62
   130
 10
114.255401134491
 20
-5.37064170837402
 30
0.0
 11
114.255401134491
 21
-3.3706431388855
 31
0.0
  0
LINE
  5
   24F
  8
0
  6
CONTINUOUS
 62
   130
 10
109.505393981934
 20
14.4926867485046
 30
0.0
 11
111.355401134491
 21
14.4926867485046
 31
0.0
  0
LINE
  5
   250
  8
0
  6
CONTINUOUS
 62
   130
 10
109.505393981934
 20
15.9926867485046
 30
0.0
 11
111.355401134491
 21
15.9926867485046
 31
0.0
  0
LINE
  5
   251
  8
0
  6
CONTINUOUS
 62
   130
 10
109.255401134491
 20
-35.3540603537906
 30
0.0
 11
109.255401134491
 21
49.6807605172001
 31
0.0
  0
LINE
  5
   252
  8
0
  6
CONTINUOUS
 62
   130
 10
108.255401134491
 20
-40.388760073996
 30
0.0
 11
108.255401134491
 21
49.922215924656
 31
0.0
  0
LINE
  5
   253
  8
0
  6
DOT
 62
   130
 10
109.255401134491
 20
-36.808716907581
 30
0.0
 11
109.255401134491
 21
-8.73090238342771
 31
0.0
  0
LINE
  5
   254
  8
0
  6
DASHDOT
 62
   130
 10
172.505378723145
 20
12.1810736846924
 30
0.0
 11
172.505378723145
 21
43.4082476522768
 31
0.0
  0
LINE
  5
   255
  8
0
  6
DASHDOT
 62
   130
 10
109.255401134491
 20
47.0905312176589
 30
0.0
 11
109.255401134491
 21
62.1243222242466
 31
0.0
  0
LINE
  5
   256
  8
0
  6
CONTINUOUS
 62
   130
 10
114.014621238388
 20
47.4360218048096
 30
0.0
 11
137.755393981934
 21
47.4360218048096
 31
0.0
  0
LINE
  5
   257
  8
0
  6
CONTINUOUS
 62
   130
 10
135.255393250783
 20
25.6860256195068
 30
0.0
 11
136.505393250783
 21
24.4360256195068
 31
0.0
  0
LINE
  5
   258
  8
0
  6
CONTINUOUS
 62
   130
 10
134.255393250783
 20
25.6860256195068
 30
0.0
 11
134.255393250783
 21
36.4360179901123
 31
0.0
  0
LINE
  5
   259
  8
0
  6
CONTINUOUS
 62
   130
 10
172.755386471748
 20
-2.42379462331527
 30
0.0
 11
181.353203669606
 21
-5.02190859226598
 31
0.0
  0
LINE
  5
   25A
  8
0
  6
CONTINUOUS
 62
   130
 10
181.35323073483
 20
-5.02191671229447
 30
0.0
 11
181.46031732684
 21
-5.08711863688184
 31
0.0
  0
LINE
  5
   25B
  8
0
  6
CONTINUOUS
 62
   130
 10
181.460298269677
 20
-5.08711161576975
 30
0.0
 11
181.522267330494
 21
-5.19610449526518
 31
0.0
  0
LINE
  5
   25C
  8
0
  6
CONTINUOUS
 62
   130
 10
181.522277645597
 20
-5.19611080771398
 30
0.0
 11
181.523540443813
 21
-5.32148099785665
 31
0.0
  0
LINE
  5
   25D
  8
0
  6
CONTINUOUS
 62
   130
 10
181.159074242168
 20
-6.78911026819701
 30
0.0
 11
181.523535813296
 21
-5.3214768111312
 31
0.0
  0
LINE
  5
   25E
  8
0
  6
CONTINUOUS
 62
   130
 10
181.096445596428
 20
-6.9023511864391
 30
0.0
 11
181.159077323759
 21
-6.78910784979238
 31
0.0
  0
LINE
  5
   25F
  8
0
  6
CONTINUOUS
 62
   130
 10
180.985585435431
 20
-6.96911029137397
 30
0.0
 11
181.096448801549
 21
-6.9023551295129
 31
0.0
  0
LINE
  5
   260
  8
0
  6
CONTINUOUS
 62
   130
 10
180.856209369139
 20
-6.97149070088115
 30
0.0
 11
180.985597018476
 21
-6.96911029901801
 31
0.0
  0
LINE
  5
   261
  8
0
  6
CONTINUOUS
 62
   130
 10
172.755386471748
 20
-4.9598364448889
 30
0.0
 11
180.856196557614
 21
-6.97149015563124
 31
0.0
  0
LINE
  5
   262
  8
0
  6
CONTINUOUS
 62
   130
 10
136.505393250783
 20
-1.91397438049317
 30
0.0
 11
136.505393250783
 21
24.4360256195068
 31
0.0
  0
LINE
  5
   263
  8
0
  6
CONTINUOUS
 62
   130
 10
135.255393250783
 20
-3.16397438049317
 30
0.0
 11
136.505393250783
 21
-1.91397438049317
 31
0.0
  0
LINE
  5
   264
  8
0
  6
CONTINUOUS
 62
   130
 10
134.255393250783
 20
-23.5639743804932
 30
0.0
 11
134.255393250783
 21
-3.16397438049317
 31
0.0
  0
LINE
  5
   265
  8
0
  6
CONTINUOUS
 62
   130
 10
134.255393028259
 20
-22.0639743208303
 30
0.0
 11
134.255393028259
 21
36.4360179901123
 31
0.0
  0
LINE
  5
   266
  8
0
  6
CONTINUOUS
 62
   130
 10
170.255378842354
 20
-15.0639743804932
 30
0.0
 11
170.255378842354
 21
-10.8139667510986
 31
0.0
  0
LINE
  5
   267
  8
0
  6
CONTINUOUS
 62
   130
 10
170.255378680026
 20
-10.8139667510986
 30
0.0
 11
172.755386471748
 21
-10.8139667510986
 31
0.0
  0
LINE
  5
   268
  8
0
  6
CONTINUOUS
 62
   130
 10
170.255386309421
 20
11.6860332489014
 30
0.0
 11
172.755386471748
 21
11.6860332489014
 31
0.0
  0
LINE
  5
   269
  8
0
  6
CONTINUOUS
 62
   130
 10
170.255386471748
 20
11.6860332489014
 30
0.0
 11
170.255386471748
 21
27.9360256195068
 31
0.0
  0
LINE
  5
   26A
  8
0
  6
CONTINUOUS
 62
   130
 10
172.755386471748
 20
-10.8139667510986
 30
0.0
 11
172.755386471748
 21
11.6860332489014
 31
0.0
  0
LINE
  5
   26B
  8
0
  6
CONTINUOUS
 62
   130
 10
169.755378842354
 20
-16.3139743804932
 30
0.0
 11
169.755378842354
 21
-15.5639743804932
 31
0.0
  0
LINE
  5
   26C
  8
0
  6
CONTINUOUS
 62
   130
 10
167.005378842354
 20
-16.3139743804932
 30
0.0
 11
169.005378842354
 21
-16.3139743804932
 31
0.0
  0
LINE
  5
   26D
  8
0
  6
CONTINUOUS
 62
   130
 10
167.005378842354
 20
-15.5639743804932
 30
0.0
 11
169.755378842354
 21
-15.5639743804932
 31
0.0
  0
LINE
  5
   26E
  8
0
  6
CONTINUOUS
 62
   130
 10
167.005378842354
 20
28.4360256195068
 30
0.0
 11
169.755386471748
 21
28.4360256195068
 31
0.0
  0
LINE
  5
   26F
  8
0
  6
CONTINUOUS
 62
   130
 10
169.755378842354
 20
28.4360256195068
 30
0.0
 11
169.755378842354
 21
29.1860256195068
 31
0.0
  0
LINE
  5
   270
  8
0
  6
CONTINUOUS
 62
   130
 10
167.005378842354
 20
29.1860256195068
 30
0.0
 11
169.005378842354
 21
29.1860256195068
 31
0.0
  0
LINE
  5
   271
  8
0
  6
CONTINUOUS
 62
   130
 10
136.005390664375
 20
-2.41397696690192
 30
0.0
 11
158.005383340928
 21
-2.41397696690192
 31
0.0
  0
LINE
  5
   272
  8
0
  6
CONTINUOUS
 62
   130
 10
167.005378842354
 20
28.4360256195068
 30
0.0
 11
167.005378842354
 21
33.9360247797354
 31
0.0
  0
LINE
  5
   273
  8
0
  6
CONTINUOUS
 62
   130
 10
135.255393250783
 20
34.4360247797354
 30
0.0
 11
166.505378842354
 21
34.4360247797354
 31
0.0
  0
ARC
  5
   274
  8
0
  6
CONTINUOUS
 62
   130
 10
166.505378842354
 20
33.9360247797354
 30
0.0
 40
0.5
 50
0.0
 51
90.0
  0
ARC
  5
   275
  8
0
  6
CONTINUOUS
 62
   130
 10
169.755386471748
 20
27.9360256195068
 30
0.0
 40
0.5
 50
0.0
 51
90.0
  0
LINE
  5
   276
  8
0
  6
CONTINUOUS
 62
   130
 10
167.005378842354
 20
-21.0639735407217
 30
0.0
 11
167.005378842354
 21
-15.5639743804932
 31
0.0
  0
ARC
  5
   277
  8
0
  6
CONTINUOUS
 62
   130
 10
169.755378842354
 20
-15.0639743804932
 30
0.0
 40
0.5
 50
270.0
 51
360.0
  0
LINE
  5
   278
  8
0
  6
CONTINUOUS
 62
   130
 10
134.255393028259
 20
-21.5639735407217
 30
0.0
 11
166.505378842354
 21
-21.5639735407217
 31
0.0
  0
LINE
  5
   279
  8
0
  6
CONTINUOUS
 62
   130
 10
136.505393250783
 20
2.58602303309808
 30
0.0
 11
158.005383340928
 21
2.58602303309808
 31
0.0
  0
LINE
  5
   27A
  8
0
  6
CONTINUOUS
 62
   130
 10
168.255386471748
 20
29.1860256195068
 30
0.0
 11
170.255386471748
 21
29.1860256195068
 31
0.0
  0
LINE
  5
   27B
  8
0
  6
CONTINUOUS
 62
   130
 10
168.255386471748
 20
-16.3139743804932
 30
0.0
 11
170.255386471748
 21
-16.3139743804932
 31
0.0
  0
LINE
  5
   27C
  8
0
  6
CONTINUOUS
 62
   130
 10
158.005383340928
 20
-22.5639820098877
 30
0.0
 11
158.005383340928
 21
35.4360256195068
 31
0.0
  0
LINE
  5
   27D
  8
0
  6
CONTINUOUS
 62
   130
 10
138.255393981934
 20
37.9360256195068
 30
0.0
 11
138.255393981934
 21
46.9360218048096
 31
0.0
  0
ARC
  5
   27E
  8
0
  6
CONTINUOUS
 62
   130
 10
137.755393981934
 20
46.9360218048096
 30
0.0
 40
0.5
 50
0.0
 51
90.0
  0
ARC
  5
   27F
  8
0
  6
CONTINUOUS
 62
   130
 10
137.755393981934
 20
-34.0639781951904
 30
0.0
 40
0.5
 50
270.0
 51
360.0
  0
ARC
  5
   280
  8
0
  6
CONTINUOUS
 62
   130
 10
166.505378842354
 20
-21.0639735407217
 30
0.0
 40
0.5
 50
270.0
 51
360.0
  0
LINE
  5
   281
  8
0
  6
CONTINUOUS
 62
   130
 10
135.255393250783
 20
-25.0639820098877
 30
0.0
 11
135.255393250783
 21
37.9360256195068
 31
0.0
  0
LINE
  5
   282
  8
0
  6
CONTINUOUS
 62
   130
 10
135.255393250783
 20
37.4360256195068
 30
0.0
 11
138.255393981934
 21
37.4360256195068
 31
0.0
  0
LINE
  5
   283
  8
0
  6
CONTINUOUS
 62
   130
 10
135.255393250783
 20
37.4360256195068
 30
0.0
 11
169.755386471748
 21
37.4360256195068
 31
0.0
  0
LINE
  5
   284
  8
0
  6
CONTINUOUS
 62
   130
 10
170.255386471748
 20
29.1860256195068
 30
0.0
 11
170.255386471748
 21
36.9360256195068
 31
0.0
  0
ARC
  5
   285
  8
0
  6
CONTINUOUS
 62
   130
 10
169.755386471748
 20
36.9360256195068
 30
0.0
 40
0.5
 50
0.0
 51
90.0
  0
LINE
  5
   286
  8
0
  6
CONTINUOUS
 62
   130
 10
135.255393250783
 20
35.4360256195068
 30
0.0
 11
168.255386471748
 21
35.4360256195068
 31
0.0
  0
LINE
  5
   287
  8
0
  6
CONTINUOUS
 62
   130
 10
168.255386471748
 20
29.1860256195068
 30
0.0
 11
168.255386471748
 21
35.4360256195068
 31
0.0
  0
LINE
  5
   288
  8
0
  6
CONTINUOUS
 62
   130
 10
135.255393250783
 20
37.9360256195068
 30
0.0
 11
138.255393981934
 21
37.9360256195068
 31
0.0
  0
LINE
  5
   289
  8
0
  6
CONTINUOUS
 62
   130
 10
135.255393250783
 20
-24.5639820098877
 30
0.0
 11
169.755386471748
 21
-24.5639820098877
 31
0.0
  0
LINE
  5
   28A
  8
0
  6
CONTINUOUS
 62
   130
 10
138.255393981934
 20
-34.0639781951904
 30
0.0
 11
138.255393981934
 21
-25.0639820098877
 31
0.0
  0
LINE
  5
   28B
  8
0
  6
CONTINUOUS
 62
   130
 10
135.255393250783
 20
-25.0639820098877
 30
0.0
 11
138.255393981934
 21
-25.0639820098877
 31
0.0
  0
ARC
  5
   28C
  8
0
  6
CONTINUOUS
 62
   130
 10
169.755386471748
 20
-24.0639820098877
 30
0.0
 40
0.5
 50
270.0
 51
360.0
  0
LINE
  5
   28D
  8
0
  6
CONTINUOUS
 62
   130
 10
170.255386471748
 20
-24.0639820098877
 30
0.0
 11
170.255386471748
 21
-16.3139820098877
 31
0.0
  0
LINE
  5
   28E
  8
0
  6
CONTINUOUS
 62
   130
 10
168.255386471748
 20
-22.5639820098877
 30
0.0
 11
168.255386471748
 21
-16.3139820098877
 31
0.0
  0
LINE
  5
   28F
  8
0
  6
CONTINUOUS
 62
   130
 10
135.255393250783
 20
-22.5639820098877
 30
0.0
 11
168.255386471748
 21
-22.5639820098877
 31
0.0
  0
LINE
  5
   290
  8
0
  6
DASHDOT
 62
   130
 10
100.172415346459
 20
0.436033248901392
 30
0.0
 11
188.670674185768
 21
0.436033248901392
 31
0.0
  0
LINE
  5
   291
  8
0
  6
DASHDOT
 62
   130
 10
161.399074403116
 20
31.4310758479898
 30
0.0
 11
168.497818041347
 21
31.431081548949
 31
0.0
  0
LINE
  5
   292
  8
0
  6
CONTINUOUS
 62
   130
 10
84.505401134491
 20
27.936014175415
 30
0.0
 11
84.505401134491
 21
36.3020619384056
 31
0.0
  0
LINE
  5
   293
  8
0
  6
CONTINUOUS
 62
   130
 10
102.505401134491
 20
26.436014175415
 30
0.0
 11
109.755401134491
 21
26.436014175415
 31
0.0
  0
LINE
  5
   294
  8
0
  6
CONTINUOUS
 62
   130
 10
71.255401134491
 20
30.436014175415
 30
0.0
 11
71.255401134491
 21
33.436014175415
 31
0.0
  0
LINE
  5
   295
  8
0
  6
CONTINUOUS
 62
   130
 10
71.755401134491
 20
29.936014175415
 30
0.0
 11
74.255401134491
 21
29.936014175415
 31
0.0
  0
LINE
  5
   296
  8
0
  6
CONTINUOUS
 62
   130
 10
71.755401134491
 20
33.936014175415
 30
0.0
 11
74.255401134491
 21
33.936014175415
 31
0.0
  0
LINE
  5
   297
  8
0
  6
CONTINUOUS
 62
   130
 10
71.255401134491
 20
30.436014175415
 30
0.0
 11
71.755401134491
 21
29.936014175415
 31
0.0
  0
LINE
  5
   298
  8
0
  6
CONTINUOUS
 62
   130
 10
71.255401134491
 20
33.4360141754151
 30
0.0
 11
71.755401134491
 21
33.9360141754151
 31
0.0
  0
LINE
  5
   299
  8
0
  6
CONTINUOUS
 62
   130
 10
75.005401134491
 20
33.436014175415
 30
0.0
 11
78.755401134491
 21
33.436014175415
 31
0.0
  0
LINE
  5
   29A
  8
0
  6
CONTINUOUS
 62
   130
 10
71.755401134491
 20
29.936014175415
 30
0.0
 11
71.755401134491
 21
33.936014175415
 31
0.0
  0
LINE
  5
   29B
  8
0
  6
CONTINUOUS
 62
   130
 10
102.505401134491
 20
33.985998916626
 30
0.0
 11
102.505401134491
 21
37.485998916626
 31
0.0
  0
LINE
  5
   29C
  8
0
  6
CONTINUOUS
 62
   130
 10
102.505401134491
 20
26.485998916626
 30
0.0
 11
102.505401134491
 21
29.985998916626
 31
0.0
  0
LINE
  5
   29D
  8
0
  6
CONTINUOUS
 62
   130
 10
82.005401134491
 20
28.436014175415
 30
0.0
 11
82.005401134491
 21
35.436014175415
 31
0.0
  0
LINE
  5
   29E
  8
0
  6
CONTINUOUS
 62
   130
 10
79.505401134491
 20
27.936014175415
 30
0.0
 11
79.505401134491
 21
35.936014175415
 31
0.0
  0
LINE
  5
   29F
  8
0
  6
CONTINUOUS
 62
   130
 10
79.505401134491
 20
28.436014175415
 30
0.0
 11
84.355401134491
 21
28.436014175415
 31
0.0
  0
LINE
  5
   2A0
  8
0
  6
CONTINUOUS
 62
   130
 10
79.505401134491
 20
35.436014175415
 30
0.0
 11
84.355401134491
 21
35.436014175415
 31
0.0
  0
LINE
  5
   2A1
  8
0
  6
CONTINUOUS
 62
   130
 10
78.755401134491
 20
27.936014175415
 30
0.0
 11
78.755401134491
 21
35.936014175415
 31
0.0
  0
LINE
  5
   2A2
  8
0
  6
CONTINUOUS
 62
   130
 10
78.755401134491
 20
27.936014175415
 30
0.0
 11
79.505401134491
 21
27.936014175415
 31
0.0
  0
LINE
  5
   2A3
  8
0
  6
CONTINUOUS
 62
   130
 10
78.755401134491
 20
35.936014175415
 30
0.0
 11
79.505401134491
 21
35.936014175415
 31
0.0
  0
LINE
  5
   2A4
  8
0
  6
CONTINUOUS
 62
   130
 10
71.755401134491
 20
28.436014175415
 30
0.0
 11
71.755401134491
 21
35.436014175415
 31
0.0
  0
LINE
  5
   2A5
  8
0
  6
CONTINUOUS
 62
   130
 10
74.255401134491
 20
27.936014175415
 30
0.0
 11
74.255401134491
 21
35.936014175415
 31
0.0
  0
LINE
  5
   2A6
  8
0
  6
CONTINUOUS
 62
   130
 10
75.005401134491
 20
27.936014175415
 30
0.0
 11
75.005401134491
 21
35.936014175415
 31
0.0
  0
LINE
  5
   2A7
  8
0
  6
CONTINUOUS
 62
   130
 10
71.755401134491
 20
28.436014175415
 30
0.0
 11
74.255401134491
 21
28.436014175415
 31
0.0
  0
LINE
  5
   2A8
  8
0
  6
CONTINUOUS
 62
   130
 10
71.755401134491
 20
35.436014175415
 30
0.0
 11
74.255401134491
 21
35.436014175415
 31
0.0
  0
LINE
  5
   2A9
  8
0
  6
CONTINUOUS
 62
   130
 10
74.255401134491
 20
27.936014175415
 30
0.0
 11
75.005401134491
 21
27.936014175415
 31
0.0
  0
LINE
  5
   2AA
  8
0
  6
CONTINUOUS
 62
   130
 10
74.255401134491
 20
35.936014175415
 30
0.0
 11
75.005401134491
 21
35.936014175415
 31
0.0
  0
LINE
  5
   2AB
  8
0
  6
CONTINUOUS
 62
   130
 10
79.505401134491
 20
29.936014175415
 30
0.0
 11
84.355401134491
 21
29.936014175415
 31
0.0
  0
LINE
  5
   2AC
  8
0
  6
CONTINUOUS
 62
   130
 10
79.505401134491
 20
33.936014175415
 30
0.0
 11
84.355401134491
 21
33.936014175415
 31
0.0
  0
LINE
  5
   2AD
  8
0
  6
CONTINUOUS
 62
   130
 10
75.005401134491
 20
29.936014175415
 30
0.0
 11
78.755401134491
 21
29.936014175415
 31
0.0
  0
LINE
  5
   2AE
  8
0
  6
CONTINUOUS
 62
   130
 10
75.005401134491
 20
33.936014175415
 30
0.0
 11
78.755401134491
 21
33.936014175415
 31
0.0
  0
LINE
  5
   2AF
  8
0
  6
CONTINUOUS
 62
   130
 10
75.005401134491
 20
30.436014175415
 30
0.0
 11
78.755401134491
 21
30.436014175415
 31
0.0
  0
LINE
  5
   2B0
  8
0
  6
CONTINUOUS
 62
   130
 10
97.505401134491
 20
35.485998916626
 30
0.0
 11
102.505401134491
 21
35.485998916626
 31
0.0
  0
LINE
  5
   2B1
  8
0
  6
CONTINUOUS
 62
   130
 10
100.005401134491
 20
28.485998916626
 30
0.0
 11
100.005401134491
 21
35.485998916626
 31
0.0
  0
LINE
  5
   2B2
  8
0
  6
CONTINUOUS
 62
   130
 10
93.005401134491
 20
33.485998916626
 30
0.0
 11
96.755401134491
 21
33.485998916626
 31
0.0
  0
LINE
  5
   2B3
  8
0
  6
CONTINUOUS
 62
   130
 10
96.755401134491
 20
27.985998916626
 30
0.0
 11
96.755401134491
 21
35.985998916626
 31
0.0
  0
LINE
  5
   2B4
  8
0
  6
CONTINUOUS
 62
   130
 10
102.505401134491
 20
29.1485386336713
 30
0.0
 11
102.505401134491
 21
37.485998916626
 31
0.0
  0
LINE
  5
   2B5
  8
0
  6
CONTINUOUS
 62
   130
 10
97.505401134491
 20
33.985998916626
 30
0.0
 11
102.505401134491
 21
33.985998916626
 31
0.0
  0
LINE
  5
   2B6
  8
0
  6
CONTINUOUS
 62
   130
 10
97.505401134491
 20
29.985998916626
 30
0.0
 11
102.505401134491
 21
29.985998916626
 31
0.0
  0
LINE
  5
   2B7
  8
0
  6
CONTINUOUS
 62
   130
 10
97.505401134491
 20
27.985998916626
 30
0.0
 11
97.505401134491
 21
35.985998916626
 31
0.0
  0
LINE
  5
   2B8
  8
0
  6
CONTINUOUS
 62
   130
 10
93.005401134491
 20
33.985998916626
 30
0.0
 11
96.755401134491
 21
33.985998916626
 31
0.0
  0
LINE
  5
   2B9
  8
0
  6
CONTINUOUS
 62
   130
 10
96.755401134491
 20
35.985998916626
 30
0.0
 11
97.505401134491
 21
35.985998916626
 31
0.0
  0
LINE
  5
   2BA
  8
0
  6
CONTINUOUS
 62
   130
 10
96.755401134491
 20
27.985998916626
 30
0.0
 11
97.505401134491
 21
27.985998916626
 31
0.0
  0
LINE
  5
   2BB
  8
0
  6
CONTINUOUS
 62
   130
 10
92.255401134491
 20
35.985998916626
 30
0.0
 11
93.005401134491
 21
35.985998916626
 31
0.0
  0
LINE
  5
   2BC
  8
0
  6
CONTINUOUS
 62
   130
 10
92.255401134491
 20
27.985998916626
 30
0.0
 11
93.005401134491
 21
27.985998916626
 31
0.0
  0
LINE
  5
   2BD
  8
0
  6
CONTINUOUS
 62
   130
 10
89.755401134491
 20
35.485998916626
 30
0.0
 11
92.255401134491
 21
35.485998916626
 31
0.0
  0
LINE
  5
   2BE
  8
0
  6
CONTINUOUS
 62
   130
 10
89.755401134491
 20
33.985998916626
 30
0.0
 11
92.255401134491
 21
33.985998916626
 31
0.0
  0
LINE
  5
   2BF
  8
0
  6
CONTINUOUS
 62
   130
 10
89.755401134491
 20
29.985998916626
 30
0.0
 11
92.255401134491
 21
29.985998916626
 31
0.0
  0
LINE
  5
   2C0
  8
0
  6
CONTINUOUS
 62
   130
 10
89.755401134491
 20
28.485998916626
 30
0.0
 11
92.255401134491
 21
28.485998916626
 31
0.0
  0
LINE
  5
   2C1
  8
0
  6
CONTINUOUS
 62
   130
 10
89.255401134491
 20
33.485998916626
 30
0.0
 11
89.755401134491
 21
33.985998916626
 31
0.0
  0
LINE
  5
   2C2
  8
0
  6
CONTINUOUS
 62
   130
 10
89.255401134491
 20
30.485998916626
 30
0.0
 11
89.255401134491
 21
33.485998916626
 31
0.0
  0
LINE
  5
   2C3
  8
0
  6
CONTINUOUS
 62
   130
 10
89.255401134491
 20
30.485998916626
 30
0.0
 11
89.755401134491
 21
29.9859989166259
 31
0.0
  0
LINE
  5
   2C4
  8
0
  6
CONTINUOUS
 62
   130
 10
89.755401134491
 20
35.485998916626
 30
0.0
 11
92.255401134491
 21
35.485998916626
 31
0.0
  0
LINE
  5
   2C5
  8
0
  6
CONTINUOUS
 62
   130
 10
89.755401134491
 20
28.485998916626
 30
0.0
 11
89.755401134491
 21
35.485998916626
 31
0.0
  0
LINE
  5
   2C6
  8
0
  6
CONTINUOUS
 62
   130
 10
92.255401134491
 20
27.985998916626
 30
0.0
 11
92.255401134491
 21
35.985998916626
 31
0.0
  0
LINE
  5
   2C7
  8
0
  6
CONTINUOUS
 62
   130
 10
92.255401134491
 20
27.985998916626
 30
0.0
 11
92.255401134491
 21
35.985998916626
 31
0.0
  0
LINE
  5
   2C8
  8
0
  6
CONTINUOUS
 62
   130
 10
93.005401134491
 20
27.985998916626
 30
0.0
 11
93.005401134491
 21
35.985998916626
 31
0.0
  0
LINE
  5
   2C9
  8
0
  6
CONTINUOUS
 62
   130
 10
96.755401134491
 20
27.985998916626
 30
0.0
 11
96.755401134491
 21
35.985998916626
 31
0.0
  0
LINE
  5
   2CA
  8
0
  6
CONTINUOUS
 62
   130
 10
96.755401134491
 20
27.985998916626
 30
0.0
 11
96.755401134491
 21
35.985998916626
 31
0.0
  0
LINE
  5
   2CB
  8
0
  6
CONTINUOUS
 62
   130
 10
93.005401134491
 20
33.985998916626
 30
0.0
 11
96.755401134491
 21
33.985998916626
 31
0.0
  0
LINE
  5
   2CC
  8
0
  6
CONTINUOUS
 62
   130
 10
93.005401134491
 20
29.985998916626
 30
0.0
 11
96.755401134491
 21
29.985998916626
 31
0.0
  0
LINE
  5
   2CD
  8
0
  6
CONTINUOUS
 62
   130
 10
93.005401134491
 20
29.9859984079997
 30
0.0
 11
96.755401134491
 21
29.9859984079997
 31
0.0
  0
LINE
  5
   2CE
  8
0
  6
CONTINUOUS
 62
   130
 10
93.005401134491
 20
30.4859984079997
 30
0.0
 11
96.755401134491
 21
30.4859984079997
 31
0.0
  0
LINE
  5
   2CF
  8
0
  6
CONTINUOUS
 62
   130
 10
84.355401134491
 20
28.3119263086094
 30
0.0
 11
84.355401134491
 21
36.3020619384056
 31
0.0
  0
LINE
  5
   2D0
  8
0
  6
CONTINUOUS
 62
   130
 10
84.355401134491
 20
36.3020619384056
 30
0.0
 11
84.505401134491
 21
36.3020619384056
 31
0.0
  0
LINE
  5
   2D1
  8
0
  6
CONTINUOUS
 62
   130
 10
83.8104103810953
 20
27.5548035208578
 30
0.0
 11
84.505401134491
 21
28.2497942742534
 31
0.0
  0
LINE
  5
   2D2
  8
0
  6
CONTINUOUS
 62
   130
 10
83.7043443639174
 20
27.6608695380358
 30
0.0
 11
84.355401134491
 21
28.3119263086094
 31
0.0
  0
LINE
  5
   2D3
  8
0
  6
CONTINUOUS
 62
   130
 10
83.7043443639174
 20
27.6608695380357
 30
0.0
 11
83.8104103810953
 21
27.5548035208578
 31
0.0
  0
LINE
  5
   2D4
  8
0
  6
CONTINUOUS
 62
   130
 10
101.704344363917
 20
27.7108540249335
 30
0.0
 11
101.810410381095
 21
27.6047880077555
 31
0.0
  0
LINE
  5
   2D5
  8
0
  6
CONTINUOUS
 62
   130
 10
101.810410381095
 20
27.6047880077556
 30
0.0
 11
102.505401134491
 21
28.2997787611512
 31
0.0
  0
LINE
  5
   2D6
  8
0
  6
CONTINUOUS
 62
   130
 10
101.704344363917
 20
27.7108540249335
 30
0.0
 11
102.355401134491
 21
28.3619107955072
 31
0.0
  0
LINE
  5
   2D7
  8
0
  6
CONTINUOUS
 62
   130
 10
102.355401134491
 20
28.3619107955072
 30
0.0
 11
102.355401134491
 21
36.3520464253034
 31
0.0
  0
LINE
  5
   2D8
  8
0
  6
CONTINUOUS
 62
   130
 10
102.355401134491
 20
36.3520464253034
 30
0.0
 11
102.505401134491
 21
36.3520464253034
 31
0.0
  0
LINE
  5
   2D9
  8
0
  6
CONTINUOUS
 62
   130
 10
109.755401134491
 20
28.436014175415
 30
0.0
 11
110.255401134491
 21
28.436014175415
 31
0.0
  0
LINE
  5
   2DA
  8
0
  6
CONTINUOUS
 62
   130
 10
97.505401134491
 20
28.4859989166259
 30
0.0
 11
102.505401134491
 21
28.4859989166259
 31
0.0
  0
LINE
  5
   2DB
  8
0
  6
CONTINUOUS
 62
   130
 10
109.755401134491
 20
35.485998916626
 30
0.0
 11
110.255401134491
 21
35.485998916626
 31
0.0
  0
LINE
  5
   2DC
  8
0
  6
CONTINUOUS
 62
   130
 10
109.755401134491
 20
28.485998916626
 30
0.0
 11
110.255401134491
 21
28.485998916626
 31
0.0
  0
LINE
  5
   2DD
  8
0
  6
CONTINUOUS
 62
   130
 10
109.755401134491
 20
26.436014175415
 30
0.0
 11
109.755401134491
 21
37.485998916626
 31
0.0
  0
LINE
  5
   2DE
  8
0
  6
CONTINUOUS
 62
   130
 10
102.505401134491
 20
37.485998916626
 30
0.0
 11
109.755401134491
 21
37.485998916626
 31
0.0
  0
LINE
  5
   2DF
  8
0
  6
CONTINUOUS
 62
   130
 10
109.755401134491
 20
26.936014175415
 30
0.0
 11
109.755401134491
 21
36.936014175415
 31
0.0
  0
LINE
  5
   2E0
  8
0
  6
CONTINUOUS
 62
   130
 10
109.755401134491
 20
35.485998916626
 30
0.0
 11
110.255401134491
 21
35.485998916626
 31
0.0
  0
LINE
  5
   2E1
  8
0
  6
DASHDOT
 62
   130
 10
86.3571178641163
 20
31.936014175415
 30
0.0
 11
114.71772270226
 21
31.936014175415
 31
0.0
  0
LINE
  5
   2E2
  8
0
  6
DASHDOT
 62
   130
 10
86.3571178641163
 20
31.936014175415
 30
0.0
 11
115.724762184489
 21
31.936014175415
 31
0.0
  0
LINE
  5
   2E3
  8
0
  6
CONTINUOUS
 62
   130
 10
84.505401134491
 20
27.936014175415
 30
0.0
 11
102.505401134491
 21
27.936014175415
 31
0.0
  0
LINE
  5
   2E4
  8
0
  6
CONTINUOUS
 62
   130
 10
84.505401134491
 20
35.936014175415
 30
0.0
 11
102.505401134491
 21
35.936014175415
 31
0.0
  0
LINE
  5
   2E5
  8
0
  6
CONTINUOUS
 62
   130
 10
102.505401134491
 20
26.436014175415
 30
0.0
 11
102.505401134491
 21
37.436014175415
 31
0.0
  0
LINE
  5
   2E6
  8
0
  6
CONTINUOUS
 62
   130
 10
84.505401134491
 20
-23.4300335875756
 30
0.0
 11
84.505401134491
 21
-15.063985824585
 31
0.0
  0
LINE
  5
   2E7
  8
0
  6
CONTINUOUS
 62
   130
 10
102.505401134491
 20
-13.563985824585
 30
0.0
 11
109.755401134491
 21
-13.563985824585
 31
0.0
  0
LINE
  5
   2E8
  8
0
  6
CONTINUOUS
 62
   130
 10
71.255401134491
 20
-20.563985824585
 30
0.0
 11
71.255401134491
 21
-17.563985824585
 31
0.0
  0
LINE
  5
   2E9
  8
0
  6
CONTINUOUS
 62
   130
 10
71.755401134491
 20
-17.063985824585
 30
0.0
 11
74.255401134491
 21
-17.063985824585
 31
0.0
  0
LINE
  5
   2EA
  8
0
  6
CONTINUOUS
 62
   130
 10
71.755401134491
 20
-21.063985824585
 30
0.0
 11
74.255401134491
 21
-21.063985824585
 31
0.0
  0
LINE
  5
   2EB
  8
0
  6
CONTINUOUS
 62
   130
 10
71.255401134491
 20
-17.563985824585
 30
0.0
 11
71.755401134491
 21
-17.063985824585
 31
0.0
  0
LINE
  5
   2EC
  8
0
  6
CONTINUOUS
 62
   130
 10
71.255401134491
 20
-20.563985824585
 30
0.0
 11
71.755401134491
 21
-21.063985824585
 31
0.0
  0
LINE
  5
   2ED
  8
0
  6
CONTINUOUS
 62
   130
 10
75.005401134491
 20
-20.563985824585
 30
0.0
 11
78.755401134491
 21
-20.563985824585
 31
0.0
  0
LINE
  5
   2EE
  8
0
  6
CONTINUOUS
 62
   130
 10
71.755401134491
 20
-21.063985824585
 30
0.0
 11
71.755401134491
 21
-17.063985824585
 31
0.0
  0
LINE
  5
   2EF
  8
0
  6
CONTINUOUS
 62
   130
 10
102.505401134491
 20
-24.6139705657959
 30
0.0
 11
102.505401134491
 21
-21.1139705657959
 31
0.0
  0
LINE
  5
   2F0
  8
0
  6
CONTINUOUS
 62
   130
 10
102.505401134491
 20
-17.1139705657959
 30
0.0
 11
102.505401134491
 21
-13.6139705657959
 31
0.0
  0
LINE
  5
   2F1
  8
0
  6
CONTINUOUS
 62
   130
 10
82.005401134491
 20
-22.563985824585
 30
0.0
 11
82.005401134491
 21
-15.563985824585
 31
0.0
  0
LINE
  5
   2F2
  8
0
  6
CONTINUOUS
 62
   130
 10
79.505401134491
 20
-23.063985824585
 30
0.0
 11
79.505401134491
 21
-15.063985824585
 31
0.0
  0
LINE
  5
   2F3
  8
0
  6
CONTINUOUS
 62
   130
 10
79.505401134491
 20
-15.563985824585
 30
0.0
 11
84.355401134491
 21
-15.563985824585
 31
0.0
  0
LINE
  5
   2F4
  8
0
  6
CONTINUOUS
 62
   130
 10
79.505401134491
 20
-22.563985824585
 30
0.0
 11
84.355401134491
 21
-22.563985824585
 31
0.0
  0
LINE
  5
   2F5
  8
0
  6
CONTINUOUS
 62
   130
 10
78.755401134491
 20
-23.063985824585
 30
0.0
 11
78.755401134491
 21
-15.063985824585
 31
0.0
  0
LINE
  5
   2F6
  8
0
  6
CONTINUOUS
 62
   130
 10
78.755401134491
 20
-15.063985824585
 30
0.0
 11
79.505401134491
 21
-15.063985824585
 31
0.0
  0
LINE
  5
   2F7
  8
0
  6
CONTINUOUS
 62
   130
 10
78.755401134491
 20
-23.063985824585
 30
0.0
 11
79.505401134491
 21
-23.063985824585
 31
0.0
  0
LINE
  5
   2F8
  8
0
  6
CONTINUOUS
 62
   130
 10
71.755401134491
 20
-22.563985824585
 30
0.0
 11
71.755401134491
 21
-15.563985824585
 31
0.0
  0
LINE
  5
   2F9
  8
0
  6
CONTINUOUS
 62
   130
 10
74.255401134491
 20
-23.063985824585
 30
0.0
 11
74.255401134491
 21
-15.063985824585
 31
0.0
  0
LINE
  5
   2FA
  8
0
  6
CONTINUOUS
 62
   130
 10
75.005401134491
 20
-23.063985824585
 30
0.0
 11
75.005401134491
 21
-15.063985824585
 31
0.0
  0
LINE
  5
   2FB
  8
0
  6
CONTINUOUS
 62
   130
 10
71.755401134491
 20
-15.563985824585
 30
0.0
 11
74.255401134491
 21
-15.563985824585
 31
0.0
  0
LINE
  5
   2FC
  8
0
  6
CONTINUOUS
 62
   130
 10
71.755401134491
 20
-22.563985824585
 30
0.0
 11
74.255401134491
 21
-22.563985824585
 31
0.0
  0
LINE
  5
   2FD
  8
0
  6
CONTINUOUS
 62
   130
 10
74.255401134491
 20
-15.063985824585
 30
0.0
 11
75.005401134491
 21
-15.063985824585
 31
0.0
  0
LINE
  5
   2FE
  8
0
  6
CONTINUOUS
 62
   130
 10
74.255401134491
 20
-23.063985824585
 30
0.0
 11
75.005401134491
 21
-23.063985824585
 31
0.0
  0
LINE
  5
   2FF
  8
0
  6
CONTINUOUS
 62
   130
 10
79.505401134491
 20
-17.063985824585
 30
0.0
 11
84.355401134491
 21
-17.063985824585
 31
0.0
  0
LINE
  5
   300
  8
0
  6
CONTINUOUS
 62
   130
 10
79.505401134491
 20
-21.063985824585
 30
0.0
 11
84.355401134491
 21
-21.063985824585
 31
0.0
  0
LINE
  5
   301
  8
0
  6
CONTINUOUS
 62
   130
 10
75.005401134491
 20
-17.063985824585
 30
0.0
 11
78.755401134491
 21
-17.063985824585
 31
0.0
  0
LINE
  5
   302
  8
0
  6
CONTINUOUS
 62
   130
 10
75.005401134491
 20
-21.063985824585
 30
0.0
 11
78.755401134491
 21
-21.063985824585
 31
0.0
  0
LINE
  5
   303
  8
0
  6
CONTINUOUS
 62
   130
 10
75.005401134491
 20
-17.563985824585
 30
0.0
 11
78.755401134491
 21
-17.563985824585
 31
0.0
  0
LINE
  5
   304
  8
0
  6
CONTINUOUS
 62
   130
 10
97.505401134491
 20
-22.6139705657959
 30
0.0
 11
102.505401134491
 21
-22.6139705657959
 31
0.0
  0
LINE
  5
   305
  8
0
  6
CONTINUOUS
 62
   130
 10
100.005401134491
 20
-22.6139705657959
 30
0.0
 11
100.005401134491
 21
-15.6139705657959
 31
0.0
  0
LINE
  5
   306
  8
0
  6
CONTINUOUS
 62
   130
 10
93.005401134491
 20
-20.6139705657959
 30
0.0
 11
96.755401134491
 21
-20.6139705657959
 31
0.0
  0
LINE
  5
   307
  8
0
  6
CONTINUOUS
 62
   130
 10
96.755401134491
 20
-23.1139705657959
 30
0.0
 11
96.755401134491
 21
-15.1139705657959
 31
0.0
  0
LINE
  5
   308
  8
0
  6
CONTINUOUS
 62
   130
 10
102.505401134491
 20
-24.6139705657959
 30
0.0
 11
102.505401134491
 21
-16.2765102828412
 31
0.0
  0
LINE
  5
   309
  8
0
  6
CONTINUOUS
 62
   130
 10
97.505401134491
 20
-21.1139705657959
 30
0.0
 11
102.505401134491
 21
-21.1139705657959
 31
0.0
  0
LINE
  5
   30A
  8
0
  6
CONTINUOUS
 62
   130
 10
97.505401134491
 20
-17.1139705657959
 30
0.0
 11
102.505401134491
 21
-17.1139705657959
 31
0.0
  0
LINE
  5
   30B
  8
0
  6
CONTINUOUS
 62
   130
 10
97.505401134491
 20
-23.1139705657959
 30
0.0
 11
97.505401134491
 21
-15.1139705657959
 31
0.0
  0
LINE
  5
   30C
  8
0
  6
CONTINUOUS
 62
   130
 10
93.005401134491
 20
-21.1139705657959
 30
0.0
 11
96.755401134491
 21
-21.1139705657959
 31
0.0
  0
LINE
  5
   30D
  8
0
  6
CONTINUOUS
 62
   130
 10
96.755401134491
 20
-23.1139705657959
 30
0.0
 11
97.505401134491
 21
-23.1139705657959
 31
0.0
  0
LINE
  5
   30E
  8
0
  6
CONTINUOUS
 62
   130
 10
96.755401134491
 20
-15.1139705657959
 30
0.0
 11
97.505401134491
 21
-15.1139705657959
 31
0.0
  0
LINE
  5
   30F
  8
0
  6
CONTINUOUS
 62
   130
 10
92.255401134491
 20
-23.1139705657959
 30
0.0
 11
93.005401134491
 21
-23.1139705657959
 31
0.0
  0
LINE
  5
   310
  8
0
  6
CONTINUOUS
 62
   130
 10
92.255401134491
 20
-15.1139705657959
 30
0.0
 11
93.005401134491
 21
-15.1139705657959
 31
0.0
  0
LINE
  5
   311
  8
0
  6
CONTINUOUS
 62
   130
 10
89.755401134491
 20
-22.6139705657959
 30
0.0
 11
92.255401134491
 21
-22.6139705657959
 31
0.0
  0
LINE
  5
   312
  8
0
  6
CONTINUOUS
 62
   130
 10
89.755401134491
 20
-21.1139705657959
 30
0.0
 11
92.255401134491
 21
-21.1139705657959
 31
0.0
  0
LINE
  5
   313
  8
0
  6
CONTINUOUS
 62
   130
 10
89.755401134491
 20
-17.1139705657959
 30
0.0
 11
92.255401134491
 21
-17.1139705657959
 31
0.0
  0
LINE
  5
   314
  8
0
  6
CONTINUOUS
 62
   130
 10
89.755401134491
 20
-15.6139705657959
 30
0.0
 11
92.255401134491
 21
-15.6139705657959
 31
0.0
  0
LINE
  5
   315
  8
0
  6
CONTINUOUS
 62
   130
 10
89.255401134491
 20
-20.6139705657959
 30
0.0
 11
89.755401134491
 21
-21.1139705657959
 31
0.0
  0
LINE
  5
   316
  8
0
  6
CONTINUOUS
 62
   130
 10
89.255401134491
 20
-20.6139705657959
 30
0.0
 11
89.255401134491
 21
-17.6139705657959
 31
0.0
  0
LINE
  5
   317
  8
0
  6
CONTINUOUS
 62
   130
 10
89.255401134491
 20
-17.6139705657959
 30
0.0
 11
89.755401134491
 21
-17.1139705657959
 31
0.0
  0
LINE
  5
   318
  8
0
  6
CONTINUOUS
 62
   130
 10
89.755401134491
 20
-22.6139705657959
 30
0.0
 11
92.255401134491
 21
-22.6139705657959
 31
0.0
  0
LINE
  5
   319
  8
0
  6
CONTINUOUS
 62
   130
 10
89.755401134491
 20
-22.6139705657959
 30
0.0
 11
89.755401134491
 21
-15.6139705657959
 31
0.0
  0
LINE
  5
   31A
  8
0
  6
CONTINUOUS
 62
   130
 10
92.255401134491
 20
-23.1139705657959
 30
0.0
 11
92.255401134491
 21
-15.1139705657959
 31
0.0
  0
LINE
  5
   31B
  8
0
  6
CONTINUOUS
 62
   130
 10
92.255401134491
 20
-23.1139705657959
 30
0.0
 11
92.255401134491
 21
-15.1139705657959
 31
0.0
  0
LINE
  5
   31C
  8
0
  6
CONTINUOUS
 62
   130
 10
93.005401134491
 20
-23.1139705657959
 30
0.0
 11
93.005401134491
 21
-15.1139705657959
 31
0.0
  0
LINE
  5
   31D
  8
0
  6
CONTINUOUS
 62
   130
 10
96.755401134491
 20
-23.1139705657959
 30
0.0
 11
96.755401134491
 21
-15.1139705657959
 31
0.0
  0
LINE
  5
   31E
  8
0
  6
CONTINUOUS
 62
   130
 10
96.755401134491
 20
-23.1139705657959
 30
0.0
 11
96.755401134491
 21
-15.1139705657959
 31
0.0
  0
LINE
  5
   31F
  8
0
  6
CONTINUOUS
 62
   130
 10
93.005401134491
 20
-21.1139705657959
 30
0.0
 11
96.755401134491
 21
-21.1139705657959
 31
0.0
  0
LINE
  5
   320
  8
0
  6
CONTINUOUS
 62
   130
 10
93.005401134491
 20
-17.1139705657959
 30
0.0
 11
96.755401134491
 21
-17.1139705657959
 31
0.0
  0
LINE
  5
   321
  8
0
  6
CONTINUOUS
 62
   130
 10
93.005401134491
 20
-17.1139700571696
 30
0.0
 11
96.755401134491
 21
-17.1139700571696
 31
0.0
  0
LINE
  5
   322
  8
0
  6
CONTINUOUS
 62
   130
 10
93.005401134491
 20
-17.6139700571696
 30
0.0
 11
96.755401134491
 21
-17.6139700571696
 31
0.0
  0
LINE
  5
   323
  8
0
  6
CONTINUOUS
 62
   130
 10
84.355401134491
 20
-23.4300335875756
 30
0.0
 11
84.355401134491
 21
-15.4398979577793
 31
0.0
  0
LINE
  5
   324
  8
0
  6
CONTINUOUS
 62
   130
 10
84.355401134491
 20
-23.4300335875756
 30
0.0
 11
84.505401134491
 21
-23.4300335875756
 31
0.0
  0
LINE
  5
   325
  8
0
  6
CONTINUOUS
 62
   130
 10
83.8104103810953
 20
-14.6827751700277
 30
0.0
 11
84.505401134491
 21
-15.3777659234233
 31
0.0
  0
LINE
  5
   326
  8
0
  6
CONTINUOUS
 62
   130
 10
83.7043443639174
 20
-14.7888411872057
 30
0.0
 11
84.355401134491
 21
-15.4398979577793
 31
0.0
  0
LINE
  5
   327
  8
0
  6
CONTINUOUS
 62
   130
 10
83.7043443639174
 20
-14.7888411872057
 30
0.0
 11
83.8104103810953
 21
-14.6827751700277
 31
0.0
  0
LINE
  5
   328
  8
0
  6
CONTINUOUS
 62
   130
 10
101.704344363917
 20
-14.8388256741034
 30
0.0
 11
101.810410381095
 21
-14.7327596569255
 31
0.0
  0
LINE
  5
   329
  8
0
  6
CONTINUOUS
 62
   130
 10
101.810410381095
 20
-14.7327596569255
 30
0.0
 11
102.505401134491
 21
-15.4277504103211
 31
0.0
  0
LINE
  5
   32A
  8
0
  6
CONTINUOUS
 62
   130
 10
101.704344363917
 20
-14.8388256741035
 30
0.0
 11
102.355401134491
 21
-15.4898824446771
 31
0.0
  0
LINE
  5
   32B
  8
0
  6
CONTINUOUS
 62
   130
 10
102.355401134491
 20
-23.4800180744734
 30
0.0
 11
102.355401134491
 21
-15.4898824446771
 31
0.0
  0
LINE
  5
   32C
  8
0
  6
CONTINUOUS
 62
   130
 10
102.355401134491
 20
-23.4800180744734
 30
0.0
 11
102.505401134491
 21
-23.4800180744734
 31
0.0
  0
LINE
  5
   32D
  8
0
  6
CONTINUOUS
 62
   130
 10
109.755401134491
 20
-15.563985824585
 30
0.0
 11
110.255401134491
 21
-15.563985824585
 31
0.0
  0
LINE
  5
   32E
  8
0
  6
CONTINUOUS
 62
   130
 10
97.505401134491
 20
-15.6139705657959
 30
0.0
 11
102.505401134491
 21
-15.6139705657959
 31
0.0
  0
LINE
  5
   32F
  8
0
  6
CONTINUOUS
 62
   130
 10
109.755401134491
 20
-22.6139705657959
 30
0.0
 11
110.255401134491
 21
-22.6139705657959
 31
0.0
  0
LINE
  5
   330
  8
0
  6
CONTINUOUS
 62
   130
 10
109.755401134491
 20
-15.6139705657959
 30
0.0
 11
110.255401134491
 21
-15.6139705657959
 31
0.0
  0
LINE
  5
   331
  8
0
  6
CONTINUOUS
 62
   130
 10
109.755401134491
 20
-24.6139705657959
 30
0.0
 11
109.755401134491
 21
-13.563985824585
 31
0.0
  0
LINE
  5
   332
  8
0
  6
CONTINUOUS
 62
   130
 10
102.505401134491
 20
-24.6139705657959
 30
0.0
 11
109.755401134491
 21
-24.6139705657959
 31
0.0
  0
LINE
  5
   333
  8
0
  6
CONTINUOUS
 62
   130
 10
109.755401134491
 20
-24.063985824585
 30
0.0
 11
109.755401134491
 21
-14.063985824585
 31
0.0
  0
LINE
  5
   334
  8
0
  6
CONTINUOUS
 62
   130
 10
109.755401134491
 20
-22.6139705657959
 30
0.0
 11
110.255401134491
 21
-22.6139705657959
 31
0.0
  0
LINE
  5
   335
  8
0
  6
DASHDOT
 62
   130
 10
86.3571178641163
 20
-19.063985824585
 30
0.0
 11
114.71772270226
 21
-19.063985824585
 31
0.0
  0
LINE
  5
   336
  8
0
  6
DASHDOT
 62
   130
 10
86.3571178641163
 20
-19.063985824585
 30
0.0
 11
115.724762184489
 21
-19.063985824585
 31
0.0
  0
LINE
  5
   337
  8
0
  6
CONTINUOUS
 62
   130
 10
84.505401134491
 20
-15.063985824585
 30
0.0
 11
102.505401134491
 21
-15.063985824585
 31
0.0
  0
LINE
  5
   338
  8
0
  6
CONTINUOUS
 62
   130
 10
84.505401134491
 20
-23.063985824585
 30
0.0
 11
102.505401134491
 21
-23.063985824585
 31
0.0
  0
LINE
  5
   339
  8
0
  6
CONTINUOUS
 62
   130
 10
102.505401134491
 20
-24.563985824585
 30
0.0
 11
102.505401134491
 21
-13.563985824585
 31
0.0
  0
LINE
  5
   33A
  8
0
  6
CONTINUOUS
 62
   130
 10
171.255378723145
 20
11.6860332489014
 30
0.0
 11
171.255378723145
 21
12.1860332489014
 31
0.0
  0
LINE
  5
   33B
  8
0
  6
CONTINUOUS
 62
   130
 10
171.255378723145
 20
-11.3139667510986
 30
0.0
 11
171.255378723145
 21
-10.8139667510986
 31
0.0
  0
LINE
  5
   33C
  8
0
  6
CONTINUOUS
 62
   130
 10
171.255378723145
 20
12.9360332489014
 30
0.0
 11
171.255378723145
 21
24.4360332489014
 31
0.0
  0
LINE
  5
   33D
  8
0
  6
DASHDOT
 62
   130
 10
171.255378723145
 20
-33.8154148882972
 30
0.0
 11
171.255378723145
 21
50.1549923310963
 31
0.0
  0
LINE
  5
   33E
  8
0
  6
CONTINUOUS
 62
   130
 10
172.755378723145
 20
-23.5639667510986
 30
0.0
 11
172.755378723145
 21
-10.8139667510986
 31
0.0
  0
LINE
  5
   33F
  8
0
  6
CONTINUOUS
 62
   130
 10
170.505378723145
 20
12.1860332489014
 30
0.0
 11
171.255378723145
 21
12.1860332489014
 31
0.0
  0
LINE
  5
   340
  8
0
  6
CONTINUOUS
 62
   130
 10
170.505378723145
 20
12.9360332489014
 30
0.0
 11
171.255378723145
 21
12.9360332489014
 31
0.0
  0
LINE
  5
   341
  8
0
  6
CONTINUOUS
 62
   130
 10
170.505378723145
 20
12.1860332489014
 30
0.0
 11
170.505378723145
 21
12.9360332489014
 31
0.0
  0
LINE
  5
   342
  8
0
  6
CONTINUOUS
 62
   130
 10
171.255378723145
 20
24.4360332489014
 30
0.0
 11
172.755378723145
 21
24.4360332489014
 31
0.0
  0
LINE
  5
   343
  8
0
  6
CONTINUOUS
 62
   130
 10
171.255378723145
 20
-23.5639667510986
 30
0.0
 11
172.755378723145
 21
-23.5639667510986
 31
0.0
  0
LINE
  5
   344
  8
0
  6
CONTINUOUS
 62
   130
 10
171.255378723145
 20
-23.5639667510986
 30
0.0
 11
171.255378723145
 21
-12.0639667510986
 31
0.0
  0
LINE
  5
   345
  8
0
  6
CONTINUOUS
 62
   130
 10
170.505378723145
 20
-12.0639667510986
 30
0.0
 11
171.255378723145
 21
-12.0639667510986
 31
0.0
  0
LINE
  5
   346
  8
0
  6
CONTINUOUS
 62
   130
 10
170.505378723145
 20
-12.0639667510986
 30
0.0
 11
170.505378723145
 21
-11.3139667510986
 31
0.0
  0
LINE
  5
   347
  8
0
  6
CONTINUOUS
 62
   130
 10
172.755378723145
 20
11.6860332489014
 30
0.0
 11
172.755378723145
 21
24.4360332489014
 31
0.0
  0
LINE
  5
   348
  8
0
  6
CONTINUOUS
 62
   130
 10
170.255378723145
 20
17.1860332489014
 30
0.0
 11
171.255378723145
 21
17.1860332489014
 31
0.0
  0
LINE
  5
   349
  8
0
  6
CONTINUOUS
 62
   130
 10
170.255378723145
 20
15.6860332489014
 30
0.0
 11
171.255378723145
 21
15.6860332489014
 31
0.0
  0
LINE
  5
   34A
  8
0
  6
CONTINUOUS
 62
   130
 10
170.255378723145
 20
15.3110332489014
 30
0.0
 11
170.255378723145
 21
17.5610332489014
 31
0.0
  0
LINE
  5
   34B
  8
0
  6
CONTINUOUS
 62
   130
 10
170.255378723145
 20
-16.6889667510986
 30
0.0
 11
170.255378723145
 21
-14.4389667510986
 31
0.0
  0
LINE
  5
   34C
  8
0
  6
CONTINUOUS
 62
   130
 10
170.255378723145
 20
-16.3139667510986
 30
0.0
 11
171.255378723145
 21
-16.3139667510986
 31
0.0
  0
LINE
  5
   34D
  8
0
  6
CONTINUOUS
 62
   130
 10
170.255378723145
 20
-14.8139667510986
 30
0.0
 11
171.255378723145
 21
-14.8139667510986
 31
0.0
  0
LINE
  5
   34E
  8
0
  6
CONTINUOUS
 62
   130
 10
171.255378723145
 20
12.1860332489014
 30
0.0
 11
172.755378723145
 21
12.1860332489014
 31
0.0
  0
LINE
  5
   34F
  8
0
  6
CONTINUOUS
 62
   130
 10
170.505378723145
 20
-11.3139667510986
 30
0.0
 11
172.755378723145
 21
-11.3139667510986
 31
0.0
  0
LINE
  5
   350
  8
0
  6
DASHDOT
 62
   130
 10
170.505378723145
 20
-34.0815508018459
 30
0.0
 11
170.505378723145
 21
50.4166017498791
 31
0.0
  0
LINE
  5
   351
  8
0
  6
DASHDOT
 62
   130
 10
181.755393250783
 20
-7.92911592810744
 30
0.0
 11
181.755393250783
 21
-3.81145773349341
 31
0.0
  0
INSERT
  5
   352
  8
0
  6
CONTINUOUS
 62
     2
  2
*HATCH19
 10
148.205383300781
 20
-3.71391868591309
 30
0.0
 41
0.5
 42
0.5
 43
0.5
  0
INSERT
  5
   353
  8
0
  6
CONTINUOUS
 62
     2
  2
*HATCH20
 10
148.205383300781
 20
-3.71391868591309
 30
0.0
 41
0.5
 42
0.5
 43
0.5
  0
LINE
  5
   354
  8
0
  6
DASHDOT
 62
   130
 10
171.255378723145
 20
-33.8154148882972
 30
0.0
 11
171.255378723145
 21
50.1549923310963
 31
0.0
  0
LINE
  5
   355
  8
0
  6
DASHDOT
 62
   130
 10
170.505378723145
 20
-34.0815508018459
 30
0.0
 11
170.505378723145
 21
50.4166017498791
 31
0.0
  0
LINE
  5
   356
  8
0
  6
CONTINUOUS
 62
   130
 10
170.005386471748
 20
37.1860256195068
 30
0.0
 11
171.755386471748
 21
37.1860256195068
 31
0.0
  0
LINE
  5
   357
  8
0
  6
CONTINUOUS
 62
   130
 10
170.005386471748
 20
34.6860256195068
 30
0.0
 11
171.755386471748
 21
34.6860256195068
 31
0.0
  0
LINE
  5
   358
  8
0
  6
CONTINUOUS
 62
   130
 10
172.005386471748
 20
34.9360256195068
 30
0.0
 11
172.005386471748
 21
36.9360256195068
 31
0.0
  0
CIRCLE
  5
   359
  8
0
  6
CONTINUOUS
 62
   130
 10
171.005386471748
 20
35.9360256195068
 30
0.0
 40
0.375
  0
LINE
  5
   35A
  8
0
  6
CONTINUOUS
 62
   130
 10
171.755386471748
 20
37.1860256195068
 30
0.0
 11
172.005386471748
 21
36.9360256195068
 31
0.0
  0
LINE
  5
   35B
  8
0
  6
CONTINUOUS
 62
   130
 10
171.755386471748
 20
34.6860256195068
 30
0.0
 11
172.005386471748
 21
34.9360256195068
 31
0.0
  0
LINE
  5
   35C
  8
0
  6
CONTINUOUS
 62
   130
 10
171.755386471748
 20
34.6860256195068
 30
0.0
 11
171.755386471748
 21
37.1860256195068
 31
0.0
  0
LINE
  5
   35D
  8
0
  6
CONTINUOUS
 62
   130
 10
170.005386471748
 20
-24.3139743804932
 30
0.0
 11
171.755386471748
 21
-24.3139743804932
 31
0.0
  0
LINE
  5
   35E
  8
0
  6
CONTINUOUS
 62
   130
 10
171.755386471748
 20
-24.3139743804932
 30
0.0
 11
171.755386471748
 21
-21.8139743804932
 31
0.0
  0
LINE
  5
   35F
  8
0
  6
CONTINUOUS
 62
   130
 10
170.005386471748
 20
-21.8139743804932
 30
0.0
 11
171.755386471748
 21
-21.8139743804932
 31
0.0
  0
LINE
  5
   360
  8
0
  6
CONTINUOUS
 62
   130
 10
171.755386471748
 20
-24.3139743804932
 30
0.0
 11
172.005386471748
 21
-24.0639743804932
 31
0.0
  0
LINE
  5
   361
  8
0
  6
CONTINUOUS
 62
   130
 10
172.005386471748
 20
-24.0639743804932
 30
0.0
 11
172.005386471748
 21
-22.0639743804932
 31
0.0
  0
LINE
  5
   362
  8
0
  6
CONTINUOUS
 62
   130
 10
171.755386471748
 20
-21.8139743804932
 30
0.0
 11
172.005386471748
 21
-22.0639743804932
 31
0.0
  0
CIRCLE
  5
   363
  8
0
  6
CONTINUOUS
 62
   130
 10
171.005386471748
 20
-23.0639743804932
 30
0.0
 40
0.375
  0
CIRCLE
  5
   364
  8
0
  6
CONTINUOUS
 62
   130
 10
135.032134276098
 20
72.0033888442442
 30
0.0
 40
1.5
  0
CIRCLE
  5
   365
  8
0
  6
CONTINUOUS
 62
   130
 10
175.553041736151
 20
70.8115974483603
 30
0.0
 40
1.5
  0
INSERT
  5
   366
  8
0
  6
CONTINUOUS
 62
     2
  2
*HATCH21
 10
148.205383300781
 20
-3.71391868591309
 30
0.0
 41
0.5
 42
0.5
 43
0.5
  0
INSERT
  5
   367
  8
0
  6
CONTINUOUS
 62
     2
  2
*HATCH22
 10
148.205383300781
 20
-3.71391868591309
 30
0.0
 41
0.5
 42
0.5
 43
0.5
  0
INSERT
  5
   368
  8
0
  6
CONTINUOUS
 62
     3
  2
*UDIM129
 10
0.0
 20
0.0
 30
0.0
  0
INSERT
  5
   369
  8
0
  6
CONTINUOUS
 62
     3
  2
*UDIM130
 10
0.0
 20
0.0
 30
0.0
  0
TEXT
  5
   36A
  8
0
  6
CONTINUOUS
 62
     2
 10
189.207021312848
 20
-1.02494148930402
 30
0.0
 40
3.00000002980232
  1
X
 41
0.983333351877
 11
189.207021312848
 21
0.475058525597144
 31
0.0
 73
     2
  0
INSERT
  5
   36B
  8
0
  6
CONTINUOUS
 62
     3
  2
*UDIM131
 10
0.0
 20
0.0
 30
0.0
  0
TEXT
  5
   36C
  8
0
  6
CONTINUOUS
 62
     2
 10
61.460536027161
 20
-1.14871390324572
 30
0.0
 40
3.00000002980232
  1
X
 41
0.983333351877
 72
     2
 11
63.660536104647
 21
0.351286111655441
 31
0.0
 73
     2
  0
INSERT
  5
   36D
  8
0
  6
CONTINUOUS
 62
     3
  2
*UDIM132
 10
0.0
 20
0.0
 30
0.0
  0
INSERT
  5
   36E
  8
0
  6
CONTINUOUS
 62
     3
  2
*UDIM133
 10
0.0
 20
0.0
 30
0.0
  0
INSERT
  5
   36F
  8
0
  6
CONTINUOUS
 62
     3
  2
*UDIM134
 10
0.0
 20
0.0
 30
0.0
  0
INSERT
  5
   370
  8
0
  6
CONTINUOUS
 62
     3
  2
*UDIM135
 10
0.0
 20
0.0
 30
0.0
  0
INSERT
  5
   371
  8
0
  6
CONTINUOUS
 62
     3
  2
*UDIM136
 10
0.0
 20
0.0
 30
0.0
  0
INSERT
  5
   372
  8
0
  6
CONTINUOUS
 62
     3
  2
*UDIM137
 10
0.0
 20
0.0
 30
0.0
  0
INSERT
  5
   373
  8
0
  6
CONTINUOUS
 62
     3
  2
*UDIM138
 10
0.0
 20
0.0
 30
0.0
  0
INSERT
  5
   374
  8
0
  6
CONTINUOUS
 62
     3
  2
*UDIM139
 10
0.0
 20
0.0
 30
0.0
  0
TEXT
  5
   375
  8
0
  6
CONTINUOUS
 62
     2
 10
178.447570800781
 20
71.5403079539538
 30
0.0
 40
2.00000008940697
  1
127mm.CON VITI SIGILLABILI
 41
0.75
 11
178.447570800781
 21
72.5403079986572
 31
0.0
 73
     2
  0
TEXT
  5
   376
  8
0
  6
CONTINUOUS
 62
     2
 10
178.447570800781
 20
68.5403079539537
 30
0.0
 40
2.00000008940697
  1
127mm.WITH SCREWS TO SEAL
 41
0.75
 11
178.447570800781
 21
69.5403079986572
 31
0.0
 73
     2
  0
INSERT
  5
   377
  8
0
  6
CONTINUOUS
 62
     3
  2
*UDIM140
 10
0.0
 20
0.0
 30
0.0
  0
INSERT
  5
   378
  8
0
  6
CONTINUOUS
 62
     3
  2
*UDIM141
 10
0.0
 20
0.0
 30
0.0
  0
INSERT
  5
   379
  8
0
  6
CONTINUOUS
 62
     3
  2
*UDIM142
 10
0.0
 20
0.0
 30
0.0
  0
TEXT
  5
   37A
  8
0
  6
CONTINUOUS
 62
     7
 10
183.067320916932
 20
54.3133350443335
 30
0.0
 40
3.5
  1
:
 41
0.933333333333334
 72
     1
 11
184.350654250265
 21
56.0633350443335
 31
0.0
 73
     2
  0
LINE
  5
   37B
  8
0
  6
CONTINUOUS
 62
   130
 10
107.755385875702
 20
-107.761268615723
 30
0.0
 11
107.755385875702
 21
-118.261268615723
 31
0.0
  0
LINE
  5
   37C
  8
0
  6
DASHDOT
 62
   130
 10
131.405378723145
 20
-102.711268615723
 30
0.0
 11
131.155378723145
 21
-102.711268615723
 31
0.0
  0
LINE
  5
   37D
  8
0
  6
DASHDOT
 62
   130
 10
170.664421401396
 20
-113.261268615723
 30
0.0
 11
105.427600768273
 21
-113.261268615723
 31
0.0
  0
LINE
  5
   37E
  8
0
  6
CONTINUOUS
 62
   130
 10
107.755385875702
 20
-93.2612686157227
 30
0.0
 11
107.755385875702
 21
-103.761268615723
 31
0.0
  0
LINE
  5
   37F
  8
0
  6
CONTINUOUS
 62
   130
 10
111.755378723145
 20
-77.7112838745117
 30
0.0
 11
107.755385875702
 21
-77.7112838745117
 31
0.0
  0
LINE
  5
   380
  8
0
  6
CONTINUOUS
 62
   130
 10
107.755385875702
 20
-77.7112838745117
 30
0.0
 11
107.755385875702
 21
-88.2112841288249
 31
0.0
  0
LINE
  5
   381
  8
0
  6
CONTINUOUS
 62
   130
 10
170.255386471748
 20
-76.2112838745117
 30
0.0
 11
111.755378723145
 21
-76.2112838745117
 31
0.0
  0
LINE
  5
   382
  8
0
  6
CONTINUOUS
 62
   130
 10
170.255386471748
 20
-135.211283874512
 30
0.0
 11
111.755378723145
 21
-135.211283874512
 31
0.0
  0
LINE
  5
   383
  8
0
  6
CONTINUOUS
 62
   130
 10
111.755378723145
 20
-76.2112838745117
 30
0.0
 11
111.755378723145
 21
-120.211283874512
 31
0.0
  0
LINE
  5
   384
  8
0
  6
CONTINUOUS
 62
   130
 10
131.755378723145
 20
-76.2112838745117
 30
0.0
 11
131.755378723145
 21
-135.211283874512
 31
0.0
  0
LINE
  5
   385
  8
0
  6
CONTINUOUS
 62
   130
 10
131.755378723145
 20
-104.336283874512
 30
0.0
 11
111.755378723145
 21
-104.336283874512
 31
0.0
  0
LINE
  5
   386
  8
0
  6
CONTINUOUS
 62
   130
 10
131.755378723145
 20
-107.086283874512
 30
0.0
 11
111.755378723145
 21
-107.086283874512
 31
0.0
  0
LINE
  5
   387
  8
0
  6
DASHDOT
 62
   130
 10
184.70970695659
 20
-98.2612686157227
 30
0.0
 11
83.8571026053272
 21
-98.2612686157227
 31
0.0
  0
LINE
  5
   388
  8
0
  6
CONTINUOUS
 62
   130
 10
131.755378723145
 20
-92.1862533569336
 30
0.0
 11
111.755378723145
 21
-92.1862533569336
 31
0.0
  0
LINE
  5
   389
  8
0
  6
CONTINUOUS
 62
   130
 10
131.755378723145
 20
-89.4362533569336
 30
0.0
 11
111.755378723145
 21
-89.4362533569336
 31
0.0
  0
LINE
  5
   38A
  8
0
  6
CONTINUOUS
 62
   130
 10
123.005426681859
 20
-80.7612686157227
 30
0.0
 11
114.25542668186
 21
-80.7612686157227
 31
0.0
  0
LINE
  5
   38B
  8
0
  6
CONTINUOUS
 62
   130
 10
123.005426681859
 20
-85.7612686157227
 30
0.0
 11
114.25542668186
 21
-85.7612686157227
 31
0.0
  0
LINE
  5
   38C
  8
0
  6
CONTINUOUS
 62
   130
 10
123.005426681859
 20
-95.7612686157227
 30
0.0
 11
114.25542668186
 21
-95.7612686157227
 31
0.0
  0
LINE
  5
   38D
  8
0
  6
CONTINUOUS
 62
   130
 10
123.005426681859
 20
-100.761268615723
 30
0.0
 11
114.25542668186
 21
-100.761268615723
 31
0.0
  0
LINE
  5
   38E
  8
0
  6
CONTINUOUS
 62
   130
 10
123.005426681859
 20
-110.761268615723
 30
0.0
 11
114.25542668186
 21
-110.761268615723
 31
0.0
  0
LINE
  5
   38F
  8
0
  6
CONTINUOUS
 62
   130
 10
123.005426681859
 20
-115.761268615723
 30
0.0
 11
114.25542668186
 21
-115.761268615723
 31
0.0
  0
LINE
  5
   390
  8
0
  6
CONTINUOUS
 62
   130
 10
114.25542668186
 20
-80.7612686157227
 30
0.0
 11
114.25542668186
 21
-85.7612686157227
 31
0.0
  0
LINE
  5
   391
  8
0
  6
CONTINUOUS
 62
   130
 10
123.005426681859
 20
-80.7612686157227
 30
0.0
 11
123.005426681859
 21
-85.7612686157227
 31
0.0
  0
LINE
  5
   392
  8
0
  6
CONTINUOUS
 62
   130
 10
114.25542668186
 20
-95.7612686157227
 30
0.0
 11
114.25542668186
 21
-100.761268615723
 31
0.0
  0
LINE
  5
   393
  8
0
  6
CONTINUOUS
 62
   130
 10
123.005426681859
 20
-95.7612686157227
 30
0.0
 11
123.005426681859
 21
-100.761268615723
 31
0.0
  0
LINE
  5
   394
  8
0
  6
CONTINUOUS
 62
   130
 10
114.25542668186
 20
-110.761268615723
 30
0.0
 11
114.25542668186
 21
-115.761268615723
 31
0.0
  0
LINE
  5
   395
  8
0
  6
CONTINUOUS
 62
   130
 10
123.005426681859
 20
-110.761268615723
 30
0.0
 11
123.005426681859
 21
-115.761268615723
 31
0.0
  0
LINE
  5
   396
  8
0
  6
CONTINUOUS
 62
   130
 10
126.755378723145
 20
-79.7612686157227
 30
0.0
 11
111.755378723145
 21
-79.7612686157227
 31
0.0
  0
LINE
  5
   397
  8
0
  6
CONTINUOUS
 62
   130
 10
126.755378723145
 20
-86.7612686157227
 30
0.0
 11
111.755378723145
 21
-86.7612686157227
 31
0.0
  0
LINE
  5
   398
  8
0
  6
CONTINUOUS
 62
   130
 10
126.755378723145
 20
-94.7612686157227
 30
0.0
 11
111.755378723145
 21
-94.7612686157227
 31
0.0
  0
LINE
  5
   399
  8
0
  6
CONTINUOUS
 62
   130
 10
126.755378723145
 20
-101.761268615723
 30
0.0
 11
111.755378723145
 21
-101.761268615723
 31
0.0
  0
LINE
  5
   39A
  8
0
  6
CONTINUOUS
 62
   130
 10
126.755378723145
 20
-109.761268615723
 30
0.0
 11
111.755378723145
 21
-109.761268615723
 31
0.0
  0
LINE
  5
   39B
  8
0
  6
CONTINUOUS
 62
   130
 10
126.755378723145
 20
-116.761268615723
 30
0.0
 11
111.755378723145
 21
-116.761268615723
 31
0.0
  0
LINE
  5
   39C
  8
0
  6
CONTINUOUS
 62
   130
 10
126.755378723145
 20
-79.7612686157227
 30
0.0
 11
126.755378723145
 21
-86.7612686157227
 31
0.0
  0
LINE
  5
   39D
  8
0
  6
CONTINUOUS
 62
   130
 10
126.755378723145
 20
-94.7612686157227
 30
0.0
 11
126.755378723145
 21
-101.761268615723
 31
0.0
  0
LINE
  5
   39E
  8
0
  6
CONTINUOUS
 62
   130
 10
126.755378723145
 20
-109.761268615723
 30
0.0
 11
126.755378723145
 21
-116.761268615723
 31
0.0
  0
LINE
  5
   39F
  8
0
  6
CONTINUOUS
 62
   130
 10
111.255378723145
 20
-88.2112841288249
 30
0.0
 11
105.755378723145
 21
-88.2112841288249
 31
0.0
  0
LINE
  5
   3A0
  8
0
  6
CONTINUOUS
 62
   130
 10
111.255378723145
 20
-93.2612686157227
 30
0.0
 11
105.755378723145
 21
-93.2612686157227
 31
0.0
  0
LINE
  5
   3A1
  8
0
  6
CONTINUOUS
 62
   130
 10
105.755378723145
 20
-88.2112841288249
 30
0.0
 11
105.755378723145
 21
-93.2612686157227
 31
0.0
  0
ARC
  5
   3A2
  8
0
  6
CONTINUOUS
 62
   130
 10
111.255378723145
 20
-87.7112841288249
 30
0.0
 40
0.5
 50
269.999999896069
 51
359.999999896069
  0
ARC
  5
   3A3
  8
0
  6
CONTINUOUS
 62
   130
 10
111.255378723145
 20
-93.7612686157227
 30
0.0
 40
0.5
 50
359.999999896069
 51
449.999999896069
  0
LINE
  5
   3A4
  8
0
  6
DASHDOT
 62
   130
 10
170.664421401396
 20
-83.2612686157227
 30
0.0
 11
105.427600768273
 21
-83.2612686157227
 31
0.0
  0
LINE
  5
   3A5
  8
0
  6
DASHDOT
 62
   130
 10
134.927569759047
 20
-90.7362763722738
 30
0.0
 11
104.166865980908
 21
-90.7362763722738
 31
0.0
  0
LINE
  5
   3A6
  8
0
  6
DASHDOT
 62
   130
 10
135.936484970429
 20
-105.761268615723
 30
0.0
 11
103.965082938631
 21
-105.761268615723
 31
0.0
  0
LINE
  5
   3A7
  8
0
  6
CONTINUOUS
 62
   130
 10
135.755393981934
 20
-76.7112838745117
 30
0.0
 11
135.755393981934
 21
-134.711283874512
 31
0.0
  0
ARC
  5
   3A8
  8
0
  6
CONTINUOUS
 62
   130
 10
135.255393981934
 20
-76.7112838745117
 30
0.0
 40
0.5
 50
359.999999896069
 51
449.999999896069
  0
ARC
  5
   3A9
  8
0
  6
CONTINUOUS
 62
   130
 10
135.255393981934
 20
-134.711283874512
 30
0.0
 40
0.5
 50
269.999999896069
 51
359.999999896069
  0
LINE
  5
   3AA
  8
0
  6
CONTINUOUS
 62
   130
 10
167.755386471748
 20
-76.2112838745117
 30
0.0
 11
167.755386471748
 21
-135.211283874512
 31
0.0
  0
LINE
  5
   3AB
  8
0
  6
CONTINUOUS
 62
   130
 10
170.255386471748
 20
-76.2112838745117
 30
0.0
 11
170.255386471748
 21
-135.211283874512
 31
0.0
  0
LINE
  5
   3AC
  8
0
  6
CONTINUOUS
 62
   130
 10
178.938369741451
 20
-95.5112686157227
 30
0.0
 11
178.938369741451
 21
-101.011268615723
 31
0.0
  0
LINE
  5
   3AD
  8
0
  6
CONTINUOUS
 62
   130
 10
178.438369741451
 20
-95.0112686157227
 30
0.0
 11
170.255386471748
 21
-95.0112686157227
 31
0.0
  0
LINE
  5
   3AE
  8
0
  6
CONTINUOUS
 62
   130
 10
178.438369741451
 20
-101.511268615723
 30
0.0
 11
170.255386471748
 21
-101.511268615723
 31
0.0
  0
ARC
  5
   3AF
  8
0
  6
CONTINUOUS
 62
   130
 10
178.438369741451
 20
-95.5112686157227
 30
0.0
 40
0.5
 50
359.999999896069
 51
449.999999896069
  0
ARC
  5
   3B0
  8
0
  6
CONTINUOUS
 62
   130
 10
178.438369741451
 20
-101.011268615723
 30
0.0
 40
0.5
 50
269.999999896069
 51
359.999999896069
  0
LINE
  5
   3B1
  8
0
  6
CONTINUOUS
 62
   130
 10
155.505386471748
 20
-95.2612686157227
 30
0.0
 11
155.505386471748
 21
-97.5112686157227
 31
0.0
  0
LINE
  5
   3B2
  8
0
  6
CONTINUOUS
 62
   130
 10
166.755386471748
 20
-97.5112686157227
 30
0.0
 11
155.505386471748
 21
-97.5112686157227
 31
0.0
  0
LINE
  5
   3B3
  8
0
  6
CONTINUOUS
 62
   130
 10
166.755386471748
 20
-99.0112686157227
 30
0.0
 11
155.505386471748
 21
-99.0112686157227
 31
0.0
  0
LINE
  5
   3B4
  8
0
  6
CONTINUOUS
 62
   130
 10
166.755386471748
 20
-95.2612686157227
 30
0.0
 11
155.505386471748
 21
-95.2612686157227
 31
0.0
  0
LINE
  5
   3B5
  8
0
  6
CONTINUOUS
 62
   130
 10
166.755386471748
 20
-101.261268615723
 30
0.0
 11
155.505386471748
 21
-101.261268615723
 31
0.0
  0
LINE
  5
   3B6
  8
0
  6
CONTINUOUS
 62
   130
 10
166.755386471748
 20
-95.2612686157227
 30
0.0
 11
166.755386471748
 21
-97.5112686157227
 31
0.0
  0
LINE
  5
   3B7
  8
0
  6
CONTINUOUS
 62
   130
 10
155.505386471748
 20
-99.0112686157227
 30
0.0
 11
155.505386471748
 21
-101.261268615723
 31
0.0
  0
LINE
  5
   3B8
  8
0
  6
CONTINUOUS
 62
   130
 10
166.755386471748
 20
-99.0112686157227
 30
0.0
 11
166.755386471748
 21
-101.261268615723
 31
0.0
  0
LINE
  5
   3B9
  8
0
  6
CONTINUOUS
 62
   130
 10
166.755386471748
 20
-116.261268615723
 30
0.0
 11
155.505386471748
 21
-116.261268615723
 31
0.0
  0
LINE
  5
   3BA
  8
0
  6
CONTINUOUS
 62
   130
 10
166.755386471748
 20
-114.011268615723
 30
0.0
 11
155.505386471748
 21
-114.011268615723
 31
0.0
  0
LINE
  5
   3BB
  8
0
  6
CONTINUOUS
 62
   130
 10
166.755386471748
 20
-112.511268615723
 30
0.0
 11
155.505386471748
 21
-112.511268615723
 31
0.0
  0
LINE
  5
   3BC
  8
0
  6
CONTINUOUS
 62
   130
 10
166.755386471748
 20
-110.261268615723
 30
0.0
 11
155.505386471748
 21
-110.261268615723
 31
0.0
  0
LINE
  5
   3BD
  8
0
  6
CONTINUOUS
 62
   130
 10
155.505386471748
 20
-110.261268615723
 30
0.0
 11
155.505386471748
 21
-112.511268615723
 31
0.0
  0
LINE
  5
   3BE
  8
0
  6
CONTINUOUS
 62
   130
 10
155.505386471748
 20
-114.011268615723
 30
0.0
 11
155.505386471748
 21
-116.261268615723
 31
0.0
  0
LINE
  5
   3BF
  8
0
  6
CONTINUOUS
 62
   130
 10
166.755386471748
 20
-114.011268615723
 30
0.0
 11
166.755386471748
 21
-116.261268615723
 31
0.0
  0
LINE
  5
   3C0
  8
0
  6
CONTINUOUS
 62
   130
 10
166.755386471748
 20
-110.261268615723
 30
0.0
 11
166.755386471748
 21
-112.511268615723
 31
0.0
  0
LINE
  5
   3C1
  8
0
  6
CONTINUOUS
 62
   130
 10
166.755386471748
 20
-86.2612686157227
 30
0.0
 11
155.505386471748
 21
-86.2612686157227
 31
0.0
  0
LINE
  5
   3C2
  8
0
  6
CONTINUOUS
 62
   130
 10
155.505386471748
 20
-84.0112686157227
 30
0.0
 11
155.505386471748
 21
-86.2612686157227
 31
0.0
  0
LINE
  5
   3C3
  8
0
  6
CONTINUOUS
 62
   130
 10
166.755386471748
 20
-84.0112686157227
 30
0.0
 11
155.505386471748
 21
-84.0112686157227
 31
0.0
  0
LINE
  5
   3C4
  8
0
  6
CONTINUOUS
 62
   130
 10
166.755386471748
 20
-84.0112686157227
 30
0.0
 11
166.755386471748
 21
-86.2612686157227
 31
0.0
  0
LINE
  5
   3C5
  8
0
  6
CONTINUOUS
 62
   130
 10
166.755386471748
 20
-82.5112686157227
 30
0.0
 11
155.505386471748
 21
-82.5112686157227
 31
0.0
  0
LINE
  5
   3C6
  8
0
  6
CONTINUOUS
 62
   130
 10
155.505386471748
 20
-80.2612686157227
 30
0.0
 11
155.505386471748
 21
-82.5112686157227
 31
0.0
  0
LINE
  5
   3C7
  8
0
  6
CONTINUOUS
 62
   130
 10
166.755386471748
 20
-80.2612686157227
 30
0.0
 11
155.505386471748
 21
-80.2612686157227
 31
0.0
  0
LINE
  5
   3C8
  8
0
  6
CONTINUOUS
 62
   130
 10
166.755386471748
 20
-80.2612686157227
 30
0.0
 11
166.755386471748
 21
-82.5112686157227
 31
0.0
  0
LINE
  5
   3C9
  8
0
  6
CONTINUOUS
 62
   130
 10
107.255385875702
 20
-107.761268615723
 30
0.0
 11
107.255385875702
 21
-118.261268615723
 31
0.0
  0
LINE
  5
   3CA
  8
0
  6
CONTINUOUS
 62
   130
 10
107.755385875702
 20
-116.761268615723
 30
0.0
 11
107.255385875702
 21
-116.761268615723
 31
0.0
  0
LINE
  5
   3CB
  8
0
  6
CONTINUOUS
 62
   130
 10
107.755385875702
 20
-109.761268615723
 30
0.0
 11
107.255385875702
 21
-109.761268615723
 31
0.0
  0
LINE
  5
   3CC
  8
0
  6
CONTINUOUS
 62
   130
 10
105.755378723145
 20
-118.761268615723
 30
0.0
 11
100.005385875702
 21
-118.761268615723
 31
0.0
  0
LINE
  5
   3CD
  8
0
  6
CONTINUOUS
 62
   130
 10
107.255385875702
 20
-107.761268615723
 30
0.0
 11
100.005385875702
 21
-107.761268615723
 31
0.0
  0
LINE
  5
   3CE
  8
0
  6
CONTINUOUS
 62
   130
 10
100.005385875702
 20
-115.261268615723
 30
0.0
 11
100.005385875702
 21
-118.761268615723
 31
0.0
  0
LINE
  5
   3CF
  8
0
  6
CONTINUOUS
 62
   130
 10
82.0053858757019
 20
-93.895220852732
 30
0.0
 11
82.0053858757019
 21
-102.261268615723
 31
0.0
  0
LINE
  5
   3D0
  8
0
  6
CONTINUOUS
 62
   130
 10
107.255385875702
 20
-103.761268615723
 30
0.0
 11
100.005385875702
 21
-103.761268615723
 31
0.0
  0
LINE
  5
   3D1
  8
0
  6
CONTINUOUS
 62
   130
 10
105.755378723145
 20
-92.7612686157227
 30
0.0
 11
100.005385875702
 21
-92.7612686157227
 31
0.0
  0
LINE
  5
   3D2
  8
0
  6
CONTINUOUS
 62
   130
 10
68.7553858757019
 20
-96.7612686157227
 30
0.0
 11
68.7553858757019
 21
-99.7612686157227
 31
0.0
  0
LINE
  5
   3D3
  8
0
  6
CONTINUOUS
 62
   130
 10
71.7553858757019
 20
-100.261268615723
 30
0.0
 11
69.2553858757019
 21
-100.261268615723
 31
0.0
  0
LINE
  5
   3D4
  8
0
  6
CONTINUOUS
 62
   130
 10
71.7553858757019
 20
-96.2612686157227
 30
0.0
 11
69.2553858757019
 21
-96.2612686157227
 31
0.0
  0
LINE
  5
   3D5
  8
0
  6
CONTINUOUS
 62
   130
 10
100.005385875702
 20
-107.761268615723
 30
0.0
 11
100.005385875702
 21
-111.261268615723
 31
0.0
  0
LINE
  5
   3D6
  8
0
  6
CONTINUOUS
 62
   130
 10
69.2553858757019
 20
-100.261268615723
 30
0.0
 11
68.7553858757019
 21
-99.7612686157227
 31
0.0
  0
LINE
  5
   3D7
  8
0
  6
CONTINUOUS
 62
   130
 10
69.2553858757019
 20
-96.2612686157227
 30
0.0
 11
68.7553858757019
 21
-96.7612686157226
 31
0.0
  0
LINE
  5
   3D8
  8
0
  6
CONTINUOUS
 62
   130
 10
76.2553858757019
 20
-96.7612686157227
 30
0.0
 11
72.5053858757019
 21
-96.7612686157227
 31
0.0
  0
LINE
  5
   3D9
  8
0
  6
CONTINUOUS
 62
   130
 10
69.2553858757019
 20
-96.2612686157227
 30
0.0
 11
69.2553858757019
 21
-100.261268615723
 31
0.0
  0
LINE
  5
   3DA
  8
0
  6
CONTINUOUS
 62
   130
 10
100.005385875702
 20
-77.7112838745117
 30
0.0
 11
100.005385875702
 21
-81.2112838745117
 31
0.0
  0
LINE
  5
   3DB
  8
0
  6
CONTINUOUS
 62
   130
 10
100.005385875702
 20
-85.2112838745117
 30
0.0
 11
100.005385875702
 21
-88.7112838745117
 31
0.0
  0
LINE
  5
   3DC
  8
0
  6
CONTINUOUS
 62
   130
 10
79.5053858757019
 20
-94.7612686157227
 30
0.0
 11
79.5053858757019
 21
-101.761268615723
 31
0.0
  0
LINE
  5
   3DD
  8
0
  6
CONTINUOUS
 62
   130
 10
77.0053858757019
 20
-94.2612686157227
 30
0.0
 11
77.0053858757019
 21
-102.261268615723
 31
0.0
  0
LINE
  5
   3DE
  8
0
  6
CONTINUOUS
 62
   130
 10
81.8553858757019
 20
-101.761268615723
 30
0.0
 11
77.0053858757019
 21
-101.761268615723
 31
0.0
  0
LINE
  5
   3DF
  8
0
  6
CONTINUOUS
 62
   130
 10
81.8553858757019
 20
-94.7612686157227
 30
0.0
 11
77.0053858757019
 21
-94.7612686157227
 31
0.0
  0
LINE
  5
   3E0
  8
0
  6
CONTINUOUS
 62
   130
 10
76.2553858757019
 20
-94.2612686157227
 30
0.0
 11
76.2553858757019
 21
-102.261268615723
 31
0.0
  0
LINE
  5
   3E1
  8
0
  6
CONTINUOUS
 62
   130
 10
77.0053858757019
 20
-102.261268615723
 30
0.0
 11
76.2553858757019
 21
-102.261268615723
 31
0.0
  0
LINE
  5
   3E2
  8
0
  6
CONTINUOUS
 62
   130
 10
77.0053858757019
 20
-94.2612686157227
 30
0.0
 11
76.2553858757019
 21
-94.2612686157227
 31
0.0
  0
LINE
  5
   3E3
  8
0
  6
CONTINUOUS
 62
   130
 10
69.2553858757019
 20
-94.7612686157227
 30
0.0
 11
69.2553858757019
 21
-101.761268615723
 31
0.0
  0
LINE
  5
   3E4
  8
0
  6
CONTINUOUS
 62
   130
 10
71.7553858757019
 20
-94.2612686157227
 30
0.0
 11
71.7553858757019
 21
-102.261268615723
 31
0.0
  0
LINE
  5
   3E5
  8
0
  6
CONTINUOUS
 62
   130
 10
72.5053858757019
 20
-94.2612686157227
 30
0.0
 11
72.5053858757019
 21
-102.261268615723
 31
0.0
  0
LINE
  5
   3E6
  8
0
  6
CONTINUOUS
 62
   130
 10
71.7553858757019
 20
-101.761268615723
 30
0.0
 11
69.2553858757019
 21
-101.761268615723
 31
0.0
  0
LINE
  5
   3E7
  8
0
  6
CONTINUOUS
 62
   130
 10
71.7553858757019
 20
-94.7612686157227
 30
0.0
 11
69.2553858757019
 21
-94.7612686157227
 31
0.0
  0
LINE
  5
   3E8
  8
0
  6
CONTINUOUS
 62
   130
 10
72.5053858757019
 20
-102.261268615723
 30
0.0
 11
71.7553858757019
 21
-102.261268615723
 31
0.0
  0
LINE
  5
   3E9
  8
0
  6
CONTINUOUS
 62
   130
 10
72.5053858757019
 20
-94.2612686157227
 30
0.0
 11
71.7553858757019
 21
-94.2612686157227
 31
0.0
  0
LINE
  5
   3EA
  8
0
  6
CONTINUOUS
 62
   130
 10
81.8553858757019
 20
-100.261268615723
 30
0.0
 11
77.0053858757019
 21
-100.261268615723
 31
0.0
  0
LINE
  5
   3EB
  8
0
  6
CONTINUOUS
 62
   130
 10
81.8553858757019
 20
-96.2612686157227
 30
0.0
 11
77.0053858757019
 21
-96.2612686157227
 31
0.0
  0
LINE
  5
   3EC
  8
0
  6
CONTINUOUS
 62
   130
 10
76.2553858757019
 20
-100.261268615723
 30
0.0
 11
72.5053858757019
 21
-100.261268615723
 31
0.0
  0
LINE
  5
   3ED
  8
0
  6
CONTINUOUS
 62
   130
 10
76.2553858757019
 20
-96.2612686157227
 30
0.0
 11
72.5053858757019
 21
-96.2612686157227
 31
0.0
  0
LINE
  5
   3EE
  8
0
  6
CONTINUOUS
 62
   130
 10
76.2553858757019
 20
-99.7612686157227
 30
0.0
 11
72.5053858757019
 21
-99.7612686157227
 31
0.0
  0
LINE
  5
   3EF
  8
0
  6
CONTINUOUS
 62
   130
 10
97.5053858757019
 20
-109.761268615723
 30
0.0
 11
97.5053858757019
 21
-116.761268615723
 31
0.0
  0
LINE
  5
   3F0
  8
0
  6
CONTINUOUS
 62
   130
 10
95.0053858757019
 20
-109.261268615723
 30
0.0
 11
95.0053858757019
 21
-117.261268615723
 31
0.0
  0
LINE
  5
   3F1
  8
0
  6
CONTINUOUS
 62
   130
 10
94.2553858757019
 20
-109.261268615723
 30
0.0
 11
94.2553858757019
 21
-117.261268615723
 31
0.0
  0
LINE
  5
   3F2
  8
0
  6
CONTINUOUS
 62
   130
 10
90.5053858757019
 20
-109.261268615723
 30
0.0
 11
90.5053858757019
 21
-117.261268615723
 31
0.0
  0
LINE
  5
   3F3
  8
0
  6
CONTINUOUS
 62
   130
 10
89.7553858757019
 20
-109.261268615723
 30
0.0
 11
89.7553858757019
 21
-117.261268615723
 31
0.0
  0
LINE
  5
   3F4
  8
0
  6
CONTINUOUS
 62
   130
 10
87.2553858757019
 20
-109.761268615723
 30
0.0
 11
87.2553858757019
 21
-116.761268615723
 31
0.0
  0
LINE
  5
   3F5
  8
0
  6
CONTINUOUS
 62
   130
 10
86.7553858757019
 20
-111.761268615723
 30
0.0
 11
86.7553858757019
 21
-114.761268615723
 31
0.0
  0
LINE
  5
   3F6
  8
0
  6
CONTINUOUS
 62
   130
 10
89.7553858757019
 20
-116.761268615723
 30
0.0
 11
87.2553858757019
 21
-116.761268615723
 31
0.0
  0
LINE
  5
   3F7
  8
0
  6
CONTINUOUS
 62
   130
 10
89.7553858757019
 20
-115.261268615723
 30
0.0
 11
87.2553858757019
 21
-115.261268615723
 31
0.0
  0
LINE
  5
   3F8
  8
0
  6
CONTINUOUS
 62
   130
 10
89.7553858757019
 20
-111.261268615723
 30
0.0
 11
87.2553858757019
 21
-111.261268615723
 31
0.0
  0
LINE
  5
   3F9
  8
0
  6
CONTINUOUS
 62
   130
 10
89.7553858757019
 20
-109.761268615723
 30
0.0
 11
87.2553858757019
 21
-109.761268615723
 31
0.0
  0
LINE
  5
   3FA
  8
0
  6
CONTINUOUS
 62
   130
 10
99.8553858757019
 20
-109.761268615723
 30
0.0
 11
95.0053858757019
 21
-109.761268615723
 31
0.0
  0
LINE
  5
   3FB
  8
0
  6
CONTINUOUS
 62
   130
 10
99.8553858757019
 20
-116.761268615723
 30
0.0
 11
95.0053858757019
 21
-116.761268615723
 31
0.0
  0
LINE
  5
   3FC
  8
0
  6
CONTINUOUS
 62
   130
 10
95.0053858757019
 20
-117.261268615723
 30
0.0
 11
94.2553858757019
 21
-117.261268615723
 31
0.0
  0
LINE
  5
   3FD
  8
0
  6
CONTINUOUS
 62
   130
 10
95.0053858757019
 20
-109.261268615723
 30
0.0
 11
94.2553858757019
 21
-109.261268615723
 31
0.0
  0
LINE
  5
   3FE
  8
0
  6
CONTINUOUS
 62
   130
 10
90.5053858757019
 20
-109.261268615723
 30
0.0
 11
89.7553858757019
 21
-109.261268615723
 31
0.0
  0
LINE
  5
   3FF
  8
0
  6
CONTINUOUS
 62
   130
 10
94.2553858757019
 20
-115.261268615723
 30
0.0
 11
90.5053858757019
 21
-115.261268615723
 31
0.0
  0
LINE
  5
   400
  8
0
  6
CONTINUOUS
 62
   130
 10
94.2553858757019
 20
-111.261268615723
 30
0.0
 11
90.5053858757019
 21
-111.261268615723
 31
0.0
  0
LINE
  5
   401
  8
0
  6
CONTINUOUS
 62
   130
 10
94.2553858757019
 20
-111.761268615723
 30
0.0
 11
90.5053858757019
 21
-111.761268615723
 31
0.0
  0
LINE
  5
   402
  8
0
  6
CONTINUOUS
 62
   130
 10
94.2553858757019
 20
-114.761268615723
 30
0.0
 11
90.5053858757019
 21
-114.761268615723
 31
0.0
  0
LINE
  5
   403
  8
0
  6
CONTINUOUS
 62
   130
 10
87.2553858757019
 20
-115.261268615723
 30
0.0
 11
86.7553858757019
 21
-114.761268615723
 31
0.0
  0
LINE
  5
   404
  8
0
  6
CONTINUOUS
 62
   130
 10
86.7553858757019
 20
-111.761268615723
 30
0.0
 11
86.7553858757019
 21
-114.761268615723
 31
0.0
  0
LINE
  5
   405
  8
0
  6
CONTINUOUS
 62
   130
 10
87.2553858757019
 20
-111.261268615723
 30
0.0
 11
86.7553858757019
 21
-111.761268615723
 31
0.0
  0
LINE
  5
   406
  8
0
  6
CONTINUOUS
 62
   130
 10
90.5053858757019
 20
-117.261268615723
 30
0.0
 11
89.7553858757019
 21
-117.261268615723
 31
0.0
  0
LINE
  5
   407
  8
0
  6
CONTINUOUS
 62
   130
 10
100.005385875702
 20
-115.261268615723
 30
0.0
 11
95.0053858757019
 21
-115.261268615723
 31
0.0
  0
LINE
  5
   408
  8
0
  6
CONTINUOUS
 62
   130
 10
100.005385875702
 20
-111.261268615723
 30
0.0
 11
95.0053858757019
 21
-111.261268615723
 31
0.0
  0
LINE
  5
   409
  8
0
  6
CONTINUOUS
 62
   130
 10
100.005385875702
 20
-110.423808332768
 30
0.0
 11
100.005385875702
 21
-118.761268615723
 31
0.0
  0
LINE
  5
   40A
  8
0
  6
CONTINUOUS
 62
   130
 10
100.005385875702
 20
-79.7112838745117
 30
0.0
 11
95.0053858757019
 21
-79.7112838745117
 31
0.0
  0
LINE
  5
   40B
  8
0
  6
CONTINUOUS
 62
   130
 10
97.5053858757019
 20
-79.7112838745117
 30
0.0
 11
97.5053858757019
 21
-86.7112838745117
 31
0.0
  0
LINE
  5
   40C
  8
0
  6
CONTINUOUS
 62
   130
 10
94.2553858757019
 20
-81.7112838745117
 30
0.0
 11
90.5053858757019
 21
-81.7112838745117
 31
0.0
  0
LINE
  5
   40D
  8
0
  6
CONTINUOUS
 62
   130
 10
94.2553858757019
 20
-79.2112838745117
 30
0.0
 11
94.2553858757019
 21
-87.2112838745117
 31
0.0
  0
LINE
  5
   40E
  8
0
  6
CONTINUOUS
 62
   130
 10
100.005385875702
 20
-77.7112838745117
 30
0.0
 11
100.005385875702
 21
-86.0487441574664
 31
0.0
  0
LINE
  5
   40F
  8
0
  6
CONTINUOUS
 62
   130
 10
100.005385875702
 20
-81.2112838745117
 30
0.0
 11
95.0053858757019
 21
-81.2112838745117
 31
0.0
  0
LINE
  5
   410
  8
0
  6
CONTINUOUS
 62
   130
 10
100.005385875702
 20
-85.2112838745117
 30
0.0
 11
95.0053858757019
 21
-85.2112838745117
 31
0.0
  0
LINE
  5
   411
  8
0
  6
CONTINUOUS
 62
   130
 10
95.0053858757019
 20
-79.2112838745117
 30
0.0
 11
95.0053858757019
 21
-87.2112838745117
 31
0.0
  0
LINE
  5
   412
  8
0
  6
CONTINUOUS
 62
   130
 10
94.2553858757019
 20
-81.2112838745117
 30
0.0
 11
90.5053858757019
 21
-81.2112838745117
 31
0.0
  0
LINE
  5
   413
  8
0
  6
CONTINUOUS
 62
   130
 10
95.0053858757019
 20
-79.2112838745117
 30
0.0
 11
94.2553858757019
 21
-79.2112838745117
 31
0.0
  0
LINE
  5
   414
  8
0
  6
CONTINUOUS
 62
   130
 10
95.0053858757019
 20
-87.2112838745117
 30
0.0
 11
94.2553858757019
 21
-87.2112838745117
 31
0.0
  0
LINE
  5
   415
  8
0
  6
CONTINUOUS
 62
   130
 10
90.5053858757019
 20
-79.2112838745117
 30
0.0
 11
89.7553858757019
 21
-79.2112838745117
 31
0.0
  0
LINE
  5
   416
  8
0
  6
CONTINUOUS
 62
   130
 10
90.5053858757019
 20
-87.2112838745117
 30
0.0
 11
89.7553858757019
 21
-87.2112838745117
 31
0.0
  0
LINE
  5
   417
  8
0
  6
CONTINUOUS
 62
   130
 10
89.7553858757019
 20
-79.7112838745117
 30
0.0
 11
87.2553858757019
 21
-79.7112838745117
 31
0.0
  0
LINE
  5
   418
  8
0
  6
CONTINUOUS
 62
   130
 10
89.7553858757019
 20
-81.2112838745117
 30
0.0
 11
87.2553858757019
 21
-81.2112838745117
 31
0.0
  0
LINE
  5
   419
  8
0
  6
CONTINUOUS
 62
   130
 10
89.7553858757019
 20
-85.2112838745117
 30
0.0
 11
87.2553858757019
 21
-85.2112838745117
 31
0.0
  0
LINE
  5
   41A
  8
0
  6
CONTINUOUS
 62
   130
 10
89.7553858757019
 20
-86.7112838745117
 30
0.0
 11
87.2553858757019
 21
-86.7112838745117
 31
0.0
  0
LINE
  5
   41B
  8
0
  6
CONTINUOUS
 62
   130
 10
87.2553858757019
 20
-81.2112838745117
 30
0.0
 11
86.7553858757019
 21
-81.7112838745117
 31
0.0
  0
LINE
  5
   41C
  8
0
  6
CONTINUOUS
 62
   130
 10
86.7553858757019
 20
-81.7112838745117
 30
0.0
 11
86.7553858757019
 21
-84.7112838745117
 31
0.0
  0
LINE
  5
   41D
  8
0
  6
CONTINUOUS
 62
   130
 10
87.2553858757019
 20
-85.2112838745118
 30
0.0
 11
86.7553858757019
 21
-84.7112838745118
 31
0.0
  0
LINE
  5
   41E
  8
0
  6
CONTINUOUS
 62
   130
 10
89.7553858757019
 20
-79.7112838745117
 30
0.0
 11
87.2553858757019
 21
-79.7112838745117
 31
0.0
  0
LINE
  5
   41F
  8
0
  6
CONTINUOUS
 62
   130
 10
87.2553858757019
 20
-79.7112838745117
 30
0.0
 11
87.2553858757019
 21
-86.7112838745117
 31
0.0
  0
LINE
  5
   420
  8
0
  6
CONTINUOUS
 62
   130
 10
89.7553858757019
 20
-79.2112838745117
 30
0.0
 11
89.7553858757019
 21
-87.2112838745117
 31
0.0
  0
LINE
  5
   421
  8
0
  6
CONTINUOUS
 62
   130
 10
89.7553858757019
 20
-79.2112838745117
 30
0.0
 11
89.7553858757019
 21
-87.2112838745117
 31
0.0
  0
LINE
  5
   422
  8
0
  6
CONTINUOUS
 62
   130
 10
90.5053858757019
 20
-79.2112838745117
 30
0.0
 11
90.5053858757019
 21
-87.2112838745117
 31
0.0
  0
LINE
  5
   423
  8
0
  6
CONTINUOUS
 62
   130
 10
94.2553858757019
 20
-79.2112838745117
 30
0.0
 11
94.2553858757019
 21
-87.2112838745117
 31
0.0
  0
LINE
  5
   424
  8
0
  6
CONTINUOUS
 62
   130
 10
94.2553858757019
 20
-79.2112838745117
 30
0.0
 11
94.2553858757019
 21
-87.2112838745117
 31
0.0
  0
LINE
  5
   425
  8
0
  6
CONTINUOUS
 62
   130
 10
94.2553858757019
 20
-81.2112838745117
 30
0.0
 11
90.5053858757019
 21
-81.2112838745117
 31
0.0
  0
LINE
  5
   426
  8
0
  6
CONTINUOUS
 62
   130
 10
94.2553858757019
 20
-85.2112838745117
 30
0.0
 11
90.5053858757019
 21
-85.2112838745117
 31
0.0
  0
LINE
  5
   427
  8
0
  6
CONTINUOUS
 62
   130
 10
94.2553858757019
 20
-85.211284383138
 30
0.0
 11
90.5053858757019
 21
-85.211284383138
 31
0.0
  0
LINE
  5
   428
  8
0
  6
CONTINUOUS
 62
   130
 10
94.2553858757019
 20
-84.711284383138
 30
0.0
 11
90.5053858757019
 21
-84.711284383138
 31
0.0
  0
LINE
  5
   429
  8
0
  6
DASHDOT
 62
   130
 10
113.2247469257
 20
-113.261268615723
 30
0.0
 11
83.8571026053272
 21
-113.261268615723
 31
0.0
  0
LINE
  5
   42A
  8
0
  6
CONTINUOUS
 62
   130
 10
81.8553858757019
 20
-93.895220852732
 30
0.0
 11
81.8553858757019
 21
-101.885356482528
 31
0.0
  0
LINE
  5
   42B
  8
0
  6
CONTINUOUS
 62
   130
 10
82.0053858757019
 20
-93.895220852732
 30
0.0
 11
81.8553858757019
 21
-93.895220852732
 31
0.0
  0
LINE
  5
   42C
  8
0
  6
CONTINUOUS
 62
   130
 10
82.0053858757019
 20
-101.947488516884
 30
0.0
 11
81.3103951223063
 21
-102.64247927028
 31
0.0
  0
LINE
  5
   42D
  8
0
  6
CONTINUOUS
 62
   130
 10
81.8553858757019
 20
-101.885356482528
 30
0.0
 11
81.2043291051283
 21
-102.536413253102
 31
0.0
  0
LINE
  5
   42E
  8
0
  6
CONTINUOUS
 62
   130
 10
81.3103951223063
 20
-102.64247927028
 30
0.0
 11
81.2043291051283
 21
-102.536413253102
 31
0.0
  0
LINE
  5
   42F
  8
0
  6
CONTINUOUS
 62
   130
 10
99.3103951223063
 20
-117.64247927028
 30
0.0
 11
99.2043291051283
 21
-117.536413253102
 31
0.0
  0
LINE
  5
   430
  8
0
  6
CONTINUOUS
 62
   130
 10
100.005385875702
 20
-116.947488516884
 30
0.0
 11
99.3103951223063
 21
-117.64247927028
 31
0.0
  0
LINE
  5
   431
  8
0
  6
CONTINUOUS
 62
   130
 10
99.8553858757019
 20
-116.885356482528
 30
0.0
 11
99.2043291051283
 21
-117.536413253102
 31
0.0
  0
LINE
  5
   432
  8
0
  6
CONTINUOUS
 62
   130
 10
99.8553858757019
 20
-108.895220852732
 30
0.0
 11
99.8553858757019
 21
-116.885356482528
 31
0.0
  0
LINE
  5
   433
  8
0
  6
CONTINUOUS
 62
   130
 10
100.005385875702
 20
-108.895220852732
 30
0.0
 11
99.8553858757019
 21
-108.895220852732
 31
0.0
  0
LINE
  5
   434
  8
0
  6
CONTINUOUS
 62
   130
 10
99.3103951223063
 20
-87.5924947833822
 30
0.0
 11
99.2043291051283
 21
-87.4864287662042
 31
0.0
  0
LINE
  5
   435
  8
0
  6
CONTINUOUS
 62
   130
 10
100.005385875702
 20
-86.8975040299865
 30
0.0
 11
99.3103951223063
 21
-87.5924947833821
 31
0.0
  0
LINE
  5
   436
  8
0
  6
CONTINUOUS
 62
   130
 10
99.8553858757019
 20
-86.8353719956305
 30
0.0
 11
99.2043291051283
 21
-87.4864287662042
 31
0.0
  0
LINE
  5
   437
  8
0
  6
CONTINUOUS
 62
   130
 10
99.8553858757019
 20
-78.8452363658343
 30
0.0
 11
99.8553858757019
 21
-86.8353719956305
 31
0.0
  0
LINE
  5
   438
  8
0
  6
CONTINUOUS
 62
   130
 10
100.005385875702
 20
-78.8452363658343
 30
0.0
 11
99.8553858757019
 21
-78.8452363658343
 31
0.0
  0
LINE
  5
   439
  8
0
  6
CONTINUOUS
 62
   130
 10
107.755385875702
 20
-101.761268615723
 30
0.0
 11
107.255385875702
 21
-101.761268615723
 31
0.0
  0
LINE
  5
   43A
  8
0
  6
CONTINUOUS
 62
   130
 10
100.005385875702
 20
-86.7112838745117
 30
0.0
 11
95.0053858757019
 21
-86.7112838745117
 31
0.0
  0
LINE
  5
   43B
  8
0
  6
CONTINUOUS
 62
   130
 10
107.755385875702
 20
-79.7112838745117
 30
0.0
 11
107.255385875702
 21
-79.7112838745117
 31
0.0
  0
LINE
  5
   43C
  8
0
  6
CONTINUOUS
 62
   130
 10
107.755385875702
 20
-86.7112838745117
 30
0.0
 11
107.255385875702
 21
-86.7112838745117
 31
0.0
  0
LINE
  5
   43D
  8
0
  6
CONTINUOUS
 62
   130
 10
107.255385875702
 20
-77.7112838745117
 30
0.0
 11
107.255385875702
 21
-88.2112841288249
 31
0.0
  0
LINE
  5
   43E
  8
0
  6
CONTINUOUS
 62
   130
 10
105.755378723145
 20
-88.7112838745117
 30
0.0
 11
100.005385875702
 21
-88.7112838745117
 31
0.0
  0
LINE
  5
   43F
  8
0
  6
CONTINUOUS
 62
   130
 10
107.255385875702
 20
-77.7112838745117
 30
0.0
 11
100.005385875702
 21
-77.7112838745117
 31
0.0
  0
LINE
  5
   440
  8
0
  6
CONTINUOUS
 62
   130
 10
107.255385875702
 20
-93.2612686157227
 30
0.0
 11
107.255385875702
 21
-103.761268615723
 31
0.0
  0
LINE
  5
   441
  8
0
  6
CONTINUOUS
 62
   130
 10
107.755385875702
 20
-94.7112838745117
 30
0.0
 11
107.255385875702
 21
-94.7112838745117
 31
0.0
  0
LINE
  5
   442
  8
0
  6
DASHDOT
 62
   130
 10
184.70970695659
 20
-98.2612686157227
 30
0.0
 11
83.8571026053272
 21
-98.2612686157227
 31
0.0
  0
LINE
  5
   443
  8
0
  6
DASHDOT
 62
   130
 10
113.2247469257
 20
-83.2612686157227
 30
0.0
 11
83.8571026053272
 21
-83.2612686157227
 31
0.0
  0
LINE
  5
   444
  8
0
  6
CONTINUOUS
 62
   130
 10
100.005385875702
 20
-102.261268615723
 30
0.0
 11
82.0053858757019
 21
-102.261268615723
 31
0.0
  0
LINE
  5
   445
  8
0
  6
CONTINUOUS
 62
   130
 10
100.005385875702
 20
-94.2612686157227
 30
0.0
 11
82.0053858757019
 21
-94.2612686157227
 31
0.0
  0
LINE
  5
   446
  8
0
  6
CONTINUOUS
 62
   130
 10
100.005385875702
 20
-92.7612686157227
 30
0.0
 11
100.005385875702
 21
-103.761268615723
 31
0.0
  0
LINE
  5
   447
  8
0
  6
CONTINUOUS
 62
   130
 10
111.255378723145
 20
-88.2112841288249
 30
0.0
 11
105.755378723145
 21
-88.2112841288249
 31
0.0
  0
LINE
  5
   448
  8
0
  6
CONTINUOUS
 62
   130
 10
111.255378723145
 20
-93.2612686157227
 30
0.0
 11
105.755378723145
 21
-93.2612686157227
 31
0.0
  0
LINE
  5
   449
  8
0
  6
CONTINUOUS
 62
   130
 10
105.755378723145
 20
-88.2112841288249
 30
0.0
 11
105.755378723145
 21
-90.9621791440005
 31
0.0
  0
LINE
  5
   44A
  8
0
  6
CONTINUOUS
 62
   130
 10
105.755378723145
 20
-90.9621791440005
 30
0.0
 11
105.755378723145
 21
-93.2612686157227
 31
0.0
  0
LINE
  5
   44B
  8
0
  6
CONTINUOUS
 62
   130
 10
115.25542668186
 20
-81.2612686157227
 30
0.0
 11
115.25542668186
 21
-85.2612686157227
 31
0.0
  0
LINE
  5
   44C
  8
0
  6
CONTINUOUS
 62
   130
 10
116.25542668186
 20
-81.2612686157227
 30
0.0
 11
116.25542668186
 21
-85.2612686157227
 31
0.0
  0
ARC
  5
   44D
  8
0
  6
CONTINUOUS
 62
   130
 10
115.75542668186
 20
-85.2612686157227
 30
0.0
 40
0.500000000000002
 50
179.999999896069
 51
359.999999896069
  0
ARC
  5
   44E
  8
0
  6
CONTINUOUS
 62
   130
 10
115.75542668186
 20
-81.2612686157227
 30
0.0
 40
0.500000000000002
 50
359.999999896069
 51
539.999999896069
  0
ARC
  5
   44F
  8
0
  6
CONTINUOUS
 62
   130
 10
117.75542668186
 20
-81.2612686157227
 30
0.0
 40
0.500000000000002
 50
359.999999896069
 51
539.999999896069
  0
ARC
  5
   450
  8
0
  6
CONTINUOUS
 62
   130
 10
117.75542668186
 20
-81.2612686157227
 30
0.0
 40
0.500000000000002
 50
359.999999896069
 51
539.999999896069
  0
LINE
  5
   451
  8
0
  6
CONTINUOUS
 62
   130
 10
118.25542668186
 20
-81.2612686157227
 30
0.0
 11
118.25542668186
 21
-85.2612686157227
 31
0.0
  0
LINE
  5
   452
  8
0
  6
CONTINUOUS
 62
   130
 10
117.25542668186
 20
-81.2612686157227
 30
0.0
 11
117.25542668186
 21
-85.2612686157227
 31
0.0
  0
ARC
  5
   453
  8
0
  6
CONTINUOUS
 62
   130
 10
117.75542668186
 20
-85.2612686157227
 30
0.0
 40
0.500000000000002
 50
179.999999896069
 51
359.999999896069
  0
ARC
  5
   454
  8
0
  6
CONTINUOUS
 62
   130
 10
119.75542668186
 20
-85.2612686157227
 30
0.0
 40
0.500000000000002
 50
179.999999896069
 51
359.999999896069
  0
LINE
  5
   455
  8
0
  6
CONTINUOUS
 62
   130
 10
119.25542668186
 20
-81.2612686157227
 30
0.0
 11
119.25542668186
 21
-85.2612686157227
 31
0.0
  0
LINE
  5
   456
  8
0
  6
CONTINUOUS
 62
   130
 10
120.25542668186
 20
-81.2612686157227
 30
0.0
 11
120.25542668186
 21
-85.2612686157227
 31
0.0
  0
ARC
  5
   457
  8
0
  6
CONTINUOUS
 62
   130
 10
119.75542668186
 20
-81.2612686157227
 30
0.0
 40
0.500000000000002
 50
359.999999896069
 51
539.999999896069
  0
LINE
  5
   458
  8
0
  6
CONTINUOUS
 62
   130
 10
120.25542668186
 20
-81.2612686157227
 30
0.0
 11
120.25542668186
 21
-85.2612686157227
 31
0.0
  0
LINE
  5
   459
  8
0
  6
CONTINUOUS
 62
   130
 10
119.25542668186
 20
-81.2612686157227
 30
0.0
 11
119.25542668186
 21
-85.2612686157227
 31
0.0
  0
ARC
  5
   45A
  8
0
  6
CONTINUOUS
 62
   130
 10
119.75542668186
 20
-81.2612686157227
 30
0.0
 40
0.500000000000002
 50
359.999999896069
 51
539.999999896069
  0
ARC
  5
   45B
  8
0
  6
CONTINUOUS
 62
   130
 10
119.75542668186
 20
-85.2612686157227
 30
0.0
 40
0.500000000000002
 50
179.999999896069
 51
359.999999896069
  0
LINE
  5
   45C
  8
0
  6
CONTINUOUS
 62
   130
 10
122.25542668186
 20
-81.2612686157227
 30
0.0
 11
122.25542668186
 21
-85.2612686157227
 31
0.0
  0
ARC
  5
   45D
  8
0
  6
CONTINUOUS
 62
   130
 10
121.75542668186
 20
-81.2612686157227
 30
0.0
 40
0.500000000000002
 50
359.999999896069
 51
539.999999896069
  0
LINE
  5
   45E
  8
0
  6
CONTINUOUS
 62
   130
 10
121.25542668186
 20
-81.2612686157227
 30
0.0
 11
121.25542668186
 21
-85.2612686157227
 31
0.0
  0
ARC
  5
   45F
  8
0
  6
CONTINUOUS
 62
   130
 10
121.75542668186
 20
-85.2612686157227
 30
0.0
 40
0.500000000000002
 50
179.999999896069
 51
359.999999896069
  0
LINE
  5
   460
  8
0
  6
CONTINUOUS
 62
   130
 10
115.25542668186
 20
-96.2612686157227
 30
0.0
 11
115.25542668186
 21
-100.261268615723
 31
0.0
  0
LINE
  5
   461
  8
0
  6
CONTINUOUS
 62
   130
 10
116.25542668186
 20
-96.2612686157227
 30
0.0
 11
116.25542668186
 21
-100.261268615723
 31
0.0
  0
LINE
  5
   462
  8
0
  6
CONTINUOUS
 62
   130
 10
117.25542668186
 20
-96.2612686157227
 30
0.0
 11
117.25542668186
 21
-100.261268615723
 31
0.0
  0
LINE
  5
   463
  8
0
  6
CONTINUOUS
 62
   130
 10
118.25542668186
 20
-96.2612686157227
 30
0.0
 11
118.25542668186
 21
-100.261268615723
 31
0.0
  0
LINE
  5
   464
  8
0
  6
CONTINUOUS
 62
   130
 10
119.25542668186
 20
-96.2612686157227
 30
0.0
 11
119.25542668186
 21
-100.261268615723
 31
0.0
  0
LINE
  5
   465
  8
0
  6
CONTINUOUS
 62
   130
 10
120.25542668186
 20
-96.2612686157227
 30
0.0
 11
120.25542668186
 21
-100.261268615723
 31
0.0
  0
LINE
  5
   466
  8
0
  6
CONTINUOUS
 62
   130
 10
121.25542668186
 20
-96.2612686157227
 30
0.0
 11
121.25542668186
 21
-100.261268615723
 31
0.0
  0
LINE
  5
   467
  8
0
  6
CONTINUOUS
 62
   130
 10
122.25542668186
 20
-96.2612686157227
 30
0.0
 11
122.25542668186
 21
-100.261268615723
 31
0.0
  0
ARC
  5
   468
  8
0
  6
CONTINUOUS
 62
   130
 10
115.75542668186
 20
-100.261268615723
 30
0.0
 40
0.500000000000002
 50
179.999999896069
 51
359.999999896069
  0
ARC
  5
   469
  8
0
  6
CONTINUOUS
 62
   130
 10
117.75542668186
 20
-100.261268615723
 30
0.0
 40
0.500000000000002
 50
179.999999896069
 51
359.999999896069
  0
ARC
  5
   46A
  8
0
  6
CONTINUOUS
 62
   130
 10
119.75542668186
 20
-100.261268615723
 30
0.0
 40
0.500000000000002
 50
179.999999896069
 51
359.999999896069
  0
ARC
  5
   46B
  8
0
  6
CONTINUOUS
 62
   130
 10
121.75542668186
 20
-100.261268615723
 30
0.0
 40
0.500000000000002
 50
179.999999896069
 51
359.999999896069
  0
ARC
  5
   46C
  8
0
  6
CONTINUOUS
 62
   130
 10
115.75542668186
 20
-96.2612686157227
 30
0.0
 40
0.500000000000002
 50
359.999999896069
 51
539.999999896069
  0
ARC
  5
   46D
  8
0
  6
CONTINUOUS
 62
   130
 10
117.75542668186
 20
-96.2612686157227
 30
0.0
 40
0.500000000000002
 50
359.999999896069
 51
539.999999896069
  0
ARC
  5
   46E
  8
0
  6
CONTINUOUS
 62
   130
 10
119.75542668186
 20
-96.2612686157227
 30
0.0
 40
0.500000000000002
 50
359.999999896069
 51
539.999999896069
  0
ARC
  5
   46F
  8
0
  6
CONTINUOUS
 62
   130
 10
121.75542668186
 20
-96.2612686157227
 30
0.0
 40
0.500000000000002
 50
359.999999896069
 51
539.999999896069
  0
LINE
  5
   470
  8
0
  6
CONTINUOUS
 62
   130
 10
116.25542668186
 20
-111.261268615723
 30
0.0
 11
116.25542668186
 21
-115.261268615723
 31
0.0
  0
LINE
  5
   471
  8
0
  6
CONTINUOUS
 62
   130
 10
115.25542668186
 20
-111.261268615723
 30
0.0
 11
115.25542668186
 21
-115.261268615723
 31
0.0
  0
LINE
  5
   472
  8
0
  6
CONTINUOUS
 62
   130
 10
117.25542668186
 20
-111.261268615723
 30
0.0
 11
117.25542668186
 21
-115.261268615723
 31
0.0
  0
LINE
  5
   473
  8
0
  6
CONTINUOUS
 62
   130
 10
118.25542668186
 20
-111.261268615723
 30
0.0
 11
118.25542668186
 21
-115.261268615723
 31
0.0
  0
LINE
  5
   474
  8
0
  6
CONTINUOUS
 62
   130
 10
120.25542668186
 20
-111.261268615723
 30
0.0
 11
120.25542668186
 21
-115.261268615723
 31
0.0
  0
LINE
  5
   475
  8
0
  6
CONTINUOUS
 62
   130
 10
121.25542668186
 20
-111.261268615723
 30
0.0
 11
121.25542668186
 21
-115.261268615723
 31
0.0
  0
LINE
  5
   476
  8
0
  6
CONTINUOUS
 62
   130
 10
122.25542668186
 20
-111.261268615723
 30
0.0
 11
122.25542668186
 21
-115.261268615723
 31
0.0
  0
ARC
  5
   477
  8
0
  6
CONTINUOUS
 62
   130
 10
121.75542668186
 20
-111.261268615723
 30
0.0
 40
0.500000000000002
 50
359.999999896069
 51
539.999999896069
  0
ARC
  5
   478
  8
0
  6
CONTINUOUS
 62
   130
 10
119.75542668186
 20
-111.261268615723
 30
0.0
 40
0.500000000000002
 50
359.999999896069
 51
539.999999896069
  0
ARC
  5
   479
  8
0
  6
CONTINUOUS
 62
   130
 10
117.75542668186
 20
-111.261268615723
 30
0.0
 40
0.500000000000002
 50
359.999999896069
 51
539.999999896069
  0
ARC
  5
   47A
  8
0
  6
CONTINUOUS
 62
   130
 10
115.75542668186
 20
-111.261268615723
 30
0.0
 40
0.500000000000002
 50
359.999999896069
 51
539.999999896069
  0
ARC
  5
   47B
  8
0
  6
CONTINUOUS
 62
   130
 10
115.75542668186
 20
-115.261268615723
 30
0.0
 40
0.500000000000002
 50
179.999999896069
 51
359.999999896069
  0
ARC
  5
   47C
  8
0
  6
CONTINUOUS
 62
   130
 10
117.75542668186
 20
-115.261268615723
 30
0.0
 40
0.500000000000002
 50
179.999999896069
 51
359.999999896069
  0
ARC
  5
   47D
  8
0
  6
CONTINUOUS
 62
   130
 10
119.75542668186
 20
-115.261268615723
 30
0.0
 40
0.500000000000002
 50
179.999999896069
 51
359.999999896069
  0
ARC
  5
   47E
  8
0
  6
CONTINUOUS
 62
   130
 10
121.75542668186
 20
-115.261268615723
 30
0.0
 40
0.500000000000002
 50
179.999999896069
 51
359.999999896069
  0
LINE
  5
   47F
  8
0
  6
CONTINUOUS
 62
   130
 10
119.25542668186
 20
-111.261268615723
 30
0.0
 11
119.25542668186
 21
-115.261268615723
 31
0.0
  0
LINE
  5
   480
  8
0
  6
CONTINUOUS
 62
   130
 10
126.755378723145
 20
-131.761268615723
 30
0.0
 11
111.755378723145
 21
-131.761268615723
 31
0.0
  0
LINE
  5
   481
  8
0
  6
CONTINUOUS
 62
   130
 10
126.755378723145
 20
-124.761268615723
 30
0.0
 11
111.755378723145
 21
-124.761268615723
 31
0.0
  0
LINE
  5
   482
  8
0
  6
CONTINUOUS
 62
   130
 10
126.755378723145
 20
-124.761268615723
 30
0.0
 11
126.755378723145
 21
-131.761268615723
 31
0.0
  0
LINE
  5
   483
  8
0
  6
CONTINUOUS
 62
   130
 10
114.25542668186
 20
-125.761268615723
 30
0.0
 11
114.25542668186
 21
-130.761268615723
 31
0.0
  0
LINE
  5
   484
  8
0
  6
CONTINUOUS
 62
   130
 10
123.005426681859
 20
-125.761268615723
 30
0.0
 11
123.005426681859
 21
-130.761268615723
 31
0.0
  0
LINE
  5
   485
  8
0
  6
CONTINUOUS
 62
   130
 10
115.25542668186
 20
-126.261268615723
 30
0.0
 11
115.25542668186
 21
-130.261268615723
 31
0.0
  0
LINE
  5
   486
  8
0
  6
CONTINUOUS
 62
   130
 10
116.25542668186
 20
-126.261268615723
 30
0.0
 11
116.25542668186
 21
-130.261268615723
 31
0.0
  0
LINE
  5
   487
  8
0
  6
CONTINUOUS
 62
   130
 10
117.25542668186
 20
-126.261268615723
 30
0.0
 11
117.25542668186
 21
-130.261268615723
 31
0.0
  0
LINE
  5
   488
  8
0
  6
CONTINUOUS
 62
   130
 10
118.25542668186
 20
-126.261268615723
 30
0.0
 11
118.25542668186
 21
-130.261268615723
 31
0.0
  0
LINE
  5
   489
  8
0
  6
CONTINUOUS
 62
   130
 10
119.25542668186
 20
-126.261268615723
 30
0.0
 11
119.25542668186
 21
-130.261268615723
 31
0.0
  0
LINE
  5
   48A
  8
0
  6
CONTINUOUS
 62
   130
 10
120.25542668186
 20
-126.261268615723
 30
0.0
 11
120.25542668186
 21
-130.261268615723
 31
0.0
  0
LINE
  5
   48B
  8
0
  6
CONTINUOUS
 62
   130
 10
121.25542668186
 20
-126.261268615723
 30
0.0
 11
121.25542668186
 21
-130.261268615723
 31
0.0
  0
LINE
  5
   48C
  8
0
  6
CONTINUOUS
 62
   130
 10
122.25542668186
 20
-126.261268615723
 30
0.0
 11
122.25542668186
 21
-130.261268615723
 31
0.0
  0
LINE
  5
   48D
  8
0
  6
CONTINUOUS
 62
   130
 10
123.005426681859
 20
-125.761268615723
 30
0.0
 11
114.25542668186
 21
-125.761268615723
 31
0.0
  0
LINE
  5
   48E
  8
0
  6
CONTINUOUS
 62
   130
 10
123.005426681859
 20
-130.761268615723
 30
0.0
 11
114.25542668186
 21
-130.761268615723
 31
0.0
  0
ARC
  5
   48F
  8
0
  6
CONTINUOUS
 62
   130
 10
115.75542668186
 20
-126.261268615723
 30
0.0
 40
0.500000000000002
 50
359.999999896069
 51
539.999999896069
  0
ARC
  5
   490
  8
0
  6
CONTINUOUS
 62
   130
 10
117.75542668186
 20
-126.261268615723
 30
0.0
 40
0.500000000000002
 50
359.999999896069
 51
539.999999896069
  0
ARC
  5
   491
  8
0
  6
CONTINUOUS
 62
   130
 10
119.75542668186
 20
-126.261268615723
 30
0.0
 40
0.500000000000002
 50
359.999999896069
 51
539.999999896069
  0
ARC
  5
   492
  8
0
  6
CONTINUOUS
 62
   130
 10
121.75542668186
 20
-126.261268615723
 30
0.0
 40
0.500000000000002
 50
359.999999896069
 51
539.999999896069
  0
ARC
  5
   493
  8
0
  6
CONTINUOUS
 62
   130
 10
115.75542668186
 20
-130.261268615723
 30
0.0
 40
0.500000000000002
 50
179.999999896069
 51
359.999999896069
  0
ARC
  5
   494
  8
0
  6
CONTINUOUS
 62
   130
 10
117.75542668186
 20
-130.261268615723
 30
0.0
 40
0.500000000000002
 50
179.999999896069
 51
359.999999896069
  0
ARC
  5
   495
  8
0
  6
CONTINUOUS
 62
   130
 10
119.75542668186
 20
-130.261268615723
 30
0.0
 40
0.500000000000002
 50
179.999999896069
 51
359.999999896069
  0
ARC
  5
   496
  8
0
  6
CONTINUOUS
 62
   130
 10
121.75542668186
 20
-130.261268615723
 30
0.0
 40
0.500000000000002
 50
179.999999896069
 51
359.999999896069
  0
LINE
  5
   497
  8
0
  6
CONTINUOUS
 62
   130
 10
111.255378723145
 20
-123.261268615723
 30
0.0
 11
105.755378723145
 21
-123.261268615723
 31
0.0
  0
ARC
  5
   498
  8
0
  6
CONTINUOUS
 62
   130
 10
111.255378723145
 20
-123.761268615723
 30
0.0
 40
0.5
 50
359.999999896069
 51
449.999999896069
  0
LINE
  5
   499
  8
0
  6
CONTINUOUS
 62
   130
 10
105.755378723145
 20
-118.261268615723
 30
0.0
 11
105.755378723145
 21
-123.261268615723
 31
0.0
  0
ARC
  5
   49A
  8
0
  6
CONTINUOUS
 62
   130
 10
111.255378723145
 20
-117.761268615723
 30
0.0
 40
0.5
 50
269.999999896069
 51
359.999999896069
  0
LINE
  5
   49B
  8
0
  6
CONTINUOUS
 62
   130
 10
107.755385875702
 20
-123.261268615723
 30
0.0
 11
107.755385875702
 21
-133.76126836141
 31
0.0
  0
LINE
  5
   49C
  8
0
  6
CONTINUOUS
 62
   130
 10
111.755378723145
 20
-133.761268615723
 30
0.0
 11
107.755385875702
 21
-133.761268615723
 31
0.0
  0
LINE
  5
   49D
  8
0
  6
CONTINUOUS
 62
   130
 10
111.755378723145
 20
-91.2112838745117
 30
0.0
 11
111.755378723145
 21
-135.211283874512
 31
0.0
  0
LINE
  5
   49E
  8
0
  6
CONTINUOUS
 62
   130
 10
131.755378723145
 20
-122.086283874512
 30
0.0
 11
111.755378723145
 21
-122.086283874512
 31
0.0
  0
LINE
  5
   49F
  8
0
  6
CONTINUOUS
 62
   130
 10
131.755378723145
 20
-119.336283874512
 30
0.0
 11
111.755378723145
 21
-119.336283874512
 31
0.0
  0
LINE
  5
   4A0
  8
0
  6
DASHDOT
 62
   130
 10
135.936484970429
 20
-120.761268615723
 30
0.0
 11
103.965082938631
 21
-120.761268615723
 31
0.0
  0
LINE
  5
   4A1
  8
0
  6
CONTINUOUS
 62
   130
 10
166.755386471748
 20
-125.261268615723
 30
0.0
 11
155.505386471748
 21
-125.261268615723
 31
0.0
  0
LINE
  5
   4A2
  8
0
  6
CONTINUOUS
 62
   130
 10
166.755386471748
 20
-127.511268615723
 30
0.0
 11
155.505386471748
 21
-127.511268615723
 31
0.0
  0
LINE
  5
   4A3
  8
0
  6
CONTINUOUS
 62
   130
 10
166.755386471748
 20
-129.011268615723
 30
0.0
 11
155.505386471748
 21
-129.011268615723
 31
0.0
  0
LINE
  5
   4A4
  8
0
  6
CONTINUOUS
 62
   130
 10
166.755386471748
 20
-131.261268615723
 30
0.0
 11
155.505386471748
 21
-131.261268615723
 31
0.0
  0
LINE
  5
   4A5
  8
0
  6
CONTINUOUS
 62
   130
 10
155.505386471748
 20
-129.011268615723
 30
0.0
 11
155.505386471748
 21
-131.261268615723
 31
0.0
  0
LINE
  5
   4A6
  8
0
  6
CONTINUOUS
 62
   130
 10
155.505386471748
 20
-125.261268615723
 30
0.0
 11
155.505386471748
 21
-127.511268615723
 31
0.0
  0
LINE
  5
   4A7
  8
0
  6
CONTINUOUS
 62
   130
 10
166.755386471748
 20
-125.261268615723
 30
0.0
 11
166.755386471748
 21
-127.511268615723
 31
0.0
  0
LINE
  5
   4A8
  8
0
  6
CONTINUOUS
 62
   130
 10
166.755386471748
 20
-129.011268615723
 30
0.0
 11
166.755386471748
 21
-131.261268615723
 31
0.0
  0
LINE
  5
   4A9
  8
0
  6
DASHDOT
 62
   130
 10
171.178516957272
 20
-128.261268615723
 30
0.0
 11
104.388541943333
 21
-128.261268615723
 31
0.0
  0
LINE
  5
   4AA
  8
0
  6
CONTINUOUS
 62
   130
 10
111.755378723145
 20
-107.761268615723
 30
0.0
 11
107.755385875702
 21
-107.761268615723
 31
0.0
  0
LINE
  5
   4AB
  8
0
  6
CONTINUOUS
 62
   130
 10
111.755378723145
 20
-103.761268615723
 30
0.0
 11
107.755385875702
 21
-103.761268615723
 31
0.0
  0
LINE
  5
   4AC
  8
0
  6
CONTINUOUS
 62
   130
 10
111.255378723145
 20
-118.261268615723
 30
0.0
 11
105.755378723145
 21
-118.261268615723
 31
0.0
  0
LINE
  5
   4AD
  8
0
  6
DASHDOT
 62
   130
 10
184.70970695659
 20
-128.261268615723
 30
0.0
 11
83.8571026053272
 21
-128.261268615723
 31
0.0
  0
LINE
  5
   4AE
  8
0
  6
CONTINUOUS
 62
   130
 10
82.0053858757019
 20
-123.895220852732
 30
0.0
 11
82.0053858757019
 21
-132.261268615723
 31
0.0
  0
LINE
  5
   4AF
  8
0
  6
CONTINUOUS
 62
   130
 10
107.255385875702
 20
-133.761268615723
 30
0.0
 11
100.005385875702
 21
-133.761268615723
 31
0.0
  0
LINE
  5
   4B0
  8
0
  6
CONTINUOUS
 62
   130
 10
105.755378723145
 20
-122.761268615723
 30
0.0
 11
100.005385875702
 21
-122.761268615723
 31
0.0
  0
LINE
  5
   4B1
  8
0
  6
CONTINUOUS
 62
   130
 10
68.7553858757019
 20
-126.761268615723
 30
0.0
 11
68.7553858757019
 21
-129.761268615723
 31
0.0
  0
LINE
  5
   4B2
  8
0
  6
CONTINUOUS
 62
   130
 10
71.7553858757019
 20
-130.261268615723
 30
0.0
 11
69.2553858757019
 21
-130.261268615723
 31
0.0
  0
LINE
  5
   4B3
  8
0
  6
CONTINUOUS
 62
   130
 10
71.7553858757019
 20
-126.261268615723
 30
0.0
 11
69.2553858757019
 21
-126.261268615723
 31
0.0
  0
LINE
  5
   4B4
  8
0
  6
CONTINUOUS
 62
   130
 10
69.2553858757019
 20
-130.261268615723
 30
0.0
 11
68.7553858757019
 21
-129.761268615723
 31
0.0
  0
LINE
  5
   4B5
  8
0
  6
CONTINUOUS
 62
   130
 10
69.2553858757019
 20
-126.261268615723
 30
0.0
 11
68.7553858757019
 21
-126.761268615723
 31
0.0
  0
LINE
  5
   4B6
  8
0
  6
CONTINUOUS
 62
   130
 10
76.2553858757019
 20
-126.761268615723
 30
0.0
 11
72.5053858757019
 21
-126.761268615723
 31
0.0
  0
LINE
  5
   4B7
  8
0
  6
CONTINUOUS
 62
   130
 10
69.2553858757019
 20
-126.261268615723
 30
0.0
 11
69.2553858757019
 21
-130.261268615723
 31
0.0
  0
LINE
  5
   4B8
  8
0
  6
CONTINUOUS
 62
   130
 10
79.5053858757019
 20
-124.761268615723
 30
0.0
 11
79.5053858757019
 21
-131.761268615723
 31
0.0
  0
LINE
  5
   4B9
  8
0
  6
CONTINUOUS
 62
   130
 10
77.0053858757019
 20
-124.261268615723
 30
0.0
 11
77.0053858757019
 21
-132.261268615723
 31
0.0
  0
LINE
  5
   4BA
  8
0
  6
CONTINUOUS
 62
   130
 10
81.8553858757019
 20
-131.761268615723
 30
0.0
 11
77.0053858757019
 21
-131.761268615723
 31
0.0
  0
LINE
  5
   4BB
  8
0
  6
CONTINUOUS
 62
   130
 10
81.8553858757019
 20
-124.761268615723
 30
0.0
 11
77.0053858757019
 21
-124.761268615723
 31
0.0
  0
LINE
  5
   4BC
  8
0
  6
CONTINUOUS
 62
   130
 10
76.2553858757019
 20
-124.261268615723
 30
0.0
 11
76.2553858757019
 21
-132.261268615723
 31
0.0
  0
LINE
  5
   4BD
  8
0
  6
CONTINUOUS
 62
   130
 10
77.0053858757019
 20
-132.261268615723
 30
0.0
 11
76.2553858757019
 21
-132.261268615723
 31
0.0
  0
LINE
  5
   4BE
  8
0
  6
CONTINUOUS
 62
   130
 10
77.0053858757019
 20
-124.261268615723
 30
0.0
 11
76.2553858757019
 21
-124.261268615723
 31
0.0
  0
LINE
  5
   4BF
  8
0
  6
CONTINUOUS
 62
   130
 10
69.2553858757019
 20
-124.761268615723
 30
0.0
 11
69.2553858757019
 21
-131.761268615723
 31
0.0
  0
LINE
  5
   4C0
  8
0
  6
CONTINUOUS
 62
   130
 10
71.7553858757019
 20
-124.261268615723
 30
0.0
 11
71.7553858757019
 21
-132.261268615723
 31
0.0
  0
LINE
  5
   4C1
  8
0
  6
CONTINUOUS
 62
   130
 10
72.5053858757019
 20
-124.261268615723
 30
0.0
 11
72.5053858757019
 21
-132.261268615723
 31
0.0
  0
LINE
  5
   4C2
  8
0
  6
CONTINUOUS
 62
   130
 10
71.7553858757019
 20
-131.761268615723
 30
0.0
 11
69.2553858757019
 21
-131.761268615723
 31
0.0
  0
LINE
  5
   4C3
  8
0
  6
CONTINUOUS
 62
   130
 10
71.7553858757019
 20
-124.761268615723
 30
0.0
 11
69.2553858757019
 21
-124.761268615723
 31
0.0
  0
LINE
  5
   4C4
  8
0
  6
CONTINUOUS
 62
   130
 10
72.5053858757019
 20
-132.261268615723
 30
0.0
 11
71.7553858757019
 21
-132.261268615723
 31
0.0
  0
LINE
  5
   4C5
  8
0
  6
CONTINUOUS
 62
   130
 10
72.5053858757019
 20
-124.261268615723
 30
0.0
 11
71.7553858757019
 21
-124.261268615723
 31
0.0
  0
LINE
  5
   4C6
  8
0
  6
CONTINUOUS
 62
   130
 10
81.8553858757019
 20
-130.261268615723
 30
0.0
 11
77.0053858757019
 21
-130.261268615723
 31
0.0
  0
LINE
  5
   4C7
  8
0
  6
CONTINUOUS
 62
   130
 10
81.8553858757019
 20
-126.261268615723
 30
0.0
 11
77.0053858757019
 21
-126.261268615723
 31
0.0
  0
LINE
  5
   4C8
  8
0
  6
CONTINUOUS
 62
   130
 10
76.2553858757019
 20
-130.261268615723
 30
0.0
 11
72.5053858757019
 21
-130.261268615723
 31
0.0
  0
LINE
  5
   4C9
  8
0
  6
CONTINUOUS
 62
   130
 10
76.2553858757019
 20
-126.261268615723
 30
0.0
 11
72.5053858757019
 21
-126.261268615723
 31
0.0
  0
LINE
  5
   4CA
  8
0
  6
CONTINUOUS
 62
   130
 10
76.2553858757019
 20
-129.761268615723
 30
0.0
 11
72.5053858757019
 21
-129.761268615723
 31
0.0
  0
LINE
  5
   4CB
  8
0
  6
CONTINUOUS
 62
   130
 10
81.8553858757019
 20
-123.895220852732
 30
0.0
 11
81.8553858757019
 21
-131.885356482528
 31
0.0
  0
LINE
  5
   4CC
  8
0
  6
CONTINUOUS
 62
   130
 10
82.0053858757019
 20
-123.895220852732
 30
0.0
 11
81.8553858757019
 21
-123.895220852732
 31
0.0
  0
LINE
  5
   4CD
  8
0
  6
CONTINUOUS
 62
   130
 10
82.0053858757019
 20
-131.947488516884
 30
0.0
 11
81.3103951223063
 21
-132.64247927028
 31
0.0
  0
LINE
  5
   4CE
  8
0
  6
CONTINUOUS
 62
   130
 10
81.8553858757019
 20
-131.885356482528
 30
0.0
 11
81.2043291051283
 21
-132.536413253102
 31
0.0
  0
LINE
  5
   4CF
  8
0
  6
CONTINUOUS
 62
   130
 10
81.3103951223063
 20
-132.64247927028
 30
0.0
 11
81.2043291051283
 21
-132.536413253102
 31
0.0
  0
LINE
  5
   4D0
  8
0
  6
DASHDOT
 62
   130
 10
184.70970695659
 20
-128.261268615723
 30
0.0
 11
83.8571026053272
 21
-128.261268615723
 31
0.0
  0
LINE
  5
   4D1
  8
0
  6
CONTINUOUS
 62
   130
 10
100.005385875702
 20
-132.261268615723
 30
0.0
 11
82.0053858757019
 21
-132.261268615723
 31
0.0
  0
LINE
  5
   4D2
  8
0
  6
CONTINUOUS
 62
   130
 10
100.005385875702
 20
-124.261268615723
 30
0.0
 11
82.0053858757019
 21
-124.261268615723
 31
0.0
  0
LINE
  5
   4D3
  8
0
  6
CONTINUOUS
 62
   130
 10
100.005385875702
 20
-122.761268615723
 30
0.0
 11
100.005385875702
 21
-133.761268615723
 31
0.0
  0
LINE
  5
   4D4
  8
0
  6
CONTINUOUS
 62
   130
 10
107.255385875702
 20
-123.261268615723
 30
0.0
 11
107.255385875702
 21
-133.761268615723
 31
0.0
  0
LINE
  5
   4D5
  8
0
  6
CONTINUOUS
 62
   130
 10
107.755385875702
 20
-124.761268615723
 30
0.0
 11
107.255385875702
 21
-124.761268615723
 31
0.0
  0
LINE
  5
   4D6
  8
0
  6
CONTINUOUS
 62
   130
 10
107.755385875702
 20
-131.761268615723
 30
0.0
 11
107.255385875702
 21
-131.761268615723
 31
0.0
  0
INSERT
  5
   4D7
  8
0
  6
CONTINUOUS
 62
     3
  2
*UDIM143
 10
0.0
 20
0.0
 30
0.0
  0
TEXT
  5
   4D8
  8
0
  6
CONTINUOUS
 62
     2
 10
224.376718720475
 20
-169.065356200762
 30
0.0
 40
2.00000008940697
  1
4 POLE LOW VOLTAGE M.C.C.B SERIES ISOMAX
 50
359.999999896069
 41
0.75
 11
224.376718724093
 21
-167.065356111355
 31
0.0
 73
     3
  0
TEXT
  5
   4D9
  8
0
  6
CONTINUOUS
 62
     2
 10
231.876719055751
 20
-172.265356023594
 30
0.0
 40
2.00000008940697
  1
PLUG-IN VERSION REAR TERMINALS
 50
359.999999896069
 41
0.75
 11
231.876719059369
 21
-170.265355934187
 31
0.0
 73
     3
  0
TEXT
  5
   4DA
  8
0
  6
CONTINUOUS
 62
     2
 10
220.205822314994
 20
-177.396026779536
 30
0.0
 40
2.00000008940697
  1
   INTERR.AUTOMATICO SERIE ISOMAX
 50
359.999999896069
 41
0.75
 11
220.205822318612
 21
-175.396026690129
 31
0.0
 73
     3
  0
TEXT
  5
   4DB
  8
0
  6
CONTINUOUS
 62
     2
 10
220.205820305928
 20
-180.596029875426
 30
0.0
 40
2.00000008940697
  1
ESECUZ.RIMOVIBILE TETR.TERMINALI POSTER.
 50
359.999999896069
 41
0.75
 11
220.205820309546
 21
-178.596029786019
 31
0.0
 73
     3
  0
INSERT
  5
   4DC
  8
0
  6
CONTINUOUS
 62
     3
  2
*UDIM144
 10
0.0
 20
0.0
 30
0.0
  0
INSERT
  5
   4DD
  8
0
  6
CONTINUOUS
 62
     3
  2
*UDIM145
 10
0.0
 20
0.0
 30
0.0
  0
INSERT
  5
   4DE
  8
0
  6
CONTINUOUS
 62
     7
  2
*UDIM146
 10
0.0
 20
0.0
 30
0.0
  0
INSERT
  5
   4DF
  8
0
  6
CONTINUOUS
 62
     7
  2
*UDIM147
 10
0.0
 20
0.0
 30
0.0
  0
INSERT
  5
   4E0
  8
0
  6
CONTINUOUS
 62
     3
  2
*UDIM148
 10
0.0
 20
0.0
 30
0.0
  0
TEXT
  5
   4E1
  8
0
  6
CONTINUOUS
 62
     2
 10
127.679623602012
 20
-168.307001149551
 30
0.0
 40
2.00000008940697
  1
3/11/92
 50
359.999999896069
 41
0.75
 72
     2
 11
137.679624050856
 21
-167.307001122936
 31
0.0
 73
     2
  0
TEXT
  5
   4E2
  8
0
  6
CONTINUOUS
 62
     2
 10
129.311612127402
 20
-171.57098010768
 30
0.0
 40
2.00000008940697
  1
mostosi
 50
359.999999896069
 41
0.75
 72
     2
 11
139.311612576246
 21
-170.570980081066
 31
0.0
 73
     2
  0
TEXT
  5
   4E3
  8
0
  6
CONTINUOUS
 62
     2
 10
137.778561589841
 20
-185.534686071528
 30
0.0
 40
2.50000005960464
  1
M3727 95-01-18
 50
359.999999896069
 41
0.649999919056892
 11
137.778561592102
 21
-184.284686041726
 31
0.0
 73
     2
  0
TEXT
  5
   4E4
  8
0
  6
CONTINUOUS
 62
     2
 10
252.478552271693
 20
-187.432462993183
 30
0.0
 40
3.00000002980232
  1
S2
 50
359.999999896069
 41
0.983333351877
 72
     2
 11
257.628552436829
 21
-185.932462987597
 31
0.0
 73
     2
  0
TEXT
  5
   4E5
  8
0
  6
CONTINUOUS
 62
     2
 10
231.174285854352
 20
-197.180683369209
 30
0.0
 40
5.00000011920929
  1
601855/151
 50
359.999999896069
 41
0.983333355585733
 72
     2
 11
279.090954780583
 21
-194.680683396282
 31
0.0
 73
     2
  0
TEXT
  5
   4E6
  8
0
  6
CONTINUOUS
 62
     2
 10
287.93658722711
 20
-198.431125664358
 30
0.0
 40
2.50000005960464
  1
1/1
 50
359.999999896069
 41
1.01399994459152
 72
     1
 11
291.426587104797
 21
-197.181125640869
 31
0.0
 73
     2
  0
CIRCLE
  5
   4E7
  8
0
  6
CONTINUOUS
 62
   130
 10
-36.1680812835693
 20
-97.7738037109375
 30
0.0
 40
1.0
  0
CIRCLE
  5
   4E8
  8
0
  6
CONTINUOUS
 62
   130
 10
-6.16808128356934
 20
-97.7738037109375
 30
0.0
 40
1.0
  0
CIRCLE
  5
   4E9
  8
0
  6
CONTINUOUS
 62
   130
 10
-36.1680812835693
 20
-169.773803710938
 30
0.0
 40
1.0
  0
CIRCLE
  5
   4EA
  8
0
  6
CONTINUOUS
 62
   130
 10
-6.16808128356934
 20
-169.773803710938
 30
0.0
 40
1.0
  0
LINE
  5
   4EB
  8
0
  6
CONTINUOUS
 62
   130
 10
-53.9471043097083
 20
-86.9208507636771
 30
0.0
 11
11.1936915510739
 21
-86.9208507636771
 31
0.0
  0
LINE
  5
   4EC
  8
0
  6
CONTINUOUS
 62
   130
 10
-53.9471043097083
 20
-183.074472409978
 30
0.0
 11
11.1936915510739
 21
-183.074472409978
 31
0.0
  0
LINE
  5
   4ED
  8
0
  6
DASHDOT
 62
   130
 10
-36.1680812835693
 20
-92.7738037109375
 30
0.0
 11
-36.1680812835693
 21
-102.773803710938
 31
0.0
  0
LINE
  5
   4EE
  8
0
  6
DASHDOT
 62
   130
 10
-33.6680812835693
 20
-97.7738037109375
 30
0.0
 11
-23.6680812835693
 21
-97.7738037109375
 31
0.0
  0
LINE
  5
   4EF
  8
0
  6
DASHDOT
 62
   130
 10
-6.16808128356934
 20
-92.7738037109375
 30
0.0
 11
-6.16808128356934
 21
-102.773803710938
 31
0.0
  0
LINE
  5
   4F0
  8
0
  6
DASHDOT
 62
   130
 10
-19.9180812835693
 20
-97.7738037109375
 30
0.0
 11
-9.91808128356934
 21
-97.7738037109375
 31
0.0
  0
LINE
  5
   4F1
  8
0
  6
DASHDOT
 62
   130
 10
-36.1680812835693
 20
-163.773803710938
 30
0.0
 11
-36.1680812835693
 21
-175.773803710937
 31
0.0
  0
LINE
  5
   4F2
  8
0
  6
DASHDOT
 62
   130
 10
-42.1680812835693
 20
-169.773803710938
 30
0.0
 11
-16.4406516314471
 21
-169.773803710938
 31
0.0
  0
LINE
  5
   4F3
  8
0
  6
DASHDOT
 62
   130
 10
-6.16808128356933
 20
-164.773803710938
 30
0.0
 11
-6.16808128356933
 21
-174.773803710938
 31
0.0
  0
LINE
  5
   4F4
  8
0
  6
DASHDOT
 62
   130
 10
-18.6680812835693
 20
-169.773803710938
 30
0.0
 11
-8.66808128356934
 21
-169.773803710938
 31
0.0
  0
ARC
  5
   4F5
  8
0
  6
CONTINUOUS
 62
   130
 10
-43.6680812835693
 20
-108.273803710938
 30
0.0
 40
6.5
 50
449.999999844103
 51
629.999999844103
  0
ARC
  5
   4F6
  8
0
  6
CONTINUOUS
 62
   130
 10
1.33191871643066
 20
-108.273803710938
 30
0.0
 40
6.5
 50
269.999999844103
 51
449.999999844103
  0
LINE
  5
   4F7
  8
0
  6
CONTINUOUS
 62
   130
 10
-43.6680812835693
 20
-101.773803710938
 30
0.0
 11
1.33191871643066
 21
-101.773803710938
 31
0.0
  0
LINE
  5
   4F8
  8
0
  6
CONTINUOUS
 62
   130
 10
-43.6680812835693
 20
-114.773803710938
 30
0.0
 11
1.33191871643066
 21
-114.773803710938
 31
0.0
  0
LINE
  5
   4F9
  8
0
  6
DASHDOT
 62
   130
 10
-43.6680812835693
 20
-96.7738037109375
 30
0.0
 11
-43.6680812835693
 21
-119.773803710938
 31
0.0
  0
LINE
  5
   4FA
  8
0
  6
DASHDOT
 62
   130
 10
-45.1680812835693
 20
-108.273803710938
 30
0.0
 11
-22.1680812835693
 21
-108.273803710938
 31
0.0
  0
LINE
  5
   4FB
  8
0
  6
DASHDOT
 62
   130
 10
1.33191871643065
 20
-96.7738037109375
 30
0.0
 11
1.33191871643065
 21
-119.773803710938
 31
0.0
  0
LINE
  5
   4FC
  8
0
  6
DASHDOT
 62
   130
 10
-20.1680812835693
 20
-108.273803710938
 30
0.0
 11
2.83191871643066
 21
-108.273803710938
 31
0.0
  0
ARC
  5
   4FD
  8
0
  6
CONTINUOUS
 62
   130
 10
1.33191871643066
 20
-159.273803710938
 30
0.0
 40
6.5
 50
269.999999844103
 51
449.999999844103
  0
ARC
  5
   4FE
  8
0
  6
CONTINUOUS
 62
   130
 10
-43.6680812835693
 20
-159.273803710938
 30
0.0
 40
6.5
 50
449.999999844103
 51
629.999999844103
  0
LINE
  5
   4FF
  8
0
  6
CONTINUOUS
 62
   130
 10
-43.6680812835693
 20
-165.773803710938
 30
0.0
 11
1.33191871643066
 21
-165.773803710938
 31
0.0
  0
LINE
  5
   500
  8
0
  6
CONTINUOUS
 62
   130
 10
-43.6680812835693
 20
-152.773803710938
 30
0.0
 11
1.33191871643066
 21
-152.773803710938
 31
0.0
  0
LINE
  5
   501
  8
0
  6
DASHDOT
 62
   130
 10
-43.6680812835693
 20
-147.773803710938
 30
0.0
 11
-43.6680812835693
 21
-170.773803710938
 31
0.0
  0
LINE
  5
   502
  8
0
  6
DASHDOT
 62
   130
 10
-45.1680812835693
 20
-159.273803710938
 30
0.0
 11
-22.1680812835693
 21
-159.273803710938
 31
0.0
  0
LINE
  5
   503
  8
0
  6
DASHDOT
 62
   130
 10
1.33191871643066
 20
-147.773803710938
 30
0.0
 11
1.33191871643066
 21
-170.773803710938
 31
0.0
  0
LINE
  5
   504
  8
0
  6
DASHDOT
 62
   130
 10
-20.1680812835693
 20
-159.273803710938
 30
0.0
 11
2.83191871643066
 21
-159.273803710938
 31
0.0
  0
CIRCLE
  5
   505
  8
0
  6
CONTINUOUS
 62
   130
 10
-43.6680812835693
 20
-125.023803710938
 30
0.0
 40
1.0
  0
CIRCLE
  5
   506
  8
0
  6
CONTINUOUS
 62
   130
 10
1.33191871643066
 20
-125.023803710938
 30
0.0
 40
1.0
  0
CIRCLE
  5
   507
  8
0
  6
CONTINUOUS
 62
   130
 10
-43.6680812835693
 20
-142.523803710938
 30
0.0
 40
1.0
  0
CIRCLE
  5
   508
  8
0
  6
CONTINUOUS
 62
   130
 10
1.33191871643066
 20
-142.523803710938
 30
0.0
 40
1.0
  0
LINE
  5
   509
  8
0
  6
DASHDOT
 62
   130
 10
-43.6680812835693
 20
-120.023803710938
 30
0.0
 11
-43.6680812835693
 21
-130.023803710938
 31
0.0
  0
LINE
  5
   50A
  8
0
  6
DASHDOT
 62
   130
 10
-48.6680812835693
 20
-125.023803710938
 30
0.0
 11
-38.6680812835693
 21
-125.023803710938
 31
0.0
  0
LINE
  5
   50B
  8
0
  6
DASHDOT
 62
   130
 10
1.33191871643066
 20
-120.023803710938
 30
0.0
 11
1.33191871643066
 21
-130.023803710938
 31
0.0
  0
LINE
  5
   50C
  8
0
  6
DASHDOT
 62
   130
 10
-3.66808128356934
 20
-125.023803710938
 30
0.0
 11
6.33191871643066
 21
-125.023803710938
 31
0.0
  0
LINE
  5
   50D
  8
0
  6
DASHDOT
 62
   130
 10
-43.6680812835693
 20
-137.523803710938
 30
0.0
 11
-43.6680812835693
 21
-147.523803710938
 31
0.0
  0
LINE
  5
   50E
  8
0
  6
DASHDOT
 62
   130
 10
-48.6680812835693
 20
-142.523803710938
 30
0.0
 11
-38.6680812835693
 21
-142.523803710938
 31
0.0
  0
LINE
  5
   50F
  8
0
  6
DASHDOT
 62
   130
 10
1.33191871643066
 20
-137.523803710938
 30
0.0
 11
1.33191871643066
 21
-147.523803710938
 31
0.0
  0
LINE
  5
   510
  8
0
  6
DASHDOT
 62
   130
 10
-8.24613797579318
 20
-142.523803710938
 30
0.0
 11
-3.66808128356934
 21
-142.523803710938
 31
0.0
  0
LINE
  5
   511
  8
0
  6
CONTINUOUS
 62
   130
 10
-53.9471043097083
 20
-86.9208507636771
 30
0.0
 11
-53.9471043097083
 21
-183.074472409978
 31
0.0
  0
LINE
  5
   512
  8
0
  6
CONTINUOUS
 62
   130
 10
11.1936915510739
 20
-86.9208507636771
 30
0.0
 11
11.1936915510739
 21
-183.074472409978
 31
0.0
  0
LINE
  5
   513
  8
0
  6
DASHDOT
 62
   130
 10
-13.6680812835693
 20
-80.5603564364833
 30
0.0
 11
-13.6680812835693
 21
-188.345116099406
 31
0.0
  0
LINE
  5
   514
  8
0
  6
CONTINUOUS
 62
   130
 10
-56.3804488299794
 20
-118.773803710938
 30
0.0
 11
10.593988350232
 21
-118.773803710938
 31
0.0
  0
LINE
  5
   515
  8
0
  6
CONTINUOUS
 62
   130
 10
-56.3804488299794
 20
-148.773803710938
 30
0.0
 11
3.093988350232
 21
-148.773803710938
 31
0.0
  0
LINE
  5
   516
  8
0
  6
CONTINUOUS
 62
   130
 10
18.093988350232
 20
-118.773803710938
 30
0.0
 11
18.093988350232
 21
-148.773803710938
 31
0.0
  0
LINE
  5
   517
  8
0
  6
CONTINUOUS
 62
   130
 10
-56.3804488299794
 20
-118.773803710938
 30
0.0
 11
-56.3804488299794
 21
-148.773803710938
 31
0.0
  0
LINE
  5
   518
  8
0
  6
DASHDOT
 62
   130
 10
-60.1464019390985
 20
-139.773803710938
 30
0.0
 11
22.3949711931233
 21
-139.773803710938
 31
0.0
  0
INSERT
  5
   519
  8
0
  6
CONTINUOUS
 62
     3
  2
*UDIM149
 10
0.0
 20
0.0
 30
0.0
  0
INSERT
  5
   51A
  8
0
  6
CONTINUOUS
 62
     3
  2
*UDIM150
 10
0.0
 20
0.0
 30
0.0
  0
INSERT
  5
   51B
  8
0
  6
CONTINUOUS
 62
     3
  2
*UDIM151
 10
0.0
 20
0.0
 30
0.0
  0
TEXT
  5
   51C
  8
0
  6
CONTINUOUS
 62
     2
 10
24.5416622121127
 20
-140.931847536158
 30
0.0
 40
3.00000002980232
  1
X
 50
359.999999844103
 41
0.983333351877
 11
24.5416622161865
 21
-139.431847521257
 31
0.0
 73
     2
  0
INSERT
  5
   51D
  8
0
  6
CONTINUOUS
 62
     3
  2
*UDIM152
 10
0.0
 20
0.0
 30
0.0
  0
INSERT
  5
   51E
  8
0
  6
CONTINUOUS
 62
     3
  2
*UDIM153
 10
0.0
 20
0.0
 30
0.0
  0
TEXT
  5
   51F
  8
0
  6
CONTINUOUS
 62
     2
 10
-14.67345030336
 20
-74.9848565045407
 30
0.0
 40
3.00000002980232
  1
Y
 50
359.999999844103
 41
0.983333351877
 72
     1
 11
-13.573450264617
 21
-74.9848565075282
 31
0.0
  0
INSERT
  5
   520
  8
0
  6
CONTINUOUS
 62
     3
  2
*UDIM154
 10
0.0
 20
0.0
 30
0.0
  0
INSERT
  5
   521
  8
0
  6
CONTINUOUS
 62
     3
  2
*UDIM155
 10
0.0
 20
0.0
 30
0.0
  0
INSERT
  5
   522
  8
0
  6
CONTINUOUS
 62
     3
  2
*UDIM156
 10
0.0
 20
0.0
 30
0.0
  0
INSERT
  5
   523
  8
0
  6
CONTINUOUS
 62
     3
  2
*UDIM157
 10
0.0
 20
0.0
 30
0.0
  0
INSERT
  5
   524
  8
0
  6
CONTINUOUS
 62
     3
  2
*UDIM158
 10
0.0
 20
0.0
 30
0.0
  0
INSERT
  5
   525
  8
0
  6
CONTINUOUS
 62
     3
  2
*UDIM159
 10
0.0
 20
0.0
 30
0.0
  0
TEXT
  5
   526
  8
0
  6
CONTINUOUS
 62
     2
 10
-13.6115162711342
 20
-190.59694914857
 30
0.0
 40
3.00000002980232
  1
Y
 50
359.999999844103
 41
0.983333351877
 72
     2
 11
-11.4115161895743
 21
-189.096949139643
 31
0.0
 73
     2
  0
TEXT
  5
   527
  8
0
  6
CONTINUOUS
 62
     2
 10
-76.2110455374925
 20
-141.127001345549
 30
0.0
 40
3.00000002980232
  1
X
 50
359.999999844103
 41
0.983333351877
 72
     2
 11
-74.0110454559326
 21
-139.627001336623
 31
0.0
 73
     2
  0
INSERT
  5
   528
  8
0
  6
CONTINUOUS
 62
     7
  2
*UDIM160
 10
0.0
 20
0.0
 30
0.0
  0
INSERT
  5
   529
  8
0
  6
CONTINUOUS
 62
     3
  2
*UDIM161
 10
0.0
 20
0.0
 30
0.0
  0
CIRCLE
  5
   52A
  8
0
  6
CONTINUOUS
 62
     2
 10
1.33192504884203
 20
35.9360706210152
 30
0.0
 40
1.0
  0
LINE
  5
   52B
  8
0
  6
CONTINUOUS
 62
     2
 10
1.94509746121384
 20
36.7260197286836
 30
0.0
 11
0.541975941173593
 21
35.3228982086434
 31
0.0
  0
LINE
  5
   52C
  8
0
  6
CONTINUOUS
 62
     2
 10
2.12187415651046
 20
36.5492430333869
 30
0.0
 11
0.718752636470247
 21
35.1461215133467
 31
0.0
  0
LINE
  5
   52D
  8
0
  6
DASHDOT
 62
     2
 10
1.33192504884203
 20
40.9360706210152
 30
0.0
 11
1.33192504884203
 21
30.9360706210152
 31
0.0
  0
LINE
  5
   52E
  8
0
  6
DASHDOT
 62
     2
 10
-3.66807495115797
 20
35.9360706210152
 30
0.0
 11
6.33192504884203
 21
35.9360706210152
 31
0.0
  0
LINE
  5
   52F
  8
0
  6
CONTINUOUS
 62
     7
 10
12.0818691253662
 20
23.8114471435547
 30
0.0
 11
12.0818691253662
 21
-22.9385528564453
 31
0.0
  0
LINE
  5
   530
  8
0
  6
CONTINUOUS
 62
     7
 10
-53.7931308746338
 20
-23.5635528564453
 30
0.0
 11
11.4568691253662
 21
-23.5635528564453
 31
0.0
  0
LINE
  5
   531
  8
0
  6
CONTINUOUS
 62
     7
 10
-54.4181308746338
 20
23.8114471435547
 30
0.0
 11
-54.4181308746338
 21
-22.9385528564453
 31
0.0
  0
LINE
  5
   532
  8
0
  6
CONTINUOUS
 62
     7
 10
-53.7931308746338
 20
24.4364471435547
 30
0.0
 11
11.4568691253662
 21
24.4364471435547
 31
0.0
  0
LINE
  5
   533
  8
0
  6
CONTINUOUS
 62
     7
 10
-51.9181308746338
 20
-11.5635528564453
 30
0.0
 11
9.58186912536621
 21
-11.5635528564453
 31
0.0
  0
LINE
  5
   534
  8
0
  6
CONTINUOUS
 62
     7
 10
-51.9181308746338
 20
12.4364471435547
 30
0.0
 11
9.58186912536621
 21
12.4364471435547
 31
0.0
  0
LINE
  5
   535
  8
0
  6
CONTINUOUS
 62
     7
 10
-52.1681308746338
 20
24.4364471435547
 30
0.0
 11
-52.1681308746338
 21
-23.5635528564453
 31
0.0
  0
LINE
  5
   536
  8
0
  6
CONTINUOUS
 62
     7
 10
-51.6681308746338
 20
17.6864471435547
 30
0.0
 11
-51.6681308746338
 21
12.4364471435547
 31
0.0
  0
LINE
  5
   537
  8
0
  6
CONTINUOUS
 62
     7
 10
-51.6681308746338
 20
-11.5635528564453
 30
0.0
 11
-51.6681308746338
 21
-16.8135528564453
 31
0.0
  0
LINE
  5
   538
  8
0
  6
CONTINUOUS
 62
     7
 10
-51.6681308746338
 20
-17.3135528564453
 30
0.0
 11
-51.6681308746338
 21
-23.5635528564453
 31
0.0
  0
LINE
  5
   539
  8
0
  6
CONTINUOUS
 62
     7
 10
9.83186912536621
 20
24.4364471435547
 30
0.0
 11
9.83186912536621
 21
-23.5635528564453
 31
0.0
  0
LINE
  5
   53A
  8
0
  6
CONTINUOUS
 62
     7
 10
9.33186912536621
 20
-11.5635528564453
 30
0.0
 11
9.33186912536621
 21
-16.8135528564453
 31
0.0
  0
LINE
  5
   53B
  8
0
  6
CONTINUOUS
 62
     7
 10
9.33186912536621
 20
-17.3135528564453
 30
0.0
 11
9.33186912536621
 21
-23.5635528564453
 31
0.0
  0
LINE
  5
   53C
  8
0
  6
CONTINUOUS
 62
     7
 10
9.33186912536621
 20
17.6864471435547
 30
0.0
 11
9.33186912536621
 21
12.4364471435547
 31
0.0
  0
LINE
  5
   53D
  8
0
  6
CONTINUOUS
 62
     7
 10
-52.1681308746338
 20
18.1864471435547
 30
0.0
 11
9.83186912536621
 21
18.1864471435547
 31
0.0
  0
LINE
  5
   53E
  8
0
  6
CONTINUOUS
 62
     7
 10
-51.6681308746338
 20
17.6864471435547
 30
0.0
 11
9.33186912536621
 21
17.6864471435547
 31
0.0
  0
LINE
  5
   53F
  8
0
  6
CONTINUOUS
 62
     7
 10
-51.6681308746338
 20
-17.3135528564453
 30
0.0
 11
9.33186912536621
 21
-17.3135528564453
 31
0.0
  0
LINE
  5
   540
  8
0
  6
CONTINUOUS
 62
     7
 10
-51.6681308746338
 20
-16.8135528564453
 30
0.0
 11
9.33186912536621
 21
-16.8135528564453
 31
0.0
  0
LINE
  5
   541
  8
0
  6
CONTINUOUS
 62
     7
 10
-52.1681308746338
 20
21.6864471435547
 30
0.0
 11
-52.0181293487549
 21
21.6864471435547
 31
0.0
  0
LINE
  5
   542
  8
0
  6
CONTINUOUS
 62
     7
 10
-52.1681308746338
 20
20.9364471435547
 30
0.0
 11
-52.0181293487549
 21
20.9364471435547
 31
0.0
  0
LINE
  5
   543
  8
0
  6
CONTINUOUS
 62
     7
 10
9.68186902999878
 20
21.6864471435547
 30
0.0
 11
9.83186912536621
 21
21.6864471435547
 31
0.0
  0
LINE
  5
   544
  8
0
  6
CONTINUOUS
 62
     7
 10
9.68186902999878
 20
20.9364471435547
 30
0.0
 11
9.83186912536621
 21
20.9364471435547
 31
0.0
  0
ARC
  5
   545
  8
0
  6
CONTINUOUS
 62
     7
 10
-52.0181493200929
 20
21.3114346845775
 30
0.0
 40
0.375021724720464
 50
270.002994716444
 51
449.997011754257
  0
ARC
  5
   546
  8
0
  6
CONTINUOUS
 62
     7
 10
9.68187646155756
 20
21.3114443884895
 30
0.0
 40
0.375007470094436
 50
450.001135501493
 51
629.998857587167
  0
ARC
  5
   547
  8
0
  6
CONTINUOUS
 62
     7
 10
11.4568691253662
 20
23.8114471435547
 30
0.0
 40
0.625
 50
359.999999844103
 51
449.999999844103
  0
ARC
  5
   548
  8
0
  6
CONTINUOUS
 62
     7
 10
-53.7931308746338
 20
23.8114471435547
 30
0.0
 40
0.625
 50
449.999999844103
 51
539.999999844103
  0
ARC
  5
   549
  8
0
  6
CONTINUOUS
 62
     7
 10
-53.7931308746338
 20
-22.9385528564453
 30
0.0
 40
0.625
 50
539.999999844103
 51
629.999999844103
  0
ARC
  5
   54A
  8
0
  6
CONTINUOUS
 62
     7
 10
11.4568691253662
 20
-22.9385528564453
 30
0.0
 40
0.625
 50
629.999999844103
 51
719.999999844103
  0
LINE
  5
   54B
  8
0
  6
CONTINUOUS
 62
     7
 10
9.58186912536621
 20
12.4364471435547
 30
0.0
 11
9.58186912536621
 21
-11.5635528564453
 31
0.0
  0
LINE
  5
   54C
  8
0
  6
CONTINUOUS
 62
     7
 10
-51.9181308746338
 20
12.4364471435547
 30
0.0
 11
-51.9181308746338
 21
-11.5635528564453
 31
0.0
  0
LINE
  5
   54D
  8
0
  6
CONTINUOUS
 62
     7
 10
8.8319086760588
 20
12.4364471435547
 30
0.0
 11
8.83190501395018
 21
-11.5635528564453
 31
0.0
  0
LINE
  5
   54E
  8
0
  6
CONTINUOUS
 62
   130
 10
-8.4180714113595
 20
-4.51983951751437
 30
0.0
 11
-8.41807146857998
 21
-6.01983951751437
 31
0.0
  0
LINE
  5
   54F
  8
0
  6
CONTINUOUS
 62
   130
 10
-18.9180854337342
 20
-4.51983951751437
 30
0.0
 11
-18.9180853765137
 21
-6.01983951751437
 31
0.0
  0
LINE
  5
   550
  8
0
  6
CONTINUOUS
 62
   130
 10
-18.9180854337342
 20
-4.51983951751437
 30
0.0
 11
-17.4180854337341
 21
-4.51983951751437
 31
0.0
  0
LINE
  5
   551
  8
0
  6
CONTINUOUS
 62
   130
 10
-9.91807141135949
 20
-4.51983951751437
 30
0.0
 11
-8.41807141135949
 21
-4.51983951751437
 31
0.0
  0
LINE
  5
   552
  8
0
  6
CONTINUOUS
 62
   130
 10
-18.9180853765137
 20
-6.01983951751437
 30
0.0
 11
-16.9180853765137
 21
-6.01983951751437
 31
0.0
  0
LINE
  5
   553
  8
0
  6
CONTINUOUS
 62
   130
 10
-10.41807146858
 20
-6.01983951751437
 30
0.0
 11
-8.41807146857998
 21
-6.01983951751437
 31
0.0
  0
LINE
  5
   554
  8
0
  6
CONTINUOUS
 62
   130
 10
15.2883424758911
 20
-0.813929378986359
 30
0.0
 11
15.2883424758911
 21
-0.813929378986359
 31
0.0
  0
LINE
  5
   555
  8
0
  6
CONTINUOUS
 62
   130
 10
15.2883424758911
 20
-0.813929378986359
 30
0.0
 11
15.2883424758911
 21
-0.813929378986359
 31
0.0
  0
LINE
  5
   556
  8
0
  6
CONTINUOUS
 62
   130
 10
15.2883424758911
 20
-0.813929378986359
 30
0.0
 11
15.2883424758911
 21
-0.813929378986359
 31
0.0
  0
LINE
  5
   557
  8
0
  6
CONTINUOUS
 62
   130
 10
15.2883424758911
 20
-0.813929378986359
 30
0.0
 11
15.2883424758911
 21
-0.813929378986359
 31
0.0
  0
LINE
  5
   558
  8
0
  6
CONTINUOUS
 62
   130
 10
15.2883424758911
 20
-0.813929378986359
 30
0.0
 11
15.2883424758911
 21
-0.813929378986359
 31
0.0
  0
LINE
  5
   559
  8
0
  6
CONTINUOUS
 62
   130
 10
15.2883424758911
 20
-0.813929378986359
 30
0.0
 11
15.2883424758911
 21
-0.813929378986359
 31
0.0
  0
LINE
  5
   55A
  8
0
  6
CONTINUOUS
 62
   130
 10
15.2883424758911
 20
-0.813929378986359
 30
0.0
 11
15.2883424758911
 21
-0.813929378986359
 31
0.0
  0
LINE
  5
   55B
  8
0
  6
CONTINUOUS
 62
   130
 10
15.2883424758911
 20
-0.813929378986359
 30
0.0
 11
15.2883424758911
 21
-0.813929378986359
 31
0.0
  0
LINE
  5
   55C
  8
0
  6
CONTINUOUS
 62
   130
 10
-51.1680703735253
 20
46.4360217285156
 30
0.0
 11
-51.1680670166573
 21
24.4364471435547
 31
0.0
  0
LINE
  5
   55D
  8
0
  6
CONTINUOUS
 62
   130
 10
-51.1680616378801
 20
-10.8139141201939
 30
0.0
 11
-13.668076896669
 21
-10.8139141201939
 31
0.0
  0
LINE
  5
   55E
  8
0
  6
CONTINUOUS
 62
   130
 10
-51.168065071107
 20
11.6860858798002
 30
0.0
 11
-13.6680803298958
 21
11.6860858798002
 31
0.0
  0
LINE
  5
   55F
  8
0
  6
CONTINUOUS
 62
   130
 10
-17.4180858924108
 20
7.50408760040782
 30
0.0
 11
-10.3458631197159
 21
7.50408760040782
 31
0.0
  0
LINE
  5
   560
  8
0
  6
CONTINUOUS
 62
   130
 10
-17.4180859279638
 20
8.43608587980018
 30
0.0
 11
-17.4180854146607
 21
-5.01983951751437
 31
0.0
  0
LINE
  5
   561
  8
0
  6
DASHDOT
 62
   130
 10
-23.9680772781375
 20
-5.68892174959092
 30
0.0
 11
-23.9680772781375
 21
-10.9389217495909
 31
0.0
  0
LINE
  5
   562
  8
0
  6
CONTINUOUS
 62
   130
 10
-17.4180854146606
 20
-5.01983951751437
 30
0.0
 11
-16.9180854146607
 21
-5.01983951751437
 31
0.0
  0
LINE
  5
   563
  8
0
  6
CONTINUOUS
 62
   130
 10
-17.4180854218362
 20
-4.83173777491745
 30
0.0
 11
-16.9180854218362
 21
-4.83173777491745
 31
0.0
  0
LINE
  5
   564
  8
0
  6
CONTINUOUS
 62
   130
 10
-34.6930791473222
 20
8.43608587980018
 30
0.0
 11
-8.57236656395264
 21
8.43608587980018
 31
0.0
  0
LINE
  5
   565
  8
0
  6
CONTINUOUS
 62
   130
 10
-34.693079261763
 20
7.68608587980018
 30
0.0
 11
-17.4180858993535
 21
7.68608587980018
 31
0.0
  0
LINE
  5
   566
  8
0
  6
CONTINUOUS
 62
   130
 10
-34.6930815887279
 20
-7.56391412019388
 30
0.0
 11
-26.4680772781375
 21
-7.56391412019388
 31
0.0
  0
LINE
  5
   567
  8
0
  6
CONTINUOUS
 62
   130
 10
-34.693081474287
 20
-6.81391412019388
 30
0.0
 11
-16.9180853462221
 21
-6.81391412019388
 31
0.0
  0
LINE
  5
   568
  8
0
  6
CONTINUOUS
 62
   130
 10
-21.4680772781375
 20
-7.56391412019388
 30
0.0
 11
2.92162220937124
 21
-7.56391412019388
 31
0.0
  0
LINE
  5
   569
  8
0
  6
CONTINUOUS
 62
   130
 10
-16.918085513694
 20
-2.42374199241394
 30
0.0
 11
-16.9180853532284
 21
-6.63024759054955
 31
0.0
  0
LINE
  5
   56A
  8
0
  6
CONTINUOUS
 62
   130
 10
15.2883424758911
 20
-0.813929378986359
 30
0.0
 11
15.2883424758911
 21
-0.813929378986359
 31
0.0
  0
LINE
  5
   56B
  8
0
  6
CONTINUOUS
 62
   130
 10
15.2883424758911
 20
-0.813929378986359
 30
0.0
 11
15.2883424758911
 21
-0.813929378986359
 31
0.0
  0
LINE
  5
   56C
  8
0
  6
CONTINUOUS
 62
   130
 10
15.2883424758911
 20
-0.813929378986359
 30
0.0
 11
15.2883424758911
 21
-0.813929378986359
 31
0.0
  0
LINE
  5
   56D
  8
0
  6
CONTINUOUS
 62
   130
 10
15.2883424758911
 20
-0.813929378986359
 30
0.0
 11
15.2883424758911
 21
-0.813929378986359
 31
0.0
  0
LINE
  5
   56E
  8
0
  6
CONTINUOUS
 62
   130
 10
15.2883424758911
 20
-0.813929378986359
 30
0.0
 11
15.2883424758911
 21
-0.813929378986359
 31
0.0
  0
LINE
  5
   56F
  8
0
  6
CONTINUOUS
 62
   130
 10
15.2883424758911
 20
-0.813929378986359
 30
0.0
 11
15.2883424758911
 21
-0.813929378986359
 31
0.0
  0
LINE
  5
   570
  8
0
  6
CONTINUOUS
 62
   130
 10
15.2883424758911
 20
-0.813929378986359
 30
0.0
 11
15.2883424758911
 21
-0.813929378986359
 31
0.0
  0
LINE
  5
   571
  8
0
  6
CONTINUOUS
 62
   130
 10
-50.6680830001801
 20
29.1860647382564
 30
0.0
 11
-50.6680828857392
 21
28.4360647382564
 31
0.0
  0
LINE
  5
   572
  8
0
  6
CONTINUOUS
 62
   130
 10
-35.66808300018
 20
29.1860647382564
 30
0.0
 11
-13.6680933204571
 21
29.1860647382564
 31
0.0
  0
LINE
  5
   573
  8
0
  6
CONTINUOUS
 62
   130
 10
-51.1680676269504
 20
28.4360647382564
 30
0.0
 11
-13.6680784225464
 21
28.4360647382564
 31
0.0
  0
LINE
  5
   574
  8
0
  6
CONTINUOUS
 62
   130
 10
15.2883424758911
 20
-0.813929378986359
 30
0.0
 11
15.2883424758911
 21
-0.813929378986359
 31
0.0
  0
LINE
  5
   575
  8
0
  6
CONTINUOUS
 62
   130
 10
15.2883424758911
 20
-0.813929378986359
 30
0.0
 11
15.2883424758911
 21
-0.813929378986359
 31
0.0
  0
LINE
  5
   576
  8
0
  6
CONTINUOUS
 62
   130
 10
15.2883424758911
 20
-0.813929378986359
 30
0.0
 11
15.2883424758911
 21
-0.813929378986359
 31
0.0
  0
LINE
  5
   577
  8
0
  6
CONTINUOUS
 62
   130
 10
15.2883424758911
 20
-0.813929378986359
 30
0.0
 11
15.2883424758911
 21
-0.813929378986359
 31
0.0
  0
LINE
  5
   578
  8
0
  6
CONTINUOUS
 62
   130
 10
15.2883424758911
 20
-0.813929378986359
 30
0.0
 11
15.2883424758911
 21
-0.813929378986359
 31
0.0
  0
LINE
  5
   579
  8
0
  6
CONTINUOUS
 62
   130
 10
15.2883424758911
 20
-0.813929378986359
 30
0.0
 11
15.2883424758911
 21
-0.813929378986359
 31
0.0
  0
LINE
  5
   57A
  8
0
  6
CONTINUOUS
 62
   130
 10
15.2883424758911
 20
-0.813929378986359
 30
0.0
 11
15.2883424758911
 21
-0.813929378986359
 31
0.0
  0
LINE
  5
   57B
  8
0
  6
CONTINUOUS
 62
   130
 10
15.2883424758911
 20
-0.813929378986359
 30
0.0
 11
15.2883424758911
 21
-0.813929378986359
 31
0.0
  0
LINE
  5
   57C
  8
0
  6
CONTINUOUS
 62
   130
 10
8.83191352843163
 20
46.4360217285156
 30
0.0
 11
8.83191017156365
 21
24.4364471435547
 31
0.0
  0
LINE
  5
   57D
  8
0
  6
CONTINUOUS
 62
   130
 10
-13.6680799484247
 20
-10.8139141201939
 30
0.0
 11
8.83192005157555
 21
-10.8139141201939
 31
0.0
  0
LINE
  5
   57E
  8
0
  6
CONTINUOUS
 62
   130
 10
-13.6680765151979
 20
11.6860858798002
 30
0.0
 11
8.83192348480237
 21
11.6860858798002
 31
0.0
  0
LINE
  5
   57F
  8
0
  6
CONTINUOUS
 62
   130
 10
-10.4180709526828
 20
7.50408760040782
 30
0.0
 11
-9.91807095268283
 21
7.50408760040782
 31
0.0
  0
LINE
  5
   580
  8
0
  6
CONTINUOUS
 62
   130
 10
-9.91807091712989
 20
8.43608587980018
 30
0.0
 11
-9.91807143043299
 21
-5.01983951751437
 31
0.0
  0
LINE
  5
   581
  8
0
  6
CONTINUOUS
 62
   130
 10
-10.418071430433
 20
-5.01983951751437
 30
0.0
 11
-9.918071430433
 21
-5.01983951751437
 31
0.0
  0
LINE
  5
   582
  8
0
  6
CONTINUOUS
 62
   130
 10
-10.4180714232575
 20
-4.83173777491745
 30
0.0
 11
-9.91807142325748
 21
-4.83173777491745
 31
0.0
  0
LINE
  5
   583
  8
0
  6
CONTINUOUS
 62
   130
 10
-10.4180709171299
 20
8.43608587980018
 30
0.0
 11
8.83192298889183
 21
8.43608587980018
 31
0.0
  0
LINE
  5
   584
  8
0
  6
CONTINUOUS
 62
   130
 10
-9.91807094574015
 20
7.68608587980018
 30
0.0
 11
8.83192287445094
 21
7.68608587980018
 31
0.0
  0
LINE
  5
   585
  8
0
  6
CONTINUOUS
 62
   130
 10
-10.4180713313997
 20
-2.42374199241394
 30
0.0
 11
-10.4180714918652
 21
-6.63024759054955
 31
0.0
  0
LINE
  5
   586
  8
0
  6
CONTINUOUS
 62
   130
 10
15.2883424758911
 20
-0.813929378986359
 30
0.0
 11
15.2883424758911
 21
-0.813929378986359
 31
0.0
  0
LINE
  5
   587
  8
0
  6
CONTINUOUS
 62
   130
 10
15.2883424758911
 20
-0.813929378986359
 30
0.0
 11
15.2883424758911
 21
-0.813929378986359
 31
0.0
  0
LINE
  5
   588
  8
0
  6
CONTINUOUS
 62
   130
 10
15.2883424758911
 20
-0.813929378986359
 30
0.0
 11
15.2883424758911
 21
-0.813929378986359
 31
0.0
  0
LINE
  5
   589
  8
0
  6
CONTINUOUS
 62
   130
 10
15.2883424758911
 20
-0.813929378986359
 30
0.0
 11
15.2883424758911
 21
-0.813929378986359
 31
0.0
  0
LINE
  5
   58A
  8
0
  6
CONTINUOUS
 62
   130
 10
15.2883424758911
 20
-0.813929378986359
 30
0.0
 11
15.2883424758911
 21
-0.813929378986359
 31
0.0
  0
LINE
  5
   58B
  8
0
  6
CONTINUOUS
 62
   130
 10
8.33192615508642
 20
29.1860647382564
 30
0.0
 11
8.33192604064552
 21
28.4360647382564
 31
0.0
  0
LINE
  5
   58C
  8
0
  6
CONTINUOUS
 62
   130
 10
-51.1680677413913
 20
29.1860647382564
 30
0.0
 11
8.83191089629763
 21
29.1860647382564
 31
0.0
  0
LINE
  5
   58D
  8
0
  6
CONTINUOUS
 62
   130
 10
-13.6680784225473
 20
28.4360647382564
 30
0.0
 11
8.83191932678206
 21
28.4360647382564
 31
0.0
  0
LINE
  5
   58E
  8
0
  6
DASHDOT
 62
   130
 10
-30.3680772781375
 20
-8.31392174959092
 30
0.0
 11
-17.5680772781375
 21
-8.31392174959092
 31
0.0
  0
LINE
  5
   58F
  8
0
  6
DASHDOT
 62
   130
 10
5.23192310333252
 20
-6.52566484746541
 30
0.0
 11
5.23192310333252
 21
-9.83555770113301
 31
0.0
  0
LINE
  5
   590
  8
0
  6
DASHDOT
 62
   130
 10
3.84059412387602
 20
-8.2139216427363
 30
0.0
 11
6.57617438394711
 21
-8.2139216427363
 31
0.0
  0
LINE
  5
   591
  8
0
  6
CONTINUOUS
 62
   130
 10
5.23192310333252
 20
-5.81392164273629
 30
0.0
 11
4.93625296571682
 21
-6.109591780352
 31
0.0
  0
LINE
  5
   592
  8
0
  6
CONTINUOUS
 62
   130
 10
5.23192310333252
 20
-5.81392164273629
 30
0.0
 11
5.52759324094822
 21
-6.109591780352
 31
0.0
  0
ARC
  5
   593
  8
0
  6
CONTINUOUS
 62
   130
 10
5.23192310333252
 20
-8.2139216427363
 30
0.0
 40
2.125
 50
457.998020342877
 51
802.00197934533
  0
LINE
  5
   594
  8
0
  6
CONTINUOUS
 62
   130
 10
4.23192310333252
 20
-7.9639216427363
 30
0.0
 11
6.23192310333252
 21
-7.9639216427363
 31
0.0
  0
LINE
  5
   595
  8
0
  6
CONTINUOUS
 62
   130
 10
4.23192310333252
 20
-8.4639216427363
 30
0.0
 11
6.23192310333252
 21
-8.4639216427363
 31
0.0
  0
ARC
  5
   596
  8
0
  6
CONTINUOUS
 62
   130
 10
5.23192310333252
 20
-8.2139216427363
 30
0.0
 40
2.4
 50
359.999999844103
 51
539.999999844103
  0
LINE
  5
   597
  8
0
  6
CONTINUOUS
 62
   130
 10
2.83192310333252
 20
-8.2139216427363
 30
0.0
 11
3.10692310333252
 21
-8.2139216427363
 31
0.0
  0
LINE
  5
   598
  8
0
  6
CONTINUOUS
 62
   130
 10
7.35692310333252
 20
-8.2139216427363
 30
0.0
 11
7.63192310333252
 21
-8.2139216427363
 31
0.0
  0
LINE
  5
   599
  8
0
  6
CONTINUOUS
 62
   130
 10
7.18127656969634
 20
-6.81391412019388
 30
0.0
 11
8.83190540313794
 21
-6.81391412019388
 31
0.0
  0
LINE
  5
   59A
  8
0
  6
CONTINUOUS
 62
   130
 10
7.5422239972938
 20
-7.56391412019388
 30
0.0
 11
8.83190528869704
 21
-7.56391412019388
 31
0.0
  0
CIRCLE
  5
   59B
  8
0
  6
CONTINUOUS
 62
   130
 10
5.23192310333252
 20
-5.26345809932766
 30
0.0
 40
0.4
  0
INSERT
  5
   59C
  8
0
  6
CONTINUOUS
 62
     7
  2
*HATCH23
 10
15.2883424758911
 20
-0.813929378986359
 30
0.0
 41
0.5
 42
0.5
 50
269.999999844103
 43
0.5
  0
LINE
  5
   59D
  8
0
  6
CONTINUOUS
 62
   130
 10
-16.918085513694
 20
-2.42374199241394
 30
0.0
 11
-10.4180713313997
 21
-2.42374199241394
 31
0.0
  0
LINE
  5
   59E
  8
0
  6
CONTINUOUS
 62
   130
 10
-16.6680853993332
 20
-5.17164007079726
 30
0.0
 11
-10.6680714457605
 21
-5.17164007079726
 31
0.0
  0
LINE
  5
   59F
  8
0
  6
CONTINUOUS
 62
   130
 10
-16.6680853532284
 20
-6.8802475810128
 30
0.0
 11
-10.6680714918652
 21
-6.8802475810128
 31
0.0
  0
LINE
  5
   5A0
  8
0
  6
CONTINUOUS
 62
   130
 10
-10.4180714988715
 20
-6.81391412019388
 30
0.0
 11
3.2825696369687
 21
-6.81391412019388
 31
0.0
  0
ARC
  5
   5A1
  8
0
  6
CONTINUOUS
 62
   130
 10
-16.6680853532284
 20
-6.6302475810128
 30
0.0
 40
0.25
 50
540.000002029765
 51
629.999999844103
  0
ARC
  5
   5A2
  8
0
  6
CONTINUOUS
 62
   130
 10
-10.6680714918652
 20
-6.6302475810128
 30
0.0
 40
0.25
 50
269.999999844103
 51
359.999997658442
  0
ARC
  5
   5A3
  8
0
  6
CONTINUOUS
 62
   130
 10
-10.6680714457605
 20
-5.42164007079726
 30
0.0
 40
0.25
 50
359.999997658442
 51
449.999999844103
  0
ARC
  5
   5A4
  8
0
  6
CONTINUOUS
 62
   130
 10
-16.6680853993332
 20
-5.42164007079726
 30
0.0
 40
0.25
 50
449.999999844103
 51
540.000002029765
  0
LINE
  5
   5A5
  8
0
  6
CONTINUOUS
 62
   130
 10
-13.6680799484247
 20
-10.8139141201939
 30
0.0
 11
8.83192005157555
 21
-10.8139141201939
 31
0.0
  0
LINE
  5
   5A6
  8
0
  6
CONTINUOUS
 62
   130
 10
-13.6680765151979
 20
11.6860858798002
 30
0.0
 11
8.83192348480237
 21
11.6860858798002
 31
0.0
  0
LINE
  5
   5A7
  8
0
  6
CONTINUOUS
 62
   130
 10
-20.5524320602417
 20
6.6141593003891
 30
0.0
 11
-20.1774320602417
 21
6.6141593003891
 31
0.0
  0
LINE
  5
   5A8
  8
0
  6
CONTINUOUS
 62
   130
 10
-20.5524320602417
 20
4.3641593003891
 30
0.0
 11
-20.1774320602417
 21
4.3641593003891
 31
0.0
  0
CIRCLE
  5
   5A9
  8
0
  6
CONTINUOUS
 62
   130
 10
-20.3649320602417
 20
-2.8858406996109
 30
0.0
 40
1.125
  0
CIRCLE
  5
   5AA
  8
0
  6
CONTINUOUS
 62
   130
 10
-20.3649320602417
 20
-2.8858406996109
 30
0.0
 40
0.75
  0
LINE
  5
   5AB
  8
0
  6
CONTINUOUS
 62
   130
 10
-20.5524320602417
 20
6.6141593003891
 30
0.0
 11
-20.5524320602417
 21
4.3641593003891
 31
0.0
  0
LINE
  5
   5AC
  8
0
  6
CONTINUOUS
 62
   130
 10
-20.1774320602417
 20
6.6141593003891
 30
0.0
 11
-20.1774320602417
 21
4.3641593003891
 31
0.0
  0
LINE
  5
   5AD
  8
0
  6
CONTINUOUS
 62
   130
 10
-6.27743450164797
 20
-1.9233406996109
 30
0.0
 11
-6.16493450164797
 21
-1.9233406996109
 31
0.0
  0
LINE
  5
   5AE
  8
0
  6
CONTINUOUS
 62
   130
 10
-6.60243450164798
 20
-3.8483406996109
 30
0.0
 11
-6.40243450164797
 21
-3.8483406996109
 31
0.0
  0
LINE
  5
   5AF
  8
0
  6
CONTINUOUS
 62
   130
 10
-6.90243450164796
 20
-3.07334069961089
 30
0.0
 11
-6.90243450164796
 21
-3.19834069961088
 31
0.0
  0
ARC
  5
   5B0
  8
0
  6
CONTINUOUS
 62
   130
 10
-7.55243450164797
 20
-3.0733406996109
 30
0.0
 40
0.65
 50
359.999999844103
 51
539.999999844103
  0
ARC
  5
   5B1
  8
0
  6
CONTINUOUS
 62
   130
 10
-7.55243450164797
 20
-3.1983406996109
 30
0.0
 40
0.649999999999999
 50
539.999999844103
 51
719.999999844103
  0
ARC
  5
   5B2
  8
0
  6
CONTINUOUS
 62
   130
 10
-7.55243450164797
 20
-3.0733406996109
 30
0.0
 40
0.45
 50
359.999999844103
 51
539.999999844103
  0
ARC
  5
   5B3
  8
0
  6
CONTINUOUS
 62
   130
 10
-7.55243450164797
 20
-3.1983406996109
 30
0.0
 40
0.449999999999999
 50
539.999999844103
 51
719.999999844103
  0
LINE
  5
   5B4
  8
0
  6
CONTINUOUS
 62
   130
 10
-7.10243450164796
 20
-3.07334069961089
 30
0.0
 11
-7.10243450164796
 21
-3.19834069961089
 31
0.0
  0
LINE
  5
   5B5
  8
0
  6
CONTINUOUS
 62
   130
 10
-6.83993450164796
 20
-2.52334069961089
 30
0.0
 11
-6.83993450164796
 21
-2.72334069961089
 31
0.0
  0
LINE
  5
   5B6
  8
0
  6
CONTINUOUS
 62
   130
 10
-6.83993450164797
 20
-2.7233406996109
 30
0.0
 11
-6.60243450164797
 21
-2.7233406996109
 31
0.0
  0
LINE
  5
   5B7
  8
0
  6
CONTINUOUS
 62
   130
 10
-6.16493450164796
 20
-2.52334069961089
 30
0.0
 11
-6.16493450164796
 21
-2.72334069961089
 31
0.0
  0
LINE
  5
   5B8
  8
0
  6
CONTINUOUS
 62
   130
 10
-6.83993450164797
 20
-2.5233406996109
 30
0.0
 11
-6.60243450164797
 21
-2.5233406996109
 31
0.0
  0
LINE
  5
   5B9
  8
0
  6
CONTINUOUS
 62
   130
 10
-6.60243450164796
 20
-2.72334069961089
 30
0.0
 11
-6.60243450164796
 21
-3.84834069961089
 31
0.0
  0
LINE
  5
   5BA
  8
0
  6
CONTINUOUS
 62
   130
 10
-6.40243450164796
 20
-2.72334069961089
 30
0.0
 11
-6.40243450164796
 21
-3.84834069961089
 31
0.0
  0
LINE
  5
   5BB
  8
0
  6
CONTINUOUS
 62
   130
 10
-6.40243450164797
 20
-2.7233406996109
 30
0.0
 11
-6.16493450164797
 21
-2.7233406996109
 31
0.0
  0
LINE
  5
   5BC
  8
0
  6
CONTINUOUS
 62
   130
 10
-6.40243450164797
 20
-2.5233406996109
 30
0.0
 11
-6.16493450164797
 21
-2.5233406996109
 31
0.0
  0
LINE
  5
   5BD
  8
0
  6
CONTINUOUS
 62
   130
 10
-6.60243450164796
 20
-2.24834069961089
 30
0.0
 11
-6.60243450164796
 21
-2.52334069961089
 31
0.0
  0
LINE
  5
   5BE
  8
0
  6
CONTINUOUS
 62
   130
 10
-6.40243450164796
 20
-2.24834069961089
 30
0.0
 11
-6.40243450164796
 21
-2.52334069961089
 31
0.0
  0
ARC
  5
   5BF
  8
0
  6
CONTINUOUS
 62
   130
 10
-6.27743450164797
 20
-2.2483406996109
 30
0.0
 40
0.325
 50
449.999999844103
 51
539.999999844103
  0
ARC
  5
   5C0
  8
0
  6
CONTINUOUS
 62
   130
 10
-6.27743450164797
 20
-2.2483406996109
 30
0.0
 40
0.125
 50
449.999999844103
 51
539.999999844103
  0
LINE
  5
   5C1
  8
0
  6
CONTINUOUS
 62
   130
 10
-6.16493450164796
 20
-1.92334069961089
 30
0.0
 11
-6.16493450164796
 21
-2.12334069961089
 31
0.0
  0
LINE
  5
   5C2
  8
0
  6
CONTINUOUS
 62
   130
 10
-6.27743450164797
 20
-2.1233406996109
 30
0.0
 11
-6.16493450164797
 21
-2.1233406996109
 31
0.0
  0
LINE
  5
   5C3
  8
0
  6
CONTINUOUS
 62
   130
 10
-5.80243450164798
 20
-3.8483406996109
 30
0.0
 11
-5.60243450164798
 21
-3.8483406996109
 31
0.0
  0
LINE
  5
   5C4
  8
0
  6
CONTINUOUS
 62
   130
 10
-6.03993450164796
 20
-2.52334069961089
 30
0.0
 11
-6.03993450164796
 21
-2.72334069961089
 31
0.0
  0
LINE
  5
   5C5
  8
0
  6
CONTINUOUS
 62
   130
 10
-6.03993450164797
 20
-2.7233406996109
 30
0.0
 11
-5.80243450164797
 21
-2.7233406996109
 31
0.0
  0
LINE
  5
   5C6
  8
0
  6
CONTINUOUS
 62
   130
 10
-5.36493450164797
 20
-2.52334069961089
 30
0.0
 11
-5.36493450164797
 21
-2.72334069961089
 31
0.0
  0
LINE
  5
   5C7
  8
0
  6
CONTINUOUS
 62
   130
 10
-6.03993450164797
 20
-2.5233406996109
 30
0.0
 11
-5.80243450164797
 21
-2.5233406996109
 31
0.0
  0
LINE
  5
   5C8
  8
0
  6
CONTINUOUS
 62
   130
 10
-5.80243450164797
 20
-2.72334069961089
 30
0.0
 11
-5.80243450164797
 21
-3.84834069961089
 31
0.0
  0
LINE
  5
   5C9
  8
0
  6
CONTINUOUS
 62
   130
 10
-5.60243450164796
 20
-2.72334069961089
 30
0.0
 11
-5.60243450164796
 21
-3.84834069961089
 31
0.0
  0
LINE
  5
   5CA
  8
0
  6
CONTINUOUS
 62
   130
 10
-5.60243450164797
 20
-2.7233406996109
 30
0.0
 11
-5.36493450164797
 21
-2.7233406996109
 31
0.0
  0
LINE
  5
   5CB
  8
0
  6
CONTINUOUS
 62
   130
 10
-5.60243450164797
 20
-2.5233406996109
 30
0.0
 11
-5.36493450164797
 21
-2.5233406996109
 31
0.0
  0
LINE
  5
   5CC
  8
0
  6
CONTINUOUS
 62
   130
 10
-5.80243450164797
 20
-2.24834069961089
 30
0.0
 11
-5.80243450164797
 21
-2.52334069961089
 31
0.0
  0
LINE
  5
   5CD
  8
0
  6
CONTINUOUS
 62
   130
 10
-5.60243450164796
 20
-2.24834069961089
 30
0.0
 11
-5.60243450164796
 21
-2.52334069961089
 31
0.0
  0
ARC
  5
   5CE
  8
0
  6
CONTINUOUS
 62
   130
 10
-5.47743450164797
 20
-2.2483406996109
 30
0.0
 40
0.325
 50
449.999999844103
 51
539.999999844103
  0
ARC
  5
   5CF
  8
0
  6
CONTINUOUS
 62
   130
 10
-5.47743450164797
 20
-2.2483406996109
 30
0.0
 40
0.125
 50
449.999999844103
 51
539.999999844103
  0
LINE
  5
   5D0
  8
0
  6
CONTINUOUS
 62
   130
 10
-5.36493450164797
 20
-1.92334069961089
 30
0.0
 11
-5.36493450164797
 21
-2.12334069961089
 31
0.0
  0
LINE
  5
   5D1
  8
0
  6
CONTINUOUS
 62
   130
 10
-6.70243450164795
 20
4.7766593003891
 30
0.0
 11
-6.50243450164795
 21
4.7766593003891
 31
0.0
  0
ARC
  5
   5D2
  8
0
  6
CONTINUOUS
 62
   130
 10
-7.55243450164795
 20
5.55165930038909
 30
0.0
 40
0.65
 50
359.999999844103
 51
539.999999844103
  0
ARC
  5
   5D3
  8
0
  6
CONTINUOUS
 62
   130
 10
-7.55243450164795
 20
5.55165930038909
 30
0.0
 40
0.45
 50
359.999999844103
 51
539.999999844103
  0
ARC
  5
   5D4
  8
0
  6
CONTINUOUS
 62
   130
 10
-7.55243450164795
 20
5.4266593003891
 30
0.0
 40
0.649999999999999
 50
539.999999844103
 51
719.999999844103
  0
ARC
  5
   5D5
  8
0
  6
CONTINUOUS
 62
   130
 10
-7.55243450164795
 20
5.4266593003891
 30
0.0
 40
0.449999999999999
 50
539.999999844103
 51
719.999999844103
  0
LINE
  5
   5D6
  8
0
  6
CONTINUOUS
 62
   130
 10
-6.70243450164796
 20
6.20165930038911
 30
0.0
 11
-6.70243450164796
 21
4.77665930038911
 31
0.0
  0
LINE
  5
   5D7
  8
0
  6
CONTINUOUS
 62
   130
 10
-6.50243450164796
 20
5.65165930038911
 30
0.0
 11
-6.50243450164796
 21
4.77665930038911
 31
0.0
  0
LINE
  5
   5D8
  8
0
  6
CONTINUOUS
 62
   130
 10
-5.80243450164796
 20
5.65165930038911
 30
0.0
 11
-5.80243450164796
 21
4.77665930038911
 31
0.0
  0
LINE
  5
   5D9
  8
0
  6
CONTINUOUS
 62
   130
 10
-5.60243450164796
 20
5.70165930038911
 30
0.0
 11
-5.60243450164796
 21
4.77665930038911
 31
0.0
  0
LINE
  5
   5DA
  8
0
  6
CONTINUOUS
 62
   130
 10
-6.70243450164795
 20
6.2016593003891
 30
0.0
 11
-6.50243450164795
 21
6.2016593003891
 31
0.0
  0
ARC
  5
   5DB
  8
0
  6
CONTINUOUS
 62
   130
 10
-6.15243450164795
 20
5.65165930038909
 30
0.0
 40
0.35
 50
359.999999844103
 51
539.999999844103
  0
LINE
  5
   5DC
  8
0
  6
CONTINUOUS
 62
   130
 10
-6.50243450164796
 20
6.20165930038911
 30
0.0
 11
-6.50243450164796
 21
6.00165930038911
 31
0.0
  0
ARC
  5
   5DD
  8
0
  6
CONTINUOUS
 62
   130
 10
-6.10243450164795
 20
5.70165930038909
 30
0.0
 40
0.5
 50
359.999999844103
 51
503.130102198259
  0
LINE
  5
   5DE
  8
0
  6
CONTINUOUS
 62
   130
 10
-5.80243450164796
 20
4.7766593003891
 30
0.0
 11
-5.60243450164796
 21
4.7766593003891
 31
0.0
  0
LINE
  5
   5DF
  8
0
  6
CONTINUOUS
 62
   130
 10
-6.46827210459887
 20
11.0156405162467
 30
0.0
 11
-6.58528795162206
 21
10.9950077745936
 31
0.0
  0
LINE
  5
   5E0
  8
0
  6
CONTINUOUS
 62
   130
 10
-6.58528072417744
 20
10.9950117023925
 30
0.0
 11
-6.68818217433502
 21
10.935602330806
 31
0.0
  0
LINE
  5
   5E1
  8
0
  6
CONTINUOUS
 62
   130
 10
-6.68818640718664
 20
10.9355979928354
 30
0.0
 11
-6.76456046968316
 21
10.8445776372344
 31
0.0
  0
LINE
  5
   5E2
  8
0
  6
CONTINUOUS
 62
   130
 10
-6.7645590442963
 20
10.8445781944649
 30
0.0
 11
-6.80519701203819
 21
10.7329251073439
 31
0.0
  0
LINE
  5
   5E3
  8
0
  6
CONTINUOUS
 62
   130
 10
-6.80520064507687
 20
10.7329253104764
 30
0.0
 11
-6.80520064507687
 21
10.6141065505582
 31
0.0
  0
LINE
  5
   5E4
  8
0
  6
CONTINUOUS
 62
   130
 10
-6.80519734317792
 20
10.6141077612183
 30
0.0
 11
-6.76455937543603
 21
10.5024546740973
 31
0.0
  0
LINE
  5
   5E5
  8
0
  6
CONTINUOUS
 62
   130
 10
-6.76456115539426
 20
10.5024541975206
 30
0.0
 11
-6.68818709289773
 21
10.4114338419196
 31
0.0
  0
LINE
  5
   5E6
  8
0
  6
CONTINUOUS
 62
   130
 10
-6.68818050659809
 20
10.4114315417261
 30
0.0
 11
-6.58527905644053
 21
10.3520221701396
 31
0.0
  0
LINE
  5
   5E7
  8
0
  6
CONTINUOUS
 62
   130
 10
-6.58528713828822
 20
10.3520236339469
 30
0.0
 11
-6.46827129126502
 21
10.3313908922938
 31
0.0
  0
LINE
  5
   5E8
  8
0
  6
CONTINUOUS
 62
   130
 10
-6.4682713237878
 20
10.3313909915525
 30
0.0
 11
-6.35355956231319
 21
10.3313909915525
 31
0.0
  0
LINE
  5
   5E9
  8
0
  6
CONTINUOUS
 62
   130
 10
-6.35355345889031
 20
10.3313934247157
 30
0.0
 11
-6.30978744464737
 21
10.3171722359094
 31
0.0
  0
LINE
  5
   5EA
  8
0
  6
CONTINUOUS
 62
   130
 10
-6.30978792726933
 20
10.3171721212358
 30
0.0
 11
-6.28273791357418
 21
10.279940919064
 31
0.0
  0
LINE
  5
   5EB
  8
0
  6
CONTINUOUS
 62
   130
 10
-6.28274352227413
 20
10.2799385932523
 30
0.0
 11
-6.28274352227413
 21
10.2339183238584
 31
0.0
  0
LINE
  5
   5EC
  8
0
  6
CONTINUOUS
 62
   130
 10
-6.28273991285527
 20
10.2339199645679
 30
0.0
 11
-6.30978992655042
 21
10.196688762396
 31
0.0
  0
LINE
  5
   5ED
  8
0
  6
CONTINUOUS
 62
   130
 10
-6.3097886758991
 20
10.1966887634476
 30
0.0
 11
-6.35355469014205
 21
10.1824675746413
 31
0.0
  0
LINE
  5
   5EE
  8
0
  6
CONTINUOUS
 62
   130
 10
-6.77014739190304
 20
10.1824659255582
 30
0.0
 11
-6.35355956231319
 21
10.1824659255582
 31
0.0
  0
LINE
  5
   5EF
  8
0
  6
CONTINUOUS
 62
   130
 10
-6.77014739190304
 20
10.1824659255582
 30
0.0
 11
-6.77014739190304
 21
9.90876616512121
 31
0.0
  0
LINE
  5
   5F0
  8
0
  6
CONTINUOUS
 62
   130
 10
-6.77014739190304
 20
9.90876616512121
 30
0.0
 11
-6.35355956231319
 21
9.90876616512121
 31
0.0
  0
LINE
  5
   5F1
  8
0
  6
CONTINUOUS
 62
   130
 10
-6.23448117569601
 20
9.92976334585374
 30
0.0
 11
-6.35355694406468
 21
9.90876677736114
 31
0.0
  0
LINE
  5
   5F2
  8
0
  6
CONTINUOUS
 62
   130
 10
-6.12976494677497
 20
9.99022181630563
 30
0.0
 11
-6.23448221623061
 21
9.9297638620646
 31
0.0
  0
LINE
  5
   5F3
  8
0
  6
CONTINUOUS
 62
   130
 10
-6.05203620344064
 20
10.0828490591376
 30
0.0
 11
-6.12976065983419
 21
9.99022249372699
 31
0.0
  0
LINE
  5
   5F4
  8
0
  6
CONTINUOUS
 62
   130
 10
-6.01068485646267
 20
10.1964693999473
 30
0.0
 11
-6.05203999114603
 21
10.0828460034789
 31
0.0
  0
LINE
  5
   5F5
  8
0
  6
CONTINUOUS
 62
   130
 10
-6.01068694268429
 20
10.3173862842161
 30
0.0
 11
-6.01068694268429
 21
10.1964706328946
 31
0.0
  0
LINE
  5
   5F6
  8
0
  6
CONTINUOUS
 62
   130
 10
-6.0520400860393
 20
10.4310103865026
 30
0.0
 11
-6.01068495135594
 21
10.3173869900343
 31
0.0
  0
LINE
  5
   5F7
  8
0
  6
CONTINUOUS
 62
   130
 10
-6.12976322557658
 20
10.5236394180118
 30
0.0
 11
-6.05203876397087
 21
10.4310126008575
 31
0.0
  0
LINE
  5
   5F8
  8
0
  6
CONTINUOUS
 62
   130
 10
-6.2344843872516
 20
10.5840946635366
 30
0.0
 11
-6.12976712247752
 21
10.5236369504328
 31
0.0
  0
LINE
  5
   5F9
  8
0
  6
CONTINUOUS
 62
   130
 10
-6.35355342038931
 20
10.6050902881603
 30
0.0
 11
-6.23447765373638
 21
10.5840934817226
 31
0.0
  0
LINE
  5
   5FA
  8
0
  6
CONTINUOUS
 62
   130
 10
-6.4682713237878
 20
10.6050909904081
 30
0.0
 11
-6.35355956231319
 21
10.6050909904081
 31
0.0
  0
LINE
  5
   5FB
  8
0
  6
CONTINUOUS
 62
   130
 10
-6.50848927577047
 20
10.618160131278
 30
0.0
 11
-6.46826710838397
 21
10.6050921710622
 31
0.0
  0
LINE
  5
   5FC
  8
0
  6
CONTINUOUS
 62
   130
 10
-6.5333485893355
 20
10.6523708484483
 30
0.0
 11
-6.50849202193948
 21
10.6181582579675
 31
0.0
  0
LINE
  5
   5FD
  8
0
  6
CONTINUOUS
 62
   130
 10
-6.53335005913937
 20
10.6946603206235
 30
0.0
 11
-6.53335005913937
 21
10.6523715404111
 31
0.0
  0
LINE
  5
   5FE
  8
0
  6
CONTINUOUS
 62
   130
 10
-6.50848832997108
 20
10.7288717568767
 30
0.0
 11
-6.53334489736709
 21
10.6946591663959
 31
0.0
  0
LINE
  5
   5FF
  8
0
  6
CONTINUOUS
 62
   130
 10
-6.46826555573728
 20
10.7419427401715
 30
0.0
 11
-6.50848772312379
 21
10.7288747799557
 31
0.0
  0
LINE
  5
   600
  8
0
  6
CONTINUOUS
 62
   130
 10
-6.4682713237878
 20
10.7419408706266
 30
0.0
 11
-6.04564864312374
 21
10.7419408706266
 31
0.0
  0
LINE
  5
   601
  8
0
  6
CONTINUOUS
 62
   130
 10
-6.04564864312374
 20
11.0156408694822
 30
0.0
 11
-6.04564864312374
 21
10.7419408706266
 31
0.0
  0
LINE
  5
   602
  8
0
  6
CONTINUOUS
 62
   130
 10
-6.4682713237878
 20
11.0156408694822
 30
0.0
 11
-6.04564864312374
 21
11.0156408694822
 31
0.0
  0
LINE
  5
   603
  8
0
  6
CONTINUOUS
 62
   130
 10
-6.00539977227413
 20
9.90876616512121
 30
0.0
 11
-5.72035033379757
 21
9.90876616512121
 31
0.0
  0
LINE
  5
   604
  8
0
  6
CONTINUOUS
 62
   130
 10
-5.65594764385396
 20
10.1301417050348
 30
0.0
 11
-5.72034736112836
 21
9.90876695716922
 31
0.0
  0
LINE
  5
   605
  8
0
  6
CONTINUOUS
 62
   130
 10
-5.65595061455929
 20
10.1301409152585
 30
0.0
 11
-5.34859282647335
 21
10.1301409152585
 31
0.0
  0
LINE
  5
   606
  8
0
  6
CONTINUOUS
 62
   130
 10
-5.34859046928073
 20
10.1301415054509
 30
0.0
 11
-5.28419075200632
 21
9.90876675758529
 31
0.0
  0
LINE
  5
   607
  8
0
  6
CONTINUOUS
 62
   130
 10
-5.28419310723507
 20
9.90876616512121
 30
0.0
 11
-4.99914748345577
 21
9.90876616512121
 31
0.0
  0
LINE
  5
   608
  8
0
  6
CONTINUOUS
 62
   130
 10
-5.32114717542653
 20
11.0156410386451
 30
0.0
 11
-4.99914468006668
 21
9.90876605387584
 31
0.0
  0
LINE
  5
   609
  8
0
  6
CONTINUOUS
 62
   130
 10
-5.68339736138546
 20
11.0156408694822
 30
0.0
 11
-5.32114989434444
 21
11.0156408694822
 31
0.0
  0
LINE
  5
   60A
  8
0
  6
CONTINUOUS
 62
   130
 10
-5.683395828062
 20
11.0156366529786
 30
0.0
 11
-6.00539832342185
 21
9.90876166820938
 31
0.0
  0
LINE
  5
   60B
  8
0
  6
CONTINUOUS
 62
   130
 10
-5.50226952954288
 20
10.6584120329431
 30
0.0
 11
-5.4282147738005
 21
10.4038409473013
 31
0.0
  0
LINE
  5
   60C
  8
0
  6
CONTINUOUS
 62
   130
 10
-5.57633025323116
 20
10.4038409141141
 30
0.0
 11
-5.42821700249874
 21
10.4038409141141
 31
0.0
  0
LINE
  5
   60D
  8
0
  6
CONTINUOUS
 62
   130
 10
-5.50226725918537
 20
10.658412282179
 30
0.0
 11
-5.57632578634317
 21
10.4038413366172
 31
0.0
  0
LINE
  5
   60E
  8
0
  6
CONTINUOUS
 62
   130
 10
-4.06546229033612
 20
10.8643329846972
 30
0.0
 11
-3.96756953255434
 21
10.740916318186
 31
0.0
  0
LINE
  5
   60F
  8
0
  6
CONTINUOUS
 62
   130
 10
-4.19415336847255
 20
10.9551697290446
 30
0.0
 11
-4.06546074945753
 21
10.8643308268494
 31
0.0
  0
LINE
  5
   610
  8
0
  6
CONTINUOUS
 62
   130
 10
-4.34322976220039
 20
11.0060693771015
 30
0.0
 11
-4.19415520903173
 21
10.9551677308971
 31
0.0
  0
LINE
  5
   611
  8
0
  6
CONTINUOUS
 62
   130
 10
-4.5006047751763
 20
11.012911015078
 30
0.0
 11
-4.34322943528326
 21
11.0060700705917
 31
0.0
  0
LINE
  5
   612
  8
0
  6
CONTINUOUS
 62
   130
 10
-4.50060757042176
 20
11.01291130235
 30
0.0
 11
-4.65353878367868
 21
10.9751372183775
 31
0.0
  0
LINE
  5
   613
  8
0
  6
CONTINUOUS
 62
   130
 10
-4.65353638492283
 20
10.9751389871998
 30
0.0
 11
-4.78962570185977
 21
10.8958099744512
 31
0.0
  0
LINE
  5
   614
  8
0
  6
CONTINUOUS
 62
   130
 10
-4.78962782473593
 20
10.8958075675376
 30
0.0
 11
-4.89785841441157
 21
10.7813504381862
 31
0.0
  0
LINE
  5
   615
  8
0
  6
CONTINUOUS
 62
   130
 10
-4.89785578475498
 20
10.7813526859271
 30
0.0
 11
-4.96945382954975
 21
10.6410402549183
 31
0.0
  0
LINE
  5
   616
  8
0
  6
CONTINUOUS
 62
   130
 10
-4.96945507621882
 20
10.6410379351033
 30
0.0
 11
-4.99862225150155
 21
10.4862372776426
 31
0.0
  0
LINE
  5
   617
  8
0
  6
CONTINUOUS
 62
   130
 10
-4.99862194057983
 20
10.4862382216234
 30
0.0
 11
-4.98299694805646
 21
10.3294904058192
 31
0.0
  0
LINE
  5
   618
  8
0
  6
CONTINUOUS
 62
   130
 10
-4.98299816213729
 20
10.3294907737329
 30
0.0
 11
-4.92384365890602
 21
10.1834946875348
 31
0.0
  0
LINE
  5
   619
  8
0
  6
CONTINUOUS
 62
   130
 10
-4.92384336739743
 20
10.1834959586716
 30
0.0
 11
-4.83582685462476
 21
10.0696475061761
 31
0.0
  0
LINE
  5
   61A
  8
0
  6
CONTINUOUS
 62
   130
 10
-4.83582534481939
 20
10.069644896824
 30
0.0
 11
-4.72143020405381
 21
9.98233767934079
 31
0.0
  0
LINE
  5
   61B
  8
0
  6
CONTINUOUS
 62
   130
 10
-4.72143253734114
 20
9.9823389435319
 30
0.0
 11
-4.58839497265211
 21
9.92747596852765
 31
0.0
  0
LINE
  5
   61C
  8
0
  6
CONTINUOUS
 62
   130
 10
-4.58839355165353
 20
9.9274753032241
 30
0.0
 11
-4.44570861806674
 21
9.90876612126433
 31
0.0
  0
LINE
  5
   61D
  8
0
  6
CONTINUOUS
 62
   130
 10
-4.30302162795523
 20
9.92747583790565
 30
0.0
 11
-4.44570656154202
 21
9.90876665594588
 31
0.0
  0
LINE
  5
   61E
  8
0
  6
CONTINUOUS
 62
   130
 10
-4.16998860130152
 20
9.98233836041782
 30
0.0
 11
-4.30302616599055
 21
9.92747538541357
 31
0.0
  0
LINE
  5
   61F
  8
0
  6
CONTINUOUS
 62
   130
 10
-4.05558962622236
 20
10.0696484599989
 30
0.0
 11
-4.16998476698794
 21
9.98234124251563
 31
0.0
  0
LINE
  5
   620
  8
0
  6
CONTINUOUS
 62
   130
 10
-3.96757024640621
 20
10.1834943141391
 30
0.0
 11
-4.05559057017321
 21
10.0696458692793
 31
0.0
  0
LINE
  5
   621
  8
0
  6
CONTINUOUS
 62
   130
 10
-4.20403109032818
 20
10.3213296827481
 30
0.0
 11
-3.96756947684994
 21
10.1834951526802
 31
0.0
  0
LINE
  5
   622
  8
0
  6
CONTINUOUS
 62
   130
 10
-4.204035349278
 20
10.3213269569182
 30
0.0
 11
-4.26649339172213
 21
10.2474128997932
 31
0.0
  0
LINE
  5
   623
  8
0
  6
CONTINUOUS
 62
   130
 10
-4.2664922165832
 20
10.2474149186488
 30
0.0
 11
-4.35040031390059
 21
10.1992042888103
 31
0.0
  0
LINE
  5
   624
  8
0
  6
CONTINUOUS
 62
   130
 10
-4.35039801975081
 20
10.1992039234324
 30
0.0
 11
-4.44570824276168
 21
10.1824659858588
 31
0.0
  0
LINE
  5
   625
  8
0
  6
CONTINUOUS
 62
   130
 10
-4.54102321148127
 20
10.199204030526
 30
0.0
 11
-4.4457129884704
 21
10.1824660929523
 31
0.0
  0
LINE
  5
   626
  8
0
  6
CONTINUOUS
 62
   130
 10
-4.62492951738589
 20
10.2474155770693
 30
0.0
 11
-4.5410214200685
 21
10.1992049472308
 31
0.0
  0
LINE
  5
   627
  8
0
  6
CONTINUOUS
 62
   130
 10
-4.68738724062656
 20
10.3213301039624
 30
0.0
 11
-4.62492919818242
 21
10.2474160468373
 31
0.0
  0
LINE
  5
   628
  8
0
  6
CONTINUOUS
 62
   130
 10
-4.72289889502174
 20
10.4245382731685
 30
0.0
 11
-4.68738406353157
 21
10.3213294896539
 31
0.0
  0
LINE
  5
   629
  8
0
  6
CONTINUOUS
 62
   130
 10
-4.71621057331649
 20
10.5334793824408
 30
0.0
 11
-4.72289773840478
 21
10.4245361472451
 31
0.0
  0
LINE
  5
   62A
  8
0
  6
CONTINUOUS
 62
   130
 10
-4.66834390653296
 20
10.6315734466784
 30
0.0
 11
-4.71621073017596
 21
10.5334816011099
 31
0.0
  0
LINE
  5
   62B
  8
0
  6
CONTINUOUS
 62
   130
 10
-4.58658337219084
 20
10.703880627793
 30
0.0
 11
-4.66834759980543
 21
10.6315735070839
 31
0.0
  0
LINE
  5
   62C
  8
0
  6
CONTINUOUS
 62
   130
 10
-4.48337595919088
 20
10.7393939139924
 30
0.0
 11
-4.58658259370701
 21
10.7038800395413
 31
0.0
  0
LINE
  5
   62D
  8
0
  6
CONTINUOUS
 62
   130
 10
-4.48337776452124
 20
10.7393928927559
 30
0.0
 11
-4.37443379193822
 21
10.7327073957268
 31
0.0
  0
LINE
  5
   62E
  8
0
  6
CONTINUOUS
 62
   130
 10
-4.37443079474545
 20
10.7327064719005
 30
0.0
 11
-4.27633965705245
 21
10.684838928426
 31
0.0
  0
LINE
  5
   62F
  8
0
  6
CONTINUOUS
 62
   130
 10
-4.27633834417723
 20
10.6848447563267
 30
0.0
 11
-4.20403075198915
 21
10.6030829168832
 31
0.0
  0
LINE
  5
   630
  8
0
  6
CONTINUOUS
 62
   130
 10
-3.96756770785025
 20
10.7409163856162
 30
0.0
 11
-4.20402932132848
 21
10.6030818555484
 31
0.0
  0
LINE
  5
   631
  8
0
  6
CONTINUOUS
 62
   130
 10
-3.86694914971554
 20
11.0156406310636
 30
0.0
 11
-3.86694914971554
 21
9.90876616512121
 31
0.0
  0
LINE
  5
   632
  8
0
  6
CONTINUOUS
 62
   130
 10
-3.86694914971554
 20
9.90876616512121
 30
0.0
 11
-3.14245040093624
 21
9.90876616512121
 31
0.0
  0
LINE
  5
   633
  8
0
  6
CONTINUOUS
 62
   130
 10
-3.14245040093624
 20
10.1824659255582
 30
0.0
 11
-3.14245040093624
 21
9.90876616512121
 31
0.0
  0
LINE
  5
   634
  8
0
  6
CONTINUOUS
 62
   130
 10
-3.59324843560421
 20
10.1824659255582
 30
0.0
 11
-3.14245040093624
 21
10.1824659255582
 31
0.0
  0
LINE
  5
   635
  8
0
  6
CONTINUOUS
 62
   130
 10
-3.59324843560421
 20
10.3253535178739
 30
0.0
 11
-3.59324843560421
 21
10.1824659255582
 31
0.0
  0
LINE
  5
   636
  8
0
  6
CONTINUOUS
 62
   130
 10
-3.59324843560421
 20
10.3253535178739
 30
0.0
 11
-3.20282561455929
 21
10.3253535178739
 31
0.0
  0
LINE
  5
   637
  8
0
  6
CONTINUOUS
 62
   130
 10
-3.20282561455929
 20
10.5990535167295
 30
0.0
 11
-3.20282561455929
 21
10.3253535178739
 31
0.0
  0
LINE
  5
   638
  8
0
  6
CONTINUOUS
 62
   130
 10
-3.59324843560421
 20
10.5990535167295
 30
0.0
 11
-3.20282561455929
 21
10.5990535167295
 31
0.0
  0
LINE
  5
   639
  8
0
  6
CONTINUOUS
 62
   130
 10
-3.59324843560421
 20
10.7419408557254
 30
0.0
 11
-3.59324843560421
 21
10.5990535167295
 31
0.0
  0
LINE
  5
   63A
  8
0
  6
CONTINUOUS
 62
   130
 10
-3.59324843560421
 20
10.7419408706266
 30
0.0
 11
-3.14245040093624
 21
10.7419408706266
 31
0.0
  0
LINE
  5
   63B
  8
0
  6
CONTINUOUS
 62
   130
 10
-3.14245040093624
 20
11.0156408694822
 30
0.0
 11
-3.14245040093624
 21
10.7419408706266
 31
0.0
  0
LINE
  5
   63C
  8
0
  6
CONTINUOUS
 62
   130
 10
-3.86694914971554
 20
11.0156408694822
 30
0.0
 11
-3.14245040093624
 21
11.0156408694822
 31
0.0
  0
LINE
  5
   63D
  8
0
  6
CONTINUOUS
 62
   130
 10
-33.8212995615724
 20
11.118028910443
 30
0.0
 11
-34.0482282179313
 21
10.469652593732
 31
0.0
  0
LINE
  5
   63E
  8
0
  6
CONTINUOUS
 62
   130
 10
-34.0482320785522
 20
10.469654507935
 30
0.0
 11
-33.6384267807007
 21
10.469654507935
 31
0.0
  0
LINE
  5
   63F
  8
0
  6
CONTINUOUS
 62
   130
 10
-33.6384267807007
 20
11.1180309727788
 30
0.0
 11
-33.6384267807007
 21
10.469654507935
 31
0.0
  0
LINE
  5
   640
  8
0
  6
CONTINUOUS
 62
   130
 10
-33.8213033676147
 20
11.1180309727788
 30
0.0
 11
-33.6384267807007
 21
11.1180309727788
 31
0.0
  0
LINE
  5
   641
  8
0
  6
CONTINUOUS
 62
   130
 10
-34.2868032455444
 20
9.7880327180028
 30
0.0
 11
-33.9543027877808
 21
9.7880327180028
 31
0.0
  0
LINE
  5
   642
  8
0
  6
CONTINUOUS
 62
   130
 10
-33.8611984827277
 20
10.0540317733126
 30
0.0
 11
-33.9542999805576
 21
9.788031966843
 31
0.0
  0
LINE
  5
   643
  8
0
  6
CONTINUOUS
 62
   130
 10
-33.8612012863159
 20
10.0540325120091
 30
0.0
 11
-33.6384267807007
 21
10.0540325120091
 31
0.0
  0
LINE
  5
   644
  8
0
  6
CONTINUOUS
 62
   130
 10
-33.6384267807007
 20
10.4364056065679
 30
0.0
 11
-33.6384267807007
 21
10.0540325120091
 31
0.0
  0
LINE
  5
   645
  8
0
  6
CONTINUOUS
 62
   130
 10
-34.0598707199097
 20
10.4364056065679
 30
0.0
 11
-33.6384267807007
 21
10.4364056065679
 31
0.0
  0
LINE
  5
   646
  8
0
  6
CONTINUOUS
 62
   130
 10
-34.0598680665588
 20
10.4364042577712
 30
0.0
 11
-34.2868005243791
 21
9.78803150402943
 31
0.0
  0
LINE
  5
   647
  8
0
  6
CONTINUOUS
 62
   130
 10
-33.1837268320653
 20
10.4364041684103
 30
0.0
 11
-32.956794374245
 21
9.78803141466854
 31
0.0
  0
LINE
  5
   648
  8
0
  6
CONTINUOUS
 62
   130
 10
-33.6051778793335
 20
10.4364056065679
 30
0.0
 11
-33.1837339401245
 21
10.4364056065679
 31
0.0
  0
LINE
  5
   649
  8
0
  6
CONTINUOUS
 62
   130
 10
-33.6051778793335
 20
10.4364056065679
 30
0.0
 11
-33.6051778793335
 21
10.0540325120091
 31
0.0
  0
LINE
  5
   64A
  8
0
  6
CONTINUOUS
 62
   130
 10
-33.6051778793335
 20
10.0540325120091
 30
0.0
 11
-33.3824033737183
 21
10.0540325120091
 31
0.0
  0
LINE
  5
   64B
  8
0
  6
CONTINUOUS
 62
   130
 10
-33.3823975822304
 20
10.0540329319431
 30
0.0
 11
-33.2892960844005
 21
9.78803312547351
 31
0.0
  0
LINE
  5
   64C
  8
0
  6
CONTINUOUS
 62
   130
 10
-33.2893018722534
 20
9.7880327180028
 30
0.0
 11
-32.9568014144897
 21
9.7880327180028
 31
0.0
  0
LINE
  5
   64D
  8
0
  6
CONTINUOUS
 62
   130
 10
-33.6051778793335
 20
11.1180309727788
 30
0.0
 11
-33.4223012924194
 21
11.1180309727788
 31
0.0
  0
LINE
  5
   64E
  8
0
  6
CONTINUOUS
 62
   130
 10
-33.6051778793335
 20
11.1180309727788
 30
0.0
 11
-33.6051778793335
 21
10.469654507935
 31
0.0
  0
LINE
  5
   64F
  8
0
  6
CONTINUOUS
 62
   130
 10
-33.6051778793335
 20
10.469654507935
 30
0.0
 11
-33.1953687667847
 21
10.469654507935
 31
0.0
  0
LINE
  5
   650
  8
0
  6
CONTINUOUS
 62
   130
 10
-33.4222974739448
 20
11.1180296573418
 30
0.0
 11
-33.1953649991792
 21
10.4696532462055
 31
0.0
  0
LINE
  5
   651
  8
0
  6
CONTINUOUS
 62
   130
 10
-32.8736753463745
 20
10.469654507935
 30
0.0
 11
-32.4913015365601
 21
10.469654507935
 31
0.0
  0
LINE
  5
   652
  8
0
  6
CONTINUOUS
 62
   130
 10
-32.4913015365601
 20
11.1180309727788
 30
0.0
 11
-32.4913015365601
 21
10.469654507935
 31
0.0
  0
LINE
  5
   653
  8
0
  6
CONTINUOUS
 62
   130
 10
-32.8736753463745
 20
11.1180309727788
 30
0.0
 11
-32.4913015365601
 21
11.1180309727788
 31
0.0
  0
LINE
  5
   654
  8
0
  6
CONTINUOUS
 62
   130
 10
-32.8736753463745
 20
9.7880327180028
 30
0.0
 11
-32.4913015365601
 21
9.7880327180028
 31
0.0
  0
LINE
  5
   655
  8
0
  6
CONTINUOUS
 62
   130
 10
-32.4913015365601
 20
10.4364056065679
 30
0.0
 11
-32.4913015365601
 21
9.7880327180028
 31
0.0
  0
LINE
  5
   656
  8
0
  6
CONTINUOUS
 62
   130
 10
-32.8736753463745
 20
10.4364056065679
 30
0.0
 11
-32.4913015365601
 21
10.4364056065679
 31
0.0
  0
LINE
  5
   657
  8
0
  6
CONTINUOUS
 62
   130
 10
-31.8429288864136
 20
11.1180309727788
 30
0.0
 11
-31.8429288864136
 21
10.469654507935
 31
0.0
  0
LINE
  5
   658
  8
0
  6
CONTINUOUS
 62
   130
 10
-31.8429288864136
 20
10.469654507935
 30
0.0
 11
-31.4605512619019
 21
10.469654507935
 31
0.0
  0
LINE
  5
   659
  8
0
  6
CONTINUOUS
 62
   130
 10
-31.4605512619019
 20
11.1180309727788
 30
0.0
 11
-31.4605512619019
 21
10.469654507935
 31
0.0
  0
LINE
  5
   65A
  8
0
  6
CONTINUOUS
 62
   130
 10
-31.8429288864136
 20
11.1180309727788
 30
0.0
 11
-31.4605512619019
 21
11.1180309727788
 31
0.0
  0
LINE
  5
   65B
  8
0
  6
CONTINUOUS
 62
   130
 10
-31.8429288864136
 20
9.7880327180028
 30
0.0
 11
-31.4605512619019
 21
9.7880327180028
 31
0.0
  0
LINE
  5
   65C
  8
0
  6
CONTINUOUS
 62
   130
 10
-31.4605512619019
 20
10.4364056065679
 30
0.0
 11
-31.4605512619019
 21
9.7880327180028
 31
0.0
  0
LINE
  5
   65D
  8
0
  6
CONTINUOUS
 62
   130
 10
-31.8429288864136
 20
10.4364056065679
 30
0.0
 11
-31.4605512619019
 21
10.4364056065679
 31
0.0
  0
LINE
  5
   65E
  8
0
  6
CONTINUOUS
 62
   130
 10
-31.8429288864136
 20
10.4364056065679
 30
0.0
 11
-31.8429288864136
 21
9.7880327180028
 31
0.0
  0
LINE
  5
   65F
  8
0
  6
CONTINUOUS
 62
   130
 10
-31.4273023605347
 20
11.1180309727788
 30
0.0
 11
-31.3204336166382
 21
11.1180309727788
 31
0.0
  0
LINE
  5
   660
  8
0
  6
CONTINUOUS
 62
   130
 10
-31.4273023605347
 20
11.1180309727788
 30
0.0
 11
-31.4273023605347
 21
10.469654507935
 31
0.0
  0
LINE
  5
   661
  8
0
  6
CONTINUOUS
 62
   130
 10
-31.4273023605347
 20
10.469654507935
 30
0.0
 11
-31.0402135848999
 21
10.469654507935
 31
0.0
  0
LINE
  5
   662
  8
0
  6
CONTINUOUS
 62
   130
 10
-31.0973211362061
 20
10.5127236188921
 30
0.0
 11
-31.0402151103287
 21
10.4696556802942
 31
0.0
  0
LINE
  5
   663
  8
0
  6
CONTINUOUS
 62
   130
 10
-31.1613023781388
 20
10.5446858362319
 30
0.0
 11
-31.0973184515428
 21
10.5127224849092
 31
0.0
  0
LINE
  5
   664
  8
0
  6
CONTINUOUS
 62
   130
 10
-31.0851411743224
 20
10.6093506553763
 30
0.0
 11
-31.1613015981092
 21
10.5446839165987
 31
0.0
  0
LINE
  5
   665
  8
0
  6
CONTINUOUS
 62
   130
 10
-31.0336176057593
 20
10.6949517330436
 30
0.0
 11
-31.0851389013112
 21
10.6093499292599
 31
0.0
  0
LINE
  5
   666
  8
0
  6
CONTINUOUS
 62
   130
 10
-31.0121305964485
 20
10.7925205400998
 30
0.0
 11
-31.0336187835791
 21
10.6949520397888
 31
0.0
  0
LINE
  5
   667
  8
0
  6
CONTINUOUS
 62
   130
 10
-31.0229231599777
 20
10.8918489046069
 30
0.0
 11
-31.0121313846109
 21
10.792521796245
 31
0.0
  0
LINE
  5
   668
  8
0
  6
CONTINUOUS
 62
   130
 10
-31.0648684860043
 20
10.982526462777
 30
0.0
 11
-31.0229258830122
 21
10.8918510977722
 31
0.0
  0
LINE
  5
   669
  8
0
  6
CONTINUOUS
 62
   130
 10
-31.1335726648313
 20
11.0550675616607
 30
0.0
 11
-31.0648699605567
 21
10.9825272739058
 31
0.0
  0
LINE
  5
   66A
  8
0
  6
CONTINUOUS
 62
   130
 10
-31.2218372167737
 20
11.1018598228077
 30
0.0
 11
-31.1335689329935
 21
11.055061112918
 31
0.0
  0
LINE
  5
   66B
  8
0
  6
CONTINUOUS
 62
   130
 10
-31.4273023605347
 20
10.4364056065679
 30
0.0
 11
-31.0077238082886
 21
10.4364056065679
 31
0.0
  0
LINE
  5
   66C
  8
0
  6
CONTINUOUS
 62
   130
 10
-31.4273023605347
 20
10.4364056065679
 30
0.0
 11
-31.4273023605347
 21
9.7880327180028
 31
0.0
  0
LINE
  5
   66D
  8
0
  6
CONTINUOUS
 62
   130
 10
-31.4273023605347
 20
9.7880327180028
 30
0.0
 11
-31.3036451339722
 21
9.7880327180028
 31
0.0
  0
LINE
  5
   66E
  8
0
  6
CONTINUOUS
 62
   130
 10
-31.1932614323537
 20
9.80390565769346
 30
0.0
 11
-31.303643524343
 21
9.78803198847358
 31
0.0
  0
LINE
  5
   66F
  8
0
  6
CONTINUOUS
 62
   130
 10
-31.0918254187958
 20
9.85024041155041
 30
0.0
 11
-31.1932620400975
 21
9.80390590571753
 31
0.0
  0
LINE
  5
   670
  8
0
  6
CONTINUOUS
 62
   130
 10
-31.0075596936676
 20
9.92328034826265
 30
0.0
 11
-31.0918263640622
 21
9.85024009892956
 31
0.0
  0
LINE
  5
   671
  8
0
  6
CONTINUOUS
 62
   130
 10
-30.9472868163329
 20
10.0171069432636
 30
0.0
 11
-31.0075590328429
 21
9.9232806504379
 31
0.0
  0
LINE
  5
   672
  8
0
  6
CONTINUOUS
 62
   130
 10
-30.9158952657223
 20
10.1241134039571
 30
0.0
 11
-30.9472825939647
 21
10.0171056673328
 31
0.0
  0
LINE
  5
   673
  8
0
  6
CONTINUOUS
 62
   130
 10
-30.9159328912357
 20
10.2356323088606
 30
0.0
 11
-30.9158985589619
 21
10.1241155894797
 31
0.0
  0
LINE
  5
   674
  8
0
  6
CONTINUOUS
 62
   130
 10
-30.9473881543085
 20
10.3426210256309
 30
0.0
 11
-30.915932163005
 21
10.2356330670163
 31
0.0
  0
LINE
  5
   675
  8
0
  6
CONTINUOUS
 62
   130
 10
-31.007722890477
 20
10.4364042068568
 30
0.0
 11
-30.9473896391707
 21
10.3426184455522
 31
0.0
  0
LINE
  5
   676
  8
0
  6
CONTINUOUS
 62
   130
 10
-32.4580526351929
 20
11.1180309727788
 30
0.0
 11
-32.3511800765991
 21
11.1180309727788
 31
0.0
  0
LINE
  5
   677
  8
0
  6
CONTINUOUS
 62
   130
 10
-32.4580526351929
 20
11.1180309727788
 30
0.0
 11
-32.4580526351929
 21
10.469654507935
 31
0.0
  0
LINE
  5
   678
  8
0
  6
CONTINUOUS
 62
   130
 10
-32.4580526351929
 20
10.469654507935
 30
0.0
 11
-32.0709638595581
 21
10.469654507935
 31
0.0
  0
LINE
  5
   679
  8
0
  6
CONTINUOUS
 62
   130
 10
-32.1280689308526
 20
10.5127216780148
 30
0.0
 11
-32.0709629049752
 21
10.4696537394169
 31
0.0
  0
LINE
  5
   67A
  8
0
  6
CONTINUOUS
 62
   130
 10
-32.1920533919762
 20
10.5446859106191
 30
0.0
 11
-32.1280694653803
 21
10.5127225592964
 31
0.0
  0
LINE
  5
   67B
  8
0
  6
CONTINUOUS
 62
   130
 10
-32.1158920139165
 20
10.6093526496725
 30
0.0
 11
-32.1920524377033
 21
10.5446859108949
 31
0.0
  0
LINE
  5
   67C
  8
0
  6
CONTINUOUS
 62
   130
 10
-32.0643694268264
 20
10.6949528719463
 30
0.0
 11
-32.1158907223782
 21
10.6093510681626
 31
0.0
  0
LINE
  5
   67D
  8
0
  6
CONTINUOUS
 62
   130
 10
-32.0428776831781
 20
10.7925209595052
 30
0.0
 11
-32.0643696857811
 21
10.6949524535001
 31
0.0
  0
LINE
  5
   67E
  8
0
  6
CONTINUOUS
 62
   130
 10
-32.0536691814076
 20
10.8918505545921
 30
0.0
 11
-32.0428774060408
 21
10.7925234462302
 31
0.0
  0
LINE
  5
   67F
  8
0
  6
CONTINUOUS
 62
   130
 10
-32.0956172437924
 20
10.9825234300915
 30
0.0
 11
-32.053670829681
 21
10.8918480694041
 31
0.0
  0
LINE
  5
   680
  8
0
  6
CONTINUOUS
 62
   130
 10
-32.1643213950181
 20
11.055069300393
 30
0.0
 11
-32.0956186907435
 21
10.9825290126381
 31
0.0
  0
LINE
  5
   681
  8
0
  6
CONTINUOUS
 62
   130
 10
-32.25258998306
 20
11.1018610294793
 30
0.0
 11
-32.1643216992797
 21
11.0550623195896
 31
0.0
  0
LINE
  5
   682
  8
0
  6
CONTINUOUS
 62
   130
 10
-32.3511803892013
 20
11.118031223113
 30
0.0
 11
-32.2525895175153
 21
11.1018645366141
 31
0.0
  0
LINE
  5
   683
  8
0
  6
CONTINUOUS
 62
   130
 10
-32.4580526351929
 20
10.4364056065679
 30
0.0
 11
-32.0384740829468
 21
10.4364056065679
 31
0.0
  0
LINE
  5
   684
  8
0
  6
CONTINUOUS
 62
   130
 10
-32.4580526351929
 20
10.4364056065679
 30
0.0
 11
-32.4580526351929
 21
9.7880327180028
 31
0.0
  0
LINE
  5
   685
  8
0
  6
CONTINUOUS
 62
   130
 10
-32.4580526351929
 20
9.7880327180028
 30
0.0
 11
-32.3343954086304
 21
9.7880327180028
 31
0.0
  0
LINE
  5
   686
  8
0
  6
CONTINUOUS
 62
   130
 10
-32.2240129996124
 20
9.80390320464953
 30
0.0
 11
-32.3343950916017
 21
9.78802953542966
 31
0.0
  0
LINE
  5
   687
  8
0
  6
CONTINUOUS
 62
   130
 10
-32.1225755862277
 20
9.85023975787752
 30
0.0
 11
-32.2240122075294
 21
9.80390525204464
 31
0.0
  0
LINE
  5
   688
  8
0
  6
CONTINUOUS
 62
   130
 10
-32.0383096804581
 20
9.92327986107784
 30
0.0
 11
-32.1225763508527
 21
9.85023961174475
 31
0.0
  0
LINE
  5
   689
  8
0
  6
CONTINUOUS
 62
   130
 10
-31.9780376078003
 20
10.0171070714519
 30
0.0
 11
-32.0383098243103
 21
9.92328077862624
 31
0.0
  0
LINE
  5
   68A
  8
0
  6
CONTINUOUS
 62
   130
 10
-31.9466438468995
 20
10.124114818714
 30
0.0
 11
-31.9780349930553
 21
10.0171070705492
 31
0.0
  0
LINE
  5
   68B
  8
0
  6
CONTINUOUS
 62
   130
 10
-31.946684338565
 20
10.2356324247334
 30
0.0
 11
-31.946646191611
 21
10.1241157041128
 31
0.0
  0
LINE
  5
   68C
  8
0
  6
CONTINUOUS
 62
   130
 10
-31.9781374975044
 20
10.342620974604
 30
0.0
 11
-31.9466815062009
 21
10.2356330159895
 31
0.0
  0
LINE
  5
   68D
  8
0
  6
CONTINUOUS
 62
   130
 10
-32.0384721664805
 20
10.436404461872
 30
0.0
 11
-31.9781389151742
 21
10.3426187005674
 31
0.0
  0
LINE
  5
   68E
  8
0
  6
CONTINUOUS
 62
   130
 10
-32.8736753463745
 20
11.1180309727788
 30
0.0
 11
-32.8736753463745
 21
9.7880327180028
 31
0.0
  0
LINE
  5
   68F
  8
0
  6
CONTINUOUS
 62
   130
 10
-34.6930790710282
 20
8.93608587980018
 30
0.0
 11
-19.1680859470373
 21
8.93608587980018
 31
0.0
  0
LINE
  5
   690
  8
0
  6
CONTINUOUS
 62
   130
 10
-18.9180859851842
 20
9.93608587980018
 30
0.0
 11
-18.9180859279638
 21
8.43608587980018
 31
0.0
  0
LINE
  5
   691
  8
0
  6
CONTINUOUS
 62
   130
 10
-8.41807085990941
 20
9.93608587980018
 30
0.0
 11
-8.4180709171299
 21
8.43608587980018
 31
0.0
  0
LINE
  5
   692
  8
0
  6
CONTINUOUS
 62
   130
 10
-18.9180859851842
 20
9.93608587980018
 30
0.0
 11
-8.4180708599094
 21
9.93608587980018
 31
0.0
  0
LINE
  5
   693
  8
0
  6
CONTINUOUS
 62
   130
 10
-8.1680708980564
 20
8.93608587980018
 30
0.0
 11
8.83190780639671
 21
8.93608587980018
 31
0.0
  0
LINE
  5
   694
  8
0
  6
CONTINUOUS
 62
   130
 10
-19.168085994721
 20
10.1860858798002
 30
0.0
 11
-8.16807085037266
 21
10.1860858798002
 31
0.0
  0
LINE
  5
   695
  8
0
  6
CONTINUOUS
 62
   130
 10
-8.16807085037266
 20
10.1860858798002
 30
0.0
 11
-8.1680709171299
 21
8.43608587980018
 31
0.0
  0
LINE
  5
   696
  8
0
  6
CONTINUOUS
 62
   130
 10
-19.168085994721
 20
10.1860858798002
 30
0.0
 11
-19.1680859279638
 21
8.43608587980018
 31
0.0
  0
LINE
  5
   697
  8
0
  6
CONTINUOUS
 62
   130
 10
-21.4680772781375
 20
-7.18892174959092
 30
0.0
 11
-21.4680772781375
 21
-9.43892174959092
 31
0.0
  0
LINE
  5
   698
  8
0
  6
CONTINUOUS
 62
   130
 10
-26.4680772781375
 20
-7.18892174959092
 30
0.0
 11
-26.4680772781375
 21
-9.43892174959092
 31
0.0
  0
LINE
  5
   699
  8
0
  6
CONTINUOUS
 62
   130
 10
-26.4680772781375
 20
-7.18892174959092
 30
0.0
 11
-21.4680772781375
 21
-7.18892174959092
 31
0.0
  0
LINE
  5
   69A
  8
0
  6
CONTINUOUS
 62
   130
 10
-26.4680772781375
 20
-9.43892174959092
 30
0.0
 11
-21.4680772781375
 21
-9.43892174959092
 31
0.0
  0
LINE
  5
   69B
  8
0
  6
CONTINUOUS
 62
   130
 10
-50.6680689239481
 20
37.4360706210151
 30
0.0
 11
8.33191207885443
 21
37.4360706210151
 31
0.0
  0
ARC
  5
   69C
  8
0
  6
CONTINUOUS
 62
   130
 10
8.33191207885443
 20
36.9360706210152
 30
0.0
 40
0.5
 50
359.999991101463
 51
449.999999844103
  0
ARC
  5
   69D
  8
0
  6
CONTINUOUS
 62
   130
 10
-50.6680689239481
 20
36.9360706210152
 30
0.0
 40
0.5
 50
449.999999844103
 51
540.000008586744
  0
LINE
  5
   69E
  8
0
  6
CONTINUOUS
 62
   130
 10
6.23192310333252
 20
-7.9639216427363
 30
0.0
 11
6.23192310333252
 21
-8.4639216427363
 31
0.0
  0
LINE
  5
   69F
  8
0
  6
CONTINUOUS
 62
   130
 10
4.23192310333252
 20
-7.9639216427363
 30
0.0
 11
4.23192310333252
 21
-8.4639216427363
 31
0.0
  0
LINE
  5
   6A0
  8
0
  6
CONTINUOUS
 62
   130
 10
5.23192310333252
 20
-5.8139216427363
 30
0.0
 11
4.23192310333252
 21
-7.9639216427363
 31
0.0
  0
LINE
  5
   6A1
  8
0
  6
CONTINUOUS
 62
   130
 10
5.23192310333252
 20
-5.81392164273629
 30
0.0
 11
6.23192310333252
 21
-7.9639216427363
 31
0.0
  0
LINE
  5
   6A2
  8
0
  6
DASHDOT
 62
   130
 10
-13.66808623418
 20
51.3804005601702
 30
0.0
 11
-13.6680725710314
 21
-38.1624290955503
 31
0.0
  0
LINE
  5
   6A3
  8
0
  6
CONTINUOUS
 62
   130
 10
-50.6680596160807
 20
-24.5639820098877
 30
0.0
 11
8.33190277098701
 21
-24.5639820098877
 31
0.0
  0
ARC
  5
   6A4
  8
0
  6
CONTINUOUS
 62
   130
 10
8.33190277098701
 20
-24.0639820098877
 30
0.0
 40
0.5
 50
269.999999844103
 51
359.999991101463
  0
ARC
  5
   6A5
  8
0
  6
CONTINUOUS
 62
   130
 10
-50.6680596160807
 20
-24.0639820098877
 30
0.0
 40
0.5
 50
540.000008586744
 51
629.999999844103
  0
LINE
  5
   6A6
  8
0
  6
CONTINUOUS
 62
   130
 10
-50.6680580902027
 20
-34.5639781951904
 30
0.0
 11
8.331901245109
 21
-34.5639781951904
 31
0.0
  0
LINE
  5
   6A7
  8
0
  6
CONTINUOUS
 62
   130
 10
-50.6680703735253
 20
46.9360218048096
 30
0.0
 11
8.33191352843163
 21
46.9360218048096
 31
0.0
  0
ARC
  5
   6A8
  8
0
  6
CONTINUOUS
 62
   130
 10
-50.6680703735253
 20
46.4360218048096
 30
0.0
 40
0.5
 50
449.999999844103
 51
540.000008586744
  0
ARC
  5
   6A9
  8
0
  6
CONTINUOUS
 62
   130
 10
8.33191352843163
 20
46.4360218048096
 30
0.0
 40
0.5
 50
359.999991101463
 51
449.999999844103
  0
ARC
  5
   6AA
  8
0
  6
CONTINUOUS
 62
   130
 10
8.331901245109
 20
-34.0639781951904
 30
0.0
 40
0.5
 50
269.999999844103
 51
359.999991101463
  0
ARC
  5
   6AB
  8
0
  6
CONTINUOUS
 62
   130
 10
-50.6680580902027
 20
-34.0639781951904
 30
0.0
 40
0.5
 50
540.000008586744
 51
629.999999844103
  0
LINE
  5
   6AC
  8
0
  6
CONTINUOUS
 62
   130
 10
-51.1680690765359
 20
37.9360706210151
 30
0.0
 11
8.83191223144229
 21
37.9360706210151
 31
0.0
  0
LINE
  5
   6AD
  8
0
  6
CONTINUOUS
 62
   130
 10
-51.1680594634928
 20
-25.0639820098877
 30
0.0
 11
8.83190261839916
 21
-25.0639820098877
 31
0.0
  0
CIRCLE
  5
   6AE
  8
0
  6
CONTINUOUS
 62
   130
 10
-28.6680850219645
 20
42.4360218048096
 30
0.0
 40
1.75
  0
CIRCLE
  5
   6AF
  8
0
  6
CONTINUOUS
 62
   130
 10
-13.6680850219643
 20
42.4360218048096
 30
0.0
 40
1.75
  0
CIRCLE
  5
   6B0
  8
0
  6
CONTINUOUS
 62
   130
 10
1.33191497803591
 20
42.4360218048096
 30
0.0
 40
1.75
  0
CIRCLE
  5
   6B1
  8
0
  6
CONTINUOUS
 62
   130
 10
1.33191497803591
 20
-30.0639781951904
 30
0.0
 40
1.75
  0
CIRCLE
  5
   6B2
  8
0
  6
CONTINUOUS
 62
   130
 10
-13.6680850219643
 20
-30.0639781951904
 30
0.0
 40
1.75
  0
CIRCLE
  5
   6B3
  8
0
  6
CONTINUOUS
 62
   130
 10
-28.6680850219645
 20
-30.0639781951904
 30
0.0
 40
1.75
  0
LINE
  5
   6B4
  8
0
  6
DASHDOT
 62
   130
 10
1.33191497803591
 20
44.6860218048096
 30
0.0
 11
1.33191497803591
 21
40.1860218048096
 31
0.0
  0
LINE
  5
   6B5
  8
0
  6
DASHDOT
 62
   130
 10
-0.918085021964096
 20
42.4360218048096
 30
0.0
 11
3.58191497803591
 21
42.4360218048096
 31
0.0
  0
LINE
  5
   6B6
  8
0
  6
DASHDOT
 62
   130
 10
-13.6680850219643
 20
44.6860218048096
 30
0.0
 11
-13.6680850219643
 21
40.1860218048096
 31
0.0
  0
LINE
  5
   6B7
  8
0
  6
DASHDOT
 62
   130
 10
-15.9180850219643
 20
42.4360218048096
 30
0.0
 11
-11.4180850219643
 21
42.4360218048096
 31
0.0
  0
LINE
  5
   6B8
  8
0
  6
DASHDOT
 62
   130
 10
-28.6680850219645
 20
44.6860218048096
 30
0.0
 11
-28.6680850219645
 21
40.1860218048096
 31
0.0
  0
LINE
  5
   6B9
  8
0
  6
DASHDOT
 62
   130
 10
-30.9180850219645
 20
42.4360218048096
 30
0.0
 11
-26.4180850219645
 21
42.4360218048096
 31
0.0
  0
LINE
  5
   6BA
  8
0
  6
DASHDOT
 62
   130
 10
-28.6680850219645
 20
-27.8139781951904
 30
0.0
 11
-28.6680850219645
 21
-32.3139781951904
 31
0.0
  0
LINE
  5
   6BB
  8
0
  6
DASHDOT
 62
   130
 10
-30.9180850219645
 20
-30.0639781951904
 30
0.0
 11
-26.4180850219645
 21
-30.0639781951904
 31
0.0
  0
LINE
  5
   6BC
  8
0
  6
DASHDOT
 62
   130
 10
-13.6680850219643
 20
-27.8139781951904
 30
0.0
 11
-13.6680850219643
 21
-32.3139781951904
 31
0.0
  0
LINE
  5
   6BD
  8
0
  6
DASHDOT
 62
   130
 10
-15.9180850219643
 20
-30.0639781951904
 30
0.0
 11
-11.4180850219643
 21
-30.0639781951904
 31
0.0
  0
LINE
  5
   6BE
  8
0
  6
DASHDOT
 62
   130
 10
1.33191497803591
 20
-27.8139781951904
 30
0.0
 11
1.33191497803591
 21
-32.3139781951904
 31
0.0
  0
LINE
  5
   6BF
  8
0
  6
DASHDOT
 62
   130
 10
-0.918085021964096
 20
-30.0639781951904
 30
0.0
 11
3.58191497803591
 21
-30.0639781951904
 31
0.0
  0
LINE
  5
   6C0
  8
0
  6
CONTINUOUS
 62
   130
 10
-13.3430842590324
 20
37.4360706210151
 30
0.0
 11
-13.3430830001817
 21
29.1860647382564
 31
0.0
  0
LINE
  5
   6C1
  8
0
  6
CONTINUOUS
 62
   130
 10
-13.9930842590324
 20
37.4360706210151
 30
0.0
 11
-13.9930830001817
 21
29.1860647382564
 31
0.0
  0
LINE
  5
   6C2
  8
0
  6
CONTINUOUS
 62
   130
 10
-13.0930842590324
 20
37.4360706210151
 30
0.0
 11
-13.0930830001817
 21
29.1860647382564
 31
0.0
  0
LINE
  5
   6C3
  8
0
  6
CONTINUOUS
 62
   130
 10
-12.4430842590324
 20
37.4360706210151
 30
0.0
 11
-12.4430830001817
 21
29.1860647382564
 31
0.0
  0
LINE
  5
   6C4
  8
0
  6
CONTINUOUS
 62
   130
 10
-11.5430842590324
 20
37.4360706210151
 30
0.0
 11
-11.5430830001817
 21
29.1860647382564
 31
0.0
  0
LINE
  5
   6C5
  8
0
  6
CONTINUOUS
 62
   130
 10
-12.1930842590324
 20
37.4360706210151
 30
0.0
 11
-12.1930830001817
 21
29.1860647382564
 31
0.0
  0
LINE
  5
   6C6
  8
0
  6
CONTINUOUS
 62
   130
 10
-10.6430842590324
 20
37.4360706210151
 30
0.0
 11
-10.6430830001817
 21
29.1860647382564
 31
0.0
  0
LINE
  5
   6C7
  8
0
  6
CONTINUOUS
 62
   130
 10
-11.2930842590324
 20
37.4360706210151
 30
0.0
 11
-11.2930830001817
 21
29.1860647382564
 31
0.0
  0
LINE
  5
   6C8
  8
0
  6
CONTINUOUS
 62
   130
 10
-9.74308425903238
 20
37.4360706210151
 30
0.0
 11
-9.74308300018165
 21
29.1860647382564
 31
0.0
  0
LINE
  5
   6C9
  8
0
  6
CONTINUOUS
 62
   130
 10
-10.3930842590324
 20
37.4360706210151
 30
0.0
 11
-10.3930830001817
 21
29.1860647382564
 31
0.0
  0
LINE
  5
   6CA
  8
0
  6
CONTINUOUS
 62
   130
 10
-8.84308425903237
 20
37.4360706210151
 30
0.0
 11
-8.84308300018164
 21
29.1860647382564
 31
0.0
  0
LINE
  5
   6CB
  8
0
  6
CONTINUOUS
 62
   130
 10
-9.49308425903238
 20
37.4360706210151
 30
0.0
 11
-9.49308300018165
 21
29.1860647382564
 31
0.0
  0
LINE
  5
   6CC
  8
0
  6
CONTINUOUS
 62
   130
 10
-7.94308425903236
 20
37.4360706210151
 30
0.0
 11
-7.94308300018163
 21
29.1860647382564
 31
0.0
  0
LINE
  5
   6CD
  8
0
  6
CONTINUOUS
 62
   130
 10
-8.59308425903237
 20
37.4360706210151
 30
0.0
 11
-8.59308300018164
 21
29.1860647382564
 31
0.0
  0
LINE
  5
   6CE
  8
0
  6
CONTINUOUS
 62
   130
 10
-7.04308425903236
 20
37.4360706210151
 30
0.0
 11
-7.04308300018162
 21
29.1860647382564
 31
0.0
  0
LINE
  5
   6CF
  8
0
  6
CONTINUOUS
 62
   130
 10
-7.69308425903237
 20
37.4360706210151
 30
0.0
 11
-7.69308300018163
 21
29.1860647382564
 31
0.0
  0
LINE
  5
   6D0
  8
0
  6
CONTINUOUS
 62
   130
 10
-6.79308425903236
 20
37.4360706210151
 30
0.0
 11
-6.79308300018163
 21
29.1860647382564
 31
0.0
  0
LINE
  5
   6D1
  8
0
  6
CONTINUOUS
 62
   130
 10
-6.14308425903235
 20
37.4360706210151
 30
0.0
 11
-6.14308300018162
 21
29.1860647382564
 31
0.0
  0
LINE
  5
   6D2
  8
0
  6
CONTINUOUS
 62
   130
 10
-5.89308425903235
 20
37.4360706210151
 30
0.0
 11
-5.89308300018162
 21
29.1860647382564
 31
0.0
  0
LINE
  5
   6D3
  8
0
  6
CONTINUOUS
 62
   130
 10
-5.24308425903234
 20
37.4360706210151
 30
0.0
 11
-5.24308300018161
 21
29.1860647382564
 31
0.0
  0
LINE
  5
   6D4
  8
0
  6
CONTINUOUS
 62
   130
 10
-4.99308425903234
 20
37.4360706210151
 30
0.0
 11
-4.9930830001816
 21
29.1860647382564
 31
0.0
  0
LINE
  5
   6D5
  8
0
  6
CONTINUOUS
 62
   130
 10
-4.34308425903233
 20
37.4360706210151
 30
0.0
 11
-4.3430830001816
 21
29.1860647382564
 31
0.0
  0
LINE
  5
   6D6
  8
0
  6
CONTINUOUS
 62
   130
 10
-4.09308425903232
 20
37.4360706210151
 30
0.0
 11
-4.09308300018159
 21
29.1860647382564
 31
0.0
  0
LINE
  5
   6D7
  8
0
  6
CONTINUOUS
 62
   130
 10
-3.44308425903233
 20
37.4360706210151
 30
0.0
 11
-3.44308300018159
 21
29.1860647382564
 31
0.0
  0
LINE
  5
   6D8
  8
0
  6
CONTINUOUS
 62
   130
 10
-3.19308425903231
 20
37.4360706210151
 30
0.0
 11
-3.19308300018158
 21
29.1860647382564
 31
0.0
  0
LINE
  5
   6D9
  8
0
  6
CONTINUOUS
 62
   130
 10
-2.54308425903232
 20
37.4360706210151
 30
0.0
 11
-2.54308300018158
 21
29.1860647382564
 31
0.0
  0
LINE
  5
   6DA
  8
0
  6
CONTINUOUS
 62
   130
 10
-2.2930842590323
 20
37.4360706210151
 30
0.0
 11
-2.29308300018157
 21
29.1860647382564
 31
0.0
  0
LINE
  5
   6DB
  8
0
  6
CONTINUOUS
 62
   130
 10
-1.6430842590323
 20
37.4360706210151
 30
0.0
 11
-1.64308300018157
 21
29.1860647382564
 31
0.0
  0
LINE
  5
   6DC
  8
0
  6
CONTINUOUS
 62
   130
 10
-1.39308425903229
 20
37.4360706210151
 30
0.0
 11
-1.39308300018156
 21
29.1860647382564
 31
0.0
  0
LINE
  5
   6DD
  8
0
  6
CONTINUOUS
 62
   130
 10
-0.74308425903229
 20
37.4360706210151
 30
0.0
 11
-0.743083000181556
 21
29.1860647382564
 31
0.0
  0
LINE
  5
   6DE
  8
0
  6
CONTINUOUS
 62
   130
 10
-0.493084259032278
 20
37.4360706210151
 30
0.0
 11
-0.493083000181546
 21
29.1860647382564
 31
0.0
  0
LINE
  5
   6DF
  8
0
  6
CONTINUOUS
 62
   130
 10
0.156915740967717
 20
37.4360706210151
 30
0.0
 11
0.156916999818449
 21
29.1860647382564
 31
0.0
  0
LINE
  5
   6E0
  8
0
  6
CONTINUOUS
 62
   130
 10
0.406915740967733
 20
37.4360706210151
 30
0.0
 11
0.406916999818465
 21
29.1860647382564
 31
0.0
  0
LINE
  5
   6E1
  8
0
  6
CONTINUOUS
 62
   130
 10
1.05691574096772
 20
37.4360706210151
 30
0.0
 11
1.05691699981846
 21
29.1860647382564
 31
0.0
  0
LINE
  5
   6E2
  8
0
  6
CONTINUOUS
 62
   130
 10
1.30691574096774
 20
37.4360706210151
 30
0.0
 11
1.30691699981848
 21
29.1860647382564
 31
0.0
  0
LINE
  5
   6E3
  8
0
  6
CONTINUOUS
 62
   130
 10
1.95691574096773
 20
37.4360706210151
 30
0.0
 11
1.95691699981847
 21
29.1860647382564
 31
0.0
  0
LINE
  5
   6E4
  8
0
  6
CONTINUOUS
 62
   130
 10
2.20691574096776
 20
37.4360706210151
 30
0.0
 11
2.20691699981849
 21
29.1860647382564
 31
0.0
  0
LINE
  5
   6E5
  8
0
  6
CONTINUOUS
 62
   130
 10
2.85691574096774
 20
37.4360706210151
 30
0.0
 11
2.85691699981848
 21
29.1860647382564
 31
0.0
  0
LINE
  5
   6E6
  8
0
  6
CONTINUOUS
 62
   130
 10
3.10691574096776
 20
37.4360706210151
 30
0.0
 11
3.1069169998185
 21
29.1860647382564
 31
0.0
  0
LINE
  5
   6E7
  8
0
  6
CONTINUOUS
 62
   130
 10
3.75691574096775
 20
37.4360706210151
 30
0.0
 11
3.75691699981849
 21
29.1860647382564
 31
0.0
  0
LINE
  5
   6E8
  8
0
  6
CONTINUOUS
 62
   130
 10
4.00691574096777
 20
37.4360706210151
 30
0.0
 11
4.00691699981851
 21
29.1860647382564
 31
0.0
  0
LINE
  5
   6E9
  8
0
  6
CONTINUOUS
 62
   130
 10
4.65691574096777
 20
37.4360706210151
 30
0.0
 11
4.6569169998185
 21
29.1860647382564
 31
0.0
  0
LINE
  5
   6EA
  8
0
  6
CONTINUOUS
 62
   130
 10
4.90691574096778
 20
37.4360706210151
 30
0.0
 11
4.90691699981851
 21
29.1860647382564
 31
0.0
  0
LINE
  5
   6EB
  8
0
  6
CONTINUOUS
 62
   130
 10
5.55691574096777
 20
37.4360706210151
 30
0.0
 11
5.55691699981851
 21
29.1860647382564
 31
0.0
  0
LINE
  5
   6EC
  8
0
  6
CONTINUOUS
 62
   130
 10
5.80691574096779
 20
37.4360706210151
 30
0.0
 11
5.80691699981852
 21
29.1860647382564
 31
0.0
  0
LINE
  5
   6ED
  8
0
  6
CONTINUOUS
 62
   130
 10
6.45691574096778
 20
37.4360706210151
 30
0.0
 11
6.45691699981852
 21
29.1860647382564
 31
0.0
  0
LINE
  5
   6EE
  8
0
  6
CONTINUOUS
 62
   130
 10
6.7069157409678
 20
37.4360706210151
 30
0.0
 11
6.70691699981853
 21
29.1860647382564
 31
0.0
  0
LINE
  5
   6EF
  8
0
  6
CONTINUOUS
 62
   130
 10
7.35691574096779
 20
37.4360706210151
 30
0.0
 11
7.35691699981853
 21
29.1860647382564
 31
0.0
  0
LINE
  5
   6F0
  8
0
  6
CONTINUOUS
 62
   130
 10
7.60691574096781
 20
37.4360706210151
 30
0.0
 11
7.60691699981854
 21
29.1860647382564
 31
0.0
  0
LINE
  5
   6F1
  8
0
  6
DASHDOT
 62
   130
 10
-13.66808623418
 20
51.3804005601702
 30
0.0
 11
-13.6680725710314
 21
-38.1624290955503
 31
0.0
  0
LINE
  5
   6F2
  8
0
  6
CONTINUOUS
 62
   130
 10
-13.9930842590324
 20
37.436070521833
 30
0.0
 11
-13.9930830001817
 21
29.1860646390743
 31
0.0
  0
LINE
  5
   6F3
  8
0
  6
CONTINUOUS
 62
   130
 10
-13.3430842590324
 20
37.4360707201973
 30
0.0
 11
-13.3430830001817
 21
29.1860648374385
 31
0.0
  0
LINE
  5
   6F4
  8
0
  6
CONTINUOUS
 62
   130
 10
-14.2430842590324
 20
37.4360704455391
 30
0.0
 11
-14.2430830001817
 21
29.1860645627804
 31
0.0
  0
LINE
  5
   6F5
  8
0
  6
CONTINUOUS
 62
   130
 10
-14.8930842590324
 20
37.4360702471749
 30
0.0
 11
-14.8930830001817
 21
29.1860643644161
 31
0.0
  0
LINE
  5
   6F6
  8
0
  6
CONTINUOUS
 62
   130
 10
-15.7930842590324
 20
37.4360699725167
 30
0.0
 11
-15.7930830001816
 21
29.186064089758
 31
0.0
  0
LINE
  5
   6F7
  8
0
  6
CONTINUOUS
 62
   130
 10
-15.1430842590324
 20
37.436070170881
 30
0.0
 11
-15.1430830001816
 21
29.1860642881222
 31
0.0
  0
LINE
  5
   6F8
  8
0
  6
CONTINUOUS
 62
   130
 10
-16.6930842590323
 20
37.4360696978586
 30
0.0
 11
-16.6930830001816
 21
29.1860638150998
 31
0.0
  0
LINE
  5
   6F9
  8
0
  6
CONTINUOUS
 62
   130
 10
-16.0430842590323
 20
37.4360698962228
 30
0.0
 11
-16.0430830001816
 21
29.1860640134641
 31
0.0
  0
LINE
  5
   6FA
  8
0
  6
CONTINUOUS
 62
   130
 10
-17.5930842590323
 20
37.4360694232005
 30
0.0
 11
-17.5930830001816
 21
29.1860635404417
 31
0.0
  0
LINE
  5
   6FB
  8
0
  6
CONTINUOUS
 62
   130
 10
-16.9430842590323
 20
37.4360696215647
 30
0.0
 11
-16.9430830001816
 21
29.1860637388059
 31
0.0
  0
LINE
  5
   6FC
  8
0
  6
CONTINUOUS
 62
   130
 10
-18.4930842590323
 20
37.4360691485423
 30
0.0
 11
-18.4930830001815
 21
29.1860632657836
 31
0.0
  0
LINE
  5
   6FD
  8
0
  6
CONTINUOUS
 62
   130
 10
-17.8430842590323
 20
37.4360693469065
 30
0.0
 11
-17.8430830001816
 21
29.1860634641478
 31
0.0
  0
LINE
  5
   6FE
  8
0
  6
CONTINUOUS
 62
   130
 10
-19.3930842590322
 20
37.4360688738842
 30
0.0
 11
-19.3930830001815
 21
29.1860629911254
 31
0.0
  0
LINE
  5
   6FF
  8
0
  6
CONTINUOUS
 62
   130
 10
-18.7430842590322
 20
37.4360690722484
 30
0.0
 11
-18.7430830001815
 21
29.1860631894896
 31
0.0
  0
LINE
  5
   700
  8
0
  6
CONTINUOUS
 62
   130
 10
-20.2930842590322
 20
37.436068599226
 30
0.0
 11
-20.2930830001815
 21
29.1860627164673
 31
0.0
  0
LINE
  5
   701
  8
0
  6
CONTINUOUS
 62
   130
 10
-19.6430842590322
 20
37.4360687975902
 30
0.0
 11
-19.6430830001815
 21
29.1860629148315
 31
0.0
  0
LINE
  5
   702
  8
0
  6
CONTINUOUS
 62
   130
 10
-20.5430842590322
 20
37.4360685229321
 30
0.0
 11
-20.5430830001814
 21
29.1860626401733
 31
0.0
  0
LINE
  5
   703
  8
0
  6
CONTINUOUS
 62
   130
 10
-21.1930842590322
 20
37.4360683245679
 30
0.0
 11
-21.1930830001814
 21
29.1860624418091
 31
0.0
  0
LINE
  5
   704
  8
0
  6
CONTINUOUS
 62
   130
 10
-21.4430842590321
 20
37.4360682482739
 30
0.0
 11
-21.4430830001814
 21
29.1860623655152
 31
0.0
  0
LINE
  5
   705
  8
0
  6
CONTINUOUS
 62
   130
 10
-22.0930842590321
 20
37.4360680499097
 30
0.0
 11
-22.0930830001814
 21
29.186062167151
 31
0.0
  0
LINE
  5
   706
  8
0
  6
CONTINUOUS
 62
   130
 10
-22.3430842590321
 20
37.4360679736158
 30
0.0
 11
-22.3430830001814
 21
29.1860620908571
 31
0.0
  0
LINE
  5
   707
  8
0
  6
CONTINUOUS
 62
   130
 10
-22.9930842590321
 20
37.4360677752516
 30
0.0
 11
-22.9930830001814
 21
29.1860618924928
 31
0.0
  0
LINE
  5
   708
  8
0
  6
CONTINUOUS
 62
   130
 10
-23.2430842590321
 20
37.4360676989576
 30
0.0
 11
-23.2430830001814
 21
29.1860618161989
 31
0.0
  0
LINE
  5
   709
  8
0
  6
CONTINUOUS
 62
   130
 10
-23.8930842590321
 20
37.4360675005934
 30
0.0
 11
-23.8930830001813
 21
29.1860616178347
 31
0.0
  0
LINE
  5
   70A
  8
0
  6
CONTINUOUS
 62
   130
 10
-24.1430842590321
 20
37.4360674242995
 30
0.0
 11
-24.1430830001813
 21
29.1860615415408
 31
0.0
  0
LINE
  5
   70B
  8
0
  6
CONTINUOUS
 62
   130
 10
-24.793084259032
 20
37.4360672259353
 30
0.0
 11
-24.7930830001813
 21
29.1860613431765
 31
0.0
  0
LINE
  5
   70C
  8
0
  6
CONTINUOUS
 62
   130
 10
-25.043084259032
 20
37.4360671496414
 30
0.0
 11
-25.0430830001813
 21
29.1860612668826
 31
0.0
  0
LINE
  5
   70D
  8
0
  6
CONTINUOUS
 62
   130
 10
-25.693084259032
 20
37.4360669512771
 30
0.0
 11
-25.6930830001813
 21
29.1860610685184
 31
0.0
  0
LINE
  5
   70E
  8
0
  6
CONTINUOUS
 62
   130
 10
-25.943084259032
 20
37.4360668749832
 30
0.0
 11
-25.9430830001813
 21
29.1860609922245
 31
0.0
  0
LINE
  5
   70F
  8
0
  6
CONTINUOUS
 62
   130
 10
-26.593084259032
 20
37.436066676619
 30
0.0
 11
-26.5930830001812
 21
29.1860607938602
 31
0.0
  0
LINE
  5
   710
  8
0
  6
CONTINUOUS
 62
   130
 10
-26.843084259032
 20
37.4360666003251
 30
0.0
 11
-26.8430830001812
 21
29.1860607175663
 31
0.0
  0
LINE
  5
   711
  8
0
  6
CONTINUOUS
 62
   130
 10
-27.4930842590319
 20
37.4360664019608
 30
0.0
 11
-27.4930830001812
 21
29.1860605192021
 31
0.0
  0
LINE
  5
   712
  8
0
  6
CONTINUOUS
 62
   130
 10
-27.7430842590319
 20
37.4360663256669
 30
0.0
 11
-27.7430830001812
 21
29.1860604429082
 31
0.0
  0
LINE
  5
   713
  8
0
  6
CONTINUOUS
 62
   130
 10
-28.3930842590319
 20
37.4360661273027
 30
0.0
 11
-28.3930830001812
 21
29.186060244544
 31
0.0
  0
LINE
  5
   714
  8
0
  6
CONTINUOUS
 62
   130
 10
-28.6430842590319
 20
37.4360660510088
 30
0.0
 11
-28.6430830001812
 21
29.18606016825
 31
0.0
  0
LINE
  5
   715
  8
0
  6
CONTINUOUS
 62
   130
 10
-29.2930842590319
 20
37.4360658526446
 30
0.0
 11
-29.2930830001811
 21
29.1860599698858
 31
0.0
  0
LINE
  5
   716
  8
0
  6
CONTINUOUS
 62
   130
 10
-29.5430842590319
 20
37.4360657763506
 30
0.0
 11
-29.5430830001811
 21
29.1860598935919
 31
0.0
  0
LINE
  5
   717
  8
0
  6
CONTINUOUS
 62
   130
 10
-30.1930842590318
 20
37.4360655779864
 30
0.0
 11
-30.1930830001811
 21
29.1860596952277
 31
0.0
  0
LINE
  5
   718
  8
0
  6
CONTINUOUS
 62
   130
 10
-30.4430842590318
 20
37.4360655016925
 30
0.0
 11
-30.4430830001811
 21
29.1860596189337
 31
0.0
  0
LINE
  5
   719
  8
0
  6
CONTINUOUS
 62
   130
 10
-31.0930842590318
 20
37.4360653033283
 30
0.0
 11
-31.0930830001811
 21
29.1860594205695
 31
0.0
  0
LINE
  5
   71A
  8
0
  6
CONTINUOUS
 62
   130
 10
-31.3430842590318
 20
37.4360652270343
 30
0.0
 11
-31.3430830001811
 21
29.1860593442756
 31
0.0
  0
LINE
  5
   71B
  8
0
  6
CONTINUOUS
 62
   130
 10
-31.9930842590318
 20
37.4360650286701
 30
0.0
 11
-31.993083000181
 21
29.1860591459114
 31
0.0
  0
LINE
  5
   71C
  8
0
  6
CONTINUOUS
 62
   130
 10
-32.2430842590318
 20
37.4360649523762
 30
0.0
 11
-32.243083000181
 21
29.1860590696174
 31
0.0
  0
LINE
  5
   71D
  8
0
  6
CONTINUOUS
 62
   130
 10
-32.8930842590317
 20
37.436064754012
 30
0.0
 11
-32.893083000181
 21
29.1860588712532
 31
0.0
  0
LINE
  5
   71E
  8
0
  6
CONTINUOUS
 62
   130
 10
-33.1430842590317
 20
37.436064677718
 30
0.0
 11
-33.143083000181
 21
29.1860587949593
 31
0.0
  0
LINE
  5
   71F
  8
0
  6
CONTINUOUS
 62
   130
 10
-33.7930842590317
 20
37.4360644793538
 30
0.0
 11
-33.793083000181
 21
29.1860585965951
 31
0.0
  0
LINE
  5
   720
  8
0
  6
CONTINUOUS
 62
   130
 10
-34.0430842590317
 20
37.4360644030599
 30
0.0
 11
-34.043083000181
 21
29.1860585203012
 31
0.0
  0
LINE
  5
   721
  8
0
  6
CONTINUOUS
 62
   130
 10
-34.6930842590317
 20
37.4360642046957
 30
0.0
 11
-34.6930830001809
 21
29.1860583219369
 31
0.0
  0
LINE
  5
   722
  8
0
  6
CONTINUOUS
 62
   130
 10
-34.9430842590317
 20
37.4360641284017
 30
0.0
 11
-34.943082275448
 21
24.4364471435547
 31
0.0
  0
LINE
  5
   723
  8
0
  6
DASHDOT
 62
   130
 10
-13.6680725710314
 20
51.5344727051695
 30
0.0
 11
-13.66808623418
 21
-38.008356950551
 31
0.0
  0
LINE
  5
   724
  8
0
  6
DASHDOT
 62
   130
 10
-13.6680725710314
 20
51.5344727051695
 30
0.0
 11
-13.66808623418
 21
-38.008356950551
 31
0.0
  0
LINE
  5
   725
  8
0
  6
CONTINUOUS
 62
   130
 10
-34.6930758551896
 20
30.0114100983347
 30
0.0
 11
-34.6930767058613
 21
24.4364471435547
 31
0.0
  0
LINE
  5
   726
  8
0
  6
DASHDOT
 62
   130
 10
-58.0077468000477
 20
0.436085879800181
 30
0.0
 11
11.2198817578178
 21
0.436085879800181
 31
0.0
  0
CIRCLE
  5
   727
  8
0
  6
CONTINUOUS
 62
   130
 10
-43.6680850219645
 20
-30.0639781951904
 30
0.0
 40
1.75
  0
LINE
  5
   728
  8
0
  6
DASHDOT
 62
   130
 10
-43.6680850219645
 20
-27.8139781951904
 30
0.0
 11
-43.6680850219645
 21
-32.3139781951904
 31
0.0
  0
LINE
  5
   729
  8
0
  6
DASHDOT
 62
   130
 10
-45.9180850219645
 20
-30.0639781951904
 30
0.0
 11
-41.4180850219645
 21
-30.0639781951904
 31
0.0
  0
CIRCLE
  5
   72A
  8
0
  6
CONTINUOUS
 62
   130
 10
-43.6680850219645
 20
42.4360218048096
 30
0.0
 40
1.75
  0
LINE
  5
   72B
  8
0
  6
DASHDOT
 62
   130
 10
-43.6680850219645
 20
44.6860218048096
 30
0.0
 11
-43.6680850219645
 21
40.1860218048096
 31
0.0
  0
LINE
  5
   72C
  8
0
  6
DASHDOT
 62
   130
 10
-45.9180850219645
 20
42.4360218048096
 30
0.0
 11
-41.4180850219645
 21
42.4360218048096
 31
0.0
  0
LINE
  5
   72D
  8
0
  6
CONTINUOUS
 62
   130
 10
-35.8430773925787
 20
37.4360641284017
 30
0.0
 11
-35.843075408995
 21
24.4364471435547
 31
0.0
  0
LINE
  5
   72E
  8
0
  6
CONTINUOUS
 62
   130
 10
-35.5930678558236
 20
37.4360706210151
 30
0.0
 11
-35.5930698394083
 21
24.4364471435547
 31
0.0
  0
LINE
  5
   72F
  8
0
  6
CONTINUOUS
 62
   130
 10
-36.4930609893706
 20
37.4360706210151
 30
0.0
 11
-36.4930629729553
 21
24.4364471435547
 31
0.0
  0
LINE
  5
   730
  8
0
  6
CONTINUOUS
 62
   130
 10
-36.7430705261257
 20
37.4360641284017
 30
0.0
 11
-36.743068542542
 21
24.4364471435547
 31
0.0
  0
LINE
  5
   731
  8
0
  6
CONTINUOUS
 62
   130
 10
-37.3930541229176
 20
37.4360706210151
 30
0.0
 11
-37.3930561065023
 21
24.4364471435547
 31
0.0
  0
LINE
  5
   732
  8
0
  6
CONTINUOUS
 62
   130
 10
-37.6430636596727
 20
37.4360641284017
 30
0.0
 11
-37.643061676089
 21
24.4364471435547
 31
0.0
  0
LINE
  5
   733
  8
0
  6
CONTINUOUS
 62
   130
 10
-38.2930472564646
 20
37.4360706210151
 30
0.0
 11
-38.2930492400493
 21
24.4364471435547
 31
0.0
  0
LINE
  5
   734
  8
0
  6
CONTINUOUS
 62
   130
 10
-38.5430567932197
 20
37.4360641284017
 30
0.0
 11
-38.543054809636
 21
24.4364471435547
 31
0.0
  0
LINE
  5
   735
  8
0
  6
CONTINUOUS
 62
   130
 10
-39.1930403900116
 20
37.4360706210151
 30
0.0
 11
-39.1930423735963
 21
24.4364471435547
 31
0.0
  0
LINE
  5
   736
  8
0
  6
CONTINUOUS
 62
   130
 10
-39.4430499267667
 20
37.4360641284017
 30
0.0
 11
-39.4430479431829
 21
24.4364471435547
 31
0.0
  0
LINE
  5
   737
  8
0
  6
CONTINUOUS
 62
   130
 10
-40.0930335235586
 20
37.4360706210151
 30
0.0
 11
-40.0930355071433
 21
24.4364471435547
 31
0.0
  0
LINE
  5
   738
  8
0
  6
CONTINUOUS
 62
   130
 10
-40.3430430603137
 20
37.4360641284017
 30
0.0
 11
-40.3430410767299
 21
24.4364471435547
 31
0.0
  0
LINE
  5
   739
  8
0
  6
CONTINUOUS
 62
   130
 10
-40.9930266571056
 20
37.4360706210151
 30
0.0
 11
-40.9930286406903
 21
24.4364471435547
 31
0.0
  0
LINE
  5
   73A
  8
0
  6
CONTINUOUS
 62
   130
 10
-41.2430361938607
 20
37.4360641284017
 30
0.0
 11
-41.2430342102769
 21
24.4364471435547
 31
0.0
  0
LINE
  5
   73B
  8
0
  6
CONTINUOUS
 62
   130
 10
-41.8930197906526
 20
37.4360706210151
 30
0.0
 11
-41.8930217742373
 21
24.4364471435547
 31
0.0
  0
LINE
  5
   73C
  8
0
  6
CONTINUOUS
 62
   130
 10
-42.1430293274077
 20
37.4360641284017
 30
0.0
 11
-42.1430273438239
 21
24.4364471435547
 31
0.0
  0
LINE
  5
   73D
  8
0
  6
CONTINUOUS
 62
   130
 10
-42.7930129241996
 20
37.4360706210151
 30
0.0
 11
-42.7930149077843
 21
24.4364471435547
 31
0.0
  0
LINE
  5
   73E
  8
0
  6
CONTINUOUS
 62
   130
 10
-43.0430224609547
 20
37.4360641284017
 30
0.0
 11
-43.0430204773709
 21
24.4364471435547
 31
0.0
  0
LINE
  5
   73F
  8
0
  6
CONTINUOUS
 62
   130
 10
-43.6930060577466
 20
37.4360706210151
 30
0.0
 11
-43.6930080413313
 21
24.4364471435547
 31
0.0
  0
LINE
  5
   740
  8
0
  6
CONTINUOUS
 62
   130
 10
-43.9430155945017
 20
37.4360641284017
 30
0.0
 11
-43.9430136109179
 21
24.4364471435547
 31
0.0
  0
LINE
  5
   741
  8
0
  6
CONTINUOUS
 62
   130
 10
-44.5929991912936
 20
37.4360706210151
 30
0.0
 11
-44.5930011748783
 21
24.4364471435547
 31
0.0
  0
LINE
  5
   742
  8
0
  6
CONTINUOUS
 62
   130
 10
-44.8430087280487
 20
37.4360641284017
 30
0.0
 11
-44.8430067444649
 21
24.4364471435547
 31
0.0
  0
LINE
  5
   743
  8
0
  6
CONTINUOUS
 62
   130
 10
-45.4929923248406
 20
37.4360706210151
 30
0.0
 11
-45.4929943084253
 21
24.4364471435547
 31
0.0
  0
LINE
  5
   744
  8
0
  6
CONTINUOUS
 62
   130
 10
-45.7430018615956
 20
37.4360641284017
 30
0.0
 11
-45.7429998780119
 21
24.4364471435547
 31
0.0
  0
LINE
  5
   745
  8
0
  6
CONTINUOUS
 62
   130
 10
-46.3929854583876
 20
37.4360706210151
 30
0.0
 11
-46.3929874419723
 21
24.4364471435547
 31
0.0
  0
LINE
  5
   746
  8
0
  6
CONTINUOUS
 62
   130
 10
-46.6429949951426
 20
37.4360641284017
 30
0.0
 11
-46.6429930115589
 21
24.4364471435547
 31
0.0
  0
LINE
  5
   747
  8
0
  6
CONTINUOUS
 62
   130
 10
-47.2929785919345
 20
37.4360706210151
 30
0.0
 11
-47.2929805755193
 21
24.4364471435547
 31
0.0
  0
LINE
  5
   748
  8
0
  6
CONTINUOUS
 62
   130
 10
-47.5429881286896
 20
37.4360641284017
 30
0.0
 11
-47.5429861451059
 21
24.4364471435547
 31
0.0
  0
LINE
  5
   749
  8
0
  6
CONTINUOUS
 62
   130
 10
-48.1929717254816
 20
37.4360706210151
 30
0.0
 11
-48.1929737090663
 21
24.4364471435547
 31
0.0
  0
LINE
  5
   74A
  8
0
  6
CONTINUOUS
 62
   130
 10
-48.4429812622366
 20
37.4360641284017
 30
0.0
 11
-48.4429792786529
 21
24.4364471435547
 31
0.0
  0
LINE
  5
   74B
  8
0
  6
CONTINUOUS
 62
   130
 10
-49.0929648590285
 20
37.4360706210151
 30
0.0
 11
-49.0929668426133
 21
24.4364471435547
 31
0.0
  0
LINE
  5
   74C
  8
0
  6
CONTINUOUS
 62
   130
 10
-49.3429743957836
 20
37.4360641284017
 30
0.0
 11
-49.3429724121999
 21
24.4364471435547
 31
0.0
  0
LINE
  5
   74D
  8
0
  6
CONTINUOUS
 62
   130
 10
-49.9929579925755
 20
37.4360706210151
 30
0.0
 11
-49.9929599761602
 21
24.4364471435547
 31
0.0
  0
LINE
  5
   74E
  8
0
  6
CONTINUOUS
 62
   130
 10
-50.2429675293306
 20
37.4360641284017
 30
0.0
 11
-50.2429655457469
 21
24.4364471435547
 31
0.0
  0
TEXT
  5
   74F
  8
0
  6
CONTINUOUS
 62
     2
 10
25.0435429507616
 20
-1.10745638086181
 30
0.0
 40
3.00000002980232
  1
X
 50
359.999999844103
 41
0.983333351877
 11
25.0435429548355
 21
0.392543634039347
 31
0.0
 73
     2
  0
LINE
  5
   750
  8
0
  6
CONTINUOUS
 62
   130
 10
8.83190834050934
 20
12.4364471435547
 30
0.0
 11
8.83190467840073
 21
-11.5635528564453
 31
0.0
  0
LINE
  5
   751
  8
0
  6
CONTINUOUS
 62
   130
 10
-51.168065185603
 20
12.4364471435547
 30
0.0
 11
-51.1680615234944
 21
-11.5635528564453
 31
0.0
  0
LINE
  5
   752
  8
0
  6
CONTINUOUS
 62
   130
 10
-34.9430804443937
 20
12.4364471435547
 30
0.0
 11
-34.943076782285
 21
-11.5635528564453
 31
0.0
  0
LINE
  5
   753
  8
0
  6
CONTINUOUS
 62
   130
 10
-34.6930785369156
 20
12.4364471435547
 30
0.0
 11
-34.6930821990242
 21
-11.5635528564453
 31
0.0
  0
LINE
  5
   754
  8
0
  6
CONTINUOUS
 62
   130
 10
-35.8430735779407
 20
12.4364471435547
 30
0.0
 11
-35.843069915832
 21
-11.5635528564453
 31
0.0
  0
LINE
  5
   755
  8
0
  6
CONTINUOUS
 62
   130
 10
-35.5930716704626
 20
12.4364471435547
 30
0.0
 11
-35.5930753325712
 21
-11.5635528564453
 31
0.0
  0
LINE
  5
   756
  8
0
  6
CONTINUOUS
 62
   130
 10
-36.4930648040096
 20
12.4364471435547
 30
0.0
 11
-36.4930684661182
 21
-11.5635528564453
 31
0.0
  0
LINE
  5
   757
  8
0
  6
CONTINUOUS
 62
   130
 10
-36.7430667114877
 20
12.4364471435547
 30
0.0
 11
-36.743063049379
 21
-11.5635528564453
 31
0.0
  0
LINE
  5
   758
  8
0
  6
CONTINUOUS
 62
   130
 10
-37.3930579375566
 20
12.4364471435547
 30
0.0
 11
-37.3930615996652
 21
-11.5635528564453
 31
0.0
  0
LINE
  5
   759
  8
0
  6
CONTINUOUS
 62
   130
 10
-37.6430598450347
 20
12.4364471435547
 30
0.0
 11
-37.643056182926
 21
-11.5635528564453
 31
0.0
  0
LINE
  5
   75A
  8
0
  6
CONTINUOUS
 62
   130
 10
-38.2930510711036
 20
12.4364471435547
 30
0.0
 11
-38.2930547332122
 21
-11.5635528564453
 31
0.0
  0
LINE
  5
   75B
  8
0
  6
CONTINUOUS
 62
   130
 10
-38.5430529785816
 20
12.4364471435547
 30
0.0
 11
-38.543049316473
 21
-11.5635528564453
 31
0.0
  0
LINE
  5
   75C
  8
0
  6
CONTINUOUS
 62
   130
 10
-39.1930442046506
 20
12.4364471435547
 30
0.0
 11
-39.1930478667592
 21
-11.5635528564453
 31
0.0
  0
LINE
  5
   75D
  8
0
  6
CONTINUOUS
 62
   130
 10
-39.4430461121286
 20
12.4364471435547
 30
0.0
 11
-39.44304245002
 21
-11.5635528564453
 31
0.0
  0
LINE
  5
   75E
  8
0
  6
CONTINUOUS
 62
   130
 10
-40.0930373381976
 20
12.4364471435547
 30
0.0
 11
-40.0930410003062
 21
-11.5635528564453
 31
0.0
  0
LINE
  5
   75F
  8
0
  6
CONTINUOUS
 62
   130
 10
-40.3430392456756
 20
12.4364471435547
 30
0.0
 11
-40.343035583567
 21
-11.5635528564453
 31
0.0
  0
LINE
  5
   760
  8
0
  6
CONTINUOUS
 62
   130
 10
-40.9930304717446
 20
12.4364471435547
 30
0.0
 11
-40.9930341338532
 21
-11.5635528564453
 31
0.0
  0
LINE
  5
   761
  8
0
  6
CONTINUOUS
 62
   130
 10
-41.2430323792226
 20
12.4364471435547
 30
0.0
 11
-41.243028717114
 21
-11.5635528564453
 31
0.0
  0
LINE
  5
   762
  8
0
  6
CONTINUOUS
 62
   130
 10
-41.8930236052916
 20
12.4364471435547
 30
0.0
 11
-41.8930272674002
 21
-11.5635528564453
 31
0.0
  0
LINE
  5
   763
  8
0
  6
CONTINUOUS
 62
   130
 10
-42.1430255127696
 20
12.4364471435547
 30
0.0
 11
-42.143021850661
 21
-11.5635528564453
 31
0.0
  0
LINE
  5
   764
  8
0
  6
CONTINUOUS
 62
   130
 10
-42.7930167388386
 20
12.4364471435547
 30
0.0
 11
-42.7930204009472
 21
-11.5635528564453
 31
0.0
  0
LINE
  5
   765
  8
0
  6
CONTINUOUS
 62
   130
 10
-43.0430186463166
 20
12.4364471435547
 30
0.0
 11
-43.043014984208
 21
-11.5635528564453
 31
0.0
  0
LINE
  5
   766
  8
0
  6
CONTINUOUS
 62
   130
 10
-43.6930098723856
 20
12.4364471435547
 30
0.0
 11
-43.6930135344942
 21
-11.5635528564453
 31
0.0
  0
LINE
  5
   767
  8
0
  6
CONTINUOUS
 62
   130
 10
-43.9430117798636
 20
12.4364471435547
 30
0.0
 11
-43.943008117755
 21
-11.5635528564453
 31
0.0
  0
LINE
  5
   768
  8
0
  6
CONTINUOUS
 62
   130
 10
-44.5930030059326
 20
12.4364471435547
 30
0.0
 11
-44.5930066680412
 21
-11.5635528564453
 31
0.0
  0
LINE
  5
   769
  8
0
  6
CONTINUOUS
 62
   130
 10
-44.8430049134106
 20
12.4364471435547
 30
0.0
 11
-44.843001251302
 21
-11.5635528564453
 31
0.0
  0
LINE
  5
   76A
  8
0
  6
CONTINUOUS
 62
   130
 10
-45.4929961394796
 20
12.4364471435547
 30
0.0
 11
-45.4929998015882
 21
-11.5635528564453
 31
0.0
  0
LINE
  5
   76B
  8
0
  6
CONTINUOUS
 62
   130
 10
-45.7429980469576
 20
12.4364471435547
 30
0.0
 11
-45.742994384849
 21
-11.5635528564453
 31
0.0
  0
LINE
  5
   76C
  8
0
  6
CONTINUOUS
 62
   130
 10
-46.3929892730266
 20
12.4364471435547
 30
0.0
 11
-46.3929929351352
 21
-11.5635528564453
 31
0.0
  0
LINE
  5
   76D
  8
0
  6
CONTINUOUS
 62
   130
 10
-46.6429911805046
 20
12.4364471435547
 30
0.0
 11
-46.642987518396
 21
-11.5635528564453
 31
0.0
  0
LINE
  5
   76E
  8
0
  6
CONTINUOUS
 62
   130
 10
-47.2929824065736
 20
12.4364471435547
 30
0.0
 11
-47.2929860686822
 21
-11.5635528564453
 31
0.0
  0
LINE
  5
   76F
  8
0
  6
CONTINUOUS
 62
   130
 10
-47.5429843140516
 20
12.4364471435547
 30
0.0
 11
-47.542980651943
 21
-11.5635528564453
 31
0.0
  0
LINE
  5
   770
  8
0
  6
CONTINUOUS
 62
   130
 10
-48.1929755401206
 20
12.4364471435547
 30
0.0
 11
-48.1929792022292
 21
-11.5635528564453
 31
0.0
  0
LINE
  5
   771
  8
0
  6
CONTINUOUS
 62
   130
 10
-48.4429774475986
 20
12.4364471435547
 30
0.0
 11
-48.44297378549
 21
-11.5635528564453
 31
0.0
  0
LINE
  5
   772
  8
0
  6
CONTINUOUS
 62
   130
 10
-49.0929686736676
 20
12.4364471435547
 30
0.0
 11
-49.0929723357762
 21
-11.5635528564453
 31
0.0
  0
LINE
  5
   773
  8
0
  6
CONTINUOUS
 62
   130
 10
-49.3429705811456
 20
12.4364471435547
 30
0.0
 11
-49.342966919037
 21
-11.5635528564453
 31
0.0
  0
LINE
  5
   774
  8
0
  6
CONTINUOUS
 62
   130
 10
-49.9929618072145
 20
12.4364471435547
 30
0.0
 11
-49.9929654693231
 21
-11.5635528564453
 31
0.0
  0
LINE
  5
   775
  8
0
  6
CONTINUOUS
 62
   130
 10
-50.2429637146926
 20
12.4364471435547
 30
0.0
 11
-50.242960052584
 21
-11.5635528564453
 31
0.0
  0
LINE
  5
   776
  8
0
  6
CONTINUOUS
 62
   130
 10
-51.1680596924401
 20
-23.5635528564453
 30
0.0
 11
-51.1680580902026
 21
-34.0639782714844
 31
0.0
  0
LINE
  5
   777
  8
0
  6
CONTINUOUS
 62
   130
 10
-34.6930840300785
 20
-23.5635528564453
 30
0.0
 11
-34.6930841827377
 21
-24.5640205950766
 31
0.0
  0
LINE
  5
   778
  8
0
  6
CONTINUOUS
 62
   130
 10
-35.8430680847777
 20
-23.5635528564453
 30
0.0
 11
-35.8430679321244
 21
-24.5639820098877
 31
0.0
  0
LINE
  5
   779
  8
0
  6
CONTINUOUS
 62
   130
 10
-35.5930771636255
 20
-23.5635528564453
 30
0.0
 11
-35.5930773162847
 21
-24.5640205950766
 31
0.0
  0
LINE
  5
   77A
  8
0
  6
CONTINUOUS
 62
   130
 10
-36.4930702971725
 20
-23.5635528564453
 30
0.0
 11
-36.4930704498317
 21
-24.5640205950766
 31
0.0
  0
LINE
  5
   77B
  8
0
  6
CONTINUOUS
 62
   130
 10
-36.7430612183247
 20
-23.5635528564453
 30
0.0
 11
-36.7430610656714
 21
-24.5639820098877
 31
0.0
  0
LINE
  5
   77C
  8
0
  6
CONTINUOUS
 62
   130
 10
-37.3930634307195
 20
-23.5635528564453
 30
0.0
 11
-37.3930635833787
 21
-24.5640205950766
 31
0.0
  0
LINE
  5
   77D
  8
0
  6
CONTINUOUS
 62
   130
 10
-37.6430543518717
 20
-23.5635528564453
 30
0.0
 11
-37.6430541992184
 21
-24.5639820098877
 31
0.0
  0
LINE
  5
   77E
  8
0
  6
CONTINUOUS
 62
   130
 10
-38.2930565642665
 20
-23.5635528564453
 30
0.0
 11
-38.2930567169257
 21
-24.5640205950766
 31
0.0
  0
LINE
  5
   77F
  8
0
  6
CONTINUOUS
 62
   130
 10
-38.5430474854187
 20
-23.5635528564453
 30
0.0
 11
-38.5430473327654
 21
-24.5639820098877
 31
0.0
  0
LINE
  5
   780
  8
0
  6
CONTINUOUS
 62
   130
 10
-39.1930496978135
 20
-23.5635528564453
 30
0.0
 11
-39.1930498504727
 21
-24.5640205950766
 31
0.0
  0
LINE
  5
   781
  8
0
  6
CONTINUOUS
 62
   130
 10
-39.4430406189657
 20
-23.5635528564453
 30
0.0
 11
-39.4430404663124
 21
-24.5639820098877
 31
0.0
  0
LINE
  5
   782
  8
0
  6
CONTINUOUS
 62
   130
 10
-40.0930428313605
 20
-23.5635528564453
 30
0.0
 11
-40.0930429840197
 21
-24.5640205950766
 31
0.0
  0
LINE
  5
   783
  8
0
  6
CONTINUOUS
 62
   130
 10
-40.3430337525127
 20
-23.5635528564453
 30
0.0
 11
-40.3430335998594
 21
-24.5639820098877
 31
0.0
  0
LINE
  5
   784
  8
0
  6
CONTINUOUS
 62
   130
 10
-40.9930359649075
 20
-23.5635528564453
 30
0.0
 11
-40.9930361175667
 21
-24.5640205950766
 31
0.0
  0
LINE
  5
   785
  8
0
  6
CONTINUOUS
 62
   130
 10
-41.2430268860597
 20
-23.5635528564453
 30
0.0
 11
-41.2430267334064
 21
-24.5639820098877
 31
0.0
  0
LINE
  5
   786
  8
0
  6
CONTINUOUS
 62
   130
 10
-41.8930290984545
 20
-23.5635528564453
 30
0.0
 11
-41.8930292511137
 21
-24.5640205950766
 31
0.0
  0
LINE
  5
   787
  8
0
  6
CONTINUOUS
 62
   130
 10
-42.1430200196067
 20
-23.5635528564453
 30
0.0
 11
-42.1430198669534
 21
-24.5639820098877
 31
0.0
  0
LINE
  5
   788
  8
0
  6
CONTINUOUS
 62
   130
 10
-42.7930222320015
 20
-23.5635528564453
 30
0.0
 11
-42.7930223846607
 21
-24.5640205950766
 31
0.0
  0
LINE
  5
   789
  8
0
  6
CONTINUOUS
 62
   130
 10
-43.0430131531537
 20
-23.5635528564453
 30
0.0
 11
-43.0430130005004
 21
-24.5639820098877
 31
0.0
  0
LINE
  5
   78A
  8
0
  6
CONTINUOUS
 62
   130
 10
-43.6930153655485
 20
-23.5635528564453
 30
0.0
 11
-43.6930155182077
 21
-24.5640205950766
 31
0.0
  0
LINE
  5
   78B
  8
0
  6
CONTINUOUS
 62
   130
 10
-43.9430062867007
 20
-23.5635528564453
 30
0.0
 11
-43.9430061340474
 21
-24.5639820098877
 31
0.0
  0
LINE
  5
   78C
  8
0
  6
CONTINUOUS
 62
   130
 10
-44.5930084990955
 20
-23.5635528564453
 30
0.0
 11
-44.5930086517547
 21
-24.5640205950766
 31
0.0
  0
LINE
  5
   78D
  8
0
  6
CONTINUOUS
 62
   130
 10
-44.8429994202477
 20
-23.5635528564453
 30
0.0
 11
-44.8429992675944
 21
-24.5639820098877
 31
0.0
  0
LINE
  5
   78E
  8
0
  6
CONTINUOUS
 62
   130
 10
-45.4930016326425
 20
-23.5635528564453
 30
0.0
 11
-45.4930017853017
 21
-24.5640205950766
 31
0.0
  0
LINE
  5
   78F
  8
0
  6
CONTINUOUS
 62
   130
 10
-45.7429925537947
 20
-23.5635528564453
 30
0.0
 11
-45.7429924011414
 21
-24.5639820098877
 31
0.0
  0
LINE
  5
   790
  8
0
  6
CONTINUOUS
 62
   130
 10
-46.3929947661895
 20
-23.5635528564453
 30
0.0
 11
-46.3929949188487
 21
-24.5640205950766
 31
0.0
  0
LINE
  5
   791
  8
0
  6
CONTINUOUS
 62
   130
 10
-46.6429856873417
 20
-23.5635528564453
 30
0.0
 11
-46.6429855346883
 21
-24.5639820098877
 31
0.0
  0
LINE
  5
   792
  8
0
  6
CONTINUOUS
 62
   130
 10
-47.2929878997365
 20
-23.5635528564453
 30
0.0
 11
-47.2929880523957
 21
-24.5640205950766
 31
0.0
  0
LINE
  5
   793
  8
0
  6
CONTINUOUS
 62
   130
 10
-47.5429788208887
 20
-23.5635528564453
 30
0.0
 11
-47.5429786682353
 21
-24.5639820098877
 31
0.0
  0
LINE
  5
   794
  8
0
  6
CONTINUOUS
 62
   130
 10
-48.1929810332835
 20
-23.5635528564453
 30
0.0
 11
-48.1929811859427
 21
-24.5640205950766
 31
0.0
  0
LINE
  5
   795
  8
0
  6
CONTINUOUS
 62
   130
 10
-48.4429719544357
 20
-23.5635528564453
 30
0.0
 11
-48.4429718017823
 21
-24.5639820098877
 31
0.0
  0
LINE
  5
   796
  8
0
  6
CONTINUOUS
 62
   130
 10
-49.0929741668305
 20
-23.5635528564453
 30
0.0
 11
-49.0929743194897
 21
-24.5640205950766
 31
0.0
  0
LINE
  5
   797
  8
0
  6
CONTINUOUS
 62
   130
 10
-49.3429650879827
 20
-23.5635528564453
 30
0.0
 11
-49.3429649353293
 21
-24.5639820098877
 31
0.0
  0
LINE
  5
   798
  8
0
  6
CONTINUOUS
 62
   130
 10
-49.9929673003775
 20
-23.5635528564453
 30
0.0
 11
-49.9929674530367
 21
-24.5640205950766
 31
0.0
  0
LINE
  5
   799
  8
0
  6
CONTINUOUS
 62
   130
 10
-50.2429582215297
 20
-23.5635528564453
 30
0.0
 11
-50.2429580688763
 21
-24.5639820098877
 31
0.0
  0
LINE
  5
   79A
  8
0
  6
CONTINUOUS
 62
   130
 10
-13.9930840300783
 20
-23.5635528564453
 30
0.0
 11
-13.9930841827385
 21
-24.564027011396
 31
0.0
  0
LINE
  5
   79B
  8
0
  6
CONTINUOUS
 62
   130
 10
-13.9930840300783
 20
-23.5635528564453
 30
0.0
 11
-13.9930841827385
 21
-24.5640269122139
 31
0.0
  0
LINE
  5
   79C
  8
0
  6
CONTINUOUS
 62
   130
 10
-14.2430840300783
 20
-23.5635528564453
 30
0.0
 11
-14.2430841827385
 21
-24.56402683592
 31
0.0
  0
LINE
  5
   79D
  8
0
  6
CONTINUOUS
 62
   130
 10
-14.8930840300783
 20
-23.5635528564453
 30
0.0
 11
-14.8930841827385
 21
-24.5640266375558
 31
0.0
  0
LINE
  5
   79E
  8
0
  6
CONTINUOUS
 62
   130
 10
-15.7930840300783
 20
-23.5635528564453
 30
0.0
 11
-15.7930841827384
 21
-24.5640263628976
 31
0.0
  0
LINE
  5
   79F
  8
0
  6
CONTINUOUS
 62
   130
 10
-15.1430840300783
 20
-23.5635528564453
 30
0.0
 11
-15.1430841827384
 21
-24.5640265612618
 31
0.0
  0
LINE
  5
   7A0
  8
0
  6
CONTINUOUS
 62
   130
 10
-16.6930840300783
 20
-23.5635528564453
 30
0.0
 11
-16.6930841827384
 21
-24.5640260882395
 31
0.0
  0
LINE
  5
   7A1
  8
0
  6
CONTINUOUS
 62
   130
 10
-16.0430840300783
 20
-23.5635528564453
 30
0.0
 11
-16.0430841827384
 21
-24.5640262866037
 31
0.0
  0
LINE
  5
   7A2
  8
0
  6
CONTINUOUS
 62
   130
 10
-17.5930840300783
 20
-23.5635528564453
 30
0.0
 11
-17.5930841827384
 21
-24.5640258135813
 31
0.0
  0
LINE
  5
   7A3
  8
0
  6
CONTINUOUS
 62
   130
 10
-16.9430840300783
 20
-23.5635528564453
 30
0.0
 11
-16.9430841827384
 21
-24.5640260119455
 31
0.0
  0
LINE
  5
   7A4
  8
0
  6
CONTINUOUS
 62
   130
 10
-18.4930840300784
 20
-23.5635528564453
 30
0.0
 11
-18.4930841827384
 21
-24.5640255389232
 31
0.0
  0
LINE
  5
   7A5
  8
0
  6
CONTINUOUS
 62
   130
 10
-17.8430840300784
 20
-23.5635528564453
 30
0.0
 11
-17.8430841827384
 21
-24.5640257372874
 31
0.0
  0
LINE
  5
   7A6
  8
0
  6
CONTINUOUS
 62
   130
 10
-19.3930840300783
 20
-23.5635528564453
 30
0.0
 11
-19.3930841827383
 21
-24.564025264265
 31
0.0
  0
LINE
  5
   7A7
  8
0
  6
CONTINUOUS
 62
   130
 10
-18.7430840300783
 20
-23.5635528564453
 30
0.0
 11
-18.7430841827383
 21
-24.5640254626293
 31
0.0
  0
LINE
  5
   7A8
  8
0
  6
CONTINUOUS
 62
   130
 10
-20.2930840300784
 20
-23.5635528564453
 30
0.0
 11
-20.2930841827383
 21
-24.5640249896069
 31
0.0
  0
LINE
  5
   7A9
  8
0
  6
CONTINUOUS
 62
   130
 10
-19.6430840300784
 20
-23.5635528564453
 30
0.0
 11
-19.6430841827383
 21
-24.5640251879711
 31
0.0
  0
LINE
  5
   7AA
  8
0
  6
CONTINUOUS
 62
   130
 10
-20.5430840300783
 20
-23.5635528564453
 30
0.0
 11
-20.5430841827382
 21
-24.564024913313
 31
0.0
  0
LINE
  5
   7AB
  8
0
  6
CONTINUOUS
 62
   130
 10
-21.1930840300784
 20
-23.5635528564453
 30
0.0
 11
-21.1930841827382
 21
-24.5640247149487
 31
0.0
  0
LINE
  5
   7AC
  8
0
  6
CONTINUOUS
 62
   130
 10
-21.4430840300784
 20
-23.5635528564453
 30
0.0
 11
-21.4430841827382
 21
-24.5640246386548
 31
0.0
  0
LINE
  5
   7AD
  8
0
  6
CONTINUOUS
 62
   130
 10
-22.0930840300784
 20
-23.5635528564453
 30
0.0
 11
-22.0930841827382
 21
-24.5640244402906
 31
0.0
  0
LINE
  5
   7AE
  8
0
  6
CONTINUOUS
 62
   130
 10
-22.3430840300784
 20
-23.5635528564453
 30
0.0
 11
-22.3430841827382
 21
-24.5640243639967
 31
0.0
  0
LINE
  5
   7AF
  8
0
  6
CONTINUOUS
 62
   130
 10
-22.9930840300784
 20
-23.5635528564453
 30
0.0
 11
-22.9930841827381
 21
-24.5640241656325
 31
0.0
  0
LINE
  5
   7B0
  8
0
  6
CONTINUOUS
 62
   130
 10
-23.2430840300784
 20
-23.5635528564453
 30
0.0
 11
-23.2430841827382
 21
-24.5640240893385
 31
0.0
  0
LINE
  5
   7B1
  8
0
  6
CONTINUOUS
 62
   130
 10
-23.8930840300784
 20
-23.5635528564453
 30
0.0
 11
-23.8930841827381
 21
-24.5640238909743
 31
0.0
  0
LINE
  5
   7B2
  8
0
  6
CONTINUOUS
 62
   130
 10
-24.1430840300784
 20
-23.5635528564453
 30
0.0
 11
-24.1430841827381
 21
-24.5640238146804
 31
0.0
  0
LINE
  5
   7B3
  8
0
  6
CONTINUOUS
 62
   130
 10
-24.7930840300784
 20
-23.5635528564453
 30
0.0
 11
-24.7930841827381
 21
-24.5640236163162
 31
0.0
  0
LINE
  5
   7B4
  8
0
  6
CONTINUOUS
 62
   130
 10
-25.0430840300784
 20
-23.5635528564453
 30
0.0
 11
-25.0430841827381
 21
-24.5640235400222
 31
0.0
  0
LINE
  5
   7B5
  8
0
  6
CONTINUOUS
 62
   130
 10
-25.6930840300784
 20
-23.5635528564453
 30
0.0
 11
-25.6930841827381
 21
-24.564023341658
 31
0.0
  0
LINE
  5
   7B6
  8
0
  6
CONTINUOUS
 62
   130
 10
-25.9430840300784
 20
-23.5635528564453
 30
0.0
 11
-25.943084182738
 21
-24.5640232653641
 31
0.0
  0
LINE
  5
   7B7
  8
0
  6
CONTINUOUS
 62
   130
 10
-26.5930840300784
 20
-23.5635528564453
 30
0.0
 11
-26.593084182738
 21
-24.5640230669999
 31
0.0
  0
LINE
  5
   7B8
  8
0
  6
CONTINUOUS
 62
   130
 10
-26.8430840300784
 20
-23.5635528564453
 30
0.0
 11
-26.843084182738
 21
-24.5640229907059
 31
0.0
  0
LINE
  5
   7B9
  8
0
  6
CONTINUOUS
 62
   130
 10
-27.4930840300784
 20
-23.5635528564453
 30
0.0
 11
-27.493084182738
 21
-24.5640227923417
 31
0.0
  0
LINE
  5
   7BA
  8
0
  6
CONTINUOUS
 62
   130
 10
-27.7430840300784
 20
-23.5635528564453
 30
0.0
 11
-27.743084182738
 21
-24.5640227160478
 31
0.0
  0
LINE
  5
   7BB
  8
0
  6
CONTINUOUS
 62
   130
 10
-28.3930840300784
 20
-23.5635528564453
 30
0.0
 11
-28.3930841827379
 21
-24.5640225176836
 31
0.0
  0
LINE
  5
   7BC
  8
0
  6
CONTINUOUS
 62
   130
 10
-28.6430840300785
 20
-23.5635528564453
 30
0.0
 11
-28.643084182738
 21
-24.5640224413896
 31
0.0
  0
LINE
  5
   7BD
  8
0
  6
CONTINUOUS
 62
   130
 10
-29.2930840300784
 20
-23.5635528564453
 30
0.0
 11
-29.2930841827379
 21
-24.5640222430254
 31
0.0
  0
LINE
  5
   7BE
  8
0
  6
CONTINUOUS
 62
   130
 10
-29.5430840300784
 20
-23.5635528564453
 30
0.0
 11
-29.5430841827379
 21
-24.5640221667315
 31
0.0
  0
LINE
  5
   7BF
  8
0
  6
CONTINUOUS
 62
   130
 10
-30.1930840300784
 20
-23.5635528564453
 30
0.0
 11
-30.1930841827379
 21
-24.5640219683673
 31
0.0
  0
LINE
  5
   7C0
  8
0
  6
CONTINUOUS
 62
   130
 10
-30.4430840300785
 20
-23.5635528564453
 30
0.0
 11
-30.4430841827379
 21
-24.5640218920734
 31
0.0
  0
LINE
  5
   7C1
  8
0
  6
CONTINUOUS
 62
   130
 10
-31.0930840300785
 20
-23.5635528564453
 30
0.0
 11
-31.0930841827379
 21
-24.5640216937091
 31
0.0
  0
LINE
  5
   7C2
  8
0
  6
CONTINUOUS
 62
   130
 10
-31.3430840300785
 20
-23.5635528564453
 30
0.0
 11
-31.3430841827378
 21
-24.5640216174152
 31
0.0
  0
LINE
  5
   7C3
  8
0
  6
CONTINUOUS
 62
   130
 10
-31.9930840300784
 20
-23.5635528564453
 30
0.0
 11
-31.9930841827378
 21
-24.564021419051
 31
0.0
  0
LINE
  5
   7C4
  8
0
  6
CONTINUOUS
 62
   130
 10
-32.2430840300785
 20
-23.5635528564453
 30
0.0
 11
-32.2430841827378
 21
-24.5640213427571
 31
0.0
  0
LINE
  5
   7C5
  8
0
  6
CONTINUOUS
 62
   130
 10
-32.8930840300785
 20
-23.5635528564453
 30
0.0
 11
-32.8930841827378
 21
-24.5640211443928
 31
0.0
  0
LINE
  5
   7C6
  8
0
  6
CONTINUOUS
 62
   130
 10
-33.1430840300785
 20
-23.5635528564453
 30
0.0
 11
-33.1430841827378
 21
-24.5640210680989
 31
0.0
  0
LINE
  5
   7C7
  8
0
  6
CONTINUOUS
 62
   130
 10
-33.7930840300785
 20
-23.5635528564453
 30
0.0
 11
-33.7930841827377
 21
-24.5640208697347
 31
0.0
  0
LINE
  5
   7C8
  8
0
  6
CONTINUOUS
 62
   130
 10
-34.0430840300785
 20
-23.5635528564453
 30
0.0
 11
-34.0430841827378
 21
-24.5640207934408
 31
0.0
  0
LINE
  5
   7C9
  8
0
  6
CONTINUOUS
 62
   130
 10
-34.9430840300786
 20
-23.5635528564453
 30
0.0
 11
-34.9430841827378
 21
-24.5640205187826
 31
0.0
  0
LINE
  5
   7CA
  8
0
  6
CONTINUOUS
 62
   130
 10
-13.3430840300783
 20
-23.5635528564453
 30
0.0
 11
-13.3430841827385
 21
-24.564027011396
 31
0.0
  0
LINE
  5
   7CB
  8
0
  6
CONTINUOUS
 62
   130
 10
-13.0930840300783
 20
-23.5635528564453
 30
0.0
 11
-13.0930841827385
 21
-24.564027011396
 31
0.0
  0
LINE
  5
   7CC
  8
0
  6
CONTINUOUS
 62
   130
 10
-12.4430840300783
 20
-23.5635528564453
 30
0.0
 11
-12.4430841827385
 21
-24.564027011396
 31
0.0
  0
LINE
  5
   7CD
  8
0
  6
CONTINUOUS
 62
   130
 10
-11.5430840300783
 20
-23.5635528564453
 30
0.0
 11
-11.5430841827385
 21
-24.564027011396
 31
0.0
  0
LINE
  5
   7CE
  8
0
  6
CONTINUOUS
 62
   130
 10
-12.1930840300783
 20
-23.5635528564453
 30
0.0
 11
-12.1930841827385
 21
-24.564027011396
 31
0.0
  0
LINE
  5
   7CF
  8
0
  6
CONTINUOUS
 62
   130
 10
-10.6430840300783
 20
-23.5635528564453
 30
0.0
 11
-10.6430841827385
 21
-24.564027011396
 31
0.0
  0
LINE
  5
   7D0
  8
0
  6
CONTINUOUS
 62
   130
 10
-11.2930840300783
 20
-23.5635528564453
 30
0.0
 11
-11.2930841827385
 21
-24.564027011396
 31
0.0
  0
LINE
  5
   7D1
  8
0
  6
CONTINUOUS
 62
   130
 10
-9.74308403007825
 20
-23.5635528564453
 30
0.0
 11
-9.74308418273845
 21
-24.564027011396
 31
0.0
  0
LINE
  5
   7D2
  8
0
  6
CONTINUOUS
 62
   130
 10
-10.3930840300783
 20
-23.5635528564453
 30
0.0
 11
-10.3930841827385
 21
-24.564027011396
 31
0.0
  0
LINE
  5
   7D3
  8
0
  6
CONTINUOUS
 62
   130
 10
-8.84308403007824
 20
-23.5635528564453
 30
0.0
 11
-8.84308418273844
 21
-24.564027011396
 31
0.0
  0
LINE
  5
   7D4
  8
0
  6
CONTINUOUS
 62
   130
 10
-9.49308403007824
 20
-23.5635528564453
 30
0.0
 11
-9.49308418273845
 21
-24.564027011396
 31
0.0
  0
LINE
  5
   7D5
  8
0
  6
CONTINUOUS
 62
   130
 10
-7.94308403007823
 20
-23.5635528564453
 30
0.0
 11
-7.94308418273844
 21
-24.564027011396
 31
0.0
  0
LINE
  5
   7D6
  8
0
  6
CONTINUOUS
 62
   130
 10
-8.59308403007824
 20
-23.5635528564453
 30
0.0
 11
-8.59308418273845
 21
-24.564027011396
 31
0.0
  0
LINE
  5
   7D7
  8
0
  6
CONTINUOUS
 62
   130
 10
-7.04308403007822
 20
-23.5635528564453
 30
0.0
 11
-7.04308418273843
 21
-24.564027011396
 31
0.0
  0
LINE
  5
   7D8
  8
0
  6
CONTINUOUS
 62
   130
 10
-7.69308403007824
 20
-23.5635528564453
 30
0.0
 11
-7.69308418273845
 21
-24.564027011396
 31
0.0
  0
LINE
  5
   7D9
  8
0
  6
CONTINUOUS
 62
   130
 10
-6.79308403007823
 20
-23.5635528564453
 30
0.0
 11
-6.79308418273844
 21
-24.564027011396
 31
0.0
  0
LINE
  5
   7DA
  8
0
  6
CONTINUOUS
 62
   130
 10
-6.14308403007821
 20
-23.5635528564453
 30
0.0
 11
-6.14308418273842
 21
-24.564027011396
 31
0.0
  0
LINE
  5
   7DB
  8
0
  6
CONTINUOUS
 62
   130
 10
-5.8930840300782
 20
-23.5635528564453
 30
0.0
 11
-5.89308418273841
 21
-24.564027011396
 31
0.0
  0
LINE
  5
   7DC
  8
0
  6
CONTINUOUS
 62
   130
 10
-5.24308403007821
 20
-23.5635528564453
 30
0.0
 11
-5.24308418273842
 21
-24.564027011396
 31
0.0
  0
LINE
  5
   7DD
  8
0
  6
CONTINUOUS
 62
   130
 10
-4.99308403007819
 20
-23.5635528564453
 30
0.0
 11
-4.9930841827384
 21
-24.564027011396
 31
0.0
  0
LINE
  5
   7DE
  8
0
  6
CONTINUOUS
 62
   130
 10
-4.3430840300782
 20
-23.5635528564453
 30
0.0
 11
-4.34308418273841
 21
-24.564027011396
 31
0.0
  0
LINE
  5
   7DF
  8
0
  6
CONTINUOUS
 62
   130
 10
-4.09308403007818
 20
-23.5635528564453
 30
0.0
 11
-4.09308418273838
 21
-24.564027011396
 31
0.0
  0
LINE
  5
   7E0
  8
0
  6
CONTINUOUS
 62
   130
 10
-3.4430840300782
 20
-23.5635528564453
 30
0.0
 11
-3.44308418273841
 21
-24.564027011396
 31
0.0
  0
LINE
  5
   7E1
  8
0
  6
CONTINUOUS
 62
   130
 10
-3.19308403007816
 20
-23.5635528564453
 30
0.0
 11
-3.19308418273837
 21
-24.564027011396
 31
0.0
  0
LINE
  5
   7E2
  8
0
  6
CONTINUOUS
 62
   130
 10
-2.54308403007817
 20
-23.5635528564453
 30
0.0
 11
-2.54308418273838
 21
-24.564027011396
 31
0.0
  0
LINE
  5
   7E3
  8
0
  6
CONTINUOUS
 62
   130
 10
-2.29308403007815
 20
-23.5635528564453
 30
0.0
 11
-2.29308418273836
 21
-24.564027011396
 31
0.0
  0
LINE
  5
   7E4
  8
0
  6
CONTINUOUS
 62
   130
 10
-1.64308403007815
 20
-23.5635528564453
 30
0.0
 11
-1.64308418273836
 21
-24.564027011396
 31
0.0
  0
LINE
  5
   7E5
  8
0
  6
CONTINUOUS
 62
   130
 10
-1.39308403007814
 20
-23.5635528564453
 30
0.0
 11
-1.39308418273835
 21
-24.564027011396
 31
0.0
  0
LINE
  5
   7E6
  8
0
  6
CONTINUOUS
 62
   130
 10
-0.743084030078144
 20
-23.5635528564453
 30
0.0
 11
-0.74308418273835
 21
-24.564027011396
 31
0.0
  0
LINE
  5
   7E7
  8
0
  6
CONTINUOUS
 62
   130
 10
-0.493084030078133
 20
-23.5635528564453
 30
0.0
 11
-0.493084182738341
 21
-24.564027011396
 31
0.0
  0
LINE
  5
   7E8
  8
0
  6
CONTINUOUS
 62
   130
 10
0.156915969921855
 20
-23.5635528564453
 30
0.0
 11
0.156915817261645
 21
-24.564027011396
 31
0.0
  0
LINE
  5
   7E9
  8
0
  6
CONTINUOUS
 62
   130
 10
0.406915969921878
 20
-23.5635528564453
 30
0.0
 11
0.406915817261668
 21
-24.564027011396
 31
0.0
  0
LINE
  5
   7EA
  8
0
  6
CONTINUOUS
 62
   130
 10
1.05691596992186
 20
-23.5635528564453
 30
0.0
 11
1.05691581726165
 21
-24.564027011396
 31
0.0
  0
LINE
  5
   7EB
  8
0
  6
CONTINUOUS
 62
   130
 10
1.30691596992189
 20
-23.5635528564453
 30
0.0
 11
1.30691581726168
 21
-24.564027011396
 31
0.0
  0
LINE
  5
   7EC
  8
0
  6
CONTINUOUS
 62
   130
 10
1.95691596992187
 20
-23.5635528564453
 30
0.0
 11
1.95691581726166
 21
-24.564027011396
 31
0.0
  0
LINE
  5
   7ED
  8
0
  6
CONTINUOUS
 62
   130
 10
2.2069159699219
 20
-23.5635528564453
 30
0.0
 11
2.20691581726169
 21
-24.564027011396
 31
0.0
  0
LINE
  5
   7EE
  8
0
  6
CONTINUOUS
 62
   130
 10
2.85691596992189
 20
-23.5635528564453
 30
0.0
 11
2.85691581726168
 21
-24.564027011396
 31
0.0
  0
LINE
  5
   7EF
  8
0
  6
CONTINUOUS
 62
   130
 10
3.1069159699219
 20
-23.5635528564453
 30
0.0
 11
3.1069158172617
 21
-24.564027011396
 31
0.0
  0
LINE
  5
   7F0
  8
0
  6
CONTINUOUS
 62
   130
 10
3.7569159699219
 20
-23.5635528564453
 30
0.0
 11
3.75691581726169
 21
-24.564027011396
 31
0.0
  0
LINE
  5
   7F1
  8
0
  6
CONTINUOUS
 62
   130
 10
4.00691596992191
 20
-23.5635528564453
 30
0.0
 11
4.0069158172617
 21
-24.564027011396
 31
0.0
  0
LINE
  5
   7F2
  8
0
  6
CONTINUOUS
 62
   130
 10
4.65691596992191
 20
-23.5635528564453
 30
0.0
 11
4.6569158172617
 21
-24.564027011396
 31
0.0
  0
LINE
  5
   7F3
  8
0
  6
CONTINUOUS
 62
   130
 10
4.90691596992192
 20
-23.5635528564453
 30
0.0
 11
4.90691581726171
 21
-24.564027011396
 31
0.0
  0
LINE
  5
   7F4
  8
0
  6
CONTINUOUS
 62
   130
 10
5.55691596992191
 20
-23.5635528564453
 30
0.0
 11
5.55691581726171
 21
-24.564027011396
 31
0.0
  0
LINE
  5
   7F5
  8
0
  6
CONTINUOUS
 62
   130
 10
5.80691596992193
 20
-23.5635528564453
 30
0.0
 11
5.80691581726172
 21
-24.564027011396
 31
0.0
  0
LINE
  5
   7F6
  8
0
  6
CONTINUOUS
 62
   130
 10
6.45691596992192
 20
-23.5635528564453
 30
0.0
 11
6.45691581726171
 21
-24.564027011396
 31
0.0
  0
LINE
  5
   7F7
  8
0
  6
CONTINUOUS
 62
   130
 10
6.70691596992194
 20
-23.5635528564453
 30
0.0
 11
6.70691581726173
 21
-24.564027011396
 31
0.0
  0
LINE
  5
   7F8
  8
0
  6
CONTINUOUS
 62
   130
 10
7.35691596992193
 20
-23.5635528564453
 30
0.0
 11
7.35691581726172
 21
-24.564027011396
 31
0.0
  0
LINE
  5
   7F9
  8
0
  6
CONTINUOUS
 62
   130
 10
7.60691596992195
 20
-23.5635528564453
 30
0.0
 11
7.60691581726174
 21
-24.564027011396
 31
0.0
  0
LINE
  5
   7FA
  8
0
  6
CONTINUOUS
 62
   130
 10
-13.3430840300783
 20
-23.5635528564453
 30
0.0
 11
-13.3430841827385
 21
-24.5640271105781
 31
0.0
  0
LINE
  5
   7FB
  8
0
  6
CONTINUOUS
 62
   130
 10
8.83190284734643
 20
-23.5635528564453
 30
0.0
 11
8.831901245109
 21
-34.0639782714844
 31
0.0
  0
INSERT
  5
   7FC
  8
0
  6
CONTINUOUS
 62
     3
  2
*UDIM162
 10
0.0
 20
0.0
 30
0.0
  0
INSERT
  5
   7FD
  8
0
  6
CONTINUOUS
 62
     3
  2
*UDIM163
 10
0.0
 20
0.0
 30
0.0
  0
INSERT
  5
   7FE
  8
0
  6
CONTINUOUS
 62
     3
  2
*UDIM164
 10
0.0
 20
0.0
 30
0.0
  0
INSERT
  5
   7FF
  8
0
  6
CONTINUOUS
 62
     3
  2
*UDIM165
 10
0.0
 20
0.0
 30
0.0
  0
INSERT
  5
   800
  8
0
  6
CONTINUOUS
 62
     3
  2
*UDIM166
 10
0.0
 20
0.0
 30
0.0
  0
INSERT
  5
   801
  8
0
  6
CONTINUOUS
 62
     3
  2
*UDIM167
 10
0.0
 20
0.0
 30
0.0
  0
TEXT
  5
   802
  8
0
  6
CONTINUOUS
 62
     2
 10
-59.616796765825
 20
-0.926856160555452
 30
0.0
 40
3.00000002980232
  1
X
 50
359.999999844103
 41
0.983333351877
 72
     2
 11
-57.4167966842651
 21
0.573143848370761
 31
0.0
 73
     2
  0
TEXT
  5
   803
  8
0
  6
CONTINUOUS
 62
     2
 10
-13.5327456336229
 20
53.5258685346502
 30
0.0
 40
3.00000002980232
  1
Y
 50
359.999999844103
 41
0.983333351877
 72
     2
 11
-11.332745552063
 21
55.0258685435765
 31
0.0
 73
     2
  0
TEXT
  5
   804
  8
0
  6
CONTINUOUS
 62
     2
 10
-13.8294909339158
 20
-46.1804836992365
 30
0.0
 40
3.00000002980232
  1
Y
 50
359.999999844103
 41
0.983333351877
 72
     2
 11
-11.629490852356
 21
-44.6804836903103
 31
0.0
 73
     2
  0
ARC
  5
   805
  8
0
  6
CONTINUOUS
 62
     2
 10
1.33192504884203
 20
-23.0639293789848
 30
0.0
 40
1.0
 50
569.975092438295
 51
690.024907249912
  0
LINE
  5
   806
  8
0
  6
CONTINUOUS
 62
     2
 10
1.00907826667821
 20
-23.5635528564453
 30
0.0
 11
0.718752636470246
 21
-23.8538784866533
 31
0.0
  0
LINE
  5
   807
  8
0
  6
CONTINUOUS
 62
     2
 10
0.655524876084932
 20
-23.5635528564453
 30
0.0
 11
0.541975941173593
 21
-23.6771017913566
 31
0.0
  0
LINE
  5
   808
  8
0
  6
DASHDOT
 62
     2
 10
-43.668074951158
 20
40.9360706210152
 30
0.0
 11
-43.668074951158
 21
30.9360706210152
 31
0.0
  0
LINE
  5
   809
  8
0
  6
DASHDOT
 62
     2
 10
-48.668074951158
 20
35.9360706210152
 30
0.0
 11
-38.668074951158
 21
35.9360706210152
 31
0.0
  0
CIRCLE
  5
   80A
  8
0
  6
CONTINUOUS
 62
     2
 10
-43.668074951158
 20
35.9360706210152
 30
0.0
 40
1.0
  0
LINE
  5
   80B
  8
0
  6
CONTINUOUS
 62
     2
 10
-42.8781258434895
 20
36.5492430333869
 30
0.0
 11
-44.2812473635298
 21
35.1461215133467
 31
0.0
  0
LINE
  5
   80C
  8
0
  6
CONTINUOUS
 62
     2
 10
-43.0549025387862
 20
36.7260197286836
 30
0.0
 11
-44.4580240588264
 21
35.3228982086434
 31
0.0
  0
ARC
  5
   80D
  8
0
  6
CONTINUOUS
 62
     2
 10
-43.668074951158
 20
-23.0639293789848
 30
0.0
 40
1.0
 50
569.975092438291
 51
690.024907249915
  0
LINE
  5
   80E
  8
0
  6
CONTINUOUS
 62
     2
 10
-43.9909217333218
 20
-23.5635528564453
 30
0.0
 11
-44.2812473635298
 21
-23.8538784866533
 31
0.0
  0
LINE
  5
   80F
  8
0
  6
CONTINUOUS
 62
     2
 10
-44.3444751239151
 20
-23.5635528564453
 30
0.0
 11
-44.4580240588264
 21
-23.6771017913566
 31
0.0
  0
LINE
  5
   810
  8
0
  6
DASHDOT
 62
   130
 10
212.888809847028
 20
0.436033248901367
 30
0.0
 11
287.523575453875
 21
0.436033248901367
 31
0.0
  0
LINE
  5
   811
  8
0
  6
DASHDOT
 62
   130
 10
259.193878173828
 20
19.2786998646765
 30
0.0
 11
259.193878173828
 21
-18.4795241095918
 31
0.0
  0
CIRCLE
  5
   812
  8
0
  6
CONTINUOUS
 62
   130
 10
283.168878173828
 20
16.4360332489014
 30
0.0
 40
1.0
  0
CIRCLE
  5
   813
  8
0
  6
CONTINUOUS
 62
   130
 10
220.418878173828
 20
16.4360332489014
 30
0.0
 40
1.0
  0
CIRCLE
  5
   814
  8
0
  6
CONTINUOUS
 62
   130
 10
220.418878173828
 20
-15.5639667510986
 30
0.0
 40
1.0
  0
CIRCLE
  5
   815
  8
0
  6
CONTINUOUS
 62
   130
 10
283.168878173828
 20
-15.5639667510986
 30
0.0
 40
1.0
  0
LINE
  5
   816
  8
0
  6
CONTINUOUS
 62
   130
 10
283.693878173828
 20
12.9360332489014
 30
0.0
 11
283.693878173828
 21
-12.0639667510986
 31
0.0
  0
LINE
  5
   817
  8
0
  6
CONTINUOUS
 62
   130
 10
219.693878173828
 20
12.9360332489014
 30
0.0
 11
219.693878173828
 21
-12.0639667510986
 31
0.0
  0
LINE
  5
   818
  8
0
  6
CONTINUOUS
 62
   130
 10
220.443878173828
 20
13.6860332489014
 30
0.0
 11
282.943878173828
 21
13.6860332489014
 31
0.0
  0
LINE
  5
   819
  8
0
  6
CONTINUOUS
 62
   130
 10
220.443878173828
 20
-12.8139667510986
 30
0.0
 11
282.943878173828
 21
-12.8139667510986
 31
0.0
  0
ARC
  5
   81A
  8
0
  6
CONTINUOUS
 62
   130
 10
282.943878173828
 20
12.9360332489014
 30
0.0
 40
0.75
 50
359.999999844103
 51
449.999999844103
  0
ARC
  5
   81B
  8
0
  6
CONTINUOUS
 62
   130
 10
282.943878173828
 20
-12.0639667510986
 30
0.0
 40
0.75
 50
269.999999844103
 51
359.999999844103
  0
ARC
  5
   81C
  8
0
  6
CONTINUOUS
 62
   130
 10
220.443878173828
 20
-12.0639667510986
 30
0.0
 40
0.75
 50
539.999999844103
 51
629.999999844103
  0
ARC
  5
   81D
  8
0
  6
CONTINUOUS
 62
   130
 10
220.443878173828
 20
12.9360332489014
 30
0.0
 40
0.75
 50
449.999999844103
 51
539.999999844103
  0
LINE
  5
   81E
  8
0
  6
CONTINUOUS
 62
   130
 10
216.547082688718
 20
20.3270786029943
 30
0.0
 11
285.740683623507
 21
20.3270786029943
 31
0.0
  0
LINE
  5
   81F
  8
0
  6
CONTINUOUS
 62
   130
 10
216.547082688718
 20
-19.5064584115742
 30
0.0
 11
285.740683623507
 21
-19.5064584115742
 31
0.0
  0
LINE
  5
   820
  8
0
  6
CONTINUOUS
 62
   130
 10
216.547082688718
 20
20.3270786029943
 30
0.0
 11
216.547082688718
 21
-19.5064584115742
 31
0.0
  0
LINE
  5
   821
  8
0
  6
CONTINUOUS
 62
   130
 10
285.740683623507
 20
20.3270786029943
 30
0.0
 11
285.740683623507
 21
-19.5064584115742
 31
0.0
  0
TEXT
  5
   822
  8
0
  6
CONTINUOUS
 62
     2
 10
208.91473849897
 20
-1.02494147319917
 30
0.0
 40
3.00000002980232
  1
X
 50
359.999999844103
 41
0.983333351877
 72
     2
 11
211.11473858053
 21
0.475058535727039
 31
0.0
 73
     2
  0
INSERT
  5
   823
  8
0
  6
CONTINUOUS
 62
     3
  2
*UDIM168
 10
0.0
 20
0.0
 30
0.0
  0
INSERT
  5
   824
  8
0
  6
CONTINUOUS
 62
     3
  2
*UDIM169
 10
0.0
 20
0.0
 30
0.0
  0
LINE
  5
   825
  8
0
  6
DASHDOT
 62
     2
 10
283.168878173828
 20
20.9360332489014
 30
0.0
 11
283.168878173828
 21
11.9360332489014
 31
0.0
  0
LINE
  5
   826
  8
0
  6
DASHDOT
 62
     2
 10
278.668878173828
 20
16.4360332489014
 30
0.0
 11
287.668878173828
 21
16.4360332489014
 31
0.0
  0
LINE
  5
   827
  8
0
  6
DASHDOT
 62
     2
 10
220.418878173828
 20
20.9360332489014
 30
0.0
 11
220.418878173828
 21
11.9360332489014
 31
0.0
  0
LINE
  5
   828
  8
0
  6
DASHDOT
 62
     2
 10
215.918878173828
 20
16.4360332489014
 30
0.0
 11
224.918878173828
 21
16.4360332489014
 31
0.0
  0
LINE
  5
   829
  8
0
  6
DASHDOT
 62
     2
 10
220.418878173828
 20
-11.0639667510986
 30
0.0
 11
220.418878173828
 21
-20.0639667510986
 31
0.0
  0
LINE
  5
   82A
  8
0
  6
DASHDOT
 62
     2
 10
215.918878173828
 20
-15.5639667510986
 30
0.0
 11
224.918878173828
 21
-15.5639667510986
 31
0.0
  0
LINE
  5
   82B
  8
0
  6
DASHDOT
 62
     2
 10
283.168878173828
 20
-11.0639667510986
 30
0.0
 11
283.168878173828
 21
-20.0639667510986
 31
0.0
  0
LINE
  5
   82C
  8
0
  6
DASHDOT
 62
     2
 10
278.668878173828
 20
-15.5639667510986
 30
0.0
 11
287.668878173828
 21
-15.5639667510986
 31
0.0
  0
INSERT
  5
   82D
  8
0
  6
CONTINUOUS
 62
     3
  2
*UDIM170
 10
0.0
 20
0.0
 30
0.0
  0
TEXT
  5
   82E
  8
0
  6
CONTINUOUS
 62
     2
 10
258.038435212661
 20
-31.1163691217513
 30
0.0
 40
3.00000002980232
  1
Y
 50
359.999999844103
 41
0.983333351877
 72
     1
 11
259.138435259552
 21
-28.1163690949364
 31
0.0
 73
     3
  0
INSERT
  5
   82F
  8
0
  6
CONTINUOUS
 62
     3
  2
*UDIM171
 10
0.0
 20
0.0
 30
0.0
  0
INSERT
  5
   830
  8
0
  6
CONTINUOUS
 62
     3
  2
*UDIM172
 10
0.0
 20
0.0
 30
0.0
  0
TEXT
  5
   831
  8
0
  6
CONTINUOUS
 62
     2
 10
287.606090392429
 20
-1.18997132348962
 30
0.0
 40
3.00000002980232
  1
X
 50
359.999999844103
 41
0.983333351877
 11
287.606090396503
 21
0.310028691411545
 31
0.0
 73
     2
  0
TEXT
  5
   832
  8
0
  6
CONTINUOUS
 62
     2
 10
258.120950024155
 20
32.5733712107998
 30
0.0
 40
3.00000002980232
  1
Y
 50
359.999999844103
 41
0.983333351877
 72
     1
 11
259.220950062898
 21
32.5733712078123
 31
0.0
  0
INSERT
  5
   833
  8
0
  6
CONTINUOUS
 62
     3
  2
*UDIM173
 10
0.0
 20
0.0
 30
0.0
  0
INSERT
  5
   834
  8
0
  6
CONTINUOUS
 62
     3
  2
*UDIM174
 10
0.0
 20
0.0
 30
0.0
  0
INSERT
  5
   835
  8
0
  6
CONTINUOUS
 62
     7
  2
*UDIM175
 10
0.0
 20
0.0
 30
0.0
  0
ENDSEC
  0
EOF
