  0
SECTION
  2
HEADER
  9
$ACADVER
  1
AC1009
  9
$INSBASE
 10
0.0
 20
0.0
 30
0.0
  9
$EXTMIN
 10
-306.42600179999999
 20
369.51195119685019
 30
0.0
  9
$EXTMAX
 10
899.88213299999995
 20
805.35389700000007
 30
0.0
  9
$LIMMIN
 10
0.0
 20
0.0
  9
$LIMMAX
 10
420.0
 20
297.0
  9
$ORTHOMODE
 70
     0
  9
$REGENMODE
 70
     1
  9
$FILLMODE
 70
     1
  9
$QTEXTMODE
 70
     0
  9
$MIRRTEXT
 70
     1
  9
$DRAGMODE
 70
     2
  9
$LTSCALE
 40
1.0
  9
$OSMODE
 70
    47
  9
$ATTMODE
 70
     1
  9
$TEXTSIZE
 40
0.0
  9
$TRACEWID
 40
1.0
  9
$TEXTSTYLE
  7
STANDARD
  9
$CLAYER
  8
0
  9
$CELTYPE
  6
BYLAYER
  9
$CECOLOR
 62
   256
  9
$DIMSCALE
 40
1.0
  9
$DIMASZ
 40
2.5
  9
$DIMEXO
 40
0.625
  9
$DIMDLI
 40
3.75
  9
$DIMRND
 40
0.0
  9
$DIMDLE
 40
0.0
  9
$DIMEXE
 40
1.25
  9
$DIMTP
 40
0.0
  9
$DIMTM
 40
0.0
  9
$DIMTXT
 40
2.5
  9
$DIMCEN
 40
2.5
  9
$DIMTSZ
 40
0.0
  9
$DIMTOL
 70
     0
  9
$DIMLIM
 70
     0
  9
$DIMTIH
 70
     0
  9
$DIMTOH
 70
     0
  9
$DIMSE1
 70
     0
  9
$DIMSE2
 70
     0
  9
$DIMTAD
 70
     1
  9
$DIMZIN
 70
     8
  9
$DIMBLK
  1

  9
$DIMASO
 70
     1
  9
$DIMSHO
 70
     1
  9
$DIMPOST
  1

  9
$DIMAPOST
  1

  9
$DIMALT
 70
     0
  9
$DIMALTD
 70
     3
  9
$DIMALTF
 40
0.03937
  9
$DIMLFAC
 40
1.0
  9
$DIMTOFL
 70
     1
  9
$DIMTVP
 40
0.0
  9
$DIMTIX
 70
     0
  9
$DIMSOXD
 70
     0
  9
$DIMSAH
 70
     0
  9
$DIMBLK1
  1

  9
$DIMBLK2
  1

  9
$DIMSTYLE
  2
STANDARD
  9
$DIMCLRD
 70
     0
  9
$DIMCLRE
 70
     0
  9
$DIMCLRT
 70
     0
  9
$DIMTFAC
 40
1.0
  9
$DIMGAP
 40
0.625
  9
$LUNITS
 70
     2
  9
$LUPREC
 70
     4
  9
$SKETCHINC
 40
1.0
  9
$FILLETRAD
 40
2.5
  9
$AUNITS
 70
     0
  9
$AUPREC
 70
     0
  9
$MENU
  1
.
  9
$ELEVATION
 40
0.0
  9
$PELEVATION
 40
0.0
  9
$THICKNESS
 40
0.0
  9
$LIMCHECK
 70
     0
  9
$BLIPMODE
 70
     0
  9
$CHAMFERA
 40
2.5
  9
$CHAMFERB
 40
2.5
  9
$SKPOLY
 70
     0
  9
$TDCREATE
 40
2311942.6599061568
  9
$TDUPDATE
 40
2454455.395193066
  9
$TDINDWG
 40
0.0003741319
  9
$TDUSRTIMER
 40
0.0003741319
  9
$USRTIMER
 70
     1
  9
$ANGBASE
 50
0.0
  9
$ANGDIR
 70
     0
  9
$PDMODE
 70
     0
  9
$PDSIZE
 40
0.0
  9
$PLINEWID
 40
0.0
  9
$COORDS
 70
     1
  9
$SPLFRAME
 70
     0
  9
$SPLINETYPE
 70
     6
  9
$SPLINESEGS
 70
     8
  9
$ATTDIA
 70
     0
  9
$ATTREQ
 70
     1
  9
$HANDLING
 70
 22529
  9
$HANDSEED
  5
D50
  9
$SURFTAB1
 70
     6
  9
$SURFTAB2
 70
     6
  9
$SURFTYPE
 70
     6
  9
$SURFU
 70
     6
  9
$SURFV
 70
     6
  9
$UCSNAME
  2

  9
$UCSORG
 10
0.0
 20
0.0
 30
0.0
  9
$UCSXDIR
 10
1.0
 20
0.0
 30
0.0
  9
$UCSYDIR
 10
0.0
 20
1.0
 30
0.0
  9
$PUCSNAME
  2

  9
$PUCSORG
 10
0.0
 20
0.0
 30
0.0
  9
$PUCSXDIR
 10
1.0
 20
0.0
 30
0.0
  9
$PUCSYDIR
 10
0.0
 20
1.0
 30
0.0
  9
$USERI1
 70
     0
  9
$USERI2
 70
     0
  9
$USERI3
 70
     0
  9
$USERI4
 70
     0
  9
$USERI5
 70
     0
  9
$USERR1
 40
0.0
  9
$USERR2
 40
0.0
  9
$USERR3
 40
0.0
  9
$USERR4
 40
0.0
  9
$USERR5
 40
0.0
  9
$WORLDVIEW
 70
     1
  9
$SHADEDGE
 70
     3
  9
$SHADEDIF
 70
    70
  9
$TILEMODE
 70
     1
  9
$MAXACTVP
 70
    48
  9
$PLIMCHECK
 70
     0
  9
$PEXTMIN
 10
0.0
 20
0.0
 30
0.0
  9
$PEXTMAX
 10
291.86962899999997
 20
230.77697800000001
 30
2.0
  9
$PLIMMIN
 10
0.0
 20
0.0
  9
$PLIMMAX
 10
420.0
 20
297.0
  9
$UNITMODE
 70
     0
  9
$VISRETAIN
 70
     0
  9
$PLINEGEN
 70
     0
  9
$PSLTSCALE
 70
     1
  0
ENDSEC
  0
SECTION
  2
TABLES
  0
TABLE
  2
VPORT
 70
     2
  0
VPORT
  2
*ACTIVE
 70
     0
 10
0.0
 20
0.0
 11
1.0
 21
1.0
 12
296.72806559999992
 22
587.43292409842502
 13
0.0
 23
0.0
 14
1.0
 24
1.0
 15
0.0
 25
0.0
 16
0.0
 26
0.0
 36
1.0
 17
0.0
 27
0.0
 37
0.0
 40
781.85992423979587
 41
1.550724637681159
 42
50.0
 43
0.0
 44
0.0
 50
0.0
 51
0.0
 71
     0
 72
   100
 73
     1
 74
     1
 75
     0
 76
     0
 77
     0
 78
     0
  0
ENDTAB
  0
TABLE
  2
LTYPE
 70
     8
  0
LTYPE
  2
CONTINUOUS
 70
     0
  3
Solid line
 72
    65
 73
     0
 40
0.0
  0
LTYPE
  2
DASHED
 70
     0
  3
__ __ __ __ __ __ __ __ __ __ __ __ __ __ __ __
 72
    65
 73
     2
 40
15.0
 49
12.0
 49
-3.0
  0
LTYPE
  2
DASHDOT
 70
     0
  3
 __ . __ . __ . __ . __ . __ . __ . 
 72
    65
 73
     4
 40
18.5
 49
12.0
 49
-3.0
 49
0.5
 49
-3.0
  0
LTYPE
  2
DOT
 70
     0
  3
 . . . . . . . . . . . . . . . .
 72
    65
 73
     2
 40
3.5
 49
0.5
 49
-3.0
  0
LTYPE
  2
DASHSPACE
 70
     0
  3
__    __    __    __    __   
 72
    65
 73
     2
 40
30.0
 49
12.0
 49
-18.0
  0
LTYPE
  2
DASHDOT2
 70
     0
  3
__ . . __ . . __ . . __ 
 72
    65
 73
     6
 40
22.0
 49
12.0
 49
-3.0
 49
0.5
 49
-3.0
 49
0.5
 49
-3.0
  0
LTYPE
  2
PHANTOM
 70
     0
  3
____________    ____    ____   _
 72
    65
 73
     6
 40
20.0
 49
10.0
 49
-2.0
 49
2.0
 49
-2.0
 49
2.0
 49
-2.0
  0
LTYPE
  2
AXES
 70
     0
  3
________  __  ________  __  _____
 72
    65
 73
     4
 40
24.0
 49
15.0
 49
-3.0
 49
3.0
 49
-3.0
  0
ENDTAB
  0
TABLE
  2
LAYER
 70
     1
  0
LAYER
  2
0
 70
     0
 62
     7
  6
CONTINUOUS
  0
ENDTAB
  0
TABLE
  2
STYLE
 70
     2
  0
STYLE
  2
STANDARD
 70
     0
 40
0.0
 41
1.0
 50
0.0
 71
     0
 42
0.0
  3
isocp.shx
  4

  0
STYLE
  2
GDT
 70
     0
 40
0.0
 41
1.0
 50
0.0
 71
     0
 42
0.0
  3
amgdt.shx
  4

  0
ENDTAB
  0
TABLE
  2
VIEW
 70
     0
  0
ENDTAB
  0
TABLE
  2
UCS
 70
     0
  0
ENDTAB
  0
TABLE
  2
APPID
 70
     1
  0
APPID
  2
ACAD
 70
     0
  0
ENDTAB
  0
TABLE
  2
DIMSTYLE
 70
     1
  0
DIMSTYLE
  2
STANDARD
 70
     0
  3

  4

  5

  6

  7

 40
1.0
 41
2.5
 42
0.625
 43
3.75
 44
1.25
 45
0.0
 46
0.0
 47
0.0
 48
0.0
140
2.5
141
2.5
142
0.0
143
0.03937
144
1.0
145
0.0
146
1.0
147
0.625
 71
     0
 72
     0
 73
     0
 74
     0
 75
     0
 76
     0
 77
     1
 78
     8
170
     0
171
     3
172
     1
173
     0
174
     0
175
     0
176
     0
177
     0
178
     0
  0
ENDTAB
  0
ENDSEC
  0
SECTION
  2
BLOCKS
  0
BLOCK
  8
0
  2
$MODEL_SPACE
 70
     0
 10
0.0
 20
0.0
 30
0.0
  3
$MODEL_SPACE
  1

  0
ENDBLK
  5
E
  8
0
  0
BLOCK
 67
     1
  8
0
  2
$PAPER_SPACE
 70
     0
 10
0.0
 20
0.0
 30
0.0
  3
$PAPER_SPACE
  1

  0
ENDBLK
  5
10
 67
     1
  8
0
  0
BLOCK
  8
0
  2
BLOCK0
 70
     0
 10
0.0
 20
0.0
 30
0.0
  3
BLOCK0
  1

  0
TEXT
  5
7C4
  8
0
 62
     1
 10
-489.0
 20
-42.0
 30
0.0
 40
3.0
  1
Ts3
 50
180.0
 41
1.2257674620974599
 72
     5
 11
-496.69998199999998
 21
-42.0
 31
0.0
  0
ENDBLK
  5
7C5
  8
0
  0
BLOCK
  8
0
  2
BLOCK1
 70
     0
 10
0.0
 20
0.0
 30
0.0
  3
BLOCK1
  1

  0
TEXT
  5
7C7
  8
0
 62
     1
 10
-435.15212999999989
 20
-41.0
 30
0.0
 40
2.0
  1
N0204 2007-09-17
 50
180.0
 41
1.1017693073406229
 72
     5
 11
-458.84787
 21
-41.0
 31
0.0
  0
ENDBLK
  5
7C8
  8
0
  0
BLOCK
  8
0
  2
BLOCK2
 70
     0
 10
0.0
 20
0.0
 30
0.0
  3
BLOCK2
  1

  0
TEXT
  5
7CA
  8
0
 62
     1
 10
-471.0
 20
-31.0
 30
0.0
 40
4.0
  1
1SDH000637R0.120
 50
180.0
 41
1.391043093002623
 72
     5
 11
-530.26281700000004
 21
-31.0
 31
0.0
  0
ENDBLK
  5
7CB
  8
0
  0
BLOCK
  8
0
  2
BLOCK3
 70
     0
 10
0.0
 20
0.0
 30
0.0
  3
BLOCK3
  1

  0
TEXT
  5
7CD
  8
0
 62
     1
 10
-468.0
 20
-56.0
 30
0.0
 40
2.0
  1
INTERR.AUTOMATICO SERIE ISOMAX
 50
179.99999487194501
 41
1.0769160722891591
 72
     5
 11
-512.69201699999985
 21
-55.999996000000003
 31
0.0
  0
ENDBLK
  5
7CE
  8
0
  0
BLOCK
  8
0
  2
BLOCK4
 70
     0
 10
0.0
 20
0.0
 30
0.0
  3
BLOCK4
  1

  0
TEXT
  5
7D0
  8
0
 62
     1
 10
-455.0
 20
-53.0
 30
0.0
 40
2.0
  1
TRIPOL.ESECUZIONE RIMOVIBILE TERMINALI PER CAVI
 50
179.99999346939779
 41
1.1375597893030871
 72
     5
 11
-525.18743899999993
 21
-52.999992000000013
 31
0.0
  0
ENDBLK
  5
7D1
  8
0
  0
BLOCK
  8
0
  2
BLOCK5
 70
     0
 10
0.0
 20
0.0
 30
0.0
  3
BLOCK5
  1

  0
TEXT
  5
7D3
  8
0
 62
     1
 10
-465.0
 20
-63.999996000000003
 30
0.0
 40
2.0
  1
3POLE LOW VOLTAGE M.C.C.B SERIES ISOMAX
 50
179.99999606144021
 41
1.0999919659735371
 72
     5
 11
-523.18957499999988
 21
-63.999991999999999
 31
0.0
  0
ENDBLK
  5
7D4
  8
0
  0
BLOCK
  8
0
  2
BLOCK6
 70
     0
 10
0.0
 20
0.0
 30
0.0
  3
BLOCK6
  1

  0
TEXT
  5
7D6
  8
0
 62
     1
 10
-471.0
 20
-61.0
 30
0.0
 40
2.0
  1
PLUG-IN VERSION CABLE TERMINALS
 50
179.9999950384362
 41
1.0697673306271649
 72
     5
 11
-517.19171100000005
 21
-60.999996000000003
 31
0.0
  0
ENDBLK
  5
7D7
  8
0
  0
BLOCK
  8
0
  2
BLOCK7
 70
     0
 10
0.0
 20
0.0
 30
0.0
  3
BLOCK7
  1

  0
TEXT
  5
7D9
  8
0
 62
     7
 10
-97.0
 20
-1.0
 30
0.0
 40
3.0
  1
X
 50
180.0
 41
0.9777764444444425
 72
     5
 11
-99.199996999999996
 21
-1.0
 31
0.0
  0
ENDBLK
  5
7DA
  8
0
  0
BLOCK
  8
0
  2
BLOCK8
 70
     0
 10
0.0
 20
0.0
 30
0.0
  3
BLOCK8
  1

  0
TEXT
  5
7DC
  8
0
 62
     7
 10
135.0
 20
-5.0
 30
0.0
 40
3.0
  1
X
 50
180.0
 41
0.9777764444444425
 72
     5
 11
132.800003
 21
-5.0
 31
0.0
  0
ENDBLK
  5
7DD
  8
0
  0
BLOCK
  8
0
  2
BLOCK9
 70
     0
 10
0.0
 20
0.0
 30
0.0
  3
BLOCK9
  1

  0
TEXT
  5
7DF
  8
0
 62
     7
 10
5.1354980000000001
 20
-134.9686889999999
 30
0.0
 40
3.0
  1
Y
 50
180.0
 41
0.9777777777777778
 72
     5
 11
2.9354979999999991
 21
-134.9686889999999
 31
0.0
  0
ENDBLK
  5
7E0
  8
0
  0
BLOCK
  8
0
  2
BLOCK10
 70
     0
 10
0.0
 20
0.0
 30
0.0
  3
BLOCK10
  1

  0
TEXT
  5
7E2
  8
0
 62
     7
 10
2.0
 20
194.0
 30
0.0
 40
3.0
  1
Y
 50
180.0
 41
0.9777777777777778
 72
     5
 11
-0.2
 21
194.0
 31
0.0
  0
ENDBLK
  5
7E3
  8
0
  0
BLOCK
  8
0
  2
BLOCK11
 70
     0
 10
0.0
 20
0.0
 30
0.0
  3
BLOCK11
  1

  0
TEXT
  5
7E5
  8
0
 62
     7
 10
155.99047899999999
 20
91.979613999999998
 30
0.0
 40
3.0
  1
 5
 50
202.64963740432279
 41
1.664276198983822
 72
     5
 11
151.4222409999999
 21
90.073394999999977
 31
0.0
  0
ENDBLK
  5
7E6
  8
0
  0
BLOCK
  8
0
  2
BLOCK12
 70
     0
 10
0.0
 20
0.0
 30
0.0
  3
BLOCK12
  1

  0
TEXT
  5
7E8
  8
0
 62
     7
 10
157.46704099999991
 20
92.595764000000003
 30
0.0
 40
3.0
  1
%%c
 50
202.64971075636271
 41
0.9777805771022492
 72
     5
 11
155.43670700000001
 21
91.748549999999994
 31
0.0
  0
ENDBLK
  5
7E9
  8
0
  0
BLOCK
  8
0
  2
BLOCK13
 70
     0
 10
0.0
 20
0.0
 30
0.0
  3
BLOCK13
  1

  0
TEXT
  5
7EB
  8
0
 62
     7
 10
135.68713399999999
 20
83.507477000000009
 30
0.0
 40
3.0
  1
 (M4)
 50
202.64966485087601
 41
1.6002244716596341
 72
     5
 11
123.505196
 21
78.424231999999975
 31
0.0
  0
ENDBLK
  5
7EC
  8
0
  0
BLOCK
  8
0
  2
BLOCK14
 70
     0
 10
0.0
 20
0.0
 30
0.0
  3
BLOCK14
  1

  0
TEXT
  5
7EE
  8
0
 62
     7
 10
-113.55444299999991
 20
16.5
 30
0.0
 40
3.0
  1
100
 50
269.99994047176273
 41
1.4660032381388619
 72
     5
 11
-113.554451
 21
8.8000199999999982
 31
0.0
  0
ENDBLK
  5
7EF
  8
0
  0
BLOCK
  8
0
  2
BLOCK15
 70
     0
 10
0.0
 20
0.0
 30
0.0
  3
BLOCK15
  1

  0
TEXT
  5
7F1
  8
0
 62
     7
 10
-37.0
 20
134.743469
 30
0.0
 40
3.0
  1
25
 50
180.0
 41
1.2776591662854091
 72
     5
 11
-41.949989000000002
 21
134.743469
 31
0.0
  0
ENDBLK
  5
7F2
  8
0
  0
BLOCK
  8
0
  2
BLOCK16
 70
     0
 10
0.0
 20
0.0
 30
0.0
  3
BLOCK16
  1

  0
TEXT
  5
7F4
  8
0
 62
     7
 10
-12.0
 20
171.426208
 30
0.0
 40
3.0
  1
45
 50
180.0
 41
1.185835136090813
 72
     5
 11
-16.949988999999999
 21
171.426208
 31
0.0
  0
ENDBLK
  5
7F5
  8
0
  0
BLOCK
  8
0
  2
BLOCK17
 70
     0
 10
0.0
 20
0.0
 30
0.0
  3
BLOCK17
  1

  0
TEXT
  5
7F7
  8
0
 62
     7
 10
115.0
 20
-18.0
 30
0.0
 40
3.0
  1
52,25
 50
270.0000347248174
 41
1.446687743865994
 72
     5
 11
115.00000799999999
 21
-31.199960999999991
 31
0.0
  0
ENDBLK
  5
7F8
  8
0
  0
BLOCK
  8
0
  2
BLOCK18
 70
     0
 10
0.0
 20
0.0
 30
0.0
  3
BLOCK18
  1

  0
TEXT
  5
7FA
  8
0
 62
     7
 10
101.73704499999999
 20
-54.130980999999998
 30
0.0
 40
3.0
  1
105
 50
359.99997023588912
 41
1.4327509593041881
 72
     5
 11
109.4370269999999
 21
-54.130985000000003
 31
0.0
  0
ENDBLK
  5
7FB
  8
0
  0
BLOCK
  8
0
  2
BLOCK19
 70
     0
 10
0.0
 20
0.0
 30
0.0
  3
BLOCK19
  1

  0
TEXT
  5
7FD
  8
0
 62
     7
 10
107.6038889999999
 20
230.77697800000001
 30
0.0
 40
3.0
  1
X
 50
270.0
 41
0.9777764444444299
 72
     5
 11
107.6038889999999
 21
228.57698099999999
 31
0.0
  0
ENDBLK
  5
7FE
  8
0
  0
BLOCK
  8
0
  2
BLOCK20
 70
     0
 10
0.0
 20
0.0
 30
0.0
  3
BLOCK20
  1

  0
TEXT
  5
800
  8
0
 62
     7
 10
107.20961
 20
-79.023956000000013
 30
0.0
 40
3.0
  1
X
 50
270.0
 41
0.9777764444444425
 72
     5
 11
107.20961
 21
-81.223952999999995
 31
0.0
  0
ENDBLK
  5
801
  8
0
  0
BLOCK
  8
0
  2
BLOCK21
 70
     0
 10
0.0
 20
0.0
 30
0.0
  3
BLOCK21
  1

  0
TEXT
  5
803
  8
0
 62
     7
 10
-88.873351999999997
 20
76.727417000000003
 30
0.0
 40
3.0
  1
184,55
 50
269.99997126221672
 41
1.4600481002362531
 72
     5
 11
-88.873359999999991
 21
60.777466000000011
 31
0.0
  0
ENDBLK
  5
804
  8
0
  0
BLOCK
  8
0
  2
BLOCK22
 70
     0
 10
0.0
 20
0.0
 30
0.0
  3
BLOCK22
  1

  0
TEXT
  5
806
  8
0
 62
     7
 10
-52.982108999999987
 20
84.249297999999996
 30
0.0
 40
3.0
  1
153
 50
269.99997023588912
 41
1.4327509593041849
 72
     5
 11
-52.982112999999998
 21
76.549316000000005
 31
0.0
  0
ENDBLK
  5
807
  8
0
  0
BLOCK
  8
0
  2
BLOCK23
 70
     0
 10
0.0
 20
0.0
 30
0.0
  3
BLOCK23
  1

  0
TEXT
  5
809
  8
0
 62
     7
 10
-70.308906999999991
 20
-12.000061000000001
 30
0.0
 40
3.0
  1
2
 50
270.0
 41
1.2020694180030751
 72
     5
 11
-70.308906999999991
 21
-14.200060999999989
 31
0.0
  0
ENDBLK
  5
80A
  8
0
  0
BLOCK
  8
0
  2
BLOCK24
 70
     0
 10
0.0
 20
0.0
 30
0.0
  3
BLOCK24
  1

  0
TEXT
  5
80C
  8
0
 62
     7
 10
-70.308906999999991
 20
87.999968999999993
 30
0.0
 40
3.0
  1
156,5
 50
270.00003472482518
 41
1.5485158476556919
 72
     5
 11
-70.308898999999997
 21
74.800010999999984
 31
0.0
  0
ENDBLK
  5
80D
  8
0
  0
BLOCK
  8
0
  2
BLOCK25
 70
     0
 10
0.0
 20
0.0
 30
0.0
  3
BLOCK25
  1

  0
TEXT
  5
80F
  8
0
 62
     7
 10
271.48306300000002
 20
95.389740000000003
 30
0.0
 40
3.0
  1
18x18
 50
270.0
 41
1.49152079096045
 72
     5
 11
271.48306300000002
 21
82.189781000000011
 31
0.0
  0
ENDBLK
  5
810
  8
0
  0
BLOCK
  8
0
  2
BLOCK26
 70
     0
 10
0.0
 20
0.0
 30
0.0
  3
BLOCK26
  1

  0
TEXT
  5
812
  8
0
 62
     7
 10
271.48306300000002
 20
139.9999389999999
 30
0.0
 40
3.0
  1
36
 50
270.0
 41
1.269614498636775
 72
     5
 11
271.48306300000002
 21
135.04994199999999
 31
0.0
  0
ENDBLK
  5
813
  8
0
  0
BLOCK
  8
0
  2
BLOCK27
 70
     0
 10
0.0
 20
0.0
 30
0.0
  3
BLOCK27
  1

  0
TEXT
  5
815
  8
0
 62
     7
 10
271.48306300000002
 20
167.0
 30
0.0
 40
3.0
  1
3
 50
270.0
 41
1.2399490238209789
 72
     5
 11
271.48306300000002
 21
164.800003
 31
0.0
  0
ENDBLK
  5
816
  8
0
  0
BLOCK
  8
0
  2
BLOCK28
 70
     0
 10
0.0
 20
0.0
 30
0.0
  3
BLOCK28
  1

  0
TEXT
  5
818
  8
0
 62
     7
 10
271.48306300000002
 20
172.5
 30
0.0
 40
3.0
  1
\U+2265
 50
270.0
 41
1.2422315693532049
 72
     5
 11
271.48306300000002
 21
170.300003
 31
0.0
  0
ENDBLK
  5
819
  8
0
  0
BLOCK
  8
0
  2
BLOCK29
 70
     0
 10
0.0
 20
0.0
 30
0.0
  3
BLOCK29
  1

  0
TEXT
  5
81B
  8
0
 62
     7
 10
-38.233684999999987
 20
123.75
 30
0.0
 40
3.0
  1
79,5
 50
270.0000219314702
 41
1.4854785695324559
 72
     5
 11
-38.23368099999999
 21
113.300034
 31
0.0
  0
ENDBLK
  5
81C
  8
0
  0
BLOCK
  8
0
  2
BLOCK30
 70
     0
 10
0.0
 20
0.0
 30
0.0
  3
BLOCK30
  1

  0
TEXT
  5
81E
  8
0
 62
     7
 10
147.11203
 20
185.41625999999999
 30
0.0
 40
3.0
  1
107,25
 41
1.501275843375544
 72
     5
 11
163.06198099999989
 21
185.41625999999999
 31
0.0
  0
ENDBLK
  5
81F
  8
0
  0
BLOCK
  8
0
  2
BLOCK31
 70
     0
 10
0.0
 20
0.0
 30
0.0
  3
BLOCK31
  1

  0
TEXT
  5
821
  8
0
 62
     7
 10
103.9870529999999
 20
203.591858
 30
0.0
 40
3.0
  1
210
 41
1.4660036189191219
 72
     5
 11
111.68703499999999
 21
203.591858
 31
0.0
  0
ENDBLK
  5
822
  8
0
  0
BLOCK
  8
0
  2
BLOCK32
 70
     0
 10
0.0
 20
0.0
 30
0.0
  3
BLOCK32
  1

  0
LINE
  5
824
  8
0
 62
     2
 10
184.4806209999999
 20
-4.168404999999999
 30
0.0
 11
186.31227100000001
 21
-6.000051
 31
0.0
  0
LINE
  5
825
  8
0
 62
     2
 10
186.433594
 20
-4.000051
 30
0.0
 11
188.43359399999991
 21
-6.000051
 31
0.0
  0
LINE
  5
826
  8
0
 62
     2
 10
188.554901
 20
-4.000051
 30
0.0
 11
190.554901
 21
-6.000051
 31
0.0
  0
LINE
  5
827
  8
0
 62
     2
 10
190.67622399999991
 20
-4.000051
 30
0.0
 11
192.67622399999999
 21
-6.000051
 31
0.0
  0
LINE
  5
828
  8
0
 62
     2
 10
192.7975459999999
 20
-4.000051
 30
0.0
 11
194.7975459999999
 21
-6.000051
 31
0.0
  0
LINE
  5
829
  8
0
 62
     2
 10
194.91886899999989
 20
-4.000051
 30
0.0
 11
196.918869
 21
-6.000051
 31
0.0
  0
LINE
  5
82A
  8
0
 62
     2
 10
197.04019199999999
 20
-4.000051
 30
0.0
 11
199.04019199999999
 21
-6.000051
 31
0.0
  0
LINE
  5
82B
  8
0
 62
     2
 10
199.16151400000001
 20
-4.000051
 30
0.0
 11
201.1615139999999
 21
-6.000051
 31
0.0
  0
LINE
  5
82C
  8
0
 62
     2
 10
201.282837
 20
-4.000051
 30
0.0
 11
203.28283699999989
 21
-6.000051
 31
0.0
  0
LINE
  5
82D
  8
0
 62
     2
 10
203.404144
 20
-4.000051
 30
0.0
 11
205.404144
 21
-6.000051
 31
0.0
  0
LINE
  5
82E
  8
0
 62
     2
 10
205.52546699999999
 20
-4.000051
 30
0.0
 11
207.52546699999999
 21
-6.000051
 31
0.0
  0
LINE
  5
82F
  8
0
 62
     2
 10
207.6467899999999
 20
-4.000051
 30
0.0
 11
209.6467899999999
 21
-6.000051
 31
0.0
  0
LINE
  5
830
  8
0
 62
     2
 10
209.76811199999989
 20
-4.000051
 30
0.0
 11
211.76811199999989
 21
-6.000051
 31
0.0
  0
LINE
  5
831
  8
0
 62
     2
 10
211.88943499999999
 20
-4.000051
 30
0.0
 11
213.88943499999999
 21
-6.000051
 31
0.0
  0
LINE
  5
832
  8
0
 62
     2
 10
214.01075700000001
 20
-4.000051
 30
0.0
 11
216.01075700000001
 21
-6.000051
 31
0.0
  0
LINE
  5
833
  8
0
 62
     2
 10
216.1320649999999
 20
-4.000051
 30
0.0
 11
218.1320649999999
 21
-6.000051
 31
0.0
  0
LINE
  5
834
  8
0
 62
     2
 10
218.25338699999989
 20
-4.000051
 30
0.0
 11
220.25338699999989
 21
-6.000051
 31
0.0
  0
LINE
  5
835
  8
0
 62
     2
 10
220.37470999999999
 20
-4.000051
 30
0.0
 11
222.37470999999999
 21
-6.000051
 31
0.0
  0
LINE
  5
836
  8
0
 62
     2
 10
222.49603300000001
 20
-4.000051
 30
0.0
 11
224.49603300000001
 21
-6.000051
 31
0.0
  0
LINE
  5
837
  8
0
 62
     2
 10
224.61735499999989
 20
-4.000051
 30
0.0
 11
226.61735499999989
 21
-6.000051
 31
0.0
  0
LINE
  5
838
  8
0
 62
     2
 10
226.73867799999991
 20
-4.000051
 30
0.0
 11
228.73867799999991
 21
-6.000051
 31
0.0
  0
LINE
  5
839
  8
0
 62
     2
 10
228.85998499999999
 20
-4.000051
 30
0.0
 11
230.85998499999999
 21
-6.000051
 31
0.0
  0
LINE
  5
83A
  8
0
 62
     2
 10
230.98130800000001
 20
-4.000051
 30
0.0
 11
232.98130800000001
 21
-6.000051
 31
0.0
  0
LINE
  5
83B
  8
0
 62
     2
 10
233.10263099999989
 20
-4.000051
 30
0.0
 11
235.10263099999989
 21
-6.000051
 31
0.0
  0
LINE
  5
83C
  8
0
 62
     2
 10
235.22395299999991
 20
-4.000051
 30
0.0
 11
235.93187
 21
-4.7079629999999986
 31
0.0
  0
ENDBLK
  5
83D
  8
0
  0
BLOCK
  8
0
  2
BLOCK33
 70
     0
 10
0.0
 20
0.0
 30
0.0
  3
BLOCK33
  1

  0
LINE
  5
83F
  8
0
 62
     2
 10
165.9806209999999
 20
-4.760286999999999
 30
0.0
 11
167.22038299999991
 21
-6.000051
 31
0.0
  0
LINE
  5
840
  8
0
 62
     2
 10
167.34170499999999
 20
-4.000051
 30
0.0
 11
169.34170499999999
 21
-6.000051
 31
0.0
  0
LINE
  5
841
  8
0
 62
     2
 10
169.46302800000001
 20
-4.000051
 30
0.0
 11
171.46302800000001
 21
-6.000051
 31
0.0
  0
LINE
  5
842
  8
0
 62
     2
 10
171.584351
 20
-4.000051
 30
0.0
 11
173.584351
 21
-6.000051
 31
0.0
  0
LINE
  5
843
  8
0
 62
     2
 10
173.7056729999999
 20
-4.000051
 30
0.0
 11
175.7056729999999
 21
-6.000051
 31
0.0
  0
LINE
  5
844
  8
0
 62
     2
 10
175.82698099999999
 20
-4.000051
 30
0.0
 11
177.4806209999999
 21
-5.6536860000000004
 31
0.0
  0
ENDBLK
  5
845
  8
0
  0
BLOCK
  8
0
  2
BLOCK34
 70
     0
 10
0.0
 20
0.0
 30
0.0
  3
BLOCK34
  1

  0
LINE
  5
847
  8
0
 62
     2
 10
42.480625000000003
 20
-4.2968619999999991
 30
0.0
 11
44.183815000000003
 21
-6.000051
 31
0.0
  0
LINE
  5
848
  8
0
 62
     2
 10
44.305134000000002
 20
-4.000051
 30
0.0
 11
46.305134000000002
 21
-6.000051
 31
0.0
  0
LINE
  5
849
  8
0
 62
     2
 10
46.426456000000002
 20
-4.000051
 30
0.0
 11
48.426456000000002
 21
-6.000051
 31
0.0
  0
LINE
  5
84A
  8
0
 62
     2
 10
48.547775000000001
 20
-4.000051
 30
0.0
 11
50.547775000000001
 21
-6.000051
 31
0.0
  0
LINE
  5
84B
  8
0
 62
     2
 10
50.669094000000001
 20
-4.000051
 30
0.0
 11
52.669093999999987
 21
-6.000051
 31
0.0
  0
LINE
  5
84C
  8
0
 62
     2
 10
52.790416999999998
 20
-4.000051
 30
0.0
 11
53.980625000000003
 21
-5.1902609999999996
 31
0.0
  0
ENDBLK
  5
84D
  8
0
  0
BLOCK
  8
0
  2
BLOCK35
 70
     0
 10
0.0
 20
0.0
 30
0.0
  3
BLOCK35
  1

  0
LINE
  5
84F
  8
0
 62
     2
 10
-26.493057
 20
-5.3267470000000001
 30
0.0
 11
-25.819752000000001
 21
-6.000051
 31
0.0
  0
LINE
  5
850
  8
0
 62
     2
 10
-25.698430999999989
 20
-4.000051
 30
0.0
 11
-23.698432999999991
 21
-6.000051
 31
0.0
  0
LINE
  5
851
  8
0
 62
     2
 10
-23.577112
 20
-4.000051
 30
0.0
 11
-21.577112
 21
-6.000051
 31
0.0
  0
LINE
  5
852
  8
0
 62
     2
 10
-21.455791000000001
 20
-4.000051
 30
0.0
 11
-19.455791000000001
 21
-6.000051
 31
0.0
  0
LINE
  5
853
  8
0
 62
     2
 10
-19.334471000000001
 20
-4.000051
 30
0.0
 11
-17.334471000000001
 21
-6.000051
 31
0.0
  0
LINE
  5
854
  8
0
 62
     2
 10
-17.21315199999999
 20
-4.000051
 30
0.0
 11
-15.213151
 21
-6.000051
 31
0.0
  0
LINE
  5
855
  8
0
 62
     2
 10
-15.09183099999999
 20
-4.000051
 30
0.0
 11
-13.091831000000001
 21
-6.000051
 31
0.0
  0
LINE
  5
856
  8
0
 62
     2
 10
-12.970510000000001
 20
-4.000051
 30
0.0
 11
-10.970510000000001
 21
-6.000051
 31
0.0
  0
LINE
  5
857
  8
0
 62
     2
 10
-10.849190999999999
 20
-4.000051
 30
0.0
 11
-8.8491910000000011
 21
-6.000051
 31
0.0
  0
LINE
  5
858
  8
0
 62
     2
 10
-8.7278699999999994
 20
-4.000051
 30
0.0
 11
-6.7278699999999994
 21
-6.000051
 31
0.0
  0
LINE
  5
859
  8
0
 62
     2
 10
-6.6065500000000004
 20
-4.000051
 30
0.0
 11
-4.6065500000000004
 21
-6.000051
 31
0.0
  0
LINE
  5
85A
  8
0
 62
     2
 10
-4.4852299999999996
 20
-4.000051
 30
0.0
 11
-2.4852300000000001
 21
-6.000051
 31
0.0
  0
LINE
  5
85B
  8
0
 62
     2
 10
-2.3639099999999988
 20
-4.000051
 30
0.0
 11
-0.36391
 21
-6.000051
 31
0.0
  0
LINE
  5
85C
  8
0
 62
     2
 10
-0.242589
 20
-4.000051
 30
0.0
 11
1.757409999999999
 21
-6.000051
 31
0.0
  0
LINE
  5
85D
  8
0
 62
     2
 10
1.8787309999999999
 20
-4.000051
 30
0.0
 11
3.8787309999999988
 21
-6.000051
 31
0.0
  0
LINE
  5
85E
  8
0
 62
     2
 10
4.000051
 20
-4.000051
 30
0.0
 11
6.000051
 21
-6.000051
 31
0.0
  0
LINE
  5
85F
  8
0
 62
     2
 10
6.121370999999999
 20
-4.000051
 30
0.0
 11
8.1213709999999981
 21
-6.000051
 31
0.0
  0
LINE
  5
860
  8
0
 62
     2
 10
8.2426910000000007
 20
-4.000051
 30
0.0
 11
10.242691000000001
 21
-6.000051
 31
0.0
  0
LINE
  5
861
  8
0
 62
     2
 10
10.364012000000001
 20
-4.000051
 30
0.0
 11
12.36401199999999
 21
-6.000051
 31
0.0
  0
LINE
  5
862
  8
0
 62
     2
 10
12.485332
 20
-4.000051
 30
0.0
 11
14.485332
 21
-6.000051
 31
0.0
  0
LINE
  5
863
  8
0
 62
     2
 10
14.606652
 20
-4.000051
 30
0.0
 11
16.606650999999999
 21
-6.000051
 31
0.0
  0
LINE
  5
864
  8
0
 62
     2
 10
16.727972000000001
 20
-4.000051
 30
0.0
 11
18.727972000000001
 21
-6.000051
 31
0.0
  0
LINE
  5
865
  8
0
 62
     2
 10
18.849292999999989
 20
-4.000051
 30
0.0
 11
20.849292999999999
 21
-6.000051
 31
0.0
  0
LINE
  5
866
  8
0
 62
     2
 10
20.970613
 20
-4.000051
 30
0.0
 11
22.970611999999988
 21
-6.000051
 31
0.0
  0
LINE
  5
867
  8
0
 62
     2
 10
23.091932
 20
-4.000051
 30
0.0
 11
25.091932
 21
-6.000051
 31
0.0
  0
LINE
  5
868
  8
0
 62
     2
 10
25.213252999999991
 20
-4.000051
 30
0.0
 11
27.213253000000002
 21
-6.000051
 31
0.0
  0
LINE
  5
869
  8
0
 62
     2
 10
27.334574
 20
-4.000051
 30
0.0
 11
29.334573999999989
 21
-6.000051
 31
0.0
  0
LINE
  5
86A
  8
0
 62
     2
 10
29.455892999999989
 20
-4.000051
 30
0.0
 11
31.455893
 21
-6.000051
 31
0.0
  0
LINE
  5
86B
  8
0
 62
     2
 10
31.577213
 20
-4.000051
 30
0.0
 11
33.577213
 21
-6.000051
 31
0.0
  0
LINE
  5
86C
  8
0
 62
     2
 10
33.698532
 20
-4.000051
 30
0.0
 11
35.480625000000003
 21
-5.7821429999999987
 31
0.0
  0
ENDBLK
  5
86D
  8
0
  0
BLOCK
  8
0
  2
BLOCK36
 70
     0
 10
0.0
 20
0.0
 30
0.0
  3
BLOCK36
  1

  0
LINE
  5
86F
  8
0
 62
     3
 10
209.80374099999989
 20
116.8795929999999
 30
0.0
 11
210.18339499999999
 21
116.49992399999989
 31
0.0
  0
LINE
  5
870
  8
0
 62
     3
 10
209.80374099999989
 20
117.940247
 30
0.0
 11
211.2440639999999
 21
116.49992399999989
 31
0.0
  0
LINE
  5
871
  8
0
 62
     3
 10
209.80374099999989
 20
119.000908
 30
0.0
 11
212.30471799999989
 21
116.49992399999989
 31
0.0
  0
LINE
  5
872
  8
0
 62
     3
 10
209.80374099999989
 20
120.06156900000001
 30
0.0
 11
213.13703899999999
 21
116.72827100000001
 31
0.0
  0
LINE
  5
873
  8
0
 62
     3
 10
209.80374099999989
 20
121.1222309999999
 30
0.0
 11
213.13703899999999
 21
117.788933
 31
0.0
  0
LINE
  5
874
  8
0
 62
     3
 10
210.48670999999999
 20
121.49992399999999
 30
0.0
 11
213.13703899999999
 21
118.8495939999999
 31
0.0
  0
LINE
  5
875
  8
0
 62
     3
 10
211.5473629999999
 20
121.49992399999999
 30
0.0
 11
213.13703899999999
 21
119.91025500000001
 31
0.0
  0
LINE
  5
876
  8
0
 62
     3
 10
212.6080169999999
 20
121.49992399999999
 30
0.0
 11
213.13703899999999
 21
120.97090900000001
 31
0.0
  0
ENDBLK
  5
877
  8
0
  0
BLOCK
  8
0
  2
BLOCK37
 70
     0
 10
0.0
 20
0.0
 30
0.0
  3
BLOCK37
  1

  0
LINE
  5
879
  8
0
 62
     3
 10
221.3370359999999
 20
117.0135499999999
 30
0.0
 11
221.85066199999989
 21
116.49992399999989
 31
0.0
  0
LINE
  5
87A
  8
0
 62
     3
 10
221.3370359999999
 20
118.07421100000001
 30
0.0
 11
222.91133099999999
 21
116.49992399999989
 31
0.0
  0
LINE
  5
87B
  8
0
 62
     3
 10
221.3370359999999
 20
119.134872
 30
0.0
 11
223.97198499999999
 21
116.49992399999989
 31
0.0
  0
LINE
  5
87C
  8
0
 62
     3
 10
221.3370359999999
 20
120.19553399999999
 30
0.0
 11
225.03263899999999
 21
116.49992399999989
 31
0.0
  0
LINE
  5
87D
  8
0
 62
     3
 10
221.3370359999999
 20
121.25619499999991
 30
0.0
 11
226.0933069999999
 21
116.49992399999989
 31
0.0
  0
LINE
  5
87E
  8
0
 62
     3
 10
222.1539609999999
 20
121.49992399999999
 30
0.0
 11
227.15396100000001
 21
116.49992399999989
 31
0.0
  0
LINE
  5
87F
  8
0
 62
     3
 10
223.21462999999989
 20
121.49992399999999
 30
0.0
 11
227.23702999999989
 21
117.47751599999999
 31
0.0
  0
LINE
  5
880
  8
0
 62
     3
 10
224.275284
 20
121.49992399999999
 30
0.0
 11
227.23702999999989
 21
118.53816999999989
 31
0.0
  0
LINE
  5
881
  8
0
 62
     3
 10
225.3359529999999
 20
121.49992399999999
 30
0.0
 11
227.23702999999989
 21
119.598831
 31
0.0
  0
LINE
  5
882
  8
0
 62
     3
 10
226.39660599999999
 20
121.49992399999999
 30
0.0
 11
227.23702999999989
 21
120.6594919999999
 31
0.0
  0
ENDBLK
  5
883
  8
0
  0
BLOCK
  8
0
  2
BLOCK38
 70
     0
 10
0.0
 20
0.0
 30
0.0
  3
BLOCK38
  1

  0
LINE
  5
885
  8
0
 62
     3
 10
208.8529209999999
 20
123.99992399999989
 30
0.0
 11
207.23703
 21
122.38404800000001
 31
0.0
  0
LINE
  5
886
  8
0
 62
     3
 10
213.09555099999989
 20
123.99992399999989
 30
0.0
 11
210.59555099999989
 21
121.49992399999999
 31
0.0
  0
LINE
  5
887
  8
0
 62
     3
 10
215.587906
 20
122.249634
 30
0.0
 11
213.47705099999999
 21
120.13877099999991
 31
0.0
  0
LINE
  5
888
  8
0
 62
     3
 10
221.58084099999999
 20
123.9999159999999
 30
0.0
 11
218.571564
 21
120.990646
 31
0.0
  0
LINE
  5
889
  8
0
 62
     3
 10
217.6542509999999
 20
120.0733409999999
 30
0.0
 11
215.515411
 21
117.9345019999999
 31
0.0
  0
LINE
  5
88A
  8
0
 62
     3
 10
225.82348599999989
 20
123.99992399999989
 30
0.0
 11
223.32348599999989
 21
121.49992399999999
 31
0.0
  0
ENDBLK
  5
88B
  8
0
  0
BLOCK
  8
0
  2
BLOCK39
 70
     0
 10
0.0
 20
0.0
 30
0.0
  3
BLOCK39
  1

  0
LINE
  5
88D
  8
0
 62
     3
 10
223.47743199999999
 20
100.440681
 30
0.0
 11
220.23702999999989
 21
97.200287000000003
 31
0.0
  0
LINE
  5
88E
  8
0
 62
     3
 10
225.73702999999989
 20
98.457642000000007
 30
0.0
 11
224.779312
 21
97.499923999999993
 31
0.0
  0
ENDBLK
  5
88F
  8
0
  0
BLOCK
  8
0
  2
BLOCK40
 70
     0
 10
0.0
 20
0.0
 30
0.0
  3
BLOCK40
  1

  0
LINE
  5
891
  8
0
 62
     3
 10
209.16610700000001
 20
103.09992199999991
 30
0.0
 11
208.73702999999989
 21
102.67085299999999
 31
0.0
  0
LINE
  5
892
  8
0
 62
     3
 10
213.37246699999989
 20
103.063637
 30
0.0
 11
211.34950299999991
 21
101.040688
 31
0.0
  0
LINE
  5
893
  8
0
 62
     3
 10
214.23702999999989
 20
99.685569999999998
 30
0.0
 11
213.6513819999999
 21
99.099921999999992
 31
0.0
  0
ENDBLK
  5
894
  8
0
  0
BLOCK
  8
0
  2
BLOCK41
 70
     0
 10
0.0
 20
0.0
 30
0.0
  3
BLOCK41
  1

  0
LINE
  5
896
  8
0
 62
     3
 10
211.4249419999999
 20
98.287827000000007
 30
0.0
 11
212.9728549999999
 21
96.739906000000005
 31
0.0
  0
LINE
  5
897
  8
0
 62
     3
 10
214.23702999999989
 20
99.718368999999996
 30
0.0
 11
217.21549999999999
 21
96.739906000000005
 31
0.0
  0
LINE
  5
898
  8
0
 62
     3
 10
219.14897199999999
 20
99.049080000000004
 30
0.0
 11
221.4581299999999
 21
96.739906000000005
 31
0.0
  0
LINE
  5
899
  8
0
 62
     3
 10
219.4473879999999
 20
102.99329399999991
 30
0.0
 11
220.2589569999999
 21
102.181732
 31
0.0
  0
ENDBLK
  5
89A
  8
0
  0
BLOCK
  8
0
  2
BLOCK42
 70
     0
 10
0.0
 20
0.0
 30
0.0
  3
BLOCK42
  1

  0
LINE
  5
89C
  8
0
 62
     3
 10
204.7195889999999
 20
75.294693000000009
 30
0.0
 11
207.01428200000001
 21
73.0
 31
0.0
  0
LINE
  5
89D
  8
0
 62
     3
 10
208.75691199999989
 20
75.5
 30
0.0
 11
211.25691199999989
 21
73.0
 31
0.0
  0
LINE
  5
89E
  8
0
 62
     3
 10
212.9995569999999
 20
75.5
 30
0.0
 11
215.49955700000001
 21
73.0
 31
0.0
  0
LINE
  5
89F
  8
0
 62
     3
 10
217.2422029999999
 20
75.5
 30
0.0
 11
219.7422029999999
 21
73.0
 31
0.0
  0
LINE
  5
8A0
  8
0
 62
     3
 10
221.48483300000001
 20
75.5
 30
0.0
 11
223.98483300000001
 21
73.0
 31
0.0
  0
LINE
  5
8A1
  8
0
 62
     3
 10
225.72747799999991
 20
75.5
 30
0.0
 11
228.22747799999991
 21
73.0
 31
0.0
  0
LINE
  5
8A2
  8
0
 62
     3
 10
229.970123
 20
75.5
 30
0.0
 11
232.470123
 21
73.0
 31
0.0
  0
LINE
  5
8A3
  8
0
 62
     3
 10
234.21275299999991
 20
75.5
 30
0.0
 11
236.55940200000001
 21
73.153357999999983
 31
0.0
  0
LINE
  5
8A4
  8
0
 62
     3
 10
235.45542900000001
 20
78.499961999999996
 30
0.0
 11
237.2370609999999
 21
76.718330000000009
 31
0.0
  0
ENDBLK
  5
8A5
  8
0
  0
BLOCK
  8
0
  2
BLOCK43
 70
     0
 10
0.0
 20
0.0
 30
0.0
  3
BLOCK43
  1

  0
LINE
  5
8A7
  8
0
 62
     3
 10
223.279312
 20
95.999923999999993
 30
0.0
 11
223.23702999999989
 21
95.957642000000007
 31
0.0
  0
LINE
  5
8A8
  8
0
 62
     3
 10
227.23702999999989
 20
95.715004000000008
 30
0.0
 11
223.5219569999999
 21
91.999923999999993
 31
0.0
  0
ENDBLK
  5
8A9
  8
0
  0
BLOCK
  8
0
  2
BLOCK44
 70
     0
 10
0.0
 20
0.0
 30
0.0
  3
BLOCK44
  1

  0
LINE
  5
8AB
  8
0
 62
     3
 10
210.55139199999991
 20
95.999923999999993
 30
0.0
 11
207.23703
 21
92.685576999999995
 31
0.0
  0
LINE
  5
8AC
  8
0
 62
     3
 10
211.23702999999989
 20
92.442931999999985
 30
0.0
 11
210.79402200000001
 21
91.999923999999993
 31
0.0
  0
ENDBLK
  5
8AD
  8
0
  0
BLOCK
  8
0
  2
BLOCK45
 70
     0
 10
0.0
 20
0.0
 30
0.0
  3
BLOCK45
  1

  0
LINE
  5
8AF
  8
0
 62
     3
 10
11.33706799999999
 20
117.00282300000001
 30
0.0
 11
11.839964
 21
116.49992399999989
 31
0.0
  0
LINE
  5
8B0
  8
0
 62
     3
 10
11.33706799999999
 20
118.0634839999999
 30
0.0
 11
12.900624000000001
 21
116.49992399999989
 31
0.0
  0
LINE
  5
8B1
  8
0
 62
     3
 10
11.33706799999999
 20
119.1241379999999
 30
0.0
 11
13.961285
 21
116.49992399999989
 31
0.0
  0
LINE
  5
8B2
  8
0
 62
     3
 10
11.33706799999999
 20
120.184799
 30
0.0
 11
14.670366
 21
116.8515009999999
 31
0.0
  0
LINE
  5
8B3
  8
0
 62
     3
 10
11.33706799999999
 20
121.24546099999991
 30
0.0
 11
14.670366
 21
117.91216300000001
 31
0.0
  0
LINE
  5
8B4
  8
0
 62
     3
 10
12.143265
 20
121.49992399999999
 30
0.0
 11
14.670366
 21
118.9728239999999
 31
0.0
  0
LINE
  5
8B5
  8
0
 62
     3
 10
13.203925
 20
121.49992399999999
 30
0.0
 11
14.670366
 21
120.033485
 31
0.0
  0
LINE
  5
8B6
  8
0
 62
     3
 10
14.264585
 20
121.49992399999999
 30
0.0
 11
14.670366
 21
121.09414699999989
 31
0.0
  0
ENDBLK
  5
8B7
  8
0
  0
BLOCK
  8
0
  2
BLOCK46
 70
     0
 10
0.0
 20
0.0
 30
0.0
  3
BLOCK46
  1

  0
LINE
  5
8B9
  8
0
 62
     3
 10
-2.7629329999999999
 20
117.3142399999999
 30
0.0
 11
-1.9486169999999989
 21
116.49992399999989
 31
0.0
  0
LINE
  5
8BA
  8
0
 62
     3
 10
-2.7629329999999999
 20
118.37490099999989
 30
0.0
 11
-0.8879569999999999
 21
116.49992399999989
 31
0.0
  0
LINE
  5
8BB
  8
0
 62
     3
 10
-2.7629329999999999
 20
119.435562
 30
0.0
 11
0.172703
 21
116.49992399999989
 31
0.0
  0
LINE
  5
8BC
  8
0
 62
     3
 10
-2.7629329999999999
 20
120.496223
 30
0.0
 11
1.2333629999999991
 21
116.49992399999989
 31
0.0
  0
LINE
  5
8BD
  8
0
 62
     3
 10
-2.7059759999999988
 20
121.49992399999999
 30
0.0
 11
2.2940230000000001
 21
116.49992399999989
 31
0.0
  0
LINE
  5
8BE
  8
0
 62
     3
 10
-1.645316
 20
121.49992399999999
 30
0.0
 11
3.1370669999999992
 21
116.71753699999999
 31
0.0
  0
LINE
  5
8BF
  8
0
 62
     3
 10
-0.5846560000000001
 20
121.49992399999999
 30
0.0
 11
3.1370669999999992
 21
117.778198
 31
0.0
  0
LINE
  5
8C0
  8
0
 62
     3
 10
0.476004
 20
121.49992399999999
 30
0.0
 11
3.1370669999999992
 21
118.83886
 31
0.0
  0
LINE
  5
8C1
  8
0
 62
     3
 10
1.536664
 20
121.49992399999999
 30
0.0
 11
3.1370669999999992
 21
119.89952099999989
 31
0.0
  0
LINE
  5
8C2
  8
0
 62
     3
 10
2.5973239999999991
 20
121.49992399999999
 30
0.0
 11
3.1370669999999992
 21
120.960182
 31
0.0
  0
ENDBLK
  5
8C3
  8
0
  0
BLOCK
  8
0
  2
BLOCK47
 70
     0
 10
0.0
 20
0.0
 30
0.0
  3
BLOCK47
  1

  0
LINE
  5
8C5
  8
0
 62
     3
 10
0.963404
 20
123.9999159999999
 30
0.0
 11
-1.5365919999999991
 21
121.49992399999999
 31
0.0
  0
LINE
  5
8C6
  8
0
 62
     3
 10
4.686507999999999
 20
123.480377
 30
0.0
 11
2.7060509999999991
 21
121.49992399999999
 31
0.0
  0
LINE
  5
8C7
  8
0
 62
     3
 10
6.0487209999999987
 20
120.5999529999999
 30
0.0
 11
4.2841670000000001
 21
118.8354029999999
 31
0.0
  0
LINE
  5
8C8
  8
0
 62
     3
 10
13.691338999999999
 20
123.99992399999989
 30
0.0
 11
7.2521009999999988
 21
117.5606919999999
 31
0.0
  0
LINE
  5
8C9
  8
0
 62
     3
 10
17.237068000000001
 20
123.3030089999999
 30
0.0
 11
15.433979000000001
 21
121.49992399999999
 31
0.0
  0
ENDBLK
  5
8CA
  8
0
  0
BLOCK
  8
0
  2
BLOCK48
 70
     0
 10
0.0
 20
0.0
 30
0.0
  3
BLOCK48
  1

  0
LINE
  5
8CC
  8
0
 62
     3
 10
1.675783
 20
103.499107
 30
0.0
 11
-1.2234
 21
100.59992199999991
 31
0.0
  0
LINE
  5
8CD
  8
0
 62
     3
 10
4.2370669999999988
 20
101.81774900000001
 30
0.0
 11
2.7370669999999988
 21
100.31774899999991
 31
0.0
  0
ENDBLK
  5
8CE
  8
0
  0
BLOCK
  8
0
  2
BLOCK49
 70
     0
 10
0.0
 20
0.0
 30
0.0
  3
BLOCK49
  1

  0
LINE
  5
8D0
  8
0
 62
     3
 10
14.101176000000001
 20
103.19657099999991
 30
0.0
 11
10.237066999999991
 21
99.332465999999997
 31
0.0
  0
ENDBLK
  5
8D1
  8
0
  0
BLOCK
  8
0
  2
BLOCK50
 70
     0
 10
0.0
 20
0.0
 30
0.0
  3
BLOCK50
  1

  0
LINE
  5
8D3
  8
0
 62
     3
 10
-1.580762
 20
95.999923999999993
 30
0.0
 11
-2.7629329999999999
 21
94.817757
 31
0.0
  0
LINE
  5
8D4
  8
0
 62
     3
 10
1.237066999999999
 20
94.575110999999993
 30
0.0
 11
-1.3381229999999991
 21
91.999923999999993
 31
0.0
  0
ENDBLK
  5
8D5
  8
0
  0
BLOCK
  8
0
  2
BLOCK51
 70
     0
 10
0.0
 20
0.0
 30
0.0
  3
BLOCK51
  1

  0
LINE
  5
8D7
  8
0
 62
     3
 10
15.389810000000001
 20
95.999923999999993
 30
0.0
 11
13.237067
 21
93.847183000000015
 31
0.0
  0
LINE
  5
8D8
  8
0
 62
     3
 10
17.237068000000001
 20
93.604538000000005
 30
0.0
 11
15.632448
 21
91.999923999999993
 31
0.0
  0
ENDBLK
  5
8D9
  8
0
  0
BLOCK
  8
0
  2
BLOCK52
 70
     0
 10
0.0
 20
0.0
 30
0.0
  3
BLOCK52
  1

  0
LINE
  5
8DB
  8
0
 62
     3
 10
2.7234590000000001
 20
99.099921999999992
 30
0.0
 11
5.0834739999999989
 21
96.739906000000005
 31
0.0
  0
LINE
  5
8DC
  8
0
 62
     3
 10
4.2370669999999988
 20
101.8289569999999
 30
0.0
 11
5.2370669999999988
 21
100.8289569999999
 31
0.0
  0
LINE
  5
8DD
  8
0
 62
     3
 10
7.7973309999999989
 20
98.268692000000001
 30
0.0
 11
9.3261140000000005
 21
96.739906000000005
 31
0.0
  0
LINE
  5
8DE
  8
0
 62
     3
 10
9.2370669999999997
 20
101.07159399999991
 30
0.0
 11
10.237066999999991
 21
100.07159399999991
 31
0.0
  0
LINE
  5
8DF
  8
0
 62
     3
 10
11.20873999999999
 20
99.099921999999992
 30
0.0
 11
13.237067
 21
97.071594000000005
 31
0.0
  0
ENDBLK
  5
8E0
  8
0
  0
BLOCK
  8
0
  2
BLOCK53
 70
     0
 10
0.0
 20
0.0
 30
0.0
  3
BLOCK53
  1

  0
LINE
  5
8E2
  8
0
 62
     3
 10
-12.762964
 20
76.40258
 30
0.0
 11
-9.3603839999999998
 21
73.0
 31
0.0
  0
LINE
  5
8E3
  8
0
 62
     3
 10
-7.617742999999999
 20
75.5
 30
0.0
 11
-5.1177440000000001
 21
73.0
 31
0.0
  0
LINE
  5
8E4
  8
0
 62
     3
 10
-3.3751029999999989
 20
75.5
 30
0.0
 11
-0.875103
 21
73.0
 31
0.0
  0
LINE
  5
8E5
  8
0
 62
     3
 10
0.867537
 20
75.5
 30
0.0
 11
3.367537
 21
73.0
 31
0.0
  0
LINE
  5
8E6
  8
0
 62
     3
 10
5.1101779999999994
 20
75.5
 30
0.0
 11
7.6101779999999994
 21
73.0
 31
0.0
  0
LINE
  5
8E7
  8
0
 62
     3
 10
9.3528179999999992
 20
75.5
 30
0.0
 11
11.852817999999999
 21
73.0
 31
0.0
  0
LINE
  5
8E8
  8
0
 62
     3
 10
13.595459
 20
75.5
 30
0.0
 11
16.095458999999991
 21
73.0
 31
0.0
  0
LINE
  5
8E9
  8
0
 62
     3
 10
17.838099
 20
75.5
 30
0.0
 11
19.754516999999989
 21
73.583579999999984
 31
0.0
  0
ENDBLK
  5
8EA
  8
0
  0
BLOCK
  8
0
  2
BLOCK54
 70
     0
 10
0.0
 20
0.0
 30
0.0
  3
BLOCK54
  1

  0
LINE
  5
8EC
  8
0
 62
     3
 10
-25.905266000000001
 20
111.818748
 30
0.0
 11
-24.392624000000001
 21
110.306107
 31
0.0
  0
LINE
  5
8ED
  8
0
 62
     3
 10
-26.280972999999999
 20
113.25511899999999
 30
0.0
 11
-23.633483999999999
 21
110.60762800000001
 31
0.0
  0
LINE
  5
8EE
  8
0
 62
     3
 10
-26.344707
 20
114.379509
 30
0.0
 11
-23.14122999999999
 21
111.176033
 31
0.0
  0
LINE
  5
8EF
  8
0
 62
     3
 10
-26.276092999999999
 20
115.371559
 30
0.0
 11
-22.808969000000001
 21
111.90443399999999
 31
0.0
  0
LINE
  5
8F0
  8
0
 62
     3
 10
-26.112787000000001
 20
116.2689129999999
 30
0.0
 11
-22.566175000000001
 21
112.7222979999999
 31
0.0
  0
LINE
  5
8F1
  8
0
 62
     3
 10
-25.804497000000001
 20
117.021278
 30
0.0
 11
-22.405476
 21
113.62226099999999
 31
0.0
  0
LINE
  5
8F2
  8
0
 62
     3
 10
-25.394268
 20
117.67171499999991
 30
0.0
 11
-22.405476
 21
114.68292199999991
 31
0.0
  0
LINE
  5
8F3
  8
0
 62
     3
 10
-24.808851000000001
 20
118.1469569999999
 30
0.0
 11
-22.572123000000001
 21
115.9102249999999
 31
0.0
  0
ENDBLK
  5
8F4
  8
0
  0
BLOCK
  8
0
  2
BLOCK55
 70
     0
 10
0.0
 20
0.0
 30
0.0
  3
BLOCK55
  1

  0
LINE
  5
8F6
  8
0
 62
     3
 10
247.0845029999999
 20
112.479286
 30
0.0
 11
249.15576200000001
 21
110.408035
 31
0.0
  0
LINE
  5
8F7
  8
0
 62
     3
 10
246.8795779999999
 20
113.744873
 30
0.0
 11
249.78851299999991
 21
110.83593
 31
0.0
  0
LINE
  5
8F8
  8
0
 62
     3
 10
246.8795779999999
 20
114.8055269999999
 30
0.0
 11
250.22775299999989
 21
111.457359
 31
0.0
  0
LINE
  5
8F9
  8
0
 62
     3
 10
247.0137939999999
 20
115.731979
 30
0.0
 11
250.54122899999999
 21
112.2045439999999
 31
0.0
  0
LINE
  5
8FA
  8
0
 62
     3
 10
247.232224
 20
116.57421100000001
 30
0.0
 11
250.7237089999999
 21
113.08272599999999
 31
0.0
  0
LINE
  5
8FB
  8
0
 62
     3
 10
247.54570000000001
 20
117.3213879999999
 30
0.0
 11
250.81881699999991
 21
114.04827899999999
 31
0.0
  0
LINE
  5
8FC
  8
0
 62
     3
 10
248.02773999999991
 20
117.90001699999991
 30
0.0
 11
250.79335
 21
115.1343989999999
 31
0.0
  0
LINE
  5
8FD
  8
0
 62
     3
 10
248.73039199999999
 20
118.2580259999999
 30
0.0
 11
250.503738
 21
116.48468
 31
0.0
  0
ENDBLK
  5
8FE
  8
0
  0
BLOCK
  8
0
  2
BLOCK56
 70
     0
 10
0.0
 20
0.0
 30
0.0
  3
BLOCK56
  1

  0
LINE
  5
900
  8
0
 62
     3
 10
31.236809000000001
 20
-173.33813499999999
 30
0.0
 11
189.73680100000001
 21
-173.33813499999999
 31
0.0
  0
LINE
  5
901
  8
0
 62
     3
 10
29.986809000000001
 20
-57.588135000000001
 30
0.0
 11
29.986809000000001
 21
-172.08813499999999
 31
0.0
  0
LINE
  5
902
  8
0
 62
     3
 10
31.236809000000001
 20
-56.338135000000001
 30
0.0
 11
189.73680100000001
 21
-56.338135000000001
 31
0.0
  0
LINE
  5
903
  8
0
 62
     3
 10
190.98680100000001
 20
-57.588135000000001
 30
0.0
 11
190.98680100000001
 21
-172.08813499999999
 31
0.0
  0
LINE
  5
904
  8
0
 62
     3
 10
57.486809000000001
 20
-167.83813499999999
 30
0.0
 11
163.48680100000001
 21
-167.83813499999999
 31
0.0
  0
LINE
  5
905
  8
0
 62
     3
 10
57.486809000000001
 20
-61.838135000000001
 30
0.0
 11
57.486809000000001
 21
-167.83813499999999
 31
0.0
  0
LINE
  5
906
  8
0
 62
     3
 10
57.486809000000001
 20
-61.838135000000001
 30
0.0
 11
163.48680100000001
 21
-61.838135000000001
 31
0.0
  0
LINE
  5
907
  8
0
 62
     3
 10
163.48680100000001
 20
-61.838135000000001
 30
0.0
 11
163.48680100000001
 21
-167.83813499999999
 31
0.0
  0
LINE
  5
908
  8
0
 62
     3
 10
48.986809000000001
 20
-168.83813499999999
 30
0.0
 11
49.986809000000001
 21
-168.83813499999999
 31
0.0
  0
LINE
  5
909
  8
0
 62
     3
 10
50.986809000000001
 20
-61.838135000000001
 30
0.0
 11
50.986809000000001
 21
-167.83813499999999
 31
0.0
  0
LINE
  5
90A
  8
0
 62
     3
 10
48.986809000000001
 20
-60.838135000000001
 30
0.0
 11
49.986809000000001
 21
-60.838135000000001
 31
0.0
  0
LINE
  5
90B
  8
0
 62
     3
 10
49.986809000000001
 20
-61.838135000000001
 30
0.0
 11
49.986809000000001
 21
-167.83813499999999
 31
0.0
  0
LINE
  5
90C
  8
0
 62
     3
 10
29.986809000000001
 20
-60.838135000000001
 30
0.0
 11
48.986809000000001
 21
-60.838135000000001
 31
0.0
  0
LINE
  5
90D
  8
0
 62
     3
 10
49.98680499999999
 20
-60.838135000000001
 30
0.0
 11
190.98680100000001
 21
-60.838135000000001
 31
0.0
  0
LINE
  5
90E
  8
0
 62
     3
 10
29.986809000000001
 20
-61.838135000000001
 30
0.0
 11
49.986809000000001
 21
-61.838135000000001
 31
0.0
  0
LINE
  5
90F
  8
0
 62
     3
 10
163.48680100000001
 20
-61.838135000000001
 30
0.0
 11
169.98680100000001
 21
-61.838135000000001
 31
0.0
  0
LINE
  5
910
  8
0
 62
     3
 10
50.986809000000001
 20
-61.838135000000001
 30
0.0
 11
57.486809000000001
 21
-61.838135000000001
 31
0.0
  0
LINE
  5
911
  8
0
 62
     3
 10
29.986809000000001
 20
-168.83813499999999
 30
0.0
 11
48.986809000000001
 21
-168.83813499999999
 31
0.0
  0
LINE
  5
912
  8
0
 62
     3
 10
49.986809000000001
 20
-168.83813499999999
 30
0.0
 11
190.98680100000001
 21
-168.83813499999999
 31
0.0
  0
LINE
  5
913
  8
0
 62
     3
 10
50.986809000000001
 20
-167.83813499999999
 30
0.0
 11
57.486809000000001
 21
-167.83813499999999
 31
0.0
  0
LINE
  5
914
  8
0
 62
     3
 10
163.48680100000001
 20
-167.83813499999999
 30
0.0
 11
169.98680100000001
 21
-167.83813499999999
 31
0.0
  0
LINE
  5
915
  8
0
 62
     3
 10
29.986809000000001
 20
-167.83813499999999
 30
0.0
 11
49.986809000000001
 21
-167.83813499999999
 31
0.0
  0
LINE
  5
916
  8
0
 62
     3
 10
170.98680100000001
 20
-60.838135000000001
 30
0.0
 11
170.98680100000001
 21
-168.83813499999999
 31
0.0
  0
LINE
  5
917
  8
0
 62
     3
 10
169.98680100000001
 20
-61.838135000000001
 30
0.0
 11
169.98680100000001
 21
-167.83813499999999
 31
0.0
  0
ARC
  5
918
  8
0
 62
     3
 10
31.236809000000001
 20
-57.588135000000001
 30
0.0
 40
1.25
 50
90.000005000000002
 51
180.00000099999991
  0
ARC
  5
919
  8
0
 62
     3
 10
31.236809000000001
 20
-172.08813499999999
 30
0.0
 40
1.25
 50
180.00000099999991
 51
270.0
  0
ARC
  5
91A
  8
0
 62
     3
 10
189.73680100000001
 20
-172.08813499999999
 30
0.0
 40
1.25
 50
270.0
 51
0.000003
  0
ARC
  5
91B
  8
0
 62
     3
 10
189.73680100000001
 20
-57.588135000000001
 30
0.0
 40
1.25
 50
0.000003
 51
90.000005000000002
  0
LINE
  5
91C
  8
0
  6
DASHSPACE
 62
     3
 10
180.23680100000001
 20
-60.338135000000001
 30
0.0
 11
180.23680100000001
 21
-60.838135000000001
 31
0.0
  0
LINE
  5
91D
  8
0
  6
DASHSPACE
 62
     3
 10
181.73680100000001
 20
-60.338135000000001
 30
0.0
 11
181.73680100000001
 21
-60.838135000000001
 31
0.0
  0
LINE
  5
91E
  8
0
 62
     3
 10
180.23680100000001
 20
-168.33813499999999
 30
0.0
 11
180.23680100000001
 21
-168.83813499999999
 31
0.0
  0
LINE
  5
91F
  8
0
 62
     3
 10
181.73680100000001
 20
-168.33813499999999
 30
0.0
 11
181.73680100000001
 21
-168.83813499999999
 31
0.0
  0
ARC
  5
920
  8
0
  6
DASHSPACE
 62
     3
 10
180.98680100000001
 20
-60.338135000000001
 30
0.0
 40
0.75
 50
0.000003
 51
180.00000099999991
  0
ARC
  5
921
  8
0
 62
     3
 10
180.98680100000001
 20
-61.338135000000001
 30
0.0
 40
0.75
 50
180.00000099999991
 51
0.000003
  0
LINE
  5
922
  8
0
 62
     3
 10
181.73680100000001
 20
-60.838135000000001
 30
0.0
 11
181.73680100000001
 21
-61.338135000000001
 31
0.0
  0
LINE
  5
923
  8
0
 62
     3
 10
180.23680100000001
 20
-60.838135000000001
 30
0.0
 11
180.23680100000001
 21
-61.338135000000001
 31
0.0
  0
ARC
  5
924
  8
0
 62
     3
 10
180.98680100000001
 20
-168.33813499999999
 30
0.0
 40
0.75
 50
0.000003
 51
180.00000099999991
  0
ARC
  5
925
  8
0
  6
DASHSPACE
 62
     3
 10
180.98680100000001
 20
-169.33813499999999
 30
0.0
 40
0.75
 50
180.00000099999991
 51
0.000003
  0
LINE
  5
926
  8
0
  6
DASHSPACE
 62
     3
 10
181.73680100000001
 20
-168.83813499999999
 30
0.0
 11
181.73680100000001
 21
-169.33813499999999
 31
0.0
  0
LINE
  5
927
  8
0
  6
DASHSPACE
 62
     3
 10
180.23680100000001
 20
-168.83813499999999
 30
0.0
 11
180.23680100000001
 21
-169.33813499999999
 31
0.0
  0
ENDBLK
  5
928
  8
0
  0
BLOCK
  8
0
  2
BLOCK57
 70
     0
 10
0.0
 20
0.0
 30
0.0
  3
BLOCK57
  1

  0
TEXT
  5
92A
  8
0
 62
     7
 10
253.6975709999999
 20
-106.58813499999999
 30
0.0
 40
3.0
  1
105
 50
270.0
 41
1.432750773232002
 72
     5
 11
253.6975709999999
 21
-114.2881159999999
 31
0.0
  0
ENDBLK
  5
92B
  8
0
  0
BLOCK
  8
0
  2
BLOCK58
 70
     0
 10
0.0
 20
0.0
 30
0.0
  3
BLOCK58
  1

  0
TEXT
  5
92D
  8
0
 62
     7
 10
-44.520882
 20
-126.83813499999999
 30
0.0
 40
3.0
  1
35
 50
269.99996527526412
 41
1.2776612311939379
 72
     5
 11
-44.520885
 21
-131.78813199999999
 31
0.0
  0
ENDBLK
  5
92E
  8
0
  0
BLOCK
  8
0
  2
BLOCK59
 70
     0
 10
0.0
 20
0.0
 30
0.0
  3
BLOCK59
  1

  0
TEXT
  5
930
  8
0
 62
     7
 10
-44.520870000000002
 20
-91.838134999999994
 30
0.0
 40
3.0
  1
35
 50
269.99995370027727
 41
1.2776591662858261
 72
     5
 11
-44.520873999999992
 21
-96.788123999999996
 31
0.0
  0
ENDBLK
  5
931
  8
0
  0
BLOCK
  8
0
  2
BLOCK60
 70
     0
 10
0.0
 20
0.0
 30
0.0
  3
BLOCK60
  1

  0
TEXT
  5
933
  8
0
 62
     7
 10
109.3633269999999
 20
31.445557000000001
 30
0.0
 40
3.0
  1
X
 50
270.0
 41
0.9777782222222221
 72
     5
 11
109.3633269999999
 21
29.245556000000001
 31
0.0
  0
ENDBLK
  5
934
  8
0
  0
BLOCK
  8
0
  2
BLOCK61
 70
     0
 10
0.0
 20
0.0
 30
0.0
  3
BLOCK61
  1

  0
TEXT
  5
936
  8
0
 62
     7
 10
287.56964099999988
 20
-113.062927
 30
0.0
 40
3.0
  1
Y
 50
270.0
 41
0.9777764444444427
 72
     5
 11
287.56964099999988
 21
-115.2629239999999
 31
0.0
  0
ENDBLK
  5
937
  8
0
  0
BLOCK
  8
0
  2
BLOCK62
 70
     0
 10
0.0
 20
0.0
 30
0.0
  3
BLOCK62
  1

  0
TEXT
  5
939
  8
0
 62
     7
 10
110.171249
 20
-22.224487
 30
0.0
 40
3.0
  1
175
 50
359.9999851179445
 41
1.4327509593040431
 72
     5
 11
117.87123099999999
 21
-22.224488999999998
 31
0.0
  0
ENDBLK
  5
93A
  8
0
  0
BLOCK
  8
0
  2
BLOCK63
 70
     0
 10
0.0
 20
0.0
 30
0.0
  3
BLOCK63
  1

  0
TEXT
  5
93C
  8
0
 62
     7
 10
141.61180100000001
 20
-39.591064000000003
 30
0.0
 40
3.0
  1
89,75
 50
359.99998263759909
 41
1.445028188850493
 72
     5
 11
154.811768
 21
-39.591068
 31
0.0
  0
ENDBLK
  5
93D
  8
0
  0
BLOCK
  8
0
  2
BLOCK64
 70
     0
 10
0.0
 20
0.0
 30
0.0
  3
BLOCK64
  1

  0
TEXT
  5
93F
  8
0
 62
     7
 10
157.61180100000001
 20
-4.7802119999999997
 30
0.0
 40
3.0
  1
127,25
 50
359.99997844666251
 41
1.5012758433756499
 72
     5
 11
173.56175200000001
 21
-4.7802179999999987
 31
0.0
  0
ENDBLK
  5
940
  8
0
  0
BLOCK
  8
0
  2
BLOCK65
 70
     0
 10
0.0
 20
0.0
 30
0.0
  3
BLOCK65
  1

  0
TEXT
  5
942
  8
0
 62
     7
 10
104.486801
 20
12.340332
 30
0.0
 40
3.0
  1
250
 50
359.99997767691679
 41
1.315704963336797
 72
     5
 11
112.18678300000001
 21
12.34032899999999
 31
0.0
  0
ENDBLK
  5
943
  8
0
  0
BLOCK
  8
0
  2
BLOCK66
 70
     0
 10
0.0
 20
0.0
 30
0.0
  3
BLOCK66
  1

  0
TEXT
  5
945
  8
0
 62
     7
 10
273.85708599999992
 20
-106.58813499999999
 30
0.0
 40
3.0
  1
117
 50
270.0
 41
1.655909892473113
 72
     5
 11
273.85708599999992
 21
-114.2881159999999
 31
0.0
  0
ENDBLK
  5
946
  8
0
  0
BLOCK
  8
0
  2
BLOCK67
 70
     0
 10
0.0
 20
0.0
 30
0.0
  3
BLOCK67
  1

  0
TEXT
  5
948
  8
0
 62
     7
 10
102.23680899999999
 20
-193.64343299999999
 30
0.0
 40
3.0
  1
161
 41
1.655909892473117
 72
     5
 11
109.9367899999999
 21
-193.64343299999999
 31
0.0
  0
ENDBLK
  5
949
  8
0
  0
BLOCK
  8
0
  2
BLOCK68
 70
     0
 10
0.0
 20
0.0
 30
0.0
  3
BLOCK68
  1

  0
TEXT
  5
94B
  8
0
 62
     7
 10
-6.0
 20
-104.0
 30
0.0
 40
3.0
  1
X
 50
90.0
 41
0.9777764444444425
 72
     5
 11
-6.0
 21
-101.800003
 31
0.0
  0
ENDBLK
  5
94C
  8
0
  0
BLOCK
  8
0
  2
BLOCK69
 70
     0
 10
0.0
 20
0.0
 30
0.0
  3
BLOCK69
  1

  0
TEXT
  5
94E
  8
0
 62
     7
 10
-3.0
 20
113.0
 30
0.0
 40
3.0
  1
X
 50
90.0
 41
0.9777764444444425
 72
     5
 11
-3.0
 21
115.199997
 31
0.0
  0
ENDBLK
  5
94F
  8
0
  0
BLOCK
  8
0
  2
BLOCK70
 70
     0
 10
0.0
 20
0.0
 30
0.0
  3
BLOCK70
  1

  0
TEXT
  5
951
  8
0
 62
     7
 10
-143.0
 20
-2.0
 30
0.0
 40
3.0
  1
Y
 50
90.0
 41
0.9777777777777778
 72
     5
 11
-143.0
 21
0.2
 31
0.0
  0
ENDBLK
  5
952
  8
0
  0
BLOCK
  8
0
  2
BLOCK71
 70
     0
 10
0.0
 20
0.0
 30
0.0
  3
BLOCK71
  1

  0
TEXT
  5
954
  8
0
 62
     7
 10
112.0
 20
0.0
 30
0.0
 40
3.0
  1
Y
 50
90.0
 41
0.9777777777777778
 72
     5
 11
112.0
 21
2.2000000000000002
 31
0.0
  0
ENDBLK
  5
955
  8
0
  0
BLOCK
  8
0
  2
BLOCK72
 70
     0
 10
0.0
 20
0.0
 30
0.0
  3
BLOCK72
  1

  0
TEXT
  5
957
  8
0
 62
     7
 10
18.75
 20
-114.0482479999999
 30
0.0
 40
3.0
  1
112
 50
179.99994791279229
 41
1.594140284384026
 72
     5
 11
11.05002
 21
-114.0482409999999
 31
0.0
  0
ENDBLK
  5
958
  8
0
  0
BLOCK
  8
0
  2
BLOCK73
 70
     0
 10
0.0
 20
0.0
 30
0.0
  3
BLOCK73
  1

  0
TEXT
  5
95A
  8
0
 62
     7
 10
18.75
 20
-139.67593400000001
 30
0.0
 40
3.0
  1
142
 50
180.0
 41
1.3437594995413831
 72
     5
 11
11.05002
 21
-139.67593400000001
 31
0.0
  0
ENDBLK
  5
95B
  8
0
  0
BLOCK
  8
0
  2
BLOCK74
 70
     0
 10
0.0
 20
0.0
 30
0.0
  3
BLOCK74
  1

  0
TEXT
  5
95D
  8
0
 62
     7
 10
-107.01321399999991
 20
-11.0
 30
0.0
 40
3.0
  1
80
 50
90.0
 41
1.3191663623963901
 72
     5
 11
-107.01321399999991
 21
-6.0500099999999994
 31
0.0
  0
ENDBLK
  5
95E
  8
0
  0
BLOCK
  8
0
  2
BLOCK75
 70
     0
 10
0.0
 20
0.0
 30
0.0
  3
BLOCK75
  1

  0
TEXT
  5
960
  8
0
 62
     7
 10
-133.64590499999991
 20
-16.5
 30
0.0
 40
3.0
  1
112
 50
90.0
 41
1.594140284383367
 72
     5
 11
-133.64590499999991
 21
-8.8000199999999982
 31
0.0
  0
ENDBLK
  5
961
  8
0
  0
BLOCK
  8
0
  2
BLOCK76
 70
     0
 10
0.0
 20
0.0
 30
0.0
  3
BLOCK76
  1

  0
TEXT
  5
963
  8
0
 62
     7
 10
122.342247
 20
-111.270241
 30
0.0
 40
3.0
  1
 7
 50
127.208991815896
 41
1.736838417501279
 72
     5
 11
119.34886899999989
 21
-107.3278959999999
 31
0.0
  0
ENDBLK
  5
964
  8
0
  0
BLOCK
  8
0
  2
BLOCK77
 70
     0
 10
0.0
 20
0.0
 30
0.0
  3
BLOCK77
  1

  0
TEXT
  5
966
  8
0
 62
     7
 10
123.3097919999999
 20
-112.544533
 30
0.0
 40
3.0
  1
%%c
 50
127.20891870335301
 41
0.9777779165820099
 72
     5
 11
121.9794009999999
 21
-110.7923739999999
 31
0.0
  0
ENDBLK
  5
967
  8
0
  0
ENDSEC
  0
SECTION
  2
ENTITIES
  0
LINE
  5
25
  8
0
  6
DASHDOT
 62
     7
 10
774.32768999999996
 20
744.24204000000009
 30
0.0
 11
774.32768999999996
 21
501.35940999999991
 31
0.0
  0
POLYLINE
  5
26
  8
0
 62
     3
 66
     1
 10
0.0
 20
0.0
 30
0.0
  0
VERTEX
  5
9C9
  8
0
 62
     3
 10
706.82768999999996
 20
738.60180400000002
 30
0.0
  0
VERTEX
  5
9CA
  8
0
 62
     3
 10
706.82768999999996
 20
722.60180400000002
 30
0.0
  0
VERTEX
  5
9CB
  8
0
 62
     3
 10
708.82769000000008
 20
721.60180400000002
 30
0.0
  0
VERTEX
  5
9CC
  8
0
 62
     3
 10
704.82769000000008
 20
720.60180400000002
 30
0.0
  0
VERTEX
  5
9CD
  8
0
 62
     3
 10
706.82768999999996
 20
719.60180400000002
 30
0.0
  0
VERTEX
  5
9CE
  8
0
 62
     3
 10
706.82768999999996
 20
703.60180400000002
 30
0.0
  0
VERTEX
  5
9CF
  8
0
 62
     3
 10
708.82769000000008
 20
702.60180400000002
 30
0.0
  0
VERTEX
  5
9D0
  8
0
 62
     3
 10
704.82769000000008
 20
701.60180400000002
 30
0.0
  0
VERTEX
  5
9D1
  8
0
 62
     3
 10
706.82768999999996
 20
700.60180400000002
 30
0.0
  0
VERTEX
  5
9D2
  8
0
 62
     3
 10
706.82768999999996
 20
684.60180400000002
 30
0.0
  0
VERTEX
  5
9D3
  8
0
 62
     3
 10
708.82769000000008
 20
683.6018039999999
 30
0.0
  0
VERTEX
  5
9D4
  8
0
 62
     3
 10
704.82769000000008
 20
682.60180400000002
 30
0.0
  0
VERTEX
  5
9D5
  8
0
 62
     3
 10
706.82768999999996
 20
681.60180400000002
 30
0.0
  0
VERTEX
  5
9D6
  8
0
 62
     3
 10
706.82768999999996
 20
665.60180400000002
 30
0.0
  0
VERTEX
  5
9D7
  8
0
 62
     3
 10
708.82769000000008
 20
664.60180400000002
 30
0.0
  0
VERTEX
  5
9D8
  8
0
 62
     3
 10
704.82769000000008
 20
663.60180400000002
 30
0.0
  0
VERTEX
  5
9D9
  8
0
 62
     3
 10
706.82768999999996
 20
662.6018039999999
 30
0.0
  0
VERTEX
  5
9DA
  8
0
 62
     3
 10
706.82768999999996
 20
646.60180400000002
 30
0.0
  0
VERTEX
  5
9DB
  8
0
 62
     3
 10
708.82769000000008
 20
645.60180400000002
 30
0.0
  0
VERTEX
  5
9DC
  8
0
 62
     3
 10
704.82769000000008
 20
644.60180400000002
 30
0.0
  0
VERTEX
  5
9DD
  8
0
 62
     3
 10
706.82768999999996
 20
643.60180400000002
 30
0.0
  0
VERTEX
  5
9DE
  8
0
 62
     3
 10
706.82768999999996
 20
627.60180400000002
 30
0.0
  0
VERTEX
  5
9DF
  8
0
 62
     3
 10
708.82769000000008
 20
626.60180400000002
 30
0.0
  0
VERTEX
  5
9E0
  8
0
 62
     3
 10
704.82769000000008
 20
625.60180400000002
 30
0.0
  0
VERTEX
  5
9E1
  8
0
 62
     3
 10
706.82768999999996
 20
624.60180400000002
 30
0.0
  0
VERTEX
  5
9E2
  8
0
 62
     3
 10
706.82768999999996
 20
608.6018039999999
 30
0.0
  0
VERTEX
  5
9E3
  8
0
 62
     3
 10
708.82769000000008
 20
607.60180400000002
 30
0.0
  0
VERTEX
  5
9E4
  8
0
 62
     3
 10
704.82769000000008
 20
606.60180400000002
 30
0.0
  0
VERTEX
  5
9E5
  8
0
 62
     3
 10
706.82768999999996
 20
605.60180400000002
 30
0.0
  0
VERTEX
  5
9E6
  8
0
 62
     3
 10
706.82768999999996
 20
589.60180400000002
 30
0.0
  0
VERTEX
  5
9E7
  8
0
 62
     3
 10
708.82769000000008
 20
588.60180400000002
 30
0.0
  0
VERTEX
  5
9E8
  8
0
 62
     3
 10
704.82769000000008
 20
587.6018039999999
 30
0.0
  0
VERTEX
  5
9E9
  8
0
 62
     3
 10
706.82768999999996
 20
586.60180400000002
 30
0.0
  0
VERTEX
  5
9EA
  8
0
 62
     3
 10
706.82768999999996
 20
570.60180400000002
 30
0.0
  0
VERTEX
  5
9EB
  8
0
 62
     3
 10
708.82769000000008
 20
569.60180400000002
 30
0.0
  0
VERTEX
  5
9EC
  8
0
 62
     3
 10
704.82769000000008
 20
568.60180400000002
 30
0.0
  0
VERTEX
  5
9ED
  8
0
 62
     3
 10
706.82768999999996
 20
567.60180400000002
 30
0.0
  0
VERTEX
  5
9EE
  8
0
 62
     3
 10
706.82768999999996
 20
551.60180400000002
 30
0.0
  0
VERTEX
  5
9EF
  8
0
 62
     3
 10
708.82769000000008
 20
550.6018039999999
 30
0.0
  0
VERTEX
  5
9F0
  8
0
 62
     3
 10
704.82769000000008
 20
549.60180400000002
 30
0.0
  0
VERTEX
  5
9F1
  8
0
 62
     3
 10
706.82768999999996
 20
548.60180400000002
 30
0.0
  0
VERTEX
  5
9F2
  8
0
 62
     3
 10
706.82768999999996
 20
532.60180400000002
 30
0.0
  0
VERTEX
  5
9F3
  8
0
 62
     3
 10
708.82769000000008
 20
531.60180400000002
 30
0.0
  0
VERTEX
  5
9F4
  8
0
 62
     3
 10
704.82769000000008
 20
530.60180400000002
 30
0.0
  0
VERTEX
  5
9F5
  8
0
 62
     3
 10
706.82768999999996
 20
529.6018039999999
 30
0.0
  0
VERTEX
  5
9F6
  8
0
 62
     3
 10
706.82768999999996
 20
515.1074799999999
 30
0.0
  0
SEQEND
  5
9F7
  8
0
 62
     3
  0
POLYLINE
  5
56
  8
0
 62
     3
 66
     1
 10
0.0
 20
0.0
 30
0.0
  0
VERTEX
  5
9F8
  8
0
 62
     3
 10
821.82769000000008
 20
738.60180400000002
 30
0.0
  0
VERTEX
  5
9F9
  8
0
 62
     3
 10
821.82769000000008
 20
722.60180400000002
 30
0.0
  0
VERTEX
  5
9FA
  8
0
 62
     3
 10
823.82768999999996
 20
721.60180400000002
 30
0.0
  0
VERTEX
  5
9FB
  8
0
 62
     3
 10
819.82769000000008
 20
720.60180400000002
 30
0.0
  0
VERTEX
  5
9FC
  8
0
 62
     3
 10
821.82769000000008
 20
719.60180400000002
 30
0.0
  0
VERTEX
  5
9FD
  8
0
 62
     3
 10
821.82769000000008
 20
703.60180400000002
 30
0.0
  0
VERTEX
  5
9FE
  8
0
 62
     3
 10
823.82768999999996
 20
702.60180400000002
 30
0.0
  0
VERTEX
  5
9FF
  8
0
 62
     3
 10
819.82769000000008
 20
701.60180400000002
 30
0.0
  0
VERTEX
  5
A00
  8
0
 62
     3
 10
821.82769000000008
 20
700.60180400000002
 30
0.0
  0
VERTEX
  5
A01
  8
0
 62
     3
 10
821.82769000000008
 20
684.60180400000002
 30
0.0
  0
VERTEX
  5
A02
  8
0
 62
     3
 10
823.82768999999996
 20
683.6018039999999
 30
0.0
  0
VERTEX
  5
A03
  8
0
 62
     3
 10
819.82769000000008
 20
682.60180400000002
 30
0.0
  0
VERTEX
  5
A04
  8
0
 62
     3
 10
821.82769000000008
 20
681.60180400000002
 30
0.0
  0
VERTEX
  5
A05
  8
0
 62
     3
 10
821.82769000000008
 20
665.60180400000002
 30
0.0
  0
VERTEX
  5
A06
  8
0
 62
     3
 10
823.82768999999996
 20
664.60180400000002
 30
0.0
  0
VERTEX
  5
A07
  8
0
 62
     3
 10
819.82769000000008
 20
663.60180400000002
 30
0.0
  0
VERTEX
  5
A08
  8
0
 62
     3
 10
821.82769000000008
 20
662.6018039999999
 30
0.0
  0
VERTEX
  5
A09
  8
0
 62
     3
 10
821.82769000000008
 20
646.60180400000002
 30
0.0
  0
VERTEX
  5
A0A
  8
0
 62
     3
 10
823.82768999999996
 20
645.60180400000002
 30
0.0
  0
VERTEX
  5
A0B
  8
0
 62
     3
 10
819.82769000000008
 20
644.60180400000002
 30
0.0
  0
VERTEX
  5
A0C
  8
0
 62
     3
 10
821.82769000000008
 20
643.60180400000002
 30
0.0
  0
VERTEX
  5
A0D
  8
0
 62
     3
 10
821.82769000000008
 20
627.60180400000002
 30
0.0
  0
VERTEX
  5
A0E
  8
0
 62
     3
 10
823.82768999999996
 20
626.60180400000002
 30
0.0
  0
VERTEX
  5
A0F
  8
0
 62
     3
 10
819.82769000000008
 20
625.60180400000002
 30
0.0
  0
VERTEX
  5
A10
  8
0
 62
     3
 10
821.82769000000008
 20
624.60180400000002
 30
0.0
  0
VERTEX
  5
A11
  8
0
 62
     3
 10
821.82769000000008
 20
608.6018039999999
 30
0.0
  0
VERTEX
  5
A12
  8
0
 62
     3
 10
823.82768999999996
 20
607.60180400000002
 30
0.0
  0
VERTEX
  5
A13
  8
0
 62
     3
 10
819.82769000000008
 20
606.60180400000002
 30
0.0
  0
VERTEX
  5
A14
  8
0
 62
     3
 10
821.82769000000008
 20
605.60180400000002
 30
0.0
  0
VERTEX
  5
A15
  8
0
 62
     3
 10
821.82769000000008
 20
589.60180400000002
 30
0.0
  0
VERTEX
  5
A16
  8
0
 62
     3
 10
823.82768999999996
 20
588.60180400000002
 30
0.0
  0
VERTEX
  5
A17
  8
0
 62
     3
 10
819.82769000000008
 20
587.6018039999999
 30
0.0
  0
VERTEX
  5
A18
  8
0
 62
     3
 10
821.82769000000008
 20
586.60180400000002
 30
0.0
  0
VERTEX
  5
A19
  8
0
 62
     3
 10
821.82769000000008
 20
570.60180400000002
 30
0.0
  0
VERTEX
  5
A1A
  8
0
 62
     3
 10
823.82768999999996
 20
569.60180400000002
 30
0.0
  0
VERTEX
  5
A1B
  8
0
 62
     3
 10
819.82769000000008
 20
568.60180400000002
 30
0.0
  0
VERTEX
  5
A1C
  8
0
 62
     3
 10
821.82769000000008
 20
567.60180400000002
 30
0.0
  0
VERTEX
  5
A1D
  8
0
 62
     3
 10
821.82769000000008
 20
551.60180400000002
 30
0.0
  0
VERTEX
  5
A1E
  8
0
 62
     3
 10
823.82768999999996
 20
550.6018039999999
 30
0.0
  0
VERTEX
  5
A1F
  8
0
 62
     3
 10
819.82769000000008
 20
549.60180400000002
 30
0.0
  0
VERTEX
  5
A20
  8
0
 62
     3
 10
821.82769000000008
 20
548.60180400000002
 30
0.0
  0
VERTEX
  5
A21
  8
0
 62
     3
 10
821.82769000000008
 20
532.60180400000002
 30
0.0
  0
VERTEX
  5
A22
  8
0
 62
     3
 10
823.82768999999996
 20
531.60180400000002
 30
0.0
  0
VERTEX
  5
A23
  8
0
 62
     3
 10
819.82769000000008
 20
530.60180400000002
 30
0.0
  0
VERTEX
  5
A24
  8
0
 62
     3
 10
821.82769000000008
 20
529.6018039999999
 30
0.0
  0
VERTEX
  5
A25
  8
0
 62
     3
 10
821.82769000000008
 20
516.16502899999989
 30
0.0
  0
SEQEND
  5
A26
  8
0
 62
     3
  0
POLYLINE
  5
86
  8
0
 62
     3
 66
     1
 10
0.0
 20
0.0
 30
0.0
  0
VERTEX
  5
A27
  8
0
 62
     3
 10
839.17977099999996
 20
727.171063
 30
0.0
  0
VERTEX
  5
A28
  8
0
 62
     3
 10
823.17977099999996
 20
727.171063
 30
0.0
  0
VERTEX
  5
A29
  8
0
 62
     3
 10
822.17977099999996
 20
725.17106299999989
 30
0.0
  0
VERTEX
  5
A2A
  8
0
 62
     3
 10
821.17977099999985
 20
729.17106299999989
 30
0.0
  0
VERTEX
  5
A2B
  8
0
 62
     3
 10
820.17977099999985
 20
727.171063
 30
0.0
  0
VERTEX
  5
A2C
  8
0
 62
     3
 10
804.17977099999985
 20
727.171063
 30
0.0
  0
VERTEX
  5
A2D
  8
0
 62
     3
 10
803.17977099999985
 20
725.17106299999989
 30
0.0
  0
VERTEX
  5
A2E
  8
0
 62
     3
 10
802.17977099999985
 20
729.17106299999989
 30
0.0
  0
VERTEX
  5
A2F
  8
0
 62
     3
 10
801.17977099999985
 20
727.171063
 30
0.0
  0
VERTEX
  5
A30
  8
0
 62
     3
 10
785.17977099999985
 20
727.171063
 30
0.0
  0
VERTEX
  5
A31
  8
0
 62
     3
 10
784.17977099999985
 20
725.17106299999989
 30
0.0
  0
VERTEX
  5
A32
  8
0
 62
     3
 10
783.17977099999996
 20
729.17106299999989
 30
0.0
  0
VERTEX
  5
A33
  8
0
 62
     3
 10
782.17977099999985
 20
727.171063
 30
0.0
  0
VERTEX
  5
A34
  8
0
 62
     3
 10
766.17977099999996
 20
727.171063
 30
0.0
  0
VERTEX
  5
A35
  8
0
 62
     3
 10
765.17977099999985
 20
725.17106299999989
 30
0.0
  0
VERTEX
  5
A36
  8
0
 62
     3
 10
764.17977099999985
 20
729.17106299999989
 30
0.0
  0
VERTEX
  5
A37
  8
0
 62
     3
 10
763.17977099999985
 20
727.171063
 30
0.0
  0
VERTEX
  5
A38
  8
0
 62
     3
 10
747.17977099999985
 20
727.171063
 30
0.0
  0
VERTEX
  5
A39
  8
0
 62
     3
 10
746.17977099999985
 20
725.17106299999989
 30
0.0
  0
VERTEX
  5
A3A
  8
0
 62
     3
 10
745.17977099999996
 20
729.17106299999989
 30
0.0
  0
VERTEX
  5
A3B
  8
0
 62
     3
 10
744.17977099999985
 20
727.171063
 30
0.0
  0
VERTEX
  5
A3C
  8
0
 62
     3
 10
728.17977099999985
 20
727.171063
 30
0.0
  0
VERTEX
  5
A3D
  8
0
 62
     3
 10
727.17977099999985
 20
725.17106299999989
 30
0.0
  0
VERTEX
  5
A3E
  8
0
 62
     3
 10
726.17977099999985
 20
729.17106299999989
 30
0.0
  0
VERTEX
  5
A3F
  8
0
 62
     3
 10
725.17977099999985
 20
727.171063
 30
0.0
  0
VERTEX
  5
A40
  8
0
 62
     3
 10
709.17977099999985
 20
727.171063
 30
0.0
  0
VERTEX
  5
A41
  8
0
 62
     3
 10
708.17977099999996
 20
725.17106299999989
 30
0.0
  0
VERTEX
  5
A42
  8
0
 62
     3
 10
707.17977099999985
 20
729.17106299999989
 30
0.0
  0
VERTEX
  5
A43
  8
0
 62
     3
 10
706.17977099999985
 20
727.171063
 30
0.0
  0
VERTEX
  5
A44
  8
0
 62
     3
 10
696.91078900000002
 20
727.171063
 30
0.0
  0
SEQEND
  5
A45
  8
0
 62
     3
  0
POLYLINE
  5
A6
  8
0
 62
     3
 66
     1
 10
0.0
 20
0.0
 30
0.0
  0
VERTEX
  5
A46
  8
0
 62
     3
 10
836.10424
 20
528.171063
 30
0.0
  0
VERTEX
  5
A47
  8
0
 62
     3
 10
820.10424
 20
528.171063
 30
0.0
  0
VERTEX
  5
A48
  8
0
 62
     3
 10
819.10424
 20
526.171063
 30
0.0
  0
VERTEX
  5
A49
  8
0
 62
     3
 10
818.10424
 20
530.171063
 30
0.0
  0
VERTEX
  5
A4A
  8
0
 62
     3
 10
817.10424000000012
 20
528.171063
 30
0.0
  0
VERTEX
  5
A4B
  8
0
 62
     3
 10
801.10424
 20
528.171063
 30
0.0
  0
VERTEX
  5
A4C
  8
0
 62
     3
 10
800.10423999999989
 20
526.171063
 30
0.0
  0
VERTEX
  5
A4D
  8
0
 62
     3
 10
799.10424
 20
530.171063
 30
0.0
  0
VERTEX
  5
A4E
  8
0
 62
     3
 10
798.10424
 20
528.171063
 30
0.0
  0
VERTEX
  5
A4F
  8
0
 62
     3
 10
782.10424
 20
528.171063
 30
0.0
  0
VERTEX
  5
A50
  8
0
 62
     3
 10
781.10423999999989
 20
526.171063
 30
0.0
  0
VERTEX
  5
A51
  8
0
 62
     3
 10
780.10424
 20
530.171063
 30
0.0
  0
VERTEX
  5
A52
  8
0
 62
     3
 10
779.10424
 20
528.171063
 30
0.0
  0
VERTEX
  5
A53
  8
0
 62
     3
 10
763.10424
 20
528.171063
 30
0.0
  0
VERTEX
  5
A54
  8
0
 62
     3
 10
762.10424
 20
526.171063
 30
0.0
  0
VERTEX
  5
A55
  8
0
 62
     3
 10
761.10424
 20
530.171063
 30
0.0
  0
VERTEX
  5
A56
  8
0
 62
     3
 10
760.10423999999989
 20
528.171063
 30
0.0
  0
VERTEX
  5
A57
  8
0
 62
     3
 10
744.10424
 20
528.171063
 30
0.0
  0
VERTEX
  5
A58
  8
0
 62
     3
 10
743.10423999999989
 20
526.171063
 30
0.0
  0
VERTEX
  5
A59
  8
0
 62
     3
 10
742.10424
 20
530.171063
 30
0.0
  0
VERTEX
  5
A5A
  8
0
 62
     3
 10
741.10424
 20
528.171063
 30
0.0
  0
VERTEX
  5
A5B
  8
0
 62
     3
 10
725.10424
 20
528.171063
 30
0.0
  0
VERTEX
  5
A5C
  8
0
 62
     3
 10
724.10424
 20
526.171063
 30
0.0
  0
VERTEX
  5
A5D
  8
0
 62
     3
 10
723.10423999999989
 20
530.171063
 30
0.0
  0
VERTEX
  5
A5E
  8
0
 62
     3
 10
722.10423999999989
 20
528.171063
 30
0.0
  0
VERTEX
  5
A5F
  8
0
 62
     3
 10
706.10423999999989
 20
528.171063
 30
0.0
  0
VERTEX
  5
A60
  8
0
 62
     3
 10
705.10424
 20
526.171063
 30
0.0
  0
VERTEX
  5
A61
  8
0
 62
     3
 10
704.10424
 20
530.171063
 30
0.0
  0
VERTEX
  5
A62
  8
0
 62
     3
 10
703.10424
 20
528.171063
 30
0.0
  0
VERTEX
  5
A63
  8
0
 62
     3
 10
695.90578499999992
 20
528.171063
 30
0.0
  0
SEQEND
  5
A64
  8
0
 62
     3
  0
CIRCLE
  5
C6
  8
0
 62
     7
 10
741.53319899999985
 20
710.25030199999992
 30
0.0
 40
0.4
  0
LINE
  5
C7
  8
0
 62
     7
 10
799.32768999999996
 20
699.47652900000003
 30
0.0
 11
799.32768999999996
 21
554.25304100000005
 31
0.0
  0
LINE
  5
C8
  8
0
  6
DASHDOT
 62
     7
 10
729.32769000000008
 20
703.49655599999994
 30
0.0
 11
729.32769000000008
 21
554.75554399999999
 31
0.0
  0
LINE
  5
C9
  8
0
  6
DASHDOT
 62
     7
 10
813.49158899999998
 20
677.671063
 30
0.0
 11
713.99591099999986
 21
677.671063
 31
0.0
  0
LINE
  5
CA
  8
0
  6
DASHDOT
 62
     7
 10
811.98407699999996
 20
577.671063
 30
0.0
 11
715.50341800000001
 21
577.671063
 31
0.0
  0
CIRCLE
  5
CB
  8
0
 62
     7
 10
729.32769000000008
 20
677.671063
 30
0.0
 40
2.5
  0
CIRCLE
  5
CC
  8
0
 62
     7
 10
799.32768999999996
 20
677.671063
 30
0.0
 40
2.5
  0
CIRCLE
  5
CD
  8
0
 62
     7
 10
799.32768999999996
 20
577.671063
 30
0.0
 40
2.5
  0
CIRCLE
  5
CE
  8
0
 62
     7
 10
729.32769000000008
 20
577.671063
 30
0.0
 40
2.5
  0
LINE
  5
CF
  8
0
  6
DASHDOT
 62
     7
 10
857.73348999999996
 20
625.421063
 30
0.0
 11
639.41083499999979
 21
625.421063
 31
0.0
  0
LINE
  5
D0
  8
0
 62
     7
 10
727.02056100000004
 20
576.70832499999995
 30
0.0
 11
715.31182100000001
 21
574.08045700000002
 31
0.0
  0
LINE
  5
D1
  8
0
 62
     7
 10
727.02056100000004
 20
576.70832499999995
 30
0.0
 11
716.91667900000004
 21
570.23432600000001
 31
0.0
  0
LINE
  5
D2
  8
0
 62
     7
 10
731.63481899999999
 20
578.63383199999987
 30
0.0
 11
743.34355900000003
 21
581.26170100000002
 31
0.0
  0
LINE
  5
D3
  8
0
 62
     7
 10
731.63481899999999
 20
578.63383199999987
 30
0.0
 11
741.73870099999988
 21
585.10783099999992
 31
0.0
  0
LINE
  5
D4
  8
0
 62
     7
 10
731.86565399999995
 20
578.73008400000003
 30
0.0
 11
617.33977500000003
 21
530.94092999999987
 31
0.0
  0
LINE
  5
D5
  8
0
 62
     7
 10
891.88213299999995
 20
677.671063
 30
0.0
 11
889.79839299999981
 21
665.85337500000003
 31
0.0
  0
LINE
  5
D6
  8
0
 62
     7
 10
891.88213299999995
 20
677.671063
 30
0.0
 11
893.96587399999999
 21
665.85337500000003
 31
0.0
  0
LINE
  5
D7
  8
0
 62
     7
 10
891.88213299999995
 20
577.671063
 30
0.0
 11
893.96587399999999
 21
589.48878200000001
 31
0.0
  0
LINE
  5
D8
  8
0
 62
     7
 10
891.88213299999995
 20
577.671063
 30
0.0
 11
889.798271
 21
589.48878200000001
 31
0.0
  0
LINE
  5
D9
  8
0
 62
     7
 10
891.88213299999995
 20
677.671063
 30
0.0
 11
891.88213299999995
 21
577.671063
 31
0.0
  0
LINE
  5
DA
  8
0
 62
     7
 10
899.88213299999995
 20
677.671063
 30
0.0
 11
813.49163099999987
 21
677.67107899999996
 31
0.0
  0
LINE
  5
DB
  8
0
 62
     7
 10
899.88213299999995
 20
577.671063
 30
0.0
 11
811.98406199999988
 21
577.67109400000004
 31
0.0
  0
LINE
  5
DC
  8
0
 62
     7
 10
799.32768999999996
 20
488.927594
 30
0.0
 11
811.14543900000001
 21
486.84382299999999
 31
0.0
  0
LINE
  5
DD
  8
0
 62
     7
 10
799.32768999999996
 20
488.927594
 30
0.0
 11
811.14543900000001
 21
491.01139499999999
 31
0.0
  0
LINE
  5
DE
  8
0
 62
     7
 10
774.32768999999996
 20
488.927594
 30
0.0
 11
762.51006299999995
 21
491.01139499999999
 31
0.0
  0
LINE
  5
DF
  8
0
 62
     7
 10
774.32768999999996
 20
488.927594
 30
0.0
 11
762.51006299999995
 21
486.84382299999999
 31
0.0
  0
LINE
  5
E0
  8
0
 62
     7
 10
833.32769000000008
 20
488.927594
 30
0.0
 11
774.32768999999996
 21
488.927594
 31
0.0
  0
LINE
  5
E1
  8
0
 62
     7
 10
799.32768999999996
 20
480.927594
 30
0.0
 11
799.32768999999996
 21
554.25303399999984
 31
0.0
  0
LINE
  5
E2
  8
0
 62
     7
 10
774.32768999999996
 20
480.927594
 30
0.0
 11
774.32768999999996
 21
501.35941799999989
 31
0.0
  0
LINE
  5
E3
  8
0
 62
     7
 10
774.32768999999996
 20
452.24485499999997
 30
0.0
 11
762.50994100000003
 21
454.32862599999999
 31
0.0
  0
LINE
  5
E4
  8
0
 62
     7
 10
774.32768999999996
 20
452.24485499999997
 30
0.0
 11
762.50994100000003
 21
450.1610839999999
 31
0.0
  0
LINE
  5
E5
  8
0
 62
     7
 10
729.32769000000008
 20
452.24485499999997
 30
0.0
 11
741.14543900000001
 21
450.1610839999999
 31
0.0
  0
LINE
  5
E6
  8
0
 62
     7
 10
729.32769000000008
 20
452.24485499999997
 30
0.0
 11
741.14543900000001
 21
454.32862599999999
 31
0.0
  0
LINE
  5
E7
  8
0
 62
     7
 10
808.32769000000008
 20
452.24485499999997
 30
0.0
 11
729.32769000000008
 21
452.24485499999997
 31
0.0
  0
LINE
  5
E8
  8
0
 62
     7
 10
774.32768999999996
 20
444.24485499999992
 30
0.0
 11
774.32768999999996
 21
501.35941799999989
 31
0.0
  0
LINE
  5
E9
  8
0
 62
     7
 10
729.32769000000008
 20
444.24485499999992
 30
0.0
 11
729.32769000000008
 21
554.75553600000001
 31
0.0
  0
LINE
  5
EA
  8
0
 62
     7
 10
663.66887699999995
 20
677.671063
 30
0.0
 11
661.58513600000003
 21
665.85337500000003
 31
0.0
  0
LINE
  5
EB
  8
0
 62
     7
 10
663.66887699999995
 20
677.671063
 30
0.0
 11
665.75273900000002
 21
665.85337500000003
 31
0.0
  0
LINE
  5
EC
  8
0
 62
     7
 10
663.66887699999995
 20
625.421063
 30
0.0
 11
665.75273900000002
 21
637.23875099999998
 31
0.0
  0
LINE
  5
ED
  8
0
 62
     7
 10
663.66887699999995
 20
625.421063
 30
0.0
 11
661.58513600000003
 21
637.23875099999998
 31
0.0
  0
LINE
  5
EE
  8
0
 62
     7
 10
663.66887699999995
 20
684.80912499999999
 30
0.0
 11
663.66887699999995
 21
625.421063
 31
0.0
  0
LINE
  5
EF
  8
0
 62
     7
 10
655.66887699999995
 20
677.671063
 30
0.0
 11
713.99590299999988
 21
677.671063
 31
0.0
  0
LINE
  5
F0
  8
0
 62
     3
 10
176.81334699999991
 20
545.47107800000003
 30
0.0
 11
104.81334699999999
 21
545.47107800000003
 31
0.0
  0
LINE
  5
F1
  8
0
 62
     7
 10
104.81334699999999
 20
540.17107699999997
 30
0.0
 11
104.81334699999999
 21
582.96529899999996
 31
0.0
  0
LINE
  5
F2
  8
0
 62
     7
 10
104.81334699999999
 20
582.96526799999992
 30
0.0
 11
104.81334699999999
 21
715.171063
 31
0.0
  0
LINE
  5
F3
  8
0
 62
     7
 10
102.81334699999989
 20
692.30268599999999
 30
0.0
 11
102.81334699999989
 21
702.17103299999985
 31
0.0
  0
LINE
  5
F4
  8
0
 62
     7
 10
173.313343
 20
641.67104099999995
 30
0.0
 11
173.31332399999991
 21
649.921063
 31
0.0
  0
LINE
  5
F5
  8
0
 62
     7
 10
175.81328799999989
 20
696.17106299999989
 30
0.0
 11
176.520411
 21
696.46395599999994
 31
0.0
  0
LINE
  5
F6
  8
0
 62
     7
 10
176.52042399999991
 20
696.46392500000002
 30
0.0
 11
176.8133159999999
 21
697.17103299999985
 31
0.0
  0
LINE
  5
F7
  8
0
 62
     7
 10
173.313332
 20
689.171063
 30
0.0
 11
173.31334699999999
 21
696.17106299999989
 31
0.0
  0
LINE
  5
F8
  8
0
 62
     7
 10
175.8133159999999
 20
696.17106299999989
 30
0.0
 11
173.31334699999999
 21
696.17106299999989
 31
0.0
  0
LINE
  5
F9
  8
0
 62
     7
 10
173.313332
 20
649.921063
 30
0.0
 11
173.313332
 21
689.171063
 31
0.0
  0
LINE
  5
FA
  8
0
 62
     7
 10
168.81334699999991
 20
599.171063
 30
0.0
 11
168.81334699999991
 21
639.671063
 31
0.0
  0
LINE
  5
FB
  8
0
 62
     7
 10
168.813377
 20
639.67111699999987
 30
0.0
 11
169.081322
 21
640.67111699999998
 31
0.0
  0
LINE
  5
FC
  8
0
 62
     7
 10
169.081356
 20
640.67115499999989
 30
0.0
 11
169.8133959999999
 21
641.40321100000006
 31
0.0
  0
LINE
  5
FD
  8
0
 62
     7
 10
169.8132929999999
 20
641.40309599999989
 30
0.0
 11
170.813309
 21
641.67104099999995
 31
0.0
  0
LINE
  5
FE
  8
0
 62
     7
 10
176.81334699999991
 20
599.171063
 30
0.0
 11
168.81334699999991
 21
599.171063
 31
0.0
  0
LINE
  5
FF
  8
0
 62
     7
 10
176.81330500000001
 20
584.17104800000004
 30
0.0
 11
175.81322899999989
 21
585.17104800000004
 31
0.0
  0
LINE
  5
100
  8
0
 62
     7
 10
175.81325100000001
 20
596.17107099999998
 30
0.0
 11
176.81334299999989
 21
597.17107099999987
 31
0.0
  0
LINE
  5
101
  8
0
 62
     7
 10
175.8132379999999
 20
596.17103299999985
 30
0.0
 11
113.045433
 21
596.17103299999985
 31
0.0
  0
LINE
  5
102
  8
0
 62
     7
 10
175.813253
 20
585.171063
 30
0.0
 11
113.04538699999991
 21
585.171063
 31
0.0
  0
LINE
  5
103
  8
0
 62
     7
 10
113.0454249999999
 20
596.17101799999989
 30
0.0
 11
109.3133389999999
 21
597.17103299999985
 31
0.0
  0
LINE
  5
104
  8
0
 62
     7
 10
109.313377
 20
597.17102499999999
 30
0.0
 11
105.8133389999999
 21
598.10886100000005
 31
0.0
  0
LINE
  5
105
  8
0
 62
     7
 10
104.81334699999999
 20
582.96529899999996
 30
0.0
 11
113.04538699999991
 21
585.171063
 31
0.0
  0
LINE
  5
106
  8
0
 62
     7
 10
104.8133619999999
 20
600.46536700000001
 30
0.0
 11
105.813354
 21
600.73331199999996
 31
0.0
  0
LINE
  5
107
  8
0
 62
     7
 10
108.81334699999999
 20
576.67104800000004
 30
0.0
 11
104.81334699999999
 21
576.67104800000004
 31
0.0
  0
LINE
  5
108
  8
0
 62
     7
 10
108.81334699999999
 20
545.47107800000003
 30
0.0
 11
108.81334699999999
 21
576.67104800000004
 31
0.0
  0
LINE
  5
109
  8
0
 62
     7
 10
105.81334699999999
 20
583.23322800000005
 30
0.0
 11
105.81334699999999
 21
627.67104800000004
 31
0.0
  0
LINE
  5
10A
  8
0
 62
     7
 10
109.31334699999989
 20
597.171063
 30
0.0
 11
109.31334699999989
 21
622.171063
 31
0.0
  0
LINE
  5
10B
  8
0
 62
     7
 10
107.81334699999999
 20
627.67104800000004
 30
0.0
 11
104.81334699999999
 21
627.67104800000004
 31
0.0
  0
LINE
  5
10C
  8
0
 62
     7
 10
108.563354
 20
627.47008200000005
 30
0.0
 11
107.813354
 21
627.67104099999995
 31
0.0
  0
LINE
  5
10D
  8
0
 62
     7
 10
108.563354
 20
627.47008200000005
 30
0.0
 11
107.813354
 21
627.67104099999995
 31
0.0
  0
LINE
  5
10E
  8
0
 62
     7
 10
109.11238899999989
 20
626.92103299999985
 30
0.0
 11
108.56334699999989
 21
627.47007499999995
 31
0.0
  0
LINE
  5
10F
  8
0
 62
     7
 10
109.3133319999999
 20
626.171018
 30
0.0
 11
109.11237300000001
 21
626.92101799999989
 31
0.0
  0
LINE
  5
110
  8
0
 62
     7
 10
109.313362
 20
622.17104800000004
 30
0.0
 11
109.313362
 21
626.17103299999985
 31
0.0
  0
LINE
  5
111
  8
0
 62
     7
 10
109.112396
 20
621.42104099999995
 30
0.0
 11
109.20761899999999
 21
621.77641799999992
 31
0.0
  0
LINE
  5
112
  8
0
 62
     7
 10
109.207611
 20
621.77640999999994
 30
0.0
 11
109.3133539999999
 21
622.17104800000004
 31
0.0
  0
LINE
  5
113
  8
0
 62
     7
 10
108.56334699999989
 20
620.87196799999992
 30
0.0
 11
109.11238899999989
 21
621.4210099999998
 31
0.0
  0
LINE
  5
114
  8
0
 62
     7
 10
107.813332
 20
620.67102499999999
 30
0.0
 11
108.563332
 21
620.871984
 31
0.0
  0
LINE
  5
115
  8
0
 62
     7
 10
107.81334699999999
 20
620.67104800000004
 30
0.0
 11
105.81334699999999
 21
620.67104800000004
 31
0.0
  0
LINE
  5
116
  8
0
 62
     7
 10
104.81334699999999
 20
553.17104800000004
 30
0.0
 11
102.81334699999989
 21
553.17104800000004
 31
0.0
  0
LINE
  5
117
  8
0
 62
     7
 10
104.81334699999999
 20
702.17103299999985
 30
0.0
 11
102.81334699999989
 21
702.17103299999985
 31
0.0
  0
LINE
  5
118
  8
0
 62
     7
 10
104.81334699999999
 20
692.30268599999999
 30
0.0
 11
102.81334699999989
 21
692.30268599999999
 31
0.0
  0
LINE
  5
119
  8
0
 62
     7
 10
112.112358
 20
584.92105599999991
 30
0.0
 11
109.31332399999999
 21
585.67105599999979
 31
0.0
  0
LINE
  5
11A
  8
0
 62
     7
 10
109.3133159999999
 20
585.671063
 30
0.0
 11
109.3133159999999
 21
595.67106299999989
 31
0.0
  0
LINE
  5
11B
  8
0
 62
     7
 10
109.3133159999999
 20
595.67104800000004
 30
0.0
 11
112.11237300000001
 21
596.42104800000004
 31
0.0
  0
LINE
  5
11C
  8
0
 62
     7
 10
104.81334699999999
 20
563.17104800000004
 30
0.0
 11
102.81334699999989
 21
563.17104800000004
 31
0.0
  0
LINE
  5
11D
  8
0
 62
     7
 10
109.112396
 20
620.891751
 30
0.0
 11
109.3133539999999
 21
621.77642500000002
 31
0.0
  0
LINE
  5
11E
  8
0
 62
     7
 10
109.31334699999989
 20
621.77642500000002
 30
0.0
 11
109.20760300000001
 21
621.77642500000002
 31
0.0
  0
LINE
  5
11F
  8
0
 62
     7
 10
109.1793669999999
 20
607.67104099999995
 30
0.0
 11
109.3133389999999
 21
607.77049699999998
 31
0.0
  0
LINE
  5
120
  8
0
 62
     7
 10
109.179382
 20
607.67100199999993
 30
0.0
 11
109.11238899999989
 21
607.720731
 31
0.0
  0
LINE
  5
121
  8
0
 62
     7
 10
109.31334699999989
 20
617.671063
 30
0.0
 11
109.11238899999989
 21
617.671063
 31
0.0
  0
LINE
  5
122
  8
0
 62
     7
 10
109.112381
 20
611.62127399999986
 30
0.0
 11
109.1793669999999
 21
611.67100199999993
 31
0.0
  0
LINE
  5
123
  8
0
 62
     7
 10
109.31334699999989
 20
611.57157599999994
 30
0.0
 11
109.17937499999989
 21
611.67103299999997
 31
0.0
  0
LINE
  5
124
  8
0
 62
     7
 10
109.22154999999999
 20
619.39313200000004
 30
0.0
 11
109.112381
 21
620.00290399999994
 31
0.0
  0
LINE
  5
125
  8
0
 62
     7
 10
109.31334699999989
 20
617.671063
 30
0.0
 11
109.2215579999999
 21
619.39314000000002
 31
0.0
  0
LINE
  5
126
  8
0
 62
     7
 10
109.112381
 20
607.72076100000004
 30
0.0
 11
108.59702299999999
 21
607.82326999999998
 31
0.0
  0
LINE
  5
127
  8
0
 62
     7
 10
108.59702299999999
 20
607.82327699999985
 30
0.0
 11
108.56334699999989
 21
607.84578399999987
 31
0.0
  0
LINE
  5
128
  8
0
 62
     7
 10
108.563332
 20
611.49628899999993
 30
0.0
 11
108.597008
 21
611.51879599999995
 31
0.0
  0
LINE
  5
129
  8
0
 62
     7
 10
108.5970149999999
 20
611.51878799999986
 30
0.0
 11
109.11237300000001
 21
611.62129700000003
 31
0.0
  0
LINE
  5
12A
  8
0
 62
     7
 10
109.11238899999989
 20
617.671063
 30
0.0
 11
108.56334699999989
 21
617.671063
 31
0.0
  0
LINE
  5
12B
  8
0
 62
     7
 10
108.5633389999999
 20
607.84576900000002
 30
0.0
 11
107.8133389999999
 21
607.98004600000002
 31
0.0
  0
LINE
  5
12C
  8
0
 62
     7
 10
107.8133389999999
 20
611.36201200000005
 30
0.0
 11
108.5633389999999
 21
611.49628899999993
 31
0.0
  0
LINE
  5
12D
  8
0
 62
     7
 10
108.56334699999989
 20
617.671063
 30
0.0
 11
107.81334699999999
 21
617.671063
 31
0.0
  0
LINE
  5
12E
  8
0
 62
     7
 10
107.81334699999999
 20
611.36202700000001
 30
0.0
 11
105.81334699999999
 21
611.36202700000001
 31
0.0
  0
LINE
  5
12F
  8
0
 62
     7
 10
107.81334699999999
 20
617.671063
 30
0.0
 11
105.81334699999999
 21
617.671063
 31
0.0
  0
LINE
  5
130
  8
0
 62
     7
 10
107.81334699999999
 20
607.98006899999996
 30
0.0
 11
105.81334699999999
 21
607.98006899999996
 31
0.0
  0
LINE
  5
131
  8
0
 62
     3
 10
199.0133439999999
 20
709.87107600000002
 30
0.0
 11
104.81334699999999
 21
709.87107600000002
 31
0.0
  0
LINE
  5
132
  8
0
 62
     3
 10
199.0133439999999
 20
545.47107800000003
 30
0.0
 11
176.81334699999991
 21
545.47107800000003
 31
0.0
  0
LINE
  5
133
  8
0
 62
     3
 10
176.81334699999991
 20
545.47107800000003
 30
0.0
 11
176.81334699999991
 21
584.92106299999989
 31
0.0
  0
LINE
  5
134
  8
0
 62
     3
 10
176.81334699999991
 20
596.42104800000004
 30
0.0
 11
176.81334699999991
 21
599.17112399999996
 31
0.0
  0
LINE
  5
135
  8
0
 62
     3
 10
176.81334699999991
 20
697.171109
 30
0.0
 11
176.81334699999991
 21
709.87107600000002
 31
0.0
  0
LINE
  5
136
  8
0
 62
     3
 10
206.31334699999991
 20
640.61993099999995
 30
0.0
 11
206.31334699999991
 21
650.17074300000002
 31
0.0
  0
LINE
  5
137
  8
0
 62
     3
 10
206.3133389999999
 20
583.17076600000007
 30
0.0
 11
206.31329299999999
 21
589.72148600000003
 31
0.0
  0
LINE
  5
138
  8
0
 62
     3
 10
199.0133439999999
 20
545.47108200000002
 30
0.0
 11
199.0133439999999
 21
567.42108199999996
 31
0.0
  0
LINE
  5
139
  8
0
 62
     3
 10
199.013341
 20
596.421063
 30
0.0
 11
176.81334299999989
 21
596.421063
 31
0.0
  0
LINE
  5
13A
  8
0
 62
     3
 10
199.013341
 20
584.92106299999989
 30
0.0
 11
176.813345
 21
584.92106299999989
 31
0.0
  0
LINE
  5
13B
  8
0
 62
     1
 10
204.31334599999991
 20
688.421063
 30
0.0
 11
199.0133439999999
 21
688.421063
 31
0.0
  0
LINE
  5
13C
  8
0
 62
     1
 10
208.24012500000001
 20
572.99430199999995
 30
0.0
 11
208.27045499999991
 21
573.06752500000005
 31
0.0
  0
LINE
  5
13D
  8
0
 62
     1
 10
208.24012500000001
 20
572.99430199999995
 30
0.0
 11
208.27045499999991
 21
573.06752500000005
 31
0.0
  0
LINE
  5
13E
  8
0
 62
     1
 10
208.24012500000001
 20
572.99430199999995
 30
0.0
 11
208.27045499999991
 21
573.06752500000005
 31
0.0
  0
LINE
  5
13F
  8
0
 62
     1
 10
201.81334699999991
 20
567.42107899999996
 30
0.0
 11
201.31334699999999
 21
567.42107899999996
 31
0.0
  0
LINE
  5
140
  8
0
 62
     1
 10
204.31334599999991
 20
567.42110500000001
 30
0.0
 11
199.0133439999999
 21
567.42110500000001
 31
0.0
  0
LINE
  5
141
  8
0
 62
     2
 10
215.31465700000001
 20
573.42106299999989
 30
0.0
 11
215.31465700000001
 21
575.421063
 31
0.0
  0
LINE
  5
142
  8
0
 62
     2
 10
206.31465700000001
 20
572.92106299999989
 30
0.0
 11
206.31465700000001
 21
677.921063
 31
0.0
  0
LINE
  5
143
  8
0
 62
     2
 10
209.813322
 20
677.921063
 30
0.0
 11
204.31334599999991
 21
677.921063
 31
0.0
  0
LINE
  5
144
  8
0
 62
     2
 10
209.813322
 20
572.92106299999989
 30
0.0
 11
204.31334599999991
 21
572.92106299999989
 31
0.0
  0
LINE
  5
145
  8
0
 62
     2
 10
215.31459699999999
 20
592.42104800000004
 30
0.0
 11
215.3144629999999
 21
604.42104800000004
 31
0.0
  0
LINE
  5
146
  8
0
 62
     2
 10
215.3144549999999
 20
605.42104099999995
 30
0.0
 11
215.31450799999999
 21
624.92104099999995
 31
0.0
  0
LINE
  5
147
  8
0
 62
     7
 10
173.3133389999999
 20
641.67104099999995
 30
0.0
 11
170.813309
 21
641.67104099999995
 31
0.0
  0
LINE
  5
148
  8
0
 62
     7
 10
204.31334599999991
 20
677.921063
 30
0.0
 11
204.31334599999991
 21
688.421063
 31
0.0
  0
LINE
  5
149
  8
0
 62
     7
 10
204.31334599999991
 20
567.42107899999996
 30
0.0
 11
204.31334599999991
 21
572.92106299999989
 31
0.0
  0
LINE
  5
14A
  8
0
 62
     3
 10
199.0133439999999
 20
688.421063
 30
0.0
 11
199.0133439999999
 21
709.87107600000002
 31
0.0
  0
LINE
  5
14B
  8
0
 62
     3
 10
199.0133439999999
 20
567.42108199999996
 30
0.0
 11
199.0133439999999
 21
688.421063
 31
0.0
  0
ARC
  5
14C
  8
0
 62
     7
 10
235.98938799999991
 20
603.37717899999996
 30
0.0
 40
1.0
 50
348.62360999999993
 51
76.688818000000012
  0
ARC
  5
14D
  8
0
 62
     7
 10
234.79264499999999
 20
597.42936399999985
 30
0.0
 40
1.000000999999999
 50
260.59401500000001
 51
348.62360999999993
  0
LINE
  5
14E
  8
0
  6
DASHDOT
 62
     7
 10
250.789974
 20
597.26852899999994
 30
0.0
 11
200.67328299999991
 21
607.35234500000001
 31
0.0
  0
LINE
  5
14F
  8
0
 62
     7
 10
236.21962500000001
 20
604.35031600000002
 30
0.0
 11
215.31446600000001
 21
609.29639099999986
 31
0.0
  0
LINE
  5
150
  8
0
 62
     7
 10
235.772999
 20
597.23210599999993
 30
0.0
 11
236.96974
 21
603.17992900000002
 31
0.0
  0
LINE
  5
151
  8
0
 62
     7
 10
234.6292169999999
 20
596.44280700000002
 30
0.0
 11
215.314516
 21
599.64240700000005
 31
0.0
  0
ARC
  5
152
  8
0
  6
DASHDOT
 62
     7
 10
161.814144
 20
615.171063
 30
0.0
 40
76.044273000000004
 50
337.49231500000002
 51
0.000001
  0
LINE
  5
153
  8
0
  6
DASHDOT
 62
     7
 10
237.85841400000001
 20
615.171063
 30
0.0
 11
237.85841400000001
 21
620.92126199999996
 31
0.0
  0
LINE
  5
154
  8
0
 62
     7
 10
102.81334699999989
 20
553.17104800000004
 30
0.0
 11
102.81334699999989
 21
563.17104800000004
 31
0.0
  0
LINE
  5
155
  8
0
 62
     6
 10
55.313301000000003
 20
597.67104099999995
 30
0.0
 11
59.313301000000003
 21
597.67105599999991
 31
0.0
  0
LINE
  5
156
  8
0
 62
     6
 10
55.313301000000003
 20
590.67104099999995
 30
0.0
 11
59.313301000000003
 21
590.67105599999991
 31
0.0
  0
LINE
  5
157
  8
0
 62
     7
 10
54.813301000000003
 20
543.671063
 30
0.0
 11
54.813301000000003
 21
568.671063
 31
0.0
  0
LINE
  5
158
  8
0
 62
     3
 10
54.813301000000003
 20
686.671063
 30
0.0
 11
54.813301000000003
 21
711.671063
 31
0.0
  0
LINE
  5
159
  8
0
 62
     7
 10
102.81334699999989
 20
545.47106599999995
 30
0.0
 11
65.813300999999996
 21
545.47106599999995
 31
0.0
  0
LINE
  5
15A
  8
0
 62
     3
 10
102.81334699999989
 20
709.87107600000002
 30
0.0
 11
65.813300999999996
 21
709.87107600000002
 31
0.0
  0
LINE
  5
15B
  8
0
 62
     6
 10
102.81334699999989
 20
542.671063
 30
0.0
 11
102.81334699999989
 21
712.67106299999989
 31
0.0
  0
LINE
  5
15C
  8
0
 62
     6
 10
59.313301000000003
 20
587.67101799999989
 30
0.0
 11
59.313301000000003
 21
590.67105599999991
 31
0.0
  0
LINE
  5
15D
  8
0
 62
     6
 10
65.813300999999996
 20
542.671063
 30
0.0
 11
65.813300999999996
 21
543.671063
 31
0.0
  0
LINE
  5
15E
  8
0
 62
     3
 10
65.813300999999996
 20
659.671063
 30
0.0
 11
59.313301000000003
 21
659.671063
 31
0.0
  0
LINE
  5
15F
  8
0
 62
     6
 10
65.813300999999996
 20
667.671063
 30
0.0
 11
65.813300999999996
 21
684.171063
 31
0.0
  0
LINE
  5
160
  8
0
 62
     7
 10
65.813300999999996
 20
580.67100199999993
 30
0.0
 11
59.313301000000003
 21
580.67100199999993
 31
0.0
  0
LINE
  5
161
  8
0
 62
     7
 10
59.313301000000003
 20
580.67100199999993
 30
0.0
 11
59.313301000000003
 21
584.171063
 31
0.0
  0
LINE
  5
162
  8
0
 62
     7
 10
101.8133769999999
 20
596.17104100000006
 30
0.0
 11
59.313316
 21
596.17104100000006
 31
0.0
  0
LINE
  5
163
  8
0
 62
     7
 10
101.81336999999991
 20
596.17104100000006
 30
0.0
 11
102.813339
 21
597.17105599999991
 31
0.0
  0
LINE
  5
164
  8
0
 62
     7
 10
101.8133619999999
 20
585.17107899999985
 30
0.0
 11
59.313301000000003
 21
585.17107899999985
 31
0.0
  0
LINE
  5
165
  8
0
 62
     7
 10
102.81334699999989
 20
584.17104800000004
 30
0.0
 11
101.8133769999999
 21
585.171063
 31
0.0
  0
LINE
  5
166
  8
0
 62
     6
 10
53.313285999999991
 20
571.1710599999999
 30
0.0
 11
53.313301000000003
 21
584.17105599999991
 31
0.0
  0
LINE
  5
167
  8
0
 62
     6
 10
53.313301000000003
 20
671.17104800000004
 30
0.0
 11
53.313285999999991
 21
684.17104800000004
 31
0.0
  0
LINE
  5
168
  8
0
 62
     3
 10
59.313301000000003
 20
659.671063
 30
0.0
 11
59.313301000000003
 21
663.671063
 31
0.0
  0
LINE
  5
169
  8
0
 62
     6
 10
102.81334699999989
 20
569.671063
 30
0.0
 11
102.81334699999989
 21
570.67106299999989
 31
0.0
  0
LINE
  5
16A
  8
0
 62
     2
 10
55.313301000000003
 20
684.671063
 30
0.0
 11
53.813301000000003
 21
684.671063
 31
0.0
  0
LINE
  5
16B
  8
0
 62
     2
 10
55.313301000000003
 20
570.67106299999989
 30
0.0
 11
53.813301000000003
 21
570.67106299999989
 31
0.0
  0
LINE
  5
16C
  8
0
 62
     2
 10
55.313301000000003
 20
684.171063
 30
0.0
 11
55.313301000000003
 21
684.671063
 31
0.0
  0
LINE
  5
16D
  8
0
 62
     2
 10
55.313301000000003
 20
584.17117000000007
 30
0.0
 11
55.313301000000003
 21
671.17106299999989
 31
0.0
  0
LINE
  5
16E
  8
0
 62
     2
 10
55.313301000000003
 20
570.67106299999989
 30
0.0
 11
55.313301000000003
 21
571.17114000000004
 31
0.0
  0
LINE
  5
16F
  8
0
 62
     2
 10
53.813301000000003
 20
570.67106299999989
 30
0.0
 11
53.813301000000003
 21
571.17104800000004
 31
0.0
  0
LINE
  5
170
  8
0
 62
     2
 10
53.813301000000003
 20
584.17104800000004
 30
0.0
 11
53.813301000000003
 21
671.17098699999985
 31
0.0
  0
LINE
  5
171
  8
0
 62
     2
 10
53.813301000000003
 20
684.17098699999985
 30
0.0
 11
53.813301000000003
 21
684.671063
 31
0.0
  0
LINE
  5
172
  8
0
 62
     3
 10
53.813301000000003
 20
686.171063
 30
0.0
 11
53.813301000000003
 21
712.17106299999989
 31
0.0
  0
LINE
  5
173
  8
0
 62
     3
 10
61.813316
 20
711.671063
 30
0.0
 11
61.813316
 21
713.171063
 31
0.0
  0
LINE
  5
174
  8
0
 62
     3
 10
61.813316
 20
685.171063
 30
0.0
 11
61.813316
 21
686.67109400000004
 31
0.0
  0
LINE
  5
175
  8
0
 62
     6
 10
65.813300999999996
 20
568.671063
 30
0.0
 11
61.813316
 21
568.671063
 31
0.0
  0
LINE
  5
176
  8
0
 62
     7
 10
64.813331999999988
 20
568.671063
 30
0.0
 11
54.813301000000003
 21
568.671063
 31
0.0
  0
LINE
  5
177
  8
0
 62
     7
 10
65.813300999999996
 20
543.671063
 30
0.0
 11
54.813301000000003
 21
543.671063
 31
0.0
  0
LINE
  5
178
  8
0
 62
     3
 10
64.813331999999988
 20
686.671063
 30
0.0
 11
54.813301000000003
 21
686.671063
 31
0.0
  0
LINE
  5
179
  8
0
 62
     6
 10
65.813300999999996
 20
686.671063
 30
0.0
 11
61.813316
 21
686.671063
 31
0.0
  0
LINE
  5
17A
  8
0
 62
     3
 10
61.813316
 20
711.671063
 30
0.0
 11
54.813301000000003
 21
711.671063
 31
0.0
  0
LINE
  5
17B
  8
0
 62
     6
 10
65.813286000000005
 20
571.17106299999989
 30
0.0
 11
53.313285999999991
 21
571.17106299999989
 31
0.0
  0
LINE
  5
17C
  8
0
 62
     6
 10
59.313301000000003
 20
584.171063
 30
0.0
 11
53.313301000000003
 21
584.171063
 31
0.0
  0
LINE
  5
17D
  8
0
 62
     6
 10
65.813286000000005
 20
684.171063
 30
0.0
 11
53.313285999999991
 21
684.171063
 31
0.0
  0
LINE
  5
17E
  8
0
 62
     6
 10
65.813300999999996
 20
671.17106299999989
 30
0.0
 11
53.313301000000003
 21
671.17106299999989
 31
0.0
  0
LINE
  5
17F
  8
0
 62
     6
 10
65.813147999999998
 20
667.671063
 30
0.0
 11
55.313301000000003
 21
667.671063
 31
0.0
  0
LINE
  5
180
  8
0
 62
     3
 10
65.813225000000003
 20
663.671063
 30
0.0
 11
59.313301000000003
 21
663.671063
 31
0.0
  0
LINE
  5
181
  8
0
 62
     6
 10
59.313301000000003
 20
659.671063
 30
0.0
 11
55.313301000000003
 21
659.671063
 31
0.0
  0
LINE
  5
182
  8
0
 62
     3
 10
53.813285999999991
 20
712.17109400000004
 30
0.0
 11
54.813285999999998
 21
713.17109400000004
 31
0.0
  0
LINE
  5
183
  8
0
 62
     3
 10
54.81324
 20
685.17112400000008
 30
0.0
 11
53.81324
 21
686.17112399999996
 31
0.0
  0
LINE
  5
184
  8
0
 62
     3
 10
61.813316
 20
713.171063
 30
0.0
 11
54.813301000000003
 21
713.171063
 31
0.0
  0
LINE
  5
185
  8
0
 62
     3
 10
61.813316
 20
685.171063
 30
0.0
 11
54.813301000000003
 21
685.171063
 31
0.0
  0
LINE
  5
186
  8
0
 62
     3
 10
61.813316
 20
542.17106299999989
 30
0.0
 11
54.813301000000003
 21
542.17106299999989
 31
0.0
  0
LINE
  5
187
  8
0
 62
     3
 10
54.813285999999998
 20
542.17102699999998
 30
0.0
 11
53.813285999999991
 21
543.17102699999987
 31
0.0
  0
LINE
  5
188
  8
0
 62
     3
 10
53.813301000000003
 20
543.171063
 30
0.0
 11
53.813301000000003
 21
569.171063
 31
0.0
  0
LINE
  5
189
  8
0
 62
     3
 10
53.81324
 20
569.17100199999993
 30
0.0
 11
54.81324
 21
570.17100199999993
 31
0.0
  0
LINE
  5
18A
  8
0
 62
     3
 10
61.813316
 20
570.171063
 30
0.0
 11
54.813301000000003
 21
570.171063
 31
0.0
  0
LINE
  5
18B
  8
0
 62
     3
 10
61.813316
 20
568.67103299999985
 30
0.0
 11
61.813316
 21
570.171063
 31
0.0
  0
LINE
  5
18C
  8
0
 62
     3
 10
61.813316
 20
542.17106299999989
 30
0.0
 11
61.813316
 21
543.671063
 31
0.0
  0
LINE
  5
18D
  8
0
  6
DASHDOT
 62
     7
 10
53.313285999999991
 20
684.171063
 30
0.0
 11
53.313285999999991
 21
766.42977599999995
 31
0.0
  0
LINE
  5
18E
  8
0
  6
DASHDOT
 62
     7
 10
53.313301000000003
 20
584.17105599999991
 30
0.0
 11
53.313301000000003
 21
671.17106299999989
 31
0.0
  0
LINE
  5
18F
  8
0
  6
DASHDOT
 62
     7
 10
53.313285999999991
 20
518.6214829999999
 30
0.0
 11
53.313285999999991
 21
571.1710599999999
 31
0.0
  0
LINE
  5
190
  8
0
  6
DASHDOT
 62
     7
 10
50.313301000000003
 20
518.52525800000001
 30
0.0
 11
50.313301000000003
 21
767.85824300000002
 31
0.0
  0
POLYLINE
  5
191
  8
0
 62
     7
 66
     1
 10
0.0
 20
0.0
 30
0.0
  0
VERTEX
  5
A65
  8
0
 62
     7
 10
44.887642
 20
518.42020500000001
 30
0.0
  0
VERTEX
  5
A66
  8
0
 62
     7
 10
56.010886999999997
 20
518.63557600000001
 30
0.0
  0
VERTEX
  5
A67
  8
0
 62
     7
 10
56.971977000000003
 20
520.65455999999995
 30
0.0
  0
VERTEX
  5
A68
  8
0
 62
     7
 10
58.049232000000003
 20
516.674667
 30
0.0
  0
VERTEX
  5
A69
  8
0
 62
     7
 10
59.010323
 20
518.69365099999993
 30
0.0
  0
SEQEND
  5
A6A
  8
0
 62
     7
  0
LINE
  5
198
  8
0
 62
     7
 10
65.813300999999996
 20
543.671063
 30
0.0
 11
61.813316
 21
543.671063
 31
0.0
  0
LINE
  5
199
  8
0
 62
     7
 10
65.813300999999996
 20
571.17106299999989
 30
0.0
 11
65.813300999999996
 21
580.67097199999989
 31
0.0
  0
LINE
  5
19A
  8
0
 62
     6
 10
65.813300999999996
 20
568.671063
 30
0.0
 11
65.813300999999996
 21
571.17106299999989
 31
0.0
  0
LINE
  5
19B
  8
0
 62
     3
 10
59.313301000000003
 20
590.67105599999991
 30
0.0
 11
59.313301000000003
 21
597.67105599999991
 31
0.0
  0
LINE
  5
19C
  8
0
 62
     6
 10
59.313301000000003
 20
584.171063
 30
0.0
 11
59.313301000000003
 21
587.67101799999989
 31
0.0
  0
LINE
  5
19D
  8
0
 62
     6
 10
59.313301000000003
 20
597.67105599999991
 30
0.0
 11
59.313301000000003
 21
659.67104800000004
 31
0.0
  0
LINE
  5
19E
  8
0
 62
     7
 10
65.813300999999996
 20
543.671063
 30
0.0
 11
65.813300999999996
 21
568.671063
 31
0.0
  0
LINE
  5
19F
  8
0
 62
     6
 10
65.813300999999996
 20
711.671063
 30
0.0
 11
65.813300999999996
 21
712.67106299999989
 31
0.0
  0
LINE
  5
1A0
  8
0
 62
     3
 10
65.813300999999996
 20
686.671063
 30
0.0
 11
65.813300999999996
 21
711.671063
 31
0.0
  0
LINE
  5
1A1
  8
0
 62
     6
 10
65.813300999999996
 20
684.171063
 30
0.0
 11
65.813300999999996
 21
686.671063
 31
0.0
  0
LINE
  5
1A2
  8
0
 62
     6
 10
65.813300999999996
 20
711.671063
 30
0.0
 11
61.813316
 21
711.671063
 31
0.0
  0
LINE
  5
1A3
  8
0
 62
     3
 10
65.813300999999996
 20
659.671063
 30
0.0
 11
65.813300999999996
 21
667.671063
 31
0.0
  0
LINE
  5
1A4
  8
0
  6
DASHDOT
 62
     7
 10
82.672400999999994
 20
677.671063
 30
0.0
 11
33.219809999999988
 21
677.671063
 31
0.0
  0
LINE
  5
1A5
  8
0
  6
DASHDOT
 62
     7
 10
80.137680000000003
 20
577.671063
 30
0.0
 11
28.074013000000001
 21
577.671063
 31
0.0
  0
CIRCLE
  5
1A6
  8
0
 62
     7
 10
76.322288999999998
 20
691.10975399999995
 30
0.0
 40
0.2
  0
LINE
  5
1A7
  8
0
 62
     1
 10
209.813322
 20
570.41464299999996
 30
0.0
 11
209.813322
 21
572.41464299999996
 31
0.0
  0
LINE
  5
1A8
  8
0
 62
     1
 10
211.813322
 20
570.41464299999996
 30
0.0
 11
209.813322
 21
570.41464299999996
 31
0.0
  0
LINE
  5
1A9
  8
0
 62
     1
 10
209.813322
 20
677.921063
 30
0.0
 11
209.813322
 21
680.41463899999985
 31
0.0
  0
LINE
  5
1AA
  8
0
 62
     1
 10
211.813322
 20
680.41463899999985
 30
0.0
 11
209.813322
 21
680.41463899999985
 31
0.0
  0
LINE
  5
1AB
  8
0
 62
     1
 10
209.813322
 20
572.41464299999996
 30
0.0
 11
209.813322
 21
678.41463899999997
 31
0.0
  0
LINE
  5
1AC
  8
0
 62
     1
 10
205.31332199999991
 20
693.99198599999988
 30
0.0
 11
205.31332199999991
 21
698.83729299999993
 31
0.0
  0
LINE
  5
1AD
  8
0
 62
     1
 10
205.31332199999991
 20
551.99199400000009
 30
0.0
 11
205.31332199999991
 21
556.83729299999993
 31
0.0
  0
LINE
  5
1AE
  8
0
 62
     1
 10
211.813322
 20
543.91464299999996
 30
0.0
 11
211.813322
 21
706.91463899999997
 31
0.0
  0
LINE
  5
1AF
  8
0
 62
     1
 10
215.313322
 20
543.91464299999996
 30
0.0
 11
211.813322
 21
543.91464299999996
 31
0.0
  0
LINE
  5
1B0
  8
0
 62
     1
 10
215.313322
 20
543.91463899999985
 30
0.0
 11
215.313322
 21
706.91463899999997
 31
0.0
  0
LINE
  5
1B1
  8
0
 62
     1
 10
215.313322
 20
706.91463899999997
 30
0.0
 11
214.313322
 21
706.91463899999997
 31
0.0
  0
LINE
  5
1B2
  8
0
 62
     1
 10
213.313322
 20
706.91463899999997
 30
0.0
 11
211.813322
 21
706.91463899999997
 31
0.0
  0
LINE
  5
1B3
  8
0
 62
     1
 10
211.813322
 20
693.41463899999985
 30
0.0
 11
206.31331900000001
 21
693.41463899999985
 31
0.0
  0
LINE
  5
1B4
  8
0
 62
     1
 10
211.813322
 20
699.41463899999997
 30
0.0
 11
206.3133259999999
 21
699.41463899999997
 31
0.0
  0
LINE
  5
1B5
  8
0
 62
     1
 10
206.313322
 20
693.41463899999985
 30
0.0
 11
206.313322
 21
693.64300300000002
 31
0.0
  0
LINE
  5
1B6
  8
0
 62
     1
 10
206.313323
 20
693.41463899999985
 30
0.0
 11
205.31332299999991
 21
693.99198599999988
 31
0.0
  0
LINE
  5
1B7
  8
0
 62
     1
 10
206.313322
 20
693.64300300000002
 30
0.0
 11
206.313322
 21
694.29331699999989
 31
0.0
  0
LINE
  5
1B8
  8
0
 62
     1
 10
206.313322
 20
694.29331699999989
 30
0.0
 11
206.313322
 21
695.26659900000004
 31
0.0
  0
LINE
  5
1B9
  8
0
 62
     1
 10
206.313322
 20
695.26659900000004
 30
0.0
 11
206.313322
 21
696.41463899999985
 31
0.0
  0
LINE
  5
1BA
  8
0
 62
     1
 10
206.313322
 20
696.41463899999985
 30
0.0
 11
206.313322
 21
697.56269599999985
 31
0.0
  0
LINE
  5
1BB
  8
0
 62
     1
 10
206.313322
 20
697.56269599999985
 30
0.0
 11
206.313322
 21
698.53596200000004
 31
0.0
  0
LINE
  5
1BC
  8
0
 62
     1
 10
206.313322
 20
698.53596200000004
 30
0.0
 11
206.313322
 21
699.18627600000002
 31
0.0
  0
LINE
  5
1BD
  8
0
 62
     1
 10
206.313322
 20
699.18627600000002
 30
0.0
 11
206.313322
 21
699.41463899999997
 31
0.0
  0
LINE
  5
1BE
  8
0
 62
     1
 10
205.31332099999989
 20
698.83729299999993
 30
0.0
 11
206.313321
 21
699.41463899999997
 31
0.0
  0
LINE
  5
1BF
  8
0
 62
     1
 10
211.813322
 20
557.41464299999996
 30
0.0
 11
206.31332399999991
 21
557.41464299999996
 31
0.0
  0
LINE
  5
1C0
  8
0
 62
     1
 10
211.813322
 20
551.41464299999996
 30
0.0
 11
206.313321
 21
551.41464299999996
 31
0.0
  0
LINE
  5
1C1
  8
0
 62
     1
 10
205.31332199999991
 20
556.83729299999993
 30
0.0
 11
206.313322
 21
557.41464299999996
 31
0.0
  0
LINE
  5
1C2
  8
0
 62
     1
 10
206.313322
 20
557.1862799999999
 30
0.0
 11
206.313322
 21
557.41464299999996
 31
0.0
  0
LINE
  5
1C3
  8
0
 62
     1
 10
206.313322
 20
556.53596200000004
 30
0.0
 11
206.313322
 21
557.1862799999999
 31
0.0
  0
LINE
  5
1C4
  8
0
 62
     1
 10
206.313322
 20
555.56269599999985
 30
0.0
 11
206.313322
 21
556.53596200000004
 31
0.0
  0
LINE
  5
1C5
  8
0
 62
     1
 10
206.313322
 20
554.41464299999996
 30
0.0
 11
206.313322
 21
555.56269599999985
 31
0.0
  0
LINE
  5
1C6
  8
0
 62
     1
 10
206.313322
 20
553.26659500000005
 30
0.0
 11
206.313322
 21
554.41464299999996
 31
0.0
  0
LINE
  5
1C7
  8
0
 62
     1
 10
206.313322
 20
552.29332399999987
 30
0.0
 11
206.313322
 21
553.26659500000005
 31
0.0
  0
LINE
  5
1C8
  8
0
 62
     1
 10
206.313322
 20
551.64300600000001
 30
0.0
 11
206.313322
 21
552.29332399999987
 31
0.0
  0
LINE
  5
1C9
  8
0
 62
     1
 10
206.313323
 20
551.41464299999996
 30
0.0
 11
205.31332299999991
 21
551.99199400000009
 31
0.0
  0
LINE
  5
1CA
  8
0
 62
     1
 10
206.313322
 20
551.41464299999996
 30
0.0
 11
206.313322
 21
551.64300600000001
 31
0.0
  0
LINE
  5
1CB
  8
0
 62
     1
 10
214.313322
 20
706.91463899999997
 30
0.0
 11
213.313322
 21
706.91463899999997
 31
0.0
  0
CIRCLE
  5
1CC
  8
0
 62
     7
 10
186.444389
 20
697.76453900000001
 30
0.0
 40
0.25
  0
LINE
  5
1CD
  8
0
 62
     7
 10
211.813322
 20
706.91463899999997
 30
0.0
 11
211.813322
 21
750.91364800000008
 31
0.0
  0
LINE
  5
1CE
  8
0
 62
     7
 10
209.813322
 20
680.41463899999985
 30
0.0
 11
209.813322
 21
693.41463899999985
 31
0.0
  0
LINE
  5
1CF
  8
0
 62
     7
 10
211.813322
 20
488.62736799999999
 30
0.0
 11
211.813322
 21
543.91464299999996
 31
0.0
  0
LINE
  5
1D0
  8
0
 62
     7
 10
209.813322
 20
489.55887499999989
 30
0.0
 11
209.813322
 21
551.41464299999996
 31
0.0
  0
POLYLINE
  5
1D1
  8
0
 62
     3
 66
     1
 10
0.0
 20
0.0
 30
0.0
  0
VERTEX
  5
A6B
  8
0
 62
     3
 10
219.20410200000001
 20
485.1850859999999
 30
0.0
  0
VERTEX
  5
A6C
  8
0
 62
     3
 10
204.70009999999991
 20
491.9403749999999
 30
0.0
  0
VERTEX
  5
A6D
  8
0
 62
     3
 10
202.94918899999999
 20
490.54958099999988
 30
0.0
  0
VERTEX
  5
A6E
  8
0
 62
     3
 10
203.73151100000001
 20
494.59778699999998
 30
0.0
  0
VERTEX
  5
A6F
  8
0
 62
     3
 10
201.9805999999999
 20
493.2069919999999
 30
0.0
  0
VERTEX
  5
A70
  8
0
 62
     3
 10
201.74819699999989
 20
493.31523399999992
 30
0.0
  0
SEQEND
  5
A71
  8
0
 62
     3
  0
POLYLINE
  5
1D9
  8
0
 62
     3
 66
     1
 10
0.0
 20
0.0
 30
0.0
  0
VERTEX
  5
A72
  8
0
 62
     3
 10
220.87795499999999
 20
747.74102500000004
 30
0.0
  0
VERTEX
  5
A73
  8
0
 62
     3
 10
205.77622099999991
 20
753.02663899999993
 30
0.0
  0
VERTEX
  5
A74
  8
0
 62
     3
 10
204.17166199999991
 20
751.46926599999995
 30
0.0
  0
VERTEX
  5
A75
  8
0
 62
     3
 10
204.549205
 20
755.57505499999991
 30
0.0
  0
VERTEX
  5
A76
  8
0
 62
     3
 10
202.94464599999989
 20
754.01768200000004
 30
0.0
  0
VERTEX
  5
A77
  8
0
 62
     3
 10
201.74819699999989
 20
754.43644400000005
 30
0.0
  0
SEQEND
  5
A78
  8
0
 62
     3
  0
LINE
  5
1E1
  8
0
 62
     7
 10
211.813322
 20
699.91463899999985
 30
0.0
 11
209.813322
 21
699.91463899999985
 31
0.0
  0
LINE
  5
1E2
  8
0
 62
     7
 10
211.813322
 20
692.91463899999985
 30
0.0
 11
209.813322
 21
692.91463899999985
 31
0.0
  0
LINE
  5
1E3
  8
0
 62
     7
 10
211.813322
 20
681.41463899999985
 30
0.0
 11
209.813322
 21
681.41463899999985
 31
0.0
  0
LINE
  5
1E4
  8
0
 62
     7
 10
211.813322
 20
569.41464299999996
 30
0.0
 11
209.813322
 21
569.41464299999996
 31
0.0
  0
LINE
  5
1E5
  8
0
 62
     7
 10
211.813322
 20
557.91464299999996
 30
0.0
 11
209.813322
 21
557.91464299999996
 31
0.0
  0
LINE
  5
1E6
  8
0
 62
     7
 10
211.813322
 20
550.91464299999996
 30
0.0
 11
209.813322
 21
550.91464299999996
 31
0.0
  0
LINE
  5
1E7
  8
0
 62
     7
 10
209.813322
 20
557.41464299999996
 30
0.0
 11
209.813322
 21
570.41464299999996
 31
0.0
  0
LINE
  5
1E8
  8
0
 62
     7
 10
209.813322
 20
699.41463899999997
 30
0.0
 11
209.813322
 21
751.61364500000002
 31
0.0
  0
LINE
  5
1E9
  8
0
  6
DASHDOT
 62
     7
 10
267.73312399999998
 20
625.421063
 30
0.0
 11
35.82504999999999
 21
625.421063
 31
0.0
  0
LINE
  5
1EA
  8
0
 62
   150
 10
203.313346
 20
715.171063
 30
0.0
 11
104.81334699999999
 21
715.171063
 31
0.0
  0
LINE
  5
1EB
  8
0
 62
   150
 10
203.313346
 20
540.17107699999997
 30
0.0
 11
104.81334699999999
 21
540.17107699999997
 31
0.0
  0
LINE
  5
1EC
  8
0
 62
   150
 10
204.31334599999991
 20
541.17107699999997
 30
0.0
 11
204.31334599999991
 21
566.42110500000001
 31
0.0
  0
LINE
  5
1ED
  8
0
 62
   150
 10
204.31334599999991
 20
689.42106299999989
 30
0.0
 11
204.31334599999991
 21
714.171063
 31
0.0
  0
ARC
  5
1EE
  8
0
 62
   150
 10
203.313346
 20
714.171063
 30
0.0
 40
1.0
 50
0.000001
 51
90.000010000000003
  0
ARC
  5
1EF
  8
0
 62
   150
 10
203.313346
 20
541.17107699999997
 30
0.0
 40
1.0
 50
270.00000499999987
 51
0.000001
  0
LINE
  5
1F0
  8
0
 62
   150
 10
203.313346
 20
688.421063
 30
0.0
 11
203.313346
 21
689.42106299999989
 31
0.0
  0
LINE
  5
1F1
  8
0
 62
   150
 10
204.31334599999991
 20
689.42106299999989
 30
0.0
 11
203.313346
 21
689.42106299999989
 31
0.0
  0
LINE
  5
1F2
  8
0
 62
   150
 10
204.31334599999991
 20
566.42110500000001
 30
0.0
 11
203.313346
 21
566.42110500000001
 31
0.0
  0
LINE
  5
1F3
  8
0
 62
   150
 10
203.313346
 20
566.42110500000001
 30
0.0
 11
203.313346
 21
567.42110500000001
 31
0.0
  0
CIRCLE
  5
1F4
  8
0
 62
     7
 10
98.664833000000002
 20
728.72486600000002
 30
0.0
 40
0.5
  0
POLYLINE
  5
1F5
  8
0
 62
     7
 66
     1
 10
0.0
 20
0.0
 30
0.0
  0
VERTEX
  5
A79
  8
0
 62
     7
 10
62.523949000000002
 20
762.04403400000001
 30
0.0
  0
VERTEX
  5
A7A
  8
0
 62
     7
 10
48.078010999999989
 20
768.92260499999998
 30
0.0
  0
VERTEX
  5
A7B
  8
0
 62
     7
 10
46.315314999999998
 20
767.54678100000001
 30
0.0
  0
VERTEX
  5
A7C
  8
0
 62
     7
 10
47.132088000000003
 20
771.58816200000001
 30
0.0
  0
VERTEX
  5
A7D
  8
0
 62
     7
 10
45.369391999999991
 20
770.21233800000005
 30
0.0
  0
VERTEX
  5
A7E
  8
0
 62
     7
 10
42.904288999999999
 20
771.386121
 30
0.0
  0
SEQEND
  5
A7F
  8
0
 62
     7
  0
LINE
  5
1FD
  8
0
 62
     4
 10
102.8132709999999
 20
712.67104800000004
 30
0.0
 11
65.813271
 21
712.67104800000004
 31
0.0
  0
ARC
  5
1FE
  8
0
 62
   150
 10
84.313346999999979
 20
732.67104800000004
 30
0.0
 40
4.0
 50
270.00000499999987
 51
90.0
  0
LINE
  5
1FF
  8
0
 62
   150
 10
81.813346999999979
 20
722.67104800000004
 30
0.0
 11
81.813346999999979
 21
742.67104800000004
 31
0.0
  0
LINE
  5
200
  8
0
 62
   150
 10
84.313346999999979
 20
742.67104800000004
 30
0.0
 11
81.813346999999979
 21
742.67104800000004
 31
0.0
  0
LINE
  5
201
  8
0
 62
   150
 10
116.81334699999989
 20
742.67104800000004
 30
0.0
 11
101.713348
 21
742.67104800000004
 31
0.0
  0
LINE
  5
202
  8
0
 62
   150
 10
84.313346999999979
 20
722.67104800000004
 30
0.0
 11
81.813346999999979
 21
722.67104800000004
 31
0.0
  0
LINE
  5
203
  8
0
 62
   150
 10
116.81334699999989
 20
722.67104800000004
 30
0.0
 11
101.713348
 21
722.67104800000004
 31
0.0
  0
ARC
  5
204
  8
0
 62
   150
 10
84.313346999999979
 20
732.67104800000004
 30
0.0
 40
1.5
 50
270.00000499999987
 51
90.0
  0
ARC
  5
205
  8
0
 62
   150
 10
84.313346999999979
 20
736.67104800000004
 30
0.0
 40
2.5
 50
180.00000299999991
 51
270.00000499999987
  0
ARC
  5
206
  8
0
 62
   150
 10
84.313346999999979
 20
728.67104800000004
 30
0.0
 40
2.5
 50
90.000010000000003
 51
180.00000299999991
  0
LINE
  5
207
  8
0
 62
   150
 10
118.81334699999989
 20
724.67104800000004
 30
0.0
 11
118.81334699999989
 21
726.67104800000004
 31
0.0
  0
ARC
  5
208
  8
0
 62
   150
 10
116.81334699999989
 20
740.67104800000004
 30
0.0
 40
2.0
 50
0.000001
 51
90.0
  0
ARC
  5
209
  8
0
 62
   150
 10
116.81334699999989
 20
724.67104800000004
 30
0.0
 40
2.0
 50
270.00000499999987
 51
0.000001
  0
LINE
  5
20A
  8
0
 62
   150
 10
109.81334699999999
 20
722.67104800000004
 30
0.0
 11
109.81334699999999
 21
726.67104800000004
 31
0.0
  0
LINE
  5
20B
  8
0
 62
   150
 10
113.81334699999989
 20
722.67104800000004
 30
0.0
 11
113.81334699999989
 21
726.67104800000004
 31
0.0
  0
LINE
  5
20C
  8
0
 62
     1
 10
105.2133479999999
 20
741.17104800000004
 30
0.0
 11
101.713348
 21
741.17104800000004
 31
0.0
  0
LINE
  5
20D
  8
0
 62
     1
 10
105.2133479999999
 20
724.17104800000004
 30
0.0
 11
101.713348
 21
724.17104800000004
 31
0.0
  0
LINE
  5
20E
  8
0
 62
     1
 10
102.713348
 20
724.17104800000004
 30
0.0
 11
102.713348
 21
725.67104800000004
 31
0.0
  0
LINE
  5
20F
  8
0
 62
     1
 10
105.2133479999999
 20
724.17104800000004
 30
0.0
 11
105.2133479999999
 21
725.67104800000004
 31
0.0
  0
ARC
  5
210
  8
0
 62
     1
 10
103.4633479999999
 20
738.67104800000004
 30
0.0
 40
1.25
 50
126.86989800000001
 51
233.13009700000001
  0
LINE
  5
211
  8
0
 62
     1
 10
102.713348
 20
739.67104800000004
 30
0.0
 11
102.713348
 21
741.17104800000004
 31
0.0
  0
ARC
  5
212
  8
0
 62
     1
 10
103.4633479999999
 20
726.67104800000004
 30
0.0
 40
1.25
 50
126.86989800000001
 51
233.13009700000001
  0
LINE
  5
213
  8
0
 62
     1
 10
102.713348
 20
727.67104800000004
 30
0.0
 11
102.713348
 21
737.67104800000004
 31
0.0
  0
ARC
  5
214
  8
0
 62
     1
 10
105.963348
 20
738.67104800000004
 30
0.0
 40
1.25
 50
126.86989800000001
 51
233.13009700000001
  0
ARC
  5
215
  8
0
 62
     1
 10
105.963348
 20
726.67104800000004
 30
0.0
 40
1.25
 50
126.86989800000001
 51
233.13009700000001
  0
LINE
  5
216
  8
0
 62
     1
 10
105.2133479999999
 20
739.67104800000004
 30
0.0
 11
105.2133479999999
 21
741.17104800000004
 31
0.0
  0
LINE
  5
217
  8
0
 62
     1
 10
105.2133479999999
 20
727.67104800000004
 30
0.0
 11
105.2133479999999
 21
728.17104800000004
 31
0.0
  0
LINE
  5
218
  8
0
 62
     1
 10
106.713348
 20
735.67104800000004
 30
0.0
 11
103.713348
 21
735.67104800000004
 31
0.0
  0
LINE
  5
219
  8
0
 62
     1
 10
106.713348
 20
729.67104800000004
 30
0.0
 11
103.713348
 21
729.67104800000004
 31
0.0
  0
LINE
  5
21A
  8
0
 62
     1
 10
106.713348
 20
737.17104800000004
 30
0.0
 11
105.2133479999999
 21
737.17104800000004
 31
0.0
  0
LINE
  5
21B
  8
0
 62
     1
 10
106.713348
 20
728.17104800000004
 30
0.0
 11
105.2133479999999
 21
728.17104800000004
 31
0.0
  0
LINE
  5
21C
  8
0
 62
     1
 10
105.2133479999999
 20
737.17104800000004
 30
0.0
 11
105.2133479999999
 21
737.67104800000004
 31
0.0
  0
ARC
  5
21D
  8
0
 62
     1
 10
103.713348
 20
736.67104800000004
 30
0.0
 40
1.0
 50
180.00000299999991
 51
270.00000499999987
  0
ARC
  5
21E
  8
0
 62
     1
 10
103.713348
 20
728.67104800000004
 30
0.0
 40
1.0
 50
90.0
 51
180.00000299999991
  0
LINE
  5
21F
  8
0
 62
     2
 10
106.713348
 20
734.67104800000004
 30
0.0
 11
103.2133479999999
 21
734.67104800000004
 31
0.0
  0
LINE
  5
220
  8
0
 62
     2
 10
106.713348
 20
730.67104800000004
 30
0.0
 11
103.2133479999999
 21
730.67104800000004
 31
0.0
  0
LINE
  5
221
  8
0
 62
     2
 10
106.713348
 20
730.67104800000004
 30
0.0
 11
107.8680499999999
 21
732.67104800000004
 31
0.0
  0
LINE
  5
222
  8
0
 62
     2
 10
107.8680499999999
 20
732.67104800000004
 30
0.0
 11
106.713348
 21
734.67104800000004
 31
0.0
  0
LINE
  5
223
  8
0
 62
     2
 10
106.713348
 20
730.67104800000004
 30
0.0
 11
106.713348
 21
734.67104800000004
 31
0.0
  0
LINE
  5
224
  8
0
 62
     2
 10
106.713348
 20
737.17104800000004
 30
0.0
 11
106.713348
 21
737.67104800000004
 31
0.0
  0
LINE
  5
225
  8
0
 62
     1
 10
106.713348
 20
728.17104800000004
 30
0.0
 11
106.713348
 21
729.67104800000004
 31
0.0
  0
LINE
  5
226
  8
0
 62
     1
 10
106.713348
 20
735.67104800000004
 30
0.0
 11
106.713348
 21
737.17104800000004
 31
0.0
  0
LINE
  5
227
  8
0
 62
     2
 10
125.713348
 20
727.67104800000004
 30
0.0
 11
125.713348
 21
737.67104800000004
 31
0.0
  0
LINE
  5
228
  8
0
 62
     2
 10
124.713348
 20
738.67104800000004
 30
0.0
 11
107.713348
 21
738.67104800000004
 31
0.0
  0
LINE
  5
229
  8
0
 62
     2
 10
124.713348
 20
726.67104800000004
 30
0.0
 11
107.713348
 21
726.67104800000004
 31
0.0
  0
LINE
  5
22A
  8
0
 62
   150
 10
109.81334699999999
 20
738.67104800000004
 30
0.0
 11
109.81334699999999
 21
742.67104800000004
 31
0.0
  0
LINE
  5
22B
  8
0
 62
   150
 10
113.81334699999989
 20
738.67104800000004
 30
0.0
 11
113.81334699999989
 21
742.67104800000004
 31
0.0
  0
LINE
  5
22C
  8
0
 62
   150
 10
118.81334699999989
 20
738.67104800000004
 30
0.0
 11
118.81334699999989
 21
740.67104800000004
 31
0.0
  0
LINE
  5
22D
  8
0
 62
     2
 10
125.713348
 20
737.67104800000004
 30
0.0
 11
124.713348
 21
738.67104800000004
 31
0.0
  0
LINE
  5
22E
  8
0
 62
     2
 10
124.713348
 20
726.67104800000004
 30
0.0
 11
125.713348
 21
727.67104800000004
 31
0.0
  0
LINE
  5
22F
  8
0
 62
     2
 10
107.713348
 20
726.67104800000004
 30
0.0
 11
106.713348
 21
727.67104800000004
 31
0.0
  0
LINE
  5
230
  8
0
 62
     2
 10
106.713348
 20
737.67104800000004
 30
0.0
 11
107.713348
 21
738.67104800000004
 31
0.0
  0
LINE
  5
231
  8
0
 62
     2
 10
124.713348
 20
726.67104800000004
 30
0.0
 11
124.713348
 21
738.67104800000004
 31
0.0
  0
LINE
  5
232
  8
0
 62
     7
 10
125.463348
 20
737.92104800000004
 30
0.0
 11
106.963348
 21
737.92104800000004
 31
0.0
  0
LINE
  5
233
  8
0
 62
     7
 10
125.463348
 20
727.42104800000004
 30
0.0
 11
106.963348
 21
727.42104800000004
 31
0.0
  0
LINE
  5
234
  8
0
 62
     2
 10
106.713348
 20
727.67104800000004
 30
0.0
 11
106.713348
 21
728.17104800000004
 31
0.0
  0
ARC
  5
235
  8
0
 62
     2
 10
103.2133479999999
 20
735.17104800000004
 30
0.0
 40
0.5
 50
180.00000299999991
 51
270.00000499999987
  0
ARC
  5
236
  8
0
 62
     2
 10
103.2133479999999
 20
730.17104800000004
 30
0.0
 40
0.5
 50
90.0
 51
180.00000299999991
  0
POLYLINE
  5
237
  8
0
 62
     7
 66
     1
 10
0.0
 20
0.0
 30
0.0
  0
VERTEX
  5
A80
  8
0
 62
     7
 10
109.0733639999999
 20
726.17349000000002
 30
0.0
  0
VERTEX
  5
A81
  8
0
 62
     7
 10
109.0733639999999
 20
736.41860699999995
 30
0.0
  0
VERTEX
  5
A82
  8
0
 62
     7
 10
107.0733639999999
 20
737.41860699999995
 30
0.0
  0
VERTEX
  5
A83
  8
0
 62
     7
 10
111.0733639999999
 20
738.41860700000007
 30
0.0
  0
VERTEX
  5
A84
  8
0
 62
     7
 10
109.0733639999999
 20
739.41860699999995
 30
0.0
  0
SEQEND
  5
A85
  8
0
 62
     7
  0
LINE
  5
23E
  8
0
 62
     7
 10
110.81334699999999
 20
738.67104800000004
 30
0.0
 11
109.81334699999999
 21
738.67104800000004
 31
0.0
  0
LINE
  5
23F
  8
0
 62
     7
 10
110.81334699999999
 20
726.67104800000004
 30
0.0
 11
109.81334699999999
 21
726.67104800000004
 31
0.0
  0
LINE
  5
240
  8
0
 62
     3
 10
89.313346999999979
 20
720.15360700000008
 30
0.0
 11
89.313346999999979
 21
722.67104800000004
 31
0.0
  0
LINE
  5
241
  8
0
  6
DASHDOT
 62
     7
 10
141.65681499999991
 20
732.67104800000004
 30
0.0
 11
82.13176
 21
732.67104800000004
 31
0.0
  0
LINE
  5
242
  8
0
 62
     3
 10
89.313346999999979
 20
722.67104800000004
 30
0.0
 11
84.313346999999979
 21
722.67104800000004
 31
0.0
  0
LINE
  5
243
  8
0
 62
     3
 10
89.313346999999979
 20
742.67104800000004
 30
0.0
 11
84.313346999999979
 21
742.67104800000004
 31
0.0
  0
LINE
  5
244
  8
0
 62
     3
 10
89.313346999999979
 20
736.77105400000005
 30
0.0
 11
84.313346999999979
 21
736.77105400000005
 31
0.0
  0
LINE
  5
245
  8
0
 62
     3
 10
89.313346999999979
 20
728.57105699999988
 30
0.0
 11
84.313346999999979
 21
728.57105699999988
 31
0.0
  0
LINE
  5
246
  8
0
 62
     3
 10
84.313346999999979
 20
736.67104800000004
 30
0.0
 11
84.313346999999979
 21
742.67104800000004
 31
0.0
  0
POLYLINE
  5
247
  8
0
 62
     7
 66
     1
 10
0.0
 20
0.0
 30
0.0
  0
VERTEX
  5
A86
  8
0
 62
     7
 10
90.838936000000004
 20
725.23775999999987
 30
0.0
  0
VERTEX
  5
A87
  8
0
 62
     7
 10
85.626480000000015
 20
725.23775999999987
 30
0.0
  0
VERTEX
  5
A88
  8
0
 62
     7
 10
84.626479999999987
 20
723.23775999999987
 30
0.0
  0
VERTEX
  5
A89
  8
0
 62
     7
 10
83.626480000000001
 20
727.23775999999987
 30
0.0
  0
VERTEX
  5
A8A
  8
0
 62
     7
 10
82.626480000000001
 20
725.23775999999987
 30
0.0
  0
SEQEND
  5
A8B
  8
0
 62
     7
  0
LINE
  5
24E
  8
0
 62
     3
 10
84.313346999999979
 20
720.15360700000008
 30
0.0
 11
84.313346999999979
 21
728.67104800000004
 31
0.0
  0
LINE
  5
24F
  8
0
 62
     4
 10
132.8132709999999
 20
716.92109400000004
 30
0.0
 11
132.8132709999999
 21
751.42109400000004
 31
0.0
  0
LINE
  5
250
  8
0
 62
     4
 10
130.3132709999999
 20
720.15360700000008
 30
0.0
 11
130.3132709999999
 21
750.67109400000004
 31
0.0
  0
LINE
  5
251
  8
0
 62
     4
 10
102.8132709999999
 20
715.67115499999989
 30
0.0
 11
65.813271
 21
715.67115499999989
 31
0.0
  0
LINE
  5
252
  8
0
 62
     4
 10
102.8132709999999
 20
712.67101799999989
 30
0.0
 11
102.8132709999999
 21
715.671063
 31
0.0
  0
LINE
  5
253
  8
0
 62
     4
 10
131.5632709999999
 20
752.67115499999989
 30
0.0
 11
103.5133439999999
 21
752.67115499999989
 31
0.0
  0
ARC
  5
254
  8
0
 62
     4
 10
131.5632709999999
 20
751.42109400000004
 30
0.0
 40
1.25
 50
0.000001
 51
90.0
  0
LINE
  5
255
  8
0
 62
     4
 10
130.3132709999999
 20
750.671155
 30
0.0
 11
103.5133439999999
 21
750.671155
 31
0.0
  0
LINE
  5
256
  8
0
 62
     4
 10
129.31330899999989
 20
748.67115499999989
 30
0.0
 11
103.5133439999999
 21
748.67115499999989
 31
0.0
  0
LINE
  5
257
  8
0
 62
     4
 10
127.3133089999999
 20
750.67107899999985
 30
0.0
 11
127.3133089999999
 21
752.67107899999996
 31
0.0
  0
LINE
  5
258
  8
0
 62
     4
 10
130.3132709999999
 20
746.671155
 30
0.0
 11
103.5133439999999
 21
746.671155
 31
0.0
  0
LINE
  5
259
  8
0
 62
     4
 10
129.31330899999989
 20
748.67107899999996
 30
0.0
 11
129.31330899999989
 21
750.67107899999985
 31
0.0
  0
LINE
  5
25A
  8
0
 62
     4
 10
54.813285999999998
 20
715.67103299999997
 30
0.0
 11
54.813285999999998
 21
752.67103299999997
 31
0.0
  0
ARC
  5
25B
  8
0
 62
     4
 10
131.5632709999999
 20
716.92109400000004
 30
0.0
 40
1.25
 50
270.000046
 51
0.000001
  0
LINE
  5
25C
  8
0
 62
     1
 10
101.713348
 20
724.17104800000004
 30
0.0
 11
101.713348
 21
741.17104800000004
 31
0.0
  0
LINE
  5
25D
  8
0
 62
     1
 10
102.713348
 20
739.67104800000004
 30
0.0
 11
101.713348
 21
739.67104800000004
 31
0.0
  0
LINE
  5
25E
  8
0
 62
     1
 10
102.713348
 20
737.67104800000004
 30
0.0
 11
101.713348
 21
737.67104800000004
 31
0.0
  0
LINE
  5
25F
  8
0
 62
     1
 10
102.713348
 20
725.67104800000004
 30
0.0
 11
101.713348
 21
725.67104800000004
 31
0.0
  0
LINE
  5
260
  8
0
 62
     1
 10
102.713348
 20
727.67104800000004
 30
0.0
 11
101.713348
 21
727.67104800000004
 31
0.0
  0
POLYLINE
  5
261
  8
0
 62
     7
 66
     1
 10
0.0
 20
0.0
 30
0.0
  0
VERTEX
  5
A8C
  8
0
 62
     7
 10
77.685066000000006
 20
720.15360700000008
 30
0.0
  0
VERTEX
  5
A8D
  8
0
 62
     7
 10
77.685066000000006
 20
736.15360699999997
 30
0.0
  0
VERTEX
  5
A8E
  8
0
 62
     7
 10
75.685066000000006
 20
737.15360700000008
 30
0.0
  0
VERTEX
  5
A8F
  8
0
 62
     7
 10
79.685066000000006
 20
738.15360700000008
 30
0.0
  0
VERTEX
  5
A90
  8
0
 62
     7
 10
77.685066000000006
 20
739.15360699999997
 30
0.0
  0
VERTEX
  5
A91
  8
0
 62
     7
 10
77.685066000000006
 20
753.83858999999995
 30
0.0
  0
SEQEND
  5
A92
  8
0
 62
     7
  0
POLYLINE
  5
269
  8
0
 62
     7
 66
     1
 10
0.0
 20
0.0
 30
0.0
  0
VERTEX
  5
A93
  8
0
 62
     7
 10
135.7986149999999
 20
720.15360700000008
 30
0.0
  0
VERTEX
  5
A94
  8
0
 62
     7
 10
119.7986149999999
 20
720.15360700000008
 30
0.0
  0
VERTEX
  5
A95
  8
0
 62
     7
 10
118.7986149999999
 20
718.15360699999997
 30
0.0
  0
VERTEX
  5
A96
  8
0
 62
     7
 10
117.7986149999999
 20
722.15360699999997
 30
0.0
  0
VERTEX
  5
A97
  8
0
 62
     7
 10
116.7986149999999
 20
720.15360700000008
 30
0.0
  0
VERTEX
  5
A98
  8
0
 62
     7
 10
100.798615
 20
720.15360700000008
 30
0.0
  0
VERTEX
  5
A99
  8
0
 62
     7
 10
99.798614999999998
 20
718.15360699999997
 30
0.0
  0
VERTEX
  5
A9A
  8
0
 62
     7
 10
98.798614999999998
 20
722.15360699999997
 30
0.0
  0
VERTEX
  5
A9B
  8
0
 62
     7
 10
97.798614999999998
 20
720.15360700000008
 30
0.0
  0
VERTEX
  5
A9C
  8
0
 62
     7
 10
81.798614999999984
 20
720.15360700000008
 30
0.0
  0
VERTEX
  5
A9D
  8
0
 62
     7
 10
80.798614999999984
 20
718.15360699999997
 30
0.0
  0
VERTEX
  5
A9E
  8
0
 62
     7
 10
79.798614999999998
 20
722.15360699999997
 30
0.0
  0
VERTEX
  5
A9F
  8
0
 62
     7
 10
78.798614999999998
 20
720.15360700000008
 30
0.0
  0
VERTEX
  5
AA0
  8
0
 62
     7
 10
77.685066000000006
 20
720.15360700000008
 30
0.0
  0
SEQEND
  5
AA1
  8
0
 62
     7
  0
LINE
  5
279
  8
0
 62
     4
 10
65.813271
 20
712.67104800000004
 30
0.0
 11
54.813285999999998
 21
715.67103299999997
 31
0.0
  0
LINE
  5
27A
  8
0
 62
     4
 10
65.813271
 20
714.67103299999985
 30
0.0
 11
65.813271
 21
715.67103299999997
 31
0.0
  0
LINE
  5
27B
  8
0
 62
     4
 10
102.8132709999999
 20
714.671155
 30
0.0
 11
65.813271
 21
714.671155
 31
0.0
  0
LINE
  5
27C
  8
0
 62
     4
 10
131.5632709999999
 20
715.67115499999989
 30
0.0
 11
102.8132709999999
 21
715.67115499999989
 31
0.0
  0
LINE
  5
27D
  8
0
 62
     4
 10
87.513343999999989
 20
752.67115499999989
 30
0.0
 11
54.813285999999998
 21
752.67115499999989
 31
0.0
  0
LINE
  5
27E
  8
0
 62
     4
 10
87.513343999999989
 20
750.671155
 30
0.0
 11
77.685066000000006
 21
750.671155
 31
0.0
  0
LINE
  5
27F
  8
0
 62
     4
 10
87.513343999999989
 20
748.67115499999989
 30
0.0
 11
77.685066000000006
 21
748.67115499999989
 31
0.0
  0
LINE
  5
280
  8
0
 62
     4
 10
87.513343999999989
 20
746.671155
 30
0.0
 11
77.685066000000006
 21
746.671155
 31
0.0
  0
LINE
  5
281
  8
0
 62
     4
 10
102.8132709999999
 20
542.67109400000004
 30
0.0
 11
65.813271
 21
542.67109400000004
 31
0.0
  0
ARC
  5
282
  8
0
 62
   150
 10
84.313346999999979
 20
522.67108499999995
 30
0.0
 40
4.0
 50
270.00000499999987
 51
90.0
  0
LINE
  5
283
  8
0
 62
   150
 10
81.813346999999979
 20
512.67108499999995
 30
0.0
 11
81.813346999999979
 21
532.67108599999995
 31
0.0
  0
LINE
  5
284
  8
0
 62
   150
 10
84.313346999999979
 20
512.67108499999995
 30
0.0
 11
81.813346999999979
 21
512.67108499999995
 31
0.0
  0
LINE
  5
285
  8
0
 62
   150
 10
116.81334699999989
 20
512.67108499999995
 30
0.0
 11
101.713348
 21
512.67108499999995
 31
0.0
  0
LINE
  5
286
  8
0
 62
   150
 10
84.313346999999979
 20
532.67108599999995
 30
0.0
 11
81.813346999999979
 21
532.67108599999995
 31
0.0
  0
LINE
  5
287
  8
0
 62
   150
 10
116.81334699999989
 20
532.67108599999995
 30
0.0
 11
101.713348
 21
532.67108599999995
 31
0.0
  0
ARC
  5
288
  8
0
 62
   150
 10
84.313346999999979
 20
522.67108499999995
 30
0.0
 40
1.5
 50
270.00000499999987
 51
90.0
  0
ARC
  5
289
  8
0
 62
   150
 10
84.313346999999979
 20
518.67108499999995
 30
0.0
 40
2.5
 50
90.000010000000003
 51
180.00000299999991
  0
ARC
  5
28A
  8
0
 62
   150
 10
84.313346999999979
 20
526.67108499999995
 30
0.0
 40
2.5
 50
180.00000299999991
 51
270.00000499999987
  0
LINE
  5
28B
  8
0
 62
   150
 10
118.81334699999989
 20
528.67108499999995
 30
0.0
 11
118.81334699999989
 21
530.67108499999995
 31
0.0
  0
ARC
  5
28C
  8
0
 62
   150
 10
116.81334699999989
 20
514.67108499999995
 30
0.0
 40
2.0
 50
270.00000499999987
 51
0.000001
  0
ARC
  5
28D
  8
0
 62
   150
 10
116.81334699999989
 20
530.67108499999995
 30
0.0
 40
2.0
 50
0.000001
 51
90.0
  0
LINE
  5
28E
  8
0
 62
   150
 10
109.81334699999999
 20
528.67108499999995
 30
0.0
 11
109.81334699999999
 21
532.67108599999995
 31
0.0
  0
LINE
  5
28F
  8
0
 62
   150
 10
113.81334699999989
 20
528.67108499999995
 30
0.0
 11
113.81334699999989
 21
532.67108599999995
 31
0.0
  0
LINE
  5
290
  8
0
 62
     1
 10
105.2133479999999
 20
514.17108499999995
 30
0.0
 11
101.713348
 21
514.17108499999995
 31
0.0
  0
LINE
  5
291
  8
0
 62
     1
 10
105.2133479999999
 20
531.17108499999995
 30
0.0
 11
101.713348
 21
531.17108499999995
 31
0.0
  0
LINE
  5
292
  8
0
 62
     1
 10
102.713348
 20
529.67108499999995
 30
0.0
 11
102.713348
 21
531.17108499999995
 31
0.0
  0
LINE
  5
293
  8
0
 62
     1
 10
105.2133479999999
 20
529.67108499999995
 30
0.0
 11
105.2133479999999
 21
531.17108499999995
 31
0.0
  0
ARC
  5
294
  8
0
 62
     1
 10
103.4633479999999
 20
516.67108499999995
 30
0.0
 40
1.25
 50
126.86989800000001
 51
233.13009700000001
  0
LINE
  5
295
  8
0
 62
     1
 10
102.713348
 20
514.17108499999995
 30
0.0
 11
102.713348
 21
515.67108499999995
 31
0.0
  0
ARC
  5
296
  8
0
 62
     1
 10
103.4633479999999
 20
528.67108499999995
 30
0.0
 40
1.25
 50
126.86989800000001
 51
233.13009700000001
  0
LINE
  5
297
  8
0
 62
     1
 10
102.713348
 20
517.67108499999995
 30
0.0
 11
102.713348
 21
527.67108499999995
 31
0.0
  0
ARC
  5
298
  8
0
 62
     1
 10
105.963348
 20
516.67108499999995
 30
0.0
 40
1.25
 50
126.86989800000001
 51
233.13009700000001
  0
ARC
  5
299
  8
0
 62
     1
 10
105.963348
 20
528.67108499999995
 30
0.0
 40
1.25
 50
126.86989800000001
 51
233.13009700000001
  0
LINE
  5
29A
  8
0
 62
     1
 10
105.2133479999999
 20
514.17108499999995
 30
0.0
 11
105.2133479999999
 21
515.67108499999995
 31
0.0
  0
LINE
  5
29B
  8
0
 62
     1
 10
105.2133479999999
 20
527.17108499999995
 30
0.0
 11
105.2133479999999
 21
527.67108499999995
 31
0.0
  0
LINE
  5
29C
  8
0
 62
     1
 10
106.713348
 20
519.67108499999995
 30
0.0
 11
103.713348
 21
519.67108499999995
 31
0.0
  0
LINE
  5
29D
  8
0
 62
     1
 10
106.713348
 20
525.67108499999995
 30
0.0
 11
103.713348
 21
525.67108499999995
 31
0.0
  0
LINE
  5
29E
  8
0
 62
     1
 10
106.713348
 20
518.17108499999995
 30
0.0
 11
105.2133479999999
 21
518.17108499999995
 31
0.0
  0
LINE
  5
29F
  8
0
 62
     1
 10
106.713348
 20
527.17108499999995
 30
0.0
 11
105.2133479999999
 21
527.17108499999995
 31
0.0
  0
LINE
  5
2A0
  8
0
 62
     1
 10
105.2133479999999
 20
517.67108499999995
 30
0.0
 11
105.2133479999999
 21
518.17108499999995
 31
0.0
  0
ARC
  5
2A1
  8
0
 62
     1
 10
103.713348
 20
518.67108499999995
 30
0.0
 40
1.0
 50
90.0
 51
180.00000299999991
  0
ARC
  5
2A2
  8
0
 62
     1
 10
103.713348
 20
526.67108499999995
 30
0.0
 40
1.0
 50
180.00000299999991
 51
270.00000499999987
  0
LINE
  5
2A3
  8
0
 62
     2
 10
106.713348
 20
520.67108499999995
 30
0.0
 11
103.2133479999999
 21
520.67108499999995
 31
0.0
  0
LINE
  5
2A4
  8
0
 62
     2
 10
106.713348
 20
524.67108499999995
 30
0.0
 11
103.2133479999999
 21
524.67108499999995
 31
0.0
  0
LINE
  5
2A5
  8
0
 62
     2
 10
107.8680499999999
 20
522.67108499999995
 30
0.0
 11
106.713348
 21
524.67108499999995
 31
0.0
  0
LINE
  5
2A6
  8
0
 62
     2
 10
106.713348
 20
520.67108499999995
 30
0.0
 11
107.8680499999999
 21
522.67108499999995
 31
0.0
  0
LINE
  5
2A7
  8
0
 62
     2
 10
106.713348
 20
520.67108499999995
 30
0.0
 11
106.713348
 21
524.67108499999995
 31
0.0
  0
LINE
  5
2A8
  8
0
 62
     2
 10
106.713348
 20
517.67108499999995
 30
0.0
 11
106.713348
 21
518.17108499999995
 31
0.0
  0
LINE
  5
2A9
  8
0
 62
     1
 10
106.713348
 20
525.67108499999995
 30
0.0
 11
106.713348
 21
527.17108499999995
 31
0.0
  0
LINE
  5
2AA
  8
0
 62
     1
 10
106.713348
 20
518.17108499999995
 30
0.0
 11
106.713348
 21
519.67108499999995
 31
0.0
  0
LINE
  5
2AB
  8
0
 62
     2
 10
125.713348
 20
517.67108499999995
 30
0.0
 11
125.713348
 21
527.67108499999995
 31
0.0
  0
LINE
  5
2AC
  8
0
 62
     2
 10
124.713348
 20
516.67108499999995
 30
0.0
 11
107.713348
 21
516.67108499999995
 31
0.0
  0
LINE
  5
2AD
  8
0
 62
     2
 10
124.713348
 20
528.67108499999995
 30
0.0
 11
107.713348
 21
528.67108499999995
 31
0.0
  0
LINE
  5
2AE
  8
0
 62
   150
 10
109.81334699999999
 20
512.67108499999995
 30
0.0
 11
109.81334699999999
 21
516.67108499999995
 31
0.0
  0
LINE
  5
2AF
  8
0
 62
   150
 10
113.81334699999989
 20
512.67108499999995
 30
0.0
 11
113.81334699999989
 21
516.67108499999995
 31
0.0
  0
LINE
  5
2B0
  8
0
 62
   150
 10
118.81334699999989
 20
514.67108499999995
 30
0.0
 11
118.81334699999989
 21
516.67108499999995
 31
0.0
  0
LINE
  5
2B1
  8
0
 62
     2
 10
124.713348
 20
516.67108499999995
 30
0.0
 11
125.713348
 21
517.67108499999995
 31
0.0
  0
LINE
  5
2B2
  8
0
 62
     2
 10
125.713348
 20
527.67108499999995
 30
0.0
 11
124.713348
 21
528.67108499999995
 31
0.0
  0
LINE
  5
2B3
  8
0
 62
     2
 10
106.713348
 20
527.67108499999995
 30
0.0
 11
107.713348
 21
528.67108499999995
 31
0.0
  0
LINE
  5
2B4
  8
0
 62
     2
 10
107.713348
 20
516.67108499999995
 30
0.0
 11
106.713348
 21
517.67108499999995
 31
0.0
  0
LINE
  5
2B5
  8
0
 62
     2
 10
124.713348
 20
516.67108499999995
 30
0.0
 11
124.713348
 21
528.67108499999995
 31
0.0
  0
LINE
  5
2B6
  8
0
 62
     7
 10
125.463348
 20
517.42108499999995
 30
0.0
 11
106.963348
 21
517.42108499999995
 31
0.0
  0
LINE
  5
2B7
  8
0
 62
     7
 10
125.463348
 20
527.92108499999995
 30
0.0
 11
106.963348
 21
527.92108499999995
 31
0.0
  0
LINE
  5
2B8
  8
0
 62
     2
 10
106.713348
 20
527.17108499999995
 30
0.0
 11
106.713348
 21
527.67108499999995
 31
0.0
  0
ARC
  5
2B9
  8
0
 62
     2
 10
103.2133479999999
 20
520.17108499999995
 30
0.0
 40
0.5
 50
90.0
 51
180.00000299999991
  0
ARC
  5
2BA
  8
0
 62
     2
 10
103.2133479999999
 20
525.17108499999995
 30
0.0
 40
0.5
 50
180.00000299999991
 51
270.00000499999987
  0
POLYLINE
  5
2BB
  8
0
 62
     7
 66
     1
 10
0.0
 20
0.0
 30
0.0
  0
VERTEX
  5
AA2
  8
0
 62
     7
 10
109.0733639999999
 20
515.9235309999998
 30
0.0
  0
VERTEX
  5
AA3
  8
0
 62
     7
 10
109.0733639999999
 20
526.16864399999997
 30
0.0
  0
VERTEX
  5
AA4
  8
0
 62
     7
 10
107.0733639999999
 20
527.16864399999997
 30
0.0
  0
VERTEX
  5
AA5
  8
0
 62
     7
 10
111.0733639999999
 20
528.16864299999986
 30
0.0
  0
VERTEX
  5
AA6
  8
0
 62
     7
 10
109.0733639999999
 20
529.16864299999986
 30
0.0
  0
SEQEND
  5
AA7
  8
0
 62
     7
  0
LINE
  5
2C2
  8
0
 62
     7
 10
110.81334699999999
 20
516.67108499999995
 30
0.0
 11
109.81334699999999
 21
516.67108499999995
 31
0.0
  0
LINE
  5
2C3
  8
0
 62
     7
 10
110.81334699999999
 20
528.67108499999995
 30
0.0
 11
109.81334699999999
 21
528.67108499999995
 31
0.0
  0
LINE
  5
2C4
  8
0
 62
     3
 10
89.313346999999979
 20
532.67108599999995
 30
0.0
 11
89.313346999999979
 21
535.18853499999989
 31
0.0
  0
LINE
  5
2C5
  8
0
  6
DASHDOT
 62
     7
 10
141.65681499999991
 20
522.67108499999995
 30
0.0
 11
82.13176
 21
522.67108499999995
 31
0.0
  0
LINE
  5
2C6
  8
0
 62
     3
 10
89.313346999999979
 20
532.67108599999995
 30
0.0
 11
84.313346999999979
 21
532.67108599999995
 31
0.0
  0
LINE
  5
2C7
  8
0
 62
     3
 10
89.313346999999979
 20
512.67108499999995
 30
0.0
 11
84.313346999999979
 21
512.67108499999995
 31
0.0
  0
LINE
  5
2C8
  8
0
 62
     3
 10
89.313346999999979
 20
518.57108499999993
 30
0.0
 11
84.313346999999979
 21
518.57108499999993
 31
0.0
  0
LINE
  5
2C9
  8
0
 62
     3
 10
89.313346999999979
 20
526.77108600000008
 30
0.0
 11
84.313346999999979
 21
526.77108600000008
 31
0.0
  0
LINE
  5
2CA
  8
0
 62
     3
 10
84.313346999999979
 20
512.67108499999995
 30
0.0
 11
84.313346999999979
 21
518.67108499999995
 31
0.0
  0
POLYLINE
  5
2CB
  8
0
 62
     7
 66
     1
 10
0.0
 20
0.0
 30
0.0
  0
VERTEX
  5
AA8
  8
0
 62
     7
 10
90.838936000000004
 20
530.10438399999998
 30
0.0
  0
VERTEX
  5
AA9
  8
0
 62
     7
 10
85.626480000000015
 20
530.10438399999998
 30
0.0
  0
VERTEX
  5
AAA
  8
0
 62
     7
 10
84.626479999999987
 20
528.10438399999987
 30
0.0
  0
VERTEX
  5
AAB
  8
0
 62
     7
 10
83.626480000000001
 20
532.10438399999987
 30
0.0
  0
VERTEX
  5
AAC
  8
0
 62
     7
 10
82.626480000000001
 20
530.10438399999998
 30
0.0
  0
SEQEND
  5
AAD
  8
0
 62
     7
  0
LINE
  5
2D2
  8
0
 62
     3
 10
84.313346999999979
 20
526.67108499999995
 30
0.0
 11
84.313346999999979
 21
535.18853499999989
 31
0.0
  0
LINE
  5
2D3
  8
0
 62
     4
 10
132.8132709999999
 20
503.92104699999987
 30
0.0
 11
132.8132709999999
 21
538.42104800000004
 31
0.0
  0
LINE
  5
2D4
  8
0
 62
     4
 10
130.3132709999999
 20
504.67104799999998
 30
0.0
 11
130.3132709999999
 21
535.18853499999989
 31
0.0
  0
LINE
  5
2D5
  8
0
 62
     4
 10
102.8132709999999
 20
539.67098699999985
 30
0.0
 11
65.813271
 21
539.67098699999985
 31
0.0
  0
LINE
  5
2D6
  8
0
 62
     4
 10
102.8132709999999
 20
539.67107099999987
 30
0.0
 11
102.8132709999999
 21
542.67111899999998
 31
0.0
  0
LINE
  5
2D7
  8
0
 62
     4
 10
131.5632709999999
 20
502.67098600000003
 30
0.0
 11
103.5133439999999
 21
502.67098600000003
 31
0.0
  0
ARC
  5
2D8
  8
0
 62
     4
 10
131.5632709999999
 20
503.92104699999987
 30
0.0
 40
1.25
 50
269.99995000000001
 51
0.000001
  0
LINE
  5
2D9
  8
0
 62
     4
 10
130.3132709999999
 20
504.67098599999991
 30
0.0
 11
103.5133439999999
 21
504.67098599999991
 31
0.0
  0
LINE
  5
2DA
  8
0
 62
     4
 10
129.31330899999989
 20
506.67098600000003
 30
0.0
 11
103.5133439999999
 21
506.67098600000003
 31
0.0
  0
LINE
  5
2DB
  8
0
 62
     4
 10
127.3133089999999
 20
502.67106100000001
 30
0.0
 11
127.3133089999999
 21
504.6710609999999
 31
0.0
  0
LINE
  5
2DC
  8
0
 62
     4
 10
130.3132709999999
 20
508.67098600000003
 30
0.0
 11
103.5133439999999
 21
508.67098600000003
 31
0.0
  0
LINE
  5
2DD
  8
0
 62
     4
 10
129.31330899999989
 20
504.6710589999999
 30
0.0
 11
129.31330899999989
 21
506.6710589999999
 31
0.0
  0
LINE
  5
2DE
  8
0
 62
     4
 10
54.813285999999998
 20
502.671111
 30
0.0
 11
54.813285999999998
 21
539.671111
 31
0.0
  0
ARC
  5
2DF
  8
0
 62
     4
 10
131.5632709999999
 20
538.42104800000004
 30
0.0
 40
1.25
 50
0.000001
 51
90.0
  0
LINE
  5
2E0
  8
0
 62
     1
 10
101.713348
 20
514.17108499999995
 30
0.0
 11
101.713348
 21
531.17108499999995
 31
0.0
  0
LINE
  5
2E1
  8
0
 62
     1
 10
102.713348
 20
515.67108499999995
 30
0.0
 11
101.713348
 21
515.67108499999995
 31
0.0
  0
LINE
  5
2E2
  8
0
 62
     1
 10
102.713348
 20
517.67108499999995
 30
0.0
 11
101.713348
 21
517.67108499999995
 31
0.0
  0
LINE
  5
2E3
  8
0
 62
     1
 10
102.713348
 20
529.67108499999995
 30
0.0
 11
101.713348
 21
529.67108499999995
 31
0.0
  0
LINE
  5
2E4
  8
0
 62
     1
 10
102.713348
 20
527.67108499999995
 30
0.0
 11
101.713348
 21
527.67108499999995
 31
0.0
  0
POLYLINE
  5
2E5
  8
0
 62
     7
 66
     1
 10
0.0
 20
0.0
 30
0.0
  0
VERTEX
  5
AAE
  8
0
 62
     7
 10
77.685066000000006
 20
501.5035519999999
 30
0.0
  0
VERTEX
  5
AAF
  8
0
 62
     7
 10
77.685066000000006
 20
517.50355199999979
 30
0.0
  0
VERTEX
  5
AB0
  8
0
 62
     7
 10
75.685066000000006
 20
518.50355199999979
 30
0.0
  0
VERTEX
  5
AB1
  8
0
 62
     7
 10
79.685066000000006
 20
519.5035519999999
 30
0.0
  0
VERTEX
  5
AB2
  8
0
 62
     7
 10
77.685066000000006
 20
520.5035519999999
 30
0.0
  0
VERTEX
  5
AB3
  8
0
 62
     7
 10
77.685066000000006
 20
535.18853499999989
 30
0.0
  0
SEQEND
  5
AB4
  8
0
 62
     7
  0
POLYLINE
  5
2ED
  8
0
 62
     7
 66
     1
 10
0.0
 20
0.0
 30
0.0
  0
VERTEX
  5
AB5
  8
0
 62
     7
 10
135.7986149999999
 20
535.18853499999989
 30
0.0
  0
VERTEX
  5
AB6
  8
0
 62
     7
 10
119.7986149999999
 20
535.18853499999989
 30
0.0
  0
VERTEX
  5
AB7
  8
0
 62
     7
 10
118.7986149999999
 20
533.188535
 30
0.0
  0
VERTEX
  5
AB8
  8
0
 62
     7
 10
117.7986149999999
 20
537.188535
 30
0.0
  0
VERTEX
  5
AB9
  8
0
 62
     7
 10
116.7986149999999
 20
535.18853499999989
 30
0.0
  0
VERTEX
  5
ABA
  8
0
 62
     7
 10
100.798615
 20
535.18853499999989
 30
0.0
  0
VERTEX
  5
ABB
  8
0
 62
     7
 10
99.798614999999998
 20
533.188535
 30
0.0
  0
VERTEX
  5
ABC
  8
0
 62
     7
 10
98.798614999999998
 20
537.188535
 30
0.0
  0
VERTEX
  5
ABD
  8
0
 62
     7
 10
97.798614999999998
 20
535.18853499999989
 30
0.0
  0
VERTEX
  5
ABE
  8
0
 62
     7
 10
81.798614999999984
 20
535.18853499999989
 30
0.0
  0
VERTEX
  5
ABF
  8
0
 62
     7
 10
80.798614999999984
 20
533.188535
 30
0.0
  0
VERTEX
  5
AC0
  8
0
 62
     7
 10
79.798614999999998
 20
537.188535
 30
0.0
  0
VERTEX
  5
AC1
  8
0
 62
     7
 10
78.798614999999998
 20
535.18853499999989
 30
0.0
  0
VERTEX
  5
AC2
  8
0
 62
     7
 10
77.685066000000006
 20
535.18853499999989
 30
0.0
  0
SEQEND
  5
AC3
  8
0
 62
     7
  0
LINE
  5
2FD
  8
0
 62
     4
 10
54.813285999999998
 20
539.671111
 30
0.0
 11
65.813271
 21
542.67109400000004
 31
0.0
  0
LINE
  5
2FE
  8
0
 62
     4
 10
65.813271
 20
539.67110199999979
 30
0.0
 11
65.813271
 21
540.67110199999991
 31
0.0
  0
LINE
  5
2FF
  8
0
 62
     4
 10
102.8132709999999
 20
540.67098699999985
 30
0.0
 11
65.813271
 21
540.67098699999985
 31
0.0
  0
LINE
  5
300
  8
0
 62
     4
 10
131.5632709999999
 20
539.67098699999985
 30
0.0
 11
102.8132709999999
 21
539.67098699999985
 31
0.0
  0
LINE
  5
301
  8
0
 62
     4
 10
87.513343999999989
 20
508.67098600000003
 30
0.0
 11
77.685066000000006
 21
508.67098600000003
 31
0.0
  0
LINE
  5
302
  8
0
 62
     4
 10
87.513343999999989
 20
506.67098600000003
 30
0.0
 11
77.685066000000006
 21
506.67098600000003
 31
0.0
  0
LINE
  5
303
  8
0
 62
     4
 10
87.513343999999989
 20
504.67098599999991
 30
0.0
 11
77.685066000000006
 21
504.67098599999991
 31
0.0
  0
LINE
  5
304
  8
0
 62
     4
 10
87.513343999999989
 20
502.67098600000003
 30
0.0
 11
54.813285999999998
 21
502.67098600000003
 31
0.0
  0
LINE
  5
305
  8
0
 62
    31
 10
101.713348
 20
509.67108500000001
 30
0.0
 11
101.713348
 21
532.67108599999995
 31
0.0
  0
LINE
  5
306
  8
0
 62
    31
 10
89.313346999999979
 20
509.67108500000001
 30
0.0
 11
89.313346999999979
 21
532.67108599999995
 31
0.0
  0
LINE
  5
307
  8
0
 62
    31
 10
101.713348
 20
532.67108599999995
 30
0.0
 11
89.313346999999979
 21
532.67108599999995
 31
0.0
  0
LINE
  5
308
  8
0
 62
    31
 10
103.5133439999999
 20
509.67108500000001
 30
0.0
 11
87.513343999999989
 21
509.67108500000001
 31
0.0
  0
LINE
  5
309
  8
0
  6
DASHDOT
 62
    31
 10
95.513344000000004
 20
489.05892699999993
 30
0.0
 11
95.513344000000004
 21
537.73235
 31
0.0
  0
LINE
  5
30A
  8
0
 62
    31
 10
87.513343999999989
 20
491.05892699999998
 30
0.0
 11
87.513343999999989
 21
509.67108500000001
 31
0.0
  0
LINE
  5
30B
  8
0
 62
    31
 10
103.5133439999999
 20
491.05892699999998
 30
0.0
 11
103.5133439999999
 21
509.67108500000001
 31
0.0
  0
LINE
  5
30C
  8
0
 62
    31
 10
99.568871000000016
 20
509.67108500000001
 30
0.0
 11
95.513344000000004
 21
532.67108599999995
 31
0.0
  0
POLYLINE
  5
30D
  8
0
 62
    31
 66
     1
 10
0.0
 20
0.0
 30
0.0
 70
     1
  0
VERTEX
  5
AC4
  8
0
 62
    31
 10
87.513343999999989
 20
491.05892699999998
 30
0.0
  0
VERTEX
  5
AC5
  8
0
 62
    31
 10
87.517348999999996
 20
490.96946799999989
 30
0.0
  0
VERTEX
  5
AC6
  8
0
 62
    31
 10
87.529372999999993
 20
490.88005700000002
 30
0.0
  0
VERTEX
  5
AC7
  8
0
 62
    31
 10
87.549507000000006
 20
490.7906099999999
 30
0.0
  0
VERTEX
  5
AC8
  8
0
 62
    31
 10
87.577895999999996
 20
490.7010699999999
 30
0.0
  0
VERTEX
  5
AC9
  8
0
 62
    31
 10
87.614777000000004
 20
490.6113959999999
 30
0.0
  0
VERTEX
  5
ACA
  8
0
 62
    31
 10
87.660415999999984
 20
490.52159399999999
 30
0.0
  0
VERTEX
  5
ACB
  8
0
 62
    31
 10
87.715141000000003
 20
490.43170499999991
 30
0.0
  0
VERTEX
  5
ACC
  8
0
 62
    31
 10
87.779312000000004
 20
490.34182099999992
 30
0.0
  0
VERTEX
  5
ACD
  8
0
 62
    31
 10
87.853286999999995
 20
490.25208400000002
 30
0.0
  0
VERTEX
  5
ACE
  8
0
 62
    31
 10
87.937454000000002
 20
490.16268600000001
 30
0.0
  0
VERTEX
  5
ACF
  8
0
 62
    31
 10
88.032157999999995
 20
490.07387299999999
 30
0.0
  0
VERTEX
  5
AD0
  8
0
 62
    31
 10
88.137726000000001
 20
489.98594199999991
 30
0.0
  0
VERTEX
  5
AD1
  8
0
 62
    31
 10
88.254432999999992
 20
489.89924000000002
 30
0.0
  0
VERTEX
  5
AD2
  8
0
 62
    31
 10
88.382499999999993
 20
489.81415699999991
 30
0.0
  0
VERTEX
  5
AD3
  8
0
 62
    31
 10
88.522064
 20
489.73112400000002
 30
0.0
  0
VERTEX
  5
AD4
  8
0
 62
    31
 10
88.673180000000002
 20
489.65060699999998
 30
0.0
  0
VERTEX
  5
AD5
  8
0
 62
    31
 10
88.835785000000001
 20
489.573104
 30
0.0
  0
VERTEX
  5
AD6
  8
0
 62
    31
 10
89.009726999999998
 20
489.49912499999999
 30
0.0
  0
VERTEX
  5
AD7
  8
0
 62
    31
 10
89.194725000000005
 20
489.42920400000003
 30
0.0
  0
VERTEX
  5
AD8
  8
0
 62
    31
 10
89.390349999999998
 20
489.36386799999991
 30
0.0
  0
VERTEX
  5
AD9
  8
0
 62
    31
 10
89.596077000000008
 20
489.30364299999991
 30
0.0
  0
VERTEX
  5
ADA
  8
0
 62
    31
 10
89.811233999999985
 20
489.24903599999999
 30
0.0
  0
VERTEX
  5
ADB
  8
0
 62
    31
 10
90.035004000000001
 20
489.2005319999999
 30
0.0
  0
VERTEX
  5
ADC
  8
0
 62
    31
 10
90.266486999999998
 20
489.15857599999993
 30
0.0
  0
VERTEX
  5
ADD
  8
0
 62
    31
 10
90.504622999999995
 20
489.12356699999992
 30
0.0
  0
VERTEX
  5
ADE
  8
0
 62
    31
 10
90.748283000000001
 20
489.09584899999999
 30
0.0
  0
VERTEX
  5
ADF
  8
0
 62
    31
 10
90.996239000000003
 20
489.07570900000002
 30
0.0
  0
VERTEX
  5
AE0
  8
0
 62
    31
 10
91.247185000000002
 20
489.06335899999999
 30
0.0
  0
VERTEX
  5
AE1
  8
0
 62
    31
 10
91.499770999999996
 20
489.05893800000001
 30
0.0
  0
VERTEX
  5
AE2
  8
0
 62
    31
 10
91.752631999999991
 20
489.06250899999992
 30
0.0
  0
VERTEX
  5
AE3
  8
0
 62
    31
 10
91.878676999999996
 20
489.06728499999991
 30
0.0
  0
VERTEX
  5
AE4
  8
0
 62
    31
 10
92.004356000000001
 20
489.07405199999988
 30
0.0
  0
VERTEX
  5
AE5
  8
0
 62
    31
 10
92.129280000000008
 20
489.0827799999999
 30
0.0
  0
VERTEX
  5
AE6
  8
0
 62
    31
 10
92.253585999999984
 20
489.09347199999991
 30
0.0
  0
VERTEX
  5
AE7
  8
0
 62
    31
 10
92.376708999999991
 20
489.10606899999999
 30
0.0
  0
VERTEX
  5
AE8
  8
0
 62
    31
 10
92.498985000000005
 20
489.12059499999998
 30
0.0
  0
VERTEX
  5
AE9
  8
0
 62
    31
 10
92.619658999999984
 20
489.13694299999997
 30
0.0
  0
VERTEX
  5
AEA
  8
0
 62
    31
 10
92.739257999999978
 20
489.155169
 30
0.0
  0
VERTEX
  5
AEB
  8
0
 62
    31
 10
92.856880000000004
 20
489.17511799999988
 30
0.0
  0
VERTEX
  5
AEC
  8
0
 62
    31
 10
92.973206000000005
 20
489.19688300000001
 30
0.0
  0
VERTEX
  5
AED
  8
0
 62
    31
 10
93.087211999999994
 20
489.22024800000003
 30
0.0
  0
VERTEX
  5
AEE
  8
0
 62
    31
 10
93.199721999999994
 20
489.2453569999999
 30
0.0
  0
VERTEX
  5
AEF
  8
0
 62
    31
 10
93.309601000000001
 20
489.27192599999989
 30
0.0
  0
VERTEX
  5
AF0
  8
0
 62
    31
 10
93.417808999999991
 20
489.30015999999989
 30
0.0
  0
VERTEX
  5
AF1
  8
0
 62
    31
 10
93.523102000000009
 20
489.329701
 30
0.0
  0
VERTEX
  5
AF2
  8
0
 62
    31
 10
93.626564000000002
 20
489.360816
 30
0.0
  0
VERTEX
  5
AF3
  8
0
 62
    31
 10
93.726890999999995
 20
489.39307699999989
 30
0.0
  0
VERTEX
  5
AF4
  8
0
 62
    31
 10
93.82525600000001
 20
489.42681999999991
 30
0.0
  0
VERTEX
  5
AF5
  8
0
 62
    31
 10
93.920287999999999
 20
489.46153499999991
 30
0.0
  0
VERTEX
  5
AF6
  8
0
 62
    31
 10
94.013244999999984
 20
489.497636
 30
0.0
  0
VERTEX
  5
AF7
  8
0
 62
    31
 10
94.102737000000005
 20
489.534537
 30
0.0
  0
VERTEX
  5
AF8
  8
0
 62
    31
 10
94.190056000000013
 20
489.57271900000001
 30
0.0
  0
VERTEX
  5
AF9
  8
0
 62
    31
 10
94.273818999999975
 20
489.6115309999999
 30
0.0
  0
VERTEX
  5
AFA
  8
0
 62
    31
 10
94.355323999999996
 20
489.651523
 30
0.0
  0
VERTEX
  5
AFB
  8
0
 62
    31
 10
94.433234999999996
 20
489.69197400000002
 30
0.0
  0
VERTEX
  5
AFC
  8
0
 62
    31
 10
94.508842000000001
 20
489.73350199999982
 30
0.0
  0
VERTEX
  5
AFD
  8
0
 62
    31
 10
94.580841000000007
 20
489.77532899999989
 30
0.0
  0
VERTEX
  5
AFE
  8
0
 62
    31
 10
94.650496999999987
 20
489.81813299999988
 30
0.0
  0
VERTEX
  5
AFF
  8
0
 62
    31
 10
94.716582999999986
 20
489.86108499999989
 30
0.0
  0
VERTEX
  5
B00
  8
0
 62
    31
 10
94.780311999999995
 20
489.90491600000001
 30
0.0
  0
VERTEX
  5
B01
  8
0
 62
    31
 10
94.840523000000005
 20
489.94875799999988
 30
0.0
  0
VERTEX
  5
B02
  8
0
 62
    31
 10
94.898383999999993
 20
489.993382
 30
0.0
  0
VERTEX
  5
B03
  8
0
 62
    31
 10
94.952819999999988
 20
490.03789599999999
 30
0.0
  0
VERTEX
  5
B04
  8
0
 62
    31
 10
95.004920999999996
 20
490.08310399999988
 30
0.0
  0
VERTEX
  5
B05
  8
0
 62
    31
 10
95.053719000000001
 20
490.12809700000003
 30
0.0
  0
VERTEX
  5
B06
  8
0
 62
    31
 10
95.100196999999994
 20
490.17369699999989
 30
0.0
  0
VERTEX
  5
B07
  8
0
 62
    31
 10
95.143508999999995
 20
490.218999
 30
0.0
  0
VERTEX
  5
B08
  8
0
 62
    31
 10
95.184539999999998
 20
490.26482900000002
 30
0.0
  0
VERTEX
  5
B09
  8
0
 62
    31
 10
95.222556999999995
 20
490.31029599999999
 30
0.0
  0
VERTEX
  5
B0A
  8
0
 62
    31
 10
95.258316000000008
 20
490.3562169999999
 30
0.0
  0
VERTEX
  5
B0B
  8
0
 62
    31
 10
95.291229000000001
 20
490.40173399999998
 30
0.0
  0
VERTEX
  5
B0C
  8
0
 62
    31
 10
95.321930000000009
 20
490.44763699999999
 30
0.0
  0
VERTEX
  5
B0D
  8
0
 62
    31
 10
95.349936999999997
 20
490.49311499999999
 30
0.0
  0
VERTEX
  5
B0E
  8
0
 62
    31
 10
95.375777999999997
 20
490.53891299999992
 30
0.0
  0
VERTEX
  5
B0F
  8
0
 62
    31
 10
95.399077999999989
 20
490.584292
 30
0.0
  0
VERTEX
  5
B10
  8
0
 62
    31
 10
95.420242000000002
 20
490.62993299999999
 30
0.0
  0
VERTEX
  5
B11
  8
0
 62
    31
 10
95.439025999999998
 20
490.67517800000002
 30
0.0
  0
VERTEX
  5
B12
  8
0
 62
    31
 10
95.455710999999994
 20
490.72062599999992
 30
0.0
  0
VERTEX
  5
B13
  8
0
 62
    31
 10
95.470130999999995
 20
490.76572499999992
 30
0.0
  0
VERTEX
  5
B14
  8
0
 62
    31
 10
95.48249100000001
 20
490.81097499999998
 30
0.0
  0
VERTEX
  5
B15
  8
0
 62
    31
 10
95.492691000000008
 20
490.85593499999987
 30
0.0
  0
VERTEX
  5
B16
  8
0
 62
    31
 10
95.500854000000004
 20
490.90099800000002
 30
0.0
  0
VERTEX
  5
B17
  8
0
 62
    31
 10
95.506950000000003
 20
490.94584600000002
 30
0.0
  0
VERTEX
  5
B18
  8
0
 62
    31
 10
95.511024000000006
 20
490.99074999999999
 30
0.0
  0
VERTEX
  5
B19
  8
0
 62
    31
 10
95.513068999999973
 20
491.03552000000002
 30
0.0
  0
VERTEX
  5
B1A
  8
0
 62
    31
 10
95.513114999999999
 20
491.08030000000002
 30
0.0
  0
VERTEX
  5
B1B
  8
0
 62
    31
 10
95.507202000000007
 20
491.16973999999999
 30
0.0
  0
VERTEX
  5
B1C
  8
0
 62
    31
 10
95.493247999999994
 20
491.25915199999992
 30
0.0
  0
VERTEX
  5
B1D
  8
0
 62
    31
 10
95.471160999999995
 20
491.34861699999988
 30
0.0
  0
VERTEX
  5
B1E
  8
0
 62
    31
 10
95.440764999999999
 20
491.43818799999991
 30
0.0
  0
VERTEX
  5
B1F
  8
0
 62
    31
 10
95.401825000000002
 20
491.527894
 30
0.0
  0
VERTEX
  5
B20
  8
0
 62
    31
 10
95.354050000000001
 20
491.61772300000001
 30
0.0
  0
VERTEX
  5
B21
  8
0
 62
    31
 10
95.297095999999996
 20
491.70762000000002
 30
0.0
  0
VERTEX
  5
B22
  8
0
 62
    31
 10
95.230620999999999
 20
491.797484
 30
0.0
  0
VERTEX
  5
B23
  8
0
 62
    31
 10
95.154243000000008
 20
491.88715999999988
 30
0.0
  0
VERTEX
  5
B24
  8
0
 62
    31
 10
95.067588999999984
 20
491.97644099999991
 30
0.0
  0
VERTEX
  5
B25
  8
0
 62
    31
 10
94.970321999999996
 20
492.06507199999999
 30
0.0
  0
VERTEX
  5
B26
  8
0
 62
    31
 10
94.862114000000005
 20
492.15274299999999
 30
0.0
  0
VERTEX
  5
B27
  8
0
 62
    31
 10
94.742714000000007
 20
492.2390969999999
 30
0.0
  0
VERTEX
  5
B28
  8
0
 62
    31
 10
94.611908
 20
492.3237299999999
 30
0.0
  0
VERTEX
  5
B29
  8
0
 62
    31
 10
94.469588999999999
 20
492.40620499999989
 30
0.0
  0
VERTEX
  5
B2A
  8
0
 62
    31
 10
94.315719999999999
 20
492.48604899999998
 30
0.0
  0
VERTEX
  5
B2B
  8
0
 62
    31
 10
94.150382999999991
 20
492.56275799999997
 30
0.0
  0
VERTEX
  5
B2C
  8
0
 62
    31
 10
93.973770000000002
 20
492.63581599999998
 30
0.0
  0
VERTEX
  5
B2D
  8
0
 62
    31
 10
93.786193999999995
 20
492.70469000000003
 30
0.0
  0
VERTEX
  5
B2E
  8
0
 62
    31
 10
93.588104000000016
 20
492.76885299999998
 30
0.0
  0
VERTEX
  5
B2F
  8
0
 62
    31
 10
93.380057999999991
 20
492.8277809999999
 30
0.0
  0
VERTEX
  5
B30
  8
0
 62
    31
 10
93.162766000000005
 20
492.88097299999998
 30
0.0
  0
VERTEX
  5
B31
  8
0
 62
    31
 10
92.937065000000004
 20
492.927953
 30
0.0
  0
VERTEX
  5
B32
  8
0
 62
    31
 10
92.703895999999986
 20
492.96828399999993
 30
0.0
  0
VERTEX
  5
B33
  8
0
 62
    31
 10
92.464332999999996
 20
493.00157999999988
 30
0.0
  0
VERTEX
  5
B34
  8
0
 62
    31
 10
92.219536000000005
 20
493.02751100000012
 30
0.0
  0
VERTEX
  5
B35
  8
0
 62
    31
 10
91.970741000000004
 20
493.04580800000002
 30
0.0
  0
VERTEX
  5
B36
  8
0
 62
    31
 10
91.719276000000008
 20
493.05627299999998
 30
0.0
  0
VERTEX
  5
B37
  8
0
 62
    31
 10
91.466498999999985
 20
493.05878899999988
 30
0.0
  0
VERTEX
  5
B38
  8
0
 62
    31
 10
91.340057000000016
 20
493.05704800000001
 30
0.0
  0
VERTEX
  5
B39
  8
0
 62
    31
 10
91.213791000000001
 20
493.0533089999999
 30
0.0
  0
VERTEX
  5
B3A
  8
0
 62
    31
 10
91.087943999999979
 20
493.04758399999992
 30
0.0
  0
VERTEX
  5
B3B
  8
0
 62
    31
 10
90.962531999999996
 20
493.03987199999989
 30
0.0
  0
VERTEX
  5
B3C
  8
0
 62
    31
 10
90.837981999999997
 20
493.030213
 30
0.0
  0
VERTEX
  5
B3D
  8
0
 62
    31
 10
90.714095999999998
 20
493.01859400000001
 30
0.0
  0
VERTEX
  5
B3E
  8
0
 62
    31
 10
90.591498999999985
 20
493.00509
 30
0.0
  0
VERTEX
  5
B3F
  8
0
 62
    31
 10
90.469809999999995
 20
492.98966699999988
 30
0.0
  0
VERTEX
  5
B40
  8
0
 62
    31
 10
90.349807999999996
 20
492.972444
 30
0.0
  0
VERTEX
  5
B41
  8
0
 62
    31
 10
90.230941999999999
 20
492.95335499999999
 30
0.0
  0
VERTEX
  5
B42
  8
0
 62
    31
 10
90.114136000000002
 20
492.93257199999999
 30
0.0
  0
VERTEX
  5
B43
  8
0
 62
    31
 10
89.998671999999999
 20
492.90999099999988
 30
0.0
  0
VERTEX
  5
B44
  8
0
 62
    31
 10
89.885604999999998
 20
492.88583999999997
 30
0.0
  0
VERTEX
  5
B45
  8
0
 62
    31
 10
89.774077999999989
 20
492.85996499999999
 30
0.0
  0
VERTEX
  5
B46
  8
0
 62
    31
 10
89.665259999999989
 20
492.83266399999991
 30
0.0
  0
VERTEX
  5
B47
  8
0
 62
    31
 10
89.558150999999995
 20
492.80372
 30
0.0
  0
VERTEX
  5
B48
  8
0
 62
    31
 10
89.454009999999997
 20
492.77350499999989
 30
0.0
  0
VERTEX
  5
B49
  8
0
 62
    31
 10
89.351730000000003
 20
492.741738
 30
0.0
  0
VERTEX
  5
B4A
  8
0
 62
    31
 10
89.25264
 20
492.70886699999988
 30
0.0
  0
VERTEX
  5
B4B
  8
0
 62
    31
 10
89.155547999999996
 20
492.67453699999987
 30
0.0
  0
VERTEX
  5
B4C
  8
0
 62
    31
 10
89.061813000000001
 20
492.63927399999989
 30
0.0
  0
VERTEX
  5
B4D
  8
0
 62
    31
 10
88.970191999999997
 20
492.60265099999992
 30
0.0
  0
VERTEX
  5
B4E
  8
0
 62
    31
 10
88.882050000000007
 20
492.565269
 30
0.0
  0
VERTEX
  5
B4F
  8
0
 62
    31
 10
88.796104
 20
492.52662900000001
 30
0.0
  0
VERTEX
  5
B50
  8
0
 62
    31
 10
88.713736999999995
 20
492.48740299999997
 30
0.0
  0
VERTEX
  5
B51
  8
0
 62
    31
 10
88.633628999999999
 20
492.44701900000001
 30
0.0
  0
VERTEX
  5
B52
  8
0
 62
    31
 10
88.557129000000003
 20
492.40621700000003
 30
0.0
  0
VERTEX
  5
B53
  8
0
 62
    31
 10
88.482940999999997
 20
492.36435999999998
 30
0.0
  0
VERTEX
  5
B54
  8
0
 62
    31
 10
88.412353999999993
 20
492.32224200000002
 30
0.0
  0
VERTEX
  5
B55
  8
0
 62
    31
 10
88.344116000000014
 20
492.27917000000002
 30
0.0
  0
VERTEX
  5
B56
  8
0
 62
    31
 10
88.279442000000003
 20
492.23598399999992
 30
0.0
  0
VERTEX
  5
B57
  8
0
 62
    31
 10
88.217124999999996
 20
492.19194299999992
 30
0.0
  0
VERTEX
  5
B58
  8
0
 62
    31
 10
88.158302000000006
 20
492.14792299999999
 30
0.0
  0
VERTEX
  5
B59
  8
0
 62
    31
 10
88.101830000000007
 20
492.10313899999989
 30
0.0
  0
VERTEX
  5
B5A
  8
0
 62
    31
 10
88.048743999999999
 20
492.05849599999999
 30
0.0
  0
VERTEX
  5
B5B
  8
0
 62
    31
 10
87.998008999999996
 20
492.01317699999993
 30
0.0
  0
VERTEX
  5
B5C
  8
0
 62
    31
 10
87.950531000000026
 20
491.96809699999989
 30
0.0
  0
VERTEX
  5
B5D
  8
0
 62
    31
 10
87.905372999999997
 20
491.92242699999991
 30
0.0
  0
VERTEX
  5
B5E
  8
0
 62
    31
 10
87.863342000000003
 20
491.87707399999999
 30
0.0
  0
VERTEX
  5
B5F
  8
0
 62
    31
 10
87.823586000000006
 20
491.83120999999988
 30
0.0
  0
VERTEX
  5
B60
  8
0
 62
    31
 10
87.786811999999983
 20
491.78572200000002
 30
0.0
  0
VERTEX
  5
B61
  8
0
 62
    31
 10
87.752274
 20
491.7397969999999
 30
0.0
  0
VERTEX
  5
B62
  8
0
 62
    31
 10
87.720551000000015
 20
491.69428199999999
 30
0.0
  0
VERTEX
  5
B63
  8
0
 62
    31
 10
87.691031999999993
 20
491.64839799999999
 30
0.0
  0
VERTEX
  5
B64
  8
0
 62
    31
 10
87.664162000000005
 20
491.60293899999999
 30
0.0
  0
VERTEX
  5
B65
  8
0
 62
    31
 10
87.639458000000005
 20
491.55717399999997
 30
0.0
  0
VERTEX
  5
B66
  8
0
 62
    31
 10
87.617256000000012
 20
491.51182499999987
 30
0.0
  0
VERTEX
  5
B67
  8
0
 62
    31
 10
87.597176000000005
 20
491.46622799999989
 30
0.0
  0
VERTEX
  5
B68
  8
0
 62
    31
 10
87.579444999999978
 20
491.42101799999989
 30
0.0
  0
VERTEX
  5
B69
  8
0
 62
    31
 10
87.563811999999984
 20
491.37561699999998
 30
0.0
  0
VERTEX
  5
B6A
  8
0
 62
    31
 10
87.550407000000007
 20
491.3305519999999
 30
0.0
  0
VERTEX
  5
B6B
  8
0
 62
    31
 10
87.539062999999999
 20
491.285348
 30
0.0
  0
VERTEX
  5
B6C
  8
0
 62
    31
 10
87.529854
 20
491.24041799999998
 30
0.0
  0
VERTEX
  5
B6D
  8
0
 62
    31
 10
87.522666999999984
 20
491.19539500000002
 30
0.0
  0
VERTEX
  5
B6E
  8
0
 62
    31
 10
87.517548000000005
 20
491.15057100000001
 30
0.0
  0
VERTEX
  5
B6F
  8
0
 62
    31
 10
87.514441999999988
 20
491.10570000000001
 30
0.0
  0
SEQEND
  5
B70
  8
0
 62
    31
  0
POLYLINE
  5
3BB
  8
0
 62
    31
 66
     1
 10
0.0
 20
0.0
 30
0.0
  0
VERTEX
  5
B71
  8
0
 62
    31
 10
95.513344000000004
 20
491.05892699999998
 30
0.0
  0
VERTEX
  5
B72
  8
0
 62
    31
 10
95.517348999999996
 20
490.96946799999989
 30
0.0
  0
VERTEX
  5
B73
  8
0
 62
    31
 10
95.529372999999993
 20
490.88005700000002
 30
0.0
  0
VERTEX
  5
B74
  8
0
 62
    31
 10
95.549506999999991
 20
490.7906119999999
 30
0.0
  0
VERTEX
  5
B75
  8
0
 62
    31
 10
95.577895999999996
 20
490.7010699999999
 30
0.0
  0
VERTEX
  5
B76
  8
0
 62
    31
 10
95.614777000000004
 20
490.6113959999999
 30
0.0
  0
VERTEX
  5
B77
  8
0
 62
    31
 10
95.660415999999998
 20
490.52159399999999
 30
0.0
  0
VERTEX
  5
B78
  8
0
 62
    31
 10
95.715140999999988
 20
490.43170499999991
 30
0.0
  0
VERTEX
  5
B79
  8
0
 62
    31
 10
95.779312000000004
 20
490.34182099999992
 30
0.0
  0
VERTEX
  5
B7A
  8
0
 62
    31
 10
95.853286999999995
 20
490.25208400000002
 30
0.0
  0
VERTEX
  5
B7B
  8
0
 62
    31
 10
95.937454000000017
 20
490.16268600000001
 30
0.0
  0
VERTEX
  5
B7C
  8
0
 62
    31
 10
96.032157999999995
 20
490.07387299999999
 30
0.0
  0
VERTEX
  5
B7D
  8
0
 62
    31
 10
96.137726000000001
 20
489.98594199999991
 30
0.0
  0
VERTEX
  5
B7E
  8
0
 62
    31
 10
96.254433000000006
 20
489.8992409999999
 30
0.0
  0
VERTEX
  5
B7F
  8
0
 62
    31
 10
96.382499999999993
 20
489.81415699999991
 30
0.0
  0
VERTEX
  5
B80
  8
0
 62
    31
 10
96.522064
 20
489.73112400000002
 30
0.0
  0
VERTEX
  5
B81
  8
0
 62
    31
 10
96.673180000000016
 20
489.65060899999992
 30
0.0
  0
VERTEX
  5
B82
  8
0
 62
    31
 10
96.835785000000016
 20
489.573104
 30
0.0
  0
VERTEX
  5
B83
  8
0
 62
    31
 10
97.009727000000012
 20
489.49912499999999
 30
0.0
  0
VERTEX
  5
B84
  8
0
 62
    31
 10
97.194725000000005
 20
489.42920400000003
 30
0.0
  0
VERTEX
  5
B85
  8
0
 62
    31
 10
97.390350000000012
 20
489.36386799999991
 30
0.0
  0
VERTEX
  5
B86
  8
0
 62
    31
 10
97.596077000000008
 20
489.30364299999991
 30
0.0
  0
VERTEX
  5
B87
  8
0
 62
    31
 10
97.811233999999999
 20
489.24903599999999
 30
0.0
  0
VERTEX
  5
B88
  8
0
 62
    31
 10
98.035004000000001
 20
489.2005319999999
 30
0.0
  0
VERTEX
  5
B89
  8
0
 62
    31
 10
98.266486999999984
 20
489.15857599999993
 30
0.0
  0
VERTEX
  5
B8A
  8
0
 62
    31
 10
98.504622999999995
 20
489.12356699999992
 30
0.0
  0
VERTEX
  5
B8B
  8
0
 62
    31
 10
98.748283000000001
 20
489.09584899999999
 30
0.0
  0
VERTEX
  5
B8C
  8
0
 62
    31
 10
98.996239000000017
 20
489.07570900000002
 30
0.0
  0
VERTEX
  5
B8D
  8
0
 62
    31
 10
99.247185000000002
 20
489.06335899999999
 30
0.0
  0
VERTEX
  5
B8E
  8
0
 62
    31
 10
99.499770999999996
 20
489.05893800000001
 30
0.0
  0
VERTEX
  5
B8F
  8
0
 62
    31
 10
99.752632000000006
 20
489.06250899999992
 30
0.0
  0
VERTEX
  5
B90
  8
0
 62
    31
 10
99.878676999999996
 20
489.06728499999991
 30
0.0
  0
VERTEX
  5
B91
  8
0
 62
    31
 10
100.0043559999999
 20
489.07405199999988
 30
0.0
  0
VERTEX
  5
B92
  8
0
 62
    31
 10
100.12927999999999
 20
489.0827799999999
 30
0.0
  0
VERTEX
  5
B93
  8
0
 62
    31
 10
100.253586
 20
489.09347199999991
 30
0.0
  0
VERTEX
  5
B94
  8
0
 62
    31
 10
100.37670899999991
 20
489.10606899999999
 30
0.0
  0
VERTEX
  5
B95
  8
0
 62
    31
 10
100.498985
 20
489.12059499999998
 30
0.0
  0
VERTEX
  5
B96
  8
0
 62
    31
 10
100.619659
 20
489.13694299999997
 30
0.0
  0
VERTEX
  5
B97
  8
0
 62
    31
 10
100.73925799999989
 20
489.155169
 30
0.0
  0
VERTEX
  5
B98
  8
0
 62
    31
 10
100.85688
 20
489.17511799999988
 30
0.0
  0
VERTEX
  5
B99
  8
0
 62
    31
 10
100.973206
 20
489.19688300000001
 30
0.0
  0
VERTEX
  5
B9A
  8
0
 62
    31
 10
101.08721199999989
 20
489.22024800000003
 30
0.0
  0
VERTEX
  5
B9B
  8
0
 62
    31
 10
101.19972199999999
 20
489.2453569999999
 30
0.0
  0
VERTEX
  5
B9C
  8
0
 62
    31
 10
101.3096009999999
 20
489.27192599999989
 30
0.0
  0
VERTEX
  5
B9D
  8
0
 62
    31
 10
101.41780899999991
 20
489.30015999999989
 30
0.0
  0
VERTEX
  5
B9E
  8
0
 62
    31
 10
101.52310199999999
 20
489.329701
 30
0.0
  0
VERTEX
  5
B9F
  8
0
 62
    31
 10
101.626564
 20
489.360816
 30
0.0
  0
VERTEX
  5
BA0
  8
0
 62
    31
 10
101.72689099999999
 20
489.39307699999989
 30
0.0
  0
VERTEX
  5
BA1
  8
0
 62
    31
 10
101.825256
 20
489.42681999999991
 30
0.0
  0
VERTEX
  5
BA2
  8
0
 62
    31
 10
101.9202879999999
 20
489.46153499999991
 30
0.0
  0
VERTEX
  5
BA3
  8
0
 62
    31
 10
102.0132449999999
 20
489.497636
 30
0.0
  0
VERTEX
  5
BA4
  8
0
 62
    31
 10
102.102737
 20
489.534537
 30
0.0
  0
VERTEX
  5
BA5
  8
0
 62
    31
 10
102.190056
 20
489.57271900000001
 30
0.0
  0
VERTEX
  5
BA6
  8
0
 62
    31
 10
102.2738189999999
 20
489.6115309999999
 30
0.0
  0
VERTEX
  5
BA7
  8
0
 62
    31
 10
102.355324
 20
489.651523
 30
0.0
  0
VERTEX
  5
BA8
  8
0
 62
    31
 10
102.4332349999999
 20
489.69197400000002
 30
0.0
  0
VERTEX
  5
BA9
  8
0
 62
    31
 10
102.508842
 20
489.73350199999982
 30
0.0
  0
VERTEX
  5
BAA
  8
0
 62
    31
 10
102.58084100000001
 20
489.77532899999989
 30
0.0
  0
VERTEX
  5
BAB
  8
0
 62
    31
 10
102.6504969999999
 20
489.81813299999988
 30
0.0
  0
VERTEX
  5
BAC
  8
0
 62
    31
 10
102.7165829999999
 20
489.86108499999989
 30
0.0
  0
VERTEX
  5
BAD
  8
0
 62
    31
 10
102.7803119999999
 20
489.90491600000001
 30
0.0
  0
VERTEX
  5
BAE
  8
0
 62
    31
 10
102.840523
 20
489.94875799999988
 30
0.0
  0
VERTEX
  5
BAF
  8
0
 62
    31
 10
102.89838399999989
 20
489.993382
 30
0.0
  0
VERTEX
  5
BB0
  8
0
 62
    31
 10
102.9528199999999
 20
490.03789599999999
 30
0.0
  0
VERTEX
  5
BB1
  8
0
 62
    31
 10
103.004921
 20
490.08310399999988
 30
0.0
  0
VERTEX
  5
BB2
  8
0
 62
    31
 10
103.0537189999999
 20
490.12809700000003
 30
0.0
  0
VERTEX
  5
BB3
  8
0
 62
    31
 10
103.10019699999989
 20
490.17369699999989
 30
0.0
  0
VERTEX
  5
BB4
  8
0
 62
    31
 10
103.1435089999999
 20
490.218999
 30
0.0
  0
VERTEX
  5
BB5
  8
0
 62
    31
 10
103.1845399999999
 20
490.26482900000002
 30
0.0
  0
VERTEX
  5
BB6
  8
0
 62
    31
 10
103.22255699999999
 20
490.31029599999999
 30
0.0
  0
VERTEX
  5
BB7
  8
0
 62
    31
 10
103.25831599999999
 20
490.3562169999999
 30
0.0
  0
VERTEX
  5
BB8
  8
0
 62
    31
 10
103.291229
 20
490.40173399999998
 30
0.0
  0
VERTEX
  5
BB9
  8
0
 62
    31
 10
103.32192999999999
 20
490.44763699999999
 30
0.0
  0
VERTEX
  5
BBA
  8
0
 62
    31
 10
103.3499369999999
 20
490.49311499999999
 30
0.0
  0
VERTEX
  5
BBB
  8
0
 62
    31
 10
103.3757779999999
 20
490.53891299999992
 30
0.0
  0
VERTEX
  5
BBC
  8
0
 62
    31
 10
103.399078
 20
490.584292
 30
0.0
  0
VERTEX
  5
BBD
  8
0
 62
    31
 10
103.4202419999999
 20
490.62993299999999
 30
0.0
  0
VERTEX
  5
BBE
  8
0
 62
    31
 10
103.4390259999999
 20
490.67517800000002
 30
0.0
  0
VERTEX
  5
BBF
  8
0
 62
    31
 10
103.45571099999989
 20
490.72062599999992
 30
0.0
  0
VERTEX
  5
BC0
  8
0
 62
    31
 10
103.47013099999999
 20
490.76572499999992
 30
0.0
  0
VERTEX
  5
BC1
  8
0
 62
    31
 10
103.482491
 20
490.81097499999998
 30
0.0
  0
VERTEX
  5
BC2
  8
0
 62
    31
 10
103.49269099999999
 20
490.85593499999987
 30
0.0
  0
VERTEX
  5
BC3
  8
0
 62
    31
 10
103.5008539999999
 20
490.90099800000002
 30
0.0
  0
VERTEX
  5
BC4
  8
0
 62
    31
 10
103.50695
 20
490.94584600000002
 30
0.0
  0
VERTEX
  5
BC5
  8
0
 62
    31
 10
103.51102400000001
 20
490.990748
 30
0.0
  0
VERTEX
  5
BC6
  8
0
 62
    31
 10
103.5133439999999
 20
491.05892699999998
 30
0.0
  0
SEQEND
  5
BC7
  8
0
 62
    31
  0
LINE
  5
413
  8
0
 62
    31
 10
100.99046300000001
 20
509.67108500000001
 30
0.0
 11
96.934943999999973
 21
532.67108599999995
 31
0.0
  0
LINE
  5
414
  8
0
 62
    31
 10
101.713348
 20
513.63369499999988
 30
0.0
 11
98.356544000000014
 21
532.67108599999995
 31
0.0
  0
LINE
  5
415
  8
0
 62
    31
 10
101.713348
 20
521.69597399999998
 30
0.0
 11
99.778137000000001
 21
532.67108599999995
 31
0.0
  0
LINE
  5
416
  8
0
 62
    31
 10
101.713348
 20
529.75825299999997
 30
0.0
 11
101.1997379999999
 21
532.67108599999995
 31
0.0
  0
LINE
  5
417
  8
0
 62
    31
 10
98.147269999999992
 20
509.67108500000001
 30
0.0
 11
94.091751000000002
 21
532.67108599999995
 31
0.0
  0
LINE
  5
418
  8
0
 62
    31
 10
96.725669999999994
 20
509.67108500000001
 30
0.0
 11
92.670151000000004
 21
532.67108599999995
 31
0.0
  0
LINE
  5
419
  8
0
 62
    31
 10
95.304077000000007
 20
509.67108500000001
 30
0.0
 11
91.248558000000003
 21
532.67108599999995
 31
0.0
  0
LINE
  5
41A
  8
0
 62
    31
 10
93.882476999999994
 20
509.67108500000001
 30
0.0
 11
89.826958000000005
 21
532.67108599999995
 31
0.0
  0
LINE
  5
41B
  8
0
 62
    31
 10
92.460883999999993
 20
509.67108500000001
 30
0.0
 11
89.313346999999979
 21
527.52163899999994
 31
0.0
  0
LINE
  5
41C
  8
0
 62
    31
 10
91.039283999999995
 20
509.67108500000001
 30
0.0
 11
89.313346999999979
 21
519.45936099999994
 31
0.0
  0
LINE
  5
41D
  8
0
 62
    31
 10
89.617683000000014
 20
509.67108500000001
 30
0.0
 11
89.313346999999979
 21
511.39708200000001
 31
0.0
  0
LINE
  5
41E
  8
0
 62
    31
 10
101.713348
 20
722.67104800000004
 30
0.0
 11
101.713348
 21
745.67104800000004
 31
0.0
  0
LINE
  5
41F
  8
0
 62
    31
 10
89.313346999999979
 20
722.67104800000004
 30
0.0
 11
89.313346999999979
 21
745.67104800000004
 31
0.0
  0
LINE
  5
420
  8
0
 62
    31
 10
101.713348
 20
722.67104800000004
 30
0.0
 11
89.313346999999979
 21
722.67104800000004
 31
0.0
  0
LINE
  5
421
  8
0
 62
    31
 10
103.5133439999999
 20
745.67104800000004
 30
0.0
 11
87.513343999999989
 21
745.67104800000004
 31
0.0
  0
LINE
  5
422
  8
0
  6
DASHDOT
 62
    31
 10
95.513344000000004
 20
717.60978399999988
 30
0.0
 11
95.513344000000004
 21
766.28321600000004
 31
0.0
  0
LINE
  5
423
  8
0
 62
    31
 10
87.513343999999989
 20
745.67104800000004
 30
0.0
 11
87.513343999999989
 21
764.28321600000004
 31
0.0
  0
LINE
  5
424
  8
0
 62
    31
 10
103.5133439999999
 20
745.67104800000004
 30
0.0
 11
103.5133439999999
 21
764.28321600000004
 31
0.0
  0
LINE
  5
425
  8
0
 62
    31
 10
95.513344000000004
 20
722.67104800000004
 30
0.0
 11
99.568871000000016
 21
745.67104800000004
 31
0.0
  0
POLYLINE
  5
426
  8
0
 62
    31
 66
     1
 10
0.0
 20
0.0
 30
0.0
 70
     1
  0
VERTEX
  5
BC8
  8
0
 62
    31
 10
87.513343999999989
 20
764.28321600000004
 30
0.0
  0
VERTEX
  5
BC9
  8
0
 62
    31
 10
87.517348999999996
 20
764.1937529999999
 30
0.0
  0
VERTEX
  5
BCA
  8
0
 62
    31
 10
87.529372999999993
 20
764.10433699999999
 30
0.0
  0
VERTEX
  5
BCB
  8
0
 62
    31
 10
87.549507000000006
 20
764.01490499999989
 30
0.0
  0
VERTEX
  5
BCC
  8
0
 62
    31
 10
87.577895999999996
 20
763.92535099999986
 30
0.0
  0
VERTEX
  5
BCD
  8
0
 62
    31
 10
87.614777000000004
 20
763.83567500000004
 30
0.0
  0
VERTEX
  5
BCE
  8
0
 62
    31
 10
87.660415999999984
 20
763.74587699999995
 30
0.0
  0
VERTEX
  5
BCF
  8
0
 62
    31
 10
87.715141000000003
 20
763.65598799999998
 30
0.0
  0
VERTEX
  5
BD0
  8
0
 62
    31
 10
87.779312000000004
 20
763.56611299999986
 30
0.0
  0
VERTEX
  5
BD1
  8
0
 62
    31
 10
87.853286999999995
 20
763.47637699999996
 30
0.0
  0
VERTEX
  5
BD2
  8
0
 62
    31
 10
87.937454000000002
 20
763.38697500000001
 30
0.0
  0
VERTEX
  5
BD3
  8
0
 62
    31
 10
88.032157999999995
 20
763.29815399999995
 30
0.0
  0
VERTEX
  5
BD4
  8
0
 62
    31
 10
88.137726000000001
 20
763.21023300000002
 30
0.0
  0
VERTEX
  5
BD5
  8
0
 62
    31
 10
88.254432999999992
 20
763.12353199999995
 30
0.0
  0
VERTEX
  5
BD6
  8
0
 62
    31
 10
88.382499999999993
 20
763.0384489999999
 30
0.0
  0
VERTEX
  5
BD7
  8
0
 62
    31
 10
88.522064
 20
762.95541100000003
 30
0.0
  0
VERTEX
  5
BD8
  8
0
 62
    31
 10
88.673180000000002
 20
762.87489000000005
 30
0.0
  0
VERTEX
  5
BD9
  8
0
 62
    31
 10
88.835785000000001
 20
762.79739099999995
 30
0.0
  0
VERTEX
  5
BDA
  8
0
 62
    31
 10
89.009726999999998
 20
762.72341600000004
 30
0.0
  0
VERTEX
  5
BDB
  8
0
 62
    31
 10
89.194725000000005
 20
762.65348499999993
 30
0.0
  0
VERTEX
  5
BDC
  8
0
 62
    31
 10
89.390349999999998
 20
762.58814699999994
 30
0.0
  0
VERTEX
  5
BDD
  8
0
 62
    31
 10
89.596077000000008
 20
762.52793599999995
 30
0.0
  0
VERTEX
  5
BDE
  8
0
 62
    31
 10
89.811233999999985
 20
762.47332500000005
 30
0.0
  0
VERTEX
  5
BDF
  8
0
 62
    31
 10
90.035004000000001
 20
762.42481699999985
 30
0.0
  0
VERTEX
  5
BE0
  8
0
 62
    31
 10
90.266486999999998
 20
762.38285499999995
 30
0.0
  0
VERTEX
  5
BE1
  8
0
 62
    31
 10
90.504622999999995
 20
762.34785199999988
 30
0.0
  0
VERTEX
  5
BE2
  8
0
 62
    31
 10
90.748283000000001
 20
762.32014200000003
 30
0.0
  0
VERTEX
  5
BE3
  8
0
 62
    31
 10
90.996239000000003
 20
762.29999999999995
 30
0.0
  0
VERTEX
  5
BE4
  8
0
 62
    31
 10
91.247185000000002
 20
762.28764099999989
 30
0.0
  0
VERTEX
  5
BE5
  8
0
 62
    31
 10
91.499770999999996
 20
762.28323099999989
 30
0.0
  0
VERTEX
  5
BE6
  8
0
 62
    31
 10
91.752631999999991
 20
762.28680099999985
 30
0.0
  0
VERTEX
  5
BE7
  8
0
 62
    31
 10
91.878676999999996
 20
762.29157699999985
 30
0.0
  0
VERTEX
  5
BE8
  8
0
 62
    31
 10
92.004356000000001
 20
762.29833699999995
 30
0.0
  0
VERTEX
  5
BE9
  8
0
 62
    31
 10
92.129280000000008
 20
762.30706499999997
 30
0.0
  0
VERTEX
  5
BEA
  8
0
 62
    31
 10
92.253585999999984
 20
762.3177609999999
 30
0.0
  0
VERTEX
  5
BEB
  8
0
 62
    31
 10
92.376708999999991
 20
762.33034999999995
 30
0.0
  0
VERTEX
  5
BEC
  8
0
 62
    31
 10
92.498985000000005
 20
762.344876
 30
0.0
  0
VERTEX
  5
BED
  8
0
 62
    31
 10
92.619658999999984
 20
762.36123399999997
 30
0.0
  0
VERTEX
  5
BEE
  8
0
 62
    31
 10
92.739257999999978
 20
762.37945300000001
 30
0.0
  0
VERTEX
  5
BEF
  8
0
 62
    31
 10
92.856880000000004
 20
762.39941099999987
 30
0.0
  0
VERTEX
  5
BF0
  8
0
 62
    31
 10
92.973206000000005
 20
762.42116999999996
 30
0.0
  0
VERTEX
  5
BF1
  8
0
 62
    31
 10
93.087211999999994
 20
762.44453099999987
 30
0.0
  0
VERTEX
  5
BF2
  8
0
 62
    31
 10
93.199721999999994
 20
762.4696469999999
 30
0.0
  0
VERTEX
  5
BF3
  8
0
 62
    31
 10
93.309601000000001
 20
762.49621300000001
 30
0.0
  0
VERTEX
  5
BF4
  8
0
 62
    31
 10
93.417808999999991
 20
762.52444200000002
 30
0.0
  0
VERTEX
  5
BF5
  8
0
 62
    31
 10
93.523102000000009
 20
762.55398300000002
 30
0.0
  0
VERTEX
  5
BF6
  8
0
 62
    31
 10
93.626564000000002
 20
762.58511099999998
 30
0.0
  0
VERTEX
  5
BF7
  8
0
 62
    31
 10
93.726890999999995
 20
762.61736799999994
 30
0.0
  0
VERTEX
  5
BF8
  8
0
 62
    31
 10
93.82525600000001
 20
762.65110500000003
 30
0.0
  0
VERTEX
  5
BF9
  8
0
 62
    31
 10
93.920287999999999
 20
762.68581900000004
 30
0.0
  0
VERTEX
  5
BFA
  8
0
 62
    31
 10
94.013244999999984
 20
762.72192099999995
 30
0.0
  0
VERTEX
  5
BFB
  8
0
 62
    31
 10
94.102737000000005
 20
762.75881700000002
 30
0.0
  0
VERTEX
  5
BFC
  8
0
 62
    31
 10
94.190056000000013
 20
762.79700899999989
 30
0.0
  0
VERTEX
  5
BFD
  8
0
 62
    31
 10
94.273818999999975
 20
762.83581300000003
 30
0.0
  0
VERTEX
  5
BFE
  8
0
 62
    31
 10
94.355323999999996
 20
762.87580600000001
 30
0.0
  0
VERTEX
  5
BFF
  8
0
 62
    31
 10
94.433234999999996
 20
762.91625699999997
 30
0.0
  0
VERTEX
  5
C00
  8
0
 62
    31
 10
94.508842000000001
 20
762.95779100000004
 30
0.0
  0
VERTEX
  5
C01
  8
0
 62
    31
 10
94.580841000000007
 20
762.99961600000006
 30
0.0
  0
VERTEX
  5
C02
  8
0
 62
    31
 10
94.650496999999987
 20
763.042417
 30
0.0
  0
VERTEX
  5
C03
  8
0
 62
    31
 10
94.716582999999986
 20
763.08537000000001
 30
0.0
  0
VERTEX
  5
C04
  8
0
 62
    31
 10
94.780311999999995
 20
763.12920899999995
 30
0.0
  0
VERTEX
  5
C05
  8
0
 62
    31
 10
94.840523000000005
 20
763.17304699999988
 30
0.0
  0
VERTEX
  5
C06
  8
0
 62
    31
 10
94.898383999999993
 20
763.2176639999999
 30
0.0
  0
VERTEX
  5
C07
  8
0
 62
    31
 10
94.952819999999988
 20
763.26218899999992
 30
0.0
  0
VERTEX
  5
C08
  8
0
 62
    31
 10
95.004920999999996
 20
763.30738499999995
 30
0.0
  0
VERTEX
  5
C09
  8
0
 62
    31
 10
95.053719000000001
 20
763.35238400000003
 30
0.0
  0
VERTEX
  5
C0A
  8
0
 62
    31
 10
95.100196999999994
 20
763.39799200000004
 30
0.0
  0
VERTEX
  5
C0B
  8
0
 62
    31
 10
95.143508999999995
 20
763.44327999999985
 30
0.0
  0
VERTEX
  5
C0C
  8
0
 62
    31
 10
95.184539999999998
 20
763.48911799999985
 30
0.0
  0
VERTEX
  5
C0D
  8
0
 62
    31
 10
95.222556999999995
 20
763.53458899999987
 30
0.0
  0
VERTEX
  5
C0E
  8
0
 62
    31
 10
95.258316000000008
 20
763.58050300000002
 30
0.0
  0
VERTEX
  5
C0F
  8
0
 62
    31
 10
95.291229000000001
 20
763.62601900000004
 30
0.0
  0
VERTEX
  5
C10
  8
0
 62
    31
 10
95.321930000000009
 20
763.67191800000001
 30
0.0
  0
VERTEX
  5
C11
  8
0
 62
    31
 10
95.349936999999997
 20
763.71740399999987
 30
0.0
  0
VERTEX
  5
C12
  8
0
 62
    31
 10
95.375777999999997
 20
763.76319599999999
 30
0.0
  0
VERTEX
  5
C13
  8
0
 62
    31
 10
95.399077999999989
 20
763.80857600000002
 30
0.0
  0
VERTEX
  5
C14
  8
0
 62
    31
 10
95.420242000000002
 20
763.85421500000007
 30
0.0
  0
VERTEX
  5
C15
  8
0
 62
    31
 10
95.439025999999998
 20
763.89945699999998
 30
0.0
  0
VERTEX
  5
C16
  8
0
 62
    31
 10
95.455710999999994
 20
763.94491300000004
 30
0.0
  0
VERTEX
  5
C17
  8
0
 62
    31
 10
95.470130999999995
 20
763.99001799999985
 30
0.0
  0
VERTEX
  5
C18
  8
0
 62
    31
 10
95.48249100000001
 20
764.03525999999988
 30
0.0
  0
VERTEX
  5
C19
  8
0
 62
    31
 10
95.492691000000008
 20
764.08022800000003
 30
0.0
  0
VERTEX
  5
C1A
  8
0
 62
    31
 10
95.500854000000004
 20
764.12528699999984
 30
0.0
  0
VERTEX
  5
C1B
  8
0
 62
    31
 10
95.506950000000003
 20
764.17013299999996
 30
0.0
  0
VERTEX
  5
C1C
  8
0
 62
    31
 10
95.511024000000006
 20
764.21503899999993
 30
0.0
  0
VERTEX
  5
C1D
  8
0
 62
    31
 10
95.513068999999973
 20
764.2598089999999
 30
0.0
  0
VERTEX
  5
C1E
  8
0
 62
    31
 10
95.513114999999999
 20
764.30459299999995
 30
0.0
  0
VERTEX
  5
C1F
  8
0
 62
    31
 10
95.507202000000007
 20
764.39402500000006
 30
0.0
  0
VERTEX
  5
C20
  8
0
 62
    31
 10
95.493247999999994
 20
764.48344099999986
 30
0.0
  0
VERTEX
  5
C21
  8
0
 62
    31
 10
95.471160999999995
 20
764.57290399999988
 30
0.0
  0
VERTEX
  5
C22
  8
0
 62
    31
 10
95.440764999999999
 20
764.66247299999998
 30
0.0
  0
VERTEX
  5
C23
  8
0
 62
    31
 10
95.401825000000002
 20
764.75217899999996
 30
0.0
  0
VERTEX
  5
C24
  8
0
 62
    31
 10
95.354050000000001
 20
764.84200799999996
 30
0.0
  0
VERTEX
  5
C25
  8
0
 62
    31
 10
95.297095999999996
 20
764.93191200000001
 30
0.0
  0
VERTEX
  5
C26
  8
0
 62
    31
 10
95.230620999999999
 20
765.02177099999994
 30
0.0
  0
VERTEX
  5
C27
  8
0
 62
    31
 10
95.154243000000008
 20
765.111447
 30
0.0
  0
VERTEX
  5
C28
  8
0
 62
    31
 10
95.067588999999984
 20
765.20072699999992
 30
0.0
  0
VERTEX
  5
C29
  8
0
 62
    31
 10
94.970321999999996
 20
765.28936500000009
 30
0.0
  0
VERTEX
  5
C2A
  8
0
 62
    31
 10
94.862114000000005
 20
765.37702699999988
 30
0.0
  0
VERTEX
  5
C2B
  8
0
 62
    31
 10
94.742714000000007
 20
765.46337599999993
 30
0.0
  0
VERTEX
  5
C2C
  8
0
 62
    31
 10
94.611908
 20
765.54801699999985
 30
0.0
  0
VERTEX
  5
C2D
  8
0
 62
    31
 10
94.469588999999999
 20
765.63049000000001
 30
0.0
  0
VERTEX
  5
C2E
  8
0
 62
    31
 10
94.315719999999999
 20
765.71034000000009
 30
0.0
  0
VERTEX
  5
C2F
  8
0
 62
    31
 10
94.150382999999991
 20
765.78704500000003
 30
0.0
  0
VERTEX
  5
C30
  8
0
 62
    31
 10
93.973770000000002
 20
765.86010499999986
 30
0.0
  0
VERTEX
  5
C31
  8
0
 62
    31
 10
93.786193999999995
 20
765.92898300000002
 30
0.0
  0
VERTEX
  5
C32
  8
0
 62
    31
 10
93.588104000000016
 20
765.99314600000002
 30
0.0
  0
VERTEX
  5
C33
  8
0
 62
    31
 10
93.380057999999991
 20
766.05207499999995
 30
0.0
  0
VERTEX
  5
C34
  8
0
 62
    31
 10
93.162766000000005
 20
766.10525199999995
 30
0.0
  0
VERTEX
  5
C35
  8
0
 62
    31
 10
92.937065000000004
 20
766.15223400000002
 30
0.0
  0
VERTEX
  5
C36
  8
0
 62
    31
 10
92.703895999999986
 20
766.19257800000003
 30
0.0
  0
VERTEX
  5
C37
  8
0
 62
    31
 10
92.464332999999996
 20
766.22587300000009
 30
0.0
  0
VERTEX
  5
C38
  8
0
 62
    31
 10
92.219536000000005
 20
766.25179800000001
 30
0.0
  0
VERTEX
  5
C39
  8
0
 62
    31
 10
91.970741000000004
 20
766.27009299999986
 30
0.0
  0
VERTEX
  5
C3A
  8
0
 62
    31
 10
91.719276000000008
 20
766.28055999999992
 30
0.0
  0
VERTEX
  5
C3B
  8
0
 62
    31
 10
91.466498999999985
 20
766.28307800000005
 30
0.0
  0
VERTEX
  5
C3C
  8
0
 62
    31
 10
91.340057000000016
 20
766.281339
 30
0.0
  0
VERTEX
  5
C3D
  8
0
 62
    31
 10
91.213791000000001
 20
766.27760000000001
 30
0.0
  0
VERTEX
  5
C3E
  8
0
 62
    31
 10
91.087943999999979
 20
766.27186299999994
 30
0.0
  0
VERTEX
  5
C3F
  8
0
 62
    31
 10
90.962531999999996
 20
766.26415699999995
 30
0.0
  0
VERTEX
  5
C40
  8
0
 62
    31
 10
90.837981999999997
 20
766.2544979999999
 30
0.0
  0
VERTEX
  5
C41
  8
0
 62
    31
 10
90.714095999999998
 20
766.242887
 30
0.0
  0
VERTEX
  5
C42
  8
0
 62
    31
 10
90.591498999999985
 20
766.22938299999998
 30
0.0
  0
VERTEX
  5
C43
  8
0
 62
    31
 10
90.469809999999995
 20
766.21395599999994
 30
0.0
  0
VERTEX
  5
C44
  8
0
 62
    31
 10
90.349815000000007
 20
766.19672899999989
 30
0.0
  0
VERTEX
  5
C45
  8
0
 62
    31
 10
90.230941999999999
 20
766.17763999999988
 30
0.0
  0
VERTEX
  5
C46
  8
0
 62
    31
 10
90.114136000000002
 20
766.15685699999995
 30
0.0
  0
VERTEX
  5
C47
  8
0
 62
    31
 10
89.998671999999999
 20
766.134274
 30
0.0
  0
VERTEX
  5
C48
  8
0
 62
    31
 10
89.885604999999998
 20
766.11012000000005
 30
0.0
  0
VERTEX
  5
C49
  8
0
 62
    31
 10
89.774077999999989
 20
766.08425599999987
 30
0.0
  0
VERTEX
  5
C4A
  8
0
 62
    31
 10
89.665259999999989
 20
766.05694299999993
 30
0.0
  0
VERTEX
  5
C4B
  8
0
 62
    31
 10
89.558150999999995
 20
766.02801199999999
 30
0.0
  0
VERTEX
  5
C4C
  8
0
 62
    31
 10
89.454009999999997
 20
765.99778499999979
 30
0.0
  0
VERTEX
  5
C4D
  8
0
 62
    31
 10
89.351730000000003
 20
765.96603099999993
 30
0.0
  0
VERTEX
  5
C4E
  8
0
 62
    31
 10
89.25264
 20
765.93314799999996
 30
0.0
  0
VERTEX
  5
C4F
  8
0
 62
    31
 10
89.155547999999996
 20
765.8988159999999
 30
0.0
  0
VERTEX
  5
C50
  8
0
 62
    31
 10
89.061813000000001
 20
765.86355300000002
 30
0.0
  0
VERTEX
  5
C51
  8
0
 62
    31
 10
88.970191999999997
 20
765.82693200000006
 30
0.0
  0
VERTEX
  5
C52
  8
0
 62
    31
 10
88.882050000000007
 20
765.78956300000004
 30
0.0
  0
VERTEX
  5
C53
  8
0
 62
    31
 10
88.796104
 20
765.75091299999997
 30
0.0
  0
VERTEX
  5
C54
  8
0
 62
    31
 10
88.713736999999995
 20
765.71168199999988
 30
0.0
  0
VERTEX
  5
C55
  8
0
 62
    31
 10
88.633628999999999
 20
765.67130799999995
 30
0.0
  0
VERTEX
  5
C56
  8
0
 62
    31
 10
88.557129000000003
 20
765.63050599999997
 30
0.0
  0
VERTEX
  5
C57
  8
0
 62
    31
 10
88.482940999999997
 20
765.58865100000003
 30
0.0
  0
VERTEX
  5
C58
  8
0
 62
    31
 10
88.412353999999993
 20
765.54652099999998
 30
0.0
  0
VERTEX
  5
C59
  8
0
 62
    31
 10
88.344116000000014
 20
765.50346100000002
 30
0.0
  0
VERTEX
  5
C5A
  8
0
 62
    31
 10
88.279442000000003
 20
765.46027900000001
 30
0.0
  0
VERTEX
  5
C5B
  8
0
 62
    31
 10
88.217124999999996
 20
765.41622599999994
 30
0.0
  0
VERTEX
  5
C5C
  8
0
 62
    31
 10
88.158302000000006
 20
765.37220499999989
 30
0.0
  0
VERTEX
  5
C5D
  8
0
 62
    31
 10
88.101830000000007
 20
765.32742000000007
 30
0.0
  0
VERTEX
  5
C5E
  8
0
 62
    31
 10
88.048743999999999
 20
765.28278799999998
 30
0.0
  0
VERTEX
  5
C5F
  8
0
 62
    31
 10
87.998008999999996
 20
765.23747000000003
 30
0.0
  0
VERTEX
  5
C60
  8
0
 62
    31
 10
87.950531000000026
 20
765.19237999999984
 30
0.0
  0
VERTEX
  5
C61
  8
0
 62
    31
 10
87.905372999999997
 20
765.14670999999987
 30
0.0
  0
VERTEX
  5
C62
  8
0
 62
    31
 10
87.863342000000003
 20
765.10136099999988
 30
0.0
  0
VERTEX
  5
C63
  8
0
 62
    31
 10
87.823593000000017
 20
765.05549299999996
 30
0.0
  0
VERTEX
  5
C64
  8
0
 62
    31
 10
87.786811999999983
 20
765.01000699999986
 30
0.0
  0
VERTEX
  5
C65
  8
0
 62
    31
 10
87.752274
 20
764.96407799999986
 30
0.0
  0
VERTEX
  5
C66
  8
0
 62
    31
 10
87.720551000000015
 20
764.91856099999995
 30
0.0
  0
VERTEX
  5
C67
  8
0
 62
    31
 10
87.691031999999993
 20
764.87267799999995
 30
0.0
  0
VERTEX
  5
C68
  8
0
 62
    31
 10
87.664162000000005
 20
764.82722199999989
 30
0.0
  0
VERTEX
  5
C69
  8
0
 62
    31
 10
87.639458000000005
 20
764.78146100000004
 30
0.0
  0
VERTEX
  5
C6A
  8
0
 62
    31
 10
87.617256000000012
 20
764.73611200000005
 30
0.0
  0
VERTEX
  5
C6B
  8
0
 62
    31
 10
87.597176000000005
 20
764.690518
 30
0.0
  0
VERTEX
  5
C6C
  8
0
 62
    31
 10
87.579444999999978
 20
764.64530699999989
 30
0.0
  0
VERTEX
  5
C6D
  8
0
 62
    31
 10
87.563811999999984
 20
764.59989599999994
 30
0.0
  0
VERTEX
  5
C6E
  8
0
 62
    31
 10
87.550407000000007
 20
764.55483700000002
 30
0.0
  0
VERTEX
  5
C6F
  8
0
 62
    31
 10
87.539062999999999
 20
764.50964099999987
 30
0.0
  0
VERTEX
  5
C70
  8
0
 62
    31
 10
87.529854
 20
764.46470399999987
 30
0.0
  0
VERTEX
  5
C71
  8
0
 62
    31
 10
87.522666999999984
 20
764.41967499999987
 30
0.0
  0
VERTEX
  5
C72
  8
0
 62
    31
 10
87.517548000000005
 20
764.37486000000001
 30
0.0
  0
VERTEX
  5
C73
  8
0
 62
    31
 10
87.514441999999988
 20
764.32998399999997
 30
0.0
  0
SEQEND
  5
C74
  8
0
 62
    31
  0
POLYLINE
  5
4D4
  8
0
 62
    31
 66
     1
 10
0.0
 20
0.0
 30
0.0
  0
VERTEX
  5
C75
  8
0
 62
    31
 10
103.5133439999999
 20
764.28321600000004
 30
0.0
  0
VERTEX
  5
C76
  8
0
 62
    31
 10
103.50934599999989
 20
764.37267799999995
 30
0.0
  0
VERTEX
  5
C77
  8
0
 62
    31
 10
103.4973139999999
 20
764.46207900000002
 30
0.0
  0
VERTEX
  5
C78
  8
0
 62
    31
 10
103.477188
 20
764.55152599999985
 30
0.0
  0
VERTEX
  5
C79
  8
0
 62
    31
 10
103.4487919999999
 20
764.64106499999991
 30
0.0
  0
VERTEX
  5
C7A
  8
0
 62
    31
 10
103.4119189999999
 20
764.73074099999985
 30
0.0
  0
VERTEX
  5
C7B
  8
0
 62
    31
 10
103.36628
 20
764.82053899999994
 30
0.0
  0
VERTEX
  5
C7C
  8
0
 62
    31
 10
103.311554
 20
764.91042800000002
 30
0.0
  0
VERTEX
  5
C7D
  8
0
 62
    31
 10
103.247383
 20
765.00031799999988
 30
0.0
  0
VERTEX
  5
C7E
  8
0
 62
    31
 10
103.173401
 20
765.09005500000001
 30
0.0
  0
VERTEX
  5
C7F
  8
0
 62
    31
 10
103.089241
 20
765.17945599999985
 30
0.0
  0
VERTEX
  5
C80
  8
0
 62
    31
 10
102.99453699999989
 20
765.26826200000005
 30
0.0
  0
VERTEX
  5
C81
  8
0
 62
    31
 10
102.8889689999999
 20
765.35619799999995
 30
0.0
  0
VERTEX
  5
C82
  8
0
 62
    31
 10
102.7722629999999
 20
765.44289900000001
 30
0.0
  0
VERTEX
  5
C83
  8
0
 62
    31
 10
102.64419599999989
 20
765.52798199999995
 30
0.0
  0
VERTEX
  5
C84
  8
0
 62
    31
 10
102.504631
 20
765.61102000000005
 30
0.0
  0
VERTEX
  5
C85
  8
0
 62
    31
 10
102.3535159999999
 20
765.69152499999996
 30
0.0
  0
VERTEX
  5
C86
  8
0
 62
    31
 10
102.19090299999991
 20
765.7690399999999
 30
0.0
  0
VERTEX
  5
C87
  8
0
 62
    31
 10
102.01696
 20
765.84301500000004
 30
0.0
  0
VERTEX
  5
C88
  8
0
 62
    31
 10
101.8319699999999
 20
765.91292999999996
 30
0.0
  0
VERTEX
  5
C89
  8
0
 62
    31
 10
101.63634499999991
 20
765.97826900000007
 30
0.0
  0
VERTEX
  5
C8A
  8
0
 62
    31
 10
101.430618
 20
766.03849500000001
 30
0.0
  0
VERTEX
  5
C8B
  8
0
 62
    31
 10
101.215462
 20
766.09310599999992
 30
0.0
  0
VERTEX
  5
C8C
  8
0
 62
    31
 10
100.99168400000001
 20
766.141614
 30
0.0
  0
VERTEX
  5
C8D
  8
0
 62
    31
 10
100.76020799999991
 20
766.18355999999994
 30
0.0
  0
VERTEX
  5
C8E
  8
0
 62
    31
 10
100.52207199999999
 20
766.21857899999986
 30
0.0
  0
VERTEX
  5
C8F
  8
0
 62
    31
 10
100.278412
 20
766.24628899999993
 30
0.0
  0
VERTEX
  5
C90
  8
0
 62
    31
 10
100.0304569999999
 20
766.26643100000001
 30
0.0
  0
VERTEX
  5
C91
  8
0
 62
    31
 10
99.779510000000002
 20
766.27877499999988
 30
0.0
  0
VERTEX
  5
C92
  8
0
 62
    31
 10
99.526916999999997
 20
766.28319999999985
 30
0.0
  0
VERTEX
  5
C93
  8
0
 62
    31
 10
99.274063000000012
 20
766.27963
 30
0.0
  0
VERTEX
  5
C94
  8
0
 62
    31
 10
99.148018000000008
 20
766.27485399999989
 30
0.0
  0
VERTEX
  5
C95
  8
0
 62
    31
 10
99.022331000000008
 20
766.26809400000002
 30
0.0
  0
VERTEX
  5
C96
  8
0
 62
    31
 10
98.897415000000009
 20
766.25936599999989
 30
0.0
  0
VERTEX
  5
C97
  8
0
 62
    31
 10
98.773102000000009
 20
766.24866999999995
 30
0.0
  0
VERTEX
  5
C98
  8
0
 62
    31
 10
98.649979000000002
 20
766.23606600000005
 30
0.0
  0
VERTEX
  5
C99
  8
0
 62
    31
 10
98.527709999999999
 20
766.22153900000001
 30
0.0
  0
VERTEX
  5
C9A
  8
0
 62
    31
 10
98.407036000000005
 20
766.205197
 30
0.0
  0
VERTEX
  5
C9B
  8
0
 62
    31
 10
98.287436999999997
 20
766.18696299999988
 30
0.0
  0
VERTEX
  5
C9C
  8
0
 62
    31
 10
98.169815
 20
766.16701999999987
 30
0.0
  0
VERTEX
  5
C9D
  8
0
 62
    31
 10
98.053481999999988
 20
766.145261
 30
0.0
  0
VERTEX
  5
C9E
  8
0
 62
    31
 10
97.939483999999993
 20
766.12188400000002
 30
0.0
  0
VERTEX
  5
C9F
  8
0
 62
    31
 10
97.826965000000001
 20
766.09678399999984
 30
0.0
  0
VERTEX
  5
CA0
  8
0
 62
    31
 10
97.717093999999975
 20
766.07021799999995
 30
0.0
  0
VERTEX
  5
CA1
  8
0
 62
    31
 10
97.608886999999996
 20
766.04197399999998
 30
0.0
  0
VERTEX
  5
CA2
  8
0
 62
    31
 10
97.503593000000009
 20
766.01243299999999
 30
0.0
  0
VERTEX
  5
CA3
  8
0
 62
    31
 10
97.400124000000005
 20
765.98131999999998
 30
0.0
  0
VERTEX
  5
CA4
  8
0
 62
    31
 10
97.299797000000012
 20
765.94906300000002
 30
0.0
  0
VERTEX
  5
CA5
  8
0
 62
    31
 10
97.201439000000008
 20
765.91532599999994
 30
0.0
  0
VERTEX
  5
CA6
  8
0
 62
    31
 10
97.106399999999994
 20
765.88059699999985
 30
0.0
  0
VERTEX
  5
CA7
  8
0
 62
    31
 10
97.013451000000003
 20
765.84451000000001
 30
0.0
  0
VERTEX
  5
CA8
  8
0
 62
    31
 10
96.923957999999985
 20
765.80759899999998
 30
0.0
  0
VERTEX
  5
CA9
  8
0
 62
    31
 10
96.836639000000005
 20
765.76942199999985
 30
0.0
  0
VERTEX
  5
CAA
  8
0
 62
    31
 10
96.752876000000001
 20
765.73060299999986
 30
0.0
  0
VERTEX
  5
CAB
  8
0
 62
    31
 10
96.671363999999997
 20
765.69060999999999
 30
0.0
  0
VERTEX
  5
CAC
  8
0
 62
    31
 10
96.593459999999993
 20
765.65015900000003
 30
0.0
  0
VERTEX
  5
CAD
  8
0
 62
    31
 10
96.517853000000002
 20
765.60864000000004
 30
0.0
  0
VERTEX
  5
CAE
  8
0
 62
    31
 10
96.445853999999997
 20
765.56681500000002
 30
0.0
  0
VERTEX
  5
CAF
  8
0
 62
    31
 10
96.376189999999994
 20
765.523999
 30
0.0
  0
VERTEX
  5
CB0
  8
0
 62
    31
 10
96.310112000000004
 20
765.48106100000007
 30
0.0
  0
VERTEX
  5
CB1
  8
0
 62
    31
 10
96.246384000000006
 20
765.43722199999991
 30
0.0
  0
VERTEX
  5
CB2
  8
0
 62
    31
 10
96.186171999999999
 20
765.39338399999986
 30
0.0
  0
VERTEX
  5
CB3
  8
0
 62
    31
 10
96.128311000000011
 20
765.34875199999988
 30
0.0
  0
VERTEX
  5
CB4
  8
0
 62
    31
 10
96.073868000000004
 20
765.30424200000004
 30
0.0
  0
VERTEX
  5
CB5
  8
0
 62
    31
 10
96.021773999999994
 20
765.25902999999994
 30
0.0
  0
VERTEX
  5
CB6
  8
0
 62
    31
 10
95.972977
 20
765.21404699999994
 30
0.0
  0
VERTEX
  5
CB7
  8
0
 62
    31
 10
95.926497999999995
 20
765.16843899999992
 30
0.0
  0
VERTEX
  5
CB8
  8
0
 62
    31
 10
95.883185999999995
 20
765.12313600000004
 30
0.0
  0
VERTEX
  5
CB9
  8
0
 62
    31
 10
95.842155000000005
 20
765.077313
 30
0.0
  0
VERTEX
  5
CBA
  8
0
 62
    31
 10
95.804137999999995
 20
765.03184199999987
 30
0.0
  0
VERTEX
  5
CBB
  8
0
 62
    31
 10
95.76837900000001
 20
764.98592900000006
 30
0.0
  0
VERTEX
  5
CBC
  8
0
 62
    31
 10
95.735466000000002
 20
764.94041200000004
 30
0.0
  0
VERTEX
  5
CBD
  8
0
 62
    31
 10
95.704765000000009
 20
764.894498
 30
0.0
  0
VERTEX
  5
CBE
  8
0
 62
    31
 10
95.676757999999992
 20
764.84902699999986
 30
0.0
  0
VERTEX
  5
CBF
  8
0
 62
    31
 10
95.650917000000007
 20
764.80322000000001
 30
0.0
  0
VERTEX
  5
CC0
  8
0
 62
    31
 10
95.627617000000015
 20
764.75783999999999
 30
0.0
  0
VERTEX
  5
CC1
  8
0
 62
    31
 10
95.606444999999994
 20
764.71220099999994
 30
0.0
  0
VERTEX
  5
CC2
  8
0
 62
    31
 10
95.587669000000005
 20
764.66695900000002
 30
0.0
  0
VERTEX
  5
CC3
  8
0
 62
    31
 10
95.570983999999996
 20
764.62151799999992
 30
0.0
  0
VERTEX
  5
CC4
  8
0
 62
    31
 10
95.556563999999995
 20
764.57641299999989
 30
0.0
  0
VERTEX
  5
CC5
  8
0
 62
    31
 10
95.544205000000005
 20
764.53117099999986
 30
0.0
  0
VERTEX
  5
CC6
  8
0
 62
    31
 10
95.53400400000001
 20
764.48620300000005
 30
0.0
  0
VERTEX
  5
CC7
  8
0
 62
    31
 10
95.525833000000006
 20
764.44114399999989
 30
0.0
  0
VERTEX
  5
CC8
  8
0
 62
    31
 10
95.519745
 20
764.396298
 30
0.0
  0
VERTEX
  5
CC9
  8
0
 62
    31
 10
95.515670999999983
 20
764.35139200000003
 30
0.0
  0
VERTEX
  5
CCA
  8
0
 62
    31
 10
95.513344000000004
 20
764.28321600000004
 30
0.0
  0
SEQEND
  5
CCB
  8
0
 62
    31
  0
LINE
  5
52C
  8
0
 62
    31
 10
96.934943999999973
 20
722.67104800000004
 30
0.0
 11
100.99046300000001
 21
745.67104800000004
 31
0.0
  0
LINE
  5
52D
  8
0
 62
    31
 10
98.356544000000014
 20
722.67104800000004
 30
0.0
 11
101.713348
 21
741.70844699999986
 31
0.0
  0
LINE
  5
52E
  8
0
 62
    31
 10
99.778137000000001
 20
722.67104800000004
 30
0.0
 11
101.713348
 21
733.64616100000001
 31
0.0
  0
LINE
  5
52F
  8
0
 62
    31
 10
101.1997379999999
 20
722.67104800000004
 30
0.0
 11
101.713348
 21
725.58389
 31
0.0
  0
LINE
  5
530
  8
0
 62
    31
 10
94.091751000000002
 20
722.67104800000004
 30
0.0
 11
98.147269999999992
 21
745.67104800000004
 31
0.0
  0
LINE
  5
531
  8
0
 62
    31
 10
92.670151000000004
 20
722.67104800000004
 30
0.0
 11
96.725669999999994
 21
745.67104800000004
 31
0.0
  0
LINE
  5
532
  8
0
 62
    31
 10
91.248558000000003
 20
722.67104800000004
 30
0.0
 11
95.304077000000007
 21
745.67104800000004
 31
0.0
  0
LINE
  5
533
  8
0
 62
    31
 10
89.826958000000005
 20
722.67104800000004
 30
0.0
 11
93.882476999999994
 21
745.67104800000004
 31
0.0
  0
LINE
  5
534
  8
0
 62
    31
 10
89.313346999999979
 20
727.82049299999994
 30
0.0
 11
92.460883999999993
 21
745.67104800000004
 31
0.0
  0
LINE
  5
535
  8
0
 62
    31
 10
89.313346999999979
 20
735.88277900000003
 30
0.0
 11
91.039283999999995
 21
745.67104800000004
 31
0.0
  0
LINE
  5
536
  8
0
 62
    31
 10
89.313346999999979
 20
743.94505000000004
 30
0.0
 11
89.617683000000014
 21
745.67104800000004
 31
0.0
  0
LINE
  5
537
  8
0
 62
     7
 10
47.113303999999999
 20
673.77107000000001
 30
0.0
 11
47.113303999999999
 21
681.571057
 31
0.0
  0
LINE
  5
538
  8
0
 62
     7
 10
43.913307000000003
 20
675.671063
 30
0.0
 11
43.913307000000003
 21
679.67106299999989
 31
0.0
  0
LINE
  5
539
  8
0
 62
     7
 10
50.313301000000003
 20
681.571057
 30
0.0
 11
47.113303999999999
 21
681.571057
 31
0.0
  0
LINE
  5
53A
  8
0
 62
     7
 10
50.313301000000003
 20
673.77107000000001
 30
0.0
 11
47.113303999999999
 21
673.77107000000001
 31
0.0
  0
LINE
  5
53B
  8
0
 62
     7
 10
50.313301000000003
 20
679.67106299999989
 30
0.0
 11
43.913307000000003
 21
679.67106299999989
 31
0.0
  0
LINE
  5
53C
  8
0
 62
     7
 10
50.313301000000003
 20
675.671063
 30
0.0
 11
43.913307000000003
 21
675.671063
 31
0.0
  0
LINE
  5
53D
  8
0
 62
     7
 10
50.313301000000003
 20
581.57106499999998
 30
0.0
 11
47.113303999999999
 21
581.57106499999998
 31
0.0
  0
LINE
  5
53E
  8
0
 62
     7
 10
50.313301000000003
 20
579.67106299999989
 30
0.0
 11
43.913307000000003
 21
579.67106299999989
 31
0.0
  0
LINE
  5
53F
  8
0
 62
     7
 10
50.313301000000003
 20
575.67106299999989
 30
0.0
 11
43.913307000000003
 21
575.67106299999989
 31
0.0
  0
LINE
  5
540
  8
0
 62
     7
 10
50.313301000000003
 20
573.77106200000003
 30
0.0
 11
47.113303999999999
 21
573.77106200000003
 31
0.0
  0
LINE
  5
541
  8
0
 62
     7
 10
47.113303999999999
 20
573.77106200000003
 30
0.0
 11
47.113303999999999
 21
581.57106499999998
 31
0.0
  0
LINE
  5
542
  8
0
 62
     7
 10
43.913307000000003
 20
575.67106299999989
 30
0.0
 11
43.913307000000003
 21
579.67106299999989
 31
0.0
  0
LINE
  5
543
  8
0
 62
     7
 10
261.94425200000001
 20
572.92106299999989
 30
0.0
 11
262.98615299999989
 21
578.82991100000004
 31
0.0
  0
LINE
  5
544
  8
0
 62
     7
 10
261.94425200000001
 20
572.92106299999989
 30
0.0
 11
260.90238199999988
 21
578.82990700000005
 31
0.0
  0
LINE
  5
545
  8
0
 62
     7
 10
261.94425200000001
 20
677.921063
 30
0.0
 11
260.90238199999988
 21
672.01220399999988
 31
0.0
  0
LINE
  5
546
  8
0
 62
     7
 10
261.94425200000001
 20
677.921063
 30
0.0
 11
262.98615299999989
 21
672.01220399999988
 31
0.0
  0
LINE
  5
547
  8
0
 62
     7
 10
261.94425200000001
 20
572.92106299999989
 30
0.0
 11
261.94425200000001
 21
677.921063
 31
0.0
  0
LINE
  5
548
  8
0
 62
     7
 10
265.94425200000001
 20
572.92106699999988
 30
0.0
 11
209.81333199999989
 21
572.92106299999989
 31
0.0
  0
LINE
  5
549
  8
0
 62
     7
 10
265.94425200000001
 20
677.921063
 30
0.0
 11
209.81333199999989
 21
677.92104800000004
 31
0.0
  0
LINE
  5
54A
  8
0
 62
     7
 10
237.858406
 20
424.56062800000001
 30
0.0
 11
231.94956199999999
 21
425.60252100000002
 31
0.0
  0
LINE
  5
54B
  8
0
 62
     7
 10
237.858406
 20
424.56062800000001
 30
0.0
 11
231.94956199999999
 21
423.51874299999992
 31
0.0
  0
LINE
  5
54C
  8
0
 62
     7
 10
53.313270999999993
 20
424.56068899999991
 30
0.0
 11
59.22214499999999
 21
423.51880399999988
 31
0.0
  0
LINE
  5
54D
  8
0
 62
     7
 10
53.313270999999993
 20
424.56068899999991
 30
0.0
 11
59.22214499999999
 21
425.60258199999998
 31
0.0
  0
LINE
  5
54E
  8
0
 62
     7
 10
237.858406
 20
424.56062800000001
 30
0.0
 11
53.313270999999993
 21
424.56068899999991
 31
0.0
  0
LINE
  5
54F
  8
0
 62
     7
 10
237.858406
 20
420.56062800000001
 30
0.0
 11
237.85846699999991
 21
615.17104099999995
 31
0.0
  0
LINE
  5
550
  8
0
 62
     7
 10
53.313270999999993
 20
420.56068899999991
 30
0.0
 11
53.313331999999988
 21
518.621533
 31
0.0
  0
LINE
  5
551
  8
0
 62
     7
 10
206.3146439999999
 20
460.451886
 30
0.0
 11
200.4058
 21
461.49377199999992
 31
0.0
  0
LINE
  5
552
  8
0
 62
     7
 10
206.3146439999999
 20
460.451886
 30
0.0
 11
200.4058
 21
459.41000100000002
 31
0.0
  0
LINE
  5
553
  8
0
 62
     7
 10
53.313331999999988
 20
460.45193599999999
 30
0.0
 11
59.22214499999999
 21
459.41004299999997
 31
0.0
  0
LINE
  5
554
  8
0
 62
     7
 10
53.313331999999988
 20
460.45193599999999
 30
0.0
 11
59.22214499999999
 21
461.49382100000003
 31
0.0
  0
LINE
  5
555
  8
0
 62
     7
 10
206.3146439999999
 20
460.451886
 30
0.0
 11
53.313270999999993
 21
460.451932
 31
0.0
  0
LINE
  5
556
  8
0
 62
     7
 10
206.3146439999999
 20
456.4518819999999
 30
0.0
 11
206.314674
 21
572.92106299999989
 31
0.0
  0
LINE
  5
557
  8
0
 62
     7
 10
53.313270999999993
 20
456.45193599999999
 30
0.0
 11
53.313331999999988
 21
518.62152200000003
 31
0.0
  0
LINE
  5
558
  8
0
 62
     7
 10
211.81333199999989
 20
443.12511199999989
 30
0.0
 11
217.72217599999999
 21
442.08322600000002
 31
0.0
  0
LINE
  5
559
  8
0
 62
     7
 10
211.81333199999989
 20
443.12511199999989
 30
0.0
 11
217.72217599999999
 21
444.1670049999999
 31
0.0
  0
LINE
  5
55A
  8
0
 62
     7
 10
209.81333199999989
 20
443.12511199999989
 30
0.0
 11
203.90448799999999
 21
444.1670049999999
 31
0.0
  0
LINE
  5
55B
  8
0
 62
     7
 10
209.81333199999989
 20
443.12511199999989
 30
0.0
 11
203.90448799999999
 21
442.08322600000002
 31
0.0
  0
LINE
  5
55C
  8
0
 62
     7
 10
53.313270999999993
 20
443.12510400000002
 30
0.0
 11
59.22214499999999
 21
442.08321899999999
 31
0.0
  0
LINE
  5
55D
  8
0
 62
     7
 10
53.313270999999993
 20
443.12510400000002
 30
0.0
 11
59.22214499999999
 21
444.16699699999992
 31
0.0
  0
LINE
  5
55E
  8
0
 62
     7
 10
223.31333199999989
 20
443.12511199999989
 30
0.0
 11
53.313270999999993
 21
443.12510400000002
 31
0.0
  0
LINE
  5
55F
  8
0
 62
     7
 10
211.81333199999989
 20
439.12511199999989
 30
0.0
 11
211.81333199999989
 21
488.6273599999999
 31
0.0
  0
LINE
  5
560
  8
0
 62
     7
 10
209.81333199999989
 20
439.12511199999989
 30
0.0
 11
209.81333199999989
 21
489.55887100000001
 31
0.0
  0
LINE
  5
561
  8
0
 62
     7
 10
53.313270999999993
 20
439.12510400000002
 30
0.0
 11
53.313270999999993
 21
518.62147199999993
 31
0.0
  0
LINE
  5
562
  8
0
 62
     7
 10
102.713356
 20
784.91708099999994
 30
0.0
 11
108.62220000000001
 21
783.87517999999989
 31
0.0
  0
LINE
  5
563
  8
0
 62
     7
 10
102.713356
 20
784.91708099999994
 30
0.0
 11
108.62220000000001
 21
785.95895099999996
 31
0.0
  0
LINE
  5
564
  8
0
 62
     7
 10
89.313331999999988
 20
784.91708099999994
 30
0.0
 11
83.404488000000001
 21
785.95895099999996
 31
0.0
  0
LINE
  5
565
  8
0
 62
     7
 10
89.313331999999988
 20
784.91708099999994
 30
0.0
 11
83.404488000000001
 21
783.87517999999989
 31
0.0
  0
LINE
  5
566
  8
0
 62
     7
 10
53.313270999999993
 20
784.91708099999994
 30
0.0
 11
59.22214499999999
 21
783.87517999999989
 31
0.0
  0
LINE
  5
567
  8
0
 62
     7
 10
53.313270999999993
 20
784.91708099999994
 30
0.0
 11
59.22214499999999
 21
785.95895099999996
 31
0.0
  0
LINE
  5
568
  8
0
 62
     7
 10
50.313332000000003
 20
784.91708099999994
 30
0.0
 11
44.404457000000001
 21
785.95895099999996
 31
0.0
  0
LINE
  5
569
  8
0
 62
     7
 10
50.313332000000003
 20
784.91708099999994
 30
0.0
 11
44.404457000000001
 21
783.87517999999989
 31
0.0
  0
LINE
  5
56A
  8
0
 62
     7
 10
137.92356100000001
 20
784.91708099999994
 30
0.0
 11
33.313332000000003
 21
784.91708099999994
 31
0.0
  0
LINE
  5
56B
  8
0
 62
     7
 10
102.713356
 20
788.91708099999994
 30
0.0
 11
102.713356
 21
741.17104800000004
 31
0.0
  0
LINE
  5
56C
  8
0
 62
     7
 10
89.313331999999988
 20
788.91708099999994
 30
0.0
 11
89.313361999999998
 21
722.67104800000004
 31
0.0
  0
LINE
  5
56D
  8
0
 62
     7
 10
53.313270999999993
 20
788.91708099999994
 30
0.0
 11
53.313270999999993
 21
766.42977599999995
 31
0.0
  0
LINE
  5
56E
  8
0
 62
     7
 10
50.313271
 20
788.91708099999994
 30
0.0
 11
50.313332000000003
 21
767.85824300000002
 31
0.0
  0
LINE
  5
56F
  8
0
 62
     7
 10
132.8132709999999
 20
475.20033399999988
 30
0.0
 11
126.9044269999999
 21
476.24222300000002
 31
0.0
  0
LINE
  5
570
  8
0
 62
     7
 10
132.8132709999999
 20
475.20033399999988
 30
0.0
 11
126.9044269999999
 21
474.15844399999997
 31
0.0
  0
LINE
  5
571
  8
0
 62
     7
 10
53.313331999999988
 20
475.20033399999988
 30
0.0
 11
59.22214499999999
 21
474.15844399999997
 31
0.0
  0
LINE
  5
572
  8
0
 62
     7
 10
53.313331999999988
 20
475.20033399999988
 30
0.0
 11
59.22214499999999
 21
476.24222300000002
 31
0.0
  0
LINE
  5
573
  8
0
 62
     7
 10
132.8132709999999
 20
475.20033399999988
 30
0.0
 11
53.313331999999988
 21
475.20033399999988
 31
0.0
  0
LINE
  5
574
  8
0
 62
     7
 10
132.8132709999999
 20
471.20033399999988
 30
0.0
 11
132.8132709999999
 21
503.92104799999998
 31
0.0
  0
LINE
  5
575
  8
0
 62
     7
 10
53.313331999999988
 20
471.20033399999988
 30
0.0
 11
53.313270999999993
 21
518.62148000000002
 31
0.0
  0
LINE
  5
576
  8
0
 62
     7
 10
22.397010999999999
 20
625.421063
 30
0.0
 11
23.438942000000001
 21
631.32991500000003
 31
0.0
  0
LINE
  5
577
  8
0
 62
     7
 10
22.397010999999999
 20
625.421063
 30
0.0
 11
21.355140999999989
 21
631.32991500000003
 31
0.0
  0
LINE
  5
578
  8
0
 62
     7
 10
22.397010999999999
 20
732.67104800000004
 30
0.0
 11
21.355140999999989
 21
726.76218899999992
 31
0.0
  0
LINE
  5
579
  8
0
 62
     7
 10
22.397010999999999
 20
732.67104800000004
 30
0.0
 11
23.438942000000001
 21
726.76218899999992
 31
0.0
  0
LINE
  5
57A
  8
0
 62
     7
 10
22.397010999999999
 20
625.421063
 30
0.0
 11
22.397010999999999
 21
732.67104800000004
 31
0.0
  0
LINE
  5
57B
  8
0
 62
     7
 10
18.397010999999999
 20
625.421063
 30
0.0
 11
35.82504999999999
 21
625.421063
 31
0.0
  0
LINE
  5
57C
  8
0
 62
     7
 10
18.397010999999999
 20
732.67104800000004
 30
0.0
 11
82.131752000000006
 21
732.67104800000004
 31
0.0
  0
LINE
  5
57D
  8
0
 62
     7
 10
4.2214130000000001
 20
522.67108499999995
 30
0.0
 11
5.2632830000000004
 21
528.57993199999987
 31
0.0
  0
LINE
  5
57E
  8
0
 62
     7
 10
4.2214130000000001
 20
522.67108499999995
 30
0.0
 11
3.1794820000000001
 21
528.57993099999987
 31
0.0
  0
LINE
  5
57F
  8
0
 62
     7
 10
4.2214130000000001
 20
732.67104800000004
 30
0.0
 11
3.1794820000000001
 21
726.76218899999992
 31
0.0
  0
LINE
  5
580
  8
0
 62
     7
 10
4.2214130000000001
 20
732.67104800000004
 30
0.0
 11
5.2632830000000004
 21
726.76218899999992
 31
0.0
  0
LINE
  5
581
  8
0
 62
     7
 10
4.2214130000000001
 20
522.67108499999995
 30
0.0
 11
4.2214130000000001
 21
732.67104800000004
 31
0.0
  0
LINE
  5
582
  8
0
 62
     7
 10
0.221413
 20
522.67108499999995
 30
0.0
 11
82.131752000000006
 21
522.67108899999994
 31
0.0
  0
LINE
  5
583
  8
0
 62
     7
 10
0.221413
 20
732.67104800000004
 30
0.0
 11
82.131752000000006
 21
732.67104800000004
 31
0.0
  0
LINE
  5
584
  8
0
 62
     7
 10
-213.082337
 20
503.92105599999991
 30
0.0
 11
-213.082337
 21
544.921065
 31
0.0
  0
LINE
  5
585
  8
0
  6
DASHDOT
 62
     7
 10
-195.58232599999999
 20
540.17105500000002
 30
0.0
 11
-195.58232599999999
 21
563.67105699999991
 31
0.0
  0
LINE
  5
586
  8
0
  6
DASHDOT
 62
     7
 10
-125.58226500000001
 20
546.67080299999986
 30
0.0
 11
-125.58226500000001
 21
563.67106799999999
 31
0.0
  0
LINE
  5
587
  8
0
  6
DASHDOT
 62
     7
 10
-125.5823259999999
 20
540.17105500000002
 30
0.0
 11
-125.5823259999999
 21
551.07105100000001
 31
0.0
  0
LINE
  5
588
  8
0
  6
DASHDOT
 62
     7
 10
-195.58232599999999
 20
540.17105500000002
 30
0.0
 11
-195.58232599999999
 21
551.07105499999989
 31
0.0
  0
LINE
  5
589
  8
0
 62
     3
 10
-108.5823259999999
 20
677.92105700000002
 30
0.0
 11
-212.58231099999989
 21
677.92105700000002
 31
0.0
  0
LINE
  5
58A
  8
0
 62
     3
 10
-108.5823259999999
 20
572.92107999999985
 30
0.0
 11
-122.0823259999999
 21
572.92107999999985
 31
0.0
  0
LINE
  5
58B
  8
0
 62
     3
 10
-133.58232599999991
 20
572.92107999999985
 30
0.0
 11
-158.13303099999999
 21
572.92107999999985
 31
0.0
  0
LINE
  5
58C
  8
0
 62
     3
 10
-199.082311
 20
572.92107999999985
 30
0.0
 11
-212.58231099999989
 21
572.92107999999985
 31
0.0
  0
LINE
  5
58D
  8
0
 62
     3
 10
-187.58231099999989
 20
572.92107999999985
 30
0.0
 11
-199.082311
 21
572.92107999999985
 31
0.0
  0
LINE
  5
58E
  8
0
 62
     3
 10
-122.0823259999999
 20
572.92107999999985
 30
0.0
 11
-133.58232599999991
 21
572.92107999999985
 31
0.0
  0
LINE
  5
58F
  8
0
  6
DASHDOT
 62
     7
 10
-160.582311
 20
554.79988300000002
 30
0.0
 11
-160.582311
 21
658.09514399999989
 31
0.0
  0
ARC
  5
590
  8
0
 62
     3
 10
-212.58231099999989
 20
573.42107999999985
 30
0.0
 40
0.5
 50
180.00000299999991
 51
270.00000499999987
  0
ARC
  5
591
  8
0
 62
     3
 10
-212.58231099999989
 20
677.42105700000002
 30
0.0
 40
0.5
 50
90.0
 51
180.00000299999991
  0
ARC
  5
592
  8
0
 62
     3
 10
-108.5823259999999
 20
677.42105700000002
 30
0.0
 40
0.5
 50
0.000001
 51
90.0
  0
ARC
  5
593
  8
0
 62
     3
 10
-108.5823259999999
 20
573.42107999999985
 30
0.0
 40
0.5
 50
270.00000499999987
 51
0.000001
  0
LINE
  5
594
  8
0
  6
DASHDOT
 62
     7
 10
-160.582311
 20
663.87437999999997
 30
0.0
 11
-160.582311
 21
692.78462799999988
 31
0.0
  0
LINE
  5
595
  8
0
 62
     3
 10
-163.03175799999991
 20
572.92107999999985
 30
0.0
 11
-187.58231099999989
 21
572.92107999999985
 31
0.0
  0
LINE
  5
596
  8
0
 62
     7
 10
-188.08232599999991
 20
572.92106499999989
 30
0.0
 11
-198.082311
 21
572.92106499999989
 31
0.0
  0
LINE
  5
597
  8
0
 62
     7
 10
-123.0823409999999
 20
572.92106499999989
 30
0.0
 11
-133.0823409999999
 21
572.92106499999989
 31
0.0
  0
LINE
  5
598
  8
0
 62
     7
 10
-108.082311
 20
573.421065
 30
0.0
 11
-108.082311
 21
591.42104900000004
 31
0.0
  0
LINE
  5
599
  8
0
 62
     7
 10
-213.08231099999989
 20
573.421065
 30
0.0
 11
-213.08231099999989
 21
591.42104900000004
 31
0.0
  0
LINE
  5
59A
  8
0
 62
     7
 10
-108.5823109999999
 20
677.92105700000002
 30
0.0
 11
-212.58231099999989
 21
677.92105700000002
 31
0.0
  0
LINE
  5
59B
  8
0
 62
     7
 10
-198.082311
 20
572.92106499999989
 30
0.0
 11
-212.58231099999989
 21
572.92106499999989
 31
0.0
  0
LINE
  5
59C
  8
0
 62
     7
 10
-133.0823409999999
 20
572.92106499999989
 30
0.0
 11
-188.08232599999991
 21
572.92106499999989
 31
0.0
  0
LINE
  5
59D
  8
0
 62
     7
 10
-108.5823109999999
 20
572.92106499999989
 30
0.0
 11
-123.0823409999999
 21
572.92106499999989
 31
0.0
  0
LINE
  5
59E
  8
0
 62
     7
 10
-149.832311
 20
595.17104900000004
 30
0.0
 11
-149.832311
 21
635.17103399999985
 31
0.0
  0
LINE
  5
59F
  8
0
 62
     7
 10
-171.332311
 20
595.17104900000004
 30
0.0
 11
-171.332311
 21
635.17103399999985
 31
0.0
  0
LINE
  5
5A0
  8
0
 62
     7
 10
-108.082311
 20
665.92102599999998
 30
0.0
 11
-213.08231099999989
 21
665.92102599999998
 31
0.0
  0
LINE
  5
5A1
  8
0
 62
     7
 10
-108.082311
 20
675.92102599999987
 30
0.0
 11
-213.08231099999989
 21
675.92102599999987
 31
0.0
  0
LINE
  5
5A2
  8
0
 62
     7
 10
-149.832311
 20
634.90656899999988
 30
0.0
 11
-171.332311
 21
634.90656899999988
 31
0.0
  0
LINE
  5
5A3
  8
0
 62
     7
 10
-149.832311
 20
635.17103399999985
 30
0.0
 11
-171.332311
 21
635.17103399999985
 31
0.0
  0
LINE
  5
5A4
  8
0
 62
     7
 10
-149.832311
 20
595.17104900000004
 30
0.0
 11
-171.332311
 21
595.17104900000004
 31
0.0
  0
LINE
  5
5A5
  8
0
 62
     7
 10
-149.832311
 20
595.43554500000005
 30
0.0
 11
-171.332311
 21
595.43554500000005
 31
0.0
  0
LINE
  5
5A6
  8
0
  6
DASHDOT
 62
     7
 10
-160.582311
 20
465.53675700000002
 30
0.0
 11
-160.582311
 21
656.12346500000001
 31
0.0
  0
LINE
  5
5A7
  8
0
  6
DASHDOT
 62
     7
 10
-160.582311
 20
655.35072899999989
 30
0.0
 11
-160.582311
 21
765.52008599999988
 31
0.0
  0
LINE
  5
5A8
  8
0
 62
     7
 10
-108.08232599999999
 20
592.42104900000004
 30
0.0
 11
-108.08232599999999
 21
604.42104199999994
 31
0.0
  0
LINE
  5
5A9
  8
0
 62
     7
 10
-108.08232599999999
 20
580.581862
 30
0.0
 11
-108.08232599999999
 21
677.42105700000002
 31
0.0
  0
LINE
  5
5AA
  8
0
 62
     7
 10
-108.08232599999999
 20
605.42104199999994
 30
0.0
 11
-108.08232599999999
 21
624.92104900000004
 31
0.0
  0
LINE
  5
5AB
  8
0
 62
     7
 10
-108.08232599999999
 20
625.92104900000004
 30
0.0
 11
-108.08232599999999
 21
637.92104900000004
 31
0.0
  0
LINE
  5
5AC
  8
0
 62
     7
 10
-213.08231099999989
 20
592.42104900000004
 30
0.0
 11
-213.08231099999989
 21
604.42104900000004
 31
0.0
  0
LINE
  5
5AD
  8
0
 62
     7
 10
-213.08231099999989
 20
605.42104900000004
 30
0.0
 11
-213.08231099999989
 21
624.92104900000004
 31
0.0
  0
LINE
  5
5AE
  8
0
 62
     7
 10
-213.08231099999989
 20
625.92104900000004
 30
0.0
 11
-213.08231099999989
 21
637.92104900000004
 31
0.0
  0
LINE
  5
5AF
  8
0
 62
     7
 10
-213.08231099999989
 20
587.81146799999999
 30
0.0
 11
-213.08231099999989
 21
677.42105700000002
 31
0.0
  0
ARC
  5
5B0
  8
0
 62
     7
 10
-212.58231099999989
 20
573.421065
 30
0.0
 40
0.5
 50
180.00000299999991
 51
270.00000499999987
  0
ARC
  5
5B1
  8
0
 62
     7
 10
-108.5823109999999
 20
573.421065
 30
0.0
 40
0.5
 50
270.00000499999987
 51
0.000001
  0
ARC
  5
5B2
  8
0
 62
     7
 10
-108.5823109999999
 20
677.42105700000002
 30
0.0
 40
0.5
 50
0.000001
 51
90.0
  0
ARC
  5
5B3
  8
0
 62
     7
 10
-212.58231099999989
 20
677.42105700000002
 30
0.0
 40
0.5
 50
90.0
 51
180.00000299999991
  0
LINE
  5
5B4
  8
0
 62
     7
 10
-183.082311
 20
636.42104900000004
 30
0.0
 11
-184.58231099999989
 21
636.42104900000004
 31
0.0
  0
LINE
  5
5B5
  8
0
 62
     7
 10
-183.082311
 20
627.42104900000004
 30
0.0
 11
-184.58231099999989
 21
627.42104900000004
 31
0.0
  0
CIRCLE
  5
5B6
  8
0
 62
     7
 10
-183.832311
 20
598.42104900000004
 30
0.0
 40
4.5
  0
CIRCLE
  5
5B7
  8
0
 62
     7
 10
-183.832311
 20
598.42104900000004
 30
0.0
 40
3.0
  0
LINE
  5
5B8
  8
0
 62
     7
 10
-184.58231099999989
 20
627.42104900000004
 30
0.0
 11
-184.58231099999989
 21
636.42104900000004
 31
0.0
  0
LINE
  5
5B9
  8
0
 62
     7
 10
-183.082311
 20
627.42104900000004
 30
0.0
 11
-183.082311
 21
636.42104900000004
 31
0.0
  0
LINE
  5
5BA
  8
0
 62
     7
 10
-135.03232299999991
 20
602.27104799999995
 30
0.0
 11
-135.48231999999999
 21
602.27104799999995
 31
0.0
  0
LINE
  5
5BB
  8
0
 62
     7
 10
-135.9823199999999
 20
594.57105100000001
 30
0.0
 11
-136.78232299999991
 21
594.57105100000001
 31
0.0
  0
LINE
  5
5BC
  8
0
 62
     7
 10
-143.1823169999999
 20
597.17104900000004
 30
0.0
 11
-143.1823169999999
 21
597.67104900000004
 31
0.0
  0
LINE
  5
5BD
  8
0
 62
     7
 10
-137.9823199999999
 20
597.17104900000004
 30
0.0
 11
-137.9823199999999
 21
597.67104900000004
 31
0.0
  0
ARC
  5
5BE
  8
0
 62
     7
 10
-140.58232599999999
 20
597.67104900000004
 30
0.0
 40
2.6000000000000001
 50
0.000001
 51
180.00000299999991
  0
ARC
  5
5BF
  8
0
 62
     7
 10
-140.58232599999999
 20
597.17104900000004
 30
0.0
 40
2.6000000000000001
 50
180.00000299999991
 51
0.000001
  0
ARC
  5
5C0
  8
0
 62
     7
 10
-140.58232599999999
 20
597.67104900000004
 30
0.0
 40
1.8
 50
0.000001
 51
180.00000299999991
  0
ARC
  5
5C1
  8
0
 62
     7
 10
-140.58232599999999
 20
597.17104900000004
 30
0.0
 40
1.8
 50
180.00000299999991
 51
0.000001
  0
LINE
  5
5C2
  8
0
 62
     7
 10
-142.38231399999989
 20
597.17104900000004
 30
0.0
 11
-142.38231399999989
 21
597.67104900000004
 31
0.0
  0
LINE
  5
5C3
  8
0
 62
     7
 10
-138.78232299999991
 20
597.17104900000004
 30
0.0
 11
-138.78232299999991
 21
597.67104900000004
 31
0.0
  0
LINE
  5
5C4
  8
0
 62
     7
 10
-137.7323199999999
 20
599.07105100000001
 30
0.0
 11
-137.7323199999999
 21
599.87104599999986
 31
0.0
  0
LINE
  5
5C5
  8
0
 62
     7
 10
-136.78232299999991
 20
599.07105100000001
 30
0.0
 11
-137.7323199999999
 21
599.07105100000001
 31
0.0
  0
LINE
  5
5C6
  8
0
 62
     7
 10
-135.03232299999991
 20
599.07105100000001
 30
0.0
 11
-135.03232299999991
 21
599.87104599999986
 31
0.0
  0
LINE
  5
5C7
  8
0
 62
     7
 10
-136.78232299999991
 20
599.87104599999986
 30
0.0
 11
-137.7323199999999
 21
599.87104599999986
 31
0.0
  0
LINE
  5
5C8
  8
0
 62
     7
 10
-136.78232299999991
 20
594.57105100000001
 30
0.0
 11
-136.78232299999991
 21
599.07105100000001
 31
0.0
  0
LINE
  5
5C9
  8
0
 62
     7
 10
-135.9823199999999
 20
594.57105100000001
 30
0.0
 11
-135.9823199999999
 21
599.07105100000001
 31
0.0
  0
LINE
  5
5CA
  8
0
 62
     7
 10
-135.03232299999991
 20
599.07105100000001
 30
0.0
 11
-135.9823199999999
 21
599.07105100000001
 31
0.0
  0
LINE
  5
5CB
  8
0
 62
     7
 10
-135.03232299999991
 20
599.87104599999986
 30
0.0
 11
-135.9823199999999
 21
599.87104599999986
 31
0.0
  0
LINE
  5
5CC
  8
0
 62
     7
 10
-136.78232299999991
 20
599.87104599999986
 30
0.0
 11
-136.78232299999991
 21
600.971045
 31
0.0
  0
LINE
  5
5CD
  8
0
 62
     7
 10
-135.9823199999999
 20
599.87104599999986
 30
0.0
 11
-135.9823199999999
 21
600.971045
 31
0.0
  0
ARC
  5
5CE
  8
0
 62
     7
 10
-135.48231999999999
 20
600.971045
 30
0.0
 40
1.3
 50
90.0
 51
180.00000299999991
  0
ARC
  5
5CF
  8
0
 62
     7
 10
-135.48231999999999
 20
600.971045
 30
0.0
 40
0.5
 50
90.0
 51
180.00000299999991
  0
LINE
  5
5D0
  8
0
 62
     7
 10
-135.03232299999991
 20
601.47104499999989
 30
0.0
 11
-135.03232299999991
 21
602.27104799999995
 31
0.0
  0
LINE
  5
5D1
  8
0
 62
     7
 10
-135.03232299999991
 20
601.47104499999989
 30
0.0
 11
-135.48231999999999
 21
601.47104499999989
 31
0.0
  0
LINE
  5
5D2
  8
0
 62
     7
 10
-131.83232599999991
 20
602.27104799999995
 30
0.0
 11
-132.28232299999999
 21
602.27104799999995
 31
0.0
  0
LINE
  5
5D3
  8
0
 62
     7
 10
-132.78232299999991
 20
594.57105100000001
 30
0.0
 11
-133.58232599999991
 21
594.57105100000001
 31
0.0
  0
LINE
  5
5D4
  8
0
 62
     7
 10
-134.53232299999991
 20
599.07105100000001
 30
0.0
 11
-134.53232299999991
 21
599.87104599999986
 31
0.0
  0
LINE
  5
5D5
  8
0
 62
     7
 10
-133.58232599999991
 20
599.07105100000001
 30
0.0
 11
-134.53232299999991
 21
599.07105100000001
 31
0.0
  0
LINE
  5
5D6
  8
0
 62
     7
 10
-131.83232599999991
 20
599.07105100000001
 30
0.0
 11
-131.83232599999991
 21
599.87104599999986
 31
0.0
  0
LINE
  5
5D7
  8
0
 62
     7
 10
-133.58232599999991
 20
599.87104599999986
 30
0.0
 11
-134.53232299999991
 21
599.87104599999986
 31
0.0
  0
LINE
  5
5D8
  8
0
 62
     7
 10
-133.58232599999991
 20
594.57105100000001
 30
0.0
 11
-133.58232599999991
 21
599.07105100000001
 31
0.0
  0
LINE
  5
5D9
  8
0
 62
     7
 10
-132.78232299999991
 20
594.57105100000001
 30
0.0
 11
-132.78232299999991
 21
599.07105100000001
 31
0.0
  0
LINE
  5
5DA
  8
0
 62
     7
 10
-131.83232599999991
 20
599.07105100000001
 30
0.0
 11
-132.78232299999991
 21
599.07105100000001
 31
0.0
  0
LINE
  5
5DB
  8
0
 62
     7
 10
-131.83232599999991
 20
599.87104599999986
 30
0.0
 11
-132.78232299999991
 21
599.87104599999986
 31
0.0
  0
LINE
  5
5DC
  8
0
 62
     7
 10
-133.58232599999991
 20
599.87104599999986
 30
0.0
 11
-133.58232599999991
 21
600.971045
 31
0.0
  0
LINE
  5
5DD
  8
0
 62
     7
 10
-132.78232299999991
 20
599.87104599999986
 30
0.0
 11
-132.78232299999991
 21
600.971045
 31
0.0
  0
ARC
  5
5DE
  8
0
 62
     7
 10
-132.28232299999999
 20
600.971045
 30
0.0
 40
1.3
 50
90.0
 51
180.00000299999991
  0
ARC
  5
5DF
  8
0
 62
     7
 10
-132.28232299999999
 20
600.971045
 30
0.0
 40
0.5
 50
90.0
 51
180.00000299999991
  0
LINE
  5
5E0
  8
0
 62
     7
 10
-131.83232599999991
 20
601.47104499999989
 30
0.0
 11
-131.83232599999991
 21
602.27104799999995
 31
0.0
  0
LINE
  5
5E1
  8
0
 62
     7
 10
-131.83232599999991
 20
601.47104499999989
 30
0.0
 11
-132.28232299999999
 21
601.47104499999989
 31
0.0
  0
LINE
  5
5E2
  8
0
 62
     7
 10
-136.38231399999989
 20
629.07105100000001
 30
0.0
 11
-137.1823169999999
 21
629.07105100000001
 31
0.0
  0
ARC
  5
5E3
  8
0
 62
     7
 10
-140.58232599999999
 20
632.17104900000004
 30
0.0
 40
2.6000000000000001
 50
0.000001
 51
180.00000299999991
  0
ARC
  5
5E4
  8
0
 62
     7
 10
-140.58232599999999
 20
632.17104900000004
 30
0.0
 40
1.8
 50
0.000001
 51
180.00000299999991
  0
ARC
  5
5E5
  8
0
 62
     7
 10
-140.58232599999999
 20
631.67104900000004
 30
0.0
 40
2.6000000000000001
 50
180.00000299999991
 51
0.000001
  0
ARC
  5
5E6
  8
0
 62
     7
 10
-140.58232599999999
 20
631.67104900000004
 30
0.0
 40
1.8
 50
180.00000299999991
 51
0.000001
  0
LINE
  5
5E7
  8
0
 62
     7
 10
-138.78232299999991
 20
631.67104900000004
 30
0.0
 11
-138.78232299999991
 21
632.17104900000004
 31
0.0
  0
LINE
  5
5E8
  8
0
 62
     7
 10
-137.9823199999999
 20
631.67104900000004
 30
0.0
 11
-137.9823199999999
 21
632.17104900000004
 31
0.0
  0
LINE
  5
5E9
  8
0
 62
     7
 10
-142.38231399999989
 20
631.67104900000004
 30
0.0
 11
-142.38231399999989
 21
632.17104900000004
 31
0.0
  0
LINE
  5
5EA
  8
0
 62
     7
 10
-143.1823169999999
 20
631.67104900000004
 30
0.0
 11
-143.1823169999999
 21
632.17104900000004
 31
0.0
  0
LINE
  5
5EB
  8
0
 62
     7
 10
-137.1823169999999
 20
629.07105100000001
 30
0.0
 11
-137.1823169999999
 21
634.77104799999995
 31
0.0
  0
LINE
  5
5EC
  8
0
 62
     7
 10
-136.38231399999989
 20
629.07105100000001
 30
0.0
 11
-136.38231399999989
 21
632.57105100000001
 31
0.0
  0
LINE
  5
5ED
  8
0
 62
     7
 10
-133.58232599999991
 20
629.07105100000001
 30
0.0
 11
-133.58232599999991
 21
632.57105100000001
 31
0.0
  0
LINE
  5
5EE
  8
0
 62
     7
 10
-132.78232299999991
 20
629.07105100000001
 30
0.0
 11
-132.78232299999991
 21
632.77104799999995
 31
0.0
  0
LINE
  5
5EF
  8
0
 62
     7
 10
-136.38231399999989
 20
634.77104799999995
 30
0.0
 11
-137.1823169999999
 21
634.77104799999995
 31
0.0
  0
ARC
  5
5F0
  8
0
 62
     7
 10
-134.9823199999999
 20
632.57105100000001
 30
0.0
 40
1.399999999999999
 50
0.000001
 51
180.00000299999991
  0
LINE
  5
5F1
  8
0
 62
     7
 10
-136.38231399999989
 20
633.971045
 30
0.0
 11
-136.38231399999989
 21
634.77104799999995
 31
0.0
  0
ARC
  5
5F2
  8
0
 62
     7
 10
-134.78232299999991
 20
632.77104799999995
 30
0.0
 40
2.0
 50
0.000001
 51
143.13010199999999
  0
LINE
  5
5F3
  8
0
 62
     7
 10
-132.78232299999991
 20
629.07105100000001
 30
0.0
 11
-133.58232599999991
 21
629.07105100000001
 31
0.0
  0
LINE
  5
5F4
  8
0
 62
     7
 10
-149.832311
 20
609.29637000000002
 30
0.0
 11
-171.332311
 21
609.29637000000002
 31
0.0
  0
LINE
  5
5F5
  8
0
 62
     7
 10
-149.832311
 20
603.17990699999996
 30
0.0
 11
-171.332311
 21
603.17990699999996
 31
0.0
  0
LINE
  5
5F6
  8
0
 62
     7
 10
-149.832311
 20
597.23208399999999
 30
0.0
 11
-171.332311
 21
597.23208399999999
 31
0.0
  0
LINE
  5
5F7
  8
0
 62
     7
 10
-149.832311
 20
596.42933499999992
 30
0.0
 11
-171.332311
 21
596.42933499999992
 31
0.0
  0
LINE
  5
5F8
  8
0
  6
DASHDOT
 62
     7
 10
-160.582311
 20
726.57097499999998
 30
0.0
 11
-160.582311
 21
757.37981200000002
 31
0.0
  0
LINE
  5
5F9
  8
0
 62
     3
 10
-109.332311
 20
715.17105700000002
 30
0.0
 11
-211.83229199999991
 21
715.17105700000002
 31
0.0
  0
LINE
  5
5FA
  8
0
 62
     3
 10
-108.082311
 20
705.92105700000002
 30
0.0
 11
-108.082311
 21
751.42105700000002
 31
0.0
  0
LINE
  5
5FB
  8
0
 62
     3
 10
-213.08229900000001
 20
705.92105700000002
 30
0.0
 11
-213.08229900000001
 21
751.42105700000002
 31
0.0
  0
LINE
  5
5FC
  8
0
 62
     3
 10
-209.43229400000001
 20
705.92105700000002
 30
0.0
 11
-209.43229400000001
 21
715.17105700000002
 31
0.0
  0
LINE
  5
5FD
  8
0
 62
     3
 10
-205.8322949999999
 20
705.92105700000002
 30
0.0
 11
-205.8322949999999
 21
715.17105700000002
 31
0.0
  0
LINE
  5
5FE
  8
0
 62
     3
 10
-202.2322969999999
 20
705.92105700000002
 30
0.0
 11
-202.2322969999999
 21
715.17105700000002
 31
0.0
  0
LINE
  5
5FF
  8
0
 62
     3
 10
-198.63229799999991
 20
705.92105700000002
 30
0.0
 11
-198.63229799999991
 21
715.17105700000002
 31
0.0
  0
LINE
  5
600
  8
0
 62
     3
 10
-195.032308
 20
705.92105700000002
 30
0.0
 11
-195.032308
 21
715.17105700000002
 31
0.0
  0
LINE
  5
601
  8
0
 62
     3
 10
-191.43230199999991
 20
705.92105700000002
 30
0.0
 11
-191.43230199999991
 21
715.17105700000002
 31
0.0
  0
LINE
  5
602
  8
0
 62
     3
 10
-187.832311
 20
705.92105700000002
 30
0.0
 11
-187.832311
 21
715.17105700000002
 31
0.0
  0
LINE
  5
603
  8
0
 62
     3
 10
-184.232305
 20
705.92105700000002
 30
0.0
 11
-184.232305
 21
715.17105700000002
 31
0.0
  0
LINE
  5
604
  8
0
 62
     3
 10
-180.63231399999989
 20
705.92105700000002
 30
0.0
 11
-180.63231399999989
 21
715.17105700000002
 31
0.0
  0
LINE
  5
605
  8
0
 62
     3
 10
-177.032308
 20
705.92105700000002
 30
0.0
 11
-177.032308
 21
715.17105700000002
 31
0.0
  0
LINE
  5
606
  8
0
 62
     3
 10
-173.43230199999991
 20
705.92105700000002
 30
0.0
 11
-173.43230199999991
 21
715.17105700000002
 31
0.0
  0
LINE
  5
607
  8
0
 62
     3
 10
-169.832311
 20
705.92105700000002
 30
0.0
 11
-169.832311
 21
715.17105700000002
 31
0.0
  0
LINE
  5
608
  8
0
 62
     3
 10
-166.23230499999991
 20
705.92105700000002
 30
0.0
 11
-166.23230499999991
 21
715.17105700000002
 31
0.0
  0
LINE
  5
609
  8
0
 62
     3
 10
-162.63231399999989
 20
705.92105700000002
 30
0.0
 11
-162.63231399999989
 21
715.17105700000002
 31
0.0
  0
LINE
  5
60A
  8
0
 62
     3
 10
-159.032308
 20
705.92105700000002
 30
0.0
 11
-159.032308
 21
715.17105700000002
 31
0.0
  0
LINE
  5
60B
  8
0
 62
     3
 10
-155.43230199999991
 20
705.92105700000002
 30
0.0
 11
-155.43230199999991
 21
715.17105700000002
 31
0.0
  0
LINE
  5
60C
  8
0
 62
     3
 10
-151.832311
 20
705.92105700000002
 30
0.0
 11
-151.832311
 21
715.17105700000002
 31
0.0
  0
LINE
  5
60D
  8
0
 62
     3
 10
-148.23230499999991
 20
705.92105700000002
 30
0.0
 11
-148.23230499999991
 21
715.17105700000002
 31
0.0
  0
LINE
  5
60E
  8
0
 62
     3
 10
-144.63231399999989
 20
705.92105700000002
 30
0.0
 11
-144.63231399999989
 21
715.17105700000002
 31
0.0
  0
LINE
  5
60F
  8
0
 62
     3
 10
-141.03230799999989
 20
705.92105700000002
 30
0.0
 11
-141.03230799999989
 21
715.17105700000002
 31
0.0
  0
LINE
  5
610
  8
0
 62
     3
 10
-137.43230199999999
 20
705.92105700000002
 30
0.0
 11
-137.43230199999999
 21
715.17105700000002
 31
0.0
  0
LINE
  5
611
  8
0
 62
     3
 10
-133.832311
 20
705.92105700000002
 30
0.0
 11
-133.832311
 21
715.17105700000002
 31
0.0
  0
LINE
  5
612
  8
0
 62
     3
 10
-130.232305
 20
705.92105700000002
 30
0.0
 11
-130.232305
 21
715.17105700000002
 31
0.0
  0
LINE
  5
613
  8
0
 62
     3
 10
-126.63231399999989
 20
705.92105700000002
 30
0.0
 11
-126.63231399999989
 21
715.17105700000002
 31
0.0
  0
LINE
  5
614
  8
0
 62
     3
 10
-123.032308
 20
705.92105700000002
 30
0.0
 11
-123.032308
 21
715.17105700000002
 31
0.0
  0
LINE
  5
615
  8
0
 62
     3
 10
-119.43230200000001
 20
705.92105700000002
 30
0.0
 11
-119.43230200000001
 21
715.17105700000002
 31
0.0
  0
LINE
  5
616
  8
0
 62
     3
 10
-115.8323109999999
 20
705.92105700000002
 30
0.0
 11
-115.8323109999999
 21
715.17105700000002
 31
0.0
  0
LINE
  5
617
  8
0
 62
     3
 10
-112.232305
 20
705.92105700000002
 30
0.0
 11
-112.232305
 21
715.17105700000002
 31
0.0
  0
ARC
  5
618
  8
0
 62
     3
 10
-109.33232599999999
 20
713.92104199999994
 30
0.0
 40
1.2499990000000001
 50
0.000028
 51
90.000461999999985
  0
ARC
  5
619
  8
0
 62
     3
 10
-211.83232599999991
 20
713.92107199999998
 30
0.0
 40
1.2499670000000001
 50
89.998233999999997
 51
180.00118399999991
  0
LINE
  5
61A
  8
0
 62
     3
 10
-109.332311
 20
540.17105500000002
 30
0.0
 11
-211.83229199999991
 21
540.17105500000002
 31
0.0
  0
LINE
  5
61B
  8
0
 62
     3
 10
-108.082311
 20
503.92105599999991
 30
0.0
 11
-108.082311
 21
544.921065
 31
0.0
  0
LINE
  5
61C
  8
0
 62
     3
 10
-191.43230199999991
 20
540.17105500000002
 30
0.0
 11
-191.43230199999991
 21
544.921065
 31
0.0
  0
LINE
  5
61D
  8
0
 62
     3
 10
-187.832311
 20
540.17105500000002
 30
0.0
 11
-187.832311
 21
544.921065
 31
0.0
  0
LINE
  5
61E
  8
0
 62
     3
 10
-184.232305
 20
540.17105500000002
 30
0.0
 11
-184.232305
 21
544.921065
 31
0.0
  0
LINE
  5
61F
  8
0
 62
     3
 10
-180.63231399999989
 20
540.17105500000002
 30
0.0
 11
-180.63231399999989
 21
544.921065
 31
0.0
  0
LINE
  5
620
  8
0
 62
     3
 10
-177.032308
 20
540.17105500000002
 30
0.0
 11
-177.032308
 21
544.921065
 31
0.0
  0
LINE
  5
621
  8
0
 62
     3
 10
-173.43230199999991
 20
540.17105500000002
 30
0.0
 11
-173.43230199999991
 21
544.921065
 31
0.0
  0
LINE
  5
622
  8
0
 62
     3
 10
-169.832311
 20
540.17105500000002
 30
0.0
 11
-169.832311
 21
544.921065
 31
0.0
  0
LINE
  5
623
  8
0
 62
     3
 10
-166.23230499999991
 20
540.17105500000002
 30
0.0
 11
-166.23230499999991
 21
544.921065
 31
0.0
  0
LINE
  5
624
  8
0
 62
     3
 10
-162.63231399999989
 20
540.17105500000002
 30
0.0
 11
-162.63231399999989
 21
544.921065
 31
0.0
  0
LINE
  5
625
  8
0
 62
     3
 10
-159.032308
 20
540.17105500000002
 30
0.0
 11
-159.032308
 21
544.921065
 31
0.0
  0
LINE
  5
626
  8
0
 62
     3
 10
-155.43230199999991
 20
540.17105500000002
 30
0.0
 11
-155.43230199999991
 21
544.921065
 31
0.0
  0
LINE
  5
627
  8
0
 62
     3
 10
-151.832311
 20
540.17105500000002
 30
0.0
 11
-151.832311
 21
544.921065
 31
0.0
  0
LINE
  5
628
  8
0
 62
     3
 10
-148.23230499999991
 20
540.17105500000002
 30
0.0
 11
-148.23230499999991
 21
544.921065
 31
0.0
  0
LINE
  5
629
  8
0
 62
     3
 10
-144.63231399999989
 20
540.17105500000002
 30
0.0
 11
-144.63231399999989
 21
544.921065
 31
0.0
  0
LINE
  5
62A
  8
0
 62
     3
 10
-141.03230799999989
 20
540.17105500000002
 30
0.0
 11
-141.03230799999989
 21
544.921065
 31
0.0
  0
LINE
  5
62B
  8
0
 62
     3
 10
-137.43230199999999
 20
540.17105500000002
 30
0.0
 11
-137.43230199999999
 21
544.921065
 31
0.0
  0
LINE
  5
62C
  8
0
 62
     3
 10
-133.832311
 20
540.17105500000002
 30
0.0
 11
-133.832311
 21
544.921065
 31
0.0
  0
LINE
  5
62D
  8
0
 62
     3
 10
-130.232305
 20
540.17105500000002
 30
0.0
 11
-130.232305
 21
544.921065
 31
0.0
  0
LINE
  5
62E
  8
0
 62
     3
 10
-126.63231399999989
 20
540.17105500000002
 30
0.0
 11
-126.63231399999989
 21
544.921065
 31
0.0
  0
LINE
  5
62F
  8
0
 62
     3
 10
-123.032308
 20
540.17105500000002
 30
0.0
 11
-123.032308
 21
544.921065
 31
0.0
  0
LINE
  5
630
  8
0
 62
     3
 10
-119.43230200000001
 20
540.17105500000002
 30
0.0
 11
-119.43230200000001
 21
544.921065
 31
0.0
  0
LINE
  5
631
  8
0
 62
     3
 10
-115.8323109999999
 20
540.17105500000002
 30
0.0
 11
-115.8323109999999
 21
544.921065
 31
0.0
  0
LINE
  5
632
  8
0
 62
     3
 10
-112.232305
 20
540.17105500000002
 30
0.0
 11
-112.232305
 21
544.921065
 31
0.0
  0
ARC
  5
633
  8
0
 62
     3
 10
-109.33232599999999
 20
541.421066
 30
0.0
 40
1.2499990000000001
 50
269.99954100000002
 51
359.99997300000001
  0
ARC
  5
634
  8
0
 62
     3
 10
-211.83232599999991
 20
541.42103399999985
 30
0.0
 40
1.2499670000000001
 50
179.9988139999999
 51
270.00178099999988
  0
LINE
  5
635
  8
0
  6
DASHDOT
 62
     7
 10
-94.340749000000002
 20
625.421065
 30
0.0
 11
-239.61821099999989
 21
625.421065
 31
0.0
  0
LINE
  5
636
  8
0
 62
     7
 10
-109.332311
 20
502.67105599999991
 30
0.0
 11
-211.83229900000001
 21
502.67105599999991
 31
0.0
  0
LINE
  5
637
  8
0
 62
     7
 10
-109.332311
 20
752.67105700000002
 30
0.0
 11
-211.83229900000001
 21
752.67105700000002
 31
0.0
  0
LINE
  5
638
  8
0
 62
     7
 10
-108.082311
 20
715.67105700000002
 30
0.0
 11
-213.08229900000001
 21
715.67105700000002
 31
0.0
  0
LINE
  5
639
  8
0
 62
     7
 10
-108.082311
 20
539.67105500000002
 30
0.0
 11
-213.08229900000001
 21
539.67105500000002
 31
0.0
  0
ARC
  5
63A
  8
0
 62
     7
 10
-211.83229900000001
 20
503.92105599999991
 30
0.0
 40
1.25
 50
180.00000299999991
 51
270.00000499999987
  0
ARC
  5
63B
  8
0
 62
     7
 10
-109.332311
 20
503.92105599999991
 30
0.0
 40
1.25
 50
270.00000499999987
 51
0.000001
  0
ARC
  5
63C
  8
0
 62
     7
 10
-211.83229900000001
 20
751.42105700000002
 30
0.0
 40
1.25
 50
90.0
 51
180.00000299999991
  0
ARC
  5
63D
  8
0
 62
     7
 10
-109.332311
 20
751.42105700000002
 30
0.0
 40
1.25
 50
0.000001
 51
90.0
  0
LINE
  5
63E
  8
0
 62
     3
 10
-209.43229400000001
 20
715.67105700000002
 30
0.0
 11
-209.43229400000001
 21
752.67105700000002
 31
0.0
  0
LINE
  5
63F
  8
0
 62
     3
 10
-205.8322949999999
 20
715.67105700000002
 30
0.0
 11
-205.8322949999999
 21
752.67105700000002
 31
0.0
  0
LINE
  5
640
  8
0
 62
     3
 10
-202.2322969999999
 20
715.67105700000002
 30
0.0
 11
-202.2322969999999
 21
752.67105700000002
 31
0.0
  0
LINE
  5
641
  8
0
 62
     3
 10
-198.63229799999991
 20
715.67105700000002
 30
0.0
 11
-198.63229799999991
 21
752.67105700000002
 31
0.0
  0
LINE
  5
642
  8
0
 62
     3
 10
-195.032308
 20
715.67105700000002
 30
0.0
 11
-195.032308
 21
752.67105700000002
 31
0.0
  0
LINE
  5
643
  8
0
 62
     3
 10
-191.43230199999991
 20
715.67105700000002
 30
0.0
 11
-191.43230199999991
 21
752.67105700000002
 31
0.0
  0
LINE
  5
644
  8
0
 62
     3
 10
-187.832311
 20
715.67105700000002
 30
0.0
 11
-187.832311
 21
752.67105700000002
 31
0.0
  0
LINE
  5
645
  8
0
 62
     3
 10
-184.232305
 20
715.67105700000002
 30
0.0
 11
-184.232305
 21
752.67105700000002
 31
0.0
  0
LINE
  5
646
  8
0
 62
     3
 10
-180.63231399999989
 20
715.67105700000002
 30
0.0
 11
-180.63231399999989
 21
752.67105700000002
 31
0.0
  0
LINE
  5
647
  8
0
 62
     3
 10
-177.032308
 20
715.67105700000002
 30
0.0
 11
-177.032308
 21
752.67105700000002
 31
0.0
  0
LINE
  5
648
  8
0
 62
     3
 10
-173.43230199999991
 20
715.67105700000002
 30
0.0
 11
-173.43230199999991
 21
752.67105700000002
 31
0.0
  0
LINE
  5
649
  8
0
 62
     3
 10
-169.832311
 20
715.67105700000002
 30
0.0
 11
-169.832311
 21
752.67105700000002
 31
0.0
  0
LINE
  5
64A
  8
0
 62
     3
 10
-166.23230499999991
 20
715.67105700000002
 30
0.0
 11
-166.23230499999991
 21
752.67105700000002
 31
0.0
  0
LINE
  5
64B
  8
0
 62
     3
 10
-162.63231399999989
 20
715.67105700000002
 30
0.0
 11
-162.63231399999989
 21
752.67105700000002
 31
0.0
  0
LINE
  5
64C
  8
0
 62
     3
 10
-159.032308
 20
715.67105700000002
 30
0.0
 11
-159.032308
 21
752.67105700000002
 31
0.0
  0
LINE
  5
64D
  8
0
 62
     3
 10
-155.43230199999991
 20
715.67105700000002
 30
0.0
 11
-155.43230199999991
 21
752.67105700000002
 31
0.0
  0
LINE
  5
64E
  8
0
 62
     3
 10
-151.832311
 20
715.67105700000002
 30
0.0
 11
-151.832311
 21
752.67105700000002
 31
0.0
  0
LINE
  5
64F
  8
0
 62
     3
 10
-148.23230499999991
 20
715.67105700000002
 30
0.0
 11
-148.23230499999991
 21
752.67105700000002
 31
0.0
  0
LINE
  5
650
  8
0
 62
     3
 10
-144.63231399999989
 20
715.67105700000002
 30
0.0
 11
-144.63231399999989
 21
752.67105700000002
 31
0.0
  0
LINE
  5
651
  8
0
 62
     3
 10
-141.03230799999989
 20
715.67105700000002
 30
0.0
 11
-141.03230799999989
 21
752.67105700000002
 31
0.0
  0
LINE
  5
652
  8
0
 62
     3
 10
-137.43230199999999
 20
715.67105700000002
 30
0.0
 11
-137.43230199999999
 21
752.67105700000002
 31
0.0
  0
LINE
  5
653
  8
0
 62
     3
 10
-133.832311
 20
715.67105700000002
 30
0.0
 11
-133.832311
 21
752.67105700000002
 31
0.0
  0
LINE
  5
654
  8
0
 62
     3
 10
-130.232305
 20
715.67105700000002
 30
0.0
 11
-130.232305
 21
752.67105700000002
 31
0.0
  0
LINE
  5
655
  8
0
 62
     3
 10
-126.63231399999989
 20
715.67105700000002
 30
0.0
 11
-126.63231399999989
 21
752.67105700000002
 31
0.0
  0
LINE
  5
656
  8
0
 62
     3
 10
-123.032308
 20
715.67105700000002
 30
0.0
 11
-123.032308
 21
752.67105700000002
 31
0.0
  0
LINE
  5
657
  8
0
 62
     3
 10
-119.43230200000001
 20
715.67105700000002
 30
0.0
 11
-119.43230200000001
 21
752.67105700000002
 31
0.0
  0
LINE
  5
658
  8
0
 62
     3
 10
-115.8323109999999
 20
715.67105700000002
 30
0.0
 11
-115.8323109999999
 21
752.67105700000002
 31
0.0
  0
LINE
  5
659
  8
0
 62
     3
 10
-112.232305
 20
715.67105700000002
 30
0.0
 11
-112.232305
 21
752.67105700000002
 31
0.0
  0
LINE
  5
65A
  8
0
 62
     3
 10
-209.43229400000001
 20
502.67105599999991
 30
0.0
 11
-209.43229400000001
 21
539.67105500000002
 31
0.0
  0
LINE
  5
65B
  8
0
 62
     3
 10
-205.8322949999999
 20
502.67105599999991
 30
0.0
 11
-205.8322949999999
 21
539.67105500000002
 31
0.0
  0
LINE
  5
65C
  8
0
 62
     3
 10
-202.2322969999999
 20
502.67105599999991
 30
0.0
 11
-202.2322969999999
 21
539.67105500000002
 31
0.0
  0
LINE
  5
65D
  8
0
 62
     3
 10
-198.63229799999991
 20
502.67105599999991
 30
0.0
 11
-198.63229799999991
 21
539.67105500000002
 31
0.0
  0
LINE
  5
65E
  8
0
 62
     3
 10
-195.032308
 20
502.67105599999991
 30
0.0
 11
-195.032308
 21
539.67105500000002
 31
0.0
  0
LINE
  5
65F
  8
0
 62
     3
 10
-191.43230199999991
 20
502.67105599999991
 30
0.0
 11
-191.43230199999991
 21
539.67105500000002
 31
0.0
  0
LINE
  5
660
  8
0
 62
     3
 10
-187.832311
 20
502.67105599999991
 30
0.0
 11
-187.832311
 21
539.67105500000002
 31
0.0
  0
LINE
  5
661
  8
0
 62
     3
 10
-184.232305
 20
502.67105599999991
 30
0.0
 11
-184.232305
 21
539.67105500000002
 31
0.0
  0
LINE
  5
662
  8
0
 62
     3
 10
-180.63231399999989
 20
502.67105599999991
 30
0.0
 11
-180.63231399999989
 21
539.67105500000002
 31
0.0
  0
LINE
  5
663
  8
0
 62
     3
 10
-177.032308
 20
502.67105599999991
 30
0.0
 11
-177.032308
 21
539.67105500000002
 31
0.0
  0
LINE
  5
664
  8
0
 62
     3
 10
-173.43230199999991
 20
502.67105599999991
 30
0.0
 11
-173.43230199999991
 21
539.67105500000002
 31
0.0
  0
LINE
  5
665
  8
0
 62
     3
 10
-169.832311
 20
502.67105599999991
 30
0.0
 11
-169.832311
 21
539.67105500000002
 31
0.0
  0
LINE
  5
666
  8
0
 62
     3
 10
-166.23230499999991
 20
502.67105599999991
 30
0.0
 11
-166.23230499999991
 21
539.67105500000002
 31
0.0
  0
LINE
  5
667
  8
0
 62
     3
 10
-162.63231399999989
 20
502.67105599999991
 30
0.0
 11
-162.63231399999989
 21
539.67105500000002
 31
0.0
  0
LINE
  5
668
  8
0
 62
     3
 10
-159.032308
 20
502.67105599999991
 30
0.0
 11
-159.032308
 21
539.67105500000002
 31
0.0
  0
LINE
  5
669
  8
0
 62
     3
 10
-155.43230199999991
 20
502.67105599999991
 30
0.0
 11
-155.43230199999991
 21
539.67105500000002
 31
0.0
  0
LINE
  5
66A
  8
0
 62
     3
 10
-151.832311
 20
502.67105599999991
 30
0.0
 11
-151.832311
 21
539.67105500000002
 31
0.0
  0
LINE
  5
66B
  8
0
 62
     3
 10
-148.23230499999991
 20
502.67105599999991
 30
0.0
 11
-148.23230499999991
 21
539.67105500000002
 31
0.0
  0
LINE
  5
66C
  8
0
 62
     3
 10
-144.63231399999989
 20
502.67105599999991
 30
0.0
 11
-144.63231399999989
 21
539.67105500000002
 31
0.0
  0
LINE
  5
66D
  8
0
 62
     3
 10
-141.03230799999989
 20
502.67105599999991
 30
0.0
 11
-141.03230799999989
 21
539.67105500000002
 31
0.0
  0
LINE
  5
66E
  8
0
 62
     3
 10
-137.43230199999999
 20
502.67105599999991
 30
0.0
 11
-137.43230199999999
 21
539.67105500000002
 31
0.0
  0
LINE
  5
66F
  8
0
 62
     3
 10
-133.832311
 20
502.67105599999991
 30
0.0
 11
-133.832311
 21
539.67105500000002
 31
0.0
  0
LINE
  5
670
  8
0
 62
     3
 10
-130.232305
 20
502.67105599999991
 30
0.0
 11
-130.232305
 21
539.67105500000002
 31
0.0
  0
LINE
  5
671
  8
0
 62
     3
 10
-126.63231399999989
 20
502.67105599999991
 30
0.0
 11
-126.63231399999989
 21
539.67105500000002
 31
0.0
  0
LINE
  5
672
  8
0
 62
     3
 10
-123.032308
 20
502.67105599999991
 30
0.0
 11
-123.032308
 21
539.67105500000002
 31
0.0
  0
LINE
  5
673
  8
0
 62
     3
 10
-119.43230200000001
 20
502.67105599999991
 30
0.0
 11
-119.43230200000001
 21
539.67105500000002
 31
0.0
  0
LINE
  5
674
  8
0
 62
     3
 10
-115.8323109999999
 20
502.67105599999991
 30
0.0
 11
-115.8323109999999
 21
539.67105500000002
 31
0.0
  0
LINE
  5
675
  8
0
 62
     3
 10
-112.232305
 20
502.67105599999991
 30
0.0
 11
-112.232305
 21
539.67105500000002
 31
0.0
  0
LINE
  5
676
  8
0
 62
     3
 10
-195.032308
 20
540.17105500000002
 30
0.0
 11
-195.032308
 21
544.921065
 31
0.0
  0
LINE
  5
677
  8
0
 62
     3
 10
-198.63229799999991
 20
540.17105500000002
 30
0.0
 11
-198.63229799999991
 21
544.921065
 31
0.0
  0
LINE
  5
678
  8
0
 62
     3
 10
-202.2322969999999
 20
540.17105500000002
 30
0.0
 11
-202.2322969999999
 21
544.921065
 31
0.0
  0
LINE
  5
679
  8
0
 62
     3
 10
-205.8322949999999
 20
540.17105500000002
 30
0.0
 11
-205.8322949999999
 21
544.921065
 31
0.0
  0
LINE
  5
67A
  8
0
 62
     3
 10
-209.43229400000001
 20
540.17105500000002
 30
0.0
 11
-209.43229400000001
 21
544.921065
 31
0.0
  0
CIRCLE
  5
67B
  8
0
 62
     7
 10
-104.828191
 20
552.51108399999987
 30
0.0
 40
0.2
  0
CIRCLE
  5
67C
  8
0
 62
     7
 10
2.789820999999999
 20
578.10694699999999
 30
0.0
 40
0.2
  0
LINE
  5
67D
  8
0
 62
     7
 10
-108.082311
 20
766.63181099999997
 30
0.0
 11
-113.991185
 21
767.67369699999995
 31
0.0
  0
LINE
  5
67E
  8
0
 62
     7
 10
-108.082311
 20
766.63181099999997
 30
0.0
 11
-113.991185
 21
765.58991100000003
 31
0.0
  0
LINE
  5
67F
  8
0
 62
     7
 10
-213.08231099999989
 20
766.63184200000001
 30
0.0
 11
-207.17343600000001
 21
765.58994099999995
 31
0.0
  0
LINE
  5
680
  8
0
 62
     7
 10
-213.08231099999989
 20
766.63184200000001
 30
0.0
 11
-207.17343600000001
 21
767.67372699999999
 31
0.0
  0
LINE
  5
681
  8
0
 62
     7
 10
-108.082311
 20
766.63181099999997
 30
0.0
 11
-213.08231099999989
 21
766.63184200000001
 31
0.0
  0
LINE
  5
682
  8
0
 62
     7
 10
-108.082311
 20
770.63181099999997
 30
0.0
 11
-108.08237199999991
 21
677.42105700000002
 31
0.0
  0
LINE
  5
683
  8
0
 62
     7
 10
-213.08231099999989
 20
770.63184200000001
 30
0.0
 11
-213.08231099999989
 21
677.42108700000006
 31
0.0
  0
LINE
  5
684
  8
0
 62
     7
 10
-125.58225
 20
468.41336599999988
 30
0.0
 11
-131.4911239999999
 21
469.45525599999991
 31
0.0
  0
LINE
  5
685
  8
0
 62
     7
 10
-125.58225
 20
468.41336599999988
 30
0.0
 11
-131.4911239999999
 21
467.37147700000003
 31
0.0
  0
LINE
  5
686
  8
0
 62
     7
 10
-160.582311
 20
468.41338200000001
 30
0.0
 11
-154.67343600000001
 21
467.37148899999988
 31
0.0
  0
LINE
  5
687
  8
0
 62
     7
 10
-160.582311
 20
468.41338200000001
 30
0.0
 11
-154.67343600000001
 21
469.45526699999999
 31
0.0
  0
LINE
  5
688
  8
0
 62
     7
 10
-160.582311
 20
468.41338200000001
 30
0.0
 11
-166.491185
 21
469.45526699999999
 31
0.0
  0
LINE
  5
689
  8
0
 62
     7
 10
-160.582311
 20
468.41338200000001
 30
0.0
 11
-166.491185
 21
467.37148899999988
 31
0.0
  0
LINE
  5
68A
  8
0
 62
     7
 10
-195.582311
 20
468.41338899999988
 30
0.0
 11
-189.67349699999991
 21
467.37150000000003
 31
0.0
  0
LINE
  5
68B
  8
0
 62
     7
 10
-195.582311
 20
468.41338899999988
 30
0.0
 11
-189.67349699999991
 21
469.45527900000002
 31
0.0
  0
LINE
  5
68C
  8
0
 62
     7
 10
-125.58225
 20
468.41336599999988
 30
0.0
 11
-195.582311
 21
468.41338899999988
 31
0.0
  0
LINE
  5
68D
  8
0
 62
     7
 10
-125.58225
 20
464.413366
 30
0.0
 11
-125.58225
 21
546.67080499999997
 31
0.0
  0
LINE
  5
68E
  8
0
 62
     7
 10
-195.582311
 20
464.41338899999988
 30
0.0
 11
-195.582311
 21
540.17107999999996
 31
0.0
  0
LINE
  5
68F
  8
0
 62
     7
 10
-251.19595799999999
 20
540.17105500000002
 30
0.0
 11
-250.15402700000001
 21
546.07990099999995
 31
0.0
  0
LINE
  5
690
  8
0
 62
     7
 10
-251.19595799999999
 20
540.17105500000002
 30
0.0
 11
-252.23782799999989
 21
546.07990099999995
 31
0.0
  0
LINE
  5
691
  8
0
 62
     7
 10
-251.19595799999999
 20
715.17105700000002
 30
0.0
 11
-252.23782799999989
 21
709.26219800000001
 31
0.0
  0
LINE
  5
692
  8
0
 62
     7
 10
-251.19595799999999
 20
715.17105700000002
 30
0.0
 11
-250.15402700000001
 21
709.26219800000001
 31
0.0
  0
LINE
  5
693
  8
0
 62
     7
 10
-251.19595799999999
 20
540.17105500000002
 30
0.0
 11
-251.19595799999999
 21
715.17104199999994
 31
0.0
  0
LINE
  5
694
  8
0
 62
     7
 10
-255.19595799999999
 20
540.17105500000002
 30
0.0
 11
-211.83231099999989
 21
540.17105700000002
 31
0.0
  0
LINE
  5
695
  8
0
 62
     7
 10
-255.19595799999999
 20
715.17105700000002
 30
0.0
 11
-211.83231099999989
 21
715.17105700000002
 31
0.0
  0
LINE
  5
696
  8
0
 62
     7
 10
-233.82938100000001
 20
625.421065
 30
0.0
 11
-232.78745000000001
 21
631.32991600000003
 31
0.0
  0
LINE
  5
697
  8
0
 62
     7
 10
-233.82938100000001
 20
625.421065
 30
0.0
 11
-234.87125099999989
 21
631.32991600000003
 31
0.0
  0
LINE
  5
698
  8
0
 62
     7
 10
-233.82938100000001
 20
715.17105700000002
 30
0.0
 11
-234.87125099999989
 21
709.26219800000001
 31
0.0
  0
LINE
  5
699
  8
0
 62
     7
 10
-233.82938100000001
 20
715.17105700000002
 30
0.0
 11
-232.78745000000001
 21
709.26219800000001
 31
0.0
  0
LINE
  5
69A
  8
0
 62
     7
 10
-233.82938100000001
 20
625.421065
 30
0.0
 11
-233.82938100000001
 21
715.17105700000002
 31
0.0
  0
LINE
  5
69B
  8
0
 62
     7
 10
-237.82938100000001
 20
715.17105700000002
 30
0.0
 11
-211.83231099999989
 21
715.17105700000002
 31
0.0
  0
LINE
  5
69C
  8
0
 62
     7
 10
-268.64023300000002
 20
625.421065
 30
0.0
 11
-267.59830199999988
 21
631.32991600000003
 31
0.0
  0
LINE
  5
69D
  8
0
 62
     7
 10
-268.64023300000002
 20
625.421065
 30
0.0
 11
-269.68210299999993
 21
631.32991600000003
 31
0.0
  0
LINE
  5
69E
  8
0
 62
     7
 10
-268.64023300000002
 20
752.67105700000002
 30
0.0
 11
-269.68210299999993
 21
746.76219800000001
 31
0.0
  0
LINE
  5
69F
  8
0
 62
     7
 10
-268.64023300000002
 20
752.67105700000002
 30
0.0
 11
-267.59830199999988
 21
746.76219800000001
 31
0.0
  0
LINE
  5
6A0
  8
0
 62
     7
 10
-268.64023300000002
 20
625.421065
 30
0.0
 11
-268.64023300000002
 21
752.67105700000002
 31
0.0
  0
LINE
  5
6A1
  8
0
 62
     7
 10
-272.64023300000002
 20
625.421065
 30
0.0
 11
-239.618199
 21
625.421065
 31
0.0
  0
LINE
  5
6A2
  8
0
 62
     7
 10
-272.64023300000002
 20
752.67105700000002
 30
0.0
 11
-211.83231099999989
 21
752.67105700000002
 31
0.0
  0
LINE
  5
6A3
  8
0
 62
     7
 10
-285.76077700000002
 20
502.67105499999991
 30
0.0
 11
-284.71884599999993
 21
508.579903
 31
0.0
  0
LINE
  5
6A4
  8
0
 62
     7
 10
-285.76077700000002
 20
502.67105499999991
 30
0.0
 11
-286.80264799999992
 21
508.57990199999989
 31
0.0
  0
LINE
  5
6A5
  8
0
 62
     7
 10
-285.76077700000002
 20
752.67105700000002
 30
0.0
 11
-286.80264799999992
 21
746.76219800000001
 31
0.0
  0
LINE
  5
6A6
  8
0
 62
     7
 10
-285.76077700000002
 20
752.67105700000002
 30
0.0
 11
-284.71884599999993
 21
746.76219800000001
 31
0.0
  0
LINE
  5
6A7
  8
0
 62
     7
 10
-285.76077700000002
 20
502.67105499999991
 30
0.0
 11
-285.76077700000002
 21
752.67105700000002
 31
0.0
  0
LINE
  5
6A8
  8
0
 62
     7
 10
-289.76077700000002
 20
502.67105499999991
 30
0.0
 11
-211.83231099999989
 21
502.6710589999999
 31
0.0
  0
LINE
  5
6A9
  8
0
 62
     7
 10
-289.76077700000002
 20
752.67105700000002
 30
0.0
 11
-211.83231099999989
 21
752.67105700000002
 31
0.0
  0
LINE
  5
6AA
  8
0
 62
     7
 10
-102.082311
 20
786.79134199999987
 30
0.0
 11
-107.991185
 21
787.833212
 31
0.0
  0
LINE
  5
6AB
  8
0
 62
     7
 10
-102.082311
 20
786.79134199999987
 30
0.0
 11
-107.991185
 21
785.74944100000005
 31
0.0
  0
LINE
  5
6AC
  8
0
 62
     7
 10
-219.08231099999989
 20
786.79134199999987
 30
0.0
 11
-213.1734359999999
 21
785.74944100000005
 31
0.0
  0
LINE
  5
6AD
  8
0
 62
     7
 10
-219.08231099999989
 20
786.79134199999987
 30
0.0
 11
-213.1734359999999
 21
787.833212
 31
0.0
  0
LINE
  5
6AE
  8
0
 62
     7
 10
-102.082311
 20
786.79134199999987
 30
0.0
 11
-219.08231099999989
 21
786.79134199999987
 31
0.0
  0
LINE
  5
6AF
  8
0
 62
     7
 10
-102.082311
 20
790.79134199999987
 30
0.0
 11
-102.082311
 21
704.67105700000002
 31
0.0
  0
LINE
  5
6B0
  8
0
 62
     7
 10
-219.08231099999989
 20
790.79134199999987
 30
0.0
 11
-219.08231099999989
 21
704.67105700000002
 31
0.0
  0
LINE
  5
6B1
  8
0
 62
     7
 10
-79.777012999999997
 20
544.921065
 30
0.0
 11
-78.735142999999994
 21
550.82991200000004
 31
0.0
  0
LINE
  5
6B2
  8
0
 62
     7
 10
-79.777012999999997
 20
544.921065
 30
0.0
 11
-80.818943999999988
 21
550.82991200000004
 31
0.0
  0
LINE
  5
6B3
  8
0
 62
     7
 10
-79.777012999999997
 20
705.92107199999998
 30
0.0
 11
-80.818943999999988
 21
700.01221299999997
 31
0.0
  0
LINE
  5
6B4
  8
0
 62
     7
 10
-79.777012999999997
 20
705.92107199999998
 30
0.0
 11
-78.735142999999994
 21
700.01221299999997
 31
0.0
  0
LINE
  5
6B5
  8
0
 62
     7
 10
-79.777012999999997
 20
544.921065
 30
0.0
 11
-79.777012999999997
 21
705.92105700000002
 31
0.0
  0
LINE
  5
6B6
  8
0
 62
     7
 10
-75.777012999999997
 20
544.921065
 30
0.0
 11
-103.3323109999999
 21
544.921063
 31
0.0
  0
LINE
  5
6B7
  8
0
 62
     7
 10
-75.777012999999997
 20
705.92107199999998
 30
0.0
 11
-103.3323109999999
 21
705.92107199999998
 31
0.0
  0
LINE
  5
6B8
  8
0
 62
     7
 10
426.598457
 20
569.42106299999989
 30
0.0
 11
538.59845700000005
 21
569.42106299999989
 31
0.0
  0
LINE
  5
6B9
  8
0
 62
     7
 10
426.598457
 20
681.42106299999989
 30
0.0
 11
538.59845700000005
 21
681.42106299999989
 31
0.0
  0
LINE
  5
6BA
  8
0
 62
     7
 10
426.598457
 20
681.42106299999989
 30
0.0
 11
426.598457
 21
569.42106299999989
 31
0.0
  0
LINE
  5
6BB
  8
0
 62
     7
 10
538.59845700000005
 20
681.42106299999989
 30
0.0
 11
538.59845700000005
 21
569.42106299999989
 31
0.0
  0
LINE
  5
6BC
  8
0
  6
DASHDOT
 62
     7
 10
482.59845700000011
 20
755.30693499999995
 30
0.0
 11
482.59845700000011
 21
527.93404899999996
 31
0.0
  0
CIRCLE
  5
6BD
  8
0
 62
     7
 10
442.598457
 20
696.421063
 30
0.0
 40
3.5
  0
CIRCLE
  5
6BE
  8
0
 62
     7
 10
522.59845700000005
 20
696.421063
 30
0.0
 40
3.5
  0
CIRCLE
  5
6BF
  8
0
 62
     7
 10
522.59845700000005
 20
554.421063
 30
0.0
 40
3.5
  0
CIRCLE
  5
6C0
  8
0
 62
     7
 10
442.598457
 20
554.421063
 30
0.0
 40
3.5
  0
POLYLINE
  5
6C1
  8
0
 62
     3
 66
     1
 10
0.0
 20
0.0
 30
0.0
  0
VERTEX
  5
CCC
  8
0
 62
     3
 10
410.7404709999999
 20
705.82026399999995
 30
0.0
  0
VERTEX
  5
CCD
  8
0
 62
     3
 10
426.74047100000001
 20
705.82026399999995
 30
0.0
  0
VERTEX
  5
CCE
  8
0
 62
     3
 10
427.7404709999999
 20
707.82026399999995
 30
0.0
  0
VERTEX
  5
CCF
  8
0
 62
     3
 10
428.74047100000001
 20
703.82026399999995
 30
0.0
  0
VERTEX
  5
CD0
  8
0
 62
     3
 10
429.74047100000001
 20
705.82026399999995
 30
0.0
  0
VERTEX
  5
CD1
  8
0
 62
     3
 10
445.74047100000001
 20
705.82026399999995
 30
0.0
  0
VERTEX
  5
CD2
  8
0
 62
     3
 10
446.74047100000001
 20
707.82026399999995
 30
0.0
  0
VERTEX
  5
CD3
  8
0
 62
     3
 10
447.74047100000001
 20
703.82026399999995
 30
0.0
  0
VERTEX
  5
CD4
  8
0
 62
     3
 10
448.7404709999999
 20
705.82026399999995
 30
0.0
  0
VERTEX
  5
CD5
  8
0
 62
     3
 10
464.7404709999999
 20
705.82026399999995
 30
0.0
  0
VERTEX
  5
CD6
  8
0
 62
     3
 10
465.74047100000001
 20
707.82026399999995
 30
0.0
  0
VERTEX
  5
CD7
  8
0
 62
     3
 10
466.74047100000001
 20
703.82026399999995
 30
0.0
  0
VERTEX
  5
CD8
  8
0
 62
     3
 10
467.74047100000001
 20
705.82026399999995
 30
0.0
  0
VERTEX
  5
CD9
  8
0
 62
     3
 10
483.74047100000001
 20
705.82026399999995
 30
0.0
  0
VERTEX
  5
CDA
  8
0
 62
     3
 10
484.74047100000001
 20
707.82026399999995
 30
0.0
  0
VERTEX
  5
CDB
  8
0
 62
     3
 10
485.7404709999999
 20
703.82026399999995
 30
0.0
  0
VERTEX
  5
CDC
  8
0
 62
     3
 10
486.74047100000001
 20
705.82026399999995
 30
0.0
  0
VERTEX
  5
CDD
  8
0
 62
     3
 10
502.7404709999999
 20
705.82026399999995
 30
0.0
  0
VERTEX
  5
CDE
  8
0
 62
     3
 10
503.74047100000001
 20
707.82026399999995
 30
0.0
  0
VERTEX
  5
CDF
  8
0
 62
     3
 10
504.74047100000001
 20
703.82026399999995
 30
0.0
  0
VERTEX
  5
CE0
  8
0
 62
     3
 10
505.74047100000001
 20
705.82026399999995
 30
0.0
  0
VERTEX
  5
CE1
  8
0
 62
     3
 10
521.74047099999996
 20
705.82026399999995
 30
0.0
  0
VERTEX
  5
CE2
  8
0
 62
     3
 10
522.74047099999996
 20
707.82026399999995
 30
0.0
  0
VERTEX
  5
CE3
  8
0
 62
     3
 10
523.74047099999996
 20
703.82026399999995
 30
0.0
  0
VERTEX
  5
CE4
  8
0
 62
     3
 10
524.74047099999996
 20
705.82026399999995
 30
0.0
  0
VERTEX
  5
CE5
  8
0
 62
     3
 10
540.74047099999996
 20
705.82026399999995
 30
0.0
  0
VERTEX
  5
CE6
  8
0
 62
     3
 10
541.74047099999996
 20
707.82026399999995
 30
0.0
  0
VERTEX
  5
CE7
  8
0
 62
     3
 10
542.74047099999996
 20
703.82026399999995
 30
0.0
  0
VERTEX
  5
CE8
  8
0
 62
     3
 10
543.74047099999996
 20
705.82026399999995
 30
0.0
  0
VERTEX
  5
CE9
  8
0
 62
     3
 10
553.95394899999997
 20
705.82026399999995
 30
0.0
  0
SEQEND
  5
CEA
  8
0
 62
     3
  0
POLYLINE
  5
6E1
  8
0
 62
     3
 66
     1
 10
0.0
 20
0.0
 30
0.0
  0
VERTEX
  5
CEB
  8
0
 62
     3
 10
410.7404709999999
 20
540.99914299999989
 30
0.0
  0
VERTEX
  5
CEC
  8
0
 62
     3
 10
426.74047100000001
 20
540.99914299999989
 30
0.0
  0
VERTEX
  5
CED
  8
0
 62
     3
 10
427.7404709999999
 20
542.999143
 30
0.0
  0
VERTEX
  5
CEE
  8
0
 62
     3
 10
428.74047100000001
 20
538.999143
 30
0.0
  0
VERTEX
  5
CEF
  8
0
 62
     3
 10
429.74047100000001
 20
540.99914299999989
 30
0.0
  0
VERTEX
  5
CF0
  8
0
 62
     3
 10
445.74047100000001
 20
540.99914299999989
 30
0.0
  0
VERTEX
  5
CF1
  8
0
 62
     3
 10
446.74047100000001
 20
542.999143
 30
0.0
  0
VERTEX
  5
CF2
  8
0
 62
     3
 10
447.74047100000001
 20
538.999143
 30
0.0
  0
VERTEX
  5
CF3
  8
0
 62
     3
 10
448.7404709999999
 20
540.99914299999989
 30
0.0
  0
VERTEX
  5
CF4
  8
0
 62
     3
 10
464.7404709999999
 20
540.99914299999989
 30
0.0
  0
VERTEX
  5
CF5
  8
0
 62
     3
 10
465.74047100000001
 20
542.999143
 30
0.0
  0
VERTEX
  5
CF6
  8
0
 62
     3
 10
466.74047100000001
 20
538.999143
 30
0.0
  0
VERTEX
  5
CF7
  8
0
 62
     3
 10
467.74047100000001
 20
540.99914299999989
 30
0.0
  0
VERTEX
  5
CF8
  8
0
 62
     3
 10
483.74047100000001
 20
540.99914299999989
 30
0.0
  0
VERTEX
  5
CF9
  8
0
 62
     3
 10
484.74047100000001
 20
542.999143
 30
0.0
  0
VERTEX
  5
CFA
  8
0
 62
     3
 10
485.7404709999999
 20
538.999143
 30
0.0
  0
VERTEX
  5
CFB
  8
0
 62
     3
 10
486.74047100000001
 20
540.99914299999989
 30
0.0
  0
VERTEX
  5
CFC
  8
0
 62
     3
 10
502.7404709999999
 20
540.99914299999989
 30
0.0
  0
VERTEX
  5
CFD
  8
0
 62
     3
 10
503.74047100000001
 20
542.999143
 30
0.0
  0
VERTEX
  5
CFE
  8
0
 62
     3
 10
504.74047100000001
 20
538.999143
 30
0.0
  0
VERTEX
  5
CFF
  8
0
 62
     3
 10
505.74047100000001
 20
540.99914299999989
 30
0.0
  0
VERTEX
  5
D00
  8
0
 62
     3
 10
521.74047099999996
 20
540.99914299999989
 30
0.0
  0
VERTEX
  5
D01
  8
0
 62
     3
 10
522.74047099999996
 20
542.999143
 30
0.0
  0
VERTEX
  5
D02
  8
0
 62
     3
 10
523.74047099999996
 20
538.999143
 30
0.0
  0
VERTEX
  5
D03
  8
0
 62
     3
 10
524.74047099999996
 20
540.99914299999989
 30
0.0
  0
VERTEX
  5
D04
  8
0
 62
     3
 10
540.74047099999996
 20
540.99914299999989
 30
0.0
  0
VERTEX
  5
D05
  8
0
 62
     3
 10
541.74047099999996
 20
542.999143
 30
0.0
  0
VERTEX
  5
D06
  8
0
 62
     3
 10
542.74047099999996
 20
538.999143
 30
0.0
  0
VERTEX
  5
D07
  8
0
 62
     3
 10
543.74047099999996
 20
540.99914299999989
 30
0.0
  0
VERTEX
  5
D08
  8
0
 62
     3
 10
553.95394899999997
 20
540.99914299999989
 30
0.0
  0
SEQEND
  5
D09
  8
0
 62
     3
  0
POLYLINE
  5
701
  8
0
 62
     3
 66
     1
 10
0.0
 20
0.0
 30
0.0
  0
VERTEX
  5
D0A
  8
0
 62
     3
 10
553.95394899999997
 20
705.82026399999995
 30
0.0
  0
VERTEX
  5
D0B
  8
0
 62
     3
 10
553.95394899999997
 20
689.82026399999995
 30
0.0
  0
VERTEX
  5
D0C
  8
0
 62
     3
 10
555.95394899999985
 20
688.82026399999995
 30
0.0
  0
VERTEX
  5
D0D
  8
0
 62
     3
 10
551.95394899999985
 20
687.82026399999995
 30
0.0
  0
VERTEX
  5
D0E
  8
0
 62
     3
 10
553.95394899999997
 20
686.82026399999995
 30
0.0
  0
VERTEX
  5
D0F
  8
0
 62
     3
 10
553.95394899999997
 20
670.82026399999995
 30
0.0
  0
VERTEX
  5
D10
  8
0
 62
     3
 10
555.95394899999985
 20
669.82026399999995
 30
0.0
  0
VERTEX
  5
D11
  8
0
 62
     3
 10
551.95394899999985
 20
668.82026399999995
 30
0.0
  0
VERTEX
  5
D12
  8
0
 62
     3
 10
553.95394899999997
 20
667.82026399999995
 30
0.0
  0
VERTEX
  5
D13
  8
0
 62
     3
 10
553.95394899999997
 20
651.82026399999995
 30
0.0
  0
VERTEX
  5
D14
  8
0
 62
     3
 10
555.95394899999985
 20
650.82026399999995
 30
0.0
  0
VERTEX
  5
D15
  8
0
 62
     3
 10
551.95394899999985
 20
649.82026399999995
 30
0.0
  0
VERTEX
  5
D16
  8
0
 62
     3
 10
553.95394899999997
 20
648.82026399999995
 30
0.0
  0
VERTEX
  5
D17
  8
0
 62
     3
 10
553.95394899999997
 20
632.82026399999995
 30
0.0
  0
VERTEX
  5
D18
  8
0
 62
     3
 10
555.95394899999985
 20
631.82026399999995
 30
0.0
  0
VERTEX
  5
D19
  8
0
 62
     3
 10
551.95394899999985
 20
630.82026399999995
 30
0.0
  0
VERTEX
  5
D1A
  8
0
 62
     3
 10
553.95394899999997
 20
629.82026399999995
 30
0.0
  0
VERTEX
  5
D1B
  8
0
 62
     3
 10
553.95394899999997
 20
613.82026399999995
 30
0.0
  0
VERTEX
  5
D1C
  8
0
 62
     3
 10
555.95394899999985
 20
612.82026399999995
 30
0.0
  0
VERTEX
  5
D1D
  8
0
 62
     3
 10
551.95394899999985
 20
611.82026399999995
 30
0.0
  0
VERTEX
  5
D1E
  8
0
 62
     3
 10
553.95394899999997
 20
610.82026399999995
 30
0.0
  0
VERTEX
  5
D1F
  8
0
 62
     3
 10
553.95394899999997
 20
594.82026399999995
 30
0.0
  0
VERTEX
  5
D20
  8
0
 62
     3
 10
555.95394899999985
 20
593.82026399999995
 30
0.0
  0
VERTEX
  5
D21
  8
0
 62
     3
 10
551.95394899999985
 20
592.82026399999995
 30
0.0
  0
VERTEX
  5
D22
  8
0
 62
     3
 10
553.95394899999997
 20
591.82026399999995
 30
0.0
  0
VERTEX
  5
D23
  8
0
 62
     3
 10
553.95394899999997
 20
575.82026399999995
 30
0.0
  0
VERTEX
  5
D24
  8
0
 62
     3
 10
555.95394899999985
 20
574.82026399999995
 30
0.0
  0
VERTEX
  5
D25
  8
0
 62
     3
 10
551.95394899999985
 20
573.82026399999995
 30
0.0
  0
VERTEX
  5
D26
  8
0
 62
     3
 10
553.95394899999997
 20
572.82026399999995
 30
0.0
  0
VERTEX
  5
D27
  8
0
 62
     3
 10
553.95394899999997
 20
556.82026399999995
 30
0.0
  0
VERTEX
  5
D28
  8
0
 62
     3
 10
555.95394899999985
 20
555.82026399999995
 30
0.0
  0
VERTEX
  5
D29
  8
0
 62
     3
 10
551.95394899999985
 20
554.82026399999995
 30
0.0
  0
VERTEX
  5
D2A
  8
0
 62
     3
 10
553.95394899999997
 20
553.82026399999995
 30
0.0
  0
VERTEX
  5
D2B
  8
0
 62
     3
 10
553.95394899999997
 20
540.99914299999989
 30
0.0
  0
SEQEND
  5
D2C
  8
0
 62
     3
  0
POLYLINE
  5
725
  8
0
 62
     3
 66
     1
 10
0.0
 20
0.0
 30
0.0
  0
VERTEX
  5
D2D
  8
0
 62
     3
 10
410.7404709999999
 20
705.82026399999995
 30
0.0
  0
VERTEX
  5
D2E
  8
0
 62
     3
 10
410.7404709999999
 20
689.82026399999995
 30
0.0
  0
VERTEX
  5
D2F
  8
0
 62
     3
 10
412.74047100000001
 20
688.82026399999995
 30
0.0
  0
VERTEX
  5
D30
  8
0
 62
     3
 10
408.74047100000001
 20
687.82026399999995
 30
0.0
  0
VERTEX
  5
D31
  8
0
 62
     3
 10
410.7404709999999
 20
686.82026399999995
 30
0.0
  0
VERTEX
  5
D32
  8
0
 62
     3
 10
410.7404709999999
 20
670.82026399999995
 30
0.0
  0
VERTEX
  5
D33
  8
0
 62
     3
 10
412.74047100000001
 20
669.82026399999995
 30
0.0
  0
VERTEX
  5
D34
  8
0
 62
     3
 10
408.74047100000001
 20
668.82026399999995
 30
0.0
  0
VERTEX
  5
D35
  8
0
 62
     3
 10
410.7404709999999
 20
667.82026399999995
 30
0.0
  0
VERTEX
  5
D36
  8
0
 62
     3
 10
410.7404709999999
 20
651.82026399999995
 30
0.0
  0
VERTEX
  5
D37
  8
0
 62
     3
 10
412.74047100000001
 20
650.82026399999995
 30
0.0
  0
VERTEX
  5
D38
  8
0
 62
     3
 10
408.74047100000001
 20
649.82026399999995
 30
0.0
  0
VERTEX
  5
D39
  8
0
 62
     3
 10
410.7404709999999
 20
648.82026399999995
 30
0.0
  0
VERTEX
  5
D3A
  8
0
 62
     3
 10
410.7404709999999
 20
632.82026399999995
 30
0.0
  0
VERTEX
  5
D3B
  8
0
 62
     3
 10
412.74047100000001
 20
631.82026399999995
 30
0.0
  0
VERTEX
  5
D3C
  8
0
 62
     3
 10
408.74047100000001
 20
630.82026399999995
 30
0.0
  0
VERTEX
  5
D3D
  8
0
 62
     3
 10
410.7404709999999
 20
629.82026399999995
 30
0.0
  0
VERTEX
  5
D3E
  8
0
 62
     3
 10
410.7404709999999
 20
613.82026399999995
 30
0.0
  0
VERTEX
  5
D3F
  8
0
 62
     3
 10
412.74047100000001
 20
612.82026399999995
 30
0.0
  0
VERTEX
  5
D40
  8
0
 62
     3
 10
408.74047100000001
 20
611.82026399999995
 30
0.0
  0
VERTEX
  5
D41
  8
0
 62
     3
 10
410.7404709999999
 20
610.82026399999995
 30
0.0
  0
VERTEX
  5
D42
  8
0
 62
     3
 10
410.7404709999999
 20
594.82026399999995
 30
0.0
  0
VERTEX
  5
D43
  8
0
 62
     3
 10
412.74047100000001
 20
593.82026399999995
 30
0.0
  0
VERTEX
  5
D44
  8
0
 62
     3
 10
408.74047100000001
 20
592.82026399999995
 30
0.0
  0
VERTEX
  5
D45
  8
0
 62
     3
 10
410.7404709999999
 20
591.82026399999995
 30
0.0
  0
VERTEX
  5
D46
  8
0
 62
     3
 10
410.7404709999999
 20
575.82026399999995
 30
0.0
  0
VERTEX
  5
D47
  8
0
 62
     3
 10
412.74047100000001
 20
574.82026399999995
 30
0.0
  0
VERTEX
  5
D48
  8
0
 62
     3
 10
408.74047100000001
 20
573.82026399999995
 30
0.0
  0
VERTEX
  5
D49
  8
0
 62
     3
 10
410.7404709999999
 20
572.82026399999995
 30
0.0
  0
VERTEX
  5
D4A
  8
0
 62
     3
 10
410.7404709999999
 20
556.82026399999995
 30
0.0
  0
VERTEX
  5
D4B
  8
0
 62
     3
 10
412.74047100000001
 20
555.82026399999995
 30
0.0
  0
VERTEX
  5
D4C
  8
0
 62
     3
 10
408.74047100000001
 20
554.82026399999995
 30
0.0
  0
VERTEX
  5
D4D
  8
0
 62
     3
 10
410.7404709999999
 20
553.82026399999995
 30
0.0
  0
VERTEX
  5
D4E
  8
0
 62
     3
 10
410.7404709999999
 20
540.99914299999989
 30
0.0
  0
SEQEND
  5
D4F
  8
0
 62
     3
  0
LINE
  5
749
  8
0
  6
DASHDOT
 62
     7
 10
522.59845700000005
 20
702.921063
 30
0.0
 11
522.59845700000005
 21
689.92106299999989
 31
0.0
  0
LINE
  5
74A
  8
0
  6
DASHDOT
 62
     7
 10
516.09845700000005
 20
696.421063
 30
0.0
 11
529.09845700000005
 21
696.421063
 31
0.0
  0
LINE
  5
74B
  8
0
  6
DASHDOT
 62
     7
 10
442.598457
 20
702.921063
 30
0.0
 11
442.598457
 21
689.92106299999989
 31
0.0
  0
LINE
  5
74C
  8
0
  6
DASHDOT
 62
     7
 10
436.098457
 20
696.421063
 30
0.0
 11
449.09845700000011
 21
696.421063
 31
0.0
  0
LINE
  5
74D
  8
0
  6
DASHDOT
 62
     7
 10
442.598457
 20
560.92106299999989
 30
0.0
 11
442.598457
 21
547.92106299999989
 31
0.0
  0
LINE
  5
74E
  8
0
  6
DASHDOT
 62
     7
 10
436.098457
 20
554.421063
 30
0.0
 11
449.09845700000011
 21
554.421063
 31
0.0
  0
LINE
  5
74F
  8
0
  6
DASHDOT
 62
     7
 10
522.59845700000005
 20
560.92106299999989
 30
0.0
 11
522.59845700000005
 21
547.92106299999989
 31
0.0
  0
LINE
  5
750
  8
0
  6
DASHDOT
 62
     7
 10
516.09845700000005
 20
554.421063
 30
0.0
 11
529.09845700000005
 21
554.421063
 31
0.0
  0
CIRCLE
  5
751
  8
0
 62
     7
 10
417.2730029999999
 20
700.53406200000006
 30
0.0
 40
0.25
  0
LINE
  5
752
  8
0
  6
DASHDOT
 62
     7
 10
379.52061499999991
 20
625.421063
 30
0.0
 11
585.71423300000004
 21
625.421063
 31
0.0
  0
LINE
  5
753
  8
0
 62
     7
 10
372.55020899999988
 20
681.42106299999989
 30
0.0
 11
370.46643799999998
 21
669.60337500000003
 31
0.0
  0
LINE
  5
754
  8
0
 62
     7
 10
372.55020899999988
 20
681.42106299999989
 30
0.0
 11
374.63398000000001
 21
669.60337500000003
 31
0.0
  0
LINE
  5
755
  8
0
 62
     7
 10
372.55020899999988
 20
569.42106299999989
 30
0.0
 11
374.63398000000001
 21
581.23875099999987
 31
0.0
  0
LINE
  5
756
  8
0
 62
     7
 10
372.55020899999988
 20
569.42106299999989
 30
0.0
 11
370.466408
 21
581.23875099999987
 31
0.0
  0
LINE
  5
757
  8
0
 62
     7
 10
372.55020899999988
 20
681.42106299999989
 30
0.0
 11
372.55020899999988
 21
569.42106299999989
 31
0.0
  0
LINE
  5
758
  8
0
 62
     7
 10
364.55020899999988
 20
681.42106299999989
 30
0.0
 11
426.598457
 21
681.42106299999989
 31
0.0
  0
LINE
  5
759
  8
0
 62
     7
 10
364.55020899999988
 20
569.42106299999989
 30
0.0
 11
426.598457
 21
569.42106299999989
 31
0.0
  0
LINE
  5
75A
  8
0
 62
     7
 10
346.92252300000001
 20
696.421063
 30
0.0
 11
344.838753
 21
684.60337500000003
 31
0.0
  0
LINE
  5
75B
  8
0
 62
     7
 10
346.92252300000001
 20
696.421063
 30
0.0
 11
349.00629399999991
 21
684.60337500000003
 31
0.0
  0
LINE
  5
75C
  8
0
 62
     7
 10
346.92252300000001
 20
554.421063
 30
0.0
 11
349.00629399999991
 21
566.23875099999998
 31
0.0
  0
LINE
  5
75D
  8
0
 62
     7
 10
346.92252300000001
 20
554.421063
 30
0.0
 11
344.838753
 21
566.23875099999998
 31
0.0
  0
LINE
  5
75E
  8
0
 62
     7
 10
346.92252300000001
 20
696.421063
 30
0.0
 11
346.92252300000001
 21
554.421063
 31
0.0
  0
LINE
  5
75F
  8
0
 62
     7
 10
338.92252300000001
 20
696.421063
 30
0.0
 11
436.098457
 21
696.421063
 31
0.0
  0
LINE
  5
760
  8
0
 62
     7
 10
338.92252300000001
 20
554.421063
 30
0.0
 11
436.098457
 21
554.421063
 31
0.0
  0
LINE
  5
761
  8
0
 62
     7
 10
442.598457
 20
730.68427800000006
 30
0.0
 11
454.41614499999997
 21
728.60050699999988
 31
0.0
  0
LINE
  5
762
  8
0
 62
     7
 10
442.598457
 20
730.68427800000006
 30
0.0
 11
454.41614499999997
 21
732.76804800000002
 31
0.0
  0
LINE
  5
763
  8
0
 62
     7
 10
522.59845700000005
 20
730.68427800000006
 30
0.0
 11
510.78076900000002
 21
732.76804800000002
 31
0.0
  0
LINE
  5
764
  8
0
 62
     7
 10
522.59845700000005
 20
730.68427800000006
 30
0.0
 11
510.78076900000002
 21
728.60047599999984
 31
0.0
  0
LINE
  5
765
  8
0
 62
     7
 10
442.598457
 20
730.68427800000006
 30
0.0
 11
522.59845700000005
 21
730.68427800000006
 31
0.0
  0
LINE
  5
766
  8
0
 62
     7
 10
442.598457
 20
738.68427800000006
 30
0.0
 11
442.598457
 21
702.921063
 31
0.0
  0
LINE
  5
767
  8
0
 62
     7
 10
522.59845700000005
 20
738.68427800000006
 30
0.0
 11
522.59845700000005
 21
702.921063
 31
0.0
  0
LINE
  5
768
  8
0
 62
     7
 10
426.598457
 20
757.31693700000005
 30
0.0
 11
438.41614499999997
 21
755.23316699999998
 31
0.0
  0
LINE
  5
769
  8
0
 62
     7
 10
426.598457
 20
757.31693700000005
 30
0.0
 11
438.41614499999997
 21
759.40073899999993
 31
0.0
  0
LINE
  5
76A
  8
0
 62
     7
 10
538.59845700000005
 20
757.31693700000005
 30
0.0
 11
526.78076899999996
 21
759.40073899999993
 31
0.0
  0
LINE
  5
76B
  8
0
 62
     7
 10
538.59845700000005
 20
757.31693700000005
 30
0.0
 11
526.78076899999996
 21
755.23316699999998
 31
0.0
  0
LINE
  5
76C
  8
0
 62
     7
 10
426.598457
 20
757.31693700000005
 30
0.0
 11
538.59845700000005
 21
757.31696799999986
 31
0.0
  0
LINE
  5
76D
  8
0
 62
     7
 10
426.598457
 20
765.31693700000005
 30
0.0
 11
426.598457
 21
681.42106299999989
 31
0.0
  0
LINE
  5
76E
  8
0
 62
     7
 10
538.59845700000005
 20
765.31693700000005
 30
0.0
 11
538.59845700000005
 21
681.42106299999989
 31
0.0
  0
LINE
  5
76F
  8
0
 62
     7
 10
439.81092100000001
 20
552.30454699999996
 30
0.0
 11
429.13880199999988
 21
546.81766999999991
 31
0.0
  0
LINE
  5
770
  8
0
 62
     7
 10
439.81092100000001
 20
552.30454699999996
 30
0.0
 11
431.65900399999998
 21
543.49848699999995
 31
0.0
  0
LINE
  5
771
  8
0
 62
     7
 10
445.38599399999998
 20
556.53757999999993
 30
0.0
 11
456.05811299999999
 21
562.02445699999987
 31
0.0
  0
LINE
  5
772
  8
0
 62
     7
 10
445.38599399999998
 20
556.53757999999993
 30
0.0
 11
453.53787999999997
 21
565.34364000000005
 31
0.0
  0
LINE
  5
773
  8
0
 62
     7
 10
445.38599399999998
 20
556.53757999999993
 30
0.0
 11
371.55692299999993
 21
500.48009999999988
 31
0.0
  0
INSERT
  5
968
  8
0
  2
BLOCK0
 10
7.4848020000000002
 20
338.31352599999991
 30
0.0
 50
180.0
  0
INSERT
  5
969
  8
0
  2
BLOCK1
 10
7.4848020000000002
 20
338.31352599999991
 30
0.0
 50
180.0
  0
INSERT
  5
96A
  8
0
  2
BLOCK2
 10
7.4848020000000002
 20
338.31352599999991
 30
0.0
 50
180.0
  0
INSERT
  5
96B
  8
0
  2
BLOCK3
 10
7.4848020000000002
 20
338.31352599999991
 30
0.0
 50
180.0
  0
INSERT
  5
96C
  8
0
  2
BLOCK4
 10
7.4848020000000002
 20
338.31352599999991
 30
0.0
 50
180.0
  0
INSERT
  5
96D
  8
0
  2
BLOCK5
 10
7.4848020000000002
 20
338.31352599999991
 30
0.0
 50
180.0
  0
INSERT
  5
96E
  8
0
  2
BLOCK6
 10
7.4848020000000002
 20
338.31352599999991
 30
0.0
 50
180.0
  0
INSERT
  5
96F
  8
0
  2
BLOCK7
 10
774.32768999999996
 20
627.671063
 30
0.0
 50
180.0
  0
INSERT
  5
970
  8
0
  2
BLOCK8
 10
774.32768999999996
 20
627.671063
 30
0.0
 50
180.0
  0
INSERT
  5
971
  8
0
  2
BLOCK9
 10
774.32768999999996
 20
627.671063
 30
0.0
 50
180.0
  0
INSERT
  5
972
  8
0
  2
BLOCK10
 10
774.32768999999996
 20
627.671063
 30
0.0
 50
180.0
  0
INSERT
  5
973
  8
0
  2
BLOCK11
 10
774.32768999999996
 20
627.671063
 30
0.0
 50
180.0
  0
INSERT
  5
974
  8
0
  2
BLOCK12
 10
774.32768999999996
 20
627.671063
 30
0.0
 50
180.0
  0
INSERT
  5
975
  8
0
  2
BLOCK13
 10
774.32768999999996
 20
627.671063
 30
0.0
 50
180.0
  0
INSERT
  5
976
  8
0
  2
BLOCK14
 10
774.32768999999996
 20
627.671063
 30
0.0
 50
180.0
  0
INSERT
  5
977
  8
0
  2
BLOCK15
 10
774.32768999999996
 20
627.671063
 30
0.0
 50
180.0
  0
INSERT
  5
978
  8
0
  2
BLOCK16
 10
774.32768999999996
 20
627.671063
 30
0.0
 50
180.0
  0
INSERT
  5
979
  8
0
  2
BLOCK17
 10
774.32768999999996
 20
627.671063
 30
0.0
 50
180.0
  0
INSERT
  5
97A
  8
0
  2
BLOCK18
 10
205.8132709999999
 20
515.43401799999992
 30
0.0
 50
90.0
  0
INSERT
  5
97B
  8
0
  2
BLOCK19
 10
205.8132709999999
 20
515.43401799999992
 30
0.0
 50
90.0
  0
INSERT
  5
97C
  8
0
  2
BLOCK20
 10
205.8132709999999
 20
515.43401799999992
 30
0.0
 50
90.0
  0
INSERT
  5
97D
  8
0
  2
BLOCK21
 10
205.8132709999999
 20
515.43401799999992
 30
0.0
 50
90.0
  0
INSERT
  5
97E
  8
0
  2
BLOCK22
 10
205.8132709999999
 20
515.43401799999992
 30
0.0
 50
90.0
  0
INSERT
  5
97F
  8
0
  2
BLOCK23
 10
205.8132709999999
 20
515.43401799999992
 30
0.0
 50
90.0
  0
INSERT
  5
980
  8
0
  2
BLOCK24
 10
205.8132709999999
 20
515.43401799999992
 30
0.0
 50
90.0
  0
INSERT
  5
981
  8
0
  2
BLOCK25
 10
205.8132709999999
 20
515.43401799999992
 30
0.0
 50
90.0
  0
INSERT
  5
982
  8
0
  2
BLOCK26
 10
205.8132709999999
 20
515.43401799999992
 30
0.0
 50
90.0
  0
INSERT
  5
983
  8
0
  2
BLOCK27
 10
205.8132709999999
 20
515.43401799999992
 30
0.0
 50
90.0
  0
INSERT
  5
984
  8
0
  2
BLOCK28
 10
205.8132709999999
 20
515.43401799999992
 30
0.0
 50
90.0
  0
INSERT
  5
985
  8
0
  2
BLOCK29
 10
205.8132709999999
 20
515.43401799999992
 30
0.0
 50
90.0
  0
INSERT
  5
986
  8
0
  2
BLOCK30
 10
205.8132709999999
 20
515.43401799999992
 30
0.0
 50
90.0
  0
INSERT
  5
987
  8
0
  2
BLOCK31
 10
205.8132709999999
 20
515.43401799999992
 30
0.0
 50
90.0
  0
INSERT
  5
988
  8
0
  2
BLOCK32
 10
205.8132709999999
 20
515.43401799999992
 30
0.0
 50
90.0
  0
INSERT
  5
989
  8
0
  2
BLOCK33
 10
205.8132709999999
 20
515.43401799999992
 30
0.0
 50
90.0
  0
INSERT
  5
98A
  8
0
  2
BLOCK34
 10
205.8132709999999
 20
515.43401799999992
 30
0.0
 50
90.0
  0
INSERT
  5
98B
  8
0
  2
BLOCK35
 10
205.8132709999999
 20
515.43401799999992
 30
0.0
 50
90.0
  0
INSERT
  5
98C
  8
0
  2
BLOCK36
 10
205.8132709999999
 20
515.43401799999992
 30
0.0
 50
90.0
  0
INSERT
  5
98D
  8
0
  2
BLOCK37
 10
205.8132709999999
 20
515.43401799999992
 30
0.0
 50
90.0
  0
INSERT
  5
98E
  8
0
  2
BLOCK38
 10
205.8132709999999
 20
515.43401799999992
 30
0.0
 50
90.0
  0
INSERT
  5
98F
  8
0
  2
BLOCK39
 10
205.8132709999999
 20
515.43401799999992
 30
0.0
 50
90.0
  0
INSERT
  5
990
  8
0
  2
BLOCK40
 10
205.8132709999999
 20
515.43401799999992
 30
0.0
 50
90.0
  0
INSERT
  5
991
  8
0
  2
BLOCK41
 10
205.8132709999999
 20
515.43401799999992
 30
0.0
 50
90.0
  0
INSERT
  5
992
  8
0
  2
BLOCK42
 10
205.8132709999999
 20
515.43401799999992
 30
0.0
 50
90.0
  0
INSERT
  5
993
  8
0
  2
BLOCK43
 10
205.8132709999999
 20
515.43401799999992
 30
0.0
 50
90.0
  0
INSERT
  5
994
  8
0
  2
BLOCK44
 10
205.8132709999999
 20
515.43401799999992
 30
0.0
 50
90.0
  0
INSERT
  5
995
  8
0
  2
BLOCK45
 10
205.8132709999999
 20
515.43401799999992
 30
0.0
 50
90.0
  0
INSERT
  5
996
  8
0
  2
BLOCK46
 10
205.8132709999999
 20
515.43401799999992
 30
0.0
 50
90.0
  0
INSERT
  5
997
  8
0
  2
BLOCK47
 10
205.8132709999999
 20
515.43401799999992
 30
0.0
 50
90.0
  0
INSERT
  5
998
  8
0
  2
BLOCK48
 10
205.8132709999999
 20
515.43401799999992
 30
0.0
 50
90.0
  0
INSERT
  5
999
  8
0
  2
BLOCK49
 10
205.8132709999999
 20
515.43401799999992
 30
0.0
 50
90.0
  0
INSERT
  5
99A
  8
0
  2
BLOCK50
 10
205.8132709999999
 20
515.43401799999992
 30
0.0
 50
90.0
  0
INSERT
  5
99B
  8
0
  2
BLOCK51
 10
205.8132709999999
 20
515.43401799999992
 30
0.0
 50
90.0
  0
INSERT
  5
99C
  8
0
  2
BLOCK52
 10
205.8132709999999
 20
515.43401799999992
 30
0.0
 50
90.0
  0
INSERT
  5
99D
  8
0
  2
BLOCK53
 10
205.8132709999999
 20
515.43401799999992
 30
0.0
 50
90.0
  0
INSERT
  5
99E
  8
0
  2
BLOCK54
 10
205.8132709999999
 20
515.43401799999992
 30
0.0
 50
90.0
  0
INSERT
  5
99F
  8
0
  2
BLOCK55
 10
205.8132709999999
 20
515.43401799999992
 30
0.0
 50
90.0
  0
INSERT
  5
9A0
  8
0
  2
BLOCK56
 10
-275.42044499999997
 20
514.934256
 30
0.0
 50
90.0
  0
INSERT
  5
9A1
  8
0
  2
BLOCK57
 10
-275.42044499999997
 20
514.934256
 30
0.0
 50
90.0
  0
INSERT
  5
9A2
  8
0
  2
BLOCK58
 10
-275.42044499999997
 20
514.934256
 30
0.0
 50
90.0
  0
INSERT
  5
9A3
  8
0
  2
BLOCK59
 10
-275.42044499999997
 20
514.934256
 30
0.0
 50
90.0
  0
INSERT
  5
9A4
  8
0
  2
BLOCK60
 10
-275.42044499999997
 20
514.934256
 30
0.0
 50
90.0
  0
INSERT
  5
9A5
  8
0
  2
BLOCK61
 10
-275.42044499999997
 20
514.934256
 30
0.0
 50
90.0
  0
INSERT
  5
9A6
  8
0
  2
BLOCK62
 10
-275.42044499999997
 20
514.934256
 30
0.0
 50
90.0
  0
INSERT
  5
9A7
  8
0
  2
BLOCK63
 10
-275.42044499999997
 20
514.934256
 30
0.0
 50
90.0
  0
INSERT
  5
9A8
  8
0
  2
BLOCK64
 10
-275.42044499999997
 20
514.934256
 30
0.0
 50
90.0
  0
INSERT
  5
9A9
  8
0
  2
BLOCK65
 10
-275.42044499999997
 20
514.934256
 30
0.0
 50
90.0
  0
INSERT
  5
9AA
  8
0
  2
BLOCK66
 10
-275.42044499999997
 20
514.934256
 30
0.0
 50
90.0
  0
INSERT
  5
9AB
  8
0
  2
BLOCK67
 10
-275.42044499999997
 20
514.934256
 30
0.0
 50
90.0
  0
INSERT
  5
9AC
  8
0
  2
BLOCK68
 10
482.59845700000011
 20
627.671063
 30
0.0
 50
270.0
  0
INSERT
  5
9AD
  8
0
  2
BLOCK69
 10
482.59845700000011
 20
627.671063
 30
0.0
 50
270.0
  0
INSERT
  5
9AE
  8
0
  2
BLOCK70
 10
482.59845700000011
 20
627.671063
 30
0.0
 50
270.0
  0
INSERT
  5
9AF
  8
0
  2
BLOCK71
 10
482.59845700000011
 20
627.671063
 30
0.0
 50
270.0
  0
INSERT
  5
9B0
  8
0
  2
BLOCK72
 10
482.59845700000011
 20
627.671063
 30
0.0
 50
270.0
  0
INSERT
  5
9B1
  8
0
  2
BLOCK73
 10
482.59845700000011
 20
627.671063
 30
0.0
 50
270.0
  0
INSERT
  5
9B2
  8
0
  2
BLOCK74
 10
482.59845700000011
 20
627.671063
 30
0.0
 50
270.0
  0
INSERT
  5
9B3
  8
0
  2
BLOCK75
 10
482.59845700000011
 20
627.671063
 30
0.0
 50
270.0
  0
INSERT
  5
9B4
  8
0
  2
BLOCK76
 10
482.59845700000011
 20
627.671063
 30
0.0
 50
270.0
  0
INSERT
  5
9B5
  8
0
  2
BLOCK77
 10
482.59845700000011
 20
627.671063
 30
0.0
 50
270.0
  0
VIEWPORT
  5
774
 67
     1
  8
0
 62
     0
 10
0.0
 20
0.0
 30
0.0
 40
1000.0
 41
1000.0
 68
     1
 69
     1
1001
ACAD
1000
MVIEW
1002
{
1070
    16
1010
0.0
1020
0.0
1030
0.0
1010
0.0
1020
0.0
1030
1.0
1040
0.0
1040
1000.0
1040
0.0
1040
0.0
1040
50.0
1040
0.0
1040
0.0
1070
     0
1070
   100
1070
     1
1070
     1
1070
     0
1070
     0
1070
     0
1070
     0
1040
0.0
1040
0.0
1040
0.0
1040
1.0
1040
1.0
1040
1.0
1040
1.0
1070
     0
1002
{
1002
}
1002
}
  0
ENDSEC
  0
EOF
