  0
SECTION
  2
HEADER
  9
$ACADVER
  1
AC1009
  9
$DWGCODEPAGE
  3
iso8859-1
  9
$INSBASE
 10
0.0
 20
0.0
 30
0.0
  9
$EXTMIN
 10
1.0E20
 20
1.0E20
  9
$EXTMAX
 10
-1.0E20
 20
-1.0E20
  9
$LIMMIN
 10
0.0
 20
0.0
  9
$LIMMAX
 10
12.0
 20
9.0
  9
$ORTHOMODE
 70
     0
  9
$REGENMODE
 70
     1
  9
$FILLMODE
 70
     1
  9
$QTEXTMODE
 70
     0
  9
$MIRRTEXT
 70
     1
  9
$DRAGMODE
 70
     2
  9
$LTSCALE
 40
15.0
  9
$OSMODE
 70
     0
  9
$ATTMODE
 70
     1
  9
$TEXTSIZE
 40
0.2
  9
$TRACEWID
 40
0.05
  9
$TEXTSTYLE
  7
STANDARD
  9
$CLAYER
  8
0
  9
$CELTYPE
  6
DASHED
  9
$CECOLOR
 62
   256
  9
$DIMSCALE
 40
1.0
  9
$DIMASZ
 40
0.18
  9
$DIMEXO
 40
0.0625
  9
$DIMDLI
 40
0.38
  9
$DIMRND
 40
0.0
  9
$DIMDLE
 40
0.0
  9
$DIMEXE
 40
0.18
  9
$DIMTP
 40
0.0
  9
$DIMTM
 40
0.0
  9
$DIMTXT
 40
0.18
  9
$DIMCEN
 40
0.09
  9
$DIMTSZ
 40
0.0
  9
$DIMTOL
 70
     0
  9
$DIMLIM
 70
     0
  9
$DIMTIH
 70
     1
  9
$DIMTOH
 70
     1
  9
$DIMSE1
 70
     0
  9
$DIMSE2
 70
     0
  9
$DIMTAD
 70
     0
  9
$DIMZIN
 70
     0
  9
$DIMBLK
  1

  9
$DIMASO
 70
     1
  9
$DIMSHO
 70
     1
  9
$DIMPOST
  1

  9
$DIMAPOST
  1

  9
$DIMALT
 70
     0
  9
$DIMALTD
 70
     2
  9
$DIMALTF
 40
25.4
  9
$DIMLFAC
 40
1.0
  9
$DIMTOFL
 70
     0
  9
$DIMTVP
 40
0.0
  9
$DIMTIX
 70
     0
  9
$DIMSOXD
 70
     0
  9
$DIMSAH
 70
     0
  9
$DIMBLK1
  1

  9
$DIMBLK2
  1

  9
$DIMSTYLE
  2
STANDARD
  9
$DIMCLRD
 70
     0
  9
$DIMCLRE
 70
     0
  9
$DIMCLRT
 70
     0
  9
$DIMTFAC
 40
1.0
  9
$DIMGAP
 40
0.09
  9
$LUNITS
 70
     2
  9
$LUPREC
 70
     4
  9
$AXISMODE
 70
     0
  9
$AXISUNIT
 10
0.0
 20
0.0
  9
$SKETCHINC
 40
0.1
  9
$FILLETRAD
 40
0.0
  9
$AUNITS
 70
     0
  9
$AUPREC
 70
     0
  9
$MENU
  1
acad
  9
$ELEVATION
 40
0.0
  9
$PELEVATION
 40
0.0
  9
$THICKNESS
 40
0.0
  9
$LIMCHECK
 70
     0
  9
$BLIPMODE
 70
     1
  9
$CHAMFERA
 40
0.0
  9
$CHAMFERB
 40
0.0
  9
$SKPOLY
 70
     0
  9
$TDCREATE
 40
0.000000000
  9
$TDUPDATE
 40
0.000000000
  9
$TDINDWG
 40
0.0
  9
$TDUSRTIMER
 40
0.0
  9
$USRTIMER
 70
     1
  9
$ANGBASE
 50
0.0
  9
$ANGDIR
 70
     0
  9
$PDMODE
 70
     0
  9
$PDSIZE
 40
0.0
  9
$PLINEWID
 40
0.0
  9
$COORDS
 70
     1
  9
$SPLFRAME
 70
     0
  9
$SPLINETYPE
 70
     6
  9
$SPLINESEGS
 70
     8
  9
$ATTDIA
 70
     0
  9
$ATTREQ
 70
     1
  9
$HANDLING
 70
     1
  9
$HANDSEED
  5
   5E7
  9
$SURFTAB1
 70
     6
  9
$SURFTAB2
 70
     6
  9
$SURFTYPE
 70
     6
  9
$SURFU
 70
     6
  9
$SURFV
 70
     6
  9
$UCSNAME
  2

  9
$UCSORG
 10
0.0
 20
0.0
 30
0.0
  9
$UCSXDIR
 10
1.0
 20
0.0
 30
0.0
  9
$UCSYDIR
 10
0.0
 20
1.0
 30
0.0
  9
$PUCSNAME
  2

  9
$PUCSORG
 10
0.0
 20
0.0
 30
0.0
  9
$PUCSXDIR
 10
1.0
 20
0.0
 30
0.0
  9
$PUCSYDIR
 10
0.0
 20
1.0
 30
0.0
  9
$USERI1
 70
     0
  9
$USERI2
 70
     0
  9
$USERI3
 70
     0
  9
$USERI4
 70
     0
  9
$USERI5
 70
     0
  9
$USERR1
 40
0.0
  9
$USERR2
 40
0.0
  9
$USERR3
 40
0.0
  9
$USERR4
 40
0.0
  9
$USERR5
 40
0.0
  9
$WORLDVIEW
 70
     1
  9
$SHADEDGE
 70
     3
  9
$SHADEDIF
 70
    70
  9
$TILEMODE
 70
     1
  9
$MAXACTVP
 70
    16
  9
$PINSBASE
 10
0.0
 20
0.0
 30
0.0
  9
$PLIMCHECK
 70
     0
  9
$PEXTMIN
 10
1.0E20
 20
1.0E20
 30
1.0E20
  9
$PEXTMAX
 10
-1.0E20
 20
-1.0E20
 30
-1.0E20
  9
$PLIMMIN
 10
0.0
 20
0.0
  9
$PLIMMAX
 10
12.0
 20
9.0
  9
$UNITMODE
 70
     0
  9
$VISRETAIN
 70
     0
  0
ENDSEC
  0
SECTION
  2
TABLES
  0
TABLE
  2
VPORT
 70
     1
  0
VPORT
  2
*ACTIVE
 70
     0
 10
0.0
 20
0.0
 11
1.0
 21
1.0
 12
6.801242
 22
4.5
 13
0.0
 23
0.0
 14
1.0
 24
1.0
 15
0.0
 25
0.0
 16
0.0
 26
0.0
 36
1.0
 17
0.0
 27
0.0
 37
0.0
 40
9.0
 41
1.511387
 42
50.0
 43
0.0
 44
0.0
 50
0.0
 51
0.0
 71
     0
 72
   100
 73
     1
 74
     1
 75
     0
 76
     0
 77
     0
 78
     0
  0
ENDTAB
  0
TABLE
  2
LTYPE
 70
    41
  0
LTYPE
  2
BYBLOCK
 70
     0
  3

 72
    65
 73
     0
 40
0.0
  0
LTYPE
  2
BYLAYER
 70
     0
  3

 72
    65
 73
     0
 40
0.0
  0
LTYPE
  2
CONTINUOUS
 70
     0
  3
Solid line
 72
    65
 73
     0
 40
0.0
  0
LTYPE
  2
BORDER
 70
    64
  3
__ __ . __ __ . __ __ . __ __ . __ __ . __ __ .
 72
    65
 73
     6
 40
1.75
 49
0.5
 49
-0.25
 49
0.5
 49
-0.25
 49
0.0
 49
-0.25
  0
LTYPE
  2
BORDER2
 70
    64
  3
__.__.__.__.__.__.__.__.__.__.__.__.__.__.__.__
 72
    65
 73
     6
 40
0.875
 49
0.25
 49
-0.125
 49
0.25
 49
-0.125
 49
0.0
 49
-0.125
  0
LTYPE
  2
BORDERX2
 70
    64
  3
____  ____  .  ____  ____  .  ____  ____  .  __
 72
    65
 73
     6
 40
3.5
 49
1.0
 49
-0.5
 49
1.0
 49
-0.5
 49
0.0
 49
-0.5
  0
LTYPE
  2
CENTER
 70
    64
  3
____ _ ____ _ ____ _ ____ _ ____ _ ____ _ ____
 72
    65
 73
     4
 40
2.0
 49
1.25
 49
-0.25
 49
0.25
 49
-0.25
  0
LTYPE
  2
CENTER2
 70
    64
  3
___ _ ___ _ ___ _ ___ _ ___ _ ___ _ ___ _ ___ _
 72
    65
 73
     4
 40
1.125
 49
0.75
 49
-0.125
 49
0.125
 49
-0.125
  0
LTYPE
  2
CENTERX2
 70
    64
  3
________  __  ________  __  ________  __  _____
 72
    65
 73
     4
 40
4.0
 49
2.5
 49
-0.5
 49
0.5
 49
-0.5
  0
LTYPE
  2
DASHDOT
 70
    64
  3
__ . __ . __ . __ . __ . __ . __ . __ . __ . __
 72
    65
 73
     4
 40
1.0
 49
0.5
 49
-0.25
 49
0.0
 49
-0.25
  0
LTYPE
  2
DASHDOT2
 70
    64
  3
_._._._._._._._._._._._._._._._._._._._._._._._
 72
    65
 73
     4
 40
0.5
 49
0.25
 49
-0.125
 49
0.0
 49
-0.125
  0
LTYPE
  2
DASHDOTX2
 70
    64
  3
____  .  ____  .  ____  .  ____  .  ____  .  __
 72
    65
 73
     4
 40
2.0
 49
1.0
 49
-0.5
 49
0.0
 49
-0.5
  0
LTYPE
  2
DASHED
 70
    64
  3
__ __ __ __ __ __ __ __ __ __ __ __ __ __ __ __
 72
    65
 73
     2
 40
0.75
 49
0.5
 49
-0.25
  0
LTYPE
  2
DASHED2
 70
    64
  3
_ _ _ _ _ _ _ _ _ _ _ _ _ _ _ _ _ _ _ _ _ _ _ _
 72
    65
 73
     2
 40
0.375
 49
0.25
 49
-0.125
  0
LTYPE
  2
DASHEDX2
 70
    64
  3
____  ____  ____  ____  ____  ____  ____  ____
 72
    65
 73
     2
 40
1.5
 49
1.0
 49
-0.5
  0
LTYPE
  2
DIVIDE
 70
    64
  3
____ . . ____ . . ____ . . ____ . . ____ . . __
 72
    65
 73
     6
 40
1.25
 49
0.5
 49
-0.25
 49
0.0
 49
-0.25
 49
0.0
 49
-0.25
  0
LTYPE
  2
DIVIDE2
 70
    64
  3
__..__..__..__..__..__..__..__..__..__..__..__.
 72
    65
 73
     6
 40
0.625
 49
0.25
 49
-0.125
 49
0.0
 49
-0.125
 49
0.0
 49
-0.125
  0
LTYPE
  2
DIVIDEX2
 70
    64
  3
________  .  .  ________  .  .  ________  .  .
 72
    65
 73
     6
 40
2.5
 49
1.0
 49
-0.5
 49
0.0
 49
-0.5
 49
0.0
 49
-0.5
  0
LTYPE
  2
DOT
 70
    64
  3
. . . . . . . . . . . . . . . . . . . . . . . .
 72
    65
 73
     2
 40
0.25
 49
0.0
 49
-0.25
  0
LTYPE
  2
DOT2
 70
    64
  3
...............................................
 72
    65
 73
     2
 40
0.125
 49
0.0
 49
-0.125
  0
LTYPE
  2
DOTX2
 70
    64
  3
.  .  .  .  .  .  .  .  .  .  .  .  .  .  .  .
 72
    65
 73
     2
 40
0.5
 49
0.0
 49
-0.5
  0
LTYPE
  2
HIDDEN
 70
    64
  3
__ __ __ __ __ __ __ __ __ __ __ __ __ __ __ __
 72
    65
 73
     2
 40
0.375
 49
0.25
 49
-0.125
  0
LTYPE
  2
HIDDEN2
 70
    64
  3
_ _ _ _ _ _ _ _ _ _ _ _ _ _ _ _ _ _ _ _ _ _ _ _
 72
    65
 73
     2
 40
0.1875
 49
0.125
 49
-0.0625
  0
LTYPE
  2
HIDDENX2
 70
    64
  3
____ ____ ____ ____ ____ ____ ____ ____ ____ __
 72
    65
 73
     2
 40
0.75
 49
0.5
 49
-0.25
  0
LTYPE
  2
PHANTOM
 70
    64
  3
______  __  __  ______  __  __  ______  __  __
 72
    65
 73
     6
 40
2.5
 49
1.25
 49
-0.25
 49
0.25
 49
-0.25
 49
0.25
 49
-0.25
  0
LTYPE
  2
PHANTOM2
 70
    64
  3
___ _ _ ___ _ _ ___ _ _ ___ _ _ ___ _ _ ___ _ _
 72
    65
 73
     6
 40
1.25
 49
0.625
 49
-0.125
 49
0.125
 49
-0.125
 49
0.125
 49
-0.125
  0
LTYPE
  2
PHANTOMX2
 70
    64
  3
____________    ____    ____    ____________
 72
    65
 73
     6
 40
5.0
 49
2.5
 49
-0.5
 49
0.5
 49
-0.5
 49
0.5
 49
-0.5
  0
LTYPE
  2
ACAD_ISO02W100
 70
    64
  3
__ __ __ __ __ __ __ __ __ __ __ __ __ __ __ __
 72
    65
 73
     2
 40
15.0
 49
12.0
 49
-3.0
  0
LTYPE
  2
ACAD_ISO03W100
 70
    64
  3
__    __    __    __    __    __    __    __
 72
    65
 73
     2
 40
30.0
 49
12.0
 49
-18.0
  0
LTYPE
  2
ACAD_ISO04W100
 70
    64
  3
____ . ____ . ____ . ____ . ____ . ____ . ____
 72
    65
 73
     4
 40
30.5
 49
24.0
 49
-3.0
 49
0.5
 49
-3.0
  0
LTYPE
  2
ACAD_ISO05W100
 70
    64
  3
____ .. ____ .. ____ .. ____ .. ____ .. ____ ..
 72
    65
 73
     6
 40
34.0
 49
24.0
 49
-3.0
 49
0.5
 49
-3.0
 49
0.5
 49
-3.0
  0
LTYPE
  2
ACAD_ISO06W100
 70
    64
  3
____ ... ____ ... ____ ... ____ ... ____ ... __
 72
    65
 73
     8
 40
37.5
 49
24.0
 49
-3.0
 49
0.5
 49
-3.0
 49
0.5
 49
-3.0
 49
0.5
 49
-3.0
  0
LTYPE
  2
ACAD_ISO07W100
 70
    64
  3
. . . . . . . . . . . . . . . . . . . . . . . .
 72
    65
 73
     2
 40
3.5
 49
0.5
 49
-3.0
  0
LTYPE
  2
ACAD_ISO08W100
 70
    64
  3
____ __ ____ __ ____ __ ____ ____ __ __ ____ __
 72
    65
 73
     4
 40
36.0
 49
24.0
 49
-3.0
 49
6.0
 49
-3.0
  0
LTYPE
  2
ACAD_ISO09W100
 70
    64
  3
____ __ __ ____ __ __ ____ __ __ ____ __ __ ___
 72
    65
 73
     6
 40
45.0
 49
24.0
 49
-3.0
 49
6.0
 49
-3.0
 49
6.0
 49
-3.0
  0
LTYPE
  2
ACAD_ISO10W100
 70
    64
  3
__ . __ . __ . __ . __ . __ . __ . __ . __ . __
 72
    65
 73
     4
 40
18.5
 49
12.0
 49
-3.0
 49
0.5
 49
-3.0
  0
LTYPE
  2
ACAD_ISO11W100
 70
    64
  3
__ __ . __ __ . __ __ . __ __ . __ __ . __ __ .
 72
    65
 73
     6
 40
33.5
 49
12.0
 49
-3.0
 49
12.0
 49
-3.0
 49
0.5
 49
-3.0
  0
LTYPE
  2
ACAD_ISO12W100
 70
    64
  3
__ . . __ . . __ . . __ . . __ . . __ . . __ .
 72
    65
 73
     6
 40
22.0
 49
12.0
 49
-3.0
 49
0.5
 49
-3.0
 49
0.5
 49
-3.0
  0
LTYPE
  2
ACAD_ISO13W100
 70
    64
  3
__ __ . . __ __ . . __ __ . . __ __ . . __ __ .
 72
    65
 73
     8
 40
37.0
 49
12.0
 49
-3.0
 49
12.0
 49
-3.0
 49
0.5
 49
-3.0
 49
0.5
 49
-3.0
  0
LTYPE
  2
ACAD_ISO14W100
 70
    64
  3
__ . . . __ . . . __ . . . __ . . . __ . . . __
 72
    65
 73
     8
 40
25.5
 49
12.0
 49
-3.0
 49
0.5
 49
-3.0
 49
0.5
 49
-3.0
 49
0.5
 49
-3.0
  0
LTYPE
  2
ACAD_ISO15W100
 70
    64
  3
__ __ . . . __ __ . . . __ __ . . . __ __ . . .
 72
    65
 73
    10
 40
40.5
 49
12.0
 49
-3.0
 49
12.0
 49
-3.0
 49
0.5
 49
-3.0
 49
0.5
 49
-3.0
 49
0.5
 49
-3.0
  0
ENDTAB
  0
TABLE
  2
STYLE
 70
     4
  0
STYLE
  2
STANDARD
 70
    64
 40
0.0
 41
1.0
 50
0.0
 71
     0
 42
0.2
  3
txt
  4

  0
STYLE
  2
TOLERANCE
 70
    64
 40
0.0
 41
1.0
 50
0.0
 71
     0
 42
0.2
  3
../igesfont/iges1003.shx
  4

  0
STYLE
  2
ROMANS
 70
    64
 40
0.0
 41
1.0
 50
0.0
 71
     0
 42
0.2
  3
romans.shx
  4

  0
STYLE
  2
ROMANC
 70
    64
 40
0.0
 41
1.0
 50
0.0
 71
     0
 42
0.2
  3
romanc.shx
  4

  0
ENDTAB
  0
TABLE
  2
DIMSTYLE
 70
     2
  0
DIMSTYLE
  2
UNNAMED
 70
     0
  3

  4

  5

  6

  7

 40
1.0
 41
0.18
 42
0.0625
 43
0.38
 44
0.18
 45
0.0
 46
0.0
 47
0.0
 48
0.0
140
0.18
141
0.09
142
0.0
143
25.4
144
1.0
145
0.0
146
1.0
147
0.09
 71
     0
 72
     0
 73
     1
 74
     1
 75
     0
 76
     0
 77
     0
 78
     0
170
     0
171
     2
172
     0
173
     0
174
     0
175
     0
176
     0
177
     0
178
     0
  0
DIMSTYLE
  2
STANDARD
 70
     0
  3

  4

  5

  6

  7

 40
1.0
 41
0.18
 42
0.0625
 43
0.38
 44
0.18
 45
0.0
 46
0.0
 47
0.0
 48
0.0
140
0.18
141
0.09
142
0.0
143
25.4
144
1.0
145
0.0
146
1.0
147
0.09
 71
     0
 72
     0
 73
     1
 74
     1
 75
     0
 76
     0
 77
     0
 78
     0
170
     0
171
     2
172
     0
173
     0
174
     0
175
     0
176
     0
177
     0
178
     0
  0
ENDTAB
  0
TABLE
  2
LAYER
 70
     2
  0
LAYER
  2
0
 70
     0
 62
     7
  6
CONTINUOUS
  0
LAYER
  2
255
 70
     0
 62
     7
  6
CONTINUOUS
  0
ENDTAB
  0
ENDSEC
  0
SECTION
  2
BLOCKS
  0
BLOCK
  5
     B
  8
0
  6
CONTINUOUS
 62
     7
  2
DE_M4_NORM_____L
 70
    64
 10
0.0
 20
0.0
 30
0.0
  3
DE_M4_NORM_____L
  0
LINE
  5
     C
  8
0
  6
CONTINUOUS
 62
     1
 10
3.2
 20
-3.03108891324553
 30
0.0
 11
3.2
 21
3.03108891324553
 31
0.0
  0
LINE
  5
     D
  8
0
  6
CONTINUOUS
 62
     1
 10
0.0
 20
-3.03108891324553
 30
0.0
 11
0.0
 21
3.03108891324553
 31
0.0
  0
LINE
  5
     E
  8
0
  6
CONTINUOUS
 62
     1
 10
0.312607391169645
 20
4.04145188432738
 30
0.0
 11
2.88739260883036
 21
4.04145188432738
 31
0.0
  0
LINE
  5
     F
  8
0
  6
CONTINUOUS
 62
     1
 10
0.312607391169645
 20
2.02072594216369
 30
0.0
 11
2.88739260883036
 21
2.02072594216369
 31
0.0
  0
LINE
  5
    10
  8
0
  6
CONTINUOUS
 62
     1
 10
0.312607391169645
 20
-2.02072594216369
 30
0.0
 11
2.88739260883036
 21
-2.02072594216369
 31
0.0
  0
ARC
  5
    11
  8
0
  6
CONTINUOUS
 62
     1
 10
1.78907592389619
 20
3.03108891324553
 30
0.0
 40
1.78907592389619
 50
145.615752531958
 51
214.384247468042
  0
ARC
  5
    12
  8
0
  6
CONTINUOUS
 62
     1
 10
6.68739260883032
 20
0.0
 30
0.0
 40
6.68739260883032
 50
162.412046226006
 51
197.587953773994
  0
ARC
  5
    13
  8
0
  6
CONTINUOUS
 62
     1
 10
1.78907592389619
 20
-3.03108891324553
 30
0.0
 40
1.78907592389619
 50
145.615752531958
 51
214.384247468042
  0
ARC
  5
    14
  8
0
  6
CONTINUOUS
 62
     1
 10
1.41092407610381
 20
3.03108891324553
 30
0.0
 40
1.78907592389619
 50
325.615752531958
 51
394.384247468042
  0
ARC
  5
    15
  8
0
  6
CONTINUOUS
 62
     1
 10
-3.48739260883031
 20
0.0
 30
0.0
 40
6.68739260883032
 50
342.412046226006
 51
377.587953773994
  0
ARC
  5
    16
  8
0
  6
CONTINUOUS
 62
     1
 10
1.41092407610381
 20
-3.03108891324553
 30
0.0
 40
1.78907592389619
 50
325.615752531958
 51
394.384247468042
  0
LINE
  5
    17
  8
0
  6
CONTINUOUS
 62
     1
 10
0.312607391169645
 20
-4.04145188432738
 30
0.0
 11
2.88739260883036
 21
-4.04145188432738
 31
0.0
  0
LINE
  5
    18
  8
0
  6
DASHDOT
 62
     7
 10
-2.0
 20
0.0
 30
0.0
 11
5.2
 21
0.0
 31
0.0
  0
ENDBLK
  5
    19
  8
0
  6
CONTINUOUS
 62
     7
  0
BLOCK
  5
    1A
  8
0
  6
CONTINUOUS
 62
     3
  2
*UDIM626
 70
    65
 10
0.0
 20
0.0
 30
0.0
  3
*UDIM626
  0
TEXT
  5
    1B
  8
0
  6
CONTINUOUS
 62
     3
 10
204.497066994043
 20
108.598916985096
 30
0.0
 40
3.00000013411045
  1
45
 50
90.0
 41
0.933333333333333
 72
     1
 11
202.997066926984
 21
111.098917096853
 31
0.0
 73
     2
  0
LINE
  5
    1C
  8
0
  6
CONTINUOUS
 62
     3
 10
248.027267456055
 20
94.4989166259766
 30
0.0
 11
203.497066994039
 21
94.4989166259766
 31
0.0
  0
LINE
  5
    1D
  8
0
  6
CONTINUOUS
 62
     3
 10
248.027267456055
 20
128.248916625977
 30
0.0
 11
203.497066994039
 21
128.248916625977
 31
0.0
  0
LINE
  5
    1E
  8
0
  6
CONTINUOUS
 62
     3
 10
205.497066994039
 20
94.4989166259766
 30
0.0
 11
205.497066994039
 21
128.248916625977
 31
0.0
  0
LINE
  5
    1F
  8
0
  6
CONTINUOUS
 62
     3
 10
204.976122564088
 20
97.4533399031835
 30
0.0
 11
205.497066994039
 21
94.4989166259766
 31
0.0
  0
LINE
  5
    20
  8
0
  6
CONTINUOUS
 62
     3
 10
205.497066994039
 20
94.4989166259766
 30
0.0
 11
206.018011423991
 21
97.4533399031835
 31
0.0
  0
LINE
  5
    21
  8
0
  6
CONTINUOUS
 62
     3
 10
206.018011423991
 20
125.29449334877
 30
0.0
 11
205.497066994039
 21
128.248916625977
 31
0.0
  0
LINE
  5
    22
  8
0
  6
CONTINUOUS
 62
     3
 10
205.497066994039
 20
128.248916625977
 30
0.0
 11
204.976122564088
 21
125.29449334877
 31
0.0
  0
ENDBLK
  5
    23
  8
0
  6
CONTINUOUS
 62
     3
  0
BLOCK
  5
    24
  8
0
  6
CONTINUOUS
 62
     7
  2
*UDIM627
 70
    65
 10
0.0
 20
0.0
 30
0.0
  3
*UDIM627
  0
TEXT
  5
    25
  8
0
  6
CONTINUOUS
 62
     7
 10
220.125069736145
 20
101.836416576805
 30
0.0
 40
3.00000013411045
  1
=
 50
90.0
 41
0.933333333333333
 72
     1
 11
218.625069669088
 21
102.936416625977
 31
0.0
 73
     2
  0
LINE
  5
    26
  8
0
  6
CONTINUOUS
 62
     3
 10
247.027267456055
 20
94.4989166259766
 30
0.0
 11
219.125069736144
 21
94.4989166259766
 31
0.0
  0
LINE
  5
    27
  8
0
  6
CONTINUOUS
 62
     3
 10
221.125069736144
 20
94.4989166259766
 30
0.0
 11
221.125069736144
 21
111.373916625977
 31
0.0
  0
LINE
  5
    28
  8
0
  6
CONTINUOUS
 62
     3
 10
220.604125306192
 20
97.4533399031835
 30
0.0
 11
221.125069736144
 21
94.4989166259766
 31
0.0
  0
LINE
  5
    29
  8
0
  6
CONTINUOUS
 62
     3
 10
221.125069736144
 20
94.4989166259766
 30
0.0
 11
221.646014166095
 21
97.4533399031835
 31
0.0
  0
LINE
  5
    2A
  8
0
  6
CONTINUOUS
 62
     3
 10
221.646014166095
 20
108.41949334877
 30
0.0
 11
221.125069736144
 21
111.373916625977
 31
0.0
  0
LINE
  5
    2B
  8
0
  6
CONTINUOUS
 62
     3
 10
221.125069736144
 20
111.373916625977
 30
0.0
 11
220.604125306192
 21
108.41949334877
 31
0.0
  0
ENDBLK
  5
    2C
  8
0
  6
CONTINUOUS
 62
     7
  0
BLOCK
  5
    2D
  8
0
  6
CONTINUOUS
 62
     7
  2
*UDIM628
 70
    65
 10
0.0
 20
0.0
 30
0.0
  3
*UDIM628
  0
TEXT
  5
    2E
  8
0
  6
CONTINUOUS
 62
     7
 10
220.125069736145
 20
118.711416576805
 30
0.0
 40
3.00000013411045
  1
=
 50
90.0
 41
0.933333333333333
 72
     1
 11
218.625069669088
 21
119.811416625977
 31
0.0
 73
     2
  0
LINE
  5
    2F
  8
0
  6
CONTINUOUS
 62
     3
 10
247.027267456055
 20
128.248916625977
 30
0.0
 11
219.125069736144
 21
128.248916625977
 31
0.0
  0
LINE
  5
    30
  8
0
  6
CONTINUOUS
 62
     3
 10
221.125069736144
 20
111.373916625977
 30
0.0
 11
221.125069736144
 21
128.248916625977
 31
0.0
  0
LINE
  5
    31
  8
0
  6
CONTINUOUS
 62
     3
 10
220.604125306192
 20
114.328339903184
 30
0.0
 11
221.125069736144
 21
111.373916625977
 31
0.0
  0
LINE
  5
    32
  8
0
  6
CONTINUOUS
 62
     3
 10
221.125069736144
 20
111.373916625977
 30
0.0
 11
221.646014166095
 21
114.328339903184
 31
0.0
  0
LINE
  5
    33
  8
0
  6
CONTINUOUS
 62
     3
 10
221.646014166095
 20
125.29449334877
 30
0.0
 11
221.125069736144
 21
128.248916625977
 31
0.0
  0
LINE
  5
    34
  8
0
  6
CONTINUOUS
 62
     3
 10
221.125069736144
 20
128.248916625977
 30
0.0
 11
220.604125306192
 21
125.29449334877
 31
0.0
  0
ENDBLK
  5
    35
  8
0
  6
CONTINUOUS
 62
     7
  0
BLOCK
  5
    36
  8
0
  6
CONTINUOUS
 62
     7
  2
*HATCH192
 70
    65
 10
0.0
 20
0.0
 30
0.0
  3
*HATCH192
  0
LINE
  5
    37
  8
0
  6
CONTINUOUS
 62
     7
 10
19.5
 20
6.77207708358765
 30
0.0
 11
17.9733009338379
 21
5.2453784942627
 31
0.0
  0
ENDBLK
  5
    38
  8
0
  6
CONTINUOUS
 62
     7
  0
BLOCK
  5
    39
  8
0
  6
CONTINUOUS
 62
     7
  2
*HATCH193
 70
    65
 10
0.0
 20
0.0
 30
0.0
  3
*HATCH193
  0
LINE
  5
    3A
  8
0
  6
CONTINUOUS
 62
     7
 10
-2.0
 20
36.183765411377
 30
0.0
 11
-3.27385091781616
 21
34.9099159240723
 31
0.0
  0
LINE
  5
    3B
  8
0
  6
CONTINUOUS
 62
     7
 10
0.605718791484833
 20
34.5468444824219
 30
0.0
 11
-0.828865826129913
 21
33.1122589111328
 31
0.0
  0
LINE
  5
    3C
  8
0
  6
CONTINUOUS
 62
     7
 10
4.84835958480835
 20
34.5468444824219
 30
0.0
 11
3.34835958480835
 21
33.0468444824219
 31
0.0
  0
LINE
  5
    3D
  8
0
  6
CONTINUOUS
 62
     7
 10
9.09099960327148
 20
34.5468444824219
 30
0.0
 11
7.59100008010864
 21
33.0468444824219
 31
0.0
  0
LINE
  5
    3E
  8
0
  6
CONTINUOUS
 62
     7
 10
13.3336400985718
 20
34.5468444824219
 30
0.0
 11
11.8336410522461
 21
33.0468444824219
 31
0.0
  0
LINE
  5
    3F
  8
0
  6
CONTINUOUS
 62
     7
 10
17.5762805938721
 20
34.5468444824219
 30
0.0
 11
16.0762825012207
 21
33.0468444824219
 31
0.0
  0
LINE
  5
    40
  8
0
  6
CONTINUOUS
 62
     7
 10
21.818920135498
 20
34.5468444824219
 30
0.0
 11
20.3189239501953
 21
33.0468444824219
 31
0.0
  0
LINE
  5
    41
  8
0
  6
CONTINUOUS
 62
     7
 10
25.2783889770508
 20
33.7636680603027
 30
0.0
 11
24.20530128479
 21
32.6905784606934
 31
0.0
  0
LINE
  5
    42
  8
0
  6
CONTINUOUS
 62
     7
 10
26.2999992370605
 20
30.5426387786865
 30
0.0
 11
24.7999992370606
 21
29.0426387786865
 31
0.0
  0
LINE
  5
    43
  8
0
  6
CONTINUOUS
 62
     7
 10
26.2999992370605
 20
26.2999992370605
 30
0.0
 11
24.7999992370606
 21
24.7999992370606
 31
0.0
  0
LINE
  5
    44
  8
0
  6
CONTINUOUS
 62
     7
 10
26.2999992370605
 20
22.0573577880859
 30
0.0
 11
24.7999992370606
 21
20.5573577880859
 31
0.0
  0
LINE
  5
    45
  8
0
  6
CONTINUOUS
 62
     7
 10
26.2999992370605
 20
17.8147163391113
 30
0.0
 11
25.3224258422852
 21
16.8371429443359
 31
0.0
  0
ENDBLK
  5
    46
  8
0
  6
CONTINUOUS
 62
     7
  0
BLOCK
  5
    47
  8
0
  6
CONTINUOUS
 62
     7
  2
*HATCH194
 70
    65
 10
0.0
 20
0.0
 30
0.0
  3
*HATCH194
  0
LINE
  5
    48
  8
0
  6
CONTINUOUS
 62
     7
 10
26.2999992370605
 20
0.844154834747314
 30
0.0
 11
24.7999992370606
 21
-0.655845046043396
 31
0.0
  0
LINE
  5
    49
  8
0
  6
CONTINUOUS
 62
     7
 10
26.2999992370605
 20
-3.39848566055298
 30
0.0
 11
24.7999992370606
 21
-4.89848566055298
 31
0.0
  0
LINE
  5
    4A
  8
0
  6
CONTINUOUS
 62
     7
 10
-1.30151641368866
 20
-31.0
 30
0.0
 11
-2.0
 21
-31.6984844207764
 31
0.0
  0
LINE
  5
    4B
  8
0
  6
CONTINUOUS
 62
     7
 10
26.2999992370605
 20
-7.64112615585327
 30
0.0
 11
24.7999992370606
 21
-9.14112567901611
 31
0.0
  0
LINE
  5
    4C
  8
0
  6
CONTINUOUS
 62
     7
 10
2.9411244392395
 20
-31.0
 30
0.0
 11
1.44112432003021
 21
-32.5
 31
0.0
  0
LINE
  5
    4D
  8
0
  6
CONTINUOUS
 62
     7
 10
26.2999992370605
 20
-11.8837661743164
 30
0.0
 11
24.7999992370606
 21
-13.3837661743164
 31
0.0
  0
LINE
  5
    4E
  8
0
  6
CONTINUOUS
 62
     7
 10
7.18376541137695
 20
-31.0
 30
0.0
 11
5.68376541137695
 21
-32.5
 31
0.0
  0
LINE
  5
    4F
  8
0
  6
CONTINUOUS
 62
     7
 10
26.2999992370605
 20
-16.126407623291
 30
0.0
 11
24.7999992370606
 21
-17.626407623291
 31
0.0
  0
LINE
  5
    50
  8
0
  6
CONTINUOUS
 62
     7
 10
11.4264068603516
 20
-31.0
 30
0.0
 11
9.92640686035156
 21
-32.5
 31
0.0
  0
LINE
  5
    51
  8
0
  6
CONTINUOUS
 62
     7
 10
26.2999992370605
 20
-20.3690490722656
 30
0.0
 11
24.7999992370606
 21
-21.8690490722656
 31
0.0
  0
LINE
  5
    52
  8
0
  6
CONTINUOUS
 62
     7
 10
15.6690483093262
 20
-31.0
 30
0.0
 11
14.1690483093262
 21
-32.5
 31
0.0
  0
LINE
  5
    53
  8
0
  6
CONTINUOUS
 62
     7
 10
26.2999992370605
 20
-24.6116905212402
 30
0.0
 11
24.7999992370606
 21
-26.1116905212402
 31
0.0
  0
LINE
  5
    54
  8
0
  6
CONTINUOUS
 62
     7
 10
19.9116897583008
 20
-31.0
 30
0.0
 11
18.4116897583008
 21
-32.5
 31
0.0
  0
LINE
  5
    55
  8
0
  6
CONTINUOUS
 62
     7
 10
26.2999992370605
 20
-28.8543281555176
 30
0.0
 11
22.6543292999268
 21
-32.5
 31
0.0
  0
ENDBLK
  5
    56
  8
0
  6
CONTINUOUS
 62
     7
  0
BLOCK
  5
    57
  8
0
  6
CONTINUOUS
 62
     7
  2
*HATCH195
 70
    65
 10
0.0
 20
0.0
 30
0.0
  3
*HATCH195
  0
LINE
  5
    58
  8
0
  6
CONTINUOUS
 62
     7
 10
-7.86752986907959
 20
68.5
 30
0.0
 11
-8.5
 21
67.8675308227539
 31
0.0
  0
ENDBLK
  5
    59
  8
0
  6
CONTINUOUS
 62
     7
  0
BLOCK
  5
    5A
  8
0
  6
CONTINUOUS
 62
     7
  2
*HATCH196
 70
    65
 10
0.0
 20
0.0
 30
0.0
  3
*HATCH196
  0
LINE
  5
    5B
  8
0
  6
CONTINUOUS
 62
     7
 10
-7.80151700973511
 20
-37.5
 30
0.0
 11
-8.5
 21
-38.1984825134277
 31
0.0
  0
ENDBLK
  5
    5C
  8
0
  6
CONTINUOUS
 62
     7
  0
BLOCK
  5
    5D
  8
0
  6
CONTINUOUS
 62
     7
  2
*HATCH197
 70
    65
 10
0.0
 20
0.0
 30
0.0
  3
*HATCH197
  0
LINE
  5
    5E
  8
0
  6
CONTINUOUS
 62
     7
 10
21.7999992370605
 20
16.3837623596191
 30
0.0
 11
23.8437595367432
 21
14.3400001525879
 31
0.0
  0
LINE
  5
    5F
  8
0
  6
CONTINUOUS
 62
     7
 10
25.5892581939697
 20
16.8371429443359
 30
0.0
 11
28.0863990783691
 21
14.3400001525879
 31
0.0
  0
LINE
  5
    60
  8
0
  6
CONTINUOUS
 62
     7
 10
29.3309841156006
 20
17.3380546569824
 30
0.0
 11
32.3290367126465
 21
14.3400001525879
 31
0.0
  0
LINE
  5
    61
  8
0
  6
CONTINUOUS
 62
     7
 10
33.5723495483398
 20
17.3393306732178
 30
0.0
 11
35.7999992370605
 21
15.1116752624512
 31
0.0
  0
ENDBLK
  5
    62
  8
0
  6
CONTINUOUS
 62
     7
  0
BLOCK
  5
    63
  8
0
  6
CONTINUOUS
 62
     7
  2
*HATCH198
 70
    65
 10
0.0
 20
0.0
 30
0.0
  3
*HATCH198
  0
LINE
  5
    64
  8
0
  6
CONTINUOUS
 62
     7
 10
21.7999992370605
 20
3.65583276748657
 30
0.0
 11
24.1186866760254
 21
1.33714377880096
 31
0.0
  0
LINE
  5
    65
  8
0
  6
CONTINUOUS
 62
     7
 10
25.3584709167481
 20
4.34000015258789
 30
0.0
 11
28.3613243103027
 21
1.33714377880096
 31
0.0
  0
LINE
  5
    66
  8
0
  6
CONTINUOUS
 62
     7
 10
29.6011085510254
 20
4.34000015258789
 30
0.0
 11
32.6039619445801
 21
1.33714377880096
 31
0.0
  0
LINE
  5
    67
  8
0
  6
CONTINUOUS
 62
     7
 10
33.8437461853027
 20
4.34000015258789
 30
0.0
 11
35.7999992370605
 21
2.38374543190002
 31
0.0
  0
ENDBLK
  5
    68
  8
0
  6
CONTINUOUS
 62
     7
  0
BLOCK
  5
    69
  8
0
  6
CONTINUOUS
 62
     7
  2
*UDIM629
 70
    65
 10
0.0
 20
0.0
 30
0.0
  3
*UDIM629
  0
TEXT
  5
    6A
  8
0
  6
CONTINUOUS
 62
     7
 10
326.01173428148
 20
183.351287549561
 30
0.0
 40
3.00000013411045
  1
137.5
 41
0.933333333333334
 72
     1
 11
332.711734580994
 21
184.851287616616
 31
0.0
 73
     2
  0
TEXT
  5
    6B
  8
0
  6
CONTINUOUS
 62
     7
 10
308.811733557284
 20
183.351287549561
 30
0.0
 40
3.00000013411045
  1
L=A+B-
 41
0.933333333333333
 72
     1
 11
316.911733919382
 21
184.851287616616
 31
0.0
 73
     2
  0
LINE
  5
    6C
  8
0
  6
CONTINUOUS
 62
     3
 10
298.127267456055
 20
119.753916625977
 30
0.0
 11
298.127267456055
 21
184.351287549561
 31
0.0
  0
LINE
  5
    6D
  8
0
  6
CONTINUOUS
 62
     3
 10
355.277267456055
 20
119.753916625977
 30
0.0
 11
355.277267456055
 21
184.351287549561
 31
0.0
  0
LINE
  5
    6E
  8
0
  6
CONTINUOUS
 62
     3
 10
298.127267456055
 20
182.351287549561
 30
0.0
 11
355.277267456055
 21
182.351287549561
 31
0.0
  0
LINE
  5
    6F
  8
0
  6
CONTINUOUS
 62
     3
 10
301.025044929265
 20
183.12774470598
 30
0.0
 11
298.127267456055
 21
182.351287549561
 31
0.0
  0
LINE
  5
    70
  8
0
  6
CONTINUOUS
 62
     3
 10
298.127267456055
 20
182.351287549561
 30
0.0
 11
301.025044929265
 21
181.574830393143
 31
0.0
  0
LINE
  5
    71
  8
0
  6
CONTINUOUS
 62
     3
 10
352.379489982844
 20
181.574830393143
 30
0.0
 11
355.277267456055
 21
182.351287549561
 31
0.0
  0
LINE
  5
    72
  8
0
  6
CONTINUOUS
 62
     3
 10
355.277267456055
 20
182.351287549561
 30
0.0
 11
352.379489982844
 21
183.12774470598
 31
0.0
  0
ENDBLK
  5
    73
  8
0
  6
CONTINUOUS
 62
     7
  0
BLOCK
  5
    74
  8
0
  6
CONTINUOUS
 62
     7
  2
*UDIM630
 70
    65
 10
0.0
 20
0.0
 30
0.0
  3
*UDIM630
  0
TEXT
  5
    75
  8
0
  6
CONTINUOUS
 62
     7
 10
240.127267156541
 20
183.351287549561
 30
0.0
 40
3.00000013411045
  1
137.5
 41
0.933333333333334
 72
     1
 11
246.827267456055
 21
184.851287616616
 31
0.0
 73
     2
  0
TEXT
  5
    76
  8
0
  6
CONTINUOUS
 62
     7
 10
237.127267156541
 20
183.351287616616
 30
0.0
 40
3.0
  1
(
 41
1.2
 72
     1
 11
238.627267156541
 21
184.851287616616
 31
0.0
 73
     2
  0
TEXT
  5
    77
  8
0
  6
CONTINUOUS
 62
     7
 10
253.527267755568
 20
183.351287616616
 30
0.0
 40
3.0
  1
)
 41
1.2
 72
     1
 11
255.027267755568
 21
184.851287616616
 31
0.0
 73
     2
  0
LINE
  5
    78
  8
0
  6
CONTINUOUS
 62
     3
 10
195.527267456055
 20
166.373916625977
 30
0.0
 11
195.527267456055
 21
184.351287549561
 31
0.0
  0
LINE
  5
    79
  8
0
  6
CONTINUOUS
 62
     3
 10
195.527267456055
 20
182.351287549561
 30
0.0
 11
298.127267456055
 21
182.351287549561
 31
0.0
  0
LINE
  5
    7A
  8
0
  6
CONTINUOUS
 62
     3
 10
198.425044929265
 20
183.12774470598
 30
0.0
 11
195.527267456055
 21
182.351287549561
 31
0.0
  0
LINE
  5
    7B
  8
0
  6
CONTINUOUS
 62
     3
 10
195.527267456055
 20
182.351287549561
 30
0.0
 11
198.425044929265
 21
181.574830393143
 31
0.0
  0
LINE
  5
    7C
  8
0
  6
CONTINUOUS
 62
     3
 10
295.229489982844
 20
181.574830393143
 30
0.0
 11
298.127267456055
 21
182.351287549561
 31
0.0
  0
LINE
  5
    7D
  8
0
  6
CONTINUOUS
 62
     3
 10
298.127267456055
 20
182.351287549561
 30
0.0
 11
295.229489982844
 21
183.12774470598
 31
0.0
  0
ENDBLK
  5
    7E
  8
0
  6
CONTINUOUS
 62
     7
  0
BLOCK
  5
    7F
  8
0
  6
CONTINUOUS
 62
     3
  2
*UDIM631
 70
    65
 10
0.0
 20
0.0
 30
0.0
  3
*UDIM631
  0
TEXT
  5
    80
  8
0
  6
CONTINUOUS
 62
     3
 10
347.016502667964
 20
162.21930158233
 30
0.0
 40
3.00000013411045
  1
B
 41
0.933333333333333
 72
     1
 11
348.116502717137
 21
163.719301649386
 31
0.0
 73
     2
  0
LINE
  5
    81
  8
0
  6
CONTINUOUS
 62
     3
 10
341.402267456055
 20
142.103916625977
 30
0.0
 11
341.402267456055
 21
163.21930158233
 31
0.0
  0
LINE
  5
    82
  8
0
  6
CONTINUOUS
 62
     3
 10
355.277267456055
 20
119.753916625977
 30
0.0
 11
355.277267456055
 21
163.21930158233
 31
0.0
  0
LINE
  5
    83
  8
0
  6
CONTINUOUS
 62
     3
 10
341.402267456055
 20
161.21930158233
 30
0.0
 11
355.277267456055
 21
161.21930158233
 31
0.0
  0
LINE
  5
    84
  8
0
  6
CONTINUOUS
 62
     3
 10
344.300044929265
 20
161.995758738749
 30
0.0
 11
341.402267456055
 21
161.21930158233
 31
0.0
  0
LINE
  5
    85
  8
0
  6
CONTINUOUS
 62
     3
 10
341.402267456055
 20
161.21930158233
 30
0.0
 11
344.300044929265
 21
160.442844425912
 31
0.0
  0
LINE
  5
    86
  8
0
  6
CONTINUOUS
 62
     3
 10
352.379489982844
 20
160.442844425912
 30
0.0
 11
355.277267456055
 21
161.21930158233
 31
0.0
  0
LINE
  5
    87
  8
0
  6
CONTINUOUS
 62
     3
 10
355.277267456055
 20
161.21930158233
 30
0.0
 11
352.379489982844
 21
161.995758738749
 31
0.0
  0
ENDBLK
  5
    88
  8
0
  6
CONTINUOUS
 62
     3
  0
BLOCK
  5
    89
  8
0
  6
CONTINUOUS
 62
     3
  2
*UDIM632
 70
    65
 10
0.0
 20
0.0
 30
0.0
  3
*UDIM632
  0
TEXT
  5
    8A
  8
0
  6
CONTINUOUS
 62
     3
 10
218.252269245684
 20
176.351287549561
 30
0.0
 40
3.00000013411045
  1
68
 41
0.933333333333333
 72
     1
 11
220.752269357443
 21
177.851287616616
 31
0.0
 73
     2
  0
LINE
  5
    8B
  8
0
  6
CONTINUOUS
 62
     3
 10
195.527267456055
 20
165.373916625977
 30
0.0
 11
195.527267456055
 21
177.351287549561
 31
0.0
  0
LINE
  5
    8C
  8
0
  6
CONTINUOUS
 62
     3
 10
246.527267456055
 20
165.373916625977
 30
0.0
 11
246.527267456055
 21
177.351287549561
 31
0.0
  0
LINE
  5
    8D
  8
0
  6
CONTINUOUS
 62
     3
 10
195.527267456055
 20
175.351287549561
 30
0.0
 11
246.527267456055
 21
175.351287549561
 31
0.0
  0
LINE
  5
    8E
  8
0
  6
CONTINUOUS
 62
     3
 10
198.481690717736
 20
175.872232067561
 30
0.0
 11
195.527267456055
 21
175.351287549561
 31
0.0
  0
LINE
  5
    8F
  8
0
  6
CONTINUOUS
 62
     3
 10
195.527267456055
 20
175.351287549561
 30
0.0
 11
198.481690717736
 21
174.830343031561
 31
0.0
  0
LINE
  5
    90
  8
0
  6
CONTINUOUS
 62
     3
 10
243.572844194373
 20
174.830343031561
 30
0.0
 11
246.527267456055
 21
175.351287549561
 31
0.0
  0
LINE
  5
    91
  8
0
  6
CONTINUOUS
 62
     3
 10
246.527267456055
 20
175.351287549561
 30
0.0
 11
243.572844194373
 21
175.872232067561
 31
0.0
  0
ENDBLK
  5
    92
  8
0
  6
CONTINUOUS
 62
     3
  0
BLOCK
  5
    93
  8
0
  6
CONTINUOUS
 62
     3
  2
*UDIM633
 70
    65
 10
0.0
 20
0.0
 30
0.0
  3
*UDIM633
  0
TEXT
  5
    94
  8
0
  6
CONTINUOUS
 62
     3
 10
356.252263523638
 20
190.351287549561
 30
0.0
 40
3.00000013411045
  1
47
 41
0.933333333333333
 72
     1
 11
358.752263635397
 21
191.851287616616
 31
0.0
 73
     2
  0
LINE
  5
    95
  8
0
  6
CONTINUOUS
 62
     3
 10
341.402267456055
 20
141.103916625977
 30
0.0
 11
341.402267456055
 21
191.351287549561
 31
0.0
  0
LINE
  5
    96
  8
0
  6
CONTINUOUS
 62
     3
 10
376.652267456055
 20
125.878916625977
 30
0.0
 11
376.652267456055
 21
191.351287549561
 31
0.0
  0
LINE
  5
    97
  8
0
  6
CONTINUOUS
 62
     3
 10
341.402267456055
 20
189.351287549561
 30
0.0
 11
376.652267456055
 21
189.351287549561
 31
0.0
  0
LINE
  5
    98
  8
0
  6
CONTINUOUS
 62
     3
 10
344.356690717736
 20
189.872232067562
 30
0.0
 11
341.402267456055
 21
189.351287549561
 31
0.0
  0
LINE
  5
    99
  8
0
  6
CONTINUOUS
 62
     3
 10
341.402267456055
 20
189.351287549561
 30
0.0
 11
344.356690717736
 21
188.830343031561
 31
0.0
  0
LINE
  5
    9A
  8
0
  6
CONTINUOUS
 62
     3
 10
373.697844194373
 20
188.830343031561
 30
0.0
 11
376.652267456055
 21
189.351287549561
 31
0.0
  0
LINE
  5
    9B
  8
0
  6
CONTINUOUS
 62
     3
 10
376.652267456055
 20
189.351287549561
 30
0.0
 11
373.697844194373
 21
189.872232067562
 31
0.0
  0
ENDBLK
  5
    9C
  8
0
  6
CONTINUOUS
 62
     3
  0
BLOCK
  5
    9D
  8
0
  6
CONTINUOUS
 62
     7
  2
*UDIM634
 70
    65
 10
0.0
 20
0.0
 30
0.0
  3
*UDIM634
  0
TEXT
  5
    9E
  8
0
  6
CONTINUOUS
 62
     7
 10
349.069502274692
 20
68.1696033107525
 30
0.0
 40
3.00000013411045
  1
2.5
 41
0.933333333333333
 72
     1
 11
352.969502449036
 21
69.6696033778077
 31
0.0
 73
     2
  0
TEXT
  5
    9F
  8
0
  6
CONTINUOUS
 62
     7
 10
345.869502176344
 20
68.1696033107525
 30
0.0
 40
3.00000013411045
  1
_
 41
0.933333333333333
 72
     1
 11
346.969502225518
 21
69.6696033778077
 31
0.0
 73
     2
  0
LINE
  5
    A0
  8
0
  6
CONTINUOUS
 62
     7
 10
334.902267456055
 20
67.1696033107525
 30
0.0
 11
356.869502623379
 21
67.1696033107525
 31
0.0
  0
LINE
  5
    A1
  8
0
  6
CONTINUOUS
 62
     3
 10
337.004489982844
 20
66.3931461543339
 30
0.0
 11
339.902267456055
 21
67.1696033107525
 31
0.0
  0
LINE
  5
    A2
  8
0
  6
CONTINUOUS
 62
     3
 10
339.902267456055
 20
67.1696033107525
 30
0.0
 11
337.004489982844
 21
67.946060467171
 31
0.0
  0
LINE
  5
    A3
  8
0
  6
CONTINUOUS
 62
     3
 10
344.300044929265
 20
67.946060467171
 30
0.0
 11
341.402267456055
 21
67.1696033107525
 31
0.0
  0
LINE
  5
    A4
  8
0
  6
CONTINUOUS
 62
     3
 10
341.402267456055
 20
67.1696033107525
 30
0.0
 11
344.300044929265
 21
66.3931461543339
 31
0.0
  0
ENDBLK
  5
    A5
  8
0
  6
CONTINUOUS
 62
     7
  0
BLOCK
  5
    A6
  8
0
  6
CONTINUOUS
 62
     7
  2
*UDIM635
 70
    65
 10
0.0
 20
0.0
 30
0.0
  3
*UDIM635
  0
TEXT
  5
    A7
  8
0
  6
CONTINUOUS
 62
     7
 10
376.994663791924
 20
190.351287549561
 30
0.0
 40
3.00000013411045
  1
23
 41
0.933333333333333
 72
     1
 11
379.494663903682
 21
191.851287616616
 31
0.0
 73
     2
  0
TEXT
  5
    A8
  8
0
  6
CONTINUOUS
 62
     7
 10
382.994664015441
 20
190.351287549561
 30
0.0
 40
3.00000013411045
  1
max.
 41
0.933333333333333
 72
     1
 11
388.294664252369
 21
191.851287616616
 31
0.0
 73
     2
  0
LINE
  5
    A9
  8
0
  6
CONTINUOUS
 62
     7
 10
376.652267456055
 20
126.878916625977
 30
0.0
 11
376.652267456055
 21
191.351287549561
 31
0.0
  0
LINE
  5
    AA
  8
0
  6
CONTINUOUS
 62
     7
 10
390.890126604972
 20
92.315880088537
 30
0.0
 11
390.890126604972
 21
191.351287549561
 31
0.0
  0
LINE
  5
    AB
  8
0
  6
CONTINUOUS
 62
     7
 10
371.652267456055
 20
189.351287549561
 30
0.0
 11
395.890126604972
 21
189.351287549561
 31
0.0
  0
LINE
  5
    AC
  8
0
  6
CONTINUOUS
 62
     3
 10
373.754489982844
 20
188.574830393143
 30
0.0
 11
376.652267456055
 21
189.351287549561
 31
0.0
  0
LINE
  5
    AD
  8
0
  6
CONTINUOUS
 62
     3
 10
376.652267456055
 20
189.351287549561
 30
0.0
 11
373.754489982844
 21
190.12774470598
 31
0.0
  0
LINE
  5
    AE
  8
0
  6
CONTINUOUS
 62
     3
 10
393.787904078183
 20
190.12774470598
 30
0.0
 11
390.890126604972
 21
189.351287549561
 31
0.0
  0
LINE
  5
    AF
  8
0
  6
CONTINUOUS
 62
     3
 10
390.890126604972
 20
189.351287549561
 30
0.0
 11
393.787904078183
 21
188.574830393143
 31
0.0
  0
ENDBLK
  5
    B0
  8
0
  6
CONTINUOUS
 62
     7
  0
BLOCK
  5
    B1
  8
0
  6
CONTINUOUS
 62
     7
  2
*UDIM636
 70
    65
 10
0.0
 20
0.0
 30
0.0
  3
*UDIM636
  0
TEXT
  5
    B2
  8
0
  6
CONTINUOUS
 62
     7
 10
267.364767406881
 20
190.351287549561
 30
0.0
 40
3.00000013411045
  1
A
 41
0.933333333333333
 72
     1
 11
268.464767456055
 21
191.851287616616
 31
0.0
 73
     2
  0
LINE
  5
    B3
  8
0
  6
CONTINUOUS
 62
     7
 10
195.527267456055
 20
166.373916625977
 30
0.0
 11
195.527267456055
 21
191.351287549561
 31
0.0
  0
LINE
  5
    B4
  8
0
  6
CONTINUOUS
 62
     7
 10
341.402267456055
 20
142.103916625977
 30
0.0
 11
341.402267456055
 21
191.351287549561
 31
0.0
  0
LINE
  5
    B5
  8
0
  6
CONTINUOUS
 62
     7
 10
195.527267456055
 20
189.351287549561
 30
0.0
 11
341.402267456055
 21
189.351287549561
 31
0.0
  0
LINE
  5
    B6
  8
0
  6
CONTINUOUS
 62
     3
 10
198.425044929265
 20
190.12774470598
 30
0.0
 11
195.527267456055
 21
189.351287549561
 31
0.0
  0
LINE
  5
    B7
  8
0
  6
CONTINUOUS
 62
     3
 10
195.527267456055
 20
189.351287549561
 30
0.0
 11
198.425044929265
 21
188.574830393143
 31
0.0
  0
LINE
  5
    B8
  8
0
  6
CONTINUOUS
 62
     3
 10
338.504489982844
 20
188.574830393143
 30
0.0
 11
341.402267456055
 21
189.351287549561
 31
0.0
  0
LINE
  5
    B9
  8
0
  6
CONTINUOUS
 62
     3
 10
341.402267456055
 20
189.351287549561
 30
0.0
 11
338.504489982844
 21
190.12774470598
 31
0.0
  0
ENDBLK
  5
    BA
  8
0
  6
CONTINUOUS
 62
     7
  0
BLOCK
  5
    BB
  8
0
  6
CONTINUOUS
 62
     7
  2
*HATCH199
 70
    65
 10
0.0
 20
0.0
 30
0.0
  3
*HATCH199
  0
LINE
  5
    BC
  8
0
  6
CONTINUOUS
 62
     7
 10
96.9955596923828
 20
-33.3560256958008
 30
0.0
 11
97.6395263671875
 21
-34.0
 31
0.0
  0
LINE
  5
    BD
  8
0
  6
CONTINUOUS
 62
     7
 10
100.220344543457
 20
-32.3381767272949
 30
0.0
 11
101.365509033203
 21
-33.4833374023438
 31
0.0
  0
LINE
  5
    BE
  8
0
  6
CONTINUOUS
 62
     7
 10
102.221450805664
 20
-30.0966415405273
 30
0.0
 11
103.412147521973
 21
-31.2873363494873
 31
0.0
  0
LINE
  5
    BF
  8
0
  6
CONTINUOUS
 62
     7
 10
102.300003051758
 20
-25.9325466156006
 30
0.0
 11
103.800003051758
 21
-27.4325485229492
 31
0.0
  0
LINE
  5
    C0
  8
0
  6
CONTINUOUS
 62
     7
 10
102.300003051758
 20
-21.6899032592773
 30
0.0
 11
103.800003051758
 21
-23.189905166626
 31
0.0
  0
LINE
  5
    C1
  8
0
  6
CONTINUOUS
 62
     7
 10
102.300003051758
 20
-17.4472599029541
 30
0.0
 11
103.800003051758
 21
-18.9472618103027
 31
0.0
  0
LINE
  5
    C2
  8
0
  6
CONTINUOUS
 62
     7
 10
102.300003051758
 20
-13.2046165466309
 30
0.0
 11
103.800003051758
 21
-14.7046184539795
 31
0.0
  0
LINE
  5
    C3
  8
0
  6
CONTINUOUS
 62
     7
 10
102.300003051758
 20
-8.96197319030762
 30
0.0
 11
103.800003051758
 21
-10.4619750976563
 31
0.0
  0
LINE
  5
    C4
  8
0
  6
CONTINUOUS
 62
     7
 10
102.300003051758
 20
-4.71932983398438
 30
0.0
 11
103.800003051758
 21
-6.21933174133301
 31
0.0
  0
LINE
  5
    C5
  8
0
  6
CONTINUOUS
 62
     7
 10
102.300003051758
 20
-0.476686477661133
 30
0.0
 11
103.800003051758
 21
-1.97668838500977
 31
0.0
  0
LINE
  5
    C6
  8
0
  6
CONTINUOUS
 62
     7
 10
103.725952148438
 20
2.33999991416931
 30
0.0
 11
103.800003051758
 21
2.26595401763916
 31
0.0
  0
ENDBLK
  5
    C7
  8
0
  6
CONTINUOUS
 62
     7
  0
BLOCK
  5
    C8
  8
0
  6
CONTINUOUS
 62
     7
  2
*HATCH200
 70
    65
 10
0.0
 20
0.0
 30
0.0
  3
*HATCH200
  0
LINE
  5
    C9
  8
0
  6
CONTINUOUS
 62
     7
 10
102.300003051758
 20
16.4938850402832
 30
0.0
 11
102.453887939453
 21
16.3400001525879
 31
0.0
  0
LINE
  5
    CA
  8
0
  6
CONTINUOUS
 62
     7
 10
102.300003051758
 20
20.7365283966064
 30
0.0
 11
103.800003051758
 21
19.2365264892578
 31
0.0
  0
LINE
  5
    CB
  8
0
  6
CONTINUOUS
 62
     7
 10
102.300003051758
 20
24.9791717529297
 30
0.0
 11
103.800003051758
 21
23.4791698455811
 31
0.0
  0
LINE
  5
    CC
  8
0
  6
CONTINUOUS
 62
     7
 10
102.300003051758
 20
29.2218151092529
 30
0.0
 11
103.800003051758
 21
27.7218132019043
 31
0.0
  0
LINE
  5
    CD
  8
0
  6
CONTINUOUS
 62
     7
 10
99.7706451416016
 20
35.9938125610352
 30
0.0
 11
103.746971130371
 21
32.0174865722656
 31
0.0
  0
ENDBLK
  5
    CE
  8
0
  6
CONTINUOUS
 62
     7
  0
BLOCK
  5
    CF
  8
0
  6
CONTINUOUS
 62
     7
  2
*UDIM637
 70
    65
 10
0.0
 20
0.0
 30
0.0
  3
*UDIM637
  0
TEXT
  5
    D0
  8
0
  6
CONTINUOUS
 62
     7
 10
266.974323956668
 20
58.9684555920487
 30
0.0
 40
3.00000013411045
  1
335
 41
0.933333333333333
 72
     1
 11
270.874324131012
 21
60.4684556591039
 31
0.0
 73
     2
  0
LINE
  5
    D1
  8
0
  6
CONTINUOUS
 62
     7
 10
195.527267456055
 20
74.3739166259766
 30
0.0
 11
195.527267456055
 21
55.9684555920487
 31
0.0
  0
LINE
  5
    D2
  8
0
  6
CONTINUOUS
 62
     7
 10
330.752267456055
 20
86.3739166259764
 30
0.0
 11
330.752267456055
 21
55.9684555920487
 31
0.0
  0
LINE
  5
    D3
  8
0
  6
CONTINUOUS
 62
     7
 10
195.527267456055
 20
57.9684555920487
 30
0.0
 11
330.752267456055
 21
57.9684555920487
 31
0.0
  0
LINE
  5
    D4
  8
0
  6
CONTINUOUS
 62
     3
 10
198.425044929265
 20
58.7449127484672
 30
0.0
 11
195.527267456055
 21
57.9684555920487
 31
0.0
  0
LINE
  5
    D5
  8
0
  6
CONTINUOUS
 62
     3
 10
195.527267456055
 20
57.9684555920487
 30
0.0
 11
198.425044929265
 21
57.1919984356301
 31
0.0
  0
LINE
  5
    D6
  8
0
  6
CONTINUOUS
 62
     3
 10
327.854489982844
 20
57.1919984356301
 30
0.0
 11
330.752267456055
 21
57.9684555920487
 31
0.0
  0
LINE
  5
    D7
  8
0
  6
CONTINUOUS
 62
     3
 10
330.752267456055
 20
57.9684555920487
 30
0.0
 11
327.854489982844
 21
58.7449127484672
 31
0.0
  0
ENDBLK
  5
    D8
  8
0
  6
CONTINUOUS
 62
     7
  0
BLOCK
  5
    D9
  8
0
  6
CONTINUOUS
 62
     7
  2
*HATCH201
 70
    65
 10
0.0
 20
0.0
 30
0.0
  3
*HATCH201
  0
LINE
  5
    DA
  8
0
  6
CONTINUOUS
 62
     7
 10
22.5161457061768
 20
3.0
 30
0.0
 11
22.376916885376
 21
2.86077189445496
 31
0.0
  0
LINE
  5
    DB
  8
0
  6
CONTINUOUS
 62
     7
 10
22.9404106140137
 20
3.0
 30
0.0
 11
22.376916885376
 21
2.43650794029236
 31
0.0
  0
LINE
  5
    DC
  8
0
  6
CONTINUOUS
 62
     7
 10
23.3646755218506
 20
3.0
 30
0.0
 11
22.376916885376
 21
2.01224398612976
 31
0.0
  0
LINE
  5
    DD
  8
0
  6
CONTINUOUS
 62
     7
 10
23.7889366149902
 20
3.0
 30
0.0
 11
22.7889366149902
 21
2.0
 31
0.0
  0
LINE
  5
    DE
  8
0
  6
CONTINUOUS
 62
     7
 10
24.2132015228272
 20
3.0
 30
0.0
 11
23.2132015228271
 21
2.0
 31
0.0
  0
LINE
  5
    DF
  8
0
  6
CONTINUOUS
 62
     7
 10
24.6374664306641
 20
3.0
 30
0.0
 11
23.6374664306641
 21
2.0
 31
0.0
  0
LINE
  5
    E0
  8
0
  6
CONTINUOUS
 62
     7
 10
25.061731338501
 20
3.0
 30
0.0
 11
24.061731338501
 21
2.0
 31
0.0
  0
LINE
  5
    E1
  8
0
  6
CONTINUOUS
 62
     7
 10
25.4859962463379
 20
3.0
 30
0.0
 11
24.4859962463379
 21
2.0
 31
0.0
  0
LINE
  5
    E2
  8
0
  6
CONTINUOUS
 62
     7
 10
25.9102611541748
 20
3.0
 30
0.0
 11
24.9102611541748
 21
2.0
 31
0.0
  0
LINE
  5
    E3
  8
0
  6
CONTINUOUS
 62
     7
 10
26.3345260620117
 20
3.0
 30
0.0
 11
25.3345260620117
 21
2.0
 31
0.0
  0
LINE
  5
    E4
  8
0
  6
CONTINUOUS
 62
     7
 10
26.3919277191162
 20
2.63314294815063
 30
0.0
 11
25.7587852478027
 21
2.0
 31
0.0
  0
LINE
  5
    E5
  8
0
  6
CONTINUOUS
 62
     7
 10
26.3919277191162
 20
2.20887899398804
 30
0.0
 11
26.1830501556397
 21
2.0
 31
0.0
  0
ENDBLK
  5
    E6
  8
0
  6
CONTINUOUS
 62
     7
  0
BLOCK
  5
    E7
  8
0
  6
CONTINUOUS
 62
   130
  2
*HATCH202
 70
    65
 10
0.0
 20
0.0
 30
0.0
  3
*HATCH202
  0
LINE
  5
    E8
  8
0
  6
CONTINUOUS
 62
     7
 10
-5.96488475799561
 20
33.9159317016602
 30
0.0
 11
-6.99865198135376
 21
32.8821640014648
 31
0.0
  0
LINE
  5
    E9
  8
0
  6
CONTINUOUS
 62
     7
 10
-5.3117094039917
 20
34.1448402404785
 30
0.0
 11
-7.12412595748901
 21
32.3324241638184
 31
0.0
  0
LINE
  5
    EA
  8
0
  6
CONTINUOUS
 62
     7
 10
-4.8874454498291
 20
34.1448402404785
 30
0.0
 11
-7.16883420944214
 21
31.863452911377
 31
0.0
  0
LINE
  5
    EB
  8
0
  6
CONTINUOUS
 62
     7
 10
-4.47854709625244
 20
34.1294746398926
 30
0.0
 11
-5.72164249420166
 21
32.8863792419434
 31
0.0
  0
LINE
  5
    EC
  8
0
  6
CONTINUOUS
 62
     7
 10
-6.00361633300781
 20
32.6044082641602
 30
0.0
 11
-7.08999347686768
 21
31.518030166626
 31
0.0
  0
LINE
  5
    ED
  8
0
  6
CONTINUOUS
 62
     7
 10
-4.19218683242798
 20
33.9915733337402
 30
0.0
 11
-5.04249143600464
 21
33.1412696838379
 31
0.0
  0
LINE
  5
    EE
  8
0
  6
CONTINUOUS
 62
     7
 10
-6.19601726531982
 20
31.9877414703369
 30
0.0
 11
-7.01115274429321
 21
31.1726055145264
 31
0.0
  0
LINE
  5
    EF
  8
0
  6
CONTINUOUS
 62
     7
 10
-3.90582680702209
 20
33.8536682128906
 30
0.0
 11
-4.62283611297607
 21
33.1366577148438
 31
0.0
  0
LINE
  5
    F0
  8
0
  6
CONTINUOUS
 62
     7
 10
-6.09197187423706
 20
31.6675224304199
 30
0.0
 11
-6.86318874359131
 21
30.8963069915771
 31
0.0
  0
LINE
  5
    F1
  8
0
  6
CONTINUOUS
 62
     7
 10
-3.62250113487244
 20
33.7127304077148
 30
0.0
 11
-4.37710571289063
 21
32.9581260681152
 31
0.0
  0
LINE
  5
    F2
  8
0
  6
CONTINUOUS
 62
     7
 10
-5.9879264831543
 20
31.3473052978516
 30
0.0
 11
-6.67495822906494
 21
30.6602725982666
 31
0.0
  0
LINE
  5
    F3
  8
0
  6
CONTINUOUS
 62
     7
 10
-3.43427085876465
 20
33.4766960144043
 30
0.0
 11
-4.13137531280518
 21
32.7795906066895
 31
0.0
  0
LINE
  5
    F4
  8
0
  6
CONTINUOUS
 62
     7
 10
-5.76549053192139
 20
31.1454772949219
 30
0.0
 11
-6.48672771453857
 21
30.4242401123047
 31
0.0
  0
LINE
  5
    F5
  8
0
  6
CONTINUOUS
 62
     7
 10
-3.24604034423828
 20
33.2406616210938
 30
0.0
 11
-3.96840524673462
 21
32.5182991027832
 31
0.0
  0
LINE
  5
    F6
  8
0
  6
CONTINUOUS
 62
     7
 10
-5.51976013183594
 20
30.9669437408447
 30
0.0
 11
-6.26034641265869
 21
30.2263565063477
 31
0.0
  0
LINE
  5
    F7
  8
0
  6
CONTINUOUS
 62
     7
 10
-3.05780982971191
 20
33.0046272277832
 30
0.0
 11
-3.86435985565186
 21
32.1980781555176
 31
0.0
  0
LINE
  5
    F8
  8
0
  6
CONTINUOUS
 62
     7
 10
-5.20370674133301
 20
30.8587322235107
 30
0.0
 11
-5.97398662567139
 21
30.0884532928467
 31
0.0
  0
LINE
  5
    F9
  8
0
  6
CONTINUOUS
 62
     7
 10
-2.95575737953186
 20
32.6824188232422
 30
0.0
 11
-3.87788724899292
 21
31.7602882385254
 31
0.0
  0
LINE
  5
    FA
  8
0
  6
CONTINUOUS
 62
     7
 10
-4.77944278717041
 20
30.8587322235107
 30
0.0
 11
-5.68762636184692
 21
29.9505481719971
 31
0.0
  0
LINE
  5
    FB
  8
0
  6
CONTINUOUS
 62
     7
 10
-2.8769166469574
 20
32.3369941711426
 30
0.0
 11
-5.35875272750854
 21
29.8551578521729
 31
0.0
  0
LINE
  5
    FC
  8
0
  6
CONTINUOUS
 62
     7
 10
-2.80306196212769
 20
31.9865856170654
 30
0.0
 11
-4.93448877334595
 21
29.8551578521729
 31
0.0
  0
LINE
  5
    FD
  8
0
  6
CONTINUOUS
 62
     7
 10
-2.92853593826294
 20
31.4368476867676
 30
0.0
 11
-4.51001167297363
 21
29.8553714752197
 31
0.0
  0
LINE
  5
    FE
  8
0
  6
CONTINUOUS
 62
     7
 10
-3.49906635284424
 20
30.4420528411865
 30
0.0
 11
-3.69164085388184
 21
30.2494773864746
 31
0.0
  0
ENDBLK
  5
    FF
  8
0
  6
CONTINUOUS
 62
   130
  0
BLOCK
  5
   100
  8
0
  6
CONTINUOUS
 62
     3
  2
*UDIM638
 70
    65
 10
0.0
 20
0.0
 30
0.0
  3
*UDIM638
  0
TEXT
  5
   101
  8
0
  6
CONTINUOUS
 62
     3
 10
106.007865826793
 20
55.3012446388829
 30
0.0
 40
3.00000013411045
  1
2.5
 50
360.0
 41
0.933333333333333
 72
     1
 11
109.907866001129
 21
56.8012447059577
 31
0.0
 73
     2
  0
LINE
  5
   102
  8
0
  6
CONTINUOUS
 62
     3
 10
115.502136230469
 20
91.1289215087891
 30
0.0
 11
115.502136230469
 21
52.3012446389025
 31
0.0
  0
LINE
  5
   103
  8
0
  6
CONTINUOUS
 62
     3
 10
122.377136230469
 20
54.3012446389025
 30
0.0
 11
106.007865826786
 21
54.3012446389025
 31
0.0
  0
LINE
  5
   104
  8
0
  6
CONTINUOUS
 62
     3
 10
120.274913703679
 20
55.077701795321
 30
0.0
 11
117.377136230469
 21
54.3012446389025
 31
0.0
  0
LINE
  5
   105
  8
0
  6
CONTINUOUS
 62
     3
 10
117.377136230469
 20
54.3012446389025
 30
0.0
 11
120.274913703679
 21
53.5247874824839
 31
0.0
  0
LINE
  5
   106
  8
0
  6
CONTINUOUS
 62
     3
 10
112.604358757258
 20
53.5247874824839
 30
0.0
 11
115.502136230469
 21
54.3012446389025
 31
0.0
  0
LINE
  5
   107
  8
0
  6
CONTINUOUS
 62
     3
 10
115.502136230469
 20
54.3012446389025
 30
0.0
 11
112.604358757258
 21
55.077701795321
 31
0.0
  0
ENDBLK
  5
   108
  8
0
  6
CONTINUOUS
 62
     3
  0
BLOCK
  5
   109
  8
0
  6
CONTINUOUS
 62
     3
  2
*UDIM639
 70
    65
 10
0.0
 20
0.0
 30
0.0
  3
*UDIM639
  0
TEXT
  5
   10A
  8
0
  6
CONTINUOUS
 62
     3
 10
128.477135159083
 20
45.4491598095188
 30
0.0
 40
3.00000013411045
  1
42
 50
360.0
 41
0.933333333333333
 72
     1
 11
130.977135270834
 21
46.9491598765866
 31
0.0
 73
     2
  0
LINE
  5
   10B
  8
0
  6
CONTINUOUS
 62
     3
 10
147.002136230469
 20
110.503921508789
 30
0.0
 11
147.002136230469
 21
42.4491598095314
 31
0.0
  0
LINE
  5
   10C
  8
0
  6
CONTINUOUS
 62
     3
 10
115.502136230469
 20
92.1289215087891
 30
0.0
 11
115.502136230469
 21
42.4491598095314
 31
0.0
  0
LINE
  5
   10D
  8
0
  6
CONTINUOUS
 62
     3
 10
147.002136230469
 20
44.4491598095314
 30
0.0
 11
115.502136230469
 21
44.4491598095314
 31
0.0
  0
LINE
  5
   10E
  8
0
  6
CONTINUOUS
 62
     3
 10
144.047712968787
 20
43.928215291531
 30
0.0
 11
147.002136230469
 21
44.4491598095314
 31
0.0
  0
LINE
  5
   10F
  8
0
  6
CONTINUOUS
 62
     3
 10
147.002136230469
 20
44.4491598095314
 30
0.0
 11
144.047712968787
 21
44.9701043275317
 31
0.0
  0
LINE
  5
   110
  8
0
  6
CONTINUOUS
 62
     3
 10
118.45655949215
 20
44.9701043275317
 30
0.0
 11
115.502136230469
 21
44.4491598095314
 31
0.0
  0
LINE
  5
   111
  8
0
  6
CONTINUOUS
 62
     3
 10
115.502136230469
 20
44.4491598095314
 30
0.0
 11
118.45655949215
 21
43.928215291531
 31
0.0
  0
ENDBLK
  5
   112
  8
0
  6
CONTINUOUS
 62
     3
  0
BLOCK
  5
   113
  8
0
  6
CONTINUOUS
 62
     3
  2
*UDIM640
 70
    65
 10
0.0
 20
0.0
 30
0.0
  3
*UDIM640
  0
TEXT
  5
   114
  8
0
  6
CONTINUOUS
 62
     3
 10
168.831817626958
 20
119.074526230993
 30
0.0
 40
3.00000013411045
  1
6,8
 50
90.0
 41
0.933333333333333
 72
     1
 11
167.331817559898
 21
122.974526405334
 31
0.0
 73
     2
  0
LINE
  5
   115
  8
0
  6
CONTINUOUS
 62
     3
 10
169.831817626953
 20
111.373916625977
 30
0.0
 11
169.831817626953
 21
126.874526579678
 31
0.0
  0
LINE
  5
   116
  8
0
  6
CONTINUOUS
 62
     3
 10
170.352762144953
 20
108.419493364295
 30
0.0
 11
169.831817626953
 21
111.373916625977
 31
0.0
  0
LINE
  5
   117
  8
0
  6
CONTINUOUS
 62
     3
 10
169.831817626953
 20
111.373916625977
 30
0.0
 11
169.310873108953
 21
108.419493364295
 31
0.0
  0
LINE
  5
   118
  8
0
  6
CONTINUOUS
 62
     3
 10
169.310873108953
 20
119.458344770471
 30
0.0
 11
169.831817626953
 21
116.503921508789
 31
0.0
  0
LINE
  5
   119
  8
0
  6
CONTINUOUS
 62
     3
 10
169.831817626953
 20
116.503921508789
 30
0.0
 11
170.352762144953
 21
119.458344770471
 31
0.0
  0
ENDBLK
  5
   11A
  8
0
  6
CONTINUOUS
 62
     3
  0
BLOCK
  5
   11B
  8
0
  6
CONTINUOUS
 62
     7
  2
*UDIM641
 70
    65
 10
0.0
 20
0.0
 30
0.0
  3
*UDIM641
  0
TEXT
  5
   11C
  8
0
  6
CONTINUOUS
 62
     7
 10
27.8092514204947
 20
116.003921464087
 30
0.0
 40
3.00000013411045
  1
65
 50
90.0
 41
0.933333333333333
 72
     1
 11
26.3092513534363
 21
118.503921575844
 31
0.0
 73
     2
  0
TEXT
  5
   11D
  8
0
  6
CONTINUOUS
 62
     7
 10
27.8092514204934
 20
112.003921329977
 30
0.0
 40
3.00000013411045
  1
Ø
 50
90.0
 41
1.2
 72
     1
 11
26.3092513534363
 21
113.50392139703
 31
0.0
 73
     2
  0
LINE
  5
   11E
  8
0
  6
CONTINUOUS
 62
     7
 10
114.502136230469
 20
92.1289215087891
 30
0.0
 11
26.8092514204915
 21
92.1289215087891
 31
0.0
  0
LINE
  5
   11F
  8
0
  6
CONTINUOUS
 62
     7
 10
114.502136230469
 20
140.878921508789
 30
0.0
 11
26.8092514204915
 21
140.878921508789
 31
0.0
  0
LINE
  5
   120
  8
0
  6
CONTINUOUS
 62
     7
 10
28.8092514204915
 20
92.1289215087891
 30
0.0
 11
28.8092514204915
 21
140.878921508789
 31
0.0
  0
LINE
  5
   121
  8
0
  6
CONTINUOUS
 62
     3
 10
28.032794264073
 20
95.0266989819996
 30
0.0
 11
28.8092514204915
 21
92.1289215087891
 31
0.0
  0
LINE
  5
   122
  8
0
  6
CONTINUOUS
 62
     3
 10
28.8092514204915
 20
92.1289215087891
 30
0.0
 11
29.5857085769101
 21
95.0266989819996
 31
0.0
  0
LINE
  5
   123
  8
0
  6
CONTINUOUS
 62
     3
 10
29.5857085769101
 20
137.981144035579
 30
0.0
 11
28.8092514204915
 21
140.878921508789
 31
0.0
  0
LINE
  5
   124
  8
0
  6
CONTINUOUS
 62
     3
 10
28.8092514204915
 20
140.878921508789
 30
0.0
 11
28.032794264073
 21
137.981144035579
 31
0.0
  0
ENDBLK
  5
   125
  8
0
  6
CONTINUOUS
 62
     7
  0
BLOCK
  5
   126
  8
0
  6
CONTINUOUS
 62
     7
  2
*HATCH203
 70
    65
 10
0.0
 20
0.0
 30
0.0
  3
*HATCH203
  0
LINE
  5
   127
  8
0
  6
CONTINUOUS
 62
     7
 10
-34.7894668579102
 20
108.611763000488
 30
0.0
 11
-35.0
 21
108.401229858398
 31
0.0
  0
LINE
  5
   128
  8
0
  6
CONTINUOUS
 62
     7
 10
-34.3652038574219
 20
108.611763000488
 30
0.0
 11
-35.0
 21
107.97696685791
 31
0.0
  0
LINE
  5
   129
  8
0
  6
CONTINUOUS
 62
     7
 10
-33.9409408569336
 20
108.611763000488
 30
0.0
 11
-35.0
 21
107.552703857422
 31
0.0
  0
LINE
  5
   12A
  8
0
  6
CONTINUOUS
 62
     7
 10
-33.5166778564453
 20
108.611763000488
 30
0.0
 11
-35.0
 21
107.128440856934
 31
0.0
  0
LINE
  5
   12B
  8
0
  6
CONTINUOUS
 62
     7
 10
-33.092414855957
 20
108.611763000488
 30
0.0
 11
-35.0
 21
106.704177856445
 31
0.0
  0
LINE
  5
   12C
  8
0
  6
CONTINUOUS
 62
     7
 10
-32.6681518554688
 20
108.611763000488
 30
0.0
 11
-35.0
 21
106.279914855957
 31
0.0
  0
LINE
  5
   12D
  8
0
  6
CONTINUOUS
 62
     7
 10
-32.2438812255859
 20
108.611763000488
 30
0.0
 11
-34.7438812255859
 21
106.111763000488
 31
0.0
  0
LINE
  5
   12E
  8
0
  6
CONTINUOUS
 62
     7
 10
-31.819616317749
 20
108.611763000488
 30
0.0
 11
-34.3196182250977
 21
106.111763000488
 31
0.0
  0
LINE
  5
   12F
  8
0
  6
CONTINUOUS
 62
     7
 10
-31.3953514099121
 20
108.611763000488
 30
0.0
 11
-33.8953552246094
 21
106.111763000488
 31
0.0
  0
LINE
  5
   130
  8
0
  6
CONTINUOUS
 62
     7
 10
-30.9710865020752
 20
108.611763000488
 30
0.0
 11
-33.4710922241211
 21
106.111763000488
 31
0.0
  0
LINE
  5
   131
  8
0
  6
CONTINUOUS
 62
     7
 10
-30.5468215942383
 20
108.611763000488
 30
0.0
 11
-33.0468292236328
 21
106.111763000488
 31
0.0
  0
LINE
  5
   132
  8
0
  6
CONTINUOUS
 62
     7
 10
-30.1225566864014
 20
108.611763000488
 30
0.0
 11
-32.6225662231445
 21
106.111763000488
 31
0.0
  0
LINE
  5
   133
  8
0
  6
CONTINUOUS
 62
     7
 10
-29.6982917785645
 20
108.611763000488
 30
0.0
 11
-32.1983032226563
 21
106.111763000488
 31
0.0
  0
LINE
  5
   134
  8
0
  6
CONTINUOUS
 62
     7
 10
-29.2740268707275
 20
108.611763000488
 30
0.0
 11
-31.7740383148193
 21
106.111763000488
 31
0.0
  0
LINE
  5
   135
  8
0
  6
CONTINUOUS
 62
     7
 10
-28.8497619628906
 20
108.611763000488
 30
0.0
 11
-31.3497734069824
 21
106.111763000488
 31
0.0
  0
LINE
  5
   136
  8
0
  6
CONTINUOUS
 62
     7
 10
-28.4254970550537
 20
108.611763000488
 30
0.0
 11
-30.9255084991455
 21
106.111763000488
 31
0.0
  0
LINE
  5
   137
  8
0
  6
CONTINUOUS
 62
     7
 10
-28.0012321472168
 20
108.611763000488
 30
0.0
 11
-30.5012435913086
 21
106.111763000488
 31
0.0
  0
LINE
  5
   138
  8
0
  6
CONTINUOUS
 62
     7
 10
-27.5769672393799
 20
108.611763000488
 30
0.0
 11
-30.0769786834717
 21
106.111763000488
 31
0.0
  0
LINE
  5
   139
  8
0
  6
CONTINUOUS
 62
     7
 10
-27.152702331543
 20
108.611763000488
 30
0.0
 11
-29.6527137756348
 21
106.111763000488
 31
0.0
  0
LINE
  5
   13A
  8
0
  6
CONTINUOUS
 62
     7
 10
-26.7284374237061
 20
108.611763000488
 30
0.0
 11
-29.2284488677979
 21
106.111763000488
 31
0.0
  0
LINE
  5
   13B
  8
0
  6
CONTINUOUS
 62
     7
 10
-26.3041725158691
 20
108.611763000488
 30
0.0
 11
-28.8041839599609
 21
106.111763000488
 31
0.0
  0
LINE
  5
   13C
  8
0
  6
CONTINUOUS
 62
     7
 10
-25.8799076080322
 20
108.611763000488
 30
0.0
 11
-28.379919052124
 21
106.111763000488
 31
0.0
  0
LINE
  5
   13D
  8
0
  6
CONTINUOUS
 62
     7
 10
-25.4556427001953
 20
108.611763000488
 30
0.0
 11
-27.9556541442871
 21
106.111763000488
 31
0.0
  0
LINE
  5
   13E
  8
0
  6
CONTINUOUS
 62
     7
 10
-25.0313777923584
 20
108.611763000488
 30
0.0
 11
-27.5313892364502
 21
106.111763000488
 31
0.0
  0
LINE
  5
   13F
  8
0
  6
CONTINUOUS
 62
     7
 10
-25.0
 20
108.218894958496
 30
0.0
 11
-27.1071300506592
 21
106.111763000488
 31
0.0
  0
LINE
  5
   140
  8
0
  6
CONTINUOUS
 62
     7
 10
-25.0
 20
107.794631958008
 30
0.0
 11
-26.6828651428223
 21
106.111763000488
 31
0.0
  0
LINE
  5
   141
  8
0
  6
CONTINUOUS
 62
     7
 10
-25.0
 20
107.37036895752
 30
0.0
 11
-26.2586002349854
 21
106.111763000488
 31
0.0
  0
LINE
  5
   142
  8
0
  6
CONTINUOUS
 62
     7
 10
-25.0
 20
106.946105957031
 30
0.0
 11
-25.8343353271484
 21
106.111763000488
 31
0.0
  0
LINE
  5
   143
  8
0
  6
CONTINUOUS
 62
     7
 10
-25.0
 20
106.521842956543
 30
0.0
 11
-25.4100704193115
 21
106.111763000488
 31
0.0
  0
ENDBLK
  5
   144
  8
0
  6
CONTINUOUS
 62
     7
  0
BLOCK
  5
   145
  8
0
  6
CONTINUOUS
 62
     7
  2
*HATCH204
 70
    65
 10
0.0
 20
0.0
 30
0.0
  3
*HATCH204
  0
LINE
  5
   146
  8
0
  6
CONTINUOUS
 62
     7
 10
30.1229286193848
 20
108.611763000488
 30
0.0
 11
30.0
 21
108.488838195801
 31
0.0
  0
LINE
  5
   147
  8
0
  6
CONTINUOUS
 62
     7
 10
30.5471935272217
 20
108.611763000488
 30
0.0
 11
30.0
 21
108.064575195312
 31
0.0
  0
LINE
  5
   148
  8
0
  6
CONTINUOUS
 62
     7
 10
30.9714584350586
 20
108.611763000488
 30
0.0
 11
30.0
 21
107.640312194824
 31
0.0
  0
LINE
  5
   149
  8
0
  6
CONTINUOUS
 62
     7
 10
31.3957233428955
 20
108.611763000488
 30
0.0
 11
30.0
 21
107.216049194336
 31
0.0
  0
LINE
  5
   14A
  8
0
  6
CONTINUOUS
 62
     7
 10
31.8199882507324
 20
108.611763000488
 30
0.0
 11
30.0
 21
106.791786193848
 31
0.0
  0
LINE
  5
   14B
  8
0
  6
CONTINUOUS
 62
     7
 10
32.2442512512207
 20
108.611763000488
 30
0.0
 11
30.0
 21
106.367523193359
 31
0.0
  0
LINE
  5
   14C
  8
0
  6
CONTINUOUS
 62
     7
 10
32.668514251709
 20
108.611763000488
 30
0.0
 11
30.1685123443604
 21
106.111763000488
 31
0.0
  0
LINE
  5
   14D
  8
0
  6
CONTINUOUS
 62
     7
 10
33.0927772521973
 20
108.611763000488
 30
0.0
 11
30.5927772521973
 21
106.111763000488
 31
0.0
  0
LINE
  5
   14E
  8
0
  6
CONTINUOUS
 62
     7
 10
33.5170402526856
 20
108.611763000488
 30
0.0
 11
31.0170421600342
 21
106.111763000488
 31
0.0
  0
LINE
  5
   14F
  8
0
  6
CONTINUOUS
 62
     7
 10
33.9413032531738
 20
108.611763000488
 30
0.0
 11
31.4413070678711
 21
106.111763000488
 31
0.0
  0
LINE
  5
   150
  8
0
  6
CONTINUOUS
 62
     7
 10
34.3655662536621
 20
108.611763000488
 30
0.0
 11
31.865571975708
 21
106.111763000488
 31
0.0
  0
LINE
  5
   151
  8
0
  6
CONTINUOUS
 62
     7
 10
34.7898292541504
 20
108.611763000488
 30
0.0
 11
32.2898368835449
 21
106.111763000488
 31
0.0
  0
LINE
  5
   152
  8
0
  6
CONTINUOUS
 62
     7
 10
35.2140922546387
 20
108.611763000488
 30
0.0
 11
32.7140998840332
 21
106.111763000488
 31
0.0
  0
LINE
  5
   153
  8
0
  6
CONTINUOUS
 62
     7
 10
35.638355255127
 20
108.611763000488
 30
0.0
 11
33.1383628845215
 21
106.111763000488
 31
0.0
  0
LINE
  5
   154
  8
0
  6
CONTINUOUS
 62
     7
 10
36.0626182556152
 20
108.611763000488
 30
0.0
 11
33.5626258850098
 21
106.111763000488
 31
0.0
  0
LINE
  5
   155
  8
0
  6
CONTINUOUS
 62
     7
 10
36.4868812561035
 20
108.611763000488
 30
0.0
 11
33.986888885498
 21
106.111763000488
 31
0.0
  0
LINE
  5
   156
  8
0
  6
CONTINUOUS
 62
     7
 10
36.9111442565918
 20
108.611763000488
 30
0.0
 11
34.4111518859863
 21
106.111763000488
 31
0.0
  0
LINE
  5
   157
  8
0
  6
CONTINUOUS
 62
     7
 10
37.3354072570801
 20
108.611763000488
 30
0.0
 11
34.8354148864746
 21
106.111763000488
 31
0.0
  0
LINE
  5
   158
  8
0
  6
CONTINUOUS
 62
     7
 10
37.7596702575684
 20
108.611763000488
 30
0.0
 11
35.2596778869629
 21
106.111763000488
 31
0.0
  0
LINE
  5
   159
  8
0
  6
CONTINUOUS
 62
     7
 10
38.1839332580566
 20
108.611763000488
 30
0.0
 11
35.6839408874512
 21
106.111763000488
 31
0.0
  0
LINE
  5
   15A
  8
0
  6
CONTINUOUS
 62
     7
 10
38.6081962585449
 20
108.611763000488
 30
0.0
 11
36.1082038879395
 21
106.111763000488
 31
0.0
  0
LINE
  5
   15B
  8
0
  6
CONTINUOUS
 62
     7
 10
39.0324592590332
 20
108.611763000488
 30
0.0
 11
36.5324668884277
 21
106.111763000488
 31
0.0
  0
LINE
  5
   15C
  8
0
  6
CONTINUOUS
 62
     7
 10
39.4567222595215
 20
108.611763000488
 30
0.0
 11
36.956729888916
 21
106.111763000488
 31
0.0
  0
LINE
  5
   15D
  8
0
  6
CONTINUOUS
 62
     7
 10
39.8809852600098
 20
108.611763000488
 30
0.0
 11
37.3809928894043
 21
106.111763000488
 31
0.0
  0
LINE
  5
   15E
  8
0
  6
CONTINUOUS
 62
     7
 10
40.0
 20
108.306495666504
 30
0.0
 11
37.8052635192871
 21
106.111763000488
 31
0.0
  0
LINE
  5
   15F
  8
0
  6
CONTINUOUS
 62
     7
 10
40.0
 20
107.882232666016
 30
0.0
 11
38.2295265197754
 21
106.111763000488
 31
0.0
  0
LINE
  5
   160
  8
0
  6
CONTINUOUS
 62
     7
 10
40.0
 20
107.457969665527
 30
0.0
 11
38.6537895202637
 21
106.111763000488
 31
0.0
  0
LINE
  5
   161
  8
0
  6
CONTINUOUS
 62
     7
 10
40.0
 20
107.033706665039
 30
0.0
 11
39.078052520752
 21
106.111763000488
 31
0.0
  0
LINE
  5
   162
  8
0
  6
CONTINUOUS
 62
     7
 10
40.0
 20
106.609443664551
 30
0.0
 11
39.5023155212402
 21
106.111763000488
 31
0.0
  0
LINE
  5
   163
  8
0
  6
CONTINUOUS
 62
     7
 10
40.0
 20
106.185180664063
 30
0.0
 11
39.9265785217285
 21
106.111763000488
 31
0.0
  0
ENDBLK
  5
   164
  8
0
  6
CONTINUOUS
 62
     7
  0
BLOCK
  5
   165
  8
0
  6
CONTINUOUS
 62
     3
  2
*UDIM642
 70
    65
 10
0.0
 20
0.0
 30
0.0
  3
*UDIM642
  0
TEXT
  5
   166
  8
0
  6
CONTINUOUS
 62
     3
 10
153.676067892609
 20
39.2345412435209
 30
0.0
 40
3.00000013411045
  1
R min.200
 50
360.0
 41
0.933333333333333
 72
     1
 11
165.976068442455
 21
40.7345413106379
 31
0.0
 73
     2
  0
LINE
  5
   167
  8
0
  6
CONTINUOUS
 62
     3
 10
196.96094362816
 20
29.256690353176
 30
0.0
 11
196.960947861365
 21
40.2345412435825
 31
0.0
  0
LINE
  5
   168
  8
0
  6
CONTINUOUS
 62
     3
 10
115.502132253877
 20
38.2345412435827
 30
0.0
 11
196.960947090139
 21
38.2345412435827
 31
0.0
  0
LINE
  5
   169
  8
0
  6
CONTINUOUS
 62
     3
 10
118.456555515559
 20
38.755485761583
 30
0.0
 11
115.502132253877
 21
38.2345412435827
 31
0.0
  0
LINE
  5
   16A
  8
0
  6
CONTINUOUS
 62
     3
 10
115.502132253877
 20
38.2345412435827
 30
0.0
 11
118.456555515559
 21
37.7135967255824
 31
0.0
  0
LINE
  5
   16B
  8
0
  6
CONTINUOUS
 62
     3
 10
194.006523828457
 20
37.7135967255824
 30
0.0
 11
196.960947090139
 21
38.2345412435827
 31
0.0
  0
LINE
  5
   16C
  8
0
  6
CONTINUOUS
 62
     3
 10
196.960947090139
 20
38.2345412435827
 30
0.0
 11
194.006523828457
 21
38.755485761583
 31
0.0
  0
ENDBLK
  5
   16D
  8
0
  6
CONTINUOUS
 62
     3
  0
BLOCK
  5
   16E
  8
0
  6
CONTINUOUS
 62
     3
  2
*UDIM643
 70
    65
 10
0.0
 20
0.0
 30
0.0
  3
*UDIM643
  0
TEXT
  5
   16F
  8
0
  6
CONTINUOUS
 62
     3
 10
112.819810636349
 20
-64.1352809033761
 30
0.0
 40
3.00000013411045
  1
53
 50
360.0
 41
0.933333333333333
 72
     1
 11
115.3198107481
 21
-62.6352808363083
 31
0.0
 73
     2
  0
LINE
  5
   170
  8
0
  6
CONTINUOUS
 62
     3
 10
95.6271362304688
 20
-10.8263006210327
 30
0.0
 11
95.6271362304688
 21
-67.1352809033635
 31
0.0
  0
LINE
  5
   171
  8
0
  6
CONTINUOUS
 62
     3
 10
135.377136230469
 20
-10.8263006210327
 30
0.0
 11
135.377136230469
 21
-67.1352809033635
 31
0.0
  0
LINE
  5
   172
  8
0
  6
CONTINUOUS
 62
     3
 10
95.6271362304688
 20
-65.1352809033635
 30
0.0
 11
135.377136230469
 21
-65.1352809033635
 31
0.0
  0
LINE
  5
   173
  8
0
  6
CONTINUOUS
 62
     3
 10
98.5815594921504
 20
-64.6143363853632
 30
0.0
 11
95.6271362304688
 21
-65.1352809033635
 31
0.0
  0
LINE
  5
   174
  8
0
  6
CONTINUOUS
 62
     3
 10
95.6271362304688
 20
-65.1352809033635
 30
0.0
 11
98.5815594921504
 21
-65.6562254213639
 31
0.0
  0
LINE
  5
   175
  8
0
  6
CONTINUOUS
 62
     3
 10
132.422712968787
 20
-65.6562254213639
 30
0.0
 11
135.377136230469
 21
-65.1352809033635
 31
0.0
  0
LINE
  5
   176
  8
0
  6
CONTINUOUS
 62
     3
 10
135.377136230469
 20
-65.1352809033635
 30
0.0
 11
132.422712968787
 21
-64.6143363853632
 31
0.0
  0
ENDBLK
  5
   177
  8
0
  6
CONTINUOUS
 62
     3
  0
BLOCK
  5
   178
  8
0
  6
CONTINUOUS
 62
     3
  2
*UDIM644
 70
    65
 10
0.0
 20
0.0
 30
0.0
  3
*UDIM644
  0
TEXT
  5
   179
  8
0
  6
CONTINUOUS
 62
     3
 10
129.957105380505
 20
34.1958588847579
 30
0.0
 40
3.00000013411045
  1
45
 50
337.833756244447
 41
0.933333333333333
 72
     1
 11
132.838280945373
 21
34.6417603585933
 31
0.0
 73
     2
  0
TEXT
  5
   17A
  8
0
  6
CONTINUOUS
 62
     3
 10
134.813947891717
 20
32.8650384372082
 30
0.0
 40
3.00000013411045
  1
°
 50
337.833756244447
 41
0.933333333333333
 72
     1
 11
136.398593153986
 21
33.8391532672551
 31
0.0
 73
     2
  0
LINE
  5
   17B
  8
0
  6
CONTINUOUS
 62
     3
 10
147.783841695641
 20
21.455404844139
 30
0.0
 11
149.548266531667
 21
23.2198296801656
 31
0.0
  0
ARC
  5
   17C
  8
0
  6
CONTINUOUS
 62
     3
 10
115.502136230469
 20
-10.8263006210327
 30
0.0
 40
46.1484992182763
 50
44.9999999740171
 51
89.9999999480344
  0
LINE
  5
   17D
  8
0
  6
CONTINUOUS
 62
     3
 10
145.676596845164
 20
23.5263454393229
 30
0.0
 11
148.134052969294
 21
21.8056161177925
 31
0.0
  0
LINE
  5
   17E
  8
0
  6
CONTINUOUS
 62
     3
 10
148.134052969294
 20
21.8056161177925
 30
0.0
 11
146.413323647764
 21
24.2630722419229
 31
0.0
  0
LINE
  5
   17F
  8
0
  6
CONTINUOUS
 62
     3
 10
118.45655949215
 20
35.8431431152439
 30
0.0
 11
115.502136230469
 21
35.3221985972436
 31
0.0
  0
LINE
  5
   180
  8
0
  6
CONTINUOUS
 62
     3
 10
115.502136230469
 20
35.3221985972436
 30
0.0
 11
118.45655949215
 21
34.8012540792433
 31
0.0
  0
ENDBLK
  5
   181
  8
0
  6
CONTINUOUS
 62
     3
  0
BLOCK
  5
   182
  8
0
  6
CONTINUOUS
 62
     3
  2
*UDIM645
 70
    65
 10
0.0
 20
0.0
 30
0.0
  3
*UDIM645
  0
TEXT
  5
   183
  8
0
  6
CONTINUOUS
 62
     3
 10
147.178381919866
 20
-7.87630117684414
 30
0.0
 40
3.00000013411045
  1
6,8
 50
90.0
 41
0.933333333333333
 72
     1
 11
145.678381852806
 21
-3.97630100250244
 31
0.0
 73
     2
  0
LINE
  5
   184
  8
0
  6
CONTINUOUS
 62
     3
 10
148.178381919861
 20
-0.076300828158856
 30
0.0
 11
148.178381919861
 21
-15.9263006210327
 31
0.0
  0
LINE
  5
   185
  8
0
  6
CONTINUOUS
 62
     3
 10
147.657437401861
 20
-7.87187735935111
 30
0.0
 11
148.178381919861
 21
-10.8263006210327
 31
0.0
  0
LINE
  5
   186
  8
0
  6
CONTINUOUS
 62
     3
 10
148.178381919861
 20
-10.8263006210327
 30
0.0
 11
148.699326437861
 21
-7.87187735935111
 31
0.0
  0
LINE
  5
   187
  8
0
  6
CONTINUOUS
 62
     3
 10
148.699326437861
 20
-18.8807238827143
 30
0.0
 11
148.178381919861
 21
-15.9263006210327
 31
0.0
  0
LINE
  5
   188
  8
0
  6
CONTINUOUS
 62
     3
 10
148.178381919861
 20
-15.9263006210327
 30
0.0
 11
147.657437401861
 21
-18.8807238827143
 31
0.0
  0
ENDBLK
  5
   189
  8
0
  6
CONTINUOUS
 62
     3
  0
BLOCK
  5
   18A
  8
0
  6
CONTINUOUS
 62
     7
  2
*UDIM646
 70
    65
 10
0.0
 20
0.0
 30
0.0
  3
*UDIM646
  0
TEXT
  5
   18B
  8
0
  6
CONTINUOUS
 62
     7
 10
140.446662440933
 20
4.03773186378062
 30
0.0
 40
3.00000013411045
  1
5
 50
359.00122283145
 41
0.933333333333333
 72
     1
 11
141.57264196628
 21
5.51832985710868
 31
0.0
 73
     2
  0
TEXT
  5
   18C
  8
0
  6
CONTINUOUS
 62
     7
 10
136.447270037221
 20
4.1074561351118
 30
0.0
 40
3.00000013411045
  1
Ø
 50
359.00122283145
 41
1.2
 72
     1
 11
137.973188807409
 21
5.58108170123062
 31
0.0
 73
     2
  0
LINE
  5
   18D
  8
0
  6
CONTINUOUS
 62
     7
 10
122.681928043138
 20
3.3472852423859
 30
0.0
 11
142.628897220301
 21
2.99953544671892
 31
0.0
  0
LINE
  5
   18E
  8
0
  6
CONTINUOUS
 62
     3
 10
124.770296696896
 20
2.53430207288107
 30
0.0
 11
127.681168380166
 21
3.26012990614154
 31
0.0
  0
LINE
  5
   18F
  8
0
  6
CONTINUOUS
 62
     3
 10
127.681168380166
 20
3.26012990614154
 30
0.0
 11
124.797365650715
 21
4.08698044741761
 31
0.0
  0
LINE
  5
   190
  8
0
  6
CONTINUOUS
 62
     3
 10
134.341470316207
 20
3.92059123721875
 30
0.0
 11
131.430598632937
 21
3.19476340395827
 31
0.0
  0
LINE
  5
   191
  8
0
  6
CONTINUOUS
 62
     3
 10
131.430598632937
 20
3.19476340395827
 30
0.0
 11
134.314401362388
 21
2.36791286268221
 31
0.0
  0
ENDBLK
  5
   192
  8
0
  6
CONTINUOUS
 62
     7
  0
BLOCK
  5
   193
  8
0
  6
CONTINUOUS
 62
     7
  2
*UDIM647
 70
    65
 10
0.0
 20
0.0
 30
0.0
  3
*UDIM647
  0
TEXT
  5
   194
  8
0
  6
CONTINUOUS
 62
     7
 10
145.336652237806
 20
-27.041649577113
 30
0.0
 40
3.00000013411045
  1
33
 50
329.787912031059
 41
0.933333333333333
 72
     1
 11
148.251877427053
 21
-27.0034022773716
 31
0.0
 73
     2
  0
TEXT
  5
   195
  8
0
  6
CONTINUOUS
 62
     7
 10
141.879977489281
 20
-25.0288404068739
 30
0.0
 40
3.00000013411045
  1
Ø
 50
329.787912031059
 41
1.2
 72
     1
 11
143.931033981737
 21
-24.487390808954
 31
0.0
 73
     2
  0
TEXT
  5
   196
  8
0
  6
CONTINUOUS
 62
     7
 10
139.114637698187
 20
-23.4185930751832
 30
0.0
 40
3.00000013411045
  1
_
 50
329.787912031059
 41
0.933333333333333
 72
     1
 11
140.820026711926
 21
-22.6758625579919
 31
0.0
 73
     2
  0
LINE
  5
   197
  8
0
  6
CONTINUOUS
 62
     7
 10
104.808049085762
 20
-4.59917245939862
 30
0.0
 11
149.154293446065
 21
-30.4218297261702
 31
0.0
  0
LINE
  5
   198
  8
0
  6
CONTINUOUS
 62
     3
 10
107.702932564511
 20
-5.38635073937495
 30
0.0
 11
104.808049085762
 21
-4.59917245939862
 31
0.0
  0
LINE
  5
   199
  8
0
  6
CONTINUOUS
 62
     3
 10
104.808049085762
 20
-4.59917245939862
 30
0.0
 11
106.921502548343
 21
-6.72833061733392
 31
0.0
  0
LINE
  5
   19A
  8
0
  6
CONTINUOUS
 62
     3
 10
123.301339896427
 20
-16.2662505026905
 30
0.0
 11
126.196223375176
 21
-17.0534287826668
 31
0.0
  0
LINE
  5
   19B
  8
0
  6
CONTINUOUS
 62
     3
 10
126.196223375176
 20
-17.0534287826668
 30
0.0
 11
124.082769912594
 21
-14.9242706247315
 31
0.0
  0
ENDBLK
  5
   19C
  8
0
  6
CONTINUOUS
 62
     7
  0
ENDSEC
  0
SECTION
  2
ENTITIES
  0
LINE
  5
   19D
  8
0
  6
CONTINUOUS
 62
     7
 10
260.627267456055
 20
133.873916625976
 30
0.0
 11
266.627267456055
 21
133.873916625976
 31
0.0
  0
LINE
  5
   19E
  8
0
  6
CONTINUOUS
 62
     7
 10
266.627267456055
 20
133.873916625976
 30
0.0
 11
266.627267456055
 21
134.248916625976
 31
0.0
  0
LINE
  5
   19F
  8
0
  6
CONTINUOUS
 62
     7
 10
260.627267456055
 20
86.2489166259764
 30
0.0
 11
260.627267456055
 21
86.6239166259764
 31
0.0
  0
LINE
  5
   1A0
  8
0
  6
CONTINUOUS
 62
     7
 10
266.627267456055
 20
86.2489166259764
 30
0.0
 11
266.627267456055
 21
86.6239166259764
 31
0.0
  0
LINE
  5
   1A1
  8
0
  6
CONTINUOUS
 62
     7
 10
260.627267456055
 20
86.6239166259764
 30
0.0
 11
266.627267456055
 21
86.6239166259764
 31
0.0
  0
INSERT
  5
   1A2
  8
255
  6
CONTINUOUS
 62
     7
  2
DE_M4_NORM_____L
 10
263.627267456055
 20
133.873916625976
 30
0.0
 41
0.75
 42
0.75
 50
269.999999844103
 43
0.75
  0
INSERT
  5
   1A3
  8
255
  6
CONTINUOUS
 62
     7
  2
DE_M4_NORM_____L
 10
263.627267456055
 20
86.6239166259764
 30
0.0
 41
0.75
 42
0.75
 50
89.9999999480344
 43
0.75
  0
LINE
  5
   1A4
  8
0
  6
CONTINUOUS
 62
     1
 10
264.002267456055
 20
82.0489166259764
 30
0.0
 11
266.252267456055
 21
82.0489166259764
 31
0.0
  0
LINE
  5
   1A5
  8
0
  6
CONTINUOUS
 62
     1
 10
261.002267456055
 20
83.9989166259764
 30
0.0
 11
266.252267456055
 21
83.9989166259764
 31
0.0
  0
LINE
  5
   1A6
  8
0
  6
CONTINUOUS
 62
     1
 10
261.002267456055
 20
82.0489166259764
 30
0.0
 11
261.002267456055
 21
83.9989166259764
 31
0.0
  0
LINE
  5
   1A7
  8
0
  6
CONTINUOUS
 62
     1
 10
266.252267456055
 20
82.0489166259764
 30
0.0
 11
266.252267456055
 21
83.9989166259764
 31
0.0
  0
LINE
  5
   1A8
  8
0
  6
CONTINUOUS
 62
     1
 10
263.252267456055
 20
82.0489166259764
 30
0.0
 11
263.252267456055
 21
82.9489166259764
 31
0.0
  0
LINE
  5
   1A9
  8
0
  6
CONTINUOUS
 62
     1
 10
264.002267456055
 20
82.0489166259764
 30
0.0
 11
264.002267456055
 21
82.9489166259764
 31
0.0
  0
LINE
  5
   1AA
  8
0
  6
CONTINUOUS
 62
     1
 10
263.252267456055
 20
82.9489166259764
 30
0.0
 11
264.002267456055
 21
82.9489166259764
 31
0.0
  0
LINE
  5
   1AB
  8
0
  6
CONTINUOUS
 62
     1
 10
261.002267456055
 20
82.0489166259764
 30
0.0
 11
263.252267456055
 21
82.0489166259764
 31
0.0
  0
LINE
  5
   1AC
  8
0
  6
DASHDOT
 62
     7
 10
263.627267456055
 20
80.3334400530884
 30
0.0
 11
263.627267456055
 21
90.0948409096855
 31
0.0
  0
LINE
  5
   1AD
  8
0
  6
CONTINUOUS
 62
     1
 10
261.002267456055
 20
138.448916625976
 30
0.0
 11
263.252267456055
 21
138.448916625976
 31
0.0
  0
LINE
  5
   1AE
  8
0
  6
CONTINUOUS
 62
     1
 10
261.002267456055
 20
136.498916625976
 30
0.0
 11
266.252267456055
 21
136.498916625976
 31
0.0
  0
LINE
  5
   1AF
  8
0
  6
CONTINUOUS
 62
     1
 10
266.252267456055
 20
136.498916625976
 30
0.0
 11
266.252267456055
 21
138.448916625976
 31
0.0
  0
LINE
  5
   1B0
  8
0
  6
CONTINUOUS
 62
     1
 10
261.002267456055
 20
136.498916625976
 30
0.0
 11
261.002267456055
 21
138.448916625976
 31
0.0
  0
LINE
  5
   1B1
  8
0
  6
CONTINUOUS
 62
     1
 10
264.002267456055
 20
137.548916625976
 30
0.0
 11
264.002267456055
 21
138.448916625976
 31
0.0
  0
LINE
  5
   1B2
  8
0
  6
CONTINUOUS
 62
     1
 10
263.252267456055
 20
137.548916625976
 30
0.0
 11
263.252267456055
 21
138.448916625976
 31
0.0
  0
LINE
  5
   1B3
  8
0
  6
CONTINUOUS
 62
     1
 10
263.252267456055
 20
137.548916625976
 30
0.0
 11
264.002267456055
 21
137.548916625976
 31
0.0
  0
LINE
  5
   1B4
  8
0
  6
CONTINUOUS
 62
     1
 10
264.002267456055
 20
138.448916625976
 30
0.0
 11
266.252267456055
 21
138.448916625976
 31
0.0
  0
LINE
  5
   1B5
  8
0
  6
DASHDOT
 62
     7
 10
263.627267456055
 20
130.402992342267
 30
0.0
 11
263.627267456055
 21
140.164393198864
 31
0.0
  0
LINE
  5
   1B6
  8
0
  6
CONTINUOUS
 62
     7
 10
262.127267456055
 20
89.9989166259764
 30
0.0
 11
265.127267456055
 21
89.9989166259764
 31
0.0
  0
LINE
  5
   1B7
  8
0
  6
CONTINUOUS
 62
     7
 10
262.127267456055
 20
130.498916625976
 30
0.0
 11
265.127267456055
 21
130.498916625976
 31
0.0
  0
LINE
  5
   1B8
  8
0
  6
CONTINUOUS
 62
     7
 10
265.127267456055
 20
130.498916625976
 30
0.0
 11
265.127267456055
 21
131.473916625976
 31
0.0
  0
LINE
  5
   1B9
  8
0
  6
CONTINUOUS
 62
     7
 10
262.127267456055
 20
130.498916625976
 30
0.0
 11
262.127267456055
 21
131.473916625976
 31
0.0
  0
LINE
  5
   1BA
  8
0
  6
CONTINUOUS
 62
     7
 10
264.752267456055
 20
130.498916625976
 30
0.0
 11
264.752267456055
 21
131.473916625976
 31
0.0
  0
LINE
  5
   1BB
  8
0
  6
CONTINUOUS
 62
     7
 10
262.502267456055
 20
130.498916625976
 30
0.0
 11
262.502267456055
 21
131.473916625976
 31
0.0
  0
LINE
  5
   1BC
  8
0
  6
CONTINUOUS
 62
     7
 10
265.127267456055
 20
89.0239166259764
 30
0.0
 11
265.127267456055
 21
89.9989166259764
 31
0.0
  0
LINE
  5
   1BD
  8
0
  6
CONTINUOUS
 62
     7
 10
262.127267456055
 20
89.0239166259764
 30
0.0
 11
262.127267456055
 21
89.9989166259764
 31
0.0
  0
LINE
  5
   1BE
  8
0
  6
CONTINUOUS
 62
     7
 10
264.752267456055
 20
89.0239166259764
 30
0.0
 11
264.752267456055
 21
89.9989166259764
 31
0.0
  0
LINE
  5
   1BF
  8
0
  6
CONTINUOUS
 62
     7
 10
262.502267456055
 20
89.0239166259764
 30
0.0
 11
262.502267456055
 21
89.9989166259764
 31
0.0
  0
TEXT
  5
   1C0
  8
0
  6
CONTINUOUS
 62
     2
 10
398.811240800635
 20
-80.6062578580283
 30
0.0
 40
2.50000000745058
  1
1/1
 41
1.01399993966818
 72
     1
 11
402.301240584791
 21
-79.356257854303
 31
0.0
 73
     2
  0
LINE
  5
   1C1
  8
0
  6
DASHDOT
 62
     7
 10
248.027267456055
 20
94.4989166259766
 30
0.0
 11
253.277267456055
 21
94.4989166259766
 31
0.0
  0
LINE
  5
   1C2
  8
0
  6
DASHDOT
 62
     7
 10
248.027267456055
 20
128.248916625977
 30
0.0
 11
253.277267456055
 21
128.248916625977
 31
0.0
  0
LINE
  5
   1C3
  8
0
  6
DASHDOT
 62
     7
 10
216.842549557326
 20
111.373916625977
 30
0.0
 11
392.965011264388
 21
111.373916625977
 31
0.0
  0
INSERT
  5
   1C4
  8
0
  6
CONTINUOUS
 62
     3
  2
*UDIM626
 10
0.0
 20
0.0
 30
0.0
  0
INSERT
  5
   1C5
  8
0
  6
CONTINUOUS
 62
     7
  2
*UDIM627
 10
0.0
 20
0.0
 30
0.0
  0
INSERT
  5
   1C6
  8
0
  6
CONTINUOUS
 62
     7
  2
*UDIM628
 10
0.0
 20
0.0
 30
0.0
  0
TEXT
  5
   1C7
  8
0
  6
CONTINUOUS
 62
     2
 10
213.81161278088
 20
109.747849141851
 30
0.0
 40
3.00000013411045
  1
X
 41
0.983333308994771
 72
     2
 11
216.011612806212
 21
111.247849208907
 31
0.0
 73
     2
  0
LINE
  5
   1C8
  8
0
  6
DASHDOT
 62
     7
 10
210.514904193437
 20
157.873916625977
 30
0.0
 11
263.547872893751
 21
157.873916625977
 31
0.0
  0
LINE
  5
   1C9
  8
0
  6
DASHDOT
 62
     7
 10
195.527267456055
 20
165.373916625977
 30
0.0
 11
246.527267456055
 21
165.373916625977
 31
0.0
  0
LINE
  5
   1CA
  8
0
  6
CONTINUOUS
 62
     7
 10
246.527267456055
 20
75.3739166259766
 30
0.0
 11
246.527267456055
 21
86.2489166259766
 31
0.0
  0
LINE
  5
   1CB
  8
0
  6
CONTINUOUS
 62
     7
 10
246.527267456055
 20
86.2489166259766
 30
0.0
 11
250.277267456055
 21
86.2489166259766
 31
0.0
  0
LINE
  5
   1CC
  8
0
  6
DASHDOT
 62
     7
 10
248.027267456055
 20
94.4989166259766
 30
0.0
 11
253.277267456055
 21
94.4989166259766
 31
0.0
  0
LINE
  5
   1CD
  8
0
  6
DASHDOT
 62
     7
 10
253.277267456055
 20
94.4989166259766
 30
0.0
 11
253.277267456055
 21
128.248916625977
 31
0.0
  0
LINE
  5
   1CE
  8
0
  6
DASHDOT
 62
     7
 10
248.027267456055
 20
128.248916625977
 30
0.0
 11
253.277267456055
 21
128.248916625977
 31
0.0
  0
LINE
  5
   1CF
  8
0
  6
DASHDOT
 62
     7
 10
246.527267456055
 20
154.498916625977
 30
0.0
 11
246.527267456055
 21
165.373916625977
 31
0.0
  0
LINE
  5
   1D0
  8
0
  6
DASHDOT
 62
     7
 10
246.527267456055
 20
154.498916625977
 30
0.0
 11
250.277267456055
 21
154.498916625977
 31
0.0
  0
LINE
  5
   1D1
  8
0
  6
DASHDOT
 62
     7
 10
210.723695408793
 20
82.8739166259766
 30
0.0
 11
263.495675089912
 21
82.8739166259766
 31
0.0
  0
LINE
  5
   1D2
  8
0
  6
CONTINUOUS
 62
     7
 10
198.152267456055
 20
157.873916625977
 30
0.0
 11
246.527267456055
 21
157.873916625977
 31
0.0
  0
LINE
  5
   1D3
  8
0
  6
CONTINUOUS
 62
     7
 10
198.152267456055
 20
82.8739166259766
 30
0.0
 11
246.527267456055
 21
82.8739166259766
 31
0.0
  0
LINE
  5
   1D4
  8
0
  6
DASHDOT
 62
     7
 10
253.277267456055
 20
103.848242106549
 30
0.0
 11
263.795664055695
 21
100.240241194113
 31
0.0
  0
LINE
  5
   1D5
  8
0
  6
DASHDOT
 62
     7
 10
263.292724427853
 20
97.6182580935146
 30
0.0
 11
264.028703537389
 21
99.7638562657498
 31
0.0
  0
LINE
  5
   1D6
  8
0
  6
DASHDOT
 62
     7
 10
253.277267456055
 20
100.131728384695
 30
0.0
 11
262.834239396655
 21
97.3795751584385
 31
0.0
  0
ARC
  5
   1D7
  8
0
  6
CONTINUOUS
 62
     7
 10
262.938012222824
 20
97.7399308168496
 30
0.0
 40
0.375
 50
253.93500945401
 51
341.067101455313
  0
ARC
  5
   1D8
  8
0
  6
CONTINUOUS
 62
     7
 10
263.67399133236
 20
99.8855289890847
 30
0.0
 40
0.375
 50
341.067101455313
 51
431.067101455313
  0
ARC
  5
   1D9
  8
0
  6
CONTINUOUS
 62
     7
 10
265.272256284846
 20
117.172464012004
 30
0.0
 40
0.375
 50
280.243585838936
 51
370.243585838936
  0
LINE
  5
   1DA
  8
0
  6
CONTINUOUS
 62
     7
 10
258.527267456055
 20
88.8387843870952
 30
0.0
 11
258.527267456055
 21
118.772005245387
 31
0.0
  0
LINE
  5
   1DB
  8
0
  6
CONTINUOUS
 62
     7
 10
260.027267456055
 20
88.8387843870952
 30
0.0
 11
260.027267456055
 21
118.772005245387
 31
0.0
  0
LINE
  5
   1DC
  8
0
  6
CONTINUOUS
 62
     7
 10
269.252267456055
 20
90.1522039672277
 30
0.0
 11
269.252267456055
 21
122.501774483711
 31
0.0
  0
LINE
  5
   1DD
  8
0
  6
CONTINUOUS
 62
     7
 10
271.277267456055
 20
95.9408483093818
 30
0.0
 11
271.277267456055
 21
98.9408483093817
 31
0.0
  0
LINE
  5
   1DE
  8
0
  6
CONTINUOUS
 62
     7
 10
270.902267456055
 20
95.5658483093817
 30
0.0
 11
271.277267456055
 21
95.9408483093817
 31
0.0
  0
LINE
  5
   1DF
  8
0
  6
CONTINUOUS
 62
     7
 10
270.902267456055
 20
99.3158483093818
 30
0.0
 11
271.277267456055
 21
98.9408483093818
 31
0.0
  0
LINE
  5
   1E0
  8
0
  6
CONTINUOUS
 62
     7
 10
267.752267456055
 20
90.1522039672277
 30
0.0
 11
267.752267456055
 21
121.361496431406
 31
0.0
  0
LINE
  5
   1E1
  8
0
  6
CONTINUOUS
 62
     7
 10
270.902267456055
 20
95.5658483093818
 30
0.0
 11
270.902267456055
 21
99.3158483093818
 31
0.0
  0
LINE
  5
   1E2
  8
0
  6
CONTINUOUS
 62
     7
 10
271.502267456055
 20
122.126774483711
 30
0.0
 11
271.502267456055
 21
133.159048864858
 31
0.0
  0
LINE
  5
   1E3
  8
0
  6
CONTINUOUS
 62
     7
 10
271.502267456055
 20
87.3739166259764
 30
0.0
 11
271.502267456055
 21
110.876774483711
 31
0.0
  0
LINE
  5
   1E4
  8
0
  6
CONTINUOUS
 62
     7
 10
325.648934950162
 20
112.753916625977
 30
0.0
 11
353.777267456055
 21
112.753916625977
 31
0.0
  0
LINE
  5
   1E5
  8
0
  6
DASHDOT
 62
     7
 10
339.902267456055
 20
65.1853394926669
 30
0.0
 11
339.902267456055
 21
117.506896039895
 31
0.0
  0
LINE
  5
   1E6
  8
0
  6
DASHDOT
 62
     7
 10
341.402267456055
 20
65.1853394926669
 30
0.0
 11
341.402267456055
 21
168.750604393079
 31
0.0
  0
LINE
  5
   1E7
  8
0
  6
CONTINUOUS
 62
     7
 10
341.402267456055
 20
141.103916625977
 30
0.0
 11
350.402267456055
 21
141.103916625977
 31
0.0
  0
LINE
  5
   1E8
  8
0
  6
CONTINUOUS
 62
     7
 10
341.402267456055
 20
92.3539166259766
 30
0.0
 11
350.402267456055
 21
92.3539166259766
 31
0.0
  0
LINE
  5
   1E9
  8
0
  6
CONTINUOUS
 62
     7
 10
337.652267456055
 20
126.853916625977
 30
0.0
 11
341.402267456055
 21
126.853916625977
 31
0.0
  0
LINE
  5
   1EA
  8
0
  6
CONTINUOUS
 62
     7
 10
337.652267456055
 20
106.603916625977
 30
0.0
 11
341.402267456055
 21
106.603916625977
 31
0.0
  0
LINE
  5
   1EB
  8
0
  6
CONTINUOUS
 62
     7
 10
337.652267456055
 20
106.603916625977
 30
0.0
 11
337.652267456055
 21
112.753916625977
 31
0.0
  0
LINE
  5
   1EC
  8
0
  6
CONTINUOUS
 62
     7
 10
341.402267456055
 20
92.3539166259766
 30
0.0
 11
341.402267456055
 21
111.657731597329
 31
0.0
  0
LINE
  5
   1ED
  8
0
  6
CONTINUOUS
 62
     7
 10
350.402267456055
 20
92.3539166259766
 30
0.0
 11
350.402267456055
 21
108.084722914812
 31
0.0
  0
LINE
  5
   1EE
  8
0
  6
CONTINUOUS
 62
     7
 10
351.902267456055
 20
96.8539166259766
 30
0.0
 11
351.902267456055
 21
108.193900473286
 31
0.0
  0
LINE
  5
   1EF
  8
0
  6
CONTINUOUS
 62
     7
 10
350.402267456055
 20
141.103916625977
 30
0.0
 11
351.902267456055
 21
136.603916625977
 31
0.0
  0
LINE
  5
   1F0
  8
0
  6
CONTINUOUS
 62
     7
 10
350.402267456055
 20
92.3539166259762
 30
0.0
 11
351.902267456055
 21
96.8539166259762
 31
0.0
  0
LINE
  5
   1F1
  8
0
  6
DOT
 62
     7
 10
362.342188175214
 20
136.603916625977
 30
0.0
 11
375.152267456055
 21
136.603916625977
 31
0.0
  0
LINE
  5
   1F2
  8
0
  6
DOT
 62
     7
 10
376.652267456055
 20
86.1289166259766
 30
0.0
 11
376.652267456055
 21
135.103916625977
 31
0.0
  0
LINE
  5
   1F3
  8
0
  6
DOT
 62
     7
 10
363.902267456055
 20
84.6289166259766
 30
0.0
 11
363.902267456055
 21
89.3539166259766
 31
0.0
  0
ARC
  5
   1F4
  8
0
  6
DOT
 62
     7
 10
375.152267456055
 20
135.103916625977
 30
0.0
 40
1.5
 50
0.0
 51
90.0
  0
ARC
  5
   1F5
  8
0
  6
DOT
 62
     7
 10
356.402267456055
 20
89.3539166259766
 30
0.0
 40
7.5
 50
0.0
 51
90.0
  0
LINE
  5
   1F6
  8
0
  6
DOT
 62
     7
 10
363.902267456055
 20
105.869313305684
 30
0.0
 11
363.902267456055
 21
125.922354596662
 31
0.0
  0
LINE
  5
   1F7
  8
0
  6
DOT
 62
     7
 10
351.902267456055
 20
102.119313305684
 30
0.0
 11
360.152267456055
 21
102.119313305684
 31
0.0
  0
LINE
  5
   1F8
  8
0
  6
DOT
 62
     7
 10
367.652267456055
 20
129.672354596662
 30
0.0
 11
376.652267456055
 21
129.672354596662
 31
0.0
  0
ARC
  5
   1F9
  8
0
  6
DOT
 62
     7
 10
367.652267456055
 20
125.922354596662
 30
0.0
 40
3.75
 50
89.9999999999998
 51
180.0
  0
ARC
  5
   1FA
  8
0
  6
DOT
 62
     7
 10
360.152267456055
 20
105.869313305684
 30
0.0
 40
3.75
 50
269.999999999999
 51
359.999999999999
  0
LINE
  5
   1FB
  8
0
  6
CONTINUOUS
 62
     7
 10
198.772054879263
 20
81.3739166259766
 30
0.0
 11
247.652267456055
 21
81.3739166259766
 31
0.0
  0
LINE
  5
   1FC
  8
0
  6
CONTINUOUS
 62
     7
 10
198.397054879263
 20
83.9989166259766
 30
0.0
 11
198.772054879263
 21
84.3739166259766
 31
0.0
  0
LINE
  5
   1FD
  8
0
  6
CONTINUOUS
 62
     7
 10
198.397054879263
 20
81.7489166259766
 30
0.0
 11
198.397054879263
 21
83.9989166259766
 31
0.0
  0
LINE
  5
   1FE
  8
0
  6
CONTINUOUS
 62
     7
 10
198.397054879263
 20
81.7489166259765
 30
0.0
 11
198.772054879263
 21
81.3739166259765
 31
0.0
  0
LINE
  5
   1FF
  8
0
  6
CONTINUOUS
 62
     7
 10
209.647054879263
 20
81.3739166259766
 30
0.0
 11
209.647054879263
 21
84.3739166259766
 31
0.0
  0
LINE
  5
   200
  8
0
  6
DASHDOT
 62
     7
 10
195.527267456055
 20
75.3739166259766
 30
0.0
 11
246.527267456055
 21
75.3739166259766
 31
0.0
  0
LINE
  5
   201
  8
0
  6
DASHDOT
 62
     7
 10
255.657749947763
 20
97.4422971222844
 30
0.0
 11
272.412912109974
 21
97.4422971222844
 31
0.0
  0
LINE
  5
   202
  8
0
  6
CONTINUOUS
 62
     7
 10
258.527267456055
 20
103.303327387525
 30
0.0
 11
260.027267456055
 21
103.303327387525
 31
0.0
  0
LINE
  5
   203
  8
0
  6
CONTINUOUS
 62
     7
 10
267.752267456055
 20
109.001774483711
 30
0.0
 11
269.252267456055
 21
109.001774483711
 31
0.0
  0
LINE
  5
   204
  8
0
  6
CONTINUOUS
 62
     7
 10
258.527267456055
 20
88.8387843870952
 30
0.0
 11
260.027267456055
 21
88.8387843870952
 31
0.0
  0
LINE
  5
   205
  8
0
  6
CONTINUOUS
 62
     7
 10
258.527267456055
 20
88.8387843870952
 30
0.0
 11
260.027267456055
 21
88.8387843870952
 31
0.0
  0
LINE
  5
   206
  8
0
  6
CONTINUOUS
 62
     7
 10
355.277267456055
 20
114.253916625977
 30
0.0
 11
355.277267456055
 21
118.753916625977
 31
0.0
  0
LINE
  5
   207
  8
0
  6
CONTINUOUS
 62
     7
 10
353.777267456055
 20
120.253916625977
 30
0.0
 11
355.277267456055
 21
118.753916625977
 31
0.0
  0
LINE
  5
   208
  8
0
  6
CONTINUOUS
 62
     7
 10
353.777267456055
 20
112.753916625977
 30
0.0
 11
355.277267456055
 21
114.253916625977
 31
0.0
  0
LINE
  5
   209
  8
0
  6
DASHDOT
 62
     7
 10
350.777267456055
 20
106.941416625977
 30
0.0
 11
350.777267456055
 21
126.066416625977
 31
0.0
  0
LINE
  5
   20A
  8
0
  6
CONTINUOUS
 62
     7
 10
269.777267456055
 20
95.5658483093818
 30
0.0
 11
270.902267456055
 21
95.5658483093818
 31
0.0
  0
LINE
  5
   20B
  8
0
  6
CONTINUOUS
 62
     7
 10
269.777267456055
 20
99.3158483093818
 30
0.0
 11
270.902267456055
 21
99.3158483093818
 31
0.0
  0
LINE
  5
   20C
  8
0
  6
CONTINUOUS
 62
     7
 10
279.752267456055
 20
119.503916625977
 30
0.0
 11
279.752267456055
 21
120.253916625977
 31
0.0
  0
LINE
  5
   20D
  8
0
  6
CONTINUOUS
 62
     7
 10
325.648934950162
 20
120.253916625977
 30
0.0
 11
353.777267456055
 21
120.253916625977
 31
0.0
  0
LINE
  5
   20E
  8
0
  6
CONTINUOUS
 62
     7
 10
279.752267456055
 20
110.501774483711
 30
0.0
 11
279.752267456055
 21
122.501774483711
 31
0.0
  0
LINE
  5
   20F
  8
0
  6
DOT
 62
     7
 10
363.902267456055
 20
84.6289166259766
 30
0.0
 11
375.152267456055
 21
84.6289166259766
 31
0.0
  0
ARC
  5
   210
  8
0
  6
DOT
 62
     7
 10
375.152267456055
 20
86.1289166259766
 30
0.0
 40
1.5
 50
270.0
 51
360.0
  0
LINE
  5
   211
  8
0
  6
DASHDOT
 62
     7
 10
350.777267456055
 20
106.941416625977
 30
0.0
 11
350.777267456055
 21
126.066416625977
 31
0.0
  0
LINE
  5
   212
  8
0
  6
DASHDOT
 62
     7
 10
263.976563632134
 20
116.503916625977
 30
0.0
 11
384.939139039196
 21
116.503916625977
 31
0.0
  0
LINE
  5
   213
  8
0
  6
CONTINUOUS
 62
     7
 10
260.027267456055
 20
108.272005245387
 30
0.0
 11
267.752267456055
 21
108.272005245387
 31
0.0
  0
LINE
  5
   214
  8
0
  6
CONTINUOUS
 62
     7
 10
260.027267456055
 20
117.272005245387
 30
0.0
 11
266.161277198385
 21
117.272005245387
 31
0.0
  0
LINE
  5
   215
  8
0
  6
CONTINUOUS
 62
     7
 10
261.527267456055
 20
108.272005245387
 30
0.0
 11
261.527267456055
 21
117.272005245387
 31
0.0
  0
LINE
  5
   216
  8
0
  6
CONTINUOUS
 62
     7
 10
272.627267456055
 20
90.5239166259766
 30
0.0
 11
272.627267456055
 21
109.003916625977
 31
0.0
  0
LINE
  5
   217
  8
0
  6
CONTINUOUS
 62
     7
 10
272.627267456055
 20
122.126774483711
 30
0.0
 11
272.627267456055
 21
133.159048864858
 31
0.0
  0
LINE
  5
   218
  8
0
  6
CONTINUOUS
 62
     7
 10
260.027267456055
 20
94.4422971222844
 30
0.0
 11
267.752267456055
 21
94.4422971222844
 31
0.0
  0
LINE
  5
   219
  8
0
  6
CONTINUOUS
 62
     7
 10
260.027267456055
 20
100.442297122284
 30
0.0
 11
267.752267456055
 21
100.442297122284
 31
0.0
  0
ARC
  5
   21A
  8
0
  6
CONTINUOUS
 62
     7
 10
326.679403209342
 20
116.503916625977
 30
0.0
 40
27.3561098611126
 50
352.12103482032
 51
367.87896517968
  0
LINE
  5
   21B
  8
0
  6
CONTINUOUS
 62
     7
 10
198.397054879263
 20
81.7489166259766
 30
0.0
 11
209.647054879263
 21
81.7489166259766
 31
0.0
  0
LINE
  5
   21C
  8
0
  6
CONTINUOUS
 62
     7
 10
198.772054879263
 20
81.3739166259766
 30
0.0
 11
198.772054879263
 21
84.3739166259766
 31
0.0
  0
ARC
  5
   21D
  8
0
  6
CONTINUOUS
 62
     7
 10
260.214767456055
 20
97.4422971222844
 30
0.0
 40
2.8125
 50
126.869897645844
 51
233.130102354156
  0
LINE
  5
   21E
  8
0
  6
CONTINUOUS
 62
     7
 10
351.902267456055
 20
124.607378477386
 30
0.0
 11
351.902267456055
 21
136.603916625977
 31
0.0
  0
LINE
  5
   21F
  8
0
  6
CONTINUOUS
 62
     7
 10
350.402267456055
 20
124.391617447594
 30
0.0
 11
350.402267456055
 21
141.103916625977
 31
0.0
  0
LINE
  5
   220
  8
0
  6
CONTINUOUS
 62
     7
 10
341.402267456055
 20
122.771802077139
 30
0.0
 11
341.402267456055
 21
141.103916625977
 31
0.0
  0
LINE
  5
   221
  8
0
  6
DASHDOT
 62
     7
 10
339.902267456055
 20
117.506896039895
 30
0.0
 11
339.902267456055
 21
155.906547452634
 31
0.0
  0
LINE
  5
   222
  8
0
  6
CONTINUOUS
 62
     7
 10
337.652267456055
 20
120.253916625977
 30
0.0
 11
337.652267456055
 21
126.853916625977
 31
0.0
  0
LINE
  5
   223
  8
0
  6
DASHDOT
 62
     7
 10
257.574928388171
 20
112.772005245387
 30
0.0
 11
263.606597837718
 21
112.772005245387
 31
0.0
  0
ARC
  5
   224
  8
0
  6
CONTINUOUS
 62
     7
 10
260.214767456055
 20
112.707173769202
 30
0.0
 40
2.8125
 50
126.869897645844
 51
233.130102354156
  0
LINE
  5
   225
  8
0
  6
CONTINUOUS
 62
     7
 10
269.252267456055
 20
120.253916625977
 30
0.0
 11
281.627267456055
 21
120.253916625977
 31
0.0
  0
LINE
  5
   226
  8
0
  6
CONTINUOUS
 62
     7
 10
269.252267456055
 20
112.753916625977
 30
0.0
 11
281.627267456055
 21
112.753916625977
 31
0.0
  0
LINE
  5
   227
  8
0
  6
CONTINUOUS
 62
     7
 10
267.286277198385
 20
118.003916625977
 30
0.0
 11
267.752267456055
 21
118.003916625977
 31
0.0
  0
LINE
  5
   228
  8
0
  6
CONTINUOUS
 62
     7
 10
266.95677232722
 20
119.924411754811
 30
0.0
 11
267.752267456055
 21
119.128916625977
 31
0.0
  0
LINE
  5
   229
  8
0
  6
CONTINUOUS
 62
     7
 10
266.161277198385
 20
119.128916625977
 30
0.0
 11
267.286277198385
 21
118.003916625977
 31
0.0
  0
LINE
  5
   22A
  8
0
  6
CONTINUOUS
 62
     7
 10
266.161277198385
 20
119.128916625977
 30
0.0
 11
266.95677232722
 21
119.924411754811
 31
0.0
  0
LINE
  5
   22B
  8
0
  6
CONTINUOUS
 62
     7
 10
266.95677232722
 20
113.083421497142
 30
0.0
 11
267.752267456055
 21
113.878916625977
 31
0.0
  0
LINE
  5
   22C
  8
0
  6
CONTINUOUS
 62
     7
 10
266.161277198385
 20
113.878916625977
 30
0.0
 11
266.95677232722
 21
113.083421497142
 31
0.0
  0
LINE
  5
   22D
  8
0
  6
CONTINUOUS
 62
     7
 10
266.161277198385
 20
113.878916625977
 30
0.0
 11
267.286277198385
 21
115.003916625977
 31
0.0
  0
LINE
  5
   22E
  8
0
  6
CONTINUOUS
 62
     7
 10
267.286277198385
 20
115.003916625977
 30
0.0
 11
267.752267456055
 21
115.003916625977
 31
0.0
  0
LINE
  5
   22F
  8
0
  6
CONTINUOUS
 62
     7
 10
266.161277198385
 20
113.878916625977
 30
0.0
 11
266.161277198385
 21
119.128916625977
 31
0.0
  0
LINE
  5
   230
  8
0
  6
CONTINUOUS
 62
     7
 10
267.286277198385
 20
115.003916625977
 30
0.0
 11
267.286277198385
 21
118.003916625977
 31
0.0
  0
INSERT
  5
   231
  8
0
  6
CONTINUOUS
 62
     7
  2
*HATCH192
 10
252.902267456055
 20
109.498916625977
 30
0.0
 41
0.75
 42
0.75
 43
0.75
  0
LINE
  5
   232
  8
0
  6
CONTINUOUS
 62
     7
 10
198.397054879263
 20
83.9989166259766
 30
0.0
 11
209.647054879263
 21
83.9989166259766
 31
0.0
  0
LINE
  5
   233
  8
0
  6
CONTINUOUS
 62
     7
 10
198.772054879263
 20
84.3739166259766
 30
0.0
 11
247.652267456055
 21
84.3739166259766
 31
0.0
  0
LINE
  5
   234
  8
0
  6
CONTINUOUS
 62
     7
 10
248.027267456055
 20
79.8739166259766
 30
0.0
 11
248.027267456055
 21
85.8739166259764
 31
0.0
  0
LINE
  5
   235
  8
0
  6
CONTINUOUS
 62
     7
 10
250.277267456055
 20
80.6239166259766
 30
0.0
 11
250.277267456055
 21
85.1239166259765
 31
0.0
  0
LINE
  5
   236
  8
0
  6
CONTINUOUS
 62
     7
 10
247.652267456055
 20
85.8739166259764
 30
0.0
 11
249.527267456055
 21
85.8739166259764
 31
0.0
  0
LINE
  5
   237
  8
0
  6
CONTINUOUS
 62
     7
 10
247.416725659309
 20
79.8739166259766
 30
0.0
 11
249.527267456055
 21
79.8739166259766
 31
0.0
  0
LINE
  5
   238
  8
0
  6
CONTINUOUS
 62
     7
 10
251.402267456055
 20
136.534048864858
 30
0.0
 11
251.402267456055
 21
154.123916625977
 31
0.0
  0
LINE
  5
   239
  8
0
  6
CONTINUOUS
 62
     7
 10
250.277267456055
 20
136.534048864858
 30
0.0
 11
250.277267456055
 21
154.123916625977
 31
0.0
  0
LINE
  5
   23A
  8
0
  6
CONTINUOUS
 62
     7
 10
272.627267456055
 20
87.3739166259764
 30
0.0
 11
272.627267456055
 21
110.876774483711
 31
0.0
  0
LINE
  5
   23B
  8
0
  6
CONTINUOUS
 62
     7
 10
252.527267456055
 20
135.409048864858
 30
0.0
 11
324.043297488562
 21
135.409048864858
 31
0.0
  0
LINE
  5
   23C
  8
0
  6
CONTINUOUS
 62
     7
 10
252.527267456055
 20
134.284048864858
 30
0.0
 11
270.377267456055
 21
134.284048864858
 31
0.0
  0
ARC
  5
   23D
  8
0
  6
CONTINUOUS
 62
     7
 10
270.377267456055
 20
133.159048864858
 30
0.0
 40
1.125
 50
0.0
 51
90.0
  0
ARC
  5
   23E
  8
0
  6
CONTINUOUS
 62
     7
 10
252.527267456055
 20
136.534048864858
 30
0.0
 40
1.125
 50
180.0
 51
270.0
  0
ARC
  5
   23F
  8
0
  6
CONTINUOUS
 62
     7
 10
270.377267456055
 20
133.159048864858
 30
0.0
 40
2.25
 50
0.0
 51
90.0
  0
ARC
  5
   240
  8
0
  6
CONTINUOUS
 62
     7
 10
252.527267456055
 20
136.534048864858
 30
0.0
 40
2.25
 50
180.0
 51
270.0
  0
LINE
  5
   241
  8
0
  6
CONTINUOUS
 62
     7
 10
250.277267456055
 20
138.600519231111
 30
0.0
 11
251.402267456055
 21
138.600519231111
 31
0.0
  0
LINE
  5
   242
  8
0
  6
CONTINUOUS
 62
     7
 10
246.527267456055
 20
155.998916625977
 30
0.0
 11
246.527267456055
 21
156.373916625977
 31
0.0
  0
LINE
  5
   243
  8
0
  6
CONTINUOUS
 62
     7
 10
247.652267456055
 20
155.998916625977
 30
0.0
 11
247.652267456055
 21
160.873916625976
 31
0.0
  0
LINE
  5
   244
  8
0
  6
CONTINUOUS
 62
     7
 10
248.027267456055
 20
154.498916625977
 30
0.0
 11
249.902267456055
 21
154.498916625977
 31
0.0
  0
ARC
  5
   245
  8
0
  6
CONTINUOUS
 62
     7
 10
249.902267456055
 20
154.123916625977
 30
0.0
 40
0.375
 50
0.0
 51
90.0
  0
ARC
  5
   246
  8
0
  6
CONTINUOUS
 62
     7
 10
248.027267456055
 20
155.998916625977
 30
0.0
 40
1.5
 50
180.0
 51
270.0
  0
ARC
  5
   247
  8
0
  6
CONTINUOUS
 62
     7
 10
249.902267456055
 20
154.123916625977
 30
0.0
 40
1.5
 50
0.0
 51
75.5224878140701
  0
LINE
  5
   248
  8
0
  6
CONTINUOUS
 62
     7
 10
246.527267456055
 20
79.8739166259764
 30
0.0
 11
246.527267456055
 21
81.3739166259766
 31
0.0
  0
LINE
  5
   249
  8
0
  6
CONTINUOUS
 62
     7
 10
247.652267456055
 20
79.8739166259764
 30
0.0
 11
247.652267456055
 21
85.8739166259764
 31
0.0
  0
ARC
  5
   24A
  8
0
  6
CONTINUOUS
 62
     7
 10
248.027267456055
 20
84.7489166259764
 30
0.0
 40
1.5
 50
90.0000000000001
 51
180.0
  0
LINE
  5
   24B
  8
0
  6
CONTINUOUS
 62
     7
 10
248.027267456055
 20
86.2489166259764
 30
0.0
 11
270.377267456055
 21
86.2489166259764
 31
0.0
  0
LINE
  5
   24C
  8
0
  6
CONTINUOUS
 62
     7
 10
250.277267456055
 20
85.1239166259764
 30
0.0
 11
324.043297488562
 21
85.1239166259764
 31
0.0
  0
ARC
  5
   24D
  8
0
  6
CONTINUOUS
 62
     7
 10
270.377267456055
 20
87.3739166259764
 30
0.0
 40
1.125
 50
270.0
 51
360.0
  0
ARC
  5
   24E
  8
0
  6
CONTINUOUS
 62
     7
 10
270.377267456055
 20
87.3739166259764
 30
0.0
 40
2.25
 50
270.0
 51
360.0
  0
LINE
  5
   24F
  8
0
  6
DASHDOT
 62
     7
 10
244.727130739765
 20
82.8739166259765
 30
0.0
 11
249.057829334494
 21
82.8739166259765
 31
0.0
  0
LINE
  5
   250
  8
0
  6
DASHDOT
 62
     7
 10
244.939419886565
 20
157.873916625976
 30
0.0
 11
249.185202822574
 21
157.873916625976
 31
0.0
  0
LINE
  5
   251
  8
0
  6
CONTINUOUS
 62
     7
 10
246.527267456055
 20
160.873916625976
 30
0.0
 11
247.652267456055
 21
160.873916625976
 31
0.0
  0
LINE
  5
   252
  8
0
  6
CONTINUOUS
 62
     7
 10
246.527267456055
 20
79.8739166259764
 30
0.0
 11
247.652267456055
 21
79.8739166259764
 31
0.0
  0
LINE
  5
   253
  8
0
  6
CONTINUOUS
 62
     7
 10
251.402267456055
 20
85.1239166259764
 30
0.0
 11
251.402267456055
 21
86.2489166259764
 31
0.0
  0
ARC
  5
   254
  8
0
  6
CONTINUOUS
 62
     7
 10
249.527267456055
 20
85.1239166259765
 30
0.0
 40
0.75
 50
0.0
 51
90.0
  0
ARC
  5
   255
  8
0
  6
CONTINUOUS
 62
     7
 10
249.527267456055
 20
80.6239166259766
 30
0.0
 40
0.75
 50
270.0
 51
360.0
  0
LINE
  5
   256
  8
0
  6
CONTINUOUS
 62
     7
 10
246.527267456055
 20
84.3739166259766
 30
0.0
 11
246.527267456055
 21
84.7489166259764
 31
0.0
  0
LINE
  5
   257
  8
0
  6
CONTINUOUS
 62
     7
 10
249.527267456055
 20
82.8739166259766
 30
0.0
 11
250.277267456055
 21
83.6239166259766
 31
0.0
  0
LINE
  5
   258
  8
0
  6
CONTINUOUS
 62
     7
 10
249.527267456055
 20
82.8739166259766
 30
0.0
 11
250.277267456055
 21
82.1239166259766
 31
0.0
  0
LINE
  5
   259
  8
0
  6
CONTINUOUS
 62
     7
 10
247.652267456055
 20
154.873916625977
 30
0.0
 11
247.652267456055
 21
160.873916625977
 31
0.0
  0
LINE
  5
   25A
  8
0
  6
CONTINUOUS
 62
     7
 10
248.027267456055
 20
154.873916625977
 30
0.0
 11
248.027267456055
 21
160.873916625977
 31
0.0
  0
LINE
  5
   25B
  8
0
  6
CONTINUOUS
 62
     7
 10
250.277267456055
 20
155.623916625977
 30
0.0
 11
250.277267456055
 21
160.123916625977
 31
0.0
  0
LINE
  5
   25C
  8
0
  6
CONTINUOUS
 62
     7
 10
249.527267456055
 20
157.873916625977
 30
0.0
 11
250.277267456055
 21
157.123916625977
 31
0.0
  0
LINE
  5
   25D
  8
0
  6
CONTINUOUS
 62
     7
 10
249.527267456055
 20
157.873916625977
 30
0.0
 11
250.277267456055
 21
158.623916625977
 31
0.0
  0
LINE
  5
   25E
  8
0
  6
CONTINUOUS
 62
     7
 10
250.277267456055
 20
155.623916625977
 30
0.0
 11
250.277267456055
 21
160.123916625977
 31
0.0
  0
ARC
  5
   25F
  8
0
  6
CONTINUOUS
 62
     7
 10
249.527267456055
 20
160.123916625977
 30
0.0
 40
0.75
 50
1.99840144432528E-14
 51
90.0
  0
ARC
  5
   260
  8
0
  6
CONTINUOUS
 62
     7
 10
249.527267456055
 20
155.623916625977
 30
0.0
 40
0.75
 50
270.0
 51
360.0
  0
LINE
  5
   261
  8
0
  6
CONTINUOUS
 62
     7
 10
247.416725659309
 20
160.873916625977
 30
0.0
 11
249.527267456055
 21
160.873916625977
 31
0.0
  0
LINE
  5
   262
  8
0
  6
CONTINUOUS
 62
     7
 10
198.772054879263
 20
156.373916625977
 30
0.0
 11
247.652267456055
 21
156.373916625977
 31
0.0
  0
LINE
  5
   263
  8
0
  6
CONTINUOUS
 62
     7
 10
198.772054879263
 20
159.373916625977
 30
0.0
 11
247.652267456055
 21
159.373916625977
 31
0.0
  0
LINE
  5
   264
  8
0
  6
CONTINUOUS
 62
     7
 10
209.647054879263
 20
156.373916625977
 30
0.0
 11
209.647054879263
 21
159.373916625977
 31
0.0
  0
LINE
  5
   265
  8
0
  6
CONTINUOUS
 62
     7
 10
198.772054879263
 20
156.373916625977
 30
0.0
 11
198.772054879263
 21
159.373916625977
 31
0.0
  0
LINE
  5
   266
  8
0
  6
CONTINUOUS
 62
     7
 10
198.397054879263
 20
156.748916625977
 30
0.0
 11
198.397054879263
 21
158.998916625977
 31
0.0
  0
LINE
  5
   267
  8
0
  6
CONTINUOUS
 62
     7
 10
198.397054879263
 20
156.748916625977
 30
0.0
 11
198.772054879263
 21
156.373916625977
 31
0.0
  0
LINE
  5
   268
  8
0
  6
CONTINUOUS
 62
     7
 10
198.397054879263
 20
158.998916625977
 30
0.0
 11
198.772054879263
 21
159.373916625977
 31
0.0
  0
LINE
  5
   269
  8
0
  6
CONTINUOUS
 62
     7
 10
198.397054879263
 20
158.998916625977
 30
0.0
 11
209.647054879263
 21
158.998916625977
 31
0.0
  0
LINE
  5
   26A
  8
0
  6
CONTINUOUS
 62
     7
 10
247.652267456055
 20
154.873916625977
 30
0.0
 11
249.527267456055
 21
154.873916625977
 31
0.0
  0
LINE
  5
   26B
  8
0
  6
CONTINUOUS
 62
     7
 10
269.252267456055
 20
122.501774483711
 30
0.0
 11
271.502267456055
 21
122.501774483711
 31
0.0
  0
LINE
  5
   26C
  8
0
  6
CONTINUOUS
 62
     7
 10
269.252267456055
 20
110.501774483711
 30
0.0
 11
271.502267456055
 21
110.501774483711
 31
0.0
  0
LINE
  5
   26D
  8
0
  6
CONTINUOUS
 62
     7
 10
271.502267456055
 20
122.126774483711
 30
0.0
 11
272.627267456055
 21
122.126774483711
 31
0.0
  0
LINE
  5
   26E
  8
0
  6
CONTINUOUS
 62
     7
 10
271.502267456055
 20
110.876774483711
 30
0.0
 11
272.627267456055
 21
110.876774483711
 31
0.0
  0
LINE
  5
   26F
  8
0
  6
CONTINUOUS
 62
     7
 10
272.627267456055
 20
122.501774483711
 30
0.0
 11
279.752267456055
 21
122.501774483711
 31
0.0
  0
LINE
  5
   270
  8
0
  6
CONTINUOUS
 62
     7
 10
272.627267456055
 20
110.501774483711
 30
0.0
 11
279.752267456055
 21
110.501774483711
 31
0.0
  0
INSERT
  5
   271
  8
0
  6
CONTINUOUS
 62
     7
  2
*HATCH193
 10
252.902267456055
 20
109.498916625977
 30
0.0
 41
0.75
 42
0.75
 43
0.75
  0
INSERT
  5
   272
  8
0
  6
CONTINUOUS
 62
     7
  2
*HATCH194
 10
252.902267456055
 20
109.498916625977
 30
0.0
 41
0.75
 42
0.75
 43
0.75
  0
LINE
  5
   273
  8
0
  6
CONTINUOUS
 62
     7
 10
246.527267456055
 20
159.373916625977
 30
0.0
 11
246.527267456055
 21
160.873916625976
 31
0.0
  0
INSERT
  5
   274
  8
0
  6
CONTINUOUS
 62
     7
  2
*HATCH195
 10
252.902267456055
 20
109.498916625977
 30
0.0
 41
0.75
 42
0.75
 43
0.75
  0
INSERT
  5
   275
  8
0
  6
CONTINUOUS
 62
     7
  2
*HATCH196
 10
252.902267456055
 20
109.498916625977
 30
0.0
 41
0.75
 42
0.75
 43
0.75
  0
INSERT
  5
   276
  8
0
  6
CONTINUOUS
 62
     7
  2
*HATCH197
 10
252.902267456055
 20
109.498916625977
 30
0.0
 41
0.75
 42
0.75
 43
0.75
  0
INSERT
  5
   277
  8
0
  6
CONTINUOUS
 62
     7
  2
*HATCH198
 10
252.902267456055
 20
109.498916625977
 30
0.0
 41
0.75
 42
0.75
 43
0.75
  0
LINE
  5
   278
  8
0
  6
CONTINUOUS
 62
     7
 10
269.327267456055
 20
94.8158483093817
 30
0.0
 11
269.327267456055
 21
100.065848309382
 31
0.0
  0
LINE
  5
   279
  8
0
  6
CONTINUOUS
 62
     7
 10
269.777267456055
 20
94.8158483093817
 30
0.0
 11
269.777267456055
 21
100.065848309382
 31
0.0
  0
LINE
  5
   27A
  8
0
  6
CONTINUOUS
 62
     7
 10
269.327267456055
 20
94.8158483093817
 30
0.0
 11
269.777267456055
 21
94.8158483093817
 31
0.0
  0
LINE
  5
   27B
  8
0
  6
CONTINUOUS
 62
     7
 10
269.327267456055
 20
100.065848309382
 30
0.0
 11
269.777267456055
 21
100.065848309382
 31
0.0
  0
CIRCLE
  5
   27C
  8
0
  6
CONTINUOUS
 62
     7
 10
344.402267456055
 20
109.003916625977
 30
0.0
 40
1.875
  0
LINE
  5
   27D
  8
0
  6
CONTINUOUS
 62
     7
 10
341.402267456055
 20
110.878916625977
 30
0.0
 11
344.402267456055
 21
110.878916625977
 31
0.0
  0
LINE
  5
   27E
  8
0
  6
CONTINUOUS
 62
     7
 10
341.402267456055
 20
107.128916625977
 30
0.0
 11
344.402267456055
 21
107.128916625977
 31
0.0
  0
LINE
  5
   27F
  8
0
  6
DASHDOT
 62
     7
 10
344.402267456055
 20
99.6289166259766
 30
0.0
 11
344.402267456055
 21
118.378916625977
 31
0.0
  0
LINE
  5
   280
  8
0
  6
DASHDOT
 62
     7
 10
335.027267456055
 20
109.003916625977
 30
0.0
 11
353.777267456055
 21
109.003916625977
 31
0.0
  0
ARC
  5
   281
  8
0
  6
DOT
 62
     7
 10
379.652267456055
 20
107.503916625977
 30
0.0
 40
3.0
 50
0.0
 51
180.0
  0
ARC
  5
   282
  8
0
  6
DOT
 62
     7
 10
379.652267456055
 20
95.5039166259766
 30
0.0
 40
3.0
 50
180.0
 51
360.0
  0
LINE
  5
   283
  8
0
  6
DOT
 62
     7
 10
382.652267456055
 20
95.5039166259766
 30
0.0
 11
382.652267456055
 21
107.503916625977
 31
0.0
  0
LINE
  5
   284
  8
0
  6
DOT
 62
     7
 10
376.652267456055
 20
123.253916625977
 30
0.0
 11
389.495159427729
 21
90.7644577690623
 31
0.0
  0
ARC
  5
   285
  8
0
  6
DOT
 62
     7
 10
376.652267456055
 20
123.253916625977
 30
0.0
 40
31.4290987837839
 50
270.0
 51
291.568595735125
  0
ARC
  5
   286
  8
0
  6
DOT
 62
     7
 10
376.652267456055
 20
123.253916625977
 30
0.0
 40
32.9290987837839
 50
270.0
 51
291.568595735125
  0
LINE
  5
   287
  8
0
  6
DOT
 62
     7
 10
376.652267456055
 20
127.334273768834
 30
0.0
 11
390.890126604972
 21
91.3158800885372
 31
0.0
  0
LINE
  5
   288
  8
0
  6
DOT
 62
     7
 10
389.495159427729
 20
90.7644577690621
 30
0.0
 11
390.890126604972
 21
91.315880088537
 31
0.0
  0
LINE
  5
   289
  8
0
  6
DASHDOT
 62
     7
 10
336.68494332218
 20
130.753916625977
 30
0.0
 11
344.594248814024
 21
130.753916625977
 31
0.0
  0
LINE
  5
   28A
  8
0
  6
CONTINUOUS
 62
     7
 10
337.277267456055
 20
128.128916625977
 30
0.0
 11
337.277267456055
 21
130.378916625977
 31
0.0
  0
LINE
  5
   28B
  8
0
  6
CONTINUOUS
 62
     7
 10
337.277267456055
 20
133.378916625977
 30
0.0
 11
339.152267456055
 21
133.378916625977
 31
0.0
  0
LINE
  5
   28C
  8
0
  6
CONTINUOUS
 62
     7
 10
337.277267456055
 20
128.128916625977
 30
0.0
 11
339.152267456055
 21
128.128916625977
 31
0.0
  0
LINE
  5
   28D
  8
0
  6
CONTINUOUS
 62
     7
 10
337.277267456055
 20
131.128916625977
 30
0.0
 11
338.027267456055
 21
131.128916625977
 31
0.0
  0
LINE
  5
   28E
  8
0
  6
CONTINUOUS
 62
     7
 10
337.277267456055
 20
130.378916625977
 30
0.0
 11
338.027267456055
 21
130.378916625977
 31
0.0
  0
LINE
  5
   28F
  8
0
  6
CONTINUOUS
 62
     7
 10
338.027267456055
 20
130.378916625977
 30
0.0
 11
338.027267456055
 21
131.128916625977
 31
0.0
  0
LINE
  5
   290
  8
0
  6
CONTINUOUS
 62
     7
 10
337.277267456055
 20
131.128916625977
 30
0.0
 11
337.277267456055
 21
133.378916625977
 31
0.0
  0
LINE
  5
   291
  8
0
  6
CONTINUOUS
 62
     7
 10
339.152267456055
 20
127.753916625977
 30
0.0
 11
339.152267456055
 21
133.753916625977
 31
0.0
  0
LINE
  5
   292
  8
0
  6
CONTINUOUS
 62
     7
 10
339.152267456055
 20
133.753916625977
 30
0.0
 11
339.902267456055
 21
133.753916625977
 31
0.0
  0
LINE
  5
   293
  8
0
  6
CONTINUOUS
 62
     7
 10
339.152267456055
 20
127.753916625977
 30
0.0
 11
339.902267456055
 21
127.753916625977
 31
0.0
  0
LINE
  5
   294
  8
0
  6
CONTINUOUS
 62
     7
 10
339.152267456055
 20
99.2539166259766
 30
0.0
 11
339.902267456055
 21
99.2539166259766
 31
0.0
  0
LINE
  5
   295
  8
0
  6
CONTINUOUS
 62
     7
 10
337.277267456055
 20
104.878916625977
 30
0.0
 11
339.152267456055
 21
104.878916625977
 31
0.0
  0
LINE
  5
   296
  8
0
  6
CONTINUOUS
 62
     7
 10
339.152267456055
 20
99.2539166259766
 30
0.0
 11
339.152267456055
 21
105.253916625977
 31
0.0
  0
LINE
  5
   297
  8
0
  6
CONTINUOUS
 62
     7
 10
337.277267456055
 20
99.6289166259766
 30
0.0
 11
337.277267456055
 21
101.878916625977
 31
0.0
  0
LINE
  5
   298
  8
0
  6
CONTINUOUS
 62
     7
 10
337.277267456055
 20
99.6289166259766
 30
0.0
 11
339.152267456055
 21
99.6289166259766
 31
0.0
  0
LINE
  5
   299
  8
0
  6
CONTINUOUS
 62
     7
 10
337.277267456055
 20
102.628916625977
 30
0.0
 11
337.277267456055
 21
104.878916625977
 31
0.0
  0
LINE
  5
   29A
  8
0
  6
CONTINUOUS
 62
     7
 10
337.277267456055
 20
101.878916625977
 30
0.0
 11
338.027267456055
 21
101.878916625977
 31
0.0
  0
LINE
  5
   29B
  8
0
  6
CONTINUOUS
 62
     7
 10
338.027267456055
 20
101.878916625977
 30
0.0
 11
338.027267456055
 21
102.628916625977
 31
0.0
  0
LINE
  5
   29C
  8
0
  6
CONTINUOUS
 62
     7
 10
337.277267456055
 20
102.628916625977
 30
0.0
 11
338.027267456055
 21
102.628916625977
 31
0.0
  0
LINE
  5
   29D
  8
0
  6
CONTINUOUS
 62
     7
 10
339.152267456055
 20
105.253916625977
 30
0.0
 11
339.902267456055
 21
105.253916625977
 31
0.0
  0
LINE
  5
   29E
  8
0
  6
CONTINUOUS
 62
     7
 10
350.402267456055
 20
129.080545980162
 30
0.0
 11
350.402267456055
 21
129.628916625977
 31
0.0
  0
LINE
  5
   29F
  8
0
  6
CONTINUOUS
 62
     7
 10
350.402267456055
 20
135.628916625977
 30
0.0
 11
350.402267456055
 21
141.103916625977
 31
0.0
  0
LINE
  5
   2A0
  8
0
  6
DASHDOT
 62
     7
 10
336.68494332218
 20
102.253916625977
 30
0.0
 11
344.594248814024
 21
102.253916625977
 31
0.0
  0
LINE
  5
   2A1
  8
0
  6
DOT
 62
     7
 10
376.652267456055
 20
81.2539166259766
 30
0.0
 11
382.652267456055
 21
81.2539166259766
 31
0.0
  0
LINE
  5
   2A2
  8
0
  6
DOT
 62
     7
 10
375.902267456055
 20
64.0039166259766
 30
0.0
 11
375.902267456055
 21
80.5039166259766
 31
0.0
  0
LINE
  5
   2A3
  8
0
  6
DOT
 62
     7
 10
383.402267456055
 20
64.0039166259766
 30
0.0
 11
383.402267456055
 21
80.5039166259766
 31
0.0
  0
LINE
  5
   2A4
  8
0
  6
DOT
 62
     7
 10
377.402267456055
 20
81.2539166259766
 30
0.0
 11
377.402267456055
 21
94.7539166259766
 31
0.0
  0
LINE
  5
   2A5
  8
0
  6
DOT
 62
     7
 10
381.902267456055
 20
81.2539166259766
 30
0.0
 11
381.902267456055
 21
94.7539166259766
 31
0.0
  0
ARC
  5
   2A6
  8
0
  6
DOT
 62
     7
 10
379.652267456055
 20
94.7539166259766
 30
0.0
 40
2.24999999999998
 50
0.0
 51
180.0
  0
LINE
  5
   2A7
  8
0
  6
DOT
 62
     7
 10
382.652267456055
 20
64.0039166259766
 30
0.0
 11
382.652267456055
 21
81.2539166259766
 31
0.0
  0
LINE
  5
   2A8
  8
0
  6
DOT
 62
     7
 10
376.652267456055
 20
64.0039166259766
 30
0.0
 11
376.652267456055
 21
81.2539166259766
 31
0.0
  0
LINE
  5
   2A9
  8
0
  6
DOT
 62
     7
 10
375.902267456055
 20
80.5039166259766
 30
0.0
 11
376.652267456055
 21
81.2539166259766
 31
0.0
  0
LINE
  5
   2AA
  8
0
  6
DOT
 62
     7
 10
382.652267456055
 20
81.2539166259765
 30
0.0
 11
383.402267456055
 21
80.5039166259765
 31
0.0
  0
LINE
  5
   2AB
  8
0
  6
DOT
 62
     7
 10
375.902267456055
 20
64.0039166259766
 30
0.0
 11
383.402267456055
 21
64.0039166259766
 31
0.0
  0
ARC
  5
   2AC
  8
0
  6
DOT
 62
     7
 10
381.098539577849
 20
99.7803166289589
 30
0.0
 40
2.24999999999998
 50
40.0
 51
220.0
  0
LINE
  5
   2AD
  8
0
  6
DOT
 62
     7
 10
382.822139574867
 20
101.226588750754
 30
0.0
 11
391.499772305635
 21
90.8849887686474
 31
0.0
  0
LINE
  5
   2AE
  8
0
  6
DOT
 62
     7
 10
379.374939580832
 20
98.3340445071642
 30
0.0
 11
388.0525723116
 21
87.992444525058
 31
0.0
  0
LINE
  5
   2AF
  8
0
  6
DOT
 62
     7
 10
387.478038979261
 20
87.5103538177929
 30
0.0
 11
392.074305637975
 21
91.3670794759122
 31
0.0
  0
LINE
  5
   2B0
  8
0
  6
DOT
 62
     7
 10
392.074305637975
 20
91.3670794759122
 30
0.0
 11
393.130929677579
 21
91.2746368508379
 31
0.0
  0
LINE
  5
   2B1
  8
0
  6
DOT
 62
     7
 10
387.385596354186
 20
86.4537297781882
 30
0.0
 11
387.478038979261
 21
87.5103538177924
 31
0.0
  0
LINE
  5
   2B2
  8
0
  6
DOT
 62
     7
 10
387.385596354186
 20
86.453729778189
 30
0.0
 11
397.991591914014
 21
73.8139964667259
 31
0.0
  0
LINE
  5
   2B3
  8
0
  6
DOT
 62
     7
 10
387.478038979261
 20
87.5103538177931
 30
0.0
 11
398.566125246354
 21
74.2960871739908
 31
0.0
  0
LINE
  5
   2B4
  8
0
  6
DOT
 62
     7
 10
392.074305637975
 20
91.3670794759124
 30
0.0
 11
403.162391905067
 21
78.15281283211
 31
0.0
  0
LINE
  5
   2B5
  8
0
  6
DOT
 62
     7
 10
393.130929677579
 20
91.2746368508381
 30
0.0
 11
403.736925237407
 21
78.634903539375
 31
0.0
  0
LINE
  5
   2B6
  8
0
  6
DOT
 62
     7
 10
397.991591914014
 20
73.8139964667256
 30
0.0
 11
403.736925237407
 21
78.6349035393747
 31
0.0
  0
ARC
  5
   2B7
  8
0
  6
DOT
 62
     7
 10
381.539276233932
 20
104.778478797193
 30
0.0
 40
2.24999999999998
 50
57.0
 51
237.0
  0
LINE
  5
   2B8
  8
0
  6
DOT
 62
     7
 10
380.313838405148
 20
102.891470019316
 30
0.0
 11
391.635891072411
 21
95.5388430466127
 31
0.0
  0
LINE
  5
   2B9
  8
0
  6
DOT
 62
     7
 10
382.764714062716
 20
106.66548757507
 30
0.0
 11
394.086766729979
 21
99.3128606023671
 31
0.0
  0
LINE
  5
   2BA
  8
0
  6
DOT
 62
     7
 10
391.22741179615
 20
94.9098401206536
 30
0.0
 11
394.49524600624
 21
99.9418635283262
 31
0.0
  0
LINE
  5
   2BB
  8
0
  6
DOT
 62
     7
 10
394.49524600624
 20
99.9418635283261
 30
0.0
 11
395.532728208461
 21
100.162387178024
 31
0.0
  0
LINE
  5
   2BC
  8
0
  6
DOT
 62
     7
 10
391.22741179615
 20
94.9098401206537
 30
0.0
 11
391.447935445848
 21
93.8723579184334
 31
0.0
  0
LINE
  5
   2BD
  8
0
  6
DOT
 62
     7
 10
391.447935445848
 20
93.8723579184333
 30
0.0
 11
405.285999816947
 21
84.8858138406853
 31
0.0
  0
LINE
  5
   2BE
  8
0
  6
DOT
 62
     7
 10
391.22741179615
 20
94.9098401206536
 30
0.0
 11
405.694479093209
 21
85.5148167666444
 31
0.0
  0
LINE
  5
   2BF
  8
0
  6
DOT
 62
     7
 10
394.49524600624
 20
99.9418635283262
 30
0.0
 11
408.962313303299
 21
90.546840174317
 31
0.0
  0
LINE
  5
   2C0
  8
0
  6
DOT
 62
     7
 10
395.532728208461
 20
100.162387178024
 30
0.0
 11
409.37079257956
 21
91.175843100276
 31
0.0
  0
LINE
  5
   2C1
  8
0
  6
DOT
 62
     7
 10
405.285999816947
 20
84.8858138406854
 30
0.0
 11
409.37079257956
 21
91.175843100276
 31
0.0
  0
POINT
  5
   2C2
  8
0
  6
CONTINUOUS
 62
     7
 10
390.890126604972
 20
91.315880088537
 30
0.0
  0
LINE
  5
   2C3
  8
0
  6
CONTINUOUS
 62
     7
 10
341.402267456055
 20
110.878916625977
 30
0.0
 11
341.402267456055
 21
112.753916625977
 31
0.0
  0
POLYLINE
  5
   2C4
  8
0
  6
CONTINUOUS
 62
     7
 66
     1
 10
0.0
 20
0.0
 30
0.0
  0
VERTEX
  5
   2C5
  8
0
  6
CONTINUOUS
 10
337.651784789118
 20
123.371839706329
 30
0.0
 40
0.0
 41
0.0
  0
VERTEX
  5
   2C6
  8
0
  6
CONTINUOUS
 10
337.701970469182
 20
123.354650825221
 30
0.0
 40
0.0
 41
0.0
  0
VERTEX
  5
   2C7
  8
0
  6
CONTINUOUS
 10
337.751795265232
 20
123.339912276176
 30
0.0
 40
0.0
 41
0.0
  0
VERTEX
  5
   2C8
  8
0
  6
CONTINUOUS
 10
337.801285942565
 20
123.327496227527
 30
0.0
 40
0.0
 41
0.0
  0
VERTEX
  5
   2C9
  8
0
  6
CONTINUOUS
 10
337.850474087417
 20
123.317251822705
 30
0.0
 40
0.0
 41
0.0
  0
VERTEX
  5
   2CA
  8
0
  6
CONTINUOUS
 10
337.899396506627
 20
123.309003271407
 30
0.0
 40
0.0
 41
0.0
  0
VERTEX
  5
   2CB
  8
0
  6
CONTINUOUS
 10
337.94809562731
 20
123.30254794077
 30
0.0
 40
0.0
 41
0.0
  0
VERTEX
  5
   2CC
  8
0
  6
CONTINUOUS
 10
338.045024180948
 20
123.294060744263
 30
0.0
 40
0.0
 41
0.0
  0
VERTEX
  5
   2CD
  8
0
  6
CONTINUOUS
 10
338.298639312128
 20
123.283447096776
 30
0.0
 40
0.0
 41
0.0
  0
VERTEX
  5
   2CE
  8
0
  6
CONTINUOUS
 10
338.378352257
 20
123.277173852806
 30
0.0
 40
0.0
 41
0.0
  0
VERTEX
  5
   2CF
  8
0
  6
CONTINUOUS
 10
338.45939954013
 20
123.266277744213
 30
0.0
 40
0.0
 41
0.0
  0
VERTEX
  5
   2D0
  8
0
  6
CONTINUOUS
 10
338.50052921341
 20
123.258538883427
 30
0.0
 40
0.0
 41
0.0
  0
VERTEX
  5
   2D1
  8
0
  6
CONTINUOUS
 10
338.542111524964
 20
123.24899909988
 30
0.0
 40
0.0
 41
0.0
  0
VERTEX
  5
   2D2
  8
0
  6
CONTINUOUS
 10
338.584176390785
 20
123.237474371036
 30
0.0
 40
0.0
 41
0.0
  0
VERTEX
  5
   2D3
  8
0
  6
CONTINUOUS
 10
338.626747313881
 20
123.22380221053
 30
0.0
 40
0.0
 41
0.0
  0
VERTEX
  5
   2D4
  8
0
  6
CONTINUOUS
 10
338.669840404694
 20
123.207845437437
 30
0.0
 40
0.0
 41
0.0
  0
VERTEX
  5
   2D5
  8
0
  6
CONTINUOUS
 10
338.713463401513
 20
123.189495945549
 30
0.0
 40
0.0
 41
0.0
  0
VERTEX
  5
   2D6
  8
0
  6
CONTINUOUS
 10
338.75761469089
 20
123.168678472653
 30
0.0
 40
0.0
 41
0.0
  0
VERTEX
  5
   2D7
  8
0
  6
CONTINUOUS
 10
338.802282328059
 20
123.145354369803
 30
0.0
 40
0.0
 41
0.0
  0
VERTEX
  5
   2D8
  8
0
  6
CONTINUOUS
 10
338.847443057349
 20
123.119525370598
 30
0.0
 40
0.0
 41
0.0
  0
VERTEX
  5
   2D9
  8
0
  6
CONTINUOUS
 10
338.893061332603
 20
123.091237360458
 30
0.0
 40
0.0
 41
0.0
  0
VERTEX
  5
   2DA
  8
0
  6
CONTINUOUS
 10
338.93908833759
 20
123.060584145897
 30
0.0
 40
0.0
 41
0.0
  0
VERTEX
  5
   2DB
  8
0
  6
CONTINUOUS
 10
338.985461006426
 20
123.0277112238
 30
0.0
 40
0.0
 41
0.0
  0
VERTEX
  5
   2DC
  8
0
  6
CONTINUOUS
 10
339.051572709523
 20
122.977759473296
 30
0.0
 40
0.0
 41
0.0
  0
VERTEX
  5
   2DD
  8
0
  6
CONTINUOUS
 10
339.117943671766
 20
122.924530224629
 30
0.0
 40
0.0
 41
0.0
  0
VERTEX
  5
   2DE
  8
0
  6
CONTINUOUS
 10
339.250113166282
 20
122.812244894056
 30
0.0
 40
0.0
 41
0.0
  0
VERTEX
  5
   2DF
  8
0
  6
CONTINUOUS
 10
339.378933600835
 20
122.700240481325
 30
0.0
 40
0.0
 41
0.0
  0
VERTEX
  5
   2E0
  8
0
  6
CONTINUOUS
 10
339.441056373484
 20
122.647673862442
 30
0.0
 40
0.0
 41
0.0
  0
VERTEX
  5
   2E1
  8
0
  6
CONTINUOUS
 10
339.501105130485
 20
122.599231227598
 30
0.0
 40
0.0
 41
0.0
  0
VERTEX
  5
   2E2
  8
0
  6
CONTINUOUS
 10
339.558690086355
 20
122.556255771875
 30
0.0
 40
0.0
 41
0.0
  0
VERTEX
  5
   2E3
  8
0
  6
CONTINUOUS
 10
339.613453673214
 20
122.52001852183
 30
0.0
 40
0.0
 41
0.0
  0
VERTEX
  5
   2E4
  8
0
  6
CONTINUOUS
 10
339.665082719496
 20
122.491679527874
 30
0.0
 40
0.0
 41
0.0
  0
VERTEX
  5
   2E5
  8
0
  6
CONTINUOUS
 10
339.689639060527
 20
122.480794497325
 30
0.0
 40
0.0
 41
0.0
  0
VERTEX
  5
   2E6
  8
0
  6
CONTINUOUS
 10
339.713320628657
 20
122.472249056635
 30
0.0
 40
0.0
 41
0.0
  0
VERTEX
  5
   2E7
  8
0
  6
CONTINUOUS
 10
339.736106187236
 20
122.466139718539
 30
0.0
 40
0.0
 41
0.0
  0
VERTEX
  5
   2E8
  8
0
  6
CONTINUOUS
 10
339.75797955789
 20
122.462548783335
 30
0.0
 40
0.0
 41
0.0
  0
VERTEX
  5
   2E9
  8
0
  6
CONTINUOUS
 10
339.778930001108
 20
122.46154312614
 30
0.0
 40
0.0
 41
0.0
  0
VERTEX
  5
   2EA
  8
0
  6
CONTINUOUS
 10
339.798952596828
 20
122.463172984157
 30
0.0
 40
0.0
 41
0.0
  0
VERTEX
  5
   2EB
  8
0
  6
CONTINUOUS
 10
339.818048625018
 20
122.467470743933
 30
0.0
 40
0.0
 41
0.0
  0
VERTEX
  5
   2EC
  8
0
  6
CONTINUOUS
 10
339.836225946262
 20
122.47444972862
 30
0.0
 40
0.0
 41
0.0
  0
VERTEX
  5
   2ED
  8
0
  6
CONTINUOUS
 10
339.853499382347
 20
122.48410298524
 30
0.0
 40
0.0
 41
0.0
  0
VERTEX
  5
   2EE
  8
0
  6
CONTINUOUS
 10
339.869891096846
 20
122.496402071944
 30
0.0
 40
0.0
 41
0.0
  0
VERTEX
  5
   2EF
  8
0
  6
CONTINUOUS
 10
339.8854309757
 20
122.511295845275
 30
0.0
 40
0.0
 41
0.0
  0
VERTEX
  5
   2F0
  8
0
  6
CONTINUOUS
 10
339.900157007808
 20
122.528709247428
 30
0.0
 40
0.0
 41
0.0
  0
VERTEX
  5
   2F1
  8
0
  6
CONTINUOUS
 10
339.914115665608
 20
122.548542093512
 30
0.0
 40
0.0
 41
0.0
  0
VERTEX
  5
   2F2
  8
0
  6
CONTINUOUS
 10
339.927362285663
 20
122.570667858814
 30
0.0
 40
0.0
 41
0.0
  0
VERTEX
  5
   2F3
  8
0
  6
CONTINUOUS
 10
339.95198736292
 20
122.621153072665
 30
0.0
 40
0.0
 41
0.0
  0
VERTEX
  5
   2F4
  8
0
  6
CONTINUOUS
 10
339.974666676793
 20
122.67857981073
 30
0.0
 40
0.0
 41
0.0
  0
VERTEX
  5
   2F5
  8
0
  6
CONTINUOUS
 10
340.025788189733
 20
122.82991033184
 30
0.0
 40
0.0
 41
0.0
  0
VERTEX
  5
   2F6
  8
0
  6
CONTINUOUS
 10
340.053154935154
 20
122.904463788888
 30
0.0
 40
0.0
 41
0.0
  0
VERTEX
  5
   2F7
  8
0
  6
CONTINUOUS
 10
340.068071251917
 20
122.939326566042
 30
0.0
 40
0.0
 41
0.0
  0
VERTEX
  5
   2F8
  8
0
  6
CONTINUOUS
 10
340.084087503724
 20
122.971816879914
 30
0.0
 40
0.0
 41
0.0
  0
VERTEX
  5
   2F9
  8
0
  6
CONTINUOUS
 10
340.101389564642
 20
123.001424839563
 30
0.0
 40
0.0
 41
0.0
  0
VERTEX
  5
   2FA
  8
0
  6
CONTINUOUS
 10
340.120138098906
 20
123.0277112238
 30
0.0
 40
0.0
 41
0.0
  0
VERTEX
  5
   2FB
  8
0
  6
CONTINUOUS
 10
340.14172479106
 20
123.051549108707
 30
0.0
 40
0.0
 41
0.0
  0
VERTEX
  5
   2FC
  8
0
  6
CONTINUOUS
 10
340.165191570699
 20
123.070968166981
 30
0.0
 40
0.0
 41
0.0
  0
VERTEX
  5
   2FD
  8
0
  6
CONTINUOUS
 10
340.190606428204
 20
123.08579404622
 30
0.0
 40
0.0
 41
0.0
  0
VERTEX
  5
   2FE
  8
0
  6
CONTINUOUS
 10
340.217997548858
 20
123.095964663601
 30
0.0
 40
0.0
 41
0.0
  0
VERTEX
  5
   2FF
  8
0
  6
CONTINUOUS
 10
340.247356779908
 20
123.101520083928
 30
0.0
 40
0.0
 41
0.0
  0
VERTEX
  5
   300
  8
0
  6
CONTINUOUS
 10
340.27864309762
 20
123.102592397684
 30
0.0
 40
0.0
 41
0.0
  0
VERTEX
  5
   301
  8
0
  6
CONTINUOUS
 10
340.31178607435
 20
123.099395599083
 30
0.0
 40
0.0
 41
0.0
  0
VERTEX
  5
   302
  8
0
  6
CONTINUOUS
 10
340.346689345593
 20
123.092215464114
 30
0.0
 40
0.0
 41
0.0
  0
VERTEX
  5
   303
  8
0
  6
CONTINUOUS
 10
340.383234077056
 20
123.081399428595
 30
0.0
 40
0.0
 41
0.0
  0
VERTEX
  5
   304
  8
0
  6
CONTINUOUS
 10
340.421282431709
 20
123.067346466223
 30
0.0
 40
0.0
 41
0.0
  0
VERTEX
  5
   305
  8
0
  6
CONTINUOUS
 10
340.460681036851
 20
123.050496966622
 30
0.0
 40
0.0
 41
0.0
  0
VERTEX
  5
   306
  8
0
  6
CONTINUOUS
 10
340.54285863181
 20
123.010316262169
 30
0.0
 40
0.0
 41
0.0
  0
VERTEX
  5
   307
  8
0
  6
CONTINUOUS
 10
340.759734270791
 20
122.895261159285
 30
0.0
 40
0.0
 41
0.0
  0
VERTEX
  5
   308
  8
0
  6
CONTINUOUS
 10
340.84749520947
 20
122.853145517265
 30
0.0
 40
0.0
 41
0.0
  0
VERTEX
  5
   309
  8
0
  6
CONTINUOUS
 10
340.8901628985
 20
122.834779656416
 30
0.0
 40
0.0
 41
0.0
  0
VERTEX
  5
   30A
  8
0
  6
CONTINUOUS
 10
340.932474883157
 20
122.818226138357
 30
0.0
 40
0.0
 41
0.0
  0
VERTEX
  5
   30B
  8
0
  6
CONTINUOUS
 10
340.974359430487
 20
122.80364360607
 30
0.0
 40
0.0
 41
0.0
  0
VERTEX
  5
   30C
  8
0
  6
CONTINUOUS
 10
341.015762965634
 20
122.791134983761
 30
0.0
 40
0.0
 41
0.0
  0
VERTEX
  5
   30D
  8
0
  6
CONTINUOUS
 10
341.056648719175
 20
122.780751890893
 30
0.0
 40
0.0
 41
0.0
  0
VERTEX
  5
   30E
  8
0
  6
CONTINUOUS
 10
341.096995374436
 20
122.772499056214
 30
0.0
 40
0.0
 41
0.0
  0
VERTEX
  5
   30F
  8
0
  6
CONTINUOUS
 10
341.13679571483
 20
122.766338731788
 30
0.0
 40
0.0
 41
0.0
  0
VERTEX
  5
   310
  8
0
  6
CONTINUOUS
 10
341.176055271175
 20
122.762195107027
 30
0.0
 40
0.0
 41
0.0
  0
VERTEX
  5
   311
  8
0
  6
CONTINUOUS
 10
341.214790969026
 20
122.759958722718
 30
0.0
 40
0.0
 41
0.0
  0
VERTEX
  5
   312
  8
0
  6
CONTINUOUS
 10
341.253029776001
 20
122.759490885054
 30
0.0
 40
0.0
 41
0.0
  0
VERTEX
  5
   313
  8
0
  6
CONTINUOUS
 10
341.328166682067
 20
122.763186385654
 30
0.0
 40
0.0
 41
0.0
  0
VERTEX
  5
   314
  8
0
  6
CONTINUOUS
 10
341.401831169988
 20
122.771755099654
 30
0.0
 40
0.0
 41
0.0
  0
VERTEX
  5
   315
  8
0
  6
CONTINUOUS
 10
341.474462522302
 20
122.783485262317
 30
0.0
 40
0.0
 41
0.0
  0
VERTEX
  5
   316
  8
0
  6
CONTINUOUS
 10
341.618493746668
 20
122.809504090631
 30
0.0
 40
0.0
 41
0.0
  0
VERTEX
  5
   317
  8
0
  6
CONTINUOUS
 10
341.724245357934
 20
122.825002526385
 30
0.0
 40
0.0
 41
0.0
  0
VERTEX
  5
   318
  8
0
  6
CONTINUOUS
 10
341.77765487481
 20
122.830399801137
 30
0.0
 40
0.0
 41
0.0
  0
VERTEX
  5
   319
  8
0
  6
CONTINUOUS
 10
341.831531046529
 20
122.833869561572
 30
0.0
 40
0.0
 41
0.0
  0
VERTEX
  5
   31A
  8
0
  6
CONTINUOUS
 10
341.885928179097
 20
122.835252169401
 30
0.0
 40
0.0
 41
0.0
  0
VERTEX
  5
   31B
  8
0
  6
CONTINUOUS
 10
341.940879712652
 20
122.834467404842
 30
0.0
 40
0.0
 41
0.0
  0
VERTEX
  5
   31C
  8
0
  6
CONTINUOUS
 10
341.99640005291
 20
122.831507298112
 30
0.0
 40
0.0
 41
0.0
  0
VERTEX
  5
   31D
  8
0
  6
CONTINUOUS
 10
342.052486402616
 20
122.826428960921
 30
0.0
 40
0.0
 41
0.0
  0
VERTEX
  5
   31E
  8
0
  6
CONTINUOUS
 10
342.109120592988
 20
122.81934741797
 30
0.0
 40
0.0
 41
0.0
  0
VERTEX
  5
   31F
  8
0
  6
CONTINUOUS
 10
342.166270915167
 20
122.810428438444
 30
0.0
 40
0.0
 41
0.0
  0
VERTEX
  5
   320
  8
0
  6
CONTINUOUS
 10
342.2819364078
 20
122.78795195779
 30
0.0
 40
0.0
 41
0.0
  0
VERTEX
  5
   321
  8
0
  6
CONTINUOUS
 10
342.399028003081
 20
122.761068158915
 30
0.0
 40
0.0
 41
0.0
  0
VERTEX
  5
   322
  8
0
  6
CONTINUOUS
 10
342.635231455089
 20
122.703889411228
 30
0.0
 40
0.0
 41
0.0
  0
VERTEX
  5
   323
  8
0
  6
CONTINUOUS
 10
342.753170839148
 20
122.67857981073
 30
0.0
 40
0.0
 41
0.0
  0
VERTEX
  5
   324
  8
0
  6
CONTINUOUS
 10
342.864867458294
 20
122.659180726836
 30
0.0
 40
0.0
 41
0.0
  0
VERTEX
  5
   325
  8
0
  6
CONTINUOUS
 10
342.920333446834
 20
122.651678807407
 30
0.0
 40
0.0
 41
0.0
  0
VERTEX
  5
   326
  8
0
  6
CONTINUOUS
 10
342.97549965638
 20
122.645830484389
 30
0.0
 40
0.0
 41
0.0
  0
VERTEX
  5
   327
  8
0
  6
CONTINUOUS
 10
343.030340080226
 20
122.641744967929
 30
0.0
 40
0.0
 41
0.0
  0
VERTEX
  5
   328
  8
0
  6
CONTINUOUS
 10
343.084834486975
 20
122.639507184842
 30
0.0
 40
0.0
 41
0.0
  0
VERTEX
  5
   329
  8
0
  6
CONTINUOUS
 10
343.138968121943
 20
122.639178993103
 30
0.0
 40
0.0
 41
0.0
  0
VERTEX
  5
   32A
  8
0
  6
CONTINUOUS
 10
343.192731408562
 20
122.640800396336
 30
0.0
 40
0.0
 41
0.0
  0
VERTEX
  5
   32B
  8
0
  6
CONTINUOUS
 10
343.246119649789
 20
122.644390758304
 30
0.0
 40
0.0
 41
0.0
  0
VERTEX
  5
   32C
  8
0
  6
CONTINUOUS
 10
343.299132729509
 20
122.649950017402
 30
0.0
 40
0.0
 41
0.0
  0
VERTEX
  5
   32D
  8
0
  6
CONTINUOUS
 10
343.351774813945
 20
122.657459901148
 30
0.0
 40
0.0
 41
0.0
  0
VERTEX
  5
   32E
  8
0
  6
CONTINUOUS
 10
343.404054053057
 20
122.666885140671
 30
0.0
 40
0.0
 41
0.0
  0
VERTEX
  5
   32F
  8
0
  6
CONTINUOUS
 10
343.455982281952
 20
122.678174685202
 30
0.0
 40
0.0
 41
0.0
  0
VERTEX
  5
   330
  8
0
  6
CONTINUOUS
 10
343.507574722288
 20
122.691262916571
 30
0.0
 40
0.0
 41
0.0
  0
VERTEX
  5
   331
  8
0
  6
CONTINUOUS
 10
343.558849683683
 20
122.706070863687
 30
0.0
 40
0.0
 41
0.0
  0
VERTEX
  5
   332
  8
0
  6
CONTINUOUS
 10
343.609828265114
 20
122.722507417038
 30
0.0
 40
0.0
 41
0.0
  0
VERTEX
  5
   333
  8
0
  6
CONTINUOUS
 10
343.71099283925
 20
122.75984849922
 30
0.0
 40
0.0
 41
0.0
  0
VERTEX
  5
   334
  8
0
  6
CONTINUOUS
 10
343.811281677193
 20
122.802360669179
 30
0.0
 40
0.0
 41
0.0
  0
VERTEX
  5
   335
  8
0
  6
CONTINUOUS
 10
343.910933531203
 20
122.849001945595
 30
0.0
 40
0.0
 41
0.0
  0
VERTEX
  5
   336
  8
0
  6
CONTINUOUS
 10
344.010203118282
 20
122.898652723476
 30
0.0
 40
0.0
 41
0.0
  0
VERTEX
  5
   337
  8
0
  6
CONTINUOUS
 10
344.308304263601
 20
123.054117798649
 30
0.0
 40
0.0
 41
0.0
  0
VERTEX
  5
   338
  8
0
  6
CONTINUOUS
 10
344.408576822035
 20
123.104418288619
 30
0.0
 40
0.0
 41
0.0
  0
VERTEX
  5
   339
  8
0
  6
CONTINUOUS
 10
344.509645743912
 20
123.152326129624
 30
0.0
 40
0.0
 41
0.0
  0
VERTEX
  5
   33A
  8
0
  6
CONTINUOUS
 10
344.611660879232
 20
123.197072112419
 30
0.0
 40
0.0
 41
0.0
  0
VERTEX
  5
   33B
  8
0
  6
CONTINUOUS
 10
344.71472115759
 20
123.238081450017
 30
0.0
 40
0.0
 41
0.0
  0
VERTEX
  5
   33C
  8
0
  6
CONTINUOUS
 10
344.81886503315
 20
123.275012641392
 30
0.0
 40
0.0
 41
0.0
  0
VERTEX
  5
   33D
  8
0
  6
CONTINUOUS
 10
344.895918182984
 20
123.299453936868
 30
0.0
 40
0.0
 41
0.0
  0
VERTEX
  5
   33E
  8
0
  6
CONTINUOUS
 10
344.973501160031
 20
123.321729689286
 30
0.0
 40
0.0
 41
0.0
  0
VERTEX
  5
   33F
  8
0
  6
CONTINUOUS
 10
345.051557410951
 20
123.341988131931
 30
0.0
 40
0.0
 41
0.0
  0
VERTEX
  5
   340
  8
0
  6
CONTINUOUS
 10
345.130015671526
 20
123.36044045014
 30
0.0
 40
0.0
 41
0.0
  0
VERTEX
  5
   341
  8
0
  6
CONTINUOUS
 10
345.28780455423
 20
123.393005125921
 30
0.0
 40
0.0
 41
0.0
  0
VERTEX
  5
   342
  8
0
  6
CONTINUOUS
 10
345.734497027498
 20
123.473232564357
 30
0.0
 40
0.0
 41
0.0
  0
VERTEX
  5
   343
  8
0
  6
CONTINUOUS
 10
345.863995917031
 20
123.498666755698
 30
0.0
 40
0.0
 41
0.0
  0
VERTEX
  5
   344
  8
0
  6
CONTINUOUS
 10
345.992858609994
 20
123.526560141914
 30
0.0
 40
0.0
 41
0.0
  0
VERTEX
  5
   345
  8
0
  6
CONTINUOUS
 10
346.121122302682
 20
123.557320585263
 30
0.0
 40
0.0
 41
0.0
  0
VERTEX
  5
   346
  8
0
  6
CONTINUOUS
 10
346.24888444013
 20
123.591116213718
 30
0.0
 40
0.0
 41
0.0
  0
VERTEX
  5
   347
  8
0
  6
CONTINUOUS
 10
346.376276997385
 20
123.627907044372
 30
0.0
 40
0.0
 41
0.0
  0
VERTEX
  5
   348
  8
0
  6
CONTINUOUS
 10
346.503440760777
 20
123.667476606846
 30
0.0
 40
0.0
 41
0.0
  0
VERTEX
  5
   349
  8
0
  6
CONTINUOUS
 10
346.6304996092
 20
123.709463566705
 30
0.0
 40
0.0
 41
0.0
  0
VERTEX
  5
   34A
  8
0
  6
CONTINUOUS
 10
346.884559227152
 20
123.798709760998
 30
0.0
 40
0.0
 41
0.0
  0
VERTEX
  5
   34B
  8
0
  6
CONTINUOUS
 10
347.377835633104
 20
123.977709060439
 30
0.0
 40
0.0
 41
0.0
  0
VERTEX
  5
   34C
  8
0
  6
CONTINUOUS
 10
347.699199190983
 20
124.089652605224
 30
0.0
 40
0.0
 41
0.0
  0
VERTEX
  5
   34D
  8
0
  6
CONTINUOUS
 10
347.957626072743
 20
124.178360460342
 30
0.0
 40
0.0
 41
0.0
  0
VERTEX
  5
   34E
  8
0
  6
CONTINUOUS
 10
348.085655892158
 20
124.224171639936
 30
0.0
 40
0.0
 41
0.0
  0
VERTEX
  5
   34F
  8
0
  6
CONTINUOUS
 10
348.213635234759
 20
124.27266604534
 30
0.0
 40
0.0
 41
0.0
  0
VERTEX
  5
   350
  8
0
  6
CONTINUOUS
 10
348.342185536568
 20
124.324973587152
 30
0.0
 40
0.0
 41
0.0
  0
VERTEX
  5
   351
  8
0
  6
CONTINUOUS
 10
348.47189145924
 20
124.38182512317
 30
0.0
 40
0.0
 41
0.0
  0
VERTEX
  5
   352
  8
0
  6
CONTINUOUS
 10
348.603225256153
 20
124.443322502893
 30
0.0
 40
0.0
 41
0.0
  0
VERTEX
  5
   353
  8
0
  6
CONTINUOUS
 10
348.871649641415
 20
124.576137416946
 30
0.0
 40
0.0
 41
0.0
  0
VERTEX
  5
   354
  8
0
  6
CONTINUOUS
 10
349.008441989999
 20
124.642444009253
 30
0.0
 40
0.0
 41
0.0
  0
VERTEX
  5
   355
  8
0
  6
CONTINUOUS
 10
349.12016300022
 20
124.692247723357
 30
0.0
 40
0.0
 41
0.0
  0
VERTEX
  5
   356
  8
0
  6
CONTINUOUS
 10
349.176066597018
 20
124.714729184446
 30
0.0
 40
0.0
 41
0.0
  0
VERTEX
  5
   357
  8
0
  6
CONTINUOUS
 10
349.231890577754
 20
124.735016159637
 30
0.0
 40
0.0
 41
0.0
  0
VERTEX
  5
   358
  8
0
  6
CONTINUOUS
 10
349.287553395647
 20
124.752668027978
 30
0.0
 40
0.0
 41
0.0
  0
VERTEX
  5
   359
  8
0
  6
CONTINUOUS
 10
349.342978875658
 20
124.767259180769
 30
0.0
 40
0.0
 41
0.0
  0
VERTEX
  5
   35A
  8
0
  6
CONTINUOUS
 10
349.398100883545
 20
124.778394834777
 30
0.0
 40
0.0
 41
0.0
  0
VERTEX
  5
   35B
  8
0
  6
CONTINUOUS
 10
349.452867994913
 20
124.785726845456
 30
0.0
 40
0.0
 41
0.0
  0
VERTEX
  5
   35C
  8
0
  6
CONTINUOUS
 10
349.507248164258
 20
124.788969520161
 30
0.0
 40
0.0
 41
0.0
  0
VERTEX
  5
   35D
  8
0
  6
CONTINUOUS
 10
349.561233394027
 20
124.787915431365
 30
0.0
 40
0.0
 41
0.0
  0
VERTEX
  5
   35E
  8
0
  6
CONTINUOUS
 10
349.609666023604
 20
124.783174380148
 30
0.0
 40
0.0
 41
0.0
  0
VERTEX
  5
   35F
  8
0
  6
CONTINUOUS
 10
349.657829585691
 20
124.774824809505
 30
0.0
 40
0.0
 41
0.0
  0
VERTEX
  5
   360
  8
0
  6
CONTINUOUS
 10
349.705777969102
 20
124.762926920556
 30
0.0
 40
0.0
 41
0.0
  0
VERTEX
  5
   361
  8
0
  6
CONTINUOUS
 10
349.753577471321
 20
124.747608379896
 30
0.0
 40
0.0
 41
0.0
  0
VERTEX
  5
   362
  8
0
  6
CONTINUOUS
 10
349.801301897527
 20
124.729061498776
 30
0.0
 40
0.0
 41
0.0
  0
VERTEX
  5
   363
  8
0
  6
CONTINUOUS
 10
349.849027659639
 20
124.707540412279
 30
0.0
 40
0.0
 41
0.0
  0
VERTEX
  5
   364
  8
0
  6
CONTINUOUS
 10
349.896828875337
 20
124.683358258507
 30
0.0
 40
0.0
 41
0.0
  0
VERTEX
  5
   365
  8
0
  6
CONTINUOUS
 10
349.944772467107
 20
124.656884357761
 30
0.0
 40
0.0
 41
0.0
  0
VERTEX
  5
   366
  8
0
  6
CONTINUOUS
 10
350.041289086999
 20
124.598802582619
 30
0.0
 40
0.0
 41
0.0
  0
VERTEX
  5
   367
  8
0
  6
CONTINUOUS
 10
350.207218263219
 20
124.494776820782
 30
0.0
 40
0.0
 41
0.0
  0
VERTEX
  5
   368
  8
0
  6
CONTINUOUS
 10
350.290881895969
 20
124.446182245109
 30
0.0
 40
0.0
 41
0.0
  0
VERTEX
  5
   369
  8
0
  6
CONTINUOUS
 10
350.332747322194
 20
124.424041307982
 30
0.0
 40
0.0
 41
0.0
  0
VERTEX
  5
   36A
  8
0
  6
CONTINUOUS
 10
350.37456675377
 20
124.403815059134
 30
0.0
 40
0.0
 41
0.0
  0
VERTEX
  5
   36B
  8
0
  6
CONTINUOUS
 10
350.416285809793
 20
124.385838894133
 30
0.0
 40
0.0
 41
0.0
  0
VERTEX
  5
   36C
  8
0
  6
CONTINUOUS
 10
350.457849660033
 20
124.370422979727
 30
0.0
 40
0.0
 41
0.0
  0
VERTEX
  5
   36D
  8
0
  6
CONTINUOUS
 10
350.499204703814
 20
124.35784619335
 30
0.0
 40
0.0
 41
0.0
  0
VERTEX
  5
   36E
  8
0
  6
CONTINUOUS
 10
350.540300248904
 20
124.348350062635
 30
0.0
 40
0.0
 41
0.0
  0
VERTEX
  5
   36F
  8
0
  6
CONTINUOUS
 10
350.581090190392
 20
124.342132704917
 30
0.0
 40
0.0
 41
0.0
  0
VERTEX
  5
   370
  8
0
  6
CONTINUOUS
 10
350.62153468958
 20
124.339342766746
 30
0.0
 40
0.0
 41
0.0
  0
VERTEX
  5
   371
  8
0
  6
CONTINUOUS
 10
350.661601852866
 20
124.34007336339
 30
0.0
 40
0.0
 41
0.0
  0
VERTEX
  5
   372
  8
0
  6
CONTINUOUS
 10
350.701269410626
 20
124.344356018345
 30
0.0
 40
0.0
 41
0.0
  0
VERTEX
  5
   373
  8
0
  6
CONTINUOUS
 10
350.740526396105
 20
124.352154602845
 30
0.0
 40
0.0
 41
0.0
  0
VERTEX
  5
   374
  8
0
  6
CONTINUOUS
 10
350.779374824293
 20
124.363359275367
 30
0.0
 40
0.0
 41
0.0
  0
VERTEX
  5
   375
  8
0
  6
CONTINUOUS
 10
350.817831370819
 20
124.377780421142
 30
0.0
 40
0.0
 41
0.0
  0
VERTEX
  5
   376
  8
0
  6
CONTINUOUS
 10
350.855929050831
 20
124.395142591661
 30
0.0
 40
0.0
 41
0.0
  0
VERTEX
  5
   377
  8
0
  6
CONTINUOUS
 10
350.902812058606
 20
124.42023294892
 30
0.0
 40
0.0
 41
0.0
  0
VERTEX
  5
   378
  8
0
  6
CONTINUOUS
 10
350.949357020636
 20
124.448394180073
 30
0.0
 40
0.0
 41
0.0
  0
VERTEX
  5
   379
  8
0
  6
CONTINUOUS
 10
351.088683326212
 20
124.540614013774
 30
0.0
 40
0.0
 41
0.0
  0
VERTEX
  5
   37A
  8
0
  6
CONTINUOUS
 10
351.170396789352
 20
124.59092107878
 30
0.0
 40
0.0
 41
0.0
  0
VERTEX
  5
   37B
  8
0
  6
CONTINUOUS
 10
351.211858389711
 20
124.613394408812
 30
0.0
 40
0.0
 41
0.0
  0
VERTEX
  5
   37C
  8
0
  6
CONTINUOUS
 10
351.253803029197
 20
124.633533271889
 30
0.0
 40
0.0
 41
0.0
  0
VERTEX
  5
   37D
  8
0
  6
CONTINUOUS
 10
351.296271332191
 20
124.651029721145
 30
0.0
 40
0.0
 41
0.0
  0
VERTEX
  5
   37E
  8
0
  6
CONTINUOUS
 10
351.339289909169
 20
124.665651293145
 30
0.0
 40
0.0
 41
0.0
  0
VERTEX
  5
   37F
  8
0
  6
CONTINUOUS
 10
351.382872492158
 20
124.677235376013
 30
0.0
 40
0.0
 41
0.0
  0
VERTEX
  5
   380
  8
0
  6
CONTINUOUS
 10
351.427021070205
 20
124.685683577546
 30
0.0
 40
0.0
 41
0.0
  0
VERTEX
  5
   381
  8
0
  6
CONTINUOUS
 10
351.471727024825
 20
124.690956093339
 30
0.0
 40
0.0
 41
0.0
  0
VERTEX
  5
   382
  8
0
  6
CONTINUOUS
 10
351.516972265467
 20
124.693066074903
 30
0.0
 40
0.0
 41
0.0
  0
VERTEX
  5
   383
  8
0
  6
CONTINUOUS
 10
351.562730364973
 20
124.692073997785
 30
0.0
 40
0.0
 41
0.0
  0
VERTEX
  5
   384
  8
0
  6
CONTINUOUS
 10
351.608967695035
 20
124.688082029693
 30
0.0
 40
0.0
 41
0.0
  0
VERTEX
  5
   385
  8
0
  6
CONTINUOUS
 10
351.655644561655
 20
124.681228398612
 30
0.0
 40
0.0
 41
0.0
  0
VERTEX
  5
   386
  8
0
  6
CONTINUOUS
 10
351.702716340607
 20
124.671681760924
 30
0.0
 40
0.0
 41
0.0
  0
VERTEX
  5
   387
  8
0
  6
CONTINUOUS
 10
351.750134612892
 20
124.659635569534
 30
0.0
 40
0.0
 41
0.0
  0
VERTEX
  5
   388
  8
0
  6
CONTINUOUS
 10
351.797848300201
 20
124.645302441983
 30
0.0
 40
0.0
 41
0.0
  0
VERTEX
  5
   389
  8
0
  6
CONTINUOUS
 10
351.845804800373
 20
124.628908528577
 30
0.0
 40
0.0
 41
0.0
  0
VERTEX
  5
   38A
  8
0
  6
CONTINUOUS
 10
351.893951122852
 20
124.610687880499
 30
0.0
 40
0.0
 41
0.0
  0
VERTEX
  5
   38B
  8
0
  6
CONTINUOUS
 10
351.990606143311
 20
124.569708298196
 30
0.0
 40
0.0
 41
0.0
  0
VERTEX
  5
   38C
  8
0
  6
CONTINUOUS
 10
352.116551509373
 20
124.509836279109
 30
0.0
 40
0.0
 41
0.0
  0
VERTEX
  5
   38D
  8
0
  6
CONTINUOUS
 10
352.242068910639
 20
124.445759683393
 30
0.0
 40
0.0
 41
0.0
  0
VERTEX
  5
   38E
  8
0
  6
CONTINUOUS
 10
352.489826048633
 20
124.315981051404
 30
0.0
 40
0.0
 41
0.0
  0
VERTEX
  5
   38F
  8
0
  6
CONTINUOUS
 10
352.611445003163
 20
124.254366693789
 30
0.0
 40
0.0
 41
0.0
  0
VERTEX
  5
   390
  8
0
  6
CONTINUOUS
 10
352.731361118797
 20
124.196813087844
 30
0.0
 40
0.0
 41
0.0
  0
VERTEX
  5
   391
  8
0
  6
CONTINUOUS
 10
352.849565160467
 20
124.1441600416
 30
0.0
 40
0.0
 41
0.0
  0
VERTEX
  5
   392
  8
0
  6
CONTINUOUS
 10
352.966138376784
 20
124.096846724453
 30
0.0
 40
0.0
 41
0.0
  0
VERTEX
  5
   393
  8
0
  6
CONTINUOUS
 10
353.081235845175
 20
124.054956652655
 30
0.0
 40
0.0
 41
0.0
  0
VERTEX
  5
   394
  8
0
  6
CONTINUOUS
 10
353.195069817034
 20
124.018262674803
 30
0.0
 40
0.0
 41
0.0
  0
VERTEX
  5
   395
  8
0
  6
CONTINUOUS
 10
353.30789306286
 20
123.98627195733
 30
0.0
 40
0.0
 41
0.0
  0
VERTEX
  5
   396
  8
0
  6
CONTINUOUS
 10
353.419982217409
 20
123.958270969998
 30
0.0
 40
0.0
 41
0.0
  0
VERTEX
  5
   397
  8
0
  6
CONTINUOUS
 10
353.531621124835
 20
123.933370471385
 30
0.0
 40
0.0
 41
0.0
  0
VERTEX
  5
   398
  8
0
  6
CONTINUOUS
 10
353.643084183837
 20
123.91055049438
 30
0.0
 40
0.0
 41
0.0
  0
VERTEX
  5
   399
  8
0
  6
CONTINUOUS
 10
353.866433194951
 20
123.866688521229
 30
0.0
 40
0.0
 41
0.0
  0
VERTEX
  5
   39A
  8
0
  6
CONTINUOUS
 10
353.978670823484
 20
123.843357831819
 30
0.0
 40
0.0
 41
0.0
  0
VERTEX
  5
   39B
  8
0
  6
CONTINUOUS
 10
354.091402646725
 20
123.817620248468
 30
0.0
 40
0.0
 41
0.0
  0
VERTEX
  5
   39C
  8
0
  6
CONTINUOUS
 10
354.204606013267
 20
123.788476957968
 30
0.0
 40
0.0
 41
0.0
  0
VERTEX
  5
   39D
  8
0
  6
CONTINUOUS
 10
354.318148897116
 20
123.755068334364
 30
0.0
 40
0.0
 41
0.0
  0
VERTEX
  5
   39E
  8
0
  6
CONTINUOUS
 10
354.419742880935
 20
123.721030799283
 30
0.0
 40
0.0
 41
0.0
  0
VERTEX
  5
   39F
  8
0
  6
CONTINUOUS
 10
354.521131007298
 20
123.682701281468
 30
0.0
 40
0.0
 41
0.0
  0
VERTEX
  5
   3A0
  8
0
  6
CONTINUOUS
 10
354.621969766098
 20
123.639871122546
 30
0.0
 40
0.0
 41
0.0
  0
VERTEX
  5
   3A1
  8
0
  6
CONTINUOUS
 10
354.721865555619
 20
123.592447016009
 30
0.0
 40
0.0
 41
0.0
  0
VERTEX
  5
   3A2
  8
0
  6
CONTINUOUS
 10
354.820395220567
 20
123.540435473189
 30
0.0
 40
0.0
 41
0.0
  0
VERTEX
  5
   3A3
  8
0
  6
CONTINUOUS
 10
354.917126590102
 20
123.483927289227
 30
0.0
 40
0.0
 41
0.0
  0
VERTEX
  5
   3A4
  8
0
  6
CONTINUOUS
 10
355.011639015871
 20
123.423082009045
 30
0.0
 40
0.0
 41
0.0
  0
VERTEX
  5
   3A5
  8
0
  6
CONTINUOUS
 10
355.103543910043
 20
123.358112393321
 30
0.0
 40
0.0
 41
0.0
  0
VERTEX
  5
   3A6
  8
0
  6
CONTINUOUS
 10
355.192505283337
 20
123.289268884456
 30
0.0
 40
0.0
 41
0.0
  0
VERTEX
  5
   3A7
  8
0
  6
CONTINUOUS
 10
355.278260283061
 20
123.216824072547
 30
0.0
 40
0.0
 41
0.0
  0
VERTEX
  5
   3A8
  8
0
  6
CONTINUOUS
 10
355.326369316245
 20
123.173348161183
 30
0.0
 40
0.0
 41
0.0
  0
VERTEX
  5
   3A9
  8
0
  6
CONTINUOUS
 10
355.373328295101
 20
123.128812549057
 30
0.0
 40
0.0
 41
0.0
  0
VERTEX
  5
   3AA
  8
0
  6
CONTINUOUS
 10
355.463786818497
 20
123.036770794616
 30
0.0
 40
0.0
 41
0.0
  0
VERTEX
  5
   3AB
  8
0
  6
CONTINUOUS
 10
355.549715476747
 20
122.941103491752
 30
0.0
 40
0.0
 41
0.0
  0
VERTEX
  5
   3AC
  8
0
  6
CONTINUOUS
 10
355.631325006137
 20
122.84219328063
 30
0.0
 40
0.0
 41
0.0
  0
VERTEX
  5
   3AD
  8
0
  6
CONTINUOUS
 10
355.708920179952
 20
122.740397753754
 30
0.0
 40
0.0
 41
0.0
  0
VERTEX
  5
   3AE
  8
0
  6
CONTINUOUS
 10
355.782862732681
 20
122.636046450678
 30
0.0
 40
0.0
 41
0.0
  0
VERTEX
  5
   3AF
  8
0
  6
CONTINUOUS
 10
355.853534284225
 20
122.52943785271
 30
0.0
 40
0.0
 41
0.0
  0
VERTEX
  5
   3B0
  8
0
  6
CONTINUOUS
 10
355.921299264102
 20
122.420836377625
 30
0.0
 40
0.0
 41
0.0
  0
VERTEX
  5
   3B1
  8
0
  6
CONTINUOUS
 10
355.986467835655
 20
122.310469374367
 30
0.0
 40
0.0
 41
0.0
  0
VERTEX
  5
   3B2
  8
0
  6
CONTINUOUS
 10
356.049258820258
 20
122.198524117757
 30
0.0
 40
0.0
 41
0.0
  0
VERTEX
  5
   3B3
  8
0
  6
CONTINUOUS
 10
356.10083644555
 20
122.102234069651
 30
0.0
 40
0.0
 41
0.0
  0
VERTEX
  5
   3B4
  8
0
  6
CONTINUOUS
 10
356.150735657568
 20
122.004972422808
 30
0.0
 40
0.0
 41
0.0
  0
VERTEX
  5
   3B5
  8
0
  6
CONTINUOUS
 10
356.198858640284
 20
121.906782931118
 30
0.0
 40
0.0
 41
0.0
  0
VERTEX
  5
   3B6
  8
0
  6
CONTINUOUS
 10
356.245055405963
 20
121.807693239651
 30
0.0
 40
0.0
 41
0.0
  0
VERTEX
  5
   3B7
  8
0
  6
CONTINUOUS
 10
356.289140912024
 20
121.707718860835
 30
0.0
 40
0.0
 41
0.0
  0
VERTEX
  5
   3B8
  8
0
  6
CONTINUOUS
 10
356.330912177916
 20
121.606867150636
 30
0.0
 40
0.0
 41
0.0
  0
VERTEX
  5
   3B9
  8
0
  6
CONTINUOUS
 10
356.370165401983
 20
121.505141284737
 30
0.0
 40
0.0
 41
0.0
  0
VERTEX
  5
   3BA
  8
0
  6
CONTINUOUS
 10
356.406713078336
 20
121.402544234717
 30
0.0
 40
0.0
 41
0.0
  0
VERTEX
  5
   3BB
  8
0
  6
CONTINUOUS
 10
356.440401113721
 20
121.299082744229
 30
0.0
 40
0.0
 41
0.0
  0
VERTEX
  5
   3BC
  8
0
  6
CONTINUOUS
 10
356.471125944385
 20
121.194771305179
 30
0.0
 40
0.0
 41
0.0
  0
VERTEX
  5
   3BD
  8
0
  6
CONTINUOUS
 10
356.500282845391
 20
121.083858660817
 30
0.0
 40
0.0
 41
0.0
  0
VERTEX
  5
   3BE
  8
0
  6
CONTINUOUS
 10
356.526156546888
 20
120.972077788081
 30
0.0
 40
0.0
 41
0.0
  0
VERTEX
  5
   3BF
  8
0
  6
CONTINUOUS
 10
356.548893524029
 20
120.859493927064
 30
0.0
 40
0.0
 41
0.0
  0
VERTEX
  5
   3C0
  8
0
  6
CONTINUOUS
 10
356.568723649295
 20
120.746187409916
 30
0.0
 40
0.0
 41
0.0
  0
VERTEX
  5
   3C1
  8
0
  6
CONTINUOUS
 10
356.585949440868
 20
120.632251491558
 30
0.0
 40
0.0
 41
0.0
  0
VERTEX
  5
   3C2
  8
0
  6
CONTINUOUS
 10
356.600935310996
 20
120.517790180391
 30
0.0
 40
0.0
 41
0.0
  0
VERTEX
  5
   3C3
  8
0
  6
CONTINUOUS
 10
356.625889896454
 20
120.287748164939
 30
0.0
 40
0.0
 41
0.0
  0
VERTEX
  5
   3C4
  8
0
  6
CONTINUOUS
 10
356.669308508578
 20
119.826621813444
 30
0.0
 40
0.0
 41
0.0
  0
VERTEX
  5
   3C5
  8
0
  6
CONTINUOUS
 10
356.681759730522
 20
119.711842730132
 30
0.0
 40
0.0
 41
0.0
  0
VERTEX
  5
   3C6
  8
0
  6
CONTINUOUS
 10
356.695824319622
 20
119.597497132138
 30
0.0
 40
0.0
 41
0.0
  0
VERTEX
  5
   3C7
  8
0
  6
CONTINUOUS
 10
356.711939911307
 20
119.483688191281
 30
0.0
 40
0.0
 41
0.0
  0
VERTEX
  5
   3C8
  8
0
  6
CONTINUOUS
 10
356.730498518755
 20
119.370508139987
 30
0.0
 40
0.0
 41
0.0
  0
VERTEX
  5
   3C9
  8
0
  6
CONTINUOUS
 10
356.751835781265
 20
119.258036102006
 30
0.0
 40
0.0
 41
0.0
  0
VERTEX
  5
   3CA
  8
0
  6
CONTINUOUS
 10
356.776220212622
 20
119.14633592312
 30
0.0
 40
0.0
 41
0.0
  0
VERTEX
  5
   3CB
  8
0
  6
CONTINUOUS
 10
356.803842449467
 20
119.035454001861
 30
0.0
 40
0.0
 41
0.0
  0
VERTEX
  5
   3CC
  8
0
  6
CONTINUOUS
 10
356.834804499668
 20
118.925417120219
 30
0.0
 40
0.0
 41
0.0
  0
VERTEX
  5
   3CD
  8
0
  6
CONTINUOUS
 10
356.864987876876
 20
118.828769960473
 30
0.0
 40
0.0
 41
0.0
  0
VERTEX
  5
   3CE
  8
0
  6
CONTINUOUS
 10
356.897722760632
 20
118.732777063438
 30
0.0
 40
0.0
 41
0.0
  0
VERTEX
  5
   3CF
  8
0
  6
CONTINUOUS
 10
356.93288185804
 20
118.637413517159
 30
0.0
 40
0.0
 41
0.0
  0
VERTEX
  5
   3D0
  8
0
  6
CONTINUOUS
 10
356.970283819713
 20
118.542642236836
 30
0.0
 40
0.0
 41
0.0
  0
VERTEX
  5
   3D1
  8
0
  6
CONTINUOUS
 10
357.009699954786
 20
118.448415217978
 30
0.0
 40
0.0
 41
0.0
  0
VERTEX
  5
   3D2
  8
0
  6
CONTINUOUS
 10
357.05086094592
 20
118.354674789572
 30
0.0
 40
0.0
 41
0.0
  0
VERTEX
  5
   3D3
  8
0
  6
CONTINUOUS
 10
357.1371773847
 20
118.168382206396
 30
0.0
 40
0.0
 41
0.0
  0
VERTEX
  5
   3D4
  8
0
  6
CONTINUOUS
 10
357.315960345406
 20
117.798318856192
 30
0.0
 40
0.0
 41
0.0
  0
VERTEX
  5
   3D5
  8
0
  6
CONTINUOUS
 10
357.40255716261
 20
117.613150647022
 30
0.0
 40
0.0
 41
0.0
  0
VERTEX
  5
   3D6
  8
0
  6
CONTINUOUS
 10
357.443923138843
 20
117.520219675072
 30
0.0
 40
0.0
 41
0.0
  0
VERTEX
  5
   3D7
  8
0
  6
CONTINUOUS
 10
357.483583643434
 20
117.426942619972
 30
0.0
 40
0.0
 41
0.0
  0
VERTEX
  5
   3D8
  8
0
  6
CONTINUOUS
 10
357.521265658353
 20
117.333238187563
 30
0.0
 40
0.0
 41
0.0
  0
VERTEX
  5
   3D9
  8
0
  6
CONTINUOUS
 10
357.556736119184
 20
117.239030455092
 30
0.0
 40
0.0
 41
0.0
  0
VERTEX
  5
   3DA
  8
0
  6
CONTINUOUS
 10
357.589808630143
 20
117.144250124376
 30
0.0
 40
0.0
 41
0.0
  0
VERTEX
  5
   3DB
  8
0
  6
CONTINUOUS
 10
357.620350179077
 20
117.048835774964
 30
0.0
 40
0.0
 41
0.0
  0
VERTEX
  5
   3DC
  8
0
  6
CONTINUOUS
 10
357.658072057202
 20
116.916575007676
 30
0.0
 40
0.0
 41
0.0
  0
VERTEX
  5
   3DD
  8
0
  6
CONTINUOUS
 10
357.690882931878
 20
116.782916007383
 30
0.0
 40
0.0
 41
0.0
  0
VERTEX
  5
   3DE
  8
0
  6
CONTINUOUS
 10
357.718961597358
 20
116.647797156209
 30
0.0
 40
0.0
 41
0.0
  0
VERTEX
  5
   3DF
  8
0
  6
CONTINUOUS
 10
357.742610265089
 20
116.511203299555
 30
0.0
 40
0.0
 41
0.0
  0
VERTEX
  5
   3E0
  8
0
  6
CONTINUOUS
 10
357.762197088718
 20
116.373170454459
 30
0.0
 40
0.0
 41
0.0
  0
VERTEX
  5
   3E1
  8
0
  6
CONTINUOUS
 10
357.778098689099
 20
116.233790517937
 30
0.0
 40
0.0
 41
0.0
  0
VERTEX
  5
   3E2
  8
0
  6
CONTINUOUS
 10
357.790642679301
 20
116.093215975339
 30
0.0
 40
0.0
 41
0.0
  0
VERTEX
  5
   3E3
  8
0
  6
CONTINUOUS
 10
357.800050189609
 20
115.951664608694
 30
0.0
 40
0.0
 41
0.0
  0
VERTEX
  5
   3E4
  8
0
  6
CONTINUOUS
 10
357.806378392536
 20
115.809424205065
 30
0.0
 40
0.0
 41
0.0
  0
VERTEX
  5
   3E5
  8
0
  6
CONTINUOUS
 10
357.809463027823
 20
115.666857264892
 30
0.0
 40
0.0
 41
0.0
  0
VERTEX
  5
   3E6
  8
0
  6
CONTINUOUS
 10
357.80945960039
 20
115.566220438828
 30
0.0
 40
0.0
 41
0.0
  0
VERTEX
  5
   3E7
  8
0
  6
CONTINUOUS
 10
357.807378838841
 20
115.465817639218
 30
0.0
 40
0.0
 41
0.0
  0
VERTEX
  5
   3E8
  8
0
  6
CONTINUOUS
 10
357.802916118472
 20
115.365839043721
 30
0.0
 40
0.0
 41
0.0
  0
VERTEX
  5
   3E9
  8
0
  6
CONTINUOUS
 10
357.795732900356
 20
115.266477786378
 30
0.0
 40
0.0
 41
0.0
  0
VERTEX
  5
   3EA
  8
0
  6
CONTINUOUS
 10
357.785481600309
 20
115.167920975004
 30
0.0
 40
0.0
 41
0.0
  0
VERTEX
  5
   3EB
  8
0
  6
CONTINUOUS
 10
357.771830457872
 20
115.070340708579
 30
0.0
 40
0.0
 41
0.0
  0
VERTEX
  5
   3EC
  8
0
  6
CONTINUOUS
 10
357.754488405284
 20
114.973885094641
 30
0.0
 40
0.0
 41
0.0
  0
VERTEX
  5
   3ED
  8
0
  6
CONTINUOUS
 10
357.733229936454
 20
114.878669266678
 30
0.0
 40
0.0
 41
0.0
  0
VERTEX
  5
   3EE
  8
0
  6
CONTINUOUS
 10
357.70791997594
 20
114.784766401522
 30
0.0
 40
0.0
 41
0.0
  0
VERTEX
  5
   3EF
  8
0
  6
CONTINUOUS
 10
357.678538747922
 20
114.692198736737
 30
0.0
 40
0.0
 41
0.0
  0
VERTEX
  5
   3F0
  8
0
  6
CONTINUOUS
 10
357.657674712815
 20
114.633715672159
 30
0.0
 40
0.0
 41
0.0
  0
VERTEX
  5
   3F1
  8
0
  6
CONTINUOUS
 10
357.635257582725
 20
114.575740430014
 30
0.0
 40
0.0
 41
0.0
  0
VERTEX
  5
   3F2
  8
0
  6
CONTINUOUS
 10
357.586141416083
 20
114.46116901993
 30
0.0
 40
0.0
 41
0.0
  0
VERTEX
  5
   3F3
  8
0
  6
CONTINUOUS
 10
357.532142778644
 20
114.348114595427
 30
0.0
 40
0.0
 41
0.0
  0
VERTEX
  5
   3F4
  8
0
  6
CONTINUOUS
 10
357.474463691
 20
114.23610664374
 30
0.0
 40
0.0
 41
0.0
  0
VERTEX
  5
   3F5
  8
0
  6
CONTINUOUS
 10
357.293097844193
 20
113.901023414915
 30
0.0
 40
0.0
 41
0.0
  0
VERTEX
  5
   3F6
  8
0
  6
CONTINUOUS
 10
357.234359564286
 20
113.787944097053
 30
0.0
 40
0.0
 41
0.0
  0
VERTEX
  5
   3F7
  8
0
  6
CONTINUOUS
 10
357.178345890026
 20
113.673509566956
 30
0.0
 40
0.0
 41
0.0
  0
VERTEX
  5
   3F8
  8
0
  6
CONTINUOUS
 10
357.125747343893
 20
113.557521644257
 30
0.0
 40
0.0
 41
0.0
  0
VERTEX
  5
   3F9
  8
0
  6
CONTINUOUS
 10
357.083645072202
 20
113.456966490176
 30
0.0
 40
0.0
 41
0.0
  0
VERTEX
  5
   3FA
  8
0
  6
CONTINUOUS
 10
357.04415131032
 20
113.355381833961
 30
0.0
 40
0.0
 41
0.0
  0
VERTEX
  5
   3FB
  8
0
  6
CONTINUOUS
 10
357.006942238088
 20
113.252983308386
 30
0.0
 40
0.0
 41
0.0
  0
VERTEX
  5
   3FC
  8
0
  6
CONTINUOUS
 10
356.971527084407
 20
113.150056447063
 30
0.0
 40
0.0
 41
0.0
  0
VERTEX
  5
   3FD
  8
0
  6
CONTINUOUS
 10
356.83523124739
 20
112.739672639916
 30
0.0
 40
0.0
 41
0.0
  0
VERTEX
  5
   3FE
  8
0
  6
CONTINUOUS
 10
356.799436208383
 20
112.638895875916
 30
0.0
 40
0.0
 41
0.0
  0
VERTEX
  5
   3FF
  8
0
  6
CONTINUOUS
 10
356.762068788611
 20
112.539221689467
 30
0.0
 40
0.0
 41
0.0
  0
VERTEX
  5
   400
  8
0
  6
CONTINUOUS
 10
356.698799033502
 20
112.381960166705
 30
0.0
 40
0.0
 41
0.0
  0
VERTEX
  5
   401
  8
0
  6
CONTINUOUS
 10
356.632085515432
 20
112.226769017355
 30
0.0
 40
0.0
 41
0.0
  0
VERTEX
  5
   402
  8
0
  6
CONTINUOUS
 10
356.563998737819
 20
112.072265329849
 30
0.0
 40
0.0
 41
0.0
  0
VERTEX
  5
   403
  8
0
  6
CONTINUOUS
 10
356.497371636867
 20
111.916698165233
 30
0.0
 40
0.0
 41
0.0
  0
VERTEX
  5
   404
  8
0
  6
CONTINUOUS
 10
356.465572229179
 20
111.83794498639
 30
0.0
 40
0.0
 41
0.0
  0
VERTEX
  5
   405
  8
0
  6
CONTINUOUS
 10
356.435283492722
 20
111.758261479756
 30
0.0
 40
0.0
 41
0.0
  0
VERTEX
  5
   406
  8
0
  6
CONTINUOUS
 10
356.40684415793
 20
111.677464618601
 30
0.0
 40
0.0
 41
0.0
  0
VERTEX
  5
   407
  8
0
  6
CONTINUOUS
 10
356.380543840629
 20
111.59540704747
 30
0.0
 40
0.0
 41
0.0
  0
VERTEX
  5
   408
  8
0
  6
CONTINUOUS
 10
356.356606914259
 20
111.511986861015
 30
0.0
 40
0.0
 41
0.0
  0
VERTEX
  5
   409
  8
0
  6
CONTINUOUS
 10
356.335176382097
 20
111.427157382822
 30
0.0
 40
0.0
 41
0.0
  0
VERTEX
  5
   40A
  8
0
  6
CONTINUOUS
 10
356.316297749487
 20
111.340936944248
 30
0.0
 40
0.0
 41
0.0
  0
VERTEX
  5
   40B
  8
0
  6
CONTINUOUS
 10
356.299902896056
 20
111.253418663248
 30
0.0
 40
0.0
 41
0.0
  0
VERTEX
  5
   40C
  8
0
  6
CONTINUOUS
 10
356.28579394794
 20
111.164780223207
 30
0.0
 40
0.0
 41
0.0
  0
VERTEX
  5
   40D
  8
0
  6
CONTINUOUS
 10
356.273627150013
 20
111.075293651771
 30
0.0
 40
0.0
 41
0.0
  0
VERTEX
  5
   40E
  8
0
  6
CONTINUOUS
 10
356.242912737766
 20
110.806901046679
 30
0.0
 40
0.0
 41
0.0
  0
VERTEX
  5
   40F
  8
0
  6
CONTINUOUS
 10
356.231755084076
 20
110.719732043464
 30
0.0
 40
0.0
 41
0.0
  0
VERTEX
  5
   410
  8
0
  6
CONTINUOUS
 10
356.218316336867
 20
110.634643635514
 30
0.0
 40
0.0
 41
0.0
  0
VERTEX
  5
   411
  8
0
  6
CONTINUOUS
 10
356.20146774826
 20
110.552366229831
 30
0.0
 40
0.0
 41
0.0
  0
VERTEX
  5
   412
  8
0
  6
CONTINUOUS
 10
356.18018310016
 20
110.473527495465
 30
0.0
 40
0.0
 41
0.0
  0
VERTEX
  5
   413
  8
0
  6
CONTINUOUS
 10
356.158414397006
 20
110.410679912348
 30
0.0
 40
0.0
 41
0.0
  0
VERTEX
  5
   414
  8
0
  6
CONTINUOUS
 10
356.132643680961
 20
110.350682715336
 30
0.0
 40
0.0
 41
0.0
  0
VERTEX
  5
   415
  8
0
  6
CONTINUOUS
 10
356.102674871942
 20
110.293560701243
 30
0.0
 40
0.0
 41
0.0
  0
VERTEX
  5
   416
  8
0
  6
CONTINUOUS
 10
356.068436335672
 20
110.239237893372
 30
0.0
 40
0.0
 41
0.0
  0
VERTEX
  5
   417
  8
0
  6
CONTINUOUS
 10
356.029968796163
 20
110.18754954822
 30
0.0
 40
0.0
 41
0.0
  0
VERTEX
  5
   418
  8
0
  6
CONTINUOUS
 10
355.987413248187
 20
110.138254162177
 30
0.0
 40
0.0
 41
0.0
  0
VERTEX
  5
   419
  8
0
  6
CONTINUOUS
 10
355.940998869762
 20
110.091045478233
 30
0.0
 40
0.0
 41
0.0
  0
VERTEX
  5
   41A
  8
0
  6
CONTINUOUS
 10
355.89103093462
 20
110.045564492678
 30
0.0
 40
0.0
 41
0.0
  0
VERTEX
  5
   41B
  8
0
  6
CONTINUOUS
 10
355.837878724694
 20
110.001411461807
 30
0.0
 40
0.0
 41
0.0
  0
VERTEX
  5
   41C
  8
0
  6
CONTINUOUS
 10
355.781963442588
 20
109.958157908622
 30
0.0
 40
0.0
 41
0.0
  0
VERTEX
  5
   41D
  8
0
  6
CONTINUOUS
 10
355.663715550499
 20
109.872563701072
 30
0.0
 40
0.0
 41
0.0
  0
VERTEX
  5
   41E
  8
0
  6
CONTINUOUS
 10
355.540235966843
 20
109.785235642904
 30
0.0
 40
0.0
 41
0.0
  0
VERTEX
  5
   41F
  8
0
  6
CONTINUOUS
 10
355.415530529474
 20
109.692936203305
 30
0.0
 40
0.0
 41
0.0
  0
VERTEX
  5
   420
  8
0
  6
CONTINUOUS
 10
355.353890372051
 20
109.644089449024
 30
0.0
 40
0.0
 41
0.0
  0
VERTEX
  5
   421
  8
0
  6
CONTINUOUS
 10
355.293275404904
 20
109.59312076227
 30
0.0
 40
0.0
 41
0.0
  0
VERTEX
  5
   422
  8
0
  6
CONTINUOUS
 10
355.234030178205
 20
109.539883368048
 30
0.0
 40
0.0
 41
0.0
  0
VERTEX
  5
   423
  8
0
  6
CONTINUOUS
 10
355.176430287582
 20
109.484321825098
 30
0.0
 40
0.0
 41
0.0
  0
VERTEX
  5
   424
  8
0
  6
CONTINUOUS
 10
355.120686356524
 20
109.426500923177
 30
0.0
 40
0.0
 41
0.0
  0
VERTEX
  5
   425
  8
0
  6
CONTINUOUS
 10
355.06688771411
 20
109.366561925362
 30
0.0
 40
0.0
 41
0.0
  0
VERTEX
  5
   426
  8
0
  6
CONTINUOUS
 10
355.015056175155
 20
109.304763883637
 30
0.0
 40
0.0
 41
0.0
  0
VERTEX
  5
   427
  8
0
  6
CONTINUOUS
 10
354.965137281585
 20
109.241455063577
 30
0.0
 40
0.0
 41
0.0
  0
VERTEX
  5
   428
  8
0
  6
CONTINUOUS
 10
354.91700867677
 20
109.177059944485
 30
0.0
 40
0.0
 41
0.0
  0
VERTEX
  5
   429
  8
0
  6
CONTINUOUS
 10
354.870488479855
 20
109.11206621952
 30
0.0
 40
0.0
 41
0.0
  0
VERTEX
  5
   42A
  8
0
  6
CONTINUOUS
 10
354.695239768879
 20
108.857343616453
 30
0.0
 40
0.0
 41
0.0
  0
VERTEX
  5
   42B
  8
0
  6
CONTINUOUS
 10
354.652536254077
 20
108.797974753696
 30
0.0
 40
0.0
 41
0.0
  0
VERTEX
  5
   42C
  8
0
  6
CONTINUOUS
 10
354.609568815961
 20
108.741532942376
 30
0.0
 40
0.0
 41
0.0
  0
VERTEX
  5
   42D
  8
0
  6
CONTINUOUS
 10
354.56597338542
 20
108.688584376332
 30
0.0
 40
0.0
 41
0.0
  0
VERTEX
  5
   42E
  8
0
  6
CONTINUOUS
 10
354.521393363776
 20
108.639654464309
 30
0.0
 40
0.0
 41
0.0
  0
VERTEX
  5
   42F
  8
0
  6
CONTINUOUS
 10
354.475487997122
 20
108.595214830096
 30
0.0
 40
0.0
 41
0.0
  0
VERTEX
  5
   430
  8
0
  6
CONTINUOUS
 10
354.427940750651
 20
108.555670312651
 30
0.0
 40
0.0
 41
0.0
  0
VERTEX
  5
   431
  8
0
  6
CONTINUOUS
 10
354.378467682991
 20
108.521345966236
 30
0.0
 40
0.0
 41
0.0
  0
VERTEX
  5
   432
  8
0
  6
CONTINUOUS
 10
354.326825820535
 20
108.492474060547
 30
0.0
 40
0.0
 41
0.0
  0
VERTEX
  5
   433
  8
0
  6
CONTINUOUS
 10
354.300128925001
 20
108.480126787289
 30
0.0
 40
0.0
 41
0.0
  0
VERTEX
  5
   434
  8
0
  6
CONTINUOUS
 10
354.272821531776
 20
108.469181080848
 30
0.0
 40
0.0
 41
0.0
  0
VERTEX
  5
   435
  8
0
  6
CONTINUOUS
 10
354.244888520537
 20
108.459634090271
 30
0.0
 40
0.0
 41
0.0
  0
VERTEX
  5
   436
  8
0
  6
CONTINUOUS
 10
354.216318901637
 20
108.451474728097
 30
0.0
 40
0.0
 41
0.0
  0
VERTEX
  5
   437
  8
0
  6
CONTINUOUS
 10
354.177176587758
 20
108.442709514464
 30
0.0
 40
0.0
 41
0.0
  0
VERTEX
  5
   438
  8
0
  6
CONTINUOUS
 10
354.136885342008
 20
108.43630981118
 30
0.0
 40
0.0
 41
0.0
  0
VERTEX
  5
   439
  8
0
  6
CONTINUOUS
 10
354.09545563352
 20
108.432178195099
 30
0.0
 40
0.0
 41
0.0
  0
VERTEX
  5
   43A
  8
0
  6
CONTINUOUS
 10
354.052910492181
 20
108.430193540241
 30
0.0
 40
0.0
 41
0.0
  0
VERTEX
  5
   43B
  8
0
  6
CONTINUOUS
 10
354.009284398427
 20
108.430213536035
 30
0.0
 40
0.0
 41
0.0
  0
VERTEX
  5
   43C
  8
0
  6
CONTINUOUS
 10
353.964622173042
 20
108.432077205553
 30
0.0
 40
0.0
 41
0.0
  0
VERTEX
  5
   43D
  8
0
  6
CONTINUOUS
 10
353.872413651052
 20
108.440613435713
 30
0.0
 40
0.0
 41
0.0
  0
VERTEX
  5
   43E
  8
0
  6
CONTINUOUS
 10
353.776808111795
 20
108.454236781263
 30
0.0
 40
0.0
 41
0.0
  0
VERTEX
  5
   43F
  8
0
  6
CONTINUOUS
 10
353.678423133533
 20
108.471244298311
 30
0.0
 40
0.0
 41
0.0
  0
VERTEX
  5
   440
  8
0
  6
CONTINUOUS
 10
353.476043977684
 20
108.508396100908
 30
0.0
 40
0.0
 41
0.0
  0
VERTEX
  5
   441
  8
0
  6
CONTINUOUS
 10
353.373437181923
 20
108.525172279111
 30
0.0
 40
0.0
 41
0.0
  0
VERTEX
  5
   442
  8
0
  6
CONTINUOUS
 10
353.270754657904
 20
108.538757581365
 30
0.0
 40
0.0
 41
0.0
  0
VERTEX
  5
   443
  8
0
  6
CONTINUOUS
 10
353.158701258107
 20
108.548594387056
 30
0.0
 40
0.0
 41
0.0
  0
VERTEX
  5
   444
  8
0
  6
CONTINUOUS
 10
353.103079891861
 20
108.551174956205
 30
0.0
 40
0.0
 41
0.0
  0
VERTEX
  5
   445
  8
0
  6
CONTINUOUS
 10
353.047809456825
 20
108.552059316202
 30
0.0
 40
0.0
 41
0.0
  0
VERTEX
  5
   446
  8
0
  6
CONTINUOUS
 10
352.992938610124
 20
108.551178294305
 30
0.0
 40
0.0
 41
0.0
  0
VERTEX
  5
   447
  8
0
  6
CONTINUOUS
 10
352.938507042124
 20
108.548488238578
 30
0.0
 40
0.0
 41
0.0
  0
VERTEX
  5
   448
  8
0
  6
CONTINUOUS
 10
352.88454592044
 20
108.543969573724
 30
0.0
 40
0.0
 41
0.0
  0
VERTEX
  5
   449
  8
0
  6
CONTINUOUS
 10
352.831078333938
 20
108.537625356911
 30
0.0
 40
0.0
 41
0.0
  0
VERTEX
  5
   44A
  8
0
  6
CONTINUOUS
 10
352.778119736741
 20
108.529479833602
 30
0.0
 40
0.0
 41
0.0
  0
VERTEX
  5
   44B
  8
0
  6
CONTINUOUS
 10
352.725678392235
 20
108.519576993377
 30
0.0
 40
0.0
 41
0.0
  0
VERTEX
  5
   44C
  8
0
  6
CONTINUOUS
 10
352.673755817072
 20
108.507979125769
 30
0.0
 40
0.0
 41
0.0
  0
VERTEX
  5
   44D
  8
0
  6
CONTINUOUS
 10
352.622347225177
 20
108.494765376084
 30
0.0
 40
0.0
 41
0.0
  0
VERTEX
  5
   44E
  8
0
  6
CONTINUOUS
 10
352.521023997283
 20
108.463882425566
 30
0.0
 40
0.0
 41
0.0
  0
VERTEX
  5
   44F
  8
0
  6
CONTINUOUS
 10
352.421561237593
 20
108.427843541273
 30
0.0
 40
0.0
 41
0.0
  0
VERTEX
  5
   450
  8
0
  6
CONTINUOUS
 10
352.323739047827
 20
108.38774138806
 30
0.0
 40
0.0
 41
0.0
  0
VERTEX
  5
   451
  8
0
  6
CONTINUOUS
 10
352.227279310549
 20
108.344799682679
 30
0.0
 40
0.0
 41
0.0
  0
VERTEX
  5
   452
  8
0
  6
CONTINUOUS
 10
351.942718723345
 20
108.212169715772
 30
0.0
 40
0.0
 41
0.0
  0
VERTEX
  5
   453
  8
0
  6
CONTINUOUS
 10
351.848260524212
 20
108.171110534309
 30
0.0
 40
0.0
 41
0.0
  0
VERTEX
  5
   454
  8
0
  6
CONTINUOUS
 10
351.753398188721
 20
108.133678690031
 30
0.0
 40
0.0
 41
0.0
  0
VERTEX
  5
   455
  8
0
  6
CONTINUOUS
 10
351.657802655906
 20
108.100913727361
 30
0.0
 40
0.0
 41
0.0
  0
VERTEX
  5
   456
  8
0
  6
CONTINUOUS
 10
351.561186102779
 20
108.07366274805
 30
0.0
 40
0.0
 41
0.0
  0
VERTEX
  5
   457
  8
0
  6
CONTINUOUS
 10
351.512419771464
 20
108.062305727551
 30
0.0
 40
0.0
 41
0.0
  0
VERTEX
  5
   458
  8
0
  6
CONTINUOUS
 10
351.463316152493
 20
108.052534197664
 30
0.0
 40
0.0
 41
0.0
  0
VERTEX
  5
   459
  8
0
  6
CONTINUOUS
 10
351.413857193247
 20
108.044379342152
 30
0.0
 40
0.0
 41
0.0
  0
VERTEX
  5
   45A
  8
0
  6
CONTINUOUS
 10
351.364030082508
 20
108.037851652079
 30
0.0
 40
0.0
 41
0.0
  0
VERTEX
  5
   45B
  8
0
  6
CONTINUOUS
 10
351.313827694473
 20
108.032939481636
 30
0.0
 40
0.0
 41
0.0
  0
VERTEX
  5
   45C
  8
0
  6
CONTINUOUS
 10
351.263249032747
 20
108.02960760397
 30
0.0
 40
0.0
 41
0.0
  0
VERTEX
  5
   45D
  8
0
  6
CONTINUOUS
 10
351.205036952721
 20
108.027657145424
 30
0.0
 40
0.0
 41
0.0
  0
VERTEX
  5
   45E
  8
0
  6
CONTINUOUS
 10
351.146360694893
 20
108.027557955112
 30
0.0
 40
0.0
 41
0.0
  0
VERTEX
  5
   45F
  8
0
  6
CONTINUOUS
 10
351.027743734318
 20
108.032198318819
 30
0.0
 40
0.0
 41
0.0
  0
VERTEX
  5
   460
  8
0
  6
CONTINUOUS
 10
350.907740562904
 20
108.041780853028
 30
0.0
 40
0.0
 41
0.0
  0
VERTEX
  5
   461
  8
0
  6
CONTINUOUS
 10
350.665451746483
 20
108.066972778542
 30
0.0
 40
0.0
 41
0.0
  0
VERTEX
  5
   462
  8
0
  6
CONTINUOUS
 10
350.544235191425
 20
108.077767189193
 30
0.0
 40
0.0
 41
0.0
  0
VERTEX
  5
   463
  8
0
  6
CONTINUOUS
 10
350.423689108619
 20
108.084199802117
 30
0.0
 40
0.0
 41
0.0
  0
VERTEX
  5
   464
  8
0
  6
CONTINUOUS
 10
350.363821383633
 20
108.085113047635
 30
0.0
 40
0.0
 41
0.0
  0
VERTEX
  5
   465
  8
0
  6
CONTINUOUS
 10
350.304295685705
 20
108.084181457965
 30
0.0
 40
0.0
 41
0.0
  0
VERTEX
  5
   466
  8
0
  6
CONTINUOUS
 10
350.245157237123
 20
108.081210900063
 30
0.0
 40
0.0
 41
0.0
  0
VERTEX
  5
   467
  8
0
  6
CONTINUOUS
 10
350.186442820268
 20
108.076043723551
 30
0.0
 40
0.0
 41
0.0
  0
VERTEX
  5
   468
  8
0
  6
CONTINUOUS
 10
350.12817950423
 20
108.068563854365
 30
0.0
 40
0.0
 41
0.0
  0
VERTEX
  5
   469
  8
0
  6
CONTINUOUS
 10
350.070383371422
 20
108.058701888393
 30
0.0
 40
0.0
 41
0.0
  0
VERTEX
  5
   46A
  8
0
  6
CONTINUOUS
 10
350.013294399937
 20
108.046495727562
 30
0.0
 40
0.0
 41
0.0
  0
VERTEX
  5
   46B
  8
0
  6
CONTINUOUS
 10
349.9566636756
 20
108.031945791366
 30
0.0
 40
0.0
 41
0.0
  0
VERTEX
  5
   46C
  8
0
  6
CONTINUOUS
 10
349.900470485755
 20
108.015139525531
 30
0.0
 40
0.0
 41
0.0
  0
VERTEX
  5
   46D
  8
0
  6
CONTINUOUS
 10
349.844683762551
 20
107.996210962175
 30
0.0
 40
0.0
 41
0.0
  0
VERTEX
  5
   46E
  8
0
  6
CONTINUOUS
 10
349.789263560825
 20
107.975336051785
 30
0.0
 40
0.0
 41
0.0
  0
VERTEX
  5
   46F
  8
0
  6
CONTINUOUS
 10
349.734162535972
 20
107.952727995206
 30
0.0
 40
0.0
 41
0.0
  0
VERTEX
  5
   470
  8
0
  6
CONTINUOUS
 10
349.624700508541
 20
107.903323490559
 30
0.0
 40
0.0
 41
0.0
  0
VERTEX
  5
   471
  8
0
  6
CONTINUOUS
 10
349.407047899026
 20
107.796140038272
 30
0.0
 40
0.0
 41
0.0
  0
VERTEX
  5
   472
  8
0
  6
CONTINUOUS
 10
349.297892015622
 20
107.743649931012
 30
0.0
 40
0.0
 41
0.0
  0
VERTEX
  5
   473
  8
0
  6
CONTINUOUS
 10
349.187959312818
 20
107.695517213857
 30
0.0
 40
0.0
 41
0.0
  0
VERTEX
  5
   474
  8
0
  6
CONTINUOUS
 10
349.132607604631
 20
107.673896723876
 30
0.0
 40
0.0
 41
0.0
  0
VERTEX
  5
   475
  8
0
  6
CONTINUOUS
 10
349.076967728888
 20
107.654307868158
 30
0.0
 40
0.0
 41
0.0
  0
VERTEX
  5
   476
  8
0
  6
CONTINUOUS
 10
349.021030635039
 20
107.637023312802
 30
0.0
 40
0.0
 41
0.0
  0
VERTEX
  5
   477
  8
0
  6
CONTINUOUS
 10
348.964800563365
 20
107.622287622054
 30
0.0
 40
0.0
 41
0.0
  0
VERTEX
  5
   478
  8
0
  6
CONTINUOUS
 10
348.89597345572
 20
107.608091488294
 30
0.0
 40
0.0
 41
0.0
  0
VERTEX
  5
   479
  8
0
  6
CONTINUOUS
 10
348.82680642653
 20
107.59829603263
 30
0.0
 40
0.0
 41
0.0
  0
VERTEX
  5
   47A
  8
0
  6
CONTINUOUS
 10
348.757396673868
 20
107.593135000488
 30
0.0
 40
0.0
 41
0.0
  0
VERTEX
  5
   47B
  8
0
  6
CONTINUOUS
 10
348.687869656338
 20
107.592770408307
 30
0.0
 40
0.0
 41
0.0
  0
VERTEX
  5
   47C
  8
0
  6
CONTINUOUS
 10
348.61837537435
 20
107.597297809433
 30
0.0
 40
0.0
 41
0.0
  0
VERTEX
  5
   47D
  8
0
  6
CONTINUOUS
 10
348.549084651399
 20
107.60675156001
 30
0.0
 40
0.0
 41
0.0
  0
VERTEX
  5
   47E
  8
0
  6
CONTINUOUS
 10
348.480185415347
 20
107.621110084871
 30
0.0
 40
0.0
 41
0.0
  0
VERTEX
  5
   47F
  8
0
  6
CONTINUOUS
 10
348.411878979702
 20
107.640301143435
 30
0.0
 40
0.0
 41
0.0
  0
VERTEX
  5
   480
  8
0
  6
CONTINUOUS
 10
348.344376324894
 20
107.664207095593
 30
0.0
 40
0.0
 41
0.0
  0
VERTEX
  5
   481
  8
0
  6
CONTINUOUS
 10
348.277894379557
 20
107.692670167605
 30
0.0
 40
0.0
 41
0.0
  0
VERTEX
  5
   482
  8
0
  6
CONTINUOUS
 10
348.212652301809
 20
107.725497717992
 30
0.0
 40
0.0
 41
0.0
  0
VERTEX
  5
   483
  8
0
  6
CONTINUOUS
 10
348.148867760529
 20
107.762467503426
 30
0.0
 40
0.0
 41
0.0
  0
VERTEX
  5
   484
  8
0
  6
CONTINUOUS
 10
348.086753216637
 20
107.803332944622
 30
0.0
 40
0.0
 41
0.0
  0
VERTEX
  5
   485
  8
0
  6
CONTINUOUS
 10
348.026512204373
 20
107.847828392234
 30
0.0
 40
0.0
 41
0.0
  0
VERTEX
  5
   486
  8
0
  6
CONTINUOUS
 10
347.968335612578
 20
107.895674392744
 30
0.0
 40
0.0
 41
0.0
  0
VERTEX
  5
   487
  8
0
  6
CONTINUOUS
 10
347.91239796597
 20
107.946582954354
 30
0.0
 40
0.0
 41
0.0
  0
VERTEX
  5
   488
  8
0
  6
CONTINUOUS
 10
347.858853706427
 20
108.000262812883
 30
0.0
 40
0.0
 41
0.0
  0
VERTEX
  5
   489
  8
0
  6
CONTINUOUS
 10
347.807833474263
 20
108.056424697651
 30
0.0
 40
0.0
 41
0.0
  0
VERTEX
  5
   48A
  8
0
  6
CONTINUOUS
 10
347.75944038951
 20
108.114786597381
 30
0.0
 40
0.0
 41
0.0
  0
VERTEX
  5
   48B
  8
0
  6
CONTINUOUS
 10
347.713746333194
 20
108.175079026083
 30
0.0
 40
0.0
 41
0.0
  0
VERTEX
  5
   48C
  8
0
  6
CONTINUOUS
 10
347.665164640423
 20
108.245584580745
 30
0.0
 40
0.0
 41
0.0
  0
VERTEX
  5
   48D
  8
0
  6
CONTINUOUS
 10
347.620107700115
 20
108.317921473526
 30
0.0
 40
0.0
 41
0.0
  0
VERTEX
  5
   48E
  8
0
  6
CONTINUOUS
 10
347.57851266582
 20
108.391790394191
 30
0.0
 40
0.0
 41
0.0
  0
VERTEX
  5
   48F
  8
0
  6
CONTINUOUS
 10
347.540262849992
 20
108.466925583193
 30
0.0
 40
0.0
 41
0.0
  0
VERTEX
  5
   490
  8
0
  6
CONTINUOUS
 10
347.50519299002
 20
108.543092418903
 30
0.0
 40
0.0
 41
0.0
  0
VERTEX
  5
   491
  8
0
  6
CONTINUOUS
 10
347.473094514258
 20
108.620085004826
 30
0.0
 40
0.0
 41
0.0
  0
VERTEX
  5
   492
  8
0
  6
CONTINUOUS
 10
347.443720808059
 20
108.697723756831
 30
0.0
 40
0.0
 41
0.0
  0
VERTEX
  5
   493
  8
0
  6
CONTINUOUS
 10
347.416792479803
 20
108.77585299037
 30
0.0
 40
0.0
 41
0.0
  0
VERTEX
  5
   494
  8
0
  6
CONTINUOUS
 10
347.39200262693
 20
108.854338507703
 30
0.0
 40
0.0
 41
0.0
  0
VERTEX
  5
   495
  8
0
  6
CONTINUOUS
 10
347.369022101973
 20
108.933065185118
 30
0.0
 40
0.0
 41
0.0
  0
VERTEX
  5
   496
  8
0
  6
CONTINUOUS
 10
347.327092817574
 20
109.090862418851
 30
0.0
 40
0.0
 41
0.0
  0
VERTEX
  5
   497
  8
0
  6
CONTINUOUS
 10
347.249226761543
 20
109.405837991714
 30
0.0
 40
0.0
 41
0.0
  0
VERTEX
  5
   498
  8
0
  6
CONTINUOUS
 10
347.207645887777
 20
109.562129033152
 30
0.0
 40
0.0
 41
0.0
  0
VERTEX
  5
   499
  8
0
  6
CONTINUOUS
 10
347.185073953424
 20
109.639798474925
 30
0.0
 40
0.0
 41
0.0
  0
VERTEX
  5
   49A
  8
0
  6
CONTINUOUS
 10
347.160954929166
 20
109.717076100479
 30
0.0
 40
0.0
 41
0.0
  0
VERTEX
  5
   49B
  8
0
  6
CONTINUOUS
 10
347.137467889
 20
109.787011715733
 30
0.0
 40
0.0
 41
0.0
  0
VERTEX
  5
   49C
  8
0
  6
CONTINUOUS
 10
347.112368997864
 20
109.856514349118
 30
0.0
 40
0.0
 41
0.0
  0
VERTEX
  5
   49D
  8
0
  6
CONTINUOUS
 10
347.085542154326
 20
109.925523016468
 30
0.0
 40
0.0
 41
0.0
  0
VERTEX
  5
   49E
  8
0
  6
CONTINUOUS
 10
347.056895983342
 20
109.993971735795
 30
0.0
 40
0.0
 41
0.0
  0
VERTEX
  5
   49F
  8
0
  6
CONTINUOUS
 10
347.026362153381
 20
110.061790417235
 30
0.0
 40
0.0
 41
0.0
  0
VERTEX
  5
   4A0
  8
0
  6
CONTINUOUS
 10
346.993893693563
 20
110.128905752998
 30
0.0
 40
0.0
 41
0.0
  0
VERTEX
  5
   4A1
  8
0
  6
CONTINUOUS
 10
346.959463310791
 20
110.195242107313
 30
0.0
 40
0.0
 41
0.0
  0
VERTEX
  5
   4A2
  8
0
  6
CONTINUOUS
 10
346.923061706881
 20
110.260722406373
 30
0.0
 40
0.0
 41
0.0
  0
VERTEX
  5
   4A3
  8
0
  6
CONTINUOUS
 10
346.884695895696
 20
110.325269028283
 30
0.0
 40
0.0
 41
0.0
  0
VERTEX
  5
   4A4
  8
0
  6
CONTINUOUS
 10
346.84438752028
 20
110.388804693006
 30
0.0
 40
0.0
 41
0.0
  0
VERTEX
  5
   4A5
  8
0
  6
CONTINUOUS
 10
346.802171169988
 20
110.45125335231
 30
0.0
 40
0.0
 41
0.0
  0
VERTEX
  5
   4A6
  8
0
  6
CONTINUOUS
 10
346.758092697618
 20
110.512541079714
 30
0.0
 40
0.0
 41
0.0
  0
VERTEX
  5
   4A7
  8
0
  6
CONTINUOUS
 10
346.712207536547
 20
110.572596960435
 30
0.0
 40
0.0
 41
0.0
  0
VERTEX
  5
   4A8
  8
0
  6
CONTINUOUS
 10
346.66457901786
 20
110.631353981335
 30
0.0
 40
0.0
 41
0.0
  0
VERTEX
  5
   4A9
  8
0
  6
CONTINUOUS
 10
346.615276687485
 20
110.688749920866
 30
0.0
 40
0.0
 41
0.0
  0
VERTEX
  5
   4AA
  8
0
  6
CONTINUOUS
 10
346.564374623321
 20
110.744728239017
 30
0.0
 40
0.0
 41
0.0
  0
VERTEX
  5
   4AB
  8
0
  6
CONTINUOUS
 10
346.511949752378
 20
110.799238967262
 30
0.0
 40
0.0
 41
0.0
  0
VERTEX
  5
   4AC
  8
0
  6
CONTINUOUS
 10
346.458080167903
 20
110.852239598506
 30
0.0
 40
0.0
 41
0.0
  0
VERTEX
  5
   4AD
  8
0
  6
CONTINUOUS
 10
346.402843446514
 20
110.90369597703
 30
0.0
 40
0.0
 41
0.0
  0
VERTEX
  5
   4AE
  8
0
  6
CONTINUOUS
 10
346.346314965334
 20
110.953583188437
 30
0.0
 40
0.0
 41
0.0
  0
VERTEX
  5
   4AF
  8
0
  6
CONTINUOUS
 10
346.259625617844
 20
111.025148570898
 30
0.0
 40
0.0
 41
0.0
  0
VERTEX
  5
   4B0
  8
0
  6
CONTINUOUS
 10
346.170429750816
 20
111.093176151226
 30
0.0
 40
0.0
 41
0.0
  0
VERTEX
  5
   4B1
  8
0
  6
CONTINUOUS
 10
346.078920363491
 20
111.157706372616
 30
0.0
 40
0.0
 41
0.0
  0
VERTEX
  5
   4B2
  8
0
  6
CONTINUOUS
 10
345.985269397936
 20
111.218818206985
 30
0.0
 40
0.0
 41
0.0
  0
VERTEX
  5
   4B3
  8
0
  6
CONTINUOUS
 10
345.889631062714
 20
111.276620986731
 30
0.0
 40
0.0
 41
0.0
  0
VERTEX
  5
   4B4
  8
0
  6
CONTINUOUS
 10
345.792145156566
 20
111.331246236485
 30
0.0
 40
0.0
 41
0.0
  0
VERTEX
  5
   4B5
  8
0
  6
CONTINUOUS
 10
345.692940392078
 20
111.382839504867
 30
0.0
 40
0.0
 41
0.0
  0
VERTEX
  5
   4B6
  8
0
  6
CONTINUOUS
 10
345.592137719365
 20
111.431552196241
 30
0.0
 40
0.0
 41
0.0
  0
VERTEX
  5
   4B7
  8
0
  6
CONTINUOUS
 10
345.48985364974
 20
111.477533402472
 30
0.0
 40
0.0
 41
0.0
  0
VERTEX
  5
   4B8
  8
0
  6
CONTINUOUS
 10
345.386203579389
 20
111.520921734677
 30
0.0
 40
0.0
 41
0.0
  0
VERTEX
  5
   4B9
  8
0
  6
CONTINUOUS
 10
345.289934574595
 20
111.558578935453
 30
0.0
 40
0.0
 41
0.0
  0
VERTEX
  5
   4BA
  8
0
  6
CONTINUOUS
 10
345.192707298877
 20
111.594226748922
 30
0.0
 40
0.0
 41
0.0
  0
VERTEX
  5
   4BB
  8
0
  6
CONTINUOUS
 10
345.094618704725
 20
111.627923014427
 30
0.0
 40
0.0
 41
0.0
  0
VERTEX
  5
   4BC
  8
0
  6
CONTINUOUS
 10
344.995767324165
 20
111.659710308803
 30
0.0
 40
0.0
 41
0.0
  0
VERTEX
  5
   4BD
  8
0
  6
CONTINUOUS
 10
344.896252092753
 20
111.689617844106
 30
0.0
 40
0.0
 41
0.0
  0
VERTEX
  5
   4BE
  8
0
  6
CONTINUOUS
 10
344.796171173574
 20
111.717663365346
 30
0.0
 40
0.0
 41
0.0
  0
VERTEX
  5
   4BF
  8
0
  6
CONTINUOUS
 10
344.695620781244
 20
111.743855048216
 30
0.0
 40
0.0
 41
0.0
  0
VERTEX
  5
   4C0
  8
0
  6
CONTINUOUS
 10
344.594694005903
 20
111.768193396824
 30
0.0
 40
0.0
 41
0.0
  0
VERTEX
  5
   4C1
  8
0
  6
CONTINUOUS
 10
344.493479637215
 20
111.79067314142
 30
0.0
 40
0.0
 41
0.0
  0
VERTEX
  5
   4C2
  8
0
  6
CONTINUOUS
 10
344.392060988367
 20
111.811285136131
 30
0.0
 40
0.0
 41
0.0
  0
VERTEX
  5
   4C3
  8
0
  6
CONTINUOUS
 10
344.290514720064
 20
111.830018256687
 30
0.0
 40
0.0
 41
0.0
  0
VERTEX
  5
   4C4
  8
0
  6
CONTINUOUS
 10
344.188909664531
 20
111.846861298158
 30
0.0
 40
0.0
 41
0.0
  0
VERTEX
  5
   4C5
  8
0
  6
CONTINUOUS
 10
344.087305649508
 20
111.861804872676
 30
0.0
 40
0.0
 41
0.0
  0
VERTEX
  5
   4C6
  8
0
  6
CONTINUOUS
 10
343.985752322249
 20
111.874843307174
 30
0.0
 40
0.0
 41
0.0
  0
VERTEX
  5
   4C7
  8
0
  6
CONTINUOUS
 10
343.884287973521
 20
111.885976541109
 30
0.0
 40
0.0
 41
0.0
  0
VERTEX
  5
   4C8
  8
0
  6
CONTINUOUS
 10
343.782938361599
 20
111.895212024199
 30
0.0
 40
0.0
 41
0.0
  0
VERTEX
  5
   4C9
  8
0
  6
CONTINUOUS
 10
343.681715536268
 20
111.902566614149
 30
0.0
 40
0.0
 41
0.0
  0
VERTEX
  5
   4CA
  8
0
  6
CONTINUOUS
 10
343.580616662816
 20
111.908068474383
 30
0.0
 40
0.0
 41
0.0
  0
VERTEX
  5
   4CB
  8
0
  6
CONTINUOUS
 10
343.479622846039
 20
111.911758971776
 30
0.0
 40
0.0
 41
0.0
  0
VERTEX
  5
   4CC
  8
0
  6
CONTINUOUS
 10
343.378697954233
 20
111.913694574382
 30
0.0
 40
0.0
 41
0.0
  0
VERTEX
  5
   4CD
  8
0
  6
CONTINUOUS
 10
343.255530305631
 20
111.913787118044
 30
0.0
 40
0.0
 41
0.0
  0
VERTEX
  5
   4CE
  8
0
  6
CONTINUOUS
 10
343.132249769384
 20
111.911541643054
 30
0.0
 40
0.0
 41
0.0
  0
VERTEX
  5
   4CF
  8
0
  6
CONTINUOUS
 10
343.008699986385
 20
111.907144573017
 30
0.0
 40
0.0
 41
0.0
  0
VERTEX
  5
   4D0
  8
0
  6
CONTINUOUS
 10
342.884721586438
 20
111.900782079421
 30
0.0
 40
0.0
 41
0.0
  0
VERTEX
  5
   4D1
  8
0
  6
CONTINUOUS
 10
342.760172416913
 20
111.892618989025
 30
0.0
 40
0.0
 41
0.0
  0
VERTEX
  5
   4D2
  8
0
  6
CONTINUOUS
 10
342.634947771405
 20
111.882777691241
 30
0.0
 40
0.0
 41
0.0
  0
VERTEX
  5
   4D3
  8
0
  6
CONTINUOUS
 10
342.509000618391
 20
111.871317045525
 30
0.0
 40
0.0
 41
0.0
  0
VERTEX
  5
   4D4
  8
0
  6
CONTINUOUS
 10
342.382361829883
 20
111.858211288764
 30
0.0
 40
0.0
 41
0.0
  0
VERTEX
  5
   4D5
  8
0
  6
CONTINUOUS
 10
342.255160410087
 20
111.843328942659
 30
0.0
 40
0.0
 41
0.0
  0
VERTEX
  5
   4D6
  8
0
  6
CONTINUOUS
 10
342.127643724063
 20
111.826411721114
 30
0.0
 40
0.0
 41
0.0
  0
VERTEX
  5
   4D7
  8
0
  6
CONTINUOUS
 10
342.008417008731
 20
111.808388211826
 30
0.0
 40
0.0
 41
0.0
  0
VERTEX
  5
   4D8
  8
0
  6
CONTINUOUS
 10
341.889679738705
 20
111.787777796373
 30
0.0
 40
0.0
 41
0.0
  0
VERTEX
  5
   4D9
  8
0
  6
CONTINUOUS
 10
341.771948518946
 20
111.764036398361
 30
0.0
 40
0.0
 41
0.0
  0
VERTEX
  5
   4DA
  8
0
  6
CONTINUOUS
 10
341.655793488674
 20
111.736566233478
 30
0.0
 40
0.0
 41
0.0
  0
VERTEX
  5
   4DB
  8
0
  6
CONTINUOUS
 10
341.541804291671
 20
111.70475364737
 30
0.0
 40
0.0
 41
0.0
  0
VERTEX
  5
   4DC
  8
0
  6
CONTINUOUS
 10
341.430556046589
 20
111.668006953519
 30
0.0
 40
0.0
 41
0.0
  0
VERTEX
  5
   4DD
  8
0
  6
CONTINUOUS
 10
341.376127159385
 20
111.647613732649
 30
0.0
 40
0.0
 41
0.0
  0
VERTEX
  5
   4DE
  8
0
  6
CONTINUOUS
 10
341.322575317251
 20
111.625794271124
 30
0.0
 40
0.0
 41
0.0
  0
VERTEX
  5
   4DF
  8
0
  6
CONTINUOUS
 10
341.269953170977
 20
111.602497636262
 30
0.0
 40
0.0
 41
0.0
  0
VERTEX
  5
   4E0
  8
0
  6
CONTINUOUS
 10
341.218306082965
 20
111.577681362977
 30
0.0
 40
0.0
 41
0.0
  0
VERTEX
  5
   4E1
  8
0
  6
CONTINUOUS
 10
341.167671063799
 20
111.551312636204
 30
0.0
 40
0.0
 41
0.0
  0
VERTEX
  5
   4E2
  8
0
  6
CONTINUOUS
 10
341.118075708821
 20
111.523369473341
 30
0.0
 40
0.0
 41
0.0
  0
VERTEX
  5
   4E3
  8
0
  6
CONTINUOUS
 10
341.069537134701
 20
111.493841906679
 30
0.0
 40
0.0
 41
0.0
  0
VERTEX
  5
   4E4
  8
0
  6
CONTINUOUS
 10
341.022060916006
 20
111.462733165832
 30
0.0
 40
0.0
 41
0.0
  0
VERTEX
  5
   4E5
  8
0
  6
CONTINUOUS
 10
340.972715369887
 20
111.427925114121
 30
0.0
 40
0.0
 41
0.0
  0
VERTEX
  5
   4E6
  8
0
  6
CONTINUOUS
 10
340.92453910896
 20
111.391387704426
 30
0.0
 40
0.0
 41
0.0
  0
VERTEX
  5
   4E7
  8
0
  6
CONTINUOUS
 10
340.877491379615
 20
111.353179052362
 30
0.0
 40
0.0
 41
0.0
  0
VERTEX
  5
   4E8
  8
0
  6
CONTINUOUS
 10
340.83151691995
 20
111.313374026985
 30
0.0
 40
0.0
 41
0.0
  0
VERTEX
  5
   4E9
  8
0
  6
CONTINUOUS
 10
340.786547457264
 20
111.272062663724
 30
0.0
 40
0.0
 41
0.0
  0
VERTEX
  5
   4EA
  8
0
  6
CONTINUOUS
 10
340.742503205552
 20
111.229348577303
 30
0.0
 40
0.0
 41
0.0
  0
VERTEX
  5
   4EB
  8
0
  6
CONTINUOUS
 10
340.656822609461
 20
111.140185067907
 30
0.0
 40
0.0
 41
0.0
  0
VERTEX
  5
   4EC
  8
0
  6
CONTINUOUS
 10
340.573663482266
 20
111.046923693662
 30
0.0
 40
0.0
 41
0.0
  0
VERTEX
  5
   4ED
  8
0
  6
CONTINUOUS
 10
340.492125801235
 20
110.950720345383
 30
0.0
 40
0.0
 41
0.0
  0
VERTEX
  5
   4EE
  8
0
  6
CONTINUOUS
 10
340.330160338807
 20
110.754385051409
 30
0.0
 40
0.0
 41
0.0
  0
VERTEX
  5
   4EF
  8
0
  6
CONTINUOUS
 10
340.24792192336
 20
110.656686289595
 30
0.0
 40
0.0
 41
0.0
  0
VERTEX
  5
   4F0
  8
0
  6
CONTINUOUS
 10
340.16377952554
 20
110.560810348733
 30
0.0
 40
0.0
 41
0.0
  0
VERTEX
  5
   4F1
  8
0
  6
CONTINUOUS
 10
340.078443097218
 20
110.469114819573
 30
0.0
 40
0.0
 41
0.0
  0
VERTEX
  5
   4F2
  8
0
  6
CONTINUOUS
 10
339.990231679181
 20
110.380897639343
 30
0.0
 40
0.0
 41
0.0
  0
VERTEX
  5
   4F3
  8
0
  6
CONTINUOUS
 10
339.898887162141
 20
110.296765571932
 30
0.0
 40
0.0
 41
0.0
  0
VERTEX
  5
   4F4
  8
0
  6
CONTINUOUS
 10
339.804294630048
 20
110.217183718331
 30
0.0
 40
0.0
 41
0.0
  0
VERTEX
  5
   4F5
  8
0
  6
CONTINUOUS
 10
339.706460279474
 20
110.142493600618
 30
0.0
 40
0.0
 41
0.0
  0
VERTEX
  5
   4F6
  8
0
  6
CONTINUOUS
 10
339.656357041517
 20
110.107060327615
 30
0.0
 40
0.0
 41
0.0
  0
VERTEX
  5
   4F7
  8
0
  6
CONTINUOUS
 10
339.605489338997
 20
110.072931245937
 30
0.0
 40
0.0
 41
0.0
  0
VERTEX
  5
   4F8
  8
0
  6
CONTINUOUS
 10
339.553882176636
 20
110.040122342296
 30
0.0
 40
0.0
 41
0.0
  0
VERTEX
  5
   4F9
  8
0
  6
CONTINUOUS
 10
339.501563988579
 20
110.008645270469
 30
0.0
 40
0.0
 41
0.0
  0
VERTEX
  5
   4FA
  8
0
  6
CONTINUOUS
 10
339.394921278955
 20
109.949714963421
 30
0.0
 40
0.0
 41
0.0
  0
VERTEX
  5
   4FB
  8
0
  6
CONTINUOUS
 10
339.285831051011
 20
109.896168370997
 30
0.0
 40
0.0
 41
0.0
  0
VERTEX
  5
   4FC
  8
0
  6
CONTINUOUS
 10
339.174573855173
 20
109.84800038038
 30
0.0
 40
0.0
 41
0.0
  0
VERTEX
  5
   4FD
  8
0
  6
CONTINUOUS
 10
339.102829325695
 20
109.820161333765
 30
0.0
 40
0.0
 41
0.0
  0
VERTEX
  5
   4FE
  8
0
  6
CONTINUOUS
 10
339.030381845445
 20
109.794482865999
 30
0.0
 40
0.0
 41
0.0
  0
VERTEX
  5
   4FF
  8
0
  6
CONTINUOUS
 10
338.957289810505
 20
109.770959724432
 30
0.0
 40
0.0
 41
0.0
  0
VERTEX
  5
   500
  8
0
  6
CONTINUOUS
 10
338.883606600027
 20
109.749587107679
 30
0.0
 40
0.0
 41
0.0
  0
VERTEX
  5
   501
  8
0
  6
CONTINUOUS
 10
338.809380801637
 20
109.730360645349
 30
0.0
 40
0.0
 41
0.0
  0
VERTEX
  5
   502
  8
0
  6
CONTINUOUS
 10
338.734656436851
 20
109.713276377764
 30
0.0
 40
0.0
 41
0.0
  0
VERTEX
  5
   503
  8
0
  6
CONTINUOUS
 10
338.659473186474
 20
109.698330735689
 30
0.0
 40
0.0
 41
0.0
  0
VERTEX
  5
   504
  8
0
  6
CONTINUOUS
 10
338.583866616016
 20
109.685520520054
 30
0.0
 40
0.0
 41
0.0
  0
VERTEX
  5
   505
  8
0
  6
CONTINUOUS
 10
338.50786840109
 20
109.67484288168
 30
0.0
 40
0.0
 41
0.0
  0
VERTEX
  5
   506
  8
0
  6
CONTINUOUS
 10
338.431506552828
 20
109.666295301001
 30
0.0
 40
0.0
 41
0.0
  0
VERTEX
  5
   507
  8
0
  6
CONTINUOUS
 10
338.354805643286
 20
109.659875567796
 30
0.0
 40
0.0
 41
0.0
  0
VERTEX
  5
   508
  8
0
  6
CONTINUOUS
 10
338.277787030847
 20
109.655581760904
 30
0.0
 40
0.0
 41
0.0
  0
VERTEX
  5
   509
  8
0
  6
CONTINUOUS
 10
338.200469085639
 20
109.653412227959
 30
0.0
 40
0.0
 41
0.0
  0
VERTEX
  5
   50A
  8
0
  6
CONTINUOUS
 10
338.12286741493
 20
109.653365565106
 30
0.0
 40
0.0
 41
0.0
  0
VERTEX
  5
   50B
  8
0
  6
CONTINUOUS
 10
338.044995088546
 20
109.655440596732
 30
0.0
 40
0.0
 41
0.0
  0
VERTEX
  5
   50C
  8
0
  6
CONTINUOUS
 10
337.966862864273
 20
109.659636355189
 30
0.0
 40
0.0
 41
0.0
  0
VERTEX
  5
   50D
  8
0
  6
CONTINUOUS
 10
337.888479413268
 20
109.665952060518
 30
0.0
 40
0.0
 41
0.0
  0
VERTEX
  5
   50E
  8
0
  6
CONTINUOUS
 10
337.809851545462
 20
109.674387100175
 30
0.0
 40
0.0
 41
0.0
  0
VERTEX
  5
   50F
  8
0
  6
CONTINUOUS
 10
337.730984434974
 20
109.684941008754
 30
0.0
 40
0.0
 41
0.0
  0
VERTEX
  5
   510
  8
0
  6
CONTINUOUS
 10
337.651881845513
 20
109.697613447714
 30
0.0
 40
0.0
 41
0.0
  0
SEQEND
  5
   511
  8
0
  6
CONTINUOUS
 62
     7
  0
LINE
  5
   512
  8
0
  6
CONTINUOUS
 62
     7
 10
351.902267456055
 20
96.6289166259766
 30
0.0
 11
362.027267456055
 21
96.6289166259766
 31
0.0
  0
LINE
  5
   513
  8
0
  6
CONTINUOUS
 62
     7
 10
351.902267456055
 20
136.603916625977
 30
0.0
 11
362.027267456055
 21
136.603916625977
 31
0.0
  0
LINE
  5
   514
  8
0
  6
CONTINUOUS
 62
     7
 10
363.902267456055
 20
98.5039166259766
 30
0.0
 11
363.902267456055
 21
103.378916625977
 31
0.0
  0
LINE
  5
   515
  8
0
  6
CONTINUOUS
 62
     7
 10
376.652267456055
 20
107.128916625977
 30
0.0
 11
376.652267456055
 21
111.987543757529
 31
0.0
  0
LINE
  5
   516
  8
0
  6
CONTINUOUS
 62
     7
 10
365.027267456055
 20
127.753916625977
 30
0.0
 11
374.777267456055
 21
127.753916625977
 31
0.0
  0
LINE
  5
   517
  8
0
  6
CONTINUOUS
 62
     7
 10
365.027267456055
 20
105.253916625977
 30
0.0
 11
374.777267456055
 21
105.253916625977
 31
0.0
  0
LINE
  5
   518
  8
0
  6
CONTINUOUS
 62
     7
 10
363.902267456055
 20
129.628916625977
 30
0.0
 11
363.902267456055
 21
134.728916625977
 31
0.0
  0
LINE
  5
   519
  8
0
  6
CONTINUOUS
 62
     7
 10
376.652267456055
 20
111.987543757529
 30
0.0
 11
376.652267456055
 21
125.878916625977
 31
0.0
  0
ARC
  5
   51A
  8
0
  6
CONTINUOUS
 62
     7
 10
362.027267456055
 20
134.728916625977
 30
0.0
 40
1.875
 50
0.0
 51
90.0
  0
ARC
  5
   51B
  8
0
  6
CONTINUOUS
 62
     7
 10
362.027267456055
 20
98.5039166259766
 30
0.0
 40
1.875
 50
270.0
 51
360.0
  0
ARC
  5
   51C
  8
0
  6
CONTINUOUS
 62
     7
 10
365.777267456055
 20
103.378916625977
 30
0.0
 40
1.875
 50
90.0
 51
180.0
  0
ARC
  5
   51D
  8
0
  6
CONTINUOUS
 62
     7
 10
365.777267456055
 20
129.628916625977
 30
0.0
 40
1.875
 50
180.0
 51
270.0
  0
ARC
  5
   51E
  8
0
  6
CONTINUOUS
 62
     7
 10
374.777267456055
 20
125.878916625977
 30
0.0
 40
1.875
 50
0.0
 51
90.0
  0
ARC
  5
   51F
  8
0
  6
CONTINUOUS
 62
     7
 10
374.777267456055
 20
107.128916625977
 30
0.0
 40
1.875
 50
270.0
 51
360.0
  0
LINE
  5
   520
  8
0
  6
CONTINUOUS
 62
     7
 10
267.752267456055
 20
121.361496431406
 30
0.0
 11
269.252267456055
 21
121.361496431406
 31
0.0
  0
LINE
  5
   521
  8
0
  6
CONTINUOUS
 62
     7
 10
267.752267456055
 20
90.1522039672277
 30
0.0
 11
269.252267456055
 21
90.1522039672277
 31
0.0
  0
LINE
  5
   522
  8
0
  6
CONTINUOUS
 62
     7
 10
258.527267456055
 20
118.772005245387
 30
0.0
 11
260.027267456055
 21
118.772005245387
 31
0.0
  0
LINE
  5
   523
  8
0
  6
DASHDOT
 62
     7
 10
195.527267456055
 20
75.3739166259766
 30
0.0
 11
195.527267456055
 21
165.373916625977
 31
0.0
  0
LINE
  5
   524
  8
0
  6
DASHDOT
 62
     7
 10
248.027267456055
 20
128.248916625977
 30
0.0
 11
248.027267456055
 21
154.873916625977
 31
0.0
  0
LINE
  5
   525
  8
0
  6
DASHDOT
 62
     7
 10
248.027267456055
 20
86.2489166259764
 30
0.0
 11
248.027267456055
 21
94.4989166259766
 31
0.0
  0
LINE
  5
   526
  8
0
  6
DOT
 62
     7
 10
281.627267456055
 20
112.753916625977
 30
0.0
 11
316.127267456055
 21
112.753916625977
 31
0.0
  0
LINE
  5
   527
  8
0
  6
DOT
 62
     7
 10
281.627267456055
 20
120.253916625977
 30
0.0
 11
316.127267456055
 21
120.253916625977
 31
0.0
  0
LINE
  5
   528
  8
0
  6
CONTINUOUS
 62
     7
 10
281.627267456055
 20
106.753916625977
 30
0.0
 11
281.627267456055
 21
125.878916625977
 31
0.0
  0
LINE
  5
   529
  8
0
  6
CONTINUOUS
 62
     7
 10
316.127267456055
 20
106.753916625977
 30
0.0
 11
316.127267456055
 21
125.878916625977
 31
0.0
  0
LINE
  5
   52A
  8
0
  6
CONTINUOUS
 62
     7
 10
281.627267456055
 20
106.753916625977
 30
0.0
 11
316.127267456055
 21
106.753916625977
 31
0.0
  0
LINE
  5
   52B
  8
0
  6
CONTINUOUS
 62
     7
 10
281.627267456055
 20
125.878916625977
 30
0.0
 11
297.377267456055
 21
125.878916625977
 31
0.0
  0
LINE
  5
   52C
  8
0
  6
CONTINUOUS
 62
     7
 10
298.877267456055
 20
120.253916625977
 30
0.0
 11
298.877267456055
 21
125.878916625977
 31
0.0
  0
LINE
  5
   52D
  8
0
  6
CONTINUOUS
 62
     7
 10
297.377267456055
 20
120.253916625977
 30
0.0
 11
297.377267456055
 21
125.878916625977
 31
0.0
  0
LINE
  5
   52E
  8
0
  6
CONTINUOUS
 62
     7
 10
297.377267456055
 20
120.253916625977
 30
0.0
 11
298.877267456055
 21
120.253916625977
 31
0.0
  0
LINE
  5
   52F
  8
0
  6
CONTINUOUS
 62
     7
 10
298.877267456055
 20
125.878916625977
 30
0.0
 11
316.127267456055
 21
125.878916625977
 31
0.0
  0
LINE
  5
   530
  8
0
  6
DASHDOT
 62
     7
 10
312.377267456055
 20
114.628916625977
 30
0.0
 11
312.377267456055
 21
129.628916625977
 31
0.0
  0
LINE
  5
   531
  8
0
  6
DASHDOT
 62
     7
 10
304.877267456055
 20
122.128916625977
 30
0.0
 11
319.877267456055
 21
122.128916625977
 31
0.0
  0
LINE
  5
   532
  8
0
  6
DASHDOT
 62
     7
 10
304.127267456055
 20
114.628916625977
 30
0.0
 11
304.127267456055
 21
129.628916625977
 31
0.0
  0
LINE
  5
   533
  8
0
  6
DASHDOT
 62
     7
 10
296.627267456055
 20
122.128916625977
 30
0.0
 11
311.627267456055
 21
122.128916625977
 31
0.0
  0
LINE
  5
   534
  8
0
  6
DASHDOT
 62
     7
 10
289.877267456055
 20
114.628916625977
 30
0.0
 11
289.877267456055
 21
129.628916625977
 31
0.0
  0
LINE
  5
   535
  8
0
  6
DASHDOT
 62
     7
 10
282.377267456055
 20
122.128916625977
 30
0.0
 11
297.377267456055
 21
122.128916625977
 31
0.0
  0
ARC
  5
   536
  8
0
  6
DOT
 62
     7
 10
269.529403209342
 20
116.503916625977
 30
0.0
 40
27.3561098611126
 50
352.12103482032
 51
367.87896517968
  0
LINE
  5
   537
  8
0
  6
DOT
 62
     7
 10
296.627267456055
 20
120.253916625977
 30
0.0
 11
298.127267456055
 21
118.753916625977
 31
0.0
  0
LINE
  5
   538
  8
0
  6
DOT
 62
     7
 10
298.127267456055
 20
114.253916625977
 30
0.0
 11
298.127267456055
 21
118.753916625977
 31
0.0
  0
LINE
  5
   539
  8
0
  6
DOT
 62
     7
 10
296.627267456055
 20
112.753916625977
 30
0.0
 11
298.127267456055
 21
114.253916625977
 31
0.0
  0
LINE
  5
   53A
  8
0
  6
DASHDOT
 62
     7
 10
295.127267456055
 20
107.975938715125
 30
0.0
 11
295.127267456055
 21
124.762148540939
 31
0.0
  0
LINE
  5
   53B
  8
0
  6
DASHDOT
 62
     7
 10
287.627267456055
 20
116.503916625977
 30
0.0
 11
302.627267456055
 21
116.503916625977
 31
0.0
  0
LINE
  5
   53C
  8
0
  6
DOT
 62
     7
 10
296.439767456055
 20
109.003916625977
 30
0.0
 11
296.439767456055
 21
112.753916625977
 31
0.0
  0
LINE
  5
   53D
  8
0
  6
DOT
 62
     7
 10
293.814767456055
 20
109.753916625977
 30
0.0
 11
293.814767456055
 21
112.753916625977
 31
0.0
  0
LINE
  5
   53E
  8
0
  6
DOT
 62
     7
 10
293.814767456055
 20
123.253916625977
 30
0.0
 11
296.439767456055
 21
123.253916625977
 31
0.0
  0
LINE
  5
   53F
  8
0
  6
DOT
 62
     7
 10
293.814767456055
 20
109.753916625977
 30
0.0
 11
296.439767456055
 21
109.753916625977
 31
0.0
  0
ARC
  5
   540
  8
0
  6
DOT
 62
     7
 10
295.127267456055
 20
122.480479125977
 30
0.0
 40
1.52343750000005
 50
30.510237406119
 51
149.489762593883
  0
ARC
  5
   541
  8
0
  6
DOT
 62
     7
 10
295.127267456055
 20
110.527354125977
 30
0.0
 40
1.52343749999998
 50
210.510237406113
 51
329.489762593884
  0
LINE
  5
   542
  8
0
  6
DOT
 62
     7
 10
281.627267456055
 20
109.003916625977
 30
0.0
 11
296.439767456055
 21
109.003916625977
 31
0.0
  0
LINE
  5
   543
  8
0
  6
DOT
 62
     7
 10
281.627267456055
 20
124.003916625977
 30
0.0
 11
296.439767456055
 21
124.003916625977
 31
0.0
  0
ARC
  5
   544
  8
0
  6
DOT
 62
     7
 10
326.725131702767
 20
116.503916625977
 30
0.0
 40
27.3561098611126
 50
172.12103482032
 51
187.87896517968
  0
LINE
  5
   545
  8
0
  6
DOT
 62
     7
 10
298.127267456055
 20
118.753916625977
 30
0.0
 11
299.627267456055
 21
120.253916625977
 31
0.0
  0
LINE
  5
   546
  8
0
  6
DOT
 62
     7
 10
298.127267456055
 20
114.253916625977
 30
0.0
 11
298.127267456055
 21
118.753916625977
 31
0.0
  0
LINE
  5
   547
  8
0
  6
DOT
 62
     7
 10
298.127267456055
 20
114.253916625977
 30
0.0
 11
299.627267456055
 21
112.753916625977
 31
0.0
  0
LINE
  5
   548
  8
0
  6
DASHDOT
 62
     7
 10
320.439767456055
 20
116.503916625977
 30
0.0
 11
339.564767456055
 21
116.503916625977
 31
0.0
  0
LINE
  5
   549
  8
0
  6
CONTINUOUS
 62
     7
 10
325.648934950162
 20
79.8207222675896
 30
0.0
 11
325.648934950162
 21
138.003252424578
 31
0.0
  0
LINE
  5
   54A
  8
0
  6
CONTINUOUS
 62
     7
 10
324.043297488562
 20
83.2521209776199
 30
0.0
 11
324.043297488562
 21
143.338281633404
 31
0.0
  0
LINE
  5
   54B
  8
0
  6
CONTINUOUS
 62
     7
 10
316.127267456055
 20
120.253916625977
 30
0.0
 11
324.043297488562
 21
120.253916625977
 31
0.0
  0
LINE
  5
   54C
  8
0
  6
CONTINUOUS
 62
     7
 10
316.127267456055
 20
112.753916625977
 30
0.0
 11
324.043297488562
 21
112.753916625977
 31
0.0
  0
LINE
  5
   54D
  8
0
  6
DOT
 62
     7
 10
293.814767456055
 20
120.253916625977
 30
0.0
 11
293.814767456055
 21
123.253916625977
 31
0.0
  0
LINE
  5
   54E
  8
0
  6
DOT
 62
     7
 10
296.439767456055
 20
120.253916625977
 30
0.0
 11
296.439767456055
 21
124.003916625977
 31
0.0
  0
CIRCLE
  5
   54F
  8
0
  6
CONTINUOUS
 62
     7
 10
304.127267456055
 20
122.128916625977
 30
0.0
 40
2.625
  0
LINE
  5
   550
  8
0
  6
CONTINUOUS
 62
     7
 10
302.024985106022
 20
120.556964361834
 30
0.0
 11
305.699219720197
 21
124.231198976009
 31
0.0
  0
LINE
  5
   551
  8
0
  6
CONTINUOUS
 62
     7
 10
302.555315191912
 20
120.026634275944
 30
0.0
 11
306.229549806087
 21
123.700868890119
 31
0.0
  0
CIRCLE
  5
   552
  8
0
  6
CONTINUOUS
 62
     7
 10
289.877267456055
 20
122.128916625977
 30
0.0
 40
2.625
  0
LINE
  5
   553
  8
0
  6
CONTINUOUS
 62
     7
 10
287.774985106022
 20
120.556964361834
 30
0.0
 11
291.449219720197
 21
124.231198976009
 31
0.0
  0
LINE
  5
   554
  8
0
  6
CONTINUOUS
 62
     7
 10
288.305315191912
 20
120.026634275944
 30
0.0
 11
291.979549806087
 21
123.700868890119
 31
0.0
  0
CIRCLE
  5
   555
  8
0
  6
CONTINUOUS
 62
     7
 10
312.377267456055
 20
122.128916625977
 30
0.0
 40
2.625
  0
LINE
  5
   556
  8
0
  6
CONTINUOUS
 62
     7
 10
310.274985106022
 20
120.556964361834
 30
0.0
 11
313.949219720197
 21
124.231198976009
 31
0.0
  0
LINE
  5
   557
  8
0
  6
CONTINUOUS
 62
     7
 10
310.805315191912
 20
120.026634275944
 30
0.0
 11
314.479549806087
 21
123.700868890119
 31
0.0
  0
CIRCLE
  5
   558
  8
0
  6
CONTINUOUS
 62
     7
 10
350.777267456055
 20
116.503916625977
 30
0.0
 40
1.5
  0
CIRCLE
  5
   559
  8
0
  6
CONTINUOUS
 62
     7
 10
350.777267456055
 20
116.503916625977
 30
0.0
 40
1.125
  0
LINE
  5
   55A
  8
0
  6
CONTINUOUS
 62
     7
 10
339.902267456055
 20
127.753916625977
 30
0.0
 11
339.902267456055
 21
133.753916625977
 31
0.0
  0
LINE
  5
   55B
  8
0
  6
CONTINUOUS
 62
     7
 10
339.902267456055
 20
99.2539166259766
 30
0.0
 11
339.902267456055
 21
105.253916625977
 31
0.0
  0
TEXT
  5
   55C
  8
0
  6
CONTINUOUS
 62
     2
 10
330.811629561978
 20
-52.050678325944
 30
0.0
 40
2.0000000372529
  1
  ROTARY HANDLE OPERATING MECHANISM APPLICATION WITH
 41
0.625
 72
     1
 11
363.186630165009
 21
-51.0506783073175
 31
0.0
 73
     2
  0
TEXT
  5
   55D
  8
0
  6
CONTINUOUS
 62
     2
 10
330.811629909707
 20
-55.0506783259439
 30
0.0
 40
2.20000002533197
  1
ADJU.DEPTH -4 POLE LOW VOLTAGE M.C.C.B SERIES ISOMAX
 41
0.568181832251716
 72
     1
 11
363.186631075367
 21
-53.9506783132779
 31
0.0
 73
     2
  0
TEXT
  5
   55E
  8
0
  6
CONTINUOUS
 62
     2
 10
325.08392368515
 20
-59.4470098386657
 30
0.0
 40
2.19999986886978
  1
APPLICAZIONE COMANDO A MANIGLIA ROTANTE A DISTANZA REG.
 41
0.568181864578618
 11
325.08392368515
 21
-57.2470099697959
 31
0.0
 73
     3
  0
TEXT
  5
   55F
  8
0
  6
CONTINUOUS
 62
     2
 10
325.083924689683
 20
-62.6470110213151
 30
0.0
 40
2.20000002533197
  1
     PER INTERRUTTORE SERIE ISOMAX TRIP.-TETRAP.
 41
0.568181832251716
 11
325.083924689683
 21
-60.4470109959832
 31
0.0
 73
     3
  0
INSERT
  5
   560
  8
0
  6
CONTINUOUS
 62
     7
  2
*UDIM629
 10
0.0
 20
0.0
 30
0.0
  0
INSERT
  5
   561
  8
0
  6
CONTINUOUS
 62
     7
  2
*UDIM630
 10
0.0
 20
0.0
 30
0.0
  0
INSERT
  5
   562
  8
0
  6
CONTINUOUS
 62
     3
  2
*UDIM631
 10
0.0
 20
0.0
 30
0.0
  0
TEXT
  5
   563
  8
0
  6
CONTINUOUS
 62
     2
 10
278.493161190316
 20
53.0841684885111
 30
0.0
 40
2.0000000372529
  1
A=MAX 621.5  B=18  NORMALE FORNITURA
 41
0.75
 11
278.493161190316
 21
55.084168525764
 31
0.0
 73
     3
  0
TEXT
  5
   564
  8
0
  6
CONTINUOUS
 62
     2
 10
278.493161190316
 20
49.3841684408273
 30
0.0
 40
2.0000000372529
  1
A=MAX 619.5  B=20  CON GRADO DI PROTEZIONE IP 54
 41
0.75
 11
278.493161190316
 21
51.3841684780802
 31
0.0
 73
     3
  0
TEXT
  5
   565
  8
0
  6
CONTINUOUS
 62
     2
 10
278.493161190316
 20
41.9841683454599
 30
0.0
 40
2.0000000372529
  1
A=MAX 621.5  B=18  NORMAL SUPPLY
 41
0.75
 11
278.493161190316
 21
43.9841683827128
 31
0.0
 73
     3
  0
TEXT
  5
   566
  8
0
  6
CONTINUOUS
 62
     2
 10
278.493161190316
 20
38.2841682977762
 30
0.0
 40
2.0000000372529
  1
A=MAX 619.5  B=20 WITH DEGREE OF PROTECTION IP 54
 41
0.75
 11
278.493161190316
 21
40.2841683350291
 31
0.0
 73
     3
  0
TEXT
  5
   567
  8
0
  6
CONTINUOUS
 62
     2
 10
278.493161190316
 20
45.6841683931436
 30
0.0
 40
2.0000000372529
  1
A=MIN 340
 41
0.75
 11
278.493161190316
 21
47.6841684303965
 31
0.0
 73
     3
  0
TEXT
  5
   568
  8
0
  6
CONTINUOUS
 62
     2
 10
237.945090417079
 20
-50.665078359012
 30
0.0
 40
2.0000000372529
  1
97-04-22
 41
0.75
 72
     1
 11
243.695090524181
 21
-49.6650783403856
 31
0.0
 73
     2
  0
TEXT
  5
   569
  8
0
  6
CONTINUOUS
 62
     2
 10
237.438769435857
 20
-53.9547453011154
 30
0.0
 40
2.0000000372529
  1
O.Carrara
 41
0.75
 72
     1
 11
243.938769556929
 21
-52.9547452824889
 31
0.0
 73
     2
  0
TEXT
  5
   56A
  8
0
  6
CONTINUOUS
 62
     2
 10
357.708618048579
 20
-70.3819008395076
 30
0.0
 40
3.50000010430813
  1
S1-S2
 41
0.878571417076247
 72
     1
 11
364.958618164063
 21
-68.6319007873535
 31
0.0
 73
     2
  0
TEXT
  5
   56B
  8
0
  6
CONTINUOUS
 62
     2
 10
336.297020060942
 20
-79.316268928349
 30
0.0
 40
5.00000001490116
  1
601855/162
 41
0.983334038456279
 72
     1
 11
360.25537109375
 21
-76.8162689208984
 31
0.0
 73
     2
  0
TEXT
  5
   56C
  8
0
  6
CONTINUOUS
 62
     2
 10
393.828264605254
 20
110.241263322532
 30
0.0
 40
3.00000013411045
  1
X
 41
0.983333308994771
 72
     1
 11
394.92826461792
 21
111.741263389587
 31
0.0
 73
     2
  0
INSERT
  5
   56D
  8
0
  6
CONTINUOUS
 62
     3
  2
*UDIM632
 10
0.0
 20
0.0
 30
0.0
  0
INSERT
  5
   56E
  8
0
  6
CONTINUOUS
 62
     3
  2
*UDIM633
 10
0.0
 20
0.0
 30
0.0
  0
INSERT
  5
   56F
  8
0
  6
CONTINUOUS
 62
     7
  2
*UDIM634
 10
0.0
 20
0.0
 30
0.0
  0
INSERT
  5
   570
  8
0
  6
CONTINUOUS
 62
     7
  2
*UDIM635
 10
0.0
 20
0.0
 30
0.0
  0
INSERT
  5
   571
  8
0
  6
CONTINUOUS
 62
     7
  2
*UDIM636
 10
0.0
 20
0.0
 30
0.0
  0
TEXT
  5
   572
  8
0
  6
CONTINUOUS
 62
     2
 10
249.733616854682
 20
-67.53498358089
 30
0.0
 40
2.50000000745058
  1
M4366 97-04-22
 41
0.649999919474125
 72
     1
 11
260.946115577988
 21
-66.2849835771647
 31
0.0
 73
     2
  0
LINE
  5
   573
  8
0
  6
CONTINUOUS
 62
     7
 10
329.627267456055
 20
87.3739166259764
 30
0.0
 11
329.627267456055
 21
112.753916625977
 31
0.0
  0
LINE
  5
   574
  8
0
  6
CONTINUOUS
 62
     7
 10
330.752267456055
 20
87.3739166259764
 30
0.0
 11
330.752267456055
 21
112.753916625977
 31
0.0
  0
LINE
  5
   575
  8
0
  6
CONTINUOUS
 62
     7
 10
256.877267456055
 20
135.409048864858
 30
0.0
 11
256.877267456055
 21
136.534048864858
 31
0.0
  0
LINE
  5
   576
  8
0
  6
CONTINUOUS
 62
     7
 10
256.877267456055
 20
83.9989166259764
 30
0.0
 11
256.877267456055
 21
85.1239166259764
 31
0.0
  0
LINE
  5
   577
  8
0
  6
CONTINUOUS
 62
     7
 10
256.877267456055
 20
83.9989166259764
 30
0.0
 11
324.043297488562
 21
83.9989166259764
 31
0.0
  0
LINE
  5
   578
  8
0
  6
CONTINUOUS
 62
     7
 10
256.877267456055
 20
136.534048864858
 30
0.0
 11
324.043297488562
 21
136.534048864858
 31
0.0
  0
ARC
  5
   579
  8
0
  6
CONTINUOUS
 62
     7
 10
327.377267456055
 20
133.159048864858
 30
0.0
 40
2.25
 50
0.0
 51
90.0
  0
ARC
  5
   57A
  8
0
  6
CONTINUOUS
 62
     7
 10
327.377267456055
 20
87.3739166259764
 30
0.0
 40
2.25
 50
270.0
 51
360.0
  0
ARC
  5
   57B
  8
0
  6
CONTINUOUS
 62
     7
 10
327.377267456055
 20
133.159048864858
 30
0.0
 40
3.375
 50
0.0
 51
90.0
  0
ARC
  5
   57C
  8
0
  6
CONTINUOUS
 62
     7
 10
327.377267456055
 20
87.3739166259764
 30
0.0
 40
3.375
 50
270.0
 51
360.0
  0
LINE
  5
   57D
  8
0
  6
CONTINUOUS
 62
     7
 10
329.627267456055
 20
120.253916625977
 30
0.0
 11
329.627267456055
 21
133.159048864858
 31
0.0
  0
LINE
  5
   57E
  8
0
  6
CONTINUOUS
 62
     7
 10
330.752267456055
 20
120.253916625977
 30
0.0
 11
330.752267456055
 21
133.159048864858
 31
0.0
  0
LINE
  5
   57F
  8
0
  6
CONTINUOUS
 62
     7
 10
329.627267456055
 20
121.753916625977
 30
0.0
 11
330.752267456055
 21
121.753916625977
 31
0.0
  0
LINE
  5
   580
  8
0
  6
CONTINUOUS
 62
     7
 10
329.627267456055
 20
111.253916625977
 30
0.0
 11
330.752267456055
 21
111.253916625977
 31
0.0
  0
LINE
  5
   581
  8
0
  6
CONTINUOUS
 62
     7
 10
325.648934950162
 20
136.534048864858
 30
0.0
 11
327.377267456055
 21
136.534048864858
 31
0.0
  0
LINE
  5
   582
  8
0
  6
CONTINUOUS
 62
     7
 10
325.648934950162
 20
135.409048864858
 30
0.0
 11
327.377267456055
 21
135.409048864858
 31
0.0
  0
LINE
  5
   583
  8
0
  6
CONTINUOUS
 62
     7
 10
325.648934950162
 20
85.1239166259764
 30
0.0
 11
327.377267456055
 21
85.1239166259764
 31
0.0
  0
LINE
  5
   584
  8
0
  6
CONTINUOUS
 62
     7
 10
325.648934950162
 20
83.9989166259764
 30
0.0
 11
327.377267456055
 21
83.9989166259764
 31
0.0
  0
INSERT
  5
   585
  8
0
  6
CONTINUOUS
 62
     7
  2
*HATCH199
 10
252.902267456055
 20
109.498916625977
 30
0.0
 41
0.75
 42
0.75
 43
0.75
  0
INSERT
  5
   586
  8
0
  6
CONTINUOUS
 62
     7
  2
*HATCH200
 10
252.902267456055
 20
109.498916625977
 30
0.0
 41
0.75
 42
0.75
 43
0.75
  0
INSERT
  5
   587
  8
0
  6
CONTINUOUS
 62
     7
  2
*UDIM637
 10
0.0
 20
0.0
 30
0.0
  0
TEXT
  5
   588
  8
0
  6
CONTINUOUS
 62
     2
 10
274.573616854682
 20
-67.53498358089
 30
0.0
 40
2.50000000745058
  1
M4374 97-07-21
 41
0.649999919474125
 72
     1
 11
285.786115577988
 21
-66.2849835771647
 31
0.0
 73
     2
  0
TEXT
  5
   589
  8
0
  6
CONTINUOUS
 62
     2
 10
237.945090417079
 20
-59.131828359012
 30
0.0
 40
2.0000000372529
  1
97-07-22
 41
0.75
 72
     1
 11
243.695090524181
 21
-58.1318283403855
 31
0.0
 73
     2
  0
TEXT
  5
   58A
  8
0
  6
CONTINUOUS
 62
     2
 10
238.188769449827
 20
-62.4214953011154
 30
0.0
 40
2.0000000372529
  1
GIUPPONI
 41
0.75
 72
     1
 11
243.938769556929
 21
-61.4214952824889
 31
0.0
 73
     2
  0
LINE
  5
   58B
  8
0
  6
DASHDOT
 62
     7
 10
117.377136230469
 20
51.8641213082234
 30
0.0
 11
117.377136230469
 21
187.205214510778
 31
0.0
  0
LINE
  5
   58C
  8
0
  6
DASHDOT
 62
     7
 10
79.7535085158607
 20
116.503921508789
 30
0.0
 11
171.653705678559
 21
116.503921508789
 31
0.0
  0
ARC
  5
   58D
  8
0
  6
CONTINUOUS
 62
     7
 10
115.502136230469
 20
116.503921508789
 30
0.0
 40
24.375
 50
180.0
 51
332.513573749619
  0
ARC
  5
   58E
  8
0
  6
CONTINUOUS
 62
     7
 10
115.502136230469
 20
116.503921508789
 30
0.0
 40
19.875
 50
180.0
 51
325.525615390162
  0
LINE
  5
   58F
  8
0
  6
CONTINUOUS
 62
     7
 10
147.002136230469
 20
110.503921508789
 30
0.0
 11
147.002136230469
 21
122.503921508789
 31
0.0
  0
LINE
  5
   590
  8
0
  6
CONTINUOUS
 62
     7
 10
115.49600596345
 20
105.253921508789
 30
0.0
 11
141.752136230469
 21
105.253921508789
 31
0.0
  0
LINE
  5
   591
  8
0
  6
CONTINUOUS
 62
     7
 10
115.496005963451
 20
127.753921508789
 30
0.0
 11
141.752136230469
 21
127.753921508789
 31
0.0
  0
ARC
  5
   592
  8
0
  6
CONTINUOUS
 62
     7
 10
141.752136230469
 20
110.503921508789
 30
0.0
 40
5.25
 50
270.0
 51
360.0
  0
ARC
  5
   593
  8
0
  6
CONTINUOUS
 62
     7
 10
141.752136230469
 20
122.503921508789
 30
0.0
 40
5.25
 50
360.0
 51
450.0
  0
ARC
  5
   594
  8
0
  6
CONTINUOUS
 62
     7
 10
115.502136230469
 20
116.503921508789
 30
0.0
 40
19.875
 50
34.4743846098379
 51
180.0
  0
ARC
  5
   595
  8
0
  6
CONTINUOUS
 62
     7
 10
115.502136230469
 20
116.503921508789
 30
0.0
 40
24.375
 50
27.4864262503812
 51
180.0
  0
LINE
  5
   596
  8
0
  6
CONTINUOUS
 62
     7
 10
104.439636230469
 20
109.566421508789
 30
0.0
 11
137.814636230469
 21
109.566421508789
 31
0.0
  0
LINE
  5
   597
  8
0
  6
CONTINUOUS
 62
     7
 10
104.439636230469
 20
123.441421508789
 30
0.0
 11
137.814636230469
 21
123.441421508789
 31
0.0
  0
ARC
  5
   598
  8
0
  6
CONTINUOUS
 62
     7
 10
137.814636230469
 20
116.503921508789
 30
0.0
 40
6.9375
 50
270.0
 51
450.0
  0
ARC
  5
   599
  8
0
  6
CONTINUOUS
 62
     7
 10
104.029342324885
 20
104.128921508789
 30
0.0
 40
3.0
 50
227.166571933933
 51
309.571219457231
  0
ARC
  5
   59A
  8
0
  6
CONTINUOUS
 62
     7
 10
104.029342324885
 20
128.878921508789
 30
0.0
 40
3.0
 50
50.428780542769
 51
132.833428066067
  0
ARC
  5
   59B
  8
0
  6
CONTINUOUS
 62
     7
 10
115.49600596345
 20
90.2539215087891
 30
0.0
 40
15.0
 50
89.9999999999999
 51
129.571219457231
  0
ARC
  5
   59C
  8
0
  6
CONTINUOUS
 62
     7
 10
115.496005963451
 20
142.753921508789
 30
0.0
 40
15.0
 50
230.428780542769
 51
270.0
  0
ARC
  5
   59D
  8
0
  6
CONTINUOUS
 62
     7
 10
104.439636230469
 20
116.503921508789
 30
0.0
 40
6.9375
 50
89.9999999999999
 51
270.0
  0
LINE
  5
   59E
  8
0
  6
DASHED
 62
     7
 10
69.3771362304688
 20
165.253921508789
 30
0.0
 11
146.627136230469
 21
165.253921508789
 31
0.0
  0
LINE
  5
   59F
  8
0
  6
CONTINUOUS
 62
     7
 10
56.5868196255096
 20
176.869800291161
 30
0.0
 11
158.806349641663
 21
176.869800291161
 31
0.0
  0
LINE
  5
   5A0
  8
0
  6
CONTINUOUS
 62
     7
 10
56.5868196255096
 20
60.9427801076675
 30
0.0
 11
158.806349641663
 21
60.9427801076675
 31
0.0
  0
LINE
  5
   5A1
  8
0
  6
CONTINUOUS
 62
     7
 10
158.806349641663
 20
60.9427801076675
 30
0.0
 11
158.806349641663
 21
176.869800291161
 31
0.0
  0
LINE
  5
   5A2
  8
0
  6
CONTINUOUS
 62
     7
 10
56.5868196255096
 20
60.9427801076675
 30
0.0
 11
56.5868196255096
 21
176.869800291161
 31
0.0
  0
LINE
  5
   5A3
  8
0
  6
DASHED
 62
     7
 10
69.3771362304688
 20
154.003921508789
 30
0.0
 11
146.627136230469
 21
154.003921508789
 31
0.0
  0
LINE
  5
   5A4
  8
0
  6
DASHED
 62
     7
 10
69.3771362304688
 20
86.5039215087891
 30
0.0
 11
146.627136230469
 21
86.5039215087891
 31
0.0
  0
LINE
  5
   5A5
  8
0
  6
DASHED
 62
     7
 10
146.627136230469
 20
75.2539215087891
 30
0.0
 11
146.627136230469
 21
165.253921508789
 31
0.0
  0
LINE
  5
   5A6
  8
0
  6
DASHED
 62
     7
 10
88.1271362304688
 20
75.2539215087891
 30
0.0
 11
88.1271362304688
 21
165.253921508789
 31
0.0
  0
LINE
  5
   5A7
  8
0
  6
DASHED
 62
     7
 10
69.3771362304688
 20
75.2539215087891
 30
0.0
 11
69.3771362304688
 21
165.253921508789
 31
0.0
  0
LINE
  5
   5A8
  8
0
  6
DASHED
 62
     7
 10
69.3771362304688
 20
75.2539215087891
 30
0.0
 11
146.627136230469
 21
75.2539215087891
 31
0.0
  0
LINE
  5
   5A9
  8
0
  6
DASHDOT
 62
     7
 10
115.502136230469
 20
92.1289215087891
 30
0.0
 11
115.502136230469
 21
148.719620507804
 31
0.0
  0
LINE
  5
   5AA
  8
0
  6
CONTINUOUS
 62
     7
 10
115.127136230469
 20
140.047867610999
 30
0.0
 11
115.877136230469
 21
140.047867610999
 31
0.0
  0
LINE
  5
   5AB
  8
0
  6
CONTINUOUS
 62
     7
 10
115.127136230469
 20
137.036609173264
 30
0.0
 11
115.877136230469
 21
137.036609173264
 31
0.0
  0
CIRCLE
  5
   5AC
  8
0
  6
CONTINUOUS
 62
     7
 10
93.3771362304688
 20
116.503921508789
 30
0.0
 40
1.65
  0
CIRCLE
  5
   5AD
  8
0
  6
CONTINUOUS
 62
     7
 10
93.3771362304688
 20
116.503921508789
 30
0.0
 40
0.9
  0
LINE
  5
   5AE
  8
0
  6
CONTINUOUS
 62
     7
 10
115.127136230469
 20
137.036609173264
 30
0.0
 11
115.127136230469
 21
140.047867610999
 31
0.0
  0
LINE
  5
   5AF
  8
0
  6
CONTINUOUS
 62
     7
 10
115.877136230469
 20
137.036609173264
 30
0.0
 11
115.877136230469
 21
140.047867610999
 31
0.0
  0
INSERT
  5
   5B0
  8
0
  6
CONTINUOUS
 62
     7
  2
*HATCH201
 10
117.377136230469
 20
120.253921508789
 30
0.0
 41
0.75
 42
0.75
 43
0.75
  0
INSERT
  5
   5B1
  8
0
  6
CONTINUOUS
 62
   130
  2
*HATCH202
 10
117.377136230469
 20
120.253921508789
 30
0.0
 41
0.75
 42
0.75
 43
0.75
  0
LINE
  5
   5B2
  8
0
  6
CONTINUOUS
 62
     7
 10
109.502136230469
 20
84.6289215087891
 30
0.0
 11
121.502136230469
 21
84.6289215087891
 31
0.0
  0
LINE
  5
   5B3
  8
0
  6
CONTINUOUS
 62
     7
 10
104.252136230469
 20
89.8789215087891
 30
0.0
 11
104.252136230469
 21
100.119382302574
 31
0.0
  0
LINE
  5
   5B4
  8
0
  6
CONTINUOUS
 62
     7
 10
126.752136230469
 20
89.8789215087891
 30
0.0
 11
126.752136230469
 21
100.119382302574
 31
0.0
  0
ARC
  5
   5B5
  8
0
  6
CONTINUOUS
 62
     7
 10
109.502136230469
 20
89.8789215087891
 30
0.0
 40
5.25
 50
180.0
 51
270.0
  0
ARC
  5
   5B6
  8
0
  6
CONTINUOUS
 62
     7
 10
121.502136230469
 20
89.8789215087891
 30
0.0
 40
5.25
 50
270.0
 51
360.0
  0
LINE
  5
   5B7
  8
0
  6
DASHDOT
 62
     7
 10
36.5772062461943
 20
111.373916625977
 30
0.0
 11
176.903439121573
 21
111.373916625977
 31
0.0
  0
CIRCLE
  5
   5B8
  8
0
  6
DOT
 62
     7
 10
115.502136230469
 20
116.503921508789
 30
0.0
 40
12.375
  0
LINE
  5
   5B9
  8
0
  6
DASHDOT
 62
     7
 10
105.992167233226
 20
92.1289215087891
 30
0.0
 11
115.502136230469
 21
92.1289215087891
 31
0.0
  0
LINE
  5
   5BA
  8
0
  6
DASHDOT
 62
     7
 10
107.298362735671
 20
140.878921508789
 30
0.0
 11
115.502136230469
 21
140.878921508789
 31
0.0
  0
INSERT
  5
   5BB
  8
0
  6
CONTINUOUS
 62
     3
  2
*UDIM638
 10
0.0
 20
0.0
 30
0.0
  0
INSERT
  5
   5BC
  8
0
  6
CONTINUOUS
 62
     3
  2
*UDIM639
 10
0.0
 20
0.0
 30
0.0
  0
TEXT
  5
   5BD
  8
0
  6
CONTINUOUS
 62
     2
 10
116.246677786339
 20
48.8549134665042
 30
0.0
 40
3.00000013411045
  1
Y
 50
360.0
 41
0.983333308994771
 72
     1
 11
117.34667779899
 21
51.8549136006202
 31
0.0
 73
     3
  0
TEXT
  5
   5BE
  8
0
  6
CONTINUOUS
 62
     2
 10
176.969326019295
 20
109.78215039183
 30
0.0
 40
3.00000013411045
  1
X
 50
360.0
 41
0.983333308994771
 11
176.969326019287
 21
111.282150458885
 31
0.0
 73
     2
  0
TEXT
  5
   5BF
  8
0
  6
CONTINUOUS
 62
     2
 10
33.9377597682253
 20
110.229683808977
 30
0.0
 40
3.00000013411045
  1
X
 50
360.0
 41
0.983333308994771
 72
     1
 11
35.0377597808838
 21
111.729683876038
 31
0.0
 73
     2
  0
TEXT
  5
   5C0
  8
0
  6
CONTINUOUS
 62
     2
 10
116.423634395011
 20
188.839296273882
 30
0.0
 40
3.00000013411045
  1
Y
 50
360.0
 41
0.983333308994771
 72
     1
 11
117.523634407669
 21
190.339296340942
 31
0.0
 73
     2
  0
INSERT
  5
   5C1
  8
0
  6
CONTINUOUS
 62
     3
  2
*UDIM640
 10
0.0
 20
0.0
 30
0.0
  0
INSERT
  5
   5C2
  8
0
  6
CONTINUOUS
 62
     7
  2
*UDIM641
 10
0.0
 20
0.0
 30
0.0
  0
LINE
  5
   5C3
  8
0
  6
DASHDOT
 62
     7
 10
117.37712097168
 20
-49.9612539048389
 30
0.0
 11
117.37712097168
 21
26.6339199204785
 31
0.0
  0
LINE
  5
   5C4
  8
0
  6
DASHDOT
 62
     7
 10
90.8495208058868
 20
-10.8263006210327
 30
0.0
 11
169.21137477818
 21
-10.8263006210327
 31
0.0
  0
CIRCLE
  5
   5C5
  8
0
  6
CONTINUOUS
 62
     7
 10
115.502136230469
 20
-10.8263006210327
 30
0.0
 40
12.375
  0
CIRCLE
  5
   5C6
  8
0
  6
DASHDOT
 62
     7
 10
115.502136230469
 20
-10.8263006210327
 30
0.0
 40
19.875
  0
LINE
  5
   5C7
  8
0
  6
DASHDOT
 62
     7
 10
117.153087041333
 20
-9.17534981016798
 30
0.0
 11
147.783841695641
 21
21.455404844139
 31
0.0
  0
LINE
  5
   5C8
  8
0
  6
DASHDOT
 62
     7
 10
129.555883506551
 20
-1.80127345361282
 30
0.0
 11
129.555883506551
 21
8.58665750827513
 31
0.0
  0
LINE
  5
   5C9
  8
0
  6
DASHDOT
 62
     7
 10
101.448388954386
 20
-30.7901827219117
 30
0.0
 11
101.448388954386
 21
-20.3164010909173
 31
0.0
  0
LINE
  5
   5CA
  8
0
  6
CONTINUOUS
 62
     7
 10
95.4757930919392
 20
-30.8526437595622
 30
0.0
 11
117.153087041333
 21
-9.17534981016798
 31
0.0
  0
CIRCLE
  5
   5CB
  8
0
  6
CONTINUOUS
 62
     7
 10
129.555883506551
 20
3.22744665504991
 30
0.0
 40
1.875
  0
CIRCLE
  5
   5CC
  8
0
  6
CONTINUOUS
 62
     7
 10
101.448388954386
 20
-24.8800478971153
 30
0.0
 40
1.875
  0
LINE
  5
   5CD
  8
0
  6
DASHDOT
 62
     7
 10
196.96094362816
 20
-47.6720610096378
 30
0.0
 11
196.96094362816
 21
29.256690353176
 31
0.0
  0
LINE
  5
   5CE
  8
0
  6
CONTINUOUS
 62
     7
 10
196.96094362816
 20
22.9236993789673
 30
0.0
 11
198.83594362816
 21
22.9236993789673
 31
0.0
  0
LINE
  5
   5CF
  8
0
  6
CONTINUOUS
 62
     7
 10
196.96094362816
 20
15.4236993789673
 30
0.0
 11
198.83594362816
 21
15.4236993789673
 31
0.0
  0
LINE
  5
   5D0
  8
0
  6
CONTINUOUS
 62
     7
 10
196.96094362816
 20
-25.8263006210327
 30
0.0
 11
198.83594362816
 21
-25.8263006210327
 31
0.0
  0
LINE
  5
   5D1
  8
0
  6
CONTINUOUS
 62
     7
 10
196.96094362816
 20
-33.3263006210327
 30
0.0
 11
198.83594362816
 21
-33.3263006210327
 31
0.0
  0
LINE
  5
   5D2
  8
0
  6
CONTINUOUS
 62
     7
 10
198.83594362816
 20
15.4236993789673
 30
0.0
 11
198.83594362816
 21
22.9236993789673
 31
0.0
  0
LINE
  5
   5D3
  8
0
  6
CONTINUOUS
 62
     7
 10
198.83594362816
 20
-33.3263006210327
 30
0.0
 11
198.83594362816
 21
-25.8263006210327
 31
0.0
  0
LINE
  5
   5D4
  8
0
  6
CONTINUOUS
 62
     7
 10
56.2206365256399
 20
24.0774277667107
 30
0.0
 11
196.96094362816
 21
24.0774277667107
 31
0.0
  0
LINE
  5
   5D5
  8
0
  6
CONTINUOUS
 62
     7
 10
56.2206365256399
 20
-42.6348898632138
 30
0.0
 11
196.96094362816
 21
-42.6348898632138
 31
0.0
  0
LINE
  5
   5D6
  8
0
  6
CONTINUOUS
 62
     7
 10
56.2206365256399
 20
-42.6348898632138
 30
0.0
 11
56.2206365256399
 21
24.0774277667107
 31
0.0
  0
LINE
  5
   5D7
  8
0
  6
DASHDOT
 62
     7
 10
115.502136230469
 20
-30.8632538120689
 30
0.0
 11
115.502136230469
 21
52.9527072897202
 31
0.0
  0
POINT
  5
   5D8
  8
0
  6
CONTINUOUS
 62
     7
 10
135.377136230469
 20
-10.8263006210327
 30
0.0
  0
POINT
  5
   5D9
  8
0
  6
CONTINUOUS
 62
     7
 10
95.6271362304688
 20
-10.8263006210327
 30
0.0
  0
INSERT
  5
   5DA
  8
0
  6
CONTINUOUS
 62
     7
  2
*HATCH203
 10
117.37712097168
 20
-3.32630062103271
 30
0.0
 41
0.75
 42
0.75
 43
0.75
  0
INSERT
  5
   5DB
  8
0
  6
CONTINUOUS
 62
     7
  2
*HATCH204
 10
117.37712097168
 20
-3.32630062103271
 30
0.0
 41
0.75
 42
0.75
 43
0.75
  0
LINE
  5
   5DC
  8
0
  6
DASHDOT
 62
     7
 10
49.5901123406652
 20
-15.9263006210327
 30
0.0
 11
209.850341010842
 21
-15.9263006210327
 31
0.0
  0
INSERT
  5
   5DD
  8
0
  6
CONTINUOUS
 62
     3
  2
*UDIM642
 10
0.0
 20
0.0
 30
0.0
  0
TEXT
  5
   5DE
  8
0
  6
CONTINUOUS
 62
     2
 10
116.24667926453
 20
27.2553817770672
 30
0.0
 40
3.00000013411045
  1
Y
 50
360.0
 41
0.983333308994771
 72
     1
 11
117.346679277196
 21
27.2553817770727
 31
0.0
  0
INSERT
  5
   5DF
  8
0
  6
CONTINUOUS
 62
     3
  2
*UDIM643
 10
0.0
 20
0.0
 30
0.0
  0
TEXT
  5
   5E0
  8
0
  6
CONTINUOUS
 62
     2
 10
116.091311916883
 20
-53.5827158955496
 30
0.0
 40
3.00000013411045
  1
Y
 50
360.0
 41
0.983333308994771
 72
     1
 11
117.191311929534
 21
-50.5827157614337
 31
0.0
 73
     3
  0
INSERT
  5
   5E1
  8
0
  6
CONTINUOUS
 62
     3
  2
*UDIM644
 10
0.0
 20
0.0
 30
0.0
  0
TEXT
  5
   5E2
  8
0
  6
CONTINUOUS
 62
     2
 10
46.0083431117312
 20
-17.1008301451858
 30
0.0
 40
3.00000013411045
  1
X
 50
360.0
 41
0.983333308994771
 72
     1
 11
47.1083431243896
 21
-15.600830078125
 31
0.0
 73
     2
  0
TEXT
  5
   5E3
  8
0
  6
CONTINUOUS
 62
     2
 10
209.494873415686
 20
-17.286962576216
 30
0.0
 40
3.00000013411045
  1
X
 50
360.0
 41
0.983333308994771
 72
     1
 11
210.594873428345
 21
-15.7869625091553
 31
0.0
 73
     2
  0
INSERT
  5
   5E4
  8
0
  6
CONTINUOUS
 62
     3
  2
*UDIM645
 10
0.0
 20
0.0
 30
0.0
  0
INSERT
  5
   5E5
  8
0
  6
CONTINUOUS
 62
     7
  2
*UDIM646
 10
0.0
 20
0.0
 30
0.0
  0
INSERT
  5
   5E6
  8
0
  6
CONTINUOUS
 62
     7
  2
*UDIM647
 10
0.0
 20
0.0
 30
0.0
  0
ENDSEC
  0
EOF
