  0
SECTION
  2
HEADER
  9
$ACADVER
  1
AC1009
  9
$DWGCODEPAGE
  3
iso8859-1
  9
$INSBASE
 10
0.0
 20
0.0
 30
0.0
  9
$EXTMIN
 10
1.0E20
 20
1.0E20
  9
$EXTMAX
 10
-1.0E20
 20
-1.0E20
  9
$LIMMIN
 10
0.0
 20
0.0
  9
$LIMMAX
 10
12.0
 20
9.0
  9
$ORTHOMODE
 70
     0
  9
$REGENMODE
 70
     1
  9
$FILLMODE
 70
     1
  9
$QTEXTMODE
 70
     0
  9
$MIRRTEXT
 70
     1
  9
$DRAGMODE
 70
     2
  9
$LTSCALE
 40
15.0
  9
$OSMODE
 70
     0
  9
$ATTMODE
 70
     1
  9
$TEXTSIZE
 40
0.2
  9
$TRACEWID
 40
0.05
  9
$TEXTSTYLE
  7
STANDARD
  9
$CLAYER
  8
0
  9
$CELTYPE
  6
DASHED
  9
$CECOLOR
 62
   256
  9
$DIMSCALE
 40
1.0
  9
$DIMASZ
 40
0.18
  9
$DIMEXO
 40
0.0625
  9
$DIMDLI
 40
0.38
  9
$DIMRND
 40
0.0
  9
$DIMDLE
 40
0.0
  9
$DIMEXE
 40
0.18
  9
$DIMTP
 40
0.0
  9
$DIMTM
 40
0.0
  9
$DIMTXT
 40
0.18
  9
$DIMCEN
 40
0.09
  9
$DIMTSZ
 40
0.0
  9
$DIMTOL
 70
     0
  9
$DIMLIM
 70
     0
  9
$DIMTIH
 70
     1
  9
$DIMTOH
 70
     1
  9
$DIMSE1
 70
     0
  9
$DIMSE2
 70
     0
  9
$DIMTAD
 70
     0
  9
$DIMZIN
 70
     0
  9
$DIMBLK
  1

  9
$DIMASO
 70
     1
  9
$DIMSHO
 70
     1
  9
$DIMPOST
  1

  9
$DIMAPOST
  1

  9
$DIMALT
 70
     0
  9
$DIMALTD
 70
     2
  9
$DIMALTF
 40
25.4
  9
$DIMLFAC
 40
1.0
  9
$DIMTOFL
 70
     0
  9
$DIMTVP
 40
0.0
  9
$DIMTIX
 70
     0
  9
$DIMSOXD
 70
     0
  9
$DIMSAH
 70
     0
  9
$DIMBLK1
  1

  9
$DIMBLK2
  1

  9
$DIMSTYLE
  2
STANDARD
  9
$DIMCLRD
 70
     0
  9
$DIMCLRE
 70
     0
  9
$DIMCLRT
 70
     0
  9
$DIMTFAC
 40
1.0
  9
$DIMGAP
 40
0.09
  9
$LUNITS
 70
     2
  9
$LUPREC
 70
     4
  9
$AXISMODE
 70
     0
  9
$AXISUNIT
 10
0.0
 20
0.0
  9
$SKETCHINC
 40
0.1
  9
$FILLETRAD
 40
0.0
  9
$AUNITS
 70
     0
  9
$AUPREC
 70
     0
  9
$MENU
  1
acad
  9
$ELEVATION
 40
0.0
  9
$PELEVATION
 40
0.0
  9
$THICKNESS
 40
0.0
  9
$LIMCHECK
 70
     0
  9
$BLIPMODE
 70
     1
  9
$CHAMFERA
 40
0.0
  9
$CHAMFERB
 40
0.0
  9
$SKPOLY
 70
     0
  9
$TDCREATE
 40
0.000000000
  9
$TDUPDATE
 40
0.000000000
  9
$TDINDWG
 40
0.0
  9
$TDUSRTIMER
 40
0.0
  9
$USRTIMER
 70
     1
  9
$ANGBASE
 50
0.0
  9
$ANGDIR
 70
     0
  9
$PDMODE
 70
     0
  9
$PDSIZE
 40
0.0
  9
$PLINEWID
 40
0.0
  9
$COORDS
 70
     1
  9
$SPLFRAME
 70
     0
  9
$SPLINETYPE
 70
     6
  9
$SPLINESEGS
 70
     8
  9
$ATTDIA
 70
     0
  9
$ATTREQ
 70
     1
  9
$HANDLING
 70
     1
  9
$HANDSEED
  5
   555
  9
$SURFTAB1
 70
     6
  9
$SURFTAB2
 70
     6
  9
$SURFTYPE
 70
     6
  9
$SURFU
 70
     6
  9
$SURFV
 70
     6
  9
$UCSNAME
  2

  9
$UCSORG
 10
0.0
 20
0.0
 30
0.0
  9
$UCSXDIR
 10
1.0
 20
0.0
 30
0.0
  9
$UCSYDIR
 10
0.0
 20
1.0
 30
0.0
  9
$PUCSNAME
  2

  9
$PUCSORG
 10
0.0
 20
0.0
 30
0.0
  9
$PUCSXDIR
 10
1.0
 20
0.0
 30
0.0
  9
$PUCSYDIR
 10
0.0
 20
1.0
 30
0.0
  9
$USERI1
 70
     0
  9
$USERI2
 70
     0
  9
$USERI3
 70
     0
  9
$USERI4
 70
     0
  9
$USERI5
 70
     0
  9
$USERR1
 40
0.0
  9
$USERR2
 40
0.0
  9
$USERR3
 40
0.0
  9
$USERR4
 40
0.0
  9
$USERR5
 40
0.0
  9
$WORLDVIEW
 70
     1
  9
$SHADEDGE
 70
     3
  9
$SHADEDIF
 70
    70
  9
$TILEMODE
 70
     1
  9
$MAXACTVP
 70
    16
  9
$PINSBASE
 10
0.0
 20
0.0
 30
0.0
  9
$PLIMCHECK
 70
     0
  9
$PEXTMIN
 10
1.0E20
 20
1.0E20
 30
1.0E20
  9
$PEXTMAX
 10
-1.0E20
 20
-1.0E20
 30
-1.0E20
  9
$PLIMMIN
 10
0.0
 20
0.0
  9
$PLIMMAX
 10
12.0
 20
9.0
  9
$UNITMODE
 70
     0
  9
$VISRETAIN
 70
     0
  0
ENDSEC
  0
SECTION
  2
TABLES
  0
TABLE
  2
VPORT
 70
     1
  0
VPORT
  2
*ACTIVE
 70
     0
 10
0.0
 20
0.0
 11
1.0
 21
1.0
 12
6.801242
 22
4.5
 13
0.0
 23
0.0
 14
1.0
 24
1.0
 15
0.0
 25
0.0
 16
0.0
 26
0.0
 36
1.0
 17
0.0
 27
0.0
 37
0.0
 40
9.0
 41
1.511387
 42
50.0
 43
0.0
 44
0.0
 50
0.0
 51
0.0
 71
     0
 72
   100
 73
     1
 74
     1
 75
     0
 76
     0
 77
     0
 78
     0
  0
ENDTAB
  0
TABLE
  2
LTYPE
 70
    41
  0
LTYPE
  2
BYBLOCK
 70
     0
  3

 72
    65
 73
     0
 40
0.0
  0
LTYPE
  2
BYLAYER
 70
     0
  3

 72
    65
 73
     0
 40
0.0
  0
LTYPE
  2
CONTINUOUS
 70
     0
  3
Solid line
 72
    65
 73
     0
 40
0.0
  0
LTYPE
  2
BORDER
 70
    64
  3
__ __ . __ __ . __ __ . __ __ . __ __ . __ __ .
 72
    65
 73
     6
 40
1.75
 49
0.5
 49
-0.25
 49
0.5
 49
-0.25
 49
0.0
 49
-0.25
  0
LTYPE
  2
BORDER2
 70
    64
  3
__.__.__.__.__.__.__.__.__.__.__.__.__.__.__.__
 72
    65
 73
     6
 40
0.875
 49
0.25
 49
-0.125
 49
0.25
 49
-0.125
 49
0.0
 49
-0.125
  0
LTYPE
  2
BORDERX2
 70
    64
  3
____  ____  .  ____  ____  .  ____  ____  .  __
 72
    65
 73
     6
 40
3.5
 49
1.0
 49
-0.5
 49
1.0
 49
-0.5
 49
0.0
 49
-0.5
  0
LTYPE
  2
CENTER
 70
    64
  3
____ _ ____ _ ____ _ ____ _ ____ _ ____ _ ____
 72
    65
 73
     4
 40
2.0
 49
1.25
 49
-0.25
 49
0.25
 49
-0.25
  0
LTYPE
  2
CENTER2
 70
    64
  3
___ _ ___ _ ___ _ ___ _ ___ _ ___ _ ___ _ ___ _
 72
    65
 73
     4
 40
1.125
 49
0.75
 49
-0.125
 49
0.125
 49
-0.125
  0
LTYPE
  2
CENTERX2
 70
    64
  3
________  __  ________  __  ________  __  _____
 72
    65
 73
     4
 40
4.0
 49
2.5
 49
-0.5
 49
0.5
 49
-0.5
  0
LTYPE
  2
DASHDOT
 70
    64
  3
__ . __ . __ . __ . __ . __ . __ . __ . __ . __
 72
    65
 73
     4
 40
1.0
 49
0.5
 49
-0.25
 49
0.0
 49
-0.25
  0
LTYPE
  2
DASHDOT2
 70
    64
  3
_._._._._._._._._._._._._._._._._._._._._._._._
 72
    65
 73
     4
 40
0.5
 49
0.25
 49
-0.125
 49
0.0
 49
-0.125
  0
LTYPE
  2
DASHDOTX2
 70
    64
  3
____  .  ____  .  ____  .  ____  .  ____  .  __
 72
    65
 73
     4
 40
2.0
 49
1.0
 49
-0.5
 49
0.0
 49
-0.5
  0
LTYPE
  2
DASHED
 70
    64
  3
__ __ __ __ __ __ __ __ __ __ __ __ __ __ __ __
 72
    65
 73
     2
 40
0.75
 49
0.5
 49
-0.25
  0
LTYPE
  2
DASHED2
 70
    64
  3
_ _ _ _ _ _ _ _ _ _ _ _ _ _ _ _ _ _ _ _ _ _ _ _
 72
    65
 73
     2
 40
0.375
 49
0.25
 49
-0.125
  0
LTYPE
  2
DASHEDX2
 70
    64
  3
____  ____  ____  ____  ____  ____  ____  ____
 72
    65
 73
     2
 40
1.5
 49
1.0
 49
-0.5
  0
LTYPE
  2
DIVIDE
 70
    64
  3
____ . . ____ . . ____ . . ____ . . ____ . . __
 72
    65
 73
     6
 40
1.25
 49
0.5
 49
-0.25
 49
0.0
 49
-0.25
 49
0.0
 49
-0.25
  0
LTYPE
  2
DIVIDE2
 70
    64
  3
__..__..__..__..__..__..__..__..__..__..__..__.
 72
    65
 73
     6
 40
0.625
 49
0.25
 49
-0.125
 49
0.0
 49
-0.125
 49
0.0
 49
-0.125
  0
LTYPE
  2
DIVIDEX2
 70
    64
  3
________  .  .  ________  .  .  ________  .  .
 72
    65
 73
     6
 40
2.5
 49
1.0
 49
-0.5
 49
0.0
 49
-0.5
 49
0.0
 49
-0.5
  0
LTYPE
  2
DOT
 70
    64
  3
. . . . . . . . . . . . . . . . . . . . . . . .
 72
    65
 73
     2
 40
0.25
 49
0.0
 49
-0.25
  0
LTYPE
  2
DOT2
 70
    64
  3
...............................................
 72
    65
 73
     2
 40
0.125
 49
0.0
 49
-0.125
  0
LTYPE
  2
DOTX2
 70
    64
  3
.  .  .  .  .  .  .  .  .  .  .  .  .  .  .  .
 72
    65
 73
     2
 40
0.5
 49
0.0
 49
-0.5
  0
LTYPE
  2
HIDDEN
 70
    64
  3
__ __ __ __ __ __ __ __ __ __ __ __ __ __ __ __
 72
    65
 73
     2
 40
0.375
 49
0.25
 49
-0.125
  0
LTYPE
  2
HIDDEN2
 70
    64
  3
_ _ _ _ _ _ _ _ _ _ _ _ _ _ _ _ _ _ _ _ _ _ _ _
 72
    65
 73
     2
 40
0.1875
 49
0.125
 49
-0.0625
  0
LTYPE
  2
HIDDENX2
 70
    64
  3
____ ____ ____ ____ ____ ____ ____ ____ ____ __
 72
    65
 73
     2
 40
0.75
 49
0.5
 49
-0.25
  0
LTYPE
  2
PHANTOM
 70
    64
  3
______  __  __  ______  __  __  ______  __  __
 72
    65
 73
     6
 40
2.5
 49
1.25
 49
-0.25
 49
0.25
 49
-0.25
 49
0.25
 49
-0.25
  0
LTYPE
  2
PHANTOM2
 70
    64
  3
___ _ _ ___ _ _ ___ _ _ ___ _ _ ___ _ _ ___ _ _
 72
    65
 73
     6
 40
1.25
 49
0.625
 49
-0.125
 49
0.125
 49
-0.125
 49
0.125
 49
-0.125
  0
LTYPE
  2
PHANTOMX2
 70
    64
  3
____________    ____    ____    ____________
 72
    65
 73
     6
 40
5.0
 49
2.5
 49
-0.5
 49
0.5
 49
-0.5
 49
0.5
 49
-0.5
  0
LTYPE
  2
ACAD_ISO02W100
 70
    64
  3
__ __ __ __ __ __ __ __ __ __ __ __ __ __ __ __
 72
    65
 73
     2
 40
15.0
 49
12.0
 49
-3.0
  0
LTYPE
  2
ACAD_ISO03W100
 70
    64
  3
__    __    __    __    __    __    __    __
 72
    65
 73
     2
 40
30.0
 49
12.0
 49
-18.0
  0
LTYPE
  2
ACAD_ISO04W100
 70
    64
  3
____ . ____ . ____ . ____ . ____ . ____ . ____
 72
    65
 73
     4
 40
30.5
 49
24.0
 49
-3.0
 49
0.5
 49
-3.0
  0
LTYPE
  2
ACAD_ISO05W100
 70
    64
  3
____ .. ____ .. ____ .. ____ .. ____ .. ____ ..
 72
    65
 73
     6
 40
34.0
 49
24.0
 49
-3.0
 49
0.5
 49
-3.0
 49
0.5
 49
-3.0
  0
LTYPE
  2
ACAD_ISO06W100
 70
    64
  3
____ ... ____ ... ____ ... ____ ... ____ ... __
 72
    65
 73
     8
 40
37.5
 49
24.0
 49
-3.0
 49
0.5
 49
-3.0
 49
0.5
 49
-3.0
 49
0.5
 49
-3.0
  0
LTYPE
  2
ACAD_ISO07W100
 70
    64
  3
. . . . . . . . . . . . . . . . . . . . . . . .
 72
    65
 73
     2
 40
3.5
 49
0.5
 49
-3.0
  0
LTYPE
  2
ACAD_ISO08W100
 70
    64
  3
____ __ ____ __ ____ __ ____ ____ __ __ ____ __
 72
    65
 73
     4
 40
36.0
 49
24.0
 49
-3.0
 49
6.0
 49
-3.0
  0
LTYPE
  2
ACAD_ISO09W100
 70
    64
  3
____ __ __ ____ __ __ ____ __ __ ____ __ __ ___
 72
    65
 73
     6
 40
45.0
 49
24.0
 49
-3.0
 49
6.0
 49
-3.0
 49
6.0
 49
-3.0
  0
LTYPE
  2
ACAD_ISO10W100
 70
    64
  3
__ . __ . __ . __ . __ . __ . __ . __ . __ . __
 72
    65
 73
     4
 40
18.5
 49
12.0
 49
-3.0
 49
0.5
 49
-3.0
  0
LTYPE
  2
ACAD_ISO11W100
 70
    64
  3
__ __ . __ __ . __ __ . __ __ . __ __ . __ __ .
 72
    65
 73
     6
 40
33.5
 49
12.0
 49
-3.0
 49
12.0
 49
-3.0
 49
0.5
 49
-3.0
  0
LTYPE
  2
ACAD_ISO12W100
 70
    64
  3
__ . . __ . . __ . . __ . . __ . . __ . . __ .
 72
    65
 73
     6
 40
22.0
 49
12.0
 49
-3.0
 49
0.5
 49
-3.0
 49
0.5
 49
-3.0
  0
LTYPE
  2
ACAD_ISO13W100
 70
    64
  3
__ __ . . __ __ . . __ __ . . __ __ . . __ __ .
 72
    65
 73
     8
 40
37.0
 49
12.0
 49
-3.0
 49
12.0
 49
-3.0
 49
0.5
 49
-3.0
 49
0.5
 49
-3.0
  0
LTYPE
  2
ACAD_ISO14W100
 70
    64
  3
__ . . . __ . . . __ . . . __ . . . __ . . . __
 72
    65
 73
     8
 40
25.5
 49
12.0
 49
-3.0
 49
0.5
 49
-3.0
 49
0.5
 49
-3.0
 49
0.5
 49
-3.0
  0
LTYPE
  2
ACAD_ISO15W100
 70
    64
  3
__ __ . . . __ __ . . . __ __ . . . __ __ . . .
 72
    65
 73
    10
 40
40.5
 49
12.0
 49
-3.0
 49
12.0
 49
-3.0
 49
0.5
 49
-3.0
 49
0.5
 49
-3.0
 49
0.5
 49
-3.0
  0
ENDTAB
  0
TABLE
  2
STYLE
 70
     4
  0
STYLE
  2
STANDARD
 70
    64
 40
0.0
 41
1.0
 50
0.0
 71
     0
 42
0.2
  3
txt
  4

  0
STYLE
  2
TOLERANCE
 70
    64
 40
0.0
 41
1.0
 50
0.0
 71
     0
 42
0.2
  3
../igesfont/iges1003.shx
  4

  0
STYLE
  2
ROMANS
 70
    64
 40
0.0
 41
1.0
 50
0.0
 71
     0
 42
0.2
  3
romans.shx
  4

  0
STYLE
  2
ROMANC
 70
    64
 40
0.0
 41
1.0
 50
0.0
 71
     0
 42
0.2
  3
romanc.shx
  4

  0
ENDTAB
  0
TABLE
  2
DIMSTYLE
 70
     2
  0
DIMSTYLE
  2
UNNAMED
 70
     0
  3

  4

  5

  6

  7

 40
1.0
 41
0.18
 42
0.0625
 43
0.38
 44
0.18
 45
0.0
 46
0.0
 47
0.0
 48
0.0
140
0.18
141
0.09
142
0.0
143
25.4
144
1.0
145
0.0
146
1.0
147
0.09
 71
     0
 72
     0
 73
     1
 74
     1
 75
     0
 76
     0
 77
     0
 78
     0
170
     0
171
     2
172
     0
173
     0
174
     0
175
     0
176
     0
177
     0
178
     0
  0
DIMSTYLE
  2
STANDARD
 70
     0
  3

  4

  5

  6

  7

 40
1.0
 41
0.18
 42
0.0625
 43
0.38
 44
0.18
 45
0.0
 46
0.0
 47
0.0
 48
0.0
140
0.18
141
0.09
142
0.0
143
25.4
144
1.0
145
0.0
146
1.0
147
0.09
 71
     0
 72
     0
 73
     1
 74
     1
 75
     0
 76
     0
 77
     0
 78
     0
170
     0
171
     2
172
     0
173
     0
174
     0
175
     0
176
     0
177
     0
178
     0
  0
ENDTAB
  0
TABLE
  2
LAYER
 70
     2
  0
LAYER
  2
0
 70
     0
 62
     7
  6
CONTINUOUS
  0
LAYER
  2
255
 70
     0
 62
     7
  6
CONTINUOUS
  0
ENDTAB
  0
ENDSEC
  0
SECTION
  2
BLOCKS
  0
BLOCK
  5
     B
  8
0
  6
CONTINUOUS
 62
     7
  2
MOSTRINA
 70
    64
 10
0.0
 20
0.0
 30
0.0
  3
MOSTRINA
  0
LINE
  5
     C
  8
0
  6
CONTINUOUS
 62
     3
 10
208.338256835938
 20
30.7306251525879
 30
0.0
 11
208.338256835938
 21
189.230621337891
 31
0.0
  0
LINE
  5
     D
  8
0
  6
CONTINUOUS
 62
     3
 10
57.5882568359375
 20
29.4806251525879
 30
0.0
 11
207.088256835938
 21
29.4806251525879
 31
0.0
  0
LINE
  5
     E
  8
0
  6
CONTINUOUS
 62
     3
 10
56.3382568359375
 20
30.7306251525879
 30
0.0
 11
56.3382568359375
 21
189.230621337891
 31
0.0
  0
LINE
  5
     F
  8
0
  6
CONTINUOUS
 62
     3
 10
57.5882568359375
 20
190.480621337891
 30
0.0
 11
207.088256835938
 21
190.480621337891
 31
0.0
  0
LINE
  5
    10
  8
0
  6
CONTINUOUS
 62
     3
 10
202.838256835938
 20
56.9806251525879
 30
0.0
 11
202.838256835938
 21
162.980625152588
 31
0.0
  0
LINE
  5
    11
  8
0
  6
CONTINUOUS
 62
     3
 10
61.8382568359375
 20
56.9806251525879
 30
0.0
 11
202.838256835938
 21
56.9806251525879
 31
0.0
  0
LINE
  5
    12
  8
0
  6
CONTINUOUS
 62
     3
 10
61.8382568359375
 20
56.9806251525879
 30
0.0
 11
61.8382568359375
 21
162.980625152588
 31
0.0
  0
LINE
  5
    13
  8
0
  6
CONTINUOUS
 62
     3
 10
61.8382568359375
 20
162.980621337891
 30
0.0
 11
202.838256835938
 21
162.980621337891
 31
0.0
  0
LINE
  5
    14
  8
0
  6
CONTINUOUS
 62
     3
 10
203.838256835938
 20
48.4806251525879
 30
0.0
 11
203.838256835938
 21
49.4806251525879
 31
0.0
  0
LINE
  5
    15
  8
0
  6
CONTINUOUS
 62
     3
 10
61.8382568359375
 20
50.4806251525879
 30
0.0
 11
202.838256835938
 21
50.4806251525879
 31
0.0
  0
LINE
  5
    16
  8
0
  6
CONTINUOUS
 62
     3
 10
60.8382568359375
 20
48.4806251525879
 30
0.0
 11
60.8382568359375
 21
49.4806251525879
 31
0.0
  0
LINE
  5
    17
  8
0
  6
CONTINUOUS
 62
     3
 10
61.8382568359375
 20
49.4806251525879
 30
0.0
 11
202.838256835938
 21
49.4806251525879
 31
0.0
  0
LINE
  5
    18
  8
0
  6
CONTINUOUS
 62
     3
 10
60.8382568359375
 20
29.4806251525879
 30
0.0
 11
60.8382568359375
 21
48.4806251525879
 31
0.0
  0
LINE
  5
    19
  8
0
  6
CONTINUOUS
 62
     3
 10
60.8382568359375
 20
49.4806213378906
 30
0.0
 11
60.8382568359375
 21
190.480621337891
 31
0.0
  0
LINE
  5
    1A
  8
0
  6
CONTINUOUS
 62
     3
 10
61.8382568359375
 20
29.4806251525879
 30
0.0
 11
61.8382568359375
 21
49.4806251525879
 31
0.0
  0
LINE
  5
    1B
  8
0
  6
CONTINUOUS
 62
     3
 10
61.8382568359375
 20
162.980621337891
 30
0.0
 11
61.8382568359375
 21
169.480621337891
 31
0.0
  0
LINE
  5
    1C
  8
0
  6
CONTINUOUS
 62
     3
 10
61.8382568359375
 20
50.4806251525879
 30
0.0
 11
61.8382568359375
 21
56.9806251525879
 31
0.0
  0
LINE
  5
    1D
  8
0
  6
CONTINUOUS
 62
     3
 10
203.838256835938
 20
29.4806251525879
 30
0.0
 11
203.838256835938
 21
48.4806251525879
 31
0.0
  0
LINE
  5
    1E
  8
0
  6
CONTINUOUS
 62
     3
 10
203.838256835938
 20
49.4806251525879
 30
0.0
 11
203.838256835938
 21
190.480621337891
 31
0.0
  0
LINE
  5
    1F
  8
0
  6
CONTINUOUS
 62
     3
 10
202.838256835938
 20
50.4806251525879
 30
0.0
 11
202.838256835938
 21
56.9806251525879
 31
0.0
  0
LINE
  5
    20
  8
0
  6
CONTINUOUS
 62
     3
 10
202.838256835938
 20
162.980621337891
 30
0.0
 11
202.838256835938
 21
169.480621337891
 31
0.0
  0
LINE
  5
    21
  8
0
  6
CONTINUOUS
 62
     3
 10
202.838256835938
 20
29.4806251525879
 30
0.0
 11
202.838256835938
 21
49.4806251525879
 31
0.0
  0
LINE
  5
    22
  8
0
  6
CONTINUOUS
 62
     3
 10
60.8382568359375
 20
170.480621337891
 30
0.0
 11
203.838256835938
 21
170.480621337891
 31
0.0
  0
LINE
  5
    23
  8
0
  6
CONTINUOUS
 62
     3
 10
61.8382568359375
 20
169.480621337891
 30
0.0
 11
202.838256835938
 21
169.480621337891
 31
0.0
  0
ARC
  5
    24
  8
0
  6
CONTINUOUS
 62
     3
 10
57.5882568359375
 20
30.7306251525879
 30
0.0
 40
1.25
 50
180.0
 51
270.0
  0
ARC
  5
    25
  8
0
  6
CONTINUOUS
 62
     3
 10
207.088256835938
 20
30.7306251525879
 30
0.0
 40
1.25
 50
270.0
 51
360.0
  0
ARC
  5
    26
  8
0
  6
CONTINUOUS
 62
     3
 10
207.088256835938
 20
189.230621337891
 30
0.0
 40
1.25
 50
0.0
 51
90.0
  0
ARC
  5
    27
  8
0
  6
CONTINUOUS
 62
     3
 10
57.5882568359375
 20
189.230621337891
 30
0.0
 40
1.25
 50
90.0
 51
180.0
  0
LINE
  5
    28
  8
0
  6
DOT
 62
     3
 10
60.3382577409677
 20
179.7306252571
 30
0.0
 11
60.8382568359375
 21
179.7306252571
 31
0.0
  0
LINE
  5
    29
  8
0
  6
DOT
 62
     3
 10
60.3382577409676
 20
181.2306252571
 30
0.0
 11
60.8382568359375
 21
181.2306252571
 31
0.0
  0
LINE
  5
    2A
  8
0
  6
CONTINUOUS
 62
     3
 10
203.338257745313
 20
179.730625257273
 30
0.0
 11
203.838256835938
 21
179.730625257273
 31
0.0
  0
LINE
  5
    2B
  8
0
  6
CONTINUOUS
 62
     3
 10
203.338257745314
 20
181.230625257273
 30
0.0
 11
203.838256835938
 21
181.230625257273
 31
0.0
  0
ARC
  5
    2C
  8
0
  6
DOT
 62
     3
 10
60.3382577401871
 20
180.480625257147
 30
0.0
 40
0.749999999345164
 50
90.0
 51
270.0
  0
ARC
  5
    2D
  8
0
  6
CONTINUOUS
 62
     3
 10
61.338257740822
 20
180.480625256974
 30
0.0
 40
0.750000000009701
 50
270.0
 51
450.0
  0
LINE
  5
    2E
  8
0
  6
CONTINUOUS
 62
     3
 10
60.8382568359375
 20
181.2306252571
 30
0.0
 11
61.3382577409688
 21
181.2306252571
 31
0.0
  0
LINE
  5
    2F
  8
0
  6
CONTINUOUS
 62
     3
 10
60.8382568359375
 20
179.7306252571
 30
0.0
 11
61.3382577409689
 21
179.7306252571
 31
0.0
  0
ARC
  5
    30
  8
0
  6
CONTINUOUS
 62
     3
 10
203.338257745503
 20
180.480625256952
 30
0.0
 40
0.750000000048506
 50
90.0000000038822
 51
269.999999996024
  0
ARC
  5
    31
  8
0
  6
DOT
 62
     3
 10
204.338257745421
 20
180.480625256965
 30
0.0
 40
0.750000000029104
 50
270.000000002449
 51
449.999999997486
  0
LINE
  5
    32
  8
0
  6
DOT
 62
     3
 10
203.838256835938
 20
181.230625257273
 30
0.0
 11
204.338257745315
 21
181.230625257273
 31
0.0
  0
LINE
  5
    33
  8
0
  6
DOT
 62
     3
 10
203.838256835938
 20
179.730625257273
 30
0.0
 11
204.338257745315
 21
179.730625257273
 31
0.0
  0
POINT
  5
    34
  8
0
  6
CONTINUOUS
 62
     7
 10
132.338256835938
 20
109.980623245239
 30
0.0
  0
ENDBLK
  5
    35
  8
0
  6
CONTINUOUS
 62
     7
  0
BLOCK
  5
    36
  8
0
  6
CONTINUOUS
 62
     7
  2
*UDIM476
 70
    65
 10
0.0
 20
0.0
 30
0.0
  3
*UDIM476
  0
TEXT
  5
    37
  8
0
  6
CONTINUOUS
 62
     7
 10
-25.6308906337947
 20
44.8042240782012
 30
0.0
 40
3.00000001532688
  1
152
 50
359.999999948034
 41
0.933333333333334
 72
     1
 11
-21.7308906125169
 21
46.304224082347
 31
0.0
 73
     2
  0
LINE
  5
    38
  8
0
  6
CONTINUOUS
 62
     7
 10
5.14410853385926
 20
-19.1504941791274
 30
0.0
 11
5.14410853385926
 21
45.8042240746836
 31
0.0
  0
LINE
  5
    39
  8
0
  6
CONTINUOUS
 62
     7
 10
-48.0558860301971
 20
-19.1504941791273
 30
0.0
 11
-48.0558860301971
 21
45.8042240746836
 31
0.0
  0
LINE
  5
    3A
  8
0
  6
CONTINUOUS
 62
     7
 10
5.14410853385926
 20
43.8042240746836
 30
0.0
 11
-48.0558860301971
 21
43.8042240746836
 31
0.0
  0
LINE
  5
    3B
  8
0
  6
CONTINUOUS
 62
     7
 10
2.18968525665229
 20
43.2832796447319
 30
0.0
 11
5.14410853385926
 21
43.8042240746836
 31
0.0
  0
LINE
  5
    3C
  8
0
  6
CONTINUOUS
 62
     7
 10
5.14410853385926
 20
43.8042240746836
 30
0.0
 11
2.18968525665229
 21
44.3251685046353
 31
0.0
  0
LINE
  5
    3D
  8
0
  6
CONTINUOUS
 62
     7
 10
-45.1014627529902
 20
44.3251685046353
 30
0.0
 11
-48.0558860301971
 21
43.8042240746836
 31
0.0
  0
LINE
  5
    3E
  8
0
  6
CONTINUOUS
 62
     7
 10
-48.0558860301971
 20
43.8042240746836
 30
0.0
 11
-45.1014627529902
 21
43.2832796447319
 31
0.0
  0
ENDBLK
  5
    3F
  8
0
  6
CONTINUOUS
 62
     7
  0
BLOCK
  5
    40
  8
0
  6
CONTINUOUS
 62
     7
  2
*UDIM477
 70
    65
 10
0.0
 20
0.0
 30
0.0
  3
*UDIM477
  0
TEXT
  5
    41
  8
0
  6
CONTINUOUS
 62
     7
 10
25.2317665928878
 20
-52.0629898926982
 30
0.0
 40
3.00000001532688
  1
161
 50
89.9999999480344
 41
0.933333333333334
 72
     1
 11
23.7317665887567
 21
-48.1629898714147
 31
0.0
 73
     2
  0
LINE
  5
    42
  8
0
  6
CONTINUOUS
 62
     7
 10
5.70660857856273
 20
-76.0629871308782
 30
0.0
 11
28.2317665964201
 21
-76.0629871308782
 31
0.0
  0
LINE
  5
    43
  8
0
  6
CONTINUOUS
 62
     7
 10
5.70660857856274
 20
-19.7129942238308
 30
0.0
 11
28.2317665964201
 21
-19.7129942238308
 31
0.0
  0
LINE
  5
    44
  8
0
  6
CONTINUOUS
 62
     7
 10
26.2317665964201
 20
-76.0629871308782
 30
0.0
 11
26.2317665964201
 21
-19.7129942238308
 31
0.0
  0
LINE
  5
    45
  8
0
  6
CONTINUOUS
 62
     7
 10
25.7108221664685
 20
-73.1085638536713
 30
0.0
 11
26.2317665964201
 21
-76.0629871308782
 31
0.0
  0
LINE
  5
    46
  8
0
  6
CONTINUOUS
 62
     7
 10
26.2317665964201
 20
-76.0629871308782
 30
0.0
 11
26.7527110263718
 21
-73.1085638536713
 31
0.0
  0
LINE
  5
    47
  8
0
  6
CONTINUOUS
 62
     7
 10
26.7527110263718
 20
-22.6674175010378
 30
0.0
 11
26.2317665964201
 21
-19.7129942238308
 31
0.0
  0
LINE
  5
    48
  8
0
  6
CONTINUOUS
 62
     7
 10
26.2317665964201
 20
-19.7129942238308
 30
0.0
 11
25.7108221664685
 21
-22.6674175010378
 31
0.0
  0
ENDBLK
  5
    49
  8
0
  6
CONTINUOUS
 62
     7
  0
BLOCK
  5
    4A
  8
0
  6
CONTINUOUS
 62
     7
  2
*UDIM478
 70
    65
 10
0.0
 20
0.0
 30
0.0
  3
*UDIM478
  0
TEXT
  5
    4B
  8
0
  6
CONTINUOUS
 62
     7
 10
-69.1197450676007
 20
-14.0880605348791
 30
0.0
 40
3.00000001532688
  1
217
 50
89.9999999480344
 41
0.933333333333334
 72
     1
 11
-70.6197450717318
 21
-10.1880605135956
 31
0.0
 73
     2
  0
LINE
  5
    4C
  8
0
  6
CONTINUOUS
 62
     7
 10
-63.9096116419921
 20
-47.8879906773545
 30
0.0
 11
-70.1197450640684
 21
-47.8879906773545
 31
0.0
  0
LINE
  5
    4D
  8
0
  6
CONTINUOUS
 62
     7
 10
-58.6808623403123
 20
28.061866077291
 30
0.0
 11
-70.1197450640684
 21
28.061866077291
 31
0.0
  0
LINE
  5
    4E
  8
0
  6
CONTINUOUS
 62
     7
 10
-68.1197450640684
 20
-47.8879906773545
 30
0.0
 11
-68.1197450640684
 21
28.061866077291
 31
0.0
  0
LINE
  5
    4F
  8
0
  6
CONTINUOUS
 62
     7
 10
-68.6406894940201
 20
-44.9335674001476
 30
0.0
 11
-68.1197450640684
 21
-47.8879906773545
 31
0.0
  0
LINE
  5
    50
  8
0
  6
CONTINUOUS
 62
     7
 10
-68.1197450640684
 20
-47.8879906773545
 30
0.0
 11
-67.5988006341167
 21
-44.9335674001476
 31
0.0
  0
LINE
  5
    51
  8
0
  6
CONTINUOUS
 62
     7
 10
-67.5988006341167
 20
25.1074428000841
 30
0.0
 11
-68.1197450640684
 21
28.061866077291
 31
0.0
  0
LINE
  5
    52
  8
0
  6
CONTINUOUS
 62
     7
 10
-68.1197450640684
 20
28.061866077291
 30
0.0
 11
-68.6406894940201
 21
25.1074428000841
 31
0.0
  0
ENDBLK
  5
    53
  8
0
  6
CONTINUOUS
 62
     7
  0
BLOCK
  5
    54
  8
0
  6
CONTINUOUS
 62
     7
  2
*UDIM479
 70
    65
 10
0.0
 20
0.0
 30
0.0
  3
*UDIM479
  0
TEXT
  5
    55
  8
0
  6
CONTINUOUS
 62
     7
 10
-82.0953785048472
 20
-122.238155027473
 30
0.0
 40
3.00000001532688
  1
7
 50
89.9999999480344
 41
0.933333333333333
 72
     1
 11
-83.5953785115144
 21
-121.138155020494
 31
0.0
 73
     2
  0
LINE
  5
    56
  8
0
  6
CONTINUOUS
 62
     7
 10
-58.7681655931845
 20
-116.488119283551
 30
0.0
 11
-83.095378503851
 21
-116.488119283551
 31
0.0
  0
LINE
  5
    57
  8
0
  6
CONTINUOUS
 62
     7
 10
-58.8556722765169
 20
-114.037957735657
 30
0.0
 11
-83.095378503851
 21
-114.037957735657
 31
0.0
  0
LINE
  5
    58
  8
0
  6
CONTINUOUS
 62
     7
 10
-81.095378503851
 20
-122.238155026114
 30
0.0
 11
-81.095378503851
 21
-114.037957735657
 31
0.0
  0
LINE
  5
    59
  8
0
  6
CONTINUOUS
 62
     7
 10
-80.5744340738993
 20
-119.442542560758
 30
0.0
 11
-81.095378503851
 21
-116.488119283551
 31
0.0
  0
LINE
  5
    5A
  8
0
  6
CONTINUOUS
 62
     7
 10
-81.095378503851
 20
-116.488119283551
 30
0.0
 11
-81.6163229338026
 21
-119.442542560758
 31
0.0
  0
LINE
  5
    5B
  8
0
  6
CONTINUOUS
 62
     7
 10
-81.6163229338026
 20
-111.083534458451
 30
0.0
 11
-81.095378503851
 21
-114.037957735657
 31
0.0
  0
LINE
  5
    5C
  8
0
  6
CONTINUOUS
 62
     7
 10
-81.095378503851
 20
-114.037957735657
 30
0.0
 11
-80.5744340738993
 21
-111.083534458451
 31
0.0
  0
ENDBLK
  5
    5D
  8
0
  6
CONTINUOUS
 62
     7
  0
BLOCK
  5
    5E
  8
0
  6
CONTINUOUS
 62
     7
  2
*UDIM480
 70
    65
 10
0.0
 20
0.0
 30
0.0
  3
*UDIM480
  0
TEXT
  5
    5F
  8
0
  6
CONTINUOUS
 62
     7
 10
-82.0953785073832
 20
-47.1631372591583
 30
0.0
 40
3.00000001532688
  1
406
 50
89.9999999480344
 41
0.933333333333334
 72
     1
 11
-83.5953785115144
 21
-43.2631372378748
 31
0.0
 73
     2
  0
LINE
  5
    60
  8
0
  6
CONTINUOUS
 62
     7
 10
13.9611568703502
 20
28.0619748372854
 30
0.0
 11
-83.095378503851
 21
28.0619748372854
 31
0.0
  0
LINE
  5
    61
  8
0
  6
CONTINUOUS
 62
     7
 10
-81.095378503851
 20
-114.037957735657
 30
0.0
 11
-81.095378503851
 21
28.0619748372854
 31
0.0
  0
LINE
  5
    62
  8
0
  6
CONTINUOUS
 62
     7
 10
-81.6163229338026
 20
-111.083534458451
 30
0.0
 11
-81.095378503851
 21
-114.037957735657
 31
0.0
  0
LINE
  5
    63
  8
0
  6
CONTINUOUS
 62
     7
 10
-81.095378503851
 20
-114.037957735657
 30
0.0
 11
-80.5744340738993
 21
-111.083534458451
 31
0.0
  0
LINE
  5
    64
  8
0
  6
CONTINUOUS
 62
     7
 10
-80.5744340738993
 20
25.1075515600784
 30
0.0
 11
-81.095378503851
 21
28.0619748372854
 31
0.0
  0
LINE
  5
    65
  8
0
  6
CONTINUOUS
 62
     7
 10
-81.095378503851
 20
28.0619748372854
 30
0.0
 11
-81.6163229338026
 21
25.1075515600784
 31
0.0
  0
ENDBLK
  5
    66
  8
0
  6
CONTINUOUS
 62
     7
  0
BLOCK
  5
    67
  8
0
  6
CONTINUOUS
 62
     7
  2
*UDIM481
 70
    65
 10
0.0
 20
0.0
 30
0.0
  3
*UDIM481
  0
TEXT
  5
    68
  8
0
  6
CONTINUOUS
 62
     7
 10
-82.0953785048472
 20
33.5118346079124
 30
0.0
 40
3.00000001532688
  1
7
 50
89.9999999480344
 41
0.933333333333333
 72
     1
 11
-83.5953785115144
 21
34.6118346148908
 31
0.0
 73
     2
  0
LINE
  5
    69
  8
0
  6
CONTINUOUS
 62
     7
 10
13.8566068862522
 20
30.5119744304159
 30
0.0
 11
-83.095378503851
 21
30.5119744304159
 31
0.0
  0
LINE
  5
    6A
  8
0
  6
CONTINUOUS
 62
     7
 10
-81.095378503851
 20
28.0619748372854
 30
0.0
 11
-81.095378503851
 21
35.7118346205107
 31
0.0
  0
LINE
  5
    6B
  8
0
  6
CONTINUOUS
 62
     7
 10
-80.5744340738993
 20
25.1075515600784
 30
0.0
 11
-81.095378503851
 21
28.0619748372854
 31
0.0
  0
LINE
  5
    6C
  8
0
  6
CONTINUOUS
 62
     7
 10
-81.095378503851
 20
28.0619748372854
 30
0.0
 11
-81.6163229338026
 21
25.1075515600784
 31
0.0
  0
LINE
  5
    6D
  8
0
  6
CONTINUOUS
 62
     7
 10
-81.6163229338026
 20
33.4663977076228
 30
0.0
 11
-81.095378503851
 21
30.5119744304159
 31
0.0
  0
LINE
  5
    6E
  8
0
  6
CONTINUOUS
 62
     7
 10
-81.095378503851
 20
30.5119744304159
 30
0.0
 11
-80.5744340738993
 21
33.4663977076228
 31
0.0
  0
ENDBLK
  5
    6F
  8
0
  6
CONTINUOUS
 62
     7
  0
BLOCK
  5
    70
  8
0
  6
CONTINUOUS
 62
     7
  2
*UDIM482
 70
    65
 10
0.0
 20
0.0
 30
0.0
  3
*UDIM482
  0
TEXT
  5
    71
  8
0
  6
CONTINUOUS
 62
     7
 10
-25.6308852934568
 20
-121.547171125041
 30
0.0
 40
3.00000001532688
  1
140
 50
359.999999948034
 41
0.933333333333334
 72
     1
 11
-21.730885272179
 21
-120.047171120895
 31
0.0
 73
     2
  0
LINE
  5
    72
  8
0
  6
CONTINUOUS
 62
     7
 10
3.04410874843597
 20
-57.9004683941603
 30
0.0
 11
3.04410874843597
 21
-124.547171128558
 31
0.0
  0
LINE
  5
    73
  8
0
  6
CONTINUOUS
 62
     7
 10
-45.9558924661989
 20
-57.9004618872297
 30
0.0
 11
-45.9558816223417
 21
-124.547171128558
 31
0.0
  0
LINE
  5
    74
  8
0
  6
CONTINUOUS
 62
     7
 10
3.04410874843597
 20
-122.547171128558
 30
0.0
 11
-45.9558819477549
 21
-122.547171128558
 31
0.0
  0
LINE
  5
    75
  8
0
  6
CONTINUOUS
 62
     7
 10
8.96854712290107E-2
 20
-123.06811555851
 30
0.0
 11
3.04410874843597
 21
-122.547171128558
 31
0.0
  0
LINE
  5
    76
  8
0
  6
CONTINUOUS
 62
     7
 10
3.04410874843597
 20
-122.547171128558
 30
0.0
 11
8.96854712290107E-2
 21
-122.026226698606
 31
0.0
  0
LINE
  5
    77
  8
0
  6
CONTINUOUS
 62
     7
 10
-43.0014586705479
 20
-122.026226698607
 30
0.0
 11
-45.9558819477549
 21
-122.547171128558
 31
0.0
  0
LINE
  5
    78
  8
0
  6
CONTINUOUS
 62
     7
 10
-45.9558819477549
 20
-122.547171128558
 30
0.0
 11
-43.0014586705479
 21
-123.06811555851
 31
0.0
  0
ENDBLK
  5
    79
  8
0
  6
CONTINUOUS
 62
     7
  0
BLOCK
  5
    7A
  8
0
  6
CONTINUOUS
 62
     7
  2
*UDIM483
 70
    65
 10
0.0
 20
0.0
 30
0.0
  3
*UDIM483
  0
TEXT
  5
    7B
  8
0
  6
CONTINUOUS
 62
     7
 10
-11.9808899336285
 20
36.9242047405125
 30
0.0
 40
3.00000001532688
  1
70
 50
359.999999948034
 41
0.933333333333333
 72
     1
 11
-9.48088991950321
 21
38.4242047459211
 31
0.0
 73
     2
  0
LINE
  5
    7C
  8
0
  6
CONTINUOUS
 62
     7
 10
3.04411910836007
 20
35.5246801479613
 30
0.0
 11
3.04414396725269
 21
37.9242047381504
 31
0.0
  0
LINE
  5
    7D
  8
0
  6
CONTINUOUS
 62
     7
 10
3.0441232474045
 20
35.9242047382577
 30
0.0
 11
-21.4558409034459
 21
35.9242047382577
 31
0.0
  0
LINE
  5
    7E
  8
0
  6
CONTINUOUS
 62
     7
 10
8.96999701975325E-2
 20
35.403260308306
 30
0.0
 11
3.0441232474045
 21
35.9242047382577
 31
0.0
  0
LINE
  5
    7F
  8
0
  6
CONTINUOUS
 62
     7
 10
3.0441232474045
 20
35.9242047382577
 30
0.0
 11
8.96999701975325E-2
 21
36.4451491682094
 31
0.0
  0
LINE
  5
    80
  8
0
  6
CONTINUOUS
 62
     7
 10
-18.5014176262389
 20
36.4451491682094
 30
0.0
 11
-21.4558409034459
 21
35.9242047382577
 31
0.0
  0
LINE
  5
    81
  8
0
  6
CONTINUOUS
 62
     7
 10
-21.4558409034459
 20
35.9242047382577
 30
0.0
 11
-18.5014176262389
 21
35.403260308306
 31
0.0
  0
ENDBLK
  5
    82
  8
0
  6
CONTINUOUS
 62
     7
  0
BLOCK
  5
    83
  8
0
  6
CONTINUOUS
 62
     7
  2
*UDIM484
 70
    65
 10
0.0
 20
0.0
 30
0.0
  3
*UDIM484
  0
TEXT
  5
    84
  8
0
  6
CONTINUOUS
 62
     7
 10
-36.4808860771322
 20
36.9242047405125
 30
0.0
 40
3.00000001532688
  1
70
 50
359.999999948034
 41
0.933333333333333
 72
     1
 11
-33.9808860630069
 21
38.4242047459211
 31
0.0
 73
     2
  0
LINE
  5
    85
  8
0
  6
CONTINUOUS
 62
     7
 10
-45.9558758848498
 20
-9.26314050767442
 30
0.0
 11
-45.955387027535
 21
37.9242047381504
 31
0.0
  0
LINE
  5
    86
  8
0
  6
CONTINUOUS
 62
     7
 10
-21.4558409034459
 20
35.9242047382577
 30
0.0
 11
-45.9554077473832
 21
35.9242047382577
 31
0.0
  0
LINE
  5
    87
  8
0
  6
CONTINUOUS
 62
     7
 10
-24.4102641806528
 20
35.403260308306
 30
0.0
 11
-21.4558409034459
 21
35.9242047382577
 31
0.0
  0
LINE
  5
    88
  8
0
  6
CONTINUOUS
 62
     7
 10
-21.4558409034459
 20
35.9242047382577
 30
0.0
 11
-24.4102641806528
 21
36.4451491682094
 31
0.0
  0
LINE
  5
    89
  8
0
  6
CONTINUOUS
 62
     7
 10
-43.0009844701762
 20
36.4451491682094
 30
0.0
 11
-45.9554077473832
 21
35.9242047382577
 31
0.0
  0
LINE
  5
    8A
  8
0
  6
CONTINUOUS
 62
     7
 10
-45.9554077473832
 20
35.9242047382577
 30
0.0
 11
-43.0009844701762
 21
35.403260308306
 31
0.0
  0
ENDBLK
  5
    8B
  8
0
  6
CONTINUOUS
 62
     7
  0
BLOCK
  5
    8C
  8
0
  6
CONTINUOUS
 62
     7
  2
*UDIM485
 70
    65
 10
0.0
 20
0.0
 30
0.0
  3
*UDIM485
  0
TEXT
  5
    8D
  8
0
  6
CONTINUOUS
 62
     7
 10
-25.6309463858756
 20
-128.323218711477
 30
0.0
 40
3.00000001532688
  1
210
 50
359.999999948034
 41
0.933333333333334
 72
     1
 11
-21.7309463645978
 21
-126.823218707331
 31
0.0
 73
     2
  0
LINE
  5
    8E
  8
0
  6
CONTINUOUS
 62
     7
 10
15.2940940897991
 20
-89.4879624962809
 30
0.0
 11
15.294080957023
 21
-131.323218714994
 31
0.0
  0
LINE
  5
    8F
  8
0
  6
CONTINUOUS
 62
     7
 10
-58.2058722139699
 20
-89.4879624962809
 30
0.0
 11
-58.205885346746
 21
-131.323218714994
 31
0.0
  0
LINE
  5
    90
  8
0
  6
CONTINUOUS
 62
     7
 10
15.2940815848559
 20
-129.323218714994
 30
0.0
 11
-58.2058847189131
 21
-129.323218714994
 31
0.0
  0
LINE
  5
    91
  8
0
  6
CONTINUOUS
 62
     7
 10
12.339658307649
 20
-129.844163144946
 30
0.0
 11
15.2940815848559
 21
-129.323218714994
 31
0.0
  0
LINE
  5
    92
  8
0
  6
CONTINUOUS
 62
     7
 10
15.2940815848559
 20
-129.323218714994
 30
0.0
 11
12.339658307649
 21
-128.802274285043
 31
0.0
  0
LINE
  5
    93
  8
0
  6
CONTINUOUS
 62
     7
 10
-55.2514614417061
 20
-128.802274285043
 30
0.0
 11
-58.2058847189131
 21
-129.323218714994
 31
0.0
  0
LINE
  5
    94
  8
0
  6
CONTINUOUS
 62
     7
 10
-58.2058847189131
 20
-129.323218714994
 30
0.0
 11
-55.2514614417061
 21
-129.844163144946
 31
0.0
  0
ENDBLK
  5
    95
  8
0
  6
CONTINUOUS
 62
     7
  0
BLOCK
  5
    96
  8
0
  6
CONTINUOUS
 62
     7
  2
*HATCH325
 70
    65
 10
0.0
 20
0.0
 30
0.0
  3
*HATCH325
  0
LINE
  5
    97
  8
0
  6
CONTINUOUS
 62
    52
 10
148.096954345703
 20
228.707122802734
 30
0.0
 11
146.5
 21
227.110153198242
 31
0.0
  0
LINE
  5
    98
  8
0
  6
CONTINUOUS
 62
    52
 10
148.5
 20
224.867523193359
 30
0.0
 11
146.5
 21
222.867523193359
 31
0.0
  0
LINE
  5
    99
  8
0
  6
CONTINUOUS
 62
    52
 10
148.5
 20
220.624877929688
 30
0.0
 11
146.5
 21
218.624877929688
 31
0.0
  0
LINE
  5
    9A
  8
0
  6
CONTINUOUS
 62
    52
 10
148.5
 20
216.382232666016
 30
0.0
 11
146.5
 21
214.382232666016
 31
0.0
  0
LINE
  5
    9B
  8
0
  6
CONTINUOUS
 62
    52
 10
148.5
 20
212.139587402344
 30
0.0
 11
146.5
 21
210.139587402344
 31
0.0
  0
LINE
  5
    9C
  8
0
  6
CONTINUOUS
 62
    52
 10
148.5
 20
207.896942138672
 30
0.0
 11
146.5
 21
205.896942138672
 31
0.0
  0
LINE
  5
    9D
  8
0
  6
CONTINUOUS
 62
    52
 10
148.5
 20
203.654296875
 30
0.0
 11
146.5
 21
201.654296875
 31
0.0
  0
LINE
  5
    9E
  8
0
  6
CONTINUOUS
 62
    52
 10
148.5
 20
199.411651611328
 30
0.0
 11
146.5
 21
197.411651611328
 31
0.0
  0
LINE
  5
    9F
  8
0
  6
CONTINUOUS
 62
    52
 10
148.5
 20
195.169006347656
 30
0.0
 11
146.5
 21
193.169006347656
 31
0.0
  0
LINE
  5
    A0
  8
0
  6
CONTINUOUS
 62
    52
 10
148.5
 20
190.926361083984
 30
0.0
 11
146.5
 21
188.926361083984
 31
0.0
  0
LINE
  5
    A1
  8
0
  6
CONTINUOUS
 62
    52
 10
148.5
 20
186.683715820313
 30
0.0
 11
146.5
 21
184.683715820313
 31
0.0
  0
LINE
  5
    A2
  8
0
  6
CONTINUOUS
 62
    52
 10
148.5
 20
182.441070556641
 30
0.0
 11
146.5
 21
180.441070556641
 31
0.0
  0
LINE
  5
    A3
  8
0
  6
CONTINUOUS
 62
    52
 10
148.5
 20
178.198425292969
 30
0.0
 11
146.5
 21
176.198425292969
 31
0.0
  0
LINE
  5
    A4
  8
0
  6
CONTINUOUS
 62
    52
 10
148.5
 20
173.955780029297
 30
0.0
 11
146.5
 21
171.955780029297
 31
0.0
  0
LINE
  5
    A5
  8
0
  6
CONTINUOUS
 62
    52
 10
148.5
 20
169.713134765625
 30
0.0
 11
146.5
 21
167.713134765625
 31
0.0
  0
LINE
  5
    A6
  8
0
  6
CONTINUOUS
 62
    52
 10
148.5
 20
165.470489501953
 30
0.0
 11
146.5
 21
163.470489501953
 31
0.0
  0
LINE
  5
    A7
  8
0
  6
CONTINUOUS
 62
    52
 10
148.5
 20
161.227844238281
 30
0.0
 11
146.5
 21
159.227844238281
 31
0.0
  0
LINE
  5
    A8
  8
0
  6
CONTINUOUS
 62
    52
 10
148.5
 20
156.985198974609
 30
0.0
 11
146.5
 21
154.985198974609
 31
0.0
  0
LINE
  5
    A9
  8
0
  6
CONTINUOUS
 62
    52
 10
148.5
 20
152.742553710938
 30
0.0
 11
146.5
 21
150.742553710938
 31
0.0
  0
ENDBLK
  5
    AA
  8
0
  6
CONTINUOUS
 62
     7
  0
BLOCK
  5
    AB
  8
0
  6
CONTINUOUS
 62
     7
  2
*HATCH326
 70
    65
 10
0.0
 20
0.0
 30
0.0
  3
*HATCH326
  0
LINE
  5
    AC
  8
0
  6
CONTINUOUS
 62
    52
 10
148.5
 20
142.136032104492
 30
0.0
 11
146.5
 21
140.136032104492
 31
0.0
  0
LINE
  5
    AD
  8
0
  6
CONTINUOUS
 62
    52
 10
148.5
 20
137.89338684082
 30
0.0
 11
146.5
 21
135.89338684082
 31
0.0
  0
LINE
  5
    AE
  8
0
  6
CONTINUOUS
 62
    52
 10
148.5
 20
133.650741577148
 30
0.0
 11
146.5
 21
131.650741577148
 31
0.0
  0
ENDBLK
  5
    AF
  8
0
  6
CONTINUOUS
 62
     7
  0
BLOCK
  5
    B0
  8
0
  6
CONTINUOUS
 62
     7
  2
*HATCH327
 70
    65
 10
0.0
 20
0.0
 30
0.0
  3
*HATCH327
  0
LINE
  5
    B1
  8
0
  6
CONTINUOUS
 62
    52
 10
148.5
 20
19.0994529724121
 30
0.0
 11
146.5
 21
17.0994529724121
 31
0.0
  0
LINE
  5
    B2
  8
0
  6
CONTINUOUS
 62
    52
 10
148.5
 20
14.8568115234375
 30
0.0
 11
146.5
 21
12.8568115234375
 31
0.0
  0
LINE
  5
    B3
  8
0
  6
CONTINUOUS
 62
    52
 10
148.5
 20
10.6141700744629
 30
0.0
 11
146.5
 21
8.61417007446289
 31
0.0
  0
ENDBLK
  5
    B4
  8
0
  6
CONTINUOUS
 62
     7
  0
BLOCK
  5
    B5
  8
0
  6
CONTINUOUS
 62
     7
  2
*HATCH328
 70
    65
 10
0.0
 20
0.0
 30
0.0
  3
*HATCH328
  0
LINE
  5
    B6
  8
0
  6
CONTINUOUS
 62
    52
 10
148.5
 20
7.57034495472908E-3
 30
0.0
 11
146.5
 21
-1.99242949485779
 31
0.0
  0
LINE
  5
    B7
  8
0
  6
CONTINUOUS
 62
    52
 10
148.5
 20
-4.23507022857666
 30
0.0
 11
146.5
 21
-6.2350697517395
 31
0.0
  0
LINE
  5
    B8
  8
0
  6
CONTINUOUS
 62
    52
 10
148.5
 20
-8.47771072387695
 30
0.0
 11
146.5
 21
-10.477710723877
 31
0.0
  0
LINE
  5
    B9
  8
0
  6
CONTINUOUS
 62
    52
 10
148.5
 20
-12.7203521728516
 30
0.0
 11
146.5
 21
-14.7203521728516
 31
0.0
  0
LINE
  5
    BA
  8
0
  6
CONTINUOUS
 62
    52
 10
148.5
 20
-16.9629936218262
 30
0.0
 11
146.5
 21
-18.9629936218262
 31
0.0
  0
LINE
  5
    BB
  8
0
  6
CONTINUOUS
 62
    52
 10
148.5
 20
-21.2056350708008
 30
0.0
 11
146.5
 21
-23.2056350708008
 31
0.0
  0
LINE
  5
    BC
  8
0
  6
CONTINUOUS
 62
    52
 10
148.5
 20
-25.4482765197754
 30
0.0
 11
146.5
 21
-27.4482765197754
 31
0.0
  0
LINE
  5
    BD
  8
0
  6
CONTINUOUS
 62
    52
 10
148.5
 20
-29.69091796875
 30
0.0
 11
146.5
 21
-31.69091796875
 31
0.0
  0
LINE
  5
    BE
  8
0
  6
CONTINUOUS
 62
    52
 10
148.5
 20
-33.9335594177246
 30
0.0
 11
146.5
 21
-35.9335556030273
 31
0.0
  0
LINE
  5
    BF
  8
0
  6
CONTINUOUS
 62
    52
 10
148.5
 20
-38.176197052002
 30
0.0
 11
146.5
 21
-40.1761932373047
 31
0.0
  0
LINE
  5
    C0
  8
0
  6
CONTINUOUS
 62
    52
 10
148.5
 20
-42.4188346862793
 30
0.0
 11
146.5
 21
-44.418830871582
 31
0.0
  0
LINE
  5
    C1
  8
0
  6
CONTINUOUS
 62
    52
 10
148.5
 20
-46.6614723205566
 30
0.0
 11
146.5
 21
-48.6614685058594
 31
0.0
  0
LINE
  5
    C2
  8
0
  6
CONTINUOUS
 62
    52
 10
148.5
 20
-50.904109954834
 30
0.0
 11
146.5
 21
-52.9041061401367
 31
0.0
  0
LINE
  5
    C3
  8
0
  6
CONTINUOUS
 62
    52
 10
148.5
 20
-55.1467475891113
 30
0.0
 11
146.5
 21
-57.1467437744141
 31
0.0
  0
LINE
  5
    C4
  8
0
  6
CONTINUOUS
 62
    52
 10
148.5
 20
-59.3893852233887
 30
0.0
 11
146.5
 21
-61.3893814086914
 31
0.0
  0
LINE
  5
    C5
  8
0
  6
CONTINUOUS
 62
    52
 10
148.5
 20
-63.632022857666
 30
0.0
 11
146.5
 21
-65.6320190429688
 31
0.0
  0
LINE
  5
    C6
  8
0
  6
CONTINUOUS
 62
    52
 10
148.5
 20
-67.8746643066406
 30
0.0
 11
146.5
 21
-69.8746643066406
 31
0.0
  0
LINE
  5
    C7
  8
0
  6
CONTINUOUS
 62
    52
 10
148.5
 20
-72.1173095703125
 30
0.0
 11
146.5
 21
-74.1173095703125
 31
0.0
  0
LINE
  5
    C8
  8
0
  6
CONTINUOUS
 62
    52
 10
148.5
 20
-76.3599548339844
 30
0.0
 11
146.5
 21
-78.3599548339844
 31
0.0
  0
LINE
  5
    C9
  8
0
  6
CONTINUOUS
 62
    52
 10
148.5
 20
-80.6026000976563
 30
0.0
 11
146.5
 21
-82.6026000976563
 31
0.0
  0
LINE
  5
    CA
  8
0
  6
CONTINUOUS
 62
    52
 10
148.5
 20
-84.8452453613281
 30
0.0
 11
146.5
 21
-86.8452453613281
 31
0.0
  0
LINE
  5
    CB
  8
0
  6
CONTINUOUS
 62
    52
 10
148.5
 20
-89.087890625
 30
0.0
 11
146.5
 21
-91.087890625
 31
0.0
  0
LINE
  5
    CC
  8
0
  6
CONTINUOUS
 62
    52
 10
148.5
 20
-93.3305358886719
 30
0.0
 11
146.5
 21
-95.3305358886719
 31
0.0
  0
LINE
  5
    CD
  8
0
  6
CONTINUOUS
 62
    52
 10
148.5
 20
-97.5731811523438
 30
0.0
 11
146.5
 21
-99.5731811523438
 31
0.0
  0
ENDBLK
  5
    CE
  8
0
  6
CONTINUOUS
 62
     7
  0
BLOCK
  5
    CF
  8
0
  6
CONTINUOUS
 62
     7
  2
*UDIM486
 70
    65
 10
0.0
 20
0.0
 30
0.0
  3
*UDIM486
  0
TEXT
  5
    D0
  8
0
  6
CONTINUOUS
 62
     7
 10
80.572490007111
 20
-163.759588232555
 30
0.0
 40
3.00000001532688
  1
85
 41
0.933333333333333
 72
     1
 11
83.0724900198834
 21
-162.259588224892
 31
0.0
 73
     2
  0
LINE
  5
    D1
  8
0
  6
CONTINUOUS
 62
     7
 10
68.4724914431572
 20
-107.862989136568
 30
0.0
 11
68.4724914431572
 21
-166.759588232555
 31
0.0
  0
LINE
  5
    D2
  8
0
  6
CONTINUOUS
 62
     7
 10
98.2224884033203
 20
-122.087844737152
 30
0.0
 11
98.2224884033203
 21
-166.759588232555
 31
0.0
  0
LINE
  5
    D3
  8
0
  6
CONTINUOUS
 62
     7
 10
68.4724914431572
 20
-164.759588232555
 30
0.0
 11
98.2224884033203
 21
-164.759588232555
 31
0.0
  0
LINE
  5
    D4
  8
0
  6
CONTINUOUS
 62
     7
 10
71.4269147203642
 20
-164.238643802603
 30
0.0
 11
68.4724914431572
 21
-164.759588232555
 31
0.0
  0
LINE
  5
    D5
  8
0
  6
CONTINUOUS
 62
     7
 10
68.4724914431572
 20
-164.759588232555
 30
0.0
 11
71.4269147203642
 21
-165.280532662507
 31
0.0
  0
LINE
  5
    D6
  8
0
  6
CONTINUOUS
 62
     7
 10
95.2680651261134
 20
-165.280532662507
 30
0.0
 11
98.2224884033203
 21
-164.759588232555
 31
0.0
  0
LINE
  5
    D7
  8
0
  6
CONTINUOUS
 62
     7
 10
98.2224884033203
 20
-164.759588232555
 30
0.0
 11
95.2680651261134
 21
-164.238643802603
 31
0.0
  0
ENDBLK
  5
    D8
  8
0
  6
CONTINUOUS
 62
     7
  0
BLOCK
  5
    D9
  8
0
  6
CONTINUOUS
 62
     7
  2
*UDIM487
 70
    65
 10
0.0
 20
0.0
 30
0.0
  3
*UDIM487
  0
TEXT
  5
    DA
  8
0
  6
CONTINUOUS
 62
     7
 10
128.785573329677
 20
-163.759588232555
 30
0.0
 40
3.00000001532688
  1
214,5
 41
0.933333333333333
 72
     1
 11
135.485573363907
 21
-162.259588224892
 31
0.0
 73
     2
  0
LINE
  5
    DB
  8
0
  6
CONTINUOUS
 62
     7
 10
173.298654584729
 20
-52.8998788086924
 30
0.0
 11
173.298654584729
 21
-166.759588232555
 31
0.0
  0
LINE
  5
    DC
  8
0
  6
CONTINUOUS
 62
     7
 10
98.2224884033203
 20
-164.759588232555
 30
0.0
 11
173.298654584729
 21
-164.759588232555
 31
0.0
  0
LINE
  5
    DD
  8
0
  6
CONTINUOUS
 62
     7
 10
101.176911680527
 20
-164.238643802603
 30
0.0
 11
98.2224884033203
 21
-164.759588232555
 31
0.0
  0
LINE
  5
    DE
  8
0
  6
CONTINUOUS
 62
     7
 10
98.2224884033203
 20
-164.759588232555
 30
0.0
 11
101.176911680527
 21
-165.280532662507
 31
0.0
  0
LINE
  5
    DF
  8
0
  6
CONTINUOUS
 62
     7
 10
170.344231307522
 20
-165.280532662507
 30
0.0
 11
173.298654584729
 21
-164.759588232555
 31
0.0
  0
LINE
  5
    E0
  8
0
  6
CONTINUOUS
 62
     7
 10
173.298654584729
 20
-164.759588232555
 30
0.0
 11
170.344231307522
 21
-164.238643802603
 31
0.0
  0
ENDBLK
  5
    E1
  8
0
  6
CONTINUOUS
 62
     7
  0
BLOCK
  5
    E2
  8
0
  6
CONTINUOUS
 62
     7
  2
*UDIM488
 70
    65
 10
0.0
 20
0.0
 30
0.0
  3
*UDIM488
  0
TEXT
  5
    E3
  8
0
  6
CONTINUOUS
 62
     7
 10
86.5385541635515
 20
-121.849057846979
 30
0.0
 40
3.00000001532688
  1
11
 41
0.933333333333333
 72
     1
 11
89.0385541763239
 21
-120.349057839316
 31
0.0
 73
     2
  0
LINE
  5
    E4
  8
0
  6
CONTINUOUS
 62
     7
 10
79.1474903523922
 20
-102.962968467015
 30
0.0
 11
79.1474903523922
 21
-124.849057846979
 31
0.0
  0
LINE
  5
    E5
  8
0
  6
CONTINUOUS
 62
     7
 10
82.9974899590015
 20
-102.962968467015
 30
0.0
 11
82.9974899590015
 21
-124.849057846979
 31
0.0
  0
LINE
  5
    E6
  8
0
  6
CONTINUOUS
 62
     7
 10
79.1474903523922
 20
-122.849057846979
 30
0.0
 11
91.5385541890963
 21
-122.849057846979
 31
0.0
  0
LINE
  5
    E7
  8
0
  6
CONTINUOUS
 62
     7
 10
76.1930670751852
 20
-123.370002276931
 30
0.0
 11
79.1474903523922
 21
-122.849057846979
 31
0.0
  0
LINE
  5
    E8
  8
0
  6
CONTINUOUS
 62
     7
 10
79.1474903523922
 20
-122.849057846979
 30
0.0
 11
76.1930670751852
 21
-122.328113417027
 31
0.0
  0
LINE
  5
    E9
  8
0
  6
CONTINUOUS
 62
     7
 10
85.9519132362085
 20
-122.328113417027
 30
0.0
 11
82.9974899590015
 21
-122.849057846979
 31
0.0
  0
LINE
  5
    EA
  8
0
  6
CONTINUOUS
 62
     7
 10
82.9974899590015
 20
-122.849057846979
 30
0.0
 11
85.9519132362085
 21
-123.370002276931
 31
0.0
  0
ENDBLK
  5
    EB
  8
0
  6
CONTINUOUS
 62
     7
  0
BLOCK
  5
    EC
  8
0
  6
CONTINUOUS
 62
     7
  2
*UDIM489
 70
    65
 10
0.0
 20
0.0
 30
0.0
  3
*UDIM489
  0
TEXT
  5
    ED
  8
0
  6
CONTINUOUS
 62
     7
 10
59.947490329402
 20
-134.338570730964
 30
0.0
 40
3.00000001532688
  1
14
 41
0.933333333333333
 72
     1
 11
62.4474903421744
 21
-132.838570723301
 31
0.0
 73
     2
  0
LINE
  5
    EE
  8
0
  6
CONTINUOUS
 62
     7
 10
68.4724914431572
 20
-107.862989136568
 30
0.0
 11
68.4724914431572
 21
-137.338570730964
 31
0.0
  0
LINE
  5
    EF
  8
0
  6
CONTINUOUS
 62
     7
 10
73.3724909424782
 20
-97.8879689855758
 30
0.0
 11
73.3724909424782
 21
-137.338570730964
 31
0.0
  0
LINE
  5
    F0
  8
0
  6
CONTINUOUS
 62
     7
 10
59.947490329402
 20
-135.338570730964
 30
0.0
 11
73.3724909424782
 21
-135.338570730964
 31
0.0
  0
LINE
  5
    F1
  8
0
  6
CONTINUOUS
 62
     7
 10
65.5180681659502
 20
-135.859515160916
 30
0.0
 11
68.4724914431572
 21
-135.338570730964
 31
0.0
  0
LINE
  5
    F2
  8
0
  6
CONTINUOUS
 62
     7
 10
68.4724914431572
 20
-135.338570730964
 30
0.0
 11
65.5180681659502
 21
-134.817626301013
 31
0.0
  0
LINE
  5
    F3
  8
0
  6
CONTINUOUS
 62
     7
 10
76.3269142196851
 20
-134.817626301013
 30
0.0
 11
73.3724909424782
 21
-135.338570730964
 31
0.0
  0
LINE
  5
    F4
  8
0
  6
CONTINUOUS
 62
     7
 10
73.3724909424782
 20
-135.338570730964
 30
0.0
 11
76.3269142196851
 21
-135.859515160916
 31
0.0
  0
ENDBLK
  5
    F5
  8
0
  6
CONTINUOUS
 62
     7
  0
BLOCK
  5
    F6
  8
0
  6
CONTINUOUS
 62
     7
  2
*UDIM490
 70
    65
 10
0.0
 20
0.0
 30
0.0
  3
*UDIM490
  0
TEXT
  5
    F7
  8
0
  6
CONTINUOUS
 62
     7
 10
74.6938393650848
 20
-134.338570730964
 30
0.0
 40
3.00000001532688
  1
22
 41
0.933333333333333
 72
     1
 11
77.1938393778572
 21
-132.838570723301
 31
0.0
 73
     2
  0
LINE
  5
    F8
  8
0
  6
CONTINUOUS
 62
     7
 10
81.0724901556969
 20
-97.8879689855758
 30
0.0
 11
81.0724901556969
 21
-137.338570730964
 31
0.0
  0
LINE
  5
    F9
  8
0
  6
CONTINUOUS
 62
     7
 10
73.3724909424782
 20
-135.338570730964
 30
0.0
 11
81.0724901556969
 21
-135.338570730964
 31
0.0
  0
LINE
  5
    FA
  8
0
  6
CONTINUOUS
 62
     7
 10
70.4180676652712
 20
-135.859515160916
 30
0.0
 11
73.3724909424782
 21
-135.338570730964
 31
0.0
  0
LINE
  5
    FB
  8
0
  6
CONTINUOUS
 62
     7
 10
73.3724909424782
 20
-135.338570730964
 30
0.0
 11
70.4180676652712
 21
-134.817626301013
 31
0.0
  0
LINE
  5
    FC
  8
0
  6
CONTINUOUS
 62
     7
 10
84.0269134329038
 20
-134.817626301013
 30
0.0
 11
81.0724901556969
 21
-135.338570730964
 31
0.0
  0
LINE
  5
    FD
  8
0
  6
CONTINUOUS
 62
     7
 10
81.0724901556969
 20
-135.338570730964
 30
0.0
 11
84.0269134329038
 21
-135.859515160916
 31
0.0
  0
ENDBLK
  5
    FE
  8
0
  6
CONTINUOUS
 62
     7
  0
BLOCK
  5
    FF
  8
0
  6
CONTINUOUS
 62
     7
  2
*UDIM491
 70
    65
 10
0.0
 20
0.0
 30
0.0
  3
*UDIM491
  0
TEXT
  5
   100
  8
0
  6
CONTINUOUS
 62
     7
 10
52.7890620810776
 20
-100.887997477808
 30
0.0
 40
3.00000001532688
  1
50
 50
90.0
 41
0.933333333333333
 72
     1
 11
51.289062073411
 21
-98.3879974650372
 31
0.0
 73
     2
  0
LINE
  5
   101
  8
0
  6
CONTINUOUS
 62
     7
 10
67.4724984289827
 20
-106.862989136565
 30
0.0
 11
51.7890620810745
 21
-106.862989136565
 31
0.0
  0
LINE
  5
   102
  8
0
  6
CONTINUOUS
 62
     7
 10
67.4724914431572
 20
-89.3629909247061
 30
0.0
 11
51.7890620810745
 21
-89.3629909247061
 31
0.0
  0
LINE
  5
   103
  8
0
  6
CONTINUOUS
 62
     7
 10
53.7890620810745
 20
-106.862989136565
 30
0.0
 11
53.7890620810745
 21
-89.3629909247061
 31
0.0
  0
LINE
  5
   104
  8
0
  6
CONTINUOUS
 62
     7
 10
53.2681176511228
 20
-103.908565859358
 30
0.0
 11
53.7890620810745
 21
-106.862989136565
 31
0.0
  0
LINE
  5
   105
  8
0
  6
CONTINUOUS
 62
     7
 10
53.7890620810745
 20
-106.862989136565
 30
0.0
 11
54.3100065110261
 21
-103.908565859358
 31
0.0
  0
LINE
  5
   106
  8
0
  6
CONTINUOUS
 62
     7
 10
54.3100065110261
 20
-92.3174142019131
 30
0.0
 11
53.7890620810745
 21
-89.3629909247061
 31
0.0
  0
LINE
  5
   107
  8
0
  6
CONTINUOUS
 62
     7
 10
53.7890620810745
 20
-89.3629909247061
 30
0.0
 11
53.2681176511228
 21
-92.3174142019131
 31
0.0
  0
ENDBLK
  5
   108
  8
0
  6
CONTINUOUS
 62
     7
  0
BLOCK
  5
   109
  8
0
  6
CONTINUOUS
 62
     7
  2
*UDIM492
 70
    65
 10
0.0
 20
0.0
 30
0.0
  3
*UDIM492
  0
TEXT
  5
   10A
  8
0
  6
CONTINUOUS
 62
     7
 10
60.1684264851396
 20
-86.5195756522813
 30
0.0
 40
3.00000001532688
  1
22
 50
90.0
 41
0.933333333333333
 72
     1
 11
58.668426477473
 21
-84.0195756395108
 31
0.0
 73
     2
  0
LINE
  5
   10B
  8
0
  6
CONTINUOUS
 62
     7
 10
69.7474912106991
 20
-101.962968467015
 30
0.0
 11
59.1684264851365
 21
-101.962968467015
 31
0.0
  0
LINE
  5
   10C
  8
0
  6
CONTINUOUS
 62
     7
 10
69.7474912106991
 20
-94.2629692537967
 30
0.0
 11
59.1684264851365
 21
-94.2629692537967
 31
0.0
  0
LINE
  5
   10D
  8
0
  6
CONTINUOUS
 62
     7
 10
61.1684264851365
 20
-101.962968467015
 30
0.0
 11
61.1684264851365
 21
-81.5195756267384
 31
0.0
  0
LINE
  5
   10E
  8
0
  6
CONTINUOUS
 62
     7
 10
61.6893709150881
 20
-104.917391744222
 30
0.0
 11
61.1684264851365
 21
-101.962968467015
 31
0.0
  0
LINE
  5
   10F
  8
0
  6
CONTINUOUS
 62
     7
 10
61.1684264851365
 20
-101.962968467015
 30
0.0
 11
60.6474820551848
 21
-104.917391744222
 31
0.0
  0
LINE
  5
   110
  8
0
  6
CONTINUOUS
 62
     7
 10
60.6474820551848
 20
-91.3085459765897
 30
0.0
 11
61.1684264851365
 21
-94.2629692537967
 31
0.0
  0
LINE
  5
   111
  8
0
  6
CONTINUOUS
 62
     7
 10
61.1684264851365
 20
-94.2629692537967
 30
0.0
 11
61.6893709150881
 21
-91.3085459765897
 31
0.0
  0
ENDBLK
  5
   112
  8
0
  6
CONTINUOUS
 62
     7
  0
BLOCK
  5
   113
  8
0
  6
CONTINUOUS
 62
     7
  2
*UDIM493
 70
    65
 10
0.0
 20
0.0
 30
0.0
  3
*UDIM493
  0
TEXT
  5
   114
  8
0
  6
CONTINUOUS
 62
     7
 10
60.4920840601007
 20
0.812018383403399
 30
0.0
 40
3.00000001532688
  1
16
 50
90.0
 41
0.933333333333333
 72
     1
 11
58.9920840524341
 21
3.31201839617391
 31
0.0
 73
     2
  0
LINE
  5
   115
  8
0
  6
CONTINUOUS
 62
     7
 10
67.4724914431572
 20
9.33701949715667
 30
0.0
 11
59.4920840600976
 21
9.33701949715667
 31
0.0
  0
LINE
  5
   116
  8
0
  6
CONTINUOUS
 62
     7
 10
67.4724914431572
 20
14.9370189249521
 30
0.0
 11
59.4920840600976
 21
14.9370189249521
 31
0.0
  0
LINE
  5
   117
  8
0
  6
CONTINUOUS
 62
     7
 10
61.4920840600976
 20
0.812018383401522
 30
0.0
 11
61.4920840600976
 21
14.9370189249521
 31
0.0
  0
LINE
  5
   118
  8
0
  6
CONTINUOUS
 62
     7
 10
62.0130284900492
 20
6.38259621994972
 30
0.0
 11
61.4920840600976
 21
9.33701949715667
 31
0.0
  0
LINE
  5
   119
  8
0
  6
CONTINUOUS
 62
     7
 10
61.4920840600976
 20
9.33701949715667
 30
0.0
 11
60.9711396301459
 21
6.38259621994972
 31
0.0
  0
LINE
  5
   11A
  8
0
  6
CONTINUOUS
 62
     7
 10
60.9711396301459
 20
17.8914422021591
 30
0.0
 11
61.4920840600976
 21
14.9370189249521
 31
0.0
  0
LINE
  5
   11B
  8
0
  6
CONTINUOUS
 62
     7
 10
61.4920840600976
 20
14.9370189249521
 30
0.0
 11
62.0130284900492
 21
17.8914422021591
 31
0.0
  0
ENDBLK
  5
   11C
  8
0
  6
CONTINUOUS
 62
     7
  0
BLOCK
  5
   11D
  8
0
  6
CONTINUOUS
 62
     7
  2
*UDIM494
 70
    65
 10
0.0
 20
0.0
 30
0.0
  3
*UDIM494
  0
TEXT
  5
   11E
  8
0
  6
CONTINUOUS
 62
     7
 10
52.8106406769005
 20
-24.8505289334606
 30
0.0
 40
3.00000001532688
  1
171,5
 50
90.0
 41
0.933333333333333
 72
     1
 11
51.3106406692286
 21
-18.1505288992325
 31
0.0
 73
     2
  0
LINE
  5
   11F
  8
0
  6
CONTINUOUS
 62
     7
 10
179.603300854177
 20
-47.8880750331998
 30
0.0
 11
51.810640676892
 21
-47.8880750331998
 31
0.0
  0
LINE
  5
   120
  8
0
  6
CONTINUOUS
 62
     7
 10
98.0141550611718
 20
12.1370192110544
 30
0.0
 11
51.810640676892
 21
12.1370192110544
 31
0.0
  0
LINE
  5
   121
  8
0
  6
CONTINUOUS
 62
     7
 10
53.810640676892
 20
-47.8880750331998
 30
0.0
 11
53.810640676892
 21
12.1370192110544
 31
0.0
  0
LINE
  5
   122
  8
0
  6
CONTINUOUS
 62
     7
 10
53.2896962469404
 20
-44.9336517559928
 30
0.0
 11
53.810640676892
 21
-47.8880750331998
 31
0.0
  0
LINE
  5
   123
  8
0
  6
CONTINUOUS
 62
     7
 10
53.810640676892
 20
-47.8880750331998
 30
0.0
 11
54.3315851068437
 21
-44.9336517559928
 31
0.0
  0
LINE
  5
   124
  8
0
  6
CONTINUOUS
 62
     7
 10
54.3315851068437
 20
9.18259593384742
 30
0.0
 11
53.810640676892
 21
12.1370192110544
 31
0.0
  0
LINE
  5
   125
  8
0
  6
CONTINUOUS
 62
     7
 10
53.810640676892
 20
12.1370192110544
 30
0.0
 11
53.2896962469404
 21
9.18259593384742
 31
0.0
  0
ENDBLK
  5
   126
  8
0
  6
CONTINUOUS
 62
     7
  0
BLOCK
  5
   127
  8
0
  6
CONTINUOUS
 62
     7
  2
*UDIM495
 70
    65
 10
0.0
 20
0.0
 30
0.0
  3
*UDIM495
  0
TEXT
  5
   128
  8
0
  6
CONTINUOUS
 62
     7
 10
116.884985303709
 20
-153.952582398691
 30
0.0
 40
3.00000001532688
  1
146,5
 41
0.933333333333333
 72
     1
 11
123.584985337939
 21
-152.452582391028
 31
0.0
 73
     2
  0
LINE
  5
   129
  8
0
  6
CONTINUOUS
 62
     7
 10
98.2224884033203
 20
-122.087844737152
 30
0.0
 11
98.2224884033203
 21
-156.952582398691
 31
0.0
  0
LINE
  5
   12A
  8
0
  6
CONTINUOUS
 62
     7
 10
149.497483164072
 20
-108.135557076463
 30
0.0
 11
149.497483164072
 21
-156.952582398691
 31
0.0
  0
LINE
  5
   12B
  8
0
  6
CONTINUOUS
 62
     7
 10
98.2224884033203
 20
-154.952582398691
 30
0.0
 11
149.497483164072
 21
-154.952582398691
 31
0.0
  0
LINE
  5
   12C
  8
0
  6
CONTINUOUS
 62
     7
 10
101.176911680527
 20
-154.43163796874
 30
0.0
 11
98.2224884033203
 21
-154.952582398691
 31
0.0
  0
LINE
  5
   12D
  8
0
  6
CONTINUOUS
 62
     7
 10
98.2224884033203
 20
-154.952582398691
 30
0.0
 11
101.176911680527
 21
-155.473526828643
 31
0.0
  0
LINE
  5
   12E
  8
0
  6
CONTINUOUS
 62
     7
 10
146.543059886865
 20
-155.473526828643
 30
0.0
 11
149.497483164072
 21
-154.952582398691
 31
0.0
  0
LINE
  5
   12F
  8
0
  6
CONTINUOUS
 62
     7
 10
149.497483164072
 20
-154.952582398691
 30
0.0
 11
146.543059886865
 21
-154.43163796874
 31
0.0
  0
ENDBLK
  5
   130
  8
0
  6
CONTINUOUS
 62
     7
  0
BLOCK
  5
   131
  8
0
  6
CONTINUOUS
 62
     7
  2
*UDIM496
 70
    65
 10
0.0
 20
0.0
 30
0.0
  3
*UDIM496
  0
TEXT
  5
   132
  8
0
  6
CONTINUOUS
 62
     7
 10
153.197482048103
 20
-153.952582398691
 30
0.0
 40
3.00000001532688
  1
2
 41
0.933333333333333
 72
     1
 11
154.297482053723
 21
-152.452582391028
 31
0.0
 73
     2
  0
LINE
  5
   133
  8
0
  6
CONTINUOUS
 62
     7
 10
150.197483092546
 20
-107.932068725162
 30
0.0
 11
150.197483092546
 21
-156.952582398691
 31
0.0
  0
LINE
  5
   134
  8
0
  6
CONTINUOUS
 62
     7
 10
149.497483164072
 20
-154.952582398691
 30
0.0
 11
155.397482059343
 21
-154.952582398691
 31
0.0
  0
LINE
  5
   135
  8
0
  6
CONTINUOUS
 62
     7
 10
146.543059886865
 20
-155.473526828643
 30
0.0
 11
149.497483164072
 21
-154.952582398691
 31
0.0
  0
LINE
  5
   136
  8
0
  6
CONTINUOUS
 62
     7
 10
149.497483164072
 20
-154.952582398691
 30
0.0
 11
146.543059886865
 21
-154.43163796874
 31
0.0
  0
LINE
  5
   137
  8
0
  6
CONTINUOUS
 62
     7
 10
153.151906369753
 20
-154.43163796874
 30
0.0
 11
150.197483092546
 21
-154.952582398691
 31
0.0
  0
LINE
  5
   138
  8
0
  6
CONTINUOUS
 62
     7
 10
150.197483092546
 20
-154.952582398691
 30
0.0
 11
153.151906369753
 21
-155.473526828643
 31
0.0
  0
ENDBLK
  5
   139
  8
0
  6
CONTINUOUS
 62
     7
  0
BLOCK
  5
   13A
  8
0
  6
CONTINUOUS
 62
     7
  2
*UDIM497
 70
    65
 10
0.0
 20
0.0
 30
0.0
  3
*UDIM497
  0
TEXT
  5
   13B
  8
0
  6
CONTINUOUS
 62
     7
 10
115.484982776472
 20
-134.194348486179
 30
0.0
 40
3.00000001532688
  1
138,5
 41
0.933333333333333
 72
     1
 11
122.184982810702
 21
-132.694348478516
 31
0.0
 73
     2
  0
LINE
  5
   13C
  8
0
  6
CONTINUOUS
 62
     7
 10
98.2224884033203
 20
-107.862977260665
 30
0.0
 11
98.2224884033203
 21
-137.19434848618
 31
0.0
  0
LINE
  5
   13D
  8
0
  6
CONTINUOUS
 62
     7
 10
146.697478109599
 20
-75.3129662811757
 30
0.0
 11
146.697478109599
 21
-137.19434848618
 31
0.0
  0
LINE
  5
   13E
  8
0
  6
CONTINUOUS
 62
     7
 10
98.2224884033203
 20
-135.194348486179
 30
0.0
 11
146.697478109599
 21
-135.194348486179
 31
0.0
  0
LINE
  5
   13F
  8
0
  6
CONTINUOUS
 62
     7
 10
101.176911680527
 20
-134.673404056228
 30
0.0
 11
98.2224884033203
 21
-135.194348486179
 31
0.0
  0
LINE
  5
   140
  8
0
  6
CONTINUOUS
 62
     7
 10
98.2224884033203
 20
-135.194348486179
 30
0.0
 11
101.176911680527
 21
-135.715292916131
 31
0.0
  0
LINE
  5
   141
  8
0
  6
CONTINUOUS
 62
     7
 10
143.743054832392
 20
-135.715292916131
 30
0.0
 11
146.697478109599
 21
-135.194348486179
 31
0.0
  0
LINE
  5
   142
  8
0
  6
CONTINUOUS
 62
     7
 10
146.697478109599
 20
-135.194348486179
 30
0.0
 11
143.743054832392
 21
-134.673404056228
 31
0.0
  0
ENDBLK
  5
   143
  8
0
  6
CONTINUOUS
 62
     7
  0
BLOCK
  5
   144
  8
0
  6
CONTINUOUS
 62
     7
  2
*UDIM498
 70
    65
 10
0.0
 20
0.0
 30
0.0
  3
*UDIM498
  0
TEXT
  5
   145
  8
0
  6
CONTINUOUS
 62
     7
 10
45.2802261021119
 20
-47.1630064210115
 30
0.0
 40
3.00000001532688
  1
315
 50
90.0
 41
0.933333333333334
 72
     1
 11
43.7802260944436
 21
-43.2630064010885
 31
0.0
 73
     2
  0
LINE
  5
   146
  8
0
  6
CONTINUOUS
 62
     7
 10
98.6896848745216
 20
-98.1129769638496
 30
0.0
 11
44.2802261021074
 21
-98.1129440355809
 31
0.0
  0
LINE
  5
   147
  8
0
  6
CONTINUOUS
 62
     7
 10
98.0141550611719
 20
12.1370196523692
 30
0.0
 11
44.2802261021072
 21
12.1370433659509
 31
0.0
  0
LINE
  5
   148
  8
0
  6
CONTINUOUS
 62
     7
 10
46.280226102107
 20
-98.1129452459686
 30
0.0
 11
46.280226102107
 21
12.1370424833211
 31
0.0
  0
LINE
  5
   149
  8
0
  6
CONTINUOUS
 62
     7
 10
45.7592816721553
 20
-95.1585219687616
 30
0.0
 11
46.280226102107
 21
-98.1129452459686
 31
0.0
  0
LINE
  5
   14A
  8
0
  6
CONTINUOUS
 62
     7
 10
46.280226102107
 20
-98.1129452459686
 30
0.0
 11
46.8011705320587
 21
-95.1585219687616
 31
0.0
  0
LINE
  5
   14B
  8
0
  6
CONTINUOUS
 62
     7
 10
46.8011705320587
 20
9.18261920611417
 30
0.0
 11
46.280226102107
 21
12.1370424833211
 31
0.0
  0
LINE
  5
   14C
  8
0
  6
CONTINUOUS
 62
     7
 10
46.280226102107
 20
12.1370424833211
 30
0.0
 11
45.7592816721553
 21
9.18261920611417
 31
0.0
  0
ENDBLK
  5
   14D
  8
0
  6
CONTINUOUS
 62
     7
  0
BLOCK
  5
   14E
  8
0
  6
CONTINUOUS
 62
     7
  2
*UDIM499
 70
    65
 10
0.0
 20
0.0
 30
0.0
  3
*UDIM499
  0
TEXT
  5
   14F
  8
0
  6
CONTINUOUS
 62
     7
 10
185.772730362395
 20
-52.0629818879152
 30
0.0
 40
3.00000001532688
  1
105
 50
90.0
 41
0.933333333333334
 72
     1
 11
184.272730354726
 21
-48.1629818679921
 31
0.0
 73
     2
  0
LINE
  5
   150
  8
0
  6
CONTINUOUS
 62
     7
 10
150.497483164072
 20
-66.2629734257838
 30
0.0
 11
188.77273036239
 21
-66.2629854410146
 31
0.0
  0
LINE
  5
   151
  8
0
  6
CONTINUOUS
 62
     7
 10
150.497483164072
 20
-29.5129909268196
 30
0.0
 11
188.77273036239
 21
-29.5130029420503
 31
0.0
  0
LINE
  5
   152
  8
0
  6
CONTINUOUS
 62
     7
 10
186.77273036239
 20
-66.2629848131817
 30
0.0
 11
186.77273036239
 21
-29.5130023142173
 31
0.0
  0
LINE
  5
   153
  8
0
  6
CONTINUOUS
 62
     7
 10
186.251785932438
 20
-63.3085615359747
 30
0.0
 11
186.77273036239
 21
-66.2629848131817
 31
0.0
  0
LINE
  5
   154
  8
0
  6
CONTINUOUS
 62
     7
 10
186.77273036239
 20
-66.2629848131817
 30
0.0
 11
187.293674792341
 21
-63.3085615359747
 31
0.0
  0
LINE
  5
   155
  8
0
  6
CONTINUOUS
 62
     7
 10
187.293674792341
 20
-32.4674255914243
 30
0.0
 11
186.77273036239
 21
-29.5130023142173
 31
0.0
  0
LINE
  5
   156
  8
0
  6
CONTINUOUS
 62
     7
 10
186.77273036239
 20
-29.5130023142173
 30
0.0
 11
186.251785932438
 21
-32.4674255914243
 31
0.0
  0
ENDBLK
  5
   157
  8
0
  6
CONTINUOUS
 62
     7
  0
BLOCK
  5
   158
  8
0
  6
CONTINUOUS
 62
     7
  2
*UDIM500
 70
    65
 10
0.0
 20
0.0
 30
0.0
  3
*UDIM500
  0
TEXT
  5
   159
  8
0
  6
CONTINUOUS
 62
     7
 10
91.4224883602347
 20
-144.376326815908
 30
0.0
 40
3.00000001532688
  1
3
 41
0.933333333333333
 72
     1
 11
92.5224883658546
 21
-142.876326808245
 31
0.0
 73
     2
  0
TEXT
  5
   15A
  8
0
  6
CONTINUOUS
 62
     7
 10
88.6724883370741
 20
-144.376326815908
 30
0.0
 40
3.00000001532688
  1
_
 41
0.933333333333333
 72
     1
 11
89.772488342694
 21
-142.876326808245
 31
0.0
 73
     2
  0
LINE
  5
   15B
  8
0
  6
CONTINUOUS
 62
     7
 10
97.1724885106087
 20
-122.087844737152
 30
0.0
 11
97.1724885106087
 21
-147.376326815908
 31
0.0
  0
LINE
  5
   15C
  8
0
  6
CONTINUOUS
 62
     7
 10
98.2224884033203
 20
-122.087844737152
 30
0.0
 11
98.2224884033203
 21
-147.376326815908
 31
0.0
  0
LINE
  5
   15D
  8
0
  6
CONTINUOUS
 62
     7
 10
88.6724883370741
 20
-145.376326815908
 30
0.0
 11
98.2224884033203
 21
-145.376326815908
 31
0.0
  0
LINE
  5
   15E
  8
0
  6
CONTINUOUS
 62
     7
 10
94.2180652334017
 20
-145.89727124586
 30
0.0
 11
97.1724885106087
 21
-145.376326815908
 31
0.0
  0
LINE
  5
   15F
  8
0
  6
CONTINUOUS
 62
     7
 10
97.1724885106087
 20
-145.376326815908
 30
0.0
 11
94.2180652334017
 21
-144.855382385957
 31
0.0
  0
LINE
  5
   160
  8
0
  6
CONTINUOUS
 62
     7
 10
101.176911680527
 20
-144.855382385957
 30
0.0
 11
98.2224884033203
 21
-145.376326815908
 31
0.0
  0
LINE
  5
   161
  8
0
  6
CONTINUOUS
 62
     7
 10
98.2224884033203
 20
-145.376326815908
 30
0.0
 11
101.176911680527
 21
-145.89727124586
 31
0.0
  0
ENDBLK
  5
   162
  8
0
  6
CONTINUOUS
 62
     7
  0
BLOCK
  5
   163
  8
0
  6
CONTINUOUS
 62
     7
  2
*UDIM501
 70
    65
 10
0.0
 20
0.0
 30
0.0
  3
*UDIM501
  0
TEXT
  5
   164
  8
0
  6
CONTINUOUS
 62
     7
 10
115.834982740709
 20
-144.376326815908
 30
0.0
 40
3.00000001532688
  1
140,5
 41
0.933333333333333
 72
     1
 11
122.534982774939
 21
-142.876326808245
 31
0.0
 73
     2
  0
LINE
  5
   165
  8
0
  6
CONTINUOUS
 62
     7
 10
147.397478038073
 20
-67.1754727870221
 30
0.0
 11
147.397478038073
 21
-147.376326815908
 31
0.0
  0
LINE
  5
   166
  8
0
  6
CONTINUOUS
 62
     7
 10
98.2224884033203
 20
-145.376326815908
 30
0.0
 11
147.397478038073
 21
-145.376326815908
 31
0.0
  0
LINE
  5
   167
  8
0
  6
CONTINUOUS
 62
     7
 10
101.176911680527
 20
-144.855382385957
 30
0.0
 11
98.2224884033203
 21
-145.376326815908
 31
0.0
  0
LINE
  5
   168
  8
0
  6
CONTINUOUS
 62
     7
 10
98.2224884033203
 20
-145.376326815908
 30
0.0
 11
101.176911680527
 21
-145.89727124586
 31
0.0
  0
LINE
  5
   169
  8
0
  6
CONTINUOUS
 62
     7
 10
144.443054760866
 20
-145.89727124586
 30
0.0
 11
147.397478038073
 21
-145.376326815908
 31
0.0
  0
LINE
  5
   16A
  8
0
  6
CONTINUOUS
 62
     7
 10
147.397478038073
 20
-145.376326815908
 30
0.0
 11
144.443054760866
 21
-144.855382385957
 31
0.0
  0
ENDBLK
  5
   16B
  8
0
  6
CONTINUOUS
 62
     7
  0
BLOCK
  5
   16C
  8
0
  6
CONTINUOUS
 62
     7
  2
*UDIM502
 70
    65
 10
0.0
 20
0.0
 30
0.0
  3
*UDIM502
  0
TEXT
  5
   16D
  8
0
  6
CONTINUOUS
 62
     7
 10
10.9051975969585
 20
-143.13831334041
 30
0.0
 40
3.00000005960463
  1
3,6
 50
372.774621419047
 41
0.933333333333334
 72
     1
 11
14.3769876767869
 21
-140.813087687833
 31
0.0
 73
     2
  0
TEXT
  5
   16E
  8
0
  6
CONTINUOUS
 62
     7
 10
7.83316828577946
 20
-143.834830469796
 30
0.0
 40
3.00000005960463
  1
Ø
 50
372.774621419047
 41
0.933333333333334
 72
     1
 11
8.57426561574815
 21
-142.128731151175
 31
0.0
 73
     2
  0
TEXT
  5
   16F
  8
0
  6
CONTINUOUS
 62
     7
 10
19.0485134730738
 20
-141.291990148517
 30
0.0
 40
3.00000005960463
  1
 H12
 50
372.774621419047
 41
0.933333333333333
 72
     1
 11
23.885649927832
 21
-138.657201328962
 31
0.0
 73
     2
  0
LINE
  5
   170
  8
0
  6
CONTINUOUS
 62
     7
 10
29.6072525718523
 20
-139.923402122339
 30
0.0
 11
0.193020900735743
 21
-146.592451789073
 31
0.0
  0
LINE
  5
   171
  8
0
  6
CONTINUOUS
 62
     7
 10
3.66130314039794
 20
-145.271926321752
 30
0.0
 11
0.895198980321997
 21
-146.43324788601
 31
0.0
  0
LINE
  5
   172
  8
0
  6
CONTINUOUS
 62
     7
 10
0.895198980321997
 20
-146.43324788601
 30
0.0
 11
3.89168200559469
 21
-146.288025713968
 31
0.0
  0
LINE
  5
   173
  8
0
  6
CONTINUOUS
 62
     7
 10
-2.5730832593402
 20
-147.753773353331
 30
0.0
 11
0.193020900735743
 21
-146.592451789073
 31
0.0
  0
LINE
  5
   174
  8
0
  6
CONTINUOUS
 62
     7
 10
0.193020900735743
 20
-146.592451789073
 30
0.0
 11
-2.80346212453695
 21
-146.737673961115
 31
0.0
  0
ENDBLK
  5
   175
  8
0
  6
CONTINUOUS
 62
     7
  0
BLOCK
  5
   176
  8
0
  6
CONTINUOUS
 62
     7
  2
*UDIM503
 70
    65
 10
0.0
 20
0.0
 30
0.0
  3
*UDIM503
  0
TEXT
  5
   177
  8
0
  6
CONTINUOUS
 62
     7
 10
19.6047990479166
 20
-157.287849253644
 30
0.0
 40
3.00000005960463
  1
80
 50
449.999999896069
 41
0.933333333333334
 72
     1
 11
18.1047990226334
 21
-154.787849201262
 31
0.0
 73
     2
  0
LINE
  5
   178
  8
0
  6
CONTINUOUS
 62
     7
 10
3.77903362790067
 20
-146.512849837542
 30
0.0
 11
22.6047990524357
 21
-146.512849837542
 31
0.0
  0
LINE
  5
   179
  8
0
  6
CONTINUOUS
 62
     7
 10
3.66656823078653
 20
-162.512848883867
 30
0.0
 11
22.6047990524357
 21
-162.512848883867
 31
0.0
  0
LINE
  5
   17A
  8
0
  6
CONTINUOUS
 62
     7
 10
20.6047990524357
 20
-146.512849837542
 30
0.0
 11
20.6047990524357
 21
-162.512848883867
 31
0.0
  0
LINE
  5
   17B
  8
0
  6
CONTINUOUS
 62
     7
 10
21.1257434823874
 20
-149.467273114749
 30
0.0
 11
20.6047990524357
 21
-146.512849837542
 31
0.0
  0
LINE
  5
   17C
  8
0
  6
CONTINUOUS
 62
     7
 10
20.6047990524357
 20
-146.512849837542
 30
0.0
 11
20.0838546224841
 21
-149.467273114749
 31
0.0
  0
LINE
  5
   17D
  8
0
  6
CONTINUOUS
 62
     7
 10
20.0838546224841
 20
-159.55842560666
 30
0.0
 11
20.6047990524357
 21
-162.512848883867
 31
0.0
  0
LINE
  5
   17E
  8
0
  6
CONTINUOUS
 62
     7
 10
20.6047990524357
 20
-162.512848883867
 30
0.0
 11
21.1257434823874
 21
-159.55842560666
 31
0.0
  0
ENDBLK
  5
   17F
  8
0
  6
CONTINUOUS
 62
     7
  0
BLOCK
  5
   180
  8
0
  6
CONTINUOUS
 62
     7
  2
*UDIM504
 70
    65
 10
0.0
 20
0.0
 30
0.0
  3
*UDIM504
  0
TEXT
  5
   181
  8
0
  6
CONTINUOUS
 62
     7
 10
-25.6308885735585
 20
-135.970861263491
 30
0.0
 40
3.00000005960463
  1
220
 50
359.999999896069
 41
0.933333333333334
 72
     1
 11
-21.7308884933591
 21
-134.470861240744
 31
0.0
 73
     2
  0
LINE
  5
   182
  8
0
  6
CONTINUOUS
 62
     7
 10
0.54410994052887
 20
-143.679927683115
 30
0.0
 11
0.54410994052887
 21
-134.970861270546
 31
0.0
  0
LINE
  5
   183
  8
0
  6
CONTINUOUS
 62
     7
 10
-43.4558874368668
 20
-143.20194974538
 30
0.0
 11
-43.4558874368668
 21
-134.970861270546
 31
0.0
  0
LINE
  5
   184
  8
0
  6
CONTINUOUS
 62
     7
 10
0.54410994052887
 20
-136.970861270546
 30
0.0
 11
-43.4558874368668
 21
-136.970861270546
 31
0.0
  0
LINE
  5
   185
  8
0
  6
CONTINUOUS
 62
     7
 10
-2.41031333667809
 20
-137.491805700498
 30
0.0
 11
0.54410994052887
 21
-136.970861270546
 31
0.0
  0
LINE
  5
   186
  8
0
  6
CONTINUOUS
 62
     7
 10
0.54410994052887
 20
-136.970861270546
 30
0.0
 11
-2.41031333667809
 21
-136.449916840595
 31
0.0
  0
LINE
  5
   187
  8
0
  6
CONTINUOUS
 62
     7
 10
-40.5014641596598
 20
-136.449916840595
 30
0.0
 11
-43.4558874368668
 21
-136.970861270546
 31
0.0
  0
LINE
  5
   188
  8
0
  6
CONTINUOUS
 62
     7
 10
-43.4558874368668
 20
-136.970861270546
 30
0.0
 11
-40.5014641596598
 21
-137.491805700498
 31
0.0
  0
ENDBLK
  5
   189
  8
0
  6
CONTINUOUS
 62
     7
  0
BLOCK
  5
   18A
  8
0
  6
CONTINUOUS
 62
     7
  2
*UDIM505
 70
    65
 10
0.0
 20
0.0
 30
0.0
  3
*UDIM505
  0
TEXT
  5
   18B
  8
0
  6
CONTINUOUS
 62
     7
 10
-17.2308890583429
 20
-189.471140364756
 30
0.0
 40
3.00000005960463
  1
70
 50
359.999999896069
 41
0.933333333333334
 72
     1
 11
-14.730889005959
 21
-187.971140339476
 31
0.0
 73
     2
  0
LINE
  5
   18C
  8
0
  6
CONTINUOUS
 62
     7
 10
-7.45588958263397
 20
-190.471140369279
 30
0.0
 11
-21.4558887481689
 21
-190.471140369279
 31
0.0
  0
LINE
  5
   18D
  8
0
  6
CONTINUOUS
 62
     7
 10
-10.4103128598409
 20
-190.99208479923
 30
0.0
 11
-7.45588958263397
 21
-190.471140369279
 31
0.0
  0
LINE
  5
   18E
  8
0
  6
CONTINUOUS
 62
     7
 10
-7.45588958263397
 20
-190.471140369279
 30
0.0
 11
-10.4103128598409
 21
-189.950195939327
 31
0.0
  0
LINE
  5
   18F
  8
0
  6
CONTINUOUS
 62
     7
 10
-18.501465470962
 20
-189.950195939327
 30
0.0
 11
-21.4558887481689
 21
-190.471140369279
 31
0.0
  0
LINE
  5
   190
  8
0
  6
CONTINUOUS
 62
     7
 10
-21.4558887481689
 20
-190.471140369279
 30
0.0
 11
-18.501465470962
 21
-190.99208479923
 31
0.0
  0
ENDBLK
  5
   191
  8
0
  6
CONTINUOUS
 62
     7
  0
BLOCK
  5
   192
  8
0
  6
CONTINUOUS
 62
     7
  2
*UDIM506
 70
    65
 10
0.0
 20
0.0
 30
0.0
  3
*UDIM506
  0
TEXT
  5
   193
  8
0
  6
CONTINUOUS
 62
     7
 10
-31.2308882238779
 20
-189.471140364756
 30
0.0
 40
3.00000005960463
  1
70
 50
359.999999896069
 41
0.933333333333334
 72
     1
 11
-28.730888171494
 21
-187.971140339476
 31
0.0
 73
     2
  0
LINE
  5
   194
  8
0
  6
CONTINUOUS
 62
     7
 10
-21.4558887481689
 20
-190.471140369279
 30
0.0
 11
-35.4558879137039
 21
-190.471140369279
 31
0.0
  0
LINE
  5
   195
  8
0
  6
CONTINUOUS
 62
     7
 10
-24.4103120253759
 20
-190.99208479923
 30
0.0
 11
-21.4558887481689
 21
-190.471140369279
 31
0.0
  0
LINE
  5
   196
  8
0
  6
CONTINUOUS
 62
     7
 10
-21.4558887481689
 20
-190.471140369279
 30
0.0
 11
-24.4103120253759
 21
-189.950195939327
 31
0.0
  0
LINE
  5
   197
  8
0
  6
CONTINUOUS
 62
     7
 10
-32.501464636497
 20
-189.950195939327
 30
0.0
 11
-35.4558879137039
 21
-190.471140369279
 31
0.0
  0
LINE
  5
   198
  8
0
  6
CONTINUOUS
 62
     7
 10
-35.4558879137039
 20
-190.471140369279
 30
0.0
 11
-32.501464636497
 21
-190.99208479923
 31
0.0
  0
ENDBLK
  5
   199
  8
0
  6
CONTINUOUS
 62
     7
  0
BLOCK
  5
   19A
  8
0
  6
CONTINUOUS
 62
     7
  2
*UDIM507
 70
    65
 10
0.0
 20
0.0
 30
0.0
  3
*UDIM507
  0
TEXT
  5
   19B
  8
0
  6
CONTINUOUS
 62
     7
 10
-54.2644388880771
 20
-193.01238828261
 30
0.0
 40
3.00000005960463
  1
40
 50
333.486988543552
 41
0.933333333333334
 72
     1
 11
-51.3577547526693
 21
-192.78614134953
 31
0.0
 73
     2
  0
TEXT
  5
   19C
  8
0
  6
CONTINUOUS
 62
     7
 10
-56.725229719363
 20
-191.784785419047
 30
0.0
 40
3.00000005960463
  1
R
 50
333.486988543552
 41
0.933333333333334
 72
     1
 11
-55.0713118231782
 21
-190.933577024958
 31
0.0
 73
     2
  0
LINE
  5
   19D
  8
0
  6
CONTINUOUS
 62
     7
 10
-57.1716307509125
 20
-192.679618433085
 30
0.0
 11
-29.1920564096966
 21
-206.637653884565
 31
0.0
  0
LINE
  5
   19E
  8
0
  6
CONTINUOUS
 62
     7
 10
-39.738285966619
 20
-200.794337718509
 30
0.0
 11
-42.6145515753773
 21
-199.941638388221
 31
0.0
  0
LINE
  5
   19F
  8
0
  6
CONTINUOUS
 62
     7
 10
-42.6145515753773
 20
-199.941638388221
 30
0.0
 11
-40.2033862300444
 21
-201.726654264191
 31
0.0
  0
ENDBLK
  5
   1A0
  8
0
  6
CONTINUOUS
 62
     7
  0
BLOCK
  5
   1A1
  8
0
  6
CONTINUOUS
 62
     7
  2
*UDIM508
 70
    65
 10
0.0
 20
0.0
 30
0.0
  3
*UDIM508
  0
TEXT
  5
   1A2
  8
0
  6
CONTINUOUS
 62
     7
 10
12.1893026637428
 20
-157.161576678163
 30
0.0
 40
3.00000005960463
  1
50
 50
449.999999896069
 41
0.933333333333334
 72
     1
 11
10.6893026384596
 21
-154.661576625781
 31
0.0
 73
     2
  0
LINE
  5
   1A3
  8
0
  6
CONTINUOUS
 62
     7
 10
-26.7008863743365
 20
-149.512849658728
 30
0.0
 11
15.1893026682619
 21
-149.512849658728
 31
0.0
  0
LINE
  5
   1A4
  8
0
  6
CONTINUOUS
 62
     7
 10
-26.7008863743365
 20
-159.512849062681
 30
0.0
 11
15.1893026682619
 21
-159.512849062681
 31
0.0
  0
LINE
  5
   1A5
  8
0
  6
CONTINUOUS
 62
     7
 10
13.1893026682619
 20
-149.512849658728
 30
0.0
 11
13.1893026682619
 21
-159.512849062681
 31
0.0
  0
LINE
  5
   1A6
  8
0
  6
CONTINUOUS
 62
     7
 10
12.6683582383102
 20
-146.558426381521
 30
0.0
 11
13.1893026682619
 21
-149.512849658728
 31
0.0
  0
LINE
  5
   1A7
  8
0
  6
CONTINUOUS
 62
     7
 10
13.1893026682619
 20
-149.512849658728
 30
0.0
 11
13.7102470982136
 21
-146.558426381521
 31
0.0
  0
LINE
  5
   1A8
  8
0
  6
CONTINUOUS
 62
     7
 10
13.7102470982136
 20
-162.467272339888
 30
0.0
 11
13.1893026682619
 21
-159.512849062681
 31
0.0
  0
LINE
  5
   1A9
  8
0
  6
CONTINUOUS
 62
     7
 10
13.1893026682619
 20
-159.512849062681
 30
0.0
 11
12.6683582383102
 21
-162.467272339888
 31
0.0
  0
ENDBLK
  5
   1AA
  8
0
  6
CONTINUOUS
 62
     7
  0
BLOCK
  5
   1AB
  8
0
  6
CONTINUOUS
 62
     7
  2
*UDIM509
 70
    65
 10
0.0
 20
0.0
 30
0.0
  3
*UDIM509
  0
TEXT
  5
   1AC
  8
0
  6
CONTINUOUS
 62
     7
 10
-54.609802249031
 20
-173.737848368515
 30
0.0
 40
3.00000005960463
  1
171,5
 50
449.999999896069
 41
0.933333333333333
 72
     1
 11
-56.109802266722
 21
-167.037848232687
 31
0.0
 73
     2
  0
LINE
  5
   1AD
  8
0
  6
CONTINUOUS
 62
     7
 10
-50.1766179593707
 20
-154.512849360704
 30
0.0
 11
-55.6098022369197
 21
-154.512849360704
 31
0.0
  0
LINE
  5
   1AE
  8
0
  6
CONTINUOUS
 62
     7
 10
-50.7977314914097
 20
-179.012847900391
 30
0.0
 11
-55.6098022369197
 21
-179.012847900391
 31
0.0
  0
LINE
  5
   1AF
  8
0
  6
CONTINUOUS
 62
     7
 10
-53.6098022369197
 20
-154.512849360704
 30
0.0
 11
-53.6098022369197
 21
-179.012847900391
 31
0.0
  0
LINE
  5
   1B0
  8
0
  6
CONTINUOUS
 62
     7
 10
-53.088857806968
 20
-157.467272637911
 30
0.0
 11
-53.6098022369197
 21
-154.512849360704
 31
0.0
  0
LINE
  5
   1B1
  8
0
  6
CONTINUOUS
 62
     7
 10
-53.6098022369197
 20
-154.512849360704
 30
0.0
 11
-54.1307466668713
 21
-157.467272637911
 31
0.0
  0
LINE
  5
   1B2
  8
0
  6
CONTINUOUS
 62
     7
 10
-54.1307466668713
 20
-176.058424623184
 30
0.0
 11
-53.6098022369197
 21
-179.012847900391
 31
0.0
  0
LINE
  5
   1B3
  8
0
  6
CONTINUOUS
 62
     7
 10
-53.6098022369197
 20
-179.012847900391
 30
0.0
 11
-53.088857806968
 21
-176.058424623184
 31
0.0
  0
ENDBLK
  5
   1B4
  8
0
  6
CONTINUOUS
 62
     7
  0
BLOCK
  5
   1B5
  8
0
  6
CONTINUOUS
 62
     7
  2
*UDIM510
 70
    65
 10
0.0
 20
0.0
 30
0.0
  3
*UDIM510
  0
TEXT
  5
   1B6
  8
0
  6
CONTINUOUS
 62
     7
 10
-61.8912806917955
 20
-188.188198236831
 30
0.0
 40
3.00000005960463
  1
315
 50
449.999999896069
 41
0.933333333333334
 72
     1
 11
-63.391280714548
 21
-184.288198156634
 31
0.0
 73
     2
  0
LINE
  5
   1B7
  8
0
  6
CONTINUOUS
 62
     7
 10
-50.1766179593707
 20
-154.512849360704
 30
0.0
 11
-62.8912806847457
 21
-154.512849360704
 31
0.0
  0
LINE
  5
   1B8
  8
0
  6
CONTINUOUS
 62
     7
 10
-50.1766179593707
 20
-203.512846440077
 30
0.0
 11
-62.8912806847457
 21
-203.512846440077
 31
0.0
  0
LINE
  5
   1B9
  8
0
  6
CONTINUOUS
 62
     7
 10
-60.8912806847457
 20
-154.512849360704
 30
0.0
 11
-60.8912806847457
 21
-203.512846440077
 31
0.0
  0
LINE
  5
   1BA
  8
0
  6
CONTINUOUS
 62
     7
 10
-60.370336254794
 20
-157.467272637911
 30
0.0
 11
-60.8912806847457
 21
-154.512849360704
 31
0.0
  0
LINE
  5
   1BB
  8
0
  6
CONTINUOUS
 62
     7
 10
-60.8912806847457
 20
-154.512849360704
 30
0.0
 11
-61.4122251146973
 21
-157.467272637911
 31
0.0
  0
LINE
  5
   1BC
  8
0
  6
CONTINUOUS
 62
     7
 10
-61.4122251146973
 20
-200.55842316287
 30
0.0
 11
-60.8912806847457
 21
-203.512846440077
 31
0.0
  0
LINE
  5
   1BD
  8
0
  6
CONTINUOUS
 62
     7
 10
-60.8912806847457
 20
-203.512846440077
 30
0.0
 11
-60.370336254794
 21
-200.55842316287
 31
0.0
  0
ENDBLK
  5
   1BE
  8
0
  6
CONTINUOUS
 62
     7
  0
BLOCK
  5
   1BF
  8
0
  6
CONTINUOUS
 62
     7
  2
*UDIM511
 70
    65
 10
0.0
 20
0.0
 30
0.0
  3
*UDIM511
  0
TEXT
  5
   1C0
  8
0
  6
CONTINUOUS
 62
     7
 10
-70.1057058613573
 20
-167.78784864369
 30
0.0
 40
3.00000005960463
  1
203
 50
449.999999896069
 41
0.933333333333334
 72
     1
 11
-71.6057058841097
 21
-163.887848563492
 31
0.0
 73
     2
  0
LINE
  5
   1C1
  8
0
  6
CONTINUOUS
 62
     7
 10
-50.6283368917627
 20
-148.212849736214
 30
0.0
 11
-71.1057058543074
 21
-148.212849736214
 31
0.0
  0
LINE
  5
   1C2
  8
0
  6
CONTINUOUS
 62
     7
 10
-50.7977314914097
 20
-179.012847900391
 30
0.0
 11
-71.1057058543074
 21
-179.012847900391
 31
0.0
  0
LINE
  5
   1C3
  8
0
  6
CONTINUOUS
 62
     7
 10
-69.1057058543074
 20
-148.212849736214
 30
0.0
 11
-69.1057058543074
 21
-179.012847900391
 31
0.0
  0
LINE
  5
   1C4
  8
0
  6
CONTINUOUS
 62
     7
 10
-68.5847614243557
 20
-151.167273013421
 30
0.0
 11
-69.1057058543074
 21
-148.212849736214
 31
0.0
  0
LINE
  5
   1C5
  8
0
  6
CONTINUOUS
 62
     7
 10
-69.1057058543074
 20
-148.212849736214
 30
0.0
 11
-69.6266502842591
 21
-151.167273013421
 31
0.0
  0
LINE
  5
   1C6
  8
0
  6
CONTINUOUS
 62
     7
 10
-69.6266502842591
 20
-176.058424623184
 30
0.0
 11
-69.1057058543074
 21
-179.012847900391
 31
0.0
  0
LINE
  5
   1C7
  8
0
  6
CONTINUOUS
 62
     7
 10
-69.1057058543074
 20
-179.012847900391
 30
0.0
 11
-68.5847614243557
 21
-176.058424623184
 31
0.0
  0
ENDBLK
  5
   1C8
  8
0
  6
CONTINUOUS
 62
     7
  0
BLOCK
  5
   1C9
  8
0
  6
CONTINUOUS
 62
     7
  2
*UDIM512
 70
    65
 10
0.0
 20
0.0
 30
0.0
  3
*UDIM512
  0
TEXT
  5
   1CA
  8
0
  6
CONTINUOUS
 62
     7
 10
-77.7782548425143
 20
-183.187847344367
 30
0.0
 40
3.00000005960463
  1
378
 50
449.999999896069
 41
0.933333333333334
 72
     1
 11
-79.2782548652667
 21
-179.28784726417
 31
0.0
 73
     2
  0
LINE
  5
   1CB
  8
0
  6
CONTINUOUS
 62
     7
 10
-50.6283368917623
 20
-148.212848912242
 30
0.0
 11
-78.7782548354637
 21
-148.212825717518
 31
0.0
  0
LINE
  5
   1CC
  8
0
  6
CONTINUOUS
 62
     7
 10
-50.1766179593703
 20
-209.812845220048
 30
0.0
 11
-78.7782548354637
 21
-209.812821065402
 31
0.0
  0
LINE
  5
   1CD
  8
0
  6
CONTINUOUS
 62
     7
 10
-76.7782548354644
 20
-148.212827365461
 30
0.0
 11
-76.7782548354644
 21
-209.812822754441
 31
0.0
  0
LINE
  5
   1CE
  8
0
  6
CONTINUOUS
 62
     7
 10
-76.2573104055127
 20
-151.167250642668
 30
0.0
 11
-76.7782548354644
 21
-148.212827365461
 31
0.0
  0
LINE
  5
   1CF
  8
0
  6
CONTINUOUS
 62
     7
 10
-76.7782548354644
 20
-148.212827365461
 30
0.0
 11
-77.2991992654161
 21
-151.167250642668
 31
0.0
  0
LINE
  5
   1D0
  8
0
  6
CONTINUOUS
 62
     7
 10
-77.2991992654161
 20
-206.858399477234
 30
0.0
 11
-76.7782548354644
 21
-209.812822754441
 31
0.0
  0
LINE
  5
   1D1
  8
0
  6
CONTINUOUS
 62
     7
 10
-76.7782548354644
 20
-209.812822754441
 30
0.0
 11
-76.2573104055127
 21
-206.858399477234
 31
0.0
  0
ENDBLK
  5
   1D2
  8
0
  6
CONTINUOUS
 62
     7
  0
BLOCK
  5
   1D3
  8
0
  6
CONTINUOUS
 62
     7
  2
*UDIM513
 70
    65
 10
0.0
 20
0.0
 30
0.0
  3
*UDIM513
  0
TEXT
  5
   1D4
  8
0
  6
CONTINUOUS
 62
     7
 10
9.74079940880303
 20
-195.549216734021
 30
0.0
 40
3.00000005960463
  1
5,5
 50
388.478485351186
 41
0.933333333333334
 72
     1
 11
12.4536416440005
 21
-192.37109028897
 31
0.0
 73
     2
  0
TEXT
  5
   1D5
  8
0
  6
CONTINUOUS
 62
     7
 10
6.97196127878903
 20
-197.051227256638
 30
0.0
 40
3.00000005960463
  1
Ø
 50
388.478485351186
 41
0.933333333333334
 72
     1
 11
7.22361403646262
 21
-195.208221280781
 31
0.0
 73
     2
  0
TEXT
  5
   1D6
  8
0
  6
CONTINUOUS
 62
     7
 10
17.0804180205339
 20
-191.567696745191
 30
0.0
 40
3.00000005960463
  1
 - M5
 50
388.478485351186
 41
0.933333333333333
 72
     1
 11
22.2544497332552
 21
-187.054449830948
 31
0.0
 73
     2
  0
LINE
  5
   1D7
  8
0
  6
CONTINUOUS
 62
     7
 10
29.3357963906899
 20
-186.057187854325
 30
0.0
 11
-14.9393370595912
 21
-210.075101851048
 31
0.0
  0
LINE
  5
   1D8
  8
0
  6
CONTINUOUS
 62
     7
 10
-11.6239156390084
 20
-207.683928188987
 30
0.0
 11
-13.9724412712117
 21
-209.550590278087
 31
0.0
  0
LINE
  5
   1D9
  8
0
  6
CONTINUOUS
 62
     7
 10
-13.9724412712117
 20
-209.550590278087
 30
0.0
 11
-11.1271130959793
 21
-208.599744562301
 31
0.0
  0
LINE
  5
   1DA
  8
0
  6
CONTINUOUS
 62
     7
 10
-17.2878626917945
 20
-211.941763940149
 30
0.0
 11
-14.9393370595912
 21
-210.075101851048
 31
0.0
  0
LINE
  5
   1DB
  8
0
  6
CONTINUOUS
 62
     7
 10
-14.9393370595912
 20
-210.075101851048
 30
0.0
 11
-17.7846652348236
 21
-211.025947566834
 31
0.0
  0
ENDBLK
  5
   1DC
  8
0
  6
CONTINUOUS
 62
     7
  0
BLOCK
  5
   1DD
  8
0
  6
CONTINUOUS
 62
     7
  2
*UDIM514
 70
    65
 10
0.0
 20
0.0
 30
0.0
  3
*UDIM514
  0
TEXT
  5
   1DE
  8
0
  6
CONTINUOUS
 62
     7
 10
-24.2308886411104
 20
-172.141738092616
 30
0.0
 40
3.00000005960463
  1
70
 50
359.999999896069
 41
0.933333333333334
 72
     1
 11
-21.7308885887265
 21
-170.641738067336
 31
0.0
 73
     2
  0
LINE
  5
   1DF
  8
0
  6
CONTINUOUS
 62
     7
 10
-14.4558891654015
 20
-173.141738097138
 30
0.0
 11
-28.4558883309364
 21
-173.141738097138
 31
0.0
  0
LINE
  5
   1E0
  8
0
  6
CONTINUOUS
 62
     7
 10
-17.4103124426084
 20
-173.662682527089
 30
0.0
 11
-14.4558891654015
 21
-173.141738097138
 31
0.0
  0
LINE
  5
   1E1
  8
0
  6
CONTINUOUS
 62
     7
 10
-14.4558891654015
 20
-173.141738097138
 30
0.0
 11
-17.4103124426084
 21
-172.620793667186
 31
0.0
  0
LINE
  5
   1E2
  8
0
  6
CONTINUOUS
 62
     7
 10
-25.5014650537295
 20
-172.620793667186
 30
0.0
 11
-28.4558883309364
 21
-173.141738097138
 31
0.0
  0
LINE
  5
   1E3
  8
0
  6
CONTINUOUS
 62
     7
 10
-28.4558883309364
 20
-173.141738097138
 30
0.0
 11
-25.5014650537295
 21
-173.662682527089
 31
0.0
  0
ENDBLK
  5
   1E4
  8
0
  6
CONTINUOUS
 62
     7
  0
BLOCK
  5
   1E5
  8
0
  6
CONTINUOUS
 62
     7
  2
*UDIM515
 70
    65
 10
0.0
 20
0.0
 30
0.0
  3
*UDIM515
  0
TEXT
  5
   1E6
  8
0
  6
CONTINUOUS
 62
     7
 10
241.412234448293
 20
-34.5478029145179
 30
0.0
 40
3.00000002980232
  1
147
 50
359.999999844103
 41
0.933333333333333
 72
     1
 11
245.31223449111
 21
-33.0478029102087
 31
0.0
 73
     2
  0
LINE
  5
   1E7
  8
0
  6
CONTINUOUS
 62
     7
 10
227.21223449707
 20
-21.3678407669067
 30
0.0
 11
227.21223449707
 21
-37.5478029251099
 31
0.0
  0
LINE
  5
   1E8
  8
0
  6
CONTINUOUS
 62
     7
 10
263.96223449707
 20
-21.3678407669067
 30
0.0
 11
263.96223449707
 21
-37.5478029251099
 31
0.0
  0
LINE
  5
   1E9
  8
0
  6
CONTINUOUS
 62
     7
 10
227.21223449707
 20
-35.5478029251099
 30
0.0
 11
263.96223449707
 21
-35.5478029251099
 31
0.0
  0
LINE
  5
   1EA
  8
0
  6
CONTINUOUS
 62
     7
 10
230.166657774277
 20
-35.0268584951582
 30
0.0
 11
227.21223449707
 21
-35.5478029251099
 31
0.0
  0
LINE
  5
   1EB
  8
0
  6
CONTINUOUS
 62
     7
 10
227.21223449707
 20
-35.5478029251099
 30
0.0
 11
230.166657774277
 21
-36.0687473550615
 31
0.0
  0
LINE
  5
   1EC
  8
0
  6
CONTINUOUS
 62
     7
 10
261.007811219863
 20
-36.0687473550615
 30
0.0
 11
263.96223449707
 21
-35.5478029251099
 31
0.0
  0
LINE
  5
   1ED
  8
0
  6
CONTINUOUS
 62
     7
 10
263.96223449707
 20
-35.5478029251099
 30
0.0
 11
261.007811219863
 21
-35.0268584951582
 31
0.0
  0
ENDBLK
  5
   1EE
  8
0
  6
CONTINUOUS
 62
     7
  0
BLOCK
  5
   1EF
  8
0
  6
CONTINUOUS
 62
     7
  2
*UDIM516
 70
    65
 10
0.0
 20
0.0
 30
0.0
  3
*UDIM516
  0
TEXT
  5
   1F0
  8
0
  6
CONTINUOUS
 62
     7
 10
241.412234448293
 20
20.6901846037926
 30
0.0
 40
3.00000002980232
  1
115
 50
359.999999844103
 41
0.933333333333333
 72
     1
 11
245.31223449111
 21
22.1901846081018
 31
0.0
 73
     2
  0
LINE
  5
   1F1
  8
0
  6
CONTINUOUS
 62
     7
 10
231.21223449707
 20
14.5071592330933
 30
0.0
 11
231.21223449707
 21
21.6901845932007
 31
0.0
  0
LINE
  5
   1F2
  8
0
  6
CONTINUOUS
 62
     7
 10
259.96223449707
 20
14.5071592330933
 30
0.0
 11
259.96223449707
 21
21.6901845932007
 31
0.0
  0
LINE
  5
   1F3
  8
0
  6
CONTINUOUS
 62
     7
 10
231.21223449707
 20
19.6901845932007
 30
0.0
 11
259.96223449707
 21
19.6901845932007
 31
0.0
  0
LINE
  5
   1F4
  8
0
  6
CONTINUOUS
 62
     7
 10
234.166657774277
 20
20.2111290231523
 30
0.0
 11
231.21223449707
 21
19.6901845932007
 31
0.0
  0
LINE
  5
   1F5
  8
0
  6
CONTINUOUS
 62
     7
 10
231.21223449707
 20
19.6901845932007
 30
0.0
 11
234.166657774277
 21
19.169240163249
 31
0.0
  0
LINE
  5
   1F6
  8
0
  6
CONTINUOUS
 62
     7
 10
257.007811219863
 20
19.169240163249
 30
0.0
 11
259.96223449707
 21
19.6901845932007
 31
0.0
  0
LINE
  5
   1F7
  8
0
  6
CONTINUOUS
 62
     7
 10
259.96223449707
 20
19.6901845932007
 30
0.0
 11
257.007811219863
 21
20.2111290231523
 31
0.0
  0
ENDBLK
  5
   1F8
  8
0
  6
CONTINUOUS
 62
     7
  0
BLOCK
  5
   1F9
  8
0
  6
CONTINUOUS
 62
     7
  2
*UDIM517
 70
    65
 10
0.0
 20
0.0
 30
0.0
  3
*UDIM517
  0
TEXT
  5
   1FA
  8
0
  6
CONTINUOUS
 62
     7
 10
207.077091206454
 20
-10.5428408156822
 30
0.0
 40
3.00000002980232
  1
142
 50
449.999999844103
 41
0.933333333333333
 72
     1
 11
205.57709120214
 21
-6.6428407728672
 31
0.0
 73
     2
  0
LINE
  5
   1FB
  8
0
  6
CONTINUOUS
 62
     7
 10
228.08723449707
 20
11.3821592330933
 30
0.0
 11
206.077091217041
 21
11.3821592330933
 31
0.0
  0
LINE
  5
   1FC
  8
0
  6
CONTINUOUS
 62
     7
 10
228.08723449707
 20
-24.1178407669067
 30
0.0
 11
206.077091217041
 21
-24.1178407669067
 31
0.0
  0
LINE
  5
   1FD
  8
0
  6
CONTINUOUS
 62
     7
 10
208.077091217041
 20
11.3821592330933
 30
0.0
 11
208.077091217041
 21
-24.1178407669067
 31
0.0
  0
LINE
  5
   1FE
  8
0
  6
CONTINUOUS
 62
     7
 10
208.598035646993
 20
8.4277359558863
 30
0.0
 11
208.077091217041
 21
11.3821592330933
 31
0.0
  0
LINE
  5
   1FF
  8
0
  6
CONTINUOUS
 62
     7
 10
208.077091217041
 20
11.3821592330933
 30
0.0
 11
207.556146787089
 21
8.4277359558863
 31
0.0
  0
LINE
  5
   200
  8
0
  6
CONTINUOUS
 62
     7
 10
207.556146787089
 20
-21.1634174896998
 30
0.0
 11
208.077091217041
 21
-24.1178407669067
 31
0.0
  0
LINE
  5
   201
  8
0
  6
CONTINUOUS
 62
     7
 10
208.077091217041
 20
-24.1178407669067
 30
0.0
 11
208.598035646993
 21
-21.1634174896998
 31
0.0
  0
ENDBLK
  5
   202
  8
0
  6
CONTINUOUS
 62
     7
  0
BLOCK
  5
   203
  8
0
  6
CONTINUOUS
 62
     7
  2
*UDIM518
 70
    65
 10
0.0
 20
0.0
 30
0.0
  3
*UDIM518
  0
TEXT
  5
   204
  8
0
  6
CONTINUOUS
 62
     7
 10
217.360095967196
 20
-10.5428408156822
 30
0.0
 40
3.00000002980232
  1
112
 50
449.999999844103
 41
0.933333333333333
 72
     1
 11
215.860095962882
 21
-6.6428407728672
 31
0.0
 73
     2
  0
LINE
  5
   205
  8
0
  6
CONTINUOUS
 62
     7
 10
226.21223449707
 20
7.63215923309326
 30
0.0
 11
216.360095977783
 21
7.63215923309326
 31
0.0
  0
LINE
  5
   206
  8
0
  6
CONTINUOUS
 62
     7
 10
226.21223449707
 20
-20.3678407669067
 30
0.0
 11
216.360095977783
 21
-20.3678407669067
 31
0.0
  0
LINE
  5
   207
  8
0
  6
CONTINUOUS
 62
     7
 10
218.360095977783
 20
7.63215923309326
 30
0.0
 11
218.360095977783
 21
-20.3678407669067
 31
0.0
  0
LINE
  5
   208
  8
0
  6
CONTINUOUS
 62
     7
 10
218.881040407735
 20
4.6777359558863
 30
0.0
 11
218.360095977783
 21
7.63215923309326
 31
0.0
  0
LINE
  5
   209
  8
0
  6
CONTINUOUS
 62
     7
 10
218.360095977783
 20
7.63215923309326
 30
0.0
 11
217.839151547832
 21
4.6777359558863
 31
0.0
  0
LINE
  5
   20A
  8
0
  6
CONTINUOUS
 62
     7
 10
217.839151547832
 20
-17.4134174896998
 30
0.0
 11
218.360095977783
 21
-20.3678407669067
 31
0.0
  0
LINE
  5
   20B
  8
0
  6
CONTINUOUS
 62
     7
 10
218.360095977783
 20
-20.3678407669067
 30
0.0
 11
218.881040407735
 21
-17.4134174896998
 31
0.0
  0
ENDBLK
  5
   20C
  8
0
  6
CONTINUOUS
 62
     7
  0
BLOCK
  5
   20D
  8
0
  6
CONTINUOUS
 62
     7
  2
*UDIM519
 70
    65
 10
0.0
 20
0.0
 30
0.0
  3
*UDIM519
  0
TEXT
  5
   20E
  8
0
  6
CONTINUOUS
 62
     7
 10
271.876990660623
 20
24.6532896125463
 30
0.0
 40
3.00000002980232
  1
7
 50
404.868411918951
 41
0.933333333333334
 72
     1
 11
271.598371018553
 21
26.4924120021106
 31
0.0
 73
     2
  0
TEXT
  5
   20F
  8
0
  6
CONTINUOUS
 62
     7
 10
269.644494661298
 20
22.4310246248409
 30
0.0
 40
3.00000002980232
  1
Ø
 50
404.868411918951
 41
0.933333333333334
 72
     1
 11
269.365875019228
 21
24.2701470144052
 31
0.0
 73
     2
  0
LINE
  5
   210
  8
0
  6
CONTINUOUS
 62
     7
 10
274.141675177527
 20
25.4966188240383
 30
0.0
 11
259.342096721436
 21
10.7648634051219
 31
0.0
  0
LINE
  5
   211
  8
0
  6
CONTINUOUS
 62
     7
 10
262.308741022644
 20
14.4529527560372
 30
0.0
 11
260.582372272705
 21
11.9994550610647
 31
0.0
  0
LINE
  5
   212
  8
0
  6
CONTINUOUS
 62
     7
 10
260.582372272705
 20
11.9994550610647
 30
0.0
 11
263.043773761419
 21
13.7145360245641
 31
0.0
  0
LINE
  5
   213
  8
0
  6
CONTINUOUS
 62
     7
 10
257.615727971497
 20
8.31136571014933
 30
0.0
 11
259.342096721436
 21
10.7648634051219
 31
0.0
  0
LINE
  5
   214
  8
0
  6
CONTINUOUS
 62
     7
 10
259.342096721436
 20
10.7648634051219
 30
0.0
 11
256.880695232722
 21
9.04978244162244
 31
0.0
  0
ENDBLK
  5
   215
  8
0
  6
CONTINUOUS
 62
     7
  0
ENDSEC
  0
SECTION
  2
ENTITIES
  0
LINE
  5
   216
  8
0
  6
CONTINUOUS
 62
   130
 10
-45.6058649182341
 20
-63.9004569977533
 30
0.0
 11
-45.6058649182341
 21
-63.5504570335161
 31
0.0
  0
LINE
  5
   217
  8
0
  6
CONTINUOUS
 62
   130
 10
-45.827829943271
 20
-63.9004569977533
 30
0.0
 11
-45.9558969259251
 21
-63.9004569977533
 31
0.0
  0
LINE
  5
   218
  8
0
  6
CONTINUOUS
 62
   130
 10
-45.6058649182341
 20
-63.9004569977533
 30
0.0
 11
-45.8278299224094
 21
-63.9004569977533
 31
0.0
  0
LINE
  5
   219
  8
0
  6
CONTINUOUS
 62
   130
 10
-45.6058649182341
 20
-63.5504570335161
 30
0.0
 11
-45.9558969259251
 21
-63.5504570335161
 31
0.0
  0
LINE
  5
   21A
  8
0
  6
CONTINUOUS
 62
   130
 10
2.69408742189626
 20
-63.9004623383289
 30
0.0
 11
2.69408742189626
 21
-63.5504623740917
 31
0.0
  0
LINE
  5
   21B
  8
0
  6
CONTINUOUS
 62
   130
 10
3.04411942958723
 20
-63.9004623383289
 30
0.0
 11
2.69408742189626
 21
-63.9004623383289
 31
0.0
  0
LINE
  5
   21C
  8
0
  6
CONTINUOUS
 62
   130
 10
3.04411942958723
 20
-63.5504623740917
 30
0.0
 11
2.91604174492022
 21
-63.5504623740917
 31
0.0
  0
LINE
  5
   21D
  8
0
  6
CONTINUOUS
 62
   130
 10
2.91604174492022
 20
-63.5504623740917
 30
0.0
 11
2.69408742189626
 21
-63.5504623740917
 31
0.0
  0
LINE
  5
   21E
  8
0
  6
CONTINUOUS
 62
     1
 10
2.69408816686904
 20
-64.6004649370909
 30
0.0
 11
-14.1058894991875
 21
-64.6004630795002
 31
0.0
  0
LINE
  5
   21F
  8
0
  6
CONTINUOUS
 62
   130
 10
-45.6058649182341
 20
-57.2504576772462
 30
0.0
 11
-45.6058649182341
 21
-56.900457713009
 31
0.0
  0
LINE
  5
   220
  8
0
  6
CONTINUOUS
 62
   130
 10
-45.827829943271
 20
-57.2504576772462
 30
0.0
 11
-45.9558969259251
 21
-57.2504576772462
 31
0.0
  0
LINE
  5
   221
  8
0
  6
CONTINUOUS
 62
   130
 10
-45.6058649182341
 20
-57.2504576772462
 30
0.0
 11
-45.8278299224094
 21
-57.2504576772462
 31
0.0
  0
LINE
  5
   222
  8
0
  6
CONTINUOUS
 62
   130
 10
-45.6058649182341
 20
-56.900457713009
 30
0.0
 11
-45.9558969259251
 21
-56.900457713009
 31
0.0
  0
LINE
  5
   223
  8
0
  6
CONTINUOUS
 62
   130
 10
2.69408742189626
 20
-57.2504683583975
 30
0.0
 11
2.69408742189626
 21
-56.9004683941603
 31
0.0
  0
LINE
  5
   224
  8
0
  6
CONTINUOUS
 62
   130
 10
3.04410874843597
 20
-57.2504683583975
 30
0.0
 11
2.69408742189626
 21
-57.2504683583975
 31
0.0
  0
LINE
  5
   225
  8
0
  6
CONTINUOUS
 62
   130
 10
3.04410874843597
 20
-56.9004683941603
 30
0.0
 11
2.69408742189626
 21
-56.9004683941603
 31
0.0
  0
LINE
  5
   226
  8
0
  6
CONTINUOUS
 62
     1
 10
2.69408742189626
 20
-57.9504682868719
 30
0.0
 11
-14.1058894991875
 21
-57.9504682868719
 31
0.0
  0
LINE
  5
   227
  8
0
  6
CONTINUOUS
 62
     1
 10
-28.8058794856035
 20
-57.9504689544423
 30
0.0
 11
-45.6058617472629
 21
-57.9504582732913
 31
0.0
  0
LINE
  5
   228
  8
0
  6
CONTINUOUS
 62
   130
 10
-45.6058755993854
 20
-41.6754699498415
 30
0.0
 11
-45.6058755993854
 21
-41.3254699856043
 31
0.0
  0
LINE
  5
   229
  8
0
  6
CONTINUOUS
 62
   130
 10
-45.827829943271
 20
-41.6754699498415
 30
0.0
 11
-45.9558862447739
 21
-41.6754699498415
 31
0.0
  0
LINE
  5
   22A
  8
0
  6
CONTINUOUS
 62
   130
 10
-45.6058755993854
 20
-41.6754699498415
 30
0.0
 11
-45.8278245818337
 21
-41.6754699498415
 31
0.0
  0
LINE
  5
   22B
  8
0
  6
CONTINUOUS
 62
   130
 10
-45.6058755993854
 20
-41.3254699856043
 30
0.0
 11
-45.8278245818337
 21
-41.3254699856043
 31
0.0
  0
LINE
  5
   22C
  8
0
  6
CONTINUOUS
 62
   130
 10
-45.8278245818337
 20
-41.3254699856043
 30
0.0
 11
-45.9558862447739
 21
-41.3254699856043
 31
0.0
  0
LINE
  5
   22D
  8
0
  6
CONTINUOUS
 62
   130
 10
2.69409810304751
 20
-41.6754592686902
 30
0.0
 11
2.69409810304751
 21
-41.325459304453
 31
0.0
  0
LINE
  5
   22E
  8
0
  6
CONTINUOUS
 62
   130
 10
2.9160364043446
 20
-41.6754592686902
 30
0.0
 11
2.69409810304751
 21
-41.6754592686902
 31
0.0
  0
LINE
  5
   22F
  8
0
  6
CONTINUOUS
 62
   130
 10
3.04410872757435
 20
-41.6754592686902
 30
0.0
 11
2.9160364043446
 21
-41.6754592686902
 31
0.0
  0
LINE
  5
   230
  8
0
  6
CONTINUOUS
 62
   130
 10
3.04410874843597
 20
-41.325459304453
 30
0.0
 11
2.91604176578184
 21
-41.325459304453
 31
0.0
  0
LINE
  5
   231
  8
0
  6
CONTINUOUS
 62
   130
 10
2.9160364043446
 20
-41.325459304453
 30
0.0
 11
2.69409810304751
 21
-41.325459304453
 31
0.0
  0
LINE
  5
   232
  8
0
  6
CONTINUOUS
 62
     1
 10
2.69409810304751
 20
-42.3754591971647
 30
0.0
 11
-14.1058894991875
 21
-42.3754591971647
 31
0.0
  0
LINE
  5
   233
  8
0
  6
CONTINUOUS
 62
     1
 10
-45.6058726509549
 20
-42.3754745513097
 30
0.0
 11
-28.8058797081443
 21
-42.3754638701586
 31
0.0
  0
LINE
  5
   234
  8
0
  6
CONTINUOUS
 62
   130
 10
-45.6058755993854
 20
-35.0254706293344
 30
0.0
 11
-45.6058755993854
 21
-34.6754706650972
 31
0.0
  0
LINE
  5
   235
  8
0
  6
CONTINUOUS
 62
   130
 10
-45.6058755993854
 20
-35.0254706293344
 30
0.0
 11
-45.9558969259251
 21
-35.0254706293344
 31
0.0
  0
LINE
  5
   236
  8
0
  6
CONTINUOUS
 62
   130
 10
-45.6058755993854
 20
-34.6754706650972
 30
0.0
 11
-45.9558969259251
 21
-34.6754706650972
 31
0.0
  0
LINE
  5
   237
  8
0
  6
CONTINUOUS
 62
   130
 10
2.69409810304751
 20
-35.0254599481832
 30
0.0
 11
2.69409810304751
 21
-34.675459983946
 31
0.0
  0
LINE
  5
   238
  8
0
  6
CONTINUOUS
 62
   130
 10
2.91604708549585
 20
-35.0254599481832
 30
0.0
 11
2.69409810304751
 21
-35.0254599481832
 31
0.0
  0
LINE
  5
   239
  8
0
  6
CONTINUOUS
 62
   130
 10
3.04410874843597
 20
-35.0254599481832
 30
0.0
 11
2.91604708549585
 21
-35.0254599481832
 31
0.0
  0
LINE
  5
   23A
  8
0
  6
CONTINUOUS
 62
   130
 10
3.04410874843597
 20
-34.675459983946
 30
0.0
 11
2.69409810304751
 21
-34.675459983946
 31
0.0
  0
LINE
  5
   23B
  8
0
  6
CONTINUOUS
 62
     1
 10
-45.6058727936536
 20
-35.7254705578079
 30
0.0
 11
2.6940955682037
 21
-35.7254598766568
 31
0.0
  0
LINE
  5
   23C
  8
0
  6
CONTINUOUS
 62
     1
 10
-57.1098023893833
 20
-74.6629659196335
 30
0.0
 11
-57.7683594509985
 21
-74.6629635831319
 31
0.0
  0
LINE
  5
   23D
  8
0
  6
CONTINUOUS
 62
     1
 10
14.1980248930454
 20
-74.6629659196335
 30
0.0
 11
14.8565819546606
 21
-74.6629635831319
 31
0.0
  0
LINE
  5
   23E
  8
0
  6
CONTINUOUS
 62
     1
 10
15.2941067091865
 20
-0.987974107265472
 30
0.0
 11
-58.2058842055244
 21
-0.987974107265472
 31
0.0
  0
LINE
  5
   23F
  8
0
  6
CONTINUOUS
 62
     1
 10
14.1980237769485
 20
-74.6629662454129
 30
0.0
 11
5.14410853385925
 21
-74.6629662454129
 31
0.0
  0
LINE
  5
   240
  8
0
  6
CONTINUOUS
 62
     1
 10
15.2065968245279
 20
-74.3129662811756
 30
0.0
 11
5.14410853385925
 21
-74.3129662811756
 31
0.0
  0
LINE
  5
   241
  8
0
  6
CONTINUOUS
 62
     1
 10
-48.0558860301971
 20
-29.5129925549008
 30
0.0
 11
-58.2058801939377
 21
-29.5129925549008
 31
0.0
  0
LINE
  5
   242
  8
0
  6
CONTINUOUS
 62
     1
 10
15.2065968245279
 20
-29.5129925549008
 30
0.0
 11
5.14410853385926
 21
-29.5129925549008
 31
0.0
  0
LINE
  5
   243
  8
0
  6
CONTINUOUS
 62
     1
 10
15.2065968245279
 20
-66.2629731118673
 30
0.0
 11
5.14410853385925
 21
-66.2629731118673
 31
0.0
  0
LINE
  5
   244
  8
0
  6
CONTINUOUS
 62
     1
 10
-48.0558860301971
 20
-66.2629731118673
 30
0.0
 11
-58.118385002017
 21
-66.2629731118673
 31
0.0
  0
LINE
  5
   245
  8
0
  6
CONTINUOUS
 62
     1
 10
-57.4533765250453
 20
-29.5129925549008
 30
0.0
 11
-57.4533765250453
 21
-0.987979447841099
 31
0.0
  0
LINE
  5
   246
  8
0
  6
CONTINUOUS
 62
     1
 10
-56.1933638364098
 20
-29.5129925549008
 30
0.0
 11
-56.1933638364098
 21
-0.987979447841099
 31
0.0
  0
LINE
  5
   247
  8
0
  6
CONTINUOUS
 62
     1
 10
-54.9333725100769
 20
-29.5129925549008
 30
0.0
 11
-54.9333725100769
 21
-0.987979447841099
 31
0.0
  0
LINE
  5
   248
  8
0
  6
CONTINUOUS
 62
     1
 10
-53.6733811837439
 20
-29.5129925549008
 30
0.0
 11
-53.6733811837439
 21
-0.987979447841099
 31
0.0
  0
LINE
  5
   249
  8
0
  6
CONTINUOUS
 62
     1
 10
-52.4133684951084
 20
-29.5129925549008
 30
0.0
 11
-52.4133684951084
 21
-0.987979447841099
 31
0.0
  0
LINE
  5
   24A
  8
0
  6
CONTINUOUS
 62
     1
 10
-51.1533771687755
 20
-29.5129925549008
 30
0.0
 11
-51.1533771687755
 21
-0.987979447841099
 31
0.0
  0
LINE
  5
   24B
  8
0
  6
CONTINUOUS
 62
     1
 10
-49.89336448014
 20
-29.5129925549008
 30
0.0
 11
-49.89336448014
 21
-0.987979447841099
 31
0.0
  0
LINE
  5
   24C
  8
0
  6
CONTINUOUS
 62
     1
 10
-48.633373153807
 20
-29.5129925549008
 30
0.0
 11
-48.633373153807
 21
-0.987979447841099
 31
0.0
  0
LINE
  5
   24D
  8
0
  6
CONTINUOUS
 62
     1
 10
-47.3733818274741
 20
-19.7129942238308
 30
0.0
 11
-47.3733818274741
 21
-0.987979447841099
 31
0.0
  0
LINE
  5
   24E
  8
0
  6
CONTINUOUS
 62
     1
 10
-46.1133691388386
 20
-19.7129942238308
 30
0.0
 11
-46.1133691388386
 21
-0.987979447841099
 31
0.0
  0
LINE
  5
   24F
  8
0
  6
CONTINUOUS
 62
     1
 10
-57.4533765250453
 20
-66.2629620969301
 30
0.0
 11
-57.4533765250453
 21
-29.5129925549008
 31
0.0
  0
LINE
  5
   250
  8
0
  6
CONTINUOUS
 62
     1
 10
-56.1933638364098
 20
-66.2629620969301
 30
0.0
 11
-56.1933638364098
 21
-29.5129925549008
 31
0.0
  0
LINE
  5
   251
  8
0
  6
CONTINUOUS
 62
     1
 10
-54.9333725100769
 20
-66.2629620969301
 30
0.0
 11
-54.9333725100769
 21
-29.5129925549008
 31
0.0
  0
LINE
  5
   252
  8
0
  6
CONTINUOUS
 62
     1
 10
-53.6733811837439
 20
-66.2629620969301
 30
0.0
 11
-53.6733811837439
 21
-29.5129925549008
 31
0.0
  0
LINE
  5
   253
  8
0
  6
CONTINUOUS
 62
     1
 10
-52.4133684951084
 20
-66.2629620969301
 30
0.0
 11
-52.4133684951084
 21
-29.5129925549008
 31
0.0
  0
LINE
  5
   254
  8
0
  6
CONTINUOUS
 62
     1
 10
-51.1533771687755
 20
-66.2629620969301
 30
0.0
 11
-51.1533771687755
 21
-29.5129925549008
 31
0.0
  0
LINE
  5
   255
  8
0
  6
CONTINUOUS
 62
     1
 10
-49.89336448014
 20
-66.2629620969301
 30
0.0
 11
-49.89336448014
 21
-29.5129925549008
 31
0.0
  0
LINE
  5
   256
  8
0
  6
CONTINUOUS
 62
     1
 10
-48.633373153807
 20
-66.2629620969301
 30
0.0
 11
-48.633373153807
 21
-29.5129925549008
 31
0.0
  0
LINE
  5
   257
  8
0
  6
CONTINUOUS
 62
     1
 10
-46.1133691388386
 20
-66.2629620969301
 30
0.0
 11
-46.1133691388386
 21
-29.5129925549008
 31
0.0
  0
LINE
  5
   258
  8
0
  6
CONTINUOUS
 62
     2
 10
-57.4533765250453
 20
-116.488118812247
 30
0.0
 11
-57.4533765250453
 21
-89.0129602926967
 31
0.0
  0
LINE
  5
   259
  8
0
  6
CONTINUOUS
 62
     2
 10
-56.1933638364098
 20
-116.48811692575
 30
0.0
 11
-56.1933638364098
 21
-89.0129602926967
 31
0.0
  0
LINE
  5
   25A
  8
0
  6
CONTINUOUS
 62
     2
 10
-54.9333725100769
 20
-116.488115039285
 30
0.0
 11
-54.9333725100769
 21
-89.0129602926967
 31
0.0
  0
LINE
  5
   25B
  8
0
  6
CONTINUOUS
 62
     2
 10
-53.6733811837439
 20
-116.488113152819
 30
0.0
 11
-53.6733811837439
 21
-89.0129602926967
 31
0.0
  0
LINE
  5
   25C
  8
0
  6
CONTINUOUS
 62
     2
 10
-52.4133684951084
 20
-116.488111266322
 30
0.0
 11
-52.4133684951084
 21
-89.0129602926967
 31
0.0
  0
LINE
  5
   25D
  8
0
  6
CONTINUOUS
 62
     2
 10
-51.1533771687755
 20
-116.488109379857
 30
0.0
 11
-51.1533771687755
 21
-89.0129602926967
 31
0.0
  0
LINE
  5
   25E
  8
0
  6
CONTINUOUS
 62
     2
 10
-49.89336448014
 20
-116.488107493359
 30
0.0
 11
-49.89336448014
 21
-89.0129602926967
 31
0.0
  0
LINE
  5
   25F
  8
0
  6
CONTINUOUS
 62
     2
 10
-48.633373153807
 20
-116.488105606894
 30
0.0
 11
-48.633373153807
 21
-89.0129602926967
 31
0.0
  0
LINE
  5
   260
  8
0
  6
CONTINUOUS
 62
     2
 10
-47.3733818274741
 20
-116.488103720429
 30
0.0
 11
-47.3733818274741
 21
-89.0129602926967
 31
0.0
  0
LINE
  5
   261
  8
0
  6
CONTINUOUS
 62
     2
 10
-46.1133691388386
 20
-88.4879624962809
 30
0.0
 11
-46.1133691388386
 21
-76.0629871308782
 31
0.0
  0
LINE
  5
   262
  8
0
  6
CONTINUOUS
 62
     1
 10
14.5415990287074
 20
-29.5129925549008
 30
0.0
 11
14.5415990287074
 21
-0.987979447841099
 31
0.0
  0
LINE
  5
   263
  8
0
  6
CONTINUOUS
 62
     1
 10
13.281586340072
 20
-29.5129925549008
 30
0.0
 11
13.281586340072
 21
-0.987979447841099
 31
0.0
  0
LINE
  5
   264
  8
0
  6
CONTINUOUS
 62
     1
 10
12.021595013739
 20
-29.5129925549008
 30
0.0
 11
12.021595013739
 21
-0.987979447841099
 31
0.0
  0
LINE
  5
   265
  8
0
  6
CONTINUOUS
 62
     1
 10
10.761603687406
 20
-29.5129925549008
 30
0.0
 11
10.761603687406
 21
-0.987979447841099
 31
0.0
  0
LINE
  5
   266
  8
0
  6
CONTINUOUS
 62
     1
 10
9.50159099877055
 20
-29.5129925549008
 30
0.0
 11
9.50159099877055
 21
-0.987979447841099
 31
0.0
  0
LINE
  5
   267
  8
0
  6
CONTINUOUS
 62
     1
 10
8.24159967243759
 20
-29.5129925549008
 30
0.0
 11
8.24159967243759
 21
-0.987979447841099
 31
0.0
  0
LINE
  5
   268
  8
0
  6
CONTINUOUS
 62
     1
 10
6.98158698380212
 20
-29.5129925549008
 30
0.0
 11
6.98158698380212
 21
-0.987979447841099
 31
0.0
  0
LINE
  5
   269
  8
0
  6
CONTINUOUS
 62
     1
 10
5.72159565746915
 20
-29.5129925549008
 30
0.0
 11
5.72159565746915
 21
-0.987979447841099
 31
0.0
  0
LINE
  5
   26A
  8
0
  6
CONTINUOUS
 62
     1
 10
4.46160433113619
 20
-19.7129942238308
 30
0.0
 11
4.46160433113619
 21
-0.987979447841099
 31
0.0
  0
LINE
  5
   26B
  8
0
  6
CONTINUOUS
 62
     1
 10
3.20159164250072
 20
-19.7129942238308
 30
0.0
 11
3.20159164250072
 21
-0.987979447841099
 31
0.0
  0
LINE
  5
   26C
  8
0
  6
CONTINUOUS
 62
     1
 10
14.5415990287074
 20
-66.2629704415795
 30
0.0
 11
14.5415990287074
 21
-29.5130008995503
 31
0.0
  0
LINE
  5
   26D
  8
0
  6
CONTINUOUS
 62
     1
 10
13.281586340072
 20
-66.2629704415795
 30
0.0
 11
13.281586340072
 21
-29.5130008995503
 31
0.0
  0
LINE
  5
   26E
  8
0
  6
CONTINUOUS
 62
     1
 10
12.021595013739
 20
-66.2629704415795
 30
0.0
 11
12.021595013739
 21
-29.5130008995503
 31
0.0
  0
LINE
  5
   26F
  8
0
  6
CONTINUOUS
 62
     1
 10
10.761603687406
 20
-66.2629704415795
 30
0.0
 11
10.761603687406
 21
-29.5130008995503
 31
0.0
  0
LINE
  5
   270
  8
0
  6
CONTINUOUS
 62
     1
 10
9.50159099877055
 20
-66.2629704415795
 30
0.0
 11
9.50159099877055
 21
-29.5130008995503
 31
0.0
  0
LINE
  5
   271
  8
0
  6
CONTINUOUS
 62
     1
 10
8.24159967243759
 20
-66.2629704415795
 30
0.0
 11
8.24159967243759
 21
-29.5130008995503
 31
0.0
  0
LINE
  5
   272
  8
0
  6
CONTINUOUS
 62
     1
 10
6.98158698380212
 20
-66.2629704415795
 30
0.0
 11
6.98158698380212
 21
-29.5130008995503
 31
0.0
  0
LINE
  5
   273
  8
0
  6
CONTINUOUS
 62
     1
 10
5.72159565746915
 20
-66.2629704415795
 30
0.0
 11
5.72159565746915
 21
-29.5130008995503
 31
0.0
  0
LINE
  5
   274
  8
0
  6
CONTINUOUS
 62
     1
 10
3.20159164250072
 20
-66.2629704415795
 30
0.0
 11
3.20159164250072
 21
-29.5130008995503
 31
0.0
  0
LINE
  5
   275
  8
0
  6
CONTINUOUS
 62
     1
 10
14.5415990287074
 20
-74.3129662811756
 30
0.0
 11
14.5415990287074
 21
-66.2629724442954
 31
0.0
  0
LINE
  5
   276
  8
0
  6
CONTINUOUS
 62
     1
 10
13.281586340072
 20
-74.3129662811756
 30
0.0
 11
13.281586340072
 21
-66.2629724442954
 31
0.0
  0
LINE
  5
   277
  8
0
  6
CONTINUOUS
 62
     1
 10
12.021595013739
 20
-74.3129662811756
 30
0.0
 11
12.021595013739
 21
-66.2629724442954
 31
0.0
  0
LINE
  5
   278
  8
0
  6
CONTINUOUS
 62
     1
 10
10.761603687406
 20
-74.3129662811756
 30
0.0
 11
10.761603687406
 21
-66.2629724442954
 31
0.0
  0
LINE
  5
   279
  8
0
  6
CONTINUOUS
 62
     1
 10
9.50159099877055
 20
-74.3129662811756
 30
0.0
 11
9.50159099877055
 21
-66.2629724442954
 31
0.0
  0
LINE
  5
   27A
  8
0
  6
CONTINUOUS
 62
     1
 10
8.24159967243759
 20
-74.3129662811756
 30
0.0
 11
8.24159967243759
 21
-66.2629724442954
 31
0.0
  0
LINE
  5
   27B
  8
0
  6
CONTINUOUS
 62
     1
 10
6.98158698380212
 20
-74.3129662811756
 30
0.0
 11
6.98158698380212
 21
-66.2629724442954
 31
0.0
  0
LINE
  5
   27C
  8
0
  6
CONTINUOUS
 62
     1
 10
5.72159565746915
 20
-74.3129662811756
 30
0.0
 11
5.72159565746915
 21
-66.2629724442954
 31
0.0
  0
LINE
  5
   27D
  8
0
  6
CONTINUOUS
 62
     1
 10
3.20159164250072
 20
-74.3129662811756
 30
0.0
 11
3.20159164250072
 21
-66.2629724442954
 31
0.0
  0
LINE
  5
   27E
  8
0
  6
CONTINUOUS
 62
     1
 10
2.51910422945117
 20
-19.7129942238308
 30
0.0
 11
2.51909745773585
 21
-2.73797504543293
 31
0.0
  0
LINE
  5
   27F
  8
0
  6
CONTINUOUS
 62
     1
 10
-45.430874849324
 20
-19.7129942238308
 30
0.0
 11
-45.4308816210381
 21
-2.73797815202659
 31
0.0
  0
LINE
  5
   280
  8
0
  6
CONTINUOUS
 62
     1
 10
2.5190981209289
 20
-2.73797392845154
 30
0.0
 11
-45.4308809578424
 21
-2.73797392845154
 31
0.0
  0
LINE
  5
   281
  8
0
  6
CONTINUOUS
 62
     1
 10
14.8565861791394
 20
-74.662963908911
 30
0.0
 11
14.8565861791394
 21
-74.3129662811756
 31
0.0
  0
LINE
  5
   282
  8
0
  6
CONTINUOUS
 62
     1
 10
-57.7683636754773
 20
-74.662963908911
 30
0.0
 11
-57.7683636754773
 21
-74.3129662811756
 31
0.0
  0
LINE
  5
   283
  8
0
  6
CONTINUOUS
 62
     1
 10
-20.9132885305757
 20
-116.488064104245
 30
0.0
 11
-20.9133056353867
 21
-89.0129602926967
 31
0.0
  0
LINE
  5
   284
  8
0
  6
CONTINUOUS
 62
     1
 10
-19.6532903913011
 20
-116.488062217769
 30
0.0
 11
-19.6533071733788
 21
-89.0129602926967
 31
0.0
  0
LINE
  5
   285
  8
0
  6
CONTINUOUS
 62
     1
 10
-18.2182888727083
 20
-116.488060069278
 30
0.0
 11
-18.2183059775169
 21
-89.0129602926967
 31
0.0
  0
LINE
  5
   286
  8
0
  6
CONTINUOUS
 62
     1
 10
-16.9582892017269
 20
-116.4880581828
 30
0.0
 11
-16.9583063065343
 21
-89.0129602926967
 31
0.0
  0
LINE
  5
   287
  8
0
  6
CONTINUOUS
 62
     1
 10
-15.6983062015007
 20
-116.488056296347
 30
0.0
 11
-15.6983216926463
 21
-89.0129602926967
 31
0.0
  0
LINE
  5
   288
  8
0
  6
CONTINUOUS
 62
     1
 10
-14.4383041940174
 20
-116.488054409866
 30
0.0
 11
-14.4383196851619
 21
-89.0129602926967
 31
0.0
  0
LINE
  5
   289
  8
0
  6
CONTINUOUS
 62
     1
 10
-13.1782830198014
 20
-116.488052523356
 30
0.0
 11
-13.1783036746582
 21
-89.0129602926967
 31
0.0
  0
LINE
  5
   28A
  8
0
  6
CONTINUOUS
 62
     1
 10
-11.9183055196263
 20
-116.488050636911
 30
0.0
 11
-11.9183210107686
 21
-89.0129602926967
 31
0.0
  0
LINE
  5
   28B
  8
0
  6
CONTINUOUS
 62
     1
 10
-10.6583663529182
 20
-116.488048750524
 30
0.0
 11
-10.6583663529182
 21
-98.8990191354621
 31
0.0
  0
LINE
  5
   28C
  8
0
  6
CONTINUOUS
 62
     1
 10
-9.3983750265852
 20
-116.488046864059
 30
0.0
 11
-9.3983750265852
 21
-99.852066093778
 31
0.0
  0
LINE
  5
   28D
  8
0
  6
CONTINUOUS
 62
     1
 10
-8.13837301910098
 20
-116.488044977577
 30
0.0
 11
-8.13837301910098
 21
-99.4473331099683
 31
0.0
  0
LINE
  5
   28E
  8
0
  6
CONTINUOUS
 62
     1
 10
-6.87828900411247
 20
-116.488043090973
 30
0.0
 11
-6.87830965896223
 21
-89.0129602926967
 31
0.0
  0
LINE
  5
   28F
  8
0
  6
CONTINUOUS
 62
     1
 10
-5.61828699662932
 20
-116.488041204492
 30
0.0
 11
-5.61830765147765
 21
-89.0129602926967
 31
0.0
  0
LINE
  5
   290
  8
0
  6
CONTINUOUS
 62
     1
 10
-4.35828498914616
 20
-116.488039318011
 30
0.0
 11
-4.35830564399308
 21
-89.0129602926967
 31
0.0
  0
LINE
  5
   291
  8
0
  6
CONTINUOUS
 62
     1
 10
-3.09833733685392
 20
-116.488037431611
 30
0.0
 11
-3.09834766427667
 21
-89.0129602926967
 31
0.0
  0
LINE
  5
   292
  8
0
  6
CONTINUOUS
 62
     1
 10
-1.8382916553311
 20
-116.488035545064
 30
0.0
 11
-1.83831231017518
 21
-89.0129602926967
 31
0.0
  0
LINE
  5
   293
  8
0
  6
CONTINUOUS
 62
     1
 10
-0.578289647847946
 20
-116.488033658583
 30
0.0
 11
-0.57831030269061
 21
-89.0129602926967
 31
0.0
  0
LINE
  5
   294
  8
0
  6
CONTINUOUS
 62
     1
 10
0.68171235963521
 20
-116.488031772101
 30
0.0
 11
0.681691704793966
 21
-89.0129602926967
 31
0.0
  0
LINE
  5
   295
  8
0
  6
CONTINUOUS
 62
     1
 10
1.94170368596711
 20
-116.488029885636
 30
0.0
 11
1.94168303112728
 21
-89.0129602926967
 31
0.0
  0
LINE
  5
   296
  8
0
  6
CONTINUOUS
 62
     1
 10
15.2941067830185
 20
-0.462979501485279
 30
0.0
 11
-21.4558887481689
 21
-0.462979501485279
 31
0.0
  0
LINE
  5
   297
  8
0
  6
CONTINUOUS
 62
     1
 10
-22.1734924229648
 20
-116.488065991028
 30
0.0
 11
-22.1734756408848
 21
-89.0129602926967
 31
0.0
  0
LINE
  5
   298
  8
0
  6
CONTINUOUS
 62
     1
 10
-23.4334978869902
 20
-116.488067877515
 30
0.0
 11
-23.43347981398
 21
-89.0129602926967
 31
0.0
  0
LINE
  5
   299
  8
0
  6
CONTINUOUS
 62
     1
 10
-24.6934939642112
 20
-116.488069763987
 30
0.0
 11
-24.6934768593966
 21
-89.0129602926967
 31
0.0
  0
LINE
  5
   29A
  8
0
  6
CONTINUOUS
 62
     1
 10
-25.953493635195
 20
-116.488071650465
 30
0.0
 11
-25.9534765303793
 21
-89.0129602926967
 31
0.0
  0
LINE
  5
   29B
  8
0
  6
CONTINUOUS
 62
     1
 10
-27.2134766353455
 20
-116.488073536918
 30
0.0
 11
-27.2134611442371
 21
-89.0129602926967
 31
0.0
  0
LINE
  5
   29C
  8
0
  6
CONTINUOUS
 62
     1
 10
-28.473478642831
 20
-116.488075423399
 30
0.0
 11
-28.4734631517215
 21
-89.0129602926967
 31
0.0
  0
LINE
  5
   29D
  8
0
  6
CONTINUOUS
 62
     1
 10
-29.7334998170307
 20
-116.488077309909
 30
0.0
 11
-29.7334791622161
 21
-89.0129602926967
 31
0.0
  0
LINE
  5
   29E
  8
0
  6
CONTINUOUS
 62
     1
 10
-30.9934773172263
 20
-116.488079196354
 30
0.0
 11
-30.9934618261147
 21
-89.0129602926967
 31
0.0
  0
LINE
  5
   29F
  8
0
  6
CONTINUOUS
 62
     1
 10
-32.2534164839954
 20
-116.488081082741
 30
0.0
 11
-32.2534164839954
 21
-98.8990561466539
 31
0.0
  0
LINE
  5
   2A0
  8
0
  6
CONTINUOUS
 62
     1
 10
-32.2534145318004
 20
12.8894041365207
 30
0.0
 11
-32.2533895409078
 21
30.5119038970936
 31
0.0
  0
LINE
  5
   2A1
  8
0
  6
CONTINUOUS
 62
     1
 10
-33.338412525717
 20
13.8295296865575
 30
0.0
 11
-33.3383872934212
 21
30.5119022726296
 31
0.0
  0
LINE
  5
   2A2
  8
0
  6
CONTINUOUS
 62
     1
 10
-33.5134024697527
 20
-116.488082969198
 30
0.0
 11
-33.5134024697527
 21
-99.8520236344766
 31
0.0
  0
LINE
  5
   2A3
  8
0
  6
CONTINUOUS
 62
     1
 10
-34.5984008725019
 20
13.6039346841856
 30
0.0
 11
-34.5983757010438
 21
30.5119003861687
 31
0.0
  0
LINE
  5
   2A4
  8
0
  6
CONTINUOUS
 62
     1
 10
-34.7734044772369
 20
-116.48808485568
 30
0.0
 11
-34.7734044772369
 21
-99.4470683316841
 31
0.0
  0
LINE
  5
   2A5
  8
0
  6
CONTINUOUS
 62
     1
 10
-36.0334884921684
 20
-116.488086742284
 30
0.0
 11
-36.0334678373405
 21
-89.0129602926967
 31
0.0
  0
LINE
  5
   2A6
  8
0
  6
CONTINUOUS
 62
     1
 10
-37.2934904996544
 20
-116.488088628765
 30
0.0
 11
-37.2934698448251
 21
-89.0129602926967
 31
0.0
  0
LINE
  5
   2A7
  8
0
  6
CONTINUOUS
 62
     1
 10
-38.5534925071404
 20
-116.488090515246
 30
0.0
 11
-38.5534718523096
 21
-89.0129602926967
 31
0.0
  0
LINE
  5
   2A8
  8
0
  6
CONTINUOUS
 62
     1
 10
-39.8134945146264
 20
-116.488092401728
 30
0.0
 11
-39.8134738597942
 21
-89.0129602926967
 31
0.0
  0
LINE
  5
   2A9
  8
0
  6
CONTINUOUS
 62
     1
 10
-41.0734858409611
 20
-116.488094288193
 30
0.0
 11
-41.0734651861275
 21
-89.0129602926967
 31
0.0
  0
LINE
  5
   2AA
  8
0
  6
CONTINUOUS
 62
     1
 10
-42.3334878484471
 20
-116.488096174674
 30
0.0
 11
-42.3334671936121
 21
-89.0129602926967
 31
0.0
  0
LINE
  5
   2AB
  8
0
  6
CONTINUOUS
 62
     1
 10
-43.5934898559408
 20
-116.488098061156
 30
0.0
 11
-43.5934692010997
 21
-89.0129602926967
 31
0.0
  0
LINE
  5
   2AC
  8
0
  6
CONTINUOUS
 62
     1
 10
-44.8534918634268
 20
-116.488099947637
 30
0.0
 11
-44.8534712085843
 21
-89.0129602926967
 31
0.0
  0
LINE
  5
   2AD
  8
0
  6
CONTINUOUS
 62
     1
 10
-46.1134011822924
 20
-0.462958139182774
 30
0.0
 11
-46.1134011822924
 21
30.5118831458149
 31
0.0
  0
LINE
  5
   2AE
  8
0
  6
CONTINUOUS
 62
     1
 10
-47.3733979114414
 20
-0.463033846447402
 30
0.0
 11
-47.3733862685162
 21
30.511881259359
 31
0.0
  0
LINE
  5
   2AF
  8
0
  6
CONTINUOUS
 62
     1
 10
-48.6333999811621
 20
-0.463023157256799
 30
0.0
 11
-48.6333766953211
 21
30.511879372895
 31
0.0
  0
LINE
  5
   2B0
  8
0
  6
CONTINUOUS
 62
     1
 10
-49.8933965235938
 20
-0.462958139182774
 30
0.0
 11
-49.8933965235938
 21
30.511877486387
 31
0.0
  0
LINE
  5
   2B1
  8
0
  6
CONTINUOUS
 62
     1
 10
-51.1533932527426
 20
-0.46303242561369
 30
0.0
 11
-51.15338160982
 21
30.5118755999311
 31
0.0
  0
LINE
  5
   2B2
  8
0
  6
CONTINUOUS
 62
     1
 10
-52.4134005385622
 20
-0.462958139182774
 30
0.0
 11
-52.4134005385622
 21
30.5118737134244
 31
0.0
  0
LINE
  5
   2B3
  8
0
  6
CONTINUOUS
 62
     1
 10
-53.6733972677108
 20
-0.463031478388558
 30
0.0
 11
-53.67338562479
 21
30.5118718269685
 31
0.0
  0
LINE
  5
   2B4
  8
0
  6
CONTINUOUS
 62
     1
 10
-54.9333885940437
 20
-0.463031004780007
 30
0.0
 11
-54.9333769511238
 21
30.5118699405032
 31
0.0
  0
LINE
  5
   2B5
  8
0
  6
CONTINUOUS
 62
     1
 10
-56.1933958798636
 20
-0.462958139182774
 30
0.0
 11
-56.1933958798636
 21
30.5118680539965
 31
0.0
  0
LINE
  5
   2B6
  8
0
  6
CONTINUOUS
 62
     1
 10
-57.4533926089999
 20
-0.463019376399515
 30
0.0
 11
-57.4533809660822
 21
30.5118661675406
 31
0.0
  0
LINE
  5
   2B7
  8
0
  6
CONTINUOUS
 62
     1
 10
-21.4558909072893
 20
-0.462979501464872
 30
0.0
 11
-58.2058842793602
 21
-0.462952708358358
 31
0.0
  0
LINE
  5
   2B8
  8
0
  6
CONTINUOUS
 62
     3
 10
15.2941074967384
 20
1.28702031970079
 30
0.0
 11
15.2941074967384
 21
27.5369375288574
 31
0.0
  0
LINE
  5
   2B9
  8
0
  6
CONTINUOUS
 62
     3
 10
15.2237183301809
 20
27.7993914877217
 30
0.0
 11
14.9611568703502
 21
28.0619748372854
 31
0.0
  0
LINE
  5
   2BA
  8
0
  6
CONTINUOUS
 62
     3
 10
15.2941223533594
 20
27.5368740693424
 30
0.0
 11
15.2237816379777
 21
27.7993740405955
 31
0.0
  0
LINE
  5
   2BB
  8
0
  6
CONTINUOUS
 62
     3
 10
-58.2058849930763
 20
1.28702031970079
 30
0.0
 11
-58.2058849930763
 21
27.5369375288574
 31
0.0
  0
LINE
  5
   2BC
  8
0
  6
CONTINUOUS
 62
     3
 10
-57.9433623064271
 20
27.9915413817737
 30
0.0
 11
-57.6808623403121
 21
28.061866077291
 31
0.0
  0
LINE
  5
   2BD
  8
0
  6
CONTINUOUS
 62
     3
 10
-58.1354958265188
 20
27.7993914877217
 30
0.0
 11
-57.9433365769751
 21
27.9915667575703
 31
0.0
  0
LINE
  5
   2BE
  8
0
  6
CONTINUOUS
 62
     3
 10
-58.2058998496973
 20
27.5368740693424
 30
0.0
 11
-58.1355591343156
 21
27.7993740405955
 31
0.0
  0
LINE
  5
   2BF
  8
0
  6
CONTINUOUS
 62
     3
 10
15.2940944037155
 20
-88.4879624962809
 30
0.0
 11
15.2941070291272
 21
1.28701515140433
 31
0.0
  0
LINE
  5
   2C0
  8
0
  6
CONTINUOUS
 62
     3
 10
-58.2058719000534
 20
-88.4879624962809
 30
0.0
 11
-58.2058845254651
 21
1.28701515140433
 31
0.0
  0
LINE
  5
   2C1
  8
0
  6
CONTINUOUS
 62
   130
 10
3.04413153609806
 20
-65.5629731833929
 30
0.0
 11
-45.9559211409109
 21
-65.5629731833929
 31
0.0
  0
LINE
  5
   2C2
  8
0
  6
CONTINUOUS
 62
     1
 10
2.60668356119822
 20
-33.7129921257474
 30
0.0
 11
-45.5184824198386
 21
-33.7129921257474
 31
0.0
  0
LINE
  5
   2C3
  8
0
  6
CONTINUOUS
 62
   130
 10
2.60668356119822
 20
-29.5129925549008
 30
0.0
 11
-45.5184824198386
 21
-29.5129925549008
 31
0.0
  0
LINE
  5
   2C4
  8
0
  6
CONTINUOUS
 62
   130
 10
3.04410874843597
 20
-33.012992197273
 30
0.0
 11
3.04410874843597
 21
-29.5129925549008
 31
0.0
  0
LINE
  5
   2C5
  8
0
  6
CONTINUOUS
 62
   130
 10
-45.9558862447739
 20
-33.012992197273
 30
0.0
 11
-45.9558862447739
 21
-29.5129925549008
 31
0.0
  0
LINE
  5
   2C6
  8
0
  6
CONTINUOUS
 62
   130
 10
-14.1058894991875
 20
-36.2290120712987
 30
0.0
 11
-28.8058879971504
 21
-36.2290120712987
 31
0.0
  0
LINE
  5
   2C7
  8
0
  6
CONTINUOUS
 62
   130
 10
-14.1058894991875
 20
-35.9879918932893
 30
0.0
 11
-28.8058879971504
 21
-35.9879918932893
 31
0.0
  0
LINE
  5
   2C8
  8
0
  6
CONTINUOUS
 62
   130
 10
-28.8058799426758
 20
-41.3254613181133
 30
0.0
 11
-28.805885283247
 21
-35.9879939069496
 31
0.0
  0
LINE
  5
   2C9
  8
0
  6
CONTINUOUS
 62
   130
 10
-28.8058826565748
 20
-56.110467833217
 30
0.0
 11
-28.8058826565748
 21
-41.6754592686902
 31
0.0
  0
LINE
  5
   2CA
  8
0
  6
CONTINUOUS
 62
   130
 10
-28.8058826565748
 20
-60.4879733681673
 30
0.0
 11
-28.8058826565748
 21
-57.2504683583975
 31
0.0
  0
LINE
  5
   2CB
  8
0
  6
CONTINUOUS
 62
   130
 10
-28.8058835467846
 20
-62.5879811644646
 30
0.0
 11
-28.80587820621
 21
-60.4879760384657
 31
0.0
  0
LINE
  5
   2CC
  8
0
  6
CONTINUOUS
 62
   130
 10
-14.1058894991875
 20
-62.5879784941662
 30
0.0
 11
-14.1058894991875
 21
-60.4879733681673
 31
0.0
  0
LINE
  5
   2CD
  8
0
  6
CONTINUOUS
 62
   130
 10
-14.1058894991875
 20
-60.4879733681673
 30
0.0
 11
-14.1058894991875
 21
-57.2504683583975
 31
0.0
  0
LINE
  5
   2CE
  8
0
  6
CONTINUOUS
 62
   130
 10
-14.1058894991875
 20
-56.110467833217
 30
0.0
 11
-14.1058894991875
 21
-41.6754592686902
 31
0.0
  0
LINE
  5
   2CF
  8
0
  6
CONTINUOUS
 62
   130
 10
-14.1058894991875
 20
-41.325459304453
 30
0.0
 11
-14.1058894991875
 21
-35.9879918932893
 31
0.0
  0
LINE
  5
   2D0
  8
0
  6
CONTINUOUS
 62
     1
 10
-45.5184824198386
 20
-33.7129921257474
 30
0.0
 11
-45.8278299224094
 21
-33.7129921257474
 31
0.0
  0
LINE
  5
   2D1
  8
0
  6
CONTINUOUS
 62
   130
 10
-45.5184824198386
 20
-65.5629731833929
 30
0.0
 11
-45.6058755993854
 21
-65.5629731833929
 31
0.0
  0
LINE
  5
   2D2
  8
0
  6
CONTINUOUS
 62
   130
 10
-45.5184777383513
 20
-29.5129948271446
 30
0.0
 11
-45.827825240832
 21
-29.5129841459945
 31
0.0
  0
LINE
  5
   2D3
  8
0
  6
CONTINUOUS
 62
   130
 10
-45.9559211409109
 20
-65.5629731833929
 30
0.0
 11
-45.9558940820975
 21
-63.900458781048
 31
0.0
  0
LINE
  5
   2D4
  8
0
  6
CONTINUOUS
 62
   130
 10
-45.9558969259251
 20
-63.5504570335161
 30
0.0
 11
-45.9558969259251
 21
-57.2504576772462
 31
0.0
  0
LINE
  5
   2D5
  8
0
  6
CONTINUOUS
 62
   130
 10
-45.9558926289055
 20
-56.9004618872297
 30
0.0
 11
-45.9558819477549
 21
-41.6754741240622
 31
0.0
  0
LINE
  5
   2D6
  8
0
  6
CONTINUOUS
 62
   130
 10
-45.955882536066
 20
-41.3254741392923
 30
0.0
 11
-45.9558932172166
 21
-35.0254747830225
 31
0.0
  0
LINE
  5
   2D7
  8
0
  6
CONTINUOUS
 62
     1
 10
-45.827829943271
 20
-33.7129921257474
 30
0.0
 11
-45.9559289693789
 21
-33.7129921257474
 31
0.0
  0
LINE
  5
   2D8
  8
0
  6
CONTINUOUS
 62
   130
 10
-45.95589581497
 20
-34.6754729066267
 30
0.0
 11
-45.955927858422
 21
-33.0129944388025
 31
0.0
  0
LINE
  5
   2D9
  8
0
  6
CONTINUOUS
 62
   130
 10
-45.9559242310793
 20
-29.512995173499
 30
0.0
 11
-45.8278252049839
 21
-29.5129844923486
 31
0.0
  0
LINE
  5
   2DA
  8
0
  6
CONTINUOUS
 62
   130
 10
2.60667897730343
 20
-29.5129948853079
 30
0.0
 11
2.91604784221269
 21
-29.5129842041584
 31
0.0
  0
LINE
  5
   2DB
  8
0
  6
CONTINUOUS
 62
     1
 10
2.60668232455413
 20
-33.7129944581249
 30
0.0
 11
2.91605118942737
 21
-33.7129837769755
 31
0.0
  0
LINE
  5
   2DC
  8
0
  6
CONTINUOUS
 62
   130
 10
2.69409810304751
 20
-65.5629731833929
 30
0.0
 11
2.60668356119822
 21
-65.5629731833929
 31
0.0
  0
LINE
  5
   2DD
  8
0
  6
CONTINUOUS
 62
   130
 10
3.04413153609807
 20
-65.5629731833929
 30
0.0
 11
3.04411800669338
 21
-63.9004658998742
 31
0.0
  0
LINE
  5
   2DE
  8
0
  6
CONTINUOUS
 62
   130
 10
3.04411809446576
 20
-63.5504635608303
 30
0.0
 11
3.04410741331847
 21
-57.250469545136
 31
0.0
  0
LINE
  5
   2DF
  8
0
  6
CONTINUOUS
 62
   130
 10
3.04410874843597
 20
-56.9004683941603
 30
0.0
 11
3.04410874843597
 21
-41.6754592686902
 31
0.0
  0
LINE
  5
   2E0
  8
0
  6
CONTINUOUS
 62
   130
 10
3.04410874843597
 20
-41.325459304453
 30
0.0
 11
3.04410874843597
 21
-35.0254599481832
 31
0.0
  0
LINE
  5
   2E1
  8
0
  6
CONTINUOUS
 62
   130
 10
3.0441076418733
 20
-34.6754622281217
 30
0.0
 11
3.04413968531297
 21
-33.0129944414487
 31
0.0
  0
LINE
  5
   2E2
  8
0
  6
CONTINUOUS
 62
   130
 10
3.04413820966613
 20
-33.0129949973666
 30
0.0
 11
2.91604984386278
 21
-33.012984316216
 31
0.0
  0
LINE
  5
   2E3
  8
0
  6
CONTINUOUS
 62
   130
 10
3.04413633923484
 20
-29.5129953426695
 30
0.0
 11
2.9160479734315
 21
-29.5129846615189
 31
0.0
  0
LINE
  5
   2E4
  8
0
  6
CONTINUOUS
 62
   130
 10
-14.1058948397631
 20
-57.2504683583975
 30
0.0
 11
-14.1058948397631
 21
-56.9004683941603
 31
0.0
  0
LINE
  5
   2E5
  8
0
  6
CONTINUOUS
 62
   130
 10
-28.8058879971504
 20
-57.2504683583975
 30
0.0
 11
-28.8058879971504
 21
-56.9004683941603
 31
0.0
  0
LINE
  5
   2E6
  8
0
  6
CONTINUOUS
 62
   130
 10
-14.1058948397631
 20
-41.6754592686902
 30
0.0
 11
-14.1058948397631
 21
-41.325459304453
 31
0.0
  0
LINE
  5
   2E7
  8
0
  6
CONTINUOUS
 62
   130
 10
-28.8058826565748
 20
-41.6754592686902
 30
0.0
 11
-28.8058826565748
 21
-41.325459304453
 31
0.0
  0
LINE
  5
   2E8
  8
0
  6
CONTINUOUS
 62
   210
 10
-14.1058894991875
 20
-59.2391520191088
 30
0.0
 11
-28.8058826565748
 21
-59.2391520191088
 31
0.0
  0
LINE
  5
   2E9
  8
0
  6
CONTINUOUS
 62
   210
 10
-14.1058894991875
 20
-56.8104677616914
 30
0.0
 11
-28.8058826565748
 21
-56.8104677616914
 31
0.0
  0
LINE
  5
   2EA
  8
0
  6
CONTINUOUS
 62
   210
 10
-14.1058894991875
 20
-62.3591608180862
 30
0.0
 11
-28.8058826565748
 21
-62.3591608180862
 31
0.0
  0
LINE
  5
   2EB
  8
0
  6
CONTINUOUS
 62
   210
 10
-14.1058894991875
 20
-65.0765476080284
 30
0.0
 11
-28.8058826565748
 21
-65.0765476080284
 31
0.0
  0
LINE
  5
   2EC
  8
0
  6
CONTINUOUS
 62
   210
 10
-28.8058826565748
 20
-65.0765476080284
 30
0.0
 11
-28.8058826565748
 21
-56.8104677616914
 31
0.0
  0
LINE
  5
   2ED
  8
0
  6
CONTINUOUS
 62
   210
 10
-14.1058894991875
 20
-65.0765476080284
 30
0.0
 11
-14.1058894991875
 21
-56.8104677616914
 31
0.0
  0
LINE
  5
   2EE
  8
0
  6
CONTINUOUS
 62
     1
 10
-28.8058826565748
 20
-64.600461454107
 30
0.0
 11
-45.6058641732614
 21
-64.6004595965158
 31
0.0
  0
CIRCLE
  5
   2EF
  8
0
  6
CONTINUOUS
 62
     1
 10
-33.7058537857306
 20
12.3120173382721
 30
0.0
 40
1.57569269749607
  0
LINE
  5
   2F0
  8
0
  6
DASHDOT
 62
     7
 10
-33.7058537857306
 20
7.23632499840386
 30
0.0
 11
-33.7058537857306
 21
28.0618520260032
 31
0.0
  0
LINE
  5
   2F1
  8
0
  6
DASHDOT
 62
     7
 10
-28.6301614458624
 20
12.3120173382721
 30
0.0
 11
-38.7815461255988
 21
12.3120173382721
 31
0.0
  0
LINE
  5
   2F2
  8
0
  6
CONTINUOUS
 62
     2
 10
14.944320285153
 20
-114.037957735657
 30
0.0
 11
-57.855672276517
 21
-114.037957735657
 31
0.0
  0
LINE
  5
   2F3
  8
0
  6
CONTINUOUS
 62
     1
 10
15.294094329883
 20
-89.0129602926967
 30
0.0
 11
-58.2058718262209
 21
-89.0129602926967
 31
0.0
  0
LINE
  5
   2F4
  8
0
  6
CONTINUOUS
 62
     1
 10
14.9440944148677
 20
-88.6629603284595
 30
0.0
 11
-57.8558719112056
 21
-88.6629603284595
 31
0.0
  0
LINE
  5
   2F5
  8
0
  6
CONTINUOUS
 62
     1
 10
15.2940944037155
 20
-88.4879624962809
 30
0.0
 11
-58.2058719000534
 21
-88.4879624962809
 31
0.0
  0
LINE
  5
   2F6
  8
0
  6
CONTINUOUS
 62
     1
 10
15.2940963233691
 20
-74.8379638910296
 30
0.0
 11
5.14410853385925
 21
-74.8379638910296
 31
0.0
  0
LINE
  5
   2F7
  8
0
  6
CONTINUOUS
 62
     1
 10
15.2940908105182
 20
-114.037957735657
 30
0.0
 11
15.294094329883
 21
-89.0129602926967
 31
0.0
  0
LINE
  5
   2F8
  8
0
  6
CONTINUOUS
 62
     1
 10
-58.2058683068561
 20
-114.037957735657
 30
0.0
 11
-58.2058718262209
 21
-89.0129602926967
 31
0.0
  0
LINE
  5
   2F9
  8
0
  6
CONTINUOUS
 62
     1
 10
-57.8558718619837
 20
-89.0129602926967
 30
0.0
 11
-57.8558719112056
 21
-88.6629603284595
 31
0.0
  0
LINE
  5
   2FA
  8
0
  6
CONTINUOUS
 62
     1
 10
14.9440943656458
 20
-89.0129602926967
 30
0.0
 11
14.9440944148677
 21
-88.6629603284595
 31
0.0
  0
LINE
  5
   2FB
  8
0
  6
CONTINUOUS
 62
     1
 10
-45.9558862447739
 20
-88.4879624962809
 30
0.0
 11
-45.9558862447739
 21
-76.0629871308782
 31
0.0
  0
LINE
  5
   2FC
  8
0
  6
CONTINUOUS
 62
     1
 10
3.04410874843597
 20
-88.4879624962809
 30
0.0
 11
3.04410874843597
 21
-76.0629871308782
 31
0.0
  0
LINE
  5
   2FD
  8
0
  6
CONTINUOUS
 62
     2
 10
-57.4533765250453
 20
-88.4879624962809
 30
0.0
 11
-57.4533765250453
 21
-74.8379638910296
 31
0.0
  0
LINE
  5
   2FE
  8
0
  6
CONTINUOUS
 62
     2
 10
-56.1933638364098
 20
-88.4879624962809
 30
0.0
 11
-56.1933638364098
 21
-74.8379638910296
 31
0.0
  0
LINE
  5
   2FF
  8
0
  6
CONTINUOUS
 62
     2
 10
-54.9333725100769
 20
-88.4879624962809
 30
0.0
 11
-54.9333725100769
 21
-74.8379638910296
 31
0.0
  0
LINE
  5
   300
  8
0
  6
CONTINUOUS
 62
     2
 10
-53.6733811837439
 20
-88.4879624962809
 30
0.0
 11
-53.6733811837439
 21
-74.8379638910296
 31
0.0
  0
LINE
  5
   301
  8
0
  6
CONTINUOUS
 62
     2
 10
-52.4133684951084
 20
-88.4879624962809
 30
0.0
 11
-52.4133684951084
 21
-74.8379638910296
 31
0.0
  0
LINE
  5
   302
  8
0
  6
CONTINUOUS
 62
     2
 10
-51.1533771687755
 20
-88.4879624962809
 30
0.0
 11
-51.1533771687755
 21
-74.8379638910296
 31
0.0
  0
LINE
  5
   303
  8
0
  6
CONTINUOUS
 62
     2
 10
-49.89336448014
 20
-88.4879624962809
 30
0.0
 11
-49.89336448014
 21
-74.8379638910296
 31
0.0
  0
LINE
  5
   304
  8
0
  6
CONTINUOUS
 62
     2
 10
-48.633373153807
 20
-88.4879624962809
 30
0.0
 11
-48.633373153807
 21
-74.8379638910296
 31
0.0
  0
LINE
  5
   305
  8
0
  6
CONTINUOUS
 62
     2
 10
-47.3733818274741
 20
-88.4879624962809
 30
0.0
 11
-47.3733818274741
 21
-76.0629871308782
 31
0.0
  0
LINE
  5
   306
  8
0
  6
CONTINUOUS
 62
     1
 10
-46.1133691388386
 20
-74.3129662811756
 30
0.0
 11
-46.1133691388386
 21
-66.2629724442954
 31
0.0
  0
LINE
  5
   307
  8
0
  6
CONTINUOUS
 62
     1
 10
-57.4533765250453
 20
-74.3129662811756
 30
0.0
 11
-57.4533765250453
 21
-66.2629724442954
 31
0.0
  0
LINE
  5
   308
  8
0
  6
CONTINUOUS
 62
     1
 10
-56.1933638364098
 20
-74.3129662811756
 30
0.0
 11
-56.1933638364098
 21
-66.2629724442954
 31
0.0
  0
LINE
  5
   309
  8
0
  6
CONTINUOUS
 62
     1
 10
-54.9333725100769
 20
-74.3129662811756
 30
0.0
 11
-54.9333725100769
 21
-66.2629724442954
 31
0.0
  0
LINE
  5
   30A
  8
0
  6
CONTINUOUS
 62
     1
 10
-53.6733811837439
 20
-74.3129662811756
 30
0.0
 11
-53.6733811837439
 21
-66.2629724442954
 31
0.0
  0
LINE
  5
   30B
  8
0
  6
CONTINUOUS
 62
     1
 10
-52.4133684951084
 20
-74.3129662811756
 30
0.0
 11
-52.4133684951084
 21
-66.2629724442954
 31
0.0
  0
LINE
  5
   30C
  8
0
  6
CONTINUOUS
 62
     1
 10
-51.1533771687755
 20
-74.3129662811756
 30
0.0
 11
-51.1533771687755
 21
-66.2629724442954
 31
0.0
  0
LINE
  5
   30D
  8
0
  6
CONTINUOUS
 62
     1
 10
-49.89336448014
 20
-74.3129662811756
 30
0.0
 11
-49.89336448014
 21
-66.2629724442954
 31
0.0
  0
LINE
  5
   30E
  8
0
  6
CONTINUOUS
 62
     1
 10
-48.633373153807
 20
-74.3129662811756
 30
0.0
 11
-48.633373153807
 21
-66.2629724442954
 31
0.0
  0
LINE
  5
   30F
  8
0
  6
CONTINUOUS
 62
     2
 10
-46.1133819562201
 20
-116.488101833951
 30
0.0
 11
-46.1133819562201
 21
-89.0129602926967
 31
0.0
  0
LINE
  5
   310
  8
0
  6
CONTINUOUS
 62
     1
 10
14.5415990287074
 20
-88.4879624962809
 30
0.0
 11
14.5415990287074
 21
-74.8379638910296
 31
0.0
  0
LINE
  5
   311
  8
0
  6
CONTINUOUS
 62
     1
 10
13.281586340072
 20
-88.4879624962809
 30
0.0
 11
13.281586340072
 21
-74.8379638910296
 31
0.0
  0
LINE
  5
   312
  8
0
  6
CONTINUOUS
 62
     1
 10
12.021595013739
 20
-88.4879624962809
 30
0.0
 11
12.021595013739
 21
-74.8379638910296
 31
0.0
  0
LINE
  5
   313
  8
0
  6
CONTINUOUS
 62
     1
 10
10.761603687406
 20
-88.4879624962809
 30
0.0
 11
10.761603687406
 21
-74.8379638910296
 31
0.0
  0
LINE
  5
   314
  8
0
  6
CONTINUOUS
 62
     1
 10
9.50159099877055
 20
-88.4879624962809
 30
0.0
 11
9.50159099877055
 21
-74.8379638910296
 31
0.0
  0
LINE
  5
   315
  8
0
  6
CONTINUOUS
 62
     1
 10
8.24159967243759
 20
-88.4879624962809
 30
0.0
 11
8.24159967243759
 21
-74.8379638910296
 31
0.0
  0
LINE
  5
   316
  8
0
  6
CONTINUOUS
 62
     1
 10
6.98158698380212
 20
-88.4879624962809
 30
0.0
 11
6.98158698380212
 21
-74.8379638910296
 31
0.0
  0
LINE
  5
   317
  8
0
  6
CONTINUOUS
 62
     1
 10
5.72159565746915
 20
-88.4879624962809
 30
0.0
 11
5.72159565746915
 21
-74.8379638910296
 31
0.0
  0
LINE
  5
   318
  8
0
  6
CONTINUOUS
 62
     1
 10
4.46160433113619
 20
-88.4879624962809
 30
0.0
 11
4.46160433113619
 21
-76.0629871308782
 31
0.0
  0
LINE
  5
   319
  8
0
  6
CONTINUOUS
 62
     1
 10
3.20159164250072
 20
-88.4879624962809
 30
0.0
 11
3.20159164250072
 21
-76.0629871308782
 31
0.0
  0
LINE
  5
   31A
  8
0
  6
CONTINUOUS
 62
     1
 10
14.5415990287074
 20
-116.48801102101
 30
0.0
 11
14.5415990287074
 21
-89.0129602926967
 31
0.0
  0
LINE
  5
   31B
  8
0
  6
CONTINUOUS
 62
     1
 10
13.281586340072
 20
-116.488012907507
 30
0.0
 11
13.281586340072
 21
-89.0129602926967
 31
0.0
  0
LINE
  5
   31C
  8
0
  6
CONTINUOUS
 62
     1
 10
12.021595013739
 20
-116.488014793972
 30
0.0
 11
12.021595013739
 21
-89.0129602926967
 31
0.0
  0
LINE
  5
   31D
  8
0
  6
CONTINUOUS
 62
     1
 10
10.761603687406
 20
-116.488016680438
 30
0.0
 11
10.761603687406
 21
-89.0129602926967
 31
0.0
  0
LINE
  5
   31E
  8
0
  6
CONTINUOUS
 62
     1
 10
9.50159099877055
 20
-116.488018566935
 30
0.0
 11
9.50159099877055
 21
-89.0129602926967
 31
0.0
  0
LINE
  5
   31F
  8
0
  6
CONTINUOUS
 62
     1
 10
8.24159967243759
 20
-116.4880204534
 30
0.0
 11
8.24159967243759
 21
-89.0129602926967
 31
0.0
  0
LINE
  5
   320
  8
0
  6
CONTINUOUS
 62
     1
 10
6.98158698380212
 20
-116.488022339898
 30
0.0
 11
6.98158698380212
 21
-89.0129602926967
 31
0.0
  0
LINE
  5
   321
  8
0
  6
CONTINUOUS
 62
     1
 10
5.72159565746915
 20
-116.488024226363
 30
0.0
 11
5.72159565746915
 21
-89.0129602926967
 31
0.0
  0
LINE
  5
   322
  8
0
  6
CONTINUOUS
 62
     1
 10
4.46160433113619
 20
-116.488026112828
 30
0.0
 11
4.46160433113619
 21
-89.0129602926967
 31
0.0
  0
LINE
  5
   323
  8
0
  6
CONTINUOUS
 62
     1
 10
3.20160445988222
 20
-116.488027999306
 30
0.0
 11
3.20160445988222
 21
-89.0129602926967
 31
0.0
  0
CIRCLE
  5
   324
  8
0
  6
CONTINUOUS
 62
     1
 10
-33.7058537857306
 20
-98.2881278681542
 30
0.0
 40
1.57569269749607
  0
CIRCLE
  5
   325
  8
0
  6
CONTINUOUS
 62
     1
 10
-9.20577051353882
 20
-98.2880105911197
 30
0.0
 40
1.57586995460973
  0
LINE
  5
   326
  8
0
  6
DASHDOT
 62
     1
 10
-9.20577051353882
 20
-103.363880188102
 30
0.0
 11
-9.20577051353882
 21
-89.0129602926967
 31
0.0
  0
LINE
  5
   327
  8
0
  6
DASHDOT
 62
     1
 10
-4.12990091655696
 20
-98.2880105911197
 30
0.0
 11
-14.2816401105207
 21
-98.2880105911197
 31
0.0
  0
LINE
  5
   328
  8
0
  6
DASHDOT
 62
     1
 10
-33.7058537857306
 20
-103.363820208022
 30
0.0
 11
-33.7058537857306
 21
-89.0129602926967
 31
0.0
  0
LINE
  5
   329
  8
0
  6
DASHDOT
 62
     1
 10
-28.6301614458624
 20
-98.2881278681542
 30
0.0
 11
-38.7815461255988
 21
-98.2881278681542
 31
0.0
  0
LINE
  5
   32A
  8
0
  6
CONTINUOUS
 62
     1
 10
-20.9133607627742
 20
-0.462979501485293
 30
0.0
 11
-20.9133800464072
 21
30.5119208754126
 31
0.0
  0
LINE
  5
   32B
  8
0
  6
CONTINUOUS
 62
     1
 10
-19.653361260627
 20
-0.462979501485293
 30
0.0
 11
-19.6533801804191
 21
30.5119227618907
 31
0.0
  0
LINE
  5
   32C
  8
0
  6
CONTINUOUS
 62
     1
 10
-18.2183611049043
 20
-0.462979501485293
 30
0.0
 11
-18.2183803885398
 21
30.5119249103795
 31
0.0
  0
LINE
  5
   32D
  8
0
  6
CONTINUOUS
 62
     1
 10
-16.9583614339217
 20
-0.462979501485293
 30
0.0
 11
-16.9583807175584
 21
30.5119267968573
 31
0.0
  0
LINE
  5
   32E
  8
0
  6
CONTINUOUS
 62
     1
 10
-15.6983716193377
 20
-0.462979501485293
 30
0.0
 11
-15.6983890837648
 21
30.5119286833231
 31
0.0
  0
LINE
  5
   32F
  8
0
  6
CONTINUOUS
 62
     1
 10
-14.4383696118533
 20
-0.462979501485293
 30
0.0
 11
-14.4383870762814
 21
30.5119305698044
 31
0.0
  0
LINE
  5
   330
  8
0
  6
CONTINUOUS
 62
     1
 10
-13.1783702435768
 20
-0.462979501485293
 30
0.0
 11
-13.1783935294812
 21
30.511932456273
 31
0.0
  0
LINE
  5
   331
  8
0
  6
CONTINUOUS
 62
     1
 10
-11.9183709374601
 20
-0.462979501485293
 30
0.0
 11
-11.9183884018903
 21
30.511934342759
 31
0.0
  0
LINE
  5
   332
  8
0
  6
CONTINUOUS
 62
     1
 10
-22.1734215536366
 20
-0.462979501485279
 30
0.0
 11
-22.1734026338468
 21
30.5119189889005
 31
0.0
  0
LINE
  5
   333
  8
0
  6
CONTINUOUS
 62
     1
 10
-23.433421566175
 20
-0.462979501485279
 30
0.0
 11
-23.4334011910183
 21
30.5119171024243
 31
0.0
  0
LINE
  5
   334
  8
0
  6
CONTINUOUS
 62
     1
 10
-24.6934217320092
 20
-0.462979501485293
 30
0.0
 11
-24.6934024483797
 21
30.5119152159441
 31
0.0
  0
LINE
  5
   335
  8
0
  6
CONTINUOUS
 62
     1
 10
-25.9534214029919
 20
-0.462979501485293
 30
0.0
 11
-25.9534021193635
 21
30.5119133294663
 31
0.0
  0
LINE
  5
   336
  8
0
  6
CONTINUOUS
 62
     1
 10
-27.2134112176967
 20
-0.462979501485293
 30
0.0
 11
-27.2133937533321
 21
30.5119114430006
 31
0.0
  0
LINE
  5
   337
  8
0
  6
CONTINUOUS
 62
     1
 10
-28.4734132251811
 20
-0.462979501485293
 30
0.0
 11
-28.4733957608176
 21
30.5119095565193
 31
0.0
  0
LINE
  5
   338
  8
0
  6
CONTINUOUS
 62
     1
 10
-29.7334125934939
 20
-0.462979501485293
 30
0.0
 11
-29.7333893076767
 21
30.5119076700506
 31
0.0
  0
LINE
  5
   339
  8
0
  6
CONTINUOUS
 62
     1
 10
-30.9934118995743
 20
-0.462979501485293
 30
0.0
 11
-30.993394435213
 21
30.5119057835646
 31
0.0
  0
LINE
  5
   33A
  8
0
  6
CONTINUOUS
 62
     1
 10
-32.2534164839954
 20
-0.462979501485279
 30
0.0
 11
-32.2534164839954
 21
11.734590815895
 31
0.0
  0
LINE
  5
   33B
  8
0
  6
CONTINUOUS
 62
     1
 10
-33.5134024697527
 20
-0.462979501485279
 30
0.0
 11
-33.5134024697527
 21
10.766814425524
 31
0.0
  0
LINE
  5
   33C
  8
0
  6
CONTINUOUS
 62
     1
 10
-34.7734044772369
 20
-0.462979501485279
 30
0.0
 11
-34.7734044772369
 21
11.1786262120586
 31
0.0
  0
LINE
  5
   33D
  8
0
  6
CONTINUOUS
 62
     1
 10
-36.0334012685981
 20
-0.462979501485293
 30
0.0
 11
-36.033377982781
 21
30.5118982376761
 31
0.0
  0
LINE
  5
   33E
  8
0
  6
CONTINUOUS
 62
     1
 10
-37.2934032760827
 20
-0.462979501485293
 30
0.0
 11
-37.293379990267
 21
30.5118963511948
 31
0.0
  0
LINE
  5
   33F
  8
0
  6
CONTINUOUS
 62
     1
 10
-38.5534052835673
 20
-0.462979501485293
 30
0.0
 11
-38.553381997753
 21
30.5118944647134
 31
0.0
  0
LINE
  5
   340
  8
0
  6
CONTINUOUS
 62
     1
 10
-39.8134072910518
 20
-0.462979501485293
 30
0.0
 11
-39.813384005239
 21
30.5118925782321
 31
0.0
  0
LINE
  5
   341
  8
0
  6
CONTINUOUS
 62
     1
 10
-41.0733986173852
 20
-0.462979501485293
 30
0.0
 11
-41.0733753315737
 21
30.5118906917668
 31
0.0
  0
LINE
  5
   342
  8
0
  6
CONTINUOUS
 62
     1
 10
-42.3334006248697
 20
-0.462979501485293
 30
0.0
 11
-42.3333773390597
 21
30.5118888052855
 31
0.0
  0
LINE
  5
   343
  8
0
  6
CONTINUOUS
 62
     1
 10
-43.5934026323422
 20
-0.462979501485293
 30
0.0
 11
-43.5933793465284
 21
30.5118869188042
 31
0.0
  0
LINE
  5
   344
  8
0
  6
CONTINUOUS
 62
     1
 10
-44.8534046398268
 20
-0.462979501485293
 30
0.0
 11
-44.8533813540143
 21
30.5118850323229
 31
0.0
  0
LINE
  5
   345
  8
0
  6
CONTINUOUS
 62
     1
 10
-9.3983750265852
 20
-96.7239550884613
 30
0.0
 11
-9.3983750265852
 21
-89.0129602926967
 31
0.0
  0
LINE
  5
   346
  8
0
  6
CONTINUOUS
 62
     1
 10
-8.13837301910098
 20
-97.128688072271
 30
0.0
 11
-8.13837301910098
 21
-89.0129602926967
 31
0.0
  0
LINE
  5
   347
  8
0
  6
CONTINUOUS
 62
     1
 10
-10.6583663529182
 20
-97.6770020467772
 30
0.0
 11
-10.6583663529182
 21
-89.0129602926967
 31
0.0
  0
LINE
  5
   348
  8
0
  6
CONTINUOUS
 62
     1
 10
-32.2534164839954
 20
-97.6771995896546
 30
0.0
 11
-32.2534164839954
 21
-89.0129602926967
 31
0.0
  0
LINE
  5
   349
  8
0
  6
CONTINUOUS
 62
     1
 10
-33.5134024697527
 20
-96.7242321018319
 30
0.0
 11
-33.5134024697527
 21
-89.0129602926967
 31
0.0
  0
LINE
  5
   34A
  8
0
  6
CONTINUOUS
 62
     1
 10
-34.7734044772369
 20
-97.1291874046243
 30
0.0
 11
-34.7734044772369
 21
-89.0129602926967
 31
0.0
  0
LINE
  5
   34B
  8
0
  6
DASHDOT
 62
     7
 10
-21.4558887481689
 20
-116.488064916628
 30
0.0
 11
-21.4558887481689
 21
36.6639126805291
 31
0.0
  0
LINE
  5
   34C
  8
0
  6
DASHDOT
 62
     7
 10
3.04410874843597
 20
-10.2631405076208
 30
0.0
 11
3.04410874843597
 21
34.524680148015
 31
0.0
  0
LINE
  5
   34D
  8
0
  6
DASHDOT
 62
     7
 10
-45.9558862447739
 20
-10.2631405076208
 30
0.0
 11
-45.9558862447739
 21
34.524680148015
 31
0.0
  0
LINE
  5
   34E
  8
0
  6
CONTINUOUS
 62
     1
 10
-57.6808623403123
 20
28.061866077291
 30
0.0
 11
14.9611568703502
 21
28.0619748372854
 31
0.0
  0
LINE
  5
   34F
  8
0
  6
CONTINUOUS
 62
     1
 10
-10.6583710662063
 20
-0.462978791065893
 30
0.0
 11
-10.6583779246343
 21
11.7011292690673
 31
0.0
  0
LINE
  5
   350
  8
0
  6
CONTINUOUS
 62
     1
 10
-9.39837119495255
 20
-0.462978080646494
 30
0.0
 11
-9.39837751605082
 21
10.7481218783029
 31
0.0
  0
LINE
  5
   351
  8
0
  6
CONTINUOUS
 62
     1
 10
-8.13837132369878
 20
-0.46297737022708
 30
0.0
 11
-8.13837787311791
 21
11.1530724035139
 31
0.0
  0
LINE
  5
   352
  8
0
  6
CONTINUOUS
 62
     1
 10
-6.87837145244502
 20
-0.462976659807666
 30
0.0
 11
-6.87838891687819
 21
30.5119418886714
 31
0.0
  0
LINE
  5
   353
  8
0
  6
CONTINUOUS
 62
     1
 10
-5.61837158119125
 20
-0.462975949388252
 30
0.0
 11
-5.61838904562517
 21
30.5119437751496
 31
0.0
  0
LINE
  5
   354
  8
0
  6
CONTINUOUS
 62
     1
 10
-4.35837170993749
 20
-0.462975238968838
 30
0.0
 11
-4.35838917437209
 21
30.5119456616276
 31
0.0
  0
LINE
  5
   355
  8
0
  6
CONTINUOUS
 62
     1
 10
-3.09837183868373
 20
-0.462974528549424
 30
0.0
 11
-3.09838930311908
 21
30.5119475481057
 31
0.0
  0
LINE
  5
   356
  8
0
  6
CONTINUOUS
 62
     1
 10
-1.83837196742996
 20
-0.46297381813001
 30
0.0
 11
-1.83838943186608
 21
30.5119494345839
 31
0.0
  0
LINE
  5
   357
  8
0
  6
CONTINUOUS
 62
     1
 10
-0.578372096176199
 20
-0.462973107710596
 30
0.0
 11
-0.578389560613093
 21
30.511951321062
 31
0.0
  0
LINE
  5
   358
  8
0
  6
CONTINUOUS
 62
     1
 10
0.681627775077565
 20
-0.462972397291168
 30
0.0
 11
0.681610310639968
 21
30.5119532075401
 31
0.0
  0
LINE
  5
   359
  8
0
  6
CONTINUOUS
 62
     1
 10
1.94162764633133
 20
-0.462971686871725
 30
0.0
 11
1.94161018189298
 21
30.5119550940182
 31
0.0
  0
LINE
  5
   35A
  8
0
  6
CONTINUOUS
 62
     1
 10
3.2016275175851
 20
-0.462970976452297
 30
0.0
 11
3.20161005314598
 21
30.5119569804963
 31
0.0
  0
LINE
  5
   35B
  8
0
  6
CONTINUOUS
 62
     1
 10
4.46162738883886
 20
-0.462970266032841
 30
0.0
 11
4.46160992439899
 21
30.5119588669744
 31
0.0
  0
LINE
  5
   35C
  8
0
  6
CONTINUOUS
 62
     1
 10
5.72162726009262
 20
-0.462969555613412
 30
0.0
 11
5.72160979565197
 21
30.5119607534525
 31
0.0
  0
LINE
  5
   35D
  8
0
  6
CONTINUOUS
 62
     1
 10
6.98162713134639
 20
-0.462968845193956
 30
0.0
 11
6.98160966690494
 21
30.5119626399306
 31
0.0
  0
LINE
  5
   35E
  8
0
  6
CONTINUOUS
 62
     1
 10
8.24162700260015
 20
-0.462968134774513
 30
0.0
 11
8.24160953815791
 21
30.5119645264087
 31
0.0
  0
LINE
  5
   35F
  8
0
  6
CONTINUOUS
 62
     1
 10
9.50162687385391
 20
-0.462967424355057
 30
0.0
 11
9.50160940941088
 21
30.5119664128868
 31
0.0
  0
LINE
  5
   360
  8
0
  6
CONTINUOUS
 62
     1
 10
10.7616267451077
 20
-0.462966713935586
 30
0.0
 11
10.7616092806639
 21
30.5119682993649
 31
0.0
  0
LINE
  5
   361
  8
0
  6
CONTINUOUS
 62
     1
 10
12.0216266163614
 20
-0.462966003516115
 30
0.0
 11
12.0216091519168
 21
30.511970185843
 31
0.0
  0
LINE
  5
   362
  8
0
  6
CONTINUOUS
 62
     1
 10
13.2816264876152
 20
-0.462965293096644
 30
0.0
 11
13.2816090231698
 21
30.5119720723212
 31
0.0
  0
LINE
  5
   363
  8
0
  6
CONTINUOUS
 62
     1
 10
14.541626358869
 20
-0.462964582677174
 30
0.0
 11
14.5416088944228
 21
30.5119739587993
 31
0.0
  0
LINE
  5
   364
  8
0
  6
DASHDOT
 62
     7
 10
20.0932258965771
 20
-47.8879906773545
 30
0.0
 11
-62.9096116419921
 21
-47.8879906773545
 31
0.0
  0
LINE
  5
   365
  8
0
  6
DASHDOT
 62
     7
 10
-9.2059237106073
 20
7.23632499840386
 30
0.0
 11
-9.2059237106073
 21
28.0618520260032
 31
0.0
  0
LINE
  5
   366
  8
0
  6
DASHDOT
 62
     7
 10
-4.13023137073908
 20
12.3120173382721
 30
0.0
 11
-14.2816160504755
 21
12.3120173382721
 31
0.0
  0
CIRCLE
  5
   367
  8
0
  6
CONTINUOUS
 62
     1
 10
-9.20592371060729
 20
12.3120173382721
 30
0.0
 40
1.57569269749607
  0
LINE
  5
   368
  8
0
  6
CONTINUOUS
 62
     1
 10
-10.6583786135013
 20
12.9229037696165
 30
0.0
 11
-10.6583885306373
 21
30.5119362292372
 31
0.0
  0
LINE
  5
   369
  8
0
  6
CONTINUOUS
 62
     1
 10
-9.39837927957737
 20
13.8759125812197
 30
0.0
 11
-9.39838865938424
 21
30.5119381157153
 31
0.0
  0
LINE
  5
   36A
  8
0
  6
CONTINUOUS
 62
     1
 10
-8.13837918000282
 20
13.4709634768476
 30
0.0
 11
-8.13838878813121
 21
30.5119400021934
 31
0.0
  0
LINE
  5
   36B
  8
0
  6
CONTINUOUS
 62
     3
 10
-57.7683856928071
 20
30.5118656959139
 30
0.0
 11
14.8566068862522
 21
30.5119744304159
 31
0.0
  0
LINE
  5
   36C
  8
0
  6
CONTINUOUS
 62
     3
 10
-58.2058849930765
 20
28.4118652554621
 30
0.0
 11
-58.2058849930765
 21
30.0743657406178
 31
0.0
  0
LINE
  5
   36D
  8
0
  6
CONTINUOUS
 62
     3
 10
-58.2058849930765
 20
28.4118652554621
 30
0.0
 11
-57.8558850288407
 21
28.4118657794838
 31
0.0
  0
LINE
  5
   36E
  8
0
  6
CONTINUOUS
 62
     3
 10
-57.8558850288407
 20
28.0618658152457
 30
0.0
 11
-57.8558850288407
 21
28.4118657794833
 31
0.0
  0
ARC
  5
   36F
  8
0
  6
CONTINUOUS
 62
     3
 10
-57.76838503778
 20
30.0743657406178
 30
0.0
 40
0.437499955296516
 50
89.9999999480344
 51
179.999999948034
  0
ARC
  5
   370
  8
0
  6
CONTINUOUS
 62
     3
 10
14.8566075414421
 20
30.0743657406178
 30
0.0
 40
0.437499955296516
 50
359.999999948034
 51
450.000085731562
  0
LINE
  5
   371
  8
0
  6
CONTINUOUS
 62
     3
 10
15.2941074967386
 20
28.4118652554621
 30
0.0
 11
15.2941074967386
 21
30.0743657406178
 31
0.0
  0
LINE
  5
   372
  8
0
  6
CONTINUOUS
 62
     3
 10
15.294107512609
 20
28.4118652554621
 30
0.0
 11
14.9441075461011
 21
28.4118657794838
 31
0.0
  0
LINE
  5
   373
  8
0
  6
CONTINUOUS
 62
     3
 10
14.9441075325028
 20
28.0618658152457
 30
0.0
 11
14.9441075325028
 21
28.4118657794833
 31
0.0
  0
LINE
  5
   374
  8
0
  6
CONTINUOUS
 62
     3
 10
-57.6808623403121
 20
28.0618658152457
 30
0.0
 11
-57.8558850288407
 21
28.0618658152457
 31
0.0
  0
LINE
  5
   375
  8
0
  6
CONTINUOUS
 62
     1
 10
-57.8556712279887
 20
-114.388119629139
 30
0.0
 11
-57.8556722760321
 21
-114.038119664903
 31
0.0
  0
LINE
  5
   376
  8
0
  6
CONTINUOUS
 62
     1
 10
-58.2056711872616
 20
-114.388120153161
 30
0.0
 11
-57.8556712225538
 21
-114.388119629139
 31
0.0
  0
LINE
  5
   377
  8
0
  6
CONTINUOUS
 62
     1
 10
-58.2056662140164
 20
-116.050620638309
 30
0.0
 11
-58.2056711922245
 21
-114.388120153161
 31
0.0
  0
ARC
  5
   378
  8
0
  6
CONTINUOUS
 62
     1
 10
-57.7681662587218
 20
-116.050619328255
 30
0.0
 40
0.437499955296517
 50
180.000171515089
 51
270.000171515089
  0
LINE
  5
   379
  8
0
  6
CONTINUOUS
 62
     1
 10
-57.7681655931845
 20
-116.488119283551
 30
0.0
 11
14.8568269779466
 21
-116.488010549049
 31
0.0
  0
ARC
  5
   37A
  8
0
  6
CONTINUOUS
 62
     1
 10
14.8568263201747
 20
-116.050401859251
 30
0.0
 40
0.437499955296517
 50
270.000085731562
 51
360.000171515089
  0
LINE
  5
   37B
  8
0
  6
CONTINUOUS
 62
     1
 10
15.2943262754693
 20
-116.050400549197
 30
0.0
 11
15.2943212972612
 21
-114.387900064048
 31
0.0
  0
LINE
  5
   37C
  8
0
  6
CONTINUOUS
 62
     1
 10
14.9443213482556
 20
-114.387901636113
 30
0.0
 11
15.2943213141614
 21
-114.387900064048
 31
0.0
  0
LINE
  5
   37D
  8
0
  6
CONTINUOUS
 62
     1
 10
14.9443213330286
 20
-114.387901636113
 30
0.0
 11
14.9443202849852
 21
-114.037901671877
 31
0.0
  0
LINE
  5
   37E
  8
0
  6
CONTINUOUS
 62
     1
 10
15.2940908105182
 20
-114.037957735657
 30
0.0
 11
14.9443202849852
 21
-114.037957735657
 31
0.0
  0
LINE
  5
   37F
  8
0
  6
CONTINUOUS
 62
     1
 10
-57.8556722760321
 20
-114.037957735657
 30
0.0
 11
-58.2058683068561
 21
-114.037957735657
 31
0.0
  0
INSERT
  5
   380
  8
255
  6
CONTINUOUS
 62
     7
  2
MOSTRINA
 10
-67.7742739079622
 20
-86.3812048799747
 30
0.0
 41
0.349999964237213
 42
0.349999964237213
 50
359.999999792138
 43
0.349999964237213
  0
LINE
  5
   381
  8
0
  6
CONTINUOUS
 62
     1
 10
-48.0558860301971
 20
-74.3129662811756
 30
0.0
 11
-58.1183743208658
 21
-74.3129662811756
 31
0.0
  0
LINE
  5
   382
  8
0
  6
CONTINUOUS
 62
     1
 10
-48.0558860301971
 20
-74.6629662454129
 30
0.0
 11
-57.1097959327108
 21
-74.6629662454129
 31
0.0
  0
LINE
  5
   383
  8
0
  6
CONTINUOUS
 62
     1
 10
-48.0558860301971
 20
-74.8379638910296
 30
0.0
 11
-58.205873819707
 21
-74.8379638910296
 31
0.0
  0
TEXT
  5
   384
  8
0
  6
CONTINUOUS
 62
     7
 10
29.5885512720385
 20
-59.8022888394995
 30
0.0
 40
3.00000001532688
  1
=       =
 50
89.9999999480344
 41
0.916666680375734
 72
     1
 11
28.0885512753342
 21
-47.7022885972106
 31
0.0
 73
     2
  0
TEXT
  5
   385
  8
0
  6
CONTINUOUS
 62
     7
 10
-33.4979937276552
 20
41.296574937917
 30
0.0
 40
3.00000001532688
  1
=       =
 50
359.999999948034
 41
0.916666680375734
 72
     1
 11
-21.3979934853719
 21
42.7965749346669
 31
0.0
 73
     2
  0
INSERT
  5
   386
  8
0
  6
CONTINUOUS
 62
     7
  2
*UDIM476
 10
0.0
 20
0.0
 30
0.0
  0
INSERT
  5
   387
  8
0
  6
CONTINUOUS
 62
     7
  2
*UDIM477
 10
0.0
 20
0.0
 30
0.0
  0
INSERT
  5
   388
  8
0
  6
CONTINUOUS
 62
     7
  2
*UDIM478
 10
0.0
 20
0.0
 30
0.0
  0
INSERT
  5
   389
  8
0
  6
CONTINUOUS
 62
     7
  2
*UDIM479
 10
0.0
 20
0.0
 30
0.0
  0
INSERT
  5
   38A
  8
0
  6
CONTINUOUS
 62
     7
  2
*UDIM480
 10
0.0
 20
0.0
 30
0.0
  0
INSERT
  5
   38B
  8
0
  6
CONTINUOUS
 62
     7
  2
*UDIM481
 10
0.0
 20
0.0
 30
0.0
  0
TEXT
  5
   38C
  8
0
  6
CONTINUOUS
 62
     7
 10
-33.9204139243222
 20
-124.740245902132
 30
0.0
 40
3.00000001532688
  1
=       =
 50
359.999999948034
 41
0.916666616797451
 72
     2
 11
-9.7204151143717
 21
-124.740245923959
 31
0.0
  0
INSERT
  5
   38D
  8
0
  6
CONTINUOUS
 62
     7
  2
*UDIM482
 10
0.0
 20
0.0
 30
0.0
  0
TEXT
  5
   38E
  8
0
  6
CONTINUOUS
 62
     7
 10
-22.1679526117426
 20
50.5293874246507
 30
0.0
 40
3.00000001532688
  1
Y
 50
359.999999948034
 41
0.916666616797451
 72
     2
 11
-19.967952717328
 21
50.5293874226664
 31
0.0
  0
TEXT
  5
   38F
  8
0
  6
CONTINUOUS
 62
     7
 10
32.2675270460281
 20
-49.4878661495915
 30
0.0
 40
3.00000001532688
  1
X
 50
359.999999948034
 41
0.916666616797451
 72
     2
 11
34.4675269404427
 21
-49.4878661515758
 31
0.0
  0
TEXT
  5
   390
  8
0
  6
CONTINUOUS
 62
     7
 10
-92.2275926794241
 20
-49.0576360528662
 30
0.0
 40
3.00000001532688
  1
X
 50
359.999999948034
 41
0.916666616797451
 72
     2
 11
-90.0275927850095
 21
-49.0576360548504
 31
0.0
  0
INSERT
  5
   391
  8
0
  6
CONTINUOUS
 62
     7
  2
*UDIM483
 10
0.0
 20
0.0
 30
0.0
  0
INSERT
  5
   392
  8
0
  6
CONTINUOUS
 62
     7
  2
*UDIM484
 10
0.0
 20
0.0
 30
0.0
  0
INSERT
  5
   393
  8
0
  6
CONTINUOUS
 62
     7
  2
*UDIM485
 10
0.0
 20
0.0
 30
0.0
  0
LINE
  5
   394
  8
0
  6
CONTINUOUS
 62
     3
 10
98.7474878784491
 20
30.5120213252253
 30
0.0
 11
98.7474889714347
 21
1.28702033933537
 31
0.0
  0
LINE
  5
   395
  8
0
  6
CONTINUOUS
 62
     3
 10
98.2224884033203
 20
21.0619381904689
 30
0.0
 11
98.2224884033203
 21
25.2619377613155
 31
0.0
  0
LINE
  5
   396
  8
0
  6
CONTINUOUS
 62
   130
 10
131.822464340931
 20
1.28700021398274
 30
0.0
 11
131.822480362669
 21
28.0619365762218
 31
0.0
  0
LINE
  5
   397
  8
0
  6
CONTINUOUS
 62
     3
 10
99.7974814841519
 20
-38.7879739732293
 30
0.0
 11
100.059981788364
 21
-38.7176386032537
 31
0.0
  0
LINE
  5
   398
  8
0
  6
CONTINUOUS
 62
   130
 10
98.2224884033203
 20
-71.3379808905848
 30
0.0
 11
133.222463464745
 21
-71.3379669189422
 31
0.0
  0
LINE
  5
   399
  8
0
  6
CONTINUOUS
 62
   130
 10
133.222452783709
 20
-34.587954652073
 30
0.0
 11
133.222458124284
 21
-36.337954473259
 31
0.0
  0
LINE
  5
   39A
  8
0
  6
CONTINUOUS
 62
   130
 10
133.222452783591
 20
-40.8879425294253
 30
0.0
 11
133.222458124165
 21
-71.3379714615166
 31
0.0
  0
LINE
  5
   39B
  8
0
  6
CONTINUOUS
 62
     3
 10
98.7474887313976
 20
1.28701499325616
 30
0.0
 11
98.7474897327555
 21
-35.9159368328099
 31
0.0
  0
LINE
  5
   39C
  8
0
  6
CONTINUOUS
 62
     3
 10
98.7474890516597
 20
-55.587968540544
 30
0.0
 11
98.7474893854456
 21
-41.3099609662591
 31
0.0
  0
LINE
  5
   39D
  8
0
  6
CONTINUOUS
 62
     3
 10
98.7474889262162
 20
-60.8379699399251
 30
0.0
 11
98.7474899275737
 21
-70.4629689564485
 31
0.0
  0
LINE
  5
   39E
  8
0
  6
CONTINUOUS
 62
     3
 10
98.747490018606
 20
-70.4629686772822
 30
0.0
 11
99.0974876463414
 21
-70.4629686772822
 31
0.0
  0
LINE
  5
   39F
  8
0
  6
CONTINUOUS
 62
     3
 10
99.0974879801274
 20
-71.3379805412952
 30
0.0
 11
99.0974879801274
 21
-70.4629676130491
 31
0.0
  0
LINE
  5
   3A0
  8
0
  6
CONTINUOUS
 62
     3
 10
99.0974879801274
 20
-41.2161857865658
 30
0.0
 11
99.0974879801274
 21
-38.7879755854601
 31
0.0
  0
LINE
  5
   3A1
  8
0
  6
CONTINUOUS
 62
     3
 10
99.0974879801274
 20
-36.5129704773426
 30
0.0
 11
99.0974879801274
 21
-36.0097387172391
 31
0.0
  0
LINE
  5
   3A2
  8
0
  6
CONTINUOUS
 62
     3
 10
98.2224884033203
 20
-55.5879685282707
 30
0.0
 11
98.7474893510341
 21
-55.5879685282707
 31
0.0
  0
LINE
  5
   3A3
  8
0
  6
CONTINUOUS
 62
     3
 10
98.2224884033203
 20
-60.8379679918289
 30
0.0
 11
98.7474890172481
 21
-60.8379679918289
 31
0.0
  0
LINE
  5
   3A4
  8
0
  6
CONTINUOUS
 62
     3
 10
98.2224884033203
 20
-60.8379679918289
 30
0.0
 11
98.2224884033203
 21
-55.5879685282707
 31
0.0
  0
LINE
  5
   3A5
  8
0
  6
CONTINUOUS
 62
     3
 10
99.7974814841519
 20
-38.7879739732293
 30
0.0
 11
100.059981788364
 21
-38.7176386032537
 31
0.0
  0
LINE
  5
   3A6
  8
0
  6
CONTINUOUS
 62
     3
 10
100.059984791935
 20
-38.7176472925722
 30
0.0
 11
100.25214804559
 21
-38.5254827106642
 31
0.0
  0
LINE
  5
   3A7
  8
0
  6
CONTINUOUS
 62
     3
 10
100.252151736606
 20
-38.5254798247166
 30
0.0
 11
100.32247142763
 21
-38.2629958818465
 31
0.0
  0
LINE
  5
   3A8
  8
0
  6
CONTINUOUS
 62
     3
 10
100.322470498085
 20
-38.2629714429182
 30
0.0
 11
100.322471165657
 21
-37.037971568088
 31
0.0
  0
LINE
  5
   3A9
  8
0
  6
CONTINUOUS
 62
     3
 10
100.252144112269
 20
-36.7754785438627
 30
0.0
 11
100.322469137142
 21
-37.0379785095919
 31
0.0
  0
LINE
  5
   3AA
  8
0
  6
CONTINUOUS
 62
     3
 10
100.059980297807
 20
-36.5833166121668
 30
0.0
 11
100.252143554136
 21
-36.775475851396
 31
0.0
  0
LINE
  5
   3AB
  8
0
  6
CONTINUOUS
 62
     3
 10
99.7974826404928
 20
-36.512978016034
 30
0.0
 11
100.059982611746
 21
-36.5833187314157
 31
0.0
  0
LINE
  5
   3AC
  8
0
  6
CONTINUOUS
 62
     3
 10
99.0974879801274
 20
-36.5129704773426
 30
0.0
 11
99.7974829018121
 21
-36.5129704773426
 31
0.0
  0
LINE
  5
   3AD
  8
0
  6
CONTINUOUS
 62
     3
 10
99.0974879801274
 20
-38.7879702448845
 30
0.0
 11
99.7974829018121
 21
-38.7879702448845
 31
0.0
  0
LINE
  5
   3AE
  8
0
  6
CONTINUOUS
 62
   130
 10
131.822463738045
 20
-34.5879863570892
 30
0.0
 11
131.82246907862
 21
1.28700997722511
 31
0.0
  0
LINE
  5
   3AF
  8
0
  6
CONTINUOUS
 62
   130
 10
131.82246360779
 20
-34.5879813551892
 30
0.0
 11
133.222452783588
 21
-34.5879813551892
 31
0.0
  0
LINE
  5
   3B0
  8
0
  6
CONTINUOUS
 62
   130
 10
131.822455795915
 20
-17.4630819169901
 30
0.0
 11
131.997461113318
 21
-17.416191666798
 31
0.0
  0
LINE
  5
   3B1
  8
0
  6
CONTINUOUS
 62
   130
 10
131.822451675906
 20
-20.2128190701586
 30
0.0
 11
131.997462337924
 21
-20.2597146550971
 31
0.0
  0
LINE
  5
   3B2
  8
0
  6
CONTINUOUS
 62
   130
 10
99.097487373913
 20
-70.4629687386398
 30
0.0
 11
122.897484942043
 21
-70.4629704075685
 31
0.0
  0
LINE
  5
   3B3
  8
0
  6
CONTINUOUS
 62
   130
 10
122.897485882044
 20
-71.3379650351308
 30
0.0
 11
122.897485882044
 21
-70.4629704651134
 31
0.0
  0
LINE
  5
   3B4
  8
0
  6
CONTINUOUS
 62
   130
 10
101.628677489405
 20
-36.6879514260636
 30
0.0
 11
132.872454814512
 21
-36.6879727883655
 31
0.0
  0
LINE
  5
   3B5
  8
0
  6
CONTINUOUS
 62
   130
 10
101.628674523259
 20
-40.5379510326718
 30
0.0
 11
132.872451848367
 21
-40.5379723949737
 31
0.0
  0
LINE
  5
   3B6
  8
0
  6
CONTINUOUS
 62
     3
 10
98.747491494705
 20
-35.9159408684897
 30
0.0
 11
99.0974879801274
 21
-36.009722188093
 31
0.0
  0
LINE
  5
   3B7
  8
0
  6
CONTINUOUS
 62
     3
 10
98.7474843148551
 20
-41.30996540113
 30
0.0
 11
99.0974879801274
 21
-41.2161820928975
 31
0.0
  0
LINE
  5
   3B8
  8
0
  6
CONTINUOUS
 62
   130
 10
132.872479017305
 20
-36.6879536763831
 30
0.0
 11
133.222468289612
 21
-36.3379590641953
 31
0.0
  0
LINE
  5
   3B9
  8
0
  6
CONTINUOUS
 62
   130
 10
132.872454719304
 20
-40.5379675067023
 30
0.0
 11
133.222454671561
 21
-40.8879674589595
 31
0.0
  0
LINE
  5
   3BA
  8
0
  6
CONTINUOUS
 62
   130
 10
131.997549039119
 20
-0.812963443995613
 30
0.0
 11
131.997549039119
 21
28.0619361263132
 31
0.0
  0
LINE
  5
   3BB
  8
0
  6
CONTINUOUS
 62
   130
 10
131.997549039119
 20
28.0619374752132
 30
0.0
 11
133.222527551647
 21
28.0619374752132
 31
0.0
  0
LINE
  5
   3BC
  8
0
  6
CONTINUOUS
 62
     2
 10
146.347568935147
 20
-0.462979501485279
 30
0.0
 11
146.522414040573
 21
-0.462979501485279
 31
0.0
  0
LINE
  5
   3BD
  8
0
  6
CONTINUOUS
 62
   130
 10
142.147558683149
 20
28.0619374752132
 30
0.0
 11
142.847483463969
 21
28.0619374752132
 31
0.0
  0
LINE
  5
   3BE
  8
0
  6
CONTINUOUS
 62
     2
 10
146.697568400053
 20
27.6244316638513
 30
0.0
 11
146.697589762354
 21
-0.462953314096936
 31
0.0
  0
LINE
  5
   3BF
  8
0
  6
CONTINUOUS
 62
     2
 10
145.647483557463
 20
-0.81296894359447
 30
0.0
 11
146.347563923876
 21
-0.81294758166932
 31
0.0
  0
LINE
  5
   3C0
  8
0
  6
CONTINUOUS
 62
   130
 10
144.492471926214
 20
-0.812963443995613
 30
0.0
 11
145.647483557463
 21
-0.812963443995613
 31
0.0
  0
LINE
  5
   3C1
  8
0
  6
CONTINUOUS
 62
     2
 10
143.197569257012
 20
28.0619374752132
 30
0.0
 11
145.822504901884
 21
28.0619374752132
 31
0.0
  0
LINE
  5
   3C2
  8
0
  6
CONTINUOUS
 62
   130
 10
133.222527551647
 20
28.0619374752132
 30
0.0
 11
142.147558683149
 21
28.0619374752132
 31
0.0
  0
LINE
  5
   3C3
  8
0
  6
CONTINUOUS
 62
     2
 10
146.347568935147
 20
-0.462952798607148
 30
0.0
 11
146.697590261687
 21
-0.462952798607148
 31
0.0
  0
LINE
  5
   3C4
  8
0
  6
CONTINUOUS
 62
     2
 10
146.347568935147
 20
-0.812947422268735
 30
0.0
 11
146.347568935147
 21
-0.462952798607148
 31
0.0
  0
LINE
  5
   3C5
  8
0
  6
CONTINUOUS
 62
     2
 10
146.260018228213
 20
28.0618156308088
 30
0.0
 11
146.56937640998
 21
27.9336418285406
 31
0.0
  0
LINE
  5
   3C6
  8
0
  6
CONTINUOUS
 62
     2
 10
146.569442758294
 20
27.9337134967669
 30
0.0
 11
146.697584529042
 21
27.6243873700673
 31
0.0
  0
LINE
  5
   3C7
  8
0
  6
CONTINUOUS
 62
   130
 10
132.347570365659
 20
-0.462947458031522
 30
0.0
 11
132.347570365659
 21
28.0619374752132
 31
0.0
  0
LINE
  5
   3C8
  8
0
  6
CONTINUOUS
 62
   130
 10
132.347565358882
 20
-0.462949794558114
 30
0.0
 11
146.34756392837
 21
-0.462955135133427
 31
0.0
  0
LINE
  5
   3C9
  8
0
  6
CONTINUOUS
 62
     2
 10
146.347478145362
 20
-74.662963908911
 30
0.0
 11
146.347478145362
 21
-74.3129662811756
 31
0.0
  0
LINE
  5
   3CA
  8
0
  6
CONTINUOUS
 62
     2
 10
144.947473164523
 20
-0.987979048734445
 30
0.0
 11
144.947478505095
 21
-74.312966215855
 31
0.0
  0
LINE
  5
   3CB
  8
0
  6
CONTINUOUS
 62
   130
 10
144.597473224627
 20
-0.987976753770624
 30
0.0
 11
144.597478565199
 21
-74.6629638851284
 31
0.0
  0
LINE
  5
   3CC
  8
0
  6
CONTINUOUS
 62
   130
 10
144.5974729836
 20
-0.987974107265472
 30
0.0
 11
144.947473164523
 21
-0.987974107265472
 31
0.0
  0
LINE
  5
   3CD
  8
0
  6
CONTINUOUS
 62
   130
 10
144.597478324175
 20
-74.662963908911
 30
0.0
 11
145.297483593225
 21
-74.662963908911
 31
0.0
  0
LINE
  5
   3CE
  8
0
  6
CONTINUOUS
 62
     2
 10
144.947473164523
 20
-0.987974107265472
 30
0.0
 11
146.697478109599
 21
-0.987974107265472
 31
0.0
  0
LINE
  5
   3CF
  8
0
  6
CONTINUOUS
 62
     2
 10
146.697478109599
 20
-74.3129662811756
 30
0.0
 11
146.697478109599
 21
-66.262977784871
 31
0.0
  0
LINE
  5
   3D0
  8
0
  6
CONTINUOUS
 62
     2
 10
146.697478109599
 20
-29.5129925549008
 30
0.0
 11
146.697478109599
 21
-0.987979447841099
 31
0.0
  0
LINE
  5
   3D1
  8
0
  6
CONTINUOUS
 62
     2
 10
147.309974407052
 20
-29.513000744914
 30
0.0
 11
147.397469055193
 21
-29.6005007328973
 31
0.0
  0
LINE
  5
   3D2
  8
0
  6
CONTINUOUS
 62
     2
 10
147.309966574925
 20
-66.2629762061731
 30
0.0
 11
147.397466562989
 21
-66.175475886202
 31
0.0
  0
LINE
  5
   3D3
  8
0
  6
CONTINUOUS
 62
     2
 10
147.397478038073
 20
-66.175472787022
 30
0.0
 11
147.397478038073
 21
-29.6004978865358
 31
0.0
  0
LINE
  5
   3D4
  8
0
  6
CONTINUOUS
 62
     2
 10
144.947478288413
 20
-74.3129662811756
 30
0.0
 11
146.347478145362
 21
-74.3129662811756
 31
0.0
  0
LINE
  5
   3D5
  8
0
  6
CONTINUOUS
 62
   130
 10
133.222463464739
 20
-40.8879967331859
 30
0.0
 11
133.222463464739
 21
-36.3380078792534
 31
0.0
  0
LINE
  5
   3D6
  8
0
  6
CONTINUOUS
 62
   130
 10
133.222463464739
 20
-34.5880133986429
 30
0.0
 11
133.222463464739
 21
-34.2380080938301
 31
0.0
  0
LINE
  5
   3D7
  8
0
  6
CONTINUOUS
 62
   130
 10
133.222463464739
 20
-71.3379669189451
 30
0.0
 11
144.597478324175
 21
-71.3379669189451
 31
0.0
  0
LINE
  5
   3D8
  8
0
  6
CONTINUOUS
 62
     7
 10
145.647483557463
 20
-0.987974107265472
 30
0.0
 11
145.647483557463
 21
-0.812979465722492
 31
0.0
  0
LINE
  5
   3D9
  8
0
  6
CONTINUOUS
 62
   130
 10
131.997463589909
 20
-34.2379707098007
 30
0.0
 11
131.997463589909
 21
-0.812974125146866
 31
0.0
  0
LINE
  5
   3DA
  8
0
  6
CONTINUOUS
 62
   130
 10
131.997463589909
 20
-34.2379707098007
 30
0.0
 11
133.222463464739
 21
-34.2379707098007
 31
0.0
  0
LINE
  5
   3DB
  8
0
  6
CONTINUOUS
 62
   130
 10
131.997463589909
 20
-0.812974125146866
 30
0.0
 11
133.222463464739
 21
-0.812974125146866
 31
0.0
  0
LINE
  5
   3DC
  8
0
  6
CONTINUOUS
 62
   130
 10
133.222459500732
 20
-0.812974689015093
 30
0.0
 11
144.492473302782
 21
-0.812980029590221
 31
0.0
  0
LINE
  5
   3DD
  8
0
  6
CONTINUOUS
 62
   130
 10
144.492477266789
 20
-16.8254671484237
 30
0.0
 11
144.492477266789
 21
-0.812979465722492
 31
0.0
  0
LINE
  5
   3DE
  8
0
  6
CONTINUOUS
 62
   130
 10
144.492461245063
 20
-71.3379709211274
 30
0.0
 11
144.492477266789
 21
-20.8504707393338
 31
0.0
  0
LINE
  5
   3DF
  8
0
  6
CONTINUOUS
 62
   130
 10
144.492471926214
 20
-9.91297319531441
 30
0.0
 11
144.5974729836
 21
-9.91297319531441
 31
0.0
  0
LINE
  5
   3E0
  8
0
  6
CONTINUOUS
 62
   130
 10
144.492471926214
 20
-11.3129730522633
 30
0.0
 11
144.5974729836
 21
-11.3129730522633
 31
0.0
  0
LINE
  5
   3E1
  8
0
  6
CONTINUOUS
 62
   130
 10
133.222463464739
 20
-70.4629670083523
 30
0.0
 11
144.492477266789
 21
-70.4629670083523
 31
0.0
  0
LINE
  5
   3E2
  8
0
  6
CONTINUOUS
 62
   130
 10
142.847462481262
 20
-16.8254671484237
 30
0.0
 11
144.597478324175
 21
-16.8254671484237
 31
0.0
  0
LINE
  5
   3E3
  8
0
  6
CONTINUOUS
 62
   130
 10
142.847462481262
 20
-20.8504667371517
 30
0.0
 11
142.847462481262
 21
-16.8254671484237
 31
0.0
  0
LINE
  5
   3E4
  8
0
  6
CONTINUOUS
 62
   130
 10
142.847462481262
 20
-20.8504667371517
 30
0.0
 11
144.5974729836
 21
-20.8504667371517
 31
0.0
  0
LINE
  5
   3E5
  8
0
  6
CONTINUOUS
 62
   130
 10
147.397478038073
 20
-66.2629731118673
 30
0.0
 11
147.397478038073
 21
-66.175473120808
 31
0.0
  0
LINE
  5
   3E6
  8
0
  6
CONTINUOUS
 62
   130
 10
147.397477505129
 20
-29.6005130197203
 30
0.0
 11
147.397482845705
 21
-29.5129916663585
 31
0.0
  0
LINE
  5
   3E7
  8
0
  6
CONTINUOUS
 62
   130
 10
147.397478038073
 20
-66.2629731118673
 30
0.0
 11
149.497483164072
 21
-66.2629731118673
 31
0.0
  0
LINE
  5
   3E8
  8
0
  6
CONTINUOUS
 62
   130
 10
151.422482967377
 20
-64.2504569619905
 30
0.0
 11
151.422482967377
 21
-61.1879732966418
 31
0.0
  0
LINE
  5
   3E9
  8
0
  6
CONTINUOUS
 62
   130
 10
151.422482967377
 20
-30.2129924833753
 30
0.0
 11
151.422482967377
 21
-29.6879925370195
 31
0.0
  0
LINE
  5
   3EA
  8
0
  6
CONTINUOUS
 62
   130
 10
147.397481922625
 20
-29.5129847868088
 30
0.0
 11
149.497483164072
 21
-29.5129906129032
 31
0.0
  0
LINE
  5
   3EB
  8
0
  6
CONTINUOUS
 62
   130
 10
147.309972706438
 20
-66.2629731118673
 30
0.0
 11
147.397478038073
 21
-66.2629731118673
 31
0.0
  0
LINE
  5
   3EC
  8
0
  6
CONTINUOUS
 62
     3
 10
98.2224884033203
 20
21.0619381904689
 30
0.0
 11
98.7474883496761
 21
21.0619381904689
 31
0.0
  0
LINE
  5
   3ED
  8
0
  6
CONTINUOUS
 62
     3
 10
98.2224884033203
 20
25.2619377613155
 30
0.0
 11
98.7474883496761
 21
25.2619377613155
 31
0.0
  0
LINE
  5
   3EE
  8
0
  6
CONTINUOUS
 62
   130
 10
100.32246321872
 20
-40.3629556502053
 30
0.0
 11
101.302124695118
 21
-40.6254609228744
 31
0.0
  0
LINE
  5
   3EF
  8
0
  6
CONTINUOUS
 62
   130
 10
100.322456314435
 20
-40.3629520580573
 30
0.0
 11
100.322470333444
 21
-38.2629736349366
 31
0.0
  0
LINE
  5
   3F0
  8
0
  6
CONTINUOUS
 62
   130
 10
100.322459759261
 20
-36.8629516230838
 30
0.0
 11
100.322471107984
 21
-37.0379729675049
 31
0.0
  0
LINE
  5
   3F1
  8
0
  6
CONTINUOUS
 62
   130
 10
100.322450527949
 20
-36.8629639257846
 30
0.0
 11
101.302114019423
 21
-36.6004693445969
 31
0.0
  0
LINE
  5
   3F2
  8
0
  6
CONTINUOUS
 62
     2
 10
145.822504901884
 20
28.0619374752132
 30
0.0
 11
146.260068944088
 21
28.0619374752132
 31
0.0
  0
LINE
  5
   3F3
  8
0
  6
CONTINUOUS
 62
     2
 10
146.347478145362
 20
-74.3129662811756
 30
0.0
 11
146.697478109599
 21
-74.3129662811756
 31
0.0
  0
LINE
  5
   3F4
  8
0
  6
CONTINUOUS
 62
     2
 10
146.697478109599
 20
-29.5129925549008
 30
0.0
 11
147.309983387589
 21
-29.5129925549008
 31
0.0
  0
LINE
  5
   3F5
  8
0
  6
CONTINUOUS
 62
     2
 10
146.697478109599
 20
-66.2629731118673
 30
0.0
 11
147.309978047014
 21
-66.2629731118673
 31
0.0
  0
LINE
  5
   3F6
  8
0
  6
CONTINUOUS
 62
   210
 10
171.004091675123
 20
-66.8130627722394
 30
0.0
 11
171.783291352625
 21
-64.0956759822972
 31
0.0
  0
LINE
  5
   3F7
  8
0
  6
CONTINUOUS
 62
   210
 10
151.422482967377
 20
-61.9123394043122
 30
0.0
 11
162.235736209433
 21
-65.0129823947864
 31
0.0
  0
LINE
  5
   3F8
  8
0
  6
CONTINUOUS
 62
   210
 10
162.235558120466
 20
-65.012938802333
 30
0.0
 11
170.584391565731
 21
-67.0565585676993
 31
0.0
  0
LINE
  5
   3F9
  8
0
  6
CONTINUOUS
 62
   210
 10
170.58441008357
 20
-67.0565641554882
 30
0.0
 11
170.843273948468
 21
-67.0193365135357
 31
0.0
  0
LINE
  5
   3FA
  8
0
  6
CONTINUOUS
 62
   210
 10
170.843287049925
 20
-67.0193366956175
 30
0.0
 11
171.004088444759
 21
-66.8130685568881
 31
0.0
  0
LINE
  5
   3FB
  8
0
  6
CONTINUOUS
 62
   210
 10
171.75622294093
 20
-63.8355556737048
 30
0.0
 11
171.783281629031
 21
-64.0956834256421
 31
0.0
  0
LINE
  5
   3FC
  8
0
  6
CONTINUOUS
 62
   210
 10
171.556422598901
 20
-63.6668001042588
 30
0.0
 11
171.756224008757
 21
-63.8355520318099
 31
0.0
  0
LINE
  5
   3FD
  8
0
  6
CONTINUOUS
 62
   210
 10
163.39323373038
 20
-60.9756555546541
 30
0.0
 11
171.556394202772
 21
-63.6667910589613
 31
0.0
  0
LINE
  5
   3FE
  8
0
  6
CONTINUOUS
 62
   210
 10
151.422482967377
 20
-57.5431021474451
 30
0.0
 11
163.393330139202
 21
-60.9756873375897
 31
0.0
  0
LINE
  5
   3FF
  8
0
  6
CONTINUOUS
 62
   130
 10
162.235591661786
 20
-65.012942981232
 30
0.0
 11
163.393269771816
 21
-60.9756649029752
 31
0.0
  0
LINE
  5
   400
  8
0
  6
CONTINUOUS
 62
     5
 10
98.2224884033203
 20
-96.7129782977847
 30
0.0
 11
98.7474883496761
 21
-96.71297808821
 31
0.0
  0
LINE
  5
   401
  8
0
  6
CONTINUOUS
 62
     5
 10
98.2224884033203
 20
-111.23797681363
 30
0.0
 11
98.2224884033203
 21
-107.037977242783
 31
0.0
  0
LINE
  5
   402
  8
0
  6
CONTINUOUS
 62
     5
 10
98.2224884033203
 20
-106.862977260665
 30
0.0
 11
98.2224884033203
 21
-71.3379669189453
 31
0.0
  0
LINE
  5
   403
  8
0
  6
CONTINUOUS
 62
     5
 10
98.7474883496761
 20
-116.487976067614
 30
0.0
 11
98.7474883496761
 21
-96.71297808821
 31
0.0
  0
LINE
  5
   404
  8
0
  6
CONTINUOUS
 62
     5
 10
98.2224884033203
 20
-107.037977242783
 30
0.0
 11
98.7474855553459
 21
-107.03797703321
 31
0.0
  0
LINE
  5
   405
  8
0
  6
CONTINUOUS
 62
     5
 10
98.2224884033203
 20
-111.23797681363
 30
0.0
 11
98.7474872319441
 21
-111.237976604056
 31
0.0
  0
LINE
  5
   406
  8
0
  6
CONTINUOUS
 62
     5
 10
145.297483593225
 20
-88.6629603284595
 30
0.0
 11
145.297483593225
 21
-88.4879624962809
 31
0.0
  0
LINE
  5
   407
  8
0
  6
CONTINUOUS
 62
     1
 10
146.697483450174
 20
-114.037957735657
 30
0.0
 11
146.697483450174
 21
-89.0129602926967
 31
0.0
  0
LINE
  5
   408
  8
0
  6
CONTINUOUS
 62
     1
 10
145.297483593225
 20
-114.037957735657
 30
0.0
 11
146.697483450174
 21
-114.037957735657
 31
0.0
  0
LINE
  5
   409
  8
0
  6
CONTINUOUS
 62
   130
 10
133.39748480916
 20
-88.6629603284595
 30
0.0
 11
145.297483593225
 21
-88.6629603284595
 31
0.0
  0
LINE
  5
   40A
  8
0
  6
CONTINUOUS
 62
     1
 10
146.697483450174
 20
-88.4879624962809
 30
0.0
 11
146.697483450174
 21
-74.8379638910296
 31
0.0
  0
LINE
  5
   40B
  8
0
  6
CONTINUOUS
 62
   130
 10
133.39748480916
 20
-114.037962486019
 30
0.0
 11
133.39748480916
 21
-88.6629603284595
 31
0.0
  0
LINE
  5
   40C
  8
0
  6
CONTINUOUS
 62
   130
 10
133.39748480916
 20
-89.0129602926967
 30
0.0
 11
146.697483450174
 21
-89.0129602926967
 31
0.0
  0
LINE
  5
   40D
  8
0
  6
CONTINUOUS
 62
     1
 10
146.347483485937
 20
-89.0129602926967
 30
0.0
 11
146.347483485937
 21
-88.6629603284595
 31
0.0
  0
LINE
  5
   40E
  8
0
  6
CONTINUOUS
 62
   130
 10
144.597478324175
 20
-74.8379638910296
 30
0.0
 11
144.947478288413
 21
-74.8379638910296
 31
0.0
  0
LINE
  5
   40F
  8
0
  6
CONTINUOUS
 62
   130
 10
144.597478324175
 20
-88.4879624962809
 30
0.0
 11
144.947478288413
 21
-88.4879624962809
 31
0.0
  0
LINE
  5
   410
  8
0
  6
CONTINUOUS
 62
   130
 10
144.597478324175
 20
-88.4879624962809
 30
0.0
 11
144.597478324175
 21
-74.8379638910296
 31
0.0
  0
LINE
  5
   411
  8
0
  6
CONTINUOUS
 62
     1
 10
144.947478288413
 20
-88.4879624962809
 30
0.0
 11
144.947478288413
 21
-74.8379638910296
 31
0.0
  0
LINE
  5
   412
  8
0
  6
CONTINUOUS
 62
     5
 10
145.297483593225
 20
-74.8379638910296
 30
0.0
 11
145.297483593225
 21
-74.662963908911
 31
0.0
  0
LINE
  5
   413
  8
0
  6
CONTINUOUS
 62
   130
 10
133.572484791279
 20
-114.037962486019
 30
0.0
 11
133.572484791279
 21
-89.0129602926967
 31
0.0
  0
LINE
  5
   414
  8
0
  6
DASHDOT
 62
     7
 10
99.0141550611718
 20
12.1370192110544
 30
0.0
 11
120.415445901411
 21
12.1370192110544
 31
0.0
  0
LINE
  5
   415
  8
0
  6
DASHDOT
 62
     7
 10
98.2224884033203
 20
-121.087844737152
 30
0.0
 11
98.2224884033203
 21
-106.862977260665
 31
0.0
  0
LINE
  5
   416
  8
0
  6
DASHDOT
 62
     7
 10
97.1724885106087
 20
-121.087844737152
 30
0.0
 11
97.1724885106087
 21
-111.937978338445
 31
0.0
  0
LINE
  5
   417
  8
0
  6
CONTINUOUS
 62
     1
 10
145.297483593225
 20
-88.6629603284595
 30
0.0
 11
146.347483485937
 21
-88.6629603284595
 31
0.0
  0
LINE
  5
   418
  8
0
  6
CONTINUOUS
 62
     2
 10
145.297483593225
 20
-74.662963908911
 30
0.0
 11
146.347478145362
 21
-74.662963908911
 31
0.0
  0
LINE
  5
   419
  8
0
  6
CONTINUOUS
 62
     1
 10
144.947478288413
 20
-74.8379638910296
 30
0.0
 11
146.697483450174
 21
-74.8379638910296
 31
0.0
  0
LINE
  5
   41A
  8
0
  6
CONTINUOUS
 62
     1
 10
144.947478288413
 20
-88.4879624962809
 30
0.0
 11
146.697483450174
 21
-88.4879624962809
 31
0.0
  0
LINE
  5
   41B
  8
0
  6
CONTINUOUS
 62
   130
 10
99.0974879801274
 20
-36.009722188093
 30
0.0
 11
101.628678809946
 21
-36.6879530449023
 31
0.0
  0
LINE
  5
   41C
  8
0
  6
CONTINUOUS
 62
   130
 10
99.0974879801274
 20
-41.2161820928975
 30
0.0
 11
101.628669373209
 21
-40.5379532960787
 31
0.0
  0
LINE
  5
   41D
  8
0
  6
DASHDOT
 62
     7
 10
99.6896848745214
 20
-98.1129775690435
 30
0.0
 11
121.505451406932
 21
-98.112968860406
 31
0.0
  0
LINE
  5
   41E
  8
0
  6
CONTINUOUS
 62
   130
 10
98.7474883496761
 20
-114.037976317953
 30
0.0
 11
142.847483773707
 21
-114.037958713673
 31
0.0
  0
LINE
  5
   41F
  8
0
  6
CONTINUOUS
 62
   130
 10
98.7474877836009
 20
28.0620215755569
 30
0.0
 11
131.997527110741
 21
28.0619361263695
 31
0.0
  0
ARC
  5
   420
  8
0
  6
CONTINUOUS
 62
   130
 10
124.1236596094
 20
-51.8998788086924
 30
0.0
 40
49.1749949753284
 50
333.054582767096
 51
360.0
  0
LINE
  5
   421
  8
0
  6
CONTINUOUS
 62
   130
 10
173.298654584729
 20
-51.8998788086924
 30
0.0
 11
173.298654584729
 21
-46.0936748082168
 31
0.0
  0
LINE
  5
   422
  8
0
  6
CONTINUOUS
 62
     1
 10
95.6006688708084
 20
34.7851123796408
 30
0.0
 11
99.6650918263474
 21
33.9872466359019
 31
0.0
  0
LINE
  5
   423
  8
0
  6
CONTINUOUS
 62
     1
 10
96.2203914051808
 20
-121.087844737152
 30
0.0
 11
99.2803934658265
 21
-121.087844737152
 31
0.0
  0
LINE
  5
   424
  8
0
  6
DASHDOT
 62
     2
 10
83.7908783420593
 20
-47.887806443688
 30
0.0
 11
180.603300854177
 21
-47.8880750331998
 31
0.0
  0
LINE
  5
   425
  8
0
  6
CONTINUOUS
 62
     7
 10
68.4724914431572
 20
9.33701949715667
 30
0.0
 11
68.4724914431572
 21
14.9370189249521
 31
0.0
  0
LINE
  5
   426
  8
0
  6
CONTINUOUS
 62
     7
 10
68.4724914431572
 20
14.9370189249521
 30
0.0
 11
98.7474884609385
 21
14.9370189249521
 31
0.0
  0
LINE
  5
   427
  8
0
  6
CONTINUOUS
 62
     7
 10
68.4724914431572
 20
12.1370192110544
 30
0.0
 11
98.7474884609385
 21
12.1370192110544
 31
0.0
  0
LINE
  5
   428
  8
0
  6
CONTINUOUS
 62
     7
 10
68.4724914431572
 20
9.33701949715667
 30
0.0
 11
98.7474884609385
 21
9.33701949715667
 31
0.0
  0
LINE
  5
   429
  8
0
  6
DASHDOT
 62
     7
 10
73.3724909424782
 20
3.8918497452118
 30
0.0
 11
73.3724909424782
 21
19.7941641431953
 31
0.0
  0
LINE
  5
   42A
  8
0
  6
DASHDOT
 62
     7
 10
81.0724901556969
 20
3.8918497452118
 30
0.0
 11
81.0724901556969
 21
19.7941641431953
 31
0.0
  0
LINE
  5
   42B
  8
0
  6
CONTINUOUS
 62
     7
 10
68.4724914431572
 20
-106.862989136568
 30
0.0
 11
68.4724914431572
 21
-89.3629909247061
 31
0.0
  0
LINE
  5
   42C
  8
0
  6
CONTINUOUS
 62
     7
 10
68.4724914431572
 20
-89.3629909247061
 30
0.0
 11
98.2224884927273
 21
-89.3629790488026
 31
0.0
  0
LINE
  5
   42D
  8
0
  6
CONTINUOUS
 62
     7
 10
68.4724984289827
 20
-106.862989136565
 30
0.0
 11
98.2224884927273
 21
-106.862977260665
 31
0.0
  0
CIRCLE
  5
   42E
  8
0
  6
CONTINUOUS
 62
     7
 10
73.3724909424782
 20
-94.2629692537967
 30
0.0
 40
1.92499980330467
  0
CIRCLE
  5
   42F
  8
0
  6
CONTINUOUS
 62
     7
 10
81.0724901556969
 20
-94.2629692537967
 30
0.0
 40
1.92499980330467
  0
CIRCLE
  5
   430
  8
0
  6
CONTINUOUS
 62
     7
 10
73.3724909424782
 20
-101.962968467015
 30
0.0
 40
1.92499980330467
  0
CIRCLE
  5
   431
  8
0
  6
CONTINUOUS
 62
     7
 10
81.0724901556969
 20
-101.962968467015
 30
0.0
 40
1.92499980330467
  0
LINE
  5
   432
  8
0
  6
DASHDOT
 62
     7
 10
81.0724901556969
 20
-96.8879689855758
 30
0.0
 11
81.0724901556969
 21
-91.6379695220176
 31
0.0
  0
LINE
  5
   433
  8
0
  6
DASHDOT
 62
     7
 10
78.4474904239178
 20
-94.2629692537967
 30
0.0
 11
83.697489887476
 21
-94.2629692537967
 31
0.0
  0
LINE
  5
   434
  8
0
  6
DASHDOT
 62
     7
 10
73.3724909424782
 20
-96.8879689855758
 30
0.0
 11
73.3724909424782
 21
-91.6379695220176
 31
0.0
  0
LINE
  5
   435
  8
0
  6
DASHDOT
 62
     7
 10
70.7474912106991
 20
-94.2629692537967
 30
0.0
 11
75.9974906742573
 21
-94.2629692537967
 31
0.0
  0
LINE
  5
   436
  8
0
  6
DASHDOT
 62
     7
 10
73.3724909424782
 20
-104.587968198794
 30
0.0
 11
73.3724909424782
 21
-99.3379687352363
 31
0.0
  0
LINE
  5
   437
  8
0
  6
DASHDOT
 62
     7
 10
70.7474912106991
 20
-101.962968467015
 30
0.0
 11
75.9974906742573
 21
-101.962968467015
 31
0.0
  0
LINE
  5
   438
  8
0
  6
DASHDOT
 62
     7
 10
81.0724901556969
 20
-104.587968198794
 30
0.0
 11
81.0724901556969
 21
-99.3379687352363
 31
0.0
  0
LINE
  5
   439
  8
0
  6
DASHDOT
 62
     7
 10
78.4474904239178
 20
-101.962968467015
 30
0.0
 11
83.697489887476
 21
-101.962968467015
 31
0.0
  0
POINT
  5
   43A
  8
0
  6
CONTINUOUS
 62
     7
 10
82.9974899590015
 20
-101.962968467015
 30
0.0
  0
POINT
  5
   43B
  8
0
  6
CONTINUOUS
 62
     7
 10
79.1474903523922
 20
-101.962968467015
 30
0.0
  0
LINE
  5
   43C
  8
0
  6
CONTINUOUS
 62
     3
 10
98.7474878784491
 20
30.5120213252253
 30
0.0
 11
142.584984615121
 21
30.5119086673593
 31
0.0
  0
LINE
  5
   43D
  8
0
  6
CONTINUOUS
 62
     3
 10
143.022483446087
 20
28.2369374573318
 30
0.0
 11
143.022483446087
 21
30.0744087120643
 31
0.0
  0
ARC
  5
   43E
  8
0
  6
CONTINUOUS
 62
     3
 10
142.584983490791
 20
30.0744087120643
 30
0.0
 40
0.437499955296516
 50
0.0
 51
89.999852755729
  0
ARC
  5
   43F
  8
0
  6
CONTINUOUS
 62
     3
 10
142.847483463969
 20
28.2369374573318
 30
0.0
 40
0.174999982118607
 50
270.0
 51
360.0
  0
LINE
  5
   440
  8
0
  6
CONTINUOUS
 62
     2
 10
142.847483463969
 20
28.0619374752132
 30
0.0
 11
143.197569257012
 21
28.0619374752132
 31
0.0
  0
LINE
  5
   441
  8
0
  6
CONTINUOUS
 62
     5
 10
98.7474883496761
 20
-116.487976067614
 30
0.0
 11
142.584984045033
 21
-116.487958568121
 31
0.0
  0
LINE
  5
   442
  8
0
  6
CONTINUOUS
 62
     5
 10
143.022483825684
 20
-116.050458612825
 30
0.0
 11
143.022483825684
 21
-114.212958695792
 31
0.0
  0
ARC
  5
   443
  8
0
  6
CONTINUOUS
 62
     5
 10
142.847483843565
 20
-114.212958695792
 30
0.0
 40
0.174999982118607
 50
0.0
 51
90.0000228719063
  0
ARC
  5
   444
  8
0
  6
CONTINUOUS
 62
     5
 10
142.584983870387
 20
-116.050458612825
 30
0.0
 40
0.437499955296516
 50
270.000022871906
 51
360.0
  0
LINE
  5
   445
  8
0
  6
CONTINUOUS
 62
     5
 10
142.847483773707
 20
-114.037958713673
 30
0.0
 11
145.297483593225
 21
-114.037957735657
 31
0.0
  0
LINE
  5
   446
  8
0
  6
CONTINUOUS
 62
     1
 10
149.497483164072
 20
-64.2505031720237
 30
0.0
 11
149.497483164072
 21
-63.5505032435492
 31
0.0
  0
LINE
  5
   447
  8
0
  6
CONTINUOUS
 62
     1
 10
149.497483164072
 20
-64.2505031720237
 30
0.0
 11
150.197483092546
 21
-64.2505031720237
 31
0.0
  0
LINE
  5
   448
  8
0
  6
CONTINUOUS
 62
     1
 10
149.497483164072
 20
-26.4505083695485
 30
0.0
 11
149.497483164072
 21
-25.7505084410741
 31
0.0
  0
LINE
  5
   449
  8
0
  6
CONTINUOUS
 62
     1
 10
149.497483164072
 20
-25.7505084410741
 30
0.0
 11
150.197483092546
 21
-25.7505084410741
 31
0.0
  0
LINE
  5
   44A
  8
0
  6
CONTINUOUS
 62
     1
 10
149.497483164072
 20
-63.5505032435492
 30
0.0
 11
149.497483164072
 21
-26.4505070344046
 31
0.0
  0
LINE
  5
   44B
  8
0
  6
CONTINUOUS
 62
     1
 10
147.922483325005
 20
-20.9984375460226
 30
0.0
 11
147.922483325005
 21
-19.3025804805348
 31
0.0
  0
LINE
  5
   44C
  8
0
  6
CONTINUOUS
 62
     1
 10
147.922483325005
 20
-70.6984297974191
 30
0.0
 11
147.922483325005
 21
-69.002575402219
 31
0.0
  0
LINE
  5
   44D
  8
0
  6
CONTINUOUS
 62
     1
 10
150.197483092546
 20
-73.1755035952165
 30
0.0
 11
150.197483092546
 21
-16.8255093530252
 31
0.0
  0
LINE
  5
   44E
  8
0
  6
CONTINUOUS
 62
     1
 10
150.197483092546
 20
-73.1755022600726
 30
0.0
 11
151.422482967377
 21
-73.1755022600726
 31
0.0
  0
LINE
  5
   44F
  8
0
  6
CONTINUOUS
 62
     1
 10
151.422482967377
 20
-73.1755022600726
 30
0.0
 11
151.422482967377
 21
-16.8255080178813
 31
0.0
  0
LINE
  5
   450
  8
0
  6
CONTINUOUS
 62
     1
 10
150.197483092546
 20
-16.8255093530252
 30
0.0
 11
150.722483038902
 21
-16.8255093530252
 31
0.0
  0
LINE
  5
   451
  8
0
  6
CONTINUOUS
 62
     1
 10
151.07248300314
 20
-16.8255093530252
 30
0.0
 11
151.422482967377
 21
-16.8255093530252
 31
0.0
  0
LINE
  5
   452
  8
0
  6
CONTINUOUS
 62
     1
 10
147.922483395717
 20
-20.9984383009638
 30
0.0
 11
148.272483371478
 21
-21.200509663465
 31
0.0
  0
LINE
  5
   453
  8
0
  6
CONTINUOUS
 62
     1
 10
147.922482829321
 20
-19.3025813606398
 30
0.0
 11
148.272482805082
 21
-19.1005099981386
 31
0.0
  0
LINE
  5
   454
  8
0
  6
CONTINUOUS
 62
     1
 10
148.272483289242
 20
-21.2005089059903
 30
0.0
 11
148.272483289242
 21
-21.1741798681533
 31
0.0
  0
LINE
  5
   455
  8
0
  6
CONTINUOUS
 62
     1
 10
148.272483289242
 20
-21.2005089059903
 30
0.0
 11
150.197483092546
 21
-21.2005089059903
 31
0.0
  0
LINE
  5
   456
  8
0
  6
CONTINUOUS
 62
     1
 10
148.272483289242
 20
-21.1741798681533
 30
0.0
 11
148.272483289242
 21
-21.096522557973
 31
0.0
  0
LINE
  5
   457
  8
0
  6
CONTINUOUS
 62
     1
 10
148.272483289242
 20
-21.096522557973
 30
0.0
 11
148.272483289242
 21
-20.9714302550811
 31
0.0
  0
LINE
  5
   458
  8
0
  6
CONTINUOUS
 62
     1
 10
148.272483289242
 20
-20.9714302550811
 30
0.0
 11
148.272483289242
 21
-20.8051727952625
 31
0.0
  0
LINE
  5
   459
  8
0
  6
CONTINUOUS
 62
     1
 10
148.272483289242
 20
-20.8051727952625
 30
0.0
 11
148.272483289242
 21
-20.6060868170698
 31
0.0
  0
LINE
  5
   45A
  8
0
  6
CONTINUOUS
 62
     1
 10
148.272483289242
 20
-20.6060868170698
 30
0.0
 11
148.272483289242
 21
-20.3841538563484
 31
0.0
  0
LINE
  5
   45B
  8
0
  6
CONTINUOUS
 62
     1
 10
148.272483289242
 20
-20.3841538563484
 30
0.0
 11
148.272483289242
 21
-20.1505090132787
 31
0.0
  0
LINE
  5
   45C
  8
0
  6
CONTINUOUS
 62
     1
 10
148.272483289242
 20
-20.1505090132787
 30
0.0
 11
148.272483289242
 21
-19.9168588296334
 31
0.0
  0
LINE
  5
   45D
  8
0
  6
CONTINUOUS
 62
     1
 10
148.272483289242
 20
-19.9168588296334
 30
0.0
 11
148.272483289242
 21
-19.6949312094876
 31
0.0
  0
LINE
  5
   45E
  8
0
  6
CONTINUOUS
 62
     1
 10
148.272483289242
 20
-19.6949312094876
 30
0.0
 11
148.272483289242
 21
-19.4958452312949
 31
0.0
  0
LINE
  5
   45F
  8
0
  6
CONTINUOUS
 62
     1
 10
148.272483289242
 20
-19.4958452312949
 30
0.0
 11
148.272483289242
 21
-19.3295824309007
 31
0.0
  0
LINE
  5
   460
  8
0
  6
CONTINUOUS
 62
     1
 10
148.272483289242
 20
-19.3295824309007
 30
0.0
 11
148.272483289242
 21
-19.2044901280088
 31
0.0
  0
LINE
  5
   461
  8
0
  6
CONTINUOUS
 62
     1
 10
148.272483289242
 20
-19.2044901280088
 30
0.0
 11
148.272483289242
 21
-19.1268328178285
 31
0.0
  0
LINE
  5
   462
  8
0
  6
CONTINUOUS
 62
     1
 10
148.272483289242
 20
-19.1005091205671
 30
0.0
 11
150.197483092546
 21
-19.1005091205671
 31
0.0
  0
LINE
  5
   463
  8
0
  6
CONTINUOUS
 62
     1
 10
148.272483289242
 20
-19.1268328178285
 30
0.0
 11
148.272483289242
 21
-19.1005091205671
 31
0.0
  0
LINE
  5
   464
  8
0
  6
CONTINUOUS
 62
     1
 10
147.92248292457
 20
-70.6984300974398
 30
0.0
 11
148.272482900332
 21
-70.9005027813718
 31
0.0
  0
LINE
  5
   465
  8
0
  6
CONTINUOUS
 62
     1
 10
147.922482602099
 20
-69.0025760330907
 30
0.0
 11
148.272482577861
 21
-68.8005033491588
 31
0.0
  0
LINE
  5
   466
  8
0
  6
CONTINUOUS
 62
     1
 10
148.272483289242
 20
-70.9005024925307
 30
0.0
 11
150.197483092546
 21
-70.9005024925307
 31
0.0
  0
LINE
  5
   467
  8
0
  6
CONTINUOUS
 62
     1
 10
148.272483289242
 20
-70.7965201499451
 30
0.0
 11
148.272483289242
 21
-70.6714251767653
 31
0.0
  0
LINE
  5
   468
  8
0
  6
CONTINUOUS
 62
     1
 10
148.272483289242
 20
-70.6714251767653
 30
0.0
 11
148.272483289242
 21
-70.5051663818029
 31
0.0
  0
LINE
  5
   469
  8
0
  6
CONTINUOUS
 62
     1
 10
148.272483289242
 20
-70.5051663818029
 30
0.0
 11
148.272483289242
 21
-70.3060804036102
 31
0.0
  0
LINE
  5
   46A
  8
0
  6
CONTINUOUS
 62
     1
 10
148.272483289242
 20
-70.3060804036102
 30
0.0
 11
148.272483289242
 21
-70.0841501131766
 31
0.0
  0
LINE
  5
   46B
  8
0
  6
CONTINUOUS
 62
     1
 10
148.272483289242
 20
-70.0841501131766
 30
0.0
 11
148.272483289242
 21
-69.8505025998191
 31
0.0
  0
LINE
  5
   46C
  8
0
  6
CONTINUOUS
 62
     1
 10
148.272483289242
 20
-69.8505025998191
 30
0.0
 11
148.272483289242
 21
-69.6168550864616
 31
0.0
  0
LINE
  5
   46D
  8
0
  6
CONTINUOUS
 62
     1
 10
148.272483289242
 20
-69.6168550864616
 30
0.0
 11
148.272483289242
 21
-69.3949247960279
 31
0.0
  0
LINE
  5
   46E
  8
0
  6
CONTINUOUS
 62
     1
 10
148.272483289242
 20
-69.3949247960279
 30
0.0
 11
148.272483289242
 21
-69.1958388178353
 31
0.0
  0
LINE
  5
   46F
  8
0
  6
CONTINUOUS
 62
     1
 10
148.272483289242
 20
-69.1958388178353
 30
0.0
 11
148.272483289242
 21
-69.0295800228728
 31
0.0
  0
LINE
  5
   470
  8
0
  6
CONTINUOUS
 62
     1
 10
148.272483289242
 20
-69.0295800228728
 30
0.0
 11
148.272483289242
 21
-68.904485049693
 31
0.0
  0
LINE
  5
   471
  8
0
  6
CONTINUOUS
 62
     1
 10
148.272483289242
 20
-68.904485049693
 30
0.0
 11
148.272483289242
 21
-68.8268277395128
 31
0.0
  0
LINE
  5
   472
  8
0
  6
CONTINUOUS
 62
     1
 10
148.272483289242
 20
-68.8005027071074
 30
0.0
 11
150.197483092546
 21
-68.8005027071074
 31
0.0
  0
LINE
  5
   473
  8
0
  6
CONTINUOUS
 62
     1
 10
150.722483038902
 20
-16.8255093530252
 30
0.0
 11
151.07248300314
 21
-16.8255093530252
 31
0.0
  0
LINE
  5
   474
  8
0
  6
CONTINUOUS
 62
     7
 10
150.197483092546
 20
-16.8255093530252
 30
0.0
 11
150.197483092546
 21
8.61958961128542
 31
0.0
  0
LINE
  5
   475
  8
0
  6
CONTINUOUS
 62
     7
 10
149.497483164072
 20
-25.7505084410741
 30
0.0
 11
149.497483164072
 21
-21.2005089059903
 31
0.0
  0
LINE
  5
   476
  8
0
  6
CONTINUOUS
 62
     7
 10
150.197483092546
 20
-106.932068725162
 30
0.0
 11
150.197483092546
 21
-73.1755022600726
 31
0.0
  0
LINE
  5
   477
  8
0
  6
CONTINUOUS
 62
     7
 10
149.497483164072
 20
-107.135557076463
 30
0.0
 11
149.497483164072
 21
-70.9005024925307
 31
0.0
  0
LINE
  5
   478
  8
0
  6
CONTINUOUS
 62
     7
 10
147.053346378919
 20
-107.846061955868
 30
0.0
 11
152.642130509636
 21
-106.221415406241
 31
0.0
  0
LINE
  5
   479
  8
0
  6
CONTINUOUS
 62
     7
 10
147.768190860755
 20
10.1682634090528
 30
0.0
 11
152.967059819562
 21
6.85398444781332
 31
0.0
  0
LINE
  5
   47A
  8
0
  6
CONTINUOUS
 62
     7
 10
149.497483164072
 20
-18.9255091384485
 30
0.0
 11
150.197483092546
 21
-18.9255091384485
 31
0.0
  0
LINE
  5
   47B
  8
0
  6
CONTINUOUS
 62
     7
 10
149.497483164072
 20
-21.375508888109
 30
0.0
 11
150.197483092546
 21
-21.375508888109
 31
0.0
  0
LINE
  5
   47C
  8
0
  6
CONTINUOUS
 62
     7
 10
149.497483164072
 20
-68.6255027249888
 30
0.0
 11
150.197483092546
 21
-68.6255027249888
 31
0.0
  0
LINE
  5
   47D
  8
0
  6
CONTINUOUS
 62
     7
 10
149.497483164072
 20
-71.0755024746493
 30
0.0
 11
150.197483092546
 21
-71.0755024746493
 31
0.0
  0
LINE
  5
   47E
  8
0
  6
CONTINUOUS
 62
     7
 10
149.497483164072
 20
-64.6005031362609
 30
0.0
 11
150.197483092546
 21
-64.6005031362609
 31
0.0
  0
LINE
  5
   47F
  8
0
  6
CONTINUOUS
 62
     7
 10
149.497483164072
 20
-25.4005084768369
 30
0.0
 11
150.197483092546
 21
-25.4005084768369
 31
0.0
  0
LINE
  5
   480
  8
0
  6
CONTINUOUS
 62
     7
 10
149.497483164072
 20
-19.1005091205671
 30
0.0
 11
149.497483164072
 21
9.06583956568788
 31
0.0
  0
LINE
  5
   481
  8
0
  6
CONTINUOUS
 62
     7
 10
149.497483164072
 20
-68.8005027071074
 30
0.0
 11
149.497483164072
 21
-64.2505031720237
 31
0.0
  0
INSERT
  5
   482
  8
0
  6
CONTINUOUS
 62
     7
  2
*HATCH325
 10
98.2224884033203
 20
-71.3379669189453
 30
0.0
 41
0.349999964237213
 42
0.349999964237213
 43
0.349999964237213
  0
INSERT
  5
   483
  8
0
  6
CONTINUOUS
 62
     7
  2
*HATCH326
 10
98.2224884033203
 20
-71.3379669189453
 30
0.0
 41
0.349999964237213
 42
0.349999964237213
 43
0.349999964237213
  0
INSERT
  5
   484
  8
0
  6
CONTINUOUS
 62
     7
  2
*HATCH327
 10
98.2224884033203
 20
-71.3379669189453
 30
0.0
 41
0.349999964237213
 42
0.349999964237213
 43
0.349999964237213
  0
INSERT
  5
   485
  8
0
  6
CONTINUOUS
 62
     7
  2
*HATCH328
 10
98.2224884033203
 20
-71.3379669189453
 30
0.0
 41
0.349999964237213
 42
0.349999964237213
 43
0.349999964237213
  0
LINE
  5
   486
  8
0
  6
DASHDOT
 62
     7
 10
90.7283858456887
 20
23.1621670498114
 30
0.0
 11
101.193817886511
 21
23.1621380152598
 31
0.0
  0
LINE
  5
   487
  8
0
  6
CONTINUOUS
 62
     7
 10
95.7724886536598
 20
21.7621531988565
 30
0.0
 11
95.7724886536598
 21
24.562152912765
 31
0.0
  0
LINE
  5
   488
  8
0
  6
CONTINUOUS
 62
     7
 10
94.372488796711
 20
22.2871570292745
 30
0.0
 11
94.372488796711
 21
24.0371568504673
 31
0.0
  0
LINE
  5
   489
  8
0
  6
CONTINUOUS
 62
     7
 10
95.7724886536598
 20
24.562152912765
 30
0.0
 11
96.4724885225296
 21
24.562150970735
 31
0.0
  0
LINE
  5
   48A
  8
0
  6
CONTINUOUS
 62
     7
 10
95.7724886536598
 20
21.7621531988565
 30
0.0
 11
96.4724885225296
 21
21.7621512568265
 31
0.0
  0
LINE
  5
   48B
  8
0
  6
CONTINUOUS
 62
     7
 10
94.372488796711
 20
24.0371568504673
 30
0.0
 11
96.4724885225296
 21
24.0371510243772
 31
0.0
  0
LINE
  5
   48C
  8
0
  6
CONTINUOUS
 62
     7
 10
94.372488796711
 20
22.2871570292745
 30
0.0
 11
96.4724885225296
 21
22.2871512031844
 31
0.0
  0
LINE
  5
   48D
  8
0
  6
CONTINUOUS
 62
     7
 10
95.7724886536598
 20
-107.737833569411
 30
0.0
 11
96.4724885225296
 21
-107.737835511441
 31
0.0
  0
LINE
  5
   48E
  8
0
  6
CONTINUOUS
 62
     7
 10
94.372488796711
 20
-108.262829631708
 30
0.0
 11
96.4724885225296
 21
-108.262835457799
 31
0.0
  0
LINE
  5
   48F
  8
0
  6
CONTINUOUS
 62
     7
 10
95.7724886536598
 20
-110.537833283319
 30
0.0
 11
95.7724886536598
 21
-107.737833569411
 31
0.0
  0
LINE
  5
   490
  8
0
  6
CONTINUOUS
 62
     7
 10
94.372488796711
 20
-110.012829452901
 30
0.0
 11
94.372488796711
 21
-108.262829631708
 31
0.0
  0
LINE
  5
   491
  8
0
  6
DASHDOT
 62
     7
 10
90.7283858456887
 20
-109.137819432364
 30
0.0
 11
101.193817886511
 21
-109.137848466916
 31
0.0
  0
LINE
  5
   492
  8
0
  6
CONTINUOUS
 62
     7
 10
94.372488796711
 20
-110.012829452901
 30
0.0
 11
96.4724885225296
 21
-110.012835278991
 31
0.0
  0
LINE
  5
   493
  8
0
  6
CONTINUOUS
 62
     7
 10
95.7724886536598
 20
-110.537833283319
 30
0.0
 11
96.4724885225296
 21
-110.537835225349
 31
0.0
  0
LINE
  5
   494
  8
0
  6
CONTINUOUS
 62
     7
 10
96.4724885225296
 20
-3.61298052072469
 30
0.0
 11
97.1724885106087
 21
-3.61298052072469
 31
0.0
  0
LINE
  5
   495
  8
0
  6
CONTINUOUS
 62
     7
 10
96.4724885225296
 20
27.8870189428335
 30
0.0
 11
97.1724885106087
 21
27.8870189428335
 31
0.0
  0
LINE
  5
   496
  8
0
  6
CONTINUOUS
 62
     7
 10
97.1724885106087
 20
25.962018975616
 30
0.0
 11
97.1724885106087
 21
27.8870189428335
 31
0.0
  0
LINE
  5
   497
  8
0
  6
CONTINUOUS
 62
     7
 10
97.1724885106087
 20
-3.61298052072469
 30
0.0
 11
97.1724885106087
 21
-1.68798055350726
 31
0.0
  0
LINE
  5
   498
  8
0
  6
CONTINUOUS
 62
     7
 10
97.1724885106087
 20
-0.987980565428174
 30
0.0
 11
97.1724885106087
 21
9.33701949715667
 31
0.0
  0
LINE
  5
   499
  8
0
  6
CONTINUOUS
 62
     7
 10
96.4724885225296
 20
-3.61298052072469
 30
0.0
 11
96.4724885225296
 21
9.33701949715667
 31
0.0
  0
LINE
  5
   49A
  8
0
  6
CONTINUOUS
 62
     7
 10
96.4724885225296
 20
8.28701927661952
 30
0.0
 11
97.1724885106087
 21
8.28701927661952
 31
0.0
  0
LINE
  5
   49B
  8
0
  6
CONTINUOUS
 62
     7
 10
96.4724885225296
 20
15.9870191454893
 30
0.0
 11
97.1724885106087
 21
15.9870191454893
 31
0.0
  0
LINE
  5
   49C
  8
0
  6
CONTINUOUS
 62
     7
 10
98.2224884927273
 20
-1.68798055350726
 30
0.0
 11
98.2224884927273
 21
9.33701949715667
 31
0.0
  0
LINE
  5
   49D
  8
0
  6
CONTINUOUS
 62
     7
 10
97.1724885106087
 20
5.41615789057347
 30
0.0
 11
98.2224884927273
 21
5.41615789057347
 31
0.0
  0
LINE
  5
   49E
  8
0
  6
CONTINUOUS
 62
     7
 10
97.1724885106087
 20
18.8578805315353
 30
0.0
 11
98.2224884927273
 21
18.8578805315353
 31
0.0
  0
LINE
  5
   49F
  8
0
  6
CONTINUOUS
 62
     7
 10
97.1724885106087
 20
-1.68798055350726
 30
0.0
 11
98.2224884927273
 21
-1.68798055350726
 31
0.0
  0
LINE
  5
   4A0
  8
0
  6
CONTINUOUS
 62
     7
 10
97.1724885106087
 20
-0.987980565428174
 30
0.0
 11
98.2224884927273
 21
-0.987980565428174
 31
0.0
  0
LINE
  5
   4A1
  8
0
  6
CONTINUOUS
 62
     7
 10
97.1724885106087
 20
25.262018987537
 30
0.0
 11
98.2224884927273
 21
25.262018987537
 31
0.0
  0
LINE
  5
   4A2
  8
0
  6
CONTINUOUS
 62
     7
 10
97.1724885106087
 20
25.962018975616
 30
0.0
 11
98.2224884927273
 21
25.962018975616
 31
0.0
  0
LINE
  5
   4A3
  8
0
  6
CONTINUOUS
 62
     7
 10
96.4724885225296
 20
14.9370189249521
 30
0.0
 11
96.4724885225296
 21
27.8870189428335
 31
0.0
  0
LINE
  5
   4A4
  8
0
  6
CONTINUOUS
 62
     7
 10
97.1724885106087
 20
14.9370189249521
 30
0.0
 11
97.1724885106087
 21
25.262018987537
 31
0.0
  0
LINE
  5
   4A5
  8
0
  6
CONTINUOUS
 62
     7
 10
98.2224884927273
 20
14.9370189249521
 30
0.0
 11
98.2224884927273
 21
25.962018975616
 31
0.0
  0
LINE
  5
   4A6
  8
0
  6
DASHDOT
 62
     7
 10
97.1724885106087
 20
25.962018975616
 30
0.0
 11
97.1724885106087
 21
34.4765566363898
 31
0.0
  0
LINE
  5
   4A7
  8
0
  6
DASHDOT
 62
     7
 10
98.2224884033203
 20
-84.2879788093216
 30
0.0
 11
98.2224884033203
 21
-1.68798055350726
 31
0.0
  0
LINE
  5
   4A8
  8
0
  6
DASHDOT
 62
     7
 10
98.2224884033203
 20
25.962018975616
 30
0.0
 11
98.2224884033203
 21
34.2704366152974
 31
0.0
  0
LINE
  5
   4A9
  8
0
  6
CONTINUOUS
 62
     2
 10
96.4724885225296
 20
-113.862978305662
 30
0.0
 11
97.1724885106087
 21
-113.862978305662
 31
0.0
  0
LINE
  5
   4AA
  8
0
  6
CONTINUOUS
 62
     2
 10
96.4724885225296
 20
-82.3629788421041
 30
0.0
 11
97.1724885106087
 21
-82.3629788421041
 31
0.0
  0
LINE
  5
   4AB
  8
0
  6
CONTINUOUS
 62
     2
 10
97.1724885106087
 20
-84.2879788093216
 30
0.0
 11
97.1724885106087
 21
-82.3629788421041
 31
0.0
  0
LINE
  5
   4AC
  8
0
  6
CONTINUOUS
 62
     2
 10
97.1724885106087
 20
-113.862978305662
 30
0.0
 11
97.1724885106087
 21
-111.937978338445
 31
0.0
  0
LINE
  5
   4AD
  8
0
  6
CONTINUOUS
 62
     2
 10
97.1724885106087
 20
-111.237978350366
 30
0.0
 11
97.1724885106087
 21
-106.862977679814
 31
0.0
  0
LINE
  5
   4AE
  8
0
  6
CONTINUOUS
 62
     2
 10
96.4724885225296
 20
-113.862978305662
 30
0.0
 11
96.4724885225296
 21
-106.862977959247
 31
0.0
  0
LINE
  5
   4AF
  8
0
  6
CONTINUOUS
 62
     2
 10
96.4724885225296
 20
-88.3129787407762
 30
0.0
 11
97.1724885106087
 21
-88.3129787407762
 31
0.0
  0
LINE
  5
   4B0
  8
0
  6
CONTINUOUS
 62
     2
 10
96.4724885225296
 20
-107.91297840699
 30
0.0
 11
97.1724885106087
 21
-107.91297840699
 31
0.0
  0
LINE
  5
   4B1
  8
0
  6
CONTINUOUS
 62
     2
 10
98.2224884927273
 20
-111.937978338445
 30
0.0
 11
98.2224884927273
 21
-106.862977260665
 31
0.0
  0
LINE
  5
   4B2
  8
0
  6
CONTINUOUS
 62
     2
 10
97.1724885106087
 20
-111.937978338445
 30
0.0
 11
98.2224884927273
 21
-111.937978338445
 31
0.0
  0
LINE
  5
   4B3
  8
0
  6
CONTINUOUS
 62
     2
 10
97.1724885106087
 20
-111.237978350366
 30
0.0
 11
98.2224884927273
 21
-111.237978350366
 31
0.0
  0
LINE
  5
   4B4
  8
0
  6
CONTINUOUS
 62
     2
 10
97.1724885106087
 20
-84.9879787974006
 30
0.0
 11
98.2224884927273
 21
-84.9879787974006
 31
0.0
  0
LINE
  5
   4B5
  8
0
  6
CONTINUOUS
 62
     2
 10
97.1724885106087
 20
-84.2879788093216
 30
0.0
 11
98.2224884927273
 21
-84.2879788093216
 31
0.0
  0
LINE
  5
   4B6
  8
0
  6
CONTINUOUS
 62
     2
 10
96.4724885225296
 20
-89.3629797473853
 30
0.0
 11
96.4724885225296
 21
-82.3629788421041
 31
0.0
  0
LINE
  5
   4B7
  8
0
  6
CONTINUOUS
 62
     2
 10
97.1724885106087
 20
-89.3629794679522
 30
0.0
 11
97.1724885106087
 21
-84.9879787974006
 31
0.0
  0
LINE
  5
   4B8
  8
0
  6
CONTINUOUS
 62
     2
 10
98.2224884927273
 20
-89.3629790488026
 30
0.0
 11
98.2224884927273
 21
-84.2879788093216
 31
0.0
  0
LINE
  5
   4B9
  8
0
  6
CONTINUOUS
 62
     7
 10
97.1724885106087
 20
-84.2879788093216
 30
0.0
 11
97.1724885106087
 21
-1.68798055350726
 31
0.0
  0
INSERT
  5
   4BA
  8
0
  6
CONTINUOUS
 62
     7
  2
*UDIM486
 10
0.0
 20
0.0
 30
0.0
  0
INSERT
  5
   4BB
  8
0
  6
CONTINUOUS
 62
     7
  2
*UDIM487
 10
0.0
 20
0.0
 30
0.0
  0
INSERT
  5
   4BC
  8
0
  6
CONTINUOUS
 62
     7
  2
*UDIM488
 10
0.0
 20
0.0
 30
0.0
  0
INSERT
  5
   4BD
  8
0
  6
CONTINUOUS
 62
     7
  2
*UDIM489
 10
0.0
 20
0.0
 30
0.0
  0
INSERT
  5
   4BE
  8
0
  6
CONTINUOUS
 62
     7
  2
*UDIM490
 10
0.0
 20
0.0
 30
0.0
  0
INSERT
  5
   4BF
  8
0
  6
CONTINUOUS
 62
     7
  2
*UDIM491
 10
0.0
 20
0.0
 30
0.0
  0
INSERT
  5
   4C0
  8
0
  6
CONTINUOUS
 62
     7
  2
*UDIM492
 10
0.0
 20
0.0
 30
0.0
  0
INSERT
  5
   4C1
  8
0
  6
CONTINUOUS
 62
     7
  2
*UDIM493
 10
0.0
 20
0.0
 30
0.0
  0
INSERT
  5
   4C2
  8
0
  6
CONTINUOUS
 62
     7
  2
*UDIM494
 10
0.0
 20
0.0
 30
0.0
  0
TEXT
  5
   4C3
  8
0
  6
CONTINUOUS
 62
     7
 10
191.650956887847
 20
-60.6860269202786
 30
0.0
 40
3.00000001532688
  1
=       =
 50
90.0
 41
0.916666616797451
 72
     2
 11
191.650956887817
 21
-36.4860281103281
 31
0.0
  0
INSERT
  5
   4C4
  8
0
  6
CONTINUOUS
 62
     7
  2
*UDIM495
 10
0.0
 20
0.0
 30
0.0
  0
INSERT
  5
   4C5
  8
0
  6
CONTINUOUS
 62
     7
  2
*UDIM496
 10
0.0
 20
0.0
 30
0.0
  0
INSERT
  5
   4C6
  8
0
  6
CONTINUOUS
 62
     7
  2
*UDIM497
 10
0.0
 20
0.0
 30
0.0
  0
INSERT
  5
   4C7
  8
0
  6
CONTINUOUS
 62
     7
  2
*UDIM498
 10
0.0
 20
0.0
 30
0.0
  0
INSERT
  5
   4C8
  8
0
  6
CONTINUOUS
 62
     7
  2
*UDIM499
 10
0.0
 20
0.0
 30
0.0
  0
INSERT
  5
   4C9
  8
0
  6
CONTINUOUS
 62
     7
  2
*UDIM500
 10
0.0
 20
0.0
 30
0.0
  0
INSERT
  5
   4CA
  8
0
  6
CONTINUOUS
 62
     7
  2
*UDIM501
 10
0.0
 20
0.0
 30
0.0
  0
LINE
  5
   4CB
  8
0
  6
DASHDOT
 62
     7
 10
-5.51486249180542
 20
-148.212849736214
 30
0.0
 11
-49.6283368917627
 21
-148.212849736214
 31
0.0
  0
LINE
  5
   4CC
  8
0
  6
DASHDOT
 62
     7
 10
-2.52243023788904
 20
-209.812846064568
 30
0.0
 11
-49.1766179593707
 21
-209.812846064568
 31
0.0
  0
LINE
  5
   4CD
  8
0
  6
DASHDOT
 62
     7
 10
-28.4558883309364
 20
-139.553319928243
 30
0.0
 11
-28.4558883309364
 21
-215.533127865021
 31
0.0
  0
LINE
  5
   4CE
  8
0
  6
DASHDOT
 62
     7
 10
-14.4558891654015
 20
-138.893970448566
 30
0.0
 11
-14.4558891654015
 21
-217.557505013076
 31
0.0
  0
LINE
  5
   4CF
  8
0
  6
CONTINUOUS
 62
     1
 10
3.54410976171494
 20
-144.212849974632
 30
0.0
 11
3.54410976171494
 21
-178.012847959995
 31
0.0
  0
LINE
  5
   4D0
  8
0
  6
CONTINUOUS
 62
     1
 10
5.6507674597111
 20
-144.212849974632
 30
0.0
 11
-49.2895476924687
 21
-144.212849974632
 31
0.0
  0
LINE
  5
   4D1
  8
0
  6
CONTINUOUS
 62
     1
 10
-46.4558872580528
 20
-144.212849974632
 30
0.0
 11
-46.4558872580528
 21
-178.012847959995
 31
0.0
  0
LINE
  5
   4D2
  8
0
  6
CONTINUOUS
 62
     1
 10
5.19904852731908
 20
-213.812845826149
 30
0.0
 11
-48.9507584931747
 21
-213.812845826149
 31
0.0
  0
LINE
  5
   4D3
  8
0
  6
DASHDOT
 62
     7
 10
8.75633511990625
 20
-179.012847900391
 30
0.0
 11
-49.7977314914097
 21
-179.012847900391
 31
0.0
  0
LINE
  5
   4D4
  8
0
  6
DASHDOT
 62
     7
 10
-21.4558887481689
 20
-141.747146329295
 30
0.0
 11
-21.4558887481689
 21
-216.981585413406
 31
0.0
  0
CIRCLE
  5
   4D5
  8
0
  6
CONTINUOUS
 62
     7
 10
-28.4558883309364
 20
-148.212849736214
 30
0.0
 40
0.549999967217445
  0
CIRCLE
  5
   4D6
  8
0
  6
CONTINUOUS
 62
     7
 10
-14.4558891654015
 20
-148.212849736214
 30
0.0
 40
0.549999967217445
  0
CIRCLE
  5
   4D7
  8
0
  6
CONTINUOUS
 62
     7
 10
-28.4558883309364
 20
-209.812846064568
 30
0.0
 40
0.549999967217445
  0
CIRCLE
  5
   4D8
  8
0
  6
CONTINUOUS
 62
     7
 10
-14.4558891654015
 20
-209.812846064568
 30
0.0
 40
0.549999967217445
  0
LINE
  5
   4D9
  8
0
  6
CONTINUOUS
 62
     1
 10
5.87662692590711
 20
-178.012847959995
 30
0.0
 11
-50.0235909576057
 21
-178.012847959995
 31
0.0
  0
LINE
  5
   4DA
  8
0
  6
CONTINUOUS
 62
     1
 10
5.6507674597111
 20
-180.012847840786
 30
0.0
 11
-48.3861098276846
 21
-180.012847840786
 31
0.0
  0
LINE
  5
   4DB
  8
0
  6
CONTINUOUS
 62
     1
 10
-46.4558872580528
 20
-180.012847840786
 30
0.0
 11
-46.4558872580528
 21
-213.812845826149
 31
0.0
  0
LINE
  5
   4DC
  8
0
  6
CONTINUOUS
 62
     1
 10
3.54410976171494
 20
-180.012847840786
 30
0.0
 11
3.54410976171494
 21
-213.812845826149
 31
0.0
  0
LINE
  5
   4DD
  8
0
  6
DASHDOT
 62
     7
 10
-51.4912709380243
 20
-179.012847900391
 30
0.0
 11
-56.3630662533691
 21
-179.012847900391
 31
0.0
  0
LINE
  5
   4DE
  8
0
  6
DASHDOT
 62
     7
 10
-35.4558879137039
 20
-141.747146329295
 30
0.0
 11
-35.4558879137039
 21
-216.981585413406
 31
0.0
  0
LINE
  5
   4DF
  8
0
  6
DASHDOT
 62
     7
 10
-7.45588958263397
 20
-141.747146329295
 30
0.0
 11
-7.45588958263397
 21
-216.981585413406
 31
0.0
  0
LINE
  5
   4E0
  8
0
  6
DASHDOT
 62
     7
 10
4.46500526218204
 20
-154.512849360704
 30
0.0
 11
-49.1766179593707
 21
-154.512849360704
 31
0.0
  0
LINE
  5
   4E1
  8
0
  6
DASHDOT
 62
     7
 10
4.46500526218204
 20
-203.512846440077
 30
0.0
 11
-49.1766179593707
 21
-203.512846440077
 31
0.0
  0
ARC
  5
   4E2
  8
0
  6
CONTINUOUS
 62
     7
 10
-7.45588958263397
 20
-154.512849360704
 30
0.0
 40
7.99999952316284
 50
218.682187349558
 51
269.999999896069
  0
ARC
  5
   4E3
  8
0
  6
CONTINUOUS
 62
     7
 10
-21.4558887481689
 20
-154.512849360704
 30
0.0
 40
7.99999952316284
 50
218.682187349558
 51
321.317812442579
  0
ARC
  5
   4E4
  8
0
  6
CONTINUOUS
 62
     7
 10
-35.4558879137039
 20
-154.512849360704
 30
0.0
 40
7.99999952316284
 50
179.999999896069
 51
269.999999896069
  0
ARC
  5
   4E5
  8
0
  6
CONTINUOUS
 62
     7
 10
-21.4558887481689
 20
-154.512849360704
 30
0.0
 40
7.99999952316284
 50
398.682187349558
 51
449.999999896069
  0
ARC
  5
   4E6
  8
0
  6
CONTINUOUS
 62
     7
 10
-21.4558887481689
 20
-154.512849360704
 30
0.0
 40
7.99999952316284
 50
449.999999896069
 51
501.317812442579
  0
ARC
  5
   4E7
  8
0
  6
CONTINUOUS
 62
     7
 10
-35.4558879137039
 20
-154.512849360704
 30
0.0
 40
7.99999952316284
 50
269.999999896069
 51
321.317812442579
  0
ARC
  5
   4E8
  8
0
  6
CONTINUOUS
 62
     7
 10
-35.4558879137039
 20
-154.512849360704
 30
0.0
 40
7.99999952316284
 50
398.682187349558
 51
539.999999896069
  0
ARC
  5
   4E9
  8
0
  6
CONTINUOUS
 62
     7
 10
-7.45588958263397
 20
-154.512849360704
 30
0.0
 40
7.99999952316284
 50
269.999999896069
 51
449.999999896069
  0
ARC
  5
   4EA
  8
0
  6
CONTINUOUS
 62
     7
 10
-7.45588958263397
 20
-154.512849360704
 30
0.0
 40
7.99999952316284
 50
449.999999896069
 51
501.317812442579
  0
LINE
  5
   4EB
  8
0
  6
CONTINUOUS
 62
     7
 10
-13.7008872088015
 20
-149.512849658728
 30
0.0
 11
-15.2108911220014
 21
-149.512849658728
 31
0.0
  0
LINE
  5
   4EC
  8
0
  6
CONTINUOUS
 62
     7
 10
-27.7008863743365
 20
-149.512849658728
 30
0.0
 11
-29.2108902875364
 21
-149.512849658728
 31
0.0
  0
LINE
  5
   4ED
  8
0
  6
CONTINUOUS
 62
     7
 10
-27.7008863743365
 20
-159.512849062681
 30
0.0
 11
-29.2108902875364
 21
-159.512849062681
 31
0.0
  0
LINE
  5
   4EE
  8
0
  6
CONTINUOUS
 62
     7
 10
-13.7008872088015
 20
-159.512849062681
 30
0.0
 11
-15.2108911220014
 21
-159.512849062681
 31
0.0
  0
ARC
  5
   4EF
  8
0
  6
CONTINUOUS
 62
     7
 10
-35.4558879137039
 20
-203.512846440077
 30
0.0
 40
7.99999952316284
 50
398.682187349558
 51
539.999999896069
  0
ARC
  5
   4F0
  8
0
  6
CONTINUOUS
 62
     7
 10
-35.4558879137039
 20
-203.512846440077
 30
0.0
 40
7.99999952316284
 50
179.999999896069
 51
269.999999896069
  0
ARC
  5
   4F1
  8
0
  6
CONTINUOUS
 62
     7
 10
-35.4558879137039
 20
-203.512846440077
 30
0.0
 40
7.99999952316284
 50
269.999999896069
 51
321.317812442579
  0
ARC
  5
   4F2
  8
0
  6
CONTINUOUS
 62
     7
 10
-21.4558887481689
 20
-203.512846440077
 30
0.0
 40
7.99999952316284
 50
218.682187349558
 51
321.317812442579
  0
ARC
  5
   4F3
  8
0
  6
CONTINUOUS
 62
     7
 10
-21.4558887481689
 20
-203.512846440077
 30
0.0
 40
7.99999952316284
 50
449.999999896069
 51
501.317812442579
  0
ARC
  5
   4F4
  8
0
  6
CONTINUOUS
 62
     7
 10
-21.4558887481689
 20
-203.512846440077
 30
0.0
 40
7.99999952316284
 50
398.682187349558
 51
449.999999896069
  0
ARC
  5
   4F5
  8
0
  6
CONTINUOUS
 62
     7
 10
-7.45588958263397
 20
-203.512846440077
 30
0.0
 40
7.99999952316284
 50
449.999999896069
 51
501.317812442579
  0
ARC
  5
   4F6
  8
0
  6
CONTINUOUS
 62
     7
 10
-7.45588958263397
 20
-203.512846440077
 30
0.0
 40
7.99999952316284
 50
269.999999896069
 51
449.999999896069
  0
ARC
  5
   4F7
  8
0
  6
CONTINUOUS
 62
     7
 10
-7.45588958263397
 20
-203.512846440077
 30
0.0
 40
7.99999952316284
 50
218.682187349558
 51
269.999999896069
  0
LINE
  5
   4F8
  8
0
  6
CONTINUOUS
 62
     7
 10
-13.7008872088015
 20
-198.5128467381
 30
0.0
 11
-15.2108911220014
 21
-198.5128467381
 31
0.0
  0
LINE
  5
   4F9
  8
0
  6
CONTINUOUS
 62
     7
 10
-13.7008872088015
 20
-208.512846142054
 30
0.0
 11
-15.2108911220014
 21
-208.512846142054
 31
0.0
  0
LINE
  5
   4FA
  8
0
  6
CONTINUOUS
 62
     7
 10
-27.7008863743365
 20
-198.5128467381
 30
0.0
 11
-29.2108902875364
 21
-198.5128467381
 31
0.0
  0
LINE
  5
   4FB
  8
0
  6
CONTINUOUS
 62
     7
 10
-27.7008863743365
 20
-208.512846142054
 30
0.0
 11
-29.2108902875364
 21
-208.512846142054
 31
0.0
  0
LINE
  5
   4FC
  8
0
  6
DASHDOT
 62
     7
 10
-43.4558874368668
 20
-144.20194974538
 30
0.0
 11
-43.4558874368668
 21
-148.363169438603
 31
0.0
  0
LINE
  5
   4FD
  8
0
  6
DASHDOT
 62
     7
 10
0.54410994052887
 20
-144.679927683115
 30
0.0
 11
0.54410994052887
 21
-148.475634835717
 31
0.0
  0
LINE
  5
   4FE
  8
0
  6
DASHDOT
 62
     7
 10
2.77903362790067
 20
-146.512849837542
 30
0.0
 11
-1.60711685955065
 21
-146.512849837542
 31
0.0
  0
LINE
  5
   4FF
  8
0
  6
DASHDOT
 62
     7
 10
2.66656823078653
 20
-162.512848883867
 30
0.0
 11
-1.52276781171505
 21
-162.512848883867
 31
0.0
  0
LINE
  5
   500
  8
0
  6
DASHDOT
 62
     7
 10
2.32917203944413
 20
-195.512846916914
 30
0.0
 11
-1.52276781171505
 21
-195.512846916914
 31
0.0
  0
LINE
  5
   501
  8
0
  6
DASHDOT
 62
     7
 10
2.75091727862214
 20
-211.51284596324
 30
0.0
 11
-1.38218606532238
 21
-211.51284596324
 31
0.0
  0
LINE
  5
   502
  8
0
  6
DASHDOT
 62
     7
 10
-43.4558874368668
 20
-192.843233997244
 30
0.0
 11
-43.4558874368668
 21
-197.707362422431
 31
0.0
  0
LINE
  5
   503
  8
0
  6
DASHDOT
 62
     7
 10
0.54410994052887
 20
-193.377444633537
 30
0.0
 11
0.54410994052887
 21
-197.34184988181
 31
0.0
  0
LINE
  5
   504
  8
0
  6
DASHDOT
 62
     7
 10
-40.998122198777
 20
-195.512846916914
 30
0.0
 11
-45.6373198297351
 21
-195.512846916914
 31
0.0
  0
LINE
  5
   505
  8
0
  6
DASHDOT
 62
     7
 10
-41.4761001365121
 20
-211.51284596324
 30
0.0
 11
-45.4967380833425
 21
-211.51284596324
 31
0.0
  0
LINE
  5
   506
  8
0
  6
DASHDOT
 62
     7
 10
-41.1105875958911
 20
-162.512848883867
 30
0.0
 11
-45.2436909398357
 21
-162.512848883867
 31
0.0
  0
LINE
  5
   507
  8
0
  6
DASHDOT
 62
     7
 10
-41.2511693422838
 20
-146.512849837542
 30
0.0
 11
-45.4967380833425
 21
-146.512849837542
 31
0.0
  0
LINE
  5
   508
  8
0
  6
DASHDOT
 62
     7
 10
0.54410994052887
 20
-160.565665025487
 30
0.0
 11
0.54410994052887
 21
-164.586302972318
 31
0.0
  0
LINE
  5
   509
  8
0
  6
DASHDOT
 62
     7
 10
-43.4558874368668
 20
-160.790595819715
 30
0.0
 11
-43.4558874368668
 21
-164.333255828811
 31
0.0
  0
LINE
  5
   50A
  8
0
  6
DASHDOT
 62
     7
 10
-43.4558874368668
 20
-209.488112770137
 30
0.0
 11
-43.4558874368668
 21
-213.340052621296
 31
0.0
  0
LINE
  5
   50B
  8
0
  6
DASHDOT
 62
     7
 10
0.54410994052887
 20
-209.544345468694
 30
0.0
 11
0.54410994052887
 21
-213.621216114081
 31
0.0
  0
CIRCLE
  5
   50C
  8
0
  6
CONTINUOUS
 62
     7
 10
0.54410994052887
 20
-146.512849837542
 30
0.0
 40
0.359999978542328
  0
CIRCLE
  5
   50D
  8
0
  6
CONTINUOUS
 62
     7
 10
0.54410994052887
 20
-162.512848883867
 30
0.0
 40
0.359999978542328
  0
CIRCLE
  5
   50E
  8
0
  6
CONTINUOUS
 62
     7
 10
0.54410994052887
 20
-195.512846916914
 30
0.0
 40
0.359999978542328
  0
CIRCLE
  5
   50F
  8
0
  6
CONTINUOUS
 62
     7
 10
0.54410994052887
 20
-211.51284596324
 30
0.0
 40
0.359999978542328
  0
CIRCLE
  5
   510
  8
0
  6
CONTINUOUS
 62
     7
 10
-43.4558874368668
 20
-211.51284596324
 30
0.0
 40
0.359999978542328
  0
CIRCLE
  5
   511
  8
0
  6
CONTINUOUS
 62
     7
 10
-43.4558874368668
 20
-195.512846916914
 30
0.0
 40
0.359999978542328
  0
CIRCLE
  5
   512
  8
0
  6
CONTINUOUS
 62
     7
 10
-43.4558874368668
 20
-162.512848883867
 30
0.0
 40
0.359999978542328
  0
CIRCLE
  5
   513
  8
0
  6
CONTINUOUS
 62
     7
 10
-43.4558874368668
 20
-146.512849837542
 30
0.0
 40
0.359999978542328
  0
INSERT
  5
   514
  8
0
  6
CONTINUOUS
 62
     7
  2
*UDIM502
 10
0.0
 20
0.0
 30
0.0
  0
INSERT
  5
   515
  8
0
  6
CONTINUOUS
 62
     7
  2
*UDIM503
 10
0.0
 20
0.0
 30
0.0
  0
INSERT
  5
   516
  8
0
  6
CONTINUOUS
 62
     7
  2
*UDIM504
 10
0.0
 20
0.0
 30
0.0
  0
INSERT
  5
   517
  8
0
  6
CONTINUOUS
 62
     7
  2
*UDIM505
 10
0.0
 20
0.0
 30
0.0
  0
INSERT
  5
   518
  8
0
  6
CONTINUOUS
 62
     7
  2
*UDIM506
 10
0.0
 20
0.0
 30
0.0
  0
INSERT
  5
   519
  8
0
  6
CONTINUOUS
 62
     7
  2
*UDIM507
 10
0.0
 20
0.0
 30
0.0
  0
INSERT
  5
   51A
  8
0
  6
CONTINUOUS
 62
     7
  2
*UDIM508
 10
0.0
 20
0.0
 30
0.0
  0
INSERT
  5
   51B
  8
0
  6
CONTINUOUS
 62
     7
  2
*UDIM509
 10
0.0
 20
0.0
 30
0.0
  0
INSERT
  5
   51C
  8
0
  6
CONTINUOUS
 62
     7
  2
*UDIM510
 10
0.0
 20
0.0
 30
0.0
  0
INSERT
  5
   51D
  8
0
  6
CONTINUOUS
 62
     7
  2
*UDIM511
 10
0.0
 20
0.0
 30
0.0
  0
TEXT
  5
   51E
  8
0
  6
CONTINUOUS
 62
     7
 10
-19.9035913466108
 20
-175.802457474292
 30
0.0
 40
3.00000005960463
  1
=
 50
359.999999896069
 41
0.916666581564485
 72
     2
 11
-17.7035915254247
 21
-175.802457478271
 31
0.0
  0
TEXT
  5
   51F
  8
0
  6
CONTINUOUS
 62
     7
 10
-24.8980614515195
 20
-175.555850961428
 30
0.0
 40
3.00000005960463
  1
=
 50
359.999999896069
 41
0.916666581564485
 72
     2
 11
-22.6980616303334
 21
-175.555850965408
 31
0.0
  0
TEXT
  5
   520
  8
0
  6
CONTINUOUS
 62
     7
 10
-29.582884116085
 20
-219.123572674745
 30
0.0
 40
3.00000005960463
  1
Y
 50
359.999999896069
 41
0.916666581564485
 72
     2
 11
-27.3828842948989
 21
-219.123572678724
 31
0.0
  0
TEXT
  5
   521
  8
0
  6
CONTINUOUS
 62
     7
 10
-22.5090942735861
 20
-141.81823670633
 30
0.0
 40
3.00000005960463
  1
Y
 50
359.999999896069
 41
0.916666581564485
 72
     2
 11
-20.3090944524
 21
-141.81823671031
 31
0.0
  0
TEXT
  5
   522
  8
0
  6
CONTINUOUS
 62
     7
 10
10.2244224711754
 20
-181.017879126166
 30
0.0
 40
3.00000005960463
  1
X
 50
359.999999896069
 41
0.916666581564485
 72
     2
 11
12.4244222923615
 21
-181.017879130146
 31
0.0
  0
TEXT
  5
   523
  8
0
  6
CONTINUOUS
 62
     7
 10
-88.3178049316169
 20
-180.232646152188
 30
0.0
 40
3.00000005960463
  1
X
 50
359.999999896069
 41
0.916666581564485
 72
     2
 11
-86.1178051104309
 21
-180.232646156167
 31
0.0
  0
INSERT
  5
   524
  8
0
  6
CONTINUOUS
 62
     7
  2
*UDIM512
 10
0.0
 20
0.0
 30
0.0
  0
INSERT
  5
   525
  8
0
  6
CONTINUOUS
 62
     7
  2
*UDIM513
 10
0.0
 20
0.0
 30
0.0
  0
INSERT
  5
   526
  8
0
  6
CONTINUOUS
 62
     7
  2
*UDIM514
 10
0.0
 20
0.0
 30
0.0
  0
LINE
  5
   527
  8
0
  6
DASHDOT
 62
     2
 10
221.15985096334
 20
-6.36784076690674
 30
0.0
 11
274.072342844319
 21
-6.36784076690674
 31
0.0
  0
LINE
  5
   528
  8
0
  6
CONTINUOUS
 62
     7
 10
227.21223449707
 20
-20.3678407669067
 30
0.0
 11
263.96223449707
 21
-20.3678407669067
 31
0.0
  0
LINE
  5
   529
  8
0
  6
CONTINUOUS
 62
     7
 10
227.21223449707
 20
7.63215923309326
 30
0.0
 11
263.96223449707
 21
7.63215923309326
 31
0.0
  0
LINE
  5
   52A
  8
0
  6
CONTINUOUS
 62
     7
 10
227.21223449707
 20
7.63215923309326
 30
0.0
 11
227.21223449707
 21
-20.3678407669067
 31
0.0
  0
LINE
  5
   52B
  8
0
  6
CONTINUOUS
 62
     7
 10
263.96223449707
 20
7.63215923309326
 30
0.0
 11
263.96223449707
 21
-20.3678407669067
 31
0.0
  0
LINE
  5
   52C
  8
0
  6
DASHDOT
 62
     2
 10
245.58723449707
 20
17.7406084606821
 30
0.0
 11
245.58723449707
 21
-32.2056734256238
 31
0.0
  0
CIRCLE
  5
   52D
  8
0
  6
CONTINUOUS
 62
     7
 10
231.21223449707
 20
11.3821592330933
 30
0.0
 40
0.875
  0
CIRCLE
  5
   52E
  8
0
  6
CONTINUOUS
 62
     7
 10
259.96223449707
 20
11.3821592330933
 30
0.0
 40
0.875
  0
CIRCLE
  5
   52F
  8
0
  6
CONTINUOUS
 62
     7
 10
259.96223449707
 20
-24.1178407669067
 30
0.0
 40
0.875
  0
CIRCLE
  5
   530
  8
0
  6
CONTINUOUS
 62
     7
 10
231.21223449707
 20
-24.1178407669067
 30
0.0
 40
0.875
  0
LINE
  5
   531
  8
0
  6
DASHDOT
 62
     7
 10
259.96223449707
 20
13.5071592330933
 30
0.0
 11
259.96223449707
 21
9.25715923309326
 31
0.0
  0
LINE
  5
   532
  8
0
  6
DASHDOT
 62
     7
 10
257.83723449707
 20
11.3821592330933
 30
0.0
 11
262.08723449707
 21
11.3821592330933
 31
0.0
  0
LINE
  5
   533
  8
0
  6
DASHDOT
 62
     7
 10
231.21223449707
 20
13.5071592330933
 30
0.0
 11
231.21223449707
 21
9.25715923309326
 31
0.0
  0
LINE
  5
   534
  8
0
  6
DASHDOT
 62
     7
 10
229.08723449707
 20
11.3821592330933
 30
0.0
 11
233.33723449707
 21
11.3821592330933
 31
0.0
  0
LINE
  5
   535
  8
0
  6
DASHDOT
 62
     7
 10
231.21223449707
 20
-21.9928407669067
 30
0.0
 11
231.21223449707
 21
-26.2428407669067
 31
0.0
  0
LINE
  5
   536
  8
0
  6
DASHDOT
 62
     7
 10
229.08723449707
 20
-24.1178407669067
 30
0.0
 11
233.33723449707
 21
-24.1178407669067
 31
0.0
  0
LINE
  5
   537
  8
0
  6
DASHDOT
 62
     7
 10
259.96223449707
 20
-21.9928407669067
 30
0.0
 11
259.96223449707
 21
-26.2428407669067
 31
0.0
  0
LINE
  5
   538
  8
0
  6
DASHDOT
 62
     7
 10
257.83723449707
 20
-24.1178407669067
 30
0.0
 11
262.08723449707
 21
-24.1178407669067
 31
0.0
  0
LINE
  5
   539
  8
0
  6
CONTINUOUS
 62
     7
 10
224.487335505686
 20
14.4913150294169
 30
0.0
 11
266.449639246597
 21
14.4913150294169
 31
0.0
  0
LINE
  5
   53A
  8
0
  6
CONTINUOUS
 62
     7
 10
224.487335505686
 20
-27.8423365322105
 30
0.0
 11
266.449639246597
 21
-27.8423365322105
 31
0.0
  0
LINE
  5
   53B
  8
0
  6
CONTINUOUS
 62
     7
 10
266.449639246597
 20
14.4913150294169
 30
0.0
 11
266.449639246597
 21
-27.8423365322105
 31
0.0
  0
LINE
  5
   53C
  8
0
  6
CONTINUOUS
 62
     7
 10
224.487335505686
 20
14.4913150294169
 30
0.0
 11
224.487335505686
 21
-27.8423365322105
 31
0.0
  0
TEXT
  5
   53D
  8
0
  6
CONTINUOUS
 62
     1
 10
187.475944444056
 20
-207.055967347527
 30
0.0
 40
2.00000008940697
  1
M4380 97-11-03
 50
359.999999844103
 41
0.749999861419206
 72
     1
 11
197.825942993164
 21
-206.055967330933
 31
0.0
 73
     2
  0
TEXT
  5
   53E
  8
0
  6
CONTINUOUS
 62
     1
 10
130.243331906464
 20
-200.308639575443
 30
0.0
 40
2.00000008940697
  1
97-11-03 SCARPELLINI
 50
359.999999844103
 41
0.749999861419206
 72
     2
 11
159.943327738609
 21
-200.308639656105
 31
0.0
  0
TEXT
  5
   53F
  8
0
  6
CONTINUOUS
 62
     1
 10
161.735948235061
 20
-207.055966393604
 30
0.0
 40
2.00000008940697
  1
M 3167 95-08-25
 50
359.999999844103
 41
0.749999861419206
 72
     1
 11
172.835946679115
 21
-206.055966379047
 31
0.0
 73
     2
  0
TEXT
  5
   540
  8
0
  6
CONTINUOUS
 62
     1
 10
136.89595189717
 20
-207.055966393604
 30
0.0
 40
2.00000008940697
  1
M 3142 95-06-12
 50
359.999999844103
 41
0.749999861419206
 72
     1
 11
147.995950341225
 21
-206.055966379047
 31
0.0
 73
     2
  0
TEXT
  5
   541
  8
0
  6
CONTINUOUS
 62
     7
 10
244.946574320294
 20
-41.5822077488848
 30
0.0
 40
3.00000002980232
  1
Y
 50
359.999999844103
 41
0.916666604744064
 72
     2
 11
247.146574189163
 21
-41.5822077548598
 31
0.0
  0
TEXT
  5
   542
  8
0
  6
CONTINUOUS
 62
     7
 10
244.203878750302
 20
26.7457913661054
 30
0.0
 40
3.00000002980232
  1
Y
 50
359.999999844103
 41
0.916666604744064
 72
     2
 11
246.403878619171
 21
26.7457913601304
 31
0.0
  0
TEXT
  5
   543
  8
0
  6
CONTINUOUS
 62
     7
 10
199.270794023968
 20
-8.53224992401391
 30
0.0
 40
3.00000002980232
  1
X
 50
359.999999844103
 41
0.916666604744064
 72
     2
 11
201.470793892838
 21
-8.53224992998885
 31
0.0
  0
TEXT
  5
   544
  8
0
  6
CONTINUOUS
 62
     7
 10
275.101806749798
 20
-7.59004909753292
 30
0.0
 40
3.00000002980232
  1
X
 50
359.999999844103
 41
0.916666604744064
 72
     2
 11
277.301806618668
 21
-7.59004910350787
 31
0.0
  0
TEXT
  5
   545
  8
0
  6
CONTINUOUS
 62
     7
 10
235.722966458795
 20
-38.9827723371922
 30
0.0
 40
3.00000002980232
  1
=      =
 50
359.999999844103
 41
0.916666604744064
 72
     2
 11
257.172965218521
 21
-38.9827723954479
 31
0.0
  0
TEXT
  5
   546
  8
0
  6
CONTINUOUS
 62
     7
 10
234.980270650384
 20
16.6265645158352
 30
0.0
 40
3.00000002980232
  1
=      =
 50
359.999999844103
 41
0.916666604744064
 72
     2
 11
256.430269410111
 21
16.6265644575795
 31
0.0
  0
INSERT
  5
   547
  8
0
  6
CONTINUOUS
 62
     7
  2
*UDIM515
 10
0.0
 20
0.0
 30
0.0
  0
INSERT
  5
   548
  8
0
  6
CONTINUOUS
 62
     7
  2
*UDIM516
 10
0.0
 20
0.0
 30
0.0
  0
INSERT
  5
   549
  8
0
  6
CONTINUOUS
 62
     7
  2
*UDIM517
 10
0.0
 20
0.0
 30
0.0
  0
INSERT
  5
   54A
  8
0
  6
CONTINUOUS
 62
     7
  2
*UDIM518
 10
0.0
 20
0.0
 30
0.0
  0
INSERT
  5
   54B
  8
0
  6
CONTINUOUS
 62
     7
  2
*UDIM519
 10
0.0
 20
0.0
 30
0.0
  0
TEXT
  5
   54C
  8
0
  6
CONTINUOUS
 62
     1
 10
130.243331918389
 20
-191.841885471645
 30
0.0
 40
2.00000008940697
  1
93-10-04 BARCELLA
 50
359.999999844103
 41
0.749999861419206
 72
     2
 11
155.443328380853
 21
-191.841885540085
 31
0.0
  0
TEXT
  5
   54D
  8
0
  6
CONTINUOUS
 62
     7
 10
222.177397790773
 20
-15.3562924217134
 30
0.0
 40
3.00000002980232
  1
=     =
 50
449.999999844103
 41
0.916666604744064
 72
     2
 11
222.177397841537
 21
3.34370649646229
 31
0.0
  0
TEXT
  5
   54E
  8
0
  6
CONTINUOUS
 62
     7
 10
211.71119219385
 20
-15.6470209907442
 30
0.0
 40
3.00000002980232
  1
=     =
 50
449.999999844103
 41
0.916666604744064
 72
     2
 11
211.711192244613
 21
3.05297792743153
 31
0.0
  0
TEXT
  5
   54F
  8
0
  6
CONTINUOUS
 62
     1
 10
231.973709124863
 20
-218.083676247986
 30
0.0
 40
4.00000017881393
  1
601840/122
 50
359.999999844103
 41
0.937499973922969
 72
     2
 11
268.723709724635
 21
-218.083676347794
 31
0.0
  0
TEXT
  5
   550
  8
0
  6
CONTINUOUS
 62
     1
 10
249.059402479634
 20
-209.102093690161
 30
0.0
 40
3.00000002980232
  1
S7
 50
359.999999844103
 41
0.916666604744064
 72
     2
 11
254.009402190055
 21
-209.102093703604
 31
0.0
  0
TEXT
  5
   551
  8
0
  6
CONTINUOUS
 62
     1
 10
221.524982720872
 20
-190.791821447257
 30
0.0
 40
2.00000008940697
  1
3POLE LOW VOLTAGE M.C.C.B SERIES ISOMAX
 50
359.999999844103
 41
0.749999861419206
 72
     1
 11
250.62497864365
 21
-189.791821481586
 31
0.0
 73
     2
  0
TEXT
  5
   552
  8
0
  6
CONTINUOUS
 62
     1
 10
229.774981601062
 20
-193.791821469663
 30
0.0
 40
2.00000008940697
  1
FIXED VERSION REAR TERMINALS
 50
359.999999844103
 41
0.749999861419206
 72
     1
 11
250.624978679425
 21
-192.791821481586
 31
0.0
 73
     2
  0
TEXT
  5
   553
  8
0
  6
CONTINUOUS
 62
     1
 10
224.727374353518
 20
-198.862088189222
 30
0.0
 40
2.00000008940697
  1
INTERR.AUTOMATICO SERIE ISOMAX
 50
359.999999844103
 41
0.749999861419206
 72
     1
 11
247.077371221775
 21
-197.862088205219
 31
0.0
 73
     2
  0
TEXT
  5
   554
  8
0
  6
CONTINUOUS
 62
     1
 10
214.227375860038
 20
-201.862088160706
 30
0.0
 40
2.00000008940697
  1
TRIPOL.ESECUZIONE FISSA TERMINALI POSTERIORI
 50
359.999999844103
 41
0.749999861419206
 72
     1
 11
247.077371257549
 21
-200.862088205219
 31
0.0
 73
     2
  0
ENDSEC
  0
EOF
