  0
SECTION
  2
HEADER
  9
$ACADVER
  1
AC1009
  9
$DWGCODEPAGE
  3
iso8859-1
  9
$INSBASE
 10
0.0
 20
0.0
 30
0.0
  9
$EXTMIN
 10
1.0E20
 20
1.0E20
  9
$EXTMAX
 10
-1.0E20
 20
-1.0E20
  9
$LIMMIN
 10
0.0
 20
0.0
  9
$LIMMAX
 10
12.0
 20
9.0
  9
$ORTHOMODE
 70
     0
  9
$REGENMODE
 70
     1
  9
$FILLMODE
 70
     1
  9
$QTEXTMODE
 70
     0
  9
$MIRRTEXT
 70
     1
  9
$DRAGMODE
 70
     2
  9
$LTSCALE
 40
15.0
  9
$OSMODE
 70
     0
  9
$ATTMODE
 70
     1
  9
$TEXTSIZE
 40
0.2
  9
$TRACEWID
 40
0.05
  9
$TEXTSTYLE
  7
STANDARD
  9
$CLAYER
  8
0
  9
$CELTYPE
  6
DASHED
  9
$CECOLOR
 62
   256
  9
$DIMSCALE
 40
1.0
  9
$DIMASZ
 40
0.18
  9
$DIMEXO
 40
0.0625
  9
$DIMDLI
 40
0.38
  9
$DIMRND
 40
0.0
  9
$DIMDLE
 40
0.0
  9
$DIMEXE
 40
0.18
  9
$DIMTP
 40
0.0
  9
$DIMTM
 40
0.0
  9
$DIMTXT
 40
0.18
  9
$DIMCEN
 40
0.09
  9
$DIMTSZ
 40
0.0
  9
$DIMTOL
 70
     0
  9
$DIMLIM
 70
     0
  9
$DIMTIH
 70
     1
  9
$DIMTOH
 70
     1
  9
$DIMSE1
 70
     0
  9
$DIMSE2
 70
     0
  9
$DIMTAD
 70
     0
  9
$DIMZIN
 70
     0
  9
$DIMBLK
  1

  9
$DIMASO
 70
     1
  9
$DIMSHO
 70
     1
  9
$DIMPOST
  1

  9
$DIMAPOST
  1

  9
$DIMALT
 70
     0
  9
$DIMALTD
 70
     2
  9
$DIMALTF
 40
25.4
  9
$DIMLFAC
 40
1.0
  9
$DIMTOFL
 70
     0
  9
$DIMTVP
 40
0.0
  9
$DIMTIX
 70
     0
  9
$DIMSOXD
 70
     0
  9
$DIMSAH
 70
     0
  9
$DIMBLK1
  1

  9
$DIMBLK2
  1

  9
$DIMSTYLE
  2
STANDARD
  9
$DIMCLRD
 70
     0
  9
$DIMCLRE
 70
     0
  9
$DIMCLRT
 70
     0
  9
$DIMTFAC
 40
1.0
  9
$DIMGAP
 40
0.09
  9
$LUNITS
 70
     2
  9
$LUPREC
 70
     4
  9
$AXISMODE
 70
     0
  9
$AXISUNIT
 10
0.0
 20
0.0
  9
$SKETCHINC
 40
0.1
  9
$FILLETRAD
 40
0.0
  9
$AUNITS
 70
     0
  9
$AUPREC
 70
     0
  9
$MENU
  1
acad
  9
$ELEVATION
 40
0.0
  9
$PELEVATION
 40
0.0
  9
$THICKNESS
 40
0.0
  9
$LIMCHECK
 70
     0
  9
$BLIPMODE
 70
     1
  9
$CHAMFERA
 40
0.0
  9
$CHAMFERB
 40
0.0
  9
$SKPOLY
 70
     0
  9
$TDCREATE
 40
0.000000000
  9
$TDUPDATE
 40
0.000000000
  9
$TDINDWG
 40
0.0
  9
$TDUSRTIMER
 40
0.0
  9
$USRTIMER
 70
     1
  9
$ANGBASE
 50
0.0
  9
$ANGDIR
 70
     0
  9
$PDMODE
 70
     0
  9
$PDSIZE
 40
0.0
  9
$PLINEWID
 40
0.0
  9
$COORDS
 70
     1
  9
$SPLFRAME
 70
     0
  9
$SPLINETYPE
 70
     6
  9
$SPLINESEGS
 70
     8
  9
$ATTDIA
 70
     0
  9
$ATTREQ
 70
     1
  9
$HANDLING
 70
     1
  9
$HANDSEED
  5
   498
  9
$SURFTAB1
 70
     6
  9
$SURFTAB2
 70
     6
  9
$SURFTYPE
 70
     6
  9
$SURFU
 70
     6
  9
$SURFV
 70
     6
  9
$UCSNAME
  2

  9
$UCSORG
 10
0.0
 20
0.0
 30
0.0
  9
$UCSXDIR
 10
1.0
 20
0.0
 30
0.0
  9
$UCSYDIR
 10
0.0
 20
1.0
 30
0.0
  9
$PUCSNAME
  2

  9
$PUCSORG
 10
0.0
 20
0.0
 30
0.0
  9
$PUCSXDIR
 10
1.0
 20
0.0
 30
0.0
  9
$PUCSYDIR
 10
0.0
 20
1.0
 30
0.0
  9
$USERI1
 70
     0
  9
$USERI2
 70
     0
  9
$USERI3
 70
     0
  9
$USERI4
 70
     0
  9
$USERI5
 70
     0
  9
$USERR1
 40
0.0
  9
$USERR2
 40
0.0
  9
$USERR3
 40
0.0
  9
$USERR4
 40
0.0
  9
$USERR5
 40
0.0
  9
$WORLDVIEW
 70
     1
  9
$SHADEDGE
 70
     3
  9
$SHADEDIF
 70
    70
  9
$TILEMODE
 70
     1
  9
$MAXACTVP
 70
    16
  9
$PINSBASE
 10
0.0
 20
0.0
 30
0.0
  9
$PLIMCHECK
 70
     0
  9
$PEXTMIN
 10
1.0E20
 20
1.0E20
 30
1.0E20
  9
$PEXTMAX
 10
-1.0E20
 20
-1.0E20
 30
-1.0E20
  9
$PLIMMIN
 10
0.0
 20
0.0
  9
$PLIMMAX
 10
12.0
 20
9.0
  9
$UNITMODE
 70
     0
  9
$VISRETAIN
 70
     0
  0
ENDSEC
  0
SECTION
  2
TABLES
  0
TABLE
  2
VPORT
 70
     1
  0
VPORT
  2
*ACTIVE
 70
     0
 10
0.0
 20
0.0
 11
1.0
 21
1.0
 12
6.801242
 22
4.5
 13
0.0
 23
0.0
 14
1.0
 24
1.0
 15
0.0
 25
0.0
 16
0.0
 26
0.0
 36
1.0
 17
0.0
 27
0.0
 37
0.0
 40
9.0
 41
1.511387
 42
50.0
 43
0.0
 44
0.0
 50
0.0
 51
0.0
 71
     0
 72
   100
 73
     1
 74
     1
 75
     0
 76
     0
 77
     0
 78
     0
  0
ENDTAB
  0
TABLE
  2
LTYPE
 70
    41
  0
LTYPE
  2
BYBLOCK
 70
     0
  3

 72
    65
 73
     0
 40
0.0
  0
LTYPE
  2
BYLAYER
 70
     0
  3

 72
    65
 73
     0
 40
0.0
  0
LTYPE
  2
CONTINUOUS
 70
     0
  3
Solid line
 72
    65
 73
     0
 40
0.0
  0
LTYPE
  2
BORDER
 70
    64
  3
__ __ . __ __ . __ __ . __ __ . __ __ . __ __ .
 72
    65
 73
     6
 40
1.75
 49
0.5
 49
-0.25
 49
0.5
 49
-0.25
 49
0.0
 49
-0.25
  0
LTYPE
  2
BORDER2
 70
    64
  3
__.__.__.__.__.__.__.__.__.__.__.__.__.__.__.__
 72
    65
 73
     6
 40
0.875
 49
0.25
 49
-0.125
 49
0.25
 49
-0.125
 49
0.0
 49
-0.125
  0
LTYPE
  2
BORDERX2
 70
    64
  3
____  ____  .  ____  ____  .  ____  ____  .  __
 72
    65
 73
     6
 40
3.5
 49
1.0
 49
-0.5
 49
1.0
 49
-0.5
 49
0.0
 49
-0.5
  0
LTYPE
  2
CENTER
 70
    64
  3
____ _ ____ _ ____ _ ____ _ ____ _ ____ _ ____
 72
    65
 73
     4
 40
2.0
 49
1.25
 49
-0.25
 49
0.25
 49
-0.25
  0
LTYPE
  2
CENTER2
 70
    64
  3
___ _ ___ _ ___ _ ___ _ ___ _ ___ _ ___ _ ___ _
 72
    65
 73
     4
 40
1.125
 49
0.75
 49
-0.125
 49
0.125
 49
-0.125
  0
LTYPE
  2
CENTERX2
 70
    64
  3
________  __  ________  __  ________  __  _____
 72
    65
 73
     4
 40
4.0
 49
2.5
 49
-0.5
 49
0.5
 49
-0.5
  0
LTYPE
  2
DASHDOT
 70
    64
  3
__ . __ . __ . __ . __ . __ . __ . __ . __ . __
 72
    65
 73
     4
 40
1.0
 49
0.5
 49
-0.25
 49
0.0
 49
-0.25
  0
LTYPE
  2
DASHDOT2
 70
    64
  3
_._._._._._._._._._._._._._._._._._._._._._._._
 72
    65
 73
     4
 40
0.5
 49
0.25
 49
-0.125
 49
0.0
 49
-0.125
  0
LTYPE
  2
DASHDOTX2
 70
    64
  3
____  .  ____  .  ____  .  ____  .  ____  .  __
 72
    65
 73
     4
 40
2.0
 49
1.0
 49
-0.5
 49
0.0
 49
-0.5
  0
LTYPE
  2
DASHED
 70
    64
  3
__ __ __ __ __ __ __ __ __ __ __ __ __ __ __ __
 72
    65
 73
     2
 40
0.75
 49
0.5
 49
-0.25
  0
LTYPE
  2
DASHED2
 70
    64
  3
_ _ _ _ _ _ _ _ _ _ _ _ _ _ _ _ _ _ _ _ _ _ _ _
 72
    65
 73
     2
 40
0.375
 49
0.25
 49
-0.125
  0
LTYPE
  2
DASHEDX2
 70
    64
  3
____  ____  ____  ____  ____  ____  ____  ____
 72
    65
 73
     2
 40
1.5
 49
1.0
 49
-0.5
  0
LTYPE
  2
DIVIDE
 70
    64
  3
____ . . ____ . . ____ . . ____ . . ____ . . __
 72
    65
 73
     6
 40
1.25
 49
0.5
 49
-0.25
 49
0.0
 49
-0.25
 49
0.0
 49
-0.25
  0
LTYPE
  2
DIVIDE2
 70
    64
  3
__..__..__..__..__..__..__..__..__..__..__..__.
 72
    65
 73
     6
 40
0.625
 49
0.25
 49
-0.125
 49
0.0
 49
-0.125
 49
0.0
 49
-0.125
  0
LTYPE
  2
DIVIDEX2
 70
    64
  3
________  .  .  ________  .  .  ________  .  .
 72
    65
 73
     6
 40
2.5
 49
1.0
 49
-0.5
 49
0.0
 49
-0.5
 49
0.0
 49
-0.5
  0
LTYPE
  2
DOT
 70
    64
  3
. . . . . . . . . . . . . . . . . . . . . . . .
 72
    65
 73
     2
 40
0.25
 49
0.0
 49
-0.25
  0
LTYPE
  2
DOT2
 70
    64
  3
...............................................
 72
    65
 73
     2
 40
0.125
 49
0.0
 49
-0.125
  0
LTYPE
  2
DOTX2
 70
    64
  3
.  .  .  .  .  .  .  .  .  .  .  .  .  .  .  .
 72
    65
 73
     2
 40
0.5
 49
0.0
 49
-0.5
  0
LTYPE
  2
HIDDEN
 70
    64
  3
__ __ __ __ __ __ __ __ __ __ __ __ __ __ __ __
 72
    65
 73
     2
 40
0.375
 49
0.25
 49
-0.125
  0
LTYPE
  2
HIDDEN2
 70
    64
  3
_ _ _ _ _ _ _ _ _ _ _ _ _ _ _ _ _ _ _ _ _ _ _ _
 72
    65
 73
     2
 40
0.1875
 49
0.125
 49
-0.0625
  0
LTYPE
  2
HIDDENX2
 70
    64
  3
____ ____ ____ ____ ____ ____ ____ ____ ____ __
 72
    65
 73
     2
 40
0.75
 49
0.5
 49
-0.25
  0
LTYPE
  2
PHANTOM
 70
    64
  3
______  __  __  ______  __  __  ______  __  __
 72
    65
 73
     6
 40
2.5
 49
1.25
 49
-0.25
 49
0.25
 49
-0.25
 49
0.25
 49
-0.25
  0
LTYPE
  2
PHANTOM2
 70
    64
  3
___ _ _ ___ _ _ ___ _ _ ___ _ _ ___ _ _ ___ _ _
 72
    65
 73
     6
 40
1.25
 49
0.625
 49
-0.125
 49
0.125
 49
-0.125
 49
0.125
 49
-0.125
  0
LTYPE
  2
PHANTOMX2
 70
    64
  3
____________    ____    ____    ____________
 72
    65
 73
     6
 40
5.0
 49
2.5
 49
-0.5
 49
0.5
 49
-0.5
 49
0.5
 49
-0.5
  0
LTYPE
  2
ACAD_ISO02W100
 70
    64
  3
__ __ __ __ __ __ __ __ __ __ __ __ __ __ __ __
 72
    65
 73
     2
 40
15.0
 49
12.0
 49
-3.0
  0
LTYPE
  2
ACAD_ISO03W100
 70
    64
  3
__    __    __    __    __    __    __    __
 72
    65
 73
     2
 40
30.0
 49
12.0
 49
-18.0
  0
LTYPE
  2
ACAD_ISO04W100
 70
    64
  3
____ . ____ . ____ . ____ . ____ . ____ . ____
 72
    65
 73
     4
 40
30.5
 49
24.0
 49
-3.0
 49
0.5
 49
-3.0
  0
LTYPE
  2
ACAD_ISO05W100
 70
    64
  3
____ .. ____ .. ____ .. ____ .. ____ .. ____ ..
 72
    65
 73
     6
 40
34.0
 49
24.0
 49
-3.0
 49
0.5
 49
-3.0
 49
0.5
 49
-3.0
  0
LTYPE
  2
ACAD_ISO06W100
 70
    64
  3
____ ... ____ ... ____ ... ____ ... ____ ... __
 72
    65
 73
     8
 40
37.5
 49
24.0
 49
-3.0
 49
0.5
 49
-3.0
 49
0.5
 49
-3.0
 49
0.5
 49
-3.0
  0
LTYPE
  2
ACAD_ISO07W100
 70
    64
  3
. . . . . . . . . . . . . . . . . . . . . . . .
 72
    65
 73
     2
 40
3.5
 49
0.5
 49
-3.0
  0
LTYPE
  2
ACAD_ISO08W100
 70
    64
  3
____ __ ____ __ ____ __ ____ ____ __ __ ____ __
 72
    65
 73
     4
 40
36.0
 49
24.0
 49
-3.0
 49
6.0
 49
-3.0
  0
LTYPE
  2
ACAD_ISO09W100
 70
    64
  3
____ __ __ ____ __ __ ____ __ __ ____ __ __ ___
 72
    65
 73
     6
 40
45.0
 49
24.0
 49
-3.0
 49
6.0
 49
-3.0
 49
6.0
 49
-3.0
  0
LTYPE
  2
ACAD_ISO10W100
 70
    64
  3
__ . __ . __ . __ . __ . __ . __ . __ . __ . __
 72
    65
 73
     4
 40
18.5
 49
12.0
 49
-3.0
 49
0.5
 49
-3.0
  0
LTYPE
  2
ACAD_ISO11W100
 70
    64
  3
__ __ . __ __ . __ __ . __ __ . __ __ . __ __ .
 72
    65
 73
     6
 40
33.5
 49
12.0
 49
-3.0
 49
12.0
 49
-3.0
 49
0.5
 49
-3.0
  0
LTYPE
  2
ACAD_ISO12W100
 70
    64
  3
__ . . __ . . __ . . __ . . __ . . __ . . __ .
 72
    65
 73
     6
 40
22.0
 49
12.0
 49
-3.0
 49
0.5
 49
-3.0
 49
0.5
 49
-3.0
  0
LTYPE
  2
ACAD_ISO13W100
 70
    64
  3
__ __ . . __ __ . . __ __ . . __ __ . . __ __ .
 72
    65
 73
     8
 40
37.0
 49
12.0
 49
-3.0
 49
12.0
 49
-3.0
 49
0.5
 49
-3.0
 49
0.5
 49
-3.0
  0
LTYPE
  2
ACAD_ISO14W100
 70
    64
  3
__ . . . __ . . . __ . . . __ . . . __ . . . __
 72
    65
 73
     8
 40
25.5
 49
12.0
 49
-3.0
 49
0.5
 49
-3.0
 49
0.5
 49
-3.0
 49
0.5
 49
-3.0
  0
LTYPE
  2
ACAD_ISO15W100
 70
    64
  3
__ __ . . . __ __ . . . __ __ . . . __ __ . . .
 72
    65
 73
    10
 40
40.5
 49
12.0
 49
-3.0
 49
12.0
 49
-3.0
 49
0.5
 49
-3.0
 49
0.5
 49
-3.0
 49
0.5
 49
-3.0
  0
ENDTAB
  0
TABLE
  2
STYLE
 70
     4
  0
STYLE
  2
STANDARD
 70
    64
 40
0.0
 41
1.0
 50
0.0
 71
     0
 42
0.2
  3
txt
  4

  0
STYLE
  2
TOLERANCE
 70
    64
 40
0.0
 41
1.0
 50
0.0
 71
     0
 42
0.2
  3
../igesfont/iges1003.shx
  4

  0
STYLE
  2
ROMANS
 70
    64
 40
0.0
 41
1.0
 50
0.0
 71
     0
 42
0.2
  3
romans.shx
  4

  0
STYLE
  2
ROMANC
 70
    64
 40
0.0
 41
1.0
 50
0.0
 71
     0
 42
0.2
  3
romanc.shx
  4

  0
ENDTAB
  0
TABLE
  2
DIMSTYLE
 70
     2
  0
DIMSTYLE
  2
UNNAMED
 70
     0
  3

  4

  5

  6

  7

 40
1.0
 41
0.18
 42
0.0625
 43
0.38
 44
0.18
 45
0.0
 46
0.0
 47
0.0
 48
0.0
140
0.18
141
0.09
142
0.0
143
25.4
144
1.0
145
0.0
146
1.0
147
0.09
 71
     0
 72
     0
 73
     1
 74
     1
 75
     0
 76
     0
 77
     0
 78
     0
170
     0
171
     2
172
     0
173
     0
174
     0
175
     0
176
     0
177
     0
178
     0
  0
DIMSTYLE
  2
STANDARD
 70
     0
  3

  4

  5

  6

  7

 40
1.0
 41
0.18
 42
0.0625
 43
0.38
 44
0.18
 45
0.0
 46
0.0
 47
0.0
 48
0.0
140
0.18
141
0.09
142
0.0
143
25.4
144
1.0
145
0.0
146
1.0
147
0.09
 71
     0
 72
     0
 73
     1
 74
     1
 75
     0
 76
     0
 77
     0
 78
     0
170
     0
171
     2
172
     0
173
     0
174
     0
175
     0
176
     0
177
     0
178
     0
  0
ENDTAB
  0
TABLE
  2
LAYER
 70
     1
  0
LAYER
  2
0
 70
     0
 62
     7
  6
CONTINUOUS
  0
ENDTAB
  0
ENDSEC
  0
SECTION
  2
BLOCKS
  0
BLOCK
  5
     B
  8
0
  6
CONTINUOUS
 62
     7
  2
*UDIM568
 70
    65
 10
0.0
 20
0.0
 30
0.0
  3
*UDIM568
  0
TEXT
  5
     C
  8
0
  6
CONTINUOUS
 62
     7
 10
-79.9768218994092
 20
50.8169623881597
 30
0.0
 40
3.00000002980232
  1
161
 50
90.0
 41
0.933333333333333
 72
     1
 11
-81.4768219143152
 21
54.7169624269009
 31
0.0
 73
     2
  0
LINE
  5
     D
  8
0
  6
CONTINUOUS
 62
     7
 10
-68.4417249672852
 20
14.743537902832
 30
0.0
 11
-80.9768218994141
 21
14.743537902832
 31
0.0
  0
LINE
  5
     E
  8
0
  6
CONTINUOUS
 62
     7
 10
-64.5667249672852
 20
95.2403869628906
 30
0.0
 11
-80.9768218994141
 21
95.2403869628906
 31
0.0
  0
LINE
  5
     F
  8
0
  6
CONTINUOUS
 62
     7
 10
-78.9768218994141
 20
14.743537902832
 30
0.0
 11
-78.9768218994141
 21
95.2403869628906
 31
0.0
  0
LINE
  5
    10
  8
0
  6
CONTINUOUS
 62
     7
 10
-79.4977663293657
 20
17.697961180039
 30
0.0
 11
-78.9768218994141
 21
14.743537902832
 31
0.0
  0
LINE
  5
    11
  8
0
  6
CONTINUOUS
 62
     7
 10
-78.9768218994141
 20
14.743537902832
 30
0.0
 11
-78.4558774694624
 21
17.697961180039
 31
0.0
  0
LINE
  5
    12
  8
0
  6
CONTINUOUS
 62
     7
 10
-78.4558774694624
 20
92.2859636856837
 30
0.0
 11
-78.9768218994141
 21
95.2403869628906
 31
0.0
  0
LINE
  5
    13
  8
0
  6
CONTINUOUS
 62
     7
 10
-78.9768218994141
 20
95.2403869628906
 30
0.0
 11
-79.4977663293657
 21
92.2859636856837
 31
0.0
  0
ENDBLK
  5
    14
  8
0
  6
CONTINUOUS
 62
     7
  0
BLOCK
  5
    15
  8
0
  6
CONTINUOUS
 62
     7
  2
*UDIM569
 70
    65
 10
0.0
 20
0.0
 30
0.0
  3
*UDIM569
  0
TEXT
  5
    16
  8
0
  6
CONTINUOUS
 62
     7
 10
-54.0167267246288
 20
149.520629882813
 30
0.0
 40
3.00000002980232
  1
78,5
 41
0.933333333333333
 72
     1
 11
-48.716726671978
 21
151.020629897714
 31
0.0
 73
     2
  0
LINE
  5
    17
  8
0
  6
CONTINUOUS
 62
     7
 10
-68.0667249672852
 20
95.6153869628906
 30
0.0
 11
-68.0667249672852
 21
150.520629882813
 31
0.0
  0
LINE
  5
    18
  8
0
  6
CONTINUOUS
 62
     7
 10
-28.8167240136108
 20
134.20867360168
 30
0.0
 11
-28.8167240136108
 21
150.520629882813
 31
0.0
  0
LINE
  5
    19
  8
0
  6
CONTINUOUS
 62
     7
 10
-68.0667249672852
 20
148.520629882813
 30
0.0
 11
-28.8167240136108
 21
148.520629882813
 31
0.0
  0
LINE
  5
    1A
  8
0
  6
CONTINUOUS
 62
     7
 10
-65.1123016900782
 20
149.041574312764
 30
0.0
 11
-68.0667249672852
 21
148.520629882813
 31
0.0
  0
LINE
  5
    1B
  8
0
  6
CONTINUOUS
 62
     7
 10
-68.0667249672852
 20
148.520629882813
 30
0.0
 11
-65.1123016900782
 21
147.999685452861
 31
0.0
  0
LINE
  5
    1C
  8
0
  6
CONTINUOUS
 62
     7
 10
-31.7711472908178
 20
147.999685452861
 30
0.0
 11
-28.8167240136108
 21
148.520629882813
 31
0.0
  0
LINE
  5
    1D
  8
0
  6
CONTINUOUS
 62
     7
 10
-28.8167240136108
 20
148.520629882813
 30
0.0
 11
-31.7711472908178
 21
149.041574312764
 31
0.0
  0
ENDBLK
  5
    1E
  8
0
  6
CONTINUOUS
 62
     7
  0
BLOCK
  5
    1F
  8
0
  6
CONTINUOUS
 62
     7
  2
*UDIM570
 70
    65
 10
0.0
 20
0.0
 30
0.0
  3
*UDIM570
  0
TEXT
  5
    20
  8
0
  6
CONTINUOUS
 62
     7
 10
-7.59172669681326
 20
149.520629882813
 30
0.0
 40
3.00000002980232
  1
96
 41
0.933333333333333
 72
     1
 11
-5.09172667197799
 21
151.020629897714
 31
0.0
 73
     2
  0
LINE
  5
    21
  8
0
  6
CONTINUOUS
 62
     7
 10
19.1832769400635
 20
95.6153869628906
 30
0.0
 11
19.1832769400635
 21
150.520629882813
 31
0.0
  0
LINE
  5
    22
  8
0
  6
CONTINUOUS
 62
     7
 10
-28.8167240136108
 20
148.520629882813
 30
0.0
 11
19.1832769400635
 21
148.520629882813
 31
0.0
  0
LINE
  5
    23
  8
0
  6
CONTINUOUS
 62
     7
 10
-25.8623007364039
 20
149.041574312764
 30
0.0
 11
-28.8167240136108
 21
148.520629882813
 31
0.0
  0
LINE
  5
    24
  8
0
  6
CONTINUOUS
 62
     7
 10
-28.8167240136108
 20
148.520629882813
 30
0.0
 11
-25.8623007364039
 21
147.999685452861
 31
0.0
  0
LINE
  5
    25
  8
0
  6
CONTINUOUS
 62
     7
 10
16.2288536628565
 20
147.999685452861
 30
0.0
 11
19.1832769400635
 21
148.520629882813
 31
0.0
  0
LINE
  5
    26
  8
0
  6
CONTINUOUS
 62
     7
 10
19.1832769400635
 20
148.520629882813
 30
0.0
 11
16.2288536628565
 21
149.041574312764
 31
0.0
  0
ENDBLK
  5
    27
  8
0
  6
CONTINUOUS
 62
     7
  0
BLOCK
  5
    28
  8
0
  6
CONTINUOUS
 62
     7
  2
*UDIM571
 70
    65
 10
0.0
 20
0.0
 30
0.0
  3
*UDIM571
  0
TEXT
  5
    29
  8
0
  6
CONTINUOUS
 62
     7
 10
-32.9418106225525
 20
132.895919799805
 30
0.0
 40
3.00000002980232
  1
B
 41
0.933333333333334
 72
     1
 11
-31.841810611625
 21
134.395919814706
 31
0.0
 73
     2
  0
LINE
  5
    2A
  8
0
  6
CONTINUOUS
 62
     7
 10
-55.0667363894543
 20
117.215223548362
 30
0.0
 11
-55.0667363894543
 21
133.895919799805
 31
0.0
  0
LINE
  5
    2B
  8
0
  6
CONTINUOUS
 62
     7
 10
-2.56687939785206
 20
117.215223548385
 30
0.0
 11
-2.56687939785206
 21
133.895919799805
 31
0.0
  0
LINE
  5
    2C
  8
0
  6
CONTINUOUS
 62
     7
 10
-55.0667363894543
 20
131.895919799805
 30
0.0
 11
-2.56687939785206
 21
131.895919799805
 31
0.0
  0
LINE
  5
    2D
  8
0
  6
CONTINUOUS
 62
     7
 10
-52.1123131122473
 20
132.416864229756
 30
0.0
 11
-55.0667363894543
 21
131.895919799805
 31
0.0
  0
LINE
  5
    2E
  8
0
  6
CONTINUOUS
 62
     7
 10
-55.0667363894543
 20
131.895919799805
 30
0.0
 11
-52.1123131122473
 21
131.374975369853
 31
0.0
  0
LINE
  5
    2F
  8
0
  6
CONTINUOUS
 62
     7
 10
-5.52130267505903
 20
131.374975369853
 30
0.0
 11
-2.56687939785206
 21
131.895919799805
 31
0.0
  0
LINE
  5
    30
  8
0
  6
CONTINUOUS
 62
     7
 10
-2.56687939785206
 20
131.895919799805
 30
0.0
 11
-5.52130267505903
 21
132.416864229756
 31
0.0
  0
ENDBLK
  5
    31
  8
0
  6
CONTINUOUS
 62
     7
  0
BLOCK
  5
    32
  8
0
  6
CONTINUOUS
 62
     7
  2
*UDIM572
 70
    65
 10
0.0
 20
0.0
 30
0.0
  3
*UDIM572
  0
TEXT
  5
    33
  8
0
  6
CONTINUOUS
 62
     7
 10
-41.6918068078552
 20
141.380493164063
 30
0.0
 40
3.00000002980232
  1
A
 41
0.933333333333334
 72
     1
 11
-40.5918067969277
 21
142.880493178964
 31
0.0
 73
     2
  0
LINE
  5
    34
  8
0
  6
CONTINUOUS
 62
     7
 10
-72.5667363894543
 20
117.215223548362
 30
0.0
 11
-72.5667363894543
 21
142.380493164063
 31
0.0
  0
LINE
  5
    35
  8
0
  6
CONTINUOUS
 62
     7
 10
-2.56687939785206
 20
117.215223548385
 30
0.0
 11
-2.56687939785206
 21
142.380493164063
 31
0.0
  0
LINE
  5
    36
  8
0
  6
CONTINUOUS
 62
     7
 10
-72.5667363894543
 20
140.380493164063
 30
0.0
 11
-2.56687939785206
 21
140.380493164063
 31
0.0
  0
LINE
  5
    37
  8
0
  6
CONTINUOUS
 62
     7
 10
-69.6123131122473
 20
140.901437594014
 30
0.0
 11
-72.5667363894543
 21
140.380493164063
 31
0.0
  0
LINE
  5
    38
  8
0
  6
CONTINUOUS
 62
     7
 10
-72.5667363894543
 20
140.380493164063
 30
0.0
 11
-69.6123131122473
 21
139.859548734111
 31
0.0
  0
LINE
  5
    39
  8
0
  6
CONTINUOUS
 62
     7
 10
-5.52130267505903
 20
139.859548734111
 30
0.0
 11
-2.56687939785206
 21
140.380493164063
 31
0.0
  0
LINE
  5
    3A
  8
0
  6
CONTINUOUS
 62
     7
 10
-2.56687939785206
 20
140.380493164063
 30
0.0
 11
-5.52130267505903
 21
140.901437594014
 31
0.0
  0
ENDBLK
  5
    3B
  8
0
  6
CONTINUOUS
 62
     7
  0
BLOCK
  5
    3C
  8
0
  6
CONTINUOUS
 62
     7
  2
*UDIM573
 70
    65
 10
0.0
 20
0.0
 30
0.0
  3
*UDIM573
  0
TEXT
  5
    3D
  8
0
  6
CONTINUOUS
 62
     7
 10
-10.5667572569901
 20
124.474868774414
 30
0.0
 40
3.00000002980232
  1
C
 41
0.933333333333334
 72
     1
 11
-9.46675724606257
 21
125.974868789315
 31
0.0
 73
     2
  0
LINE
  5
    3E
  8
0
  6
CONTINUOUS
 62
     7
 10
13.1832099506391
 20
60.1184141611261
 30
0.0
 11
13.1832099506391
 21
125.474868774414
 31
0.0
  0
LINE
  5
    3F
  8
0
  6
CONTINUOUS
 62
     7
 10
-28.8167240136108
 20
123.474868774414
 30
0.0
 11
13.1832099506391
 21
123.474868774414
 31
0.0
  0
LINE
  5
    40
  8
0
  6
CONTINUOUS
 62
     7
 10
-25.8623007364039
 20
123.995813204366
 30
0.0
 11
-28.8167240136108
 21
123.474868774414
 31
0.0
  0
LINE
  5
    41
  8
0
  6
CONTINUOUS
 62
     7
 10
-28.8167240136108
 20
123.474868774414
 30
0.0
 11
-25.8623007364039
 21
122.953924344462
 31
0.0
  0
LINE
  5
    42
  8
0
  6
CONTINUOUS
 62
     7
 10
10.2287866734322
 20
122.953924344462
 30
0.0
 11
13.1832099506391
 21
123.474868774414
 31
0.0
  0
LINE
  5
    43
  8
0
  6
CONTINUOUS
 62
     7
 10
13.1832099506391
 20
123.474868774414
 30
0.0
 11
10.2287866734322
 21
123.995813204366
 31
0.0
  0
ENDBLK
  5
    44
  8
0
  6
CONTINUOUS
 62
     7
  0
BLOCK
  5
    45
  8
0
  6
CONTINUOUS
 62
     7
  2
*HATCH157
 70
    65
 10
0.0
 20
0.0
 30
0.0
  3
*HATCH157
  0
LINE
  5
    46
  8
0
  6
CONTINUOUS
 62
    52
 10
187.592071533203
 20
168.50016784668
 30
0.0
 11
185.592071533203
 21
166.50016784668
 31
0.0
  0
LINE
  5
    47
  8
0
  6
CONTINUOUS
 62
    52
 10
191.834716796875
 20
168.50016784668
 30
0.0
 11
189.834716796875
 21
166.50016784668
 31
0.0
  0
LINE
  5
    48
  8
0
  6
CONTINUOUS
 62
    52
 10
196.077362060547
 20
168.50016784668
 30
0.0
 11
194.077362060547
 21
166.50016784668
 31
0.0
  0
LINE
  5
    49
  8
0
  6
CONTINUOUS
 62
    52
 10
200.320007324219
 20
168.50016784668
 30
0.0
 11
198.320007324219
 21
166.50016784668
 31
0.0
  0
LINE
  5
    4A
  8
0
  6
CONTINUOUS
 62
    52
 10
204.562652587891
 20
168.50016784668
 30
0.0
 11
202.562652587891
 21
166.50016784668
 31
0.0
  0
LINE
  5
    4B
  8
0
  6
CONTINUOUS
 62
    52
 10
208.805297851563
 20
168.50016784668
 30
0.0
 11
206.805297851563
 21
166.50016784668
 31
0.0
  0
LINE
  5
    4C
  8
0
  6
CONTINUOUS
 62
    52
 10
213.047943115234
 20
168.50016784668
 30
0.0
 11
211.047943115234
 21
166.50016784668
 31
0.0
  0
LINE
  5
    4D
  8
0
  6
CONTINUOUS
 62
    52
 10
217.290588378906
 20
168.50016784668
 30
0.0
 11
215.290588378906
 21
166.50016784668
 31
0.0
  0
LINE
  5
    4E
  8
0
  6
CONTINUOUS
 62
    52
 10
221.533233642578
 20
168.50016784668
 30
0.0
 11
219.533233642578
 21
166.50016784668
 31
0.0
  0
LINE
  5
    4F
  8
0
  6
CONTINUOUS
 62
    52
 10
225.77587890625
 20
168.50016784668
 30
0.0
 11
223.77587890625
 21
166.50016784668
 31
0.0
  0
LINE
  5
    50
  8
0
  6
CONTINUOUS
 62
    52
 10
230.018524169922
 20
168.50016784668
 30
0.0
 11
228.018524169922
 21
166.50016784668
 31
0.0
  0
LINE
  5
    51
  8
0
  6
CONTINUOUS
 62
    52
 10
234.261169433594
 20
168.50016784668
 30
0.0
 11
232.261169433594
 21
166.50016784668
 31
0.0
  0
LINE
  5
    52
  8
0
  6
CONTINUOUS
 62
    52
 10
238.503814697266
 20
168.50016784668
 30
0.0
 11
236.503814697266
 21
166.50016784668
 31
0.0
  0
LINE
  5
    53
  8
0
  6
CONTINUOUS
 62
    52
 10
242.746459960938
 20
168.50016784668
 30
0.0
 11
240.746459960938
 21
166.50016784668
 31
0.0
  0
LINE
  5
    54
  8
0
  6
CONTINUOUS
 62
    52
 10
246.989105224609
 20
168.50016784668
 30
0.0
 11
244.989105224609
 21
166.50016784668
 31
0.0
  0
LINE
  5
    55
  8
0
  6
CONTINUOUS
 62
    52
 10
251.231750488281
 20
168.50016784668
 30
0.0
 11
249.231750488281
 21
166.50016784668
 31
0.0
  0
LINE
  5
    56
  8
0
  6
CONTINUOUS
 62
    52
 10
255.474395751953
 20
168.50016784668
 30
0.0
 11
253.474395751953
 21
166.50016784668
 31
0.0
  0
ENDBLK
  5
    57
  8
0
  6
CONTINUOUS
 62
     7
  0
BLOCK
  5
    58
  8
0
  6
CONTINUOUS
 62
     7
  2
*HATCH158
 70
    65
 10
0.0
 20
0.0
 30
0.0
  3
*HATCH158
  0
LINE
  5
    59
  8
0
  6
CONTINUOUS
 62
    52
 10
176.985458374023
 20
168.50016784668
 30
0.0
 11
174.985458374023
 21
166.50016784668
 31
0.0
  0
ENDBLK
  5
    5A
  8
0
  6
CONTINUOUS
 62
     7
  0
BLOCK
  5
    5B
  8
0
  6
CONTINUOUS
 62
     7
  2
*HATCH159
 70
    65
 10
0.0
 20
0.0
 30
0.0
  3
*HATCH159
  0
LINE
  5
    5C
  8
0
  6
CONTINUOUS
 62
    52
 10
45.4635963439941
 20
168.50016784668
 30
0.0
 11
43.4635963439941
 21
166.50016784668
 31
0.0
  0
ENDBLK
  5
    5D
  8
0
  6
CONTINUOUS
 62
     7
  0
BLOCK
  5
    5E
  8
0
  6
CONTINUOUS
 62
     7
  2
*HATCH160
 70
    65
 10
0.0
 20
0.0
 30
0.0
  3
*HATCH160
  0
LINE
  5
    5F
  8
0
  6
CONTINUOUS
 62
    52
 10
-9.69073486328125
 20
168.50016784668
 30
0.0
 11
-11.6907348632813
 21
166.50016784668
 31
0.0
  0
LINE
  5
    60
  8
0
  6
CONTINUOUS
 62
    52
 10
-5.44809436798096
 20
168.50016784668
 30
0.0
 11
-7.44809341430664
 21
166.50016784668
 31
0.0
  0
LINE
  5
    61
  8
0
  6
CONTINUOUS
 62
    52
 10
-1.20545387268066
 20
168.50016784668
 30
0.0
 11
-3.20545220375061
 21
166.50016784668
 31
0.0
  0
LINE
  5
    62
  8
0
  6
CONTINUOUS
 62
    52
 10
3.03718662261963
 20
168.50016784668
 30
0.0
 11
1.03718876838684
 21
166.50016784668
 31
0.0
  0
LINE
  5
    63
  8
0
  6
CONTINUOUS
 62
    52
 10
7.27982711791992
 20
168.50016784668
 30
0.0
 11
5.27982997894287
 21
166.50016784668
 31
0.0
  0
LINE
  5
    64
  8
0
  6
CONTINUOUS
 62
    52
 10
11.5224685668945
 20
168.50016784668
 30
0.0
 11
9.52247142791748
 21
166.50016784668
 31
0.0
  0
LINE
  5
    65
  8
0
  6
CONTINUOUS
 62
    52
 10
15.7651100158691
 20
168.50016784668
 30
0.0
 11
13.7651128768921
 21
166.50016784668
 31
0.0
  0
LINE
  5
    66
  8
0
  6
CONTINUOUS
 62
    52
 10
20.0077514648438
 20
168.50016784668
 30
0.0
 11
18.0077533721924
 21
166.50016784668
 31
0.0
  0
LINE
  5
    67
  8
0
  6
CONTINUOUS
 62
    52
 10
24.2503929138184
 20
168.50016784668
 30
0.0
 11
22.250394821167
 21
166.50016784668
 31
0.0
  0
LINE
  5
    68
  8
0
  6
CONTINUOUS
 62
    52
 10
28.493034362793
 20
168.50016784668
 30
0.0
 11
26.4930362701416
 21
166.50016784668
 31
0.0
  0
LINE
  5
    69
  8
0
  6
CONTINUOUS
 62
    52
 10
32.7356758117676
 20
168.50016784668
 30
0.0
 11
30.7356777191162
 21
166.50016784668
 31
0.0
  0
LINE
  5
    6A
  8
0
  6
CONTINUOUS
 62
    52
 10
35.4804344177246
 20
167.002288818359
 30
0.0
 11
34.9783134460449
 21
166.50016784668
 31
0.0
  0
ENDBLK
  5
    6B
  8
0
  6
CONTINUOUS
 62
     7
  0
BLOCK
  5
    6C
  8
0
  6
CONTINUOUS
 62
     7
  2
*UDIM574
 70
    65
 10
0.0
 20
0.0
 30
0.0
  3
*UDIM574
  0
TEXT
  5
    6D
  8
0
  6
CONTINUOUS
 62
     7
 10
-192.68738829583
 20
41.2291526784118
 30
0.0
 40
3.00000002980232
  1
5,5
 50
403.961953213421
 41
0.933333333333333
 72
     1
 11
-190.921435493948
 21
45.0161582300878
 31
0.0
 73
     2
  0
TEXT
  5
    6E
  8
0
  6
CONTINUOUS
 62
     7
 10
-194.95476120931
 20
39.0424839486307
 30
0.0
 40
3.00000002980232
  1
Ø
 50
403.961953213421
 41
0.933333333333334
 72
     1
 11
-195.204251014163
 21
40.8857839529758
 31
0.0
 73
     2
  0
LINE
  5
    6F
  8
0
  6
CONTINUOUS
 62
     7
 10
-194.260580661277
 20
38.3226830256552
 30
0.0
 11
-176.897238768052
 21
55.0679993676692
 31
0.0
  0
LINE
  5
    70
  8
0
  6
CONTINUOUS
 62
     7
 10
-180.64165775492
 20
50.7331240604463
 30
0.0
 11
-178.876690641475
 21
53.1590035068441
 31
0.0
  0
LINE
  5
    71
  8
0
  6
CONTINUOUS
 62
     7
 10
-178.876690641475
 20
53.1590035068441
 30
0.0
 11
-181.364916732946
 21
51.4830766236769
 31
0.0
  0
LINE
  5
    72
  8
0
  6
CONTINUOUS
 62
     7
 10
-175.132271654606
 20
57.493878814067
 30
0.0
 11
-176.897238768052
 21
55.0679993676692
 31
0.0
  0
LINE
  5
    73
  8
0
  6
CONTINUOUS
 62
     7
 10
-176.897238768052
 20
55.0679993676692
 30
0.0
 11
-174.409012676581
 21
56.7439262508364
 31
0.0
  0
ENDBLK
  5
    74
  8
0
  6
CONTINUOUS
 62
     7
  0
BLOCK
  5
    75
  8
0
  6
CONTINUOUS
 62
     7
  2
*UDIM575
 70
    65
 10
0.0
 20
0.0
 30
0.0
  3
*UDIM575
  0
TEXT
  5
    76
  8
0
  6
CONTINUOUS
 62
     7
 10
-168.736970593894
 20
137.113204962098
 30
0.0
 40
3.00000002980232
  1
269,5
 50
359.999999948034
 41
0.933333333333333
 72
     1
 11
-162.036970525983
 21
138.613204970956
 31
0.0
 73
     2
  0
LINE
  5
    77
  8
0
  6
CONTINUOUS
 62
     7
 10
-94.3869323730469
 20
120.976647146578
 30
0.0
 11
-94.3869323730469
 21
138.113204956055
 31
0.0
  0
LINE
  5
    78
  8
0
  6
CONTINUOUS
 62
     7
 10
-229.137001037603
 20
129.561364128124
 30
0.0
 11
-229.137001037603
 21
138.113204956055
 31
0.0
  0
LINE
  5
    79
  8
0
  6
CONTINUOUS
 62
     7
 10
-94.3869323730469
 20
136.113204956055
 30
0.0
 11
-229.137001037603
 21
136.113204956055
 31
0.0
  0
LINE
  5
    7A
  8
0
  6
CONTINUOUS
 62
     7
 10
-97.3413556502538
 20
135.592260526103
 30
0.0
 11
-94.3869323730469
 21
136.113204956055
 31
0.0
  0
LINE
  5
    7B
  8
0
  6
CONTINUOUS
 62
     7
 10
-94.3869323730469
 20
136.113204956055
 30
0.0
 11
-97.3413556502538
 21
136.634149386006
 31
0.0
  0
LINE
  5
    7C
  8
0
  6
CONTINUOUS
 62
     7
 10
-226.182577760396
 20
136.634149386006
 30
0.0
 11
-229.137001037603
 21
136.113204956055
 31
0.0
  0
LINE
  5
    7D
  8
0
  6
CONTINUOUS
 62
     7
 10
-229.137001037603
 20
136.113204956055
 30
0.0
 11
-226.182577760396
 21
135.592260526103
 31
0.0
  0
ENDBLK
  5
    7E
  8
0
  6
CONTINUOUS
 62
     7
  0
BLOCK
  5
    7F
  8
0
  6
CONTINUOUS
 62
     7
  2
*UDIM576
 70
    65
 10
0.0
 20
0.0
 30
0.0
  3
*UDIM576
  0
TEXT
  5
    80
  8
0
  6
CONTINUOUS
 62
     7
 10
-235.887008774646
 20
137.113204957047
 30
0.0
 40
3.00000002980232
  1
2
 50
359.999999948034
 41
0.933333333333334
 72
     1
 11
-234.787008762365
 21
138.613204970956
 31
0.0
 73
     2
  0
LINE
  5
    81
  8
0
  6
CONTINUOUS
 62
     7
 10
-230.137001037603
 20
129.985606552366
 30
0.0
 11
-230.137001037603
 21
138.113204956055
 31
0.0
  0
LINE
  5
    82
  8
0
  6
CONTINUOUS
 62
     7
 10
-229.137001037603
 20
136.113204956055
 30
0.0
 11
-235.887008773293
 21
136.113204956055
 31
0.0
  0
LINE
  5
    83
  8
0
  6
CONTINUOUS
 62
     7
 10
-226.182577760396
 20
136.634149386006
 30
0.0
 11
-229.137001037603
 21
136.113204956055
 31
0.0
  0
LINE
  5
    84
  8
0
  6
CONTINUOUS
 62
     7
 10
-229.137001037603
 20
136.113204956055
 30
0.0
 11
-226.182577760396
 21
135.592260526103
 31
0.0
  0
LINE
  5
    85
  8
0
  6
CONTINUOUS
 62
     7
 10
-233.09142431481
 20
135.592260526103
 30
0.0
 11
-230.137001037603
 21
136.113204956055
 31
0.0
  0
LINE
  5
    86
  8
0
  6
CONTINUOUS
 62
     7
 10
-230.137001037603
 20
136.113204956055
 30
0.0
 11
-233.09142431481
 21
136.634149386006
 31
0.0
  0
ENDBLK
  5
    87
  8
0
  6
CONTINUOUS
 62
     7
  0
BLOCK
  5
    88
  8
0
  6
CONTINUOUS
 62
     7
  2
*UDIM577
 70
    65
 10
0.0
 20
0.0
 30
0.0
  3
*UDIM577
  0
TEXT
  5
    89
  8
0
  6
CONTINUOUS
 62
     7
 10
-258.951235634454
 20
147.825958256733
 30
0.0
 40
3.00000002980232
  1
27,5
 50
359.999999948034
 41
0.933333333333333
 72
     1
 11
-253.65123558045
 21
149.325958266854
 31
0.0
 73
     2
  0
TEXT
  5
    8A
  8
0
  6
CONTINUOUS
 62
     7
 10
-247.801235517231
 20
147.825958287039
 30
0.0
 40
3.00000002980232
  1
       CORSA DI SEZIONAMENTO
 50
359.999999948034
 41
0.933333333333333
 72
     1
 11
-208.901235129442
 21
149.325958266854
 31
0.0
 73
     2
  0
LINE
  5
    8B
  8
0
  6
CONTINUOUS
 62
     7
 10
-231.887001037603
 20
96.2402191162191
 30
0.0
 11
-231.887001037603
 21
148.825958251953
 31
0.0
  0
LINE
  5
    8C
  8
0
  6
CONTINUOUS
 62
     7
 10
-245.637001037603
 20
82.2403106689535
 30
0.0
 11
-245.637001037603
 21
148.825958251953
 31
0.0
  0
LINE
  5
    8D
  8
0
  6
CONTINUOUS
 62
     7
 10
-170.001234743005
 20
146.825958251953
 30
0.0
 11
-258.951235633101
 21
146.825958251953
 31
0.0
  0
LINE
  5
    8E
  8
0
  6
CONTINUOUS
 62
     7
 10
-228.932577760396
 20
147.346902681905
 30
0.0
 11
-231.887001037603
 21
146.825958251953
 31
0.0
  0
LINE
  5
    8F
  8
0
  6
CONTINUOUS
 62
     7
 10
-231.887001037603
 20
146.825958251953
 30
0.0
 11
-228.932577760396
 21
146.305013822001
 31
0.0
  0
LINE
  5
    90
  8
0
  6
CONTINUOUS
 62
     7
 10
-248.59142431481
 20
146.305013822001
 30
0.0
 11
-245.637001037603
 21
146.825958251953
 31
0.0
  0
LINE
  5
    91
  8
0
  6
CONTINUOUS
 62
     7
 10
-245.637001037603
 20
146.825958251953
 30
0.0
 11
-248.59142431481
 21
147.346902681905
 31
0.0
  0
ENDBLK
  5
    92
  8
0
  6
CONTINUOUS
 62
     7
  0
BLOCK
  5
    93
  8
0
  6
CONTINUOUS
 62
     7
  2
*UDIM578
 70
    65
 10
0.0
 20
0.0
 30
0.0
  3
*UDIM578
  0
TEXT
  5
    94
  8
0
  6
CONTINUOUS
 62
     7
 10
-255.640220645622
 20
50.8153106228914
 30
0.0
 40
3.00000002980232
  1
105
 50
89.9999999480344
 41
0.933333333333333
 72
     1
 11
-257.140220656991
 21
54.715310662993
 31
0.0
 73
     2
  0
LINE
  5
    95
  8
0
  6
CONTINUOUS
 62
     7
 10
-230.137001037603
 20
28.7403106689535
 30
0.0
 11
-256.64022064209
 21
28.7403106689535
 31
0.0
  0
LINE
  5
    96
  8
0
  6
CONTINUOUS
 62
     7
 10
-230.137001037603
 20
81.2403106689535
 30
0.0
 11
-256.64022064209
 21
81.2403106689535
 31
0.0
  0
LINE
  5
    97
  8
0
  6
CONTINUOUS
 62
     7
 10
-254.64022064209
 20
28.7403106689535
 30
0.0
 11
-254.64022064209
 21
81.2403106689535
 31
0.0
  0
LINE
  5
    98
  8
0
  6
CONTINUOUS
 62
     7
 10
-255.161165072042
 20
31.6947339461605
 30
0.0
 11
-254.64022064209
 21
28.7403106689535
 31
0.0
  0
LINE
  5
    99
  8
0
  6
CONTINUOUS
 62
     7
 10
-254.64022064209
 20
28.7403106689535
 30
0.0
 11
-254.119276212138
 21
31.6947339461605
 31
0.0
  0
LINE
  5
    9A
  8
0
  6
CONTINUOUS
 62
     7
 10
-254.119276212138
 20
78.2858873917465
 30
0.0
 11
-254.64022064209
 21
81.2403106689535
 31
0.0
  0
LINE
  5
    9B
  8
0
  6
CONTINUOUS
 62
     7
 10
-254.64022064209
 20
81.2403106689535
 30
0.0
 11
-255.161165072042
 21
78.2858873917465
 31
0.0
  0
ENDBLK
  5
    9C
  8
0
  6
CONTINUOUS
 62
     7
  0
BLOCK
  5
    9D
  8
0
  6
CONTINUOUS
 62
     7
  2
*UDIM579
 70
    65
 10
0.0
 20
0.0
 30
0.0
  3
*UDIM579
  0
TEXT
  5
    9E
  8
0
  6
CONTINUOUS
 62
     7
 10
-140.311947661089
 20
-26.4694862330547
 30
0.0
 40
3.00000002980232
  1
167
 50
359.999999948034
 41
0.933333333333333
 72
     1
 11
-136.411947620994
 21
-24.9694862216711
 31
0.0
 73
     2
  0
LINE
  5
    9F
  8
0
  6
CONTINUOUS
 62
     7
 10
-94.3869323730469
 20
-12.3043752364126
 30
0.0
 11
-94.3869323730469
 21
-29.4694862365723
 31
0.0
  0
LINE
  5
    A0
  8
0
  6
CONTINUOUS
 62
     7
 10
-177.886964704763
 20
46.4975813474563
 30
0.0
 11
-177.886964704763
 21
-29.4694862365723
 31
0.0
  0
LINE
  5
    A1
  8
0
  6
CONTINUOUS
 62
     7
 10
-94.3869323730469
 20
-27.4694862365723
 30
0.0
 11
-177.886964704763
 21
-27.4694862365723
 31
0.0
  0
LINE
  5
    A2
  8
0
  6
CONTINUOUS
 62
     7
 10
-97.3413556502538
 20
-27.9904306665239
 30
0.0
 11
-94.3869323730469
 21
-27.4694862365723
 31
0.0
  0
LINE
  5
    A3
  8
0
  6
CONTINUOUS
 62
     7
 10
-94.3869323730469
 20
-27.4694862365723
 30
0.0
 11
-97.3413556502538
 21
-26.9485418066206
 31
0.0
  0
LINE
  5
    A4
  8
0
  6
CONTINUOUS
 62
     7
 10
-174.932541427556
 20
-26.9485418066206
 30
0.0
 11
-177.886964704763
 21
-27.4694862365723
 31
0.0
  0
LINE
  5
    A5
  8
0
  6
CONTINUOUS
 62
     7
 10
-177.886964704763
 20
-27.4694862365723
 30
0.0
 11
-174.932541427556
 21
-27.9904306665239
 31
0.0
  0
ENDBLK
  5
    A6
  8
0
  6
CONTINUOUS
 62
     7
  0
BLOCK
  5
    A7
  8
0
  6
CONTINUOUS
 62
     7
  2
*UDIM580
 70
    65
 10
0.0
 20
0.0
 30
0.0
  3
*UDIM580
  0
TEXT
  5
    A8
  8
0
  6
CONTINUOUS
 62
     7
 10
-203.795944218668
 20
40.0385022973135
 30
0.0
 40
3.00000002980232
  1
1,75
 50
89.9999999480344
 41
0.933333333333333
 72
     1
 11
-205.295944228768
 21
45.3385023513228
 31
0.0
 73
     2
  0
LINE
  5
    A9
  8
0
  6
CONTINUOUS
 62
     7
 10
-185.985031767131
 20
54.1135014372566
 30
0.0
 11
-204.795944213867
 21
54.1135014372566
 31
0.0
  0
LINE
  5
    AA
  8
0
  6
CONTINUOUS
 62
     7
 10
-202.795944213867
 20
40.0385022986721
 30
0.0
 11
-202.795944213867
 21
54.9903106689535
 31
0.0
  0
LINE
  5
    AB
  8
0
  6
CONTINUOUS
 62
     7
 10
-202.274999783916
 20
51.1590781600497
 30
0.0
 11
-202.795944213867
 21
54.1135014372566
 31
0.0
  0
LINE
  5
    AC
  8
0
  6
CONTINUOUS
 62
     7
 10
-202.795944213867
 20
54.1135014372566
 30
0.0
 11
-203.316888643819
 21
51.1590781600497
 31
0.0
  0
LINE
  5
    AD
  8
0
  6
CONTINUOUS
 62
     7
 10
-203.316888643819
 20
57.9447339461605
 30
0.0
 11
-202.795944213867
 21
54.9903106689535
 31
0.0
  0
LINE
  5
    AE
  8
0
  6
CONTINUOUS
 62
     7
 10
-202.795944213867
 20
54.9903106689535
 30
0.0
 11
-202.274999783916
 21
57.9447339461605
 31
0.0
  0
ENDBLK
  5
    AF
  8
0
  6
CONTINUOUS
 62
     7
  0
BLOCK
  5
    B0
  8
0
  6
CONTINUOUS
 62
     7
  2
*UDIM581
 70
    65
 10
0.0
 20
0.0
 30
0.0
  3
*UDIM581
  0
TEXT
  5
    B1
  8
0
  6
CONTINUOUS
 62
     7
 10
44.752306799431
 20
99.0459123163988
 30
0.0
 40
3.00000002980232
  1
7
 50
325.851936141259
 41
0.933333333333334
 72
     1
 11
46.5046556808384
 21
99.6698301527956
 31
0.0
 73
     2
  0
TEXT
  5
    B2
  8
0
  6
CONTINUOUS
 62
     7
 10
41.4419478147141
 20
101.291246062353
 30
0.0
 40
3.00000002980232
  1
Ø
 50
325.851936141259
 41
1.2
 72
     1
 11
43.5253325948664
 21
101.690630522788
 31
0.0
 73
     2
  0
LINE
  5
    B3
  8
0
  6
CONTINUOUS
 62
     7
 10
40.8806143837173
 20
100.463656316529
 30
0.0
 11
62.9567323626336
 21
85.4899773658175
 31
0.0
  0
LINE
  5
    B4
  8
0
  6
CONTINUOUS
 62
     7
 10
54.5364793499261
 20
90.2630094304841
 30
0.0
 11
57.3705016165151
 21
89.2789780323683
 31
0.0
  0
LINE
  5
    B5
  8
0
  6
CONTINUOUS
 62
     7
 10
57.3705016165151
 20
89.2789780323683
 30
0.0
 11
55.4081820708796
 21
91.5481853831445
 31
0.0
  0
LINE
  5
    B6
  8
0
  6
CONTINUOUS
 62
     7
 10
61.6528059283942
 20
87.3126131281096
 30
0.0
 11
58.8187836618052
 21
88.2966445262254
 31
0.0
  0
LINE
  5
    B7
  8
0
  6
CONTINUOUS
 62
     7
 10
58.8187836618052
 20
88.2966445262254
 30
0.0
 11
60.7811032074407
 21
86.0274371754493
 31
0.0
  0
ENDBLK
  5
    B8
  8
0
  6
CONTINUOUS
 62
     7
  0
BLOCK
  5
    B9
  8
0
  6
CONTINUOUS
 62
     7
  2
*UDIM582
 70
    65
 10
0.0
 20
0.0
 30
0.0
  3
*UDIM582
  0
TEXT
  5
    BA
  8
0
  6
CONTINUOUS
 62
     7
 10
104.041637468433
 20
45.5131324105835
 30
0.0
 40
3.00000002980232
  1
7
 50
328.673164731989
 41
0.933333333333334
 72
     1
 11
105.761153317925
 21
46.2225443586707
 31
0.0
 73
     2
  0
TEXT
  5
    BB
  8
0
  6
CONTINUOUS
 62
     7
 10
100.624775787936
 20
47.5928094275192
 30
0.0
 40
3.00000002980232
  1
Ø
 50
328.673164731989
 41
1.2
 72
     1
 11
102.685977805818
 21
48.094253672561
 31
0.0
 73
     2
  0
LINE
  5
    BC
  8
0
  6
CONTINUOUS
 62
     7
 10
84.3261270824915
 20
56.3423368738001
 30
0.0
 11
105.400992149483
 21
43.5150946303668
 31
0.0
  0
LINE
  5
    BD
  8
0
  6
CONTINUOUS
 62
     7
 10
85.7181829458032
 20
54.5860892428226
 30
0.0
 11
88.5972041519967
 21
53.7427406231591
 31
0.0
  0
LINE
  5
    BE
  8
0
  6
CONTINUOUS
 62
     7
 10
88.5972041519967
 20
53.7427406231591
 30
0.0
 11
86.5255729908469
 21
55.9126125853156
 31
0.0
  0
LINE
  5
    BF
  8
0
  6
CONTINUOUS
 62
     7
 10
92.9711023325171
 20
51.9895333157712
 30
0.0
 11
90.0920811263236
 21
52.8328819354347
 31
0.0
  0
LINE
  5
    C0
  8
0
  6
CONTINUOUS
 62
     7
 10
90.0920811263236
 20
52.8328819354347
 30
0.0
 11
92.1637122874735
 21
50.6630099732782
 31
0.0
  0
ENDBLK
  5
    C1
  8
0
  6
CONTINUOUS
 62
     7
  0
BLOCK
  5
    C2
  8
0
  6
CONTINUOUS
 62
     7
  2
*UDIM583
 70
    65
 10
0.0
 20
0.0
 30
0.0
  3
*UDIM583
  0
TEXT
  5
    C3
  8
0
  6
CONTINUOUS
 62
     7
 10
110.876382830476
 20
112.725840487241
 30
0.0
 40
3.00000002980232
  1
8
 50
406.249477420785
 41
0.933333333333334
 72
     1
 11
110.55351795353
 21
114.557713392216
 31
0.0
 73
     2
  0
TEXT
  5
    C4
  8
0
  6
CONTINUOUS
 62
     7
 10
108.698095950446
 20
110.450413861117
 30
0.0
 40
3.00000002980232
  1
Ø
 50
406.249477420785
 41
0.933333333333334
 72
     1
 11
108.3752310735
 21
112.282286766092
 31
0.0
 73
     2
  0
TEXT
  5
    C5
  8
0
  6
CONTINUOUS
 62
     7
 10
97.1151418091091
 20
98.3509229978507
 30
0.0
 40
3.00000002980232
  1
3 fori
 50
406.249477420785
 41
0.933333333333333
 72
     1
 11
101.632914489892
 21
105.239299537575
 31
0.0
 73
     2
  0
LINE
  5
    C6
  8
0
  6
CONTINUOUS
 62
     7
 10
113.120083720373
 20
113.623507706611
 30
0.0
 11
88.6531229968869
 21
88.065453622488
 31
0.0
  0
LINE
  5
    C7
  8
0
  6
CONTINUOUS
 62
     7
 10
91.7028958114636
 20
92.0045625176949
 30
0.0
 11
90.0361622814334
 21
89.5101689361058
 31
0.0
  0
LINE
  5
    C8
  8
0
  6
CONTINUOUS
 62
     7
 10
90.0361622814334
 20
89.5101689361058
 30
0.0
 11
92.4555122069586
 21
91.2840759060061
 31
0.0
  0
LINE
  5
    C9
  8
0
  6
CONTINUOUS
 62
     7
 10
86.9863894668567
 20
85.5710600408989
 30
0.0
 11
88.6531229968869
 21
88.065453622488
 31
0.0
  0
LINE
  5
    CA
  8
0
  6
CONTINUOUS
 62
     7
 10
88.6531229968869
 20
88.065453622488
 30
0.0
 11
86.2337730713617
 21
86.2915466525876
 31
0.0
  0
ENDBLK
  5
    CB
  8
0
  6
CONTINUOUS
 62
     7
  0
BLOCK
  5
    CC
  8
0
  6
CONTINUOUS
 62
     7
  2
*UDIM584
 70
    65
 10
0.0
 20
0.0
 30
0.0
  3
*UDIM584
  0
TEXT
  5
    CD
  8
0
  6
CONTINUOUS
 62
     7
 10
71.8789035558224
 20
27.2780456877023
 30
0.0
 40
3.00000002980232
  1
R min.200
 50
359.999999844103
 41
0.933333333333333
 72
     1
 11
84.1789036820857
 21
28.778045669198
 31
0.0
 73
     2
  0
LINE
  5
    CE
  8
0
  6
CONTINUOUS
 62
     7
 10
98.318905021852
 20
36.8138265434918
 30
0.0
 11
98.318905021852
 21
24.2780456542969
 31
0.0
  0
LINE
  5
    CF
  8
0
  6
CONTINUOUS
 62
     7
 10
69.0946426391602
 20
26.2780456542969
 30
0.0
 11
98.318905021852
 21
26.2780456542969
 31
0.0
  0
LINE
  5
    D0
  8
0
  6
CONTINUOUS
 62
     7
 10
66.1402193619532
 20
25.7571012243452
 30
0.0
 11
69.0946426391602
 21
26.2780456542969
 31
0.0
  0
LINE
  5
    D1
  8
0
  6
CONTINUOUS
 62
     7
 10
69.0946426391602
 20
26.2780456542969
 30
0.0
 11
66.1402193619532
 21
26.7989900842485
 31
0.0
  0
LINE
  5
    D2
  8
0
  6
CONTINUOUS
 62
     7
 10
101.273328299059
 20
26.7989900842485
 30
0.0
 11
98.318905021852
 21
26.2780456542969
 31
0.0
  0
LINE
  5
    D3
  8
0
  6
CONTINUOUS
 62
     7
 10
98.318905021852
 20
26.2780456542969
 30
0.0
 11
101.273328299059
 21
25.7571012243452
 31
0.0
  0
ENDBLK
  5
    D4
  8
0
  6
CONTINUOUS
 62
     7
  0
BLOCK
  5
    D5
  8
0
  6
CONTINUOUS
 62
     7
  2
*UDIM585
 70
    65
 10
0.0
 20
0.0
 30
0.0
  3
*UDIM585
  0
TEXT
  5
    D6
  8
0
  6
CONTINUOUS
 62
     7
 10
107.178009015015
 20
73.9378115901361
 30
0.0
 40
3.00000002980232
  1
27,25
 50
449.999999844103
 41
0.933333333333333
 72
     1
 11
105.678009018302
 21
80.6378116607666
 31
0.0
 73
     2
  0
LINE
  5
    D7
  8
0
  6
CONTINUOUS
 62
     7
 10
95.3499490386018
 20
64.2253112792969
 30
0.0
 11
110.178009033203
 21
64.2253112792969
 31
0.0
  0
LINE
  5
    D8
  8
0
  6
CONTINUOUS
 62
     7
 10
108.178009033203
 20
87.3378117273251
 30
0.0
 11
108.178009033203
 21
64.2253112792969
 31
0.0
  0
LINE
  5
    D9
  8
0
  6
CONTINUOUS
 62
     7
 10
107.657064603251
 20
73.9922345565039
 30
0.0
 11
108.178009033203
 21
71.0378112792969
 31
0.0
  0
LINE
  5
    DA
  8
0
  6
CONTINUOUS
 62
     7
 10
108.178009033203
 20
71.0378112792969
 30
0.0
 11
108.698953463155
 21
73.9922345565039
 31
0.0
  0
LINE
  5
    DB
  8
0
  6
CONTINUOUS
 62
     7
 10
108.698953463155
 20
61.2708880020899
 30
0.0
 11
108.178009033203
 21
64.2253112792969
 31
0.0
  0
LINE
  5
    DC
  8
0
  6
CONTINUOUS
 62
     7
 10
108.178009033203
 20
64.2253112792969
 30
0.0
 11
107.657064603251
 21
61.2708880020899
 31
0.0
  0
ENDBLK
  5
    DD
  8
0
  6
CONTINUOUS
 62
     7
  0
BLOCK
  5
    DE
  8
0
  6
CONTINUOUS
 62
     7
  2
*UDIM586
 70
    65
 10
0.0
 20
0.0
 30
0.0
  3
*UDIM586
  0
TEXT
  5
    DF
  8
0
  6
CONTINUOUS
 62
     7
 10
38.9513034714686
 20
66.8628112305214
 30
0.0
 40
3.00000002980232
  1
126
 50
449.999999844103
 41
0.933333333333333
 72
     1
 11
37.4513034671545
 21
70.7628112733364
 31
0.0
 73
     2
  0
LINE
  5
    E0
  8
0
  6
CONTINUOUS
 62
     7
 10
50.0946426391602
 20
86.7878112792969
 30
0.0
 11
37.9513034820557
 21
86.7878112792969
 31
0.0
  0
LINE
  5
    E1
  8
0
  6
CONTINUOUS
 62
     7
 10
50.0946426391602
 20
55.2878112792969
 30
0.0
 11
37.9513034820557
 21
55.2878112792969
 31
0.0
  0
LINE
  5
    E2
  8
0
  6
CONTINUOUS
 62
     7
 10
39.9513034820557
 20
86.7878112792969
 30
0.0
 11
39.9513034820557
 21
55.2878112792969
 31
0.0
  0
LINE
  5
    E3
  8
0
  6
CONTINUOUS
 62
     7
 10
40.4722479120073
 20
83.8333880020899
 30
0.0
 11
39.9513034820557
 21
86.7878112792969
 31
0.0
  0
LINE
  5
    E4
  8
0
  6
CONTINUOUS
 62
     7
 10
39.9513034820557
 20
86.7878112792969
 30
0.0
 11
39.430359052104
 21
83.8333880020899
 31
0.0
  0
LINE
  5
    E5
  8
0
  6
CONTINUOUS
 62
     7
 10
39.430359052104
 20
58.2422345565038
 30
0.0
 11
39.9513034820557
 21
55.2878112792969
 31
0.0
  0
LINE
  5
    E6
  8
0
  6
CONTINUOUS
 62
     7
 10
39.9513034820557
 20
55.2878112792969
 30
0.0
 11
40.4722479120073
 21
58.2422345565038
 31
0.0
  0
ENDBLK
  5
    E7
  8
0
  6
CONTINUOUS
 62
     7
  0
BLOCK
  5
    E8
  8
0
  6
CONTINUOUS
 62
     7
  2
*UDIM587
 70
    65
 10
0.0
 20
0.0
 30
0.0
  3
*UDIM587
  0
TEXT
  5
    E9
  8
0
  6
CONTINUOUS
 62
     7
 10
116.569892872714
 20
66.8628112305214
 30
0.0
 40
3.00000002980232
  1
142
 50
449.999999844103
 41
0.933333333333333
 72
     1
 11
115.0698928684
 21
70.7628112733364
 31
0.0
 73
     2
  0
LINE
  5
    EA
  8
0
  6
CONTINUOUS
 62
     7
 10
60.7196426391602
 20
88.7878112792969
 30
0.0
 11
119.569892883301
 21
88.7878112792969
 31
0.0
  0
LINE
  5
    EB
  8
0
  6
CONTINUOUS
 62
     7
 10
91.9696426391602
 20
53.2878112792969
 30
0.0
 11
119.569892883301
 21
53.2878112792969
 31
0.0
  0
LINE
  5
    EC
  8
0
  6
CONTINUOUS
 62
     7
 10
117.569892883301
 20
88.7878112792969
 30
0.0
 11
117.569892883301
 21
53.2878112792969
 31
0.0
  0
LINE
  5
    ED
  8
0
  6
CONTINUOUS
 62
     7
 10
118.090837313252
 20
85.8333880020899
 30
0.0
 11
117.569892883301
 21
88.7878112792969
 31
0.0
  0
LINE
  5
    EE
  8
0
  6
CONTINUOUS
 62
     7
 10
117.569892883301
 20
88.7878112792969
 30
0.0
 11
117.048948453349
 21
85.8333880020899
 31
0.0
  0
LINE
  5
    EF
  8
0
  6
CONTINUOUS
 62
     7
 10
117.048948453349
 20
56.2422345565038
 30
0.0
 11
117.569892883301
 21
53.2878112792969
 31
0.0
  0
LINE
  5
    F0
  8
0
  6
CONTINUOUS
 62
     7
 10
117.569892883301
 20
53.2878112792969
 30
0.0
 11
118.090837313252
 21
56.2422345565038
 31
0.0
  0
ENDBLK
  5
    F1
  8
0
  6
CONTINUOUS
 62
     7
  0
BLOCK
  5
    F2
  8
0
  6
CONTINUOUS
 62
     7
  2
*UDIM588
 70
    65
 10
0.0
 20
0.0
 30
0.0
  3
*UDIM588
  0
TEXT
  5
    F3
  8
0
  6
CONTINUOUS
 62
     7
 10
76.1121120385015
 20
61.5355735430132
 30
0.0
 40
3.00000002980232
  1
16
 50
449.999999844103
 41
0.933333333333333
 72
     1
 11
74.6121120303869
 21
64.0355735719204
 31
0.0
 73
     2
  0
LINE
  5
    F4
  8
0
  6
CONTINUOUS
 62
     7
 10
83.8446426391602
 20
66.2253112792969
 30
0.0
 11
75.1121120452881
 21
66.2253112792969
 31
0.0
  0
LINE
  5
    F5
  8
0
  6
CONTINUOUS
 62
     7
 10
83.8446426391602
 20
62.2253112792969
 30
0.0
 11
75.1121120452881
 21
62.2253112792969
 31
0.0
  0
LINE
  5
    F6
  8
0
  6
CONTINUOUS
 62
     7
 10
77.1121120452881
 20
66.5355735967557
 30
0.0
 11
77.1121120452881
 21
61.5355735470851
 31
0.0
  0
LINE
  5
    F7
  8
0
  6
CONTINUOUS
 62
     7
 10
76.5911676153364
 20
69.1797345565038
 30
0.0
 11
77.1121120452881
 21
66.2253112792969
 31
0.0
  0
LINE
  5
    F8
  8
0
  6
CONTINUOUS
 62
     7
 10
77.1121120452881
 20
66.2253112792969
 30
0.0
 11
77.6330564752398
 21
69.1797345565038
 31
0.0
  0
LINE
  5
    F9
  8
0
  6
CONTINUOUS
 62
     7
 10
77.6330564752398
 20
59.2708880020899
 30
0.0
 11
77.1121120452881
 21
62.2253112792969
 31
0.0
  0
LINE
  5
    FA
  8
0
  6
CONTINUOUS
 62
     7
 10
77.1121120452881
 20
62.2253112792969
 30
0.0
 11
76.5911676153364
 21
59.2708880020899
 31
0.0
  0
ENDBLK
  5
    FB
  8
0
  6
CONTINUOUS
 62
     7
  0
BLOCK
  5
    FC
  8
0
  6
CONTINUOUS
 62
     7
  2
*UDIM589
 70
    65
 10
0.0
 20
0.0
 30
0.0
  3
*UDIM589
  0
TEXT
  5
    FD
  8
0
  6
CONTINUOUS
 62
     7
 10
78.0696426042906
 20
75.5863926478572
 30
0.0
 40
3.00000002980232
  1
94
 50
359.999999844103
 41
0.933333333333333
 72
     1
 11
80.5696426331997
 21
77.0863926559687
 31
0.0
 73
     2
  0
LINE
  5
    FE
  8
0
  6
CONTINUOUS
 62
     7
 10
92.5946426391602
 20
65.1003112792969
 30
0.0
 11
92.5946426391602
 21
76.5863926410675
 31
0.0
  0
LINE
  5
    FF
  8
0
  6
CONTINUOUS
 62
     7
 10
69.0946426391602
 20
74.5863926410675
 30
0.0
 11
92.5946426391602
 21
74.5863926410675
 31
0.0
  0
LINE
  5
   100
  8
0
  6
CONTINUOUS
 62
     7
 10
72.0490659163671
 20
75.1073370710192
 30
0.0
 11
69.0946426391602
 21
74.5863926410675
 31
0.0
  0
LINE
  5
   101
  8
0
  6
CONTINUOUS
 62
     7
 10
69.0946426391602
 20
74.5863926410675
 30
0.0
 11
72.0490659163671
 21
74.0654482111158
 31
0.0
  0
LINE
  5
   102
  8
0
  6
CONTINUOUS
 62
     7
 10
89.6402193619532
 20
74.0654482111158
 30
0.0
 11
92.5946426391602
 21
74.5863926410675
 31
0.0
  0
LINE
  5
   103
  8
0
  6
CONTINUOUS
 62
     7
 10
92.5946426391602
 20
74.5863926410675
 30
0.0
 11
89.6402193619532
 21
75.1073370710192
 31
0.0
  0
ENDBLK
  5
   104
  8
0
  6
CONTINUOUS
 62
     7
  0
BLOCK
  5
   105
  8
0
  6
CONTINUOUS
 62
     7
  2
*UDIM590
 70
    65
 10
0.0
 20
0.0
 30
0.0
  3
*UDIM590
  0
TEXT
  5
   106
  8
0
  6
CONTINUOUS
 62
     7
 10
69.5446425605805
 20
36.9856376753869
 30
0.0
 40
3.00000002980232
  1
125
 50
359.999999844103
 41
0.933333333333333
 72
     1
 11
73.4446426033974
 21
38.4856376796961
 31
0.0
 73
     2
  0
LINE
  5
   107
  8
0
  6
CONTINUOUS
 62
     7
 10
58.0946426391602
 20
50.6628112792969
 30
0.0
 11
58.0946426391602
 21
33.9856376647949
 31
0.0
  0
LINE
  5
   108
  8
0
  6
CONTINUOUS
 62
     7
 10
89.3446426391602
 20
50.6628112792969
 30
0.0
 11
89.3446426391602
 21
33.9856376647949
 31
0.0
  0
LINE
  5
   109
  8
0
  6
CONTINUOUS
 62
     7
 10
58.0946426391602
 20
35.9856376647949
 30
0.0
 11
89.3446426391602
 21
35.9856376647949
 31
0.0
  0
LINE
  5
   10A
  8
0
  6
CONTINUOUS
 62
     7
 10
61.0490659163671
 20
36.5065820947466
 30
0.0
 11
58.0946426391602
 21
35.9856376647949
 31
0.0
  0
LINE
  5
   10B
  8
0
  6
CONTINUOUS
 62
     7
 10
58.0946426391602
 20
35.9856376647949
 30
0.0
 11
61.0490659163671
 21
35.4646932348433
 31
0.0
  0
LINE
  5
   10C
  8
0
  6
CONTINUOUS
 62
     7
 10
86.3902193619532
 20
35.4646932348433
 30
0.0
 11
89.3446426391602
 21
35.9856376647949
 31
0.0
  0
LINE
  5
   10D
  8
0
  6
CONTINUOUS
 62
     7
 10
89.3446426391602
 20
35.9856376647949
 30
0.0
 11
86.3902193619532
 21
36.5065820947466
 31
0.0
  0
ENDBLK
  5
   10E
  8
0
  6
CONTINUOUS
 62
     7
  0
BLOCK
  5
   10F
  8
0
  6
CONTINUOUS
 62
     7
  2
*UDIM591
 70
    65
 10
0.0
 20
0.0
 30
0.0
  3
*UDIM591
  0
TEXT
  5
   110
  8
0
  6
CONTINUOUS
 62
     7
 10
76.4446426042906
 20
44.9282169409938
 30
0.0
 40
3.00000002980232
  1
81
 50
359.999999844103
 41
0.933333333333333
 72
     1
 11
78.9446426331997
 21
46.4282169491053
 31
0.0
 73
     2
  0
LINE
  5
   111
  8
0
  6
CONTINUOUS
 62
     7
 10
89.3446426391602
 20
50.6628112792969
 30
0.0
 11
89.3446426391602
 21
41.9282169342041
 31
0.0
  0
LINE
  5
   112
  8
0
  6
CONTINUOUS
 62
     7
 10
69.0946426391602
 20
43.9282169342041
 30
0.0
 11
89.3446426391602
 21
43.9282169342041
 31
0.0
  0
LINE
  5
   113
  8
0
  6
CONTINUOUS
 62
     7
 10
72.0490659163671
 20
44.4491613641558
 30
0.0
 11
69.0946426391602
 21
43.9282169342041
 31
0.0
  0
LINE
  5
   114
  8
0
  6
CONTINUOUS
 62
     7
 10
69.0946426391602
 20
43.9282169342041
 30
0.0
 11
72.0490659163671
 21
43.4072725042524
 31
0.0
  0
LINE
  5
   115
  8
0
  6
CONTINUOUS
 62
     7
 10
86.3902193619532
 20
43.4072725042524
 30
0.0
 11
89.3446426391602
 21
43.9282169342041
 31
0.0
  0
LINE
  5
   116
  8
0
  6
CONTINUOUS
 62
     7
 10
89.3446426391602
 20
43.9282169342041
 30
0.0
 11
86.3902193619532
 21
44.4491613641558
 31
0.0
  0
ENDBLK
  5
   117
  8
0
  6
CONTINUOUS
 62
     7
  0
BLOCK
  5
   118
  8
0
  6
CONTINUOUS
 62
     7
  2
*UDIM592
 70
    65
 10
0.0
 20
0.0
 30
0.0
  3
*UDIM592
  0
TEXT
  5
   119
  8
0
  6
CONTINUOUS
 62
     7
 10
63.7946425903828
 20
115.571075450045
 30
0.0
 40
3.00000002980232
  1
135
 50
359.999999844103
 41
0.933333333333333
 72
     1
 11
67.6946426331997
 21
117.071075454354
 31
0.0
 73
     2
  0
LINE
  5
   11A
  8
0
  6
CONTINUOUS
 62
     7
 10
51.0946426391602
 20
87.7878112792969
 30
0.0
 11
51.0946426391602
 21
116.571075439453
 31
0.0
  0
LINE
  5
   11B
  8
0
  6
CONTINUOUS
 62
     7
 10
84.8446426391602
 20
87.7878112792969
 30
0.0
 11
84.8446426391602
 21
116.571075439453
 31
0.0
  0
LINE
  5
   11C
  8
0
  6
CONTINUOUS
 62
     7
 10
51.0946426391602
 20
114.571075439453
 30
0.0
 11
84.8446426391602
 21
114.571075439453
 31
0.0
  0
LINE
  5
   11D
  8
0
  6
CONTINUOUS
 62
     7
 10
54.0490659163671
 20
115.092019869405
 30
0.0
 11
51.0946426391602
 21
114.571075439453
 31
0.0
  0
LINE
  5
   11E
  8
0
  6
CONTINUOUS
 62
     7
 10
51.0946426391602
 20
114.571075439453
 30
0.0
 11
54.0490659163671
 21
114.050131009501
 31
0.0
  0
LINE
  5
   11F
  8
0
  6
CONTINUOUS
 62
     7
 10
81.8902193619532
 20
114.050131009501
 30
0.0
 11
84.8446426391602
 21
114.571075439453
 31
0.0
  0
LINE
  5
   120
  8
0
  6
CONTINUOUS
 62
     7
 10
84.8446426391602
 20
114.571075439453
 30
0.0
 11
81.8902193619532
 21
115.092019869405
 31
0.0
  0
ENDBLK
  5
   121
  8
0
  6
CONTINUOUS
 62
     7
  0
BLOCK
  5
   122
  8
0
  6
CONTINUOUS
 62
     7
  2
*UDIM593
 70
    65
 10
0.0
 20
0.0
 30
0.0
  3
*UDIM593
  0
TEXT
  5
   123
  8
0
  6
CONTINUOUS
 62
     7
 10
74.1946426042906
 20
107.333976752395
 30
0.0
 40
3.00000002980232
  1
63
 50
359.999999844103
 41
0.933333333333333
 72
     1
 11
76.6946426331997
 21
108.833976760507
 31
0.0
 73
     2
  0
LINE
  5
   124
  8
0
  6
CONTINUOUS
 62
     7
 10
69.0946426391602
 20
97.665302440152
 30
0.0
 11
69.0946426391602
 21
108.333976745605
 31
0.0
  0
LINE
  5
   125
  8
0
  6
CONTINUOUS
 62
     7
 10
84.8446426391602
 20
87.7878112792969
 30
0.0
 11
84.8446426391602
 21
108.333976745605
 31
0.0
  0
LINE
  5
   126
  8
0
  6
CONTINUOUS
 62
     7
 10
69.0946426391602
 20
106.333976745605
 30
0.0
 11
84.8446426391602
 21
106.333976745605
 31
0.0
  0
LINE
  5
   127
  8
0
  6
CONTINUOUS
 62
     7
 10
72.0490659163671
 20
106.854921175557
 30
0.0
 11
69.0946426391602
 21
106.333976745605
 31
0.0
  0
LINE
  5
   128
  8
0
  6
CONTINUOUS
 62
     7
 10
69.0946426391602
 20
106.333976745605
 30
0.0
 11
72.0490659163671
 21
105.813032315654
 31
0.0
  0
LINE
  5
   129
  8
0
  6
CONTINUOUS
 62
     7
 10
81.8902193619532
 20
105.813032315654
 30
0.0
 11
84.8446426391602
 21
106.333976745605
 31
0.0
  0
LINE
  5
   12A
  8
0
  6
CONTINUOUS
 62
     7
 10
84.8446426391602
 20
106.333976745605
 30
0.0
 11
81.8902193619532
 21
106.854921175557
 31
0.0
  0
ENDBLK
  5
   12B
  8
0
  6
CONTINUOUS
 62
     7
  0
ENDSEC
  0
SECTION
  2
ENTITIES
  0
LINE
  5
   12C
  8
0
  6
DOT
 62
   130
 10
-2.56680530814992
 20
20.2434294199152
 30
0.0
 11
12.6832175800337
 21
20.2434294199152
 31
0.0
  0
LINE
  5
   12D
  8
0
  6
DOT
 62
   130
 10
-2.56680530814992
 20
92.6184370493097
 30
0.0
 11
12.6832200452545
 21
92.6184370493097
 31
0.0
  0
LINE
  5
   12E
  8
0
  6
DOT
 62
   130
 10
12.6832200452545
 20
20.2434294199152
 30
0.0
 11
12.6832200452545
 21
92.6184370493108
 31
0.0
  0
LINE
  5
   12F
  8
0
  6
DOT
 62
   130
 10
13.1832099506391
 20
49.1184141611261
 30
0.0
 11
13.1832099506391
 21
59.1184141611261
 31
0.0
  0
LINE
  5
   130
  8
0
  6
CONTINUOUS
 62
     7
 10
-53.8167976787554
 20
105.615217444818
 30
0.0
 11
-40.1918243816363
 21
105.615217444818
 31
0.0
  0
LINE
  5
   131
  8
0
  6
CONTINUOUS
 62
     7
 10
-34.9418243816363
 20
105.615217444818
 30
0.0
 11
-22.6918243816363
 21
105.615217444818
 31
0.0
  0
LINE
  5
   132
  8
0
  6
CONTINUOUS
 62
     7
 10
-17.441820566939
 20
105.615217444818
 30
0.0
 11
-3.81682056693899
 21
105.615217444818
 31
0.0
  0
LINE
  5
   133
  8
0
  6
CONTINUOUS
 62
     7
 10
-53.3167976787554
 20
117.615217444818
 30
0.0
 11
-39.0667976787554
 21
117.615217444818
 31
0.0
  0
LINE
  5
   134
  8
0
  6
CONTINUOUS
 62
     7
 10
-36.0668053081499
 20
117.615217444818
 30
0.0
 11
-21.5667976787554
 21
117.615217444818
 31
0.0
  0
LINE
  5
   135
  8
0
  6
CONTINUOUS
 62
     7
 10
-18.5668053081499
 20
117.615217444818
 30
0.0
 11
-4.31679767875539
 21
117.615217444818
 31
0.0
  0
LINE
  5
   136
  8
0
  6
CONTINUOUS
 62
     7
 10
-53.6703503421306
 20
117.468772807281
 30
0.0
 11
-53.3167965700961
 21
117.615219035564
 31
0.0
  0
LINE
  5
   137
  8
0
  6
CONTINUOUS
 62
     7
 10
-53.816796823882
 20
117.11521993134
 30
0.0
 11
-53.6703505955989
 21
117.468773703375
 31
0.0
  0
LINE
  5
   138
  8
0
  6
CONTINUOUS
 62
     7
 10
-53.8167216346067
 20
105.365217444862
 30
0.0
 11
-53.8167216346067
 21
117.115217444862
 31
0.0
  0
LINE
  5
   139
  8
0
  6
CONTINUOUS
 62
     7
 10
-3.81682056693899
 20
105.365217444818
 30
0.0
 11
-3.81682056693899
 21
117.115217444817
 31
0.0
  0
LINE
  5
   13A
  8
0
  6
CONTINUOUS
 62
     7
 10
-3.96326621768503
 20
117.468773261634
 30
0.0
 11
-3.81681998940189
 21
117.115219489599
 31
0.0
  0
LINE
  5
   13B
  8
0
  6
CONTINUOUS
 62
     7
 10
-4.31680350432481
 20
117.615211850555
 30
0.0
 11
-3.9632726293863
 21
117.468765622689
 31
0.0
  0
LINE
  5
   13C
  8
0
  6
CONTINUOUS
 62
     7
 10
-21.5667976787554
 20
114.615217444818
 30
0.0
 11
-18.5668053081499
 21
114.615217444818
 31
0.0
  0
LINE
  5
   13D
  8
0
  6
CONTINUOUS
 62
     7
 10
-21.5667976787554
 20
114.615209815423
 30
0.0
 11
-21.5667976787554
 21
117.615217444818
 31
0.0
  0
LINE
  5
   13E
  8
0
  6
CONTINUOUS
 62
     7
 10
-18.5668053081499
 20
114.615225074212
 30
0.0
 11
-18.5668053081499
 21
117.615217444818
 31
0.0
  0
LINE
  5
   13F
  8
0
  6
CONTINUOUS
 62
     7
 10
-39.0667976787554
 20
114.615217444818
 30
0.0
 11
-36.0668053081499
 21
114.615217444818
 31
0.0
  0
LINE
  5
   140
  8
0
  6
CONTINUOUS
 62
     7
 10
-36.0668053081499
 20
114.615225074212
 30
0.0
 11
-36.0668053081499
 21
117.615217444818
 31
0.0
  0
LINE
  5
   141
  8
0
  6
CONTINUOUS
 62
     7
 10
-39.0667976787554
 20
114.615209815423
 30
0.0
 11
-39.0667976787554
 21
117.615217444818
 31
0.0
  0
LINE
  5
   142
  8
0
  6
CONTINUOUS
 62
     7
 10
-17.441828195833
 20
107.615217452847
 30
0.0
 11
-17.4418205664384
 21
105.615217452847
 31
0.0
  0
LINE
  5
   143
  8
0
  6
CONTINUOUS
 62
     7
 10
-22.6918243816363
 20
105.615217444818
 30
0.0
 11
-22.6918243816363
 21
107.615217444818
 31
0.0
  0
LINE
  5
   144
  8
0
  6
CONTINUOUS
 62
     7
 10
-34.9418243801433
 20
105.61521745195
 30
0.0
 11
-34.9418091213543
 21
107.61521745195
 31
0.0
  0
LINE
  5
   145
  8
0
  6
CONTINUOUS
 62
     7
 10
-40.1918243802961
 20
105.61521745195
 30
0.0
 11
-40.191809121507
 21
107.61521745195
 31
0.0
  0
LINE
  5
   146
  8
0
  6
CONTINUOUS
 62
     7
 10
-2.56687939785206
 20
105.36521744487
 30
0.0
 11
-2.56687939785206
 21
116.215223548385
 31
0.0
  0
LINE
  5
   147
  8
0
  6
CONTINUOUS
 62
     7
 10
-3.81679767875539
 20
116.215223548333
 30
0.0
 11
-2.56679767875539
 21
116.215223548333
 31
0.0
  0
LINE
  5
   148
  8
0
  6
CONTINUOUS
 62
     7
 10
-55.0667363894543
 20
105.365217444847
 30
0.0
 11
-55.0667363894543
 21
116.215223548362
 31
0.0
  0
LINE
  5
   149
  8
0
  6
CONTINUOUS
 62
     7
 10
-55.0667976787554
 20
116.215223548333
 30
0.0
 11
-53.8167976787554
 21
116.215223548333
 31
0.0
  0
LINE
  5
   14A
  8
0
  6
CONTINUOUS
 62
   212
 10
-2.56680530814992
 20
95.2403869628906
 30
0.0
 11
-2.56680530814992
 21
105.365217444818
 31
0.0
  0
LINE
  5
   14B
  8
0
  6
CONTINUOUS
 62
   212
 10
-55.0668053081499
 20
95.2403869628906
 30
0.0
 11
-55.0668053081499
 21
105.365217444818
 31
0.0
  0
LINE
  5
   14C
  8
0
  6
CONTINUOUS
 62
   212
 10
-55.0668053081499
 20
105.365217444818
 30
0.0
 11
-2.56680530814992
 21
105.365217444818
 31
0.0
  0
LINE
  5
   14D
  8
0
  6
CONTINUOUS
 62
   212
 10
-55.0668053081499
 20
28.8652193521661
 30
0.0
 11
-55.0668053081499
 21
28.9902269815607
 31
0.0
  0
LINE
  5
   14E
  8
0
  6
CONTINUOUS
 62
   212
 10
-55.0668053081499
 20
37.9902288889093
 30
0.0
 11
-55.0668053081499
 21
38.4902288889093
 31
0.0
  0
LINE
  5
   14F
  8
0
  6
CONTINUOUS
 62
   212
 10
-55.0668053081499
 20
44.4902288889093
 30
0.0
 11
-55.0668053081499
 21
44.9902288889093
 31
0.0
  0
LINE
  5
   150
  8
0
  6
CONTINUOUS
 62
   212
 10
-55.0668053081499
 20
54.7402288889093
 30
0.0
 11
-55.0668053081499
 21
55.2402288889093
 31
0.0
  0
LINE
  5
   151
  8
0
  6
CONTINUOUS
 62
   212
 10
-55.0668053081499
 20
61.240225074212
 30
0.0
 11
-55.0668053081499
 21
61.740225074212
 31
0.0
  0
LINE
  5
   152
  8
0
  6
CONTINUOUS
 62
   212
 10
-55.0668053081499
 20
80.990225074212
 30
0.0
 11
-55.0668053081499
 21
81.1152174448175
 31
0.0
  0
LINE
  5
   153
  8
0
  6
CONTINUOUS
 62
   212
 10
-2.56680530814992
 20
28.8652193521661
 30
0.0
 11
-2.56680530814992
 21
28.9902269815607
 31
0.0
  0
LINE
  5
   154
  8
0
  6
CONTINUOUS
 62
   212
 10
-2.56680530814992
 20
80.990225074212
 30
0.0
 11
-2.56680530814992
 21
81.1152174448175
 31
0.0
  0
LINE
  5
   155
  8
0
  6
CONTINUOUS
 62
   212
 10
-2.60341400562893
 20
81.2035912079978
 30
0.0
 11
-2.56680817075772
 21
81.115212303457
 31
0.0
  0
LINE
  5
   156
  8
0
  6
CONTINUOUS
 62
   212
 10
-55.0668085887333
 20
81.1152092260838
 30
0.0
 11
-55.0301970316724
 21
81.2035957594838
 31
0.0
  0
LINE
  5
   157
  8
0
  6
CONTINUOUS
 62
   212
 10
-55.0668050296701
 20
28.8652198124774
 30
0.0
 11
-55.0301934725993
 21
28.7768313694686
 31
0.0
  0
LINE
  5
   158
  8
0
  6
CONTINUOUS
 62
   212
 10
-2.60341628130803
 20
28.7768366713482
 30
0.0
 11
-2.56680281685729
 21
28.8652213013768
 31
0.0
  0
LINE
  5
   159
  8
0
  6
CONTINUOUS
 62
   212
 10
-3.31680530814992
 20
95.2403869628906
 30
0.0
 11
-3.31680530814992
 21
102.865217444818
 31
0.0
  0
LINE
  5
   15A
  8
0
  6
CONTINUOUS
 62
   212
 10
-54.3168053081499
 20
95.2403869628906
 30
0.0
 11
-54.3168053081499
 21
102.865217444818
 31
0.0
  0
LINE
  5
   15B
  8
0
  6
CONTINUOUS
 62
   212
 10
-54.3168053081499
 20
102.865217444818
 30
0.0
 11
-3.31680530814992
 21
102.865217444818
 31
0.0
  0
LINE
  5
   15C
  8
0
  6
CONTINUOUS
 62
    98
 10
-6.81682056693899
 20
2.71843695394226
 30
0.0
 11
-2.56682056693899
 21
2.71843695394226
 31
0.0
  0
LINE
  5
   15D
  8
0
  6
CONTINUOUS
 62
    98
 10
-47.066820566939
 20
2.71843695394226
 30
0.0
 11
-10.566820566939
 21
2.71843695394226
 31
0.0
  0
LINE
  5
   15E
  8
0
  6
CONTINUOUS
 62
    98
 10
-55.066820566939
 20
2.71843695394226
 30
0.0
 11
-50.816820566939
 21
2.71843695394226
 31
0.0
  0
LINE
  5
   15F
  8
0
  6
CONTINUOUS
 62
    98
 10
-2.56682056693899
 20
2.71843695394226
 30
0.0
 11
-2.56682056693899
 21
14.743537902832
 31
0.0
  0
LINE
  5
   160
  8
0
  6
CONTINUOUS
 62
    98
 10
-55.066820566939
 20
2.71843695394226
 30
0.0
 11
-55.066820566939
 21
14.743537902832
 31
0.0
  0
LINE
  5
   161
  8
0
  6
CONTINUOUS
 62
    98
 10
-10.566820566939
 20
2.71843695394226
 30
0.0
 11
-6.81682056693899
 21
2.71843695394226
 31
0.0
  0
LINE
  5
   162
  8
0
  6
CONTINUOUS
 62
    98
 10
-50.816820566939
 20
2.71843695394226
 30
0.0
 11
-47.066820566939
 21
2.71843695394226
 31
0.0
  0
LINE
  5
   163
  8
0
  6
CONTINUOUS
 62
   212
 10
-14.816820566939
 20
2.46843695394226
 30
0.0
 11
-14.816820566939
 21
2.71843695394226
 31
0.0
  0
LINE
  5
   164
  8
0
  6
CONTINUOUS
 62
   212
 10
-12.816820566939
 20
2.46843695394226
 30
0.0
 11
-12.816820566939
 21
2.71843695394226
 31
0.0
  0
LINE
  5
   165
  8
0
  6
CONTINUOUS
 62
   212
 10
-44.816820566939
 20
2.46843695394226
 30
0.0
 11
-44.816820566939
 21
2.71843695394226
 31
0.0
  0
LINE
  5
   166
  8
0
  6
CONTINUOUS
 62
   212
 10
-42.816820566939
 20
2.46843695394226
 30
0.0
 11
-42.816820566939
 21
2.71843695394226
 31
0.0
  0
LINE
  5
   167
  8
0
  6
CONTINUOUS
 62
   218
 10
-3.81682056693899
 20
-9.03156256922058
 30
0.0
 11
-3.81682056693899
 21
-8.13156295069031
 31
0.0
  0
LINE
  5
   168
  8
0
  6
CONTINUOUS
 62
   218
 10
-3.81682056693899
 20
-8.13156295069031
 30
0.0
 11
-2.56682056693899
 21
-8.13156295069031
 31
0.0
  0
LINE
  5
   169
  8
0
  6
CONTINUOUS
 62
   218
 10
-2.56682056693899
 20
-8.13156247385315
 30
0.0
 11
-2.56682056693899
 21
2.71843600026794
 31
0.0
  0
LINE
  5
   16A
  8
0
  6
CONTINUOUS
 62
   218
 10
-55.066820566939
 20
-8.13156295069031
 30
0.0
 11
-55.066820566939
 21
2.71843838445373
 31
0.0
  0
LINE
  5
   16B
  8
0
  6
CONTINUOUS
 62
   218
 10
-55.066820566939
 20
-8.13156295069031
 30
0.0
 11
-53.816820566939
 21
-8.13156295069031
 31
0.0
  0
LINE
  5
   16C
  8
0
  6
CONTINUOUS
 62
   218
 10
-53.816820566939
 20
-9.03156256922058
 30
0.0
 11
-53.816820566939
 21
-8.13156295069031
 31
0.0
  0
LINE
  5
   16D
  8
0
  6
CONTINUOUS
 62
   218
 10
-53.316820566939
 20
-9.53156256922058
 30
0.0
 11
-38.441820566939
 21
-9.53156256922058
 31
0.0
  0
LINE
  5
   16E
  8
0
  6
CONTINUOUS
 62
   218
 10
-36.691820566939
 20
-9.53156256922058
 30
0.0
 11
-20.941820566939
 21
-9.53156256922058
 31
0.0
  0
LINE
  5
   16F
  8
0
  6
CONTINUOUS
 62
   218
 10
-19.191820566939
 20
-9.53156256922058
 30
0.0
 11
-4.31682056693899
 21
-9.53156256922058
 31
0.0
  0
LINE
  5
   170
  8
0
  6
CONTINUOUS
 62
   218
 10
-53.816820566939
 20
-8.13156295069031
 30
0.0
 11
-53.816820566939
 21
1.96843743077942
 31
0.0
  0
LINE
  5
   171
  8
0
  6
CONTINUOUS
 62
   218
 10
-51.816820566939
 20
2.46843695394226
 30
0.0
 11
-40.191820566939
 21
2.46843695394226
 31
0.0
  0
LINE
  5
   172
  8
0
  6
CONTINUOUS
 62
   218
 10
-40.191820566939
 20
0.468437073151549
 30
0.0
 11
-40.191820566939
 21
2.46843695394226
 31
0.0
  0
LINE
  5
   173
  8
0
  6
CONTINUOUS
 62
   218
 10
-34.941820566939
 20
0.468437073151549
 30
0.0
 11
-34.941820566939
 21
2.46843695394226
 31
0.0
  0
LINE
  5
   174
  8
0
  6
CONTINUOUS
 62
   218
 10
-34.941820566939
 20
2.46843695394226
 30
0.0
 11
-22.691820566939
 21
2.46843695394226
 31
0.0
  0
LINE
  5
   175
  8
0
  6
CONTINUOUS
 62
   218
 10
-22.691820566939
 20
0.468437073151549
 30
0.0
 11
-22.691820566939
 21
2.46843695394226
 31
0.0
  0
LINE
  5
   176
  8
0
  6
CONTINUOUS
 62
   218
 10
-17.441820566939
 20
0.468437073151549
 30
0.0
 11
-17.441820566939
 21
2.46843695394226
 31
0.0
  0
LINE
  5
   177
  8
0
  6
CONTINUOUS
 62
   218
 10
-17.441820566939
 20
2.46843695394226
 30
0.0
 11
-5.81682056693899
 21
2.46843695394226
 31
0.0
  0
LINE
  5
   178
  8
0
  6
CONTINUOUS
 62
   218
 10
-3.81682056693899
 20
-8.13156295069031
 30
0.0
 11
-3.81682056693899
 21
1.96843743077942
 31
0.0
  0
LINE
  5
   179
  8
0
  6
CONTINUOUS
 62
   218
 10
-36.316820566939
 20
-2.78156304605774
 30
0.0
 11
-36.316820566939
 21
-1.79273832090668
 31
0.0
  0
LINE
  5
   17A
  8
0
  6
CONTINUOUS
 62
   218
 10
-38.816820566939
 20
-2.78156304605774
 30
0.0
 11
-38.816820566939
 21
-1.83983791686515
 31
0.0
  0
LINE
  5
   17B
  8
0
  6
CONTINUOUS
 62
   218
 10
-38.816820566939
 20
-2.78156304605774
 30
0.0
 11
-36.316820566939
 21
-2.78156304605774
 31
0.0
  0
LINE
  5
   17C
  8
0
  6
CONTINUOUS
 62
   218
 10
-21.316820566939
 20
-2.78156304605774
 30
0.0
 11
-21.316820566939
 21
-1.83983786648029
 31
0.0
  0
LINE
  5
   17D
  8
0
  6
CONTINUOUS
 62
   218
 10
-18.816820566939
 20
-2.78156304605774
 30
0.0
 11
-18.816820566939
 21
-1.79273832090668
 31
0.0
  0
LINE
  5
   17E
  8
0
  6
CONTINUOUS
 62
   218
 10
-21.316820566939
 20
-2.78156304605774
 30
0.0
 11
-18.816820566939
 21
-2.78156304605774
 31
0.0
  0
LINE
  5
   17F
  8
0
  6
CONTINUOUS
 62
   218
 10
-5.81682056693899
 20
1.96843707315155
 30
0.0
 11
-5.81682056693899
 21
2.46843695394226
 31
0.0
  0
LINE
  5
   180
  8
0
  6
CONTINUOUS
 62
   218
 10
-5.81682056693899
 20
1.96843707315155
 30
0.0
 11
-3.44182056693899
 21
1.96843707315155
 31
0.0
  0
LINE
  5
   181
  8
0
  6
CONTINUOUS
 62
   218
 10
-3.44182056693899
 20
1.96843707315155
 30
0.0
 11
-3.44182056693899
 21
2.71843695394226
 31
0.0
  0
LINE
  5
   182
  8
0
  6
CONTINUOUS
 62
   218
 10
-9.56682056693899
 20
2.46843695394226
 30
0.0
 11
-9.56682056693899
 21
2.71843695394226
 31
0.0
  0
LINE
  5
   183
  8
0
  6
CONTINUOUS
 62
   218
 10
-48.066820566939
 20
2.46843695394226
 30
0.0
 11
-48.066820566939
 21
2.71843695394226
 31
0.0
  0
LINE
  5
   184
  8
0
  6
CONTINUOUS
 62
   218
 10
-51.816820566939
 20
1.96843707315155
 30
0.0
 11
-51.816820566939
 21
2.46843695394226
 31
0.0
  0
LINE
  5
   185
  8
0
  6
CONTINUOUS
 62
   218
 10
-54.191820566939
 20
1.96843707315155
 30
0.0
 11
-51.816820566939
 21
1.96843707315155
 31
0.0
  0
LINE
  5
   186
  8
0
  6
CONTINUOUS
 62
   218
 10
-54.191820566939
 20
1.96843707315155
 30
0.0
 11
-54.191820566939
 21
2.71843695394226
 31
0.0
  0
LINE
  5
   187
  8
0
  6
CONTINUOUS
 62
   218
 10
-5.81682056693899
 20
2.46843743077942
 30
0.0
 11
-5.81682056693899
 21
2.71843671552368
 31
0.0
  0
LINE
  5
   188
  8
0
  6
CONTINUOUS
 62
   218
 10
-51.816820566939
 20
2.46843671552368
 30
0.0
 11
-51.816820566939
 21
2.71843695394226
 31
0.0
  0
LINE
  5
   189
  8
0
  6
CONTINUOUS
 62
   218
 10
-39.066820566939
 20
-9.53156256922058
 30
0.0
 11
-39.066820566939
 21
-6.28156304605774
 31
0.0
  0
LINE
  5
   18A
  8
0
  6
CONTINUOUS
 62
   218
 10
-39.066820566939
 20
-6.28156304605774
 30
0.0
 11
-36.066820566939
 21
-6.28156304605774
 31
0.0
  0
LINE
  5
   18B
  8
0
  6
CONTINUOUS
 62
   218
 10
-36.066820566939
 20
-9.53156256922058
 30
0.0
 11
-36.066820566939
 21
-6.28156304605774
 31
0.0
  0
LINE
  5
   18C
  8
0
  6
CONTINUOUS
 62
   218
 10
-36.316820566939
 20
-8.03156256922058
 30
0.0
 11
-36.316820566939
 21
-6.28156256922058
 31
0.0
  0
LINE
  5
   18D
  8
0
  6
CONTINUOUS
 62
   218
 10
-38.816820566939
 20
-8.03156256922058
 30
0.0
 11
-38.816820566939
 21
-6.28156304605774
 31
0.0
  0
LINE
  5
   18E
  8
0
  6
CONTINUOUS
 62
   218
 10
-36.691820566939
 20
-9.53156256922058
 30
0.0
 11
-36.691820566939
 21
-8.03156256922058
 31
0.0
  0
LINE
  5
   18F
  8
0
  6
CONTINUOUS
 62
   218
 10
-36.691820566939
 20
-8.03156256922058
 30
0.0
 11
-36.316820566939
 21
-8.03156256922058
 31
0.0
  0
LINE
  5
   190
  8
0
  6
CONTINUOUS
 62
   218
 10
-38.441820566939
 20
-9.53156256922058
 30
0.0
 11
-38.441820566939
 21
-8.03156256922058
 31
0.0
  0
LINE
  5
   191
  8
0
  6
CONTINUOUS
 62
   218
 10
-38.816820566939
 20
-8.03156256922058
 30
0.0
 11
-38.441820566939
 21
-8.03156256922058
 31
0.0
  0
LINE
  5
   192
  8
0
  6
CONTINUOUS
 62
   218
 10
-21.566820566939
 20
-9.53156256922058
 30
0.0
 11
-21.566820566939
 21
-6.28156304605774
 31
0.0
  0
LINE
  5
   193
  8
0
  6
CONTINUOUS
 62
   218
 10
-21.566820566939
 20
-6.28156304605774
 30
0.0
 11
-18.566820566939
 21
-6.28156304605774
 31
0.0
  0
LINE
  5
   194
  8
0
  6
CONTINUOUS
 62
   218
 10
-18.566820566939
 20
-9.53156256922058
 30
0.0
 11
-18.566820566939
 21
-6.28156304605774
 31
0.0
  0
LINE
  5
   195
  8
0
  6
CONTINUOUS
 62
   218
 10
-18.816820566939
 20
-8.03156256922058
 30
0.0
 11
-18.816820566939
 21
-6.28156256922058
 31
0.0
  0
LINE
  5
   196
  8
0
  6
CONTINUOUS
 62
   218
 10
-21.316820566939
 20
-8.03156256922058
 30
0.0
 11
-21.316820566939
 21
-6.28156304605774
 31
0.0
  0
LINE
  5
   197
  8
0
  6
CONTINUOUS
 62
   218
 10
-19.191820566939
 20
-9.53156256922058
 30
0.0
 11
-19.191820566939
 21
-8.03156256922058
 31
0.0
  0
LINE
  5
   198
  8
0
  6
CONTINUOUS
 62
   218
 10
-19.191820566939
 20
-8.03156256922058
 30
0.0
 11
-18.816820566939
 21
-8.03156256922058
 31
0.0
  0
LINE
  5
   199
  8
0
  6
CONTINUOUS
 62
   218
 10
-20.941820566939
 20
-9.53156256922058
 30
0.0
 11
-20.941820566939
 21
-8.03156256922058
 31
0.0
  0
LINE
  5
   19A
  8
0
  6
CONTINUOUS
 62
   218
 10
-21.316820566939
 20
-8.03156256922058
 30
0.0
 11
-20.941820566939
 21
-8.03156256922058
 31
0.0
  0
LINE
  5
   19B
  8
0
  6
CONTINUOUS
 62
    98
 10
-36.3167900493609
 20
114.615217444818
 30
0.0
 11
-36.3167900493609
 21
116.11843704931
 31
0.0
  0
LINE
  5
   19C
  8
0
  6
CONTINUOUS
 62
    98
 10
-38.8167900492082
 20
116.118437080105
 30
0.0
 11
-38.8167862345109
 21
114.615217479098
 31
0.0
  0
LINE
  5
   19D
  8
0
  6
CONTINUOUS
 62
    98
 10
-38.8167900493609
 20
116.11843704931
 30
0.0
 11
-38.4417900493609
 21
116.11843704931
 31
0.0
  0
LINE
  5
   19E
  8
0
  6
CONTINUOUS
 62
    98
 10
-38.4417900493609
 20
116.11843704931
 30
0.0
 11
-38.4417900493609
 21
117.61843704931
 31
0.0
  0
LINE
  5
   19F
  8
0
  6
CONTINUOUS
 62
    98
 10
-53.3167824199663
 20
117.61843704931
 30
0.0
 11
-38.4417900493609
 21
117.61843704931
 31
0.0
  0
LINE
  5
   1A0
  8
0
  6
CONTINUOUS
 62
    98
 10
-53.6703350833289
 20
117.471992411814
 30
0.0
 11
-53.3167813112942
 21
117.618438640097
 31
0.0
  0
LINE
  5
   1A1
  8
0
  6
CONTINUOUS
 62
    98
 10
-53.8167815650804
 20
117.118439535897
 30
0.0
 11
-53.6703353367973
 21
117.471993307932
 31
0.0
  0
LINE
  5
   1A2
  8
0
  6
CONTINUOUS
 62
    98
 10
-53.8167824199663
 20
117.115247962396
 30
0.0
 11
-53.8167824199663
 21
117.11843704931
 31
0.0
  0
LINE
  5
   1A3
  8
0
  6
CONTINUOUS
 62
    98
 10
-55.0667824199663
 20
116.218435523431
 30
0.0
 11
-53.8167976787554
 21
116.218435523431
 31
0.0
  0
LINE
  5
   1A4
  8
0
  6
CONTINUOUS
 62
    98
 10
-55.0667824199663
 20
116.215223548333
 30
0.0
 11
-55.0667824199663
 21
116.218435523431
 31
0.0
  0
LINE
  5
   1A5
  8
0
  6
CONTINUOUS
 62
    98
 10
-2.56680530814992
 20
116.215223548333
 30
0.0
 11
-2.56680530814992
 21
116.218435523431
 31
0.0
  0
LINE
  5
   1A6
  8
0
  6
CONTINUOUS
 62
    98
 10
-3.81680530814992
 20
116.218435523431
 30
0.0
 11
-2.56680530814992
 21
116.218435523431
 31
0.0
  0
LINE
  5
   1A7
  8
0
  6
CONTINUOUS
 62
    98
 10
-3.81680530814992
 20
116.218435523431
 30
0.0
 11
-3.81680530814992
 21
117.11843704931
 31
0.0
  0
LINE
  5
   1A8
  8
0
  6
CONTINUOUS
 62
    98
 10
-3.96325095890808
 20
117.471992866191
 30
0.0
 11
-3.81680473062494
 21
117.118439094156
 31
0.0
  0
LINE
  5
   1A9
  8
0
  6
CONTINUOUS
 62
    98
 10
-4.31680410855509
 20
117.618438201286
 30
0.0
 11
-3.96325033652042
 21
117.471991973003
 31
0.0
  0
LINE
  5
   1AA
  8
0
  6
CONTINUOUS
 62
    98
 10
-19.1918053081499
 20
117.61843704931
 30
0.0
 11
-4.31680530814992
 21
117.61843704931
 31
0.0
  0
LINE
  5
   1AB
  8
0
  6
CONTINUOUS
 62
    98
 10
-19.1918053081499
 20
116.11843704931
 30
0.0
 11
-19.1918053081499
 21
117.61843704931
 31
0.0
  0
LINE
  5
   1AC
  8
0
  6
CONTINUOUS
 62
    98
 10
-19.1918053081499
 20
116.11843704931
 30
0.0
 11
-18.8167824199663
 21
116.11843704931
 31
0.0
  0
LINE
  5
   1AD
  8
0
  6
CONTINUOUS
 62
    98
 10
-18.8167900484925
 20
114.615217437655
 30
0.0
 11
-18.816782419098
 21
116.118437038663
 31
0.0
  0
LINE
  5
   1AE
  8
0
  6
CONTINUOUS
 62
    98
 10
-21.3168053073139
 20
116.118437043876
 30
0.0
 11
-21.3167976779194
 21
114.615217442868
 31
0.0
  0
LINE
  5
   1AF
  8
0
  6
CONTINUOUS
 62
    98
 10
-21.3168053081499
 20
116.11843704931
 30
0.0
 11
-20.9417824199663
 21
116.11843704931
 31
0.0
  0
LINE
  5
   1B0
  8
0
  6
CONTINUOUS
 62
    98
 10
-20.9418053005488
 20
117.618437067311
 30
0.0
 11
-20.9417824123652
 21
116.118437067311
 31
0.0
  0
LINE
  5
   1B1
  8
0
  6
CONTINUOUS
 62
    98
 10
-36.6917900493609
 20
117.61843704931
 30
0.0
 11
-20.9418053081499
 21
117.61843704931
 31
0.0
  0
LINE
  5
   1B2
  8
0
  6
CONTINUOUS
 62
    98
 10
-36.6917900493609
 20
116.11843704931
 30
0.0
 11
-36.6917900493609
 21
117.61843704931
 31
0.0
  0
LINE
  5
   1B3
  8
0
  6
CONTINUOUS
 62
    98
 10
-36.6917900493609
 20
116.11843704931
 30
0.0
 11
-36.3167900493609
 21
116.11843704931
 31
0.0
  0
LINE
  5
   1B4
  8
0
  6
CONTINUOUS
 62
   218
 10
-19.916803782271
 20
-1.34361112364105
 30
0.0
 11
-19.916803782271
 21
2.58048689119049
 31
0.0
  0
LINE
  5
   1B5
  8
0
  6
CONTINUOUS
 62
   218
 10
-20.2168068340288
 20
-1.34361124285034
 30
0.0
 11
-20.2168068340288
 21
2.5804867719812
 31
0.0
  0
LINE
  5
   1B6
  8
0
  6
CONTINUOUS
 62
   218
 10
-37.4167808940874
 20
105.656385657708
 30
0.0
 11
-37.4167808940874
 21
109.580488440911
 31
0.0
  0
LINE
  5
   1B7
  8
0
  6
CONTINUOUS
 62
   218
 10
-37.716780131148
 20
105.656385657708
 30
0.0
 11
-37.716780131148
 21
109.580488440911
 31
0.0
  0
LINE
  5
   1B8
  8
0
  6
CONTINUOUS
 62
   218
 10
-19.916803782271
 20
105.656385657708
 30
0.0
 11
-19.916803782271
 21
109.580488440911
 31
0.0
  0
LINE
  5
   1B9
  8
0
  6
CONTINUOUS
 62
   218
 10
-20.2168068340288
 20
105.656385657708
 30
0.0
 11
-20.2168068340288
 21
109.580488440911
 31
0.0
  0
LINE
  5
   1BA
  8
0
  6
CONTINUOUS
 62
   218
 10
-37.4167808940874
 20
-1.34361112364105
 30
0.0
 11
-37.4167808940874
 21
2.58048689119049
 31
0.0
  0
LINE
  5
   1BB
  8
0
  6
CONTINUOUS
 62
   218
 10
-37.716780131148
 20
-1.34361124285034
 30
0.0
 11
-37.716780131148
 21
2.5804867719812
 31
0.0
  0
LINE
  5
   1BC
  8
0
  6
CONTINUOUS
 62
   218
 10
-3.81679766691059
 20
117.118444703968
 30
0.0
 11
-3.81678240812118
 21
116.218443181812
 31
0.0
  0
LINE
  5
   1BD
  8
0
  6
CONTINUOUS
 62
   218
 10
-53.8167976787554
 20
117.115217444817
 30
0.0
 11
-53.8167976787554
 21
117.118444678704
 31
0.0
  0
LINE
  5
   1BE
  8
0
  6
CONTINUOUS
 62
   218
 10
-3.81679766169961
 20
-8.88160110457641
 30
0.0
 11
-3.81678240291032
 21
-8.13156295938964
 31
0.0
  0
LINE
  5
   1BF
  8
0
  6
CONTINUOUS
 62
   218
 10
-21.3167671611773
 20
-7.88155532129578
 30
0.0
 11
-21.3167671611773
 21
-6.28156304605774
 31
0.0
  0
LINE
  5
   1C0
  8
0
  6
CONTINUOUS
 62
   218
 10
-38.8167976787554
 20
117.618444678704
 30
0.0
 11
-38.4417976787554
 21
117.618444678704
 31
0.0
  0
LINE
  5
   1C1
  8
0
  6
CONTINUOUS
 62
   218
 10
-36.6917976787554
 20
117.618444678704
 30
0.0
 11
-36.3167976787554
 21
117.618444678704
 31
0.0
  0
LINE
  5
   1C2
  8
0
  6
CONTINUOUS
 62
   218
 10
-19.1917671611773
 20
117.618444678704
 30
0.0
 11
-18.8167671611773
 21
117.618444678704
 31
0.0
  0
LINE
  5
   1C3
  8
0
  6
CONTINUOUS
 62
   218
 10
-21.3167671611773
 20
117.618444678704
 30
0.0
 11
-20.9417671611773
 21
117.618444678704
 31
0.0
  0
LINE
  5
   1C4
  8
0
  6
CONTINUOUS
 62
   218
 10
-20.9417671611773
 20
116.118444678704
 30
0.0
 11
-20.9417671611773
 21
117.618444678704
 31
0.0
  0
LINE
  5
   1C5
  8
0
  6
CONTINUOUS
 62
   218
 10
-38.8167976787554
 20
-7.88155532129578
 30
0.0
 11
-38.4417976787554
 21
-7.88155532129578
 31
0.0
  0
LINE
  5
   1C6
  8
0
  6
CONTINUOUS
 62
   218
 10
-38.4417976787554
 20
-9.38155532129578
 30
0.0
 11
-38.4417976787554
 21
-7.88155532129578
 31
0.0
  0
LINE
  5
   1C7
  8
0
  6
CONTINUOUS
 62
   218
 10
-36.6917976787554
 20
-7.88155532129578
 30
0.0
 11
-36.316820566939
 21
-7.88155532129578
 31
0.0
  0
LINE
  5
   1C8
  8
0
  6
CONTINUOUS
 62
   218
 10
-36.6917976787554
 20
-8.03156256922058
 30
0.0
 11
-36.6917976787554
 21
-7.88155532129578
 31
0.0
  0
LINE
  5
   1C9
  8
0
  6
CONTINUOUS
 62
   218
 10
-19.1917671611773
 20
-7.88155532129578
 30
0.0
 11
-18.816820566939
 21
-7.88155532129578
 31
0.0
  0
LINE
  5
   1CA
  8
0
  6
CONTINUOUS
 62
   218
 10
-19.1917671611773
 20
-8.03156256922058
 30
0.0
 11
-19.1917671611773
 21
-7.88155532129578
 31
0.0
  0
LINE
  5
   1CB
  8
0
  6
CONTINUOUS
 62
   218
 10
-21.3167671611773
 20
-7.88155532129578
 30
0.0
 11
-20.9417671611773
 21
-7.88155532129578
 31
0.0
  0
LINE
  5
   1CC
  8
0
  6
CONTINUOUS
 62
   218
 10
-20.9417671611773
 20
-9.38155532129578
 30
0.0
 11
-20.9417671611773
 21
-7.88155532129578
 31
0.0
  0
LINE
  5
   1CD
  8
0
  6
DOT
 62
   130
 10
12.6832175800337
 20
59.1184141611261
 30
0.0
 11
13.1832099506391
 21
59.1184141611261
 31
0.0
  0
LINE
  5
   1CE
  8
0
  6
DOT
 62
   130
 10
12.6832099506391
 20
49.1184141611261
 30
0.0
 11
13.1832099506391
 21
49.1184141611261
 31
0.0
  0
LINE
  5
   1CF
  8
0
  6
CONTINUOUS
 62
    52
 10
-55.0669311927575
 20
38.4902288707646
 30
0.0
 11
-55.0669006751784
 21
44.4902288707646
 31
0.0
  0
LINE
  5
   1D0
  8
0
  6
CONTINUOUS
 62
    52
 10
-55.0669578955037
 20
54.7402288933508
 30
0.0
 11
-55.0669006750438
 21
44.9902289127223
 31
0.0
  0
LINE
  5
   1D1
  8
0
  6
CONTINUOUS
 62
    52
 10
-55.0669578956383
 20
55.2402288696522
 30
0.0
 11
-55.0669273780593
 21
61.2402288696522
 31
0.0
  0
LINE
  5
   1D2
  8
0
  6
CONTINUOUS
 62
    52
 10
-55.0669273778376
 20
61.7402288959538
 30
0.0
 11
-55.0668053075233
 21
80.9902250593713
 31
0.0
  0
LINE
  5
   1D3
  8
0
  6
CONTINUOUS
 62
   212
 10
-54.4418053081499
 20
95.2403869628906
 30
0.0
 11
-54.4418053081499
 21
105.365217444818
 31
0.0
  0
LINE
  5
   1D4
  8
0
  6
CONTINUOUS
 62
   212
 10
-3.19180530814992
 20
95.2403869628906
 30
0.0
 11
-3.19180530814992
 21
105.365217444818
 31
0.0
  0
LINE
  5
   1D5
  8
0
  6
CONTINUOUS
 62
    98
 10
-54.441820566939
 20
2.71843743077942
 30
0.0
 11
-54.441820566939
 21
14.743537902832
 31
0.0
  0
LINE
  5
   1D6
  8
0
  6
CONTINUOUS
 62
    98
 10
-3.19182056693899
 20
2.71843743077942
 30
0.0
 11
-3.19182056693899
 21
14.743537902832
 31
0.0
  0
LINE
  5
   1D7
  8
0
  6
CONTINUOUS
 62
   218
 10
-20.0667978340297
 20
-1.37344736856781
 30
0.0
 11
-19.9167963082515
 21
-1.3436104744649
 31
0.0
  0
LINE
  5
   1D8
  8
0
  6
CONTINUOUS
 62
   218
 10
-20.0667978476847
 20
2.61032309098902
 30
0.0
 11
-19.9167963219066
 21
2.58048619688611
 31
0.0
  0
LINE
  5
   1D9
  8
0
  6
CONTINUOUS
 62
   218
 10
-20.2167993158333
 20
2.58048765768476
 30
0.0
 11
-20.0667977900553
 21
2.61032455178765
 31
0.0
  0
LINE
  5
   1DA
  8
0
  6
CONTINUOUS
 62
   218
 10
-20.2167993294882
 20
-1.34361193526352
 30
0.0
 11
-20.0667978037103
 21
-1.37344882936641
 31
0.0
  0
LINE
  5
   1DB
  8
0
  6
CONTINUOUS
 62
   218
 10
-37.566776437342
 20
105.62656087641
 30
0.0
 11
-37.4167749120375
 21
105.656391809878
 31
0.0
  0
LINE
  5
   1DC
  8
0
  6
CONTINUOUS
 62
   218
 10
-37.5667870095582
 20
109.610320568058
 30
0.0
 11
-37.4167854849295
 21
109.580482004962
 31
0.0
  0
LINE
  5
   1DD
  8
0
  6
CONTINUOUS
 62
   218
 10
-37.7167739384538
 20
109.580494989508
 30
0.0
 11
-37.5667762243781
 21
109.610333551526
 31
0.0
  0
LINE
  5
   1DE
  8
0
  6
CONTINUOUS
 62
   218
 10
-37.7167766349435
 20
105.656390318025
 30
0.0
 11
-37.5667789238434
 21
105.626559384833
 31
0.0
  0
LINE
  5
   1DF
  8
0
  6
CONTINUOUS
 62
   218
 10
-20.0667975500731
 20
105.62656104953
 30
0.0
 11
-19.9167960247684
 21
105.656391982998
 31
0.0
  0
LINE
  5
   1E0
  8
0
  6
CONTINUOUS
 62
   218
 10
-20.0668120125517
 20
109.610320774317
 30
0.0
 11
-19.916810487923
 21
109.580482211222
 31
0.0
  0
LINE
  5
   1E1
  8
0
  6
CONTINUOUS
 62
   218
 10
-20.2168161209833
 20
109.580480651443
 30
0.0
 11
-20.0668145963545
 21
109.610319214539
 31
0.0
  0
LINE
  5
   1E2
  8
0
  6
CONTINUOUS
 62
   218
 10
-20.2168011652121
 20
105.656390673834
 30
0.0
 11
-20.0667996399075
 21
105.626559740367
 31
0.0
  0
LINE
  5
   1E3
  8
0
  6
CONTINUOUS
 62
   218
 10
-37.5667769265616
 20
-1.37344756173902
 30
0.0
 11
-37.4167754007835
 21
-1.34361066763611
 31
0.0
  0
LINE
  5
   1E4
  8
0
  6
CONTINUOUS
 62
   218
 10
-37.5667769402167
 20
2.61032328416022
 30
0.0
 11
-37.4167754144388
 21
2.58048639005734
 31
0.0
  0
LINE
  5
   1E5
  8
0
  6
CONTINUOUS
 62
   218
 10
-37.7167868590312
 20
2.58048592994153
 30
0.0
 11
-37.5667891510474
 21
2.61032282198245
 31
0.0
  0
LINE
  5
   1E6
  8
0
  6
CONTINUOUS
 62
   218
 10
-37.7167868424323
 20
-1.34361037165249
 30
0.0
 11
-37.5667891344486
 21
-1.37344726369341
 31
0.0
  0
CIRCLE
  5
   1E7
  8
0
  6
CONTINUOUS
 62
   130
 10
5.93335984494297
 20
41.3683693690105
 30
0.0
 40
2.62490954030203
  0
CIRCLE
  5
   1E8
  8
0
  6
CONTINUOUS
 62
   218
 10
-46.3168102261557
 20
-0.531574207749841
 30
0.0
 40
2.75001453480779
  0
ARC
  5
   1E9
  8
0
  6
CONTINUOUS
 62
   218
 10
-53.3168209984356
 20
-9.0315636853479
 30
0.0
 40
0.499999126459817
 50
179.999908136696
 51
270.000128846519
  0
CIRCLE
  5
   1EA
  8
0
  6
CONTINUOUS
 62
   218
 10
-46.3168158175383
 20
-7.53155634712324
 30
0.0
 40
0.700006910845512
  0
CIRCLE
  5
   1EB
  8
0
  6
CONTINUOUS
 62
   218
 10
-37.5667905954023
 20
0.618430252071661
 30
0.0
 40
2.07498939197524
  0
ARC
  5
   1EC
  8
0
  6
CONTINUOUS
 62
   218
 10
-37.566774915354
 20
0.618450400381136
 30
0.0
 40
2.50001302175016
 50
122.860910345136
 51
417.139089654864
  0
ARC
  5
   1ED
  8
0
  6
CONTINUOUS
 62
   218
 10
-37.5668166664416
 20
0.468437207003554
 30
0.0
 40
2.625003580708
 50
121.00285991653
 51
241.563055357195
  0
CIRCLE
  5
   1EE
  8
0
  6
CONTINUOUS
 62
   218
 10
-28.8168146673975
 20
-7.53156004849496
 30
0.0
 40
0.699997233767217
  0
CIRCLE
  5
   1EF
  8
0
  6
CONTINUOUS
 62
   218
 10
-28.8168121680267
 20
-0.531560984504537
 30
0.0
 40
2.7500078854742
  0
CIRCLE
  5
   1F0
  8
0
  6
CONTINUOUS
 62
   218
 10
-20.0667970915085
 20
0.618449068059313
 30
0.0
 40
2.07501295323973
  0
ARC
  5
   1F1
  8
0
  6
CONTINUOUS
 62
   218
 10
-20.0668049322912
 20
0.618449502362097
 30
0.0
 40
2.50001169741146
 50
122.86082542836
 51
417.13917457164
  0
ARC
  5
   1F2
  8
0
  6
CONTINUOUS
 62
   218
 10
-20.0668184566288
 20
0.468436602074192
 30
0.0
 40
2.6250021519916
 50
121.00278238822
 51
241.563082905666
  0
CIRCLE
  5
   1F3
  8
0
  6
CONTINUOUS
 62
   218
 10
-11.3168243160444
 20
-0.531571360609284
 30
0.0
 40
2.75000241473019
  0
CIRCLE
  5
   1F4
  8
0
  6
CONTINUOUS
 62
   218
 10
-11.3168225872687
 20
-7.53155888365203
 30
0.0
 40
0.699996323748292
  0
ARC
  5
   1F5
  8
0
  6
CONTINUOUS
 62
     7
 10
-2.56678111138547
 20
0.61843585143103
 30
0.0
 40
1.05000173283802
 50
269.999904613641
 51
450.000095351404
  0
ARC
  5
   1F6
  8
0
  6
CONTINUOUS
 62
   218
 10
-4.31681720785878
 20
-9.03156474170854
 30
0.0
 40
0.499997631290926
 50
269.999800184153
 51
360.000263534205
  0
ARC
  5
   1F7
  8
0
  6
CONTINUOUS
 62
   218
 10
-37.5668166664416
 20
0.468437207003554
 30
0.0
 40
2.625003580708
 50
298.436751007451
 51
418.99714008347
  0
ARC
  5
   1F8
  8
0
  6
CONTINUOUS
 62
   218
 10
-20.0668184566288
 20
0.468436602074192
 30
0.0
 40
2.6250021519916
 50
298.436812330526
 51
418.99721761178
  0
LINE
  5
   1F9
  8
0
  6
DASHDOT
 62
     1
 10
-46.3168102261557
 20
-12.1273541441375
 30
0.0
 11
-46.3168102261557
 21
3.71844032705795
 31
0.0
  0
LINE
  5
   1FA
  8
0
  6
DASHDOT
 62
     1
 10
-50.5668247609635
 20
-0.531574207749841
 30
0.0
 11
-42.0667956913479
 21
-0.531574207749841
 31
0.0
  0
LINE
  5
   1FB
  8
0
  6
DASHDOT
 62
     1
 10
-37.5667905954023
 20
-2.95655913990358
 30
0.0
 11
-37.5667905954023
 21
4.1934196440469
 31
0.0
  0
LINE
  5
   1FC
  8
0
  6
DASHDOT
 62
     1
 10
-41.1417799873775
 20
0.618430252071661
 30
0.0
 11
-33.991801203427
 21
0.618430252071661
 31
0.0
  0
LINE
  5
   1FD
  8
0
  6
DASHDOT
 62
     1
 10
-33.0668200535008
 20
-0.531560984504537
 30
0.0
 11
-24.5668042825524
 21
-0.531560984504537
 31
0.0
  0
LINE
  5
   1FE
  8
0
  6
DASHDOT
 62
     1
 10
-31.0168119011646
 20
-7.53156004849496
 30
0.0
 11
-26.6168174336301
 21
-7.53156004849496
 31
0.0
  0
LINE
  5
   1FF
  8
0
  6
DASHDOT
 62
     1
 10
-48.5168227283839
 20
-7.53155634712324
 30
0.0
 11
-44.1168089066928
 21
-7.53155634712324
 31
0.0
  0
LINE
  5
   200
  8
0
  6
DASHDOT
 62
     1
 10
-20.0667970915085
 20
-2.95656388518042
 30
0.0
 11
-20.0667970915085
 21
4.19346202129905
 31
0.0
  0
LINE
  5
   201
  8
0
  6
DASHDOT
 62
     1
 10
-23.6418100447484
 20
0.618449068059313
 30
0.0
 11
-16.4917841382688
 21
0.618449068059313
 31
0.0
  0
LINE
  5
   202
  8
0
  6
DASHDOT
 62
     1
 10
-13.516818911017
 20
-7.53155888365203
 30
0.0
 11
-9.11682626352035
 21
-7.53155888365203
 31
0.0
  0
ARC
  5
   203
  8
0
  6
CONTINUOUS
 62
   218
 10
-53.3167996548599
 20
117.118449100487
 30
0.0
 40
0.499997169013284
 50
89.9996465086784
 51
180.000221758276
  0
CIRCLE
  5
   204
  8
0
  6
CONTINUOUS
 62
     7
 10
-46.3167534799723
 20
115.61516248953
 30
0.0
 40
0.999928825210208
  0
CIRCLE
  5
   205
  8
0
  6
CONTINUOUS
 62
     7
 10
-46.3167991686264
 20
115.615229493648
 30
0.0
 40
0.700007124240876
  0
CIRCLE
  5
   206
  8
0
  6
CONTINUOUS
 62
     7
 10
-46.3167891769224
 20
108.615135605966
 30
0.0
 40
2.75008344996193
  0
CIRCLE
  5
   207
  8
0
  6
CONTINUOUS
 62
   218
 10
-37.5668048933684
 20
107.618488950204
 30
0.0
 40
2.07494749039863
  0
ARC
  5
   208
  8
0
  6
CONTINUOUS
 62
   218
 10
-37.5667906023302
 20
107.61843247018
 30
0.0
 40
2.49999152351793
 50
295.671970040642
 51
604.328029959358
  0
ARC
  5
   209
  8
0
  6
CONTINUOUS
 62
     7
 10
-37.5666650133962
 20
107.615289539301
 30
0.0
 40
2.62514350938305
 50
301.004876459961
 51
598.995123540039
  0
CIRCLE
  5
   20A
  8
0
  6
CONTINUOUS
 62
     7
 10
-28.8167887951624
 20
108.61523247015
 30
0.0
 40
2.75001303050146
  0
CIRCLE
  5
   20B
  8
0
  6
CONTINUOUS
 62
   218
 10
-20.0668238069296
 20
107.618432066863
 30
0.0
 40
2.0749856384094
  0
ARC
  5
   20C
  8
0
  6
CONTINUOUS
 62
   218
 10
-20.0667916186201
 20
107.618436745136
 30
0.0
 40
2.50001319814591
 50
295.672777324068
 51
604.327222675932
  0
ARC
  5
   20D
  8
0
  6
CONTINUOUS
 62
     7
 10
-20.0668098876774
 20
107.615215268906
 30
0.0
 40
2.62501408140642
 50
301.003322800275
 51
598.996677199725
  0
CIRCLE
  5
   20E
  8
0
  6
CONTINUOUS
 62
     7
 10
-11.3167616458211
 20
108.615309724049
 30
0.0
 40
2.7501053689214
  0
CIRCLE
  5
   20F
  8
0
  6
CONTINUOUS
 62
     7
 10
-11.3167999550141
 20
115.615209337366
 30
0.0
 40
0.999997329470788
  0
CIRCLE
  5
   210
  8
0
  6
CONTINUOUS
 62
     7
 10
-11.3167821574888
 20
115.615206576644
 30
0.0
 40
0.699984483610494
  0
ARC
  5
   211
  8
0
  6
CONTINUOUS
 62
   218
 10
-4.31679427523522
 20
117.118448656679
 30
0.0
 40
0.499997174010076
 50
359.999778478596
 51
450.000252552679
  0
LINE
  5
   212
  8
0
  6
DASHDOT
 62
     1
 10
-28.8167240136108
 20
-13.3005487369148
 30
0.0
 11
-28.8167240136108
 21
133.20867360168
 31
0.0
  0
LINE
  5
   213
  8
0
  6
DASHDOT
 62
     1
 10
-48.5168062928672
 20
115.615229493648
 30
0.0
 11
-44.1167920443854
 21
115.615229493648
 31
0.0
  0
LINE
  5
   214
  8
0
  6
DASHDOT
 62
     1
 10
-46.3167891769224
 20
104.365052156005
 30
0.0
 11
-46.3167891769224
 21
121.736061439767
 31
0.0
  0
LINE
  5
   215
  8
0
  6
DASHDOT
 62
     1
 10
-50.5668726268843
 20
108.615135605966
 30
0.0
 11
-42.0667057269604
 21
108.615135605966
 31
0.0
  0
LINE
  5
   216
  8
0
  6
DASHDOT
 62
     1
 10
-37.5668048933684
 20
104.043541459805
 30
0.0
 11
-37.5668048933684
 21
111.193436440602
 31
0.0
  0
LINE
  5
   217
  8
0
  6
DASHDOT
 62
     1
 10
-41.141752383767
 20
107.618488950204
 30
0.0
 11
-33.9918574029698
 21
107.618488950204
 31
0.0
  0
LINE
  5
   218
  8
0
  6
DASHDOT
 62
     1
 10
-33.0668018256639
 20
108.61523247015
 30
0.0
 11
-24.566775764661
 21
108.61523247015
 31
0.0
  0
LINE
  5
   219
  8
0
  6
DASHDOT
 62
     1
 10
-20.0667916186201
 20
103.618423546991
 30
0.0
 11
-20.0667916186201
 21
111.618449943282
 31
0.0
  0
LINE
  5
   21A
  8
0
  6
DASHDOT
 62
     1
 10
-24.066804816766
 20
107.618436745136
 30
0.0
 11
-16.0667784204742
 21
107.618436745136
 31
0.0
  0
LINE
  5
   21B
  8
0
  6
DASHDOT
 62
     1
 10
-13.5167666410993
 20
115.615206576644
 30
0.0
 11
-9.1167976738783
 21
115.615206576644
 31
0.0
  0
LINE
  5
   21C
  8
0
  6
DASHDOT
 62
     1
 10
-11.3167616458211
 20
104.365204355127
 30
0.0
 11
-11.3167616458211
 21
121.441891897153
 31
0.0
  0
LINE
  5
   21D
  8
0
  6
DASHDOT
 62
     1
 10
-15.5668670147426
 20
108.615309724049
 30
0.0
 11
-7.06665627689972
 21
108.615309724049
 31
0.0
  0
LINE
  5
   21E
  8
0
  6
DASHDOT
 62
     1
 10
5.93335984494297
 20
37.2434598287084
 30
0.0
 11
5.93335984494297
 21
45.4932789093125
 31
0.0
  0
LINE
  5
   21F
  8
0
  6
DASHDOT
 62
     7
 10
-11.3168243160444
 20
-11.2992167845301
 30
0.0
 11
-11.3168243160444
 21
3.21843105412091
 31
0.0
  0
LINE
  5
   220
  8
0
  6
DASHDOT
 62
     7
 10
-15.0668267307746
 20
-0.531571360609284
 30
0.0
 11
-7.5668219013142
 21
-0.531571360609284
 31
0.0
  0
LINE
  5
   221
  8
0
  6
CONTINUOUS
 62
     7
 10
-54.8167240136109
 20
81.243537902832
 30
0.0
 11
-2.81672401361085
 21
81.243537902832
 31
0.0
  0
LINE
  5
   222
  8
0
  6
CONTINUOUS
 62
     7
 10
-54.8167240136109
 20
28.743537902832
 30
0.0
 11
-2.81672401361085
 21
28.743537902832
 31
0.0
  0
LINE
  5
   223
  8
0
  6
CONTINUOUS
 62
     7
 10
-55.0667240136108
 20
28.993537902832
 30
0.0
 11
-55.0667240136108
 21
80.993537902832
 31
0.0
  0
LINE
  5
   224
  8
0
  6
CONTINUOUS
 62
     7
 10
-2.56672401361084
 20
28.993537902832
 30
0.0
 11
-2.56672401361084
 21
80.993537902832
 31
0.0
  0
ARC
  5
   225
  8
0
  6
CONTINUOUS
 62
     7
 10
-54.8167240136108
 20
80.993537902832
 30
0.0
 40
0.25
 50
90.0
 51
180.0
  0
ARC
  5
   226
  8
0
  6
CONTINUOUS
 62
     7
 10
-2.81672401361083
 20
80.993537902832
 30
0.0
 40
0.25
 50
0.0
 51
90.0
  0
ARC
  5
   227
  8
0
  6
CONTINUOUS
 62
     7
 10
-2.81672401361084
 20
28.993537902832
 30
0.0
 40
0.25
 50
270.0
 51
360.0
  0
ARC
  5
   228
  8
0
  6
CONTINUOUS
 62
     7
 10
-54.8167240136108
 20
28.993537902832
 30
0.0
 40
0.25
 50
180.0
 51
270.0
  0
LINE
  5
   229
  8
0
  6
CONTINUOUS
 62
     7
 10
-54.6917240136109
 20
80.868537902832
 30
0.0
 11
-2.94172401361085
 21
80.868537902832
 31
0.0
  0
LINE
  5
   22A
  8
0
  6
CONTINUOUS
 62
     7
 10
-54.6917240136109
 20
29.118537902832
 30
0.0
 11
-2.94172401361085
 21
29.118537902832
 31
0.0
  0
LINE
  5
   22B
  8
0
  6
CONTINUOUS
 62
     7
 10
-54.6917240136108
 20
29.118537902832
 30
0.0
 11
-54.6917240136108
 21
80.868537902832
 31
0.0
  0
LINE
  5
   22C
  8
0
  6
CONTINUOUS
 62
     7
 10
-2.94172401361084
 20
29.118537902832
 30
0.0
 11
-2.94172401361084
 21
80.868537902832
 31
0.0
  0
LINE
  5
   22D
  8
0
  6
CONTINUOUS
 62
     7
 10
-54.6917240136109
 20
75.243537902832
 30
0.0
 11
-2.94172401361085
 21
75.243537902832
 31
0.0
  0
LINE
  5
   22E
  8
0
  6
CONTINUOUS
 62
     7
 10
-54.6917240136109
 20
80.243537902832
 30
0.0
 11
-2.94172401361085
 21
80.243537902832
 31
0.0
  0
LINE
  5
   22F
  8
0
  6
CONTINUOUS
 62
     7
 10
-19.8167240136108
 20
29.118537902832
 30
0.0
 11
-19.8167240136108
 21
75.243537902832
 31
0.0
  0
LINE
  5
   230
  8
0
  6
CONTINUOUS
 62
     7
 10
-4.81672401361084
 20
29.118537902832
 30
0.0
 11
-4.81672401361084
 21
75.243537902832
 31
0.0
  0
LINE
  5
   231
  8
0
  6
CONTINUOUS
 62
     7
 10
-20.3167240136108
 20
29.118537902832
 30
0.0
 11
-20.3167240136108
 21
75.243537902832
 31
0.0
  0
LINE
  5
   232
  8
0
  6
CONTINUOUS
 62
     7
 10
-4.31672401361084
 20
29.118537902832
 30
0.0
 11
-4.31672401361084
 21
75.243537902832
 31
0.0
  0
CIRCLE
  5
   233
  8
0
  6
CONTINUOUS
 62
     7
 10
-12.3167240136108
 20
65.993537902832
 30
0.0
 40
5.375
  0
CIRCLE
  5
   234
  8
0
  6
CONTINUOUS
 62
     7
 10
-12.3167240136108
 20
41.343537902832
 30
0.0
 40
5.375
  0
LINE
  5
   235
  8
0
  6
DASHDOT
 62
     1
 10
-12.3167240136108
 20
59.118537902832
 30
0.0
 11
-12.3167240136108
 21
72.868537902832
 31
0.0
  0
LINE
  5
   236
  8
0
  6
DASHDOT
 62
     1
 10
-19.1917240136109
 20
65.993537902832
 30
0.0
 11
-5.44172401361085
 21
65.993537902832
 31
0.0
  0
LINE
  5
   237
  8
0
  6
DASHDOT
 62
     1
 10
-12.3167240136108
 20
34.468537902832
 30
0.0
 11
-12.3167240136108
 21
48.218537902832
 31
0.0
  0
LINE
  5
   238
  8
0
  6
DASHDOT
 62
     1
 10
-19.1917240136109
 20
41.343537902832
 30
0.0
 11
10.3799252184658
 21
41.343537902832
 31
0.0
  0
ARC
  5
   239
  8
0
  6
CONTINUOUS
 62
     7
 10
-38.9417240136108
 20
43.493537902832
 30
0.0
 40
2.625
 50
0.0
 51
180.0
  0
ARC
  5
   23A
  8
0
  6
CONTINUOUS
 62
     7
 10
-38.9417240136108
 20
38.493537902832
 30
0.0
 40
2.625
 50
1.56165987539834
 51
360.0
  0
LINE
  5
   23B
  8
0
  6
CONTINUOUS
 62
     7
 10
-36.3167240136108
 20
38.493537902832
 30
0.0
 11
-36.3167240136108
 21
43.493537902832
 31
0.0
  0
LINE
  5
   23C
  8
0
  6
CONTINUOUS
 62
     7
 10
-41.5667240136108
 20
38.493537902832
 30
0.0
 11
-41.5667240136108
 21
43.493537902832
 31
0.0
  0
LINE
  5
   23D
  8
0
  6
DASHDOT
 62
     1
 10
-38.9417240136108
 20
34.368537902832
 30
0.0
 11
-38.9417240136108
 21
42.618537902832
 31
0.0
  0
LINE
  5
   23E
  8
0
  6
DASHDOT
 62
     1
 10
-43.0667240136108
 20
38.493537902832
 30
0.0
 11
-34.8167240136109
 21
38.493537902832
 31
0.0
  0
LINE
  5
   23F
  8
0
  6
CONTINUOUS
 62
     7
 10
-41.5186650296219
 20
38.993537902832
 30
0.0
 11
-36.3647829975998
 21
38.993537902832
 31
0.0
  0
LINE
  5
   240
  8
0
  6
CONTINUOUS
 62
     7
 10
-41.5186650296219
 20
37.993537902832
 30
0.0
 11
-36.3647829975998
 21
37.993537902832
 31
0.0
  0
LINE
  5
   241
  8
0
  6
CONTINUOUS
 62
     7
 10
-8.69172401361085
 20
59.368537902832
 30
0.0
 11
-7.44172401361085
 21
59.368537902832
 31
0.0
  0
LINE
  5
   242
  8
0
  6
CONTINUOUS
 62
     7
 10
-8.69172401361085
 20
50.618537902832
 30
0.0
 11
-7.44172401361085
 21
50.618537902832
 31
0.0
  0
LINE
  5
   243
  8
0
  6
CONTINUOUS
 62
     7
 10
-8.69172401361084
 20
50.618537902832
 30
0.0
 11
-8.69172401361084
 21
59.368537902832
 31
0.0
  0
LINE
  5
   244
  8
0
  6
CONTINUOUS
 62
     7
 10
-7.44172401361084
 20
50.618537902832
 30
0.0
 11
-7.44172401361084
 21
59.368537902832
 31
0.0
  0
LINE
  5
   245
  8
0
  6
CONTINUOUS
 62
     1
 10
-44.9417240136108
 20
70.993537902832
 30
0.0
 11
-44.9417240136108
 21
74.173542584479
 31
0.0
  0
LINE
  5
   246
  8
0
  6
CONTINUOUS
 62
     1
 10
-44.9417240136109
 20
70.993537902832
 30
0.0
 11
-41.6917240136109
 21
70.993537902832
 31
0.0
  0
LINE
  5
   247
  8
0
  6
CONTINUOUS
 62
     1
 10
-41.6917240136108
 20
51.5562015165187
 30
0.0
 11
-41.6917240136108
 21
70.993537902832
 31
0.0
  0
ARC
  5
   248
  8
0
  6
CONTINUOUS
 62
     1
 10
-38.9417240136108
 20
63.493537902832
 30
0.0
 40
11.5
 50
146.0
 51
256.164776385962
  0
ARC
  5
   249
  8
0
  6
CONTINUOUS
 62
     1
 10
-38.9417240136108
 20
63.493537902832
 30
0.0
 40
12.25
 50
119.327168765378
 51
257.027121849249
  0
LINE
  5
   24A
  8
0
  6
CONTINUOUS
 62
     1
 10
-49.0974342774101
 20
70.3436509703487
 30
0.0
 11
-48.4756560979938
 21
69.9242562927456
 31
0.0
  0
LINE
  5
   24B
  8
0
  6
CONTINUOUS
 62
     1
 10
-48.4417240136108
 20
63.493537902832
 30
0.0
 11
-44.6917240136108
 21
67.243537902832
 31
0.0
  0
LINE
  5
   24C
  8
0
  6
CONTINUOUS
 62
     1
 10
-48.4417240136108
 20
63.493537902832
 30
0.0
 11
-44.6917240136108
 21
59.743537902832
 31
0.0
  0
LINE
  5
   24D
  8
0
  6
CONTINUOUS
 62
     1
 10
-44.6917240136108
 20
59.743537902832
 30
0.0
 11
-44.6917240136108
 21
67.243537902832
 31
0.0
  0
ARC
  5
   24E
  8
0
  6
CONTINUOUS
 62
     1
 10
-38.9417240136108
 20
63.493537902832
 30
0.0
 40
11.25
 50
284.149004508935
 51
435.850995491065
  0
LINE
  5
   24F
  8
0
  6
CONTINUOUS
 62
     1
 10
-36.1917240136108
 20
52.5848257881963
 30
0.0
 11
-36.1917240136108
 21
74.4022500174678
 31
0.0
  0
LINE
  5
   250
  8
0
  6
CONTINUOUS
 62
     1
 10
-36.1917240136109
 20
67.493537902832
 30
0.0
 11
-28.4268535912043
 21
67.493537902832
 31
0.0
  0
LINE
  5
   251
  8
0
  6
CONTINUOUS
 62
     1
 10
-36.1917240136109
 20
59.493537902832
 30
0.0
 11
-28.4268535912043
 21
59.493537902832
 31
0.0
  0
LINE
  5
   252
  8
0
  6
CONTINUOUS
 62
     1
 10
-36.4417240136108
 20
52.5248324185919
 30
0.0
 11
-36.4417240136108
 21
74.4622433870722
 31
0.0
  0
LINE
  5
   253
  8
0
  6
CONTINUOUS
 62
     1
 10
-40.9417240136108
 20
49.493537902832
 30
0.0
 11
-40.9417240136108
 21
74.1383723308539
 31
0.0
  0
ARC
  5
   254
  8
0
  6
CONTINUOUS
 62
     1
 10
-38.9417240136108
 20
63.493537902832
 30
0.0
 40
11.25
 50
77.1604115930958
 51
87.4526818174296
  0
LINE
  5
   255
  8
0
  6
CONTINUOUS
 62
     1
 10
-38.4417240136108
 20
52.2546545063375
 30
0.0
 11
-38.4417240136108
 21
74.7324212993265
 31
0.0
  0
LINE
  5
   256
  8
0
  6
CONTINUOUS
 62
     1
 10
-39.4417240136108
 20
49.493537902832
 30
0.0
 11
-39.4417240136108
 21
74.7324212993265
 31
0.0
  0
ARC
  5
   257
  8
0
  6
CONTINUOUS
 62
     1
 10
-38.9417240136108
 20
63.493537902832
 30
0.0
 40
11.25
 50
92.5473181825704
 51
116.387799961243
  0
ARC
  5
   258
  8
0
  6
CONTINUOUS
 62
     1
 10
-38.9417240136108
 20
63.493537902832
 30
0.0
 40
11.25
 50
259.759651678814
 51
267.45268181743
  0
LINE
  5
   259
  8
0
  6
CONTINUOUS
 62
     1
 10
-39.4417240136109
 20
72.743537902832
 30
0.0
 11
-38.4417240136109
 21
72.743537902832
 31
0.0
  0
LINE
  5
   25A
  8
0
  6
CONTINUOUS
 62
     1
 10
-39.4417240136109
 20
54.243537902832
 30
0.0
 11
-38.4417240136109
 21
54.243537902832
 31
0.0
  0
LINE
  5
   25B
  8
0
  6
CONTINUOUS
 62
     1
 10
-43.9417240136108
 20
71.993537902832
 30
0.0
 11
-43.9417240136108
 21
73.5713600882052
 31
0.0
  0
LINE
  5
   25C
  8
0
  6
CONTINUOUS
 62
     1
 10
-43.4417240136109
 20
71.493537902832
 30
0.0
 11
-40.9417240136109
 21
71.493537902832
 31
0.0
  0
ARC
  5
   25D
  8
0
  6
CONTINUOUS
 62
     1
 10
-43.4417240136108
 20
71.993537902832
 30
0.0
 40
0.5
 50
180.0
 51
270.0
  0
ARC
  5
   25E
  8
0
  6
CONTINUOUS
 62
     1
 10
-40.4417240136108
 20
74.1383723308539
 30
0.0
 40
0.5
 50
98.0209328752446
 51
180.0
  0
LINE
  5
   25F
  8
0
  6
CONTINUOUS
 62
     1
 10
-40.9417240136109
 20
49.493537902832
 30
0.0
 11
-39.4417240136109
 21
49.493537902832
 31
0.0
  0
ARC
  5
   260
  8
0
  6
CONTINUOUS
 62
     1
 10
-38.9417240136108
 20
63.493537902832
 30
0.0
 40
11.25
 50
272.54731818257
 51
282.839588406904
  0
CIRCLE
  5
   261
  8
0
  6
CONTINUOUS
 62
     7
 10
-52.5667240136108
 20
63.493537902832
 30
0.0
 40
1.25
  0
CIRCLE
  5
   262
  8
0
  6
CONTINUOUS
 62
     7
 10
-52.5667240136108
 20
63.493537902832
 30
0.0
 40
0.75
  0
LINE
  5
   263
  8
0
  6
CONTINUOUS
 62
     7
 10
-39.4417240136108
 20
47.868537902832
 30
0.0
 11
-39.4417240136108
 21
51.868537902832
 31
0.0
  0
LINE
  5
   264
  8
0
  6
CONTINUOUS
 62
     7
 10
-38.4417240136108
 20
47.868537902832
 30
0.0
 11
-38.4417240136108
 21
51.868537902832
 31
0.0
  0
LINE
  5
   265
  8
0
  6
CONTINUOUS
 62
     7
 10
-39.4417240136109
 20
51.868537902832
 30
0.0
 11
-38.4417240136109
 21
51.868537902832
 31
0.0
  0
LINE
  5
   266
  8
0
  6
CONTINUOUS
 62
     7
 10
-39.4417240136109
 20
47.868537902832
 30
0.0
 11
-38.4417240136109
 21
47.868537902832
 31
0.0
  0
LINE
  5
   267
  8
0
  6
DASHDOT
 62
     1
 10
-74.4127511457518
 20
54.993537902832
 30
0.0
 11
19.4428317984743
 21
54.993537902832
 31
0.0
  0
LINE
  5
   268
  8
0
  6
DOT
 62
     7
 10
-72.5667363894543
 20
-8.13156295069031
 30
0.0
 11
-72.5667363894543
 21
116.215223548362
 31
0.0
  0
LINE
  5
   269
  8
0
  6
DOT
 62
     7
 10
-72.5667824199663
 20
116.218435523431
 30
0.0
 11
-71.3167976787554
 21
116.218435523431
 31
0.0
  0
LINE
  5
   26A
  8
0
  6
DOT
 62
     7
 10
-71.3167216346067
 20
116.218435523431
 30
0.0
 11
-71.3167216346067
 21
117.115217444862
 31
0.0
  0
ARC
  5
   26B
  8
0
  6
DOT
 62
     7
 10
-70.8167996548599
 20
117.118449100487
 30
0.0
 40
0.499997169013284
 50
89.9996465086784
 51
180.000221758276
  0
LINE
  5
   26C
  8
0
  6
DOT
 62
     7
 10
-70.8167824199663
 20
117.61843704931
 30
0.0
 11
-55.9417900493609
 21
117.61843704931
 31
0.0
  0
LINE
  5
   26D
  8
0
  6
DOT
 62
     7
 10
-72.566820566939
 20
-8.13156295069031
 30
0.0
 11
-71.316820566939
 21
-8.13156295069031
 31
0.0
  0
LINE
  5
   26E
  8
0
  6
DOT
 62
     7
 10
-71.316820566939
 20
-9.03156256922058
 30
0.0
 11
-71.316820566939
 21
-8.13156295069031
 31
0.0
  0
ARC
  5
   26F
  8
0
  6
DOT
 62
     7
 10
-70.8168209984356
 20
-9.0315636853479
 30
0.0
 40
0.499999126459817
 50
179.999908136696
 51
270.000128846519
  0
LINE
  5
   270
  8
0
  6
DOT
 62
     7
 10
-70.816820566939
 20
-9.53156256922058
 30
0.0
 11
-55.941820566939
 21
-9.53156256922058
 31
0.0
  0
LINE
  5
   271
  8
0
  6
CONTINUOUS
 62
     7
 10
-266.633194593057
 20
-55.378818194091
 30
0.0
 11
-201.633194593057
 21
-55.378818194091
 31
0.0
  0
LINE
  5
   272
  8
0
  6
CONTINUOUS
 62
     7
 10
-266.633194593057
 20
-63.378818194091
 30
0.0
 11
-201.633194593057
 21
-63.378818194091
 31
0.0
  0
LINE
  5
   273
  8
0
  6
CONTINUOUS
 62
     7
 10
-266.633194593057
 20
-71.378818194091
 30
0.0
 11
-201.633194593057
 21
-71.378818194091
 31
0.0
  0
LINE
  5
   274
  8
0
  6
CONTINUOUS
 62
     7
 10
-266.633194593057
 20
-79.378818194091
 30
0.0
 11
-201.633194593057
 21
-79.378818194091
 31
0.0
  0
LINE
  5
   275
  8
0
  6
CONTINUOUS
 62
     7
 10
-246.633194593057
 20
-79.378818194091
 30
0.0
 11
-246.633194593057
 21
-55.378818194091
 31
0.0
  0
LINE
  5
   276
  8
0
  6
CONTINUOUS
 62
     7
 10
-231.633194593057
 20
-79.378818194091
 30
0.0
 11
-231.633194593057
 21
-55.378818194091
 31
0.0
  0
LINE
  5
   277
  8
0
  6
CONTINUOUS
 62
     7
 10
-216.633194593057
 20
-79.378818194091
 30
0.0
 11
-216.633194593057
 21
-55.378818194091
 31
0.0
  0
LINE
  5
   278
  8
0
  6
CONTINUOUS
 62
     7
 10
-201.633194593057
 20
-79.378818194091
 30
0.0
 11
-201.633194593057
 21
-55.378818194091
 31
0.0
  0
LINE
  5
   279
  8
0
  6
DOT
 62
   130
 10
-2.56680530814992
 20
14.743537902832
 30
0.0
 11
-2.56680530814992
 21
28.7436280984448
 31
0.0
  0
LINE
  5
   27A
  8
0
  6
DOT
 62
   130
 10
-2.56680530814992
 20
81.2434560463264
 30
0.0
 11
-2.56680530814992
 21
95.2403869628906
 31
0.0
  0
LINE
  5
   27B
  8
0
  6
CONTINUOUS
 62
     1
 10
1.43327694006348
 20
37.618537902832
 30
0.0
 11
19.1832769400635
 21
37.618537902832
 31
0.0
  0
LINE
  5
   27C
  8
0
  6
CONTINUOUS
 62
     1
 10
1.43327694006348
 20
45.118537902832
 30
0.0
 11
19.1832769400635
 21
45.118537902832
 31
0.0
  0
LINE
  5
   27D
  8
0
  6
CONTINUOUS
 62
     1
 10
19.1832769400635
 20
37.118537902832
 30
0.0
 11
19.1832769400635
 21
45.618537902832
 31
0.0
  0
LINE
  5
   27E
  8
0
  6
CONTINUOUS
 62
     1
 10
1.43327694006348
 20
37.618537902832
 30
0.0
 11
1.43327694006348
 21
45.118537902832
 31
0.0
  0
LINE
  5
   27F
  8
0
  6
CONTINUOUS
 62
     1
 10
19.1832769400635
 20
15.368537902832
 30
0.0
 11
19.1832769400635
 21
94.6153869628906
 31
0.0
  0
LINE
  5
   280
  8
0
  6
CONTINUOUS
 62
     1
 10
-67.4417249672852
 20
14.743537902832
 30
0.0
 11
18.5582769400635
 21
14.743537902832
 31
0.0
  0
LINE
  5
   281
  8
0
  6
CONTINUOUS
 62
     1
 10
-68.0667249672852
 20
15.368537902832
 30
0.0
 11
-68.0667249672852
 21
94.6153869628906
 31
0.0
  0
LINE
  5
   282
  8
0
  6
CONTINUOUS
 62
     1
 10
1.43327694006348
 20
84.743537902832
 30
0.0
 11
1.43327694006348
 21
85.243537902832
 31
0.0
  0
LINE
  5
   283
  8
0
  6
CONTINUOUS
 62
     1
 10
-63.5667249672852
 20
84.743537902832
 30
0.0
 11
-63.5667249672852
 21
85.243537902832
 31
0.0
  0
LINE
  5
   284
  8
0
  6
CONTINUOUS
 62
     1
 10
1.43327694006348
 20
24.743537902832
 30
0.0
 11
1.43327694006348
 21
25.243537902832
 31
0.0
  0
LINE
  5
   285
  8
0
  6
CONTINUOUS
 62
     1
 10
-63.0667249672852
 20
24.743537902832
 30
0.0
 11
0.933275032714849
 21
24.743537902832
 31
0.0
  0
LINE
  5
   286
  8
0
  6
CONTINUOUS
 62
     1
 10
-63.5667249672852
 20
24.743537902832
 30
0.0
 11
-63.5667249672852
 21
25.243537902832
 31
0.0
  0
LINE
  5
   287
  8
0
  6
CONTINUOUS
 62
     1
 10
0.933276940063479
 20
14.743537902832
 30
0.0
 11
0.933276940063479
 21
24.743537902832
 31
0.0
  0
LINE
  5
   288
  8
0
  6
CONTINUOUS
 62
     1
 10
1.43327694006348
 20
85.243537902832
 30
0.0
 11
1.43327694006348
 21
95.243537902832
 31
0.0
  0
LINE
  5
   289
  8
0
  6
CONTINUOUS
 62
     1
 10
1.43327694006348
 20
25.243537902832
 30
0.0
 11
1.43327694006348
 21
37.118537902832
 31
0.0
  0
LINE
  5
   28A
  8
0
  6
CONTINUOUS
 62
     1
 10
1.43327694006348
 20
45.618537902832
 30
0.0
 11
1.43327694006348
 21
84.743537902832
 31
0.0
  0
LINE
  5
   28B
  8
0
  6
CONTINUOUS
 62
     1
 10
1.43327694006348
 20
14.743537902832
 30
0.0
 11
1.43327694006348
 21
24.743537902832
 31
0.0
  0
LINE
  5
   28C
  8
0
  6
CONTINUOUS
 62
     1
 10
-63.5667249672852
 20
85.243537902832
 30
0.0
 11
-63.5667249672852
 21
95.243537902832
 31
0.0
  0
LINE
  5
   28D
  8
0
  6
CONTINUOUS
 62
     1
 10
-63.5667249672852
 20
25.243537902832
 30
0.0
 11
-63.5667249672852
 21
84.743537902832
 31
0.0
  0
LINE
  5
   28E
  8
0
  6
CONTINUOUS
 62
     1
 10
-63.5667249672852
 20
14.743537902832
 30
0.0
 11
-63.5667249672852
 21
24.743537902832
 31
0.0
  0
LINE
  5
   28F
  8
0
  6
CONTINUOUS
 62
     1
 10
-63.0667249672852
 20
14.743537902832
 30
0.0
 11
-63.0667249672852
 21
24.743537902832
 31
0.0
  0
LINE
  5
   290
  8
0
  6
CONTINUOUS
 62
     1
 10
1.43327694006348
 20
37.118537902832
 30
0.0
 11
19.1832769400635
 21
37.118537902832
 31
0.0
  0
LINE
  5
   291
  8
0
  6
CONTINUOUS
 62
     1
 10
1.43327694006348
 20
45.618537902832
 30
0.0
 11
19.1832769400635
 21
45.618537902832
 31
0.0
  0
LINE
  5
   292
  8
0
  6
CONTINUOUS
 62
     1
 10
1.45827846594239
 20
45.118537902832
 30
0.0
 11
1.45827846594239
 21
45.618537902832
 31
0.0
  0
LINE
  5
   293
  8
0
  6
CONTINUOUS
 62
     1
 10
1.45827846594239
 20
37.118537902832
 30
0.0
 11
1.45827846594239
 21
37.618537902832
 31
0.0
  0
LINE
  5
   294
  8
0
  6
CONTINUOUS
 62
     1
 10
-63.0667249672852
 20
84.743537902832
 30
0.0
 11
0.933275032714856
 21
84.743537902832
 31
0.0
  0
LINE
  5
   295
  8
0
  6
CONTINUOUS
 62
     1
 10
-63.0667249672852
 20
25.243537902832
 30
0.0
 11
0.933275032714849
 21
25.243537902832
 31
0.0
  0
LINE
  5
   296
  8
0
  6
CONTINUOUS
 62
     1
 10
0.933276940063479
 20
25.243537902832
 30
0.0
 11
0.933276940063479
 21
84.743537902832
 31
0.0
  0
LINE
  5
   297
  8
0
  6
CONTINUOUS
 62
     1
 10
-63.0667249672852
 20
25.243537902832
 30
0.0
 11
-63.0667249672852
 21
84.743537902832
 31
0.0
  0
LINE
  5
   298
  8
0
  6
CONTINUOUS
 62
     1
 10
-2.56672401361082
 20
81.2435373408655
 30
0.0
 11
0.933274152244167
 21
84.7435355067205
 31
0.0
  0
LINE
  5
   299
  8
0
  6
CONTINUOUS
 62
     1
 10
-63.0667241759128
 20
84.7435388349991
 30
0.0
 11
-55.0667240136108
 21
80.9788341472626
 31
0.0
  0
LINE
  5
   29A
  8
0
  6
CONTINUOUS
 62
     1
 10
-2.56672401361084
 20
28.7435468038646
 30
0.0
 11
0.933285563422473
 21
25.2435354566585
 31
0.0
  0
LINE
  5
   29B
  8
0
  6
CONTINUOUS
 62
     1
 10
-63.0667226671242
 20
25.2435387136307
 30
0.0
 11
-55.0667240136108
 21
29.00824452034
 31
0.0
  0
LINE
  5
   29C
  8
0
  6
CONTINUOUS
 62
     1
 10
0.933246422485354
 20
85.2403869628906
 30
0.0
 11
0.933246422485354
 21
95.2403869628906
 31
0.0
  0
LINE
  5
   29D
  8
0
  6
CONTINUOUS
 62
     1
 10
-63.5667249672852
 20
85.2403869628906
 30
0.0
 11
1.43327694006349
 21
85.2403869628906
 31
0.0
  0
LINE
  5
   29E
  8
0
  6
CONTINUOUS
 62
     1
 10
-67.4417249672852
 20
95.2403869628906
 30
0.0
 11
-63.5667249672851
 21
95.2403869628906
 31
0.0
  0
LINE
  5
   29F
  8
0
  6
CONTINUOUS
 62
     1
 10
-28.5640894854322
 20
95.2403869628906
 30
0.0
 11
1.43327694006349
 21
95.2403869628906
 31
0.0
  0
ARC
  5
   2A0
  8
0
  6
CONTINUOUS
 62
     1
 10
-31.0667392723999
 20
97.3139796431489
 30
0.0
 40
3.25008346967122
 50
219.643748317915
 51
320.356251682085
  0
LINE
  5
   2A1
  8
0
  6
CONTINUOUS
 62
     1
 10
-33.5693890593676
 20
95.2403869628906
 30
0.0
 11
-28.5640894854322
 21
95.2403869628906
 31
0.0
  0
LINE
  5
   2A2
  8
0
  6
CONTINUOUS
 62
     1
 10
-63.0667249672852
 20
85.243537902832
 30
0.0
 11
-63.0667249672852
 21
95.243537902832
 31
0.0
  0
LINE
  5
   2A3
  8
0
  6
CONTINUOUS
 62
     1
 10
-63.5667249672851
 20
95.2403869628906
 30
0.0
 11
-33.5693890593676
 21
95.2403869628906
 31
0.0
  0
LINE
  5
   2A4
  8
0
  6
CONTINUOUS
 62
     1
 10
1.43327694006349
 20
95.2403869628906
 30
0.0
 11
18.5582769400635
 21
95.2403869628906
 31
0.0
  0
ARC
  5
   2A5
  8
0
  6
CONTINUOUS
 62
     1
 10
-67.4417249672852
 20
94.6153869628906
 30
0.0
 40
0.625
 50
90.0
 51
180.0
  0
ARC
  5
   2A6
  8
0
  6
CONTINUOUS
 62
     1
 10
-67.4417249672852
 20
15.368537902832
 30
0.0
 40
0.625
 50
180.0
 51
270.0
  0
ARC
  5
   2A7
  8
0
  6
CONTINUOUS
 62
     1
 10
18.5582769400635
 20
94.6153869628906
 30
0.0
 40
0.625
 50
0.0
 51
90.0
  0
ARC
  5
   2A8
  8
0
  6
CONTINUOUS
 62
     1
 10
18.5582769400635
 20
15.368537902832
 30
0.0
 40
0.625
 50
270.0
 51
360.0
  0
TEXT
  5
   2A9
  8
0
  6
CONTINUOUS
 62
     7
 10
-41.3262265488505
 20
-90.7062302130467
 30
0.0
 40
2.50000005960464
  1
SCARPELLINI
 41
0.899999932169916
 72
     1
 11
-29.1762271821499
 21
-89.4562301832443
 31
0.0
 73
     2
  0
TEXT
  5
   2AA
  8
0
  6
CONTINUOUS
 62
     7
 10
-7.61186067536474
 20
-94.9789352637533
 30
0.0
 40
2.00000008940697
  1
M4504 98-11-17
 41
0.749999995529652
 72
     1
 11
2.73813971877098
 21
-93.9789352190498
 31
0.0
 73
     2
  0
LINE
  5
   2AB
  8
0
  6
CONTINUOUS
 62
     7
 10
-266.633194593057
 20
-79.378818194091
 30
0.0
 11
-266.633194593057
 21
-55.378818194091
 31
0.0
  0
TEXT
  5
   2AC
  8
0
  6
CONTINUOUS
 62
     2
 10
33.3955217997262
 20
-4.39887595000022
 30
0.0
 40
2.00000008940697
  1
 
 41
0.700000002980232
  0
TEXT
  5
   2AD
  8
0
  6
CONTINUOUS
 62
     2
 10
33.3955223242628
 20
-10.3988723394393
 30
0.0
 40
2.00000008940697
  1
NOTE: FOR DRILLING TEMPLATES DIMENSION SEE
 41
0.999999971687795
  0
TEXT
  5
   2AE
  8
0
  6
CONTINUOUS
 62
     2
 10
33.3955220619946
 20
-7.39887595000021
 30
0.0
 40
2.00000008940697
  1
 
 41
0.700000002980232
  0
TEXT
  5
   2AF
  8
0
  6
CONTINUOUS
 62
     2
 10
33.3955225865311
 20
-13.3988727765532
 30
0.0
 40
2.00000008940697
  1
      THE RELEVANT DIMENSIONAL TABLES
 41
0.999999971687795
  0
TEXT
  5
   2B0
  8
0
  6
CONTINUOUS
 62
     2
 10
34.6632565400262
 20
-17.4653583636522
 30
0.0
 40
2.00000008940697
  1
 
 41
0.700000002980232
  0
TEXT
  5
   2B1
  8
0
  6
CONTINUOUS
 62
     2
 10
34.6632570645627
 20
-23.4653544034002
 30
0.0
 40
2.00000008940697
  1
NB; PER LE DIME DI FORATURA DEGLI INTERRUTTORI
 41
0.999999971687795
  0
TEXT
  5
   2B2
  8
0
  6
CONTINUOUS
 62
     2
 10
34.6632568022945
 20
-20.4653583636522
 30
0.0
 40
2.00000008940697
  1
 
 41
0.700000002980232
  0
TEXT
  5
   2B3
  8
0
  6
CONTINUOUS
 62
     2
 10
34.663257326831
 20
-26.4653544908229
 30
0.0
 40
2.00000008940697
  1
    VEDERE LE RISPETTIVE TABELLE DIMENSIONALI
 41
0.999999971687795
  0
TEXT
  5
   2B4
  8
0
  6
CONTINUOUS
 62
     7
 10
-75.2876815526425
 20
34.7543251579025
 30
0.0
 40
3.00000002980232
  1
=             =
 50
90.0
 41
0.916666689183977
 72
     1
 11
-76.7876815675692
 21
55.1043258607388
 31
0.0
 73
     2
  0
INSERT
  5
   2B5
  8
0
  6
CONTINUOUS
 62
     7
  2
*UDIM568
 10
0.0
 20
0.0
 30
0.0
  0
TEXT
  5
   2B6
  8
0
  6
CONTINUOUS
 62
     7
 10
-44.0566983645161
 20
129.416931137443
 30
0.0
 40
3.00000002980232
  1
=         =
 41
0.916666689183977
 72
     1
 11
-29.2066978514194
 21
130.916931152344
 31
0.0
 73
     2
  0
INSERT
  5
   2B7
  8
0
  6
CONTINUOUS
 62
     7
  2
*UDIM569
 10
0.0
 20
0.0
 30
0.0
  0
INSERT
  5
   2B8
  8
0
  6
CONTINUOUS
 62
     7
  2
*UDIM570
 10
0.0
 20
0.0
 30
0.0
  0
TEXT
  5
   2B9
  8
0
  6
CONTINUOUS
 62
     7
 10
-33.2018608570099
 20
-94.978935241104
 30
0.0
 40
2.00000008940697
  1
M 3076 95-01-16
 41
0.749999995529652
 72
     1
 11
-22.1018604338169
 21
-93.9789351964005
 31
0.0
 73
     2
  0
TEXT
  5
   2BA
  8
0
  6
CONTINUOUS
 62
     7
 10
64.3877251164802
 20
-106.42655179765
 30
0.0
 40
4.00000017881393
  1
601812/691
 41
0.915624995566905
 72
     1
 11
82.3339758217335
 21
-104.426551708243
 31
0.0
 73
     2
  0
TEXT
  5
   2BB
  8
0
  6
CONTINUOUS
 62
     7
 10
45.715910692513
 20
-87.4609908753641
 30
0.0
 40
2.20000007748604
  1
INTERR. AUTOMATICO SERIE ISOMAX TRIP. TETRAP.
 41
0.681818181571882
 72
     1
 11
79.3159118592739
 21
-86.3609908366211
 31
0.0
 73
     2
  0
TEXT
  5
   2BC
  8
0
  6
CONTINUOUS
 62
     7
 10
47.9659107709473
 20
-90.6609909230479
 30
0.0
 40
2.20000007748604
  1
CON COMANDO A MOTORE ESECUZIONE ESTRAIBILE
 41
0.681818181571882
 72
     1
 11
79.3159118592739
 21
-89.5609908843048
 31
0.0
 73
     2
  0
TEXT
  5
   2BD
  8
0
  6
CONTINUOUS
 62
     7
 10
51.7371690736237
 20
-78.7871703910834
 30
0.0
 40
2.20000007748604
  1
3-4POLE LOW VOLTAGE M.C.C.B SERIES ISOMAX WITHDRAWABLE
 41
0.511363589443452
 72
     1
 11
81.9996673613787
 21
-77.6871703523403
 31
0.0
 73
     2
  0
TEXT
  5
   2BE
  8
0
  6
CONTINUOUS
 62
     7
 10
61.2996685330164
 20
-81.9871704387671
 30
0.0
 40
2.20000007748604
  1
WITH OPERATING MECHANISM WITHDRAWABLE
 41
0.511363589443452
 72
     1
 11
81.9996673613787
 21
-80.8871704000241
 31
0.0
 73
     2
  0
TEXT
  5
   2BF
  8
0
  6
CONTINUOUS
 62
     7
 10
23.7318726480007
 20
53.6803130473679
 30
0.0
 40
3.00000002980232
  1
X
 41
0.916666604744064
 72
     1
 11
24.8318725824356
 21
55.180313062269
 31
0.0
 73
     2
  0
TEXT
  5
   2C0
  8
0
  6
CONTINUOUS
 62
     7
 10
68.0103756946822
 20
-97.8519896779472
 30
0.0
 40
3.00000002980232
  1
S3-4-5
 41
0.916666689183977
 72
     1
 11
75.9853759706021
 21
-96.3519896630461
 31
0.0
 73
     2
  0
TEXT
  5
   2C1
  8
0
  6
CONTINUOUS
 62
     7
 10
-42.451226490885
 20
-82.2394791144139
 30
0.0
 40
2.50000005960464
  1
G. LOCATELLI
 41
0.899999932169916
 72
     1
 11
-29.1762271821499
 21
-80.9894790846115
 31
0.0
 73
     2
  0
TEXT
  5
   2C2
  8
0
  6
CONTINUOUS
 62
     7
 10
-42.7114405746758
 20
-78.290664722324
 30
0.0
 40
2.50000005960464
  1
95-01-02
 41
0.899999932169916
 72
     1
 11
-33.9364410340786
 21
-77.0406646925217
 31
0.0
 73
     2
  0
TEXT
  5
   2C3
  8
0
  6
CONTINUOUS
 62
     7
 10
-216.008194204172
 20
-76.8788146291191
 30
0.0
 40
3.00000002980232
  1
101.5
 41
0.916666689183977
 72
     1
 11
-209.408193975687
 21
-75.3788146142179
 31
0.0
 73
     2
  0
TEXT
  5
   2C4
  8
0
  6
CONTINUOUS
 62
     7
 10
-211.883194061865
 20
-68.8788146291191
 30
0.0
 40
3.00000002980232
  1
84
 41
0.916666689183977
 72
     1
 11
-209.408193975687
 21
-67.3788146142179
 31
0.0
 73
     2
  0
TEXT
  5
   2C5
  8
0
  6
CONTINUOUS
 62
     7
 10
-246.633179028829
 20
-76.8788146366689
 30
0.0
 40
3.00000002980232
  1
183.75
 41
0.833333361479971
 72
     1
 11
-239.383178710938
 21
-75.3788146217677
 31
0.0
 73
     2
  0
TEXT
  5
   2C6
  8
0
  6
CONTINUOUS
 62
     7
 10
-243.258178850512
 20
-68.8788146291191
 30
0.0
 40
3.00000002980232
  1
140
 41
0.916666689183977
 72
     1
 11
-239.408178716898
 21
-67.3788146142179
 31
0.0
 73
     2
  0
TEXT
  5
   2C7
  8
0
  6
CONTINUOUS
 62
     7
 10
-228.258194109301
 20
-76.8788146291191
 30
0.0
 40
3.00000002980232
  1
140
 41
0.916666689183977
 72
     1
 11
-224.408193975687
 21
-75.3788146142179
 31
0.0
 73
     2
  0
TEXT
  5
   2C8
  8
0
  6
CONTINUOUS
 62
     7
 10
-228.258194109301
 20
-68.8788146291191
 30
0.0
 40
3.00000002980232
  1
105
 41
0.916666689183977
 72
     1
 11
-224.408193975687
 21
-67.3788146142179
 31
0.0
 73
     2
  0
TEXT
  5
   2C9
  8
0
  6
CONTINUOUS
 62
     7
 10
-259.383178803076
 20
-76.8788146291191
 30
0.0
 40
3.00000002980232
  1
S5
 41
0.916666689183977
 72
     1
 11
-256.908178716898
 21
-75.3788146142179
 31
0.0
 73
     2
  0
TEXT
  5
   2CA
  8
0
  6
CONTINUOUS
 62
     7
 10
-262.133178897947
 20
-68.8788146291191
 30
0.0
 40
3.00000002980232
  1
S3-4
 41
0.916666689183977
 72
     1
 11
-256.908178716898
 21
-67.3788146142179
 31
0.0
 73
     2
  0
TEXT
  5
   2CB
  8
0
  6
CONTINUOUS
 62
     7
 10
-210.964444026351
 20
-61.3788184907654
 30
0.0
 40
4.00000017881393
  1
C
 41
0.915624995566905
 72
     1
 11
-209.499443978071
 21
-59.3788184013585
 31
0.0
 73
     2
  0
TEXT
  5
   2CC
  8
0
  6
CONTINUOUS
 62
     7
 10
-225.964444026351
 20
-61.3788184907654
 30
0.0
 40
4.00000017881393
  1
B
 41
0.915624995566905
 72
     1
 11
-224.499443978071
 21
-59.3788184013585
 31
0.0
 73
     2
  0
TEXT
  5
   2CD
  8
0
  6
CONTINUOUS
 62
     7
 10
-240.964428767562
 20
-61.3788184907654
 30
0.0
 40
4.00000017881393
  1
A
 41
0.915624995566905
 72
     1
 11
-239.499428719282
 21
-59.3788184013585
 31
0.0
 73
     2
  0
TEXT
  5
   2CE
  8
0
  6
CONTINUOUS
 62
     7
 10
-265.669739098847
 20
-60.812751701873
 30
0.0
 40
3.00000002980232
  1
INTERR.
 41
0.916666689183977
 72
     1
 11
-256.319738775492
 21
-59.3127516869718
 31
0.0
 73
     2
  0
INSERT
  5
   2CF
  8
0
  6
CONTINUOUS
 62
     7
  2
*UDIM571
 10
0.0
 20
0.0
 30
0.0
  0
INSERT
  5
   2D0
  8
0
  6
CONTINUOUS
 62
     7
  2
*UDIM572
 10
0.0
 20
0.0
 30
0.0
  0
INSERT
  5
   2D1
  8
0
  6
CONTINUOUS
 62
     7
  2
*UDIM573
 10
0.0
 20
0.0
 30
0.0
  0
LINE
  5
   2D2
  8
0
  6
CONTINUOUS
 62
   130
 10
-183.886898044158
 20
28.118509297615
 30
0.0
 11
-183.886924747039
 21
30.1185226490554
 31
0.0
  0
LINE
  5
   2D3
  8
0
  6
CONTINUOUS
 62
   130
 10
-177.073963168526
 20
24.618507386534
 30
0.0
 11
-176.886924746896
 21
24.6185092938826
 31
0.0
  0
LINE
  5
   2D4
  8
0
  6
CONTINUOUS
 62
   130
 10
-183.886924747039
 20
22.6185112039832
 30
0.0
 11
-183.886898044158
 21
24.6185035745886
 31
0.0
  0
LINE
  5
   2D5
  8
0
  6
CONTINUOUS
 62
   130
 10
-181.38692855835
 20
22.6185111999514
 30
0.0
 11
-121.636962890625
 21
22.6185150146485
 31
0.0
  0
LINE
  5
   2D6
  8
0
  6
CONTINUOUS
 62
   130
 10
-118.136953243946
 20
22.6184521169444
 30
0.0
 11
-119.136955151295
 21
22.6185150594529
 31
0.0
  0
LINE
  5
   2D7
  8
0
  6
CONTINUOUS
 62
   130
 10
-96.3869361877441
 20
92.618522644043
 30
0.0
 11
-118.136960983276
 21
92.618522644043
 31
0.0
  0
LINE
  5
   2D8
  8
0
  6
CONTINUOUS
 62
   130
 10
-96.3869361873296
 20
22.6183891297334
 30
0.0
 11
-118.136953353467
 21
22.6184520722376
 31
0.0
  0
LINE
  5
   2D9
  8
0
  6
CONTINUOUS
 62
   130
 10
-96.3869361877441
 20
22.6183891296387
 30
0.0
 11
-96.3869361877441
 21
28.1184978485107
 31
0.0
  0
LINE
  5
   2DA
  8
0
  6
CONTINUOUS
 62
   130
 10
-138.636932373047
 20
76.6185302734375
 30
0.0
 11
-183.886924743652
 21
76.6185302734375
 31
0.0
  0
LINE
  5
   2DB
  8
0
  6
CONTINUOUS
 62
   130
 10
-138.636931419373
 20
61.6185073852539
 30
0.0
 11
-155.886942863464
 21
61.6185073852539
 31
0.0
  0
LINE
  5
   2DC
  8
0
  6
CONTINUOUS
 62
   130
 10
-183.886898040771
 20
24.6185035705566
 30
0.0
 11
-183.886898040771
 21
28.1185092926025
 31
0.0
  0
LINE
  5
   2DD
  8
0
  6
CONTINUOUS
 62
   130
 10
-118.136960983276
 20
92.618522644043
 30
0.0
 11
-183.886922836304
 21
92.618522644043
 31
0.0
  0
LINE
  5
   2DE
  8
0
  6
CONTINUOUS
 62
   130
 10
-183.886924743652
 20
76.6185302734375
 30
0.0
 11
-183.886924743652
 21
92.618522644043
 31
0.0
  0
LINE
  5
   2DF
  8
0
  6
CONTINUOUS
 62
   130
 10
-132.761961936866
 20
24.6185340881757
 30
0.0
 11
-120.136955261146
 21
24.6185569763588
 31
0.0
  0
LINE
  5
   2E0
  8
0
  6
CONTINUOUS
 62
   130
 10
-153.199431419368
 20
24.6185226440482
 30
0.0
 11
-134.761961936946
 21
24.6185340881395
 31
0.0
  0
LINE
  5
   2E1
  8
0
  6
CONTINUOUS
 62
   130
 10
-181.88687038422
 20
24.6185035705621
 30
0.0
 11
-155.199431419376
 21
24.6185207366994
 31
0.0
  0
LINE
  5
   2E2
  8
0
  6
CONTINUOUS
 62
   130
 10
-181.886867523197
 20
26.8685092926082
 30
0.0
 11
-155.199430465702
 21
26.8685264587458
 31
0.0
  0
LINE
  5
   2E3
  8
0
  6
CONTINUOUS
 62
   130
 10
-153.199430465694
 20
26.8685283660945
 30
0.0
 11
-134.761960983272
 21
26.8685398101858
 31
0.0
  0
LINE
  5
   2E4
  8
0
  6
CONTINUOUS
 62
   130
 10
-132.761960983267
 20
26.8685417175345
 30
0.0
 11
-120.136955261221
 21
26.8685493469287
 31
0.0
  0
LINE
  5
   2E5
  8
0
  6
CONTINUOUS
 62
   130
 10
-181.886871337942
 20
24.6185035706274
 30
0.0
 11
-181.886867523245
 21
26.8685092926733
 31
0.0
  0
LINE
  5
   2E6
  8
0
  6
CONTINUOUS
 62
   130
 10
-120.13695526123
 20
24.6185569763184
 30
0.0
 11
-120.13695526123
 21
26.8685493469238
 31
0.0
  0
LINE
  5
   2E7
  8
0
  6
CONTINUOUS
 62
   130
 10
-132.761961936946
 20
24.6185340881541
 30
0.0
 11
-132.761960029597
 21
26.8685512542918
 31
0.0
  0
LINE
  5
   2E8
  8
0
  6
CONTINUOUS
 62
   130
 10
-134.761961936947
 20
24.6185340881525
 30
0.0
 11
-134.761960029598
 21
26.8685493469415
 31
0.0
  0
LINE
  5
   2E9
  8
0
  6
CONTINUOUS
 62
   130
 10
-153.199431419375
 20
24.6185226440623
 30
0.0
 11
-153.199429512027
 21
26.8685359955027
 31
0.0
  0
LINE
  5
   2EA
  8
0
  6
CONTINUOUS
 62
   130
 10
-155.199431419376
 20
24.618520736712
 30
0.0
 11
-155.199429512027
 21
26.8685379028497
 31
0.0
  0
LINE
  5
   2EB
  8
0
  6
CONTINUOUS
 62
   130
 10
-167.886924743652
 20
20.6185150146484
 30
0.0
 11
-167.886924743652
 21
22.6185150146484
 31
0.0
  0
LINE
  5
   2EC
  8
0
  6
CONTINUOUS
 62
   130
 10
-165.886924743652
 20
20.6185150146484
 30
0.0
 11
-165.886924743652
 21
22.6185150146484
 31
0.0
  0
LINE
  5
   2ED
  8
0
  6
CONTINUOUS
 62
   130
 10
-165.886924743652
 20
20.6185150146484
 30
0.0
 11
-167.886924743652
 21
20.6185150146484
 31
0.0
  0
LINE
  5
   2EE
  8
0
  6
CONTINUOUS
 62
   130
 10
-126.011924743652
 20
20.6185417175293
 30
0.0
 11
-126.011924743652
 21
22.6185073852539
 31
0.0
  0
LINE
  5
   2EF
  8
0
  6
CONTINUOUS
 62
   130
 10
-124.011924743652
 20
20.6185417175293
 30
0.0
 11
-124.011924743652
 21
22.6185073852539
 31
0.0
  0
LINE
  5
   2F0
  8
0
  6
CONTINUOUS
 62
   130
 10
-124.011924743652
 20
20.6185417175293
 30
0.0
 11
-126.011924743652
 21
20.6185417175293
 31
0.0
  0
LINE
  5
   2F1
  8
0
  6
CONTINUOUS
 62
   130
 10
-181.386924743652
 20
20.2435150146484
 30
0.0
 11
-181.386924743652
 21
21.4935150146484
 31
0.0
  0
LINE
  5
   2F2
  8
0
  6
CONTINUOUS
 62
   130
 10
-183.886924743652
 20
20.2435150146484
 30
0.0
 11
-183.886924743652
 21
22.6185111999512
 31
0.0
  0
LINE
  5
   2F3
  8
0
  6
CONTINUOUS
 62
   130
 10
-181.386924743652
 20
20.2435150146484
 30
0.0
 11
-183.886924743652
 21
20.2435150146484
 31
0.0
  0
LINE
  5
   2F4
  8
0
  6
CONTINUOUS
 62
   130
 10
-181.386924743652
 20
21.4935150146484
 30
0.0
 11
-181.386924743652
 21
22.6185150146484
 31
0.0
  0
LINE
  5
   2F5
  8
0
  6
CONTINUOUS
 62
   130
 10
-121.63697052002
 20
20.2435150146484
 30
0.0
 11
-121.63697052002
 21
21.4935150146484
 31
0.0
  0
LINE
  5
   2F6
  8
0
  6
CONTINUOUS
 62
   130
 10
-119.13697052002
 20
20.2435150146484
 30
0.0
 11
-121.63697052002
 21
20.2435150146484
 31
0.0
  0
LINE
  5
   2F7
  8
0
  6
CONTINUOUS
 62
   130
 10
-119.136970519467
 20
20.243515015484
 30
0.0
 11
-119.136955260678
 21
22.618515015484
 31
0.0
  0
LINE
  5
   2F8
  8
0
  6
CONTINUOUS
 62
   130
 10
-121.636970519462
 20
21.493515015637
 30
0.0
 11
-121.636962890067
 21
22.6185073862424
 31
0.0
  0
LINE
  5
   2F9
  8
0
  6
CONTINUOUS
 62
   130
 10
-180.386930986924
 20
82.368539732489
 30
0.0
 11
-181.886931019875
 21
83.8685397654399
 31
0.0
  0
LINE
  5
   2FA
  8
0
  6
CONTINUOUS
 62
   130
 10
-183.886924743652
 20
30.118522644043
 30
0.0
 11
-183.886924743652
 21
61.6185188293457
 31
0.0
  0
LINE
  5
   2FB
  8
0
  6
CONTINUOUS
 62
   130
 10
-155.886943817139
 20
61.6185150146491
 30
0.0
 11
-183.886924743653
 21
61.6185188293463
 31
0.0
  0
LINE
  5
   2FC
  8
0
  6
CONTINUOUS
 62
   130
 10
-138.636931419373
 20
61.6185073852542
 30
0.0
 11
-138.636932373047
 21
76.6185302734377
 31
0.0
  0
LINE
  5
   2FD
  8
0
  6
CONTINUOUS
 62
   130
 10
-176.136924743652
 20
76.3685302734375
 30
0.0
 11
-176.136924743652
 21
76.6185302734375
 31
0.0
  0
LINE
  5
   2FE
  8
0
  6
CONTINUOUS
 62
   130
 10
-132.761960983267
 20
85.9935226440589
 30
0.0
 11
-120.136955261221
 21
85.9935302734532
 31
0.0
  0
LINE
  5
   2FF
  8
0
  6
CONTINUOUS
 62
   130
 10
-132.761960983276
 20
82.368522644043
 30
0.0
 11
-132.761960983276
 21
85.993522644043
 31
0.0
  0
LINE
  5
   300
  8
0
  6
CONTINUOUS
 62
   130
 10
-132.761960983267
 20
82.3685226440583
 30
0.0
 11
-120.136955261221
 21
82.3685302734525
 31
0.0
  0
LINE
  5
   301
  8
0
  6
CONTINUOUS
 62
   130
 10
-120.13695526123
 20
82.3685302734375
 30
0.0
 11
-120.13695526123
 21
85.9935302734375
 31
0.0
  0
LINE
  5
   302
  8
0
  6
CONTINUOUS
 62
   130
 10
-155.199430465698
 20
82.3685302734375
 30
0.0
 11
-155.199430465698
 21
85.9935302734375
 31
0.0
  0
LINE
  5
   303
  8
0
  6
CONTINUOUS
 62
   130
 10
-134.761961936951
 20
82.3685302734375
 30
0.0
 11
-155.199431419373
 21
82.3685302734375
 31
0.0
  0
LINE
  5
   304
  8
0
  6
CONTINUOUS
 62
   130
 10
-134.761961936951
 20
82.3685302734375
 30
0.0
 11
-134.761961936951
 21
85.9935302734375
 31
0.0
  0
LINE
  5
   305
  8
0
  6
CONTINUOUS
 62
   130
 10
-134.761961936951
 20
85.9935302734375
 30
0.0
 11
-155.199431419373
 21
85.9935302734375
 31
0.0
  0
LINE
  5
   306
  8
0
  6
CONTINUOUS
 62
   130
 10
-157.199431419373
 20
82.3685302734375
 30
0.0
 11
-181.886923789978
 21
82.3685302734375
 31
0.0
  0
LINE
  5
   307
  8
0
  6
CONTINUOUS
 62
   130
 10
-157.199431419373
 20
82.3685302734375
 30
0.0
 11
-157.199431419373
 21
85.9935302734375
 31
0.0
  0
LINE
  5
   308
  8
0
  6
CONTINUOUS
 62
   130
 10
-157.199431419373
 20
85.9935302734375
 30
0.0
 11
-181.886923789978
 21
85.9935302734375
 31
0.0
  0
LINE
  5
   309
  8
0
  6
CONTINUOUS
 62
   130
 10
-181.886924743652
 20
82.3685302734375
 30
0.0
 11
-181.886924743652
 21
85.9935302734375
 31
0.0
  0
LINE
  5
   30A
  8
0
  6
CONTINUOUS
 62
   130
 10
-176.886924743652
 20
24.6185092926025
 30
0.0
 11
-176.886924743652
 21
26.8685207366943
 31
0.0
  0
LINE
  5
   30B
  8
0
  6
CONTINUOUS
 62
   130
 10
-174.886922836304
 20
24.6185092926025
 30
0.0
 11
-174.886922836304
 21
26.868522644043
 31
0.0
  0
LINE
  5
   30C
  8
0
  6
CONTINUOUS
 62
   130
 10
-181.886730194144
 20
24.618490219187
 30
0.0
 11
-181.886726379446
 21
26.8685092926733
 31
0.0
  0
LINE
  5
   30D
  8
0
  6
CONTINUOUS
 62
   130
 10
-183.886924744758
 20
22.6184844983867
 30
0.0
 11
-183.886920930061
 21
23.1185207380107
 31
0.0
  0
LINE
  5
   30E
  8
0
  6
CONTINUOUS
 62
   130
 10
-118.136959069467
 20
22.6184520747767
 30
0.0
 11
-119.136955254769
 21
22.6184673335657
 31
0.0
  0
LINE
  5
   30F
  8
0
  6
CONTINUOUS
 62
   130
 10
-96.3869361877441
 20
28.1184978485107
 30
0.0
 11
-96.3869361877441
 21
92.6185207366943
 31
0.0
  0
LINE
  5
   310
  8
0
  6
CONTINUOUS
 62
   130
 10
-147.886964082718
 20
35.8684997558594
 30
0.0
 11
-153.136964082718
 21
35.8684997558594
 31
0.0
  0
LINE
  5
   311
  8
0
  6
CONTINUOUS
 62
   130
 10
-153.136963844299
 20
32.1184997558599
 30
0.0
 11
-153.136964321137
 21
35.8684997558599
 31
0.0
  0
LINE
  5
   312
  8
0
  6
CONTINUOUS
 62
   130
 10
-147.886963844299
 20
29.6184997558594
 30
0.0
 11
-153.136963844299
 21
29.6184997558594
 31
0.0
  0
LINE
  5
   313
  8
0
  6
CONTINUOUS
 62
   130
 10
-147.886963844299
 20
29.6184997558594
 30
0.0
 11
-147.886963844299
 21
35.8684997558594
 31
0.0
  0
LINE
  5
   314
  8
0
  6
CONTINUOUS
 62
   130
 10
-159.386963844299
 20
29.6184997558594
 30
0.0
 11
-159.386963844299
 21
32.1184997558594
 31
0.0
  0
LINE
  5
   315
  8
0
  6
CONTINUOUS
 62
   130
 10
-153.136963844299
 20
29.6184997558594
 30
0.0
 11
-159.386963844299
 21
29.6184997558594
 31
0.0
  0
LINE
  5
   316
  8
0
  6
CONTINUOUS
 62
   130
 10
-153.136964797974
 20
29.6184997558594
 30
0.0
 11
-153.136964797974
 21
32.1184997558594
 31
0.0
  0
LINE
  5
   317
  8
0
  6
CONTINUOUS
 62
   130
 10
-153.136963844299
 20
32.1184997558594
 30
0.0
 11
-159.386963844299
 21
32.1184997558594
 31
0.0
  0
LINE
  5
   318
  8
0
  6
CONTINUOUS
 62
   130
 10
-147.886963844299
 20
46.8684997558594
 30
0.0
 11
-153.136963844299
 21
46.8684997558594
 31
0.0
  0
LINE
  5
   319
  8
0
  6
CONTINUOUS
 62
   130
 10
-153.136963844299
 20
50.6184997558594
 30
0.0
 11
-159.386963844299
 21
50.6184997558594
 31
0.0
  0
LINE
  5
   31A
  8
0
  6
CONTINUOUS
 62
   130
 10
-153.136963844299
 20
46.8684997558594
 30
0.0
 11
-153.136963844299
 21
50.6184997558594
 31
0.0
  0
LINE
  5
   31B
  8
0
  6
CONTINUOUS
 62
   130
 10
-154.886963844299
 20
50.6184997558594
 30
0.0
 11
-154.886963844299
 21
56.8684997558594
 31
0.0
  0
LINE
  5
   31C
  8
0
  6
CONTINUOUS
 62
   130
 10
-152.886963844299
 20
56.8684997558594
 30
0.0
 11
-154.886963844299
 21
56.8684997558594
 31
0.0
  0
LINE
  5
   31D
  8
0
  6
CONTINUOUS
 62
   130
 10
-152.886963844299
 20
56.8684997558594
 30
0.0
 11
-152.886963844299
 21
60.1184997558594
 31
0.0
  0
LINE
  5
   31E
  8
0
  6
CONTINUOUS
 62
   130
 10
-152.886963844299
 20
60.1184997558594
 30
0.0
 11
-159.386963844299
 21
60.1184997558594
 31
0.0
  0
LINE
  5
   31F
  8
0
  6
CONTINUOUS
 62
   130
 10
-159.386963844299
 20
50.6184997558594
 30
0.0
 11
-159.386963844299
 21
60.1184997558594
 31
0.0
  0
LINE
  5
   320
  8
0
  6
CONTINUOUS
 62
   130
 10
-159.386963844299
 20
32.1184997558594
 30
0.0
 11
-159.386963844299
 21
50.6184997558594
 31
0.0
  0
LINE
  5
   321
  8
0
  6
CONTINUOUS
 62
   130
 10
-147.886963844299
 20
35.8684997558594
 30
0.0
 11
-147.886963844299
 21
60.1184997558594
 31
0.0
  0
LINE
  5
   322
  8
0
  6
CONTINUOUS
 62
   130
 10
-147.886963844299
 20
60.1184997558594
 30
0.0
 11
-152.886963844299
 21
60.1184997558594
 31
0.0
  0
LINE
  5
   323
  8
0
  6
CONTINUOUS
 62
   130
 10
-132.735932350159
 20
24.6185245513916
 30
0.0
 11
-132.735932350159
 21
26.8685417175293
 31
0.0
  0
LINE
  5
   324
  8
0
  6
CONTINUOUS
 62
   130
 10
-134.762571334839
 20
24.618501663208
 30
0.0
 11
-134.762571334839
 21
26.8685398101807
 31
0.0
  0
LINE
  5
   325
  8
0
  6
CONTINUOUS
 62
   130
 10
-105.636936187158
 20
85.6184158331425
 30
0.0
 11
-107.636936187158
 21
85.618423462537
 31
0.0
  0
LINE
  5
   326
  8
0
  6
CONTINUOUS
 62
   130
 10
-108.136936187744
 20
84.1184234619141
 30
0.0
 11
-108.136936187744
 21
85.1184234619141
 31
0.0
  0
LINE
  5
   327
  8
0
  6
CONTINUOUS
 62
   130
 10
-105.636940001856
 20
83.6184158331279
 30
0.0
 11
-107.636940001856
 21
83.6184234625225
 31
0.0
  0
LINE
  5
   328
  8
0
  6
CONTINUOUS
 62
   130
 10
-105.283383273015
 20
83.764867226111
 30
0.0
 11
-105.280098818709
 21
83.7697805561886
 31
0.0
  0
LINE
  5
   329
  8
0
  6
CONTINUOUS
 62
   130
 10
-105.136936187744
 20
84.1184158325195
 30
0.0
 11
-105.136936187744
 21
85.1184158325195
 31
0.0
  0
LINE
  5
   32A
  8
0
  6
CONTINUOUS
 62
   130
 10
-161.38695526123
 20
43.9934997558594
 30
0.0
 11
-168.136924743652
 21
43.9934997558594
 31
0.0
  0
LINE
  5
   32B
  8
0
  6
CONTINUOUS
 62
   130
 10
-161.38695526123
 20
38.7434997558594
 30
0.0
 11
-168.136924743652
 21
38.7434997558594
 31
0.0
  0
LINE
  5
   32C
  8
0
  6
CONTINUOUS
 62
   130
 10
-168.136924743652
 20
38.7434997558594
 30
0.0
 11
-168.136924743652
 21
43.9934997558594
 31
0.0
  0
LINE
  5
   32D
  8
0
  6
CONTINUOUS
 62
   130
 10
-161.38695526123
 20
38.7434997558594
 30
0.0
 11
-161.38695526123
 21
43.9934997558594
 31
0.0
  0
LINE
  5
   32E
  8
0
  6
CONTINUOUS
 62
   130
 10
-109.886936187744
 20
27.1184272766113
 30
0.0
 11
-109.886936187744
 21
33.1184272766113
 31
0.0
  0
LINE
  5
   32F
  8
0
  6
CONTINUOUS
 62
   130
 10
-105.636936187369
 20
26.6184158326435
 30
0.0
 11
-109.386936187369
 21
26.6184272767355
 31
0.0
  0
LINE
  5
   330
  8
0
  6
CONTINUOUS
 62
   130
 10
-105.136936187744
 20
27.1184158325195
 30
0.0
 11
-105.136936187744
 21
28.1184673309326
 31
0.0
  0
LINE
  5
   331
  8
0
  6
CONTINUOUS
 62
   130
 10
-105.636932373047
 20
28.6184196472168
 30
0.0
 11
-108.386936187744
 21
28.6184196472168
 31
0.0
  0
LINE
  5
   332
  8
0
  6
CONTINUOUS
 62
   130
 10
-108.886936187744
 20
29.1184196472168
 30
0.0
 11
-108.886936187744
 21
33.1184272766113
 31
0.0
  0
LINE
  5
   333
  8
0
  6
CONTINUOUS
 62
   130
 10
-105.636932371673
 20
28.6184196476971
 30
0.0
 11
-104.978614805755
 21
28.6184234623945
 31
0.0
  0
LINE
  5
   334
  8
0
  6
CONTINUOUS
 62
   130
 10
-108.608027595901
 20
33.3800087104751
 30
0.0
 11
-108.295249115375
 21
33.6184196648257
 31
0.0
  0
LINE
  5
   335
  8
0
  6
CONTINUOUS
 62
   130
 10
-108.886939785425
 20
33.1027302254962
 30
0.0
 11
-108.608035822015
 21
33.3800014903944
 31
0.0
  0
LINE
  5
   336
  8
0
  6
CONTINUOUS
 62
   210
 10
-145.886924743652
 20
76.3685302734375
 30
0.0
 11
-183.886924743652
 21
76.3685302734375
 31
0.0
  0
LINE
  5
   337
  8
0
  6
CONTINUOUS
 62
   210
 10
-145.886924606853
 20
61.6185073852539
 30
0.0
 11
-145.886924606853
 21
76.3685302734375
 31
0.0
  0
LINE
  5
   338
  8
0
  6
CONTINUOUS
 62
   210
 10
-183.886924743652
 20
61.6185188293457
 30
0.0
 11
-183.886924743652
 21
76.3685302734375
 31
0.0
  0
LINE
  5
   339
  8
0
  6
DASHDOT
 62
     7
 10
-94.3869323730469
 20
-11.3043752364126
 30
0.0
 11
-94.3869323730469
 21
119.976647146578
 31
0.0
  0
LINE
  5
   33A
  8
0
  6
DASHDOT
 62
     7
 10
-92.8869323730469
 20
-11.8508102931576
 30
0.0
 11
-92.8869323730469
 21
120.181560292858
 31
0.0
  0
LINE
  5
   33B
  8
0
  6
CONTINUOUS
 62
   218
 10
-95.1369323730469
 20
102.368530273438
 30
0.0
 11
-95.1369323730469
 21
114.868530273438
 31
0.0
  0
LINE
  5
   33C
  8
0
  6
CONTINUOUS
 62
   218
 10
-95.1369323730469
 20
-6.6314697265625
 30
0.0
 11
-95.1369323730469
 21
5.8685302734375
 31
0.0
  0
LINE
  5
   33D
  8
0
  6
CONTINUOUS
 62
   218
 10
-100.636932373047
 20
-9.38149261474609
 30
0.0
 11
-119.13695526123
 21
-9.38149261474609
 31
0.0
  0
LINE
  5
   33E
  8
0
  6
CONTINUOUS
 62
   218
 10
-100.636932373047
 20
117.618530273438
 30
0.0
 11
-119.13695526123
 21
117.618530273438
 31
0.0
  0
LINE
  5
   33F
  8
0
  6
CONTINUOUS
 62
   218
 10
-119.13695526123
 20
-0.381492376327515
 30
0.0
 11
-119.13695526123
 21
11.1185305118561
 31
0.0
  0
LINE
  5
   340
  8
0
  6
CONTINUOUS
 62
   218
 10
-119.13695526123
 20
97.1185302734375
 30
0.0
 11
-119.13695526123
 21
108.618530273438
 31
0.0
  0
LINE
  5
   341
  8
0
  6
CONTINUOUS
 62
   218
 10
-119.13695526123
 20
116.218528747559
 30
0.0
 11
-119.13695526123
 21
117.618530273438
 31
0.0
  0
LINE
  5
   342
  8
0
  6
CONTINUOUS
 62
   218
 10
-119.13695526123
 20
11.1185302734375
 30
0.0
 11
-119.13695526123
 21
20.2435150146484
 31
0.0
  0
LINE
  5
   343
  8
0
  6
CONTINUOUS
 62
   218
 10
-119.13695526123
 20
92.618522644043
 30
0.0
 11
-119.13695526123
 21
97.1185302734375
 31
0.0
  0
LINE
  5
   344
  8
0
  6
CONTINUOUS
 62
   218
 10
-100.636932373047
 20
116.218528747559
 30
0.0
 11
-100.636932373047
 21
117.618530273438
 31
0.0
  0
LINE
  5
   345
  8
0
  6
CONTINUOUS
 62
   218
 10
-100.636932373047
 20
92.618522644043
 30
0.0
 11
-100.636932373047
 21
108.618530273438
 31
0.0
  0
LINE
  5
   346
  8
0
  6
CONTINUOUS
 62
   218
 10
-100.636932373047
 20
-0.381492614746094
 30
0.0
 11
-100.636932373047
 21
22.6184005737305
 31
0.0
  0
LINE
  5
   347
  8
0
  6
CONTINUOUS
 62
   218
 10
-100.636932373047
 20
-9.38149261474609
 30
0.0
 11
-100.636932373047
 21
-7.98147106170654
 31
0.0
  0
LINE
  5
   348
  8
0
  6
CONTINUOUS
 62
   218
 10
-95.3869323730469
 20
45.8827629089356
 30
0.0
 11
-95.3869323730469
 21
50.8827629089356
 31
0.0
  0
LINE
  5
   349
  8
0
  6
CONTINUOUS
 62
   218
 10
-95.3870544433594
 20
45.8831520080566
 30
0.0
 11
-95.3870544433594
 21
50.8831520080566
 31
0.0
  0
LINE
  5
   34A
  8
0
  6
CONTINUOUS
 62
   218
 10
-107.211714346395
 20
82.6123442031548
 30
0.0
 11
-106.7451616097
 21
82.7188352920944
 31
0.0
  0
LINE
  5
   34B
  8
0
  6
CONTINUOUS
 62
   218
 10
-107.893432680144
 20
82.1428603534036
 30
0.0
 11
-107.382808739199
 21
82.5500716460082
 31
0.0
  0
LINE
  5
   34C
  8
0
  6
CONTINUOUS
 62
   218
 10
-108.184898070342
 20
81.5555350115043
 30
0.0
 11
-107.945411372526
 21
82.0528341996788
 31
0.0
  0
LINE
  5
   34D
  8
0
  6
CONTINUOUS
 62
   218
 10
-108.221214294434
 20
80.8874740600586
 30
0.0
 11
-108.221214294434
 21
81.3495712280274
 31
0.0
  0
LINE
  5
   34E
  8
0
  6
CONTINUOUS
 62
   218
 10
-107.945395821
 20
80.1842021909557
 30
0.0
 11
-108.184897772208
 21
80.6815318992245
 31
0.0
  0
LINE
  5
   34F
  8
0
  6
CONTINUOUS
 62
   218
 10
-107.382775706295
 20
79.6869605812337
 30
0.0
 11
-107.893449210297
 21
80.0942023936094
 31
0.0
  0
LINE
  5
   350
  8
0
  6
CONTINUOUS
 62
   218
 10
-106.745078905345
 20
79.5182115362281
 30
0.0
 11
-107.211830002022
 21
79.6247407720076
 31
0.0
  0
LINE
  5
   351
  8
0
  6
CONTINUOUS
 62
   218
 10
-95.3869323730469
 20
37.6185035705566
 30
0.0
 11
-96.3869361877441
 21
37.6185035705566
 31
0.0
  0
LINE
  5
   352
  8
0
  6
CONTINUOUS
 62
   218
 10
-95.3869323730469
 20
41.1184997558594
 30
0.0
 11
-96.3869361877441
 21
41.1184997558594
 31
0.0
  0
LINE
  5
   353
  8
0
  6
CONTINUOUS
 62
   218
 10
-95.3869323730469
 20
37.6185035705566
 30
0.0
 11
-95.3869323730469
 21
41.1184997558594
 31
0.0
  0
LINE
  5
   354
  8
0
  6
CONTINUOUS
 62
   218
 10
-100.636932373047
 20
116.218528747559
 30
0.0
 11
-119.13695526123
 21
116.218528747559
 31
0.0
  0
LINE
  5
   355
  8
0
  6
CONTINUOUS
 62
   218
 10
-119.13695526123
 20
108.618530273438
 30
0.0
 11
-119.13695526123
 21
116.218528747559
 31
0.0
  0
LINE
  5
   356
  8
0
  6
CONTINUOUS
 62
   218
 10
-100.636932373047
 20
108.618530273438
 30
0.0
 11
-100.636932373047
 21
116.218528747559
 31
0.0
  0
LINE
  5
   357
  8
0
  6
CONTINUOUS
 62
   218
 10
-100.636932373047
 20
-7.98146963119507
 30
0.0
 11
-119.13695526123
 21
-7.98146963119507
 31
0.0
  0
LINE
  5
   358
  8
0
  6
CONTINUOUS
 62
   218
 10
-119.13695526123
 20
-9.38149261474609
 30
0.0
 11
-119.13695526123
 21
-0.381492614746094
 31
0.0
  0
LINE
  5
   359
  8
0
  6
CONTINUOUS
 62
   218
 10
-100.636932373047
 20
-7.98146963119507
 30
0.0
 11
-100.636932373047
 21
-0.381492614746094
 31
0.0
  0
LINE
  5
   35A
  8
0
  6
CONTINUOUS
 62
    98
 10
-168.88695526123
 20
2.71852254867554
 30
0.0
 11
-169.88695526123
 21
2.71852254867554
 31
0.0
  0
LINE
  5
   35B
  8
0
  6
CONTINUOUS
 62
    98
 10
-168.88695526123
 20
22.2185230255127
 30
0.0
 11
-169.88695526123
 21
22.2185230255127
 31
0.0
  0
LINE
  5
   35C
  8
0
  6
CONTINUOUS
 62
    98
 10
-169.88695526123
 20
2.71852254867554
 30
0.0
 11
-169.88695526123
 21
22.2185225486755
 31
0.0
  0
LINE
  5
   35D
  8
0
  6
CONTINUOUS
 62
    98
 10
-168.88695526123
 20
2.71852254867554
 30
0.0
 11
-168.88695526123
 21
3.53551006317139
 31
0.0
  0
LINE
  5
   35E
  8
0
  6
CONTINUOUS
 62
    98
 10
-167.2369556427
 20
2.71852254867554
 30
0.0
 11
-167.386955261231
 21
2.71852254867554
 31
0.0
  0
LINE
  5
   35F
  8
0
  6
CONTINUOUS
 62
    98
 10
-168.88695526123
 20
3.53551006317139
 30
0.0
 11
-168.88695526123
 21
22.6185119980039
 31
0.0
  0
LINE
  5
   360
  8
0
  6
CONTINUOUS
 62
    98
 10
-169.261955623177
 20
22.2185232180475
 30
0.0
 11
-169.085178737159
 21
22.2917463321891
 31
0.0
  0
LINE
  5
   361
  8
0
  6
CONTINUOUS
 62
    98
 10
-169.085178566381
 20
22.2917465036865
 30
0.0
 11
-169.01195545224
 21
22.4685233897038
 31
0.0
  0
LINE
  5
   362
  8
0
  6
CONTINUOUS
 62
    98
 10
-169.01195526123
 20
22.4685230255127
 30
0.0
 11
-169.01195526123
 21
22.6153049468994
 31
0.0
  0
LINE
  5
   363
  8
0
  6
CONTINUOUS
 62
    98
 10
-170.036954879761
 20
2.71852254867554
 30
0.0
 11
-170.036954879761
 21
3.46852254867554
 31
0.0
  0
LINE
  5
   364
  8
0
  6
CONTINUOUS
 62
    98
 10
-169.88695526123
 20
2.71852254867554
 30
0.0
 11
-170.036954879761
 21
2.71852254867554
 31
0.0
  0
LINE
  5
   365
  8
0
  6
CONTINUOUS
 62
    98
 10
-169.88695526123
 20
3.46852254867554
 30
0.0
 11
-170.036954879761
 21
3.46852254867554
 31
0.0
  0
LINE
  5
   366
  8
0
  6
CONTINUOUS
 62
   218
 10
-120.13695526123
 20
-8.13147735595703
 30
0.0
 11
-167.236953735352
 21
-8.13147735595703
 31
0.0
  0
LINE
  5
   367
  8
0
  6
CONTINUOUS
 62
   218
 10
-120.13695526123
 20
-9.5314769744873
 30
0.0
 11
-168.636955261231
 21
-9.5314769744873
 31
0.0
  0
LINE
  5
   368
  8
0
  6
CONTINUOUS
 62
   218
 10
-119.13695526123
 20
7.4685230255127
 30
0.0
 11
-119.13695526123
 21
22.6184520721436
 31
0.0
  0
LINE
  5
   369
  8
0
  6
CONTINUOUS
 62
   218
 10
-168.636955261231
 20
-9.5314769744873
 30
0.0
 11
-168.636955261231
 21
2.4685230255127
 31
0.0
  0
LINE
  5
   36A
  8
0
  6
CONTINUOUS
 62
   218
 10
-167.2369556427
 20
4.46852254867554
 30
0.0
 11
-167.386955261231
 21
4.46852254867554
 31
0.0
  0
LINE
  5
   36B
  8
0
  6
CONTINUOUS
 62
   218
 10
-167.2369556427
 20
2.46852254867554
 30
0.0
 11
-168.636955261231
 21
2.46852254867554
 31
0.0
  0
LINE
  5
   36C
  8
0
  6
CONTINUOUS
 62
   218
 10
-167.2369556427
 20
-8.13147735595703
 30
0.0
 11
-167.2369556427
 21
4.4685230255127
 31
0.0
  0
LINE
  5
   36D
  8
0
  6
CONTINUOUS
 62
   218
 10
-167.2369556427
 20
4.46852254867554
 30
0.0
 11
-167.2369556427
 21
20.6185145378113
 31
0.0
  0
LINE
  5
   36E
  8
0
  6
CONTINUOUS
 62
   218
 10
-119.13695526123
 20
7.46852254867554
 30
0.0
 11
-120.13695526123
 21
7.46852254867554
 31
0.0
  0
LINE
  5
   36F
  8
0
  6
CONTINUOUS
 62
   218
 10
-167.2369556427
 20
1.96852266788483
 30
0.0
 11
-168.636955261231
 21
1.96852266788483
 31
0.0
  0
LINE
  5
   370
  8
0
  6
CONTINUOUS
 62
   218
 10
-120.13695526123
 20
7.46852254867554
 30
0.0
 11
-121.13695526123
 21
7.46852254867554
 31
0.0
  0
LINE
  5
   371
  8
0
  6
CONTINUOUS
 62
   218
 10
-120.13695526123
 20
4.96852254867554
 30
0.0
 11
-121.13695526123
 21
4.96852254867554
 31
0.0
  0
LINE
  5
   372
  8
0
  6
CONTINUOUS
 62
   218
 10
-121.13695526123
 20
4.96852254867554
 30
0.0
 11
-121.13695526123
 21
7.46852254867554
 31
0.0
  0
LINE
  5
   373
  8
0
  6
CONTINUOUS
 62
   212
 10
-167.386955261231
 20
2.71852254867554
 30
0.0
 11
-167.386955261231
 21
20.6185145378113
 31
0.0
  0
LINE
  5
   374
  8
0
  6
CONTINUOUS
 62
   212
 10
-167.63695526123
 20
2.71852254867554
 30
0.0
 11
-167.63695526123
 21
20.6185145378113
 31
0.0
  0
LINE
  5
   375
  8
0
  6
CONTINUOUS
 62
   212
 10
-167.386955261231
 20
2.71852254867554
 30
0.0
 11
-168.88695526123
 21
2.71852254867554
 31
0.0
  0
LINE
  5
   376
  8
0
  6
CONTINUOUS
 62
   212
 10
-167.2369556427
 20
4.21852254867554
 30
0.0
 11
-167.386955261231
 21
4.21852254867554
 31
0.0
  0
LINE
  5
   377
  8
0
  6
CONTINUOUS
 62
   212
 10
-167.2369556427
 20
3.21852254867554
 30
0.0
 11
-167.386955261231
 21
3.21852254867554
 31
0.0
  0
LINE
  5
   378
  8
0
  6
CONTINUOUS
 62
   212
 10
-168.319967296539
 20
2.46852256016671
 30
0.0
 11
-168.386955288095
 21
2.71852255826475
 31
0.0
  0
LINE
  5
   379
  8
0
  6
CONTINUOUS
 62
   212
 10
-168.319966280987
 20
2.46852260569367
 30
0.0
 11
-167.38695429619
 21
2.71852260379171
 31
0.0
  0
LINE
  5
   37A
  8
0
  6
CONTINUOUS
 62
    98
 10
-120.13695526123
 20
116.218521118164
 30
0.0
 11
-156.13695526123
 21
116.218521118164
 31
0.0
  0
LINE
  5
   37B
  8
0
  6
CONTINUOUS
 62
    98
 10
-120.13695526123
 20
117.618522644043
 30
0.0
 11
-156.13695526123
 21
117.618522644043
 31
0.0
  0
LINE
  5
   37C
  8
0
  6
CONTINUOUS
 62
    98
 10
-156.13695526123
 20
105.118522644043
 30
0.0
 11
-156.13695526123
 21
117.618522644043
 31
0.0
  0
LINE
  5
   37D
  8
0
  6
CONTINUOUS
 62
    98
 10
-154.38695526123
 20
105.118522644043
 30
0.0
 11
-156.13695526123
 21
105.118522644043
 31
0.0
  0
LINE
  5
   37E
  8
0
  6
CONTINUOUS
 62
    98
 10
-154.38695526123
 20
101.118522644043
 30
0.0
 11
-154.436955928803
 21
101.118522644043
 31
0.0
  0
LINE
  5
   37F
  8
0
  6
CONTINUOUS
 62
    98
 10
-154.38695526123
 20
96.368522644043
 30
0.0
 11
-154.38695526123
 21
105.118522644043
 31
0.0
  0
LINE
  5
   380
  8
0
  6
CONTINUOUS
 62
    98
 10
-120.13695526123
 20
97.368522644043
 30
0.0
 11
-122.136953353882
 21
97.368522644043
 31
0.0
  0
LINE
  5
   381
  8
0
  6
CONTINUOUS
 62
    98
 10
-120.13695526123
 20
103.368522644043
 30
0.0
 11
-122.136953353882
 21
103.368522644043
 31
0.0
  0
LINE
  5
   382
  8
0
  6
CONTINUOUS
 62
    98
 10
-122.136953353882
 20
97.368522644043
 30
0.0
 11
-122.136953353882
 21
103.368522644043
 31
0.0
  0
LINE
  5
   383
  8
0
  6
CONTINUOUS
 62
    98
 10
-154.386932373047
 20
92.618522644043
 30
0.0
 11
-154.386932373047
 21
96.368522644043
 31
0.0
  0
LINE
  5
   384
  8
0
  6
CONTINUOUS
 62
     7
 10
-168.636955261231
 20
105.615303039551
 30
0.0
 11
-168.636955261231
 21
117.615303039551
 31
0.0
  0
LINE
  5
   385
  8
0
  6
CONTINUOUS
 62
     7
 10
-168.38695526123
 20
105.615303039551
 30
0.0
 11
-168.636955261231
 21
105.615303039551
 31
0.0
  0
LINE
  5
   386
  8
0
  6
CONTINUOUS
 62
     7
 10
-168.38695526123
 20
105.365303039551
 30
0.0
 11
-168.38695526123
 21
105.615303039551
 31
0.0
  0
LINE
  5
   387
  8
0
  6
CONTINUOUS
 62
     7
 10
-156.13695526123
 20
104.865295410156
 30
0.0
 11
-156.13695526123
 21
105.118522644043
 31
0.0
  0
LINE
  5
   388
  8
0
  6
CONTINUOUS
 62
     7
 10
-156.13695526123
 20
117.615303039551
 30
0.0
 11
-168.636955261231
 21
117.615303039551
 31
0.0
  0
LINE
  5
   389
  8
0
  6
CONTINUOUS
 62
     7
 10
-154.436955928803
 20
104.865303039551
 30
0.0
 11
-156.13695526123
 21
104.865303039551
 31
0.0
  0
LINE
  5
   38A
  8
0
  6
CONTINUOUS
 62
     7
 10
-154.436955928803
 20
97.6153030395508
 30
0.0
 11
-154.436955928803
 21
104.865303039551
 31
0.0
  0
LINE
  5
   38B
  8
0
  6
CONTINUOUS
 62
     7
 10
-167.2369556427
 20
101.240303039551
 30
0.0
 11
-167.386955261231
 21
101.240303039551
 31
0.0
  0
LINE
  5
   38C
  8
0
  6
CONTINUOUS
 62
     7
 10
-167.2369556427
 20
104.990303039551
 30
0.0
 11
-167.386955261231
 21
104.990303039551
 31
0.0
  0
LINE
  5
   38D
  8
0
  6
CONTINUOUS
 62
     7
 10
-154.436955928803
 20
92.618522644043
 30
0.0
 11
-154.436955928803
 21
97.6153030395508
 31
0.0
  0
LINE
  5
   38E
  8
0
  6
CONTINUOUS
 62
     7
 10
-167.2369556427
 20
92.618522644043
 30
0.0
 11
-167.2369556427
 21
105.365303039551
 31
0.0
  0
LINE
  5
   38F
  8
0
  6
CONTINUOUS
 62
     7
 10
-156.13695526123
 20
116.215309143066
 30
0.0
 11
-167.2369556427
 21
116.215309143066
 31
0.0
  0
LINE
  5
   390
  8
0
  6
CONTINUOUS
 62
     7
 10
-167.2369556427
 20
105.365303039551
 30
0.0
 11
-167.2369556427
 21
116.215309143066
 31
0.0
  0
LINE
  5
   391
  8
0
  6
CONTINUOUS
 62
   212
 10
-167.386955261231
 20
92.618522644043
 30
0.0
 11
-167.386955261231
 21
105.365303039551
 31
0.0
  0
LINE
  5
   392
  8
0
  6
CONTINUOUS
 62
   212
 10
-169.88695526123
 20
92.618522644043
 30
0.0
 11
-169.88695526123
 21
105.365303039551
 31
0.0
  0
LINE
  5
   393
  8
0
  6
CONTINUOUS
 62
   212
 10
-167.386955261231
 20
105.365303039551
 30
0.0
 11
-169.88695526123
 21
105.365303039551
 31
0.0
  0
LINE
  5
   394
  8
0
  6
CONTINUOUS
 62
   212
 10
-167.886924743652
 20
22.6153049468994
 30
0.0
 11
-168.38695526123
 21
22.6153049468994
 31
0.0
  0
LINE
  5
   395
  8
0
  6
CONTINUOUS
 62
   212
 10
-167.63695526123
 20
92.6185302734375
 30
0.0
 11
-167.63695526123
 21
105.365303039551
 31
0.0
  0
LINE
  5
   396
  8
0
  6
CONTINUOUS
 62
   212
 10
-168.38695526123
 20
22.6153049468994
 30
0.0
 11
-168.38695526123
 21
22.6185131072998
 31
0.0
  0
LINE
  5
   397
  8
0
  6
CONTINUOUS
 62
   130
 10
-180.386867523193
 20
24.6185169219971
 30
0.0
 11
-180.386867523193
 21
26.8685188293457
 31
0.0
  0
LINE
  5
   398
  8
0
  6
CONTINUOUS
 62
   130
 10
-120.13695526123
 20
83.1185302734375
 30
0.0
 11
-132.761957168579
 21
83.1185302734375
 31
0.0
  0
LINE
  5
   399
  8
0
  6
CONTINUOUS
 62
   130
 10
-134.761957168579
 20
83.1185302734375
 30
0.0
 11
-155.199426651001
 21
83.1185302734375
 31
0.0
  0
LINE
  5
   39A
  8
0
  6
CONTINUOUS
 62
   130
 10
-157.199426651001
 20
83.1185302734375
 30
0.0
 11
-180.386924743652
 21
83.1185302734375
 31
0.0
  0
LINE
  5
   39B
  8
0
  6
CONTINUOUS
 62
   130
 10
-180.761925436498
 20
82.7435374821373
 30
0.0
 11
-180.386925428261
 21
83.118537490375
 31
0.0
  0
LINE
  5
   39C
  8
0
  6
CONTINUOUS
 62
   130
 10
-180.386924743652
 20
83.1185302734375
 30
0.0
 11
-180.386924743652
 21
85.9935302734375
 31
0.0
  0
LINE
  5
   39D
  8
0
  6
CONTINUOUS
 62
   130
 10
-166.886924743652
 20
40.0559997558594
 30
0.0
 11
-166.886924743652
 21
40.6890983581543
 31
0.0
  0
LINE
  5
   39E
  8
0
  6
CONTINUOUS
 62
   130
 10
-166.886924743652
 20
40.6890983581543
 30
0.0
 11
-166.886924743652
 21
41.3684997558594
 31
0.0
  0
LINE
  5
   39F
  8
0
  6
CONTINUOUS
 62
   130
 10
-166.886924743652
 20
41.3684997558594
 30
0.0
 11
-166.886924743652
 21
42.0479011535645
 31
0.0
  0
LINE
  5
   3A0
  8
0
  6
CONTINUOUS
 62
   130
 10
-166.886924743652
 20
42.0479011535645
 30
0.0
 11
-166.886924743652
 21
42.6809997558594
 31
0.0
  0
LINE
  5
   3A1
  8
0
  6
CONTINUOUS
 62
   130
 10
-166.886924743652
 20
42.6809997558594
 30
0.0
 11
-166.886924743652
 21
43.2246551513672
 31
0.0
  0
LINE
  5
   3A2
  8
0
  6
CONTINUOUS
 62
   130
 10
-166.886924743652
 20
43.2246551513672
 30
0.0
 11
-166.886924743652
 21
43.6418151855469
 31
0.0
  0
LINE
  5
   3A3
  8
0
  6
CONTINUOUS
 62
   130
 10
-166.886924743652
 20
43.6418151855469
 30
0.0
 11
-166.886924743652
 21
43.9040565490723
 31
0.0
  0
LINE
  5
   3A4
  8
0
  6
CONTINUOUS
 62
   130
 10
-166.886924743652
 20
43.9040565490723
 30
0.0
 11
-166.886924743652
 21
43.9934997558594
 31
0.0
  0
LINE
  5
   3A5
  8
0
  6
CONTINUOUS
 62
   130
 10
-166.886924743652
 20
38.7434997558594
 30
0.0
 11
-166.886924743652
 21
38.8329429626465
 31
0.0
  0
LINE
  5
   3A6
  8
0
  6
CONTINUOUS
 62
   130
 10
-166.886924743652
 20
38.8329429626465
 30
0.0
 11
-166.886924743652
 21
39.0951843261719
 31
0.0
  0
LINE
  5
   3A7
  8
0
  6
CONTINUOUS
 62
   130
 10
-166.886924743652
 20
39.0951843261719
 30
0.0
 11
-166.886924743652
 21
39.5123443603516
 31
0.0
  0
LINE
  5
   3A8
  8
0
  6
CONTINUOUS
 62
   130
 10
-166.886924743652
 20
39.5123443603516
 30
0.0
 11
-166.886924743652
 21
40.0559997558594
 31
0.0
  0
LINE
  5
   3A9
  8
0
  6
CONTINUOUS
 62
   218
 10
-95.1369323730469
 20
114.868530273438
 30
0.0
 11
-100.636932373047
 21
114.868530273438
 31
0.0
  0
LINE
  5
   3AA
  8
0
  6
CONTINUOUS
 62
   218
 10
-100.13695526123
 20
102.368530273438
 30
0.0
 11
-100.636932373047
 21
102.368530273438
 31
0.0
  0
LINE
  5
   3AB
  8
0
  6
CONTINUOUS
 62
   218
 10
-95.1369323730469
 20
102.368530273438
 30
0.0
 11
-100.13695526123
 21
102.368530273438
 31
0.0
  0
LINE
  5
   3AC
  8
0
  6
CONTINUOUS
 62
   218
 10
-95.1369323730469
 20
-6.6314697265625
 30
0.0
 11
-100.636932373047
 21
-6.6314697265625
 31
0.0
  0
LINE
  5
   3AD
  8
0
  6
CONTINUOUS
 62
   218
 10
-95.1369323730469
 20
5.8685302734375
 30
0.0
 11
-100.13695526123
 21
5.8685302734375
 31
0.0
  0
LINE
  5
   3AE
  8
0
  6
CONTINUOUS
 62
   218
 10
-100.13695526123
 20
5.8685302734375
 30
0.0
 11
-100.636932373047
 21
5.8685302734375
 31
0.0
  0
LINE
  5
   3AF
  8
0
  6
CONTINUOUS
 62
   218
 10
-94.3869323730469
 20
91.6185302734375
 30
0.0
 11
-96.3869361877441
 21
91.6185302734375
 31
0.0
  0
LINE
  5
   3B0
  8
0
  6
CONTINUOUS
 62
   218
 10
-94.3869323730469
 20
84.1185302734375
 30
0.0
 11
-96.3869361877441
 21
84.1185302734375
 31
0.0
  0
LINE
  5
   3B1
  8
0
  6
CONTINUOUS
 62
   218
 10
-94.3869323730469
 20
16.6185302734375
 30
0.0
 11
-100.636932373047
 21
16.6185302734375
 31
0.0
  0
LINE
  5
   3B2
  8
0
  6
CONTINUOUS
 62
   218
 10
-94.3869323730469
 20
24.1185302734375
 30
0.0
 11
-96.3869361877441
 21
24.1185302734375
 31
0.0
  0
LINE
  5
   3B3
  8
0
  6
CONTINUOUS
 62
   218
 10
-95.3870544433594
 20
50.8831520080566
 30
0.0
 11
-96.3869361877441
 21
50.8831520080566
 31
0.0
  0
LINE
  5
   3B4
  8
0
  6
CONTINUOUS
 62
   218
 10
-95.3870544433594
 20
45.8831520080566
 30
0.0
 11
-96.3869361877441
 21
45.8831520080566
 31
0.0
  0
LINE
  5
   3B5
  8
0
  6
CONTINUOUS
 62
    98
 10
-169.26195526123
 20
2.7185230255127
 30
0.0
 11
-169.26195526123
 21
22.2185230255127
 31
0.0
  0
LINE
  5
   3B6
  8
0
  6
CONTINUOUS
 62
   218
 10
-167.2369556427
 20
-9.0314769744873
 30
0.0
 11
-168.636955261231
 21
-9.0314769744873
 31
0.0
  0
LINE
  5
   3B7
  8
0
  6
CONTINUOUS
 62
   212
 10
-169.26195526123
 20
92.618522644043
 30
0.0
 11
-169.26195526123
 21
105.365303039551
 31
0.0
  0
CIRCLE
  5
   3B8
  8
0
  6
CONTINUOUS
 62
   130
 10
-106.636952017393
 20
81.1185275498305
 30
0.0
 40
1.62499772626473
  0
ARC
  5
   3B9
  8
0
  6
CONTINUOUS
 62
   130
 10
-106.63694800052
 20
81.1184979204138
 30
0.0
 40
2.99997710732165
 50
359.999999948034
 51
422.757723115654
  0
ARC
  5
   3BA
  8
0
  6
CONTINUOUS
 62
   130
 10
-107.636959371735
 20
84.1183786199586
 30
0.0
 40
0.499953583549647
 50
179.995273411264
 51
270.002353795328
  0
ARC
  5
   3BB
  8
0
  6
CONTINUOUS
 62
   130
 10
-105.63694199445
 20
84.1184222129869
 30
0.0
 40
0.500007057108852
 50
270.000132215095
 51
359.999999948034
  0
ARC
  5
   3BC
  8
0
  6
CONTINUOUS
 62
   130
 10
-105.636920946367
 20
85.1184262808599
 30
0.0
 40
0.499977887839483
 50
359.999194017093
 51
450.001809883998
  0
ARC
  5
   3BD
  8
0
  6
CONTINUOUS
 62
   130
 10
-107.636957496398
 20
85.1184337199103
 30
0.0
 40
0.499976430547759
 50
449.997650242046
 51
540.001674218614
  0
ARC
  5
   3BE
  8
0
  6
CONTINUOUS
 62
   130
 10
-106.63694800052
 20
81.1184979204138
 30
0.0
 40
2.99997710732165
 50
117.241873175672
 51
359.999999948034
  0
CIRCLE
  5
   3BF
  8
0
  6
CONTINUOUS
 62
   130
 10
-177.886964704763
 20
54.1135014372566
 30
0.0
 40
1.37499953780398
  0
CIRCLE
  5
   3C0
  8
0
  6
CONTINUOUS
 62
   130
 10
-177.88697179326
 20
54.1134936201263
 30
0.0
 40
5.00000945011819
  0
ARC
  5
   3C1
  8
0
  6
CONTINUOUS
 62
   130
 10
-106.636925509822
 20
31.1184498486134
 30
0.0
 40
2.99996722376899
 50
303.557064642687
 51
483.557963367428
  0
CIRCLE
  5
   3C2
  8
0
  6
CONTINUOUS
 62
   130
 10
-106.636944195461
 20
31.1185361271267
 30
0.0
 40
1.62498301556586
  0
ARC
  5
   3C3
  8
0
  6
CONTINUOUS
 62
   130
 10
-109.386936453533
 20
33.118439037257
 30
0.0
 40
0.499990040800134
 50
359.998626616117
 51
540.001657214719
  0
ARC
  5
   3C4
  8
0
  6
CONTINUOUS
 62
   130
 10
-108.386941831751
 20
29.1184103444335
 30
0.0
 40
0.499990305217723
 50
179.9989840623
 51
270.000688279096
  0
ARC
  5
   3C5
  8
0
  6
CONTINUOUS
 62
   130
 10
-109.386936108409
 20
27.1184247711873
 30
0.0
 40
0.499998134852081
 50
179.999759231854
 51
269.999754489695
  0
ARC
  5
   3C6
  8
0
  6
CONTINUOUS
 62
   130
 10
-105.636938522929
 20
27.1184174791618
 30
0.0
 40
0.500003347821964
 50
270.000318962426
 51
359.999848372861
  0
ARC
  5
   3C7
  8
0
  6
CONTINUOUS
 62
   130
 10
-105.636941530596
 20
28.1184114280406
 30
0.0
 40
0.500007094926016
 50
360.006306851168
 51
449.998836668065
  0
LINE
  5
   3C8
  8
0
  6
DASHDOT
 62
     7
 10
-87.989593752403
 20
20.3685133432259
 30
0.0
 11
-95.9440032018683
 21
20.3685133432259
 31
0.0
  0
LINE
  5
   3C9
  8
0
  6
CONTINUOUS
 62
     7
 10
-90.1369323730469
 20
19.6185133432259
 30
0.0
 11
-90.1369323730469
 21
21.1185133432259
 31
0.0
  0
LINE
  5
   3CA
  8
0
  6
CONTINUOUS
 62
     7
 10
-92.6369323730469
 20
18.4435133432259
 30
0.0
 11
-92.6369323730469
 21
22.2935133432259
 31
0.0
  0
LINE
  5
   3CB
  8
0
  6
CONTINUOUS
 62
     7
 10
-91.0369323730469
 20
18.4435133432259
 30
0.0
 11
-91.0369323730469
 21
22.2935133432259
 31
0.0
  0
LINE
  5
   3CC
  8
0
  6
CONTINUOUS
 62
     7
 10
-91.0369323730469
 20
22.2935133432259
 30
0.0
 11
-92.8869323730469
 21
22.2935133432259
 31
0.0
  0
LINE
  5
   3CD
  8
0
  6
CONTINUOUS
 62
     7
 10
-91.0369323730469
 20
18.4435133432259
 30
0.0
 11
-92.8869323730469
 21
18.4435133432259
 31
0.0
  0
LINE
  5
   3CE
  8
0
  6
CONTINUOUS
 62
     7
 10
-90.3869323730469
 20
21.3685133432259
 30
0.0
 11
-91.0369323730469
 21
21.3685133432259
 31
0.0
  0
LINE
  5
   3CF
  8
0
  6
CONTINUOUS
 62
     7
 10
-90.3869323730469
 20
19.3685133432259
 30
0.0
 11
-91.0369323730469
 21
19.3685133432259
 31
0.0
  0
LINE
  5
   3D0
  8
0
  6
CONTINUOUS
 62
     7
 10
-90.3869323730469
 20
19.3685133432259
 30
0.0
 11
-90.3869323730469
 21
21.3685133432259
 31
0.0
  0
LINE
  5
   3D1
  8
0
  6
CONTINUOUS
 62
     7
 10
-90.3869323730469
 20
19.3685133432259
 30
0.0
 11
-90.1369323730469
 21
19.6185133432259
 31
0.0
  0
LINE
  5
   3D2
  8
0
  6
CONTINUOUS
 62
     7
 10
-90.1369323730469
 20
21.1185133432259
 30
0.0
 11
-90.3869323730469
 21
21.3685133432259
 31
0.0
  0
LINE
  5
   3D3
  8
0
  6
CONTINUOUS
 62
     7
 10
-90.3869323730469
 20
21.1685133432259
 30
0.0
 11
-92.6369323730469
 21
21.1685133432259
 31
0.0
  0
LINE
  5
   3D4
  8
0
  6
CONTINUOUS
 62
     7
 10
-90.3869323730469
 20
19.5685133432259
 30
0.0
 11
-92.6369323730469
 21
19.5685133432259
 31
0.0
  0
LINE
  5
   3D5
  8
0
  6
DASHDOT
 62
     7
 10
-87.989593752403
 20
87.8685133432259
 30
0.0
 11
-95.9440032018683
 21
87.8685133432259
 31
0.0
  0
LINE
  5
   3D6
  8
0
  6
CONTINUOUS
 62
     7
 10
-90.1369323730469
 20
87.1185133432259
 30
0.0
 11
-90.1369323730469
 21
88.6185133432259
 31
0.0
  0
LINE
  5
   3D7
  8
0
  6
CONTINUOUS
 62
     7
 10
-92.6369323730469
 20
85.9435133432259
 30
0.0
 11
-92.6369323730469
 21
89.7935133432259
 31
0.0
  0
LINE
  5
   3D8
  8
0
  6
CONTINUOUS
 62
     7
 10
-91.0369323730469
 20
85.9435133432259
 30
0.0
 11
-91.0369323730469
 21
89.7935133432259
 31
0.0
  0
LINE
  5
   3D9
  8
0
  6
CONTINUOUS
 62
     7
 10
-91.0369323730469
 20
89.7935133432259
 30
0.0
 11
-92.8869323730469
 21
89.7935133432259
 31
0.0
  0
LINE
  5
   3DA
  8
0
  6
CONTINUOUS
 62
     7
 10
-91.0369323730469
 20
85.9435133432259
 30
0.0
 11
-92.8869323730469
 21
85.9435133432259
 31
0.0
  0
LINE
  5
   3DB
  8
0
  6
CONTINUOUS
 62
     7
 10
-90.3869323730469
 20
88.8685133432259
 30
0.0
 11
-91.0369323730469
 21
88.8685133432259
 31
0.0
  0
LINE
  5
   3DC
  8
0
  6
CONTINUOUS
 62
     7
 10
-90.3869323730469
 20
86.8685133432259
 30
0.0
 11
-91.0369323730469
 21
86.8685133432259
 31
0.0
  0
LINE
  5
   3DD
  8
0
  6
CONTINUOUS
 62
     7
 10
-90.3869323730469
 20
86.8685133432259
 30
0.0
 11
-90.3869323730469
 21
88.8685133432259
 31
0.0
  0
LINE
  5
   3DE
  8
0
  6
CONTINUOUS
 62
     7
 10
-90.3869323730469
 20
86.8685133432259
 30
0.0
 11
-90.1369323730469
 21
87.1185133432259
 31
0.0
  0
LINE
  5
   3DF
  8
0
  6
CONTINUOUS
 62
     7
 10
-90.1369323730469
 20
88.6185133432259
 30
0.0
 11
-90.3869323730469
 21
88.8685133432259
 31
0.0
  0
LINE
  5
   3E0
  8
0
  6
CONTINUOUS
 62
     7
 10
-90.3869323730469
 20
88.6685133432259
 30
0.0
 11
-92.6369323730469
 21
88.6685133432259
 31
0.0
  0
LINE
  5
   3E1
  8
0
  6
CONTINUOUS
 62
     7
 10
-90.3869323730469
 20
87.0685133432259
 30
0.0
 11
-92.6369323730469
 21
87.0685133432259
 31
0.0
  0
LINE
  5
   3E2
  8
0
  6
CONTINUOUS
 62
     5
 10
-191.887183572195
 20
28.743407145248
 30
0.0
 11
-191.886348153485
 21
28.7435292155638
 31
0.0
  0
LINE
  5
   3E3
  8
0
  6
CONTINUOUS
 62
     5
 10
-192.886184206665
 20
28.7442891874537
 30
0.0
 11
-193.06439923486
 21
28.8160474556
 31
0.0
  0
LINE
  5
   3E4
  8
0
  6
CONTINUOUS
 62
     5
 10
-193.064397562205
 20
28.8160476040747
 30
0.0
 11
-193.136205424783
 21
28.9942778845863
 31
0.0
  0
LINE
  5
   3E5
  8
0
  6
CONTINUOUS
 62
     5
 10
-193.137059689197
 20
28.9932534967713
 30
0.0
 11
-193.136918545399
 21
28.9942777430005
 31
0.0
  0
LINE
  5
   3E6
  8
0
  6
CONTINUOUS
 62
     5
 10
-193.136310480584
 20
80.9929499100171
 30
0.0
 11
-193.06428518141
 21
81.1709894581954
 31
0.0
  0
LINE
  5
   3E7
  8
0
  6
CONTINUOUS
 62
     5
 10
-193.06428607349
 20
81.1709910454837
 30
0.0
 11
-192.953854403841
 21
81.2156306325575
 31
0.0
  0
LINE
  5
   3E8
  8
0
  6
CONTINUOUS
 62
     5
 10
-192.953527769961
 20
81.2157571595935
 30
0.0
 11
-192.886289917347
 21
81.2429330618731
 31
0.0
  0
LINE
  5
   3E9
  8
0
  6
CONTINUOUS
 62
     5
 10
-191.511918562275
 20
80.9935601315483
 30
0.0
 11
-191.688775557461
 21
81.1703408295045
 31
0.0
  0
LINE
  5
   3EA
  8
0
  6
CONTINUOUS
 62
     5
 10
-192.688765923896
 20
81.1703300264959
 30
0.0
 11
-192.953849239253
 21
81.21580884655
 31
0.0
  0
LINE
  5
   3EB
  8
0
  6
CONTINUOUS
 62
     5
 10
-192.953847676832
 20
28.77125778312
 30
0.0
 11
-192.688710961611
 21
28.8167499544299
 31
0.0
  0
LINE
  5
   3EC
  8
0
  6
CONTINUOUS
 62
     5
 10
-191.688720666132
 20
28.8167529301851
 30
0.0
 11
-191.511917077358
 21
28.9935298140345
 31
0.0
  0
LINE
  5
   3ED
  8
0
  6
CONTINUOUS
 62
     5
 10
-192.954568925677
 20
28.7705485891349
 30
0.0
 11
-192.95385557729
 21
28.7712600301999
 31
0.0
  0
LINE
  5
   3EE
  8
0
  6
CONTINUOUS
 62
     5
 10
-192.9538517296
 20
81.2158102039803
 30
0.0
 11
-192.954507857527
 21
81.2164663319068
 31
0.0
  0
LINE
  5
   3EF
  8
0
  6
CONTINUOUS
 62
     1
 10
-229.137001037603
 20
28.4870073982079
 30
0.0
 11
-229.137001037603
 21
28.7403106689535
 31
0.0
  0
LINE
  5
   3F0
  8
0
  6
CONTINUOUS
 62
     7
 10
-229.137001037603
 20
21.2370073982079
 30
0.0
 11
-230.137001037603
 21
21.2370073982079
 31
0.0
  0
LINE
  5
   3F1
  8
0
  6
DASHDOT
 62
     3
 10
-89.5119973281859
 20
54.9903106689535
 30
0.0
 11
-251.79214631604
 21
54.9903106689535
 31
0.0
  0
LINE
  5
   3F2
  8
0
  6
CONTINUOUS
 62
     7
 10
-183.886924743652
 20
81.2403106689535
 30
0.0
 11
-229.137001037603
 21
81.2403106689535
 31
0.0
  0
LINE
  5
   3F3
  8
0
  6
CONTINUOUS
 62
     7
 10
-183.886924743652
 20
28.7403106689535
 30
0.0
 11
-229.137001037603
 21
28.7403106689535
 31
0.0
  0
LINE
  5
   3F4
  8
0
  6
CONTINUOUS
 62
     7
 10
-231.887001037603
 20
28.7403259277426
 30
0.0
 11
-231.887001037603
 21
81.2403106689535
 31
0.0
  0
LINE
  5
   3F5
  8
0
  6
CONTINUOUS
 62
     7
 10
-231.887001037603
 20
74.7291846044696
 30
0.0
 11
-232.887001037603
 21
74.7291846044696
 31
0.0
  0
LINE
  5
   3F6
  8
0
  6
CONTINUOUS
 62
     7
 10
-231.887001037603
 20
52.2514178120392
 30
0.0
 11
-232.887001037603
 21
52.2514178120392
 31
0.0
  0
LINE
  5
   3F7
  8
0
  6
CONTINUOUS
 62
     7
 10
-232.887001037603
 20
52.2514178120392
 30
0.0
 11
-232.887001037603
 21
74.7291846044696
 31
0.0
  0
LINE
  5
   3F8
  8
0
  6
DASHDOT
 62
     7
 10
-177.886964704763
 20
47.4975813474563
 30
0.0
 11
-177.886964704763
 21
60.6941567477583
 31
0.0
  0
LINE
  5
   3F9
  8
0
  6
DASHDOT
 62
     7
 10
-171.788456366829
 20
54.1135014372566
 30
0.0
 11
-184.985031767131
 21
54.1135014372566
 31
0.0
  0
LINE
  5
   3FA
  8
0
  6
CONTINUOUS
 62
   218
 10
-120.13695526123
 20
-9.5314769744873
 30
0.0
 11
-120.13695526123
 21
4.96852254867554
 31
0.0
  0
LINE
  5
   3FB
  8
0
  6
CONTINUOUS
 62
    98
 10
-120.136956944185
 20
92.618522644043
 30
0.0
 11
-120.13695526123
 21
117.618522644043
 31
0.0
  0
LINE
  5
   3FC
  8
0
  6
CONTINUOUS
 62
   218
 10
-119.137008666998
 20
2.17642974859177
 30
0.0
 11
-120.13695526123
 21
2.17642974859177
 31
0.0
  0
LINE
  5
   3FD
  8
0
  6
CONTINUOUS
 62
   218
 10
-119.13695526123
 20
-2.11847734445632
 30
0.0
 11
-120.13695526123
 21
-2.11847734445632
 31
0.0
  0
LINE
  5
   3FE
  8
0
  6
CONTINUOUS
 62
    98
 10
-119.137008666998
 20
109.615270690992
 30
0.0
 11
-120.136955799995
 21
109.615270690992
 31
0.0
  0
LINE
  5
   3FF
  8
0
  6
CONTINUOUS
 62
    98
 10
-119.137008666998
 20
104.115270690992
 30
0.0
 11
-120.136956170245
 21
104.115270690992
 31
0.0
  0
LINE
  5
   400
  8
0
  6
CONTINUOUS
 62
     1
 10
-225.137001037603
 20
38.115318298348
 30
0.0
 11
-225.137001037603
 21
44.6152153015219
 31
0.0
  0
LINE
  5
   401
  8
0
  6
CONTINUOUS
 62
     1
 10
-230.137001037603
 20
14.7402162551962
 30
0.0
 11
-230.137001037603
 21
95.2402162551962
 31
0.0
  0
LINE
  5
   402
  8
0
  6
CONTINUOUS
 62
     1
 10
-230.137001037603
 20
14.7402162551962
 30
0.0
 11
-231.887001037603
 21
14.7402162551962
 31
0.0
  0
LINE
  5
   403
  8
0
  6
CONTINUOUS
 62
     1
 10
-231.887001037603
 20
14.7402162551962
 30
0.0
 11
-231.887001037603
 21
37.1152162551962
 31
0.0
  0
LINE
  5
   404
  8
0
  6
CONTINUOUS
 62
     1
 10
-231.887001037603
 20
45.6152153015219
 30
0.0
 11
-231.887001037603
 21
95.2402191162191
 31
0.0
  0
LINE
  5
   405
  8
0
  6
CONTINUOUS
 62
     1
 10
-230.137001037603
 20
95.2402191162191
 30
0.0
 11
-231.887001037603
 21
95.2402191162191
 31
0.0
  0
LINE
  5
   406
  8
0
  6
CONTINUOUS
 62
     1
 10
-229.137001037603
 20
85.9902343750082
 30
0.0
 11
-230.137001037603
 21
85.9902343750082
 31
0.0
  0
LINE
  5
   407
  8
0
  6
CONTINUOUS
 62
     1
 10
-229.137001037603
 20
56.4902191162191
 30
0.0
 11
-229.137001037603
 21
85.9902191162191
 31
0.0
  0
LINE
  5
   408
  8
0
  6
CONTINUOUS
 62
     1
 10
-229.137001037603
 20
44.6152191162191
 30
0.0
 11
-229.137001037603
 21
53.4902229309164
 31
0.0
  0
LINE
  5
   409
  8
0
  6
CONTINUOUS
 62
     1
 10
-229.137001037603
 20
23.9902210235678
 30
0.0
 11
-229.137001037603
 21
38.1152229309164
 31
0.0
  0
LINE
  5
   40A
  8
0
  6
CONTINUOUS
 62
     1
 10
-229.137001037603
 20
23.9902210235678
 30
0.0
 11
-230.137001037603
 21
23.9902210235678
 31
0.0
  0
LINE
  5
   40B
  8
0
  6
CONTINUOUS
 62
     1
 10
-229.137001037603
 20
85.9902191162191
 30
0.0
 11
-230.137001037603
 21
85.9902191162191
 31
0.0
  0
LINE
  5
   40C
  8
0
  6
CONTINUOUS
 62
     1
 10
-226.887001037603
 20
18.278892517098
 30
0.0
 11
-226.887001037603
 21
20.701541900643
 31
0.0
  0
LINE
  5
   40D
  8
0
  6
CONTINUOUS
 62
     1
 10
-226.887001037603
 20
89.278892517098
 30
0.0
 11
-226.887001037603
 21
91.7015457153402
 31
0.0
  0
LINE
  5
   40E
  8
0
  6
CONTINUOUS
 62
     1
 10
-226.887001037603
 20
53.778892517098
 30
0.0
 11
-226.887001037603
 21
56.201541900643
 31
0.0
  0
LINE
  5
   40F
  8
0
  6
CONTINUOUS
 62
     5
 10
-231.887146214068
 20
28.9900137838771
 30
0.0
 11
-231.887003162915
 21
28.9910494742022
 31
0.0
  0
LINE
  5
   410
  8
0
  6
CONTINUOUS
 62
     1
 10
-225.137001037603
 20
38.115318298348
 30
0.0
 11
-230.137001037603
 21
38.115318298348
 31
0.0
  0
LINE
  5
   411
  8
0
  6
CONTINUOUS
 62
     1
 10
-225.137001037603
 20
44.6152153015219
 30
0.0
 11
-230.137001037603
 21
44.6152153015219
 31
0.0
  0
LINE
  5
   412
  8
0
  6
CONTINUOUS
 62
     1
 10
-231.887001037603
 20
37.1152191162191
 30
0.0
 11
-231.887001037603
 21
45.6152191162191
 31
0.0
  0
LINE
  5
   413
  8
0
  6
CONTINUOUS
 62
     1
 10
-227.387001037603
 20
17.9902172088705
 30
0.0
 11
-230.137001037603
 21
17.9902172088705
 31
0.0
  0
LINE
  5
   414
  8
0
  6
CONTINUOUS
 62
     1
 10
-227.387001037603
 20
20.9902172088705
 30
0.0
 11
-230.137001037603
 21
20.9902172088705
 31
0.0
  0
LINE
  5
   415
  8
0
  6
CONTINUOUS
 62
     1
 10
-227.387001037603
 20
20.8760375976644
 30
0.0
 11
-227.387001037603
 21
20.9902172088705
 31
0.0
  0
LINE
  5
   416
  8
0
  6
CONTINUOUS
 62
     1
 10
-227.387001037603
 20
20.5508785247885
 30
0.0
 11
-227.387001037603
 21
20.8760375976644
 31
0.0
  0
LINE
  5
   417
  8
0
  6
CONTINUOUS
 62
     1
 10
-227.387001037603
 20
20.0642433166586
 30
0.0
 11
-227.387001037603
 21
20.5508785247885
 31
0.0
  0
LINE
  5
   418
  8
0
  6
CONTINUOUS
 62
     1
 10
-227.387001037603
 20
19.4902172088705
 30
0.0
 11
-227.387001037603
 21
20.0642433166586
 31
0.0
  0
LINE
  5
   419
  8
0
  6
CONTINUOUS
 62
     1
 10
-227.387001037603
 20
18.916193008431
 30
0.0
 11
-227.387001037603
 21
19.4902172088705
 31
0.0
  0
LINE
  5
   41A
  8
0
  6
CONTINUOUS
 62
     1
 10
-227.387001037603
 20
18.4295578003012
 30
0.0
 11
-227.387001037603
 21
18.916193008431
 31
0.0
  0
LINE
  5
   41B
  8
0
  6
CONTINUOUS
 62
     1
 10
-227.387001037603
 20
18.1043987274252
 30
0.0
 11
-227.387001037603
 21
18.4295578003012
 31
0.0
  0
LINE
  5
   41C
  8
0
  6
CONTINUOUS
 62
     1
 10
-227.387001037603
 20
17.9902172088705
 30
0.0
 11
-227.387001037603
 21
18.1043987274252
 31
0.0
  0
LINE
  5
   41D
  8
0
  6
CONTINUOUS
 62
     1
 10
-227.387000438299
 20
17.9902167959197
 30
0.0
 11
-226.887000421835
 21
18.2788920881763
 31
0.0
  0
LINE
  5
   41E
  8
0
  6
CONTINUOUS
 62
     1
 10
-226.886999961088
 20
20.7015409995051
 30
0.0
 11
-227.386999977553
 21
20.9902162917617
 31
0.0
  0
LINE
  5
   41F
  8
0
  6
CONTINUOUS
 62
     1
 10
-227.387001037603
 20
88.9902191162191
 30
0.0
 11
-230.137001037603
 21
88.9902191162191
 31
0.0
  0
LINE
  5
   420
  8
0
  6
CONTINUOUS
 62
     1
 10
-227.387001037603
 20
91.9902191162191
 30
0.0
 11
-230.137001037603
 21
91.9902191162191
 31
0.0
  0
LINE
  5
   421
  8
0
  6
CONTINUOUS
 62
     1
 10
-227.387001037603
 20
91.8760375976644
 30
0.0
 11
-227.387001037603
 21
91.9902191162191
 31
0.0
  0
LINE
  5
   422
  8
0
  6
CONTINUOUS
 62
     1
 10
-227.387001037603
 20
91.5508804321371
 30
0.0
 11
-227.387001037603
 21
91.8760375976644
 31
0.0
  0
LINE
  5
   423
  8
0
  6
CONTINUOUS
 62
     1
 10
-227.387001037603
 20
91.0642395019613
 30
0.0
 11
-227.387001037603
 21
91.5508804321371
 31
0.0
  0
LINE
  5
   424
  8
0
  6
CONTINUOUS
 62
     1
 10
-227.387001037603
 20
90.4902191162191
 30
0.0
 11
-227.387001037603
 21
91.0642395019613
 31
0.0
  0
LINE
  5
   425
  8
0
  6
CONTINUOUS
 62
     1
 10
-227.387001037603
 20
89.9161911010824
 30
0.0
 11
-227.387001037603
 21
90.4902191162191
 31
0.0
  0
LINE
  5
   426
  8
0
  6
CONTINUOUS
 62
     1
 10
-227.387001037603
 20
89.4295578003012
 30
0.0
 11
-227.387001037603
 21
89.9161911010824
 31
0.0
  0
LINE
  5
   427
  8
0
  6
CONTINUOUS
 62
     1
 10
-227.387001037603
 20
89.1044006347738
 30
0.0
 11
-227.387001037603
 21
89.4295578003012
 31
0.0
  0
LINE
  5
   428
  8
0
  6
CONTINUOUS
 62
     1
 10
-227.387001037603
 20
88.9902191162191
 30
0.0
 11
-227.387001037603
 21
89.1044006347738
 31
0.0
  0
LINE
  5
   429
  8
0
  6
CONTINUOUS
 62
     1
 10
-227.38700112831
 20
88.9902180436523
 30
0.0
 11
-226.887001111847
 21
89.2788914481505
 31
0.0
  0
LINE
  5
   42A
  8
0
  6
CONTINUOUS
 62
     1
 10
-226.887000302682
 20
91.7015444484265
 30
0.0
 11
-227.387000319145
 21
91.9902178529247
 31
0.0
  0
LINE
  5
   42B
  8
0
  6
CONTINUOUS
 62
     1
 10
-227.387001037603
 20
53.4902191162191
 30
0.0
 11
-230.137001037603
 21
53.4902191162191
 31
0.0
  0
LINE
  5
   42C
  8
0
  6
CONTINUOUS
 62
     1
 10
-227.387001037603
 20
56.4902191162191
 30
0.0
 11
-230.137001037603
 21
56.4902191162191
 31
0.0
  0
LINE
  5
   42D
  8
0
  6
CONTINUOUS
 62
     1
 10
-227.387001037603
 20
56.3760375976644
 30
0.0
 11
-227.387001037603
 21
56.4902191162191
 31
0.0
  0
LINE
  5
   42E
  8
0
  6
CONTINUOUS
 62
     1
 10
-227.387001037603
 20
56.0508766174398
 30
0.0
 11
-227.387001037603
 21
56.3760375976644
 31
0.0
  0
LINE
  5
   42F
  8
0
  6
CONTINUOUS
 62
     1
 10
-227.387001037603
 20
55.5642433166586
 30
0.0
 11
-227.387001037603
 21
56.0508766174398
 31
0.0
  0
LINE
  5
   430
  8
0
  6
CONTINUOUS
 62
     1
 10
-227.387001037603
 20
54.9902191162191
 30
0.0
 11
-227.387001037603
 21
55.5642433166586
 31
0.0
  0
LINE
  5
   431
  8
0
  6
CONTINUOUS
 62
     1
 10
-227.387001037603
 20
54.4161911010824
 30
0.0
 11
-227.387001037603
 21
54.9902191162191
 31
0.0
  0
LINE
  5
   432
  8
0
  6
CONTINUOUS
 62
     1
 10
-227.387001037603
 20
53.9295578003012
 30
0.0
 11
-227.387001037603
 21
54.4161911010824
 31
0.0
  0
LINE
  5
   433
  8
0
  6
CONTINUOUS
 62
     1
 10
-227.387001037603
 20
53.6043968200766
 30
0.0
 11
-227.387001037603
 21
53.9295578003012
 31
0.0
  0
LINE
  5
   434
  8
0
  6
CONTINUOUS
 62
     1
 10
-227.387001037603
 20
53.4902191162191
 30
0.0
 11
-227.387001037603
 21
53.6043968200766
 31
0.0
  0
LINE
  5
   435
  8
0
  6
CONTINUOUS
 62
     1
 10
-227.387000969595
 20
53.4902185018241
 30
0.0
 11
-226.887000953131
 21
53.7788919063223
 31
0.0
  0
LINE
  5
   436
  8
0
  6
CONTINUOUS
 62
     1
 10
-226.887000237804
 20
56.2015407750491
 30
0.0
 11
-227.387000254267
 21
56.4902179894815
 31
0.0
  0
LINE
  5
   437
  8
0
  6
CONTINUOUS
 62
     7
 10
-229.137001037603
 20
85.9902191162191
 30
0.0
 11
-229.137001037603
 21
88.9902191162191
 31
0.0
  0
LINE
  5
   438
  8
0
  6
CONTINUOUS
 62
     7
 10
-230.137001037603
 20
95.2402191162191
 30
0.0
 11
-230.137001037603
 21
128.985606552366
 31
0.0
  0
LINE
  5
   439
  8
0
  6
DASHDOT
 62
     7
 10
-225.5482193233
 20
127.038850673571
 30
0.0
 11
-232.720196428218
 21
130.081507627172
 31
0.0
  0
LINE
  5
   43A
  8
0
  6
DASHDOT
 62
     7
 10
-232.647752215037
 20
-7.63494162988565
 30
0.0
 11
-225.837996176024
 21
-5.461615234456
 31
0.0
  0
LINE
  5
   43B
  8
0
  6
CONTINUOUS
 62
     7
 10
-229.137001037603
 20
92.2402191162191
 30
0.0
 11
-230.137001037603
 21
92.2402191162191
 31
0.0
  0
LINE
  5
   43C
  8
0
  6
CONTINUOUS
 62
     7
 10
-229.137001037603
 20
88.7402191162191
 30
0.0
 11
-230.137001037603
 21
88.7402191162191
 31
0.0
  0
LINE
  5
   43D
  8
0
  6
CONTINUOUS
 62
     7
 10
-229.137001037603
 20
86.4902191162191
 30
0.0
 11
-230.137001037603
 21
86.4902191162191
 31
0.0
  0
LINE
  5
   43E
  8
0
  6
CONTINUOUS
 62
     7
 10
-229.137001037603
 20
56.7402191162191
 30
0.0
 11
-230.137001037603
 21
56.7402191162191
 31
0.0
  0
LINE
  5
   43F
  8
0
  6
CONTINUOUS
 62
     7
 10
-229.137001037603
 20
53.2402191162191
 30
0.0
 11
-230.137001037603
 21
53.2402191162191
 31
0.0
  0
LINE
  5
   440
  8
0
  6
CONTINUOUS
 62
     7
 10
-229.137001037603
 20
44.8652153015219
 30
0.0
 11
-230.137001037603
 21
44.8652153015219
 31
0.0
  0
LINE
  5
   441
  8
0
  6
CONTINUOUS
 62
     7
 10
-229.137001037603
 20
37.865318298348
 30
0.0
 11
-230.137001037603
 21
37.865318298348
 31
0.0
  0
LINE
  5
   442
  8
0
  6
CONTINUOUS
 62
     7
 10
-229.137001037603
 20
17.7402172088705
 30
0.0
 11
-230.137001037603
 21
17.7402172088705
 31
0.0
  0
LINE
  5
   443
  8
0
  6
CONTINUOUS
 62
     7
 10
-229.137001037603
 20
23.4902210235678
 30
0.0
 11
-230.137001037603
 21
23.4902210235678
 31
0.0
  0
LINE
  5
   444
  8
0
  6
CONTINUOUS
 62
     7
 10
-229.137001037603
 20
20.9902172088705
 30
0.0
 11
-229.137001037603
 21
23.9902210235678
 31
0.0
  0
LINE
  5
   445
  8
0
  6
CONTINUOUS
 62
     7
 10
-229.137001037603
 20
91.9902191162191
 30
0.0
 11
-229.137001037603
 21
128.561364128124
 31
0.0
  0
INSERT
  5
   446
  8
0
  6
CONTINUOUS
 62
     7
  2
*HATCH157
 10
-145.886917114258
 20
0.0
 30
0.0
 41
0.5
 42
0.5
 50
89.9999999480344
 43
0.5
  0
INSERT
  5
   447
  8
0
  6
CONTINUOUS
 62
     7
  2
*HATCH158
 10
-145.886917114258
 20
0.0
 30
0.0
 41
0.5
 42
0.5
 50
89.9999999480344
 43
0.5
  0
INSERT
  5
   448
  8
0
  6
CONTINUOUS
 62
     7
  2
*HATCH159
 10
-145.886917114258
 20
0.0
 30
0.0
 41
0.5
 42
0.5
 50
89.9999999480344
 43
0.5
  0
LINE
  5
   449
  8
0
  6
DOT
 62
     7
 10
-245.637001037603
 20
28.7402858734213
 30
0.0
 11
-245.637001037603
 21
81.2403106689535
 31
0.0
  0
LINE
  5
   44A
  8
0
  6
DOT
 62
     7
 10
-231.887001037603
 20
81.2403106689535
 30
0.0
 11
-245.637001037603
 21
81.2403106689535
 31
0.0
  0
LINE
  5
   44B
  8
0
  6
DOT
 62
     7
 10
-231.887001037603
 20
28.7402858734213
 30
0.0
 11
-245.637001037603
 21
28.7402858734213
 31
0.0
  0
LINE
  5
   44C
  8
0
  6
CONTINUOUS
 62
     7
 10
-229.137001037603
 20
-6.51448912644948
 30
0.0
 11
-229.137001037603
 21
17.9902172088705
 31
0.0
  0
LINE
  5
   44D
  8
0
  6
CONTINUOUS
 62
     7
 10
-230.137001037603
 20
-6.83363806261969
 30
0.0
 11
-230.137001037603
 21
14.7402162551962
 31
0.0
  0
INSERT
  5
   44E
  8
0
  6
CONTINUOUS
 62
     7
  2
*HATCH160
 10
-145.886917114258
 20
0.0
 30
0.0
 41
0.5
 42
0.5
 50
89.9999999480344
 43
0.5
  0
TEXT
  5
   44F
  8
0
  6
CONTINUOUS
 62
     7
 10
-229.199387449137
 20
153.891693134429
 30
0.0
 40
3.00000002980232
  1
ISOLATING DISTANCE
 50
359.999999948034
 41
0.916666689183977
 72
     1
 11
-204.72438660264
 21
155.391693127255
 31
0.0
 73
     2
  0
INSERT
  5
   450
  8
0
  6
CONTINUOUS
 62
     7
  2
*UDIM574
 10
0.0
 20
0.0
 30
0.0
  0
TEXT
  5
   451
  8
0
  6
CONTINUOUS
 62
     7
 10
-87.9806441380202
 20
53.613975523014
 30
0.0
 40
3.00000002980232
  1
X
 50
359.999999948034
 41
0.916666604744064
 72
     1
 11
-86.8806442022324
 21
55.113975536923
 31
0.0
 73
     2
  0
TEXT
  5
   452
  8
0
  6
CONTINUOUS
 62
     7
 10
-252.11133574049
 20
39.3590926663403
 30
0.0
 40
3.00000002980232
  1
=
 50
89.9999999480344
 41
0.916666689183977
 72
     1
 11
-253.611335754395
 21
40.4590927064419
 31
0.0
 73
     2
  0
INSERT
  5
   453
  8
0
  6
CONTINUOUS
 62
     7
  2
*UDIM575
 10
0.0
 20
0.0
 30
0.0
  0
INSERT
  5
   454
  8
0
  6
CONTINUOUS
 62
     7
  2
*UDIM576
 10
0.0
 20
0.0
 30
0.0
  0
INSERT
  5
   455
  8
0
  6
CONTINUOUS
 62
     7
  2
*UDIM577
 10
0.0
 20
0.0
 30
0.0
  0
TEXT
  5
   456
  8
0
  6
CONTINUOUS
 62
     7
 10
-251.423782349629
 20
70.3634414659266
 30
0.0
 40
3.00000002980232
  1
=
 50
89.9999999480344
 41
0.916666689183977
  0
INSERT
  5
   457
  8
0
  6
CONTINUOUS
 62
     7
  2
*UDIM578
 10
0.0
 20
0.0
 30
0.0
  0
INSERT
  5
   458
  8
0
  6
CONTINUOUS
 62
     7
  2
*UDIM579
 10
0.0
 20
0.0
 30
0.0
  0
INSERT
  5
   459
  8
0
  6
CONTINUOUS
 62
     7
  2
*UDIM580
 10
0.0
 20
0.0
 30
0.0
  0
TEXT
  5
   45A
  8
0
  6
CONTINUOUS
 62
     7
 10
-263.420761020344
 20
52.9607080677136
 30
0.0
 40
3.00000002980232
  1
X
 50
359.999999948034
 41
0.916666604744064
 72
     1
 11
-262.320761084556
 21
54.4607080816226
 31
0.0
 73
     2
  0
LINE
  5
   45B
  8
0
  6
CONTINUOUS
 62
     7
 10
51.0946426391602
 20
55.2878112792969
 30
0.0
 11
84.8446426391602
 21
55.2878112792969
 31
0.0
  0
LINE
  5
   45C
  8
0
  6
CONTINUOUS
 62
     7
 10
51.0946426391602
 20
86.7878112792969
 30
0.0
 11
84.8446426391602
 21
86.7878112792969
 31
0.0
  0
LINE
  5
   45D
  8
0
  6
CONTINUOUS
 62
     7
 10
84.8446426391602
 20
86.7878112792969
 30
0.0
 11
84.8446426391602
 21
66.2253112792969
 31
0.0
  0
LINE
  5
   45E
  8
0
  6
CONTINUOUS
 62
     7
 10
51.0946426391602
 20
86.7878112792969
 30
0.0
 11
51.0946426391602
 21
55.2878112792969
 31
0.0
  0
LINE
  5
   45F
  8
0
  6
DASHDOT
 62
     7
 10
80.3696560925651
 20
64.2253112792969
 30
0.0
 11
94.3499490386018
 21
64.2253112792969
 31
0.0
  0
LINE
  5
   460
  8
0
  6
CONTINUOUS
 62
     7
 10
84.8446426391602
 20
66.2253112792969
 30
0.0
 11
90.5946426391602
 21
66.2253112792969
 31
0.0
  0
LINE
  5
   461
  8
0
  6
CONTINUOUS
 62
     7
 10
84.8446426391602
 20
62.2253112792969
 30
0.0
 11
90.5946426391602
 21
62.2253112792969
 31
0.0
  0
ARC
  5
   462
  8
0
  6
CONTINUOUS
 62
     7
 10
90.5946426391602
 20
64.2253112792969
 30
0.0
 40
2.0
 50
269.999999844103
 51
449.999999844103
  0
LINE
  5
   463
  8
0
  6
CONTINUOUS
 62
     7
 10
84.8446426391602
 20
62.2253112792969
 30
0.0
 11
84.8446426391602
 21
55.2878112792969
 31
0.0
  0
LINE
  5
   464
  8
0
  6
DASHDOT
 62
     7
 10
69.0946426391602
 20
96.665302440152
 30
0.0
 11
69.0946426391602
 21
21.8655017225991
 31
0.0
  0
CIRCLE
  5
   465
  8
0
  6
CONTINUOUS
 62
     7
 10
58.0946426391602
 20
88.7878112792969
 30
0.0
 40
0.875
  0
CIRCLE
  5
   466
  8
0
  6
CONTINUOUS
 62
     7
 10
89.3446426391602
 20
88.7878112792969
 30
0.0
 40
1.0
  0
CIRCLE
  5
   467
  8
0
  6
CONTINUOUS
 62
     7
 10
89.3446426391602
 20
71.0378112792969
 30
0.0
 40
1.0
  0
CIRCLE
  5
   468
  8
0
  6
CONTINUOUS
 62
     7
 10
89.3446426391602
 20
53.2878112792969
 30
0.0
 40
0.875
  0
CIRCLE
  5
   469
  8
0
  6
CONTINUOUS
 62
     7
 10
58.0946426391602
 20
53.2878112792969
 30
0.0
 40
1.0
  0
LINE
  5
   46A
  8
0
  6
DASHDOT
 62
     7
 10
58.0946426391602
 20
90.4128112792969
 30
0.0
 11
58.0946426391602
 21
87.1628112792969
 31
0.0
  0
LINE
  5
   46B
  8
0
  6
DASHDOT
 62
     7
 10
56.4696426391602
 20
88.7878112792969
 30
0.0
 11
59.7196426391602
 21
88.7878112792969
 31
0.0
  0
LINE
  5
   46C
  8
0
  6
DASHDOT
 62
     7
 10
89.3446426391602
 20
90.4128112792969
 30
0.0
 11
89.3446426391602
 21
87.1628112792969
 31
0.0
  0
LINE
  5
   46D
  8
0
  6
DASHDOT
 62
     7
 10
87.7196426391602
 20
88.7878112792969
 30
0.0
 11
90.9696426391602
 21
88.7878112792969
 31
0.0
  0
LINE
  5
   46E
  8
0
  6
DASHDOT
 62
     7
 10
89.3446426391602
 20
72.6628112792969
 30
0.0
 11
89.3446426391602
 21
69.4128112792969
 31
0.0
  0
LINE
  5
   46F
  8
0
  6
DASHDOT
 62
     7
 10
87.7196426391602
 20
71.0378112792969
 30
0.0
 11
90.9696426391602
 21
71.0378112792969
 31
0.0
  0
LINE
  5
   470
  8
0
  6
DASHDOT
 62
     7
 10
89.3446426391602
 20
54.9128112792969
 30
0.0
 11
89.3446426391602
 21
51.6628112792969
 31
0.0
  0
LINE
  5
   471
  8
0
  6
DASHDOT
 62
     7
 10
87.7196426391602
 20
53.2878112792969
 30
0.0
 11
90.9696426391602
 21
53.2878112792969
 31
0.0
  0
LINE
  5
   472
  8
0
  6
DASHDOT
 62
     7
 10
58.0946426391602
 20
54.9128112792969
 30
0.0
 11
58.0946426391602
 21
51.6628112792969
 31
0.0
  0
LINE
  5
   473
  8
0
  6
DASHDOT
 62
     7
 10
56.4696426391602
 20
53.2878112792969
 30
0.0
 11
59.7196426391602
 21
53.2878112792969
 31
0.0
  0
LINE
  5
   474
  8
0
  6
CONTINUOUS
 62
     7
 10
45.1700835617671
 20
91.7878112792969
 30
0.0
 11
94.7571420370301
 21
91.7878112792969
 31
0.0
  0
LINE
  5
   475
  8
0
  6
CONTINUOUS
 62
     7
 10
44.5366722308787
 20
50.2878112792969
 30
0.0
 11
95.2095787019504
 21
50.2878112792969
 31
0.0
  0
LINE
  5
   476
  8
0
  6
CONTINUOUS
 62
     7
 10
94.3446426391602
 20
92.6178563268937
 30
0.0
 11
94.3446426391602
 21
49.3649111605146
 31
0.0
  0
LINE
  5
   477
  8
0
  6
CONTINUOUS
 62
     7
 10
46.0946426391602
 20
92.6178563268937
 30
0.0
 11
46.0946426391602
 21
48.7767434961182
 31
0.0
  0
LINE
  5
   478
  8
0
  6
DASHDOT
 62
     7
 10
41.6339178760166
 20
71.0378112792969
 30
0.0
 11
112.127756269903
 21
71.0378112792969
 31
0.0
  0
LINE
  5
   479
  8
0
  6
CONTINUOUS
 62
     7
 10
96.7300609023187
 20
86.5865263340149
 30
0.0
 11
96.7300609023187
 21
79.0274800683563
 31
0.0
  0
LINE
  5
   47A
  8
0
  6
CONTINUOUS
 62
     7
 10
99.9077491413853
 20
86.5865263340149
 30
0.0
 11
99.9077491413853
 21
79.0274800683563
 31
0.0
  0
LINE
  5
   47B
  8
0
  6
CONTINUOUS
 62
     7
 10
96.7300609023187
 20
86.5865263340149
 30
0.0
 11
99.9077491413853
 21
86.5865263340149
 31
0.0
  0
LINE
  5
   47C
  8
0
  6
CONTINUOUS
 62
     7
 10
96.7300609023187
 20
79.0274800683563
 30
0.0
 11
99.9077491413853
 21
79.0274800683563
 31
0.0
  0
LINE
  5
   47D
  8
0
  6
CONTINUOUS
 62
     7
 10
99.9077491413853
 20
63.0481424902375
 30
0.0
 11
99.9077491413853
 21
55.4890962245789
 31
0.0
  0
LINE
  5
   47E
  8
0
  6
CONTINUOUS
 62
     7
 10
96.7300609023187
 20
63.0481424902375
 30
0.0
 11
96.7300609023187
 21
55.4890962245789
 31
0.0
  0
LINE
  5
   47F
  8
0
  6
CONTINUOUS
 62
     7
 10
96.7300609023187
 20
63.0481424902375
 30
0.0
 11
99.9077491413853
 21
63.0481424902375
 31
0.0
  0
LINE
  5
   480
  8
0
  6
CONTINUOUS
 62
     7
 10
96.7300609023187
 20
55.4890962245789
 30
0.0
 11
99.9077491413853
 21
55.4890962245789
 31
0.0
  0
LINE
  5
   481
  8
0
  6
DASHDOT
 62
     7
 10
98.318905021852
 20
91.5937926501199
 30
0.0
 11
98.318905021852
 21
37.8138265434918
 31
0.0
  0
INSERT
  5
   482
  8
0
  6
CONTINUOUS
 62
     7
  2
*UDIM581
 10
0.0
 20
0.0
 30
0.0
  0
INSERT
  5
   483
  8
0
  6
CONTINUOUS
 62
     7
  2
*UDIM582
 10
0.0
 20
0.0
 30
0.0
  0
INSERT
  5
   484
  8
0
  6
CONTINUOUS
 62
     7
  2
*UDIM583
 10
0.0
 20
0.0
 30
0.0
  0
TEXT
  5
   485
  8
0
  6
CONTINUOUS
 62
     7
 10
-30.3996123414247
 20
-19.158370995614
 30
0.0
 40
3.00000002980232
  1
Y
 50
359.999999844103
 41
0.916666604744064
 72
     1
 11
-29.299612402916
 21
-17.6583709837003
 31
0.0
 73
     2
  0
TEXT
  5
   486
  8
0
  6
CONTINUOUS
 62
     7
 10
-26.8971938233583
 20
154.961326575187
 30
0.0
 40
3.00000002980232
  1
Y
 50
359.999999844103
 41
0.916666604744064
 72
     1
 11
-25.7971938848496
 21
156.4613265871
 31
0.0
 73
     2
  0
TEXT
  5
   487
  8
0
  6
CONTINUOUS
 62
     7
 10
122.952842765814
 20
60.409022459919
 30
0.0
 40
4.00000017881393
  1
=
 50
449.999999844103
 41
0.915624995566905
 72
     1
 11
120.952842680384
 21
61.874022513628
 31
0.0
 73
     2
  0
TEXT
  5
   488
  8
0
  6
CONTINUOUS
 62
     7
 10
122.511589103704
 20
79.5300427769966
 30
0.0
 40
4.00000017881393
  1
=
 50
449.999999844103
 41
0.915624995566905
 72
     1
 11
120.511589018274
 21
80.9950428307056
 31
0.0
 73
     2
  0
TEXT
  5
   489
  8
0
  6
CONTINUOUS
 62
     7
 10
26.0369950194152
 20
69.0982437222271
 30
0.0
 40
3.00000002980232
  1
X
 50
359.999999844103
 41
0.916666604744064
 72
     1
 11
27.1369949579239
 21
70.5982437341408
 31
0.0
 73
     2
  0
INSERT
  5
   48A
  8
0
  6
CONTINUOUS
 62
     7
  2
*UDIM584
 10
0.0
 20
0.0
 30
0.0
  0
TEXT
  5
   48B
  8
0
  6
CONTINUOUS
 62
     7
 10
43.5735140474872
 20
61.8473456550688
 30
0.0
 40
3.00000002980232
  1
=     =
 50
449.999999844103
 41
0.916666604744064
 72
     2
 11
43.5735140982508
 21
80.5473445732445
 31
0.0
  0
INSERT
  5
   48C
  8
0
  6
CONTINUOUS
 62
     7
  2
*UDIM585
 10
0.0
 20
0.0
 30
0.0
  0
INSERT
  5
   48D
  8
0
  6
CONTINUOUS
 62
     7
  2
*UDIM586
 10
0.0
 20
0.0
 30
0.0
  0
INSERT
  5
   48E
  8
0
  6
CONTINUOUS
 62
     7
  2
*UDIM587
 10
0.0
 20
0.0
 30
0.0
  0
INSERT
  5
   48F
  8
0
  6
CONTINUOUS
 62
     7
  2
*UDIM588
 10
0.0
 20
0.0
 30
0.0
  0
INSERT
  5
   490
  8
0
  6
CONTINUOUS
 62
     7
  2
*UDIM589
 10
0.0
 20
0.0
 30
0.0
  0
INSERT
  5
   491
  8
0
  6
CONTINUOUS
 62
     7
  2
*UDIM590
 10
0.0
 20
0.0
 30
0.0
  0
INSERT
  5
   492
  8
0
  6
CONTINUOUS
 62
     7
  2
*UDIM591
 10
0.0
 20
0.0
 30
0.0
  0
INSERT
  5
   493
  8
0
  6
CONTINUOUS
 62
     7
  2
*UDIM592
 10
0.0
 20
0.0
 30
0.0
  0
INSERT
  5
   494
  8
0
  6
CONTINUOUS
 62
     7
  2
*UDIM593
 10
0.0
 20
0.0
 30
0.0
  0
TEXT
  5
   495
  8
0
  6
CONTINUOUS
 62
     7
 10
68.1940214533579
 20
18.7767218852094
 30
0.0
 40
3.00000002980232
  1
Y
 50
359.999999844103
 41
0.916666604744064
 72
     2
 11
70.3940213222277
 21
18.7767218792344
 31
0.0
  0
TEXT
  5
   496
  8
0
  6
CONTINUOUS
 62
     7
 10
67.7962535519373
 20
122.177787711625
 30
0.0
 40
3.00000002980232
  1
Y
 50
359.999999844103
 41
0.916666604744064
 72
     2
 11
69.9962534208071
 21
122.17778770565
 31
0.0
  0
TEXT
  5
   497
  8
0
  6
CONTINUOUS
 62
     7
 10
121.596500505902
 20
70.3334885144284
 30
0.0
 40
3.00000002980232
  1
X
 50
359.999999844103
 41
0.916666604744064
 72
     2
 11
123.796500374771
 21
70.3334885084535
 31
0.0
  0
ENDSEC
  0
EOF
