  0
SECTION
  2
HEADER
  9
$ACADVER
  1
AC1009
  9
$DWGCODEPAGE
  3
iso8859-1
  9
$INSBASE
 10
0.0
 20
0.0
 30
0.0
  9
$EXTMIN
 10
1.0E20
 20
1.0E20
  9
$EXTMAX
 10
-1.0E20
 20
-1.0E20
  9
$LIMMIN
 10
0.0
 20
0.0
  9
$LIMMAX
 10
12.0
 20
9.0
  9
$ORTHOMODE
 70
     0
  9
$REGENMODE
 70
     1
  9
$FILLMODE
 70
     1
  9
$QTEXTMODE
 70
     0
  9
$MIRRTEXT
 70
     1
  9
$DRAGMODE
 70
     2
  9
$LTSCALE
 40
15.0
  9
$OSMODE
 70
     0
  9
$ATTMODE
 70
     1
  9
$TEXTSIZE
 40
0.2
  9
$TRACEWID
 40
0.05
  9
$TEXTSTYLE
  7
STANDARD
  9
$CLAYER
  8
0
  9
$CELTYPE
  6
DASHED
  9
$CECOLOR
 62
   256
  9
$DIMSCALE
 40
1.0
  9
$DIMASZ
 40
0.18
  9
$DIMEXO
 40
0.0625
  9
$DIMDLI
 40
0.38
  9
$DIMRND
 40
0.0
  9
$DIMDLE
 40
0.0
  9
$DIMEXE
 40
0.18
  9
$DIMTP
 40
0.0
  9
$DIMTM
 40
0.0
  9
$DIMTXT
 40
0.18
  9
$DIMCEN
 40
0.09
  9
$DIMTSZ
 40
0.0
  9
$DIMTOL
 70
     0
  9
$DIMLIM
 70
     0
  9
$DIMTIH
 70
     1
  9
$DIMTOH
 70
     1
  9
$DIMSE1
 70
     0
  9
$DIMSE2
 70
     0
  9
$DIMTAD
 70
     0
  9
$DIMZIN
 70
     0
  9
$DIMBLK
  1

  9
$DIMASO
 70
     1
  9
$DIMSHO
 70
     1
  9
$DIMPOST
  1

  9
$DIMAPOST
  1

  9
$DIMALT
 70
     0
  9
$DIMALTD
 70
     2
  9
$DIMALTF
 40
25.4
  9
$DIMLFAC
 40
1.0
  9
$DIMTOFL
 70
     0
  9
$DIMTVP
 40
0.0
  9
$DIMTIX
 70
     0
  9
$DIMSOXD
 70
     0
  9
$DIMSAH
 70
     0
  9
$DIMBLK1
  1

  9
$DIMBLK2
  1

  9
$DIMSTYLE
  2
STANDARD
  9
$DIMCLRD
 70
     0
  9
$DIMCLRE
 70
     0
  9
$DIMCLRT
 70
     0
  9
$DIMTFAC
 40
1.0
  9
$DIMGAP
 40
0.09
  9
$LUNITS
 70
     2
  9
$LUPREC
 70
     4
  9
$AXISMODE
 70
     0
  9
$AXISUNIT
 10
0.0
 20
0.0
  9
$SKETCHINC
 40
0.1
  9
$FILLETRAD
 40
0.0
  9
$AUNITS
 70
     0
  9
$AUPREC
 70
     0
  9
$MENU
  1
acad
  9
$ELEVATION
 40
0.0
  9
$PELEVATION
 40
0.0
  9
$THICKNESS
 40
0.0
  9
$LIMCHECK
 70
     0
  9
$BLIPMODE
 70
     1
  9
$CHAMFERA
 40
0.0
  9
$CHAMFERB
 40
0.0
  9
$SKPOLY
 70
     0
  9
$TDCREATE
 40
0.000000000
  9
$TDUPDATE
 40
0.000000000
  9
$TDINDWG
 40
0.0
  9
$TDUSRTIMER
 40
0.0
  9
$USRTIMER
 70
     1
  9
$ANGBASE
 50
0.0
  9
$ANGDIR
 70
     0
  9
$PDMODE
 70
     0
  9
$PDSIZE
 40
0.0
  9
$PLINEWID
 40
0.0
  9
$COORDS
 70
     1
  9
$SPLFRAME
 70
     0
  9
$SPLINETYPE
 70
     6
  9
$SPLINESEGS
 70
     8
  9
$ATTDIA
 70
     0
  9
$ATTREQ
 70
     1
  9
$HANDLING
 70
     1
  9
$HANDSEED
  5
   4F7
  9
$SURFTAB1
 70
     6
  9
$SURFTAB2
 70
     6
  9
$SURFTYPE
 70
     6
  9
$SURFU
 70
     6
  9
$SURFV
 70
     6
  9
$UCSNAME
  2

  9
$UCSORG
 10
0.0
 20
0.0
 30
0.0
  9
$UCSXDIR
 10
1.0
 20
0.0
 30
0.0
  9
$UCSYDIR
 10
0.0
 20
1.0
 30
0.0
  9
$PUCSNAME
  2

  9
$PUCSORG
 10
0.0
 20
0.0
 30
0.0
  9
$PUCSXDIR
 10
1.0
 20
0.0
 30
0.0
  9
$PUCSYDIR
 10
0.0
 20
1.0
 30
0.0
  9
$USERI1
 70
     0
  9
$USERI2
 70
     0
  9
$USERI3
 70
     0
  9
$USERI4
 70
     0
  9
$USERI5
 70
     0
  9
$USERR1
 40
0.0
  9
$USERR2
 40
0.0
  9
$USERR3
 40
0.0
  9
$USERR4
 40
0.0
  9
$USERR5
 40
0.0
  9
$WORLDVIEW
 70
     1
  9
$SHADEDGE
 70
     3
  9
$SHADEDIF
 70
    70
  9
$TILEMODE
 70
     1
  9
$MAXACTVP
 70
    16
  9
$PINSBASE
 10
0.0
 20
0.0
 30
0.0
  9
$PLIMCHECK
 70
     0
  9
$PEXTMIN
 10
1.0E20
 20
1.0E20
 30
1.0E20
  9
$PEXTMAX
 10
-1.0E20
 20
-1.0E20
 30
-1.0E20
  9
$PLIMMIN
 10
0.0
 20
0.0
  9
$PLIMMAX
 10
12.0
 20
9.0
  9
$UNITMODE
 70
     0
  9
$VISRETAIN
 70
     0
  0
ENDSEC
  0
SECTION
  2
TABLES
  0
TABLE
  2
VPORT
 70
     1
  0
VPORT
  2
*ACTIVE
 70
     0
 10
0.0
 20
0.0
 11
1.0
 21
1.0
 12
6.801242
 22
4.5
 13
0.0
 23
0.0
 14
1.0
 24
1.0
 15
0.0
 25
0.0
 16
0.0
 26
0.0
 36
1.0
 17
0.0
 27
0.0
 37
0.0
 40
9.0
 41
1.511387
 42
50.0
 43
0.0
 44
0.0
 50
0.0
 51
0.0
 71
     0
 72
   100
 73
     1
 74
     1
 75
     0
 76
     0
 77
     0
 78
     0
  0
ENDTAB
  0
TABLE
  2
LTYPE
 70
    41
  0
LTYPE
  2
BYBLOCK
 70
     0
  3

 72
    65
 73
     0
 40
0.0
  0
LTYPE
  2
BYLAYER
 70
     0
  3

 72
    65
 73
     0
 40
0.0
  0
LTYPE
  2
CONTINUOUS
 70
     0
  3
Solid line
 72
    65
 73
     0
 40
0.0
  0
LTYPE
  2
BORDER
 70
    64
  3
__ __ . __ __ . __ __ . __ __ . __ __ . __ __ .
 72
    65
 73
     6
 40
1.75
 49
0.5
 49
-0.25
 49
0.5
 49
-0.25
 49
0.0
 49
-0.25
  0
LTYPE
  2
BORDER2
 70
    64
  3
__.__.__.__.__.__.__.__.__.__.__.__.__.__.__.__
 72
    65
 73
     6
 40
0.875
 49
0.25
 49
-0.125
 49
0.25
 49
-0.125
 49
0.0
 49
-0.125
  0
LTYPE
  2
BORDERX2
 70
    64
  3
____  ____  .  ____  ____  .  ____  ____  .  __
 72
    65
 73
     6
 40
3.5
 49
1.0
 49
-0.5
 49
1.0
 49
-0.5
 49
0.0
 49
-0.5
  0
LTYPE
  2
CENTER
 70
    64
  3
____ _ ____ _ ____ _ ____ _ ____ _ ____ _ ____
 72
    65
 73
     4
 40
2.0
 49
1.25
 49
-0.25
 49
0.25
 49
-0.25
  0
LTYPE
  2
CENTER2
 70
    64
  3
___ _ ___ _ ___ _ ___ _ ___ _ ___ _ ___ _ ___ _
 72
    65
 73
     4
 40
1.125
 49
0.75
 49
-0.125
 49
0.125
 49
-0.125
  0
LTYPE
  2
CENTERX2
 70
    64
  3
________  __  ________  __  ________  __  _____
 72
    65
 73
     4
 40
4.0
 49
2.5
 49
-0.5
 49
0.5
 49
-0.5
  0
LTYPE
  2
DASHDOT
 70
    64
  3
__ . __ . __ . __ . __ . __ . __ . __ . __ . __
 72
    65
 73
     4
 40
1.0
 49
0.5
 49
-0.25
 49
0.0
 49
-0.25
  0
LTYPE
  2
DASHDOT2
 70
    64
  3
_._._._._._._._._._._._._._._._._._._._._._._._
 72
    65
 73
     4
 40
0.5
 49
0.25
 49
-0.125
 49
0.0
 49
-0.125
  0
LTYPE
  2
DASHDOTX2
 70
    64
  3
____  .  ____  .  ____  .  ____  .  ____  .  __
 72
    65
 73
     4
 40
2.0
 49
1.0
 49
-0.5
 49
0.0
 49
-0.5
  0
LTYPE
  2
DASHED
 70
    64
  3
__ __ __ __ __ __ __ __ __ __ __ __ __ __ __ __
 72
    65
 73
     2
 40
0.75
 49
0.5
 49
-0.25
  0
LTYPE
  2
DASHED2
 70
    64
  3
_ _ _ _ _ _ _ _ _ _ _ _ _ _ _ _ _ _ _ _ _ _ _ _
 72
    65
 73
     2
 40
0.375
 49
0.25
 49
-0.125
  0
LTYPE
  2
DASHEDX2
 70
    64
  3
____  ____  ____  ____  ____  ____  ____  ____
 72
    65
 73
     2
 40
1.5
 49
1.0
 49
-0.5
  0
LTYPE
  2
DIVIDE
 70
    64
  3
____ . . ____ . . ____ . . ____ . . ____ . . __
 72
    65
 73
     6
 40
1.25
 49
0.5
 49
-0.25
 49
0.0
 49
-0.25
 49
0.0
 49
-0.25
  0
LTYPE
  2
DIVIDE2
 70
    64
  3
__..__..__..__..__..__..__..__..__..__..__..__.
 72
    65
 73
     6
 40
0.625
 49
0.25
 49
-0.125
 49
0.0
 49
-0.125
 49
0.0
 49
-0.125
  0
LTYPE
  2
DIVIDEX2
 70
    64
  3
________  .  .  ________  .  .  ________  .  .
 72
    65
 73
     6
 40
2.5
 49
1.0
 49
-0.5
 49
0.0
 49
-0.5
 49
0.0
 49
-0.5
  0
LTYPE
  2
DOT
 70
    64
  3
. . . . . . . . . . . . . . . . . . . . . . . .
 72
    65
 73
     2
 40
0.25
 49
0.0
 49
-0.25
  0
LTYPE
  2
DOT2
 70
    64
  3
...............................................
 72
    65
 73
     2
 40
0.125
 49
0.0
 49
-0.125
  0
LTYPE
  2
DOTX2
 70
    64
  3
.  .  .  .  .  .  .  .  .  .  .  .  .  .  .  .
 72
    65
 73
     2
 40
0.5
 49
0.0
 49
-0.5
  0
LTYPE
  2
HIDDEN
 70
    64
  3
__ __ __ __ __ __ __ __ __ __ __ __ __ __ __ __
 72
    65
 73
     2
 40
0.375
 49
0.25
 49
-0.125
  0
LTYPE
  2
HIDDEN2
 70
    64
  3
_ _ _ _ _ _ _ _ _ _ _ _ _ _ _ _ _ _ _ _ _ _ _ _
 72
    65
 73
     2
 40
0.1875
 49
0.125
 49
-0.0625
  0
LTYPE
  2
HIDDENX2
 70
    64
  3
____ ____ ____ ____ ____ ____ ____ ____ ____ __
 72
    65
 73
     2
 40
0.75
 49
0.5
 49
-0.25
  0
LTYPE
  2
PHANTOM
 70
    64
  3
______  __  __  ______  __  __  ______  __  __
 72
    65
 73
     6
 40
2.5
 49
1.25
 49
-0.25
 49
0.25
 49
-0.25
 49
0.25
 49
-0.25
  0
LTYPE
  2
PHANTOM2
 70
    64
  3
___ _ _ ___ _ _ ___ _ _ ___ _ _ ___ _ _ ___ _ _
 72
    65
 73
     6
 40
1.25
 49
0.625
 49
-0.125
 49
0.125
 49
-0.125
 49
0.125
 49
-0.125
  0
LTYPE
  2
PHANTOMX2
 70
    64
  3
____________    ____    ____    ____________
 72
    65
 73
     6
 40
5.0
 49
2.5
 49
-0.5
 49
0.5
 49
-0.5
 49
0.5
 49
-0.5
  0
LTYPE
  2
ACAD_ISO02W100
 70
    64
  3
__ __ __ __ __ __ __ __ __ __ __ __ __ __ __ __
 72
    65
 73
     2
 40
15.0
 49
12.0
 49
-3.0
  0
LTYPE
  2
ACAD_ISO03W100
 70
    64
  3
__    __    __    __    __    __    __    __
 72
    65
 73
     2
 40
30.0
 49
12.0
 49
-18.0
  0
LTYPE
  2
ACAD_ISO04W100
 70
    64
  3
____ . ____ . ____ . ____ . ____ . ____ . ____
 72
    65
 73
     4
 40
30.5
 49
24.0
 49
-3.0
 49
0.5
 49
-3.0
  0
LTYPE
  2
ACAD_ISO05W100
 70
    64
  3
____ .. ____ .. ____ .. ____ .. ____ .. ____ ..
 72
    65
 73
     6
 40
34.0
 49
24.0
 49
-3.0
 49
0.5
 49
-3.0
 49
0.5
 49
-3.0
  0
LTYPE
  2
ACAD_ISO06W100
 70
    64
  3
____ ... ____ ... ____ ... ____ ... ____ ... __
 72
    65
 73
     8
 40
37.5
 49
24.0
 49
-3.0
 49
0.5
 49
-3.0
 49
0.5
 49
-3.0
 49
0.5
 49
-3.0
  0
LTYPE
  2
ACAD_ISO07W100
 70
    64
  3
. . . . . . . . . . . . . . . . . . . . . . . .
 72
    65
 73
     2
 40
3.5
 49
0.5
 49
-3.0
  0
LTYPE
  2
ACAD_ISO08W100
 70
    64
  3
____ __ ____ __ ____ __ ____ ____ __ __ ____ __
 72
    65
 73
     4
 40
36.0
 49
24.0
 49
-3.0
 49
6.0
 49
-3.0
  0
LTYPE
  2
ACAD_ISO09W100
 70
    64
  3
____ __ __ ____ __ __ ____ __ __ ____ __ __ ___
 72
    65
 73
     6
 40
45.0
 49
24.0
 49
-3.0
 49
6.0
 49
-3.0
 49
6.0
 49
-3.0
  0
LTYPE
  2
ACAD_ISO10W100
 70
    64
  3
__ . __ . __ . __ . __ . __ . __ . __ . __ . __
 72
    65
 73
     4
 40
18.5
 49
12.0
 49
-3.0
 49
0.5
 49
-3.0
  0
LTYPE
  2
ACAD_ISO11W100
 70
    64
  3
__ __ . __ __ . __ __ . __ __ . __ __ . __ __ .
 72
    65
 73
     6
 40
33.5
 49
12.0
 49
-3.0
 49
12.0
 49
-3.0
 49
0.5
 49
-3.0
  0
LTYPE
  2
ACAD_ISO12W100
 70
    64
  3
__ . . __ . . __ . . __ . . __ . . __ . . __ .
 72
    65
 73
     6
 40
22.0
 49
12.0
 49
-3.0
 49
0.5
 49
-3.0
 49
0.5
 49
-3.0
  0
LTYPE
  2
ACAD_ISO13W100
 70
    64
  3
__ __ . . __ __ . . __ __ . . __ __ . . __ __ .
 72
    65
 73
     8
 40
37.0
 49
12.0
 49
-3.0
 49
12.0
 49
-3.0
 49
0.5
 49
-3.0
 49
0.5
 49
-3.0
  0
LTYPE
  2
ACAD_ISO14W100
 70
    64
  3
__ . . . __ . . . __ . . . __ . . . __ . . . __
 72
    65
 73
     8
 40
25.5
 49
12.0
 49
-3.0
 49
0.5
 49
-3.0
 49
0.5
 49
-3.0
 49
0.5
 49
-3.0
  0
LTYPE
  2
ACAD_ISO15W100
 70
    64
  3
__ __ . . . __ __ . . . __ __ . . . __ __ . . .
 72
    65
 73
    10
 40
40.5
 49
12.0
 49
-3.0
 49
12.0
 49
-3.0
 49
0.5
 49
-3.0
 49
0.5
 49
-3.0
 49
0.5
 49
-3.0
  0
ENDTAB
  0
TABLE
  2
STYLE
 70
     4
  0
STYLE
  2
STANDARD
 70
    64
 40
0.0
 41
1.0
 50
0.0
 71
     0
 42
0.2
  3
txt
  4

  0
STYLE
  2
TOLERANCE
 70
    64
 40
0.0
 41
1.0
 50
0.0
 71
     0
 42
0.2
  3
../igesfont/iges1003.shx
  4

  0
STYLE
  2
ROMANS
 70
    64
 40
0.0
 41
1.0
 50
0.0
 71
     0
 42
0.2
  3
romans.shx
  4

  0
STYLE
  2
ROMANC
 70
    64
 40
0.0
 41
1.0
 50
0.0
 71
     0
 42
0.2
  3
romanc.shx
  4

  0
ENDTAB
  0
TABLE
  2
DIMSTYLE
 70
     2
  0
DIMSTYLE
  2
UNNAMED
 70
     0
  3

  4

  5

  6

  7

 40
1.0
 41
0.18
 42
0.0625
 43
0.38
 44
0.18
 45
0.0
 46
0.0
 47
0.0
 48
0.0
140
0.18
141
0.09
142
0.0
143
25.4
144
1.0
145
0.0
146
1.0
147
0.09
 71
     0
 72
     0
 73
     1
 74
     1
 75
     0
 76
     0
 77
     0
 78
     0
170
     0
171
     2
172
     0
173
     0
174
     0
175
     0
176
     0
177
     0
178
     0
  0
DIMSTYLE
  2
STANDARD
 70
     0
  3

  4

  5

  6

  7

 40
1.0
 41
0.18
 42
0.0625
 43
0.38
 44
0.18
 45
0.0
 46
0.0
 47
0.0
 48
0.0
140
0.18
141
0.09
142
0.0
143
25.4
144
1.0
145
0.0
146
1.0
147
0.09
 71
     0
 72
     0
 73
     1
 74
     1
 75
     0
 76
     0
 77
     0
 78
     0
170
     0
171
     2
172
     0
173
     0
174
     0
175
     0
176
     0
177
     0
178
     0
  0
ENDTAB
  0
TABLE
  2
LAYER
 70
     2
  0
LAYER
  2
0
 70
     0
 62
     7
  6
CONTINUOUS
  0
LAYER
  2
255
 70
     0
 62
     7
  6
CONTINUOUS
  0
ENDTAB
  0
ENDSEC
  0
SECTION
  2
BLOCKS
  0
BLOCK
  5
     B
  8
0
  6
CONTINUOUS
 62
    18
  2
*HATCH397
 70
    65
 10
0.0
 20
0.0
 30
0.0
  3
*HATCH397
  0
LINE
  5
     C
  8
0
  6
DOT2
 62
    10
 10
18.2260398864746
 20
-21.75
 30
0.0
 11
36.2260398864746
 21
-21.75
 31
0.0
  0
LINE
  5
     D
  8
0
  6
DOT2
 62
    10
 10
18.2260398864746
 20
-19.75
 30
0.0
 11
21.1800842285156
 21
-19.75
 31
0.0
  0
LINE
  5
     E
  8
0
  6
DOT2
 62
    10
 10
18.2260398864746
 20
-17.75
 30
0.0
 11
21.1800842285156
 21
-17.75
 31
0.0
  0
LINE
  5
     F
  8
0
  6
DOT2
 62
    10
 10
18.2260398864746
 20
-15.75
 30
0.0
 11
21.1800842285156
 21
-15.75
 31
0.0
  0
LINE
  5
    10
  8
0
  6
DOT2
 62
    10
 10
18.2260398864746
 20
-13.75
 30
0.0
 11
21.1800842285156
 21
-13.75
 31
0.0
  0
LINE
  5
    11
  8
0
  6
DOT2
 62
    10
 10
18.2260398864746
 20
-11.75
 30
0.0
 11
21.1800842285156
 21
-11.75
 31
0.0
  0
LINE
  5
    12
  8
0
  6
DOT2
 62
    10
 10
18.2260398864746
 20
-9.74999999999999
 30
0.0
 11
21.1800842285156
 21
-9.74999999999999
 31
0.0
  0
LINE
  5
    13
  8
0
  6
DOT2
 62
    10
 10
18.2260398864746
 20
-7.74999999999999
 30
0.0
 11
21.1800842285156
 21
-7.74999999999999
 31
0.0
  0
LINE
  5
    14
  8
0
  6
DOT2
 62
    10
 10
18.2260398864746
 20
-5.74999999999999
 30
0.0
 11
21.1800842285156
 21
-5.74999999999999
 31
0.0
  0
LINE
  5
    15
  8
0
  6
DOT2
 62
    10
 10
18.2260398864746
 20
-3.74999999999999
 30
0.0
 11
21.1800842285156
 21
-3.74999999999999
 31
0.0
  0
LINE
  5
    16
  8
0
  6
DOT2
 62
    10
 10
18.2260398864746
 20
-1.74999999999999
 30
0.0
 11
21.1800842285156
 21
-1.74999999999999
 31
0.0
  0
LINE
  5
    17
  8
0
  6
DOT2
 62
    10
 10
18.2260398864746
 20
0.250000000000011
 30
0.0
 11
21.1800842285156
 21
0.250000000000011
 31
0.0
  0
LINE
  5
    18
  8
0
  6
DOT2
 62
    10
 10
18.2260398864746
 20
2.25000000000001
 30
0.0
 11
21.1800842285156
 21
2.25000000000001
 31
0.0
  0
LINE
  5
    19
  8
0
  6
DOT2
 62
    10
 10
18.2260398864746
 20
4.25000000000001
 30
0.0
 11
21.1800842285156
 21
4.25000000000001
 31
0.0
  0
LINE
  5
    1A
  8
0
  6
DOT2
 62
    10
 10
18.2260398864746
 20
6.25000000000001
 30
0.0
 11
21.1800842285156
 21
6.25000000000001
 31
0.0
  0
LINE
  5
    1B
  8
0
  6
DOT2
 62
    10
 10
18.2260398864746
 20
8.25000000000001
 30
0.0
 11
21.1800842285156
 21
8.25000000000001
 31
0.0
  0
LINE
  5
    1C
  8
0
  6
DOT2
 62
    10
 10
18.2260398864746
 20
10.25
 30
0.0
 11
21.1800842285156
 21
10.25
 31
0.0
  0
LINE
  5
    1D
  8
0
  6
DOT2
 62
    10
 10
18.2260398864746
 20
12.25
 30
0.0
 11
21.1800842285156
 21
12.25
 31
0.0
  0
LINE
  5
    1E
  8
0
  6
DOT2
 62
    10
 10
18.2260398864746
 20
14.25
 30
0.0
 11
21.1800842285156
 21
14.25
 31
0.0
  0
LINE
  5
    1F
  8
0
  6
DOT2
 62
    10
 10
18.2260398864746
 20
16.25
 30
0.0
 11
21.1800842285156
 21
16.25
 31
0.0
  0
LINE
  5
    20
  8
0
  6
DOT2
 62
    10
 10
18.2260398864746
 20
18.25
 30
0.0
 11
21.1800842285156
 21
18.25
 31
0.0
  0
LINE
  5
    21
  8
0
  6
DOT2
 62
    10
 10
18.2260398864746
 20
20.25
 30
0.0
 11
21.1800842285156
 21
20.25
 31
0.0
  0
LINE
  5
    22
  8
0
  6
DOT2
 62
    10
 10
18.2260398864746
 20
22.25
 30
0.0
 11
36.2260398864746
 21
22.25
 31
0.0
  0
ENDBLK
  5
    23
  8
0
  6
CONTINUOUS
 62
    18
  0
BLOCK
  5
    24
  8
0
  6
CONTINUOUS
 62
     7
  2
*HATCH398
 70
    65
 10
0.0
 20
0.0
 30
0.0
  3
*HATCH398
  0
LINE
  5
    25
  8
0
  6
DOT2
 62
    10
 10
85.0557632446289
 20
-21.75
 30
0.0
 11
103.055763244629
 21
-21.75
 31
0.0
  0
LINE
  5
    26
  8
0
  6
DOT2
 62
    10
 10
100.319770812988
 20
-19.75
 30
0.0
 11
103.055763244629
 21
-19.75
 31
0.0
  0
LINE
  5
    27
  8
0
  6
DOT2
 62
    10
 10
100.319770812988
 20
-17.75
 30
0.0
 11
103.055763244629
 21
-17.75
 31
0.0
  0
LINE
  5
    28
  8
0
  6
DOT2
 62
    10
 10
100.319770812988
 20
-15.75
 30
0.0
 11
103.055763244629
 21
-15.75
 31
0.0
  0
LINE
  5
    29
  8
0
  6
DOT2
 62
    10
 10
100.319770812988
 20
-13.75
 30
0.0
 11
103.055763244629
 21
-13.75
 31
0.0
  0
LINE
  5
    2A
  8
0
  6
DOT2
 62
    10
 10
100.319770812988
 20
-11.75
 30
0.0
 11
103.055763244629
 21
-11.75
 31
0.0
  0
LINE
  5
    2B
  8
0
  6
DOT2
 62
    10
 10
100.319770812988
 20
-9.74999999999999
 30
0.0
 11
103.055763244629
 21
-9.74999999999999
 31
0.0
  0
LINE
  5
    2C
  8
0
  6
DOT2
 62
    10
 10
100.319770812988
 20
-7.74999999999999
 30
0.0
 11
103.055763244629
 21
-7.74999999999999
 31
0.0
  0
LINE
  5
    2D
  8
0
  6
DOT2
 62
    10
 10
100.319770812988
 20
-5.74999999999999
 30
0.0
 11
103.055763244629
 21
-5.74999999999999
 31
0.0
  0
LINE
  5
    2E
  8
0
  6
DOT2
 62
    10
 10
100.319770812988
 20
-3.74999999999999
 30
0.0
 11
103.055763244629
 21
-3.74999999999999
 31
0.0
  0
LINE
  5
    2F
  8
0
  6
DOT2
 62
    10
 10
100.319770812988
 20
-1.74999999999999
 30
0.0
 11
103.055763244629
 21
-1.74999999999999
 31
0.0
  0
LINE
  5
    30
  8
0
  6
DOT2
 62
    10
 10
100.319770812988
 20
0.250000000000014
 30
0.0
 11
103.055763244629
 21
0.250000000000014
 31
0.0
  0
LINE
  5
    31
  8
0
  6
DOT2
 62
    10
 10
100.319770812988
 20
2.25000000000001
 30
0.0
 11
103.055763244629
 21
2.25000000000001
 31
0.0
  0
LINE
  5
    32
  8
0
  6
DOT2
 62
    10
 10
100.319770812988
 20
4.25000000000001
 30
0.0
 11
103.055763244629
 21
4.25000000000001
 31
0.0
  0
LINE
  5
    33
  8
0
  6
DOT2
 62
    10
 10
100.319770812988
 20
6.25000000000001
 30
0.0
 11
103.055763244629
 21
6.25000000000001
 31
0.0
  0
LINE
  5
    34
  8
0
  6
DOT2
 62
    10
 10
100.319770812988
 20
8.25000000000001
 30
0.0
 11
103.055763244629
 21
8.25000000000001
 31
0.0
  0
LINE
  5
    35
  8
0
  6
DOT2
 62
    10
 10
100.319770812988
 20
10.25
 30
0.0
 11
103.055763244629
 21
10.25
 31
0.0
  0
LINE
  5
    36
  8
0
  6
DOT2
 62
    10
 10
100.319770812988
 20
12.25
 30
0.0
 11
103.055763244629
 21
12.25
 31
0.0
  0
LINE
  5
    37
  8
0
  6
DOT2
 62
    10
 10
100.319770812988
 20
14.25
 30
0.0
 11
103.055763244629
 21
14.25
 31
0.0
  0
LINE
  5
    38
  8
0
  6
DOT2
 62
    10
 10
100.319770812988
 20
16.25
 30
0.0
 11
103.055763244629
 21
16.25
 31
0.0
  0
LINE
  5
    39
  8
0
  6
DOT2
 62
    10
 10
100.319770812988
 20
18.25
 30
0.0
 11
103.055763244629
 21
18.25
 31
0.0
  0
LINE
  5
    3A
  8
0
  6
DOT2
 62
    10
 10
100.319770812988
 20
20.25
 30
0.0
 11
103.055763244629
 21
20.25
 31
0.0
  0
LINE
  5
    3B
  8
0
  6
DOT2
 62
    10
 10
85.0557632446289
 20
22.25
 30
0.0
 11
103.055763244629
 21
22.25
 31
0.0
  0
ENDBLK
  5
    3C
  8
0
  6
CONTINUOUS
 62
     7
  0
BLOCK
  5
    3D
  8
0
  6
CONTINUOUS
 62
     7
  2
MOSTRA
 70
    64
 10
0.0
 20
0.0
 30
0.0
  3
MOSTRA
  0
LINE
  5
    3E
  8
0
  6
CONTINUOUS
 62
     3
 10
75.9999847412109
 20
-24.000020980835
 30
0.0
 11
75.9999847412109
 21
169.499979019165
 31
0.0
  0
LINE
  5
    3F
  8
0
  6
CONTINUOUS
 62
     3
 10
-71.5000076293913
 20
170.749954223637
 30
0.0
 11
71.4999923706087
 21
170.749984741215
 31
0.0
  0
LINE
  5
    40
  8
0
  6
CONTINUOUS
 62
     3
 10
71.4999923722532
 20
170.749969484304
 30
0.0
 11
74.7499847428587
 21
170.749984743093
 31
0.0
  0
LINE
  5
    41
  8
0
  6
CONTINUOUS
 62
     3
 10
-74.7500152650933
 20
170.749938972373
 30
0.0
 11
-71.5000076356988
 21
170.74996948995
 31
0.0
  0
LINE
  5
    42
  8
0
  6
CONTINUOUS
 62
     3
 10
-76.0000152587891
 20
-24.0000553131103
 30
0.0
 11
-76.0000152587891
 21
169.49994468689
 31
0.0
  0
LINE
  5
    43
  8
0
  6
CONTINUOUS
 62
     3
 10
-74.7500152587851
 20
-25.250055313111
 30
0.0
 11
74.7499847412149
 21
-25.2500209808356
 31
0.0
  0
LINE
  5
    44
  8
0
  6
CONTINUOUS
 62
     3
 10
-70.50000762559
 20
2.24997818470003
 30
0.0
 11
70.49999237441
 21
2.24997818470002
 31
0.0
  0
LINE
  5
    45
  8
0
  6
CONTINUOUS
 62
     3
 10
-70.5000074412761
 20
2.24997806549074
 30
0.0
 11
-70.5000074412761
 21
93.0689001568776
 31
0.0
  0
LINE
  5
    46
  8
0
  6
CONTINUOUS
 62
     3
 10
-70.5000152587891
 20
108.431043142038
 30
0.0
 11
-70.5000152587891
 21
143.249984741211
 31
0.0
  0
LINE
  5
    47
  8
0
  6
CONTINUOUS
 62
     3
 10
-70.500015258789
 20
143.249984741211
 30
0.0
 11
70.4999694824219
 21
143.249984741211
 31
0.0
  0
LINE
  5
    48
  8
0
  6
CONTINUOUS
 62
     3
 10
70.499992735838
 20
2.24997854232794
 30
0.0
 11
70.499992735838
 21
143.249978542328
 31
0.0
  0
LINE
  5
    49
  8
0
  6
CONTINUOUS
 62
     3
 10
-71.5000076293945
 20
150.749984741211
 30
0.0
 11
-71.5000076293945
 21
170.749969482422
 31
0.0
  0
LINE
  5
    4A
  8
0
  6
CONTINUOUS
 62
     3
 10
71.4999923706055
 20
150.749984741211
 30
0.0
 11
71.4999923706055
 21
170.749969482422
 31
0.0
  0
LINE
  5
    4B
  8
0
  6
CONTINUOUS
 62
     3
 10
-71.5000076293945
 20
150.749984741211
 30
0.0
 11
71.4999923706055
 21
150.749984741211
 31
0.0
  0
LINE
  5
    4C
  8
0
  6
CONTINUOUS
 62
     3
 10
-70.5000152587891
 20
-4.25005340576171
 30
0.0
 11
70.4999847412109
 21
-4.25005340576172
 31
0.0
  0
LINE
  5
    4D
  8
0
  6
CONTINUOUS
 62
     3
 10
-70.5000152587891
 20
-5.25005340576171
 30
0.0
 11
70.4999847412109
 21
-5.25005340576172
 31
0.0
  0
LINE
  5
    4E
  8
0
  6
CONTINUOUS
 62
     3
 10
-70.5000305175649
 20
149.74993896486
 30
0.0
 11
70.4999694824351
 21
149.750000000014
 31
0.0
  0
LINE
  5
    4F
  8
0
  6
CONTINUOUS
 62
     3
 10
71.4999858357699
 20
-25.2500247955323
 30
0.0
 11
71.4999858357699
 21
150.749990463257
 31
0.0
  0
LINE
  5
    50
  8
0
  6
CONTINUOUS
 62
     3
 10
70.4999847412109
 20
-25.2500247955322
 30
0.0
 11
70.4999847412109
 21
-5.25005340576172
 31
0.0
  0
LINE
  5
    51
  8
0
  6
CONTINUOUS
 62
     3
 10
70.4999847412595
 20
-4.25005341252316
 30
0.0
 11
70.4999923706543
 21
2.24997805388479
 31
0.0
  0
LINE
  5
    52
  8
0
  6
CONTINUOUS
 62
     3
 10
70.4999694824219
 20
143.249984741211
 30
0.0
 11
70.4999694824219
 21
149.75
 31
0.0
  0
LINE
  5
    53
  8
0
  6
CONTINUOUS
 62
     3
 10
-71.5000141642294
 20
-25.2500457763669
 30
0.0
 11
-71.5000141642294
 21
150.749984741211
 31
0.0
  0
LINE
  5
    54
  8
0
  6
CONTINUOUS
 62
     3
 10
-70.5000152587891
 20
-25.2500419616699
 30
0.0
 11
-70.5000152587891
 21
-5.25005340576171
 31
0.0
  0
LINE
  5
    55
  8
0
  6
CONTINUOUS
 62
     3
 10
-70.5000152588376
 20
-4.25005339719544
 30
0.0
 11
-70.5000076294428
 21
2.24997808131977
 31
0.0
  0
LINE
  5
    56
  8
0
  6
CONTINUOUS
 62
     3
 10
-70.5000305177719
 20
149.749938959778
 30
0.0
 11
-70.5000152589833
 21
143.249984736586
 31
0.0
  0
LINE
  5
    57
  8
0
  6
CONTINUOUS
 62
     3
 10
-71.5000076293945
 20
159.999984741211
 30
0.0
 11
-71.0
 21
159.999984741211
 31
0.0
  0
LINE
  5
    58
  8
0
  6
CONTINUOUS
 62
     3
 10
-71.5000076293945
 20
161.499984741211
 30
0.0
 11
-71.0
 21
161.499984741211
 31
0.0
  0
LINE
  5
    59
  8
0
  6
CONTINUOUS
 62
     3
 10
70.9999923706055
 20
159.999984741211
 30
0.0
 11
71.4999923706055
 21
159.999984741211
 31
0.0
  0
LINE
  5
    5A
  8
0
  6
CONTINUOUS
 62
     3
 10
70.9999923706055
 20
161.499984741211
 30
0.0
 11
71.4999923706055
 21
161.499984741211
 31
0.0
  0
ARC
  5
    5B
  8
0
  6
CONTINUOUS
 62
     3
 10
-74.7500446175772
 20
169.499966747805
 30
0.0
 40
1.2499712385188
 50
89.9986335430652
 51
180.000984426699
  0
ARC
  5
    5C
  8
0
  6
CONTINUOUS
 62
     3
 10
-71.0000555065448
 20
160.749933035418
 30
0.0
 40
0.750060676953542
 50
270.004052802733
 51
449.996390805965
  0
ARC
  5
    5D
  8
0
  6
CONTINUOUS
 62
     3
 10
71.0004519501049
 20
160.749941254871
 30
0.0
 40
0.750296104915764
 50
90.0
 51
270.0
  0
ARC
  5
    5E
  8
0
  6
CONTINUOUS
 62
     3
 10
74.7499844400411
 20
169.499990278414
 30
0.0
 40
1.25000142315613
 50
2.89360398659739E-4
 51
89.9998353051498
  0
ARC
  5
    5F
  8
0
  6
CONTINUOUS
 62
     3
 10
74.7499756668578
 20
-24.0000128113076
 30
0.0
 40
1.25000813012569
 50
270.000329889624
 51
359.999635393882
  0
ARC
  5
    60
  8
0
  6
CONTINUOUS
 62
     3
 10
-74.7500061806411
 20
-24.0000471426785
 30
0.0
 40
1.25000813391971
 50
180.000364647548
 51
269.999670038333
  0
ARC
  5
    61
  8
0
  6
CONTINUOUS
 62
     3
 10
-41.5002621522514
 20
100.749971717654
 30
0.0
 40
29.9997423066705
 50
165.164904903841
 51
194.835095365634
  0
ARC
  5
    62
  8
0
  6
DOT
 62
     3
 10
-71.9999597522443
 20
160.749933035418
 30
0.0
 40
0.750060676953542
 50
90.003609194035
 51
269.995947197267
  0
LINE
  5
    63
  8
0
  6
DOT
 62
     3
 10
-72.0000152587891
 20
161.499984741211
 30
0.0
 11
-71.5000076293945
 21
161.499984741211
 31
0.0
  0
LINE
  5
    64
  8
0
  6
DOT
 62
     3
 10
-72.0000152587891
 20
159.999984741211
 30
0.0
 11
-71.5000076293945
 21
159.999984741211
 31
0.0
  0
LINE
  5
    65
  8
0
  6
DOT
 62
     3
 10
71.4999923706055
 20
161.499984741211
 30
0.0
 11
71.9999923706055
 21
161.499984741211
 31
0.0
  0
LINE
  5
    66
  8
0
  6
DOT
 62
     3
 10
71.4999923706055
 20
159.999984741211
 30
0.0
 11
71.9999923706055
 21
159.999984741211
 31
0.0
  0
ARC
  5
    67
  8
0
  6
DOT
 62
     3
 10
71.999532791106
 20
160.749941254871
 30
0.0
 40
0.750296104915764
 50
270.0
 51
450.0
  0
POINT
  5
    68
  8
0
  6
CONTINUOUS
 62
     3
 10
-2.28881835892954E-5
 20
72.7499785423279
 30
0.0
  0
ENDBLK
  5
    69
  8
0
  6
CONTINUOUS
 62
     7
  0
BLOCK
  5
    6A
  8
0
  6
CONTINUOUS
 62
     7
  2
*UDIM1049
 70
    65
 10
0.0
 20
0.0
 30
0.0
  3
*UDIM1049
  0
TEXT
  5
    6B
  8
0
  6
CONTINUOUS
 62
     7
 10
-14.8457240841124
 20
31.1408238002074
 30
0.0
 40
3.00000001532688
  1
152
 50
359.999999948034
 41
0.933333333333334
 72
     1
 11
-10.9457240628345
 21
32.6408238043532
 31
0.0
 73
     2
  0
LINE
  5
    6C
  8
0
  6
CONTINUOUS
 62
     7
 10
15.9292750835416
 20
5.09789144396996
 30
0.0
 11
15.9292750835416
 21
32.1408237966898
 31
0.0
  0
LINE
  5
    6D
  8
0
  6
CONTINUOUS
 62
     7
 10
-37.2707194805148
 20
5.0978794276748
 30
0.0
 11
-37.2707194805148
 21
32.1408237966898
 31
0.0
  0
LINE
  5
    6E
  8
0
  6
CONTINUOUS
 62
     7
 10
15.9292750835416
 20
30.1408237966898
 30
0.0
 11
-37.2707194805148
 21
30.1408237966898
 31
0.0
  0
LINE
  5
    6F
  8
0
  6
CONTINUOUS
 62
     7
 10
12.9748518063347
 20
29.6198793667381
 30
0.0
 11
15.9292750835416
 21
30.1408237966898
 31
0.0
  0
LINE
  5
    70
  8
0
  6
CONTINUOUS
 62
     7
 10
15.9292750835416
 20
30.1408237966898
 30
0.0
 11
12.9748518063347
 21
30.6617682266415
 31
0.0
  0
LINE
  5
    71
  8
0
  6
CONTINUOUS
 62
     7
 10
-34.3162962033078
 20
30.6617682266415
 30
0.0
 11
-37.2707194805148
 21
30.1408237966898
 31
0.0
  0
LINE
  5
    72
  8
0
  6
CONTINUOUS
 62
     7
 10
-37.2707194805148
 20
30.1408237966898
 30
0.0
 11
-34.3162962033078
 21
29.6198793667381
 31
0.0
  0
ENDBLK
  5
    73
  8
0
  6
CONTINUOUS
 62
     7
  0
BLOCK
  5
    74
  8
0
  6
CONTINUOUS
 62
     7
  2
*UDIM1050
 70
    65
 10
0.0
 20
0.0
 30
0.0
  3
*UDIM1050
  0
TEXT
  5
    75
  8
0
  6
CONTINUOUS
 62
     7
 10
33.3309146639742
 20
-33.9396098187923
 30
0.0
 40
3.00000001532688
  1
196
 50
89.9999999480344
 41
0.933333333333334
 72
     1
 11
31.830914659843
 21
-30.0396097975088
 31
0.0
 73
     2
  0
LINE
  5
    76
  8
0
  6
CONTINUOUS
 62
     7
 10
16.4917751282465
 20
-64.0646075993734
 30
0.0
 11
36.3309146675065
 21
-64.0646075993734
 31
0.0
  0
LINE
  5
    77
  8
0
  6
CONTINUOUS
 62
     7
 10
15.3542779147631
 20
4.535388061406
 30
0.0
 11
36.3309146675065
 21
4.535388061406
 31
0.0
  0
LINE
  5
    78
  8
0
  6
CONTINUOUS
 62
     7
 10
34.3309146675065
 20
-64.0646075993734
 30
0.0
 11
34.3309146675065
 21
4.535388061406
 31
0.0
  0
LINE
  5
    79
  8
0
  6
CONTINUOUS
 62
     7
 10
33.8099702375548
 20
-61.1101843221665
 30
0.0
 11
34.3309146675065
 21
-64.0646075993734
 31
0.0
  0
LINE
  5
    7A
  8
0
  6
CONTINUOUS
 62
     7
 10
34.3309146675065
 20
-64.0646075993734
 30
0.0
 11
34.8518590974581
 21
-61.1101843221665
 31
0.0
  0
LINE
  5
    7B
  8
0
  6
CONTINUOUS
 62
     7
 10
34.8518590974581
 20
1.58096478419903
 30
0.0
 11
34.3309146675065
 21
4.535388061406
 31
0.0
  0
LINE
  5
    7C
  8
0
  6
CONTINUOUS
 62
     7
 10
34.3309146675065
 20
4.535388061406
 30
0.0
 11
33.8099702375548
 21
1.58096478419903
 31
0.0
  0
ENDBLK
  5
    7D
  8
0
  6
CONTINUOUS
 62
     7
  0
BLOCK
  5
    7E
  8
0
  6
CONTINUOUS
 62
     7
  2
*UDIM1051
 70
    65
 10
0.0
 20
0.0
 30
0.0
  3
*UDIM1051
  0
TEXT
  5
    7F
  8
0
  6
CONTINUOUS
 62
     7
 10
-12.095717614836
 20
40.5303141127675
 30
0.0
 40
3.00000001532688
  1
210
 50
359.999999948034
 41
0.933333333333334
 72
     1
 11
-8.19571759355818
 21
42.0303141169134
 31
0.0
 73
     2
  0
LINE
  5
    80
  8
0
  6
CONTINUOUS
 62
     7
 10
25.9917791754443
 20
4.48539668023714
 30
0.0
 11
25.9917791754443
 21
41.53031410925
 31
0.0
  0
LINE
  5
    81
  8
0
  6
CONTINUOUS
 62
     7
 10
-47.3332133322519
 20
4.48539668023714
 30
0.0
 11
-47.3332133322519
 21
41.53031410925
 31
0.0
  0
LINE
  5
    82
  8
0
  6
CONTINUOUS
 62
     7
 10
25.9917791754443
 20
39.53031410925
 30
0.0
 11
-47.3332133322519
 21
39.53031410925
 31
0.0
  0
LINE
  5
    83
  8
0
  6
CONTINUOUS
 62
     7
 10
23.0373558982373
 20
39.0093696792983
 30
0.0
 11
25.9917791754443
 21
39.53031410925
 31
0.0
  0
LINE
  5
    84
  8
0
  6
CONTINUOUS
 62
     7
 10
25.9917791754443
 20
39.53031410925
 30
0.0
 11
23.0373558982373
 21
40.0512585392016
 31
0.0
  0
LINE
  5
    85
  8
0
  6
CONTINUOUS
 62
     7
 10
-44.3787900550449
 20
40.0512585392016
 30
0.0
 11
-47.3332133322519
 21
39.53031410925
 31
0.0
  0
LINE
  5
    86
  8
0
  6
CONTINUOUS
 62
     7
 10
-47.3332133322519
 20
39.53031410925
 30
0.0
 11
-44.3787900550449
 21
39.0093696792983
 31
0.0
  0
ENDBLK
  5
    87
  8
0
  6
CONTINUOUS
 62
     7
  0
BLOCK
  5
    88
  8
0
  6
CONTINUOUS
 62
     7
  2
*UDIM1052
 70
    65
 10
0.0
 20
0.0
 30
0.0
  3
*UDIM1052
  0
TEXT
  5
    89
  8
0
  6
CONTINUOUS
 62
     7
 10
-75.8987624379422
 20
-39.0145932770859
 30
0.0
 40
3.00000001532688
  1
268
 50
89.9999999480344
 41
0.933333333333334
 72
     1
 11
-77.3987624420734
 21
-35.1145932558024
 31
0.0
 73
     2
  0
LINE
  5
    8A
  8
0
  6
CONTINUOUS
 62
     7
 10
-47.0207318659832
 20
-81.7395946115205
 30
0.0
 11
-76.89876243441
 21
-81.7395946115205
 31
0.0
  0
LINE
  5
    8B
  8
0
  6
CONTINUOUS
 62
     7
 10
-47.195716873131
 20
12.0604013143534
 30
0.0
 11
-76.89876243441
 21
12.0604013143534
 31
0.0
  0
LINE
  5
    8C
  8
0
  6
CONTINUOUS
 62
     7
 10
-74.89876243441
 20
-81.7395946115205
 30
0.0
 11
-74.89876243441
 21
12.0604013143534
 31
0.0
  0
LINE
  5
    8D
  8
0
  6
CONTINUOUS
 62
     7
 10
-75.4197068643616
 20
-78.7851713343135
 30
0.0
 11
-74.89876243441
 21
-81.7395946115205
 31
0.0
  0
LINE
  5
    8E
  8
0
  6
CONTINUOUS
 62
     7
 10
-74.89876243441
 20
-81.7395946115205
 30
0.0
 11
-74.3778180044583
 21
-78.7851713343135
 31
0.0
  0
LINE
  5
    8F
  8
0
  6
CONTINUOUS
 62
     7
 10
-74.3778180044583
 20
9.10597803714641
 30
0.0
 11
-74.89876243441
 21
12.0604013143534
 31
0.0
  0
LINE
  5
    90
  8
0
  6
CONTINUOUS
 62
     7
 10
-74.89876243441
 20
12.0604013143534
 30
0.0
 11
-75.4197068643616
 21
9.10597803714641
 31
0.0
  0
ENDBLK
  5
    91
  8
0
  6
CONTINUOUS
 62
     7
  0
BLOCK
  5
    92
  8
0
  6
CONTINUOUS
 62
     7
  2
*UDIM1053
 70
    65
 10
0.0
 20
0.0
 30
0.0
  3
*UDIM1053
  0
TEXT
  5
    93
  8
0
  6
CONTINUOUS
 62
     7
 10
-68.3421683639737
 20
-15.8271025390526
 30
0.0
 40
3.00000001532688
  1
119,5
 50
89.9999999480344
 41
0.933333333333333
 72
     1
 11
-69.8421683655688
 21
-9.12710250346404
 31
0.0
 73
     2
  0
LINE
  5
    94
  8
0
  6
CONTINUOUS
 62
     7
 10
-47.195716873131
 20
12.0604013143534
 30
0.0
 11
-69.3421683579054
 21
12.0604013143534
 31
0.0
  0
LINE
  5
    95
  8
0
  6
CONTINUOUS
 62
     7
 10
-67.3421683579054
 20
-29.7646052628734
 30
0.0
 11
-67.3421683579054
 21
12.0604013143534
 31
0.0
  0
LINE
  5
    96
  8
0
  6
CONTINUOUS
 62
     7
 10
-67.8631127878571
 20
-26.8101819856664
 30
0.0
 11
-67.3421683579054
 21
-29.7646052628734
 31
0.0
  0
LINE
  5
    97
  8
0
  6
CONTINUOUS
 62
     7
 10
-67.3421683579054
 20
-29.7646052628734
 30
0.0
 11
-66.8212239279537
 21
-26.8101819856664
 31
0.0
  0
LINE
  5
    98
  8
0
  6
CONTINUOUS
 62
     7
 10
-66.8212239279537
 20
9.10597803714641
 30
0.0
 11
-67.3421683579054
 21
12.0604013143534
 31
0.0
  0
LINE
  5
    99
  8
0
  6
CONTINUOUS
 62
     7
 10
-67.3421683579054
 20
12.0604013143534
 30
0.0
 11
-67.8631127878571
 21
9.10597803714641
 31
0.0
  0
ENDBLK
  5
    9A
  8
0
  6
CONTINUOUS
 62
     7
  0
BLOCK
  5
    9B
  8
0
  6
CONTINUOUS
 62
     7
  2
*UDIM1054
 70
    65
 10
0.0
 20
0.0
 30
0.0
  3
*UDIM1054
  0
TEXT
  5
    9C
  8
0
  6
CONTINUOUS
 62
     7
 10
-58.9496552830731
 20
-33.9396084836487
 30
0.0
 40
3.00000001532688
  1
140
 50
89.9999999480344
 41
0.933333333333334
 72
     1
 11
-60.4496552872043
 21
-30.0396084623652
 31
0.0
 73
     2
  0
LINE
  5
    9D
  8
0
  6
CONTINUOUS
 62
     7
 10
-35.9957223832607
 20
-54.2646050125336
 30
0.0
 11
-59.9496552795408
 21
-54.2646050125336
 31
0.0
  0
LINE
  5
    9E
  8
0
  6
CONTINUOUS
 62
     7
 10
-35.9957223832607
 20
-5.26460776626845
 30
0.0
 11
-59.9496552795408
 21
-5.26460776626845
 31
0.0
  0
LINE
  5
    9F
  8
0
  6
CONTINUOUS
 62
     7
 10
-57.9496552795408
 20
-54.2646050125336
 30
0.0
 11
-57.9496552795408
 21
-5.26460776626845
 31
0.0
  0
LINE
  5
    A0
  8
0
  6
CONTINUOUS
 62
     7
 10
-58.4705997094925
 20
-51.3101817353267
 30
0.0
 11
-57.9496552795408
 21
-54.2646050125336
 31
0.0
  0
LINE
  5
    A1
  8
0
  6
CONTINUOUS
 62
     7
 10
-57.9496552795408
 20
-54.2646050125336
 30
0.0
 11
-57.4287108495892
 21
-51.3101817353267
 31
0.0
  0
LINE
  5
    A2
  8
0
  6
CONTINUOUS
 62
     7
 10
-57.4287108495892
 20
-8.21903104347542
 30
0.0
 11
-57.9496552795408
 21
-5.26460776626845
 31
0.0
  0
LINE
  5
    A3
  8
0
  6
CONTINUOUS
 62
     7
 10
-57.9496552795408
 20
-5.26460776626845
 30
0.0
 11
-58.4705997094925
 21
-8.21903104347542
 31
0.0
  0
ENDBLK
  5
    A4
  8
0
  6
CONTINUOUS
 62
     7
  0
BLOCK
  5
    A5
  8
0
  6
CONTINUOUS
 62
     7
  2
*UDIM1055
 70
    65
 10
0.0
 20
0.0
 30
0.0
  3
*UDIM1055
  0
TEXT
  5
    A6
  8
0
  6
CONTINUOUS
 62
     7
 10
-14.8457214138246
 20
22.4771818021524
 30
0.0
 40
3.00000001532688
  1
140
 50
359.999999948034
 41
0.933333333333334
 72
     1
 11
-10.9457213925467
 21
23.9771818062982
 31
0.0
 73
     2
  0
LINE
  5
    A7
  8
0
  6
CONTINUOUS
 62
     7
 10
13.8292726278305
 20
-4.43960774838706
 30
0.0
 11
13.8292726278305
 21
23.4771817986348
 31
0.0
  0
LINE
  5
    A8
  8
0
  6
CONTINUOUS
 62
     7
 10
-35.1707223653793
 20
-4.43960774838706
 30
0.0
 11
-35.1707223653793
 21
23.4771817986348
 31
0.0
  0
LINE
  5
    A9
  8
0
  6
CONTINUOUS
 62
     7
 10
13.8292726278305
 20
21.4771817986348
 30
0.0
 11
-35.1707223653793
 21
21.4771817986348
 31
0.0
  0
LINE
  5
    AA
  8
0
  6
CONTINUOUS
 62
     7
 10
10.8748493506235
 20
20.9562373686831
 30
0.0
 11
13.8292726278305
 21
21.4771817986348
 31
0.0
  0
LINE
  5
    AB
  8
0
  6
CONTINUOUS
 62
     7
 10
13.8292726278305
 20
21.4771817986348
 30
0.0
 11
10.8748493506235
 21
21.9981262285864
 31
0.0
  0
LINE
  5
    AC
  8
0
  6
CONTINUOUS
 62
     7
 10
-32.2162990881724
 20
21.9981262285864
 30
0.0
 11
-35.1707223653793
 21
21.4771817986348
 31
0.0
  0
LINE
  5
    AD
  8
0
  6
CONTINUOUS
 62
     7
 10
-35.1707223653793
 20
21.4771817986348
 30
0.0
 11
-32.2162990881724
 21
20.9562373686831
 31
0.0
  0
ENDBLK
  5
    AE
  8
0
  6
CONTINUOUS
 62
     7
  0
BLOCK
  5
    AF
  8
0
  6
CONTINUOUS
 62
     7
  2
*HATCH399
 70
    65
 10
0.0
 20
0.0
 30
0.0
  3
*HATCH399
  0
LINE
  5
    B0
  8
0
  6
CONTINUOUS
 62
    52
 10
179.222381591797
 20
234.376708984375
 30
0.0
 11
177.499420166016
 21
232.653732299805
 31
0.0
  0
LINE
  5
    B1
  8
0
  6
CONTINUOUS
 62
    52
 10
179.499420166016
 20
230.411087036133
 30
0.0
 11
177.499420166016
 21
228.411087036133
 31
0.0
  0
LINE
  5
    B2
  8
0
  6
CONTINUOUS
 62
    52
 10
179.499420166016
 20
226.168441772461
 30
0.0
 11
177.499420166016
 21
224.168441772461
 31
0.0
  0
LINE
  5
    B3
  8
0
  6
CONTINUOUS
 62
    52
 10
179.499420166016
 20
221.925796508789
 30
0.0
 11
177.499420166016
 21
219.925796508789
 31
0.0
  0
LINE
  5
    B4
  8
0
  6
CONTINUOUS
 62
    52
 10
179.499420166016
 20
217.683151245117
 30
0.0
 11
177.499420166016
 21
215.683151245117
 31
0.0
  0
LINE
  5
    B5
  8
0
  6
CONTINUOUS
 62
    52
 10
179.499420166016
 20
213.440505981445
 30
0.0
 11
177.499420166016
 21
211.440505981445
 31
0.0
  0
LINE
  5
    B6
  8
0
  6
CONTINUOUS
 62
    52
 10
179.499420166016
 20
209.197860717773
 30
0.0
 11
177.499420166016
 21
207.197860717773
 31
0.0
  0
LINE
  5
    B7
  8
0
  6
CONTINUOUS
 62
    52
 10
179.499420166016
 20
204.955215454102
 30
0.0
 11
177.499420166016
 21
202.955215454102
 31
0.0
  0
LINE
  5
    B8
  8
0
  6
CONTINUOUS
 62
    52
 10
179.499420166016
 20
200.71257019043
 30
0.0
 11
177.499420166016
 21
198.71257019043
 31
0.0
  0
LINE
  5
    B9
  8
0
  6
CONTINUOUS
 62
    52
 10
179.499420166016
 20
196.469924926758
 30
0.0
 11
177.499420166016
 21
194.469924926758
 31
0.0
  0
LINE
  5
    BA
  8
0
  6
CONTINUOUS
 62
    52
 10
179.499420166016
 20
192.227279663086
 30
0.0
 11
177.499420166016
 21
190.227279663086
 31
0.0
  0
LINE
  5
    BB
  8
0
  6
CONTINUOUS
 62
    52
 10
179.499420166016
 20
187.984634399414
 30
0.0
 11
177.499420166016
 21
185.984634399414
 31
0.0
  0
LINE
  5
    BC
  8
0
  6
CONTINUOUS
 62
    52
 10
179.499420166016
 20
183.741989135742
 30
0.0
 11
177.499420166016
 21
181.741989135742
 31
0.0
  0
LINE
  5
    BD
  8
0
  6
CONTINUOUS
 62
    52
 10
179.499420166016
 20
179.49934387207
 30
0.0
 11
177.499420166016
 21
177.49934387207
 31
0.0
  0
LINE
  5
    BE
  8
0
  6
CONTINUOUS
 62
    52
 10
179.499420166016
 20
175.256698608398
 30
0.0
 11
177.499420166016
 21
173.256698608398
 31
0.0
  0
LINE
  5
    BF
  8
0
  6
CONTINUOUS
 62
    52
 10
179.499420166016
 20
171.014053344727
 30
0.0
 11
177.499420166016
 21
169.014053344727
 31
0.0
  0
LINE
  5
    C0
  8
0
  6
CONTINUOUS
 62
    52
 10
179.499420166016
 20
166.771408081055
 30
0.0
 11
177.499420166016
 21
164.771408081055
 31
0.0
  0
LINE
  5
    C1
  8
0
  6
CONTINUOUS
 62
    52
 10
179.499420166016
 20
162.528762817383
 30
0.0
 11
177.499420166016
 21
160.528762817383
 31
0.0
  0
LINE
  5
    C2
  8
0
  6
CONTINUOUS
 62
    52
 10
179.499420166016
 20
158.286117553711
 30
0.0
 11
177.499420166016
 21
156.286117553711
 31
0.0
  0
LINE
  5
    C3
  8
0
  6
CONTINUOUS
 62
    52
 10
179.499420166016
 20
154.043563842773
 30
0.0
 11
179.205703735352
 21
153.749847412109
 31
0.0
  0
ENDBLK
  5
    C4
  8
0
  6
CONTINUOUS
 62
     7
  0
BLOCK
  5
    C5
  8
0
  6
CONTINUOUS
 62
     7
  2
*HATCH400
 70
    65
 10
0.0
 20
0.0
 30
0.0
  3
*HATCH400
  0
LINE
  5
    C6
  8
0
  6
CONTINUOUS
 62
    52
 10
179.499420166016
 20
-9.29809856414795
 30
0.0
 11
177.499420166016
 21
-11.2980985641479
 31
0.0
  0
LINE
  5
    C7
  8
0
  6
CONTINUOUS
 62
    52
 10
179.499420166016
 20
-13.5407390594482
 30
0.0
 11
177.499420166016
 21
-15.5407390594482
 31
0.0
  0
LINE
  5
    C8
  8
0
  6
CONTINUOUS
 62
    52
 10
179.499420166016
 20
-17.7833805084229
 30
0.0
 11
177.499420166016
 21
-19.7833805084229
 31
0.0
  0
LINE
  5
    C9
  8
0
  6
CONTINUOUS
 62
    52
 10
179.499420166016
 20
-22.0260219573975
 30
0.0
 11
177.499420166016
 21
-24.0260219573975
 31
0.0
  0
LINE
  5
    CA
  8
0
  6
CONTINUOUS
 62
    52
 10
179.499420166016
 20
-26.2686634063721
 30
0.0
 11
177.499420166016
 21
-28.2686634063721
 31
0.0
  0
LINE
  5
    CB
  8
0
  6
CONTINUOUS
 62
    52
 10
179.499420166016
 20
-30.5113048553467
 30
0.0
 11
177.499420166016
 21
-32.511302947998
 31
0.0
  0
LINE
  5
    CC
  8
0
  6
CONTINUOUS
 62
    52
 10
179.499420166016
 20
-34.7539443969727
 30
0.0
 11
177.499420166016
 21
-36.7539405822754
 31
0.0
  0
LINE
  5
    CD
  8
0
  6
CONTINUOUS
 62
    52
 10
179.499420166016
 20
-38.99658203125
 30
0.0
 11
177.499420166016
 21
-40.9965782165527
 31
0.0
  0
LINE
  5
    CE
  8
0
  6
CONTINUOUS
 62
    52
 10
179.499420166016
 20
-43.2392196655273
 30
0.0
 11
177.499420166016
 21
-45.2392158508301
 31
0.0
  0
LINE
  5
    CF
  8
0
  6
CONTINUOUS
 62
    52
 10
179.499420166016
 20
-47.4818572998047
 30
0.0
 11
177.499420166016
 21
-49.4818534851074
 31
0.0
  0
LINE
  5
    D0
  8
0
  6
CONTINUOUS
 62
    52
 10
179.499420166016
 20
-51.724494934082
 30
0.0
 11
177.499420166016
 21
-53.7244911193848
 31
0.0
  0
LINE
  5
    D1
  8
0
  6
CONTINUOUS
 62
    52
 10
179.499420166016
 20
-55.9671325683594
 30
0.0
 11
177.499420166016
 21
-57.9671287536621
 31
0.0
  0
LINE
  5
    D2
  8
0
  6
CONTINUOUS
 62
    52
 10
179.499420166016
 20
-60.2097702026367
 30
0.0
 11
177.499420166016
 21
-62.2097663879395
 31
0.0
  0
LINE
  5
    D3
  8
0
  6
CONTINUOUS
 62
    52
 10
179.499420166016
 20
-64.4524078369141
 30
0.0
 11
177.499420166016
 21
-66.4524078369141
 31
0.0
  0
LINE
  5
    D4
  8
0
  6
CONTINUOUS
 62
    52
 10
179.499420166016
 20
-68.6950531005859
 30
0.0
 11
177.499420166016
 21
-70.6950531005859
 31
0.0
  0
LINE
  5
    D5
  8
0
  6
CONTINUOUS
 62
    52
 10
179.499420166016
 20
-72.9376983642578
 30
0.0
 11
177.499420166016
 21
-74.9376983642578
 31
0.0
  0
LINE
  5
    D6
  8
0
  6
CONTINUOUS
 62
    52
 10
179.499420166016
 20
-77.1803436279297
 30
0.0
 11
177.499420166016
 21
-79.1803436279297
 31
0.0
  0
LINE
  5
    D7
  8
0
  6
CONTINUOUS
 62
    52
 10
179.499420166016
 20
-81.4229888916016
 30
0.0
 11
177.499420166016
 21
-83.4229888916016
 31
0.0
  0
LINE
  5
    D8
  8
0
  6
CONTINUOUS
 62
    52
 10
179.499420166016
 20
-85.6656341552734
 30
0.0
 11
177.499420166016
 21
-87.6656341552734
 31
0.0
  0
LINE
  5
    D9
  8
0
  6
CONTINUOUS
 62
    52
 10
179.499420166016
 20
-89.9082794189453
 30
0.0
 11
177.499420166016
 21
-91.9082794189453
 31
0.0
  0
LINE
  5
    DA
  8
0
  6
CONTINUOUS
 62
    52
 10
179.499420166016
 20
-94.1509246826172
 30
0.0
 11
177.499420166016
 21
-96.1509246826172
 31
0.0
  0
ENDBLK
  5
    DB
  8
0
  6
CONTINUOUS
 62
     7
  0
BLOCK
  5
    DC
  8
0
  6
CONTINUOUS
 62
     7
  2
*HATCH401
 70
    65
 10
0.0
 20
0.0
 30
0.0
  3
*HATCH401
  0
LINE
  5
    DD
  8
0
  6
CONTINUOUS
 62
    52
 10
170.220428466797
 20
153.249862670898
 30
0.0
 11
167.999420166016
 21
151.028839111328
 31
0.0
  0
LINE
  5
    DE
  8
0
  6
CONTINUOUS
 62
    52
 10
170.499420166016
 20
149.286209106445
 30
0.0
 11
167.999420166016
 21
146.786209106445
 31
0.0
  0
LINE
  5
    DF
  8
0
  6
CONTINUOUS
 62
    52
 10
170.499420166016
 20
145.043563842773
 30
0.0
 11
169.705718994141
 21
144.249862670898
 31
0.0
  0
ENDBLK
  5
    E0
  8
0
  6
CONTINUOUS
 62
     7
  0
BLOCK
  5
    E1
  8
0
  6
CONTINUOUS
 62
     7
  2
*UDIM1056
 70
    65
 10
0.0
 20
0.0
 30
0.0
  3
*UDIM1056
  0
TEXT
  5
    E2
  8
0
  6
CONTINUOUS
 62
     7
 10
84.3524514852254
 20
42.2102913545823
 30
0.0
 40
3.00000001532688
  1
103,5
 41
0.933333333333333
 72
     1
 11
91.0524515194554
 21
43.7102913622457
 31
0.0
 73
     2
  0
LINE
  5
    E3
  8
0
  6
CONTINUOUS
 62
     7
 10
73.2149644970891
 20
20.3230157012793
 30
0.0
 11
73.2149644970891
 21
43.2102913545823
 31
0.0
  0
LINE
  5
    E4
  8
0
  6
CONTINUOUS
 62
     7
 10
109.439939433337
 20
-12.4896198958131
 30
0.0
 11
109.439939433337
 21
43.2102913545823
 31
0.0
  0
LINE
  5
    E5
  8
0
  6
CONTINUOUS
 62
     7
 10
73.2149644970891
 20
41.2102913545823
 30
0.0
 11
109.439939433337
 21
41.2102913545823
 31
0.0
  0
LINE
  5
    E6
  8
0
  6
CONTINUOUS
 62
     7
 10
76.169387774296
 20
41.731235784534
 30
0.0
 11
73.2149644970891
 21
41.2102913545823
 31
0.0
  0
LINE
  5
    E7
  8
0
  6
CONTINUOUS
 62
     7
 10
73.2149644970891
 20
41.2102913545823
 30
0.0
 11
76.169387774296
 21
40.6893469246306
 31
0.0
  0
LINE
  5
    E8
  8
0
  6
CONTINUOUS
 62
     7
 10
106.48551615613
 20
40.6893469246306
 30
0.0
 11
109.439939433337
 21
41.2102913545823
 31
0.0
  0
LINE
  5
    E9
  8
0
  6
CONTINUOUS
 62
     7
 10
109.439939433337
 20
41.2102913545823
 30
0.0
 11
106.48551615613
 21
41.731235784534
 31
0.0
  0
ENDBLK
  5
    EA
  8
0
  6
CONTINUOUS
 62
     7
  0
BLOCK
  5
    EB
  8
0
  6
CONTINUOUS
 62
     7
  2
*UDIM1057
 70
    65
 10
0.0
 20
0.0
 30
0.0
  3
*UDIM1057
  0
TEXT
  5
    EC
  8
0
  6
CONTINUOUS
 62
     7
 10
113.139836034839
 20
42.2102913545823
 30
0.0
 40
3.00000001532688
  1
37
 41
0.933333333333333
 72
     1
 11
115.639836047611
 21
43.7102913622457
 31
0.0
 73
     2
  0
LINE
  5
    ED
  8
0
  6
CONTINUOUS
 62
     7
 10
122.389739811888
 20
28.1891872498806
 30
0.0
 11
122.389739811888
 21
43.2102913545823
 31
0.0
  0
LINE
  5
    EE
  8
0
  6
CONTINUOUS
 62
     7
 10
109.439939433337
 20
41.2102913545823
 30
0.0
 11
122.389739811888
 21
41.2102913545823
 31
0.0
  0
LINE
  5
    EF
  8
0
  6
CONTINUOUS
 62
     7
 10
112.394362710544
 20
41.731235784534
 30
0.0
 11
109.439939433337
 21
41.2102913545823
 31
0.0
  0
LINE
  5
    F0
  8
0
  6
CONTINUOUS
 62
     7
 10
109.439939433337
 20
41.2102913545823
 30
0.0
 11
112.394362710544
 21
40.6893469246306
 31
0.0
  0
LINE
  5
    F1
  8
0
  6
CONTINUOUS
 62
     7
 10
119.435316534681
 20
40.6893469246306
 30
0.0
 11
122.389739811888
 21
41.2102913545823
 31
0.0
  0
LINE
  5
    F2
  8
0
  6
CONTINUOUS
 62
     7
 10
122.389739811888
 20
41.2102913545823
 30
0.0
 11
119.435316534681
 21
41.731235784534
 31
0.0
  0
ENDBLK
  5
    F3
  8
0
  6
CONTINUOUS
 62
     7
  0
BLOCK
  5
    F4
  8
0
  6
CONTINUOUS
 62
     7
  2
*UDIM1058
 70
    65
 10
0.0
 20
0.0
 30
0.0
  3
*UDIM1058
  0
TEXT
  5
    F5
  8
0
  6
CONTINUOUS
 62
     7
 10
126.089739363491
 20
42.2102913545823
 30
0.0
 40
3.00000001532688
  1
2
 41
0.933333333333333
 72
     1
 11
127.189739369111
 21
43.7102913622457
 31
0.0
 73
     2
  0
LINE
  5
    F6
  8
0
  6
CONTINUOUS
 62
     7
 10
123.089739740362
 20
27.7429372954781
 30
0.0
 11
123.089739740362
 21
43.2102913545823
 31
0.0
  0
LINE
  5
    F7
  8
0
  6
CONTINUOUS
 62
     7
 10
122.389739811888
 20
41.2102913545823
 30
0.0
 11
128.28973937473
 21
41.2102913545823
 31
0.0
  0
LINE
  5
    F8
  8
0
  6
CONTINUOUS
 62
     7
 10
119.435316534681
 20
40.6893469246306
 30
0.0
 11
122.389739811888
 21
41.2102913545823
 31
0.0
  0
LINE
  5
    F9
  8
0
  6
CONTINUOUS
 62
     7
 10
122.389739811888
 20
41.2102913545823
 30
0.0
 11
119.435316534681
 21
41.731235784534
 31
0.0
  0
LINE
  5
    FA
  8
0
  6
CONTINUOUS
 62
     7
 10
126.044163017569
 20
41.731235784534
 30
0.0
 11
123.089739740362
 21
41.2102913545823
 31
0.0
  0
LINE
  5
    FB
  8
0
  6
CONTINUOUS
 62
     7
 10
123.089739740362
 20
41.2102913545823
 30
0.0
 11
126.044163017569
 21
40.6893469246306
 31
0.0
  0
ENDBLK
  5
    FC
  8
0
  6
CONTINUOUS
 62
     7
  0
BLOCK
  5
    FD
  8
0
  6
CONTINUOUS
 62
     7
  2
*UDIM1059
 70
    65
 10
0.0
 20
0.0
 30
0.0
  3
*UDIM1059
  0
TEXT
  5
    FE
  8
0
  6
CONTINUOUS
 62
     7
 10
131.997118523377
 20
-113.519569442018
 30
0.0
 40
3.00000001532688
  1
42,5
 41
0.933333333333333
 72
     1
 11
137.297118550455
 21
-112.019569434355
 31
0.0
 73
     2
  0
LINE
  5
    FF
  8
0
  6
CONTINUOUS
 62
     7
 10
109.439939433337
 20
-51.0645947962994
 30
0.0
 11
109.439939433337
 21
-116.519569442018
 31
0.0
  0
LINE
  5
   100
  8
0
  6
CONTINUOUS
 62
     7
 10
124.314739615193
 20
-67.6896372783551
 30
0.0
 11
124.314739615193
 21
-116.519569442018
 31
0.0
  0
LINE
  5
   101
  8
0
  6
CONTINUOUS
 62
     7
 10
109.439939433337
 20
-114.519569442018
 30
0.0
 11
142.597118577532
 21
-114.519569442018
 31
0.0
  0
LINE
  5
   102
  8
0
  6
CONTINUOUS
 62
     7
 10
112.394362710544
 20
-113.998625012066
 30
0.0
 11
109.439939433337
 21
-114.519569442018
 31
0.0
  0
LINE
  5
   103
  8
0
  6
CONTINUOUS
 62
     7
 10
109.439939433337
 20
-114.519569442018
 30
0.0
 11
112.394362710544
 21
-115.04051387197
 31
0.0
  0
LINE
  5
   104
  8
0
  6
CONTINUOUS
 62
     7
 10
121.360316337986
 20
-115.04051387197
 30
0.0
 11
124.314739615193
 21
-114.519569442018
 31
0.0
  0
LINE
  5
   105
  8
0
  6
CONTINUOUS
 62
     7
 10
124.314739615193
 20
-114.519569442018
 30
0.0
 11
121.360316337986
 21
-113.998625012066
 31
0.0
  0
ENDBLK
  5
   106
  8
0
  6
CONTINUOUS
 62
     7
  0
BLOCK
  5
   107
  8
0
  6
CONTINUOUS
 62
     7
  2
*UDIM1060
 70
    65
 10
0.0
 20
0.0
 30
0.0
  3
*UDIM1060
  0
TEXT
  5
   108
  8
0
  6
CONTINUOUS
 62
     7
 10
196.805239811439
 20
-22.2494106148783
 30
0.0
 40
3.00000002980232
  1
2,75
 50
359.999999844103
 41
0.933333333333333
 72
     1
 11
202.105239868164
 21
-20.7494106143713
 31
0.0
 73
     2
  0
LINE
  5
   109
  8
0
  6
CONTINUOUS
 62
     7
 10
209.870330810547
 20
-9.93453399658203
 30
0.0
 11
209.870330810547
 21
-25.2494106292725
 31
0.0
  0
LINE
  5
   10A
  8
0
  6
CONTINUOUS
 62
     7
 10
196.805239815513
 20
-23.2494106292725
 30
0.0
 11
210.557830810547
 21
-23.2494106292725
 31
0.0
  0
LINE
  5
   10B
  8
0
  6
CONTINUOUS
 62
     7
 10
206.91590753334
 20
-23.7703550592241
 30
0.0
 11
209.870330810547
 21
-23.2494106292725
 31
0.0
  0
LINE
  5
   10C
  8
0
  6
CONTINUOUS
 62
     7
 10
209.870330810547
 20
-23.2494106292725
 30
0.0
 11
206.91590753334
 21
-22.7284661993208
 31
0.0
  0
LINE
  5
   10D
  8
0
  6
CONTINUOUS
 62
     7
 10
213.512254087754
 20
-22.7284661993208
 30
0.0
 11
210.557830810547
 21
-23.2494106292725
 31
0.0
  0
LINE
  5
   10E
  8
0
  6
CONTINUOUS
 62
     7
 10
210.557830810547
 20
-23.2494106292725
 30
0.0
 11
213.512254087754
 21
-23.7703550592241
 31
0.0
  0
ENDBLK
  5
   10F
  8
0
  6
CONTINUOUS
 62
     7
  0
BLOCK
  5
   110
  8
0
  6
CONTINUOUS
 62
     7
  2
*UDIM1061
 70
    65
 10
0.0
 20
0.0
 30
0.0
  3
*UDIM1061
  0
TEXT
  5
   111
  8
0
  6
CONTINUOUS
 62
     7
 10
241.869567864307
 20
-21.2895340314497
 30
0.0
 40
3.00000002980232
  1
90
 50
449.999999844103
 41
0.933333333333333
 72
     1
 11
240.369567856193
 21
-18.7895340025425
 31
0.0
 73
     2
  0
LINE
  5
   112
  8
0
  6
CONTINUOUS
 62
     7
 10
223.790330810547
 20
-7.26453399658203
 30
0.0
 11
244.869567871094
 21
-7.26453399658203
 31
0.0
  0
LINE
  5
   113
  8
0
  6
CONTINUOUS
 62
     7
 10
239.188124109918
 20
-29.764533996582
 30
0.0
 11
244.869567871094
 21
-29.764533996582
 31
0.0
  0
LINE
  5
   114
  8
0
  6
CONTINUOUS
 62
     7
 10
242.869567871094
 20
-7.26453399658203
 30
0.0
 11
242.869567871094
 21
-29.764533996582
 31
0.0
  0
LINE
  5
   115
  8
0
  6
CONTINUOUS
 62
     7
 10
243.390512301045
 20
-10.218957273789
 30
0.0
 11
242.869567871094
 21
-7.26453399658203
 31
0.0
  0
LINE
  5
   116
  8
0
  6
CONTINUOUS
 62
     7
 10
242.869567871094
 20
-7.26453399658203
 30
0.0
 11
242.348623441142
 21
-10.218957273789
 31
0.0
  0
LINE
  5
   117
  8
0
  6
CONTINUOUS
 62
     7
 10
242.348623441142
 20
-26.8101107193751
 30
0.0
 11
242.869567871094
 21
-29.764533996582
 31
0.0
  0
LINE
  5
   118
  8
0
  6
CONTINUOUS
 62
     7
 10
242.869567871094
 20
-29.764533996582
 30
0.0
 11
243.390512301045
 21
-26.8101107193751
 31
0.0
  0
ENDBLK
  5
   119
  8
0
  6
CONTINUOUS
 62
     7
  0
BLOCK
  5
   11A
  8
0
  6
CONTINUOUS
 62
     7
  2
*UDIM1062
 70
    65
 10
0.0
 20
0.0
 30
0.0
  3
*UDIM1062
  0
TEXT
  5
   11B
  8
0
  6
CONTINUOUS
 62
     7
 10
212.920858451127
 20
2.5961208411403
 30
0.0
 40
3.00000002980232
  1
45
 50
359.999999844103
 41
0.933333333333333
 72
     1
 11
215.420858480036
 21
4.09612084925175
 31
0.0
 73
     2
  0
LINE
  5
   11C
  8
0
  6
CONTINUOUS
 62
     7
 10
209.870330810547
 20
-4.59453399658203
 30
0.0
 11
209.870330810547
 21
3.59612083435059
 31
0.0
  0
LINE
  5
   11D
  8
0
  6
CONTINUOUS
 62
     7
 10
221.120330810547
 20
-4.59453399658203
 30
0.0
 11
221.120330810547
 21
3.59612083435059
 31
0.0
  0
LINE
  5
   11E
  8
0
  6
CONTINUOUS
 62
     7
 10
209.870330810547
 20
1.59612083435059
 30
0.0
 11
221.120330810547
 21
1.59612083435059
 31
0.0
  0
LINE
  5
   11F
  8
0
  6
CONTINUOUS
 62
     7
 10
206.91590753334
 20
1.07517640439892
 30
0.0
 11
209.870330810547
 21
1.59612083435059
 31
0.0
  0
LINE
  5
   120
  8
0
  6
CONTINUOUS
 62
     7
 10
209.870330810547
 20
1.59612083435059
 30
0.0
 11
206.91590753334
 21
2.11706526430225
 31
0.0
  0
LINE
  5
   121
  8
0
  6
CONTINUOUS
 62
     7
 10
224.074754087754
 20
2.11706526430225
 30
0.0
 11
221.120330810547
 21
1.59612083435059
 31
0.0
  0
LINE
  5
   122
  8
0
  6
CONTINUOUS
 62
     7
 10
221.120330810547
 20
1.59612083435059
 30
0.0
 11
224.074754087754
 21
1.07517640439892
 31
0.0
  0
ENDBLK
  5
   123
  8
0
  6
CONTINUOUS
 62
     7
  0
BLOCK
  5
   124
  8
0
  6
CONTINUOUS
 62
     7
  2
*UDIM1063
 70
    65
 10
0.0
 20
0.0
 30
0.0
  3
*UDIM1063
  0
TEXT
  5
   125
  8
0
  6
CONTINUOUS
 62
     7
 10
180.555465384182
 20
-62.499593838884
 30
0.0
 40
3.00000002980232
  1
7
 50
397.208926617964
 41
0.933333333333334
 72
     1
 11
180.524459858626
 21
-60.6397447250769
 31
0.0
 73
     2
  0
TEXT
  5
   126
  8
0
  6
CONTINUOUS
 62
     7
 10
178.046692887092
 20
-64.4044719505823
 30
0.0
 40
3.00000002980232
  1
Ø
 50
397.208926617964
 41
0.933333333333334
 72
     1
 11
178.015687361536
 21
-62.5446228367753
 31
0.0
 73
     2
  0
LINE
  5
   127
  8
0
  6
CONTINUOUS
 62
     7
 10
196.879712057541
 20
-51.3604011894457
 30
0.0
 11
178.651416100298
 21
-65.2009076613485
 31
0.0
  0
LINE
  5
   128
  8
0
  6
CONTINUOUS
 62
     7
 10
198.917693073525
 20
-49.1588941196207
 30
0.0
 11
196.879712057541
 21
-51.3604011894457
 31
0.0
  0
LINE
  5
   129
  8
0
  6
CONTINUOUS
 62
     7
 10
196.879712057541
 20
-51.3604011894457
 30
0.0
 11
199.547747447427
 21
-49.9886916143848
 31
0.0
  0
LINE
  5
   12A
  8
0
  6
CONTINUOUS
 62
     7
 10
193.447968547569
 20
-54.6201738735434
 30
0.0
 11
195.485949563553
 21
-52.4186668037183
 31
0.0
  0
LINE
  5
   12B
  8
0
  6
CONTINUOUS
 62
     7
 10
195.485949563553
 20
-52.4186668037183
 30
0.0
 11
192.817914173667
 21
-53.7903763787792
 31
0.0
  0
ENDBLK
  5
   12C
  8
0
  6
CONTINUOUS
 62
     7
  0
BLOCK
  5
   12D
  8
0
  6
CONTINUOUS
 62
     7
  2
*UDIM1064
 70
    65
 10
0.0
 20
0.0
 30
0.0
  3
*UDIM1064
  0
TEXT
  5
   12E
  8
0
  6
CONTINUOUS
 62
     7
 10
206.38283076177
 20
-76.1441383255897
 30
0.0
 40
3.00000002980232
  1
147
 50
359.999999844103
 41
0.933333333333333
 72
     1
 11
210.282830804586
 21
-74.6441383212805
 31
0.0
 73
     2
  0
LINE
  5
   12F
  8
0
  6
CONTINUOUS
 62
     7
 10
192.182830810547
 20
-49.139533996582
 30
0.0
 11
192.182830810547
 21
-79.1441383361816
 31
0.0
  0
LINE
  5
   130
  8
0
  6
CONTINUOUS
 62
     7
 10
228.932830810547
 20
-49.139533996582
 30
0.0
 11
228.932830810547
 21
-79.1441383361816
 31
0.0
  0
LINE
  5
   131
  8
0
  6
CONTINUOUS
 62
     7
 10
192.182830810547
 20
-77.1441383361816
 30
0.0
 11
228.932830810547
 21
-77.1441383361816
 31
0.0
  0
LINE
  5
   132
  8
0
  6
CONTINUOUS
 62
     7
 10
195.137254087754
 20
-76.62319390623
 30
0.0
 11
192.182830810547
 21
-77.1441383361816
 31
0.0
  0
LINE
  5
   133
  8
0
  6
CONTINUOUS
 62
     7
 10
192.182830810547
 20
-77.1441383361816
 30
0.0
 11
195.137254087754
 21
-77.6650827661333
 31
0.0
  0
LINE
  5
   134
  8
0
  6
CONTINUOUS
 62
     7
 10
225.97840753334
 20
-77.6650827661333
 30
0.0
 11
228.932830810547
 21
-77.1441383361816
 31
0.0
  0
LINE
  5
   135
  8
0
  6
CONTINUOUS
 62
     7
 10
228.932830810547
 20
-77.1441383361816
 30
0.0
 11
225.97840753334
 21
-76.62319390623
 31
0.0
  0
ENDBLK
  5
   136
  8
0
  6
CONTINUOUS
 62
     7
  0
BLOCK
  5
   137
  8
0
  6
CONTINUOUS
 62
     7
  2
*UDIM1065
 70
    65
 10
0.0
 20
0.0
 30
0.0
  3
*UDIM1065
  0
TEXT
  5
   138
  8
0
  6
CONTINUOUS
 62
     7
 10
206.38283076177
 20
-64.7252311600624
 30
0.0
 40
3.00000002980232
  1
115
 50
359.999999844103
 41
0.933333333333333
 72
     1
 11
210.282830804586
 21
-63.2252311557531
 31
0.0
 73
     2
  0
LINE
  5
   139
  8
0
  6
CONTINUOUS
 62
     7
 10
196.182830810547
 20
-10.264533996582
 30
0.0
 11
196.182830810547
 21
-67.7252311706543
 31
0.0
  0
LINE
  5
   13A
  8
0
  6
CONTINUOUS
 62
     7
 10
224.932830810547
 20
-10.264533996582
 30
0.0
 11
224.932830810547
 21
-67.7252311706543
 31
0.0
  0
LINE
  5
   13B
  8
0
  6
CONTINUOUS
 62
     7
 10
196.182830810547
 20
-65.7252311706543
 30
0.0
 11
224.932830810547
 21
-65.7252311706543
 31
0.0
  0
LINE
  5
   13C
  8
0
  6
CONTINUOUS
 62
     7
 10
199.137254087754
 20
-65.2042867407026
 30
0.0
 11
196.182830810547
 21
-65.7252311706543
 31
0.0
  0
LINE
  5
   13D
  8
0
  6
CONTINUOUS
 62
     7
 10
196.182830810547
 20
-65.7252311706543
 30
0.0
 11
199.137254087754
 21
-66.246175600606
 31
0.0
  0
LINE
  5
   13E
  8
0
  6
CONTINUOUS
 62
     7
 10
221.97840753334
 20
-66.246175600606
 30
0.0
 11
224.932830810547
 21
-65.7252311706543
 31
0.0
  0
LINE
  5
   13F
  8
0
  6
CONTINUOUS
 62
     7
 10
224.932830810547
 20
-65.7252311706543
 30
0.0
 11
221.97840753334
 21
-65.2042867407026
 31
0.0
  0
ENDBLK
  5
   140
  8
0
  6
CONTINUOUS
 62
     7
  0
BLOCK
  5
   141
  8
0
  6
CONTINUOUS
 62
     7
  2
*UDIM1066
 70
    65
 10
0.0
 20
0.0
 30
0.0
  3
*UDIM1066
  0
TEXT
  5
   142
  8
0
  6
CONTINUOUS
 62
     7
 10
169.537090290927
 20
-33.9395340453575
 30
0.0
 40
3.00000002980232
  1
177
 50
449.999999844103
 41
0.933333333333333
 72
     1
 11
168.037090286613
 21
-30.0395340025425
 31
0.0
 73
     2
  0
LINE
  5
   143
  8
0
  6
CONTINUOUS
 62
     7
 10
193.557830810547
 20
-7.63953399658203
 30
0.0
 11
168.537090301514
 21
-7.63953399658203
 31
0.0
  0
LINE
  5
   144
  8
0
  6
CONTINUOUS
 62
     7
 10
193.557830810547
 20
-51.889533996582
 30
0.0
 11
168.537090301514
 21
-51.889533996582
 31
0.0
  0
LINE
  5
   145
  8
0
  6
CONTINUOUS
 62
     7
 10
170.537090301514
 20
-7.63953399658203
 30
0.0
 11
170.537090301514
 21
-51.889533996582
 31
0.0
  0
LINE
  5
   146
  8
0
  6
CONTINUOUS
 62
     7
 10
171.058034731465
 20
-10.593957273789
 30
0.0
 11
170.537090301514
 21
-7.63953399658203
 31
0.0
  0
LINE
  5
   147
  8
0
  6
CONTINUOUS
 62
     7
 10
170.537090301514
 20
-7.63953399658203
 30
0.0
 11
170.016145871562
 21
-10.593957273789
 31
0.0
  0
LINE
  5
   148
  8
0
  6
CONTINUOUS
 62
     7
 10
170.016145871562
 20
-48.9351107193751
 30
0.0
 11
170.537090301514
 21
-51.889533996582
 31
0.0
  0
LINE
  5
   149
  8
0
  6
CONTINUOUS
 62
     7
 10
170.537090301514
 20
-51.889533996582
 30
0.0
 11
171.058034731465
 21
-48.9351107193751
 31
0.0
  0
ENDBLK
  5
   14A
  8
0
  6
CONTINUOUS
 62
     7
  0
BLOCK
  5
   14B
  8
0
  6
CONTINUOUS
 62
     7
  2
*UDIM1067
 70
    65
 10
0.0
 20
0.0
 30
0.0
  3
*UDIM1067
  0
TEXT
  5
   14C
  8
0
  6
CONTINUOUS
 62
     7
 10
178.909399022006
 20
-33.9395340453575
 30
0.0
 40
3.00000002980232
  1
147
 50
449.999999844103
 41
0.933333333333333
 72
     1
 11
177.409399017692
 21
-30.0395340025425
 31
0.0
 73
     2
  0
LINE
  5
   14D
  8
0
  6
CONTINUOUS
 62
     7
 10
191.182830810547
 20
-11.389533996582
 30
0.0
 11
177.909399032593
 21
-11.389533996582
 31
0.0
  0
LINE
  5
   14E
  8
0
  6
CONTINUOUS
 62
     7
 10
191.182830810547
 20
-48.139533996582
 30
0.0
 11
177.909399032593
 21
-48.139533996582
 31
0.0
  0
LINE
  5
   14F
  8
0
  6
CONTINUOUS
 62
     7
 10
179.909399032593
 20
-11.389533996582
 30
0.0
 11
179.909399032593
 21
-48.139533996582
 31
0.0
  0
LINE
  5
   150
  8
0
  6
CONTINUOUS
 62
     7
 10
180.430343462544
 20
-14.343957273789
 30
0.0
 11
179.909399032593
 21
-11.389533996582
 31
0.0
  0
LINE
  5
   151
  8
0
  6
CONTINUOUS
 62
     7
 10
179.909399032593
 20
-11.389533996582
 30
0.0
 11
179.388454602641
 21
-14.343957273789
 31
0.0
  0
LINE
  5
   152
  8
0
  6
CONTINUOUS
 62
     7
 10
179.388454602641
 20
-45.1851107193751
 30
0.0
 11
179.909399032593
 21
-48.139533996582
 31
0.0
  0
LINE
  5
   153
  8
0
  6
CONTINUOUS
 62
     7
 10
179.909399032593
 20
-48.139533996582
 30
0.0
 11
180.430343462544
 21
-45.1851107193751
 31
0.0
  0
ENDBLK
  5
   154
  8
0
  6
CONTINUOUS
 62
     7
  0
BLOCK
  5
   155
  8
0
  6
CONTINUOUS
 62
     7
  2
*HATCH402
 70
    65
 10
0.0
 20
0.0
 30
0.0
  3
*HATCH402
  0
LINE
  5
   156
  8
0
  6
CONTINUOUS
 62
    52
 10
-11.7279224395752
 20
1.0
 30
0.0
 11
-11.9763488769531
 21
0.75157368183136
 31
0.0
  0
LINE
  5
   157
  8
0
  6
CONTINUOUS
 62
    52
 10
-9.60660171508789
 20
1.0
 30
0.0
 11
-11.6066026687622
 21
-1.0
 31
0.0
  0
LINE
  5
   158
  8
0
  6
CONTINUOUS
 62
    52
 10
-7.48528146743774
 20
1.0
 30
0.0
 11
-9.48528289794922
 21
-1.0
 31
0.0
  0
LINE
  5
   159
  8
0
  6
CONTINUOUS
 62
    52
 10
-5.3639612197876
 20
1.0
 30
0.0
 11
-7.36396265029907
 21
-1.0
 31
0.0
  0
LINE
  5
   15A
  8
0
  6
CONTINUOUS
 62
    52
 10
-3.47947335243225
 20
0.763167560100555
 30
0.0
 11
-5.24264097213745
 21
-1.0
 31
0.0
  0
LINE
  5
   15B
  8
0
  6
CONTINUOUS
 62
    52
 10
-2.51160907745361
 20
-0.390288293361664
 30
0.0
 11
-3.1213207244873
 21
-1.0
 31
0.0
  0
ENDBLK
  5
   15C
  8
0
  6
CONTINUOUS
 62
     7
  0
BLOCK
  5
   15D
  8
0
  6
CONTINUOUS
 62
     7
  2
*HATCH403
 70
    65
 10
0.0
 20
0.0
 30
0.0
  3
*HATCH403
  0
LINE
  5
   15E
  8
0
  6
CONTINUOUS
 62
    52
 10
5.24264097213745
 20
1.0
 30
0.0
 11
3.24264073371887
 21
-1.0
 31
0.0
  0
LINE
  5
   15F
  8
0
  6
CONTINUOUS
 62
    52
 10
7.3639612197876
 20
1.0
 30
0.0
 11
5.3639612197876
 21
-1.0
 31
0.0
  0
LINE
  5
   160
  8
0
  6
CONTINUOUS
 62
    52
 10
9.48528099060059
 20
1.0
 30
0.0
 11
7.4852819442749
 21
-1.0
 31
0.0
  0
ENDBLK
  5
   161
  8
0
  6
CONTINUOUS
 62
     7
  0
BLOCK
  5
   162
  8
0
  6
CONTINUOUS
 62
     7
  2
*UDIM1068
 70
    65
 10
0.0
 20
0.0
 30
0.0
  3
*UDIM1068
  0
TEXT
  5
   163
  8
0
  6
CONTINUOUS
 62
     7
 10
233.039243463443
 20
30.2850226628081
 30
0.0
 40
3.00000002980232
  1
80
 50
449.241125536518
 41
0.933333333333333
 72
     1
 11
231.572486193508
 21
32.8046701143325
 31
0.0
 73
     2
  0
TEXT
  5
   164
  8
0
  6
CONTINUOUS
 62
     7
 10
232.505518429181
 20
35.2925308342543
 30
0.0
 40
3.00000002980232
  1
°
 50
449.241125536518
 41
0.933333333333334
 72
     1
 11
231.02021890002
 21
36.4123010684612
 31
0.0
 73
     2
  0
LINE
  5
   165
  8
0
  6
CONTINUOUS
 62
     7
 10
215.976814096439
 20
29.8585632988573
 30
0.0
 11
230.17878126267
 21
17.9416978876815
 31
0.0
  0
LINE
  5
   166
  8
0
  6
CONTINUOUS
 62
     7
 10
215.976814096439
 20
38.5005370429395
 30
0.0
 11
230.17878126267
 21
50.4174024541154
 31
0.0
  0
ARC
  5
   167
  8
0
  6
CONTINUOUS
 62
     7
 10
210.827262468132
 20
34.1795501708984
 30
0.0
 40
23.2616136940404
 50
319.999999815233
 51
399.999999769042
  0
LINE
  5
   168
  8
0
  6
CONTINUOUS
 62
     7
 10
230.146692467052
 20
21.8253492660885
 30
0.0
 11
228.646692376432
 21
19.2272731070546
 31
0.0
  0
LINE
  5
   169
  8
0
  6
CONTINUOUS
 62
     7
 10
228.646692376432
 20
19.2272731070546
 30
0.0
 11
230.944825638528
 21
21.1556360162722
 31
0.0
  0
LINE
  5
   16A
  8
0
  6
CONTINUOUS
 62
     7
 10
230.944825638528
 20
47.2034643255247
 30
0.0
 11
228.646692376432
 21
49.1318272347423
 31
0.0
  0
LINE
  5
   16B
  8
0
  6
CONTINUOUS
 62
     7
 10
228.646692376432
 20
49.1318272347423
 30
0.0
 11
230.146692467052
 21
46.5337510757084
 31
0.0
  0
ENDBLK
  5
   16C
  8
0
  6
CONTINUOUS
 62
     7
  0
BLOCK
  5
   16D
  8
0
  6
CONTINUOUS
 62
     7
  2
*UDIM1069
 70
    65
 10
0.0
 20
0.0
 30
0.0
  3
*UDIM1069
  0
TEXT
  5
   16E
  8
0
  6
CONTINUOUS
 62
     7
 10
192.765102379688
 20
40.0646171280752
 30
0.0
 40
3.00000002980232
  1
Ø4
 50
449.999999844103
 41
0.933333333333333
 72
     1
 11
191.265102371573
 21
42.5646171569824
 31
0.0
 73
     2
  0
LINE
  5
   16F
  8
0
  6
CONTINUOUS
 62
     7
 10
212.21076965332
 20
36.1795501708984
 30
0.0
 11
191.765102386475
 21
36.1795501708984
 31
0.0
  0
LINE
  5
   170
  8
0
  6
CONTINUOUS
 62
     7
 10
212.21076965332
 20
32.1795501708984
 30
0.0
 11
191.765102386475
 21
32.1795501708984
 31
0.0
  0
LINE
  5
   171
  8
0
  6
CONTINUOUS
 62
     7
 10
193.765102386475
 20
45.0646171818177
 30
0.0
 11
193.765102386475
 21
32.1795501708984
 31
0.0
  0
LINE
  5
   172
  8
0
  6
CONTINUOUS
 62
     7
 10
193.244157956523
 20
39.1339734481054
 30
0.0
 11
193.765102386475
 21
36.1795501708984
 31
0.0
  0
LINE
  5
   173
  8
0
  6
CONTINUOUS
 62
     7
 10
193.765102386475
 20
36.1795501708984
 30
0.0
 11
194.286046816426
 21
39.1339734481054
 31
0.0
  0
LINE
  5
   174
  8
0
  6
CONTINUOUS
 62
     7
 10
194.286046816426
 20
29.2251268936915
 30
0.0
 11
193.765102386475
 21
32.1795501708984
 31
0.0
  0
LINE
  5
   175
  8
0
  6
CONTINUOUS
 62
     7
 10
193.765102386475
 20
32.1795501708984
 30
0.0
 11
193.244157956523
 21
29.2251268936915
 31
0.0
  0
ENDBLK
  5
   176
  8
0
  6
CONTINUOUS
 62
     7
  0
BLOCK
  5
   177
  8
0
  6
CONTINUOUS
 62
     7
  2
*UDIM1070
 70
    65
 10
0.0
 20
0.0
 30
0.0
  3
*UDIM1070
  0
TEXT
  5
   178
  8
0
  6
CONTINUOUS
 62
     7
 10
16.5963339311058
 20
-167.867346853936
 30
0.0
 40
2.99999994933605
  1
35
 50
395.039571313353
 41
0.933333333333333
 72
     1
 11
17.7820101125146
 21
-165.203858219505
 31
0.0
 73
     2
  0
TEXT
  5
   179
  8
0
  6
CONTINUOUS
 62
     7
 10
14.0172534940685
 20
-169.675894279392
 30
0.0
 40
2.99999994933605
  1
Ø
 50
395.039571313353
 41
0.933333333333333
 72
     1
 11
14.0566717028613
 21
-167.816204496673
 31
0.0
 73
     2
  0
LINE
  5
   17A
  8
0
  6
CONTINUOUS
 62
     7
 10
21.2642544524736
 20
-165.815392371507
 30
0.0
 11
0.463630320839364
 21
-180.401566038905
 31
0.0
  0
LINE
  5
   17B
  8
0
  6
CONTINUOUS
 62
     7
 10
4.0750655401831
 20
-178.505356498913
 30
0.0
 11
6.19492035884432
 21
-176.382571642221
 31
0.0
  0
LINE
  5
   17C
  8
0
  6
CONTINUOUS
 62
     7
 10
6.19492035884432
 20
-176.382571642221
 30
0.0
 11
3.47687333625126
 21
-177.652304048271
 31
0.0
  0
LINE
  5
   17D
  8
0
  6
CONTINUOUS
 62
     7
 10
2.58348513950059
 20
-178.278781182214
 30
0.0
 11
0.463630320839364
 21
-180.401566038905
 31
0.0
  0
LINE
  5
   17E
  8
0
  6
CONTINUOUS
 62
     7
 10
0.463630320839364
 20
-180.401566038905
 30
0.0
 11
3.18167734343242
 21
-179.131833632856
 31
0.0
  0
ENDBLK
  5
   17F
  8
0
  6
CONTINUOUS
 62
     7
  0
BLOCK
  5
   180
  8
0
  6
CONTINUOUS
 62
     7
  2
*UDIM1071
 70
    65
 10
0.0
 20
0.0
 30
0.0
  3
*UDIM1071
  0
TEXT
  5
   181
  8
0
  6
CONTINUOUS
 62
     7
 10
18.3690552399507
 20
-184.574600638715
 30
0.0
 40
2.99999994933605
  1
8
 50
449.999999896069
 41
0.933333333333333
 72
     1
 11
16.8690552672711
 21
-183.47460065458
 31
0.0
 73
     2
  0
LINE
  5
   182
  8
0
  6
CONTINUOUS
 62
     7
 10
4.32927533984184
 20
-174.892068788409
 30
0.0
 11
21.3690552419391
 21
-174.892068788409
 31
0.0
  0
LINE
  5
   183
  8
0
  6
CONTINUOUS
 62
     7
 10
0.82927528768778
 20
-176.492068812251
 30
0.0
 11
21.3690552419391
 21
-176.492068812251
 31
0.0
  0
LINE
  5
   184
  8
0
  6
CONTINUOUS
 62
     7
 10
19.3690552419391
 20
-174.892068788409
 30
0.0
 11
19.3690552419391
 21
-184.574600636003
 31
0.0
  0
LINE
  5
   185
  8
0
  6
CONTINUOUS
 62
     7
 10
18.8481108119875
 20
-171.937645511202
 30
0.0
 11
19.3690552419391
 21
-174.892068788409
 31
0.0
  0
LINE
  5
   186
  8
0
  6
CONTINUOUS
 62
     7
 10
19.3690552419391
 20
-174.892068788409
 30
0.0
 11
19.8899996718908
 21
-171.937645511202
 31
0.0
  0
LINE
  5
   187
  8
0
  6
CONTINUOUS
 62
     7
 10
19.8899996718908
 20
-179.446492089458
 30
0.0
 11
19.3690552419391
 21
-176.492068812251
 31
0.0
  0
LINE
  5
   188
  8
0
  6
CONTINUOUS
 62
     7
 10
19.3690552419391
 20
-176.492068812251
 30
0.0
 11
18.8481108119875
 21
-179.446492089458
 31
0.0
  0
ENDBLK
  5
   189
  8
0
  6
CONTINUOUS
 62
     7
  0
BLOCK
  5
   18A
  8
0
  6
CONTINUOUS
 62
     1
  2
*UDIM1072
 70
    65
 10
0.0
 20
0.0
 30
0.0
  3
*UDIM1072
  0
TEXT
  5
   18B
  8
0
  6
CONTINUOUS
 62
     1
 10
11.4943450397801
 20
-105.883205420747
 30
0.0
 40
2.00000007748604
  1
FORATURA DA ESEGUIRE SOLO PER ESECUZ.TERM.POST.
 50
359.999999896069
 41
0.93749995827675
 72
     2
 11
99.2443445211122
 21
-103.883205501993
 31
0.0
 73
     3
  0
TEXT
  5
   18C
  8
0
  6
CONTINUOUS
 62
     1
 10
13.3693450289767
 20
-108.883205422443
 30
0.0
 40
2.00000007748604
  1
REAR TERMINAL EXECUTION ONLY DRILLING TEMPLATE
 50
359.999999896069
 41
0.93749995827675
 72
     2
 11
99.2443445211122
 21
-106.883205500297
 31
0.0
 73
     3
  0
LINE
  5
   18D
  8
0
  6
CONTINUOUS
 62
     1
 10
3.03067151459152
 20
-127.920467746681
 30
0.0
 11
11.4193450386088
 21
-109.883205500113
 31
0.0
  0
LINE
  5
   18E
  8
0
  6
CONTINUOUS
 62
     1
 10
11.4193450386088
 20
-109.883205500113
 30
0.0
 11
99.2443445193033
 21
-109.883205500113
 31
0.0
  0
LINE
  5
   18F
  8
0
  6
CONTINUOUS
 62
     1
 10
3.80419215382408
 20
-125.021905030319
 30
0.0
 11
3.03067151459152
 21
-127.920467746681
 31
0.0
  0
LINE
  5
   190
  8
0
  6
CONTINUOUS
 62
     1
 10
3.03067151459152
 20
-127.920467746681
 30
0.0
 11
4.74890981544062
 21
-125.461269271264
 31
0.0
  0
ENDBLK
  5
   191
  8
0
  6
CONTINUOUS
 62
     1
  0
BLOCK
  5
   192
  8
0
  6
CONTINUOUS
 62
     7
  2
*UDIM1073
 70
    65
 10
0.0
 20
0.0
 30
0.0
  3
*UDIM1073
  0
TEXT
  5
   193
  8
0
  6
CONTINUOUS
 62
     7
 10
-53.5409231273009
 20
-187.513605840988
 30
0.0
 40
2.99999994933605
  1
5,5
 50
376.410037752177
 41
0.933333333333333
 72
     1
 11
-50.2235559240269
 21
-184.972922025769
 31
0.0
 73
     2
  0
TEXT
  5
   194
  8
0
  6
CONTINUOUS
 62
     7
 10
-56.5626062392765
 20
-188.40351081436
 30
0.0
 40
2.99999994933605
  1
Ø
 50
376.410037752177
 41
0.933333333333333
 72
     1
 11
-55.9311795791681
 21
-186.653853631927
 31
0.0
 73
     2
  0
TEXT
  5
   195
  8
0
  6
CONTINUOUS
 62
     7
 10
-45.5310647071414
 20
-185.154651392879
 30
0.0
 40
2.99999994933605
  1
 - M5
 50
376.410037752177
 41
0.933333333333333
 72
     1
 11
-39.5277569607019
 21
-181.822940944875
 31
0.0
 73
     2
  0
LINE
  5
   196
  8
0
  6
CONTINUOUS
 62
     7
 10
-17.1431294927557
 20
-177.836688597269
 30
0.0
 11
-56.2800967178968
 21
-189.362775310893
 31
0.0
  0
LINE
  5
   197
  8
0
  6
CONTINUOUS
 62
     7
 10
-14.4562278984967
 20
-176.502312404897
 30
0.0
 11
-17.1431294927557
 21
-177.836688597269
 31
0.0
  0
LINE
  5
   198
  8
0
  6
CONTINUOUS
 62
     7
 10
-17.1431294927557
 20
-177.836688597269
 30
0.0
 11
-14.1618843786517
 21
-177.501759396346
 31
0.0
  0
LINE
  5
   199
  8
0
  6
CONTINUOUS
 62
     7
 10
-20.8852220476684
 20
-179.481825264308
 30
0.0
 11
-18.1983204534094
 21
-178.147449071937
 31
0.0
  0
LINE
  5
   19A
  8
0
  6
CONTINUOUS
 62
     7
 10
-18.1983204534094
 20
-178.147449071937
 30
0.0
 11
-21.1795655675134
 21
-178.48237827286
 31
0.0
  0
ENDBLK
  5
   19B
  8
0
  6
CONTINUOUS
 62
     7
  0
BLOCK
  5
   19C
  8
0
  6
CONTINUOUS
 62
     7
  2
*UDIM1074
 70
    65
 10
0.0
 20
0.0
 30
0.0
  3
*UDIM1074
  0
TEXT
  5
   19D
  8
0
  6
CONTINUOUS
 62
     7
 10
-6.44572477674124
 20
-166.16528186455
 30
0.0
 40
2.99999994933605
  1
70
 50
359.999999896069
 41
0.933333333333333
 72
     1
 11
-3.94572481624782
 21
-164.665281894404
 31
0.0
 73
     2
  0
LINE
  5
   19E
  8
0
  6
CONTINUOUS
 62
     7
 10
3.32927533984184
 20
-172.192068763077
 30
0.0
 11
3.32927533984184
 21
-165.165281869072
 31
0.0
  0
LINE
  5
   19F
  8
0
  6
CONTINUOUS
 62
     7
 10
-10.6707248687744
 20
-172.192068763077
 30
0.0
 11
-10.6707248687744
 21
-165.165281869072
 31
0.0
  0
LINE
  5
   1A0
  8
0
  6
CONTINUOUS
 62
     7
 10
3.32927533984184
 20
-167.165281869072
 30
0.0
 11
-10.6707248687744
 21
-167.165281869072
 31
0.0
  0
LINE
  5
   1A1
  8
0
  6
CONTINUOUS
 62
     7
 10
0.374852062634879
 20
-167.686226299024
 30
0.0
 11
3.32927533984184
 21
-167.165281869072
 31
0.0
  0
LINE
  5
   1A2
  8
0
  6
CONTINUOUS
 62
     7
 10
3.32927533984184
 20
-167.165281869072
 30
0.0
 11
0.374852062634879
 21
-166.64433743912
 31
0.0
  0
LINE
  5
   1A3
  8
0
  6
CONTINUOUS
 62
     7
 10
-7.71630159156745
 20
-166.64433743912
 30
0.0
 11
-10.6707248687744
 21
-167.165281869072
 31
0.0
  0
LINE
  5
   1A4
  8
0
  6
CONTINUOUS
 62
     7
 10
-10.6707248687744
 20
-167.165281869072
 30
0.0
 11
-7.71630159156745
 21
-167.686226299024
 31
0.0
  0
ENDBLK
  5
   1A5
  8
0
  6
CONTINUOUS
 62
     7
  0
BLOCK
  5
   1A6
  8
0
  6
CONTINUOUS
 62
     7
  2
*UDIM1075
 70
    65
 10
0.0
 20
0.0
 30
0.0
  3
*UDIM1075
  0
TEXT
  5
   1A7
  8
0
  6
CONTINUOUS
 62
     7
 10
-20.4457249853575
 20
-166.16528186455
 30
0.0
 40
2.99999994933605
  1
70
 50
359.999999896069
 41
0.933333333333333
 72
     1
 11
-17.9457250248641
 21
-164.665281894404
 31
0.0
 73
     2
  0
LINE
  5
   1A8
  8
0
  6
CONTINUOUS
 62
     7
 10
-24.6707250773907
 20
-172.192068763077
 30
0.0
 11
-24.6707250773907
 21
-165.165281869072
 31
0.0
  0
LINE
  5
   1A9
  8
0
  6
CONTINUOUS
 62
     7
 10
-10.6707248687744
 20
-167.165281869072
 30
0.0
 11
-24.6707250773907
 21
-167.165281869072
 31
0.0
  0
LINE
  5
   1AA
  8
0
  6
CONTINUOUS
 62
     7
 10
-13.6251481459814
 20
-167.686226299024
 30
0.0
 11
-10.6707248687744
 21
-167.165281869072
 31
0.0
  0
LINE
  5
   1AB
  8
0
  6
CONTINUOUS
 62
     7
 10
-10.6707248687744
 20
-167.165281869072
 30
0.0
 11
-13.6251481459814
 21
-166.64433743912
 31
0.0
  0
LINE
  5
   1AC
  8
0
  6
CONTINUOUS
 62
     7
 10
-21.7163018001837
 20
-166.64433743912
 30
0.0
 11
-24.6707250773907
 21
-167.165281869072
 31
0.0
  0
LINE
  5
   1AD
  8
0
  6
CONTINUOUS
 62
     7
 10
-24.6707250773907
 20
-167.165281869072
 30
0.0
 11
-21.7163018001837
 21
-167.686226299024
 31
0.0
  0
ENDBLK
  5
   1AE
  8
0
  6
CONTINUOUS
 62
     7
  0
BLOCK
  5
   1AF
  8
0
  6
CONTINUOUS
 62
     7
  2
*UDIM1076
 70
    65
 10
0.0
 20
0.0
 30
0.0
  3
*UDIM1076
  0
TEXT
  5
   1B0
  8
0
  6
CONTINUOUS
 62
     7
 10
27.0919374449485
 20
-158.467068470075
 30
0.0
 40
2.99999994933605
  1
241
 50
449.999999896069
 41
0.933333333333333
 72
     1
 11
25.5919374773303
 21
-154.567068533227
 31
0.0
 73
     2
  0
LINE
  5
   1B1
  8
0
  6
CONTINUOUS
 62
     7
 10
9.52927541732788
 20
-130.192068122327
 30
0.0
 11
30.0919374519983
 21
-130.192068122327
 31
0.0
  0
LINE
  5
   1B2
  8
0
  6
CONTINUOUS
 62
     7
 10
9.52927541732788
 20
-178.392068840563
 30
0.0
 11
30.0919374519983
 21
-178.392068840563
 31
0.0
  0
LINE
  5
   1B3
  8
0
  6
CONTINUOUS
 62
     7
 10
28.0919374519983
 20
-130.192068122327
 30
0.0
 11
28.0919374519983
 21
-178.392068840563
 31
0.0
  0
LINE
  5
   1B4
  8
0
  6
CONTINUOUS
 62
     7
 10
28.61288188195
 20
-133.146491399534
 30
0.0
 11
28.0919374519983
 21
-130.192068122327
 31
0.0
  0
LINE
  5
   1B5
  8
0
  6
CONTINUOUS
 62
     7
 10
28.0919374519983
 20
-130.192068122327
 30
0.0
 11
27.5709930220467
 21
-133.146491399534
 31
0.0
  0
LINE
  5
   1B6
  8
0
  6
CONTINUOUS
 62
     7
 10
27.5709930220467
 20
-175.437645563356
 30
0.0
 11
28.0919374519983
 21
-178.392068840563
 31
0.0
  0
LINE
  5
   1B7
  8
0
  6
CONTINUOUS
 62
     7
 10
28.0919374519983
 20
-178.392068840563
 30
0.0
 11
28.61288188195
 21
-175.437645563356
 31
0.0
  0
ENDBLK
  5
   1B8
  8
0
  6
CONTINUOUS
 62
     7
  0
BLOCK
  5
   1B9
  8
0
  6
CONTINUOUS
 62
     7
  2
*UDIM1077
 70
    65
 10
0.0
 20
0.0
 30
0.0
  3
*UDIM1077
  0
TEXT
  5
   1BA
  8
0
  6
CONTINUOUS
 62
     7
 10
19.2877716792433
 20
-144.794058024346
 30
0.0
 40
2.99999994933605
  1
106
 50
449.999999896069
 41
0.933333333333333
 72
     1
 11
17.7877717116251
 21
-140.894058087498
 31
0.0
 73
     2
  0
LINE
  5
   1BB
  8
0
  6
CONTINUOUS
 62
     7
 10
9.52927541732788
 20
-130.192068122327
 30
0.0
 11
22.2877716862931
 21
-130.192068122327
 31
0.0
  0
LINE
  5
   1BC
  8
0
  6
CONTINUOUS
 62
     7
 10
8.54289041560364
 20
-151.392068438232
 30
0.0
 11
22.2877716862931
 21
-151.392068438232
 31
0.0
  0
LINE
  5
   1BD
  8
0
  6
CONTINUOUS
 62
     7
 10
20.2877716862931
 20
-130.192068122327
 30
0.0
 11
20.2877716862931
 21
-151.392068438232
 31
0.0
  0
LINE
  5
   1BE
  8
0
  6
CONTINUOUS
 62
     7
 10
20.8087161162448
 20
-133.146491399534
 30
0.0
 11
20.2877716862931
 21
-130.192068122327
 31
0.0
  0
LINE
  5
   1BF
  8
0
  6
CONTINUOUS
 62
     7
 10
20.2877716862931
 20
-130.192068122327
 30
0.0
 11
19.7668272563415
 21
-133.146491399534
 31
0.0
  0
LINE
  5
   1C0
  8
0
  6
CONTINUOUS
 62
     7
 10
19.7668272563415
 20
-148.437645161025
 30
0.0
 11
20.2877716862931
 21
-151.392068438232
 31
0.0
  0
LINE
  5
   1C1
  8
0
  6
CONTINUOUS
 62
     7
 10
20.2877716862931
 20
-151.392068438232
 30
0.0
 11
20.8087161162448
 21
-148.437645161025
 31
0.0
  0
ENDBLK
  5
   1C2
  8
0
  6
CONTINUOUS
 62
     7
  0
BLOCK
  5
   1C3
  8
0
  6
CONTINUOUS
 62
     7
  2
*UDIM1078
 70
    65
 10
0.0
 20
0.0
 30
0.0
  3
*UDIM1078
  0
TEXT
  5
   1C4
  8
0
  6
CONTINUOUS
 62
     7
 10
-43.3653878236975
 20
-144.794059550201
 30
0.0
 40
2.99999994933605
  1
104
 50
449.999999896069
 41
0.933333333333333
 72
     1
 11
-44.8653877913156
 21
-140.894059613353
 31
0.0
 73
     2
  0
LINE
  5
   1C5
  8
0
  6
CONTINUOUS
 62
     7
 10
-21.2352357253244
 20
-130.592067814371
 30
0.0
 11
-44.3653878166475
 21
-130.592060553436
 31
0.0
  0
LINE
  5
   1C6
  8
0
  6
CONTINUOUS
 62
     7
 10
-37.3999377096882
 20
-151.392065811937
 30
0.0
 11
-44.3653878166407
 21
-151.392047518611
 31
0.0
  0
LINE
  5
   1C7
  8
0
  6
CONTINUOUS
 62
     7
 10
-42.3653878166476
 20
-130.592061181269
 30
0.0
 11
-42.3653878166476
 21
-151.392052771201
 31
0.0
  0
LINE
  5
   1C8
  8
0
  6
CONTINUOUS
 62
     7
 10
-41.844443386696
 20
-133.546484458475
 30
0.0
 11
-42.3653878166476
 21
-130.592061181269
 31
0.0
  0
LINE
  5
   1C9
  8
0
  6
CONTINUOUS
 62
     7
 10
-42.3653878166476
 20
-130.592061181269
 30
0.0
 11
-42.8863322465993
 21
-133.546484458475
 31
0.0
  0
LINE
  5
   1CA
  8
0
  6
CONTINUOUS
 62
     7
 10
-42.8863322465993
 20
-148.437629493994
 30
0.0
 11
-42.3653878166476
 21
-151.392052771201
 31
0.0
  0
LINE
  5
   1CB
  8
0
  6
CONTINUOUS
 62
     7
 10
-42.3653878166476
 20
-151.392052771201
 30
0.0
 11
-41.844443386696
 21
-148.437629493994
 31
0.0
  0
ENDBLK
  5
   1CC
  8
0
  6
CONTINUOUS
 62
     7
  0
BLOCK
  5
   1CD
  8
0
  6
CONTINUOUS
 62
     7
  2
*UDIM1079
 70
    65
 10
0.0
 20
0.0
 30
0.0
  3
*UDIM1079
  0
TEXT
  5
   1CE
  8
0
  6
CONTINUOUS
 62
     7
 10
-13.4457233551704
 20
-146.211666760089
 30
0.0
 40
2.99999994933605
  1
70
 50
359.999999896069
 41
0.933333333333333
 72
     1
 11
-10.945723394677
 21
-144.711666789943
 31
0.0
 73
     2
  0
LINE
  5
   1CF
  8
0
  6
CONTINUOUS
 62
     7
 10
-3.67072476446629
 20
-147.211666764611
 30
0.0
 11
-17.6707249730825
 21
-147.211666764611
 31
0.0
  0
LINE
  5
   1D0
  8
0
  6
CONTINUOUS
 62
     7
 10
-6.62514804167325
 20
-147.732611194563
 30
0.0
 11
-3.67072476446629
 21
-147.211666764611
 31
0.0
  0
LINE
  5
   1D1
  8
0
  6
CONTINUOUS
 62
     7
 10
-3.67072476446629
 20
-147.211666764611
 30
0.0
 11
-6.62514804167325
 21
-146.690722334659
 31
0.0
  0
LINE
  5
   1D2
  8
0
  6
CONTINUOUS
 62
     7
 10
-14.7163016958756
 20
-146.690722334659
 30
0.0
 11
-17.6707249730825
 21
-147.211666764611
 31
0.0
  0
LINE
  5
   1D3
  8
0
  6
CONTINUOUS
 62
     7
 10
-17.6707249730825
 20
-147.211666764611
 30
0.0
 11
-14.7163016958756
 21
-147.732611194563
 31
0.0
  0
ENDBLK
  5
   1D4
  8
0
  6
CONTINUOUS
 62
     7
  0
BLOCK
  5
   1D5
  8
0
  6
CONTINUOUS
 62
     7
  2
*UDIM1080
 70
    65
 10
0.0
 20
0.0
 30
0.0
  3
*UDIM1080
  0
TEXT
  5
   1D6
  8
0
  6
CONTINUOUS
 62
     7
 10
-51.3893869667019
 20
-163.312271223816
 30
0.0
 40
2.99999994933605
  1
237
 50
449.999999896069
 41
0.933333333333333
 72
     1
 11
-52.8893869343201
 21
-159.412271286968
 31
0.0
 73
     2
  0
LINE
  5
   1D7
  8
0
  6
CONTINUOUS
 62
     7
 10
-21.2352357253244
 20
-130.592067814371
 30
0.0
 11
-52.3893869596519
 21
-130.59205803457
 31
0.0
  0
LINE
  5
   1D8
  8
0
  6
CONTINUOUS
 62
     7
 10
-21.3731576201424
 20
-177.992068520686
 30
0.0
 11
-52.3893869596519
 21
-177.992058784181
 31
0.0
  0
LINE
  5
   1D9
  8
0
  6
CONTINUOUS
 62
     7
 10
-50.389386959652
 20
-130.592058662403
 30
0.0
 11
-50.389386959652
 21
-177.992059412014
 31
0.0
  0
LINE
  5
   1DA
  8
0
  6
CONTINUOUS
 62
     7
 10
-49.8684425297004
 20
-133.54648193961
 30
0.0
 11
-50.389386959652
 21
-130.592058662403
 31
0.0
  0
LINE
  5
   1DB
  8
0
  6
CONTINUOUS
 62
     7
 10
-50.389386959652
 20
-130.592058662403
 30
0.0
 11
-50.9103313896037
 21
-133.54648193961
 31
0.0
  0
LINE
  5
   1DC
  8
0
  6
CONTINUOUS
 62
     7
 10
-50.9103313896037
 20
-175.037636134807
 30
0.0
 11
-50.389386959652
 21
-177.992059412014
 31
0.0
  0
LINE
  5
   1DD
  8
0
  6
CONTINUOUS
 62
     7
 10
-50.389386959652
 20
-177.992059412014
 30
0.0
 11
-49.8684425297004
 21
-175.037636134807
 31
0.0
  0
ENDBLK
  5
   1DE
  8
0
  6
CONTINUOUS
 62
     7
  0
ENDSEC
  0
SECTION
  2
ENTITIES
  0
LINE
  5
   1DF
  8
0
  6
CONTINUOUS
 62
     1
 10
13.9867555218952
 20
-50.1520848214623
 30
0.0
 11
13.9867555218952
 21
-13.4021152794331
 31
0.0
  0
LINE
  5
   1E0
  8
0
  6
DASHDOT
 62
     7
 10
-10.6707248687744
 20
-91.8479979439374
 30
0.0
 11
-10.6707248687744
 21
16.3764791463111
 31
0.0
  0
LINE
  5
   1E1
  8
0
  6
DASHDOT
 62
     7
 10
45.0520307264114
 20
-29.7646052628734
 30
0.0
 11
-66.7453951138426
 21
-29.7646052628734
 31
0.0
  0
LINE
  5
   1E2
  8
0
  6
CONTINUOUS
 62
     7
 10
1.40426855683381
 20
-52.4271056175207
 30
0.0
 11
1.40426855683381
 21
-15.1521094262575
 31
0.0
  0
LINE
  5
   1E3
  8
0
  6
CONTINUOUS
 62
     7
 10
1.40426855683381
 20
-19.1575678487693
 30
0.0
 11
-33.9457251608369
 21
-19.1575678487693
 31
0.0
  0
LINE
  5
   1E4
  8
0
  6
CONTINUOUS
 62
     7
 10
1.40426855683381
 20
-18.8075678845321
 30
0.0
 11
-33.9457251608369
 21
-18.8075678845321
 31
0.0
  0
LINE
  5
   1E5
  8
0
  6
CONTINUOUS
 62
     7
 10
-18.0207241177559
 20
-47.8140525763065
 30
0.0
 11
-18.0207241177559
 21
-20.1151651019968
 31
0.0
  0
LINE
  5
   1E6
  8
0
  6
CONTINUOUS
 62
     7
 10
-3.32072561979294
 20
-47.8140525763065
 30
0.0
 11
-3.32072561979294
 21
-20.1151651019968
 31
0.0
  0
LINE
  5
   1E7
  8
0
  6
CONTINUOUS
 62
     7
 10
-18.0207241177559
 20
-25.8075671692764
 30
0.0
 11
-33.9457251608369
 21
-25.8075671692764
 31
0.0
  0
LINE
  5
   1E8
  8
0
  6
CONTINUOUS
 62
     7
 10
1.40426855683381
 20
-25.8075671692764
 30
0.0
 11
-3.32072561979294
 21
-25.8075671692764
 31
0.0
  0
LINE
  5
   1E9
  8
0
  6
CONTINUOUS
 62
     7
 10
-2.3582257181406
 20
-25.4575672050391
 30
0.0
 11
-3.32072561979294
 21
-25.4575672050391
 31
0.0
  0
LINE
  5
   1EA
  8
0
  6
CONTINUOUS
 62
     7
 10
-18.0207241177559
 20
-25.4575672050391
 30
0.0
 11
-33.9457251608369
 21
-25.4575672050391
 31
0.0
  0
LINE
  5
   1EB
  8
0
  6
CONTINUOUS
 62
     7
 10
1.40426855683381
 20
-42.1979686698689
 30
0.0
 11
-3.32072561979294
 21
-42.1979686698689
 31
0.0
  0
LINE
  5
   1EC
  8
0
  6
CONTINUOUS
 62
     7
 10
-18.0207241177559
 20
-42.1979686698689
 30
0.0
 11
-33.9457251608369
 21
-42.1979686698689
 31
0.0
  0
LINE
  5
   1ED
  8
0
  6
CONTINUOUS
 62
     7
 10
-18.0207241177559
 20
-42.5479686341062
 30
0.0
 11
-33.9457251608369
 21
-42.5479686341062
 31
0.0
  0
LINE
  5
   1EE
  8
0
  6
CONTINUOUS
 62
     7
 10
1.40426855683381
 20
-42.5479686341062
 30
0.0
 11
-3.32072561979294
 21
-42.5479686341062
 31
0.0
  0
LINE
  5
   1EF
  8
0
  6
CONTINUOUS
 62
     7
 10
1.40426855683381
 20
-48.847967990376
 30
0.0
 11
-33.9457251608369
 21
-48.847967990376
 31
0.0
  0
LINE
  5
   1F0
  8
0
  6
CONTINUOUS
 62
     7
 10
1.40426855683381
 20
-49.1979679546132
 30
0.0
 11
-33.9457251608369
 21
-49.1979679546132
 31
0.0
  0
LINE
  5
   1F1
  8
0
  6
CONTINUOUS
 62
     7
 10
-3.32072561979294
 20
-20.4973340235183
 30
0.0
 11
-18.0207241177559
 21
-20.4973340235183
 31
0.0
  0
LINE
  5
   1F2
  8
0
  6
CONTINUOUS
 62
     7
 10
-3.32072561979294
 20
-20.1151651019968
 30
0.0
 11
-18.0207241177559
 21
-20.1151651019968
 31
0.0
  0
LINE
  5
   1F3
  8
0
  6
CONTINUOUS
 62
     7
 10
-3.32072561979294
 20
-47.8140525763065
 30
0.0
 11
-18.0207241177559
 21
-47.8140525763065
 31
0.0
  0
LINE
  5
   1F4
  8
0
  6
CONTINUOUS
 62
     7
 10
-3.32072561979294
 20
-47.431884322357
 30
0.0
 11
-18.0207241177559
 21
-47.431884322357
 31
0.0
  0
LINE
  5
   1F5
  8
0
  6
CONTINUOUS
 62
     7
 10
-21.6957250773905
 20
-20.7325676878368
 30
0.0
 11
-22.2207250237464
 21
-20.7325676878368
 31
0.0
  0
LINE
  5
   1F6
  8
0
  6
CONTINUOUS
 62
     7
 10
-21.6957250773905
 20
-23.8825673659717
 30
0.0
 11
-22.2207250237464
 21
-23.8825673659717
 31
0.0
  0
LINE
  5
   1F7
  8
0
  6
CONTINUOUS
 62
     7
 10
-21.6957250773905
 20
-23.8825673659717
 30
0.0
 11
-21.6957250773905
 21
-20.7325676878368
 31
0.0
  0
LINE
  5
   1F8
  8
0
  6
CONTINUOUS
 62
     7
 10
-22.2207250237464
 20
-23.8825673659717
 30
0.0
 11
-22.2207250237464
 21
-20.7325676878368
 31
0.0
  0
CIRCLE
  5
   1F9
  8
0
  6
CONTINUOUS
 62
     7
 10
-21.9582250505685
 20
-45.6979683122411
 30
0.0
 40
1.13749988377094
  0
CIRCLE
  5
   1FA
  8
0
  6
CONTINUOUS
 62
     7
 10
-21.9582250505685
 20
-45.6979683122411
 30
0.0
 40
1.66249983012676
  0
LINE
  5
   1FB
  8
0
  6
CONTINUOUS
 62
     7
 10
-2.35822571814061
 20
-25.4575672050391
 30
0.0
 11
-2.35822571814061
 21
-19.1575678487693
 31
0.0
  0
LINE
  5
   1FC
  8
0
  6
CONTINUOUS
 62
     7
 10
-18.9832240194082
 20
-25.4575672050391
 30
0.0
 11
-18.9832240194082
 21
-19.1575678487693
 31
0.0
  0
LINE
  5
   1FD
  8
0
  6
CONTINUOUS
 62
     7
 10
1.40426855683381
 20
-25.4575672050391
 30
0.0
 11
-2.3582257181406
 21
-25.4575672050391
 31
0.0
  0
LINE
  5
   1FE
  8
0
  6
CONTINUOUS
 62
     7
 10
-2.35822571814061
 20
-48.847967990376
 30
0.0
 11
-2.35822571814061
 21
-42.5479686341062
 31
0.0
  0
LINE
  5
   1FF
  8
0
  6
CONTINUOUS
 62
     7
 10
-18.9832240194082
 20
-48.847967990376
 30
0.0
 11
-18.9832240194082
 21
-42.5479686341062
 31
0.0
  0
INSERT
  5
   200
  8
0
  6
CONTINUOUS
 62
    18
  2
*HATCH397
 10
-10.6707248687744
 20
-55.2270812988281
 30
0.0
 41
0.349999964237213
 42
0.349999964237213
 50
89.9999999480344
  0
LINE
  5
   201
  8
0
  6
CONTINUOUS
 62
     7
 10
13.6542726457119
 20
-5.26460776626845
 30
0.0
 11
-34.9957223832607
 21
-5.26460776626845
 31
0.0
  0
LINE
  5
   202
  8
0
  6
CONTINUOUS
 62
     7
 10
13.6542726457119
 20
-54.2646050125336
 30
0.0
 11
-34.9957223832607
 21
-54.2646050125336
 31
0.0
  0
LINE
  5
   203
  8
0
  6
CONTINUOUS
 62
     7
 10
10.6792729496956
 20
-12.8771096587157
 30
0.0
 11
10.6792729496956
 21
-11.827109766004
 31
0.0
  0
LINE
  5
   204
  8
0
  6
CONTINUOUS
 62
     7
 10
11.7292728424072
 20
-12.8771096587157
 30
0.0
 11
11.7292728424072
 21
-11.827109766004
 31
0.0
  0
LINE
  5
   205
  8
0
  6
DOT
 62
     7
 10
4.97426311850654
 20
-50.6138947432232
 30
0.0
 11
4.97426311850654
 21
-47.7653164858579
 31
0.0
  0
LINE
  5
   206
  8
0
  6
DOT
 62
     7
 10
9.38426213383787
 20
-50.6138947432232
 30
0.0
 11
9.38426213383787
 21
-47.7653164858579
 31
0.0
  0
LINE
  5
   207
  8
0
  6
CONTINUOUS
 62
     7
 10
11.729262161256
 20
-42.6270585536981
 30
0.0
 11
10.6792622685443
 21
-42.6270585536981
 31
0.0
  0
LINE
  5
   208
  8
0
  6
CONTINUOUS
 62
     7
 10
10.5042622864257
 20
-43.6770584464098
 30
0.0
 11
10.5042622864257
 21
-42.8020585358167
 31
0.0
  0
LINE
  5
   209
  8
0
  6
CONTINUOUS
 62
     7
 10
10.5042622864257
 20
-44.3770590424562
 30
0.0
 11
10.5042622864257
 21
-43.6770584464098
 31
0.0
  0
LINE
  5
   20A
  8
0
  6
CONTINUOUS
 62
     7
 10
10.5042622864257
 20
-45.0770589709306
 30
0.0
 11
10.5042622864257
 21
-44.3770590424562
 31
0.0
  0
LINE
  5
   20B
  8
0
  6
CONTINUOUS
 62
     7
 10
10.5042622864257
 20
-45.777058899405
 30
0.0
 11
10.5042622864257
 21
-45.0770589709306
 31
0.0
  0
LINE
  5
   20C
  8
0
  6
CONTINUOUS
 62
     7
 10
10.5042622864257
 20
-46.652058809998
 30
0.0
 11
10.5042622864257
 21
-45.777058899405
 31
0.0
  0
LINE
  5
   20D
  8
0
  6
CONTINUOUS
 62
     7
 10
11.729262161256
 20
-46.8270587921166
 30
0.0
 11
10.6792622685443
 21
-46.8270587921166
 31
0.0
  0
LINE
  5
   20E
  8
0
  6
CONTINUOUS
 62
     7
 10
11.9042621433746
 20
-46.652058809998
 30
0.0
 11
11.9042621433746
 21
-45.777058899405
 31
0.0
  0
LINE
  5
   20F
  8
0
  6
CONTINUOUS
 62
     7
 10
11.9042621433746
 20
-45.777058899405
 30
0.0
 11
11.9042621433746
 21
-45.0770589709306
 31
0.0
  0
LINE
  5
   210
  8
0
  6
CONTINUOUS
 62
     7
 10
11.9042621433746
 20
-45.0770589709306
 30
0.0
 11
11.9042621433746
 21
-44.3770590424562
 31
0.0
  0
LINE
  5
   211
  8
0
  6
CONTINUOUS
 62
     7
 10
11.9042621433746
 20
-44.3770590424562
 30
0.0
 11
11.9042621433746
 21
-43.6770597815537
 31
0.0
  0
LINE
  5
   212
  8
0
  6
CONTINUOUS
 62
     7
 10
11.9042621433746
 20
-43.6770597815537
 30
0.0
 11
11.9042621433746
 21
-42.8020585358167
 31
0.0
  0
ARC
  5
   213
  8
0
  6
CONTINUOUS
 62
     7
 10
11.2042727006855
 20
-11.8271104263079
 30
0.0
 40
0.524999302322405
 50
359.999973013555
 51
540.000043615088
  0
ARC
  5
   214
  8
0
  6
CONTINUOUS
 62
     7
 10
11.2042400065966
 20
-12.8770651826952
 30
0.0
 40
0.52505174731448
 50
180.004949696118
 51
359.995034083139
  0
ARC
  5
   215
  8
0
  6
DOT
 62
     7
 10
7.17926336832726
 20
-49.1896042577226
 30
0.0
 40
2.62500139177998
 50
392.859977017252
 51
507.140082588953
  0
ARC
  5
   216
  8
0
  6
DOT
 62
     7
 10
7.17926336832726
 20
-49.1896042577226
 30
0.0
 40
2.62500139177998
 50
212.859917307116
 51
327.140022878817
  0
ARC
  5
   217
  8
0
  6
CONTINUOUS
 62
     7
 10
10.6792624101096
 20
-42.8020581261764
 30
0.0
 40
0.174999811768228
 50
449.999889462241
 51
540.000025360212
  0
ARC
  5
   218
  8
0
  6
CONTINUOUS
 62
     7
 10
11.7292630107245
 20
-42.8020578501648
 30
0.0
 40
0.174999366440514
 50
359.999829068822
 51
450.000145163477
  0
ARC
  5
   219
  8
0
  6
CONTINUOUS
 62
     7
 10
11.7292628192386
 20
-46.6520589624701
 30
0.0
 40
0.174999637680245
 50
269.999943873992
 51
360.000134042801
  0
ARC
  5
   21A
  8
0
  6
CONTINUOUS
 62
     7
 10
10.6792621580202
 20
-46.6520591300346
 30
0.0
 40
0.174999639432298
 50
179.999866090912
 51
270.000166521604
  0
ARC
  5
   21B
  8
0
  6
CONTINUOUS
 62
     7
 10
13.6542726457119
 20
-54.089605030415
 30
0.0
 40
0.174999982118607
 50
269.999999948034
 51
359.999999948034
  0
ARC
  5
   21C
  8
0
  6
CONTINUOUS
 62
     7
 10
13.6542726457119
 20
-5.43960774838706
 30
0.0
 40
0.174999982118607
 50
359.999999948034
 51
449.999999948034
  0
LINE
  5
   21D
  8
0
  6
DASHDOT
 62
     7
 10
11.2042727006855
 20
-14.7146094872315
 30
0.0
 11
11.2042727006855
 21
-12.9646109541122
 31
0.0
  0
LINE
  5
   21E
  8
0
  6
DASHDOT
 62
     7
 10
12.0792719672451
 20
-11.8271104263079
 30
0.0
 11
10.3292734341259
 21
-11.8271104263079
 31
0.0
  0
LINE
  5
   21F
  8
0
  6
DASHDOT
 62
     7
 10
11.2042400065966
 20
-38.1015075104531
 30
0.0
 11
11.2042400065966
 21
-9.98951367677953
 31
0.0
  0
LINE
  5
   220
  8
0
  6
DASHDOT
 62
     7
 10
12.0792917181483
 20
-12.8770651826952
 30
0.0
 11
10.3291882950449
 21
-12.8770651826952
 31
0.0
  0
LINE
  5
   221
  8
0
  6
DASHDOT
 62
     7
 10
7.17926336832727
 20
-52.1646056137399
 30
0.0
 11
7.17926336832727
 21
-46.2146029017055
 31
0.0
  0
LINE
  5
   222
  8
0
  6
DASHDOT
 62
     7
 10
10.1542647243445
 20
-49.1896042577226
 30
0.0
 11
4.20426201231007
 21
-49.1896042577226
 31
0.0
  0
LINE
  5
   223
  8
0
  6
DASHDOT
 62
     7
 10
11.6417731889991
 20
-53.9146048996714
 30
0.0
 11
11.6417731889991
 21
-50.2396054457007
 31
0.0
  0
LINE
  5
   224
  8
0
  6
DASHDOT
 62
     7
 10
13.4792729159845
 20
-52.077105172686
 30
0.0
 11
9.8042734620138
 21
-52.077105172686
 31
0.0
  0
LINE
  5
   225
  8
0
  6
DASHDOT
 62
     7
 10
13.2424620078177
 20
-44.7270586729074
 30
0.0
 11
9.67319000658583
 21
-44.7270586729074
 31
0.0
  0
LINE
  5
   226
  8
0
  6
DASHDOT
 62
     7
 10
11.2042622149002
 20
-47.4809099047823
 30
0.0
 11
11.2042622149002
 21
-42.1082162608228
 31
0.0
  0
ARC
  5
   227
  8
0
  6
CONTINUOUS
 62
     7
 10
-34.9957223832607
 20
-54.089605030415
 30
0.0
 40
0.174999982118607
 50
179.999999948034
 51
269.999999948034
  0
ARC
  5
   228
  8
0
  6
CONTINUOUS
 62
     7
 10
-34.9957223832607
 20
-5.43960774838706
 30
0.0
 40
0.174999982118607
 50
89.9999999480344
 51
179.999999948034
  0
LINE
  5
   229
  8
0
  6
CONTINUOUS
 62
     7
 10
13.6542726457119
 20
-5.26460776626845
 30
0.0
 11
-34.9957223832607
 21
-5.26460776626845
 31
0.0
  0
LINE
  5
   22A
  8
0
  6
CONTINUOUS
 62
     7
 10
13.6542726457119
 20
-54.2646050125336
 30
0.0
 11
-34.9957223832607
 21
-54.2646050125336
 31
0.0
  0
LINE
  5
   22B
  8
0
  6
CONTINUOUS
 62
     7
 10
13.5667726546526
 20
-9.46460733711501
 30
0.0
 11
-34.9082223922014
 21
-9.46460733711501
 31
0.0
  0
LINE
  5
   22C
  8
0
  6
CONTINUOUS
 62
     7
 10
13.5667726546526
 20
-5.96460769474288
 30
0.0
 11
-34.9082223922014
 21
-5.96460769474288
 31
0.0
  0
LINE
  5
   22D
  8
0
  6
CONTINUOUS
 62
     7
 10
-35.1707223653793
 20
-54.089605030415
 30
0.0
 11
-35.1707223653793
 21
-5.43960774838706
 31
0.0
  0
LINE
  5
   22E
  8
0
  6
CONTINUOUS
 62
     7
 10
13.8292726278305
 20
-54.089605030415
 30
0.0
 11
13.8292726278305
 21
-5.43960774838706
 31
0.0
  0
LINE
  5
   22F
  8
0
  6
CONTINUOUS
 62
     7
 10
1.0542685925966
 20
-10.5146099001145
 30
0.0
 11
-33.5957251965997
 21
-10.5146099001145
 31
0.0
  0
LINE
  5
   230
  8
0
  6
CONTINUOUS
 62
     7
 10
1.22926857471521
 20
-53.0396057218289
 30
0.0
 11
-33.5957251965997
 21
-53.0396057218289
 31
0.0
  0
LINE
  5
   231
  8
0
  6
CONTINUOUS
 62
     7
 10
-33.9457251608369
 20
-52.6896057575916
 30
0.0
 11
-33.9457251608369
 21
-10.8646098643517
 31
0.0
  0
LINE
  5
   232
  8
0
  6
CONTINUOUS
 62
     7
 10
1.40426855683381
 20
-52.8646057397102
 30
0.0
 11
1.40426855683381
 21
-10.8646098643517
 31
0.0
  0
LINE
  5
   233
  8
0
  6
CONTINUOUS
 62
     7
 10
11.729275512695
 20
-27.7521081387972
 30
0.0
 11
11.729275512695
 21
-27.0521349132009
 31
0.0
  0
LINE
  5
   234
  8
0
  6
CONTINUOUS
 62
     7
 10
11.7292781829829
 20
-29.6771079421019
 30
0.0
 11
11.7292781829829
 21
-28.9771080136275
 31
0.0
  0
LINE
  5
   235
  8
0
  6
CONTINUOUS
 62
     7
 10
10.6792676097413
 20
-34.4896087852684
 30
0.0
 11
10.679272950317
 21
-33.7896075216531
 31
0.0
  0
LINE
  5
   236
  8
0
  6
CONTINUOUS
 62
     7
 10
10.6792553702986
 20
-34.4896087854926
 30
0.0
 11
10.6792553702986
 21
-25.0396110862317
 31
0.0
  0
LINE
  5
   237
  8
0
  6
CONTINUOUS
 62
     7
 10
11.7292861938463
 20
-34.4896087855075
 30
0.0
 11
10.6792729496956
 21
-34.4896087855075
 31
0.0
  0
LINE
  5
   238
  8
0
  6
CONTINUOUS
 62
     7
 10
11.7292861938606
 20
-34.4896087802167
 30
0.0
 11
11.7292755127089
 21
-25.039635114106
 31
0.0
  0
LINE
  5
   239
  8
0
  6
CONTINUOUS
 62
     7
 10
11.7292755245246
 20
-25.0396351109299
 30
0.0
 11
10.6792809723615
 21
-25.0396110783395
 31
0.0
  0
LINE
  5
   23A
  8
0
  6
CONTINUOUS
 62
     7
 10
-18.0207241177559
 20
-47.431884322357
 30
0.0
 11
-18.0207241177559
 21
-20.4973346910903
 31
0.0
  0
LINE
  5
   23B
  8
0
  6
CONTINUOUS
 62
     7
 10
-3.32072561979294
 20
-47.431884322357
 30
0.0
 11
-3.32072561979294
 21
-20.4973346910903
 31
0.0
  0
LINE
  5
   23C
  8
0
  6
CONTINUOUS
 62
     7
 10
-3.32072561979294
 20
-47.431884322357
 30
0.0
 11
-18.0207241177559
 21
-47.431884322357
 31
0.0
  0
LINE
  5
   23D
  8
0
  6
CONTINUOUS
 62
     7
 10
-3.32072561979294
 20
-47.1771054863906
 30
0.0
 11
-18.0207241177559
 21
-47.1771054863906
 31
0.0
  0
LINE
  5
   23E
  8
0
  6
CONTINUOUS
 62
     7
 10
-3.32072561979294
 20
-20.7521115243408
 30
0.0
 11
-18.0207241177559
 21
-20.7521115243408
 31
0.0
  0
LINE
  5
   23F
  8
0
  6
CONTINUOUS
 62
     7
 10
-3.32072561979294
 20
-20.4973340235183
 30
0.0
 11
-18.0207241177559
 21
-20.4973340235183
 31
0.0
  0
CIRCLE
  5
   240
  8
0
  6
CONTINUOUS
 62
     7
 10
11.6417683562204
 20
-52.0771052920154
 30
0.0
 40
0.910002492644921
  0
CIRCLE
  5
   241
  8
0
  6
CONTINUOUS
 62
     7
 10
11.6417678364491
 20
-52.0771060309387
 30
0.0
 40
1.48750398503051
  0
LINE
  5
   242
  8
0
  6
CONTINUOUS
 62
     7
 10
13.5667726546526
 20
-53.8271050572371
 30
0.0
 11
13.5667726546526
 21
-5.70210772156497
 31
0.0
  0
LINE
  5
   243
  8
0
  6
CONTINUOUS
 62
     7
 10
13.391772672534
 20
-54.0021050393557
 30
0.0
 11
-34.7332224100828
 21
-54.0021050393557
 31
0.0
  0
LINE
  5
   244
  8
0
  6
CONTINUOUS
 62
     7
 10
-34.9082223922014
 20
-53.8271050572371
 30
0.0
 11
-34.9082223922014
 21
-5.70210772156497
 31
0.0
  0
LINE
  5
   245
  8
0
  6
CONTINUOUS
 62
     7
 10
13.391772672534
 20
-5.52710773944636
 30
0.0
 11
-34.7332224100828
 21
-5.52710773944636
 31
0.0
  0
ARC
  5
   246
  8
0
  6
CONTINUOUS
 62
     7
 10
-34.7332224100828
 20
-5.70210772156497
 30
0.0
 40
0.174999982118607
 50
89.9999999480344
 51
179.999999948034
  0
ARC
  5
   247
  8
0
  6
CONTINUOUS
 62
     7
 10
13.391772672534
 20
-5.70210772156497
 30
0.0
 40
0.174999982118607
 50
359.999999948034
 51
449.999999948034
  0
ARC
  5
   248
  8
0
  6
CONTINUOUS
 62
     7
 10
13.391772672534
 20
-53.8271050572371
 30
0.0
 40
0.174999982118607
 50
269.999999948034
 51
359.999999948034
  0
ARC
  5
   249
  8
0
  6
CONTINUOUS
 62
     7
 10
-34.7332224100828
 20
-53.8271050572371
 30
0.0
 40
0.174999982118607
 50
179.999999948034
 51
269.999999948034
  0
ARC
  5
   24A
  8
0
  6
CONTINUOUS
 62
     7
 10
-33.5957251965997
 20
-52.6896057575916
 30
0.0
 40
0.349999964237213
 50
179.999999948034
 51
269.999999948034
  0
ARC
  5
   24B
  8
0
  6
CONTINUOUS
 62
     7
 10
-33.5957251965997
 20
-10.8646098643517
 30
0.0
 40
0.349999964237213
 50
89.9999999480344
 51
179.999999948034
  0
ARC
  5
   24C
  8
0
  6
CONTINUOUS
 62
     7
 10
1.0542685925966
 20
-10.8646098643517
 30
0.0
 40
0.349999964237213
 50
359.999999948034
 51
449.999999948034
  0
LINE
  5
   24D
  8
0
  6
CONTINUOUS
 62
     7
 10
1.23143857449348
 20
-53.2167757037257
 30
0.0
 11
-33.7728951784966
 21
-53.2167757037257
 31
0.0
  0
LINE
  5
   24E
  8
0
  6
CONTINUOUS
 62
     7
 10
-34.1228951427338
 20
-52.8667757394885
 30
0.0
 11
-34.1228951427338
 21
-10.6874398824548
 31
0.0
  0
LINE
  5
   24F
  8
0
  6
CONTINUOUS
 62
     7
 10
1.58143853873069
 20
-52.8667757394885
 30
0.0
 11
1.58143853873069
 21
-10.6874398824548
 31
0.0
  0
LINE
  5
   250
  8
0
  6
CONTINUOUS
 62
     7
 10
1.23143857449348
 20
-10.3374399182176
 30
0.0
 11
-33.7728951784966
 21
-10.3374399182176
 31
0.0
  0
ARC
  5
   251
  8
0
  6
CONTINUOUS
 62
     7
 10
1.23143857449348
 20
-10.6874398824548
 30
0.0
 40
0.349999964237213
 50
359.999999948034
 51
449.999999948034
  0
ARC
  5
   252
  8
0
  6
CONTINUOUS
 62
     7
 10
1.23143857449348
 20
-52.8667757394885
 30
0.0
 40
0.349999964237213
 50
269.999999948034
 51
359.999999948034
  0
ARC
  5
   253
  8
0
  6
CONTINUOUS
 62
     7
 10
-33.7728951784966
 20
-52.8667757394885
 30
0.0
 40
0.349999964237213
 50
179.999999948034
 51
269.999999948034
  0
ARC
  5
   254
  8
0
  6
CONTINUOUS
 62
     7
 10
-33.7728951784966
 20
-10.6874398824548
 30
0.0
 40
0.349999964237213
 50
89.9999999480344
 51
179.999999948034
  0
LINE
  5
   255
  8
0
  6
CONTINUOUS
 62
     7
 10
1.0542685925966
 20
-51.4561929885687
 30
0.0
 11
1.0542685925966
 21
-18.6641651025811
 31
0.0
  0
LINE
  5
   256
  8
0
  6
DASHDOT
 62
     7
 10
9.8042734620138
 20
-52.077105172686
 30
0.0
 11
2.06236289895605
 21
-52.077105172686
 31
0.0
  0
LINE
  5
   257
  8
0
  6
CONTINUOUS
 62
     7
 10
11.6242677795892
 20
-43.5020584642912
 30
0.0
 11
11.6242677795892
 21
-42.8020585358167
 31
0.0
  0
LINE
  5
   258
  8
0
  6
CONTINUOUS
 62
     7
 10
11.9042621433746
 20
-42.8020585358167
 30
0.0
 11
11.6242677795892
 21
-42.8020585358167
 31
0.0
  0
LINE
  5
   259
  8
0
  6
CONTINUOUS
 62
     7
 10
11.9042621433746
 20
-43.5020584642912
 30
0.0
 11
11.6242677795892
 21
-43.5020584642912
 31
0.0
  0
LINE
  5
   25A
  8
0
  6
CONTINUOUS
 62
     7
 10
10.7842633259306
 20
-46.652058809998
 30
0.0
 11
10.7842633259306
 21
-45.9520588815236
 31
0.0
  0
LINE
  5
   25B
  8
0
  6
CONTINUOUS
 62
     7
 10
10.7842633259306
 20
-46.652058809998
 30
0.0
 11
10.5042636215696
 21
-46.652058809998
 31
0.0
  0
LINE
  5
   25C
  8
0
  6
CONTINUOUS
 62
     7
 10
10.7842633259306
 20
-45.9520588815236
 30
0.0
 11
10.5042636215696
 21
-45.9520588815236
 31
0.0
  0
ARC
  5
   25D
  8
0
  6
CONTINUOUS
 62
     7
 10
1.22926857471521
 20
-52.8646057397102
 30
0.0
 40
0.174999982118607
 50
269.999999948034
 51
359.999999948034
  0
INSERT
  5
   25E
  8
0
  6
CONTINUOUS
 62
     7
  2
*HATCH398
 10
-10.6707248687744
 20
-55.2270812988281
 30
0.0
 41
0.349999964237213
 42
0.349999964237213
 50
89.9999999480344
  0
LINE
  5
   25F
  8
0
  6
CONTINUOUS
 62
     1
 10
-46.5456998407863
 20
11.0103960810682
 30
0.0
 11
-47.2456997692607
 21
11.0103960810682
 31
0.0
  0
LINE
  5
   260
  8
0
  6
CONTINUOUS
 62
     1
 10
-47.2457211315629
 20
3.48541441745493
 30
0.0
 11
-47.2457211315629
 21
11.0103955412661
 31
0.0
  0
LINE
  5
   261
  8
0
  6
CONTINUOUS
 62
     1
 10
-46.5456998407863
 20
11.0103960810682
 30
0.0
 11
-46.5456998407863
 21
11.7103960095426
 31
0.0
  0
LINE
  5
   262
  8
0
  6
CONTINUOUS
 62
     1
 10
-23.7082394864365
 20
12.0604013143534
 30
0.0
 11
-46.1957168731309
 21
12.0604013143534
 31
0.0
  0
LINE
  5
   263
  8
0
  6
CONTINUOUS
 62
     1
 10
-31.1454994409045
 20
9.43539624200071
 30
0.0
 11
-33.0634430415916
 21
9.43539624200071
 31
0.0
  0
LINE
  5
   264
  8
0
  6
CONTINUOUS
 62
     1
 10
-31.1454994409045
 20
5.23539667115416
 30
0.0
 11
-33.0634430415916
 21
5.23539667115416
 31
0.0
  0
LINE
  5
   265
  8
0
  6
CONTINUOUS
 62
     1
 10
-37.2779831511736
 20
5.23539652136122
 30
0.0
 11
-39.1955490058667
 21
5.23540305369344
 31
0.0
  0
LINE
  5
   266
  8
0
  6
CONTINUOUS
 62
     1
 10
-39.1955490046537
 20
9.43538985990965
 30
0.0
 11
-37.277980463006
 21
9.43539639227193
 31
0.0
  0
LINE
  5
   267
  8
0
  6
CONTINUOUS
 62
     7
 10
-46.5456998407863
 20
3.48541424771562
 30
0.0
 11
-46.5456998407863
 21
11.0103960810682
 31
0.0
  0
LINE
  5
   268
  8
0
  6
CONTINUOUS
 62
     1
 10
0.791763350744073
 20
12.0603959737778
 30
0.0
 11
-22.133239647369
 21
12.0603959737778
 31
0.0
  0
LINE
  5
   269
  8
0
  6
CONTINUOUS
 62
     1
 10
-12.7780025236323
 20
9.43539624200071
 30
0.0
 11
-14.6955905752814
 21
9.43539624200071
 31
0.0
  0
LINE
  5
   26A
  8
0
  6
CONTINUOUS
 62
     1
 10
-12.7783779841642
 20
5.23539667115416
 30
0.0
 11
-14.6955905752814
 21
5.23539667115416
 31
0.0
  0
LINE
  5
   26B
  8
0
  6
CONTINUOUS
 62
     1
 10
-8.56344672721956
 20
5.23539316899485
 30
0.0
 11
-6.64567766763533
 21
5.23539970204022
 31
0.0
  0
LINE
  5
   26C
  8
0
  6
CONTINUOUS
 62
     1
 10
-6.64567766516246
 20
9.43539321187417
 30
0.0
 11
-8.56344674226734
 21
9.43539974491959
 31
0.0
  0
LINE
  5
   26D
  8
0
  6
CONTINUOUS
 62
     1
 10
25.9042500317118
 20
11.0103960810682
 30
0.0
 11
25.2042501032374
 21
11.0103960810682
 31
0.0
  0
LINE
  5
   26E
  8
0
  6
CONTINUOUS
 62
     1
 10
25.904271394014
 20
3.48539668023714
 30
0.0
 11
25.904271394014
 21
11.0103960179379
 31
0.0
  0
LINE
  5
   26F
  8
0
  6
CONTINUOUS
 62
     1
 10
25.2042501032374
 20
11.0103960810682
 30
0.0
 11
25.2042501032374
 21
11.7103960095426
 31
0.0
  0
LINE
  5
   270
  8
0
  6
CONTINUOUS
 62
     1
 10
24.8542671355821
 20
12.0604013143534
 30
0.0
 11
2.36676318981153
 21
12.0604013143534
 31
0.0
  0
LINE
  5
   271
  8
0
  6
CONTINUOUS
 62
     1
 10
11.7219882972531
 20
9.43539624200071
 30
0.0
 11
9.80419112774028
 21
9.43539624200071
 31
0.0
  0
LINE
  5
   272
  8
0
  6
CONTINUOUS
 62
     1
 10
11.7219882972531
 20
5.23539667115416
 30
0.0
 11
9.80419112774028
 21
5.23539667115416
 31
0.0
  0
LINE
  5
   273
  8
0
  6
CONTINUOUS
 62
     1
 10
15.9365337465181
 20
5.23539652136236
 30
0.0
 11
17.854317996745
 21
5.23540305443855
 31
0.0
  0
LINE
  5
   274
  8
0
  6
CONTINUOUS
 62
     1
 10
17.8543340191674
 20
9.43538985942124
 30
0.0
 11
15.9365310597523
 21
9.43539639256116
 31
0.0
  0
CIRCLE
  5
   275
  8
0
  6
CONTINUOUS
 62
     1
 10
1.57919098044879
 20
6.63543113170287
 30
0.0
 40
1.83749981224537
  0
LINE
  5
   276
  8
0
  6
DASHDOT
 62
     7
 10
-12.1755097861458
 20
7.33539993028973
 30
0.0
 11
-17.215671030631
 21
7.33539993028973
 31
0.0
  0
LINE
  5
   277
  8
0
  6
DASHDOT
 62
     7
 10
-14.6955905752814
 20
4.81531947494011
 30
0.0
 11
-14.6955905752814
 21
9.8554803856393
 31
0.0
  0
ARC
  5
   278
  8
0
  6
CONTINUOUS
 62
     1
 10
-14.6955905752814
 20
7.33539993028973
 30
0.0
 40
2.10006671233868
 50
90.0036557603355
 51
269.996301839899
  0
LINE
  5
   279
  8
0
  6
DASHDOT
 62
     7
 10
-7.10059740257628
 20
7.33525465500863
 30
0.0
 11
-14.2409291617521
 21
7.33525465500863
 31
0.0
  0
ARC
  5
   27A
  8
0
  6
CONTINUOUS
 62
     1
 10
-10.670763282154
 20
7.33525465500864
 30
0.0
 40
2.97513823298993
 50
224.89430374687
 51
250.235065003453
  0
LINE
  5
   27B
  8
0
  6
DASHDOT
 62
     7
 10
-4.12574533917838
 20
7.33545398866922
 30
0.0
 11
-9.16562497021379
 21
7.33545398866922
 31
0.0
  0
LINE
  5
   27C
  8
0
  6
DASHDOT
 62
     7
 10
-6.64568482090707
 20
4.81551264107982
 30
0.0
 11
-6.64568482090707
 21
9.85539160454327
 31
0.0
  0
ARC
  5
   27D
  8
0
  6
CONTINUOUS
 62
     1
 10
-6.64568482091011
 20
7.33545398866921
 30
0.0
 40
2.0999492343238
 50
269.999007927624
 51
450.00105270767
  0
LINE
  5
   27E
  8
0
  6
DASHDOT
 62
     7
 10
12.3240878298852
 20
7.33541683659656
 30
0.0
 11
7.28427306329283
 21
7.33541683659656
 31
0.0
  0
LINE
  5
   27F
  8
0
  6
DASHDOT
 62
     7
 10
9.80419112774028
 20
4.81550411272474
 30
0.0
 11
9.80419112774028
 21
9.85532956046838
 31
0.0
  0
ARC
  5
   280
  8
0
  6
CONTINUOUS
 62
     1
 10
9.80419112774028
 20
7.33541683659656
 30
0.0
 40
2.09992660232123
 50
449.999999948034
 51
630.002376467854
  0
LINE
  5
   281
  8
0
  6
DASHDOT
 62
     7
 10
17.399299126048
 20
7.33536693897716
 30
0.0
 11
10.25924113988
 21
7.33536693897716
 31
0.0
  0
ARC
  5
   282
  8
0
  6
CONTINUOUS
 62
     1
 10
13.8292754735396
 20
7.33536693897716
 30
0.0
 40
2.97502416090334
 50
404.901045292561
 51
495.098630845462
  0
LINE
  5
   283
  8
0
  6
DASHDOT
 62
     7
 10
20.3743194433945
 20
7.33538599537336
 30
0.0
 11
15.3343129229482
 21
7.33538599537336
 31
0.0
  0
LINE
  5
   284
  8
0
  6
DASHDOT
 62
     7
 10
17.8543161831713
 20
4.81537739457458
 30
0.0
 11
17.8543161831713
 21
9.85539459617213
 31
0.0
  0
ARC
  5
   285
  8
0
  6
CONTINUOUS
 62
     1
 10
17.8543161831713
 20
7.33538599537338
 30
0.0
 40
2.10000649976036
 50
269.998338346111
 51
450.001473300288
  0
LINE
  5
   286
  8
0
  6
DASHDOT
 62
     7
 10
24.6022420359756
 20
10.6604053085038
 30
0.0
 11
23.0062628592376
 21
10.6604053085038
 31
0.0
  0
LINE
  5
   287
  8
0
  6
DASHDOT
 62
     7
 10
23.8042551178944
 20
9.86241839042265
 30
0.0
 11
23.8042551178944
 21
11.458392226585
 31
0.0
  0
CIRCLE
  5
   288
  8
0
  6
CONTINUOUS
 62
     1
 10
23.8042551178944
 20
10.6604053085038
 30
0.0
 40
0.664989098400968
  0
CIRCLE
  5
   289
  8
0
  6
CONTINUOUS
 62
     1
 10
23.8042760916514
 20
10.6604016614516
 30
0.0
 40
0.490019746478501
  0
ARC
  5
   28A
  8
0
  6
CONTINUOUS
 62
     1
 10
24.8542528867651
 20
11.7103880148479
 30
0.0
 40
0.349999693004806
 50
360.000054589548
 51
449.999945306521
  0
CIRCLE
  5
   28B
  8
0
  6
CONTINUOUS
 62
     1
 10
-45.1457464404088
 20
10.6603992959686
 30
0.0
 40
0.489980557351486
  0
LINE
  5
   28C
  8
0
  6
DASHDOT
 62
     7
 10
-44.3477590467066
 20
10.660468913492
 30
0.0
 11
-45.9436465924931
 21
10.660468913492
 31
0.0
  0
LINE
  5
   28D
  8
0
  6
DASHDOT
 62
     7
 10
-45.1457028195999
 20
9.86253048117437
 30
0.0
 11
-45.1457028195999
 21
11.4584073458097
 31
0.0
  0
CIRCLE
  5
   28E
  8
0
  6
CONTINUOUS
 62
     1
 10
-45.1457028195999
 20
10.660468913492
 30
0.0
 40
0.664948693598051
  0
ARC
  5
   28F
  8
0
  6
CONTINUOUS
 62
     1
 10
-46.1957010045829
 20
11.7103942426849
 30
0.0
 40
0.349995972226149
 50
90.0005173512766
 51
180.001122723422
  0
LINE
  5
   290
  8
0
  6
DASHDOT
 62
     7
 10
-36.6753988757395
 20
7.33541218020139
 30
0.0
 11
-41.7156634600149
 21
7.33541218020139
 31
0.0
  0
LINE
  5
   291
  8
0
  6
DASHDOT
 62
     7
 10
-39.1955311678772
 20
4.81527454748805
 30
0.0
 11
-39.1955311678772
 21
9.85554981291473
 31
0.0
  0
ARC
  5
   292
  8
0
  6
CONTINUOUS
 62
     1
 10
-39.1955311678772
 20
7.3354121802014
 30
0.0
 40
2.10011469392778
 50
90.0052836333811
 51
269.995265213079
  0
LINE
  5
   293
  8
0
  6
DASHDOT
 62
     7
 10
-31.600645590387
 20
7.33545722012612
 30
0.0
 11
-38.7407936875028
 21
7.33545722012612
 31
0.0
  0
ARC
  5
   294
  8
0
  6
CONTINUOUS
 62
     1
 10
-35.1707062875059
 20
7.33545722012612
 30
0.0
 40
2.97505948189176
 50
224.901380849089
 51
250.250828087894
  0
LINE
  5
   295
  8
0
  6
DASHDOT
 62
     7
 10
-28.6256778028496
 20
7.33541236171978
 30
0.0
 11
-33.6653210789595
 21
7.33541236171978
 31
0.0
  0
LINE
  5
   296
  8
0
  6
DASHDOT
 62
     7
 10
-31.1454994409045
 20
4.81558538308926
 30
0.0
 11
-31.1454994409045
 21
9.85523934035031
 31
0.0
  0
ARC
  5
   297
  8
0
  6
CONTINUOUS
 62
     1
 10
-31.1454994409045
 20
7.33541236171978
 30
0.0
 40
2.09985581552544
 50
269.999999948034
 51
449.999945306521
  0
ARC
  5
   298
  8
0
  6
CONTINUOUS
 62
     1
 10
-35.1707062875059
 20
7.33545722012612
 30
0.0
 40
2.97505948189176
 50
404.897963373026
 51
495.101923170488
  0
ARC
  5
   299
  8
0
  6
CONTINUOUS
 62
     1
 10
-10.670763282154
 20
7.33525465500864
 30
0.0
 40
2.97513823298993
 50
404.902109287098
 51
495.097767281763
  0
ARC
  5
   29A
  8
0
  6
CONTINUOUS
 62
     1
 10
13.8292754735396
 20
7.33536693897716
 30
0.0
 40
2.97502416090334
 50
224.899545375473
 51
250.247577456667
  0
LINE
  5
   29B
  8
0
  6
CONTINUOUS
 62
     7
 10
25.2042687952507
 20
3.66040553096103
 30
0.0
 11
15.9292750835416
 21
3.66040553096103
 31
0.0
  0
LINE
  5
   29C
  8
0
  6
CONTINUOUS
 62
     1
 10
25.2042634546765
 20
3.48539684997322
 30
0.0
 11
25.2042634546765
 21
11.7103880148479
 31
0.0
  0
LINE
  5
   29D
  8
0
  6
CONTINUOUS
 62
     7
 10
-46.4706887858288
 20
3.48541422952714
 30
0.0
 11
-46.4706887858288
 21
3.66040217266232
 31
0.0
  0
LINE
  5
   29E
  8
0
  6
CONTINUOUS
 62
     1
 10
25.9917791754443
 20
-13.4021015942084
 30
0.0
 11
25.9917791754443
 21
3.48539668023714
 31
0.0
  0
LINE
  5
   29F
  8
0
  6
CONTINUOUS
 62
     1
 10
25.9917791754443
 20
-80.7595949786865
 30
0.0
 11
25.9917791754443
 21
-50.1520871579645
 31
0.0
  0
LINE
  5
   2A0
  8
0
  6
CONTINUOUS
 62
     1
 10
-47.3332133322519
 20
-80.7595949786865
 30
0.0
 11
-47.3332133322519
 21
-50.152108520267
 31
0.0
  0
LINE
  5
   2A1
  8
0
  6
CONTINUOUS
 62
     1
 10
-47.3332133322519
 20
-13.4021229565109
 30
0.0
 11
-47.3332133322519
 21
3.48539668023714
 31
0.0
  0
LINE
  5
   2A2
  8
0
  6
CONTINUOUS
 62
     1
 10
25.9917791754443
 20
3.48539668023714
 30
0.0
 11
15.9292750835416
 21
3.48539668023714
 31
0.0
  0
LINE
  5
   2A3
  8
0
  6
CONTINUOUS
 62
     1
 10
25.6417792112071
 20
-58.1145970255124
 30
0.0
 11
15.9292750835416
 21
-58.1145970255124
 31
0.0
  0
LINE
  5
   2A4
  8
0
  6
CONTINUOUS
 62
     1
 10
-47.3332133322519
 20
-50.1521031796914
 30
0.0
 11
-47.3332133322519
 21
-13.402106934784
 31
0.0
  0
LINE
  5
   2A5
  8
0
  6
CONTINUOUS
 62
     1
 10
25.9917791754443
 20
-50.1521031796914
 30
0.0
 11
25.9917791754443
 21
-13.402106934784
 31
0.0
  0
LINE
  5
   2A6
  8
0
  6
CONTINUOUS
 62
     1
 10
25.8167791933257
 20
-50.1521031796914
 30
0.0
 11
15.9292750835416
 21
-50.1521031796914
 31
0.0
  0
LINE
  5
   2A7
  8
0
  6
CONTINUOUS
 62
     1
 10
25.8167791933257
 20
-13.402106934784
 30
0.0
 11
15.9292750835416
 21
-13.402106934784
 31
0.0
  0
LINE
  5
   2A8
  8
0
  6
CONTINUOUS
 62
     1
 10
25.9917791754443
 20
-57.7645970821368
 30
0.0
 11
15.9292750835416
 21
-57.7645970821368
 31
0.0
  0
LINE
  5
   2A9
  8
0
  6
CONTINUOUS
 62
     1
 10
-46.9832133888763
 20
-58.1145970255124
 30
0.0
 11
-46.9832133888763
 21
-57.7645970821368
 31
0.0
  0
LINE
  5
   2AA
  8
0
  6
CONTINUOUS
 62
     1
 10
25.6417792112071
 20
-58.1145970255124
 30
0.0
 11
25.6417792112071
 21
-57.7645970821368
 31
0.0
  0
LINE
  5
   2AB
  8
0
  6
CONTINUOUS
 62
     1
 10
24.5217750531875
 20
-13.402106934784
 30
0.0
 11
24.5217750531875
 21
3.48539668023714
 31
0.0
  0
LINE
  5
   2AC
  8
0
  6
CONTINUOUS
 62
     1
 10
25.3267760390482
 20
-13.402106934784
 30
0.0
 11
25.3267760390482
 21
3.48539668023714
 31
0.0
  0
LINE
  5
   2AD
  8
0
  6
CONTINUOUS
 62
     1
 10
19.4817777044019
 20
-13.402106934784
 30
0.0
 11
19.4817777044019
 21
3.48539668023714
 31
0.0
  0
LINE
  5
   2AE
  8
0
  6
CONTINUOUS
 62
     1
 10
20.7417743713105
 20
-13.402106934784
 30
0.0
 11
20.7417743713105
 21
3.48539668023714
 31
0.0
  0
LINE
  5
   2AF
  8
0
  6
CONTINUOUS
 62
     1
 10
22.0017763787947
 20
-13.402106934784
 30
0.0
 11
22.0017763787947
 21
3.48539668023714
 31
0.0
  0
LINE
  5
   2B0
  8
0
  6
CONTINUOUS
 62
     1
 10
23.2617783862789
 20
-13.402106934784
 30
0.0
 11
23.2617783862789
 21
3.48539668023714
 31
0.0
  0
LINE
  5
   2B1
  8
0
  6
CONTINUOUS
 62
     1
 10
16.9617790300091
 20
-13.402106934784
 30
0.0
 11
16.9617790300091
 21
3.48539668023714
 31
0.0
  0
LINE
  5
   2B2
  8
0
  6
CONTINUOUS
 62
     1
 10
18.2217756969177
 20
-13.402106934784
 30
0.0
 11
18.2217756969177
 21
3.48539668023714
 31
0.0
  0
LINE
  5
   2B3
  8
0
  6
CONTINUOUS
 62
     1
 10
20.7417743713105
 20
-50.1521031796914
 30
0.0
 11
20.7417743713105
 21
-13.402106934784
 31
0.0
  0
LINE
  5
   2B4
  8
0
  6
CONTINUOUS
 62
     1
 10
23.2617783862789
 20
-50.1521031796914
 30
0.0
 11
23.2617783862789
 21
-13.402106934784
 31
0.0
  0
LINE
  5
   2B5
  8
0
  6
CONTINUOUS
 62
     1
 10
22.0017763787947
 20
-50.1521031796914
 30
0.0
 11
22.0017763787947
 21
-13.402106934784
 31
0.0
  0
LINE
  5
   2B6
  8
0
  6
CONTINUOUS
 62
     1
 10
18.2217756969177
 20
-50.1521031796914
 30
0.0
 11
18.2217756969177
 21
-13.402106934784
 31
0.0
  0
LINE
  5
   2B7
  8
0
  6
CONTINUOUS
 62
     1
 10
16.9617790300091
 20
-50.1521031796914
 30
0.0
 11
16.9617790300091
 21
-13.402106934784
 31
0.0
  0
LINE
  5
   2B8
  8
0
  6
CONTINUOUS
 62
     1
 10
24.5217750531875
 20
-50.1521031796914
 30
0.0
 11
24.5217750531875
 21
-13.402106934784
 31
0.0
  0
LINE
  5
   2B9
  8
0
  6
CONTINUOUS
 62
     1
 10
25.3267760390482
 20
-50.1521031796914
 30
0.0
 11
25.3267760390482
 21
-13.402106934784
 31
0.0
  0
LINE
  5
   2BA
  8
0
  6
CONTINUOUS
 62
     1
 10
24.5217750531875
 20
-57.7645970821368
 30
0.0
 11
24.5217750531875
 21
-50.152103200553
 31
0.0
  0
LINE
  5
   2BB
  8
0
  6
CONTINUOUS
 62
     1
 10
25.3267760390482
 20
-57.7645970821368
 30
0.0
 11
25.3267760390482
 21
-50.152103200553
 31
0.0
  0
LINE
  5
   2BC
  8
0
  6
CONTINUOUS
 62
     1
 10
19.4817777044019
 20
-57.7645970821368
 30
0.0
 11
19.4817777044019
 21
-13.402106934784
 31
0.0
  0
LINE
  5
   2BD
  8
0
  6
CONTINUOUS
 62
     1
 10
20.7417743713105
 20
-57.7645970821368
 30
0.0
 11
20.7417743713105
 21
-50.152103200553
 31
0.0
  0
LINE
  5
   2BE
  8
0
  6
CONTINUOUS
 62
     1
 10
22.0017763787947
 20
-57.7645970821368
 30
0.0
 11
22.0017763787947
 21
-50.152103200553
 31
0.0
  0
LINE
  5
   2BF
  8
0
  6
CONTINUOUS
 62
     1
 10
23.2617783862789
 20
-57.7645970821368
 30
0.0
 11
23.2617783862789
 21
-50.152103200553
 31
0.0
  0
LINE
  5
   2C0
  8
0
  6
CONTINUOUS
 62
     1
 10
16.9617790300091
 20
-57.7645970821368
 30
0.0
 11
16.9617790300091
 21
-50.152103200553
 31
0.0
  0
LINE
  5
   2C1
  8
0
  6
CONTINUOUS
 62
     1
 10
18.2217756969177
 20
-57.7645970821368
 30
0.0
 11
18.2217756969177
 21
-50.152103200553
 31
0.0
  0
LINE
  5
   2C2
  8
0
  6
CONTINUOUS
 62
     1
 10
-45.8632135492128
 20
-13.402106934784
 30
0.0
 11
-45.8632135492128
 21
3.48539668023714
 31
0.0
  0
LINE
  5
   2C3
  8
0
  6
CONTINUOUS
 62
     1
 10
-46.6682135337155
 20
-13.402106934784
 30
0.0
 11
-46.6682135337155
 21
3.48539668023714
 31
0.0
  0
LINE
  5
   2C4
  8
0
  6
CONTINUOUS
 62
     1
 10
-40.8232172017851
 20
-13.402106934784
 30
0.0
 11
-40.8232172017851
 21
3.48539668023714
 31
0.0
  0
LINE
  5
   2C5
  8
0
  6
CONTINUOUS
 62
     1
 10
-42.0832138686937
 20
-13.402106934784
 30
0.0
 11
-42.0832138686937
 21
3.48539668023714
 31
0.0
  0
LINE
  5
   2C6
  8
0
  6
CONTINUOUS
 62
     1
 10
-43.343213873462
 20
-13.402106934784
 30
0.0
 11
-43.343213873462
 21
3.48539668023714
 31
0.0
  0
LINE
  5
   2C7
  8
0
  6
CONTINUOUS
 62
     1
 10
-44.6032138782304
 20
-13.402106934784
 30
0.0
 11
-44.6032138782304
 21
3.48539668023714
 31
0.0
  0
LINE
  5
   2C8
  8
0
  6
CONTINUOUS
 62
     1
 10
-38.3032185273923
 20
-13.402106934784
 30
0.0
 11
-38.3032185273923
 21
3.48539668023714
 31
0.0
  0
LINE
  5
   2C9
  8
0
  6
CONTINUOUS
 62
     1
 10
-39.5632151943008
 20
-13.402106934784
 30
0.0
 11
-39.5632151943008
 21
3.48539668023714
 31
0.0
  0
LINE
  5
   2CA
  8
0
  6
CONTINUOUS
 62
     1
 10
-42.0832142024796
 20
-50.1521031796914
 30
0.0
 11
-42.0832142024796
 21
-13.402106934784
 31
0.0
  0
LINE
  5
   2CB
  8
0
  6
CONTINUOUS
 62
     1
 10
-40.8232172017851
 20
-50.1521031796914
 30
0.0
 11
-40.8232172017851
 21
-13.402106934784
 31
0.0
  0
LINE
  5
   2CC
  8
0
  6
CONTINUOUS
 62
     1
 10
-44.6032138782304
 20
-50.1521031796914
 30
0.0
 11
-44.6032138782304
 21
-13.402106934784
 31
0.0
  0
LINE
  5
   2CD
  8
0
  6
CONTINUOUS
 62
     1
 10
-43.343213873462
 20
-50.1521031796914
 30
0.0
 11
-43.343213873462
 21
-13.402106934784
 31
0.0
  0
LINE
  5
   2CE
  8
0
  6
CONTINUOUS
 62
     1
 10
-39.5632151943008
 20
-50.1521031796914
 30
0.0
 11
-39.5632151943008
 21
-13.402106934784
 31
0.0
  0
LINE
  5
   2CF
  8
0
  6
CONTINUOUS
 62
     1
 10
-38.3032185273923
 20
-50.1521031796914
 30
0.0
 11
-38.3032185273923
 21
-13.402106934784
 31
0.0
  0
LINE
  5
   2D0
  8
0
  6
CONTINUOUS
 62
     1
 10
-45.8632135492128
 20
-50.1521031796914
 30
0.0
 11
-45.8632135492128
 21
-13.402106934784
 31
0.0
  0
LINE
  5
   2D1
  8
0
  6
CONTINUOUS
 62
     1
 10
-46.6682135337155
 20
-50.1521031796914
 30
0.0
 11
-46.6682135337155
 21
-13.402106934784
 31
0.0
  0
LINE
  5
   2D2
  8
0
  6
CONTINUOUS
 62
     1
 10
-45.8632135492128
 20
-57.7645970821368
 30
0.0
 11
-45.8632135492128
 21
-50.152103200553
 31
0.0
  0
LINE
  5
   2D3
  8
0
  6
CONTINUOUS
 62
     1
 10
-46.6682135337155
 20
-57.7645970821368
 30
0.0
 11
-46.6682135337155
 21
-50.152103200553
 31
0.0
  0
LINE
  5
   2D4
  8
0
  6
CONTINUOUS
 62
     1
 10
-40.8232172017851
 20
-57.7645970821368
 30
0.0
 11
-40.8232172017851
 21
-50.152103200553
 31
0.0
  0
LINE
  5
   2D5
  8
0
  6
CONTINUOUS
 62
     1
 10
-42.0832138686937
 20
-57.7645970821368
 30
0.0
 11
-42.0832138686937
 21
-50.152103200553
 31
0.0
  0
LINE
  5
   2D6
  8
0
  6
CONTINUOUS
 62
     1
 10
-43.343213873462
 20
-57.7645970821368
 30
0.0
 11
-43.343213873462
 21
-50.152103200553
 31
0.0
  0
LINE
  5
   2D7
  8
0
  6
CONTINUOUS
 62
     1
 10
-44.6032138782304
 20
-57.7645970821368
 30
0.0
 11
-44.6032138782304
 21
-50.152103200553
 31
0.0
  0
LINE
  5
   2D8
  8
0
  6
CONTINUOUS
 62
     1
 10
-38.3032185273923
 20
-57.7645970821368
 30
0.0
 11
-38.3032185273923
 21
-50.152103200553
 31
0.0
  0
LINE
  5
   2D9
  8
0
  6
CONTINUOUS
 62
     1
 10
-39.5632151943008
 20
-57.7645970821368
 30
0.0
 11
-39.5632151943008
 21
-50.152103200553
 31
0.0
  0
ARC
  5
   2DA
  8
0
  6
CONTINUOUS
 62
     1
 10
-47.1582133501333
 20
-13.5771069169026
 30
0.0
 40
0.174999982118607
 50
89.9999999480344
 51
179.999999948034
  0
ARC
  5
   2DB
  8
0
  6
CONTINUOUS
 62
     1
 10
25.8167791933257
 20
-13.5771069169026
 30
0.0
 40
0.174999982118607
 50
359.999999948034
 51
449.999999948034
  0
ARC
  5
   2DC
  8
0
  6
CONTINUOUS
 62
     1
 10
25.8167791933257
 20
-49.9771031975728
 30
0.0
 40
0.174999982118607
 50
269.999999948034
 51
359.999999948034
  0
ARC
  5
   2DD
  8
0
  6
CONTINUOUS
 62
     1
 10
-47.1582133501332
 20
-49.9771031975728
 30
0.0
 40
0.174999982118607
 50
179.999999948034
 51
269.999999948034
  0
LINE
  5
   2DE
  8
0
  6
CONTINUOUS
 62
     1
 10
-46.545731812339
 20
-80.7595949786865
 30
0.0
 11
-47.3332133322519
 21
-80.7595949786865
 31
0.0
  0
LINE
  5
   2DF
  8
0
  6
CONTINUOUS
 62
     1
 10
-46.545731812339
 20
-81.2145949989521
 30
0.0
 11
-46.545731812339
 21
-80.7595949786865
 31
0.0
  0
LINE
  5
   2E0
  8
0
  6
CONTINUOUS
 62
     1
 10
-23.7082394864365
 20
-81.7395946115205
 30
0.0
 11
-46.0207318659832
 21
-81.7395946115205
 31
0.0
  0
LINE
  5
   2E1
  8
0
  6
CONTINUOUS
 62
     1
 10
0.791763350744079
 20
-81.7395946115213
 30
0.0
 11
-22.1332343067934
 21
-81.7395946115213
 31
0.0
  0
LINE
  5
   2E2
  8
0
  6
CONTINUOUS
 62
     1
 10
24.6792555693582
 20
-81.7395946115408
 30
0.0
 11
2.36676318981154
 21
-81.7395946115408
 31
0.0
  0
LINE
  5
   2E3
  8
0
  6
CONTINUOUS
 62
     1
 10
25.2042555157141
 20
-81.2145946651661
 30
0.0
 11
25.2042555157141
 21
-80.7595949786865
 31
0.0
  0
LINE
  5
   2E4
  8
0
  6
CONTINUOUS
 62
     1
 10
25.9917791754443
 20
-80.7595949786865
 30
0.0
 11
25.2042555157141
 21
-80.7595949786865
 31
0.0
  0
LINE
  5
   2E5
  8
0
  6
CONTINUOUS
 62
     1
 10
-44.0957323964645
 20
-73.3396008104044
 30
0.0
 11
-46.545731812339
 21
-73.3396008104044
 31
0.0
  0
LINE
  5
   2E6
  8
0
  6
CONTINUOUS
 62
     1
 10
-29.9207335110714
 20
-73.3396008104044
 30
0.0
 11
-41.6457376535936
 21
-73.3396008104044
 31
0.0
  0
LINE
  5
   2E7
  8
0
  6
CONTINUOUS
 62
     1
 10
-4.19574148021184
 20
-73.3396008104044
 30
0.0
 11
-28.1707390304609
 21
-73.3396008104044
 31
0.0
  0
LINE
  5
   2E8
  8
0
  6
CONTINUOUS
 62
     1
 10
6.82925739326038
 20
-73.3396008104044
 30
0.0
 11
-1.74574173055134
 21
-73.3396008104044
 31
0.0
  0
LINE
  5
   2E9
  8
0
  6
CONTINUOUS
 62
     1
 10
20.304252190324
 20
-73.3396107741624
 30
0.0
 11
8.57925338837732
 21
-73.3396107741624
 31
0.0
  0
LINE
  5
   2EA
  8
0
  6
CONTINUOUS
 62
     1
 10
25.2042578045233
 20
-73.3396042431993
 30
0.0
 11
22.7542527153814
 21
-73.3395989026257
 31
0.0
  0
LINE
  5
   2EB
  8
0
  6
CONTINUOUS
 62
     1
 10
25.2042501751196
 20
-80.7595951802521
 30
0.0
 11
25.2042501751196
 21
-73.3396023471139
 31
0.0
  0
LINE
  5
   2EC
  8
0
  6
CONTINUOUS
 62
     1
 10
-45.6707322355319
 20
-71.93959561288
 30
0.0
 11
-46.8082321193029
 21
-71.93959561288
 31
0.0
  0
LINE
  5
   2ED
  8
0
  6
CONTINUOUS
 62
     1
 10
-46.545731812339
 20
-80.7595949786865
 30
0.0
 11
-46.545731812339
 21
-73.3396021455484
 31
0.0
  0
LINE
  5
   2EE
  8
0
  6
CONTINUOUS
 62
     1
 10
8.57925721444644
 20
-73.3395954698288
 30
0.0
 11
6.829262733836
 21
-73.3395954698288
 31
0.0
  0
LINE
  5
   2EF
  8
0
  6
CONTINUOUS
 62
     1
 10
17.8542592521396
 20
-74.9146008507572
 30
0.0
 11
15.9365333136526
 21
-74.9145955101833
 31
0.0
  0
LINE
  5
   2F0
  8
0
  6
CONTINUOUS
 62
     1
 10
11.7219806733241
 20
-74.9146051356002
 30
0.0
 11
9.80425473394401
 21
-74.9145997950263
 31
0.0
  0
LINE
  5
   2F1
  8
0
  6
CONTINUOUS
 62
     1
 10
11.7219830285785
 20
-79.1145948797428
 30
0.0
 11
9.80425708927669
 21
-79.1145948797428
 31
0.0
  0
LINE
  5
   2F2
  8
0
  6
CONTINUOUS
 62
     1
 10
17.8542562667326
 20
-79.1145948797428
 30
0.0
 11
15.9365356680064
 21
-79.1145948797428
 31
0.0
  0
LINE
  5
   2F3
  8
0
  6
CONTINUOUS
 62
     1
 10
22.7542557660536
 20
-73.3395954698288
 30
0.0
 11
20.3042560163931
 21
-73.3395954698288
 31
0.0
  0
LINE
  5
   2F4
  8
0
  6
CONTINUOUS
 62
     1
 10
-28.1707443710366
 20
-73.3395954698288
 30
0.0
 11
-29.9207335110714
 21
-73.3395954698288
 31
0.0
  0
LINE
  5
   2F5
  8
0
  6
CONTINUOUS
 62
     1
 10
-31.145735739867
 20
-74.9146032482192
 30
0.0
 11
-33.063461679247
 21
-74.9145979076453
 31
0.0
  0
LINE
  5
   2F6
  8
0
  6
CONTINUOUS
 62
     1
 10
-37.2780143195681
 20
-74.9146021924866
 30
0.0
 11
-39.1957402589482
 21
-74.9145968519127
 31
0.0
  0
LINE
  5
   2F7
  8
0
  6
CONTINUOUS
 62
     1
 10
-37.2780119646313
 20
-79.1145948797428
 30
0.0
 11
-39.1957379039331
 21
-79.1145948797428
 31
0.0
  0
LINE
  5
   2F8
  8
0
  6
CONTINUOUS
 62
     1
 10
-31.1457387264772
 20
-79.1145948797428
 30
0.0
 11
-33.0634593252034
 21
-79.1145948797428
 31
0.0
  0
LINE
  5
   2F9
  8
0
  6
CONTINUOUS
 62
     1
 10
-41.6457379873796
 20
-73.3395954698288
 30
0.0
 11
-44.0957323964645
 21
-73.3395954698288
 31
0.0
  0
LINE
  5
   2FA
  8
0
  6
CONTINUOUS
 62
     1
 10
-6.64573824431019
 20
-74.9146020494882
 30
0.0
 11
-8.56346418369024
 21
-74.9145967089143
 31
0.0
  0
LINE
  5
   2FB
  8
0
  6
CONTINUOUS
 62
     1
 10
-12.7780168231183
 20
-74.9146009937556
 30
0.0
 11
-14.6957427624984
 21
-74.9145956531817
 31
0.0
  0
LINE
  5
   2FC
  8
0
  6
CONTINUOUS
 62
     1
 10
-12.7780144680264
 20
-79.1145948797428
 30
0.0
 11
-14.6957404073282
 21
-79.1145948797428
 31
0.0
  0
LINE
  5
   2FD
  8
0
  6
CONTINUOUS
 62
     1
 10
-6.64574122987233
 20
-79.1145948797428
 30
0.0
 11
-8.56346182859852
 21
-79.1145948797428
 31
0.0
  0
LINE
  5
   2FE
  8
0
  6
CONTINUOUS
 62
     1
 10
-1.74574173055134
 20
-73.3395954698288
 30
0.0
 11
-4.19574148021184
 21
-73.3395954698288
 31
0.0
  0
LINE
  5
   2FF
  8
0
  6
CONTINUOUS
 62
     1
 10
2.80426314510805
 20
-80.8645947009289
 30
0.0
 11
2.80426314510805
 21
-79.2895948618614
 31
0.0
  0
LINE
  5
   300
  8
0
  6
CONTINUOUS
 62
     1
 10
2.80426314510805
 20
-80.8645947009289
 30
0.0
 11
2.36676318981154
 21
-80.8645947009289
 31
0.0
  0
LINE
  5
   301
  8
0
  6
CONTINUOUS
 62
     1
 10
2.36676318981153
 20
-81.7395946115278
 30
0.0
 11
2.36676318981153
 21
-80.8645947009348
 31
0.0
  0
LINE
  5
   302
  8
0
  6
CONTINUOUS
 62
     1
 10
0.791763350744073
 20
-81.7395946115213
 30
0.0
 11
0.791763350744073
 21
-80.8645947009282
 31
0.0
  0
LINE
  5
   303
  8
0
  6
CONTINUOUS
 62
     1
 10
0.791763350744079
 20
-80.8645947009289
 30
0.0
 11
0.354263395447562
 21
-80.8645947009289
 31
0.0
  0
LINE
  5
   304
  8
0
  6
CONTINUOUS
 62
     1
 10
0.354263395447559
 20
-80.8645947009289
 30
0.0
 11
0.354263395447559
 21
-79.2895948618614
 31
0.0
  0
LINE
  5
   305
  8
0
  6
CONTINUOUS
 62
     1
 10
2.80426314510805
 20
-79.2895948618614
 30
0.0
 11
0.354263395447562
 21
-79.2895948618614
 31
0.0
  0
LINE
  5
   306
  8
0
  6
CONTINUOUS
 62
     1
 10
-24.145739441733
 20
-80.8645947009289
 30
0.0
 11
-24.145739441733
 21
-79.2895948618614
 31
0.0
  0
LINE
  5
   307
  8
0
  6
CONTINUOUS
 62
     1
 10
-23.7082394864365
 20
-80.8645947009289
 30
0.0
 11
-24.145739441733
 21
-80.8645947009289
 31
0.0
  0
LINE
  5
   308
  8
0
  6
CONTINUOUS
 62
     1
 10
-23.7082394864365
 20
-81.7395946115278
 30
0.0
 11
-23.7082394864365
 21
-80.8645947009347
 31
0.0
  0
LINE
  5
   309
  8
0
  6
CONTINUOUS
 62
     1
 10
-22.133239647369
 20
-81.7395946115213
 30
0.0
 11
-22.133239647369
 21
-80.8645947009282
 31
0.0
  0
LINE
  5
   30A
  8
0
  6
CONTINUOUS
 62
     1
 10
-21.6957396920725
 20
-80.8645947009289
 30
0.0
 11
-22.133239647369
 21
-80.8645947009289
 31
0.0
  0
LINE
  5
   30B
  8
0
  6
CONTINUOUS
 62
     1
 10
-21.6957396920725
 20
-80.8645947009289
 30
0.0
 11
-21.6957396920725
 21
-79.2895948618614
 31
0.0
  0
LINE
  5
   30C
  8
0
  6
CONTINUOUS
 62
     1
 10
-21.6957396920725
 20
-79.2895948618614
 30
0.0
 11
-24.145739441733
 21
-79.2895948618614
 31
0.0
  0
ARC
  5
   30D
  8
0
  6
CONTINUOUS
 62
     1
 10
-46.0207335815288
 20
-81.2145956247223
 30
0.0
 40
0.524998528301402
 50
179.999941123702
 51
270.000103159103
  0
CIRCLE
  5
   30E
  8
0
  6
CONTINUOUS
 62
     1
 10
-45.1457327305239
 20
-80.3395952535124
 30
0.0
 40
0.490000350151705
  0
ARC
  5
   30F
  8
0
  6
CONTINUOUS
 62
     1
 10
-39.1957440885148
 20
-77.014599747237
 30
0.0
 40
2.09999780640047
 50
90.0001399327154
 51
270.000100332566
  0
ARC
  5
   310
  8
0
  6
CONTINUOUS
 62
     1
 10
-35.1707418293011
 20
-77.0145629837958
 30
0.0
 40
2.97503231368161
 50
404.899302393594
 51
495.100813987516
  0
ARC
  5
   311
  8
0
  6
CONTINUOUS
 62
     1
 10
-31.1457372689568
 20
-77.0145976143412
 30
0.0
 40
2.09999491827499
 50
269.999747131106
 51
450.000048027357
  0
CIRCLE
  5
   312
  8
0
  6
CONTINUOUS
 62
     1
 10
-22.9207349970786
 20
-76.314582617667
 30
0.0
 40
1.8374901065248
  0
CIRCLE
  5
   313
  8
0
  6
CONTINUOUS
 62
     1
 10
-22.9207446525835
 20
-76.3146059871197
 30
0.0
 40
0.962507308464076
  0
ARC
  5
   314
  8
0
  6
CONTINUOUS
 62
     1
 10
-14.6957704522904
 20
-77.0146158442785
 30
0.0
 40
2.09996786736678
 50
449.999680793011
 51
630.000858183329
  0
ARC
  5
   315
  8
0
  6
CONTINUOUS
 62
     1
 10
-10.6707248687744
 20
-77.0145899913929
 30
0.0
 40
2.97499647139189
 50
404.900757179708
 51
495.099359217673
  0
ARC
  5
   316
  8
0
  6
CONTINUOUS
 62
     1
 10
-6.64574051941554
 20
-77.0145971345819
 30
0.0
 40
2.09999612215487
 50
269.999783457987
 51
450.000092622467
  0
CIRCLE
  5
   317
  8
0
  6
CONTINUOUS
 62
     1
 10
1.57929763232229
 20
-76.3146463270104
 30
0.0
 40
1.83755570860389
  0
CIRCLE
  5
   318
  8
0
  6
CONTINUOUS
 62
     1
 10
1.57924306841921
 20
-76.314576109919
 30
0.0
 40
0.962478203942512
  0
ARC
  5
   319
  8
0
  6
CONTINUOUS
 62
     1
 10
9.80424413169949
 20
-77.014596101659
 30
0.0
 40
2.09999310233083
 50
90.0003609959681
 51
270.000490903722
  0
ARC
  5
   31A
  8
0
  6
CONTINUOUS
 62
     1
 10
17.8542071977039
 20
-77.0145884671953
 30
0.0
 40
2.1000410813856
 50
270.001034630644
 51
449.998799421533
  0
ARC
  5
   31B
  8
0
  6
CONTINUOUS
 62
     1
 10
13.8292297055506
 20
-77.0146118400962
 30
0.0
 40
2.97500362988595
 50
404.901246442185
 51
495.09901516511
  0
CIRCLE
  5
   31C
  8
0
  6
CONTINUOUS
 62
     1
 10
23.8042554774457
 20
-80.3395973826862
 30
0.0
 40
0.489998689217135
  0
ARC
  5
   31D
  8
0
  6
CONTINUOUS
 62
     1
 10
13.8292297055506
 20
-77.0146118400962
 30
0.0
 40
2.97500362988595
 50
224.900341297451
 51
315.099658598617
  0
ARC
  5
   31E
  8
0
  6
CONTINUOUS
 62
     1
 10
-10.6707248687744
 20
-77.0145899913929
 30
0.0
 40
2.97499647139189
 50
224.901072739214
 51
315.098927156855
  0
ARC
  5
   31F
  8
0
  6
CONTINUOUS
 62
     1
 10
-35.1707418293011
 20
-77.0145629837958
 30
0.0
 40
2.97503231368161
 50
224.901119153159
 51
315.09888074291
  0
LINE
  5
   320
  8
0
  6
DASHDOT
 62
     2
 10
-31.1457096229079
 20
-77.0145629837958
 30
0.0
 11
-39.1957740356944
 21
-77.0145629837958
 31
0.0
  0
LINE
  5
   321
  8
0
  6
DASHDOT
 62
     2
 10
-31.1457372689568
 20
-80.1645924253278
 30
0.0
 11
-31.1457372689568
 21
-73.8646028033545
 31
0.0
  0
LINE
  5
   322
  8
0
  6
DASHDOT
 62
     2
 10
-27.9957424579702
 20
-77.0145976143412
 30
0.0
 11
-34.2957320799434
 21
-77.0145976143412
 31
0.0
  0
LINE
  5
   323
  8
0
  6
DASHDOT
 62
     2
 10
-39.1957440885148
 20
-80.1645974463491
 30
0.0
 11
-39.1957440885148
 21
-73.8646020481249
 31
0.0
  0
LINE
  5
   324
  8
0
  6
DASHDOT
 62
     2
 10
-36.0457463894027
 20
-77.014599747237
 30
0.0
 11
-42.3457417876269
 21
-77.014599747237
 31
0.0
  0
LINE
  5
   325
  8
0
  6
DASHDOT
 62
     2
 10
-19.6924641819998
 20
-76.314582617667
 30
0.0
 11
-25.808224996315
 21
-76.314582617667
 31
0.0
  0
LINE
  5
   326
  8
0
  6
DASHDOT
 62
     2
 10
-14.6957704522904
 20
-80.1645836043569
 30
0.0
 11
-14.6957704522904
 21
-73.8646480842
 31
0.0
  0
LINE
  5
   327
  8
0
  6
DASHDOT
 62
     2
 10
-11.545802692212
 20
-77.0146158442785
 30
0.0
 11
-17.8457382123688
 21
-77.0146158442785
 31
0.0
  0
LINE
  5
   328
  8
0
  6
DASHDOT
 62
     2
 10
-10.6707248687744
 20
-83.3888714414176
 30
0.0
 11
-10.6707248687744
 21
-56.4328343311092
 31
0.0
  0
LINE
  5
   329
  8
0
  6
DASHDOT
 62
     2
 10
-6.64572850467086
 20
-77.0145899913929
 30
0.0
 11
-14.6957212328779
 21
-77.0145899913929
 31
0.0
  0
LINE
  5
   32A
  8
0
  6
DASHDOT
 62
     2
 10
-6.64574051941555
 20
-80.1645931494484
 30
0.0
 11
-6.64574051941555
 21
-73.8646011197154
 31
0.0
  0
LINE
  5
   32B
  8
0
  6
DASHDOT
 62
     2
 10
-3.49574450454904
 20
-77.0145971345819
 30
0.0
 11
-9.79573653428205
 21
-77.0145971345819
 31
0.0
  0
LINE
  5
   32C
  8
0
  6
DASHDOT
 62
     2
 10
1.57929763232229
 20
-79.2022019283259
 30
0.0
 11
1.57929763232229
 21
-73.4270907256949
 31
0.0
  0
LINE
  5
   32D
  8
0
  6
DASHDOT
 62
     2
 10
9.80424413169948
 20
-80.1645890967014
 30
0.0
 11
9.80424413169948
 21
-73.8646031066165
 31
0.0
  0
LINE
  5
   32E
  8
0
  6
DASHDOT
 62
     2
 10
12.954237126742
 20
-77.014596101659
 30
0.0
 11
6.65425113665701
 21
-77.014596101659
 31
0.0
  0
LINE
  5
   32F
  8
0
  6
DASHDOT
 62
     2
 10
13.8292297055506
 20
-83.3022888811061
 30
0.0
 11
13.8292297055506
 21
-73.0870159469714
 31
0.0
  0
LINE
  5
   330
  8
0
  6
DASHDOT
 62
     2
 10
17.8542332281482
 20
-77.0146118400962
 30
0.0
 11
9.80422618295305
 21
-77.0146118400962
 31
0.0
  0
LINE
  5
   331
  8
0
  6
DASHDOT
 62
     2
 10
17.8542071977039
 20
-80.1646294412925
 30
0.0
 11
17.8542071977039
 21
-73.8645474930981
 31
0.0
  0
LINE
  5
   332
  8
0
  6
DASHDOT
 62
     2
 10
21.0042481718012
 20
-77.0145884671953
 30
0.0
 11
14.7041662236067
 21
-77.0145884671953
 31
0.0
  0
LINE
  5
   333
  8
0
  6
DASHDOT
 62
     2
 10
23.8042554774457
 20
-81.879595964615
 30
0.0
 11
23.8042554774457
 21
-78.7995988007574
 31
0.0
  0
LINE
  5
   334
  8
0
  6
DASHDOT
 62
     2
 10
-45.1457327305239
 20
-81.8795954963758
 30
0.0
 11
-45.1457327305239
 21
-78.7995950106491
 31
0.0
  0
LINE
  5
   335
  8
0
  6
DASHDOT
 62
     2
 10
-43.6057324876606
 20
-80.3395952535124
 30
0.0
 11
-46.6857329733873
 21
-80.3395952535124
 31
0.0
  0
ARC
  5
   336
  8
0
  6
CONTINUOUS
 62
     1
 10
24.6792406391231
 20
-81.2145992352924
 30
0.0
 40
0.525005828877544
 50
270.001088208967
 51
360.000070595423
  0
LINE
  5
   337
  8
0
  6
DASHDOT
 62
     2
 10
-44.6207213997841
 20
-72.2719773952292
 30
0.0
 11
-44.6207213997841
 21
-57.3545940447154
 31
0.0
  0
LINE
  5
   338
  8
0
  6
DASHDOT
 62
     2
 10
-11.6930729116151
 20
-76.314582617667
 30
0.0
 11
-18.0481448653096
 21
-76.314582617667
 31
0.0
  0
LINE
  5
   339
  8
0
  6
DASHDOT
 62
     2
 10
4.66123813006033
 20
-76.314582617667
 30
0.0
 11
-9.7524798441699
 21
-76.314582617667
 31
0.0
  0
LINE
  5
   33A
  8
0
  6
CONTINUOUS
 62
     1
 10
25.3792554978327
 20
-71.9396009534556
 30
0.0
 11
25.3792554978327
 21
-58.1146023660857
 31
0.0
  0
LINE
  5
   33B
  8
0
  6
CONTINUOUS
 62
     1
 10
-35.1707223653793
 20
-71.9395956128823
 30
0.0
 11
-35.1707223653793
 21
-58.289597007631
 31
0.0
  0
LINE
  5
   33C
  8
0
  6
CONTINUOUS
 62
     1
 10
13.8292726278305
 20
-71.9395956128823
 30
0.0
 11
13.8292726278305
 21
-64.0646075993734
 31
0.0
  0
LINE
  5
   33D
  8
0
  6
CONTINUOUS
 62
     1
 10
-46.7207133948367
 20
-71.93959561288
 30
0.0
 11
-46.7207133948367
 21
-58.1145970255124
 31
0.0
  0
LINE
  5
   33E
  8
0
  6
CONTINUOUS
 62
     1
 10
-37.2707194805148
 20
-13.402106934784
 30
0.0
 11
-47.1582133501333
 21
-13.402106934784
 31
0.0
  0
LINE
  5
   33F
  8
0
  6
CONTINUOUS
 62
     1
 10
25.3792554976218
 20
-71.9396009549821
 30
0.0
 11
-46.7207133948367
 21
-71.9396009549821
 31
0.0
  0
LINE
  5
   340
  8
0
  6
CONTINUOUS
 62
     1
 10
-21.6957396920725
 20
9.61040707499508
 30
0.0
 11
-24.145739441733
 21
9.61040707499508
 31
0.0
  0
LINE
  5
   341
  8
0
  6
CONTINUOUS
 62
     1
 10
-24.145739441733
 20
9.61040707499508
 30
0.0
 11
-24.145739441733
 21
11.1854069140625
 31
0.0
  0
LINE
  5
   342
  8
0
  6
CONTINUOUS
 62
     1
 10
-23.7082394864365
 20
11.1854069140625
 30
0.0
 11
-24.145739441733
 21
11.1854069140625
 31
0.0
  0
LINE
  5
   343
  8
0
  6
CONTINUOUS
 62
     1
 10
-23.7082394864365
 20
11.1854069140684
 30
0.0
 11
-23.7082394864365
 21
12.0604068246614
 31
0.0
  0
LINE
  5
   344
  8
0
  6
CONTINUOUS
 62
     1
 10
-22.133239647369
 20
11.1854069140619
 30
0.0
 11
-22.133239647369
 21
12.0604068246549
 31
0.0
  0
LINE
  5
   345
  8
0
  6
CONTINUOUS
 62
     1
 10
-21.6957396920725
 20
11.1854069140625
 30
0.0
 11
-22.133239647369
 21
11.1854069140625
 31
0.0
  0
LINE
  5
   346
  8
0
  6
CONTINUOUS
 62
     1
 10
-21.6957396920725
 20
9.61040707499508
 30
0.0
 11
-21.6957396920725
 21
11.1854069140625
 31
0.0
  0
LINE
  5
   347
  8
0
  6
CONTINUOUS
 62
     1
 10
2.36676318981153
 20
11.1854069140684
 30
0.0
 11
2.36676318981153
 21
12.0604068246614
 31
0.0
  0
LINE
  5
   348
  8
0
  6
CONTINUOUS
 62
     1
 10
2.80426314510805
 20
11.1854069140625
 30
0.0
 11
2.36676318981154
 21
11.1854069140625
 31
0.0
  0
LINE
  5
   349
  8
0
  6
CONTINUOUS
 62
     1
 10
2.80426314510805
 20
9.61040707499508
 30
0.0
 11
2.80426314510805
 21
11.1854069140625
 31
0.0
  0
LINE
  5
   34A
  8
0
  6
CONTINUOUS
 62
     1
 10
2.80426314510805
 20
9.61040707499508
 30
0.0
 11
0.354263395447562
 21
9.61040707499508
 31
0.0
  0
LINE
  5
   34B
  8
0
  6
CONTINUOUS
 62
     1
 10
0.791763350744079
 20
11.1854069140625
 30
0.0
 11
0.354263395447562
 21
11.1854069140625
 31
0.0
  0
LINE
  5
   34C
  8
0
  6
CONTINUOUS
 62
     1
 10
0.791763350744073
 20
11.1854069140619
 30
0.0
 11
0.791763350744073
 21
12.0604068246549
 31
0.0
  0
LINE
  5
   34D
  8
0
  6
CONTINUOUS
 62
     1
 10
0.354263395447559
 20
9.61040707499508
 30
0.0
 11
0.354263395447559
 21
11.1854069140625
 31
0.0
  0
LINE
  5
   34E
  8
0
  6
DASHDOT
 62
     7
 10
1.57919098044879
 20
3.04793149827144
 30
0.0
 11
1.57919098044879
 21
10.2229307651343
 31
0.0
  0
LINE
  5
   34F
  8
0
  6
DASHDOT
 62
     7
 10
5.16669061388023
 20
6.63543113170287
 30
0.0
 11
-2.00830865298264
 21
6.63543113170287
 31
0.0
  0
CIRCLE
  5
   350
  8
0
  6
CONTINUOUS
 62
     1
 10
-22.9206407179976
 20
6.63543113170287
 30
0.0
 40
1.83749981224537
  0
LINE
  5
   351
  8
0
  6
DASHDOT
 62
     7
 10
-22.9206407179976
 20
3.04793149827144
 30
0.0
 11
-22.9206407179976
 21
10.2229307651343
 31
0.0
  0
LINE
  5
   352
  8
0
  6
DASHDOT
 62
     7
 10
-19.3331410845662
 20
6.63543113170287
 30
0.0
 11
-26.508140351429
 21
6.63543113170287
 31
0.0
  0
LINE
  5
   353
  8
0
  6
CONTINUOUS
 62
     1
 10
-37.2707194805148
 20
-50.1521031796914
 30
0.0
 11
-47.1582133501332
 21
-50.1521031796914
 31
0.0
  0
LINE
  5
   354
  8
0
  6
CONTINUOUS
 62
     7
 10
-28.379133485393
 20
-23.0330219982323
 30
0.0
 11
-28.5827698282219
 21
-23.0330219982323
 31
0.0
  0
ARC
  5
   355
  8
0
  6
CONTINUOUS
 62
     7
 10
-29.4832242816685
 20
-22.2439311697702
 30
0.0
 40
0.661818114194003
 50
359.999999948034
 51
539.999999948034
  0
ARC
  5
   356
  8
0
  6
CONTINUOUS
 62
     7
 10
-29.4832242816685
 20
-22.2439311697702
 30
0.0
 40
0.458181771365079
 50
359.999999948034
 51
539.999999948034
  0
ARC
  5
   357
  8
0
  6
CONTINUOUS
 62
     7
 10
-29.4832242816685
 20
-22.3712038840383
 30
0.0
 40
0.661818114194002
 50
179.999999948034
 51
359.999999948034
  0
ARC
  5
   358
  8
0
  6
CONTINUOUS
 62
     7
 10
-29.4832242816685
 20
-22.3712038840383
 30
0.0
 40
0.458181771365078
 50
179.999999948034
 51
359.999999948034
  0
LINE
  5
   359
  8
0
  6
CONTINUOUS
 62
     7
 10
-29.0250425103035
 20
-22.3712038840383
 30
0.0
 11
-29.0250425103035
 21
-22.2439311697702
 31
0.0
  0
LINE
  5
   35A
  8
0
  6
CONTINUOUS
 62
     7
 10
-28.8214061674745
 20
-22.3712038840383
 30
0.0
 11
-28.8214061674745
 21
-22.2439311697702
 31
0.0
  0
LINE
  5
   35B
  8
0
  6
CONTINUOUS
 62
     7
 10
-29.9414060530336
 20
-22.3712038840383
 30
0.0
 11
-29.9414060530336
 21
-22.2439311697702
 31
0.0
  0
LINE
  5
   35C
  8
0
  6
CONTINUOUS
 62
     7
 10
-30.1450423958625
 20
-22.3712038840383
 30
0.0
 11
-30.1450423958625
 21
-22.2439311697702
 31
0.0
  0
LINE
  5
   35D
  8
0
  6
CONTINUOUS
 62
     7
 10
-28.5827698282219
 20
-23.0330219982323
 30
0.0
 11
-28.5827698282219
 21
-21.5821130555762
 31
0.0
  0
LINE
  5
   35E
  8
0
  6
CONTINUOUS
 62
     7
 10
-28.379133485393
 20
-23.0330219982323
 30
0.0
 11
-28.379133485393
 21
-22.1421129983557
 31
0.0
  0
LINE
  5
   35F
  8
0
  6
CONTINUOUS
 62
     7
 10
-27.6664062854917
 20
-23.0330219982323
 30
0.0
 11
-27.6664062854917
 21
-22.1421129983557
 31
0.0
  0
LINE
  5
   360
  8
0
  6
CONTINUOUS
 62
     7
 10
-27.4627699426628
 20
-23.0330219982323
 30
0.0
 11
-27.4627699426628
 21
-22.0912039126485
 31
0.0
  0
LINE
  5
   361
  8
0
  6
CONTINUOUS
 62
     7
 10
-28.379133485393
 20
-21.5821130555762
 30
0.0
 11
-28.5827698282219
 21
-21.5821130555762
 31
0.0
  0
ARC
  5
   362
  8
0
  6
CONTINUOUS
 62
     7
 10
-28.0227698854423
 20
-22.1421129983557
 30
0.0
 40
0.356363599950617
 50
359.999999948034
 51
539.999999948034
  0
LINE
  5
   363
  8
0
  6
CONTINUOUS
 62
     7
 10
-28.379133485393
 20
-21.7857493984051
 30
0.0
 11
-28.379133485393
 21
-21.5821130555762
 31
0.0
  0
ARC
  5
   364
  8
0
  6
CONTINUOUS
 62
     7
 10
-27.9718607997351
 20
-22.0912039126485
 30
0.0
 40
0.50909085707231
 50
359.999999948034
 51
503.13010230219
  0
LINE
  5
   365
  8
0
  6
CONTINUOUS
 62
     7
 10
-27.4627699426628
 20
-23.0330219982323
 30
0.0
 11
-27.6664062854917
 21
-23.0330219982323
 31
0.0
  0
LINE
  5
   366
  8
0
  6
CONTINUOUS
 62
     7
 10
-28.0354971568692
 20
-44.7179684123769
 30
0.0
 11
-28.1500425997104
 21
-44.7179684123769
 31
0.0
  0
LINE
  5
   367
  8
0
  6
CONTINUOUS
 62
     7
 10
-28.2773153139785
 20
-46.6779682121053
 30
0.0
 11
-28.4809516568074
 21
-46.6779682121053
 31
0.0
  0
LINE
  5
   368
  8
0
  6
CONTINUOUS
 62
     7
 10
-30.1450423958625
 20
-46.0161500979113
 30
0.0
 11
-30.1450423958625
 21
-45.8888773836432
 31
0.0
  0
LINE
  5
   369
  8
0
  6
CONTINUOUS
 62
     7
 10
-28.8214061674745
 20
-46.0161500979113
 30
0.0
 11
-28.8214061674745
 21
-45.8888773836432
 31
0.0
  0
ARC
  5
   36A
  8
0
  6
CONTINUOUS
 62
     7
 10
-29.4832242816685
 20
-45.8888773836432
 30
0.0
 40
0.661818114194003
 50
359.999999948034
 51
539.999999948034
  0
ARC
  5
   36B
  8
0
  6
CONTINUOUS
 62
     7
 10
-29.4832242816685
 20
-46.0161500979113
 30
0.0
 40
0.661818114194002
 50
179.999999948034
 51
359.999999948034
  0
ARC
  5
   36C
  8
0
  6
CONTINUOUS
 62
     7
 10
-29.4832242816685
 20
-45.8888773836432
 30
0.0
 40
0.458181771365079
 50
359.999999948034
 51
539.999999948034
  0
ARC
  5
   36D
  8
0
  6
CONTINUOUS
 62
     7
 10
-29.4832242816685
 20
-46.0161500979113
 30
0.0
 40
0.458181771365078
 50
179.999999948034
 51
359.999999948034
  0
LINE
  5
   36E
  8
0
  6
CONTINUOUS
 62
     7
 10
-29.9414060530336
 20
-46.0161500979113
 30
0.0
 11
-29.9414060530336
 21
-45.8888773836432
 31
0.0
  0
LINE
  5
   36F
  8
0
  6
CONTINUOUS
 62
     7
 10
-29.0250425103035
 20
-46.0161500979113
 30
0.0
 11
-29.0250425103035
 21
-45.8888773836432
 31
0.0
  0
LINE
  5
   370
  8
0
  6
CONTINUOUS
 62
     7
 10
-28.7227698139168
 20
-45.5325137836926
 30
0.0
 11
-28.7227698139168
 21
-45.3288774408637
 31
0.0
  0
LINE
  5
   371
  8
0
  6
CONTINUOUS
 62
     7
 10
-28.4809516568074
 20
-45.5325137836926
 30
0.0
 11
-28.7227698139168
 21
-45.5325137836926
 31
0.0
  0
LINE
  5
   372
  8
0
  6
CONTINUOUS
 62
     7
 10
-28.0354971568692
 20
-45.5325137836926
 30
0.0
 11
-28.0354971568692
 21
-45.3288774408637
 31
0.0
  0
LINE
  5
   373
  8
0
  6
CONTINUOUS
 62
     7
 10
-28.4809516568074
 20
-45.3288774408637
 30
0.0
 11
-28.7227698139168
 21
-45.3288774408637
 31
0.0
  0
LINE
  5
   374
  8
0
  6
CONTINUOUS
 62
     7
 10
-28.4809516568074
 20
-46.6779682121053
 30
0.0
 11
-28.4809516568074
 21
-45.5325137836926
 31
0.0
  0
LINE
  5
   375
  8
0
  6
CONTINUOUS
 62
     7
 10
-28.2773153139785
 20
-46.6779682121053
 30
0.0
 11
-28.2773153139785
 21
-45.5325137836926
 31
0.0
  0
LINE
  5
   376
  8
0
  6
CONTINUOUS
 62
     7
 10
-28.0354971568692
 20
-45.5325137836926
 30
0.0
 11
-28.2773153139785
 21
-45.5325137836926
 31
0.0
  0
LINE
  5
   377
  8
0
  6
CONTINUOUS
 62
     7
 10
-28.0354971568692
 20
-45.3288774408637
 30
0.0
 11
-28.2773153139785
 21
-45.3288774408637
 31
0.0
  0
LINE
  5
   378
  8
0
  6
CONTINUOUS
 62
     7
 10
-28.4809516568074
 20
-45.3288774408637
 30
0.0
 11
-28.4809516568074
 21
-45.0488774694739
 31
0.0
  0
LINE
  5
   379
  8
0
  6
CONTINUOUS
 62
     7
 10
-28.2773153139785
 20
-45.3288774408637
 30
0.0
 11
-28.2773153139785
 21
-45.0488774694739
 31
0.0
  0
ARC
  5
   37A
  8
0
  6
CONTINUOUS
 62
     7
 10
-28.1500425997104
 20
-45.0488774694739
 30
0.0
 40
0.330909057097001
 50
449.999999948034
 51
539.999999948034
  0
ARC
  5
   37B
  8
0
  6
CONTINUOUS
 62
     7
 10
-28.1500425997104
 20
-45.0488774694739
 30
0.0
 40
0.127272714268077
 50
449.999999948034
 51
539.999999948034
  0
LINE
  5
   37C
  8
0
  6
CONTINUOUS
 62
     7
 10
-28.0354971568692
 20
-44.9216047552058
 30
0.0
 11
-28.0354971568692
 21
-44.7179684123769
 31
0.0
  0
LINE
  5
   37D
  8
0
  6
CONTINUOUS
 62
     7
 10
-28.0354971568692
 20
-44.9216047552058
 30
0.0
 11
-28.1500425997104
 21
-44.9216047552058
 31
0.0
  0
LINE
  5
   37E
  8
0
  6
CONTINUOUS
 62
     7
 10
-27.1859517891297
 20
-44.7179684123769
 30
0.0
 11
-27.300497231971
 21
-44.7179684123769
 31
0.0
  0
LINE
  5
   37F
  8
0
  6
CONTINUOUS
 62
     7
 10
-27.4277699462391
 20
-46.6779682121053
 30
0.0
 11
-27.631406289068
 21
-46.6779682121053
 31
0.0
  0
LINE
  5
   380
  8
0
  6
CONTINUOUS
 62
     7
 10
-27.8732244461774
 20
-45.5325137836926
 30
0.0
 11
-27.8732244461774
 21
-45.3288774408637
 31
0.0
  0
LINE
  5
   381
  8
0
  6
CONTINUOUS
 62
     7
 10
-27.631406289068
 20
-45.5325137836926
 30
0.0
 11
-27.8732244461774
 21
-45.5325137836926
 31
0.0
  0
LINE
  5
   382
  8
0
  6
CONTINUOUS
 62
     7
 10
-27.1859517891297
 20
-45.5325137836926
 30
0.0
 11
-27.1859517891297
 21
-45.3288774408637
 31
0.0
  0
LINE
  5
   383
  8
0
  6
CONTINUOUS
 62
     7
 10
-27.631406289068
 20
-45.3288774408637
 30
0.0
 11
-27.8732244461774
 21
-45.3288774408637
 31
0.0
  0
LINE
  5
   384
  8
0
  6
CONTINUOUS
 62
     7
 10
-27.631406289068
 20
-46.6779682121053
 30
0.0
 11
-27.631406289068
 21
-45.5325137836926
 31
0.0
  0
LINE
  5
   385
  8
0
  6
CONTINUOUS
 62
     7
 10
-27.4277699462391
 20
-46.6779682121053
 30
0.0
 11
-27.4277699462391
 21
-45.5325137836926
 31
0.0
  0
LINE
  5
   386
  8
0
  6
CONTINUOUS
 62
     7
 10
-27.1859517891297
 20
-45.5325137836926
 30
0.0
 11
-27.4277699462391
 21
-45.5325137836926
 31
0.0
  0
LINE
  5
   387
  8
0
  6
CONTINUOUS
 62
     7
 10
-27.1859517891297
 20
-45.3288774408637
 30
0.0
 11
-27.4277699462391
 21
-45.3288774408637
 31
0.0
  0
LINE
  5
   388
  8
0
  6
CONTINUOUS
 62
     7
 10
-27.631406289068
 20
-45.3288774408637
 30
0.0
 11
-27.631406289068
 21
-45.0488774694739
 31
0.0
  0
LINE
  5
   389
  8
0
  6
CONTINUOUS
 62
     7
 10
-27.4277699462391
 20
-45.3288774408637
 30
0.0
 11
-27.4277699462391
 21
-45.0488774694739
 31
0.0
  0
ARC
  5
   38A
  8
0
  6
CONTINUOUS
 62
     7
 10
-27.300497231971
 20
-45.0488774694739
 30
0.0
 40
0.330909057097001
 50
449.999999948034
 51
539.999999948034
  0
ARC
  5
   38B
  8
0
  6
CONTINUOUS
 62
     7
 10
-27.300497231971
 20
-45.0488774694739
 30
0.0
 40
0.127272714268077
 50
449.999999948034
 51
539.999999948034
  0
LINE
  5
   38C
  8
0
  6
CONTINUOUS
 62
     7
 10
-27.1859517891297
 20
-44.9216047552058
 30
0.0
 11
-27.1859517891297
 21
-44.7179684123769
 31
0.0
  0
LINE
  5
   38D
  8
0
  6
CONTINUOUS
 62
     7
 10
-27.1859517891297
 20
-44.9216047552058
 30
0.0
 11
-27.300497231971
 21
-44.9216047552058
 31
0.0
  0
INSERT
  5
   38E
  8
255
  6
CONTINUOUS
 62
     7
  2
MOSTRA
 10
-10.670716857911
 20
-55.2270951509462
 30
0.0
 41
0.349999964237213
 42
0.349999964237213
 50
359.999999792138
 43
0.349999964237213
  0
LINE
  5
   38F
  8
0
  6
DASHDOT
 62
     7
 10
-35.1707418293011
 20
-81.039595190189
 30
0.0
 11
-35.1707418293011
 21
-72.9895307774025
 31
0.0
  0
LINE
  5
   390
  8
0
  6
CONTINUOUS
 62
     1
 10
-37.2707194805148
 20
-58.1145970255124
 30
0.0
 11
-46.9832133888763
 21
-58.1145970255124
 31
0.0
  0
LINE
  5
   391
  8
0
  6
CONTINUOUS
 62
     1
 10
-37.2707194805148
 20
-57.7645970821368
 30
0.0
 11
-47.3332133322519
 21
-57.7645970821368
 31
0.0
  0
LINE
  5
   392
  8
0
  6
CONTINUOUS
 62
     7
 10
-37.2707194805148
 20
3.66040553096103
 30
0.0
 11
-46.5456998407863
 21
3.66040553096103
 31
0.0
  0
LINE
  5
   393
  8
0
  6
CONTINUOUS
 62
     1
 10
-37.2707194805148
 20
3.48539668023714
 30
0.0
 11
-47.3332133322519
 21
3.48539668023714
 31
0.0
  0
ARC
  5
   394
  8
0
  6
CONTINUOUS
 62
     1
 10
-35.1707062875059
 20
7.33545722012612
 30
0.0
 40
2.97505948189176
 50
289.749171808174
 51
315.098568474349
  0
ARC
  5
   395
  8
0
  6
CONTINUOUS
 62
     1
 10
-10.670763282154
 20
7.33525465500864
 30
0.0
 40
2.97513823298993
 50
289.764934892616
 51
315.105491686916
  0
ARC
  5
   396
  8
0
  6
CONTINUOUS
 62
     1
 10
13.8292754735396
 20
7.33536693897716
 30
0.0
 40
2.97502416090334
 50
289.752422439401
 51
315.100341172749
  0
TEXT
  5
   397
  8
0
  6
CONTINUOUS
 62
     7
 10
38.1782845695723
 20
-44.8704638867631
 30
0.0
 40
3.00000001532688
  1
=         =
 50
89.9999999480344
 41
0.916666616797451
 72
     1
 11
36.6782845753587
 21
-30.0204646159873
 31
0.0
 73
     2
  0
TEXT
  5
   398
  8
0
  6
CONTINUOUS
 62
     7
 10
-25.4507319633346
 20
27.7782354016031
 30
0.0
 40
3.00000001532688
  1
=         =
 50
359.999999948034
 41
0.916666616797451
 72
     1
 11
-10.6007326925644
 21
29.2782353958726
 31
0.0
 73
     2
  0
INSERT
  5
   399
  8
0
  6
CONTINUOUS
 62
     7
  2
*UDIM1049
 10
0.0
 20
0.0
 30
0.0
  0
INSERT
  5
   39A
  8
0
  6
CONTINUOUS
 62
     7
  2
*UDIM1050
 10
0.0
 20
0.0
 30
0.0
  0
TEXT
  5
   39B
  8
0
  6
CONTINUOUS
 62
     7
 10
-52.9571223051013
 20
-38.8123024073406
 30
0.0
 40
3.00000001532688
  1
=     =
 50
89.9999999480344
 41
0.916666616797451
 72
     2
 11
-52.9571222881644
 21
-20.1123033262741
 31
0.0
  0
INSERT
  5
   39C
  8
0
  6
CONTINUOUS
 62
     7
  2
*UDIM1051
 10
0.0
 20
0.0
 30
0.0
  0
INSERT
  5
   39D
  8
0
  6
CONTINUOUS
 62
     7
  2
*UDIM1052
 10
0.0
 20
0.0
 30
0.0
  0
INSERT
  5
   39E
  8
0
  6
CONTINUOUS
 62
     7
  2
*UDIM1053
 10
0.0
 20
0.0
 30
0.0
  0
INSERT
  5
   39F
  8
0
  6
CONTINUOUS
 62
     7
  2
*UDIM1054
 10
0.0
 20
0.0
 30
0.0
  0
INSERT
  5
   3A0
  8
0
  6
CONTINUOUS
 62
     7
  2
*UDIM1055
 10
0.0
 20
0.0
 30
0.0
  0
TEXT
  5
   3A1
  8
0
  6
CONTINUOUS
 62
     7
 10
-26.6546385565116
 20
18.4545448545822
 30
0.0
 40
3.00000001532688
  1
=         =
 50
359.999999948034
 41
0.916666616797451
 72
     2
 11
3.0453599823229
 21
18.4545448277944
 31
0.0
  0
TEXT
  5
   3A2
  8
0
  6
CONTINUOUS
 62
     7
 10
-11.6050886907508
 20
48.0430749328114
 30
0.0
 40
3.00000001532688
  1
Y
 50
359.999999948034
 41
0.916666616797451
 72
     2
 11
-9.40508879633621
 21
48.0430749308271
 31
0.0
  0
TEXT
  5
   3A3
  8
0
  6
CONTINUOUS
 62
     7
 10
51.4790831918604
 20
-31.3139615599746
 30
0.0
 40
3.00000001532688
  1
X
 50
359.999999948034
 41
0.916666616797451
 72
     2
 11
53.679083086275
 21
-31.3139615619588
 31
0.0
  0
TEXT
  5
   3A4
  8
0
  6
CONTINUOUS
 62
     7
 10
-83.9674849995404
 20
-30.0909697415797
 30
0.0
 40
3.00000001532688
  1
X
 50
359.999999948034
 41
0.916666616797451
 72
     2
 11
-81.7674851051258
 21
-30.090969743564
 31
0.0
  0
TEXT
  5
   3A5
  8
0
  6
CONTINUOUS
 62
     7
 10
-11.6983170605348
 20
-99.2447101305642
 30
0.0
 40
3.00000001532688
  1
Y
 50
359.999999948034
 41
0.916666616797451
 72
     2
 11
-9.49831716612023
 21
-99.2447101325485
 31
0.0
  0
LINE
  5
   3A6
  8
0
  6
CONTINUOUS
 62
   130
 10
109.352435802316
 20
-13.4021227541914
 30
0.0
 11
109.439930450457
 21
-13.4896227421746
 31
0.0
  0
LINE
  5
   3A7
  8
0
  6
CONTINUOUS
 62
   130
 10
109.439939433337
 20
-50.0645947962994
 30
0.0
 11
109.439939433337
 21
-13.4896198958131
 31
0.0
  0
LINE
  5
   3A8
  8
0
  6
CONTINUOUS
 62
   130
 10
113.814944326876
 20
-46.1270801479112
 30
0.0
 11
113.814944326876
 21
-43.0645964825624
 31
0.0
  0
LINE
  5
   3A9
  8
0
  6
CONTINUOUS
 62
   130
 10
113.814944326876
 20
-12.089615669296
 30
0.0
 11
113.814944326876
 21
-11.5646157229401
 31
0.0
  0
LINE
  5
   3AA
  8
0
  6
DASHDOT
 62
     2
 10
55.2048491603597
 20
-29.7644546582528
 30
0.0
 11
134.036043804218
 21
-29.7646733619226
 31
0.0
  0
LINE
  5
   3AB
  8
0
  6
CONTINUOUS
 62
   212
 10
108.739939504862
 20
-5.26460568549874
 30
0.0
 11
123.96474062197
 21
-5.26464792410607
 31
0.0
  0
LINE
  5
   3AC
  8
0
  6
CONTINUOUS
 62
   212
 10
108.739939504862
 20
-54.2646006788972
 30
0.0
 11
123.96473867994
 21
-54.2646429174991
 31
0.0
  0
LINE
  5
   3AD
  8
0
  6
CONTINUOUS
 62
     7
 10
113.814944326876
 20
-54.2646147586302
 30
0.0
 11
113.814944326876
 21
-5.26461976523183
 31
0.0
  0
LINE
  5
   3AE
  8
0
  6
CONTINUOUS
 62
   212
 10
124.314739615193
 20
-10.6918411805415
 30
0.0
 11
124.314739615193
 21
-5.61464788834196
 31
0.0
  0
LINE
  5
   3AF
  8
0
  6
CONTINUOUS
 62
   212
 10
124.31463179578
 20
-5.7896655994771
 30
0.0
 11
124.314741277579
 21
-6.31445726337694
 31
0.0
  0
LINE
  5
   3B0
  8
0
  6
CONTINUOUS
 62
     7
 10
109.064126008815
 20
-44.3536028250769
 30
0.0
 11
109.089754128079
 21
-44.2917309228044
 31
0.0
  0
LINE
  5
   3B1
  8
0
  6
CONTINUOUS
 62
   212
 10
124.314739615193
 20
-53.9146429532632
 30
0.0
 11
124.314739615193
 21
-28.991382301215
 31
0.0
  0
ARC
  5
   3B2
  8
0
  6
CONTINUOUS
 62
   212
 10
123.964739650955
 20
-53.9146429532632
 30
0.0
 40
0.349999964237213
 50
269.999841042657
 51
360.0
  0
ARC
  5
   3B3
  8
0
  6
CONTINUOUS
 62
   212
 10
123.964739650955
 20
-5.61464788834196
 30
0.0
 40
0.349999964237213
 50
0.0
 51
89.999841042657
  0
LINE
  5
   3B4
  8
0
  6
CONTINUOUS
 62
     7
 10
113.814944326876
 20
-54.2646147586302
 30
0.0
 11
113.814944326876
 21
-5.26461976523183
 31
0.0
  0
LINE
  5
   3B5
  8
0
  6
CONTINUOUS
 62
     1
 10
122.389739811888
 20
-46.127155487831
 30
0.0
 11
122.389739811888
 21
-45.4271555593565
 31
0.0
  0
LINE
  5
   3B6
  8
0
  6
CONTINUOUS
 62
     1
 10
122.389739811888
 20
-57.7646381903062
 30
0.0
 11
123.089739740362
 21
-57.7646381903062
 31
0.0
  0
LINE
  5
   3B7
  8
0
  6
CONTINUOUS
 62
     1
 10
122.389739811888
 20
-8.32716068535584
 30
0.0
 11
122.389739811888
 21
-7.62716075688141
 31
0.0
  0
LINE
  5
   3B8
  8
0
  6
CONTINUOUS
 62
     1
 10
122.389739811888
 20
-1.76464585419363
 30
0.0
 11
123.089739740362
 21
-1.76464585419363
 31
0.0
  0
LINE
  5
   3B9
  8
0
  6
CONTINUOUS
 62
     1
 10
122.389739811888
 20
-45.4271555593565
 30
0.0
 11
122.389739811888
 21
-8.32715935021193
 31
0.0
  0
LINE
  5
   3BA
  8
0
  6
CONTINUOUS
 62
     1
 10
123.089739740362
 20
-55.0521559110238
 30
0.0
 11
123.089739740362
 21
1.29783833116753
 31
0.0
  0
LINE
  5
   3BB
  8
0
  6
CONTINUOUS
 62
     1
 10
123.089739740362
 20
-66.6896372783551
 30
0.0
 11
124.314739615193
 21
-66.6896372783551
 31
0.0
  0
LINE
  5
   3BC
  8
0
  6
CONTINUOUS
 62
     1
 10
124.314739615193
 20
-66.6896372783551
 30
0.0
 11
124.314739615193
 21
7.1603532338553
 31
0.0
  0
LINE
  5
   3BD
  8
0
  6
CONTINUOUS
 62
     1
 10
123.089739740362
 20
7.1603532338553
 30
0.0
 11
123.614739686718
 21
7.1603532338553
 31
0.0
  0
LINE
  5
   3BE
  8
0
  6
CONTINUOUS
 62
     1
 10
123.964739650955
 20
7.1603532338553
 30
0.0
 11
124.314739615193
 21
7.1603532338553
 31
0.0
  0
LINE
  5
   3BF
  8
0
  6
CONTINUOUS
 62
     1
 10
123.614739686718
 20
7.1603532338553
 30
0.0
 11
123.964739650955
 21
7.1603532338553
 31
0.0
  0
LINE
  5
   3C0
  8
0
  6
CONTINUOUS
 62
     7
 10
123.089739740362
 20
1.29783833116753
 30
0.0
 11
123.089739740362
 21
26.7429372954781
 31
0.0
  0
LINE
  5
   3C1
  8
0
  6
CONTINUOUS
 62
     7
 10
123.089739740362
 20
-88.8087210409697
 30
0.0
 11
123.089739740362
 21
-55.0521545758799
 31
0.0
  0
LINE
  5
   3C2
  8
0
  6
CONTINUOUS
 62
     7
 10
119.945603026734
 20
-89.7227142716756
 30
0.0
 11
125.534387157452
 21
-88.0980677220484
 31
0.0
  0
LINE
  5
   3C3
  8
0
  6
CONTINUOUS
 62
     7
 10
120.66044750857
 20
28.2916110932456
 30
0.0
 11
125.859316467377
 21
24.977332132006
 31
0.0
  0
LINE
  5
   3C4
  8
0
  6
CONTINUOUS
 62
     7
 10
122.389739811888
 20
-58.1146381545434
 30
0.0
 11
123.089739740362
 21
-58.1146381545434
 31
0.0
  0
LINE
  5
   3C5
  8
0
  6
CONTINUOUS
 62
     7
 10
122.389739811888
 20
-1.41464588995642
 30
0.0
 11
123.089739740362
 21
-1.41464588995642
 31
0.0
  0
LINE
  5
   3C6
  8
0
  6
CONTINUOUS
 62
     7
 10
122.389739811888
 20
-7.62716075688141
 30
0.0
 11
122.389739811888
 21
27.1891872498806
 31
0.0
  0
LINE
  5
   3C7
  8
0
  6
CONTINUOUS
 62
     7
 10
122.389739811888
 20
-89.0122093922704
 30
0.0
 11
122.389739811888
 21
-46.127155487831
 31
0.0
  0
INSERT
  5
   3C8
  8
0
  6
CONTINUOUS
 62
     7
  2
*HATCH399
 10
60.264949798584
 20
-55.2270889282227
 30
0.0
 41
0.349999964237213
 42
0.349999964237213
 43
0.349999964237213
  0
INSERT
  5
   3C9
  8
0
  6
CONTINUOUS
 62
     7
  2
*HATCH400
 10
60.264949798584
 20
-55.2270889282227
 30
0.0
 41
0.349999964237213
 42
0.349999964237213
 43
0.349999964237213
  0
LINE
  5
   3CA
  8
0
  6
CONTINUOUS
 62
     7
 10
124.314739615193
 20
-25.0396187077263
 30
0.0
 11
126.064739436379
 21
-25.0396187077263
 31
0.0
  0
LINE
  5
   3CB
  8
0
  6
CONTINUOUS
 62
     7
 10
124.314739615193
 20
-34.4896164148943
 30
0.0
 11
126.064739436379
 21
-34.4896164148943
 31
0.0
  0
LINE
  5
   3CC
  8
0
  6
CONTINUOUS
 62
     7
 10
126.064739436379
 20
-34.4896164148943
 30
0.0
 11
126.064739436379
 21
-25.0396187077263
 31
0.0
  0
LINE
  5
   3CD
  8
0
  6
CONTINUOUS
 62
     7
 10
119.064740819206
 20
-4.73964360816164
 30
0.0
 11
119.939742732515
 21
-4.73964360816164
 31
0.0
  0
LINE
  5
   3CE
  8
0
  6
CONTINUOUS
 62
     7
 10
119.064740819206
 20
-4.73964360816164
 30
0.0
 11
119.064740819206
 21
-1.0646439836709
 31
0.0
  0
LINE
  5
   3CF
  8
0
  6
CONTINUOUS
 62
     7
 10
120.289742696752
 20
0.160355891159348
 30
0.0
 11
121.164742607345
 21
0.160355891159348
 31
0.0
  0
LINE
  5
   3D0
  8
0
  6
CONTINUOUS
 62
     7
 10
121.514742571583
 20
0.510355855396561
 30
0.0
 11
121.514742571583
 21
3.31035556929427
 31
0.0
  0
LINE
  5
   3D1
  8
0
  6
CONTINUOUS
 62
     7
 10
121.514742571583
 20
3.31035556929427
 30
0.0
 11
122.389739811888
 21
3.31035556929427
 31
0.0
  0
LINE
  5
   3D2
  8
0
  6
CONTINUOUS
 62
     7
 10
122.389739811888
 20
0.510355855396561
 30
0.0
 11
122.389739811888
 21
3.31035556929427
 31
0.0
  0
LINE
  5
   3D3
  8
0
  6
CONTINUOUS
 62
     7
 10
120.289742696752
 20
-0.714644019433685
 30
0.0
 11
121.164742607345
 21
-0.714644019433685
 31
0.0
  0
LINE
  5
   3D4
  8
0
  6
CONTINUOUS
 62
     7
 10
119.939742732515
 20
-4.73964360816164
 30
0.0
 11
119.939742732515
 21
-1.0646439836709
 31
0.0
  0
ARC
  5
   3D5
  8
0
  6
CONTINUOUS
 62
     7
 10
121.164744058893
 20
0.51035562042803
 30
0.0
 40
0.349998906467009
 50
269.99984089121
 51
360.00025299209
  0
ARC
  5
   3D6
  8
0
  6
CONTINUOUS
 62
     7
 10
120.289747825479
 20
-1.06464842387702
 30
0.0
 40
1.22500633342002
 50
90.000186890172
 51
179.999680705376
  0
ARC
  5
   3D7
  8
0
  6
CONTINUOUS
 62
     7
 10
120.289727209902
 20
-1.06462967049852
 30
0.0
 40
0.349982401674234
 50
89.997764198722
 51
180.00116981594
  0
ARC
  5
   3D8
  8
0
  6
CONTINUOUS
 62
     7
 10
121.164749380678
 20
0.510344638970714
 30
0.0
 40
1.22498974441176
 50
269.999653399338
 51
360.000420324806
  0
LINE
  5
   3D9
  8
0
  6
CONTINUOUS
 62
     7
 10
119.064740819206
 20
-1.58964393002672
 30
0.0
 11
119.939742732515
 21
-1.58964393002672
 31
0.0
  0
INSERT
  5
   3DA
  8
0
  6
CONTINUOUS
 62
     7
  2
*HATCH401
 10
60.264949798584
 20
-55.2270889282227
 30
0.0
 41
0.349999964237213
 42
0.349999964237213
 43
0.349999964237213
  0
LINE
  5
   3DB
  8
0
  6
CONTINUOUS
 62
     7
 10
120.464740008583
 20
-2.81463846428293
 30
0.0
 11
121.164739937058
 21
-2.81464040631303
 31
0.0
  0
LINE
  5
   3DC
  8
0
  6
CONTINUOUS
 62
     7
 10
121.164739937058
 20
-5.26464015598297
 30
0.0
 11
121.164739937058
 21
-2.81464040631303
 31
0.0
  0
LINE
  5
   3DD
  8
0
  6
CONTINUOUS
 62
     7
 10
120.464740008583
 20
-5.26464015598297
 30
0.0
 11
120.464740008583
 21
-2.81464040631303
 31
0.0
  0
LINE
  5
   3DE
  8
0
  6
CONTINUOUS
 62
   130
 10
73.5649645030495
 20
-29.2395838155785
 30
0.0
 11
73.5649645030495
 21
-24.6895842804947
 31
0.0
  0
LINE
  5
   3DF
  8
0
  6
CONTINUOUS
 62
   130
 10
73.214964830875
 20
8.38541233992191
 30
0.0
 11
74.0899644076821
 21
8.38541233992191
 31
0.0
  0
LINE
  5
   3E0
  8
0
  6
CONTINUOUS
 62
   130
 10
73.214964830875
 20
4.88540735697416
 30
0.0
 11
74.0899644076821
 21
4.88540735697416
 31
0.0
  0
LINE
  5
   3E1
  8
0
  6
CONTINUOUS
 62
   130
 10
73.214964830875
 20
4.88540735697416
 30
0.0
 11
73.214964830875
 21
5.35324178182736
 31
0.0
  0
LINE
  5
   3E2
  8
0
  6
CONTINUOUS
 62
   130
 10
73.214964830875
 20
5.35327382528112
 30
0.0
 11
73.214964830875
 21
5.9581153772483
 31
0.0
  0
LINE
  5
   3E3
  8
0
  6
CONTINUOUS
 62
   130
 10
73.214964830875
 20
5.95815810185331
 30
0.0
 11
73.214964830875
 21
8.38541200613594
 31
0.0
  0
LINE
  5
   3E4
  8
0
  6
CONTINUOUS
 62
     3
 10
73.7399644434449
 20
-57.4145812704601
 30
0.0
 11
74.0899643868205
 21
-57.4145812704601
 31
0.0
  0
LINE
  5
   3E5
  8
0
  6
CONTINUOUS
 62
   130
 10
73.7399644434449
 20
-52.1645868136916
 30
0.0
 11
73.7399644434449
 21
-49.1895817770996
 31
0.0
  0
LINE
  5
   3E6
  8
0
  6
CONTINUOUS
 62
     3
 10
73.7399644434449
 20
-28.9923899321452
 30
0.0
 11
73.7399644434449
 21
-24.6895842804947
 31
0.0
  0
LINE
  5
   3E7
  8
0
  6
CONTINUOUS
 62
   130
 10
73.7399644434448
 20
-0.189586777146452
 30
0.0
 11
74.0899644076821
 21
-0.189592117722079
 31
0.0
  0
LINE
  5
   3E8
  8
0
  6
CONTINUOUS
 62
   130
 10
74.0899644076821
 20
-0.189592124465435
 30
0.0
 11
74.0899644076821
 21
12.060406623837
 31
0.0
  0
LINE
  5
   3E9
  8
0
  6
CONTINUOUS
 62
     3
 10
74.0899643868205
 20
-57.4145812704601
 30
0.0
 11
89.6523910803524
 21
-57.4145812704601
 31
0.0
  0
LINE
  5
   3EA
  8
0
  6
CONTINUOUS
 62
     3
 10
99.6574567884208
 20
11.010412071701
 30
0.0
 11
101.039945611359
 21
11.010412071701
 31
0.0
  0
LINE
  5
   3EB
  8
0
  6
CONTINUOUS
 62
   130
 10
73.7399631218752
 20
-34.3864115745535
 30
0.0
 11
74.0899644076821
 21
-34.2926322670276
 31
0.0
  0
LINE
  5
   3EC
  8
0
  6
CONTINUOUS
 62
     3
 10
73.7399670210404
 20
-28.9923948974782
 30
0.0
 11
76.6217703018964
 21
-29.7645992314378
 31
0.0
  0
LINE
  5
   3ED
  8
0
  6
CONTINUOUS
 62
     3
 10
74.9649418878562
 20
-29.7645992019628
 30
0.0
 11
106.88493862629
 21
-29.7645840443705
 31
0.0
  0
LINE
  5
   3EE
  8
0
  6
CONTINUOUS
 62
     3
 10
74.9649418878562
 20
-33.6146094897566
 30
0.0
 11
106.88493862629
 21
-33.614594333017
 31
0.0
  0
LINE
  5
   3EF
  8
0
  6
CONTINUOUS
 62
   130
 10
74.0899644076821
 20
-34.2926495529214
 30
0.0
 11
74.0899644076821
 21
-29.2395838155785
 31
0.0
  0
LINE
  5
   3F0
  8
0
  6
DASHDOT
 62
   130
 10
73.2149644970891
 20
-57.4145809366741
 30
0.0
 11
73.2149644970891
 21
19.3230157012793
 31
0.0
  0
LINE
  5
   3F1
  8
0
  6
CONTINUOUS
 62
   130
 10
73.214964497089
 20
-52.164581473116
 30
0.0
 11
73.7399641096589
 21
-52.164581473116
 31
0.0
  0
LINE
  5
   3F2
  8
0
  6
CONTINUOUS
 62
     3
 10
73.2149646083508
 20
-57.4145809366741
 30
0.0
 11
73.7399645547066
 21
-57.4145812704601
 31
0.0
  0
LINE
  5
   3F3
  8
0
  6
CONTINUOUS
 62
     3
 10
89.6523826591232
 20
-57.4145828634984
 30
0.0
 11
89.8399436601281
 21
-58.1145824272413
 31
0.0
  0
LINE
  5
   3F4
  8
0
  6
CONTINUOUS
 62
     3
 10
89.6649574756625
 20
-58.1145808651486
 30
0.0
 11
101.039940291645
 21
-58.1145808651486
 31
0.0
  0
LINE
  5
   3F5
  8
0
  6
CONTINUOUS
 62
     3
 10
99.1149404883403
 20
-33.7021047219055
 30
0.0
 11
99.1149404883403
 21
-33.6145940496949
 31
0.0
  0
LINE
  5
   3F6
  8
0
  6
CONTINUOUS
 62
     3
 10
99.1149404883403
 20
-29.7645837619343
 30
0.0
 11
99.1149404883403
 21
-29.6771051331775
 31
0.0
  0
LINE
  5
   3F7
  8
0
  6
CONTINUOUS
 62
     3
 10
99.1149404883403
 20
-29.6771051331775
 30
0.0
 11
106.88493862629
 21
-29.6771051331775
 31
0.0
  0
LINE
  5
   3F8
  8
0
  6
CONTINUOUS
 62
     3
 10
99.114937089671
 20
-33.7021066626162
 30
0.0
 11
106.88493862629
 21
-33.7021497753936
 31
0.0
  0
LINE
  5
   3F9
  8
0
  6
CONTINUOUS
 62
     1
 10
73.2149661660189
 20
-48.1833319489769
 30
0.0
 11
73.2149661660189
 21
-45.6458428894083
 31
0.0
  0
LINE
  5
   3FA
  8
0
  6
CONTINUOUS
 62
   130
 10
73.5649644606577
 20
-44.6395822420159
 30
0.0
 11
73.7399644427763
 21
-44.6395822420159
 31
0.0
  0
LINE
  5
   3FB
  8
0
  6
CONTINUOUS
 62
   130
 10
73.5649644606577
 20
-49.1895817770996
 30
0.0
 11
73.7399644427763
 21
-49.1895817770996
 31
0.0
  0
LINE
  5
   3FC
  8
0
  6
CONTINUOUS
 62
   130
 10
73.5649647951122
 20
-24.6895842804947
 30
0.0
 11
73.7399651110168
 21
-24.6895842804947
 31
0.0
  0
LINE
  5
   3FD
  8
0
  6
CONTINUOUS
 62
   130
 10
73.5649647742506
 20
-29.2395838155785
 30
0.0
 11
74.0899643868205
 21
-29.2395838155785
 31
0.0
  0
LINE
  5
   3FE
  8
0
  6
CONTINUOUS
 62
     1
 10
73.214964497089
 20
-45.6458428203491
 30
0.0
 11
73.5649664640421
 21
-45.6458428203491
 31
0.0
  0
LINE
  5
   3FF
  8
0
  6
CONTINUOUS
 62
     1
 10
73.214964830875
 20
-48.1833318799177
 30
0.0
 11
73.5649664640421
 21
-48.1833318799177
 31
0.0
  0
LINE
  5
   400
  8
0
  6
CONTINUOUS
 62
     3
 10
108.739939504862
 20
-58.1145968868755
 30
0.0
 11
108.739939504862
 21
-50.1520977004789
 31
0.0
  0
LINE
  5
   401
  8
0
  6
CONTINUOUS
 62
     3
 10
108.739939504862
 20
-13.4021067961471
 30
0.0
 11
108.739939504862
 21
3.48539147829842
 31
0.0
  0
LINE
  5
   402
  8
0
  6
CONTINUOUS
 62
     3
 10
106.989939683676
 20
3.48539147829842
 30
0.0
 11
108.739939504862
 21
3.48539147829842
 31
0.0
  0
LINE
  5
   403
  8
0
  6
CONTINUOUS
 62
     3
 10
106.989939683676
 20
-58.1145968868755
 30
0.0
 11
108.739939504862
 21
-58.1145968868755
 31
0.0
  0
LINE
  5
   404
  8
0
  6
CONTINUOUS
 62
     3
 10
109.439939433337
 20
-50.1520977004789
 30
0.0
 11
109.439939433337
 21
-13.4021067961471
 31
0.0
  0
LINE
  5
   405
  8
0
  6
CONTINUOUS
 62
     3
 10
108.739939504862
 20
-50.1520977004789
 30
0.0
 11
109.439939433337
 21
-50.1520977004789
 31
0.0
  0
LINE
  5
   406
  8
0
  6
CONTINUOUS
 62
     3
 10
108.739939504862
 20
-13.4021067961471
 30
0.0
 11
109.439939433337
 21
-13.4021067961471
 31
0.0
  0
LINE
  5
   407
  8
0
  6
CONTINUOUS
 62
     3
 10
99.989940398932
 20
-23.2895917218193
 30
0.0
 11
99.989940398932
 21
2.67906035532081
 31
0.0
  0
LINE
  5
   408
  8
0
  6
CONTINUOUS
 62
     3
 10
99.9899395568106
 20
-23.2895915814615
 30
0.0
 11
101.039939751037
 21
-23.464596880035
 31
0.0
  0
LINE
  5
   409
  8
0
  6
CONTINUOUS
 62
     3
 10
99.9899400658397
 20
-23.2895941573661
 30
0.0
 11
99.9899403996256
 21
-23.1145995156602
 31
0.0
  0
LINE
  5
   40A
  8
0
  6
CONTINUOUS
 62
     3
 10
99.9899397314018
 20
1.21040144572454
 30
0.0
 11
99.9899400651877
 21
1.03540146360593
 31
0.0
  0
LINE
  5
   40B
  8
0
  6
CONTINUOUS
 62
     3
 10
74.0899644076821
 20
11.0104188255612
 30
0.0
 11
107.409934875316
 21
11.0103908902605
 31
0.0
  0
LINE
  5
   40C
  8
0
  6
CONTINUOUS
 62
     3
 10
101.039940291644
 20
12.060406623837
 30
0.0
 11
107.689939612151
 21
12.060406623837
 31
0.0
  0
LINE
  5
   40D
  8
0
  6
CONTINUOUS
 62
     3
 10
101.039940291644
 20
-58.1145808651486
 30
0.0
 11
106.989934343101
 21
-58.1145808651486
 31
0.0
  0
LINE
  5
   40E
  8
0
  6
CONTINUOUS
 62
     3
 10
101.039940291644
 20
-57.4145862772498
 30
0.0
 11
106.88493862629
 21
-57.4145862772498
 31
0.0
  0
LINE
  5
   40F
  8
0
  6
CONTINUOUS
 62
     3
 10
107.689939612151
 20
3.48539147829842
 30
0.0
 11
107.689939612151
 21
3.66039680099266
 31
0.0
  0
LINE
  5
   410
  8
0
  6
CONTINUOUS
 62
     3
 10
101.039940291644
 20
-58.1145808651486
 30
0.0
 11
101.039940291644
 21
-33.7021173437254
 31
0.0
  0
LINE
  5
   411
  8
0
  6
CONTINUOUS
 62
     3
 10
101.039940291644
 20
2.96039786490645
 30
0.0
 11
101.039940291644
 21
12.060406623837
 31
0.0
  0
LINE
  5
   412
  8
0
  6
CONTINUOUS
 62
     3
 10
107.689939612151
 20
12.060406623837
 30
0.0
 11
107.864939594269
 21
12.060406623837
 31
0.0
  0
LINE
  5
   413
  8
0
  6
CONTINUOUS
 62
     3
 10
107.689939612151
 20
3.66039680099266
 30
0.0
 11
107.864939594269
 21
3.66039680099266
 31
0.0
  0
LINE
  5
   414
  8
0
  6
CONTINUOUS
 62
     3
 10
107.864939594269
 20
3.66039680099266
 30
0.0
 11
107.864939594269
 21
12.060406623837
 31
0.0
  0
LINE
  5
   415
  8
0
  6
CONTINUOUS
 62
     3
 10
106.88493862629
 20
-29.6771051331775
 30
0.0
 11
106.88493862629
 21
3.66038611984141
 31
0.0
  0
LINE
  5
   416
  8
0
  6
CONTINUOUS
 62
     3
 10
106.88493862629
 20
-57.4145862772498
 30
0.0
 11
106.88493862629
 21
-33.7021497753936
 31
0.0
  0
LINE
  5
   417
  8
0
  6
CONTINUOUS
 62
     3
 10
106.884934912163
 20
3.66039095891792
 30
0.0
 11
107.689935898024
 21
3.66039629949349
 31
0.0
  0
LINE
  5
   418
  8
0
  6
CONTINUOUS
 62
     3
 10
107.409938572646
 20
3.66038611984141
 30
0.0
 11
107.409938572646
 21
11.0103960499741
 31
0.0
  0
LINE
  5
   419
  8
0
  6
CONTINUOUS
 62
     3
 10
107.689934271575
 20
3.48540215944968
 30
0.0
 11
108.739939504862
 21
3.48540215944968
 31
0.0
  0
LINE
  5
   41A
  8
0
  6
CONTINUOUS
 62
     3
 10
108.739939504862
 20
-13.4020961149959
 30
0.0
 11
109.439939433337
 21
-13.4020961149959
 31
0.0
  0
LINE
  5
   41B
  8
0
  6
CONTINUOUS
 62
     3
 10
106.989939683676
 20
-58.1145968868755
 30
0.0
 11
106.989939683676
 21
3.48539147829842
 31
0.0
  0
LINE
  5
   41C
  8
0
  6
CONTINUOUS
 62
     3
 10
99.9899396673199
 20
2.67905607285851
 30
0.0
 11
101.039939207312
 21
2.96039757436584
 31
0.0
  0
LINE
  5
   41D
  8
0
  6
CONTINUOUS
 62
     3
 10
106.884940261764
 20
-37.6571035747089
 30
0.0
 11
106.989941315725
 21
-37.675617342686
 31
0.0
  0
LINE
  5
   41E
  8
0
  6
CONTINUOUS
 62
     3
 10
106.884940538158
 20
-57.4145809235838
 30
0.0
 11
106.989936249505
 21
-57.4836772868172
 31
0.0
  0
LINE
  5
   41F
  8
0
  6
CONTINUOUS
 62
     3
 10
106.884936901785
 20
-25.7221012948051
 30
0.0
 11
106.989937955475
 21
-25.7035855205825
 31
0.0
  0
LINE
  5
   420
  8
0
  6
CONTINUOUS
 62
     3
 10
106.884937170956
 20
0.623026880669471
 30
0.0
 11
106.989932881878
 21
0.578326268772983
 31
0.0
  0
LINE
  5
   421
  8
0
  6
CONTINUOUS
 62
     3
 10
106.884942879529
 20
2.14778828027622
 30
0.0
 11
106.989938595871
 21
2.19248355188625
 31
0.0
  0
LINE
  5
   422
  8
0
  6
CONTINUOUS
 62
     2
 10
73.2149644970891
 20
-78.0645841672456
 30
0.0
 11
73.9149590849879
 21
-78.0645841672456
 31
0.0
  0
LINE
  5
   423
  8
0
  6
CONTINUOUS
 62
     2
 10
73.2149644970891
 20
-78.0645841672456
 30
0.0
 11
73.2149644970891
 21
-74.5645898654491
 31
0.0
  0
LINE
  5
   424
  8
0
  6
CONTINUOUS
 62
     3
 10
92.8550615410232
 20
-80.7595841589009
 30
0.0
 11
106.884954648018
 21
-80.7595841589009
 31
0.0
  0
LINE
  5
   425
  8
0
  6
CONTINUOUS
 62
     2
 10
89.8355514828895
 20
-81.7395837917353
 30
0.0
 11
107.864955615998
 21
-81.7395837917353
 31
0.0
  0
LINE
  5
   426
  8
0
  6
CONTINUOUS
 62
     3
 10
73.2149591565134
 20
-57.5895862593686
 30
0.0
 11
89.6649574756625
 21
-57.5895862593686
 31
0.0
  0
LINE
  5
   427
  8
0
  6
CONTINUOUS
 62
     2
 10
107.864955615998
 20
-81.7395837917363
 30
0.0
 11
107.864955615998
 21
-73.3395899906188
 31
0.0
  0
LINE
  5
   428
  8
0
  6
CONTINUOUS
 62
     2
 10
73.2149591565134
 20
-85.5090879301037
 30
0.0
 11
73.2149591565134
 21
-57.5895862593686
 31
0.0
  0
LINE
  5
   429
  8
0
  6
CONTINUOUS
 62
     2
 10
106.884955983162
 20
-73.3395899906188
 30
0.0
 11
107.864955615998
 21
-73.3395899906188
 31
0.0
  0
LINE
  5
   42A
  8
0
  6
CONTINUOUS
 62
     3
 10
106.884955983162
 20
-80.759582823757
 30
0.0
 11
106.884955983162
 21
-73.3395899906188
 31
0.0
  0
LINE
  5
   42B
  8
0
  6
CONTINUOUS
 62
     3
 10
89.6649574756625
 20
-58.1145915463001
 30
0.0
 11
89.6649574756625
 21
-57.5895862593686
 31
0.0
  0
LINE
  5
   42C
  8
0
  6
CONTINUOUS
 62
     2
 10
106.884955983162
 20
-71.93959013367
 30
0.0
 11
106.884955983162
 21
-58.1145915463001
 31
0.0
  0
LINE
  5
   42D
  8
0
  6
CONTINUOUS
 62
     3
 10
93.4274570912125
 20
-81.7395837917355
 30
0.0
 11
93.4274570912125
 21
-80.7595841589001
 31
0.0
  0
LINE
  5
   42E
  8
0
  6
CONTINUOUS
 62
     2
 10
73.9149590849879
 20
-81.7395837917353
 30
0.0
 11
73.9149590849879
 21
-78.0645841672456
 31
0.0
  0
LINE
  5
   42F
  8
0
  6
CONTINUOUS
 62
     3
 10
93.3443790967717
 20
-81.7395837917357
 30
0.0
 11
93.3443790967717
 21
-80.7595851602582
 31
0.0
  0
LINE
  5
   430
  8
0
  6
CONTINUOUS
 62
     7
 10
108.739955793619
 20
-71.9395903034007
 30
0.0
 11
108.739955793619
 21
-58.2895916981494
 31
0.0
  0
LINE
  5
   431
  8
0
  6
CONTINUOUS
 62
     7
 10
106.884955983162
 20
-58.2895916981494
 30
0.0
 11
108.739955793619
 21
-58.2895916981494
 31
0.0
  0
LINE
  5
   432
  8
0
  6
CONTINUOUS
 62
     7
 10
106.884955983162
 20
-71.9395903034007
 30
0.0
 11
108.739955793619
 21
-71.9395903034007
 31
0.0
  0
LINE
  5
   433
  8
0
  6
CONTINUOUS
 62
     7
 10
107.864955883026
 20
-71.9395903034007
 30
0.0
 11
107.864955883026
 21
-58.2895916981494
 31
0.0
  0
LINE
  5
   434
  8
0
  6
CONTINUOUS
 62
     3
 10
101.039940291644
 20
-29.6771051331775
 30
0.0
 11
101.039940291644
 21
-23.4646111085426
 31
0.0
  0
LINE
  5
   435
  8
0
  6
CONTINUOUS
 62
     3
 10
106.88493862629
 20
-33.614594333017
 30
0.0
 11
106.88493862629
 21
-29.7645840443705
 31
0.0
  0
LINE
  5
   436
  8
0
  6
CONTINUOUS
 62
     3
 10
74.9649418878562
 20
-33.614594333017
 30
0.0
 11
74.9649418878562
 21
-29.7645992019628
 31
0.0
  0
LINE
  5
   437
  8
0
  6
CONTINUOUS
 62
     7
 10
74.1074634507275
 20
12.0604058596282
 30
0.0
 11
78.6574629858126
 21
12.0604017602704
 31
0.0
  0
LINE
  5
   438
  8
0
  6
CONTINUOUS
 62
   130
 10
78.6574565976841
 20
12.060406623837
 30
0.0
 11
101.039961653947
 21
12.060406623837
 31
0.0
  0
LINE
  5
   439
  8
0
  6
DASHDOT
 62
     7
 10
72.1649592638018
 20
-85.9185883349138
 30
0.0
 11
72.1649592638018
 21
17.3871956058134
 31
0.0
  0
LINE
  5
   43A
  8
0
  6
CONTINUOUS
 62
     3
 10
74.0899644076821
 20
-34.2926322670276
 30
0.0
 11
76.6204943445937
 21
-33.6146023431944
 31
0.0
  0
LINE
  5
   43B
  8
0
  6
CONTINUOUS
 62
     3
 10
74.0899644076821
 20
-29.2395838155785
 30
0.0
 11
74.0899644076821
 21
-29.0861757807165
 31
0.0
  0
LINE
  5
   43C
  8
0
  6
CONTINUOUS
 62
   130
 10
73.7399644434449
 20
-24.6895842804947
 30
0.0
 11
73.7399644434449
 21
-0.189586783889808
 31
0.0
  0
LINE
  5
   43D
  8
0
  6
CONTINUOUS
 62
   130
 10
73.7399644434449
 20
-44.6395822420159
 30
0.0
 11
73.7399644434449
 21
-34.3864140391902
 31
0.0
  0
LINE
  5
   43E
  8
0
  6
CONTINUOUS
 62
     3
 10
73.7399644434449
 20
-49.1895817770996
 30
0.0
 11
73.7399644434449
 21
-44.6395822420159
 31
0.0
  0
LINE
  5
   43F
  8
0
  6
CONTINUOUS
 62
   130
 10
73.5649644613263
 20
-49.1895817770996
 30
0.0
 11
73.5649644613263
 21
-48.1833318799177
 31
0.0
  0
LINE
  5
   440
  8
0
  6
CONTINUOUS
 62
   130
 10
73.5649644613263
 20
-45.6458428203491
 30
0.0
 11
73.5649644613263
 21
-44.6395822420159
 31
0.0
  0
LINE
  5
   441
  8
0
  6
CONTINUOUS
 62
     3
 10
73.5649644613263
 20
-48.1833318799177
 30
0.0
 11
73.5649644613263
 21
-45.6458428203491
 31
0.0
  0
LINE
  5
   442
  8
0
  6
CONTINUOUS
 62
     2
 10
106.884955983162
 20
-73.3395899906188
 30
0.0
 11
106.884955983162
 21
-71.93959013367
 31
0.0
  0
LINE
  5
   443
  8
0
  6
CONTINUOUS
 62
     2
 10
73.9149590849879
 20
-81.7395837917361
 30
0.0
 11
89.8355408017382
 21
-81.7395837917361
 31
0.0
  0
LINE
  5
   444
  8
0
  6
DASHDOT
 62
     2
 10
67.9994421312412
 20
6.63550612614711
 30
0.0
 11
74.5895160799556
 21
6.6354878431138
 31
0.0
  0
LINE
  5
   445
  8
0
  6
CONTINUOUS
 62
     7
 10
70.7649594068529
 20
5.23549859673808
 30
0.0
 11
70.7649594068529
 21
8.03549831064657
 31
0.0
  0
LINE
  5
   446
  8
0
  6
CONTINUOUS
 62
     7
 10
69.3649595499041
 20
5.76050242715613
 30
0.0
 11
69.3649595499041
 21
7.51050224834893
 31
0.0
  0
LINE
  5
   447
  8
0
  6
CONTINUOUS
 62
     7
 10
70.7649594068529
 20
8.03549831064657
 30
0.0
 11
72.1649592638018
 21
8.03549442658635
 31
0.0
  0
LINE
  5
   448
  8
0
  6
CONTINUOUS
 62
     7
 10
70.7649594068529
 20
5.23549859673809
 30
0.0
 11
72.1649592638018
 21
5.23549471267788
 31
0.0
  0
LINE
  5
   449
  8
0
  6
CONTINUOUS
 62
     7
 10
69.3649595499041
 20
7.51050224834893
 30
0.0
 11
72.1649592638018
 21
7.51049448022852
 31
0.0
  0
LINE
  5
   44A
  8
0
  6
CONTINUOUS
 62
     7
 10
69.3649595499041
 20
5.76050242715613
 30
0.0
 11
72.1649592638018
 21
5.76049465903571
 31
0.0
  0
LINE
  5
   44B
  8
0
  6
CONTINUOUS
 62
     7
 10
70.7649594068529
 20
-74.9144932138922
 30
0.0
 11
72.1649592638018
 21
-74.9144970979524
 31
0.0
  0
LINE
  5
   44C
  8
0
  6
CONTINUOUS
 62
     7
 10
69.3649595499041
 20
-75.4394892761898
 30
0.0
 11
72.1649592638018
 21
-75.4394970443102
 31
0.0
  0
LINE
  5
   44D
  8
0
  6
DASHDOT
 62
     2
 10
67.9994421312412
 20
-76.3144853983916
 30
0.0
 11
74.5895160799556
 21
-76.3145036814249
 31
0.0
  0
LINE
  5
   44E
  8
0
  6
CONTINUOUS
 62
     7
 10
69.3649595499041
 20
-77.1894890973826
 30
0.0
 11
72.1649592638018
 21
-77.189496865503
 31
0.0
  0
LINE
  5
   44F
  8
0
  6
CONTINUOUS
 62
     7
 10
70.7649594068529
 20
-77.7144929278007
 30
0.0
 11
72.1649592638018
 21
-77.7144968118609
 31
0.0
  0
LINE
  5
   450
  8
0
  6
CONTINUOUS
 62
     7
 10
70.7649594068529
 20
-77.7144929278007
 30
0.0
 11
70.7649594068529
 21
-74.9144932138922
 31
0.0
  0
LINE
  5
   451
  8
0
  6
CONTINUOUS
 62
     7
 10
69.3649595499041
 20
-77.1894890973826
 30
0.0
 11
69.3649595499041
 21
-75.4394892761898
 31
0.0
  0
INSERT
  5
   452
  8
0
  6
CONTINUOUS
 62
     7
  2
*UDIM1056
 10
0.0
 20
0.0
 30
0.0
  0
INSERT
  5
   453
  8
0
  6
CONTINUOUS
 62
     7
  2
*UDIM1057
 10
0.0
 20
0.0
 30
0.0
  0
INSERT
  5
   454
  8
0
  6
CONTINUOUS
 62
     7
  2
*UDIM1058
 10
0.0
 20
0.0
 30
0.0
  0
INSERT
  5
   455
  8
0
  6
CONTINUOUS
 62
     7
  2
*UDIM1059
 10
0.0
 20
0.0
 30
0.0
  0
TEXT
  5
   456
  8
0
  6
CONTINUOUS
 62
     7
 10
139.047574067188
 20
-30.9523831860523
 30
0.0
 40
3.00000001532688
  1
X
 41
0.916666616797451
 72
     2
 11
141.247573961602
 21
-30.9523831860523
 31
0.0
  0
LINE
  5
   457
  8
0
  6
CONTINUOUS
 62
     7
 10
192.182830810547
 20
-48.139533996582
 30
0.0
 11
228.932830810547
 21
-48.139533996582
 31
0.0
  0
LINE
  5
   458
  8
0
  6
CONTINUOUS
 62
     7
 10
192.182830810547
 20
-11.389533996582
 30
0.0
 11
228.932830810547
 21
-11.389533996582
 31
0.0
  0
LINE
  5
   459
  8
0
  6
CONTINUOUS
 62
     7
 10
192.182830810547
 20
-11.389533996582
 30
0.0
 11
192.182830810547
 21
-48.139533996582
 31
0.0
  0
LINE
  5
   45A
  8
0
  6
CONTINUOUS
 62
     7
 10
228.932830810547
 20
-11.389533996582
 30
0.0
 11
228.932830810547
 21
-48.139533996582
 31
0.0
  0
LINE
  5
   45B
  8
0
  6
DASHDOT
 62
     7
 10
210.557830810547
 20
9.12506964092766
 30
0.0
 11
210.557830810547
 21
-60.580448726337
 31
0.0
  0
CIRCLE
  5
   45C
  8
0
  6
CONTINUOUS
 62
     7
 10
196.182830810547
 20
-7.63953399658203
 30
0.0
 40
0.875
  0
CIRCLE
  5
   45D
  8
0
  6
CONTINUOUS
 62
     7
 10
224.932830810547
 20
-7.63953399658203
 30
0.0
 40
0.875
  0
CIRCLE
  5
   45E
  8
0
  6
CONTINUOUS
 62
     7
 10
224.932830810547
 20
-51.889533996582
 30
0.0
 40
0.875
  0
CIRCLE
  5
   45F
  8
0
  6
CONTINUOUS
 62
     7
 10
196.182830810547
 20
-51.889533996582
 30
0.0
 40
0.875
  0
LINE
  5
   460
  8
0
  6
CONTINUOUS
 62
     3
 10
188.218335141132
 20
-5.28973369929077
 30
0.0
 11
232.771704411118
 21
-5.28973369929077
 31
0.0
  0
LINE
  5
   461
  8
0
  6
CONTINUOUS
 62
     3
 10
188.218335141132
 20
-55.245014824046
 30
0.0
 11
232.771704411118
 21
-55.245014824046
 31
0.0
  0
LINE
  5
   462
  8
0
  6
CONTINUOUS
 62
     3
 10
232.771704411118
 20
-5.28973369929077
 30
0.0
 11
232.771704411118
 21
-55.245014824046
 31
0.0
  0
LINE
  5
   463
  8
0
  6
CONTINUOUS
 62
     3
 10
188.218335141132
 20
-5.28973369929077
 30
0.0
 11
188.218335141132
 21
-55.245014824046
 31
0.0
  0
LINE
  5
   464
  8
0
  6
DASHDOT
 62
     7
 10
224.932830810547
 20
-6.01453399658203
 30
0.0
 11
224.932830810547
 21
-9.26453399658203
 31
0.0
  0
LINE
  5
   465
  8
0
  6
DASHDOT
 62
     7
 10
223.307830810547
 20
-7.63953399658203
 30
0.0
 11
226.557830810547
 21
-7.63953399658203
 31
0.0
  0
LINE
  5
   466
  8
0
  6
DASHDOT
 62
     7
 10
196.182830810547
 20
-6.01453399658203
 30
0.0
 11
196.182830810547
 21
-9.26453399658203
 31
0.0
  0
LINE
  5
   467
  8
0
  6
DASHDOT
 62
     7
 10
194.557830810547
 20
-7.63953399658203
 30
0.0
 11
197.807830810547
 21
-7.63953399658203
 31
0.0
  0
LINE
  5
   468
  8
0
  6
DASHDOT
 62
     7
 10
196.182830810547
 20
-50.264533996582
 30
0.0
 11
196.182830810547
 21
-53.514533996582
 31
0.0
  0
LINE
  5
   469
  8
0
  6
DASHDOT
 62
     7
 10
194.557830810547
 20
-51.889533996582
 30
0.0
 11
197.807830810547
 21
-51.889533996582
 31
0.0
  0
LINE
  5
   46A
  8
0
  6
DASHDOT
 62
     7
 10
224.932830810547
 20
-50.264533996582
 30
0.0
 11
224.932830810547
 21
-53.514533996582
 31
0.0
  0
LINE
  5
   46B
  8
0
  6
DASHDOT
 62
     7
 10
223.307830810547
 20
-51.889533996582
 30
0.0
 11
226.557830810547
 21
-51.889533996582
 31
0.0
  0
LINE
  5
   46C
  8
0
  6
DASHDOT
 62
     7
 10
185.19197325719
 20
-29.764533996582
 30
0.0
 11
238.188124109918
 21
-29.764533996582
 31
0.0
  0
CIRCLE
  5
   46D
  8
0
  6
CONTINUOUS
 62
     7
 10
221.120330810547
 20
-7.26453399658203
 30
0.0
 40
0.5
  0
CIRCLE
  5
   46E
  8
0
  6
CONTINUOUS
 62
     7
 10
209.870330810547
 20
-7.26453399658203
 30
0.0
 40
0.5
  0
CIRCLE
  5
   46F
  8
0
  6
CONTINUOUS
 62
     7
 10
209.870330810547
 20
-7.26453399658203
 30
0.0
 40
0.92
  0
CIRCLE
  5
   470
  8
0
  6
CONTINUOUS
 62
     7
 10
221.120330810547
 20
-7.26453399658203
 30
0.0
 40
0.92
  0
LINE
  5
   471
  8
0
  6
DASHDOT
 62
     7
 10
221.120330810547
 20
-5.59453399658203
 30
0.0
 11
221.120330810547
 21
-8.93453399658203
 31
0.0
  0
LINE
  5
   472
  8
0
  6
DASHDOT
 62
     7
 10
219.450330810547
 20
-7.26453399658203
 30
0.0
 11
222.790330810547
 21
-7.26453399658203
 31
0.0
  0
LINE
  5
   473
  8
0
  6
DASHDOT
 62
     7
 10
209.870330810547
 20
-5.59453399658203
 30
0.0
 11
209.870330810547
 21
-8.93453399658203
 31
0.0
  0
LINE
  5
   474
  8
0
  6
DASHDOT
 62
     7
 10
208.200330810547
 20
-7.26453399658203
 30
0.0
 11
211.540330810547
 21
-7.26453399658203
 31
0.0
  0
TEXT
  5
   475
  8
0
  6
CONTINUOUS
 62
     1
 10
161.957013756301
 20
-206.963920609608
 30
0.0
 40
2.00000008940697
  1
M 3193 95-10-26
 50
359.999999844103
 41
0.749999861419206
 72
     1
 11
173.057012200356
 21
-205.96392059505
 31
0.0
 73
     2
  0
TEXT
  5
   476
  8
0
  6
CONTINUOUS
 62
     1
 10
136.999192863967
 20
-206.97263338293
 30
0.0
 40
2.00000008940697
  1
M 3076 95-01-16
 50
359.999999844103
 41
0.749999861419206
 72
     1
 11
148.099191308022
 21
-205.972633368373
 31
0.0
 73
     2
  0
INSERT
  5
   477
  8
0
  6
CONTINUOUS
 62
     7
  2
*UDIM1060
 10
0.0
 20
0.0
 30
0.0
  0
INSERT
  5
   478
  8
0
  6
CONTINUOUS
 62
     7
  2
*UDIM1061
 10
0.0
 20
0.0
 30
0.0
  0
INSERT
  5
   479
  8
0
  6
CONTINUOUS
 62
     7
  2
*UDIM1062
 10
0.0
 20
0.0
 30
0.0
  0
TEXT
  5
   47A
  8
0
  6
CONTINUOUS
 62
     7
 10
203.834849623737
 20
-67.7956927384592
 30
0.0
 40
3.00000002980232
  1
=   =
 50
359.999999844103
 41
0.916666604744064
 72
     2
 11
217.034848858811
 21
-67.7956927743089
 31
0.0
  0
TEXT
  5
   47B
  8
0
  6
CONTINUOUS
 62
     7
 10
202.465157456594
 20
-79.4028209381386
 30
0.0
 40
3.00000002980232
  1
=    =
 50
359.999999844103
 41
0.916666604744064
 72
     2
 11
218.415156533219
 21
-79.402820981457
 31
0.0
  0
TEXT
  5
   47C
  8
0
  6
CONTINUOUS
 62
     7
 10
183.999133172853
 20
-40.0284334968477
 30
0.0
 40
3.00000002980232
  1
=     =
 50
449.999999844103
 41
0.916666604744064
 72
     2
 11
183.999133223617
 21
-21.328434578672
 31
0.0
  0
TEXT
  5
   47D
  8
0
  6
CONTINUOUS
 62
     7
 10
174.28601341814
 20
-42.1203206540097
 30
0.0
 40
3.00000002980232
  1
=       =
 50
449.999999844103
 41
0.916666604744064
 72
     2
 11
174.286013483834
 21
-17.920322052732
 31
0.0
  0
INSERT
  5
   47E
  8
0
  6
CONTINUOUS
 62
     7
  2
*UDIM1063
 10
0.0
 20
0.0
 30
0.0
  0
INSERT
  5
   47F
  8
0
  6
CONTINUOUS
 62
     7
  2
*UDIM1064
 10
0.0
 20
0.0
 30
0.0
  0
INSERT
  5
   480
  8
0
  6
CONTINUOUS
 62
     7
  2
*UDIM1065
 10
0.0
 20
0.0
 30
0.0
  0
INSERT
  5
   481
  8
0
  6
CONTINUOUS
 62
     7
  2
*UDIM1066
 10
0.0
 20
0.0
 30
0.0
  0
INSERT
  5
   482
  8
0
  6
CONTINUOUS
 62
     7
  2
*UDIM1067
 10
0.0
 20
0.0
 30
0.0
  0
TEXT
  5
   483
  8
0
  6
CONTINUOUS
 62
     7
 10
209.752808441616
 20
-82.351657936568
 30
0.0
 40
3.00000002980232
  1
Y
 50
359.999999844103
 41
0.916666604744064
 72
     2
 11
211.952808310486
 21
-82.3516579425429
 31
0.0
  0
TEXT
  5
   484
  8
0
  6
CONTINUOUS
 62
     7
 10
209.815549721218
 20
10.2544135356
 30
0.0
 40
3.00000002980232
  1
Y
 50
359.999999844103
 41
0.916666604744064
 72
     2
 11
212.015549590088
 21
10.2544135296251
 31
0.0
  0
TEXT
  5
   485
  8
0
  6
CONTINUOUS
 62
     7
 10
245.578056444622
 20
-31.092065641875
 30
0.0
 40
3.00000002980232
  1
X
 50
359.999999844103
 41
0.916666604744064
 72
     2
 11
247.778056313492
 21
-31.0920656478499
 31
0.0
  0
TEXT
  5
   486
  8
0
  6
CONTINUOUS
 62
     7
 10
161.141269793011
 20
-31.1731785035083
 30
0.0
 40
3.00000002980232
  1
X
 50
359.999999844103
 41
0.916666604744064
 72
     2
 11
163.341269661881
 21
-31.1731785094832
 31
0.0
  0
TEXT
  5
   487
  8
0
  6
CONTINUOUS
 62
     1
 10
130.243331918389
 20
-191.841895973043
 30
0.0
 40
2.00000008940697
  1
93-04-05 ROTA S.
 50
359.999999844103
 41
0.749999861419206
 72
     2
 11
153.943328590959
 21
-191.841896037409
 31
0.0
  0
TEXT
  5
   488
  8
0
  6
CONTINUOUS
 62
     1
 10
231.973709124863
 20
-218.083686738403
 30
0.0
 40
4.00000017881393
  1
601840/221
 50
359.999999844103
 41
0.937499973922969
 72
     2
 11
268.723709724635
 21
-218.083686838212
 31
0.0
  0
TEXT
  5
   489
  8
0
  6
CONTINUOUS
 62
     1
 10
249.059402479634
 20
-209.102088921789
 30
0.0
 40
3.00000002980232
  1
S6
 50
359.999999844103
 41
0.916666604744064
 72
     2
 11
254.009402190055
 21
-209.102088935233
 31
0.0
  0
TEXT
  5
   48A
  8
0
  6
CONTINUOUS
 62
     1
 10
222.274982615819
 20
-190.791816680923
 30
0.0
 40
2.00000008940697
  1
3POLE LOW VOLTAGE FIXED M.C.C.B SERIES
 50
359.999999844103
 41
0.749999861419206
 72
     1
 11
250.62497864365
 21
-189.791816713215
 31
0.0
 73
     2
  0
TEXT
  5
   48B
  8
0
  6
CONTINUOUS
 62
     1
 10
222.274982651593
 20
-193.791816680923
 30
0.0
 40
2.00000008940697
  1
ISOMAX FRONT PANEL WITH PADLOK DEVICES
 50
359.999999844103
 41
0.749999861419206
 72
     1
 11
250.624978679425
 21
-192.791816713215
 31
0.0
 73
     2
  0
TEXT
  5
   48C
  8
0
  6
CONTINUOUS
 62
     1
 10
224.727374353518
 20
-198.86209867964
 30
0.0
 40
2.00000008940697
  1
INTERR.AUTOMATICO SERIE ISOMAX
 50
359.999999844103
 41
0.749999861419206
 72
     1
 11
247.077371221775
 21
-197.862098695636
 31
0.0
 73
     2
  0
TEXT
  5
   48D
  8
0
  6
CONTINUOUS
 62
     1
 10
222.477374704452
 20
-201.862098673529
 30
0.0
 40
2.00000008940697
  1
TRIPOL.FISSO FRONTALE PER BLOCCHI
 50
359.999999844103
 41
0.749999861419206
 72
     1
 11
247.077371257549
 21
-200.862098695636
 31
0.0
 73
     2
  0
LINE
  5
   48E
  8
0
  6
CONTINUOUS
 62
     7
 10
215.21076965332
 20
46.1378109139998
 30
0.0
 11
215.21076965332
 21
22.221289427797
 31
0.0
  0
LINE
  5
   48F
  8
0
  6
CONTINUOUS
 62
     7
 10
213.21076965332
 20
46.1378109139998
 30
0.0
 11
213.21076965332
 21
22.221289427797
 31
0.0
  0
LINE
  5
   490
  8
0
  6
DASHDOT
 62
     7
 10
210.008166550923
 20
34.1795501708984
 30
0.0
 11
218.434385743361
 21
34.1795501708984
 31
0.0
  0
POINT
  5
   491
  8
0
  6
CONTINUOUS
 62
     7
 10
213.21076965332
 20
36.1795501708984
 30
0.0
  0
POINT
  5
   492
  8
0
  6
CONTINUOUS
 62
     7
 10
213.21076965332
 20
32.1795501708984
 30
0.0
  0
LINE
  5
   493
  8
0
  6
CONTINUOUS
 62
     7
 10
215.21076965332
 20
37.857749433253
 30
0.0
 11
213.21076965332
 21
36.1795501708984
 31
0.0
  0
LINE
  5
   494
  8
0
  6
CONTINUOUS
 62
     7
 10
213.21076965332
 20
32.1795501708984
 30
0.0
 11
215.21076965332
 21
30.5013509085439
 31
0.0
  0
LINE
  5
   495
  8
0
  6
CONTINUOUS
 62
     7
 10
213.21076965332
 20
24.6795501708984
 30
0.0
 11
215.21076965332
 21
24.6795501708984
 31
0.0
  0
CIRCLE
  5
   496
  8
0
  6
CONTINUOUS
 62
     7
 10
214.21076965332
 20
34.1795501708984
 30
0.0
 40
12.0
  0
LINE
  5
   497
  8
0
  6
CONTINUOUS
 62
     7
 10
207.210777282715
 20
29.6795501708984
 30
0.0
 11
209.710777282715
 21
29.6795501708984
 31
0.0
  0
LINE
  5
   498
  8
0
  6
CONTINUOUS
 62
     7
 10
210.710777282715
 20
38.6795501708984
 30
0.0
 11
210.710777282715
 21
30.6795501708984
 31
0.0
  0
LINE
  5
   499
  8
0
  6
CONTINUOUS
 62
     7
 10
210.710777282715
 20
38.6795501708984
 30
0.0
 11
213.21076965332
 21
38.6795501708984
 31
0.0
  0
LINE
  5
   49A
  8
0
  6
CONTINUOUS
 62
     7
 10
207.210777282715
 20
27.1795501708984
 30
0.0
 11
209.710777282715
 21
27.1795501708984
 31
0.0
  0
LINE
  5
   49B
  8
0
  6
CONTINUOUS
 62
     7
 10
206.210777282715
 20
26.1795501708984
 30
0.0
 11
206.210777282715
 21
25.2352714369672
 31
0.0
  0
ARC
  5
   49C
  8
0
  6
CONTINUOUS
 62
     7
 10
209.710781429995
 20
30.6795494995597
 30
0.0
 40
0.999996977799109
 50
629.999840735313
 51
720.000252836193
  0
ARC
  5
   49D
  8
0
  6
CONTINUOUS
 62
     7
 10
207.210791936222
 20
26.179537484594
 30
0.0
 40
3.50001845311552
 50
450.000186734275
 51
513.408761128067
  0
ARC
  5
   49E
  8
0
  6
CONTINUOUS
 62
     7
 10
207.210733034565
 20
26.1795910656808
 30
0.0
 40
0.999949821243504
 50
449.997764042825
 51
540.001169660043
  0
ARC
  5
   49F
  8
0
  6
CONTINUOUS
 62
     7
 10
209.710796635097
 20
30.6795181239642
 30
0.0
 40
3.49997105594423
 50
629.999653243441
 51
720.000420168909
  0
INSERT
  5
   4A0
  8
0
  6
CONTINUOUS
 62
     7
  2
*HATCH402
 10
214.21076965332
 20
34.1795501708984
 30
0.0
 50
269.999999844103
  0
INSERT
  5
   4A1
  8
0
  6
CONTINUOUS
 62
     7
  2
*HATCH403
 10
214.21076965332
 20
34.1795501708984
 30
0.0
 50
269.999999844103
  0
LINE
  5
   4A2
  8
0
  6
CONTINUOUS
 62
     7
 10
205.635153894599
 20
25.7855752865675
 30
0.0
 11
199.264408730594
 21
19.549769438252
 31
0.0
  0
LINE
  5
   4A3
  8
0
  6
CONTINUOUS
 62
     7
 10
199.264408730594
 20
0.772845685783118
 30
0.0
 11
207.549640418725
 21
-5.97690031095365
 31
0.0
  0
LINE
  5
   4A4
  8
0
  6
CONTINUOUS
 62
     7
 10
202.065126960985
 20
-3.51565815778213
 30
0.0
 11
207.549640418725
 21
-5.97690031095366
 31
0.0
  0
LINE
  5
   4A5
  8
0
  6
CONTINUOUS
 62
     7
 10
204.302608019318
 20
-1.47995245376207
 30
0.0
 11
207.549640418725
 21
-5.97690031095367
 31
0.0
  0
LINE
  5
   4A6
  8
0
  6
CONTINUOUS
 62
     7
 10
199.264408730594
 20
19.549769438252
 30
0.0
 11
199.264408730594
 21
0.772845685783132
 31
0.0
  0
INSERT
  5
   4A7
  8
0
  6
CONTINUOUS
 62
     7
  2
*UDIM1068
 10
0.0
 20
0.0
 30
0.0
  0
INSERT
  5
   4A8
  8
0
  6
CONTINUOUS
 62
     7
  2
*UDIM1069
 10
0.0
 20
0.0
 30
0.0
  0
LINE
  5
   4A9
  8
0
  6
DASHDOT
 62
     2
 10
-1.75370181970934
 20
-130.592068128288
 30
0.0
 11
-20.2352357253244
 21
-130.592068128288
 31
0.0
  0
LINE
  5
   4AA
  8
0
  6
DASHDOT
 62
     2
 10
-0.995131398210214
 20
-177.992068834603
 30
0.0
 11
-20.3731576201424
 21
-177.992068834603
 31
0.0
  0
LINE
  5
   4AB
  8
0
  6
DASHDOT
 62
     2
 10
-17.6707249730825
 20
-126.038616936623
 30
0.0
 11
-17.6707249730825
 21
-180.103999705288
 31
0.0
  0
LINE
  5
   4AC
  8
0
  6
DASHDOT
 62
     2
 10
-3.67072476446629
 20
-125.55589030476
 30
0.0
 11
-3.67072476446629
 21
-179.96607781047
 31
0.0
  0
LINE
  5
   4AD
  8
0
  6
DASHDOT
 62
     2
 10
-10.6707248687744
 20
-126.314460726259
 30
0.0
 11
-10.6707248687744
 21
-186.172563077281
 31
0.0
  0
CIRCLE
  5
   4AE
  8
0
  6
CONTINUOUS
 62
     7
 10
-3.67072476446629
 20
-130.592068128288
 30
0.0
 40
0.550000008195639
  0
CIRCLE
  5
   4AF
  8
0
  6
CONTINUOUS
 62
     7
 10
-17.6707249730825
 20
-130.592068128288
 30
0.0
 40
0.550000008195639
  0
CIRCLE
  5
   4B0
  8
0
  6
CONTINUOUS
 62
     7
 10
-17.6707249730825
 20
-177.992068834603
 30
0.0
 40
0.550000008195639
  0
CIRCLE
  5
   4B1
  8
0
  6
CONTINUOUS
 62
     7
 10
-3.67072476446629
 20
-177.992068834603
 30
0.0
 40
0.550000008195639
  0
LINE
  5
   4B2
  8
0
  6
DASHDOT
 62
     2
 10
7.54289041560364
 20
-151.392068438232
 30
0.0
 11
-36.3999377096917
 21
-151.392068438232
 31
0.0
  0
LINE
  5
   4B3
  8
0
  6
DASHDOT
 62
     7
 10
-24.6707250773907
 20
-124.992068044841
 30
0.0
 11
-24.6707250773907
 21
-135.392068199813
 31
0.0
  0
LINE
  5
   4B4
  8
0
  6
DASHDOT
 62
     7
 10
-19.4707249999046
 20
-130.192068122327
 30
0.0
 11
-29.8707251548767
 21
-130.192068122327
 31
0.0
  0
LINE
  5
   4B5
  8
0
  6
DASHDOT
 62
     7
 10
-10.6707248687744
 20
-124.992068044841
 30
0.0
 11
-10.6707248687744
 21
-135.392068199813
 31
0.0
  0
LINE
  5
   4B6
  8
0
  6
DASHDOT
 62
     7
 10
-5.47072479128838
 20
-130.192068122327
 30
0.0
 11
-15.8707249462605
 21
-130.192068122327
 31
0.0
  0
LINE
  5
   4B7
  8
0
  6
DASHDOT
 62
     7
 10
3.32927533984184
 20
-124.992068044841
 30
0.0
 11
3.32927533984184
 21
-135.392068199813
 31
0.0
  0
LINE
  5
   4B8
  8
0
  6
DASHDOT
 62
     7
 10
8.52927541732788
 20
-130.192068122327
 30
0.0
 11
-1.8707247376442
 21
-130.192068122327
 31
0.0
  0
LINE
  5
   4B9
  8
0
  6
DASHDOT
 62
     7
 10
3.32927533984184
 20
-173.192068763077
 30
0.0
 11
3.32927533984184
 21
-183.592068918049
 31
0.0
  0
LINE
  5
   4BA
  8
0
  6
DASHDOT
 62
     7
 10
8.52927541732788
 20
-178.392068840563
 30
0.0
 11
-1.8707247376442
 21
-178.392068840563
 31
0.0
  0
LINE
  5
   4BB
  8
0
  6
DASHDOT
 62
     7
 10
-10.6707248687744
 20
-173.192068763077
 30
0.0
 11
-10.6707248687744
 21
-183.592068918049
 31
0.0
  0
LINE
  5
   4BC
  8
0
  6
DASHDOT
 62
     7
 10
-5.47072479128838
 20
-178.392068840563
 30
0.0
 11
-15.8707249462605
 21
-178.392068840563
 31
0.0
  0
LINE
  5
   4BD
  8
0
  6
DASHDOT
 62
     7
 10
-24.6707250773907
 20
-173.192068763077
 30
0.0
 11
-24.6707250773907
 21
-183.592068918049
 31
0.0
  0
LINE
  5
   4BE
  8
0
  6
DASHDOT
 62
     7
 10
-19.4707249999046
 20
-178.392068840563
 30
0.0
 11
-29.8707251548767
 21
-178.392068840563
 31
0.0
  0
LINE
  5
   4BF
  8
0
  6
CONTINUOUS
 62
     7
 10
-30.4912722404037
 20
-123.102328225498
 30
0.0
 11
-30.4912722404037
 21
-185.16248494635
 31
0.0
  0
LINE
  5
   4C0
  8
0
  6
CONTINUOUS
 62
     7
 10
8.92012033646495
 20
-123.102328225498
 30
0.0
 11
-30.4912722404037
 21
-123.102328225498
 31
0.0
  0
LINE
  5
   4C1
  8
0
  6
CONTINUOUS
 62
     7
 10
8.92012033646495
 20
-185.16248494635
 30
0.0
 11
-30.4912722404037
 21
-185.16248494635
 31
0.0
  0
LINE
  5
   4C2
  8
0
  6
CONTINUOUS
 62
     7
 10
8.92012033646495
 20
-123.102328225498
 30
0.0
 11
8.92012033646495
 21
-185.16248494635
 31
0.0
  0
ARC
  5
   4C3
  8
0
  6
CONTINUOUS
 62
     7
 10
-24.6707250773907
 20
-130.192068122327
 30
0.0
 40
3.50000005215406
 50
359.999999896069
 51
629.999999896069
  0
ARC
  5
   4C4
  8
0
  6
CONTINUOUS
 62
     7
 10
-10.6707248687744
 20
-130.192068122327
 30
0.0
 40
3.50000005215406
 50
359.999999896069
 51
539.999999896069
  0
ARC
  5
   4C5
  8
0
  6
CONTINUOUS
 62
     7
 10
3.32927533984184
 20
-130.192068122327
 30
0.0
 40
3.50000005215406
 50
269.999999896069
 51
539.999999896069
  0
ARC
  5
   4C6
  8
0
  6
CONTINUOUS
 62
     7
 10
3.32927533984184
 20
-178.392068840563
 30
0.0
 40
3.50000005215406
 50
179.999999896069
 51
449.999999896069
  0
ARC
  5
   4C7
  8
0
  6
CONTINUOUS
 62
     7
 10
-10.6707248687744
 20
-178.392068840563
 30
0.0
 40
3.50000005215406
 50
179.999999896069
 51
359.999999896069
  0
ARC
  5
   4C8
  8
0
  6
CONTINUOUS
 62
     7
 10
-24.6707250773907
 20
-178.392068840563
 30
0.0
 40
3.50000005215406
 50
449.999999896069
 51
719.999999896069
  0
LINE
  5
   4C9
  8
0
  6
CONTINUOUS
 62
     7
 10
3.32927533984184
 20
-133.692068174481
 30
0.0
 11
-24.6707250773907
 21
-133.692068174481
 31
0.0
  0
LINE
  5
   4CA
  8
0
  6
CONTINUOUS
 62
     7
 10
3.32927533984184
 20
-174.892068788409
 30
0.0
 11
-24.6707250773907
 21
-174.892068788409
 31
0.0
  0
LINE
  5
   4CB
  8
0
  6
CONTINUOUS
 62
     7
 10
-0.170724712312223
 20
-132.09206815064
 30
0.0
 11
-7.17072481662035
 21
-132.09206815064
 31
0.0
  0
LINE
  5
   4CC
  8
0
  6
CONTINUOUS
 62
     7
 10
-0.17072471231222
 20
-176.492068812251
 30
0.0
 11
-7.17072481662035
 21
-176.492068812251
 31
0.0
  0
LINE
  5
   4CD
  8
0
  6
CONTINUOUS
 62
     7
 10
-21.1707250252366
 20
-130.192068122327
 30
0.0
 11
-21.1707250252366
 21
-132.09206815064
 31
0.0
  0
LINE
  5
   4CE
  8
0
  6
CONTINUOUS
 62
     7
 10
-14.1707249209285
 20
-130.192068122327
 30
0.0
 11
-14.1707249209285
 21
-132.09206815064
 31
0.0
  0
LINE
  5
   4CF
  8
0
  6
CONTINUOUS
 62
     7
 10
-7.17072481662035
 20
-130.192068122327
 30
0.0
 11
-7.17072481662035
 21
-132.09206815064
 31
0.0
  0
LINE
  5
   4D0
  8
0
  6
CONTINUOUS
 62
     7
 10
-0.170724712312223
 20
-130.192068122327
 30
0.0
 11
-0.170724712312223
 21
-132.09206815064
 31
0.0
  0
LINE
  5
   4D1
  8
0
  6
CONTINUOUS
 62
     7
 10
-14.1707249209285
 20
-132.09206815064
 30
0.0
 11
-21.1707250252366
 21
-132.09206815064
 31
0.0
  0
LINE
  5
   4D2
  8
0
  6
CONTINUOUS
 62
     7
 10
-21.1707250252366
 20
-176.492068812251
 30
0.0
 11
-21.1707250252366
 21
-178.392068840563
 31
0.0
  0
LINE
  5
   4D3
  8
0
  6
CONTINUOUS
 62
     7
 10
-14.1707249209285
 20
-176.492068812251
 30
0.0
 11
-14.1707249209285
 21
-178.392068840563
 31
0.0
  0
LINE
  5
   4D4
  8
0
  6
CONTINUOUS
 62
     7
 10
-7.17072481662035
 20
-176.492068812251
 30
0.0
 11
-7.17072481662035
 21
-178.392068840563
 31
0.0
  0
LINE
  5
   4D5
  8
0
  6
CONTINUOUS
 62
     7
 10
-0.17072471231222
 20
-176.492068812251
 30
0.0
 11
-0.17072471231222
 21
-178.392068840563
 31
0.0
  0
LINE
  5
   4D6
  8
0
  6
CONTINUOUS
 62
     7
 10
-14.1707249209285
 20
-176.492068812251
 30
0.0
 11
-21.1707250252366
 21
-176.492068812251
 31
0.0
  0
INSERT
  5
   4D7
  8
0
  6
CONTINUOUS
 62
     7
  2
*UDIM1070
 10
0.0
 20
0.0
 30
0.0
  0
INSERT
  5
   4D8
  8
0
  6
CONTINUOUS
 62
     7
  2
*UDIM1071
 10
0.0
 20
0.0
 30
0.0
  0
INSERT
  5
   4D9
  8
0
  6
CONTINUOUS
 62
     1
  2
*UDIM1072
 10
0.0
 20
0.0
 30
0.0
  0
INSERT
  5
   4DA
  8
0
  6
CONTINUOUS
 62
     7
  2
*UDIM1073
 10
0.0
 20
0.0
 30
0.0
  0
INSERT
  5
   4DB
  8
0
  6
CONTINUOUS
 62
     7
  2
*UDIM1074
 10
0.0
 20
0.0
 30
0.0
  0
INSERT
  5
   4DC
  8
0
  6
CONTINUOUS
 62
     7
  2
*UDIM1075
 10
0.0
 20
0.0
 30
0.0
  0
INSERT
  5
   4DD
  8
0
  6
CONTINUOUS
 62
     7
  2
*UDIM1076
 10
0.0
 20
0.0
 30
0.0
  0
INSERT
  5
   4DE
  8
0
  6
CONTINUOUS
 62
     7
  2
*UDIM1077
 10
0.0
 20
0.0
 30
0.0
  0
INSERT
  5
   4DF
  8
0
  6
CONTINUOUS
 62
     7
  2
*UDIM1078
 10
0.0
 20
0.0
 30
0.0
  0
TEXT
  5
   4E0
  8
0
  6
CONTINUOUS
 62
     7
 10
-59.8423259459986
 20
-153.123869590435
 30
0.0
 40
2.99999994933605
  1
X
 50
359.999999896069
 41
0.916666607525612
 72
     2
 11
-57.6423261277928
 21
-153.123869594415
 31
0.0
  0
TEXT
  5
   4E1
  8
0
  6
CONTINUOUS
 62
     7
 10
33.2580752215789
 20
-154.662719062524
 30
0.0
 40
2.99999994933605
  1
X
 50
359.999999896069
 41
0.916666607525612
 72
     2
 11
35.4580750397847
 21
-154.662719066503
 31
0.0
  0
TEXT
  5
   4E2
  8
0
  6
CONTINUOUS
 62
     7
 10
-7.0751513926166
 20
-151.015502783506
 30
0.0
 40
2.99999994933605
  1
=
 50
359.999999896069
 41
0.916666607525612
 72
     2
 11
-4.87515157441077
 21
-151.015502787485
 31
0.0
  0
TEXT
  5
   4E3
  8
0
  6
CONTINUOUS
 62
     7
 10
-15.3238087420937
 20
-151.015502783506
 30
0.0
 40
2.99999994933605
  1
=
 50
359.999999896069
 41
0.916666607525612
 72
     2
 11
-13.1238089238878
 21
-151.015502787485
 31
0.0
  0
INSERT
  5
   4E4
  8
0
  6
CONTINUOUS
 62
     7
  2
*UDIM1079
 10
0.0
 20
0.0
 30
0.0
  0
INSERT
  5
   4E5
  8
0
  6
CONTINUOUS
 62
     7
  2
*UDIM1080
 10
0.0
 20
0.0
 30
0.0
  0
TEXT
  5
   4E6
  8
0
  6
CONTINUOUS
 62
     7
 10
-10.7111112903466
 20
-195.959605038379
 30
0.0
 40
2.99999994933605
  1
Y
 50
359.999999896069
 41
0.916666607525612
 72
     2
 11
-8.51111147214079
 21
-195.959605042359
 31
0.0
  0
ENDSEC
  0
EOF
