  0
SECTION
  2
HEADER
  9
$ACADVER
  1
AC1009
  9
$DWGCODEPAGE
  3
iso8859-1
  9
$INSBASE
 10
0.0
 20
0.0
 30
0.0
  9
$EXTMIN
 10
1.0E20
 20
1.0E20
  9
$EXTMAX
 10
-1.0E20
 20
-1.0E20
  9
$LIMMIN
 10
0.0
 20
0.0
  9
$LIMMAX
 10
12.0
 20
9.0
  9
$ORTHOMODE
 70
     0
  9
$REGENMODE
 70
     1
  9
$FILLMODE
 70
     1
  9
$QTEXTMODE
 70
     0
  9
$MIRRTEXT
 70
     1
  9
$DRAGMODE
 70
     2
  9
$LTSCALE
 40
15.0
  9
$OSMODE
 70
     0
  9
$ATTMODE
 70
     1
  9
$TEXTSIZE
 40
0.2
  9
$TRACEWID
 40
0.05
  9
$TEXTSTYLE
  7
STANDARD
  9
$CLAYER
  8
0
  9
$CELTYPE
  6
DASHED
  9
$CECOLOR
 62
   256
  9
$DIMSCALE
 40
1.0
  9
$DIMASZ
 40
0.18
  9
$DIMEXO
 40
0.0625
  9
$DIMDLI
 40
0.38
  9
$DIMRND
 40
0.0
  9
$DIMDLE
 40
0.0
  9
$DIMEXE
 40
0.18
  9
$DIMTP
 40
0.0
  9
$DIMTM
 40
0.0
  9
$DIMTXT
 40
0.18
  9
$DIMCEN
 40
0.09
  9
$DIMTSZ
 40
0.0
  9
$DIMTOL
 70
     0
  9
$DIMLIM
 70
     0
  9
$DIMTIH
 70
     1
  9
$DIMTOH
 70
     1
  9
$DIMSE1
 70
     0
  9
$DIMSE2
 70
     0
  9
$DIMTAD
 70
     0
  9
$DIMZIN
 70
     0
  9
$DIMBLK
  1

  9
$DIMASO
 70
     1
  9
$DIMSHO
 70
     1
  9
$DIMPOST
  1

  9
$DIMAPOST
  1

  9
$DIMALT
 70
     0
  9
$DIMALTD
 70
     2
  9
$DIMALTF
 40
25.4
  9
$DIMLFAC
 40
1.0
  9
$DIMTOFL
 70
     0
  9
$DIMTVP
 40
0.0
  9
$DIMTIX
 70
     0
  9
$DIMSOXD
 70
     0
  9
$DIMSAH
 70
     0
  9
$DIMBLK1
  1

  9
$DIMBLK2
  1

  9
$DIMSTYLE
  2
STANDARD
  9
$DIMCLRD
 70
     0
  9
$DIMCLRE
 70
     0
  9
$DIMCLRT
 70
     0
  9
$DIMTFAC
 40
1.0
  9
$DIMGAP
 40
0.09
  9
$LUNITS
 70
     2
  9
$LUPREC
 70
     4
  9
$AXISMODE
 70
     0
  9
$AXISUNIT
 10
0.0
 20
0.0
  9
$SKETCHINC
 40
0.1
  9
$FILLETRAD
 40
0.0
  9
$AUNITS
 70
     0
  9
$AUPREC
 70
     0
  9
$MENU
  1
acad
  9
$ELEVATION
 40
0.0
  9
$PELEVATION
 40
0.0
  9
$THICKNESS
 40
0.0
  9
$LIMCHECK
 70
     0
  9
$BLIPMODE
 70
     1
  9
$CHAMFERA
 40
0.0
  9
$CHAMFERB
 40
0.0
  9
$SKPOLY
 70
     0
  9
$TDCREATE
 40
0.000000000
  9
$TDUPDATE
 40
0.000000000
  9
$TDINDWG
 40
0.0
  9
$TDUSRTIMER
 40
0.0
  9
$USRTIMER
 70
     1
  9
$ANGBASE
 50
0.0
  9
$ANGDIR
 70
     0
  9
$PDMODE
 70
     0
  9
$PDSIZE
 40
0.0
  9
$PLINEWID
 40
0.0
  9
$COORDS
 70
     1
  9
$SPLFRAME
 70
     0
  9
$SPLINETYPE
 70
     6
  9
$SPLINESEGS
 70
     8
  9
$ATTDIA
 70
     0
  9
$ATTREQ
 70
     1
  9
$HANDLING
 70
     1
  9
$HANDSEED
  5
   700
  9
$SURFTAB1
 70
     6
  9
$SURFTAB2
 70
     6
  9
$SURFTYPE
 70
     6
  9
$SURFU
 70
     6
  9
$SURFV
 70
     6
  9
$UCSNAME
  2

  9
$UCSORG
 10
0.0
 20
0.0
 30
0.0
  9
$UCSXDIR
 10
1.0
 20
0.0
 30
0.0
  9
$UCSYDIR
 10
0.0
 20
1.0
 30
0.0
  9
$PUCSNAME
  2

  9
$PUCSORG
 10
0.0
 20
0.0
 30
0.0
  9
$PUCSXDIR
 10
1.0
 20
0.0
 30
0.0
  9
$PUCSYDIR
 10
0.0
 20
1.0
 30
0.0
  9
$USERI1
 70
     0
  9
$USERI2
 70
     0
  9
$USERI3
 70
     0
  9
$USERI4
 70
     0
  9
$USERI5
 70
     0
  9
$USERR1
 40
0.0
  9
$USERR2
 40
0.0
  9
$USERR3
 40
0.0
  9
$USERR4
 40
0.0
  9
$USERR5
 40
0.0
  9
$WORLDVIEW
 70
     1
  9
$SHADEDGE
 70
     3
  9
$SHADEDIF
 70
    70
  9
$TILEMODE
 70
     1
  9
$MAXACTVP
 70
    16
  9
$PINSBASE
 10
0.0
 20
0.0
 30
0.0
  9
$PLIMCHECK
 70
     0
  9
$PEXTMIN
 10
1.0E20
 20
1.0E20
 30
1.0E20
  9
$PEXTMAX
 10
-1.0E20
 20
-1.0E20
 30
-1.0E20
  9
$PLIMMIN
 10
0.0
 20
0.0
  9
$PLIMMAX
 10
12.0
 20
9.0
  9
$UNITMODE
 70
     0
  9
$VISRETAIN
 70
     0
  0
ENDSEC
  0
SECTION
  2
TABLES
  0
TABLE
  2
VPORT
 70
     1
  0
VPORT
  2
*ACTIVE
 70
     0
 10
0.0
 20
0.0
 11
1.0
 21
1.0
 12
6.801242
 22
4.5
 13
0.0
 23
0.0
 14
1.0
 24
1.0
 15
0.0
 25
0.0
 16
0.0
 26
0.0
 36
1.0
 17
0.0
 27
0.0
 37
0.0
 40
9.0
 41
1.511387
 42
50.0
 43
0.0
 44
0.0
 50
0.0
 51
0.0
 71
     0
 72
   100
 73
     1
 74
     1
 75
     0
 76
     0
 77
     0
 78
     0
  0
ENDTAB
  0
TABLE
  2
LTYPE
 70
    41
  0
LTYPE
  2
BYBLOCK
 70
     0
  3

 72
    65
 73
     0
 40
0.0
  0
LTYPE
  2
BYLAYER
 70
     0
  3

 72
    65
 73
     0
 40
0.0
  0
LTYPE
  2
CONTINUOUS
 70
     0
  3
Solid line
 72
    65
 73
     0
 40
0.0
  0
LTYPE
  2
BORDER
 70
    64
  3
__ __ . __ __ . __ __ . __ __ . __ __ . __ __ .
 72
    65
 73
     6
 40
1.75
 49
0.5
 49
-0.25
 49
0.5
 49
-0.25
 49
0.0
 49
-0.25
  0
LTYPE
  2
BORDER2
 70
    64
  3
__.__.__.__.__.__.__.__.__.__.__.__.__.__.__.__
 72
    65
 73
     6
 40
0.875
 49
0.25
 49
-0.125
 49
0.25
 49
-0.125
 49
0.0
 49
-0.125
  0
LTYPE
  2
BORDERX2
 70
    64
  3
____  ____  .  ____  ____  .  ____  ____  .  __
 72
    65
 73
     6
 40
3.5
 49
1.0
 49
-0.5
 49
1.0
 49
-0.5
 49
0.0
 49
-0.5
  0
LTYPE
  2
CENTER
 70
    64
  3
____ _ ____ _ ____ _ ____ _ ____ _ ____ _ ____
 72
    65
 73
     4
 40
2.0
 49
1.25
 49
-0.25
 49
0.25
 49
-0.25
  0
LTYPE
  2
CENTER2
 70
    64
  3
___ _ ___ _ ___ _ ___ _ ___ _ ___ _ ___ _ ___ _
 72
    65
 73
     4
 40
1.125
 49
0.75
 49
-0.125
 49
0.125
 49
-0.125
  0
LTYPE
  2
CENTERX2
 70
    64
  3
________  __  ________  __  ________  __  _____
 72
    65
 73
     4
 40
4.0
 49
2.5
 49
-0.5
 49
0.5
 49
-0.5
  0
LTYPE
  2
DASHDOT
 70
    64
  3
__ . __ . __ . __ . __ . __ . __ . __ . __ . __
 72
    65
 73
     4
 40
1.0
 49
0.5
 49
-0.25
 49
0.0
 49
-0.25
  0
LTYPE
  2
DASHDOT2
 70
    64
  3
_._._._._._._._._._._._._._._._._._._._._._._._
 72
    65
 73
     4
 40
0.5
 49
0.25
 49
-0.125
 49
0.0
 49
-0.125
  0
LTYPE
  2
DASHDOTX2
 70
    64
  3
____  .  ____  .  ____  .  ____  .  ____  .  __
 72
    65
 73
     4
 40
2.0
 49
1.0
 49
-0.5
 49
0.0
 49
-0.5
  0
LTYPE
  2
DASHED
 70
    64
  3
__ __ __ __ __ __ __ __ __ __ __ __ __ __ __ __
 72
    65
 73
     2
 40
0.75
 49
0.5
 49
-0.25
  0
LTYPE
  2
DASHED2
 70
    64
  3
_ _ _ _ _ _ _ _ _ _ _ _ _ _ _ _ _ _ _ _ _ _ _ _
 72
    65
 73
     2
 40
0.375
 49
0.25
 49
-0.125
  0
LTYPE
  2
DASHEDX2
 70
    64
  3
____  ____  ____  ____  ____  ____  ____  ____
 72
    65
 73
     2
 40
1.5
 49
1.0
 49
-0.5
  0
LTYPE
  2
DIVIDE
 70
    64
  3
____ . . ____ . . ____ . . ____ . . ____ . . __
 72
    65
 73
     6
 40
1.25
 49
0.5
 49
-0.25
 49
0.0
 49
-0.25
 49
0.0
 49
-0.25
  0
LTYPE
  2
DIVIDE2
 70
    64
  3
__..__..__..__..__..__..__..__..__..__..__..__.
 72
    65
 73
     6
 40
0.625
 49
0.25
 49
-0.125
 49
0.0
 49
-0.125
 49
0.0
 49
-0.125
  0
LTYPE
  2
DIVIDEX2
 70
    64
  3
________  .  .  ________  .  .  ________  .  .
 72
    65
 73
     6
 40
2.5
 49
1.0
 49
-0.5
 49
0.0
 49
-0.5
 49
0.0
 49
-0.5
  0
LTYPE
  2
DOT
 70
    64
  3
. . . . . . . . . . . . . . . . . . . . . . . .
 72
    65
 73
     2
 40
0.25
 49
0.0
 49
-0.25
  0
LTYPE
  2
DOT2
 70
    64
  3
...............................................
 72
    65
 73
     2
 40
0.125
 49
0.0
 49
-0.125
  0
LTYPE
  2
DOTX2
 70
    64
  3
.  .  .  .  .  .  .  .  .  .  .  .  .  .  .  .
 72
    65
 73
     2
 40
0.5
 49
0.0
 49
-0.5
  0
LTYPE
  2
HIDDEN
 70
    64
  3
__ __ __ __ __ __ __ __ __ __ __ __ __ __ __ __
 72
    65
 73
     2
 40
0.375
 49
0.25
 49
-0.125
  0
LTYPE
  2
HIDDEN2
 70
    64
  3
_ _ _ _ _ _ _ _ _ _ _ _ _ _ _ _ _ _ _ _ _ _ _ _
 72
    65
 73
     2
 40
0.1875
 49
0.125
 49
-0.0625
  0
LTYPE
  2
HIDDENX2
 70
    64
  3
____ ____ ____ ____ ____ ____ ____ ____ ____ __
 72
    65
 73
     2
 40
0.75
 49
0.5
 49
-0.25
  0
LTYPE
  2
PHANTOM
 70
    64
  3
______  __  __  ______  __  __  ______  __  __
 72
    65
 73
     6
 40
2.5
 49
1.25
 49
-0.25
 49
0.25
 49
-0.25
 49
0.25
 49
-0.25
  0
LTYPE
  2
PHANTOM2
 70
    64
  3
___ _ _ ___ _ _ ___ _ _ ___ _ _ ___ _ _ ___ _ _
 72
    65
 73
     6
 40
1.25
 49
0.625
 49
-0.125
 49
0.125
 49
-0.125
 49
0.125
 49
-0.125
  0
LTYPE
  2
PHANTOMX2
 70
    64
  3
____________    ____    ____    ____________
 72
    65
 73
     6
 40
5.0
 49
2.5
 49
-0.5
 49
0.5
 49
-0.5
 49
0.5
 49
-0.5
  0
LTYPE
  2
ACAD_ISO02W100
 70
    64
  3
__ __ __ __ __ __ __ __ __ __ __ __ __ __ __ __
 72
    65
 73
     2
 40
15.0
 49
12.0
 49
-3.0
  0
LTYPE
  2
ACAD_ISO03W100
 70
    64
  3
__    __    __    __    __    __    __    __
 72
    65
 73
     2
 40
30.0
 49
12.0
 49
-18.0
  0
LTYPE
  2
ACAD_ISO04W100
 70
    64
  3
____ . ____ . ____ . ____ . ____ . ____ . ____
 72
    65
 73
     4
 40
30.5
 49
24.0
 49
-3.0
 49
0.5
 49
-3.0
  0
LTYPE
  2
ACAD_ISO05W100
 70
    64
  3
____ .. ____ .. ____ .. ____ .. ____ .. ____ ..
 72
    65
 73
     6
 40
34.0
 49
24.0
 49
-3.0
 49
0.5
 49
-3.0
 49
0.5
 49
-3.0
  0
LTYPE
  2
ACAD_ISO06W100
 70
    64
  3
____ ... ____ ... ____ ... ____ ... ____ ... __
 72
    65
 73
     8
 40
37.5
 49
24.0
 49
-3.0
 49
0.5
 49
-3.0
 49
0.5
 49
-3.0
 49
0.5
 49
-3.0
  0
LTYPE
  2
ACAD_ISO07W100
 70
    64
  3
. . . . . . . . . . . . . . . . . . . . . . . .
 72
    65
 73
     2
 40
3.5
 49
0.5
 49
-3.0
  0
LTYPE
  2
ACAD_ISO08W100
 70
    64
  3
____ __ ____ __ ____ __ ____ ____ __ __ ____ __
 72
    65
 73
     4
 40
36.0
 49
24.0
 49
-3.0
 49
6.0
 49
-3.0
  0
LTYPE
  2
ACAD_ISO09W100
 70
    64
  3
____ __ __ ____ __ __ ____ __ __ ____ __ __ ___
 72
    65
 73
     6
 40
45.0
 49
24.0
 49
-3.0
 49
6.0
 49
-3.0
 49
6.0
 49
-3.0
  0
LTYPE
  2
ACAD_ISO10W100
 70
    64
  3
__ . __ . __ . __ . __ . __ . __ . __ . __ . __
 72
    65
 73
     4
 40
18.5
 49
12.0
 49
-3.0
 49
0.5
 49
-3.0
  0
LTYPE
  2
ACAD_ISO11W100
 70
    64
  3
__ __ . __ __ . __ __ . __ __ . __ __ . __ __ .
 72
    65
 73
     6
 40
33.5
 49
12.0
 49
-3.0
 49
12.0
 49
-3.0
 49
0.5
 49
-3.0
  0
LTYPE
  2
ACAD_ISO12W100
 70
    64
  3
__ . . __ . . __ . . __ . . __ . . __ . . __ .
 72
    65
 73
     6
 40
22.0
 49
12.0
 49
-3.0
 49
0.5
 49
-3.0
 49
0.5
 49
-3.0
  0
LTYPE
  2
ACAD_ISO13W100
 70
    64
  3
__ __ . . __ __ . . __ __ . . __ __ . . __ __ .
 72
    65
 73
     8
 40
37.0
 49
12.0
 49
-3.0
 49
12.0
 49
-3.0
 49
0.5
 49
-3.0
 49
0.5
 49
-3.0
  0
LTYPE
  2
ACAD_ISO14W100
 70
    64
  3
__ . . . __ . . . __ . . . __ . . . __ . . . __
 72
    65
 73
     8
 40
25.5
 49
12.0
 49
-3.0
 49
0.5
 49
-3.0
 49
0.5
 49
-3.0
 49
0.5
 49
-3.0
  0
LTYPE
  2
ACAD_ISO15W100
 70
    64
  3
__ __ . . . __ __ . . . __ __ . . . __ __ . . .
 72
    65
 73
    10
 40
40.5
 49
12.0
 49
-3.0
 49
12.0
 49
-3.0
 49
0.5
 49
-3.0
 49
0.5
 49
-3.0
 49
0.5
 49
-3.0
  0
ENDTAB
  0
TABLE
  2
STYLE
 70
     4
  0
STYLE
  2
STANDARD
 70
    64
 40
0.0
 41
1.0
 50
0.0
 71
     0
 42
0.2
  3
txt
  4

  0
STYLE
  2
TOLERANCE
 70
    64
 40
0.0
 41
1.0
 50
0.0
 71
     0
 42
0.2
  3
../igesfont/iges1003.shx
  4

  0
STYLE
  2
ROMANS
 70
    64
 40
0.0
 41
1.0
 50
0.0
 71
     0
 42
0.2
  3
romans.shx
  4

  0
STYLE
  2
ROMANC
 70
    64
 40
0.0
 41
1.0
 50
0.0
 71
     0
 42
0.2
  3
romanc.shx
  4

  0
ENDTAB
  0
TABLE
  2
DIMSTYLE
 70
     2
  0
DIMSTYLE
  2
UNNAMED
 70
     0
  3

  4

  5

  6

  7

 40
1.0
 41
0.18
 42
0.0625
 43
0.38
 44
0.18
 45
0.0
 46
0.0
 47
0.0
 48
0.0
140
0.18
141
0.09
142
0.0
143
25.4
144
1.0
145
0.0
146
1.0
147
0.09
 71
     0
 72
     0
 73
     1
 74
     1
 75
     0
 76
     0
 77
     0
 78
     0
170
     0
171
     2
172
     0
173
     0
174
     0
175
     0
176
     0
177
     0
178
     0
  0
DIMSTYLE
  2
STANDARD
 70
     0
  3

  4

  5

  6

  7

 40
1.0
 41
0.18
 42
0.0625
 43
0.38
 44
0.18
 45
0.0
 46
0.0
 47
0.0
 48
0.0
140
0.18
141
0.09
142
0.0
143
25.4
144
1.0
145
0.0
146
1.0
147
0.09
 71
     0
 72
     0
 73
     1
 74
     1
 75
     0
 76
     0
 77
     0
 78
     0
170
     0
171
     2
172
     0
173
     0
174
     0
175
     0
176
     0
177
     0
178
     0
  0
ENDTAB
  0
TABLE
  2
LAYER
 70
     2
  0
LAYER
  2
0
 70
     0
 62
     7
  6
CONTINUOUS
  0
LAYER
  2
255
 70
     0
 62
     7
  6
CONTINUOUS
  0
ENDTAB
  0
ENDSEC
  0
SECTION
  2
BLOCKS
  0
BLOCK
  5
     B
  8
0
  6
CONTINUOUS
 62
     7
  2
*UDIM1135
 70
    65
 10
0.0
 20
0.0
 30
0.0
  3
*UDIM1135
  0
TEXT
  5
     C
  8
0
  6
CONTINUOUS
 62
     7
 10
118.591025147825
 20
51.2433131585049
 30
0.0
 40
2.99999997871263
  1
96
 41
0.933333333333333
 72
     1
 11
121.091025130086
 21
52.7433131478612
 31
0.0
 73
     2
  0
LINE
  5
     D
  8
0
  6
CONTINUOUS
 62
     7
 10
104.566024048002
 20
12.6193532900192
 30
0.0
 11
104.566024048002
 21
52.2433131585049
 31
0.0
  0
LINE
  5
     E
  8
0
  6
CONTINUOUS
 62
     7
 10
104.566024048002
 20
50.2433131585049
 30
0.0
 11
138.166024980907
 21
50.2433131585049
 31
0.0
  0
LINE
  5
     F
  8
0
  6
CONTINUOUS
 62
     7
 10
107.520447325209
 20
50.7642575884565
 30
0.0
 11
104.566024048002
 21
50.2433131585049
 31
0.0
  0
LINE
  5
    10
  8
0
  6
CONTINUOUS
 62
     7
 10
104.566024048002
 20
50.2433131585049
 30
0.0
 11
107.520447325209
 21
49.7223687285532
 31
0.0
  0
LINE
  5
    11
  8
0
  6
CONTINUOUS
 62
     7
 10
135.2116017037
 20
49.7223687285532
 30
0.0
 11
138.166024980907
 21
50.2433131585049
 31
0.0
  0
LINE
  5
    12
  8
0
  6
CONTINUOUS
 62
     7
 10
138.166024980907
 20
50.2433131585049
 30
0.0
 11
135.2116017037
 21
50.7642575884565
 31
0.0
  0
ENDBLK
  5
    13
  8
0
  6
CONTINUOUS
 62
     7
  0
BLOCK
  5
    14
  8
0
  6
CONTINUOUS
 62
     7
  2
*UDIM1136
 70
    65
 10
0.0
 20
0.0
 30
0.0
  3
*UDIM1136
  0
TEXT
  5
    15
  8
0
  6
CONTINUOUS
 62
     7
 10
156.916026400516
 20
51.2433131585049
 30
0.0
 40
2.99999997871263
  1
131
 41
0.933333333333333
 72
     1
 11
160.816026372842
 21
52.7433131478612
 31
0.0
 73
     2
  0
LINE
  5
    16
  8
0
  6
CONTINUOUS
 62
     7
 10
184.016022694977
 20
12.6193552927352
 30
0.0
 11
184.016022694977
 21
52.2433131585049
 31
0.0
  0
LINE
  5
    17
  8
0
  6
CONTINUOUS
 62
     7
 10
138.166024980907
 20
50.2433131585049
 30
0.0
 11
184.016022694977
 21
50.2433131585049
 31
0.0
  0
LINE
  5
    18
  8
0
  6
CONTINUOUS
 62
     7
 10
141.120448258114
 20
50.7642575884565
 30
0.0
 11
138.166024980907
 21
50.2433131585049
 31
0.0
  0
LINE
  5
    19
  8
0
  6
CONTINUOUS
 62
     7
 10
138.166024980907
 20
50.2433131585049
 30
0.0
 11
141.120448258114
 21
49.7223687285532
 31
0.0
  0
LINE
  5
    1A
  8
0
  6
CONTINUOUS
 62
     7
 10
181.06159941777
 20
49.7223687285532
 30
0.0
 11
184.016022694977
 21
50.2433131585049
 31
0.0
  0
LINE
  5
    1B
  8
0
  6
CONTINUOUS
 62
     7
 10
184.016022694977
 20
50.2433131585049
 30
0.0
 11
181.06159941777
 21
50.7642575884565
 31
0.0
  0
ENDBLK
  5
    1C
  8
0
  6
CONTINUOUS
 62
     7
  0
BLOCK
  5
    1D
  8
0
  6
CONTINUOUS
 62
     7
  2
*UDIM1137
 70
    65
 10
0.0
 20
0.0
 30
0.0
  3
*UDIM1137
  0
TEXT
  5
    1E
  8
0
  6
CONTINUOUS
 62
     7
 10
66.3373650314228
 20
-26.4181452396601
 30
0.0
 40
2.99999997871263
  1
196
 50
90.0
 41
0.933333333333333
 72
     1
 11
64.8373650420616
 21
-22.5181452673356
 31
0.0
 73
     2
  0
LINE
  5
    1F
  8
0
  6
CONTINUOUS
 62
     7
 10
104.003523230421
 20
-56.5431455491804
 30
0.0
 11
65.3373650314179
 21
-56.5431455491804
 31
0.0
  0
LINE
  5
    20
  8
0
  6
CONTINUOUS
 62
     7
 10
106.716023994358
 20
12.0568552852846
 30
0.0
 11
65.3373650314179
 21
12.0568552852846
 31
0.0
  0
LINE
  5
    21
  8
0
  6
CONTINUOUS
 62
     7
 10
67.3373650314179
 20
-56.5431455491804
 30
0.0
 11
67.3373650314179
 21
12.0568552852846
 31
0.0
  0
LINE
  5
    22
  8
0
  6
CONTINUOUS
 62
     7
 10
66.8164206014662
 20
-53.5887222719734
 30
0.0
 11
67.3373650314179
 21
-56.5431455491804
 31
0.0
  0
LINE
  5
    23
  8
0
  6
CONTINUOUS
 62
     7
 10
67.3373650314179
 20
-56.5431455491804
 30
0.0
 11
67.8583094613696
 21
-53.5887222719734
 31
0.0
  0
LINE
  5
    24
  8
0
  6
CONTINUOUS
 62
     7
 10
67.8583094613696
 20
9.10243200807766
 30
0.0
 11
67.3373650314179
 21
12.0568552852846
 31
0.0
  0
LINE
  5
    25
  8
0
  6
CONTINUOUS
 62
     7
 10
67.3373650314179
 20
12.0568552852846
 30
0.0
 11
66.8164206014662
 21
9.10243200807766
 31
0.0
  0
ENDBLK
  5
    26
  8
0
  6
CONTINUOUS
 62
     7
  0
BLOCK
  5
    27
  8
0
  6
CONTINUOUS
 62
     7
  2
*UDIM1138
 70
    65
 10
0.0
 20
0.0
 30
0.0
  3
*UDIM1138
  0
TEXT
  5
    28
  8
0
  6
CONTINUOUS
 62
     7
 10
47.667891319821
 20
-3.14314831082911
 30
0.0
 40
2.99999997871263
  1
133
 50
90.0
 41
0.933333333333333
 72
     1
 11
46.1678913304598
 21
0.756851661495418
 31
0.0
 73
     2
  0
LINE
  5
    29
  8
0
  6
CONTINUOUS
 62
     7
 10
63.8310418808609
 20
-22.2431457205835
 30
0.0
 11
46.6678913198161
 21
-22.2431457205835
 31
0.0
  0
LINE
  5
    2A
  8
0
  6
CONTINUOUS
 62
     7
 10
78.366025982265
 20
24.3068534866748
 30
0.0
 11
46.6678913198161
 21
24.3068534866748
 31
0.0
  0
LINE
  5
    2B
  8
0
  6
CONTINUOUS
 62
     7
 10
48.6678913198161
 20
-22.2431457205835
 30
0.0
 11
48.6678913198161
 21
24.3068534866748
 31
0.0
  0
LINE
  5
    2C
  8
0
  6
CONTINUOUS
 62
     7
 10
48.1469468898645
 20
-19.2887224433765
 30
0.0
 11
48.6678913198161
 21
-22.2431457205835
 31
0.0
  0
LINE
  5
    2D
  8
0
  6
CONTINUOUS
 62
     7
 10
48.6678913198161
 20
-22.2431457205835
 30
0.0
 11
49.1888357497678
 21
-19.2887224433765
 31
0.0
  0
LINE
  5
    2E
  8
0
  6
CONTINUOUS
 62
     7
 10
49.1888357497678
 20
21.3524302094678
 30
0.0
 11
48.6678913198161
 21
24.3068534866748
 31
0.0
  0
LINE
  5
    2F
  8
0
  6
CONTINUOUS
 62
     7
 10
48.6678913198161
 20
24.3068534866748
 30
0.0
 11
48.1469468898645
 21
21.3524302094678
 31
0.0
  0
ENDBLK
  5
    30
  8
0
  6
CONTINUOUS
 62
     7
  0
BLOCK
  5
    31
  8
0
  6
CONTINUOUS
 62
     7
  2
*UDIM1139
 70
    65
 10
0.0
 20
0.0
 30
0.0
  3
*UDIM1139
  0
TEXT
  5
    32
  8
0
  6
CONTINUOUS
 62
     7
 10
41.3019086096296
 20
-31.4931451577434
 30
0.0
 40
2.99999997871263
  1
295
 50
90.0
 41
0.933333333333333
 72
     1
 11
39.8019086202684
 21
-27.5931451854189
 31
0.0
 73
     2
  0
LINE
  5
    33
  8
0
  6
CONTINUOUS
 62
     7
 10
78.366025982265
 20
-78.9431420847002
 30
0.0
 11
40.3019086096247
 21
-78.9431420847002
 31
0.0
  0
LINE
  5
    34
  8
0
  6
CONTINUOUS
 62
     7
 10
78.366025982265
 20
24.3068534866748
 30
0.0
 11
40.3019086096247
 21
24.3068534866748
 31
0.0
  0
LINE
  5
    35
  8
0
  6
CONTINUOUS
 62
     7
 10
42.3019086096247
 20
-78.9431420847002
 30
0.0
 11
42.3019086096247
 21
24.3068534866748
 31
0.0
  0
LINE
  5
    36
  8
0
  6
CONTINUOUS
 62
     7
 10
41.780964179673
 20
-75.9887188074932
 30
0.0
 11
42.3019086096247
 21
-78.9431420847002
 31
0.0
  0
LINE
  5
    37
  8
0
  6
CONTINUOUS
 62
     7
 10
42.3019086096247
 20
-78.9431420847002
 30
0.0
 11
42.8228530395763
 21
-75.9887188074932
 31
0.0
  0
LINE
  5
    38
  8
0
  6
CONTINUOUS
 62
     7
 10
42.8228530395763
 20
21.3524302094678
 30
0.0
 11
42.3019086096247
 21
24.3068534866748
 31
0.0
  0
LINE
  5
    39
  8
0
  6
CONTINUOUS
 62
     7
 10
42.3019086096247
 20
24.3068534866748
 30
0.0
 11
41.780964179673
 21
21.3524302094678
 31
0.0
  0
ENDBLK
  5
    3A
  8
0
  6
CONTINUOUS
 62
     7
  0
BLOCK
  5
    3B
  8
0
  6
CONTINUOUS
 62
     7
  2
*UDIM1140
 70
    65
 10
0.0
 20
0.0
 30
0.0
  3
*UDIM1140
  0
TEXT
  5
    3C
  8
0
  6
CONTINUOUS
 62
     7
 10
98.6410241452068
 20
-109.195827480815
 30
0.0
 40
2.99999997871263
  1
70
 41
0.933333333333333
 72
     1
 11
101.141024127467
 21
-107.695827491459
 31
0.0
 73
     2
  0
LINE
  5
    3D
  8
0
  6
CONTINUOUS
 62
     7
 10
89.1660257023072
 20
-90.9681205343305
 30
0.0
 11
89.1660257023072
 21
-112.195827480815
 31
0.0
  0
LINE
  5
    3E
  8
0
  6
CONTINUOUS
 62
     7
 10
113.666025285075
 20
-90.618120540291
 30
0.0
 11
113.666025285075
 21
-112.195827480815
 31
0.0
  0
LINE
  5
    3F
  8
0
  6
CONTINUOUS
 62
     7
 10
89.1660257023072
 20
-110.195827480815
 30
0.0
 11
113.666025285075
 21
-110.195827480815
 31
0.0
  0
LINE
  5
    40
  8
0
  6
CONTINUOUS
 62
     7
 10
92.1204489795141
 20
-109.674883050863
 30
0.0
 11
89.1660257023072
 21
-110.195827480815
 31
0.0
  0
LINE
  5
    41
  8
0
  6
CONTINUOUS
 62
     7
 10
89.1660257023072
 20
-110.195827480815
 30
0.0
 11
92.1204489795141
 21
-110.716771910767
 31
0.0
  0
LINE
  5
    42
  8
0
  6
CONTINUOUS
 62
     7
 10
110.711602007868
 20
-110.716771910767
 30
0.0
 11
113.666025285075
 21
-110.195827480815
 31
0.0
  0
LINE
  5
    43
  8
0
  6
CONTINUOUS
 62
     7
 10
113.666025285075
 20
-110.195827480815
 30
0.0
 11
110.711602007868
 21
-109.674883050863
 31
0.0
  0
ENDBLK
  5
    44
  8
0
  6
CONTINUOUS
 62
     7
  0
BLOCK
  5
    45
  8
0
  6
CONTINUOUS
 62
     7
  2
*UDIM1141
 70
    65
 10
0.0
 20
0.0
 30
0.0
  3
*UDIM1141
  0
TEXT
  5
    46
  8
0
  6
CONTINUOUS
 62
     7
 10
123.141019716579
 20
-109.195827480815
 30
0.0
 40
2.99999997871263
  1
70
 41
0.933333333333333
 72
     1
 11
125.641019698839
 21
-107.695827491459
 31
0.0
 73
     2
  0
LINE
  5
    47
  8
0
  6
CONTINUOUS
 62
     7
 10
138.166016094032
 20
-90.6181383104555
 30
0.0
 11
138.166016094032
 21
-112.195827480815
 31
0.0
  0
LINE
  5
    48
  8
0
  6
CONTINUOUS
 62
     7
 10
113.666025285075
 20
-110.195827480815
 30
0.0
 11
138.166016094032
 21
-110.195827480815
 31
0.0
  0
LINE
  5
    49
  8
0
  6
CONTINUOUS
 62
     7
 10
116.620448562282
 20
-109.674883050863
 30
0.0
 11
113.666025285075
 21
-110.195827480815
 31
0.0
  0
LINE
  5
    4A
  8
0
  6
CONTINUOUS
 62
     7
 10
113.666025285075
 20
-110.195827480815
 30
0.0
 11
116.620448562282
 21
-110.716771910767
 31
0.0
  0
LINE
  5
    4B
  8
0
  6
CONTINUOUS
 62
     7
 10
135.211592816825
 20
-110.716771910767
 30
0.0
 11
138.166016094032
 21
-110.195827480815
 31
0.0
  0
LINE
  5
    4C
  8
0
  6
CONTINUOUS
 62
     7
 10
138.166016094032
 20
-110.195827480815
 30
0.0
 11
135.211592816825
 21
-109.674883050863
 31
0.0
  0
ENDBLK
  5
    4D
  8
0
  6
CONTINUOUS
 62
     7
  0
BLOCK
  5
    4E
  8
0
  6
CONTINUOUS
 62
     7
  2
*UDIM1142
 70
    65
 10
0.0
 20
0.0
 30
0.0
  3
*UDIM1142
  0
TEXT
  5
    4F
  8
0
  6
CONTINUOUS
 62
     7
 10
147.641016631636
 20
-109.195827480815
 30
0.0
 40
2.99999997871263
  1
70
 41
0.933333333333333
 72
     1
 11
150.141016613897
 21
-107.695827491459
 31
0.0
 73
     2
  0
LINE
  5
    50
  8
0
  6
CONTINUOUS
 62
     7
 10
162.666026208143
 20
-90.6181149610447
 30
0.0
 11
162.666026208143
 21
-112.195827480815
 31
0.0
  0
LINE
  5
    51
  8
0
  6
CONTINUOUS
 62
     7
 10
138.166016094032
 20
-110.195827480815
 30
0.0
 11
162.666026208143
 21
-110.195827480815
 31
0.0
  0
LINE
  5
    52
  8
0
  6
CONTINUOUS
 62
     7
 10
141.120439371239
 20
-109.674883050863
 30
0.0
 11
138.166016094032
 21
-110.195827480815
 31
0.0
  0
LINE
  5
    53
  8
0
  6
CONTINUOUS
 62
     7
 10
138.166016094032
 20
-110.195827480815
 30
0.0
 11
141.120439371239
 21
-110.716771910767
 31
0.0
  0
LINE
  5
    54
  8
0
  6
CONTINUOUS
 62
     7
 10
159.711602930936
 20
-110.716771910767
 30
0.0
 11
162.666026208143
 21
-110.195827480815
 31
0.0
  0
LINE
  5
    55
  8
0
  6
CONTINUOUS
 62
     7
 10
162.666026208143
 20
-110.195827480815
 30
0.0
 11
159.711602930936
 21
-109.674883050863
 31
0.0
  0
ENDBLK
  5
    56
  8
0
  6
CONTINUOUS
 62
     7
  0
BLOCK
  5
    57
  8
0
  6
CONTINUOUS
 62
     7
  2
*UDIM1143
 70
    65
 10
0.0
 20
0.0
 30
0.0
  3
*UDIM1143
  0
TEXT
  5
    58
  8
0
  6
CONTINUOUS
 62
     7
 10
28.631146191134
 20
-31.4931451577435
 30
0.0
 40
2.99999997871263
  1
345
 50
90.0
 41
0.933333333333333
 72
     1
 11
27.1311462017728
 21
-27.5931451854189
 31
0.0
 73
     2
  0
LINE
  5
    59
  8
0
  6
CONTINUOUS
 62
     7
 10
109.866057980772
 20
-87.6931532210875
 30
0.0
 11
27.6311461911291
 21
-87.6931532210875
 31
0.0
  0
LINE
  5
    5A
  8
0
  6
CONTINUOUS
 62
     7
 10
109.866057980772
 20
33.056861952774
 30
0.0
 11
27.6311461911291
 21
33.056861952774
 31
0.0
  0
LINE
  5
    5B
  8
0
  6
CONTINUOUS
 62
     7
 10
29.6311461911291
 20
-87.6931532210875
 30
0.0
 11
29.6311461911291
 21
33.056861952774
 31
0.0
  0
LINE
  5
    5C
  8
0
  6
CONTINUOUS
 62
     7
 10
29.1102017611774
 20
-84.7387299438805
 30
0.0
 11
29.6311461911291
 21
-87.6931532210875
 31
0.0
  0
LINE
  5
    5D
  8
0
  6
CONTINUOUS
 62
     7
 10
29.6311461911291
 20
-87.6931532210875
 30
0.0
 11
30.1520906210808
 21
-84.7387299438805
 31
0.0
  0
LINE
  5
    5E
  8
0
  6
CONTINUOUS
 62
     7
 10
30.1520906210808
 20
30.102438675567
 30
0.0
 11
29.6311461911291
 21
33.056861952774
 31
0.0
  0
LINE
  5
    5F
  8
0
  6
CONTINUOUS
 62
     7
 10
29.6311461911291
 20
33.056861952774
 30
0.0
 11
29.1102017611774
 21
30.102438675567
 31
0.0
  0
ENDBLK
  5
    60
  8
0
  6
CONTINUOUS
 62
     7
  0
BLOCK
  5
    61
  8
0
  6
CONTINUOUS
 62
     7
  2
*UDIM1144
 70
    65
 10
0.0
 20
0.0
 30
0.0
  3
*UDIM1144
  0
TEXT
  5
    62
  8
0
  6
CONTINUOUS
 62
     7
 10
35.1807646098681
 20
1.23185696530177
 30
0.0
 40
2.99999997871263
  1
158
 50
90.0
 41
0.933333333333333
 72
     1
 11
33.6807646205069
 21
5.1318569376263
 31
0.0
 73
     2
  0
LINE
  5
    63
  8
0
  6
CONTINUOUS
 62
     7
 10
63.8310418808609
 20
-22.2431457205835
 30
0.0
 11
34.1807646098632
 21
-22.2431457205835
 31
0.0
  0
LINE
  5
    64
  8
0
  6
CONTINUOUS
 62
     7
 10
109.866057980772
 20
33.056861952774
 30
0.0
 11
34.1807646098632
 21
33.056861952774
 31
0.0
  0
LINE
  5
    65
  8
0
  6
CONTINUOUS
 62
     7
 10
36.1807646098632
 20
-22.2431457205835
 30
0.0
 11
36.1807646098632
 21
33.056861952774
 31
0.0
  0
LINE
  5
    66
  8
0
  6
CONTINUOUS
 62
     7
 10
35.6598201799116
 20
-19.2887224433765
 30
0.0
 11
36.1807646098632
 21
-22.2431457205835
 31
0.0
  0
LINE
  5
    67
  8
0
  6
CONTINUOUS
 62
     7
 10
36.1807646098632
 20
-22.2431457205835
 30
0.0
 11
36.7017090398149
 21
-19.2887224433765
 31
0.0
  0
LINE
  5
    68
  8
0
  6
CONTINUOUS
 62
     7
 10
36.7017090398149
 20
30.102438675567
 30
0.0
 11
36.1807646098632
 21
33.056861952774
 31
0.0
  0
LINE
  5
    69
  8
0
  6
CONTINUOUS
 62
     7
 10
36.1807646098632
 20
33.056861952774
 30
0.0
 11
35.6598201799116
 21
30.102438675567
 31
0.0
  0
ENDBLK
  5
    6A
  8
0
  6
CONTINUOUS
 62
     7
  0
BLOCK
  5
    6B
  8
0
  6
CONTINUOUS
 62
     7
  2
*UDIM1145
 70
    65
 10
0.0
 20
0.0
 30
0.0
  3
*UDIM1145
  0
TEXT
  5
    6C
  8
0
  6
CONTINUOUS
 62
     7
 10
53.6053996110399
 20
-31.4931504997478
 30
0.0
 40
2.99999997871263
  1
273
 50
90.0
 41
0.933333333333333
 72
     1
 11
52.1053996216786
 21
-27.5931505274233
 31
0.0
 73
     2
  0
LINE
  5
    6D
  8
0
  6
CONTINUOUS
 62
     7
 10
76.4410338054189
 20
-75.093155671453
 30
0.0
 11
52.605399611035
 21
-75.093155671453
 31
0.0
  0
LINE
  5
    6E
  8
0
  6
CONTINUOUS
 62
     7
 10
76.5285260135578
 20
20.4568482116617
 30
0.0
 11
52.605399611035
 21
20.4568482116617
 31
0.0
  0
LINE
  5
    6F
  8
0
  6
CONTINUOUS
 62
     7
 10
54.605399611035
 20
-75.093155671453
 30
0.0
 11
54.605399611035
 21
20.4568482116617
 31
0.0
  0
LINE
  5
    70
  8
0
  6
CONTINUOUS
 62
     7
 10
54.0844551810833
 20
-72.1387323942461
 30
0.0
 11
54.605399611035
 21
-75.093155671453
 31
0.0
  0
LINE
  5
    71
  8
0
  6
CONTINUOUS
 62
     7
 10
54.605399611035
 20
-75.093155671453
 30
0.0
 11
55.1263440409866
 21
-72.1387323942461
 31
0.0
  0
LINE
  5
    72
  8
0
  6
CONTINUOUS
 62
     7
 10
55.1263440409866
 20
17.5024249344548
 30
0.0
 11
54.605399611035
 21
20.4568482116617
 31
0.0
  0
LINE
  5
    73
  8
0
  6
CONTINUOUS
 62
     7
 10
54.605399611035
 20
20.4568482116617
 30
0.0
 11
54.0844551810833
 21
17.5024249344548
 31
0.0
  0
ENDBLK
  5
    74
  8
0
  6
CONTINUOUS
 62
     7
  0
BLOCK
  5
    75
  8
0
  6
CONTINUOUS
 62
     7
  2
*UDIM1146
 70
    65
 10
0.0
 20
0.0
 30
0.0
  3
*UDIM1146
  0
TEXT
  5
    76
  8
0
  6
CONTINUOUS
 62
     7
 10
60.0938043467344
 20
-5.06814827804759
 30
0.0
 40
2.99999997871263
  1
122
 50
90.0
 41
0.933333333333333
 72
     1
 11
58.5938043573732
 21
-1.16814830572307
 31
0.0
 73
     2
  0
LINE
  5
    77
  8
0
  6
CONTINUOUS
 62
     7
 10
63.8310418808609
 20
-22.2431457205835
 30
0.0
 11
59.0938043467295
 21
-22.2431457205835
 31
0.0
  0
LINE
  5
    78
  8
0
  6
CONTINUOUS
 62
     7
 10
76.5285260135578
 20
20.4568482116617
 30
0.0
 11
59.0938043467295
 21
20.4568482116617
 31
0.0
  0
LINE
  5
    79
  8
0
  6
CONTINUOUS
 62
     7
 10
61.0938043467295
 20
-22.2431457205835
 30
0.0
 11
61.0938043467295
 21
20.4568482116617
 31
0.0
  0
LINE
  5
    7A
  8
0
  6
CONTINUOUS
 62
     7
 10
60.5728599167778
 20
-19.2887224433765
 30
0.0
 11
61.0938043467295
 21
-22.2431457205835
 31
0.0
  0
LINE
  5
    7B
  8
0
  6
CONTINUOUS
 62
     7
 10
61.0938043467295
 20
-22.2431457205835
 30
0.0
 11
61.6147487766812
 21
-19.2887224433765
 31
0.0
  0
LINE
  5
    7C
  8
0
  6
CONTINUOUS
 62
     7
 10
61.6147487766812
 20
17.5024249344548
 30
0.0
 11
61.0938043467295
 21
20.4568482116617
 31
0.0
  0
LINE
  5
    7D
  8
0
  6
CONTINUOUS
 62
     7
 10
61.0938043467295
 20
20.4568482116617
 30
0.0
 11
60.5728599167778
 21
17.5024249344548
 31
0.0
  0
ENDBLK
  5
    7E
  8
0
  6
CONTINUOUS
 62
     7
  0
BLOCK
  5
    7F
  8
0
  6
CONTINUOUS
 62
     7
  2
*UDIM1147
 70
    65
 10
0.0
 20
0.0
 30
0.0
  3
*UDIM1147
  0
TEXT
  5
    80
  8
0
  6
CONTINUOUS
 62
     7
 10
97.3285472701378
 20
-117.114128737569
 30
0.0
 40
2.99999997871263
  1
193,5
 41
0.933333333333333
 72
     1
 11
104.028547222596
 21
-115.614128748212
 31
0.0
 73
     2
  0
LINE
  5
    81
  8
0
  6
CONTINUOUS
 62
     7
 10
70.4410661885842
 20
-31.8182176723292
 30
0.0
 11
70.4410661885842
 21
-120.114128737569
 31
0.0
  0
LINE
  5
    82
  8
0
  6
CONTINUOUS
 62
     7
 10
138.166024980907
 20
-76.8674326566661
 30
0.0
 11
138.166024980907
 21
-120.114128737569
 31
0.0
  0
LINE
  5
    83
  8
0
  6
CONTINUOUS
 62
     7
 10
70.4410661885842
 20
-118.114128737569
 30
0.0
 11
138.166024980907
 21
-118.114128737569
 31
0.0
  0
LINE
  5
    84
  8
0
  6
CONTINUOUS
 62
     7
 10
73.3954894657911
 20
-117.593184307617
 30
0.0
 11
70.4410661885842
 21
-118.114128737569
 31
0.0
  0
LINE
  5
    85
  8
0
  6
CONTINUOUS
 62
     7
 10
70.4410661885842
 20
-118.114128737569
 30
0.0
 11
73.3954894657911
 21
-118.63507316752
 31
0.0
  0
LINE
  5
    86
  8
0
  6
CONTINUOUS
 62
     7
 10
135.2116017037
 20
-118.63507316752
 30
0.0
 11
138.166024980907
 21
-118.114128737569
 31
0.0
  0
LINE
  5
    87
  8
0
  6
CONTINUOUS
 62
     7
 10
138.166024980907
 20
-118.114128737569
 30
0.0
 11
135.2116017037
 21
-117.593184307617
 31
0.0
  0
ENDBLK
  5
    88
  8
0
  6
CONTINUOUS
 62
     7
  0
BLOCK
  5
    89
  8
0
  6
CONTINUOUS
 62
     7
  2
*UDIM1148
 70
    65
 10
0.0
 20
0.0
 30
0.0
  3
*UDIM1148
  0
TEXT
  5
    8A
  8
0
  6
CONTINUOUS
 62
     7
 10
133.99106684679
 20
44.4452084158775
 30
0.0
 40
2.99999997871263
  1
140
 41
0.933333333333333
 72
     1
 11
137.891066819116
 21
45.9452084052338
 31
0.0
 73
     2
  0
LINE
  5
    8B
  8
0
  6
CONTINUOUS
 62
     7
 10
113.666066120039
 20
3.25685519732804
 30
0.0
 11
113.666066120039
 21
45.4452084158775
 31
0.0
  0
LINE
  5
    8C
  8
0
  6
CONTINUOUS
 62
     7
 10
162.666065953146
 20
3.25685386218402
 30
0.0
 11
162.666065953146
 21
45.4452084158775
 31
0.0
  0
LINE
  5
    8D
  8
0
  6
CONTINUOUS
 62
     7
 10
113.666066120039
 20
43.4452084158775
 30
0.0
 11
162.666065953146
 21
43.4452084158775
 31
0.0
  0
LINE
  5
    8E
  8
0
  6
CONTINUOUS
 62
     7
 10
116.620489397246
 20
43.9661528458291
 30
0.0
 11
113.666066120039
 21
43.4452084158775
 31
0.0
  0
LINE
  5
    8F
  8
0
  6
CONTINUOUS
 62
     7
 10
113.666066120039
 20
43.4452084158775
 30
0.0
 11
116.620489397246
 21
42.9242639859258
 31
0.0
  0
LINE
  5
    90
  8
0
  6
CONTINUOUS
 62
     7
 10
159.711642675939
 20
42.9242639859258
 30
0.0
 11
162.666065953146
 21
43.4452084158775
 31
0.0
  0
LINE
  5
    91
  8
0
  6
CONTINUOUS
 62
     7
 10
162.666065953146
 20
43.4452084158775
 30
0.0
 11
159.711642675939
 21
43.9661528458291
 31
0.0
  0
ENDBLK
  5
    92
  8
0
  6
CONTINUOUS
 62
     7
  0
BLOCK
  5
    93
  8
0
  6
CONTINUOUS
 62
     7
  2
*UDIM1149
 70
    65
 10
0.0
 20
0.0
 30
0.0
  3
*UDIM1149
  0
TEXT
  5
    94
  8
0
  6
CONTINUOUS
 62
     7
 10
122.25664894054
 20
59.0596628178737
 30
0.0
 40
2.99999997871263
  1
280
 41
0.933333333333333
 72
     1
 11
126.156648912866
 21
60.55966280723
 31
0.0
 73
     2
  0
LINE
  5
    95
  8
0
  6
CONTINUOUS
 62
     7
 10
77.0910260210083
 20
21.0193482191123
 30
0.0
 11
77.0910260210083
 21
60.0596628178737
 31
0.0
  0
LINE
  5
    96
  8
0
  6
CONTINUOUS
 62
     7
 10
174.741024358038
 20
21.0193482191123
 30
0.0
 11
174.741024358038
 21
60.0596628178737
 31
0.0
  0
LINE
  5
    97
  8
0
  6
CONTINUOUS
 62
     7
 10
77.0910260210083
 20
58.0596628178737
 30
0.0
 11
174.741024358038
 21
58.0596628178737
 31
0.0
  0
LINE
  5
    98
  8
0
  6
CONTINUOUS
 62
     7
 10
80.0454492982153
 20
58.5806072478253
 30
0.0
 11
77.0910260210083
 21
58.0596628178737
 31
0.0
  0
LINE
  5
    99
  8
0
  6
CONTINUOUS
 62
     7
 10
77.0910260210083
 20
58.0596628178737
 30
0.0
 11
80.0454492982153
 21
57.538718387922
 31
0.0
  0
LINE
  5
    9A
  8
0
  6
CONTINUOUS
 62
     7
 10
171.786601080831
 20
57.538718387922
 30
0.0
 11
174.741024358038
 21
58.0596628178737
 31
0.0
  0
LINE
  5
    9B
  8
0
  6
CONTINUOUS
 62
     7
 10
174.741024358038
 20
58.0596628178737
 30
0.0
 11
171.786601080831
 21
58.5806072478253
 31
0.0
  0
ENDBLK
  5
    9C
  8
0
  6
CONTINUOUS
 62
     7
  0
BLOCK
  5
    9D
  8
0
  6
CONTINUOUS
 62
     7
  2
*UDIM1150
 70
    65
 10
0.0
 20
0.0
 30
0.0
  3
*UDIM1150
  0
TEXT
  5
    9E
  8
0
  6
CONTINUOUS
 62
     7
 10
99.1232399764351
 20
-100.495884849433
 30
0.0
 40
2.99999997871263
  1
40
 41
0.933333333333333
 72
     1
 11
101.623239958696
 21
-98.9958848600767
 31
0.0
 73
     2
  0
LINE
  5
    9F
  8
0
  6
CONTINUOUS
 62
     7
 10
106.666025517349
 20
-95.6931177838869
 30
0.0
 11
106.666025517349
 21
-103.495884849433
 31
0.0
  0
LINE
  5
    A0
  8
0
  6
CONTINUOUS
 62
     7
 10
120.66602527893
 20
-95.6931177838869
 30
0.0
 11
120.66602527893
 21
-103.495884849433
 31
0.0
  0
LINE
  5
    A1
  8
0
  6
CONTINUOUS
 62
     7
 10
99.1232399764351
 20
-101.495884849433
 30
0.0
 11
120.66602527893
 21
-101.495884849433
 31
0.0
  0
LINE
  5
    A2
  8
0
  6
CONTINUOUS
 62
     7
 10
109.620448794556
 20
-100.974940419481
 30
0.0
 11
106.666025517349
 21
-101.495884849433
 31
0.0
  0
LINE
  5
    A3
  8
0
  6
CONTINUOUS
 62
     7
 10
106.666025517349
 20
-101.495884849433
 30
0.0
 11
109.620448794556
 21
-102.016829279385
 31
0.0
  0
LINE
  5
    A4
  8
0
  6
CONTINUOUS
 62
     7
 10
117.711602001723
 20
-102.016829279385
 30
0.0
 11
120.66602527893
 21
-101.495884849433
 31
0.0
  0
LINE
  5
    A5
  8
0
  6
CONTINUOUS
 62
     7
 10
120.66602527893
 20
-101.495884849433
 30
0.0
 11
117.711602001723
 21
-100.974940419481
 31
0.0
  0
ENDBLK
  5
    A6
  8
0
  6
CONTINUOUS
 62
     7
  0
BLOCK
  5
    A7
  8
0
  6
CONTINUOUS
 62
     7
  2
*UDIM1151
 70
    65
 10
0.0
 20
0.0
 30
0.0
  3
*UDIM1151
  0
TEXT
  5
    A8
  8
0
  6
CONTINUOUS
 62
     7
 10
176.263152181934
 20
-98.978884823263
 30
0.0
 40
2.99999997871263
  1
14
 50
317.062777392586
 41
0.933333333333333
 72
     1
 11
179.115198374897
 21
-99.5837256226274
 31
0.0
 73
     2
  0
TEXT
  5
    A9
  8
0
  6
CONTINUOUS
 62
     7
 10
173.957035598376
 20
-96.8331154671597
 30
0.0
 40
2.99999997871263
  1
Ø
 50
317.062777392586
 41
0.933333333333333
 72
     1
 11
175.784141085845
 21
-96.4842809955831
 31
0.0
 73
     2
  0
LINE
  5
    AA
  8
0
  6
CONTINUOUS
 62
     7
 10
160.872381479853
 20
-86.0241867044479
 30
0.0
 11
179.242458074608
 21
-103.116968442887
 31
0.0
  0
LINE
  5
    AB
  8
0
  6
CONTINUOUS
 62
     7
 10
158.354581105959
 20
-84.3930272158578
 30
0.0
 11
160.872381479853
 21
-86.0241867044479
 31
0.0
  0
LINE
  5
    AC
  8
0
  6
CONTINUOUS
 62
     7
 10
160.872381479853
 20
-86.0241867044479
 30
0.0
 11
159.064312282969
 21
-83.6302598510796
 31
0.0
  0
LINE
  5
    AD
  8
0
  6
CONTINUOUS
 62
     7
 10
166.977471310326
 20
-90.9932068381811
 30
0.0
 11
164.459670936432
 21
-89.362047349591
 31
0.0
  0
LINE
  5
    AE
  8
0
  6
CONTINUOUS
 62
     7
 10
164.459670936432
 20
-89.362047349591
 30
0.0
 11
166.267740133316
 21
-91.7559742029593
 31
0.0
  0
ENDBLK
  5
    AF
  8
0
  6
CONTINUOUS
 62
     7
  0
BLOCK
  5
    B0
  8
0
  6
CONTINUOUS
 62
     7
  2
*UDIM1152
 70
    65
 10
0.0
 20
0.0
 30
0.0
  3
*UDIM1152
  0
TEXT
  5
    B1
  8
0
  6
CONTINUOUS
 62
     7
 10
155.078548956949
 20
-117.114128737569
 30
0.0
 40
2.99999997871263
  1
136,5
 41
0.933333333333333
 72
     1
 11
161.778548909407
 21
-115.614128748212
 31
0.0
 73
     2
  0
LINE
  5
    B2
  8
0
  6
CONTINUOUS
 62
     7
 10
138.166024980907
 20
-76.8674326566661
 30
0.0
 11
138.166024980907
 21
-120.114128737569
 31
0.0
  0
LINE
  5
    B3
  8
0
  6
CONTINUOUS
 62
     7
 10
185.941070897351
 20
-31.8181615962803
 30
0.0
 11
185.941070897351
 21
-120.114128737569
 31
0.0
  0
LINE
  5
    B4
  8
0
  6
CONTINUOUS
 62
     7
 10
138.166024980907
 20
-118.114128737569
 30
0.0
 11
185.941070897351
 21
-118.114128737569
 31
0.0
  0
LINE
  5
    B5
  8
0
  6
CONTINUOUS
 62
     7
 10
141.120448258114
 20
-117.593184307617
 30
0.0
 11
138.166024980907
 21
-118.114128737569
 31
0.0
  0
LINE
  5
    B6
  8
0
  6
CONTINUOUS
 62
     7
 10
138.166024980907
 20
-118.114128737569
 30
0.0
 11
141.120448258114
 21
-118.63507316752
 31
0.0
  0
LINE
  5
    B7
  8
0
  6
CONTINUOUS
 62
     7
 10
182.986647620144
 20
-118.63507316752
 30
0.0
 11
185.941070897351
 21
-118.114128737569
 31
0.0
  0
LINE
  5
    B8
  8
0
  6
CONTINUOUS
 62
     7
 10
185.941070897351
 20
-118.114128737569
 30
0.0
 11
182.986647620144
 21
-117.593184307617
 31
0.0
  0
ENDBLK
  5
    B9
  8
0
  6
CONTINUOUS
 62
     7
  0
BLOCK
  5
    BA
  8
0
  6
CONTINUOUS
 62
     7
  2
$1MOSTRA
 70
    64
 10
0.0
 20
0.0
 30
0.0
  3
$1MOSTRA
  0
LINE
  5
    BB
  8
0
  6
CONTINUOUS
 62
     3
 10
131.0
 20
-24.0000152587891
 30
0.0
 11
131.0
 21
169.499984741211
 31
0.0
  0
LINE
  5
    BC
  8
0
  6
CONTINUOUS
 62
     3
 10
-94.7500023146612
 20
-25.250020980835
 30
0.0
 11
129.75
 21
-25.250020980835
 31
0.0
  0
LINE
  5
    BD
  8
0
  6
CONTINUOUS
 62
     3
 10
-96.0
 20
-24.000020980835
 30
0.0
 11
-96.0
 21
169.499979019165
 31
0.0
  0
LINE
  5
    BE
  8
0
  6
CONTINUOUS
 62
     3
 10
-87.0
 20
170.749984741211
 30
0.0
 11
129.75
 21
170.749984741211
 31
0.0
  0
LINE
  5
    BF
  8
0
  6
CONTINUOUS
 62
     3
 10
-94.7500138961029
 20
170.749984741211
 30
0.0
 11
-87.0
 21
170.749984741211
 31
0.0
  0
LINE
  5
    C0
  8
0
  6
CONTINUOUS
 62
     3
 10
78.0
 20
-5.25002145767212
 30
0.0
 11
78.0
 21
-4.2500216960907
 31
0.0
  0
LINE
  5
    C1
  8
0
  6
CONTINUOUS
 62
     3
 10
-87.0
 20
-5.25002145767211
 30
0.0
 11
-87.0
 21
-4.25002169609069
 31
0.0
  0
LINE
  5
    C2
  8
0
  6
CONTINUOUS
 62
     3
 10
-86.0
 20
-5.25002145767211
 30
0.0
 11
77.0
 21
-5.25002145767212
 31
0.0
  0
LINE
  5
    C3
  8
0
  6
CONTINUOUS
 62
     3
 10
78.0
 20
149.749984741211
 30
0.0
 11
78.0
 21
150.749984741211
 31
0.0
  0
LINE
  5
    C4
  8
0
  6
CONTINUOUS
 62
     3
 10
-87.0
 20
149.749984741211
 30
0.0
 11
-87.0
 21
150.749984741211
 31
0.0
  0
LINE
  5
    C5
  8
0
  6
CONTINUOUS
 62
     3
 10
-86.0
 20
-25.250020980835
 30
0.0
 11
-86.0
 21
-5.25002098083496
 31
0.0
  0
LINE
  5
    C6
  8
0
  6
CONTINUOUS
 62
     3
 10
-87.0
 20
-25.250020980835
 30
0.0
 11
-87.0
 21
-5.25002098083496
 31
0.0
  0
LINE
  5
    C7
  8
0
  6
CONTINUOUS
 62
     3
 10
-87.0
 20
-4.25002169609069
 30
0.0
 11
-87.0
 21
149.749978303909
 31
0.0
  0
LINE
  5
    C8
  8
0
  6
CONTINUOUS
 62
     3
 10
-87.0
 20
150.749984741211
 30
0.0
 11
-87.0
 21
170.749984741211
 31
0.0
  0
LINE
  5
    C9
  8
0
  6
CONTINUOUS
 62
     3
 10
78.0
 20
-25.250020980835
 30
0.0
 11
78.0
 21
-5.25002098083497
 31
0.0
  0
LINE
  5
    CA
  8
0
  6
CONTINUOUS
 62
     3
 10
78.0
 20
-4.2500216960907
 30
0.0
 11
78.0
 21
22.6249783039093
 31
0.0
  0
LINE
  5
    CB
  8
0
  6
CONTINUOUS
 62
     3
 10
78.0
 20
23.624979019165
 30
0.0
 11
78.0
 21
64.624979019165
 31
0.0
  0
LINE
  5
    CC
  8
0
  6
CONTINUOUS
 62
     3
 10
78.0
 20
65.6249771118164
 30
0.0
 11
78.0
 21
149.749984741211
 31
0.0
  0
LINE
  5
    CD
  8
0
  6
CONTINUOUS
 62
     3
 10
78.0
 20
150.749984741211
 30
0.0
 11
78.0
 21
170.749984741211
 31
0.0
  0
LINE
  5
    CE
  8
0
  6
CONTINUOUS
 62
     3
 10
77.0
 20
-25.250020980835
 30
0.0
 11
77.0
 21
-5.25002098083497
 31
0.0
  0
LINE
  5
    CF
  8
0
  6
CONTINUOUS
 62
     3
 10
112.0
 20
23.624979019165
 30
0.0
 11
112.0
 21
64.624979019165
 31
0.0
  0
LINE
  5
    D0
  8
0
  6
CONTINUOUS
 62
     3
 10
-86.0
 20
150.749984741211
 30
0.0
 11
77.0
 21
150.749984741211
 31
0.0
  0
LINE
  5
    D1
  8
0
  6
DOT
 62
     3
 10
78.0
 20
22.6249809265137
 30
0.0
 11
78.0
 21
23.6249809265137
 31
0.0
  0
LINE
  5
    D2
  8
0
  6
DOT
 62
     3
 10
78.0
 20
64.6249847412109
 30
0.0
 11
78.0
 21
65.6249847412109
 31
0.0
  0
LINE
  5
    D3
  8
0
  6
CONTINUOUS
 62
     3
 10
-95.2283575359481
 20
170.654833276614
 30
0.0
 11
-94.7500021275396
 21
170.749987082197
 31
0.0
  0
LINE
  5
    D4
  8
0
  6
CONTINUOUS
 62
     3
 10
-95.6338828572815
 20
170.383870758251
 30
0.0
 11
-95.2283576589463
 21
170.654836342308
 31
0.0
  0
LINE
  5
    D5
  8
0
  6
CONTINUOUS
 62
     3
 10
-95.9048442813714
 20
169.978321294716
 30
0.0
 11
-95.6338787006842
 21
170.38385412157
 31
0.0
  0
LINE
  5
    D6
  8
0
  6
CONTINUOUS
 62
     3
 10
-96.0000009070014
 20
169.49998927381
 30
0.0
 11
-95.9048471000262
 21
169.978337054874
 31
0.0
  0
LINE
  5
    D7
  8
0
  6
CONTINUOUS
 62
     3
 10
129.750003154688
 20
170.749986935154
 30
0.0
 11
130.228350935752
 21
170.654833128179
 31
0.0
  0
LINE
  5
    D8
  8
0
  6
CONTINUOUS
 62
     3
 10
130.228341409222
 20
170.654823450862
 30
0.0
 11
130.633874236076
 21
170.383857870175
 31
0.0
  0
LINE
  5
    D9
  8
0
  6
CONTINUOUS
 62
     3
 10
130.633876465973
 20
170.383854910394
 30
0.0
 11
130.90484204666
 21
169.97832208354
 31
0.0
  0
LINE
  5
    DA
  8
0
  6
CONTINUOUS
 62
     3
 10
130.90484765696
 20
169.978336952213
 30
0.0
 11
131.000001463935
 21
169.499989171149
 31
0.0
  0
LINE
  5
    DB
  8
0
  6
CONTINUOUS
 62
     3
 10
129.750001912704
 20
-25.2500209810904
 30
0.0
 11
130.228349689786
 21
-25.1548709896053
 31
0.0
  0
LINE
  5
    DC
  8
0
  6
CONTINUOUS
 62
     3
 10
130.228338306514
 20
-25.1548722950462
 30
0.0
 11
130.633871133368
 21
-24.8839067143591
 31
0.0
  0
LINE
  5
    DD
  8
0
  6
CONTINUOUS
 62
     3
 10
130.633879356188
 20
-24.8839055654525
 30
0.0
 11
130.904844938572
 21
-24.4783765528654
 31
0.0
  0
LINE
  5
    DE
  8
0
  6
CONTINUOUS
 62
     3
 10
130.904848088874
 20
-24.4783766972257
 30
0.0
 11
131.000001894457
 21
-24.0000212888173
 31
0.0
  0
LINE
  5
    DF
  8
0
  6
CONTINUOUS
 62
     3
 10
-95.2283572980338
 20
-25.1548710672825
 30
0.0
 11
-94.750001893597
 21
-25.2500210645891
 31
0.0
  0
LINE
  5
    E0
  8
0
  6
CONTINUOUS
 62
     3
 10
-95.6338848795916
 20
-24.8839050834456
 30
0.0
 11
-95.2283596812564
 21
-25.1548706675021
 31
0.0
  0
LINE
  5
    E1
  8
0
  6
CONTINUOUS
 62
     3
 10
-95.9048453281177
 20
-24.4783764153605
 30
0.0
 11
-95.6338797457343
 21
-24.8839054279476
 31
0.0
  0
LINE
  5
    E2
  8
0
  6
CONTINUOUS
 62
     3
 10
-96.0000013278323
 20
-24.0000213932639
 30
0.0
 11
-95.9048475222492
 21
-24.4783768016722
 31
0.0
  0
LINE
  5
    E3
  8
0
  6
CONTINUOUS
 62
     3
 10
71.0
 20
161.499984741211
 30
0.0
 11
71.5
 21
161.499984741211
 31
0.0
  0
LINE
  5
    E4
  8
0
  6
CONTINUOUS
 62
     3
 10
70.6249985834239
 20
161.39948892087
 30
0.0
 11
70.9999985887286
 21
161.499983299907
 31
0.0
  0
LINE
  5
    E5
  8
0
  6
CONTINUOUS
 62
     3
 10
70.3504841000321
 20
161.124991898345
 30
0.0
 11
70.6250049664647
 21
161.399497515692
 31
0.0
  0
LINE
  5
    E6
  8
0
  6
CONTINUOUS
 62
     3
 10
70.2500005005121
 20
160.74998610992
 30
0.0
 11
70.3504796223163
 21
161.124986104743
 31
0.0
  0
LINE
  5
    E7
  8
0
  6
CONTINUOUS
 62
     3
 10
70.2500001717027
 20
160.749985945318
 30
0.0
 11
70.3504792935069
 21
160.374985950495
 31
0.0
  0
LINE
  5
    E8
  8
0
  6
CONTINUOUS
 62
     3
 10
70.3504785443499
 20
160.374981262897
 30
0.0
 11
70.6249994243228
 21
160.100460382924
 31
0.0
  0
LINE
  5
    E9
  8
0
  6
CONTINUOUS
 62
     3
 10
70.6250004494111
 20
160.100464493128
 30
0.0
 11
71.000000444234
 21
159.999985371324
 31
0.0
  0
LINE
  5
    EA
  8
0
  6
CONTINUOUS
 62
     3
 10
71.0
 20
159.999984741211
 30
0.0
 11
71.5
 21
159.999984741211
 31
0.0
  0
LINE
  5
    EB
  8
0
  6
CONTINUOUS
 62
     3
 10
-71.0000005237262
 20
159.999985364975
 30
0.0
 11
-70.6250005289034
 21
160.100464486779
 31
0.0
  0
LINE
  5
    EC
  8
0
  6
CONTINUOUS
 62
     3
 10
-70.6249991572831
 20
160.100460461707
 30
0.0
 11
-70.3504782773102
 21
160.37498134168
 31
0.0
  0
LINE
  5
    ED
  8
0
  6
CONTINUOUS
 62
     3
 10
-70.3504793419514
 20
160.374985939145
 30
0.0
 11
-70.2500002201472
 21
160.749985933968
 31
0.0
  0
LINE
  5
    EE
  8
0
  6
CONTINUOUS
 62
     3
 10
-70.3504796707608
 20
161.124986116093
 30
0.0
 11
-70.2500005489566
 21
160.74998612127
 31
0.0
  0
LINE
  5
    EF
  8
0
  6
CONTINUOUS
 62
     3
 10
-70.625005364328
 20
161.399497643651
 30
0.0
 11
-70.3504844978953
 21
161.124992026304
 31
0.0
  0
LINE
  5
    F0
  8
0
  6
CONTINUOUS
 62
     3
 10
-70.9999984404592
 20
161.499983275092
 30
0.0
 11
-70.6249984351544
 21
161.399488896056
 31
0.0
  0
LINE
  5
    F1
  8
0
  6
CONTINUOUS
 62
     3
 10
-71.5
 20
161.499984741211
 30
0.0
 11
-71.0
 21
161.499984741211
 31
0.0
  0
LINE
  5
    F2
  8
0
  6
CONTINUOUS
 62
     3
 10
-71.5
 20
159.999984741211
 30
0.0
 11
-71.0
 21
159.999984741211
 31
0.0
  0
LINE
  5
    F3
  8
0
  6
DOT
 62
     3
 10
129.207102522664
 20
93.2070806462287
 30
0.0
 11
129.423868885951
 21
92.8826559114065
 31
0.0
  0
LINE
  5
    F4
  8
0
  6
CONTINUOUS
 62
     3
 10
78.0
 20
64.6249771118164
 30
0.0
 11
112.0
 21
64.6249771118164
 31
0.0
  0
LINE
  5
    F5
  8
0
  6
CONTINUOUS
 62
     3
 10
78.0
 20
23.624979019165
 30
0.0
 11
112.0
 21
23.624979019165
 31
0.0
  0
LINE
  5
    F6
  8
0
  6
CONTINUOUS
 62
     3
 10
78.0
 20
22.624979019165
 30
0.0
 11
131.0
 21
22.624979019165
 31
0.0
  0
LINE
  5
    F7
  8
0
  6
CONTINUOUS
 62
     3
 10
113.0
 20
22.6249771118164
 30
0.0
 11
113.0
 21
65.6249771118164
 31
0.0
  0
LINE
  5
    F8
  8
0
  6
CONTINUOUS
 62
     3
 10
121.443762073863
 20
22.6249762341868
 30
0.0
 11
121.469671496571
 21
22.655306892856
 31
0.0
  0
LINE
  5
    F9
  8
0
  6
CONTINUOUS
 62
     3
 10
122.530331822982
 20
22.6553070669901
 30
0.0
 11
122.556233618116
 21
22.6249802236221
 31
0.0
  0
LINE
  5
    FA
  8
0
  6
CONTINUOUS
 62
     3
 10
77.0
 20
-4.2500216960907
 30
0.0
 11
77.0
 21
149.749978303909
 31
0.0
  0
LINE
  5
    FB
  8
0
  6
CONTINUOUS
 62
     3
 10
-86.0
 20
149.749984741211
 30
0.0
 11
77.0
 21
149.749984741211
 31
0.0
  0
LINE
  5
    FC
  8
0
  6
CONTINUOUS
 62
     3
 10
-86.0
 20
-4.25002169609069
 30
0.0
 11
77.0
 21
-4.2500216960907
 31
0.0
  0
LINE
  5
    FD
  8
0
  6
CONTINUOUS
 62
     3
 10
-86.0
 20
-4.25002169609069
 30
0.0
 11
-86.0
 21
149.749978303909
 31
0.0
  0
LINE
  5
    FE
  8
0
  6
CONTINUOUS
 62
     3
 10
70.0000086006236
 20
142.749981641769
 30
0.0
 11
77.0000047406314
 21
149.749991353068
 31
0.0
  0
LINE
  5
    FF
  8
0
  6
CONTINUOUS
 62
     3
 10
70.0000002534282
 20
2.74998164176941
 30
0.0
 11
77.0000028943928
 21
-4.25002276936366
 31
0.0
  0
LINE
  5
   100
  8
0
  6
CONTINUOUS
 62
     3
 10
-86.0000010794079
 20
149.749986269664
 30
0.0
 11
-70.0
 21
142.220568727026
 31
0.0
  0
LINE
  5
   101
  8
0
  6
CONTINUOUS
 62
     3
 10
-86.0000042824209
 20
-4.25002269924179
 30
0.0
 11
-70.0
 21
3.27939166971828
 31
0.0
  0
LINE
  5
   102
  8
0
  6
CONTINUOUS
 62
     3
 10
71.5
 20
150.749984741211
 30
0.0
 11
71.5
 21
170.749984741211
 31
0.0
  0
LINE
  5
   103
  8
0
  6
CONTINUOUS
 62
     3
 10
77.0
 20
150.749984741211
 30
0.0
 11
77.0
 21
170.749984741211
 31
0.0
  0
LINE
  5
   104
  8
0
  6
CONTINUOUS
 62
     3
 10
-71.5
 20
150.749984741211
 30
0.0
 11
-71.5
 21
170.749984741211
 31
0.0
  0
LINE
  5
   105
  8
0
  6
CONTINUOUS
 62
     3
 10
-86.0
 20
150.749984741211
 30
0.0
 11
-86.0
 21
170.749984741211
 31
0.0
  0
LINE
  5
   106
  8
0
  6
CONTINUOUS
 62
     3
 10
78.0
 20
65.6249771118164
 30
0.0
 11
131.0
 21
65.6249771118164
 31
0.0
  0
POINT
  5
   107
  8
0
  6
CONTINUOUS
 62
     3
 10
4.30031180087553E-6
 20
72.749980198372
 30
0.0
  0
ENDBLK
  5
   108
  8
0
  6
CONTINUOUS
 62
     7
  0
BLOCK
  5
   109
  8
0
  6
CONTINUOUS
 62
     7
  2
*UDIM1153
 70
    65
 10
0.0
 20
0.0
 30
0.0
  3
*UDIM1153
  0
TEXT
  5
   10A
  8
0
  6
CONTINUOUS
 62
     7
 10
-17.1827212193621
 20
-144.462073989561
 30
0.0
 40
2.99999994933605
  1
107
 50
360.0
 41
0.933333333333333
 72
     1
 11
-13.2827212852328
 21
-142.962074014874
 31
0.0
 73
     2
  0
LINE
  5
   10B
  8
0
  6
CONTINUOUS
 62
     7
 10
-1.2021286636591
 20
-145.462073989542
 30
0.0
 11
-22.6021289825439
 21
-145.462073989542
 31
0.0
  0
LINE
  5
   10C
  8
0
  6
CONTINUOUS
 62
     7
 10
-4.15655194086606
 20
-145.983018419493
 30
0.0
 11
-1.2021286636591
 21
-145.462073989542
 31
0.0
  0
LINE
  5
   10D
  8
0
  6
CONTINUOUS
 62
     7
 10
-1.2021286636591
 20
-145.462073989542
 30
0.0
 11
-4.15655194086606
 21
-144.94112955959
 31
0.0
  0
LINE
  5
   10E
  8
0
  6
CONTINUOUS
 62
     7
 10
-19.647705705337
 20
-144.94112955959
 30
0.0
 11
-22.6021289825439
 21
-145.462073989542
 31
0.0
  0
LINE
  5
   10F
  8
0
  6
CONTINUOUS
 62
     7
 10
-22.6021289825439
 20
-145.462073989542
 30
0.0
 11
-19.647705705337
 21
-145.983018419493
 31
0.0
  0
ENDBLK
  5
   110
  8
0
  6
CONTINUOUS
 62
     7
  0
BLOCK
  5
   111
  8
0
  6
CONTINUOUS
 62
     7
  2
*UDIM1154
 70
    65
 10
0.0
 20
0.0
 30
0.0
  3
*UDIM1154
  0
TEXT
  5
   112
  8
0
  6
CONTINUOUS
 62
     7
 10
-40.4045507089458
 20
-188.084702772793
 30
0.0
 40
2.99999994933605
  1
2
 50
360.0
 41
0.933333333333333
 72
     1
 11
-39.3045507275301
 21
-186.58470279812
 31
0.0
 73
     2
  0
TEXT
  5
   113
  8
0
  6
CONTINUOUS
 62
     7
 10
-43.1545506837132
 20
-188.084703013206
 30
0.0
 40
2.99999994933605
  1
R
 50
360.0
 41
0.933333333333333
 72
     1
 11
-42.0545507022975
 21
-186.584703038533
 31
0.0
 73
     2
  0
LINE
  5
   114
  8
0
  6
CONTINUOUS
 62
     7
 10
-57.9122427081948
 20
-195.842633251618
 30
0.0
 11
-49.617132512348
 21
-189.084703674342
 31
0.0
  0
LINE
  5
   115
  8
0
  6
CONTINUOUS
 62
     7
 10
-49.617132512348
 20
-189.084703674342
 30
0.0
 11
-38.20455052755
 21
-189.084702676623
 31
0.0
  0
LINE
  5
   116
  8
0
  6
CONTINUOUS
 62
     7
 10
-55.9507643766113
 20
-193.572698725089
 30
0.0
 11
-57.9122427081948
 21
-195.842633251618
 31
0.0
  0
LINE
  5
   117
  8
0
  6
CONTINUOUS
 62
     7
 10
-57.9122427081948
 20
-195.842633251618
 30
0.0
 11
-55.2926927640712
 21
-194.380457444732
 31
0.0
  0
ENDBLK
  5
   118
  8
0
  6
CONTINUOUS
 62
     7
  0
BLOCK
  5
   119
  8
0
  6
CONTINUOUS
 62
     7
  2
*UDIM1155
 70
    65
 10
0.0
 20
0.0
 30
0.0
  3
*UDIM1155
  0
TEXT
  5
   11A
  8
0
  6
CONTINUOUS
 62
     7
 10
-33.7771290727629
 20
-121.555214822539
 30
0.0
 40
2.99999994933605
  1
284
 50
360.0
 41
0.933333333333333
 72
     1
 11
-29.8771291386336
 21
-120.055214847851
 31
0.0
 73
     2
  0
LINE
  5
   11B
  8
0
  6
CONTINUOUS
 62
     7
 10
-1.2021286636591
 20
-135.589986760169
 30
0.0
 11
-1.2021286636591
 21
-120.555214822519
 31
0.0
  0
LINE
  5
   11C
  8
0
  6
CONTINUOUS
 62
     7
 10
-58.0021295100451
 20
-135.589986760169
 30
0.0
 11
-58.0021295100451
 21
-120.555214822519
 31
0.0
  0
LINE
  5
   11D
  8
0
  6
CONTINUOUS
 62
     7
 10
-1.2021286636591
 20
-122.555214822519
 30
0.0
 11
-58.0021295100451
 21
-122.555214822519
 31
0.0
  0
LINE
  5
   11E
  8
0
  6
CONTINUOUS
 62
     7
 10
-4.15655194086606
 20
-123.076159252471
 30
0.0
 11
-1.2021286636591
 21
-122.555214822519
 31
0.0
  0
LINE
  5
   11F
  8
0
  6
CONTINUOUS
 62
     7
 10
-1.2021286636591
 20
-122.555214822519
 30
0.0
 11
-4.15655194086606
 21
-122.034270392568
 31
0.0
  0
LINE
  5
   120
  8
0
  6
CONTINUOUS
 62
     7
 10
-55.0477062328381
 20
-122.034270392568
 30
0.0
 11
-58.0021295100451
 21
-122.555214822519
 31
0.0
  0
LINE
  5
   121
  8
0
  6
CONTINUOUS
 62
     7
 10
-58.0021295100451
 20
-122.555214822519
 30
0.0
 11
-55.0477062328381
 21
-123.076159252471
 31
0.0
  0
ENDBLK
  5
   122
  8
0
  6
CONTINUOUS
 62
     7
  0
BLOCK
  5
   123
  8
0
  6
CONTINUOUS
 62
     7
  2
*UDIM1156
 70
    65
 10
0.0
 20
0.0
 30
0.0
  3
*UDIM1156
  0
TEXT
  5
   124
  8
0
  6
CONTINUOUS
 62
     7
 10
-80.7943905769559
 20
-149.764611517159
 30
0.0
 40
2.99999994933605
  1
77,5
 50
90.0
 41
0.933333333333333
 72
     1
 11
-82.2943905516306
 21
-144.464611606667
 31
0.0
 73
     2
  0
LINE
  5
   125
  8
0
  6
CONTINUOUS
 62
     7
 10
-58.6021295040846
 20
-136.189986754209
 30
0.0
 11
-81.7943905769626
 21
-136.189986754209
 31
0.0
  0
LINE
  5
   126
  8
0
  6
CONTINUOUS
 62
     7
 10
-58.6021295040846
 20
-151.689986985177
 30
0.0
 11
-81.7943905769626
 21
-151.689986985177
 31
0.0
  0
LINE
  5
   127
  8
0
  6
CONTINUOUS
 62
     7
 10
-79.7943905769625
 20
-136.189986754209
 30
0.0
 11
-79.7943905769625
 21
-151.689986985177
 31
0.0
  0
LINE
  5
   128
  8
0
  6
CONTINUOUS
 62
     7
 10
-80.3153350069142
 20
-133.235563477002
 30
0.0
 11
-79.7943905769625
 21
-136.189986754209
 31
0.0
  0
LINE
  5
   129
  8
0
  6
CONTINUOUS
 62
     7
 10
-79.7943905769625
 20
-136.189986754209
 30
0.0
 11
-79.2734461470109
 21
-133.235563477002
 31
0.0
  0
LINE
  5
   12A
  8
0
  6
CONTINUOUS
 62
     7
 10
-79.2734461470109
 20
-154.644410262384
 30
0.0
 11
-79.7943905769625
 21
-151.689986985177
 31
0.0
  0
LINE
  5
   12B
  8
0
  6
CONTINUOUS
 62
     7
 10
-79.7943905769625
 20
-151.689986985177
 30
0.0
 11
-80.3153350069142
 21
-154.644410262384
 31
0.0
  0
ENDBLK
  5
   12C
  8
0
  6
CONTINUOUS
 62
     7
  0
BLOCK
  5
   12D
  8
0
  6
CONTINUOUS
 62
     7
  2
*UDIM1157
 70
    65
 10
0.0
 20
0.0
 30
0.0
  3
*UDIM1157
  0
TEXT
  5
   12E
  8
0
  6
CONTINUOUS
 62
     7
 10
-80.7943905769559
 20
-162.313589365286
 30
0.0
 40
2.99999994933605
  1
57,5
 50
90.0
 41
0.933333333333333
 72
     1
 11
-82.2943905516306
 21
-157.013589454794
 31
0.0
 73
     2
  0
LINE
  5
   12F
  8
0
  6
CONTINUOUS
 62
     7
 10
-49.3313418234612
 20
-163.18998715654
 30
0.0
 11
-81.7943905769626
 21
-163.18998715654
 31
0.0
  0
LINE
  5
   130
  8
0
  6
CONTINUOUS
 62
     7
 10
-79.7943905769625
 20
-151.689986985177
 30
0.0
 11
-79.7943905769625
 21
-163.18998715654
 31
0.0
  0
LINE
  5
   131
  8
0
  6
CONTINUOUS
 62
     7
 10
-80.3153350069142
 20
-148.73556370797
 30
0.0
 11
-79.7943905769625
 21
-151.689986985177
 31
0.0
  0
LINE
  5
   132
  8
0
  6
CONTINUOUS
 62
     7
 10
-79.7943905769625
 20
-151.689986985177
 30
0.0
 11
-79.2734461470109
 21
-148.73556370797
 31
0.0
  0
LINE
  5
   133
  8
0
  6
CONTINUOUS
 62
     7
 10
-79.2734461470109
 20
-166.144410433747
 30
0.0
 11
-79.7943905769625
 21
-163.18998715654
 31
0.0
  0
LINE
  5
   134
  8
0
  6
CONTINUOUS
 62
     7
 10
-79.7943905769625
 20
-163.18998715654
 30
0.0
 11
-80.3153350069142
 21
-166.144410433747
 31
0.0
  0
ENDBLK
  5
   135
  8
0
  6
CONTINUOUS
 62
     7
  0
BLOCK
  5
   136
  8
0
  6
CONTINUOUS
 62
     7
  2
*UDIM1158
 70
    65
 10
0.0
 20
0.0
 30
0.0
  3
*UDIM1158
  0
TEXT
  5
   137
  8
0
  6
CONTINUOUS
 62
     7
 10
-80.7943905769559
 20
-177.41498727155
 30
0.0
 40
2.99999994933605
  1
86,5
 50
90.0
 41
0.933333333333333
 72
     1
 11
-82.2943905516306
 21
-172.114987361059
 31
0.0
 73
     2
  0
LINE
  5
   138
  8
0
  6
CONTINUOUS
 62
     7
 10
-58.6021295040846
 20
-180.48998741433
 30
0.0
 11
-81.7943905769626
 21
-180.48998741433
 31
0.0
  0
LINE
  5
   139
  8
0
  6
CONTINUOUS
 62
     7
 10
-79.7943905769625
 20
-163.18998715654
 30
0.0
 11
-79.7943905769625
 21
-180.48998741433
 31
0.0
  0
LINE
  5
   13A
  8
0
  6
CONTINUOUS
 62
     7
 10
-79.2734461470109
 20
-166.144410433747
 30
0.0
 11
-79.7943905769625
 21
-163.18998715654
 31
0.0
  0
LINE
  5
   13B
  8
0
  6
CONTINUOUS
 62
     7
 10
-79.7943905769625
 20
-163.18998715654
 30
0.0
 11
-80.3153350069142
 21
-166.144410433747
 31
0.0
  0
LINE
  5
   13C
  8
0
  6
CONTINUOUS
 62
     7
 10
-80.3153350069142
 20
-177.535564137123
 30
0.0
 11
-79.7943905769625
 21
-180.48998741433
 31
0.0
  0
LINE
  5
   13D
  8
0
  6
CONTINUOUS
 62
     7
 10
-79.7943905769625
 20
-180.48998741433
 30
0.0
 11
-79.2734461470109
 21
-177.535564137123
 31
0.0
  0
ENDBLK
  5
   13E
  8
0
  6
CONTINUOUS
 62
     7
  0
BLOCK
  5
   13F
  8
0
  6
CONTINUOUS
 62
     7
  2
*UDIM1159
 70
    65
 10
0.0
 20
0.0
 30
0.0
  3
*UDIM1159
  0
TEXT
  5
   140
  8
0
  6
CONTINUOUS
 62
     7
 10
-80.7943905769559
 20
-194.383188231832
 30
0.0
 40
2.99999994933605
  1
77,5
 50
90.0
 41
0.933333333333333
 72
     1
 11
-82.2943905516306
 21
-189.08318832134
 31
0.0
 73
     2
  0
LINE
  5
   141
  8
0
  6
CONTINUOUS
 62
     7
 10
-58.6021295040846
 20
-195.989987645298
 30
0.0
 11
-81.7943905769626
 21
-195.989987645298
 31
0.0
  0
LINE
  5
   142
  8
0
  6
CONTINUOUS
 62
     7
 10
-79.7943905769625
 20
-180.48998741433
 30
0.0
 11
-79.7943905769625
 21
-195.989987645298
 31
0.0
  0
LINE
  5
   143
  8
0
  6
CONTINUOUS
 62
     7
 10
-79.2734461470109
 20
-183.444410691537
 30
0.0
 11
-79.7943905769625
 21
-180.48998741433
 31
0.0
  0
LINE
  5
   144
  8
0
  6
CONTINUOUS
 62
     7
 10
-79.7943905769625
 20
-180.48998741433
 30
0.0
 11
-80.3153350069142
 21
-183.444410691537
 31
0.0
  0
LINE
  5
   145
  8
0
  6
CONTINUOUS
 62
     7
 10
-80.3153350069142
 20
-193.035564368091
 30
0.0
 11
-79.7943905769625
 21
-195.989987645298
 31
0.0
  0
LINE
  5
   146
  8
0
  6
CONTINUOUS
 62
     7
 10
-79.7943905769625
 20
-195.989987645298
 30
0.0
 11
-79.2734461470109
 21
-193.035564368091
 31
0.0
  0
ENDBLK
  5
   147
  8
0
  6
CONTINUOUS
 62
     7
  0
BLOCK
  5
   148
  8
0
  6
CONTINUOUS
 62
     7
  2
*UDIM1160
 70
    65
 10
0.0
 20
0.0
 30
0.0
  3
*UDIM1160
  0
TEXT
  5
   149
  8
0
  6
CONTINUOUS
 62
     7
 10
-17.8935473376152
 20
-187.387538496381
 30
0.0
 40
2.99999994933605
  1
70
 50
360.0
 41
0.933333333333333
 72
     1
 11
-15.3935473798427
 21
-185.8875385217
 31
0.0
 73
     2
  0
LINE
  5
   14A
  8
0
  6
CONTINUOUS
 62
     7
 10
-8.60212877392769
 20
-175.76679993122
 30
0.0
 11
-8.60212877392769
 21
-190.387538496368
 31
0.0
  0
LINE
  5
   14B
  8
0
  6
CONTINUOUS
 62
     7
 10
-8.60212877392769
 20
-188.387538496368
 30
0.0
 11
-22.6021289825439
 21
-188.387538496368
 31
0.0
  0
LINE
  5
   14C
  8
0
  6
CONTINUOUS
 62
     7
 10
-11.5565520511347
 20
-188.90848292632
 30
0.0
 11
-8.60212877392769
 21
-188.387538496368
 31
0.0
  0
LINE
  5
   14D
  8
0
  6
CONTINUOUS
 62
     7
 10
-8.60212877392769
 20
-188.387538496368
 30
0.0
 11
-11.5565520511347
 21
-187.866594066417
 31
0.0
  0
LINE
  5
   14E
  8
0
  6
CONTINUOUS
 62
     7
 10
-19.647705705337
 20
-187.866594066417
 30
0.0
 11
-22.6021289825439
 21
-188.387538496368
 31
0.0
  0
LINE
  5
   14F
  8
0
  6
CONTINUOUS
 62
     7
 10
-22.6021289825439
 20
-188.387538496368
 30
0.0
 11
-19.647705705337
 21
-188.90848292632
 31
0.0
  0
ENDBLK
  5
   150
  8
0
  6
CONTINUOUS
 62
     7
  0
BLOCK
  5
   151
  8
0
  6
CONTINUOUS
 62
     7
  2
*UDIM1161
 70
    65
 10
0.0
 20
0.0
 30
0.0
  3
*UDIM1161
  0
TEXT
  5
   152
  8
0
  6
CONTINUOUS
 62
     7
 10
-0.20519450344218
 20
-179.235747237364
 30
0.0
 40
2.99999994933605
  1
8,5
 50
345.453431429507
 41
0.933333333333333
 72
     1
 11
3.94653652783077
 21
-178.763382066932
 31
0.0
 73
     2
  0
TEXT
  5
   153
  8
0
  6
CONTINUOUS
 62
     7
 10
-3.25421748276783
 20
-178.444571806518
 30
0.0
 40
2.99999994933605
  1
Ø
 50
345.453431429507
 41
0.933333333333333
 72
     1
 11
-1.81272909624365
 21
-177.26893958739
 31
0.0
 73
     2
  0
TEXT
  5
   154
  8
0
  6
CONTINUOUS
 62
     7
 10
7.87713626123525
 20
-181.332990048676
 30
0.0
 40
2.99999994933605
  1
 - M8
 50
345.453431429507
 41
0.933333333333333
 72
     1
 11
14.739109937257
 21
-181.56389192694
 31
0.0
 73
     2
  0
LINE
  5
   155
  8
0
  6
CONTINUOUS
 62
     7
 10
20.5964163965943
 20
-185.666569028364
 30
0.0
 11
-9.42488103152284
 21
-177.876495589137
 31
0.0
  0
LINE
  5
   156
  8
0
  6
CONTINUOUS
 62
     7
 10
-4.78881682000364
 20
-178.541287289586
 30
0.0
 11
-7.77937651633254
 21
-178.303479167998
 31
0.0
  0
LINE
  5
   157
  8
0
  6
CONTINUOUS
 62
     7
 10
-7.77937651633254
 20
-178.303479167998
 30
0.0
 11
-5.05050471856127
 21
-179.549777170616
 31
0.0
  0
LINE
  5
   158
  8
0
  6
CONTINUOUS
 62
     7
 10
-12.4154407278517
 20
-177.638687467549
 30
0.0
 11
-9.42488103152284
 21
-177.876495589137
 31
0.0
  0
LINE
  5
   159
  8
0
  6
CONTINUOUS
 62
     7
 10
-9.42488103152284
 20
-177.876495589137
 30
0.0
 11
-12.1537528292941
 21
-176.630197586519
 31
0.0
  0
ENDBLK
  5
   15A
  8
0
  6
CONTINUOUS
 62
     7
  0
BLOCK
  5
   15B
  8
0
  6
CONTINUOUS
 62
     7
  2
*UDIM1162
 70
    65
 10
0.0
 20
0.0
 30
0.0
  3
*UDIM1162
  0
TEXT
  5
   15C
  8
0
  6
CONTINUOUS
 62
     7
 10
-72.8109553994014
 20
-171.712766242812
 30
0.0
 40
2.99999994933605
  1
120
 50
90.0
 41
0.933333333333333
 72
     1
 11
-74.3109553740744
 21
-167.812766308677
 31
0.0
 73
     2
  0
LINE
  5
   15D
  8
0
  6
CONTINUOUS
 62
     7
 10
-54.4521294422448
 20
-154.08998702094
 30
0.0
 11
-73.8109553994063
 21
-154.08998702094
 31
0.0
  0
LINE
  5
   15E
  8
0
  6
CONTINUOUS
 62
     7
 10
-40.4521292336285
 20
-178.089987378567
 30
0.0
 11
-73.8109553994063
 21
-178.089987378567
 31
0.0
  0
LINE
  5
   15F
  8
0
  6
CONTINUOUS
 62
     7
 10
-71.8109553994063
 20
-154.08998702094
 30
0.0
 11
-71.8109553994063
 21
-178.089987378567
 31
0.0
  0
LINE
  5
   160
  8
0
  6
CONTINUOUS
 62
     7
 10
-71.2900109694547
 20
-157.044410298147
 30
0.0
 11
-71.8109553994063
 21
-154.08998702094
 31
0.0
  0
LINE
  5
   161
  8
0
  6
CONTINUOUS
 62
     7
 10
-71.8109553994063
 20
-154.08998702094
 30
0.0
 11
-72.331899829358
 21
-157.044410298147
 31
0.0
  0
LINE
  5
   162
  8
0
  6
CONTINUOUS
 62
     7
 10
-72.331899829358
 20
-175.135564101361
 30
0.0
 11
-71.8109553994063
 21
-178.089987378567
 31
0.0
  0
LINE
  5
   163
  8
0
  6
CONTINUOUS
 62
     7
 10
-71.8109553994063
 20
-178.089987378567
 30
0.0
 11
-71.2900109694547
 21
-175.135564101361
 31
0.0
  0
ENDBLK
  5
   164
  8
0
  6
CONTINUOUS
 62
     7
  0
BLOCK
  5
   165
  8
0
  6
CONTINUOUS
 62
     7
  2
*UDIM1163
 70
    65
 10
0.0
 20
0.0
 30
0.0
  3
*UDIM1163
  0
TEXT
  5
   166
  8
0
  6
CONTINUOUS
 62
     7
 10
-66.86391551586
 20
-151.164988334748
 30
0.0
 40
2.99999994933605
  1
45,5
 50
90.0
 41
0.933333333333333
 72
     1
 11
-68.3639154905347
 21
-145.864988424256
 31
0.0
 73
     2
  0
LINE
  5
   167
  8
0
  6
CONTINUOUS
 62
     7
 10
-12.452128816396
 20
-154.08998702094
 30
0.0
 11
-67.8639155158667
 21
-154.08998702094
 31
0.0
  0
LINE
  5
   168
  8
0
  6
CONTINUOUS
 62
     7
 10
-49.3313418234612
 20
-163.18998715654
 30
0.0
 11
-67.8639155158667
 21
-163.18998715654
 31
0.0
  0
LINE
  5
   169
  8
0
  6
CONTINUOUS
 62
     7
 10
-65.8639155158667
 20
-140.564988513763
 30
0.0
 11
-65.8639155158667
 21
-163.18998715654
 31
0.0
  0
LINE
  5
   16A
  8
0
  6
CONTINUOUS
 62
     7
 10
-66.3848599458183
 20
-151.135563743733
 30
0.0
 11
-65.8639155158667
 21
-154.08998702094
 31
0.0
  0
LINE
  5
   16B
  8
0
  6
CONTINUOUS
 62
     7
 10
-65.8639155158667
 20
-154.08998702094
 30
0.0
 11
-65.342971085915
 21
-151.135563743733
 31
0.0
  0
LINE
  5
   16C
  8
0
  6
CONTINUOUS
 62
     7
 10
-65.342971085915
 20
-166.144410433747
 30
0.0
 11
-65.8639155158667
 21
-163.18998715654
 31
0.0
  0
LINE
  5
   16D
  8
0
  6
CONTINUOUS
 62
     7
 10
-65.8639155158667
 20
-163.18998715654
 30
0.0
 11
-66.3848599458183
 21
-166.144410433747
 31
0.0
  0
ENDBLK
  5
   16E
  8
0
  6
CONTINUOUS
 62
     7
  0
BLOCK
  5
   16F
  8
0
  6
CONTINUOUS
 62
     7
  2
*UDIM1164
 70
    65
 10
0.0
 20
0.0
 30
0.0
  3
*UDIM1164
  0
TEXT
  5
   170
  8
0
  6
CONTINUOUS
 62
     7
 10
-33.7771290727629
 20
-127.459337835322
 30
0.0
 40
2.99999994933605
  1
210
 50
360.0
 41
0.933333333333333
 72
     1
 11
-29.8771291386336
 21
-125.959337860634
 31
0.0
 73
     2
  0
LINE
  5
   171
  8
0
  6
CONTINUOUS
 62
     7
 10
-8.60212877392769
 20
-150.239986978471
 30
0.0
 11
-8.60212877392769
 21
-126.459337835302
 31
0.0
  0
LINE
  5
   172
  8
0
  6
CONTINUOUS
 62
     7
 10
-50.6021293997765
 20
-150.239986978471
 30
0.0
 11
-50.6021293997765
 21
-126.459337835302
 31
0.0
  0
LINE
  5
   173
  8
0
  6
CONTINUOUS
 62
     7
 10
-8.60212877392769
 20
-128.459337835302
 30
0.0
 11
-50.6021293997765
 21
-128.459337835302
 31
0.0
  0
LINE
  5
   174
  8
0
  6
CONTINUOUS
 62
     7
 10
-11.5565520511347
 20
-128.980282265254
 30
0.0
 11
-8.60212877392769
 21
-128.459337835302
 31
0.0
  0
LINE
  5
   175
  8
0
  6
CONTINUOUS
 62
     7
 10
-8.60212877392769
 20
-128.459337835302
 30
0.0
 11
-11.5565520511347
 21
-127.938393405351
 31
0.0
  0
LINE
  5
   176
  8
0
  6
CONTINUOUS
 62
     7
 10
-47.6477061225695
 20
-127.938393405351
 30
0.0
 11
-50.6021293997765
 21
-128.459337835302
 31
0.0
  0
LINE
  5
   177
  8
0
  6
CONTINUOUS
 62
     7
 10
-50.6021293997765
 20
-128.459337835302
 30
0.0
 11
-47.6477061225695
 21
-128.980282265254
 31
0.0
  0
ENDBLK
  5
   178
  8
0
  6
CONTINUOUS
 62
     7
  0
BLOCK
  5
   179
  8
0
  6
CONTINUOUS
 62
     7
  2
$1BASETT
 70
    64
 10
0.0
 20
0.0
 30
0.0
  3
$1BASETT
  0
LINE
  5
   17A
  8
0
  6
CONTINUOUS
 62
     1
 10
9.37916411203332E-13
 20
8.29115314964895E-16
 30
0.0
 11
48.5000000000009
 21
8.29115314964895E-16
 31
0.0
  0
LINE
  5
   17B
  8
0
  6
CONTINUOUS
 62
     1
 10
-2.00000000000001
 20
16.4999999606765
 30
0.0
 11
48.5000000000058
 21
16.4999900306657
 31
0.0
  0
LINE
  5
   17C
  8
0
  6
CONTINUOUS
 62
     1
 10
-2.5
 20
278.499999567409
 30
0.0
 11
48.5
 21
278.499999567409
 31
0.0
  0
LINE
  5
   17D
  8
0
  6
CONTINUOUS
 62
     1
 10
1.49317556230405E-11
 20
294.999952060667
 30
0.0
 11
48.5000000000149
 21
294.999952060667
 31
0.0
  0
LINE
  5
   17E
  8
0
  6
CONTINUOUS
 62
     1
 10
0.0
 20
0.0
 30
0.0
 11
0.0
 21
16.4999995674088
 31
0.0
  0
LINE
  5
   17F
  8
0
  6
CONTINUOUS
 62
     1
 10
0.0
 20
224.499952060667
 30
0.0
 11
0.0
 21
263.499999567409
 31
0.0
  0
LINE
  5
   180
  8
0
  6
CONTINUOUS
 62
     1
 10
48.5
 20
74.4999564682283
 30
0.0
 11
48.5
 21
81.4999995674093
 31
0.0
  0
LINE
  5
   181
  8
0
  6
CONTINUOUS
 62
     1
 10
45.5000901428785
 20
77.4999576057394
 30
0.0
 11
47.5
 21
77.4999576057394
 31
0.0
  0
LINE
  5
   182
  8
0
  6
CONTINUOUS
 62
     1
 10
49.5
 20
198.49998430862
 30
0.0
 11
49.5
 21
216.49998430862
 31
0.0
  0
LINE
  5
   183
  8
0
  6
CONTINUOUS
 62
     1
 10
49.5
 20
78.4999919380148
 30
0.0
 11
49.5
 21
96.4999919380148
 31
0.0
  0
LINE
  5
   184
  8
0
  6
CONTINUOUS
 62
     1
 10
48.5
 20
294.999999567409
 30
0.0
 11
61.0
 21
294.999999567409
 31
0.0
  0
LINE
  5
   185
  8
0
  6
CONTINUOUS
 62
     1
 10
48.5
 20
278.499999567409
 30
0.0
 11
63.0
 21
278.499999567409
 31
0.0
  0
LINE
  5
   186
  8
0
  6
CONTINUOUS
 62
     1
 10
63.0
 20
223.499960071298
 30
0.0
 11
63.0
 21
293.000130967507
 31
0.0
  0
LINE
  5
   187
  8
0
  6
CONTINUOUS
 62
     1
 10
48.5000000000152
 20
3.42048471119702E-5
 30
0.0
 11
61.0000000000152
 21
3.42048471119702E-5
 31
0.0
  0
LINE
  5
   188
  8
0
  6
CONTINUOUS
 62
     1
 10
48.5000000000458
 20
16.499990030663
 30
0.0
 11
63.0000000000458
 21
16.4999824012685
 31
0.0
  0
LINE
  5
   189
  8
0
  6
CONTINUOUS
 62
     1
 10
63.0
 20
1.99997801527987
 30
0.0
 11
63.0
 21
71.5000155985656
 31
0.0
  0
LINE
  5
   18A
  8
0
  6
CONTINUOUS
 62
     1
 10
47.5
 20
143.499991938015
 30
0.0
 11
47.5
 21
151.499991938015
 31
0.0
  0
LINE
  5
   18B
  8
0
  6
CONTINUOUS
 62
     1
 10
48.5
 20
216.49998430862
 30
0.0
 11
49.5
 21
216.49998430862
 31
0.0
  0
LINE
  5
   18C
  8
0
  6
CONTINUOUS
 62
     1
 10
45.5
 20
198.49998430862
 30
0.0
 11
49.5
 21
198.49998430862
 31
0.0
  0
LINE
  5
   18D
  8
0
  6
CONTINUOUS
 62
     1
 10
45.5
 20
96.4999919380148
 30
0.0
 11
49.5
 21
96.4999919380148
 31
0.0
  0
LINE
  5
   18E
  8
0
  6
CONTINUOUS
 62
     1
 10
48.5
 20
78.4999919380148
 30
0.0
 11
49.5
 21
78.4999919380148
 31
0.0
  0
LINE
  5
   18F
  8
0
  6
CONTINUOUS
 62
     1
 10
45.5
 20
151.499991938015
 30
0.0
 11
47.5
 21
151.499991938015
 31
0.0
  0
LINE
  5
   190
  8
0
  6
CONTINUOUS
 62
     1
 10
45.5
 20
143.499991938015
 30
0.0
 11
47.5
 21
143.499991938015
 31
0.0
  0
ARC
  5
   191
  8
0
  6
CONTINUOUS
 62
     1
 10
61.0001195664684
 20
293.000130967507
 30
0.0
 40
1.99983675500225
 50
359.996219692575
 51
450.003067297461
  0
ARC
  5
   192
  8
0
  6
CONTINUOUS
 62
     1
 10
60.999997541172
 20
1.99997801527987
 30
0.0
 40
1.99998559606681
 50
270.000149683848
 51
360.00043490088
  0
LINE
  5
   193
  8
0
  6
CONTINUOUS
 62
     1
 10
-2.5
 20
263.499999567409
 30
0.0
 11
-2.5
 21
278.499999567409
 31
0.0
  0
LINE
  5
   194
  8
0
  6
CONTINUOUS
 62
     1
 10
-2.0
 20
16.4999999606765
 30
0.0
 11
-2.0
 21
31.499999567409
 31
0.0
  0
LINE
  5
   195
  8
0
  6
CONTINUOUS
 62
     1
 10
-2.5
 20
263.499999567409
 30
0.0
 11
-1.92386683707583E-15
 21
263.499999567409
 31
0.0
  0
LINE
  5
   196
  8
0
  6
CONTINUOUS
 62
     1
 10
-2.0
 20
31.499999567409
 30
0.0
 11
-1.92881868216852E-15
 21
31.499999567409
 31
0.0
  0
LINE
  5
   197
  8
0
  6
CONTINUOUS
 62
     1
 10
0.0
 20
31.499999567409
 30
0.0
 11
0.0
 21
85.5
 31
0.0
  0
LINE
  5
   198
  8
0
  6
CONTINUOUS
 62
     1
 10
0.0
 20
278.499999567409
 30
0.0
 11
0.0
 21
294.999952060667
 31
0.0
  0
LINE
  5
   199
  8
0
  6
CONTINUOUS
 62
     1
 10
49.5
 20
73.499980493923
 30
0.0
 11
61.0
 21
73.499980493923
 31
0.0
  0
LINE
  5
   19A
  8
0
  6
CONTINUOUS
 62
     1
 10
48.7928895797786
 20
73.7928770569176
 30
0.0
 11
49.1173066946318
 21
73.5761030782846
 31
0.0
  0
LINE
  5
   19B
  8
0
  6
CONTINUOUS
 62
     1
 10
45.5
 20
217.499953791042
 30
0.0
 11
47.5
 21
217.499953791042
 31
0.0
  0
LINE
  5
   19C
  8
0
  6
CONTINUOUS
 62
     1
 10
48.5
 20
218.499953791042
 30
0.0
 11
48.5
 21
220.49998430862
 31
0.0
  0
LINE
  5
   19D
  8
0
  6
CONTINUOUS
 62
     1
 10
49.5
 20
221.49998430862
 30
0.0
 11
61.0
 21
221.49998430862
 31
0.0
  0
LINE
  5
   19E
  8
0
  6
CONTINUOUS
 62
     1
 10
48.5
 20
213.499999567409
 30
0.0
 11
48.5
 21
218.49998430862
 31
0.0
  0
LINE
  5
   19F
  8
0
  6
CONTINUOUS
 62
     1
 10
85.0
 20
20.4999995674093
 30
0.0
 11
85.0
 21
66.4999995674093
 31
0.0
  0
LINE
  5
   1A0
  8
0
  6
CONTINUOUS
 62
     1
 10
85.0
 20
228.499999567409
 30
0.0
 11
85.0
 21
274.499999567409
 31
0.0
  0
LINE
  5
   1A1
  8
0
  6
CONTINUOUS
 62
     1
 10
65.0
 20
18.4999995674093
 30
0.0
 11
83.0
 21
18.4999995674093
 31
0.0
  0
LINE
  5
   1A2
  8
0
  6
CONTINUOUS
 62
     1
 10
65.0
 20
68.4999995674093
 30
0.0
 11
83.0
 21
68.4999995674093
 31
0.0
  0
LINE
  5
   1A3
  8
0
  6
CONTINUOUS
 62
     1
 10
65.0
 20
276.499999567409
 30
0.0
 11
83.0
 21
276.499999567409
 31
0.0
  0
LINE
  5
   1A4
  8
0
  6
CONTINUOUS
 62
     1
 10
65.0
 20
226.499999567409
 30
0.0
 11
83.0
 21
226.499999567409
 31
0.0
  0
ARC
  5
   1A5
  8
0
  6
CONTINUOUS
 62
     1
 10
64.9999165137627
 20
278.499791758427
 30
0.0
 40
1.99978487451056
 50
179.993632987589
 51
270.002663206323
  0
ARC
  5
   1A6
  8
0
  6
CONTINUOUS
 62
     1
 10
82.9999340347904
 20
274.4999314475
 30
0.0
 40
2.0000757729629
 50
0.002355312465183
 51
89.9978053040706
  0
ARC
  5
   1A7
  8
0
  6
CONTINUOUS
 62
     1
 10
82.9999116167853
 20
228.500087346486
 30
0.0
 40
2.00011549437606
 50
270.002897544432
 51
359.997857039135
  0
ARC
  5
   1A8
  8
0
  6
CONTINUOUS
 62
     1
 10
64.9999184375488
 20
224.50012847784
 30
0.0
 40
1.99984640930379
 50
89.9973313750434
 51
180.003331076003
  0
ARC
  5
   1A9
  8
0
  6
CONTINUOUS
 62
     1
 10
61.0000256605929
 20
223.499960071298
 30
0.0
 40
1.99997025751221
 50
269.999590543356
 51
360.001042404463
  0
ARC
  5
   1AA
  8
0
  6
CONTINUOUS
 62
     1
 10
49.4998375253428
 20
220.500158338518
 30
0.0
 40
0.999767477268007
 50
90.0
 51
180.0
  0
ARC
  5
   1AB
  8
0
  6
CONTINUOUS
 62
     1
 10
47.4999789081749
 20
218.49996520695
 30
0.0
 40
1.00002296670393
 50
270.001612621459
 51
359.998496043313
  0
ARC
  5
   1AC
  8
0
  6
CONTINUOUS
 62
     1
 10
61.0000128593571
 20
71.5000155985656
 30
0.0
 40
1.99996077363452
 50
359.998963444352
 51
450.00007365585
  0
ARC
  5
   1AD
  8
0
  6
CONTINUOUS
 62
     1
 10
65.0000025173283
 20
70.5000043721036
 30
0.0
 40
2.00000239651892
 50
180.000166916245
 51
270.000162708079
  0
ARC
  5
   1AE
  8
0
  6
CONTINUOUS
 62
     1
 10
83.0000105972873
 20
66.500007360899
 30
0.0
 40
1.99998409967202
 50
359.99975548358
 51
450.00004232059
  0
ARC
  5
   1AF
  8
0
  6
CONTINUOUS
 62
     1
 10
82.9999123216256
 20
20.500063832728
 30
0.0
 40
2.00010029490385
 50
270.002773926169
 51
359.998166697101
  0
ARC
  5
   1B0
  8
0
  6
CONTINUOUS
 62
     1
 10
64.9999636318814
 20
16.5000487387311
 30
0.0
 40
1.9999391421224
 50
89.9987223290514
 51
180.001392964213
  0
ARC
  5
   1B1
  8
0
  6
CONTINUOUS
 62
     1
 10
49.4999889213575
 20
74.4999564682283
 30
0.0
 40
0.999975386078343
 50
180.0
 51
270.0
  0
ARC
  5
   1B2
  8
0
  6
CONTINUOUS
 62
     1
 10
47.5
 20
76.4999576057394
 30
0.0
 40
1.0
 50
0.0
 51
90.0
  0
LINE
  5
   1B3
  8
0
  6
DASHDOT
 62
     1
 10
-4.2589963029921
 20
251.499999567409
 30
0.0
 11
89.4453946237602
 21
251.499999567409
 31
0.0
  0
LINE
  5
   1B4
  8
0
  6
CONTINUOUS
 62
     1
 10
47.5
 20
85.4999919380148
 30
0.0
 11
47.5
 21
89.4999919380148
 31
0.0
  0
LINE
  5
   1B5
  8
0
  6
CONTINUOUS
 62
     1
 10
47.5
 20
205.49998430862
 30
0.0
 11
47.5
 21
209.49998430862
 31
0.0
  0
LINE
  5
   1B6
  8
0
  6
CONTINUOUS
 62
     1
 10
45.5
 20
209.49998430862
 30
0.0
 11
47.5
 21
209.49998430862
 31
0.0
  0
LINE
  5
   1B7
  8
0
  6
CONTINUOUS
 62
     1
 10
45.5
 20
205.49998430862
 30
0.0
 11
47.5
 21
205.49998430862
 31
0.0
  0
LINE
  5
   1B8
  8
0
  6
CONTINUOUS
 62
     1
 10
45.5
 20
89.4999919380148
 30
0.0
 11
47.5
 21
89.4999919380148
 31
0.0
  0
LINE
  5
   1B9
  8
0
  6
CONTINUOUS
 62
     1
 10
45.5
 20
85.4999919380148
 30
0.0
 11
47.5
 21
85.4999919380148
 31
0.0
  0
LINE
  5
   1BA
  8
0
  6
DASHDOT
 62
     1
 10
-4.2589963029921
 20
43.4999995674093
 30
0.0
 11
99.2454243656788
 21
43.4999995674093
 31
0.0
  0
ENDBLK
  5
   1BB
  8
0
  6
CONTINUOUS
 62
     7
  0
BLOCK
  5
   1BC
  8
0
  6
CONTINUOUS
 62
     7
  2
*HATCH255
 70
    65
 10
0.0
 20
0.0
 30
0.0
  3
*HATCH255
  0
LINE
  5
   1BD
  8
0
  6
CONTINUOUS
 62
    52
 10
217.690933227539
 20
39.5000152587891
 30
0.0
 11
215.690933227539
 21
37.5000152587891
 31
0.0
  0
LINE
  5
   1BE
  8
0
  6
CONTINUOUS
 62
    52
 10
221.933578491211
 20
39.5000152587891
 30
0.0
 11
219.933578491211
 21
37.5000152587891
 31
0.0
  0
LINE
  5
   1BF
  8
0
  6
CONTINUOUS
 62
    52
 10
226.176223754883
 20
39.5000152587891
 30
0.0
 11
224.176223754883
 21
37.5000152587891
 31
0.0
  0
LINE
  5
   1C0
  8
0
  6
CONTINUOUS
 62
    52
 10
230.418869018555
 20
39.5000152587891
 30
0.0
 11
228.418869018555
 21
37.5000152587891
 31
0.0
  0
LINE
  5
   1C1
  8
0
  6
CONTINUOUS
 62
    52
 10
234.661514282227
 20
39.5000152587891
 30
0.0
 11
232.661514282227
 21
37.5000152587891
 31
0.0
  0
LINE
  5
   1C2
  8
0
  6
CONTINUOUS
 62
    52
 10
238.904159545898
 20
39.5000152587891
 30
0.0
 11
236.904159545898
 21
37.5000152587891
 31
0.0
  0
LINE
  5
   1C3
  8
0
  6
CONTINUOUS
 62
    52
 10
242.12809753418
 20
38.4813385009766
 30
0.0
 11
241.146774291992
 21
37.5000152587891
 31
0.0
  0
ENDBLK
  5
   1C4
  8
0
  6
CONTINUOUS
 62
     7
  0
BLOCK
  5
   1C5
  8
0
  6
CONTINUOUS
 62
     7
  2
*HATCH256
 70
    65
 10
0.0
 20
0.0
 30
0.0
  3
*HATCH256
  0
LINE
  5
   1C6
  8
0
  6
CONTINUOUS
 62
    52
 10
128.595474243164
 20
39.5000114440918
 30
0.0
 11
126.595474243164
 21
37.5000152587891
 31
0.0
  0
LINE
  5
   1C7
  8
0
  6
CONTINUOUS
 62
    52
 10
132.838119506836
 20
39.5000114440918
 30
0.0
 11
130.838119506836
 21
37.5000152587891
 31
0.0
  0
LINE
  5
   1C8
  8
0
  6
CONTINUOUS
 62
    52
 10
137.080764770508
 20
39.5000114440918
 30
0.0
 11
135.080764770508
 21
37.5000152587891
 31
0.0
  0
LINE
  5
   1C9
  8
0
  6
CONTINUOUS
 62
    52
 10
141.32341003418
 20
39.5000114440918
 30
0.0
 11
139.32341003418
 21
37.5000152587891
 31
0.0
  0
LINE
  5
   1CA
  8
0
  6
CONTINUOUS
 62
    52
 10
145.566055297852
 20
39.5000114440918
 30
0.0
 11
143.566055297852
 21
37.5000152587891
 31
0.0
  0
LINE
  5
   1CB
  8
0
  6
CONTINUOUS
 62
    52
 10
149.808700561523
 20
39.5000114440918
 30
0.0
 11
147.808700561523
 21
37.5000152587891
 31
0.0
  0
LINE
  5
   1CC
  8
0
  6
CONTINUOUS
 62
    52
 10
154.051345825195
 20
39.5000114440918
 30
0.0
 11
152.051345825195
 21
37.5000152587891
 31
0.0
  0
LINE
  5
   1CD
  8
0
  6
CONTINUOUS
 62
    52
 10
158.293991088867
 20
39.5000114440918
 30
0.0
 11
156.293991088867
 21
37.5000152587891
 31
0.0
  0
LINE
  5
   1CE
  8
0
  6
CONTINUOUS
 62
    52
 10
162.536636352539
 20
39.5000114440918
 30
0.0
 11
160.536636352539
 21
37.5000152587891
 31
0.0
  0
LINE
  5
   1CF
  8
0
  6
CONTINUOUS
 62
    52
 10
166.779281616211
 20
39.5000114440918
 30
0.0
 11
164.779281616211
 21
37.5000152587891
 31
0.0
  0
LINE
  5
   1D0
  8
0
  6
CONTINUOUS
 62
    52
 10
171.021926879883
 20
39.5000114440918
 30
0.0
 11
169.021926879883
 21
37.5000152587891
 31
0.0
  0
LINE
  5
   1D1
  8
0
  6
CONTINUOUS
 62
    52
 10
175.264572143555
 20
39.5000114440918
 30
0.0
 11
173.264572143555
 21
37.5000152587891
 31
0.0
  0
LINE
  5
   1D2
  8
0
  6
CONTINUOUS
 62
    52
 10
179.507217407227
 20
39.5000114440918
 30
0.0
 11
177.507217407227
 21
37.5000152587891
 31
0.0
  0
LINE
  5
   1D3
  8
0
  6
CONTINUOUS
 62
    52
 10
183.749862670898
 20
39.5000114440918
 30
0.0
 11
181.749862670898
 21
37.5000152587891
 31
0.0
  0
LINE
  5
   1D4
  8
0
  6
CONTINUOUS
 62
    52
 10
187.99250793457
 20
39.5000114440918
 30
0.0
 11
185.99250793457
 21
37.5000152587891
 31
0.0
  0
LINE
  5
   1D5
  8
0
  6
CONTINUOUS
 62
    52
 10
192.235153198242
 20
39.5000114440918
 30
0.0
 11
190.235153198242
 21
37.5000152587891
 31
0.0
  0
LINE
  5
   1D6
  8
0
  6
CONTINUOUS
 62
    52
 10
196.477798461914
 20
39.5000114440918
 30
0.0
 11
194.477798461914
 21
37.5000152587891
 31
0.0
  0
LINE
  5
   1D7
  8
0
  6
CONTINUOUS
 62
    52
 10
200.720443725586
 20
39.5000114440918
 30
0.0
 11
198.720443725586
 21
37.5000152587891
 31
0.0
  0
LINE
  5
   1D8
  8
0
  6
CONTINUOUS
 62
    52
 10
204.963088989258
 20
39.5000114440918
 30
0.0
 11
202.963088989258
 21
37.5000152587891
 31
0.0
  0
LINE
  5
   1D9
  8
0
  6
CONTINUOUS
 62
    52
 10
207.737045288086
 20
38.0314140319824
 30
0.0
 11
207.205657958984
 21
37.5000152587891
 31
0.0
  0
ENDBLK
  5
   1DA
  8
0
  6
CONTINUOUS
 62
     7
  0
BLOCK
  5
   1DB
  8
0
  6
CONTINUOUS
 62
     7
  2
*HATCH257
 70
    65
 10
0.0
 20
0.0
 30
0.0
  3
*HATCH257
  0
LINE
  5
   1DC
  8
0
  6
CONTINUOUS
 62
    52
 10
92.5330276489258
 20
39.5000114440918
 30
0.0
 11
90.5330276489258
 21
37.5000114440918
 31
0.0
  0
LINE
  5
   1DD
  8
0
  6
CONTINUOUS
 62
    52
 10
96.7756729125977
 20
39.5000114440918
 30
0.0
 11
94.7756729125977
 21
37.5000114440918
 31
0.0
  0
LINE
  5
   1DE
  8
0
  6
CONTINUOUS
 62
    52
 10
101.01831817627
 20
39.5000114440918
 30
0.0
 11
99.0183181762695
 21
37.5000114440918
 31
0.0
  0
LINE
  5
   1DF
  8
0
  6
CONTINUOUS
 62
    52
 10
105.260963439941
 20
39.5000114440918
 30
0.0
 11
103.260963439941
 21
37.5000114440918
 31
0.0
  0
LINE
  5
   1E0
  8
0
  6
CONTINUOUS
 62
    52
 10
109.503608703613
 20
39.5000114440918
 30
0.0
 11
107.503608703613
 21
37.5000114440918
 31
0.0
  0
LINE
  5
   1E1
  8
0
  6
CONTINUOUS
 62
    52
 10
113.746253967285
 20
39.5000114440918
 30
0.0
 11
111.746253967285
 21
37.5000114440918
 31
0.0
  0
LINE
  5
   1E2
  8
0
  6
CONTINUOUS
 62
    52
 10
117.988899230957
 20
39.5000114440918
 30
0.0
 11
115.988899230957
 21
37.5000114440918
 31
0.0
  0
ENDBLK
  5
   1E3
  8
0
  6
CONTINUOUS
 62
     7
  0
BLOCK
  5
   1E4
  8
0
  6
CONTINUOUS
 62
     7
  2
*HATCH258
 70
    65
 10
0.0
 20
0.0
 30
0.0
  3
*HATCH258
  0
LINE
  5
   1E5
  8
0
  6
CONTINUOUS
 62
    52
 10
41.6213340759277
 20
39.5000114440918
 30
0.0
 11
39.621337890625
 21
37.5000152587891
 31
0.0
  0
LINE
  5
   1E6
  8
0
  6
CONTINUOUS
 62
    52
 10
45.8639717102051
 20
39.5000114440918
 30
0.0
 11
43.8639755249023
 21
37.5000152587891
 31
0.0
  0
LINE
  5
   1E7
  8
0
  6
CONTINUOUS
 62
    52
 10
50.1066093444824
 20
39.5000114440918
 30
0.0
 11
48.1066131591797
 21
37.5000152587891
 31
0.0
  0
LINE
  5
   1E8
  8
0
  6
CONTINUOUS
 62
    52
 10
54.3492469787598
 20
39.5000114440918
 30
0.0
 11
52.349250793457
 21
37.5000152587891
 31
0.0
  0
LINE
  5
   1E9
  8
0
  6
CONTINUOUS
 62
    52
 10
58.5918846130371
 20
39.5000114440918
 30
0.0
 11
56.5918884277344
 21
37.5000152587891
 31
0.0
  0
LINE
  5
   1EA
  8
0
  6
CONTINUOUS
 62
    52
 10
62.8345222473145
 20
39.5000114440918
 30
0.0
 11
60.8345260620117
 21
37.5000152587891
 31
0.0
  0
LINE
  5
   1EB
  8
0
  6
CONTINUOUS
 62
    52
 10
67.0771636962891
 20
39.5000114440918
 30
0.0
 11
65.0771636962891
 21
37.5000152587891
 31
0.0
  0
LINE
  5
   1EC
  8
0
  6
CONTINUOUS
 62
    52
 10
71.3198089599609
 20
39.5000114440918
 30
0.0
 11
69.3198089599609
 21
37.5000152587891
 31
0.0
  0
LINE
  5
   1ED
  8
0
  6
CONTINUOUS
 62
    52
 10
75.2372512817383
 20
39.1748008728027
 30
0.0
 11
73.5624618530273
 21
37.5000114440918
 31
0.0
  0
ENDBLK
  5
   1EE
  8
0
  6
CONTINUOUS
 62
     7
  0
BLOCK
  5
   1EF
  8
0
  6
CONTINUOUS
 62
     7
  2
*HATCH259
 70
    65
 10
0.0
 20
0.0
 30
0.0
  3
*HATCH259
  0
LINE
  5
   1F0
  8
0
  6
CONTINUOUS
 62
    52
 10
-22.018274307251
 20
39.5000152587891
 30
0.0
 11
-24.018274307251
 21
37.5000152587891
 31
0.0
  0
LINE
  5
   1F1
  8
0
  6
CONTINUOUS
 62
    52
 10
-17.7756328582764
 20
39.5000152587891
 30
0.0
 11
-19.7756328582764
 21
37.5000152587891
 31
0.0
  0
LINE
  5
   1F2
  8
0
  6
CONTINUOUS
 62
    52
 10
-13.5329914093018
 20
39.5000152587891
 30
0.0
 11
-15.5329914093018
 21
37.5000152587891
 31
0.0
  0
LINE
  5
   1F3
  8
0
  6
CONTINUOUS
 62
    52
 10
-9.29034996032715
 20
39.5000152587891
 30
0.0
 11
-11.2903499603271
 21
37.5000152587891
 31
0.0
  0
LINE
  5
   1F4
  8
0
  6
CONTINUOUS
 62
    52
 10
-5.04770851135254
 20
39.5000152587891
 30
0.0
 11
-7.04770851135254
 21
37.5000152587891
 31
0.0
  0
LINE
  5
   1F5
  8
0
  6
CONTINUOUS
 62
    52
 10
-0.805067539215088
 20
39.5000152587891
 30
0.0
 11
-2.80506730079651
 21
37.5000152587891
 31
0.0
  0
LINE
  5
   1F6
  8
0
  6
CONTINUOUS
 62
    52
 10
3.43757343292236
 20
39.5000152587891
 30
0.0
 11
1.43757367134094
 21
37.5000152587891
 31
0.0
  0
LINE
  5
   1F7
  8
0
  6
CONTINUOUS
 62
    52
 10
7.68021488189697
 20
39.5000152587891
 30
0.0
 11
5.68021488189697
 21
37.5000152587891
 31
0.0
  0
LINE
  5
   1F8
  8
0
  6
CONTINUOUS
 62
    52
 10
11.9228563308716
 20
39.5000152587891
 30
0.0
 11
9.92285633087158
 21
37.5000152587891
 31
0.0
  0
LINE
  5
   1F9
  8
0
  6
CONTINUOUS
 62
    52
 10
16.1654968261719
 20
39.5000152587891
 30
0.0
 11
14.1654977798462
 21
37.5000152587891
 31
0.0
  0
LINE
  5
   1FA
  8
0
  6
CONTINUOUS
 62
    52
 10
20.4081382751465
 20
39.5000152587891
 30
0.0
 11
18.4081382751465
 21
37.5000152587891
 31
0.0
  0
LINE
  5
   1FB
  8
0
  6
CONTINUOUS
 62
    52
 10
24.6507797241211
 20
39.5000152587891
 30
0.0
 11
22.6507797241211
 21
37.5000152587891
 31
0.0
  0
LINE
  5
   1FC
  8
0
  6
CONTINUOUS
 62
    52
 10
28.8934211730957
 20
39.5000152587891
 30
0.0
 11
26.8934211730957
 21
37.5000152587891
 31
0.0
  0
ENDBLK
  5
   1FD
  8
0
  6
CONTINUOUS
 62
     7
  0
BLOCK
  5
   1FE
  8
0
  6
CONTINUOUS
 62
     7
  2
*HATCH260
 70
    65
 10
0.0
 20
0.0
 30
0.0
  3
*HATCH260
  0
LINE
  5
   1FF
  8
0
  6
CONTINUOUS
 62
    52
 10
198.084335327148
 20
30.5000228881836
 30
0.0
 11
195.584335327148
 21
28.0000171661377
 31
0.0
  0
LINE
  5
   200
  8
0
  6
CONTINUOUS
 62
    52
 10
202.32698059082
 20
30.5000228881836
 30
0.0
 11
199.82698059082
 21
28.0000171661377
 31
0.0
  0
ENDBLK
  5
   201
  8
0
  6
CONTINUOUS
 62
     7
  0
BLOCK
  5
   202
  8
0
  6
CONTINUOUS
 62
     7
  2
*UDIM1165
 70
    65
 10
0.0
 20
0.0
 30
0.0
  3
*UDIM1165
  0
TEXT
  5
   203
  8
0
  6
CONTINUOUS
 62
     7
 10
-48.6766948162981
 20
-31.3542156822461
 30
0.0
 40
2.99999997871263
  1
5,5
 50
330.28684598225
 41
0.933333333333333
 72
     1
 11
-44.5459885303186
 21
-31.9845055609403
 31
0.0
 73
     2
  0
TEXT
  5
   204
  8
0
  6
CONTINUOUS
 62
     7
 10
-51.4125256850061
 20
-29.7928927546057
 30
0.0
 40
2.99999997871263
  1
Ø
 50
330.28684598225
 41
0.933333333333333
 72
     1
 11
-49.7136690641113
 21
-29.035340028692
 31
0.0
 73
     2
  0
LINE
  5
   205
  8
0
  6
CONTINUOUS
 62
     7
 10
-42.3979145401723
 20
-36.0888663959284
 30
0.0
 11
-58.6023465939267
 21
-26.8410903056525
 31
0.0
  0
LINE
  5
   206
  8
0
  6
CONTINUOUS
 62
     7
 10
-54.106269693047
 20
-28.8071668900028
 30
0.0
 11
-56.9304490458373
 21
-27.7952326118637
 31
0.0
  0
LINE
  5
   207
  8
0
  6
CONTINUOUS
 62
     7
 10
-56.9304490458373
 20
-27.7952326118637
 30
0.0
 11
-54.6226903213728
 21
-29.7120658517826
 31
0.0
  0
LINE
  5
   208
  8
0
  6
CONTINUOUS
 62
     7
 10
-61.426525946717
 20
-25.8291560275134
 30
0.0
 11
-58.6023465939267
 21
-26.8410903056525
 31
0.0
  0
LINE
  5
   209
  8
0
  6
CONTINUOUS
 62
     7
 10
-58.6023465939267
 20
-26.8410903056525
 30
0.0
 11
-60.9101053183912
 21
-24.9242570657336
 31
0.0
  0
ENDBLK
  5
   20A
  8
0
  6
CONTINUOUS
 62
     7
  0
BLOCK
  5
   20B
  8
0
  6
CONTINUOUS
 62
     7
  2
*UDIM1166
 70
    65
 10
0.0
 20
0.0
 30
0.0
  3
*UDIM1166
  0
TEXT
  5
   20C
  8
0
  6
CONTINUOUS
 62
     7
 10
-91.9077922391007
 20
61.30549255255
 30
0.0
 40
2.99999997871263
  1
27,5
 50
360.0
 41
0.933333333333333
 72
     1
 11
-86.607792276716
 21
62.805492541933
 31
0.0
 73
     2
  0
TEXT
  5
   20D
  8
0
  6
CONTINUOUS
 62
     7
 10
-80.7577923023952
 20
61.3054925523882
 30
0.0
 40
2.99999997871263
  1
      CORSA DI SEZIONAMENTO
 50
360.0
 41
0.933333333333333
 72
     1
 11
-43.2577925684949
 21
62.805492541933
 31
0.0
 73
     2
  0
LINE
  5
   20E
  8
0
  6
CONTINUOUS
 62
     7
 10
-67.741379481554
 20
13.056855030435
 30
0.0
 11
-67.741379481554
 21
62.3054925525767
 31
0.0
  0
LINE
  5
   20F
  8
0
  6
CONTINUOUS
 62
     7
 10
-77.3663793176412
 20
3.256853862184
 30
0.0
 11
-77.3663793176412
 21
62.3054925525767
 31
0.0
  0
LINE
  5
   210
  8
0
  6
CONTINUOUS
 62
     7
 10
-5.75779283458706
 20
60.3054925525767
 30
0.0
 11
-91.9077922391083
 21
60.3054925525767
 31
0.0
  0
LINE
  5
   211
  8
0
  6
CONTINUOUS
 62
     7
 10
-64.786956204347
 20
60.8264369825283
 30
0.0
 11
-67.741379481554
 21
60.3054925525767
 31
0.0
  0
LINE
  5
   212
  8
0
  6
CONTINUOUS
 62
     7
 10
-67.741379481554
 20
60.3054925525767
 30
0.0
 11
-64.786956204347
 21
59.784548122625
 31
0.0
  0
LINE
  5
   213
  8
0
  6
CONTINUOUS
 62
     7
 10
-80.3208025948481
 20
59.784548122625
 30
0.0
 11
-77.3663793176412
 21
60.3054925525767
 31
0.0
  0
LINE
  5
   214
  8
0
  6
CONTINUOUS
 62
     7
 10
-77.3663793176412
 20
60.3054925525767
 30
0.0
 11
-80.3208025948481
 21
60.8264369825283
 31
0.0
  0
ENDBLK
  5
   215
  8
0
  6
CONTINUOUS
 62
     7
  0
BLOCK
  5
   216
  8
0
  6
CONTINUOUS
 62
     7
  2
*UDIM1167
 70
    65
 10
0.0
 20
0.0
 30
0.0
  3
*UDIM1167
  0
TEXT
  5
   217
  8
0
  6
CONTINUOUS
 62
     7
 10
19.0821658139015
 20
-31.4931451577434
 30
0.0
 40
2.99999997871263
  1
145
 50
90.0
 41
0.933333333333333
 72
     1
 11
17.5821658245403
 21
-27.5931451854189
 31
0.0
 73
     2
  0
LINE
  5
   218
  8
0
  6
CONTINUOUS
 62
     7
 10
9.85799059195931
 20
-52.6931452020231
 30
0.0
 11
22.0821658138966
 21
-52.6931452020231
 31
0.0
  0
LINE
  5
   219
  8
0
  6
CONTINUOUS
 62
     7
 10
9.85799059195931
 20
-1.94314606629041
 30
0.0
 11
22.0821658138966
 21
-1.94314606629041
 31
0.0
  0
LINE
  5
   21A
  8
0
  6
CONTINUOUS
 62
     7
 10
20.0821658138966
 20
-52.6931452020231
 30
0.0
 11
20.0821658138966
 21
-1.94314606629041
 31
0.0
  0
LINE
  5
   21B
  8
0
  6
CONTINUOUS
 62
     7
 10
19.5612213839449
 20
-49.7387219248161
 30
0.0
 11
20.0821658138966
 21
-52.6931452020231
 31
0.0
  0
LINE
  5
   21C
  8
0
  6
CONTINUOUS
 62
     7
 10
20.0821658138966
 20
-52.6931452020231
 30
0.0
 11
20.6031102438483
 21
-49.7387219248161
 31
0.0
  0
LINE
  5
   21D
  8
0
  6
CONTINUOUS
 62
     7
 10
20.6031102438483
 20
-4.89756934349738
 30
0.0
 11
20.0821658138966
 21
-1.94314606629041
 31
0.0
  0
LINE
  5
   21E
  8
0
  6
CONTINUOUS
 62
     7
 10
20.0821658138966
 20
-1.94314606629041
 30
0.0
 11
19.5612213839449
 21
-4.89756934349738
 31
0.0
  0
ENDBLK
  5
   21F
  8
0
  6
CONTINUOUS
 62
     7
  0
BLOCK
  5
   220
  8
0
  6
CONTINUOUS
 62
     7
  2
*UDIM1168
 70
    65
 10
0.0
 20
0.0
 30
0.0
  3
*UDIM1168
  0
TEXT
  5
   221
  8
0
  6
CONTINUOUS
 62
     7
 10
12.7161777631322
 20
-14.8681473462273
 30
0.0
 40
2.99999997871263
  1
58
 50
90.0
 41
0.933333333333333
 72
     1
 11
11.2161777737727
 21
-12.3681473639687
 31
0.0
 73
     2
  0
LINE
  5
   222
  8
0
  6
CONTINUOUS
 62
     7
 10
13.1119898661567
 20
-22.2431443854395
 30
0.0
 11
15.7161777631291
 21
-22.2431443854395
 31
0.0
  0
LINE
  5
   223
  8
0
  6
CONTINUOUS
 62
     7
 10
9.85799059195931
 20
-1.94314606629041
 30
0.0
 11
15.7161777631291
 21
-1.94314606629041
 31
0.0
  0
LINE
  5
   224
  8
0
  6
CONTINUOUS
 62
     7
 10
13.7161777631291
 20
-22.2431443854395
 30
0.0
 11
13.7161777631291
 21
-1.94314606629041
 31
0.0
  0
LINE
  5
   225
  8
0
  6
CONTINUOUS
 62
     7
 10
13.1952333331774
 20
-19.2887211082325
 30
0.0
 11
13.7161777631291
 21
-22.2431443854395
 31
0.0
  0
LINE
  5
   226
  8
0
  6
CONTINUOUS
 62
     7
 10
13.7161777631291
 20
-22.2431443854395
 30
0.0
 11
14.2371221930807
 21
-19.2887211082325
 31
0.0
  0
LINE
  5
   227
  8
0
  6
CONTINUOUS
 62
     7
 10
14.2371221930807
 20
-4.89756934349738
 30
0.0
 11
13.7161777631291
 21
-1.94314606629041
 31
0.0
  0
LINE
  5
   228
  8
0
  6
CONTINUOUS
 62
     7
 10
13.7161777631291
 20
-1.94314606629041
 30
0.0
 11
13.1952333331774
 21
-4.89756934349738
 31
0.0
  0
ENDBLK
  5
   229
  8
0
  6
CONTINUOUS
 62
     7
  0
BLOCK
  5
   22A
  8
0
  6
CONTINUOUS
 62
     7
  2
*UDIM1169
 70
    65
 10
0.0
 20
0.0
 30
0.0
  3
*UDIM1169
  0
TEXT
  5
   22B
  8
0
  6
CONTINUOUS
 62
     7
 10
-40.5038903950858
 20
-111.104239618759
 30
0.0
 40
2.99999997871263
  1
195,5
 50
360.0
 41
0.933333333333333
 72
     1
 11
-33.8038904426351
 21
-109.604239629369
 31
0.0
 73
     2
  0
LINE
  5
   22C
  8
0
  6
CONTINUOUS
 62
     7
 10
0.683607336879049
 20
-87.1034293393659
 30
0.0
 11
0.683607336879049
 21
-114.104239618725
 31
0.0
  0
LINE
  5
   22D
  8
0
  6
CONTINUOUS
 62
     7
 10
-67.741379481554
 20
-57.5431438013139
 30
0.0
 11
-67.741379481554
 21
-114.104239618725
 31
0.0
  0
LINE
  5
   22E
  8
0
  6
CONTINUOUS
 62
     7
 10
0.683607336879049
 20
-112.104239618725
 30
0.0
 11
-67.741379481554
 21
-112.104239618725
 31
0.0
  0
LINE
  5
   22F
  8
0
  6
CONTINUOUS
 62
     7
 10
-2.27081594032792
 20
-112.625184048677
 30
0.0
 11
0.683607336879049
 21
-112.104239618725
 31
0.0
  0
LINE
  5
   230
  8
0
  6
CONTINUOUS
 62
     7
 10
0.683607336879049
 20
-112.104239618725
 30
0.0
 11
-2.27081594032792
 21
-111.583295188773
 31
0.0
  0
LINE
  5
   231
  8
0
  6
CONTINUOUS
 62
     7
 10
-64.786956204347
 20
-111.583295188773
 30
0.0
 11
-67.741379481554
 21
-112.104239618725
 31
0.0
  0
LINE
  5
   232
  8
0
  6
CONTINUOUS
 62
     7
 10
-67.741379481554
 20
-112.104239618725
 30
0.0
 11
-64.786956204347
 21
-112.625184048677
 31
0.0
  0
ENDBLK
  5
   233
  8
0
  6
CONTINUOUS
 62
     7
  0
BLOCK
  5
   234
  8
0
  6
CONTINUOUS
 62
     7
  2
*UDIM1170
 70
    65
 10
0.0
 20
0.0
 30
0.0
  3
*UDIM1170
  0
TEXT
  5
   235
  8
0
  6
CONTINUOUS
 62
     7
 10
-36.7413862798818
 20
-103.371352482368
 30
0.0
 40
2.99999997871263
  1
190
 50
360.0
 41
0.933333333333333
 72
     1
 11
-32.8413863075629
 21
-101.871352492993
 31
0.0
 73
     2
  0
LINE
  5
   236
  8
0
  6
CONTINUOUS
 62
     7
 10
0.683607336879049
 20
-87.1034293393659
 30
0.0
 11
0.683607336879049
 21
-106.371352482349
 31
0.0
  0
LINE
  5
   237
  8
0
  6
CONTINUOUS
 62
     7
 10
-65.8163808494805
 20
-75.1140367921838
 30
0.0
 11
-65.8163808494805
 21
-106.371352482349
 31
0.0
  0
LINE
  5
   238
  8
0
  6
CONTINUOUS
 62
     7
 10
0.683607336879049
 20
-104.371352482349
 30
0.0
 11
-65.8163808494805
 21
-104.371352482349
 31
0.0
  0
LINE
  5
   239
  8
0
  6
CONTINUOUS
 62
     7
 10
-2.27081594032792
 20
-104.8922969123
 30
0.0
 11
0.683607336879049
 21
-104.371352482349
 31
0.0
  0
LINE
  5
   23A
  8
0
  6
CONTINUOUS
 62
     7
 10
0.683607336879049
 20
-104.371352482349
 30
0.0
 11
-2.27081594032792
 21
-103.850408052397
 31
0.0
  0
LINE
  5
   23B
  8
0
  6
CONTINUOUS
 62
     7
 10
-62.8619575722736
 20
-103.850408052397
 30
0.0
 11
-65.8163808494805
 21
-104.371352482349
 31
0.0
  0
LINE
  5
   23C
  8
0
  6
CONTINUOUS
 62
     7
 10
-65.8163808494805
 20
-104.371352482349
 30
0.0
 11
-62.8619575722736
 21
-104.8922969123
 31
0.0
  0
ENDBLK
  5
   23D
  8
0
  6
CONTINUOUS
 62
     7
  0
BLOCK
  5
   23E
  8
0
  6
CONTINUOUS
 62
     7
  2
*UDIM1171
 70
    65
 10
0.0
 20
0.0
 30
0.0
  3
*UDIM1171
  0
TEXT
  5
   23F
  8
0
  6
CONTINUOUS
 62
     7
 10
-72.266381370446
 20
-103.371352482354
 30
0.0
 40
2.99999997871263
  1
2
 50
360.0
 41
0.933333333333333
 72
     1
 11
-71.1663813782589
 21
-101.871352492993
 31
0.0
 73
     2
  0
LINE
  5
   240
  8
0
  6
CONTINUOUS
 62
     7
 10
-66.5163808375596
 20
-75.2598383164184
 30
0.0
 11
-66.5163808375596
 21
-106.371352482349
 31
0.0
  0
LINE
  5
   241
  8
0
  6
CONTINUOUS
 62
     7
 10
-65.8163808494805
 20
-104.371352482349
 30
0.0
 11
-72.2663813704535
 21
-104.371352482349
 31
0.0
  0
LINE
  5
   242
  8
0
  6
CONTINUOUS
 62
     7
 10
-62.8619575722736
 20
-103.850408052397
 30
0.0
 11
-65.8163808494805
 21
-104.371352482349
 31
0.0
  0
LINE
  5
   243
  8
0
  6
CONTINUOUS
 62
     7
 10
-65.8163808494805
 20
-104.371352482349
 30
0.0
 11
-62.8619575722736
 21
-104.8922969123
 31
0.0
  0
LINE
  5
   244
  8
0
  6
CONTINUOUS
 62
     7
 10
-69.4708041147666
 20
-104.8922969123
 30
0.0
 11
-66.5163808375596
 21
-104.371352482349
 31
0.0
  0
LINE
  5
   245
  8
0
  6
CONTINUOUS
 62
     7
 10
-66.5163808375596
 20
-104.371352482349
 30
0.0
 11
-69.4708041147666
 21
-103.850408052397
 31
0.0
  0
ENDBLK
  5
   246
  8
0
  6
CONTINUOUS
 62
     7
  0
BLOCK
  5
   247
  8
0
  6
CONTINUOUS
 62
     7
  2
*UDIM1172
 70
    65
 10
0.0
 20
0.0
 30
0.0
  3
*UDIM1172
  0
TEXT
  5
   248
  8
0
  6
CONTINUOUS
 62
     7
 10
-32.7163943561406
 20
-96.0148451155836
 30
0.0
 40
2.99999997871263
  1
167
 50
360.0
 41
0.933333333333333
 72
     1
 11
-28.8163943838217
 21
-94.5148451262076
 31
0.0
 73
     2
  0
LINE
  5
   249
  8
0
  6
CONTINUOUS
 62
     7
 10
0.683607336879049
 20
-87.1034293393659
 30
0.0
 11
0.683607336879049
 21
-99.014845115564
 31
0.0
  0
LINE
  5
   24A
  8
0
  6
CONTINUOUS
 62
     7
 10
-57.7663976695701
 20
-32.168160403167
 30
0.0
 11
-57.7663976695701
 21
-99.014845115564
 31
0.0
  0
LINE
  5
   24B
  8
0
  6
CONTINUOUS
 62
     7
 10
0.683607336879049
 20
-97.014845115564
 30
0.0
 11
-57.7663976695701
 21
-97.014845115564
 31
0.0
  0
LINE
  5
   24C
  8
0
  6
CONTINUOUS
 62
     7
 10
-2.27081594032792
 20
-97.5357895455156
 30
0.0
 11
0.683607336879049
 21
-97.014845115564
 31
0.0
  0
LINE
  5
   24D
  8
0
  6
CONTINUOUS
 62
     7
 10
0.683607336879049
 20
-97.014845115564
 30
0.0
 11
-2.27081594032792
 21
-96.4939006856123
 31
0.0
  0
LINE
  5
   24E
  8
0
  6
CONTINUOUS
 62
     7
 10
-54.8119743923631
 20
-96.4939006856123
 30
0.0
 11
-57.7663976695701
 21
-97.014845115564
 31
0.0
  0
LINE
  5
   24F
  8
0
  6
CONTINUOUS
 62
     7
 10
-57.7663976695701
 20
-97.014845115564
 30
0.0
 11
-54.8119743923631
 21
-97.5357895455156
 31
0.0
  0
ENDBLK
  5
   250
  8
0
  6
CONTINUOUS
 62
     7
  0
BLOCK
  5
   251
  8
0
  6
CONTINUOUS
 62
     7
  2
*UDIM1173
 70
    65
 10
0.0
 20
0.0
 30
0.0
  3
*UDIM1173
  0
TEXT
  5
   252
  8
0
  6
CONTINUOUS
 62
     7
 10
8.94100292966019
 20
48.1691921171013
 30
0.0
 40
2.99999997871263
  1
3
 50
360.0
 41
0.933333333333333
 72
     1
 11
10.0410029218473
 21
49.6691921064631
 31
0.0
 73
     2
  0
TEXT
  5
   253
  8
0
  6
CONTINUOUS
 62
     7
 10
6.19100293334998
 20
48.1691921171013
 30
0.0
 40
2.99999997871263
  1
_
 50
360.0
 41
0.933333333333333
 72
     1
 11
7.29100292553707
 21
49.6691921064631
 31
0.0
 73
     2
  0
LINE
  5
   254
  8
0
  6
CONTINUOUS
 62
     7
 10
1.73360731899766
 20
33.912646334043
 30
0.0
 11
1.73360731899766
 21
49.1691921171068
 31
0.0
  0
LINE
  5
   255
  8
0
  6
CONTINUOUS
 62
     7
 10
0.683607336879049
 20
30.3272248074801
 30
0.0
 11
0.683607336879049
 21
49.1691921171068
 31
0.0
  0
LINE
  5
   256
  8
0
  6
CONTINUOUS
 62
     7
 10
11.1410029140419
 20
47.1691921171068
 30
0.0
 11
0.683607336879049
 21
47.1691921171068
 31
0.0
  0
LINE
  5
   257
  8
0
  6
CONTINUOUS
 62
     7
 10
4.68803059620463
 20
47.6901365470585
 30
0.0
 11
1.73360731899766
 21
47.1691921171068
 31
0.0
  0
LINE
  5
   258
  8
0
  6
CONTINUOUS
 62
     7
 10
1.73360731899766
 20
47.1691921171068
 30
0.0
 11
4.68803059620463
 21
46.6482476871552
 31
0.0
  0
LINE
  5
   259
  8
0
  6
CONTINUOUS
 62
     7
 10
-2.27081594032792
 20
46.6482476871552
 30
0.0
 11
0.683607336879049
 21
47.1691921171068
 31
0.0
  0
LINE
  5
   25A
  8
0
  6
CONTINUOUS
 62
     7
 10
0.683607336879049
 20
47.1691921171068
 30
0.0
 11
-2.27081594032792
 21
47.6901365470585
 31
0.0
  0
ENDBLK
  5
   25B
  8
0
  6
CONTINUOUS
 62
     7
  0
BLOCK
  5
   25C
  8
0
  6
CONTINUOUS
 62
     7
  2
*UDIM1174
 70
    65
 10
0.0
 20
0.0
 30
0.0
  3
*UDIM1174
  0
TEXT
  5
   25D
  8
0
  6
CONTINUOUS
 62
     7
 10
-6.78135453663405
 20
48.1691921170943
 30
0.0
 40
2.99999997871263
  1
31
 50
360.0
 41
0.933333333333333
 72
     1
 11
-4.28135455438107
 21
49.6691921064631
 31
0.0
 73
     2
  0
LINE
  5
   25E
  8
0
  6
CONTINUOUS
 62
     7
 10
-10.1663924783466
 20
40.1818265304746
 30
0.0
 11
-10.1663924783466
 21
49.1691921171068
 31
0.0
  0
LINE
  5
   25F
  8
0
  6
CONTINUOUS
 62
     7
 10
0.683607336879049
 20
47.1691921171068
 30
0.0
 11
-10.1663924783466
 21
47.1691921171068
 31
0.0
  0
LINE
  5
   260
  8
0
  6
CONTINUOUS
 62
     7
 10
-2.27081594032792
 20
46.6482476871552
 30
0.0
 11
0.683607336879049
 21
47.1691921171068
 31
0.0
  0
LINE
  5
   261
  8
0
  6
CONTINUOUS
 62
     7
 10
0.683607336879049
 20
47.1691921171068
 30
0.0
 11
-2.27081594032792
 21
47.6901365470585
 31
0.0
  0
LINE
  5
   262
  8
0
  6
CONTINUOUS
 62
     7
 10
-7.21196920113958
 20
47.6901365470585
 30
0.0
 11
-10.1663924783466
 21
47.1691921171068
 31
0.0
  0
LINE
  5
   263
  8
0
  6
CONTINUOUS
 62
     7
 10
-10.1663924783466
 20
47.1691921171068
 30
0.0
 11
-7.21196920113958
 21
46.6482476871552
 31
0.0
  0
ENDBLK
  5
   264
  8
0
  6
CONTINUOUS
 62
     7
  0
BLOCK
  5
   265
  8
0
  6
CONTINUOUS
 62
     7
  2
*UDIM1175
 70
    65
 10
0.0
 20
0.0
 30
0.0
  3
*UDIM1175
  0
TEXT
  5
   266
  8
0
  6
CONTINUOUS
 62
     7
 10
-22.1913920122875
 20
48.1691921170943
 30
0.0
 40
2.99999997871263
  1
10
 50
360.0
 41
0.933333333333333
 72
     1
 11
-19.6913920300345
 21
49.6691921064631
 31
0.0
 73
     2
  0
LINE
  5
   267
  8
0
  6
CONTINUOUS
 62
     7
 10
-13.6663924187419
 20
40.1818265304746
 30
0.0
 11
-13.6663924187419
 21
49.1691921171068
 31
0.0
  0
LINE
  5
   268
  8
0
  6
CONTINUOUS
 62
     7
 10
-10.1663924783466
 20
47.1691921171068
 30
0.0
 11
-22.191392012295
 21
47.1691921171068
 31
0.0
  0
LINE
  5
   269
  8
0
  6
CONTINUOUS
 62
     7
 10
-7.2119692011396
 20
47.6901365470585
 30
0.0
 11
-10.1663924783466
 21
47.1691921171068
 31
0.0
  0
LINE
  5
   26A
  8
0
  6
CONTINUOUS
 62
     7
 10
-10.1663924783466
 20
47.1691921171068
 30
0.0
 11
-7.2119692011396
 21
46.6482476871552
 31
0.0
  0
LINE
  5
   26B
  8
0
  6
CONTINUOUS
 62
     7
 10
-16.6208156959489
 20
46.6482476871552
 30
0.0
 11
-13.6663924187419
 21
47.1691921171068
 31
0.0
  0
LINE
  5
   26C
  8
0
  6
CONTINUOUS
 62
     7
 10
-13.6663924187419
 20
47.1691921171068
 30
0.0
 11
-16.6208156959489
 21
47.6901365470585
 31
0.0
  0
ENDBLK
  5
   26D
  8
0
  6
CONTINUOUS
 62
     7
  0
BLOCK
  5
   26E
  8
0
  6
CONTINUOUS
 62
     7
  2
*UDIM1176
 70
    65
 10
0.0
 20
0.0
 30
0.0
  3
*UDIM1176
  0
TEXT
  5
   26F
  8
0
  6
CONTINUOUS
 62
     7
 10
-33.8572398702374
 20
-41.4722417282708
 30
0.0
 40
2.99999997871263
  1
14,5
 50
90.0
 41
0.933333333333333
 72
     1
 11
-35.3572398596003
 21
-36.1722417658804
 31
0.0
 73
     2
  0
LINE
  5
   270
  8
0
  6
CONTINUOUS
 62
     7
 10
-52.9163984712518
 20
-27.3181612048487
 30
0.0
 11
-30.857239870244
 21
-27.3181612048487
 31
0.0
  0
LINE
  5
   271
  8
0
  6
CONTINUOUS
 62
     7
 10
-32.857239870244
 20
-41.4722417282727
 30
0.0
 11
-32.857239870244
 21
-22.2431443854395
 31
0.0
  0
LINE
  5
   272
  8
0
  6
CONTINUOUS
 62
     7
 10
-32.3362954402924
 20
-30.2725844820557
 30
0.0
 11
-32.857239870244
 21
-27.3181612048487
 31
0.0
  0
LINE
  5
   273
  8
0
  6
CONTINUOUS
 62
     7
 10
-32.857239870244
 20
-27.3181612048487
 30
0.0
 11
-33.3781843001957
 21
-30.2725844820557
 31
0.0
  0
LINE
  5
   274
  8
0
  6
CONTINUOUS
 62
     7
 10
-33.3781843001957
 20
-19.2887211082325
 30
0.0
 11
-32.857239870244
 21
-22.2431443854395
 31
0.0
  0
LINE
  5
   275
  8
0
  6
CONTINUOUS
 62
     7
 10
-32.857239870244
 20
-22.2431443854395
 30
0.0
 11
-32.3362954402924
 21
-19.2887211082325
 31
0.0
  0
ENDBLK
  5
   276
  8
0
  6
CONTINUOUS
 62
     7
  0
BLOCK
  5
   277
  8
0
  6
CONTINUOUS
 62
     7
  2
*UDIM1177
 70
    65
 10
0.0
 20
0.0
 30
0.0
  3
*UDIM1177
  0
TEXT
  5
   278
  8
0
  6
CONTINUOUS
 62
     7
 10
-86.8050970160278
 20
-26.4181425738821
 30
0.0
 40
2.99999997871263
  1
140
 50
90.0
 41
0.933333333333333
 72
     1
 11
-88.305097005389
 21
-22.5181426015576
 31
0.0
 73
     2
  0
LINE
  5
   279
  8
0
  6
CONTINUOUS
 62
     7
 10
-66.8163808494805
 20
-46.7431439682069
 30
0.0
 11
-87.8050970160327
 21
-46.7431439682069
 31
0.0
  0
LINE
  5
   27A
  8
0
  6
CONTINUOUS
 62
     7
 10
-66.8163795143365
 20
2.25685386218402
 30
0.0
 11
-87.8050970160327
 21
2.25685386218402
 31
0.0
  0
LINE
  5
   27B
  8
0
  6
CONTINUOUS
 62
     7
 10
-85.8050970160327
 20
-46.7431439682069
 30
0.0
 11
-85.8050970160327
 21
2.25685386218402
 31
0.0
  0
LINE
  5
   27C
  8
0
  6
CONTINUOUS
 62
     7
 10
-86.3260414459844
 20
-43.788720691
 30
0.0
 11
-85.8050970160327
 21
-46.7431439682069
 31
0.0
  0
LINE
  5
   27D
  8
0
  6
CONTINUOUS
 62
     7
 10
-85.8050970160327
 20
-46.7431439682069
 30
0.0
 11
-85.2841525860811
 21
-43.788720691
 31
0.0
  0
LINE
  5
   27E
  8
0
  6
CONTINUOUS
 62
     7
 10
-85.2841525860811
 20
-0.697569415022954
 30
0.0
 11
-85.8050970160327
 21
2.25685386218402
 31
0.0
  0
LINE
  5
   27F
  8
0
  6
CONTINUOUS
 62
     7
 10
-85.8050970160327
 20
2.25685386218402
 30
0.0
 11
-86.3260414459844
 21
-0.697569415022954
 31
0.0
  0
ENDBLK
  5
   280
  8
0
  6
CONTINUOUS
 62
     7
  0
BLOCK
  5
   281
  8
0
  6
CONTINUOUS
 62
     7
  2
*UDIM1178
 70
    65
 10
0.0
 20
0.0
 30
0.0
  3
*UDIM1178
  0
TEXT
  5
   282
  8
0
  6
CONTINUOUS
 62
     7
 10
213.227490936169
 20
42.0160687922643
 30
0.0
 40
3.00000002980232
  1
7
 50
311.747786463635
 41
0.933333333333334
 72
     1
 11
215.079053731293
 21
42.1941566482616
 31
0.0
 73
     2
  0
TEXT
  5
   283
  8
0
  6
CONTINUOUS
 62
     7
 10
210.564079545531
 20
45.0004012138691
 30
0.0
 40
3.00000002980232
  1
Ø
 50
311.747786463635
 41
1.2
 72
     1
 11
212.681983480382
 21
44.8800558269657
 31
0.0
 73
     2
  0
LINE
  5
   284
  8
0
  6
CONTINUOUS
 62
     7
 10
209.817996445689
 20
44.3345483711802
 30
0.0
 11
221.770055006515
 21
30.9423566904625
 31
0.0
  0
LINE
  5
   285
  8
0
  6
CONTINUOUS
 62
     7
 10
214.766753388104
 20
37.6233942094338
 30
0.0
 11
217.275548318303
 21
35.978417614401
 31
0.0
  0
LINE
  5
   286
  8
0
  6
CONTINUOUS
 62
     7
 10
217.275548318303
 20
35.978417614401
 30
0.0
 11
215.925356512415
 21
38.6574066191029
 31
0.0
  0
LINE
  5
   287
  8
0
  6
CONTINUOUS
 62
     7
 10
220.949585723224
 20
33.0277955946433
 30
0.0
 11
218.440790793025
 21
34.6727721896761
 31
0.0
  0
LINE
  5
   288
  8
0
  6
CONTINUOUS
 62
     7
 10
218.440790793025
 20
34.6727721896761
 30
0.0
 11
219.790982598913
 21
31.9937831849743
 31
0.0
  0
ENDBLK
  5
   289
  8
0
  6
CONTINUOUS
 62
     7
  0
BLOCK
  5
   28A
  8
0
  6
CONTINUOUS
 62
     7
  2
*UDIM1179
 70
    65
 10
0.0
 20
0.0
 30
0.0
  3
*UDIM1179
  0
TEXT
  5
   28B
  8
0
  6
CONTINUOUS
 62
     7
 10
245.478275934493
 20
-4.38710016546635
 30
0.0
 40
3.00000002980232
  1
7
 50
344.9299862515
 41
0.933333333333334
 72
     1
 11
246.930444445052
 21
-3.22468600275025
 31
0.0
 73
     2
  0
TEXT
  5
   28C
  8
0
  6
CONTINUOUS
 62
     7
 10
241.615840561789
 20
-3.34710342022696
 30
0.0
 40
3.00000002980232
  1
Ø
 50
344.9299862515
 41
1.2
 72
     1
 11
243.454252610579
 21
-2.28868893229141
 31
0.0
 73
     2
  0
LINE
  5
   28D
  8
0
  6
CONTINUOUS
 62
     7
 10
241.355841377411
 20
-4.31271225619948
 30
0.0
 11
264.156121467055
 21
-10.4519003061538
 31
0.0
  0
LINE
  5
   28E
  8
0
  6
CONTINUOUS
 62
     7
 10
254.638264063971
 20
-8.69323992310394
 30
0.0
 11
257.63826182418
 21
-8.69690581163491
 31
0.0
  0
LINE
  5
   28F
  8
0
  6
CONTINUOUS
 62
     7
 10
257.63826182418
 20
-8.69690581163491
 30
0.0
 11
255.04202051871
 21
-7.19373214110652
 31
0.0
  0
LINE
  5
   290
  8
0
  6
CONTINUOUS
 62
     7
 10
262.328075047357
 20
-9.15557027281891
 30
0.0
 11
259.328077287148
 21
-9.15190438428795
 31
0.0
  0
LINE
  5
   291
  8
0
  6
CONTINUOUS
 62
     7
 10
259.328077287148
 20
-9.15190438428795
 30
0.0
 11
261.924318592618
 21
-10.6550780548163
 31
0.0
  0
ENDBLK
  5
   292
  8
0
  6
CONTINUOUS
 62
     7
  0
BLOCK
  5
   293
  8
0
  6
CONTINUOUS
 62
     7
  2
*UDIM1180
 70
    65
 10
0.0
 20
0.0
 30
0.0
  3
*UDIM1180
  0
TEXT
  5
   294
  8
0
  6
CONTINUOUS
 62
     7
 10
264.770328919436
 20
43.7853114078149
 30
0.0
 40
3.00000002980232
  1
8
 50
47.9365803045692
 41
0.933333333333334
 72
     1
 11
264.393671380866
 21
45.6068846749064
 31
0.0
 73
     2
  0
TEXT
  5
   295
  8
0
  6
CONTINUOUS
 62
     7
 10
262.659977686385
 20
41.4467396779458
 30
0.0
 40
3.00000002980232
  1
Ø
 50
47.9365803045692
 41
0.933333333333334
 72
     1
 11
262.283320147815
 21
43.2683129450373
 31
0.0
 73
     2
  0
TEXT
  5
   296
  8
0
  6
CONTINUOUS
 62
     7
 10
266.612699060352
 20
45.8269216668093
 30
0.0
 40
3.00000002980232
  1
(5 fori)
 50
47.9365803045692
 41
0.933333333333333
 72
     1
 11
272.801578735787
 21
54.9240514761626
 31
0.0
 73
     2
  0
LINE
  5
   297
  8
0
  6
CONTINUOUS
 62
     7
 10
281.960073319061
 20
61.3413701844078
 30
0.0
 11
257.81321678538
 21
34.5831911806119
 31
0.0
  0
LINE
  5
   298
  8
0
  6
CONTINUOUS
 62
     7
 10
260.745695301654
 20
38.6103816231437
 30
0.0
 11
259.153122325949
 21
36.0679986234653
 31
0.0
  0
LINE
  5
   299
  8
0
  6
CONTINUOUS
 62
     7
 10
259.153122325949
 20
36.0679986234653
 30
0.0
 11
261.519197468559
 21
37.9123652951229
 31
0.0
  0
LINE
  5
   29A
  8
0
  6
CONTINUOUS
 62
     7
 10
256.220643809674
 20
32.0408081809335
 30
0.0
 11
257.81321678538
 21
34.5831911806119
 31
0.0
  0
LINE
  5
   29B
  8
0
  6
CONTINUOUS
 62
     7
 10
257.81321678538
 20
34.5831911806119
 30
0.0
 11
255.447141642769
 21
32.7388245089542
 31
0.0
  0
ENDBLK
  5
   29C
  8
0
  6
CONTINUOUS
 62
     7
  0
BLOCK
  5
   29D
  8
0
  6
CONTINUOUS
 62
     7
  2
*UDIM1181
 70
    65
 10
0.0
 20
0.0
 30
0.0
  3
*UDIM1181
  0
TEXT
  5
   29E
  8
0
  6
CONTINUOUS
 62
     7
 10
237.875876718012
 20
-45.8750734329912
 30
0.0
 40
3.00000002980232
  1
R min. 200
 50
360.0
 41
0.933333333333333
 72
     1
 11
251.575876854102
 21
-44.3750734180212
 31
0.0
 73
     2
  0
LINE
  5
   29F
  8
0
  6
CONTINUOUS
 62
     7
 10
233.233169555664
 20
-17.4706137724955
 30
0.0
 11
233.233169555664
 21
-48.8750734329224
 31
0.0
  0
LINE
  5
   2A0
  8
0
  6
CONTINUOUS
 62
     7
 10
273.407319351514
 20
-43.9908673684678
 30
0.0
 11
273.407319351514
 21
-48.8750734329224
 31
0.0
  0
LINE
  5
   2A1
  8
0
  6
CONTINUOUS
 62
     7
 10
233.233169555664
 20
-46.8750734329224
 30
0.0
 11
273.407319351514
 21
-46.8750734329224
 31
0.0
  0
LINE
  5
   2A2
  8
0
  6
CONTINUOUS
 62
     7
 10
236.187592832871
 20
-46.3541290029707
 30
0.0
 11
233.233169555664
 21
-46.8750734329224
 31
0.0
  0
LINE
  5
   2A3
  8
0
  6
CONTINUOUS
 62
     7
 10
233.233169555664
 20
-46.8750734329224
 30
0.0
 11
236.187592832871
 21
-47.396017862874
 31
0.0
  0
LINE
  5
   2A4
  8
0
  6
CONTINUOUS
 62
     7
 10
270.452896074307
 20
-47.396017862874
 30
0.0
 11
273.407319351514
 21
-46.8750734329224
 31
0.0
  0
LINE
  5
   2A5
  8
0
  6
CONTINUOUS
 62
     7
 10
273.407319351514
 20
-46.8750734329224
 30
0.0
 11
270.452896074307
 21
-46.3541290029707
 31
0.0
  0
ENDBLK
  5
   2A6
  8
0
  6
CONTINUOUS
 62
     7
  0
BLOCK
  5
   2A7
  8
0
  6
CONTINUOUS
 62
     7
  2
*UDIM1182
 70
    65
 10
0.0
 20
0.0
 30
0.0
  3
*UDIM1182
  0
TEXT
  5
   2A8
  8
0
  6
CONTINUOUS
 62
     7
 10
196.961032867435
 20
21.6755948712447
 30
0.0
 40
3.00000002980232
  1
90
 50
90.0
 41
0.933333333333333
 72
     1
 11
195.461032852531
 21
24.1755948960781
 31
0.0
 73
     2
  0
LINE
  5
   2A9
  8
0
  6
CONTINUOUS
 62
     7
 10
229.875669555664
 20
35.7005949020386
 30
0.0
 11
195.961032867432
 21
35.7005949020386
 31
0.0
  0
LINE
  5
   2AA
  8
0
  6
CONTINUOUS
 62
     7
 10
202.427144865128
 20
13.2005949020386
 30
0.0
 11
195.961032867432
 21
13.2005949020386
 31
0.0
  0
LINE
  5
   2AB
  8
0
  6
CONTINUOUS
 62
     7
 10
197.961032867432
 20
35.7005949020386
 30
0.0
 11
197.961032867432
 21
13.2005949020386
 31
0.0
  0
LINE
  5
   2AC
  8
0
  6
CONTINUOUS
 62
     7
 10
198.481977297383
 20
32.7461716248316
 30
0.0
 11
197.961032867432
 21
35.7005949020386
 31
0.0
  0
LINE
  5
   2AD
  8
0
  6
CONTINUOUS
 62
     7
 10
197.961032867432
 20
35.7005949020386
 30
0.0
 11
197.44008843748
 21
32.7461716248316
 31
0.0
  0
LINE
  5
   2AE
  8
0
  6
CONTINUOUS
 62
     7
 10
197.44008843748
 20
16.1550181792455
 30
0.0
 11
197.961032867432
 21
13.2005949020386
 31
0.0
  0
LINE
  5
   2AF
  8
0
  6
CONTINUOUS
 62
     7
 10
197.961032867432
 20
13.2005949020386
 30
0.0
 11
198.481977297383
 21
16.1550181792455
 31
0.0
  0
ENDBLK
  5
   2B0
  8
0
  6
CONTINUOUS
 62
     7
  0
BLOCK
  5
   2B1
  8
0
  6
CONTINUOUS
 62
     7
  2
*UDIM1183
 70
    65
 10
0.0
 20
0.0
 30
0.0
  3
*UDIM1183
  0
TEXT
  5
   2B2
  8
0
  6
CONTINUOUS
 62
     7
 10
203.214958190923
 20
9.02559485733697
 30
0.0
 40
3.00000002980232
  1
161
 50
90.0
 41
0.933333333333333
 72
     1
 11
201.714958176017
 21
12.9255948960781
 31
0.0
 73
     2
  0
LINE
  5
   2B3
  8
0
  6
CONTINUOUS
 62
     7
 10
209.858169555664
 20
33.3255949020386
 30
0.0
 11
202.214958190918
 21
33.3255949020386
 31
0.0
  0
LINE
  5
   2B4
  8
0
  6
CONTINUOUS
 62
     7
 10
209.858169555664
 20
-6.92440509796143
 30
0.0
 11
202.214958190918
 21
-6.92440509796143
 31
0.0
  0
LINE
  5
   2B5
  8
0
  6
CONTINUOUS
 62
     7
 10
204.214958190918
 20
33.3255949020386
 30
0.0
 11
204.214958190918
 21
-6.92440509796143
 31
0.0
  0
LINE
  5
   2B6
  8
0
  6
CONTINUOUS
 62
     7
 10
204.73590262087
 20
30.3711716248316
 30
0.0
 11
204.214958190918
 21
33.3255949020386
 31
0.0
  0
LINE
  5
   2B7
  8
0
  6
CONTINUOUS
 62
     7
 10
204.214958190918
 20
33.3255949020386
 30
0.0
 11
203.694013760966
 21
30.3711716248316
 31
0.0
  0
LINE
  5
   2B8
  8
0
  6
CONTINUOUS
 62
     7
 10
203.694013760966
 20
-3.96998182075446
 30
0.0
 11
204.214958190918
 21
-6.92440509796143
 31
0.0
  0
LINE
  5
   2B9
  8
0
  6
CONTINUOUS
 62
     7
 10
204.214958190918
 20
-6.92440509796143
 30
0.0
 11
204.73590262087
 21
-3.96998182075446
 31
0.0
  0
ENDBLK
  5
   2BA
  8
0
  6
CONTINUOUS
 62
     7
  0
BLOCK
  5
   2BB
  8
0
  6
CONTINUOUS
 62
     7
  2
*UDIM1184
 70
    65
 10
0.0
 20
0.0
 30
0.0
  3
*UDIM1184
  0
TEXT
  5
   2BC
  8
0
  6
CONTINUOUS
 62
     7
 10
287.775928497319
 20
9.02559485733697
 30
0.0
 40
3.00000002980232
  1
177
 50
90.0
 41
0.933333333333333
 72
     1
 11
286.275928482413
 21
12.9255948960781
 31
0.0
 73
     2
  0
LINE
  5
   2BD
  8
0
  6
CONTINUOUS
 62
     7
 10
261.108169555664
 20
35.3255949020386
 30
0.0
 11
290.775928497314
 21
35.3255949020386
 31
0.0
  0
LINE
  5
   2BE
  8
0
  6
CONTINUOUS
 62
     7
 10
261.108169555664
 20
-8.92440509796143
 30
0.0
 11
290.775928497314
 21
-8.92440509796143
 31
0.0
  0
LINE
  5
   2BF
  8
0
  6
CONTINUOUS
 62
     7
 10
288.775928497314
 20
35.3255949020386
 30
0.0
 11
288.775928497314
 21
-8.92440509796143
 31
0.0
  0
LINE
  5
   2C0
  8
0
  6
CONTINUOUS
 62
     7
 10
289.296872927266
 20
32.3711716248316
 30
0.0
 11
288.775928497314
 21
35.3255949020386
 31
0.0
  0
LINE
  5
   2C1
  8
0
  6
CONTINUOUS
 62
     7
 10
288.775928497314
 20
35.3255949020386
 30
0.0
 11
288.254984067363
 21
32.3711716248316
 31
0.0
  0
LINE
  5
   2C2
  8
0
  6
CONTINUOUS
 62
     7
 10
288.254984067363
 20
-5.96998182075446
 30
0.0
 11
288.775928497314
 21
-8.92440509796143
 31
0.0
  0
LINE
  5
   2C3
  8
0
  6
CONTINUOUS
 62
     7
 10
288.775928497314
 20
-8.92440509796143
 30
0.0
 11
289.296872927266
 21
-5.96998182075446
 31
0.0
  0
ENDBLK
  5
   2C4
  8
0
  6
CONTINUOUS
 62
     7
  0
BLOCK
  5
   2C5
  8
0
  6
CONTINUOUS
 62
     7
  2
*UDIM1185
 70
    65
 10
0.0
 20
0.0
 30
0.0
  3
*UDIM1185
  0
TEXT
  5
   2C6
  8
0
  6
CONTINUOUS
 62
     7
 10
281.128898620607
 20
22.4494362006604
 30
0.0
 40
3.00000002980232
  1
=
 50
90.0
 41
0.933333333333334
 72
     1
 11
279.628898605704
 21
23.549436211586
 31
0.0
 73
     2
  0
LINE
  5
   2C7
  8
0
  6
CONTINUOUS
 62
     7
 10
261.108169555664
 20
35.3255949020386
 30
0.0
 11
284.128898620606
 21
35.3255949020386
 31
0.0
  0
LINE
  5
   2C8
  8
0
  6
CONTINUOUS
 62
     7
 10
275.440637548308
 20
13.2005949020386
 30
0.0
 11
284.128898620606
 21
13.2005949020386
 31
0.0
  0
LINE
  5
   2C9
  8
0
  6
CONTINUOUS
 62
     7
 10
282.128898620606
 20
35.3255949020386
 30
0.0
 11
282.128898620606
 21
13.2005949020386
 31
0.0
  0
LINE
  5
   2CA
  8
0
  6
CONTINUOUS
 62
     7
 10
282.649843050557
 20
32.3711716248316
 30
0.0
 11
282.128898620606
 21
35.3255949020386
 31
0.0
  0
LINE
  5
   2CB
  8
0
  6
CONTINUOUS
 62
     7
 10
282.128898620606
 20
35.3255949020386
 30
0.0
 11
281.607954190654
 21
32.3711716248316
 31
0.0
  0
LINE
  5
   2CC
  8
0
  6
CONTINUOUS
 62
     7
 10
281.607954190654
 20
16.1550181792455
 30
0.0
 11
282.128898620606
 21
13.2005949020386
 31
0.0
  0
LINE
  5
   2CD
  8
0
  6
CONTINUOUS
 62
     7
 10
282.128898620606
 20
13.2005949020386
 30
0.0
 11
282.649843050557
 21
16.1550181792455
 31
0.0
  0
ENDBLK
  5
   2CE
  8
0
  6
CONTINUOUS
 62
     7
  0
BLOCK
  5
   2CF
  8
0
  6
CONTINUOUS
 62
     7
  2
*UDIM1186
 70
    65
 10
0.0
 20
0.0
 30
0.0
  3
*UDIM1186
  0
TEXT
  5
   2D0
  8
0
  6
CONTINUOUS
 62
     7
 10
281.128898620607
 20
0.149722112220423
 30
0.0
 40
3.00000002980232
  1
=
 50
90.0
 41
0.933333333333334
 72
     1
 11
279.628898605704
 21
1.24972212314606
 31
0.0
 73
     2
  0
LINE
  5
   2D1
  8
0
  6
CONTINUOUS
 62
     7
 10
261.108169555664
 20
-8.92440509796143
 30
0.0
 11
284.128898620606
 21
-8.92440509796143
 31
0.0
  0
LINE
  5
   2D2
  8
0
  6
CONTINUOUS
 62
     7
 10
282.128898620606
 20
13.2005949020386
 30
0.0
 11
282.128898620606
 21
-8.92440509796143
 31
0.0
  0
LINE
  5
   2D3
  8
0
  6
CONTINUOUS
 62
     7
 10
282.649843050557
 20
10.2461716248316
 30
0.0
 11
282.128898620606
 21
13.2005949020386
 31
0.0
  0
LINE
  5
   2D4
  8
0
  6
CONTINUOUS
 62
     7
 10
282.128898620606
 20
13.2005949020386
 30
0.0
 11
281.607954190654
 21
10.2461716248316
 31
0.0
  0
LINE
  5
   2D5
  8
0
  6
CONTINUOUS
 62
     7
 10
281.607954190654
 20
-5.96998182075446
 30
0.0
 11
282.128898620606
 21
-8.92440509796143
 31
0.0
  0
LINE
  5
   2D6
  8
0
  6
CONTINUOUS
 62
     7
 10
282.128898620606
 20
-8.92440509796143
 30
0.0
 11
282.649843050557
 21
-5.96998182075446
 31
0.0
  0
ENDBLK
  5
   2D7
  8
0
  6
CONTINUOUS
 62
     7
  0
BLOCK
  5
   2D8
  8
0
  6
CONTINUOUS
 62
     7
  2
*UDIM1187
 70
    65
 10
0.0
 20
0.0
 30
0.0
  3
*UDIM1187
  0
TEXT
  5
   2D9
  8
0
  6
CONTINUOUS
 62
     7
 10
244.371315002443
 20
16.2005947957455
 30
0.0
 40
3.00000002980232
  1
9
 50
90.0
 41
0.933333333333334
 72
     1
 11
242.87131498754
 21
17.3005948066711
 31
0.0
 73
     2
  0
LINE
  5
   2DA
  8
0
  6
CONTINUOUS
 62
     7
 10
262.483169555664
 20
10.9505949020386
 30
0.0
 11
243.371315002441
 21
10.9505949020386
 31
0.0
  0
LINE
  5
   2DB
  8
0
  6
CONTINUOUS
 62
     7
 10
245.371315002441
 20
18.4005948175987
 30
0.0
 11
245.371315002441
 21
10.9505949020386
 31
0.0
  0
LINE
  5
   2DC
  8
0
  6
CONTINUOUS
 62
     7
 10
244.85037057249
 20
16.1550181792455
 30
0.0
 11
245.371315002441
 21
13.2005949020386
 31
0.0
  0
LINE
  5
   2DD
  8
0
  6
CONTINUOUS
 62
     7
 10
245.371315002441
 20
13.2005949020386
 30
0.0
 11
245.892259432393
 21
16.1550181792455
 31
0.0
  0
LINE
  5
   2DE
  8
0
  6
CONTINUOUS
 62
     7
 10
245.892259432393
 20
7.99617162483161
 30
0.0
 11
245.371315002441
 21
10.9505949020386
 31
0.0
  0
LINE
  5
   2DF
  8
0
  6
CONTINUOUS
 62
     7
 10
245.371315002441
 20
10.9505949020386
 30
0.0
 11
244.85037057249
 21
7.99617162483161
 31
0.0
  0
ENDBLK
  5
   2E0
  8
0
  6
CONTINUOUS
 62
     7
  0
BLOCK
  5
   2E1
  8
0
  6
CONTINUOUS
 62
     7
  2
*UDIM1188
 70
    65
 10
0.0
 20
0.0
 30
0.0
  3
*UDIM1188
  0
TEXT
  5
   2E2
  8
0
  6
CONTINUOUS
 62
     7
 10
244.371315002445
 20
3.78448826571494
 30
0.0
 40
3.00000002980232
  1
39
 50
90.0
 41
0.933333333333333
 72
     1
 11
242.87131498754
 21
6.28448829054832
 31
0.0
 73
     2
  0
LINE
  5
   2E3
  8
0
  6
CONTINUOUS
 62
     7
 10
262.483169555664
 20
1.20059490203857
 30
0.0
 11
243.371315002441
 21
1.20059490203857
 31
0.0
  0
LINE
  5
   2E4
  8
0
  6
CONTINUOUS
 62
     7
 10
245.371315002441
 20
10.9505949020386
 30
0.0
 11
245.371315002441
 21
1.20059490203857
 31
0.0
  0
LINE
  5
   2E5
  8
0
  6
CONTINUOUS
 62
     7
 10
244.85037057249
 20
13.9050181792455
 30
0.0
 11
245.371315002441
 21
10.9505949020386
 31
0.0
  0
LINE
  5
   2E6
  8
0
  6
CONTINUOUS
 62
     7
 10
245.371315002441
 20
10.9505949020386
 30
0.0
 11
245.892259432393
 21
13.9050181792455
 31
0.0
  0
LINE
  5
   2E7
  8
0
  6
CONTINUOUS
 62
     7
 10
245.892259432393
 20
-1.75382837516839
 30
0.0
 11
245.371315002441
 21
1.20059490203857
 31
0.0
  0
LINE
  5
   2E8
  8
0
  6
CONTINUOUS
 62
     7
 10
245.371315002441
 20
1.20059490203857
 30
0.0
 11
244.85037057249
 21
-1.75382837516839
 31
0.0
  0
ENDBLK
  5
   2E9
  8
0
  6
CONTINUOUS
 62
     7
  0
BLOCK
  5
   2EA
  8
0
  6
CONTINUOUS
 62
     7
  2
*UDIM1189
 70
    65
 10
0.0
 20
0.0
 30
0.0
  3
*UDIM1189
  0
TEXT
  5
   2EB
  8
0
  6
CONTINUOUS
 62
     7
 10
244.183169510968
 20
-36.0767755508619
 30
0.0
 40
3.00000002980232
  1
121
 50
360.0
 41
0.933333333333333
 72
     1
 11
248.083169549704
 21
-34.5767755359411
 31
0.0
 73
     2
  0
LINE
  5
   2EC
  8
0
  6
CONTINUOUS
 62
     7
 10
233.233169555664
 20
-17.4706137724955
 30
0.0
 11
233.233169555664
 21
-39.0767755508423
 31
0.0
  0
LINE
  5
   2ED
  8
0
  6
CONTINUOUS
 62
     7
 10
263.483169555664
 20
-0.549405097961426
 30
0.0
 11
263.483169555664
 21
-39.0767755508423
 31
0.0
  0
LINE
  5
   2EE
  8
0
  6
CONTINUOUS
 62
     7
 10
233.233169555664
 20
-37.0767755508423
 30
0.0
 11
263.483169555664
 21
-37.0767755508423
 31
0.0
  0
LINE
  5
   2EF
  8
0
  6
CONTINUOUS
 62
     7
 10
236.187592832871
 20
-36.5558311208906
 30
0.0
 11
233.233169555664
 21
-37.0767755508423
 31
0.0
  0
LINE
  5
   2F0
  8
0
  6
CONTINUOUS
 62
     7
 10
233.233169555664
 20
-37.0767755508423
 30
0.0
 11
236.187592832871
 21
-37.5977199807939
 31
0.0
  0
LINE
  5
   2F1
  8
0
  6
CONTINUOUS
 62
     7
 10
260.528746278457
 20
-37.5977199807939
 30
0.0
 11
263.483169555664
 21
-37.0767755508423
 31
0.0
  0
LINE
  5
   2F2
  8
0
  6
CONTINUOUS
 62
     7
 10
263.483169555664
 20
-37.0767755508423
 30
0.0
 11
260.528746278457
 21
-36.5558311208906
 31
0.0
  0
ENDBLK
  5
   2F3
  8
0
  6
CONTINUOUS
 62
     7
  0
BLOCK
  5
   2F4
  8
0
  6
CONTINUOUS
 62
     7
  2
*UDIM1190
 70
    65
 10
0.0
 20
0.0
 30
0.0
  3
*UDIM1190
  0
TEXT
  5
   2F5
  8
0
  6
CONTINUOUS
 62
     7
 10
268.059365724531
 20
-17.386469841016
 30
0.0
 40
3.00000002980232
  1
16
 50
360.0
 41
0.933333333333333
 72
     1
 11
270.559365749359
 21
-15.8864698261023
 31
0.0
 73
     2
  0
LINE
  5
   2F6
  8
0
  6
CONTINUOUS
 62
     7
 10
261.483169555664
 20
2.20059490203857
 30
0.0
 11
261.483169555664
 21
-20.3864698410034
 31
0.0
  0
LINE
  5
   2F7
  8
0
  6
CONTINUOUS
 62
     7
 10
265.483169555664
 20
2.20059490203857
 30
0.0
 11
265.483169555664
 21
-20.3864698410034
 31
0.0
  0
LINE
  5
   2F8
  8
0
  6
CONTINUOUS
 62
     7
 10
261.483169555664
 20
-18.3864698410034
 30
0.0
 11
273.059365774194
 21
-18.3864698410034
 31
0.0
  0
LINE
  5
   2F9
  8
0
  6
CONTINUOUS
 62
     7
 10
258.528746278457
 20
-18.9074142709551
 30
0.0
 11
261.483169555664
 21
-18.3864698410034
 31
0.0
  0
LINE
  5
   2FA
  8
0
  6
CONTINUOUS
 62
     7
 10
261.483169555664
 20
-18.3864698410034
 30
0.0
 11
258.528746278457
 21
-17.8655254110518
 31
0.0
  0
LINE
  5
   2FB
  8
0
  6
CONTINUOUS
 62
     7
 10
268.437592832871
 20
-17.8655254110518
 30
0.0
 11
265.483169555664
 21
-18.3864698410034
 31
0.0
  0
LINE
  5
   2FC
  8
0
  6
CONTINUOUS
 62
     7
 10
265.483169555664
 20
-18.3864698410034
 30
0.0
 11
268.437592832871
 21
-18.9074142709551
 31
0.0
  0
ENDBLK
  5
   2FD
  8
0
  6
CONTINUOUS
 62
     7
  0
BLOCK
  5
   2FE
  8
0
  6
CONTINUOUS
 62
     7
  2
*UDIM1191
 70
    65
 10
0.0
 20
0.0
 30
0.0
  3
*UDIM1191
  0
TEXT
  5
   2FF
  8
0
  6
CONTINUOUS
 62
     7
 10
231.195669483153
 20
-30.1444787979463
 30
0.0
 40
3.00000002980232
  1
162,5
 50
360.0
 41
0.933333333333333
 72
     1
 11
237.895669549704
 21
-28.6444787830114
 31
0.0
 73
     2
  0
LINE
  5
   300
  8
0
  6
CONTINUOUS
 62
     7
 10
217.858169555664
 20
-11.5494050979614
 30
0.0
 11
217.858169555664
 21
-33.1444787979126
 31
0.0
  0
LINE
  5
   301
  8
0
  6
CONTINUOUS
 62
     7
 10
258.483169555664
 20
-11.5494050979614
 30
0.0
 11
258.483169555664
 21
-33.1444787979126
 31
0.0
  0
LINE
  5
   302
  8
0
  6
CONTINUOUS
 62
     7
 10
217.858169555664
 20
-31.1444787979126
 30
0.0
 11
258.483169555664
 21
-31.1444787979126
 31
0.0
  0
LINE
  5
   303
  8
0
  6
CONTINUOUS
 62
     7
 10
220.812592832871
 20
-30.6235343679609
 30
0.0
 11
217.858169555664
 21
-31.1444787979126
 31
0.0
  0
LINE
  5
   304
  8
0
  6
CONTINUOUS
 62
     7
 10
217.858169555664
 20
-31.1444787979126
 30
0.0
 11
220.812592832871
 21
-31.6654232278643
 31
0.0
  0
LINE
  5
   305
  8
0
  6
CONTINUOUS
 62
     7
 10
255.528746278457
 20
-31.6654232278643
 30
0.0
 11
258.483169555664
 21
-31.1444787979126
 31
0.0
  0
LINE
  5
   306
  8
0
  6
CONTINUOUS
 62
     7
 10
258.483169555664
 20
-31.1444787979126
 30
0.0
 11
255.528746278457
 21
-30.6235343679609
 31
0.0
  0
ENDBLK
  5
   307
  8
0
  6
CONTINUOUS
 62
     7
  0
BLOCK
  5
   308
  8
0
  6
CONTINUOUS
 62
     7
  2
*UDIM1192
 70
    65
 10
0.0
 20
0.0
 30
0.0
  3
*UDIM1192
  0
TEXT
  5
   309
  8
0
  6
CONTINUOUS
 62
     7
 10
241.683169510968
 20
-23.4974489212232
 30
0.0
 40
3.00000002980232
  1
101
 50
360.0
 41
0.933333333333333
 72
     1
 11
245.583169549704
 21
-21.9974489063025
 31
0.0
 73
     2
  0
LINE
  5
   30A
  8
0
  6
CONTINUOUS
 62
     7
 10
233.233169555664
 20
-17.4706137724955
 30
0.0
 11
233.233169555664
 21
-26.4974489212036
 31
0.0
  0
LINE
  5
   30B
  8
0
  6
CONTINUOUS
 62
     7
 10
258.483169555664
 20
-11.5494050979614
 30
0.0
 11
258.483169555664
 21
-26.4974489212036
 31
0.0
  0
LINE
  5
   30C
  8
0
  6
CONTINUOUS
 62
     7
 10
233.233169555664
 20
-24.4974489212036
 30
0.0
 11
258.483169555664
 21
-24.4974489212036
 31
0.0
  0
LINE
  5
   30D
  8
0
  6
CONTINUOUS
 62
     7
 10
236.187592832871
 20
-23.976504491252
 30
0.0
 11
233.233169555664
 21
-24.4974489212036
 31
0.0
  0
LINE
  5
   30E
  8
0
  6
CONTINUOUS
 62
     7
 10
233.233169555664
 20
-24.4974489212036
 30
0.0
 11
236.187592832871
 21
-25.0183933511553
 31
0.0
  0
LINE
  5
   30F
  8
0
  6
CONTINUOUS
 62
     7
 10
255.528746278457
 20
-25.0183933511553
 30
0.0
 11
258.483169555664
 21
-24.4974489212036
 31
0.0
  0
LINE
  5
   310
  8
0
  6
CONTINUOUS
 62
     7
 10
258.483169555664
 20
-24.4974489212036
 30
0.0
 11
255.528746278457
 21
-23.976504491252
 31
0.0
  0
ENDBLK
  5
   311
  8
0
  6
CONTINUOUS
 62
     7
  0
BLOCK
  5
   312
  8
0
  6
CONTINUOUS
 62
     7
  2
*UDIM1193
 70
    65
 10
0.0
 20
0.0
 30
0.0
  3
*UDIM1193
  0
TEXT
  5
   313
  8
0
  6
CONTINUOUS
 62
     7
 10
216.383169870583
 20
-16.7074728012422
 30
0.0
 40
3.00000002980232
  1
19,75
 50
360.0
 41
0.933333333333333
 72
     1
 11
223.083169937134
 21
-15.2074727863073
 31
0.0
 73
     2
  0
LINE
  5
   314
  8
0
  6
CONTINUOUS
 62
     7
 10
233.233169555664
 20
-17.4706137724955
 30
0.0
 11
233.233169555664
 21
-19.7074728012085
 31
0.0
  0
LINE
  5
   315
  8
0
  6
CONTINUOUS
 62
     7
 10
238.170669555664
 20
-11.5494050979614
 30
0.0
 11
238.170669555664
 21
-19.7074728012085
 31
0.0
  0
LINE
  5
   316
  8
0
  6
CONTINUOUS
 62
     7
 10
216.383169870575
 20
-17.7074728012085
 30
0.0
 11
238.170669555664
 21
-17.7074728012085
 31
0.0
  0
LINE
  5
   317
  8
0
  6
CONTINUOUS
 62
     7
 10
230.278746278457
 20
-18.2284172311602
 30
0.0
 11
233.233169555664
 21
-17.7074728012085
 31
0.0
  0
LINE
  5
   318
  8
0
  6
CONTINUOUS
 62
     7
 10
233.233169555664
 20
-17.7074728012085
 30
0.0
 11
230.278746278457
 21
-17.1865283712568
 31
0.0
  0
LINE
  5
   319
  8
0
  6
CONTINUOUS
 62
     7
 10
241.125092832871
 20
-17.1865283712568
 30
0.0
 11
238.170669555664
 21
-17.7074728012085
 31
0.0
  0
LINE
  5
   31A
  8
0
  6
CONTINUOUS
 62
     7
 10
238.170669555664
 20
-17.7074728012085
 30
0.0
 11
241.125092832871
 21
-18.2284172311602
 31
0.0
  0
ENDBLK
  5
   31B
  8
0
  6
CONTINUOUS
 62
     7
  0
BLOCK
  5
   31C
  8
0
  6
CONTINUOUS
 62
     7
  2
*UDIM1194
 70
    65
 10
0.0
 20
0.0
 30
0.0
  3
*UDIM1194
  0
TEXT
  5
   31D
  8
0
  6
CONTINUOUS
 62
     7
 10
227.933169510968
 20
55.6668233871264
 30
0.0
 40
3.00000002980232
  1
170
 50
360.0
 41
0.933333333333333
 72
     1
 11
231.833169549704
 21
57.1668234020472
 31
0.0
 73
     2
  0
LINE
  5
   31E
  8
0
  6
CONTINUOUS
 62
     7
 10
210.858169555664
 20
34.3255949020386
 30
0.0
 11
210.858169555664
 21
56.666823387146
 31
0.0
  0
LINE
  5
   31F
  8
0
  6
CONTINUOUS
 62
     7
 10
253.358169555664
 20
34.3255949020386
 30
0.0
 11
253.358169555664
 21
56.666823387146
 31
0.0
  0
LINE
  5
   320
  8
0
  6
CONTINUOUS
 62
     7
 10
210.858169555664
 20
54.666823387146
 30
0.0
 11
253.358169555664
 21
54.666823387146
 31
0.0
  0
LINE
  5
   321
  8
0
  6
CONTINUOUS
 62
     7
 10
213.812592832871
 20
55.1877678170977
 30
0.0
 11
210.858169555664
 21
54.666823387146
 31
0.0
  0
LINE
  5
   322
  8
0
  6
CONTINUOUS
 62
     7
 10
210.858169555664
 20
54.666823387146
 30
0.0
 11
213.812592832871
 21
54.1458789571943
 31
0.0
  0
LINE
  5
   323
  8
0
  6
CONTINUOUS
 62
     7
 10
250.403746278457
 20
54.1458789571943
 30
0.0
 11
253.358169555664
 21
54.666823387146
 31
0.0
  0
LINE
  5
   324
  8
0
  6
CONTINUOUS
 62
     7
 10
253.358169555664
 20
54.666823387146
 30
0.0
 11
250.403746278457
 21
55.1877678170977
 31
0.0
  0
ENDBLK
  5
   325
  8
0
  6
CONTINUOUS
 62
     7
  0
BLOCK
  5
   326
  8
0
  6
CONTINUOUS
 62
     7
  2
*UDIM1195
 70
    65
 10
0.0
 20
0.0
 30
0.0
  3
*UDIM1195
  0
TEXT
  5
   327
  8
0
  6
CONTINUOUS
 62
     7
 10
237.72066949706
 20
50.0561590194436
 30
0.0
 40
3.00000002980232
  1
80,5
 50
360.0
 41
0.933333333333333
 72
     1
 11
243.020669549704
 21
51.5561590343714
 31
0.0
 73
     2
  0
LINE
  5
   328
  8
0
  6
CONTINUOUS
 62
     7
 10
233.233169555664
 20
45.2782928166584
 30
0.0
 11
233.233169555664
 21
51.0561590194702
 31
0.0
  0
LINE
  5
   329
  8
0
  6
CONTINUOUS
 62
     7
 10
253.358169555664
 20
34.3255949020386
 30
0.0
 11
253.358169555664
 21
51.0561590194702
 31
0.0
  0
LINE
  5
   32A
  8
0
  6
CONTINUOUS
 62
     7
 10
233.233169555664
 20
49.0561590194702
 30
0.0
 11
253.358169555664
 21
49.0561590194702
 31
0.0
  0
LINE
  5
   32B
  8
0
  6
CONTINUOUS
 62
     7
 10
236.187592832871
 20
49.5771034494219
 30
0.0
 11
233.233169555664
 21
49.0561590194702
 31
0.0
  0
LINE
  5
   32C
  8
0
  6
CONTINUOUS
 62
     7
 10
233.233169555664
 20
49.0561590194702
 30
0.0
 11
236.187592832871
 21
48.5352145895186
 31
0.0
  0
LINE
  5
   32D
  8
0
  6
CONTINUOUS
 62
     7
 10
250.403746278457
 20
48.5352145895186
 30
0.0
 11
253.358169555664
 21
49.0561590194702
 31
0.0
  0
LINE
  5
   32E
  8
0
  6
CONTINUOUS
 62
     7
 10
253.358169555664
 20
49.0561590194702
 30
0.0
 11
250.403746278457
 21
49.5771034494219
 31
0.0
  0
ENDBLK
  5
   32F
  8
0
  6
CONTINUOUS
 62
     7
  0
BLOCK
  5
   330
  8
0
  6
CONTINUOUS
 62
     7
  2
*UDIM1196
 70
    65
 10
0.0
 20
0.0
 30
0.0
  3
*UDIM1196
  0
TEXT
  5
   331
  8
0
  6
CONTINUOUS
 62
     7
 10
236.08778983852
 20
44.6599130630368
 30
0.0
 40
3.00000002980232
  1
45
 50
360.0
 41
0.933333333333333
 72
     1
 11
238.587789863348
 21
46.1599130779505
 31
0.0
 73
     2
  0
LINE
  5
   332
  8
0
  6
CONTINUOUS
 62
     7
 10
232.545669555664
 20
38.3705949020386
 30
0.0
 11
232.545669555664
 21
45.6599130630493
 31
0.0
  0
LINE
  5
   333
  8
0
  6
CONTINUOUS
 62
     7
 10
243.795669555664
 20
38.3705949020386
 30
0.0
 11
243.795669555664
 21
45.6599130630493
 31
0.0
  0
LINE
  5
   334
  8
0
  6
CONTINUOUS
 62
     7
 10
232.545669555664
 20
43.6599130630493
 30
0.0
 11
243.795669555664
 21
43.6599130630493
 31
0.0
  0
LINE
  5
   335
  8
0
  6
CONTINUOUS
 62
     7
 10
229.591246278457
 20
43.1389686330977
 30
0.0
 11
232.545669555664
 21
43.6599130630493
 31
0.0
  0
LINE
  5
   336
  8
0
  6
CONTINUOUS
 62
     7
 10
232.545669555664
 20
43.6599130630493
 30
0.0
 11
229.591246278457
 21
44.180857493001
 31
0.0
  0
LINE
  5
   337
  8
0
  6
CONTINUOUS
 62
     7
 10
246.750092832871
 20
44.180857493001
 30
0.0
 11
243.795669555664
 21
43.6599130630493
 31
0.0
  0
LINE
  5
   338
  8
0
  6
CONTINUOUS
 62
     7
 10
243.795669555664
 20
43.6599130630493
 30
0.0
 11
246.750092832871
 21
43.1389686330977
 31
0.0
  0
ENDBLK
  5
   339
  8
0
  6
CONTINUOUS
 62
     7
  0
BLOCK
  5
   33A
  8
0
  6
CONTINUOUS
 62
     7
  2
*HATCH261
 70
    65
 10
0.0
 20
0.0
 30
0.0
  3
*HATCH261
  0
LINE
  5
   33B
  8
0
  6
CONTINUOUS
 62
    52
 10
-11.7279224395752
 20
1.0
 30
0.0
 11
-11.9763488769531
 21
0.75157368183136
 31
0.0
  0
LINE
  5
   33C
  8
0
  6
CONTINUOUS
 62
    52
 10
-9.60660171508789
 20
1.0
 30
0.0
 11
-11.6066026687622
 21
-1.0
 31
0.0
  0
LINE
  5
   33D
  8
0
  6
CONTINUOUS
 62
    52
 10
-7.48528146743774
 20
1.0
 30
0.0
 11
-9.48528289794922
 21
-1.0
 31
0.0
  0
LINE
  5
   33E
  8
0
  6
CONTINUOUS
 62
    52
 10
-5.3639612197876
 20
1.0
 30
0.0
 11
-7.36396265029907
 21
-1.0
 31
0.0
  0
LINE
  5
   33F
  8
0
  6
CONTINUOUS
 62
    52
 10
-3.47947335243225
 20
0.763167560100555
 30
0.0
 11
-5.24264097213745
 21
-1.0
 31
0.0
  0
LINE
  5
   340
  8
0
  6
CONTINUOUS
 62
    52
 10
-2.51160907745361
 20
-0.390288293361664
 30
0.0
 11
-3.1213207244873
 21
-1.0
 31
0.0
  0
ENDBLK
  5
   341
  8
0
  6
CONTINUOUS
 62
     7
  0
BLOCK
  5
   342
  8
0
  6
CONTINUOUS
 62
     7
  2
*HATCH262
 70
    65
 10
0.0
 20
0.0
 30
0.0
  3
*HATCH262
  0
LINE
  5
   343
  8
0
  6
CONTINUOUS
 62
    52
 10
5.24264097213745
 20
1.0
 30
0.0
 11
3.24264073371887
 21
-1.0
 31
0.0
  0
LINE
  5
   344
  8
0
  6
CONTINUOUS
 62
    52
 10
7.3639612197876
 20
1.0
 30
0.0
 11
5.3639612197876
 21
-1.0
 31
0.0
  0
LINE
  5
   345
  8
0
  6
CONTINUOUS
 62
    52
 10
9.48528099060059
 20
1.0
 30
0.0
 11
7.4852819442749
 21
-1.0
 31
0.0
  0
ENDBLK
  5
   346
  8
0
  6
CONTINUOUS
 62
     7
  0
BLOCK
  5
   347
  8
0
  6
CONTINUOUS
 62
     7
  2
*UDIM1197
 70
    65
 10
0.0
 20
0.0
 30
0.0
  3
*UDIM1197
  0
TEXT
  5
   348
  8
0
  6
CONTINUOUS
 62
     7
 10
91.010419617747
 20
-159.337337562701
 30
0.0
 40
3.00000002980232
  1
80
 50
89.2411256924152
 41
0.933333333333333
 72
     1
 11
89.5436623409692
 21
-156.81769011516
 31
0.0
 73
     2
  0
TEXT
  5
   349
  8
0
  6
CONTINUOUS
 62
     7
 10
90.4766945796835
 20
-154.329829391204
 30
0.0
 40
3.00000002980232
  1
°
 50
89.2411256924152
 41
0.933333333333334
 72
     1
 11
88.9913950474806
 21
-153.210059161031
 31
0.0
 73
     2
  0
LINE
  5
   34A
  8
0
  6
CONTINUOUS
 62
     7
 10
73.9479902439002
 20
-159.763796930635
 30
0.0
 11
88.1499574101307
 21
-171.680662341811
 31
0.0
  0
LINE
  5
   34B
  8
0
  6
CONTINUOUS
 62
     7
 10
73.9479902439002
 20
-151.121823186553
 30
0.0
 11
88.1499574101307
 21
-139.204957775377
 31
0.0
  0
ARC
  5
   34C
  8
0
  6
CONTINUOUS
 62
     7
 10
68.7984386155928
 20
-155.442810058594
 30
0.0
 40
23.2616136940404
 50
319.999999815233
 51
39.9999999769042
  0
LINE
  5
   34D
  8
0
  6
CONTINUOUS
 62
     7
 10
88.1178686145127
 20
-167.797010963404
 30
0.0
 11
86.6178685238928
 21
-170.395087122438
 31
0.0
  0
LINE
  5
   34E
  8
0
  6
CONTINUOUS
 62
     7
 10
86.6178685238928
 20
-170.395087122438
 30
0.0
 11
88.9160017859892
 21
-168.46672421322
 31
0.0
  0
LINE
  5
   34F
  8
0
  6
CONTINUOUS
 62
     7
 10
88.9160017859892
 20
-142.418895903968
 30
0.0
 11
86.6178685238928
 21
-140.49053299475
 31
0.0
  0
LINE
  5
   350
  8
0
  6
CONTINUOUS
 62
     7
 10
86.6178685238928
 20
-140.49053299475
 30
0.0
 11
88.1178686145127
 21
-143.088609153784
 31
0.0
  0
ENDBLK
  5
   351
  8
0
  6
CONTINUOUS
 62
     7
  0
BLOCK
  5
   352
  8
0
  6
CONTINUOUS
 62
     7
  2
*UDIM1198
 70
    65
 10
0.0
 20
0.0
 30
0.0
  3
*UDIM1198
  0
TEXT
  5
   353
  8
0
  6
CONTINUOUS
 62
     7
 10
50.7362785339387
 20
-149.557743097343
 30
0.0
 40
3.00000002980232
  1
Ø4
 50
90.0
 41
0.933333333333333
 72
     1
 11
49.2362785190344
 21
-147.05774307251
 31
0.0
 73
     2
  0
LINE
  5
   354
  8
0
  6
CONTINUOUS
 62
     7
 10
70.1819458007813
 20
-153.442810058594
 30
0.0
 11
49.7362785339356
 21
-153.442810058594
 31
0.0
  0
LINE
  5
   355
  8
0
  6
CONTINUOUS
 62
     7
 10
70.1819458007813
 20
-157.442810058594
 30
0.0
 11
49.7362785339356
 21
-157.442810058594
 31
0.0
  0
LINE
  5
   356
  8
0
  6
CONTINUOUS
 62
     7
 10
51.7362785339355
 20
-144.557743047675
 30
0.0
 11
51.7362785339355
 21
-157.442810058594
 31
0.0
  0
LINE
  5
   357
  8
0
  6
CONTINUOUS
 62
     7
 10
51.2153341039839
 20
-150.488386781387
 30
0.0
 11
51.7362785339355
 21
-153.442810058594
 31
0.0
  0
LINE
  5
   358
  8
0
  6
CONTINUOUS
 62
     7
 10
51.7362785339355
 20
-153.442810058594
 30
0.0
 11
52.2572229638872
 21
-150.488386781387
 31
0.0
  0
LINE
  5
   359
  8
0
  6
CONTINUOUS
 62
     7
 10
52.2572229638872
 20
-160.397233335801
 30
0.0
 11
51.7362785339355
 21
-157.442810058594
 31
0.0
  0
LINE
  5
   35A
  8
0
  6
CONTINUOUS
 62
     7
 10
51.7362785339355
 20
-157.442810058594
 30
0.0
 11
51.2153341039839
 21
-160.397233335801
 31
0.0
  0
ENDBLK
  5
   35B
  8
0
  6
CONTINUOUS
 62
     7
  0
ENDSEC
  0
SECTION
  2
ENTITIES
  0
LINE
  5
   35C
  8
0
  6
CONTINUOUS
 62
     7
 10
77.0910260210083
 20
11.0068605995086
 30
0.0
 11
77.0910260210083
 21
20.0193482191123
 31
0.0
  0
LINE
  5
   35D
  8
0
  6
CONTINUOUS
 62
     7
 10
174.741024358038
 20
12.0568552852846
 30
0.0
 11
174.741024358038
 21
20.0193482191123
 31
0.0
  0
LINE
  5
   35E
  8
0
  6
DOT
 62
     1
 10
174.82853214692
 20
-56.5431455491804
 30
0.0
 11
174.82853214692
 21
12.0568552852846
 31
0.0
  0
LINE
  5
   35F
  8
0
  6
CONTINUOUS
 62
     1
 10
174.82853214692
 20
-74.6556556789036
 30
0.0
 11
174.82853214692
 21
-56.5431455491804
 31
0.0
  0
LINE
  5
   360
  8
0
  6
CONTINUOUS
 62
     1
 10
77.0035338128694
 20
-74.6556556789036
 30
0.0
 11
77.0035338128694
 21
-42.6306669054217
 31
0.0
  0
LINE
  5
   361
  8
0
  6
CONTINUOUS
 62
     1
 10
77.0035338128694
 20
-5.88067821242263
 30
0.0
 11
77.0035338128694
 21
11.0068428622893
 31
0.0
  0
LINE
  5
   362
  8
0
  6
CONTINUOUS
 62
     1
 10
77.0035338128694
 20
11.0068428622893
 30
0.0
 11
104.566024048002
 21
11.0068428622893
 31
0.0
  0
LINE
  5
   363
  8
0
  6
CONTINUOUS
 62
     1
 10
77.3535337860473
 20
-50.593156088669
 30
0.0
 11
104.566024048002
 21
-50.593156088669
 31
0.0
  0
LINE
  5
   364
  8
0
  6
CONTINUOUS
 62
     1
 10
77.0035338128694
 20
-42.6306615648456
 30
0.0
 11
77.0035338128694
 21
-5.88066219069439
 31
0.0
  0
LINE
  5
   365
  8
0
  6
CONTINUOUS
 62
     1
 10
77.0035338128694
 20
-50.2431561154911
 30
0.0
 11
104.566024048002
 21
-50.2431561154911
 31
0.0
  0
LINE
  5
   366
  8
0
  6
CONTINUOUS
 62
     1
 10
77.3535337860473
 20
-50.593156088669
 30
0.0
 11
77.3535337860473
 21
-50.2431561154911
 31
0.0
  0
LINE
  5
   367
  8
0
  6
CONTINUOUS
 62
     1
 10
173.358527899493
 20
12.0568552852846
 30
0.0
 11
173.358527899493
 21
20.4568482116617
 31
0.0
  0
LINE
  5
   368
  8
0
  6
CONTINUOUS
 62
     1
 10
174.163528953899
 20
12.0568552852846
 30
0.0
 11
174.163528953899
 21
20.4568482116617
 31
0.0
  0
LINE
  5
   369
  8
0
  6
CONTINUOUS
 62
     1
 10
168.318530121554
 20
12.0568552852846
 30
0.0
 11
168.318530121554
 21
20.4568482116617
 31
0.0
  0
LINE
  5
   36A
  8
0
  6
CONTINUOUS
 62
     1
 10
169.578526895751
 20
12.0568552852846
 30
0.0
 11
169.578526895751
 21
20.4568482116617
 31
0.0
  0
LINE
  5
   36B
  8
0
  6
CONTINUOUS
 62
     1
 10
170.838529010523
 20
12.0568552852846
 30
0.0
 11
170.838529010523
 21
20.4568482116617
 31
0.0
  0
LINE
  5
   36C
  8
0
  6
CONTINUOUS
 62
     1
 10
172.098531125296
 20
12.0568552852846
 30
0.0
 11
172.098531125296
 21
20.4568482116617
 31
0.0
  0
LINE
  5
   36D
  8
0
  6
CONTINUOUS
 62
     1
 10
162.648531286229
 20
-5.88066219069439
 30
0.0
 11
162.648531286229
 21
11.0068428622893
 31
0.0
  0
LINE
  5
   36E
  8
0
  6
CONTINUOUS
 62
     1
 10
163.453527000059
 20
12.0568552852846
 30
0.0
 11
163.453527000059
 21
20.4568482116617
 31
0.0
  0
LINE
  5
   36F
  8
0
  6
CONTINUOUS
 62
     1
 10
164.538529117812
 20
12.0568552852846
 30
0.0
 11
164.538529117812
 21
20.4568482116617
 31
0.0
  0
LINE
  5
   370
  8
0
  6
CONTINUOUS
 62
     1
 10
165.798531232584
 20
12.0568552852846
 30
0.0
 11
165.798531232584
 21
20.4568482116617
 31
0.0
  0
LINE
  5
   371
  8
0
  6
CONTINUOUS
 62
     1
 10
167.058528006781
 20
12.0568552852846
 30
0.0
 11
167.058528006781
 21
20.4568482116617
 31
0.0
  0
LINE
  5
   372
  8
0
  6
CONTINUOUS
 62
     1
 10
77.6685336680301
 20
-5.88066219069439
 30
0.0
 11
77.6685336680301
 21
20.4568482116617
 31
0.0
  0
LINE
  5
   373
  8
0
  6
CONTINUOUS
 62
     1
 10
108.013530080427
 20
12.0568552852846
 30
0.0
 11
108.013530080427
 21
20.4568482116617
 31
0.0
  0
LINE
  5
   374
  8
0
  6
CONTINUOUS
 62
     1
 10
106.75353330623
 20
12.0568552852846
 30
0.0
 11
106.75353330623
 21
20.4568482116617
 31
0.0
  0
LINE
  5
   375
  8
0
  6
CONTINUOUS
 62
     1
 10
105.493533194173
 20
12.0568552852846
 30
0.0
 11
105.493533194173
 21
20.4568482116617
 31
0.0
  0
LINE
  5
   376
  8
0
  6
CONTINUOUS
 62
     1
 10
104.233533082117
 20
-5.88066219069439
 30
0.0
 11
104.233533082117
 21
20.4568482116617
 31
0.0
  0
LINE
  5
   377
  8
0
  6
CONTINUOUS
 62
     1
 10
113.053533198942
 20
12.0568552852846
 30
0.0
 11
113.053533198942
 21
20.4568482116617
 31
0.0
  0
LINE
  5
   378
  8
0
  6
CONTINUOUS
 62
     1
 10
111.793531084169
 20
12.0568552852846
 30
0.0
 11
111.793531084169
 21
20.4568482116617
 31
0.0
  0
LINE
  5
   379
  8
0
  6
CONTINUOUS
 62
     1
 10
110.533528969396
 20
12.0568552852846
 30
0.0
 11
110.533528969396
 21
20.4568482116617
 31
0.0
  0
LINE
  5
   37A
  8
0
  6
CONTINUOUS
 62
     1
 10
109.273532195199
 20
12.0568552852846
 30
0.0
 11
109.273532195199
 21
20.4568482116617
 31
0.0
  0
LINE
  5
   37B
  8
0
  6
CONTINUOUS
 62
     1
 10
108.013530080427
 20
-42.6306615648456
 30
0.0
 11
108.013530080427
 21
-5.88066219069439
 31
0.0
  0
LINE
  5
   37C
  8
0
  6
CONTINUOUS
 62
     1
 10
104.233533082117
 20
-42.6306615648456
 30
0.0
 11
104.233533082117
 21
-5.88066219069439
 31
0.0
  0
LINE
  5
   37D
  8
0
  6
CONTINUOUS
 62
     1
 10
77.6685336680301
 20
-42.6306615648456
 30
0.0
 11
77.6685336680301
 21
-5.88066219069439
 31
0.0
  0
LINE
  5
   37E
  8
0
  6
CONTINUOUS
 62
     1
 10
77.6685336680301
 20
-50.2431561154911
 30
0.0
 11
77.6685336680301
 21
-42.6306615857072
 31
0.0
  0
LINE
  5
   37F
  8
0
  6
CONTINUOUS
 62
     1
 10
108.013530080427
 20
-50.2431561154911
 30
0.0
 11
108.013530080427
 21
-42.6306615857072
 31
0.0
  0
LINE
  5
   380
  8
0
  6
CONTINUOUS
 62
     1
 10
104.233533082117
 20
-50.2431561154911
 30
0.0
 11
104.233533082117
 21
-42.6306615857072
 31
0.0
  0
ARC
  5
   381
  8
0
  6
CONTINUOUS
 62
     1
 10
77.1785338098892
 20
-6.05566218771417
 30
0.0
 40
0.174999997019768
 50
90.0
 51
180.0
  0
ARC
  5
   382
  8
0
  6
CONTINUOUS
 62
     1
 10
77.1785338098892
 20
-42.4556615678259
 30
0.0
 40
0.174999997019768
 50
180.0
 51
270.0
  0
LINE
  5
   383
  8
0
  6
CONTINUOUS
 62
     1
 10
130.816025106077
 20
-19.6181512755939
 30
0.0
 11
145.516024855737
 21
-19.6181512755939
 31
0.0
  0
LINE
  5
   384
  8
0
  6
CONTINUOUS
 62
     7
 10
130.816025106077
 20
-19.4525400113244
 30
0.0
 11
145.516024855737
 21
-19.4525400113244
 31
0.0
  0
LINE
  5
   385
  8
0
  6
DASHDOT
 62
     7
 10
138.166024980907
 20
-50.4495005014836
 30
0.0
 11
138.166024980907
 21
63.1912686366786
 31
0.0
  0
LINE
  5
   386
  8
0
  6
CONTINUOUS
 62
     1
 10
77.5285150705203
 20
-64.4181558532283
 30
0.0
 11
78.6660150511488
 21
-64.4181558532283
 31
0.0
  0
LINE
  5
   387
  8
0
  6
DASHDOT
 62
     2
 10
138.166024980907
 20
-75.8674326566661
 30
0.0
 11
138.166024980907
 21
-48.9113932510646
 31
0.0
  0
LINE
  5
   388
  8
0
  6
CONTINUOUS
 62
     1
 10
174.216008417152
 20
-64.4181611938044
 30
0.0
 11
174.216008417152
 21
-56.5431455491804
 31
0.0
  0
LINE
  5
   389
  8
0
  6
CONTINUOUS
 62
     1
 10
77.6160338024386
 20
-64.4181558532283
 30
0.0
 11
77.6160338024386
 21
-50.593156088669
 31
0.0
  0
LINE
  5
   38A
  8
0
  6
CONTINUOUS
 62
     1
 10
150.223524775569
 20
-22.6281512243339
 30
0.0
 11
150.223524775569
 21
-21.4031512451955
 31
0.0
  0
LINE
  5
   38B
  8
0
  6
CONTINUOUS
 62
     7
 10
130.816025106077
 20
-34.8352961977558
 30
0.0
 11
145.516024855737
 21
-34.8352961977558
 31
0.0
  0
LINE
  5
   38C
  8
0
  6
CONTINUOUS
 62
     7
 10
130.816025106077
 20
-31.9581184996241
 30
0.0
 11
145.516024855737
 21
-31.9581184996241
 31
0.0
  0
LINE
  5
   38D
  8
0
  6
CONTINUOUS
 62
     7
 10
130.816025106077
 20
-37.8587540271034
 30
0.0
 11
145.516024855737
 21
-37.8587540271034
 31
0.0
  0
LINE
  5
   38E
  8
0
  6
CONTINUOUS
 62
     7
 10
145.516024855737
 20
-31.9581184996241
 30
0.0
 11
145.516024855737
 21
-19.4525400113244
 31
0.0
  0
LINE
  5
   38F
  8
0
  6
CONTINUOUS
 62
     7
 10
130.816025106077
 20
-31.9581184996241
 30
0.0
 11
130.816025106077
 21
-19.4525400113244
 31
0.0
  0
LINE
  5
   390
  8
0
  6
DASHDOT
 62
     7
 10
162.666024563674
 20
12.0568552852846
 30
0.0
 11
162.666024563674
 21
20.7553315160268
 31
0.0
  0
LINE
  5
   391
  8
0
  6
DASHDOT
 62
     7
 10
113.666025398139
 20
12.0568552852846
 30
0.0
 11
113.666025398139
 21
22.0828297112618
 31
0.0
  0
LINE
  5
   392
  8
0
  6
CONTINUOUS
 62
     1
 10
77.1785338098892
 20
-5.88066219069439
 30
0.0
 11
104.566024048002
 21
-5.88066219069439
 31
0.0
  0
LINE
  5
   393
  8
0
  6
CONTINUOUS
 62
     1
 10
77.6160338024386
 20
-64.4181611953309
 30
0.0
 11
174.216008417152
 21
-64.4181611953309
 31
0.0
  0
LINE
  5
   394
  8
0
  6
CONTINUOUS
 62
   130
 10
77.7910260090871
 20
-77.3681421115223
 30
0.0
 11
77.7910260090871
 21
-75.093155671453
 31
0.0
  0
LINE
  5
   395
  8
0
  6
CONTINUOUS
 62
   130
 10
79.366025982265
 20
-78.9431420847002
 30
0.0
 11
172.466024396781
 21
-78.9431420847002
 31
0.0
  0
LINE
  5
   396
  8
0
  6
CONTINUOUS
 62
   130
 10
174.041024369959
 20
-77.3681421115223
 30
0.0
 11
174.041024369959
 21
-75.093155671453
 31
0.0
  0
LINE
  5
   397
  8
0
  6
CONTINUOUS
 62
   130
 10
174.041024369959
 20
20.4568482116617
 30
0.0
 11
174.041024369959
 21
22.3845620867609
 31
0.0
  0
LINE
  5
   398
  8
0
  6
CONTINUOUS
 62
   130
 10
79.366025982265
 20
24.3068534866748
 30
0.0
 11
172.50479080034
 21
24.3068534866748
 31
0.0
  0
LINE
  5
   399
  8
0
  6
CONTINUOUS
 62
   130
 10
77.7910260090871
 20
20.4568482116617
 30
0.0
 11
77.7910260090871
 21
22.7318535134968
 31
0.0
  0
LINE
  5
   39A
  8
0
  6
CONTINUOUS
 62
   210
 10
155.666024682884
 20
40.0568265155735
 30
0.0
 11
169.666024444465
 21
40.0568265155735
 31
0.0
  0
LINE
  5
   39B
  8
0
  6
CONTINUOUS
 62
   210
 10
155.666024682884
 20
24.3068534866748
 30
0.0
 11
155.666024682884
 21
40.0568265155735
 31
0.0
  0
LINE
  5
   39C
  8
0
  6
CONTINUOUS
 62
   210
 10
169.666024444465
 20
24.3068534866748
 30
0.0
 11
169.666024444465
 21
40.0568265155735
 31
0.0
  0
LINE
  5
   39D
  8
0
  6
CONTINUOUS
 62
   210
 10
106.666025517349
 20
40.0568265155735
 30
0.0
 11
120.66602527893
 21
40.0568265155735
 31
0.0
  0
LINE
  5
   39E
  8
0
  6
CONTINUOUS
 62
   210
 10
106.666025517349
 20
24.3068534866748
 30
0.0
 11
106.666025517349
 21
40.0568265155735
 31
0.0
  0
LINE
  5
   39F
  8
0
  6
CONTINUOUS
 62
   210
 10
120.66602527893
 20
24.3068534866748
 30
0.0
 11
120.66602527893
 21
40.0568265155735
 31
0.0
  0
LINE
  5
   3A0
  8
0
  6
CONTINUOUS
 62
   210
 10
131.166025100116
 20
40.0568265155735
 30
0.0
 11
145.166024861698
 21
40.0568265155735
 31
0.0
  0
LINE
  5
   3A1
  8
0
  6
CONTINUOUS
 62
   210
 10
131.166025100116
 20
24.3068534866748
 30
0.0
 11
131.166025100116
 21
40.0568265155735
 31
0.0
  0
LINE
  5
   3A2
  8
0
  6
CONTINUOUS
 62
   210
 10
145.166024861698
 20
24.3068534866748
 30
0.0
 11
145.166024861698
 21
40.0568265155735
 31
0.0
  0
LINE
  5
   3A3
  8
0
  6
CONTINUOUS
 62
     7
 10
155.666024682884
 20
-94.6931177838869
 30
0.0
 11
169.666024444465
 21
-94.6931177838869
 31
0.0
  0
LINE
  5
   3A4
  8
0
  6
CONTINUOUS
 62
     7
 10
131.166025100116
 20
-94.6931177838869
 30
0.0
 11
145.166024861698
 21
-94.6931177838869
 31
0.0
  0
LINE
  5
   3A5
  8
0
  6
CONTINUOUS
 62
     7
 10
106.666025517349
 20
-94.6931177838869
 30
0.0
 11
120.66602527893
 21
-94.6931177838869
 31
0.0
  0
LINE
  5
   3A6
  8
0
  6
CONTINUOUS
 62
     7
 10
106.666025517349
 20
-94.6931177838869
 30
0.0
 11
106.666025517349
 21
-78.9431420847002
 31
0.0
  0
LINE
  5
   3A7
  8
0
  6
CONTINUOUS
 62
     7
 10
120.66602527893
 20
-94.6931177838869
 30
0.0
 11
120.66602527893
 21
-78.9431420847002
 31
0.0
  0
LINE
  5
   3A8
  8
0
  6
CONTINUOUS
 62
     7
 10
131.166025100116
 20
-94.6931177838869
 30
0.0
 11
131.166025100116
 21
-78.9431420847002
 31
0.0
  0
LINE
  5
   3A9
  8
0
  6
CONTINUOUS
 62
     7
 10
145.166024861698
 20
-94.6931177838869
 30
0.0
 11
145.166024861698
 21
-78.9431420847002
 31
0.0
  0
LINE
  5
   3AA
  8
0
  6
CONTINUOUS
 62
     7
 10
155.666024682884
 20
-94.6931177838869
 30
0.0
 11
155.666024682884
 21
-78.9431420847002
 31
0.0
  0
LINE
  5
   3AB
  8
0
  6
CONTINUOUS
 62
     7
 10
169.666024444465
 20
-94.6931177838869
 30
0.0
 11
169.666024444465
 21
-78.9431420847002
 31
0.0
  0
CIRCLE
  5
   3AC
  8
0
  6
CONTINUOUS
 62
   210
 10
113.666025285075
 20
33.056861952774
 30
0.0
 40
2.4499673102628
  0
CIRCLE
  5
   3AD
  8
0
  6
CONTINUOUS
 62
   210
 10
138.166016094032
 20
33.0568382097471
 30
0.0
 40
2.4500088234543
  0
CIRCLE
  5
   3AE
  8
0
  6
CONTINUOUS
 62
   210
 10
162.666026208143
 20
33.056825758706
 30
0.0
 40
2.44999792508453
  0
LINE
  5
   3AF
  8
0
  6
DASHDOT
 62
     7
 10
162.666026208143
 20
29.3818278544831
 30
0.0
 11
162.666026208143
 21
34.9818236927312
 31
0.0
  0
LINE
  5
   3B0
  8
0
  6
DASHDOT
 62
     7
 10
159.866028289018
 20
33.056825758706
 30
0.0
 11
165.466024127267
 21
33.056825758706
 31
0.0
  0
LINE
  5
   3B1
  8
0
  6
DASHDOT
 62
     7
 10
138.166016094032
 20
25.1002542403477
 30
0.0
 11
138.166016094032
 21
40.1550780353284
 31
0.0
  0
LINE
  5
   3B2
  8
0
  6
DASHDOT
 62
     7
 10
135.366007276539
 20
33.0568382097471
 30
0.0
 11
140.966024911526
 21
33.0568382097471
 31
0.0
  0
LINE
  5
   3B3
  8
0
  6
DASHDOT
 62
     7
 10
113.666025285075
 20
29.3818946633728
 30
0.0
 11
113.666025285075
 21
34.9818292719775
 31
0.0
  0
LINE
  5
   3B4
  8
0
  6
DASHDOT
 62
     7
 10
110.866057980772
 20
33.056861952774
 30
0.0
 11
116.465992589377
 21
33.056861952774
 31
0.0
  0
CIRCLE
  5
   3B5
  8
0
  6
CONTINUOUS
 62
     7
 10
162.666026208143
 20
-87.6931170270195
 30
0.0
 40
2.44999792508453
  0
CIRCLE
  5
   3B6
  8
0
  6
CONTINUOUS
 62
     7
 10
138.166016094032
 20
-87.6931294780606
 30
0.0
 40
2.4500088234543
  0
CIRCLE
  5
   3B7
  8
0
  6
CONTINUOUS
 62
     7
 10
113.666025285075
 20
-87.6931532210875
 30
0.0
 40
2.4499673102628
  0
LINE
  5
   3B8
  8
0
  6
DASHDOT
 62
     7
 10
113.666025285075
 20
-89.618120540291
 30
0.0
 11
113.666025285075
 21
-84.0181859316863
 31
0.0
  0
LINE
  5
   3B9
  8
0
  6
DASHDOT
 62
     7
 10
110.866057980772
 20
-87.6931532210875
 30
0.0
 11
116.465992589377
 21
-87.6931532210875
 31
0.0
  0
LINE
  5
   3BA
  8
0
  6
DASHDOT
 62
     7
 10
138.166016094032
 20
-89.6181383104556
 30
0.0
 11
138.166016094032
 21
-84.0181206754679
 31
0.0
  0
LINE
  5
   3BB
  8
0
  6
DASHDOT
 62
     7
 10
135.366007276539
 20
-87.6931294780606
 30
0.0
 11
140.966024911526
 21
-87.6931294780606
 31
0.0
  0
LINE
  5
   3BC
  8
0
  6
DASHDOT
 62
     7
 10
162.666026208143
 20
-89.6181149610447
 30
0.0
 11
162.666026208143
 21
-84.0181191227966
 31
0.0
  0
LINE
  5
   3BD
  8
0
  6
DASHDOT
 62
     7
 10
159.866028289018
 20
-87.6931170270195
 30
0.0
 11
165.466024127267
 21
-87.6931170270195
 31
0.0
  0
LINE
  5
   3BE
  8
0
  6
CONTINUOUS
 62
   130
 10
113.666066120039
 20
2.25685386218402
 30
0.0
 11
162.666065285574
 21
2.25685386218402
 31
0.0
  0
LINE
  5
   3BF
  8
0
  6
CONTINUOUS
 62
   130
 10
113.666066120039
 20
-46.7431439682069
 30
0.0
 11
162.666065285574
 21
-46.7431439682069
 31
0.0
  0
LINE
  5
   3C0
  8
0
  6
CONTINUOUS
 62
     1
 10
113.666066120039
 20
-1.94314606629041
 30
0.0
 11
162.666065285574
 21
-1.94314606629041
 31
0.0
  0
LINE
  5
   3C1
  8
0
  6
CONTINUOUS
 62
     1
 10
113.666066787611
 20
1.55685387410495
 30
0.0
 11
162.666065953146
 21
1.55685387410495
 31
0.0
  0
LINE
  5
   3C2
  8
0
  6
CONTINUOUS
 62
   130
 10
113.666066120039
 20
-46.7431439682069
 30
0.0
 11
113.666066120039
 21
2.25685519732804
 31
0.0
  0
LINE
  5
   3C3
  8
0
  6
CONTINUOUS
 62
   130
 10
162.666065953146
 20
-46.743145303351
 30
0.0
 11
162.666065953146
 21
2.25685386218402
 31
0.0
  0
LINE
  5
   3C4
  8
0
  6
CONTINUOUS
 62
   130
 10
114.891063095103
 20
-2.99314604840902
 30
0.0
 11
150.241059822808
 21
-2.99314604840902
 31
0.0
  0
LINE
  5
   3C5
  8
0
  6
CONTINUOUS
 62
   130
 10
114.891063095103
 20
-45.5181453242126
 30
0.0
 11
150.241059822808
 21
-45.5181453242126
 31
0.0
  0
LINE
  5
   3C6
  8
0
  6
CONTINUOUS
 62
   130
 10
114.891063095103
 20
-45.5181453242126
 30
0.0
 11
114.891063095103
 21
-2.99314604840902
 31
0.0
  0
LINE
  5
   3C7
  8
0
  6
CONTINUOUS
 62
   130
 10
150.241060824166
 20
-45.5181453242126
 30
0.0
 11
150.241060824166
 21
-2.99314604840902
 31
0.0
  0
LINE
  5
   3C8
  8
0
  6
CONTINUOUS
 62
     1
 10
160.566068659197
 20
-18.2181457891288
 30
0.0
 11
160.566068659197
 21
-17.5181725039301
 31
0.0
  0
LINE
  5
   3C9
  8
0
  6
CONTINUOUS
 62
     1
 10
160.566068659518
 20
-19.4431457676745
 30
0.0
 11
160.566071329806
 21
-20.1431457557536
 31
0.0
  0
LINE
  5
   3CA
  8
0
  6
CONTINUOUS
 62
     1
 10
159.51606066747
 20
-26.9681456381896
 30
0.0
 11
159.516066008046
 21
-26.2681456501105
 31
0.0
  0
LINE
  5
   3CB
  8
0
  6
CONTINUOUS
 62
     1
 10
157.801437174066
 20
-39.7438192138479
 30
0.0
 11
158.221051561041
 21
-40.2438546877334
 31
0.0
  0
LINE
  5
   3CC
  8
0
  6
CONTINUOUS
 62
     1
 10
157.271416328943
 20
-39.3627816408632
 30
0.0
 11
157.801439127375
 21
-39.7438183776593
 31
0.0
  0
LINE
  5
   3CD
  8
0
  6
CONTINUOUS
 62
     1
 10
156.663762492876
 20
-39.1243089898006
 30
0.0
 11
157.271415891367
 21
-39.3627817371733
 31
0.0
  0
LINE
  5
   3CE
  8
0
  6
CONTINUOUS
 62
     1
 10
156.016059672412
 20
-39.0431442040096
 30
0.0
 11
156.663767425762
 21
-39.1243076084012
 31
0.0
  0
LINE
  5
   3CF
  8
0
  6
CONTINUOUS
 62
     1
 10
155.368352227984
 20
-39.1243070623978
 30
0.0
 11
156.016059981333
 21
-39.0431436580062
 31
0.0
  0
LINE
  5
   3D0
  8
0
  6
CONTINUOUS
 62
     1
 10
154.76069346755
 20
-39.3627819849659
 30
0.0
 11
155.36834686604
 21
-39.1243092375932
 31
0.0
  0
LINE
  5
   3D1
  8
0
  6
CONTINUOUS
 62
     1
 10
154.230671144911
 20
-39.7438185321002
 30
0.0
 11
154.760693943343
 21
-39.3627817953042
 31
0.0
  0
LINE
  5
   3D2
  8
0
  6
CONTINUOUS
 62
     1
 10
153.811055503257
 20
-40.2438527812296
 30
0.0
 11
154.230672558295
 21
-39.7438173128894
 31
0.0
  0
LINE
  5
   3D3
  8
0
  6
CONTINUOUS
 62
     1
 10
153.811054354678
 20
-43.0924343059519
 30
0.0
 11
153.811054354678
 21
-40.2438538033155
 31
0.0
  0
LINE
  5
   3D4
  8
0
  6
CONTINUOUS
 62
     1
 10
153.811055128475
 20
-43.092434030506
 30
0.0
 11
154.230672183513
 21
-43.5924694988462
 31
0.0
  0
LINE
  5
   3D5
  8
0
  6
CONTINUOUS
 62
     1
 10
154.230671229261
 20
-43.5924698157778
 30
0.0
 11
154.760694027693
 21
-43.9735065525738
 31
0.0
  0
LINE
  5
   3D6
  8
0
  6
CONTINUOUS
 62
     1
 10
154.760692106985
 20
-43.9735068883297
 30
0.0
 11
155.368345504648
 21
-44.2119809664068
 31
0.0
  0
LINE
  5
   3D7
  8
0
  6
CONTINUOUS
 62
     1
 10
155.368351898248
 20
-44.2119796679884
 30
0.0
 11
156.016059651597
 21
-44.29314307238
 31
0.0
  0
LINE
  5
   3D8
  8
0
  6
CONTINUOUS
 62
     1
 10
156.016060002148
 20
-44.2931425263766
 30
0.0
 11
156.663767755497
 21
-44.211979121985
 31
0.0
  0
LINE
  5
   3D9
  8
0
  6
CONTINUOUS
 62
     1
 10
156.663760408574
 20
-44.2119818402835
 30
0.0
 11
157.271413806237
 21
-43.9735077622065
 31
0.0
  0
LINE
  5
   3DA
  8
0
  6
CONTINUOUS
 62
     1
 10
157.271416244593
 20
-43.9735067070148
 30
0.0
 11
157.801439043025
 21
-43.5924699702187
 31
0.0
  0
LINE
  5
   3DB
  8
0
  6
CONTINUOUS
 62
     1
 10
157.801436117119
 20
-43.5924723226374
 30
0.0
 11
158.221050504095
 21
-43.0924368487519
 31
0.0
  0
LINE
  5
   3DC
  8
0
  6
CONTINUOUS
 62
     1
 10
158.221053745519
 20
-43.0924343059519
 30
0.0
 11
158.221053745519
 21
-40.2438538033155
 31
0.0
  0
LINE
  5
   3DD
  8
0
  6
CONTINUOUS
 62
     1
 10
160.689799564388
 20
-35.1568531826368
 30
0.0
 11
160.741055743414
 21
-35.2805970007416
 31
0.0
  0
LINE
  5
   3DE
  8
0
  6
CONTINUOUS
 62
     1
 10
160.566056083725
 20
-35.1055972310538
 30
0.0
 11
160.689799901829
 21
-35.15685341008
 31
0.0
  0
LINE
  5
   3DF
  8
0
  6
CONTINUOUS
 62
     1
 10
159.516055325638
 20
-35.1055974363517
 30
0.0
 11
160.566055307756
 21
-35.1055974363517
 31
0.0
  0
LINE
  5
   3E0
  8
0
  6
CONTINUOUS
 62
     1
 10
159.392312491188
 20
-35.1568530749605
 30
0.0
 11
159.516056309293
 21
-35.1055968959343
 31
0.0
  0
LINE
  5
   3E1
  8
0
  6
CONTINUOUS
 62
     1
 10
159.34105597998
 20
-35.2805966645963
 30
0.0
 11
159.392312159006
 21
-35.1568528464915
 31
0.0
  0
LINE
  5
   3E2
  8
0
  6
CONTINUOUS
 62
     1
 10
159.341055328618
 20
-36.1555974184703
 30
0.0
 11
159.341055328618
 21
-35.2805974333714
 31
0.0
  0
LINE
  5
   3E3
  8
0
  6
CONTINUOUS
 62
     1
 10
159.341055328618
 20
-36.8555974065494
 30
0.0
 11
159.341055328618
 21
-36.1555974184703
 31
0.0
  0
LINE
  5
   3E4
  8
0
  6
CONTINUOUS
 62
     1
 10
159.341055328618
 20
-37.5555973946284
 30
0.0
 11
159.341055328618
 21
-36.8555974065494
 31
0.0
  0
LINE
  5
   3E5
  8
0
  6
CONTINUOUS
 62
     1
 10
159.341055328618
 20
-38.2555973827075
 30
0.0
 11
159.341055328618
 21
-37.5555973946284
 31
0.0
  0
LINE
  5
   3E6
  8
0
  6
CONTINUOUS
 62
     1
 10
159.341055328618
 20
-39.1305973678063
 30
0.0
 11
159.341055328618
 21
-38.2555973827075
 31
0.0
  0
LINE
  5
   3E7
  8
0
  6
CONTINUOUS
 62
     1
 10
159.341055765629
 20
-39.1305970101035
 30
0.0
 11
159.392311944655
 21
-39.2543408282083
 31
0.0
  0
LINE
  5
   3E8
  8
0
  6
CONTINUOUS
 62
     1
 10
159.392312275811
 20
-39.2543410278251
 30
0.0
 11
159.516056093916
 21
-39.3055972068512
 31
0.0
  0
LINE
  5
   3E9
  8
0
  6
CONTINUOUS
 62
     1
 10
159.516055325638
 20
-39.3055973648261
 30
0.0
 11
160.566055307756
 21
-39.3055973648261
 31
0.0
  0
LINE
  5
   3EA
  8
0
  6
CONTINUOUS
 62
     1
 10
160.566056299102
 20
-39.3055968717318
 30
0.0
 11
160.689800117207
 21
-39.2543406927056
 31
0.0
  0
LINE
  5
   3EB
  8
0
  6
CONTINUOUS
 62
     1
 10
160.689799778739
 20
-39.2543404920631
 30
0.0
 11
160.741055957766
 21
-39.1305966739583
 31
0.0
  0
LINE
  5
   3EC
  8
0
  6
CONTINUOUS
 62
     1
 10
160.741055304776
 20
-39.1305973678063
 30
0.0
 11
160.741055304776
 21
-38.2555973827075
 31
0.0
  0
LINE
  5
   3ED
  8
0
  6
CONTINUOUS
 62
     1
 10
160.741055304776
 20
-38.2555973827075
 30
0.0
 11
160.741055304776
 21
-37.5555973946284
 31
0.0
  0
LINE
  5
   3EE
  8
0
  6
CONTINUOUS
 62
     1
 10
160.741055304776
 20
-37.5555973946284
 30
0.0
 11
160.741055304776
 21
-36.8555974065494
 31
0.0
  0
LINE
  5
   3EF
  8
0
  6
CONTINUOUS
 62
     1
 10
160.741055304776
 20
-36.8555974065494
 30
0.0
 11
160.741055304776
 21
-36.1555974184703
 31
0.0
  0
LINE
  5
   3F0
  8
0
  6
CONTINUOUS
 62
     1
 10
160.741055304776
 20
-36.1555974184703
 30
0.0
 11
160.741055304776
 21
-35.2805974333714
 31
0.0
  0
LINE
  5
   3F1
  8
0
  6
CONTINUOUS
 62
     1
 10
159.51606600679
 20
-5.35564600817588
 30
0.0
 11
159.51606600679
 21
-4.30564602605727
 31
0.0
  0
LINE
  5
   3F2
  8
0
  6
CONTINUOUS
 62
     1
 10
159.516065108006
 20
-5.3556490391563
 30
0.0
 11
159.616331750432
 21
-5.66423821194249
 31
0.0
  0
LINE
  5
   3F3
  8
0
  6
CONTINUOUS
 62
     1
 10
159.616332353682
 20
-5.66423558622332
 30
0.0
 11
159.878832346895
 21
-5.854952904142
 31
0.0
  0
LINE
  5
   3F4
  8
0
  6
CONTINUOUS
 62
     1
 10
159.878832647951
 20
-5.85495248770985
 30
0.0
 11
160.203299347748
 21
-5.85495248770985
 31
0.0
  0
LINE
  5
   3F5
  8
0
  6
CONTINUOUS
 62
     1
 10
160.203298652065
 20
-5.85495318286797
 30
0.0
 11
160.465798645277
 21
-5.66423586494929
 31
0.0
  0
LINE
  5
   3F6
  8
0
  6
CONTINUOUS
 62
     1
 10
160.465797357638
 20
-5.6642389866199
 30
0.0
 11
160.566064000063
 21
-5.35564981383373
 31
0.0
  0
LINE
  5
   3F7
  8
0
  6
CONTINUOUS
 62
     1
 10
160.566065988909
 20
-5.35564600817588
 30
0.0
 11
160.566065988909
 21
-4.30564602605727
 31
0.0
  0
LINE
  5
   3F8
  8
0
  6
CONTINUOUS
 62
     1
 10
160.465798425154
 20
-3.99705995955761
 30
0.0
 11
160.56606506758
 21
-4.30564913234377
 31
0.0
  0
LINE
  5
   3F9
  8
0
  6
CONTINUOUS
 62
     1
 10
160.203299048404
 20
-3.80633997279185
 30
0.0
 11
160.465799041616
 21
-3.99705729071053
 31
0.0
  0
LINE
  5
   3FA
  8
0
  6
CONTINUOUS
 62
     1
 10
159.878832647951
 20
-3.8063395465233
 30
0.0
 11
160.203299347748
 21
-3.8063395465233
 31
0.0
  0
LINE
  5
   3FB
  8
0
  6
CONTINUOUS
 62
     1
 10
159.616331957344
 20
-3.9970575694365
 30
0.0
 11
159.878831950556
 21
-3.80634025151782
 31
0.0
  0
LINE
  5
   3FC
  8
0
  6
CONTINUOUS
 62
     1
 10
159.51606404049
 20
-4.3056499070212
 30
0.0
 11
159.616330682915
 21
-3.99706073423503
 31
0.0
  0
LINE
  5
   3FD
  8
0
  6
CONTINUOUS
 62
     1
 10
159.516033596288
 20
-26.9681456400897
 30
0.0
 11
159.516033596288
 21
-17.5181458010223
 31
0.0
  0
LINE
  5
   3FE
  8
0
  6
CONTINUOUS
 62
     1
 10
159.51606600679
 20
-26.9681456401172
 30
0.0
 11
160.566079340349
 21
-26.9681456401172
 31
0.0
  0
LINE
  5
   3FF
  8
0
  6
CONTINUOUS
 62
     1
 10
160.566068659225
 20
-17.5181724994914
 30
0.0
 11
160.566079340377
 21
-26.9681456364058
 31
0.0
  0
LINE
  5
   400
  8
0
  6
CONTINUOUS
 62
     1
 10
159.516074045573
 20
-17.5181457856304
 30
0.0
 11
160.566068687116
 21
-17.51817248851
 31
0.0
  0
LINE
  5
   401
  8
0
  6
CONTINUOUS
 62
     5
 10
71.1410795276437
 20
-49.368125231244
 30
0.0
 11
76.9160687481439
 21
-49.3681572746999
 31
0.0
  0
LINE
  5
   402
  8
0
  6
CONTINUOUS
 62
     5
 10
71.1410795281034
 20
-0.3681460931125
 30
0.0
 11
76.9160687486036
 21
-0.3681460931125
 31
0.0
  0
LINE
  5
   403
  8
0
  6
CONTINUOUS
 62
     5
 10
76.9160687486036
 20
-1.76818345330321
 30
0.0
 11
76.9160687486036
 21
-0.3681460931125
 31
0.0
  0
LINE
  5
   404
  8
0
  6
CONTINUOUS
 62
     5
 10
76.9160687486036
 20
-49.3681572749437
 30
0.0
 11
76.9160687486036
 21
-47.9682013585382
 31
0.0
  0
LINE
  5
   405
  8
0
  6
CONTINUOUS
 62
     5
 10
70.7910639459254
 20
-49.0181919946483
 30
0.0
 11
70.7910639459254
 21
-0.718144752007703
 31
0.0
  0
LINE
  5
   406
  8
0
  6
CONTINUOUS
 62
     1
 10
76.566066084276
 20
-49.3681038691829
 30
0.0
 11
76.566066084276
 21
-47.9681946828181
 31
0.0
  0
LINE
  5
   407
  8
0
  6
CONTINUOUS
 62
     1
 10
76.566066084276
 20
-5.00556590549513
 30
0.0
 11
76.566066084276
 21
-0.3681460931125
 31
0.0
  0
LINE
  5
   408
  8
0
  6
CONTINUOUS
 62
     5
 10
70.7910726796971
 20
-49.0181036205331
 30
0.0
 11
70.817708803751
 21
-49.1521307188955
 31
0.0
  0
LINE
  5
   409
  8
0
  6
CONTINUOUS
 62
     5
 10
70.8177225648417
 20
-49.152043097809
 30
0.0
 11
70.8935801055769
 21
-49.2656798730698
 31
0.0
  0
LINE
  5
   40A
  8
0
  6
CONTINUOUS
 62
     5
 10
70.8935925480076
 20
-49.2655919793294
 30
0.0
 11
71.0071412085595
 21
-49.3414615364239
 31
0.0
  0
LINE
  5
   40B
  8
0
  6
CONTINUOUS
 62
     5
 10
71.0071409663757
 20
-49.3414612640317
 30
0.0
 11
71.1410799460459
 21
-49.3681254261047
 31
0.0
  0
LINE
  5
   40C
  8
0
  6
CONTINUOUS
 62
     5
 10
71.0071408008075
 20
-0.394790783740518
 30
0.0
 11
71.1410797780549
 21
-0.36814665028237
 31
0.0
  0
LINE
  5
   40D
  8
0
  6
CONTINUOUS
 62
     5
 10
70.893594814462
 20
-0.470661867647252
 30
0.0
 11
71.0071408002667
 21
-0.394793647022695
 31
0.0
  0
LINE
  5
   40E
  8
0
  6
CONTINUOUS
 62
     5
 10
70.8177223622265
 20
-0.584203188484381
 30
0.0
 11
70.8935919222183
 21
-0.470657197376383
 31
0.0
  0
LINE
  5
   40F
  8
0
  6
CONTINUOUS
 62
     5
 10
70.7910728861612
 20
-0.718146445144413
 30
0.0
 11
70.8177223615464
 21
-0.584204796864825
 31
0.0
  0
LINE
  5
   410
  8
0
  6
CONTINUOUS
 62
     1
 10
76.5660660822746
 20
-47.9681906762575
 30
0.0
 11
76.9160674114582
 21
-47.9681946816896
 31
0.0
  0
LINE
  5
   411
  8
0
  6
CONTINUOUS
 62
     1
 10
76.5660660807996
 20
-1.76815140246222
 30
0.0
 11
76.9160674099832
 21
-1.76814606188614
 31
0.0
  0
LINE
  5
   412
  8
0
  6
CONTINUOUS
 62
     1
 10
75.6035661002471
 20
-44.1182361375751
 30
0.0
 11
76.9160660778953
 21
-44.1182428132954
 31
0.0
  0
LINE
  5
   413
  8
0
  6
CONTINUOUS
 62
     1
 10
75.6035661006673
 20
-45.5182427897261
 30
0.0
 11
76.9160660783156
 21
-45.5182427897261
 31
0.0
  0
LINE
  5
   414
  8
0
  6
CONTINUOUS
 62
     1
 10
76.566066084276
 20
-7.71819403312747
 30
0.0
 11
76.9160660783156
 21
-7.71819403312747
 31
0.0
  0
LINE
  5
   415
  8
0
  6
CONTINUOUS
 62
     1
 10
76.566066084276
 20
-9.11819400928562
 30
0.0
 11
76.9160660783156
 21
-9.11819400928562
 31
0.0
  0
LINE
  5
   416
  8
0
  6
CONTINUOUS
 62
     5
 10
76.9160660783156
 20
-41.6682148172667
 30
0.0
 11
76.9160660783156
 21
-10.1682153537085
 31
0.0
  0
LINE
  5
   417
  8
0
  6
CONTINUOUS
 62
     5
 10
76.9160660782884
 20
-47.2682147266757
 30
0.0
 11
76.9160674134324
 21
-47.9681946881674
 31
0.0
  0
LINE
  5
   418
  8
0
  6
CONTINUOUS
 62
     5
 10
76.9160660783156
 20
-45.8679276897768
 30
0.0
 11
76.9160660783156
 21
-43.7685098483324
 31
0.0
  0
LINE
  5
   419
  8
0
  6
CONTINUOUS
 62
     5
 10
76.9160371666306
 20
-4.56821544906155
 30
0.0
 11
76.9160371666306
 21
-1.76818345328878
 31
0.0
  0
LINE
  5
   41A
  8
0
  6
CONTINUOUS
 62
     5
 10
76.9160660783156
 20
-9.46821002505339
 30
0.0
 11
76.9160660783156
 21
-7.36821006081618
 31
0.0
  0
LINE
  5
   41B
  8
0
  6
CONTINUOUS
 62
     1
 10
73.9410661289795
 20
-44.1182267918397
 30
0.0
 11
73.9410661289795
 21
-43.7680652453737
 31
0.0
  0
LINE
  5
   41C
  8
0
  6
CONTINUOUS
 62
     1
 10
76.5660674194201
 20
-4.56821544907598
 30
0.0
 11
76.9160660783156
 21
-4.56821544907598
 31
0.0
  0
LINE
  5
   41D
  8
0
  6
CONTINUOUS
 62
     1
 10
75.1660661081179
 20
-10.1682153537085
 30
0.0
 11
76.9160660783156
 21
-10.1682153537085
 31
0.0
  0
LINE
  5
   41E
  8
0
  6
CONTINUOUS
 62
     1
 10
75.6035661006673
 20
-47.2682107164673
 30
0.0
 11
76.9160660783156
 21
-47.2682107164673
 31
0.0
  0
LINE
  5
   41F
  8
0
  6
CONTINUOUS
 62
     1
 10
75.1660661081179
 20
-41.6682094766907
 30
0.0
 11
76.9160660783156
 21
-41.6682094766907
 31
0.0
  0
LINE
  5
   420
  8
0
  6
CONTINUOUS
 62
     5
 10
70.4410661885842
 20
-30.8182176723292
 30
0.0
 11
70.4410661885842
 21
-23.8182177915385
 31
0.0
  0
LINE
  5
   421
  8
0
  6
CONTINUOUS
 62
     1
 10
72.4535568083034
 20
-5.00572078220148
 30
0.0
 11
73.6785661334499
 21
-5.00572078220148
 31
0.0
  0
LINE
  5
   422
  8
0
  6
CONTINUOUS
 62
     1
 10
72.4535568083034
 20
-5.00572078220148
 30
0.0
 11
73.6785661334499
 21
-5.00572078220148
 31
0.0
  0
LINE
  5
   423
  8
0
  6
CONTINUOUS
 62
     1
 10
75.1660661081179
 20
-9.81818865678861
 30
0.0
 11
76.566066084276
 21
-9.81818865678861
 31
0.0
  0
LINE
  5
   424
  8
0
  6
CONTINUOUS
 62
     1
 10
76.566066084276
 20
-9.81818865678861
 30
0.0
 11
76.566066084276
 21
-5.00572078220148
 31
0.0
  0
LINE
  5
   425
  8
0
  6
CONTINUOUS
 62
     1
 10
74.4660647839238
 20
-11.568103176208
 30
0.0
 11
75.1660567611387
 21
-11.5681085167841
 31
0.0
  0
LINE
  5
   426
  8
0
  6
CONTINUOUS
 62
     1
 10
75.1660567620415
 20
-11.5681085191029
 30
0.0
 11
75.1660607674735
 21
-10.1681459294559
 31
0.0
  0
LINE
  5
   427
  8
0
  6
CONTINUOUS
 62
     1
 10
74.4660647808477
 20
-10.6930978457483
 30
0.0
 11
75.1660580932066
 21
-10.6931085269005
 31
0.0
  0
LINE
  5
   428
  8
0
  6
CONTINUOUS
 62
     1
 10
73.6785661334499
 20
-7.01822074792881
 30
0.0
 11
73.6785661334499
 21
-5.00572078220148
 31
0.0
  0
LINE
  5
   429
  8
0
  6
CONTINUOUS
 62
     1
 10
73.6785624072236
 20
-7.01821433359942
 30
0.0
 11
74.2035624098157
 21
-7.54321433619154
 31
0.0
  0
LINE
  5
   42A
  8
0
  6
CONTINUOUS
 62
     1
 10
74.2035661245092
 20
-7.54322073898811
 30
0.0
 11
75.4285661036475
 21
-7.54322073898811
 31
0.0
  0
LINE
  5
   42B
  8
0
  6
CONTINUOUS
 62
     1
 10
75.4285661036475
 20
-7.54322073898811
 30
0.0
 11
75.4285661036475
 21
-5.00556590549513
 31
0.0
  0
LINE
  5
   42C
  8
0
  6
CONTINUOUS
 62
     1
 10
73.6785661334499
 20
-5.00564067356026
 30
0.0
 11
76.566066084276
 21
-5.00564067356026
 31
0.0
  0
LINE
  5
   42D
  8
0
  6
CONTINUOUS
 62
     1
 10
74.203566124445
 20
-46.3931640012935
 30
0.0
 11
75.6035661006031
 21
-46.3931666715815
 31
0.0
  0
LINE
  5
   42E
  8
0
  6
CONTINUOUS
 62
     1
 10
75.6035661006673
 20
-47.9680651738481
 30
0.0
 11
75.6035661006673
 21
-46.3931666716157
 31
0.0
  0
LINE
  5
   42F
  8
0
  6
CONTINUOUS
 62
     1
 10
74.2035661245092
 20
-47.9680651738481
 30
0.0
 11
74.2035661245092
 21
-46.3931640013277
 31
0.0
  0
LINE
  5
   430
  8
0
  6
CONTINUOUS
 62
     1
 10
72.9785621398167
 20
-44.1181974186031
 30
0.0
 11
75.6035661005453
 21
-44.1181907428827
 31
0.0
  0
LINE
  5
   431
  8
0
  6
CONTINUOUS
 62
     1
 10
75.6035661006673
 20
-46.3931907042081
 30
0.0
 11
75.6035661006673
 21
-44.1181907429511
 31
0.0
  0
LINE
  5
   432
  8
0
  6
CONTINUOUS
 62
     1
 10
75.1660661081179
 20
-13.6681351854627
 30
0.0
 11
75.1660661081179
 21
-11.5681245400733
 31
0.0
  0
LINE
  5
   433
  8
0
  6
CONTINUOUS
 62
     1
 10
72.9785624433977
 20
-44.118197798962
 30
0.0
 11
73.0052840154322
 21
-44.0914762269274
 31
0.0
  0
LINE
  5
   434
  8
0
  6
CONTINUOUS
 62
     1
 10
72.978563148074
 20
-44.1181493655284
 30
0.0
 11
73.3286552685209
 21
-43.7680665998043
 31
0.0
  0
LINE
  5
   435
  8
0
  6
CONTINUOUS
 62
     1
 10
75.1660689602378
 20
-43.7680652453728
 30
0.0
 11
75.1660689602378
 21
-13.6681351854618
 31
0.0
  0
LINE
  5
   436
  8
0
  6
CONTINUOUS
 62
     1
 10
75.1660661081179
 20
-10.1681459262195
 30
0.0
 11
75.1660661081179
 21
-8.59306584440037
 31
0.0
  0
LINE
  5
   437
  8
0
  6
CONTINUOUS
 62
     1
 10
72.9785661453708
 20
-43.7680652453737
 30
0.0
 11
75.1660661081179
 21
-43.7680652453737
 31
0.0
  0
LINE
  5
   438
  8
0
  6
CONTINUOUS
 62
     1
 10
72.9785661453708
 20
-47.9680651738481
 30
0.0
 11
76.566066084276
 21
-47.9680651738481
 31
0.0
  0
LINE
  5
   439
  8
0
  6
CONTINUOUS
 62
     1
 10
72.9785661453708
 20
-47.9680651738481
 30
0.0
 11
72.9785661453708
 21
-43.7680652453737
 31
0.0
  0
LINE
  5
   43A
  8
0
  6
CONTINUOUS
 62
     1
 10
72.4535634840235
 20
-8.59306584440037
 30
0.0
 11
75.1660661081179
 21
-8.59306584440037
 31
0.0
  0
LINE
  5
   43B
  8
0
  6
CONTINUOUS
 62
     1
 10
72.4535634840235
 20
-8.59306584440037
 30
0.0
 11
72.4535634840235
 21
-5.00556590549513
 31
0.0
  0
LINE
  5
   43C
  8
0
  6
CONTINUOUS
 62
     1
 10
74.8160661140784
 20
-10.1681459262195
 30
0.0
 11
75.1660661081179
 21
-10.1681459262195
 31
0.0
  0
LINE
  5
   43D
  8
0
  6
CONTINUOUS
 62
     1
 10
74.6821273398657
 20
-10.1947905335655
 30
0.0
 11
74.816066317113
 21
-10.1681464001074
 31
0.0
  0
LINE
  5
   43E
  8
0
  6
CONTINUOUS
 62
     1
 10
74.5685786328016
 20
-10.2706608543797
 30
0.0
 11
74.6821272880557
 21
-10.1947926285212
 31
0.0
  0
LINE
  5
   43F
  8
0
  6
CONTINUOUS
 62
     1
 10
74.4927089517467
 20
-10.3842032084381
 30
0.0
 11
74.5685785117386
 21
-10.2706572173301
 31
0.0
  0
LINE
  5
   440
  8
0
  6
CONTINUOUS
 62
     1
 10
74.4660661255312
 20
-10.5181459955863
 30
0.0
 11
74.492708924062
 21
-10.3842043481201
 31
0.0
  0
LINE
  5
   441
  8
0
  6
CONTINUOUS
 62
     1
 10
74.4660661200388
 20
-13.3181351914232
 30
0.0
 11
74.4660661200388
 21
-10.518145920259
 31
0.0
  0
LINE
  5
   442
  8
0
  6
CONTINUOUS
 62
     1
 10
74.4660661406603
 20
-13.3181352680391
 30
0.0
 11
74.4927089391911
 21
-13.4520769155053
 31
0.0
  0
LINE
  5
   443
  8
0
  6
CONTINUOUS
 62
     1
 10
74.492708334365
 20
-13.4520756394179
 30
0.0
 11
74.5685778943568
 21
-13.5656216305259
 31
0.0
  0
LINE
  5
   444
  8
0
  6
CONTINUOUS
 62
     1
 10
74.5685806127833
 20
-13.5656258665285
 30
0.0
 11
74.6821292680374
 21
-13.641494092387
 31
0.0
  0
LINE
  5
   445
  8
0
  6
CONTINUOUS
 62
     1
 10
74.6821275192019
 20
-13.6414915509821
 30
0.0
 11
74.8160664964492
 21
-13.6681356844403
 31
0.0
  0
LINE
  5
   446
  8
0
  6
CONTINUOUS
 62
     1
 10
74.8160661140784
 20
-13.6681351854627
 30
0.0
 11
75.1660621026858
 21
-13.6681351854627
 31
0.0
  0
LINE
  5
   447
  8
0
  6
CONTINUOUS
 62
     1
 10
185.241076249848
 20
-11.5681405618016
 30
0.0
 11
185.591070903311
 21
-11.5681405618016
 31
0.0
  0
LINE
  5
   448
  8
0
  6
DOT
 62
     1
 10
174.82853214692
 20
-0.3681460931125
 30
0.0
 11
184.016022694977
 21
-0.3681460931125
 31
0.0
  0
LINE
  5
   449
  8
0
  6
CONTINUOUS
 62
     1
 10
184.191076267729
 20
-11.5681405618016
 30
0.0
 11
185.241076249848
 21
-11.5681405618016
 31
0.0
  0
LINE
  5
   44A
  8
0
  6
CONTINUOUS
 62
     7
 10
185.591076243888
 20
-51.0306505709114
 30
0.0
 11
185.591076243888
 21
-49.3681532695116
 31
0.0
  0
LINE
  5
   44B
  8
0
  6
CONTINUOUS
 62
     7
 10
185.591077969542
 20
-49.3681559397989
 30
0.0
 11
185.591077969542
 21
-0.368146093111733
 31
0.0
  0
LINE
  5
   44C
  8
0
  6
CONTINUOUS
 62
     7
 10
185.941070897351
 20
-30.8181615962803
 30
0.0
 11
185.941070897351
 21
-23.8181617154896
 31
0.0
  0
LINE
  5
   44D
  8
0
  6
CONTINUOUS
 62
     1
 10
114.891063428889
 20
-17.7611046286993
 30
0.0
 11
150.241060156594
 21
-17.7611046286993
 31
0.0
  0
LINE
  5
   44E
  8
0
  6
CONTINUOUS
 62
     1
 10
114.891063428889
 20
-17.4111046346598
 30
0.0
 11
150.241060156594
 21
-17.4111046346598
 31
0.0
  0
LINE
  5
   44F
  8
0
  6
CONTINUOUS
 62
   210
 10
130.816065160404
 20
-39.4175919155311
 30
0.0
 11
130.816065160404
 21
-18.7187019634657
 31
0.0
  0
LINE
  5
   450
  8
0
  6
CONTINUOUS
 62
   210
 10
145.516066245209
 20
-39.4175919155311
 30
0.0
 11
145.516066245209
 21
-18.7187019634657
 31
0.0
  0
LINE
  5
   451
  8
0
  6
CONTINUOUS
 62
     1
 10
114.891063428889
 20
-24.4111045154505
 30
0.0
 11
130.816065827976
 21
-24.4111045154505
 31
0.0
  0
LINE
  5
   452
  8
0
  6
CONTINUOUS
 62
     1
 10
145.516066245209
 20
-24.4111045154505
 30
0.0
 11
150.241060824166
 21
-24.4111045154505
 31
0.0
  0
LINE
  5
   453
  8
0
  6
CONTINUOUS
 62
     1
 10
145.516066245209
 20
-24.0611045214109
 30
0.0
 11
150.241060824166
 21
-24.0611045214109
 31
0.0
  0
LINE
  5
   454
  8
0
  6
CONTINUOUS
 62
     1
 10
114.891063428889
 20
-24.0611045214109
 30
0.0
 11
130.816065827976
 21
-24.0611045214109
 31
0.0
  0
LINE
  5
   455
  8
0
  6
CONTINUOUS
 62
     1
 10
145.516066245209
 20
-33.8015061957428
 30
0.0
 11
150.241060824166
 21
-33.8015061957428
 31
0.0
  0
LINE
  5
   456
  8
0
  6
CONTINUOUS
 62
     1
 10
114.891063428889
 20
-33.8015061957428
 30
0.0
 11
130.816065827976
 21
-33.8015061957428
 31
0.0
  0
LINE
  5
   457
  8
0
  6
CONTINUOUS
 62
     1
 10
114.891063428889
 20
-34.1515061897824
 30
0.0
 11
130.816065827976
 21
-34.1515061897824
 31
0.0
  0
LINE
  5
   458
  8
0
  6
CONTINUOUS
 62
     1
 10
145.516066245209
 20
-34.1515061897824
 30
0.0
 11
150.241060824166
 21
-34.1515061897824
 31
0.0
  0
LINE
  5
   459
  8
0
  6
CONTINUOUS
 62
     1
 10
114.891063428889
 20
-40.451506082494
 30
0.0
 11
150.241060156594
 21
-40.451506082494
 31
0.0
  0
LINE
  5
   45A
  8
0
  6
CONTINUOUS
 62
     1
 10
114.891063428889
 20
-40.8015060765335
 30
0.0
 11
150.241060156594
 21
-40.8015060765335
 31
0.0
  0
LINE
  5
   45B
  8
0
  6
CONTINUOUS
 62
     1
 10
70.7910728583438
 20
-0.718146087152036
 30
0.0
 11
76.566066084276
 21
-0.718146087152036
 31
0.0
  0
LINE
  5
   45C
  8
0
  6
CONTINUOUS
 62
     1
 10
70.791072848437
 20
-49.0181038711187
 30
0.0
 11
71.9285661533454
 21
-49.0180785033827
 31
0.0
  0
LINE
  5
   45D
  8
0
  6
CONTINUOUS
 62
     1
 10
73.9410661289795
 20
-43.7682241275121
 30
0.0
 11
76.9160660783156
 21
-43.7682241275121
 31
0.0
  0
LINE
  5
   45E
  8
0
  6
CONTINUOUS
 62
     1
 10
75.6035661006673
 20
-45.8682240917493
 30
0.0
 11
76.9160660783156
 21
-45.8682240917493
 31
0.0
  0
LINE
  5
   45F
  8
0
  6
CONTINUOUS
 62
     1
 10
76.566066084276
 20
-7.36821006081618
 30
0.0
 11
76.9160660783156
 21
-7.36821006081618
 31
0.0
  0
LINE
  5
   460
  8
0
  6
CONTINUOUS
 62
     1
 10
76.566066084276
 20
-9.46821002505339
 30
0.0
 11
76.9160660783156
 21
-9.46821002505339
 31
0.0
  0
LINE
  5
   461
  8
0
  6
CONTINUOUS
 62
     5
 10
76.9160660783156
 20
-7.19321540437249
 30
0.0
 11
76.9160660783156
 21
-4.56821544907598
 31
0.0
  0
LINE
  5
   462
  8
0
  6
CONTINUOUS
 62
     5
 10
76.9160660783156
 20
-7.36821006081618
 30
0.0
 11
76.9160660783156
 21
-7.19321540437249
 31
0.0
  0
LINE
  5
   463
  8
0
  6
CONTINUOUS
 62
     5
 10
76.9160660783156
 20
-9.64321536264924
 30
0.0
 11
76.9160660783156
 21
-9.46821002505339
 31
0.0
  0
LINE
  5
   464
  8
0
  6
CONTINUOUS
 62
     5
 10
76.9160660783156
 20
-10.1682153537085
 30
0.0
 11
76.9160660783156
 21
-9.64321536264924
 31
0.0
  0
LINE
  5
   465
  8
0
  6
CONTINUOUS
 62
     5
 10
76.9160660783156
 20
-43.5932241304923
 30
0.0
 11
76.9160660783156
 21
-41.6682094766907
 31
0.0
  0
LINE
  5
   466
  8
0
  6
CONTINUOUS
 62
     5
 10
76.9160660783156
 20
-43.7682241275121
 30
0.0
 11
76.9160660783156
 21
-43.5932241304923
 31
0.0
  0
LINE
  5
   467
  8
0
  6
CONTINUOUS
 62
     5
 10
76.9160660783156
 20
-46.0432240887691
 30
0.0
 11
76.9160660783156
 21
-45.8682240917493
 31
0.0
  0
LINE
  5
   468
  8
0
  6
CONTINUOUS
 62
     5
 10
76.9160660783156
 20
-47.2682107164673
 30
0.0
 11
76.9160660783156
 21
-46.0432240887691
 31
0.0
  0
LINE
  5
   469
  8
0
  6
CONTINUOUS
 62
     5
 10
70.4410661885842
 20
-30.8182176723292
 30
0.0
 11
70.7910661826237
 21
-30.8182176723292
 31
0.0
  0
LINE
  5
   46A
  8
0
  6
CONTINUOUS
 62
     5
 10
70.4410661885842
 20
-23.8182177915385
 30
0.0
 11
70.7910661826237
 21
-23.8182177915385
 31
0.0
  0
LINE
  5
   46B
  8
0
  6
CONTINUOUS
 62
     1
 10
73.9410660930346
 20
-7.28072207712705
 30
0.0
 11
74.7285660895471
 21
-6.49322208061457
 31
0.0
  0
LINE
  5
   46C
  8
0
  6
CONTINUOUS
 62
     1
 10
71.9285661632522
 20
-49.0180785074069
 30
0.0
 11
71.9285661632522
 21
-42.718062592967
 31
0.0
  0
LINE
  5
   46D
  8
0
  6
CONTINUOUS
 62
     1
 10
71.9285661632522
 20
-42.718062592967
 30
0.0
 11
72.9785661453708
 21
-42.718062592967
 31
0.0
  0
LINE
  5
   46E
  8
0
  6
CONTINUOUS
 62
     1
 10
71.9285668669608
 20
-42.7180633405546
 30
0.0
 11
72.9785668721433
 21
-43.7680660009919
 31
0.0
  0
LINE
  5
   46F
  8
0
  6
CONTINUOUS
 62
     1
 10
71.9285661629776
 20
-49.0180785072892
 30
0.0
 11
72.9785661450962
 21
-49.0180745018571
 31
0.0
  0
LINE
  5
   470
  8
0
  6
CONTINUOUS
 62
     1
 10
71.9285656174258
 20
-49.0180781487732
 30
0.0
 11
72.9785656225677
 21
-47.9680647787809
 31
0.0
  0
LINE
  5
   471
  8
0
  6
CONTINUOUS
 62
     1
 10
75.2535661066278
 20
-47.9680731847122
 30
0.0
 11
75.2535661066278
 21
-46.3931666716157
 31
0.0
  0
LINE
  5
   472
  8
0
  6
CONTINUOUS
 62
     1
 10
72.9785661453708
 20
-42.718062592967
 30
0.0
 11
75.1660661081179
 21
-42.718062592967
 31
0.0
  0
LINE
  5
   473
  8
0
  6
CONTINUOUS
 62
     1
 10
72.9785661451994
 20
-49.018074501884
 30
0.0
 11
76.5660660841046
 21
-49.0180624855879
 31
0.0
  0
LINE
  5
   474
  8
0
  6
CONTINUOUS
 62
     1
 10
71.4035661721929
 20
-9.6430604859429
 30
0.0
 11
71.4035661721929
 21
-3.95556058280044
 31
0.0
  0
LINE
  5
   475
  8
0
  6
CONTINUOUS
 62
     1
 10
71.4035661721929
 20
-3.95556058280044
 30
0.0
 11
72.4535634840235
 21
-3.95556058280044
 31
0.0
  0
LINE
  5
   476
  8
0
  6
CONTINUOUS
 62
     1
 10
71.403567220666
 20
-3.95556232927233
 30
0.0
 11
72.4535645705936
 21
-5.00556764496456
 31
0.0
  0
LINE
  5
   477
  8
0
  6
CONTINUOUS
 62
     1
 10
71.403565978233
 20
-9.64305557406381
 30
0.0
 11
72.4535632986576
 21
-8.59306090888034
 31
0.0
  0
LINE
  5
   478
  8
0
  6
CONTINUOUS
 62
     1
 10
74.7285661155685
 20
-6.4932207568695
 30
0.0
 11
75.4285661036475
 21
-6.4932207568695
 31
0.0
  0
LINE
  5
   479
  8
0
  6
CONTINUOUS
 62
     1
 10
74.7285661155685
 20
-6.4932207568695
 30
0.0
 11
74.7285661155685
 21
-5.00564067356026
 31
0.0
  0
LINE
  5
   47A
  8
0
  6
CONTINUOUS
 62
     1
 10
72.4535634840235
 20
-3.95556058280044
 30
0.0
 11
76.566066084276
 21
-3.95556058280044
 31
0.0
  0
LINE
  5
   47B
  8
0
  6
CONTINUOUS
 62
     1
 10
71.4035661721929
 20
-9.6430604859429
 30
0.0
 11
75.1660661081179
 21
-9.6430604859429
 31
0.0
  0
LINE
  5
   47C
  8
0
  6
CONTINUOUS
 62
     7
 10
185.591076243888
 20
-23.8181617154896
 30
0.0
 11
185.941070897351
 21
-23.8181617154896
 31
0.0
  0
LINE
  5
   47D
  8
0
  6
CONTINUOUS
 62
     7
 10
185.591070903311
 20
-30.8181615962803
 30
0.0
 11
185.941070897351
 21
-30.8181615962803
 31
0.0
  0
LINE
  5
   47E
  8
0
  6
CONTINUOUS
 62
   210
 10
130.816065160404
 20
-39.4175919155311
 30
0.0
 11
145.516066245209
 21
-39.4175919155311
 31
0.0
  0
LINE
  5
   47F
  8
0
  6
CONTINUOUS
 62
   210
 10
130.816065160404
 20
-39.0354229614682
 30
0.0
 11
145.516066245209
 21
-39.0354229614682
 31
0.0
  0
LINE
  5
   480
  8
0
  6
CONTINUOUS
 62
   210
 10
130.816065160404
 20
-19.1008682472407
 30
0.0
 11
145.516066245209
 21
-19.1008682472407
 31
0.0
  0
LINE
  5
   481
  8
0
  6
CONTINUOUS
 62
   210
 10
130.816065160404
 20
-18.7187019634657
 30
0.0
 11
145.516066245209
 21
-18.7187019634657
 31
0.0
  0
CIRCLE
  5
   482
  8
0
  6
CONTINUOUS
 62
     7
 10
180.866075629288
 20
-36.2431585521988
 30
0.0
 40
1.83750002924935
  0
LINE
  5
   483
  8
0
  6
CONTINUOUS
 62
     1
 10
76.9160660783156
 20
-42.6306615648456
 30
0.0
 11
104.566024048002
 21
-42.6306615648456
 31
0.0
  0
LINE
  5
   484
  8
0
  6
DASHDOT
 62
     2
 10
64.8310418808609
 20
-22.2431457205835
 30
0.0
 11
189.158369786798
 21
-22.2431457205835
 31
0.0
  0
LINE
  5
   485
  8
0
  6
CONTINUOUS
 62
     7
 10
77.5285260135577
 20
20.4568482116617
 30
0.0
 11
174.303524365489
 21
20.4568482116617
 31
0.0
  0
LINE
  5
   486
  8
0
  6
CONTINUOUS
 62
     7
 10
77.4410338054188
 20
-75.093155671453
 30
0.0
 11
174.39103215437
 21
-75.093155671453
 31
0.0
  0
ARC
  5
   487
  8
0
  6
CONTINUOUS
 62
     7
 10
77.5285260135577
 20
20.0193482191123
 30
0.0
 40
0.437499992549419
 50
90.0
 51
180.0
  0
ARC
  5
   488
  8
0
  6
CONTINUOUS
 62
     7
 10
174.303524365489
 20
20.0193482191123
 30
0.0
 40
0.437499992549419
 50
0.0
 51
90.0
  0
ARC
  5
   489
  8
0
  6
CONTINUOUS
 62
     7
 10
174.39103215437
 20
-74.6556556789036
 30
0.0
 40
0.437499992549419
 50
270.0
 51
360.0
  0
ARC
  5
   48A
  8
0
  6
CONTINUOUS
 62
     7
 10
77.4410338054188
 20
-74.6556556789036
 30
0.0
 40
0.437499992549419
 50
180.0
 51
270.0
  0
LINE
  5
   48B
  8
0
  6
CONTINUOUS
 62
     1
 10
114.313533177484
 20
12.0568552852846
 30
0.0
 11
114.313533177484
 21
20.4568482116617
 31
0.0
  0
LINE
  5
   48C
  8
0
  6
CONTINUOUS
 62
     1
 10
115.573533156026
 20
12.0568552852846
 30
0.0
 11
115.573533156026
 21
20.4568482116617
 31
0.0
  0
LINE
  5
   48D
  8
0
  6
CONTINUOUS
 62
     1
 10
116.833533134569
 20
12.0568552852846
 30
0.0
 11
116.833533134569
 21
20.4568482116617
 31
0.0
  0
LINE
  5
   48E
  8
0
  6
CONTINUOUS
 62
     1
 10
118.093533113111
 20
12.0568552852846
 30
0.0
 11
118.093533113111
 21
20.4568482116617
 31
0.0
  0
LINE
  5
   48F
  8
0
  6
CONTINUOUS
 62
     1
 10
119.353533091653
 20
12.0568552852846
 30
0.0
 11
119.353533091653
 21
20.4568482116617
 31
0.0
  0
LINE
  5
   490
  8
0
  6
CONTINUOUS
 62
     1
 10
120.613533070196
 20
12.0568552852846
 30
0.0
 11
120.613533070196
 21
20.4568482116617
 31
0.0
  0
LINE
  5
   491
  8
0
  6
CONTINUOUS
 62
     1
 10
121.873533048738
 20
12.0568552852846
 30
0.0
 11
121.873533048738
 21
20.4568482116617
 31
0.0
  0
LINE
  5
   492
  8
0
  6
CONTINUOUS
 62
     1
 10
123.13353302728
 20
12.0568552852846
 30
0.0
 11
123.13353302728
 21
20.4568482116617
 31
0.0
  0
LINE
  5
   493
  8
0
  6
CONTINUOUS
 62
     1
 10
124.393533005823
 20
12.0568552852846
 30
0.0
 11
124.393533005823
 21
20.4568482116617
 31
0.0
  0
LINE
  5
   494
  8
0
  6
CONTINUOUS
 62
     1
 10
125.653532984365
 20
12.0568552852846
 30
0.0
 11
125.653532984365
 21
20.4568482116617
 31
0.0
  0
LINE
  5
   495
  8
0
  6
CONTINUOUS
 62
     1
 10
126.913532962907
 20
12.0568552852846
 30
0.0
 11
126.913532962907
 21
20.4568482116617
 31
0.0
  0
LINE
  5
   496
  8
0
  6
CONTINUOUS
 62
     1
 10
128.17353294145
 20
12.0568552852846
 30
0.0
 11
128.17353294145
 21
20.4568482116617
 31
0.0
  0
LINE
  5
   497
  8
0
  6
CONTINUOUS
 62
     1
 10
129.433532919992
 20
12.0568552852846
 30
0.0
 11
129.433532919992
 21
20.4568482116617
 31
0.0
  0
LINE
  5
   498
  8
0
  6
CONTINUOUS
 62
     1
 10
130.693532898534
 20
12.0568552852846
 30
0.0
 11
130.693532898534
 21
20.4568482116617
 31
0.0
  0
LINE
  5
   499
  8
0
  6
CONTINUOUS
 62
     1
 10
131.953532877077
 20
12.0568552852846
 30
0.0
 11
131.953532877077
 21
20.4568482116617
 31
0.0
  0
LINE
  5
   49A
  8
0
  6
CONTINUOUS
 62
     1
 10
133.213532855619
 20
12.0568552852846
 30
0.0
 11
133.213532855619
 21
20.4568482116617
 31
0.0
  0
LINE
  5
   49B
  8
0
  6
CONTINUOUS
 62
     1
 10
134.473532834161
 20
12.0568552852846
 30
0.0
 11
134.473532834161
 21
20.4568482116617
 31
0.0
  0
LINE
  5
   49C
  8
0
  6
CONTINUOUS
 62
     1
 10
135.733532812704
 20
12.0568552852846
 30
0.0
 11
135.733532812704
 21
20.4568482116617
 31
0.0
  0
LINE
  5
   49D
  8
0
  6
CONTINUOUS
 62
     1
 10
136.993532791246
 20
12.0568552852846
 30
0.0
 11
136.993532791246
 21
20.4568482116617
 31
0.0
  0
LINE
  5
   49E
  8
0
  6
CONTINUOUS
 62
     1
 10
162.01851678433
 20
12.0568552852846
 30
0.0
 11
162.01851678433
 21
20.4568482116617
 31
0.0
  0
LINE
  5
   49F
  8
0
  6
CONTINUOUS
 62
     1
 10
160.758516805788
 20
12.0568552852846
 30
0.0
 11
160.758516805788
 21
20.4568482116617
 31
0.0
  0
LINE
  5
   4A0
  8
0
  6
CONTINUOUS
 62
     1
 10
159.498516827245
 20
12.0568552852846
 30
0.0
 11
159.498516827245
 21
20.4568482116617
 31
0.0
  0
LINE
  5
   4A1
  8
0
  6
CONTINUOUS
 62
     1
 10
158.238516848703
 20
12.0568552852846
 30
0.0
 11
158.238516848703
 21
20.4568482116617
 31
0.0
  0
LINE
  5
   4A2
  8
0
  6
CONTINUOUS
 62
     1
 10
156.978516870161
 20
12.0568552852846
 30
0.0
 11
156.978516870161
 21
20.4568482116617
 31
0.0
  0
LINE
  5
   4A3
  8
0
  6
CONTINUOUS
 62
     1
 10
155.718516891618
 20
12.0568552852846
 30
0.0
 11
155.718516891618
 21
20.4568482116617
 31
0.0
  0
LINE
  5
   4A4
  8
0
  6
CONTINUOUS
 62
     1
 10
154.458516913076
 20
12.0568552852846
 30
0.0
 11
154.458516913076
 21
20.4568482116617
 31
0.0
  0
LINE
  5
   4A5
  8
0
  6
CONTINUOUS
 62
     1
 10
153.198516934534
 20
12.0568552852846
 30
0.0
 11
153.198516934534
 21
20.4568482116617
 31
0.0
  0
LINE
  5
   4A6
  8
0
  6
CONTINUOUS
 62
     1
 10
151.938516955991
 20
12.0568552852846
 30
0.0
 11
151.938516955991
 21
20.4568482116617
 31
0.0
  0
LINE
  5
   4A7
  8
0
  6
CONTINUOUS
 62
     1
 10
150.678516977449
 20
12.0568552852846
 30
0.0
 11
150.678516977449
 21
20.4568482116617
 31
0.0
  0
LINE
  5
   4A8
  8
0
  6
CONTINUOUS
 62
     1
 10
149.418516998907
 20
12.0568552852846
 30
0.0
 11
149.418516998907
 21
20.4568482116617
 31
0.0
  0
LINE
  5
   4A9
  8
0
  6
CONTINUOUS
 62
     1
 10
148.158517020364
 20
12.0568552852846
 30
0.0
 11
148.158517020364
 21
20.4568482116617
 31
0.0
  0
LINE
  5
   4AA
  8
0
  6
CONTINUOUS
 62
     1
 10
146.898517041822
 20
12.0568552852846
 30
0.0
 11
146.898517041822
 21
20.4568482116617
 31
0.0
  0
LINE
  5
   4AB
  8
0
  6
CONTINUOUS
 62
     1
 10
145.63851706328
 20
12.0568552852846
 30
0.0
 11
145.63851706328
 21
20.4568482116617
 31
0.0
  0
LINE
  5
   4AC
  8
0
  6
CONTINUOUS
 62
     1
 10
144.378517084737
 20
12.0568552852846
 30
0.0
 11
144.378517084737
 21
20.4568482116617
 31
0.0
  0
LINE
  5
   4AD
  8
0
  6
CONTINUOUS
 62
     1
 10
143.118517106195
 20
12.0568552852846
 30
0.0
 11
143.118517106195
 21
20.4568482116617
 31
0.0
  0
LINE
  5
   4AE
  8
0
  6
CONTINUOUS
 62
     1
 10
141.858517127653
 20
12.0568552852846
 30
0.0
 11
141.858517127653
 21
20.4568482116617
 31
0.0
  0
LINE
  5
   4AF
  8
0
  6
CONTINUOUS
 62
     1
 10
140.59851714911
 20
12.0568552852846
 30
0.0
 11
140.59851714911
 21
20.4568482116617
 31
0.0
  0
LINE
  5
   4B0
  8
0
  6
CONTINUOUS
 62
     1
 10
139.338517170568
 20
12.0568552852846
 30
0.0
 11
139.338517170568
 21
20.4568482116617
 31
0.0
  0
LINE
  5
   4B1
  8
0
  6
CONTINUOUS
 62
     1
 10
114.313533177484
 20
-75.093155671453
 30
0.0
 11
114.313533177484
 21
-64.4181611953309
 31
0.0
  0
LINE
  5
   4B2
  8
0
  6
CONTINUOUS
 62
     1
 10
115.573533156026
 20
-75.093155671453
 30
0.0
 11
115.573533156026
 21
-64.4181611953309
 31
0.0
  0
LINE
  5
   4B3
  8
0
  6
CONTINUOUS
 62
     1
 10
116.833533134569
 20
-75.093155671453
 30
0.0
 11
116.833533134569
 21
-64.4181611953309
 31
0.0
  0
LINE
  5
   4B4
  8
0
  6
CONTINUOUS
 62
     1
 10
118.093533113111
 20
-75.093155671453
 30
0.0
 11
118.093533113111
 21
-64.4181611953309
 31
0.0
  0
LINE
  5
   4B5
  8
0
  6
CONTINUOUS
 62
     1
 10
119.353533091653
 20
-75.093155671453
 30
0.0
 11
119.353533091653
 21
-64.4181611953309
 31
0.0
  0
LINE
  5
   4B6
  8
0
  6
CONTINUOUS
 62
     1
 10
120.613533070196
 20
-75.093155671453
 30
0.0
 11
120.613533070196
 21
-64.4181611953309
 31
0.0
  0
LINE
  5
   4B7
  8
0
  6
CONTINUOUS
 62
     1
 10
121.873533048738
 20
-75.093155671453
 30
0.0
 11
121.873533048738
 21
-64.4181611953309
 31
0.0
  0
LINE
  5
   4B8
  8
0
  6
CONTINUOUS
 62
     1
 10
123.13353302728
 20
-75.093155671453
 30
0.0
 11
123.13353302728
 21
-64.4181611953309
 31
0.0
  0
LINE
  5
   4B9
  8
0
  6
CONTINUOUS
 62
     1
 10
124.393533005823
 20
-75.093155671453
 30
0.0
 11
124.393533005823
 21
-64.4181611953309
 31
0.0
  0
LINE
  5
   4BA
  8
0
  6
CONTINUOUS
 62
     1
 10
125.653532984365
 20
-75.093155671453
 30
0.0
 11
125.653532984365
 21
-64.4181611953309
 31
0.0
  0
LINE
  5
   4BB
  8
0
  6
CONTINUOUS
 62
     1
 10
126.913532962907
 20
-75.093155671453
 30
0.0
 11
126.913532962907
 21
-64.4181611953309
 31
0.0
  0
LINE
  5
   4BC
  8
0
  6
CONTINUOUS
 62
     1
 10
128.17353294145
 20
-75.093155671453
 30
0.0
 11
128.17353294145
 21
-64.4181611953309
 31
0.0
  0
LINE
  5
   4BD
  8
0
  6
CONTINUOUS
 62
     1
 10
129.433532919992
 20
-75.093155671453
 30
0.0
 11
129.433532919992
 21
-64.4181611953309
 31
0.0
  0
LINE
  5
   4BE
  8
0
  6
CONTINUOUS
 62
     1
 10
130.693532898534
 20
-75.093155671453
 30
0.0
 11
130.693532898534
 21
-64.4181611953309
 31
0.0
  0
LINE
  5
   4BF
  8
0
  6
CONTINUOUS
 62
     1
 10
131.953532877077
 20
-75.093155671453
 30
0.0
 11
131.953532877077
 21
-64.4181611953309
 31
0.0
  0
LINE
  5
   4C0
  8
0
  6
CONTINUOUS
 62
     1
 10
133.213532855619
 20
-75.093155671453
 30
0.0
 11
133.213532855619
 21
-64.4181611953309
 31
0.0
  0
LINE
  5
   4C1
  8
0
  6
CONTINUOUS
 62
     1
 10
134.473532834161
 20
-75.093155671453
 30
0.0
 11
134.473532834161
 21
-64.4181611953309
 31
0.0
  0
LINE
  5
   4C2
  8
0
  6
CONTINUOUS
 62
     1
 10
135.733532812704
 20
-75.093155671453
 30
0.0
 11
135.733532812704
 21
-64.4181611953309
 31
0.0
  0
LINE
  5
   4C3
  8
0
  6
CONTINUOUS
 62
     1
 10
136.993532791246
 20
-75.093155671453
 30
0.0
 11
136.993532791246
 21
-64.4181611953309
 31
0.0
  0
LINE
  5
   4C4
  8
0
  6
CONTINUOUS
 62
     1
 10
162.01851678433
 20
-75.093155671453
 30
0.0
 11
162.01851678433
 21
-64.4181611953309
 31
0.0
  0
LINE
  5
   4C5
  8
0
  6
CONTINUOUS
 62
     1
 10
160.758516805788
 20
-75.093155671453
 30
0.0
 11
160.758516805788
 21
-64.4181611953309
 31
0.0
  0
LINE
  5
   4C6
  8
0
  6
CONTINUOUS
 62
     1
 10
159.498516827245
 20
-75.093155671453
 30
0.0
 11
159.498516827245
 21
-64.4181611953309
 31
0.0
  0
LINE
  5
   4C7
  8
0
  6
CONTINUOUS
 62
     1
 10
158.238516848703
 20
-75.093155671453
 30
0.0
 11
158.238516848703
 21
-64.4181611953309
 31
0.0
  0
LINE
  5
   4C8
  8
0
  6
CONTINUOUS
 62
     1
 10
156.978516870161
 20
-75.093155671453
 30
0.0
 11
156.978516870161
 21
-64.4181611953309
 31
0.0
  0
LINE
  5
   4C9
  8
0
  6
CONTINUOUS
 62
     1
 10
155.718516891618
 20
-75.093155671453
 30
0.0
 11
155.718516891618
 21
-64.4181611953309
 31
0.0
  0
LINE
  5
   4CA
  8
0
  6
CONTINUOUS
 62
     1
 10
154.458516913076
 20
-75.093155671453
 30
0.0
 11
154.458516913076
 21
-64.4181611953309
 31
0.0
  0
LINE
  5
   4CB
  8
0
  6
CONTINUOUS
 62
     1
 10
153.198516934534
 20
-75.093155671453
 30
0.0
 11
153.198516934534
 21
-64.4181611953309
 31
0.0
  0
LINE
  5
   4CC
  8
0
  6
CONTINUOUS
 62
     1
 10
151.938516955991
 20
-75.093155671453
 30
0.0
 11
151.938516955991
 21
-64.4181611953309
 31
0.0
  0
LINE
  5
   4CD
  8
0
  6
CONTINUOUS
 62
     1
 10
150.678516977449
 20
-75.093155671453
 30
0.0
 11
150.678516977449
 21
-64.4181611953309
 31
0.0
  0
LINE
  5
   4CE
  8
0
  6
CONTINUOUS
 62
     1
 10
149.418516998907
 20
-75.093155671453
 30
0.0
 11
149.418516998907
 21
-64.4181611953309
 31
0.0
  0
LINE
  5
   4CF
  8
0
  6
CONTINUOUS
 62
     1
 10
148.158517020364
 20
-75.093155671453
 30
0.0
 11
148.158517020364
 21
-64.4181611953309
 31
0.0
  0
LINE
  5
   4D0
  8
0
  6
CONTINUOUS
 62
     1
 10
146.898517041822
 20
-75.093155671453
 30
0.0
 11
146.898517041822
 21
-64.4181611953309
 31
0.0
  0
LINE
  5
   4D1
  8
0
  6
CONTINUOUS
 62
     1
 10
145.63851706328
 20
-75.093155671453
 30
0.0
 11
145.63851706328
 21
-64.4181611953309
 31
0.0
  0
LINE
  5
   4D2
  8
0
  6
CONTINUOUS
 62
     1
 10
144.378517084737
 20
-75.093155671453
 30
0.0
 11
144.378517084737
 21
-64.4181611953309
 31
0.0
  0
LINE
  5
   4D3
  8
0
  6
CONTINUOUS
 62
     1
 10
143.118517106195
 20
-75.093155671453
 30
0.0
 11
143.118517106195
 21
-64.4181611953309
 31
0.0
  0
LINE
  5
   4D4
  8
0
  6
CONTINUOUS
 62
     1
 10
141.858517127653
 20
-75.093155671453
 30
0.0
 11
141.858517127653
 21
-64.4181611953309
 31
0.0
  0
LINE
  5
   4D5
  8
0
  6
CONTINUOUS
 62
     1
 10
140.59851714911
 20
-75.093155671453
 30
0.0
 11
140.59851714911
 21
-64.4181611953309
 31
0.0
  0
LINE
  5
   4D6
  8
0
  6
CONTINUOUS
 62
     1
 10
139.338517170568
 20
-75.093155671453
 30
0.0
 11
139.338517170568
 21
-64.4181611953309
 31
0.0
  0
LINE
  5
   4D7
  8
0
  6
CONTINUOUS
 62
     1
 10
113.053533198942
 20
-75.093155671453
 30
0.0
 11
113.053533198942
 21
-56.5431455491804
 31
0.0
  0
LINE
  5
   4D8
  8
0
  6
CONTINUOUS
 62
     1
 10
111.793533220399
 20
-75.093155671453
 30
0.0
 11
111.793533220399
 21
-56.5431455491804
 31
0.0
  0
LINE
  5
   4D9
  8
0
  6
CONTINUOUS
 62
     1
 10
110.533533241857
 20
-75.093155671453
 30
0.0
 11
110.533533241857
 21
-56.5431455491804
 31
0.0
  0
LINE
  5
   4DA
  8
0
  6
CONTINUOUS
 62
     1
 10
109.273533263315
 20
-75.093155671453
 30
0.0
 11
109.273533263315
 21
-56.5431455491804
 31
0.0
  0
LINE
  5
   4DB
  8
0
  6
CONTINUOUS
 62
     1
 10
108.013533284772
 20
-75.093155671453
 30
0.0
 11
108.013533284772
 21
-56.5431455491804
 31
0.0
  0
LINE
  5
   4DC
  8
0
  6
CONTINUOUS
 62
     1
 10
106.75353330623
 20
-75.093155671453
 30
0.0
 11
106.75353330623
 21
-56.5431455491804
 31
0.0
  0
LINE
  5
   4DD
  8
0
  6
CONTINUOUS
 62
     1
 10
105.493533327688
 20
-75.093155671453
 30
0.0
 11
105.493533327688
 21
-56.5431455491804
 31
0.0
  0
LINE
  5
   4DE
  8
0
  6
CONTINUOUS
 62
     1
 10
104.233533349145
 20
-75.093155671453
 30
0.0
 11
104.233533349145
 21
-50.593156088669
 31
0.0
  0
LINE
  5
   4DF
  8
0
  6
CONTINUOUS
 62
     1
 10
163.278516762872
 20
-75.093155671453
 30
0.0
 11
163.278516762872
 21
-56.5431455491804
 31
0.0
  0
LINE
  5
   4E0
  8
0
  6
CONTINUOUS
 62
     1
 10
164.538516741415
 20
-75.093155671453
 30
0.0
 11
164.538516741415
 21
-56.5431455491804
 31
0.0
  0
LINE
  5
   4E1
  8
0
  6
CONTINUOUS
 62
     1
 10
165.798516719957
 20
-75.093155671453
 30
0.0
 11
165.798516719957
 21
-56.5431455491804
 31
0.0
  0
LINE
  5
   4E2
  8
0
  6
CONTINUOUS
 62
     1
 10
167.058516698499
 20
-75.093155671453
 30
0.0
 11
167.058516698499
 21
-56.5431455491804
 31
0.0
  0
LINE
  5
   4E3
  8
0
  6
CONTINUOUS
 62
     1
 10
168.318516677042
 20
-75.093155671453
 30
0.0
 11
168.318516677042
 21
-56.5431455491804
 31
0.0
  0
LINE
  5
   4E4
  8
0
  6
CONTINUOUS
 62
     1
 10
169.578516655584
 20
-75.093155671453
 30
0.0
 11
169.578516655584
 21
-56.5431455491804
 31
0.0
  0
LINE
  5
   4E5
  8
0
  6
CONTINUOUS
 62
     1
 10
170.838516634126
 20
-75.093155671453
 30
0.0
 11
170.838516634126
 21
-56.5431455491804
 31
0.0
  0
LINE
  5
   4E6
  8
0
  6
CONTINUOUS
 62
     1
 10
172.098516612669
 20
-75.093155671453
 30
0.0
 11
172.098516612669
 21
-56.5431455491804
 31
0.0
  0
LINE
  5
   4E7
  8
0
  6
CONTINUOUS
 62
     1
 10
173.358516591211
 20
-75.093155671453
 30
0.0
 11
173.358516591211
 21
-56.5431455491804
 31
0.0
  0
LINE
  5
   4E8
  8
0
  6
CONTINUOUS
 62
     7
 10
82.1660259345813
 20
40.0568265155735
 30
0.0
 11
96.1660256961627
 21
40.0568265155735
 31
0.0
  0
LINE
  5
   4E9
  8
0
  6
CONTINUOUS
 62
     7
 10
96.1660256961627
 20
24.3068534866748
 30
0.0
 11
96.1660256961627
 21
40.0568265155735
 31
0.0
  0
LINE
  5
   4EA
  8
0
  6
CONTINUOUS
 62
     7
 10
82.1660259345813
 20
24.3068534866748
 30
0.0
 11
82.1660259345813
 21
40.0568265155735
 31
0.0
  0
CIRCLE
  5
   4EB
  8
0
  6
CONTINUOUS
 62
     7
 10
89.1660257023072
 20
33.056861952774
 30
0.0
 40
2.4499673102628
  0
LINE
  5
   4EC
  8
0
  6
CONTINUOUS
 62
     7
 10
82.1660259345813
 20
-94.6931177838869
 30
0.0
 11
82.1660259345813
 21
-78.9431420847002
 31
0.0
  0
LINE
  5
   4ED
  8
0
  6
CONTINUOUS
 62
     7
 10
82.1660259345813
 20
-94.6931177838869
 30
0.0
 11
96.1660256961627
 21
-94.6931177838869
 31
0.0
  0
LINE
  5
   4EE
  8
0
  6
CONTINUOUS
 62
     7
 10
96.1660256961627
 20
-94.6931177838869
 30
0.0
 11
96.1660256961627
 21
-78.9431420847002
 31
0.0
  0
CIRCLE
  5
   4EF
  8
0
  6
CONTINUOUS
 62
     7
 10
89.1660257023072
 20
-87.6931532210875
 30
0.0
 40
2.4499673102628
  0
LINE
  5
   4F0
  8
0
  6
DASHDOT
 62
     7
 10
89.1660257023072
 20
29.0318946693333
 30
0.0
 11
89.1660257023072
 21
35.331829266017
 31
0.0
  0
LINE
  5
   4F1
  8
0
  6
DASHDOT
 62
     7
 10
86.0160584039653
 20
33.056861952774
 30
0.0
 11
92.315993000649
 21
33.056861952774
 31
0.0
  0
LINE
  5
   4F2
  8
0
  6
DASHDOT
 62
     7
 10
89.1660257023072
 20
-89.9681205343305
 30
0.0
 11
89.1660257023072
 21
-83.6681859376468
 31
0.0
  0
LINE
  5
   4F3
  8
0
  6
DASHDOT
 62
     7
 10
86.0160584039653
 20
-87.6931532210875
 30
0.0
 11
92.315993000649
 21
-87.6931532210875
 31
0.0
  0
LINE
  5
   4F4
  8
0
  6
CONTINUOUS
 62
     1
 10
102.973533103574
 20
-75.093155671453
 30
0.0
 11
102.973533103574
 21
20.4568482116617
 31
0.0
  0
LINE
  5
   4F5
  8
0
  6
CONTINUOUS
 62
     1
 10
101.713533125032
 20
-75.093155671453
 30
0.0
 11
101.713533125032
 21
20.4568482116617
 31
0.0
  0
LINE
  5
   4F6
  8
0
  6
CONTINUOUS
 62
     1
 10
100.45353314649
 20
-75.093155671453
 30
0.0
 11
100.45353314649
 21
20.4568482116617
 31
0.0
  0
LINE
  5
   4F7
  8
0
  6
CONTINUOUS
 62
     1
 10
99.1935331679472
 20
-75.093155671453
 30
0.0
 11
99.1935331679472
 21
20.4568482116617
 31
0.0
  0
LINE
  5
   4F8
  8
0
  6
CONTINUOUS
 62
     1
 10
97.9335331894048
 20
-75.093155671453
 30
0.0
 11
97.9335331894048
 21
20.4568482116617
 31
0.0
  0
LINE
  5
   4F9
  8
0
  6
CONTINUOUS
 62
     1
 10
96.6735332108625
 20
-75.093155671453
 30
0.0
 11
96.6735332108625
 21
20.4568482116617
 31
0.0
  0
LINE
  5
   4FA
  8
0
  6
CONTINUOUS
 62
     1
 10
95.4135332323202
 20
-75.093155671453
 30
0.0
 11
95.4135332323202
 21
20.4568482116617
 31
0.0
  0
LINE
  5
   4FB
  8
0
  6
CONTINUOUS
 62
     1
 10
94.1535332537779
 20
-75.093155671453
 30
0.0
 11
94.1535332537779
 21
20.4568482116617
 31
0.0
  0
LINE
  5
   4FC
  8
0
  6
CONTINUOUS
 62
     1
 10
92.8935332752356
 20
-75.093155671453
 30
0.0
 11
92.8935332752356
 21
20.4568482116617
 31
0.0
  0
LINE
  5
   4FD
  8
0
  6
CONTINUOUS
 62
     1
 10
91.6335332966932
 20
-75.093155671453
 30
0.0
 11
91.6335332966932
 21
20.4568482116617
 31
0.0
  0
LINE
  5
   4FE
  8
0
  6
CONTINUOUS
 62
     1
 10
90.3735333181509
 20
-75.093155671453
 30
0.0
 11
90.3735333181509
 21
20.4568482116617
 31
0.0
  0
LINE
  5
   4FF
  8
0
  6
CONTINUOUS
 62
     1
 10
89.1135333396086
 20
-75.093155671453
 30
0.0
 11
89.1135333396086
 21
20.4568482116617
 31
0.0
  0
LINE
  5
   500
  8
0
  6
CONTINUOUS
 62
     1
 10
87.8535333610662
 20
-75.093155671453
 30
0.0
 11
87.8535333610662
 21
20.4568482116617
 31
0.0
  0
LINE
  5
   501
  8
0
  6
CONTINUOUS
 62
     1
 10
86.5935333825239
 20
-75.093155671453
 30
0.0
 11
86.5935333825239
 21
20.4568482116617
 31
0.0
  0
LINE
  5
   502
  8
0
  6
CONTINUOUS
 62
     1
 10
85.3335334039816
 20
-75.093155671453
 30
0.0
 11
85.3335334039816
 21
20.4568482116617
 31
0.0
  0
LINE
  5
   503
  8
0
  6
CONTINUOUS
 62
     1
 10
84.0735334254393
 20
-75.093155671453
 30
0.0
 11
84.0735334254393
 21
20.4568482116617
 31
0.0
  0
LINE
  5
   504
  8
0
  6
CONTINUOUS
 62
     1
 10
82.8135334468969
 20
-75.093155671453
 30
0.0
 11
82.8135334468969
 21
20.4568482116617
 31
0.0
  0
LINE
  5
   505
  8
0
  6
CONTINUOUS
 62
     1
 10
81.5535334683546
 20
-75.093155671453
 30
0.0
 11
81.5535334683546
 21
20.4568482116617
 31
0.0
  0
LINE
  5
   506
  8
0
  6
CONTINUOUS
 62
     1
 10
80.2935334898123
 20
-75.093155671453
 30
0.0
 11
80.2935334898123
 21
20.4568482116617
 31
0.0
  0
LINE
  5
   507
  8
0
  6
CONTINUOUS
 62
     1
 10
79.03353351127
 20
-75.093155671453
 30
0.0
 11
79.03353351127
 21
20.4568482116617
 31
0.0
  0
ARC
  5
   508
  8
0
  6
CONTINUOUS
 62
     7
 10
79.366025982265
 20
-77.3681421115223
 30
0.0
 40
1.57499997317791
 50
180.0
 51
270.0
  0
ARC
  5
   509
  8
0
  6
CONTINUOUS
 62
     7
 10
172.466024396781
 20
-77.3681421115223
 30
0.0
 40
1.57499997317791
 50
270.0
 51
360.0
  0
ARC
  5
   50A
  8
0
  6
CONTINUOUS
 62
     7
 10
79.366025982265
 20
22.7318535134968
 30
0.0
 40
1.57499997317791
 50
90.0
 51
180.0
  0
ARC
  5
   50B
  8
0
  6
CONTINUOUS
 62
     7
 10
172.50479080034
 20
22.7318535134969
 30
0.0
 40
1.57499997317791
 50
347.261451238938
 51
450.0
  0
LINE
  5
   50C
  8
0
  6
CONTINUOUS
 62
     1
 10
184.016022694977
 20
-22.0681499960521
 30
0.0
 11
185.591070903375
 21
-22.0681483938291
 31
0.0
  0
LINE
  5
   50D
  8
0
  6
DOT
 62
     1
 10
174.82853214692
 20
-51.0306505709114
 30
0.0
 11
184.016022694977
 21
-51.0306505709114
 31
0.0
  0
LINE
  5
   50E
  8
0
  6
DASHDOT
 62
     7
 10
180.866075629288
 20
-39.1306585635668
 30
0.0
 11
180.866075629288
 21
-33.3556585408308
 31
0.0
  0
LINE
  5
   50F
  8
0
  6
DASHDOT
 62
     7
 10
177.97857561792
 20
-36.2431585521988
 30
0.0
 11
183.753575640656
 21
-36.2431585521988
 31
0.0
  0
LINE
  5
   510
  8
0
  6
CONTINUOUS
 62
     7
 10
184.016022694977
 20
-51.0306505709114
 30
0.0
 11
185.591076243888
 21
-51.0306505709114
 31
0.0
  0
LINE
  5
   511
  8
0
  6
CONTINUOUS
 62
     7
 10
184.016022694977
 20
-0.3681460931125
 30
0.0
 11
185.591070903311
 21
-0.3681460931125
 31
0.0
  0
CIRCLE
  5
   512
  8
0
  6
CONTINUOUS
 62
     7
 10
178.372082784435
 20
7.50736656480943
 30
0.0
 40
0.139999997615814
  0
TEXT
  5
   513
  8
0
  6
CONTINUOUS
 62
     1
 10
163.047599624747
 20
-193.371410387116
 30
0.0
 40
2.00000003448554
  1
M4371 97-07-07
 41
0.749999888539317
 72
     1
 11
173.397598266602
 21
-192.371410369873
 31
0.0
 73
     2
  0
TEXT
  5
   514
  8
0
  6
CONTINUOUS
 62
     1
 10
187.887599624747
 20
-193.371410387116
 30
0.0
 40
2.00000003448554
  1
M4504 97-11-17
 41
0.749999888539317
 72
     1
 11
198.237598266602
 21
-192.371410369873
 31
0.0
 73
     2
  0
TEXT
  5
   515
  8
0
  6
CONTINUOUS
 62
     1
 10
125.643325805664
 20
-186.836566959534
 30
0.0
 40
2.00000003448554
  1
SCARPELLINI
 41
0.749999888539317
 72
     2
 11
141.843323680546
 21
-186.836566959534
 31
0.0
  0
TEXT
  5
   516
  8
0
  6
CONTINUOUS
 62
     1
 10
137.307603242164
 20
-193.37141052335
 30
0.0
 40
2.00000003448554
  1
M 3076 95-01-16
 41
0.749999888539317
 72
     1
 11
148.407601785491
 21
-192.371410506108
 31
0.0
 73
     2
  0
TEXT
  5
   517
  8
0
  6
CONTINUOUS
 62
     7
 10
190.771339707525
 20
-23.9147864846046
 30
0.0
 40
2.99999997871263
  1
X
 41
0.91666663951344
 72
     1
 11
191.871339675381
 21
-22.4147864952483
 31
0.0
 73
     2
  0
INSERT
  5
   518
  8
0
  6
CONTINUOUS
 62
     7
  2
*UDIM1135
 10
0.0
 20
0.0
 30
0.0
  0
INSERT
  5
   519
  8
0
  6
CONTINUOUS
 62
     7
  2
*UDIM1136
 10
0.0
 20
0.0
 30
0.0
  0
INSERT
  5
   51A
  8
0
  6
CONTINUOUS
 62
     7
  2
*UDIM1137
 10
0.0
 20
0.0
 30
0.0
  0
INSERT
  5
   51B
  8
0
  6
CONTINUOUS
 62
     7
  2
*UDIM1138
 10
0.0
 20
0.0
 30
0.0
  0
INSERT
  5
   51C
  8
0
  6
CONTINUOUS
 62
     7
  2
*UDIM1139
 10
0.0
 20
0.0
 30
0.0
  0
TEXT
  5
   51D
  8
0
  6
CONTINUOUS
 62
     1
 10
125.643326116252
 20
-178.369815023867
 30
0.0
 40
2.00000003448554
  1
93-04-05 FERRARI M.
 41
0.749999888539317
 72
     2
 11
153.843322414676
 21
-178.369815023867
 31
0.0
  0
INSERT
  5
   51E
  8
0
  6
CONTINUOUS
 62
     7
  2
*UDIM1140
 10
0.0
 20
0.0
 30
0.0
  0
INSERT
  5
   51F
  8
0
  6
CONTINUOUS
 62
     7
  2
*UDIM1141
 10
0.0
 20
0.0
 30
0.0
  0
INSERT
  5
   520
  8
0
  6
CONTINUOUS
 62
     7
  2
*UDIM1142
 10
0.0
 20
0.0
 30
0.0
  0
INSERT
  5
   521
  8
0
  6
CONTINUOUS
 62
     7
  2
*UDIM1143
 10
0.0
 20
0.0
 30
0.0
  0
INSERT
  5
   522
  8
0
  6
CONTINUOUS
 62
     7
  2
*UDIM1144
 10
0.0
 20
0.0
 30
0.0
  0
INSERT
  5
   523
  8
0
  6
CONTINUOUS
 62
     7
  2
*UDIM1145
 10
0.0
 20
0.0
 30
0.0
  0
INSERT
  5
   524
  8
0
  6
CONTINUOUS
 62
     7
  2
*UDIM1146
 10
0.0
 20
0.0
 30
0.0
  0
INSERT
  5
   525
  8
0
  6
CONTINUOUS
 62
     7
  2
*UDIM1147
 10
0.0
 20
0.0
 30
0.0
  0
TEXT
  5
   526
  8
0
  6
CONTINUOUS
 62
     7
 10
136.720921425338
 20
63.836969848393
 30
0.0
 40
2.99999997871263
  1
Y
 41
0.91666663951344
 72
     2
 11
138.92092136105
 21
63.836969848393
 31
0.0
  0
TEXT
  5
   527
  8
0
  6
CONTINUOUS
 62
     7
 10
120.086382127781
 20
40.1550824343103
 30
0.0
 40
2.99999997871263
  1
=          =
 41
0.91666663951344
 72
     2
 11
152.536380952789
 21
40.1550824343103
 31
0.0
  0
INSERT
  5
   528
  8
0
  6
CONTINUOUS
 62
     7
  2
*UDIM1148
 10
0.0
 20
0.0
 30
0.0
  0
INSERT
  5
   529
  8
0
  6
CONTINUOUS
 62
     7
  2
*UDIM1149
 10
0.0
 20
0.0
 30
0.0
  0
INSERT
  5
   52A
  8
0
  6
CONTINUOUS
 62
     7
  2
*UDIM1150
 10
0.0
 20
0.0
 30
0.0
  0
INSERT
  5
   52B
  8
0
  6
CONTINUOUS
 62
     7
  2
*UDIM1151
 10
0.0
 20
0.0
 30
0.0
  0
INSERT
  5
   52C
  8
0
  6
CONTINUOUS
 62
     7
  2
*UDIM1152
 10
0.0
 20
0.0
 30
0.0
  0
TEXT
  5
   52D
  8
0
  6
CONTINUOUS
 62
     7
 10
137.230682082551
 20
-123.585575904176
 30
0.0
 40
2.99999997871263
  1
Y
 41
0.91666663951344
 72
     2
 11
139.430682018263
 21
-123.585575904176
 31
0.0
  0
TEXT
  5
   52E
  8
0
  6
CONTINUOUS
 62
     1
 10
231.973707312191
 20
-204.689868896917
 30
0.0
 40
4.00000006897109
  1
601840/151
 41
0.937499981746078
 72
     2
 11
268.723707215706
 21
-204.689868896917
 31
0.0
  0
TEXT
  5
   52F
  8
0
  6
CONTINUOUS
 62
     1
 10
233.059403661123
 20
-195.708282512336
 30
0.0
 40
2.99999997871263
  1
     S6
 41
0.91666663951344
 72
     2
 11
251.759402990997
 21
-195.708282512336
 31
0.0
  0
TEXT
  5
   530
  8
0
  6
CONTINUOUS
 62
     1
 10
221.524984640116
 20
-177.398011416803
 30
0.0
 40
2.00000003448554
  1
4POLE LOW VOLTAGE M.C.C.B SERIES ISOMAX
 41
0.749999888539317
 72
     1
 11
250.624980818756
 21
-176.398011399561
 31
0.0
 73
     2
  0
TEXT
  5
   531
  8
0
  6
CONTINUOUS
 62
     1
 10
223.774984606799
 20
-180.398011416803
 30
0.0
 40
2.00000003448554
  1
WITHDRAWABLE VERSION FRONT TERMINALS
 41
0.749999888539317
 72
     1
 11
250.624981081025
 21
-179.398011399561
 31
0.0
 73
     2
  0
TEXT
  5
   532
  8
0
  6
CONTINUOUS
 62
     1
 10
224.727377917778
 20
-185.468273425364
 30
0.0
 40
2.00000003448554
  1
INTERR.AUTOMATICO SERIE ISOMAX
 41
0.749999888539317
 72
     1
 11
247.077374983176
 21
-184.468273408121
 31
0.0
 73
     2
  0
TEXT
  5
   533
  8
0
  6
CONTINUOUS
 62
     1
 10
213.477379657976
 20
-188.468273425364
 30
0.0
 40
2.00000003448554
  1
TETRAP.ESECUZIONE ESTRAIBILE TERMIN.ANTERIORI
 41
0.749999888539317
 72
     1
 11
247.077375245444
 21
-187.468273408121
 31
0.0
 73
     2
  0
INSERT
  5
   534
  8
255
  6
CONTINUOUS
 62
     7
  2
$1MOSTRA
 10
138.166023475798
 20
-47.70563835639
 30
0.0
 41
0.349999994039536
 42
0.349999994039536
 43
0.349999994039536
  0
LINE
  5
   535
  8
0
  6
DASHDOT
 62
     2
 10
-22.6021289825439
 20
-201.633678528616
 30
0.0
 11
-22.6021289825439
 21
-130.124438082167
 31
0.0
  0
LINE
  5
   536
  8
0
  6
DASHDOT
 62
     2
 10
-48.3313418234612
 20
-163.18998715654
 30
0.0
 11
10.7107652992037
 21
-163.18998715654
 31
0.0
  0
CIRCLE
  5
   537
  8
0
  6
CONTINUOUS
 62
     7
 10
-50.6021293997765
 20
-154.08998702094
 30
0.0
 40
0.850000012665987
  0
CIRCLE
  5
   538
  8
0
  6
CONTINUOUS
 62
     7
 10
-8.60212877392769
 20
-154.08998702094
 30
0.0
 40
0.850000012665987
  0
CIRCLE
  5
   539
  8
0
  6
CONTINUOUS
 62
     7
 10
-8.60212877392769
 20
-178.089987378567
 30
0.0
 40
0.850000012665987
  0
CIRCLE
  5
   53A
  8
0
  6
CONTINUOUS
 62
     7
 10
-50.6021293997765
 20
-178.089987378567
 30
0.0
 40
0.850000012665987
  0
LINE
  5
   53B
  8
0
  6
DASHDOT
 62
     7
 10
-50.6021293997765
 20
-156.939987063408
 30
0.0
 11
-50.6021293997765
 21
-151.239986978471
 31
0.0
  0
LINE
  5
   53C
  8
0
  6
DASHDOT
 62
     7
 10
-53.4521294422448
 20
-154.08998702094
 30
0.0
 11
-47.7521293573082
 21
-154.08998702094
 31
0.0
  0
LINE
  5
   53D
  8
0
  6
DASHDOT
 62
     7
 10
-8.60212877392769
 20
-174.76679993122
 30
0.0
 11
-8.60212877392769
 21
-151.239986978471
 31
0.0
  0
LINE
  5
   53E
  8
0
  6
DASHDOT
 62
     7
 10
-11.452128816396
 20
-154.08998702094
 30
0.0
 11
-5.75212873145938
 21
-154.08998702094
 31
0.0
  0
LINE
  5
   53F
  8
0
  6
DASHDOT
 62
     7
 10
-8.60212877392769
 20
-180.939987421036
 30
0.0
 11
-8.60212877392769
 21
-175.239987336099
 31
0.0
  0
LINE
  5
   540
  8
0
  6
DASHDOT
 62
     7
 10
-32.2271460735736
 20
-178.089987378567
 30
0.0
 11
-5.75212873145938
 21
-178.089987378567
 31
0.0
  0
LINE
  5
   541
  8
0
  6
DASHDOT
 62
     7
 10
-50.6021293997765
 20
-180.939987421036
 30
0.0
 11
-50.6021293997765
 21
-158.46875299801
 31
0.0
  0
LINE
  5
   542
  8
0
  6
DASHDOT
 62
     7
 10
-39.4521292336285
 20
-178.089987378567
 30
0.0
 11
-33.7521291486919
 21
-178.089987378567
 31
0.0
  0
LINE
  5
   543
  8
0
  6
CONTINUOUS
 62
     7
 10
2.39787138998508
 20
-199.089987691492
 30
0.0
 11
2.39787138998508
 21
-133.089986708015
 31
0.0
  0
LINE
  5
   544
  8
0
  6
CONTINUOUS
 62
     7
 10
-60.6021295487881
 20
-199.089987691492
 30
0.0
 11
-60.6021295487881
 21
-133.089986708015
 31
0.0
  0
LINE
  5
   545
  8
0
  6
CONTINUOUS
 62
     7
 10
-60.6021295487881
 20
-199.089987691492
 30
0.0
 11
2.39787138998508
 21
-199.089987691492
 31
0.0
  0
LINE
  5
   546
  8
0
  6
CONTINUOUS
 62
     7
 10
-60.6021295487881
 20
-133.089986708015
 30
0.0
 11
2.39787138998508
 21
-133.089986708015
 31
0.0
  0
LINE
  5
   547
  8
0
  6
CONTINUOUS
 62
     7
 10
-57.6021295040846
 20
-151.689986985177
 30
0.0
 11
-1.60212866961956
 21
-151.689986985177
 31
0.0
  0
LINE
  5
   548
  8
0
  6
CONTINUOUS
 62
     7
 10
-57.6021295040846
 20
-136.189986754209
 30
0.0
 11
-1.60212866961956
 21
-136.189986754209
 31
0.0
  0
LINE
  5
   549
  8
0
  6
CONTINUOUS
 62
     7
 10
-1.2021286636591
 20
-151.289986979216
 30
0.0
 11
-1.2021286636591
 21
-136.589986760169
 31
0.0
  0
LINE
  5
   54A
  8
0
  6
CONTINUOUS
 62
     7
 10
-58.0021295100451
 20
-151.289986979216
 30
0.0
 11
-58.0021295100451
 21
-136.589986760169
 31
0.0
  0
LINE
  5
   54B
  8
0
  6
CONTINUOUS
 62
     7
 10
-57.6021295040846
 20
-180.48998741433
 30
0.0
 11
-1.60212866961956
 21
-180.48998741433
 31
0.0
  0
LINE
  5
   54C
  8
0
  6
CONTINUOUS
 62
     7
 10
-57.6021295040846
 20
-195.989987645298
 30
0.0
 11
-1.60212866961956
 21
-195.989987645298
 31
0.0
  0
LINE
  5
   54D
  8
0
  6
CONTINUOUS
 62
     7
 10
-1.2021286636591
 20
-195.589987639338
 30
0.0
 11
-1.2021286636591
 21
-180.889987420291
 31
0.0
  0
LINE
  5
   54E
  8
0
  6
CONTINUOUS
 62
     7
 10
-58.0021295100451
 20
-195.589987639338
 30
0.0
 11
-58.0021295100451
 21
-180.889987420291
 31
0.0
  0
ARC
  5
   54F
  8
0
  6
CONTINUOUS
 62
     7
 10
-1.60212866961956
 20
-136.589986760169
 30
0.0
 40
0.400000005960464
 50
360.0
 51
450.0
  0
ARC
  5
   550
  8
0
  6
CONTINUOUS
 62
     7
 10
-1.60212866961956
 20
-151.289986979216
 30
0.0
 40
0.400000005960464
 50
270.0
 51
360.0
  0
ARC
  5
   551
  8
0
  6
CONTINUOUS
 62
     7
 10
-57.6021295040846
 20
-151.289986979216
 30
0.0
 40
0.400000005960464
 50
180.0
 51
270.0
  0
ARC
  5
   552
  8
0
  6
CONTINUOUS
 62
     7
 10
-57.6021295040846
 20
-136.589986760169
 30
0.0
 40
0.400000005960464
 50
90.0
 51
180.0
  0
ARC
  5
   553
  8
0
  6
CONTINUOUS
 62
     7
 10
-57.6021295040846
 20
-180.889987420291
 30
0.0
 40
0.400000005960464
 50
90.0
 51
180.0
  0
ARC
  5
   554
  8
0
  6
CONTINUOUS
 62
     7
 10
-57.6021295040846
 20
-195.589987639338
 30
0.0
 40
0.400000005960464
 50
180.0
 51
270.0
  0
ARC
  5
   555
  8
0
  6
CONTINUOUS
 62
     7
 10
-1.60212866961956
 20
-195.589987639338
 30
0.0
 40
0.400000005960464
 50
270.0
 51
360.0
  0
ARC
  5
   556
  8
0
  6
CONTINUOUS
 62
     7
 10
-1.60212866961956
 20
-180.889987420291
 30
0.0
 40
0.400000005960464
 50
360.0
 51
450.0
  0
INSERT
  5
   557
  8
0
  6
CONTINUOUS
 62
     7
  2
*UDIM1153
 10
0.0
 20
0.0
 30
0.0
  0
INSERT
  5
   558
  8
0
  6
CONTINUOUS
 62
     7
  2
*UDIM1154
 10
0.0
 20
0.0
 30
0.0
  0
INSERT
  5
   559
  8
0
  6
CONTINUOUS
 62
     7
  2
*UDIM1155
 10
0.0
 20
0.0
 30
0.0
  0
INSERT
  5
   55A
  8
0
  6
CONTINUOUS
 62
     7
  2
*UDIM1156
 10
0.0
 20
0.0
 30
0.0
  0
INSERT
  5
   55B
  8
0
  6
CONTINUOUS
 62
     7
  2
*UDIM1157
 10
0.0
 20
0.0
 30
0.0
  0
INSERT
  5
   55C
  8
0
  6
CONTINUOUS
 62
     7
  2
*UDIM1158
 10
0.0
 20
0.0
 30
0.0
  0
INSERT
  5
   55D
  8
0
  6
CONTINUOUS
 62
     7
  2
*UDIM1159
 10
0.0
 20
0.0
 30
0.0
  0
INSERT
  5
   55E
  8
0
  6
CONTINUOUS
 62
     7
  2
*UDIM1160
 10
0.0
 20
0.0
 30
0.0
  0
INSERT
  5
   55F
  8
0
  6
CONTINUOUS
 62
     7
  2
*UDIM1161
 10
0.0
 20
0.0
 30
0.0
  0
INSERT
  5
   560
  8
0
  6
CONTINUOUS
 62
     7
  2
*UDIM1162
 10
0.0
 20
0.0
 30
0.0
  0
INSERT
  5
   561
  8
0
  6
CONTINUOUS
 62
     7
  2
*UDIM1163
 10
0.0
 20
0.0
 30
0.0
  0
INSERT
  5
   562
  8
0
  6
CONTINUOUS
 62
     7
  2
*UDIM1164
 10
0.0
 20
0.0
 30
0.0
  0
TEXT
  5
   563
  8
0
  6
CONTINUOUS
 62
     7
 10
-23.5231920379483
 20
-205.828818262953
 30
0.0
 40
2.99999994933605
  1
Y
 50
360.0
 41
0.916666607525612
 72
     2
 11
-21.3231922197425
 21
-205.828818262942
 31
0.0
  0
TEXT
  5
   564
  8
0
  6
CONTINUOUS
 62
     7
 10
-24.6187374415413
 20
-119.081536086528
 30
0.0
 40
2.99999994933605
  1
Y
 50
360.0
 41
0.916666607525612
 72
     2
 11
-22.4187376233355
 21
-119.081536086517
 31
0.0
  0
TEXT
  5
   565
  8
0
  6
CONTINUOUS
 62
     7
 10
-92.4429625427772
 20
-164.696066566653
 30
0.0
 40
2.99999994933605
  1
X
 50
360.0
 41
0.916666607525612
 72
     2
 11
-90.2429627245713
 21
-164.696066566642
 31
0.0
  0
TEXT
  5
   566
  8
0
  6
CONTINUOUS
 62
     7
 10
12.2630937049646
 20
-165.104102995463
 30
0.0
 40
2.99999994933605
  1
X
 50
360.0
 41
0.916666607525612
 72
     2
 11
14.4630935231705
 21
-165.104102995451
 31
0.0
  0
LINE
  5
   567
  8
0
  6
CONTINUOUS
 62
   130
 10
-51.2913757562637
 20
19.6343482256709
 30
0.0
 11
-16.641392368078
 21
19.6343482256709
 31
0.0
  0
LINE
  5
   568
  8
0
  6
CONTINUOUS
 62
     3
 10
-17.5163976728925
 20
-49.8931455834928
 30
0.0
 11
-17.1663976997146
 21
-49.8931455834928
 31
0.0
  0
LINE
  5
   569
  8
0
  6
CONTINUOUS
 62
     3
 10
-33.0788256915574
 20
-49.8931455834928
 30
0.0
 11
-17.5163976728925
 21
-49.8931455834928
 31
0.0
  0
LINE
  5
   56A
  8
0
  6
CONTINUOUS
 62
     3
 10
-44.4663811922085
 20
18.5318535850224
 30
0.0
 11
-16.641392368078
 21
18.5318535850224
 31
0.0
  0
LINE
  5
   56B
  8
0
  6
CONTINUOUS
 62
     3
 10
-17.1663978109764
 20
-49.8931458060169
 30
0.0
 11
-16.6413978199171
 21
-49.8931458060169
 31
0.0
  0
LINE
  5
   56C
  8
0
  6
CONTINUOUS
 62
     3
 10
-33.266378287303
 20
-50.5931467998788
 30
0.0
 11
-33.0788172703274
 21
-49.8931471765312
 31
0.0
  0
LINE
  5
   56D
  8
0
  6
CONTINUOUS
 62
     3
 10
-44.4663758724941
 20
-50.5931452377859
 30
0.0
 11
-33.0913920879374
 21
-50.5931452377859
 31
0.0
  0
LINE
  5
   56E
  8
0
  6
CONTINUOUS
 62
     3
 10
-52.1663757413626
 20
-50.5931612595141
 30
0.0
 11
-52.1663757413626
 21
-49.3681527555649
 31
0.0
  0
LINE
  5
   56F
  8
0
  6
CONTINUOUS
 62
     3
 10
-52.1663757413626
 20
-0.3681460931125
 30
0.0
 11
-52.1663757413626
 21
11.0068323508681
 31
0.0
  0
LINE
  5
   570
  8
0
  6
CONTINUOUS
 62
     3
 10
-52.1663757413626
 20
11.0068323508681
 30
0.0
 11
-50.4163757711649
 21
11.0068323508681
 31
0.0
  0
LINE
  5
   571
  8
0
  6
CONTINUOUS
 62
     3
 10
-52.1663757413626
 20
-50.5931612595141
 30
0.0
 11
-49.3663707822562
 21
-50.5931612595141
 31
0.0
  0
LINE
  5
   572
  8
0
  6
CONTINUOUS
 62
     3
 10
-43.4163758903742
 20
-0.3681460931125
 30
0.0
 11
-43.4163758903742
 21
10.2005011592318
 31
0.0
  0
LINE
  5
   573
  8
0
  6
CONTINUOUS
 62
     3
 10
-43.4163755566298
 20
8.55684212662916
 30
0.0
 11
-43.4163752228438
 21
8.73184212364893
 31
0.0
  0
LINE
  5
   574
  8
0
  6
CONTINUOUS
 62
     3
 10
-50.8363709985674
 20
18.5318603388346
 30
0.0
 11
-44.4663721751631
 21
18.5318603388346
 31
0.0
  0
LINE
  5
   575
  8
0
  6
CONTINUOUS
 62
     3
 10
-50.4163704305888
 20
-50.5931452377858
 30
0.0
 11
-44.4663758724928
 21
-50.5931452377858
 31
0.0
  0
LINE
  5
   576
  8
0
  6
CONTINUOUS
 62
     3
 10
-51.116375759244
 20
11.0068323508681
 30
0.0
 11
-51.116375759244
 21
11.1818376884639
 31
0.0
  0
LINE
  5
   577
  8
0
  6
CONTINUOUS
 62
     3
 10
-44.4663758724928
 20
10.4818386927732
 30
0.0
 11
-44.4663758724928
 21
19.5818482265649
 31
0.0
  0
LINE
  5
   578
  8
0
  6
CONTINUOUS
 62
     3
 10
-51.2913757562637
 20
11.1818376884639
 30
0.0
 11
-51.116375759244
 21
11.1818376884639
 31
0.0
  0
LINE
  5
   579
  8
0
  6
CONTINUOUS
 62
     3
 10
-51.2913757562637
 20
11.1818376884639
 30
0.0
 11
-51.2913757562637
 21
19.6343482256709
 31
0.0
  0
LINE
  5
   57A
  8
0
  6
CONTINUOUS
 62
     3
 10
-51.1163720458464
 20
11.1818371869647
 30
0.0
 11
-50.3113709907608
 21
11.1818318463887
 31
0.0
  0
LINE
  5
   57B
  8
0
  6
CONTINUOUS
 62
     3
 10
-50.8363746958971
 20
11.1818270073118
 30
0.0
 11
-50.8363746958971
 21
18.5318375632942
 31
0.0
  0
LINE
  5
   57C
  8
0
  6
CONTINUOUS
 62
     3
 10
-52.1663757413626
 20
11.0068430320202
 30
0.0
 11
-51.1163704186679
 21
11.0068430320202
 31
0.0
  0
LINE
  5
   57D
  8
0
  6
CONTINUOUS
 62
     3
 10
-50.4163757711649
 20
-0.3681460931125
 30
0.0
 11
-50.4163757711649
 21
11.0068323508681
 31
0.0
  0
LINE
  5
   57E
  8
0
  6
CONTINUOUS
 62
     3
 10
-44.4663747881609
 20
10.4818384022325
 30
0.0
 11
-43.4163751587619
 21
10.2004968767691
 31
0.0
  0
LINE
  5
   57F
  8
0
  6
CONTINUOUS
 62
     3
 10
-50.4163689693665
 20
8.09976689380751
 30
0.0
 11
-50.3113732495039
 21
8.14446750951025
 31
0.0
  0
LINE
  5
   580
  8
0
  6
CONTINUOUS
 62
     3
 10
-50.4163746833592
 20
9.71392431436546
 30
0.0
 11
-50.3113789580767
 21
9.66922903894965
 31
0.0
  0
LINE
  5
   581
  8
0
  6
CONTINUOUS
 62
     3
 10
-50.3113907265674
 20
-73.2381504597489
 30
0.0
 11
-17.341392356157
 21
-73.2381504597489
 31
0.0
  0
LINE
  5
   582
  8
0
  6
CONTINUOUS
 62
     2
 10
-33.2619754285383
 20
-74.2181501760306
 30
0.0
 11
-17.3413923561583
 21
-74.2181501760306
 31
0.0
  0
LINE
  5
   583
  8
0
  6
CONTINUOUS
 62
     2
 10
-51.2913917779933
 20
-74.2181501760298
 30
0.0
 11
-33.2619861096904
 21
-74.2181501760298
 31
0.0
  0
LINE
  5
   584
  8
0
  6
CONTINUOUS
 62
     3
 10
-33.0913920879374
 20
-50.0681505873029
 30
0.0
 11
-16.6413923680793
 21
-50.0681505873029
 31
0.0
  0
LINE
  5
   585
  8
0
  6
CONTINUOUS
 62
     2
 10
-51.2913917779933
 20
-74.2181501760308
 30
0.0
 11
-51.2913917779933
 21
-65.818155659658
 31
0.0
  0
LINE
  5
   586
  8
0
  6
CONTINUOUS
 62
     2
 10
-51.8163917690526
 20
-65.818155659658
 30
0.0
 11
-50.3113920617114
 21
-65.818155659658
 31
0.0
  0
LINE
  5
   587
  8
0
  6
CONTINUOUS
 62
     3
 10
-50.3113920617114
 20
-73.2381491246049
 30
0.0
 11
-50.3113920617114
 21
-65.818155659658
 31
0.0
  0
LINE
  5
   588
  8
0
  6
CONTINUOUS
 62
     3
 10
-33.0913920879374
 20
-50.5931559189382
 30
0.0
 11
-33.0913920879374
 21
-50.0681505873029
 31
0.0
  0
LINE
  5
   589
  8
0
  6
CONTINUOUS
 62
     2
 10
-50.3113920617114
 20
-64.4181556834999
 30
0.0
 11
-50.3113920617114
 21
-50.7681505753817
 31
0.0
  0
LINE
  5
   58A
  8
0
  6
CONTINUOUS
 62
     3
 10
-36.8538920238624
 20
-74.21815017603
 30
0.0
 11
-36.8538920238624
 21
-73.2381504597481
 31
0.0
  0
LINE
  5
   58B
  8
0
  6
CONTINUOUS
 62
     2
 10
-17.3413923561583
 20
-75.0931501611294
 30
0.0
 11
-17.3413923561583
 21
-70.5431502386157
 31
0.0
  0
LINE
  5
   58C
  8
0
  6
CONTINUOUS
 62
     3
 10
-36.7708140223476
 20
-74.2181501760302
 30
0.0
 11
-36.7708140223476
 21
-73.2381514611063
 31
0.0
  0
LINE
  5
   58D
  8
0
  6
CONTINUOUS
 62
     7
 10
-52.1663920301209
 20
-64.4181558532306
 30
0.0
 11
-52.1663920301209
 21
-50.7681560856887
 31
0.0
  0
LINE
  5
   58E
  8
0
  6
CONTINUOUS
 62
     7
 10
-52.1663920301209
 20
-50.7681560856887
 30
0.0
 11
-50.3113920617114
 21
-50.7681560856887
 31
0.0
  0
LINE
  5
   58F
  8
0
  6
CONTINUOUS
 62
     7
 10
-52.1663920301209
 20
-64.4181558532306
 30
0.0
 11
-50.3113920617114
 21
-64.4181558532306
 31
0.0
  0
LINE
  5
   590
  8
0
  6
CONTINUOUS
 62
     7
 10
-51.2913920450221
 20
-64.4181558532306
 30
0.0
 11
-51.2913920450221
 21
-50.7681560856887
 31
0.0
  0
LINE
  5
   591
  8
0
  6
CONTINUOUS
 62
     2
 10
-50.3113920617114
 20
-65.818155659658
 30
0.0
 11
-50.3113920617114
 21
-64.4181556834999
 31
0.0
  0
LINE
  5
   592
  8
0
  6
CONTINUOUS
 62
     7
 10
-49.3663707822562
 20
-50.7681505753817
 30
0.0
 11
-49.3663707822562
 21
-49.3681505992236
 31
0.0
  0
LINE
  5
   593
  8
0
  6
CONTINUOUS
 62
     7
 10
-50.7663709253074
 20
-50.7681505753817
 30
0.0
 11
-49.3663707822562
 21
-50.7681505753817
 31
0.0
  0
LINE
  5
   594
  8
0
  6
CONTINUOUS
 62
     7
 10
-52.1663757413626
 20
20.5093482107697
 30
0.0
 11
-16.641392368078
 21
20.5093482107697
 31
0.0
  0
LINE
  5
   595
  8
0
  6
CONTINUOUS
 62
     7
 10
-52.1663757413626
 20
11.3568430260598
 30
0.0
 11
-52.1663757413626
 21
20.5093482107697
 31
0.0
  0
LINE
  5
   596
  8
0
  6
CONTINUOUS
 62
     7
 10
-52.1663917630921
 20
-75.0931501611294
 30
0.0
 11
-17.3413923561583
 21
-75.0931501611294
 31
0.0
  0
LINE
  5
   597
  8
0
  6
CONTINUOUS
 62
     7
 10
-52.1663917630921
 20
-75.0931501611294
 30
0.0
 11
-52.1663917630921
 21
-66.1681556536976
 31
0.0
  0
LINE
  5
   598
  8
0
  6
CONTINUOUS
 62
     7
 10
-52.1663757413626
 20
11.3568430260598
 30
0.0
 11
-51.816375747323
 21
11.3568430260598
 31
0.0
  0
LINE
  5
   599
  8
0
  6
CONTINUOUS
 62
     7
 10
-51.816375747323
 20
11.0068430320202
 30
0.0
 11
-51.816375747323
 21
11.3568430260598
 31
0.0
  0
LINE
  5
   59A
  8
0
  6
CONTINUOUS
 62
     7
 10
-52.1663917630921
 20
-66.1681556536976
 30
0.0
 11
-51.8163917690526
 21
-66.1681556536976
 31
0.0
  0
LINE
  5
   59B
  8
0
  6
CONTINUOUS
 62
     7
 10
-51.8163917690526
 20
-66.1681556536976
 30
0.0
 11
-51.8163917690526
 21
-65.818155659658
 31
0.0
  0
LINE
  5
   59C
  8
0
  6
CONTINUOUS
 62
     7
 10
-51.6413709104062
 20
-50.7681505753817
 30
0.0
 11
-50.241370600462
 21
-50.7681505753817
 31
0.0
  0
LINE
  5
   59D
  8
0
  6
CONTINUOUS
 62
     7
 10
-61.9663702346628
 20
-44.1181453447857
 30
0.0
 11
-61.9663522102179
 21
-45.5181546669175
 31
0.0
  0
LINE
  5
   59E
  8
0
  6
CONTINUOUS
 62
     3
 10
-57.1718253333521
 20
-47.9681559622603
 30
0.0
 11
-57.0663706518442
 21
-47.9681546271163
 31
0.0
  0
LINE
  5
   59F
  8
0
  6
CONTINUOUS
 62
     7
 10
-61.9663702346063
 20
-49.3681532669045
 30
0.0
 11
-61.966352877734
 21
-47.968158631302
 31
0.0
  0
LINE
  5
   5A0
  8
0
  6
CONTINUOUS
 62
     7
 10
-16.6413922224854
 20
-49.368150567865
 30
0.0
 11
-15.9413922344063
 21
-49.3681946276177
 31
0.0
  0
LINE
  5
   5A1
  8
0
  6
CONTINUOUS
 62
     7
 10
-60.2163702636957
 20
-49.3681532695116
 30
0.0
 11
-18.3913976788516
 21
-49.3681505992235
 31
0.0
  0
LINE
  5
   5A2
  8
0
  6
CONTINUOUS
 62
     7
 10
-15.941397720575
 20
-0.3681460931125
 30
0.0
 11
-0.716381958126931
 21
-0.3681460931125
 31
0.0
  0
LINE
  5
   5A3
  8
0
  6
CONTINUOUS
 62
     7
 10
-15.9413923795636
 20
-49.3681946589108
 30
0.0
 11
-0.716381957691667
 21
-49.3682387186626
 31
0.0
  0
LINE
  5
   5A4
  8
0
  6
CONTINUOUS
 62
     7
 10
-0.716381958076937
 20
-49.3682387233041
 30
0.0
 11
-0.716376617501055
 21
-45.5181626867606
 31
0.0
  0
LINE
  5
   5A5
  8
0
  6
CONTINUOUS
 62
     3
 10
-61.9663702338935
 20
-11.5681405618016
 30
0.0
 11
-30.2913761138916
 21
-11.5681405618016
 31
0.0
  0
LINE
  5
   5A6
  8
0
  6
CONTINUOUS
 62
     3
 10
-42.3663825839757
 20
-22.0681564047159
 30
0.0
 11
-30.2913761138916
 21
-22.0681564047159
 31
0.0
  0
LINE
  5
   5A7
  8
0
  6
CONTINUOUS
 62
     7
 10
-61.9663575726201
 20
-47.9681586339283
 30
0.0
 11
-61.9663575726201
 21
-45.5181546702195
 31
0.0
  0
LINE
  5
   5A8
  8
0
  6
CONTINUOUS
 62
     7
 10
-61.9663702338935
 20
-0.3681460931125
 30
0.0
 11
-15.941397720575
 21
-0.3681460931125
 31
0.0
  0
LINE
  5
   5A9
  8
0
  6
CONTINUOUS
 62
     7
 10
-61.9663702338935
 20
-11.5681405618016
 30
0.0
 11
-61.9663702338935
 21
-0.3681460931125
 31
0.0
  0
LINE
  5
   5AA
  8
0
  6
CONTINUOUS
 62
     3
 10
-26.1788975461152
 20
-47.9681372715968
 30
0.0
 11
-17.3413923560408
 21
-47.9681212498687
 31
0.0
  0
LINE
  5
   5AB
  8
0
  6
CONTINUOUS
 62
     3
 10
-40.4851259402834
 20
-47.9681452824857
 30
0.0
 11
-27.5788975223798
 21
-47.9681372716219
 31
0.0
  0
LINE
  5
   5AC
  8
0
  6
CONTINUOUS
 62
     3
 10
-60.5663322061263
 20
-47.9681586339257
 30
0.0
 11
-41.8851252488747
 21
-47.9681466176298
 31
0.0
  0
LINE
  5
   5AD
  8
0
  6
CONTINUOUS
 62
     3
 10
-60.5663288682663
 20
-46.3931546553158
 30
0.0
 11
-41.8851245813027
 21
-46.3931426390195
 31
0.0
  0
LINE
  5
   5AE
  8
0
  6
CONTINUOUS
 62
     3
 10
-40.4851246051394
 20
-46.3931413038755
 30
0.0
 11
-27.5788948520918
 21
-46.3931332930116
 31
0.0
  0
LINE
  5
   5AF
  8
0
  6
CONTINUOUS
 62
     3
 10
-26.1788948759304
 20
-46.3931319578678
 30
0.0
 11
-17.3413923561441
 21
-46.3931266172917
 31
0.0
  0
LINE
  5
   5B0
  8
0
  6
CONTINUOUS
 62
     3
 10
-60.5663322061421
 20
-47.9681586323819
 30
0.0
 11
-60.566329535854
 21
-46.3931546540062
 31
0.0
  0
LINE
  5
   5B1
  8
0
  6
CONTINUOUS
 62
     3
 10
-17.341392356157
 20
-47.968121249897
 30
0.0
 11
-17.341392356157
 21
-46.3931266172951
 31
0.0
  0
LINE
  5
   5B2
  8
0
  6
CONTINUOUS
 62
     3
 10
-26.1788975461933
 20
-47.968137276678
 30
0.0
 11
-26.1788948759052
 21
-46.3931252871122
 31
0.0
  0
LINE
  5
   5B3
  8
0
  6
CONTINUOUS
 62
     3
 10
-27.5788975223534
 20
-47.9681372740563
 30
0.0
 11
-27.5788948520653
 21
-46.393126619328
 31
0.0
  0
LINE
  5
   5B4
  8
0
  6
CONTINUOUS
 62
     3
 10
-40.4851405487646
 20
-47.9681452824758
 30
0.0
 11
-40.4851405487646
 21
-46.3931346281457
 31
0.0
  0
LINE
  5
   5B5
  8
0
  6
CONTINUOUS
 62
     3
 10
-41.8851398573363
 20
-47.968146617621
 30
0.0
 11
-41.8851398573363
 21
-46.3931346281469
 31
0.0
  0
LINE
  5
   5B6
  8
0
  6
CONTINUOUS
 62
     7
 10
-49.3663707822562
 20
-50.7681505753817
 30
0.0
 11
-49.3663707822562
 21
-49.3681505992236
 31
0.0
  0
LINE
  5
   5B7
  8
0
  6
CONTINUOUS
 62
     7
 10
-50.7663709253074
 20
-50.7681505753817
 30
0.0
 11
-49.3663707822562
 21
-50.7681505753817
 31
0.0
  0
LINE
  5
   5B8
  8
0
  6
CONTINUOUS
 62
     7
 10
-21.4538709238172
 20
-50.7681318833654
 30
0.0
 11
-21.4538709238172
 21
-49.3681559397996
 31
0.0
  0
LINE
  5
   5B9
  8
0
  6
CONTINUOUS
 62
     7
 10
-20.0538709476591
 20
-50.7681318833654
 30
0.0
 11
-20.0538709476591
 21
-49.3681559397996
 31
0.0
  0
LINE
  5
   5BA
  8
0
  6
CONTINUOUS
 62
     7
 10
-21.4538709238172
 20
-50.7681318833654
 30
0.0
 11
-20.0538709476591
 21
-50.7681318833654
 31
0.0
  0
LINE
  5
   5BB
  8
0
  6
CONTINUOUS
 62
     7
 10
-60.2163702636958
 20
-51.0306505709114
 30
0.0
 11
-60.2163702636958
 21
-50.1556505858125
 31
0.0
  0
LINE
  5
   5BC
  8
0
  6
CONTINUOUS
 62
     7
 10
-61.9663702338935
 20
-51.0306505709114
 30
0.0
 11
-61.9663702338935
 21
-49.3681532695116
 31
0.0
  0
LINE
  5
   5BD
  8
0
  6
CONTINUOUS
 62
     7
 10
-61.9663702338935
 20
-51.0306505709114
 30
0.0
 11
-60.2163702636958
 21
-51.0306505709114
 31
0.0
  0
LINE
  5
   5BE
  8
0
  6
CONTINUOUS
 62
     7
 10
-60.2163702636958
 20
-50.1556505858125
 30
0.0
 11
-60.2163702636958
 21
-49.3681505992236
 31
0.0
  0
LINE
  5
   5BF
  8
0
  6
CONTINUOUS
 62
     7
 10
-18.3914030194278
 20
-51.0306505709114
 30
0.0
 11
-18.3914030194278
 21
-50.1556505858125
 31
0.0
  0
LINE
  5
   5C0
  8
0
  6
CONTINUOUS
 62
     7
 10
-18.3914030194278
 20
-51.0306505709114
 30
0.0
 11
-16.6414030492301
 21
-51.0306505709114
 31
0.0
  0
LINE
  5
   5C1
  8
0
  6
CONTINUOUS
 62
     7
 10
-16.6414030484861
 20
-51.0306505717708
 30
0.0
 11
-16.6413923673339
 21
-49.368150600083
 31
0.0
  0
LINE
  5
   5C2
  8
0
  6
CONTINUOUS
 62
     7
 10
-18.391403018639
 20
-50.1556505859085
 30
0.0
 11
-18.391397678063
 21
-49.3681559400224
 31
0.0
  0
LINE
  5
   5C3
  8
0
  6
CONTINUOUS
 62
     3
 10
-60.5663729052646
 20
-6.49313458576889
 30
0.0
 11
-59.5163729000804
 21
-7.54313459095311
 31
0.0
  0
LINE
  5
   5C4
  8
0
  6
CONTINUOUS
 62
     7
 10
-61.9663702338935
 20
-44.1181453480544
 30
0.0
 11
-61.9663702338935
 21
-22.0681483938517
 31
0.0
  0
LINE
  5
   5C5
  8
0
  6
CONTINUOUS
 62
     3
 10
-61.9663702338937
 20
-22.0681483938513
 30
0.0
 11
-42.3663839191199
 21
-22.0681510641394
 31
0.0
  0
LINE
  5
   5C6
  8
0
  6
CONTINUOUS
 62
     3
 10
-30.2913761138916
 20
-22.0681564047159
 30
0.0
 11
-30.2913761138916
 21
-11.5681405618016
 31
0.0
  0
LINE
  5
   5C7
  8
0
  6
CONTINUOUS
 62
     3
 10
-26.1788975462185
 20
-5.00564601412545
 30
0.0
 11
-17.3413923561441
 21
-5.00564067354924
 31
0.0
  0
LINE
  5
   5C8
  8
0
  6
CONTINUOUS
 62
     3
 10
-26.1788975462314
 20
-7.54314597092298
 30
0.0
 11
-26.1788975462314
 21
-5.00564601413635
 31
0.0
  0
LINE
  5
   5C9
  8
0
  6
CONTINUOUS
 62
     3
 10
-26.1788975462185
 20
-7.54314597091258
 30
0.0
 11
-17.3413923561441
 21
-7.54314063033636
 31
0.0
  0
LINE
  5
   5CA
  8
0
  6
CONTINUOUS
 62
     3
 10
-17.341392356157
 20
-7.5431406303469
 30
0.0
 11
-17.341392356157
 21
-5.00564067356026
 31
0.0
  0
LINE
  5
   5CB
  8
0
  6
CONTINUOUS
 62
     3
 10
-41.8851252488792
 20
-7.5431406303469
 30
0.0
 11
-41.8851252488792
 21
-5.00564067356026
 31
0.0
  0
LINE
  5
   5CC
  8
0
  6
CONTINUOUS
 62
     3
 10
-41.8851259164512
 20
-7.5431406303469
 30
0.0
 11
-27.5788975223895
 21
-7.5431406303469
 31
0.0
  0
LINE
  5
   5CD
  8
0
  6
CONTINUOUS
 62
     3
 10
-27.5788975223895
 20
-7.5431406303469
 30
0.0
 11
-27.5788975223895
 21
-5.00564067356026
 31
0.0
  0
LINE
  5
   5CE
  8
0
  6
CONTINUOUS
 62
     3
 10
-41.8851259164512
 20
-5.00564067356026
 30
0.0
 11
-27.5788975223895
 21
-5.00564067356026
 31
0.0
  0
LINE
  5
   5CF
  8
0
  6
CONTINUOUS
 62
     3
 10
-60.5663695901633
 20
-7.5431406303469
 30
0.0
 11
-43.2851252250374
 21
-7.5431406303469
 31
0.0
  0
LINE
  5
   5D0
  8
0
  6
CONTINUOUS
 62
     3
 10
-43.2851252250374
 20
-7.5431406303469
 30
0.0
 11
-43.2851252250374
 21
-5.00564067356026
 31
0.0
  0
LINE
  5
   5D1
  8
0
  6
CONTINUOUS
 62
     3
 10
-60.5663695901633
 20
-5.00564067356026
 30
0.0
 11
-43.2851252250374
 21
-5.00564067356026
 31
0.0
  0
LINE
  5
   5D2
  8
0
  6
CONTINUOUS
 62
     3
 10
-60.5663702577353
 20
-7.5431406303469
 30
0.0
 11
-60.5663702577353
 21
-5.00564067356026
 31
0.0
  0
LINE
  5
   5D3
  8
0
  6
CONTINUOUS
 62
     3
 10
-57.066370651126
 20
-47.9681546284975
 30
0.0
 11
-57.066370651126
 21
-46.3931466444554
 31
0.0
  0
LINE
  5
   5D4
  8
0
  6
CONTINUOUS
 62
     3
 10
-55.6663696736098
 20
-47.9681546284975
 30
0.0
 11
-55.6663696736098
 21
-46.3931453093114
 31
0.0
  0
LINE
  5
   5D5
  8
0
  6
CONTINUOUS
 62
     3
 10
-60.5662407096838
 20
-47.9681679799346
 30
0.0
 11
-60.5662407096838
 21
-46.3931546553165
 31
0.0
  0
LINE
  5
   5D6
  8
0
  6
CONTINUOUS
 62
     7
 10
-61.966370233961
 20
-49.3681719609592
 30
0.0
 11
-61.966368898817
 21
-49.0181465993004
 31
0.0
  0
LINE
  5
   5D7
  8
0
  6
CONTINUOUS
 62
     7
 10
-16.6413923595214
 20
-49.3681839759809
 30
0.0
 11
-15.9413950417304
 21
-49.3681946571331
 31
0.0
  0
LINE
  5
   5D8
  8
0
  6
CONTINUOUS
 62
     7
 10
-0.71637428935086
 20
-45.5181626810846
 30
0.0
 11
-0.71637428935086
 21
-0.368147428256236
 31
0.0
  0
LINE
  5
   5D9
  8
0
  6
CONTINUOUS
 62
     3
 10
-26.1606755006433
 20
-47.9681439473453
 30
0.0
 11
-26.1606755006433
 21
-46.3931319578712
 31
0.0
  0
LINE
  5
   5DA
  8
0
  6
CONTINUOUS
 62
     3
 10
-27.579322098188
 20
-47.9681599690736
 30
0.0
 11
-27.579322098188
 21
-46.3931332930152
 31
0.0
  0
LINE
  5
   5DB
  8
0
  6
CONTINUOUS
 62
     3
 10
-50.9413704216481
 20
-34.4056615351856
 30
0.0
 11
-46.2163918644187
 21
-34.4056615351856
 31
0.0
  0
LINE
  5
   5DC
  8
0
  6
CONTINUOUS
 62
     3
 10
-50.9413704216481
 20
-38.0806614726007
 30
0.0
 11
-46.2163918644187
 21
-38.0806614726007
 31
0.0
  0
LINE
  5
   5DD
  8
0
  6
CONTINUOUS
 62
     3
 10
-50.9413705885411
 20
-38.0806614726007
 30
0.0
 11
-50.9413705885411
 21
-34.4056615351856
 31
0.0
  0
LINE
  5
   5DE
  8
0
  6
CONTINUOUS
 62
     3
 10
-46.2163918644187
 20
-38.0806614726007
 30
0.0
 11
-46.2163918644187
 21
-34.4056615351856
 31
0.0
  0
LINE
  5
   5DF
  8
0
  6
CONTINUOUS
 62
     3
 10
-10.1663924783466
 20
24.3068313673325
 30
0.0
 11
-10.1663924783466
 21
39.1818265304746
 31
0.0
  0
LINE
  5
   5E0
  8
0
  6
CONTINUOUS
 62
     3
 10
-11.9163924485442
 20
39.1818265304746
 30
0.0
 11
-10.1663924783466
 21
39.1818265304746
 31
0.0
  0
LINE
  5
   5E1
  8
0
  6
CONTINUOUS
 62
   210
 10
-13.6663924187419
 20
39.1818265304746
 30
0.0
 11
-11.9163924485442
 21
39.1818265304746
 31
0.0
  0
LINE
  5
   5E2
  8
0
  6
CONTINUOUS
 62
   210
 10
-13.6663924187419
 20
24.3068313673325
 30
0.0
 11
-13.6663924187419
 21
39.1818265304746
 31
0.0
  0
LINE
  5
   5E3
  8
0
  6
CONTINUOUS
 62
   210
 10
-11.9163924485442
 20
24.3068313673325
 30
0.0
 11
-11.9163924485442
 21
39.1818265304746
 31
0.0
  0
LINE
  5
   5E4
  8
0
  6
CONTINUOUS
 62
   130
 10
-65.8163795143365
 20
2.25685386218402
 30
0.0
 11
-55.8413790166377
 21
2.25685386218402
 31
0.0
  0
LINE
  5
   5E5
  8
0
  6
CONTINUOUS
 62
   130
 10
-55.8413790166377
 20
1.20685388006541
 30
0.0
 11
-55.8413790166377
 21
2.25685386218402
 31
0.0
  0
LINE
  5
   5E6
  8
0
  6
CONTINUOUS
 62
   130
 10
-55.8413790166377
 20
-0.3681460931125
 30
0.0
 11
-55.8413790166377
 21
1.20685388006541
 31
0.0
  0
LINE
  5
   5E7
  8
0
  6
CONTINUOUS
 62
     3
 10
-55.8413790166377
 20
-46.7431439682069
 30
0.0
 11
-55.8413790166377
 21
-46.3931519850315
 31
0.0
  0
LINE
  5
   5E8
  8
0
  6
CONTINUOUS
 62
     3
 10
-57.066370651126
 20
-46.7431439682069
 30
0.0
 11
-55.8413790166377
 21
-46.7431439682069
 31
0.0
  0
LINE
  5
   5E9
  8
0
  6
CONTINUOUS
 62
   130
 10
-65.8163808494805
 20
-46.7431439682069
 30
0.0
 11
-61.9663522094492
 21
-46.7431439682069
 31
0.0
  0
LINE
  5
   5EA
  8
0
  6
CONTINUOUS
 62
   130
 10
-67.741379481554
 20
1.55685387410495
 30
0.0
 11
-67.741379481554
 21
2.25685386218402
 31
0.0
  0
LINE
  5
   5EB
  8
0
  6
CONTINUOUS
 62
     3
 10
-55.8413790166377
 20
-46.743145303351
 30
0.0
 11
-55.6663696736098
 21
-46.743145303351
 31
0.0
  0
LINE
  5
   5EC
  8
0
  6
CONTINUOUS
 62
     2
 10
-55.8413791835308
 20
2.25685386218402
 30
0.0
 11
-52.1663792461156
 21
2.25685386218402
 31
0.0
  0
LINE
  5
   5ED
  8
0
  6
CONTINUOUS
 62
     3
 10
-59.5163215818766
 20
-47.968149287918
 30
0.0
 11
-59.5163215818766
 21
-46.3931479795961
 31
0.0
  0
LINE
  5
   5EE
  8
0
  6
CONTINUOUS
 62
     3
 10
-26.1788922056553
 20
-7.01814063928759
 30
0.0
 11
-17.341392356157
 21
-7.01814063928759
 31
0.0
  0
LINE
  5
   5EF
  8
0
  6
CONTINUOUS
 62
     3
 10
-41.8851219110192
 20
-7.01814063928759
 30
0.0
 11
-27.5788948521015
 21
-7.01814063928759
 31
0.0
  0
LINE
  5
   5F0
  8
0
  6
CONTINUOUS
 62
     3
 10
-59.5163702756167
 20
-7.01814063928759
 30
0.0
 11
-43.2851218871773
 21
-7.01814063928759
 31
0.0
  0
LINE
  5
   5F1
  8
0
  6
CONTINUOUS
 62
     3
 10
-59.7788690103122
 20
-7.2806350067853
 30
0.0
 11
-59.5163690090162
 21
-7.01813500548925
 31
0.0
  0
LINE
  5
   5F2
  8
0
  6
CONTINUOUS
 62
     3
 10
-59.5163702756167
 20
-7.01814063928759
 30
0.0
 11
-59.5163702756167
 21
-5.00564067356026
 31
0.0
  0
LINE
  5
   5F3
  8
0
  6
CONTINUOUS
 62
     3
 10
-50.0663706034423
 20
-37.1619114882469
 30
0.0
 11
-50.0663706034423
 21
-36.7187424741876
 31
0.0
  0
LINE
  5
   5F4
  8
0
  6
CONTINUOUS
 62
     3
 10
-50.0663706034423
 20
-36.7187424741876
 30
0.0
 11
-50.0663706034423
 21
-36.2431615038931
 31
0.0
  0
LINE
  5
   5F5
  8
0
  6
CONTINUOUS
 62
     3
 10
-50.0663706034423
 20
-36.2431615038931
 30
0.0
 11
-50.0663706034423
 21
-35.7675805335987
 31
0.0
  0
LINE
  5
   5F6
  8
0
  6
CONTINUOUS
 62
     3
 10
-50.0663706034423
 20
-35.7675805335987
 30
0.0
 11
-50.0663706034423
 21
-35.3244115195394
 31
0.0
  0
LINE
  5
   5F7
  8
0
  6
CONTINUOUS
 62
     3
 10
-50.0663706034423
 20
-35.3244115195394
 30
0.0
 11
-50.0663706034423
 21
-34.9438527491648
 31
0.0
  0
LINE
  5
   5F8
  8
0
  6
CONTINUOUS
 62
     3
 10
-50.0663706034423
 20
-34.9438527491648
 30
0.0
 11
-50.0663706034423
 21
-34.6518407302119
 31
0.0
  0
LINE
  5
   5F9
  8
0
  6
CONTINUOUS
 62
     3
 10
-50.0663706034423
 20
-34.6518407302119
 30
0.0
 11
-50.0663706034423
 21
-34.4682717788703
 31
0.0
  0
LINE
  5
   5FA
  8
0
  6
CONTINUOUS
 62
     3
 10
-50.0663706034423
 20
-34.4682717788703
 30
0.0
 11
-50.0663706034423
 21
-34.4056615351856
 31
0.0
  0
LINE
  5
   5FB
  8
0
  6
CONTINUOUS
 62
     3
 10
-50.0663706034423
 20
-38.0806614726007
 30
0.0
 11
-50.0663706034423
 21
-38.018051228916
 31
0.0
  0
LINE
  5
   5FC
  8
0
  6
CONTINUOUS
 62
     3
 10
-50.0663706034423
 20
-38.018051228916
 30
0.0
 11
-50.0663706034423
 21
-37.8344822775744
 31
0.0
  0
LINE
  5
   5FD
  8
0
  6
CONTINUOUS
 62
     3
 10
-50.0663706034423
 20
-37.8344822775744
 30
0.0
 11
-50.0663706034423
 21
-37.5424702586215
 31
0.0
  0
LINE
  5
   5FE
  8
0
  6
CONTINUOUS
 62
     3
 10
-50.0663706034423
 20
-37.5424702586215
 30
0.0
 11
-50.0663706034423
 21
-37.1619114882469
 31
0.0
  0
LINE
  5
   5FF
  8
0
  6
CONTINUOUS
 62
     7
 10
-61.9663702338944
 20
-22.0681483938515
 30
0.0
 11
-61.9663702338944
 21
-11.5681405618017
 31
0.0
  0
LINE
  5
   600
  8
0
  6
CONTINUOUS
 62
     7
 10
-67.741379481554
 20
-1.94314606629041
 30
0.0
 11
-67.741379481554
 21
1.55685387410495
 31
0.0
  0
CIRCLE
  5
   601
  8
0
  6
CONTINUOUS
 62
     7
 10
-57.7663976695701
 20
-27.3181612048487
 30
0.0
 40
3.49999920427875
  0
CIRCLE
  5
   602
  8
0
  6
CONTINUOUS
 62
     7
 10
-57.766397819882
 20
-27.3181614587581
 30
0.0
 40
0.962500513221885
  0
CIRCLE
  5
   603
  8
0
  6
CONTINUOUS
 62
     7
 10
-7.89139392428444
 20
-8.41813285307069
 30
0.0
 40
2.10000119521557
  0
CIRCLE
  5
   604
  8
0
  6
CONTINUOUS
 62
     7
 10
-7.89139132934601
 20
-8.41813629097936
 30
0.0
 40
1.13749792246321
  0
CIRCLE
  5
   605
  8
0
  6
CONTINUOUS
 62
     7
 10
-7.89139390556259
 20
-43.4181483387487
 30
0.0
 40
2.10000165327577
  0
CIRCLE
  5
   606
  8
0
  6
CONTINUOUS
 62
     7
 10
-7.89139573251665
 20
-43.4181465700646
 30
0.0
 40
1.13749951227535
  0
LINE
  5
   607
  8
0
  6
DASHDOT
 62
     7
 10
-7.89139390556259
 20
-45.8681499860641
 30
0.0
 11
-7.89139390556259
 21
-40.9681466914334
 31
0.0
  0
LINE
  5
   608
  8
0
  6
DASHDOT
 62
     7
 10
-10.3413955528779
 20
-43.4181483387487
 30
0.0
 11
-5.44139225824728
 21
-43.4181483387487
 31
0.0
  0
LINE
  5
   609
  8
0
  6
DASHDOT
 62
     7
 10
-7.89139392428444
 20
-10.8681340423258
 30
0.0
 11
-7.89139392428444
 21
-5.9681316638156
 31
0.0
  0
LINE
  5
   60A
  8
0
  6
DASHDOT
 62
     7
 10
-10.3413951135395
 20
-8.41813285307069
 30
0.0
 11
-5.44139273502933
 21
-8.41813285307069
 31
0.0
  0
LINE
  5
   60B
  8
0
  6
DASHDOT
 62
     7
 10
-57.7663976695701
 20
-31.168160403167
 30
0.0
 11
-57.7663976695701
 21
-23.4681620065305
 31
0.0
  0
LINE
  5
   60C
  8
0
  6
DASHDOT
 62
     7
 10
-61.6163968678883
 20
-27.3181612048487
 30
0.0
 11
-53.9163984712518
 21
-27.3181612048487
 31
0.0
  0
LINE
  5
   60D
  8
0
  6
CONTINUOUS
 62
     3
 10
-35.5413760244846
 20
-22.0681564047159
 30
0.0
 11
-35.5413760244846
 21
-11.5681405618016
 31
0.0
  0
LINE
  5
   60E
  8
0
  6
CONTINUOUS
 62
   210
 10
-13.6663924187419
 20
-93.8181071176359
 30
0.0
 11
-13.6663924187419
 21
-78.9431500955643
 31
0.0
  0
LINE
  5
   60F
  8
0
  6
CONTINUOUS
 62
   210
 10
-11.9163924485442
 20
-93.8181071176359
 30
0.0
 11
-11.9163924485442
 21
-78.9431500955643
 31
0.0
  0
LINE
  5
   610
  8
0
  6
CONTINUOUS
 62
     3
 10
-10.1663924783466
 20
-93.8181071176359
 30
0.0
 11
-10.1663924783466
 21
-78.9431500955643
 31
0.0
  0
LINE
  5
   611
  8
0
  6
CONTINUOUS
 62
     3
 10
-11.9163924485442
 20
-93.8181071176359
 30
0.0
 11
-10.1663924783466
 21
-93.8181071176359
 31
0.0
  0
LINE
  5
   612
  8
0
  6
CONTINUOUS
 62
   210
 10
-13.6663924187419
 20
-93.8181071176359
 30
0.0
 11
-11.9163924485442
 21
-93.8181071176359
 31
0.0
  0
LINE
  5
   613
  8
0
  6
DASHDOT
 62
     2
 10
-74.7361286934563
 20
-22.2431443854395
 30
0.0
 11
12.1119898661567
 21
-22.2431443854395
 31
0.0
  0
LINE
  5
   614
  8
0
  6
DASHDOT
 62
     2
 10
-3.57453077290519
 20
-6.3181459917846
 30
0.0
 11
9.31741324007237
 21
-6.3181459917846
 31
0.0
  0
LINE
  5
   615
  8
0
  6
DASHDOT
 62
     2
 10
-3.57453077290519
 20
-48.3181426062408
 30
0.0
 11
8.52166507749669
 21
-48.3181426062408
 31
0.0
  0
LINE
  5
   616
  8
0
  6
DASHDOT
 62
     2
 10
-7.07538516445549
 20
-27.3181456341567
 30
0.0
 11
8.8579905919593
 21
-27.3181456341567
 31
0.0
  0
LINE
  5
   617
  8
0
  6
DOT
 62
     7
 10
0.683607336879049
 20
-86.1034293393659
 30
0.0
 11
0.683607336879049
 21
29.3272248074801
 31
0.0
  0
LINE
  5
   618
  8
0
  6
DOT
 62
     7
 10
1.73360731899766
 20
-86.4022144665795
 30
0.0
 11
1.73360731899766
 21
32.912646334043
 31
0.0
  0
LINE
  5
   619
  8
0
  6
CONTINUOUS
 62
     7
 10
1.73360731899766
 20
-3.80164603464034
 30
0.0
 11
4.53360727131394
 21
-3.80164603464034
 31
0.0
  0
LINE
  5
   61A
  8
0
  6
CONTINUOUS
 62
     7
 10
1.73360731899766
 20
-8.83464594892887
 30
0.0
 11
4.53360727131394
 21
-8.83464594892887
 31
0.0
  0
LINE
  5
   61B
  8
0
  6
CONTINUOUS
 62
     7
 10
4.53360727131394
 20
-8.83464594892887
 30
0.0
 11
4.53360727131394
 21
-3.80164603464034
 31
0.0
  0
LINE
  5
   61C
  8
0
  6
CONTINUOUS
 62
     7
 10
4.53360727131394
 20
-50.8346452336731
 30
0.0
 11
4.53360727131394
 21
-45.8016453193846
 31
0.0
  0
LINE
  5
   61D
  8
0
  6
CONTINUOUS
 62
     7
 10
1.73360731899766
 20
-50.8346452336731
 30
0.0
 11
4.53360727131394
 21
-50.8346452336731
 31
0.0
  0
LINE
  5
   61E
  8
0
  6
CONTINUOUS
 62
     7
 10
1.73360731899766
 20
-45.8016453193846
 30
0.0
 11
4.53360727131394
 21
-45.8016453193846
 31
0.0
  0
LINE
  5
   61F
  8
0
  6
DASHDOT
 62
     2
 10
-19.2527925529856
 20
33.0568546728072
 30
0.0
 11
-5.19367779334545
 21
33.0568546728072
 31
0.0
  0
LINE
  5
   620
  8
0
  6
DASHDOT
 62
     2
 10
-19.8694203933207
 20
-87.6931432708326
 30
0.0
 11
-5.19367779334545
 21
-87.6931432708326
 31
0.0
  0
LINE
  5
   621
  8
0
  6
CONTINUOUS
 62
     7
 10
-65.8163808494805
 20
-74.1140367921838
 30
0.0
 11
-65.8163808494805
 21
-54.268143840057
 31
0.0
  0
LINE
  5
   622
  8
0
  6
CONTINUOUS
 62
     7
 10
-66.5163808375596
 20
-74.2598383164184
 30
0.0
 11
-66.5163808375596
 21
-40.6180966749024
 31
0.0
  0
LINE
  5
   623
  8
0
  6
CONTINUOUS
 62
     7
 10
-67.3660867065531
 20
19.8744675936891
 30
0.0
 11
-64.2039807171258
 21
19.0074385320719
 31
0.0
  0
LINE
  5
   624
  8
0
  6
CONTINUOUS
 62
     7
 10
-66.5163808375596
 20
-3.86807994387885
 30
0.0
 11
-66.5163808375596
 21
19.6414837263844
 31
0.0
  0
LINE
  5
   625
  8
0
  6
CONTINUOUS
 62
     7
 10
-63.0163795620202
 20
-38.5180740132168
 30
0.0
 11
-63.0163795620202
 21
-33.9681461884799
 31
0.0
  0
LINE
  5
   626
  8
0
  6
CONTINUOUS
 62
     1
 10
-66.5163795024156
 20
-56.5431438013139
 30
0.0
 11
-66.5163795024156
 21
12.056855030435
 31
0.0
  0
LINE
  5
   627
  8
0
  6
CONTINUOUS
 62
     1
 10
-67.741379481554
 20
-56.5431438013139
 30
0.0
 11
-67.741379481554
 21
-38.8681461050334
 31
0.0
  0
LINE
  5
   628
  8
0
  6
CONTINUOUS
 62
     1
 10
-67.741379481554
 20
-28.8056462763968
 30
0.0
 11
-67.741379481554
 21
12.056855030435
 31
0.0
  0
LINE
  5
   629
  8
0
  6
CONTINUOUS
 62
     7
 10
-65.8163795143365
 20
-33.9681461884799
 30
0.0
 11
-65.8163795143365
 21
-23.293141029698
 31
0.0
  0
LINE
  5
   62A
  8
0
  6
CONTINUOUS
 62
     7
 10
-64.2413795411586
 20
7.88392648211482
 30
0.0
 11
-64.2413795411586
 21
9.57978369200407
 31
0.0
  0
LINE
  5
   62B
  8
0
  6
CONTINUOUS
 62
     7
 10
-64.2413795411586
 20
-23.0910723228121
 30
0.0
 11
-64.2413795411586
 21
-21.3952177832109
 31
0.0
  0
LINE
  5
   62C
  8
0
  6
CONTINUOUS
 62
     7
 10
-67.741379481554
 20
-38.8681461050334
 30
0.0
 11
-67.3913794875144
 21
-38.8681461050334
 31
0.0
  0
LINE
  5
   62D
  8
0
  6
CONTINUOUS
 62
     7
 10
-67.3913794875144
 20
-40.2681460811916
 30
0.0
 11
-67.3913794875144
 21
-38.8681461050334
 31
0.0
  0
LINE
  5
   62E
  8
0
  6
CONTINUOUS
 62
     7
 10
-67.3913794875144
 20
-40.2681460811916
 30
0.0
 11
-67.0413794934749
 21
-40.2681460811916
 31
0.0
  0
LINE
  5
   62F
  8
0
  6
CONTINUOUS
 62
     7
 10
-67.0413794934749
 20
-40.2681460811916
 30
0.0
 11
-67.0413794934749
 21
-32.2181462182823
 31
0.0
  0
LINE
  5
   630
  8
0
  6
CONTINUOUS
 62
     7
 10
-67.3913794875144
 20
-32.2181462182822
 30
0.0
 11
-67.0413794934749
 21
-32.2181462182822
 31
0.0
  0
LINE
  5
   631
  8
0
  6
CONTINUOUS
 62
     7
 10
-67.3913794875144
 20
-33.6181461944404
 30
0.0
 11
-67.3913794875144
 21
-32.2181462182823
 31
0.0
  0
LINE
  5
   632
  8
0
  6
CONTINUOUS
 62
     7
 10
-67.741379481554
 20
-33.6181461944404
 30
0.0
 11
-67.3913794875144
 21
-33.6181461944404
 31
0.0
  0
LINE
  5
   633
  8
0
  6
CONTINUOUS
 62
     7
 10
-66.5163795024156
 20
-38.5180740132168
 30
0.0
 11
-63.0163795620202
 21
-38.5180740132168
 31
0.0
  0
LINE
  5
   634
  8
0
  6
CONTINUOUS
 62
     7
 10
-66.5163795024156
 20
-33.9681461884799
 30
0.0
 11
-63.0163795620202
 21
-33.9681461884799
 31
0.0
  0
LINE
  5
   635
  8
0
  6
CONTINUOUS
 62
     1
 10
-67.741379481554
 20
-33.6181461944404
 30
0.0
 11
-67.741379481554
 21
-28.8056436061087
 31
0.0
  0
LINE
  5
   636
  8
0
  6
CONTINUOUS
 62
     7
 10
-66.5163795024156
 20
7.68185510494084
 30
0.0
 11
-64.5913795351981
 21
7.68185510494084
 31
0.0
  0
LINE
  5
   637
  8
0
  6
CONTINUOUS
 62
     7
 10
-66.5163795024156
 20
9.78185506917805
 30
0.0
 11
-64.5913795351981
 21
9.78185506917805
 31
0.0
  0
LINE
  5
   638
  8
0
  6
CONTINUOUS
 62
     7
 10
-64.5913795351981
 20
7.68185439080261
 30
0.0
 11
-64.5913795351981
 21
9.7818544752317
 31
0.0
  0
LINE
  5
   639
  8
0
  6
CONTINUOUS
 62
     7
 10
-64.591379598693
 20
7.68185435414412
 30
0.0
 11
-64.2413795931291
 21
7.88392573385158
 31
0.0
  0
LINE
  5
   63A
  8
0
  6
CONTINUOUS
 62
     7
 10
-64.5913790322773
 20
9.78185418487199
 30
0.0
 11
-64.2413790267134
 21
9.57978280516451
 31
0.0
  0
LINE
  5
   63B
  8
0
  6
CONTINUOUS
 62
     7
 10
-66.5163795024156
 20
-23.293143699986
 30
0.0
 11
-64.5913795351981
 21
-23.293143699986
 31
0.0
  0
LINE
  5
   63C
  8
0
  6
CONTINUOUS
 62
     7
 10
-66.5163795024156
 20
-21.1931437357488
 30
0.0
 11
-64.5913795351981
 21
-21.1931437357488
 31
0.0
  0
LINE
  5
   63D
  8
0
  6
CONTINUOUS
 62
     7
 10
-64.5913795351981
 20
-23.293143699986
 30
0.0
 11
-64.5913795351981
 21
-21.1931437357488
 31
0.0
  0
LINE
  5
   63E
  8
0
  6
CONTINUOUS
 62
     7
 10
-64.5913794875923
 20
-23.2931441300626
 30
0.0
 11
-64.2413794820284
 21
-23.0910727503551
 31
0.0
  0
LINE
  5
   63F
  8
0
  6
CONTINUOUS
 62
     7
 10
-64.5913789868627
 20
-21.1931445244652
 30
0.0
 11
-64.2413789812992
 21
-21.3952185711265
 31
0.0
  0
LINE
  5
   640
  8
0
  6
CONTINUOUS
 62
     7
 10
-65.8163808494805
 20
-52.1681438758197
 30
0.0
 11
-65.8163808494805
 21
-38.5180740132168
 31
0.0
  0
LINE
  5
   641
  8
0
  6
CONTINUOUS
 62
     7
 10
-66.5163795024156
 20
-38.8680740072563
 30
0.0
 11
-65.8163795143365
 21
-38.8680740072563
 31
0.0
  0
LINE
  5
   642
  8
0
  6
CONTINUOUS
 62
     7
 10
-66.5163795024156
 20
-33.6181461944404
 30
0.0
 11
-65.8163795143365
 21
-33.6181461944404
 31
0.0
  0
LINE
  5
   643
  8
0
  6
CONTINUOUS
 62
     7
 10
-66.5163795024156
 20
-21.0181437387291
 30
0.0
 11
-65.8163795143365
 21
-21.0181437387291
 31
0.0
  0
LINE
  5
   644
  8
0
  6
CONTINUOUS
 62
     7
 10
-66.5163795024156
 20
-23.4681436970058
 30
0.0
 11
-65.8163795143365
 21
-23.4681436970058
 31
0.0
  0
LINE
  5
   645
  8
0
  6
CONTINUOUS
 62
     7
 10
-65.8163808494805
 20
-21.1931437357488
 30
0.0
 11
-65.8163808494805
 21
7.68185510494084
 31
0.0
  0
LINE
  5
   646
  8
0
  6
CONTINUOUS
 62
     7
 10
-66.5163795024156
 20
9.95685506619782
 30
0.0
 11
-65.8163808494805
 21
9.95685506619782
 31
0.0
  0
LINE
  5
   647
  8
0
  6
CONTINUOUS
 62
     7
 10
-66.5163795024156
 20
7.50685510792107
 30
0.0
 11
-65.8163808494805
 21
7.50685510792107
 31
0.0
  0
LINE
  5
   648
  8
0
  6
CONTINUOUS
 62
   130
 10
-67.741379481554
 20
-38.8681461050334
 30
0.0
 11
-67.741379481554
 21
-33.6181461944404
 31
0.0
  0
LINE
  5
   649
  8
0
  6
CONTINUOUS
 62
     7
 10
-68.7670240309316
 20
-74.7286200502614
 30
0.0
 11
-63.53763085551
 21
-73.6394007520002
 31
0.0
  0
CIRCLE
  5
   64A
  8
0
  6
CONTINUOUS
 62
     7
 10
-13.142649602599
 20
29.3301378965416
 30
0.0
 40
0.139999997615814
  0
INSERT
  5
   64B
  8
255
  6
CONTINUOUS
 62
     7
  2
$1BASETT
 10
-16.641392368078
 20
-78.9431500955643
 30
0.0
 41
0.349999994039536
 42
0.349999994039536
 50
359.999999792138
 43
0.349999994039536
  0
LINE
  5
   64C
  8
0
  6
DOT
 62
     7
 10
2.25860731005696
 20
-1.94314606629041
 30
0.0
 11
8.8579905919593
 21
-1.94314606629041
 31
0.0
  0
LINE
  5
   64D
  8
0
  6
DOT
 62
     7
 10
2.25860731005696
 20
-2.99314604840902
 30
0.0
 11
8.8579905919593
 21
-2.99314604840902
 31
0.0
  0
LINE
  5
   64E
  8
0
  6
DOT
 62
     7
 10
2.25860731005696
 20
-52.6931452020231
 30
0.0
 11
8.8579905919593
 21
-52.6931452020231
 31
0.0
  0
LINE
  5
   64F
  8
0
  6
DOT
 62
     7
 10
2.25860731005696
 20
-51.6431452199045
 30
0.0
 11
8.8579905919593
 21
-51.6431452199045
 31
0.0
  0
LINE
  5
   650
  8
0
  6
DOT
 62
     7
 10
8.8579905919593
 20
-52.6931452020231
 30
0.0
 11
8.8579905919593
 21
-51.6431452199045
 31
0.0
  0
LINE
  5
   651
  8
0
  6
DOT
 62
     7
 10
8.8579905919593
 20
-2.99314604840902
 30
0.0
 11
8.8579905919593
 21
-1.94314606629041
 31
0.0
  0
ARC
  5
   652
  8
0
  6
DOT
 62
     7
 10
2.25860731005696
 20
-3.51814603946832
 30
0.0
 40
1.57499997317791
 50
90.0
 51
180.0
  0
ARC
  5
   653
  8
0
  6
CONTINUOUS
 62
     7
 10
2.25860731005696
 20
-3.51814603946832
 30
0.0
 40
0.524999991059303
 50
90.0
 51
180.0
  0
ARC
  5
   654
  8
0
  6
DOT
 62
     7
 10
2.25860731005696
 20
-51.1181452288452
 30
0.0
 40
0.524999991059303
 50
180.0
 51
270.0
  0
ARC
  5
   655
  8
0
  6
DOT
 62
     7
 10
2.25860731005696
 20
-51.1181452288452
 30
0.0
 40
1.57499997317791
 50
180.0
 51
270.0
  0
LINE
  5
   656
  8
0
  6
CONTINUOUS
 62
     1
 10
-67.741379481554
 20
12.056855030435
 30
0.0
 11
-66.5163795024156
 21
12.056855030435
 31
0.0
  0
LINE
  5
   657
  8
0
  6
CONTINUOUS
 62
     1
 10
-67.741379481554
 20
-56.5431438013139
 30
0.0
 11
-66.5163795024156
 21
-56.5431438013139
 31
0.0
  0
LINE
  5
   658
  8
0
  6
CONTINUOUS
 62
     7
 10
-65.8163808494805
 20
9.78185506917805
 30
0.0
 11
-65.8163808494805
 21
19.449548245782
 31
0.0
  0
INSERT
  5
   659
  8
0
  6
CONTINUOUS
 62
     7
  2
*HATCH255
 10
-52.6913757324219
 20
-65.2011108398438
 30
0.0
 41
0.349999994039536
 42
0.349999994039536
 43
0.349999994039536
  0
INSERT
  5
   65A
  8
0
  6
CONTINUOUS
 62
     7
  2
*HATCH256
 10
-52.6913757324219
 20
-65.2011108398438
 30
0.0
 41
0.349999994039536
 42
0.349999994039536
 43
0.349999994039536
  0
LINE
  5
   65B
  8
0
  6
CONTINUOUS
 62
     7
 10
-66.5163795024156
 20
-54.4431438370767
 30
0.0
 11
-65.8163808494805
 21
-54.4431438370767
 31
0.0
  0
LINE
  5
   65C
  8
0
  6
CONTINUOUS
 62
     7
 10
-66.5163795024156
 20
-54.268143840057
 30
0.0
 11
-64.5913795351981
 21
-54.268143840057
 31
0.0
  0
LINE
  5
   65D
  8
0
  6
CONTINUOUS
 62
     7
 10
-64.5913795351981
 20
-54.2681432461106
 30
0.0
 11
-64.5913795351981
 21
-52.1681431616815
 31
0.0
  0
LINE
  5
   65E
  8
0
  6
CONTINUOUS
 62
     7
 10
-64.5913790322773
 20
-54.2681429557509
 30
0.0
 11
-64.2413790267134
 21
-54.0660715760434
 31
0.0
  0
LINE
  5
   65F
  8
0
  6
CONTINUOUS
 62
     7
 10
-64.2413795411586
 20
-54.066072462883
 30
0.0
 11
-64.2413795411586
 21
-52.3702152529937
 31
0.0
  0
LINE
  5
   660
  8
0
  6
CONTINUOUS
 62
     7
 10
-64.591379598693
 20
-52.168143125023
 30
0.0
 11
-64.2413795931291
 21
-52.3702145047305
 31
0.0
  0
LINE
  5
   661
  8
0
  6
CONTINUOUS
 62
     7
 10
-66.5163795024156
 20
-52.1681438758197
 30
0.0
 11
-64.5913795351981
 21
-52.1681438758197
 31
0.0
  0
LINE
  5
   662
  8
0
  6
CONTINUOUS
 62
     7
 10
-66.5163795024156
 20
-51.9931438788
 30
0.0
 11
-65.8163808494805
 21
-51.9931438788
 31
0.0
  0
INSERT
  5
   663
  8
0
  6
CONTINUOUS
 62
     7
  2
*HATCH257
 10
-52.6913757324219
 20
-65.2011108398438
 30
0.0
 41
0.349999994039536
 42
0.349999994039536
 43
0.349999994039536
  0
INSERT
  5
   664
  8
0
  6
CONTINUOUS
 62
     7
  2
*HATCH258
 10
-52.6913757324219
 20
-65.2011108398438
 30
0.0
 41
0.349999994039536
 42
0.349999994039536
 43
0.349999994039536
  0
INSERT
  5
   665
  8
0
  6
CONTINUOUS
 62
     7
  2
*HATCH259
 10
-52.6913757324219
 20
-65.2011108398438
 30
0.0
 41
0.349999994039536
 42
0.349999994039536
 43
0.349999994039536
  0
LINE
  5
   666
  8
0
  6
CONTINUOUS
 62
     7
 10
-63.3663835614918
 20
2.78185518838734
 30
0.0
 11
-62.491381573677
 21
2.78185518838734
 31
0.0
  0
LINE
  5
   667
  8
0
  6
CONTINUOUS
 62
     7
 10
-62.491381573677
 20
2.78185518838734
 30
0.0
 11
-62.491381573677
 21
6.45685512580246
 31
0.0
  0
LINE
  5
   668
  8
0
  6
CONTINUOUS
 62
     7
 10
-64.5913835406302
 20
7.68185510494084
 30
0.0
 11
-63.7163835555314
 21
7.68185510494084
 31
0.0
  0
LINE
  5
   669
  8
0
  6
CONTINUOUS
 62
     7
 10
-64.9413835346697
 20
9.78185506917805
 30
0.0
 11
-64.9413835346697
 21
10.8318550512967
 31
0.0
  0
LINE
  5
   66A
  8
0
  6
CONTINUOUS
 62
     7
 10
-65.8163808494805
 20
10.8318550512967
 30
0.0
 11
-64.9413835346697
 21
10.8318550512967
 31
0.0
  0
LINE
  5
   66B
  8
0
  6
CONTINUOUS
 62
     7
 10
-64.5913835406302
 20
6.806855119842
 30
0.0
 11
-63.7163835555314
 21
6.806855119842
 31
0.0
  0
LINE
  5
   66C
  8
0
  6
CONTINUOUS
 62
     7
 10
-63.3663835614918
 20
2.78185518838734
 30
0.0
 11
-63.3663835614918
 21
6.45685512580246
 31
0.0
  0
ARC
  5
   66D
  8
0
  6
CONTINUOUS
 62
     7
 10
-63.7163886842586
 20
6.45685068559597
 30
0.0
 40
1.2250064377287
 50
3.19294623689722E-4
 51
89.999813109828
  0
ARC
  5
   66E
  8
0
  6
CONTINUOUS
 62
     7
 10
-63.7163680686792
 20
6.45686943897606
 30
0.0
 40
0.349982431475061
 50
359.99883018406
 51
450.002235801278
  0
ARC
  5
   66F
  8
0
  6
CONTINUOUS
 62
     7
 10
-64.5913903139637
 20
8.03184388255356
 30
0.0
 40
1.22498984871903
 50
196.601143426733
 51
270.000346600662
  0
LINE
  5
   670
  8
0
  6
CONTINUOUS
 62
     7
 10
-63.3663835614918
 20
5.93185513474316
 30
0.0
 11
-62.491381573677
 21
5.93185513474316
 31
0.0
  0
INSERT
  5
   671
  8
0
  6
CONTINUOUS
 62
     7
  2
*HATCH260
 10
-52.6913757324219
 20
-65.2011108398438
 30
0.0
 41
0.349999994039536
 42
0.349999994039536
 43
0.349999994039536
  0
LINE
  5
   672
  8
0
  6
CONTINUOUS
 62
     7
 10
-64.5913795351981
 20
2.25685386218402
 30
0.0
 11
-64.5913795351981
 21
4.70685382046076
 31
0.0
  0
LINE
  5
   673
  8
0
  6
CONTINUOUS
 62
     7
 10
-63.8913795471191
 20
2.25685386218402
 30
0.0
 11
-63.8913795471191
 21
4.70685382046076
 31
0.0
  0
LINE
  5
   674
  8
0
  6
CONTINUOUS
 62
     7
 10
-64.5913795351981
 20
4.70685382046076
 30
0.0
 11
-63.8913795471191
 21
4.70685382046076
 31
0.0
  0
LINE
  5
   675
  8
0
  6
DOT
 62
     7
 10
-77.3663793176412
 20
-46.7431439682069
 30
0.0
 11
-77.3663793176412
 21
2.256853862184
 31
0.0
  0
LINE
  5
   676
  8
0
  6
DOT
 62
     7
 10
-77.3663793176412
 20
2.25685386218402
 30
0.0
 11
-70.6740966270496
 21
2.25685386218402
 31
0.0
  0
LINE
  5
   677
  8
0
  6
DOT
 62
     7
 10
-77.3663793176412
 20
-46.7431439682069
 30
0.0
 11
-70.6740966270496
 21
-46.7431439682069
 31
0.0
  0
LINE
  5
   678
  8
0
  6
CONTINUOUS
 62
     7
 10
-3.43912594141097
 20
-84.9302756174619
 30
0.0
 11
5.23128098118068
 21
-87.3975029312501
 31
0.0
  0
LINE
  5
   679
  8
0
  6
CONTINUOUS
 62
     7
 10
-5.40848035565205E-2
 20
26.8082368785877
 30
0.0
 11
2.93977081519792
 21
37.0313174173558
 31
0.0
  0
LINE
  5
   67A
  8
0
  6
CONTINUOUS
 62
     7
 10
1.73360731899766
 20
-4.91814601562646
 30
0.0
 11
5.93360724747208
 21
-4.91814601562646
 31
0.0
  0
LINE
  5
   67B
  8
0
  6
CONTINUOUS
 62
     7
 10
1.73360731899766
 20
-7.71814596794275
 30
0.0
 11
5.93360724747208
 21
-7.71814596794275
 31
0.0
  0
LINE
  5
   67C
  8
0
  6
CONTINUOUS
 62
     7
 10
5.93360724747208
 20
-49.718142582399
 30
0.0
 11
5.93360724747208
 21
-46.9181426300827
 31
0.0
  0
LINE
  5
   67D
  8
0
  6
CONTINUOUS
 62
     7
 10
1.73360731899766
 20
-46.9181426300827
 30
0.0
 11
5.93360724747208
 21
-46.9181426300827
 31
0.0
  0
LINE
  5
   67E
  8
0
  6
CONTINUOUS
 62
     7
 10
1.73360731899766
 20
-49.718142582399
 30
0.0
 11
5.93360724747208
 21
-49.718142582399
 31
0.0
  0
LINE
  5
   67F
  8
0
  6
CONTINUOUS
 62
     7
 10
5.93360724747208
 20
-7.71814596794275
 30
0.0
 11
5.93360724747208
 21
-4.91814601562646
 31
0.0
  0
TEXT
  5
   680
  8
0
  6
CONTINUOUS
 62
     7
 10
-83.0808687607683
 20
-32.5647487237482
 30
0.0
 40
2.99999997871263
  1
=      =
 50
90.0
 41
0.916666703091727
 72
     1
 11
-84.5808687501381
 21
-21.8397483687122
 31
0.0
 73
     2
  0
INSERT
  5
   681
  8
0
  6
CONTINUOUS
 62
     7
  2
*UDIM1165
 10
0.0
 20
0.0
 30
0.0
  0
TEXT
  5
   682
  8
0
  6
CONTINUOUS
 62
     7
 10
-65.1362419785223
 20
54.9797815806992
 30
0.0
 40
2.99999997871263
  1
ISOLATING DISTANCE
 50
360.0
 41
0.916666703091727
 72
     1
 11
-40.6612411746831
 21
56.4797815701785
 31
0.0
 73
     2
  0
INSERT
  5
   683
  8
0
  6
CONTINUOUS
 62
     7
  2
*UDIM1166
 10
0.0
 20
0.0
 30
0.0
  0
INSERT
  5
   684
  8
0
  6
CONTINUOUS
 62
     7
  2
*UDIM1167
 10
0.0
 20
0.0
 30
0.0
  0
INSERT
  5
   685
  8
0
  6
CONTINUOUS
 62
     7
  2
*UDIM1168
 10
0.0
 20
0.0
 30
0.0
  0
INSERT
  5
   686
  8
0
  6
CONTINUOUS
 62
     7
  2
*UDIM1169
 10
0.0
 20
0.0
 30
0.0
  0
INSERT
  5
   687
  8
0
  6
CONTINUOUS
 62
     7
  2
*UDIM1170
 10
0.0
 20
0.0
 30
0.0
  0
INSERT
  5
   688
  8
0
  6
CONTINUOUS
 62
     7
  2
*UDIM1171
 10
0.0
 20
0.0
 30
0.0
  0
INSERT
  5
   689
  8
0
  6
CONTINUOUS
 62
     7
  2
*UDIM1172
 10
0.0
 20
0.0
 30
0.0
  0
INSERT
  5
   68A
  8
0
  6
CONTINUOUS
 62
     7
  2
*UDIM1173
 10
0.0
 20
0.0
 30
0.0
  0
INSERT
  5
   68B
  8
0
  6
CONTINUOUS
 62
     7
  2
*UDIM1174
 10
0.0
 20
0.0
 30
0.0
  0
INSERT
  5
   68C
  8
0
  6
CONTINUOUS
 62
     7
  2
*UDIM1175
 10
0.0
 20
0.0
 30
0.0
  0
TEXT
  5
   68D
  8
0
  6
CONTINUOUS
 62
     7
 10
22.0244388607526
 20
-22.7206438855727
 30
0.0
 40
2.99999997871263
  1
X
 50
360.0
 41
0.91666663951344
 72
     2
 11
24.2244387964648
 21
-22.7206438855617
 31
0.0
  0
TEXT
  5
   68E
  8
0
  6
CONTINUOUS
 62
     7
 10
-94.4926024594173
 20
-23.0338232778223
 30
0.0
 40
2.99999997871263
  1
X
 50
360.0
 41
0.91666663951344
 72
     2
 11
-92.2926025237052
 21
-23.0338232778113
 31
0.0
  0
INSERT
  5
   68F
  8
0
  6
CONTINUOUS
 62
     7
  2
*UDIM1176
 10
0.0
 20
0.0
 30
0.0
  0
INSERT
  5
   690
  8
0
  6
CONTINUOUS
 62
     7
  2
*UDIM1177
 10
0.0
 20
0.0
 30
0.0
  0
LINE
  5
   691
  8
0
  6
DASHDOT
 62
     2
 10
233.233169555664
 20
-16.4706137724955
 30
0.0
 11
233.233169555664
 21
44.2782928166584
 31
0.0
  0
LINE
  5
   692
  8
0
  6
DASHDOT
 62
     2
 10
203.427144865128
 20
13.2005949020386
 30
0.0
 11
274.440637548308
 21
13.2005949020386
 31
0.0
  0
LINE
  5
   693
  8
0
  6
CONTINUOUS
 62
     7
 10
210.858169555664
 20
33.3255949020386
 30
0.0
 11
253.358169555664
 21
33.3255949020386
 31
0.0
  0
LINE
  5
   694
  8
0
  6
CONTINUOUS
 62
     7
 10
210.858169555664
 20
-6.92440509796143
 30
0.0
 11
253.358169555664
 21
-6.92440509796143
 31
0.0
  0
CIRCLE
  5
   695
  8
0
  6
CONTINUOUS
 62
     7
 10
258.483169555664
 20
13.2005949020386
 30
0.0
 40
1.0
  0
CIRCLE
  5
   696
  8
0
  6
CONTINUOUS
 62
     7
 10
238.170669555664
 20
35.3255949020386
 30
0.0
 40
1.0
  0
CIRCLE
  5
   697
  8
0
  6
CONTINUOUS
 62
     7
 10
217.858169555664
 20
35.3255949020386
 30
0.0
 40
0.875
  0
CIRCLE
  5
   698
  8
0
  6
CONTINUOUS
 62
     7
 10
258.483169555664
 20
-8.92440509796143
 30
0.0
 40
0.875
  0
CIRCLE
  5
   699
  8
0
  6
CONTINUOUS
 62
     7
 10
238.170669555664
 20
-8.92440509796143
 30
0.0
 40
1.0
  0
CIRCLE
  5
   69A
  8
0
  6
CONTINUOUS
 62
     7
 10
217.858169555664
 20
-8.92440509796143
 30
0.0
 40
1.0
  0
CIRCLE
  5
   69B
  8
0
  6
CONTINUOUS
 62
     7
 10
258.483169555664
 20
35.3255949020386
 30
0.0
 40
1.0
  0
LINE
  5
   69C
  8
0
  6
DASHDOT
 62
     7
 10
258.483169555664
 20
14.6250441005833
 30
0.0
 11
258.483169555664
 21
36.9505949020386
 31
0.0
  0
LINE
  5
   69D
  8
0
  6
DASHDOT
 62
     7
 10
256.858169555664
 20
35.3255949020386
 30
0.0
 11
260.108169555664
 21
35.3255949020386
 31
0.0
  0
LINE
  5
   69E
  8
0
  6
DASHDOT
 62
     7
 10
238.170669555664
 20
33.7005949020386
 30
0.0
 11
238.170669555664
 21
44.3470472480992
 31
0.0
  0
LINE
  5
   69F
  8
0
  6
DASHDOT
 62
     7
 10
236.545669555664
 20
35.3255949020386
 30
0.0
 11
239.795669555664
 21
35.3255949020386
 31
0.0
  0
LINE
  5
   6A0
  8
0
  6
DASHDOT
 62
     7
 10
217.858169555664
 20
33.7005949020386
 30
0.0
 11
217.858169555664
 21
36.9505949020386
 31
0.0
  0
LINE
  5
   6A1
  8
0
  6
DASHDOT
 62
     7
 10
216.233169555664
 20
35.3255949020386
 30
0.0
 11
219.483169555664
 21
35.3255949020386
 31
0.0
  0
LINE
  5
   6A2
  8
0
  6
DASHDOT
 62
     7
 10
238.170669555664
 20
-10.5494050979614
 30
0.0
 11
238.170669555664
 21
-7.29940509796143
 31
0.0
  0
LINE
  5
   6A3
  8
0
  6
DASHDOT
 62
     7
 10
236.545669555664
 20
-8.92440509796143
 30
0.0
 11
239.795669555664
 21
-8.92440509796143
 31
0.0
  0
LINE
  5
   6A4
  8
0
  6
DASHDOT
 62
     7
 10
258.483169555664
 20
-10.5494050979614
 30
0.0
 11
258.483169555664
 21
-7.29940509796143
 31
0.0
  0
LINE
  5
   6A5
  8
0
  6
DASHDOT
 62
     7
 10
256.858169555664
 20
-8.92440509796143
 30
0.0
 11
260.108169555664
 21
-8.92440509796143
 31
0.0
  0
LINE
  5
   6A6
  8
0
  6
DASHDOT
 62
     7
 10
217.858169555664
 20
-10.5494050979614
 30
0.0
 11
217.858169555664
 21
-7.29940509796143
 31
0.0
  0
LINE
  5
   6A7
  8
0
  6
DASHDOT
 62
     7
 10
216.233169555664
 20
-8.92440509796143
 30
0.0
 11
219.483169555664
 21
-8.92440509796143
 31
0.0
  0
LINE
  5
   6A8
  8
0
  6
DASHDOT
 62
     7
 10
258.483169555664
 20
-7.07818205247167
 30
0.0
 11
258.483169555664
 21
14.8255949020386
 31
0.0
  0
ARC
  5
   6A9
  8
0
  6
CONTINUOUS
 62
     7
 10
263.483169555664
 20
8.95059490203857
 30
0.0
 40
2.0
 50
360.0
 51
540.0
  0
ARC
  5
   6AA
  8
0
  6
CONTINUOUS
 62
     7
 10
263.483169555664
 20
3.20059490203857
 30
0.0
 40
2.0
 50
180.0
 51
360.0
  0
LINE
  5
   6AB
  8
0
  6
CONTINUOUS
 62
     7
 10
265.483169555664
 20
3.20059490203857
 30
0.0
 11
265.483169555664
 21
8.95059490203857
 31
0.0
  0
LINE
  5
   6AC
  8
0
  6
CONTINUOUS
 62
     7
 10
261.483169555664
 20
3.20059490203857
 30
0.0
 11
261.483169555664
 21
8.95059490203857
 31
0.0
  0
LINE
  5
   6AD
  8
0
  6
DASHDOT
 62
     7
 10
263.483169555664
 20
6.20059490203857
 30
0.0
 11
263.483169555664
 21
11.7005949020386
 31
0.0
  0
LINE
  5
   6AE
  8
0
  6
DASHDOT
 62
     7
 10
260.733169555664
 20
8.95059490203857
 30
0.0
 11
266.233169555664
 21
8.95059490203857
 31
0.0
  0
LINE
  5
   6AF
  8
0
  6
DASHDOT
 62
     7
 10
263.483169555664
 20
0.450594902038574
 30
0.0
 11
263.483169555664
 21
5.95059490203857
 31
0.0
  0
LINE
  5
   6B0
  8
0
  6
DASHDOT
 62
     7
 10
260.733169555664
 20
3.20059490203857
 30
0.0
 11
266.233169555664
 21
3.20059490203857
 31
0.0
  0
POINT
  5
   6B1
  8
0
  6
CONTINUOUS
 62
     7
 10
263.483169555664
 20
10.9505949020386
 30
0.0
  0
POINT
  5
   6B2
  8
0
  6
CONTINUOUS
 62
     7
 10
263.483169555664
 20
1.20059490203857
 30
0.0
  0
CIRCLE
  5
   6B3
  8
0
  6
CONTINUOUS
 62
     7
 10
243.795669555664
 20
35.7005949020386
 30
0.0
 40
0.5
  0
CIRCLE
  5
   6B4
  8
0
  6
CONTINUOUS
 62
     7
 10
232.545669555664
 20
35.7005949020386
 30
0.0
 40
0.5
  0
CIRCLE
  5
   6B5
  8
0
  6
CONTINUOUS
 62
     7
 10
232.545669555664
 20
35.7005949020386
 30
0.0
 40
0.92
  0
CIRCLE
  5
   6B6
  8
0
  6
CONTINUOUS
 62
     7
 10
243.795669555664
 20
35.7005949020386
 30
0.0
 40
0.92
  0
LINE
  5
   6B7
  8
0
  6
DASHDOT
 62
     7
 10
243.795669555664
 20
34.0305949020386
 30
0.0
 11
243.795669555664
 21
37.3705949020386
 31
0.0
  0
LINE
  5
   6B8
  8
0
  6
DASHDOT
 62
     7
 10
242.125669555664
 20
35.7005949020386
 30
0.0
 11
245.465669555664
 21
35.7005949020386
 31
0.0
  0
LINE
  5
   6B9
  8
0
  6
DASHDOT
 62
     7
 10
232.545669555664
 20
34.0305949020386
 30
0.0
 11
232.545669555664
 21
37.3705949020386
 31
0.0
  0
LINE
  5
   6BA
  8
0
  6
DASHDOT
 62
     7
 10
230.875669555664
 20
35.7005949020386
 30
0.0
 11
234.215669555664
 21
35.7005949020386
 31
0.0
  0
LINE
  5
   6BB
  8
0
  6
CONTINUOUS
 62
     7
 10
208.22399392214
 20
39.8168877496471
 30
0.0
 11
269.777966087296
 21
39.8168877496471
 31
0.0
  0
LINE
  5
   6BC
  8
0
  6
CONTINUOUS
 62
     7
 10
208.22399392214
 20
-12.0427531044843
 30
0.0
 11
269.777966087296
 21
-12.0427531044843
 31
0.0
  0
LINE
  5
   6BD
  8
0
  6
CONTINUOUS
 62
     7
 10
208.22399392214
 20
-12.0427531044843
 30
0.0
 11
208.22399392214
 21
39.8168877496471
 31
0.0
  0
LINE
  5
   6BE
  8
0
  6
CONTINUOUS
 62
     7
 10
269.777966087296
 20
-12.0427531044843
 30
0.0
 11
269.777966087296
 21
39.8168877496471
 31
0.0
  0
LINE
  5
   6BF
  8
0
  6
CONTINUOUS
 62
     7
 10
253.358169555664
 20
-6.92440509796142
 30
0.0
 11
253.358169555664
 21
33.3255949020386
 31
0.0
  0
LINE
  5
   6C0
  8
0
  6
CONTINUOUS
 62
     7
 10
210.858169555664
 20
-6.92440509796142
 30
0.0
 11
210.858169555664
 21
33.3255949020386
 31
0.0
  0
LINE
  5
   6C1
  8
0
  6
CONTINUOUS
 62
     7
 10
271.963191236649
 20
25.3710484297444
 30
0.0
 11
271.963191236649
 21
34.2948855374445
 31
0.0
  0
LINE
  5
   6C2
  8
0
  6
CONTINUOUS
 62
     7
 10
274.85144746638
 20
25.3710484297444
 30
0.0
 11
274.85144746638
 21
34.19529049504
 31
0.0
  0
LINE
  5
   6C3
  8
0
  6
CONTINUOUS
 62
     7
 10
271.963191236649
 20
34.2948855374445
 30
0.0
 11
274.85144746638
 21
34.2948855374445
 31
0.0
  0
LINE
  5
   6C4
  8
0
  6
CONTINUOUS
 62
     7
 10
271.963191236649
 20
-7.93341244207459
 30
0.0
 11
274.85144746638
 21
-7.93341244207459
 31
0.0
  0
LINE
  5
   6C5
  8
0
  6
CONTINUOUS
 62
     7
 10
271.963191236649
 20
1.03014137433277
 30
0.0
 11
274.85144746638
 21
1.03014137433277
 31
0.0
  0
LINE
  5
   6C6
  8
0
  6
CONTINUOUS
 62
     7
 10
271.963191236649
 20
25.3710484297444
 30
0.0
 11
274.85144746638
 21
25.3710484297444
 31
0.0
  0
LINE
  5
   6C7
  8
0
  6
CONTINUOUS
 62
     7
 10
271.963191236649
 20
-7.93341244207459
 30
0.0
 11
271.963191236649
 21
1.03014137433277
 31
0.0
  0
LINE
  5
   6C8
  8
0
  6
CONTINUOUS
 62
     7
 10
274.85144746638
 20
-7.93341244207459
 30
0.0
 11
274.85144746638
 21
1.03014137433277
 31
0.0
  0
LINE
  5
   6C9
  8
0
  6
DASHDOT
 62
     2
 10
273.407319351514
 20
-42.9908673684678
 30
0.0
 11
273.407319351514
 21
38.2786872336256
 31
0.0
  0
LINE
  5
   6CA
  8
0
  6
CONTINUOUS
 62
     2
 10
221.108001363291
 20
60.8463628148918
 30
0.0
 11
231.036833553766
 21
37.8046246625129
 31
0.0
  0
LINE
  5
   6CB
  8
0
  6
CONTINUOUS
 62
     2
 10
194.627183974196
 20
60.8463628148918
 30
0.0
 11
221.108001363291
 21
60.8463628148918
 31
0.0
  0
LINE
  5
   6CC
  8
0
  6
CONTINUOUS
 62
     7
 10
228.755309031055
 20
40.6923419951569
 30
0.0
 11
231.036833553766
 21
37.8046246625129
 31
0.0
  0
LINE
  5
   6CD
  8
0
  6
CONTINUOUS
 62
     7
 10
230.492859546135
 20
41.5281901909399
 30
0.0
 11
231.036833553766
 21
37.8046246625129
 31
0.0
  0
INSERT
  5
   6CE
  8
0
  6
CONTINUOUS
 62
     7
  2
*UDIM1178
 10
0.0
 20
0.0
 30
0.0
  0
INSERT
  5
   6CF
  8
0
  6
CONTINUOUS
 62
     7
  2
*UDIM1179
 10
0.0
 20
0.0
 30
0.0
  0
INSERT
  5
   6D0
  8
0
  6
CONTINUOUS
 62
     7
  2
*UDIM1180
 10
0.0
 20
0.0
 30
0.0
  0
TEXT
  5
   6D1
  8
0
  6
CONTINUOUS
 62
     7
 10
198.425920157142
 20
62.0481023518764
 30
0.0
 40
3.00000002980232
  1
PART. Z
 50
360.0
 41
0.916666689183977
 72
     1
 11
207.77592048049
 21
63.5481023668246
 31
0.0
 73
     2
  0
INSERT
  5
   6D2
  8
0
  6
CONTINUOUS
 62
     7
  2
*UDIM1181
 10
0.0
 20
0.0
 30
0.0
  0
TEXT
  5
   6D3
  8
0
  6
CONTINUOUS
 62
     7
 10
192.173412436252
 20
11.9257054799718
 30
0.0
 40
3.00000002980232
  1
X
 50
360.0
 41
0.916666604744064
 72
     2
 11
194.373412305122
 21
11.9257054799829
 31
0.0
  0
TEXT
  5
   6D4
  8
0
  6
CONTINUOUS
 62
     7
 10
289.663185232883
 20
11.7470218413991
 30
0.0
 40
3.00000002980232
  1
X
 50
360.0
 41
0.916666604744064
 72
     2
 11
291.863185101753
 21
11.7470218414102
 31
0.0
  0
TEXT
  5
   6D5
  8
0
  6
CONTINUOUS
 62
     7
 10
231.733961218601
 20
60.0988034480733
 30
0.0
 40
3.00000002980232
  1
Y
 50
360.0
 41
0.916666604744064
 72
     2
 11
233.933961087471
 21
60.0988034480844
 31
0.0
  0
TEXT
  5
   6D6
  8
0
  6
CONTINUOUS
 62
     7
 10
231.865050429111
 20
-53.6475344425517
 30
0.0
 40
3.00000002980232
  1
Y
 50
360.0
 41
0.916666604744064
 72
     2
 11
234.065050297981
 21
-53.6475344425406
 31
0.0
  0
TEXT
  5
   6D7
  8
0
  6
CONTINUOUS
 62
     7
 10
206.680791441791
 20
8.78652820994945
 30
0.0
 40
2.50000005960464
  1
=  =
 50
90.0
 41
0.899999932169916
 72
     2
 11
206.68079144178
 21
17.336527754868
 31
0.0
  0
INSERT
  5
   6D8
  8
0
  6
CONTINUOUS
 62
     7
  2
*UDIM1182
 10
0.0
 20
0.0
 30
0.0
  0
INSERT
  5
   6D9
  8
0
  6
CONTINUOUS
 62
     7
  2
*UDIM1183
 10
0.0
 20
0.0
 30
0.0
  0
INSERT
  5
   6DA
  8
0
  6
CONTINUOUS
 62
     7
  2
*UDIM1184
 10
0.0
 20
0.0
 30
0.0
  0
INSERT
  5
   6DB
  8
0
  6
CONTINUOUS
 62
     7
  2
*UDIM1185
 10
0.0
 20
0.0
 30
0.0
  0
INSERT
  5
   6DC
  8
0
  6
CONTINUOUS
 62
     7
  2
*UDIM1186
 10
0.0
 20
0.0
 30
0.0
  0
INSERT
  5
   6DD
  8
0
  6
CONTINUOUS
 62
     7
  2
*UDIM1187
 10
0.0
 20
0.0
 30
0.0
  0
INSERT
  5
   6DE
  8
0
  6
CONTINUOUS
 62
     7
  2
*UDIM1188
 10
0.0
 20
0.0
 30
0.0
  0
INSERT
  5
   6DF
  8
0
  6
CONTINUOUS
 62
     7
  2
*UDIM1189
 10
0.0
 20
0.0
 30
0.0
  0
INSERT
  5
   6E0
  8
0
  6
CONTINUOUS
 62
     7
  2
*UDIM1190
 10
0.0
 20
0.0
 30
0.0
  0
INSERT
  5
   6E1
  8
0
  6
CONTINUOUS
 62
     7
  2
*UDIM1191
 10
0.0
 20
0.0
 30
0.0
  0
INSERT
  5
   6E2
  8
0
  6
CONTINUOUS
 62
     7
  2
*UDIM1192
 10
0.0
 20
0.0
 30
0.0
  0
INSERT
  5
   6E3
  8
0
  6
CONTINUOUS
 62
     7
  2
*UDIM1193
 10
0.0
 20
0.0
 30
0.0
  0
INSERT
  5
   6E4
  8
0
  6
CONTINUOUS
 62
     7
  2
*UDIM1194
 10
0.0
 20
0.0
 30
0.0
  0
INSERT
  5
   6E5
  8
0
  6
CONTINUOUS
 62
     7
  2
*UDIM1195
 10
0.0
 20
0.0
 30
0.0
  0
TEXT
  5
   6E6
  8
0
  6
CONTINUOUS
 62
     7
 10
234.025038177872
 20
41.3727634271702
 30
0.0
 40
2.50000005960464
  1
=  =
 50
360.0
 41
0.899999932169916
 72
     2
 11
242.575037722791
 21
41.3727634272132
 31
0.0
  0
INSERT
  5
   6E7
  8
0
  6
CONTINUOUS
 62
     7
  2
*UDIM1196
 10
0.0
 20
0.0
 30
0.0
  0
LINE
  5
   6E8
  8
0
  6
CONTINUOUS
 62
     7
 10
73.1819458007813
 20
-167.401070801695
 30
0.0
 11
73.1819458007813
 21
-143.484549315492
 31
0.0
  0
LINE
  5
   6E9
  8
0
  6
CONTINUOUS
 62
     7
 10
71.1819458007813
 20
-167.401070801695
 30
0.0
 11
71.1819458007813
 21
-143.484549315492
 31
0.0
  0
LINE
  5
   6EA
  8
0
  6
DASHDOT
 62
     7
 10
67.9793426983843
 20
-155.442810058594
 30
0.0
 11
76.4055618908216
 21
-155.442810058594
 31
0.0
  0
POINT
  5
   6EB
  8
0
  6
CONTINUOUS
 62
     7
 10
71.1819458007813
 20
-153.442810058594
 30
0.0
  0
POINT
  5
   6EC
  8
0
  6
CONTINUOUS
 62
     7
 10
71.1819458007813
 20
-157.442810058594
 30
0.0
  0
LINE
  5
   6ED
  8
0
  6
CONTINUOUS
 62
     7
 10
71.1819458007813
 20
-153.442810058594
 30
0.0
 11
73.1819458007813
 21
-151.764610796239
 31
0.0
  0
LINE
  5
   6EE
  8
0
  6
CONTINUOUS
 62
     7
 10
71.1819458007813
 20
-157.442810058594
 30
0.0
 11
73.1819458007813
 21
-159.121009320948
 31
0.0
  0
LINE
  5
   6EF
  8
0
  6
CONTINUOUS
 62
     7
 10
71.1819458007813
 20
-164.942810058594
 30
0.0
 11
73.1819458007813
 21
-164.942810058594
 31
0.0
  0
CIRCLE
  5
   6F0
  8
0
  6
CONTINUOUS
 62
     7
 10
72.1819458007813
 20
-155.442810058594
 30
0.0
 40
12.0
  0
LINE
  5
   6F1
  8
0
  6
CONTINUOUS
 62
     7
 10
65.1819534301758
 20
-159.942810058594
 30
0.0
 11
67.6819534301758
 21
-159.942810058594
 31
0.0
  0
LINE
  5
   6F2
  8
0
  6
CONTINUOUS
 62
     7
 10
68.6819534301758
 20
-158.942810058594
 30
0.0
 11
68.6819534301758
 21
-150.942810058594
 31
0.0
  0
LINE
  5
   6F3
  8
0
  6
CONTINUOUS
 62
     7
 10
68.6819534301758
 20
-150.942810058594
 30
0.0
 11
71.1819458007812
 21
-150.942810058594
 31
0.0
  0
LINE
  5
   6F4
  8
0
  6
CONTINUOUS
 62
     7
 10
65.1819534301758
 20
-162.442810058594
 30
0.0
 11
67.6819534301758
 21
-162.442810058594
 31
0.0
  0
LINE
  5
   6F5
  8
0
  6
CONTINUOUS
 62
     7
 10
64.1819534301758
 20
-164.387088792525
 30
0.0
 11
64.1819534301758
 21
-163.442810058594
 31
0.0
  0
ARC
  5
   6F6
  8
0
  6
CONTINUOUS
 62
     7
 10
67.6819575774557
 20
-158.942810729932
 30
0.0
 40
0.999996977799109
 50
269.99984089121
 51
360.00025299209
  0
ARC
  5
   6F7
  8
0
  6
CONTINUOUS
 62
     7
 10
65.1819680836825
 20
-163.442822744898
 30
0.0
 40
3.50001845311552
 50
90.000186890172
 51
153.408761283964
  0
ARC
  5
   6F8
  8
0
  6
CONTINUOUS
 62
     7
 10
65.1819091820258
 20
-163.442769163811
 30
0.0
 40
0.999949821243504
 50
89.997764198722
 51
180.00116981594
  0
ARC
  5
   6F9
  8
0
  6
CONTINUOUS
 62
     7
 10
67.6819727825574
 20
-158.942842105528
 30
0.0
 40
3.49997105594423
 50
269.999653399338
 51
360.000420324806
  0
INSERT
  5
   6FA
  8
0
  6
CONTINUOUS
 62
     7
  2
*HATCH261
 10
72.1819458007813
 20
-155.442810058594
 30
0.0
  0
INSERT
  5
   6FB
  8
0
  6
CONTINUOUS
 62
     7
  2
*HATCH262
 10
72.1819458007813
 20
-155.442810058594
 30
0.0
  0
LINE
  5
   6FC
  8
0
  6
CONTINUOUS
 62
     7
 10
51.8787301115186
 20
-168.05554314696
 30
0.0
 11
51.8787301115186
 21
-143.473355360376
 31
0.0
  0
TEXT
  5
   6FD
  8
0
  6
CONTINUOUS
 62
     7
 10
98.682460455604
 20
-156.639853891877
 30
0.0
 40
3.00000002980232
  1
PART. Z
 50
360.0
 41
0.916666689183977
 72
     1
 11
108.032460778952
 21
-155.139853876929
 31
0.0
 73
     2
  0
INSERT
  5
   6FE
  8
0
  6
CONTINUOUS
 62
     7
  2
*UDIM1197
 10
0.0
 20
0.0
 30
0.0
  0
INSERT
  5
   6FF
  8
0
  6
CONTINUOUS
 62
     7
  2
*UDIM1198
 10
0.0
 20
0.0
 30
0.0
  0
ENDSEC
  0
EOF
