  0
SECTION
  2
HEADER
  9
$ACADVER
  1
AC1009
  9
$DWGCODEPAGE
  3
iso8859-1
  9
$INSBASE
 10
0.0
 20
0.0
 30
0.0
  9
$EXTMIN
 10
1.0E20
 20
1.0E20
  9
$EXTMAX
 10
-1.0E20
 20
-1.0E20
  9
$LIMMIN
 10
0.0
 20
0.0
  9
$LIMMAX
 10
12.0
 20
9.0
  9
$ORTHOMODE
 70
     0
  9
$REGENMODE
 70
     1
  9
$FILLMODE
 70
     1
  9
$QTEXTMODE
 70
     0
  9
$MIRRTEXT
 70
     1
  9
$DRAGMODE
 70
     2
  9
$LTSCALE
 40
15.0
  9
$OSMODE
 70
     0
  9
$ATTMODE
 70
     1
  9
$TEXTSIZE
 40
0.2
  9
$TRACEWID
 40
0.05
  9
$TEXTSTYLE
  7
STANDARD
  9
$CLAYER
  8
0
  9
$CELTYPE
  6
DASHED
  9
$CECOLOR
 62
   256
  9
$DIMSCALE
 40
1.0
  9
$DIMASZ
 40
0.18
  9
$DIMEXO
 40
0.0625
  9
$DIMDLI
 40
0.38
  9
$DIMRND
 40
0.0
  9
$DIMDLE
 40
0.0
  9
$DIMEXE
 40
0.18
  9
$DIMTP
 40
0.0
  9
$DIMTM
 40
0.0
  9
$DIMTXT
 40
0.18
  9
$DIMCEN
 40
0.09
  9
$DIMTSZ
 40
0.0
  9
$DIMTOL
 70
     0
  9
$DIMLIM
 70
     0
  9
$DIMTIH
 70
     1
  9
$DIMTOH
 70
     1
  9
$DIMSE1
 70
     0
  9
$DIMSE2
 70
     0
  9
$DIMTAD
 70
     0
  9
$DIMZIN
 70
     0
  9
$DIMBLK
  1

  9
$DIMASO
 70
     1
  9
$DIMSHO
 70
     1
  9
$DIMPOST
  1

  9
$DIMAPOST
  1

  9
$DIMALT
 70
     0
  9
$DIMALTD
 70
     2
  9
$DIMALTF
 40
25.4
  9
$DIMLFAC
 40
1.0
  9
$DIMTOFL
 70
     0
  9
$DIMTVP
 40
0.0
  9
$DIMTIX
 70
     0
  9
$DIMSOXD
 70
     0
  9
$DIMSAH
 70
     0
  9
$DIMBLK1
  1

  9
$DIMBLK2
  1

  9
$DIMSTYLE
  2
STANDARD
  9
$DIMCLRD
 70
     0
  9
$DIMCLRE
 70
     0
  9
$DIMCLRT
 70
     0
  9
$DIMTFAC
 40
1.0
  9
$DIMGAP
 40
0.09
  9
$LUNITS
 70
     2
  9
$LUPREC
 70
     4
  9
$AXISMODE
 70
     0
  9
$AXISUNIT
 10
0.0
 20
0.0
  9
$SKETCHINC
 40
0.1
  9
$FILLETRAD
 40
0.0
  9
$AUNITS
 70
     0
  9
$AUPREC
 70
     0
  9
$MENU
  1
acad
  9
$ELEVATION
 40
0.0
  9
$PELEVATION
 40
0.0
  9
$THICKNESS
 40
0.0
  9
$LIMCHECK
 70
     0
  9
$BLIPMODE
 70
     1
  9
$CHAMFERA
 40
0.0
  9
$CHAMFERB
 40
0.0
  9
$SKPOLY
 70
     0
  9
$TDCREATE
 40
0.000000000
  9
$TDUPDATE
 40
0.000000000
  9
$TDINDWG
 40
0.0
  9
$TDUSRTIMER
 40
0.0
  9
$USRTIMER
 70
     1
  9
$ANGBASE
 50
0.0
  9
$ANGDIR
 70
     0
  9
$PDMODE
 70
     0
  9
$PDSIZE
 40
0.0
  9
$PLINEWID
 40
0.0
  9
$COORDS
 70
     1
  9
$SPLFRAME
 70
     0
  9
$SPLINETYPE
 70
     6
  9
$SPLINESEGS
 70
     8
  9
$ATTDIA
 70
     0
  9
$ATTREQ
 70
     1
  9
$HANDLING
 70
     1
  9
$HANDSEED
  5
   752
  9
$SURFTAB1
 70
     6
  9
$SURFTAB2
 70
     6
  9
$SURFTYPE
 70
     6
  9
$SURFU
 70
     6
  9
$SURFV
 70
     6
  9
$UCSNAME
  2

  9
$UCSORG
 10
0.0
 20
0.0
 30
0.0
  9
$UCSXDIR
 10
1.0
 20
0.0
 30
0.0
  9
$UCSYDIR
 10
0.0
 20
1.0
 30
0.0
  9
$PUCSNAME
  2

  9
$PUCSORG
 10
0.0
 20
0.0
 30
0.0
  9
$PUCSXDIR
 10
1.0
 20
0.0
 30
0.0
  9
$PUCSYDIR
 10
0.0
 20
1.0
 30
0.0
  9
$USERI1
 70
     0
  9
$USERI2
 70
     0
  9
$USERI3
 70
     0
  9
$USERI4
 70
     0
  9
$USERI5
 70
     0
  9
$USERR1
 40
0.0
  9
$USERR2
 40
0.0
  9
$USERR3
 40
0.0
  9
$USERR4
 40
0.0
  9
$USERR5
 40
0.0
  9
$WORLDVIEW
 70
     1
  9
$SHADEDGE
 70
     3
  9
$SHADEDIF
 70
    70
  9
$TILEMODE
 70
     1
  9
$MAXACTVP
 70
    16
  9
$PINSBASE
 10
0.0
 20
0.0
 30
0.0
  9
$PLIMCHECK
 70
     0
  9
$PEXTMIN
 10
1.0E20
 20
1.0E20
 30
1.0E20
  9
$PEXTMAX
 10
-1.0E20
 20
-1.0E20
 30
-1.0E20
  9
$PLIMMIN
 10
0.0
 20
0.0
  9
$PLIMMAX
 10
12.0
 20
9.0
  9
$UNITMODE
 70
     0
  9
$VISRETAIN
 70
     0
  0
ENDSEC
  0
SECTION
  2
TABLES
  0
TABLE
  2
VPORT
 70
     1
  0
VPORT
  2
*ACTIVE
 70
     0
 10
0.0
 20
0.0
 11
1.0
 21
1.0
 12
6.801242
 22
4.5
 13
0.0
 23
0.0
 14
1.0
 24
1.0
 15
0.0
 25
0.0
 16
0.0
 26
0.0
 36
1.0
 17
0.0
 27
0.0
 37
0.0
 40
9.0
 41
1.511387
 42
50.0
 43
0.0
 44
0.0
 50
0.0
 51
0.0
 71
     0
 72
   100
 73
     1
 74
     1
 75
     0
 76
     0
 77
     0
 78
     0
  0
ENDTAB
  0
TABLE
  2
LTYPE
 70
    41
  0
LTYPE
  2
BYBLOCK
 70
     0
  3

 72
    65
 73
     0
 40
0.0
  0
LTYPE
  2
BYLAYER
 70
     0
  3

 72
    65
 73
     0
 40
0.0
  0
LTYPE
  2
CONTINUOUS
 70
     0
  3
Solid line
 72
    65
 73
     0
 40
0.0
  0
LTYPE
  2
BORDER
 70
    64
  3
__ __ . __ __ . __ __ . __ __ . __ __ . __ __ .
 72
    65
 73
     6
 40
1.75
 49
0.5
 49
-0.25
 49
0.5
 49
-0.25
 49
0.0
 49
-0.25
  0
LTYPE
  2
BORDER2
 70
    64
  3
__.__.__.__.__.__.__.__.__.__.__.__.__.__.__.__
 72
    65
 73
     6
 40
0.875
 49
0.25
 49
-0.125
 49
0.25
 49
-0.125
 49
0.0
 49
-0.125
  0
LTYPE
  2
BORDERX2
 70
    64
  3
____  ____  .  ____  ____  .  ____  ____  .  __
 72
    65
 73
     6
 40
3.5
 49
1.0
 49
-0.5
 49
1.0
 49
-0.5
 49
0.0
 49
-0.5
  0
LTYPE
  2
CENTER
 70
    64
  3
____ _ ____ _ ____ _ ____ _ ____ _ ____ _ ____
 72
    65
 73
     4
 40
2.0
 49
1.25
 49
-0.25
 49
0.25
 49
-0.25
  0
LTYPE
  2
CENTER2
 70
    64
  3
___ _ ___ _ ___ _ ___ _ ___ _ ___ _ ___ _ ___ _
 72
    65
 73
     4
 40
1.125
 49
0.75
 49
-0.125
 49
0.125
 49
-0.125
  0
LTYPE
  2
CENTERX2
 70
    64
  3
________  __  ________  __  ________  __  _____
 72
    65
 73
     4
 40
4.0
 49
2.5
 49
-0.5
 49
0.5
 49
-0.5
  0
LTYPE
  2
DASHDOT
 70
    64
  3
__ . __ . __ . __ . __ . __ . __ . __ . __ . __
 72
    65
 73
     4
 40
1.0
 49
0.5
 49
-0.25
 49
0.0
 49
-0.25
  0
LTYPE
  2
DASHDOT2
 70
    64
  3
_._._._._._._._._._._._._._._._._._._._._._._._
 72
    65
 73
     4
 40
0.5
 49
0.25
 49
-0.125
 49
0.0
 49
-0.125
  0
LTYPE
  2
DASHDOTX2
 70
    64
  3
____  .  ____  .  ____  .  ____  .  ____  .  __
 72
    65
 73
     4
 40
2.0
 49
1.0
 49
-0.5
 49
0.0
 49
-0.5
  0
LTYPE
  2
DASHED
 70
    64
  3
__ __ __ __ __ __ __ __ __ __ __ __ __ __ __ __
 72
    65
 73
     2
 40
0.75
 49
0.5
 49
-0.25
  0
LTYPE
  2
DASHED2
 70
    64
  3
_ _ _ _ _ _ _ _ _ _ _ _ _ _ _ _ _ _ _ _ _ _ _ _
 72
    65
 73
     2
 40
0.375
 49
0.25
 49
-0.125
  0
LTYPE
  2
DASHEDX2
 70
    64
  3
____  ____  ____  ____  ____  ____  ____  ____
 72
    65
 73
     2
 40
1.5
 49
1.0
 49
-0.5
  0
LTYPE
  2
DIVIDE
 70
    64
  3
____ . . ____ . . ____ . . ____ . . ____ . . __
 72
    65
 73
     6
 40
1.25
 49
0.5
 49
-0.25
 49
0.0
 49
-0.25
 49
0.0
 49
-0.25
  0
LTYPE
  2
DIVIDE2
 70
    64
  3
__..__..__..__..__..__..__..__..__..__..__..__.
 72
    65
 73
     6
 40
0.625
 49
0.25
 49
-0.125
 49
0.0
 49
-0.125
 49
0.0
 49
-0.125
  0
LTYPE
  2
DIVIDEX2
 70
    64
  3
________  .  .  ________  .  .  ________  .  .
 72
    65
 73
     6
 40
2.5
 49
1.0
 49
-0.5
 49
0.0
 49
-0.5
 49
0.0
 49
-0.5
  0
LTYPE
  2
DOT
 70
    64
  3
. . . . . . . . . . . . . . . . . . . . . . . .
 72
    65
 73
     2
 40
0.25
 49
0.0
 49
-0.25
  0
LTYPE
  2
DOT2
 70
    64
  3
...............................................
 72
    65
 73
     2
 40
0.125
 49
0.0
 49
-0.125
  0
LTYPE
  2
DOTX2
 70
    64
  3
.  .  .  .  .  .  .  .  .  .  .  .  .  .  .  .
 72
    65
 73
     2
 40
0.5
 49
0.0
 49
-0.5
  0
LTYPE
  2
HIDDEN
 70
    64
  3
__ __ __ __ __ __ __ __ __ __ __ __ __ __ __ __
 72
    65
 73
     2
 40
0.375
 49
0.25
 49
-0.125
  0
LTYPE
  2
HIDDEN2
 70
    64
  3
_ _ _ _ _ _ _ _ _ _ _ _ _ _ _ _ _ _ _ _ _ _ _ _
 72
    65
 73
     2
 40
0.1875
 49
0.125
 49
-0.0625
  0
LTYPE
  2
HIDDENX2
 70
    64
  3
____ ____ ____ ____ ____ ____ ____ ____ ____ __
 72
    65
 73
     2
 40
0.75
 49
0.5
 49
-0.25
  0
LTYPE
  2
PHANTOM
 70
    64
  3
______  __  __  ______  __  __  ______  __  __
 72
    65
 73
     6
 40
2.5
 49
1.25
 49
-0.25
 49
0.25
 49
-0.25
 49
0.25
 49
-0.25
  0
LTYPE
  2
PHANTOM2
 70
    64
  3
___ _ _ ___ _ _ ___ _ _ ___ _ _ ___ _ _ ___ _ _
 72
    65
 73
     6
 40
1.25
 49
0.625
 49
-0.125
 49
0.125
 49
-0.125
 49
0.125
 49
-0.125
  0
LTYPE
  2
PHANTOMX2
 70
    64
  3
____________    ____    ____    ____________
 72
    65
 73
     6
 40
5.0
 49
2.5
 49
-0.5
 49
0.5
 49
-0.5
 49
0.5
 49
-0.5
  0
LTYPE
  2
ACAD_ISO02W100
 70
    64
  3
__ __ __ __ __ __ __ __ __ __ __ __ __ __ __ __
 72
    65
 73
     2
 40
15.0
 49
12.0
 49
-3.0
  0
LTYPE
  2
ACAD_ISO03W100
 70
    64
  3
__    __    __    __    __    __    __    __
 72
    65
 73
     2
 40
30.0
 49
12.0
 49
-18.0
  0
LTYPE
  2
ACAD_ISO04W100
 70
    64
  3
____ . ____ . ____ . ____ . ____ . ____ . ____
 72
    65
 73
     4
 40
30.5
 49
24.0
 49
-3.0
 49
0.5
 49
-3.0
  0
LTYPE
  2
ACAD_ISO05W100
 70
    64
  3
____ .. ____ .. ____ .. ____ .. ____ .. ____ ..
 72
    65
 73
     6
 40
34.0
 49
24.0
 49
-3.0
 49
0.5
 49
-3.0
 49
0.5
 49
-3.0
  0
LTYPE
  2
ACAD_ISO06W100
 70
    64
  3
____ ... ____ ... ____ ... ____ ... ____ ... __
 72
    65
 73
     8
 40
37.5
 49
24.0
 49
-3.0
 49
0.5
 49
-3.0
 49
0.5
 49
-3.0
 49
0.5
 49
-3.0
  0
LTYPE
  2
ACAD_ISO07W100
 70
    64
  3
. . . . . . . . . . . . . . . . . . . . . . . .
 72
    65
 73
     2
 40
3.5
 49
0.5
 49
-3.0
  0
LTYPE
  2
ACAD_ISO08W100
 70
    64
  3
____ __ ____ __ ____ __ ____ ____ __ __ ____ __
 72
    65
 73
     4
 40
36.0
 49
24.0
 49
-3.0
 49
6.0
 49
-3.0
  0
LTYPE
  2
ACAD_ISO09W100
 70
    64
  3
____ __ __ ____ __ __ ____ __ __ ____ __ __ ___
 72
    65
 73
     6
 40
45.0
 49
24.0
 49
-3.0
 49
6.0
 49
-3.0
 49
6.0
 49
-3.0
  0
LTYPE
  2
ACAD_ISO10W100
 70
    64
  3
__ . __ . __ . __ . __ . __ . __ . __ . __ . __
 72
    65
 73
     4
 40
18.5
 49
12.0
 49
-3.0
 49
0.5
 49
-3.0
  0
LTYPE
  2
ACAD_ISO11W100
 70
    64
  3
__ __ . __ __ . __ __ . __ __ . __ __ . __ __ .
 72
    65
 73
     6
 40
33.5
 49
12.0
 49
-3.0
 49
12.0
 49
-3.0
 49
0.5
 49
-3.0
  0
LTYPE
  2
ACAD_ISO12W100
 70
    64
  3
__ . . __ . . __ . . __ . . __ . . __ . . __ .
 72
    65
 73
     6
 40
22.0
 49
12.0
 49
-3.0
 49
0.5
 49
-3.0
 49
0.5
 49
-3.0
  0
LTYPE
  2
ACAD_ISO13W100
 70
    64
  3
__ __ . . __ __ . . __ __ . . __ __ . . __ __ .
 72
    65
 73
     8
 40
37.0
 49
12.0
 49
-3.0
 49
12.0
 49
-3.0
 49
0.5
 49
-3.0
 49
0.5
 49
-3.0
  0
LTYPE
  2
ACAD_ISO14W100
 70
    64
  3
__ . . . __ . . . __ . . . __ . . . __ . . . __
 72
    65
 73
     8
 40
25.5
 49
12.0
 49
-3.0
 49
0.5
 49
-3.0
 49
0.5
 49
-3.0
 49
0.5
 49
-3.0
  0
LTYPE
  2
ACAD_ISO15W100
 70
    64
  3
__ __ . . . __ __ . . . __ __ . . . __ __ . . .
 72
    65
 73
    10
 40
40.5
 49
12.0
 49
-3.0
 49
12.0
 49
-3.0
 49
0.5
 49
-3.0
 49
0.5
 49
-3.0
 49
0.5
 49
-3.0
  0
ENDTAB
  0
TABLE
  2
STYLE
 70
     4
  0
STYLE
  2
STANDARD
 70
    64
 40
0.0
 41
1.0
 50
0.0
 71
     0
 42
0.2
  3
txt
  4

  0
STYLE
  2
TOLERANCE
 70
    64
 40
0.0
 41
1.0
 50
0.0
 71
     0
 42
0.2
  3
../igesfont/iges1003.shx
  4

  0
STYLE
  2
ROMANS
 70
    64
 40
0.0
 41
1.0
 50
0.0
 71
     0
 42
0.2
  3
romans.shx
  4

  0
STYLE
  2
ROMANC
 70
    64
 40
0.0
 41
1.0
 50
0.0
 71
     0
 42
0.2
  3
romanc.shx
  4

  0
ENDTAB
  0
TABLE
  2
DIMSTYLE
 70
     2
  0
DIMSTYLE
  2
UNNAMED
 70
     0
  3

  4

  5

  6

  7

 40
1.0
 41
0.18
 42
0.0625
 43
0.38
 44
0.18
 45
0.0
 46
0.0
 47
0.0
 48
0.0
140
0.18
141
0.09
142
0.0
143
25.4
144
1.0
145
0.0
146
1.0
147
0.09
 71
     0
 72
     0
 73
     1
 74
     1
 75
     0
 76
     0
 77
     0
 78
     0
170
     0
171
     2
172
     0
173
     0
174
     0
175
     0
176
     0
177
     0
178
     0
  0
DIMSTYLE
  2
STANDARD
 70
     0
  3

  4

  5

  6

  7

 40
1.0
 41
0.18
 42
0.0625
 43
0.38
 44
0.18
 45
0.0
 46
0.0
 47
0.0
 48
0.0
140
0.18
141
0.09
142
0.0
143
25.4
144
1.0
145
0.0
146
1.0
147
0.09
 71
     0
 72
     0
 73
     1
 74
     1
 75
     0
 76
     0
 77
     0
 78
     0
170
     0
171
     2
172
     0
173
     0
174
     0
175
     0
176
     0
177
     0
178
     0
  0
ENDTAB
  0
TABLE
  2
LAYER
 70
     2
  0
LAYER
  2
0
 70
     0
 62
     7
  6
CONTINUOUS
  0
LAYER
  2
255
 70
     0
 62
     7
  6
CONTINUOUS
  0
ENDTAB
  0
ENDSEC
  0
SECTION
  2
BLOCKS
  0
BLOCK
  5
     B
  8
0
  6
CONTINUOUS
 62
     7
  2
MANIGLIA
 70
    64
 10
0.0
 20
0.0
 30
0.0
  3
MANIGLIA
  0
LINE
  5
     C
  8
0
  6
CONTINUOUS
 62
   218
 10
205.788955688477
 20
137.294494628906
 30
0.0
 11
207.664886474609
 21
136.725448608399
 31
0.0
  0
LINE
  5
     D
  8
0
  6
CONTINUOUS
 62
   218
 10
203.83805847168
 20
137.48664855957
 30
0.0
 11
205.788955688477
 21
137.294494628906
 31
0.0
  0
LINE
  5
     E
  8
0
  6
CONTINUOUS
 62
   218
 10
207.664886474609
 20
136.725448608398
 30
0.0
 11
209.393753051758
 21
135.801345825195
 31
0.0
  0
LINE
  5
     F
  8
0
  6
CONTINUOUS
 62
   218
 10
209.393753051758
 20
135.801345825195
 30
0.0
 11
209.83805847168
 21
135.436721801758
 31
0.0
  0
LINE
  5
    10
  8
0
  6
CONTINUOUS
 62
   218
 10
173.83805847168
 20
137.48664855957
 30
0.0
 11
179.83805847168
 21
137.48664855957
 31
0.0
  0
LINE
  5
    11
  8
0
  6
CONTINUOUS
 62
   218
 10
179.83805847168
 20
137.48664855957
 30
0.0
 11
203.83805847168
 21
137.48664855957
 31
0.0
  0
LINE
  5
    12
  8
0
  6
CONTINUOUS
 62
   218
 10
87.5320663452148
 20
137.48664855957
 30
0.0
 11
173.83805847168
 21
137.48664855957
 31
0.0
  0
LINE
  5
    13
  8
0
  6
CONTINUOUS
 62
   218
 10
75.8728408813476
 20
141.23664855957
 30
0.0
 11
77.9805297851562
 21
139.914855957031
 31
0.0
  0
LINE
  5
    14
  8
0
  6
CONTINUOUS
 62
   218
 10
77.9805297851563
 20
139.914855957031
 30
0.0
 11
80.2360076904297
 21
138.864959716797
 31
0.0
  0
LINE
  5
    15
  8
0
  6
CONTINUOUS
 62
   218
 10
80.2360076904297
 20
138.864959716797
 30
0.0
 11
82.6043853759766
 21
138.10319519043
 31
0.0
  0
LINE
  5
    16
  8
0
  6
CONTINUOUS
 62
   218
 10
82.6043853759766
 20
138.10319519043
 30
0.0
 11
85.0490188598633
 21
137.641387939453
 31
0.0
  0
LINE
  5
    17
  8
0
  6
CONTINUOUS
 62
   218
 10
85.0490188598633
 20
137.641387939453
 30
0.0
 11
87.5320663452148
 21
137.48664855957
 31
0.0
  0
LINE
  5
    18
  8
0
  6
CONTINUOUS
 62
   218
 10
74.906494140625
 20
141.746353149414
 30
0.0
 11
75.8728408813477
 21
141.23664855957
 31
0.0
  0
LINE
  5
    19
  8
0
  6
CONTINUOUS
 62
   218
 10
73.8382720947266
 20
141.9755859375
 30
0.0
 11
74.906494140625
 21
141.746353149414
 31
0.0
  0
LINE
  5
    1A
  8
0
  6
CONTINUOUS
 62
   218
 10
72.7478790283203
 20
141.9072265625
 30
0.0
 11
73.8382720947265
 21
141.9755859375
 31
0.0
  0
LINE
  5
    1B
  8
0
  6
CONTINUOUS
 62
   218
 10
70.8215179443359
 20
140.919982910156
 30
0.0
 11
71.7166442871094
 21
141.54638671875
 31
0.0
  0
LINE
  5
    1C
  8
0
  6
CONTINUOUS
 62
   218
 10
71.7166442871094
 20
141.54638671875
 30
0.0
 11
72.7478790283203
 21
141.9072265625
 31
0.0
  0
LINE
  5
    1D
  8
0
  6
CONTINUOUS
 62
   218
 10
66.7888107299804
 20
136.186340332031
 30
0.0
 11
68.6658325195312
 21
138.671859741211
 31
0.0
  0
LINE
  5
    1E
  8
0
  6
CONTINUOUS
 62
   218
 10
66.3380584716797
 20
135.415618896484
 30
0.0
 11
66.7888107299805
 21
136.186340332031
 31
0.0
  0
LINE
  5
    1F
  8
0
  6
CONTINUOUS
 62
   218
 10
68.6658325195312
 20
138.671859741211
 30
0.0
 11
70.8215179443359
 21
140.919982910156
 31
0.0
  0
LINE
  5
    20
  8
0
  6
CONTINUOUS
 62
   218
 10
66.7888107299805
 20
106.786964416504
 30
0.0
 11
68.6658325195313
 21
104.30143737793
 31
0.0
  0
LINE
  5
    21
  8
0
  6
CONTINUOUS
 62
   218
 10
66.3380584716797
 20
107.557678222656
 30
0.0
 11
66.7888107299805
 21
106.786964416504
 31
0.0
  0
LINE
  5
    22
  8
0
  6
CONTINUOUS
 62
   218
 10
68.6658325195313
 20
104.30143737793
 30
0.0
 11
70.8215179443359
 21
102.053314208984
 31
0.0
  0
LINE
  5
    23
  8
0
  6
CONTINUOUS
 62
   218
 10
74.906494140625
 20
101.226936340332
 30
0.0
 11
75.8728408813477
 21
101.73664855957
 31
0.0
  0
LINE
  5
    24
  8
0
  6
CONTINUOUS
 62
   218
 10
73.8382720947266
 20
100.997711181641
 30
0.0
 11
74.906494140625
 21
101.226936340332
 31
0.0
  0
LINE
  5
    25
  8
0
  6
CONTINUOUS
 62
   218
 10
71.7166442871094
 20
101.426910400391
 30
0.0
 11
72.7478790283203
 21
101.066062927246
 31
0.0
  0
LINE
  5
    26
  8
0
  6
CONTINUOUS
 62
   218
 10
70.821517944336
 20
102.053314208984
 30
0.0
 11
71.7166442871094
 21
101.426910400391
 31
0.0
  0
LINE
  5
    27
  8
0
  6
CONTINUOUS
 62
   218
 10
72.7478790283203
 20
101.066062927246
 30
0.0
 11
73.8382720947266
 21
100.997711181641
 31
0.0
  0
LINE
  5
    28
  8
0
  6
CONTINUOUS
 62
   218
 10
75.8728408813477
 20
101.73664855957
 30
0.0
 11
77.9805297851563
 21
103.058448791504
 31
0.0
  0
LINE
  5
    29
  8
0
  6
CONTINUOUS
 62
   218
 10
77.9805297851563
 20
103.058448791504
 30
0.0
 11
80.2360076904297
 21
104.108345031738
 31
0.0
  0
LINE
  5
    2A
  8
0
  6
CONTINUOUS
 62
   218
 10
85.0490188598633
 20
105.331909179688
 30
0.0
 11
87.5320663452148
 21
105.48664855957
 31
0.0
  0
LINE
  5
    2B
  8
0
  6
CONTINUOUS
 62
   218
 10
82.6043853759766
 20
104.870094299316
 30
0.0
 11
85.0490188598633
 21
105.331909179688
 31
0.0
  0
LINE
  5
    2C
  8
0
  6
CONTINUOUS
 62
   218
 10
80.2360076904297
 20
104.108345031738
 30
0.0
 11
82.6043853759766
 21
104.870094299316
 31
0.0
  0
LINE
  5
    2D
  8
0
  6
CONTINUOUS
 62
   218
 10
87.5320663452148
 20
105.48664855957
 30
0.0
 11
173.83805847168
 21
105.48664855957
 31
0.0
  0
LINE
  5
    2E
  8
0
  6
CONTINUOUS
 62
   218
 10
173.83805847168
 20
105.48664855957
 30
0.0
 11
179.83805847168
 21
105.48664855957
 31
0.0
  0
LINE
  5
    2F
  8
0
  6
CONTINUOUS
 62
   218
 10
179.83805847168
 20
105.48664855957
 30
0.0
 11
203.83805847168
 21
105.48664855957
 31
0.0
  0
LINE
  5
    30
  8
0
  6
CONTINUOUS
 62
   218
 10
207.664886474609
 20
106.247856140137
 30
0.0
 11
209.393753051758
 21
107.171951293945
 31
0.0
  0
LINE
  5
    31
  8
0
  6
CONTINUOUS
 62
   218
 10
205.788955688477
 20
105.67879486084
 30
0.0
 11
207.664886474609
 21
106.247856140137
 31
0.0
  0
LINE
  5
    32
  8
0
  6
CONTINUOUS
 62
   218
 10
209.393753051758
 20
107.171951293945
 30
0.0
 11
209.83805847168
 21
107.536575317383
 31
0.0
  0
LINE
  5
    33
  8
0
  6
CONTINUOUS
 62
   218
 10
203.83805847168
 20
105.48664855957
 30
0.0
 11
205.788955688477
 21
105.67879486084
 31
0.0
  0
LINE
  5
    34
  8
0
  6
CONTINUOUS
 62
   218
 10
212.189193725586
 20
132.974166870117
 30
0.0
 11
213.074127197266
 21
131.318588256836
 31
0.0
  0
LINE
  5
    35
  8
0
  6
CONTINUOUS
 62
   218
 10
211.074127197266
 20
134.356658935547
 30
0.0
 11
212.152755737305
 21
133.042343139648
 31
0.0
  0
LINE
  5
    36
  8
0
  6
CONTINUOUS
 62
   218
 10
210.909118652344
 20
134.557708740234
 30
0.0
 11
211.074127197266
 21
134.356658935547
 31
0.0
  0
LINE
  5
    37
  8
0
  6
CONTINUOUS
 62
   218
 10
212.152755737305
 20
133.042343139649
 30
0.0
 11
212.189193725586
 21
132.974166870117
 31
0.0
  0
LINE
  5
    38
  8
0
  6
CONTINUOUS
 62
   218
 10
213.642288208008
 20
129.449508666992
 30
0.0
 11
213.645904541016
 21
129.437545776367
 31
0.0
  0
LINE
  5
    39
  8
0
  6
CONTINUOUS
 62
   218
 10
209.83805847168
 20
135.436721801758
 30
0.0
 11
210.909118652344
 21
134.557708740234
 31
0.0
  0
LINE
  5
    3A
  8
0
  6
CONTINUOUS
 62
   218
 10
213.645904541016
 20
129.437545776367
 30
0.0
 11
213.83805847168
 21
127.48664855957
 31
0.0
  0
LINE
  5
    3B
  8
0
  6
CONTINUOUS
 62
   218
 10
213.076858520508
 20
131.3134765625
 30
0.0
 11
213.642288208008
 21
129.449508666992
 31
0.0
  0
LINE
  5
    3C
  8
0
  6
CONTINUOUS
 62
   218
 10
213.074127197266
 20
131.318588256836
 30
0.0
 11
213.076858520508
 21
131.3134765625
 31
0.0
  0
LINE
  5
    3D
  8
0
  6
CONTINUOUS
 62
   218
 10
213.645904541016
 20
113.535743713379
 30
0.0
 11
213.83805847168
 21
115.486648559571
 31
0.0
  0
LINE
  5
    3E
  8
0
  6
CONTINUOUS
 62
   218
 10
212.189193725586
 20
109.999130249024
 30
0.0
 11
213.074127197266
 21
111.654708862305
 31
0.0
  0
LINE
  5
    3F
  8
0
  6
CONTINUOUS
 62
   218
 10
209.83805847168
 20
107.536575317383
 30
0.0
 11
210.909118652344
 21
108.415580749512
 31
0.0
  0
LINE
  5
    40
  8
0
  6
CONTINUOUS
 62
   218
 10
211.074127197266
 20
108.616630554199
 30
0.0
 11
212.152755737305
 21
109.930946350098
 31
0.0
  0
LINE
  5
    41
  8
0
  6
CONTINUOUS
 62
   218
 10
213.076858520508
 20
111.659812927246
 30
0.0
 11
213.642288208008
 21
113.523788452149
 31
0.0
  0
LINE
  5
    42
  8
0
  6
CONTINUOUS
 62
   218
 10
213.074127197266
 20
111.654708862305
 30
0.0
 11
213.076858520508
 21
111.659812927246
 31
0.0
  0
LINE
  5
    43
  8
0
  6
CONTINUOUS
 62
   218
 10
212.152755737305
 20
109.930946350098
 30
0.0
 11
212.189193725586
 21
109.999130249023
 31
0.0
  0
LINE
  5
    44
  8
0
  6
CONTINUOUS
 62
   218
 10
210.909118652344
 20
108.415580749512
 30
0.0
 11
211.074127197266
 21
108.616630554199
 31
0.0
  0
LINE
  5
    45
  8
0
  6
CONTINUOUS
 62
   218
 10
213.642288208008
 20
113.523788452149
 30
0.0
 11
213.645904541016
 21
113.535743713379
 31
0.0
  0
LINE
  5
    46
  8
0
  6
CONTINUOUS
 62
   218
 10
213.83805847168
 20
115.48664855957
 30
0.0
 11
213.83805847168
 21
127.48664855957
 31
0.0
  0
LINE
  5
    47
  8
0
  6
CONTINUOUS
 62
   218
 10
62.5210952758789
 20
118.377380371094
 30
0.0
 11
62.5338287353516
 21
118.305938720703
 31
0.0
  0
LINE
  5
    48
  8
0
  6
CONTINUOUS
 62
   218
 10
63.9869155883789
 20
130.681365966797
 30
0.0
 11
65.1019897460938
 21
133.235702514648
 31
0.0
  0
LINE
  5
    49
  8
0
  6
CONTINUOUS
 62
   218
 10
62.5210952758789
 20
124.595916748047
 30
0.0
 11
62.5338287353516
 21
124.667358398438
 31
0.0
  0
LINE
  5
    4A
  8
0
  6
CONTINUOUS
 62
   218
 10
63.9869155883789
 20
112.291923522949
 30
0.0
 11
65.1019897460937
 21
109.737594604492
 31
0.0
  0
LINE
  5
    4B
  8
0
  6
CONTINUOUS
 62
   218
 10
63.9702682495117
 20
112.330062866211
 30
0.0
 11
63.9869155883789
 21
112.291923522949
 31
0.0
  0
LINE
  5
    4C
  8
0
  6
CONTINUOUS
 62
   218
 10
65.2163848876953
 20
133.497741699219
 30
0.0
 11
66.3380584716797
 21
135.415618896484
 31
0.0
  0
LINE
  5
    4D
  8
0
  6
CONTINUOUS
 62
   218
 10
62.3380546569824
 20
121.48664855957
 30
0.0
 11
62.5210952758789
 21
124.595916748047
 31
0.0
  0
LINE
  5
    4E
  8
0
  6
CONTINUOUS
 62
   218
 10
62.3380546569824
 20
121.486648559571
 30
0.0
 11
62.5210952758789
 21
118.377380371094
 31
0.0
  0
LINE
  5
    4F
  8
0
  6
CONTINUOUS
 62
   218
 10
65.2163848876953
 20
109.475547790527
 30
0.0
 11
66.3380584716797
 21
107.557678222656
 31
0.0
  0
LINE
  5
    50
  8
0
  6
CONTINUOUS
 62
   218
 10
63.1019897460938
 20
115.197761535645
 30
0.0
 11
63.9702682495117
 21
112.330062866211
 31
0.0
  0
LINE
  5
    51
  8
0
  6
CONTINUOUS
 62
   218
 10
63.1019897460938
 20
127.775535583496
 30
0.0
 11
63.9702682495117
 21
130.64323425293
 31
0.0
  0
LINE
  5
    52
  8
0
  6
CONTINUOUS
 62
   218
 10
65.1019897460938
 20
133.235702514648
 30
0.0
 11
65.2163848876953
 21
133.497741699219
 31
0.0
  0
LINE
  5
    53
  8
0
  6
CONTINUOUS
 62
   218
 10
63.0676803588867
 20
115.311065673828
 30
0.0
 11
63.1019897460938
 21
115.197761535645
 31
0.0
  0
LINE
  5
    54
  8
0
  6
CONTINUOUS
 62
   218
 10
63.9702682495117
 20
130.64323425293
 30
0.0
 11
63.9869155883789
 21
130.681365966797
 31
0.0
  0
LINE
  5
    55
  8
0
  6
CONTINUOUS
 62
   218
 10
62.5338287353516
 20
124.667358398438
 30
0.0
 11
63.0676803588867
 21
127.662231445313
 31
0.0
  0
LINE
  5
    56
  8
0
  6
CONTINUOUS
 62
   218
 10
62.5338287353516
 20
118.305938720703
 30
0.0
 11
63.0676803588867
 21
115.311065673828
 31
0.0
  0
LINE
  5
    57
  8
0
  6
CONTINUOUS
 62
   218
 10
63.0676803588867
 20
127.662231445313
 30
0.0
 11
63.1019897460938
 21
127.775535583496
 31
0.0
  0
LINE
  5
    58
  8
0
  6
CONTINUOUS
 62
   218
 10
65.1019897460938
 20
109.737594604492
 30
0.0
 11
65.2163848876953
 21
109.475547790527
 31
0.0
  0
LINE
  5
    59
  8
0
  6
CONTINUOUS
 62
   218
 10
63.588737487793
 20
129.383148193359
 30
0.0
 11
63.6350593566895
 21
129.675598144531
 31
0.0
  0
LINE
  5
    5A
  8
0
  6
CONTINUOUS
 62
   218
 10
67.2918395996094
 20
136.852447509766
 30
0.0
 11
67.3991088867187
 21
137.062957763672
 31
0.0
  0
LINE
  5
    5B
  8
0
  6
CONTINUOUS
 62
   218
 10
67.3991088867188
 20
105.910339355469
 30
0.0
 11
67.6103439331055
 21
105.699104309082
 31
0.0
  0
LINE
  5
    5C
  8
0
  6
CONTINUOUS
 62
   218
 10
73.2617492675781
 20
142.925598144531
 30
0.0
 11
80.6491088867187
 21
146.689651489258
 31
0.0
  0
LINE
  5
    5D
  8
0
  6
CONTINUOUS
 62
   218
 10
63.6350593566894
 20
113.297698974609
 30
0.0
 11
63.7391319274902
 21
113.093444824219
 31
0.0
  0
LINE
  5
    5E
  8
0
  6
CONTINUOUS
 62
   218
 10
80.6491088867187
 20
146.689651489258
 30
0.0
 11
88.8380584716797
 21
147.98664855957
 31
0.0
  0
LINE
  5
    5F
  8
0
  6
CONTINUOUS
 62
   218
 10
88.8380584716797
 20
147.98664855957
 30
0.0
 11
97.0270080566406
 21
146.689651489258
 31
0.0
  0
LINE
  5
    60
  8
0
  6
CONTINUOUS
 62
   218
 10
73.2617492675781
 20
100.047698974609
 30
0.0
 11
80.6491088867188
 21
96.2836532592774
 31
0.0
  0
LINE
  5
    61
  8
0
  6
CONTINUOUS
 62
   218
 10
97.0270080566406
 20
146.689651489258
 30
0.0
 11
104.414367675781
 21
142.925598144531
 31
0.0
  0
LINE
  5
    62
  8
0
  6
CONTINUOUS
 62
   218
 10
104.414367675781
 20
100.047698974609
 30
0.0
 11
109.853317260742
 21
105.48664855957
 31
0.0
  0
LINE
  5
    63
  8
0
  6
CONTINUOUS
 62
   218
 10
97.0270080566406
 20
96.2836532592774
 30
0.0
 11
104.414367675781
 21
100.047698974609
 31
0.0
  0
LINE
  5
    64
  8
0
  6
CONTINUOUS
 62
   218
 10
71.9718246459961
 20
141.635681152344
 30
0.0
 11
73.2617492675781
 21
142.925598144531
 31
0.0
  0
LINE
  5
    65
  8
0
  6
CONTINUOUS
 62
   218
 10
71.9718246459961
 20
101.337615966797
 30
0.0
 11
73.2617492675781
 21
100.047698974609
 31
0.0
  0
LINE
  5
    66
  8
0
  6
CONTINUOUS
 62
   218
 10
67.2918395996094
 20
106.12085723877
 30
0.0
 11
67.3991088867188
 21
105.910339355469
 31
0.0
  0
LINE
  5
    67
  8
0
  6
CONTINUOUS
 62
   218
 10
63.588737487793
 20
113.590156555176
 30
0.0
 11
63.6350593566894
 21
113.297698974609
 31
0.0
  0
LINE
  5
    68
  8
0
  6
CONTINUOUS
 62
   218
 10
63.6350593566894
 20
129.675598144531
 30
0.0
 11
63.7391319274902
 21
129.879852294922
 31
0.0
  0
LINE
  5
    69
  8
0
  6
CONTINUOUS
 62
   218
 10
67.3991088867188
 20
137.062957763672
 30
0.0
 11
67.6103439331055
 21
137.274200439453
 31
0.0
  0
LINE
  5
    6A
  8
0
  6
CONTINUOUS
 62
   218
 10
104.414367675781
 20
142.925598144531
 30
0.0
 11
109.853317260742
 21
137.48664855957
 31
0.0
  0
LINE
  5
    6B
  8
0
  6
CONTINUOUS
 62
   218
 10
80.6491088867187
 20
96.2836532592774
 30
0.0
 11
88.8380584716797
 21
94.9866485595703
 31
0.0
  0
LINE
  5
    6C
  8
0
  6
CONTINUOUS
 62
   218
 10
88.8380584716797
 20
94.9866485595704
 30
0.0
 11
97.0270080566407
 21
96.2836532592774
 31
0.0
  0
LINE
  5
    6D
  8
0
  6
CONTINUOUS
 62
   218
 10
80.5380554199219
 20
117.23664855957
 30
0.0
 11
80.5380554199219
 21
125.73664855957
 31
0.0
  0
LINE
  5
    6E
  8
0
  6
CONTINUOUS
 62
   218
 10
72.3380584716797
 20
121.48664855957
 30
0.0
 11
80.5380554199219
 21
125.73664855957
 31
0.0
  0
LINE
  5
    6F
  8
0
  6
CONTINUOUS
 62
   218
 10
72.3380584716797
 20
121.48664855957
 30
0.0
 11
80.5380554199219
 21
117.23664855957
 31
0.0
  0
LINE
  5
    70
  8
0
  6
CONTINUOUS
 62
   218
 10
125.588981628418
 20
113.705055236816
 30
0.0
 11
127.578742980957
 21
115.429183959961
 31
0.0
  0
LINE
  5
    71
  8
0
  6
CONTINUOUS
 62
   218
 10
127.578742980957
 20
115.429183959961
 30
0.0
 11
129.002151489258
 21
117.644058227539
 31
0.0
  0
LINE
  5
    72
  8
0
  6
CONTINUOUS
 62
   218
 10
120.58805847168
 20
112.23664855957
 30
0.0
 11
123.19408416748
 21
112.611335754395
 31
0.0
  0
LINE
  5
    73
  8
0
  6
CONTINUOUS
 62
   218
 10
120.58805847168
 20
130.73664855957
 30
0.0
 11
123.19408416748
 21
130.361953735352
 31
0.0
  0
LINE
  5
    74
  8
0
  6
CONTINUOUS
 62
   218
 10
123.19408416748
 20
112.611335754395
 30
0.0
 11
125.588981628418
 21
113.705055236816
 31
0.0
  0
LINE
  5
    75
  8
0
  6
CONTINUOUS
 62
   218
 10
123.19408416748
 20
130.361953735352
 30
0.0
 11
125.588981628418
 21
129.268249511719
 31
0.0
  0
LINE
  5
    76
  8
0
  6
CONTINUOUS
 62
   218
 10
125.588981628418
 20
129.268249511719
 30
0.0
 11
127.578742980957
 21
127.54411315918
 31
0.0
  0
LINE
  5
    77
  8
0
  6
CONTINUOUS
 62
   218
 10
127.578742980957
 20
127.54411315918
 30
0.0
 11
129.002151489258
 21
125.329238891602
 31
0.0
  0
LINE
  5
    78
  8
0
  6
CONTINUOUS
 62
   218
 10
129.002151489258
 20
125.329238891602
 30
0.0
 11
129.743911743164
 21
122.803062438965
 31
0.0
  0
LINE
  5
    79
  8
0
  6
CONTINUOUS
 62
   218
 10
129.743911743164
 20
120.170234680176
 30
0.0
 11
129.743911743164
 21
122.803062438965
 31
0.0
  0
LINE
  5
    7A
  8
0
  6
CONTINUOUS
 62
   218
 10
129.002151489258
 20
117.644058227539
 30
0.0
 11
129.743911743164
 21
120.170234680176
 31
0.0
  0
LINE
  5
    7B
  8
0
  6
CONTINUOUS
 62
   218
 10
74.5880584716797
 20
130.73664855957
 30
0.0
 11
120.58805847168
 21
130.73664855957
 31
0.0
  0
LINE
  5
    7C
  8
0
  6
CONTINUOUS
 62
   218
 10
66.3380584716797
 20
117.388717651367
 30
0.0
 11
67.5973739624023
 21
115.429183959961
 31
0.0
  0
LINE
  5
    7D
  8
0
  6
CONTINUOUS
 62
   218
 10
71.9820327758789
 20
130.361953735352
 30
0.0
 11
74.5880584716797
 21
130.73664855957
 31
0.0
  0
LINE
  5
    7E
  8
0
  6
CONTINUOUS
 62
   218
 10
69.5871276855469
 20
129.268249511719
 30
0.0
 11
71.9820327758789
 21
130.361953735352
 31
0.0
  0
LINE
  5
    7F
  8
0
  6
CONTINUOUS
 62
   218
 10
67.5973739624023
 20
115.429183959961
 30
0.0
 11
69.5871276855469
 21
113.705055236816
 31
0.0
  0
LINE
  5
    80
  8
0
  6
CONTINUOUS
 62
   218
 10
66.3380584716797
 20
125.584571838379
 30
0.0
 11
67.5973739624024
 21
127.54411315918
 31
0.0
  0
LINE
  5
    81
  8
0
  6
CONTINUOUS
 62
   218
 10
67.5973739624023
 20
127.54411315918
 30
0.0
 11
69.5871276855469
 21
129.268249511719
 31
0.0
  0
LINE
  5
    82
  8
0
  6
CONTINUOUS
 62
   218
 10
71.9820327758789
 20
112.611335754395
 30
0.0
 11
74.5880584716797
 21
112.23664855957
 31
0.0
  0
LINE
  5
    83
  8
0
  6
CONTINUOUS
 62
   218
 10
69.5871276855469
 20
113.705055236816
 30
0.0
 11
71.9820327758789
 21
112.611335754395
 31
0.0
  0
LINE
  5
    84
  8
0
  6
CONTINUOUS
 62
   218
 10
65.4322052001953
 20
122.803062438965
 30
0.0
 11
66.173957824707
 21
125.329238891602
 31
0.0
  0
LINE
  5
    85
  8
0
  6
CONTINUOUS
 62
   218
 10
65.4322052001953
 20
120.170234680176
 30
0.0
 11
65.4322052001953
 21
122.803062438965
 31
0.0
  0
LINE
  5
    86
  8
0
  6
CONTINUOUS
 62
   218
 10
66.173957824707
 20
117.644058227539
 30
0.0
 11
66.3380584716797
 21
117.388717651367
 31
0.0
  0
LINE
  5
    87
  8
0
  6
CONTINUOUS
 62
   218
 10
65.4322052001953
 20
120.170234680176
 30
0.0
 11
66.173957824707
 21
117.644058227539
 31
0.0
  0
LINE
  5
    88
  8
0
  6
CONTINUOUS
 62
   218
 10
66.173957824707
 20
125.329238891602
 30
0.0
 11
66.3380584716797
 21
125.584571838379
 31
0.0
  0
LINE
  5
    89
  8
0
  6
CONTINUOUS
 62
   218
 10
74.5880584716797
 20
112.23664855957
 30
0.0
 11
120.58805847168
 21
112.23664855957
 31
0.0
  0
LINE
  5
    8A
  8
0
  6
CONTINUOUS
 62
   218
 10
72.2637634277344
 20
113.570831298828
 30
0.0
 11
74.5880584716797
 21
113.23664855957
 31
0.0
  0
LINE
  5
    8B
  8
0
  6
CONTINUOUS
 62
   218
 10
66.4220275878906
 20
120.312553405762
 30
0.0
 11
67.0835952758789
 21
118.059471130371
 31
0.0
  0
LINE
  5
    8C
  8
0
  6
CONTINUOUS
 62
   218
 10
70.1277694702148
 20
114.54630279541
 30
0.0
 11
72.2637634277344
 21
113.570831298828
 31
0.0
  0
LINE
  5
    8D
  8
0
  6
CONTINUOUS
 62
   218
 10
68.3531188964844
 20
116.084045410156
 30
0.0
 11
70.1277694702149
 21
114.54630279541
 31
0.0
  0
LINE
  5
    8E
  8
0
  6
CONTINUOUS
 62
   218
 10
66.4220275878906
 20
122.660743713379
 30
0.0
 11
67.0835952758789
 21
124.913818359375
 31
0.0
  0
LINE
  5
    8F
  8
0
  6
CONTINUOUS
 62
   218
 10
67.0835952758789
 20
124.913818359375
 30
0.0
 11
68.3531188964844
 21
126.889251708984
 31
0.0
  0
LINE
  5
    90
  8
0
  6
CONTINUOUS
 62
   218
 10
68.3531188964844
 20
126.889251708984
 30
0.0
 11
70.1277694702148
 21
128.426986694336
 31
0.0
  0
LINE
  5
    91
  8
0
  6
CONTINUOUS
 62
   218
 10
70.1277694702148
 20
128.426986694336
 30
0.0
 11
72.2637634277344
 21
129.402465820313
 31
0.0
  0
LINE
  5
    92
  8
0
  6
CONTINUOUS
 62
   218
 10
72.2637634277344
 20
129.402465820313
 30
0.0
 11
74.5880584716797
 21
129.73664855957
 31
0.0
  0
LINE
  5
    93
  8
0
  6
CONTINUOUS
 62
   218
 10
67.0835952758789
 20
118.059471130371
 30
0.0
 11
68.3531188964844
 21
116.084045410156
 31
0.0
  0
LINE
  5
    94
  8
0
  6
CONTINUOUS
 62
   218
 10
66.4220275878906
 20
120.312553405762
 30
0.0
 11
66.4220275878906
 21
122.660743713379
 31
0.0
  0
LINE
  5
    95
  8
0
  6
CONTINUOUS
 62
   218
 10
74.5880584716797
 20
129.73664855957
 30
0.0
 11
120.58805847168
 21
129.73664855957
 31
0.0
  0
LINE
  5
    96
  8
0
  6
CONTINUOUS
 62
   218
 10
122.912345886231
 20
129.402465820313
 30
0.0
 11
125.04833984375
 21
128.426986694336
 31
0.0
  0
LINE
  5
    97
  8
0
  6
CONTINUOUS
 62
   218
 10
126.82299041748
 20
126.889251708984
 30
0.0
 11
128.092514038086
 21
124.913818359375
 31
0.0
  0
LINE
  5
    98
  8
0
  6
CONTINUOUS
 62
   218
 10
125.04833984375
 20
128.426986694336
 30
0.0
 11
126.822990417481
 21
126.889251708984
 31
0.0
  0
LINE
  5
    99
  8
0
  6
CONTINUOUS
 62
   218
 10
120.58805847168
 20
129.73664855957
 30
0.0
 11
122.91234588623
 21
129.402465820313
 31
0.0
  0
LINE
  5
    9A
  8
0
  6
CONTINUOUS
 62
   218
 10
128.092514038086
 20
124.913818359375
 30
0.0
 11
128.754089355469
 21
122.660743713379
 31
0.0
  0
LINE
  5
    9B
  8
0
  6
CONTINUOUS
 62
   218
 10
120.58805847168
 20
113.23664855957
 30
0.0
 11
122.91234588623
 21
113.570831298828
 31
0.0
  0
LINE
  5
    9C
  8
0
  6
CONTINUOUS
 62
   218
 10
128.754089355469
 20
120.312553405762
 30
0.0
 11
128.754089355469
 21
122.660743713379
 31
0.0
  0
LINE
  5
    9D
  8
0
  6
CONTINUOUS
 62
   218
 10
125.04833984375
 20
114.54630279541
 30
0.0
 11
126.82299041748
 21
116.084045410156
 31
0.0
  0
LINE
  5
    9E
  8
0
  6
CONTINUOUS
 62
   218
 10
122.91234588623
 20
113.570831298828
 30
0.0
 11
125.04833984375
 21
114.54630279541
 31
0.0
  0
LINE
  5
    9F
  8
0
  6
CONTINUOUS
 62
   218
 10
128.092514038086
 20
118.059471130371
 30
0.0
 11
128.754089355469
 21
120.312553405762
 31
0.0
  0
LINE
  5
    A0
  8
0
  6
CONTINUOUS
 62
   218
 10
126.82299041748
 20
116.084045410156
 30
0.0
 11
128.092514038086
 21
118.059471130371
 31
0.0
  0
LINE
  5
    A1
  8
0
  6
CONTINUOUS
 62
   218
 10
74.5880584716797
 20
113.23664855957
 30
0.0
 11
120.58805847168
 21
113.23664855957
 31
0.0
  0
ENDBLK
  5
    A2
  8
0
  6
CONTINUOUS
 62
     7
  0
BLOCK
  5
    A3
  8
0
  6
CONTINUOUS
 62
     7
  2
*UDIM311
 70
    65
 10
0.0
 20
0.0
 30
0.0
  3
*UDIM311
  0
TEXT
  5
    A4
  8
0
  6
CONTINUOUS
 62
     7
 10
-15.2929786345697
 20
50.7613584792704
 30
0.0
 40
3.00000001532688
  1
280
 50
359.999999948034
 41
0.933333333333334
 72
     1
 11
-11.3929786132918
 21
52.2613584834162
 31
0.0
 73
     2
  0
LINE
  5
    A5
  8
0
  6
CONTINUOUS
 62
     7
 10
37.8820129036903
 20
28.5369375288574
 30
0.0
 11
37.8820129036903
 21
51.7613584757528
 31
0.0
  0
LINE
  5
    A6
  8
0
  6
CONTINUOUS
 62
     7
 10
-60.1179770827293
 20
28.5369375288574
 30
0.0
 11
-60.1179770827293
 21
51.7613584757528
 31
0.0
  0
LINE
  5
    A7
  8
0
  6
CONTINUOUS
 62
     7
 10
37.8820129036903
 20
49.7613584757528
 30
0.0
 11
-60.1179770827293
 21
49.7613584757528
 31
0.0
  0
LINE
  5
    A8
  8
0
  6
CONTINUOUS
 62
     7
 10
34.9275896264834
 20
49.2404140458011
 30
0.0
 11
37.8820129036903
 21
49.7613584757528
 31
0.0
  0
LINE
  5
    A9
  8
0
  6
CONTINUOUS
 62
     7
 10
37.8820129036903
 20
49.7613584757528
 30
0.0
 11
34.9275896264834
 21
50.2823029057045
 31
0.0
  0
LINE
  5
    AA
  8
0
  6
CONTINUOUS
 62
     7
 10
-57.1635538055224
 20
50.2823029057045
 30
0.0
 11
-60.1179770827293
 21
49.7613584757528
 31
0.0
  0
LINE
  5
    AB
  8
0
  6
CONTINUOUS
 62
     7
 10
-60.1179770827293
 20
49.7613584757528
 30
0.0
 11
-57.1635538055224
 21
49.2404140458011
 31
0.0
  0
ENDBLK
  5
    AC
  8
0
  6
CONTINUOUS
 62
     7
  0
BLOCK
  5
    AD
  8
0
  6
CONTINUOUS
 62
     7
  2
*UDIM312
 70
    65
 10
0.0
 20
0.0
 30
0.0
  3
*UDIM312
  0
TEXT
  5
    AE
  8
0
  6
CONTINUOUS
 62
     7
 10
15.3320155658987
 20
45.0408436218946
 30
0.0
 40
3.00000001532688
  1
105
 50
359.999999948034
 41
0.933333333333334
 72
     1
 11
19.2320155871765
 21
46.5408436260405
 31
0.0
 73
     2
  0
LINE
  5
    AF
  8
0
  6
CONTINUOUS
 62
     7
 10
37.8820129036903
 20
28.5369375288574
 30
0.0
 11
37.8820129036903
 21
46.040843618377
 31
0.0
  0
LINE
  5
    B0
  8
0
  6
CONTINUOUS
 62
     7
 10
1.13201665878296
 20
37.6639126805291
 30
0.0
 11
1.13201665878296
 21
46.040843618377
 31
0.0
  0
LINE
  5
    B1
  8
0
  6
CONTINUOUS
 62
     7
 10
37.8820129036903
 20
44.040843618377
 30
0.0
 11
1.13201665878296
 21
44.040843618377
 31
0.0
  0
LINE
  5
    B2
  8
0
  6
CONTINUOUS
 62
     7
 10
34.9275896264834
 20
43.5198991884254
 30
0.0
 11
37.8820129036903
 21
44.040843618377
 31
0.0
  0
LINE
  5
    B3
  8
0
  6
CONTINUOUS
 62
     7
 10
37.8820129036903
 20
44.040843618377
 30
0.0
 11
34.9275896264834
 21
44.5617880483287
 31
0.0
  0
LINE
  5
    B4
  8
0
  6
CONTINUOUS
 62
     7
 10
4.08643993598992
 20
44.5617880483287
 30
0.0
 11
1.13201665878296
 21
44.040843618377
 31
0.0
  0
LINE
  5
    B5
  8
0
  6
CONTINUOUS
 62
     7
 10
1.13201665878296
 20
44.040843618377
 30
0.0
 11
4.08643993598992
 21
43.5198991884254
 31
0.0
  0
ENDBLK
  5
    B6
  8
0
  6
CONTINUOUS
 62
     7
  0
BLOCK
  5
    B7
  8
0
  6
CONTINUOUS
 62
     7
  2
*UDIM313
 70
    65
 10
0.0
 20
0.0
 30
0.0
  3
*UDIM313
  0
TEXT
  5
    B8
  8
0
  6
CONTINUOUS
 62
     7
 10
-85.451316579876
 20
-47.1630678289145
 30
0.0
 40
3.00000001532688
  1
406
 50
89.9999999480344
 41
0.933333333333334
 72
     1
 11
-86.9513165840072
 21
-43.263067807631
 31
0.0
 73
     2
  0
LINE
  5
    B9
  8
0
  6
CONTINUOUS
 62
     7
 10
-61.1179603965091
 20
-114.037957735657
 30
0.0
 11
-86.4513165763437
 21
-114.037957735657
 31
0.0
  0
LINE
  5
    BA
  8
0
  6
CONTINUOUS
 62
     7
 10
-60.5930913476712
 20
28.0618293955673
 30
0.0
 11
-86.4513165763437
 21
28.0618293955673
 31
0.0
  0
LINE
  5
    BB
  8
0
  6
CONTINUOUS
 62
     7
 10
-84.4513165763438
 20
-114.037957735657
 30
0.0
 11
-84.4513165763438
 21
28.0618293955673
 31
0.0
  0
LINE
  5
    BC
  8
0
  6
CONTINUOUS
 62
     7
 10
-84.9722610062954
 20
-111.083534458451
 30
0.0
 11
-84.4513165763438
 21
-114.037957735657
 31
0.0
  0
LINE
  5
    BD
  8
0
  6
CONTINUOUS
 62
     7
 10
-84.4513165763438
 20
-114.037957735657
 30
0.0
 11
-83.9303721463921
 21
-111.083534458451
 31
0.0
  0
LINE
  5
    BE
  8
0
  6
CONTINUOUS
 62
     7
 10
-83.9303721463921
 20
25.1074061183603
 30
0.0
 11
-84.4513165763438
 21
28.0618293955673
 31
0.0
  0
LINE
  5
    BF
  8
0
  6
CONTINUOUS
 62
     7
 10
-84.4513165763438
 20
28.0618293955673
 30
0.0
 11
-84.9722610062954
 21
25.1074061183603
 31
0.0
  0
ENDBLK
  5
    C0
  8
0
  6
CONTINUOUS
 62
     7
  0
BLOCK
  5
    C1
  8
0
  6
CONTINUOUS
 62
     7
  2
*UDIM314
 70
    65
 10
0.0
 20
0.0
 30
0.0
  3
*UDIM314
  0
TEXT
  5
    C2
  8
0
  6
CONTINUOUS
 62
     7
 10
-79.4864490291041
 20
-17.2818338816365
 30
0.0
 40
3.00000001532688
  1
211,25
 50
89.9999999480344
 41
0.933333333333333
 72
     1
 11
-80.9864490294313
 21
-9.18183383889536
 31
0.0
 73
     2
  0
LINE
  5
    C3
  8
0
  6
CONTINUOUS
 62
     7
 10
-66.5249421781788
 20
-45.8754908829906
 30
0.0
 11
-80.4864490217678
 21
-45.8754908829906
 31
0.0
  0
LINE
  5
    C4
  8
0
  6
CONTINUOUS
 62
     7
 10
-60.5930913476712
 20
28.0618293955673
 30
0.0
 11
-80.4864490217678
 21
28.0618293955673
 31
0.0
  0
LINE
  5
    C5
  8
0
  6
CONTINUOUS
 62
     7
 10
-78.4864490217678
 20
-45.8754908829906
 30
0.0
 11
-78.4864490217678
 21
28.0618293955673
 31
0.0
  0
LINE
  5
    C6
  8
0
  6
CONTINUOUS
 62
     7
 10
-79.0073934517195
 20
-42.9210676057836
 30
0.0
 11
-78.4864490217678
 21
-45.8754908829906
 31
0.0
  0
LINE
  5
    C7
  8
0
  6
CONTINUOUS
 62
     7
 10
-78.4864490217678
 20
-45.8754908829906
 30
0.0
 11
-77.9655045918162
 21
-42.9210676057836
 31
0.0
  0
LINE
  5
    C8
  8
0
  6
CONTINUOUS
 62
     7
 10
-77.9655045918162
 20
25.1074061183603
 30
0.0
 11
-78.4864490217678
 21
28.0618293955673
 31
0.0
  0
LINE
  5
    C9
  8
0
  6
CONTINUOUS
 62
     7
 10
-78.4864490217678
 20
28.0618293955673
 30
0.0
 11
-79.0073934517195
 21
25.1074061183603
 31
0.0
  0
ENDBLK
  5
    CA
  8
0
  6
CONTINUOUS
 62
     7
  0
BLOCK
  5
    CB
  8
0
  6
CONTINUOUS
 62
     7
  2
*UDIM315
 70
    65
 10
0.0
 20
0.0
 30
0.0
  3
*UDIM315
  0
TEXT
  5
    CC
  8
0
  6
CONTINUOUS
 62
     7
 10
-5.56207547337213
 20
-49.4284119479713
 30
0.0
 40
3.00000001532688
  1
90
 50
403.83778972012
 41
0.933333333333333
 72
     1
 11
-4.79774515374817
 21
-46.6149089269394
 31
0.0
 73
     2
  0
TEXT
  5
    CD
  8
0
  6
CONTINUOUS
 62
     7
 10
-2.37112907693803
 20
-45.5325344657896
 30
0.0
 40
3.00000001532688
  1
°
 50
403.83778972012
 41
0.933333333333333
 72
     1
 11
-2.61662375294359
 21
-43.6886981391578
 31
0.0
 73
     2
  0
ARC
  5
    CE
  8
0
  6
CONTINUOUS
 62
     7
 10
-13.3929835413471
 20
-36.0755281017125
 30
0.0
 40
16.0553189307449
 50
269.999999844103
 51
359.999999792138
  0
LINE
  5
    CF
  8
0
  6
CONTINUOUS
 62
     7
 10
-10.4385602641401
 20
-51.6099026025057
 30
0.0
 11
-13.3929835413471
 21
-52.1308470324574
 31
0.0
  0
LINE
  5
    D0
  8
0
  6
CONTINUOUS
 62
     7
 10
-13.3929835413471
 20
-52.1308470324574
 30
0.0
 11
-10.4385602641401
 21
-52.651791462409
 31
0.0
  0
LINE
  5
    D1
  8
0
  6
CONTINUOUS
 62
     7
 10
3.18327981934949
 20
-39.0299513789194
 30
0.0
 11
2.66233538939782
 21
-36.0755281017125
 31
0.0
  0
LINE
  5
    D2
  8
0
  6
CONTINUOUS
 62
     7
 10
2.66233538939782
 20
-36.0755281017125
 30
0.0
 11
2.14139095944616
 21
-39.0299513789194
 31
0.0
  0
ENDBLK
  5
    D3
  8
0
  6
CONTINUOUS
 62
     7
  0
BLOCK
  5
    D4
  8
0
  6
CONTINUOUS
 62
     7
  2
*UDIM316
 70
    65
 10
0.0
 20
0.0
 30
0.0
  3
*UDIM316
  0
TEXT
  5
    D5
  8
0
  6
CONTINUOUS
 62
     7
 10
-73.1148859556395
 20
-44.2753384875615
 30
0.0
 40
3.00000001532688
  1
105
 50
89.9999999480344
 41
0.933333333333334
 72
     1
 11
-74.6148859597707
 21
-40.375338466278
 31
0.0
 73
     2
  0
LINE
  5
    D6
  8
0
  6
CONTINUOUS
 62
     7
 10
-25.4179203740529
 20
-58.4753425057693
 30
0.0
 11
-74.1148859521072
 21
-58.4753425057693
 31
0.0
  0
LINE
  5
    D7
  8
0
  6
CONTINUOUS
 62
     7
 10
-25.4179203740529
 20
-21.7253355797106
 30
0.0
 11
-74.1148859521072
 21
-21.7253355797106
 31
0.0
  0
LINE
  5
    D8
  8
0
  6
CONTINUOUS
 62
     7
 10
-72.1148859521072
 20
-58.4753425057693
 30
0.0
 11
-72.1148859521072
 21
-21.7253355797106
 31
0.0
  0
LINE
  5
    D9
  8
0
  6
CONTINUOUS
 62
     7
 10
-72.6358303820589
 20
-55.5209192285623
 30
0.0
 11
-72.1148859521072
 21
-58.4753425057693
 31
0.0
  0
LINE
  5
    DA
  8
0
  6
CONTINUOUS
 62
     7
 10
-72.1148859521072
 20
-58.4753425057693
 30
0.0
 11
-71.5939415221555
 21
-55.5209192285623
 31
0.0
  0
LINE
  5
    DB
  8
0
  6
CONTINUOUS
 62
     7
 10
-71.5939415221555
 20
-24.6797588569176
 30
0.0
 11
-72.1148859521072
 21
-21.7253355797106
 31
0.0
  0
LINE
  5
    DC
  8
0
  6
CONTINUOUS
 62
     7
 10
-72.1148859521072
 20
-21.7253355797106
 30
0.0
 11
-72.6358303820589
 21
-24.6797588569176
 31
0.0
  0
ENDBLK
  5
    DD
  8
0
  6
CONTINUOUS
 62
     7
  0
BLOCK
  5
    DE
  8
0
  6
CONTINUOUS
 62
     7
  2
*UDIM317
 70
    65
 10
0.0
 20
0.0
 30
0.0
  3
*UDIM317
  0
TEXT
  5
    DF
  8
0
  6
CONTINUOUS
 62
     7
 10
-66.8860123842911
 20
-54.950416737036
 30
0.0
 40
3.00000001532688
  1
36
 50
89.9999999480344
 41
0.933333333333333
 72
     1
 11
-68.3860123896903
 21
-52.450416722905
 31
0.0
 73
     2
  0
LINE
  5
    E0
  8
0
  6
CONTINUOUS
 62
     7
 10
-25.4179203740529
 20
-58.4753425057693
 30
0.0
 11
-67.8860123820268
 21
-58.4753425057693
 31
0.0
  0
LINE
  5
    E1
  8
0
  6
CONTINUOUS
 62
     7
 10
-65.8860123820268
 20
-58.4753425057693
 30
0.0
 11
-65.8860123820268
 21
-45.8754908829906
 31
0.0
  0
LINE
  5
    E2
  8
0
  6
CONTINUOUS
 62
     7
 10
-66.4069568119785
 20
-55.5209192285623
 30
0.0
 11
-65.8860123820268
 21
-58.4753425057693
 31
0.0
  0
LINE
  5
    E3
  8
0
  6
CONTINUOUS
 62
     7
 10
-65.8860123820268
 20
-58.4753425057693
 30
0.0
 11
-65.3650679520752
 21
-55.5209192285623
 31
0.0
  0
LINE
  5
    E4
  8
0
  6
CONTINUOUS
 62
     7
 10
-65.3650679520752
 20
-48.8299141601975
 30
0.0
 11
-65.8860123820268
 21
-45.8754908829906
 31
0.0
  0
LINE
  5
    E5
  8
0
  6
CONTINUOUS
 62
     7
 10
-65.8860123820268
 20
-45.8754908829906
 30
0.0
 11
-66.4069568119785
 21
-48.8299141601975
 31
0.0
  0
ENDBLK
  5
    E6
  8
0
  6
CONTINUOUS
 62
     7
  0
BLOCK
  5
    E7
  8
0
  6
CONTINUOUS
 62
     7
  2
*UDIM318
 70
    65
 10
0.0
 20
0.0
 30
0.0
  3
*UDIM318
  0
TEXT
  5
    E8
  8
0
  6
CONTINUOUS
 62
     7
 10
-66.8860123842911
 20
-33.1005274466273
 30
0.0
 40
3.00000001532688
  1
28
 50
89.9999999480344
 41
0.933333333333333
 72
     1
 11
-68.3860123896903
 21
-30.6005274324964
 31
0.0
 73
     2
  0
LINE
  5
    E9
  8
0
  6
CONTINUOUS
 62
     7
 10
-24.3680156562625
 20
-36.0755281017125
 30
0.0
 11
-67.8860123820268
 21
-36.0755281017125
 31
0.0
  0
LINE
  5
    EA
  8
0
  6
CONTINUOUS
 62
     7
 10
-65.8860123820268
 20
-45.8754908829906
 30
0.0
 11
-65.8860123820268
 21
-28.100527419724
 31
0.0
  0
LINE
  5
    EB
  8
0
  6
CONTINUOUS
 62
     7
 10
-66.4069568119785
 20
-42.9210676057836
 30
0.0
 11
-65.8860123820268
 21
-45.8754908829906
 31
0.0
  0
LINE
  5
    EC
  8
0
  6
CONTINUOUS
 62
     7
 10
-65.8860123820268
 20
-45.8754908829906
 30
0.0
 11
-65.3650679520752
 21
-42.9210676057836
 31
0.0
  0
LINE
  5
    ED
  8
0
  6
CONTINUOUS
 62
     7
 10
-65.3650679520752
 20
-39.0299513789194
 30
0.0
 11
-65.8860123820268
 21
-36.0755281017125
 31
0.0
  0
LINE
  5
    EE
  8
0
  6
CONTINUOUS
 62
     7
 10
-65.8860123820268
 20
-36.0755281017125
 30
0.0
 11
-66.4069568119785
 21
-39.0299513789194
 31
0.0
  0
ENDBLK
  5
    EF
  8
0
  6
CONTINUOUS
 62
     7
  0
BLOCK
  5
    F0
  8
0
  6
CONTINUOUS
 62
     7
  2
*UDIM319
 70
    65
 10
0.0
 20
0.0
 30
0.0
  3
*UDIM319
  0
TEXT
  5
    F1
  8
0
  6
CONTINUOUS
 62
     7
 10
-10.5679217023756
 20
39.7489633642759
 30
0.0
 40
3.00000001532688
  1
105
 50
359.999999948034
 41
0.933333333333334
 72
     1
 11
-6.6679216810977
 21
41.2489633684218
 31
0.0
 73
     2
  0
LINE
  5
    F2
  8
0
  6
CONTINUOUS
 62
     7
 10
11.982078576905
 20
-21.0753355439479
 30
0.0
 11
11.982078576905
 21
40.7489633607584
 31
0.0
  0
LINE
  5
    F3
  8
0
  6
CONTINUOUS
 62
     7
 10
-24.7679203382902
 20
-21.0753355439479
 30
0.0
 11
-24.7679203382902
 21
40.7489633607584
 31
0.0
  0
LINE
  5
    F4
  8
0
  6
CONTINUOUS
 62
     7
 10
11.982078576905
 20
38.7489633607584
 30
0.0
 11
-24.7679203382902
 21
38.7489633607584
 31
0.0
  0
LINE
  5
    F5
  8
0
  6
CONTINUOUS
 62
     7
 10
9.02765529969808
 20
38.2280189308067
 30
0.0
 11
11.982078576905
 21
38.7489633607584
 31
0.0
  0
LINE
  5
    F6
  8
0
  6
CONTINUOUS
 62
     7
 10
11.982078576905
 20
38.7489633607584
 30
0.0
 11
9.02765529969808
 21
39.26990779071
 31
0.0
  0
LINE
  5
    F7
  8
0
  6
CONTINUOUS
 62
     7
 10
-21.8134970610832
 20
39.26990779071
 30
0.0
 11
-24.7679203382902
 21
38.7489633607584
 31
0.0
  0
LINE
  5
    F8
  8
0
  6
CONTINUOUS
 62
     7
 10
-24.7679203382902
 20
38.7489633607584
 30
0.0
 11
-21.8134970610832
 21
38.2280189308067
 31
0.0
  0
ENDBLK
  5
    F9
  8
0
  6
CONTINUOUS
 62
     7
  0
BLOCK
  5
    FA
  8
0
  6
CONTINUOUS
 62
     7
  2
*UDIM320
 70
    65
 10
0.0
 20
0.0
 30
0.0
  3
*UDIM320
  0
TEXT
  5
    FB
  8
0
  6
CONTINUOUS
 62
     7
 10
4.60742617406634
 20
33.4699311066518
 30
0.0
 40
3.00000001532688
  1
31
 50
359.999999948034
 41
0.933333333333333
 72
     1
 11
7.10742618819165
 21
34.9699311120603
 31
0.0
 73
     2
  0
LINE
  5
    FC
  8
0
  6
CONTINUOUS
 62
     7
 10
11.982078576905
 20
-21.0753355439479
 30
0.0
 11
11.982078576905
 21
34.4699311043969
 31
0.0
  0
LINE
  5
    FD
  8
0
  6
CONTINUOUS
 62
     7
 10
11.982078576905
 20
32.4699311043969
 30
0.0
 11
1.13201665878296
 21
32.4699311043969
 31
0.0
  0
LINE
  5
    FE
  8
0
  6
CONTINUOUS
 62
     7
 10
9.02765529969808
 20
31.9489866744452
 30
0.0
 11
11.982078576905
 21
32.4699311043969
 31
0.0
  0
LINE
  5
    FF
  8
0
  6
CONTINUOUS
 62
     7
 10
11.982078576905
 20
32.4699311043969
 30
0.0
 11
9.02765529969808
 21
32.9908755343486
 31
0.0
  0
LINE
  5
   100
  8
0
  6
CONTINUOUS
 62
     7
 10
4.08643993598992
 20
32.9908755343486
 30
0.0
 11
1.13201665878296
 21
32.4699311043969
 31
0.0
  0
LINE
  5
   101
  8
0
  6
CONTINUOUS
 62
     7
 10
1.13201665878296
 20
32.4699311043969
 30
0.0
 11
4.08643993598992
 21
31.9489866744452
 31
0.0
  0
ENDBLK
  5
   102
  8
0
  6
CONTINUOUS
 62
     7
  0
BLOCK
  5
   103
  8
0
  6
CONTINUOUS
 62
     7
  2
*UDIM321
 70
    65
 10
0.0
 20
0.0
 30
0.0
  3
*UDIM321
  0
TEXT
  5
   104
  8
0
  6
CONTINUOUS
 62
     7
 10
-11.254036921756
 20
33.4699311091772
 30
0.0
 40
3.00000001532688
  1
41,5
 50
359.999999948034
 41
0.933333333333333
 72
     1
 11
-5.95403689332557
 21
34.9699311120603
 31
0.0
 73
     2
  0
LINE
  5
   105
  8
0
  6
CONTINUOUS
 62
     7
 10
-13.3929835413471
 20
-25.100495986797
 30
0.0
 11
-13.3929835413471
 21
34.4699311043969
 31
0.0
  0
LINE
  5
   106
  8
0
  6
CONTINUOUS
 62
     7
 10
1.13201665878296
 20
32.4699311043969
 30
0.0
 11
-13.3929835413471
 21
32.4699311043969
 31
0.0
  0
LINE
  5
   107
  8
0
  6
CONTINUOUS
 62
     7
 10
4.08643993598992
 20
32.9908755343486
 30
0.0
 11
1.13201665878296
 21
32.4699311043969
 31
0.0
  0
LINE
  5
   108
  8
0
  6
CONTINUOUS
 62
     7
 10
1.13201665878296
 20
32.4699311043969
 30
0.0
 11
4.08643993598992
 21
31.9489866744452
 31
0.0
  0
LINE
  5
   109
  8
0
  6
CONTINUOUS
 62
     7
 10
-16.347406818554
 20
31.9489866744452
 30
0.0
 11
-13.3929835413471
 21
32.4699311043969
 31
0.0
  0
LINE
  5
   10A
  8
0
  6
CONTINUOUS
 62
     7
 10
-13.3929835413471
 20
32.4699311043969
 30
0.0
 11
-16.347406818554
 21
32.9908755343486
 31
0.0
  0
ENDBLK
  5
   10B
  8
0
  6
CONTINUOUS
 62
     7
  0
BLOCK
  5
   10C
  8
0
  6
CONTINUOUS
 62
     7
  2
*UDIM322
 70
    65
 10
0.0
 20
0.0
 30
0.0
  3
*UDIM322
  0
TEXT
  5
   10D
  8
0
  6
CONTINUOUS
 62
     7
 10
205.46948482626
 20
7.16587456287387
 30
0.0
 40
2.99999997871263
  1
28
 50
90.0
 41
0.933333333333333
 72
     1
 11
203.969484836901
 21
9.6658745451325
 31
0.0
 73
     2
  0
LINE
  5
   10E
  8
0
  6
CONTINUOUS
 62
     7
 10
213.651560230988
 20
13.7191154429031
 30
0.0
 11
204.469484826257
 21
13.7191154429031
 31
0.0
  0
LINE
  5
   10F
  8
0
  6
CONTINUOUS
 62
     7
 10
206.469484826257
 20
3.9191156097961
 30
0.0
 11
206.469484826257
 21
13.7191154429031
 31
0.0
  0
LINE
  5
   110
  8
0
  6
CONTINUOUS
 62
     7
 10
206.990429256209
 20
0.964692332589138
 30
0.0
 11
206.469484826257
 21
3.9191156097961
 31
0.0
  0
LINE
  5
   111
  8
0
  6
CONTINUOUS
 62
     7
 10
206.469484826257
 20
3.9191156097961
 30
0.0
 11
205.948540396306
 21
0.964692332589138
 31
0.0
  0
LINE
  5
   112
  8
0
  6
CONTINUOUS
 62
     7
 10
205.948540396306
 20
16.6735387201101
 30
0.0
 11
206.469484826257
 21
13.7191154429031
 31
0.0
  0
LINE
  5
   113
  8
0
  6
CONTINUOUS
 62
     7
 10
206.469484826257
 20
13.7191154429031
 30
0.0
 11
206.990429256209
 21
16.6735387201101
 31
0.0
  0
ENDBLK
  5
   114
  8
0
  6
CONTINUOUS
 62
     7
  0
BLOCK
  5
   115
  8
0
  6
CONTINUOUS
 62
     7
  2
*UDIM323
 70
    65
 10
0.0
 20
0.0
 30
0.0
  3
*UDIM323
  0
TEXT
  5
   116
  8
0
  6
CONTINUOUS
 62
     7
 10
233.659383631418
 20
-29.9053478866106
 30
0.0
 40
2.99999997871263
  1
R min.200
 41
0.933333333333333
 72
     1
 11
245.959383544139
 21
-28.4053478972543
 31
0.0
 73
     2
  0
LINE
  5
   117
  8
0
  6
CONTINUOUS
 62
     7
 10
227.723709418002
 20
3.63447743984773
 30
0.0
 11
227.723709418002
 21
-32.9053478866106
 31
0.0
  0
LINE
  5
   118
  8
0
  6
CONTINUOUS
 62
     7
 10
227.723709418002
 20
-30.9053478866106
 30
0.0
 11
260.794529297249
 21
-30.9053478866106
 31
0.0
  0
LINE
  5
   119
  8
0
  6
CONTINUOUS
 62
     7
 10
230.678132695209
 20
-30.3844034566589
 30
0.0
 11
227.723709418002
 21
-30.9053478866106
 31
0.0
  0
LINE
  5
   11A
  8
0
  6
CONTINUOUS
 62
     7
 10
227.723709418002
 20
-30.9053478866106
 30
0.0
 11
230.678132695209
 21
-31.4262923165622
 31
0.0
  0
LINE
  5
   11B
  8
0
  6
CONTINUOUS
 62
     7
 10
257.840106020042
 20
-31.4262923165622
 30
0.0
 11
260.794529297249
 21
-30.9053478866106
 31
0.0
  0
LINE
  5
   11C
  8
0
  6
CONTINUOUS
 62
     7
 10
260.794529297249
 20
-30.9053478866106
 30
0.0
 11
257.840106020042
 21
-30.3844034566589
 31
0.0
  0
ENDBLK
  5
   11D
  8
0
  6
CONTINUOUS
 62
     7
  0
BLOCK
  5
   11E
  8
0
  6
CONTINUOUS
 62
     7
  2
*UDIM324
 70
    65
 10
0.0
 20
0.0
 30
0.0
  3
*UDIM324
  0
TEXT
  5
   11F
  8
0
  6
CONTINUOUS
 62
     7
 10
230.552918075284
 20
30.2885548205932
 30
0.0
 40
2.99999997871263
  1
5
 41
0.933333333333333
 72
     1
 11
231.652918067478
 21
31.7885548099495
 31
0.0
 73
     2
  0
LINE
  5
   120
  8
0
  6
CONTINUOUS
 62
     7
 10
236.302918274392
 20
22.7759232445592
 30
0.0
 11
236.302918274392
 21
31.2885548205932
 31
0.0
  0
LINE
  5
   121
  8
0
  6
CONTINUOUS
 62
     7
 10
238.052918244589
 20
22.7759232445592
 30
0.0
 11
238.052918244589
 21
31.2885548205932
 31
0.0
  0
LINE
  5
   122
  8
0
  6
CONTINUOUS
 62
     7
 10
230.552918075284
 20
29.2885548205932
 30
0.0
 11
238.052918244589
 21
29.2885548205932
 31
0.0
  0
LINE
  5
   123
  8
0
  6
CONTINUOUS
 62
     7
 10
233.348494997185
 20
28.7676103906415
 30
0.0
 11
236.302918274392
 21
29.2885548205932
 31
0.0
  0
LINE
  5
   124
  8
0
  6
CONTINUOUS
 62
     7
 10
236.302918274392
 20
29.2885548205932
 30
0.0
 11
233.348494997185
 21
29.8094992505448
 31
0.0
  0
LINE
  5
   125
  8
0
  6
CONTINUOUS
 62
     7
 10
241.007341521796
 20
29.8094992505448
 30
0.0
 11
238.052918244589
 21
29.2885548205932
 31
0.0
  0
LINE
  5
   126
  8
0
  6
CONTINUOUS
 62
     7
 10
238.052918244589
 20
29.2885548205932
 30
0.0
 11
241.007341521796
 21
28.7676103906415
 31
0.0
  0
ENDBLK
  5
   127
  8
0
  6
CONTINUOUS
 62
     7
  0
BLOCK
  5
   128
  8
0
  6
CONTINUOUS
 62
     7
  2
*UDIM325
 70
    65
 10
0.0
 20
0.0
 30
0.0
  3
*UDIM325
  0
TEXT
  5
   129
  8
0
  6
CONTINUOUS
 62
     7
 10
224.948709112599
 20
-1.83805977511611
 30
0.0
 40
2.99999997871263
  1
33
 41
0.933333333333333
 72
     1
 11
227.44870909486
 21
-0.338059785759796
 31
0.0
 73
     2
  0
LINE
  5
   12A
  8
0
  6
CONTINUOUS
 62
     7
 10
221.94870951635
 20
12.7191154429031
 30
0.0
 11
221.94870951635
 21
-4.83805977511611
 31
0.0
  0
LINE
  5
   12B
  8
0
  6
CONTINUOUS
 62
     7
 10
233.498709319654
 20
12.7191154429031
 30
0.0
 11
233.498709319654
 21
-4.83805977511611
 31
0.0
  0
LINE
  5
   12C
  8
0
  6
CONTINUOUS
 62
     7
 10
221.94870951635
 20
-2.83805977511611
 30
0.0
 11
233.498709319654
 21
-2.83805977511611
 31
0.0
  0
LINE
  5
   12D
  8
0
  6
CONTINUOUS
 62
     7
 10
218.994286239143
 20
-3.35900420506777
 30
0.0
 11
221.94870951635
 21
-2.83805977511611
 31
0.0
  0
LINE
  5
   12E
  8
0
  6
CONTINUOUS
 62
     7
 10
221.94870951635
 20
-2.83805977511611
 30
0.0
 11
218.994286239143
 21
-2.31711534516444
 31
0.0
  0
LINE
  5
   12F
  8
0
  6
CONTINUOUS
 62
     7
 10
236.453132596861
 20
-2.31711534516444
 30
0.0
 11
233.498709319654
 21
-2.83805977511611
 31
0.0
  0
LINE
  5
   130
  8
0
  6
CONTINUOUS
 62
     7
 10
233.498709319654
 20
-2.83805977511611
 30
0.0
 11
236.453132596861
 21
-3.35900420506777
 31
0.0
  0
ENDBLK
  5
   131
  8
0
  6
CONTINUOUS
 62
     7
  0
BLOCK
  5
   132
  8
0
  6
CONTINUOUS
 62
     7
  2
*UDIM326
 70
    65
 10
0.0
 20
0.0
 30
0.0
  3
*UDIM326
  0
TEXT
  5
   133
  8
0
  6
CONTINUOUS
 62
     7
 10
224.952922840147
 20
-24.0497152997164
 30
0.0
 40
2.99999997871263
  1
54
 41
0.933333333333333
 72
     1
 11
227.452922822408
 21
-22.5497153103601
 31
0.0
 73
     2
  0
LINE
  5
   134
  8
0
  6
CONTINUOUS
 62
     7
 10
218.277918581356
 20
-3.39162568456063
 30
0.0
 11
218.277918581356
 21
-27.0497152997164
 31
0.0
  0
LINE
  5
   135
  8
0
  6
CONTINUOUS
 62
     7
 10
218.277918581356
 20
-25.0497152997164
 30
0.0
 11
237.177924914287
 21
-25.0497152997164
 31
0.0
  0
LINE
  5
   136
  8
0
  6
CONTINUOUS
 62
     7
 10
221.232341858563
 20
-24.5287708697647
 30
0.0
 11
218.277918581356
 21
-25.0497152997164
 31
0.0
  0
LINE
  5
   137
  8
0
  6
CONTINUOUS
 62
     7
 10
218.277918581356
 20
-25.0497152997164
 30
0.0
 11
221.232341858563
 21
-25.5706597296681
 31
0.0
  0
LINE
  5
   138
  8
0
  6
CONTINUOUS
 62
     7
 10
234.22350163708
 20
-25.5706597296681
 30
0.0
 11
237.177924914287
 21
-25.0497152997164
 31
0.0
  0
LINE
  5
   139
  8
0
  6
CONTINUOUS
 62
     7
 10
237.177924914287
 20
-25.0497152997164
 30
0.0
 11
234.22350163708
 21
-24.5287708697647
 31
0.0
  0
ENDBLK
  5
   13A
  8
0
  6
CONTINUOUS
 62
     7
  0
BLOCK
  5
   13B
  8
0
  6
CONTINUOUS
 62
     7
  2
*UDIM327
 70
    65
 10
0.0
 20
0.0
 30
0.0
  3
*UDIM327
  0
TEXT
  5
   13C
  8
0
  6
CONTINUOUS
 62
     7
 10
221.292901892647
 20
-9.11689647366802
 30
0.0
 40
2.99999997871263
  1
27
 41
0.933333333333333
 72
     1
 11
223.792901874907
 21
-7.61689648431171
 31
0.0
 73
     2
  0
LINE
  5
   13D
  8
0
  6
CONTINUOUS
 62
     7
 10
218.277918581356
 20
-3.39162568456063
 30
0.0
 11
218.277918581356
 21
-12.116896473668
 31
0.0
  0
LINE
  5
   13E
  8
0
  6
CONTINUOUS
 62
     7
 10
227.723709418002
 20
3.63447743984773
 30
0.0
 11
227.723709418002
 21
-12.116896473668
 31
0.0
  0
LINE
  5
   13F
  8
0
  6
CONTINUOUS
 62
     7
 10
218.277918581356
 20
-10.116896473668
 30
0.0
 11
227.723709418002
 21
-10.116896473668
 31
0.0
  0
LINE
  5
   140
  8
0
  6
CONTINUOUS
 62
     7
 10
215.323495304149
 20
-10.6378409036197
 30
0.0
 11
218.277918581356
 21
-10.116896473668
 31
0.0
  0
LINE
  5
   141
  8
0
  6
CONTINUOUS
 62
     7
 10
218.277918581356
 20
-10.116896473668
 30
0.0
 11
215.323495304149
 21
-9.59595204371636
 31
0.0
  0
LINE
  5
   142
  8
0
  6
CONTINUOUS
 62
     7
 10
230.678132695209
 20
-9.59595204371636
 30
0.0
 11
227.723709418002
 21
-10.116896473668
 31
0.0
  0
LINE
  5
   143
  8
0
  6
CONTINUOUS
 62
     7
 10
227.723709418002
 20
-10.116896473668
 30
0.0
 11
230.678132695209
 21
-10.6378409036197
 31
0.0
  0
ENDBLK
  5
   144
  8
0
  6
CONTINUOUS
 62
     7
  0
BLOCK
  5
   145
  8
0
  6
CONTINUOUS
 62
     7
  2
*UDIM328
 70
    65
 10
0.0
 20
0.0
 30
0.0
  3
*UDIM328
  0
TEXT
  5
   146
  8
0
  6
CONTINUOUS
 62
     7
 10
274.094115730039
 20
11.1352310193749
 30
0.0
 40
2.99999997871263
  1
46
 50
90.0
 41
0.933333333333333
 72
     1
 11
272.594115740679
 21
13.6352310016335
 31
0.0
 73
     2
  0
LINE
  5
   147
  8
0
  6
CONTINUOUS
 62
     7
 10
239.446673627614
 20
5.67592351874055
 30
0.0
 11
277.094115730035
 21
5.67592351874055
 31
0.0
  0
LINE
  5
   148
  8
0
  6
CONTINUOUS
 62
     7
 10
239.446667428873
 20
21.7759232445592
 30
0.0
 11
277.094115730035
 21
21.7759232445592
 31
0.0
  0
LINE
  5
   149
  8
0
  6
CONTINUOUS
 62
     7
 10
275.094115730035
 20
5.67592351874055
 30
0.0
 11
275.094115730035
 21
21.7759232445592
 31
0.0
  0
LINE
  5
   14A
  8
0
  6
CONTINUOUS
 62
     7
 10
274.573171300084
 20
8.63034679594752
 30
0.0
 11
275.094115730035
 21
5.67592351874055
 31
0.0
  0
LINE
  5
   14B
  8
0
  6
CONTINUOUS
 62
     7
 10
275.094115730035
 20
5.67592351874055
 30
0.0
 11
275.615060159987
 21
8.63034679594752
 31
0.0
  0
LINE
  5
   14C
  8
0
  6
CONTINUOUS
 62
     7
 10
275.615060159987
 20
18.8214999673522
 30
0.0
 11
275.094115730035
 21
21.7759232445592
 31
0.0
  0
LINE
  5
   14D
  8
0
  6
CONTINUOUS
 62
     7
 10
275.094115730035
 20
21.7759232445592
 30
0.0
 11
274.573171300084
 21
18.8214999673522
 31
0.0
  0
ENDBLK
  5
   14E
  8
0
  6
CONTINUOUS
 62
     7
  0
BLOCK
  5
   14F
  8
0
  6
CONTINUOUS
 62
     7
  2
*UDIM329
 70
    65
 10
0.0
 20
0.0
 30
0.0
  3
*UDIM329
  0
TEXT
  5
   150
  8
0
  6
CONTINUOUS
 62
     7
 10
265.799725765088
 20
7.08644163150984
 30
0.0
 40
2.99999997871263
  1
=
 50
90.0
 41
0.933333333333333
 72
     1
 11
264.299725775731
 21
8.18644162370258
 31
0.0
 73
     2
  0
LINE
  5
   151
  8
0
  6
CONTINUOUS
 62
     7
 10
264.613945769155
 20
5.6759310487808
 30
0.0
 11
268.799725765087
 21
5.6759310487808
 31
0.0
  0
LINE
  5
   152
  8
0
  6
CONTINUOUS
 62
     7
 10
262.716033945513
 20
13.7191154429031
 30
0.0
 11
268.799725765087
 21
13.7191154429031
 31
0.0
  0
LINE
  5
   153
  8
0
  6
CONTINUOUS
 62
     7
 10
266.799725765087
 20
5.6759310487808
 30
0.0
 11
266.799725765087
 21
13.7191154429031
 31
0.0
  0
LINE
  5
   154
  8
0
  6
CONTINUOUS
 62
     7
 10
266.278781335135
 20
8.63035432598776
 30
0.0
 11
266.799725765087
 21
5.6759310487808
 31
0.0
  0
LINE
  5
   155
  8
0
  6
CONTINUOUS
 62
     7
 10
266.799725765087
 20
5.6759310487808
 30
0.0
 11
267.320670195038
 21
8.63035432598776
 31
0.0
  0
LINE
  5
   156
  8
0
  6
CONTINUOUS
 62
     7
 10
267.320670195038
 20
10.7646921656961
 30
0.0
 11
266.799725765087
 21
13.7191154429031
 31
0.0
  0
LINE
  5
   157
  8
0
  6
CONTINUOUS
 62
     7
 10
266.799725765087
 20
13.7191154429031
 30
0.0
 11
266.278781335135
 21
10.7646921656961
 31
0.0
  0
ENDBLK
  5
   158
  8
0
  6
CONTINUOUS
 62
     7
  0
BLOCK
  5
   159
  8
0
  6
CONTINUOUS
 62
     7
  2
*UDIM330
 70
    65
 10
0.0
 20
0.0
 30
0.0
  3
*UDIM330
  0
TEXT
  5
   15A
  8
0
  6
CONTINUOUS
 62
     7
 10
265.799725765088
 20
15.7059203551797
 30
0.0
 40
2.99999997871263
  1
=
 50
90.0
 41
0.933333333333333
 72
     1
 11
264.299725775731
 21
16.8059203473725
 31
0.0
 73
     2
  0
LINE
  5
   15B
  8
0
  6
CONTINUOUS
 62
     7
 10
264.207250378375
 20
21.7759176874608
 30
0.0
 11
268.799725765087
 21
21.7759176874608
 31
0.0
  0
LINE
  5
   15C
  8
0
  6
CONTINUOUS
 62
     7
 10
266.799725765087
 20
13.7191154429031
 30
0.0
 11
266.799725765087
 21
21.7759176874608
 31
0.0
  0
LINE
  5
   15D
  8
0
  6
CONTINUOUS
 62
     7
 10
266.278781335135
 20
16.6735387201101
 30
0.0
 11
266.799725765087
 21
13.7191154429031
 31
0.0
  0
LINE
  5
   15E
  8
0
  6
CONTINUOUS
 62
     7
 10
266.799725765087
 20
13.7191154429031
 30
0.0
 11
267.320670195038
 21
16.6735387201101
 31
0.0
  0
LINE
  5
   15F
  8
0
  6
CONTINUOUS
 62
     7
 10
267.320670195038
 20
18.8214944102538
 30
0.0
 11
266.799725765087
 21
21.7759176874608
 31
0.0
  0
LINE
  5
   160
  8
0
  6
CONTINUOUS
 62
     7
 10
266.799725765087
 20
21.7759176874608
 30
0.0
 11
266.278781335135
 21
18.8214944102538
 31
0.0
  0
ENDBLK
  5
   161
  8
0
  6
CONTINUOUS
 62
     7
  0
BLOCK
  5
   162
  8
0
  6
CONTINUOUS
 62
     7
  2
*UDIM331
 70
    65
 10
0.0
 20
0.0
 30
0.0
  3
*UDIM331
  0
TEXT
  5
   163
  8
0
  6
CONTINUOUS
 62
     7
 10
229.292136734462
 20
38.0180880751905
 30
0.0
 40
2.99999997871263
  1
41,5
 41
0.933333333333333
 72
     1
 11
234.592136696854
 21
39.5180880645468
 31
0.0
 73
     2
  0
LINE
  5
   164
  8
0
  6
CONTINUOUS
 62
     7
 10
227.723709418002
 20
37.0180880751905
 30
0.0
 11
242.248709170643
 21
37.0180880751905
 31
0.0
  0
LINE
  5
   165
  8
0
  6
CONTINUOUS
 62
     7
 10
230.678132695209
 20
37.5390325051421
 30
0.0
 11
227.723709418002
 21
37.0180880751905
 31
0.0
  0
LINE
  5
   166
  8
0
  6
CONTINUOUS
 62
     7
 10
227.723709418002
 20
37.0180880751905
 30
0.0
 11
230.678132695209
 21
36.4971436452388
 31
0.0
  0
LINE
  5
   167
  8
0
  6
CONTINUOUS
 62
     7
 10
239.294285893436
 20
36.4971436452388
 30
0.0
 11
242.248709170643
 21
37.0180880751905
 31
0.0
  0
LINE
  5
   168
  8
0
  6
CONTINUOUS
 62
     7
 10
242.248709170643
 20
37.0180880751905
 30
0.0
 11
239.294285893436
 21
37.5390325051421
 31
0.0
  0
ENDBLK
  5
   169
  8
0
  6
CONTINUOUS
 62
     7
  0
BLOCK
  5
   16A
  8
0
  6
CONTINUOUS
 62
     7
  2
*UDIM332
 70
    65
 10
0.0
 20
0.0
 30
0.0
  3
*UDIM332
  0
TEXT
  5
   16B
  8
0
  6
CONTINUOUS
 62
     7
 10
275.517825998151
 20
-130.291423339252
 30
0.0
 40
3.00000005960463
  1
3,6
 50
324.923365604331
 41
0.933333333333334
 72
     1
 11
279.571531562163
 21
-131.305066222171
 31
0.0
 73
     2
  0
TEXT
  5
   16C
  8
0
  6
CONTINUOUS
 62
     7
 10
272.93991592369
 20
-128.481207924373
 30
0.0
 40
3.00000005960463
  1
Ø
 50
324.923365604331
 41
0.933333333333334
 72
     1
 11
274.702145849057
 21
-127.885770414948
 31
0.0
 73
     2
  0
TEXT
  5
   16D
  8
0
  6
CONTINUOUS
 62
     7
 10
282.351333717207
 20
-135.089930923982
 30
0.0
 40
3.00000005960463
  1
 H12
 50
324.923365604331
 41
0.933333333333333
 72
     1
 11
287.550777100542
 21
-136.908114003073
 31
0.0
 73
     2
  0
LINE
  5
   16E
  8
0
  6
CONTINUOUS
 62
     7
 10
290.451534229731
 20
-141.999833687293
 30
0.0
 11
263.95408341827
 21
-123.393252118317
 31
0.0
  0
LINE
  5
   16F
  8
0
  6
CONTINUOUS
 62
     7
 10
267.260545068193
 20
-125.078505974975
 30
0.0
 11
264.543319964985
 21
-123.807015613827
 31
0.0
  0
LINE
  5
   170
  8
0
  6
CONTINUOUS
 62
     7
 10
264.543319964985
 20
-123.807015613827
 30
0.0
 11
266.661801176106
 21
-125.931171295062
 31
0.0
  0
LINE
  5
   171
  8
0
  6
CONTINUOUS
 62
     7
 10
261.236858315062
 20
-122.121761757168
 30
0.0
 11
263.95408341827
 21
-123.393252118317
 31
0.0
  0
LINE
  5
   172
  8
0
  6
CONTINUOUS
 62
     7
 10
263.95408341827
 20
-123.393252118317
 30
0.0
 11
261.835602207149
 21
-121.269096437081
 31
0.0
  0
ENDBLK
  5
   173
  8
0
  6
CONTINUOUS
 62
     7
  0
BLOCK
  5
   174
  8
0
  6
CONTINUOUS
 62
     7
  2
*UDIM333
 70
    65
 10
0.0
 20
0.0
 30
0.0
  3
*UDIM333
  0
TEXT
  5
   175
  8
0
  6
CONTINUOUS
 62
     7
 10
281.75336672184
 20
-118.375134235848
 30
0.0
 40
3.00000005960463
  1
80
 50
449.999999896069
 41
0.933333333333334
 72
     1
 11
280.253366696556
 21
-115.875134183466
 31
0.0
 73
     2
  0
LINE
  5
   176
  8
0
  6
CONTINUOUS
 62
     7
 10
267.608701550961
 20
-107.600134819746
 30
0.0
 11
284.753366726359
 21
-107.600134819746
 31
0.0
  0
LINE
  5
   177
  8
0
  6
CONTINUOUS
 62
     7
 10
267.608701550961
 20
-123.600133866072
 30
0.0
 11
284.753366726359
 21
-123.600133866072
 31
0.0
  0
LINE
  5
   178
  8
0
  6
CONTINUOUS
 62
     7
 10
282.753366726359
 20
-107.600134819746
 30
0.0
 11
282.753366726359
 21
-123.600133866072
 31
0.0
  0
LINE
  5
   179
  8
0
  6
CONTINUOUS
 62
     7
 10
283.27431115631
 20
-110.554558096953
 30
0.0
 11
282.753366726359
 21
-107.600134819746
 31
0.0
  0
LINE
  5
   17A
  8
0
  6
CONTINUOUS
 62
     7
 10
282.753366726359
 20
-107.600134819746
 30
0.0
 11
282.232422296407
 21
-110.554558096953
 31
0.0
  0
LINE
  5
   17B
  8
0
  6
CONTINUOUS
 62
     7
 10
282.232422296407
 20
-120.645710588865
 30
0.0
 11
282.753366726359
 21
-123.600133866072
 31
0.0
  0
LINE
  5
   17C
  8
0
  6
CONTINUOUS
 62
     7
 10
282.753366726359
 20
-123.600133866072
 30
0.0
 11
283.27431115631
 21
-120.645710588865
 31
0.0
  0
ENDBLK
  5
   17D
  8
0
  6
CONTINUOUS
 62
     7
  0
BLOCK
  5
   17E
  8
0
  6
CONTINUOUS
 62
     7
  2
*UDIM334
 70
    65
 10
0.0
 20
0.0
 30
0.0
  3
*UDIM334
  0
TEXT
  5
   17F
  8
0
  6
CONTINUOUS
 62
     7
 10
231.073703594773
 20
-138.706157068945
 30
0.0
 40
3.00000005960463
  1
290
 50
359.999999896069
 41
0.933333333333334
 72
     1
 11
234.973703674972
 21
-137.206157046197
 31
0.0
 73
     2
  0
LINE
  5
   180
  8
0
  6
CONTINUOUS
 62
     7
 10
264.248701691628
 20
-126.960133725405
 30
0.0
 11
264.248701691628
 21
-141.706157076
 31
0.0
  0
LINE
  5
   181
  8
0
  6
CONTINUOUS
 62
     7
 10
206.248705148697
 20
-126.960133725405
 30
0.0
 11
206.248705148697
 21
-141.706157076
 31
0.0
  0
LINE
  5
   182
  8
0
  6
CONTINUOUS
 62
     7
 10
264.248701691628
 20
-139.706157076
 30
0.0
 11
206.248705148697
 21
-139.706157076
 31
0.0
  0
LINE
  5
   183
  8
0
  6
CONTINUOUS
 62
     7
 10
261.294278414421
 20
-140.227101505951
 30
0.0
 11
264.248701691628
 21
-139.706157076
 31
0.0
  0
LINE
  5
   184
  8
0
  6
CONTINUOUS
 62
     7
 10
264.248701691628
 20
-139.706157076
 30
0.0
 11
261.294278414421
 21
-139.185212646048
 31
0.0
  0
LINE
  5
   185
  8
0
  6
CONTINUOUS
 62
     7
 10
209.203128425904
 20
-139.185212646048
 30
0.0
 11
206.248705148697
 21
-139.706157076
 31
0.0
  0
LINE
  5
   186
  8
0
  6
CONTINUOUS
 62
     7
 10
206.248705148697
 20
-139.706157076
 30
0.0
 11
209.203128425904
 21
-140.227101505951
 31
0.0
  0
ENDBLK
  5
   187
  8
0
  6
CONTINUOUS
 62
     7
  0
BLOCK
  5
   188
  8
0
  6
CONTINUOUS
 62
     7
  2
*UDIM335
 70
    65
 10
0.0
 20
0.0
 30
0.0
  3
*UDIM335
  0
TEXT
  5
   189
  8
0
  6
CONTINUOUS
 62
     7
 10
190.80513306935
 20
-44.4656837882346
 30
0.0
 40
2.00000009536742
  1
FORATURA DA ESEGUIRE SOLO PER ESECUZ.TERM.POST.
 50
359.999999896069
 41
0.937499979138376
 72
     2
 11
278.55513529622
 21
-42.4656838515996
 31
0.0
 73
     3
  0
TEXT
  5
   18A
  8
0
  6
CONTINUOUS
 62
     7
 10
192.680133117033
 20
-47.4656837899305
 30
0.0
 40
2.00000009536742
  1
REAR TERMINAL EXECUTION ONLY DRILLING TEMPLATE
 50
359.999999896069
 41
0.937499979138376
 72
     2
 11
278.55513529622
 21
-45.4656838499037
 31
0.0
 73
     3
  0
LINE
  5
   18B
  8
0
  6
CONTINUOUS
 62
     7
 10
258.082626924877
 20
-65.5272369368613
 30
0.0
 11
278.555135294412
 21
-48.4656838676008
 31
0.0
  0
LINE
  5
   18C
  8
0
  6
CONTINUOUS
 62
     7
 10
190.730133075629
 20
-48.4656838676008
 30
0.0
 11
278.555135294412
 21
-48.4656838676008
 31
0.0
  0
LINE
  5
   18D
  8
0
  6
CONTINUOUS
 62
     7
 10
260.018702649657
 20
-63.2355976136003
 30
0.0
 11
258.082626924877
 21
-65.5272369368613
 31
0.0
  0
LINE
  5
   18E
  8
0
  6
CONTINUOUS
 62
     7
 10
258.082626924877
 20
-65.5272369368613
 30
0.0
 11
260.685729702499
 21
-64.0359770905785
 31
0.0
  0
ENDBLK
  5
   18F
  8
0
  6
CONTINUOUS
 62
     7
  0
BLOCK
  5
   190
  8
0
  6
CONTINUOUS
 62
     7
  2
*UDIM336
 70
    65
 10
0.0
 20
0.0
 30
0.0
  3
*UDIM336
  0
TEXT
  5
   191
  8
0
  6
CONTINUOUS
 62
     7
 10
199.41253084268
 20
-107.913277428061
 30
0.0
 40
3.00000005960463
  1
40
 50
336.041640856291
 41
0.933333333333334
 72
     1
 11
202.306241848436
 21
-107.557697686048
 31
0.0
 73
     2
  0
TEXT
  5
   192
  8
0
  6
CONTINUOUS
 62
     7
 10
196.899468532797
 20
-106.796577767178
 30
0.0
 40
3.00000005960463
  1
R
 50
336.041640856291
 41
0.933333333333334
 72
     1
 11
198.513802364627
 21
-105.872496376337
 31
0.0
 73
     2
  0
LINE
  5
   193
  8
0
  6
CONTINUOUS
 62
     7
 10
196.493395937885
 20
-107.710418591196
 30
0.0
 11
220.645590855291
 21
-118.442642712632
 31
0.0
  0
LINE
  5
   194
  8
0
  6
CONTINUOUS
 62
     7
 10
209.849392389695
 20
-113.075203809835
 30
0.0
 11
206.937978538838
 21
-112.351553763863
 31
0.0
  0
LINE
  5
   195
  8
0
  6
CONTINUOUS
 62
     7
 10
206.937978538838
 20
-112.351553763863
 30
0.0
 11
209.426309875002
 21
-114.027324381061
 31
0.0
  0
ENDBLK
  5
   196
  8
0
  6
CONTINUOUS
 62
     7
  0
BLOCK
  5
   197
  8
0
  6
CONTINUOUS
 62
     7
  2
*UDIM337
 70
    65
 10
0.0
 20
0.0
 30
0.0
  3
*UDIM337
  0
TEXT
  5
   198
  8
0
  6
CONTINUOUS
 62
     7
 10
189.983013912881
 20
-100.37214140734
 30
0.0
 40
3.00000005960463
  1
315
 50
449.999999896069
 41
0.933333333333334
 72
     1
 11
188.483013890129
 21
-96.4721413271424
 31
0.0
 73
     2
  0
LINE
  5
   199
  8
0
  6
CONTINUOUS
 62
     7
 10
199.328382407386
 20
-66.6001372635365
 30
0.0
 11
188.983013919931
 21
-66.6001372635365
 31
0.0
  0
LINE
  5
   19A
  8
0
  6
CONTINUOUS
 62
     7
 10
199.328382407386
 20
-115.600134342909
 30
0.0
 11
188.983013919931
 21
-115.600134342909
 31
0.0
  0
LINE
  5
   19B
  8
0
  6
CONTINUOUS
 62
     7
 10
190.983013919931
 20
-66.6001372635365
 30
0.0
 11
190.983013919931
 21
-115.600134342909
 31
0.0
  0
LINE
  5
   19C
  8
0
  6
CONTINUOUS
 62
     7
 10
191.503958349883
 20
-69.5545605407434
 30
0.0
 11
190.983013919931
 21
-66.6001372635365
 31
0.0
  0
LINE
  5
   19D
  8
0
  6
CONTINUOUS
 62
     7
 10
190.983013919931
 20
-66.6001372635365
 30
0.0
 11
190.46206948998
 21
-69.5545605407434
 31
0.0
  0
LINE
  5
   19E
  8
0
  6
CONTINUOUS
 62
     7
 10
190.46206948998
 20
-112.645711065702
 30
0.0
 11
190.983013919931
 21
-115.600134342909
 31
0.0
  0
LINE
  5
   19F
  8
0
  6
CONTINUOUS
 62
     7
 10
190.983013919931
 20
-115.600134342909
 30
0.0
 11
191.503958349883
 21
-112.645711065702
 31
0.0
  0
ENDBLK
  5
   1A0
  8
0
  6
CONTINUOUS
 62
     7
  0
BLOCK
  5
   1A1
  8
0
  6
CONTINUOUS
 62
     7
  2
*UDIM338
 70
    65
 10
0.0
 20
0.0
 30
0.0
  3
*UDIM338
  0
TEXT
  5
   1A2
  8
0
  6
CONTINUOUS
 62
     7
 10
198.016363035839
 20
-88.6001362172062
 30
0.0
 40
3.00000005960463
  1
165,75
 50
449.999999896069
 41
0.933333333333334
 72
     1
 11
196.516363020679
 21
-80.5001360535622
 31
0.0
 73
     2
  0
LINE
  5
   1A3
  8
0
  6
CONTINUOUS
 62
     7
 10
199.328382407386
 20
-66.6001372635365
 30
0.0
 11
197.016363050481
 21
-66.6001372635365
 31
0.0
  0
LINE
  5
   1A4
  8
0
  6
CONTINUOUS
 62
     7
 10
213.456752861281
 20
-91.1001358032227
 30
0.0
 11
197.016363050481
 21
-91.1001358032227
 31
0.0
  0
LINE
  5
   1A5
  8
0
  6
CONTINUOUS
 62
     7
 10
199.016363050481
 20
-66.6001372635365
 30
0.0
 11
199.016363050481
 21
-91.1001358032227
 31
0.0
  0
LINE
  5
   1A6
  8
0
  6
CONTINUOUS
 62
     7
 10
199.537307480433
 20
-69.5545605407434
 30
0.0
 11
199.016363050481
 21
-66.6001372635365
 31
0.0
  0
LINE
  5
   1A7
  8
0
  6
CONTINUOUS
 62
     7
 10
199.016363050481
 20
-66.6001372635365
 30
0.0
 11
198.49541862053
 21
-69.5545605407434
 31
0.0
  0
LINE
  5
   1A8
  8
0
  6
CONTINUOUS
 62
     7
 10
198.49541862053
 20
-88.1457125260157
 30
0.0
 11
199.016363050481
 21
-91.1001358032227
 31
0.0
  0
LINE
  5
   1A9
  8
0
  6
CONTINUOUS
 62
     7
 10
199.016363050481
 20
-91.1001358032227
 30
0.0
 11
199.537307480433
 21
-88.1457125260157
 31
0.0
  0
ENDBLK
  5
   1AA
  8
0
  6
CONTINUOUS
 62
     7
  0
BLOCK
  5
   1AB
  8
0
  6
CONTINUOUS
 62
     7
  2
*UDIM339
 70
    65
 10
0.0
 20
0.0
 30
0.0
  3
*UDIM339
  0
TEXT
  5
   1AC
  8
0
  6
CONTINUOUS
 62
     7
 10
275.83194373494
 20
-69.2583265555284
 30
0.0
 40
3.00000005960463
  1
50
 50
449.999999896069
 41
0.933333333333334
 72
     1
 11
274.331943709657
 21
-66.7583265031463
 31
0.0
 73
     2
  0
LINE
  5
   1AD
  8
0
  6
CONTINUOUS
 62
     7
 10
223.003706211227
 20
-61.6001375615597
 30
0.0
 11
278.831943739459
 21
-61.6001375615597
 31
0.0
  0
LINE
  5
   1AE
  8
0
  6
CONTINUOUS
 62
     7
 10
223.003706211227
 20
-71.6001369655132
 30
0.0
 11
278.831943739459
 21
-71.6001369655132
 31
0.0
  0
LINE
  5
   1AF
  8
0
  6
CONTINUOUS
 62
     7
 10
276.831943739459
 20
-61.6001375615597
 30
0.0
 11
276.831943739459
 21
-71.6001369655132
 31
0.0
  0
LINE
  5
   1B0
  8
0
  6
CONTINUOUS
 62
     7
 10
276.310999309508
 20
-58.6457142843527
 30
0.0
 11
276.831943739459
 21
-61.6001375615597
 31
0.0
  0
LINE
  5
   1B1
  8
0
  6
CONTINUOUS
 62
     7
 10
276.831943739459
 20
-61.6001375615597
 30
0.0
 11
277.352888169411
 21
-58.6457142843527
 31
0.0
  0
LINE
  5
   1B2
  8
0
  6
CONTINUOUS
 62
     7
 10
277.352888169411
 20
-74.5545602427202
 30
0.0
 11
276.831943739459
 21
-71.6001369655132
 31
0.0
  0
LINE
  5
   1B3
  8
0
  6
CONTINUOUS
 62
     7
 10
276.831943739459
 20
-71.6001369655132
 30
0.0
 11
276.310999309508
 21
-74.5545602427202
 31
0.0
  0
ENDBLK
  5
   1B4
  8
0
  6
CONTINUOUS
 62
     7
  0
BLOCK
  5
   1B5
  8
0
  6
CONTINUOUS
 62
     7
  2
*UDIM340
 70
    65
 10
0.0
 20
0.0
 30
0.0
  3
*UDIM340
  0
TEXT
  5
   1B6
  8
0
  6
CONTINUOUS
 62
     7
 10
246.473702692756
 20
-98.3048838448155
 30
0.0
 40
3.00000005960463
  1
70
 50
359.999999896069
 41
0.933333333333334
 72
     1
 11
248.97370274514
 21
-96.8048838195355
 31
0.0
 73
     2
  0
LINE
  5
   1B7
  8
0
  6
CONTINUOUS
 62
     7
 10
256.248702168465
 20
-99.3048838493378
 30
0.0
 11
242.24870300293
 21
-99.3048838493378
 31
0.0
  0
LINE
  5
   1B8
  8
0
  6
CONTINUOUS
 62
     7
 10
253.294278891258
 20
-99.8258282792895
 30
0.0
 11
256.248702168465
 21
-99.3048838493378
 31
0.0
  0
LINE
  5
   1B9
  8
0
  6
CONTINUOUS
 62
     7
 10
256.248702168465
 20
-99.3048838493378
 30
0.0
 11
253.294278891258
 21
-98.7839394193861
 31
0.0
  0
LINE
  5
   1BA
  8
0
  6
CONTINUOUS
 62
     7
 10
245.203126280137
 20
-98.7839394193861
 30
0.0
 11
242.24870300293
 21
-99.3048838493378
 31
0.0
  0
LINE
  5
   1BB
  8
0
  6
CONTINUOUS
 62
     7
 10
242.24870300293
 20
-99.3048838493378
 30
0.0
 11
245.203126280137
 21
-99.8258282792895
 31
0.0
  0
ENDBLK
  5
   1BC
  8
0
  6
CONTINUOUS
 62
     7
  0
BLOCK
  5
   1BD
  8
0
  6
CONTINUOUS
 62
     7
  2
*UDIM341
 70
    65
 10
0.0
 20
0.0
 30
0.0
  3
*UDIM341
  0
TEXT
  5
   1BE
  8
0
  6
CONTINUOUS
 62
     7
 10
232.473703527221
 20
-98.3048838448155
 30
0.0
 40
3.00000005960463
  1
70
 50
359.999999896069
 41
0.933333333333334
 72
     1
 11
234.973703579605
 21
-96.8048838195355
 31
0.0
 73
     2
  0
LINE
  5
   1BF
  8
0
  6
CONTINUOUS
 62
     7
 10
242.24870300293
 20
-99.3048838493378
 30
0.0
 11
228.248703837395
 21
-99.3048838493378
 31
0.0
  0
LINE
  5
   1C0
  8
0
  6
CONTINUOUS
 62
     7
 10
239.294279725723
 20
-99.8258282792895
 30
0.0
 11
242.24870300293
 21
-99.3048838493378
 31
0.0
  0
LINE
  5
   1C1
  8
0
  6
CONTINUOUS
 62
     7
 10
242.24870300293
 20
-99.3048838493378
 30
0.0
 11
239.294279725723
 21
-98.7839394193861
 31
0.0
  0
LINE
  5
   1C2
  8
0
  6
CONTINUOUS
 62
     7
 10
231.203127114602
 20
-98.7839394193861
 30
0.0
 11
228.248703837395
 21
-99.3048838493378
 31
0.0
  0
LINE
  5
   1C3
  8
0
  6
CONTINUOUS
 62
     7
 10
228.248703837395
 20
-99.3048838493378
 30
0.0
 11
231.203127114602
 21
-99.8258282792895
 31
0.0
  0
ENDBLK
  5
   1C4
  8
0
  6
CONTINUOUS
 62
     7
  0
BLOCK
  5
   1C5
  8
0
  6
CONTINUOUS
 62
     7
  2
*UDIM342
 70
    65
 10
0.0
 20
0.0
 30
0.0
  3
*UDIM342
  0
TEXT
  5
   1C6
  8
0
  6
CONTINUOUS
 62
     7
 10
218.473704361686
 20
-98.3048838448155
 30
0.0
 40
3.00000005960463
  1
70
 50
359.999999896069
 41
0.933333333333334
 72
     1
 11
220.97370441407
 21
-96.8048838195355
 31
0.0
 73
     2
  0
LINE
  5
   1C7
  8
0
  6
CONTINUOUS
 62
     7
 10
228.248703837395
 20
-99.3048838493378
 30
0.0
 11
214.24870467186
 21
-99.3048838493378
 31
0.0
  0
LINE
  5
   1C8
  8
0
  6
CONTINUOUS
 62
     7
 10
225.294280560188
 20
-99.8258282792895
 30
0.0
 11
228.248703837395
 21
-99.3048838493378
 31
0.0
  0
LINE
  5
   1C9
  8
0
  6
CONTINUOUS
 62
     7
 10
228.248703837395
 20
-99.3048838493378
 30
0.0
 11
225.294280560188
 21
-98.7839394193861
 31
0.0
  0
LINE
  5
   1CA
  8
0
  6
CONTINUOUS
 62
     7
 10
217.203127949067
 20
-98.7839394193861
 30
0.0
 11
214.24870467186
 21
-99.3048838493378
 31
0.0
  0
LINE
  5
   1CB
  8
0
  6
CONTINUOUS
 62
     7
 10
214.24870467186
 20
-99.3048838493378
 30
0.0
 11
217.203127949067
 21
-99.8258282792895
 31
0.0
  0
ENDBLK
  5
   1CC
  8
0
  6
CONTINUOUS
 62
     7
  0
BLOCK
  5
   1CD
  8
0
  6
CONTINUOUS
 62
     7
  2
*UDIM343
 70
    65
 10
0.0
 20
0.0
 30
0.0
  3
*UDIM343
  0
TEXT
  5
   1CE
  8
0
  6
CONTINUOUS
 62
     7
 10
184.467578443019
 20
-84.025888652786
 30
0.0
 40
3.00000005960463
  1
197,25
 50
449.999999896069
 41
0.933333333333334
 72
     1
 11
182.967578427859
 21
-75.925888489142
 31
0.0
 73
     2
  0
LINE
  5
   1CF
  8
0
  6
CONTINUOUS
 62
     7
 10
227.924756199806
 20
-60.3001376390457
 30
0.0
 11
183.467578457661
 21
-60.3001376390457
 31
0.0
  0
LINE
  5
   1D0
  8
0
  6
CONTINUOUS
 62
     7
 10
206.34152549773
 20
-91.1001358032227
 30
0.0
 11
183.467578457661
 21
-91.1001358032227
 31
0.0
  0
LINE
  5
   1D1
  8
0
  6
CONTINUOUS
 62
     7
 10
185.467578457661
 20
-60.3001376390457
 30
0.0
 11
185.467578457661
 21
-91.1001358032227
 31
0.0
  0
LINE
  5
   1D2
  8
0
  6
CONTINUOUS
 62
     7
 10
185.988522887613
 20
-63.2545609162527
 30
0.0
 11
185.467578457661
 21
-60.3001376390457
 31
0.0
  0
LINE
  5
   1D3
  8
0
  6
CONTINUOUS
 62
     7
 10
185.467578457661
 20
-60.3001376390457
 30
0.0
 11
184.94663402771
 21
-63.2545609162527
 31
0.0
  0
LINE
  5
   1D4
  8
0
  6
CONTINUOUS
 62
     7
 10
184.94663402771
 20
-88.1457125260157
 30
0.0
 11
185.467578457661
 21
-91.1001358032227
 31
0.0
  0
LINE
  5
   1D5
  8
0
  6
CONTINUOUS
 62
     7
 10
185.467578457661
 20
-91.1001358032227
 30
0.0
 11
185.988522887613
 21
-88.1457125260157
 31
0.0
  0
ENDBLK
  5
   1D6
  8
0
  6
CONTINUOUS
 62
     7
  0
BLOCK
  5
   1D7
  8
0
  6
CONTINUOUS
 62
     7
  2
*UDIM344
 70
    65
 10
0.0
 20
0.0
 30
0.0
  3
*UDIM344
  0
TEXT
  5
   1D8
  8
0
  6
CONTINUOUS
 62
     7
 10
243.278631856514
 20
-80.7940336007018
 30
0.0
 40
3.00000005960463
  1
35
 50
359.999999896069
 41
0.933333333333334
 72
     1
 11
245.778631908898
 21
-79.2940335754217
 31
0.0
 73
     2
  0
LINE
  5
   1D9
  8
0
  6
CONTINUOUS
 62
     7
 10
249.248702585697
 20
-81.7940336052241
 30
0.0
 11
242.24870300293
 21
-81.7940336052241
 31
0.0
  0
LINE
  5
   1DA
  8
0
  6
CONTINUOUS
 62
     7
 10
252.203125862904
 20
-81.2730891752724
 30
0.0
 11
249.248702585697
 21
-81.7940336052241
 31
0.0
  0
LINE
  5
   1DB
  8
0
  6
CONTINUOUS
 62
     7
 10
249.248702585697
 20
-81.7940336052241
 30
0.0
 11
252.203125862904
 21
-82.3149780351757
 31
0.0
  0
LINE
  5
   1DC
  8
0
  6
CONTINUOUS
 62
     7
 10
239.294279725723
 20
-82.3149780351757
 30
0.0
 11
242.24870300293
 21
-81.7940336052241
 31
0.0
  0
LINE
  5
   1DD
  8
0
  6
CONTINUOUS
 62
     7
 10
242.24870300293
 20
-81.7940336052241
 30
0.0
 11
239.294279725723
 21
-81.2730891752724
 31
0.0
  0
ENDBLK
  5
   1DE
  8
0
  6
CONTINUOUS
 62
     7
  0
BLOCK
  5
   1DF
  8
0
  6
CONTINUOUS
 62
     7
  2
*UDIM345
 70
    65
 10
0.0
 20
0.0
 30
0.0
  3
*UDIM345
  0
TEXT
  5
   1E0
  8
0
  6
CONTINUOUS
 62
     7
 10
178.472547069662
 20
-95.2751382965296
 30
0.0
 40
3.00000005960463
  1
378
 50
449.999999896069
 41
0.933333333333334
 72
     1
 11
176.972547046909
 21
-91.375138216332
 31
0.0
 73
     2
  0
LINE
  5
   1E1
  8
0
  6
CONTINUOUS
 62
     7
 10
227.924756199806
 20
-60.3001373251292
 30
0.0
 11
177.472547076712
 21
-60.3001214873497
 31
0.0
  0
LINE
  5
   1E2
  8
0
  6
CONTINUOUS
 62
     7
 10
226.251022905243
 20
-121.900133653483
 30
0.0
 11
177.472547076712
 21
-121.900118341116
 31
0.0
  0
LINE
  5
   1E3
  8
0
  6
CONTINUOUS
 62
     7
 10
179.472547076712
 20
-60.3001221151826
 30
0.0
 11
179.472547076712
 21
-121.900118968949
 31
0.0
  0
LINE
  5
   1E4
  8
0
  6
CONTINUOUS
 62
     7
 10
179.993491506663
 20
-63.2545453923896
 30
0.0
 11
179.472547076712
 21
-60.3001221151826
 31
0.0
  0
LINE
  5
   1E5
  8
0
  6
CONTINUOUS
 62
     7
 10
179.472547076712
 20
-60.3001221151826
 30
0.0
 11
178.95160264676
 21
-63.2545453923896
 31
0.0
  0
LINE
  5
   1E6
  8
0
  6
CONTINUOUS
 62
     7
 10
178.95160264676
 20
-118.945695691742
 30
0.0
 11
179.472547076712
 21
-121.900118968949
 31
0.0
  0
LINE
  5
   1E7
  8
0
  6
CONTINUOUS
 62
     7
 10
179.472547076712
 20
-121.900118968949
 30
0.0
 11
179.993491506663
 21
-118.945695691742
 31
0.0
  0
ENDBLK
  5
   1E8
  8
0
  6
CONTINUOUS
 62
     7
  0
BLOCK
  5
   1E9
  8
0
  6
CONTINUOUS
 62
     7
  2
*UDIM346
 70
    65
 10
0.0
 20
0.0
 30
0.0
  3
*UDIM346
  0
TEXT
  5
   1EA
  8
0
  6
CONTINUOUS
 62
     7
 10
273.599955332755
 20
-104.638924725057
 30
0.0
 40
3.00000005960463
  1
5,5
 50
393.410732440946
 41
0.933333333333334
 72
     1
 11
276.02950417895
 21
-101.239322822224
 31
0.0
 73
     2
  0
TEXT
  5
   1EB
  8
0
  6
CONTINUOUS
 62
     7
 10
270.970509398384
 20
-106.373431651677
 30
0.0
 40
3.00000005960463
  1
Ø
 50
393.410732440946
 41
0.933333333333334
 72
     1
 11
271.062772941466
 21
-104.515613690706
 31
0.0
 73
     2
  0
TEXT
  5
   1EC
  8
0
  6
CONTINUOUS
 62
     7
 10
280.570073994264
 20
-100.041104738195
 30
0.0
 40
3.00000005960463
  1
 - M5
 50
393.410732440946
 41
0.933333333333333
 72
     1
 11
285.336908143573
 21
-95.0997188934991
 31
0.0
 73
     2
  0
LINE
  5
   1ED
  8
0
  6
CONTINUOUS
 62
     7
 10
292.306290767418
 20
-93.4973120240617
 30
0.0
 11
248.78959300962
 21
-122.202984361313
 31
0.0
  0
LINE
  5
   1EE
  8
0
  6
CONTINUOUS
 62
     7
 10
251.887150096278
 20
-119.535612851175
 30
0.0
 11
249.707812161774
 21
-121.597283573486
 31
0.0
  0
LINE
  5
   1EF
  8
0
  6
CONTINUOUS
 62
     7
 10
249.707812161774
 20
-121.597283573486
 30
0.0
 11
252.460852769811
 21
-120.405324089905
 31
0.0
  0
LINE
  5
   1F0
  8
0
  6
CONTINUOUS
 62
     7
 10
246.610255075116
 20
-124.264655083624
 30
0.0
 11
248.78959300962
 21
-122.202984361313
 31
0.0
  0
LINE
  5
   1F1
  8
0
  6
CONTINUOUS
 62
     7
 10
248.78959300962
 20
-122.202984361313
 30
0.0
 11
246.036552401583
 21
-123.394943844895
 31
0.0
  0
ENDBLK
  5
   1F2
  8
0
  6
CONTINUOUS
 62
     7
  0
BLOCK
  5
   1F3
  8
0
  6
CONTINUOUS
 62
     7
  2
*UDIM347
 70
    65
 10
0.0
 20
0.0
 30
0.0
  3
*UDIM347
  0
TEXT
  5
   1F4
  8
0
  6
CONTINUOUS
 62
     7
 10
231.073703594773
 20
-104.959888328426
 30
0.0
 40
3.00000005960463
  1
140
 50
359.999999896069
 41
0.933333333333334
 72
     1
 11
234.973703674972
 21
-103.459888305679
 31
0.0
 73
     2
  0
LINE
  5
   1F5
  8
0
  6
CONTINUOUS
 62
     7
 10
249.248702585697
 20
-94.3113291731264
 30
0.0
 11
249.248702585697
 21
-107.959888335481
 31
0.0
  0
LINE
  5
   1F6
  8
0
  6
CONTINUOUS
 62
     7
 10
221.248704254627
 20
-89.4987670488903
 30
0.0
 11
221.248704254627
 21
-107.959888335481
 31
0.0
  0
LINE
  5
   1F7
  8
0
  6
CONTINUOUS
 62
     7
 10
249.248702585697
 20
-105.959888335481
 30
0.0
 11
221.248704254627
 21
-105.959888335481
 31
0.0
  0
LINE
  5
   1F8
  8
0
  6
CONTINUOUS
 62
     7
 10
246.29427930849
 20
-106.480832765433
 30
0.0
 11
249.248702585697
 21
-105.959888335481
 31
0.0
  0
LINE
  5
   1F9
  8
0
  6
CONTINUOUS
 62
     7
 10
249.248702585697
 20
-105.959888335481
 30
0.0
 11
246.29427930849
 21
-105.438943905529
 31
0.0
  0
LINE
  5
   1FA
  8
0
  6
CONTINUOUS
 62
     7
 10
224.203127531834
 20
-105.438943905529
 30
0.0
 11
221.248704254627
 21
-105.959888335481
 31
0.0
  0
LINE
  5
   1FB
  8
0
  6
CONTINUOUS
 62
     7
 10
221.248704254627
 20
-105.959888335481
 30
0.0
 11
224.203127531834
 21
-106.480832765433
 31
0.0
  0
ENDBLK
  5
   1FC
  8
0
  6
CONTINUOUS
 62
     7
  0
BLOCK
  5
   1FD
  8
0
  6
CONTINUOUS
 62
     7
  2
MANIGLIA_ALTO
 70
    64
 10
0.0
 20
0.0
 30
0.0
  3
MANIGLIA_ALTO
  0
LINE
  5
   1FE
  8
0
  6
CONTINUOUS
 62
   218
 10
62.3380546569824
 20
-372.902191162109
 30
0.0
 11
62.3380546569824
 21
-361.402191162109
 31
0.0
  0
LINE
  5
   1FF
  8
0
  6
CONTINUOUS
 62
   218
 10
62.3380546569824
 20
-390.902191162109
 30
0.0
 11
62.3380546569824
 21
-372.902191162109
 31
0.0
  0
LINE
  5
   200
  8
0
  6
CONTINUOUS
 62
   218
 10
213.83805847168
 20
-390.902191162109
 30
0.0
 11
213.83805847168
 21
-376.902191162109
 31
0.0
  0
LINE
  5
   201
  8
0
  6
CONTINUOUS
 62
   218
 10
205.788955688477
 20
-394.902191162109
 30
0.0
 11
207.664886474609
 21
-394.902191162109
 31
0.0
  0
LINE
  5
   202
  8
0
  6
CONTINUOUS
 62
   218
 10
203.83805847168
 20
-394.902191162109
 30
0.0
 11
205.788955688477
 21
-394.902191162109
 31
0.0
  0
LINE
  5
   203
  8
0
  6
CONTINUOUS
 62
   218
 10
207.664886474609
 20
-394.902191162109
 30
0.0
 11
209.393753051758
 21
-394.902191162109
 31
0.0
  0
LINE
  5
   204
  8
0
  6
CONTINUOUS
 62
   218
 10
209.393753051758
 20
-394.902191162109
 30
0.0
 11
209.83805847168
 21
-394.902191162109
 31
0.0
  0
LINE
  5
   205
  8
0
  6
CONTINUOUS
 62
   218
 10
173.83805847168
 20
-394.902191162109
 30
0.0
 11
179.83805847168
 21
-394.902191162109
 31
0.0
  0
LINE
  5
   206
  8
0
  6
CONTINUOUS
 62
   218
 10
179.83805847168
 20
-394.902191162109
 30
0.0
 11
203.83805847168
 21
-394.902191162109
 31
0.0
  0
LINE
  5
   207
  8
0
  6
CONTINUOUS
 62
   218
 10
87.5320663452148
 20
-394.902191162109
 30
0.0
 11
173.83805847168
 21
-394.902191162109
 31
0.0
  0
LINE
  5
   208
  8
0
  6
CONTINUOUS
 62
   218
 10
75.8728408813477
 20
-394.902191162109
 30
0.0
 11
77.9805297851563
 21
-394.902191162109
 31
0.0
  0
LINE
  5
   209
  8
0
  6
CONTINUOUS
 62
   218
 10
77.9805297851563
 20
-394.902191162109
 30
0.0
 11
80.2360076904297
 21
-394.902191162109
 31
0.0
  0
LINE
  5
   20A
  8
0
  6
CONTINUOUS
 62
   218
 10
80.2360076904297
 20
-394.902191162109
 30
0.0
 11
82.6043853759766
 21
-394.902191162109
 31
0.0
  0
LINE
  5
   20B
  8
0
  6
CONTINUOUS
 62
   218
 10
82.6043853759766
 20
-394.902191162109
 30
0.0
 11
85.0490188598633
 21
-394.902191162109
 31
0.0
  0
LINE
  5
   20C
  8
0
  6
CONTINUOUS
 62
   218
 10
85.0490188598633
 20
-394.902191162109
 30
0.0
 11
87.5320663452148
 21
-394.902191162109
 31
0.0
  0
LINE
  5
   20D
  8
0
  6
CONTINUOUS
 62
   218
 10
74.906494140625
 20
-394.902191162109
 30
0.0
 11
75.8728408813477
 21
-394.902191162109
 31
0.0
  0
LINE
  5
   20E
  8
0
  6
CONTINUOUS
 62
   218
 10
73.8382720947266
 20
-394.902191162109
 30
0.0
 11
74.906494140625
 21
-394.902191162109
 31
0.0
  0
LINE
  5
   20F
  8
0
  6
CONTINUOUS
 62
   218
 10
72.7478790283203
 20
-394.902191162109
 30
0.0
 11
73.8382720947266
 21
-394.902191162109
 31
0.0
  0
LINE
  5
   210
  8
0
  6
CONTINUOUS
 62
   218
 10
70.8215179443359
 20
-394.902191162109
 30
0.0
 11
71.7166442871094
 21
-394.902191162109
 31
0.0
  0
LINE
  5
   211
  8
0
  6
CONTINUOUS
 62
   218
 10
71.7166442871094
 20
-394.902191162109
 30
0.0
 11
72.7478790283203
 21
-394.902191162109
 31
0.0
  0
LINE
  5
   212
  8
0
  6
CONTINUOUS
 62
   218
 10
66.7888107299805
 20
-394.902191162109
 30
0.0
 11
68.6658325195313
 21
-394.902191162109
 31
0.0
  0
LINE
  5
   213
  8
0
  6
CONTINUOUS
 62
   218
 10
66.3380584716797
 20
-394.902191162109
 30
0.0
 11
66.7888107299805
 21
-394.902191162109
 31
0.0
  0
LINE
  5
   214
  8
0
  6
CONTINUOUS
 62
   218
 10
68.6658325195313
 20
-394.902191162109
 30
0.0
 11
70.8215179443359
 21
-394.902191162109
 31
0.0
  0
LINE
  5
   215
  8
0
  6
CONTINUOUS
 62
   218
 10
109.853317260742
 20
-361.402191162109
 30
0.0
 11
114.688591003418
 21
-361.402191162109
 31
0.0
  0
LINE
  5
   216
  8
0
  6
CONTINUOUS
 62
   218
 10
70.8215179443359
 20
-361.402191162109
 30
0.0
 11
71.7166442871094
 21
-361.402191162109
 31
0.0
  0
LINE
  5
   217
  8
0
  6
CONTINUOUS
 62
   218
 10
71.7166442871094
 20
-361.402191162109
 30
0.0
 11
71.9718246459961
 21
-361.402191162109
 31
0.0
  0
LINE
  5
   218
  8
0
  6
CONTINUOUS
 62
   218
 10
62.3380546569824
 20
-361.402191162109
 30
0.0
 11
62.5210952758789
 21
-361.402191162109
 31
0.0
  0
LINE
  5
   219
  8
0
  6
CONTINUOUS
 62
   218
 10
62.5210952758789
 20
-361.402191162109
 30
0.0
 11
63.0676803588867
 21
-361.402191162109
 31
0.0
  0
LINE
  5
   21A
  8
0
  6
CONTINUOUS
 62
   218
 10
67.6103439331055
 20
-361.402191162109
 30
0.0
 11
68.6658325195313
 21
-361.402191162109
 31
0.0
  0
LINE
  5
   21B
  8
0
  6
CONTINUOUS
 62
   218
 10
63.7391319274902
 20
-361.402191162109
 30
0.0
 11
63.9702682495117
 21
-361.402191162109
 31
0.0
  0
LINE
  5
   21C
  8
0
  6
CONTINUOUS
 62
   218
 10
63.9702682495117
 20
-361.402191162109
 30
0.0
 11
65.2163848876953
 21
-361.402191162109
 31
0.0
  0
LINE
  5
   21D
  8
0
  6
CONTINUOUS
 62
   218
 10
65.2163848876953
 20
-361.402191162109
 30
0.0
 11
66.7888107299805
 21
-361.402191162109
 31
0.0
  0
LINE
  5
   21E
  8
0
  6
CONTINUOUS
 62
   218
 10
63.0676803588867
 20
-361.402191162109
 30
0.0
 11
63.588737487793
 21
-361.402191162109
 31
0.0
  0
LINE
  5
   21F
  8
0
  6
CONTINUOUS
 62
   218
 10
68.6658325195313
 20
-361.402191162109
 30
0.0
 11
70.8215179443359
 21
-361.402191162109
 31
0.0
  0
LINE
  5
   220
  8
0
  6
CONTINUOUS
 62
   218
 10
66.7888107299805
 20
-361.402191162109
 30
0.0
 11
67.2918395996094
 21
-361.402191162109
 31
0.0
  0
LINE
  5
   221
  8
0
  6
CONTINUOUS
 62
   218
 10
212.189193725586
 20
-394.138244628906
 30
0.0
 11
213.074127197266
 21
-393.253326416016
 31
0.0
  0
LINE
  5
   222
  8
0
  6
CONTINUOUS
 62
   218
 10
211.074127197266
 20
-394.706420898438
 30
0.0
 11
212.152755737305
 21
-394.156829833985
 31
0.0
  0
LINE
  5
   223
  8
0
  6
CONTINUOUS
 62
   218
 10
210.909118652344
 20
-394.732543945313
 30
0.0
 11
211.074127197266
 21
-394.706420898438
 31
0.0
  0
LINE
  5
   224
  8
0
  6
CONTINUOUS
 62
   218
 10
212.152755737305
 20
-394.156829833984
 30
0.0
 11
212.189193725586
 21
-394.138244628906
 31
0.0
  0
LINE
  5
   225
  8
0
  6
CONTINUOUS
 62
   218
 10
213.642288208008
 20
-392.138244628906
 30
0.0
 11
213.645904541016
 21
-392.115356445313
 31
0.0
  0
LINE
  5
   226
  8
0
  6
CONTINUOUS
 62
   218
 10
209.83805847168
 20
-394.90219116211
 30
0.0
 11
210.909118652344
 21
-394.732543945313
 31
0.0
  0
LINE
  5
   227
  8
0
  6
CONTINUOUS
 62
   218
 10
213.645904541016
 20
-392.115356445312
 30
0.0
 11
213.83805847168
 21
-390.902191162109
 31
0.0
  0
LINE
  5
   228
  8
0
  6
CONTINUOUS
 62
   218
 10
213.076858520508
 20
-393.247985839844
 30
0.0
 11
213.642288208008
 21
-392.138244628906
 31
0.0
  0
LINE
  5
   229
  8
0
  6
CONTINUOUS
 62
   218
 10
213.074127197266
 20
-393.253326416016
 30
0.0
 11
213.076858520508
 21
-393.247985839844
 31
0.0
  0
LINE
  5
   22A
  8
0
  6
CONTINUOUS
 62
   218
 10
63.986915588379
 20
-394.138244628906
 30
0.0
 11
65.1019897460938
 21
-394.706420898438
 31
0.0
  0
LINE
  5
   22B
  8
0
  6
CONTINUOUS
 62
   218
 10
62.521095275879
 20
-392.057830810547
 30
0.0
 11
62.5338287353516
 21
-392.138244628906
 31
0.0
  0
LINE
  5
   22C
  8
0
  6
CONTINUOUS
 62
   218
 10
65.2163848876953
 20
-394.724517822266
 30
0.0
 11
66.3380584716797
 21
-394.90219116211
 31
0.0
  0
LINE
  5
   22D
  8
0
  6
CONTINUOUS
 62
   218
 10
62.3380546569825
 20
-390.902191162109
 30
0.0
 11
62.521095275879
 21
-392.057830810547
 31
0.0
  0
LINE
  5
   22E
  8
0
  6
CONTINUOUS
 62
   218
 10
63.1019897460938
 20
-393.253326416016
 30
0.0
 11
63.9702682495118
 21
-394.121612548828
 31
0.0
  0
LINE
  5
   22F
  8
0
  6
CONTINUOUS
 62
   218
 10
65.1019897460938
 20
-394.706420898437
 30
0.0
 11
65.2163848876953
 21
-394.724517822266
 31
0.0
  0
LINE
  5
   230
  8
0
  6
CONTINUOUS
 62
   218
 10
63.9702682495117
 20
-394.121612548828
 30
0.0
 11
63.9869155883789
 21
-394.138244628906
 31
0.0
  0
LINE
  5
   231
  8
0
  6
CONTINUOUS
 62
   218
 10
62.5338287353516
 20
-392.138244628906
 30
0.0
 11
63.0676803588868
 21
-393.186004638672
 31
0.0
  0
LINE
  5
   232
  8
0
  6
CONTINUOUS
 62
   218
 10
63.0676803588867
 20
-393.186004638672
 30
0.0
 11
63.1019897460938
 21
-393.253326416016
 31
0.0
  0
LINE
  5
   233
  8
0
  6
CONTINUOUS
 62
   218
 10
100.462738037109
 20
-376.946533203125
 30
0.0
 11
100.774101257324
 21
-376.90219116211
 31
0.0
  0
LINE
  5
   234
  8
0
  6
CONTINUOUS
 62
   218
 10
79.8166275024414
 20
-376.90219116211
 30
0.0
 11
80.2360076904297
 21
-376.975555419922
 31
0.0
  0
LINE
  5
   235
  8
0
  6
CONTINUOUS
 62
   218
 10
104.266105651856
 20
-376.90219116211
 30
0.0
 11
106.404235839844
 21
-376.597717285156
 31
0.0
  0
LINE
  5
   236
  8
0
  6
CONTINUOUS
 62
   218
 10
106.404235839844
 20
-376.597717285156
 30
0.0
 11
108.216857910156
 21
-375.730621337891
 31
0.0
  0
LINE
  5
   237
  8
0
  6
CONTINUOUS
 62
   218
 10
108.216857910156
 20
-375.730621337891
 30
0.0
 11
109.428016662598
 21
-374.432922363281
 31
0.0
  0
LINE
  5
   238
  8
0
  6
CONTINUOUS
 62
   218
 10
109.428016662598
 20
-374.432922363281
 30
0.0
 11
109.853317260742
 21
-372.902191162109
 31
0.0
  0
LINE
  5
   239
  8
0
  6
CONTINUOUS
 62
   218
 10
75.8728408813477
 20
-376.648345947266
 30
0.0
 11
77.1174240112305
 21
-376.902191162109
 31
0.0
  0
LINE
  5
   23A
  8
0
  6
CONTINUOUS
 62
   218
 10
75.6007385253907
 20
-376.597717285156
 30
0.0
 11
75.8728408813477
 21
-376.648345947266
 31
0.0
  0
LINE
  5
   23B
  8
0
  6
CONTINUOUS
 62
   218
 10
74.906494140625
 20
-376.163757324219
 30
0.0
 11
75.6007385253907
 21
-376.597717285156
 31
0.0
  0
LINE
  5
   23C
  8
0
  6
CONTINUOUS
 62
   218
 10
72.7478790283204
 20
-374.517761230469
 30
0.0
 11
73.8382720947266
 21
-375.612854003906
 31
0.0
  0
LINE
  5
   23D
  8
0
  6
CONTINUOUS
 62
   218
 10
72.6260528564454
 20
-374.432922363281
 30
0.0
 11
72.7478790283204
 21
-374.517761230469
 31
0.0
  0
LINE
  5
   23E
  8
0
  6
CONTINUOUS
 62
   218
 10
71.9718246459961
 20
-372.902191162109
 30
0.0
 11
72.6260528564454
 21
-374.432922363281
 31
0.0
  0
LINE
  5
   23F
  8
0
  6
CONTINUOUS
 62
   218
 10
73.8382720947265
 20
-375.612854003906
 30
0.0
 11
73.9287719726563
 21
-375.730621337891
 31
0.0
  0
LINE
  5
   240
  8
0
  6
CONTINUOUS
 62
   218
 10
73.9729690551759
 20
-375.756286621094
 30
0.0
 11
74.9064941406251
 21
-376.163757324219
 31
0.0
  0
LINE
  5
   241
  8
0
  6
CONTINUOUS
 62
   218
 10
73.9287719726563
 20
-375.730621337891
 30
0.0
 11
73.9729690551758
 21
-375.756286621094
 31
0.0
  0
LINE
  5
   242
  8
0
  6
CONTINUOUS
 62
   218
 10
77.1174240112305
 20
-376.902191162109
 30
0.0
 11
81.8851699829102
 21
-376.902191162109
 31
0.0
  0
LINE
  5
   243
  8
0
  6
CONTINUOUS
 62
   218
 10
81.8851699829102
 20
-376.902191162109
 30
0.0
 11
88.8380584716797
 21
-376.902191162109
 31
0.0
  0
LINE
  5
   244
  8
0
  6
CONTINUOUS
 62
   218
 10
88.8380584716797
 20
-376.902191162109
 30
0.0
 11
95.7909393310547
 21
-376.902191162109
 31
0.0
  0
LINE
  5
   245
  8
0
  6
CONTINUOUS
 62
   218
 10
95.7909393310547
 20
-376.902191162109
 30
0.0
 11
102.06322479248
 21
-376.902191162109
 31
0.0
  0
LINE
  5
   246
  8
0
  6
CONTINUOUS
 62
   218
 10
102.06322479248
 20
-376.902191162109
 30
0.0
 11
104.266105651855
 21
-376.902191162109
 31
0.0
  0
LINE
  5
   247
  8
0
  6
CONTINUOUS
 62
   218
 10
109.853317260742
 20
-372.902191162109
 30
0.0
 11
109.853317260742
 21
-361.402191162109
 31
0.0
  0
LINE
  5
   248
  8
0
  6
CONTINUOUS
 62
   218
 10
71.9718246459961
 20
-372.902191162109
 30
0.0
 11
71.9718246459961
 21
-361.402191162109
 31
0.0
  0
LINE
  5
   249
  8
0
  6
CONTINUOUS
 62
   218
 10
80.6491088867188
 20
-361.402191162109
 30
0.0
 11
88.8380584716797
 21
-361.402191162109
 31
0.0
  0
LINE
  5
   24A
  8
0
  6
CONTINUOUS
 62
   218
 10
88.8380584716797
 20
-361.402191162109
 30
0.0
 11
97.0270080566406
 21
-361.402191162109
 31
0.0
  0
LINE
  5
   24B
  8
0
  6
CONTINUOUS
 62
   218
 10
97.0270080566406
 20
-361.402191162109
 30
0.0
 11
104.414367675781
 21
-361.402191162109
 31
0.0
  0
LINE
  5
   24C
  8
0
  6
CONTINUOUS
 62
   218
 10
63.6350593566895
 20
-361.402191162109
 30
0.0
 11
63.7391319274902
 21
-361.402191162109
 31
0.0
  0
LINE
  5
   24D
  8
0
  6
CONTINUOUS
 62
   218
 10
67.3991088867188
 20
-361.402191162109
 30
0.0
 11
67.6103439331055
 21
-361.402191162109
 31
0.0
  0
LINE
  5
   24E
  8
0
  6
CONTINUOUS
 62
   218
 10
104.414367675781
 20
-361.402191162109
 30
0.0
 11
109.853317260742
 21
-361.402191162109
 31
0.0
  0
LINE
  5
   24F
  8
0
  6
CONTINUOUS
 62
   218
 10
63.588737487793
 20
-361.402191162109
 30
0.0
 11
63.6350593566895
 21
-361.402191162109
 31
0.0
  0
LINE
  5
   250
  8
0
  6
CONTINUOUS
 62
   218
 10
67.2918395996094
 20
-361.402191162109
 30
0.0
 11
67.3991088867188
 21
-361.402191162109
 31
0.0
  0
LINE
  5
   251
  8
0
  6
CONTINUOUS
 62
   218
 10
71.9718246459961
 20
-361.402191162109
 30
0.0
 11
73.2617492675781
 21
-361.402191162109
 31
0.0
  0
LINE
  5
   252
  8
0
  6
CONTINUOUS
 62
   218
 10
73.2617492675781
 20
-361.402191162109
 30
0.0
 11
80.6491088867188
 21
-361.402191162109
 31
0.0
  0
LINE
  5
   253
  8
0
  6
CONTINUOUS
 62
   218
 10
114.688591003418
 20
-361.402191162109
 30
0.0
 11
115.809562683105
 21
-361.402191162109
 31
0.0
  0
LINE
  5
   254
  8
0
  6
CONTINUOUS
 62
   218
 10
117.699363708496
 20
-361.402191162109
 30
0.0
 11
118.316734313965
 21
-361.402191162109
 31
0.0
  0
LINE
  5
   255
  8
0
  6
CONTINUOUS
 62
   218
 10
116.840698242188
 20
-361.402191162109
 30
0.0
 11
117.699363708496
 21
-361.402191162109
 31
0.0
  0
LINE
  5
   256
  8
0
  6
CONTINUOUS
 62
   218
 10
115.809562683105
 20
-361.402191162109
 30
0.0
 11
116.840698242188
 21
-361.402191162109
 31
0.0
  0
LINE
  5
   257
  8
0
  6
CONTINUOUS
 62
   218
 10
118.316734313965
 20
-361.402191162109
 30
0.0
 11
119.62678527832
 21
-361.402191162109
 31
0.0
  0
LINE
  5
   258
  8
0
  6
CONTINUOUS
 62
   218
 10
120.573738098145
 20
-361.402191162109
 30
0.0
 11
121.10929107666
 21
-361.402191162109
 31
0.0
  0
LINE
  5
   259
  8
0
  6
CONTINUOUS
 62
   218
 10
119.62678527832
 20
-361.402191162109
 30
0.0
 11
120.573738098145
 21
-361.402191162109
 31
0.0
  0
LINE
  5
   25A
  8
0
  6
CONTINUOUS
 62
   218
 10
203.83805847168
 20
-376.902191162109
 30
0.0
 11
205.788955688477
 21
-376.902191162109
 31
0.0
  0
LINE
  5
   25B
  8
0
  6
CONTINUOUS
 62
   218
 10
213.645904541016
 20
-376.902191162109
 30
0.0
 11
213.83805847168
 21
-376.902191162109
 31
0.0
  0
LINE
  5
   25C
  8
0
  6
CONTINUOUS
 62
   218
 10
213.076858520508
 20
-376.902191162109
 30
0.0
 11
213.645904541016
 21
-376.902191162109
 31
0.0
  0
LINE
  5
   25D
  8
0
  6
CONTINUOUS
 62
   218
 10
212.152755737305
 20
-376.902191162109
 30
0.0
 11
213.076858520508
 21
-376.902191162109
 31
0.0
  0
LINE
  5
   25E
  8
0
  6
CONTINUOUS
 62
   218
 10
210.909118652344
 20
-376.902191162109
 30
0.0
 11
212.152755737305
 21
-376.902191162109
 31
0.0
  0
LINE
  5
   25F
  8
0
  6
CONTINUOUS
 62
   218
 10
209.393753051758
 20
-376.902191162109
 30
0.0
 11
210.909118652344
 21
-376.902191162109
 31
0.0
  0
LINE
  5
   260
  8
0
  6
CONTINUOUS
 62
   218
 10
207.664886474609
 20
-376.902191162109
 30
0.0
 11
209.393753051758
 21
-376.902191162109
 31
0.0
  0
LINE
  5
   261
  8
0
  6
CONTINUOUS
 62
   218
 10
205.788955688477
 20
-376.902191162109
 30
0.0
 11
207.664886474609
 21
-376.902191162109
 31
0.0
  0
LINE
  5
   262
  8
0
  6
CONTINUOUS
 62
   218
 10
173.83805847168
 20
-376.902191162109
 30
0.0
 11
203.83805847168
 21
-376.902191162109
 31
0.0
  0
LINE
  5
   263
  8
0
  6
CONTINUOUS
 62
   218
 10
124.794715881348
 20
-376.902191162109
 30
0.0
 11
173.83805847168
 21
-376.902191162109
 31
0.0
  0
LINE
  5
   264
  8
0
  6
CONTINUOUS
 62
   218
 10
122.163124084473
 20
-376.480041503906
 30
0.0
 11
123.458618164063
 21
-376.795837402344
 31
0.0
  0
LINE
  5
   265
  8
0
  6
CONTINUOUS
 62
   218
 10
120.94758605957
 20
-375.96435546875
 30
0.0
 11
122.163124084473
 21
-376.480041503906
 31
0.0
  0
LINE
  5
   266
  8
0
  6
CONTINUOUS
 62
   218
 10
118.131294250488
 20
-373.402191162109
 30
0.0
 11
118.900573730469
 21
-374.401702880859
 31
0.0
  0
LINE
  5
   267
  8
0
  6
CONTINUOUS
 62
   218
 10
118.900573730469
 20
-374.401702880859
 30
0.0
 11
119.848945617676
 21
-375.264495849609
 31
0.0
  0
LINE
  5
   268
  8
0
  6
CONTINUOUS
 62
   218
 10
117.564483642578
 20
-372.296325683594
 30
0.0
 11
118.131294250488
 21
-373.402191162109
 31
0.0
  0
LINE
  5
   269
  8
0
  6
CONTINUOUS
 62
   218
 10
119.848945617676
 20
-375.264495849609
 30
0.0
 11
120.94758605957
 21
-375.96435546875
 31
0.0
  0
LINE
  5
   26A
  8
0
  6
CONTINUOUS
 62
   218
 10
117.217353820801
 20
-371.117706298828
 30
0.0
 11
117.564483642578
 21
-372.296325683594
 31
0.0
  0
LINE
  5
   26B
  8
0
  6
CONTINUOUS
 62
   218
 10
123.458618164063
 20
-376.795837402344
 30
0.0
 11
124.794715881348
 21
-376.90219116211
 31
0.0
  0
LINE
  5
   26C
  8
0
  6
CONTINUOUS
 62
   218
 10
117.100463867188
 20
-369.902191162109
 30
0.0
 11
117.217353820801
 21
-371.117706298828
 31
0.0
  0
LINE
  5
   26D
  8
0
  6
CONTINUOUS
 62
   218
 10
121.10929107666
 20
-371.037322998047
 30
0.0
 11
121.10929107666
 21
-361.402191162109
 31
0.0
  0
LINE
  5
   26E
  8
0
  6
CONTINUOUS
 62
   218
 10
121.10929107666
 20
-371.037322998047
 30
0.0
 11
121.116325378418
 21
-371.117706298828
 31
0.0
  0
ARC
  5
   26F
  8
0
  6
CONTINUOUS
 62
   218
 10
128.009921620975
 20
-369.902229724967
 30
0.0
 40
6.99993231802968
 50
189.662376711621
 51
270.0
  0
ENDBLK
  5
   270
  8
0
  6
CONTINUOUS
 62
     7
  0
BLOCK
  5
   271
  8
0
  6
CONTINUOUS
 62
     7
  2
*UDIM348
 70
    65
 10
0.0
 20
0.0
 30
0.0
  3
*UDIM348
  0
TEXT
  5
   272
  8
0
  6
CONTINUOUS
 62
     7
 10
-9.20548556578318
 20
-178.74646491985
 30
0.0
 40
2.99999997871263
  1
R min.200
 50
359.999999896069
 41
0.933333333333333
 72
     1
 11
3.09451434965196
 21
-177.246464952743
 31
0.0
 73
     2
  0
LINE
  5
   273
  8
0
  6
CONTINUOUS
 62
     7
 10
39.1070162159159
 20
-166.184449218642
 30
0.0
 11
39.1070162159159
 21
-181.7464649421
 31
0.0
  0
LINE
  5
   274
  8
0
  6
CONTINUOUS
 62
     7
 10
-13.3929828900144
 20
-163.317753852264
 30
0.0
 11
-13.3929828900144
 21
-181.7464649421
 31
0.0
  0
LINE
  5
   275
  8
0
  6
CONTINUOUS
 62
     7
 10
39.1070162159159
 20
-179.7464649421
 30
0.0
 11
-13.3929828900144
 21
-179.7464649421
 31
0.0
  0
LINE
  5
   276
  8
0
  6
CONTINUOUS
 62
     7
 10
36.152592938709
 20
-180.267409372051
 30
0.0
 11
39.1070162159159
 21
-179.7464649421
 31
0.0
  0
LINE
  5
   277
  8
0
  6
CONTINUOUS
 62
     7
 10
39.1070162159159
 20
-179.7464649421
 30
0.0
 11
36.152592938709
 21
-179.225520512148
 31
0.0
  0
LINE
  5
   278
  8
0
  6
CONTINUOUS
 62
     7
 10
-10.4385596128075
 20
-179.225520512148
 30
0.0
 11
-13.3929828900144
 21
-179.7464649421
 31
0.0
  0
LINE
  5
   279
  8
0
  6
CONTINUOUS
 62
     7
 10
-13.3929828900144
 20
-179.7464649421
 30
0.0
 11
-10.4385596128075
 21
-180.267409372051
 31
0.0
  0
ENDBLK
  5
   27A
  8
0
  6
CONTINUOUS
 62
     7
  0
BLOCK
  5
   27B
  8
0
  6
CONTINUOUS
 62
   218
  2
*UDIM349
 70
    65
 10
0.0
 20
0.0
 30
0.0
  3
*UDIM349
  0
TEXT
  5
   27C
  8
0
  6
CONTINUOUS
 62
   218
 10
91.4609250763588
 20
-123.465313632759
 30
0.0
 40
3.00000001532688
  1
205
 41
0.933333333333334
 72
     1
 11
95.3609250962837
 21
-121.965313625095
 31
0.0
 73
     2
  0
LINE
  5
   27D
  8
0
  6
CONTINUOUS
 62
   218
 10
59.7591361999512
 20
-122.087844737152
 30
0.0
 11
59.7591361999512
 21
-126.465313632759
 31
0.0
  0
LINE
  5
   27E
  8
0
  6
CONTINUOUS
 62
   218
 10
59.7591361999512
 20
-124.465313632759
 30
0.0
 11
131.51271384105
 21
-124.465313632759
 31
0.0
  0
LINE
  5
   27F
  8
0
  6
CONTINUOUS
 62
   218
 10
62.7135594771581
 20
-123.944369202807
 30
0.0
 11
59.7591361999512
 21
-124.465313632759
 31
0.0
  0
LINE
  5
   280
  8
0
  6
CONTINUOUS
 62
   218
 10
59.7591361999512
 20
-124.465313632759
 30
0.0
 11
62.7135594771581
 21
-124.98625806271
 31
0.0
  0
LINE
  5
   281
  8
0
  6
CONTINUOUS
 62
   218
 10
128.558290563843
 20
-124.98625806271
 30
0.0
 11
131.51271384105
 21
-124.465313632759
 31
0.0
  0
LINE
  5
   282
  8
0
  6
CONTINUOUS
 62
   218
 10
131.51271384105
 20
-124.465313632759
 30
0.0
 11
128.558290563843
 21
-123.944369202807
 31
0.0
  0
ENDBLK
  5
   283
  8
0
  6
CONTINUOUS
 62
   218
  0
BLOCK
  5
   284
  8
0
  6
CONTINUOUS
 62
   218
  2
*UDIM350
 70
    65
 10
0.0
 20
0.0
 30
0.0
  3
*UDIM350
  0
TEXT
  5
   285
  8
0
  6
CONTINUOUS
 62
   218
 10
118.784123327392
 20
11.4956413575292
 30
0.0
 40
3.00000001532688
  1
 
 41
0.933333333333333
 72
     1
 11
119.884123333012
 21
12.9956413651926
 31
0.0
 73
     2
  0
LINE
  5
   286
  8
0
  6
CONTINUOUS
 62
   218
 10
108.934125834704
 20
-28.5129741057185
 30
0.0
 11
108.934125834704
 21
12.4956413575292
 31
0.0
  0
LINE
  5
   287
  8
0
  6
CONTINUOUS
 62
   218
 10
134.134123259783
 20
-4.68383367366845
 30
0.0
 11
134.134123259783
 21
12.4956413575292
 31
0.0
  0
LINE
  5
   288
  8
0
  6
CONTINUOUS
 62
   218
 10
108.934125834704
 20
10.4956413575292
 30
0.0
 11
134.134123259783
 21
10.4956413575292
 31
0.0
  0
LINE
  5
   289
  8
0
  6
CONTINUOUS
 62
   218
 10
111.888549111911
 20
11.0165857874808
 30
0.0
 11
108.934125834704
 21
10.4956413575292
 31
0.0
  0
LINE
  5
   28A
  8
0
  6
CONTINUOUS
 62
   218
 10
108.934125834704
 20
10.4956413575292
 30
0.0
 11
111.888549111911
 21
9.9746969275775
 31
0.0
  0
LINE
  5
   28B
  8
0
  6
CONTINUOUS
 62
   218
 10
131.179699982576
 20
9.9746969275775
 30
0.0
 11
134.134123259783
 21
10.4956413575292
 31
0.0
  0
LINE
  5
   28C
  8
0
  6
CONTINUOUS
 62
   218
 10
134.134123259783
 20
10.4956413575292
 30
0.0
 11
131.179699982576
 21
11.0165857874808
 31
0.0
  0
ENDBLK
  5
   28D
  8
0
  6
CONTINUOUS
 62
   218
  0
BLOCK
  5
   28E
  8
0
  6
CONTINUOUS
 62
     7
  2
*UDIM351
 70
    65
 10
0.0
 20
0.0
 30
0.0
  3
*UDIM351
  0
TEXT
  5
   28F
  8
0
  6
CONTINUOUS
 62
     7
 10
142.384120881984
 20
11.4956413575292
 30
0.0
 40
3.00000001532688
  1
63
 41
0.933333333333333
 72
     1
 11
144.884120894756
 21
12.9956413651926
 31
0.0
 73
     2
  0
LINE
  5
   290
  8
0
  6
CONTINUOUS
 62
     7
 10
134.134123259783
 20
-4.68383367366845
 30
0.0
 11
134.134123259783
 21
12.4956413575292
 31
0.0
  0
LINE
  5
   291
  8
0
  6
CONTINUOUS
 62
     7
 10
156.184121006728
 20
-27.1865395964134
 30
0.0
 11
156.184121006728
 21
12.4956413575292
 31
0.0
  0
LINE
  5
   292
  8
0
  6
CONTINUOUS
 62
     7
 10
134.134123259783
 20
10.4956413575292
 30
0.0
 11
156.184121006728
 21
10.4956413575292
 31
0.0
  0
LINE
  5
   293
  8
0
  6
CONTINUOUS
 62
     7
 10
137.08854653699
 20
11.0165857874808
 30
0.0
 11
134.134123259783
 21
10.4956413575292
 31
0.0
  0
LINE
  5
   294
  8
0
  6
CONTINUOUS
 62
     7
 10
134.134123259783
 20
10.4956413575292
 30
0.0
 11
137.08854653699
 21
9.9746969275775
 31
0.0
  0
LINE
  5
   295
  8
0
  6
CONTINUOUS
 62
     7
 10
153.229697729521
 20
9.9746969275775
 30
0.0
 11
156.184121006728
 21
10.4956413575292
 31
0.0
  0
LINE
  5
   296
  8
0
  6
CONTINUOUS
 62
     7
 10
156.184121006728
 20
10.4956413575292
 30
0.0
 11
153.229697729521
 21
11.0165857874808
 31
0.0
  0
ENDBLK
  5
   297
  8
0
  6
CONTINUOUS
 62
     7
  0
BLOCK
  5
   298
  8
0
  6
CONTINUOUS
 62
   218
  2
*UDIM352
 70
    65
 10
0.0
 20
0.0
 30
0.0
  3
*UDIM352
  0
TEXT
  5
   299
  8
0
  6
CONTINUOUS
 62
   218
 10
126.135446966113
 20
-119.026430114153
 30
0.0
 40
3.00000001532688
  1
 
 41
0.933333333333333
 72
     1
 11
127.235446971733
 21
-117.52643010649
 31
0.0
 73
     2
  0
LINE
  5
   29A
  8
0
  6
CONTINUOUS
 62
   218
 10
116.986768451064
 20
-38.8254839374658
 30
0.0
 11
116.986768451064
 21
-122.026430114153
 31
0.0
  0
LINE
  5
   29B
  8
0
  6
CONTINUOUS
 62
   218
 10
140.78412258029
 20
-38.1254840089914
 30
0.0
 11
140.78412258029
 21
-122.026430114153
 31
0.0
  0
LINE
  5
   29C
  8
0
  6
CONTINUOUS
 62
   218
 10
116.986768451064
 20
-120.026430114153
 30
0.0
 11
140.78412258029
 21
-120.026430114153
 31
0.0
  0
LINE
  5
   29D
  8
0
  6
CONTINUOUS
 62
   218
 10
119.94119172827
 20
-119.505485684202
 30
0.0
 11
116.986768451064
 21
-120.026430114153
 31
0.0
  0
LINE
  5
   29E
  8
0
  6
CONTINUOUS
 62
   218
 10
116.986768451064
 20
-120.026430114153
 30
0.0
 11
119.94119172827
 21
-120.547374544105
 31
0.0
  0
LINE
  5
   29F
  8
0
  6
CONTINUOUS
 62
   218
 10
137.829699303083
 20
-120.547374544105
 30
0.0
 11
140.78412258029
 21
-120.026430114153
 31
0.0
  0
LINE
  5
   2A0
  8
0
  6
CONTINUOUS
 62
   218
 10
140.78412258029
 20
-120.026430114153
 30
0.0
 11
137.829699303083
 21
-119.505485684202
 31
0.0
  0
ENDBLK
  5
   2A1
  8
0
  6
CONTINUOUS
 62
   218
  0
BLOCK
  5
   2A2
  8
0
  6
CONTINUOUS
 62
   218
  2
*UDIM353
 70
    65
 10
0.0
 20
0.0
 30
0.0
  3
*UDIM353
  0
TEXT
  5
   2A3
  8
0
  6
CONTINUOUS
 62
   218
 10
110.503330239619
 20
4.20603833006084
 30
0.0
 40
3.00000001532688
  1
23
 41
0.933333333333333
 72
     1
 11
113.003330252391
 21
5.70603833772428
 31
0.0
 73
     2
  0
LINE
  5
   2A4
  8
0
  6
CONTINUOUS
 62
   218
 10
108.934125834704
 20
-28.5129741057185
 30
0.0
 11
108.934125834704
 21
5.20603797431964
 31
0.0
  0
LINE
  5
   2A5
  8
0
  6
CONTINUOUS
 62
   218
 10
116.986768451064
 20
-33.3254842950937
 30
0.0
 11
116.986768451064
 21
5.20603867830413
 31
0.0
  0
LINE
  5
   2A6
  8
0
  6
CONTINUOUS
 62
   218
 10
108.934125834704
 20
3.20603797431963
 30
0.0
 11
116.986768451064
 21
3.20603867830413
 31
0.0
  0
LINE
  5
   2A7
  8
0
  6
CONTINUOUS
 62
   218
 10
111.888549066369
 20
3.72698266255523
 30
0.0
 11
108.934125834704
 21
3.20603797431963
 31
0.0
  0
LINE
  5
   2A8
  8
0
  6
CONTINUOUS
 62
   218
 10
108.934125834704
 20
3.20603797431963
 30
0.0
 11
111.888549157453
 21
2.68509380265189
 31
0.0
  0
LINE
  5
   2A9
  8
0
  6
CONTINUOUS
 62
   218
 10
114.032345219399
 20
2.68509399006852
 30
0.0
 11
116.986768451064
 21
3.20603867830413
 31
0.0
  0
LINE
  5
   2AA
  8
0
  6
CONTINUOUS
 62
   218
 10
116.986768451064
 20
3.20603867830413
 30
0.0
 11
114.032345128314
 21
3.72698284997186
 31
0.0
  0
ENDBLK
  5
   2AB
  8
0
  6
CONTINUOUS
 62
   218
  0
BLOCK
  5
   2AC
  8
0
  6
CONTINUOUS
 62
     7
  2
*UDIM354
 70
    65
 10
0.0
 20
0.0
 30
0.0
  3
*UDIM354
  0
TEXT
  5
   2AD
  8
0
  6
CONTINUOUS
 62
     7
 10
134.382581931788
 20
4.20603833722058
 30
0.0
 40
3.00000001532688
  1
19
 41
0.933333333333333
 72
     1
 11
136.88258194456
 21
5.70603834488402
 31
0.0
 73
     2
  0
LINE
  5
   2AE
  8
0
  6
CONTINUOUS
 62
     7
 10
134.134123259783
 20
-4.68383367366845
 30
0.0
 11
134.134123259783
 21
5.20603809694265
 31
0.0
  0
LINE
  5
   2AF
  8
0
  6
CONTINUOUS
 62
     7
 10
140.78412258029
 20
-34.0254842235681
 30
0.0
 11
140.78412258029
 21
5.20603867830414
 31
0.0
  0
LINE
  5
   2B0
  8
0
  6
CONTINUOUS
 62
     7
 10
134.134123259783
 20
3.20603809694263
 30
0.0
 11
140.78412258029
 21
3.20603867830414
 31
0.0
  0
LINE
  5
   2B1
  8
0
  6
CONTINUOUS
 62
     7
 10
131.179700028119
 20
2.68509340870705
 30
0.0
 11
134.134123259783
 21
3.20603809694263
 31
0.0
  0
LINE
  5
   2B2
  8
0
  6
CONTINUOUS
 62
     7
 10
134.134123259783
 20
3.20603809694263
 30
0.0
 11
131.179699937034
 21
3.72698226861037
 31
0.0
  0
LINE
  5
   2B3
  8
0
  6
CONTINUOUS
 62
     7
 10
143.738545811955
 20
3.72698336653973
 30
0.0
 11
140.78412258029
 21
3.20603867830414
 31
0.0
  0
LINE
  5
   2B4
  8
0
  6
CONTINUOUS
 62
     7
 10
140.78412258029
 20
3.20603867830414
 30
0.0
 11
143.73854590304
 21
2.6850945066364
 31
0.0
  0
ENDBLK
  5
   2B5
  8
0
  6
CONTINUOUS
 62
     7
  0
BLOCK
  5
   2B6
  8
0
  6
CONTINUOUS
 62
     7
  2
*UDIM355
 70
    65
 10
0.0
 20
0.0
 30
0.0
  3
*UDIM355
  0
TEXT
  5
   2B7
  8
0
  6
CONTINUOUS
 62
     7
 10
137.134121996783
 20
-68.6017048694453
 30
0.0
 40
3.00000001532688
  1
2
 41
0.933333333333333
 72
     1
 11
138.234122002403
 21
-67.1017048617819
 31
0.0
 73
     2
  0
LINE
  5
   2B8
  8
0
  6
CONTINUOUS
 62
     7
 10
133.434123331309
 20
-63.4431454237903
 30
0.0
 11
133.434123331309
 21
-71.6017052890746
 31
0.0
  0
LINE
  5
   2B9
  8
0
  6
CONTINUOUS
 62
     7
 10
134.134123259783
 20
-59.4753522650809
 30
0.0
 11
134.134123259783
 21
-71.6017052278786
 31
0.0
  0
LINE
  5
   2BA
  8
0
  6
CONTINUOUS
 62
     7
 10
133.434123331309
 20
-69.6017052890746
 30
0.0
 11
139.334122357714
 21
-69.6017047732802
 31
0.0
  0
LINE
  5
   2BB
  8
0
  6
CONTINUOUS
 62
     7
 10
130.479700099644
 20
-70.1226499773101
 30
0.0
 11
133.434123331309
 21
-69.6017052890746
 31
0.0
  0
LINE
  5
   2BC
  8
0
  6
CONTINUOUS
 62
     7
 10
133.434123331309
 20
-69.6017052890746
 30
0.0
 11
130.47970000856
 21
-69.0807611174068
 31
0.0
  0
LINE
  5
   2BD
  8
0
  6
CONTINUOUS
 62
     7
 10
137.088546491448
 20
-69.0807605396431
 30
0.0
 11
134.134123259783
 21
-69.6017052278786
 31
0.0
  0
LINE
  5
   2BE
  8
0
  6
CONTINUOUS
 62
     7
 10
134.134123259783
 20
-69.6017052278786
 30
0.0
 11
137.088546582533
 21
-70.1226493995464
 31
0.0
  0
ENDBLK
  5
   2BF
  8
0
  6
CONTINUOUS
 62
     7
  0
BLOCK
  5
   2C0
  8
0
  6
CONTINUOUS
 62
     7
  2
*UDIM356
 70
    65
 10
0.0
 20
0.0
 30
0.0
  3
*UDIM356
  0
TEXT
  5
   2C1
  8
0
  6
CONTINUOUS
 62
     7
 10
166.853585927853
 20
11.4956418361693
 30
0.0
 40
3.00000001532688
  1
22
 41
0.933333333333333
 72
     1
 11
169.353585940626
 21
12.9956418438327
 31
0.0
 73
     2
  0
LINE
  5
   2C2
  8
0
  6
CONTINUOUS
 62
     7
 10
156.184121006728
 20
-31.4491996115158
 30
0.0
 11
156.184121006728
 21
12.4956406848579
 31
0.0
  0
LINE
  5
   2C3
  8
0
  6
CONTINUOUS
 62
     7
 10
163.878581094526
 20
-45.1066041784122
 30
0.0
 11
163.878581094526
 21
12.4956413575291
 31
0.0
  0
LINE
  5
   2C4
  8
0
  6
CONTINUOUS
 62
     7
 10
156.184121006728
 20
10.4956406848579
 30
0.0
 11
171.853586303089
 21
10.4956420547263
 31
0.0
  0
LINE
  5
   2C5
  8
0
  6
CONTINUOUS
 62
     7
 10
153.229697775063
 20
9.97469599662232
 30
0.0
 11
156.184121006728
 21
10.4956406848579
 31
0.0
  0
LINE
  5
   2C6
  8
0
  6
CONTINUOUS
 62
     7
 10
156.184121006728
 20
10.4956406848579
 30
0.0
 11
153.229697683978
 21
11.0165848565256
 31
0.0
  0
LINE
  5
   2C7
  8
0
  6
CONTINUOUS
 62
     7
 10
166.833004326191
 20
11.0165860457647
 30
0.0
 11
163.878581094526
 21
10.4956413575291
 31
0.0
  0
LINE
  5
   2C8
  8
0
  6
CONTINUOUS
 62
     7
 10
163.878581094526
 20
10.4956413575291
 30
0.0
 11
166.833004417276
 21
9.97469718586134
 31
0.0
  0
ENDBLK
  5
   2C9
  8
0
  6
CONTINUOUS
 62
     7
  0
BLOCK
  5
   2CA
  8
0
  6
CONTINUOUS
 62
     7
  2
*UDIM357
 70
    65
 10
0.0
 20
0.0
 30
0.0
  3
*UDIM357
  0
TEXT
  5
   2CB
  8
0
  6
CONTINUOUS
 62
     7
 10
77.3716251910019
 20
38.7967707700645
 30
0.0
 40
3.00000001532688
  1
140,5
 41
0.933333333333333
 72
     1
 11
84.071625225232
 21
40.296770777728
 31
0.0
 73
     2
  0
LINE
  5
   2CC
  8
0
  6
CONTINUOUS
 62
     7
 10
59.7591361999512
 20
35.2704366152974
 30
0.0
 11
59.7591361999512
 21
39.7967707700645
 31
0.0
  0
LINE
  5
   2CD
  8
0
  6
CONTINUOUS
 62
     7
 10
108.934114933412
 20
-28.5129925549009
 30
0.0
 11
108.934114933412
 21
39.7967707700645
 31
0.0
  0
LINE
  5
   2CE
  8
0
  6
CONTINUOUS
 62
     7
 10
59.7591361999512
 20
37.7967707700645
 30
0.0
 11
108.934114933412
 21
37.7967707700645
 31
0.0
  0
LINE
  5
   2CF
  8
0
  6
CONTINUOUS
 62
     7
 10
62.7135594771581
 20
38.3177152000162
 30
0.0
 11
59.7591361999512
 21
37.7967707700645
 31
0.0
  0
LINE
  5
   2D0
  8
0
  6
CONTINUOUS
 62
     7
 10
59.7591361999512
 20
37.7967707700645
 30
0.0
 11
62.7135594771581
 21
37.2758263401129
 31
0.0
  0
LINE
  5
   2D1
  8
0
  6
CONTINUOUS
 62
     7
 10
105.979691656205
 20
37.2758263401129
 30
0.0
 11
108.934114933412
 21
37.7967707700645
 31
0.0
  0
LINE
  5
   2D2
  8
0
  6
CONTINUOUS
 62
     7
 10
108.934114933412
 20
37.7967707700645
 30
0.0
 11
105.979691656205
 21
38.3177152000162
 31
0.0
  0
ENDBLK
  5
   2D3
  8
0
  6
CONTINUOUS
 62
     7
  0
ENDSEC
  0
SECTION
  2
ENTITIES
  0
LINE
  5
   2D4
  8
0
  6
DASHDOT
 62
     7
 10
1.13201665878296
 20
-33.4593241632605
 30
0.0
 11
1.13201665878296
 21
36.6639126805291
 31
0.0
  0
LINE
  5
   2D5
  8
0
  6
DASHDOT
 62
     7
 10
-9.61936286714899
 20
-45.8754908829906
 30
0.0
 11
-65.5249421781788
 21
-45.8754908829906
 31
0.0
  0
LINE
  5
   2D6
  8
0
  6
CONTINUOUS
 62
   253
 10
-10.0896038830148
 20
-25.9253342974431
 30
0.0
 11
-10.094223481002
 21
-25.9229791035409
 31
0.0
  0
LINE
  5
   2D7
  8
0
  6
CONTINUOUS
 62
   253
 10
-16.6963586073729
 20
-25.9253351721097
 30
0.0
 11
-16.691736339053
 21
-25.9229799782592
 31
0.0
  0
LINE
  5
   2D8
  8
0
  6
CONTINUOUS
 62
   253
 10
11.6320786126678
 20
-21.7253355797106
 30
0.0
 11
-24.4179203740529
 21
-21.7253355797106
 31
0.0
  0
LINE
  5
   2D9
  8
0
  6
CONTINUOUS
 62
   253
 10
-24.6654073710598
 20
-21.8278471445281
 30
0.0
 11
-24.4179197559237
 21
-21.7253347952046
 31
0.0
  0
LINE
  5
   2DA
  8
0
  6
CONTINUOUS
 62
   253
 10
-24.7679198749233
 20
-22.0753343282722
 30
0.0
 11
-24.6654075255998
 21
-21.8278467131361
 31
0.0
  0
LINE
  5
   2DB
  8
0
  6
CONTINUOUS
 62
   253
 10
-24.7679203382902
 20
-58.1253745849858
 30
0.0
 11
-24.7679203382902
 21
-22.0753355439479
 31
0.0
  0
LINE
  5
   2DC
  8
0
  6
CONTINUOUS
 62
   253
 10
-24.6654078197044
 20
-58.372861868494
 30
0.0
 11
-24.7679201690279
 21
-58.1253742533579
 31
0.0
  0
LINE
  5
   2DD
  8
0
  6
CONTINUOUS
 62
   253
 10
-24.4179210909351
 20
-58.4753429006599
 30
0.0
 11
-24.6654087123924
 21
-58.3728625954439
 31
0.0
  0
LINE
  5
   2DE
  8
0
  6
CONTINUOUS
 62
   253
 10
11.6320786126678
 20
-58.4753425057693
 30
0.0
 11
-24.4179203740529
 21
-58.4753425057693
 31
0.0
  0
LINE
  5
   2DF
  8
0
  6
CONTINUOUS
 62
   253
 10
11.6320758964944
 20
-58.4753435543047
 30
0.0
 11
11.8795635179517
 21
-58.3728632490887
 31
0.0
  0
LINE
  5
   2E0
  8
0
  6
CONTINUOUS
 62
   253
 10
11.8795670086186
 20
-58.3728615754311
 30
0.0
 11
11.9820793579422
 21
-58.125373960295
 31
0.0
  0
LINE
  5
   2E1
  8
0
  6
CONTINUOUS
 62
   253
 10
11.982078576905
 20
-30.4754949029098
 30
0.0
 11
11.982078576905
 21
-22.0753355439479
 31
0.0
  0
LINE
  5
   2E2
  8
0
  6
CONTINUOUS
 62
   253
 10
11.9820790638375
 20
-22.0753346213351
 30
0.0
 11
11.879566714514
 21
-21.827847006199
 31
0.0
  0
LINE
  5
   2E3
  8
0
  6
CONTINUOUS
 62
   253
 10
11.8795671407609
 20
-21.8278474355394
 30
0.0
 11
11.6320795256248
 21
-21.7253350862159
 31
0.0
  0
LINE
  5
   2E4
  8
0
  6
CONTINUOUS
 62
   253
 10
-18.3755263533996
 20
-58.4391040298578
 30
0.0
 11
-18.3755263533996
 21
-43.8181887757673
 31
0.0
  0
LINE
  5
   2E5
  8
0
  6
CONTINUOUS
 62
   253
 10
-18.0255263891624
 20
-58.4391040298578
 30
0.0
 11
-18.0255263891624
 21
-43.9965239473645
 31
0.0
  0
LINE
  5
   2E6
  8
0
  6
CONTINUOUS
 62
   253
 10
-8.75052733687626
 20
-58.4391040298578
 30
0.0
 11
-8.75052733687626
 21
-43.9914771033978
 31
0.0
  0
LINE
  5
   2E7
  8
0
  6
CONTINUOUS
 62
   253
 10
-8.40052737263904
 20
-58.4391040298578
 30
0.0
 11
-8.40052737263904
 21
-43.8131419318006
 31
0.0
  0
LINE
  5
   2E8
  8
0
  6
CONTINUOUS
 62
   253
 10
11.1945252516151
 20
-25.9253351505572
 30
0.0
 11
-23.9804738245127
 21
-25.9253351505572
 31
0.0
  0
LINE
  5
   2E9
  8
0
  6
CONTINUOUS
 62
   253
 10
11.1945252516151
 20
-22.4253355081851
 30
0.0
 11
-23.9804738245127
 21
-22.4253355081851
 31
0.0
  0
LINE
  5
   2EA
  8
0
  6
CONTINUOUS
 62
   253
 10
-23.9804738245127
 20
-25.9253351505572
 30
0.0
 11
-23.9804738245127
 21
-22.4253355081851
 31
0.0
  0
LINE
  5
   2EB
  8
0
  6
CONTINUOUS
 62
   253
 10
11.1945252516151
 20
-25.9253351505572
 30
0.0
 11
11.1945252516151
 21
-22.4253355081851
 31
0.0
  0
LINE
  5
   2EC
  8
0
  6
CONTINUOUS
 62
   253
 10
-24.3304203829936
 20
-58.0378318693215
 30
0.0
 11
-24.3304203829936
 21
-22.1628355350072
 31
0.0
  0
LINE
  5
   2ED
  8
0
  6
CONTINUOUS
 62
   253
 10
11.5445786216085
 20
-30.4754949029098
 30
0.0
 11
11.5445786216085
 21
-22.1628355350072
 31
0.0
  0
LINE
  5
   2EE
  8
0
  6
CONTINUOUS
 62
   253
 10
-18.3755263533996
 20
-58.0378318693215
 30
0.0
 11
-24.3304203829936
 21
-58.0378318693215
 31
0.0
  0
LINE
  5
   2EF
  8
0
  6
CONTINUOUS
 62
   253
 10
-24.6397771918383
 20
-58.347188651153
 30
0.0
 11
-24.3304176613661
 21
-58.0378291206807
 31
0.0
  0
LINE
  5
   2F0
  8
0
  6
CONTINUOUS
 62
   253
 10
-8.75052733687626
 20
-58.0378318693215
 30
0.0
 11
-18.0255263891624
 21
-58.0378318693215
 31
0.0
  0
LINE
  5
   2F1
  8
0
  6
CONTINUOUS
 62
   253
 10
11.8539324275836
 20
-58.3471915437841
 30
0.0
 11
11.5445742502518
 21
-58.0378320365252
 31
0.0
  0
LINE
  5
   2F2
  8
0
  6
CONTINUOUS
 62
   253
 10
11.5445786216085
 20
-58.0378318693215
 30
0.0
 11
-8.40052737263904
 21
-58.0378318693215
 31
0.0
  0
LINE
  5
   2F3
  8
0
  6
CONTINUOUS
 62
   253
 10
11.8795609489963
 20
-58.372862353907
 30
0.0
 11
11.8539315275488
 21
-58.3471915425369
 31
0.0
  0
LINE
  5
   2F4
  8
0
  6
CONTINUOUS
 62
   253
 10
-24.6654099647175
 20
-58.372864197249
 30
0.0
 11
-24.6397818783169
 21
-58.3471933858327
 31
0.0
  0
LINE
  5
   2F5
  8
0
  6
CONTINUOUS
 62
   253
 10
-24.6397799242301
 20
-21.8534786136608
 30
0.0
 11
-24.6654080117389
 21
-21.8278491910603
 31
0.0
  0
LINE
  5
   2F6
  8
0
  6
CONTINUOUS
 62
   253
 10
11.8539443916486
 20
-21.853469737954
 30
0.0
 11
11.8795738145204
 21
-21.8278403150823
 31
0.0
  0
LINE
  5
   2F7
  8
0
  6
CONTINUOUS
 62
   253
 10
11.5445786216085
 20
-22.1628355350072
 30
0.0
 11
-24.3304203829936
 21
-22.1628355350072
 31
0.0
  0
LINE
  5
   2F8
  8
0
  6
CONTINUOUS
 62
   253
 10
11.5445767003124
 20
-22.162837463185
 30
0.0
 11
11.8539348770821
 21
-21.8534792864153
 31
0.0
  0
LINE
  5
   2F9
  8
0
  6
CONTINUOUS
 62
   253
 10
-24.3304205025408
 20
-22.1628399540201
 30
0.0
 11
-24.6397800097997
 21
-21.8534817766884
 31
0.0
  0
LINE
  5
   2FA
  8
0
  6
CONTINUOUS
 62
   253
 10
-18.0255263891624
 20
-58.4391040298579
 30
0.0
 11
-18.3755263533996
 21
-58.4391040298579
 31
0.0
  0
LINE
  5
   2FB
  8
0
  6
CONTINUOUS
 62
   253
 10
-8.40052737263904
 20
-58.4391040298579
 30
0.0
 11
-8.75052733687626
 21
-58.4391040298579
 31
0.0
  0
LINE
  5
   2FC
  8
0
  6
DASHDOT
 62
     7
 10
-13.3929835413471
 20
-61.1182541156451
 30
0.0
 11
-13.3929835413471
 21
-26.100495986797
 31
0.0
  0
LINE
  5
   2FD
  8
0
  6
DASHDOT
 62
     7
 10
22.4867801674732
 20
-36.0755281017125
 30
0.0
 11
-23.3680156562625
 21
-36.0755281017125
 31
0.0
  0
LINE
  5
   2FE
  8
0
  6
CONTINUOUS
 62
     1
 10
37.7944915503285
 20
-0.462979501485279
 30
0.0
 11
37.7582717664318
 21
-0.462979501485279
 31
0.0
  0
LINE
  5
   2FF
  8
0
  6
CONTINUOUS
 62
     1
 10
-35.2679689407356
 20
-89.0129602926967
 30
0.0
 11
-35.2679689407356
 21
-88.6629603284595
 31
0.0
  0
LINE
  5
   300
  8
0
  6
DASHDOT
 62
     7
 10
25.6320141553879
 20
2.39209239672566
 30
0.0
 11
25.6320141553879
 21
31.6603991820338
 31
0.0
  0
LINE
  5
   301
  8
0
  6
CONTINUOUS
 62
   130
 10
17.7570149600506
 20
3.38693999648967
 30
0.0
 11
17.7570149600506
 21
3.56193997860828
 31
0.0
  0
LINE
  5
   302
  8
0
  6
CONTINUOUS
 62
   130
 10
33.5070133507252
 20
3.38693999648967
 30
0.0
 11
33.5070133507252
 21
3.56193997860828
 31
0.0
  0
LINE
  5
   303
  8
0
  6
CONTINUOUS
 62
     1
 10
-34.521896982371
 20
-74.6629659196335
 30
0.0
 11
-59.6804557651365
 21
-74.6628766593152
 31
0.0
  0
LINE
  5
   304
  8
0
  6
CONTINUOUS
 62
     1
 10
36.7859303001122
 20
-74.6629659196335
 30
0.0
 11
37.4444873616618
 21
-74.6629635831319
 31
0.0
  0
LINE
  5
   305
  8
0
  6
CONTINUOUS
 62
     1
 10
37.8820121161384
 20
-0.987974107265472
 30
0.0
 11
-60.1179762951774
 21
-0.987974107265472
 31
0.0
  0
LINE
  5
   306
  8
0
  6
CONTINUOUS
 62
     1
 10
36.7859291839004
 20
-74.6629662454129
 30
0.0
 11
-34.5218905257589
 21
-74.6629662454129
 31
0.0
  0
LINE
  5
   307
  8
0
  6
CONTINUOUS
 62
     1
 10
37.7945022314798
 20
-74.3129662811756
 30
0.0
 11
-60.1179659831925
 21
-74.3129662811756
 31
0.0
  0
LINE
  5
   308
  8
0
  6
CONTINUOUS
 62
     1
 10
-24.7854764205222
 20
-29.5129925549008
 30
0.0
 11
-60.1179664015772
 21
-29.5129925549008
 31
0.0
  0
LINE
  5
   309
  8
0
  6
CONTINUOUS
 62
     1
 10
37.7945022314798
 20
-66.2629731118673
 30
0.0
 11
25.282008850575
 21
-66.2629731118673
 31
0.0
  0
LINE
  5
   30A
  8
0
  6
CONTINUOUS
 62
     1
 10
25.7894970494526
 20
-66.2629731118673
 30
0.0
 11
-60.117967115295
 21
-66.2629731118673
 31
0.0
  0
LINE
  5
   30B
  8
0
  6
CONTINUOUS
 62
     1
 10
-34.8654711180934
 20
-29.5129925549008
 30
0.0
 11
-34.8654711180934
 21
-0.987979447841099
 31
0.0
  0
LINE
  5
   30C
  8
0
  6
CONTINUOUS
 62
     1
 10
-33.6054584294579
 20
-29.5129925549008
 30
0.0
 11
-33.6054584294579
 21
-0.987979447841099
 31
0.0
  0
LINE
  5
   30D
  8
0
  6
CONTINUOUS
 62
     1
 10
-32.345467103125
 20
-29.5129925549008
 30
0.0
 11
-32.345467103125
 21
-0.987979447841099
 31
0.0
  0
LINE
  5
   30E
  8
0
  6
CONTINUOUS
 62
     1
 10
-31.085475776792
 20
-29.5129925549008
 30
0.0
 11
-31.085475776792
 21
-0.987979447841099
 31
0.0
  0
LINE
  5
   30F
  8
0
  6
CONTINUOUS
 62
     1
 10
-29.8254630881565
 20
-29.5129925549008
 30
0.0
 11
-29.8254630881565
 21
-0.987979447841099
 31
0.0
  0
LINE
  5
   310
  8
0
  6
CONTINUOUS
 62
     1
 10
-28.5654717618236
 20
-29.5129925549008
 30
0.0
 11
-28.5654717618236
 21
-0.987979447841099
 31
0.0
  0
LINE
  5
   311
  8
0
  6
CONTINUOUS
 62
     1
 10
-27.3054590731881
 20
-29.5129925549008
 30
0.0
 11
-27.3054590731881
 21
-0.987979447841099
 31
0.0
  0
LINE
  5
   312
  8
0
  6
CONTINUOUS
 62
     1
 10
-26.0454677468551
 20
-29.5129925549008
 30
0.0
 11
-26.0454677468551
 21
-0.987979447841099
 31
0.0
  0
LINE
  5
   313
  8
0
  6
CONTINUOUS
 62
     1
 10
-24.7854764205222
 20
-29.5129925549008
 30
0.0
 11
-24.7854764205222
 21
-0.987979447841099
 31
0.0
  0
LINE
  5
   314
  8
0
  6
CONTINUOUS
 62
     1
 10
-23.5254637318867
 20
-21.7253355797106
 30
0.0
 11
-23.5254637318867
 21
-0.987979447841099
 31
0.0
  0
LINE
  5
   315
  8
0
  6
CONTINUOUS
 62
     1
 10
-34.8654711180934
 20
-66.2629620969301
 30
0.0
 11
-34.8654711180934
 21
-29.5129925549008
 31
0.0
  0
LINE
  5
   316
  8
0
  6
CONTINUOUS
 62
     1
 10
-33.6054584294579
 20
-66.2629620969301
 30
0.0
 11
-33.6054584294579
 21
-29.5129925549008
 31
0.0
  0
LINE
  5
   317
  8
0
  6
CONTINUOUS
 62
     1
 10
-32.345467103125
 20
-66.2629620969301
 30
0.0
 11
-32.345467103125
 21
-29.5129925549008
 31
0.0
  0
LINE
  5
   318
  8
0
  6
CONTINUOUS
 62
     1
 10
-31.085475776792
 20
-66.2629620969301
 30
0.0
 11
-31.085475776792
 21
-29.5129925549008
 31
0.0
  0
LINE
  5
   319
  8
0
  6
CONTINUOUS
 62
     1
 10
-29.8254630881565
 20
-66.2629620969301
 30
0.0
 11
-29.8254630881565
 21
-29.5129925549008
 31
0.0
  0
LINE
  5
   31A
  8
0
  6
CONTINUOUS
 62
     1
 10
-28.5654717618236
 20
-66.2629620969301
 30
0.0
 11
-28.5654717618236
 21
-29.5129925549008
 31
0.0
  0
LINE
  5
   31B
  8
0
  6
CONTINUOUS
 62
     1
 10
-27.3054590731881
 20
-66.2629620969301
 30
0.0
 11
-27.3054590731881
 21
-29.5129925549008
 31
0.0
  0
LINE
  5
   31C
  8
0
  6
CONTINUOUS
 62
     1
 10
-26.0454677468551
 20
-66.2629620969301
 30
0.0
 11
-26.0454677468551
 21
-29.5129925549008
 31
0.0
  0
LINE
  5
   31D
  8
0
  6
CONTINUOUS
 62
     1
 10
-24.7854764205222
 20
-66.2629620969301
 30
0.0
 11
-24.7854764205222
 21
-29.5129925549008
 31
0.0
  0
LINE
  5
   31E
  8
0
  6
CONTINUOUS
 62
     1
 10
-23.5254637318867
 20
-66.2629620969301
 30
0.0
 11
-23.5254637318867
 21
-58.4753425057693
 31
0.0
  0
LINE
  5
   31F
  8
0
  6
CONTINUOUS
 62
     2
 10
-34.8654711180934
 20
-114.037957735657
 30
0.0
 11
-34.8654711180934
 21
-99.672537206675
 31
0.0
  0
LINE
  5
   320
  8
0
  6
CONTINUOUS
 62
     2
 10
-33.6054584294579
 20
-114.037957735657
 30
0.0
 11
-33.6054584294579
 21
-89.0129602926967
 31
0.0
  0
LINE
  5
   321
  8
0
  6
CONTINUOUS
 62
     2
 10
-32.345467103125
 20
-114.037957735657
 30
0.0
 11
-32.345467103125
 21
-89.0129602926967
 31
0.0
  0
LINE
  5
   322
  8
0
  6
CONTINUOUS
 62
     2
 10
-31.085475776792
 20
-114.037957735657
 30
0.0
 11
-31.085475776792
 21
-89.0129602926967
 31
0.0
  0
LINE
  5
   323
  8
0
  6
CONTINUOUS
 62
     2
 10
-29.8254630881565
 20
-114.037957735657
 30
0.0
 11
-29.8254630881565
 21
-89.0129602926967
 31
0.0
  0
LINE
  5
   324
  8
0
  6
CONTINUOUS
 62
     2
 10
-28.5654717618236
 20
-114.037957735657
 30
0.0
 11
-28.5654717618236
 21
-89.0129602926967
 31
0.0
  0
LINE
  5
   325
  8
0
  6
CONTINUOUS
 62
     2
 10
-27.3054590731881
 20
-114.037957735657
 30
0.0
 11
-27.3054590731881
 21
-89.0129602926967
 31
0.0
  0
LINE
  5
   326
  8
0
  6
CONTINUOUS
 62
     2
 10
-26.0454677468551
 20
-114.037957735657
 30
0.0
 11
-26.0454677468551
 21
-89.0129602926967
 31
0.0
  0
LINE
  5
   327
  8
0
  6
CONTINUOUS
 62
     2
 10
-24.7854764205222
 20
-114.037957735657
 30
0.0
 11
-24.7854764205222
 21
-89.0129602926967
 31
0.0
  0
LINE
  5
   328
  8
0
  6
CONTINUOUS
 62
     2
 10
-23.5254637318867
 20
-88.4879624962809
 30
0.0
 11
-23.5254637318867
 21
-74.8379638910296
 31
0.0
  0
LINE
  5
   329
  8
0
  6
CONTINUOUS
 62
     1
 10
37.1295044356593
 20
-29.5129925549008
 30
0.0
 11
37.1295044356593
 21
-0.987979447841099
 31
0.0
  0
LINE
  5
   32A
  8
0
  6
CONTINUOUS
 62
     1
 10
35.8694917470239
 20
-29.5129925549008
 30
0.0
 11
35.8694917470239
 21
-0.987979447841099
 31
0.0
  0
LINE
  5
   32B
  8
0
  6
CONTINUOUS
 62
     1
 10
34.6095004206909
 20
-29.5129925549008
 30
0.0
 11
34.6095004206909
 21
-0.987979447841099
 31
0.0
  0
LINE
  5
   32C
  8
0
  6
CONTINUOUS
 62
     1
 10
33.3495090943579
 20
-29.5129925549008
 30
0.0
 11
33.3495090943579
 21
-0.987979447841099
 31
0.0
  0
LINE
  5
   32D
  8
0
  6
CONTINUOUS
 62
     1
 10
32.0894964057225
 20
-29.5129925549008
 30
0.0
 11
32.0894964057225
 21
-0.987979447841099
 31
0.0
  0
LINE
  5
   32E
  8
0
  6
CONTINUOUS
 62
     1
 10
30.8295050793895
 20
-29.5129925549008
 30
0.0
 11
30.8295050793895
 21
-0.987979447841099
 31
0.0
  0
LINE
  5
   32F
  8
0
  6
CONTINUOUS
 62
     1
 10
29.569492390754
 20
-31.7901463929051
 30
0.0
 11
29.569492390754
 21
-0.987979447841099
 31
0.0
  0
LINE
  5
   330
  8
0
  6
CONTINUOUS
 62
     1
 10
28.3095010644211
 20
-30.8023675132334
 30
0.0
 11
28.3095010644211
 21
-0.987979447841099
 31
0.0
  0
LINE
  5
   331
  8
0
  6
CONTINUOUS
 62
     1
 10
27.0495097380881
 20
-30.4754949029098
 30
0.0
 11
27.0495097380881
 21
-0.987979447841099
 31
0.0
  0
LINE
  5
   332
  8
0
  6
CONTINUOUS
 62
     1
 10
25.7894970494526
 20
-30.4754949029098
 30
0.0
 11
25.7894970494526
 21
-0.987979447841099
 31
0.0
  0
LINE
  5
   333
  8
0
  6
CONTINUOUS
 62
     1
 10
37.1295044356593
 20
-66.2629704415795
 30
0.0
 11
37.1295044356593
 21
-29.5130008995503
 31
0.0
  0
LINE
  5
   334
  8
0
  6
CONTINUOUS
 62
     1
 10
35.8694917470239
 20
-66.2629704415795
 30
0.0
 11
35.8694917470239
 21
-29.5130008995503
 31
0.0
  0
LINE
  5
   335
  8
0
  6
CONTINUOUS
 62
     1
 10
34.6095004206909
 20
-66.2629704415795
 30
0.0
 11
34.6095004206909
 21
-29.5130008995503
 31
0.0
  0
LINE
  5
   336
  8
0
  6
CONTINUOUS
 62
     1
 10
33.3495090943579
 20
-66.2629704415795
 30
0.0
 11
33.3495090943579
 21
-29.5130008995503
 31
0.0
  0
LINE
  5
   337
  8
0
  6
CONTINUOUS
 62
     1
 10
32.0894964057225
 20
-66.2629704415795
 30
0.0
 11
32.0894964057225
 21
-29.5130008995503
 31
0.0
  0
LINE
  5
   338
  8
0
  6
CONTINUOUS
 62
     1
 10
30.8295050793895
 20
-66.2629704415795
 30
0.0
 11
30.8295050793895
 21
-29.5130008995503
 31
0.0
  0
LINE
  5
   339
  8
0
  6
CONTINUOUS
 62
     1
 10
29.569492390754
 20
-66.2629704415795
 30
0.0
 11
29.569492390754
 21
-40.4553814638308
 31
0.0
  0
LINE
  5
   33A
  8
0
  6
CONTINUOUS
 62
     1
 10
28.3095010644211
 20
-66.2629704415795
 30
0.0
 11
28.3095010644211
 21
-41.3486189769864
 31
0.0
  0
LINE
  5
   33B
  8
0
  6
CONTINUOUS
 62
     1
 10
27.0495097380881
 20
-66.2629704415795
 30
0.0
 11
27.0495097380881
 21
-41.6754937585006
 31
0.0
  0
LINE
  5
   33C
  8
0
  6
CONTINUOUS
 62
     1
 10
25.7894970494526
 20
-66.2629704415795
 30
0.0
 11
25.7894970494526
 21
-41.6754937585006
 31
0.0
  0
LINE
  5
   33D
  8
0
  6
CONTINUOUS
 62
     1
 10
37.1295044356593
 20
-74.3129662811757
 30
0.0
 11
37.1295044356593
 21
-66.2629724442954
 31
0.0
  0
LINE
  5
   33E
  8
0
  6
CONTINUOUS
 62
     1
 10
35.8694917470239
 20
-74.3129662811756
 30
0.0
 11
35.8694917470239
 21
-66.2629724442954
 31
0.0
  0
LINE
  5
   33F
  8
0
  6
CONTINUOUS
 62
     1
 10
34.6095004206909
 20
-74.3129662811756
 30
0.0
 11
34.6095004206909
 21
-66.2629724442954
 31
0.0
  0
LINE
  5
   340
  8
0
  6
CONTINUOUS
 62
     1
 10
33.3495090943579
 20
-74.3129662811756
 30
0.0
 11
33.3495090943579
 21
-66.2629724442954
 31
0.0
  0
LINE
  5
   341
  8
0
  6
CONTINUOUS
 62
     1
 10
32.0894964057225
 20
-74.3129662811756
 30
0.0
 11
32.0894964057225
 21
-66.2629724442954
 31
0.0
  0
LINE
  5
   342
  8
0
  6
CONTINUOUS
 62
     1
 10
30.8295050793895
 20
-74.3129662811756
 30
0.0
 11
30.8295050793895
 21
-66.2629724442954
 31
0.0
  0
LINE
  5
   343
  8
0
  6
CONTINUOUS
 62
     1
 10
29.569492390754
 20
-74.3129662811756
 30
0.0
 11
29.569492390754
 21
-66.2629724442954
 31
0.0
  0
LINE
  5
   344
  8
0
  6
CONTINUOUS
 62
     1
 10
28.3095010644211
 20
-74.3129662811756
 30
0.0
 11
28.3095010644211
 21
-66.2629724442954
 31
0.0
  0
LINE
  5
   345
  8
0
  6
CONTINUOUS
 62
     1
 10
27.0495097380881
 20
-74.3129662811756
 30
0.0
 11
27.0495097380881
 21
-66.2629724442954
 31
0.0
  0
LINE
  5
   346
  8
0
  6
CONTINUOUS
 62
     1
 10
25.7894970494526
 20
-74.3129662811756
 30
0.0
 11
25.7894970494526
 21
-66.2629724442954
 31
0.0
  0
LINE
  5
   347
  8
0
  6
CONTINUOUS
 62
     1
 10
25.107030230757
 20
-21.3754933863856
 30
0.0
 11
25.107030230757
 21
-2.73797504543293
 31
0.0
  0
LINE
  5
   348
  8
0
  6
CONTINUOUS
 62
     1
 10
-22.8429488480105
 20
-21.3754933863856
 30
0.0
 11
-22.8429488480105
 21
-2.73797815202659
 31
0.0
  0
LINE
  5
   349
  8
0
  6
CONTINUOUS
 62
     1
 10
25.1070035278808
 20
-2.73797392845154
 30
0.0
 11
-22.8429755508905
 21
-2.73797392845154
 31
0.0
  0
LINE
  5
   34A
  8
0
  6
CONTINUOUS
 62
     1
 10
37.4444915860913
 20
-74.662963908911
 30
0.0
 11
37.4444915860913
 21
-74.3129662811757
 31
0.0
  0
LINE
  5
   34B
  8
0
  6
CONTINUOUS
 62
     1
 10
-59.6804557651303
 20
-74.662963908911
 30
0.0
 11
-59.6804557651303
 21
-74.3129662811756
 31
0.0
  0
LINE
  5
   34C
  8
0
  6
CONTINUOUS
 62
     1
 10
1.67458876787868
 20
-114.037957735657
 30
0.0
 11
1.67458876787868
 21
-89.0129602926967
 31
0.0
  0
LINE
  5
   34D
  8
0
  6
CONTINUOUS
 62
     1
 10
2.9345874375029
 20
-114.037957735657
 30
0.0
 11
2.9345874375029
 21
-89.0129602926967
 31
0.0
  0
LINE
  5
   34E
  8
0
  6
CONTINUOUS
 62
     1
 10
4.36958842574751
 20
-114.037957735657
 30
0.0
 11
4.36958842574751
 21
-89.0129602926967
 31
0.0
  0
LINE
  5
   34F
  8
0
  6
CONTINUOUS
 62
     1
 10
5.62958809672964
 20
-114.037957735657
 30
0.0
 11
5.62958809672964
 21
-89.0129602926967
 31
0.0
  0
LINE
  5
   350
  8
0
  6
CONTINUOUS
 62
     1
 10
6.88957374870096
 20
-114.037957735657
 30
0.0
 11
6.88957374870096
 21
-89.0129602926967
 31
0.0
  0
LINE
  5
   351
  8
0
  6
CONTINUOUS
 62
     1
 10
8.14957575618498
 20
-114.037957735657
 30
0.0
 11
8.14957575618498
 21
-89.0129602926967
 31
0.0
  0
LINE
  5
   352
  8
0
  6
CONTINUOUS
 62
     1
 10
9.40958844481923
 20
-114.037957735657
 30
0.0
 11
9.40958844481923
 21
-89.0129602926967
 31
0.0
  0
LINE
  5
   353
  8
0
  6
CONTINUOUS
 62
     1
 10
10.6695744305774
 20
-114.037957735657
 30
0.0
 11
10.6695744305774
 21
-89.0129602926967
 31
0.0
  0
LINE
  5
   354
  8
0
  6
CONTINUOUS
 62
     1
 10
14.4494050502439
 20
-0.462944998674431
 30
0.0
 11
14.4493702675589
 21
11.1529275618567
 31
0.0
  0
LINE
  5
   355
  8
0
  6
CONTINUOUS
 62
     1
 10
15.7094657793686
 20
-0.462952186424388
 30
0.0
 11
15.7094018083948
 21
28.0618565354935
 31
0.0
  0
LINE
  5
   356
  8
0
  6
CONTINUOUS
 62
     1
 10
16.9694677868496
 20
-0.462949359651986
 30
0.0
 11
16.9694038158737
 21
28.0618603092787
 31
0.0
  0
LINE
  5
   357
  8
0
  6
CONTINUOUS
 62
     1
 10
18.2294697943307
 20
-0.462946533988514
 30
0.0
 11
18.2294058233526
 21
28.061864081955
 31
0.0
  0
LINE
  5
   358
  8
0
  6
CONTINUOUS
 62
     1
 10
19.4894290895472
 20
-0.462936803467386
 30
0.0
 11
19.4893543965847
 21
28.0618678576164
 31
0.0
  0
LINE
  5
   359
  8
0
  6
CONTINUOUS
 62
     1
 10
20.7494631281415
 20
-0.46294088267355
 30
0.0
 11
20.7493991571592
 21
28.0618716284045
 31
0.0
  0
LINE
  5
   35A
  8
0
  6
CONTINUOUS
 62
     1
 10
22.0094651356226
 20
-0.462938057010078
 30
0.0
 11
22.0094011646381
 21
28.0618754010808
 31
0.0
  0
LINE
  5
   35B
  8
0
  6
CONTINUOUS
 62
     1
 10
23.2694671431036
 20
-0.462935231346606
 30
0.0
 11
23.2694031721171
 21
28.0618791726481
 31
0.0
  0
LINE
  5
   35C
  8
0
  6
CONTINUOUS
 62
     1
 10
24.5294584694334
 20
-0.462932404586198
 30
0.0
 11
24.5293944984447
 21
28.0618829497481
 31
0.0
  0
LINE
  5
   35D
  8
0
  6
CONTINUOUS
 62
     1
 10
37.8820121899704
 20
-0.462979501485279
 30
0.0
 11
1.13201665878296
 21
-0.462979501485279
 31
0.0
  0
LINE
  5
   35E
  8
0
  6
CONTINUOUS
 62
     1
 10
0.414440562136937
 20
-114.037957735657
 30
0.0
 11
0.414440562136937
 21
-89.0129602926967
 31
0.0
  0
LINE
  5
   35F
  8
0
  6
CONTINUOUS
 62
     1
 10
-0.845562780490893
 20
-114.037957735657
 30
0.0
 11
-0.845562780490893
 21
-89.0129602926967
 31
0.0
  0
LINE
  5
   360
  8
0
  6
CONTINUOUS
 62
     1
 10
-2.10556044875721
 20
-114.037957735657
 30
0.0
 11
-2.10556044875721
 21
-89.0129602926967
 31
0.0
  0
LINE
  5
   361
  8
0
  6
CONTINUOUS
 62
     1
 10
-3.36556011973935
 20
-114.037957735657
 30
0.0
 11
-3.36556011973935
 21
-89.0129602926967
 31
0.0
  0
LINE
  5
   362
  8
0
  6
CONTINUOUS
 62
     1
 10
-4.62554577171067
 20
-114.037957735657
 30
0.0
 11
-4.62554577171067
 21
-89.0129602926967
 31
0.0
  0
LINE
  5
   363
  8
0
  6
CONTINUOUS
 62
     1
 10
-5.88554777919469
 20
-114.037957735657
 30
0.0
 11
-5.88554777919469
 21
-89.0129602926967
 31
0.0
  0
LINE
  5
   364
  8
0
  6
CONTINUOUS
 62
     1
 10
-7.14556046782893
 20
-114.037957735657
 30
0.0
 11
-7.14556046782893
 21
-89.0129602926967
 31
0.0
  0
LINE
  5
   365
  8
0
  6
CONTINUOUS
 62
     1
 10
-8.4055464535871
 20
-114.037957735657
 30
0.0
 11
-8.4055464535871
 21
-89.0129602926967
 31
0.0
  0
LINE
  5
   366
  8
0
  6
CONTINUOUS
 62
     1
 10
-9.66551107704345
 20
-114.037957735657
 30
0.0
 11
-9.66551107704345
 21
-98.8990561466539
 31
0.0
  0
LINE
  5
   367
  8
0
  6
CONTINUOUS
 62
     1
 10
-9.66550912484852
 20
12.8894041363984
 30
0.0
 11
-9.66548760843365
 21
28.0618520263496
 31
0.0
  0
LINE
  5
   368
  8
0
  6
CONTINUOUS
 62
     1
 10
-10.7505071187651
 20
13.8295296907834
 30
0.0
 11
-10.7504855922007
 21
28.0618520300879
 31
0.0
  0
LINE
  5
   369
  8
0
  6
CONTINUOUS
 62
     1
 10
-10.9254970628008
 20
-114.037957735657
 30
0.0
 11
-10.9254970628008
 21
-99.8520236344766
 31
0.0
  0
LINE
  5
   36A
  8
0
  6
CONTINUOUS
 62
     1
 10
-12.01049546555
 20
13.6039346881949
 30
0.0
 11
-12.0104739415614
 21
28.0618520296572
 31
0.0
  0
LINE
  5
   36B
  8
0
  6
CONTINUOUS
 62
     1
 10
-12.185499070285
 20
-114.037957735657
 30
0.0
 11
-12.185499070285
 21
-99.4470683316841
 31
0.0
  0
LINE
  5
   36C
  8
0
  6
CONTINUOUS
 62
     1
 10
-13.4455491429457
 20
-114.037957735657
 30
0.0
 11
-13.4455491429457
 21
-89.0129602926967
 31
0.0
  0
LINE
  5
   36D
  8
0
  6
CONTINUOUS
 62
     1
 10
-14.7055511504296
 20
-114.037957735657
 30
0.0
 11
-14.7055511504296
 21
-89.0129602926967
 31
0.0
  0
LINE
  5
   36E
  8
0
  6
CONTINUOUS
 62
     1
 10
-15.9655531579135
 20
-114.037957735657
 30
0.0
 11
-15.9655531579135
 21
-89.0129602926967
 31
0.0
  0
LINE
  5
   36F
  8
0
  6
CONTINUOUS
 62
     1
 10
-17.2255551653973
 20
-114.037957735657
 30
0.0
 11
-17.2255551653973
 21
-89.0129602926967
 31
0.0
  0
LINE
  5
   370
  8
0
  6
CONTINUOUS
 62
     1
 10
-18.4855464917299
 20
-114.037957735657
 30
0.0
 11
-18.4855464917299
 21
-89.0129602926967
 31
0.0
  0
LINE
  5
   371
  8
0
  6
CONTINUOUS
 62
     1
 10
-19.7455484992138
 20
-114.037957735657
 30
0.0
 11
-19.7455484992138
 21
-89.0129602926967
 31
0.0
  0
LINE
  5
   372
  8
0
  6
CONTINUOUS
 62
     1
 10
-21.0055505066977
 20
-114.037957735657
 30
0.0
 11
-21.0055505066977
 21
-89.0129602926967
 31
0.0
  0
LINE
  5
   373
  8
0
  6
CONTINUOUS
 62
     1
 10
-22.2655525141815
 20
-114.037957735657
 30
0.0
 11
-22.2655525141815
 21
-89.0129602926967
 31
0.0
  0
LINE
  5
   374
  8
0
  6
CONTINUOUS
 62
     1
 10
-23.5254957753405
 20
-0.462958139182774
 30
0.0
 11
-23.5254957753405
 21
28.0618520260032
 31
0.0
  0
LINE
  5
   375
  8
0
  6
CONTINUOUS
 62
     1
 10
-24.7855191451254
 20
-0.463033846447402
 30
0.0
 11
-24.7855191451254
 21
28.0618520260031
 31
0.0
  0
LINE
  5
   376
  8
0
  6
CONTINUOUS
 62
     1
 10
-26.0455478554818
 20
-0.463023157256799
 30
0.0
 11
-26.0455478554818
 21
28.0618520260031
 31
0.0
  0
LINE
  5
   377
  8
0
  6
CONTINUOUS
 62
     1
 10
-27.3054911166419
 20
-0.462958139182774
 30
0.0
 11
-27.3054911166419
 21
28.0618520260032
 31
0.0
  0
LINE
  5
   378
  8
0
  6
CONTINUOUS
 62
     1
 10
-28.5655144864265
 20
-0.46303242561369
 30
0.0
 11
-28.5655144864265
 21
28.0618520260032
 31
0.0
  0
LINE
  5
   379
  8
0
  6
CONTINUOUS
 62
     1
 10
-29.8254951316103
 20
-0.462958139182774
 30
0.0
 11
-29.8254951316103
 21
28.0618520260032
 31
0.0
  0
LINE
  5
   37A
  8
0
  6
CONTINUOUS
 62
     1
 10
-31.0855185013947
 20
-0.463031478388558
 30
0.0
 11
-31.0855185013947
 21
28.0619280224656
 31
0.0
  0
LINE
  5
   37B
  8
0
  6
CONTINUOUS
 62
     1
 10
-32.3455098277276
 20
-0.463031004780007
 30
0.0
 11
-32.3455098277276
 21
28.0619374752132
 31
0.0
  0
LINE
  5
   37C
  8
0
  6
CONTINUOUS
 62
     1
 10
-33.6054904729117
 20
-0.462958139182774
 30
0.0
 11
-33.6054904729117
 21
28.0619152811943
 31
0.0
  0
LINE
  5
   37D
  8
0
  6
CONTINUOUS
 62
     1
 10
-34.8655138426959
 20
-0.463019376399515
 30
0.0
 11
-34.8655138426959
 21
10.92760158479
 31
0.0
  0
LINE
  5
   37E
  8
0
  6
CONTINUOUS
 62
     1
 10
1.13201449966264
 20
-0.462979501504122
 30
0.0
 11
-60.1179763690157
 21
-0.462979501504122
 31
0.0
  0
LINE
  5
   37F
  8
0
  6
CONTINUOUS
 62
     1
 10
37.8820129036903
 20
1.28702031970079
 30
0.0
 11
37.8820129036903
 21
27.5369375288574
 31
0.0
  0
LINE
  5
   380
  8
0
  6
CONTINUOUS
 62
     1
 10
37.6194937434678
 20
27.9915404370313
 30
0.0
 11
37.3565853597561
 21
28.061974549108
 31
0.0
  0
LINE
  5
   381
  8
0
  6
CONTINUOUS
 62
     1
 10
37.8116237371328
 20
27.7993914877217
 30
0.0
 11
37.6194644875891
 21
27.9915667575703
 31
0.0
  0
LINE
  5
   382
  8
0
  6
CONTINUOUS
 62
     1
 10
37.8820277603114
 20
27.5368740693424
 30
0.0
 11
37.8116870449296
 21
27.7993740405956
 31
0.0
  0
LINE
  5
   383
  8
0
  6
CONTINUOUS
 62
     1
 10
-60.1179770827293
 20
1.28702031970079
 30
0.0
 11
-60.1179770827293
 21
27.5369375288574
 31
0.0
  0
LINE
  5
   384
  8
0
  6
CONTINUOUS
 62
     1
 10
-59.8554543960804
 20
27.9915413817738
 30
0.0
 11
-59.5929544299653
 21
28.0618660772911
 31
0.0
  0
LINE
  5
   385
  8
0
  6
CONTINUOUS
 62
     1
 10
-60.0475879161718
 20
27.7993914877217
 30
0.0
 11
-59.8554286666281
 21
27.9915667575703
 31
0.0
  0
LINE
  5
   386
  8
0
  6
CONTINUOUS
 62
     1
 10
-60.1179919393504
 20
27.5368740693427
 30
0.0
 11
-60.0476512239687
 21
27.7993740405958
 31
0.0
  0
LINE
  5
   387
  8
0
  6
CONTINUOUS
 62
     1
 10
37.8820022225387
 20
-114.037957735657
 30
0.0
 11
37.8820022225387
 21
1.28701515140433
 31
0.0
  0
LINE
  5
   388
  8
0
  6
CONTINUOUS
 62
     1
 10
-60.1179664015772
 20
-88.4879624962809
 30
0.0
 11
-60.1179664015772
 21
1.28701515140433
 31
0.0
  0
CIRCLE
  5
   389
  8
0
  6
CONTINUOUS
 62
     1
 10
-11.1179483787787
 20
12.3120173382721
 30
0.0
 40
1.57569269749607
  0
LINE
  5
   38A
  8
0
  6
DASHDOT
 62
     7
 10
-11.1179483787787
 20
9.11955532475453
 30
0.0
 11
-11.1179483787787
 21
15.5174811176804
 31
0.0
  0
LINE
  5
   38B
  8
0
  6
DASHDOT
 62
     7
 10
-8.50043332344277
 20
12.3120173382721
 30
0.0
 11
-13.335829384763
 21
12.3120173382721
 31
0.0
  0
LINE
  5
   38C
  8
0
  6
CONTINUOUS
 62
     1
 10
37.8820022225387
 20
-114.037957735657
 30
0.0
 11
-60.1179603965091
 21
-114.037957735657
 31
0.0
  0
LINE
  5
   38D
  8
0
  6
CONTINUOUS
 62
     1
 10
37.8820022225387
 20
-89.0129602926967
 30
0.0
 11
-60.1179639158739
 21
-89.0129602926967
 31
0.0
  0
LINE
  5
   38E
  8
0
  6
CONTINUOUS
 62
     1
 10
37.8820022225387
 20
-88.6629603284595
 30
0.0
 11
-59.7679640008586
 21
-88.6629603284595
 31
0.0
  0
LINE
  5
   38F
  8
0
  6
CONTINUOUS
 62
     1
 10
37.8820022225387
 20
-88.4879624962809
 30
0.0
 11
-60.1179639897065
 21
-88.4879624962809
 31
0.0
  0
LINE
  5
   390
  8
0
  6
CONTINUOUS
 62
     1
 10
37.882001730321
 20
-74.8379638910296
 30
0.0
 11
-60.11796590936
 21
-74.8379638910296
 31
0.0
  0
LINE
  5
   391
  8
0
  6
CONTINUOUS
 62
     1
 10
-60.1179664015772
 20
-114.037957735657
 30
0.0
 11
-60.1179664015772
 21
-89.0129602926967
 31
0.0
  0
LINE
  5
   392
  8
0
  6
CONTINUOUS
 62
     1
 10
-59.76796643734
 20
-89.0129602926967
 30
0.0
 11
-59.76796643734
 21
-88.6629603284595
 31
0.0
  0
LINE
  5
   393
  8
0
  6
CONTINUOUS
 62
     1
 10
-23.367980837822
 20
-88.4879624962809
 30
0.0
 11
-23.367980837822
 21
-74.8379638910296
 31
0.0
  0
LINE
  5
   394
  8
0
  6
CONTINUOUS
 62
     1
 10
25.6320141553879
 20
-88.4879624962809
 30
0.0
 11
25.6320141553879
 21
-74.8379638910296
 31
0.0
  0
LINE
  5
   395
  8
0
  6
CONTINUOUS
 62
     2
 10
-34.8654711180934
 20
-88.4879624962809
 30
0.0
 11
-34.8654711180934
 21
-74.8379638910296
 31
0.0
  0
LINE
  5
   396
  8
0
  6
CONTINUOUS
 62
     2
 10
-33.6054584294579
 20
-88.4879624962809
 30
0.0
 11
-33.6054584294579
 21
-74.8379638910296
 31
0.0
  0
LINE
  5
   397
  8
0
  6
CONTINUOUS
 62
     2
 10
-32.345467103125
 20
-88.4879624962809
 30
0.0
 11
-32.345467103125
 21
-74.8379638910296
 31
0.0
  0
LINE
  5
   398
  8
0
  6
CONTINUOUS
 62
     2
 10
-31.085475776792
 20
-88.4879624962809
 30
0.0
 11
-31.085475776792
 21
-74.8379638910296
 31
0.0
  0
LINE
  5
   399
  8
0
  6
CONTINUOUS
 62
     2
 10
-29.8254630881565
 20
-88.4879624962809
 30
0.0
 11
-29.8254630881565
 21
-74.8379638910296
 31
0.0
  0
LINE
  5
   39A
  8
0
  6
CONTINUOUS
 62
     2
 10
-28.5654717618236
 20
-88.4879624962809
 30
0.0
 11
-28.5654717618236
 21
-74.8379638910296
 31
0.0
  0
LINE
  5
   39B
  8
0
  6
CONTINUOUS
 62
     2
 10
-27.3054590731881
 20
-88.4879624962809
 30
0.0
 11
-27.3054590731881
 21
-74.8379638910296
 31
0.0
  0
LINE
  5
   39C
  8
0
  6
CONTINUOUS
 62
     2
 10
-26.0454677468551
 20
-88.4879624962809
 30
0.0
 11
-26.0454677468551
 21
-74.8379638910296
 31
0.0
  0
LINE
  5
   39D
  8
0
  6
CONTINUOUS
 62
     2
 10
-24.7854764205222
 20
-88.4879624962809
 30
0.0
 11
-24.7854764205222
 21
-74.8379638910296
 31
0.0
  0
LINE
  5
   39E
  8
0
  6
CONTINUOUS
 62
     1
 10
-23.5254637318867
 20
-74.3129662811756
 30
0.0
 11
-23.5254637318867
 21
-66.2629724442954
 31
0.0
  0
LINE
  5
   39F
  8
0
  6
CONTINUOUS
 62
     1
 10
-34.8654711180934
 20
-74.3129662811756
 30
0.0
 11
-34.8654711180934
 21
-66.2629724442954
 31
0.0
  0
LINE
  5
   3A0
  8
0
  6
CONTINUOUS
 62
     1
 10
-33.6054584294579
 20
-74.3129662811756
 30
0.0
 11
-33.6054584294579
 21
-66.2629724442954
 31
0.0
  0
LINE
  5
   3A1
  8
0
  6
CONTINUOUS
 62
     1
 10
-32.345467103125
 20
-74.3129662811756
 30
0.0
 11
-32.345467103125
 21
-66.2629724442954
 31
0.0
  0
LINE
  5
   3A2
  8
0
  6
CONTINUOUS
 62
     1
 10
-31.085475776792
 20
-74.3129662811756
 30
0.0
 11
-31.085475776792
 21
-66.2629724442954
 31
0.0
  0
LINE
  5
   3A3
  8
0
  6
CONTINUOUS
 62
     1
 10
-29.8254630881565
 20
-74.3129662811756
 30
0.0
 11
-29.8254630881565
 21
-66.2629724442954
 31
0.0
  0
LINE
  5
   3A4
  8
0
  6
CONTINUOUS
 62
     1
 10
-28.5654717618236
 20
-74.3129662811756
 30
0.0
 11
-28.5654717618236
 21
-66.2629724442954
 31
0.0
  0
LINE
  5
   3A5
  8
0
  6
CONTINUOUS
 62
     1
 10
-27.3054590731881
 20
-74.3129662811756
 30
0.0
 11
-27.3054590731881
 21
-66.2629724442954
 31
0.0
  0
LINE
  5
   3A6
  8
0
  6
CONTINUOUS
 62
     1
 10
-26.0454677468551
 20
-74.3129662811756
 30
0.0
 11
-26.0454677468551
 21
-66.2629724442954
 31
0.0
  0
LINE
  5
   3A7
  8
0
  6
CONTINUOUS
 62
     1
 10
-24.7854764205222
 20
-74.3129662811756
 30
0.0
 11
-24.7854764205222
 21
-66.2629724442954
 31
0.0
  0
LINE
  5
   3A8
  8
0
  6
CONTINUOUS
 62
     2
 10
-23.5254765492682
 20
-114.037957735657
 30
0.0
 11
-23.5254765492682
 21
-89.0129602926967
 31
0.0
  0
LINE
  5
   3A9
  8
0
  6
CONTINUOUS
 62
     1
 10
37.1295044356593
 20
-88.4879624962809
 30
0.0
 11
37.1295044356593
 21
-74.8379638910296
 31
0.0
  0
LINE
  5
   3AA
  8
0
  6
CONTINUOUS
 62
     1
 10
35.8694917470239
 20
-88.4879624962809
 30
0.0
 11
35.8694917470239
 21
-74.8379638910296
 31
0.0
  0
LINE
  5
   3AB
  8
0
  6
CONTINUOUS
 62
     1
 10
34.6095004206909
 20
-88.4879624962809
 30
0.0
 11
34.6095004206909
 21
-74.8379638910296
 31
0.0
  0
LINE
  5
   3AC
  8
0
  6
CONTINUOUS
 62
     1
 10
33.3495090943579
 20
-88.4879624962809
 30
0.0
 11
33.3495090943579
 21
-74.8379638910296
 31
0.0
  0
LINE
  5
   3AD
  8
0
  6
CONTINUOUS
 62
     1
 10
32.0894964057225
 20
-88.4879624962809
 30
0.0
 11
32.0894964057225
 21
-74.8379638910296
 31
0.0
  0
LINE
  5
   3AE
  8
0
  6
CONTINUOUS
 62
     1
 10
30.8295050793895
 20
-88.6629603284595
 30
0.0
 11
30.8295050793895
 21
-74.8379638910296
 31
0.0
  0
LINE
  5
   3AF
  8
0
  6
CONTINUOUS
 62
     1
 10
29.569492390754
 20
-88.6629603284595
 30
0.0
 11
29.569492390754
 21
-74.8379638910296
 31
0.0
  0
LINE
  5
   3B0
  8
0
  6
CONTINUOUS
 62
     1
 10
28.3095010644211
 20
-88.4879624962809
 30
0.0
 11
28.3095010644211
 21
-74.8379638910296
 31
0.0
  0
LINE
  5
   3B1
  8
0
  6
CONTINUOUS
 62
     1
 10
27.0495097380881
 20
-88.4879624962809
 30
0.0
 11
27.0495097380881
 21
-74.8379638910296
 31
0.0
  0
LINE
  5
   3B2
  8
0
  6
CONTINUOUS
 62
     1
 10
25.7894970494526
 20
-88.4879624962809
 30
0.0
 11
25.7894970494526
 21
-74.8379638910296
 31
0.0
  0
LINE
  5
   3B3
  8
0
  6
CONTINUOUS
 62
     1
 10
37.1293770979506
 20
-0.462877083642709
 30
0.0
 11
37.129291683011
 21
28.061920678361
 31
0.0
  0
LINE
  5
   3B4
  8
0
  6
CONTINUOUS
 62
     1
 10
35.8693644093208
 20
-0.462880855429447
 30
0.0
 11
35.8692789943812
 21
28.0619169049133
 31
0.0
  0
LINE
  5
   3B5
  8
0
  6
CONTINUOUS
 62
     1
 10
34.6093730829935
 20
-0.462884628845217
 30
0.0
 11
34.6092876680539
 21
28.0619131331585
 31
0.0
  0
LINE
  5
   3B6
  8
0
  6
CONTINUOUS
 62
     1
 10
33.3493817566662
 20
-0.462888407244066
 30
0.0
 11
33.3492963417265
 21
28.0619093547597
 31
0.0
  0
LINE
  5
   3B7
  8
0
  6
CONTINUOUS
 62
     1
 10
32.0893690680363
 20
-0.462892175708745
 30
0.0
 11
32.0892836530967
 21
28.061905586295
 31
0.0
  0
LINE
  5
   3B8
  8
0
  6
CONTINUOUS
 62
     1
 10
30.829377741709
 20
-0.462895947463494
 30
0.0
 11
30.8292923267694
 21
28.0619018128792
 31
0.0
  0
LINE
  5
   3B9
  8
0
  6
CONTINUOUS
 62
     1
 10
29.5693650530792
 20
-0.462899725894331
 30
0.0
 11
29.5692796381396
 21
28.0618980361094
 31
0.0
  0
LINE
  5
   3BA
  8
0
  6
CONTINUOUS
 62
     1
 10
28.3093737267519
 20
-0.462903499310102
 30
0.0
 11
28.3092883118123
 21
28.0618942626936
 31
0.0
  0
LINE
  5
   3BB
  8
0
  6
CONTINUOUS
 62
     1
 10
27.0493824004246
 20
-0.462907266081771
 30
0.0
 11
27.049296985485
 21
28.061890494261
 31
0.0
  0
LINE
  5
   3BC
  8
0
  6
CONTINUOUS
 62
     1
 10
25.7893825291763
 20
-0.462911039510331
 30
0.0
 11
25.7892971142366
 21
28.0618867224934
 31
0.0
  0
CIRCLE
  5
   3BD
  8
0
  6
CONTINUOUS
 62
     1
 10
-11.1179483787787
 20
-98.2881278681542
 30
0.0
 40
1.57569269749607
  0
LINE
  5
   3BE
  8
0
  6
DASHDOT
 62
     1
 10
-11.1179483787787
 20
-103.363820208022
 30
0.0
 11
-11.1179483787787
 21
-89.0129602926967
 31
0.0
  0
LINE
  5
   3BF
  8
0
  6
DASHDOT
 62
     1
 10
-6.04225603891049
 20
-98.2881278681542
 30
0.0
 11
-16.1936407186469
 21
-98.2881278681542
 31
0.0
  0
LINE
  5
   3C0
  8
0
  6
CONTINUOUS
 62
     1
 10
1.67458876787868
 20
-0.462979501485293
 30
0.0
 11
1.67458876787868
 21
28.0618520260031
 31
0.0
  0
LINE
  5
   3C1
  8
0
  6
CONTINUOUS
 62
     1
 10
2.9345874375029
 20
-0.462979501485293
 30
0.0
 11
2.9345874375029
 21
28.0618520260031
 31
0.0
  0
LINE
  5
   3C2
  8
0
  6
CONTINUOUS
 62
     1
 10
4.36958842574751
 20
-0.462979501485293
 30
0.0
 11
4.36958842574751
 21
28.0618520260031
 31
0.0
  0
LINE
  5
   3C3
  8
0
  6
CONTINUOUS
 62
     1
 10
5.62958809672964
 20
-0.462979501485293
 30
0.0
 11
5.62958809672964
 21
28.0618520260031
 31
0.0
  0
LINE
  5
   3C4
  8
0
  6
CONTINUOUS
 62
     1
 10
6.88957374870096
 20
-0.462979501485293
 30
0.0
 11
6.88957374870096
 21
28.0618520260031
 31
0.0
  0
LINE
  5
   3C5
  8
0
  6
CONTINUOUS
 62
     1
 10
8.14957575618498
 20
-0.462979501485293
 30
0.0
 11
8.14957575618498
 21
28.0618520260031
 31
0.0
  0
LINE
  5
   3C6
  8
0
  6
CONTINUOUS
 62
     1
 10
9.40958844481923
 20
-0.462979501485293
 30
0.0
 11
9.40958844481923
 21
28.0618520260031
 31
0.0
  0
LINE
  5
   3C7
  8
0
  6
CONTINUOUS
 62
     1
 10
10.6695744305774
 20
-0.462979501485293
 30
0.0
 11
10.6695744305774
 21
28.0618520260031
 31
0.0
  0
LINE
  5
   3C8
  8
0
  6
CONTINUOUS
 62
     1
 10
0.414440562136937
 20
-0.462979501485279
 30
0.0
 11
0.414440562136937
 21
28.0618520260032
 31
0.0
  0
LINE
  5
   3C9
  8
0
  6
CONTINUOUS
 62
     1
 10
-0.845562780490893
 20
-0.462979501485279
 30
0.0
 11
-0.845562780490893
 21
28.0618520260031
 31
0.0
  0
LINE
  5
   3CA
  8
0
  6
CONTINUOUS
 62
     1
 10
-2.10556044875721
 20
-0.462979501485293
 30
0.0
 11
-2.10556044875721
 21
28.0618520260031
 31
0.0
  0
LINE
  5
   3CB
  8
0
  6
CONTINUOUS
 62
     1
 10
-3.36556011973935
 20
-0.462979501485293
 30
0.0
 11
-3.36556011973935
 21
28.0618520260031
 31
0.0
  0
LINE
  5
   3CC
  8
0
  6
CONTINUOUS
 62
     1
 10
-4.62554577171067
 20
-0.462979501485293
 30
0.0
 11
-4.62554577171067
 21
28.0618520260031
 31
0.0
  0
LINE
  5
   3CD
  8
0
  6
CONTINUOUS
 62
     1
 10
-5.88554777919469
 20
-0.462979501485293
 30
0.0
 11
-5.88554777919469
 21
28.0618520260031
 31
0.0
  0
LINE
  5
   3CE
  8
0
  6
CONTINUOUS
 62
     1
 10
-7.14556046782893
 20
-0.462979501485293
 30
0.0
 11
-7.14556046782893
 21
28.0618520260031
 31
0.0
  0
LINE
  5
   3CF
  8
0
  6
CONTINUOUS
 62
     1
 10
-8.4055464535871
 20
-0.462979501485293
 30
0.0
 11
-8.4055464535871
 21
28.0618520260031
 31
0.0
  0
LINE
  5
   3D0
  8
0
  6
CONTINUOUS
 62
     1
 10
-9.66551107704345
 20
-0.462979501485279
 30
0.0
 11
-9.66551107704345
 21
11.734590815895
 31
0.0
  0
LINE
  5
   3D1
  8
0
  6
CONTINUOUS
 62
     1
 10
-10.9254970628008
 20
-0.462979501485279
 30
0.0
 11
-10.9254970628008
 21
10.766814425524
 31
0.0
  0
LINE
  5
   3D2
  8
0
  6
CONTINUOUS
 62
     1
 10
-12.185499070285
 20
-0.462979501485279
 30
0.0
 11
-12.185499070285
 21
11.1786262120586
 31
0.0
  0
LINE
  5
   3D3
  8
0
  6
CONTINUOUS
 62
     1
 10
-13.4455491429457
 20
-0.462979501485293
 30
0.0
 11
-13.4455491429457
 21
28.0618520260031
 31
0.0
  0
LINE
  5
   3D4
  8
0
  6
CONTINUOUS
 62
     1
 10
-14.7055511504296
 20
-0.462979501485293
 30
0.0
 11
-14.7055511504296
 21
28.0618520260031
 31
0.0
  0
LINE
  5
   3D5
  8
0
  6
CONTINUOUS
 62
     1
 10
-15.9655531579135
 20
-0.462979501485293
 30
0.0
 11
-15.9655531579135
 21
28.0618520260031
 31
0.0
  0
LINE
  5
   3D6
  8
0
  6
CONTINUOUS
 62
     1
 10
-17.2255551653973
 20
-0.462979501485293
 30
0.0
 11
-17.2255551653973
 21
28.0618520260031
 31
0.0
  0
LINE
  5
   3D7
  8
0
  6
CONTINUOUS
 62
     1
 10
-18.4855464917299
 20
-0.462979501485293
 30
0.0
 11
-18.4855464917299
 21
28.0618520260031
 31
0.0
  0
LINE
  5
   3D8
  8
0
  6
CONTINUOUS
 62
     1
 10
-19.7455484992138
 20
-0.462979501485293
 30
0.0
 11
-19.7455484992138
 21
28.0618520260031
 31
0.0
  0
LINE
  5
   3D9
  8
0
  6
CONTINUOUS
 62
     1
 10
-21.0055505066977
 20
-0.462979501485293
 30
0.0
 11
-21.0055505066977
 21
28.0618520260031
 31
0.0
  0
LINE
  5
   3DA
  8
0
  6
CONTINUOUS
 62
     1
 10
-22.2655525141815
 20
-0.462979501485293
 30
0.0
 11
-22.2655525141815
 21
28.0618520260031
 31
0.0
  0
LINE
  5
   3DB
  8
0
  6
CONTINUOUS
 62
     1
 10
11.9295390540337
 20
-97.6770020467772
 30
0.0
 11
11.9295390540337
 21
-89.0129602926967
 31
0.0
  0
LINE
  5
   3DC
  8
0
  6
CONTINUOUS
 62
     1
 10
-9.66551107704345
 20
-97.6771995896546
 30
0.0
 11
-9.66551107704345
 21
-89.0129602926967
 31
0.0
  0
LINE
  5
   3DD
  8
0
  6
CONTINUOUS
 62
     1
 10
-10.9254970628008
 20
-96.7242321018319
 30
0.0
 11
-10.9254970628008
 21
-89.0129602926967
 31
0.0
  0
LINE
  5
   3DE
  8
0
  6
CONTINUOUS
 62
     1
 10
-12.185499070285
 20
-97.1291874046243
 30
0.0
 11
-12.185499070285
 21
-89.0129602926967
 31
0.0
  0
LINE
  5
   3DF
  8
0
  6
CONTINUOUS
 62
     1
 10
-59.5930913476712
 20
28.0618293955673
 30
0.0
 11
37.3565853626204
 21
28.061974549108
 31
0.0
  0
LINE
  5
   3E0
  8
0
  6
CONTINUOUS
 62
     1
 10
11.9295743018312
 20
-0.462978791065893
 30
0.0
 11
11.9295743018312
 21
11.7011292690673
 31
0.0
  0
LINE
  5
   3E1
  8
0
  6
CONTINUOUS
 62
     1
 10
13.1895741730851
 20
-0.462978080646494
 30
0.0
 11
13.1895741730851
 21
10.7481218783029
 31
0.0
  0
CIRCLE
  5
   3E2
  8
0
  6
CONTINUOUS
 62
     1
 10
13.3819816963446
 20
12.3120173382721
 30
0.0
 40
1.57569269749607
  0
LINE
  5
   3E3
  8
0
  6
DASHDOT
 62
     7
 10
13.3819816963446
 20
8.67613472524482
 30
0.0
 11
13.3819816963446
 21
16.08759331705
 31
0.0
  0
LINE
  5
   3E4
  8
0
  6
DASHDOT
 62
     7
 10
16.3311202491012
 20
12.3120173382721
 30
0.0
 11
10.1654623892519
 21
12.3120173382721
 31
0.0
  0
LINE
  5
   3E5
  8
0
  6
CONTINUOUS
 62
     1
 10
14.4493633259597
 20
13.4711135116039
 30
0.0
 11
14.4493196353043
 21
28.0618527624988
 31
0.0
  0
LINE
  5
   3E6
  8
0
  6
CONTINUOUS
 62
     1
 10
13.1895741730851
 20
13.8759125812197
 30
0.0
 11
13.1895741730851
 21
28.0618196804042
 31
0.0
  0
LINE
  5
   3E7
  8
0
  6
CONTINUOUS
 62
     1
 10
11.9295743018312
 20
12.9229037696165
 30
0.0
 11
11.9295743018312
 21
28.061936479576
 31
0.0
  0
LINE
  5
   3E8
  8
0
  6
CONTINUOUS
 62
     1
 10
-59.3655113392973
 20
-0.463019376399515
 30
0.0
 11
-59.3655113392973
 21
28.0618617834349
 31
0.0
  0
LINE
  5
   3E9
  8
0
  6
CONTINUOUS
 62
     1
 10
-58.1054879695166
 20
-0.462958139182774
 30
0.0
 11
-58.1054879695166
 21
28.0619152811943
 31
0.0
  0
LINE
  5
   3EA
  8
0
  6
CONTINUOUS
 62
     1
 10
-56.8455073243291
 20
-0.463031004780007
 30
0.0
 11
-56.8455073243291
 21
28.0619374752132
 31
0.0
  0
LINE
  5
   3EB
  8
0
  6
CONTINUOUS
 62
     1
 10
-55.5855159979962
 20
-0.463031478388558
 30
0.0
 11
-55.5855159979962
 21
28.0619280224656
 31
0.0
  0
LINE
  5
   3EC
  8
0
  6
CONTINUOUS
 62
     1
 10
-54.3254926282152
 20
-0.462958139182774
 30
0.0
 11
-54.3254926282152
 21
28.0618520260032
 31
0.0
  0
LINE
  5
   3ED
  8
0
  6
CONTINUOUS
 62
     1
 10
-53.0655119830279
 20
-0.46303242561369
 30
0.0
 11
-53.0655119830279
 21
28.0618520260032
 31
0.0
  0
LINE
  5
   3EE
  8
0
  6
CONTINUOUS
 62
     1
 10
-51.8054886132468
 20
-0.462958139182774
 30
0.0
 11
-51.8054886132468
 21
28.0618520260032
 31
0.0
  0
LINE
  5
   3EF
  8
0
  6
CONTINUOUS
 62
     1
 10
-50.5455453520729
 20
-0.463023157256799
 30
0.0
 11
-50.5455453520729
 21
28.0618520260031
 31
0.0
  0
LINE
  5
   3F0
  8
0
  6
CONTINUOUS
 62
     1
 10
-49.2855166417268
 20
-0.463033846447402
 30
0.0
 11
-49.2855166417268
 21
28.0618520260031
 31
0.0
  0
LINE
  5
   3F1
  8
0
  6
CONTINUOUS
 62
     1
 10
-48.0254932719454
 20
-0.462958139182774
 30
0.0
 11
-48.0254932719454
 21
28.0618520260032
 31
0.0
  0
LINE
  5
   3F2
  8
0
  6
CONTINUOUS
 62
     1
 10
-46.7655500107726
 20
-0.462979501485293
 30
0.0
 11
-46.7655500107726
 21
28.0618520260031
 31
0.0
  0
LINE
  5
   3F3
  8
0
  6
CONTINUOUS
 62
     1
 10
-45.5055480032887
 20
-0.462979501485293
 30
0.0
 11
-45.5055480032887
 21
28.0618520260031
 31
0.0
  0
LINE
  5
   3F4
  8
0
  6
CONTINUOUS
 62
     1
 10
-44.2455459958049
 20
-0.462979501485293
 30
0.0
 11
-44.2455459958049
 21
28.0618520260031
 31
0.0
  0
LINE
  5
   3F5
  8
0
  6
CONTINUOUS
 62
     1
 10
-42.985543988321
 20
-0.462979501485293
 30
0.0
 11
-42.985543988321
 21
28.0618520260031
 31
0.0
  0
LINE
  5
   3F6
  8
0
  6
CONTINUOUS
 62
     1
 10
-41.7255526619884
 20
-0.462979501485293
 30
0.0
 11
-41.7255526619884
 21
28.0618520260031
 31
0.0
  0
LINE
  5
   3F7
  8
0
  6
CONTINUOUS
 62
     1
 10
-40.4655506545045
 20
-0.462979501485293
 30
0.0
 11
-40.4655506545045
 21
28.0618520260031
 31
0.0
  0
LINE
  5
   3F8
  8
0
  6
CONTINUOUS
 62
     1
 10
-39.2055486470207
 20
-0.462979501485293
 30
0.0
 11
-39.2055486470207
 21
28.0618520260031
 31
0.0
  0
LINE
  5
   3F9
  8
0
  6
CONTINUOUS
 62
     1
 10
-37.9455466395368
 20
-0.462979501485293
 30
0.0
 11
-37.9455466395368
 21
28.0618520260031
 31
0.0
  0
LINE
  5
   3FA
  8
0
  6
CONTINUOUS
 62
     1
 10
-36.3354929800363
 20
13.6039346927521
 30
0.0
 11
-36.3354714560477
 21
28.0618520342144
 31
0.0
  0
CIRCLE
  5
   3FB
  8
0
  6
CONTINUOUS
 62
     1
 10
-35.6179458753836
 20
12.3120173382721
 30
0.0
 40
1.57569269749607
  0
LINE
  5
   3FC
  8
0
  6
DASHDOT
 62
     7
 10
-33.0004308200477
 20
12.3120173382721
 30
0.0
 11
-37.8358268813679
 21
12.3120173382721
 31
0.0
  0
LINE
  5
   3FD
  8
0
  6
DASHDOT
 62
     7
 10
-35.6179458753836
 20
9.11955532475453
 30
0.0
 11
-35.6179458753836
 21
15.5174811176804
 31
0.0
  0
LINE
  5
   3FE
  8
0
  6
CONTINUOUS
 62
     1
 10
-36.5104965847713
 20
-0.462979501485279
 30
0.0
 11
-36.5104965847713
 21
11.1786262120586
 31
0.0
  0
LINE
  5
   3FF
  8
0
  6
CONTINUOUS
 62
     1
 10
-34.8655138426959
 20
13.6964325260785
 30
0.0
 11
-34.8655138426959
 21
28.0618617834349
 31
0.0
  0
LINE
  5
   400
  8
0
  6
CONTINUOUS
 62
     1
 10
-59.3654686146983
 20
-29.5129925549008
 30
0.0
 11
-59.3654686146983
 21
-0.987979447841099
 31
0.0
  0
LINE
  5
   401
  8
0
  6
CONTINUOUS
 62
     1
 10
-58.1054559260629
 20
-29.5129925549008
 30
0.0
 11
-58.1054559260629
 21
-0.987979447841099
 31
0.0
  0
LINE
  5
   402
  8
0
  6
CONTINUOUS
 62
     1
 10
-56.8454645997299
 20
-29.5129925549008
 30
0.0
 11
-56.8454645997299
 21
-0.987979447841099
 31
0.0
  0
LINE
  5
   403
  8
0
  6
CONTINUOUS
 62
     1
 10
-55.5854732733969
 20
-29.5129925549008
 30
0.0
 11
-55.5854732733969
 21
-0.987979447841099
 31
0.0
  0
LINE
  5
   404
  8
0
  6
CONTINUOUS
 62
     1
 10
-54.3254605847615
 20
-29.5129925549008
 30
0.0
 11
-54.3254605847615
 21
-0.987979447841099
 31
0.0
  0
LINE
  5
   405
  8
0
  6
CONTINUOUS
 62
     1
 10
-53.0654692584285
 20
-29.5129925549008
 30
0.0
 11
-53.0654692584285
 21
-0.987979447841099
 31
0.0
  0
LINE
  5
   406
  8
0
  6
CONTINUOUS
 62
     1
 10
-51.805456569793
 20
-29.5129925549008
 30
0.0
 11
-51.805456569793
 21
-0.987979447841099
 31
0.0
  0
LINE
  5
   407
  8
0
  6
CONTINUOUS
 62
     1
 10
-50.5454652434601
 20
-29.5129925549008
 30
0.0
 11
-50.5454652434601
 21
-0.987979447841099
 31
0.0
  0
LINE
  5
   408
  8
0
  6
CONTINUOUS
 62
     1
 10
-49.2854739171271
 20
-29.5129925549008
 30
0.0
 11
-49.2854739171271
 21
-0.987979447841099
 31
0.0
  0
LINE
  5
   409
  8
0
  6
CONTINUOUS
 62
     1
 10
-48.0254612284916
 20
-29.5129925549008
 30
0.0
 11
-48.0254612284916
 21
-0.987979447841099
 31
0.0
  0
LINE
  5
   40A
  8
0
  6
CONTINUOUS
 62
     1
 10
-59.3654686146983
 20
-66.2629620969301
 30
0.0
 11
-59.3654686146983
 21
-29.5129925549008
 31
0.0
  0
LINE
  5
   40B
  8
0
  6
CONTINUOUS
 62
     1
 10
-58.1054559260629
 20
-66.2629620969301
 30
0.0
 11
-58.1054559260629
 21
-29.5129925549008
 31
0.0
  0
LINE
  5
   40C
  8
0
  6
CONTINUOUS
 62
     1
 10
-56.8454645997299
 20
-66.2629620969301
 30
0.0
 11
-56.8454645997299
 21
-29.5129925549008
 31
0.0
  0
LINE
  5
   40D
  8
0
  6
CONTINUOUS
 62
     1
 10
-55.5854732733969
 20
-66.2629620969301
 30
0.0
 11
-55.5854732733969
 21
-29.5129925549008
 31
0.0
  0
LINE
  5
   40E
  8
0
  6
CONTINUOUS
 62
     1
 10
-54.3254605847615
 20
-66.2629620969301
 30
0.0
 11
-54.3254605847615
 21
-29.5129925549008
 31
0.0
  0
LINE
  5
   40F
  8
0
  6
CONTINUOUS
 62
     1
 10
-53.0654692584285
 20
-66.2629620969301
 30
0.0
 11
-53.0654692584285
 21
-29.5129925549008
 31
0.0
  0
LINE
  5
   410
  8
0
  6
CONTINUOUS
 62
     1
 10
-51.805456569793
 20
-66.2629620969301
 30
0.0
 11
-51.805456569793
 21
-29.5129925549008
 31
0.0
  0
LINE
  5
   411
  8
0
  6
CONTINUOUS
 62
     1
 10
-50.5454652434601
 20
-66.2629620969301
 30
0.0
 11
-50.5454652434601
 21
-29.5129925549008
 31
0.0
  0
LINE
  5
   412
  8
0
  6
CONTINUOUS
 62
     1
 10
-49.2854739171271
 20
-66.2629620969301
 30
0.0
 11
-49.2854739171271
 21
-29.5129925549008
 31
0.0
  0
LINE
  5
   413
  8
0
  6
CONTINUOUS
 62
     1
 10
-59.3654686146983
 20
-74.3129662811756
 30
0.0
 11
-59.3654686146983
 21
-66.2629724442954
 31
0.0
  0
LINE
  5
   414
  8
0
  6
CONTINUOUS
 62
     1
 10
-58.1054559260629
 20
-74.3129662811756
 30
0.0
 11
-58.1054559260629
 21
-66.2629724442954
 31
0.0
  0
LINE
  5
   415
  8
0
  6
CONTINUOUS
 62
     1
 10
-56.8454645997299
 20
-74.3129662811756
 30
0.0
 11
-56.8454645997299
 21
-66.2629724442954
 31
0.0
  0
LINE
  5
   416
  8
0
  6
CONTINUOUS
 62
     1
 10
-55.5854732733969
 20
-74.3129662811756
 30
0.0
 11
-55.5854732733969
 21
-66.2629724442954
 31
0.0
  0
LINE
  5
   417
  8
0
  6
CONTINUOUS
 62
     1
 10
-54.3254605847615
 20
-74.3129662811756
 30
0.0
 11
-54.3254605847615
 21
-66.2629724442954
 31
0.0
  0
LINE
  5
   418
  8
0
  6
CONTINUOUS
 62
     1
 10
-53.0654692584285
 20
-74.3129662811756
 30
0.0
 11
-53.0654692584285
 21
-66.2629724442954
 31
0.0
  0
LINE
  5
   419
  8
0
  6
CONTINUOUS
 62
     1
 10
-51.805456569793
 20
-74.3129662811756
 30
0.0
 11
-51.805456569793
 21
-66.2629724442954
 31
0.0
  0
LINE
  5
   41A
  8
0
  6
CONTINUOUS
 62
     1
 10
-50.5454652434601
 20
-74.3129662811756
 30
0.0
 11
-50.5454652434601
 21
-66.2629724442954
 31
0.0
  0
LINE
  5
   41B
  8
0
  6
CONTINUOUS
 62
     1
 10
-49.2854739171271
 20
-74.3129662811756
 30
0.0
 11
-49.2854739171271
 21
-66.2629724442954
 31
0.0
  0
LINE
  5
   41C
  8
0
  6
CONTINUOUS
 62
     1
 10
-48.0254612284916
 20
-74.3129662811756
 30
0.0
 11
-48.0254612284916
 21
-66.2629724442954
 31
0.0
  0
LINE
  5
   41D
  8
0
  6
CONTINUOUS
 62
     1
 10
-48.0254612284916
 20
-66.2629620969301
 30
0.0
 11
-48.0254612284916
 21
-29.5129925549008
 31
0.0
  0
LINE
  5
   41E
  8
0
  6
CONTINUOUS
 62
     2
 10
-59.3654686146983
 20
-88.4879624962809
 30
0.0
 11
-59.3654686146983
 21
-74.8379638910296
 31
0.0
  0
LINE
  5
   41F
  8
0
  6
CONTINUOUS
 62
     2
 10
-58.1054559260629
 20
-88.4879624962809
 30
0.0
 11
-58.1054559260629
 21
-74.8379638910296
 31
0.0
  0
LINE
  5
   420
  8
0
  6
CONTINUOUS
 62
     2
 10
-56.8454645997299
 20
-88.4879624962809
 30
0.0
 11
-56.8454645997299
 21
-74.8379638910296
 31
0.0
  0
LINE
  5
   421
  8
0
  6
CONTINUOUS
 62
     2
 10
-55.5854732733969
 20
-88.4879624962809
 30
0.0
 11
-55.5854732733969
 21
-74.8379638910296
 31
0.0
  0
LINE
  5
   422
  8
0
  6
CONTINUOUS
 62
     2
 10
-54.3254605847615
 20
-88.4879624962809
 30
0.0
 11
-54.3254605847615
 21
-74.8379638910296
 31
0.0
  0
LINE
  5
   423
  8
0
  6
CONTINUOUS
 62
     2
 10
-53.0654692584285
 20
-88.4879624962809
 30
0.0
 11
-53.0654692584285
 21
-74.8379638910296
 31
0.0
  0
LINE
  5
   424
  8
0
  6
CONTINUOUS
 62
     2
 10
-51.805456569793
 20
-88.4879624962809
 30
0.0
 11
-51.805456569793
 21
-74.8379638910296
 31
0.0
  0
LINE
  5
   425
  8
0
  6
CONTINUOUS
 62
     2
 10
-50.5454652434601
 20
-88.4879624962809
 30
0.0
 11
-50.5454652434601
 21
-74.8379638910296
 31
0.0
  0
LINE
  5
   426
  8
0
  6
CONTINUOUS
 62
     2
 10
-49.2854739171271
 20
-88.4879624962809
 30
0.0
 11
-49.2854739171271
 21
-74.8379638910296
 31
0.0
  0
LINE
  5
   427
  8
0
  6
CONTINUOUS
 62
     2
 10
-48.0254612284916
 20
-88.4879624962809
 30
0.0
 11
-48.0254612284916
 21
-74.8379638910296
 31
0.0
  0
LINE
  5
   428
  8
0
  6
CONTINUOUS
 62
     2
 10
-59.3654686146983
 20
-114.037957735657
 30
0.0
 11
-59.3654686146983
 21
-89.0129602926967
 31
0.0
  0
LINE
  5
   429
  8
0
  6
CONTINUOUS
 62
     2
 10
-58.1054559260629
 20
-114.037957735657
 30
0.0
 11
-58.1054559260629
 21
-89.0129602926967
 31
0.0
  0
LINE
  5
   42A
  8
0
  6
CONTINUOUS
 62
     2
 10
-56.8454645997299
 20
-114.037957735657
 30
0.0
 11
-56.8454645997299
 21
-89.0129602926967
 31
0.0
  0
LINE
  5
   42B
  8
0
  6
CONTINUOUS
 62
     2
 10
-55.5854732733969
 20
-114.037957735657
 30
0.0
 11
-55.5854732733969
 21
-89.0129602926967
 31
0.0
  0
LINE
  5
   42C
  8
0
  6
CONTINUOUS
 62
     2
 10
-54.3254605847615
 20
-114.037957735657
 30
0.0
 11
-54.3254605847615
 21
-89.0129602926967
 31
0.0
  0
LINE
  5
   42D
  8
0
  6
CONTINUOUS
 62
     2
 10
-53.0654692584285
 20
-114.037957735657
 30
0.0
 11
-53.0654692584285
 21
-89.0129602926967
 31
0.0
  0
LINE
  5
   42E
  8
0
  6
CONTINUOUS
 62
     2
 10
-51.805456569793
 20
-114.037957735657
 30
0.0
 11
-51.805456569793
 21
-89.0129602926967
 31
0.0
  0
LINE
  5
   42F
  8
0
  6
CONTINUOUS
 62
     2
 10
-50.5454652434601
 20
-114.037957735657
 30
0.0
 11
-50.5454652434601
 21
-89.0129602926967
 31
0.0
  0
LINE
  5
   430
  8
0
  6
CONTINUOUS
 62
     2
 10
-49.2854739171271
 20
-114.037957735657
 30
0.0
 11
-49.2854739171271
 21
-89.0129602926967
 31
0.0
  0
LINE
  5
   431
  8
0
  6
CONTINUOUS
 62
     2
 10
-48.0254740458731
 20
-114.037957735657
 30
0.0
 11
-48.0254740458731
 21
-89.0129602926967
 31
0.0
  0
LINE
  5
   432
  8
0
  6
CONTINUOUS
 62
     1
 10
-46.7655500107726
 20
-114.037957735657
 30
0.0
 11
-46.7655500107726
 21
-89.0129602926967
 31
0.0
  0
LINE
  5
   433
  8
0
  6
CONTINUOUS
 62
     1
 10
-45.5055480032887
 20
-114.037957735657
 30
0.0
 11
-45.5055480032887
 21
-89.0129602926967
 31
0.0
  0
LINE
  5
   434
  8
0
  6
CONTINUOUS
 62
     1
 10
-44.2455459958049
 20
-114.037957735657
 30
0.0
 11
-44.2455459958049
 21
-89.0129602926967
 31
0.0
  0
LINE
  5
   435
  8
0
  6
CONTINUOUS
 62
     1
 10
-42.985543988321
 20
-114.037957735657
 30
0.0
 11
-42.985543988321
 21
-89.0129602926967
 31
0.0
  0
LINE
  5
   436
  8
0
  6
CONTINUOUS
 62
     1
 10
-41.7255526619884
 20
-114.037957735657
 30
0.0
 11
-41.7255526619884
 21
-89.0129602926967
 31
0.0
  0
LINE
  5
   437
  8
0
  6
CONTINUOUS
 62
     1
 10
-36.5104965847713
 20
-97.1291874046243
 30
0.0
 11
-36.5104965847713
 21
-89.0129602926967
 31
0.0
  0
LINE
  5
   438
  8
0
  6
CONTINUOUS
 62
     1
 10
-37.9455466395368
 20
-114.037957735657
 30
0.0
 11
-37.9455466395368
 21
-89.0129602926967
 31
0.0
  0
LINE
  5
   439
  8
0
  6
CONTINUOUS
 62
     1
 10
-39.2055486470207
 20
-114.037957735657
 30
0.0
 11
-39.2055486470207
 21
-89.0129602926967
 31
0.0
  0
LINE
  5
   43A
  8
0
  6
CONTINUOUS
 62
     1
 10
-40.4655506545045
 20
-114.037957735657
 30
0.0
 11
-40.4655506545045
 21
-89.0129602926967
 31
0.0
  0
CIRCLE
  5
   43B
  8
0
  6
CONTINUOUS
 62
     1
 10
-35.6179458753836
 20
-98.2881278681542
 30
0.0
 40
1.57569269749607
  0
LINE
  5
   43C
  8
0
  6
DASHDOT
 62
     1
 10
-35.6179458753836
 20
-103.363820208022
 30
0.0
 11
-35.6179458753836
 21
-89.0129602926967
 31
0.0
  0
LINE
  5
   43D
  8
0
  6
DASHDOT
 62
     1
 10
-30.5422535355154
 20
-98.2881278681542
 30
0.0
 11
-40.6936382152518
 21
-98.2881278681542
 31
0.0
  0
LINE
  5
   43E
  8
0
  6
CONTINUOUS
 62
     1
 10
-36.5104965847713
 20
-114.037957735657
 30
0.0
 11
-36.5104965847713
 21
-99.4470683316841
 31
0.0
  0
LINE
  5
   43F
  8
0
  6
CONTINUOUS
 62
     2
 10
-34.8654711180934
 20
-96.9037185296335
 30
0.0
 11
-34.8654711180934
 21
-89.0129602926967
 31
0.0
  0
LINE
  5
   440
  8
0
  6
CONTINUOUS
 62
     1
 10
-36.5104965847713
 20
-88.4879624962809
 30
0.0
 11
-36.5104965847713
 21
-74.8379638910296
 31
0.0
  0
LINE
  5
   441
  8
0
  6
CONTINUOUS
 62
     1
 10
-37.9455466395368
 20
-88.4879615490102
 30
0.0
 11
-37.9455466395368
 21
-74.8379629437666
 31
0.0
  0
LINE
  5
   442
  8
0
  6
CONTINUOUS
 62
     1
 10
-39.2055486470207
 20
-88.4879606017853
 30
0.0
 11
-39.2055486470207
 21
-74.8379619965417
 31
0.0
  0
LINE
  5
   443
  8
0
  6
CONTINUOUS
 62
     1
 10
-40.4655506545045
 20
-88.4879596545603
 30
0.0
 11
-40.4655506545045
 21
-74.8379610493167
 31
0.0
  0
LINE
  5
   444
  8
0
  6
CONTINUOUS
 62
     1
 10
-41.7255526619884
 20
-88.4879587073354
 30
0.0
 11
-41.7255526619884
 21
-74.8379601020918
 31
0.0
  0
LINE
  5
   445
  8
0
  6
CONTINUOUS
 62
     1
 10
-42.985543988321
 20
-88.4879577601185
 30
0.0
 11
-42.985543988321
 21
-74.8379591548749
 31
0.0
  0
LINE
  5
   446
  8
0
  6
CONTINUOUS
 62
     1
 10
-44.2455459958049
 20
-88.4879568128936
 30
0.0
 11
-44.2455459958049
 21
-74.83795820765
 31
0.0
  0
LINE
  5
   447
  8
0
  6
CONTINUOUS
 62
     1
 10
-45.5055480032887
 20
-88.4879558656684
 30
0.0
 11
-45.5055480032887
 21
-74.8379572604248
 31
0.0
  0
LINE
  5
   448
  8
0
  6
CONTINUOUS
 62
     1
 10
-46.7655500107726
 20
-88.4879549184433
 30
0.0
 11
-46.7655500107726
 21
-74.8379563131997
 31
0.0
  0
LINE
  5
   449
  8
0
  6
CONTINUOUS
 62
     1
 10
-36.5104965847713
 20
-74.3129662811756
 30
0.0
 11
-36.5104965847713
 21
-66.2629724442954
 31
0.0
  0
LINE
  5
   44A
  8
0
  6
CONTINUOUS
 62
     1
 10
-37.9455466395368
 20
-74.3129653339129
 30
0.0
 11
-37.9455466395368
 21
-66.2629714970372
 31
0.0
  0
LINE
  5
   44B
  8
0
  6
CONTINUOUS
 62
     1
 10
-39.2055486470207
 20
-74.312964386688
 30
0.0
 11
-39.2055486470207
 21
-66.2629705498123
 31
0.0
  0
LINE
  5
   44C
  8
0
  6
CONTINUOUS
 62
     1
 10
-40.4655506545046
 20
-74.312963439463
 30
0.0
 11
-40.4655506545046
 21
-66.2629696025873
 31
0.0
  0
LINE
  5
   44D
  8
0
  6
CONTINUOUS
 62
     1
 10
-41.7255526619884
 20
-74.3129624922381
 30
0.0
 11
-41.7255526619884
 21
-66.2629686553624
 31
0.0
  0
LINE
  5
   44E
  8
0
  6
CONTINUOUS
 62
     1
 10
-42.985543988321
 20
-74.3129615450212
 30
0.0
 11
-42.985543988321
 21
-66.2629677081455
 31
0.0
  0
LINE
  5
   44F
  8
0
  6
CONTINUOUS
 62
     1
 10
-44.2455459958049
 20
-74.3129605977963
 30
0.0
 11
-44.2455459958049
 21
-66.2629667609206
 31
0.0
  0
LINE
  5
   450
  8
0
  6
CONTINUOUS
 62
     1
 10
-45.5055480032887
 20
-74.3129596505712
 30
0.0
 11
-45.5055480032887
 21
-66.2629658136954
 31
0.0
  0
LINE
  5
   451
  8
0
  6
CONTINUOUS
 62
     1
 10
-46.7655500107726
 20
-74.312958703346
 30
0.0
 11
-46.7655500107726
 21
-66.2629648664703
 31
0.0
  0
LINE
  5
   452
  8
0
  6
CONTINUOUS
 62
     1
 10
-36.5104965847713
 20
-66.2629620969301
 30
0.0
 11
-36.5104965847713
 21
-29.5129925549008
 31
0.0
  0
LINE
  5
   453
  8
0
  6
CONTINUOUS
 62
     1
 10
-37.9455466395368
 20
-66.2629611496719
 30
0.0
 11
-37.9455466395368
 21
-29.5129916076634
 31
0.0
  0
LINE
  5
   454
  8
0
  6
CONTINUOUS
 62
     1
 10
-39.2055486470207
 20
-66.262960202447
 30
0.0
 11
-39.2055486470207
 21
-29.5129906604385
 31
0.0
  0
LINE
  5
   455
  8
0
  6
CONTINUOUS
 62
     1
 10
-40.4655506545046
 20
-66.262959255222
 30
0.0
 11
-40.4655506545046
 21
-29.5129897132136
 31
0.0
  0
LINE
  5
   456
  8
0
  6
CONTINUOUS
 62
     1
 10
-41.7255526619884
 20
-66.2629583079971
 30
0.0
 11
-41.7255526619884
 21
-29.5129887659886
 31
0.0
  0
LINE
  5
   457
  8
0
  6
CONTINUOUS
 62
     1
 10
-42.985543988321
 20
-66.2629573607802
 30
0.0
 11
-42.985543988321
 21
-29.5129878187717
 31
0.0
  0
LINE
  5
   458
  8
0
  6
CONTINUOUS
 62
     1
 10
-44.2455459958049
 20
-66.2629564135553
 30
0.0
 11
-44.2455459958049
 21
-29.5129868715468
 31
0.0
  0
LINE
  5
   459
  8
0
  6
CONTINUOUS
 62
     1
 10
-45.5055480032887
 20
-66.2629554663302
 30
0.0
 11
-45.5055480032887
 21
-29.5129859243217
 31
0.0
  0
LINE
  5
   45A
  8
0
  6
CONTINUOUS
 62
     1
 10
-46.7655500107726
 20
-66.262954519105
 30
0.0
 11
-46.7655500107726
 21
-29.5129849770965
 31
0.0
  0
LINE
  5
   45B
  8
0
  6
CONTINUOUS
 62
     1
 10
-36.5104965847713
 20
-29.5129925549008
 30
0.0
 11
-36.5104965847713
 21
-0.987979447841099
 31
0.0
  0
LINE
  5
   45C
  8
0
  6
CONTINUOUS
 62
     1
 10
-37.9455466395368
 20
-29.5129916076634
 30
0.0
 11
-37.9455466395368
 21
-0.987978500619789
 31
0.0
  0
LINE
  5
   45D
  8
0
  6
CONTINUOUS
 62
     1
 10
-39.2055486470207
 20
-29.5129906604385
 30
0.0
 11
-39.2055486470207
 21
-0.987977553394856
 31
0.0
  0
LINE
  5
   45E
  8
0
  6
CONTINUOUS
 62
     1
 10
-40.4655506545046
 20
-29.5129897132136
 30
0.0
 11
-40.4655506545046
 21
-0.987976606169937
 31
0.0
  0
LINE
  5
   45F
  8
0
  6
CONTINUOUS
 62
     1
 10
-41.7255526619884
 20
-29.5129887659886
 30
0.0
 11
-41.7255526619884
 21
-0.987975658945004
 31
0.0
  0
LINE
  5
   460
  8
0
  6
CONTINUOUS
 62
     1
 10
-42.985543988321
 20
-29.5129878187717
 30
0.0
 11
-42.985543988321
 21
-0.987974711728114
 31
0.0
  0
LINE
  5
   461
  8
0
  6
CONTINUOUS
 62
     1
 10
-44.2455459958049
 20
-29.5129868715468
 30
0.0
 11
-44.2455459958049
 21
-0.987973764503195
 31
0.0
  0
LINE
  5
   462
  8
0
  6
CONTINUOUS
 62
     1
 10
-45.5055480032887
 20
-29.5129859243217
 30
0.0
 11
-45.5055480032887
 21
-0.987972817278063
 31
0.0
  0
LINE
  5
   463
  8
0
  6
CONTINUOUS
 62
     1
 10
-46.7655500107726
 20
-29.5129849770965
 30
0.0
 11
-46.7655500107726
 21
-0.987971870052917
 31
0.0
  0
LINE
  5
   464
  8
0
  6
CONTINUOUS
 62
     1
 10
37.7945022314798
 20
-29.5129925549008
 30
0.0
 11
25.7894970494526
 21
-29.5129925549008
 31
0.0
  0
CIRCLE
  5
   465
  8
0
  6
CONTINUOUS
 62
     1
 10
13.3819816963446
 20
-98.2881278681542
 30
0.0
 40
1.57569269749607
  0
LINE
  5
   466
  8
0
  6
DASHDOT
 62
     1
 10
13.3819816963446
 20
-103.363820208022
 30
0.0
 11
13.3819816963446
 21
-89.0129602926967
 31
0.0
  0
LINE
  5
   467
  8
0
  6
DASHDOT
 62
     1
 10
18.4576740362128
 20
-98.2881278681542
 30
0.0
 11
8.30628935647641
 21
-98.2881278681542
 31
0.0
  0
LINE
  5
   468
  8
0
  6
CONTINUOUS
 62
     1
 10
11.9295443946094
 20
-114.037957735657
 30
0.0
 11
11.9295443946094
 21
-98.8990561466539
 31
0.0
  0
LINE
  5
   469
  8
0
  6
CONTINUOUS
 62
     1
 10
10.669579771153
 20
-114.037957735657
 30
0.0
 11
10.669579771153
 21
-89.0129602926967
 31
0.0
  0
LINE
  5
   46A
  8
0
  6
CONTINUOUS
 62
     1
 10
9.40959378539485
 20
-114.037957735657
 30
0.0
 11
9.40959378539485
 21
-89.0129602926967
 31
0.0
  0
LINE
  5
   46B
  8
0
  6
CONTINUOUS
 62
     1
 10
14.4495323878509
 20
-97.1291874046243
 30
0.0
 11
14.4495323878509
 21
-89.0129602926967
 31
0.0
  0
LINE
  5
   46C
  8
0
  6
CONTINUOUS
 62
     1
 10
14.4495323878509
 20
-114.037957735657
 30
0.0
 11
14.4495323878509
 21
-99.4470683316841
 31
0.0
  0
LINE
  5
   46D
  8
0
  6
CONTINUOUS
 62
     1
 10
15.7095824605117
 20
-114.037957735657
 30
0.0
 11
15.7095824605117
 21
-89.0129602926967
 31
0.0
  0
LINE
  5
   46E
  8
0
  6
CONTINUOUS
 62
     1
 10
16.9695844679955
 20
-114.037957735657
 30
0.0
 11
16.9695844679955
 21
-89.0129602926967
 31
0.0
  0
LINE
  5
   46F
  8
0
  6
CONTINUOUS
 62
     1
 10
18.2295864754794
 20
-114.037957735657
 30
0.0
 11
18.2295864754794
 21
-89.0129602926967
 31
0.0
  0
LINE
  5
   470
  8
0
  6
CONTINUOUS
 62
     1
 10
19.4895884829632
 20
-114.037957735657
 30
0.0
 11
19.4895884829632
 21
-89.0129602926967
 31
0.0
  0
LINE
  5
   471
  8
0
  6
CONTINUOUS
 62
     1
 10
20.7495798092959
 20
-114.037957735657
 30
0.0
 11
20.7495798092959
 21
-89.0129602926967
 31
0.0
  0
LINE
  5
   472
  8
0
  6
CONTINUOUS
 62
     1
 10
22.0095818167797
 20
-114.037957735657
 30
0.0
 11
22.0095818167797
 21
-89.0129602926967
 31
0.0
  0
LINE
  5
   473
  8
0
  6
CONTINUOUS
 62
     1
 10
23.2695838242636
 20
-114.037957735657
 30
0.0
 11
23.2695838242636
 21
-89.0129602926967
 31
0.0
  0
LINE
  5
   474
  8
0
  6
CONTINUOUS
 62
     1
 10
24.5295858317474
 20
-114.037957735657
 30
0.0
 11
24.5295858317474
 21
-89.0129602926967
 31
0.0
  0
LINE
  5
   475
  8
0
  6
CONTINUOUS
 62
     2
 10
25.7895098668341
 20
-114.037957735657
 30
0.0
 11
25.7895098668341
 21
-89.0129602926967
 31
0.0
  0
LINE
  5
   476
  8
0
  6
CONTINUOUS
 62
     2
 10
27.0495097380881
 20
-114.037957735657
 30
0.0
 11
27.0495097380881
 21
-89.0129602926967
 31
0.0
  0
LINE
  5
   477
  8
0
  6
CONTINUOUS
 62
     2
 10
28.3095010644211
 20
-114.037957735657
 30
0.0
 11
28.3095010644211
 21
-89.0129602926967
 31
0.0
  0
LINE
  5
   478
  8
0
  6
CONTINUOUS
 62
     2
 10
29.569492390754
 20
-114.037957735657
 30
0.0
 11
29.569492390754
 21
-89.0129602926967
 31
0.0
  0
LINE
  5
   479
  8
0
  6
CONTINUOUS
 62
     2
 10
30.8295050793895
 20
-114.037957735657
 30
0.0
 11
30.8295050793895
 21
-89.0129602926967
 31
0.0
  0
LINE
  5
   47A
  8
0
  6
CONTINUOUS
 62
     2
 10
32.0894964057225
 20
-114.037957735657
 30
0.0
 11
32.0894964057225
 21
-89.0129602926967
 31
0.0
  0
LINE
  5
   47B
  8
0
  6
CONTINUOUS
 62
     2
 10
33.3495090943579
 20
-114.037957735657
 30
0.0
 11
33.3495090943579
 21
-89.0129602926967
 31
0.0
  0
LINE
  5
   47C
  8
0
  6
CONTINUOUS
 62
     2
 10
34.6095004206909
 20
-114.037957735657
 30
0.0
 11
34.6095004206909
 21
-89.0129602926967
 31
0.0
  0
LINE
  5
   47D
  8
0
  6
CONTINUOUS
 62
     2
 10
35.8694917470239
 20
-114.037957735657
 30
0.0
 11
35.8694917470239
 21
-89.0129602926967
 31
0.0
  0
LINE
  5
   47E
  8
0
  6
CONTINUOUS
 62
     2
 10
37.1295044356593
 20
-114.037957735657
 30
0.0
 11
37.1295044356593
 21
-89.0129602926967
 31
0.0
  0
LINE
  5
   47F
  8
0
  6
CONTINUOUS
 62
     1
 10
13.1895303803667
 20
-114.037957735657
 30
0.0
 11
13.1895303803667
 21
-99.8520236344766
 31
0.0
  0
LINE
  5
   480
  8
0
  6
CONTINUOUS
 62
     1
 10
13.1895303803667
 20
-96.7242321018319
 30
0.0
 11
13.1895303803667
 21
-89.0129602926967
 31
0.0
  0
LINE
  5
   481
  8
0
  6
CONTINUOUS
 62
   212
 10
-22.6677759559989
 20
-36.0605194728186
 30
0.0
 11
-22.6653833781286
 21
-36.045568531241
 31
0.0
  0
LINE
  5
   482
  8
0
  6
CONTINUOUS
 62
   212
 10
-22.6670193169675
 20
-36.0653655194207
 30
0.0
 11
-22.6677776787043
 21
-36.0605242875037
 31
0.0
  0
LINE
  5
   483
  8
0
  6
CONTINUOUS
 62
     1
 10
25.7894970494526
 20
-21.3754933863856
 30
0.0
 11
-23.5254637318867
 21
-21.3754933863856
 31
0.0
  0
LINE
  5
   484
  8
0
  6
CONTINUOUS
 62
   253
 10
11.982078576905
 20
-58.1253758458924
 30
0.0
 11
11.982078576905
 21
-41.6754937585006
 31
0.0
  0
LINE
  5
   485
  8
0
  6
CONTINUOUS
 62
   253
 10
11.5445786216085
 20
-58.0378318693215
 30
0.0
 11
11.5445786216085
 21
-41.6754937585006
 31
0.0
  0
LINE
  5
   486
  8
0
  6
DASHDOT
 62
     7
 10
1.13201665878296
 20
-116.357401317356
 30
0.0
 11
1.13201665878296
 21
-46.8124894938874
 31
0.0
  0
LINE
  5
   487
  8
0
  6
DASHDOT
 62
     7
 10
43.3188204994481
 20
-45.8754908829906
 30
0.0
 11
4.75054094042919
 21
-45.8754908829906
 31
0.0
  0
INSERT
  5
   488
  8
255
  6
CONTINUOUS
 62
     7
  2
MANIGLIA
 10
-44.4863002051918
 20
-78.5958169818537
 30
0.0
 41
0.349999964237213
 42
0.349999964237213
 50
3.50835464724173E-15
 43
0.349999964237213
  0
INSERT
  5
   489
  8
0
  6
CONTINUOUS
 62
     7
  2
*UDIM311
 10
0.0
 20
0.0
 30
0.0
  0
INSERT
  5
   48A
  8
0
  6
CONTINUOUS
 62
     7
  2
*UDIM312
 10
0.0
 20
0.0
 30
0.0
  0
INSERT
  5
   48B
  8
0
  6
CONTINUOUS
 62
     7
  2
*UDIM313
 10
0.0
 20
0.0
 30
0.0
  0
INSERT
  5
   48C
  8
0
  6
CONTINUOUS
 62
     7
  2
*UDIM314
 10
0.0
 20
0.0
 30
0.0
  0
INSERT
  5
   48D
  8
0
  6
CONTINUOUS
 62
     7
  2
*UDIM315
 10
0.0
 20
0.0
 30
0.0
  0
INSERT
  5
   48E
  8
0
  6
CONTINUOUS
 62
     7
  2
*UDIM316
 10
0.0
 20
0.0
 30
0.0
  0
INSERT
  5
   48F
  8
0
  6
CONTINUOUS
 62
     7
  2
*UDIM317
 10
0.0
 20
0.0
 30
0.0
  0
INSERT
  5
   490
  8
0
  6
CONTINUOUS
 62
     7
  2
*UDIM318
 10
0.0
 20
0.0
 30
0.0
  0
INSERT
  5
   491
  8
0
  6
CONTINUOUS
 62
     7
  2
*UDIM319
 10
0.0
 20
0.0
 30
0.0
  0
INSERT
  5
   492
  8
0
  6
CONTINUOUS
 62
     7
  2
*UDIM320
 10
0.0
 20
0.0
 30
0.0
  0
INSERT
  5
   493
  8
0
  6
CONTINUOUS
 62
     7
  2
*UDIM321
 10
0.0
 20
0.0
 30
0.0
  0
TEXT
  5
   494
  8
0
  6
CONTINUOUS
 62
     7
 10
-0.525219441930894
 20
51.3775562832978
 30
0.0
 40
3.00000001532688
  1
Y
 50
359.999999948034
 41
0.916666616797451
 72
     2
 11
1.67478045248372
 21
51.3775562813135
 31
0.0
  0
TEXT
  5
   495
  8
0
  6
CONTINUOUS
 62
     7
 10
46.5423618607542
 20
-47.3392430933797
 30
0.0
 40
3.00000001532688
  1
X
 50
359.999999948034
 41
0.916666616797451
 72
     2
 11
48.7423617551688
 21
-47.339243095364
 31
0.0
  0
TEXT
  5
   496
  8
0
  6
CONTINUOUS
 62
     7
 10
-93.9795743118043
 20
-47.9647927273374
 30
0.0
 40
3.00000001532688
  1
X
 50
359.999999948034
 41
0.916666616797451
 72
     2
 11
-91.7795744173897
 21
-47.9647927293217
 31
0.0
  0
TEXT
  5
   497
  8
0
  6
CONTINUOUS
 62
     7
 10
0.108254410764946
 20
-121.685240642252
 30
0.0
 40
3.00000001532688
  1
Y
 50
359.999999948034
 41
0.916666616797451
 72
     2
 11
2.30825430517956
 21
-121.685240644236
 31
0.0
  0
CIRCLE
  5
   498
  8
0
  6
CONTINUOUS
 62
   253
 10
227.723709418002
 20
13.7191154429031
 30
0.0
 40
5.77499990165234
  0
CIRCLE
  5
   499
  8
0
  6
CONTINUOUS
 62
   253
 10
218.277911088856
 20
21.7759176874608
 30
0.0
 40
0.874999985098839
  0
CIRCLE
  5
   49A
  8
0
  6
CONTINUOUS
 62
   253
 10
237.177918259491
 20
21.7759232445592
 30
0.0
 40
0.874999985098839
  0
CIRCLE
  5
   49B
  8
0
  6
CONTINUOUS
 62
   253
 10
237.177924914287
 20
5.67592351874055
 30
0.0
 40
0.874999985098839
  0
CIRCLE
  5
   49C
  8
0
  6
CONTINUOUS
 62
   253
 10
218.277918581356
 20
5.6759310487808
 30
0.0
 40
0.874999985098839
  0
LINE
  5
   49D
  8
0
  6
DASHDOT
 62
     7
 10
214.651560230988
 20
13.7191154429031
 30
0.0
 11
261.716033945513
 21
13.7191154429031
 31
0.0
  0
LINE
  5
   49E
  8
0
  6
DASHDOT
 62
     7
 10
227.723709418002
 20
4.63447743984773
 30
0.0
 11
227.723709418002
 21
41.5081928706145
 31
0.0
  0
LINE
  5
   49F
  8
0
  6
DASHDOT
 62
     7
 10
216.437280438616
 20
5.6759310487808
 30
0.0
 11
263.613945769155
 21
5.6759310487808
 31
0.0
  0
LINE
  5
   4A0
  8
0
  6
DASHDOT
 62
     7
 10
218.277918581356
 20
-2.39162568456063
 30
0.0
 11
218.277918581356
 21
7.82025800096179
 31
0.0
  0
LINE
  5
   4A1
  8
0
  6
DASHDOT
 62
     7
 10
234.312941859019
 20
5.67592351874055
 30
0.0
 11
238.446673627614
 21
5.67592351874055
 31
0.0
  0
LINE
  5
   4A2
  8
0
  6
DASHDOT
 62
     7
 10
237.177924914287
 20
-25.3931989127803
 30
0.0
 11
237.177924914287
 21
7.54912774044143
 31
0.0
  0
LINE
  5
   4A3
  8
0
  6
DASHDOT
 62
     7
 10
229.50509963802
 20
21.7759232445592
 30
0.0
 11
238.446667428873
 21
21.7759232445592
 31
0.0
  0
LINE
  5
   4A4
  8
0
  6
DASHDOT
 62
     7
 10
237.177918259491
 20
19.004381247426
 30
0.0
 11
237.177918259491
 21
23.749160806532
 31
0.0
  0
LINE
  5
   4A5
  8
0
  6
DASHDOT
 62
     7
 10
216.437280438616
 20
21.7759176874608
 30
0.0
 11
263.207250378375
 21
21.7759176874608
 31
0.0
  0
LINE
  5
   4A6
  8
0
  6
DASHDOT
 62
     7
 10
218.277911088856
 20
19.9533371592472
 30
0.0
 11
218.277911088856
 21
23.5458131111417
 31
0.0
  0
LINE
  5
   4A7
  8
0
  6
DASHDOT
 62
     7
 10
242.248709170643
 20
-23.0208091332273
 30
0.0
 11
242.248709170643
 21
44.4906257363382
 31
0.0
  0
LINE
  5
   4A8
  8
0
  6
CONTINUOUS
 62
     7
 10
214.777911148461
 20
-15.8557248326099
 30
0.0
 11
214.777911148461
 21
25.2759176278561
 31
0.0
  0
LINE
  5
   4A9
  8
0
  6
CONTINUOUS
 62
     7
 10
214.777911148461
 20
-15.8557248326099
 30
0.0
 11
260.094529309169
 21
-15.8557248326099
 31
0.0
  0
LINE
  5
   4AA
  8
0
  6
CONTINUOUS
 62
     7
 10
260.094529309169
 20
-15.8557248326099
 30
0.0
 11
260.094529309169
 21
25.2759176278561
 31
0.0
  0
LINE
  5
   4AB
  8
0
  6
CONTINUOUS
 62
     7
 10
214.777911148461
 20
25.2759176278561
 30
0.0
 11
260.094529309169
 21
25.2759176278561
 31
0.0
  0
LINE
  5
   4AC
  8
0
  6
DASHDOT
 62
     1
 10
201.774080356621
 20
3.9191156097961
 30
0.0
 11
280.309066601478
 21
3.9191156097961
 31
0.0
  0
POINT
  5
   4AD
  8
0
  6
CONTINUOUS
 62
     7
 10
233.498709319654
 20
13.7191154429031
 30
0.0
  0
POINT
  5
   4AE
  8
0
  6
CONTINUOUS
 62
     7
 10
221.94870951635
 20
13.7191154429031
 30
0.0
  0
POINT
  5
   4AF
  8
0
  6
CONTINUOUS
 62
     7
 10
238.052918244589
 20
21.7759232445592
 30
0.0
  0
POINT
  5
   4B0
  8
0
  6
CONTINUOUS
 62
     7
 10
236.302918274392
 20
21.7759232445592
 30
0.0
  0
LINE
  5
   4B1
  8
0
  6
CONTINUOUS
 62
     7
 10
260.444529303209
 20
-10.0808841517853
 30
0.0
 11
260.444529303209
 21
-6.58088421138996
 31
0.0
  0
LINE
  5
   4B2
  8
0
  6
CONTINUOUS
 62
     7
 10
261.144529291288
 20
-10.0808841517853
 30
0.0
 11
261.144529291288
 21
-6.58088421138996
 31
0.0
  0
LINE
  5
   4B3
  8
0
  6
CONTINUOUS
 62
     7
 10
260.444529303209
 20
10.9191154905868
 30
0.0
 11
261.144529291288
 21
10.9191154905868
 31
0.0
  0
LINE
  5
   4B4
  8
0
  6
CONTINUOUS
 62
     7
 10
260.444529303209
 20
14.4191154309822
 30
0.0
 11
261.144529291288
 21
14.4191154309822
 31
0.0
  0
LINE
  5
   4B5
  8
0
  6
CONTINUOUS
 62
     7
 10
260.444529303209
 20
-10.0808841517853
 30
0.0
 11
261.144529291288
 21
-10.0808841517853
 31
0.0
  0
LINE
  5
   4B6
  8
0
  6
CONTINUOUS
 62
     7
 10
260.444529303209
 20
10.9191154905868
 30
0.0
 11
260.444529303209
 21
14.4191154309822
 31
0.0
  0
LINE
  5
   4B7
  8
0
  6
CONTINUOUS
 62
     7
 10
261.144529291288
 20
10.9191154905868
 30
0.0
 11
261.144529291288
 21
14.4191154309822
 31
0.0
  0
LINE
  5
   4B8
  8
0
  6
CONTINUOUS
 62
     7
 10
260.444529303209
 20
-6.58088421138996
 30
0.0
 11
261.144529291288
 21
-6.58088421138996
 31
0.0
  0
LINE
  5
   4B9
  8
0
  6
DASHDOT
 62
     7
 10
260.794529297249
 20
-34.0984290997201
 30
0.0
 11
260.794529297249
 21
10.9191154905868
 31
0.0
  0
LINE
  5
   4BA
  8
0
  6
DASHDOT
 62
     1
 10
227.723709418002
 20
-20.8517670490646
 30
0.0
 11
227.723709418002
 21
-12.1078161472835
 31
0.0
  0
TEXT
  5
   4BB
  8
0
  6
CONTINUOUS
 62
     7
 10
137.387565543588
 20
-211.13493730362
 30
0.0
 40
2.00000003448554
  1
M 4352 96-12-17
 41
0.749999888539317
 72
     1
 11
148.487564086914
 21
-210.134937286377
 31
0.0
 73
     2
  0
TEXT
  5
   4BC
  8
0
  6
CONTINUOUS
 62
     7
 10
137.387565543588
 20
-206.901561754303
 30
0.0
 40
2.00000003448554
  1
M 3076 95-01-16
 41
0.749999888539317
 72
     1
 11
148.487564086914
 21
-205.901561737061
 31
0.0
 73
     2
  0
TEXT
  5
   4BD
  8
0
  6
CONTINUOUS
 62
     7
 10
243.32354735318
 20
-53.0767311909275
 30
0.0
 40
2.99999997871263
  1
Y
 41
0.916666703091727
 72
     1
 11
244.423547394052
 21
-51.5767312015712
 31
0.0
 73
     2
  0
TEXT
  5
   4BE
  8
0
  6
CONTINUOUS
 62
     7
 10
186.725724625859
 20
-206.872508404701
 30
0.0
 40
2.00000003448554
  1
M 3212 95-12-06
 41
0.749999888539317
 72
     1
 11
197.825723169185
 21
-205.872508387458
 31
0.0
 73
     2
  0
TEXT
  5
   4BF
  8
0
  6
CONTINUOUS
 62
     7
 10
162.077562776022
 20
-206.901561138581
 30
0.0
 40
2.00000003448554
  1
M 3142 95-06-12
 41
0.749999888539317
 72
     1
 11
173.177561319349
 21
-205.901561121338
 31
0.0
 73
     2
  0
INSERT
  5
   4C0
  8
0
  6
CONTINUOUS
 62
     7
  2
*UDIM322
 10
0.0
 20
0.0
 30
0.0
  0
INSERT
  5
   4C1
  8
0
  6
CONTINUOUS
 62
     7
  2
*UDIM323
 10
0.0
 20
0.0
 30
0.0
  0
INSERT
  5
   4C2
  8
0
  6
CONTINUOUS
 62
     7
  2
*UDIM324
 10
0.0
 20
0.0
 30
0.0
  0
INSERT
  5
   4C3
  8
0
  6
CONTINUOUS
 62
     7
  2
*UDIM325
 10
0.0
 20
0.0
 30
0.0
  0
INSERT
  5
   4C4
  8
0
  6
CONTINUOUS
 62
     7
  2
*UDIM326
 10
0.0
 20
0.0
 30
0.0
  0
INSERT
  5
   4C5
  8
0
  6
CONTINUOUS
 62
     7
  2
*UDIM327
 10
0.0
 20
0.0
 30
0.0
  0
INSERT
  5
   4C6
  8
0
  6
CONTINUOUS
 62
     7
  2
*UDIM328
 10
0.0
 20
0.0
 30
0.0
  0
INSERT
  5
   4C7
  8
0
  6
CONTINUOUS
 62
     7
  2
*UDIM329
 10
0.0
 20
0.0
 30
0.0
  0
INSERT
  5
   4C8
  8
0
  6
CONTINUOUS
 62
     7
  2
*UDIM330
 10
0.0
 20
0.0
 30
0.0
  0
INSERT
  5
   4C9
  8
0
  6
CONTINUOUS
 62
     7
  2
*UDIM331
 10
0.0
 20
0.0
 30
0.0
  0
TEXT
  5
   4CA
  8
0
  6
CONTINUOUS
 62
     7
 10
241.637492077997
 20
-37.3579616460326
 30
0.0
 40
2.99999997871263
  1
Y
 41
0.916666703091727
 11
241.637492077997
 21
-34.35796166732
 31
0.0
 73
     3
  0
TEXT
  5
   4CB
  8
0
  6
CONTINUOUS
 62
     7
 10
281.491330129148
 20
1.87933437133662
 30
0.0
 40
2.99999997871263
  1
X
 41
0.916666703091727
 11
281.491330129148
 21
4.87933435004925
 31
0.0
 73
     3
  0
TEXT
  5
   4CC
  8
0
  6
CONTINUOUS
 62
     7
 10
197.280762324583
 20
2.22827159073606
 30
0.0
 40
2.99999997871263
  1
X
 41
0.916666703091727
 11
197.280762324583
 21
5.22827156944868
 31
0.0
 73
     3
  0
TEXT
  5
   4CD
  8
0
  6
CONTINUOUS
 62
     7
 10
242.061242757426
 20
47.1250687692634
 30
0.0
 40
2.99999997871263
  1
Y
 41
0.916666703091727
 11
242.061242757426
 21
50.125068747976
 31
0.0
 73
     3
  0
TEXT
  5
   4CE
  8
0
  6
CONTINUOUS
 62
     7
 10
130.243331693676
 20
-191.841892345928
 30
0.0
 40
2.00000003448554
  1
94-02-07 BARCELLA
 41
0.749999888539317
 72
     2
 11
155.443328386214
 21
-191.841892345928
 31
0.0
  0
TEXT
  5
   4CF
  8
0
  6
CONTINUOUS
 62
     7
 10
231.973709153255
 20
-218.083685285954
 30
0.0
 40
4.00000006897109
  1
601840/331
 41
0.937499981746078
 72
     2
 11
268.72370905677
 21
-218.083685285954
 31
0.0
  0
TEXT
  5
   4D0
  8
0
  6
CONTINUOUS
 62
     7
 10
249.059400270603
 20
-209.102099141786
 30
0.0
 40
2.99999997871263
  1
S7 IV
 41
0.91666663951344
 72
     2
 11
262.259399802422
 21
-209.102099141786
 31
0.0
  0
TEXT
  5
   4D1
  8
0
  6
CONTINUOUS
 62
     7
 10
219.837478807647
 20
-190.791827804748
 30
0.0
 40
2.00000003448554
  1
ROTARY HANDLE OPERATING MECHANISM APPLICATION
 41
0.687500013932585
 72
     1
 11
250.63747996271
 21
-189.791827787505
 31
0.0
 73
     2
  0
TEXT
  5
   4D2
  8
0
  6
CONTINUOUS
 62
     7
 10
224.649979250424
 20
-193.791827804748
 30
0.0
 40
2.00000003448554
  1
WITH ADJUSTABLE DEPTH ON ISOMAX SERIES
 41
0.687500013932585
 72
     1
 11
250.637480224978
 21
-192.791827787505
 31
0.0
 73
     2
  0
TEXT
  5
   4D3
  8
0
  6
CONTINUOUS
 62
     7
 10
227.289868044082
 20
-198.862089813308
 30
0.0
 40
2.00000003448554
  1
APPLICAZIONE MANIGLIA ROTANTE
 41
0.687500013932585
 72
     1
 11
247.089868786553
 21
-197.862089796065
 31
0.0
 73
     2
  0
TEXT
  5
   4D4
  8
0
  6
CONTINUOUS
 62
     7
 10
223.852368177415
 20
-201.862089813308
 30
0.0
 40
2.00000003448554
  1
A DISTANZA REGOLABILE SERIE ISOMAX
 41
0.687500013932585
 72
     1
 11
247.089869048822
 21
-200.862089796065
 31
0.0
 73
     2
  0
LINE
  5
   4D5
  8
0
  6
DASHDOT
 62
     7
 10
261.531762481245
 20
-60.3001376390457
 30
0.0
 11
228.924756199806
 21
-60.3001376390457
 31
0.0
  0
LINE
  5
   4D6
  8
0
  6
DASHDOT
 62
     7
 10
261.18216151321
 20
-121.9001339674
 30
0.0
 11
227.251022905243
 21
-121.9001339674
 31
0.0
  0
LINE
  5
   4D7
  8
0
  6
DASHDOT
 62
     7
 10
221.248704254627
 20
-54.9339514448203
 30
0.0
 11
221.248704254627
 21
-88.4987670488903
 31
0.0
  0
LINE
  5
   4D8
  8
0
  6
DASHDOT
 62
     7
 10
249.248702585697
 20
-55.4135544142545
 30
0.0
 11
249.248702585697
 21
-93.3113291731263
 31
0.0
  0
LINE
  5
   4D9
  8
0
  6
CONTINUOUS
 62
     1
 10
267.248701512814
 20
-56.3001378774643
 30
0.0
 11
267.248701512814
 21
-102.534546161169
 31
0.0
  0
LINE
  5
   4DA
  8
0
  6
CONTINUOUS
 62
     1
 10
267.248701512814
 20
-56.3001378774643
 30
0.0
 11
203.248705327511
 21
-56.3001378774643
 31
0.0
  0
LINE
  5
   4DB
  8
0
  6
CONTINUOUS
 62
     1
 10
203.248705327511
 20
-56.3001378774643
 30
0.0
 11
203.248705327511
 21
-103.014149130603
 31
0.0
  0
LINE
  5
   4DC
  8
0
  6
CONTINUOUS
 62
     1
 10
267.248701512814
 20
-125.900133728981
 30
0.0
 11
203.248705327511
 21
-125.900133728981
 31
0.0
  0
LINE
  5
   4DD
  8
0
  6
DASHDOT
 62
     7
 10
270.837044869807
 20
-91.1001358032227
 30
0.0
 11
214.456752861281
 21
-91.1001358032227
 31
0.0
  0
LINE
  5
   4DE
  8
0
  6
DASHDOT
 62
     7
 10
242.24870300293
 20
-51.2170284317049
 30
0.0
 11
242.24870300293
 21
-102.936453421599
 31
0.0
  0
CIRCLE
  5
   4DF
  8
0
  6
CONTINUOUS
 62
     7
 10
221.248704254627
 20
-60.3001376390457
 30
0.0
 40
0.549999967217445
  0
CIRCLE
  5
   4E0
  8
0
  6
CONTINUOUS
 62
     7
 10
249.248702585697
 20
-60.3001376390457
 30
0.0
 40
0.549999967217445
  0
CIRCLE
  5
   4E1
  8
0
  6
CONTINUOUS
 62
     7
 10
221.248704254627
 20
-121.9001339674
 30
0.0
 40
0.549999967217445
  0
CIRCLE
  5
   4E2
  8
0
  6
CONTINUOUS
 62
     7
 10
249.248702585697
 20
-121.9001339674
 30
0.0
 40
0.549999967217445
  0
LINE
  5
   4E3
  8
0
  6
DASHDOT
 62
     7
 10
212.213320813074
 20
-91.1001358032227
 30
0.0
 11
207.34152549773
 21
-91.1001358032227
 31
0.0
  0
LINE
  5
   4E4
  8
0
  6
DASHDOT
 62
     7
 10
228.248703837395
 20
-55.6533558989716
 30
0.0
 11
228.248703837395
 21
-98.5983692532731
 31
0.0
  0
LINE
  5
   4E5
  8
0
  6
DASHDOT
 62
     7
 10
256.248702168465
 20
-55.1737529295374
 30
0.0
 11
256.248702168465
 21
-126.994297602315
 31
0.0
  0
LINE
  5
   4E6
  8
0
  6
DASHDOT
 62
     7
 10
214.24870467186
 20
-55.1737529295374
 30
0.0
 11
214.24870467186
 21
-127.35399982939
 31
0.0
  0
LINE
  5
   4E7
  8
0
  6
DASHDOT
 62
     7
 10
271.809869846793
 20
-66.6001372635365
 30
0.0
 11
200.328382407386
 21
-66.6001372635365
 31
0.0
  0
LINE
  5
   4E8
  8
0
  6
DASHDOT
 62
     7
 10
271.809869846793
 20
-115.600134342909
 30
0.0
 11
200.328382407386
 21
-115.600134342909
 31
0.0
  0
ARC
  5
   4E9
  8
0
  6
CONTINUOUS
 62
     7
 10
214.24870467186
 20
-66.6001372635365
 30
0.0
 40
7.99999952316284
 50
179.999999896069
 51
321.317812442579
  0
ARC
  5
   4EA
  8
0
  6
CONTINUOUS
 62
     7
 10
228.248703837395
 20
-66.6001372635365
 30
0.0
 40
7.99999952316284
 50
218.682187349558
 51
321.317812442579
  0
ARC
  5
   4EB
  8
0
  6
CONTINUOUS
 62
     7
 10
242.24870300293
 20
-66.6001372635365
 30
0.0
 40
7.99999952316284
 50
218.682187349558
 51
321.317812442579
  0
ARC
  5
   4EC
  8
0
  6
CONTINUOUS
 62
     7
 10
256.248702168465
 20
-66.6001372635365
 30
0.0
 40
7.99999952316284
 50
218.682187349558
 51
501.317812442579
  0
LINE
  5
   4ED
  8
0
  6
CONTINUOUS
 62
     7
 10
250.003704542297
 20
-61.6001375615597
 30
0.0
 11
248.493700629097
 21
-61.6001375615597
 31
0.0
  0
LINE
  5
   4EE
  8
0
  6
CONTINUOUS
 62
     7
 10
250.003704542297
 20
-71.6001369655132
 30
0.0
 11
248.493700629097
 21
-71.6001369655132
 31
0.0
  0
LINE
  5
   4EF
  8
0
  6
CONTINUOUS
 62
     7
 10
236.003705376762
 20
-61.6001375615597
 30
0.0
 11
234.493701463562
 21
-61.6001375615597
 31
0.0
  0
LINE
  5
   4F0
  8
0
  6
CONTINUOUS
 62
     7
 10
236.003705376762
 20
-71.6001369655132
 30
0.0
 11
234.493701463562
 21
-71.6001369655132
 31
0.0
  0
LINE
  5
   4F1
  8
0
  6
CONTINUOUS
 62
     7
 10
222.003706211227
 20
-61.6001375615597
 30
0.0
 11
220.493702298027
 21
-61.6001375615597
 31
0.0
  0
LINE
  5
   4F2
  8
0
  6
CONTINUOUS
 62
     7
 10
222.003706211227
 20
-71.6001369655132
 30
0.0
 11
220.493702298027
 21
-71.6001369655132
 31
0.0
  0
ARC
  5
   4F3
  8
0
  6
CONTINUOUS
 62
     7
 10
214.24870467186
 20
-66.6001372635365
 30
0.0
 40
7.99999952316284
 50
398.682187349558
 51
539.999999896069
  0
ARC
  5
   4F4
  8
0
  6
CONTINUOUS
 62
     7
 10
228.248703837395
 20
-66.6001372635365
 30
0.0
 40
7.99999952316284
 50
398.682187349558
 51
501.317812442579
  0
ARC
  5
   4F5
  8
0
  6
CONTINUOUS
 62
     7
 10
242.24870300293
 20
-66.6001372635365
 30
0.0
 40
7.99999952316284
 50
398.682187349558
 51
501.317812442579
  0
ARC
  5
   4F6
  8
0
  6
CONTINUOUS
 62
     7
 10
214.24870467186
 20
-115.600134342909
 30
0.0
 40
7.99999952316284
 50
179.999999896069
 51
321.317812442579
  0
ARC
  5
   4F7
  8
0
  6
CONTINUOUS
 62
     7
 10
214.24870467186
 20
-115.600134342909
 30
0.0
 40
7.99999952316284
 50
398.682187349558
 51
539.999999896069
  0
LINE
  5
   4F8
  8
0
  6
CONTINUOUS
 62
     7
 10
222.003706211227
 20
-110.600134640932
 30
0.0
 11
220.493702298027
 21
-110.600134640932
 31
0.0
  0
LINE
  5
   4F9
  8
0
  6
CONTINUOUS
 62
     7
 10
222.003706211227
 20
-120.600134044886
 30
0.0
 11
220.493702298027
 21
-120.600134044886
 31
0.0
  0
ARC
  5
   4FA
  8
0
  6
CONTINUOUS
 62
     7
 10
228.248703837395
 20
-115.600134342909
 30
0.0
 40
7.99999952316284
 50
398.682187349558
 51
501.317812442579
  0
ARC
  5
   4FB
  8
0
  6
CONTINUOUS
 62
     7
 10
228.248703837395
 20
-115.600134342909
 30
0.0
 40
7.99999952316284
 50
218.682187349558
 51
321.317812442579
  0
ARC
  5
   4FC
  8
0
  6
CONTINUOUS
 62
     7
 10
242.24870300293
 20
-115.600134342909
 30
0.0
 40
7.99999952316284
 50
218.682187349558
 51
321.317812442579
  0
ARC
  5
   4FD
  8
0
  6
CONTINUOUS
 62
     7
 10
242.24870300293
 20
-115.600134342909
 30
0.0
 40
7.99999952316284
 50
398.682187349558
 51
501.317812442579
  0
ARC
  5
   4FE
  8
0
  6
CONTINUOUS
 62
     7
 10
256.248702168465
 20
-115.600134342909
 30
0.0
 40
7.99999952316284
 50
218.682187349558
 51
501.317812442579
  0
LINE
  5
   4FF
  8
0
  6
CONTINUOUS
 62
     7
 10
236.003705376762
 20
-110.600134640932
 30
0.0
 11
234.493701463562
 21
-110.600134640932
 31
0.0
  0
LINE
  5
   500
  8
0
  6
CONTINUOUS
 62
     7
 10
236.003705376762
 20
-120.600134044886
 30
0.0
 11
234.493701463562
 21
-120.600134044886
 31
0.0
  0
LINE
  5
   501
  8
0
  6
CONTINUOUS
 62
     7
 10
250.003704542297
 20
-110.600134640932
 30
0.0
 11
248.493700629097
 21
-110.600134640932
 31
0.0
  0
LINE
  5
   502
  8
0
  6
CONTINUOUS
 62
     7
 10
250.003704542297
 20
-120.600134044886
 30
0.0
 11
248.493700629097
 21
-120.600134044886
 31
0.0
  0
LINE
  5
   503
  8
0
  6
DASHDOT
 62
     7
 10
228.705924727161
 20
-60.3001376390457
 30
0.0
 11
184.104996871565
 21
-60.3001376390457
 31
0.0
  0
LINE
  5
   504
  8
0
  6
DASHDOT
 62
     7
 10
227.251022905243
 20
-121.9001339674
 30
0.0
 11
177.258957793426
 21
-121.9001339674
 31
0.0
  0
LINE
  5
   505
  8
0
  6
DASHDOT
 62
     7
 10
221.248704254627
 20
-100.699628772306
 30
0.0
 11
221.248704254627
 21
-126.874396859956
 31
0.0
  0
LINE
  5
   506
  8
0
  6
DASHDOT
 62
     7
 10
228.248703837395
 20
-106.935624764274
 30
0.0
 11
228.248703837395
 21
-127.35399982939
 31
0.0
  0
LINE
  5
   507
  8
0
  6
DASHDOT
 62
     7
 10
242.24870300293
 20
-106.732277068883
 30
0.0
 11
242.24870300293
 21
-131.070922842506
 31
0.0
  0
LINE
  5
   508
  8
0
  6
DASHDOT
 62
     7
 10
249.248702585697
 20
-100.970759032826
 30
0.0
 11
249.248702585697
 21
-126.994297602315
 31
0.0
  0
LINE
  5
   509
  8
0
  6
DASHDOT
 62
     7
 10
235.248703420162
 20
-55.2936536718959
 30
0.0
 11
235.248703420162
 21
-92.6335035218255
 31
0.0
  0
LINE
  5
   50A
  8
0
  6
DASHDOT
 62
     7
 10
235.248703420162
 20
-112.22266484442
 30
0.0
 11
235.248703420162
 21
-128.433106510618
 31
0.0
  0
LINE
  5
   50B
  8
0
  6
CONTINUOUS
 62
     1
 10
203.248705327511
 20
-113.685315200515
 30
0.0
 11
203.248705327511
 21
-125.900133728981
 31
0.0
  0
LINE
  5
   50C
  8
0
  6
DASHDOT
 62
     7
 10
173.597405902359
 20
-91.1001358032227
 30
0.0
 11
170.479986601037
 21
-91.1001358032227
 31
0.0
  0
LINE
  5
   50D
  8
0
  6
CONTINUOUS
 62
     1
 10
267.248701512814
 20
-114.764421881742
 30
0.0
 11
267.248701512814
 21
-125.900133728981
 31
0.0
  0
CIRCLE
  5
   50E
  8
0
  6
CONTINUOUS
 62
     7
 10
206.248705148697
 20
-58.6001377403736
 30
0.0
 40
0.359999978542328
  0
CIRCLE
  5
   50F
  8
0
  6
CONTINUOUS
 62
     7
 10
206.248705148697
 20
-74.6001367866993
 30
0.0
 40
0.359999978542328
  0
CIRCLE
  5
   510
  8
0
  6
CONTINUOUS
 62
     7
 10
206.248705148697
 20
-107.600134819746
 30
0.0
 40
0.359999978542328
  0
CIRCLE
  5
   511
  8
0
  6
CONTINUOUS
 62
     7
 10
206.248705148697
 20
-123.600133866072
 30
0.0
 40
0.359999978542328
  0
CIRCLE
  5
   512
  8
0
  6
CONTINUOUS
 62
     7
 10
264.248701691628
 20
-123.600133866072
 30
0.0
 40
0.359999978542328
  0
CIRCLE
  5
   513
  8
0
  6
CONTINUOUS
 62
     7
 10
264.248701691628
 20
-107.600134819746
 30
0.0
 40
0.359999978542328
  0
CIRCLE
  5
   514
  8
0
  6
CONTINUOUS
 62
     7
 10
264.248701691628
 20
-74.6001367866993
 30
0.0
 40
0.359999978542328
  0
CIRCLE
  5
   515
  8
0
  6
CONTINUOUS
 62
     7
 10
264.248701691628
 20
-58.6001377403736
 30
0.0
 40
0.359999978542328
  0
LINE
  5
   516
  8
0
  6
DASHDOT
 62
     7
 10
206.248705148697
 20
-56.2401378810406
 30
0.0
 11
206.248705148697
 21
-60.9601375997067
 31
0.0
  0
LINE
  5
   517
  8
0
  6
DASHDOT
 62
     7
 10
208.60870500803
 20
-58.6001377403736
 30
0.0
 11
203.888705289364
 21
-58.6001377403736
 31
0.0
  0
LINE
  5
   518
  8
0
  6
DASHDOT
 62
     7
 10
206.248705148697
 20
-72.2401369273663
 30
0.0
 11
206.248705148697
 21
-76.9601366460323
 31
0.0
  0
LINE
  5
   519
  8
0
  6
DASHDOT
 62
     7
 10
208.60870500803
 20
-74.6001367866993
 30
0.0
 11
203.888705289364
 21
-74.6001367866993
 31
0.0
  0
LINE
  5
   51A
  8
0
  6
DASHDOT
 62
     7
 10
206.248705148697
 20
-105.240134960413
 30
0.0
 11
206.248705148697
 21
-109.960134679079
 31
0.0
  0
LINE
  5
   51B
  8
0
  6
DASHDOT
 62
     7
 10
208.60870500803
 20
-107.600134819746
 30
0.0
 11
203.888705289364
 21
-107.600134819746
 31
0.0
  0
LINE
  5
   51C
  8
0
  6
DASHDOT
 62
     7
 10
206.248705148697
 20
-121.240134006739
 30
0.0
 11
206.248705148697
 21
-125.960133725405
 31
0.0
  0
LINE
  5
   51D
  8
0
  6
DASHDOT
 62
     7
 10
208.60870500803
 20
-123.600133866072
 30
0.0
 11
203.888705289364
 21
-123.600133866072
 31
0.0
  0
LINE
  5
   51E
  8
0
  6
DASHDOT
 62
     7
 10
264.248701691628
 20
-121.240134006739
 30
0.0
 11
264.248701691628
 21
-125.960133725405
 31
0.0
  0
LINE
  5
   51F
  8
0
  6
DASHDOT
 62
     7
 10
266.608701550961
 20
-123.600133866072
 30
0.0
 11
261.888701832295
 21
-123.600133866072
 31
0.0
  0
LINE
  5
   520
  8
0
  6
DASHDOT
 62
     7
 10
264.248701691628
 20
-105.240134960413
 30
0.0
 11
264.248701691628
 21
-109.960134679079
 31
0.0
  0
LINE
  5
   521
  8
0
  6
DASHDOT
 62
     7
 10
266.608701550961
 20
-107.600134819746
 30
0.0
 11
261.888701832295
 21
-107.600134819746
 31
0.0
  0
LINE
  5
   522
  8
0
  6
DASHDOT
 62
     7
 10
264.248701691628
 20
-56.2401378810406
 30
0.0
 11
264.248701691628
 21
-60.9601375997067
 31
0.0
  0
LINE
  5
   523
  8
0
  6
DASHDOT
 62
     7
 10
266.608701550961
 20
-58.6001377403736
 30
0.0
 11
261.888701832295
 21
-58.6001377403736
 31
0.0
  0
LINE
  5
   524
  8
0
  6
DASHDOT
 62
     7
 10
264.248701691628
 20
-72.2401369273663
 30
0.0
 11
264.248701691628
 21
-76.9601366460323
 31
0.0
  0
LINE
  5
   525
  8
0
  6
DASHDOT
 62
     7
 10
266.608701550961
 20
-74.6001367866993
 30
0.0
 11
261.888701832295
 21
-74.6001367866993
 31
0.0
  0
INSERT
  5
   526
  8
0
  6
CONTINUOUS
 62
     7
  2
*UDIM332
 10
0.0
 20
0.0
 30
0.0
  0
INSERT
  5
   527
  8
0
  6
CONTINUOUS
 62
     7
  2
*UDIM333
 10
0.0
 20
0.0
 30
0.0
  0
INSERT
  5
   528
  8
0
  6
CONTINUOUS
 62
     7
  2
*UDIM334
 10
0.0
 20
0.0
 30
0.0
  0
INSERT
  5
   529
  8
0
  6
CONTINUOUS
 62
     7
  2
*UDIM335
 10
0.0
 20
0.0
 30
0.0
  0
TEXT
  5
   52A
  8
0
  6
CONTINUOUS
 62
     7
 10
241.228945694818
 20
-134.549150783873
 30
0.0
 40
3.00000005960463
  1
Y
 50
359.999999896069
 41
0.916666581564485
 72
     2
 11
243.428945516004
 21
-134.549150787852
 31
0.0
  0
INSERT
  5
   52B
  8
0
  6
CONTINUOUS
 62
     7
  2
*UDIM336
 10
0.0
 20
0.0
 30
0.0
  0
INSERT
  5
   52C
  8
0
  6
CONTINUOUS
 62
     7
  2
*UDIM337
 10
0.0
 20
0.0
 30
0.0
  0
INSERT
  5
   52D
  8
0
  6
CONTINUOUS
 62
     7
  2
*UDIM338
 10
0.0
 20
0.0
 30
0.0
  0
INSERT
  5
   52E
  8
0
  6
CONTINUOUS
 62
     7
  2
*UDIM339
 10
0.0
 20
0.0
 30
0.0
  0
INSERT
  5
   52F
  8
0
  6
CONTINUOUS
 62
     7
  2
*UDIM340
 10
0.0
 20
0.0
 30
0.0
  0
INSERT
  5
   530
  8
0
  6
CONTINUOUS
 62
     7
  2
*UDIM341
 10
0.0
 20
0.0
 30
0.0
  0
INSERT
  5
   531
  8
0
  6
CONTINUOUS
 62
     7
  2
*UDIM342
 10
0.0
 20
0.0
 30
0.0
  0
INSERT
  5
   532
  8
0
  6
CONTINUOUS
 62
     7
  2
*UDIM343
 10
0.0
 20
0.0
 30
0.0
  0
INSERT
  5
   533
  8
0
  6
CONTINUOUS
 62
     7
  2
*UDIM344
 10
0.0
 20
0.0
 30
0.0
  0
TEXT
  5
   534
  8
0
  6
CONTINUOUS
 62
     7
 10
272.486616236959
 20
-92.4920404061503
 30
0.0
 40
3.00000005960463
  1
X
 50
359.999999896069
 41
0.916666581564485
 72
     2
 11
274.686616058145
 21
-92.4920404101299
 31
0.0
  0
TEXT
  5
   535
  8
0
  6
CONTINUOUS
 62
     7
 10
167.122767536665
 20
-92.5852660704545
 30
0.0
 40
3.00000005960463
  1
X
 50
359.999999896069
 41
0.916666581564485
 72
     2
 11
169.322767357851
 21
-92.5852660744341
 31
0.0
  0
INSERT
  5
   536
  8
0
  6
CONTINUOUS
 62
     7
  2
*UDIM345
 10
0.0
 20
0.0
 30
0.0
  0
INSERT
  5
   537
  8
0
  6
CONTINUOUS
 62
     7
  2
*UDIM346
 10
0.0
 20
0.0
 30
0.0
  0
INSERT
  5
   538
  8
0
  6
CONTINUOUS
 62
     7
  2
*UDIM347
 10
0.0
 20
0.0
 30
0.0
  0
LINE
  5
   539
  8
0
  6
CONTINUOUS
 62
   212
 10
-23.3679580284261
 20
-129.816436166795
 30
0.0
 11
-23.3679580284261
 21
-133.05544228502
 31
0.0
  0
LINE
  5
   53A
  8
0
  6
CONTINUOUS
 62
   212
 10
25.6320597707628
 20
-133.056456593781
 30
0.0
 11
25.6320561797282
 21
-129.820504109414
 31
0.0
  0
LINE
  5
   53B
  8
0
  6
CONTINUOUS
 62
   212
 10
25.2235244110211
 20
-133.492997866869
 30
0.0
 11
-22.2304607366814
 21
-133.492997866869
 31
0.0
  0
LINE
  5
   53C
  8
0
  6
CONTINUOUS
 62
   212
 10
-11.2929502417937
 20
-133.842995190621
 30
0.0
 11
-13.3780286364608
 21
-133.842995190621
 31
0.0
  0
LINE
  5
   53D
  8
0
  6
CONTINUOUS
 62
   212
 10
-23.3311356500784
 20
-133.144344484664
 30
0.0
 11
-23.3680430362297
 21
-133.14434982524
 31
0.0
  0
LINE
  5
   53E
  8
0
  6
CONTINUOUS
 62
   212
 10
-4.11796011814532
 20
-133.841588125559
 30
0.0
 11
-4.56730016786614
 21
-133.841656217906
 31
0.0
  0
LINE
  5
   53F
  8
0
  6
CONTINUOUS
 62
   212
 10
-4.56730017884816
 20
-133.841656217778
 30
0.0
 11
-5.88055317772384
 21
-133.841855154228
 31
0.0
  0
LINE
  5
   540
  8
0
  6
CONTINUOUS
 62
   212
 10
-5.88055587382718
 20
-133.841856490247
 30
0.0
 11
-7.92917682587785
 21
-133.842167578807
 31
0.0
  0
LINE
  5
   541
  8
0
  6
CONTINUOUS
 62
   212
 10
-7.92917687237011
 20
-133.842167578968
 30
0.0
 11
-13.3780277927603
 21
-133.842995368249
 31
0.0
  0
LINE
  5
   542
  8
0
  6
CONTINUOUS
 62
   212
 10
-11.9929498893845
 20
-133.842995271291
 30
0.0
 11
-16.2448869202459
 21
-133.843430528235
 31
0.0
  0
LINE
  5
   543
  8
0
  6
CONTINUOUS
 62
   212
 10
-16.2448888950556
 20
-133.843181665354
 30
0.0
 11
-18.8325795985054
 21
-133.843822534469
 31
0.0
  0
LINE
  5
   544
  8
0
  6
CONTINUOUS
 62
   212
 10
-18.8325798660241
 20
-133.843699572165
 30
0.0
 11
-20.8878044847909
 21
-133.844133493975
 31
0.0
  0
LINE
  5
   545
  8
0
  6
CONTINUOUS
 62
   212
 10
-20.8878015912244
 20
-133.844071621627
 30
0.0
 11
-22.2093752076342
 21
-133.844334644992
 31
0.0
  0
LINE
  5
   546
  8
0
  6
CONTINUOUS
 62
   212
 10
-22.2093752946248
 20
-133.844313270733
 30
0.0
 11
-23.3679377404056
 21
-133.84453927904
 31
0.0
  0
LINE
  5
   547
  8
0
  6
CONTINUOUS
 62
   212
 10
-20.8878019790582
 20
-133.844131576593
 30
0.0
 11
-20.905343101196
 21
-133.844134246881
 31
0.0
  0
LINE
  5
   548
  8
0
  6
CONTINUOUS
 62
   212
 10
-18.8325772455648
 20
-133.84381918634
 30
0.0
 11
-18.8567219900266
 21
-133.843823191772
 31
0.0
  0
LINE
  5
   549
  8
0
  6
CONTINUOUS
 62
   212
 10
-11.9929498893845
 20
-133.842995271291
 30
0.0
 11
-16.2448869202459
 21
-133.843430528235
 31
0.0
  0
LINE
  5
   54A
  8
0
  6
CONTINUOUS
 62
   212
 10
-11.6429502358333
 20
-133.842995190621
 30
0.0
 11
-13.3780286364608
 21
-133.842995190621
 31
0.0
  0
LINE
  5
   54B
  8
0
  6
CONTINUOUS
 62
   212
 10
-7.92917589988149
 20
-133.842167783665
 30
0.0
 11
-11.6429484196441
 21
-133.842995572948
 31
0.0
  0
LINE
  5
   54C
  8
0
  6
CONTINUOUS
 62
   212
 10
-7.92917562074358
 20
-133.842167842412
 30
0.0
 11
-11.3867313327358
 21
-133.842995631728
 31
0.0
  0
LINE
  5
   54D
  8
0
  6
CONTINUOUS
 62
   212
 10
-7.92917550228105
 20
-133.842167867343
 30
0.0
 11
-11.2929480280042
 21
-133.842995656654
 31
0.0
  0
LINE
  5
   54E
  8
0
  6
CONTINUOUS
 62
   212
 10
-11.2929502417937
 20
-133.842995190621
 30
0.0
 11
-11.9929502298728
 21
-133.842995190621
 31
0.0
  0
LINE
  5
   54F
  8
0
  6
CONTINUOUS
 62
   212
 10
-7.92917567334017
 20
-133.842167831343
 30
0.0
 11
-11.5043869466832
 21
-133.843012977507
 31
0.0
  0
LINE
  5
   550
  8
0
  6
CONTINUOUS
 62
   212
 10
0.432016874547237
 20
-131.917999228835
 30
0.0
 11
-0.092983116512066
 21
-131.917999228835
 31
0.0
  0
LINE
  5
   551
  8
0
  6
CONTINUOUS
 62
   212
 10
2.35701684176468
 20
-131.917999228835
 30
0.0
 11
1.83201685070538
 21
-131.917999228835
 31
0.0
  0
LINE
  5
   552
  8
0
  6
CONTINUOUS
 62
   212
 10
1.83201685070538
 20
-131.917999228835
 30
0.0
 11
0.432016874547237
 21
-131.917999228835
 31
0.0
  0
LINE
  5
   553
  8
0
  6
CONTINUOUS
 62
   212
 10
0.432016874547237
 20
-131.917999228835
 30
0.0
 11
0.432016874547237
 21
-132.617941805721
 31
0.0
  0
LINE
  5
   554
  8
0
  6
CONTINUOUS
 62
   212
 10
1.83201685070538
 20
-131.917999228835
 30
0.0
 11
1.83201685070538
 21
-132.617941805721
 31
0.0
  0
LINE
  5
   555
  8
0
  6
CONTINUOUS
 62
   212
 10
2.35701684176468
 20
-131.567941823603
 30
0.0
 11
-0.092983116512066
 21
-131.567941823603
 31
0.0
  0
LINE
  5
   556
  8
0
  6
CONTINUOUS
 62
   212
 10
2.35701684176468
 20
-131.567941823603
 30
0.0
 11
2.35701684176468
 21
-132.617941805721
 31
0.0
  0
LINE
  5
   557
  8
0
  6
CONTINUOUS
 62
   212
 10
2.35701684176468
 20
-132.617941805721
 30
0.0
 11
-0.092983116512066
 21
-132.617941805721
 31
0.0
  0
LINE
  5
   558
  8
0
  6
CONTINUOUS
 62
   212
 10
-0.092983116512066
 20
-131.567941823603
 30
0.0
 11
-0.092983116512066
 21
-132.617941805721
 31
0.0
  0
LINE
  5
   559
  8
0
  6
CONTINUOUS
 62
   212
 10
23.272662685663
 20
-129.818955467986
 30
0.0
 11
23.272662685663
 21
-130.518952785777
 31
0.0
  0
LINE
  5
   55A
  8
0
  6
CONTINUOUS
 62
   212
 10
22.3070598273513
 20
-129.818954132842
 30
0.0
 11
22.3070598273513
 21
-130.518954120921
 31
0.0
  0
LINE
  5
   55B
  8
0
  6
CONTINUOUS
 62
   212
 10
23.8820170759536
 20
-129.818955467989
 30
0.0
 11
20.3820064544061
 21
-129.818952797701
 31
0.0
  0
LINE
  5
   55C
  8
0
  6
CONTINUOUS
 62
   212
 10
20.3820171417322
 20
-130.518956794181
 30
0.0
 11
20.3820064605801
 21
-129.818952800647
 31
0.0
  0
LINE
  5
   55D
  8
0
  6
CONTINUOUS
 62
   212
 10
23.8820170760529
 20
-130.518951450647
 30
0.0
 11
20.3820171356575
 21
-130.518956791223
 31
0.0
  0
LINE
  5
   55E
  8
0
  6
CONTINUOUS
 62
   212
 10
23.8820170759206
 20
-129.818955467986
 30
0.0
 11
23.8820170759206
 21
-130.518951450633
 31
0.0
  0
LINE
  5
   55F
  8
0
  6
CONTINUOUS
 62
   212
 10
21.6344997240837
 20
-130.518900715716
 30
0.0
 11
20.3820171404329
 21
-130.518912732012
 31
0.0
  0
LINE
  5
   560
  8
0
  6
CONTINUOUS
 62
   253
 10
-4.11801712118427
 20
-148.536084234832
 30
0.0
 11
-22.6680168052797
 21
-148.536084234832
 31
0.0
  0
LINE
  5
   561
  8
0
  6
CONTINUOUS
 62
   253
 10
-24.767956688035
 20
-143.461084321261
 30
0.0
 11
-24.767958023179
 21
-147.748584248246
 31
0.0
  0
LINE
  5
   562
  8
0
  6
CONTINUOUS
 62
   253
 10
11.9820440212593
 20
-143.461084321259
 30
0.0
 11
11.9820440212593
 21
-147.748584248243
 31
0.0
  0
LINE
  5
   563
  8
0
  6
CONTINUOUS
 62
   253
 10
11.5445440287099
 20
-148.186084240793
 30
0.0
 11
-24.3304580306306
 21
-148.186084240793
 31
0.0
  0
LINE
  5
   564
  8
0
  6
CONTINUOUS
 62
   253
 10
11.9820426861153
 20
-143.461084321259
 30
0.0
 11
-24.767956688036
 21
-143.461084321259
 31
0.0
  0
LINE
  5
   565
  8
0
  6
CONTINUOUS
 62
   253
 10
-24.6398177010171
 20
-148.057942225045
 30
0.0
 11
-24.7679581465868
 21
-147.748584016512
 31
0.0
  0
LINE
  5
   566
  8
0
  6
CONTINUOUS
 62
   253
 10
-24.3304553549706
 20
-148.186086544763
 30
0.0
 11
-24.6398149037535
 21
-148.057944757981
 31
0.0
  0
LINE
  5
   567
  8
0
  6
CONTINUOUS
 62
   253
 10
11.8539061141485
 20
-148.057943037087
 30
0.0
 11
11.5445479020933
 21
-148.18608482187
 31
0.0
  0
LINE
  5
   568
  8
0
  6
CONTINUOUS
 62
   253
 10
11.9820462640597
 20
-147.748585665214
 30
0.0
 11
11.8539044792767
 21
-148.05794387727
 31
0.0
  0
LINE
  5
   569
  8
0
  6
CONTINUOUS
 62
   253
 10
-7.09295565389539
 20
-146.611084267615
 30
0.0
 11
-7.61795564495469
 21
-146.611084267615
 31
0.0
  0
LINE
  5
   56A
  8
0
  6
CONTINUOUS
 62
   253
 10
-5.16795568667794
 20
-146.611084267615
 30
0.0
 11
-5.69295567773725
 21
-146.611084267615
 31
0.0
  0
LINE
  5
   56B
  8
0
  6
CONTINUOUS
 62
   253
 10
-5.69295567773725
 20
-146.611084267615
 30
0.0
 11
-7.09295565389539
 21
-146.611084267615
 31
0.0
  0
LINE
  5
   56C
  8
0
  6
CONTINUOUS
 62
   253
 10
-5.16795568667794
 20
-146.261025527238
 30
0.0
 11
-7.61795564495469
 21
-146.261025527238
 31
0.0
  0
LINE
  5
   56D
  8
0
  6
CONTINUOUS
 62
   253
 10
-5.16795568667794
 20
-146.261025527238
 30
0.0
 11
-5.16795568667794
 21
-147.311025509357
 31
0.0
  0
LINE
  5
   56E
  8
0
  6
CONTINUOUS
 62
   253
 10
-5.16795568667794
 20
-147.311025509357
 30
0.0
 11
-7.61795564495469
 21
-147.311025509357
 31
0.0
  0
LINE
  5
   56F
  8
0
  6
CONTINUOUS
 62
   253
 10
-7.61795564495469
 20
-146.261025527238
 30
0.0
 11
-7.61795564495469
 21
-147.311025509357
 31
0.0
  0
LINE
  5
   570
  8
0
  6
CONTINUOUS
 62
   253
 10
-7.09295565389539
 20
-146.611084267615
 30
0.0
 11
-7.09295565389539
 21
-147.311025509357
 31
0.0
  0
LINE
  5
   571
  8
0
  6
CONTINUOUS
 62
   253
 10
-5.69295567773725
 20
-146.611084267615
 30
0.0
 11
-5.69295567773725
 21
-147.311025509357
 31
0.0
  0
LINE
  5
   572
  8
0
  6
CONTINUOUS
 62
   130
 10
-8.31799835762035
 20
-134.017987176783
 30
0.0
 11
-18.4679688115984
 21
-134.017977830775
 31
0.0
  0
LINE
  5
   573
  8
0
  6
CONTINUOUS
 62
   130
 10
-4.11796638568934
 20
-134.192981833228
 30
0.0
 11
-22.6679994483852
 21
-134.192963141212
 31
0.0
  0
LINE
  5
   574
  8
0
  6
CONTINUOUS
 62
   130
 10
-4.11796905595855
 20
-134.717981824287
 30
0.0
 11
-22.6679967780784
 21
-134.717963132272
 31
0.0
  0
LINE
  5
   575
  8
0
  6
CONTINUOUS
 62
   130
 10
-11.1179849585185
 20
-134.717991170287
 30
0.0
 11
-11.1179849585185
 21
-138.918438372009
 31
0.0
  0
LINE
  5
   576
  8
0
  6
CONTINUOUS
 62
   130
 10
-15.6679848810325
 20
-134.717987164855
 30
0.0
 11
-15.6679848810325
 21
-138.918438372009
 31
0.0
  0
LINE
  5
   577
  8
0
  6
CONTINUOUS
 62
   130
 10
-16.1929848720918
 20
-134.717969656846
 30
0.0
 11
-16.1929848720918
 21
-138.918438372009
 31
0.0
  0
LINE
  5
   578
  8
0
  6
CONTINUOUS
 62
   130
 10
-10.5929849674592
 20
-134.71797529971
 30
0.0
 11
-10.5929849674592
 21
-138.918438372009
 31
0.0
  0
LINE
  5
   579
  8
0
  6
CONTINUOUS
 62
   130
 10
-10.9429849614987
 20
-139.268438366048
 30
0.0
 11
-15.8429848780522
 21
-139.268438366048
 31
0.0
  0
LINE
  5
   57A
  8
0
  6
CONTINUOUS
 62
   130
 10
-8.31097817038403
 20
-134.717996510863
 30
0.0
 11
-8.31097817038403
 21
-135.067983153463
 31
0.0
  0
LINE
  5
   57B
  8
0
  6
CONTINUOUS
 62
   130
 10
-4.81097822998868
 20
-135.067983153463
 30
0.0
 11
-8.31097817038403
 21
-135.067983153463
 31
0.0
  0
LINE
  5
   57C
  8
0
  6
CONTINUOUS
 62
     7
 10
-22.1926801663409
 20
-148.711084231852
 30
0.0
 11
-22.2323299383097
 21
-148.711084231852
 31
0.0
  0
LINE
  5
   57D
  8
0
  6
CONTINUOUS
 62
   212
 10
-4.11796057135113
 20
-133.841588302143
 30
0.0
 11
-4.11801397711437
 21
-133.492996885045
 31
0.0
  0
LINE
  5
   57E
  8
0
  6
CONTINUOUS
 62
   212
 10
-23.3679377697322
 20
-133.844344652665
 30
0.0
 11
-23.3680432461098
 21
-133.144350005171
 31
0.0
  0
LINE
  5
   57F
  8
0
  6
CONTINUOUS
 62
   212
 10
-4.20251036317302
 20
-133.492999206146
 30
0.0
 11
-22.9122857694608
 21
-133.492561368679
 31
0.0
  0
LINE
  5
   580
  8
0
  6
CONTINUOUS
 62
   212
 10
1.92580537755055
 20
-131.567941823603
 30
0.0
 11
1.92580537755055
 21
-131.917996558547
 31
0.0
  0
LINE
  5
   581
  8
0
  6
CONTINUOUS
 62
   212
 10
0.455120206673321
 20
-131.567941823603
 30
0.0
 11
0.455120206673321
 21
-131.917996558547
 31
0.0
  0
LINE
  5
   582
  8
0
  6
CONTINUOUS
 62
   253
 10
-22.6680168052797
 20
-148.186084240793
 30
0.0
 11
-22.6680168052797
 21
-148.536084234832
 31
0.0
  0
LINE
  5
   583
  8
0
  6
CONTINUOUS
 62
   253
 10
-4.11801712118427
 20
-148.186084240793
 30
0.0
 11
-4.11801712118427
 21
-148.536084234832
 31
0.0
  0
LINE
  5
   584
  8
0
  6
CONTINUOUS
 62
   130
 10
-18.0304821705113
 20
-133.843701481807
 30
0.0
 11
-18.0304821705113
 21
-134.017979165912
 31
0.0
  0
LINE
  5
   585
  8
0
  6
CONTINUOUS
 62
   130
 10
-8.75548232846359
 20
-133.842292904866
 30
0.0
 11
-8.75548232846359
 21
-134.01798851192
 31
0.0
  0
LINE
  5
   586
  8
0
  6
CONTINUOUS
 62
   130
 10
-18.4679688116205
 20
-134.017977830768
 30
0.0
 11
-18.4679688116205
 21
-134.192977827788
 31
0.0
  0
LINE
  5
   587
  8
0
  6
CONTINUOUS
 62
   130
 10
-8.31799568314379
 20
-134.192987177422
 30
0.0
 11
-8.31799835343183
 21
-134.017987180403
 31
0.0
  0
LINE
  5
   588
  8
0
  6
CONTINUOUS
 62
   130
 10
-22.667996777837
 20
-134.71796313267
 30
0.0
 11
-22.6679994481252
 21
-134.192963141611
 31
0.0
  0
LINE
  5
   589
  8
0
  6
CONTINUOUS
 62
   130
 10
-4.11796638518933
 20
-134.192981833627
 30
0.0
 11
-4.11796905547745
 21
-134.717981824687
 31
0.0
  0
LINE
  5
   58A
  8
0
  6
CONTINUOUS
 62
   130
 10
-4.81097822998868
 20
-134.717983159423
 30
0.0
 11
-4.81097822998868
 21
-135.067983153463
 31
0.0
  0
CIRCLE
  5
   58B
  8
0
  6
CONTINUOUS
 62
   130
 10
-13.3929828900144
 20
-136.99299117567
 30
0.0
 40
0.875001746648938
  0
ARC
  5
   58C
  8
0
  6
CONTINUOUS
 62
     7
 10
-15.8429848780522
 20
-138.918438372009
 30
0.0
 40
0.349999994039536
 50
179.999999896069
 51
269.999999896069
  0
ARC
  5
   58D
  8
0
  6
CONTINUOUS
 62
     7
 10
-10.9429849614987
 20
-138.918438372009
 30
0.0
 40
0.349999994039536
 50
269.999999896069
 51
359.999999896069
  0
LINE
  5
   58E
  8
0
  6
DASHDOT
 62
     7
 10
-13.3929828900144
 20
-135.417989440942
 30
0.0
 11
-13.3929828900144
 21
-162.317753852264
 31
0.0
  0
LINE
  5
   58F
  8
0
  6
DASHDOT
 62
     7
 10
-11.8179811552864
 20
-136.99299117567
 30
0.0
 11
-14.9679846247424
 21
-136.99299117567
 31
0.0
  0
LINE
  5
   590
  8
0
  6
CONTINUOUS
 62
     7
 10
-11.6429829198167
 20
-139.268438366048
 30
0.0
 11
-11.6429829198167
 21
-140.661084368943
 31
0.0
  0
LINE
  5
   591
  8
0
  6
CONTINUOUS
 62
     7
 10
-15.1429828602121
 20
-139.268438366048
 30
0.0
 11
-15.1429828602121
 21
-140.661084368943
 31
0.0
  0
LINE
  5
   592
  8
0
  6
CONTINUOUS
 62
     7
 10
40.507016192074
 20
-142.76108433318
 30
0.0
 11
-29.582388921264
 21
-142.76108433318
 31
0.0
  0
LINE
  5
   593
  8
0
  6
CONTINUOUS
 62
   170
 10
-8.66798297048069
 20
-140.661084368943
 30
0.0
 11
-18.1179828095481
 21
-140.661084368943
 31
0.0
  0
LINE
  5
   594
  8
0
  6
CONTINUOUS
 62
   170
 10
-8.66798297048069
 20
-140.661084368943
 30
0.0
 11
-8.66798297048069
 21
-142.76108433318
 31
0.0
  0
LINE
  5
   595
  8
0
  6
CONTINUOUS
 62
   170
 10
-18.1179828095481
 20
-140.661084368943
 30
0.0
 11
-18.1179828095481
 21
-142.76108433318
 31
0.0
  0
LINE
  5
   596
  8
0
  6
CONTINUOUS
 62
   170
 10
-8.14298297942138
 20
-141.186084360002
 30
0.0
 11
-8.14298297942138
 21
-142.76108433318
 31
0.0
  0
LINE
  5
   597
  8
0
  6
CONTINUOUS
 62
   170
 10
-18.6429828006075
 20
-141.186084360002
 30
0.0
 11
-18.6429828006075
 21
-142.76108433318
 31
0.0
  0
LINE
  5
   598
  8
0
  6
CONTINUOUS
 62
   170
 10
-18.1179828095481
 20
-140.661084368943
 30
0.0
 11
-18.6429828006075
 21
-141.186084360002
 31
0.0
  0
LINE
  5
   599
  8
0
  6
CONTINUOUS
 62
   170
 10
-8.14298297942139
 20
-141.186084360002
 30
0.0
 11
-8.66798297048069
 21
-140.661084368943
 31
0.0
  0
LINE
  5
   59A
  8
0
  6
CONTINUOUS
 62
     7
 10
40.507016192074
 20
-140.165400328375
 30
0.0
 11
40.507016192074
 21
-145.590565323141
 31
0.0
  0
LINE
  5
   59B
  8
0
  6
CONTINUOUS
 62
     7
 10
25.6320561797283
 20
-129.820504117074
 30
0.0
 11
-23.3679580284261
 21
-129.816436166883
 31
0.0
  0
LINE
  5
   59C
  8
0
  6
CONTINUOUS
 62
     7
 10
40.507016192074
 20
-143.461084321259
 30
0.0
 11
-29.582388921264
 21
-143.461084321259
 31
0.0
  0
CIRCLE
  5
   59D
  8
0
  6
CONTINUOUS
 62
     7
 10
39.1070162159159
 20
-142.061084345101
 30
0.0
 40
0.699999988079071
  0
LINE
  5
   59E
  8
0
  6
DASHDOT
 62
     7
 10
39.1070162159159
 20
-140.661084368943
 30
0.0
 11
39.1070162159159
 21
-165.184449218642
 31
0.0
  0
LINE
  5
   59F
  8
0
  6
DASHDOT
 62
     7
 10
40.507016192074
 20
-142.061084345101
 30
0.0
 11
37.7070162397578
 21
-142.061084345101
 31
0.0
  0
LINE
  5
   5A0
  8
0
  6
CONTINUOUS
 62
     7
 10
-29.582388921264
 20
-139.995839537768
 30
0.0
 11
-29.582388921264
 21
-146.456431801322
 31
0.0
  0
ARC
  5
   5A1
  8
0
  6
CONTINUOUS
 62
     7
 10
-11.467984952558
 20
-138.918438372009
 30
0.0
 40
0.349999994039536
 50
269.999999896069
 51
359.999999896069
  0
ARC
  5
   5A2
  8
0
  6
CONTINUOUS
 62
     7
 10
-15.3179848869929
 20
-138.918438372009
 30
0.0
 40
0.349999994039536
 50
179.999999896069
 51
269.999999896069
  0
LINE
  5
   5A3
  8
0
  6
DASHDOT
 62
     7
 10
1.13201686262631
 20
-127.473533743427
 30
0.0
 11
1.13201686262631
 21
-162.278090226511
 31
0.0
  0
ARC
  5
   5A4
  8
0
  6
CONTINUOUS
 62
   212
 10
25.1945749206092
 20
-133.056473544084
 30
0.0
 40
0.437483208109691
 50
273.794194733193
 51
360.000063478932
  0
ARC
  5
   5A5
  8
0
  6
CONTINUOUS
 62
   212
 10
-22.9304678779533
 20
-133.055446818204
 30
0.0
 40
0.437492536285825
 50
539.999267555261
 51
632.381887852422
  0
CIRCLE
  5
   5A6
  8
0
  6
CONTINUOUS
 62
     3
 10
-13.3929828900144
 20
-136.99299117567
 30
0.0
 40
1.39999997615814
  0
LINE
  5
   5A7
  8
0
  6
CONTINUOUS
 62
     3
 10
-13.3929828900144
 20
-135.37641044947
 30
0.0
 11
-14.7929828661726
 21
-136.18470081257
 31
0.0
  0
LINE
  5
   5A8
  8
0
  6
CONTINUOUS
 62
     3
 10
-11.9929829138563
 20
-136.18470081257
 30
0.0
 11
-13.3929828900144
 21
-135.37641044947
 31
0.0
  0
LINE
  5
   5A9
  8
0
  6
CONTINUOUS
 62
     3
 10
-11.9929829138563
 20
-137.801281538771
 30
0.0
 11
-13.3929828900144
 21
-138.609571901871
 31
0.0
  0
LINE
  5
   5AA
  8
0
  6
CONTINUOUS
 62
     3
 10
-13.3929828900144
 20
-138.609571901871
 30
0.0
 11
-14.7929828661726
 21
-137.801281538771
 31
0.0
  0
LINE
  5
   5AB
  8
0
  6
CONTINUOUS
 62
     3
 10
-14.7929828661726
 20
-136.18470081257
 30
0.0
 11
-14.7929828661726
 21
-137.801281538771
 31
0.0
  0
LINE
  5
   5AC
  8
0
  6
CONTINUOUS
 62
     3
 10
-11.9929829138563
 20
-136.18470081257
 30
0.0
 11
-11.9929829138563
 21
-137.801281538771
 31
0.0
  0
LINE
  5
   5AD
  8
0
  6
DASHDOT
 62
     7
 10
-13.3929828900144
 20
-134.892991211433
 30
0.0
 11
-13.3929828900144
 21
-139.092991139908
 31
0.0
  0
LINE
  5
   5AE
  8
0
  6
DASHDOT
 62
     7
 10
-11.2929829257772
 20
-136.99299117567
 30
0.0
 11
-15.4929828542516
 21
-136.99299117567
 31
0.0
  0
CIRCLE
  5
   5AF
  8
0
  6
CONTINUOUS
 62
     3
 10
-13.3929828900144
 20
-136.99299117567
 30
0.0
 40
0.874999985098839
  0
ARC
  5
   5B0
  8
0
  6
CONTINUOUS
 62
     7
 10
-13.3929828900144
 20
-136.99299117567
 30
0.0
 40
0.734999987483024
 50
269.999999896069
 51
539.999999896069
  0
INSERT
  5
   5B1
  8
255
  6
CONTINUOUS
 62
     7
  2
MANIGLIA_ALTO
 10
-44.4863395690918
 20
-26.9453193987724
 30
0.0
 41
0.349999994039536
 42
0.349999994039536
 50
359.999999792138
 43
0.349999994039536
  0
LINE
  5
   5B2
  8
0
  6
CONTINUOUS
 62
    52
 10
-22.4930208136919
 20
-153.086084157346
 30
0.0
 11
-22.4930208136919
 21
-153.436084151386
 31
0.0
  0
LINE
  5
   5B3
  8
0
  6
CONTINUOUS
 62
    52
 10
-4.29301444791599
 20
-153.086084157346
 30
0.0
 11
-4.29301444791599
 21
-153.436084151386
 31
0.0
  0
LINE
  5
   5B4
  8
0
  6
CONTINUOUS
 62
    52
 10
-22.6680208107117
 20
-148.711084231852
 30
0.0
 11
-22.6680208107117
 21
-153.086084157346
 31
0.0
  0
LINE
  5
   5B5
  8
0
  6
CONTINUOUS
 62
    52
 10
-4.11801445089622
 20
-148.711084231852
 30
0.0
 11
-4.11801445089622
 21
-153.086084157346
 31
0.0
  0
LINE
  5
   5B6
  8
0
  6
CONTINUOUS
 62
    52
 10
-4.11801445089623
 20
-153.086084157346
 30
0.0
 11
-4.29622947471671
 21
-153.086084157346
 31
0.0
  0
LINE
  5
   5B7
  8
0
  6
CONTINUOUS
 62
    52
 10
-13.393016963232
 20
-153.086084157346
 30
0.0
 11
-15.2024815778027
 21
-153.086084157346
 31
0.0
  0
LINE
  5
   5B8
  8
0
  6
CONTINUOUS
 62
    52
 10
-8.24010071492603
 20
-153.086084157346
 30
0.0
 11
-9.8436273752402
 21
-153.086084157346
 31
0.0
  0
LINE
  5
   5B9
  8
0
  6
CONTINUOUS
 62
    52
 10
-11.5835523486612
 20
-153.086084157346
 30
0.0
 11
-13.393016963232
 21
-153.086084157346
 31
0.0
  0
LINE
  5
   5BA
  8
0
  6
CONTINUOUS
 62
    52
 10
-9.8436273752402
 20
-153.086084157346
 30
0.0
 11
-11.5835523486612
 21
-153.086084157346
 31
0.0
  0
LINE
  5
   5BB
  8
0
  6
CONTINUOUS
 62
    52
 10
-6.83459994540453
 20
-153.086084157346
 30
0.0
 11
-8.24010071492603
 21
-153.086084157346
 31
0.0
  0
LINE
  5
   5BC
  8
0
  6
CONTINUOUS
 62
    52
 10
-4.82403059793046
 20
-153.086084157346
 30
0.0
 11
-5.68113431258212
 21
-153.086084157346
 31
0.0
  0
LINE
  5
   5BD
  8
0
  6
CONTINUOUS
 62
    52
 10
-15.2024815778027
 20
-153.086084157346
 30
0.0
 11
-16.9424065512237
 21
-153.086084157346
 31
0.0
  0
LINE
  5
   5BE
  8
0
  6
CONTINUOUS
 62
    52
 10
-19.9514339810594
 20
-153.086084157346
 30
0.0
 11
-21.1048996138818
 21
-153.086084157346
 31
0.0
  0
LINE
  5
   5BF
  8
0
  6
CONTINUOUS
 62
    52
 10
-18.5459332115379
 20
-153.086084157346
 30
0.0
 11
-19.9514339810594
 21
-153.086084157346
 31
0.0
  0
LINE
  5
   5C0
  8
0
  6
CONTINUOUS
 62
    52
 10
-22.4898031166032
 20
-153.086084157346
 30
0.0
 11
-22.6680208107117
 21
-153.086084157346
 31
0.0
  0
LINE
  5
   5C1
  8
0
  6
CONTINUOUS
 62
    52
 10
-4.29622947471671
 20
-153.086084157346
 30
0.0
 11
-4.82403059793046
 21
-153.086084157346
 31
0.0
  0
LINE
  5
   5C2
  8
0
  6
CONTINUOUS
 62
    52
 10
-5.68113431258212
 20
-153.086084157346
 30
0.0
 11
-6.83459994540453
 21
-153.086084157346
 31
0.0
  0
LINE
  5
   5C3
  8
0
  6
CONTINUOUS
 62
    52
 10
-21.1048996138818
 20
-153.086084157346
 30
0.0
 11
-21.9620033285335
 21
-153.086084157346
 31
0.0
  0
LINE
  5
   5C4
  8
0
  6
CONTINUOUS
 62
    52
 10
-16.9424065512237
 20
-153.086084157346
 30
0.0
 11
-18.5459332115379
 21
-153.086084157346
 31
0.0
  0
LINE
  5
   5C5
  8
0
  6
CONTINUOUS
 62
    52
 10
-21.9620033285335
 20
-153.086084157346
 30
0.0
 11
-22.4898031166032
 21
-153.086084157346
 31
0.0
  0
LINE
  5
   5C6
  8
0
  6
CONTINUOUS
 62
    52
 10
-11.5835523486612
 20
-148.711084231852
 30
0.0
 11
-13.393016963232
 21
-148.711084231852
 31
0.0
  0
LINE
  5
   5C7
  8
0
  6
CONTINUOUS
 62
    52
 10
-13.393016963232
 20
-148.711084231852
 30
0.0
 11
-15.2024815778027
 21
-148.711084231852
 31
0.0
  0
LINE
  5
   5C8
  8
0
  6
CONTINUOUS
 62
    52
 10
-16.9424065512237
 20
-148.711084231852
 30
0.0
 11
-18.5459332115379
 21
-148.711084231852
 31
0.0
  0
LINE
  5
   5C9
  8
0
  6
CONTINUOUS
 62
    52
 10
-18.5459332115379
 20
-148.711084231852
 30
0.0
 11
-19.9514339810594
 21
-148.711084231852
 31
0.0
  0
LINE
  5
   5CA
  8
0
  6
CONTINUOUS
 62
    52
 10
-4.82403059793046
 20
-148.711084231852
 30
0.0
 11
-5.68113431258212
 21
-148.711084231852
 31
0.0
  0
LINE
  5
   5CB
  8
0
  6
CONTINUOUS
 62
    52
 10
-21.1048996138818
 20
-148.711084231852
 30
0.0
 11
-21.9620033285335
 21
-148.711084231852
 31
0.0
  0
LINE
  5
   5CC
  8
0
  6
CONTINUOUS
 62
    52
 10
-19.9514339810594
 20
-148.711084231852
 30
0.0
 11
-21.1048996138818
 21
-148.711084231852
 31
0.0
  0
LINE
  5
   5CD
  8
0
  6
CONTINUOUS
 62
    52
 10
-15.2024815778027
 20
-148.711084231852
 30
0.0
 11
-16.9424065512237
 21
-148.711084231852
 31
0.0
  0
LINE
  5
   5CE
  8
0
  6
CONTINUOUS
 62
    52
 10
-9.8436273752402
 20
-148.711084231852
 30
0.0
 11
-11.5835523486612
 21
-148.711084231852
 31
0.0
  0
LINE
  5
   5CF
  8
0
  6
CONTINUOUS
 62
    52
 10
-8.24010071492603
 20
-148.711084231852
 30
0.0
 11
-9.8436273752402
 21
-148.711084231852
 31
0.0
  0
LINE
  5
   5D0
  8
0
  6
CONTINUOUS
 62
    52
 10
-5.68113431258212
 20
-148.711084231852
 30
0.0
 11
-6.83459994540453
 21
-148.711084231852
 31
0.0
  0
LINE
  5
   5D1
  8
0
  6
CONTINUOUS
 62
    52
 10
-6.83459994540453
 20
-148.711084231852
 30
0.0
 11
-8.24010071492603
 21
-148.711084231852
 31
0.0
  0
LINE
  5
   5D2
  8
0
  6
CONTINUOUS
 62
    52
 10
-21.9620033285335
 20
-148.711084231852
 30
0.0
 11
-22.4898031166032
 21
-148.711084231852
 31
0.0
  0
LINE
  5
   5D3
  8
0
  6
CONTINUOUS
 62
    52
 10
-22.4898031166032
 20
-148.711084231852
 30
0.0
 11
-22.6680208107117
 21
-148.711084231852
 31
0.0
  0
LINE
  5
   5D4
  8
0
  6
CONTINUOUS
 62
    52
 10
-4.29622947471671
 20
-148.711084231852
 30
0.0
 11
-4.82403059793046
 21
-148.711084231852
 31
0.0
  0
LINE
  5
   5D5
  8
0
  6
CONTINUOUS
 62
    52
 10
-4.11801445089623
 20
-148.711084231852
 30
0.0
 11
-4.29622947471671
 21
-148.711084231852
 31
0.0
  0
INSERT
  5
   5D6
  8
0
  6
CONTINUOUS
 62
     7
  2
*UDIM348
 10
0.0
 20
0.0
 30
0.0
  0
TEXT
  5
   5D7
  8
0
  6
CONTINUOUS
 62
     7
 10
0.468496019879087
 20
-171.297210254944
 30
0.0
 40
2.99999997871263
  1
Y
 50
359.999999896069
 41
0.916666703091727
 11
0.468496025305835
 21
-168.297210276231
 31
0.0
 73
     3
  0
LINE
  5
   5D8
  8
0
  6
CONTINUOUS
 62
   130
 10
60.2841357667077
 20
28.0620176034822
 30
0.0
 11
60.2841367680655
 21
1.28702033933537
 31
0.0
  0
LINE
  5
   5D9
  8
0
  6
CONTINUOUS
 62
   130
 10
93.3591121375616
 20
1.28700021398274
 30
0.0
 11
93.3591281592998
 21
28.0619365762218
 31
0.0
  0
LINE
  5
   5DA
  8
0
  6
CONTINUOUS
 62
   130
 10
61.3341292807827
 20
-38.7879739732293
 30
0.0
 11
61.596629584995
 21
-38.7176386032537
 31
0.0
  0
LINE
  5
   5DB
  8
0
  6
CONTINUOUS
 62
   130
 10
59.7591361999512
 20
-71.3379808905848
 30
0.0
 11
94.7591112613756
 21
-71.3379669189422
 31
0.0
  0
LINE
  5
   5DC
  8
0
  6
CONTINUOUS
 62
   130
 10
94.7591005803395
 20
-34.587954652073
 30
0.0
 11
94.7591059209148
 21
-36.337954473259
 31
0.0
  0
LINE
  5
   5DD
  8
0
  6
CONTINUOUS
 62
   130
 10
94.7591005802214
 20
-40.8879425294253
 30
0.0
 11
94.7591059207957
 21
-71.3379714615166
 31
0.0
  0
LINE
  5
   5DE
  8
0
  6
CONTINUOUS
 62
   130
 10
60.2841365280285
 20
1.28701499325616
 30
0.0
 11
60.2841375293864
 21
-35.9159368328099
 31
0.0
  0
LINE
  5
   5DF
  8
0
  6
CONTINUOUS
 62
   130
 10
60.2841368482906
 20
-55.587968540544
 30
0.0
 11
60.2841371820765
 21
-41.3099609662591
 31
0.0
  0
LINE
  5
   5E0
  8
0
  6
CONTINUOUS
 62
   130
 10
60.2841367228471
 20
-60.8379699399251
 30
0.0
 11
60.2841377242046
 21
-70.4629689564485
 31
0.0
  0
LINE
  5
   5E1
  8
0
  6
CONTINUOUS
 62
   130
 10
60.2841378152369
 20
-70.4629686772822
 30
0.0
 11
60.6341354429723
 21
-70.4629686772822
 31
0.0
  0
LINE
  5
   5E2
  8
0
  6
CONTINUOUS
 62
   130
 10
60.6341357767582
 20
-41.2161857865658
 30
0.0
 11
60.6341357767582
 21
-38.7879755854601
 31
0.0
  0
LINE
  5
   5E3
  8
0
  6
CONTINUOUS
 62
   130
 10
60.6341357767582
 20
-36.5129704773426
 30
0.0
 11
60.6341357767582
 21
-36.0097387172391
 31
0.0
  0
LINE
  5
   5E4
  8
0
  6
CONTINUOUS
 62
   130
 10
59.7591361999512
 20
-55.5879685282707
 30
0.0
 11
60.2841371476649
 21
-55.5879685282707
 31
0.0
  0
LINE
  5
   5E5
  8
0
  6
CONTINUOUS
 62
   130
 10
59.7591361999512
 20
-60.8379679918289
 30
0.0
 11
60.284136813879
 21
-60.8379679918289
 31
0.0
  0
LINE
  5
   5E6
  8
0
  6
CONTINUOUS
 62
   130
 10
59.7591361999512
 20
-60.8379679918289
 30
0.0
 11
59.7591361999512
 21
-55.5879685282707
 31
0.0
  0
LINE
  5
   5E7
  8
0
  6
CONTINUOUS
 62
   130
 10
61.3341292807827
 20
-38.7879739732293
 30
0.0
 11
61.596629584995
 21
-38.7176386032537
 31
0.0
  0
LINE
  5
   5E8
  8
0
  6
CONTINUOUS
 62
   130
 10
61.5966325885658
 20
-38.7176472925722
 30
0.0
 11
61.7887958422209
 21
-38.5254827106642
 31
0.0
  0
LINE
  5
   5E9
  8
0
  6
CONTINUOUS
 62
   130
 10
61.7887995332366
 20
-38.5254798247166
 30
0.0
 11
61.8591192242609
 21
-38.2629958818465
 31
0.0
  0
LINE
  5
   5EA
  8
0
  6
CONTINUOUS
 62
   130
 10
61.8591182947163
 20
-38.2629714429182
 30
0.0
 11
61.8591189622882
 21
-37.037971568088
 31
0.0
  0
LINE
  5
   5EB
  8
0
  6
CONTINUOUS
 62
   130
 10
61.7887919089003
 20
-36.7754785438627
 30
0.0
 11
61.8591169337733
 21
-37.0379785095919
 31
0.0
  0
LINE
  5
   5EC
  8
0
  6
CONTINUOUS
 62
   130
 10
61.5966280944376
 20
-36.5833166121668
 30
0.0
 11
61.7887913507664
 21
-36.775475851396
 31
0.0
  0
LINE
  5
   5ED
  8
0
  6
CONTINUOUS
 62
   130
 10
61.3341304371236
 20
-36.512978016034
 30
0.0
 11
61.5966304083768
 21
-36.5833187314157
 31
0.0
  0
LINE
  5
   5EE
  8
0
  6
CONTINUOUS
 62
   130
 10
60.6341357767582
 20
-36.5129704773426
 30
0.0
 11
61.334130698443
 21
-36.5129704773426
 31
0.0
  0
LINE
  5
   5EF
  8
0
  6
CONTINUOUS
 62
   130
 10
60.6341357767582
 20
-38.7879702448845
 30
0.0
 11
61.334130698443
 21
-38.7879702448845
 31
0.0
  0
LINE
  5
   5F0
  8
0
  6
CONTINUOUS
 62
   130
 10
93.3591115346761
 20
-34.5879863570892
 30
0.0
 11
93.3591168752507
 21
1.28700997722511
 31
0.0
  0
LINE
  5
   5F1
  8
0
  6
CONTINUOUS
 62
   130
 10
93.3591114044211
 20
-34.5879813551892
 30
0.0
 11
94.7591005802187
 21
-34.5879813551892
 31
0.0
  0
LINE
  5
   5F2
  8
0
  6
CONTINUOUS
 62
   130
 10
93.3591035925456
 20
-17.4630819169901
 30
0.0
 11
93.5341089099484
 21
-17.416191666798
 31
0.0
  0
LINE
  5
   5F3
  8
0
  6
CONTINUOUS
 62
   130
 10
93.3590994725364
 20
-20.2128190701586
 30
0.0
 11
93.534110134555
 21
-20.2597146550971
 31
0.0
  0
LINE
  5
   5F4
  8
0
  6
CONTINUOUS
 62
   130
 10
60.6341351705438
 20
-70.4629687386398
 30
0.0
 11
84.4341327386743
 21
-70.4629704075685
 31
0.0
  0
LINE
  5
   5F5
  8
0
  6
CONTINUOUS
 62
   130
 10
84.4341336786747
 20
-71.3379650351308
 30
0.0
 11
84.4341336786747
 21
-70.4629704651134
 31
0.0
  0
LINE
  5
   5F6
  8
0
  6
CONTINUOUS
 62
   130
 10
63.1653252860354
 20
-36.6879514260636
 30
0.0
 11
94.4091026111431
 21
-36.6879727883655
 31
0.0
  0
LINE
  5
   5F7
  8
0
  6
CONTINUOUS
 62
   130
 10
63.16532231989
 20
-40.5379510326718
 30
0.0
 11
94.4090996449976
 21
-40.5379723949737
 31
0.0
  0
LINE
  5
   5F8
  8
0
  6
CONTINUOUS
 62
   130
 10
60.2841392913359
 20
-35.9159408684897
 30
0.0
 11
60.6341357767582
 21
-36.009722188093
 31
0.0
  0
LINE
  5
   5F9
  8
0
  6
CONTINUOUS
 62
   130
 10
60.284132111486
 20
-41.30996540113
 30
0.0
 11
60.6341357767582
 21
-41.2161820928975
 31
0.0
  0
LINE
  5
   5FA
  8
0
  6
CONTINUOUS
 62
   130
 10
94.4091268139362
 20
-36.6879536763831
 30
0.0
 11
94.7591160862428
 21
-36.3379590641953
 31
0.0
  0
LINE
  5
   5FB
  8
0
  6
CONTINUOUS
 62
   130
 10
94.4091025159346
 20
-40.5379675067023
 30
0.0
 11
94.7591024681918
 21
-40.8879674589595
 31
0.0
  0
LINE
  5
   5FC
  8
0
  6
CONTINUOUS
 62
   130
 10
93.5341968357497
 20
-0.812963443995613
 30
0.0
 11
93.5341968357497
 21
28.0619361263132
 31
0.0
  0
LINE
  5
   5FD
  8
0
  6
CONTINUOUS
 62
     1
 10
93.5341968357497
 20
28.0619374752132
 30
0.0
 11
94.7591753482775
 21
28.0619374752132
 31
0.0
  0
LINE
  5
   5FE
  8
0
  6
CONTINUOUS
 62
   130
 10
107.884216731778
 20
-0.462979501485279
 30
0.0
 11
108.059061837203
 21
-0.462979501485279
 31
0.0
  0
LINE
  5
   5FF
  8
0
  6
CONTINUOUS
 62
     1
 10
103.68420647978
 20
28.0619374752132
 30
0.0
 11
104.734217053643
 21
28.0619374752132
 31
0.0
  0
LINE
  5
   600
  8
0
  6
CONTINUOUS
 62
   130
 10
108.234216196684
 20
27.6244316638513
 30
0.0
 11
108.234237558985
 21
-0.462953314096936
 31
0.0
  0
LINE
  5
   601
  8
0
  6
CONTINUOUS
 62
   130
 10
107.184131354094
 20
-0.81296894359447
 30
0.0
 11
107.884211720507
 21
-0.81294758166932
 31
0.0
  0
LINE
  5
   602
  8
0
  6
CONTINUOUS
 62
   130
 10
106.029119722844
 20
-0.812963443995613
 30
0.0
 11
107.184131354094
 21
-0.812963443995613
 31
0.0
  0
LINE
  5
   603
  8
0
  6
CONTINUOUS
 62
     1
 10
104.734217053643
 20
28.0619374752132
 30
0.0
 11
107.359152698515
 21
28.0619374752132
 31
0.0
  0
LINE
  5
   604
  8
0
  6
CONTINUOUS
 62
   130
 10
94.7591753482775
 20
28.0619374752132
 30
0.0
 11
103.68420647978
 21
28.0619374752132
 31
0.0
  0
LINE
  5
   605
  8
0
  6
CONTINUOUS
 62
   130
 10
107.884216731778
 20
-0.462952798607148
 30
0.0
 11
108.234238058318
 21
-0.462952798607148
 31
0.0
  0
LINE
  5
   606
  8
0
  6
CONTINUOUS
 62
   130
 10
107.884216731778
 20
-0.812947422268735
 30
0.0
 11
107.884216731778
 21
-0.462952798607148
 31
0.0
  0
LINE
  5
   607
  8
0
  6
CONTINUOUS
 62
     1
 10
107.796666024844
 20
28.0618156308088
 30
0.0
 11
108.106024206611
 21
27.9336418285406
 31
0.0
  0
LINE
  5
   608
  8
0
  6
CONTINUOUS
 62
     1
 10
108.106090554925
 20
27.9337134967669
 30
0.0
 11
108.234232325673
 21
27.6243873700673
 31
0.0
  0
LINE
  5
   609
  8
0
  6
CONTINUOUS
 62
   130
 10
93.8842181622895
 20
-0.462947458031522
 30
0.0
 11
93.8842181622895
 21
28.0619374752132
 31
0.0
  0
LINE
  5
   60A
  8
0
  6
CONTINUOUS
 62
   130
 10
93.8842131555125
 20
-0.462949794558114
 30
0.0
 11
107.884211725001
 21
-0.462955135133427
 31
0.0
  0
LINE
  5
   60B
  8
0
  6
CONTINUOUS
 62
   130
 10
107.884125941992
 20
-74.662963908911
 30
0.0
 11
107.884125941992
 21
-74.3129662811756
 31
0.0
  0
LINE
  5
   60C
  8
0
  6
CONTINUOUS
 62
   130
 10
106.484120961154
 20
-0.987979048734445
 30
0.0
 11
106.484126301726
 21
-74.312966215855
 31
0.0
  0
LINE
  5
   60D
  8
0
  6
CONTINUOUS
 62
   130
 10
106.134121021258
 20
-0.987976753770624
 30
0.0
 11
106.13412636183
 21
-74.6629638851284
 31
0.0
  0
LINE
  5
   60E
  8
0
  6
CONTINUOUS
 62
   130
 10
106.134120780231
 20
-0.987974107265472
 30
0.0
 11
106.484120961153
 21
-0.987974107265472
 31
0.0
  0
LINE
  5
   60F
  8
0
  6
CONTINUOUS
 62
   130
 10
106.134126120806
 20
-74.662963908911
 30
0.0
 11
106.834131389856
 21
-74.662963908911
 31
0.0
  0
LINE
  5
   610
  8
0
  6
CONTINUOUS
 62
   130
 10
106.484120961153
 20
-0.987974107265472
 30
0.0
 11
108.23412590623
 21
-0.987974107265472
 31
0.0
  0
LINE
  5
   611
  8
0
  6
CONTINUOUS
 62
   130
 10
108.23412590623
 20
-74.3129662811756
 30
0.0
 11
108.23412590623
 21
-66.262977784871
 31
0.0
  0
LINE
  5
   612
  8
0
  6
CONTINUOUS
 62
   130
 10
108.23412590623
 20
-29.5129925549008
 30
0.0
 11
108.23412590623
 21
-0.987979447841099
 31
0.0
  0
LINE
  5
   613
  8
0
  6
CONTINUOUS
 62
   130
 10
108.846622203683
 20
-29.513000744914
 30
0.0
 11
108.934116851824
 21
-29.6005007328973
 31
0.0
  0
LINE
  5
   614
  8
0
  6
CONTINUOUS
 62
   130
 10
108.846614371556
 20
-66.2629762061731
 30
0.0
 11
108.93411435962
 21
-66.175475886202
 31
0.0
  0
LINE
  5
   615
  8
0
  6
CONTINUOUS
 62
   130
 10
108.934125834704
 20
-66.175472787022
 30
0.0
 11
108.934125834704
 21
-29.6004978865358
 31
0.0
  0
LINE
  5
   616
  8
0
  6
CONTINUOUS
 62
   130
 10
106.484126085044
 20
-74.3129662811756
 30
0.0
 11
107.884125941992
 21
-74.3129662811756
 31
0.0
  0
LINE
  5
   617
  8
0
  6
CONTINUOUS
 62
   130
 10
94.75911126137
 20
-40.8879967331859
 30
0.0
 11
94.75911126137
 21
-36.3380078792534
 31
0.0
  0
LINE
  5
   618
  8
0
  6
CONTINUOUS
 62
   130
 10
94.75911126137
 20
-34.5880133986429
 30
0.0
 11
94.75911126137
 21
-34.2380080938301
 31
0.0
  0
LINE
  5
   619
  8
0
  6
CONTINUOUS
 62
   130
 10
94.75911126137
 20
-71.3379669189451
 30
0.0
 11
106.134126120806
 21
-71.3379669189451
 31
0.0
  0
LINE
  5
   61A
  8
0
  6
CONTINUOUS
 62
   130
 10
107.184131354094
 20
-0.987974107265472
 30
0.0
 11
107.184131354094
 21
-0.812979465722492
 31
0.0
  0
LINE
  5
   61B
  8
0
  6
CONTINUOUS
 62
   130
 10
93.5341113865397
 20
-34.2379707098007
 30
0.0
 11
93.5341113865397
 21
-0.812974125146866
 31
0.0
  0
LINE
  5
   61C
  8
0
  6
CONTINUOUS
 62
   130
 10
93.5341113865397
 20
-34.2379707098007
 30
0.0
 11
94.75911126137
 21
-34.2379707098007
 31
0.0
  0
LINE
  5
   61D
  8
0
  6
CONTINUOUS
 62
   130
 10
93.5341113865397
 20
-0.812974125146866
 30
0.0
 11
94.75911126137
 21
-0.812974125146866
 31
0.0
  0
LINE
  5
   61E
  8
0
  6
CONTINUOUS
 62
   130
 10
94.7591072973625
 20
-0.812974689015093
 30
0.0
 11
106.029121099412
 21
-0.812980029590221
 31
0.0
  0
LINE
  5
   61F
  8
0
  6
CONTINUOUS
 62
   130
 10
106.02912506342
 20
-16.8254671484237
 30
0.0
 11
106.02912506342
 21
-0.812979465722492
 31
0.0
  0
LINE
  5
   620
  8
0
  6
CONTINUOUS
 62
   130
 10
106.029109041694
 20
-71.3379709211274
 30
0.0
 11
106.02912506342
 21
-20.8504707393338
 31
0.0
  0
LINE
  5
   621
  8
0
  6
CONTINUOUS
 62
   130
 10
106.029119722844
 20
-9.91297319531441
 30
0.0
 11
106.134120780231
 21
-9.91297319531441
 31
0.0
  0
LINE
  5
   622
  8
0
  6
CONTINUOUS
 62
   130
 10
106.029119722844
 20
-11.3129730522633
 30
0.0
 11
106.134120780231
 21
-11.3129730522633
 31
0.0
  0
LINE
  5
   623
  8
0
  6
CONTINUOUS
 62
   130
 10
94.75911126137
 20
-70.4629670083523
 30
0.0
 11
106.02912506342
 21
-70.4629670083523
 31
0.0
  0
LINE
  5
   624
  8
0
  6
CONTINUOUS
 62
   130
 10
104.384110277893
 20
-16.8254671484237
 30
0.0
 11
106.134126120806
 21
-16.8254671484237
 31
0.0
  0
LINE
  5
   625
  8
0
  6
CONTINUOUS
 62
   130
 10
104.384110277893
 20
-20.8504667371517
 30
0.0
 11
104.384110277893
 21
-16.8254671484237
 31
0.0
  0
LINE
  5
   626
  8
0
  6
CONTINUOUS
 62
   130
 10
104.384110277893
 20
-20.8504667371517
 30
0.0
 11
106.134120780231
 21
-20.8504667371517
 31
0.0
  0
LINE
  5
   627
  8
0
  6
CONTINUOUS
 62
   130
 10
108.934125834704
 20
-66.2629731118673
 30
0.0
 11
108.934125834704
 21
-66.175473120808
 31
0.0
  0
LINE
  5
   628
  8
0
  6
CONTINUOUS
 62
   130
 10
108.93412530176
 20
-29.6005130197203
 30
0.0
 11
108.934130642335
 21
-29.5129916663585
 31
0.0
  0
LINE
  5
   629
  8
0
  6
CONTINUOUS
 62
   130
 10
108.846620503069
 20
-66.2629731118673
 30
0.0
 11
108.934125834704
 21
-66.2629731118673
 31
0.0
  0
LINE
  5
   62A
  8
0
  6
CONTINUOUS
 62
   130
 10
59.7591361999512
 20
21.0619381904689
 30
0.0
 11
60.284136146307
 21
21.0619381904689
 31
0.0
  0
LINE
  5
   62B
  8
0
  6
CONTINUOUS
 62
   130
 10
59.7591361999512
 20
25.2619377613155
 30
0.0
 11
60.284136146307
 21
25.2619377613155
 31
0.0
  0
LINE
  5
   62C
  8
0
  6
CONTINUOUS
 62
   130
 10
61.8591110153513
 20
-40.3629556502053
 30
0.0
 11
62.8387724917485
 21
-40.6254609228744
 31
0.0
  0
LINE
  5
   62D
  8
0
  6
CONTINUOUS
 62
   130
 10
61.8591041110655
 20
-40.3629520580573
 30
0.0
 11
61.8591181300753
 21
-38.2629736349366
 31
0.0
  0
LINE
  5
   62E
  8
0
  6
CONTINUOUS
 62
   130
 10
61.859107555892
 20
-36.8629516230838
 30
0.0
 11
61.859118904615
 21
-37.0379729675049
 31
0.0
  0
LINE
  5
   62F
  8
0
  6
CONTINUOUS
 62
   130
 10
61.8590983245799
 20
-36.8629639257846
 30
0.0
 11
62.8387618160535
 21
-36.6004693445969
 31
0.0
  0
LINE
  5
   630
  8
0
  6
CONTINUOUS
 62
     1
 10
107.359152698515
 20
28.0619374752132
 30
0.0
 11
107.796716740719
 21
28.0619374752132
 31
0.0
  0
LINE
  5
   631
  8
0
  6
CONTINUOUS
 62
   130
 10
107.884125941992
 20
-74.3129662811756
 30
0.0
 11
108.23412590623
 21
-74.3129662811756
 31
0.0
  0
LINE
  5
   632
  8
0
  6
CONTINUOUS
 62
   130
 10
108.23412590623
 20
-29.5129925549008
 30
0.0
 11
108.84663118422
 21
-29.5129925549008
 31
0.0
  0
LINE
  5
   633
  8
0
  6
CONTINUOUS
 62
   130
 10
108.23412590623
 20
-66.2629731118673
 30
0.0
 11
108.846625843645
 21
-66.2629731118673
 31
0.0
  0
LINE
  5
   634
  8
0
  6
CONTINUOUS
 62
   130
 10
106.834131389856
 20
-88.6629603284595
 30
0.0
 11
106.834131389856
 21
-88.4879624962809
 31
0.0
  0
LINE
  5
   635
  8
0
  6
CONTINUOUS
 62
   130
 10
108.234131246805
 20
-114.037957735657
 30
0.0
 11
108.234131246805
 21
-89.0129602926967
 31
0.0
  0
LINE
  5
   636
  8
0
  6
CONTINUOUS
 62
   130
 10
106.834131389856
 20
-114.037957735657
 30
0.0
 11
108.234131246805
 21
-114.037957735657
 31
0.0
  0
LINE
  5
   637
  8
0
  6
CONTINUOUS
 62
   130
 10
94.9341326057911
 20
-88.6629603284595
 30
0.0
 11
106.834131389856
 21
-88.6629603284595
 31
0.0
  0
LINE
  5
   638
  8
0
  6
CONTINUOUS
 62
   130
 10
108.234131246805
 20
-88.4879624962809
 30
0.0
 11
108.234131246805
 21
-74.8379638910296
 31
0.0
  0
LINE
  5
   639
  8
0
  6
CONTINUOUS
 62
   130
 10
94.9341326057911
 20
-114.037962486019
 30
0.0
 11
94.9341326057911
 21
-88.6629603284595
 31
0.0
  0
LINE
  5
   63A
  8
0
  6
CONTINUOUS
 62
   130
 10
94.9341326057911
 20
-89.0129602926967
 30
0.0
 11
108.234131246805
 21
-89.0129602926967
 31
0.0
  0
LINE
  5
   63B
  8
0
  6
CONTINUOUS
 62
   130
 10
107.884131282568
 20
-89.0129602926967
 30
0.0
 11
107.884131282568
 21
-88.6629603284595
 31
0.0
  0
LINE
  5
   63C
  8
0
  6
CONTINUOUS
 62
   130
 10
106.134126120806
 20
-74.8379638910296
 30
0.0
 11
106.484126085043
 21
-74.8379638910296
 31
0.0
  0
LINE
  5
   63D
  8
0
  6
CONTINUOUS
 62
   130
 10
106.134126120806
 20
-88.4879624962809
 30
0.0
 11
106.484126085043
 21
-88.4879624962809
 31
0.0
  0
LINE
  5
   63E
  8
0
  6
CONTINUOUS
 62
   130
 10
106.134126120806
 20
-88.4879624962809
 30
0.0
 11
106.134126120806
 21
-74.8379638910296
 31
0.0
  0
LINE
  5
   63F
  8
0
  6
CONTINUOUS
 62
   130
 10
106.484126085043
 20
-88.4879624962809
 30
0.0
 11
106.484126085043
 21
-74.8379638910296
 31
0.0
  0
LINE
  5
   640
  8
0
  6
CONTINUOUS
 62
   130
 10
106.834131389856
 20
-74.8379638910296
 30
0.0
 11
106.834131389856
 21
-74.662963908911
 31
0.0
  0
LINE
  5
   641
  8
0
  6
CONTINUOUS
 62
   130
 10
95.1091325879097
 20
-114.037962486019
 30
0.0
 11
95.1091325879097
 21
-89.0129602926967
 31
0.0
  0
LINE
  5
   642
  8
0
  6
CONTINUOUS
 62
   130
 10
59.7591361999512
 20
-121.087844737152
 30
0.0
 11
59.7591361999512
 21
34.2704366152974
 31
0.0
  0
LINE
  5
   643
  8
0
  6
CONTINUOUS
 62
   130
 10
58.7091363072395
 20
-121.087844737152
 30
0.0
 11
58.7091363072395
 21
34.4765566363898
 31
0.0
  0
LINE
  5
   644
  8
0
  6
CONTINUOUS
 62
   130
 10
106.834131389856
 20
-88.6629603284595
 30
0.0
 11
107.884131282568
 21
-88.6629603284595
 31
0.0
  0
LINE
  5
   645
  8
0
  6
CONTINUOUS
 62
   130
 10
106.834131389856
 20
-74.662963908911
 30
0.0
 11
107.884125941992
 21
-74.662963908911
 31
0.0
  0
LINE
  5
   646
  8
0
  6
CONTINUOUS
 62
   130
 10
106.484126085043
 20
-74.8379638910296
 30
0.0
 11
108.234131246805
 21
-74.8379638910296
 31
0.0
  0
LINE
  5
   647
  8
0
  6
CONTINUOUS
 62
   130
 10
106.484126085043
 20
-88.4879624962809
 30
0.0
 11
108.234131246805
 21
-88.4879624962809
 31
0.0
  0
LINE
  5
   648
  8
0
  6
CONTINUOUS
 62
   130
 10
60.6341357767582
 20
-36.009722188093
 30
0.0
 11
63.1653266065767
 21
-36.6879530449023
 31
0.0
  0
LINE
  5
   649
  8
0
  6
CONTINUOUS
 62
   130
 10
60.6341357767582
 20
-41.2161820928975
 30
0.0
 11
63.1653171698394
 21
-40.5379532960787
 31
0.0
  0
LINE
  5
   64A
  8
0
  6
CONTINUOUS
 62
   130
 10
59.7591361999512
 20
-114.037976527528
 30
0.0
 11
106.834131389856
 21
-114.037957735657
 31
0.0
  0
LINE
  5
   64B
  8
0
  6
CONTINUOUS
 62
   130
 10
60.2841355802317
 20
28.0620215755569
 30
0.0
 11
93.534174907372
 21
28.0619361263695
 31
0.0
  0
LINE
  5
   64C
  8
0
  6
CONTINUOUS
 62
     1
 10
57.1373166674392
 20
34.7851123796408
 30
0.0
 11
61.2017396229782
 21
33.9872466359019
 31
0.0
  0
LINE
  5
   64D
  8
0
  6
CONTINUOUS
 62
     1
 10
57.7570392018117
 20
-121.087844737152
 30
0.0
 11
60.8170412624574
 21
-121.087844737152
 31
0.0
  0
LINE
  5
   64E
  8
0
  6
CONTINUOUS
 62
     7
 10
106.028941277012
 20
-9.74011313218386
 30
0.0
 11
106.133941166147
 21
-9.74011313218386
 31
0.0
  0
LINE
  5
   64F
  8
0
  6
CONTINUOUS
 62
     7
 10
108.49644080238
 20
-23.740111161128
 30
0.0
 11
108.558312632729
 21
-23.76574058369
 31
0.0
  0
LINE
  5
   650
  8
0
  6
CONTINUOUS
 62
     7
 10
108.558313123482
 20
-23.7657428483386
 30
0.0
 11
108.583941284652
 21
-23.8276134155388
 31
0.0
  0
LINE
  5
   651
  8
0
  6
CONTINUOUS
 62
     7
 10
108.558312410182
 20
-60.4644808157995
 30
0.0
 11
108.583940529446
 21
-60.4026089135271
 31
0.0
  0
LINE
  5
   652
  8
0
  6
CONTINUOUS
 62
     7
 10
106.379119687082
 20
-4.83786180457678
 30
0.0
 11
106.484120744468
 21
-4.83786180457678
 31
0.0
  0
LINE
  5
   653
  8
0
  6
CONTINUOUS
 62
   212
 10
108.934114933412
 20
-66.2629731118673
 30
0.0
 11
108.934114933412
 21
-29.5129925549008
 31
0.0
  0
LINE
  5
   654
  8
0
  6
CONTINUOUS
 62
   212
 10
108.934114933412
 20
-57.6003323807498
 30
0.0
 11
108.935687065362
 21
-57.6003323807498
 31
0.0
  0
LINE
  5
   655
  8
0
  6
CONTINUOUS
 62
   212
 10
108.935660946609
 20
-57.1628057212978
 30
0.0
 11
108.935662031414
 21
-57.6003310410393
 31
0.0
  0
LINE
  5
   656
  8
0
  6
CONTINUOUS
 62
     7
 10
106.379126121798
 20
-7.72760188101246
 30
0.0
 11
106.484126010934
 21
-7.72760188101246
 31
0.0
  0
LINE
  5
   657
  8
0
  6
CONTINUOUS
 62
     7
 10
108.846625647166
 20
-21.7275999099566
 30
0.0
 11
108.908497477516
 21
-21.7532293325186
 31
0.0
  0
LINE
  5
   658
  8
0
  6
CONTINUOUS
 62
     7
 10
108.908497968269
 20
-21.7532315971672
 30
0.0
 11
108.934126129439
 21
-21.8151021643674
 31
0.0
  0
LINE
  5
   659
  8
0
  6
CONTINUOUS
 62
     7
 10
108.908497254969
 20
-58.4519695646281
 30
0.0
 11
108.934125374233
 21
-58.3900976623557
 31
0.0
  0
LINE
  5
   65A
  8
0
  6
CONTINUOUS
 62
     7
 10
108.975460951881
 20
-48.5565015417892
 30
0.0
 11
109.130817644361
 21
-48.3599550003047
 31
0.0
  0
LINE
  5
   65B
  8
0
  6
DASHDOT
 62
     7
 10
55.4653274815105
 20
-45.8753231080731
 30
0.0
 11
164.511485606406
 21
-45.8756256379925
 31
0.0
  0
LINE
  5
   65C
  8
0
  6
CONTINUOUS
 62
     7
 10
59.7591468811037
 20
-101.619965920826
 30
0.0
 11
59.7591468811037
 21
-73.7004642500913
 31
0.0
  0
LINE
  5
   65D
  8
0
  6
CONTINUOUS
 62
     7
 10
123.809113559525
 20
-51.4753902378236
 30
0.0
 11
123.809113559525
 21
-47.2753867182152
 31
0.0
  0
LINE
  5
   65E
  8
0
  6
DASHDOT
 62
     3
 10
137.403683204882
 20
-40.1003421797501
 30
0.0
 11
140.825327376227
 21
-40.1003421797501
 31
0.0
  0
LINE
  5
   65F
  8
0
  6
CONTINUOUS
 62
   212
 10
123.809112224381
 20
-70.3754806115267
 30
0.0
 11
123.809112224381
 21
-21.3754856183168
 31
0.0
  0
LINE
  5
   660
  8
0
  6
CONTINUOUS
 62
   212
 10
123.809109556695
 20
-26.8027067374247
 30
0.0
 11
126.26256205546
 21
-26.802744173996
 31
0.0
  0
LINE
  5
   661
  8
0
  6
CONTINUOUS
 62
   212
 10
123.809110896233
 20
-45.1022478641239
 30
0.0
 11
126.262187965469
 21
-45.1021917548864
 31
0.0
  0
LINE
  5
   662
  8
0
  6
DASHDOT
 62
     7
 10
111.68440034503
 20
-36.0754841162798
 30
0.0
 11
143.522304255507
 21
-36.0754841162798
 31
0.0
  0
LINE
  5
   663
  8
0
  6
CONTINUOUS
 62
     3
 10
108.934125834704
 20
-58.4753256156243
 30
0.0
 11
108.934125834704
 21
-29.5129741057185
 31
0.0
  0
LINE
  5
   664
  8
0
  6
DASHED
 62
     7
 10
156.184121006728
 20
-78.420046595073
 30
0.0
 11
156.184121006728
 21
-28.1865395964134
 31
0.0
  0
LINE
  5
   665
  8
0
  6
DASHED
 62
     7
 10
144.459122204781
 20
-47.4416069172985
 30
0.0
 11
147.434121900797
 21
-47.4416069172985
 31
0.0
  0
LINE
  5
   666
  8
0
  6
DASHED
 62
     7
 10
144.109122240544
 20
-26.8004850639936
 30
0.0
 11
154.784121149768
 21
-26.8004850639936
 31
0.0
  0
ARC
  5
   667
  8
0
  6
DASHED
 62
     7
 10
147.434121900797
 20
-49.891606666959
 30
0.0
 40
2.44999974966049
 50
0.0
 51
90.0
  0
ARC
  5
   668
  8
0
  6
DASHED
 62
     7
 10
147.434121900797
 20
-48.6611140100972
 30
0.0
 40
2.44999974966049
 50
0.0
 51
90.0
  0
LINE
  5
   669
  8
0
  6
DASHED
 62
     7
 10
149.884121650458
 20
-79.8254817320938
 30
0.0
 11
149.884121650458
 21
-48.6611140100972
 31
0.0
  0
LINE
  5
   66A
  8
0
  6
DASHED
 62
     7
 10
158.984120720625
 20
-45.5254831506845
 30
0.0
 11
158.984120720625
 21
-39.9254837228891
 31
0.0
  0
ARC
  5
   66B
  8
0
  6
DASHED
 62
     7
 10
157.584120863677
 20
-45.5254831506845
 30
0.0
 40
1.39999985694885
 50
180.0
 51
360.0
  0
ARC
  5
   66C
  8
0
  6
DASHED
 62
     7
 10
157.584120863677
 20
-39.9254837228891
 30
0.0
 40
1.39999985694885
 50
0.0
 51
180.0
  0
LINE
  5
   66D
  8
0
  6
DASHDOT
 62
     7
 10
155.484121078253
 20
-45.5254831506845
 30
0.0
 11
159.6841206491
 21
-45.5254831506845
 31
0.0
  0
LINE
  5
   66E
  8
0
  6
DASHDOT
 62
     7
 10
157.584120863677
 20
-47.6254829361078
 30
0.0
 11
157.584120863677
 21
-37.8254839374658
 31
0.0
  0
LINE
  5
   66F
  8
0
  6
DASHDOT
 62
     7
 10
155.484121078253
 20
-39.9254837228891
 30
0.0
 11
159.6841206491
 21
-39.9254837228891
 31
0.0
  0
ARC
  5
   670
  8
0
  6
DASHED
 62
     7
 10
153.034121328593
 20
-33.2754844023821
 30
0.0
 40
14.4547866570591
 50
282.586944950843
 51
307.750050331541
  0
ARC
  5
   671
  8
0
  6
DASHED
 62
     7
 10
153.034121328593
 20
-33.2754844023821
 30
0.0
 40
15.5047865497708
 50
281.72198665881
 51
307.180704244992
  0
LINE
  5
   672
  8
0
  6
DASHED
 62
     7
 10
156.184121006728
 20
-34.5883419195712
 30
0.0
 11
162.963775408466
 21
-46.621997553852
 31
0.0
  0
LINE
  5
   673
  8
0
  6
DASHED
 62
     7
 10
156.184121006728
 20
-32.4491996115158
 30
0.0
 11
163.878581094526
 21
-46.1066041784122
 31
0.0
  0
LINE
  5
   674
  8
0
  6
DASHED
 62
     7
 10
162.963775408466
 20
-46.621997553852
 30
0.0
 11
163.878581094526
 21
-46.1066041784123
 31
0.0
  0
LINE
  5
   675
  8
0
  6
DASHED
 62
     7
 10
144.459122204781
 20
-47.4416069172985
 30
0.0
 11
144.459122204781
 21
-45.1754911973107
 31
0.0
  0
LINE
  5
   676
  8
0
  6
CONTINUOUS
 62
   212
 10
126.26218797101
 20
-45.1019207378934
 30
0.0
 11
126.262562056116
 21
-26.8027120930119
 31
0.0
  0
LINE
  5
   677
  8
0
  6
CONTINUOUS
 62
   253
 10
139.55912270546
 20
-45.350516493742
 30
0.0
 11
139.55912270546
 21
-39.5754837586519
 31
0.0
  0
LINE
  5
   678
  8
0
  6
CONTINUOUS
 62
   253
 10
134.134123259783
 20
-39.2254824058492
 30
0.0
 11
134.134123259783
 21
-37.4754825846631
 31
0.0
  0
LINE
  5
   679
  8
0
  6
CONTINUOUS
 62
   253
 10
134.134123259783
 20
-21.7253453390222
 30
0.0
 11
138.771622785926
 21
-21.7253453390222
 31
0.0
  0
LINE
  5
   67A
  8
0
  6
CONTINUOUS
 62
   253
 10
134.134123259783
 20
-58.4753522650809
 30
0.0
 11
138.771622785926
 21
-58.4753522650809
 31
0.0
  0
LINE
  5
   67B
  8
0
  6
CONTINUOUS
 62
   253
 10
139.209122741223
 20
-58.0378416286331
 30
0.0
 11
139.209122741223
 21
-39.5754837586519
 31
0.0
  0
LINE
  5
   67C
  8
0
  6
CONTINUOUS
 62
   253
 10
134.134123259783
 20
-58.4753522650809
 30
0.0
 11
134.134123259783
 21
-39.2254824058492
 31
0.0
  0
LINE
  5
   67D
  8
0
  6
CONTINUOUS
 62
   253
 10
134.134123259783
 20
-36.0755201117436
 30
0.0
 11
134.134123259783
 21
-21.7253453390222
 31
0.0
  0
LINE
  5
   67E
  8
0
  6
CONTINUOUS
 62
   253
 10
134.134123259783
 20
-37.4754825846631
 30
0.0
 11
134.134123259783
 21
-36.0755174414558
 31
0.0
  0
LINE
  5
   67F
  8
0
  6
CONTINUOUS
 62
   253
 10
139.080983244816
 20
-58.3471984716796
 30
0.0
 11
139.209125020687
 21
-58.0378389492385
 31
0.0
  0
LINE
  5
   680
  8
0
  6
CONTINUOUS
 62
   253
 10
139.019093902319
 20
-58.3728375064959
 30
0.0
 11
139.080980494078
 21
-58.3472014074359
 31
0.0
  0
LINE
  5
   681
  8
0
  6
CONTINUOUS
 62
   253
 10
138.771622638841
 20
-58.4753523482119
 30
0.0
 11
139.019011454669
 21
-58.3728720390666
 31
0.0
  0
LINE
  5
   682
  8
0
  6
CONTINUOUS
 62
   253
 10
138.771624170276
 20
-21.7253430721043
 30
0.0
 11
139.08098235599
 21
-21.8534848459761
 31
0.0
  0
LINE
  5
   683
  8
0
  6
CONTINUOUS
 62
   253
 10
139.080981534288
 20
-21.8534832229048
 30
0.0
 11
139.20912330816
 21
-22.1628414086184
 31
0.0
  0
LINE
  5
   684
  8
0
  6
CONTINUOUS
 62
   130
 10
126.437339766828
 20
-45.3504791224983
 30
0.0
 11
126.43738516172
 21
-26.8004463036627
 31
0.0
  0
LINE
  5
   685
  8
0
  6
CONTINUOUS
 62
   130
 10
126.962339713185
 20
-45.3504764520929
 30
0.0
 11
126.962385108078
 21
-26.8004516412337
 31
0.0
  0
LINE
  5
   686
  8
0
  6
CONTINUOUS
 62
   130
 10
127.312379124463
 20
-29.0755113874169
 30
0.0
 11
131.162883185724
 21
-29.0755250498134
 31
0.0
  0
LINE
  5
   687
  8
0
  6
CONTINUOUS
 62
   130
 10
127.312345424552
 20
-43.0755097501166
 30
0.0
 11
131.162712842834
 21
-43.0755211350432
 31
0.0
  0
LINE
  5
   688
  8
0
  6
CONTINUOUS
 62
   130
 10
126.962833720027
 20
-33.2754563071603
 30
0.0
 11
131.512833255111
 21
-33.2755150534928
 31
0.0
  0
LINE
  5
   689
  8
0
  6
CONTINUOUS
 62
   130
 10
126.962762957523
 20
-38.8754557354225
 30
0.0
 11
131.512762492607
 21
-38.875514481755
 31
0.0
  0
LINE
  5
   68A
  8
0
  6
CONTINUOUS
 62
   130
 10
126.962762955055
 20
-38.8754557328407
 30
0.0
 11
126.962833717682
 21
-33.2754563050725
 31
0.0
  0
LINE
  5
   68B
  8
0
  6
CONTINUOUS
 62
   130
 10
131.51271384105
 20
-42.7255255942944
 30
0.0
 11
131.512881902258
 21
-29.425529437846
 31
0.0
  0
LINE
  5
   68C
  8
0
  6
CONTINUOUS
 62
   253
 10
139.209122741223
 20
-45.350516493742
 30
0.0
 11
139.55912270546
 21
-45.350516493742
 31
0.0
  0
LINE
  5
   68D
  8
0
  6
CONTINUOUS
 62
   253
 10
139.209122741223
 20
-26.8005210594575
 30
0.0
 11
139.55912270546
 21
-26.8005210594575
 31
0.0
  0
LINE
  5
   68E
  8
0
  6
CONTINUOUS
 62
   130
 10
126.262359811821
 20
-41.1504474954123
 30
0.0
 11
126.43735979394
 21
-41.1504474954123
 31
0.0
  0
LINE
  5
   68F
  8
0
  6
CONTINUOUS
 62
   130
 10
126.262385179555
 20
-31.000477905699
 30
0.0
 11
126.437385161674
 21
-31.000477905699
 31
0.0
  0
LINE
  5
   690
  8
0
  6
CONTINUOUS
 62
   130
 10
126.437339766321
 20
-45.3504791092825
 30
0.0
 11
126.962339712677
 21
-45.3504764389946
 31
0.0
  0
LINE
  5
   691
  8
0
  6
CONTINUOUS
 62
   130
 10
126.437385162558
 20
-26.8004462887189
 30
0.0
 11
126.962385108913
 21
-26.8004516292947
 31
0.0
  0
ARC
  5
   692
  8
0
  6
CONTINUOUS
 62
     7
 10
131.162881938049
 20
-29.4255250140485
 30
0.0
 40
0.349999964237213
 50
359.999275999948
 51
450.0
  0
ARC
  5
   693
  8
0
  6
CONTINUOUS
 62
     7
 10
131.162713876841
 20
-42.7255211708076
 30
0.0
 40
0.349999964237213
 50
269.999830585454
 51
359.999275999948
  0
ARC
  5
   694
  8
0
  6
CONTINUOUS
 62
     7
 10
127.312380361386
 20
-28.725511423182
 30
0.0
 40
0.349999964237213
 50
179.999859788015
 51
269.99979670255
  0
ARC
  5
   695
  8
0
  6
CONTINUOUS
 62
     7
 10
127.312344388126
 20
-43.4255097143523
 30
0.0
 40
0.349999964237213
 50
90.0
 51
179.999859788015
  0
LINE
  5
   696
  8
0
  6
CONTINUOUS
 62
   212
 10
139.209122741223
 20
-26.8031994607273
 30
0.0
 11
139.209122741223
 21
-21.9028345784252
 31
0.0
  0
LINE
  5
   697
  8
0
  6
CONTINUOUS
 62
     7
 10
133.434123331309
 20
-62.4431454237903
 30
0.0
 11
133.434123331309
 21
-5.68383367366845
 31
0.0
  0
LINE
  5
   698
  8
0
  6
CONTINUOUS
 62
     7
 10
134.134123259783
 20
-21.7278345963066
 30
0.0
 11
134.134123259783
 21
-5.68383367366845
 31
0.0
  0
LINE
  5
   699
  8
0
  6
CONTINUOUS
 62
   170
 10
132.384123438597
 20
-40.8031486303046
 30
0.0
 11
132.384123438597
 21
-31.3531455901936
 31
0.0
  0
LINE
  5
   69A
  8
0
  6
CONTINUOUS
 62
   170
 10
132.909119379522
 20
-30.8281536546544
 30
0.0
 11
133.434123331309
 21
-30.8281576601162
 31
0.0
  0
LINE
  5
   69B
  8
0
  6
CONTINUOUS
 62
   170
 10
132.909131395892
 20
-41.3281525821681
 30
0.0
 11
133.434123331309
 21
-41.3281565875382
 31
0.0
  0
LINE
  5
   69C
  8
0
  6
CONTINUOUS
 62
   170
 10
132.384123438597
 20
-31.3531495956248
 30
0.0
 11
133.434123331309
 21
-31.3531576064872
 31
0.0
  0
LINE
  5
   69D
  8
0
  6
CONTINUOUS
 62
   170
 10
132.384123438597
 20
-40.8031486303046
 30
0.0
 11
133.434123331309
 21
-40.8031566411671
 31
0.0
  0
LINE
  5
   69E
  8
0
  6
CONTINUOUS
 62
   170
 10
132.384123438597
 20
-31.3531455901936
 30
0.0
 11
132.909127390384
 21
-30.8281456438531
 31
0.0
  0
LINE
  5
   69F
  8
0
  6
CONTINUOUS
 62
   170
 10
132.384123438597
 20
-40.8031446248733
 30
0.0
 11
132.909123384953
 21
-41.3281445712292
 31
0.0
  0
LINE
  5
   6A0
  8
0
  6
CONTINUOUS
 62
     7
 10
131.687197064653
 20
-34.3281359637396
 30
0.0
 11
132.384123438597
 21
-34.3281412808652
 31
0.0
  0
LINE
  5
   6A1
  8
0
  6
CONTINUOUS
 62
     7
 10
131.687152838378
 20
-37.8281356058761
 30
0.0
 11
132.384123438597
 21
-37.8281409233392
 31
0.0
  0
LINE
  5
   6A2
  8
0
  6
DASHDOT
 62
     7
 10
129.234746631212
 20
-44.5405877588869
 30
0.0
 11
129.234746631212
 21
-26.8031019952338
 31
0.0
  0
LINE
  5
   6A3
  8
0
  6
CONTINUOUS
 62
     7
 10
130.109746541805
 20
-27.6755131843845
 30
0.0
 11
130.109746541805
 21
-25.5781261529553
 31
0.0
  0
LINE
  5
   6A4
  8
0
  6
CONTINUOUS
 62
     7
 10
128.359746720619
 20
-27.675499832947
 30
0.0
 11
128.359746720619
 21
-25.5781128015178
 31
0.0
  0
LINE
  5
   6A5
  8
0
  6
CONTINUOUS
 62
     7
 10
128.359746721054
 20
-25.5781128015178
 30
0.0
 11
130.109746542183
 21
-25.5781261529553
 31
0.0
  0
LINE
  5
   6A6
  8
0
  6
CONTINUOUS
 62
     7
 10
130.109661013552
 20
-46.5781240108835
 30
0.0
 11
130.109693096529
 21
-44.4755338127381
 31
0.0
  0
LINE
  5
   6A7
  8
0
  6
CONTINUOUS
 62
     7
 10
128.359655930132
 20
-46.5781106556691
 30
0.0
 11
130.10966101368
 21
-46.5781240071467
 31
0.0
  0
LINE
  5
   6A8
  8
0
  6
CONTINUOUS
 62
     7
 10
128.359661192366
 20
-46.5781106594364
 30
0.0
 11
128.359693275343
 21
-44.4755204606391
 31
0.0
  0
LINE
  5
   6A9
  8
0
  6
CONTINUOUS
 62
   132
 10
127.944998765063
 20
-27.6754966686716
 30
0.0
 11
130.524498501577
 21
-27.6755163486905
 31
0.0
  0
LINE
  5
   6AA
  8
0
  6
CONTINUOUS
 62
   132
 10
127.68249678982
 20
-28.812994548684
 30
0.0
 11
127.68249678982
 21
-27.9379966417067
 31
0.0
  0
LINE
  5
   6AB
  8
0
  6
CONTINUOUS
 62
   132
 10
130.786996472604
 20
-28.8130142297412
 30
0.0
 11
130.786996472604
 21
-27.9380163217251
 31
0.0
  0
LINE
  5
   6AC
  8
0
  6
CONTINUOUS
 62
   132
 10
128.207496736176
 20
-28.812994548684
 30
0.0
 11
128.207496736176
 21
-27.9379966417067
 31
0.0
  0
LINE
  5
   6AD
  8
0
  6
CONTINUOUS
 62
   132
 10
130.261996526248
 20
-28.8130182352026
 30
0.0
 11
130.261996526248
 21
-27.9380143191451
 31
0.0
  0
LINE
  5
   6AE
  8
0
  6
CONTINUOUS
 62
   132
 10
128.119373874367
 20
-29.0755182083804
 30
0.0
 11
130.698873610795
 21
-29.0755182083804
 31
0.0
  0
ARC
  5
   6AF
  8
0
  6
CONTINUOUS
 62
   132
 10
127.944996762998
 20
-28.812994548684
 30
0.0
 40
0.262499974246549
 50
180.00517004828
 51
360.0
  0
ARC
  5
   6B0
  8
0
  6
CONTINUOUS
 62
   132
 10
129.234746631212
 20
-26.9342825938373
 30
0.0
 40
2.14123561454313
 50
241.331165258311
 51
298.668834741688
  0
ARC
  5
   6B1
  8
0
  6
CONTINUOUS
 62
   132
 10
130.524496499426
 20
-28.8130142297412
 30
0.0
 40
0.262499973208507
 50
180.0
 51
359.999125729333
  0
ARC
  5
   6B2
  8
0
  6
CONTINUOUS
 62
   132
 10
130.524496499426
 20
-27.9380163217251
 30
0.0
 40
0.262499973185519
 50
359.999562838353
 51
540.0
  0
ARC
  5
   6B3
  8
0
  6
CONTINUOUS
 62
   132
 10
129.234732297599
 20
-29.8167421232719
 30
0.0
 40
2.14123561465398
 50
61.3307281269688
 51
118.668397608924
  0
ARC
  5
   6B4
  8
0
  6
CONTINUOUS
 62
   132
 10
127.944996762998
 20
-27.9379966417067
 30
0.0
 40
0.26249997318575
 50
0.0
 51
179.999562897457
  0
LINE
  5
   6B5
  8
0
  6
CONTINUOUS
 62
   132
 10
127.944907975805
 20
-44.4755172928507
 30
0.0
 11
130.524407712402
 21
-44.4755369728695
 31
0.0
  0
ARC
  5
   6B6
  8
0
  6
CONTINUOUS
 62
   132
 10
129.234674180482
 20
-42.3342915182693
 30
0.0
 40
2.14123561465398
 50
241.330728126966
 51
298.668397608922
  0
ARC
  5
   6B7
  8
0
  6
CONTINUOUS
 62
   132
 10
130.524409715083
 20
-44.2130369998348
 30
0.0
 40
0.262499973185519
 50
179.99912573589
 51
359.999562897537
  0
LINE
  5
   6B8
  8
0
  6
CONTINUOUS
 62
   132
 10
130.261909741905
 20
-44.2130350021744
 30
0.0
 11
130.261923093403
 21
-43.3380310862136
 31
0.0
  0
LINE
  5
   6B9
  8
0
  6
CONTINUOUS
 62
   132
 10
128.207409951802
 20
-44.2130213283359
 30
0.0
 11
128.207423303209
 21
-43.3380234218272
 31
0.0
  0
LINE
  5
   6BA
  8
0
  6
CONTINUOUS
 62
   132
 10
127.682410005507
 20
-44.2130133174696
 30
0.0
 11
127.682423356914
 21
-43.3380154109609
 31
0.0
  0
LINE
  5
   6BB
  8
0
  6
CONTINUOUS
 62
   132
 10
130.78690968823
 20
-44.2130410103246
 30
0.0
 11
130.786923039637
 21
-43.338043102512
 31
0.0
  0
ARC
  5
   6BC
  8
0
  6
CONTINUOUS
 62
   132
 10
130.52442306649
 20
-43.3380390919206
 30
0.0
 40
0.262499973208507
 50
6.5571192756364E-9
 51
179.99912573589
  0
LINE
  5
   6BD
  8
0
  6
CONTINUOUS
 62
   132
 10
128.119304449034
 20
-43.0754957532743
 30
0.0
 11
130.698804185439
 21
-43.075535113312
 31
0.0
  0
ARC
  5
   6BE
  8
0
  6
CONTINUOUS
 62
   132
 10
127.944923330061
 20
-43.3380194129401
 30
0.0
 40
0.262499974246549
 50
359.99912573589
 51
539.99395568761
  0
ARC
  5
   6BF
  8
0
  6
CONTINUOUS
 62
   132
 10
129.234644531259
 20
-45.216751047587
 30
0.0
 40
2.14123561454313
 50
61.3302909942027
 51
118.667960477579
  0
ARC
  5
   6C0
  8
0
  6
CONTINUOUS
 62
   132
 10
127.944909978654
 20
-44.2130173198156
 30
0.0
 40
0.26249997318575
 50
179.999562838433
 51
359.99912573589
  0
ARC
  5
   6C1
  8
0
  6
CONTINUOUS
 62
     7
 10
134.484123224021
 20
-28.0254849388239
 30
0.0
 40
2.02999979257584
 50
184.945429717883
 51
220.282118355986
  0
LINE
  5
   6C2
  8
0
  6
CONTINUOUS
 62
     7
 10
132.461680600825
 20
-28.2004849209425
 30
0.0
 11
132.804123395682
 21
-28.2004849209425
 31
0.0
  0
LINE
  5
   6C3
  8
0
  6
CONTINUOUS
 62
     7
 10
132.461680600825
 20
-27.8504849567053
 30
0.0
 11
132.804123395682
 21
-27.8504849567053
 31
0.0
  0
ARC
  5
   6C4
  8
0
  6
CONTINUOUS
 62
     7
 10
134.484123224021
 20
-28.0254849388239
 30
0.0
 40
2.02999979257584
 50
139.717881644014
 51
175.054570282117
  0
LINE
  5
   6C5
  8
0
  6
CONTINUOUS
 62
     7
 10
132.93549697476
 20
-26.7129850729343
 30
0.0
 11
133.434123331309
 21
-26.7129850729343
 31
0.0
  0
LINE
  5
   6C6
  8
0
  6
CONTINUOUS
 62
     7
 10
132.93549697476
 20
-29.3379848047134
 30
0.0
 11
133.434123331309
 21
-29.3379848047134
 31
0.0
  0
LINE
  5
   6C7
  8
0
  6
CONTINUOUS
 62
     7
 10
132.804123395682
 20
-28.2004849209425
 30
0.0
 11
132.804123395682
 21
-27.8504849567053
 31
0.0
  0
LINE
  5
   6C8
  8
0
  6
DASHDOT
 62
     7
 10
132.217896222985
 20
-28.0254849388239
 30
0.0
 11
138.103438177833
 21
-28.0254849388239
 31
0.0
  0
LINE
  5
   6C9
  8
0
  6
CONTINUOUS
 62
     7
 10
131.702435740222
 20
-5.68383367366845
 30
0.0
 11
136.235713991437
 21
-5.68383367366845
 31
0.0
  0
LINE
  5
   6CA
  8
0
  6
CONTINUOUS
 62
     7
 10
131.702435740222
 20
-62.4431454237903
 30
0.0
 11
135.080172476421
 21
-62.4431454237903
 31
0.0
  0
LINE
  5
   6CB
  8
0
  6
CONTINUOUS
 62
     7
 10
134.134123259783
 20
-62.4431454237903
 30
0.0
 11
134.134123259783
 21
-58.4753522650809
 31
0.0
  0
LINE
  5
   6CC
  8
0
  6
CONTINUOUS
 62
     7
 10
140.78412258029
 20
-37.1254840089914
 30
0.0
 11
140.78412258029
 21
-35.0254842235681
 31
0.0
  0
LINE
  5
   6CD
  8
0
  6
CONTINUOUS
 62
     7
 10
134.134123259783
 20
-34.3254842950937
 30
0.0
 11
140.084122651816
 21
-34.3254842950937
 31
0.0
  0
LINE
  5
   6CE
  8
0
  6
CONTINUOUS
 62
     7
 10
134.134123259783
 20
-37.8254839374658
 30
0.0
 11
140.084122651816
 21
-37.8254839374658
 31
0.0
  0
LINE
  5
   6CF
  8
0
  6
CONTINUOUS
 62
     7
 10
140.084122651816
 20
-34.3254842950936
 30
0.0
 11
140.78412258029
 21
-35.025484223568
 31
0.0
  0
LINE
  5
   6D0
  8
0
  6
CONTINUOUS
 62
     7
 10
140.084122651816
 20
-37.8254839374658
 30
0.0
 11
140.78412258029
 21
-37.1254840089914
 31
0.0
  0
CIRCLE
  5
   6D1
  8
0
  6
CONTINUOUS
 62
     7
 10
138.684122794867
 20
-36.0754841162798
 30
0.0
 40
0.962499901652336
  0
LINE
  5
   6D2
  8
0
  6
DASHDOT
 62
     7
 10
138.684122794867
 20
-37.3879839821693
 30
0.0
 11
138.684122794867
 21
-34.7629842503902
 31
0.0
  0
LINE
  5
   6D3
  8
0
  6
CONTINUOUS
 62
     7
 10
134.134123259783
 20
-32.5754844739076
 30
0.0
 11
142.534122401476
 21
-32.5754844739076
 31
0.0
  0
LINE
  5
   6D4
  8
0
  6
CONTINUOUS
 62
     7
 10
134.134123259783
 20
-39.5754837586519
 30
0.0
 11
142.534122401476
 21
-39.5754837586519
 31
0.0
  0
LINE
  5
   6D5
  8
0
  6
CONTINUOUS
 62
     7
 10
142.534122401476
 20
-39.5754837586519
 30
0.0
 11
142.534122401476
 21
-32.5754844739076
 31
0.0
  0
LINE
  5
   6D6
  8
0
  6
CONTINUOUS
 62
   253
 10
139.209122741223
 20
-32.5754844739076
 30
0.0
 11
139.209122741223
 21
-22.1628452943188
 31
0.0
  0
LINE
  5
   6D7
  8
0
  6
CONTINUOUS
 62
   253
 10
139.55912270546
 20
-32.5754844739076
 30
0.0
 11
139.55912270546
 21
-26.8005210594575
 31
0.0
  0
LINE
  5
   6D8
  8
0
  6
CONTINUOUS
 62
     7
 10
132.93549697476
 20
-42.8129834278461
 30
0.0
 11
133.434123331309
 21
-42.8129834278461
 31
0.0
  0
ARC
  5
   6D9
  8
0
  6
CONTINUOUS
 62
     7
 10
134.484123224021
 20
-44.1254832937357
 30
0.0
 40
2.02999979257584
 50
139.717881644014
 51
175.054570282117
  0
LINE
  5
   6DA
  8
0
  6
CONTINUOUS
 62
     7
 10
132.461680600825
 20
-43.9504833116171
 30
0.0
 11
132.804123395682
 21
-43.9504833116171
 31
0.0
  0
LINE
  5
   6DB
  8
0
  6
CONTINUOUS
 62
     7
 10
132.804123395682
 20
-44.3004832758543
 30
0.0
 11
132.804123395682
 21
-43.9504833116171
 31
0.0
  0
LINE
  5
   6DC
  8
0
  6
CONTINUOUS
 62
     7
 10
132.461680600825
 20
-44.3004832758543
 30
0.0
 11
132.804123395682
 21
-44.3004832758543
 31
0.0
  0
ARC
  5
   6DD
  8
0
  6
CONTINUOUS
 62
     7
 10
134.484123224021
 20
-44.1254832937357
 30
0.0
 40
2.02999979257584
 50
184.945429717883
 51
220.282118355986
  0
LINE
  5
   6DE
  8
0
  6
CONTINUOUS
 62
     7
 10
132.93549697476
 20
-45.4379831596252
 30
0.0
 11
133.434123331309
 21
-45.4379831596252
 31
0.0
  0
LINE
  5
   6DF
  8
0
  6
DASHDOT
 62
     7
 10
132.217896222985
 20
-44.1254832937357
 30
0.0
 11
138.103438177833
 21
-44.1254832937357
 31
0.0
  0
LINE
  5
   6E0
  8
0
  6
DOT
 62
     7
 10
116.986768451064
 20
-37.8254839374658
 30
0.0
 11
116.986768451064
 21
-34.3254842950937
 31
0.0
  0
LINE
  5
   6E1
  8
0
  6
DOT
 62
     7
 10
116.986768451064
 20
-34.3254842950937
 30
0.0
 11
131.687197096892
 21
-34.3254842950937
 31
0.0
  0
LINE
  5
   6E2
  8
0
  6
DOT
 62
     7
 10
116.986768451064
 20
-37.8254839374658
 30
0.0
 11
131.687197096892
 21
-37.8254839374658
 31
0.0
  0
LINE
  5
   6E3
  8
0
  6
CONTINUOUS
 62
     7
 10
108.23412590623
 20
-21.3754856183168
 30
0.0
 11
123.809112224381
 21
-21.3754856183168
 31
0.0
  0
LINE
  5
   6E4
  8
0
  6
CONTINUOUS
 62
     7
 10
108.23412590623
 20
-70.3754806115267
 30
0.0
 11
123.809112224381
 21
-70.3754806115267
 31
0.0
  0
LINE
  5
   6E5
  8
0
  6
CONTINUOUS
 62
     7
 10
131.51271384105
 20
-67.7740892289132
 30
0.0
 11
131.51271384105
 21
-65.3604131708228
 31
0.0
  0
LINE
  5
   6E6
  8
0
  6
CONTINUOUS
 62
     7
 10
131.51271384105
 20
-106.588715831158
 30
0.0
 11
131.51271384105
 21
-74.4174949518503
 31
0.0
  0
LINE
  5
   6E7
  8
0
  6
CONTINUOUS
 62
     7
 10
131.51271384105
 20
-124.167662481438
 30
0.0
 11
131.51271384105
 21
-122.381759031658
 31
0.0
  0
LINE
  5
   6E8
  8
0
  6
DASHED
 62
     7
 10
149.884121650458
 20
-79.8254817320938
 30
0.0
 11
154.78823137047
 21
-79.8254817320938
 31
0.0
  0
LINE
  5
   6E9
  8
0
  6
CONTINUOUS
 62
   130
 10
144.459122204781
 20
-28.5343136221836
 30
0.0
 11
144.459122204781
 21
-28.3582508655154
 31
0.0
  0
LINE
  5
   6EA
  8
0
  6
CONTINUOUS
 62
   130
 10
144.459122204781
 20
-29.7697009166068
 30
0.0
 11
144.459122204781
 21
-29.0152110950185
 31
0.0
  0
LINE
  5
   6EB
  8
0
  6
CONTINUOUS
 62
   130
 10
144.459122204781
 20
-28.3582508655154
 30
0.0
 11
144.459122204781
 21
-27.8078992066621
 31
0.0
  0
LINE
  5
   6EC
  8
0
  6
CONTINUOUS
 62
   130
 10
144.459122204781
 20
-27.8078992066621
 30
0.0
 11
144.459122204781
 21
-27.3717610981503
 31
0.0
  0
LINE
  5
   6ED
  8
0
  6
CONTINUOUS
 62
   130
 10
144.459122204781
 20
-27.2382253451933
 30
0.0
 11
144.459122204781
 21
-27.0558553687106
 31
0.0
  0
LINE
  5
   6EE
  8
0
  6
CONTINUOUS
 62
   130
 10
144.459122204781
 20
-29.0152110950185
 30
0.0
 11
144.459122204781
 21
-28.6457874572288
 31
0.0
  0
LINE
  5
   6EF
  8
0
  6
CONTINUOUS
 62
   130
 10
144.459122204781
 20
-27.3717610981503
 30
0.0
 11
144.459122204781
 21
-27.2908620585649
 31
0.0
  0
LINE
  5
   6F0
  8
0
  6
CONTINUOUS
 62
   130
 10
144.459122204781
 20
-30.0829951045653
 30
0.0
 11
144.459122204781
 21
-29.7697009166068
 31
0.0
  0
LINE
  5
   6F1
  8
0
  6
CONTINUOUS
 62
   130
 10
144.459122204781
 20
-30.1723055507618
 30
0.0
 11
144.459122204781
 21
-30.0829951045653
 31
0.0
  0
LINE
  5
   6F2
  8
0
  6
CONTINUOUS
 62
   130
 10
144.459122204781
 20
-45.1231722481889
 30
0.0
 11
144.459122204781
 21
-43.4308266111752
 31
0.0
  0
LINE
  5
   6F3
  8
0
  6
CONTINUOUS
 62
   130
 10
155.605149203094
 20
-79.5590601074764
 30
0.0
 11
155.607018404563
 21
-79.5581055630297
 31
0.0
  0
LINE
  5
   6F4
  8
0
  6
CONTINUOUS
 62
   130
 10
155.208728955514
 20
-79.7582301997352
 30
0.0
 11
155.216739818953
 21
-79.7569608951125
 31
0.0
  0
LINE
  5
   6F5
  8
0
  6
CONTINUOUS
 62
   130
 10
149.884121650458
 20
-32.9179862699657
 30
0.0
 11
149.909799138069
 21
-33.0647719910512
 31
0.0
  0
LINE
  5
   6F6
  8
0
  6
CONTINUOUS
 62
   130
 10
149.884121650458
 20
-40.2531013346771
 30
0.0
 11
149.899641363228
 21
-40.1441242187371
 31
0.0
  0
LINE
  5
   6F7
  8
0
  6
CONTINUOUS
 62
   130
 10
149.777555804413
 20
-31.4424279490575
 30
0.0
 11
149.795275834341
 21
-31.5376610936235
 31
0.0
  0
LINE
  5
   6F8
  8
0
  6
CONTINUOUS
 62
   130
 10
149.019877659176
 20
-30.4012827307342
 30
0.0
 11
149.049571259658
 21
-30.4439218865336
 31
0.0
  0
LINE
  5
   6F9
  8
0
  6
CONTINUOUS
 62
   130
 10
149.049571259658
 20
-30.4439218865336
 30
0.0
 11
149.432853691197
 21
-30.8255647613559
 31
0.0
  0
LINE
  5
   6FA
  8
0
  6
CONTINUOUS
 62
   130
 10
149.432853691197
 20
-30.825564761356
 30
0.0
 11
149.47407225388
 21
-30.8572343748192
 31
0.0
  0
LINE
  5
   6FB
  8
0
  6
CONTINUOUS
 62
   130
 10
148.484121793509
 20
-30.1723055507618
 30
0.0
 11
149.019877659176
 21
-30.4012827307342
 31
0.0
  0
LINE
  5
   6FC
  8
0
  6
CONTINUOUS
 62
   130
 10
149.625669833605
 20
-31.1994370986421
 30
0.0
 11
149.777555804413
 21
-31.4424279490576
 31
0.0
  0
LINE
  5
   6FD
  8
0
  6
CONTINUOUS
 62
   130
 10
149.483055102083
 20
-30.8727060224081
 30
0.0
 11
149.625669833605
 21
-31.199437098642
 31
0.0
  0
LINE
  5
   6FE
  8
0
  6
CONTINUOUS
 62
   130
 10
149.47407225388
 20
-30.8572343748192
 30
0.0
 11
149.483055102083
 21
-30.8727060224083
 31
0.0
  0
LINE
  5
   6FF
  8
0
  6
CONTINUOUS
 62
   130
 10
149.795275834341
 20
-31.5376610936234
 30
0.0
 11
149.884121650458
 21
-31.9732651445726
 31
0.0
  0
LINE
  5
   700
  8
0
  6
CONTINUOUS
 62
   130
 10
149.019877659176
 20
-43.2819714170346
 30
0.0
 11
149.47407225388
 21
-42.8580658969945
 31
0.0
  0
LINE
  5
   701
  8
0
  6
CONTINUOUS
 62
   130
 10
148.484121793509
 20
-43.4308266111752
 30
0.0
 11
149.019877659176
 21
-43.2819714170346
 31
0.0
  0
LINE
  5
   702
  8
0
  6
CONTINUOUS
 62
   130
 10
149.777555804413
 20
-42.2236482372098
 30
0.0
 11
149.884121650458
 21
-41.4753027478794
 31
0.0
  0
LINE
  5
   703
  8
0
  6
CONTINUOUS
 62
   130
 10
149.47407225388
 20
-42.8580658969945
 30
0.0
 11
149.777555804413
 21
-42.2236482372095
 31
0.0
  0
LINE
  5
   704
  8
0
  6
CONTINUOUS
 62
   130
 10
149.884121650458
 20
-33.6419760641529
 30
0.0
 11
149.884121650458
 21
-31.9732651445729
 31
0.0
  0
LINE
  5
   705
  8
0
  6
CONTINUOUS
 62
   130
 10
149.884121650458
 20
-41.4753027478791
 30
0.0
 11
149.884121650458
 21
-40.704294525879
 31
0.0
  0
LINE
  5
   706
  8
0
  6
CONTINUOUS
 62
   130
 10
149.884121650458
 20
-40.704294525879
 30
0.0
 11
149.884121650458
 21
-38.5089948386944
 31
0.0
  0
LINE
  5
   707
  8
0
  6
CONTINUOUS
 62
   130
 10
149.884121650458
 20
-36.0754867865676
 30
0.0
 11
149.884121650458
 21
-33.6419760641529
 31
0.0
  0
LINE
  5
   708
  8
0
  6
CONTINUOUS
 62
   130
 10
149.884121650458
 20
-38.5089948386944
 30
0.0
 11
149.884121650458
 21
-36.0754867865676
 31
0.0
  0
LINE
  5
   709
  8
0
  6
CONTINUOUS
 62
   130
 10
144.459122204781
 20
-30.1723055507619
 30
0.0
 11
148.484121793509
 21
-30.1723055507619
 31
0.0
  0
LINE
  5
   70A
  8
0
  6
CONTINUOUS
 62
   130
 10
144.459122204781
 20
-43.4308266111752
 30
0.0
 11
148.484121793509
 21
-43.4308266111752
 31
0.0
  0
LINE
  5
   70B
  8
0
  6
CONTINUOUS
 62
   130
 10
144.459122204781
 20
-43.4308266111752
 30
0.0
 11
144.459122204781
 21
-41.5271944509509
 31
0.0
  0
LINE
  5
   70C
  8
0
  6
CONTINUOUS
 62
   130
 10
144.459122204781
 20
-33.2093520544031
 30
0.0
 11
144.459122204781
 21
-30.6237764518964
 31
0.0
  0
LINE
  5
   70D
  8
0
  6
CONTINUOUS
 62
   130
 10
144.459122204781
 20
-41.5271944509509
 30
0.0
 11
144.459122204781
 21
-38.9416188484442
 31
0.0
  0
LINE
  5
   70E
  8
0
  6
CONTINUOUS
 62
   130
 10
144.459122204781
 20
-28.57185252826
 30
0.0
 11
144.459122204781
 21
-28.5343136221836
 31
0.0
  0
LINE
  5
   70F
  8
0
  6
CONTINUOUS
 62
   130
 10
144.459122204781
 20
-27.2544393327944
 30
0.0
 11
144.459122204781
 21
-27.2382253451933
 31
0.0
  0
LINE
  5
   710
  8
0
  6
CONTINUOUS
 62
   130
 10
144.459122204781
 20
-27.2908620585649
 30
0.0
 11
144.459122204781
 21
-27.2544393327944
 31
0.0
  0
LINE
  5
   711
  8
0
  6
CONTINUOUS
 62
   130
 10
144.459122204781
 20
-30.6237764518964
 30
0.0
 11
144.459122204781
 21
-30.1723055507618
 31
0.0
  0
LINE
  5
   712
  8
0
  6
CONTINUOUS
 62
   130
 10
144.459122204781
 20
-28.6457874572288
 30
0.0
 11
144.459122204781
 21
-28.57185252826
 31
0.0
  0
LINE
  5
   713
  8
0
  6
CONTINUOUS
 62
   130
 10
144.459122204781
 20
-38.9416188484442
 30
0.0
 11
144.459122204781
 21
-36.0754867865676
 31
0.0
  0
LINE
  5
   714
  8
0
  6
CONTINUOUS
 62
   130
 10
144.459122204781
 20
-36.0754867865676
 30
0.0
 11
144.459122204781
 21
-33.2093520544031
 31
0.0
  0
LINE
  5
   715
  8
0
  6
CONTINUOUS
 62
    52
 10
144.109122240544
 20
-45.1754911973107
 30
0.0
 11
144.459122204781
 21
-45.1754911973107
 31
0.0
  0
LINE
  5
   716
  8
0
  6
CONTINUOUS
 62
    52
 10
144.109122240544
 20
-26.9754850461122
 30
0.0
 11
144.459122204781
 21
-26.9754850461122
 31
0.0
  0
LINE
  5
   717
  8
0
  6
CONTINUOUS
 62
    52
 10
139.734122687579
 20
-45.3504911794294
 30
0.0
 11
144.109122240544
 21
-45.3504911794294
 31
0.0
  0
LINE
  5
   718
  8
0
  6
CONTINUOUS
 62
    52
 10
139.734122687579
 20
-26.8004850639936
 30
0.0
 11
144.109122240544
 21
-26.8004850639936
 31
0.0
  0
LINE
  5
   719
  8
0
  6
CONTINUOUS
 62
    52
 10
144.459122204781
 20
-36.0754894568554
 30
0.0
 11
144.459122204781
 21
-34.3001672963378
 31
0.0
  0
LINE
  5
   71A
  8
0
  6
CONTINUOUS
 62
    52
 10
144.459122204781
 20
-42.5101621086906
 30
0.0
 11
144.459122204781
 21
-41.1311800871185
 31
0.0
  0
LINE
  5
   71B
  8
0
  6
CONTINUOUS
 62
    52
 10
144.459122204781
 20
-27.1503408326889
 30
0.0
 11
144.459122204781
 21
-26.9754850461122
 31
0.0
  0
LINE
  5
   71C
  8
0
  6
CONTINUOUS
 62
    52
 10
144.459122204781
 20
-41.1311800871185
 30
0.0
 11
144.459122204781
 21
-39.5579105945539
 31
0.0
  0
LINE
  5
   71D
  8
0
  6
CONTINUOUS
 62
    52
 10
144.459122204781
 20
-27.6681844077057
 30
0.0
 11
144.459122204781
 21
-27.1503408326889
 31
0.0
  0
LINE
  5
   71E
  8
0
  6
CONTINUOUS
 62
    52
 10
144.459122204781
 20
-28.5091114458037
 30
0.0
 11
144.459122204781
 21
-27.6681844077057
 31
0.0
  0
LINE
  5
   71F
  8
0
  6
CONTINUOUS
 62
    52
 10
144.459122204781
 20
-29.6408168050202
 30
0.0
 11
144.459122204781
 21
-28.5091114458037
 31
0.0
  0
LINE
  5
   720
  8
0
  6
CONTINUOUS
 62
    52
 10
144.459122204781
 20
-43.6418647976193
 30
0.0
 11
144.459122204781
 21
-42.5101621086906
 31
0.0
  0
LINE
  5
   721
  8
0
  6
CONTINUOUS
 62
    52
 10
144.459122204781
 20
-37.850811617373
 30
0.0
 11
144.459122204781
 21
-36.0754894568554
 31
0.0
  0
LINE
  5
   722
  8
0
  6
CONTINUOUS
 62
    52
 10
144.459122204781
 20
-34.3001672963378
 30
0.0
 11
144.459122204781
 21
-32.5930709894446
 31
0.0
  0
LINE
  5
   723
  8
0
  6
CONTINUOUS
 62
    52
 10
144.459122204781
 20
-32.5930709894446
 30
0.0
 11
144.459122204781
 21
-31.0198014968801
 31
0.0
  0
LINE
  5
   724
  8
0
  6
CONTINUOUS
 62
    52
 10
144.459122204781
 20
-44.4827945060051
 30
0.0
 11
144.459122204781
 21
-43.6418647976193
 31
0.0
  0
LINE
  5
   725
  8
0
  6
CONTINUOUS
 62
    52
 10
144.459122204781
 20
-39.5579105945539
 30
0.0
 11
144.459122204781
 21
-37.850811617373
 31
0.0
  0
LINE
  5
   726
  8
0
  6
CONTINUOUS
 62
    52
 10
144.459122204781
 20
-45.0006380810219
 30
0.0
 11
144.459122204781
 21
-44.4827945060051
 31
0.0
  0
LINE
  5
   727
  8
0
  6
CONTINUOUS
 62
    52
 10
144.459122204781
 20
-31.0198014968801
 30
0.0
 11
144.459122204781
 21
-29.6408168050202
 31
0.0
  0
LINE
  5
   728
  8
0
  6
CONTINUOUS
 62
    52
 10
144.459122204781
 20
-45.1754911973107
 30
0.0
 11
144.459122204781
 21
-45.0006380810219
 31
0.0
  0
LINE
  5
   729
  8
0
  6
CONTINUOUS
 62
    52
 10
144.109122240544
 20
-43.7873714508423
 30
0.0
 11
144.109122240544
 21
-42.6339059162369
 31
0.0
  0
LINE
  5
   72A
  8
0
  6
CONTINUOUS
 62
    52
 10
144.109122240544
 20
-42.6339059162369
 30
0.0
 11
144.109122240544
 21
-41.2284052663931
 31
0.0
  0
LINE
  5
   72B
  8
0
  6
CONTINUOUS
 62
    52
 10
144.109122240544
 20
-44.644475092512
 30
0.0
 11
144.109122240544
 21
-43.7873714508423
 31
0.0
  0
LINE
  5
   72C
  8
0
  6
CONTINUOUS
 62
    52
 10
144.109122240544
 20
-45.1722761707838
 30
0.0
 11
144.109122240544
 21
-44.644475092512
 31
0.0
  0
LINE
  5
   72D
  8
0
  6
CONTINUOUS
 62
    52
 10
144.109122240544
 20
-26.9787054132148
 30
0.0
 11
144.109122240544
 21
-26.8004850639936
 31
0.0
  0
LINE
  5
   72E
  8
0
  6
CONTINUOUS
 62
    52
 10
144.109122240544
 20
-41.2284052663931
 30
0.0
 11
144.109122240544
 21
-39.6248787426184
 31
0.0
  0
LINE
  5
   72F
  8
0
  6
CONTINUOUS
 62
    52
 10
144.109122240544
 20
-27.5065038211987
 30
0.0
 11
144.109122240544
 21
-26.9787054132148
 31
0.0
  0
LINE
  5
   730
  8
0
  6
CONTINUOUS
 62
    52
 10
144.109122240544
 20
-30.9225763176055
 30
0.0
 11
144.109122240544
 21
-29.517070327186
 31
0.0
  0
LINE
  5
   731
  8
0
  6
CONTINUOUS
 62
    52
 10
144.109122240544
 20
-29.517070327186
 30
0.0
 11
144.109122240544
 21
-28.3636074628685
 31
0.0
  0
LINE
  5
   732
  8
0
  6
CONTINUOUS
 62
    52
 10
144.109122240544
 20
-39.6248787426184
 30
0.0
 11
144.109122240544
 21
-37.8849539173511
 31
0.0
  0
LINE
  5
   733
  8
0
  6
CONTINUOUS
 62
    52
 10
144.109122240544
 20
-45.3504911794293
 30
0.0
 11
144.109122240544
 21
-45.1722761707838
 31
0.0
  0
LINE
  5
   734
  8
0
  6
CONTINUOUS
 62
    52
 10
144.109122240544
 20
-36.0754894568554
 30
0.0
 11
144.109122240544
 21
-34.2660276666475
 31
0.0
  0
LINE
  5
   735
  8
0
  6
CONTINUOUS
 62
    52
 10
144.109122240544
 20
-37.8849539173511
 30
0.0
 11
144.109122240544
 21
-36.0754894568554
 31
0.0
  0
LINE
  5
   736
  8
0
  6
CONTINUOUS
 62
    52
 10
144.109122240544
 20
-32.5261001710924
 30
0.0
 11
144.109122240544
 21
-30.9225763176055
 31
0.0
  0
LINE
  5
   737
  8
0
  6
CONTINUOUS
 62
    52
 10
144.109122240544
 20
-28.3636074628685
 30
0.0
 11
144.109122240544
 21
-27.5065038211987
 31
0.0
  0
LINE
  5
   738
  8
0
  6
CONTINUOUS
 62
    52
 10
144.109122240544
 20
-34.2660276666475
 30
0.0
 11
144.109122240544
 21
-32.5261001710924
 31
0.0
  0
LINE
  5
   739
  8
0
  6
CONTINUOUS
 62
    52
 10
139.734122687579
 20
-26.9787054132148
 30
0.0
 11
139.734122687579
 21
-26.8004850639936
 31
0.0
  0
LINE
  5
   73A
  8
0
  6
CONTINUOUS
 62
    52
 10
139.734122687579
 20
-28.3636074628685
 30
0.0
 11
139.734122687579
 21
-27.5065038211987
 31
0.0
  0
LINE
  5
   73B
  8
0
  6
CONTINUOUS
 62
    52
 10
139.734122687579
 20
-29.517070327186
 30
0.0
 11
139.734122687579
 21
-28.3636074628685
 31
0.0
  0
LINE
  5
   73C
  8
0
  6
CONTINUOUS
 62
    52
 10
139.734122687579
 20
-41.2284052663931
 30
0.0
 11
139.734122687579
 21
-39.5754837586519
 31
0.0
  0
LINE
  5
   73D
  8
0
  6
CONTINUOUS
 62
    52
 10
139.734122687579
 20
-32.5754844739076
 30
0.0
 11
139.734122687579
 21
-30.9225763176055
 31
0.0
  0
LINE
  5
   73E
  8
0
  6
CONTINUOUS
 62
    52
 10
139.734122687579
 20
-30.9225763176055
 30
0.0
 11
139.734122687579
 21
-29.517070327186
 31
0.0
  0
LINE
  5
   73F
  8
0
  6
CONTINUOUS
 62
    52
 10
139.734122687579
 20
-27.5065038211987
 30
0.0
 11
139.734122687579
 21
-26.9787054132148
 31
0.0
  0
LINE
  5
   740
  8
0
  6
CONTINUOUS
 62
    52
 10
139.734122687579
 20
-42.6339059162369
 30
0.0
 11
139.734122687579
 21
-41.2284052663931
 31
0.0
  0
LINE
  5
   741
  8
0
  6
CONTINUOUS
 62
    52
 10
139.734122687579
 20
-43.7873714508423
 30
0.0
 11
139.734122687579
 21
-42.6339059162369
 31
0.0
  0
LINE
  5
   742
  8
0
  6
CONTINUOUS
 62
    52
 10
139.734122687579
 20
-45.3504911794294
 30
0.0
 11
139.734122687579
 21
-45.1722761707838
 31
0.0
  0
LINE
  5
   743
  8
0
  6
CONTINUOUS
 62
    52
 10
139.734122687579
 20
-45.1722761707838
 30
0.0
 11
139.734122687579
 21
-44.644475092512
 31
0.0
  0
LINE
  5
   744
  8
0
  6
CONTINUOUS
 62
    52
 10
139.734122687579
 20
-44.644475092512
 30
0.0
 11
139.734122687579
 21
-43.7873714508423
 31
0.0
  0
ARC
  5
   745
  8
0
  6
DASHED
 62
     7
 10
154.784090887166
 20
-78.4254473182709
 30
0.0
 40
1.40004053637416
 50
270.169446925366
 51
360.0
  0
ARC
  5
   746
  8
0
  6
DASHED
 62
     7
 10
154.797862899613
 20
-28.1865395964134
 30
0.0
 40
1.38612265060848
 50
0.0
 51
90.5680284977809
  0
LINE
  5
   747
  8
0
  6
DASHED
 62
     7
 10
144.459122204781
 20
-26.9754850461122
 30
0.0
 11
144.459122204781
 21
-26.8004850639936
 31
0.0
  0
INSERT
  5
   748
  8
0
  6
CONTINUOUS
 62
   218
  2
*UDIM349
 10
0.0
 20
0.0
 30
0.0
  0
INSERT
  5
   749
  8
0
  6
CONTINUOUS
 62
   218
  2
*UDIM350
 10
0.0
 20
0.0
 30
0.0
  0
INSERT
  5
   74A
  8
0
  6
CONTINUOUS
 62
     7
  2
*UDIM351
 10
0.0
 20
0.0
 30
0.0
  0
INSERT
  5
   74B
  8
0
  6
CONTINUOUS
 62
   218
  2
*UDIM352
 10
0.0
 20
0.0
 30
0.0
  0
INSERT
  5
   74C
  8
0
  6
CONTINUOUS
 62
   218
  2
*UDIM353
 10
0.0
 20
0.0
 30
0.0
  0
INSERT
  5
   74D
  8
0
  6
CONTINUOUS
 62
     7
  2
*UDIM354
 10
0.0
 20
0.0
 30
0.0
  0
INSERT
  5
   74E
  8
0
  6
CONTINUOUS
 62
     7
  2
*UDIM355
 10
0.0
 20
0.0
 30
0.0
  0
INSERT
  5
   74F
  8
0
  6
CONTINUOUS
 62
     7
  2
*UDIM356
 10
0.0
 20
0.0
 30
0.0
  0
TEXT
  5
   750
  8
0
  6
CONTINUOUS
 62
     7
 10
166.498663803727
 20
-47.2591700067897
 30
0.0
 40
3.00000001532688
  1
X
 41
0.916666616797451
 72
     1
 11
167.598663750934
 21
-45.7591699991263
 31
0.0
 73
     2
  0
INSERT
  5
   751
  8
0
  6
CONTINUOUS
 62
     7
  2
*UDIM357
 10
0.0
 20
0.0
 30
0.0
  0
ENDSEC
  0
EOF
