  0
SECTION
  2
HEADER
  9
$ACADVER
  1
AC1009
  9
$INSBASE
 10
0.0
 20
0.0
 30
0.0
  9
$EXTMIN
 10
314.792725
 20
-199.251984
 30
1.000000E+20
  9
$EXTMAX
 10
695.094543
 20
55.599998
 30
-1.000000E+20
  9
$LIMMIN
 10
0.0
 20
0.0
  9
$LIMMAX
 10
12.0
 20
9.0
  9
$ORTHOMODE
 70
     0
  9
$REGENMODE
 70
     1
  9
$FILLMODE
 70
     1
  9
$QTEXTMODE
 70
     0
  9
$MIRRTEXT
 70
     1
  9
$DRAGMODE
 70
     2
  9
$LTSCALE
 40
15.0
  9
$OSMODE
 70
     0
  9
$ATTMODE
 70
     1
  9
$TEXTSIZE
 40
0.2
  9
$TRACEWID
 40
0.05
  9
$TEXTSTYLE
  7
STANDARD
  9
$CLAYER
  8
0
  9
$CELTYPE
  6
DASHED
  9
$CECOLOR
 62
   256
  9
$DIMSCALE
 40
1.0
  9
$DIMASZ
 40
0.18
  9
$DIMEXO
 40
0.0625
  9
$DIMDLI
 40
0.38
  9
$DIMRND
 40
0.0
  9
$DIMDLE
 40
0.0
  9
$DIMEXE
 40
0.18
  9
$DIMTP
 40
0.0
  9
$DIMTM
 40
0.0
  9
$DIMTXT
 40
0.18
  9
$DIMCEN
 40
0.09
  9
$DIMTSZ
 40
0.0
  9
$DIMTOL
 70
     0
  9
$DIMLIM
 70
     0
  9
$DIMTIH
 70
     1
  9
$DIMTOH
 70
     1
  9
$DIMSE1
 70
     0
  9
$DIMSE2
 70
     0
  9
$DIMTAD
 70
     0
  9
$DIMZIN
 70
     0
  9
$DIMBLK
  1

  9
$DIMASO
 70
     1
  9
$DIMSHO
 70
     1
  9
$DIMPOST
  1

  9
$DIMAPOST
  1

  9
$DIMALT
 70
     0
  9
$DIMALTD
 70
     2
  9
$DIMALTF
 40
25.4
  9
$DIMLFAC
 40
1.0
  9
$DIMTOFL
 70
     0
  9
$DIMTVP
 40
0.0
  9
$DIMTIX
 70
     0
  9
$DIMSOXD
 70
     0
  9
$DIMSAH
 70
     0
  9
$DIMBLK1
  1

  9
$DIMBLK2
  1

  9
$DIMSTYLE
  2
STANDARD
  9
$DIMCLRD
 70
     0
  9
$DIMCLRE
 70
     0
  9
$DIMCLRT
 70
     0
  9
$DIMTFAC
 40
1.0
  9
$DIMGAP
 40
0.09
  9
$LUNITS
 70
     2
  9
$LUPREC
 70
     4
  9
$AXISMODE
 70
     0
  9
$AXISUNIT
 10
0.0
 20
0.0
  9
$SKETCHINC
 40
0.1
  9
$FILLETRAD
 40
0.5
  9
$AUNITS
 70
     0
  9
$AUPREC
 70
     0
  9
$MENU
  1
acad
  9
$ELEVATION
 40
0.0
  9
$PELEVATION
 40
0.0
  9
$THICKNESS
 40
0.0
  9
$LIMCHECK
 70
     0
  9
$BLIPMODE
 70
     1
  9
$CHAMFERA
 40
0.0
  9
$CHAMFERB
 40
0.0
  9
$SKPOLY
 70
     0
  9
$TDCREATE
 40
0.000000000
  9
$TDUPDATE
 40
0.000000000
  9
$TDINDWG
 40
0.0000000000
  9
$TDUSRTIMER
 40
0.0000000000
  9
$USRTIMER
 70
     1
  9
$ANGBASE
 50
0.0
  9
$ANGDIR
 70
     0
  9
$PDMODE
 70
     0
  9
$PDSIZE
 40
0.0
  9
$PLINEWID
 40
0.0
  9
$COORDS
 70
     1
  9
$SPLFRAME
 70
     0
  9
$SPLINETYPE
 70
     6
  9
$SPLINESEGS
 70
     8
  9
$ATTDIA
 70
     0
  9
$ATTREQ
 70
     1
  9
$HANDLING
 70
     0
  9
$HANDSEED
  5
3
  9
$SURFTAB1
 70
     6
  9
$SURFTAB2
 70
     6
  9
$SURFTYPE
 70
     6
  9
$SURFU
 70
     6
  9
$SURFV
 70
     6
  9
$UCSNAME
  2

  9
$UCSORG
 10
0.0
 20
0.0
 30
0.0
  9
$UCSXDIR
 10
1.0
 20
0.0
 30
0.0
  9
$UCSYDIR
 10
0.0
 20
1.0
 30
0.0
  9
$PUCSNAME
  2

  9
$PUCSORG
 10
0.0
 20
0.0
 30
0.0
  9
$PUCSXDIR
 10
1.0
 20
0.0
 30
0.0
  9
$PUCSYDIR
 10
0.0
 20
1.0
 30
0.0
  9
$USERI1
 70
     0
  9
$USERI2
 70
     0
  9
$USERI3
 70
     0
  9
$USERI4
 70
     0
  9
$USERI5
 70
     0
  9
$USERR1
 40
0.0
  9
$USERR2
 40
0.0
  9
$USERR3
 40
0.0
  9
$USERR4
 40
0.0
  9
$USERR5
 40
0.0
  9
$WORLDVIEW
 70
     1
  9
$SHADEDGE
 70
     3
  9
$SHADEDIF
 70
    70
  9
$TILEMODE
 70
     1
  9
$MAXACTVP
 70
    16
  9
$PINSBASE
 10
0.0
 20
0.0
 30
0.0
  9
$PLIMCHECK
 70
     0
  9
$PEXTMIN
 10
1.000000E+20
 20
1.000000E+20
 30
1.000000E+20
  9
$PEXTMAX
 10
-1.000000E+20
 20
-1.000000E+20
 30
-1.000000E+20
  9
$PLIMMIN
 10
0.0
 20
0.0
  9
$PLIMMAX
 10
12.0
 20
9.0
  9
$UNITMODE
 70
     0
  9
$VISRETAIN
 70
     0
  9
$PLINEGEN
 70
     0
  9
$PSLTSCALE
 70
     1
  9
$TREEDEPTH
 70
  3020
  9
$DWGCODEPAGE
  3
iso8859-1
  0
ENDSEC
  0
SECTION
  2
TABLES
  0
TABLE
  2
VPORT
 70
     1
  0
VPORT
  2
*ACTIVE
 70
     0
 10
0.0
 20
0.0
 11
1.0
 21
1.0
 12
6.801242
 22
4.5
 13
0.0
 23
0.0
 14
1.0
 24
1.0
 15
0.0
 25
0.0
 16
0.0
 26
0.0
 36
1.0
 17
0.0
 27
0.0
 37
0.0
 40
9.0
 41
1.511387
 42
50.0
 43
0.0
 44
0.0
 50
0.0
 51
0.0
 71
     0
 72
   100
 73
     1
 74
     1
 75
     0
 76
     0
 77
     0
 78
     0
  0
ENDTAB
  0
TABLE
  2
LTYPE
 70
    39
  0
LTYPE
  2
CONTINUOUS
 70
     0
  3
Solid line
 72
    65
 73
     0
 40
0.0
  0
LTYPE
  2
BORDER
 70
    64
  3
__ __ . __ __ . __ __ . __ __ . __ __ . __ __ .
 72
    65
 73
     6
 40
1.75
 49
0.5
 49
-0.25
 49
0.5
 49
-0.25
 49
0.0
 49
-0.25
  0
LTYPE
  2
BORDER2
 70
    64
  3
__.__.__.__.__.__.__.__.__.__.__.__.__.__.__.__
 72
    65
 73
     6
 40
0.875
 49
0.25
 49
-0.125
 49
0.25
 49
-0.125
 49
0.0
 49
-0.125
  0
LTYPE
  2
BORDERX2
 70
    64
  3
____  ____  .  ____  ____  .  ____  ____  .  __
 72
    65
 73
     6
 40
3.5
 49
1.0
 49
-0.5
 49
1.0
 49
-0.5
 49
0.0
 49
-0.5
  0
LTYPE
  2
CENTER
 70
    64
  3
____ _ ____ _ ____ _ ____ _ ____ _ ____ _ ____
 72
    65
 73
     4
 40
2.0
 49
1.25
 49
-0.25
 49
0.25
 49
-0.25
  0
LTYPE
  2
CENTER2
 70
    64
  3
___ _ ___ _ ___ _ ___ _ ___ _ ___ _ ___ _ ___ _
 72
    65
 73
     4
 40
1.125
 49
0.75
 49
-0.125
 49
0.125
 49
-0.125
  0
LTYPE
  2
CENTERX2
 70
    64
  3
________  __  ________  __  ________  __  _____
 72
    65
 73
     4
 40
4.0
 49
2.5
 49
-0.5
 49
0.5
 49
-0.5
  0
LTYPE
  2
DASHDOT
 70
    64
  3
__ . __ . __ . __ . __ . __ . __ . __ . __ . __
 72
    65
 73
     4
 40
1.0
 49
0.5
 49
-0.25
 49
0.0
 49
-0.25
  0
LTYPE
  2
DASHDOT2
 70
    64
  3
_._._._._._._._._._._._._._._._._._._._._._._._
 72
    65
 73
     4
 40
0.5
 49
0.25
 49
-0.125
 49
0.0
 49
-0.125
  0
LTYPE
  2
DASHDOTX2
 70
    64
  3
____  .  ____  .  ____  .  ____  .  ____  .  __
 72
    65
 73
     4
 40
2.0
 49
1.0
 49
-0.5
 49
0.0
 49
-0.5
  0
LTYPE
  2
DASHED
 70
    64
  3
__ __ __ __ __ __ __ __ __ __ __ __ __ __ __ __
 72
    65
 73
     2
 40
0.75
 49
0.5
 49
-0.25
  0
LTYPE
  2
DASHED2
 70
    64
  3
_ _ _ _ _ _ _ _ _ _ _ _ _ _ _ _ _ _ _ _ _ _ _ _
 72
    65
 73
     2
 40
0.375
 49
0.25
 49
-0.125
  0
LTYPE
  2
DASHEDX2
 70
    64
  3
____  ____  ____  ____  ____  ____  ____  ____
 72
    65
 73
     2
 40
1.5
 49
1.0
 49
-0.5
  0
LTYPE
  2
DIVIDE
 70
    64
  3
____ . . ____ . . ____ . . ____ . . ____ . . __
 72
    65
 73
     6
 40
1.25
 49
0.5
 49
-0.25
 49
0.0
 49
-0.25
 49
0.0
 49
-0.25
  0
LTYPE
  2
DIVIDE2
 70
    64
  3
__..__..__..__..__..__..__..__..__..__..__..__.
 72
    65
 73
     6
 40
0.625
 49
0.25
 49
-0.125
 49
0.0
 49
-0.125
 49
0.0
 49
-0.125
  0
LTYPE
  2
DIVIDEX2
 70
    64
  3
________  .  .  ________  .  .  ________  .  .
 72
    65
 73
     6
 40
2.5
 49
1.0
 49
-0.5
 49
0.0
 49
-0.5
 49
0.0
 49
-0.5
  0
LTYPE
  2
DOT
 70
    64
  3
. . . . . . . . . . . . . . . . . . . . . . . .
 72
    65
 73
     2
 40
0.25
 49
0.0
 49
-0.25
  0
LTYPE
  2
DOT2
 70
    64
  3
...............................................
 72
    65
 73
     2
 40
0.125
 49
0.0
 49
-0.125
  0
LTYPE
  2
DOTX2
 70
    64
  3
.  .  .  .  .  .  .  .  .  .  .  .  .  .  .  .
 72
    65
 73
     2
 40
0.5
 49
0.0
 49
-0.5
  0
LTYPE
  2
HIDDEN
 70
    64
  3
__ __ __ __ __ __ __ __ __ __ __ __ __ __ __ __
 72
    65
 73
     2
 40
0.375
 49
0.25
 49
-0.125
  0
LTYPE
  2
HIDDEN2
 70
    64
  3
_ _ _ _ _ _ _ _ _ _ _ _ _ _ _ _ _ _ _ _ _ _ _ _
 72
    65
 73
     2
 40
0.1875
 49
0.125
 49
-0.0625
  0
LTYPE
  2
HIDDENX2
 70
    64
  3
____ ____ ____ ____ ____ ____ ____ ____ ____ __
 72
    65
 73
     2
 40
0.75
 49
0.5
 49
-0.25
  0
LTYPE
  2
PHANTOM
 70
    64
  3
______  __  __  ______  __  __  ______  __  __
 72
    65
 73
     6
 40
2.5
 49
1.25
 49
-0.25
 49
0.25
 49
-0.25
 49
0.25
 49
-0.25
  0
LTYPE
  2
PHANTOM2
 70
    64
  3
___ _ _ ___ _ _ ___ _ _ ___ _ _ ___ _ _ ___ _ _
 72
    65
 73
     6
 40
1.25
 49
0.625
 49
-0.125
 49
0.125
 49
-0.125
 49
0.125
 49
-0.125
  0
LTYPE
  2
PHANTOMX2
 70
    64
  3
____________    ____    ____    ____________
 72
    65
 73
     6
 40
5.0
 49
2.5
 49
-0.5
 49
0.5
 49
-0.5
 49
0.5
 49
-0.5
  0
LTYPE
  2
ACAD_ISO02W100
 70
    64
  3
__ __ __ __ __ __ __ __ __ __ __ __ __ __ __ __
 72
    65
 73
     2
 40
15.0
 49
12.0
 49
-3.0
  0
LTYPE
  2
ACAD_ISO03W100
 70
    64
  3
__    __    __    __    __    __    __    __
 72
    65
 73
     2
 40
30.0
 49
12.0
 49
-18.0
  0
LTYPE
  2
ACAD_ISO04W100
 70
    64
  3
____ . ____ . ____ . ____ . ____ . ____ . ____
 72
    65
 73
     4
 40
30.5
 49
24.0
 49
-3.0
 49
0.5
 49
-3.0
  0
LTYPE
  2
ACAD_ISO05W100
 70
    64
  3
____ .. ____ .. ____ .. ____ .. ____ .. ____ ..
 72
    65
 73
     6
 40
34.0
 49
24.0
 49
-3.0
 49
0.5
 49
-3.0
 49
0.5
 49
-3.0
  0
LTYPE
  2
ACAD_ISO06W100
 70
    64
  3
____ ... ____ ... ____ ... ____ ... ____ ... __
 72
    65
 73
     8
 40
37.5
 49
24.0
 49
-3.0
 49
0.5
 49
-3.0
 49
0.5
 49
-3.0
 49
0.5
 49
-3.0
  0
LTYPE
  2
ACAD_ISO07W100
 70
    64
  3
. . . . . . . . . . . . . . . . . . . . . . . .
 72
    65
 73
     2
 40
3.5
 49
0.5
 49
-3.0
  0
LTYPE
  2
ACAD_ISO08W100
 70
    64
  3
____ __ ____ __ ____ __ ____ ____ __ __ ____ __
 72
    65
 73
     4
 40
36.0
 49
24.0
 49
-3.0
 49
6.0
 49
-3.0
  0
LTYPE
  2
ACAD_ISO09W100
 70
    64
  3
____ __ __ ____ __ __ ____ __ __ ____ __ __ ___
 72
    65
 73
     6
 40
45.0
 49
24.0
 49
-3.0
 49
6.0
 49
-3.0
 49
6.0
 49
-3.0
  0
LTYPE
  2
ACAD_ISO10W100
 70
    64
  3
__ . __ . __ . __ . __ . __ . __ . __ . __ . __
 72
    65
 73
     4
 40
18.5
 49
12.0
 49
-3.0
 49
0.5
 49
-3.0
  0
LTYPE
  2
ACAD_ISO11W100
 70
    64
  3
__ __ . __ __ . __ __ . __ __ . __ __ . __ __ .
 72
    65
 73
     6
 40
33.5
 49
12.0
 49
-3.0
 49
12.0
 49
-3.0
 49
0.5
 49
-3.0
  0
LTYPE
  2
ACAD_ISO12W100
 70
    64
  3
__ . . __ . . __ . . __ . . __ . . __ . . __ .
 72
    65
 73
     6
 40
22.0
 49
12.0
 49
-3.0
 49
0.5
 49
-3.0
 49
0.5
 49
-3.0
  0
LTYPE
  2
ACAD_ISO13W100
 70
    64
  3
__ __ . . __ __ . . __ __ . . __ __ . . __ __ .
 72
    65
 73
     8
 40
37.0
 49
12.0
 49
-3.0
 49
12.0
 49
-3.0
 49
0.5
 49
-3.0
 49
0.5
 49
-3.0
  0
LTYPE
  2
ACAD_ISO14W100
 70
    64
  3
__ . . . __ . . . __ . . . __ . . . __ . . . __
 72
    65
 73
     8
 40
25.5
 49
12.0
 49
-3.0
 49
0.5
 49
-3.0
 49
0.5
 49
-3.0
 49
0.5
 49
-3.0
  0
LTYPE
  2
ACAD_ISO15W100
 70
    64
  3
__ __ . . . __ __ . . . __ __ . . . __ __ . . .
 72
    65
 73
    10
 40
40.5
 49
12.0
 49
-3.0
 49
12.0
 49
-3.0
 49
0.5
 49
-3.0
 49
0.5
 49
-3.0
 49
0.5
 49
-3.0
  0
ENDTAB
  0
TABLE
  2
LAYER
 70
     1
  0
LAYER
  2
0
 70
     0
 62
     7
  6
CONTINUOUS
  0
ENDTAB
  0
TABLE
  2
STYLE
 70
     4
  0
STYLE
  2
STANDARD
 70
    64
 40
0.0
 41
1.0
 50
0.0
 71
     0
 42
0.2
  3
txt
  4

  0
STYLE
  2
TOLERANCE
 70
    64
 40
0.0
 41
1.0
 50
0.0
 71
     0
 42
0.2
  3
iges1003.shx
  4

  0
STYLE
  2
ROMANS
 70
    64
 40
0.0
 41
1.0
 50
0.0
 71
     0
 42
0.2
  3
romans.shx
  4

  0
STYLE
  2
ROMANC
 70
    64
 40
0.0
 41
1.0
 50
0.0
 71
     0
 42
0.2
  3
romanc.shx
  4

  0
ENDTAB
  0
TABLE
  2
VIEW
 70
     0
  0
ENDTAB
  0
TABLE
  2
UCS
 70
     0
  0
ENDTAB
  0
TABLE
  2
APPID
 70
     1
  0
APPID
  2
ACAD
 70
     0
  0
ENDTAB
  0
TABLE
  2
DIMSTYLE
 70
     2
  0
DIMSTYLE
  2
STANDARD
 70
     0
  3

  4

  5

  6

  7

 40
1.0
 41
0.18
 42
0.0625
 43
0.38
 44
0.18
 45
0.0
 46
0.0
 47
0.0
 48
0.0
 71
     0
 72
     0
 73
     1
 74
     1
 75
     0
 76
     0
 77
     0
 78
     0
140
0.18
141
0.09
142
0.0
143
25.4
144
1.0
145
0.0
146
1.0
147
0.09
170
     0
171
     2
172
     0
173
     0
174
     0
175
     0
176
     0
177
     0
178
     0
  0
DIMSTYLE
  2
UNNAMED
 70
     0
  3

  4

  5

  6

  7

 40
1.0
 41
0.18
 42
0.0625
 43
0.38
 44
0.18
 45
0.0
 46
0.0
 47
0.0
 48
0.0
 71
     0
 72
     0
 73
     1
 74
     1
 75
     0
 76
     0
 77
     0
 78
     0
140
0.18
141
0.09
142
0.0
143
25.4
144
1.0
145
0.0
146
1.0
147
0.09
170
     0
171
     2
172
     0
173
     0
174
     0
175
     0
176
     0
177
     0
178
     0
  0
ENDTAB
  0
ENDSEC
  0
SECTION
  2
BLOCKS
  0
BLOCK
  8
0
  6
CONTINUOUS
 62
     7
  2
*U0
 70
    65
 10
0.0
 20
0.0
 30
0.0
  3
*U0
  0
LINE
  8
0
  6
CONTINUOUS
 62
     7
 10
337.137893
 20
46.959999
 30
0.0
 11
329.468469
 21
46.959999
 31
0.0
  0
LINE
  8
0
  6
CONTINUOUS
 62
     7
 10
337.137875
 20
-26.799999
 30
0.0
 11
329.468469
 21
-26.799999
 31
0.0
  0
LINE
  8
0
  6
CONTINUOUS
 62
     7
 10
331.468469
 20
46.959999
 30
0.0
 11
331.468469
 21
-26.799999
 31
0.0
  0
LINE
  8
0
  6
CONTINUOUS
 62
     7
 10
331.989413
 20
44.005576
 30
0.0
 11
331.468469
 21
46.959999
 31
0.0
  0
LINE
  8
0
  6
CONTINUOUS
 62
     7
 10
331.468469
 20
46.959999
 30
0.0
 11
330.947524
 21
44.005576
 31
0.0
  0
LINE
  8
0
  6
CONTINUOUS
 62
     7
 10
330.947524
 20
-23.845576
 30
0.0
 11
331.468469
 21
-26.799999
 31
0.0
  0
LINE
  8
0
  6
CONTINUOUS
 62
     7
 10
331.468469
 20
-26.799999
 30
0.0
 11
331.989413
 21
-23.845576
 31
0.0
  0
TEXT
  8
0
  6
CONTINUOUS
 62
     7
 10
330.468469
 20
7.333333
 30
0.0
 40
2.0
  1
461
 50
450.0
 41
0.933333
 72
     1
 11
329.468469
 21
9.933333
 31
0.0
 73
     2
  0
ENDBLK
  8
0
  0
BLOCK
  8
0
  6
CONTINUOUS
 62
     7
  2
*U1
 70
    65
 10
0.0
 20
0.0
 30
0.0
  3
*U1
  0
LINE
  8
0
  6
CONTINUOUS
 62
     7
 10
336.137893
 20
-26.264755
 30
0.0
 11
336.137893
 21
-38.285729
 31
0.0
  0
LINE
  8
0
  6
CONTINUOUS
 62
     7
 10
506.057889
 20
-25.864758
 30
0.0
 11
506.057889
 21
-38.285729
 31
0.0
  0
LINE
  8
0
  6
CONTINUOUS
 62
     7
 10
336.137893
 20
-36.285729
 30
0.0
 11
506.057889
 21
-36.285729
 31
0.0
  0
LINE
  8
0
  6
CONTINUOUS
 62
     7
 10
339.092316
 20
-35.764785
 30
0.0
 11
336.137893
 21
-36.285729
 31
0.0
  0
LINE
  8
0
  6
CONTINUOUS
 62
     7
 10
336.137893
 20
-36.285729
 30
0.0
 11
339.092316
 21
-36.806674
 31
0.0
  0
LINE
  8
0
  6
CONTINUOUS
 62
     7
 10
503.103466
 20
-36.806674
 30
0.0
 11
506.057889
 21
-36.285729
 31
0.0
  0
LINE
  8
0
  6
CONTINUOUS
 62
     7
 10
506.057889
 20
-36.285729
 30
0.0
 11
503.103466
 21
-35.764785
 31
0.0
  0
TEXT
  8
0
  6
CONTINUOUS
 62
     7
 10
417.417891
 20
-35.285729
 30
0.0
 40
2.0
  1
1062
 50
360.0
 41
0.933333
 72
     1
 11
420.951225
 21
-34.285729
 31
0.0
 73
     2
  0
ENDBLK
  8
0
  0
BLOCK
  8
0
  6
CONTINUOUS
 62
     7
  2
*H2
 70
    65
 10
0.0
 20
0.0
 30
0.0
  3
*H2
  0
LINE
  8
0
  6
CONTINUOUS
 62
     3
 10
511.346454
 20
-98.357529
 30
0.0
 11
510.866454
 21
-97.877529
 31
0.0
  0
LINE
  8
0
  6
CONTINUOUS
 62
     3
 10
510.328212
 20
-98.357529
 30
0.0
 11
509.848212
 21
-97.877529
 31
0.0
  0
LINE
  8
0
  6
CONTINUOUS
 62
     3
 10
509.309969
 20
-98.357529
 30
0.0
 11
508.829969
 21
-97.877529
 31
0.0
  0
LINE
  8
0
  6
CONTINUOUS
 62
     3
 10
508.291727
 20
-98.357529
 30
0.0
 11
507.811727
 21
-97.877529
 31
0.0
  0
LINE
  8
0
  6
CONTINUOUS
 62
     3
 10
507.273485
 20
-98.357529
 30
0.0
 11
506.793485
 21
-97.877529
 31
0.0
  0
ENDBLK
  8
0
  0
BLOCK
  8
0
  6
CONTINUOUS
 62
     7
  2
*H3
 70
    65
 10
0.0
 20
0.0
 30
0.0
  3
*H3
  0
LINE
  8
0
  6
CONTINUOUS
 62
     3
 10
335.361829
 20
-98.357529
 30
0.0
 11
334.881829
 21
-97.877529
 31
0.0
  0
LINE
  8
0
  6
CONTINUOUS
 62
     3
 10
334.343587
 20
-98.357529
 30
0.0
 11
333.863587
 21
-97.877529
 31
0.0
  0
LINE
  8
0
  6
CONTINUOUS
 62
     3
 10
333.325344
 20
-98.357529
 30
0.0
 11
332.845344
 21
-97.877529
 31
0.0
  0
LINE
  8
0
  6
CONTINUOUS
 62
     3
 10
332.307102
 20
-98.357529
 30
0.0
 11
331.827102
 21
-97.877529
 31
0.0
  0
LINE
  8
0
  6
CONTINUOUS
 62
     3
 10
331.28886
 20
-98.357529
 30
0.0
 11
330.80886
 21
-97.877529
 31
0.0
  0
ENDBLK
  8
0
  0
BLOCK
  8
0
  6
CONTINUOUS
 62
     7
  2
*U4
 70
    65
 10
0.0
 20
0.0
 30
0.0
  3
*U4
  0
LINE
  8
0
  6
CONTINUOUS
 62
     7
 10
431.177891
 20
-166.364507
 30
0.0
 11
421.097891
 21
-166.364507
 31
0.0
  0
LINE
  8
0
  6
CONTINUOUS
 62
     7
 10
428.223468
 20
-166.885452
 30
0.0
 11
431.177891
 21
-166.364507
 31
0.0
  0
LINE
  8
0
  6
CONTINUOUS
 62
     7
 10
431.177891
 20
-166.364507
 30
0.0
 11
428.223468
 21
-165.843563
 31
0.0
  0
LINE
  8
0
  6
CONTINUOUS
 62
     7
 10
424.052315
 20
-165.843563
 30
0.0
 11
421.097891
 21
-166.364507
 31
0.0
  0
LINE
  8
0
  6
CONTINUOUS
 62
     7
 10
421.097891
 20
-166.364507
 30
0.0
 11
424.052315
 21
-166.885452
 31
0.0
  0
TEXT
  8
0
  6
CONTINUOUS
 62
     7
 10
424.324558
 20
-165.364507
 30
0.0
 40
2.0
  1
63
 50
360.0
 41
0.933333
 72
     1
 11
425.991225
 21
-164.364507
 31
0.0
 73
     2
  0
ENDBLK
  8
0
  0
BLOCK
  8
0
  6
CONTINUOUS
 62
     7
  2
*U5
 70
    65
 10
0.0
 20
0.0
 30
0.0
  3
*U5
  0
LINE
  8
0
  6
CONTINUOUS
 62
     7
 10
456.937892
 20
-90.765516
 30
0.0
 11
456.937892
 21
-76.000458
 31
0.0
  0
LINE
  8
0
  6
CONTINUOUS
 62
     7
 10
451.337882
 20
-90.765516
 30
0.0
 11
451.337882
 21
-76.000458
 31
0.0
  0
LINE
  8
0
  6
CONTINUOUS
 62
     7
 10
456.937892
 20
-78.000458
 30
0.0
 11
451.337882
 21
-78.000458
 31
0.0
  0
LINE
  8
0
  6
CONTINUOUS
 62
     7
 10
453.983469
 20
-78.521402
 30
0.0
 11
456.937892
 21
-78.000458
 31
0.0
  0
LINE
  8
0
  6
CONTINUOUS
 62
     7
 10
456.937892
 20
-78.000458
 30
0.0
 11
453.983469
 21
-77.479513
 31
0.0
  0
LINE
  8
0
  6
CONTINUOUS
 62
     7
 10
454.292305
 20
-77.479513
 30
0.0
 11
451.337882
 21
-78.000458
 31
0.0
  0
LINE
  8
0
  6
CONTINUOUS
 62
     7
 10
451.337882
 20
-78.000458
 30
0.0
 11
454.292305
 21
-78.521402
 31
0.0
  0
TEXT
  8
0
  6
CONTINUOUS
 62
     7
 10
452.472963
 20
-77.000458
 30
0.0
 40
2.0
  1
35
 50
360.0
 41
0.933333
 72
     1
 11
454.139629
 21
-76.000458
 31
0.0
 73
     2
  0
ENDBLK
  8
0
  0
BLOCK
  8
0
  6
CONTINUOUS
 62
     7
  2
*U6
 70
    65
 10
0.0
 20
0.0
 30
0.0
  3
*U6
  0
LINE
  8
0
  6
CONTINUOUS
 62
     7
 10
445.737882
 20
-90.765516
 30
0.0
 11
445.737882
 21
-76.000458
 31
0.0
  0
LINE
  8
0
  6
CONTINUOUS
 62
     7
 10
451.337882
 20
-78.000458
 30
0.0
 11
445.737882
 21
-78.000458
 31
0.0
  0
LINE
  8
0
  6
CONTINUOUS
 62
     7
 10
454.292305
 20
-77.479513
 30
0.0
 11
451.337882
 21
-78.000458
 31
0.0
  0
LINE
  8
0
  6
CONTINUOUS
 62
     7
 10
451.337882
 20
-78.000458
 30
0.0
 11
454.292305
 21
-78.521402
 31
0.0
  0
LINE
  8
0
  6
CONTINUOUS
 62
     7
 10
442.783459
 20
-78.521402
 30
0.0
 11
445.737882
 21
-78.000458
 31
0.0
  0
LINE
  8
0
  6
CONTINUOUS
 62
     7
 10
445.737882
 20
-78.000458
 30
0.0
 11
442.783459
 21
-77.479513
 31
0.0
  0
TEXT
  8
0
  6
CONTINUOUS
 62
     7
 10
446.760526
 20
-77.000458
 30
0.0
 40
2.0
  1
35
 50
360.0
 41
0.933333
 72
     1
 11
448.427193
 21
-76.000458
 31
0.0
 73
     2
  0
ENDBLK
  8
0
  0
BLOCK
  8
0
  6
CONTINUOUS
 62
     7
  2
*U7
 70
    65
 10
0.0
 20
0.0
 30
0.0
  3
*U7
  0
LINE
  8
0
  6
CONTINUOUS
 62
     7
 10
436.777889
 20
-90.765517
 30
0.0
 11
436.777889
 21
-76.000458
 31
0.0
  0
LINE
  8
0
  6
CONTINUOUS
 62
     7
 10
445.737882
 20
-78.000458
 30
0.0
 11
436.777889
 21
-78.000458
 31
0.0
  0
LINE
  8
0
  6
CONTINUOUS
 62
     7
 10
442.783459
 20
-78.521402
 30
0.0
 11
445.737882
 21
-78.000458
 31
0.0
  0
LINE
  8
0
  6
CONTINUOUS
 62
     7
 10
445.737882
 20
-78.000458
 30
0.0
 11
442.783459
 21
-77.479513
 31
0.0
  0
LINE
  8
0
  6
CONTINUOUS
 62
     7
 10
439.732312
 20
-77.479513
 30
0.0
 11
436.777889
 21
-78.000458
 31
0.0
  0
LINE
  8
0
  6
CONTINUOUS
 62
     7
 10
436.777889
 20
-78.000458
 30
0.0
 11
439.732312
 21
-78.521402
 31
0.0
  0
TEXT
  8
0
  6
CONTINUOUS
 62
     7
 10
439.444552
 20
-77.000458
 30
0.0
 40
2.0
  1
56
 50
360.0
 41
0.933333
 72
     1
 11
441.111218
 21
-76.000458
 31
0.0
 73
     2
  0
ENDBLK
  8
0
  0
BLOCK
  8
0
  6
CONTINUOUS
 62
     7
  2
*U8
 70
    65
 10
0.0
 20
0.0
 30
0.0
  3
*U8
  0
LINE
  8
0
  6
CONTINUOUS
 62
     7
 10
431.177889
 20
-90.765516
 30
0.0
 11
431.177889
 21
-76.000458
 31
0.0
  0
LINE
  8
0
  6
CONTINUOUS
 62
     7
 10
436.777889
 20
-78.000458
 30
0.0
 11
431.177889
 21
-78.000458
 31
0.0
  0
LINE
  8
0
  6
CONTINUOUS
 62
     7
 10
439.732312
 20
-77.479513
 30
0.0
 11
436.777889
 21
-78.000458
 31
0.0
  0
LINE
  8
0
  6
CONTINUOUS
 62
     7
 10
436.777889
 20
-78.000458
 30
0.0
 11
439.732312
 21
-78.521402
 31
0.0
  0
LINE
  8
0
  6
CONTINUOUS
 62
     7
 10
428.223466
 20
-78.521402
 30
0.0
 11
431.177889
 21
-78.000458
 31
0.0
  0
LINE
  8
0
  6
CONTINUOUS
 62
     7
 10
431.177889
 20
-78.000458
 30
0.0
 11
428.223466
 21
-77.479513
 31
0.0
  0
TEXT
  8
0
  6
CONTINUOUS
 62
     7
 10
432.282455
 20
-77.000458
 30
0.0
 40
2.0
  1
35
 50
360.0
 41
0.933333
 72
     1
 11
433.949121
 21
-76.000458
 31
0.0
 73
     2
  0
ENDBLK
  8
0
  0
BLOCK
  8
0
  6
CONTINUOUS
 62
     7
  2
*U9
 70
    65
 10
0.0
 20
0.0
 30
0.0
  3
*U9
  0
LINE
  8
0
  6
CONTINUOUS
 62
     7
 10
425.577889
 20
-90.765516
 30
0.0
 11
425.577889
 21
-76.000458
 31
0.0
  0
LINE
  8
0
  6
CONTINUOUS
 62
     7
 10
431.177889
 20
-78.000458
 30
0.0
 11
425.577889
 21
-78.000458
 31
0.0
  0
LINE
  8
0
  6
CONTINUOUS
 62
     7
 10
428.223466
 20
-78.521402
 30
0.0
 11
431.177889
 21
-78.000458
 31
0.0
  0
LINE
  8
0
  6
CONTINUOUS
 62
     7
 10
431.177889
 20
-78.000458
 30
0.0
 11
428.223466
 21
-77.479513
 31
0.0
  0
LINE
  8
0
  6
CONTINUOUS
 62
     7
 10
428.532313
 20
-77.479513
 30
0.0
 11
425.577889
 21
-78.000458
 31
0.0
  0
LINE
  8
0
  6
CONTINUOUS
 62
     7
 10
425.577889
 20
-78.000458
 30
0.0
 11
428.532313
 21
-78.521402
 31
0.0
  0
TEXT
  8
0
  6
CONTINUOUS
 62
     7
 10
426.66851
 20
-77.000458
 30
0.0
 40
2.0
  1
35
 50
360.0
 41
0.933333
 72
     1
 11
428.335176
 21
-76.000458
 31
0.0
 73
     2
  0
ENDBLK
  8
0
  0
BLOCK
  8
0
  6
CONTINUOUS
 62
     7
  2
*U10
 70
    65
 10
0.0
 20
0.0
 30
0.0
  3
*U10
  0
LINE
  8
0
  6
CONTINUOUS
 62
     7
 10
418.697891
 20
-89.917529
 30
0.0
 11
418.697891
 21
-76.000458
 31
0.0
  0
LINE
  8
0
  6
CONTINUOUS
 62
     7
 10
383.177892
 20
-89.917529
 30
0.0
 11
383.177892
 21
-76.000458
 31
0.0
  0
LINE
  8
0
  6
CONTINUOUS
 62
     7
 10
418.697891
 20
-78.000458
 30
0.0
 11
383.177892
 21
-78.000458
 31
0.0
  0
LINE
  8
0
  6
CONTINUOUS
 62
     7
 10
415.743468
 20
-78.521402
 30
0.0
 11
418.697891
 21
-78.000458
 31
0.0
  0
LINE
  8
0
  6
CONTINUOUS
 62
     7
 10
418.697891
 20
-78.000458
 30
0.0
 11
415.743468
 21
-77.479513
 31
0.0
  0
LINE
  8
0
  6
CONTINUOUS
 62
     7
 10
386.132315
 20
-77.479513
 30
0.0
 11
383.177892
 21
-78.000458
 31
0.0
  0
LINE
  8
0
  6
CONTINUOUS
 62
     7
 10
383.177892
 20
-78.000458
 30
0.0
 11
386.132315
 21
-78.521402
 31
0.0
  0
TEXT
  8
0
  6
CONTINUOUS
 62
     7
 10
398.191225
 20
-77.000458
 30
0.0
 40
2.0
  1
222
 50
360.0
 41
0.933333
 72
     1
 11
400.791225
 21
-76.000458
 31
0.0
 73
     2
  0
ENDBLK
  8
0
  0
BLOCK
  8
0
  6
CONTINUOUS
 62
     7
  2
*U11
 70
    65
 10
0.0
 20
0.0
 30
0.0
  3
*U11
  0
LINE
  8
0
  6
CONTINUOUS
 62
     7
 10
329.377893
 20
-98.357529
 30
0.0
 11
325.989276
 21
-98.357529
 31
0.0
  0
LINE
  8
0
  6
CONTINUOUS
 62
     7
 10
329.377893
 20
-159.157528
 30
0.0
 11
325.989276
 21
-159.157528
 31
0.0
  0
LINE
  8
0
  6
CONTINUOUS
 62
     7
 10
327.989276
 20
-98.357529
 30
0.0
 11
327.989276
 21
-159.157528
 31
0.0
  0
LINE
  8
0
  6
CONTINUOUS
 62
     7
 10
328.510221
 20
-101.311952
 30
0.0
 11
327.989276
 21
-98.357529
 31
0.0
  0
LINE
  8
0
  6
CONTINUOUS
 62
     7
 10
327.989276
 20
-98.357529
 30
0.0
 11
327.468332
 21
-101.311952
 31
0.0
  0
LINE
  8
0
  6
CONTINUOUS
 62
     7
 10
327.468332
 20
-156.203104
 30
0.0
 11
327.989276
 21
-159.157528
 31
0.0
  0
LINE
  8
0
  6
CONTINUOUS
 62
     7
 10
327.989276
 20
-159.157528
 30
0.0
 11
328.510221
 21
-156.203104
 31
0.0
  0
TEXT
  8
0
  6
CONTINUOUS
 62
     7
 10
326.989276
 20
-131.504195
 30
0.0
 40
2.0
  1
380
 50
450.0
 41
0.933333
 72
     1
 11
325.989276
 21
-128.904195
 31
0.0
 73
     2
  0
ENDBLK
  8
0
  0
BLOCK
  8
0
  6
CONTINUOUS
 62
     7
  2
*U12
 70
    65
 10
0.0
 20
0.0
 30
0.0
  3
*U12
  0
LINE
  8
0
  6
CONTINUOUS
 62
     7
 10
506.297889
 20
-96.877529
 30
0.0
 11
506.297889
 21
-60.363287
 31
0.0
  0
LINE
  8
0
  6
CONTINUOUS
 62
     7
 10
335.897893
 20
-96.877529
 30
0.0
 11
335.897893
 21
-60.363287
 31
0.0
  0
LINE
  8
0
  6
CONTINUOUS
 62
     7
 10
506.297889
 20
-62.363287
 30
0.0
 11
335.897893
 21
-62.363287
 31
0.0
  0
LINE
  8
0
  6
CONTINUOUS
 62
     7
 10
503.343466
 20
-62.884231
 30
0.0
 11
506.297889
 21
-62.363287
 31
0.0
  0
LINE
  8
0
  6
CONTINUOUS
 62
     7
 10
506.297889
 20
-62.363287
 30
0.0
 11
503.343466
 21
-61.842342
 31
0.0
  0
LINE
  8
0
  6
CONTINUOUS
 62
     7
 10
338.852316
 20
-61.842342
 30
0.0
 11
335.897893
 21
-62.363287
 31
0.0
  0
LINE
  8
0
  6
CONTINUOUS
 62
     7
 10
335.897893
 20
-62.363287
 30
0.0
 11
338.852316
 21
-62.884231
 31
0.0
  0
TEXT
  8
0
  6
CONTINUOUS
 62
     7
 10
417.417891
 20
-61.363287
 30
0.0
 40
2.0
  1
1065
 50
360.0
 41
0.933333
 72
     1
 11
420.951225
 21
-60.363287
 31
0.0
 73
     2
  0
ENDBLK
  8
0
  0
BLOCK
  8
0
  6
CONTINUOUS
 62
     7
  2
*U13
 70
    65
 10
0.0
 20
0.0
 30
0.0
  3
*U13
  0
LINE
  8
0
  6
CONTINUOUS
 62
     7
 10
500.77789
 20
-108.248794
 30
0.0
 11
500.77789
 21
-110.789179
 31
0.0
  0
LINE
  8
0
  6
CONTINUOUS
 62
     7
 10
341.417893
 20
-108.063171
 30
0.0
 11
341.417893
 21
-110.789179
 31
0.0
  0
LINE
  8
0
  6
CONTINUOUS
 62
     7
 10
500.77789
 20
-108.789179
 30
0.0
 11
341.417893
 21
-108.789179
 31
0.0
  0
LINE
  8
0
  6
CONTINUOUS
 62
     7
 10
497.823466
 20
-109.310124
 30
0.0
 11
500.77789
 21
-108.789179
 31
0.0
  0
LINE
  8
0
  6
CONTINUOUS
 62
     7
 10
500.77789
 20
-108.789179
 30
0.0
 11
497.823466
 21
-108.268235
 31
0.0
  0
LINE
  8
0
  6
CONTINUOUS
 62
     7
 10
344.372316
 20
-108.268235
 30
0.0
 11
341.417893
 21
-108.789179
 31
0.0
  0
LINE
  8
0
  6
CONTINUOUS
 62
     7
 10
341.417893
 20
-108.789179
 30
0.0
 11
344.372316
 21
-109.310124
 31
0.0
  0
TEXT
  8
0
  6
CONTINUOUS
 62
     7
 10
418.351225
 20
-107.789179
 30
0.0
 40
2.0
  1
996
 50
360.0
 41
0.933333
 72
     1
 11
420.951225
 21
-106.789179
 31
0.0
 73
     2
  0
ENDBLK
  8
0
  0
BLOCK
  8
0
  6
CONTINUOUS
 62
     7
  2
*U14
 70
    65
 10
0.0
 20
0.0
 30
0.0
  3
*U14
  0
LINE
  8
0
  6
CONTINUOUS
 62
     7
 10
490.37789
 20
-116.317534
 30
0.0
 11
490.37789
 21
-132.948886
 31
0.0
  0
LINE
  8
0
  6
CONTINUOUS
 62
     7
 10
351.817893
 20
-116.317534
 30
0.0
 11
351.817893
 21
-132.948886
 31
0.0
  0
LINE
  8
0
  6
CONTINUOUS
 62
     7
 10
490.37789
 20
-130.948886
 30
0.0
 11
351.817893
 21
-130.948886
 31
0.0
  0
LINE
  8
0
  6
CONTINUOUS
 62
     7
 10
487.423466
 20
-131.46983
 30
0.0
 11
490.37789
 21
-130.948886
 31
0.0
  0
LINE
  8
0
  6
CONTINUOUS
 62
     7
 10
490.37789
 20
-130.948886
 30
0.0
 11
487.423466
 21
-130.427941
 31
0.0
  0
LINE
  8
0
  6
CONTINUOUS
 62
     7
 10
354.772316
 20
-130.427941
 30
0.0
 11
351.817893
 21
-130.948886
 31
0.0
  0
LINE
  8
0
  6
CONTINUOUS
 62
     7
 10
351.817893
 20
-130.948886
 30
0.0
 11
354.772316
 21
-131.46983
 31
0.0
  0
TEXT
  8
0
  6
CONTINUOUS
 62
     7
 10
418.351225
 20
-129.948886
 30
0.0
 40
2.0
  1
866
 50
360.0
 41
0.933333
 72
     1
 11
420.951225
 21
-128.948886
 31
0.0
 73
     2
  0
ENDBLK
  8
0
  0
BLOCK
  8
0
  6
CONTINUOUS
 62
     7
  2
*U15
 70
    65
 10
0.0
 20
0.0
 30
0.0
  3
*U15
  0
LINE
  8
0
  6
CONTINUOUS
 62
     7
 10
357.18682
 20
-122.575357
 30
0.0
 11
351.429187
 21
-112.218314
 31
0.0
  0
LINE
  8
0
  6
CONTINUOUS
 62
     7
 10
354.097421
 20
-115.945871
 30
0.0
 11
352.206599
 21
-113.616753
 31
0.0
  0
LINE
  8
0
  6
CONTINUOUS
 62
     7
 10
352.206599
 20
-113.616753
 30
0.0
 11
353.186785
 21
-116.452107
 31
0.0
  0
LINE
  8
0
  6
CONTINUOUS
 62
     7
 10
349.538365
 20
-109.889196
 30
0.0
 11
351.429187
 21
-112.218314
 31
0.0
  0
LINE
  8
0
  6
CONTINUOUS
 62
     7
 10
351.429187
 20
-112.218314
 30
0.0
 11
350.449001
 21
-109.38296
 31
0.0
  0
TEXT
  8
0
  6
CONTINUOUS
 62
     7
 10
356.441234
 20
-119.176061
 30
0.0
 40
2.0
  1
10
 50
299.07033
 41
0.933333
 72
     1
 11
358.125063
 21
-120.146885
 31
0.0
 73
     2
  0
TEXT
  8
0
  6
CONTINUOUS
 62
     7
 10
355.42088
 20
-117.340611
 30
0.0
 40
2.0
  1
Ø
 50
299.07033
 41
0.933333
 72
     1
 11
356.651218
 21
-117.495679
 31
0.0
 73
     2
  0
ENDBLK
  8
0
  0
BLOCK
  8
0
  6
CONTINUOUS
 62
     7
  2
*U16
 70
    65
 10
0.0
 20
0.0
 30
0.0
  3
*U16
  0
LINE
  8
0
  6
CONTINUOUS
 62
     7
 10
510.165422
 20
-86.312398
 30
0.0
 11
496.343827
 21
-93.813589
 31
0.0
  0
LINE
  8
0
  6
CONTINUOUS
 62
     7
 10
500.520122
 20
-90.954331
 30
0.0
 11
498.171951
 21
-92.821438
 31
0.0
  0
LINE
  8
0
  6
CONTINUOUS
 62
     7
 10
498.171951
 20
-92.821438
 30
0.0
 11
501.017099
 21
-91.870053
 31
0.0
  0
LINE
  8
0
  6
CONTINUOUS
 62
     7
 10
493.995656
 20
-95.680697
 30
0.0
 11
496.343827
 21
-93.813589
 31
0.0
  0
LINE
  8
0
  6
CONTINUOUS
 62
     7
 10
496.343827
 20
-93.813589
 30
0.0
 11
493.49868
 21
-94.764975
 31
0.0
  0
TEXT
  8
0
  6
CONTINUOUS
 62
     7
 10
506.758741
 20
-87.023478
 30
0.0
 40
2.0
  1
13
 50
388.489362
 41
0.933333
 72
     1
 11
507.746588
 21
-85.349579
 31
0.0
 73
     2
  0
TEXT
  8
0
  6
CONTINUOUS
 62
     7
 10
504.913039
 20
-88.025168
 30
0.0
 40
2.0
  1
Ø
 50
388.489362
 41
0.933333
 72
     1
 11
505.080574
 21
-86.796466
 31
0.0
 73
     2
  0
ENDBLK
  8
0
  0
BLOCK
  8
0
  6
CONTINUOUS
 62
     7
  2
*U17
 70
    65
 10
0.0
 20
0.0
 30
0.0
  3
*U17
  0
LINE
  8
0
  6
CONTINUOUS
 62
     7
 10
382.177892
 20
-90.917529
 30
0.0
 11
312.792721
 21
-90.917529
 31
0.0
  0
LINE
  8
0
  6
CONTINUOUS
 62
     7
 10
380.177892
 20
-96.197529
 30
0.0
 11
312.792721
 21
-96.197529
 31
0.0
  0
LINE
  8
0
  6
CONTINUOUS
 62
     7
 10
314.792721
 20
-85.530863
 30
0.0
 11
314.792721
 21
-96.197529
 31
0.0
  0
LINE
  8
0
  6
CONTINUOUS
 62
     7
 10
314.271777
 20
-87.963106
 30
0.0
 11
314.792721
 21
-90.917529
 31
0.0
  0
LINE
  8
0
  6
CONTINUOUS
 62
     7
 10
314.792721
 20
-90.917529
 30
0.0
 11
315.313666
 21
-87.963106
 31
0.0
  0
LINE
  8
0
  6
CONTINUOUS
 62
     7
 10
315.313666
 20
-99.151952
 30
0.0
 11
314.792721
 21
-96.197529
 31
0.0
  0
LINE
  8
0
  6
CONTINUOUS
 62
     7
 10
314.792721
 20
-96.197529
 30
0.0
 11
314.271777
 21
-99.151952
 31
0.0
  0
TEXT
  8
0
  6
CONTINUOUS
 62
     7
 10
313.792721
 20
-88.864196
 30
0.0
 40
2.0
  1
33
 50
450.0
 41
0.933333
 72
     1
 11
312.792721
 21
-87.197529
 31
0.0
 73
     2
  0
ENDBLK
  8
0
  0
BLOCK
  8
0
  6
CONTINUOUS
 62
     7
  2
*U18
 70
    65
 10
0.0
 20
0.0
 30
0.0
  3
*U18
  0
LINE
  8
0
  6
CONTINUOUS
 62
     7
 10
329.377893
 20
-159.157528
 30
0.0
 11
312.792721
 21
-159.157528
 31
0.0
  0
LINE
  8
0
  6
CONTINUOUS
 62
     7
 10
314.792721
 20
-96.197529
 30
0.0
 11
314.792721
 21
-159.157528
 31
0.0
  0
LINE
  8
0
  6
CONTINUOUS
 62
     7
 10
315.313666
 20
-99.151952
 30
0.0
 11
314.792721
 21
-96.197529
 31
0.0
  0
LINE
  8
0
  6
CONTINUOUS
 62
     7
 10
314.792721
 20
-96.197529
 30
0.0
 11
314.271777
 21
-99.151952
 31
0.0
  0
LINE
  8
0
  6
CONTINUOUS
 62
     7
 10
314.271777
 20
-156.203104
 30
0.0
 11
314.792721
 21
-159.157528
 31
0.0
  0
LINE
  8
0
  6
CONTINUOUS
 62
     7
 10
314.792721
 20
-159.157528
 30
0.0
 11
315.313666
 21
-156.203104
 31
0.0
  0
TEXT
  8
0
  6
CONTINUOUS
 62
     7
 10
313.792721
 20
-132.29086
 30
0.0
 40
2.0
  1
393,5
 50
450.0
 41
0.933333
 72
     1
 11
312.792721
 21
-127.824193
 31
0.0
 73
     2
  0
ENDBLK
  8
0
  0
BLOCK
  8
0
  6
CONTINUOUS
 62
     7
  2
*U19
 70
    65
 10
0.0
 20
0.0
 30
0.0
  3
*U19
  0
LINE
  8
0
  6
CONTINUOUS
 62
     7
 10
341.857893
 20
-90.917529
 30
0.0
 11
326.302386
 21
-90.917529
 31
0.0
  0
LINE
  8
0
  6
CONTINUOUS
 62
     7
 10
342.385888
 20
-93.31752
 30
0.0
 11
326.302386
 21
-93.31752
 31
0.0
  0
LINE
  8
0
  6
CONTINUOUS
 62
     7
 10
328.302386
 20
-87.01111
 30
0.0
 11
328.302386
 21
-93.31752
 31
0.0
  0
LINE
  8
0
  6
CONTINUOUS
 62
     7
 10
327.781442
 20
-87.963106
 30
0.0
 11
328.302386
 21
-90.917529
 31
0.0
  0
LINE
  8
0
  6
CONTINUOUS
 62
     7
 10
328.302386
 20
-90.917529
 30
0.0
 11
328.82333
 21
-87.963106
 31
0.0
  0
LINE
  8
0
  6
CONTINUOUS
 62
     7
 10
328.82333
 20
-96.271943
 30
0.0
 11
328.302386
 21
-93.31752
 31
0.0
  0
LINE
  8
0
  6
CONTINUOUS
 62
     7
 10
328.302386
 20
-93.31752
 30
0.0
 11
327.781442
 21
-96.271943
 31
0.0
  0
TEXT
  8
0
  6
CONTINUOUS
 62
     7
 10
327.302386
 20
-90.344443
 30
0.0
 40
2.0
  1
15
 50
450.0
 41
0.933333
 72
     1
 11
326.302386
 21
-88.677776
 31
0.0
 73
     2
  0
ENDBLK
  8
0
  0
BLOCK
  8
0
  6
CONTINUOUS
 62
     7
  2
*U20
 70
    65
 10
0.0
 20
0.0
 30
0.0
  3
*U20
  0
LINE
  8
0
  6
CONTINUOUS
 62
     7
 10
400.937892
 20
-87.070385
 30
0.0
 11
400.937892
 21
-68.713749
 31
0.0
  0
LINE
  8
0
  6
CONTINUOUS
 62
     7
 10
360.617893
 20
-87.070385
 30
0.0
 11
360.617893
 21
-68.713749
 31
0.0
  0
LINE
  8
0
  6
CONTINUOUS
 62
     7
 10
400.937892
 20
-70.713749
 30
0.0
 11
360.617893
 21
-70.713749
 31
0.0
  0
LINE
  8
0
  6
CONTINUOUS
 62
     7
 10
398.040114
 20
-71.490206
 30
0.0
 11
400.937892
 21
-70.713749
 31
0.0
  0
LINE
  8
0
  6
CONTINUOUS
 62
     7
 10
400.937892
 20
-70.713749
 30
0.0
 11
398.040114
 21
-69.937292
 31
0.0
  0
LINE
  8
0
  6
CONTINUOUS
 62
     7
 10
363.51567
 20
-69.937292
 30
0.0
 11
360.617893
 21
-70.713749
 31
0.0
  0
LINE
  8
0
  6
CONTINUOUS
 62
     7
 10
360.617893
 20
-70.713749
 30
0.0
 11
363.51567
 21
-71.490206
 31
0.0
  0
TEXT
  8
0
  6
CONTINUOUS
 62
     7
 10
378.177892
 20
-68.713749
 30
0.0
 40
2.0
  1
252
 50
360.0
 41
0.933333
 72
     1
 11
380.777892
 21
-67.713749
 31
0.0
 73
     2
  0
ENDBLK
  8
0
  0
BLOCK
  8
0
  6
CONTINUOUS
 62
     7
  2
*U21
 70
    65
 10
0.0
 20
0.0
 30
0.0
  3
*U21
  0
LINE
  8
0
  6
CONTINUOUS
 62
     7
 10
441.257891
 20
-87.070385
 30
0.0
 11
441.257891
 21
-68.713749
 31
0.0
  0
LINE
  8
0
  6
CONTINUOUS
 62
     7
 10
441.257891
 20
-70.713749
 30
0.0
 11
400.937892
 21
-70.713749
 31
0.0
  0
LINE
  8
0
  6
CONTINUOUS
 62
     7
 10
438.360113
 20
-71.490206
 30
0.0
 11
441.257891
 21
-70.713749
 31
0.0
  0
LINE
  8
0
  6
CONTINUOUS
 62
     7
 10
441.257891
 20
-70.713749
 30
0.0
 11
438.360113
 21
-69.937292
 31
0.0
  0
LINE
  8
0
  6
CONTINUOUS
 62
     7
 10
403.835669
 20
-69.937292
 30
0.0
 11
400.937892
 21
-70.713749
 31
0.0
  0
LINE
  8
0
  6
CONTINUOUS
 62
     7
 10
400.937892
 20
-70.713749
 30
0.0
 11
403.835669
 21
-71.490206
 31
0.0
  0
TEXT
  8
0
  6
CONTINUOUS
 62
     7
 10
418.497891
 20
-68.713749
 30
0.0
 40
2.0
  1
252
 50
360.0
 41
0.933333
 72
     1
 11
421.097891
 21
-67.713749
 31
0.0
 73
     2
  0
ENDBLK
  8
0
  0
BLOCK
  8
0
  6
CONTINUOUS
 62
     7
  2
*U22
 70
    65
 10
0.0
 20
0.0
 30
0.0
  3
*U22
  0
LINE
  8
0
  6
CONTINUOUS
 62
     7
 10
481.57789
 20
-87.070385
 30
0.0
 11
481.57789
 21
-68.713749
 31
0.0
  0
LINE
  8
0
  6
CONTINUOUS
 62
     7
 10
481.57789
 20
-70.713749
 30
0.0
 11
441.257891
 21
-70.713749
 31
0.0
  0
LINE
  8
0
  6
CONTINUOUS
 62
     7
 10
478.680112
 20
-71.490206
 30
0.0
 11
481.57789
 21
-70.713749
 31
0.0
  0
LINE
  8
0
  6
CONTINUOUS
 62
     7
 10
481.57789
 20
-70.713749
 30
0.0
 11
478.680112
 21
-69.937292
 31
0.0
  0
LINE
  8
0
  6
CONTINUOUS
 62
     7
 10
444.155668
 20
-69.937292
 30
0.0
 11
441.257891
 21
-70.713749
 31
0.0
  0
LINE
  8
0
  6
CONTINUOUS
 62
     7
 10
441.257891
 20
-70.713749
 30
0.0
 11
444.155668
 21
-71.490206
 31
0.0
  0
TEXT
  8
0
  6
CONTINUOUS
 62
     7
 10
458.81789
 20
-68.713749
 30
0.0
 40
2.0
  1
252
 50
360.0
 41
0.933333
 72
     1
 11
461.41789
 21
-67.713749
 31
0.0
 73
     2
  0
ENDBLK
  8
0
  0
BLOCK
  8
0
  6
CONTINUOUS
 62
     7
  2
*H23
 70
    65
 10
0.0
 20
0.0
 30
0.0
  3
*H23
  0
LINE
  8
0
  6
CONTINUOUS
 62
     3
 10
568.18683
 20
-103.014511
 30
0.0
 11
565.369917
 21
-100.197585
 31
0.0
  0
LINE
  8
0
  6
CONTINUOUS
 62
     3
 10
568.316902
 20
-103.993099
 30
0.0
 11
567.516902
 21
-103.193099
 31
0.0
  0
LINE
  8
0
  6
CONTINUOUS
 62
     3
 10
567.663203
 20
-104.18793
 30
0.0
 11
567.516902
 21
-104.041628
 31
0.0
  0
ENDBLK
  8
0
  0
BLOCK
  8
0
  6
CONTINUOUS
 62
     7
  2
*H24
 70
    65
 10
0.0
 20
0.0
 30
0.0
  3
*H24
  0
LINE
  8
0
  6
CONTINUOUS
 62
     3
 10
568.811079
 20
-103.18793
 30
0.0
 11
568.316902
 21
-103.682107
 31
0.0
  0
LINE
  8
0
  6
CONTINUOUS
 62
     3
 10
569.659608
 20
-103.18793
 30
0.0
 11
568.659608
 21
-104.18793
 31
0.0
  0
LINE
  8
0
  6
CONTINUOUS
 62
     3
 10
570.508131
 20
-103.18793
 30
0.0
 11
569.508131
 21
-104.18793
 31
0.0
  0
LINE
  8
0
  6
CONTINUOUS
 62
     3
 10
571.356666
 20
-103.18793
 30
0.0
 11
570.35666
 21
-104.18793
 31
0.0
  0
LINE
  8
0
  6
CONTINUOUS
 62
     3
 10
568.35666
 20
-106.18793
 30
0.0
 11
567.516902
 21
-107.027688
 31
0.0
  0
LINE
  8
0
  6
CONTINUOUS
 62
     3
 10
572.134211
 20
-103.258914
 30
0.0
 11
571.134254
 21
-104.258871
 31
0.0
  0
LINE
  8
0
  6
CONTINUOUS
 62
     3
 10
569.205189
 20
-106.18793
 30
0.0
 11
568.205189
 21
-107.18793
 31
0.0
  0
LINE
  8
0
  6
CONTINUOUS
 62
     3
 10
572.316902
 20
-103.924752
 30
0.0
 11
571.316902
 21
-104.924752
 31
0.0
  0
LINE
  8
0
  6
CONTINUOUS
 62
     3
 10
570.053718
 20
-106.18793
 30
0.0
 11
569.024806
 21
-107.216842
 31
0.0
  0
LINE
  8
0
  6
CONTINUOUS
 62
     3
 10
572.316902
 20
-104.773275
 30
0.0
 11
571.316902
 21
-105.773275
 31
0.0
  0
LINE
  8
0
  6
CONTINUOUS
 62
     3
 10
570.902247
 20
-106.18793
 30
0.0
 11
569.316902
 21
-107.773275
 31
0.0
  0
LINE
  8
0
  6
CONTINUOUS
 62
     3
 10
572.316902
 20
-105.621804
 30
0.0
 11
570.750776
 21
-107.18793
 31
0.0
  0
LINE
  8
0
  6
CONTINUOUS
 62
     3
 10
570.316902
 20
-107.621804
 30
0.0
 11
569.316902
 21
-108.621804
 31
0.0
  0
LINE
  8
0
  6
CONTINUOUS
 62
     3
 10
568.35077
 20
-109.58793
 30
0.0
 11
567.516902
 21
-110.421798
 31
0.0
  0
LINE
  8
0
  6
CONTINUOUS
 62
     3
 10
572.316902
 20
-106.470333
 30
0.0
 11
571.599305
 21
-107.18793
 31
0.0
  0
LINE
  8
0
  6
CONTINUOUS
 62
     3
 10
570.316902
 20
-108.470333
 30
0.0
 11
568.199299
 21
-110.58793
 31
0.0
  0
LINE
  8
0
  6
CONTINUOUS
 62
     3
 10
570.316902
 20
-109.318856
 30
0.0
 11
569.047828
 21
-110.58793
 31
0.0
  0
LINE
  8
0
  6
CONTINUOUS
 62
     3
 10
570.316902
 20
-110.167379
 30
0.0
 11
569.896351
 21
-110.58793
 31
0.0
  0
ENDBLK
  8
0
  0
BLOCK
  8
0
  6
CONTINUOUS
 62
     7
  2
*U25
 70
    65
 10
0.0
 20
0.0
 30
0.0
  3
*U25
  0
LINE
  8
0
  6
CONTINUOUS
 62
     7
 10
560.516914
 20
-108.187936
 30
0.0
 11
585.669746
 21
-108.187936
 31
0.0
  0
LINE
  8
0
  6
CONTINUOUS
 62
     7
 10
570.916902
 20
-110.58793
 30
0.0
 11
585.669746
 21
-110.58793
 31
0.0
  0
LINE
  8
0
  6
CONTINUOUS
 62
     7
 10
583.669746
 20
-108.187936
 30
0.0
 11
583.669746
 21
-116.702749
 31
0.0
  0
LINE
  8
0
  6
CONTINUOUS
 62
     7
 10
583.148802
 20
-105.233513
 30
0.0
 11
583.669746
 21
-108.187936
 31
0.0
  0
LINE
  8
0
  6
CONTINUOUS
 62
     7
 10
583.669746
 20
-108.187936
 30
0.0
 11
584.190691
 21
-105.233513
 31
0.0
  0
LINE
  8
0
  6
CONTINUOUS
 62
     7
 10
584.190691
 20
-113.542353
 30
0.0
 11
583.669746
 21
-110.58793
 31
0.0
  0
LINE
  8
0
  6
CONTINUOUS
 62
     7
 10
583.669746
 20
-110.58793
 30
0.0
 11
583.148802
 21
-113.542353
 31
0.0
  0
TEXT
  8
0
  6
CONTINUOUS
 62
     7
 10
582.669746
 20
-116.702749
 30
0.0
 40
2.0
  1
6
 50
450.0
 41
0.933333
 72
     1
 11
581.669746
 21
-115.969416
 31
0.0
 73
     2
  0
ENDBLK
  8
0
  0
BLOCK
  8
0
  6
CONTINUOUS
 62
     7
  2
*U26
 70
    65
 10
0.0
 20
0.0
 30
0.0
  3
*U26
  0
LINE
  8
0
  6
CONTINUOUS
 62
     7
 10
546.647677
 20
-126.43212
 30
0.0
 11
570.847675
 21
-126.432119
 31
0.0
  0
TEXT
  8
0
  6
CONTINUOUS
 62
     7
 10
546.647677
 20
-125.432119
 30
0.0
 40
3.0
  1
Part. "Z"
 50
360.0
 41
0.916667
 72
     1
 11
558.747676
 21
-123.932119
 31
0.0
 73
     2
  0
ENDBLK
  8
0
  0
BLOCK
  8
0
  6
CONTINUOUS
 62
     7
  2
*U27
 70
    65
 10
0.0
 20
0.0
 30
0.0
  3
*U27
  0
LINE
  8
0
  6
CONTINUOUS
 62
     7
 10
568.316902
 20
-86.209618
 30
0.0
 11
568.316902
 21
-73.083361
 31
0.0
  0
LINE
  8
0
  6
CONTINUOUS
 62
     7
 10
581.916902
 20
-86.209618
 30
0.0
 11
581.916902
 21
-73.083361
 31
0.0
  0
LINE
  8
0
  6
CONTINUOUS
 62
     7
 10
568.316902
 20
-75.083361
 30
0.0
 11
581.916902
 21
-75.083361
 31
0.0
  0
LINE
  8
0
  6
CONTINUOUS
 62
     7
 10
571.271325
 20
-74.562416
 30
0.0
 11
568.316902
 21
-75.083361
 31
0.0
  0
LINE
  8
0
  6
CONTINUOUS
 62
     7
 10
568.316902
 20
-75.083361
 30
0.0
 11
571.271325
 21
-75.604305
 31
0.0
  0
LINE
  8
0
  6
CONTINUOUS
 62
     7
 10
578.962479
 20
-75.604305
 30
0.0
 11
581.916902
 21
-75.083361
 31
0.0
  0
LINE
  8
0
  6
CONTINUOUS
 62
     7
 10
581.916902
 20
-75.083361
 30
0.0
 11
578.962479
 21
-74.562416
 31
0.0
  0
TEXT
  8
0
  6
CONTINUOUS
 62
     7
 10
572.511502
 20
-74.083361
 30
0.0
 40
2.0
  1
34
 50
360.0
 41
0.933333
 72
     1
 11
574.178169
 21
-73.083361
 31
0.0
 73
     2
  0
ENDBLK
  8
0
  0
BLOCK
  8
0
  6
CONTINUOUS
 62
     7
  2
*U28
 70
    65
 10
0.0
 20
0.0
 30
0.0
  3
*U28
  0
LINE
  8
0
  6
CONTINUOUS
 62
     7
 10
587.116902
 20
-86.209618
 30
0.0
 11
587.116902
 21
-73.083361
 31
0.0
  0
LINE
  8
0
  6
CONTINUOUS
 62
     7
 10
581.916902
 20
-75.083361
 30
0.0
 11
593.433569
 21
-75.083361
 31
0.0
  0
LINE
  8
0
  6
CONTINUOUS
 62
     7
 10
578.962479
 20
-75.604305
 30
0.0
 11
581.916902
 21
-75.083361
 31
0.0
  0
LINE
  8
0
  6
CONTINUOUS
 62
     7
 10
581.916902
 20
-75.083361
 30
0.0
 11
578.962479
 21
-74.562416
 31
0.0
  0
LINE
  8
0
  6
CONTINUOUS
 62
     7
 10
590.071325
 20
-74.562416
 30
0.0
 11
587.116902
 21
-75.083361
 31
0.0
  0
LINE
  8
0
  6
CONTINUOUS
 62
     7
 10
587.116902
 20
-75.083361
 30
0.0
 11
590.071325
 21
-75.604305
 31
0.0
  0
TEXT
  8
0
  6
CONTINUOUS
 62
     7
 10
590.100235
 20
-74.083361
 30
0.0
 40
2.0
  1
13
 50
360.0
 41
0.933333
 72
     1
 11
591.766902
 21
-73.083361
 31
0.0
 73
     2
  0
ENDBLK
  8
0
  0
BLOCK
  8
0
  6
CONTINUOUS
 62
     7
  2
*U29
 70
    65
 10
0.0
 20
0.0
 30
0.0
  3
*U29
  0
LINE
  8
0
  6
CONTINUOUS
 62
     7
 10
567.116902
 20
-102.18793
 30
0.0
 11
567.116902
 21
-80.267715
 31
0.0
  0
LINE
  8
0
  6
CONTINUOUS
 62
     7
 10
568.316902
 20
-86.209618
 30
0.0
 11
568.316902
 21
-80.267715
 31
0.0
  0
LINE
  8
0
  6
CONTINUOUS
 62
     7
 10
562.28357
 20
-82.267715
 30
0.0
 11
568.316902
 21
-82.267715
 31
0.0
  0
LINE
  8
0
  6
CONTINUOUS
 62
     7
 10
564.162479
 20
-82.788659
 30
0.0
 11
567.116902
 21
-82.267715
 31
0.0
  0
LINE
  8
0
  6
CONTINUOUS
 62
     7
 10
567.116902
 20
-82.267715
 30
0.0
 11
564.162479
 21
-81.74677
 31
0.0
  0
LINE
  8
0
  6
CONTINUOUS
 62
     7
 10
571.271325
 20
-81.74677
 30
0.0
 11
568.316902
 21
-82.267715
 31
0.0
  0
LINE
  8
0
  6
CONTINUOUS
 62
     7
 10
568.316902
 20
-82.267715
 30
0.0
 11
571.271325
 21
-82.788659
 31
0.0
  0
TEXT
  8
0
  6
CONTINUOUS
 62
     7
 10
562.28357
 20
-81.267715
 30
0.0
 40
2.0
  1
3
 50
360.0
 41
0.933333
 72
     1
 11
563.016904
 21
-80.267715
 31
0.0
 73
     2
  0
ENDBLK
  8
0
  0
BLOCK
  8
0
  6
CONTINUOUS
 62
     7
  2
*U30
 70
    65
 10
0.0
 20
0.0
 30
0.0
  3
*U30
  0
LINE
  8
0
  6
CONTINUOUS
 62
     7
 10
665.708248
 20
-152.375996
 30
0.0
 11
665.708248
 21
-158.910464
 31
0.0
  0
LINE
  8
0
  6
CONTINUOUS
 62
     7
 10
635.708252
 20
-152.375995
 30
0.0
 11
635.708252
 21
-158.910464
 31
0.0
  0
LINE
  8
0
  6
CONTINUOUS
 62
     7
 10
665.708248
 20
-156.910464
 30
0.0
 11
635.708252
 21
-156.910464
 31
0.0
  0
LINE
  8
0
  6
CONTINUOUS
 62
     7
 10
662.753825
 20
-157.431408
 30
0.0
 11
665.708248
 21
-156.910464
 31
0.0
  0
LINE
  8
0
  6
CONTINUOUS
 62
     7
 10
665.708248
 20
-156.910464
 30
0.0
 11
662.753825
 21
-156.389519
 31
0.0
  0
LINE
  8
0
  6
CONTINUOUS
 62
     7
 10
638.662675
 20
-156.389519
 30
0.0
 11
635.708252
 21
-156.910464
 31
0.0
  0
LINE
  8
0
  6
CONTINUOUS
 62
     7
 10
635.708252
 20
-156.910464
 30
0.0
 11
638.662675
 21
-157.431408
 31
0.0
  0
TEXT
  8
0
  6
CONTINUOUS
 62
     7
 10
647.924917
 20
-155.910464
 30
0.0
 40
2.0
  1
150
 50
360.0
 41
0.933333
 72
     1
 11
650.524917
 21
-154.910464
 31
0.0
 73
     2
  0
ENDBLK
  8
0
  0
BLOCK
  8
0
  6
CONTINUOUS
 62
     7
  2
*U31
 70
    65
 10
0.0
 20
0.0
 30
0.0
  3
*U31
  0
LINE
  8
0
  6
CONTINUOUS
 62
     7
 10
620.260272
 20
-147.944854
 30
0.0
 11
629.911745
 21
-135.729357
 31
0.0
  0
LINE
  8
0
  6
CONTINUOUS
 62
     7
 10
629.911745
 20
-135.729357
 30
0.0
 11
633.303401
 21
-135.729357
 31
0.0
  0
LINE
  8
0
  6
CONTINUOUS
 62
     7
 10
621.683103
 20
-145.303727
 30
0.0
 11
620.260272
 21
-147.944854
 31
0.0
  0
LINE
  8
0
  6
CONTINUOUS
 62
     7
 10
620.260272
 20
-147.944854
 30
0.0
 11
622.500614
 21
-145.949643
 31
0.0
  0
TEXT
  8
0
  6
CONTINUOUS
 62
     7
 10
631.836734
 20
-134.729357
 30
0.0
 40
2.0
  1
2
 50
360.0
 41
0.933333
 72
     1
 11
632.570068
 21
-133.729357
 31
0.0
 73
     2
  0
TEXT
  8
0
  6
CONTINUOUS
 62
     7
 10
630.003401
 20
-134.729357
 30
0.0
 40
2.0
  1
R
 50
360.0
 41
0.933333
 72
     1
 11
630.736734
 21
-133.729357
 31
0.0
 73
     2
  0
ENDBLK
  8
0
  0
BLOCK
  8
0
  6
CONTINUOUS
 62
     7
  2
*U32
 70
    65
 10
0.0
 20
0.0
 30
0.0
  3
*U32
  0
LINE
  8
0
  6
CONTINUOUS
 62
     7
 10
669.312355
 20
-86.115844
 30
0.0
 11
682.768901
 21
-80.43658
 31
0.0
  0
LINE
  8
0
  6
CONTINUOUS
 62
     7
 10
679.328219
 20
-82.454141
 30
0.0
 11
681.847593
 21
-80.825413
 31
0.0
  0
LINE
  8
0
  6
CONTINUOUS
 62
     7
 10
681.847593
 20
-80.825413
 30
0.0
 11
678.923098
 21
-81.494241
 31
0.0
  0
LINE
  8
0
  6
CONTINUOUS
 62
     7
 10
685.288275
 20
-78.807851
 30
0.0
 11
682.768901
 21
-80.43658
 31
0.0
  0
LINE
  8
0
  6
CONTINUOUS
 62
     7
 10
682.768901
 20
-80.43658
 30
0.0
 11
685.693396
 21
-79.767752
 31
0.0
  0
TEXT
  8
0
  6
CONTINUOUS
 62
     7
 10
670.858269
 20
-84.377986
 30
0.0
 40
2.0
  1
5
 50
382.881921
 41
0.933333
 72
     1
 11
671.145062
 21
-83.171533
 31
0.0
 73
     2
  0
TEXT
  8
0
  6
CONTINUOUS
 62
     7
 10
668.923522
 20
-85.194536
 30
0.0
 40
2.0
  1
Ø
 50
382.881921
 41
0.933333
 72
     1
 11
669.210315
 21
-83.988083
 31
0.0
 73
     2
  0
ENDBLK
  8
0
  0
BLOCK
  8
0
  6
CONTINUOUS
 62
     7
  2
*U33
 70
    65
 10
0.0
 20
0.0
 30
0.0
  3
*U33
  0
LINE
  8
0
  6
CONTINUOUS
 62
     7
 10
617.46208
 20
-76.940863
 30
0.0
 11
605.06487
 21
-71.207948
 31
0.0
  0
LINE
  8
0
  6
CONTINUOUS
 62
     7
 10
620.362316
 20
-77.708086
 30
0.0
 11
617.46208
 21
-76.940863
 31
0.0
  0
LINE
  8
0
  6
CONTINUOUS
 62
     7
 10
617.46208
 20
-76.940863
 30
0.0
 11
619.925004
 21
-78.653756
 31
0.0
  0
LINE
  8
0
  6
CONTINUOUS
 62
     7
 10
613.654199
 20
-75.753911
 30
0.0
 11
616.554435
 21
-76.521135
 31
0.0
  0
LINE
  8
0
  6
CONTINUOUS
 62
     7
 10
616.554435
 20
-76.521135
 30
0.0
 11
614.09151
 21
-74.808241
 31
0.0
  0
TEXT
  8
0
  6
CONTINUOUS
 62
     7
 10
607.390663
 20
-71.181731
 30
0.0
 40
2.0
  1
5
 50
335.182485
 41
0.933333
 72
     1
 11
608.476002
 21
-70.581883
 31
0.0
 73
     2
  0
TEXT
  8
0
  6
CONTINUOUS
 62
     7
 10
605.4846
 20
-70.300299
 30
0.0
 40
2.0
  1
Ø
 50
335.182485
 41
0.933333
 72
     1
 11
606.569939
 21
-69.700451
 31
0.0
 73
     2
  0
ENDBLK
  8
0
  0
BLOCK
  8
0
  6
CONTINUOUS
 62
     7
  2
*U34
 70
    65
 10
0.0
 20
0.0
 30
0.0
  3
*U34
  0
LINE
  8
0
  6
CONTINUOUS
 62
     7
 10
617.008258
 20
-148.030993
 30
0.0
 11
617.008258
 21
-164.819881
 31
0.0
  0
LINE
  8
0
  6
CONTINUOUS
 62
     7
 10
650.708251
 20
-162.819881
 30
0.0
 11
617.008258
 21
-162.819881
 31
0.0
  0
LINE
  8
0
  6
CONTINUOUS
 62
     7
 10
647.753827
 20
-163.340826
 30
0.0
 11
650.708251
 21
-162.819881
 31
0.0
  0
LINE
  8
0
  6
CONTINUOUS
 62
     7
 10
650.708251
 20
-162.819881
 30
0.0
 11
647.753827
 21
-162.298937
 31
0.0
  0
LINE
  8
0
  6
CONTINUOUS
 62
     7
 10
619.962681
 20
-162.298937
 30
0.0
 11
617.008258
 21
-162.819881
 31
0.0
  0
LINE
  8
0
  6
CONTINUOUS
 62
     7
 10
617.008258
 20
-162.819881
 30
0.0
 11
619.962681
 21
-163.340826
 31
0.0
  0
TEXT
  8
0
  6
CONTINUOUS
 62
     7
 10
629.208255
 20
-161.819881
 30
0.0
 40
2.0
  1
168,5
 50
360.0
 41
0.933333
 72
     1
 11
633.674922
 21
-160.819881
 31
0.0
 73
     2
  0
ENDBLK
  8
0
  0
BLOCK
  8
0
  6
CONTINUOUS
 62
     7
  2
*U35
 70
    65
 10
0.0
 20
0.0
 30
0.0
  3
*U35
  0
LINE
  8
0
  6
CONTINUOUS
 62
     7
 10
682.308247
 20
-77.285995
 30
0.0
 11
682.308247
 21
-55.065922
 31
0.0
  0
LINE
  8
0
  6
CONTINUOUS
 62
     7
 10
619.108251
 20
-77.285995
 30
0.0
 11
619.108251
 21
-55.065922
 31
0.0
  0
LINE
  8
0
  6
CONTINUOUS
 62
     7
 10
682.308247
 20
-57.065922
 30
0.0
 11
619.108251
 21
-57.065922
 31
0.0
  0
LINE
  8
0
  6
CONTINUOUS
 62
     7
 10
679.353824
 20
-57.586866
 30
0.0
 11
682.308247
 21
-57.065922
 31
0.0
  0
LINE
  8
0
  6
CONTINUOUS
 62
     7
 10
682.308247
 20
-57.065922
 30
0.0
 11
679.353824
 21
-56.544977
 31
0.0
  0
LINE
  8
0
  6
CONTINUOUS
 62
     7
 10
622.062674
 20
-56.544977
 30
0.0
 11
619.108251
 21
-57.065922
 31
0.0
  0
LINE
  8
0
  6
CONTINUOUS
 62
     7
 10
619.108251
 20
-57.065922
 30
0.0
 11
622.062674
 21
-57.586866
 31
0.0
  0
TEXT
  8
0
  6
CONTINUOUS
 62
     7
 10
647.924915
 20
-56.065922
 30
0.0
 40
2.0
  1
316
 50
360.0
 41
0.933333
 72
     1
 11
650.524916
 21
-55.065922
 31
0.0
 73
     2
  0
ENDBLK
  8
0
  0
BLOCK
  8
0
  6
CONTINUOUS
 62
     7
  2
*U36
 70
    65
 10
0.0
 20
0.0
 30
0.0
  3
*U36
  0
LINE
  8
0
  6
CONTINUOUS
 62
     7
 10
681.308252
 20
-72.630995
 30
0.0
 11
681.308252
 21
-59.374869
 31
0.0
  0
LINE
  8
0
  6
CONTINUOUS
 62
     7
 10
620.108251
 20
-72.630995
 30
0.0
 11
620.108251
 21
-59.374869
 31
0.0
  0
LINE
  8
0
  6
CONTINUOUS
 62
     7
 10
681.308252
 20
-61.374869
 30
0.0
 11
620.108251
 21
-61.374869
 31
0.0
  0
LINE
  8
0
  6
CONTINUOUS
 62
     7
 10
678.353829
 20
-61.895814
 30
0.0
 11
681.308252
 21
-61.374869
 31
0.0
  0
LINE
  8
0
  6
CONTINUOUS
 62
     7
 10
681.308252
 20
-61.374869
 30
0.0
 11
678.353829
 21
-60.853925
 31
0.0
  0
LINE
  8
0
  6
CONTINUOUS
 62
     7
 10
623.062675
 20
-60.853925
 30
0.0
 11
620.108251
 21
-61.374869
 31
0.0
  0
LINE
  8
0
  6
CONTINUOUS
 62
     7
 10
620.108251
 20
-61.374869
 30
0.0
 11
623.062675
 21
-61.895814
 31
0.0
  0
TEXT
  8
0
  6
CONTINUOUS
 62
     7
 10
647.924919
 20
-60.374869
 30
0.0
 40
2.0
  1
306
 50
360.0
 41
0.933333
 72
     1
 11
650.524919
 21
-59.374869
 31
0.0
 73
     2
  0
ENDBLK
  8
0
  0
BLOCK
  8
0
  6
CONTINUOUS
 62
     7
  2
*U37
 70
    65
 10
0.0
 20
0.0
 30
0.0
  3
*U37
  0
LINE
  8
0
  6
CONTINUOUS
 62
     7
 10
670.708247
 20
-68.885995
 30
0.0
 11
670.708247
 21
-63.437595
 31
0.0
  0
LINE
  8
0
  6
CONTINUOUS
 62
     7
 10
670.708247
 20
-65.437595
 30
0.0
 11
650.708251
 21
-65.437595
 31
0.0
  0
LINE
  8
0
  6
CONTINUOUS
 62
     7
 10
667.753824
 20
-65.95854
 30
0.0
 11
670.708247
 21
-65.437595
 31
0.0
  0
LINE
  8
0
  6
CONTINUOUS
 62
     7
 10
670.708247
 20
-65.437595
 30
0.0
 11
667.753824
 21
-64.916651
 31
0.0
  0
LINE
  8
0
  6
CONTINUOUS
 62
     7
 10
653.662674
 20
-64.916651
 30
0.0
 11
650.708251
 21
-65.437595
 31
0.0
  0
LINE
  8
0
  6
CONTINUOUS
 62
     7
 10
650.708251
 20
-65.437595
 30
0.0
 11
653.662674
 21
-65.95854
 31
0.0
  0
TEXT
  8
0
  6
CONTINUOUS
 62
     7
 10
657.924916
 20
-64.437595
 30
0.0
 40
2.0
  1
100
 50
360.0
 41
0.933333
 72
     1
 11
660.524916
 21
-63.437595
 31
0.0
 73
     2
  0
ENDBLK
  8
0
  0
BLOCK
  8
0
  6
CONTINUOUS
 62
     7
  2
*U38
 70
    65
 10
0.0
 20
0.0
 30
0.0
  3
*U38
  0
LINE
  8
0
  6
CONTINUOUS
 62
     7
 10
630.708252
 20
-68.885995
 30
0.0
 11
630.708252
 21
-63.437595
 31
0.0
  0
LINE
  8
0
  6
CONTINUOUS
 62
     7
 10
650.708251
 20
-65.437595
 30
0.0
 11
630.708252
 21
-65.437595
 31
0.0
  0
LINE
  8
0
  6
CONTINUOUS
 62
     7
 10
647.753827
 20
-65.95854
 30
0.0
 11
650.708251
 21
-65.437595
 31
0.0
  0
LINE
  8
0
  6
CONTINUOUS
 62
     7
 10
650.708251
 20
-65.437595
 30
0.0
 11
647.753827
 21
-64.916651
 31
0.0
  0
LINE
  8
0
  6
CONTINUOUS
 62
     7
 10
633.662675
 20
-64.916651
 30
0.0
 11
630.708252
 21
-65.437595
 31
0.0
  0
LINE
  8
0
  6
CONTINUOUS
 62
     7
 10
630.708252
 20
-65.437595
 30
0.0
 11
633.662675
 21
-65.95854
 31
0.0
  0
TEXT
  8
0
  6
CONTINUOUS
 62
     7
 10
637.924917
 20
-64.437595
 30
0.0
 40
2.0
  1
100
 50
360.0
 41
0.933333
 72
     1
 11
640.524917
 21
-63.437595
 31
0.0
 73
     2
  0
ENDBLK
  8
0
  0
BLOCK
  8
0
  6
CONTINUOUS
 62
     7
  2
*U39
 70
    65
 10
0.0
 20
0.0
 30
0.0
  3
*U39
  0
LINE
  8
0
  6
CONTINUOUS
 62
     7
 10
681.908252
 20
-148.030996
 30
0.0
 11
692.785596
 21
-148.030996
 31
0.0
  0
LINE
  8
0
  6
CONTINUOUS
 62
     7
 10
681.908252
 20
-73.230995
 30
0.0
 11
692.785596
 21
-73.230995
 31
0.0
  0
LINE
  8
0
  6
CONTINUOUS
 62
     7
 10
690.785596
 20
-148.030996
 30
0.0
 11
690.785596
 21
-73.230995
 31
0.0
  0
LINE
  8
0
  6
CONTINUOUS
 62
     7
 10
690.264652
 20
-145.076572
 30
0.0
 11
690.785596
 21
-148.030996
 31
0.0
  0
LINE
  8
0
  6
CONTINUOUS
 62
     7
 10
690.785596
 20
-148.030996
 30
0.0
 11
691.306541
 21
-145.076572
 31
0.0
  0
LINE
  8
0
  6
CONTINUOUS
 62
     7
 10
691.306541
 20
-76.185418
 30
0.0
 11
690.785596
 21
-73.230995
 31
0.0
  0
LINE
  8
0
  6
CONTINUOUS
 62
     7
 10
690.785596
 20
-73.230995
 30
0.0
 11
690.264652
 21
-76.185418
 31
0.0
  0
TEXT
  8
0
  6
CONTINUOUS
 62
     7
 10
689.785596
 20
-113.414329
 30
0.0
 40
2.0
  1
374
 50
90.0
 41
0.933333
 72
     1
 11
688.785596
 21
-110.814328
 31
0.0
 73
     2
  0
ENDBLK
  8
0
  0
BLOCK
  8
0
  6
CONTINUOUS
 62
     7
  2
*U40
 70
    65
 10
0.0
 20
0.0
 30
0.0
  3
*U40
  0
LINE
  8
0
  6
CONTINUOUS
 62
     7
 10
669.05325
 20
-149.030994
 30
0.0
 11
697.094547
 21
-149.030994
 31
0.0
  0
LINE
  8
0
  6
CONTINUOUS
 62
     7
 10
674.053252
 20
-72.231
 30
0.0
 11
697.094547
 21
-72.231
 31
0.0
  0
LINE
  8
0
  6
CONTINUOUS
 62
     7
 10
695.094547
 20
-149.030994
 30
0.0
 11
695.094547
 21
-72.231
 31
0.0
  0
LINE
  8
0
  6
CONTINUOUS
 62
     7
 10
694.573603
 20
-146.076571
 30
0.0
 11
695.094547
 21
-149.030994
 31
0.0
  0
LINE
  8
0
  6
CONTINUOUS
 62
     7
 10
695.094547
 20
-149.030994
 30
0.0
 11
695.615492
 21
-146.076571
 31
0.0
  0
LINE
  8
0
  6
CONTINUOUS
 62
     7
 10
695.615492
 20
-75.185423
 30
0.0
 11
695.094547
 21
-72.231
 31
0.0
  0
LINE
  8
0
  6
CONTINUOUS
 62
     7
 10
695.094547
 20
-72.231
 30
0.0
 11
694.573603
 21
-75.185423
 31
0.0
  0
TEXT
  8
0
  6
CONTINUOUS
 62
     7
 10
694.094547
 20
-113.414332
 30
0.0
 40
2.0
  1
384
 50
90.0
 41
0.933333
 72
     1
 11
693.094547
 21
-110.814331
 31
0.0
 73
     2
  0
ENDBLK
  8
0
  0
BLOCK
  8
0
  6
CONTINUOUS
 62
     7
  2
*U41
 70
    65
 10
0.0
 20
0.0
 30
0.0
  3
*U41
  0
LINE
  8
0
  6
CONTINUOUS
 62
     7
 10
613.50826
 20
-144.530995
 30
0.0
 11
601.375454
 21
-144.530995
 31
0.0
  0
LINE
  8
0
  6
CONTINUOUS
 62
     7
 10
613.508259
 20
-76.730999
 30
0.0
 11
601.375454
 21
-76.730999
 31
0.0
  0
LINE
  8
0
  6
CONTINUOUS
 62
     7
 10
603.375454
 20
-144.530995
 30
0.0
 11
603.375454
 21
-76.730999
 31
0.0
  0
LINE
  8
0
  6
CONTINUOUS
 62
     7
 10
602.85451
 20
-141.576572
 30
0.0
 11
603.375454
 21
-144.530995
 31
0.0
  0
LINE
  8
0
  6
CONTINUOUS
 62
     7
 10
603.375454
 20
-144.530995
 30
0.0
 11
603.896398
 21
-141.576572
 31
0.0
  0
LINE
  8
0
  6
CONTINUOUS
 62
     7
 10
603.896398
 20
-79.685422
 30
0.0
 11
603.375454
 21
-76.730999
 31
0.0
  0
LINE
  8
0
  6
CONTINUOUS
 62
     7
 10
603.375454
 20
-76.730999
 30
0.0
 11
602.85451
 21
-79.685422
 31
0.0
  0
TEXT
  8
0
  6
CONTINUOUS
 62
     7
 10
602.375454
 20
-113.414332
 30
0.0
 40
2.0
  1
339
 50
90.0
 41
0.933333
 72
     1
 11
601.375454
 21
-110.814331
 31
0.0
 73
     2
  0
ENDBLK
  8
0
  0
BLOCK
  8
0
  6
CONTINUOUS
 62
     7
  2
*U42
 70
    65
 10
0.0
 20
0.0
 30
0.0
  3
*U42
  0
LINE
  8
0
  6
CONTINUOUS
 62
     7
 10
615.763251
 20
-140.630996
 30
0.0
 11
606.503491
 21
-140.630996
 31
0.0
  0
LINE
  8
0
  6
CONTINUOUS
 62
     7
 10
615.763252
 20
-120.630995
 30
0.0
 11
606.503491
 21
-120.630995
 31
0.0
  0
LINE
  8
0
  6
CONTINUOUS
 62
     7
 10
608.503491
 20
-140.630996
 30
0.0
 11
608.503491
 21
-120.630995
 31
0.0
  0
LINE
  8
0
  6
CONTINUOUS
 62
     7
 10
607.982546
 20
-137.676572
 30
0.0
 11
608.503491
 21
-140.630996
 31
0.0
  0
LINE
  8
0
  6
CONTINUOUS
 62
     7
 10
608.503491
 20
-140.630996
 30
0.0
 11
609.024435
 21
-137.676572
 31
0.0
  0
LINE
  8
0
  6
CONTINUOUS
 62
     7
 10
609.024435
 20
-123.585419
 30
0.0
 11
608.503491
 21
-120.630995
 31
0.0
  0
LINE
  8
0
  6
CONTINUOUS
 62
     7
 10
608.503491
 20
-120.630995
 30
0.0
 11
607.982546
 21
-123.585419
 31
0.0
  0
TEXT
  8
0
  6
CONTINUOUS
 62
     7
 10
607.503491
 20
-133.414329
 30
0.0
 40
2.0
  1
100
 50
90.0
 41
0.933333
 72
     1
 11
606.503491
 21
-130.814329
 31
0.0
 73
     2
  0
ENDBLK
  8
0
  0
BLOCK
  8
0
  6
CONTINUOUS
 62
     7
  2
*U43
 70
    65
 10
0.0
 20
0.0
 30
0.0
  3
*U43
  0
LINE
  8
0
  6
CONTINUOUS
 62
     7
 10
615.763251
 20
-100.630995
 30
0.0
 11
606.503491
 21
-100.630995
 31
0.0
  0
LINE
  8
0
  6
CONTINUOUS
 62
     7
 10
608.503491
 20
-120.630995
 30
0.0
 11
608.503491
 21
-100.630995
 31
0.0
  0
LINE
  8
0
  6
CONTINUOUS
 62
     7
 10
607.982546
 20
-117.676572
 30
0.0
 11
608.503491
 21
-120.630995
 31
0.0
  0
LINE
  8
0
  6
CONTINUOUS
 62
     7
 10
608.503491
 20
-120.630995
 30
0.0
 11
609.024435
 21
-117.676572
 31
0.0
  0
LINE
  8
0
  6
CONTINUOUS
 62
     7
 10
609.024435
 20
-103.585418
 30
0.0
 11
608.503491
 21
-100.630995
 31
0.0
  0
LINE
  8
0
  6
CONTINUOUS
 62
     7
 10
608.503491
 20
-100.630995
 30
0.0
 11
607.982546
 21
-103.585418
 31
0.0
  0
TEXT
  8
0
  6
CONTINUOUS
 62
     7
 10
607.503491
 20
-113.414329
 30
0.0
 40
2.0
  1
100
 50
90.0
 41
0.933333
 72
     1
 11
606.503491
 21
-110.814328
 31
0.0
 73
     2
  0
ENDBLK
  8
0
  0
BLOCK
  8
0
  6
CONTINUOUS
 62
     7
  2
*U44
 70
    65
 10
0.0
 20
0.0
 30
0.0
  3
*U44
  0
LINE
  8
0
  6
CONTINUOUS
 62
     7
 10
615.76325
 20
-80.630996
 30
0.0
 11
606.503491
 21
-80.630996
 31
0.0
  0
LINE
  8
0
  6
CONTINUOUS
 62
     7
 10
608.503491
 20
-100.630995
 30
0.0
 11
608.503491
 21
-80.630996
 31
0.0
  0
LINE
  8
0
  6
CONTINUOUS
 62
     7
 10
607.982546
 20
-97.676572
 30
0.0
 11
608.503491
 21
-100.630995
 31
0.0
  0
LINE
  8
0
  6
CONTINUOUS
 62
     7
 10
608.503491
 20
-100.630995
 30
0.0
 11
609.024435
 21
-97.676572
 31
0.0
  0
LINE
  8
0
  6
CONTINUOUS
 62
     7
 10
609.024435
 20
-83.58542
 30
0.0
 11
608.503491
 21
-80.630996
 31
0.0
  0
LINE
  8
0
  6
CONTINUOUS
 62
     7
 10
608.503491
 20
-80.630996
 30
0.0
 11
607.982546
 21
-83.58542
 31
0.0
  0
TEXT
  8
0
  6
CONTINUOUS
 62
     7
 10
607.503491
 20
-93.414328
 30
0.0
 40
2.0
  1
100
 50
90.0
 41
0.933333
 72
     1
 11
606.503491
 21
-90.814328
 31
0.0
 73
     2
  0
ENDBLK
  8
0
  0
BLOCK
  8
0
  6
CONTINUOUS
 62
     7
  2
*H45
 70
    65
 10
0.0
 20
0.0
 30
0.0
  3
*H45
  0
LINE
  8
0
  6
CONTINUOUS
 62
     3
 10
551.502449
 20
52.711229
 30
0.0
 11
551.022449
 21
52.231229
 31
0.0
  0
LINE
  8
0
  6
CONTINUOUS
 62
     3
 10
551.502449
 20
51.692987
 30
0.0
 11
551.022449
 21
51.212987
 31
0.0
  0
LINE
  8
0
  6
CONTINUOUS
 62
     3
 10
551.502449
 20
50.674745
 30
0.0
 11
551.022449
 21
50.194745
 31
0.0
  0
LINE
  8
0
  6
CONTINUOUS
 62
     3
 10
551.502449
 20
49.656503
 30
0.0
 11
551.022449
 21
49.176503
 31
0.0
  0
LINE
  8
0
  6
CONTINUOUS
 62
     3
 10
551.502449
 20
48.638261
 30
0.0
 11
551.022449
 21
48.158261
 31
0.0
  0
LINE
  8
0
  6
CONTINUOUS
 62
     3
 10
551.502449
 20
47.620062
 30
0.0
 11
551.482383
 21
47.599999
 31
0.0
  0
ENDBLK
  8
0
  0
BLOCK
  8
0
  6
CONTINUOUS
 62
     7
  2
*U46
 70
    65
 10
0.0
 20
0.0
 30
0.0
  3
*U46
  0
LINE
  8
0
  6
CONTINUOUS
 62
     7
 10
543.06245
 20
12.639752
 30
0.0
 11
540.329515
 21
12.639752
 31
0.0
  0
LINE
  8
0
  6
CONTINUOUS
 62
     7
 10
543.06245
 20
11.359752
 30
0.0
 11
540.329515
 21
11.359752
 31
0.0
  0
LINE
  8
0
  6
CONTINUOUS
 62
     7
 10
542.329515
 20
12.639752
 30
0.0
 11
542.329515
 21
6.273361
 31
0.0
  0
LINE
  8
0
  6
CONTINUOUS
 62
     7
 10
541.80857
 20
15.594175
 30
0.0
 11
542.329515
 21
12.639752
 31
0.0
  0
LINE
  8
0
  6
CONTINUOUS
 62
     7
 10
542.329515
 20
12.639752
 30
0.0
 11
542.850459
 21
15.594175
 31
0.0
  0
LINE
  8
0
  6
CONTINUOUS
 62
     7
 10
542.850459
 20
8.405329
 30
0.0
 11
542.329515
 21
11.359752
 31
0.0
  0
LINE
  8
0
  6
CONTINUOUS
 62
     7
 10
542.329515
 20
11.359752
 30
0.0
 11
541.80857
 21
8.405329
 31
0.0
  0
TEXT
  8
0
  6
CONTINUOUS
 62
     7
 10
541.329515
 20
6.273361
 30
0.0
 40
2.0
  1
8
 50
450.0
 41
0.933333
 72
     1
 11
540.329515
 21
7.006694
 31
0.0
 73
     2
  0
ENDBLK
  8
0
  0
BLOCK
  8
0
  6
CONTINUOUS
 62
     7
  2
*U47
 70
    65
 10
0.0
 20
0.0
 30
0.0
  3
*U47
  0
LINE
  8
0
  6
CONTINUOUS
 62
     7
 10
543.06245
 20
14.239752
 30
0.0
 11
536.712754
 21
14.239752
 31
0.0
  0
LINE
  8
0
  6
CONTINUOUS
 62
     7
 10
543.06245
 20
12.639752
 30
0.0
 11
536.712754
 21
12.639752
 31
0.0
  0
LINE
  8
0
  6
CONTINUOUS
 62
     7
 10
538.712754
 20
19.626419
 30
0.0
 11
538.712754
 21
12.639752
 31
0.0
  0
LINE
  8
0
  6
CONTINUOUS
 62
     7
 10
538.19181
 20
17.194175
 30
0.0
 11
538.712754
 21
14.239752
 31
0.0
  0
LINE
  8
0
  6
CONTINUOUS
 62
     7
 10
538.712754
 20
14.239752
 30
0.0
 11
539.233699
 21
17.194175
 31
0.0
  0
LINE
  8
0
  6
CONTINUOUS
 62
     7
 10
539.233699
 20
9.685329
 30
0.0
 11
538.712754
 21
12.639752
 31
0.0
  0
LINE
  8
0
  6
CONTINUOUS
 62
     7
 10
538.712754
 20
12.639752
 30
0.0
 11
538.19181
 21
9.685329
 31
0.0
  0
TEXT
  8
0
  6
CONTINUOUS
 62
     7
 10
537.712754
 20
16.293085
 30
0.0
 40
2.0
  1
10
 50
450.0
 41
0.933333
 72
     1
 11
536.712754
 21
17.959752
 31
0.0
 73
     2
  0
ENDBLK
  8
0
  0
BLOCK
  8
0
  6
CONTINUOUS
 62
     7
  2
*U48
 70
    65
 10
0.0
 20
0.0
 30
0.0
  3
*U48
  0
LINE
  8
0
  6
CONTINUOUS
 62
     7
 10
550.022449
 20
47.599999
 30
0.0
 11
521.501084
 21
47.599999
 31
0.0
  0
LINE
  8
0
  6
CONTINUOUS
 62
     7
 10
562.662454
 20
-26.799999
 30
0.0
 11
521.501084
 21
-26.799999
 31
0.0
  0
LINE
  8
0
  6
CONTINUOUS
 62
     7
 10
523.501084
 20
47.599999
 30
0.0
 11
523.501084
 21
-26.799999
 31
0.0
  0
LINE
  8
0
  6
CONTINUOUS
 62
     7
 10
524.022029
 20
44.645576
 30
0.0
 11
523.501084
 21
47.599999
 31
0.0
  0
LINE
  8
0
  6
CONTINUOUS
 62
     7
 10
523.501084
 20
47.599999
 30
0.0
 11
522.98014
 21
44.645576
 31
0.0
  0
LINE
  8
0
  6
CONTINUOUS
 62
     7
 10
522.98014
 20
-23.845576
 30
0.0
 11
523.501084
 21
-26.799999
 31
0.0
  0
LINE
  8
0
  6
CONTINUOUS
 62
     7
 10
523.501084
 20
-26.799999
 30
0.0
 11
524.022029
 21
-23.845576
 31
0.0
  0
TEXT
  8
0
  6
CONTINUOUS
 62
     7
 10
522.501084
 20
7.653333
 30
0.0
 40
2.0
  1
465
 50
450.0
 41
0.933333
 72
     1
 11
521.501084
 21
10.253333
 31
0.0
 73
     2
  0
ENDBLK
  8
0
  0
BLOCK
  8
0
  6
CONTINUOUS
 62
     7
  2
*U49
 70
    65
 10
0.0
 20
0.0
 30
0.0
  3
*U49
  0
LINE
  8
0
  6
CONTINUOUS
 62
     7
 10
543.06245
 20
15.519752
 30
0.0
 11
532.244991
 21
15.519752
 31
0.0
  0
LINE
  8
0
  6
CONTINUOUS
 62
     7
 10
543.06245
 20
14.239752
 30
0.0
 11
532.244991
 21
14.239752
 31
0.0
  0
LINE
  8
0
  6
CONTINUOUS
 62
     7
 10
534.244991
 20
19.239752
 30
0.0
 11
534.244991
 21
14.239752
 31
0.0
  0
LINE
  8
0
  6
CONTINUOUS
 62
     7
 10
533.724047
 20
18.474175
 30
0.0
 11
534.244991
 21
15.519752
 31
0.0
  0
LINE
  8
0
  6
CONTINUOUS
 62
     7
 10
534.244991
 20
15.519752
 30
0.0
 11
534.765935
 21
18.474175
 31
0.0
  0
LINE
  8
0
  6
CONTINUOUS
 62
     7
 10
534.765935
 20
11.285329
 30
0.0
 11
534.244991
 21
14.239752
 31
0.0
  0
LINE
  8
0
  6
CONTINUOUS
 62
     7
 10
534.244991
 20
14.239752
 30
0.0
 11
533.724047
 21
11.285329
 31
0.0
  0
TEXT
  8
0
  6
CONTINUOUS
 62
     7
 10
533.244991
 20
17.773085
 30
0.0
 40
2.0
  1
8
 50
450.0
 41
0.933333
 72
     1
 11
532.244991
 21
18.506418
 31
0.0
 73
     2
  0
ENDBLK
  8
0
  0
BLOCK
  8
0
  6
CONTINUOUS
 62
     7
  2
*U50
 70
    65
 10
0.0
 20
0.0
 30
0.0
  3
*U50
  0
LINE
  8
0
  6
CONTINUOUS
 62
     7
 10
543.06245
 20
15.519752
 30
0.0
 11
526.234786
 21
15.519752
 31
0.0
  0
LINE
  8
0
  6
CONTINUOUS
 62
     7
 10
543.06245
 20
-6.880249
 30
0.0
 11
526.234786
 21
-6.880249
 31
0.0
  0
LINE
  8
0
  6
CONTINUOUS
 62
     7
 10
528.234786
 20
15.519752
 30
0.0
 11
528.234786
 21
-6.880249
 31
0.0
  0
LINE
  8
0
  6
CONTINUOUS
 62
     7
 10
528.75573
 20
12.565329
 30
0.0
 11
528.234786
 21
15.519752
 31
0.0
  0
LINE
  8
0
  6
CONTINUOUS
 62
     7
 10
528.234786
 20
15.519752
 30
0.0
 11
527.713841
 21
12.565329
 31
0.0
  0
LINE
  8
0
  6
CONTINUOUS
 62
     7
 10
527.713841
 20
-3.925826
 30
0.0
 11
528.234786
 21
-6.880249
 31
0.0
  0
LINE
  8
0
  6
CONTINUOUS
 62
     7
 10
528.234786
 20
-6.880249
 30
0.0
 11
528.75573
 21
-3.925826
 31
0.0
  0
TEXT
  8
0
  6
CONTINUOUS
 62
     7
 10
527.234786
 20
1.573084
 30
0.0
 40
2.0
  1
140
 50
450.0
 41
0.933333
 72
     1
 11
526.234786
 21
4.173084
 31
0.0
 73
     2
  0
ENDBLK
  8
0
  0
BLOCK
  8
0
  6
CONTINUOUS
 62
     7
  2
*U51
 70
    65
 10
0.0
 20
0.0
 30
0.0
  3
*U51
  0
LINE
  8
0
  6
CONTINUOUS
 62
     7
 10
562.662454
 20
-26.799999
 30
0.0
 11
526.234786
 21
-26.799999
 31
0.0
  0
LINE
  8
0
  6
CONTINUOUS
 62
     7
 10
528.234786
 20
-6.880249
 30
0.0
 11
528.234786
 21
-26.799999
 31
0.0
  0
LINE
  8
0
  6
CONTINUOUS
 62
     7
 10
528.75573
 20
-9.834673
 30
0.0
 11
528.234786
 21
-6.880249
 31
0.0
  0
LINE
  8
0
  6
CONTINUOUS
 62
     7
 10
528.234786
 20
-6.880249
 30
0.0
 11
527.713841
 21
-9.834673
 31
0.0
  0
LINE
  8
0
  6
CONTINUOUS
 62
     7
 10
527.713841
 20
-23.845576
 30
0.0
 11
528.234786
 21
-26.799999
 31
0.0
  0
LINE
  8
0
  6
CONTINUOUS
 62
     7
 10
528.234786
 20
-26.799999
 30
0.0
 11
528.75573
 21
-23.845576
 31
0.0
  0
TEXT
  8
0
  6
CONTINUOUS
 62
     7
 10
527.234786
 20
-21.453458
 30
0.0
 40
2.0
  1
124,5
 50
450.0
 41
0.933333
 72
     1
 11
526.234786
 21
-16.986792
 31
0.0
 73
     2
  0
ENDBLK
  8
0
  0
BLOCK
  8
0
  6
CONTINUOUS
 62
     7
  2
*U52
 70
    65
 10
0.0
 20
0.0
 30
0.0
  3
*U52
  0
LINE
  8
0
  6
CONTINUOUS
 62
     7
 10
552.582418
 20
-23.920044
 30
0.0
 11
544.541713
 21
-23.920044
 31
0.0
  0
LINE
  8
0
  6
CONTINUOUS
 62
     7
 10
562.662454
 20
-26.799999
 30
0.0
 11
544.541713
 21
-26.799999
 31
0.0
  0
LINE
  8
0
  6
CONTINUOUS
 62
     7
 10
546.541713
 20
-18.533377
 30
0.0
 11
546.541713
 21
-26.799999
 31
0.0
  0
LINE
  8
0
  6
CONTINUOUS
 62
     7
 10
546.020769
 20
-20.965621
 30
0.0
 11
546.541713
 21
-23.920044
 31
0.0
  0
LINE
  8
0
  6
CONTINUOUS
 62
     7
 10
546.541713
 20
-23.920044
 30
0.0
 11
547.062657
 21
-20.965621
 31
0.0
  0
LINE
  8
0
  6
CONTINUOUS
 62
     7
 10
547.062657
 20
-29.754423
 30
0.0
 11
546.541713
 21
-26.799999
 31
0.0
  0
LINE
  8
0
  6
CONTINUOUS
 62
     7
 10
546.541713
 20
-26.799999
 30
0.0
 11
546.020769
 21
-29.754423
 31
0.0
  0
TEXT
  8
0
  6
CONTINUOUS
 62
     7
 10
545.541713
 20
-21.86671
 30
0.0
 40
2.0
  1
18
 50
450.0
 41
0.933333
 72
     1
 11
544.541713
 21
-20.200043
 31
0.0
 73
     2
  0
ENDBLK
  8
0
  0
BLOCK
  8
0
  6
CONTINUOUS
 62
     7
  2
*U53
 70
    65
 10
0.0
 20
0.0
 30
0.0
  3
*U53
  0
LINE
  8
0
  6
CONTINUOUS
 62
     7
 10
556.622453
 20
-28.440079
 30
0.0
 11
556.622453
 21
-44.612943
 31
0.0
  0
LINE
  8
0
  6
CONTINUOUS
 62
     7
 10
566.062454
 20
-30.498961
 30
0.0
 11
566.062454
 21
-44.612943
 31
0.0
  0
LINE
  8
0
  6
CONTINUOUS
 62
     7
 10
556.622453
 20
-42.612943
 30
0.0
 11
566.062454
 21
-42.612943
 31
0.0
  0
LINE
  8
0
  6
CONTINUOUS
 62
     7
 10
559.576876
 20
-42.091999
 30
0.0
 11
556.622453
 21
-42.612943
 31
0.0
  0
LINE
  8
0
  6
CONTINUOUS
 62
     7
 10
556.622453
 20
-42.612943
 30
0.0
 11
559.576876
 21
-43.133888
 31
0.0
  0
LINE
  8
0
  6
CONTINUOUS
 62
     7
 10
563.108031
 20
-43.133888
 30
0.0
 11
566.062454
 21
-42.612943
 31
0.0
  0
LINE
  8
0
  6
CONTINUOUS
 62
     7
 10
566.062454
 20
-42.612943
 30
0.0
 11
563.108031
 21
-42.091999
 31
0.0
  0
TEXT
  8
0
  6
CONTINUOUS
 62
     7
 10
559.529117
 20
-41.612943
 30
0.0
 40
2.0
  1
59
 50
360.0
 41
0.933333
 72
     1
 11
561.195784
 21
-40.612943
 31
0.0
 73
     2
  0
ENDBLK
  8
0
  0
BLOCK
  8
0
  6
CONTINUOUS
 62
     7
  2
*U54
 70
    65
 10
0.0
 20
0.0
 30
0.0
  3
*U54
  0
LINE
  8
0
  6
CONTINUOUS
 62
     7
 10
604.462453
 20
-30.498961
 30
0.0
 11
604.462453
 21
-44.612943
 31
0.0
  0
LINE
  8
0
  6
CONTINUOUS
 62
     7
 10
566.062454
 20
-42.612943
 30
0.0
 11
604.462453
 21
-42.612943
 31
0.0
  0
LINE
  8
0
  6
CONTINUOUS
 62
     7
 10
569.016877
 20
-42.091999
 30
0.0
 11
566.062454
 21
-42.612943
 31
0.0
  0
LINE
  8
0
  6
CONTINUOUS
 62
     7
 10
566.062454
 20
-42.612943
 30
0.0
 11
569.016877
 21
-43.133888
 31
0.0
  0
LINE
  8
0
  6
CONTINUOUS
 62
     7
 10
601.50803
 20
-43.133888
 30
0.0
 11
604.462453
 21
-42.612943
 31
0.0
  0
LINE
  8
0
  6
CONTINUOUS
 62
     7
 10
604.462453
 20
-42.612943
 30
0.0
 11
601.50803
 21
-42.091999
 31
0.0
  0
TEXT
  8
0
  6
CONTINUOUS
 62
     7
 10
582.515784
 20
-41.612943
 30
0.0
 40
2.0
  1
240
 50
360.0
 41
0.933333
 72
     1
 11
585.115784
 21
-40.612943
 31
0.0
 73
     2
  0
ENDBLK
  8
0
  0
BLOCK
  8
0
  6
CONTINUOUS
 62
     7
  2
*U55
 70
    65
 10
0.0
 20
0.0
 30
0.0
  3
*U55
  0
LINE
  8
0
  6
CONTINUOUS
 62
     7
 10
612.302448
 20
-28.759997
 30
0.0
 11
612.302448
 21
-44.612943
 31
0.0
  0
LINE
  8
0
  6
CONTINUOUS
 62
     7
 10
604.462453
 20
-42.612943
 30
0.0
 11
612.302448
 21
-42.612943
 31
0.0
  0
LINE
  8
0
  6
CONTINUOUS
 62
     7
 10
601.50803
 20
-43.133888
 30
0.0
 11
604.462453
 21
-42.612943
 31
0.0
  0
LINE
  8
0
  6
CONTINUOUS
 62
     7
 10
604.462453
 20
-42.612943
 30
0.0
 11
601.50803
 21
-42.091999
 31
0.0
  0
LINE
  8
0
  6
CONTINUOUS
 62
     7
 10
615.256871
 20
-42.091999
 30
0.0
 11
612.302448
 21
-42.612943
 31
0.0
  0
LINE
  8
0
  6
CONTINUOUS
 62
     7
 10
612.302448
 20
-42.612943
 30
0.0
 11
615.256871
 21
-43.133888
 31
0.0
  0
TEXT
  8
0
  6
CONTINUOUS
 62
     7
 10
606.569114
 20
-41.612943
 30
0.0
 40
2.0
  1
49
 50
360.0
 41
0.933333
 72
     1
 11
608.235781
 21
-40.612943
 31
0.0
 73
     2
  0
ENDBLK
  8
0
  0
BLOCK
  8
0
  6
CONTINUOUS
 62
     7
  2
*U56
 70
    65
 10
0.0
 20
0.0
 30
0.0
  3
*U56
  0
LINE
  8
0
  6
CONTINUOUS
 62
     7
 10
609.942448
 20
47.599999
 30
0.0
 11
631.34452
 21
47.599999
 31
0.0
  0
LINE
  8
0
  6
CONTINUOUS
 62
     7
 10
610.262453
 20
-26.799999
 30
0.0
 11
631.34452
 21
-26.799999
 31
0.0
  0
LINE
  8
0
  6
CONTINUOUS
 62
     7
 10
629.34452
 20
47.599999
 30
0.0
 11
629.34452
 21
-26.799999
 31
0.0
  0
LINE
  8
0
  6
CONTINUOUS
 62
     7
 10
629.865465
 20
44.645576
 30
0.0
 11
629.34452
 21
47.599999
 31
0.0
  0
LINE
  8
0
  6
CONTINUOUS
 62
     7
 10
629.34452
 20
47.599999
 30
0.0
 11
628.823576
 21
44.645576
 31
0.0
  0
LINE
  8
0
  6
CONTINUOUS
 62
     7
 10
628.823576
 20
-23.845576
 30
0.0
 11
629.34452
 21
-26.799999
 31
0.0
  0
LINE
  8
0
  6
CONTINUOUS
 62
     7
 10
629.34452
 20
-26.799999
 30
0.0
 11
629.865465
 21
-23.845576
 31
0.0
  0
TEXT
  8
0
  6
CONTINUOUS
 62
     7
 10
628.34452
 20
12.568511
 30
0.0
 40
2.0
  1
465
 50
450.0
 41
0.933333
 72
     1
 11
627.34452
 21
15.168511
 31
0.0
 73
     2
  0
TEXT
  8
0
  6
CONTINUOUS
 62
     7
 10
628.34452
 20
18.135178
 30
0.0
 40
2.0
  1
 MIN.
 50
450.0
 41
0.933333
 72
     1
 11
627.34452
 21
22.601845
 31
0.0
 73
     2
  0
ENDBLK
  8
0
  0
BLOCK
  8
0
  6
CONTINUOUS
 62
     7
  2
*U57
 70
    65
 10
0.0
 20
0.0
 30
0.0
  3
*U57
  0
LINE
  8
0
  6
CONTINUOUS
 62
     7
 10
622.600826
 20
5.120002
 30
0.0
 11
625.068377
 21
5.120002
 31
0.0
  0
LINE
  8
0
  6
CONTINUOUS
 62
     7
 10
610.262453
 20
-26.799999
 30
0.0
 11
625.068377
 21
-26.799999
 31
0.0
  0
LINE
  8
0
  6
CONTINUOUS
 62
     7
 10
623.068377
 20
5.120002
 30
0.0
 11
623.068377
 21
-26.799999
 31
0.0
  0
LINE
  8
0
  6
CONTINUOUS
 62
     7
 10
623.589321
 20
2.165579
 30
0.0
 11
623.068377
 21
5.120002
 31
0.0
  0
LINE
  8
0
  6
CONTINUOUS
 62
     7
 10
623.068377
 20
5.120002
 30
0.0
 11
622.547433
 21
2.165579
 31
0.0
  0
LINE
  8
0
  6
CONTINUOUS
 62
     7
 10
622.547433
 20
-23.845576
 30
0.0
 11
623.068377
 21
-26.799999
 31
0.0
  0
LINE
  8
0
  6
CONTINUOUS
 62
     7
 10
623.068377
 20
-26.799999
 30
0.0
 11
623.589321
 21
-23.845576
 31
0.0
  0
TEXT
  8
0
  6
CONTINUOUS
 62
     7
 10
622.068377
 20
-15.453333
 30
0.0
 40
2.0
  1
199,5
 50
450.0
 41
0.933333
 72
     1
 11
621.068377
 21
-10.986666
 31
0.0
 73
     2
  0
ENDBLK
  8
0
  0
ENDSEC
  0
SECTION
  2
ENTITIES
  0
VIEWPORT
  8
0
  6
DASHED
 62
     0
 67
     1
 68
     1
 10
0.0
 20
0.0
 30
0.0
 40
1000.0
 41
1000.0
 69
     1
1001
ACAD
1000
MVIEW
1002
{
1070
    16
1010
0.0
1020
0.0
1030
0.0
1010
0.0
1020
0.0
1030
1.0
1040
0.0
1040
1000.0
1040
0.0
1040
0.0
1040
50.0
1040
0.0
1040
0.0
1070
     0
1070
   100
1070
     1
1070
     1
1070
     0
1070
     0
1070
     0
1070
     0
1040
0.0
1040
0.0
1040
0.0
1040
1.0
1040
1.0
1040
1.0
1040
1.0
1070
     0
1002
{
1002
}
1002
}
  0
LINE
  8
0
  6
CONTINUOUS
 62
     2
 10
409.857892
 20
16.880002
 30
0.0
 11
452.497891
 21
16.880002
 31
0.0
  0
LINE
  8
0
  6
CONTINUOUS
 62
     2
 10
409.857892
 20
33.600002
 30
0.0
 11
452.497891
 21
33.600002
 31
0.0
  0
LINE
  8
0
  6
CONTINUOUS
 62
     2
 10
409.897892
 20
14.479984
 30
0.0
 11
409.897892
 21
14.319984
 31
0.0
  0
LINE
  8
0
  6
CONTINUOUS
 62
     2
 10
409.897892
 20
9.919985
 30
0.0
 11
409.897892
 21
9.759985
 31
0.0
  0
LINE
  8
0
  6
CONTINUOUS
 62
     2
 10
409.737892
 20
14.199984
 30
0.0
 11
409.737892
 21
10.039985
 31
0.0
  0
LINE
  8
0
  6
CONTINUOUS
 62
     2
 10
409.857892
 20
9.919985
 30
0.0
 11
409.897892
 21
9.919985
 31
0.0
  0
LINE
  8
0
  6
CONTINUOUS
 62
     2
 10
409.897892
 20
9.919985
 30
0.0
 11
417.737891
 21
9.919985
 31
0.0
  0
LINE
  8
0
  6
CONTINUOUS
 62
     2
 10
417.857891
 20
14.199984
 30
0.0
 11
417.857891
 21
10.039985
 31
0.0
  0
LINE
  8
0
  6
CONTINUOUS
 62
     2
 10
409.897892
 20
14.319984
 30
0.0
 11
417.737891
 21
14.319984
 31
0.0
  0
LINE
  8
0
  6
CONTINUOUS
 62
     2
 10
409.857892
 20
14.319984
 30
0.0
 11
409.897892
 21
14.319984
 31
0.0
  0
LINE
  8
0
  6
CONTINUOUS
 62
     7
 10
410.31504
 20
26.696003
 30
0.0
 11
411.160743
 21
26.696003
 31
0.0
  0
LINE
  8
0
  6
CONTINUOUS
 62
     7
 10
410.31504
 20
26.824001
 30
0.0
 11
411.160743
 21
26.824001
 31
0.0
  0
LINE
  8
0
  6
CONTINUOUS
 62
    98
 10
419.897891
 20
10.080188
 30
0.0
 11
419.897891
 21
-17.834765
 31
0.0
  0
LINE
  8
0
  6
CONTINUOUS
 62
    98
 10
423.097891
 20
10.080188
 30
0.0
 11
423.097891
 21
-17.834765
 31
0.0
  0
LINE
  8
0
  6
CONTINUOUS
 62
    98
 10
419.897891
 20
10.080188
 30
0.0
 11
423.097891
 21
10.080188
 31
0.0
  0
LINE
  8
0
  6
CONTINUOUS
 62
     3
 10
434.937891
 20
12.959984
 30
0.0
 11
435.257891
 21
12.959984
 31
0.0
  0
LINE
  8
0
  6
CONTINUOUS
 62
     3
 10
434.937891
 20
12.959984
 30
0.0
 11
434.937891
 21
11.519984
 31
0.0
  0
LINE
  8
0
  6
CONTINUOUS
 62
     3
 10
434.937891
 20
11.519984
 30
0.0
 11
435.257891
 21
11.519984
 31
0.0
  0
LINE
  8
0
  6
CONTINUOUS
 62
     3
 10
435.257891
 20
12.959984
 30
0.0
 11
435.257891
 21
11.519984
 31
0.0
  0
LINE
  8
0
  6
CONTINUOUS
 62
     3
 10
432.977891
 20
14.319984
 30
0.0
 11
437.217891
 21
14.319984
 31
0.0
  0
LINE
  8
0
  6
CONTINUOUS
 62
   253
 10
429.377891
 20
14.479984
 30
0.0
 11
429.377891
 21
3.199164
 31
0.0
  0
LINE
  8
0
  6
CONTINUOUS
 62
     2
 10
425.137891
 20
14.319984
 30
0.0
 11
429.377891
 21
14.319984
 31
0.0
  0
LINE
  8
0
  6
CONTINUOUS
 62
     5
 10
433.897891
 20
-16.48
 30
0.0
 11
436.297891
 21
-16.48
 31
0.0
  0
LINE
  8
0
  6
CONTINUOUS
 62
     5
 10
436.297891
 20
-16.0
 30
0.0
 11
436.297891
 21
-16.48
 31
0.0
  0
LINE
  8
0
  6
CONTINUOUS
 62
     5
 10
433.897891
 20
-16.0
 30
0.0
 11
436.297891
 21
-16.0
 31
0.0
  0
LINE
  8
0
  6
CONTINUOUS
 62
     5
 10
433.897891
 20
-16.0
 30
0.0
 11
433.897891
 21
-16.48
 31
0.0
  0
LINE
  8
0
  6
CONTINUOUS
 62
     2
 10
409.737892
 20
33.480002
 30
0.0
 11
409.737892
 21
17.000002
 31
0.0
  0
LINE
  8
0
  6
CONTINUOUS
 62
     2
 10
452.617891
 20
33.480002
 30
0.0
 11
452.617891
 21
17.000002
 31
0.0
  0
LINE
  8
0
  6
CONTINUOUS
 62
     2
 10
452.582744
 20
33.564853
 30
0.0
 11
452.61789
 21
33.48
 31
0.0
  0
LINE
  8
0
  6
CONTINUOUS
 62
     2
 10
452.49789
 20
33.6
 30
0.0
 11
452.582743
 21
33.564854
 31
0.0
  0
LINE
  8
0
  6
CONTINUOUS
 62
     2
 10
409.773039
 20
33.564853
 30
0.0
 11
409.737892
 21
33.48
 31
0.0
  0
LINE
  8
0
  6
CONTINUOUS
 62
     2
 10
409.857893
 20
33.6
 30
0.0
 11
409.773039
 21
33.564854
 31
0.0
  0
LINE
  8
0
  6
CONTINUOUS
 62
     2
 10
452.582742
 20
16.915149
 30
0.0
 11
452.497889
 21
16.880001
 31
0.0
  0
LINE
  8
0
  6
CONTINUOUS
 62
     2
 10
452.617889
 20
17.0
 30
0.0
 11
452.582742
 21
16.915148
 31
0.0
  0
LINE
  8
0
  6
CONTINUOUS
 62
     2
 10
452.497891
 20
19.920429
 30
0.0
 11
452.497891
 21
17.000002
 31
0.0
  0
LINE
  8
0
  6
CONTINUOUS
 62
     2
 10
409.857892
 20
17.000002
 30
0.0
 11
452.497891
 21
17.000002
 31
0.0
  0
LINE
  8
0
  6
CONTINUOUS
 62
     2
 10
409.857892
 20
19.920429
 30
0.0
 11
409.857892
 21
17.000002
 31
0.0
  0
LINE
  8
0
  6
CONTINUOUS
 62
     2
 10
409.857892
 20
19.920429
 30
0.0
 11
452.497891
 21
19.920429
 31
0.0
  0
LINE
  8
0
  6
CONTINUOUS
 62
     2
 10
452.617891
 20
-15.239997
 30
0.0
 11
452.617891
 21
-20.919997
 31
0.0
  0
LINE
  8
0
  6
CONTINUOUS
 62
     2
 10
425.257891
 20
-21.039997
 30
0.0
 11
452.497891
 21
-21.039997
 31
0.0
  0
LINE
  8
0
  6
CONTINUOUS
 62
     2
 10
425.173038
 20
-21.004852
 30
0.0
 11
425.257891
 21
-21.039998
 31
0.0
  0
LINE
  8
0
  6
CONTINUOUS
 62
     2
 10
425.137891
 20
-20.919999
 30
0.0
 11
425.173038
 21
-21.004852
 31
0.0
  0
LINE
  8
0
  6
CONTINUOUS
 62
     2
 10
425.137891
 20
-15.239997
 30
0.0
 11
425.137891
 21
-20.919997
 31
0.0
  0
LINE
  8
0
  6
CONTINUOUS
 62
     2
 10
425.257891
 20
-15.119997
 30
0.0
 11
452.497891
 21
-15.119997
 31
0.0
  0
LINE
  8
0
  6
CONTINUOUS
 62
     2
 10
452.457891
 20
-14.959997
 30
0.0
 11
452.457891
 21
-15.119997
 31
0.0
  0
LINE
  8
0
  6
CONTINUOUS
 62
     2
 10
452.617891
 20
-15.239997
 30
0.0
 11
452.617891
 21
-20.919997
 31
0.0
  0
LINE
  8
0
  6
CONTINUOUS
 62
     2
 10
452.457891
 20
-21.039997
 30
0.0
 11
452.457891
 21
-21.199997
 31
0.0
  0
LINE
  8
0
  6
CONTINUOUS
 62
     2
 10
433.577891
 20
-15.44
 30
0.0
 11
436.617891
 21
-15.44
 31
0.0
  0
LINE
  8
0
  6
CONTINUOUS
 62
     2
 10
436.617891
 20
-15.44
 30
0.0
 11
436.617891
 21
-18.56
 31
0.0
  0
LINE
  8
0
  6
CONTINUOUS
 62
     2
 10
433.577891
 20
-18.56
 30
0.0
 11
436.617891
 21
-18.56
 31
0.0
  0
LINE
  8
0
  6
CONTINUOUS
 62
     2
 10
433.577891
 20
-15.44
 30
0.0
 11
433.577891
 21
-18.56
 31
0.0
  0
LINE
  8
0
  6
CONTINUOUS
 62
     2
 10
449.577892
 20
-15.52
 30
0.0
 11
450.857892
 21
-15.52
 31
0.0
  0
LINE
  8
0
  6
CONTINUOUS
 62
     2
 10
450.857892
 20
-15.52
 30
0.0
 11
450.857892
 21
-18.88
 31
0.0
  0
LINE
  8
0
  6
CONTINUOUS
 62
     2
 10
449.577892
 20
-18.88
 30
0.0
 11
450.857892
 21
-18.88
 31
0.0
  0
LINE
  8
0
  6
CONTINUOUS
 62
     2
 10
449.577892
 20
-15.52
 30
0.0
 11
449.577892
 21
-18.88
 31
0.0
  0
LINE
  8
0
  6
CONTINUOUS
 62
   253
 10
409.857892
 20
-23.439997
 30
0.0
 11
452.497891
 21
-23.439997
 31
0.0
  0
LINE
  8
0
  6
CONTINUOUS
 62
   253
 10
424.977891
 20
-21.199997
 30
0.0
 11
452.297891
 21
-21.199997
 31
0.0
  0
LINE
  8
0
  6
CONTINUOUS
 62
   253
 10
424.977891
 20
-14.959997
 30
0.0
 11
452.297891
 21
-14.959997
 31
0.0
  0
LINE
  8
0
  6
CONTINUOUS
 62
   253
 10
429.657891
 20
14.319984
 30
0.0
 11
432.697891
 21
14.319984
 31
0.0
  0
LINE
  8
0
  6
CONTINUOUS
 62
   253
 10
409.737892
 20
16.759984
 30
0.0
 11
409.737892
 21
14.599984
 31
0.0
  0
LINE
  8
0
  6
CONTINUOUS
 62
   253
 10
409.85789
 20
9.759985
 30
0.0
 11
409.773036
 21
9.724838
 31
0.0
  0
LINE
  8
0
  6
CONTINUOUS
 62
   253
 10
409.773037
 20
9.724838
 30
0.0
 11
409.737891
 21
9.639985
 31
0.0
  0
LINE
  8
0
  6
CONTINUOUS
 62
   253
 10
409.737892
 20
9.639985
 30
0.0
 11
409.737892
 21
-14.839998
 31
0.0
  0
LINE
  8
0
  6
CONTINUOUS
 62
   253
 10
409.737893
 20
-14.839996
 30
0.0
 11
409.773039
 21
-14.924848
 31
0.0
  0
LINE
  8
0
  6
CONTINUOUS
 62
   253
 10
409.77304
 20
-14.924849
 30
0.0
 11
409.857893
 21
-14.959997
 31
0.0
  0
LINE
  8
0
  6
CONTINUOUS
 62
   253
 10
409.857892
 20
-14.959997
 30
0.0
 11
409.897892
 21
-14.959997
 31
0.0
  0
LINE
  8
0
  6
CONTINUOUS
 62
   253
 10
409.897892
 20
-14.959997
 30
0.0
 11
409.897892
 21
-15.119997
 31
0.0
  0
LINE
  8
0
  6
CONTINUOUS
 62
   253
 10
409.857892
 20
-15.119997
 30
0.0
 11
409.897892
 21
-15.119997
 31
0.0
  0
LINE
  8
0
  6
CONTINUOUS
 62
   253
 10
409.857894
 20
-15.119996
 30
0.0
 11
409.77304
 21
-15.155144
 31
0.0
  0
LINE
  8
0
  6
CONTINUOUS
 62
   253
 10
409.77304
 20
-15.155143
 30
0.0
 11
409.737893
 21
-15.239995
 31
0.0
  0
LINE
  8
0
  6
CONTINUOUS
 62
   253
 10
409.737892
 20
-15.239997
 30
0.0
 11
409.737892
 21
-20.919997
 31
0.0
  0
LINE
  8
0
  6
CONTINUOUS
 62
   253
 10
409.857892
 20
-21.039997
 30
0.0
 11
409.897892
 21
-21.039997
 31
0.0
  0
LINE
  8
0
  6
CONTINUOUS
 62
   253
 10
409.897892
 20
-21.039997
 30
0.0
 11
409.897892
 21
-21.199997
 31
0.0
  0
LINE
  8
0
  6
CONTINUOUS
 62
   253
 10
409.857892
 20
-21.199997
 30
0.0
 11
409.897892
 21
-21.199997
 31
0.0
  0
LINE
  8
0
  6
CONTINUOUS
 62
   253
 10
409.737892
 20
-21.319997
 30
0.0
 11
409.737892
 21
-23.319997
 31
0.0
  0
LINE
  8
0
  6
CONTINUOUS
 62
   253
 10
409.857892
 20
14.479984
 30
0.0
 11
452.457891
 21
14.479984
 31
0.0
  0
LINE
  8
0
  6
CONTINUOUS
 62
   253
 10
409.857892
 20
9.759985
 30
0.0
 11
418.017891
 21
9.759985
 31
0.0
  0
LINE
  8
0
  6
CONTINUOUS
 62
   253
 10
424.942744
 20
14.284839
 30
0.0
 11
424.977891
 21
14.199985
 31
0.0
  0
LINE
  8
0
  6
CONTINUOUS
 62
   253
 10
424.85789
 20
14.319985
 30
0.0
 11
424.942743
 21
14.284838
 31
0.0
  0
LINE
  8
0
  6
CONTINUOUS
 62
   253
 10
418.137891
 20
14.319984
 30
0.0
 11
424.857891
 21
14.319984
 31
0.0
  0
LINE
  8
0
  6
CONTINUOUS
 62
   253
 10
418.137892
 20
14.319983
 30
0.0
 11
418.05304
 21
14.284837
 31
0.0
  0
LINE
  8
0
  6
CONTINUOUS
 62
   253
 10
418.05304
 20
14.284836
 30
0.0
 11
418.017892
 21
14.199983
 31
0.0
  0
LINE
  8
0
  6
CONTINUOUS
 62
   253
 10
409.897892
 20
-14.959997
 30
0.0
 11
417.737891
 21
-14.959997
 31
0.0
  0
LINE
  8
0
  6
CONTINUOUS
 62
   253
 10
417.822742
 20
-14.924851
 30
0.0
 11
417.73789
 21
-14.959999
 31
0.0
  0
LINE
  8
0
  6
CONTINUOUS
 62
   253
 10
417.85789
 20
-14.839999
 30
0.0
 11
417.822742
 21
-14.924852
 31
0.0
  0
LINE
  8
0
  6
CONTINUOUS
 62
   253
 10
417.857891
 20
9.639985
 30
0.0
 11
417.857891
 21
-14.839998
 31
0.0
  0
LINE
  8
0
  6
CONTINUOUS
 62
   253
 10
417.822744
 20
9.724837
 30
0.0
 11
417.857892
 21
9.639984
 31
0.0
  0
LINE
  8
0
  6
CONTINUOUS
 62
   253
 10
417.737892
 20
9.759984
 30
0.0
 11
417.822744
 21
9.724837
 31
0.0
  0
LINE
  8
0
  6
CONTINUOUS
 62
   253
 10
418.017891
 20
14.479984
 30
0.0
 11
418.017891
 21
-20.919998
 31
0.0
  0
LINE
  8
0
  6
CONTINUOUS
 62
   253
 10
418.017892
 20
-20.919996
 30
0.0
 11
418.053039
 21
-21.004849
 31
0.0
  0
LINE
  8
0
  6
CONTINUOUS
 62
   253
 10
418.05304
 20
-21.00485
 30
0.0
 11
418.137892
 21
-21.039996
 31
0.0
  0
LINE
  8
0
  6
CONTINUOUS
 62
   253
 10
418.137891
 20
-21.039997
 30
0.0
 11
424.857891
 21
-21.039997
 31
0.0
  0
LINE
  8
0
  6
CONTINUOUS
 62
   253
 10
424.942743
 20
-21.004852
 30
0.0
 11
424.85789
 21
-21.039998
 31
0.0
  0
LINE
  8
0
  6
CONTINUOUS
 62
   253
 10
424.977891
 20
-20.919999
 30
0.0
 11
424.942743
 21
-21.004852
 31
0.0
  0
LINE
  8
0
  6
CONTINUOUS
 62
   253
 10
409.897892
 20
-21.199997
 30
0.0
 11
424.977891
 21
-21.199997
 31
0.0
  0
LINE
  8
0
  6
CONTINUOUS
 62
   253
 10
409.897892
 20
-21.039997
 30
0.0
 11
417.737891
 21
-21.039997
 31
0.0
  0
LINE
  8
0
  6
CONTINUOUS
 62
   253
 10
417.822745
 20
-21.004849
 30
0.0
 11
417.737893
 21
-21.039996
 31
0.0
  0
LINE
  8
0
  6
CONTINUOUS
 62
   253
 10
417.857892
 20
-20.919995
 30
0.0
 11
417.822745
 21
-21.004849
 31
0.0
  0
LINE
  8
0
  6
CONTINUOUS
 62
   253
 10
417.857891
 20
-15.239997
 30
0.0
 11
417.857891
 21
-20.919997
 31
0.0
  0
LINE
  8
0
  6
CONTINUOUS
 62
   253
 10
417.822743
 20
-15.155146
 30
0.0
 11
417.857891
 21
-15.239999
 31
0.0
  0
LINE
  8
0
  6
CONTINUOUS
 62
   253
 10
417.73789
 20
-15.119998
 30
0.0
 11
417.822742
 21
-15.155146
 31
0.0
  0
LINE
  8
0
  6
CONTINUOUS
 62
   253
 10
409.897892
 20
-15.119997
 30
0.0
 11
417.737891
 21
-15.119997
 31
0.0
  0
LINE
  8
0
  6
CONTINUOUS
 62
   253
 10
452.217891
 20
14.159984
 30
0.0
 11
452.217891
 21
10.159985
 31
0.0
  0
LINE
  8
0
  6
CONTINUOUS
 62
   253
 10
439.097891
 20
10.159985
 30
0.0
 11
452.217891
 21
10.159985
 31
0.0
  0
LINE
  8
0
  6
CONTINUOUS
 62
   253
 10
439.097891
 20
14.159984
 30
0.0
 11
439.097891
 21
10.159985
 31
0.0
  0
LINE
  8
0
  6
CONTINUOUS
 62
   253
 10
439.097891
 20
14.159984
 30
0.0
 11
452.217891
 21
14.159984
 31
0.0
  0
LINE
  8
0
  6
CONTINUOUS
 62
   253
 10
452.617891
 20
-21.319997
 30
0.0
 11
452.617891
 21
-23.319997
 31
0.0
  0
LINE
  8
0
  6
CONTINUOUS
 62
   253
 10
452.297891
 20
-21.199997
 30
0.0
 11
452.497891
 21
-21.199997
 31
0.0
  0
LINE
  8
0
  6
CONTINUOUS
 62
   253
 10
452.297891
 20
-14.959997
 30
0.0
 11
452.497891
 21
-14.959997
 31
0.0
  0
LINE
  8
0
  6
CONTINUOUS
 62
   253
 10
452.617891
 20
9.719985
 30
0.0
 11
452.617891
 21
-14.839998
 31
0.0
  0
LINE
  8
0
  6
CONTINUOUS
 62
   253
 10
452.617891
 20
14.199984
 30
0.0
 11
452.617891
 21
10.119985
 31
0.0
  0
LINE
  8
0
  6
CONTINUOUS
 62
   253
 10
452.457891
 20
14.319984
 30
0.0
 11
452.497891
 21
14.319984
 31
0.0
  0
LINE
  8
0
  6
CONTINUOUS
 62
   253
 10
452.457891
 20
14.479984
 30
0.0
 11
452.457891
 21
14.319984
 31
0.0
  0
LINE
  8
0
  6
CONTINUOUS
 62
   253
 10
452.457891
 20
14.479984
 30
0.0
 11
452.497891
 21
14.479984
 31
0.0
  0
LINE
  8
0
  6
CONTINUOUS
 62
   253
 10
452.617891
 20
16.759984
 30
0.0
 11
452.617891
 21
14.599984
 31
0.0
  0
LINE
  8
0
  6
CONTINUOUS
 62
   253
 10
437.497891
 20
14.319984
 30
0.0
 11
452.457891
 21
14.319984
 31
0.0
  0
LINE
  8
0
  6
CONTINUOUS
 62
   253
 10
437.497891
 20
9.999985
 30
0.0
 11
452.457891
 21
9.999985
 31
0.0
  0
LINE
  8
0
  6
CONTINUOUS
 62
   253
 10
437.497891
 20
9.839985
 30
0.0
 11
452.457891
 21
9.839985
 31
0.0
  0
LINE
  8
0
  6
CONTINUOUS
 62
   253
 10
452.457891
 20
9.839985
 30
0.0
 11
452.497891
 21
9.839985
 31
0.0
  0
LINE
  8
0
  6
CONTINUOUS
 62
   253
 10
452.457891
 20
9.999985
 30
0.0
 11
452.457891
 21
9.839985
 31
0.0
  0
LINE
  8
0
  6
CONTINUOUS
 62
   253
 10
452.457891
 20
9.999985
 30
0.0
 11
452.497891
 21
9.999985
 31
0.0
  0
LINE
  8
0
  6
CONTINUOUS
 62
   253
 10
437.217891
 20
14.479984
 30
0.0
 11
437.217891
 21
3.199164
 31
0.0
  0
LINE
  8
0
  6
CONTINUOUS
 62
   253
 10
437.201322
 20
9.839984
 30
0.0
 11
437.217891
 21
9.799984
 31
0.0
  0
LINE
  8
0
  6
CONTINUOUS
 62
   253
 10
432.99446
 20
9.839984
 30
0.0
 11
432.977891
 21
9.799984
 31
0.0
  0
LINE
  8
0
  6
CONTINUOUS
 62
   253
 10
432.817891
 20
9.919985
 30
0.0
 11
432.817891
 21
5.279164
 31
0.0
  0
LINE
  8
0
  6
CONTINUOUS
 62
   253
 10
432.817891
 20
5.279164
 30
0.0
 11
432.817891
 21
4.766837
 31
0.0
  0
LINE
  8
0
  6
CONTINUOUS
 62
   253
 10
432.977891
 20
14.479984
 30
0.0
 11
432.977891
 21
3.199164
 31
0.0
  0
LINE
  8
0
  6
CONTINUOUS
 62
   253
 10
432.977891
 20
-8.679811
 30
0.0
 11
433.013038
 21
-8.764664
 31
0.0
  0
LINE
  8
0
  6
CONTINUOUS
 62
   253
 10
433.013038
 20
-8.764664
 30
0.0
 11
433.097891
 21
-8.799811
 31
0.0
  0
LINE
  8
0
  6
CONTINUOUS
 62
   253
 10
433.097891
 20
-8.799811
 30
0.0
 11
437.097891
 21
-8.799811
 31
0.0
  0
LINE
  8
0
  6
CONTINUOUS
 62
   253
 10
437.182744
 20
-8.764664
 30
0.0
 11
437.097891
 21
-8.799811
 31
0.0
  0
LINE
  8
0
  6
CONTINUOUS
 62
   253
 10
437.217891
 20
-8.679811
 30
0.0
 11
437.182744
 21
-8.764664
 31
0.0
  0
LINE
  8
0
  6
CONTINUOUS
 62
   253
 10
437.217891
 20
-1.360836
 30
0.0
 11
437.217891
 21
-8.679811
 31
0.0
  0
LINE
  8
0
  6
CONTINUOUS
 62
   253
 10
437.217891
 20
-11.159811
 30
0.0
 11
437.217891
 21
-14.839997
 31
0.0
  0
LINE
  8
0
  6
CONTINUOUS
 62
   253
 10
437.182744
 20
-11.074958
 30
0.0
 11
437.217891
 21
-11.15981
 31
0.0
  0
LINE
  8
0
  6
CONTINUOUS
 62
   253
 10
437.097891
 20
-11.03981
 30
0.0
 11
437.182743
 21
-11.074958
 31
0.0
  0
LINE
  8
0
  6
CONTINUOUS
 62
   253
 10
433.097891
 20
-11.039811
 30
0.0
 11
437.097891
 21
-11.039811
 31
0.0
  0
LINE
  8
0
  6
CONTINUOUS
 62
   253
 10
433.097891
 20
-11.03981
 30
0.0
 11
433.013038
 21
-11.074958
 31
0.0
  0
LINE
  8
0
  6
CONTINUOUS
 62
   253
 10
433.013038
 20
-11.074959
 30
0.0
 11
432.977891
 21
-11.159811
 31
0.0
  0
LINE
  8
0
  6
CONTINUOUS
 62
   253
 10
432.977891
 20
-11.159811
 30
0.0
 11
432.977891
 21
-14.839997
 31
0.0
  0
LINE
  8
0
  6
CONTINUOUS
 62
   253
 10
432.817891
 20
-1.360836
 30
0.0
 11
432.817891
 21
-14.839997
 31
0.0
  0
LINE
  8
0
  6
CONTINUOUS
 62
   253
 10
432.977891
 20
-1.360836
 30
0.0
 11
432.977891
 21
-8.679811
 31
0.0
  0
LINE
  8
0
  6
CONTINUOUS
 62
   253
 10
432.977891
 20
-10.759809
 30
0.0
 11
433.013038
 21
-10.844662
 31
0.0
  0
LINE
  8
0
  6
CONTINUOUS
 62
   253
 10
433.013038
 20
-10.844664
 30
0.0
 11
433.097891
 21
-10.87981
 31
0.0
  0
LINE
  8
0
  6
CONTINUOUS
 62
   253
 10
433.097891
 20
-10.879811
 30
0.0
 11
437.097891
 21
-10.879811
 31
0.0
  0
LINE
  8
0
  6
CONTINUOUS
 62
   253
 10
437.182744
 20
-10.844665
 30
0.0
 11
437.097891
 21
-10.879811
 31
0.0
  0
LINE
  8
0
  6
CONTINUOUS
 62
   253
 10
437.217891
 20
-10.759811
 30
0.0
 11
437.182744
 21
-10.844665
 31
0.0
  0
LINE
  8
0
  6
CONTINUOUS
 62
   253
 10
437.217891
 20
-9.079811
 30
0.0
 11
437.217891
 21
-10.759811
 31
0.0
  0
LINE
  8
0
  6
CONTINUOUS
 62
   253
 10
437.182744
 20
-8.994958
 30
0.0
 11
437.217891
 21
-9.079811
 31
0.0
  0
LINE
  8
0
  6
CONTINUOUS
 62
   253
 10
437.097891
 20
-8.959811
 30
0.0
 11
437.182744
 21
-8.994958
 31
0.0
  0
LINE
  8
0
  6
CONTINUOUS
 62
   253
 10
433.097891
 20
-8.959811
 30
0.0
 11
437.097891
 21
-8.959811
 31
0.0
  0
LINE
  8
0
  6
CONTINUOUS
 62
   253
 10
433.097891
 20
-8.959811
 30
0.0
 11
433.013038
 21
-8.994958
 31
0.0
  0
LINE
  8
0
  6
CONTINUOUS
 62
   253
 10
433.013038
 20
-8.994958
 30
0.0
 11
432.977891
 21
-9.079811
 31
0.0
  0
LINE
  8
0
  6
CONTINUOUS
 62
   253
 10
432.977891
 20
-9.079811
 30
0.0
 11
432.977891
 21
-10.759811
 31
0.0
  0
LINE
  8
0
  6
CONTINUOUS
 62
   253
 10
432.817891
 20
-0.84851
 30
0.0
 11
432.817891
 21
-1.360836
 31
0.0
  0
LINE
  8
0
  6
CONTINUOUS
 62
   253
 10
432.977891
 20
0.719164
 30
0.0
 11
432.977891
 21
-1.360836
 31
0.0
  0
LINE
  8
0
  6
CONTINUOUS
 62
   253
 10
437.217891
 20
0.719164
 30
0.0
 11
437.217891
 21
-1.360836
 31
0.0
  0
LINE
  8
0
  6
CONTINUOUS
 62
   253
 10
432.817891
 20
3.199164
 30
0.0
 11
437.377891
 21
3.199164
 31
0.0
  0
LINE
  8
0
  6
CONTINUOUS
 62
   253
 10
432.817891
 20
0.719164
 30
0.0
 11
437.377891
 21
0.719164
 31
0.0
  0
LINE
  8
0
  6
CONTINUOUS
 62
   253
 10
432.817891
 20
4.766837
 30
0.0
 11
432.817891
 21
-0.84851
 31
0.0
  0
LINE
  8
0
  6
CONTINUOUS
 62
   253
 10
437.377891
 20
14.479984
 30
0.0
 11
437.377891
 21
-14.839997
 31
0.0
  0
LINE
  8
0
  6
CONTINUOUS
 62
   253
 10
425.137891
 20
14.479984
 30
0.0
 11
425.137891
 21
3.199164
 31
0.0
  0
LINE
  8
0
  6
CONTINUOUS
 62
   253
 10
429.361323
 20
9.839984
 30
0.0
 11
429.377891
 21
9.799984
 31
0.0
  0
LINE
  8
0
  6
CONTINUOUS
 62
   253
 10
425.257891
 20
-8.799811
 30
0.0
 11
429.257891
 21
-8.799811
 31
0.0
  0
LINE
  8
0
  6
CONTINUOUS
 62
   253
 10
429.377891
 20
-1.360836
 30
0.0
 11
429.377891
 21
-8.679811
 31
0.0
  0
LINE
  8
0
  6
CONTINUOUS
 62
   253
 10
429.377891
 20
-11.159811
 30
0.0
 11
429.377891
 21
-14.839997
 31
0.0
  0
LINE
  8
0
  6
CONTINUOUS
 62
   253
 10
425.257891
 20
-11.039811
 30
0.0
 11
429.257891
 21
-11.039811
 31
0.0
  0
LINE
  8
0
  6
CONTINUOUS
 62
   253
 10
425.137891
 20
-11.159811
 30
0.0
 11
425.137891
 21
-14.839997
 31
0.0
  0
LINE
  8
0
  6
CONTINUOUS
 62
   253
 10
424.977891
 20
14.479985
 30
0.0
 11
424.977891
 21
-21.199997
 31
0.0
  0
LINE
  8
0
  6
CONTINUOUS
 62
   253
 10
425.137891
 20
-1.360836
 30
0.0
 11
425.137891
 21
-8.679811
 31
0.0
  0
LINE
  8
0
  6
CONTINUOUS
 62
   253
 10
425.137891
 20
-9.079811
 30
0.0
 11
425.137891
 21
-10.759811
 31
0.0
  0
LINE
  8
0
  6
CONTINUOUS
 62
   253
 10
429.377891
 20
-9.079811
 30
0.0
 11
429.377891
 21
-10.759811
 31
0.0
  0
LINE
  8
0
  6
CONTINUOUS
 62
   253
 10
425.257891
 20
-8.959811
 30
0.0
 11
429.257891
 21
-8.959811
 31
0.0
  0
LINE
  8
0
  6
CONTINUOUS
 62
   253
 10
425.137891
 20
0.719164
 30
0.0
 11
425.137891
 21
-1.360836
 31
0.0
  0
LINE
  8
0
  6
CONTINUOUS
 62
   253
 10
429.377891
 20
0.719164
 30
0.0
 11
429.377891
 21
-1.360836
 31
0.0
  0
LINE
  8
0
  6
CONTINUOUS
 62
   253
 10
424.977891
 20
3.199164
 30
0.0
 11
429.537891
 21
3.199164
 31
0.0
  0
LINE
  8
0
  6
CONTINUOUS
 62
   253
 10
424.977891
 20
0.719164
 30
0.0
 11
429.537891
 21
0.719164
 31
0.0
  0
LINE
  8
0
  6
CONTINUOUS
 62
   253
 10
419.737891
 20
-18.079997
 30
0.0
 11
423.257891
 21
-18.079997
 31
0.0
  0
LINE
  8
0
  6
CONTINUOUS
 62
   253
 10
419.737891
 20
11.519984
 30
0.0
 11
419.737891
 21
-18.079996
 31
0.0
  0
LINE
  8
0
  6
CONTINUOUS
 62
   253
 10
423.257891
 20
11.519984
 30
0.0
 11
423.257891
 21
-18.079996
 31
0.0
  0
LINE
  8
0
  6
CONTINUOUS
 62
   253
 10
432.817891
 20
14.479985
 30
0.0
 11
432.817891
 21
9.919985
 31
0.0
  0
LINE
  8
0
  6
CONTINUOUS
 62
   253
 10
410.777892
 20
34.960002
 30
0.0
 11
410.777892
 21
33.920002
 31
0.0
  0
LINE
  8
0
  6
CONTINUOUS
 62
   253
 10
410.777892
 20
34.960002
 30
0.0
 11
451.577891
 21
34.960002
 31
0.0
  0
LINE
  8
0
  6
CONTINUOUS
 62
   253
 10
451.577891
 20
34.960002
 30
0.0
 11
451.577891
 21
33.920002
 31
0.0
  0
LINE
  8
0
  6
CONTINUOUS
 62
   253
 10
410.777892
 20
33.920002
 30
0.0
 11
451.577891
 21
33.920002
 31
0.0
  0
LINE
  8
0
  6
CONTINUOUS
 62
   253
 10
451.577891
 20
34.960002
 30
0.0
 11
451.577891
 21
34.640002
 31
0.0
  0
LINE
  8
0
  6
CONTINUOUS
 62
   253
 10
410.777892
 20
-23.679997
 30
0.0
 11
451.577891
 21
-23.679997
 31
0.0
  0
LINE
  8
0
  6
CONTINUOUS
 62
   253
 10
410.777892
 20
-23.679997
 30
0.0
 11
410.777892
 21
-25.439997
 31
0.0
  0
LINE
  8
0
  6
CONTINUOUS
 62
   253
 10
430.937891
 20
-25.439997
 30
0.0
 11
439.097002
 21
-25.439997
 31
0.0
  0
LINE
  8
0
  6
CONTINUOUS
 62
   253
 10
441.49878
 20
-25.439997
 30
0.0
 11
461.177004
 21
-25.439997
 31
0.0
  0
LINE
  8
0
  6
CONTINUOUS
 62
   253
 10
463.578781
 20
-25.439997
 30
0.0
 11
471.73789
 21
-25.439997
 31
0.0
  0
LINE
  8
0
  6
CONTINUOUS
 62
   253
 10
451.577891
 20
-23.679997
 30
0.0
 11
451.577891
 21
-25.439997
 31
0.0
  0
LINE
  8
0
  6
CONTINUOUS
 62
   253
 10
430.937891
 20
-25.439997
 30
0.0
 11
471.73789
 21
-25.439997
 31
0.0
  0
LINE
  8
0
  6
CONTINUOUS
 62
     7
 10
451.195039
 20
26.824001
 30
0.0
 11
452.040742
 21
26.824001
 31
0.0
  0
LINE
  8
0
  6
CONTINUOUS
 62
     7
 10
451.195039
 20
26.696003
 30
0.0
 11
452.040742
 21
26.696003
 31
0.0
  0
LINE
  8
0
  6
CONTINUOUS
 62
   212
 10
505.017889
 20
47.039999
 30
0.0
 11
505.497889
 21
47.039999
 31
0.0
  0
LINE
  8
0
  6
CONTINUOUS
 62
   212
 10
505.017889
 20
4.48
 30
0.0
 11
505.497889
 21
4.48
 31
0.0
  0
LINE
  8
0
  6
CONTINUOUS
 62
   212
 10
505.017889
 20
-8.32
 30
0.0
 11
505.497889
 21
-8.32
 31
0.0
  0
LINE
  8
0
  6
CONTINUOUS
 62
   212
 10
505.017889
 20
-26.639999
 30
0.0
 11
505.497889
 21
-26.639999
 31
0.0
  0
LINE
  8
0
  6
CONTINUOUS
 62
   212
 10
505.017889
 20
47.039999
 30
0.0
 11
505.017889
 21
-26.639999
 31
0.0
  0
LINE
  8
0
  6
CONTINUOUS
 62
   212
 10
505.497889
 20
47.039999
 30
0.0
 11
505.497889
 21
-26.639999
 31
0.0
  0
LINE
  8
0
  6
CONTINUOUS
 62
   212
 10
503.657889
 20
-14.24
 30
0.0
 11
505.017889
 21
-14.24
 31
0.0
  0
LINE
  8
0
  6
CONTINUOUS
 62
   212
 10
502.537889
 20
22.879999
 30
0.0
 11
505.017889
 21
22.879999
 31
0.0
  0
LINE
  8
0
  6
CONTINUOUS
 62
   212
 10
502.457889
 20
5.519751
 30
0.0
 11
502.457889
 21
3.679769
 31
0.0
  0
LINE
  8
0
  6
CONTINUOUS
 62
   212
 10
502.937889
 20
5.519751
 30
0.0
 11
502.937889
 21
3.679769
 31
0.0
  0
LINE
  8
0
  6
CONTINUOUS
 62
   212
 10
502.231741
 20
22.819103
 30
0.0
 11
502.217888
 21
22.809847
 31
0.0
  0
LINE
  8
0
  6
CONTINUOUS
 62
   212
 10
502.53789
 20
22.88
 30
0.0
 11
502.231743
 21
22.819104
 31
0.0
  0
LINE
  8
0
  6
CONTINUOUS
 62
   212
 10
505.497889
 20
1.757345
 30
0.0
 11
505.497889
 21
-0.642655
 31
0.0
  0
LINE
  8
0
  6
CONTINUOUS
 62
   212
 10
504.537889
 20
-0.642655
 30
0.0
 11
505.017889
 21
-0.642655
 31
0.0
  0
LINE
  8
0
  6
CONTINUOUS
 62
   212
 10
504.537889
 20
1.757345
 30
0.0
 11
505.017889
 21
1.757345
 31
0.0
  0
LINE
  8
0
  6
CONTINUOUS
 62
   212
 10
336.697893
 20
47.039999
 30
0.0
 11
337.177893
 21
47.039999
 31
0.0
  0
LINE
  8
0
  6
CONTINUOUS
 62
   212
 10
336.697893
 20
4.48
 30
0.0
 11
337.177893
 21
4.48
 31
0.0
  0
LINE
  8
0
  6
CONTINUOUS
 62
   212
 10
336.697893
 20
-8.32
 30
0.0
 11
337.177893
 21
-8.32
 31
0.0
  0
LINE
  8
0
  6
CONTINUOUS
 62
   212
 10
336.697893
 20
-26.639999
 30
0.0
 11
337.177893
 21
-26.639999
 31
0.0
  0
LINE
  8
0
  6
CONTINUOUS
 62
   212
 10
337.177893
 20
47.039999
 30
0.0
 11
337.177893
 21
-26.639999
 31
0.0
  0
LINE
  8
0
  6
CONTINUOUS
 62
   212
 10
336.697893
 20
47.039999
 30
0.0
 11
336.697893
 21
-26.639999
 31
0.0
  0
LINE
  8
0
  6
CONTINUOUS
 62
   212
 10
337.177893
 20
-14.24
 30
0.0
 11
338.537893
 21
-14.24
 31
0.0
  0
LINE
  8
0
  6
CONTINUOUS
 62
   212
 10
337.177893
 20
22.879999
 30
0.0
 11
339.657893
 21
22.879999
 31
0.0
  0
LINE
  8
0
  6
CONTINUOUS
 62
   212
 10
339.257893
 20
5.519751
 30
0.0
 11
339.257893
 21
3.679769
 31
0.0
  0
LINE
  8
0
  6
CONTINUOUS
 62
   212
 10
339.737893
 20
5.519751
 30
0.0
 11
339.737893
 21
3.679769
 31
0.0
  0
LINE
  8
0
  6
CONTINUOUS
 62
   212
 10
339.964042
 20
22.819103
 30
0.0
 11
339.977894
 21
22.809847
 31
0.0
  0
LINE
  8
0
  6
CONTINUOUS
 62
   212
 10
339.657893
 20
22.88
 30
0.0
 11
339.96404
 21
22.819104
 31
0.0
  0
LINE
  8
0
  6
CONTINUOUS
 62
   212
 10
336.697893
 20
1.757345
 30
0.0
 11
336.697893
 21
-0.642655
 31
0.0
  0
LINE
  8
0
  6
CONTINUOUS
 62
   212
 10
337.177893
 20
-0.642655
 30
0.0
 11
337.657893
 21
-0.642655
 31
0.0
  0
LINE
  8
0
  6
CONTINUOUS
 62
   212
 10
337.177893
 20
1.757345
 30
0.0
 11
337.657893
 21
1.757345
 31
0.0
  0
LINE
  8
0
  6
CONTINUOUS
 62
    54
 10
502.777892
 20
-13.440237
 30
0.0
 11
505.017892
 21
-13.440237
 31
0.0
  0
LINE
  8
0
  6
CONTINUOUS
 62
    54
 10
504.937892
 20
-8.800231
 30
0.0
 11
505.017892
 21
-8.800231
 31
0.0
  0
LINE
  8
0
  6
CONTINUOUS
 62
    54
 10
502.777892
 20
-8.800231
 30
0.0
 11
502.777892
 21
-13.440237
 31
0.0
  0
LINE
  8
0
  6
CONTINUOUS
 62
    54
 10
503.497892
 20
-12.000223
 30
0.0
 11
505.017892
 21
-12.000223
 31
0.0
  0
LINE
  8
0
  6
CONTINUOUS
 62
    54
 10
503.497892
 20
-8.800227
 30
0.0
 11
503.497892
 21
-12.000223
 31
0.0
  0
LINE
  8
0
  6
CONTINUOUS
 62
    54
 10
337.177891
 20
-13.440237
 30
0.0
 11
339.417891
 21
-13.440237
 31
0.0
  0
LINE
  8
0
  6
CONTINUOUS
 62
    54
 10
337.177891
 20
-8.800231
 30
0.0
 11
337.257891
 21
-8.800231
 31
0.0
  0
LINE
  8
0
  6
CONTINUOUS
 62
    54
 10
338.617891
 20
-8.800231
 30
0.0
 11
339.417928
 21
-8.800231
 31
0.0
  0
LINE
  8
0
  6
CONTINUOUS
 62
    54
 10
339.417891
 20
-8.800231
 30
0.0
 11
339.417891
 21
-13.440237
 31
0.0
  0
LINE
  8
0
  6
CONTINUOUS
 62
    54
 10
337.177891
 20
-12.000223
 30
0.0
 11
338.697891
 21
-12.000223
 31
0.0
  0
LINE
  8
0
  6
CONTINUOUS
 62
    54
 10
338.697891
 20
-8.800227
 30
0.0
 11
338.697891
 21
-12.000223
 31
0.0
  0
LINE
  8
0
  6
CONTINUOUS
 62
     3
 10
337.337893
 20
-8.634627
 30
0.0
 11
337.337891
 21
-8.720231
 31
0.0
  0
LINE
  8
0
  6
CONTINUOUS
 62
     3
 10
337.337893
 20
-8.634627
 30
0.0
 11
337.337891
 21
-8.979967
 31
0.0
  0
LINE
  8
0
  6
CONTINUOUS
 62
     3
 10
338.537891
 20
-8.560231
 30
0.0
 11
338.537891
 21
-11.60023
 31
0.0
  0
LINE
  8
0
  6
CONTINUOUS
 62
     3
 10
338.617891
 20
-8.800231
 30
0.0
 11
338.617891
 21
-11.36023
 31
0.0
  0
LINE
  8
0
  6
CONTINUOUS
 62
     3
 10
337.257891
 20
-8.800231
 30
0.0
 11
337.257891
 21
-11.36023
 31
0.0
  0
LINE
  8
0
  6
CONTINUOUS
 62
     3
 10
504.857902
 20
-8.560246
 30
0.0
 11
504.857886
 21
-11.600231
 31
0.0
  0
LINE
  8
0
  6
CONTINUOUS
 62
     3
 10
503.657892
 20
-8.560231
 30
0.0
 11
503.657892
 21
-11.60023
 31
0.0
  0
LINE
  8
0
  6
CONTINUOUS
 62
     3
 10
503.577892
 20
-8.800227
 30
0.0
 11
503.577892
 21
-11.36023
 31
0.0
  0
LINE
  8
0
  6
CONTINUOUS
 62
     3
 10
504.937892
 20
-8.800231
 30
0.0
 11
504.937892
 21
-11.36023
 31
0.0
  0
LINE
  8
0
  6
CONTINUOUS
 62
     2
 10
504.985892
 20
-9.280231
 30
0.0
 11
504.985892
 21
-10.88023
 31
0.0
  0
LINE
  8
0
  6
CONTINUOUS
 62
     2
 10
503.545892
 20
-9.280231
 30
0.0
 11
503.545892
 21
-10.88023
 31
0.0
  0
LINE
  8
0
  6
CONTINUOUS
 62
     2
 10
337.20989
 20
-10.841075
 30
0.0
 11
337.20989
 21
-10.88023
 31
0.0
  0
LINE
  8
0
  6
CONTINUOUS
 62
     2
 10
337.20989
 20
-9.280231
 30
0.0
 11
337.20989
 21
-10.88023
 31
0.0
  0
LINE
  8
0
  6
CONTINUOUS
 62
     2
 10
337.20989
 20
-9.319385
 30
0.0
 11
337.20989
 21
-9.56246
 31
0.0
  0
LINE
  8
0
  6
CONTINUOUS
 62
     2
 10
338.64989
 20
-9.280231
 30
0.0
 11
338.64989
 21
-10.88023
 31
0.0
  0
LINE
  8
0
  6
CONTINUOUS
 62
     2
 10
338.137892
 20
-26.319999
 30
0.0
 11
504.057594
 21
-26.319999
 31
0.0
  0
LINE
  8
0
  6
CONTINUOUS
 62
     2
 10
338.137875
 20
-26.799999
 30
0.0
 11
504.056247
 21
-26.799999
 31
0.0
  0
LINE
  8
0
  6
CONTINUOUS
 62
     2
 10
338.169893
 20
-19.12
 30
0.0
 11
339.549248
 21
-19.12
 31
0.0
  0
LINE
  8
0
  6
CONTINUOUS
 62
     2
 10
502.646532
 20
-19.12
 30
0.0
 11
504.025887
 21
-19.12
 31
0.0
  0
LINE
  8
0
  6
CONTINUOUS
 62
     2
 10
338.137893
 20
-26.159997
 30
0.0
 11
338.137893
 21
-26.319999
 31
0.0
  0
LINE
  8
0
  6
CONTINUOUS
 62
     2
 10
504.057889
 20
-26.159997
 30
0.0
 11
504.057889
 21
-26.319999
 31
0.0
  0
LINE
  8
0
  6
CONTINUOUS
 62
     2
 10
337.177893
 20
-20.24
 30
0.0
 11
337.657893
 21
-20.24
 31
0.0
  0
LINE
  8
0
  6
CONTINUOUS
 62
     2
 10
504.537889
 20
-15.36
 30
0.0
 11
504.537889
 21
-25.839999
 31
0.0
  0
LINE
  8
0
  6
CONTINUOUS
 62
     2
 10
504.537889
 20
-20.24
 30
0.0
 11
505.017889
 21
-20.24
 31
0.0
  0
LINE
  8
0
  6
CONTINUOUS
 62
     1
 10
336.617893
 20
-23.519999
 30
0.0
 11
336.617893
 21
-25.279999
 31
0.0
  0
LINE
  8
0
  6
CONTINUOUS
 62
     1
 10
503.857889
 20
-23.383864
 30
0.0
 11
503.857889
 21
-25.416135
 31
0.0
  0
LINE
  8
0
  6
CONTINUOUS
 62
     1
 10
505.577889
 20
-23.519999
 30
0.0
 11
505.577889
 21
-25.279999
 31
0.0
  0
LINE
  8
0
  6
CONTINUOUS
 62
     1
 10
338.337893
 20
-23.383864
 30
0.0
 11
338.337893
 21
-25.416135
 31
0.0
  0
LINE
  8
0
  6
CONTINUOUS
 62
     7
 10
506.057889
 20
-23.935241
 30
0.0
 11
506.057889
 21
-24.864758
 31
0.0
  0
LINE
  8
0
  6
CONTINUOUS
 62
     7
 10
503.657889
 20
-23.919999
 30
0.0
 11
503.657889
 21
-24.879999
 31
0.0
  0
LINE
  8
0
  6
CONTINUOUS
 62
     7
 10
338.537893
 20
-23.919999
 30
0.0
 11
338.537893
 21
-24.879999
 31
0.0
  0
LINE
  8
0
  6
CONTINUOUS
 62
     7
 10
410.617892
 20
34.960002
 30
0.0
 11
410.617892
 21
33.920002
 31
0.0
  0
LINE
  8
0
  6
CONTINUOUS
 62
     7
 10
410.617892
 20
-23.679999
 30
0.0
 11
410.617892
 21
-25.439997
 31
0.0
  0
LINE
  8
0
  6
CONTINUOUS
 62
     7
 10
339.977893
 20
-25.439997
 30
0.0
 11
410.617892
 21
-25.439997
 31
0.0
  0
LINE
  8
0
  6
CONTINUOUS
 62
     7
 10
339.977893
 20
34.960002
 30
0.0
 11
339.977893
 21
-25.439997
 31
0.0
  0
LINE
  8
0
  6
CONTINUOUS
 62
     7
 10
339.977893
 20
34.960002
 30
0.0
 11
410.617892
 21
34.960002
 31
0.0
  0
LINE
  8
0
  6
CONTINUOUS
 62
     7
 10
451.737891
 20
-23.679997
 30
0.0
 11
451.737891
 21
-25.439997
 31
0.0
  0
LINE
  8
0
  6
CONTINUOUS
 62
     7
 10
451.737891
 20
34.960002
 30
0.0
 11
451.737891
 21
33.920002
 31
0.0
  0
LINE
  8
0
  6
CONTINUOUS
 62
     7
 10
451.737891
 20
-25.439997
 30
0.0
 11
502.217889
 21
-25.439997
 31
0.0
  0
LINE
  8
0
  6
CONTINUOUS
 62
     7
 10
502.217889
 20
34.960002
 30
0.0
 11
502.217889
 21
-25.439997
 31
0.0
  0
LINE
  8
0
  6
CONTINUOUS
 62
     7
 10
451.737891
 20
34.960002
 30
0.0
 11
502.217889
 21
34.960002
 31
0.0
  0
LINE
  8
0
  6
CONTINUOUS
 62
     1
 10
422.665891
 20
-24.032014
 30
0.0
 11
422.665891
 21
-24.288015
 31
0.0
  0
LINE
  8
0
  6
CONTINUOUS
 62
     1
 10
422.409891
 20
-24.288015
 30
0.0
 11
422.665891
 21
-24.288015
 31
0.0
  0
LINE
  8
0
  6
CONTINUOUS
 62
     1
 10
422.409891
 20
-24.288015
 30
0.0
 11
422.409891
 21
-24.512014
 31
0.0
  0
LINE
  8
0
  6
CONTINUOUS
 62
     1
 10
422.409891
 20
-24.512014
 30
0.0
 11
422.665891
 21
-24.512014
 31
0.0
  0
LINE
  8
0
  6
CONTINUOUS
 62
     1
 10
422.665891
 20
-24.512014
 30
0.0
 11
422.665891
 21
-24.768015
 31
0.0
  0
LINE
  8
0
  6
CONTINUOUS
 62
     1
 10
422.889891
 20
-24.512014
 30
0.0
 11
422.889891
 21
-24.768015
 31
0.0
  0
LINE
  8
0
  6
CONTINUOUS
 62
     1
 10
422.889891
 20
-24.512014
 30
0.0
 11
423.145891
 21
-24.512014
 31
0.0
  0
LINE
  8
0
  6
CONTINUOUS
 62
     1
 10
423.145891
 20
-24.288015
 30
0.0
 11
423.145891
 21
-24.512014
 31
0.0
  0
LINE
  8
0
  6
CONTINUOUS
 62
     1
 10
422.889891
 20
-24.288015
 30
0.0
 11
423.145891
 21
-24.288015
 31
0.0
  0
LINE
  8
0
  6
CONTINUOUS
 62
     1
 10
422.889891
 20
-24.032014
 30
0.0
 11
422.889891
 21
-24.288015
 31
0.0
  0
LINE
  8
0
  6
CONTINUOUS
 62
     1
 10
422.665891
 20
-24.032014
 30
0.0
 11
422.889891
 21
-24.032014
 31
0.0
  0
LINE
  8
0
  6
CONTINUOUS
 62
     2
 10
502.217889
 20
3.679769
 30
0.0
 11
502.697889
 21
3.679769
 31
0.0
  0
LINE
  8
0
  6
CONTINUOUS
 62
     2
 10
503.177889
 20
-8.000231
 30
0.0
 11
504.937889
 21
-8.000231
 31
0.0
  0
LINE
  8
0
  6
CONTINUOUS
 62
     2
 10
503.177889
 20
-8.480231
 30
0.0
 11
503.737892
 21
-8.480231
 31
0.0
  0
LINE
  8
0
  6
CONTINUOUS
 62
     2
 10
504.937889
 20
-7.76
 30
0.0
 11
504.937889
 21
-8.480231
 31
0.0
  0
LINE
  8
0
  6
CONTINUOUS
 62
     2
 10
503.177889
 20
-7.520231
 30
0.0
 11
503.177889
 21
-8.00023
 31
0.0
  0
LINE
  8
0
  6
CONTINUOUS
 62
     2
 10
504.537889
 20
3.359769
 30
0.0
 11
504.537889
 21
-7.200231
 31
0.0
  0
LINE
  8
0
  6
CONTINUOUS
 62
     2
 10
502.217889
 20
3.679769
 30
0.0
 11
504.217889
 21
3.679769
 31
0.0
  0
LINE
  8
0
  6
CONTINUOUS
 62
     2
 10
502.217889
 20
-7.520231
 30
0.0
 11
504.217889
 21
-7.520231
 31
0.0
  0
LINE
  8
0
  6
CONTINUOUS
 62
     2
 10
337.257893
 20
-8.000231
 30
0.0
 11
339.017893
 21
-8.000231
 31
0.0
  0
LINE
  8
0
  6
CONTINUOUS
 62
     2
 10
337.257893
 20
-8.000231
 30
0.0
 11
337.257893
 21
-8.480231
 31
0.0
  0
LINE
  8
0
  6
CONTINUOUS
 62
     2
 10
337.257893
 20
-8.480231
 30
0.0
 11
339.017894
 21
-8.480231
 31
0.0
  0
LINE
  8
0
  6
CONTINUOUS
 62
     2
 10
337.257893
 20
-7.76
 30
0.0
 11
337.257893
 21
-8.000231
 31
0.0
  0
LINE
  8
0
  6
CONTINUOUS
 62
     2
 10
339.017893
 20
-7.520231
 30
0.0
 11
339.017893
 21
-8.000231
 31
0.0
  0
LINE
  8
0
  6
CONTINUOUS
 62
     2
 10
337.657893
 20
3.359769
 30
0.0
 11
337.657893
 21
-7.200231
 31
0.0
  0
LINE
  8
0
  6
CONTINUOUS
 62
     2
 10
337.977893
 20
3.679769
 30
0.0
 11
339.977893
 21
3.679769
 31
0.0
  0
LINE
  8
0
  6
CONTINUOUS
 62
     2
 10
337.977893
 20
-7.520231
 30
0.0
 11
339.977893
 21
-7.520231
 31
0.0
  0
LINE
  8
0
  6
CONTINUOUS
 62
     7
 10
505.817894
 20
-9.44
 30
0.0
 11
505.817894
 21
-12.8
 31
0.0
  0
LINE
  8
0
  6
CONTINUOUS
 62
     7
 10
336.377888
 20
-9.44
 30
0.0
 11
336.377888
 21
-12.8
 31
0.0
  0
LINE
  8
0
  6
CONTINUOUS
 62
   130
 10
344.457893
 20
-25.439997
 30
0.0
 11
344.457893
 21
-25.679997
 31
0.0
  0
LINE
  8
0
  6
CONTINUOUS
 62
   130
 10
341.257893
 20
-25.679997
 30
0.0
 11
344.457893
 21
-25.679997
 31
0.0
  0
LINE
  8
0
  6
CONTINUOUS
 62
   130
 10
340.857895
 20
-25.572818
 30
0.0
 11
341.257895
 21
-25.679996
 31
0.0
  0
LINE
  8
0
  6
CONTINUOUS
 62
   130
 10
340.725071
 20
-25.439997
 30
0.0
 11
340.857893
 21
-25.572819
 31
0.0
  0
LINE
  8
0
  6
CONTINUOUS
 62
   130
 10
338.777893
 20
10.187453
 30
0.0
 11
338.777893
 21
8.480001
 31
0.0
  0
LINE
  8
0
  6
CONTINUOUS
 62
   130
 10
339.884168
 20
11.625097
 30
0.0
 11
339.012208
 21
10.753138
 31
0.0
  0
LINE
  8
0
  6
CONTINUOUS
 62
   130
 10
338.777893
 20
8.480001
 30
0.0
 11
339.977893
 21
8.480001
 31
0.0
  0
LINE
  8
0
  6
CONTINUOUS
 62
   218
 10
497.73789
 20
-25.439997
 30
0.0
 11
497.73789
 21
-25.679997
 31
0.0
  0
LINE
  8
0
  6
CONTINUOUS
 62
   218
 10
497.73789
 20
-25.679997
 30
0.0
 11
500.93789
 21
-25.679997
 31
0.0
  0
LINE
  8
0
  6
CONTINUOUS
 62
   218
 10
501.337888
 20
-25.572818
 30
0.0
 11
500.937888
 21
-25.679996
 31
0.0
  0
LINE
  8
0
  6
CONTINUOUS
 62
   218
 10
501.470711
 20
-25.439997
 30
0.0
 11
501.337889
 21
-25.572819
 31
0.0
  0
LINE
  8
0
  6
CONTINUOUS
 62
   218
 10
503.417889
 20
10.187453
 30
0.0
 11
503.417889
 21
8.480001
 31
0.0
  0
LINE
  8
0
  6
CONTINUOUS
 62
   218
 10
502.311615
 20
11.625097
 30
0.0
 11
503.183575
 21
10.753138
 31
0.0
  0
LINE
  8
0
  6
CONTINUOUS
 62
   218
 10
502.217889
 20
8.480001
 30
0.0
 11
503.417889
 21
8.480001
 31
0.0
  0
LINE
  8
0
  6
CONTINUOUS
 62
   212
 10
503.897889
 20
-7.520231
 30
0.0
 11
503.897889
 21
-7.76
 31
0.0
  0
LINE
  8
0
  6
CONTINUOUS
 62
   212
 10
503.897889
 20
-7.76
 30
0.0
 11
505.017889
 21
-7.76
 31
0.0
  0
LINE
  8
0
  6
CONTINUOUS
 62
   212
 10
504.537889
 20
-4.56
 30
0.0
 11
505.017889
 21
-4.56
 31
0.0
  0
LINE
  8
0
  6
CONTINUOUS
 62
   212
 10
338.297893
 20
-7.520231
 30
0.0
 11
338.297893
 21
-7.76
 31
0.0
  0
LINE
  8
0
  6
CONTINUOUS
 62
   212
 10
337.177893
 20
-7.76
 30
0.0
 11
338.297893
 21
-7.76
 31
0.0
  0
LINE
  8
0
  6
CONTINUOUS
 62
   212
 10
337.177893
 20
-4.56
 30
0.0
 11
337.657893
 21
-4.56
 31
0.0
  0
LINE
  8
0
  6
CONTINUOUS
 62
     5
 10
336.697893
 20
41.359999
 30
0.0
 11
411.897892
 21
41.359999
 31
0.0
  0
LINE
  8
0
  6
CONTINUOUS
 62
     5
 10
450.457891
 20
41.359999
 30
0.0
 11
504.057889
 21
41.359999
 31
0.0
  0
LINE
  8
0
  6
CONTINUOUS
 62
     5
 10
338.137893
 20
46.959999
 30
0.0
 11
504.057889
 21
46.959999
 31
0.0
  0
LINE
  8
0
  6
CONTINUOUS
 62
     5
 10
338.137893
 20
46.959999
 30
0.0
 11
338.137893
 21
43.759999
 31
0.0
  0
LINE
  8
0
  6
CONTINUOUS
 62
     5
 10
504.057889
 20
46.959999
 30
0.0
 11
504.057889
 21
43.759999
 31
0.0
  0
LINE
  8
0
  6
CONTINUOUS
 62
     5
 10
411.897892
 20
45.039999
 30
0.0
 11
411.897892
 21
41.359999
 31
0.0
  0
LINE
  8
0
  6
CONTINUOUS
 62
     5
 10
411.897892
 20
45.039999
 30
0.0
 11
450.457891
 21
45.039999
 31
0.0
  0
LINE
  8
0
  6
CONTINUOUS
 62
     5
 10
450.457891
 20
45.039999
 30
0.0
 11
450.457891
 21
41.359999
 31
0.0
  0
LINE
  8
0
  6
CONTINUOUS
 62
     5
 10
337.177893
 20
43.759999
 30
0.0
 11
338.137893
 21
43.759999
 31
0.0
  0
LINE
  8
0
  6
CONTINUOUS
 62
     5
 10
504.057889
 20
43.759999
 30
0.0
 11
505.017889
 21
43.759999
 31
0.0
  0
LINE
  8
0
  6
CONTINUOUS
 62
     5
 10
504.057889
 20
41.359999
 30
0.0
 11
505.017889
 21
41.359999
 31
0.0
  0
LINE
  8
0
  6
CONTINUOUS
 62
     5
 10
337.657893
 20
45.999999
 30
0.0
 11
337.657893
 21
43.759999
 31
0.0
  0
LINE
  8
0
  6
CONTINUOUS
 62
     5
 10
504.537889
 20
45.999999
 30
0.0
 11
504.537889
 21
43.759999
 31
0.0
  0
LINE
  8
0
  6
CONTINUOUS
 62
    98
 10
504.02589
 20
-17.919995
 30
0.0
 11
504.537889
 21
-17.919995
 31
0.0
  0
LINE
  8
0
  6
CONTINUOUS
 62
    98
 10
503.497889
 20
-20.239995
 30
0.0
 11
504.537889
 21
-20.239995
 31
0.0
  0
LINE
  8
0
  6
CONTINUOUS
 62
    98
 10
503.497889
 20
-22.479997
 30
0.0
 11
504.537889
 21
-22.479997
 31
0.0
  0
LINE
  8
0
  6
CONTINUOUS
 62
    98
 10
503.497889
 20
-26.159995
 30
0.0
 11
504.057889
 21
-26.159997
 31
0.0
  0
LINE
  8
0
  6
CONTINUOUS
 62
    98
 10
503.497889
 20
-19.679995
 30
0.0
 11
503.497889
 21
-26.159995
 31
0.0
  0
LINE
  8
0
  6
CONTINUOUS
 62
    98
 10
503.497889
 20
-19.679995
 30
0.0
 11
504.02589
 21
-19.679995
 31
0.0
  0
LINE
  8
0
  6
CONTINUOUS
 62
    98
 10
504.02589
 20
-17.919995
 30
0.0
 11
504.02589
 21
-19.679995
 31
0.0
  0
LINE
  8
0
  6
CONTINUOUS
 62
    98
 10
504.537891
 20
-25.679999
 30
0.0
 11
504.057891
 21
-26.159999
 31
0.0
  0
LINE
  8
0
  6
CONTINUOUS
 62
    98
 10
337.657893
 20
-17.919995
 30
0.0
 11
338.169893
 21
-17.919995
 31
0.0
  0
LINE
  8
0
  6
CONTINUOUS
 62
    98
 10
337.657893
 20
-20.239995
 30
0.0
 11
338.697893
 21
-20.239995
 31
0.0
  0
LINE
  8
0
  6
CONTINUOUS
 62
    98
 10
337.657893
 20
-22.479997
 30
0.0
 11
338.697893
 21
-22.479997
 31
0.0
  0
LINE
  8
0
  6
CONTINUOUS
 62
    98
 10
338.697893
 20
-26.159995
 30
0.0
 11
338.137893
 21
-26.159997
 31
0.0
  0
LINE
  8
0
  6
CONTINUOUS
 62
    98
 10
338.697893
 20
-19.679995
 30
0.0
 11
338.697893
 21
-26.159995
 31
0.0
  0
LINE
  8
0
  6
CONTINUOUS
 62
    98
 10
338.169893
 20
-19.679995
 30
0.0
 11
338.697893
 21
-19.679995
 31
0.0
  0
LINE
  8
0
  6
CONTINUOUS
 62
    98
 10
338.169893
 20
-17.919995
 30
0.0
 11
338.169893
 21
-19.679995
 31
0.0
  0
LINE
  8
0
  6
CONTINUOUS
 62
    98
 10
337.657892
 20
-25.679999
 30
0.0
 11
338.137892
 21
-26.159999
 31
0.0
  0
LINE
  8
0
  6
CONTINUOUS
 62
     1
 10
505.577889
 20
45.439999
 30
0.0
 11
505.577889
 21
43.679999
 31
0.0
  0
LINE
  8
0
  6
CONTINUOUS
 62
     1
 10
336.617893
 20
45.439999
 30
0.0
 11
336.617893
 21
43.679999
 31
0.0
  0
LINE
  8
0
  6
CONTINUOUS
 62
     7
 10
506.057889
 20
45.024755
 30
0.0
 11
506.057889
 21
44.095243
 31
0.0
  0
LINE
  8
0
  6
CONTINUOUS
 62
     7
 10
336.137893
 20
45.024755
 30
0.0
 11
336.137893
 21
44.095243
 31
0.0
  0
LINE
  8
0
  6
CONTINUOUS
 62
     3
 10
503.657892
 20
-8.634625
 30
0.0
 11
503.657892
 21
-8.721833
 31
0.0
  0
LINE
  8
0
  6
CONTINUOUS
 62
     3
 10
337.337893
 20
-8.634627
 30
0.0
 11
337.337891
 21
-8.720231
 31
0.0
  0
LINE
  8
0
  6
CONTINUOUS
 62
     3
 10
337.337893
 20
-8.786794
 30
0.0
 11
337.337893
 21
-8.800231
 31
0.0
  0
LINE
  8
0
  6
CONTINUOUS
 62
     3
 10
337.337893
 20
-8.634627
 30
0.0
 11
337.337893
 21
-8.720231
 31
0.0
  0
LINE
  8
0
  6
CONTINUOUS
 62
     3
 10
337.337893
 20
-8.634627
 30
0.0
 11
337.337891
 21
-8.720231
 31
0.0
  0
LINE
  8
0
  6
CONTINUOUS
 62
     3
 10
338.537891
 20
-8.634625
 30
0.0
 11
338.537891
 21
-8.721833
 31
0.0
  0
LINE
  8
0
  6
CONTINUOUS
 62
     2
 10
337.177893
 20
46.159999
 30
0.0
 11
337.209719
 21
46.159999
 31
0.0
  0
LINE
  8
0
  6
CONTINUOUS
 62
     2
 10
337.700764
 20
46.159999
 30
0.0
 11
338.137893
 21
46.159999
 31
0.0
  0
LINE
  8
0
  6
CONTINUOUS
 62
     2
 10
504.057889
 20
46.159999
 30
0.0
 11
504.495018
 21
46.159999
 31
0.0
  0
LINE
  8
0
  6
CONTINUOUS
 62
     2
 10
504.986063
 20
46.159999
 30
0.0
 11
505.017889
 21
46.159999
 31
0.0
  0
LINE
  8
0
  6
CONTINUOUS
 62
     2
 10
337.177893
 20
46.959999
 30
0.0
 11
338.137893
 21
46.959999
 31
0.0
  0
LINE
  8
0
  6
CONTINUOUS
 62
     2
 10
504.057889
 20
46.959999
 30
0.0
 11
505.017889
 21
46.959999
 31
0.0
  0
LINE
  8
0
  6
CONTINUOUS
 62
     1
 10
505.577889
 20
-20.479998
 30
0.0
 11
505.577889
 21
-22.24
 31
0.0
  0
LINE
  8
0
  6
CONTINUOUS
 62
     1
 10
336.617893
 20
-20.479998
 30
0.0
 11
336.617893
 21
-22.24
 31
0.0
  0
LINE
  8
0
  6
CONTINUOUS
 62
     7
 10
506.057889
 20
-20.895241
 30
0.0
 11
506.057889
 21
-21.824755
 31
0.0
  0
LINE
  8
0
  6
CONTINUOUS
 62
     7
 10
336.137893
 20
-20.895241
 30
0.0
 11
336.137893
 21
-21.824755
 31
0.0
  0
LINE
  8
0
  6
CONTINUOUS
 62
     1
 10
339.609893
 20
-10.848578
 30
0.0
 11
339.609893
 21
-12.031447
 31
0.0
  0
LINE
  8
0
  6
CONTINUOUS
 62
     1
 10
502.58589
 20
-10.848578
 30
0.0
 11
502.58589
 21
-12.031447
 31
0.0
  0
LINE
  8
0
  6
CONTINUOUS
 62
     1
 10
504.401888
 20
46.159999
 30
0.0
 11
504.401888
 21
45.576137
 31
0.0
  0
LINE
  8
0
  6
CONTINUOUS
 62
     1
 10
337.793894
 20
46.159999
 30
0.0
 11
337.793894
 21
45.576137
 31
0.0
  0
LINE
  8
0
  6
CONTINUOUS
 62
     1
 10
505.59389
 20
46.199999
 30
0.0
 11
505.59389
 21
45.399999
 31
0.0
  0
LINE
  8
0
  6
CONTINUOUS
 62
     1
 10
336.601892
 20
46.199999
 30
0.0
 11
336.601892
 21
45.399999
 31
0.0
  0
LINE
  8
0
  6
CONTINUOUS
 62
   218
 10
504.31389
 20
45.839999
 30
0.0
 11
504.31389
 21
45.576137
 31
0.0
  0
LINE
  8
0
  6
CONTINUOUS
 62
   218
 10
506.041888
 20
46.16663
 30
0.0
 11
506.041888
 21
45.046005
 31
0.0
  0
LINE
  8
0
  6
CONTINUOUS
 62
   218
 10
337.881892
 20
45.839999
 30
0.0
 11
337.881892
 21
45.576137
 31
0.0
  0
LINE
  8
0
  6
CONTINUOUS
 62
   218
 10
336.153894
 20
46.16663
 30
0.0
 11
336.153894
 21
45.046005
 31
0.0
  0
LINE
  8
0
  6
CONTINUOUS
 62
     1
 10
505.577889
 20
-25.279999
 30
0.0
 11
505.577889
 21
-25.679997
 31
0.0
  0
LINE
  8
0
  6
CONTINUOUS
 62
     1
 10
336.617893
 20
-25.279999
 30
0.0
 11
336.617893
 21
-25.679997
 31
0.0
  0
LINE
  8
0
  6
CONTINUOUS
 62
     7
 10
506.057889
 20
-24.864758
 30
0.0
 11
506.057889
 21
-25.264755
 31
0.0
  0
LINE
  8
0
  6
CONTINUOUS
 62
     7
 10
336.137893
 20
-23.935241
 30
0.0
 11
336.137893
 21
-25.264755
 31
0.0
  0
LINE
  8
0
  6
CONTINUOUS
 62
     1
 10
339.417893
 20
-21.421191
 30
0.0
 11
339.417893
 21
-22.899208
 31
0.0
  0
LINE
  8
0
  6
CONTINUOUS
 62
     1
 10
502.777889
 20
-21.421191
 30
0.0
 11
502.777889
 21
-22.899208
 31
0.0
  0
LINE
  8
0
  6
CONTINUOUS
 62
   132
 10
338.537893
 20
-13.60023
 30
0.0
 11
338.537893
 21
-15.04023
 31
0.0
  0
LINE
  8
0
  6
CONTINUOUS
 62
   132
 10
338.537893
 20
-13.60023
 30
0.0
 11
339.977893
 21
-13.60023
 31
0.0
  0
LINE
  8
0
  6
CONTINUOUS
 62
   132
 10
338.537893
 20
-15.04023
 30
0.0
 11
339.977893
 21
-15.04023
 31
0.0
  0
LINE
  8
0
  6
CONTINUOUS
 62
   132
 10
503.657889
 20
-13.60023
 30
0.0
 11
503.657889
 21
-15.04023
 31
0.0
  0
LINE
  8
0
  6
CONTINUOUS
 62
   132
 10
502.217889
 20
-13.60023
 30
0.0
 11
503.657889
 21
-13.60023
 31
0.0
  0
LINE
  8
0
  6
CONTINUOUS
 62
   132
 10
502.217889
 20
-15.04023
 30
0.0
 11
503.657889
 21
-15.04023
 31
0.0
  0
LINE
  8
0
  6
CONTINUOUS
 62
     1
 10
502.377889
 20
-16.640268
 30
0.0
 11
502.377889
 21
-19.520268
 31
0.0
  0
LINE
  8
0
  6
CONTINUOUS
 62
     1
 10
502.377889
 20
8.480001
 30
0.0
 11
502.377889
 21
7.039728
 31
0.0
  0
LINE
  8
0
  6
CONTINUOUS
 62
     1
 10
339.817893
 20
-16.640268
 30
0.0
 11
339.817893
 21
-19.520268
 31
0.0
  0
LINE
  8
0
  6
CONTINUOUS
 62
     1
 10
339.817893
 20
8.480001
 30
0.0
 11
339.817893
 21
7.039728
 31
0.0
  0
LINE
  8
0
  6
CONTINUOUS
 62
     1
 10
339.129893
 20
-17.488834
 30
0.0
 11
339.129893
 21
-18.671704
 31
0.0
  0
LINE
  8
0
  6
CONTINUOUS
 62
     1
 10
503.06589
 20
8.480001
 30
0.0
 11
503.06589
 21
7.888296
 31
0.0
  0
LINE
  8
0
  6
CONTINUOUS
 62
     1
 10
503.06589
 20
-17.488834
 30
0.0
 11
503.06589
 21
-18.671704
 31
0.0
  0
LINE
  8
0
  6
CONTINUOUS
 62
     1
 10
339.129893
 20
8.480001
 30
0.0
 11
339.129893
 21
7.888296
 31
0.0
  0
LINE
  8
0
  6
CONTINUOUS
 62
     3
 10
337.337893
 20
-8.634627
 30
0.0
 11
337.337891
 21
-8.720231
 31
0.0
  0
LINE
  8
0
  6
CONTINUOUS
 62
     3
 10
337.337893
 20
-8.634627
 30
0.0
 11
337.337893
 21
-8.720231
 31
0.0
  0
LINE
  8
0
  6
CONTINUOUS
 62
     3
 10
337.337893
 20
-8.634627
 30
0.0
 11
337.337891
 21
-8.720231
 31
0.0
  0
LINE
  8
0
  6
CONTINUOUS
 62
     3
 10
338.537891
 20
-8.634625
 30
0.0
 11
338.537891
 21
-8.721833
 31
0.0
  0
LINE
  8
0
  6
CONTINUOUS
 62
     3
 10
503.657892
 20
-8.634625
 30
0.0
 11
503.657892
 21
-8.721833
 31
0.0
  0
LINE
  8
0
  6
CONTINUOUS
 62
     1
 10
502.777889
 20
-21.421184
 30
0.0
 11
502.777889
 21
-21.790688
 31
0.0
  0
LINE
  8
0
  6
CONTINUOUS
 62
     1
 10
339.417893
 20
-21.421184
 30
0.0
 11
339.417893
 21
-21.790688
 31
0.0
  0
LINE
  8
0
  6
CONTINUOUS
 62
     7
 10
506.057889
 20
-23.935241
 30
0.0
 11
506.057889
 21
-23.97062
 31
0.0
  0
LINE
  8
0
  6
CONTINUOUS
 62
     7
 10
336.137893
 20
-23.935241
 30
0.0
 11
336.137893
 21
-23.97062
 31
0.0
  0
LINE
  8
0
  6
CONTINUOUS
 62
   130
 10
336.457893
 20
5.757345
 30
0.0
 11
336.457893
 21
4.157345
 31
0.0
  0
LINE
  8
0
  6
CONTINUOUS
 62
   130
 10
338.627493
 20
5.357345
 30
0.0
 11
338.627493
 21
4.557345
 31
0.0
  0
LINE
  8
0
  6
CONTINUOUS
 62
   130
 10
338.745894
 20
5.357345
 30
0.0
 11
338.745894
 21
4.557345
 31
0.0
  0
LINE
  8
0
  6
CONTINUOUS
 62
   130
 10
338.937893
 20
5.277345
 30
0.0
 11
338.937893
 21
4.637345
 31
0.0
  0
LINE
  8
0
  6
CONTINUOUS
 62
   130
 10
505.737889
 20
5.757345
 30
0.0
 11
505.737889
 21
4.157345
 31
0.0
  0
LINE
  8
0
  6
CONTINUOUS
 62
   130
 10
503.56829
 20
5.357345
 30
0.0
 11
503.56829
 21
4.557345
 31
0.0
  0
LINE
  8
0
  6
CONTINUOUS
 62
   130
 10
503.449889
 20
5.357345
 30
0.0
 11
503.449889
 21
4.557345
 31
0.0
  0
LINE
  8
0
  6
CONTINUOUS
 62
   130
 10
503.257889
 20
5.277345
 30
0.0
 11
503.257889
 21
4.637345
 31
0.0
  0
LINE
  8
0
  6
CONTINUOUS
 62
     5
 10
503.06589
 20
-18.4
 30
0.0
 11
504.02589
 21
-18.4
 31
0.0
  0
LINE
  8
0
  6
CONTINUOUS
 62
     5
 10
338.169893
 20
-18.4
 30
0.0
 11
339.129893
 21
-18.4
 31
0.0
  0
LINE
  8
0
  6
CONTINUOUS
 62
     5
 10
338.137893
 20
-14.4
 30
0.0
 11
338.537893
 21
-14.4
 31
0.0
  0
LINE
  8
0
  6
CONTINUOUS
 62
     5
 10
503.657889
 20
-14.4
 30
0.0
 11
504.057889
 21
-14.4
 31
0.0
  0
LINE
  8
0
  6
CONTINUOUS
 62
     5
 10
338.137893
 20
-14.4
 30
0.0
 11
338.137893
 21
-17.919995
 31
0.0
  0
LINE
  8
0
  6
CONTINUOUS
 62
     5
 10
504.057889
 20
-14.4
 30
0.0
 11
504.057889
 21
-17.919995
 31
0.0
  0
LINE
  8
0
  6
CONTINUOUS
 62
     5
 10
337.181094
 20
-18.4
 30
0.0
 11
337.657893
 21
-18.4
 31
0.0
  0
LINE
  8
0
  6
CONTINUOUS
 62
     5
 10
338.137894
 20
-14.400635
 30
0.0
 11
337.773717
 21
-14.473075
 31
0.0
  0
LINE
  8
0
  6
CONTINUOUS
 62
     5
 10
338.137894
 20
-14.880857
 30
0.0
 11
337.901095
 21
-14.944307
 31
0.0
  0
LINE
  8
0
  6
CONTINUOUS
 62
     5
 10
337.901093
 20
-14.944308
 30
0.0
 11
337.725399
 21
-15.120001
 31
0.0
  0
LINE
  8
0
  6
CONTINUOUS
 62
     5
 10
337.7254
 20
-15.12
 30
0.0
 11
337.661094
 21
-15.36
 31
0.0
  0
LINE
  8
0
  6
CONTINUOUS
 62
     5
 10
504.537889
 20
-18.4
 30
0.0
 11
505.017889
 21
-18.4
 31
0.0
  0
LINE
  8
0
  6
CONTINUOUS
 62
     5
 10
338.137893
 20
27.039999
 30
0.0
 11
339.977893
 21
27.039999
 31
0.0
  0
LINE
  8
0
  6
CONTINUOUS
 62
     5
 10
502.217889
 20
27.039999
 30
0.0
 11
504.057889
 21
27.039999
 31
0.0
  0
LINE
  8
0
  6
CONTINUOUS
 62
     5
 10
502.217889
 20
23.039999
 30
0.0
 11
504.057889
 21
23.039999
 31
0.0
  0
LINE
  8
0
  6
CONTINUOUS
 62
     5
 10
338.137893
 20
23.039999
 30
0.0
 11
339.977891
 21
23.039999
 31
0.0
  0
LINE
  8
0
  6
CONTINUOUS
 62
     5
 10
338.137893
 20
27.039999
 30
0.0
 11
338.137893
 21
23.039999
 31
0.0
  0
LINE
  8
0
  6
CONTINUOUS
 62
     5
 10
504.057889
 20
27.039999
 30
0.0
 11
504.057889
 21
23.039999
 31
0.0
  0
LINE
  8
0
  6
CONTINUOUS
 62
     5
 10
337.181094
 20
27.039999
 30
0.0
 11
337.661094
 21
27.039999
 31
0.0
  0
LINE
  8
0
  6
CONTINUOUS
 62
     5
 10
337.773719
 20
23.113074
 30
0.0
 11
338.137896
 21
23.040635
 31
0.0
  0
LINE
  8
0
  6
CONTINUOUS
 62
     5
 10
337.901095
 20
23.584305
 30
0.0
 11
338.137894
 21
23.520856
 31
0.0
  0
LINE
  8
0
  6
CONTINUOUS
 62
     5
 10
337.661094
 20
27.039999
 30
0.0
 11
337.661094
 21
23.999999
 31
0.0
  0
LINE
  8
0
  6
CONTINUOUS
 62
     5
 10
504.537889
 20
27.039999
 30
0.0
 11
505.017889
 21
27.039999
 31
0.0
  0
LINE
  8
0
  6
CONTINUOUS
 62
     5
 10
504.537889
 20
27.039999
 30
0.0
 11
504.537889
 21
23.999999
 31
0.0
  0
LINE
  8
0
  6
CONTINUOUS
 62
     1
 10
336.617893
 20
-15.76
 30
0.0
 11
336.617893
 21
-17.52
 31
0.0
  0
LINE
  8
0
  6
CONTINUOUS
 62
     1
 10
336.617893
 20
26.159999
 30
0.0
 11
336.617893
 21
24.399999
 31
0.0
  0
LINE
  8
0
  6
CONTINUOUS
 62
     1
 10
505.577889
 20
-15.76
 30
0.0
 11
505.577889
 21
-17.52
 31
0.0
  0
LINE
  8
0
  6
CONTINUOUS
 62
     1
 10
505.577889
 20
26.159999
 30
0.0
 11
505.577889
 21
24.399999
 31
0.0
  0
LINE
  8
0
  6
CONTINUOUS
 62
     7
 10
336.137893
 20
-16.175241
 30
0.0
 11
336.137893
 21
-17.104758
 31
0.0
  0
LINE
  8
0
  6
CONTINUOUS
 62
     7
 10
336.137893
 20
25.744758
 30
0.0
 11
336.137893
 21
24.815241
 31
0.0
  0
LINE
  8
0
  6
CONTINUOUS
 62
     7
 10
506.057889
 20
25.744758
 30
0.0
 11
506.057889
 21
24.815241
 31
0.0
  0
LINE
  8
0
  6
CONTINUOUS
 62
     7
 10
506.057889
 20
-16.175241
 30
0.0
 11
506.057889
 21
-17.104758
 31
0.0
  0
LINE
  8
0
  6
CONTINUOUS
 62
     7
 10
336.137893
 20
-16.175241
 30
0.0
 11
336.137893
 21
-16.21062
 31
0.0
  0
LINE
  8
0
  6
CONTINUOUS
 62
     7
 10
506.057889
 20
25.744758
 30
0.0
 11
506.057889
 21
25.709379
 31
0.0
  0
LINE
  8
0
  6
CONTINUOUS
 62
     7
 10
336.137893
 20
25.744758
 30
0.0
 11
336.137893
 21
25.709379
 31
0.0
  0
LINE
  8
0
  6
CONTINUOUS
 62
     7
 10
506.057889
 20
-16.175241
 30
0.0
 11
506.057889
 21
-16.21062
 31
0.0
  0
LINE
  8
0
  6
CONTINUOUS
 62
     1
 10
504.401888
 20
46.159999
 30
0.0
 11
504.401888
 21
45.935692
 31
0.0
  0
LINE
  8
0
  6
CONTINUOUS
 62
     1
 10
337.793894
 20
46.159999
 30
0.0
 11
337.793894
 21
45.935692
 31
0.0
  0
LINE
  8
0
  6
CONTINUOUS
 62
   218
 10
504.31389
 20
45.64246
 30
0.0
 11
504.31389
 21
45.576137
 31
0.0
  0
LINE
  8
0
  6
CONTINUOUS
 62
   218
 10
504.31389
 20
45.839999
 30
0.0
 11
504.31389
 21
45.815639
 31
0.0
  0
LINE
  8
0
  6
CONTINUOUS
 62
   218
 10
506.041888
 20
46.16663
 30
0.0
 11
506.041888
 21
45.046005
 31
0.0
  0
LINE
  8
0
  6
CONTINUOUS
 62
   218
 10
337.881892
 20
45.839999
 30
0.0
 11
337.881892
 21
45.815639
 31
0.0
  0
LINE
  8
0
  6
CONTINUOUS
 62
   218
 10
337.881892
 20
45.64246
 30
0.0
 11
337.881892
 21
45.576137
 31
0.0
  0
LINE
  8
0
  6
CONTINUOUS
 62
   218
 10
336.153894
 20
46.16663
 30
0.0
 11
336.153894
 21
45.046005
 31
0.0
  0
LINE
  8
0
  6
CONTINUOUS
 62
     2
 10
425.137891
 20
11.259643
 30
0.0
 11
429.377891
 21
11.259643
 31
0.0
  0
LINE
  8
0
  6
CONTINUOUS
 62
     2
 10
425.137891
 20
11.180953
 30
0.0
 11
429.377891
 21
11.180953
 31
0.0
  0
LINE
  8
0
  6
CONTINUOUS
 62
     2
 10
425.137891
 20
11.108907
 30
0.0
 11
429.377891
 21
11.108907
 31
0.0
  0
LINE
  8
0
  6
CONTINUOUS
 62
     2
 10
425.137891
 20
11.027202
 30
0.0
 11
429.377891
 21
11.027202
 31
0.0
  0
LINE
  8
0
  6
CONTINUOUS
 62
     2
 10
425.137891
 20
10.959898
 30
0.0
 11
429.377891
 21
10.959898
 31
0.0
  0
LINE
  8
0
  6
CONTINUOUS
 62
     2
 10
425.137891
 20
10.875302
 30
0.0
 11
429.377891
 21
10.875302
 31
0.0
  0
LINE
  8
0
  6
CONTINUOUS
 62
     2
 10
425.137891
 20
10.812843
 30
0.0
 11
429.377891
 21
10.812843
 31
0.0
  0
LINE
  8
0
  6
CONTINUOUS
 62
     2
 10
425.137891
 20
10.725484
 30
0.0
 11
429.377891
 21
10.725484
 31
0.0
  0
LINE
  8
0
  6
CONTINUOUS
 62
     2
 10
425.137891
 20
10.667966
 30
0.0
 11
429.377891
 21
10.667966
 31
0.0
  0
LINE
  8
0
  6
CONTINUOUS
 62
     2
 10
425.137891
 20
10.577979
 30
0.0
 11
429.377891
 21
10.577979
 31
0.0
  0
LINE
  8
0
  6
CONTINUOUS
 62
     2
 10
425.137891
 20
10.525488
 30
0.0
 11
429.377891
 21
10.525488
 31
0.0
  0
LINE
  8
0
  6
CONTINUOUS
 62
     2
 10
425.137891
 20
10.433011
 30
0.0
 11
429.377891
 21
10.433011
 31
0.0
  0
LINE
  8
0
  6
CONTINUOUS
 62
     2
 10
425.137891
 20
10.425591
 30
0.0
 11
429.377891
 21
10.425591
 31
0.0
  0
LINE
  8
0
  6
CONTINUOUS
 62
     3
 10
432.977891
 20
11.259641
 30
0.0
 11
437.217891
 21
11.259641
 31
0.0
  0
LINE
  8
0
  6
CONTINUOUS
 62
     3
 10
432.977891
 20
11.180953
 30
0.0
 11
437.217891
 21
11.180953
 31
0.0
  0
LINE
  8
0
  6
CONTINUOUS
 62
     3
 10
432.977891
 20
11.108907
 30
0.0
 11
437.217891
 21
11.108907
 31
0.0
  0
LINE
  8
0
  6
CONTINUOUS
 62
     3
 10
432.977891
 20
11.027202
 30
0.0
 11
437.217891
 21
11.027202
 31
0.0
  0
LINE
  8
0
  6
CONTINUOUS
 62
     3
 10
432.977891
 20
10.959898
 30
0.0
 11
437.217891
 21
10.959898
 31
0.0
  0
LINE
  8
0
  6
CONTINUOUS
 62
     3
 10
432.977891
 20
10.875302
 30
0.0
 11
437.217891
 21
10.875302
 31
0.0
  0
LINE
  8
0
  6
CONTINUOUS
 62
     3
 10
432.977891
 20
10.812843
 30
0.0
 11
437.217891
 21
10.812843
 31
0.0
  0
LINE
  8
0
  6
CONTINUOUS
 62
     3
 10
432.977891
 20
10.725484
 30
0.0
 11
437.217891
 21
10.725484
 31
0.0
  0
LINE
  8
0
  6
CONTINUOUS
 62
     3
 10
432.977891
 20
10.667966
 30
0.0
 11
437.217891
 21
10.667966
 31
0.0
  0
LINE
  8
0
  6
CONTINUOUS
 62
     3
 10
432.977891
 20
10.577979
 30
0.0
 11
437.217891
 21
10.577979
 31
0.0
  0
LINE
  8
0
  6
CONTINUOUS
 62
     3
 10
432.977891
 20
10.525488
 30
0.0
 11
437.217891
 21
10.525488
 31
0.0
  0
LINE
  8
0
  6
CONTINUOUS
 62
     3
 10
432.977891
 20
10.433011
 30
0.0
 11
437.217891
 21
10.433011
 31
0.0
  0
LINE
  8
0
  6
CONTINUOUS
 62
     3
 10
432.977891
 20
10.425591
 30
0.0
 11
437.217891
 21
10.425591
 31
0.0
  0
LINE
  8
0
  6
CONTINUOUS
 62
    98
 10
419.897891
 20
-10.719809
 30
0.0
 11
423.097891
 21
-10.719809
 31
0.0
  0
LINE
  8
0
  6
CONTINUOUS
 62
    98
 10
419.897891
 20
-17.834765
 30
0.0
 11
423.097891
 21
-17.834765
 31
0.0
  0
LINE
  8
0
  6
CONTINUOUS
 62
     2
 10
409.857892
 20
10.039985
 30
0.0
 11
417.737891
 21
10.039985
 31
0.0
  0
LINE
  8
0
  6
CONTINUOUS
 62
     2
 10
409.857892
 20
14.199984
 30
0.0
 11
417.737891
 21
14.199984
 31
0.0
  0
LINE
  8
0
  6
CONTINUOUS
 62
     2
 10
417.737891
 20
14.199984
 30
0.0
 11
417.737891
 21
10.039985
 31
0.0
  0
LINE
  8
0
  6
CONTINUOUS
 62
     2
 10
409.857892
 20
14.199984
 30
0.0
 11
409.857892
 21
10.039985
 31
0.0
  0
LINE
  8
0
  6
CONTINUOUS
 62
     2
 10
409.737892
 20
31.520002
 30
0.0
 11
452.617891
 21
31.520002
 31
0.0
  0
LINE
  8
0
  6
CONTINUOUS
 62
     2
 10
409.737892
 20
22.000002
 30
0.0
 11
452.617891
 21
22.000002
 31
0.0
  0
LINE
  8
0
  6
CONTINUOUS
 62
     2
 10
452.497891
 20
19.920429
 30
0.0
 11
452.617891
 21
19.920429
 31
0.0
  0
LINE
  8
0
  6
CONTINUOUS
 62
     2
 10
409.737892
 20
19.920429
 30
0.0
 11
409.857892
 21
19.920429
 31
0.0
  0
LINE
  8
0
  6
CONTINUOUS
 62
     2
 10
425.257891
 20
-15.239997
 30
0.0
 11
425.257891
 21
-20.919997
 31
0.0
  0
LINE
  8
0
  6
CONTINUOUS
 62
     2
 10
452.497891
 20
-15.239997
 30
0.0
 11
452.497891
 21
-20.919997
 31
0.0
  0
LINE
  8
0
  6
CONTINUOUS
 62
     2
 10
425.257891
 20
-15.239997
 30
0.0
 11
452.497891
 21
-15.239997
 31
0.0
  0
LINE
  8
0
  6
CONTINUOUS
 62
     2
 10
425.257891
 20
-20.919997
 30
0.0
 11
452.497891
 21
-20.919997
 31
0.0
  0
LINE
  8
0
  6
CONTINUOUS
 62
   253
 10
451.577891
 20
33.920002
 30
0.0
 11
452.937891
 21
33.920002
 31
0.0
  0
LINE
  8
0
  6
CONTINUOUS
 62
   253
 10
409.417892
 20
33.920002
 30
0.0
 11
410.777892
 21
33.920002
 31
0.0
  0
LINE
  8
0
  6
CONTINUOUS
 62
   253
 10
409.581595
 20
33.760002
 30
0.0
 11
452.777893
 21
33.760002
 31
0.0
  0
LINE
  8
0
  6
CONTINUOUS
 62
   253
 10
409.737892
 20
14.639984
 30
0.0
 11
452.617891
 21
14.639984
 31
0.0
  0
LINE
  8
0
  6
CONTINUOUS
 62
   253
 10
409.737892
 20
-21.359997
 30
0.0
 11
452.617891
 21
-21.359997
 31
0.0
  0
LINE
  8
0
  6
CONTINUOUS
 62
   253
 10
409.417892
 20
-23.679997
 30
0.0
 11
410.777892
 21
-23.679997
 31
0.0
  0
LINE
  8
0
  6
CONTINUOUS
 62
   253
 10
451.577891
 20
-23.679997
 30
0.0
 11
452.937891
 21
-23.679997
 31
0.0
  0
LINE
  8
0
  6
CONTINUOUS
 62
   253
 10
452.497891
 20
-23.599997
 30
0.0
 11
452.777891
 21
-23.599997
 31
0.0
  0
LINE
  8
0
  6
CONTINUOUS
 62
   253
 10
409.857892
 20
-23.599997
 30
0.0
 11
452.497891
 21
-23.599997
 31
0.0
  0
LINE
  8
0
  6
CONTINUOUS
 62
   253
 10
409.581595
 20
-23.599997
 30
0.0
 11
409.857892
 21
-23.599997
 31
0.0
  0
LINE
  8
0
  6
CONTINUOUS
 62
   253
 10
452.937891
 20
33.920002
 30
0.0
 11
452.937891
 21
-23.679997
 31
0.0
  0
LINE
  8
0
  6
CONTINUOUS
 62
   253
 10
452.93789
 20
33.920001
 30
0.0
 11
452.77789
 21
33.760001
 31
0.0
  0
LINE
  8
0
  6
CONTINUOUS
 62
   253
 10
452.777891
 20
33.760002
 30
0.0
 11
452.777891
 21
16.879984
 31
0.0
  0
LINE
  8
0
  6
CONTINUOUS
 62
   253
 10
452.777891
 20
-23.439997
 30
0.0
 11
452.777891
 21
-23.599997
 31
0.0
  0
LINE
  8
0
  6
CONTINUOUS
 62
   253
 10
452.77789
 20
-23.599997
 30
0.0
 11
452.93789
 21
-23.679997
 31
0.0
  0
LINE
  8
0
  6
CONTINUOUS
 62
   253
 10
409.581595
 20
-23.599997
 30
0.0
 11
409.417891
 21
-23.679997
 31
0.0
  0
LINE
  8
0
  6
CONTINUOUS
 62
   253
 10
409.581595
 20
-23.439997
 30
0.0
 11
409.581595
 21
-23.599997
 31
0.0
  0
LINE
  8
0
  6
CONTINUOUS
 62
   253
 10
409.581595
 20
33.760002
 30
0.0
 11
409.581595
 21
16.879984
 31
0.0
  0
LINE
  8
0
  6
CONTINUOUS
 62
   253
 10
409.417893
 20
33.92
 30
0.0
 11
409.581596
 21
33.76
 31
0.0
  0
LINE
  8
0
  6
CONTINUOUS
 62
   253
 10
409.417892
 20
33.920002
 30
0.0
 11
409.417892
 21
-23.679997
 31
0.0
  0
LINE
  8
0
  6
CONTINUOUS
 62
   253
 10
409.581595
 20
16.879984
 30
0.0
 11
409.581595
 21
-23.439996
 31
0.0
  0
LINE
  8
0
  6
CONTINUOUS
 62
   253
 10
452.777891
 20
16.879984
 30
0.0
 11
452.777891
 21
-23.439996
 31
0.0
  0
LINE
  8
0
  6
CONTINUOUS
 62
   253
 10
432.977891
 20
4.766837
 30
0.0
 11
437.217891
 21
4.766837
 31
0.0
  0
LINE
  8
0
  6
CONTINUOUS
 62
   253
 10
432.977891
 20
-0.84851
 30
0.0
 11
437.217891
 21
-0.84851
 31
0.0
  0
LINE
  8
0
  6
CONTINUOUS
 62
   253
 10
425.137891
 20
4.766837
 30
0.0
 11
429.377891
 21
4.766837
 31
0.0
  0
LINE
  8
0
  6
CONTINUOUS
 62
   253
 10
425.137891
 20
-0.84851
 30
0.0
 11
429.377891
 21
-0.84851
 31
0.0
  0
LINE
  8
0
  6
CONTINUOUS
 62
   253
 10
425.15446
 20
9.839985
 30
0.0
 11
429.361323
 21
9.839985
 31
0.0
  0
LINE
  8
0
  6
CONTINUOUS
 62
   253
 10
432.99446
 20
9.839985
 30
0.0
 11
437.201322
 21
9.839985
 31
0.0
  0
LINE
  8
0
  6
CONTINUOUS
 62
     5
 10
449.577892
 20
-15.91864
 30
0.0
 11
450.857892
 21
-15.91864
 31
0.0
  0
LINE
  8
0
  6
CONTINUOUS
 62
     5
 10
449.577892
 20
-15.935737
 30
0.0
 11
450.857892
 21
-15.935737
 31
0.0
  0
LINE
  8
0
  6
CONTINUOUS
 62
     5
 10
449.577892
 20
-15.904261
 30
0.0
 11
450.857892
 21
-15.904261
 31
0.0
  0
LINE
  8
0
  6
CONTINUOUS
 62
    54
 10
504.937892
 20
-9.265685
 30
0.0
 11
505.017892
 21
-9.265685
 31
0.0
  0
LINE
  8
0
  6
CONTINUOUS
 62
    54
 10
503.497892
 20
-9.265685
 30
0.0
 11
503.577889
 21
-9.265685
 31
0.0
  0
LINE
  8
0
  6
CONTINUOUS
 62
    54
 10
337.177891
 20
-9.265685
 30
0.0
 11
337.257891
 21
-9.265685
 31
0.0
  0
LINE
  8
0
  6
CONTINUOUS
 62
    54
 10
338.617893
 20
-9.265685
 30
0.0
 11
338.697891
 21
-9.265685
 31
0.0
  0
LINE
  8
0
  6
CONTINUOUS
 62
     3
 10
337.337894
 20
-11.600228
 30
0.0
 11
337.417891
 21
-11.68023
 31
0.0
  0
LINE
  8
0
  6
CONTINUOUS
 62
     3
 10
337.417891
 20
-8.48023
 30
0.0
 11
337.337894
 21
-8.560233
 31
0.0
  0
LINE
  8
0
  6
CONTINUOUS
 62
     3
 10
337.417891
 20
-11.68023
 30
0.0
 11
338.457891
 21
-11.68023
 31
0.0
  0
LINE
  8
0
  6
CONTINUOUS
 62
     3
 10
337.417891
 20
-8.480231
 30
0.0
 11
337.417891
 21
-11.68023
 31
0.0
  0
LINE
  8
0
  6
CONTINUOUS
 62
     3
 10
338.537891
 20
-11.60023
 30
0.0
 11
338.457891
 21
-11.68023
 31
0.0
  0
LINE
  8
0
  6
CONTINUOUS
 62
     3
 10
338.457891
 20
-8.480231
 30
0.0
 11
338.537891
 21
-8.560231
 31
0.0
  0
LINE
  8
0
  6
CONTINUOUS
 62
     3
 10
504.857889
 20
-11.600228
 30
0.0
 11
504.777891
 21
-11.68023
 31
0.0
  0
LINE
  8
0
  6
CONTINUOUS
 62
     3
 10
504.777891
 20
-8.48023
 30
0.0
 11
504.857889
 21
-8.560233
 31
0.0
  0
LINE
  8
0
  6
CONTINUOUS
 62
     3
 10
504.777892
 20
-11.601921
 30
0.0
 11
504.777892
 21
-11.68023
 31
0.0
  0
LINE
  8
0
  6
CONTINUOUS
 62
     3
 10
503.737892
 20
-11.68023
 30
0.0
 11
504.777892
 21
-11.68023
 31
0.0
  0
LINE
  8
0
  6
CONTINUOUS
 62
     3
 10
504.777892
 20
-11.374658
 30
0.0
 11
504.777892
 21
-11.601921
 31
0.0
  0
LINE
  8
0
  6
CONTINUOUS
 62
     3
 10
504.777892
 20
-11.020687
 30
0.0
 11
504.777892
 21
-11.374658
 31
0.0
  0
LINE
  8
0
  6
CONTINUOUS
 62
     3
 10
504.777892
 20
-10.574658
 30
0.0
 11
504.777892
 21
-11.020687
 31
0.0
  0
LINE
  8
0
  6
CONTINUOUS
 62
     3
 10
504.777892
 20
-10.08023
 30
0.0
 11
504.777892
 21
-10.574658
 31
0.0
  0
LINE
  8
0
  6
CONTINUOUS
 62
     3
 10
504.777892
 20
-9.585804
 30
0.0
 11
504.777892
 21
-10.08023
 31
0.0
  0
LINE
  8
0
  6
CONTINUOUS
 62
     3
 10
504.777892
 20
-9.139774
 30
0.0
 11
504.777892
 21
-9.585804
 31
0.0
  0
LINE
  8
0
  6
CONTINUOUS
 62
     3
 10
504.777892
 20
-8.785804
 30
0.0
 11
504.777892
 21
-9.139774
 31
0.0
  0
LINE
  8
0
  6
CONTINUOUS
 62
     3
 10
504.777892
 20
-8.55854
 30
0.0
 11
504.777892
 21
-8.785804
 31
0.0
  0
LINE
  8
0
  6
CONTINUOUS
 62
     3
 10
504.777892
 20
-8.480231
 30
0.0
 11
504.777892
 21
-8.55854
 31
0.0
  0
LINE
  8
0
  6
CONTINUOUS
 62
     3
 10
503.657891
 20
-11.60023
 30
0.0
 11
503.737891
 21
-11.68023
 31
0.0
  0
LINE
  8
0
  6
CONTINUOUS
 62
     3
 10
503.737891
 20
-8.480231
 30
0.0
 11
503.657891
 21
-8.560231
 31
0.0
  0
LINE
  8
0
  6
CONTINUOUS
 62
     2
 10
504.985892
 20
-10.72023
 30
0.0
 11
505.017889
 21
-10.72023
 31
0.0
  0
LINE
  8
0
  6
CONTINUOUS
 62
     2
 10
504.985892
 20
-9.440231
 30
0.0
 11
505.017889
 21
-9.440231
 31
0.0
  0
LINE
  8
0
  6
CONTINUOUS
 62
     2
 10
504.937892
 20
-10.88023
 30
0.0
 11
504.985892
 21
-10.88023
 31
0.0
  0
LINE
  8
0
  6
CONTINUOUS
 62
     2
 10
503.545892
 20
-10.88023
 30
0.0
 11
503.577892
 21
-10.88023
 31
0.0
  0
LINE
  8
0
  6
CONTINUOUS
 62
     2
 10
504.937892
 20
-9.280231
 30
0.0
 11
504.985892
 21
-9.280231
 31
0.0
  0
LINE
  8
0
  6
CONTINUOUS
 62
     2
 10
503.545892
 20
-9.280231
 30
0.0
 11
503.577892
 21
-9.280231
 31
0.0
  0
LINE
  8
0
  6
CONTINUOUS
 62
     2
 10
503.497892
 20
-10.72023
 30
0.0
 11
503.545892
 21
-10.72023
 31
0.0
  0
LINE
  8
0
  6
CONTINUOUS
 62
     2
 10
503.545892
 20
-9.440231
 30
0.0
 11
503.497892
 21
-9.440231
 31
0.0
  0
LINE
  8
0
  6
CONTINUOUS
 62
     2
 10
337.177893
 20
-10.72023
 30
0.0
 11
337.20989
 21
-10.72023
 31
0.0
  0
LINE
  8
0
  6
CONTINUOUS
 62
     2
 10
337.177893
 20
-9.440231
 30
0.0
 11
337.20989
 21
-9.440231
 31
0.0
  0
LINE
  8
0
  6
CONTINUOUS
 62
     2
 10
337.20989
 20
-10.88023
 30
0.0
 11
337.257891
 21
-10.88023
 31
0.0
  0
LINE
  8
0
  6
CONTINUOUS
 62
     2
 10
338.617891
 20
-10.88023
 30
0.0
 11
338.64989
 21
-10.88023
 31
0.0
  0
LINE
  8
0
  6
CONTINUOUS
 62
     2
 10
337.20989
 20
-9.280231
 30
0.0
 11
337.257891
 21
-9.280231
 31
0.0
  0
LINE
  8
0
  6
CONTINUOUS
 62
     2
 10
338.617891
 20
-9.280231
 30
0.0
 11
338.64989
 21
-9.280231
 31
0.0
  0
LINE
  8
0
  6
CONTINUOUS
 62
     2
 10
338.64989
 20
-10.72023
 30
0.0
 11
338.697891
 21
-10.72023
 31
0.0
  0
LINE
  8
0
  6
CONTINUOUS
 62
     2
 10
338.64989
 20
-9.440231
 30
0.0
 11
338.697891
 21
-9.440231
 31
0.0
  0
LINE
  8
0
  6
CONTINUOUS
 62
     2
 10
345.617893
 20
-25.519999
 30
0.0
 11
496.57789
 21
-25.519999
 31
0.0
  0
LINE
  8
0
  6
CONTINUOUS
 62
     1
 10
336.617893
 20
-25.279999
 30
0.0
 11
336.697893
 21
-25.279999
 31
0.0
  0
LINE
  8
0
  6
CONTINUOUS
 62
     1
 10
336.617893
 20
-23.519999
 30
0.0
 11
336.697893
 21
-23.519999
 31
0.0
  0
LINE
  8
0
  6
CONTINUOUS
 62
     1
 10
503.857889
 20
-25.416135
 30
0.0
 11
504.537889
 21
-25.416135
 31
0.0
  0
LINE
  8
0
  6
CONTINUOUS
 62
     1
 10
503.857889
 20
-24.908068
 30
0.0
 11
504.537889
 21
-24.908068
 31
0.0
  0
LINE
  8
0
  6
CONTINUOUS
 62
     1
 10
503.857889
 20
-23.891931
 30
0.0
 11
504.537889
 21
-23.891931
 31
0.0
  0
LINE
  8
0
  6
CONTINUOUS
 62
     1
 10
503.857889
 20
-23.383864
 30
0.0
 11
504.537889
 21
-23.383864
 31
0.0
  0
LINE
  8
0
  6
CONTINUOUS
 62
     1
 10
505.497889
 20
-25.279999
 30
0.0
 11
505.577889
 21
-25.279999
 31
0.0
  0
LINE
  8
0
  6
CONTINUOUS
 62
     1
 10
505.497889
 20
-23.519999
 30
0.0
 11
505.577889
 21
-23.519999
 31
0.0
  0
LINE
  8
0
  6
CONTINUOUS
 62
     1
 10
337.657893
 20
-25.416135
 30
0.0
 11
338.337893
 21
-25.416135
 31
0.0
  0
LINE
  8
0
  6
CONTINUOUS
 62
     1
 10
337.657893
 20
-24.908068
 30
0.0
 11
338.337893
 21
-24.908068
 31
0.0
  0
LINE
  8
0
  6
CONTINUOUS
 62
     1
 10
337.657893
 20
-23.891931
 30
0.0
 11
338.337893
 21
-23.891931
 31
0.0
  0
LINE
  8
0
  6
CONTINUOUS
 62
     1
 10
337.657893
 20
-23.383864
 30
0.0
 11
338.337893
 21
-23.383864
 31
0.0
  0
LINE
  8
0
  6
CONTINUOUS
 62
     7
 10
505.577889
 20
-25.239999
 30
0.0
 11
505.682648
 21
-25.239999
 31
0.0
  0
LINE
  8
0
  6
CONTINUOUS
 62
     7
 10
505.682648
 20
-23.559999
 30
0.0
 11
505.682648
 21
-25.639997
 31
0.0
  0
LINE
  8
0
  6
CONTINUOUS
 62
     7
 10
505.577889
 20
-23.559999
 30
0.0
 11
505.682648
 21
-23.559999
 31
0.0
  0
LINE
  8
0
  6
CONTINUOUS
 62
     7
 10
503.657889
 20
-23.919999
 30
0.0
 11
503.857889
 21
-23.919999
 31
0.0
  0
LINE
  8
0
  6
CONTINUOUS
 62
     7
 10
503.657889
 20
-24.879999
 30
0.0
 11
503.857889
 21
-24.879999
 31
0.0
  0
LINE
  8
0
  6
CONTINUOUS
 62
     7
 10
336.513135
 20
-25.239999
 30
0.0
 11
336.617893
 21
-25.239999
 31
0.0
  0
LINE
  8
0
  6
CONTINUOUS
 62
     7
 10
336.513135
 20
-23.559999
 30
0.0
 11
336.617893
 21
-23.559999
 31
0.0
  0
LINE
  8
0
  6
CONTINUOUS
 62
     7
 10
338.337893
 20
-23.919999
 30
0.0
 11
338.537893
 21
-23.919999
 31
0.0
  0
LINE
  8
0
  6
CONTINUOUS
 62
     7
 10
338.337893
 20
-24.879999
 30
0.0
 11
338.537893
 21
-24.879999
 31
0.0
  0
LINE
  8
0
  6
CONTINUOUS
 62
     7
 10
505.497894
 20
-12.8
 30
0.0
 11
505.817894
 21
-12.8
 31
0.0
  0
LINE
  8
0
  6
CONTINUOUS
 62
     7
 10
505.497894
 20
-10.88
 30
0.0
 11
505.817894
 21
-10.88
 31
0.0
  0
LINE
  8
0
  6
CONTINUOUS
 62
     7
 10
336.377888
 20
-12.8
 30
0.0
 11
336.697888
 21
-12.8
 31
0.0
  0
LINE
  8
0
  6
CONTINUOUS
 62
     7
 10
336.377888
 20
-10.88
 30
0.0
 11
336.697888
 21
-10.88
 31
0.0
  0
LINE
  8
0
  6
CONTINUOUS
 62
     1
 10
504.057889
 20
44.051933
 30
0.0
 11
504.537889
 21
44.051933
 31
0.0
  0
LINE
  8
0
  6
CONTINUOUS
 62
     1
 10
504.057889
 20
45.576137
 30
0.0
 11
504.537889
 21
45.576137
 31
0.0
  0
LINE
  8
0
  6
CONTINUOUS
 62
     1
 10
504.057889
 20
45.068065
 30
0.0
 11
504.537889
 21
45.068065
 31
0.0
  0
LINE
  8
0
  6
CONTINUOUS
 62
     1
 10
505.497889
 20
43.679999
 30
0.0
 11
505.577889
 21
43.679999
 31
0.0
  0
LINE
  8
0
  6
CONTINUOUS
 62
     1
 10
505.497889
 20
45.439999
 30
0.0
 11
505.577889
 21
45.439999
 31
0.0
  0
LINE
  8
0
  6
CONTINUOUS
 62
     1
 10
336.617893
 20
43.679999
 30
0.0
 11
336.697893
 21
43.679999
 31
0.0
  0
LINE
  8
0
  6
CONTINUOUS
 62
     1
 10
336.617893
 20
45.439999
 30
0.0
 11
336.697893
 21
45.439999
 31
0.0
  0
LINE
  8
0
  6
CONTINUOUS
 62
     1
 10
337.657893
 20
44.051933
 30
0.0
 11
338.137893
 21
44.051933
 31
0.0
  0
LINE
  8
0
  6
CONTINUOUS
 62
     1
 10
337.657893
 20
45.068065
 30
0.0
 11
338.137893
 21
45.068065
 31
0.0
  0
LINE
  8
0
  6
CONTINUOUS
 62
     1
 10
337.657893
 20
45.576137
 30
0.0
 11
338.137893
 21
45.576137
 31
0.0
  0
LINE
  8
0
  6
CONTINUOUS
 62
     7
 10
505.577889
 20
43.719999
 30
0.0
 11
505.682648
 21
43.719999
 31
0.0
  0
LINE
  8
0
  6
CONTINUOUS
 62
     7
 10
505.682648
 20
45.399999
 30
0.0
 11
505.682648
 21
43.719999
 31
0.0
  0
LINE
  8
0
  6
CONTINUOUS
 62
     7
 10
505.577889
 20
45.399999
 30
0.0
 11
505.682648
 21
45.399999
 31
0.0
  0
LINE
  8
0
  6
CONTINUOUS
 62
     7
 10
336.513135
 20
43.719999
 30
0.0
 11
336.617893
 21
43.719999
 31
0.0
  0
LINE
  8
0
  6
CONTINUOUS
 62
     7
 10
336.513135
 20
45.399999
 30
0.0
 11
336.513135
 21
43.719999
 31
0.0
  0
LINE
  8
0
  6
CONTINUOUS
 62
     7
 10
336.513135
 20
45.399999
 30
0.0
 11
336.617893
 21
45.399999
 31
0.0
  0
LINE
  8
0
  6
CONTINUOUS
 62
     3
 10
504.777892
 20
-8.785804
 30
0.0
 11
504.777892
 21
-8.800231
 31
0.0
  0
LINE
  8
0
  6
CONTINUOUS
 62
     3
 10
504.777892
 20
-8.55854
 30
0.0
 11
504.777892
 21
-8.785804
 31
0.0
  0
LINE
  8
0
  6
CONTINUOUS
 62
     3
 10
503.737892
 20
-8.785804
 30
0.0
 11
503.737892
 21
-8.800231
 31
0.0
  0
LINE
  8
0
  6
CONTINUOUS
 62
     3
 10
503.737892
 20
-8.55854
 30
0.0
 11
503.737892
 21
-8.785804
 31
0.0
  0
LINE
  8
0
  6
CONTINUOUS
 62
     3
 10
503.737892
 20
-8.480231
 30
0.0
 11
503.737892
 21
-8.55854
 31
0.0
  0
LINE
  8
0
  6
CONTINUOUS
 62
     3
 10
503.737891
 20
-8.480231
 30
0.0
 11
503.657891
 21
-8.560231
 31
0.0
  0
LINE
  8
0
  6
CONTINUOUS
 62
     3
 10
337.417891
 20
-8.785804
 30
0.0
 11
337.417891
 21
-8.800231
 31
0.0
  0
LINE
  8
0
  6
CONTINUOUS
 62
     3
 10
337.417891
 20
-8.55854
 30
0.0
 11
337.417891
 21
-8.785804
 31
0.0
  0
LINE
  8
0
  6
CONTINUOUS
 62
     3
 10
338.457891
 20
-8.785804
 30
0.0
 11
338.457891
 21
-8.800231
 31
0.0
  0
LINE
  8
0
  6
CONTINUOUS
 62
     3
 10
338.457891
 20
-8.55854
 30
0.0
 11
338.457891
 21
-8.785804
 31
0.0
  0
LINE
  8
0
  6
CONTINUOUS
 62
     3
 10
338.457891
 20
-8.480231
 30
0.0
 11
338.537891
 21
-8.560231
 31
0.0
  0
LINE
  8
0
  6
CONTINUOUS
 62
     3
 10
338.457891
 20
-8.480231
 30
0.0
 11
338.457891
 21
-8.55854
 31
0.0
  0
LINE
  8
0
  6
CONTINUOUS
 62
     2
 10
502.217889
 20
27.826274
 30
0.0
 11
505.017889
 21
27.826274
 31
0.0
  0
LINE
  8
0
  6
CONTINUOUS
 62
     2
 10
337.177893
 20
27.826274
 30
0.0
 11
339.977896
 21
27.826274
 31
0.0
  0
LINE
  8
0
  6
CONTINUOUS
 62
     2
 10
502.217889
 20
27.346274
 30
0.0
 11
505.017889
 21
27.346274
 31
0.0
  0
LINE
  8
0
  6
CONTINUOUS
 62
     2
 10
337.177893
 20
27.346274
 30
0.0
 11
339.977891
 21
27.346274
 31
0.0
  0
LINE
  8
0
  6
CONTINUOUS
 62
     2
 10
504.057889
 20
26.421064
 30
0.0
 11
504.537889
 21
26.421064
 31
0.0
  0
LINE
  8
0
  6
CONTINUOUS
 62
     2
 10
337.661099
 20
26.421064
 30
0.0
 11
338.137896
 21
26.421064
 31
0.0
  0
LINE
  8
0
  6
CONTINUOUS
 62
     1
 10
505.497889
 20
-22.24
 30
0.0
 11
505.577889
 21
-22.24
 31
0.0
  0
LINE
  8
0
  6
CONTINUOUS
 62
     1
 10
505.497889
 20
-20.479998
 30
0.0
 11
505.577889
 21
-20.479998
 31
0.0
  0
LINE
  8
0
  6
CONTINUOUS
 62
     1
 10
336.617893
 20
-22.24
 30
0.0
 11
336.697893
 21
-22.24
 31
0.0
  0
LINE
  8
0
  6
CONTINUOUS
 62
     1
 10
336.617893
 20
-20.479998
 30
0.0
 11
336.697893
 21
-20.479998
 31
0.0
  0
LINE
  8
0
  6
CONTINUOUS
 62
     7
 10
505.577889
 20
-22.2
 30
0.0
 11
505.682648
 21
-22.2
 31
0.0
  0
LINE
  8
0
  6
CONTINUOUS
 62
     7
 10
505.577889
 20
-20.52
 30
0.0
 11
505.682648
 21
-20.52
 31
0.0
  0
LINE
  8
0
  6
CONTINUOUS
 62
     7
 10
336.513135
 20
-22.2
 30
0.0
 11
336.617893
 21
-22.2
 31
0.0
  0
LINE
  8
0
  6
CONTINUOUS
 62
     7
 10
336.513135
 20
-20.52
 30
0.0
 11
336.513135
 21
-22.2
 31
0.0
  0
LINE
  8
0
  6
CONTINUOUS
 62
     7
 10
336.513135
 20
-20.52
 30
0.0
 11
336.617893
 21
-20.52
 31
0.0
  0
LINE
  8
0
  6
CONTINUOUS
 62
     1
 10
339.834052
 20
-10.544497
 30
0.0
 11
339.609892
 21
-10.848578
 31
0.0
  0
LINE
  8
0
  6
CONTINUOUS
 62
     1
 10
339.977894
 20
-10.438224
 30
0.0
 11
339.834054
 21
-10.544496
 31
0.0
  0
LINE
  8
0
  6
CONTINUOUS
 62
     1
 10
339.609892
 20
-12.031448
 30
0.0
 11
339.834052
 21
-12.335528
 31
0.0
  0
LINE
  8
0
  6
CONTINUOUS
 62
     1
 10
339.834054
 20
-12.335528
 30
0.0
 11
339.977894
 21
-12.441801
 31
0.0
  0
LINE
  8
0
  6
CONTINUOUS
 62
     1
 10
502.361731
 20
-10.544497
 30
0.0
 11
502.585891
 21
-10.848578
 31
0.0
  0
LINE
  8
0
  6
CONTINUOUS
 62
     1
 10
502.217888
 20
-10.438224
 30
0.0
 11
502.361729
 21
-10.544496
 31
0.0
  0
LINE
  8
0
  6
CONTINUOUS
 62
     1
 10
502.58589
 20
-12.031448
 30
0.0
 11
502.36173
 21
-12.335528
 31
0.0
  0
LINE
  8
0
  6
CONTINUOUS
 62
     1
 10
502.361729
 20
-12.335528
 30
0.0
 11
502.217888
 21
-12.441801
 31
0.0
  0
LINE
  8
0
  6
CONTINUOUS
 62
     1
 10
504.401888
 20
45.935692
 30
0.0
 11
504.537889
 21
45.935692
 31
0.0
  0
LINE
  8
0
  6
CONTINUOUS
 62
     1
 10
337.657893
 20
45.935692
 30
0.0
 11
337.793894
 21
45.935692
 31
0.0
  0
LINE
  8
0
  6
CONTINUOUS
 62
     1
 10
505.497889
 20
46.199999
 30
0.0
 11
505.59389
 21
46.199999
 31
0.0
  0
LINE
  8
0
  6
CONTINUOUS
 62
     1
 10
336.601892
 20
46.199999
 30
0.0
 11
336.697893
 21
46.199999
 31
0.0
  0
LINE
  8
0
  6
CONTINUOUS
 62
   218
 10
504.31389
 20
45.839999
 30
0.0
 11
504.401888
 21
45.839999
 31
0.0
  0
LINE
  8
0
  6
CONTINUOUS
 62
   218
 10
505.928441
 20
45.196684
 30
0.0
 11
506.041888
 21
45.196684
 31
0.0
  0
LINE
  8
0
  6
CONTINUOUS
 62
   218
 10
505.59389
 20
45.843314
 30
0.0
 11
506.041888
 21
45.843314
 31
0.0
  0
LINE
  8
0
  6
CONTINUOUS
 62
   218
 10
505.59389
 20
46.16663
 30
0.0
 11
506.041888
 21
46.16663
 31
0.0
  0
LINE
  8
0
  6
CONTINUOUS
 62
   218
 10
337.793894
 20
45.839999
 30
0.0
 11
337.881892
 21
45.839999
 31
0.0
  0
LINE
  8
0
  6
CONTINUOUS
 62
   218
 10
336.153894
 20
45.196684
 30
0.0
 11
336.267341
 21
45.196684
 31
0.0
  0
LINE
  8
0
  6
CONTINUOUS
 62
   218
 10
336.153894
 20
46.16663
 30
0.0
 11
336.601892
 21
46.16663
 31
0.0
  0
LINE
  8
0
  6
CONTINUOUS
 62
   218
 10
336.153894
 20
45.843314
 30
0.0
 11
336.601892
 21
45.843314
 31
0.0
  0
LINE
  8
0
  6
CONTINUOUS
 62
     1
 10
505.497889
 20
-25.679997
 30
0.0
 11
505.577889
 21
-25.679997
 31
0.0
  0
LINE
  8
0
  6
CONTINUOUS
 62
     1
 10
336.617893
 20
-25.679997
 30
0.0
 11
336.697893
 21
-25.679997
 31
0.0
  0
LINE
  8
0
  6
CONTINUOUS
 62
     7
 10
505.577889
 20
-25.639997
 30
0.0
 11
505.682648
 21
-25.639997
 31
0.0
  0
LINE
  8
0
  6
CONTINUOUS
 62
     7
 10
336.513135
 20
-25.639997
 30
0.0
 11
336.617893
 21
-25.639997
 31
0.0
  0
LINE
  8
0
  6
CONTINUOUS
 62
     1
 10
339.417893
 20
-21.421191
 30
0.0
 11
339.977893
 21
-21.421191
 31
0.0
  0
LINE
  8
0
  6
CONTINUOUS
 62
     1
 10
339.417893
 20
-21.790695
 30
0.0
 11
339.977893
 21
-21.790695
 31
0.0
  0
LINE
  8
0
  6
CONTINUOUS
 62
     1
 10
339.417893
 20
-22.529704
 30
0.0
 11
339.977893
 21
-22.529704
 31
0.0
  0
LINE
  8
0
  6
CONTINUOUS
 62
     1
 10
339.417893
 20
-22.899208
 30
0.0
 11
339.977893
 21
-22.899208
 31
0.0
  0
LINE
  8
0
  6
CONTINUOUS
 62
     1
 10
502.217889
 20
-21.421191
 30
0.0
 11
502.777889
 21
-21.421191
 31
0.0
  0
LINE
  8
0
  6
CONTINUOUS
 62
     1
 10
502.217889
 20
-21.790695
 30
0.0
 11
502.777889
 21
-21.790695
 31
0.0
  0
LINE
  8
0
  6
CONTINUOUS
 62
     1
 10
502.217889
 20
-22.529704
 30
0.0
 11
502.777889
 21
-22.529704
 31
0.0
  0
LINE
  8
0
  6
CONTINUOUS
 62
     1
 10
502.217889
 20
-22.899208
 30
0.0
 11
502.777889
 21
-22.899208
 31
0.0
  0
LINE
  8
0
  6
CONTINUOUS
 62
     7
 10
336.377888
 20
-9.44
 30
0.0
 11
336.697888
 21
-9.44
 31
0.0
  0
LINE
  8
0
  6
CONTINUOUS
 62
     7
 10
505.497894
 20
-9.44
 30
0.0
 11
505.817894
 21
-9.44
 31
0.0
  0
LINE
  8
0
  6
CONTINUOUS
 62
     1
 10
502.217889
 20
-16.640268
 30
0.0
 11
502.377889
 21
-16.640268
 31
0.0
  0
LINE
  8
0
  6
CONTINUOUS
 62
     1
 10
502.217889
 20
-19.520268
 30
0.0
 11
502.377889
 21
-19.520268
 31
0.0
  0
LINE
  8
0
  6
CONTINUOUS
 62
     1
 10
502.217889
 20
7.039728
 30
0.0
 11
502.377889
 21
7.039728
 31
0.0
  0
LINE
  8
0
  6
CONTINUOUS
 62
     1
 10
339.817893
 20
-16.640268
 30
0.0
 11
339.977893
 21
-16.640268
 31
0.0
  0
LINE
  8
0
  6
CONTINUOUS
 62
     1
 10
339.817893
 20
-19.520268
 30
0.0
 11
339.977893
 21
-19.520268
 31
0.0
  0
LINE
  8
0
  6
CONTINUOUS
 62
     1
 10
339.817893
 20
7.039728
 30
0.0
 11
339.977893
 21
7.039728
 31
0.0
  0
LINE
  8
0
  6
CONTINUOUS
 62
     1
 10
339.354052
 20
-17.184754
 30
0.0
 11
339.129892
 21
-17.488835
 31
0.0
  0
LINE
  8
0
  6
CONTINUOUS
 62
     1
 10
339.657892
 20
-16.960269
 30
0.0
 11
339.354052
 21
-17.184754
 31
0.0
  0
LINE
  8
0
  6
CONTINUOUS
 62
     1
 10
339.129892
 20
-18.671704
 30
0.0
 11
339.354052
 21
-18.975785
 31
0.0
  0
LINE
  8
0
  6
CONTINUOUS
 62
     1
 10
339.354052
 20
-18.975785
 30
0.0
 11
339.657892
 21
-19.200268
 31
0.0
  0
LINE
  8
0
  6
CONTINUOUS
 62
     1
 10
339.657893
 20
-17.73417
 30
0.0
 11
339.657893
 21
-18.080268
 31
0.0
  0
LINE
  8
0
  6
CONTINUOUS
 62
     1
 10
339.657893
 20
-17.421949
 30
0.0
 11
339.657893
 21
-17.73417
 31
0.0
  0
LINE
  8
0
  6
CONTINUOUS
 62
     1
 10
339.657893
 20
-17.17417
 30
0.0
 11
339.657893
 21
-17.421949
 31
0.0
  0
LINE
  8
0
  6
CONTINUOUS
 62
     1
 10
339.657893
 20
-17.015085
 30
0.0
 11
339.657893
 21
-17.17417
 31
0.0
  0
LINE
  8
0
  6
CONTINUOUS
 62
     1
 10
339.657893
 20
-16.960268
 30
0.0
 11
339.657893
 21
-17.015085
 31
0.0
  0
LINE
  8
0
  6
CONTINUOUS
 62
     1
 10
339.657893
 20
-16.960268
 30
0.0
 11
339.817893
 21
-16.960268
 31
0.0
  0
LINE
  8
0
  6
CONTINUOUS
 62
     1
 10
339.657893
 20
-19.200268
 30
0.0
 11
339.817893
 21
-19.200268
 31
0.0
  0
LINE
  8
0
  6
CONTINUOUS
 62
     1
 10
339.657893
 20
-19.145452
 30
0.0
 11
339.657893
 21
-19.200268
 31
0.0
  0
LINE
  8
0
  6
CONTINUOUS
 62
     1
 10
339.657893
 20
-18.986368
 30
0.0
 11
339.657893
 21
-19.145452
 31
0.0
  0
LINE
  8
0
  6
CONTINUOUS
 62
     1
 10
339.657893
 20
-18.738588
 30
0.0
 11
339.657893
 21
-18.986368
 31
0.0
  0
LINE
  8
0
  6
CONTINUOUS
 62
     1
 10
339.657893
 20
-18.426368
 30
0.0
 11
339.657893
 21
-18.738588
 31
0.0
  0
LINE
  8
0
  6
CONTINUOUS
 62
     1
 10
339.657893
 20
-18.080268
 30
0.0
 11
339.657893
 21
-18.426368
 31
0.0
  0
LINE
  8
0
  6
CONTINUOUS
 62
     1
 10
453.577891
 20
8.480001
 30
0.0
 11
453.577891
 21
8.479731
 31
0.0
  0
LINE
  8
0
  6
CONTINUOUS
 62
     1
 10
502.377889
 20
7.359731
 30
0.0
 11
502.537889
 21
7.359731
 31
0.0
  0
LINE
  8
0
  6
CONTINUOUS
 62
     1
 10
502.537889
 20
8.479731
 30
0.0
 11
502.537889
 21
7.359731
 31
0.0
  0
LINE
  8
0
  6
CONTINUOUS
 62
     1
 10
502.377889
 20
-16.960268
 30
0.0
 11
502.537889
 21
-16.960268
 31
0.0
  0
LINE
  8
0
  6
CONTINUOUS
 62
     1
 10
502.377889
 20
-19.200268
 30
0.0
 11
502.537889
 21
-19.200268
 31
0.0
  0
LINE
  8
0
  6
CONTINUOUS
 62
     1
 10
502.537889
 20
-16.960268
 30
0.0
 11
502.537889
 21
-19.200268
 31
0.0
  0
LINE
  8
0
  6
CONTINUOUS
 62
     1
 10
339.657893
 20
7.359731
 30
0.0
 11
339.817893
 21
7.359731
 31
0.0
  0
LINE
  8
0
  6
CONTINUOUS
 62
     1
 10
339.657893
 20
8.480001
 30
0.0
 11
339.657893
 21
7.359731
 31
0.0
  0
LINE
  8
0
  6
CONTINUOUS
 62
     3
 10
337.417891
 20
-8.785804
 30
0.0
 11
337.417891
 21
-8.800231
 31
0.0
  0
LINE
  8
0
  6
CONTINUOUS
 62
     3
 10
337.417891
 20
-8.55854
 30
0.0
 11
337.417891
 21
-8.785804
 31
0.0
  0
LINE
  8
0
  6
CONTINUOUS
 62
     3
 10
338.457891
 20
-8.785804
 30
0.0
 11
338.457891
 21
-8.800231
 31
0.0
  0
LINE
  8
0
  6
CONTINUOUS
 62
     3
 10
338.457891
 20
-8.55854
 30
0.0
 11
338.457891
 21
-8.785804
 31
0.0
  0
LINE
  8
0
  6
CONTINUOUS
 62
     3
 10
338.457891
 20
-8.480231
 30
0.0
 11
338.537891
 21
-8.560231
 31
0.0
  0
LINE
  8
0
  6
CONTINUOUS
 62
     3
 10
338.457891
 20
-8.480231
 30
0.0
 11
338.457891
 21
-8.55854
 31
0.0
  0
LINE
  8
0
  6
CONTINUOUS
 62
     3
 10
504.777892
 20
-8.785804
 30
0.0
 11
504.777892
 21
-8.800231
 31
0.0
  0
LINE
  8
0
  6
CONTINUOUS
 62
     3
 10
504.777892
 20
-8.55854
 30
0.0
 11
504.777892
 21
-8.785804
 31
0.0
  0
LINE
  8
0
  6
CONTINUOUS
 62
     3
 10
503.737892
 20
-8.785804
 30
0.0
 11
503.737892
 21
-8.800231
 31
0.0
  0
LINE
  8
0
  6
CONTINUOUS
 62
     3
 10
503.737892
 20
-8.55854
 30
0.0
 11
503.737892
 21
-8.785804
 31
0.0
  0
LINE
  8
0
  6
CONTINUOUS
 62
     3
 10
503.737892
 20
-8.480231
 30
0.0
 11
503.737892
 21
-8.55854
 31
0.0
  0
LINE
  8
0
  6
CONTINUOUS
 62
     3
 10
503.737891
 20
-8.480231
 30
0.0
 11
503.657891
 21
-8.560231
 31
0.0
  0
LINE
  8
0
  6
CONTINUOUS
 62
     1
 10
502.217889
 20
-21.421184
 30
0.0
 11
502.777889
 21
-21.421184
 31
0.0
  0
LINE
  8
0
  6
CONTINUOUS
 62
     1
 10
502.217889
 20
-21.790688
 30
0.0
 11
502.777889
 21
-21.790688
 31
0.0
  0
LINE
  8
0
  6
CONTINUOUS
 62
     1
 10
339.417893
 20
-21.421184
 30
0.0
 11
339.977893
 21
-21.421184
 31
0.0
  0
LINE
  8
0
  6
CONTINUOUS
 62
     1
 10
339.417893
 20
-21.790688
 30
0.0
 11
339.977893
 21
-21.790688
 31
0.0
  0
LINE
  8
0
  6
CONTINUOUS
 62
     7
 10
336.513135
 20
-23.559999
 30
0.0
 11
336.513135
 21
-25.639997
 31
0.0
  0
LINE
  8
0
  6
CONTINUOUS
 62
   130
 10
336.457893
 20
4.157345
 30
0.0
 11
336.697893
 21
4.157345
 31
0.0
  0
LINE
  8
0
  6
CONTINUOUS
 62
   130
 10
336.457893
 20
5.757345
 30
0.0
 11
336.697893
 21
5.757345
 31
0.0
  0
LINE
  8
0
  6
CONTINUOUS
 62
   130
 10
337.177893
 20
4.557345
 30
0.0
 11
338.627493
 21
4.557345
 31
0.0
  0
LINE
  8
0
  6
CONTINUOUS
 62
   130
 10
337.177893
 20
5.357345
 30
0.0
 11
338.627493
 21
5.357345
 31
0.0
  0
LINE
  8
0
  6
CONTINUOUS
 62
   130
 10
338.627493
 20
4.637345
 30
0.0
 11
338.745894
 21
4.637345
 31
0.0
  0
LINE
  8
0
  6
CONTINUOUS
 62
   130
 10
338.627493
 20
5.277345
 30
0.0
 11
338.745894
 21
5.277345
 31
0.0
  0
LINE
  8
0
  6
CONTINUOUS
 62
   130
 10
338.745894
 20
4.557345
 30
0.0
 11
338.857893
 21
4.557345
 31
0.0
  0
LINE
  8
0
  6
CONTINUOUS
 62
   130
 10
338.745894
 20
5.357345
 30
0.0
 11
338.857893
 21
5.357345
 31
0.0
  0
LINE
  8
0
  6
CONTINUOUS
 62
   130
 10
338.857893
 20
5.357345
 30
0.0
 11
338.857893
 21
4.557345
 31
0.0
  0
LINE
  8
0
  6
CONTINUOUS
 62
   130
 10
338.937894
 20
4.637345
 30
0.0
 11
338.857894
 21
4.557345
 31
0.0
  0
LINE
  8
0
  6
CONTINUOUS
 62
   130
 10
338.857894
 20
5.357345
 30
0.0
 11
338.937894
 21
5.277345
 31
0.0
  0
LINE
  8
0
  6
CONTINUOUS
 62
   130
 10
505.497889
 20
4.157345
 30
0.0
 11
505.737889
 21
4.157345
 31
0.0
  0
LINE
  8
0
  6
CONTINUOUS
 62
   130
 10
505.497889
 20
5.757345
 30
0.0
 11
505.737889
 21
5.757345
 31
0.0
  0
LINE
  8
0
  6
CONTINUOUS
 62
   130
 10
503.56829
 20
4.557345
 30
0.0
 11
505.017889
 21
4.557345
 31
0.0
  0
LINE
  8
0
  6
CONTINUOUS
 62
   130
 10
503.56829
 20
5.357345
 30
0.0
 11
505.017889
 21
5.357345
 31
0.0
  0
LINE
  8
0
  6
CONTINUOUS
 62
   130
 10
503.449889
 20
4.637345
 30
0.0
 11
503.56829
 21
4.637345
 31
0.0
  0
LINE
  8
0
  6
CONTINUOUS
 62
   130
 10
503.449889
 20
5.277345
 30
0.0
 11
503.56829
 21
5.277345
 31
0.0
  0
LINE
  8
0
  6
CONTINUOUS
 62
   130
 10
503.337889
 20
4.557345
 30
0.0
 11
503.449889
 21
4.557345
 31
0.0
  0
LINE
  8
0
  6
CONTINUOUS
 62
   130
 10
503.337889
 20
5.357345
 30
0.0
 11
503.449889
 21
5.357345
 31
0.0
  0
LINE
  8
0
  6
CONTINUOUS
 62
   130
 10
503.337889
 20
5.357345
 30
0.0
 11
503.337889
 21
4.557345
 31
0.0
  0
LINE
  8
0
  6
CONTINUOUS
 62
   130
 10
503.257889
 20
4.637345
 30
0.0
 11
503.337889
 21
4.557345
 31
0.0
  0
LINE
  8
0
  6
CONTINUOUS
 62
   130
 10
503.337889
 20
5.357345
 30
0.0
 11
503.257889
 21
5.277345
 31
0.0
  0
LINE
  8
0
  6
CONTINUOUS
 62
     1
 10
336.617893
 20
-17.52
 30
0.0
 11
336.697893
 21
-17.52
 31
0.0
  0
LINE
  8
0
  6
CONTINUOUS
 62
     1
 10
336.617893
 20
-15.76
 30
0.0
 11
336.697893
 21
-15.76
 31
0.0
  0
LINE
  8
0
  6
CONTINUOUS
 62
     1
 10
337.661094
 20
-17.656136
 30
0.0
 11
338.137893
 21
-17.656136
 31
0.0
  0
LINE
  8
0
  6
CONTINUOUS
 62
     1
 10
337.661094
 20
-17.148067
 30
0.0
 11
338.137893
 21
-17.148067
 31
0.0
  0
LINE
  8
0
  6
CONTINUOUS
 62
     1
 10
337.661094
 20
-16.131932
 30
0.0
 11
338.137893
 21
-16.131932
 31
0.0
  0
LINE
  8
0
  6
CONTINUOUS
 62
     1
 10
337.661094
 20
-15.623863
 30
0.0
 11
338.137893
 21
-15.623863
 31
0.0
  0
LINE
  8
0
  6
CONTINUOUS
 62
     1
 10
504.057889
 20
24.771931
 30
0.0
 11
504.537889
 21
24.771931
 31
0.0
  0
LINE
  8
0
  6
CONTINUOUS
 62
     1
 10
504.057889
 20
24.263864
 30
0.0
 11
504.537889
 21
24.263864
 31
0.0
  0
LINE
  8
0
  6
CONTINUOUS
 62
     1
 10
504.057889
 20
26.296135
 30
0.0
 11
504.537889
 21
26.296135
 31
0.0
  0
LINE
  8
0
  6
CONTINUOUS
 62
     1
 10
504.057889
 20
25.788068
 30
0.0
 11
504.537889
 21
25.788068
 31
0.0
  0
LINE
  8
0
  6
CONTINUOUS
 62
     1
 10
337.661094
 20
24.771931
 30
0.0
 11
338.137893
 21
24.771931
 31
0.0
  0
LINE
  8
0
  6
CONTINUOUS
 62
     1
 10
337.661094
 20
24.263864
 30
0.0
 11
338.137893
 21
24.263864
 31
0.0
  0
LINE
  8
0
  6
CONTINUOUS
 62
     1
 10
337.661094
 20
25.788068
 30
0.0
 11
338.137893
 21
25.788068
 31
0.0
  0
LINE
  8
0
  6
CONTINUOUS
 62
     1
 10
337.661094
 20
26.296135
 30
0.0
 11
338.137893
 21
26.296135
 31
0.0
  0
LINE
  8
0
  6
CONTINUOUS
 62
     1
 10
336.617893
 20
24.399999
 30
0.0
 11
336.697893
 21
24.399999
 31
0.0
  0
LINE
  8
0
  6
CONTINUOUS
 62
     1
 10
336.617893
 20
26.159999
 30
0.0
 11
336.697893
 21
26.159999
 31
0.0
  0
LINE
  8
0
  6
CONTINUOUS
 62
     1
 10
505.497889
 20
-17.52
 30
0.0
 11
505.577889
 21
-17.52
 31
0.0
  0
LINE
  8
0
  6
CONTINUOUS
 62
     1
 10
505.497889
 20
-15.76
 30
0.0
 11
505.577889
 21
-15.76
 31
0.0
  0
LINE
  8
0
  6
CONTINUOUS
 62
     1
 10
504.057889
 20
-17.656136
 30
0.0
 11
504.537889
 21
-17.656136
 31
0.0
  0
LINE
  8
0
  6
CONTINUOUS
 62
     1
 10
504.057889
 20
-17.148067
 30
0.0
 11
504.537889
 21
-17.148067
 31
0.0
  0
LINE
  8
0
  6
CONTINUOUS
 62
     1
 10
504.057889
 20
-16.131932
 30
0.0
 11
504.537889
 21
-16.131932
 31
0.0
  0
LINE
  8
0
  6
CONTINUOUS
 62
     1
 10
504.057889
 20
-15.623863
 30
0.0
 11
504.537889
 21
-15.623863
 31
0.0
  0
LINE
  8
0
  6
CONTINUOUS
 62
     1
 10
505.497889
 20
24.399999
 30
0.0
 11
505.577889
 21
24.399999
 31
0.0
  0
LINE
  8
0
  6
CONTINUOUS
 62
     1
 10
505.497889
 20
26.159999
 30
0.0
 11
505.577889
 21
26.159999
 31
0.0
  0
LINE
  8
0
  6
CONTINUOUS
 62
     7
 10
336.513135
 20
-17.48
 30
0.0
 11
336.617893
 21
-17.48
 31
0.0
  0
LINE
  8
0
  6
CONTINUOUS
 62
     7
 10
336.513135
 20
-15.8
 30
0.0
 11
336.513135
 21
-17.48
 31
0.0
  0
LINE
  8
0
  6
CONTINUOUS
 62
     7
 10
336.513135
 20
-15.8
 30
0.0
 11
336.617893
 21
-15.8
 31
0.0
  0
LINE
  8
0
  6
CONTINUOUS
 62
     7
 10
337.177893
 20
-16.16
 30
0.0
 11
337.181094
 21
-16.16
 31
0.0
  0
LINE
  8
0
  6
CONTINUOUS
 62
     7
 10
337.177893
 20
-17.12
 30
0.0
 11
337.181094
 21
-17.12
 31
0.0
  0
LINE
  8
0
  6
CONTINUOUS
 62
     7
 10
336.513135
 20
24.439999
 30
0.0
 11
336.617893
 21
24.439999
 31
0.0
  0
LINE
  8
0
  6
CONTINUOUS
 62
     7
 10
336.513135
 20
26.119999
 30
0.0
 11
336.617893
 21
26.119999
 31
0.0
  0
LINE
  8
0
  6
CONTINUOUS
 62
     7
 10
505.577889
 20
24.439999
 30
0.0
 11
505.682648
 21
24.439999
 31
0.0
  0
LINE
  8
0
  6
CONTINUOUS
 62
     7
 10
505.682648
 20
26.119999
 30
0.0
 11
505.682648
 21
24.439999
 31
0.0
  0
LINE
  8
0
  6
CONTINUOUS
 62
     7
 10
505.577889
 20
26.119999
 30
0.0
 11
505.682648
 21
26.119999
 31
0.0
  0
LINE
  8
0
  6
CONTINUOUS
 62
     7
 10
505.577889
 20
-17.48
 30
0.0
 11
505.682648
 21
-17.48
 31
0.0
  0
LINE
  8
0
  6
CONTINUOUS
 62
     7
 10
505.682648
 20
-15.8
 30
0.0
 11
505.682648
 21
-17.48
 31
0.0
  0
LINE
  8
0
  6
CONTINUOUS
 62
     7
 10
505.577889
 20
-15.8
 30
0.0
 11
505.682648
 21
-15.8
 31
0.0
  0
LINE
  8
0
  6
CONTINUOUS
 62
     1
 10
337.661094
 20
-17.148067
 30
0.0
 11
338.137893
 21
-17.148067
 31
0.0
  0
LINE
  8
0
  6
CONTINUOUS
 62
     1
 10
337.661094
 20
-16.131932
 30
0.0
 11
338.137893
 21
-16.131932
 31
0.0
  0
LINE
  8
0
  6
CONTINUOUS
 62
     1
 10
504.057889
 20
-17.148067
 30
0.0
 11
504.537889
 21
-17.148067
 31
0.0
  0
LINE
  8
0
  6
CONTINUOUS
 62
     1
 10
504.057889
 20
-16.131932
 30
0.0
 11
504.537889
 21
-16.131932
 31
0.0
  0
LINE
  8
0
  6
CONTINUOUS
 62
     7
 10
336.513135
 20
-16.04603
 30
0.0
 11
336.513135
 21
-16.318546
 31
0.0
  0
LINE
  8
0
  6
CONTINUOUS
 62
     7
 10
336.513135
 20
-15.8
 30
0.0
 11
336.513135
 21
-15.863941
 31
0.0
  0
LINE
  8
0
  6
CONTINUOUS
 62
     7
 10
505.682648
 20
25.873969
 30
0.0
 11
505.682648
 21
25.601455
 31
0.0
  0
LINE
  8
0
  6
CONTINUOUS
 62
     7
 10
505.682648
 20
26.119999
 30
0.0
 11
505.682648
 21
26.056059
 31
0.0
  0
LINE
  8
0
  6
CONTINUOUS
 62
     7
 10
336.513135
 20
26.119999
 30
0.0
 11
336.513135
 21
24.439999
 31
0.0
  0
LINE
  8
0
  6
CONTINUOUS
 62
     7
 10
336.513135
 20
26.119999
 30
0.0
 11
336.513135
 21
26.056059
 31
0.0
  0
LINE
  8
0
  6
CONTINUOUS
 62
     7
 10
505.682648
 20
-16.04603
 30
0.0
 11
505.682648
 21
-16.318546
 31
0.0
  0
LINE
  8
0
  6
CONTINUOUS
 62
     7
 10
505.682648
 20
-15.8
 30
0.0
 11
505.682648
 21
-15.863941
 31
0.0
  0
LINE
  8
0
  6
CONTINUOUS
 62
     1
 10
504.401888
 20
45.935692
 30
0.0
 11
504.537889
 21
45.935692
 31
0.0
  0
LINE
  8
0
  6
CONTINUOUS
 62
     1
 10
337.657893
 20
45.935692
 30
0.0
 11
337.793894
 21
45.935692
 31
0.0
  0
LINE
  8
0
  6
CONTINUOUS
 62
   218
 10
504.31389
 20
45.839999
 30
0.0
 11
504.401888
 21
45.839999
 31
0.0
  0
LINE
  8
0
  6
CONTINUOUS
 62
   218
 10
337.793894
 20
45.839999
 30
0.0
 11
337.881892
 21
45.839999
 31
0.0
  0
CIRCLE
  8
0
  6
CONTINUOUS
 62
     2
 10
427.257894
 20
12.239984
 30
0.0
 40
0.720003
  0
CIRCLE
  8
0
  6
CONTINUOUS
 62
     2
 10
427.257894
 20
12.239984
 30
0.0
 40
0.400003
  0
CIRCLE
  8
0
  6
CONTINUOUS
 62
     2
 10
427.25781
 20
1.958894
 30
0.0
 40
0.399683
  0
CIRCLE
  8
0
  6
CONTINUOUS
 62
     2
 10
427.257863
 20
1.959541
 30
0.0
 40
0.720176
  0
ARC
  8
0
  6
CONTINUOUS
 62
   253
 10
421.497888
 20
11.519988
 30
0.0
 40
1.759995
 50
359.999876
 51
540.000133
  0
ARC
  8
0
  6
CONTINUOUS
 62
     7
 10
410.737891
 20
26.759996
 30
0.0
 40
0.360006
 50
10.240931
 51
169.759069
  0
CIRCLE
  8
0
  6
CONTINUOUS
 62
     2
 10
410.737897
 20
26.760013
 30
0.0
 40
0.439989
  0
CIRCLE
  8
0
  6
CONTINUOUS
 62
     2
 10
451.617896
 20
26.760005
 30
0.0
 40
0.439994
  0
ARC
  8
0
  6
CONTINUOUS
 62
     7
 10
451.617891
 20
26.759996
 30
0.0
 40
0.360006
 50
10.240932
 51
169.759068
  0
ARC
  8
0
  6
CONTINUOUS
 62
     7
 10
451.617891
 20
26.759996
 30
0.0
 40
0.360006
 50
190.239121
 51
349.760879
  0
ARC
  8
0
  6
CONTINUOUS
 62
     7
 10
410.737891
 20
26.759996
 30
0.0
 40
0.360006
 50
190.239122
 51
349.760878
  0
ARC
  8
0
  6
CONTINUOUS
 62
   253
 10
421.497894
 20
-18.079991
 30
0.0
 40
1.760006
 50
180.000227
 51
359.999762
  0
CIRCLE
  8
0
  6
CONTINUOUS
 62
     2
 10
444.05789
 20
-17.2
 30
0.0
 40
1.52
  0
CIRCLE
  8
0
  6
CONTINUOUS
 62
     1
 10
422.7779
 20
-24.40002
 30
0.0
 40
0.64001
  0
CIRCLE
  8
0
  6
CONTINUOUS
 62
   253
 10
422.777888
 20
-24.400011
 30
0.0
 40
0.719997
  0
LINE
  8
0
  6
CONTINUOUS
 62
     1
 10
439.689891
 20
-24.032014
 30
0.0
 11
439.689891
 21
-24.288015
 31
0.0
  0
LINE
  8
0
  6
CONTINUOUS
 62
     1
 10
439.689891
 20
-24.288015
 30
0.0
 11
439.945891
 21
-24.288015
 31
0.0
  0
LINE
  8
0
  6
CONTINUOUS
 62
     1
 10
439.945891
 20
-24.288015
 30
0.0
 11
439.945891
 21
-24.512014
 31
0.0
  0
LINE
  8
0
  6
CONTINUOUS
 62
     1
 10
439.689891
 20
-24.512014
 30
0.0
 11
439.945891
 21
-24.512014
 31
0.0
  0
LINE
  8
0
  6
CONTINUOUS
 62
     1
 10
439.689891
 20
-24.512014
 30
0.0
 11
439.689891
 21
-24.768015
 31
0.0
  0
LINE
  8
0
  6
CONTINUOUS
 62
     1
 10
439.465891
 20
-24.512014
 30
0.0
 11
439.465891
 21
-24.768015
 31
0.0
  0
LINE
  8
0
  6
CONTINUOUS
 62
     1
 10
439.209891
 20
-24.512014
 30
0.0
 11
439.465891
 21
-24.512014
 31
0.0
  0
LINE
  8
0
  6
CONTINUOUS
 62
     1
 10
439.209891
 20
-24.288015
 30
0.0
 11
439.209891
 21
-24.512014
 31
0.0
  0
LINE
  8
0
  6
CONTINUOUS
 62
     1
 10
439.209891
 20
-24.288015
 30
0.0
 11
439.465891
 21
-24.288015
 31
0.0
  0
LINE
  8
0
  6
CONTINUOUS
 62
     1
 10
439.465891
 20
-24.032014
 30
0.0
 11
439.465891
 21
-24.288015
 31
0.0
  0
CIRCLE
  8
0
  6
CONTINUOUS
 62
     1
 10
439.577882
 20
-24.40002
 30
0.0
 40
0.64001
  0
CIRCLE
  8
0
  6
CONTINUOUS
 62
   253
 10
439.577894
 20
-24.400011
 30
0.0
 40
0.719997
  0
LINE
  8
0
  6
CONTINUOUS
 62
     1
 10
439.465891
 20
-24.032014
 30
0.0
 11
439.689891
 21
-24.032014
 31
0.0
  0
LINE
  8
0
  6
CONTINUOUS
 62
   253
 10
425.257891
 20
-10.879811
 30
0.0
 11
429.257891
 21
-10.879811
 31
0.0
  0
LINE
  8
0
  6
CONTINUOUS
 62
     3
 10
337.337893
 20
-8.560233
 30
0.0
 11
337.337894
 21
-11.600136
 31
0.0
  0
LINE
  8
0
  6
CONTINUOUS
 62
     3
 10
338.457891
 20
-8.480231
 30
0.0
 11
338.457891
 21
-11.68023
 31
0.0
  0
ARC
  8
0
  6
CONTINUOUS
 62
   212
 10
339.497896
 20
5.039815
 30
0.0
 40
0.24004
 50
180.0
 51
360.0
  0
ARC
  8
0
  6
CONTINUOUS
 62
   212
 10
339.497895
 20
4.079807
 30
0.0
 40
0.239969
 50
0.0
 51
180.0
  0
ARC
  8
0
  6
CONTINUOUS
 62
   212
 10
339.497893
 20
5.519749
 30
0.0
 40
0.240002
 50
0.000519
 51
179.999512
  0
CIRCLE
  8
0
  6
CONTINUOUS
 62
     5
 10
411.057871
 20
43.759985
 30
0.0
 40
0.319977
  0
CIRCLE
  8
0
  6
CONTINUOUS
 62
     5
 10
451.297891
 20
43.76
 30
0.0
 40
0.32
  0
ARC
  8
0
  6
CONTINUOUS
 62
   212
 10
502.697892
 20
5.519687
 30
0.0
 40
0.240041
 50
0.0
 51
180.0
  0
ARC
  8
0
  6
CONTINUOUS
 62
   212
 10
502.697892
 20
5.039698
 30
0.0
 40
0.239972
 50
180.0
 51
360.0
  0
ARC
  8
0
  6
CONTINUOUS
 62
   212
 10
502.697891
 20
4.079688
 30
0.0
 40
0.24004
 50
0.0
 51
180.0
  0
ARC
  8
0
  6
CONTINUOUS
 62
     2
 10
504.217902
 20
3.359773
 30
0.0
 40
0.319989
 50
359.999244
 51
450.002119
  0
ARC
  8
0
  6
CONTINUOUS
 62
     2
 10
504.217889
 20
-7.200229
 30
0.0
 40
0.320001
 50
269.999847
 51
359.99966
  0
ARC
  8
0
  6
CONTINUOUS
 62
     2
 10
503.177889
 20
-7.520231
 30
0.0
 40
0.479999
 50
179.99997
 51
270.000039
  0
ARC
  8
0
  6
CONTINUOUS
 62
     2
 10
503.177889
 20
-7.52023
 30
0.0
 40
0.959999
 50
179.999985
 51
270.00001
  0
ARC
  8
0
  6
CONTINUOUS
 62
     2
 10
339.017893
 20
-7.520231
 30
0.0
 40
0.479999
 50
269.999942
 51
360.000047
  0
ARC
  8
0
  6
CONTINUOUS
 62
     2
 10
339.017894
 20
-7.520231
 30
0.0
 40
0.959999
 50
270.000004
 51
360.000035
  0
ARC
  8
0
  6
CONTINUOUS
 62
     5
 10
338.141087
 20
-15.359988
 30
0.0
 40
0.959987
 50
112.499962
 51
180.000799
  0
ARC
  8
0
  6
CONTINUOUS
 62
     5
 10
504.057886
 20
-15.360008
 30
0.0
 40
0.480009
 50
0.000979
 51
89.999687
  0
ARC
  8
0
  6
CONTINUOUS
 62
     5
 10
504.057888
 20
-15.360008
 30
0.0
 40
0.960007
 50
0.000353
 51
89.999764
  0
ARC
  8
0
  6
CONTINUOUS
 62
     2
 10
417.737892
 20
14.199983
 30
0.0
 40
0.12
 50
359.999931
 51
449.999607
  0
ARC
  8
0
  6
CONTINUOUS
 62
     2
 10
417.737891
 20
10.039985
 30
0.0
 40
0.12
 50
270.000306
 51
359.999714
  0
ARC
  8
0
  6
CONTINUOUS
 62
   130
 10
339.57788
 20
10.187458
 30
0.0
 40
0.799987
 50
134.99962
 51
180.000379
  0
ARC
  8
0
  6
CONTINUOUS
 62
     2
 10
409.857888
 20
10.039983
 30
0.0
 40
0.119997
 50
179.998636
 51
270.000877
  0
ARC
  8
0
  6
CONTINUOUS
 62
     2
 10
409.857891
 20
14.199985
 30
0.0
 40
0.119999
 50
89.999058
 51
180.000847
  0
ARC
  8
0
  6
CONTINUOUS
 62
   253
 10
409.857894
 20
14.599983
 30
0.0
 40
0.12
 50
180.000546
 51
270.000023
  0
ARC
  8
0
  6
CONTINUOUS
 62
   253
 10
409.857891
 20
16.759985
 30
0.0
 40
0.119999
 50
89.999057
 51
180.00088
  0
ARC
  8
0
  6
CONTINUOUS
 62
     2
 10
409.857891
 20
16.999999
 30
0.0
 40
0.119998
 50
179.999534
 51
270.001088
  0
ARC
  8
0
  6
CONTINUOUS
 62
   253
 10
452.497891
 20
14.199985
 30
0.0
 40
0.119999
 50
359.999149
 51
450.000944
  0
ARC
  8
0
  6
CONTINUOUS
 62
   253
 10
452.497891
 20
14.599981
 30
0.0
 40
0.119998
 50
269.999007
 51
360.000426
  0
ARC
  8
0
  6
CONTINUOUS
 62
   253
 10
452.497891
 20
16.759985
 30
0.0
 40
0.119998
 50
359.999014
 51
450.001045
  0
ARC
  8
0
  6
CONTINUOUS
 62
     5
 10
338.141095
 20
23.999999
 30
0.0
 40
0.480001
 50
179.999861
 51
240.000076
  0
ARC
  8
0
  6
CONTINUOUS
 62
     5
 10
338.141084
 20
23.99999
 30
0.0
 40
0.959987
 50
179.999239
 51
247.500164
  0
ARC
  8
0
  6
CONTINUOUS
 62
     5
 10
338.137889
 20
46.000005
 30
0.0
 40
0.479994
 50
89.999563
 51
180.000712
  0
ARC
  8
0
  6
CONTINUOUS
 62
     5
 10
338.137889
 20
46.000005
 30
0.0
 40
0.959994
 50
89.999863
 51
180.000106
  0
ARC
  8
0
  6
CONTINUOUS
 62
     5
 10
504.057889
 20
45.999998
 30
0.0
 40
0.480002
 50
0.00021
 51
89.999905
  0
ARC
  8
0
  6
CONTINUOUS
 62
     5
 10
504.057894
 20
46.000005
 30
0.0
 40
0.959994
 50
359.999892
 51
450.000141
  0
ARC
  8
0
  6
CONTINUOUS
 62
     2
 10
504.05789
 20
-25.84
 30
0.0
 40
0.479999
 50
269.99992
 51
360.000069
  0
ARC
  8
0
  6
CONTINUOUS
 62
     2
 10
504.057884
 20
-25.839982
 30
0.0
 40
0.960019
 50
270.000494
 51
359.998798
  0
ARC
  8
0
  6
CONTINUOUS
 62
     2
 10
338.137892
 20
-25.84
 30
0.0
 40
0.479999
 50
179.999905
 51
270.000103
  0
ARC
  8
0
  6
CONTINUOUS
 62
     2
 10
338.137875
 20
-25.840017
 30
0.0
 40
0.959977
 50
179.999087
 51
270.000918
  0
ARC
  8
0
  6
CONTINUOUS
 62
     7
 10
336.977874
 20
-24.800016
 30
0.0
 40
0.959976
 50
208.954797
 51
241.045463
  0
ARC
  8
0
  6
CONTINUOUS
 62
     7
 10
336.977874
 20
-24.400018
 30
0.0
 40
0.959976
 50
208.954797
 51
241.045464
  0
ARC
  8
0
  6
CONTINUOUS
 62
     7
 10
336.97788
 20
-24.39999
 30
0.0
 40
0.959984
 50
118.954631
 51
151.044979
  0
ARC
  8
0
  6
CONTINUOUS
 62
   218
 10
502.617926
 20
10.187462
 30
0.0
 40
0.799964
 50
359.999285
 51
405.001335
  0
ARC
  8
0
  6
CONTINUOUS
 62
   218
 10
502.53792
 20
11.851384
 30
0.0
 40
0.320032
 50
180.002384
 51
224.997597
  0
ARC
  8
0
  6
CONTINUOUS
 62
   130
 10
339.657862
 20
11.851384
 30
0.0
 40
0.320032
 50
315.002403
 51
359.997616
  0
ARC
  8
0
  6
CONTINUOUS
 62
   253
 10
429.65789
 20
14.199984
 30
0.0
 40
0.119999
 50
89.999555
 51
180.001219
  0
ARC
  8
0
  6
CONTINUOUS
 62
   253
 10
432.697889
 20
14.199982
 30
0.0
 40
0.120002
 50
0.000104
 51
89.999122
  0
ARC
  8
0
  6
CONTINUOUS
 62
   253
 10
437.497891
 20
14.199986
 30
0.0
 40
0.119999
 50
89.999425
 51
180.000258
  0
ARC
  8
0
  6
CONTINUOUS
 62
   253
 10
452.497893
 20
10.119985
 30
0.0
 40
0.119999
 50
269.999962
 51
360.000527
  0
ARC
  8
0
  6
CONTINUOUS
 62
   253
 10
452.497893
 20
9.719987
 30
0.0
 40
0.119998
 50
359.999244
 51
450.000587
  0
ARC
  8
0
  6
CONTINUOUS
 62
   253
 10
437.497891
 20
10.119984
 30
0.0
 40
0.12
 50
179.999853
 51
270.000133
  0
ARC
  8
0
  6
CONTINUOUS
 62
   253
 10
437.497891
 20
9.719985
 30
0.0
 40
0.12
 50
89.999867
 51
180.000074
  0
ARC
  8
0
  6
CONTINUOUS
 62
   253
 10
425.257891
 20
-8.679812
 30
0.0
 40
0.12
 50
179.999845
 51
270.000165
  0
ARC
  8
0
  6
CONTINUOUS
 62
   253
 10
425.257891
 20
-9.079811
 30
0.0
 40
0.12
 50
89.999835
 51
180.00022
  0
ARC
  8
0
  6
CONTINUOUS
 62
   253
 10
425.257889
 20
-10.759813
 30
0.0
 40
0.119998
 50
179.999354
 51
270.000713
  0
ARC
  8
0
  6
CONTINUOUS
 62
   253
 10
425.257892
 20
-11.159811
 30
0.0
 40
0.120001
 50
90.000387
 51
179.999471
  0
ARC
  8
0
  6
CONTINUOUS
 62
   253
 10
429.257891
 20
-8.679811
 30
0.0
 40
0.12
 50
269.999996
 51
359.999998
  0
ARC
  8
0
  6
CONTINUOUS
 62
   253
 10
429.257891
 20
-9.079811
 30
0.0
 40
0.12
 50
359.999957
 51
450.000079
  0
ARC
  8
0
  6
CONTINUOUS
 62
   253
 10
429.25789
 20
-10.759809
 30
0.0
 40
0.120001
 50
270.000494
 51
360.000027
  0
ARC
  8
0
  6
CONTINUOUS
 62
   253
 10
429.257889
 20
-11.159812
 30
0.0
 40
0.120002
 50
0.000649
 51
89.999116
  0
ARC
  8
0
  6
CONTINUOUS
 62
   253
 10
425.257892
 20
-14.839996
 30
0.0
 40
0.120001
 50
180.000318
 51
269.999616
  0
ARC
  8
0
  6
CONTINUOUS
 62
     2
 10
425.257892
 20
-15.239997
 30
0.0
 40
0.12
 50
90.000092
 51
179.999733
  0
ARC
  8
0
  6
CONTINUOUS
 62
   253
 10
429.257891
 20
-14.839997
 30
0.0
 40
0.12
 50
269.999981
 51
359.999785
  0
ARC
  8
0
  6
CONTINUOUS
 62
   253
 10
432.697891
 20
-14.839997
 30
0.0
 40
0.12
 50
269.999932
 51
359.999771
  0
ARC
  8
0
  6
CONTINUOUS
 62
   253
 10
433.097891
 20
-14.839997
 30
0.0
 40
0.12
 50
180.000216
 51
270.000018
  0
ARC
  8
0
  6
CONTINUOUS
 62
   253
 10
437.09789
 20
-14.839996
 30
0.0
 40
0.120001
 50
270.0005
 51
359.999567
  0
ARC
  8
0
  6
CONTINUOUS
 62
   253
 10
437.497892
 20
-14.839996
 30
0.0
 40
0.120001
 50
180.000433
 51
269.999396
  0
ARC
  8
0
  6
CONTINUOUS
 62
   253
 10
452.497889
 20
-14.839996
 30
0.0
 40
0.120001
 50
270.000169
 51
359.999924
  0
ARC
  8
0
  6
CONTINUOUS
 62
     2
 10
452.497889
 20
-15.239996
 30
0.0
 40
0.12
 50
0.000556
 51
90.000024
  0
ARC
  8
0
  6
CONTINUOUS
 62
     2
 10
452.497891
 20
-20.919998
 30
0.0
 40
0.119999
 50
269.999046
 51
360.000948
  0
ARC
  8
0
  6
CONTINUOUS
 62
   253
 10
452.497893
 20
-21.319992
 30
0.0
 40
0.119997
 50
359.998653
 51
450.001916
  0
ARC
  8
0
  6
CONTINUOUS
 62
   253
 10
452.497891
 20
-23.319998
 30
0.0
 40
0.119999
 50
269.999101
 51
360.000926
  0
ARC
  8
0
  6
CONTINUOUS
 62
   253
 10
409.857891
 20
-23.319998
 30
0.0
 40
0.119999
 50
179.999031
 51
270.000942
  0
ARC
  8
0
  6
CONTINUOUS
 62
   253
 10
409.857891
 20
-21.319994
 30
0.0
 40
0.119999
 50
89.999058
 51
180.000371
  0
ARC
  8
0
  6
CONTINUOUS
 62
   253
 10
409.857891
 20
-20.919998
 30
0.0
 40
0.119999
 50
179.999052
 51
270.000955
  0
ARC
  8
0
  6
CONTINUOUS
 62
     1
 10
340.250518
 20
8.479724
 30
0.0
 40
1.267119
 50
207.823554
 51
242.115049
  0
ARC
  8
0
  6
CONTINUOUS
 62
     1
 10
501.945248
 20
8.479741
 30
0.0
 40
1.267142
 50
297.885271
 51
332.176126
  0
ARC
  8
0
  6
CONTINUOUS
 62
     1
 10
501.945242
 20
-18.080283
 30
0.0
 40
1.267148
 50
27.823992
 51
62.114802
  0
ARC
  8
0
  6
CONTINUOUS
 62
     1
 10
501.945242
 20
-18.080283
 30
0.0
 40
1.267148
 50
297.885198
 51
332.176008
  0
LINE
  8
0
  6
CONTINUOUS
 62
     3
 10
503.737892
 20
-8.480231
 30
0.0
 11
503.737892
 21
-11.68023
 31
0.0
  0
LINE
  8
0
  6
CONTINUOUS
 62
     3
 10
503.177889
 20
-8.480231
 30
0.0
 11
504.937889
 21
-8.480231
 31
0.0
  0
ARC
  8
0
  6
CONTINUOUS
 62
     2
 10
337.977901
 20
3.359762
 30
0.0
 40
0.320009
 50
90.001487
 51
179.998675
  0
ARC
  8
0
  6
CONTINUOUS
 62
     2
 10
337.977896
 20
-7.200227
 30
0.0
 40
0.320005
 50
180.000767
 51
269.999727
  0
ARC
  8
0
  6
CONTINUOUS
 62
     7
 10
505.217908
 20
25.280018
 30
0.0
 40
0.959976
 50
28.954796
 51
61.045463
  0
ARC
  8
0
  6
CONTINUOUS
 62
     7
 10
505.217908
 20
25.280018
 30
0.0
 40
0.959976
 50
298.954537
 51
331.045204
  0
ARC
  8
0
  6
CONTINUOUS
 62
     5
 10
504.057894
 20
23.999993
 30
0.0
 40
0.479994
 50
269.999488
 51
360.000758
  0
ARC
  8
0
  6
CONTINUOUS
 62
     5
 10
504.057905
 20
23.999987
 30
0.0
 40
0.959981
 50
269.999276
 51
360.000934
  0
ARC
  8
0
  6
CONTINUOUS
 62
     7
 10
336.977915
 20
44.55999
 30
0.0
 40
0.960021
 50
118.955843
 51
151.045395
  0
ARC
  8
0
  6
CONTINUOUS
 62
     7
 10
336.977915
 20
44.55999
 30
0.0
 40
0.960021
 50
208.954605
 51
241.044157
  0
ARC
  8
0
  6
CONTINUOUS
 62
     7
 10
505.217867
 20
44.55999
 30
0.0
 40
0.960021
 50
298.955843
 51
331.045395
  0
ARC
  8
0
  6
CONTINUOUS
 62
     7
 10
505.217867
 20
44.55999
 30
0.0
 40
0.960021
 50
28.954605
 51
61.044157
  0
ARC
  8
0
  6
CONTINUOUS
 62
     7
 10
336.977874
 20
25.280018
 30
0.0
 40
0.959976
 50
118.954538
 51
151.045203
  0
ARC
  8
0
  6
CONTINUOUS
 62
     7
 10
336.977874
 20
25.280018
 30
0.0
 40
0.959976
 50
208.954797
 51
241.045462
  0
ARC
  8
0
  6
CONTINUOUS
 62
     7
 10
336.97787
 20
-21.359981
 30
0.0
 40
0.959972
 50
118.954421
 51
151.045197
  0
ARC
  8
0
  6
CONTINUOUS
 62
     7
 10
336.97787
 20
-21.359981
 30
0.0
 40
0.959972
 50
208.954803
 51
241.045579
  0
ARC
  8
0
  6
CONTINUOUS
 62
     7
 10
336.977896
 20
-16.640001
 30
0.0
 40
0.960003
 50
118.955176
 51
151.045079
  0
ARC
  8
0
  6
CONTINUOUS
 62
     7
 10
336.977896
 20
-16.640001
 30
0.0
 40
0.960003
 50
208.954921
 51
241.044824
  0
ARC
  8
0
  6
CONTINUOUS
 62
     7
 10
505.217888
 20
-16.639999
 30
0.0
 40
0.96
 50
298.955113
 51
331.045089
  0
ARC
  8
0
  6
CONTINUOUS
 62
     7
 10
505.217888
 20
-16.639999
 30
0.0
 40
0.96
 50
28.954911
 51
61.044887
  0
LINE
  8
0
  6
CONTINUOUS
 62
     7
 10
505.682648
 20
-20.52
 30
0.0
 11
505.682648
 21
-22.2
 31
0.0
  0
ARC
  8
0
  6
CONTINUOUS
 62
     7
 10
505.217889
 20
-21.360001
 30
0.0
 40
0.96
 50
298.955063
 51
331.044988
  0
ARC
  8
0
  6
CONTINUOUS
 62
     7
 10
505.217889
 20
-21.360001
 30
0.0
 40
0.96
 50
28.955012
 51
61.044937
  0
ARC
  8
0
  6
CONTINUOUS
 62
     7
 10
505.217903
 20
-24.39999
 30
0.0
 40
0.959984
 50
28.955021
 51
61.045369
  0
ARC
  8
0
  6
CONTINUOUS
 62
     7
 10
505.217908
 20
-24.800016
 30
0.0
 40
0.959976
 50
298.954538
 51
331.045202
  0
ARC
  8
0
  6
CONTINUOUS
 62
     7
 10
505.217903
 20
-24.39999
 30
0.0
 40
0.959984
 50
298.954631
 51
331.044979
  0
LINE
  8
0
  6
CONTINUOUS
 62
     2
 10
337.661094
 20
-15.36
 30
0.0
 11
337.657893
 21
-25.839999
 31
0.0
  0
ARC
  8
0
  6
CONTINUOUS
 62
     3
 10
338.616315
 20
-8.721821
 30
0.0
 40
0.078426
 50
180.0
 51
271.151099
  0
ARC
  8
0
  6
CONTINUOUS
 62
     3
 10
337.25789
 20
-8.72023
 30
0.0
 40
0.08
 50
270.000712
 51
360.0
  0
ARC
  8
0
  6
CONTINUOUS
 62
     3
 10
337.257887
 20
-11.440233
 30
0.0
 40
0.080003
 50
0.00161
 51
89.99604
  0
ARC
  8
0
  6
CONTINUOUS
 62
     3
 10
338.616314
 20
-11.438638
 30
0.0
 40
0.078423
 50
88.848155
 51
180.0
  0
LINE
  8
0
  6
CONTINUOUS
 62
    54
 10
502.777892
 20
-8.800231
 30
0.0
 11
503.577892
 21
-8.800231
 31
0.0
  0
ARC
  8
0
  6
CONTINUOUS
 62
     3
 10
503.579469
 20
-8.721823
 30
0.0
 40
0.078424
 50
268.847626
 51
360.0
  0
ARC
  8
0
  6
CONTINUOUS
 62
     3
 10
504.937889
 20
-8.720234
 30
0.0
 40
0.079996
 50
179.999704
 51
270.0
  0
ARC
  8
0
  6
CONTINUOUS
 62
     3
 10
504.93789
 20
-11.440227
 30
0.0
 40
0.079997
 50
89.999952
 51
180.002397
  0
ARC
  8
0
  6
CONTINUOUS
 62
     3
 10
503.579468
 20
-11.438638
 30
0.0
 40
0.078423
 50
0.0
 51
91.151845
  0
LINE
  8
0
  6
CONTINUOUS
 62
     2
 10
425.15446
 20
9.839984
 30
0.0
 11
425.137891
 21
9.799984
 31
0.0
  0
LINE
  8
0
  6
CONTINUOUS
 62
   253
 10
429.537891
 20
14.479984
 30
0.0
 11
429.537891
 21
-14.839997
 31
0.0
  0
POLYLINE
  8
0
  6
CONTINUOUS
 62
   253
 66
     1
 10
0.0
 20
0.0
 30
0.0
  0
VERTEX
  8
0
  6
CONTINUOUS
 10
429.537891
 20
-14.839998
 30
0.0
  0
VERTEX
  8
0
  6
CONTINUOUS
 10
429.567201
 20
-14.918581
 30
0.0
  0
VERTEX
  8
0
  6
CONTINUOUS
 10
429.640813
 20
-14.958776
 30
0.0
  0
VERTEX
  8
0
  6
CONTINUOUS
 10
429.657891
 20
-14.959997
 30
0.0
  0
SEQEND
  8
0
  6
CONTINUOUS
  0
LINE
  8
0
  6
DASHDOT
 62
     7
 10
422.777888
 20
-23.200014
 30
0.0
 11
422.777888
 21
-25.600008
 31
0.0
  0
LINE
  8
0
  6
DASHDOT
 62
     7
 10
421.577892
 20
-24.400011
 30
0.0
 11
423.977885
 21
-24.400011
 31
0.0
  0
LINE
  8
0
  6
DASHDOT
 62
     7
 10
439.577894
 20
-23.200014
 30
0.0
 11
439.577894
 21
-25.600008
 31
0.0
  0
LINE
  8
0
  6
DASHDOT
 62
     7
 10
438.377897
 20
-24.400011
 30
0.0
 11
440.777891
 21
-24.400011
 31
0.0
  0
LINE
  8
0
  6
DASHDOT
 62
     7
 10
431.177891
 20
52.019034
 30
0.0
 11
431.177891
 21
-33.6132
 31
0.0
  0
LINE
  8
0
  6
CONTINUOUS
 62
     2
 10
345.617893
 20
-25.519999
 30
0.0
 11
345.617893
 21
-26.319999
 31
0.0
  0
LINE
  8
0
  6
CONTINUOUS
 62
     2
 10
496.57789
 20
-25.519999
 30
0.0
 11
496.57789
 21
-26.319999
 31
0.0
  0
LINE
  8
0
  6
DASHDOT
 62
     7
 10
421.097891
 20
52.549915
 30
0.0
 11
421.097891
 21
-32.439253
 31
0.0
  0
TEXT
  8
0
  6
CONTINUOUS
 62
     7
 10
432.202133
 20
48.979609
 30
0.0
 40
4.0
  1
Y
 50
360.0
 41
0.915625
 72
     1
 11
433.667133
 21
50.979609
 31
0.0
 73
     2
  0
TEXT
  8
0
  6
CONTINUOUS
 62
     7
 10
431.563881
 20
-31.972004
 30
0.0
 40
4.0
  1
Y
 50
360.0
 41
0.915625
 72
     1
 11
433.028881
 21
-29.972004
 31
0.0
 73
     2
  0
LINE
  8
0
  6
CONTINUOUS
 62
   212
 10
337.177893
 20
-157.397533
 30
0.0
 11
336.697893
 21
-157.397533
 31
0.0
  0
LINE
  8
0
  6
CONTINUOUS
 62
   212
 10
337.177893
 20
-98.277534
 30
0.0
 11
336.697893
 21
-98.277534
 31
0.0
  0
LINE
  8
0
  6
CONTINUOUS
 62
   212
 10
337.177893
 20
-98.277534
 30
0.0
 11
337.177893
 21
-157.397533
 31
0.0
  0
LINE
  8
0
  6
CONTINUOUS
 62
   212
 10
336.697893
 20
-98.277534
 30
0.0
 11
336.697893
 21
-157.397533
 31
0.0
  0
LINE
  8
0
  6
CONTINUOUS
 62
   212
 10
505.497889
 20
-157.397533
 30
0.0
 11
505.017889
 21
-157.397533
 31
0.0
  0
LINE
  8
0
  6
CONTINUOUS
 62
   212
 10
505.497889
 20
-98.277534
 30
0.0
 11
505.017889
 21
-98.277534
 31
0.0
  0
LINE
  8
0
  6
CONTINUOUS
 62
   212
 10
505.017889
 20
-98.277534
 30
0.0
 11
505.017889
 21
-157.397533
 31
0.0
  0
LINE
  8
0
  6
CONTINUOUS
 62
   212
 10
505.497889
 20
-98.277534
 30
0.0
 11
505.497889
 21
-157.397533
 31
0.0
  0
LINE
  8
0
  6
CONTINUOUS
 62
     2
 10
504.857889
 20
-98.357534
 30
0.0
 11
337.177893
 21
-98.357534
 31
0.0
  0
LINE
  8
0
  6
CONTINUOUS
 62
     2
 10
426.617891
 20
-99.077534
 30
0.0
 11
426.457891
 21
-99.077534
 31
0.0
  0
LINE
  8
0
  6
CONTINUOUS
 62
     2
 10
496.37789
 20
-99.077534
 30
0.0
 11
496.21789
 21
-99.077534
 31
0.0
  0
LINE
  8
0
  6
CONTINUOUS
 62
     2
 10
505.017889
 20
-138.037535
 30
0.0
 11
337.177893
 21
-138.037535
 31
0.0
  0
LINE
  8
0
  6
CONTINUOUS
 62
     2
 10
337.337893
 20
-137.477535
 30
0.0
 11
337.177893
 21
-137.477535
 31
0.0
  0
LINE
  8
0
  6
CONTINUOUS
 62
     2
 10
505.017889
 20
-137.477535
 30
0.0
 11
504.857889
 21
-137.477535
 31
0.0
  0
LINE
  8
0
  6
CONTINUOUS
 62
     5
 10
504.057889
 20
-143.397535
 30
0.0
 11
338.137893
 21
-143.397535
 31
0.0
  0
LINE
  8
0
  6
CONTINUOUS
 62
     5
 10
504.057889
 20
-138.117535
 30
0.0
 11
338.137893
 21
-138.117535
 31
0.0
  0
LINE
  8
0
  6
CONTINUOUS
 62
     5
 10
338.137893
 20
-142.437535
 30
0.0
 11
338.137893
 21
-143.397535
 31
0.0
  0
LINE
  8
0
  6
CONTINUOUS
 62
     5
 10
504.057889
 20
-142.437535
 30
0.0
 11
504.057889
 21
-143.397535
 31
0.0
  0
LINE
  8
0
  6
CONTINUOUS
 62
     5
 10
338.137893
 20
-142.917535
 30
0.0
 11
337.177893
 21
-142.917535
 31
0.0
  0
LINE
  8
0
  6
CONTINUOUS
 62
     5
 10
338.137893
 20
-143.397535
 30
0.0
 11
337.177893
 21
-143.397535
 31
0.0
  0
LINE
  8
0
  6
CONTINUOUS
 62
     5
 10
505.017889
 20
-142.917535
 30
0.0
 11
504.057889
 21
-142.917535
 31
0.0
  0
LINE
  8
0
  6
CONTINUOUS
 62
     5
 10
505.017889
 20
-143.397535
 30
0.0
 11
504.057889
 21
-143.397535
 31
0.0
  0
LINE
  8
0
  6
CONTINUOUS
 62
     5
 10
338.137893
 20
-142.437535
 30
0.0
 11
337.177893
 21
-142.437535
 31
0.0
  0
LINE
  8
0
  6
CONTINUOUS
 62
     5
 10
338.137893
 20
-138.117535
 30
0.0
 11
337.177893
 21
-138.117535
 31
0.0
  0
LINE
  8
0
  6
CONTINUOUS
 62
     5
 10
505.017889
 20
-142.437535
 30
0.0
 11
504.057889
 21
-142.437535
 31
0.0
  0
LINE
  8
0
  6
CONTINUOUS
 62
     5
 10
505.017889
 20
-138.117535
 30
0.0
 11
504.057889
 21
-138.117535
 31
0.0
  0
LINE
  8
0
  6
CONTINUOUS
 62
     1
 10
505.59389
 20
-135.197536
 30
0.0
 11
505.59389
 21
-136.557536
 31
0.0
  0
LINE
  8
0
  6
CONTINUOUS
 62
     1
 10
505.59389
 20
-99.997536
 30
0.0
 11
505.59389
 21
-101.357536
 31
0.0
  0
LINE
  8
0
  6
CONTINUOUS
 62
     1
 10
336.601892
 20
-99.997536
 30
0.0
 11
336.601892
 21
-101.357536
 31
0.0
  0
LINE
  8
0
  6
CONTINUOUS
 62
   218
 10
336.601892
 20
-136.437536
 30
0.0
 11
336.137893
 21
-136.437536
 31
0.0
  0
LINE
  8
0
  6
CONTINUOUS
 62
   218
 10
336.601892
 20
-135.317536
 30
0.0
 11
336.153894
 21
-135.317536
 31
0.0
  0
LINE
  8
0
  6
CONTINUOUS
 62
   218
 10
336.153894
 20
-135.317536
 30
0.0
 11
336.153894
 21
-136.437536
 31
0.0
  0
LINE
  8
0
  6
CONTINUOUS
 62
   218
 10
506.041888
 20
-136.437536
 30
0.0
 11
505.59389
 21
-136.437536
 31
0.0
  0
LINE
  8
0
  6
CONTINUOUS
 62
   218
 10
506.041888
 20
-135.317536
 30
0.0
 11
505.59389
 21
-135.317536
 31
0.0
  0
LINE
  8
0
  6
CONTINUOUS
 62
   218
 10
506.041888
 20
-135.317536
 30
0.0
 11
506.041888
 21
-136.437536
 31
0.0
  0
LINE
  8
0
  6
CONTINUOUS
 62
   218
 10
336.601892
 20
-101.237536
 30
0.0
 11
336.153894
 21
-101.237536
 31
0.0
  0
LINE
  8
0
  6
CONTINUOUS
 62
   218
 10
336.601892
 20
-100.117536
 30
0.0
 11
336.153894
 21
-100.117536
 31
0.0
  0
LINE
  8
0
  6
CONTINUOUS
 62
   218
 10
336.153894
 20
-100.117536
 30
0.0
 11
336.153894
 21
-101.237536
 31
0.0
  0
LINE
  8
0
  6
CONTINUOUS
 62
   218
 10
506.041888
 20
-101.237536
 30
0.0
 11
505.59389
 21
-101.237536
 31
0.0
  0
LINE
  8
0
  6
CONTINUOUS
 62
   218
 10
506.041888
 20
-100.117536
 30
0.0
 11
505.59389
 21
-100.117536
 31
0.0
  0
LINE
  8
0
  6
CONTINUOUS
 62
   218
 10
506.041888
 20
-100.117536
 30
0.0
 11
506.041888
 21
-101.237536
 31
0.0
  0
LINE
  8
0
  6
CONTINUOUS
 62
     1
 10
505.577889
 20
-138.837535
 30
0.0
 11
505.577889
 21
-140.597535
 31
0.0
  0
LINE
  8
0
  6
CONTINUOUS
 62
     1
 10
336.617893
 20
-138.837535
 30
0.0
 11
336.617893
 21
-140.597535
 31
0.0
  0
LINE
  8
0
  6
CONTINUOUS
 62
     7
 10
506.057889
 20
-139.252777
 30
0.0
 11
506.057889
 21
-140.182294
 31
0.0
  0
LINE
  8
0
  6
CONTINUOUS
 62
     7
 10
336.137893
 20
-139.252777
 30
0.0
 11
336.137893
 21
-140.182294
 31
0.0
  0
LINE
  8
0
  6
CONTINUOUS
 62
   253
 10
452.777891
 20
-158.837528
 30
0.0
 11
409.581593
 21
-158.837528
 31
0.0
  0
LINE
  8
0
  6
CONTINUOUS
 62
   253
 10
452.863801
 20
-154.627895
 30
0.0
 11
452.77789
 21
-158.837527
 31
0.0
  0
LINE
  8
0
  6
CONTINUOUS
 62
   253
 10
409.581595
 20
-158.837528
 30
0.0
 11
409.493695
 21
-154.627895
 31
0.0
  0
LINE
  8
0
  6
CONTINUOUS
 62
     7
 10
339.977893
 20
-143.397535
 30
0.0
 11
339.977893
 21
-150.517528
 31
0.0
  0
LINE
  8
0
  6
CONTINUOUS
 62
     7
 10
346.648837
 20
-150.517528
 30
0.0
 11
339.977893
 21
-150.517528
 31
0.0
  0
LINE
  8
0
  6
CONTINUOUS
 62
     3
 10
451.577891
 20
-143.397535
 30
0.0
 11
451.577891
 21
-147.787514
 31
0.0
  0
LINE
  8
0
  6
CONTINUOUS
 62
     7
 10
502.217889
 20
-143.397535
 30
0.0
 11
502.217889
 21
-150.517528
 31
0.0
  0
LINE
  8
0
  6
CONTINUOUS
 62
     7
 10
502.217889
 20
-150.517528
 30
0.0
 11
495.832451
 21
-150.517528
 31
0.0
  0
LINE
  8
0
  6
CONTINUOUS
 62
     7
 10
451.737891
 20
-143.397535
 30
0.0
 11
451.737891
 21
-147.787514
 31
0.0
  0
LINE
  8
0
  6
CONTINUOUS
 62
     2
 10
452.617891
 20
-159.637528
 30
0.0
 11
409.737892
 21
-159.637528
 31
0.0
  0
LINE
  8
0
  6
CONTINUOUS
 62
     2
 10
409.737892
 20
-158.837528
 30
0.0
 11
409.737892
 21
-159.637528
 31
0.0
  0
LINE
  8
0
  6
CONTINUOUS
 62
     2
 10
452.617891
 20
-158.837528
 30
0.0
 11
452.617891
 21
-159.637528
 31
0.0
  0
LINE
  8
0
  6
CONTINUOUS
 62
     1
 10
336.617893
 20
-106.517534
 30
0.0
 11
336.617893
 21
-108.277534
 31
0.0
  0
LINE
  8
0
  6
CONTINUOUS
 62
     1
 10
505.577889
 20
-101.357536
 30
0.0
 11
505.577889
 21
-101.877534
 31
0.0
  0
LINE
  8
0
  6
CONTINUOUS
 62
     1
 10
505.577889
 20
-106.517534
 30
0.0
 11
505.577889
 21
-108.277534
 31
0.0
  0
LINE
  8
0
  6
CONTINUOUS
 62
     1
 10
336.617893
 20
-101.357536
 30
0.0
 11
336.617893
 21
-101.877534
 31
0.0
  0
LINE
  8
0
  6
CONTINUOUS
 62
     7
 10
336.137893
 20
-100.532776
 30
0.0
 11
336.137893
 21
-101.462292
 31
0.0
  0
LINE
  8
0
  6
CONTINUOUS
 62
     7
 10
506.057889
 20
-100.532776
 30
0.0
 11
506.057889
 21
-101.462292
 31
0.0
  0
LINE
  8
0
  6
CONTINUOUS
 62
     7
 10
336.137893
 20
-106.932775
 30
0.0
 11
336.137893
 21
-107.862292
 31
0.0
  0
LINE
  8
0
  6
CONTINUOUS
 62
     7
 10
506.057889
 20
-106.932775
 30
0.0
 11
506.057889
 21
-107.862292
 31
0.0
  0
LINE
  8
0
  6
CONTINUOUS
 62
   253
 10
501.737889
 20
-97.797529
 30
0.0
 11
501.33789
 21
-97.797529
 31
0.0
  0
LINE
  8
0
  6
CONTINUOUS
 62
   253
 10
501.33789
 20
-96.197529
 30
0.0
 11
501.33789
 21
-97.797529
 31
0.0
  0
LINE
  8
0
  6
CONTINUOUS
 62
   253
 10
501.737889
 20
-97.797529
 30
0.0
 11
501.737889
 21
-98.357534
 31
0.0
  0
LINE
  8
0
  6
CONTINUOUS
 62
   253
 10
461.01789
 20
-96.197529
 30
0.0
 11
461.01789
 21
-97.797529
 31
0.0
  0
LINE
  8
0
  6
CONTINUOUS
 62
   253
 10
461.41789
 20
-97.797529
 30
0.0
 11
461.41789
 21
-98.357534
 31
0.0
  0
LINE
  8
0
  6
CONTINUOUS
 62
   253
 10
461.01789
 20
-96.197529
 30
0.0
 11
421.497891
 21
-96.197529
 31
0.0
  0
LINE
  8
0
  6
CONTINUOUS
 62
   253
 10
421.497891
 20
-96.197529
 30
0.0
 11
421.497891
 21
-97.797529
 31
0.0
  0
LINE
  8
0
  6
CONTINUOUS
 62
   253
 10
421.097891
 20
-97.797529
 30
0.0
 11
421.097891
 21
-98.357534
 31
0.0
  0
LINE
  8
0
  6
CONTINUOUS
 62
   253
 10
421.497891
 20
-97.797529
 30
0.0
 11
420.697891
 21
-97.797529
 31
0.0
  0
LINE
  8
0
  6
CONTINUOUS
 62
   132
 10
499.33789
 20
-90.917529
 30
0.0
 11
499.33789
 21
-96.197529
 31
0.0
  0
LINE
  8
0
  6
CONTINUOUS
 62
   132
 10
459.01789
 20
-90.917529
 30
0.0
 11
423.497891
 21
-90.917529
 31
0.0
  0
LINE
  8
0
  6
CONTINUOUS
 62
   132
 10
423.497891
 20
-90.917529
 30
0.0
 11
423.497891
 21
-96.197529
 31
0.0
  0
LINE
  8
0
  6
CONTINUOUS
 62
   132
 10
459.01789
 20
-90.917529
 30
0.0
 11
459.01789
 21
-96.197529
 31
0.0
  0
LINE
  8
0
  6
CONTINUOUS
 62
   130
 10
505.737889
 20
-109.077534
 30
0.0
 11
505.737889
 21
-110.677534
 31
0.0
  0
LINE
  8
0
  6
CONTINUOUS
 62
   130
 10
336.457893
 20
-109.077534
 30
0.0
 11
336.457893
 21
-110.677534
 31
0.0
  0
LINE
  8
0
  6
CONTINUOUS
 62
     2
 10
502.697889
 20
-143.397539
 30
0.0
 11
502.697889
 21
-149.397601
 31
0.0
  0
LINE
  8
0
  6
CONTINUOUS
 62
     2
 10
504.937889
 20
-142.437541
 30
0.0
 11
504.937889
 21
-142.917538
 31
0.0
  0
LINE
  8
0
  6
CONTINUOUS
 62
     2
 10
504.937889
 20
-143.39754
 30
0.0
 11
504.937889
 21
-144.917523
 31
0.0
  0
LINE
  8
0
  6
CONTINUOUS
 62
     2
 10
504.937889
 20
-146.517523
 30
0.0
 11
504.937889
 21
-149.397601
 31
0.0
  0
LINE
  8
0
  6
CONTINUOUS
 62
     2
 10
504.937889
 20
-149.397601
 30
0.0
 11
502.697889
 21
-149.397601
 31
0.0
  0
LINE
  8
0
  6
CONTINUOUS
 62
     2
 10
504.537889
 20
-149.877601
 30
0.0
 11
503.177889
 21
-149.877601
 31
0.0
  0
LINE
  8
0
  6
CONTINUOUS
 62
     2
 10
504.537889
 20
-150.357601
 30
0.0
 11
503.177889
 21
-150.357601
 31
0.0
  0
LINE
  8
0
  6
CONTINUOUS
 62
     2
 10
504.537889
 20
-149.877601
 30
0.0
 11
504.537889
 21
-150.357601
 31
0.0
  0
LINE
  8
0
  6
CONTINUOUS
 62
     2
 10
339.497893
 20
-143.397535
 30
0.0
 11
339.497893
 21
-149.397601
 31
0.0
  0
LINE
  8
0
  6
CONTINUOUS
 62
     2
 10
337.257893
 20
-142.437541
 30
0.0
 11
337.257893
 21
-142.917538
 31
0.0
  0
LINE
  8
0
  6
CONTINUOUS
 62
     2
 10
337.257893
 20
-143.39754
 30
0.0
 11
337.257893
 21
-144.917523
 31
0.0
  0
LINE
  8
0
  6
CONTINUOUS
 62
     2
 10
337.257893
 20
-146.517523
 30
0.0
 11
337.257893
 21
-149.397601
 31
0.0
  0
LINE
  8
0
  6
CONTINUOUS
 62
     2
 10
339.497893
 20
-149.397601
 30
0.0
 11
337.257893
 21
-149.397601
 31
0.0
  0
LINE
  8
0
  6
CONTINUOUS
 62
     2
 10
339.017893
 20
-149.877601
 30
0.0
 11
337.657893
 21
-149.877601
 31
0.0
  0
LINE
  8
0
  6
CONTINUOUS
 62
     2
 10
339.017893
 20
-150.357601
 30
0.0
 11
337.657893
 21
-150.357601
 31
0.0
  0
LINE
  8
0
  6
CONTINUOUS
 62
     2
 10
337.657893
 20
-149.877601
 30
0.0
 11
337.657893
 21
-150.357601
 31
0.0
  0
LINE
  8
0
  6
CONTINUOUS
 62
   212
 10
505.017889
 20
-144.917523
 30
0.0
 11
503.897889
 21
-144.917523
 31
0.0
  0
LINE
  8
0
  6
CONTINUOUS
 62
   212
 10
503.897889
 20
-144.917523
 30
0.0
 11
503.897889
 21
-146.517523
 31
0.0
  0
LINE
  8
0
  6
CONTINUOUS
 62
   212
 10
505.017889
 20
-146.517523
 30
0.0
 11
503.897889
 21
-146.517523
 31
0.0
  0
LINE
  8
0
  6
CONTINUOUS
 62
   212
 10
338.297893
 20
-144.917523
 30
0.0
 11
337.177893
 21
-144.917523
 31
0.0
  0
LINE
  8
0
  6
CONTINUOUS
 62
   212
 10
338.297893
 20
-144.917523
 30
0.0
 11
338.297893
 21
-146.517523
 31
0.0
  0
LINE
  8
0
  6
CONTINUOUS
 62
   212
 10
338.297893
 20
-146.517523
 30
0.0
 11
337.177893
 21
-146.517523
 31
0.0
  0
LINE
  8
0
  6
CONTINUOUS
 62
     3
 10
504.857922
 20
-154.114433
 30
0.0
 11
504.857889
 21
-157.154395
 31
0.0
  0
LINE
  8
0
  6
CONTINUOUS
 62
     3
 10
503.657892
 20
-154.114398
 30
0.0
 11
503.657892
 21
-157.154398
 31
0.0
  0
LINE
  8
0
  6
CONTINUOUS
 62
     3
 10
503.577892
 20
-154.354398
 30
0.0
 11
503.577892
 21
-156.914397
 31
0.0
  0
LINE
  8
0
  6
CONTINUOUS
 62
     3
 10
504.937892
 20
-154.354398
 30
0.0
 11
504.937892
 21
-156.914396
 31
0.0
  0
LINE
  8
0
  6
CONTINUOUS
 62
     3
 10
337.337893
 20
-154.1144
 30
0.0
 11
337.337893
 21
-157.154394
 31
0.0
  0
LINE
  8
0
  6
CONTINUOUS
 62
     3
 10
338.537891
 20
-154.114398
 30
0.0
 11
338.537891
 21
-157.154398
 31
0.0
  0
LINE
  8
0
  6
CONTINUOUS
 62
     3
 10
338.617891
 20
-154.354398
 30
0.0
 11
338.617891
 21
-156.914397
 31
0.0
  0
LINE
  8
0
  6
CONTINUOUS
 62
     3
 10
337.257891
 20
-154.354398
 30
0.0
 11
337.257891
 21
-156.914396
 31
0.0
  0
LINE
  8
0
  6
CONTINUOUS
 62
    54
 10
339.417891
 20
-157.234398
 30
0.0
 11
337.177891
 21
-157.234398
 31
0.0
  0
LINE
  8
0
  6
CONTINUOUS
 62
    54
 10
339.417891
 20
-151.154398
 30
0.0
 11
339.417891
 21
-157.234398
 31
0.0
  0
LINE
  8
0
  6
CONTINUOUS
 62
    54
 10
338.697891
 20
-153.7144
 30
0.0
 11
337.177891
 21
-153.7144
 31
0.0
  0
LINE
  8
0
  6
CONTINUOUS
 62
    54
 10
338.697891
 20
-153.7144
 30
0.0
 11
338.697891
 21
-157.234398
 31
0.0
  0
LINE
  8
0
  6
CONTINUOUS
 62
    54
 10
337.897891
 20
-149.397601
 30
0.0
 11
337.897891
 21
-149.877601
 31
0.0
  0
LINE
  8
0
  6
CONTINUOUS
 62
    54
 10
337.897891
 20
-150.357601
 30
0.0
 11
337.897891
 21
-151.154398
 31
0.0
  0
LINE
  8
0
  6
CONTINUOUS
 62
    54
 10
339.417891
 20
-151.154398
 30
0.0
 11
337.897891
 21
-151.154398
 31
0.0
  0
LINE
  8
0
  6
CONTINUOUS
 62
    54
 10
505.017889
 20
-157.234398
 30
0.0
 11
502.777892
 21
-157.234398
 31
0.0
  0
LINE
  8
0
  6
CONTINUOUS
 62
    54
 10
502.777892
 20
-151.154398
 30
0.0
 11
502.777892
 21
-157.234398
 31
0.0
  0
LINE
  8
0
  6
CONTINUOUS
 62
    54
 10
505.017892
 20
-153.7144
 30
0.0
 11
503.497892
 21
-153.7144
 31
0.0
  0
LINE
  8
0
  6
CONTINUOUS
 62
    54
 10
503.497892
 20
-153.7144
 30
0.0
 11
503.497892
 21
-157.234398
 31
0.0
  0
LINE
  8
0
  6
CONTINUOUS
 62
    54
 10
504.297892
 20
-150.357601
 30
0.0
 11
504.297892
 21
-151.154398
 31
0.0
  0
LINE
  8
0
  6
CONTINUOUS
 62
    54
 10
504.297892
 20
-149.397601
 30
0.0
 11
504.297892
 21
-149.877601
 31
0.0
  0
LINE
  8
0
  6
CONTINUOUS
 62
    54
 10
504.297892
 20
-151.154398
 30
0.0
 11
502.777892
 21
-151.154398
 31
0.0
  0
LINE
  8
0
  6
CONTINUOUS
 62
     2
 10
337.20989
 20
-156.395245
 30
0.0
 11
337.20989
 21
-156.434398
 31
0.0
  0
LINE
  8
0
  6
CONTINUOUS
 62
     2
 10
337.20989
 20
-154.834398
 30
0.0
 11
337.20989
 21
-156.434398
 31
0.0
  0
LINE
  8
0
  6
CONTINUOUS
 62
     2
 10
338.64989
 20
-154.834398
 30
0.0
 11
338.64989
 21
-156.434398
 31
0.0
  0
LINE
  8
0
  6
CONTINUOUS
 62
     2
 10
504.985892
 20
-156.395245
 30
0.0
 11
504.985892
 21
-156.434398
 31
0.0
  0
LINE
  8
0
  6
CONTINUOUS
 62
     2
 10
504.985892
 20
-154.834398
 30
0.0
 11
504.985892
 21
-156.434398
 31
0.0
  0
LINE
  8
0
  6
CONTINUOUS
 62
     2
 10
503.545892
 20
-154.873553
 30
0.0
 11
503.545892
 21
-155.116627
 31
0.0
  0
LINE
  8
0
  6
CONTINUOUS
 62
     2
 10
503.545892
 20
-154.834398
 30
0.0
 11
503.545892
 21
-156.434398
 31
0.0
  0
LINE
  8
0
  6
CONTINUOUS
 62
     7
 10
336.377888
 20
-119.477524
 30
0.0
 11
336.377888
 21
-121.397524
 31
0.0
  0
LINE
  8
0
  6
CONTINUOUS
 62
     7
 10
505.817894
 20
-119.477524
 30
0.0
 11
505.817894
 21
-121.397524
 31
0.0
  0
LINE
  8
0
  6
CONTINUOUS
 62
     5
 10
339.12989
 20
-149.397601
 30
0.0
 11
339.12989
 21
-149.855323
 31
0.0
  0
LINE
  8
0
  6
CONTINUOUS
 62
     5
 10
503.065892
 20
-149.397601
 30
0.0
 11
503.065892
 21
-149.855323
 31
0.0
  0
LINE
  8
0
  6
CONTINUOUS
 62
     7
 10
504.105892
 20
-150.357601
 30
0.0
 11
504.105892
 21
-150.381527
 31
0.0
  0
LINE
  8
0
  6
CONTINUOUS
 62
     7
 10
504.105892
 20
-149.397601
 30
0.0
 11
504.105892
 21
-149.877601
 31
0.0
  0
LINE
  8
0
  6
CONTINUOUS
 62
     7
 10
338.08989
 20
-149.397601
 30
0.0
 11
338.08989
 21
-149.877601
 31
0.0
  0
LINE
  8
0
  6
CONTINUOUS
 62
     7
 10
338.08989
 20
-150.357601
 30
0.0
 11
338.08989
 21
-150.381527
 31
0.0
  0
LINE
  8
0
  6
CONTINUOUS
 62
     7
 10
339.257896
 20
-149.397601
 30
0.0
 11
339.257896
 21
-149.757525
 31
0.0
  0
LINE
  8
0
  6
CONTINUOUS
 62
     7
 10
336.377888
 20
-148.277523
 30
0.0
 11
336.377888
 21
-150.197523
 31
0.0
  0
LINE
  8
0
  6
CONTINUOUS
 62
     7
 10
502.937887
 20
-149.397601
 30
0.0
 11
502.937887
 21
-149.757525
 31
0.0
  0
LINE
  8
0
  6
CONTINUOUS
 62
     7
 10
505.817894
 20
-148.277523
 30
0.0
 11
505.817894
 21
-150.197523
 31
0.0
  0
LINE
  8
0
  6
CONTINUOUS
 62
     5
 10
433.897891
 20
-159.642535
 30
0.0
 11
433.897891
 21
-160.277533
 31
0.0
  0
LINE
  8
0
  6
CONTINUOUS
 62
     5
 10
436.297891
 20
-160.277533
 30
0.0
 11
433.897891
 21
-160.277533
 31
0.0
  0
LINE
  8
0
  6
CONTINUOUS
 62
     5
 10
436.297891
 20
-159.642535
 30
0.0
 11
436.297891
 21
-160.277533
 31
0.0
  0
LINE
  8
0
  6
CONTINUOUS
 62
     7
 10
506.057889
 20
-106.932775
 30
0.0
 11
506.057889
 21
-107.862292
 31
0.0
  0
LINE
  8
0
  6
CONTINUOUS
 62
     7
 10
506.057889
 20
-100.532776
 30
0.0
 11
506.057889
 21
-101.462292
 31
0.0
  0
LINE
  8
0
  6
CONTINUOUS
 62
     7
 10
336.137893
 20
-100.532776
 30
0.0
 11
336.137893
 21
-101.462292
 31
0.0
  0
LINE
  8
0
  6
CONTINUOUS
 62
     7
 10
336.137893
 20
-106.932775
 30
0.0
 11
336.137893
 21
-107.862292
 31
0.0
  0
LINE
  8
0
  6
CONTINUOUS
 62
     2
 10
502.777892
 20
-156.117533
 30
0.0
 11
452.8334
 21
-156.117533
 31
0.0
  0
LINE
  8
0
  6
CONTINUOUS
 62
     2
 10
409.5248
 20
-156.117533
 30
0.0
 11
339.417893
 21
-156.117533
 31
0.0
  0
LINE
  8
0
  6
CONTINUOUS
 62
     1
 10
505.577889
 20
-136.557536
 30
0.0
 11
505.577889
 21
-137.077533
 31
0.0
  0
LINE
  8
0
  6
CONTINUOUS
 62
     7
 10
506.057889
 20
-135.732775
 30
0.0
 11
506.057889
 21
-136.662291
 31
0.0
  0
LINE
  8
0
  6
CONTINUOUS
 62
     7
 10
336.137893
 20
-136.437536
 30
0.0
 11
336.137893
 21
-136.662291
 31
0.0
  0
LINE
  8
0
  6
CONTINUOUS
 62
     1
 10
336.617893
 20
-152.837533
 30
0.0
 11
336.617893
 21
-154.597533
 31
0.0
  0
LINE
  8
0
  6
CONTINUOUS
 62
     1
 10
505.577889
 20
-112.037534
 30
0.0
 11
505.577889
 21
-113.797534
 31
0.0
  0
LINE
  8
0
  6
CONTINUOUS
 62
     1
 10
505.577889
 20
-152.837533
 30
0.0
 11
505.577889
 21
-154.597533
 31
0.0
  0
LINE
  8
0
  6
CONTINUOUS
 62
     1
 10
336.617893
 20
-112.037534
 30
0.0
 11
336.617893
 21
-113.797534
 31
0.0
  0
LINE
  8
0
  6
CONTINUOUS
 62
     7
 10
506.057889
 20
-112.452775
 30
0.0
 11
506.057889
 21
-113.382292
 31
0.0
  0
LINE
  8
0
  6
CONTINUOUS
 62
     7
 10
336.137893
 20
-153.252774
 30
0.0
 11
336.137893
 21
-154.182291
 31
0.0
  0
LINE
  8
0
  6
CONTINUOUS
 62
     7
 10
336.137893
 20
-112.452775
 30
0.0
 11
336.137893
 21
-113.382292
 31
0.0
  0
LINE
  8
0
  6
CONTINUOUS
 62
     7
 10
506.057889
 20
-153.252774
 30
0.0
 11
506.057889
 21
-154.182291
 31
0.0
  0
LINE
  8
0
  6
CONTINUOUS
 62
     1
 10
336.617893
 20
-127.877533
 30
0.0
 11
336.617893
 21
-129.637533
 31
0.0
  0
LINE
  8
0
  6
CONTINUOUS
 62
     1
 10
505.577889
 20
-127.877533
 30
0.0
 11
505.577889
 21
-129.637533
 31
0.0
  0
LINE
  8
0
  6
CONTINUOUS
 62
     7
 10
336.137893
 20
-128.292775
 30
0.0
 11
336.137893
 21
-129.222291
 31
0.0
  0
LINE
  8
0
  6
CONTINUOUS
 62
     7
 10
506.057889
 20
-128.292775
 30
0.0
 11
506.057889
 21
-129.222291
 31
0.0
  0
LINE
  8
0
  6
CONTINUOUS
 62
     2
 10
504.857889
 20
-99.077534
 30
0.0
 11
337.337893
 21
-99.077534
 31
0.0
  0
LINE
  8
0
  6
CONTINUOUS
 62
     2
 10
337.337893
 20
-99.077534
 30
0.0
 11
337.337893
 21
-137.477535
 31
0.0
  0
LINE
  8
0
  6
CONTINUOUS
 62
     2
 10
504.857889
 20
-98.357534
 30
0.0
 11
504.857889
 21
-137.477535
 31
0.0
  0
LINE
  8
0
  6
CONTINUOUS
 62
     5
 10
338.137893
 20
-138.117535
 30
0.0
 11
338.137893
 21
-142.437535
 31
0.0
  0
LINE
  8
0
  6
CONTINUOUS
 62
     5
 10
504.057889
 20
-138.117535
 30
0.0
 11
504.057889
 21
-142.437535
 31
0.0
  0
LINE
  8
0
  6
CONTINUOUS
 62
     1
 10
505.59389
 20
-136.557536
 30
0.0
 11
505.497889
 21
-136.557536
 31
0.0
  0
LINE
  8
0
  6
CONTINUOUS
 62
     1
 10
505.59389
 20
-135.197536
 30
0.0
 11
505.497889
 21
-135.197536
 31
0.0
  0
LINE
  8
0
  6
CONTINUOUS
 62
     1
 10
336.697893
 20
-136.557536
 30
0.0
 11
336.513135
 21
-136.557536
 31
0.0
  0
LINE
  8
0
  6
CONTINUOUS
 62
     1
 10
336.697893
 20
-135.197536
 30
0.0
 11
336.513135
 21
-135.197536
 31
0.0
  0
LINE
  8
0
  6
CONTINUOUS
 62
     1
 10
505.59389
 20
-101.357536
 30
0.0
 11
505.497889
 21
-101.357536
 31
0.0
  0
LINE
  8
0
  6
CONTINUOUS
 62
     1
 10
505.59389
 20
-99.997536
 30
0.0
 11
505.497889
 21
-99.997536
 31
0.0
  0
LINE
  8
0
  6
CONTINUOUS
 62
     1
 10
336.697893
 20
-101.357536
 30
0.0
 11
336.601892
 21
-101.357536
 31
0.0
  0
LINE
  8
0
  6
CONTINUOUS
 62
     1
 10
336.697893
 20
-99.997536
 30
0.0
 11
336.601892
 21
-99.997536
 31
0.0
  0
LINE
  8
0
  6
CONTINUOUS
 62
   218
 10
336.601892
 20
-135.877536
 30
0.0
 11
336.153894
 21
-135.877536
 31
0.0
  0
LINE
  8
0
  6
CONTINUOUS
 62
   218
 10
506.041888
 20
-135.877536
 30
0.0
 11
505.59389
 21
-135.877536
 31
0.0
  0
LINE
  8
0
  6
CONTINUOUS
 62
   218
 10
336.601892
 20
-100.677536
 30
0.0
 11
336.153894
 21
-100.677536
 31
0.0
  0
LINE
  8
0
  6
CONTINUOUS
 62
   218
 10
506.041888
 20
-100.677536
 30
0.0
 11
505.59389
 21
-100.677536
 31
0.0
  0
LINE
  8
0
  6
CONTINUOUS
 62
     1
 10
505.577889
 20
-140.597535
 30
0.0
 11
505.497889
 21
-140.597535
 31
0.0
  0
LINE
  8
0
  6
CONTINUOUS
 62
     1
 10
505.577889
 20
-138.837535
 30
0.0
 11
505.497889
 21
-138.837535
 31
0.0
  0
LINE
  8
0
  6
CONTINUOUS
 62
     1
 10
336.697893
 20
-140.597535
 30
0.0
 11
336.617893
 21
-140.597535
 31
0.0
  0
LINE
  8
0
  6
CONTINUOUS
 62
     1
 10
336.697893
 20
-138.837535
 30
0.0
 11
336.617893
 21
-138.837535
 31
0.0
  0
LINE
  8
0
  6
CONTINUOUS
 62
     7
 10
505.682648
 20
-138.877535
 30
0.0
 11
505.682648
 21
-140.557535
 31
0.0
  0
LINE
  8
0
  6
CONTINUOUS
 62
     7
 10
505.682648
 20
-138.877535
 30
0.0
 11
505.577889
 21
-138.877535
 31
0.0
  0
LINE
  8
0
  6
CONTINUOUS
 62
     7
 10
505.682648
 20
-140.557535
 30
0.0
 11
505.577889
 21
-140.557535
 31
0.0
  0
LINE
  8
0
  6
CONTINUOUS
 62
     7
 10
336.617893
 20
-138.877535
 30
0.0
 11
336.513135
 21
-138.877535
 31
0.0
  0
LINE
  8
0
  6
CONTINUOUS
 62
     7
 10
336.617893
 20
-140.557535
 30
0.0
 11
336.513135
 21
-140.557535
 31
0.0
  0
LINE
  8
0
  6
CONTINUOUS
 62
     7
 10
336.513135
 20
-138.877535
 30
0.0
 11
336.513135
 21
-140.557535
 31
0.0
  0
LINE
  8
0
  6
CONTINUOUS
 62
     2
 10
452.61789
 20
-159.220916
 30
0.0
 11
452.607556
 21
-159.215613
 31
0.0
  0
LINE
  8
0
  6
CONTINUOUS
 62
     2
 10
409.748227
 20
-159.215613
 30
0.0
 11
409.737892
 21
-159.220916
 31
0.0
  0
LINE
  8
0
  6
CONTINUOUS
 62
     1
 10
336.697893
 20
-108.277534
 30
0.0
 11
336.617893
 21
-108.277534
 31
0.0
  0
LINE
  8
0
  6
CONTINUOUS
 62
     1
 10
336.697893
 20
-106.517534
 30
0.0
 11
336.617893
 21
-106.517534
 31
0.0
  0
LINE
  8
0
  6
CONTINUOUS
 62
     1
 10
505.577889
 20
-101.877534
 30
0.0
 11
505.497889
 21
-101.877534
 31
0.0
  0
LINE
  8
0
  6
CONTINUOUS
 62
     1
 10
505.577889
 20
-108.277534
 30
0.0
 11
505.497889
 21
-108.277534
 31
0.0
  0
LINE
  8
0
  6
CONTINUOUS
 62
     1
 10
505.577889
 20
-106.517534
 30
0.0
 11
505.497889
 21
-106.517534
 31
0.0
  0
LINE
  8
0
  6
CONTINUOUS
 62
     1
 10
336.697893
 20
-101.877534
 30
0.0
 11
336.617893
 21
-101.877534
 31
0.0
  0
LINE
  8
0
  6
CONTINUOUS
 62
     7
 10
336.153895
 20
-100.511524
 30
0.0
 11
336.137894
 21
-100.532776
 31
0.0
  0
LINE
  8
0
  6
CONTINUOUS
 62
     7
 10
336.617893
 20
-101.837534
 30
0.0
 11
336.513135
 21
-101.837534
 31
0.0
  0
LINE
  8
0
  6
CONTINUOUS
 62
     7
 10
506.057889
 20
-100.532776
 30
0.0
 11
506.041888
 21
-100.511524
 31
0.0
  0
LINE
  8
0
  6
CONTINUOUS
 62
     7
 10
505.682648
 20
-101.837534
 30
0.0
 11
505.577889
 21
-101.837534
 31
0.0
  0
LINE
  8
0
  6
CONTINUOUS
 62
     7
 10
336.513135
 20
-106.557534
 30
0.0
 11
336.513135
 21
-108.237534
 31
0.0
  0
LINE
  8
0
  6
CONTINUOUS
 62
     7
 10
336.617893
 20
-106.557534
 30
0.0
 11
336.513135
 21
-106.557534
 31
0.0
  0
LINE
  8
0
  6
CONTINUOUS
 62
     7
 10
336.617893
 20
-108.237534
 30
0.0
 11
336.513135
 21
-108.237534
 31
0.0
  0
LINE
  8
0
  6
CONTINUOUS
 62
     7
 10
505.682648
 20
-106.557534
 30
0.0
 11
505.577889
 21
-106.557534
 31
0.0
  0
LINE
  8
0
  6
CONTINUOUS
 62
     7
 10
505.682648
 20
-108.237534
 30
0.0
 11
505.577889
 21
-108.237534
 31
0.0
  0
LINE
  8
0
  6
CONTINUOUS
 62
   130
 10
505.737889
 20
-110.677534
 30
0.0
 11
505.497889
 21
-110.677534
 31
0.0
  0
LINE
  8
0
  6
CONTINUOUS
 62
   130
 10
505.737889
 20
-109.077534
 30
0.0
 11
505.497889
 21
-109.077534
 31
0.0
  0
LINE
  8
0
  6
CONTINUOUS
 62
   130
 10
336.697893
 20
-110.677534
 30
0.0
 11
336.457893
 21
-110.677534
 31
0.0
  0
LINE
  8
0
  6
CONTINUOUS
 62
   130
 10
336.697893
 20
-109.077534
 30
0.0
 11
336.457893
 21
-109.077534
 31
0.0
  0
LINE
  8
0
  6
CONTINUOUS
 62
     2
 10
504.217889
 20
-149.877601
 30
0.0
 11
504.217889
 21
-150.357601
 31
0.0
  0
LINE
  8
0
  6
CONTINUOUS
 62
     2
 10
337.977893
 20
-149.877601
 30
0.0
 11
337.977893
 21
-150.357601
 31
0.0
  0
LINE
  8
0
  6
CONTINUOUS
 62
     3
 10
504.857889
 20
-154.114399
 30
0.0
 11
504.777891
 21
-154.034397
 31
0.0
  0
LINE
  8
0
  6
CONTINUOUS
 62
     3
 10
504.857889
 20
-157.154395
 30
0.0
 11
504.777892
 21
-157.234397
 31
0.0
  0
LINE
  8
0
  6
CONTINUOUS
 62
     3
 10
504.777892
 20
-154.034398
 30
0.0
 11
504.777892
 21
-157.234398
 31
0.0
  0
LINE
  8
0
  6
CONTINUOUS
 62
     3
 10
504.777892
 20
-154.034398
 30
0.0
 11
503.737892
 21
-154.034398
 31
0.0
  0
LINE
  8
0
  6
CONTINUOUS
 62
     3
 10
503.737892
 20
-154.034398
 30
0.0
 11
503.737892
 21
-157.234398
 31
0.0
  0
LINE
  8
0
  6
CONTINUOUS
 62
     3
 10
503.737892
 20
-154.034397
 30
0.0
 11
503.657892
 21
-154.114397
 31
0.0
  0
LINE
  8
0
  6
CONTINUOUS
 62
     3
 10
503.737891
 20
-157.234397
 30
0.0
 11
503.657891
 21
-157.154397
 31
0.0
  0
LINE
  8
0
  6
CONTINUOUS
 62
     3
 10
503.657892
 20
-154.276002
 30
0.0
 11
503.634928
 21
-154.331439
 31
0.0
  0
LINE
  8
0
  6
CONTINUOUS
 62
     3
 10
503.63493
 20
-154.33144
 30
0.0
 11
503.577893
 21
-154.354399
 31
0.0
  0
LINE
  8
0
  6
CONTINUOUS
 62
     3
 10
503.657892
 20
-156.992796
 30
0.0
 11
503.634928
 21
-156.937359
 31
0.0
  0
LINE
  8
0
  6
CONTINUOUS
 62
     3
 10
503.634926
 20
-156.937358
 30
0.0
 11
503.57789
 21
-156.914396
 31
0.0
  0
LINE
  8
0
  6
CONTINUOUS
 62
     3
 10
504.937891
 20
-154.354398
 30
0.0
 11
504.881324
 21
-154.330967
 31
0.0
  0
LINE
  8
0
  6
CONTINUOUS
 62
     3
 10
504.881326
 20
-154.33097
 30
0.0
 11
504.857893
 21
-154.2744
 31
0.0
  0
LINE
  8
0
  6
CONTINUOUS
 62
     3
 10
504.937891
 20
-156.914397
 30
0.0
 11
504.881323
 21
-156.93783
 31
0.0
  0
LINE
  8
0
  6
CONTINUOUS
 62
     3
 10
504.881324
 20
-156.937829
 30
0.0
 11
504.857891
 21
-156.994396
 31
0.0
  0
LINE
  8
0
  6
CONTINUOUS
 62
     3
 10
337.417892
 20
-154.034397
 30
0.0
 11
337.337894
 21
-154.114399
 31
0.0
  0
LINE
  8
0
  6
CONTINUOUS
 62
     3
 10
337.417891
 20
-157.234397
 30
0.0
 11
337.337894
 21
-157.154395
 31
0.0
  0
LINE
  8
0
  6
CONTINUOUS
 62
     3
 10
338.457891
 20
-154.034398
 30
0.0
 11
337.417891
 21
-154.034398
 31
0.0
  0
LINE
  8
0
  6
CONTINUOUS
 62
     3
 10
337.417891
 20
-154.034398
 30
0.0
 11
337.417891
 21
-157.234398
 31
0.0
  0
LINE
  8
0
  6
CONTINUOUS
 62
     3
 10
338.537891
 20
-154.114397
 30
0.0
 11
338.457891
 21
-154.034397
 31
0.0
  0
LINE
  8
0
  6
CONTINUOUS
 62
     3
 10
338.537892
 20
-157.154397
 30
0.0
 11
338.457892
 21
-157.234397
 31
0.0
  0
LINE
  8
0
  6
CONTINUOUS
 62
     3
 10
338.457891
 20
-154.034398
 30
0.0
 11
338.457891
 21
-157.234398
 31
0.0
  0
LINE
  8
0
  6
CONTINUOUS
 62
     3
 10
338.560855
 20
-154.331439
 30
0.0
 11
338.537891
 21
-154.276002
 31
0.0
  0
LINE
  8
0
  6
CONTINUOUS
 62
     3
 10
338.617889
 20
-154.354399
 30
0.0
 11
338.560853
 21
-154.33144
 31
0.0
  0
LINE
  8
0
  6
CONTINUOUS
 62
     3
 10
338.560855
 20
-156.937359
 30
0.0
 11
338.537891
 21
-156.992796
 31
0.0
  0
LINE
  8
0
  6
CONTINUOUS
 62
     3
 10
338.617893
 20
-156.914396
 30
0.0
 11
338.560857
 21
-156.937358
 31
0.0
  0
LINE
  8
0
  6
CONTINUOUS
 62
     3
 10
337.314459
 20
-154.330967
 30
0.0
 11
337.257891
 21
-154.354398
 31
0.0
  0
LINE
  8
0
  6
CONTINUOUS
 62
     3
 10
337.33789
 20
-154.2744
 30
0.0
 11
337.314457
 21
-154.33097
 31
0.0
  0
LINE
  8
0
  6
CONTINUOUS
 62
     3
 10
337.314459
 20
-156.93783
 30
0.0
 11
337.257892
 21
-156.914397
 31
0.0
  0
LINE
  8
0
  6
CONTINUOUS
 62
     3
 10
337.337891
 20
-156.994396
 30
0.0
 11
337.314459
 21
-156.937829
 31
0.0
  0
LINE
  8
0
  6
CONTINUOUS
 62
    54
 10
337.257893
 20
-142.834399
 30
0.0
 11
337.177891
 21
-142.834399
 31
0.0
  0
LINE
  8
0
  6
CONTINUOUS
 62
    54
 10
337.657893
 20
-150.354398
 30
0.0
 11
337.177891
 21
-150.354398
 31
0.0
  0
LINE
  8
0
  6
CONTINUOUS
 62
    54
 10
339.417891
 20
-155.6344
 30
0.0
 11
338.697891
 21
-155.6344
 31
0.0
  0
LINE
  8
0
  6
CONTINUOUS
 62
    54
 10
505.017892
 20
-142.834399
 30
0.0
 11
504.937889
 21
-142.834399
 31
0.0
  0
LINE
  8
0
  6
CONTINUOUS
 62
    54
 10
505.017892
 20
-150.354398
 30
0.0
 11
504.537889
 21
-150.354398
 31
0.0
  0
LINE
  8
0
  6
CONTINUOUS
 62
    54
 10
503.497892
 20
-155.6344
 30
0.0
 11
502.777892
 21
-155.6344
 31
0.0
  0
LINE
  8
0
  6
CONTINUOUS
 62
     2
 10
337.20989
 20
-154.994398
 30
0.0
 11
337.177893
 21
-154.994398
 31
0.0
  0
LINE
  8
0
  6
CONTINUOUS
 62
     2
 10
337.20989
 20
-156.274398
 30
0.0
 11
337.177893
 21
-156.274398
 31
0.0
  0
LINE
  8
0
  6
CONTINUOUS
 62
     2
 10
337.257891
 20
-154.834398
 30
0.0
 11
337.20989
 21
-154.834398
 31
0.0
  0
LINE
  8
0
  6
CONTINUOUS
 62
     2
 10
338.64989
 20
-154.834398
 30
0.0
 11
338.617891
 21
-154.834398
 31
0.0
  0
LINE
  8
0
  6
CONTINUOUS
 62
     2
 10
337.257891
 20
-156.434398
 30
0.0
 11
337.20989
 21
-156.434398
 31
0.0
  0
LINE
  8
0
  6
CONTINUOUS
 62
     2
 10
338.64989
 20
-156.434398
 30
0.0
 11
338.617891
 21
-156.434398
 31
0.0
  0
LINE
  8
0
  6
CONTINUOUS
 62
     2
 10
338.697891
 20
-154.994398
 30
0.0
 11
338.64989
 21
-154.994398
 31
0.0
  0
LINE
  8
0
  6
CONTINUOUS
 62
     2
 10
338.697891
 20
-156.274398
 30
0.0
 11
338.64989
 21
-156.274398
 31
0.0
  0
LINE
  8
0
  6
CONTINUOUS
 62
     2
 10
505.017889
 20
-154.994398
 30
0.0
 11
504.985892
 21
-154.994398
 31
0.0
  0
LINE
  8
0
  6
CONTINUOUS
 62
     2
 10
504.985892
 20
-154.834398
 30
0.0
 11
504.937892
 21
-154.834398
 31
0.0
  0
LINE
  8
0
  6
CONTINUOUS
 62
     2
 10
503.577892
 20
-154.834398
 30
0.0
 11
503.545892
 21
-154.834398
 31
0.0
  0
LINE
  8
0
  6
CONTINUOUS
 62
     2
 10
504.985892
 20
-156.434398
 30
0.0
 11
504.937892
 21
-156.434398
 31
0.0
  0
LINE
  8
0
  6
CONTINUOUS
 62
     2
 10
503.577892
 20
-156.434398
 30
0.0
 11
503.545892
 21
-156.434398
 31
0.0
  0
LINE
  8
0
  6
CONTINUOUS
 62
     2
 10
503.545892
 20
-154.994398
 30
0.0
 11
503.497892
 21
-154.994398
 31
0.0
  0
LINE
  8
0
  6
CONTINUOUS
 62
     2
 10
503.545892
 20
-156.274398
 30
0.0
 11
503.497892
 21
-156.274398
 31
0.0
  0
LINE
  8
0
  6
CONTINUOUS
 62
     7
 10
336.697888
 20
-121.397524
 30
0.0
 11
336.377888
 21
-121.397524
 31
0.0
  0
LINE
  8
0
  6
CONTINUOUS
 62
     7
 10
336.697888
 20
-119.477524
 30
0.0
 11
336.377888
 21
-119.477524
 31
0.0
  0
LINE
  8
0
  6
CONTINUOUS
 62
     7
 10
505.817894
 20
-121.397524
 30
0.0
 11
505.497894
 21
-121.397524
 31
0.0
  0
LINE
  8
0
  6
CONTINUOUS
 62
     7
 10
505.817894
 20
-119.477524
 30
0.0
 11
505.497894
 21
-119.477524
 31
0.0
  0
LINE
  8
0
  6
CONTINUOUS
 62
     7
 10
504.297892
 20
-150.381527
 30
0.0
 11
504.105892
 21
-150.381527
 31
0.0
  0
LINE
  8
0
  6
CONTINUOUS
 62
     7
 10
338.08989
 20
-150.381527
 30
0.0
 11
337.897891
 21
-150.381527
 31
0.0
  0
LINE
  8
0
  6
CONTINUOUS
 62
     7
 10
339.257895
 20
-149.757526
 30
0.0
 11
339.214731
 21
-149.832277
 31
0.0
  0
LINE
  8
0
  6
CONTINUOUS
 62
     7
 10
339.188606
 20
-149.397601
 30
0.0
 11
339.188606
 21
-149.482445
 31
0.0
  0
LINE
  8
0
  6
CONTINUOUS
 62
     7
 10
339.188606
 20
-149.482445
 30
0.0
 11
339.188606
 21
-149.690074
 31
0.0
  0
LINE
  8
0
  6
CONTINUOUS
 62
     7
 10
339.188606
 20
-149.690074
 30
0.0
 11
339.188606
 21
-149.828807
 31
0.0
  0
LINE
  8
0
  6
CONTINUOUS
 62
     7
 10
339.188606
 20
-149.828807
 30
0.0
 11
339.188606
 21
-149.843644
 31
0.0
  0
LINE
  8
0
  6
CONTINUOUS
 62
     7
 10
336.697888
 20
-150.197523
 30
0.0
 11
336.377888
 21
-150.197523
 31
0.0
  0
LINE
  8
0
  6
CONTINUOUS
 62
     7
 10
336.697888
 20
-148.277523
 30
0.0
 11
336.377888
 21
-148.277523
 31
0.0
  0
LINE
  8
0
  6
CONTINUOUS
 62
     7
 10
502.981052
 20
-149.832277
 30
0.0
 11
502.937888
 21
-149.757526
 31
0.0
  0
LINE
  8
0
  6
CONTINUOUS
 62
     7
 10
503.007177
 20
-149.397601
 30
0.0
 11
503.007177
 21
-149.482445
 31
0.0
  0
LINE
  8
0
  6
CONTINUOUS
 62
     7
 10
503.007177
 20
-149.482445
 30
0.0
 11
503.007177
 21
-149.690074
 31
0.0
  0
LINE
  8
0
  6
CONTINUOUS
 62
     7
 10
503.007177
 20
-149.690074
 30
0.0
 11
503.007177
 21
-149.828807
 31
0.0
  0
LINE
  8
0
  6
CONTINUOUS
 62
     7
 10
503.007177
 20
-149.828807
 30
0.0
 11
503.007177
 21
-149.843644
 31
0.0
  0
LINE
  8
0
  6
CONTINUOUS
 62
     7
 10
505.817894
 20
-150.197523
 30
0.0
 11
505.497894
 21
-150.197523
 31
0.0
  0
LINE
  8
0
  6
CONTINUOUS
 62
     7
 10
505.817894
 20
-148.277523
 30
0.0
 11
505.497894
 21
-148.277523
 31
0.0
  0
LINE
  8
0
  6
CONTINUOUS
 62
     7
 10
505.682648
 20
-108.173592
 30
0.0
 11
505.682648
 21
-108.237534
 31
0.0
  0
LINE
  8
0
  6
CONTINUOUS
 62
     7
 10
505.682648
 20
-106.557534
 30
0.0
 11
505.682648
 21
-108.237534
 31
0.0
  0
LINE
  8
0
  6
CONTINUOUS
 62
     7
 10
505.682648
 20
-101.773593
 30
0.0
 11
505.682648
 21
-101.837534
 31
0.0
  0
LINE
  8
0
  6
CONTINUOUS
 62
     7
 10
505.682648
 20
-101.237536
 30
0.0
 11
505.682648
 21
-101.837534
 31
0.0
  0
LINE
  8
0
  6
CONTINUOUS
 62
     7
 10
336.513135
 20
-101.773593
 30
0.0
 11
336.513135
 21
-101.837534
 31
0.0
  0
LINE
  8
0
  6
CONTINUOUS
 62
     7
 10
336.513135
 20
-101.237536
 30
0.0
 11
336.513135
 21
-101.837534
 31
0.0
  0
LINE
  8
0
  6
CONTINUOUS
 62
     7
 10
336.513135
 20
-108.173592
 30
0.0
 11
336.513135
 21
-108.237534
 31
0.0
  0
LINE
  8
0
  6
CONTINUOUS
 62
     7
 10
336.513135
 20
-107.718988
 30
0.0
 11
336.513135
 21
-107.991503
 31
0.0
  0
LINE
  8
0
  6
CONTINUOUS
 62
     2
 10
338.137893
 20
-150.357601
 30
0.0
 11
338.137893
 21
-151.1544
 31
0.0
  0
LINE
  8
0
  6
CONTINUOUS
 62
     2
 10
504.057889
 20
-150.357601
 30
0.0
 11
504.057889
 21
-151.1544
 31
0.0
  0
LINE
  8
0
  6
CONTINUOUS
 62
     1
 10
336.697893
 20
-137.077533
 30
0.0
 11
336.617893
 21
-137.077533
 31
0.0
  0
LINE
  8
0
  6
CONTINUOUS
 62
     1
 10
505.577889
 20
-137.077533
 30
0.0
 11
505.497889
 21
-137.077533
 31
0.0
  0
LINE
  8
0
  6
CONTINUOUS
 62
     7
 10
505.682648
 20
-137.037533
 30
0.0
 11
505.577889
 21
-137.037533
 31
0.0
  0
LINE
  8
0
  6
CONTINUOUS
 62
     7
 10
505.682648
 20
-136.437536
 30
0.0
 11
505.682648
 21
-137.037533
 31
0.0
  0
LINE
  8
0
  6
CONTINUOUS
 62
     7
 10
336.617893
 20
-137.037533
 30
0.0
 11
336.513135
 21
-137.037533
 31
0.0
  0
LINE
  8
0
  6
CONTINUOUS
 62
     1
 10
336.697893
 20
-154.597533
 30
0.0
 11
336.617893
 21
-154.597533
 31
0.0
  0
LINE
  8
0
  6
CONTINUOUS
 62
     1
 10
336.697893
 20
-152.837533
 30
0.0
 11
336.617893
 21
-152.837533
 31
0.0
  0
LINE
  8
0
  6
CONTINUOUS
 62
     1
 10
505.577889
 20
-113.797534
 30
0.0
 11
505.497889
 21
-113.797534
 31
0.0
  0
LINE
  8
0
  6
CONTINUOUS
 62
     1
 10
505.577889
 20
-112.037534
 30
0.0
 11
505.497889
 21
-112.037534
 31
0.0
  0
LINE
  8
0
  6
CONTINUOUS
 62
     1
 10
505.577889
 20
-154.597533
 30
0.0
 11
505.497889
 21
-154.597533
 31
0.0
  0
LINE
  8
0
  6
CONTINUOUS
 62
     1
 10
505.577889
 20
-152.837533
 30
0.0
 11
505.497889
 21
-152.837533
 31
0.0
  0
LINE
  8
0
  6
CONTINUOUS
 62
     1
 10
336.697893
 20
-113.797534
 30
0.0
 11
336.617893
 21
-113.797534
 31
0.0
  0
LINE
  8
0
  6
CONTINUOUS
 62
     1
 10
336.697893
 20
-112.037534
 30
0.0
 11
336.617893
 21
-112.037534
 31
0.0
  0
LINE
  8
0
  6
CONTINUOUS
 62
     7
 10
505.682648
 20
-112.077534
 30
0.0
 11
505.577889
 21
-112.077534
 31
0.0
  0
LINE
  8
0
  6
CONTINUOUS
 62
     7
 10
505.682648
 20
-113.757534
 30
0.0
 11
505.577889
 21
-113.757534
 31
0.0
  0
LINE
  8
0
  6
CONTINUOUS
 62
     7
 10
505.682648
 20
-112.077534
 30
0.0
 11
505.682648
 21
-113.757534
 31
0.0
  0
LINE
  8
0
  6
CONTINUOUS
 62
     7
 10
336.617893
 20
-152.877533
 30
0.0
 11
336.513135
 21
-152.877533
 31
0.0
  0
LINE
  8
0
  6
CONTINUOUS
 62
     7
 10
336.617893
 20
-154.557533
 30
0.0
 11
336.513135
 21
-154.557533
 31
0.0
  0
LINE
  8
0
  6
CONTINUOUS
 62
     7
 10
336.513135
 20
-152.877533
 30
0.0
 11
336.513135
 21
-154.557533
 31
0.0
  0
LINE
  8
0
  6
CONTINUOUS
 62
     7
 10
336.617893
 20
-112.077534
 30
0.0
 11
336.513135
 21
-112.077534
 31
0.0
  0
LINE
  8
0
  6
CONTINUOUS
 62
     7
 10
336.617893
 20
-113.757534
 30
0.0
 11
336.513135
 21
-113.757534
 31
0.0
  0
LINE
  8
0
  6
CONTINUOUS
 62
     7
 10
336.513135
 20
-112.077534
 30
0.0
 11
336.513135
 21
-113.757534
 31
0.0
  0
LINE
  8
0
  6
CONTINUOUS
 62
     7
 10
505.682648
 20
-152.877533
 30
0.0
 11
505.577889
 21
-152.877533
 31
0.0
  0
LINE
  8
0
  6
CONTINUOUS
 62
     7
 10
505.682648
 20
-154.557533
 30
0.0
 11
505.577889
 21
-154.557533
 31
0.0
  0
LINE
  8
0
  6
CONTINUOUS
 62
     7
 10
505.682648
 20
-152.877533
 30
0.0
 11
505.682648
 21
-154.557533
 31
0.0
  0
LINE
  8
0
  6
CONTINUOUS
 62
     1
 10
336.697893
 20
-129.637533
 30
0.0
 11
336.617893
 21
-129.637533
 31
0.0
  0
LINE
  8
0
  6
CONTINUOUS
 62
     1
 10
336.697893
 20
-127.877533
 30
0.0
 11
336.617893
 21
-127.877533
 31
0.0
  0
LINE
  8
0
  6
CONTINUOUS
 62
     1
 10
505.577889
 20
-129.637533
 30
0.0
 11
505.497889
 21
-129.637533
 31
0.0
  0
LINE
  8
0
  6
CONTINUOUS
 62
     1
 10
505.577889
 20
-127.877533
 30
0.0
 11
505.497889
 21
-127.877533
 31
0.0
  0
LINE
  8
0
  6
CONTINUOUS
 62
     7
 10
336.617893
 20
-127.917533
 30
0.0
 11
336.513135
 21
-127.917533
 31
0.0
  0
LINE
  8
0
  6
CONTINUOUS
 62
     7
 10
336.617893
 20
-129.597533
 30
0.0
 11
336.513135
 21
-129.597533
 31
0.0
  0
LINE
  8
0
  6
CONTINUOUS
 62
     7
 10
336.513135
 20
-127.917533
 30
0.0
 11
336.513135
 21
-129.597533
 31
0.0
  0
LINE
  8
0
  6
CONTINUOUS
 62
     7
 10
505.682648
 20
-127.917533
 30
0.0
 11
505.682648
 21
-129.597533
 31
0.0
  0
LINE
  8
0
  6
CONTINUOUS
 62
     7
 10
505.682648
 20
-127.917533
 30
0.0
 11
505.577889
 21
-127.917533
 31
0.0
  0
LINE
  8
0
  6
CONTINUOUS
 62
     7
 10
505.682648
 20
-129.597533
 30
0.0
 11
505.577889
 21
-129.597533
 31
0.0
  0
CIRCLE
  8
0
  6
CONTINUOUS
 62
   132
 10
425.577892
 20
-93.317514
 30
0.0
 40
1.04
  0
CIRCLE
  8
0
  6
CONTINUOUS
 62
   132
 10
436.777898
 20
-93.31752
 30
0.0
 40
1.04
  0
CIRCLE
  8
0
  6
CONTINUOUS
 62
   132
 10
445.737894
 20
-93.317516
 30
0.0
 40
1.04
  0
CIRCLE
  8
0
  6
CONTINUOUS
 62
   132
 10
456.937887
 20
-93.317496
 30
0.0
 40
1.04
  0
CIRCLE
  8
0
  6
CONTINUOUS
 62
   132
 10
486.05789
 20
-93.31752
 30
0.0
 40
1.04
  0
CIRCLE
  8
0
  6
CONTINUOUS
 62
   132
 10
497.257889
 20
-93.317514
 30
0.0
 40
1.04
  0
ARC
  8
0
  6
CONTINUOUS
 62
     2
 10
339.017894
 20
-149.397604
 30
0.0
 40
0.479998
 50
269.999609
 51
360.000087
  0
ARC
  8
0
  6
CONTINUOUS
 62
     2
 10
339.017892
 20
-149.397599
 30
0.0
 40
0.960003
 50
270.00006
 51
359.99983
  0
ARC
  8
0
  6
CONTINUOUS
 62
     2
 10
503.177889
 20
-149.397604
 30
0.0
 40
0.479998
 50
179.999913
 51
270.000393
  0
ARC
  8
0
  6
CONTINUOUS
 62
     2
 10
503.177895
 20
-149.397594
 30
0.0
 40
0.960009
 50
180.000463
 51
269.99969
  0
LINE
  8
0
  6
CONTINUOUS
 62
     7
 10
505.017889
 20
-156.274398
 30
0.0
 11
504.985892
 21
-156.274398
 31
0.0
  0
ARC
  8
0
  6
CONTINUOUS
 62
     7
 10
505.217891
 20
-139.717532
 30
0.0
 40
0.959996
 50
298.955062
 51
331.045185
  0
ARC
  8
0
  6
CONTINUOUS
 62
     7
 10
505.217893
 20
-136.197538
 30
0.0
 40
0.959994
 50
298.955002
 51
331.045167
  0
ARC
  8
0
  6
CONTINUOUS
 62
     7
 10
505.217896
 20
-128.757527
 30
0.0
 40
0.959992
 50
298.95486
 51
331.045009
  0
ARC
  8
0
  6
CONTINUOUS
 62
     7
 10
505.217889
 20
-112.917534
 30
0.0
 40
0.96
 50
298.955109
 51
331.045096
  0
ARC
  8
0
  6
CONTINUOUS
 62
     7
 10
505.217908
 20
-107.397516
 30
0.0
 40
0.959977
 50
28.954819
 51
61.045453
  0
ARC
  8
0
  6
CONTINUOUS
 62
     7
 10
505.217903
 20
-100.997543
 30
0.0
 40
0.959985
 50
298.954635
 51
331.044969
  0
ARC
  8
0
  6
CONTINUOUS
 62
     7
 10
336.97787
 20
-100.997553
 30
0.0
 40
0.959972
 50
208.954804
 51
241.045592
  0
ARC
  8
0
  6
CONTINUOUS
 62
     7
 10
336.977874
 20
-107.397515
 30
0.0
 40
0.959976
 50
118.954526
 51
151.045202
  0
ARC
  8
0
  6
CONTINUOUS
 62
     7
 10
336.977895
 20
-112.917534
 30
0.0
 40
0.960001
 50
118.955121
 51
151.045084
  0
ARC
  8
0
  6
CONTINUOUS
 62
     7
 10
336.977878
 20
-128.757519
 30
0.0
 40
0.959981
 50
118.954666
 51
151.045203
  0
ARC
  8
0
  6
CONTINUOUS
 62
     7
 10
336.977896
 20
-139.717536
 30
0.0
 40
0.960002
 50
118.955168
 51
151.045079
  0
ARC
  8
0
  6
CONTINUOUS
 62
     7
 10
336.97787
 20
-153.717514
 30
0.0
 40
0.959972
 50
118.954409
 51
151.045196
  0
ARC
  8
0
  6
CONTINUOUS
 62
     7
 10
505.217903
 20
-153.717523
 30
0.0
 40
0.959985
 50
298.954634
 51
331.044971
  0
ARC
  8
0
  6
CONTINUOUS
 62
     7
 10
505.217903
 20
-153.717523
 30
0.0
 40
0.959985
 50
28.955029
 51
61.045366
  0
ARC
  8
0
  6
CONTINUOUS
 62
     7
 10
505.217891
 20
-139.717532
 30
0.0
 40
0.959996
 50
28.954815
 51
61.044938
  0
ARC
  8
0
  6
CONTINUOUS
 62
     7
 10
505.217896
 20
-128.757527
 30
0.0
 40
0.959992
 50
28.954991
 51
61.04514
  0
ARC
  8
0
  6
CONTINUOUS
 62
     7
 10
505.217889
 20
-112.917534
 30
0.0
 40
0.96
 50
28.954904
 51
61.044891
  0
ARC
  8
0
  6
CONTINUOUS
 62
     7
 10
505.217908
 20
-107.397516
 30
0.0
 40
0.959977
 50
298.954547
 51
331.045181
  0
ARC
  8
0
  6
CONTINUOUS
 62
     7
 10
336.977874
 20
-107.397515
 30
0.0
 40
0.959976
 50
208.954798
 51
241.045474
  0
ARC
  8
0
  6
CONTINUOUS
 62
     7
 10
336.977895
 20
-112.917534
 30
0.0
 40
0.960001
 50
208.954916
 51
241.044879
  0
ARC
  8
0
  6
CONTINUOUS
 62
     7
 10
336.977878
 20
-128.757519
 30
0.0
 40
0.959981
 50
208.954797
 51
241.045334
  0
ARC
  8
0
  6
CONTINUOUS
 62
     7
 10
336.977896
 20
-139.717536
 30
0.0
 40
0.960002
 50
208.954921
 51
241.044832
  0
ARC
  8
0
  6
CONTINUOUS
 62
     7
 10
336.97787
 20
-153.717514
 30
0.0
 40
0.959972
 50
208.954804
 51
241.045591
  0
LINE
  8
0
  6
DASHDOT
 62
     7
 10
431.177891
 20
-99.593749
 30
0.0
 11
431.177891
 21
-167.897324
 31
0.0
  0
LINE
  8
0
  6
CONTINUOUS
 62
     5
 10
330.057893
 20
-156.117528
 30
0.0
 11
330.057893
 21
-158.917528
 31
0.0
  0
LINE
  8
0
  6
CONTINUOUS
 62
     5
 10
330.217893
 20
-156.117528
 30
0.0
 11
330.217893
 21
-158.997528
 31
0.0
  0
LINE
  8
0
  6
CONTINUOUS
 62
     5
 10
406.697892
 20
-159.157528
 30
0.0
 11
330.377893
 21
-159.157528
 31
0.0
  0
LINE
  8
0
  6
CONTINUOUS
 62
     5
 10
336.697893
 20
-156.117528
 30
0.0
 11
330.057893
 21
-156.117528
 31
0.0
  0
LINE
  8
0
  6
CONTINUOUS
 62
     5
 10
512.137889
 20
-156.117528
 30
0.0
 11
512.137889
 21
-158.997528
 31
0.0
  0
LINE
  8
0
  6
CONTINUOUS
 62
     5
 10
511.977889
 20
-156.117528
 30
0.0
 11
511.977889
 21
-158.997528
 31
0.0
  0
LINE
  8
0
  6
CONTINUOUS
 62
     5
 10
512.137889
 20
-156.117528
 30
0.0
 11
505.497889
 21
-156.117528
 31
0.0
  0
LINE
  8
0
  6
CONTINUOUS
 62
     5
 10
511.817889
 20
-159.157528
 30
0.0
 11
455.657891
 21
-159.157528
 31
0.0
  0
LINE
  8
0
  6
CONTINUOUS
 62
     5
 10
406.697892
 20
-159.317528
 30
0.0
 11
330.457893
 21
-159.317528
 31
0.0
  0
LINE
  8
0
  6
CONTINUOUS
 62
     5
 10
406.697892
 20
-159.157528
 30
0.0
 11
406.697892
 21
-159.317528
 31
0.0
  0
LINE
  8
0
  6
CONTINUOUS
 62
     5
 10
455.657891
 20
-159.157528
 30
0.0
 11
455.657891
 21
-159.317528
 31
0.0
  0
LINE
  8
0
  6
CONTINUOUS
 62
     5
 10
403.417892
 20
-159.317528
 30
0.0
 11
403.417892
 21
-160.277528
 31
0.0
  0
LINE
  8
0
  6
CONTINUOUS
 62
     5
 10
403.817892
 20
-159.317528
 30
0.0
 11
403.817892
 21
-159.877528
 31
0.0
  0
ARC
  8
0
  6
CONTINUOUS
 62
     5
 10
403.977892
 20
-159.877528
 30
0.0
 40
0.16
 50
180.0
 51
270.0
  0
ARC
  8
0
  6
CONTINUOUS
 62
     5
 10
403.577892
 20
-160.277528
 30
0.0
 40
0.16
 50
180.0
 51
270.0
  0
LINE
  8
0
  6
CONTINUOUS
 62
     5
 10
404.937892
 20
-160.437528
 30
0.0
 11
403.577892
 21
-160.437528
 31
0.0
  0
LINE
  8
0
  6
CONTINUOUS
 62
     5
 10
404.937892
 20
-160.037528
 30
0.0
 11
403.977892
 21
-160.037528
 31
0.0
  0
ARC
  8
0
  6
CONTINUOUS
 62
     5
 10
404.937892
 20
-160.597528
 30
0.0
 40
0.16
 50
0.0
 51
90.0
  0
LINE
  8
0
  6
CONTINUOUS
 62
     5
 10
405.097892
 20
-159.317528
 30
0.0
 11
405.097892
 21
-159.877528
 31
0.0
  0
ARC
  8
0
  6
CONTINUOUS
 62
     5
 10
405.257892
 20
-161.077528
 30
0.0
 40
0.16
 50
180.0
 51
270.0
  0
LINE
  8
0
  6
CONTINUOUS
 62
     5
 10
405.497892
 20
-159.317528
 30
0.0
 11
405.497892
 21
-160.677528
 31
0.0
  0
ARC
  8
0
  6
CONTINUOUS
 62
     5
 10
405.657892
 20
-160.677528
 30
0.0
 40
0.16
 50
180.0
 51
270.0
  0
LINE
  8
0
  6
CONTINUOUS
 62
     5
 10
406.137892
 20
-160.837528
 30
0.0
 11
405.657892
 21
-160.837528
 31
0.0
  0
ARC
  8
0
  6
CONTINUOUS
 62
     5
 10
406.137892
 20
-160.677528
 30
0.0
 40
0.16
 50
270.0
 51
360.0
  0
LINE
  8
0
  6
CONTINUOUS
 62
     5
 10
406.297892
 20
-159.317528
 30
0.0
 11
406.297892
 21
-160.677528
 31
0.0
  0
ARC
  8
0
  6
CONTINUOUS
 62
     5
 10
406.537892
 20
-161.077528
 30
0.0
 40
0.16
 50
270.0
 51
360.0
  0
LINE
  8
0
  6
CONTINUOUS
 62
     5
 10
406.697892
 20
-159.637528
 30
0.0
 11
406.697892
 21
-161.077528
 31
0.0
  0
LINE
  8
0
  6
CONTINUOUS
 62
     5
 10
511.817889
 20
-159.317528
 30
0.0
 11
455.657891
 21
-159.317528
 31
0.0
  0
LINE
  8
0
  6
CONTINUOUS
 62
     5
 10
405.097892
 20
-160.597528
 30
0.0
 11
405.097892
 21
-161.077528
 31
0.0
  0
ARC
  8
0
  6
CONTINUOUS
 62
     5
 10
404.937892
 20
-159.877528
 30
0.0
 40
0.16
 50
270.0
 51
360.0
  0
LINE
  8
0
  6
CONTINUOUS
 62
     5
 10
406.697892
 20
-159.637528
 30
0.0
 11
406.297892
 21
-159.637528
 31
0.0
  0
POINT
  8
0
  6
CONTINUOUS
 62
     5
 10
406.697892
 20
-159.317528
 30
0.0
  0
LINE
  8
0
  6
CONTINUOUS
 62
     5
 10
409.577892
 20
-158.677528
 30
0.0
 11
406.697892
 21
-159.637528
 31
0.0
  0
LINE
  8
0
  6
CONTINUOUS
 62
     5
 10
409.577892
 20
-158.357528
 30
0.0
 11
406.697892
 21
-159.317528
 31
0.0
  0
POINT
  8
0
  6
CONTINUOUS
 62
     7
 10
510.537889
 20
-157.717528
 30
0.0
  0
LINE
  8
0
  6
CONTINUOUS
 62
     5
 10
455.657891
 20
-159.317528
 30
0.0
 11
452.777891
 21
-158.357528
 31
0.0
  0
LINE
  8
0
  6
CONTINUOUS
 62
     5
 10
458.93789
 20
-159.317528
 30
0.0
 11
458.93789
 21
-160.277528
 31
0.0
  0
LINE
  8
0
  6
CONTINUOUS
 62
     5
 10
458.53789
 20
-159.317528
 30
0.0
 11
458.53789
 21
-159.877528
 31
0.0
  0
ARC
  8
0
  6
CONTINUOUS
 62
     5
 10
458.37789
 20
-159.877528
 30
0.0
 40
0.16
 50
270.0
 51
360.0
  0
ARC
  8
0
  6
CONTINUOUS
 62
     5
 10
458.77789
 20
-160.277528
 30
0.0
 40
0.16
 50
270.0
 51
360.0
  0
LINE
  8
0
  6
CONTINUOUS
 62
     5
 10
458.77789
 20
-160.437528
 30
0.0
 11
457.41789
 21
-160.437528
 31
0.0
  0
LINE
  8
0
  6
CONTINUOUS
 62
     5
 10
458.37789
 20
-160.037528
 30
0.0
 11
457.41789
 21
-160.037528
 31
0.0
  0
ARC
  8
0
  6
CONTINUOUS
 62
     5
 10
457.41789
 20
-160.597528
 30
0.0
 40
0.16
 50
90.0
 51
180.0
  0
LINE
  8
0
  6
CONTINUOUS
 62
     5
 10
457.25789
 20
-159.317528
 30
0.0
 11
457.25789
 21
-159.877528
 31
0.0
  0
ARC
  8
0
  6
CONTINUOUS
 62
     5
 10
457.09789
 20
-161.077528
 30
0.0
 40
0.16
 50
270.0
 51
360.0
  0
LINE
  8
0
  6
CONTINUOUS
 62
     5
 10
456.857891
 20
-159.317528
 30
0.0
 11
456.857891
 21
-160.677528
 31
0.0
  0
ARC
  8
0
  6
CONTINUOUS
 62
     5
 10
456.697891
 20
-160.677528
 30
0.0
 40
0.16
 50
270.0
 51
360.0
  0
LINE
  8
0
  6
CONTINUOUS
 62
     5
 10
456.697891
 20
-160.837528
 30
0.0
 11
456.217891
 21
-160.837528
 31
0.0
  0
ARC
  8
0
  6
CONTINUOUS
 62
     5
 10
456.217891
 20
-160.677528
 30
0.0
 40
0.16
 50
180.0
 51
270.0
  0
LINE
  8
0
  6
CONTINUOUS
 62
     5
 10
456.057891
 20
-159.317528
 30
0.0
 11
456.057891
 21
-160.677528
 31
0.0
  0
LINE
  8
0
  6
CONTINUOUS
 62
     5
 10
457.09789
 20
-161.237528
 30
0.0
 11
405.257892
 21
-161.237528
 31
0.0
  0
ARC
  8
0
  6
CONTINUOUS
 62
     5
 10
455.817891
 20
-161.077528
 30
0.0
 40
0.16
 50
180.0
 51
270.0
  0
LINE
  8
0
  6
CONTINUOUS
 62
     5
 10
455.657891
 20
-159.637528
 30
0.0
 11
455.657891
 21
-161.077528
 31
0.0
  0
LINE
  8
0
  6
CONTINUOUS
 62
     5
 10
457.25789
 20
-160.597528
 30
0.0
 11
457.25789
 21
-161.077528
 31
0.0
  0
ARC
  8
0
  6
CONTINUOUS
 62
     5
 10
457.41789
 20
-159.877528
 30
0.0
 40
0.16
 50
180.0
 51
270.0
  0
LINE
  8
0
  6
CONTINUOUS
 62
     5
 10
456.057891
 20
-159.637528
 30
0.0
 11
455.657891
 21
-159.637528
 31
0.0
  0
POINT
  8
0
  6
CONTINUOUS
 62
     5
 10
455.497891
 20
-159.637528
 30
0.0
  0
LINE
  8
0
  6
CONTINUOUS
 62
     5
 10
455.657891
 20
-159.637528
 30
0.0
 11
452.777891
 21
-158.677528
 31
0.0
  0
ARC
  8
0
  6
CONTINUOUS
 62
     7
 10
330.457893
 20
-158.917528
 30
0.0
 40
0.4
 50
180.0
 51
270.0
  0
ARC
  8
0
  6
CONTINUOUS
 62
     7
 10
330.377893
 20
-158.997528
 30
0.0
 40
0.16
 50
180.0
 51
270.0
  0
ARC
  8
0
  6
CONTINUOUS
 62
     7
 10
511.817889
 20
-158.997528
 30
0.0
 40
0.32
 50
270.0
 51
360.0
  0
ARC
  8
0
  6
CONTINUOUS
 62
     7
 10
511.817889
 20
-158.997528
 30
0.0
 40
0.16
 50
270.0
 51
360.0
  0
LINE
  8
0
  6
CONTINUOUS
 62
     7
 10
515.097889
 20
-155.797528
 30
0.0
 11
507.897889
 21
-155.797528
 31
0.0
  0
LINE
  8
0
  6
CONTINUOUS
 62
     7
 10
507.097889
 20
-151.797528
 30
0.0
 11
507.097889
 21
-154.997528
 31
0.0
  0
LINE
  8
0
  6
CONTINUOUS
 62
     7
 10
507.497889
 20
-151.797528
 30
0.0
 11
507.097889
 21
-151.797528
 31
0.0
  0
LINE
  8
0
  6
CONTINUOUS
 62
     7
 10
515.097889
 20
-155.397528
 30
0.0
 11
515.097889
 21
-155.797528
 31
0.0
  0
LINE
  8
0
  6
CONTINUOUS
 62
     7
 10
515.097889
 20
-155.397528
 30
0.0
 11
507.897889
 21
-155.397528
 31
0.0
  0
LINE
  8
0
  6
CONTINUOUS
 62
     7
 10
507.497889
 20
-151.797528
 30
0.0
 11
507.497889
 21
-154.997528
 31
0.0
  0
ARC
  8
0
  6
CONTINUOUS
 62
     7
 10
507.897889
 20
-154.997528
 30
0.0
 40
0.4
 50
180.0
 51
270.0
  0
ARC
  8
0
  6
CONTINUOUS
 62
     7
 10
507.897889
 20
-154.997528
 30
0.0
 40
0.8
 50
180.0
 51
270.0
  0
LINE
  8
0
  6
CONTINUOUS
 62
     7
 10
334.297893
 20
-155.797528
 30
0.0
 11
327.097893
 21
-155.797528
 31
0.0
  0
LINE
  8
0
  6
CONTINUOUS
 62
     7
 10
335.097893
 20
-151.797528
 30
0.0
 11
335.097893
 21
-154.997528
 31
0.0
  0
LINE
  8
0
  6
CONTINUOUS
 62
     7
 10
335.097893
 20
-151.797528
 30
0.0
 11
334.697893
 21
-151.797528
 31
0.0
  0
LINE
  8
0
  6
CONTINUOUS
 62
     7
 10
327.097893
 20
-155.397528
 30
0.0
 11
327.097893
 21
-155.797528
 31
0.0
  0
LINE
  8
0
  6
CONTINUOUS
 62
     7
 10
334.297893
 20
-155.397528
 30
0.0
 11
327.097893
 21
-155.397528
 31
0.0
  0
LINE
  8
0
  6
CONTINUOUS
 62
     7
 10
334.697893
 20
-151.797528
 30
0.0
 11
334.697893
 21
-154.997528
 31
0.0
  0
ARC
  8
0
  6
CONTINUOUS
 62
     7
 10
334.297893
 20
-154.997528
 30
0.0
 40
0.4
 50
270.0
 51
360.0
  0
ARC
  8
0
  6
CONTINUOUS
 62
     7
 10
334.297893
 20
-154.997528
 30
0.0
 40
0.8
 50
270.0
 51
360.0
  0
LINE
  8
0
  6
CONTINUOUS
 62
   218
 10
500.77789
 20
-101.957534
 30
0.0
 11
500.77789
 21
-107.248794
 31
0.0
  0
LINE
  8
0
  6
CONTINUOUS
 62
   218
 10
499.65789
 20
-101.957534
 30
0.0
 11
499.65789
 21
-107.208794
 31
0.0
  0
LINE
  8
0
  6
CONTINUOUS
 62
   218
 10
500.77789
 20
-101.957534
 30
0.0
 11
499.65789
 21
-101.957534
 31
0.0
  0
LINE
  8
0
  6
CONTINUOUS
 62
   218
 10
500.77789
 20
-105.957533
 30
0.0
 11
499.65789
 21
-105.957533
 31
0.0
  0
LINE
  8
0
  6
CONTINUOUS
 62
     1
 10
504.457889
 20
-102.997534
 30
0.0
 11
504.457889
 21
-104.917534
 31
0.0
  0
LINE
  8
0
  6
CONTINUOUS
 62
     1
 10
499.65789
 20
-105.477533
 30
0.0
 11
498.37789
 21
-105.477533
 31
0.0
  0
LINE
  8
0
  6
CONTINUOUS
 62
     1
 10
499.65789
 20
-102.437534
 30
0.0
 11
498.37789
 21
-102.437534
 31
0.0
  0
LINE
  8
0
  6
CONTINUOUS
 62
     1
 10
498.37789
 20
-102.437534
 30
0.0
 11
498.37789
 21
-105.477533
 31
0.0
  0
LINE
  8
0
  6
CONTINUOUS
 62
     1
 10
504.137889
 20
-105.477533
 30
0.0
 11
502.537889
 21
-105.477533
 31
0.0
  0
LINE
  8
0
  6
CONTINUOUS
 62
     1
 10
504.137889
 20
-102.437534
 30
0.0
 11
502.537889
 21
-102.437534
 31
0.0
  0
LINE
  8
0
  6
CONTINUOUS
 62
     1
 10
504.137889
 20
-102.437534
 30
0.0
 11
504.137889
 21
-105.477533
 31
0.0
  0
LINE
  8
0
  6
CONTINUOUS
 62
     1
 10
502.537889
 20
-102.221533
 30
0.0
 11
502.537889
 21
-105.693533
 31
0.0
  0
LINE
  8
0
  6
CONTINUOUS
 62
     1
 10
336.697893
 20
-137.077533
 30
0.0
 11
336.617893
 21
-137.077533
 31
0.0
  0
LINE
  8
0
  6
CONTINUOUS
 62
     1
 10
336.697893
 20
-135.317533
 30
0.0
 11
336.617893
 21
-135.317533
 31
0.0
  0
LINE
  8
0
  6
CONTINUOUS
 62
     7
 10
336.513135
 20
-135.197536
 30
0.0
 11
336.513135
 21
-137.037533
 31
0.0
  0
LINE
  8
0
  6
CONTINUOUS
 62
     7
 10
336.617893
 20
-137.037533
 30
0.0
 11
336.513135
 21
-137.037533
 31
0.0
  0
LINE
  8
0
  6
CONTINUOUS
 62
   212
 10
502.297889
 20
-105.877533
 30
0.0
 11
501.897889
 21
-105.877533
 31
0.0
  0
LINE
  8
0
  6
CONTINUOUS
 62
   212
 10
502.297889
 20
-102.037534
 30
0.0
 11
501.897889
 21
-102.037534
 31
0.0
  0
LINE
  8
0
  6
CONTINUOUS
 62
     1
 10
504.457889
 20
-104.917534
 30
0.0
 11
504.137889
 21
-104.917534
 31
0.0
  0
LINE
  8
0
  6
CONTINUOUS
 62
     1
 10
504.457889
 20
-102.997534
 30
0.0
 11
504.137889
 21
-102.997534
 31
0.0
  0
LINE
  8
0
  6
CONTINUOUS
 62
     1
 10
499.65789
 20
-103.957534
 30
0.0
 11
498.37789
 21
-103.957534
 31
0.0
  0
LINE
  8
0
  6
CONTINUOUS
 62
     1
 10
504.137889
 20
-103.957534
 30
0.0
 11
502.537889
 21
-103.957534
 31
0.0
  0
LINE
  8
0
  6
CONTINUOUS
 62
     1
 10
502.537889
 20
-105.693533
 30
0.0
 11
502.297889
 21
-105.693533
 31
0.0
  0
LINE
  8
0
  6
CONTINUOUS
 62
     1
 10
502.537889
 20
-102.221533
 30
0.0
 11
502.297889
 21
-102.221533
 31
0.0
  0
LINE
  8
0
  6
CONTINUOUS
 62
     7
 10
502.297889
 20
-102.037534
 30
0.0
 11
502.297889
 21
-105.877533
 31
0.0
  0
LINE
  8
0
  6
CONTINUOUS
 62
     7
 10
501.897889
 20
-102.997534
 30
0.0
 11
500.77789
 21
-102.997534
 31
0.0
  0
LINE
  8
0
  6
CONTINUOUS
 62
     7
 10
501.897889
 20
-104.917534
 30
0.0
 11
500.77789
 21
-104.917534
 31
0.0
  0
LINE
  8
0
  6
CONTINUOUS
 62
     7
 10
501.897889
 20
-103.237534
 30
0.0
 11
500.77789
 21
-103.237534
 31
0.0
  0
LINE
  8
0
  6
CONTINUOUS
 62
     7
 10
501.897889
 20
-104.677534
 30
0.0
 11
500.77789
 21
-104.677534
 31
0.0
  0
LINE
  8
0
  6
CONTINUOUS
 62
     7
 10
504.457889
 20
-104.677534
 30
0.0
 11
504.137889
 21
-104.677534
 31
0.0
  0
LINE
  8
0
  6
CONTINUOUS
 62
     7
 10
504.457889
 20
-103.237534
 30
0.0
 11
504.137889
 21
-103.237534
 31
0.0
  0
LINE
  8
0
  6
DASHDOT
 62
     7
 10
505.63276
 20
-103.957534
 30
0.0
 11
497.247062
 21
-103.957534
 31
0.0
  0
LINE
  8
0
  6
CONTINUOUS
 62
   218
 10
342.537893
 20
-101.957534
 30
0.0
 11
342.537893
 21
-107.063171
 31
0.0
  0
LINE
  8
0
  6
CONTINUOUS
 62
   218
 10
341.417893
 20
-101.957534
 30
0.0
 11
341.417893
 21
-107.063171
 31
0.0
  0
LINE
  8
0
  6
CONTINUOUS
 62
   218
 10
342.537893
 20
-101.957534
 30
0.0
 11
341.417893
 21
-101.957534
 31
0.0
  0
LINE
  8
0
  6
CONTINUOUS
 62
   218
 10
342.537893
 20
-105.957533
 30
0.0
 11
341.417893
 21
-105.957533
 31
0.0
  0
LINE
  8
0
  6
CONTINUOUS
 62
     1
 10
337.737893
 20
-102.997534
 30
0.0
 11
337.737893
 21
-104.917534
 31
0.0
  0
LINE
  8
0
  6
CONTINUOUS
 62
     1
 10
343.817893
 20
-105.477533
 30
0.0
 11
342.537893
 21
-105.477533
 31
0.0
  0
LINE
  8
0
  6
CONTINUOUS
 62
     1
 10
343.817893
 20
-102.437534
 30
0.0
 11
342.537893
 21
-102.437534
 31
0.0
  0
LINE
  8
0
  6
CONTINUOUS
 62
     1
 10
343.817893
 20
-102.437534
 30
0.0
 11
343.817893
 21
-105.477533
 31
0.0
  0
LINE
  8
0
  6
CONTINUOUS
 62
     1
 10
339.657893
 20
-105.477533
 30
0.0
 11
338.057893
 21
-105.477533
 31
0.0
  0
LINE
  8
0
  6
CONTINUOUS
 62
     1
 10
339.657893
 20
-102.437534
 30
0.0
 11
338.057893
 21
-102.437534
 31
0.0
  0
LINE
  8
0
  6
CONTINUOUS
 62
     1
 10
338.057893
 20
-102.437534
 30
0.0
 11
338.057893
 21
-105.477533
 31
0.0
  0
LINE
  8
0
  6
CONTINUOUS
 62
     1
 10
339.657893
 20
-102.221533
 30
0.0
 11
339.657893
 21
-105.693533
 31
0.0
  0
LINE
  8
0
  6
CONTINUOUS
 62
   212
 10
340.297893
 20
-105.877533
 30
0.0
 11
339.897893
 21
-105.877533
 31
0.0
  0
LINE
  8
0
  6
CONTINUOUS
 62
   212
 10
340.297893
 20
-102.037534
 30
0.0
 11
339.897893
 21
-102.037534
 31
0.0
  0
LINE
  8
0
  6
CONTINUOUS
 62
     1
 10
338.057893
 20
-104.917534
 30
0.0
 11
337.737893
 21
-104.917534
 31
0.0
  0
LINE
  8
0
  6
CONTINUOUS
 62
     1
 10
338.057893
 20
-102.997534
 30
0.0
 11
337.737893
 21
-102.997534
 31
0.0
  0
LINE
  8
0
  6
CONTINUOUS
 62
     1
 10
343.817893
 20
-103.957534
 30
0.0
 11
342.537893
 21
-103.957534
 31
0.0
  0
LINE
  8
0
  6
CONTINUOUS
 62
     1
 10
339.657893
 20
-103.957534
 30
0.0
 11
338.057893
 21
-103.957534
 31
0.0
  0
LINE
  8
0
  6
CONTINUOUS
 62
     1
 10
339.897893
 20
-105.693533
 30
0.0
 11
339.657893
 21
-105.693533
 31
0.0
  0
LINE
  8
0
  6
CONTINUOUS
 62
     1
 10
339.897893
 20
-102.221533
 30
0.0
 11
339.657893
 21
-102.221533
 31
0.0
  0
LINE
  8
0
  6
CONTINUOUS
 62
     7
 10
339.897893
 20
-102.037534
 30
0.0
 11
339.897893
 21
-105.877533
 31
0.0
  0
LINE
  8
0
  6
CONTINUOUS
 62
     7
 10
341.417893
 20
-102.997534
 30
0.0
 11
340.297893
 21
-102.997534
 31
0.0
  0
LINE
  8
0
  6
CONTINUOUS
 62
     7
 10
341.417893
 20
-104.917534
 30
0.0
 11
340.297893
 21
-104.917534
 31
0.0
  0
LINE
  8
0
  6
CONTINUOUS
 62
     7
 10
341.417893
 20
-103.237534
 30
0.0
 11
340.297893
 21
-103.237534
 31
0.0
  0
LINE
  8
0
  6
CONTINUOUS
 62
     7
 10
341.417893
 20
-104.677534
 30
0.0
 11
340.297893
 21
-104.677534
 31
0.0
  0
LINE
  8
0
  6
CONTINUOUS
 62
     7
 10
338.057893
 20
-104.677534
 30
0.0
 11
337.737893
 21
-104.677534
 31
0.0
  0
LINE
  8
0
  6
CONTINUOUS
 62
     7
 10
338.057893
 20
-103.237534
 30
0.0
 11
337.737893
 21
-103.237534
 31
0.0
  0
LINE
  8
0
  6
DASHDOT
 62
     7
 10
344.948721
 20
-103.957534
 30
0.0
 11
336.563022
 21
-103.957534
 31
0.0
  0
LINE
  8
0
  6
CONTINUOUS
 62
     7
 10
340.297893
 20
-102.037534
 30
0.0
 11
340.297893
 21
-105.877533
 31
0.0
  0
LINE
  8
0
  6
CONTINUOUS
 62
     7
 10
501.897889
 20
-102.037534
 30
0.0
 11
501.897889
 21
-105.877533
 31
0.0
  0
CIRCLE
  8
0
  6
CONTINUOUS
 62
     7
 10
351.817893
 20
-151.317533
 30
0.0
 40
0.8
  0
CIRCLE
  8
0
  6
CONTINUOUS
 62
     7
 10
490.37789
 20
-151.317533
 30
0.0
 40
0.8
  0
CIRCLE
  8
0
  6
CONTINUOUS
 62
     7
 10
351.817893
 20
-112.917534
 30
0.0
 40
0.8
  0
CIRCLE
  8
0
  6
CONTINUOUS
 62
     7
 10
490.37789
 20
-112.917534
 30
0.0
 40
0.8
  0
LINE
  8
0
  6
DASHDOT
 62
     7
 10
351.817893
 20
-110.517534
 30
0.0
 11
351.817893
 21
-115.317534
 31
0.0
  0
LINE
  8
0
  6
DASHDOT
 62
     7
 10
354.057893
 20
-112.917534
 30
0.0
 11
349.257893
 21
-112.917534
 31
0.0
  0
LINE
  8
0
  6
DASHDOT
 62
     7
 10
490.37789
 20
-110.517534
 30
0.0
 11
490.37789
 21
-115.317534
 31
0.0
  0
LINE
  8
0
  6
DASHDOT
 62
     7
 10
492.93789
 20
-112.917534
 30
0.0
 11
488.13789
 21
-112.917534
 31
0.0
  0
LINE
  8
0
  6
DASHDOT
 62
     7
 10
490.37789
 20
-131.227274
 30
0.0
 11
490.37789
 21
-153.717533
 31
0.0
  0
LINE
  8
0
  6
DASHDOT
 62
     7
 10
492.77789
 20
-151.317533
 30
0.0
 11
487.97789
 21
-151.317533
 31
0.0
  0
LINE
  8
0
  6
DASHDOT
 62
     7
 10
351.817893
 20
-131.839728
 30
0.0
 11
351.817893
 21
-153.717533
 31
0.0
  0
LINE
  8
0
  6
DASHDOT
 62
     7
 10
354.217893
 20
-151.317533
 30
0.0
 11
349.417893
 21
-151.317533
 31
0.0
  0
LINE
  8
0
  6
CONTINUOUS
 62
     7
 10
507.704351
 20
-115.798671
 30
0.0
 11
335.81912
 21
-115.798671
 31
0.0
  0
LINE
  8
0
  6
CONTINUOUS
 62
     7
 10
495.832451
 20
-147.787514
 30
0.0
 11
495.832451
 21
-154.627895
 31
0.0
  0
LINE
  8
0
  6
CONTINUOUS
 62
     7
 10
495.832451
 20
-147.787514
 30
0.0
 11
346.648837
 21
-147.787514
 31
0.0
  0
LINE
  8
0
  6
CONTINUOUS
 62
     7
 10
346.648837
 20
-147.787514
 30
0.0
 11
346.648837
 21
-154.627895
 31
0.0
  0
LINE
  8
0
  6
CONTINUOUS
 62
     7
 10
495.832451
 20
-154.627895
 30
0.0
 11
346.648837
 21
-154.627895
 31
0.0
  0
LINE
  8
0
  6
CONTINUOUS
 62
     7
 10
344.984699
 20
-107.063171
 30
0.0
 11
339.918033
 21
-107.063171
 31
0.0
  0
LINE
  8
0
  6
CONTINUOUS
 62
     7
 10
503.859892
 20
-107.358866
 30
0.0
 11
497.36582
 21
-107.126935
 31
0.0
  0
LINE
  8
0
  6
CONTINUOUS
 62
     7
 10
511.817889
 20
-98.357529
 30
0.0
 11
505.497889
 21
-98.357529
 31
0.0
  0
LINE
  8
0
  6
CONTINUOUS
 62
     7
 10
511.817889
 20
-97.877529
 30
0.0
 11
501.737889
 21
-97.877529
 31
0.0
  0
LINE
  8
0
  6
CONTINUOUS
 62
     7
 10
340.457893
 20
-97.877529
 30
0.0
 11
330.377893
 21
-97.877529
 31
0.0
  0
LINE
  8
0
  6
CONTINUOUS
 62
     7
 10
336.697893
 20
-98.357529
 30
0.0
 11
330.377893
 21
-98.357529
 31
0.0
  0
LINE
  8
0
  6
CONTINUOUS
 62
     7
 10
506.297889
 20
-97.877529
 30
0.0
 11
506.297889
 21
-98.357529
 31
0.0
  0
LINE
  8
0
  6
CONTINUOUS
 62
     7
 10
335.897893
 20
-97.877529
 30
0.0
 11
335.897893
 21
-98.357529
 31
0.0
  0
LINE
  8
0
  6
CONTINUOUS
 62
     7
 10
330.377893
 20
-159.157528
 30
0.0
 11
320.961149
 21
-159.157528
 31
0.0
  0
LINE
  8
0
  6
CONTINUOUS
 62
     7
 10
330.377893
 20
-97.877529
 30
0.0
 11
330.377893
 21
-98.357529
 31
0.0
  0
LINE
  8
0
  6
CONTINUOUS
 62
     7
 10
511.817889
 20
-97.877529
 30
0.0
 11
511.817889
 21
-98.357529
 31
0.0
  0
LINE
  8
0
  6
CONTINUOUS
 62
     3
 10
410.777892
 20
-143.397535
 30
0.0
 11
410.777892
 21
-147.787514
 31
0.0
  0
LINE
  8
0
  6
CONTINUOUS
 62
     7
 10
410.617892
 20
-143.397535
 30
0.0
 11
410.617892
 21
-147.787514
 31
0.0
  0
CIRCLE
  8
0
  6
CONTINUOUS
 62
   132
 10
431.177892
 20
-93.317514
 30
0.0
 40
1.04
  0
CIRCLE
  8
0
  6
CONTINUOUS
 62
   132
 10
451.337893
 20
-93.317516
 30
0.0
 40
1.04
  0
LINE
  8
0
  6
DASHDOT
 62
     7
 10
451.337882
 20
-91.765516
 30
0.0
 11
451.337882
 21
-94.869489
 31
0.0
  0
CIRCLE
  8
0
  6
CONTINUOUS
 62
   132
 10
491.65789
 20
-93.31752
 30
0.0
 40
1.04
  0
LINE
  8
0
  6
CONTINUOUS
 62
   253
 10
420.697891
 20
-96.197529
 30
0.0
 11
381.177892
 21
-96.197529
 31
0.0
  0
LINE
  8
0
  6
CONTINUOUS
 62
   253
 10
381.177892
 20
-96.197529
 30
0.0
 11
381.177892
 21
-97.797529
 31
0.0
  0
LINE
  8
0
  6
CONTINUOUS
 62
   253
 10
380.777892
 20
-97.797529
 30
0.0
 11
380.777892
 21
-98.357534
 31
0.0
  0
LINE
  8
0
  6
CONTINUOUS
 62
   253
 10
381.177892
 20
-97.797529
 30
0.0
 11
380.777892
 21
-97.797529
 31
0.0
  0
LINE
  8
0
  6
CONTINUOUS
 62
   253
 10
421.097891
 20
-97.797529
 30
0.0
 11
421.097891
 21
-98.357534
 31
0.0
  0
LINE
  8
0
  6
CONTINUOUS
 62
   132
 10
418.697891
 20
-90.917529
 30
0.0
 11
383.177892
 21
-90.917529
 31
0.0
  0
LINE
  8
0
  6
CONTINUOUS
 62
   132
 10
383.177892
 20
-90.917529
 30
0.0
 11
383.177892
 21
-96.197529
 31
0.0
  0
CIRCLE
  8
0
  6
CONTINUOUS
 62
   132
 10
385.257893
 20
-93.317514
 30
0.0
 40
1.04
  0
CIRCLE
  8
0
  6
CONTINUOUS
 62
   132
 10
396.457899
 20
-93.31752
 30
0.0
 40
1.04
  0
LINE
  8
0
  6
DASHDOT
 62
     7
 10
386.809894
 20
-93.31752
 30
0.0
 11
383.705887
 21
-93.31752
 31
0.0
  0
CIRCLE
  8
0
  6
CONTINUOUS
 62
   132
 10
390.857892
 20
-93.317514
 30
0.0
 40
1.04
  0
LINE
  8
0
  6
CONTINUOUS
 62
   132
 10
418.697891
 20
-90.917529
 30
0.0
 11
418.697891
 21
-96.197529
 31
0.0
  0
CIRCLE
  8
0
  6
CONTINUOUS
 62
   132
 10
405.417892
 20
-93.317514
 30
0.0
 40
1.04
  0
CIRCLE
  8
0
  6
CONTINUOUS
 62
   132
 10
416.617899
 20
-93.31752
 30
0.0
 40
1.04
  0
CIRCLE
  8
0
  6
CONTINUOUS
 62
   132
 10
411.017892
 20
-93.317514
 30
0.0
 40
1.04
  0
LINE
  8
0
  6
CONTINUOUS
 62
   253
 10
420.697891
 20
-96.197529
 30
0.0
 11
420.697891
 21
-97.797529
 31
0.0
  0
LINE
  8
0
  6
CONTINUOUS
 62
   253
 10
501.33789
 20
-96.197529
 30
0.0
 11
461.81789
 21
-96.197529
 31
0.0
  0
LINE
  8
0
  6
CONTINUOUS
 62
   253
 10
461.81789
 20
-96.197529
 30
0.0
 11
461.81789
 21
-97.797529
 31
0.0
  0
LINE
  8
0
  6
CONTINUOUS
 62
   253
 10
461.81789
 20
-97.797529
 30
0.0
 11
461.01789
 21
-97.797529
 31
0.0
  0
LINE
  8
0
  6
CONTINUOUS
 62
   132
 10
499.33789
 20
-90.917529
 30
0.0
 11
463.81789
 21
-90.917529
 31
0.0
  0
LINE
  8
0
  6
CONTINUOUS
 62
   132
 10
463.81789
 20
-90.917529
 30
0.0
 11
463.81789
 21
-96.197529
 31
0.0
  0
CIRCLE
  8
0
  6
CONTINUOUS
 62
   132
 10
465.897893
 20
-93.317516
 30
0.0
 40
1.04
  0
CIRCLE
  8
0
  6
CONTINUOUS
 62
   132
 10
477.097886
 20
-93.317496
 30
0.0
 40
1.04
  0
CIRCLE
  8
0
  6
CONTINUOUS
 62
   132
 10
471.497893
 20
-93.317516
 30
0.0
 40
1.04
  0
ARC
  8
0
  6
CONTINUOUS
 62
     7
 10
336.977879
 20
-136.197549
 30
0.0
 40
0.959979
 50
208.954574
 51
241.045258
  0
CIRCLE
  8
0
  6
CONTINUOUS
 62
     7
 10
421.097891
 20
-112.917534
 30
0.0
 40
0.8
  0
CIRCLE
  8
0
  6
CONTINUOUS
 62
     7
 10
421.097891
 20
-151.317533
 30
0.0
 40
0.8
  0
LINE
  8
0
  6
DASHDOT
 62
     7
 10
421.097891
 20
-70.820124
 30
0.0
 11
421.097891
 21
-168.166399
 31
0.0
  0
LINE
  8
0
  6
DASHDOT
 62
     7
 10
422.377891
 20
-112.917534
 30
0.0
 11
419.817891
 21
-112.917534
 31
0.0
  0
LINE
  8
0
  6
DASHDOT
 62
     7
 10
422.377891
 20
-151.317533
 30
0.0
 11
419.817891
 21
-151.317533
 31
0.0
  0
LINE
  8
0
  6
DASHDOT
 62
     7
 10
385.25789
 20
-91.765516
 30
0.0
 11
385.25789
 21
-94.869523
 31
0.0
  0
LINE
  8
0
  6
DASHDOT
 62
     7
 10
390.85789
 20
-91.765516
 30
0.0
 11
390.85789
 21
-94.869523
 31
0.0
  0
LINE
  8
0
  6
DASHDOT
 62
     7
 10
392.409894
 20
-93.31752
 30
0.0
 11
389.305887
 21
-93.31752
 31
0.0
  0
LINE
  8
0
  6
DASHDOT
 62
     7
 10
396.45789
 20
-91.765517
 30
0.0
 11
396.45789
 21
-94.869507
 31
0.0
  0
LINE
  8
0
  6
DASHDOT
 62
     7
 10
398.009885
 20
-93.317512
 30
0.0
 11
394.905895
 21
-93.317512
 31
0.0
  0
LINE
  8
0
  6
DASHDOT
 62
     7
 10
405.41789
 20
-91.765516
 30
0.0
 11
405.41789
 21
-94.869523
 31
0.0
  0
LINE
  8
0
  6
DASHDOT
 62
     7
 10
406.969893
 20
-93.31752
 30
0.0
 11
403.865886
 21
-93.31752
 31
0.0
  0
LINE
  8
0
  6
DASHDOT
 62
     7
 10
411.01789
 20
-91.765516
 30
0.0
 11
411.01789
 21
-94.869523
 31
0.0
  0
LINE
  8
0
  6
DASHDOT
 62
     7
 10
412.569893
 20
-93.31752
 30
0.0
 11
409.465886
 21
-93.31752
 31
0.0
  0
LINE
  8
0
  6
DASHDOT
 62
     7
 10
416.61789
 20
-91.765517
 30
0.0
 11
416.61789
 21
-94.869507
 31
0.0
  0
LINE
  8
0
  6
DASHDOT
 62
     7
 10
418.169884
 20
-93.317512
 30
0.0
 11
415.065895
 21
-93.317512
 31
0.0
  0
LINE
  8
0
  6
DASHDOT
 62
     7
 10
425.577889
 20
-91.765516
 30
0.0
 11
425.577889
 21
-94.869523
 31
0.0
  0
LINE
  8
0
  6
DASHDOT
 62
     7
 10
427.129893
 20
-93.31752
 30
0.0
 11
424.025886
 21
-93.31752
 31
0.0
  0
LINE
  8
0
  6
DASHDOT
 62
     7
 10
431.177889
 20
-91.765516
 30
0.0
 11
431.177889
 21
-94.869523
 31
0.0
  0
LINE
  8
0
  6
DASHDOT
 62
     7
 10
432.729893
 20
-93.31752
 30
0.0
 11
429.625886
 21
-93.31752
 31
0.0
  0
LINE
  8
0
  6
DASHDOT
 62
     7
 10
436.777889
 20
-91.765517
 30
0.0
 11
436.777889
 21
-94.869507
 31
0.0
  0
LINE
  8
0
  6
DASHDOT
 62
     7
 10
438.329884
 20
-93.317512
 30
0.0
 11
435.225894
 21
-93.317512
 31
0.0
  0
LINE
  8
0
  6
DASHDOT
 62
     7
 10
445.737882
 20
-91.765516
 30
0.0
 11
445.737882
 21
-94.869489
 31
0.0
  0
LINE
  8
0
  6
DASHDOT
 62
     7
 10
447.289869
 20
-93.317503
 30
0.0
 11
444.185895
 21
-93.317503
 31
0.0
  0
LINE
  8
0
  6
DASHDOT
 62
     7
 10
451.337882
 20
-91.765516
 30
0.0
 11
451.337882
 21
-94.869489
 31
0.0
  0
LINE
  8
0
  6
DASHDOT
 62
     7
 10
452.889868
 20
-93.317503
 30
0.0
 11
449.785895
 21
-93.317503
 31
0.0
  0
LINE
  8
0
  6
DASHDOT
 62
     7
 10
456.937892
 20
-91.765516
 30
0.0
 11
456.937892
 21
-94.869573
 31
0.0
  0
LINE
  8
0
  6
DASHDOT
 62
     7
 10
458.489921
 20
-93.317545
 30
0.0
 11
455.385864
 21
-93.317545
 31
0.0
  0
LINE
  8
0
  6
DASHDOT
 62
     7
 10
465.897881
 20
-91.765516
 30
0.0
 11
465.897881
 21
-94.869489
 31
0.0
  0
LINE
  8
0
  6
DASHDOT
 62
     7
 10
467.449868
 20
-93.317503
 30
0.0
 11
464.345895
 21
-93.317503
 31
0.0
  0
LINE
  8
0
  6
DASHDOT
 62
     7
 10
471.497881
 20
-91.765516
 30
0.0
 11
471.497881
 21
-94.869489
 31
0.0
  0
LINE
  8
0
  6
DASHDOT
 62
     7
 10
473.049868
 20
-93.317503
 30
0.0
 11
469.945895
 21
-93.317503
 31
0.0
  0
LINE
  8
0
  6
DASHDOT
 62
     7
 10
477.097892
 20
-91.765516
 30
0.0
 11
477.097892
 21
-94.869573
 31
0.0
  0
LINE
  8
0
  6
DASHDOT
 62
     7
 10
478.64992
 20
-93.317545
 30
0.0
 11
475.545864
 21
-93.317545
 31
0.0
  0
LINE
  8
0
  6
DASHDOT
 62
     7
 10
486.057889
 20
-91.765516
 30
0.0
 11
486.057889
 21
-94.869518
 31
0.0
  0
LINE
  8
0
  6
DASHDOT
 62
     7
 10
487.60989
 20
-93.317517
 30
0.0
 11
484.505888
 21
-93.317517
 31
0.0
  0
LINE
  8
0
  6
DASHDOT
 62
     7
 10
491.657889
 20
-91.765516
 30
0.0
 11
491.657889
 21
-94.869518
 31
0.0
  0
LINE
  8
0
  6
DASHDOT
 62
     7
 10
493.20989
 20
-93.317517
 30
0.0
 11
490.105888
 21
-93.317517
 31
0.0
  0
LINE
  8
0
  6
DASHDOT
 62
     7
 10
497.257886
 20
-91.765519
 30
0.0
 11
497.257886
 21
-94.869627
 31
0.0
  0
LINE
  8
0
  6
DASHDOT
 62
     7
 10
498.80994
 20
-93.317573
 30
0.0
 11
495.705833
 21
-93.317573
 31
0.0
  0
LINE
  8
0
  6
DASHDOT
 62
     7
 10
400.937892
 20
-88.070385
 30
0.0
 11
400.937892
 21
-102.646947
 31
0.0
  0
LINE
  8
0
  6
DASHDOT
 62
     7
 10
481.57789
 20
-88.070385
 30
0.0
 11
481.57789
 21
-102.646947
 31
0.0
  0
LINE
  8
0
  6
CONTINUOUS
 62
   253
 10
340.457893
 20
-97.797529
 30
0.0
 11
340.457893
 21
-98.357534
 31
0.0
  0
LINE
  8
0
  6
CONTINUOUS
 62
   253
 10
340.857893
 20
-97.797529
 30
0.0
 11
340.457893
 21
-97.797529
 31
0.0
  0
LINE
  8
0
  6
DASHDOT
 62
     7
 10
377.849885
 20
-93.317512
 30
0.0
 11
374.745896
 21
-93.317512
 31
0.0
  0
LINE
  8
0
  6
DASHDOT
 62
     7
 10
376.297891
 20
-91.765517
 30
0.0
 11
376.297891
 21
-94.869507
 31
0.0
  0
LINE
  8
0
  6
DASHDOT
 62
     7
 10
372.249894
 20
-93.31752
 30
0.0
 11
369.145887
 21
-93.31752
 31
0.0
  0
LINE
  8
0
  6
DASHDOT
 62
     7
 10
370.697891
 20
-91.765516
 30
0.0
 11
370.697891
 21
-94.869523
 31
0.0
  0
LINE
  8
0
  6
DASHDOT
 62
     7
 10
366.649894
 20
-93.31752
 30
0.0
 11
363.545887
 21
-93.31752
 31
0.0
  0
LINE
  8
0
  6
DASHDOT
 62
     7
 10
365.097891
 20
-91.765516
 30
0.0
 11
365.097891
 21
-94.869523
 31
0.0
  0
LINE
  8
0
  6
DASHDOT
 62
     7
 10
357.689886
 20
-93.317512
 30
0.0
 11
354.585896
 21
-93.317512
 31
0.0
  0
LINE
  8
0
  6
DASHDOT
 62
     7
 10
356.137891
 20
-91.765517
 30
0.0
 11
356.137891
 21
-94.869507
 31
0.0
  0
LINE
  8
0
  6
DASHDOT
 62
     7
 10
352.089895
 20
-93.31752
 30
0.0
 11
348.985888
 21
-93.31752
 31
0.0
  0
LINE
  8
0
  6
DASHDOT
 62
     7
 10
350.537891
 20
-91.765516
 30
0.0
 11
350.537891
 21
-94.869523
 31
0.0
  0
LINE
  8
0
  6
DASHDOT
 62
     7
 10
344.937891
 20
-91.765516
 30
0.0
 11
344.937891
 21
-94.869523
 31
0.0
  0
LINE
  8
0
  6
CONTINUOUS
 62
   253
 10
380.377892
 20
-96.197529
 30
0.0
 11
380.377892
 21
-97.797529
 31
0.0
  0
CIRCLE
  8
0
  6
CONTINUOUS
 62
   132
 10
370.697893
 20
-93.317514
 30
0.0
 40
1.04
  0
CIRCLE
  8
0
  6
CONTINUOUS
 62
   132
 10
376.2979
 20
-93.31752
 30
0.0
 40
1.04
  0
CIRCLE
  8
0
  6
CONTINUOUS
 62
   132
 10
365.097893
 20
-93.317514
 30
0.0
 40
1.04
  0
LINE
  8
0
  6
CONTINUOUS
 62
   132
 10
378.377892
 20
-90.917529
 30
0.0
 11
378.377892
 21
-96.197529
 31
0.0
  0
CIRCLE
  8
0
  6
CONTINUOUS
 62
   132
 10
350.537893
 20
-93.317514
 30
0.0
 40
1.04
  0
CIRCLE
  8
0
  6
CONTINUOUS
 62
   132
 10
356.1379
 20
-93.31752
 30
0.0
 40
1.04
  0
CIRCLE
  8
0
  6
CONTINUOUS
 62
   132
 10
344.937893
 20
-93.317514
 30
0.0
 40
1.04
  0
LINE
  8
0
  6
CONTINUOUS
 62
   132
 10
342.857893
 20
-90.917529
 30
0.0
 11
342.857893
 21
-96.197529
 31
0.0
  0
LINE
  8
0
  6
CONTINUOUS
 62
   253
 10
340.857893
 20
-96.197529
 30
0.0
 11
340.857893
 21
-97.797529
 31
0.0
  0
LINE
  8
0
  6
DASHDOT
 62
     7
 10
360.617893
 20
-88.070385
 30
0.0
 11
360.617893
 21
-102.646947
 31
0.0
  0
LINE
  8
0
  6
DASHDOT
 62
     7
 10
346.489895
 20
-93.31752
 30
0.0
 11
343.385888
 21
-93.31752
 31
0.0
  0
LINE
  8
0
  6
CONTINUOUS
 62
   132
 10
378.377892
 20
-90.917529
 30
0.0
 11
342.857893
 21
-90.917529
 31
0.0
  0
LINE
  8
0
  6
CONTINUOUS
 62
   253
 10
380.377892
 20
-96.197529
 30
0.0
 11
340.857893
 21
-96.197529
 31
0.0
  0
LINE
  8
0
  6
CONTINUOUS
 62
   253
 10
381.177892
 20
-97.797529
 30
0.0
 11
380.377892
 21
-97.797529
 31
0.0
  0
LINE
  8
0
  6
DASHDOT
 62
     7
 10
441.257891
 20
-88.070385
 30
0.0
 11
441.257891
 21
-102.646947
 31
0.0
  0
LINE
  8
0
  6
CONTINUOUS
 62
     7
 10
554.316914
 20
-101.726058
 30
0.0
 11
554.316914
 21
-102.649813
 31
0.0
  0
LINE
  8
0
  6
CONTINUOUS
 62
     7
 10
554.316913
 20
-102.649813
 30
0.0
 11
553.516913
 21
-103.111696
 31
0.0
  0
LINE
  8
0
  6
CONTINUOUS
 62
     7
 10
552.716912
 20
-102.649812
 30
0.0
 11
553.516912
 21
-103.111695
 31
0.0
  0
LINE
  8
0
  6
CONTINUOUS
 62
     7
 10
552.716914
 20
-101.726058
 30
0.0
 11
552.716914
 21
-102.649813
 31
0.0
  0
LINE
  8
0
  6
CONTINUOUS
 62
     7
 10
553.516913
 20
-101.264174
 30
0.0
 11
552.716913
 21
-101.726058
 31
0.0
  0
LINE
  8
0
  6
CONTINUOUS
 62
     7
 10
553.516912
 20
-101.264173
 30
0.0
 11
554.316912
 21
-101.726057
 31
0.0
  0
LINE
  8
0
  6
CONTINUOUS
 62
   212
 10
562.716914
 20
-87.209618
 30
0.0
 11
562.716914
 21
-105.787936
 31
0.0
  0
LINE
  8
0
  6
CONTINUOUS
 62
   212
 10
534.138625
 20
-107.787936
 30
0.0
 11
560.716914
 21
-107.787936
 31
0.0
  0
LINE
  8
0
  6
CONTINUOUS
 62
     2
 10
534.138625
 20
-108.187936
 30
0.0
 11
559.516914
 21
-108.187936
 31
0.0
  0
LINE
  8
0
  6
CONTINUOUS
 62
     2
 10
559.516914
 20
-107.787936
 30
0.0
 11
559.516914
 21
-108.187936
 31
0.0
  0
LINE
  8
0
  6
CONTINUOUS
 62
   253
 10
568.316902
 20
-94.18793
 30
0.0
 11
568.316902
 21
-94.58793
 31
0.0
  0
LINE
  8
0
  6
CONTINUOUS
 62
   253
 10
568.316902
 20
-87.209618
 30
0.0
 11
568.316902
 21
-93.78793
 31
0.0
  0
LINE
  8
0
  6
CONTINUOUS
 62
   253
 10
568.316902
 20
-94.58793
 30
0.0
 11
567.278951
 21
-99.471097
 31
0.0
  0
LINE
  8
0
  6
CONTINUOUS
 62
   253
 10
566.316902
 20
-99.78793
 30
0.0
 11
566.887696
 21
-99.78793
 31
0.0
  0
LINE
  8
0
  6
CONTINUOUS
 62
   253
 10
566.316902
 20
-99.78793
 30
0.0
 11
566.316902
 21
-100.18793
 31
0.0
  0
LINE
  8
0
  6
CONTINUOUS
 62
   253
 10
566.316888
 20
-100.187924
 30
0.0
 11
562.716901
 21
-100.224662
 31
0.0
  0
LINE
  8
0
  6
CONTINUOUS
 62
   253
 10
566.316902
 20
-93.78793
 30
0.0
 11
568.316902
 21
-93.78793
 31
0.0
  0
LINE
  8
0
  6
CONTINUOUS
 62
   253
 10
566.316902
 20
-94.18793
 30
0.0
 11
568.316902
 21
-94.18793
 31
0.0
  0
LINE
  8
0
  6
CONTINUOUS
 62
   253
 10
566.316902
 20
-87.209618
 30
0.0
 11
566.316902
 21
-99.787927
 31
0.0
  0
LINE
  8
0
  6
CONTINUOUS
 62
   253
 10
567.916902
 20
-93.78793
 30
0.0
 11
567.916902
 21
-94.18793
 31
0.0
  0
LINE
  8
0
  6
CONTINUOUS
 62
   212
 10
559.516908
 20
-107.787936
 30
0.0
 11
560.716914
 21
-107.787936
 31
0.0
  0
LINE
  8
0
  6
CONTINUOUS
 62
     7
 10
549.116914
 20
-112.427936
 30
0.0
 11
549.116914
 21
-112.987936
 31
0.0
  0
LINE
  8
0
  6
CONTINUOUS
 62
     7
 10
545.916914
 20
-112.427936
 30
0.0
 11
545.916914
 21
-112.987936
 31
0.0
  0
ARC
  8
0
  6
CONTINUOUS
 62
   253
 10
566.887693
 20
-99.387931
 30
0.0
 40
0.399997
 50
270.0
 51
347.999972
  0
ARC
  8
0
  6
CONTINUOUS
 62
   212
 10
560.716918
 20
-105.78794
 30
0.0
 40
1.999995
 50
269.99992
 51
360.000089
  0
CIRCLE
  8
0
  6
CONTINUOUS
 62
     7
 10
553.516904
 20
-102.187953
 30
0.0
 40
1.161912
  0
CIRCLE
  8
0
  6
CONTINUOUS
 62
     7
 10
553.516928
 20
-102.187902
 30
0.0
 40
2.099966
  0
CIRCLE
  8
0
  6
CONTINUOUS
 62
     1
 10
553.516931
 20
-102.187941
 30
0.0
 40
2.200009
  0
LINE
  8
0
  6
CONTINUOUS
 62
     5
 10
567.116902
 20
-103.18793
 30
0.0
 11
567.116902
 21
-110.58793
 31
0.0
  0
LINE
  8
0
  6
CONTINUOUS
 62
     5
 10
568.316902
 20
-103.18793
 30
0.0
 11
571.916902
 21
-103.18793
 31
0.0
  0
LINE
  8
0
  6
CONTINUOUS
 62
     5
 10
567.516902
 20
-103.18793
 30
0.0
 11
567.516902
 21
-110.58793
 31
0.0
  0
LINE
  8
0
  6
CONTINUOUS
 62
     5
 10
567.516902
 20
-110.58793
 30
0.0
 11
569.916902
 21
-110.58793
 31
0.0
  0
LINE
  8
0
  6
CONTINUOUS
 62
     5
 10
570.316902
 20
-107.58793
 30
0.0
 11
570.316902
 21
-110.18793
 31
0.0
  0
LINE
  8
0
  6
CONTINUOUS
 62
     5
 10
570.716902
 20
-107.18793
 30
0.0
 11
571.916902
 21
-107.18793
 31
0.0
  0
LINE
  8
0
  6
CONTINUOUS
 62
     5
 10
567.516902
 20
-106.18793
 30
0.0
 11
570.916902
 21
-106.18793
 31
0.0
  0
LINE
  8
0
  6
CONTINUOUS
 62
     5
 10
571.316902
 20
-104.58793
 30
0.0
 11
571.316902
 21
-105.78793
 31
0.0
  0
LINE
  8
0
  6
CONTINUOUS
 62
     5
 10
567.516902
 20
-104.18793
 30
0.0
 11
570.916902
 21
-104.18793
 31
0.0
  0
LINE
  8
0
  6
CONTINUOUS
 62
     5
 10
567.516902
 20
-109.58793
 30
0.0
 11
568.916902
 21
-109.58793
 31
0.0
  0
LINE
  8
0
  6
CONTINUOUS
 62
     5
 10
567.116902
 20
-103.18793
 30
0.0
 11
567.516902
 21
-103.18793
 31
0.0
  0
ARC
  8
0
  6
CONTINUOUS
 62
     5
 10
570.916902
 20
-104.58793
 30
0.0
 40
0.4
 50
0.0
 51
90.0
  0
ARC
  8
0
  6
CONTINUOUS
 62
     5
 10
571.916902
 20
-103.58793
 30
0.0
 40
0.4
 50
0.0
 51
90.0
  0
ARC
  8
0
  6
CONTINUOUS
 62
     5
 10
571.916902
 20
-106.78793
 30
0.0
 40
0.4
 50
270.0
 51
360.0
  0
ARC
  8
0
  6
CONTINUOUS
 62
     5
 10
570.716902
 20
-107.58793
 30
0.0
 40
0.4
 50
90.0
 51
180.0
  0
ARC
  8
0
  6
CONTINUOUS
 62
     5
 10
569.916902
 20
-110.18793
 30
0.0
 40
0.4
 50
270.0
 51
360.0
  0
ARC
  8
0
  6
CONTINUOUS
 62
     5
 10
568.916902
 20
-109.18793
 30
0.0
 40
0.4
 50
270.0
 51
360.0
  0
ARC
  8
0
  6
CONTINUOUS
 62
     5
 10
570.916902
 20
-105.78793
 30
0.0
 40
0.4
 50
270.0
 51
360.0
  0
LINE
  8
0
  6
CONTINUOUS
 62
     5
 10
569.316902
 20
-107.58793
 30
0.0
 11
569.316902
 21
-109.18793
 31
0.0
  0
LINE
  8
0
  6
CONTINUOUS
 62
     5
 10
572.316902
 20
-87.209618
 30
0.0
 11
572.316902
 21
-106.78793
 31
0.0
  0
LINE
  8
0
  6
CONTINUOUS
 62
     5
 10
568.316902
 20
-103.18793
 30
0.0
 11
568.316902
 21
-104.18793
 31
0.0
  0
LINE
  8
0
  6
CONTINUOUS
 62
     5
 10
567.516902
 20
-107.18793
 30
0.0
 11
568.916902
 21
-107.18793
 31
0.0
  0
ARC
  8
0
  6
CONTINUOUS
 62
     5
 10
568.916902
 20
-107.58793
 30
0.0
 40
0.4
 50
0.0
 51
90.0
  0
LINE
  8
0
  6
CONTINUOUS
 62
     5
 10
566.068797
 20
-100.190456
 30
0.0
 11
568.316902
 21
-103.18793
 31
0.0
  0
LINE
  8
0
  6
CONTINUOUS
 62
     5
 10
565.274873
 20
-100.198558
 30
0.0
 11
567.516902
 21
-103.18793
 31
0.0
  0
LINE
  8
0
  6
CONTINUOUS
 62
     7
 10
559.516902
 20
-108.187936
 30
0.0
 11
559.516902
 21
-111.38793
 31
0.0
  0
LINE
  8
0
  6
CONTINUOUS
 62
     7
 10
559.516902
 20
-111.38793
 30
0.0
 11
566.716902
 21
-111.38793
 31
0.0
  0
LINE
  8
0
  6
CONTINUOUS
 62
     7
 10
559.516902
 20
-110.98793
 30
0.0
 11
566.716902
 21
-110.98793
 31
0.0
  0
ARC
  8
0
  6
CONTINUOUS
 62
     7
 10
566.716902
 20
-110.58793
 30
0.0
 40
0.4
 50
270.0
 51
360.0
  0
ARC
  8
0
  6
CONTINUOUS
 62
     7
 10
566.716902
 20
-110.58793
 30
0.0
 40
0.8
 50
270.0
 51
360.0
  0
LINE
  8
0
  6
CONTINUOUS
 62
     7
 10
557.516914
 20
-108.187936
 30
0.0
 11
557.516914
 21
-116.187936
 31
0.0
  0
LINE
  8
0
  6
CONTINUOUS
 62
     7
 10
556.516914
 20
-110.187936
 30
0.0
 11
556.516914
 21
-116.187936
 31
0.0
  0
LINE
  8
0
  6
CONTINUOUS
 62
     7
 10
539.516914
 20
-109.187936
 30
0.0
 11
555.516914
 21
-109.187936
 31
0.0
  0
ARC
  8
0
  6
CONTINUOUS
 62
     7
 10
555.516914
 20
-110.187936
 30
0.0
 40
1.0
 50
0.0
 51
90.0
  0
ARC
  8
0
  6
CONTINUOUS
 62
     7
 10
539.516914
 20
-110.187936
 30
0.0
 40
1.0
 50
90.0
 51
180.0
  0
LINE
  8
0
  6
CONTINUOUS
 62
     7
 10
537.516914
 20
-108.187936
 30
0.0
 11
537.516914
 21
-116.187936
 31
0.0
  0
LINE
  8
0
  6
CONTINUOUS
 62
     7
 10
538.516914
 20
-110.187936
 30
0.0
 11
538.516914
 21
-116.187936
 31
0.0
  0
LINE
  8
0
  6
CONTINUOUS
 62
     7
 10
556.516914
 20
-116.187936
 30
0.0
 11
557.516914
 21
-116.187936
 31
0.0
  0
LINE
  8
0
  6
CONTINUOUS
 62
     7
 10
537.516914
 20
-116.187936
 30
0.0
 11
538.516914
 21
-116.187936
 31
0.0
  0
LINE
  8
0
  6
CONTINUOUS
 62
     7
 10
544.116914
 20
-109.827936
 30
0.0
 11
550.916914
 21
-109.827936
 31
0.0
  0
LINE
  8
0
  6
CONTINUOUS
 62
     7
 10
544.116914
 20
-109.187936
 30
0.0
 11
544.116914
 21
-109.827936
 31
0.0
  0
LINE
  8
0
  6
CONTINUOUS
 62
     7
 10
550.916914
 20
-109.187936
 30
0.0
 11
550.916914
 21
-109.827936
 31
0.0
  0
LINE
  8
0
  6
CONTINUOUS
 62
     7
 10
545.916914
 20
-112.987936
 30
0.0
 11
549.116914
 21
-112.987936
 31
0.0
  0
LINE
  8
0
  6
CONTINUOUS
 62
     7
 10
545.265248
 20
-112.427936
 30
0.0
 11
549.76858
 21
-112.427936
 31
0.0
  0
LINE
  8
0
  6
CONTINUOUS
 62
     7
 10
545.265248
 20
-109.827936
 30
0.0
 11
549.76858
 21
-109.827936
 31
0.0
  0
LINE
  8
0
  6
CONTINUOUS
 62
     7
 10
550.519135
 20
-110.060159
 30
0.0
 11
550.519135
 21
-112.195713
 31
0.0
  0
LINE
  8
0
  6
CONTINUOUS
 62
     7
 10
549.018024
 20
-110.060159
 30
0.0
 11
549.018024
 21
-112.195713
 31
0.0
  0
LINE
  8
0
  6
CONTINUOUS
 62
     7
 10
546.015803
 20
-110.060159
 30
0.0
 11
546.015803
 21
-112.195713
 31
0.0
  0
ARC
  8
0
  6
CONTINUOUS
 62
     7
 10
549.76858
 20
-111.156964
 30
0.0
 40
1.329028
 50
55.615753
 51
124.384247
  0
ARC
  8
0
  6
CONTINUOUS
 62
     7
 10
547.516914
 20
-114.795713
 30
0.0
 40
4.967777
 50
72.412046
 51
107.587954
  0
ARC
  8
0
  6
CONTINUOUS
 62
     7
 10
545.265248
 20
-111.156964
 30
0.0
 40
1.329028
 50
55.615753
 51
124.384247
  0
LINE
  8
0
  6
CONTINUOUS
 62
     7
 10
544.514692
 20
-110.060159
 30
0.0
 11
544.514692
 21
-112.195713
 31
0.0
  0
LINE
  8
0
  6
DASHDOT
 62
     7
 10
547.516914
 20
-105.454369
 30
0.0
 11
547.516914
 21
-114.935339
 31
0.0
  0
ARC
  8
0
  6
CONTINUOUS
 62
     7
 10
549.76858
 20
-111.098908
 30
0.0
 40
1.329028
 50
235.615753
 51
304.384247
  0
ARC
  8
0
  6
CONTINUOUS
 62
     7
 10
547.516914
 20
-107.460158
 30
0.0
 40
4.967777
 50
252.412046
 51
287.587954
  0
ARC
  8
0
  6
CONTINUOUS
 62
     7
 10
545.265248
 20
-111.098908
 30
0.0
 40
1.329028
 50
235.615753
 51
304.384247
  0
LINE
  8
0
  6
CONTINUOUS
 62
     7
 10
546.396914
 20
-112.427936
 30
0.0
 11
546.396914
 21
-112.987936
 31
0.0
  0
LINE
  8
0
  6
CONTINUOUS
 62
     7
 10
548.636914
 20
-112.427936
 30
0.0
 11
548.636914
 21
-112.987936
 31
0.0
  0
LINE
  8
0
  6
CONTINUOUS
 62
     7
 10
534.138625
 20
-87.209618
 30
0.0
 11
534.138625
 21
-124.932311
 31
0.0
  0
LINE
  8
0
  6
CONTINUOUS
 62
     7
 10
534.138625
 20
-87.209618
 30
0.0
 11
587.732453
 21
-87.209618
 31
0.0
  0
LINE
  8
0
  6
CONTINUOUS
 62
     7
 10
581.916902
 20
-94.18793
 30
0.0
 11
581.916902
 21
-94.58793
 31
0.0
  0
LINE
  8
0
  6
CONTINUOUS
 62
     7
 10
581.916902
 20
-87.209618
 30
0.0
 11
581.916902
 21
-93.78793
 31
0.0
  0
LINE
  8
0
  6
CONTINUOUS
 62
     7
 10
581.916903
 20
-94.58793
 30
0.0
 11
580.878951
 21
-99.471097
 31
0.0
  0
LINE
  8
0
  6
CONTINUOUS
 62
     7
 10
579.916902
 20
-99.78793
 30
0.0
 11
580.487697
 21
-99.78793
 31
0.0
  0
LINE
  8
0
  6
CONTINUOUS
 62
     7
 10
579.916902
 20
-99.78793
 30
0.0
 11
579.916902
 21
-100.18793
 31
0.0
  0
LINE
  8
0
  6
CONTINUOUS
 62
     7
 10
579.916889
 20
-100.187924
 30
0.0
 11
569.407742
 21
-100.295168
 31
0.0
  0
LINE
  8
0
  6
CONTINUOUS
 62
     7
 10
579.916902
 20
-93.78793
 30
0.0
 11
581.916902
 21
-93.78793
 31
0.0
  0
LINE
  8
0
  6
CONTINUOUS
 62
     7
 10
579.916902
 20
-94.18793
 30
0.0
 11
581.916902
 21
-94.18793
 31
0.0
  0
LINE
  8
0
  6
CONTINUOUS
 62
     7
 10
579.916902
 20
-87.209618
 30
0.0
 11
579.916902
 21
-99.787927
 31
0.0
  0
LINE
  8
0
  6
CONTINUOUS
 62
     7
 10
581.516902
 20
-93.78793
 30
0.0
 11
581.516902
 21
-94.18793
 31
0.0
  0
ARC
  8
0
  6
CONTINUOUS
 62
     7
 10
580.487694
 20
-99.387931
 30
0.0
 40
0.399997
 50
270.0
 51
347.999972
  0
LINE
  8
0
  6
CONTINUOUS
 62
     7
 10
587.116902
 20
-94.18793
 30
0.0
 11
587.116902
 21
-94.58793
 31
0.0
  0
LINE
  8
0
  6
CONTINUOUS
 62
     7
 10
587.116902
 20
-87.209618
 30
0.0
 11
587.116902
 21
-93.78793
 31
0.0
  0
LINE
  8
0
  6
CONTINUOUS
 62
     7
 10
587.116903
 20
-94.58793
 30
0.0
 11
586.078951
 21
-99.471097
 31
0.0
  0
LINE
  8
0
  6
CONTINUOUS
 62
     7
 10
585.116902
 20
-99.78793
 30
0.0
 11
585.687697
 21
-99.78793
 31
0.0
  0
LINE
  8
0
  6
CONTINUOUS
 62
     7
 10
585.116902
 20
-99.78793
 30
0.0
 11
585.116902
 21
-100.18793
 31
0.0
  0
LINE
  8
0
  6
CONTINUOUS
 62
     7
 10
585.116889
 20
-100.187924
 30
0.0
 11
581.516901
 21
-100.224662
 31
0.0
  0
LINE
  8
0
  6
CONTINUOUS
 62
     7
 10
585.116902
 20
-93.78793
 30
0.0
 11
587.116902
 21
-93.78793
 31
0.0
  0
LINE
  8
0
  6
CONTINUOUS
 62
     7
 10
585.116902
 20
-94.18793
 30
0.0
 11
587.116902
 21
-94.18793
 31
0.0
  0
LINE
  8
0
  6
CONTINUOUS
 62
     7
 10
585.116902
 20
-87.209618
 30
0.0
 11
585.116902
 21
-99.787927
 31
0.0
  0
LINE
  8
0
  6
CONTINUOUS
 62
     7
 10
586.716902
 20
-93.78793
 30
0.0
 11
586.716902
 21
-94.18793
 31
0.0
  0
ARC
  8
0
  6
CONTINUOUS
 62
     7
 10
585.687694
 20
-99.387931
 30
0.0
 40
0.399997
 50
270.0
 51
347.999972
  0
LINE
  8
0
  6
CONTINUOUS
 62
   218
 10
620.108251
 20
-147.630996
 30
0.0
 11
620.108251
 21
-73.630995
 31
0.0
  0
LINE
  8
0
  6
CONTINUOUS
 62
   218
 10
680.908252
 20
-73.230995
 30
0.0
 11
620.508252
 21
-73.230995
 31
0.0
  0
LINE
  8
0
  6
CONTINUOUS
 62
   218
 10
681.308252
 20
-147.630996
 30
0.0
 11
681.308252
 21
-73.630995
 31
0.0
  0
LINE
  8
0
  6
CONTINUOUS
 62
   218
 10
680.908252
 20
-148.030996
 30
0.0
 11
620.508252
 21
-148.030996
 31
0.0
  0
CIRCLE
  8
0
  6
CONTINUOUS
 62
   218
 10
617.008257
 20
-76.730999
 30
0.0
 40
0.499998
  0
CIRCLE
  8
0
  6
CONTINUOUS
 62
   218
 10
619.108251
 20
-80.630996
 30
0.0
 40
0.5
  0
CIRCLE
  8
0
  6
CONTINUOUS
 62
   218
 10
619.108251
 20
-100.630995
 30
0.0
 40
0.5
  0
CIRCLE
  8
0
  6
CONTINUOUS
 62
   218
 10
619.108252
 20
-120.630995
 30
0.0
 40
0.5
  0
CIRCLE
  8
0
  6
CONTINUOUS
 62
   218
 10
619.108251
 20
-140.630996
 30
0.0
 40
0.5
  0
CIRCLE
  8
0
  6
CONTINUOUS
 62
   218
 10
617.008258
 20
-144.530995
 30
0.0
 40
0.499998
  0
CIRCLE
  8
0
  6
CONTINUOUS
 62
   218
 10
635.708252
 20
-149.030996
 30
0.0
 40
0.5
  0
CIRCLE
  8
0
  6
CONTINUOUS
 62
   218
 10
665.708248
 20
-149.030994
 30
0.0
 40
0.5
  0
CIRCLE
  8
0
  6
CONTINUOUS
 62
   218
 10
682.308246
 20
-140.630993
 30
0.0
 40
0.5
  0
CIRCLE
  8
0
  6
CONTINUOUS
 62
   218
 10
682.308257
 20
-120.630994
 30
0.0
 40
0.5
  0
CIRCLE
  8
0
  6
CONTINUOUS
 62
   218
 10
682.308249
 20
-100.630994
 30
0.0
 40
0.5
  0
CIRCLE
  8
0
  6
CONTINUOUS
 62
   218
 10
682.308247
 20
-80.630996
 30
0.0
 40
0.5
  0
CIRCLE
  8
0
  6
CONTINUOUS
 62
   218
 10
670.708247
 20
-72.231
 30
0.0
 40
0.5
  0
CIRCLE
  8
0
  6
CONTINUOUS
 62
   218
 10
650.708253
 20
-72.230991
 30
0.0
 40
0.5
  0
CIRCLE
  8
0
  6
CONTINUOUS
 62
   218
 10
630.708252
 20
-72.230994
 30
0.0
 40
0.5
  0
LINE
  8
0
  6
DASHDOT
 62
     7
 10
619.508256
 20
-144.530995
 30
0.0
 11
614.50826
 21
-144.530995
 31
0.0
  0
LINE
  8
0
  6
DASHDOT
 62
     7
 10
617.008258
 20
-147.030993
 30
0.0
 11
617.008258
 21
-142.030997
 31
0.0
  0
LINE
  8
0
  6
DASHDOT
 62
     7
 10
621.45325
 20
-140.630996
 30
0.0
 11
616.763251
 21
-140.630996
 31
0.0
  0
LINE
  8
0
  6
DASHDOT
 62
     7
 10
619.108251
 20
-142.975995
 30
0.0
 11
619.108251
 21
-138.285996
 31
0.0
  0
LINE
  8
0
  6
DASHDOT
 62
     7
 10
638.053251
 20
-149.030996
 30
0.0
 11
633.363252
 21
-149.030996
 31
0.0
  0
LINE
  8
0
  6
DASHDOT
 62
     7
 10
635.708252
 20
-151.375995
 30
0.0
 11
635.708252
 21
-146.685996
 31
0.0
  0
LINE
  8
0
  6
DASHDOT
 62
     7
 10
650.708251
 20
-167.808484
 30
0.0
 11
650.708251
 21
-45.123972
 31
0.0
  0
LINE
  8
0
  6
DASHDOT
 62
     7
 10
668.05325
 20
-149.030994
 30
0.0
 11
663.363247
 21
-149.030994
 31
0.0
  0
LINE
  8
0
  6
DASHDOT
 62
     7
 10
665.708248
 20
-151.375996
 30
0.0
 11
665.708248
 21
-146.685993
 31
0.0
  0
LINE
  8
0
  6
DASHDOT
 62
     7
 10
684.653243
 20
-140.630993
 30
0.0
 11
679.963249
 21
-140.630993
 31
0.0
  0
LINE
  8
0
  6
DASHDOT
 62
     7
 10
682.308246
 20
-142.975989
 30
0.0
 11
682.308246
 21
-138.285996
 31
0.0
  0
LINE
  8
0
  6
DASHDOT
 62
     7
 10
684.653256
 20
-120.630994
 30
0.0
 11
679.963258
 21
-120.630994
 31
0.0
  0
LINE
  8
0
  6
DASHDOT
 62
     7
 10
682.308257
 20
-122.975993
 30
0.0
 11
682.308257
 21
-118.285995
 31
0.0
  0
LINE
  8
0
  6
DASHDOT
 62
     7
 10
684.653248
 20
-100.630994
 30
0.0
 11
679.96325
 21
-100.630994
 31
0.0
  0
LINE
  8
0
  6
DASHDOT
 62
     7
 10
682.308249
 20
-102.975993
 30
0.0
 11
682.308249
 21
-98.285995
 31
0.0
  0
LINE
  8
0
  6
DASHDOT
 62
     7
 10
684.653249
 20
-80.630996
 30
0.0
 11
679.963245
 21
-80.630996
 31
0.0
  0
LINE
  8
0
  6
DASHDOT
 62
     7
 10
682.308247
 20
-82.975998
 30
0.0
 11
682.308247
 21
-78.285995
 31
0.0
  0
LINE
  8
0
  6
DASHDOT
 62
     7
 10
673.053252
 20
-72.231
 30
0.0
 11
668.363243
 21
-72.231
 31
0.0
  0
LINE
  8
0
  6
DASHDOT
 62
     7
 10
670.708247
 20
-74.576004
 30
0.0
 11
670.708247
 21
-69.885995
 31
0.0
  0
LINE
  8
0
  6
DASHDOT
 62
     7
 10
653.053252
 20
-72.230991
 30
0.0
 11
648.363255
 21
-72.230991
 31
0.0
  0
LINE
  8
0
  6
DASHDOT
 62
     7
 10
633.053251
 20
-72.230994
 30
0.0
 11
628.363252
 21
-72.230994
 31
0.0
  0
LINE
  8
0
  6
DASHDOT
 62
     7
 10
630.708252
 20
-74.575994
 30
0.0
 11
630.708252
 21
-69.885995
 31
0.0
  0
LINE
  8
0
  6
DASHDOT
 62
     7
 10
621.453252
 20
-80.630996
 30
0.0
 11
616.76325
 21
-80.630996
 31
0.0
  0
LINE
  8
0
  6
DASHDOT
 62
     7
 10
619.108251
 20
-82.975997
 30
0.0
 11
619.108251
 21
-78.285995
 31
0.0
  0
LINE
  8
0
  6
DASHDOT
 62
     7
 10
621.45325
 20
-100.630995
 30
0.0
 11
616.763251
 21
-100.630995
 31
0.0
  0
LINE
  8
0
  6
DASHDOT
 62
     7
 10
619.108251
 20
-102.975995
 30
0.0
 11
619.108251
 21
-98.285995
 31
0.0
  0
LINE
  8
0
  6
DASHDOT
 62
     7
 10
621.453252
 20
-120.630995
 30
0.0
 11
616.763252
 21
-120.630995
 31
0.0
  0
LINE
  8
0
  6
DASHDOT
 62
     7
 10
619.108252
 20
-122.975995
 30
0.0
 11
619.108252
 21
-118.285995
 31
0.0
  0
LINE
  8
0
  6
DASHDOT
 62
     7
 10
619.508255
 20
-76.730999
 30
0.0
 11
614.508259
 21
-76.730999
 31
0.0
  0
LINE
  8
0
  6
DASHDOT
 62
     7
 10
617.008257
 20
-79.230997
 30
0.0
 11
617.008257
 21
-74.231001
 31
0.0
  0
ARC
  8
0
  6
CONTINUOUS
 62
   218
 10
620.50825
 20
-73.630993
 30
0.0
 40
0.399999
 50
89.999828
 51
180.000157
  0
ARC
  8
0
  6
CONTINUOUS
 62
   218
 10
620.50825
 20
-147.630997
 30
0.0
 40
0.399999
 50
179.999828
 51
270.000173
  0
ARC
  8
0
  6
CONTINUOUS
 62
   218
 10
680.908254
 20
-147.630997
 30
0.0
 40
0.399999
 50
269.999826
 51
360.000173
  0
ARC
  8
0
  6
CONTINUOUS
 62
     7
 10
680.908252
 20
-73.630995
 30
0.0
 40
0.4
 50
0.0
 51
90.0
  0
LINE
  8
0
  6
CONTINUOUS
 62
     7
 10
613.108257
 20
-151.030996
 30
0.0
 11
613.108257
 21
-70.231
 31
0.0
  0
LINE
  8
0
  6
CONTINUOUS
 62
     7
 10
684.308246
 20
-151.030996
 30
0.0
 11
613.108257
 21
-151.030996
 31
0.0
  0
LINE
  8
0
  6
CONTINUOUS
 62
     7
 10
684.308246
 20
-151.030996
 30
0.0
 11
684.308246
 21
-70.231
 31
0.0
  0
LINE
  8
0
  6
CONTINUOUS
 62
     7
 10
684.308246
 20
-70.231
 30
0.0
 11
613.108257
 21
-70.231
 31
0.0
  0
LINE
  8
0
  6
DASHDOT
 62
     7
 10
691.167964
 20
-110.630995
 30
0.0
 11
607.245265
 21
-110.630995
 31
0.0
  0
TEXT
  8
0
  6
CONTINUOUS
 62
     7
 10
665.011217
 20
-108.797493
 30
0.0
 40
4.0
  1
X
 50
360.0
 41
0.915625
 72
     1
 11
666.476217
 21
-106.797493
 31
0.0
 73
     2
  0
TEXT
  8
0
  6
CONTINUOUS
 62
     7
 10
652.369158
 20
-166.966332
 30
0.0
 40
4.0
  1
Y
 50
360.0
 41
0.915625
 72
     1
 11
653.834158
 21
-164.966332
 31
0.0
 73
     2
  0
TEXT
  8
0
  6
CONTINUOUS
 62
     7
 10
651.774258
 20
-50.817356
 30
0.0
 40
4.0
  1
Y
 50
360.0
 41
0.915625
 72
     1
 11
653.239258
 21
-48.817356
 31
0.0
 73
     2
  0
TEXT
  8
0
  6
CONTINUOUS
 62
     7
 10
632.742784
 20
-108.797493
 30
0.0
 40
4.0
  1
X
 50
360.0
 41
0.915625
 72
     1
 11
634.207784
 21
-106.797493
 31
0.0
 73
     2
  0
TEXT
  8
0
  6
CONTINUOUS
 62
     2
 10
631.745973
 20
-201.501984
 30
0.0
 40
4.5
  1
601933/829
 50
360.0
 41
1.1
 72
     1
 11
655.670972
 21
-199.251984
 31
0.0
 73
     2
  0
TEXT
  8
0
  6
CONTINUOUS
 62
     2
 10
635.995973
 20
-192.035248
 30
0.0
 40
2.5
  1
E6/FULL SIZE
 50
360.0
 41
1.1
 72
     1
 11
652.037638
 21
-190.785248
 31
0.0
 73
     2
  0
TEXT
  8
0
  6
CONTINUOUS
 62
     2
 10
617.352631
 20
-178.737067
 30
0.0
 40
2.2
  1
E6 IV ESTR. TERM. POST. ORIZZONTALI
 50
360.0
 41
0.913636
 11
617.352631
 21
-177.637067
 31
0.0
 73
     2
  0
TEXT
  8
0
  6
CONTINUOUS
 62
     2
 10
617.352631
 20
-181.937067
 30
0.0
 40
2.2
  1
E6 IV DRAW-OUT VERSION
 50
360.0
 41
0.913636
 11
617.352631
 21
-180.837067
 31
0.0
 73
     2
  0
TEXT
  8
0
  6
CONTINUOUS
 62
     2
 10
617.352631
 20
-185.137067
 30
0.0
 40
2.2
  1
HORIZONTAL REAR TERMINALS
 50
360.0
 41
0.913636
 11
617.352631
 21
-184.037067
 31
0.0
 73
     2
  0
TEXT
  8
0
  6
CONTINUOUS
 62
     2
 10
542.565979
 20
-194.151924
 30
0.0
 40
2.5
  1
N0070 01-04-13
 50
360.0
 41
0.65
 11
542.565979
 21
-192.901924
 31
0.0
 73
     2
  0
LINE
  8
0
  6
CONTINUOUS
 62
     7
 10
560.862454
 20
-16.455247
 30
0.0
 11
560.862454
 21
-16.824752
 31
0.0
  0
LINE
  8
0
  6
CONTINUOUS
 62
     7
 10
560.862455
 20
-16.824751
 30
0.0
 11
560.542455
 21
-17.009503
 31
0.0
  0
LINE
  8
0
  6
CONTINUOUS
 62
     7
 10
560.222455
 20
-16.824751
 30
0.0
 11
560.542455
 21
-17.009504
 31
0.0
  0
LINE
  8
0
  6
CONTINUOUS
 62
     7
 10
560.222454
 20
-16.455247
 30
0.0
 11
560.222454
 21
-16.824752
 31
0.0
  0
LINE
  8
0
  6
CONTINUOUS
 62
     7
 10
560.542455
 20
-16.270494
 30
0.0
 11
560.222455
 21
-16.455247
 31
0.0
  0
LINE
  8
0
  6
CONTINUOUS
 62
     7
 10
560.542455
 20
-16.270495
 30
0.0
 11
560.862455
 21
-16.455247
 31
0.0
  0
LINE
  8
0
  6
CONTINUOUS
 62
     7
 10
560.862454
 20
25.46475
 30
0.0
 11
560.862454
 21
25.095248
 31
0.0
  0
LINE
  8
0
  6
CONTINUOUS
 62
     7
 10
560.862454
 20
25.095248
 30
0.0
 11
560.542454
 21
24.910495
 31
0.0
  0
LINE
  8
0
  6
CONTINUOUS
 62
     7
 10
560.222455
 20
25.095248
 30
0.0
 11
560.542455
 21
24.910494
 31
0.0
  0
LINE
  8
0
  6
CONTINUOUS
 62
     7
 10
560.222454
 20
25.46475
 30
0.0
 11
560.222454
 21
25.095248
 31
0.0
  0
LINE
  8
0
  6
CONTINUOUS
 62
     7
 10
560.542454
 20
25.649503
 30
0.0
 11
560.222454
 21
25.46475
 31
0.0
  0
LINE
  8
0
  6
CONTINUOUS
 62
     7
 10
560.542455
 20
25.649503
 30
0.0
 11
560.862455
 21
25.46475
 31
0.0
  0
LINE
  8
0
  6
CONTINUOUS
 62
     7
 10
554.462454
 20
25.46475
 30
0.0
 11
554.462454
 21
25.095248
 31
0.0
  0
LINE
  8
0
  6
CONTINUOUS
 62
     7
 10
554.462455
 20
25.095248
 30
0.0
 11
554.142455
 21
24.910495
 31
0.0
  0
LINE
  8
0
  6
CONTINUOUS
 62
     7
 10
553.822455
 20
25.095248
 30
0.0
 11
554.142455
 21
24.910494
 31
0.0
  0
LINE
  8
0
  6
CONTINUOUS
 62
     7
 10
553.822454
 20
25.46475
 30
0.0
 11
553.822454
 21
25.095248
 31
0.0
  0
LINE
  8
0
  6
CONTINUOUS
 62
     7
 10
554.142455
 20
25.649504
 30
0.0
 11
553.822455
 21
25.46475
 31
0.0
  0
LINE
  8
0
  6
CONTINUOUS
 62
     7
 10
554.142455
 20
25.649503
 30
0.0
 11
554.462455
 21
25.46475
 31
0.0
  0
LINE
  8
0
  6
CONTINUOUS
 62
     7
 10
589.662453
 20
-21.175246
 30
0.0
 11
589.662453
 21
-21.54475
 31
0.0
  0
LINE
  8
0
  6
CONTINUOUS
 62
     7
 10
589.662453
 20
-21.54475
 30
0.0
 11
589.342453
 21
-21.729501
 31
0.0
  0
LINE
  8
0
  6
CONTINUOUS
 62
     7
 10
589.022453
 20
-21.54475
 30
0.0
 11
589.342453
 21
-21.729501
 31
0.0
  0
LINE
  8
0
  6
CONTINUOUS
 62
     7
 10
589.022453
 20
-21.175246
 30
0.0
 11
589.022453
 21
-21.54475
 31
0.0
  0
LINE
  8
0
  6
CONTINUOUS
 62
     7
 10
589.342453
 20
-20.990495
 30
0.0
 11
589.022453
 21
-21.175246
 31
0.0
  0
LINE
  8
0
  6
CONTINUOUS
 62
     7
 10
589.342453
 20
-20.990495
 30
0.0
 11
589.662453
 21
-21.175246
 31
0.0
  0
LINE
  8
0
  6
CONTINUOUS
 62
     7
 10
554.462454
 20
-16.455247
 30
0.0
 11
554.462454
 21
-16.824752
 31
0.0
  0
LINE
  8
0
  6
CONTINUOUS
 62
     7
 10
554.462456
 20
-16.824751
 30
0.0
 11
554.142456
 21
-17.009503
 31
0.0
  0
LINE
  8
0
  6
CONTINUOUS
 62
     7
 10
553.822455
 20
-16.824752
 30
0.0
 11
554.142455
 21
-17.009504
 31
0.0
  0
LINE
  8
0
  6
CONTINUOUS
 62
     7
 10
553.822454
 20
-16.455247
 30
0.0
 11
553.822454
 21
-16.824752
 31
0.0
  0
LINE
  8
0
  6
CONTINUOUS
 62
     7
 10
554.142456
 20
-16.270494
 30
0.0
 11
553.822456
 21
-16.455247
 31
0.0
  0
LINE
  8
0
  6
CONTINUOUS
 62
     7
 10
554.142455
 20
-16.270495
 30
0.0
 11
554.462455
 21
-16.455247
 31
0.0
  0
LINE
  8
0
  6
CONTINUOUS
 62
     7
 10
582.222453
 20
-24.615246
 30
0.0
 11
582.222453
 21
-24.984748
 31
0.0
  0
LINE
  8
0
  6
CONTINUOUS
 62
     7
 10
582.222453
 20
-24.984748
 30
0.0
 11
581.902453
 21
-25.169501
 31
0.0
  0
LINE
  8
0
  6
CONTINUOUS
 62
     7
 10
581.582453
 20
-24.984748
 30
0.0
 11
581.902453
 21
-25.169501
 31
0.0
  0
LINE
  8
0
  6
CONTINUOUS
 62
     7
 10
581.582453
 20
-24.615246
 30
0.0
 11
581.582453
 21
-24.984748
 31
0.0
  0
LINE
  8
0
  6
CONTINUOUS
 62
     7
 10
581.902453
 20
-24.430492
 30
0.0
 11
581.582453
 21
-24.615246
 31
0.0
  0
LINE
  8
0
  6
CONTINUOUS
 62
     7
 10
581.902453
 20
-24.430492
 30
0.0
 11
582.222453
 21
-24.615246
 31
0.0
  0
LINE
  8
0
  6
CONTINUOUS
 62
     7
 10
593.182456
 20
44.74475
 30
0.0
 11
593.182456
 21
44.375248
 31
0.0
  0
LINE
  8
0
  6
CONTINUOUS
 62
     7
 10
593.182455
 20
44.375247
 30
0.0
 11
592.862455
 21
44.190496
 31
0.0
  0
LINE
  8
0
  6
CONTINUOUS
 62
     7
 10
592.542456
 20
44.375248
 30
0.0
 11
592.862456
 21
44.190497
 31
0.0
  0
LINE
  8
0
  6
CONTINUOUS
 62
     7
 10
592.542456
 20
44.74475
 30
0.0
 11
592.542456
 21
44.375248
 31
0.0
  0
LINE
  8
0
  6
CONTINUOUS
 62
     7
 10
592.862455
 20
44.9295
 30
0.0
 11
592.542455
 21
44.744749
 31
0.0
  0
LINE
  8
0
  6
CONTINUOUS
 62
     7
 10
592.862456
 20
44.9295
 30
0.0
 11
593.182456
 21
44.744749
 31
0.0
  0
LINE
  8
0
  6
CONTINUOUS
 62
     7
 10
566.382454
 20
-24.215248
 30
0.0
 11
566.382454
 21
-24.58475
 31
0.0
  0
LINE
  8
0
  6
CONTINUOUS
 62
     7
 10
566.382454
 20
-24.58475
 30
0.0
 11
566.062454
 21
-24.769503
 31
0.0
  0
LINE
  8
0
  6
CONTINUOUS
 62
     7
 10
565.742454
 20
-24.58475
 30
0.0
 11
566.062454
 21
-24.769503
 31
0.0
  0
LINE
  8
0
  6
CONTINUOUS
 62
     7
 10
565.742454
 20
-24.215248
 30
0.0
 11
565.742454
 21
-24.58475
 31
0.0
  0
LINE
  8
0
  6
CONTINUOUS
 62
     7
 10
566.062454
 20
-24.030495
 30
0.0
 11
565.742454
 21
-24.215248
 31
0.0
  0
LINE
  8
0
  6
CONTINUOUS
 62
     7
 10
566.062454
 20
-24.030495
 30
0.0
 11
566.382454
 21
-24.215248
 31
0.0
  0
LINE
  8
0
  6
CONTINUOUS
 62
     7
 10
607.182453
 20
-24.215248
 30
0.0
 11
607.182453
 21
-24.58475
 31
0.0
  0
LINE
  8
0
  6
CONTINUOUS
 62
     7
 10
607.182453
 20
-24.58475
 30
0.0
 11
606.862453
 21
-24.769504
 31
0.0
  0
LINE
  8
0
  6
CONTINUOUS
 62
     7
 10
606.542452
 20
-24.58475
 30
0.0
 11
606.862452
 21
-24.769503
 31
0.0
  0
LINE
  8
0
  6
CONTINUOUS
 62
     7
 10
606.542453
 20
-24.215248
 30
0.0
 11
606.542453
 21
-24.58475
 31
0.0
  0
LINE
  8
0
  6
CONTINUOUS
 62
     7
 10
606.862453
 20
-24.030495
 30
0.0
 11
606.542453
 21
-24.215248
 31
0.0
  0
LINE
  8
0
  6
CONTINUOUS
 62
     7
 10
606.862452
 20
-24.030494
 30
0.0
 11
607.182452
 21
-24.215248
 31
0.0
  0
LINE
  8
0
  6
CONTINUOUS
 62
   218
 10
554.382457
 20
45.843314
 30
0.0
 11
554.382457
 21
45.196684
 31
0.0
  0
LINE
  8
0
  6
CONTINUOUS
 62
   218
 10
554.382456
 20
45.196685
 30
0.0
 11
553.822456
 21
44.87337
 31
0.0
  0
LINE
  8
0
  6
CONTINUOUS
 62
   218
 10
553.262454
 20
45.196686
 30
0.0
 11
553.822454
 21
44.87337
 31
0.0
  0
LINE
  8
0
  6
CONTINUOUS
 62
   218
 10
553.262457
 20
45.843314
 30
0.0
 11
553.262457
 21
45.196684
 31
0.0
  0
LINE
  8
0
  6
CONTINUOUS
 62
   218
 10
553.822456
 20
46.166631
 30
0.0
 11
553.262456
 21
45.843316
 31
0.0
  0
LINE
  8
0
  6
CONTINUOUS
 62
   218
 10
553.822454
 20
46.166632
 30
0.0
 11
554.382454
 21
45.843317
 31
0.0
  0
LINE
  8
0
  6
CONTINUOUS
 62
   218
 10
589.582456
 20
45.843314
 30
0.0
 11
589.582456
 21
45.196684
 31
0.0
  0
LINE
  8
0
  6
CONTINUOUS
 62
   218
 10
589.582457
 20
45.196686
 30
0.0
 11
589.022457
 21
44.87337
 31
0.0
  0
LINE
  8
0
  6
CONTINUOUS
 62
   218
 10
588.462456
 20
45.196685
 30
0.0
 11
589.022456
 21
44.87337
 31
0.0
  0
LINE
  8
0
  6
CONTINUOUS
 62
   218
 10
588.462456
 20
45.843314
 30
0.0
 11
588.462456
 21
45.196684
 31
0.0
  0
LINE
  8
0
  6
CONTINUOUS
 62
   218
 10
589.022457
 20
46.166632
 30
0.0
 11
588.462457
 21
45.843316
 31
0.0
  0
LINE
  8
0
  6
CONTINUOUS
 62
   218
 10
589.022456
 20
46.166632
 30
0.0
 11
589.582456
 21
45.843316
 31
0.0
  0
LINE
  8
0
  6
CONTINUOUS
 62
     7
 10
573.582449
 20
-9.44
 30
0.0
 11
573.949825
 21
-9.513077
 31
0.0
  0
LINE
  8
0
  6
CONTINUOUS
 62
     7
 10
573.949825
 20
-9.513077
 30
0.0
 11
574.261271
 21
-9.72118
 31
0.0
  0
LINE
  8
0
  6
CONTINUOUS
 62
     7
 10
574.26127
 20
-9.721181
 30
0.0
 11
574.46937
 21
-10.032628
 31
0.0
  0
LINE
  8
0
  6
CONTINUOUS
 62
     7
 10
574.469371
 20
-10.032627
 30
0.0
 11
574.542444
 21
-10.400004
 31
0.0
  0
LINE
  8
0
  6
CONTINUOUS
 62
     7
 10
574.542444
 20
-10.400004
 30
0.0
 11
574.469367
 21
-10.767379
 31
0.0
  0
LINE
  8
0
  6
CONTINUOUS
 62
     7
 10
574.469367
 20
-10.767379
 30
0.0
 11
574.261264
 21
-11.078824
 31
0.0
  0
LINE
  8
0
  6
CONTINUOUS
 62
     7
 10
574.261263
 20
-11.078825
 30
0.0
 11
573.949816
 21
-11.286926
 31
0.0
  0
LINE
  8
0
  6
CONTINUOUS
 62
     7
 10
573.949817
 20
-11.286925
 30
0.0
 11
573.58244
 21
-11.359999
 31
0.0
  0
LINE
  8
0
  6
CONTINUOUS
 62
     7
 10
573.215064
 20
-11.286922
 30
0.0
 11
573.58244
 21
-11.359999
 31
0.0
  0
LINE
  8
0
  6
CONTINUOUS
 62
     7
 10
572.903619
 20
-11.078819
 30
0.0
 11
573.215064
 21
-11.286922
 31
0.0
  0
LINE
  8
0
  6
CONTINUOUS
 62
     7
 10
572.695518
 20
-10.767372
 30
0.0
 11
572.903618
 21
-11.07882
 31
0.0
  0
LINE
  8
0
  6
CONTINUOUS
 62
     7
 10
572.622444
 20
-10.399994
 30
0.0
 11
572.695518
 21
-10.76737
 31
0.0
  0
LINE
  8
0
  6
CONTINUOUS
 62
     7
 10
572.695522
 20
-10.032619
 30
0.0
 11
572.622444
 21
-10.399994
 31
0.0
  0
LINE
  8
0
  6
CONTINUOUS
 62
     7
 10
572.903626
 20
-9.721173
 30
0.0
 11
572.695522
 21
-10.032618
 31
0.0
  0
LINE
  8
0
  6
CONTINUOUS
 62
     7
 10
573.215072
 20
-9.513073
 30
0.0
 11
572.903625
 21
-9.721174
 31
0.0
  0
LINE
  8
0
  6
CONTINUOUS
 62
     7
 10
573.58245
 20
-9.439999
 30
0.0
 11
573.215073
 21
-9.513073
 31
0.0
  0
LINE
  8
0
  6
CONTINUOUS
 62
     5
 10
596.062456
 20
43.759999
 30
0.0
 11
596.062456
 21
41.359999
 31
0.0
  0
LINE
  8
0
  6
CONTINUOUS
 62
     5
 10
596.062456
 20
43.759999
 30
0.0
 11
596.542456
 21
43.759999
 31
0.0
  0
LINE
  8
0
  6
CONTINUOUS
 62
     5
 10
596.542456
 20
43.759999
 30
0.0
 11
596.542456
 21
41.359999
 31
0.0
  0
LINE
  8
0
  6
CONTINUOUS
 62
     5
 10
596.062456
 20
41.359999
 30
0.0
 11
596.542456
 21
41.359999
 31
0.0
  0
LINE
  8
0
  6
CONTINUOUS
 62
   212
 10
552.222454
 20
47.039999
 30
0.0
 11
609.742453
 21
47.039999
 31
0.0
  0
LINE
  8
0
  6
CONTINUOUS
 62
   212
 10
610.542453
 20
46.239999
 30
0.0
 11
610.542453
 21
5.28
 31
0.0
  0
LINE
  8
0
  6
CONTINUOUS
 62
   212
 10
608.142453
 20
4.48
 30
0.0
 11
609.742453
 21
4.48
 31
0.0
  0
LINE
  8
0
  6
CONTINUOUS
 62
   212
 10
607.342453
 20
3.68
 30
0.0
 11
607.342453
 21
-7.52
 31
0.0
  0
LINE
  8
0
  6
CONTINUOUS
 62
   212
 10
608.142453
 20
-8.32
 30
0.0
 11
609.742453
 21
-8.32
 31
0.0
  0
LINE
  8
0
  6
CONTINUOUS
 62
   212
 10
610.542453
 20
-9.12
 30
0.0
 11
610.542453
 21
-25.839999
 31
0.0
  0
LINE
  8
0
  6
CONTINUOUS
 62
   212
 10
552.222454
 20
-26.639999
 30
0.0
 11
609.742453
 21
-26.639999
 31
0.0
  0
LINE
  8
0
  6
CONTINUOUS
 62
   212
 10
551.916306
 20
-26.579104
 30
0.0
 11
552.222454
 21
-26.64
 31
0.0
  0
LINE
  8
0
  6
CONTINUOUS
 62
   212
 10
551.656769
 20
-26.405685
 30
0.0
 11
551.916307
 21
-26.579103
 31
0.0
  0
LINE
  8
0
  6
CONTINUOUS
 62
   212
 10
551.48335
 20
-26.146147
 30
0.0
 11
551.656768
 21
-26.405685
 31
0.0
  0
LINE
  8
0
  6
CONTINUOUS
 62
   212
 10
551.422454
 20
-25.84
 30
0.0
 11
551.48335
 21
-26.146147
 31
0.0
  0
LINE
  8
0
  6
CONTINUOUS
 62
   212
 10
551.422454
 20
-14.88
 30
0.0
 11
551.422454
 21
-25.839999
 31
0.0
  0
LINE
  8
0
  6
CONTINUOUS
 62
   212
 10
551.422454
 20
-14.88
 30
0.0
 11
552.382454
 21
-14.88
 31
0.0
  0
LINE
  8
0
  6
CONTINUOUS
 62
   212
 10
552.382454
 20
23.679999
 30
0.0
 11
552.382454
 21
22.879999
 31
0.0
  0
LINE
  8
0
  6
CONTINUOUS
 62
   212
 10
552.382454
 20
-14.24
 30
0.0
 11
552.382454
 21
-14.88
 31
0.0
  0
LINE
  8
0
  6
CONTINUOUS
 62
   212
 10
551.422454
 20
23.679999
 30
0.0
 11
552.382454
 21
23.679999
 31
0.0
  0
LINE
  8
0
  6
CONTINUOUS
 62
   212
 10
551.422454
 20
46.239999
 30
0.0
 11
551.422454
 21
23.679999
 31
0.0
  0
LINE
  8
0
  6
CONTINUOUS
 62
   212
 10
551.422454
 20
22.879999
 30
0.0
 11
551.422454
 21
-14.24
 31
0.0
  0
LINE
  8
0
  6
CONTINUOUS
 62
   212
 10
549.342449
 20
-14.24
 30
0.0
 11
552.382454
 21
-14.24
 31
0.0
  0
LINE
  8
0
  6
CONTINUOUS
 62
   212
 10
549.342449
 20
22.879999
 30
0.0
 11
552.382454
 21
22.879999
 31
0.0
  0
LINE
  8
0
  6
CONTINUOUS
 62
   212
 10
608.139317
 20
-10.08023
 30
0.0
 11
608.188036
 21
-10.325147
 31
0.0
  0
LINE
  8
0
  6
CONTINUOUS
 62
   212
 10
608.188036
 20
-10.325147
 30
0.0
 11
608.326772
 21
-10.532779
 31
0.0
  0
LINE
  8
0
  6
CONTINUOUS
 62
   212
 10
608.326771
 20
-10.532779
 30
0.0
 11
608.5344
 21
-10.671513
 31
0.0
  0
LINE
  8
0
  6
CONTINUOUS
 62
   212
 10
608.5344
 20
-10.671513
 30
0.0
 11
608.779317
 21
-10.72023
 31
0.0
  0
LINE
  8
0
  6
CONTINUOUS
 62
   212
 10
609.024236
 20
-10.671513
 30
0.0
 11
608.779317
 21
-10.72023
 31
0.0
  0
LINE
  8
0
  6
CONTINUOUS
 62
   212
 10
609.231866
 20
-10.532779
 30
0.0
 11
609.024237
 21
-10.671513
 31
0.0
  0
LINE
  8
0
  6
CONTINUOUS
 62
   212
 10
609.370602
 20
-10.325147
 30
0.0
 11
609.231867
 21
-10.532779
 31
0.0
  0
LINE
  8
0
  6
CONTINUOUS
 62
   212
 10
609.419318
 20
-10.080231
 30
0.0
 11
609.370603
 21
-10.325148
 31
0.0
  0
LINE
  8
0
  6
CONTINUOUS
 62
   212
 10
609.370603
 20
-9.835314
 30
0.0
 11
609.419319
 21
-10.080231
 31
0.0
  0
LINE
  8
0
  6
CONTINUOUS
 62
   212
 10
609.231866
 20
-9.627682
 30
0.0
 11
609.370602
 21
-9.835312
 31
0.0
  0
LINE
  8
0
  6
CONTINUOUS
 62
   212
 10
609.024236
 20
-9.488947
 30
0.0
 11
609.231865
 21
-9.627681
 31
0.0
  0
LINE
  8
0
  6
CONTINUOUS
 62
   212
 10
608.779317
 20
-9.44023
 30
0.0
 11
609.024236
 21
-9.488947
 31
0.0
  0
LINE
  8
0
  6
CONTINUOUS
 62
   212
 10
608.779317
 20
-9.44023
 30
0.0
 11
608.5344
 21
-9.488947
 31
0.0
  0
LINE
  8
0
  6
CONTINUOUS
 62
   212
 10
608.5344
 20
-9.488948
 30
0.0
 11
608.32677
 21
-9.627682
 31
0.0
  0
LINE
  8
0
  6
CONTINUOUS
 62
   212
 10
608.326771
 20
-9.627682
 30
0.0
 11
608.188036
 21
-9.835313
 31
0.0
  0
LINE
  8
0
  6
CONTINUOUS
 62
   212
 10
608.188038
 20
-9.835314
 30
0.0
 11
608.13932
 21
-10.080231
 31
0.0
  0
LINE
  8
0
  6
CONTINUOUS
 62
   212
 10
589.582453
 20
42.559999
 30
0.0
 11
589.582453
 21
35.519999
 31
0.0
  0
LINE
  8
0
  6
CONTINUOUS
 62
   212
 10
562.862454
 20
35.039999
 30
0.0
 11
589.102453
 21
35.039999
 31
0.0
  0
LINE
  8
0
  6
CONTINUOUS
 62
   212
 10
562.382454
 20
42.559999
 30
0.0
 11
562.382454
 21
35.519999
 31
0.0
  0
LINE
  8
0
  6
CONTINUOUS
 62
   212
 10
562.862454
 20
43.039999
 30
0.0
 11
589.102453
 21
43.039999
 31
0.0
  0
LINE
  8
0
  6
CONTINUOUS
 62
   212
 10
562.302454
 20
-0.642655
 30
0.0
 11
564.062454
 21
-0.642655
 31
0.0
  0
LINE
  8
0
  6
CONTINUOUS
 62
   212
 10
562.302454
 20
1.757345
 30
0.0
 11
562.302454
 21
-0.642655
 31
0.0
  0
LINE
  8
0
  6
CONTINUOUS
 62
   212
 10
562.302454
 20
1.757345
 30
0.0
 11
564.062454
 21
1.757345
 31
0.0
  0
LINE
  8
0
  6
CONTINUOUS
 62
   212
 10
563.262454
 20
1.757345
 30
0.0
 11
563.262454
 21
-0.642655
 31
0.0
  0
LINE
  8
0
  6
CONTINUOUS
 62
   212
 10
586.622453
 20
5.2
 30
0.0
 11
586.622453
 21
3.28
 31
0.0
  0
LINE
  8
0
  6
CONTINUOUS
 62
   212
 10
584.862454
 20
3.28
 30
0.0
 11
586.622453
 21
3.28
 31
0.0
  0
LINE
  8
0
  6
CONTINUOUS
 62
   212
 10
584.862454
 20
3.28
 30
0.0
 11
584.862454
 21
-2.16
 31
0.0
  0
LINE
  8
0
  6
CONTINUOUS
 62
   212
 10
582.302454
 20
-2.16
 30
0.0
 11
584.862454
 21
-2.16
 31
0.0
  0
LINE
  8
0
  6
CONTINUOUS
 62
   212
 10
582.302454
 20
3.28
 30
0.0
 11
582.302454
 21
-2.16
 31
0.0
  0
LINE
  8
0
  6
CONTINUOUS
 62
   212
 10
581.102454
 20
3.28
 30
0.0
 11
582.302454
 21
3.28
 31
0.0
  0
LINE
  8
0
  6
CONTINUOUS
 62
   212
 10
581.102454
 20
5.2
 30
0.0
 11
581.102454
 21
3.28
 31
0.0
  0
LINE
  8
0
  6
CONTINUOUS
 62
   212
 10
581.102454
 20
5.2
 30
0.0
 11
586.622453
 21
5.2
 31
0.0
  0
LINE
  8
0
  6
CONTINUOUS
 62
   212
 10
595.182453
 20
4.48
 30
0.0
 11
601.102453
 21
4.48
 31
0.0
  0
LINE
  8
0
  6
CONTINUOUS
 62
   212
 10
601.102453
 20
4.48
 30
0.0
 11
601.102453
 21
-0.96
 31
0.0
  0
LINE
  8
0
  6
CONTINUOUS
 62
   212
 10
595.182453
 20
-0.96
 30
0.0
 11
601.102453
 21
-0.96
 31
0.0
  0
LINE
  8
0
  6
CONTINUOUS
 62
   212
 10
595.182453
 20
4.48
 30
0.0
 11
595.182453
 21
-0.96
 31
0.0
  0
LINE
  8
0
  6
CONTINUOUS
 62
    54
 10
606.21932
 20
-11.040223
 30
0.0
 11
606.219139
 21
-11.040251
 31
0.0
  0
LINE
  8
0
  6
CONTINUOUS
 62
    54
 10
605.419359
 20
-11.840022
 30
0.0
 11
605.419327
 21
-11.840215
 31
0.0
  0
LINE
  8
0
  6
CONTINUOUS
 62
    54
 10
605.419328
 20
-11.840215
 30
0.0
 11
605.419354
 21
-11.840387
 31
0.0
  0
LINE
  8
0
  6
CONTINUOUS
 62
    54
 10
606.219146
 20
-12.640181
 30
0.0
 11
606.219319
 21
-12.640208
 31
0.0
  0
LINE
  8
0
  6
CONTINUOUS
 62
    54
 10
606.219492
 20
-12.640182
 30
0.0
 11
606.219321
 21
-12.640208
 31
0.0
  0
LINE
  8
0
  6
CONTINUOUS
 62
    54
 10
607.019313
 20
-11.840215
 30
0.0
 11
607.019288
 21
-11.840374
 31
0.0
  0
LINE
  8
0
  6
CONTINUOUS
 62
    54
 10
607.019282
 20
-11.840022
 30
0.0
 11
607.019314
 21
-11.840216
 31
0.0
  0
LINE
  8
0
  6
CONTINUOUS
 62
    54
 10
606.219322
 20
-11.040223
 30
0.0
 11
606.219507
 21
-11.040253
 31
0.0
  0
LINE
  8
0
  6
CONTINUOUS
 62
     2
 10
563.662454
 20
-26.799999
 30
0.0
 11
609.262453
 21
-26.799999
 31
0.0
  0
LINE
  8
0
  6
CONTINUOUS
 62
     2
 10
563.182454
 20
-26.671383
 30
0.0
 11
563.662454
 21
-26.799999
 31
0.0
  0
LINE
  8
0
  6
CONTINUOUS
 62
     2
 10
563.151071
 20
-26.64
 30
0.0
 11
563.182454
 21
-26.671384
 31
0.0
  0
LINE
  8
0
  6
CONTINUOUS
 62
     2
 10
563.662454
 20
-26.639999
 30
0.0
 11
563.662454
 21
-26.799999
 31
0.0
  0
LINE
  8
0
  6
CONTINUOUS
 62
     2
 10
609.262453
 20
-26.639999
 30
0.0
 11
609.262453
 21
-26.799999
 31
0.0
  0
LINE
  8
0
  6
CONTINUOUS
 62
   253
 10
612.782448
 20
14.639984
 30
0.0
 11
612.782448
 21
14.479984
 31
0.0
  0
LINE
  8
0
  6
CONTINUOUS
 62
   253
 10
612.782448
 20
14.319984
 30
0.0
 11
612.782448
 21
14.199984
 31
0.0
  0
LINE
  8
0
  6
CONTINUOUS
 62
   253
 10
612.782448
 20
-21.199997
 30
0.0
 11
612.782448
 21
-21.359997
 31
0.0
  0
LINE
  8
0
  6
CONTINUOUS
 62
   253
 10
612.782448
 20
10.039985
 30
0.0
 11
612.782448
 21
-21.039997
 31
0.0
  0
LINE
  8
0
  6
CONTINUOUS
 62
   253
 10
610.542452
 20
33.789388
 30
0.0
 11
611.982447
 21
33.760001
 31
0.0
  0
LINE
  8
0
  6
CONTINUOUS
 62
   253
 10
611.982448
 20
33.760002
 30
0.0
 11
611.982448
 21
16.879984
 31
0.0
  0
LINE
  8
0
  6
CONTINUOUS
 62
   253
 10
611.982448
 20
16.879984
 30
0.0
 11
612.209147
 21
16.879984
 31
0.0
  0
LINE
  8
0
  6
CONTINUOUS
 62
   253
 10
612.209146
 20
16.879984
 30
0.0
 11
612.326524
 21
16.784934
 31
0.0
  0
LINE
  8
0
  6
CONTINUOUS
 62
   253
 10
612.326527
 20
16.784935
 30
0.0
 11
612.78245
 21
14.639985
 31
0.0
  0
LINE
  8
0
  6
CONTINUOUS
 62
   253
 10
612.782448
 20
-21.359997
 30
0.0
 11
612.367268
 21
-23.313264
 31
0.0
  0
LINE
  8
0
  6
CONTINUOUS
 62
   253
 10
611.982448
 20
-23.439997
 30
0.0
 11
612.210766
 21
-23.439997
 31
0.0
  0
LINE
  8
0
  6
CONTINUOUS
 62
   253
 10
611.982448
 20
-23.439997
 30
0.0
 11
611.982448
 21
-23.599997
 31
0.0
  0
LINE
  8
0
  6
CONTINUOUS
 62
   253
 10
611.982443
 20
-23.599995
 30
0.0
 11
610.542448
 21
-23.61469
 31
0.0
  0
LINE
  8
0
  6
CONTINUOUS
 62
   253
 10
611.982448
 20
14.479984
 30
0.0
 11
612.782448
 21
14.479984
 31
0.0
  0
LINE
  8
0
  6
CONTINUOUS
 62
   253
 10
611.982448
 20
9.759985
 30
0.0
 11
612.782448
 21
9.759985
 31
0.0
  0
LINE
  8
0
  6
CONTINUOUS
 62
   253
 10
611.982448
 20
-14.959997
 30
0.0
 11
612.782448
 21
-14.959997
 31
0.0
  0
LINE
  8
0
  6
CONTINUOUS
 62
   253
 10
611.982448
 20
-15.119997
 30
0.0
 11
612.782448
 21
-15.119997
 31
0.0
  0
LINE
  8
0
  6
CONTINUOUS
 62
   253
 10
611.982448
 20
-21.039997
 30
0.0
 11
612.782448
 21
-21.039997
 31
0.0
  0
LINE
  8
0
  6
CONTINUOUS
 62
   253
 10
611.982448
 20
-21.199997
 30
0.0
 11
612.782448
 21
-21.199997
 31
0.0
  0
LINE
  8
0
  6
CONTINUOUS
 62
   253
 10
611.982448
 20
16.879984
 30
0.0
 11
611.982448
 21
-23.439996
 31
0.0
  0
LINE
  8
0
  6
CONTINUOUS
 62
   253
 10
612.662448
 20
14.319984
 30
0.0
 11
612.782448
 21
14.319984
 31
0.0
  0
LINE
  8
0
  6
CONTINUOUS
 62
   253
 10
612.622448
 20
-14.959996
 30
0.0
 11
612.622448
 21
-15.119996
 31
0.0
  0
LINE
  8
0
  6
CONTINUOUS
 62
   253
 10
612.622448
 20
-21.039997
 30
0.0
 11
612.622448
 21
-21.199997
 31
0.0
  0
LINE
  8
0
  6
CONTINUOUS
 62
   253
 10
549.342449
 20
4.719751
 30
0.0
 11
550.942449
 21
4.719751
 31
0.0
  0
LINE
  8
0
  6
CONTINUOUS
 62
   253
 10
549.342449
 20
3.919751
 30
0.0
 11
550.942449
 21
3.919751
 31
0.0
  0
LINE
  8
0
  6
CONTINUOUS
 62
   253
 10
550.942449
 20
-9.440249
 30
0.0
 11
551.422454
 21
-9.440249
 31
0.0
  0
LINE
  8
0
  6
CONTINUOUS
 62
   253
 10
550.942449
 20
-9.440249
 30
0.0
 11
550.942449
 21
-14.240249
 31
0.0
  0
LINE
  8
0
  6
CONTINUOUS
 62
   253
 10
550.942449
 20
18.079751
 30
0.0
 11
551.422454
 21
18.079751
 31
0.0
  0
LINE
  8
0
  6
CONTINUOUS
 62
   253
 10
550.942449
 20
22.87975
 30
0.0
 11
550.942449
 21
-14.240249
 31
0.0
  0
LINE
  8
0
  6
CONTINUOUS
 62
     2
 10
612.622448
 20
14.319984
 30
0.0
 11
612.662448
 21
14.319984
 31
0.0
  0
LINE
  8
0
  6
CONTINUOUS
 62
     2
 10
612.622448
 20
9.919985
 30
0.0
 11
612.662448
 21
9.919985
 31
0.0
  0
LINE
  8
0
  6
CONTINUOUS
 62
     2
 10
612.782448
 20
14.199984
 30
0.0
 11
612.782448
 21
10.039985
 31
0.0
  0
LINE
  8
0
  6
CONTINUOUS
 62
     2
 10
612.782448
 20
10.039985
 30
0.0
 11
612.747302
 21
9.955134
 31
0.0
  0
LINE
  8
0
  6
CONTINUOUS
 62
     2
 10
612.747304
 20
9.955133
 30
0.0
 11
612.662451
 21
9.919986
 31
0.0
  0
LINE
  8
0
  6
CONTINUOUS
 62
     2
 10
612.7473
 20
14.284837
 30
0.0
 11
612.782447
 21
14.199983
 31
0.0
  0
LINE
  8
0
  6
CONTINUOUS
 62
     2
 10
612.662446
 20
14.319984
 30
0.0
 11
612.747299
 21
14.284837
 31
0.0
  0
LINE
  8
0
  6
CONTINUOUS
 62
     2
 10
612.462448
 20
9.919985
 30
0.0
 11
612.622448
 21
9.919985
 31
0.0
  0
LINE
  8
0
  6
CONTINUOUS
 62
     2
 10
612.462448
 20
14.319984
 30
0.0
 11
612.622448
 21
14.319984
 31
0.0
  0
LINE
  8
0
  6
CONTINUOUS
 62
     2
 10
612.622448
 20
14.479984
 30
0.0
 11
612.622448
 21
14.319984
 31
0.0
  0
LINE
  8
0
  6
CONTINUOUS
 62
     2
 10
612.622448
 20
9.919985
 30
0.0
 11
612.622448
 21
9.759985
 31
0.0
  0
LINE
  8
0
  6
CONTINUOUS
 62
     2
 10
611.982448
 20
14.319984
 30
0.0
 11
612.462448
 21
14.319984
 31
0.0
  0
LINE
  8
0
  6
CONTINUOUS
 62
     2
 10
611.982448
 20
9.919985
 30
0.0
 11
612.462448
 21
9.919985
 31
0.0
  0
LINE
  8
0
  6
CONTINUOUS
 62
     2
 10
611.982448
 20
33.600002
 30
0.0
 11
612.243156
 21
33.600002
 31
0.0
  0
LINE
  8
0
  6
CONTINUOUS
 62
     2
 10
612.243157
 20
33.600003
 30
0.0
 11
612.360535
 21
33.504952
 31
0.0
  0
LINE
  8
0
  6
CONTINUOUS
 62
     2
 10
612.360535
 20
33.504953
 30
0.0
 11
612.782449
 21
31.520004
 31
0.0
  0
LINE
  8
0
  6
CONTINUOUS
 62
     2
 10
612.782448
 20
31.520002
 30
0.0
 11
612.782448
 21
22.000002
 31
0.0
  0
LINE
  8
0
  6
CONTINUOUS
 62
     2
 10
612.782447
 20
22.000001
 30
0.0
 11
612.367267
 21
20.046736
 31
0.0
  0
LINE
  8
0
  6
CONTINUOUS
 62
     2
 10
612.367265
 20
20.046734
 30
0.0
 11
612.31593
 21
19.959417
 31
0.0
  0
LINE
  8
0
  6
CONTINUOUS
 62
     2
 10
612.315929
 20
19.959418
 30
0.0
 11
612.222445
 21
19.920427
 31
0.0
  0
LINE
  8
0
  6
CONTINUOUS
 62
     2
 10
612.222448
 20
19.920429
 30
0.0
 11
612.222448
 21
16.880002
 31
0.0
  0
LINE
  8
0
  6
CONTINUOUS
 62
     2
 10
611.982448
 20
16.880002
 30
0.0
 11
612.222448
 21
16.880002
 31
0.0
  0
LINE
  8
0
  6
CONTINUOUS
 62
   132
 10
544.06245
 20
15.519752
 30
0.0
 11
544.06245
 21
14.239752
 31
0.0
  0
LINE
  8
0
  6
CONTINUOUS
 62
   132
 10
544.06245
 20
15.519752
 30
0.0
 11
549.342449
 21
15.519752
 31
0.0
  0
LINE
  8
0
  6
CONTINUOUS
 62
   132
 10
544.06245
 20
11.359752
 30
0.0
 11
549.342449
 21
11.359752
 31
0.0
  0
LINE
  8
0
  6
CONTINUOUS
 62
   132
 10
544.06245
 20
-5.60025
 30
0.0
 11
544.06245
 21
-6.880249
 31
0.0
  0
LINE
  8
0
  6
CONTINUOUS
 62
   132
 10
544.06245
 20
-6.880249
 30
0.0
 11
549.342449
 21
-6.880249
 31
0.0
  0
LINE
  8
0
  6
CONTINUOUS
 62
   132
 10
544.06245
 20
-2.72025
 30
0.0
 11
549.342449
 21
-2.72025
 31
0.0
  0
LINE
  8
0
  6
CONTINUOUS
 62
    98
 10
612.782475
 20
-10.71981
 30
0.0
 11
612.782449
 21
-10.720016
 31
0.0
  0
LINE
  8
0
  6
CONTINUOUS
 62
   253
 10
549.342449
 20
3.919751
 30
0.0
 11
549.342449
 21
-14.240249
 31
0.0
  0
LINE
  8
0
  6
CONTINUOUS
 62
   253
 10
549.342449
 20
22.87975
 30
0.0
 11
549.342449
 21
4.719751
 31
0.0
  0
LINE
  8
0
  6
CONTINUOUS
 62
   253
 10
549.342449
 20
3.919751
 30
0.0
 11
550.942449
 21
3.919751
 31
0.0
  0
LINE
  8
0
  6
CONTINUOUS
 62
     2
 10
612.782448
 20
10.282397
 30
0.0
 11
612.787458
 21
10.227866
 31
0.0
  0
LINE
  8
0
  6
CONTINUOUS
 62
     2
 10
612.78746
 20
10.227867
 30
0.0
 11
612.78245
 21
10.222019
 31
0.0
  0
LINE
  8
0
  6
CONTINUOUS
 62
     5
 10
613.422453
 20
-16.0
 30
0.0
 11
613.422453
 21
-16.48
 31
0.0
  0
LINE
  8
0
  6
CONTINUOUS
 62
     5
 10
612.782448
 20
-16.0
 30
0.0
 11
613.422453
 21
-16.0
 31
0.0
  0
LINE
  8
0
  6
CONTINUOUS
 62
     5
 10
612.782448
 20
-16.48
 30
0.0
 11
613.422453
 21
-16.48
 31
0.0
  0
LINE
  8
0
  6
CONTINUOUS
 62
   253
 10
549.342449
 20
3.919751
 30
0.0
 11
550.942449
 21
3.919751
 31
0.0
  0
LINE
  8
0
  6
CONTINUOUS
 62
   212
 10
552.222454
 20
-26.639999
 30
0.0
 11
563.15107
 21
-26.639999
 31
0.0
  0
LINE
  8
0
  6
CONTINUOUS
 62
   212
 10
609.262451
 20
-26.639999
 30
0.0
 11
609.742453
 21
-26.639999
 31
0.0
  0
LINE
  8
0
  6
CONTINUOUS
 62
   212
 10
551.916306
 20
-26.579104
 30
0.0
 11
552.222454
 21
-26.64
 31
0.0
  0
LINE
  8
0
  6
CONTINUOUS
 62
   212
 10
551.656769
 20
-26.405685
 30
0.0
 11
551.916307
 21
-26.579103
 31
0.0
  0
LINE
  8
0
  6
CONTINUOUS
 62
   212
 10
551.48335
 20
-26.146147
 30
0.0
 11
551.656768
 21
-26.405685
 31
0.0
  0
LINE
  8
0
  6
CONTINUOUS
 62
   212
 10
551.422454
 20
-14.88
 30
0.0
 11
551.422454
 21
-25.839999
 31
0.0
  0
LINE
  8
0
  6
CONTINUOUS
 62
   212
 10
551.422454
 20
23.679999
 30
0.0
 11
551.566107
 21
23.679999
 31
0.0
  0
LINE
  8
0
  6
CONTINUOUS
 62
   212
 10
552.126761
 20
23.679999
 30
0.0
 11
552.382454
 21
23.679999
 31
0.0
  0
LINE
  8
0
  6
CONTINUOUS
 62
     2
 10
612.747301
 20
14.284837
 30
0.0
 11
612.662447
 21
14.199983
 31
0.0
  0
LINE
  8
0
  6
CONTINUOUS
 62
     2
 10
612.662448
 20
14.199984
 30
0.0
 11
612.662448
 21
10.039985
 31
0.0
  0
LINE
  8
0
  6
CONTINUOUS
 62
     2
 10
612.662447
 20
10.039985
 30
0.0
 11
612.747301
 21
9.955132
 31
0.0
  0
LINE
  8
0
  6
CONTINUOUS
 62
     2
 10
611.982448
 20
17.000002
 30
0.0
 11
612.222448
 21
17.000002
 31
0.0
  0
LINE
  8
0
  6
CONTINUOUS
 62
     7
 10
605.102453
 20
-28.495999
 30
0.0
 11
605.102453
 21
-28.719999
 31
0.0
  0
LINE
  8
0
  6
CONTINUOUS
 62
     7
 10
603.822453
 20
-28.495999
 30
0.0
 11
603.822453
 21
-28.719999
 31
0.0
  0
ARC
  8
0
  6
CONTINUOUS
 62
   212
 10
552.222462
 20
46.239985
 30
0.0
 40
0.800014
 50
90.00057
 51
179.998898
  0
CIRCLE
  8
0
  6
CONTINUOUS
 62
     1
 10
553.822432
 20
45.52003
 30
0.0
 40
0.67996
  0
CIRCLE
  8
0
  6
CONTINUOUS
 62
     1
 10
589.022458
 20
45.519999
 30
0.0
 40
0.680001
  0
CIRCLE
  8
0
  6
CONTINUOUS
 62
     1
 10
592.862456
 20
44.560018
 30
0.0
 40
0.879983
  0
CIRCLE
  8
0
  6
CONTINUOUS
 62
     7
 10
592.862455
 20
44.559976
 30
0.0
 40
0.464778
  0
ARC
  8
0
  6
CONTINUOUS
 62
   212
 10
609.742464
 20
46.240004
 30
0.0
 40
0.79999
 50
359.999735
 51
450.000714
  0
CIRCLE
  8
0
  6
CONTINUOUS
 62
   212
 10
606.942453
 20
37.439987
 30
0.0
 40
2.400012
  0
CIRCLE
  8
0
  6
CONTINUOUS
 62
   212
 10
556.62245
 20
37.43999
 30
0.0
 40
2.400009
  0
ARC
  8
0
  6
CONTINUOUS
 62
   212
 10
562.862467
 20
42.559982
 30
0.0
 40
0.480018
 50
90.001735
 51
179.998446
  0
ARC
  8
0
  6
CONTINUOUS
 62
   212
 10
589.102439
 20
42.55999
 30
0.0
 40
0.480014
 50
0.000598
 51
89.998226
  0
ARC
  8
0
  6
CONTINUOUS
 62
   212
 10
589.102459
 20
35.519995
 30
0.0
 40
0.479994
 50
269.999548
 51
360.000888
  0
ARC
  8
0
  6
CONTINUOUS
 62
   212
 10
562.862447
 20
35.519998
 30
0.0
 40
0.479995
 50
179.999395
 51
270.000503
  0
CIRCLE
  8
0
  6
CONTINUOUS
 62
     1
 10
554.142457
 20
25.280009
 30
0.0
 40
0.88001
  0
CIRCLE
  8
0
  6
CONTINUOUS
 62
     7
 10
554.14245
 20
25.280005
 30
0.0
 40
0.464764
  0
CIRCLE
  8
0
  6
CONTINUOUS
 62
     7
 10
560.542458
 20
25.280005
 30
0.0
 40
0.464751
  0
CIRCLE
  8
0
  6
CONTINUOUS
 62
     1
 10
560.542452
 20
25.279995
 30
0.0
 40
0.880003
  0
CIRCLE
  8
0
  6
CONTINUOUS
 62
   212
 10
578.782453
 20
19.36
 30
0.0
 40
0.48
  0
CIRCLE
  8
0
  6
CONTINUOUS
 62
   212
 10
596.702448
 20
16.319997
 30
0.0
 40
0.432003
  0
CIRCLE
  8
0
  6
CONTINUOUS
 62
   212
 10
601.182454
 20
5.680001
 30
0.0
 40
0.432
  0
ARC
  8
0
  6
CONTINUOUS
 62
   212
 10
609.742454
 20
5.279999
 30
0.0
 40
0.799998
 50
269.999986
 51
360.000055
  0
ARC
  8
0
  6
CONTINUOUS
 62
   212
 10
608.142446
 20
3.680002
 30
0.0
 40
0.799994
 50
89.999438
 51
180.000155
  0
ARC
  8
0
  6
CONTINUOUS
 62
   212
 10
608.14245
 20
-7.520002
 30
0.0
 40
0.799997
 50
179.999813
 51
270.000312
  0
ARC
  8
0
  6
CONTINUOUS
 62
   212
 10
609.742455
 20
-9.119997
 30
0.0
 40
0.799997
 50
359.999889
 51
450.0
  0
CIRCLE
  8
0
  6
CONTINUOUS
 62
   212
 10
590.942524
 20
2.799997
 30
0.0
 40
0.335997
  0
CIRCLE
  8
0
  6
CONTINUOUS
 62
   212
 10
590.942522
 20
1.2
 30
0.0
 40
0.336
  0
CIRCLE
  8
0
  6
CONTINUOUS
 62
   212
 10
590.942521
 20
-0.4
 30
0.0
 40
0.336
  0
CIRCLE
  8
0
  6
CONTINUOUS
 62
   212
 10
590.942522
 20
-2.0
 30
0.0
 40
0.336
  0
CIRCLE
  8
0
  6
CONTINUOUS
 62
   212
 10
590.942522
 20
-3.6
 30
0.0
 40
0.336
  0
CIRCLE
  8
0
  6
CONTINUOUS
 62
   212
 10
591.97932
 20
-10.080227
 30
0.0
 40
0.639996
  0
CIRCLE
  8
0
  6
CONTINUOUS
 62
     7
 10
602.382441
 20
-11.840003
 30
0.0
 40
0.960004
  0
CIRCLE
  8
0
  6
CONTINUOUS
 62
   212
 10
606.219322
 20
-11.840219
 30
0.0
 40
0.800003
  0
ARC
  8
0
  6
CONTINUOUS
 62
   253
 10
612.210765
 20
-23.279998
 30
0.0
 40
0.159999
 50
270.0
 51
347.999972
  0
ARC
  8
0
  6
CONTINUOUS
 62
   212
 10
609.742455
 20
-25.840001
 30
0.0
 40
0.799998
 50
269.99992
 51
360.000089
  0
CIRCLE
  8
0
  6
CONTINUOUS
 62
     7
 10
606.862449
 20
-24.400006
 30
0.0
 40
0.464765
  0
CIRCLE
  8
0
  6
CONTINUOUS
 62
     1
 10
606.86246
 20
-24.400002
 30
0.0
 40
0.880003
  0
CIRCLE
  8
0
  6
CONTINUOUS
 62
   212
 10
591.982454
 20
-16.639997
 30
0.0
 40
0.480001
  0
CIRCLE
  8
0
  6
CONTINUOUS
 62
     7
 10
589.34246
 20
-21.359985
 30
0.0
 40
0.464744
  0
CIRCLE
  8
0
  6
CONTINUOUS
 62
     1
 10
589.342455
 20
-21.359996
 30
0.0
 40
0.879998
  0
CIRCLE
  8
0
  6
CONTINUOUS
 62
     7
 10
581.902447
 20
-24.800008
 30
0.0
 40
0.464769
  0
CIRCLE
  8
0
  6
CONTINUOUS
 62
     1
 10
581.90247
 20
-24.799989
 30
0.0
 40
0.879983
  0
CIRCLE
  8
0
  6
CONTINUOUS
 62
     7
 10
566.062449
 20
-24.400008
 30
0.0
 40
0.464767
  0
CIRCLE
  8
0
  6
CONTINUOUS
 62
     1
 10
566.062453
 20
-24.4
 30
0.0
 40
0.880002
  0
CIRCLE
  8
0
  6
CONTINUOUS
 62
   130
 10
563.022453
 20
4.957344
 30
0.0
 40
0.799999
  0
CIRCLE
  8
0
  6
CONTINUOUS
 62
   212
 10
563.886452
 20
7.357346
 30
0.0
 40
0.16
  0
CIRCLE
  8
0
  6
CONTINUOUS
 62
     1
 10
554.142454
 20
-16.640001
 30
0.0
 40
0.880002
  0
CIRCLE
  8
0
  6
CONTINUOUS
 62
     7
 10
554.142459
 20
-16.639996
 30
0.0
 40
0.464752
  0
CIRCLE
  8
0
  6
CONTINUOUS
 62
     1
 10
560.542435
 20
-16.639992
 30
0.0
 40
0.879981
  0
CIRCLE
  8
0
  6
CONTINUOUS
 62
     7
 10
560.542449
 20
-16.639996
 30
0.0
 40
0.464752
  0
LINE
  8
0
  6
CONTINUOUS
 62
     5
 10
612.302448
 20
-24.799997
 30
0.0
 11
612.302448
 21
-27.759997
 31
0.0
  0
LINE
  8
0
  6
CONTINUOUS
 62
     5
 10
612.782448
 20
-24.799997
 30
0.0
 11
614.222448
 21
-24.799997
 31
0.0
  0
LINE
  8
0
  6
CONTINUOUS
 62
     5
 10
612.462448
 20
-24.799997
 30
0.0
 11
612.462448
 21
-27.759997
 31
0.0
  0
LINE
  8
0
  6
CONTINUOUS
 62
     5
 10
612.462448
 20
-27.759997
 30
0.0
 11
613.422448
 21
-27.759997
 31
0.0
  0
LINE
  8
0
  6
CONTINUOUS
 62
     5
 10
613.582448
 20
-26.559997
 30
0.0
 11
613.582448
 21
-27.599997
 31
0.0
  0
LINE
  8
0
  6
CONTINUOUS
 62
     5
 10
613.742448
 20
-26.399997
 30
0.0
 11
614.222448
 21
-26.399997
 31
0.0
  0
LINE
  8
0
  6
CONTINUOUS
 62
     5
 10
612.462448
 20
-25.999997
 30
0.0
 11
613.822448
 21
-25.999997
 31
0.0
  0
LINE
  8
0
  6
CONTINUOUS
 62
     5
 10
613.982448
 20
-25.359997
 30
0.0
 11
613.982448
 21
-25.839997
 31
0.0
  0
LINE
  8
0
  6
CONTINUOUS
 62
     5
 10
612.462448
 20
-25.199997
 30
0.0
 11
613.822448
 21
-25.199997
 31
0.0
  0
LINE
  8
0
  6
CONTINUOUS
 62
     5
 10
612.462448
 20
-27.359997
 30
0.0
 11
613.022448
 21
-27.359997
 31
0.0
  0
LINE
  8
0
  6
CONTINUOUS
 62
     5
 10
612.302448
 20
52.640001
 30
0.0
 11
612.302448
 21
35.040002
 31
0.0
  0
LINE
  8
0
  6
CONTINUOUS
 62
     5
 10
612.462448
 20
52.640001
 30
0.0
 11
612.462448
 21
35.040002
 31
0.0
  0
LINE
  8
0
  6
CONTINUOUS
 62
     5
 10
612.302448
 20
-24.799997
 30
0.0
 11
612.462448
 21
-24.799997
 31
0.0
  0
LINE
  8
0
  6
CONTINUOUS
 62
     5
 10
612.302448
 20
35.040002
 30
0.0
 11
612.462448
 21
35.040002
 31
0.0
  0
ARC
  8
0
  6
CONTINUOUS
 62
     5
 10
613.822448
 20
-25.359997
 30
0.0
 40
0.16
 50
0.0
 51
90.0
  0
ARC
  8
0
  6
CONTINUOUS
 62
     5
 10
614.222448
 20
-24.959997
 30
0.0
 40
0.16
 50
0.0
 51
90.0
  0
ARC
  8
0
  6
CONTINUOUS
 62
     5
 10
614.222448
 20
-26.239997
 30
0.0
 40
0.16
 50
270.0
 51
360.0
  0
ARC
  8
0
  6
CONTINUOUS
 62
     5
 10
613.742448
 20
-26.559997
 30
0.0
 40
0.16
 50
90.0
 51
180.0
  0
ARC
  8
0
  6
CONTINUOUS
 62
     5
 10
613.422448
 20
-27.599997
 30
0.0
 40
0.16
 50
270.0
 51
360.0
  0
ARC
  8
0
  6
CONTINUOUS
 62
     5
 10
613.022448
 20
-27.199997
 30
0.0
 40
0.16
 50
270.0
 51
360.0
  0
ARC
  8
0
  6
CONTINUOUS
 62
     5
 10
613.822448
 20
-25.839997
 30
0.0
 40
0.16
 50
270.0
 51
360.0
  0
LINE
  8
0
  6
CONTINUOUS
 62
     5
 10
613.182448
 20
-26.559997
 30
0.0
 11
613.182448
 21
-27.199997
 31
0.0
  0
LINE
  8
0
  6
CONTINUOUS
 62
     5
 10
612.782448
 20
35.040002
 30
0.0
 11
614.222448
 21
35.040002
 31
0.0
  0
LINE
  8
0
  6
CONTINUOUS
 62
     5
 10
612.462448
 20
38.000002
 30
0.0
 11
613.422448
 21
38.000002
 31
0.0
  0
LINE
  8
0
  6
CONTINUOUS
 62
     5
 10
613.582448
 20
37.840002
 30
0.0
 11
613.582448
 21
36.800002
 31
0.0
  0
LINE
  8
0
  6
CONTINUOUS
 62
     5
 10
614.382448
 20
36.480002
 30
0.0
 11
614.382448
 21
-26.239997
 31
0.0
  0
LINE
  8
0
  6
CONTINUOUS
 62
     5
 10
613.742448
 20
36.640002
 30
0.0
 11
614.222448
 21
36.640002
 31
0.0
  0
LINE
  8
0
  6
CONTINUOUS
 62
     5
 10
612.462448
 20
36.240002
 30
0.0
 11
613.822448
 21
36.240002
 31
0.0
  0
LINE
  8
0
  6
CONTINUOUS
 62
     5
 10
613.982448
 20
36.080002
 30
0.0
 11
613.982448
 21
35.600002
 31
0.0
  0
LINE
  8
0
  6
CONTINUOUS
 62
     5
 10
612.462448
 20
35.440002
 30
0.0
 11
613.822448
 21
35.440002
 31
0.0
  0
LINE
  8
0
  6
CONTINUOUS
 62
     5
 10
612.462448
 20
37.600002
 30
0.0
 11
613.022448
 21
37.600002
 31
0.0
  0
ARC
  8
0
  6
CONTINUOUS
 62
     5
 10
613.822448
 20
35.600002
 30
0.0
 40
0.16
 50
270.0
 51
360.0
  0
ARC
  8
0
  6
CONTINUOUS
 62
     5
 10
614.222448
 20
35.200002
 30
0.0
 40
0.16
 50
270.0
 51
360.0
  0
ARC
  8
0
  6
CONTINUOUS
 62
     5
 10
614.222448
 20
36.480002
 30
0.0
 40
0.16
 50
0.0
 51
90.0
  0
ARC
  8
0
  6
CONTINUOUS
 62
     5
 10
613.742448
 20
36.800002
 30
0.0
 40
0.16
 50
180.0
 51
270.0
  0
ARC
  8
0
  6
CONTINUOUS
 62
     5
 10
613.422448
 20
37.840002
 30
0.0
 40
0.16
 50
0.0
 51
90.0
  0
ARC
  8
0
  6
CONTINUOUS
 62
     5
 10
613.022448
 20
37.440002
 30
0.0
 40
0.16
 50
0.0
 51
90.0
  0
ARC
  8
0
  6
CONTINUOUS
 62
     5
 10
613.822448
 20
36.080002
 30
0.0
 40
0.16
 50
0.0
 51
90.0
  0
LINE
  8
0
  6
CONTINUOUS
 62
     5
 10
613.182448
 20
37.440002
 30
0.0
 11
613.182448
 21
36.800002
 31
0.0
  0
LINE
  8
0
  6
CONTINUOUS
 62
     5
 10
612.782448
 20
-24.799997
 30
0.0
 11
612.782448
 21
-25.199997
 31
0.0
  0
LINE
  8
0
  6
CONTINUOUS
 62
     5
 10
612.462448
 20
-26.399997
 30
0.0
 11
613.022448
 21
-26.399997
 31
0.0
  0
ARC
  8
0
  6
CONTINUOUS
 62
     5
 10
613.022448
 20
-26.559997
 30
0.0
 40
0.16
 50
0.0
 51
90.0
  0
LINE
  8
0
  6
CONTINUOUS
 62
     5
 10
611.883206
 20
-23.601008
 30
0.0
 11
612.782448
 21
-24.799997
 31
0.0
  0
LINE
  8
0
  6
CONTINUOUS
 62
     5
 10
611.565637
 20
-23.604248
 30
0.0
 11
612.462448
 21
-24.799997
 31
0.0
  0
LINE
  8
0
  6
CONTINUOUS
 62
     5
 10
612.782448
 20
35.040002
 30
0.0
 11
611.824859
 21
33.763217
 31
0.0
  0
LINE
  8
0
  6
CONTINUOUS
 62
     5
 10
612.462448
 20
35.040002
 30
0.0
 11
611.509684
 21
33.769649
 31
0.0
  0
LINE
  8
0
  6
CONTINUOUS
 62
     5
 10
612.782448
 20
35.440002
 30
0.0
 11
612.782448
 21
35.040002
 31
0.0
  0
LINE
  8
0
  6
CONTINUOUS
 62
     5
 10
612.462448
 20
36.640002
 30
0.0
 11
613.022448
 21
36.640002
 31
0.0
  0
ARC
  8
0
  6
CONTINUOUS
 62
     5
 10
613.022448
 20
36.800002
 30
0.0
 40
0.16
 50
270.0
 51
360.0
  0
LINE
  8
0
  6
CONTINUOUS
 62
     7
 10
609.262448
 20
-26.799999
 30
0.0
 11
609.262448
 21
-28.079997
 31
0.0
  0
LINE
  8
0
  6
CONTINUOUS
 62
     7
 10
609.262448
 20
-28.079997
 30
0.0
 11
612.142448
 21
-28.079997
 31
0.0
  0
LINE
  8
0
  6
CONTINUOUS
 62
     7
 10
609.262448
 20
-27.919997
 30
0.0
 11
612.142448
 21
-27.919997
 31
0.0
  0
ARC
  8
0
  6
CONTINUOUS
 62
     7
 10
612.142448
 20
-27.759997
 30
0.0
 40
0.16
 50
270.0
 51
360.0
  0
ARC
  8
0
  6
CONTINUOUS
 62
     7
 10
612.142448
 20
-27.759997
 30
0.0
 40
0.32
 50
270.0
 51
360.0
  0
LINE
  8
0
  6
DASHDOT
 62
     7
 10
603.004489
 20
5.120002
 30
0.0
 11
621.600826
 21
5.120002
 31
0.0
  0
LINE
  8
0
  6
CONTINUOUS
 62
     7
 10
609.262448
 20
52.960001
 30
0.0
 11
609.262448
 21
47.039999
 31
0.0
  0
LINE
  8
0
  6
CONTINUOUS
 62
     7
 10
609.262448
 20
52.960001
 30
0.0
 11
612.142448
 21
52.960001
 31
0.0
  0
LINE
  8
0
  6
CONTINUOUS
 62
     7
 10
609.262448
 20
52.800001
 30
0.0
 11
612.142448
 21
52.800001
 31
0.0
  0
ARC
  8
0
  6
CONTINUOUS
 62
     7
 10
612.142448
 20
52.640001
 30
0.0
 40
0.16
 50
0.0
 51
90.0
  0
ARC
  8
0
  6
CONTINUOUS
 62
     7
 10
612.142448
 20
52.640001
 30
0.0
 40
0.32
 50
0.0
 51
90.0
  0
LINE
  8
0
  6
CONTINUOUS
 62
     7
 10
608.462453
 20
-26.799999
 30
0.0
 11
608.462453
 21
-29.999999
 31
0.0
  0
LINE
  8
0
  6
CONTINUOUS
 62
     7
 10
608.062453
 20
-27.599999
 30
0.0
 11
608.062453
 21
-29.999999
 31
0.0
  0
LINE
  8
0
  6
CONTINUOUS
 62
     7
 10
601.262453
 20
-27.199999
 30
0.0
 11
607.662453
 21
-27.199999
 31
0.0
  0
ARC
  8
0
  6
CONTINUOUS
 62
     7
 10
607.662453
 20
-27.599999
 30
0.0
 40
0.4
 50
0.0
 51
90.0
  0
LINE
  8
0
  6
CONTINUOUS
 62
     7
 10
608.542448
 20
47.599999
 30
0.0
 11
608.942448
 21
47.599999
 31
0.0
  0
LINE
  8
0
  6
CONTINUOUS
 62
     7
 10
608.942448
 20
54.799999
 30
0.0
 11
608.942448
 21
47.599999
 31
0.0
  0
LINE
  8
0
  6
CONTINUOUS
 62
     7
 10
604.942448
 20
55.599999
 30
0.0
 11
608.142448
 21
55.599999
 31
0.0
  0
LINE
  8
0
  6
CONTINUOUS
 62
     7
 10
604.942448
 20
55.599999
 30
0.0
 11
604.942448
 21
55.199999
 31
0.0
  0
LINE
  8
0
  6
CONTINUOUS
 62
     7
 10
604.942448
 20
55.199999
 30
0.0
 11
608.142448
 21
55.199999
 31
0.0
  0
LINE
  8
0
  6
CONTINUOUS
 62
     7
 10
608.542448
 20
54.799999
 30
0.0
 11
608.542448
 21
47.599999
 31
0.0
  0
ARC
  8
0
  6
CONTINUOUS
 62
     7
 10
608.142448
 20
54.799999
 30
0.0
 40
0.8
 50
0.0
 51
90.0
  0
ARC
  8
0
  6
CONTINUOUS
 62
     7
 10
608.142448
 20
54.799999
 30
0.0
 40
0.4
 50
0.0
 51
90.0
  0
LINE
  8
0
  6
CONTINUOUS
 62
     7
 10
589.662453
 20
-21.175246
 30
0.0
 11
589.662453
 21
-21.54475
 31
0.0
  0
LINE
  8
0
  6
CONTINUOUS
 62
     7
 10
589.662453
 20
-21.54475
 30
0.0
 11
589.342453
 21
-21.729501
 31
0.0
  0
LINE
  8
0
  6
CONTINUOUS
 62
     7
 10
589.022453
 20
-21.54475
 30
0.0
 11
589.342453
 21
-21.729501
 31
0.0
  0
LINE
  8
0
  6
CONTINUOUS
 62
     7
 10
589.022453
 20
-21.175246
 30
0.0
 11
589.022453
 21
-21.54475
 31
0.0
  0
LINE
  8
0
  6
CONTINUOUS
 62
     7
 10
589.342453
 20
-20.990495
 30
0.0
 11
589.022453
 21
-21.175246
 31
0.0
  0
LINE
  8
0
  6
CONTINUOUS
 62
     7
 10
589.342453
 20
-20.990495
 30
0.0
 11
589.662453
 21
-21.175246
 31
0.0
  0
LINE
  8
0
  6
CONTINUOUS
 62
     1
 10
555.102454
 20
-24.797578
 30
0.0
 11
556.622454
 21
-25.675151
 31
0.0
  0
LINE
  8
0
  6
CONTINUOUS
 62
     1
 10
558.142453
 20
-24.797578
 30
0.0
 11
556.622454
 21
-25.675151
 31
0.0
  0
LINE
  8
0
  6
CONTINUOUS
 62
     1
 10
558.142453
 20
-23.042434
 30
0.0
 11
558.142453
 21
-24.797578
 31
0.0
  0
LINE
  8
0
  6
CONTINUOUS
 62
     1
 10
556.622455
 20
-22.16486
 30
0.0
 11
558.142453
 21
-23.042434
 31
0.0
  0
LINE
  8
0
  6
CONTINUOUS
 62
     1
 10
556.622454
 20
-22.164861
 30
0.0
 11
555.102454
 21
-23.042434
 31
0.0
  0
LINE
  8
0
  6
CONTINUOUS
 62
     1
 10
555.102455
 20
-23.042434
 30
0.0
 11
555.102455
 21
-24.797578
 31
0.0
  0
LINE
  8
0
  6
CONTINUOUS
 62
   218
 10
554.622455
 20
-21.920007
 30
0.0
 11
554.622455
 21
-25.920007
 31
0.0
  0
LINE
  8
0
  6
CONTINUOUS
 62
   218
 10
554.622455
 20
-21.920007
 30
0.0
 11
561.528097
 21
-21.920007
 31
0.0
  0
LINE
  8
0
  6
CONTINUOUS
 62
   218
 10
554.622455
 20
-25.920007
 30
0.0
 11
561.528097
 21
-25.920007
 31
0.0
  0
CIRCLE
  8
0
  6
CONTINUOUS
 62
   212
 10
556.622453
 20
-23.920044
 30
0.0
 40
1.920035
  0
CIRCLE
  8
0
  6
CONTINUOUS
 62
     1
 10
556.62245
 20
-23.919999
 30
0.0
 40
0.959994
  0
CIRCLE
  8
0
  6
CONTINUOUS
 62
     1
 10
556.622455
 20
-23.920005
 30
0.0
 40
1.735999
  0
ARC
  8
0
  6
CONTINUOUS
 62
     7
 10
556.62245
 20
-23.919999
 30
0.0
 40
0.799994
 50
170.0
 51
460.0
  0
LINE
  8
0
  6
DASHDOT
 62
     7
 10
556.622453
 20
-20.400009
 30
0.0
 11
556.622453
 21
-27.440079
 31
0.0
  0
LINE
  8
0
  6
DASHDOT
 62
     7
 10
553.582418
 20
-23.920044
 30
0.0
 11
560.622488
 21
-23.920044
 31
0.0
  0
LINE
  8
0
  6
CONTINUOUS
 62
     7
 10
553.471559
 20
-20.279275
 30
0.0
 11
553.471559
 21
-28.355151
 31
0.0
  0
LINE
  8
0
  6
CONTINUOUS
 62
     7
 10
553.471559
 20
-20.279275
 30
0.0
 11
561.528097
 21
-20.279275
 31
0.0
  0
LINE
  8
0
  6
CONTINUOUS
 62
     7
 10
561.528097
 20
-20.279275
 30
0.0
 11
561.528097
 21
-28.355151
 31
0.0
  0
ARC
  8
0
  6
CONTINUOUS
 62
     7
 10
601.262453
 20
-27.599999
 30
0.0
 40
0.4
 50
90.0
 51
180.0
  0
LINE
  8
0
  6
CONTINUOUS
 62
     7
 10
600.462453
 20
-26.799999
 30
0.0
 11
600.462453
 21
-29.999999
 31
0.0
  0
LINE
  8
0
  6
CONTINUOUS
 62
     7
 10
600.862453
 20
-27.599999
 30
0.0
 11
600.862453
 21
-29.999999
 31
0.0
  0
LINE
  8
0
  6
CONTINUOUS
 62
     7
 10
608.062453
 20
-29.999999
 30
0.0
 11
608.462453
 21
-29.999999
 31
0.0
  0
LINE
  8
0
  6
CONTINUOUS
 62
     7
 10
600.462453
 20
-29.999999
 30
0.0
 11
600.862453
 21
-29.999999
 31
0.0
  0
LINE
  8
0
  6
CONTINUOUS
 62
     7
 10
603.102453
 20
-27.455999
 30
0.0
 11
605.822453
 21
-27.455999
 31
0.0
  0
LINE
  8
0
  6
CONTINUOUS
 62
     7
 10
603.102453
 20
-27.199999
 30
0.0
 11
603.102453
 21
-27.455999
 31
0.0
  0
LINE
  8
0
  6
CONTINUOUS
 62
     7
 10
605.822453
 20
-27.199999
 30
0.0
 11
605.822453
 21
-27.455999
 31
0.0
  0
LINE
  8
0
  6
CONTINUOUS
 62
     7
 10
603.822453
 20
-28.719999
 30
0.0
 11
605.102453
 21
-28.719999
 31
0.0
  0
LINE
  8
0
  6
CONTINUOUS
 62
     7
 10
603.561787
 20
-28.495999
 30
0.0
 11
605.363119
 21
-28.495999
 31
0.0
  0
LINE
  8
0
  6
CONTINUOUS
 62
     7
 10
603.561787
 20
-27.455999
 30
0.0
 11
605.363119
 21
-27.455999
 31
0.0
  0
LINE
  8
0
  6
CONTINUOUS
 62
     7
 10
605.663342
 20
-27.548888
 30
0.0
 11
605.663342
 21
-28.40311
 31
0.0
  0
LINE
  8
0
  6
CONTINUOUS
 62
     7
 10
605.062897
 20
-27.548888
 30
0.0
 11
605.062897
 21
-28.40311
 31
0.0
  0
LINE
  8
0
  6
CONTINUOUS
 62
     7
 10
603.862009
 20
-27.548888
 30
0.0
 11
603.862009
 21
-28.40311
 31
0.0
  0
ARC
  8
0
  6
CONTINUOUS
 62
     7
 10
605.363119
 20
-27.987611
 30
0.0
 40
0.531611
 50
55.615753
 51
124.384247
  0
ARC
  8
0
  6
CONTINUOUS
 62
     7
 10
604.462453
 20
-29.44311
 30
0.0
 40
1.987111
 50
72.412046
 51
107.587954
  0
ARC
  8
0
  6
CONTINUOUS
 62
     7
 10
603.561787
 20
-27.987611
 30
0.0
 40
0.531611
 50
55.615753
 51
124.384247
  0
LINE
  8
0
  6
CONTINUOUS
 62
     7
 10
603.261565
 20
-27.548888
 30
0.0
 11
603.261565
 21
-28.40311
 31
0.0
  0
LINE
  8
0
  6
DASHDOT
 62
     7
 10
604.462453
 20
-25.706573
 30
0.0
 11
604.462453
 21
-29.498961
 31
0.0
  0
ARC
  8
0
  6
CONTINUOUS
 62
     7
 10
605.363119
 20
-27.964388
 30
0.0
 40
0.531611
 50
235.615753
 51
304.384247
  0
ARC
  8
0
  6
CONTINUOUS
 62
     7
 10
604.462453
 20
-26.508888
 30
0.0
 40
1.987111
 50
252.412046
 51
287.587954
  0
ARC
  8
0
  6
CONTINUOUS
 62
     7
 10
603.561787
 20
-27.964388
 30
0.0
 40
0.531611
 50
235.615753
 51
304.384247
  0
LINE
  8
0
  6
CONTINUOUS
 62
     7
 10
604.014453
 20
-28.495999
 30
0.0
 11
604.014453
 21
-28.719999
 31
0.0
  0
LINE
  8
0
  6
CONTINUOUS
 62
     7
 10
604.910453
 20
-28.495999
 30
0.0
 11
604.910453
 21
-28.719999
 31
0.0
  0
LINE
  8
0
  6
CONTINUOUS
 62
     7
 10
566.702454
 20
-28.495999
 30
0.0
 11
566.702454
 21
-28.719999
 31
0.0
  0
LINE
  8
0
  6
CONTINUOUS
 62
     7
 10
565.422454
 20
-28.495999
 30
0.0
 11
565.422454
 21
-28.719999
 31
0.0
  0
LINE
  8
0
  6
CONTINUOUS
 62
     7
 10
570.062454
 20
-26.799999
 30
0.0
 11
570.062454
 21
-29.999999
 31
0.0
  0
LINE
  8
0
  6
CONTINUOUS
 62
     7
 10
569.662454
 20
-27.599999
 30
0.0
 11
569.662454
 21
-29.999999
 31
0.0
  0
LINE
  8
0
  6
CONTINUOUS
 62
     7
 10
562.862454
 20
-27.199999
 30
0.0
 11
569.262454
 21
-27.199999
 31
0.0
  0
ARC
  8
0
  6
CONTINUOUS
 62
     7
 10
569.262454
 20
-27.599999
 30
0.0
 40
0.4
 50
0.0
 51
90.0
  0
ARC
  8
0
  6
CONTINUOUS
 62
     7
 10
562.862454
 20
-27.599999
 30
0.0
 40
0.4
 50
90.0
 51
180.0
  0
LINE
  8
0
  6
CONTINUOUS
 62
     7
 10
562.062454
 20
-26.799999
 30
0.0
 11
562.062454
 21
-29.999999
 31
0.0
  0
LINE
  8
0
  6
CONTINUOUS
 62
     7
 10
562.462454
 20
-27.599999
 30
0.0
 11
562.462454
 21
-29.999999
 31
0.0
  0
LINE
  8
0
  6
CONTINUOUS
 62
     7
 10
569.662454
 20
-29.999999
 30
0.0
 11
570.062454
 21
-29.999999
 31
0.0
  0
LINE
  8
0
  6
CONTINUOUS
 62
     7
 10
562.062454
 20
-29.999999
 30
0.0
 11
562.462454
 21
-29.999999
 31
0.0
  0
LINE
  8
0
  6
CONTINUOUS
 62
     7
 10
564.702454
 20
-27.455999
 30
0.0
 11
567.422454
 21
-27.455999
 31
0.0
  0
LINE
  8
0
  6
CONTINUOUS
 62
     7
 10
564.702454
 20
-27.199999
 30
0.0
 11
564.702454
 21
-27.455999
 31
0.0
  0
LINE
  8
0
  6
CONTINUOUS
 62
     7
 10
567.422454
 20
-27.199999
 30
0.0
 11
567.422454
 21
-27.455999
 31
0.0
  0
LINE
  8
0
  6
CONTINUOUS
 62
     7
 10
565.422454
 20
-28.719999
 30
0.0
 11
566.702454
 21
-28.719999
 31
0.0
  0
LINE
  8
0
  6
CONTINUOUS
 62
     7
 10
565.161788
 20
-28.495999
 30
0.0
 11
566.96312
 21
-28.495999
 31
0.0
  0
LINE
  8
0
  6
CONTINUOUS
 62
     7
 10
565.161788
 20
-27.455999
 30
0.0
 11
566.96312
 21
-27.455999
 31
0.0
  0
LINE
  8
0
  6
CONTINUOUS
 62
     7
 10
567.263342
 20
-27.548888
 30
0.0
 11
567.263342
 21
-28.40311
 31
0.0
  0
LINE
  8
0
  6
CONTINUOUS
 62
     7
 10
566.662898
 20
-27.548888
 30
0.0
 11
566.662898
 21
-28.40311
 31
0.0
  0
LINE
  8
0
  6
CONTINUOUS
 62
     7
 10
565.46201
 20
-27.548888
 30
0.0
 11
565.46201
 21
-28.40311
 31
0.0
  0
ARC
  8
0
  6
CONTINUOUS
 62
     7
 10
566.96312
 20
-27.987611
 30
0.0
 40
0.531611
 50
55.615753
 51
124.384247
  0
ARC
  8
0
  6
CONTINUOUS
 62
     7
 10
566.062454
 20
-29.44311
 30
0.0
 40
1.987111
 50
72.412046
 51
107.587954
  0
ARC
  8
0
  6
CONTINUOUS
 62
     7
 10
565.161788
 20
-27.987611
 30
0.0
 40
0.531611
 50
55.615753
 51
124.384247
  0
LINE
  8
0
  6
CONTINUOUS
 62
     7
 10
564.861565
 20
-27.548888
 30
0.0
 11
564.861565
 21
-28.40311
 31
0.0
  0
LINE
  8
0
  6
DASHDOT
 62
     7
 10
566.062454
 20
-25.706573
 30
0.0
 11
566.062454
 21
-29.498961
 31
0.0
  0
ARC
  8
0
  6
CONTINUOUS
 62
     7
 10
566.96312
 20
-27.964388
 30
0.0
 40
0.531611
 50
235.615753
 51
304.384247
  0
ARC
  8
0
  6
CONTINUOUS
 62
     7
 10
566.062454
 20
-26.508888
 30
0.0
 40
1.987111
 50
252.412046
 51
287.587954
  0
ARC
  8
0
  6
CONTINUOUS
 62
     7
 10
565.161788
 20
-27.964388
 30
0.0
 40
0.531611
 50
235.615753
 51
304.384247
  0
LINE
  8
0
  6
CONTINUOUS
 62
     7
 10
565.614454
 20
-28.495999
 30
0.0
 11
565.614454
 21
-28.719999
 31
0.0
  0
LINE
  8
0
  6
CONTINUOUS
 62
     7
 10
566.510454
 20
-28.495999
 30
0.0
 11
566.510454
 21
-28.719999
 31
0.0
  0
CIRCLE
  8
0
  6
DASHDOT
 62
     7
 10
607.794642
 20
-27.566911
 30
0.0
 40
8.0
  0
LINE
  8
0
  6
CONTINUOUS
 62
     7
 10
615.123981
 20
-30.773276
 30
0.0
 11
621.069014
 21
-33.154247
 31
0.0
  0
LINE
  8
0
  6
CONTINUOUS
 62
     7
 10
621.069014
 20
-33.154247
 30
0.0
 11
624.841355
 21
-33.154247
 31
0.0
  0
CIRCLE
  8
0
  6
CONTINUOUS
 62
   212
 10
567.182444
 20
-10.080231
 30
0.0
 40
0.640001
  0
LINE
  8
0
  6
CONTINUOUS
 62
     7
 10
551.022449
 20
-14.24
 30
0.0
 11
551.022449
 21
-31.404325
 31
0.0
  0
LINE
  8
0
  6
CONTINUOUS
 62
     7
 10
551.502449
 20
-26.17473
 30
0.0
 11
551.502449
 21
-31.182539
 31
0.0
  0
LINE
  8
0
  6
CONTINUOUS
 62
     7
 10
551.022449
 20
53.135744
 30
0.0
 11
551.022449
 21
22.879502
 31
0.0
  0
LINE
  8
0
  6
CONTINUOUS
 62
     7
 10
551.502449
 20
52.84003
 30
0.0
 11
551.502449
 21
46.588704
 31
0.0
  0
LINE
  8
0
  6
CONTINUOUS
 62
     7
 10
551.022449
 20
47.599999
 30
0.0
 11
551.502449
 21
47.599999
 31
0.0
  0
LINE
  8
0
  6
CONTINUOUS
 62
     7
 10
551.502449
 20
-31.182539
 30
0.0
 11
551.022449
 21
-31.404325
 31
0.0
  0
LINE
  8
0
  6
CONTINUOUS
 62
     7
 10
551.022449
 20
53.135744
 30
0.0
 11
551.502449
 21
52.84003
 31
0.0
  0
LINE
  8
0
  6
CONTINUOUS
 62
   132
 10
544.06245
 20
14.239752
 30
0.0
 11
549.342449
 21
14.239752
 31
0.0
  0
LINE
  8
0
  6
CONTINUOUS
 62
   132
 10
544.06245
 20
12.639752
 30
0.0
 11
549.342449
 21
12.639752
 31
0.0
  0
LINE
  8
0
  6
CONTINUOUS
 62
   132
 10
544.06245
 20
-4.00025
 30
0.0
 11
549.342449
 21
-4.00025
 31
0.0
  0
LINE
  8
0
  6
CONTINUOUS
 62
   132
 10
544.06245
 20
-5.60025
 30
0.0
 11
549.342449
 21
-5.60025
 31
0.0
  0
LINE
  8
0
  6
CONTINUOUS
 62
   132
 10
544.06245
 20
12.639752
 30
0.0
 11
544.06245
 21
11.359752
 31
0.0
  0
LINE
  8
0
  6
CONTINUOUS
 62
   132
 10
544.06245
 20
-2.72025
 30
0.0
 11
544.06245
 21
-4.00025
 31
0.0
  0
TEXT
  8
0
  6
CONTINUOUS
 62
     7
 10
621.43945
 20
-32.572341
 30
0.0
 40
3.0
  1
Z
 50
360.0
 41
0.916667
 72
     1
 11
622.53945
 21
-31.072341
 31
0.0
 73
     2
  0
TEXT
  8
0
  6
CONTINUOUS
 62
     7
 10
617.058942
 20
5.810976
 30
0.0
 40
4.0
  1
X
 50
360.0
 41
0.915625
 72
     1
 11
618.523942
 21
7.810976
 31
0.0
 73
     2
  0
TEXT
  8
0
  6
CONTINUOUS
 62
     7
 10
603.250884
 20
5.588265
 30
0.0
 40
4.0
  1
X
 50
360.0
 41
0.915625
 72
     1
 11
604.715884
 21
7.588265
 31
0.0
 73
     2
  0
INSERT
  8
0
  6
CONTINUOUS
 62
     7
  2
*U0
 10
0.0
 20
0.0
 30
0.0
  0
INSERT
  8
0
  6
CONTINUOUS
 62
     7
  2
*U1
 10
0.0
 20
0.0
 30
0.0
  0
INSERT
  8
0
  6
CONTINUOUS
 62
     7
  2
*H2
 10
0.0
 20
0.0
 30
0.0
  0
INSERT
  8
0
  6
CONTINUOUS
 62
     7
  2
*H3
 10
0.0
 20
0.0
 30
0.0
  0
INSERT
  8
0
  6
CONTINUOUS
 62
     7
  2
*U4
 10
0.0
 20
0.0
 30
0.0
  0
INSERT
  8
0
  6
CONTINUOUS
 62
     7
  2
*U5
 10
0.0
 20
0.0
 30
0.0
  0
INSERT
  8
0
  6
CONTINUOUS
 62
     7
  2
*U6
 10
0.0
 20
0.0
 30
0.0
  0
INSERT
  8
0
  6
CONTINUOUS
 62
     7
  2
*U7
 10
0.0
 20
0.0
 30
0.0
  0
INSERT
  8
0
  6
CONTINUOUS
 62
     7
  2
*U8
 10
0.0
 20
0.0
 30
0.0
  0
INSERT
  8
0
  6
CONTINUOUS
 62
     7
  2
*U9
 10
0.0
 20
0.0
 30
0.0
  0
INSERT
  8
0
  6
CONTINUOUS
 62
     7
  2
*U10
 10
0.0
 20
0.0
 30
0.0
  0
INSERT
  8
0
  6
CONTINUOUS
 62
     7
  2
*U11
 10
0.0
 20
0.0
 30
0.0
  0
INSERT
  8
0
  6
CONTINUOUS
 62
     7
  2
*U12
 10
0.0
 20
0.0
 30
0.0
  0
INSERT
  8
0
  6
CONTINUOUS
 62
     7
  2
*U13
 10
0.0
 20
0.0
 30
0.0
  0
INSERT
  8
0
  6
CONTINUOUS
 62
     7
  2
*U14
 10
0.0
 20
0.0
 30
0.0
  0
INSERT
  8
0
  6
CONTINUOUS
 62
     7
  2
*U15
 10
0.0
 20
0.0
 30
0.0
  0
INSERT
  8
0
  6
CONTINUOUS
 62
     7
  2
*U16
 10
0.0
 20
0.0
 30
0.0
  0
INSERT
  8
0
  6
CONTINUOUS
 62
     7
  2
*U17
 10
0.0
 20
0.0
 30
0.0
  0
INSERT
  8
0
  6
CONTINUOUS
 62
     7
  2
*U18
 10
0.0
 20
0.0
 30
0.0
  0
INSERT
  8
0
  6
CONTINUOUS
 62
     7
  2
*U19
 10
0.0
 20
0.0
 30
0.0
  0
INSERT
  8
0
  6
CONTINUOUS
 62
     7
  2
*U20
 10
0.0
 20
0.0
 30
0.0
  0
INSERT
  8
0
  6
CONTINUOUS
 62
     7
  2
*U21
 10
0.0
 20
0.0
 30
0.0
  0
INSERT
  8
0
  6
CONTINUOUS
 62
     7
  2
*U22
 10
0.0
 20
0.0
 30
0.0
  0
INSERT
  8
0
  6
CONTINUOUS
 62
     7
  2
*H23
 10
0.0
 20
0.0
 30
0.0
  0
INSERT
  8
0
  6
CONTINUOUS
 62
     7
  2
*H24
 10
0.0
 20
0.0
 30
0.0
  0
INSERT
  8
0
  6
CONTINUOUS
 62
     7
  2
*U25
 10
0.0
 20
0.0
 30
0.0
  0
INSERT
  8
0
  6
CONTINUOUS
 62
     7
  2
*U26
 10
0.0
 20
0.0
 30
0.0
  0
INSERT
  8
0
  6
CONTINUOUS
 62
     7
  2
*U27
 10
0.0
 20
0.0
 30
0.0
  0
INSERT
  8
0
  6
CONTINUOUS
 62
     7
  2
*U28
 10
0.0
 20
0.0
 30
0.0
  0
INSERT
  8
0
  6
CONTINUOUS
 62
     7
  2
*U29
 10
0.0
 20
0.0
 30
0.0
  0
INSERT
  8
0
  6
CONTINUOUS
 62
     7
  2
*U30
 10
0.0
 20
0.0
 30
0.0
  0
INSERT
  8
0
  6
CONTINUOUS
 62
     7
  2
*U31
 10
0.0
 20
0.0
 30
0.0
  0
INSERT
  8
0
  6
CONTINUOUS
 62
     7
  2
*U32
 10
0.0
 20
0.0
 30
0.0
  0
INSERT
  8
0
  6
CONTINUOUS
 62
     7
  2
*U33
 10
0.0
 20
0.0
 30
0.0
  0
INSERT
  8
0
  6
CONTINUOUS
 62
     7
  2
*U34
 10
0.0
 20
0.0
 30
0.0
  0
INSERT
  8
0
  6
CONTINUOUS
 62
     7
  2
*U35
 10
0.0
 20
0.0
 30
0.0
  0
INSERT
  8
0
  6
CONTINUOUS
 62
     7
  2
*U36
 10
0.0
 20
0.0
 30
0.0
  0
INSERT
  8
0
  6
CONTINUOUS
 62
     7
  2
*U37
 10
0.0
 20
0.0
 30
0.0
  0
INSERT
  8
0
  6
CONTINUOUS
 62
     7
  2
*U38
 10
0.0
 20
0.0
 30
0.0
  0
INSERT
  8
0
  6
CONTINUOUS
 62
     7
  2
*U39
 10
0.0
 20
0.0
 30
0.0
  0
INSERT
  8
0
  6
CONTINUOUS
 62
     7
  2
*U40
 10
0.0
 20
0.0
 30
0.0
  0
INSERT
  8
0
  6
CONTINUOUS
 62
     7
  2
*U41
 10
0.0
 20
0.0
 30
0.0
  0
INSERT
  8
0
  6
CONTINUOUS
 62
     7
  2
*U42
 10
0.0
 20
0.0
 30
0.0
  0
INSERT
  8
0
  6
CONTINUOUS
 62
     7
  2
*U43
 10
0.0
 20
0.0
 30
0.0
  0
INSERT
  8
0
  6
CONTINUOUS
 62
     7
  2
*U44
 10
0.0
 20
0.0
 30
0.0
  0
INSERT
  8
0
  6
CONTINUOUS
 62
     7
  2
*H45
 10
0.0
 20
0.0
 30
0.0
  0
INSERT
  8
0
  6
CONTINUOUS
 62
     7
  2
*U46
 10
0.0
 20
0.0
 30
0.0
  0
INSERT
  8
0
  6
CONTINUOUS
 62
     7
  2
*U47
 10
0.0
 20
0.0
 30
0.0
  0
INSERT
  8
0
  6
CONTINUOUS
 62
     7
  2
*U48
 10
0.0
 20
0.0
 30
0.0
  0
INSERT
  8
0
  6
CONTINUOUS
 62
     7
  2
*U49
 10
0.0
 20
0.0
 30
0.0
  0
INSERT
  8
0
  6
CONTINUOUS
 62
     7
  2
*U50
 10
0.0
 20
0.0
 30
0.0
  0
INSERT
  8
0
  6
CONTINUOUS
 62
     7
  2
*U51
 10
0.0
 20
0.0
 30
0.0
  0
INSERT
  8
0
  6
CONTINUOUS
 62
     7
  2
*U52
 10
0.0
 20
0.0
 30
0.0
  0
INSERT
  8
0
  6
CONTINUOUS
 62
     7
  2
*U53
 10
0.0
 20
0.0
 30
0.0
  0
INSERT
  8
0
  6
CONTINUOUS
 62
     7
  2
*U54
 10
0.0
 20
0.0
 30
0.0
  0
INSERT
  8
0
  6
CONTINUOUS
 62
     7
  2
*U55
 10
0.0
 20
0.0
 30
0.0
  0
INSERT
  8
0
  6
CONTINUOUS
 62
     7
  2
*U56
 10
0.0
 20
0.0
 30
0.0
  0
INSERT
  8
0
  6
CONTINUOUS
 62
     7
  2
*U57
 10
0.0
 20
0.0
 30
0.0
  0
ENDSEC
  0
EOF
