  0
SECTION
  2
HEADER
  9
$ACADVER
  1
AC1009
  9
$INSBASE
 10
0.0
 20
0.0
 30
0.0
  9
$EXTMIN
 10
0.237099
 20
0.237999
 30
0.0
  9
$EXTMAX
 10
392.237099
 20
262.737999
 30
0.0
  9
$LIMMIN
 10
0.0
 20
0.0
  9
$LIMMAX
 10
12.0
 20
9.0
  9
$ORTHOMODE
 70
     1
  9
$REGENMODE
 70
     1
  9
$FILLMODE
 70
     1
  9
$QTEXTMODE
 70
     0
  9
$MIRRTEXT
 70
     1
  9
$DRAGMODE
 70
     2
  9
$LTSCALE
 40
5.0
  9
$OSMODE
 70
     0
  9
$ATTMODE
 70
     1
  9
$TEXTSIZE
 40
2.0
  9
$TRACEWID
 40
0.05
  9
$TEXTSTYLE
  7
ROMANS
  9
$CLAYER
  8
0
  9
$CELTYPE
  6
CONTINUOUS
  9
$CECOLOR
 62
   256
  9
$DIMSCALE
 40
1.0
  9
$DIMASZ
 40
0.18
  9
$DIMEXO
 40
0.0625
  9
$DIMDLI
 40
0.38
  9
$DIMRND
 40
0.0
  9
$DIMDLE
 40
0.0
  9
$DIMEXE
 40
0.18
  9
$DIMTP
 40
0.0
  9
$DIMTM
 40
0.0
  9
$DIMTXT
 40
0.18
  9
$DIMCEN
 40
0.09
  9
$DIMTSZ
 40
0.0
  9
$DIMTOL
 70
     0
  9
$DIMLIM
 70
     0
  9
$DIMTIH
 70
     1
  9
$DIMTOH
 70
     1
  9
$DIMSE1
 70
     0
  9
$DIMSE2
 70
     0
  9
$DIMTAD
 70
     0
  9
$DIMZIN
 70
     0
  9
$DIMBLK
  1

  9
$DIMASO
 70
     1
  9
$DIMSHO
 70
     1
  9
$DIMPOST
  1

  9
$DIMAPOST
  1

  9
$DIMALT
 70
     0
  9
$DIMALTD
 70
     2
  9
$DIMALTF
 40
25.4
  9
$DIMLFAC
 40
1.0
  9
$DIMTOFL
 70
     0
  9
$DIMTVP
 40
0.0
  9
$DIMTIX
 70
     0
  9
$DIMSOXD
 70
     0
  9
$DIMSAH
 70
     0
  9
$DIMBLK1
  1

  9
$DIMBLK2
  1

  9
$DIMSTYLE
  2
*UNNAMED
  9
$DIMCLRD
 70
     0
  9
$DIMCLRE
 70
     0
  9
$DIMCLRT
 70
     0
  9
$DIMTFAC
 40
1.0
  9
$DIMGAP
 40
0.09
  9
$LUNITS
 70
     2
  9
$LUPREC
 70
     4
  9
$SKETCHINC
 40
0.1
  9
$FILLETRAD
 40
0.0
  9
$AUNITS
 70
     0
  9
$AUPREC
 70
     0
  9
$MENU
  1
acad
  9
$ELEVATION
 40
0.0
  9
$PELEVATION
 40
0.0
  9
$THICKNESS
 40
0.0
  9
$LIMCHECK
 70
     0
  9
$BLIPMODE
 70
     1
  9
$CHAMFERA
 40
0.0
  9
$CHAMFERB
 40
0.0
  9
$SKPOLY
 70
     0
  9
$TDCREATE
 40
2448722.670487615
  9
$TDUPDATE
 40
2449100.340889583
  9
$TDINDWG
 40
0.0258086806
  9
$TDUSRTIMER
 40
0.0258086806
  9
$USRTIMER
 70
     1
  9
$ANGBASE
 50
0.0
  9
$ANGDIR
 70
     0
  9
$PDMODE
 70
     0
  9
$PDSIZE
 40
0.0
  9
$PLINEWID
 40
0.0
  9
$COORDS
 70
     2
  9
$SPLFRAME
 70
     0
  9
$SPLINETYPE
 70
     6
  9
$SPLINESEGS
 70
     8
  9
$ATTDIA
 70
     0
  9
$ATTREQ
 70
     1
  9
$HANDLING
 70
     0
  9
$HANDSEED
  5
0
  9
$SURFTAB1
 70
   250
  9
$SURFTAB2
 70
   250
  9
$SURFTYPE
 70
     6
  9
$SURFU
 70
     6
  9
$SURFV
 70
     6
  9
$UCSNAME
  2

  9
$UCSORG
 10
0.0
 20
0.0
 30
0.0
  9
$UCSXDIR
 10
1.0
 20
0.0
 30
0.0
  9
$UCSYDIR
 10
0.0
 20
1.0
 30
0.0
  9
$PUCSNAME
  2

  9
$PUCSORG
 10
0.0
 20
0.0
 30
0.0
  9
$PUCSXDIR
 10
1.0
 20
0.0
 30
0.0
  9
$PUCSYDIR
 10
0.0
 20
1.0
 30
0.0
  9
$USERI1
 70
     0
  9
$USERI2
 70
     0
  9
$USERI3
 70
     0
  9
$USERI4
 70
     0
  9
$USERI5
 70
     0
  9
$USERR1
 40
0.0
  9
$USERR2
 40
0.0
  9
$USERR3
 40
0.0
  9
$USERR4
 40
0.0
  9
$USERR5
 40
0.0
  9
$WORLDVIEW
 70
     1
  9
$SHADEDGE
 70
     3
  9
$SHADEDIF
 70
    70
  9
$TILEMODE
 70
     1
  9
$MAXACTVP
 70
    16
  9
$PINSBASE
 10
0.0
 20
0.0
 30
0.0
  9
$PLIMCHECK
 70
     0
  9
$PEXTMIN
 10
1.000000E+20
 20
1.000000E+20
 30
1.000000E+20
  9
$PEXTMAX
 10
-1.000000E+20
 20
-1.000000E+20
 30
-1.000000E+20
  9
$PLIMMIN
 10
0.0
 20
0.0
  9
$PLIMMAX
 10
12.0
 20
9.0
  9
$UNITMODE
 70
     0
  9
$VISRETAIN
 70
     0
  9
$PLINEGEN
 70
     0
  9
$PSLTSCALE
 70
     0
  9
$TREEDEPTH
 70
  3020
  9
$DWGCODEPAGE
  3
undefined
  0
ENDSEC
  0
SECTION
  2
TABLES
  0
TABLE
  2
VPORT
 70
     2
  0
VPORT
  2
*ACTIVE
 70
     0
 10
0.0
 20
0.0
 11
1.0
 21
1.0
 12
222.522843
 22
142.040485
 13
0.0
 23
0.0
 14
2.5
 24
2.5
 15
0.0
 25
0.0
 16
0.0
 26
0.0
 36
1.0
 17
0.0
 27
0.0
 37
0.0
 40
284.080971
 41
1.566616
 42
50.0
 43
0.0
 44
0.0
 50
0.0
 51
0.0
 71
     0
 72
   100
 73
     1
 74
     1
 75
     1
 76
     0
 77
     0
 78
     0
  0
ENDTAB
  0
TABLE
  2
LTYPE
 70
     4
  0
LTYPE
  2
CONTINUOUS
 70
    64
  3
Solid line
 72
    65
 73
     0
 40
0.0
  0
LTYPE
  2
DASHED
 70
    64
  3
__ __ __ __ __ __ __ __ __ __ __ __ __ __ __ __
 72
    65
 73
     2
 40
0.75
 49
0.5
 49
-0.25
  0
LTYPE
  2
CENTER
 70
    64
  3
____ _ ____ _ ____ _ ____ _ ____ _ ____ _ ____ 
 72
    65
 73
     4
 40
2.0
 49
1.25
 49
-0.25
 49
0.25
 49
-0.25
  0
LTYPE
  2
HIDDEN
 70
    64
  3
__ __ __ __ __ __ __ __ __ __ __ __ __ __ __ __
 72
    65
 73
     2
 40
0.375
 49
0.25
 49
-0.125
  0
ENDTAB
  0
TABLE
  2
LAYER
 70
    14
  0
LAYER
  2
0
 70
    64
 62
     7
  6
CONTINUOUS
  0
LAYER
  2
RAAMI
 70
    64
 62
    -4
  6
CONTINUOUS
  0
LAYER
  2
PAKSU
 70
    64
 62
    -3
  6
CONTINUOUS
  0
LAYER
  2
OHUT
 70
    64
 62
    -6
  6
CONTINUOUS
  0
LAYER
  2
SWEDEN
 70
    64
 62
    -7
  6
CONTINUOUS
  0
LAYER
  2
SWEDEN2
 70
    64
 62
    -5
  6
CONTINUOUS
  0
LAYER
  2
BASE
 70
    64
 62
    -7
  6
CONTINUOUS
  0
LAYER
  2
21
 70
    64
 62
    -2
  6
CONTINUOUS
  0
LAYER
  2
HEL035
 70
    64
 62
    -7
  6
CONTINUOUS
  0
LAYER
  2
MUO
 70
    64
 62
    -7
  6
CONTINUOUS
  0
LAYER
  2
1
 70
    64
 62
    -2
  6
CONTINUOUS
  0
LAYER
  2
BASE1
 70
    64
 62
    -1
  6
CONTINUOUS
  0
LAYER
  2
TEKS
 70
    64
 62
    -5
  6
CONTINUOUS
  0
LAYER
  2
DEFPOINTS
 70
    64
 62
    -7
  6
CONTINUOUS
  0
ENDTAB
  0
TABLE
  2
STYLE
 70
     3
  0
STYLE
  2
STANDARD
 70
    64
 40
0.0
 41
1.0
 50
0.0
 71
     0
 42
2.5
  3
txt
  4

  0
STYLE
  2
ROMANS
 70
    64
 40
0.0
 41
1.0
 50
0.0
 71
     0
 42
2.0
  3
romans
  4

  0
STYLE
  2
GREEKS
 70
     0
 40
0.0
 41
1.0
 50
0.0
 71
     0
 42
2.5
  3
TXT
  4

  0
ENDTAB
  0
TABLE
  2
VIEW
 70
     0
  0
ENDTAB
  0
TABLE
  2
UCS
 70
     0
  0
ENDTAB
  0
TABLE
  2
APPID
 70
     1
  0
APPID
  2
ACAD
 70
    64
  0
ENDTAB
  0
TABLE
  2
DIMSTYLE
 70
     0
  0
ENDTAB
  0
ENDSEC
  0
SECTION
  2
BLOCKS
  0
BLOCK
  8
0
  2
1
 70
    64
 10
0.0
 20
0.0
 30
0.0
  3
1
  0
ENDBLK
  8
0
  0
BLOCK
  8
0
  2
BLC16
 70
     0
 10
0.0
 20
0.0
 30
0.0
  3
BLC16
  0
LINE
  8
0
  6
CONTINUOUS
 10
0.007689
 20
38.054928
 30
0.0
 11
19.983683
 21
38.054928
 31
0.0
  0
LINE
  8
0
  6
CONTINUOUS
 10
19.983683
 20
38.054928
 30
0.0
 11
19.983683
 21
-0.003751
 31
0.0
  0
LINE
  8
0
  6
CONTINUOUS
 10
19.983683
 20
-0.003751
 30
0.0
 11
0.007689
 21
-0.003751
 31
0.0
  0
LINE
  8
0
  6
CONTINUOUS
 10
0.007689
 20
-0.003751
 30
0.0
 11
0.007689
 21
38.054928
 31
0.0
  0
LINE
  8
0
  6
CONTINUOUS
 10
14.152643
 20
36.919738
 30
0.0
 11
14.152643
 21
33.528469
 31
0.0
  0
LINE
  8
0
  6
CONTINUOUS
 10
14.152643
 20
33.528469
 30
0.0
 11
11.560435
 21
33.528469
 31
0.0
  0
LINE
  8
0
  6
CONTINUOUS
 10
11.560435
 20
33.528469
 30
0.0
 11
11.560435
 21
30.778433
 31
0.0
  0
LINE
  8
0
  6
CONTINUOUS
 10
11.560435
 20
30.778433
 30
0.0
 11
14.152643
 21
30.778433
 31
0.0
  0
LINE
  8
0
  6
CONTINUOUS
 10
14.152643
 20
30.778433
 30
0.0
 11
14.152643
 21
27.387164
 31
0.0
  0
TEXT
  8
0
  6
CONTINUOUS
 10
6.558569
 20
30.805266
 30
0.0
 40
2.5
  1
2
 11
6.558569
 21
29.971932
 31
0.0
 73
     1
  0
TEXT
  8
0
  6
CONTINUOUS
 10
6.553289
 20
23.854078
 30
0.0
 40
2.5
  1
2 I
 11
6.553289
 21
23.020744
 31
0.0
 73
     1
  0
LINE
  8
0
  6
CONTINUOUS
 10
12.942534
 20
26.359129
 30
0.0
 11
15.288299
 21
25.023775
 31
0.0
  0
LINE
  8
0
  6
CONTINUOUS
 10
15.288299
 20
25.023775
 30
0.0
 11
12.942534
 21
23.833856
 31
0.0
  0
LINE
  8
0
  6
CONTINUOUS
 10
14.169823
 20
26.359129
 30
0.0
 11
16.515589
 21
25.023775
 31
0.0
  0
LINE
  8
0
  6
CONTINUOUS
 10
16.515589
 20
25.023775
 30
0.0
 11
14.169823
 21
23.833856
 31
0.0
  0
TEXT
  8
0
  6
CONTINUOUS
 10
11.566446
 20
19.235679
 30
0.0
 40
2.5
  1
I
 11
11.566446
 21
18.402346
 31
0.0
 73
     1
  0
TEXT
  8
0
  6
CONTINUOUS
 10
13.018181
 20
18.902346
 30
0.0
 40
1.5
  1
2
 11
13.018181
 21
18.402346
 31
0.0
 73
     1
  0
LINE
  8
0
  6
CONTINUOUS
 10
10.65733
 20
12.773825
 30
0.0
 11
13.003095
 21
13.963744
 31
0.0
  0
LINE
  8
0
  6
CONTINUOUS
 10
13.003095
 20
11.438471
 30
0.0
 11
10.65733
 21
12.773825
 31
0.0
  0
LINE
  8
0
  6
CONTINUOUS
 10
6.557002
 20
16.714658
 30
0.0
 11
15.281743
 21
16.714658
 31
0.0
  0
LINE
  8
0
  6
CONTINUOUS
 10
6.557002
 20
17.523984
 30
0.0
 11
6.557002
 21
15.908791
 31
0.0
  0
LINE
  8
0
  6
CONTINUOUS
 10
15.286518
 20
17.523984
 30
0.0
 11
15.286518
 21
15.908791
 31
0.0
  0
ARC
  8
0
  6
CONTINUOUS
 10
12.684846
 20
18.508045
 30
0.0
 40
2.922744
 50
193.105513
 51
283.105513
  0
TEXT
  8
0
  6
CONTINUOUS
 10
6.557002
 20
11.567974
 30
0.0
 40
2.5
  1
2I
 11
6.557002
 21
10.734641
 31
0.0
 73
     1
  0
LINE
  8
0
  6
CONTINUOUS
 10
6.557002
 20
9.441103
 30
0.0
 11
15.281743
 21
9.441103
 31
0.0
  0
LINE
  8
0
  6
CONTINUOUS
 10
15.286518
 20
10.250429
 30
0.0
 11
15.286518
 21
8.635236
 31
0.0
  0
LINE
  8
0
  6
CONTINUOUS
 10
6.557002
 20
10.250429
 30
0.0
 11
6.557002
 21
8.635236
 31
0.0
  0
TEXT
  8
0
  6
CONTINUOUS
 10
6.557002
 20
4.778631
 30
0.0
 40
2.5
  1
I
 11
6.557002
 21
3.945298
 31
0.0
 73
     1
  0
LINE
  8
0
  6
CONTINUOUS
 10
9.509029
 20
6.822462
 30
0.0
 11
9.509029
 21
5.477736
 31
0.0
  0
LINE
  8
0
  6
CONTINUOUS
 10
8.615065
 20
5.477736
 30
0.0
 11
9.52622
 21
5.477736
 31
0.0
  0
LINE
  8
0
  6
CONTINUOUS
 10
9.509029
 20
5.477736
 30
0.0
 11
10.402992
 21
5.477736
 31
0.0
  0
LINE
  8
0
  6
CONTINUOUS
 10
8.901592
 20
5.082328
 30
0.0
 11
9.509029
 21
5.082328
 31
0.0
  0
LINE
  8
0
  6
CONTINUOUS
 10
9.509029
 20
5.082328
 30
0.0
 11
10.150849
 21
5.082328
 31
0.0
  0
LINE
  8
0
  6
CONTINUOUS
 10
9.981861
 20
4.719969
 30
0.0
 11
9.072041
 21
4.719969
 31
0.0
  0
LINE
  8
0
  6
CONTINUOUS
 10
15.286518
 20
2.797924
 30
0.0
 11
15.286518
 21
1.182731
 31
0.0
  0
LINE
  8
0
  6
CONTINUOUS
 10
6.557002
 20
1.988598
 30
0.0
 11
15.281743
 21
1.988598
 31
0.0
  0
LINE
  8
0
  6
CONTINUOUS
 10
6.557002
 20
2.797924
 30
0.0
 11
6.557002
 21
1.182731
 31
0.0
  0
ENDBLK
  8
0
  0
BLOCK
  8
0
  2
BLC27
 70
     0
 10
0.0
 20
0.0
 30
0.0
  3
BLC27
  0
INSERT
  8
SWEDEN2
  6
CENTER
  2
BLC26
 10
0.08063
 20
0.037985
 30
0.0
 41
1.006225
 42
1.006225
 43
1.006225
  0
ENDBLK
  8
0
  0
BLOCK
  8
0
  2
BLC26
 70
    64
 10
0.0
 20
0.0
 30
0.0
  3
BLC26
  0
ARC
  8
0
  6
CONTINUOUS
 10
-0.180576
 20
1.17922
 30
0.0
 40
1.196859
 50
90.0
 51
265.706237
  0
LINE
  8
0
  6
CONTINUOUS
 10
-0.186638
 20
-0.01092
 30
0.0
 11
0.458942
 21
-0.01092
 31
0.0
  0
LINE
  8
0
  6
CONTINUOUS
 10
-0.186638
 20
2.375671
 30
0.0
 11
0.45288
 21
2.375671
 31
0.0
  0
LINE
  8
0
  6
CONTINUOUS
 10
-0.185509
 20
-2.404629
 30
0.0
 11
0.460071
 21
-2.404629
 31
0.0
  0
ARC
  8
0
  6
CONTINUOUS
 10
-0.180576
 20
-1.207779
 30
0.0
 40
1.196859
 50
90.0
 51
270.0
  0
LINE
  8
0
  6
CONTINUOUS
 10
0.451525
 20
-2.404586
 30
0.0
 11
1.401805
 21
-2.404586
 31
0.0
  0
LINE
  8
0
  6
CONTINUOUS
 10
0.446785
 20
2.375674
 30
0.0
 11
1.418544
 21
2.375674
 31
0.0
  0
LINE
  8
0
  6
CONTINUOUS
 10
0.456627
 20
-0.010911
 30
0.0
 11
1.422749
 21
-0.010911
 31
0.0
  0
ENDBLK
  8
0
  0
BLOCK
  8
0
  2
BLC22
 70
     0
 10
0.0
 20
0.0
 30
0.0
  3
BLC22
  0
LINE
  8
HEL035
 10
0.0
 20
-0.00155
 30
0.0
 11
0.0
 21
9.99845
 31
0.0
  0
LINE
  8
21
 10
2.5
 20
10.0
 30
0.0
 11
5.0
 21
10.0
 31
0.0
  0
LINE
  8
HEL035
 10
0.0
 20
9.99845
 30
0.0
 11
2.5
 21
9.99845
 31
0.0
  0
LINE
  8
HEL035
 10
-2.5
 20
5.0
 30
0.0
 11
2.5
 21
5.0
 31
0.0
  0
LINE
  8
21
 10
2.5
 20
5.0
 30
0.0
 11
5.0
 21
5.0
 31
0.0
  0
LINE
  8
21
 10
5.0
 20
5.0
 30
0.0
 11
5.0
 21
7.9
 31
0.0
  0
LINE
  8
HEL035
 10
3.88095
 20
6.944425
 30
0.0
 11
4.560313
 21
6.008681
 31
0.0
  0
LINE
  8
21
 10
10.0
 20
10.0
 30
0.0
 11
4.2
 21
6.5
 31
0.0
  0
LINE
  8
HEL035
 10
2.5
 20
-0.00155
 30
0.0
 11
0.0
 21
-0.00155
 31
0.0
  0
LINE
  8
21
 10
2.5
 20
0.0
 30
0.0
 11
5.0
 21
0.0
 31
0.0
  0
ENDBLK
  8
0
  0
BLOCK
  8
0
  2
BLC18
 70
     0
 10
0.0
 20
0.0
 30
0.0
  3
BLC18
  0
LINE
  8
MUO
 10
-0.056268
 20
0.849555
 30
0.0
 11
8.307242
 21
9.215502
 31
0.0
  0
LINE
  8
MUO
 10
0.928025
 20
-0.107047
 30
0.0
 11
9.268386
 21
8.2307
 31
0.0
  0
LINE
  8
MUO
 10
-0.056268
 20
-0.107047
 30
0.0
 11
-0.056268
 21
9.215502
 31
0.0
  0
LINE
  8
MUO
 10
9.268386
 20
-0.107047
 30
0.0
 11
-0.056268
 21
-0.107047
 31
0.0
  0
LINE
  8
MUO
 10
9.268386
 20
9.215502
 30
0.0
 11
9.268386
 21
-0.107047
 31
0.0
  0
LINE
  8
MUO
 10
-0.056268
 20
9.215502
 30
0.0
 11
9.268386
 21
9.215502
 31
0.0
  0
ENDBLK
  8
0
  0
BLOCK
  8
0
  2
BLC29
 70
    64
 10
0.0
 20
0.0
 30
0.0
  3
BLC29
  0
LINE
  8
0
  6
CONTINUOUS
 10
0.004865
 20
1.206889
 30
0.0
 11
2.350631
 21
-0.128465
 31
0.0
  0
LINE
  8
0
  6
CONTINUOUS
 10
2.350631
 20
-0.128465
 30
0.0
 11
0.004865
 21
-1.318384
 31
0.0
  0
ENDBLK
  8
0
  0
BLOCK
  8
0
  2
WKU130
 70
    64
 10
190.0
 20
250.0
 30
0.0
  3
WKU130
  0
ARC
  8
21
 10
191.083333
 20
249.916667
 30
0.0
 40
1.086534
 50
32.471192
 51
175.601295
  0
ARC
  8
21
 10
192.916667
 20
251.083333
 30
0.0
 40
1.086534
 50
212.471192
 51
355.601295
  0
ENDBLK
  8
0
  0
BLOCK
  8
0
  2
*X8
 70
    65
 10
0.0
 20
0.0
 30
0.0
  3
*X
  0
LINE
  8
0
 62
     0
 10
2.284499
 20
6.52714
 30
0.0
 11
4.8
 21
9.042641
 31
0.0
  0
LINE
  8
0
 62
     0
 10
2.379686
 20
6.799104
 30
0.0
 11
4.8
 21
9.219417
 31
0.0
  0
LINE
  8
0
 62
     0
 10
2.474874
 20
7.071068
 30
0.0
 11
4.8
 21
9.396194
 31
0.0
  0
LINE
  8
0
 62
     0
 10
2.570061
 20
7.343032
 30
0.0
 11
4.8
 21
9.572971
 31
0.0
  0
LINE
  8
0
 62
     0
 10
2.665249
 20
7.614996
 30
0.0
 11
4.8
 21
9.749747
 31
0.0
  0
LINE
  8
0
 62
     0
 10
2.760436
 20
7.88696
 30
0.0
 11
4.8
 21
9.926524
 31
0.0
  0
LINE
  8
0
 62
     0
 10
2.855624
 20
8.158924
 30
0.0
 11
4.696699
 21
10.0
 31
0.0
  0
LINE
  8
0
 62
     0
 10
2.950811
 20
8.430889
 30
0.0
 11
4.519922
 21
10.0
 31
0.0
  0
LINE
  8
0
 62
     0
 10
3.045998
 20
8.702853
 30
0.0
 11
4.343146
 21
10.0
 31
0.0
  0
LINE
  8
0
 62
     0
 10
3.141186
 20
8.974817
 30
0.0
 11
4.166369
 21
10.0
 31
0.0
  0
LINE
  8
0
 62
     0
 10
3.236373
 20
9.246781
 30
0.0
 11
3.989592
 21
10.0
 31
0.0
  0
LINE
  8
0
 62
     0
 10
3.331561
 20
9.518745
 30
0.0
 11
3.812816
 21
10.0
 31
0.0
  0
LINE
  8
0
 62
     0
 10
3.426748
 20
9.790709
 30
0.0
 11
3.636039
 21
10.0
 31
0.0
  0
LINE
  8
0
 62
     0
 10
2.189311
 20
6.255175
 30
0.0
 11
4.8
 21
8.865864
 31
0.0
  0
LINE
  8
0
 62
     0
 10
2.094124
 20
5.983211
 30
0.0
 11
4.8
 21
8.689087
 31
0.0
  0
LINE
  8
0
 62
     0
 10
1.998936
 20
5.711247
 30
0.0
 11
4.8
 21
8.512311
 31
0.0
  0
LINE
  8
0
 62
     0
 10
1.903749
 20
5.439283
 30
0.0
 11
4.8
 21
8.335534
 31
0.0
  0
LINE
  8
0
 62
     0
 10
1.841243
 20
5.2
 30
0.0
 11
4.8
 21
8.158757
 31
0.0
  0
LINE
  8
0
 62
     0
 10
2.018019
 20
5.2
 30
0.0
 11
4.8
 21
7.981981
 31
0.0
  0
LINE
  8
0
 62
     0
 10
2.194796
 20
5.2
 30
0.0
 11
4.8
 21
7.805204
 31
0.0
  0
LINE
  8
0
 62
     0
 10
2.371573
 20
5.2
 30
0.0
 11
4.8
 21
7.628427
 31
0.0
  0
LINE
  8
0
 62
     0
 10
2.54835
 20
5.2
 30
0.0
 11
4.8
 21
7.45165
 31
0.0
  0
LINE
  8
0
 62
     0
 10
2.725126
 20
5.2
 30
0.0
 11
4.8
 21
7.274874
 31
0.0
  0
LINE
  8
0
 62
     0
 10
2.901903
 20
5.2
 30
0.0
 11
4.8
 21
7.098097
 31
0.0
  0
LINE
  8
0
 62
     0
 10
3.07868
 20
5.2
 30
0.0
 11
4.8
 21
6.92132
 31
0.0
  0
LINE
  8
0
 62
     0
 10
3.255456
 20
5.2
 30
0.0
 11
4.8
 21
6.744544
 31
0.0
  0
LINE
  8
0
 62
     0
 10
3.432233
 20
5.2
 30
0.0
 11
4.8
 21
6.567767
 31
0.0
  0
LINE
  8
0
 62
     0
 10
3.60901
 20
5.2
 30
0.0
 11
4.8
 21
6.39099
 31
0.0
  0
LINE
  8
0
 62
     0
 10
3.785786
 20
5.2
 30
0.0
 11
4.8
 21
6.214214
 31
0.0
  0
LINE
  8
0
 62
     0
 10
3.962563
 20
5.2
 30
0.0
 11
4.8
 21
6.037437
 31
0.0
  0
LINE
  8
0
 62
     0
 10
4.13934
 20
5.2
 30
0.0
 11
4.8
 21
5.86066
 31
0.0
  0
LINE
  8
0
 62
     0
 10
4.316117
 20
5.2
 30
0.0
 11
4.8
 21
5.683883
 31
0.0
  0
LINE
  8
0
 62
     0
 10
4.492893
 20
5.2
 30
0.0
 11
4.8
 21
5.507107
 31
0.0
  0
LINE
  8
0
 62
     0
 10
4.66967
 20
5.2
 30
0.0
 11
4.8
 21
5.33033
 31
0.0
  0
ENDBLK
  8
0
  0
BLOCK
  8
0
  2
*X9
 70
    65
 10
0.0
 20
0.0
 30
0.0
  3
*X
  0
LINE
  8
0
 62
     0
 10
5.2
 20
6.083883
 30
0.0
 11
7.178252
 21
8.062136
 31
0.0
  0
LINE
  8
0
 62
     0
 10
5.2
 20
6.26066
 30
0.0
 11
7.132421
 21
8.193082
 31
0.0
  0
LINE
  8
0
 62
     0
 10
5.2
 20
6.437437
 30
0.0
 11
7.08659
 21
8.324027
 31
0.0
  0
LINE
  8
0
 62
     0
 10
5.2
 20
6.614214
 30
0.0
 11
7.040759
 21
8.454973
 31
0.0
  0
LINE
  8
0
 62
     0
 10
5.2
 20
6.79099
 30
0.0
 11
6.994928
 21
8.585919
 31
0.0
  0
LINE
  8
0
 62
     0
 10
5.2
 20
6.967767
 30
0.0
 11
6.949097
 21
8.716864
 31
0.0
  0
LINE
  8
0
 62
     0
 10
5.2
 20
7.144544
 30
0.0
 11
6.903266
 21
8.84781
 31
0.0
  0
LINE
  8
0
 62
     0
 10
5.2
 20
7.32132
 30
0.0
 11
6.857435
 21
8.978756
 31
0.0
  0
LINE
  8
0
 62
     0
 10
5.2
 20
7.498097
 30
0.0
 11
6.811604
 21
9.109702
 31
0.0
  0
LINE
  8
0
 62
     0
 10
5.2
 20
7.674874
 30
0.0
 11
6.765773
 21
9.240647
 31
0.0
  0
LINE
  8
0
 62
     0
 10
5.2
 20
7.85165
 30
0.0
 11
6.719942
 21
9.371593
 31
0.0
  0
LINE
  8
0
 62
     0
 10
5.2
 20
8.028427
 30
0.0
 11
6.674111
 21
9.502539
 31
0.0
  0
LINE
  8
0
 62
     0
 10
5.2
 20
8.205204
 30
0.0
 11
6.62828
 21
9.633484
 31
0.0
  0
LINE
  8
0
 62
     0
 10
5.2
 20
8.381981
 30
0.0
 11
6.582449
 21
9.76443
 31
0.0
  0
LINE
  8
0
 62
     0
 10
5.2
 20
8.558757
 30
0.0
 11
6.536619
 21
9.895376
 31
0.0
  0
LINE
  8
0
 62
     0
 10
5.2
 20
8.735534
 30
0.0
 11
6.464466
 21
10.0
 31
0.0
  0
LINE
  8
0
 62
     0
 10
5.2
 20
8.912311
 30
0.0
 11
6.287689
 21
10.0
 31
0.0
  0
LINE
  8
0
 62
     0
 10
5.2
 20
9.089087
 30
0.0
 11
6.110913
 21
10.0
 31
0.0
  0
LINE
  8
0
 62
     0
 10
5.2
 20
9.265864
 30
0.0
 11
5.934136
 21
10.0
 31
0.0
  0
LINE
  8
0
 62
     0
 10
5.2
 20
9.442641
 30
0.0
 11
5.757359
 21
10.0
 31
0.0
  0
LINE
  8
0
 62
     0
 10
5.2
 20
9.619417
 30
0.0
 11
5.580583
 21
10.0
 31
0.0
  0
LINE
  8
0
 62
     0
 10
5.2
 20
9.796194
 30
0.0
 11
5.403806
 21
10.0
 31
0.0
  0
LINE
  8
0
 62
     0
 10
5.2
 20
9.972971
 30
0.0
 11
5.227029
 21
10.0
 31
0.0
  0
LINE
  8
0
 62
     0
 10
5.2
 20
5.907107
 30
0.0
 11
7.224083
 21
7.93119
 31
0.0
  0
LINE
  8
0
 62
     0
 10
5.2
 20
5.73033
 30
0.0
 11
7.269914
 21
7.800245
 31
0.0
  0
LINE
  8
0
 62
     0
 10
5.2
 20
5.553553
 30
0.0
 11
7.315745
 21
7.669299
 31
0.0
  0
LINE
  8
0
 62
     0
 10
5.2
 20
5.376777
 30
0.0
 11
7.361576
 21
7.538353
 31
0.0
  0
LINE
  8
0
 62
     0
 10
5.2
 20
5.2
 30
0.0
 11
7.407407
 21
7.407407
 31
0.0
  0
LINE
  8
0
 62
     0
 10
5.376777
 20
5.2
 30
0.0
 11
7.453238
 21
7.276462
 31
0.0
  0
LINE
  8
0
 62
     0
 10
5.553553
 20
5.2
 30
0.0
 11
7.499069
 21
7.145516
 31
0.0
  0
LINE
  8
0
 62
     0
 10
5.73033
 20
5.2
 30
0.0
 11
7.5449
 21
7.01457
 31
0.0
  0
LINE
  8
0
 62
     0
 10
5.907107
 20
5.2
 30
0.0
 11
7.590731
 21
6.883625
 31
0.0
  0
LINE
  8
0
 62
     0
 10
6.083883
 20
5.2
 30
0.0
 11
7.636562
 21
6.752679
 31
0.0
  0
LINE
  8
0
 62
     0
 10
6.26066
 20
5.2
 30
0.0
 11
7.682393
 21
6.621733
 31
0.0
  0
LINE
  8
0
 62
     0
 10
6.437437
 20
5.2
 30
0.0
 11
7.728224
 21
6.490788
 31
0.0
  0
LINE
  8
0
 62
     0
 10
6.614214
 20
5.2
 30
0.0
 11
7.774055
 21
6.359842
 31
0.0
  0
LINE
  8
0
 62
     0
 10
6.79099
 20
5.2
 30
0.0
 11
7.819886
 21
6.228896
 31
0.0
  0
LINE
  8
0
 62
     0
 10
6.967767
 20
5.2
 30
0.0
 11
7.865717
 21
6.09795
 31
0.0
  0
LINE
  8
0
 62
     0
 10
7.144544
 20
5.2
 30
0.0
 11
7.911548
 21
5.967005
 31
0.0
  0
LINE
  8
0
 62
     0
 10
7.32132
 20
5.2
 30
0.0
 11
7.957379
 21
5.836059
 31
0.0
  0
LINE
  8
0
 62
     0
 10
7.498097
 20
5.2
 30
0.0
 11
8.00321
 21
5.705113
 31
0.0
  0
LINE
  8
0
 62
     0
 10
7.674874
 20
5.2
 30
0.0
 11
8.049041
 21
5.574168
 31
0.0
  0
LINE
  8
0
 62
     0
 10
7.85165
 20
5.2
 30
0.0
 11
8.094872
 21
5.443222
 31
0.0
  0
LINE
  8
0
 62
     0
 10
8.028427
 20
5.2
 30
0.0
 11
8.140703
 21
5.312276
 31
0.0
  0
ENDBLK
  8
0
  0
BLOCK
  8
0
  2
*X10
 70
    65
 10
0.0
 20
0.0
 30
0.0
  3
*X
  0
LINE
  8
0
 62
     0
 10
0.0
 20
0.0
 30
0.0
 11
4.8
 21
4.8
 31
0.0
  0
LINE
  8
0
 62
     0
 10
0.095187
 20
0.271964
 30
0.0
 11
4.623223
 21
4.8
 31
0.0
  0
LINE
  8
0
 62
     0
 10
0.190375
 20
0.543928
 30
0.0
 11
4.446447
 21
4.8
 31
0.0
  0
LINE
  8
0
 62
     0
 10
0.285562
 20
0.815892
 30
0.0
 11
4.26967
 21
4.8
 31
0.0
  0
LINE
  8
0
 62
     0
 10
0.38075
 20
1.087857
 30
0.0
 11
4.092893
 21
4.8
 31
0.0
  0
LINE
  8
0
 62
     0
 10
0.475937
 20
1.359821
 30
0.0
 11
3.916117
 21
4.8
 31
0.0
  0
LINE
  8
0
 62
     0
 10
0.571125
 20
1.631785
 30
0.0
 11
3.73934
 21
4.8
 31
0.0
  0
LINE
  8
0
 62
     0
 10
0.666312
 20
1.903749
 30
0.0
 11
3.562563
 21
4.8
 31
0.0
  0
LINE
  8
0
 62
     0
 10
0.7615
 20
2.175713
 30
0.0
 11
3.385786
 21
4.8
 31
0.0
  0
LINE
  8
0
 62
     0
 10
0.856687
 20
2.447677
 30
0.0
 11
3.20901
 21
4.8
 31
0.0
  0
LINE
  8
0
 62
     0
 10
0.951875
 20
2.719641
 30
0.0
 11
3.032233
 21
4.8
 31
0.0
  0
LINE
  8
0
 62
     0
 10
1.047062
 20
2.991606
 30
0.0
 11
2.855456
 21
4.8
 31
0.0
  0
LINE
  8
0
 62
     0
 10
1.142249
 20
3.26357
 30
0.0
 11
2.67868
 21
4.8
 31
0.0
  0
LINE
  8
0
 62
     0
 10
1.237437
 20
3.535534
 30
0.0
 11
2.501903
 21
4.8
 31
0.0
  0
LINE
  8
0
 62
     0
 10
1.332624
 20
3.807498
 30
0.0
 11
2.325126
 21
4.8
 31
0.0
  0
LINE
  8
0
 62
     0
 10
1.427812
 20
4.079462
 30
0.0
 11
2.14835
 21
4.8
 31
0.0
  0
LINE
  8
0
 62
     0
 10
1.522999
 20
4.351426
 30
0.0
 11
1.971573
 21
4.8
 31
0.0
  0
LINE
  8
0
 62
     0
 10
1.618187
 20
4.62339
 30
0.0
 11
1.794796
 21
4.8
 31
0.0
  0
LINE
  8
0
 62
     0
 10
0.176777
 20
0.0
 30
0.0
 11
4.8
 21
4.623223
 31
0.0
  0
LINE
  8
0
 62
     0
 10
0.353553
 20
0.0
 30
0.0
 11
4.8
 21
4.446447
 31
0.0
  0
LINE
  8
0
 62
     0
 10
0.53033
 20
0.0
 30
0.0
 11
4.8
 21
4.26967
 31
0.0
  0
LINE
  8
0
 62
     0
 10
0.707107
 20
0.0
 30
0.0
 11
4.8
 21
4.092893
 31
0.0
  0
LINE
  8
0
 62
     0
 10
0.883883
 20
0.0
 30
0.0
 11
4.8
 21
3.916117
 31
0.0
  0
LINE
  8
0
 62
     0
 10
1.06066
 20
0.0
 30
0.0
 11
4.8
 21
3.73934
 31
0.0
  0
LINE
  8
0
 62
     0
 10
1.237437
 20
0.0
 30
0.0
 11
3.179842
 21
1.942405
 31
0.0
  0
LINE
  8
0
 62
     0
 10
3.237437
 20
2.0
 30
0.0
 11
4.8
 21
3.562563
 31
0.0
  0
LINE
  8
0
 62
     0
 10
1.414214
 20
0.0
 30
0.0
 11
3.084654
 21
1.670441
 31
0.0
  0
LINE
  8
0
 62
     0
 10
3.414214
 20
2.0
 30
0.0
 11
4.8
 21
3.385786
 31
0.0
  0
LINE
  8
0
 62
     0
 10
1.59099
 20
0.0
 30
0.0
 11
2.989467
 21
1.398477
 31
0.0
  0
LINE
  8
0
 62
     0
 10
3.59099
 20
2.0
 30
0.0
 11
4.8
 21
3.20901
 31
0.0
  0
LINE
  8
0
 62
     0
 10
1.767767
 20
0.0
 30
0.0
 11
2.894279
 21
1.126512
 31
0.0
  0
LINE
  8
0
 62
     0
 10
3.767767
 20
2.0
 30
0.0
 11
4.8
 21
3.032233
 31
0.0
  0
LINE
  8
0
 62
     0
 10
1.944544
 20
0.0
 30
0.0
 11
2.799092
 21
0.854548
 31
0.0
  0
LINE
  8
0
 62
     0
 10
3.944544
 20
2.0
 30
0.0
 11
4.8
 21
2.855456
 31
0.0
  0
LINE
  8
0
 62
     0
 10
2.12132
 20
0.0
 30
0.0
 11
2.703904
 21
0.582584
 31
0.0
  0
LINE
  8
0
 62
     0
 10
4.12132
 20
2.0
 30
0.0
 11
4.8
 21
2.67868
 31
0.0
  0
LINE
  8
0
 62
     0
 10
2.298097
 20
0.0
 30
0.0
 11
2.608717
 21
0.31062
 31
0.0
  0
LINE
  8
0
 62
     0
 10
4.298097
 20
2.0
 30
0.0
 11
4.8
 21
2.501903
 31
0.0
  0
LINE
  8
0
 62
     0
 10
2.474874
 20
0.0
 30
0.0
 11
2.51353
 21
0.038656
 31
0.0
  0
LINE
  8
0
 62
     0
 10
4.474874
 20
2.0
 30
0.0
 11
4.8
 21
2.325126
 31
0.0
  0
LINE
  8
0
 62
     0
 10
4.65165
 20
2.0
 30
0.0
 11
4.8
 21
2.14835
 31
0.0
  0
ENDBLK
  8
0
  0
BLOCK
  8
0
  2
*X11
 70
    65
 10
0.0
 20
0.0
 30
0.0
  3
*X
  0
LINE
  8
0
 62
     0
 10
6.884654
 20
1.75813
 30
0.0
 11
8.736506
 21
3.609982
 31
0.0
  0
LINE
  8
0
 62
     0
 10
6.838823
 20
1.889076
 30
0.0
 11
8.690675
 21
3.740928
 31
0.0
  0
LINE
  8
0
 62
     0
 10
6.772971
 20
2.0
 30
0.0
 11
8.644844
 21
3.871874
 31
0.0
  0
LINE
  8
0
 62
     0
 10
6.596194
 20
2.0
 30
0.0
 11
8.599013
 21
4.002819
 31
0.0
  0
LINE
  8
0
 62
     0
 10
6.419417
 20
2.0
 30
0.0
 11
8.553182
 21
4.133765
 31
0.0
  0
LINE
  8
0
 62
     0
 10
6.242641
 20
2.0
 30
0.0
 11
8.507351
 21
4.264711
 31
0.0
  0
LINE
  8
0
 62
     0
 10
6.065864
 20
2.0
 30
0.0
 11
8.46152
 21
4.395656
 31
0.0
  0
LINE
  8
0
 62
     0
 10
5.889087
 20
2.0
 30
0.0
 11
8.415689
 21
4.526602
 31
0.0
  0
LINE
  8
0
 62
     0
 10
5.712311
 20
2.0
 30
0.0
 11
8.369858
 21
4.657548
 31
0.0
  0
LINE
  8
0
 62
     0
 10
5.535534
 20
2.0
 30
0.0
 11
8.324027
 21
4.788493
 31
0.0
  0
LINE
  8
0
 62
     0
 10
5.358757
 20
2.0
 30
0.0
 11
8.158757
 21
4.8
 31
0.0
  0
LINE
  8
0
 62
     0
 10
5.2
 20
2.018019
 30
0.0
 11
7.981981
 21
4.8
 31
0.0
  0
LINE
  8
0
 62
     0
 10
5.2
 20
2.194796
 30
0.0
 11
7.805204
 21
4.8
 31
0.0
  0
LINE
  8
0
 62
     0
 10
5.2
 20
2.371573
 30
0.0
 11
7.628427
 21
4.8
 31
0.0
  0
LINE
  8
0
 62
     0
 10
5.2
 20
2.54835
 30
0.0
 11
7.45165
 21
4.8
 31
0.0
  0
LINE
  8
0
 62
     0
 10
5.2
 20
2.725126
 30
0.0
 11
7.274874
 21
4.8
 31
0.0
  0
LINE
  8
0
 62
     0
 10
5.2
 20
2.901903
 30
0.0
 11
7.098097
 21
4.8
 31
0.0
  0
LINE
  8
0
 62
     0
 10
5.2
 20
3.07868
 30
0.0
 11
6.92132
 21
4.8
 31
0.0
  0
LINE
  8
0
 62
     0
 10
5.2
 20
3.255456
 30
0.0
 11
6.744544
 21
4.8
 31
0.0
  0
LINE
  8
0
 62
     0
 10
5.2
 20
3.432233
 30
0.0
 11
6.567767
 21
4.8
 31
0.0
  0
LINE
  8
0
 62
     0
 10
5.2
 20
3.60901
 30
0.0
 11
6.39099
 21
4.8
 31
0.0
  0
LINE
  8
0
 62
     0
 10
5.2
 20
3.785786
 30
0.0
 11
6.214214
 21
4.8
 31
0.0
  0
LINE
  8
0
 62
     0
 10
5.2
 20
3.962563
 30
0.0
 11
6.037437
 21
4.8
 31
0.0
  0
LINE
  8
0
 62
     0
 10
5.2
 20
4.13934
 30
0.0
 11
5.86066
 21
4.8
 31
0.0
  0
LINE
  8
0
 62
     0
 10
5.2
 20
4.316117
 30
0.0
 11
5.683883
 21
4.8
 31
0.0
  0
LINE
  8
0
 62
     0
 10
5.2
 20
4.492893
 30
0.0
 11
5.507107
 21
4.8
 31
0.0
  0
LINE
  8
0
 62
     0
 10
5.2
 20
4.66967
 30
0.0
 11
5.33033
 21
4.8
 31
0.0
  0
LINE
  8
0
 62
     0
 10
6.930485
 20
1.627185
 30
0.0
 11
8.782337
 21
3.479036
 31
0.0
  0
LINE
  8
0
 62
     0
 10
6.976316
 20
1.496239
 30
0.0
 11
8.828168
 21
3.348091
 31
0.0
  0
LINE
  8
0
 62
     0
 10
7.022147
 20
1.365293
 30
0.0
 11
8.873999
 21
3.217145
 31
0.0
  0
LINE
  8
0
 62
     0
 10
7.067978
 20
1.234347
 30
0.0
 11
8.91983
 21
3.086199
 31
0.0
  0
LINE
  8
0
 62
     0
 10
7.113809
 20
1.103402
 30
0.0
 11
8.965661
 21
2.955254
 31
0.0
  0
LINE
  8
0
 62
     0
 10
7.15964
 20
0.972456
 30
0.0
 11
9.011492
 21
2.824308
 31
0.0
  0
LINE
  8
0
 62
     0
 10
7.205471
 20
0.84151
 30
0.0
 11
9.057323
 21
2.693362
 31
0.0
  0
LINE
  8
0
 62
     0
 10
7.251302
 20
0.710565
 30
0.0
 11
9.103154
 21
2.562416
 31
0.0
  0
LINE
  8
0
 62
     0
 10
7.297133
 20
0.579619
 30
0.0
 11
9.148985
 21
2.431471
 31
0.0
  0
LINE
  8
0
 62
     0
 10
7.342964
 20
0.448673
 30
0.0
 11
9.194816
 21
2.300525
 31
0.0
  0
LINE
  8
0
 62
     0
 10
7.388795
 20
0.317728
 30
0.0
 11
9.240647
 21
2.169579
 31
0.0
  0
LINE
  8
0
 62
     0
 10
7.434626
 20
0.186782
 30
0.0
 11
9.286478
 21
2.038634
 31
0.0
  0
LINE
  8
0
 62
     0
 10
7.480457
 20
0.055836
 30
0.0
 11
9.332309
 21
1.907688
 31
0.0
  0
LINE
  8
0
 62
     0
 10
7.601398
 20
0.0
 30
0.0
 11
9.37814
 21
1.776742
 31
0.0
  0
LINE
  8
0
 62
     0
 10
7.778175
 20
0.0
 30
0.0
 11
9.423971
 21
1.645797
 31
0.0
  0
LINE
  8
0
 62
     0
 10
7.954951
 20
0.0
 30
0.0
 11
9.469802
 21
1.514851
 31
0.0
  0
LINE
  8
0
 62
     0
 10
8.131728
 20
0.0
 30
0.0
 11
9.515633
 21
1.383905
 31
0.0
  0
LINE
  8
0
 62
     0
 10
8.308505
 20
0.0
 30
0.0
 11
9.561464
 21
1.252959
 31
0.0
  0
LINE
  8
0
 62
     0
 10
8.485281
 20
0.0
 30
0.0
 11
9.607295
 21
1.122014
 31
0.0
  0
LINE
  8
0
 62
     0
 10
8.662058
 20
0.0
 30
0.0
 11
9.653126
 21
0.991068
 31
0.0
  0
LINE
  8
0
 62
     0
 10
8.838835
 20
0.0
 30
0.0
 11
9.698957
 21
0.860122
 31
0.0
  0
LINE
  8
0
 62
     0
 10
9.015611
 20
0.0
 30
0.0
 11
9.744788
 21
0.729177
 31
0.0
  0
LINE
  8
0
 62
     0
 10
9.192388
 20
0.0
 30
0.0
 11
9.790619
 21
0.598231
 31
0.0
  0
LINE
  8
0
 62
     0
 10
9.369165
 20
0.0
 30
0.0
 11
9.83645
 21
0.467285
 31
0.0
  0
LINE
  8
0
 62
     0
 10
9.545942
 20
0.0
 30
0.0
 11
9.882281
 21
0.33634
 31
0.0
  0
LINE
  8
0
 62
     0
 10
9.722718
 20
0.0
 30
0.0
 11
9.928112
 21
0.205394
 31
0.0
  0
LINE
  8
0
 62
     0
 10
9.899495
 20
0.0
 30
0.0
 11
9.973943
 21
0.074448
 31
0.0
  0
ENDBLK
  8
0
  0
BLOCK
  8
0
  2
*X12
 70
    65
 10
0.0
 20
0.0
 30
0.0
  3
*X
  0
LINE
  8
0
 62
     0
 10
10.7
 20
6.280583
 30
0.0
 11
13.5
 21
9.080583
 31
0.0
  0
LINE
  8
0
 62
     0
 10
10.7
 20
6.457359
 30
0.0
 11
13.5
 21
9.257359
 31
0.0
  0
LINE
  8
0
 62
     0
 10
10.7
 20
6.634136
 30
0.0
 11
13.5
 21
9.434136
 31
0.0
  0
LINE
  8
0
 62
     0
 10
10.7
 20
6.810913
 30
0.0
 11
13.5
 21
9.610913
 31
0.0
  0
LINE
  8
0
 62
     0
 10
10.7
 20
6.987689
 30
0.0
 11
13.5
 21
9.787689
 31
0.0
  0
LINE
  8
0
 62
     0
 10
10.7
 20
7.164466
 30
0.0
 11
13.5
 21
9.964466
 31
0.0
  0
LINE
  8
0
 62
     0
 10
10.7
 20
7.341243
 30
0.0
 11
13.358757
 21
10.0
 31
0.0
  0
LINE
  8
0
 62
     0
 10
10.7
 20
7.518019
 30
0.0
 11
13.181981
 21
10.0
 31
0.0
  0
LINE
  8
0
 62
     0
 10
10.7
 20
7.694796
 30
0.0
 11
13.005204
 21
10.0
 31
0.0
  0
LINE
  8
0
 62
     0
 10
10.7
 20
7.871573
 30
0.0
 11
12.828427
 21
10.0
 31
0.0
  0
LINE
  8
0
 62
     0
 10
10.7
 20
8.04835
 30
0.0
 11
12.65165
 21
10.0
 31
0.0
  0
LINE
  8
0
 62
     0
 10
10.7
 20
8.225126
 30
0.0
 11
12.474874
 21
10.0
 31
0.0
  0
LINE
  8
0
 62
     0
 10
10.7
 20
8.401903
 30
0.0
 11
12.298097
 21
10.0
 31
0.0
  0
LINE
  8
0
 62
     0
 10
10.7
 20
8.57868
 30
0.0
 11
12.12132
 21
10.0
 31
0.0
  0
LINE
  8
0
 62
     0
 10
10.7
 20
8.755456
 30
0.0
 11
11.944544
 21
10.0
 31
0.0
  0
LINE
  8
0
 62
     0
 10
10.7
 20
8.932233
 30
0.0
 11
11.767767
 21
10.0
 31
0.0
  0
LINE
  8
0
 62
     0
 10
10.7
 20
9.10901
 30
0.0
 11
11.59099
 21
10.0
 31
0.0
  0
LINE
  8
0
 62
     0
 10
10.7
 20
9.285786
 30
0.0
 11
11.414214
 21
10.0
 31
0.0
  0
LINE
  8
0
 62
     0
 10
10.7
 20
9.462563
 30
0.0
 11
11.237437
 21
10.0
 31
0.0
  0
LINE
  8
0
 62
     0
 10
10.7
 20
9.63934
 30
0.0
 11
11.06066
 21
10.0
 31
0.0
  0
LINE
  8
0
 62
     0
 10
10.7
 20
9.816117
 30
0.0
 11
10.883883
 21
10.0
 31
0.0
  0
LINE
  8
0
 62
     0
 10
10.7
 20
9.992893
 30
0.0
 11
10.707107
 21
10.0
 31
0.0
  0
LINE
  8
0
 62
     0
 10
10.7
 20
6.103806
 30
0.0
 11
13.5
 21
8.903806
 31
0.0
  0
LINE
  8
0
 62
     0
 10
10.7
 20
5.927029
 30
0.0
 11
13.5
 21
8.727029
 31
0.0
  0
LINE
  8
0
 62
     0
 10
10.7
 20
5.750253
 30
0.0
 11
13.5
 21
8.550253
 31
0.0
  0
LINE
  8
0
 62
     0
 10
10.7
 20
5.573476
 30
0.0
 11
13.5
 21
8.373476
 31
0.0
  0
LINE
  8
0
 62
     0
 10
10.7
 20
5.396699
 30
0.0
 11
13.5
 21
8.196699
 31
0.0
  0
LINE
  8
0
 62
     0
 10
10.7
 20
5.219922
 30
0.0
 11
13.5
 21
8.019922
 31
0.0
  0
LINE
  8
0
 62
     0
 10
10.856854
 20
5.2
 30
0.0
 11
13.5
 21
7.843146
 31
0.0
  0
LINE
  8
0
 62
     0
 10
11.033631
 20
5.2
 30
0.0
 11
13.5
 21
7.666369
 31
0.0
  0
LINE
  8
0
 62
     0
 10
11.210408
 20
5.2
 30
0.0
 11
13.5
 21
7.489592
 31
0.0
  0
LINE
  8
0
 62
     0
 10
11.387184
 20
5.2
 30
0.0
 11
13.5
 21
7.312816
 31
0.0
  0
LINE
  8
0
 62
     0
 10
11.563961
 20
5.2
 30
0.0
 11
13.5
 21
7.136039
 31
0.0
  0
LINE
  8
0
 62
     0
 10
11.740738
 20
5.2
 30
0.0
 11
13.5
 21
6.959262
 31
0.0
  0
LINE
  8
0
 62
     0
 10
11.917514
 20
5.2
 30
0.0
 11
13.5
 21
6.782486
 31
0.0
  0
LINE
  8
0
 62
     0
 10
12.094291
 20
5.2
 30
0.0
 11
13.5
 21
6.605709
 31
0.0
  0
LINE
  8
0
 62
     0
 10
12.271068
 20
5.2
 30
0.0
 11
13.5
 21
6.428932
 31
0.0
  0
LINE
  8
0
 62
     0
 10
12.447845
 20
5.2
 30
0.0
 11
13.5
 21
6.252155
 31
0.0
  0
LINE
  8
0
 62
     0
 10
12.624621
 20
5.2
 30
0.0
 11
13.5
 21
6.075379
 31
0.0
  0
LINE
  8
0
 62
     0
 10
12.801398
 20
5.2
 30
0.0
 11
13.5
 21
5.898602
 31
0.0
  0
LINE
  8
0
 62
     0
 10
12.978175
 20
5.2
 30
0.0
 11
13.5
 21
5.721825
 31
0.0
  0
LINE
  8
0
 62
     0
 10
13.154951
 20
5.2
 30
0.0
 11
13.5
 21
5.545049
 31
0.0
  0
LINE
  8
0
 62
     0
 10
13.331728
 20
5.2
 30
0.0
 11
13.5
 21
5.368272
 31
0.0
  0
ENDBLK
  8
0
  0
BLOCK
  8
0
  2
*X13
 70
    65
 10
0.0
 20
0.0
 30
0.0
  3
*X
  0
LINE
  8
0
 62
     0
 10
10.7
 20
1.154058
 30
0.0
 11
13.5
 21
3.954058
 31
0.0
  0
LINE
  8
0
 62
     0
 10
10.7
 20
1.330835
 30
0.0
 11
13.5
 21
4.130835
 31
0.0
  0
LINE
  8
0
 62
     0
 10
10.7
 20
1.507612
 30
0.0
 11
13.5
 21
4.307612
 31
0.0
  0
LINE
  8
0
 62
     0
 10
10.7
 20
1.684389
 30
0.0
 11
13.5
 21
4.484389
 31
0.0
  0
LINE
  8
0
 62
     0
 10
10.7
 20
1.861165
 30
0.0
 11
13.5
 21
4.661165
 31
0.0
  0
LINE
  8
0
 62
     0
 10
10.7
 20
2.037942
 30
0.0
 11
13.462058
 21
4.8
 31
0.0
  0
LINE
  8
0
 62
     0
 10
10.7
 20
2.214719
 30
0.0
 11
13.285281
 21
4.8
 31
0.0
  0
LINE
  8
0
 62
     0
 10
10.7
 20
2.391495
 30
0.0
 11
13.108505
 21
4.8
 31
0.0
  0
LINE
  8
0
 62
     0
 10
10.7
 20
2.568272
 30
0.0
 11
12.931728
 21
4.8
 31
0.0
  0
LINE
  8
0
 62
     0
 10
10.7
 20
2.745049
 30
0.0
 11
12.754951
 21
4.8
 31
0.0
  0
LINE
  8
0
 62
     0
 10
10.7
 20
2.921825
 30
0.0
 11
12.578175
 21
4.8
 31
0.0
  0
LINE
  8
0
 62
     0
 10
10.7
 20
3.098602
 30
0.0
 11
12.401398
 21
4.8
 31
0.0
  0
LINE
  8
0
 62
     0
 10
10.7
 20
3.275379
 30
0.0
 11
12.224621
 21
4.8
 31
0.0
  0
LINE
  8
0
 62
     0
 10
10.7
 20
3.452155
 30
0.0
 11
12.047845
 21
4.8
 31
0.0
  0
LINE
  8
0
 62
     0
 10
10.7
 20
3.628932
 30
0.0
 11
11.871068
 21
4.8
 31
0.0
  0
LINE
  8
0
 62
     0
 10
10.7
 20
3.805709
 30
0.0
 11
11.694291
 21
4.8
 31
0.0
  0
LINE
  8
0
 62
     0
 10
10.7
 20
3.982486
 30
0.0
 11
11.517514
 21
4.8
 31
0.0
  0
LINE
  8
0
 62
     0
 10
10.7
 20
4.159262
 30
0.0
 11
11.340738
 21
4.8
 31
0.0
  0
LINE
  8
0
 62
     0
 10
10.7
 20
4.336039
 30
0.0
 11
11.163961
 21
4.8
 31
0.0
  0
LINE
  8
0
 62
     0
 10
10.7
 20
4.512816
 30
0.0
 11
10.987184
 21
4.8
 31
0.0
  0
LINE
  8
0
 62
     0
 10
10.7
 20
4.689592
 30
0.0
 11
10.810408
 21
4.8
 31
0.0
  0
LINE
  8
0
 62
     0
 10
10.7
 20
0.977282
 30
0.0
 11
13.5
 21
3.777282
 31
0.0
  0
LINE
  8
0
 62
     0
 10
10.7
 20
0.800505
 30
0.0
 11
13.5
 21
3.600505
 31
0.0
  0
LINE
  8
0
 62
     0
 10
10.7
 20
0.623728
 30
0.0
 11
13.5
 21
3.423728
 31
0.0
  0
LINE
  8
0
 62
     0
 10
10.7
 20
0.446952
 30
0.0
 11
13.5
 21
3.246952
 31
0.0
  0
LINE
  8
0
 62
     0
 10
10.7
 20
0.270175
 30
0.0
 11
13.5
 21
3.070175
 31
0.0
  0
LINE
  8
0
 62
     0
 10
10.7
 20
0.093398
 30
0.0
 11
13.5
 21
2.893398
 31
0.0
  0
LINE
  8
0
 62
     0
 10
10.783378
 20
0.0
 30
0.0
 11
13.5
 21
2.716622
 31
0.0
  0
LINE
  8
0
 62
     0
 10
10.960155
 20
0.0
 30
0.0
 11
13.5
 21
2.539845
 31
0.0
  0
LINE
  8
0
 62
     0
 10
11.136932
 20
0.0
 30
0.0
 11
13.5
 21
2.363068
 31
0.0
  0
LINE
  8
0
 62
     0
 10
11.313708
 20
0.0
 30
0.0
 11
13.5
 21
2.186292
 31
0.0
  0
LINE
  8
0
 62
     0
 10
11.490485
 20
0.0
 30
0.0
 11
13.5
 21
2.009515
 31
0.0
  0
LINE
  8
0
 62
     0
 10
11.667262
 20
0.0
 30
0.0
 11
13.5
 21
1.832738
 31
0.0
  0
LINE
  8
0
 62
     0
 10
11.844039
 20
0.0
 30
0.0
 11
13.5
 21
1.655961
 31
0.0
  0
LINE
  8
0
 62
     0
 10
12.020815
 20
0.0
 30
0.0
 11
13.5
 21
1.479185
 31
0.0
  0
LINE
  8
0
 62
     0
 10
12.197592
 20
0.0
 30
0.0
 11
13.5
 21
1.302408
 31
0.0
  0
LINE
  8
0
 62
     0
 10
12.374369
 20
0.0
 30
0.0
 11
13.5
 21
1.125631
 31
0.0
  0
LINE
  8
0
 62
     0
 10
12.551145
 20
0.0
 30
0.0
 11
13.5
 21
0.948855
 31
0.0
  0
LINE
  8
0
 62
     0
 10
12.727922
 20
0.0
 30
0.0
 11
13.5
 21
0.772078
 31
0.0
  0
LINE
  8
0
 62
     0
 10
12.904699
 20
0.0
 30
0.0
 11
13.5
 21
0.595301
 31
0.0
  0
LINE
  8
0
 62
     0
 10
13.081475
 20
0.0
 30
0.0
 11
13.5
 21
0.418525
 31
0.0
  0
LINE
  8
0
 62
     0
 10
13.258252
 20
0.0
 30
0.0
 11
13.5
 21
0.241748
 31
0.0
  0
LINE
  8
0
 62
     0
 10
13.435029
 20
0.0
 30
0.0
 11
13.5
 21
0.064971
 31
0.0
  0
ENDBLK
  8
0
  0
BLOCK
  8
0
  2
*X14
 70
    65
 10
0.0
 20
0.0
 30
0.0
  3
*X
  0
LINE
  8
0
 62
     0
 10
13.9
 20
6.298602
 30
0.0
 11
16.582995
 21
8.981597
 31
0.0
  0
LINE
  8
0
 62
     0
 10
13.9
 20
6.475379
 30
0.0
 11
16.510503
 21
9.085882
 31
0.0
  0
LINE
  8
0
 62
     0
 10
13.9
 20
6.652155
 30
0.0
 11
16.432927
 21
9.185083
 31
0.0
  0
LINE
  8
0
 62
     0
 10
13.9
 20
6.828932
 30
0.0
 11
16.350372
 21
9.279304
 31
0.0
  0
LINE
  8
0
 62
     0
 10
13.9
 20
7.005709
 30
0.0
 11
16.262892
 21
9.368601
 31
0.0
  0
LINE
  8
0
 62
     0
 10
13.9
 20
7.182486
 30
0.0
 11
16.170495
 21
9.452981
 31
0.0
  0
LINE
  8
0
 62
     0
 10
13.9
 20
7.359262
 30
0.0
 11
16.073145
 21
9.532407
 31
0.0
  0
LINE
  8
0
 62
     0
 10
13.9
 20
7.536039
 30
0.0
 11
15.970755
 21
9.606794
 31
0.0
  0
LINE
  8
0
 62
     0
 10
13.9
 20
7.712816
 30
0.0
 11
15.863189
 21
9.676004
 31
0.0
  0
LINE
  8
0
 62
     0
 10
13.9
 20
7.889592
 30
0.0
 11
15.75025
 21
9.739843
 31
0.0
  0
LINE
  8
0
 62
     0
 10
13.9
 20
8.066369
 30
0.0
 11
15.631675
 21
9.798044
 31
0.0
  0
LINE
  8
0
 62
     0
 10
13.9
 20
8.243146
 30
0.0
 11
15.50711
 21
9.850256
 31
0.0
  0
LINE
  8
0
 62
     0
 10
13.9
 20
8.419922
 30
0.0
 11
15.376096
 21
9.896018
 31
0.0
  0
LINE
  8
0
 62
     0
 10
13.9
 20
8.596699
 30
0.0
 11
15.238027
 21
9.934726
 31
0.0
  0
LINE
  8
0
 62
     0
 10
13.9
 20
8.773476
 30
0.0
 11
15.092096
 21
9.965572
 31
0.0
  0
LINE
  8
0
 62
     0
 10
13.9
 20
8.950253
 30
0.0
 11
14.937209
 21
9.987461
 31
0.0
  0
LINE
  8
0
 62
     0
 10
13.9
 20
9.127029
 30
0.0
 11
14.771824
 21
9.998853
 31
0.0
  0
LINE
  8
0
 62
     0
 10
13.9
 20
9.303806
 30
0.0
 11
14.596193
 21
9.999999
 31
0.0
  0
LINE
  8
0
 62
     0
 10
13.9
 20
9.480583
 30
0.0
 11
14.419417
 21
9.999999
 31
0.0
  0
LINE
  8
0
 62
     0
 10
13.9
 20
9.657359
 30
0.0
 11
14.24264
 21
10.0
 31
0.0
  0
LINE
  8
0
 62
     0
 10
13.9
 20
9.834136
 30
0.0
 11
14.065864
 21
10.0
 31
0.0
  0
LINE
  8
0
 62
     0
 10
13.9
 20
6.121825
 30
0.0
 11
16.650245
 21
8.872071
 31
0.0
  0
LINE
  8
0
 62
     0
 10
13.9
 20
5.945049
 30
0.0
 11
16.712035
 21
8.757083
 31
0.0
  0
LINE
  8
0
 62
     0
 10
13.9
 20
5.768272
 30
0.0
 11
16.768067
 21
8.636339
 31
0.0
  0
LINE
  8
0
 62
     0
 10
13.9
 20
5.591495
 30
0.0
 11
16.817955
 21
8.509451
 31
0.0
  0
LINE
  8
0
 62
     0
 10
13.9
 20
5.414719
 30
0.0
 11
16.861189
 21
8.375908
 31
0.0
  0
LINE
  8
0
 62
     0
 10
13.9
 20
5.237942
 30
0.0
 11
16.897097
 21
8.235039
 31
0.0
  0
LINE
  8
0
 62
     0
 10
14.038835
 20
5.2
 30
0.0
 11
16.924779
 21
8.085944
 31
0.0
  0
LINE
  8
0
 62
     0
 10
14.215611
 20
5.2
 30
0.0
 11
16.942997
 21
7.927385
 31
0.0
  0
LINE
  8
0
 62
     0
 10
14.392388
 20
5.2
 30
0.0
 11
16.949987
 21
7.757599
 31
0.0
  0
LINE
  8
0
 62
     0
 10
14.569165
 20
5.2
 30
0.0
 11
16.943101
 21
7.573936
 31
0.0
  0
LINE
  8
0
 62
     0
 10
14.745942
 20
5.2
 30
0.0
 11
16.918037
 21
7.372095
 31
0.0
  0
LINE
  8
0
 62
     0
 10
14.922718
 20
5.2
 30
0.0
 11
16.866909
 21
7.144191
 31
0.0
  0
LINE
  8
0
 62
     0
 10
15.099495
 20
5.2
 30
0.0
 11
16.771715
 21
6.87222
 31
0.0
  0
LINE
  8
0
 62
     0
 10
15.276272
 20
5.2
 30
0.0
 11
15.847951
 21
5.77168
 31
0.0
  0
LINE
  8
0
 62
     0
 10
15.96673
 20
5.890458
 30
0.0
 11
16.559542
 21
6.48327
 31
0.0
  0
LINE
  8
0
 62
     0
 10
15.453048
 20
5.2
 30
0.0
 11
15.970661
 21
5.717613
 31
0.0
  0
LINE
  8
0
 62
     0
 10
15.629825
 20
5.2
 30
0.0
 11
16.088934
 21
5.659109
 31
0.0
  0
LINE
  8
0
 62
     0
 10
15.806602
 20
5.2
 30
0.0
 11
16.202964
 21
5.596363
 31
0.0
  0
LINE
  8
0
 62
     0
 10
15.983378
 20
5.2
 30
0.0
 11
16.312909
 21
5.529531
 31
0.0
  0
LINE
  8
0
 62
     0
 10
16.160155
 20
5.2
 30
0.0
 11
16.418895
 21
5.45874
 31
0.0
  0
LINE
  8
0
 62
     0
 10
16.336932
 20
5.2
 30
0.0
 11
16.521021
 21
5.384089
 31
0.0
  0
LINE
  8
0
 62
     0
 10
16.513708
 20
5.2
 30
0.0
 11
16.619363
 21
5.305655
 31
0.0
  0
LINE
  8
0
 62
     0
 10
16.690485
 20
5.2
 30
0.0
 11
16.713975
 21
5.22349
 31
0.0
  0
ENDBLK
  8
0
  0
BLOCK
  8
0
  2
*X15
 70
    65
 10
0.0
 20
0.0
 30
0.0
  3
*X
  0
LINE
  8
0
 62
     0
 10
13.9
 20
0.818525
 30
0.0
 11
17.39645
 21
4.314974
 31
0.0
  0
LINE
  8
0
 62
     0
 10
13.9
 20
0.995301
 30
0.0
 11
17.336354
 21
4.431655
 31
0.0
  0
LINE
  8
0
 62
     0
 10
13.9
 20
1.172078
 30
0.0
 11
17.272078
 21
4.544156
 31
0.0
  0
LINE
  8
0
 62
     0
 10
13.9
 20
1.348855
 30
0.0
 11
17.203766
 21
4.652621
 31
0.0
  0
LINE
  8
0
 62
     0
 10
13.9
 20
1.525631
 30
0.0
 11
17.131535
 21
4.757167
 31
0.0
  0
LINE
  8
0
 62
     0
 10
13.9
 20
1.702408
 30
0.0
 11
16.997592
 21
4.8
 31
0.0
  0
LINE
  8
0
 62
     0
 10
13.9
 20
1.879185
 30
0.0
 11
16.820815
 21
4.8
 31
0.0
  0
LINE
  8
0
 62
     0
 10
13.9
 20
2.055961
 30
0.0
 11
16.644039
 21
4.8
 31
0.0
  0
LINE
  8
0
 62
     0
 10
13.9
 20
2.232738
 30
0.0
 11
16.467262
 21
4.8
 31
0.0
  0
LINE
  8
0
 62
     0
 10
13.9
 20
2.409515
 30
0.0
 11
16.290485
 21
4.8
 31
0.0
  0
LINE
  8
0
 62
     0
 10
13.9
 20
2.586292
 30
0.0
 11
16.113708
 21
4.8
 31
0.0
  0
LINE
  8
0
 62
     0
 10
13.9
 20
2.763068
 30
0.0
 11
15.936932
 21
4.8
 31
0.0
  0
LINE
  8
0
 62
     0
 10
13.9
 20
2.939845
 30
0.0
 11
15.760155
 21
4.8
 31
0.0
  0
LINE
  8
0
 62
     0
 10
13.9
 20
3.116622
 30
0.0
 11
15.583378
 21
4.8
 31
0.0
  0
LINE
  8
0
 62
     0
 10
13.9
 20
3.293398
 30
0.0
 11
15.406602
 21
4.8
 31
0.0
  0
LINE
  8
0
 62
     0
 10
13.9
 20
3.470175
 30
0.0
 11
15.229825
 21
4.8
 31
0.0
  0
LINE
  8
0
 62
     0
 10
13.9
 20
3.646952
 30
0.0
 11
15.053048
 21
4.8
 31
0.0
  0
LINE
  8
0
 62
     0
 10
13.9
 20
3.823728
 30
0.0
 11
14.876272
 21
4.8
 31
0.0
  0
LINE
  8
0
 62
     0
 10
13.9
 20
4.000505
 30
0.0
 11
14.699495
 21
4.8
 31
0.0
  0
LINE
  8
0
 62
     0
 10
13.9
 20
4.177282
 30
0.0
 11
14.522718
 21
4.8
 31
0.0
  0
LINE
  8
0
 62
     0
 10
13.9
 20
4.354058
 30
0.0
 11
14.345942
 21
4.8
 31
0.0
  0
LINE
  8
0
 62
     0
 10
13.9
 20
4.530835
 30
0.0
 11
14.169165
 21
4.8
 31
0.0
  0
LINE
  8
0
 62
     0
 10
13.9
 20
4.707612
 30
0.0
 11
13.992388
 21
4.8
 31
0.0
  0
LINE
  8
0
 62
     0
 10
13.9
 20
0.641748
 30
0.0
 11
17.452185
 21
4.193933
 31
0.0
  0
LINE
  8
0
 62
     0
 10
13.9
 20
0.464971
 30
0.0
 11
17.503339
 21
4.068311
 31
0.0
  0
LINE
  8
0
 62
     0
 10
13.9
 20
0.288194
 30
0.0
 11
17.549642
 21
3.937837
 31
0.0
  0
LINE
  8
0
 62
     0
 10
13.9
 20
0.111418
 30
0.0
 11
17.590762
 21
3.80218
 31
0.0
  0
LINE
  8
0
 62
     0
 10
13.965359
 20
0.0
 30
0.0
 11
17.62629
 21
3.660931
 31
0.0
  0
LINE
  8
0
 62
     0
 10
14.142136
 20
0.000001
 30
0.0
 11
17.655713
 21
3.513577
 31
0.0
  0
LINE
  8
0
 62
     0
 10
14.318913
 20
0.000001
 30
0.0
 11
17.678385
 21
3.359473
 31
0.0
  0
LINE
  8
0
 62
     0
 10
14.49569
 20
0.000001
 30
0.0
 11
17.693473
 21
3.197784
 31
0.0
  0
LINE
  8
0
 62
     0
 10
14.672467
 20
0.000002
 30
0.0
 11
17.699875
 21
3.027409
 31
0.0
  0
LINE
  8
0
 62
     0
 10
14.853154
 20
0.003912
 30
0.0
 11
17.696088
 21
2.846846
 31
0.0
  0
LINE
  8
0
 62
     0
 10
15.046044
 20
0.020025
 30
0.0
 11
17.679975
 21
2.653956
 31
0.0
  0
LINE
  8
0
 62
     0
 10
15.254483
 20
0.051687
 30
0.0
 11
17.648313
 21
2.445517
 31
0.0
  0
LINE
  8
0
 62
     0
 10
15.483762
 20
0.10419
 30
0.0
 11
17.59581
 21
2.216238
 31
0.0
  0
LINE
  8
0
 62
     0
 10
15.743786
 20
0.187437
 30
0.0
 11
17.512563
 21
1.956214
 31
0.0
  0
LINE
  8
0
 62
     0
 10
16.058176
 20
0.32505
 30
0.0
 11
17.37495
 21
1.641824
 31
0.0
  0
LINE
  8
0
 62
     0
 10
16.54193
 20
0.632028
 30
0.0
 11
17.067972
 21
1.15807
 31
0.0
  0
ENDBLK
  8
0
  0
BLOCK
  8
0
  2
BLC15
 70
     0
 10
0.0
 20
0.0
 30
0.0
  3
BLC15
  0
LINE
  8
0
  6
CONTINUOUS
 10
0.142084
 20
3.490022
 30
0.0
 11
0.142084
 21
0.844365
 31
0.0
  0
LINE
  8
0
  6
CONTINUOUS
 10
-0.461611
 20
-0.937188
 30
0.0
 11
0.745779
 21
-0.937188
 31
0.0
  0
LINE
  8
0
  6
CONTINUOUS
 10
-0.894108
 20
-0.049675
 30
0.0
 11
1.169267
 21
-0.049675
 31
0.0
  0
LINE
  8
0
  6
CONTINUOUS
 10
-1.389679
 20
0.844365
 30
0.0
 11
1.673848
 21
0.844365
 31
0.0
  0
ENDBLK
  8
0
  0
BLOCK
  8
0
  2
BLC55
 70
    64
 10
0.0
 20
0.0
 30
0.0
  3
BLC55
  0
INSERT
  8
SWEDEN
  6
CENTER
  2
BLC5
 10
0.087066
 20
-0.756831
 30
0.0
 41
0.6
 42
0.6
 43
0.6
  0
ENDBLK
  8
0
  0
BLOCK
  8
0
  2
BLC5
 70
    64
 10
0.0
 20
0.0
 30
0.0
  3
BLC5
  0
TEXT
  8
0
 10
-3.043704
 20
-6.645912
 30
0.0
 40
3.2
  1
PE
  0
LINE
  8
0
 10
-2.946392
 20
1.181176
 30
0.0
 11
2.135458
 21
1.181176
 31
0.0
  0
LINE
  8
0
 10
-0.48656
 20
2.238362
 30
0.0
 11
-0.48656
 21
6.930438
 31
0.0
  0
LINE
  8
0
 10
-1.973271
 20
0.065258
 30
0.0
 11
1.225411
 21
0.065258
 31
0.0
  0
LINE
  8
0
 10
2.685091
 20
2.238362
 30
0.0
 11
1.68494
 21
2.238362
 31
0.0
  0
LINE
  8
0
 10
-3.505035
 20
2.238362
 30
0.0
 11
2.649049
 21
2.238362
 31
0.0
  0
CIRCLE
  8
0
 10
-0.47755
 20
1.422632
 30
0.0
 40
3.804563
  0
ENDBLK
  8
0
  0
BLOCK
  8
0
  2
BLC43
 70
    64
 10
0.0
 20
0.0
 30
0.0
  3
BLC43
  0
TEXT
  8
SWEDEN2
  6
CONTINUOUS
 10
-0.646672
 20
-0.986365
 30
0.0
 40
2.0
  1
+
  0
ENDBLK
  8
0
  0
BLOCK
  8
0
  2
BLC42
 70
    64
 10
0.0
 20
0.0
 30
0.0
  3
BLC42
  0
TEXT
  8
SWEDEN2
  6
CONTINUOUS
 10
-0.655237
 20
-0.99442
 30
0.0
 40
2.0
  1
-
  0
ENDBLK
  8
0
  0
BLOCK
  8
0
  2
BLC44
 70
    64
 10
0.0
 20
0.0
 30
0.0
  3
BLC44
  0
LINE
  8
HEL035
 10
-2.520993
 20
1.697877
 30
0.0
 11
1.479007
 21
1.697877
 31
0.0
  0
INSERT
  8
HEL035
  2
WKU130
 10
-2.181043
 20
-0.027675
 30
0.0
 41
0.8
 42
0.8
 43
0.8
  0
ENDBLK
  8
0
  0
BLOCK
  8
0
  2
BLC25
 70
     0
 10
0.0
 20
0.0
 30
0.0
  3
BLC25
  0
TEXT
  8
0
  6
CONTINUOUS
 10
2.0
 20
30.666667
 30
0.0
 40
2.0
  1
1)
 11
2.0
 21
30.0
 31
0.0
 73
     1
  0
TEXT
  8
0
 10
6.0
 20
2.0
 30
0.0
 40
2.0
  1
7B    27     26
 11
6.0
 21
1.333333
 31
0.0
 73
     1
  0
TEXT
  8
0
 10
6.0
 20
5.333333
 30
0.0
 40
2.0
  1
5B     9      8
 11
6.0
 21
4.666667
 31
0.0
 73
     1
  0
TEXT
  8
0
 10
6.0
 20
8.666667
 30
0.0
 40
2.0
  1
3B     3      2
 11
6.0
 21
8.0
 31
0.0
 73
     1
  0
TEXT
  8
0
 10
32.0
 20
12.666667
 30
0.0
 40
2.0
  1
In=5A
 11
32.0
 21
12.0
 31
0.0
 73
     1
  0
TEXT
  8
0
 10
16.0
 20
12.666667
 30
0.0
 40
2.0
  1
In=1A 
 11
16.0
 21
12.0
 31
0.0
 73
     1
  0
TEXT
  8
0
 10
26.0
 20
18.666667
 30
0.0
 40
2.0
  1
108:
 11
26.0
 21
18.0
 31
0.0
 73
     1
  0
TEXT
  8
0
 10
6.0
 20
18.666667
 30
0.0
 40
2.0
  1
101:       
 11
6.0
 21
18.0
 31
0.0
 73
     1
  0
TEXT
  8
0
 10
6.0
 20
24.666667
 30
0.0
 40
2.0
  1
TERMINALS / UTTAG
 11
6.0
 21
24.0
 31
0.0
 73
     1
  0
LINE
  8
0
 10
0.0
 20
12.0
 30
0.0
 11
44.0
 21
12.0
 31
0.0
  0
LINE
  8
0
 10
28.0
 20
18.0
 30
0.0
 11
28.0
 21
0.0
 31
0.0
  0
LINE
  8
0
 10
14.0
 20
18.0
 30
0.0
 11
44.0
 21
18.0
 31
0.0
  0
LINE
  8
0
 10
14.0
 20
24.0
 30
0.0
 11
14.0
 21
0.0
 31
0.0
  0
LINE
  8
0
 10
0.0
 20
24.0
 30
0.0
 11
44.0
 21
24.0
 31
0.0
  0
LINE
  8
0
 10
44.0
 20
0.0
 30
0.0
 11
44.0
 21
30.0
 31
0.0
  0
LINE
  8
0
 10
0.0
 20
0.0
 30
0.0
 11
44.0
 21
0.0
 31
0.0
  0
LINE
  8
0
 10
0.0
 20
30.0
 30
0.0
 11
0.0
 21
0.0
 31
0.0
  0
LINE
  8
0
 10
44.0
 20
30.0
 30
0.0
 11
0.0
 21
30.0
 31
0.0
  0
ENDBLK
  8
0
  0
BLOCK
  8
0
  2
MAA
 70
    64
 10
0.0
 20
0.0
 30
0.0
  3
MAA
  0
LINE
  8
0
  6
CONTINUOUS
 10
-0.500718
 20
-2.587966
 30
0.0
 11
0.386169
 21
-2.587966
 31
0.0
  0
LINE
  8
0
  6
CONTINUOUS
 10
-0.831823
 20
-1.976333
 30
0.0
 11
0.752749
 21
-1.976333
 31
0.0
  0
LINE
  8
0
  6
CONTINUOUS
 10
-0.015887
 20
-1.35427
 30
0.0
 11
1.178454
 21
-1.35427
 31
0.0
  0
LINE
  8
0
  6
CONTINUOUS
 10
-1.210228
 20
-1.35427
 30
0.0
 11
-0.015887
 21
-1.35427
 31
0.0
  0
LINE
  8
0
  6
CONTINUOUS
 10
0.0
 20
0.0
 30
0.0
 11
0.0
 21
-1.35427
 31
0.0
  0
ENDBLK
  8
0
  0
BLOCK
  8
0
  2
B67
 70
     0
 10
0.0
 20
0.0
 30
0.0
  3
B67
  0
LINE
  8
BASE
  6
CONTINUOUS
 10
-1.897097
 20
-3.556254
 30
0.0
 11
-2.963522
 21
-2.489829
 31
0.0
  0
LINE
  8
BASE
  6
CONTINUOUS
 10
-2.963522
 20
-2.489829
 30
0.0
 11
-1.897097
 21
-1.423405
 31
0.0
  0
LINE
  8
BASE
  6
CONTINUOUS
 10
-1.897097
 20
-1.423405
 30
0.0
 11
-0.830672
 21
-2.489829
 31
0.0
  0
LINE
  8
BASE
  6
CONTINUOUS
 10
-0.830672
 20
-2.489829
 30
0.0
 11
-1.897097
 21
-3.556254
 31
0.0
  0
LINE
  8
BASE
  6
DASHED
 10
0.0
 20
0.0
 30
0.0
 11
-5.000117
 21
0.0
 31
0.0
  0
TEXT
  8
BASE
  6
DASHED
 10
-8.422045
 20
-3.481615
 30
0.0
 40
2.0
  1
14B
  0
LINE
  8
BASE
  6
DASHED
 10
-12.5
 20
0.0
 30
0.0
 11
-30.0
 21
0.0
 31
0.0
  0
TEXT
  8
BASE
  6
DASHED
 10
-12.5
 20
3.402046
 30
0.0
 40
2.0
  1
101
  0
TEXT
  8
BASE
  6
DASHED
 10
-18.160336
 20
-3.602839
 30
0.0
 40
2.0
  1
14A 
  0
INSERT
  8
0
  6
CONTINUOUS
  2
B37
 10
-12.5
 20
0.0
 30
0.0
 50
90.0
  0
ENDBLK
  8
0
  0
BLOCK
  8
0
  2
B37
 70
    64
 10
0.0
 20
0.0
 30
0.0
  3
B37
  0
LINE
  8
BASE
  6
CONTINUOUS
 10
-0.006589
 20
-6.018035
 30
0.0
 11
2.434804
 21
0.662841
 31
0.0
  0
LINE
  8
BASE
  6
CONTINUOUS
 10
0.0
 20
0.0
 30
0.0
 11
2.765661
 21
0.0
 31
0.0
  0
LINE
  8
BASE
  6
CONTINUOUS
 10
2.434804
 20
0.662841
 30
0.0
 11
1.549106
 21
1.107734
 31
0.0
  0
CIRCLE
  8
BASE
  6
CONTINUOUS
 10
0.0
 20
-6.758945
 30
0.0
 40
0.740939
  0
ENDBLK
  8
0
  0
BLOCK
  8
0
  2
B63
 70
     0
 10
0.0
 20
0.0
 30
0.0
  3
B63
  0
LINE
  8
BASE
  6
CONTINUOUS
 10
10.740939
 20
0.0
 30
0.0
 11
15.0
 21
0.0
 31
0.0
  0
LINE
  8
BASE
  6
CONTINUOUS
 10
0.0
 20
0.0
 30
0.0
 11
5.0
 21
0.0
 31
0.0
  0
LINE
  8
BASE
  6
CONTINUOUS
 10
9.353436
 20
-0.361863
 30
0.0
 11
4.256076
 21
-3.214703
 31
0.0
  0
LINE
  8
BASE
  6
CONTINUOUS
 10
5.0
 20
-5.0
 30
0.0
 11
0.0
 21
-5.0
 31
0.0
  0
LINE
  8
BASE
  6
CONTINUOUS
 10
5.0
 20
-5.0
 30
0.0
 11
5.0
 21
-2.5
 31
0.0
  0
CIRCLE
  8
BASE
  6
CONTINUOUS
 10
10.0
 20
0.0
 30
0.0
 40
0.740939
  0
ENDBLK
  8
0
  0
ENDSEC
  0
SECTION
  2
ENTITIES
  0
INSERT
  8
0
  2
1
 10
65.405438
 20
98.713066
 30
0.0
  0
INSERT
  8
0
  2
1
 10
72.541652
 20
49.71056
 30
0.0
  0
INSERT
  8
0
  2
1
 10
85.390443
 20
73.497234
 30
0.0
  0
LINE
  8
0
  6
CENTER
 62
   249
 10
250.0
 20
215.0
 30
0.0
 11
250.0
 21
107.5
 31
0.0
  0
LINE
  8
0
  6
CENTER
 62
   249
 10
250.0
 20
107.5
 30
0.0
 11
250.0
 21
85.0
 31
0.0
  0
LINE
  8
0
  6
CONTINUOUS
 62
   249
 10
232.5
 20
100.0
 30
0.0
 11
242.5
 21
100.0
 31
0.0
  0
LINE
  8
0
  6
CONTINUOUS
 62
   249
 10
232.5
 20
100.0
 30
0.0
 11
235.0
 21
102.5
 31
0.0
  0
LINE
  8
0
  6
CONTINUOUS
 62
   249
 10
237.5
 20
100.0
 30
0.0
 11
240.0
 21
102.5
 31
0.0
  0
LINE
  8
0
  6
CONTINUOUS
 62
   249
 10
242.5
 20
100.0
 30
0.0
 11
245.0
 21
102.5
 31
0.0
  0
LINE
  8
0
  6
CONTINUOUS
 62
   249
 10
237.5
 20
100.0
 30
0.0
 11
237.5
 21
85.0
 31
0.0
  0
LINE
  8
0
  6
CONTINUOUS
 62
   249
 10
225.0
 20
102.5
 30
0.0
 11
225.0
 21
85.0
 31
0.0
  0
LINE
  8
0
  6
CONTINUOUS
 62
   249
 10
220.0
 20
102.5
 30
0.0
 11
220.0
 21
85.0
 31
0.0
  0
LINE
  8
0
  6
DASHED
 62
   249
 10
225.0
 20
85.0
 30
0.0
 11
225.0
 21
77.5
 31
0.0
  0
LINE
  8
0
  6
DASHED
 62
   249
 10
237.5
 20
85.0
 30
0.0
 11
237.5
 21
77.5
 31
0.0
  0
LINE
  8
0
  6
DASHED
 62
   249
 10
220.0
 20
85.0
 30
0.0
 11
220.0
 21
77.5
 31
0.0
  0
LINE
  8
0
  6
DASHED
 62
   249
 10
187.5
 20
85.0
 30
0.0
 11
187.5
 21
77.5
 31
0.0
  0
LINE
  8
0
  6
DASHED
 62
   249
 10
182.5
 20
85.0
 30
0.0
 11
182.5
 21
77.5
 31
0.0
  0
LINE
  8
0
  6
DASHED
 62
   249
 10
172.5
 20
85.0
 30
0.0
 11
172.5
 21
77.5
 31
0.0
  0
LINE
  8
0
  6
CONTINUOUS
 62
   249
 10
187.5
 20
170.232891
 30
0.0
 11
217.950615
 21
170.232891
 31
0.0
  0
TEXT
  8
0
  6
CONTINUOUS
 62
   249
 10
199.408766
 20
166.295815
 30
0.0
 40
2.5
  1
IRF
 11
199.408766
 21
165.462481
 31
0.0
 73
     1
  0
LINE
  8
0
  6
CONTINUOUS
 62
   249
 10
217.950615
 20
165.0
 30
0.0
 11
187.5
 21
165.0
 31
0.0
  0
LINE
  8
0
  6
CONTINUOUS
 62
   249
 10
217.950615
 20
207.209828
 30
0.0
 11
217.950615
 21
165.0
 31
0.0
  0
LINE
  8
0
  6
CONTINUOUS
 62
   249
 10
217.950615
 20
230.0
 30
0.0
 11
217.950615
 21
207.18832
 31
0.0
  0
LINE
  8
0
  6
CONTINUOUS
 62
   249
 10
187.5
 20
175.0
 30
0.0
 11
217.950615
 21
175.0
 31
0.0
  0
CIRCLE
  8
0
  6
CONTINUOUS
 62
   249
 10
186.512659
 20
167.498324
 30
0.0
 40
1.0
  0
LINE
  8
0
  6
CONTINUOUS
 62
   249
 10
196.757307
 20
224.779942
 30
0.0
 11
194.411542
 21
223.590023
 31
0.0
  0
LINE
  8
0
  6
CONTINUOUS
 62
   249
 10
194.411542
 20
226.115295
 30
0.0
 11
196.757307
 21
224.779942
 31
0.0
  0
LINE
  8
0
  6
CONTINUOUS
 62
   249
 10
187.5
 20
220.0
 30
0.0
 11
187.5
 21
205.0
 31
0.0
  0
LINE
  8
0
  6
CONTINUOUS
 62
   249
 10
187.5
 20
220.0
 30
0.0
 11
187.5
 21
225.0
 31
0.0
  0
LINE
  8
0
  6
CONTINUOUS
 62
   249
 10
187.5
 20
205.0
 30
0.0
 11
187.5
 21
165.0
 31
0.0
  0
LINE
  8
0
  6
CENTER
 62
   249
 10
57.5
 20
245.0
 30
0.0
 11
57.5
 21
85.0
 31
0.0
  0
LINE
  8
0
  6
CONTINUOUS
 62
   249
 10
85.740939
 20
147.5
 30
0.0
 11
90.0
 21
147.5
 31
0.0
  0
LINE
  8
0
  6
CONTINUOUS
 62
   249
 10
84.353436
 20
147.138137
 30
0.0
 11
79.256076
 21
144.285297
 31
0.0
  0
TEXT
  8
0
  6
DASHED
 62
   249
 10
78.197373
 20
148.403492
 30
0.0
 40
2.0
  1
A
  7
ROMANS
  0
TEXT
  8
0
  6
DASHED
 62
   249
 10
96.643373
 20
138.774588
 30
0.0
 40
2.0
  1
B
  7
ROMANS
  0
TEXT
  8
0
  6
DASHED
 62
   249
 10
113.555109
 20
128.134364
 30
0.0
 40
2.0
  1
C
  7
ROMANS
  0
TEXT
  8
0
  6
DASHED
 62
   249
 10
130.984014
 20
118.255752
 30
0.0
 40
2.0
  1
D
  7
ROMANS
  0
TEXT
  8
0
  6
DASHED
 62
   249
 10
145.671573
 20
108.364654
 30
0.0
 40
2.0
  1
E
  7
ROMANS
  0
TEXT
  8
0
  6
DASHED
 62
   249
 10
161.066284
 20
98.236332
 30
0.0
 40
2.0
  1
F
  7
ROMANS
  0
LINE
  8
0
  6
CENTER
 62
   249
 10
57.5
 20
85.0
 30
0.0
 11
250.0
 21
85.0
 31
0.0
  0
LINE
  8
0
  6
CENTER
 62
   249
 10
250.0
 20
237.5
 30
0.0
 11
250.0
 21
245.0
 31
0.0
  0
LINE
  8
0
  6
CENTER
 62
   249
 10
250.0
 20
245.0
 30
0.0
 11
57.5
 21
245.0
 31
0.0
  0
LINE
  8
0
  6
DASHED
 62
   249
 10
192.5
 20
85.0
 30
0.0
 11
192.5
 21
77.5
 31
0.0
  0
LINE
  8
0
  6
DASHED
 62
   249
 10
197.5
 20
85.0
 30
0.0
 11
197.5
 21
77.5
 31
0.0
  0
LINE
  8
0
  6
CONTINUOUS
 62
   249
 10
370.914971
 20
238.052173
 30
0.0
 11
370.914971
 21
236.264041
 31
0.0
  0
LINE
  8
0
  6
CONTINUOUS
 62
   249
 10
367.960859
 20
239.405057
 30
0.0
 11
368.861536
 21
238.281308
 31
0.0
  0
LINE
  8
0
  6
CONTINUOUS
 62
   249
 10
365.515452
 20
236.039291
 30
0.0
 11
368.391562
 21
238.86785
 31
0.0
  0
LINE
  8
0
  6
CONTINUOUS
 62
   249
 10
363.131307
 20
237.206894
 30
0.0
 11
370.919512
 21
237.206894
 31
0.0
  0
LINE
  8
0
  6
CONTINUOUS
 62
   249
 10
363.100275
 20
238.052173
 30
0.0
 11
363.100275
 21
236.264041
 31
0.0
  0
TEXT
  8
0
  6
DASHED
 62
   249
 10
26.869019
 20
237.5
 30
0.0
 40
2.0
  1
1)
  7
ROMANS
  0
TEXT
  8
0
  6
CONTINUOUS
 62
   249
 10
199.490407
 20
171.066424
 30
0.0
 40
2.5
  1
I/O
  0
TEXT
  8
0
  6
CONTINUOUS
 62
   249
 10
212.347994
 20
225.823751
 30
0.0
 40
2.5
  1
U1
  7
ROMANS
  0
LINE
  8
0
  6
CONTINUOUS
 62
   249
 10
187.5
 20
195.0
 30
0.0
 11
207.5
 21
195.0
 31
0.0
  0
LINE
  8
0
  6
CONTINUOUS
 62
   249
 10
207.5
 20
195.0
 30
0.0
 11
217.950615
 21
195.0
 31
0.0
  0
LINE
  8
0
  6
CONTINUOUS
 62
   249
 10
207.5
 20
205.0
 30
0.0
 11
207.5
 21
195.0
 31
0.0
  0
TEXT
  8
0
  6
CONTINUOUS
 62
   249
 10
212.347994
 20
210.149643
 30
0.0
 40
2.5
  1
U2
  7
ROMANS
  0
LINE
  8
0
  6
CONTINUOUS
 62
   249
 10
187.5
 20
207.5
 30
0.0
 11
207.5
 21
207.5
 31
0.0
  0
LINE
  8
0
  6
CONTINUOUS
 62
   249
 10
197.5
 20
228.021206
 30
0.0
 11
200.0
 21
228.021206
 31
0.0
  0
LINE
  8
0
  6
CONTINUOUS
 62
   249
 10
197.5
 20
228.021206
 30
0.0
 11
195.275553
 21
227.460564
 31
0.0
  0
LINE
  8
0
  6
CONTINUOUS
 62
   249
 10
192.5
 20
228.021206
 30
0.0
 11
195.0
 21
228.021206
 31
0.0
  0
TEXT
  8
0
  6
CONTINUOUS
 62
   249
 10
188.406909
 20
227.263189
 30
0.0
 40
1.5
  1
EN
  0
CIRCLE
  8
0
  6
CONTINUOUS
 62
   249
 10
186.499833
 20
228.016691
 30
0.0
 40
1.0
  0
LINE
  8
0
  6
CONTINUOUS
 62
   249
 10
187.5
 20
222.5
 30
0.0
 11
207.5
 21
222.5
 31
0.0
  0
LINE
  8
0
  6
CONTINUOUS
 62
   249
 10
187.5
 20
225.0
 30
0.0
 11
187.5
 21
230.0
 31
0.0
  0
LINE
  8
0
  6
CONTINUOUS
 62
   249
 10
187.5
 20
230.0
 30
0.0
 11
217.950615
 21
230.0
 31
0.0
  0
LINE
  8
0
  6
CONTINUOUS
 62
   249
 10
207.5
 20
205.0
 30
0.0
 11
207.5
 21
230.0
 31
0.0
  0
CIRCLE
  8
0
  6
CONTINUOUS
 62
   249
 10
186.500093
 20
200.784079
 30
0.0
 40
1.0
  0
TEXT
  8
0
  6
CONTINUOUS
 62
   249
 10
188.406909
 20
200.030577
 30
0.0
 40
1.5
  1
EN
  0
LINE
  8
0
  6
CONTINUOUS
 62
   249
 10
192.5
 20
200.788594
 30
0.0
 11
195.0
 21
200.788594
 31
0.0
  0
LINE
  8
0
  6
CONTINUOUS
 62
   249
 10
197.5
 20
200.788594
 30
0.0
 11
195.275553
 21
200.227951
 31
0.0
  0
LINE
  8
0
  6
CONTINUOUS
 62
   249
 10
197.5
 20
200.788594
 30
0.0
 11
200.0
 21
200.788594
 31
0.0
  0
LINE
  8
0
  6
CONTINUOUS
 62
   249
 10
152.5
 20
224.753087
 30
0.0
 11
152.5
 21
157.5
 31
0.0
  0
LINE
  8
0
  6
CONTINUOUS
 62
   249
 10
137.5
 20
160.0
 30
0.0
 11
137.5
 21
157.5
 31
0.0
  0
LINE
  8
0
  6
CONTINUOUS
 62
   249
 10
120.0
 20
160.0
 30
0.0
 11
120.0
 21
157.5
 31
0.0
  0
LINE
  8
0
  6
CONTINUOUS
 62
   249
 10
102.5
 20
160.0
 30
0.0
 11
102.5
 21
157.5
 31
0.0
  0
LINE
  8
0
  6
CONTINUOUS
 62
   249
 10
145.0
 20
117.5
 30
0.0
 11
182.5
 21
117.5
 31
0.0
  0
LINE
  8
0
  6
CONTINUOUS
 62
   249
 10
90.0
 20
147.5
 30
0.0
 11
197.5
 21
147.5
 31
0.0
  0
LINE
  8
0
  6
CONTINUOUS
 62
   249
 10
160.0
 20
107.5
 30
0.0
 11
177.5
 21
107.5
 31
0.0
  0
LINE
  8
0
  6
CONTINUOUS
 62
   249
 10
130.0
 20
117.5
 30
0.0
 11
57.5
 21
117.5
 31
0.0
  0
LINE
  8
0
  6
CONTINUOUS
 62
   249
 10
130.0
 20
112.5
 30
0.0
 11
57.5
 21
112.5
 31
0.0
  0
LINE
  8
0
  6
CONTINUOUS
 62
   249
 10
145.0
 20
107.5
 30
0.0
 11
57.5
 21
107.5
 31
0.0
  0
LINE
  8
0
  6
CONTINUOUS
 62
   249
 10
145.0
 20
102.5
 30
0.0
 11
57.5
 21
102.5
 31
0.0
  0
LINE
  8
0
  6
CONTINUOUS
 62
   249
 10
157.5
 20
97.5
 30
0.0
 11
57.5
 21
97.5
 31
0.0
  0
LINE
  8
0
  6
CONTINUOUS
 62
   249
 10
157.5
 20
92.5
 30
0.0
 11
57.5
 21
92.5
 31
0.0
  0
LINE
  8
0
  6
CONTINUOUS
 62
   249
 10
185.51266
 20
167.495289
 30
0.0
 11
165.0
 21
167.495289
 31
0.0
  0
LINE
  8
0
  6
CONTINUOUS
 62
   249
 10
165.0
 20
167.495289
 30
0.0
 11
165.0
 21
152.5
 31
0.0
  0
LINE
  8
0
  6
DASHED
 62
   249
 10
165.0
 20
152.5
 30
0.0
 11
165.0
 21
96.100824
 31
0.0
  0
LINE
  8
0
  6
DASHED
 62
   249
 10
152.5
 20
157.5
 30
0.0
 11
152.5
 21
106.100824
 31
0.0
  0
LINE
  8
0
  6
DASHED
 62
   249
 10
137.5
 20
157.5
 30
0.0
 11
137.5
 21
116.100824
 31
0.0
  0
LINE
  8
0
  6
DASHED
 62
   249
 10
120.0
 20
157.5
 30
0.0
 11
120.0
 21
126.100824
 31
0.0
  0
LINE
  8
0
  6
DASHED
 62
   249
 10
102.5
 20
157.5
 30
0.0
 11
102.5
 21
136.100824
 31
0.0
  0
LINE
  8
0
  6
DASHED
 62
   249
 10
82.5
 20
157.5
 30
0.0
 11
82.5
 21
146.100824
 31
0.0
  0
TEXT
  8
0
  6
CONTINUOUS
 62
   249
 10
65.913303
 20
170.010709
 30
0.0
 40
2.0
  1
SGR
  7
ROMANS
  0
LINE
  8
0
  6
CONTINUOUS
 62
   249
 10
187.5
 20
187.5
 30
0.0
 11
187.5
 21
182.5
 31
0.0
  0
LINE
  8
0
  6
CENTER
 62
   249
 10
250.0
 20
237.5
 30
0.0
 11
250.0
 21
215.0
 31
0.0
  0
LINE
  8
0
  6
CONTINUOUS
 62
   249
 10
250.0
 20
195.0
 30
0.0
 11
250.0
 21
195.0
 31
0.0
  0
LINE
  8
0
  6
CONTINUOUS
 62
   249
 10
232.5
 20
157.5
 30
0.0
 11
227.5
 21
157.5
 31
0.0
  0
LINE
  8
0
  6
CONTINUOUS
 62
   249
 10
232.5
 20
205.0
 30
0.0
 11
222.5
 21
205.0
 31
0.0
  0
LINE
  8
0
  6
CONTINUOUS
 62
   249
 10
357.5
 20
235.0
 30
0.0
 11
377.5
 21
235.0
 31
0.0
  0
LINE
  8
0
  6
CONTINUOUS
 62
   249
 10
357.5
 20
255.0
 30
0.0
 11
377.5
 21
255.0
 31
0.0
  0
LINE
  8
0
  6
CONTINUOUS
 62
   249
 10
377.5
 20
255.0
 30
0.0
 11
377.5
 21
215.0
 31
0.0
  0
LINE
  8
0
  6
CONTINUOUS
 62
   249
 10
357.5
 20
215.0
 30
0.0
 11
357.5
 21
255.0
 31
0.0
  0
LINE
  8
0
  6
CONTINUOUS
 62
   249
 10
357.5
 20
215.0
 30
0.0
 11
377.5
 21
215.0
 31
0.0
  0
LINE
  8
0
  6
DASHED
 62
   249
 10
57.5
 20
230.0
 30
0.0
 11
35.0
 21
230.0
 31
0.0
  0
LINE
  8
0
  6
CONTINUOUS
 62
   249
 10
244.262992
 20
134.25712
 30
0.0
 11
245.479699
 21
135.667057
 31
0.0
  0
TEXT
  8
0
  6
CONTINUOUS
 62
   249
 10
245.236358
 20
136.570297
 30
0.0
 40
2.0
  1
9
  7
ROMANS
  0
LINE
  8
0
  6
DASHED
 62
   249
 10
57.5
 20
147.5
 30
0.0
 11
47.5
 21
147.5
 31
0.0
  0
LINE
  8
0
  6
DASHED
 62
   249
 10
57.5
 20
137.5
 30
0.0
 11
47.5
 21
137.5
 31
0.0
  0
LINE
  8
0
  6
DASHED
 62
   249
 10
57.5
 20
127.5
 30
0.0
 11
47.5
 21
127.5
 31
0.0
  0
LINE
  8
0
  6
DASHED
 62
   249
 10
57.5
 20
117.5
 30
0.0
 11
47.5
 21
117.5
 31
0.0
  0
LINE
  8
0
  6
DASHED
 62
   249
 10
57.5
 20
107.5
 30
0.0
 11
47.5
 21
107.5
 31
0.0
  0
LINE
  8
0
  6
DASHED
 62
   249
 10
57.5
 20
92.5
 30
0.0
 11
47.5
 21
92.5
 31
0.0
  0
LINE
  8
0
  6
CONTINUOUS
 62
   249
 10
45.0
 20
148.0
 30
0.0
 11
45.0
 21
137.0
 31
0.0
  0
LINE
  8
0
  6
CONTINUOUS
 62
   249
 10
45.0
 20
148.0
 30
0.0
 11
46.0
 21
149.0
 31
0.0
  0
LINE
  8
0
  6
CONTINUOUS
 62
   249
 10
45.0
 20
137.0
 30
0.0
 11
46.0
 21
136.0
 31
0.0
  0
LINE
  8
0
  6
CONTINUOUS
 62
   249
 10
45.0
 20
107.0
 30
0.0
 11
46.0
 21
106.0
 31
0.0
  0
LINE
  8
0
  6
CONTINUOUS
 62
   249
 10
45.0
 20
128.0
 30
0.0
 11
45.0
 21
107.0
 31
0.0
  0
LINE
  8
0
  6
CONTINUOUS
 62
   249
 10
45.0
 20
128.0
 30
0.0
 11
46.0
 21
129.0
 31
0.0
  0
TEXT
  8
0
  6
CONTINUOUS
 62
   249
 10
37.5
 20
142.080516
 30
0.0
 40
2.0
  1
3)
  7
ROMANS
  0
TEXT
  8
0
  6
CONTINUOUS
 62
   249
 10
37.5
 20
116.490278
 30
0.0
 40
2.0
  1
4)
  7
ROMANS
  0
TEXT
  8
0
  6
CONTINUOUS
 62
   249
 10
37.5
 20
91.480208
 30
0.0
 40
2.0
  1
5)
  7
ROMANS
  0
LINE
  8
0
  6
CONTINUOUS
 62
   249
 10
80.0
 20
147.5
 30
0.0
 11
75.0
 21
147.5
 31
0.0
  0
LINE
  8
0
  6
CONTINUOUS
 62
   249
 10
363.131307
 20
226.913992
 30
0.0
 11
370.919512
 21
226.913992
 31
0.0
  0
LINE
  8
0
  6
CONTINUOUS
 62
   249
 10
370.914971
 20
227.759271
 30
0.0
 11
370.914971
 21
225.971139
 31
0.0
  0
LINE
  8
0
  6
CONTINUOUS
 62
   249
 10
365.515452
 20
225.74639
 30
0.0
 11
368.391562
 21
228.574948
 31
0.0
  0
ARC
  8
0
  6
HIDDEN
 62
   249
 10
369.826175
 20
230.842536
 30
0.0
 40
4.998196
 50
206.402922
 51
282.21115
  0
LINE
  8
0
  6
CONTINUOUS
 62
   249
 10
367.960859
 20
229.112155
 30
0.0
 11
368.861536
 21
227.988406
 31
0.0
  0
LINE
  8
0
  6
CONTINUOUS
 62
   249
 10
363.100275
 20
227.759271
 30
0.0
 11
363.100275
 21
225.971139
 31
0.0
  0
TEXT
  8
0
  6
DASHED
 62
   249
 10
209.887534
 20
219.310712
 30
0.0
 40
2.5
  1
U
  0
TEXT
  8
0
  6
DASHED
 62
   249
 10
188.798048
 20
223.476412
 30
0.0
 40
2.5
  1
U
  0
TEXT
  8
0
  6
DASHED
 62
   249
 10
188.798048
 20
215.976412
 30
0.0
 40
2.5
  1
U
  0
TEXT
  8
0
  6
CONTINUOUS
 62
   249
 10
188.406909
 20
219.763189
 30
0.0
 40
1.5
  1
EN
  0
LINE
  8
0
  6
CONTINUOUS
 62
   249
 10
192.5
 20
220.521206
 30
0.0
 11
195.0
 21
220.521206
 31
0.0
  0
LINE
  8
0
  6
CONTINUOUS
 62
   249
 10
197.5
 20
220.521206
 30
0.0
 11
195.275553
 21
219.960564
 31
0.0
  0
LINE
  8
0
  6
CONTINUOUS
 62
   249
 10
197.5
 20
220.521206
 30
0.0
 11
200.0
 21
220.521206
 31
0.0
  0
LINE
  8
0
  6
CONTINUOUS
 62
   249
 10
206.741301
 20
198.210474
 30
0.0
 11
206.741301
 21
196.422343
 31
0.0
  0
LINE
  8
0
  6
CONTINUOUS
 62
   249
 10
203.787189
 20
199.563359
 30
0.0
 11
204.687866
 21
198.43961
 31
0.0
  0
LINE
  8
0
  6
CONTINUOUS
 62
   249
 10
201.341782
 20
196.197593
 30
0.0
 11
204.217892
 21
199.026152
 31
0.0
  0
LINE
  8
0
  6
CONTINUOUS
 62
   249
 10
198.957637
 20
197.365196
 30
0.0
 11
206.745842
 21
197.365196
 31
0.0
  0
LINE
  8
0
  6
CONTINUOUS
 62
   249
 10
198.926606
 20
198.210474
 30
0.0
 11
198.926606
 21
196.422343
 31
0.0
  0
LINE
  8
0
  6
CONTINUOUS
 62
   249
 10
187.5
 20
215.0
 30
0.0
 11
217.950615
 21
215.0
 31
0.0
  0
CIRCLE
  8
0
  6
CONTINUOUS
 62
   249
 10
186.499701
 20
220.516691
 30
0.0
 40
1.0
  0
LINE
  8
0
  6
CONTINUOUS
 62
   249
 10
206.467927
 20
225.133771
 30
0.0
 11
206.467927
 21
223.345639
 31
0.0
  0
LINE
  8
0
  6
CONTINUOUS
 62
   249
 10
203.490396
 20
226.486655
 30
0.0
 11
204.391073
 21
225.362906
 31
0.0
  0
LINE
  8
0
  6
CONTINUOUS
 62
   249
 10
201.068408
 20
223.12089
 30
0.0
 11
203.944519
 21
225.949448
 31
0.0
  0
LINE
  8
0
  6
CONTINUOUS
 62
   249
 10
198.684263
 20
224.288492
 30
0.0
 11
206.472468
 21
224.288492
 31
0.0
  0
LINE
  8
0
  6
CONTINUOUS
 62
   249
 10
198.653232
 20
225.133771
 30
0.0
 11
198.653232
 21
223.345639
 31
0.0
  0
LINE
  8
0
  6
CONTINUOUS
 62
   249
 10
198.653232
 20
217.639918
 30
0.0
 11
198.653232
 21
215.851787
 31
0.0
  0
LINE
  8
0
  6
CONTINUOUS
 62
   249
 10
198.684263
 20
216.79464
 30
0.0
 11
206.472468
 21
216.79464
 31
0.0
  0
LINE
  8
0
  6
CONTINUOUS
 62
   249
 10
201.068408
 20
215.627037
 30
0.0
 11
203.944519
 21
218.455596
 31
0.0
  0
LINE
  8
0
  6
CONTINUOUS
 62
   249
 10
203.490396
 20
218.992802
 30
0.0
 11
204.391073
 21
217.869053
 31
0.0
  0
LINE
  8
0
  6
CONTINUOUS
 62
   249
 10
206.467927
 20
217.639918
 30
0.0
 11
206.467927
 21
215.851787
 31
0.0
  0
LINE
  8
0
  6
CONTINUOUS
 62
   249
 10
198.094079
 20
217.181231
 30
0.0
 11
195.748314
 21
215.991312
 31
0.0
  0
LINE
  8
0
  6
CONTINUOUS
 62
   249
 10
194.102044
 20
218.516585
 30
0.0
 11
196.447809
 21
217.181231
 31
0.0
  0
LINE
  8
0
  6
CONTINUOUS
 62
   249
 10
196.447809
 20
217.181231
 30
0.0
 11
194.102044
 21
215.991312
 31
0.0
  0
LINE
  8
0
  6
CONTINUOUS
 62
   249
 10
195.748314
 20
218.516585
 30
0.0
 11
198.094079
 21
217.181231
 31
0.0
  0
TEXT
  8
0
  6
DASHED
 62
   249
 10
188.798048
 20
207.975623
 30
0.0
 40
2.5
  1
U
  0
TEXT
  8
0
  6
DASHED
 62
   249
 10
188.798048
 20
211.464207
 30
0.0
 40
2.5
  1
U
  0
LINE
  8
0
  6
CONTINUOUS
 62
   249
 10
194.193505
 20
212.646513
 30
0.0
 11
191.847739
 21
211.456593
 31
0.0
  0
LINE
  8
0
  6
CONTINUOUS
 62
   249
 10
191.847739
 20
213.981866
 30
0.0
 11
194.193505
 21
212.646513
 31
0.0
  0
LINE
  8
0
  6
CONTINUOUS
 62
   249
 10
194.193505
 20
209.108973
 30
0.0
 11
191.847739
 21
207.919054
 31
0.0
  0
LINE
  8
0
  6
CONTINUOUS
 62
   249
 10
191.847739
 20
210.444327
 30
0.0
 11
194.193505
 21
209.108973
 31
0.0
  0
LINE
  8
0
  6
CONTINUOUS
 62
   249
 10
198.926606
 20
209.969656
 30
0.0
 11
198.926606
 21
208.181525
 31
0.0
  0
LINE
  8
0
  6
CONTINUOUS
 62
   249
 10
198.957637
 20
209.124377
 30
0.0
 11
206.745842
 21
209.124377
 31
0.0
  0
LINE
  8
0
  6
CONTINUOUS
 62
   249
 10
201.341782
 20
207.956775
 30
0.0
 11
204.217892
 21
210.785333
 31
0.0
  0
LINE
  8
0
  6
CONTINUOUS
 62
   249
 10
203.787189
 20
211.32254
 30
0.0
 11
204.687866
 21
210.198791
 31
0.0
  0
LINE
  8
0
  6
CONTINUOUS
 62
   249
 10
206.741301
 20
209.969656
 30
0.0
 11
206.741301
 21
208.181525
 31
0.0
  0
ARC
  8
0
  6
HIDDEN
 62
   249
 10
205.652505
 20
213.052922
 30
0.0
 40
4.998196
 50
206.402922
 51
282.21115
  0
LINE
  8
0
  6
CONTINUOUS
 62
   249
 10
187.5
 20
202.5
 30
0.0
 11
207.5
 21
202.5
 31
0.0
  0
LINE
  8
0
  6
CONTINUOUS
 62
   249
 10
194.205873
 20
203.670232
 30
0.0
 11
191.860108
 21
205.005586
 31
0.0
  0
LINE
  8
0
  6
CONTINUOUS
 62
   249
 10
191.860108
 20
205.005586
 30
0.0
 11
194.205873
 21
206.195505
 31
0.0
  0
TEXT
  8
0
  6
DASHED
 62
   249
 10
188.798048
 20
203.635661
 30
0.0
 40
2.5
  1
U
  0
LINE
  8
0
  6
CONTINUOUS
 62
   249
 10
194.205873
 20
196.032606
 30
0.0
 11
191.860108
 21
197.36796
 31
0.0
  0
LINE
  8
0
  6
CONTINUOUS
 62
   249
 10
191.860108
 20
197.36796
 30
0.0
 11
194.205873
 21
198.557879
 31
0.0
  0
TEXT
  8
0
  6
DASHED
 62
   249
 10
188.798048
 20
195.998035
 30
0.0
 40
2.5
  1
U
  0
TEXT
  8
0
  6
DASHED
 62
   249
 10
211.286748
 20
202.879495
 30
0.0
 40
2.5
  1
U
  0
LINE
  8
0
  6
CONTINUOUS
 62
   249
 10
216.809982
 20
201.889102
 30
0.0
 11
214.464216
 21
203.224456
 31
0.0
  0
LINE
  8
0
  6
CONTINUOUS
 62
   249
 10
214.464216
 20
203.224456
 30
0.0
 11
216.809982
 21
204.414375
 31
0.0
  0
LINE
  8
0
  6
CONTINUOUS
 62
   249
 10
216.797613
 20
205.422592
 30
0.0
 11
214.451847
 21
204.232673
 31
0.0
  0
LINE
  8
0
  6
CONTINUOUS
 62
   249
 10
214.451847
 20
206.757946
 30
0.0
 11
216.797613
 21
205.422592
 31
0.0
  0
LINE
  8
0
  6
CONTINUOUS
 62
   249
 10
72.5
 20
160.0
 30
0.0
 11
92.5
 21
160.0
 31
0.0
  0
LINE
  8
0
  6
CONTINUOUS
 62
   249
 10
72.5
 20
165.0
 30
0.0
 11
72.5
 21
160.0
 31
0.0
  0
LINE
  8
0
  6
CONTINUOUS
 62
   249
 10
92.5
 20
165.0
 30
0.0
 11
92.5
 21
160.0
 31
0.0
  0
LINE
  8
0
  6
CONTINUOUS
 62
   249
 10
92.5
 20
165.0
 30
0.0
 11
72.5
 21
165.0
 31
0.0
  0
LINE
  8
0
  6
CONTINUOUS
 62
   249
 10
82.5
 20
160.0
 30
0.0
 11
82.5
 21
157.5
 31
0.0
  0
LINE
  8
0
  6
CONTINUOUS
 62
   249
 10
82.5
 20
160.0
 30
0.0
 11
82.5
 21
157.5
 31
0.0
  0
LINE
  8
0
  6
CONTINUOUS
 62
   249
 10
81.759134
 20
162.789195
 30
0.0
 11
79.413369
 21
161.599276
 31
0.0
  0
LINE
  8
0
  6
CONTINUOUS
 62
   249
 10
79.405327
 20
160.799262
 30
0.0
 11
81.788787
 21
161.987454
 31
0.0
  0
LINE
  8
0
  6
CONTINUOUS
 62
   249
 10
79.413369
 20
164.124549
 30
0.0
 11
81.759134
 21
162.789195
 31
0.0
  0
TEXT
  8
0
  6
CONTINUOUS
 62
   249
 10
83.84723
 20
161.464455
 30
0.0
 40
2.5
  1
1
 11
83.84723
 21
160.631122
 31
0.0
 73
     1
  0
LINE
  8
0
  6
CONTINUOUS
 62
   249
 10
75.0
 20
167.5
 30
0.0
 11
73.285914
 21
172.586297
 31
0.0
  0
LINE
  8
0
  6
CONTINUOUS
 62
   249
 10
75.0
 20
165.0
 30
0.0
 11
75.0
 21
167.5
 31
0.0
  0
LINE
  8
0
  6
CONTINUOUS
 62
   249
 10
80.0
 20
167.5
 30
0.0
 11
78.285914
 21
172.586297
 31
0.0
  0
LINE
  8
0
  6
CONTINUOUS
 62
   249
 10
80.0
 20
165.0
 30
0.0
 11
80.0
 21
167.5
 31
0.0
  0
LINE
  8
0
  6
CONTINUOUS
 62
   249
 10
90.0
 20
165.0
 30
0.0
 11
90.0
 21
167.5
 31
0.0
  0
LINE
  8
0
  6
CONTINUOUS
 62
   249
 10
90.0
 20
167.5
 30
0.0
 11
88.285914
 21
172.586297
 31
0.0
  0
LINE
  8
0
  6
CONTINUOUS
 62
   249
 10
85.0
 20
165.0
 30
0.0
 11
85.0
 21
167.5
 31
0.0
  0
LINE
  8
0
  6
CONTINUOUS
 62
   249
 10
85.0
 20
167.5
 30
0.0
 11
83.285914
 21
172.586297
 31
0.0
  0
LINE
  8
0
  6
CONTINUOUS
 62
   249
 10
107.5
 20
167.5
 30
0.0
 11
105.785914
 21
172.586297
 31
0.0
  0
LINE
  8
0
  6
CONTINUOUS
 62
   249
 10
107.5
 20
165.0
 30
0.0
 11
107.5
 21
167.5
 31
0.0
  0
LINE
  8
0
  6
CONTINUOUS
 62
   249
 10
102.5
 20
165.0
 30
0.0
 11
102.5
 21
217.141632
 31
0.0
  0
LINE
  8
0
  6
CONTINUOUS
 62
   249
 10
97.5
 20
165.0
 30
0.0
 11
97.5
 21
167.5
 31
0.0
  0
LINE
  8
0
  6
CONTINUOUS
 62
   249
 10
97.5
 20
167.5
 30
0.0
 11
95.785914
 21
172.586297
 31
0.0
  0
TEXT
  8
0
  6
CONTINUOUS
 62
   249
 10
103.973522
 20
161.464455
 30
0.0
 40
2.5
  1
1
 11
103.973522
 21
160.631122
 31
0.0
 73
     1
  0
LINE
  8
0
  6
CONTINUOUS
 62
   249
 10
99.53966
 20
164.124549
 30
0.0
 11
101.885426
 21
162.789195
 31
0.0
  0
LINE
  8
0
  6
CONTINUOUS
 62
   249
 10
99.531619
 20
160.799262
 30
0.0
 11
101.915079
 21
161.987454
 31
0.0
  0
LINE
  8
0
  6
CONTINUOUS
 62
   249
 10
101.885426
 20
162.789195
 30
0.0
 11
99.53966
 21
161.599276
 31
0.0
  0
LINE
  8
0
  6
CONTINUOUS
 62
   249
 10
110.0
 20
165.0
 30
0.0
 11
95.0
 21
165.0
 31
0.0
  0
LINE
  8
0
  6
CONTINUOUS
 62
   249
 10
110.0
 20
165.0
 30
0.0
 11
110.0
 21
160.0
 31
0.0
  0
LINE
  8
0
  6
CONTINUOUS
 62
   249
 10
95.0
 20
165.0
 30
0.0
 11
95.0
 21
160.0
 31
0.0
  0
LINE
  8
0
  6
CONTINUOUS
 62
   249
 10
95.0
 20
160.0
 30
0.0
 11
110.0
 21
160.0
 31
0.0
  0
LINE
  8
0
  6
CONTINUOUS
 62
   249
 10
115.0
 20
160.0
 30
0.0
 11
125.0
 21
160.0
 31
0.0
  0
LINE
  8
0
  6
CONTINUOUS
 62
   249
 10
115.0
 20
165.0
 30
0.0
 11
115.0
 21
160.0
 31
0.0
  0
LINE
  8
0
  6
CONTINUOUS
 62
   249
 10
125.0
 20
165.0
 30
0.0
 11
125.0
 21
160.0
 31
0.0
  0
LINE
  8
0
  6
CONTINUOUS
 62
   249
 10
125.0
 20
165.0
 30
0.0
 11
115.0
 21
165.0
 31
0.0
  0
LINE
  8
0
  6
CONTINUOUS
 62
   249
 10
119.385426
 20
162.789195
 30
0.0
 11
117.03966
 21
161.599276
 31
0.0
  0
LINE
  8
0
  6
CONTINUOUS
 62
   249
 10
117.031619
 20
160.799262
 30
0.0
 11
119.415079
 21
161.987454
 31
0.0
  0
LINE
  8
0
  6
CONTINUOUS
 62
   249
 10
117.03966
 20
164.124549
 30
0.0
 11
119.385426
 21
162.789195
 31
0.0
  0
TEXT
  8
0
  6
CONTINUOUS
 62
   249
 10
121.473522
 20
161.464455
 30
0.0
 40
2.5
  1
1
 11
121.473522
 21
160.631122
 31
0.0
 73
     1
  0
LINE
  8
0
  6
CONTINUOUS
 62
   249
 10
117.5
 20
165.0
 30
0.0
 11
117.5
 21
209.092853
 31
0.0
  0
LINE
  8
0
  6
CONTINUOUS
 62
   249
 10
135.0
 20
165.0
 30
0.0
 11
135.0
 21
197.347111
 31
0.0
  0
TEXT
  8
0
  6
CONTINUOUS
 62
   249
 10
138.973522
 20
161.464455
 30
0.0
 40
2.5
  1
1
 11
138.973522
 21
160.631122
 31
0.0
 73
     1
  0
LINE
  8
0
  6
CONTINUOUS
 62
   249
 10
134.53966
 20
164.124549
 30
0.0
 11
136.885426
 21
162.789195
 31
0.0
  0
LINE
  8
0
  6
CONTINUOUS
 62
   249
 10
134.531619
 20
160.799262
 30
0.0
 11
136.915079
 21
161.987454
 31
0.0
  0
LINE
  8
0
  6
CONTINUOUS
 62
   249
 10
136.885426
 20
162.789195
 30
0.0
 11
134.53966
 21
161.599276
 31
0.0
  0
LINE
  8
0
  6
CONTINUOUS
 62
   249
 10
142.5
 20
165.0
 30
0.0
 11
132.5
 21
165.0
 31
0.0
  0
LINE
  8
0
  6
CONTINUOUS
 62
   249
 10
142.5
 20
165.0
 30
0.0
 11
142.5
 21
160.0
 31
0.0
  0
LINE
  8
0
  6
CONTINUOUS
 62
   249
 10
132.5
 20
165.0
 30
0.0
 11
132.5
 21
160.0
 31
0.0
  0
LINE
  8
0
  6
CONTINUOUS
 62
   249
 10
132.5
 20
160.0
 30
0.0
 11
142.5
 21
160.0
 31
0.0
  0
LINE
  8
0
  6
CONTINUOUS
 62
   249
 10
140.0
 20
165.0
 30
0.0
 11
140.0
 21
167.5
 31
0.0
  0
LINE
  8
0
  6
CONTINUOUS
 62
   249
 10
140.0
 20
167.5
 30
0.0
 11
138.285914
 21
172.586297
 31
0.0
  0
LINE
  8
0
  6
CONTINUOUS
 62
   249
 10
122.5
 20
167.5
 30
0.0
 11
120.785914
 21
172.586297
 31
0.0
  0
LINE
  8
0
  6
CONTINUOUS
 62
   249
 10
122.5
 20
165.0
 30
0.0
 11
122.5
 21
167.5
 31
0.0
  0
LINE
  8
0
  6
CONTINUOUS
 62
   249
 10
187.5
 20
197.347111
 30
0.0
 11
85.0
 21
197.347111
 31
0.0
  0
LINE
  8
0
  6
CONTINUOUS
 62
   249
 10
187.5
 20
205.0
 30
0.0
 11
140.0
 21
205.0
 31
0.0
  0
LINE
  8
0
  6
CONTINUOUS
 62
   249
 10
187.5
 20
209.092853
 30
0.0
 11
75.0
 21
209.092853
 31
0.0
  0
LINE
  8
0
  6
CONTINUOUS
 62
   249
 10
187.5
 20
212.630392
 30
0.0
 11
122.5
 21
212.630392
 31
0.0
  0
LINE
  8
0
  6
CONTINUOUS
 62
   249
 10
75.0
 20
209.092853
 30
0.0
 11
75.0
 21
172.5
 31
0.0
  0
LINE
  8
0
  6
CONTINUOUS
 62
   249
 10
85.0
 20
197.347111
 30
0.0
 11
85.0
 21
172.5
 31
0.0
  0
LINE
  8
0
  6
CONTINUOUS
 62
   249
 10
97.5
 20
209.092853
 30
0.0
 11
97.5
 21
172.5
 31
0.0
  0
LINE
  8
0
  6
CONTINUOUS
 62
   249
 10
107.5
 20
197.347111
 30
0.0
 11
107.5
 21
172.5
 31
0.0
  0
LINE
  8
0
  6
CONTINUOUS
 62
   249
 10
122.5
 20
212.630392
 30
0.0
 11
122.5
 21
172.5
 31
0.0
  0
LINE
  8
0
  6
CONTINUOUS
 62
   249
 10
140.0
 20
205.0
 30
0.0
 11
140.0
 21
172.5
 31
0.0
  0
LINE
  8
0
  6
CONTINUOUS
 62
   249
 10
187.5
 20
224.753087
 30
0.0
 11
80.0
 21
224.753087
 31
0.0
  0
LINE
  8
0
  6
CONTINUOUS
 62
   249
 10
80.0
 20
172.5
 30
0.0
 11
80.0
 21
224.753087
 31
0.0
  0
LINE
  8
0
  6
CONTINUOUS
 62
   249
 10
187.5
 20
217.141632
 30
0.0
 11
90.0
 21
217.141632
 31
0.0
  0
LINE
  8
0
  6
CONTINUOUS
 62
   249
 10
90.0
 20
172.5
 30
0.0
 11
90.0
 21
217.141632
 31
0.0
  0
TEXT
  8
0
  6
CONTINUOUS
 62
   249
 10
75.69994
 20
170.0
 30
0.0
 40
2.0
  1
1
  7
ROMANS
  0
TEXT
  8
0
  6
CONTINUOUS
 62
   249
 10
80.69994
 20
170.0
 30
0.0
 40
2.0
  1
3
  7
ROMANS
  0
TEXT
  8
0
  6
CONTINUOUS
 62
   249
 10
85.69994
 20
170.0
 30
0.0
 40
2.0
  1
2
  7
ROMANS
  0
TEXT
  8
0
  6
CONTINUOUS
 62
   249
 10
90.69994
 20
170.0
 30
0.0
 40
2.0
  1
4
  7
ROMANS
  0
TEXT
  8
0
  6
CONTINUOUS
 62
   249
 10
98.19994
 20
170.0
 30
0.0
 40
2.0
  1
5
  7
ROMANS
  0
TEXT
  8
0
  6
CONTINUOUS
 62
   249
 10
108.19994
 20
170.0
 30
0.0
 40
2.0
  1
6
  7
ROMANS
  0
TEXT
  8
0
  6
CONTINUOUS
 62
   249
 10
123.19994
 20
170.0
 30
0.0
 40
2.0
  1
7
  7
ROMANS
  0
TEXT
  8
0
  6
CONTINUOUS
 62
   249
 10
140.69994
 20
170.0
 30
0.0
 40
2.0
  1
8
  7
ROMANS
  0
LINE
  8
0
  6
CONTINUOUS
 62
   249
 10
185.499836
 20
228.014298
 30
0.0
 11
175.0
 21
228.014298
 31
0.0
  0
LINE
  8
0
  6
CONTINUOUS
 62
   249
 10
175.0
 20
160.0
 30
0.0
 11
175.0
 21
232.5
 31
0.0
  0
LINE
  8
0
  6
CONTINUOUS
 62
   249
 10
185.500093
 20
200.783996
 30
0.0
 11
175.0
 21
200.783996
 31
0.0
  0
LINE
  8
0
  6
CONTINUOUS
 62
   249
 10
185.499707
 20
220.51836
 30
0.0
 11
175.0
 21
220.51836
 31
0.0
  0
LINE
  8
0
  6
CONTINUOUS
 62
   249
 10
100.0
 20
132.5
 30
0.0
 11
100.0
 21
135.0
 31
0.0
  0
LINE
  8
0
  6
CONTINUOUS
 62
   249
 10
100.0
 20
132.5
 30
0.0
 11
57.5
 21
132.5
 31
0.0
  0
LINE
  8
0
  6
CONTINUOUS
 62
   249
 10
75.0
 20
137.5
 30
0.0
 11
100.0
 21
137.5
 31
0.0
  0
LINE
  8
0
  6
CONTINUOUS
 62
   249
 10
105.740939
 20
137.5
 30
0.0
 11
110.0
 21
137.5
 31
0.0
  0
LINE
  8
0
  6
CONTINUOUS
 62
   249
 10
117.5
 20
122.5
 30
0.0
 11
117.5
 21
125.0
 31
0.0
  0
LINE
  8
0
  6
CONTINUOUS
 62
   249
 10
117.5
 20
122.5
 30
0.0
 11
57.5
 21
122.5
 31
0.0
  0
LINE
  8
0
  6
CONTINUOUS
 62
   249
 10
57.5
 20
127.5
 30
0.0
 11
117.5
 21
127.5
 31
0.0
  0
LINE
  8
0
  6
CONTINUOUS
 62
   249
 10
123.240939
 20
127.5
 30
0.0
 11
127.5
 21
127.5
 31
0.0
  0
LINE
  8
0
  6
CONTINUOUS
 62
   249
 10
135.0
 20
112.5
 30
0.0
 11
135.0
 21
115.0
 31
0.0
  0
LINE
  8
0
  6
CONTINUOUS
 62
   249
 10
135.0
 20
112.5
 30
0.0
 11
130.0
 21
112.5
 31
0.0
  0
LINE
  8
0
  6
CONTINUOUS
 62
   249
 10
130.0
 20
117.5
 30
0.0
 11
135.0
 21
117.5
 31
0.0
  0
LINE
  8
0
  6
CONTINUOUS
 62
   249
 10
140.740939
 20
117.5
 30
0.0
 11
145.0
 21
117.5
 31
0.0
  0
LINE
  8
0
  6
CONTINUOUS
 62
   249
 10
150.0
 20
102.5
 30
0.0
 11
150.0
 21
105.0
 31
0.0
  0
LINE
  8
0
  6
CONTINUOUS
 62
   249
 10
150.0
 20
102.5
 30
0.0
 11
145.0
 21
102.5
 31
0.0
  0
LINE
  8
0
  6
CONTINUOUS
 62
   249
 10
145.0
 20
107.5
 30
0.0
 11
150.0
 21
107.5
 31
0.0
  0
LINE
  8
0
  6
CONTINUOUS
 62
   249
 10
155.740939
 20
107.5
 30
0.0
 11
160.0
 21
107.5
 31
0.0
  0
LINE
  8
0
  6
CONTINUOUS
 62
   249
 10
162.5
 20
92.5
 30
0.0
 11
162.5
 21
95.0
 31
0.0
  0
LINE
  8
0
  6
CONTINUOUS
 62
   249
 10
162.5
 20
92.5
 30
0.0
 11
157.5
 21
92.5
 31
0.0
  0
LINE
  8
0
  6
CONTINUOUS
 62
   249
 10
157.5
 20
97.5
 30
0.0
 11
162.5
 21
97.5
 31
0.0
  0
LINE
  8
0
  6
CONTINUOUS
 62
   249
 10
168.240939
 20
97.5
 30
0.0
 11
172.5
 21
97.5
 31
0.0
  0
LINE
  8
0
  6
CONTINUOUS
 62
   249
 10
187.50793
 20
127.5
 30
0.0
 11
127.5
 21
127.5
 31
0.0
  0
LINE
  8
0
  6
CONTINUOUS
 62
   249
 10
192.5
 20
137.5
 30
0.0
 11
110.0
 21
137.5
 31
0.0
  0
LINE
  8
0
  6
CONTINUOUS
 62
   249
 10
217.950615
 20
222.5
 30
0.0
 11
227.5
 21
222.5
 31
0.0
  0
LINE
  8
0
  6
CONTINUOUS
 62
   249
 10
227.5
 20
222.5
 30
0.0
 11
227.5
 21
157.5
 31
0.0
  0
LINE
  8
0
  6
CONTINUOUS
 62
   249
 10
217.950615
 20
187.5
 30
0.0
 11
222.5
 21
187.5
 31
0.0
  0
LINE
  8
0
  6
CONTINUOUS
 62
   249
 10
222.5
 20
187.5
 30
0.0
 11
222.5
 21
205.0
 31
0.0
  0
LINE
  8
0
  6
CONTINUOUS
 62
   249
 10
217.950615
 20
205.0
 30
0.0
 11
222.5
 21
205.0
 31
0.0
  0
TEXT
  8
0
  6
DASHED
 62
   249
 10
363.572971
 20
250.969341
 30
0.0
 40
2.5
  1
U
  0
LINE
  8
0
  6
CONTINUOUS
 62
   249
 10
369.186464
 20
253.608224
 30
0.0
 11
371.532229
 21
252.27287
 31
0.0
  0
LINE
  8
0
  6
CONTINUOUS
 62
   249
 10
371.532229
 20
252.27287
 30
0.0
 11
369.186464
 21
251.082951
 31
0.0
  0
LINE
  8
0
  6
CONTINUOUS
 62
   249
 10
370.633702
 20
243.52993
 30
0.0
 11
372.979467
 21
242.194576
 31
0.0
  0
LINE
  8
0
  6
CONTINUOUS
 62
   249
 10
371.207516
 20
242.194576
 30
0.0
 11
368.86175
 21
241.004657
 31
0.0
  0
LINE
  8
0
  6
CONTINUOUS
 62
   249
 10
368.86175
 20
243.52993
 30
0.0
 11
371.207516
 21
242.194576
 31
0.0
  0
LINE
  8
0
  6
CONTINUOUS
 62
   249
 10
372.979467
 20
242.194576
 30
0.0
 11
370.633702
 21
241.004657
 31
0.0
  0
TEXT
  8
0
  6
DASHED
 62
   249
 10
363.557755
 20
240.989757
 30
0.0
 40
2.5
  1
U
  0
LINE
  8
0
  6
CONTINUOUS
 62
   249
 10
363.100275
 20
247.650916
 30
0.0
 11
363.100275
 21
245.862785
 31
0.0
  0
LINE
  8
0
  6
CONTINUOUS
 62
   249
 10
363.131307
 20
246.805638
 30
0.0
 11
370.919512
 21
246.805638
 31
0.0
  0
LINE
  8
0
  6
CONTINUOUS
 62
   249
 10
365.515452
 20
245.638035
 30
0.0
 11
368.391562
 21
248.466594
 31
0.0
  0
LINE
  8
0
  6
CONTINUOUS
 62
   249
 10
367.960859
 20
249.003801
 30
0.0
 11
368.861536
 21
247.880051
 31
0.0
  0
LINE
  8
0
  6
CONTINUOUS
 62
   249
 10
370.914971
 20
247.650916
 30
0.0
 11
370.914971
 21
245.862785
 31
0.0
  0
LINE
  8
0
  6
CONTINUOUS
 62
   249
 10
369.479395
 20
233.573188
 30
0.0
 11
371.82516
 21
232.237835
 31
0.0
  0
LINE
  8
0
  6
CONTINUOUS
 62
   249
 10
371.82516
 20
232.237835
 30
0.0
 11
369.479395
 21
231.047915
 31
0.0
  0
TEXT
  8
0
  6
DASHED
 62
   249
 10
366.429704
 20
231.055529
 30
0.0
 40
2.5
  1
U
  0
TEXT
  8
0
  6
DASHED
 62
   249
 10
366.460136
 20
220.779952
 30
0.0
 40
2.5
  1
U
  0
LINE
  8
0
  6
CONTINUOUS
 62
   249
 10
369.522196
 20
222.149877
 30
0.0
 11
371.867961
 21
223.339796
 31
0.0
  0
LINE
  8
0
  6
CONTINUOUS
 62
   249
 10
371.867961
 20
220.814523
 30
0.0
 11
369.522196
 21
222.149877
 31
0.0
  0
LINE
  8
0
  6
CONTINUOUS
 62
   249
 10
363.100275
 20
217.918079
 30
0.0
 11
363.100275
 21
216.129948
 31
0.0
  0
LINE
  8
0
  6
CONTINUOUS
 62
   249
 10
367.960859
 20
219.270963
 30
0.0
 11
368.861536
 21
218.147214
 31
0.0
  0
LINE
  8
0
  6
CONTINUOUS
 62
   249
 10
365.515452
 20
215.905198
 30
0.0
 11
368.391562
 21
218.733756
 31
0.0
  0
LINE
  8
0
  6
CONTINUOUS
 62
   249
 10
370.914971
 20
217.918079
 30
0.0
 11
370.914971
 21
216.129948
 31
0.0
  0
LINE
  8
0
  6
CONTINUOUS
 62
   249
 10
363.131307
 20
217.0728
 30
0.0
 11
370.919512
 21
217.0728
 31
0.0
  0
TEXT
  8
0
  6
DASHED
 62
   249
 10
340.330437
 20
199.230671
 30
0.0
 40
2.0
  1
OVER-, UNDER- AND NEUTRAL
  7
ROMANS
  0
TEXT
  8
0
  6
DASHED
 62
   249
 10
340.330437
 20
195.897337
 30
0.0
 40
2.0
  1
VOLTAGE RELAY/
  7
ROMANS
  0
TEXT
  8
0
  6
DASHED
 62
   249
 10
340.330437
 20
192.564004
 30
0.0
 40
2.0
  1
ÖVER-, UNDER- OCH NOLL-
  7
ROMANS
  0
TEXT
  8
0
  6
DASHED
 62
   249
 10
340.330437
 20
189.230671
 30
0.0
 40
2.0
  1
PUNKTSSPÄNNINGSSKYDD
  7
ROMANS
  0
LINE
  8
0
  6
DASHED
 62
   249
 10
177.5
 20
85.0
 30
0.0
 11
177.5
 21
77.5
 31
0.0
  0
TEXT
  8
0
  6
CONTINUOUS
 62
   249
 10
44.864334
 20
52.547288
 30
0.0
 40
2.0
  1
NOTE. ONLY CONTACT (A) IS CAPABLE OF
  7
ROMANS
  0
TEXT
  8
0
  6
CONTINUOUS
 62
   249
 10
45.533842
 20
49.213954
 30
0.0
 40
2.0
  1
     CONTROLLING DIRECTLY THE 
  7
ROMANS
  0
TEXT
  8
0
  6
CONTINUOUS
 62
   249
 10
45.533842
 20
45.880621
 30
0.0
 40
2.0
  1
     BREAKER TRIP COIL
  7
ROMANS
  0
TEXT
  8
0
  6
CONTINUOUS
 62
   249
 10
44.864334
 20
39.619197
 30
0.0
 40
2.0
  1
OBS.  ENDAST KONTAKT (A) ÄR DIMENSIO-
  7
ROMANS
  0
TEXT
  8
0
  6
CONTINUOUS
 62
   249
 10
45.533842
 20
36.285863
 30
0.0
 40
2.0
  1
     NERAD FÖR DIREKT ANSLUTNING TILL
  7
ROMANS
  0
TEXT
  8
0
  6
CONTINUOUS
 62
   249
 10
45.533842
 20
32.95253
 30
0.0
 40
2.0
  1
     UTLÖSNINGSKRETSEN
  7
ROMANS
  0
LINE
  8
0
 62
   249
 10
0.237099
 20
0.237999
 30
0.0
 11
0.237099
 21
262.737999
 31
0.0
  0
LINE
  8
0
 62
   249
 10
392.237099
 20
262.737999
 30
0.0
 11
392.237099
 21
0.237999
 31
0.0
  0
LINE
  8
0
 62
   249
 10
0.237099
 20
0.237999
 30
0.0
 11
392.237099
 21
0.237999
 31
0.0
  0
TEXT
  8
0
 62
   249
 10
42.237099
 20
5.598529
 30
0.0
 40
2.5
  1
C
  7
ROMANS
  0
TEXT
  8
0
 62
   249
 10
42.237099
 20
1.184272
 30
0.0
 40
2.5
  1
B
  7
ROMANS
  0
TEXT
  8
0
 62
   249
 10
257.407006
 20
1.741783
 30
0.0
 40
3.0
  1
Power
 41
0.8
  7
ROMANS
  0
TEXT
  8
0
 62
   249
 10
273.237099
 20
7.237999
 30
0.0
 40
1.4
  1
VAST.OSASTO RESP.DEPT.
  7
ROMANS
  0
TEXT
  8
0
 62
   249
 10
210.237099
 20
32.237999
 30
0.0
 40
1.4
  1
TEKI  PREPARED
  7
ROMANS
  0
LINE
  8
0
 62
   249
 10
271.237099
 20
9.737999
 30
0.0
 11
271.237099
 21
0.237999
 31
0.0
  0
LINE
  8
0
 62
   249
 10
257.237099
 20
9.737999
 30
0.0
 11
257.237099
 21
35.237999
 31
0.0
  0
LINE
  8
0
 62
   249
 10
40.737099
 20
4.737999
 30
0.0
 11
209.237099
 21
4.737999
 31
0.0
  0
LINE
  8
0
 62
   249
 10
46.737099
 20
0.237999
 30
0.0
 11
46.737099
 21
9.237999
 31
0.0
  0
LINE
  8
0
 62
   249
 10
46.737099
 20
9.237999
 30
0.0
 11
209.237099
 21
9.237999
 31
0.0
  0
TEXT
  8
0
 62
   249
 10
27.737099
 20
2.471333
 30
0.0
 40
1.4
  1
REVISION
  7
ROMANS
  0
TEXT
  8
0
 62
   249
 10
27.737099
 20
4.737999
 30
0.0
 40
1.4
  1
MUUTOS
  7
ROMANS
  0
LINE
  8
0
 62
   249
 10
282.237099
 20
9.737999
 30
0.0
 11
282.237099
 21
18.237999
 31
0.0
  0
TEXT
  8
0
 62
   249
 10
237.737099
 20
1.737999
 30
0.0
 40
3.0
  1
Strömberg
 41
0.8
  7
ROMANS
  0
TEXT
  8
0
 62
   249
 10
229.737099
 20
1.737999
 30
0.0
 40
3.0
  1
ABB 
 41
0.8
  7
ROMANS
  0
LINE
  8
0
 62
   249
 10
223.137099
 20
1.737999
 30
0.0
 11
223.137099
 21
5.097999
 31
0.0
  0
LINE
  8
0
 62
   249
 10
223.137099
 20
8.737999
 30
0.0
 11
225.097099
 21
8.737999
 31
0.0
  0
LINE
  8
0
 62
   249
 10
225.097099
 20
8.737999
 30
0.0
 11
225.097099
 21
5.377999
 31
0.0
  0
LINE
  8
0
 62
   249
 10
225.097099
 20
5.377999
 30
0.0
 11
223.137099
 21
5.377999
 31
0.0
  0
LINE
  8
0
 62
   249
 10
223.137099
 20
5.097999
 30
0.0
 11
225.097099
 21
5.097999
 31
0.0
  0
LINE
  8
0
 62
   249
 10
225.097099
 20
5.097999
 30
0.0
 11
225.097099
 21
1.737999
 31
0.0
  0
LINE
  8
0
 62
   249
 10
225.097099
 20
1.737999
 30
0.0
 11
223.137099
 21
1.737999
 31
0.0
  0
LINE
  8
0
 62
   249
 10
223.137099
 20
5.377999
 30
0.0
 11
223.137099
 21
8.737999
 31
0.0
  0
ARC
  8
0
 62
   249
 10
225.937099
 20
7.162999
 30
0.0
 40
1.575
 50
298.455859
 51
90.052437
  0
LINE
  8
0
 62
   249
 10
225.377099
 20
8.737999
 30
0.0
 11
225.935658
 21
8.737999
 31
0.0
  0
LINE
  8
0
 62
   249
 10
225.377099
 20
8.737999
 30
0.0
 11
225.377099
 21
5.377999
 31
0.0
  0
LINE
  8
0
 62
   249
 10
225.377099
 20
5.377999
 30
0.0
 11
227.361542
 21
5.377999
 31
0.0
  0
LINE
  8
0
 62
   249
 10
227.617099
 20
5.097999
 30
0.0
 11
225.377099
 21
5.097999
 31
0.0
  0
LINE
  8
0
 62
   249
 10
225.377099
 20
5.097999
 30
0.0
 11
225.377099
 21
1.737999
 31
0.0
  0
ARC
  8
0
 62
   249
 10
225.937099
 20
3.837999
 30
0.0
 40
2.1
 50
269.937724
 51
37.056553
  0
LINE
  8
0
 62
   249
 10
225.377099
 20
1.737999
 30
0.0
 11
225.934817
 21
1.738
 31
0.0
  0
ARC
  8
0
 62
   249
 10
225.937099
 20
3.837999
 30
0.0
 40
2.1
 50
47.28622
 51
68.787999
  0
ARC
  8
0
 62
   249
 10
220.477099
 20
3.837999
 30
0.0
 40
2.1
 50
47.28622
 51
68.787999
  0
LINE
  8
0
 62
   249
 10
219.917099
 20
1.737999
 30
0.0
 11
220.474817
 21
1.738
 31
0.0
  0
ARC
  8
0
 62
   249
 10
220.477099
 20
3.837999
 30
0.0
 40
2.1
 50
269.937724
 51
37.056553
  0
LINE
  8
0
 62
   249
 10
219.917099
 20
5.097999
 30
0.0
 11
219.917099
 21
1.737999
 31
0.0
  0
LINE
  8
0
 62
   249
 10
222.157099
 20
5.097999
 30
0.0
 11
219.917099
 21
5.097999
 31
0.0
  0
LINE
  8
0
 62
   249
 10
219.917099
 20
5.377999
 30
0.0
 11
221.901542
 21
5.377999
 31
0.0
  0
LINE
  8
0
 62
   249
 10
219.917099
 20
8.737999
 30
0.0
 11
219.917099
 21
5.377999
 31
0.0
  0
LINE
  8
0
 62
   249
 10
219.917099
 20
8.737999
 30
0.0
 11
220.475658
 21
8.737999
 31
0.0
  0
ARC
  8
0
 62
   249
 10
220.477099
 20
7.162999
 30
0.0
 40
1.575
 50
298.455859
 51
90.052437
  0
LINE
  8
0
 62
   249
 10
217.677099
 20
5.377999
 30
0.0
 11
217.677099
 21
8.737999
 31
0.0
  0
LINE
  8
0
 62
   249
 10
219.637099
 20
1.737999
 30
0.0
 11
217.677099
 21
1.737999
 31
0.0
  0
LINE
  8
0
 62
   249
 10
219.637099
 20
5.097999
 30
0.0
 11
219.637099
 21
1.737999
 31
0.0
  0
LINE
  8
0
 62
   249
 10
217.677099
 20
5.097999
 30
0.0
 11
219.637099
 21
5.097999
 31
0.0
  0
LINE
  8
0
 62
   249
 10
219.637099
 20
5.377999
 30
0.0
 11
217.677099
 21
5.377999
 31
0.0
  0
LINE
  8
0
 62
   249
 10
219.637099
 20
8.737999
 30
0.0
 11
219.637099
 21
5.377999
 31
0.0
  0
LINE
  8
0
 62
   249
 10
217.677099
 20
8.737999
 30
0.0
 11
219.637099
 21
8.737999
 31
0.0
  0
LINE
  8
0
 62
   249
 10
217.677099
 20
1.737999
 30
0.0
 11
217.677099
 21
5.097999
 31
0.0
  0
LINE
  8
0
 62
   249
 10
211.356988
 20
5.080538
 30
0.0
 11
210.187099
 21
1.737999
 31
0.0
  0
LINE
  8
0
 62
   249
 10
213.547099
 20
5.097999
 30
0.0
 11
213.547099
 21
3.137999
 31
0.0
  0
LINE
  8
0
 62
   249
 10
213.827099
 20
5.097999
 30
0.0
 11
213.827099
 21
3.137999
 31
0.0
  0
LINE
  8
0
 62
   249
 10
213.827099
 20
5.097999
 30
0.0
 11
216.010356
 21
5.097999
 31
0.0
  0
LINE
  8
0
 62
   249
 10
213.827099
 20
5.377999
 30
0.0
 11
215.912213
 21
5.377999
 31
0.0
  0
LINE
  8
0
 62
   249
 10
216.011591
 20
5.096594
 30
0.0
 11
217.187099
 21
1.737999
 31
0.0
  0
LINE
  8
0
 62
   249
 10
211.360082
 20
5.097999
 30
0.0
 11
213.547099
 21
5.097999
 31
0.0
  0
LINE
  8
0
 62
   249
 10
211.45904
 20
5.377999
 30
0.0
 11
213.547099
 21
5.377999
 31
0.0
  0
LINE
  8
0
 62
   249
 10
213.547099
 20
8.737999
 30
0.0
 11
212.637099
 21
8.737999
 31
0.0
  0
LINE
  8
0
 62
   249
 10
213.827099
 20
3.137999
 30
0.0
 11
214.946992
 21
3.137999
 31
0.0
  0
LINE
  8
0
 62
   249
 10
213.827099
 20
8.737999
 30
0.0
 11
213.827099
 21
5.377999
 31
0.0
  0
LINE
  8
0
 62
   249
 10
213.547099
 20
8.737999
 30
0.0
 11
213.547099
 21
5.377999
 31
0.0
  0
LINE
  8
0
 62
   249
 10
214.737099
 20
8.737999
 30
0.0
 11
213.827099
 21
8.737999
 31
0.0
  0
LINE
  8
0
 62
   249
 10
214.948197
 20
3.134863
 30
0.0
 11
215.437099
 21
1.737999
 31
0.0
  0
LINE
  8
0
 62
   249
 10
214.737099
 20
8.737999
 30
0.0
 11
215.913452
 21
5.376991
 31
0.0
  0
LINE
  8
0
 62
   249
 10
212.425889
 20
3.134542
 30
0.0
 11
211.937099
 21
1.737999
 31
0.0
  0
LINE
  8
0
 62
   249
 10
212.425886
 20
3.137999
 30
0.0
 11
213.547099
 21
3.137999
 31
0.0
  0
LINE
  8
0
 62
   249
 10
212.637099
 20
8.737999
 30
0.0
 11
211.459571
 21
5.373634
 31
0.0
  0
LINE
  8
0
 62
   249
 10
215.437099
 20
1.737999
 30
0.0
 11
217.187099
 21
1.737999
 31
0.0
  0
LINE
  8
0
 62
   249
 10
210.187099
 20
1.737999
 30
0.0
 11
211.937099
 21
1.737999
 31
0.0
  0
LINE
  8
0
 62
   249
 10
369.737099
 20
9.737999
 30
0.0
 11
369.737099
 21
0.237999
 31
0.0
  0
TEXT
  8
0
 62
   249
 10
371.237099
 20
7.237999
 30
0.0
 40
1.4
  1
PAINOS  REVISION
  7
ROMANS
  0
LINE
  8
0
 62
   249
 10
349.737099
 20
9.737999
 30
0.0
 11
349.737099
 21
18.237999
 31
0.0
  0
TEXT
  8
0
 62
   249
 10
309.237099
 20
7.237999
 30
0.0
 40
1.4
  1
PIIRUSTUS NO  DRAWING NR
  7
ROMANS
  0
TEXT
  8
0
 62
   249
 10
309.237099
 20
15.737999
 30
0.0
 40
1.4
  1
KOODI  CODE
  7
ROMANS
  0
TEXT
  8
0
 62
   249
 10
309.237099
 20
32.737999
 30
0.0
 40
1.4
  1
NIMITYS  NAME
  7
ROMANS
  0
TEXT
  8
0
 62
   249
 10
259.237099
 20
15.737999
 30
0.0
 40
1.4
  1
SUHDE  SCALE
  7
ROMANS
  0
TEXT
  8
0
 62
   249
 10
259.237099
 20
23.737999
 30
0.0
 40
1.4
  1
TOLERANSSIT  TOLERANCES
  7
ROMANS
  0
TEXT
  8
0
 62
   249
 10
259.237099
 20
32.737999
 30
0.0
 40
1.4
  1
LIITTYY  CONCERNING
  7
ROMANS
  0
LINE
  8
0
 62
   249
 10
307.237099
 20
0.237999
 30
0.0
 11
307.237099
 21
35.237999
 31
0.0
  0
TEXT
  8
0
 62
   249
 10
209.979934
 20
15.704666
 30
0.0
 40
1.4
  1
HYVÄKSYI  APPROVED
  7
ROMANS
  0
TEXT
  8
0
 62
   249
 10
210.237099
 20
23.971333
 30
0.0
 40
1.4
  1
TARKASTI  CHECKED
  7
ROMANS
  0
LINE
  8
0
 62
   249
 10
209.237099
 20
35.237999
 30
0.0
 11
392.237099
 21
35.237999
 31
0.0
  0
LINE
  8
0
 62
   249
 10
209.237099
 20
26.737999
 30
0.0
 11
307.237099
 21
26.737999
 31
0.0
  0
LINE
  8
0
 62
   249
 10
209.237099
 20
9.737999
 30
0.0
 11
392.237099
 21
9.737999
 31
0.0
  0
LINE
  8
0
 62
   249
 10
209.237099
 20
18.237999
 30
0.0
 11
392.237099
 21
18.237999
 31
0.0
  0
LINE
  8
0
 62
   249
 10
392.237099
 20
0.237999
 30
0.0
 11
392.237099
 21
35.237999
 31
0.0
  0
LINE
  8
0
 62
   249
 10
209.237099
 20
0.237999
 30
0.0
 11
209.237099
 21
35.237999
 31
0.0
  0
LINE
  8
0
 62
   249
 10
209.237099
 20
0.237999
 30
0.0
 11
392.237099
 21
0.237999
 31
0.0
  0
LINE
  8
0
 62
   249
 10
18.237099
 20
0.237999
 30
0.0
 11
0.237099
 21
0.237999
 31
0.0
  0
LINE
  8
0
 62
   249
 10
0.237099
 20
262.737999
 30
0.0
 11
392.237099
 21
262.737999
 31
0.0
  0
TEXT
  8
0
  6
CONTINUOUS
 62
   249
 10
291.152069
 20
12.309276
 30
0.0
 40
3.0
  1
A3
  0
TEXT
  8
0
  6
CONTINUOUS
 62
   249
 10
351.869321
 20
15.737914
 30
0.0
 40
1.4
  1
LEHTI SHEET
  0
TEXT
  8
0
  6
CONTINUOUS
 62
   249
 10
372.268215
 20
12.134532
 30
0.0
 40
2.0
  1
1
  7
ROMANS
  0
LINE
  8
0
  6
CONTINUOUS
 62
   249
 10
225.0
 20
105.429605
 30
0.0
 11
225.0
 21
102.5
 31
0.0
  0
LINE
  8
0
  6
CONTINUOUS
 62
   249
 10
220.0
 20
105.429605
 30
0.0
 11
220.0
 21
102.5
 31
0.0
  0
LINE
  8
0
  6
CONTINUOUS
 62
   249
 10
225.0
 20
120.0
 30
0.0
 11
225.0
 21
114.752154
 31
0.0
  0
LINE
  8
0
  6
CONTINUOUS
 62
   249
 10
220.0
 20
120.0
 30
0.0
 11
220.0
 21
114.752154
 31
0.0
  0
LINE
  8
0
 62
   249
 10
222.466311
 20
107.72844
 30
0.0
 11
226.466311
 21
107.72844
 31
0.0
  0
LINE
  8
0
 62
   249
 10
218.709901
 20
112.674464
 30
0.0
 11
222.709901
 21
112.674464
 31
0.0
  0
LINE
  8
0
 62
   249
 10
217.795103
 20
106.386207
 30
0.0
 11
226.158613
 21
114.752154
 31
0.0
  0
LINE
  8
0
 62
   249
 10
218.779395
 20
105.429605
 30
0.0
 11
227.119756
 21
113.767352
 31
0.0
  0
LINE
  8
0
 62
   249
 10
217.795103
 20
105.429605
 30
0.0
 11
217.795103
 21
114.752154
 31
0.0
  0
LINE
  8
0
 62
   249
 10
227.119756
 20
105.429605
 30
0.0
 11
217.795103
 21
105.429605
 31
0.0
  0
LINE
  8
0
 62
   249
 10
227.119756
 20
114.752154
 30
0.0
 11
227.119756
 21
105.429605
 31
0.0
  0
LINE
  8
0
 62
   249
 10
217.795103
 20
114.752154
 30
0.0
 11
227.119756
 21
114.752154
 31
0.0
  0
TEXT
  8
0
  6
CONTINUOUS
 62
   249
 10
219.366734
 20
120.55315
 30
0.0
 40
2.0
  1
+
  0
TEXT
  8
0
  6
CONTINUOUS
 62
   249
 10
224.297086
 20
120.577719
 30
0.0
 40
2.0
  1
-
  0
LINE
  8
0
  6
CONTINUOUS
 62
   249
 10
232.5
 20
174.5
 30
0.0
 11
233.5
 21
173.5
 31
0.0
  0
LINE
  8
0
  6
CONTINUOUS
 62
   249
 10
232.5
 20
220.5
 30
0.0
 11
233.5
 21
221.5
 31
0.0
  0
LINE
  8
0
  6
CONTINUOUS
 62
   249
 10
232.5
 20
220.5
 30
0.0
 11
232.5
 21
174.5
 31
0.0
  0
LINE
  8
0
  6
CONTINUOUS
 62
   249
 10
67.5
 20
230.0
 30
0.0
 11
57.5
 21
230.0
 31
0.0
  0
LINE
  8
0
  6
CONTINUOUS
 62
   249
 10
70.298812
 20
230.0
 30
0.0
 11
65.598812
 21
230.0
 31
0.0
  0
LINE
  8
0
 62
   249
 10
70.298812
 20
236.589925
 30
0.0
 11
70.298812
 21
228.4
 31
0.0
  0
LINE
  8
0
 62
   249
 10
74.504853
 20
236.59384
 30
0.0
 11
72.59105
 21
234.315018
 31
0.0
  0
LINE
  8
0
 62
   249
 10
75.996971
 20
236.59384
 30
0.0
 11
74.142636
 21
234.315018
 31
0.0
  0
LINE
  8
0
 62
   249
 10
77.721556
 20
236.589925
 30
0.0
 11
70.298812
 21
236.589925
 31
0.0
  0
LINE
  8
0
 62
   249
 10
70.298812
 20
228.4
 30
0.0
 11
77.721556
 21
228.4
 31
0.0
  0
LINE
  8
0
 62
   249
 10
77.721556
 20
228.4
 30
0.0
 11
77.721556
 21
236.589925
 31
0.0
  0
LINE
  8
0
  6
CONTINUOUS
 62
   249
 10
77.721556
 20
232.5
 30
0.0
 11
175.0
 21
232.5
 31
0.0
  0
LINE
  8
0
  6
CONTINUOUS
 62
   249
 10
75.0
 20
147.5
 30
0.0
 11
57.5
 21
147.5
 31
0.0
  0
LINE
  8
0
  6
CONTINUOUS
 62
   249
 10
75.0
 20
137.5
 30
0.0
 11
57.5
 21
137.5
 31
0.0
  0
LINE
  8
0
  6
CONTINUOUS
 62
   249
 10
187.50793
 20
127.5
 30
0.0
 11
187.50793
 21
85.0
 31
0.0
  0
LINE
  8
0
  6
CONTINUOUS
 62
   249
 10
177.5
 20
85.0
 30
0.0
 11
177.5
 21
107.5
 31
0.0
  0
LINE
  8
0
  6
CONTINUOUS
 62
   249
 10
172.5
 20
85.0
 30
0.0
 11
172.5
 21
97.5
 31
0.0
  0
LINE
  8
0
  6
CONTINUOUS
 62
   249
 10
192.5
 20
85.0
 30
0.0
 11
192.5
 21
137.5
 31
0.0
  0
LINE
  8
0
  6
CONTINUOUS
 62
   249
 10
197.5
 20
85.0
 30
0.0
 11
197.5
 21
147.5
 31
0.0
  0
ARC
  8
0
  6
CONTINUOUS
 62
   249
 10
252.5
 20
135.0
 30
0.0
 40
2.5
 50
90.0
 51
270.0
  0
LINE
  8
0
  6
DASHED
 62
   249
 10
255.0
 20
135.0
 30
0.0
 11
262.5
 21
135.0
 31
0.0
  0
TEXT
  8
0
  6
HIDDEN
 62
   249
 10
232.936731
 20
130.257064
 30
0.0
 40
2.0
  1
108:RX/TX
  7
ROMANS
  0
TEXT
  8
0
  6
HIDDEN
 62
   249
 10
208.697479
 20
202.865153
 30
0.0
 40
2.5
  1
3
  0
LINE
  8
0
  6
CONTINUOUS
 62
   249
 10
187.5
 20
185.0
 30
0.0
 11
57.5
 21
185.0
 31
0.0
  0
TEXT
  8
0
  6
CONTINUOUS
 62
   249
 10
212.36312
 20
190.0
 30
0.0
 40
2.5
  1
U3
  0
LINE
  8
0
  6
CONTINUOUS
 62
   249
 10
196.689593
 20
186.936802
 30
0.0
 11
196.689593
 21
183.063198
 31
0.0
  0
LINE
  8
0
  6
CONTINUOUS
 62
   249
 10
196.689593
 20
183.063198
 30
0.0
 11
206.373605
 21
183.063198
 31
0.0
  0
LINE
  8
0
  6
CONTINUOUS
 62
   249
 10
206.373605
 20
186.936802
 30
0.0
 11
196.689593
 21
186.936802
 31
0.0
  0
LINE
  8
0
  6
CONTINUOUS
 62
   249
 10
208.803941
 20
185.0
 30
0.0
 11
206.373605
 21
186.936802
 31
0.0
  0
LINE
  8
0
  6
CONTINUOUS
 62
   249
 10
208.803941
 20
185.0
 30
0.0
 11
206.373605
 21
183.063198
 31
0.0
  0
LINE
  8
0
  6
CONTINUOUS
 62
   249
 10
217.950615
 20
185.0
 30
0.0
 11
227.5
 21
185.0
 31
0.0
  0
LINE
  8
0
  6
CONTINUOUS
 62
   249
 10
217.950615
 20
182.5
 30
0.0
 11
222.5
 21
182.5
 31
0.0
  0
LINE
  8
0
  6
CONTINUOUS
 62
   249
 10
222.5
 20
182.5
 30
0.0
 11
222.5
 21
160.0
 31
0.0
  0
LINE
  8
0
  6
CONTINUOUS
 62
   249
 10
222.5
 20
160.0
 30
0.0
 11
175.0
 21
160.0
 31
0.0
  0
LINE
  8
0
  6
CONTINUOUS
 62
   249
 10
217.950615
 20
172.5
 30
0.0
 11
225.0
 21
172.5
 31
0.0
  0
LINE
  8
0
  6
CONTINUOUS
 62
   249
 10
225.0
 20
172.5
 30
0.0
 11
225.0
 21
135.0
 31
0.0
  0
LINE
  8
0
  6
CONTINUOUS
 62
   249
 10
225.0
 20
135.0
 30
0.0
 11
250.0
 21
135.0
 31
0.0
  0
TEXT
  8
0
  6
HIDDEN
 62
   249
 10
37.521315
 20
183.991345
 30
0.0
 40
2.0
  1
2)
  7
ROMANS
  0
LINE
  8
0
  6
DASHED
 62
   249
 10
57.5
 20
185.0
 30
0.0
 11
45.0
 21
185.0
 31
0.0
  0
LINE
  8
0
  6
CONTINUOUS
 62
   249
 10
59.742308
 20
184.25712
 30
0.0
 11
60.959015
 21
185.667057
 31
0.0
  0
TEXT
  8
0
  6
CONTINUOUS
 62
   249
 10
60.436731
 20
186.543899
 30
0.0
 40
1.5
  1
25
  7
ROMANS
  0
TEXT
  8
0
  6
CONTINUOUS
 62
   249
 10
58.854258
 20
181.039552
 30
0.0
 40
2.0
  1
RS 232C
  7
ROMANS
  0
LINE
  8
0
  6
CONTINUOUS
 62
   249
 10
357.5
 20
215.0
 30
0.0
 11
357.5
 21
207.5
 31
0.0
  0
LINE
  8
0
  6
CONTINUOUS
 62
   249
 10
357.5
 20
207.5
 30
0.0
 11
377.5
 21
207.5
 31
0.0
  0
LINE
  8
0
  6
CONTINUOUS
 62
   249
 10
377.5
 20
207.5
 30
0.0
 11
377.5
 21
215.0
 31
0.0
  0
TEXT
  8
0
  6
CONTINUOUS
 62
   249
 10
363.611038
 20
231.055024
 30
0.0
 40
2.5
  1
3
  0
TEXT
  8
0
  6
CONTINUOUS
 62
   249
 10
363.656772
 20
220.78321
 30
0.0
 40
2.5
  1
3
  0
LINE
  8
0
  6
CONTINUOUS
 62
   249
 10
372.238406
 20
211.063516
 30
0.0
 11
370.389396
 21
209.589989
 31
0.0
  0
LINE
  8
0
  6
CONTINUOUS
 62
   249
 10
372.238406
 20
211.063516
 30
0.0
 11
370.389396
 21
212.537043
 31
0.0
  0
LINE
  8
0
  6
CONTINUOUS
 62
   249
 10
370.389396
 20
212.537043
 30
0.0
 11
363.021762
 21
212.537043
 31
0.0
  0
LINE
  8
0
  6
CONTINUOUS
 62
   249
 10
363.021762
 20
209.589989
 30
0.0
 11
370.389396
 21
209.589989
 31
0.0
  0
LINE
  8
0
  6
CONTINUOUS
 62
   249
 10
363.021762
 20
212.537043
 30
0.0
 11
363.021762
 21
209.589989
 31
0.0
  0
TEXT
  8
0
  6
CONTINUOUS
 62
   249
 10
265.0
 20
133.953065
 30
0.0
 40
2.0
  1
6)
  7
ROMANS
  0
TEXT
  8
0
  6
CONTINUOUS
 62
   249
 10
334.03098
 20
133.605422
 30
0.0
 40
2.0
  1
1) EXTERNAL BLOCKING
  7
ROMANS
  0
TEXT
  8
0
  6
CONTINUOUS
 62
   249
 10
332.692408
 20
130.272088
 30
0.0
 40
2.0
  1
   EXTERN BLOCKERING
  7
ROMANS
  0
TEXT
  8
0
  6
CONTINUOUS
 62
   249
 10
333.361473
 20
124.438755
 30
0.0
 40
2.0
  1
2) RS 232 C, ONLY FOR 
  7
ROMANS
  0
TEXT
  8
0
  6
CONTINUOUS
 62
   249
 10
332.693607
 20
121.105422
 30
0.0
 40
2.0
  1
   DISTURBANCE RECORDER
  7
ROMANS
  0
TEXT
  8
0
  6
CONTINUOUS
 62
   249
 10
332.691529
 20
117.772088
 30
0.0
 40
2.0
  1
   RS 232 C, ENDAST FÖR
  7
ROMANS
  0
TEXT
  8
0
  6
CONTINUOUS
 62
   249
 10
332.691529
 20
114.438755
 30
0.0
 40
2.0
  1
   STÖRNINGSREGISTRERING
  7
ROMANS
  0
TEXT
  8
0
  6
CONTINUOUS
 62
   249
 10
333.361473
 20
108.605422
 30
0.0
 40
2.0
  1
3) TRIP ETC.     NOTE
  7
ROMANS
  0
TEXT
  8
0
  6
CONTINUOUS
 62
   249
 10
332.700329
 20
105.272088
 30
0.0
 40
2.0
  1
   UTLÖSNING MM.   OBS.
  7
ROMANS
  0
TEXT
  8
0
  6
CONTINUOUS
 62
   249
 10
333.361473
 20
99.438755
 30
0.0
 40
2.0
  1
4) START. ALARM ETC.
  7
ROMANS
  0
TEXT
  8
0
  6
CONTINUOUS
 62
   249
 10
332.707492
 20
96.105422
 30
0.0
 40
2.0
  1
   START, SIGNAL MM.
  7
ROMANS
  0
TEXT
  8
0
  6
CONTINUOUS
 62
   249
 10
333.361473
 20
90.272088
 30
0.0
 40
2.0
  1
5) INTERNAL RELAY FAULT
  7
ROMANS
  0
TEXT
  8
0
  6
CONTINUOUS
 62
   249
 10
332.694643
 20
86.938755
 30
0.0
 40
2.0
  1
   INTERNT RELÄFEL
  7
ROMANS
  0
TEXT
  8
0
  6
CONTINUOUS
 62
   249
 10
333.361473
 20
81.105422
 30
0.0
 40
2.0
  1
6) BUS CONNECTION MODULE
  7
ROMANS
  0
TEXT
  8
0
  6
CONTINUOUS
 62
   249
 10
338.673852
 20
77.772088
 30
0.0
 40
2.0
  1
BUSSANSLUTNINGSMODUL
  7
ROMANS
  0
LINE
  8
0
  6
CONTINUOUS
 62
   249
 10
182.5
 20
117.5
 30
0.0
 11
182.5
 21
85.0
 31
0.0
  0
TEXT
  8
0
  6
CONTINUOUS
 62
   249
 10
60.0
 20
231.993063
 30
0.0
 40
2.0
  1
10
  7
ROMANS
  0
TEXT
  8
0
  6
CONTINUOUS
 62
   249
 10
60.0
 20
227.359326
 30
0.0
 40
2.0
  1
11
  7
ROMANS
  0
TEXT
  8
0
  6
CONTINUOUS
 62
   249
 10
60.0
 20
144.129699
 30
0.0
 40
2.0
  1
65
  7
ROMANS
  0
TEXT
  8
0
  6
CONTINUOUS
 62
   249
 10
60.0
 20
134.558835
 30
0.0
 40
2.0
  1
68
  7
ROMANS
  0
TEXT
  8
0
  6
CONTINUOUS
 62
   249
 10
60.0
 20
129.473263
 30
0.0
 40
2.0
  1
67
  7
ROMANS
  0
TEXT
  8
0
  6
CONTINUOUS
 62
   249
 10
60.0
 20
124.38769
 30
0.0
 40
2.0
  1
74
  7
ROMANS
  0
TEXT
  8
0
  6
CONTINUOUS
 62
   249
 10
60.0
 20
119.302118
 30
0.0
 40
2.0
  1
73
  7
ROMANS
  0
TEXT
  8
0
  6
CONTINUOUS
 62
   249
 10
60.0
 20
114.205525
 30
0.0
 40
2.0
  1
77
  7
ROMANS
  0
TEXT
  8
0
  6
CONTINUOUS
 62
   249
 10
60.0
 20
109.307299
 30
0.0
 40
2.0
  1
76
  7
ROMANS
  0
TEXT
  8
0
  6
CONTINUOUS
 62
   249
 10
60.0
 20
104.420093
 30
0.0
 40
2.0
  1
80
  7
ROMANS
  0
TEXT
  8
0
  6
CONTINUOUS
 62
   249
 10
60.0
 20
99.334521
 30
0.0
 40
2.0
  1
79
  7
ROMANS
  0
TEXT
  8
0
  6
CONTINUOUS
 62
   249
 10
60.0
 20
94.436295
 30
0.0
 40
2.0
  1
70
  7
ROMANS
  0
TEXT
  8
0
  6
CONTINUOUS
 62
   249
 10
60.0
 20
89.152356
 30
0.0
 40
2.0
  1
71
  7
ROMANS
  0
LINE
  8
0
  6
CONTINUOUS
 62
   249
 10
70.298812
 20
235.0
 30
0.0
 11
57.5
 21
235.0
 31
0.0
  0
TEXT
  8
0
  6
CONTINUOUS
 62
   249
 10
175.456482
 20
87.5
 30
0.0
 40
2.0
  1
72
 50
90.0
  7
ROMANS
  0
TEXT
  8
0
  6
CONTINUOUS
 62
   249
 10
180.311424
 20
87.5
 30
0.0
 40
2.0
  1
81
 50
90.0
  7
ROMANS
  0
TEXT
  8
0
  6
CONTINUOUS
 62
   249
 10
185.318526
 20
87.5
 30
0.0
 40
2.0
  1
78
 50
90.0
  7
ROMANS
  0
TEXT
  8
0
  6
CONTINUOUS
 62
   249
 10
190.614733
 20
87.5
 30
0.0
 40
2.0
  1
75
 50
90.0
  7
ROMANS
  0
TEXT
  8
0
  6
CONTINUOUS
 62
   249
 10
195.33273
 20
87.5
 30
0.0
 40
2.0
  1
69
 50
90.0
  7
ROMANS
  0
TEXT
  8
0
  6
CONTINUOUS
 62
   249
 10
200.476777
 20
87.5
 30
0.0
 40
2.0
  1
66
 50
90.0
  7
ROMANS
  0
TEXT
  8
0
  6
CONTINUOUS
 62
   249
 10
222.967154
 20
87.5
 30
0.0
 40
2.0
  1
61
 50
90.0
  7
ROMANS
  0
TEXT
  8
0
  6
CONTINUOUS
 62
   249
 10
228.126417
 20
87.5
 30
0.0
 40
2.0
  1
62
 50
90.0
  7
ROMANS
  0
TEXT
  8
0
  6
CONTINUOUS
 62
   249
 10
240.422021
 20
87.5
 30
0.0
 40
2.0
  1
63
 50
90.0
  7
ROMANS
  0
LINE
  8
0
 62
   249
 10
236.160985
 20
215.0
 30
0.0
 11
234.641118
 21
215.0
 31
0.0
  0
ARC
  8
0
 62
   249
 10
236.226834
 20
216.25
 30
0.0
 40
1.251733
 50
266.984476
 51
93.015524
  0
LINE
  8
0
 62
   249
 10
236.160985
 20
217.5
 30
0.0
 11
234.641118
 21
217.5
 31
0.0
  0
LINE
  8
0
 62
   249
 10
236.160985
 20
220.0
 30
0.0
 11
234.641118
 21
220.0
 31
0.0
  0
ARC
  8
0
 62
   249
 10
236.226834
 20
218.75
 30
0.0
 40
1.251733
 50
266.984476
 51
93.015524
  0
LINE
  8
0
 62
   249
 10
241.160985
 20
212.5
 30
0.0
 11
243.660985
 21
212.5
 31
0.0
  0
ARC
  8
0
 62
   249
 10
241.095136
 20
213.75
 30
0.0
 40
1.251733
 50
86.984476
 51
273.015524
  0
ARC
  8
0
 62
   249
 10
241.095136
 20
216.25
 30
0.0
 40
1.251733
 50
86.984476
 51
273.015524
  0
LINE
  8
0
 62
   249
 10
241.160985
 20
215.0
 30
0.0
 11
243.660985
 21
215.0
 31
0.0
  0
LINE
  8
0
 62
   249
 10
241.160985
 20
217.5
 30
0.0
 11
243.660985
 21
217.5
 31
0.0
  0
LINE
  8
0
 62
   249
 10
245.0
 20
217.5
 30
0.0
 11
247.5
 21
217.5
 31
0.0
  0
LINE
  8
0
 62
   249
 10
243.660985
 20
212.5
 30
0.0
 11
250.0
 21
212.5
 31
0.0
  0
LINE
  8
0
 62
   249
 10
243.660985
 20
217.5
 30
0.0
 11
250.0
 21
217.5
 31
0.0
  0
LINE
  8
0
 62
   249
 10
245.0
 20
222.5
 30
0.0
 11
247.5
 21
222.5
 31
0.0
  0
LINE
  8
0
 62
   249
 10
241.160985
 20
222.5
 30
0.0
 11
250.0
 21
222.5
 31
0.0
  0
LINE
  8
0
 62
   249
 10
241.160985
 20
220.0
 30
0.0
 11
243.660985
 21
220.0
 31
0.0
  0
ARC
  8
0
 62
   249
 10
241.095136
 20
221.25
 30
0.0
 40
1.251733
 50
86.984476
 51
273.015524
  0
ARC
  8
0
 62
   249
 10
241.095136
 20
218.75
 30
0.0
 40
1.251733
 50
86.984476
 51
273.015524
  0
LINE
  8
0
 62
   249
 10
241.160985
 20
217.5
 30
0.0
 11
243.660985
 21
217.5
 31
0.0
  0
LINE
  8
0
 62
   249
 10
236.160985
 20
195.0
 30
0.0
 11
234.641118
 21
195.0
 31
0.0
  0
ARC
  8
0
 62
   249
 10
236.226834
 20
196.25
 30
0.0
 40
1.251733
 50
266.984476
 51
93.015524
  0
LINE
  8
0
 62
   249
 10
236.160985
 20
197.5
 30
0.0
 11
234.641118
 21
197.5
 31
0.0
  0
LINE
  8
0
 62
   249
 10
236.160985
 20
200.0
 30
0.0
 11
234.641118
 21
200.0
 31
0.0
  0
ARC
  8
0
 62
   249
 10
236.226834
 20
198.75
 30
0.0
 40
1.251733
 50
266.984476
 51
93.015524
  0
LINE
  8
0
 62
   249
 10
241.160985
 20
192.5
 30
0.0
 11
243.660985
 21
192.5
 31
0.0
  0
ARC
  8
0
 62
   249
 10
241.095136
 20
193.75
 30
0.0
 40
1.251733
 50
86.984476
 51
273.015524
  0
ARC
  8
0
 62
   249
 10
241.095136
 20
196.25
 30
0.0
 40
1.251733
 50
86.984476
 51
273.015524
  0
LINE
  8
0
 62
   249
 10
241.160985
 20
195.0
 30
0.0
 11
243.660985
 21
195.0
 31
0.0
  0
LINE
  8
0
 62
   249
 10
241.160985
 20
197.5
 30
0.0
 11
243.660985
 21
197.5
 31
0.0
  0
LINE
  8
0
 62
   249
 10
245.0
 20
197.5
 30
0.0
 11
247.5
 21
197.5
 31
0.0
  0
LINE
  8
0
 62
   249
 10
243.660985
 20
192.5
 30
0.0
 11
250.0
 21
192.5
 31
0.0
  0
LINE
  8
0
 62
   249
 10
243.660985
 20
197.5
 30
0.0
 11
250.0
 21
197.5
 31
0.0
  0
LINE
  8
0
 62
   249
 10
243.660985
 20
202.5
 30
0.0
 11
250.0
 21
202.5
 31
0.0
  0
LINE
  8
0
 62
   249
 10
241.160985
 20
202.5
 30
0.0
 11
243.660985
 21
202.5
 31
0.0
  0
LINE
  8
0
 62
   249
 10
241.160985
 20
200.0
 30
0.0
 11
243.660985
 21
200.0
 31
0.0
  0
ARC
  8
0
 62
   249
 10
241.095136
 20
201.25
 30
0.0
 40
1.251733
 50
86.984476
 51
273.015524
  0
ARC
  8
0
 62
   249
 10
241.095136
 20
198.75
 30
0.0
 40
1.251733
 50
86.984476
 51
273.015524
  0
LINE
  8
0
 62
   249
 10
241.160985
 20
197.5
 30
0.0
 11
243.660985
 21
197.5
 31
0.0
  0
LINE
  8
0
 62
   249
 10
236.160985
 20
175.0
 30
0.0
 11
234.641118
 21
175.0
 31
0.0
  0
ARC
  8
0
 62
   249
 10
236.226834
 20
176.25
 30
0.0
 40
1.251733
 50
266.984476
 51
93.015524
  0
LINE
  8
0
 62
   249
 10
236.160985
 20
177.5
 30
0.0
 11
234.641118
 21
177.5
 31
0.0
  0
LINE
  8
0
 62
   249
 10
236.160985
 20
180.0
 30
0.0
 11
234.641118
 21
180.0
 31
0.0
  0
ARC
  8
0
 62
   249
 10
236.226834
 20
178.75
 30
0.0
 40
1.251733
 50
266.984476
 51
93.015524
  0
LINE
  8
0
 62
   249
 10
241.160985
 20
172.5
 30
0.0
 11
243.660985
 21
172.5
 31
0.0
  0
ARC
  8
0
 62
   249
 10
241.095136
 20
173.75
 30
0.0
 40
1.251733
 50
86.984476
 51
273.015524
  0
ARC
  8
0
 62
   249
 10
241.095136
 20
176.25
 30
0.0
 40
1.251733
 50
86.984476
 51
273.015524
  0
LINE
  8
0
 62
   249
 10
241.160985
 20
175.0
 30
0.0
 11
243.660985
 21
175.0
 31
0.0
  0
LINE
  8
0
 62
   249
 10
241.160985
 20
177.5
 30
0.0
 11
243.660985
 21
177.5
 31
0.0
  0
LINE
  8
0
 62
   249
 10
245.0
 20
177.5
 30
0.0
 11
247.5
 21
177.5
 31
0.0
  0
LINE
  8
0
 62
   249
 10
243.660985
 20
172.5
 30
0.0
 11
250.0
 21
172.5
 31
0.0
  0
LINE
  8
0
 62
   249
 10
243.660985
 20
177.5
 30
0.0
 11
250.0
 21
177.5
 31
0.0
  0
LINE
  8
0
 62
   249
 10
243.660985
 20
182.5
 30
0.0
 11
250.0
 21
182.5
 31
0.0
  0
LINE
  8
0
 62
   249
 10
241.160985
 20
182.5
 30
0.0
 11
243.660985
 21
182.5
 31
0.0
  0
LINE
  8
0
 62
   249
 10
241.160985
 20
180.0
 30
0.0
 11
243.660985
 21
180.0
 31
0.0
  0
ARC
  8
0
 62
   249
 10
241.095136
 20
181.25
 30
0.0
 40
1.251733
 50
86.984476
 51
273.015524
  0
ARC
  8
0
 62
   249
 10
241.095136
 20
178.75
 30
0.0
 40
1.251733
 50
86.984476
 51
273.015524
  0
LINE
  8
0
 62
   249
 10
241.160985
 20
177.5
 30
0.0
 11
243.660985
 21
177.5
 31
0.0
  0
LINE
  8
0
 62
   249
 10
236.160985
 20
155.0
 30
0.0
 11
234.641118
 21
155.0
 31
0.0
  0
ARC
  8
0
 62
   249
 10
236.226834
 20
156.25
 30
0.0
 40
1.251733
 50
266.984476
 51
93.015524
  0
LINE
  8
0
 62
   249
 10
236.160985
 20
157.5
 30
0.0
 11
234.641118
 21
157.5
 31
0.0
  0
LINE
  8
0
 62
   249
 10
236.160985
 20
160.0
 30
0.0
 11
234.641118
 21
160.0
 31
0.0
  0
ARC
  8
0
 62
   249
 10
236.226834
 20
158.75
 30
0.0
 40
1.251733
 50
266.984476
 51
93.015524
  0
LINE
  8
0
 62
   249
 10
241.160985
 20
152.5
 30
0.0
 11
243.660985
 21
152.5
 31
0.0
  0
ARC
  8
0
 62
   249
 10
241.095136
 20
153.75
 30
0.0
 40
1.251733
 50
86.984476
 51
273.015524
  0
ARC
  8
0
 62
   249
 10
241.095136
 20
156.25
 30
0.0
 40
1.251733
 50
86.984476
 51
273.015524
  0
LINE
  8
0
 62
   249
 10
241.160985
 20
155.0
 30
0.0
 11
243.660985
 21
155.0
 31
0.0
  0
LINE
  8
0
 62
   249
 10
241.160985
 20
157.5
 30
0.0
 11
243.660985
 21
157.5
 31
0.0
  0
LINE
  8
0
 62
   249
 10
245.0
 20
157.5
 30
0.0
 11
247.5
 21
157.5
 31
0.0
  0
LINE
  8
0
 62
   249
 10
243.660985
 20
152.5
 30
0.0
 11
250.0
 21
152.5
 31
0.0
  0
LINE
  8
0
 62
   249
 10
243.660985
 20
157.5
 30
0.0
 11
250.0
 21
157.5
 31
0.0
  0
LINE
  8
0
 62
   249
 10
243.660985
 20
162.5
 30
0.0
 11
250.0
 21
162.5
 31
0.0
  0
LINE
  8
0
 62
   249
 10
241.160985
 20
162.5
 30
0.0
 11
243.660985
 21
162.5
 31
0.0
  0
LINE
  8
0
 62
   249
 10
241.160985
 20
160.0
 30
0.0
 11
243.660985
 21
160.0
 31
0.0
  0
ARC
  8
0
 62
   249
 10
241.095136
 20
161.25
 30
0.0
 40
1.251733
 50
86.984476
 51
273.015524
  0
ARC
  8
0
 62
   249
 10
241.095136
 20
158.75
 30
0.0
 40
1.251733
 50
86.984476
 51
273.015524
  0
LINE
  8
0
 62
   249
 10
241.160985
 20
157.5
 30
0.0
 11
243.660985
 21
157.5
 31
0.0
  0
TEXT
  8
0
  6
CONTINUOUS
 62
   249
 10
245.67728
 20
219.693176
 30
0.0
 40
2.0
  1
13
  7
ROMANS
  0
TEXT
  8
0
  6
CONTINUOUS
 62
   249
 10
245.67728
 20
214.640665
 30
0.0
 40
2.0
  1
14
  7
ROMANS
  0
TEXT
  8
0
  6
CONTINUOUS
 62
   249
 10
245.67728
 20
209.588154
 30
0.0
 40
2.0
  1
15
  7
ROMANS
  0
TEXT
  8
0
  6
CONTINUOUS
 62
   249
 10
245.67728
 20
199.807903
 30
0.0
 40
2.0
  1
16
  7
ROMANS
  0
TEXT
  8
0
  6
CONTINUOUS
 62
   249
 10
245.67728
 20
194.612127
 30
0.0
 40
2.0
  1
17
  7
ROMANS
  0
TEXT
  8
0
  6
CONTINUOUS
 62
   249
 10
245.67728
 20
189.846145
 30
0.0
 40
2.0
  1
18
  7
ROMANS
  0
TEXT
  8
0
  6
CONTINUOUS
 62
   249
 10
245.67728
 20
179.62508
 30
0.0
 40
2.0
  1
19
  7
ROMANS
  0
TEXT
  8
0
  6
CONTINUOUS
 62
   249
 10
245.67728
 20
174.682772
 30
0.0
 40
2.0
  1
20
  7
ROMANS
  0
TEXT
  8
0
  6
CONTINUOUS
 62
   249
 10
245.67728
 20
169.729444
 30
0.0
 40
2.0
  1
21
  7
ROMANS
  0
TEXT
  8
0
  6
CONTINUOUS
 62
   249
 10
245.67728
 20
159.816949
 30
0.0
 40
2.0
  1
28
  7
ROMANS
  0
TEXT
  8
0
  6
CONTINUOUS
 62
   249
 10
245.67728
 20
154.731377
 30
0.0
 40
2.0
  1
29
  7
ROMANS
  0
TEXT
  8
0
  6
CONTINUOUS
 62
   249
 10
245.67728
 20
149.767028
 30
0.0
 40
2.0
  1
30
  7
ROMANS
  0
LINE
  8
0
  6
CONTINUOUS
 62
   249
 10
256.905728
 20
219.0
 30
0.0
 11
255.905728
 21
220.0
 31
0.0
  0
LINE
  8
0
  6
CONTINUOUS
 62
   249
 10
256.905728
 20
219.0
 30
0.0
 11
256.905728
 21
212.0
 31
0.0
  0
LINE
  8
0
  6
CONTINUOUS
 62
   249
 10
256.905728
 20
212.0
 30
0.0
 11
255.905728
 21
211.0
 31
0.0
  0
LINE
  8
0
  6
CONTINUOUS
 62
   249
 10
250.0
 20
222.5
 30
0.0
 11
287.5
 21
222.5
 31
0.0
  0
LINE
  8
0
  6
CONTINUOUS
 62
   249
 10
250.0
 20
217.5
 30
0.0
 11
255.0
 21
217.5
 31
0.0
  0
LINE
  8
0
  6
CONTINUOUS
 62
   249
 10
250.0
 20
212.5
 30
0.0
 11
255.0
 21
212.5
 31
0.0
  0
LINE
  8
0
  6
CONTINUOUS
 62
   249
 10
256.905728
 20
192.0
 30
0.0
 11
255.905728
 21
191.0
 31
0.0
  0
LINE
  8
0
  6
CONTINUOUS
 62
   249
 10
256.905728
 20
199.0
 30
0.0
 11
256.905728
 21
192.0
 31
0.0
  0
LINE
  8
0
  6
CONTINUOUS
 62
   249
 10
256.905728
 20
199.0
 30
0.0
 11
255.905728
 21
200.0
 31
0.0
  0
LINE
  8
0
  6
CONTINUOUS
 62
   249
 10
250.0
 20
192.5
 30
0.0
 11
255.0
 21
192.5
 31
0.0
  0
LINE
  8
0
  6
CONTINUOUS
 62
   249
 10
250.0
 20
197.5
 30
0.0
 11
255.0
 21
197.5
 31
0.0
  0
LINE
  8
0
  6
CONTINUOUS
 62
   249
 10
250.0
 20
202.5
 30
0.0
 11
287.5
 21
202.5
 31
0.0
  0
LINE
  8
0
  6
CONTINUOUS
 62
   249
 10
256.905728
 20
179.0
 30
0.0
 11
255.905728
 21
180.0
 31
0.0
  0
LINE
  8
0
  6
CONTINUOUS
 62
   249
 10
256.905728
 20
179.0
 30
0.0
 11
256.905728
 21
172.0
 31
0.0
  0
LINE
  8
0
  6
CONTINUOUS
 62
   249
 10
256.905728
 20
172.0
 30
0.0
 11
255.905728
 21
171.0
 31
0.0
  0
LINE
  8
0
  6
CONTINUOUS
 62
   249
 10
250.0
 20
172.5
 30
0.0
 11
255.0
 21
172.5
 31
0.0
  0
LINE
  8
0
  6
CONTINUOUS
 62
   249
 10
250.0
 20
177.5
 30
0.0
 11
255.0
 21
177.5
 31
0.0
  0
LINE
  8
0
  6
CONTINUOUS
 62
   249
 10
250.0
 20
182.5
 30
0.0
 11
287.5
 21
182.5
 31
0.0
  0
LINE
  8
0
  6
CONTINUOUS
 62
   249
 10
256.905728
 20
152.0
 30
0.0
 11
255.905728
 21
151.0
 31
0.0
  0
LINE
  8
0
  6
CONTINUOUS
 62
   249
 10
256.905728
 20
159.0
 30
0.0
 11
256.905728
 21
152.0
 31
0.0
  0
LINE
  8
0
  6
CONTINUOUS
 62
   249
 10
256.905728
 20
159.0
 30
0.0
 11
255.905728
 21
160.0
 31
0.0
  0
LINE
  8
0
  6
CONTINUOUS
 62
   249
 10
250.0
 20
152.5
 30
0.0
 11
255.0
 21
152.5
 31
0.0
  0
LINE
  8
0
  6
CONTINUOUS
 62
   249
 10
250.0
 20
157.5
 30
0.0
 11
255.0
 21
157.5
 31
0.0
  0
LINE
  8
0
  6
CONTINUOUS
 62
   249
 10
250.0
 20
162.5
 30
0.0
 11
287.5
 21
162.5
 31
0.0
  0
LINE
  8
0
  6
CONTINUOUS
 62
   249
 10
256.905728
 20
212.5
 30
0.0
 11
272.5
 21
212.5
 31
0.0
  0
LINE
  8
0
  6
CONTINUOUS
 62
   249
 10
256.905728
 20
192.5
 30
0.0
 11
272.5
 21
192.5
 31
0.0
  0
LINE
  8
0
  6
CONTINUOUS
 62
   249
 10
256.905728
 20
172.5
 30
0.0
 11
287.5
 21
172.5
 31
0.0
  0
LINE
  8
0
  6
CONTINUOUS
 62
   249
 10
256.905728
 20
152.5
 30
0.0
 11
287.5
 21
152.5
 31
0.0
  0
LINE
  8
0
  6
CONTINUOUS
 62
   249
 10
272.5
 20
212.5
 30
0.0
 11
287.5
 21
212.5
 31
0.0
  0
LINE
  8
0
  6
CONTINUOUS
 62
   249
 10
272.5
 20
192.5
 30
0.0
 11
287.5
 21
192.5
 31
0.0
  0
TEXT
  8
0
  6
CONTINUOUS
 62
   249
 10
258.430396
 20
213.814193
 30
0.0
 40
2.0
  1
7)
  7
ROMANS
  0
TEXT
  8
0
  6
CONTINUOUS
 62
   249
 10
258.430396
 20
193.814193
 30
0.0
 40
2.0
  1
7)
  7
ROMANS
  0
TEXT
  8
0
  6
CONTINUOUS
 62
   249
 10
258.430396
 20
173.814193
 30
0.0
 40
2.0
  1
7)
  7
ROMANS
  0
TEXT
  8
0
  6
CONTINUOUS
 62
   249
 10
258.430396
 20
153.814193
 30
0.0
 40
2.0
  1
7)
  7
ROMANS
  0
TEXT
  8
0
  6
CONTINUOUS
 62
   249
 10
266.415038
 20
218.936229
 30
0.0
 40
2.0
  1
U12
  7
ROMANS
  0
TEXT
  8
0
  6
CONTINUOUS
 62
   249
 10
266.415038
 20
189.155566
 30
0.0
 40
2.0
  1
U23
  7
ROMANS
  0
TEXT
  8
0
  6
CONTINUOUS
 62
   249
 10
266.415038
 20
179.069958
 30
0.0
 40
2.0
  1
U31
  7
ROMANS
  0
TEXT
  8
0
  6
CONTINUOUS
 62
   249
 10
266.415038
 20
169.069958
 30
0.0
 40
2.0
  1
U31
  7
ROMANS
  0
TEXT
  8
0
  6
CONTINUOUS
 62
   249
 10
266.415038
 20
199.155566
 30
0.0
 40
2.0
  1
U23
  7
ROMANS
  0
TEXT
  8
0
  6
CONTINUOUS
 62
   249
 10
266.415038
 20
208.936229
 30
0.0
 40
2.0
  1
U12
  7
ROMANS
  0
TEXT
  8
0
  6
DASHED
 62
   249
 10
265.864609
 20
158.819892
 30
0.0
 40
2.5
  1
U
  7
ROMANS
  0
TEXT
  8
0
  6
DASHED
 62
   249
 10
265.864609
 20
148.819892
 30
0.0
 40
2.5
  1
U
  7
ROMANS
  0
TEXT
  8
0
  6
CONTINUOUS
 62
   249
 10
369.324549
 20
40.658026
 30
0.0
 40
2.0
  1
28-30
  7
ROMANS
  0
TEXT
  8
0
  6
CONTINUOUS
 62
   249
 10
350.076209
 20
40.658026
 30
0.0
 40
2.0
  1
28-29
  7
ROMANS
  0
LINE
  8
0
  6
CONTINUOUS
 62
   249
 10
346.221849
 20
38.560644
 30
0.0
 11
346.221849
 21
51.060644
 31
0.0
  0
LINE
  8
0
  6
CONTINUOUS
 62
   249
 10
383.721849
 20
68.560644
 30
0.0
 11
383.721849
 21
38.560644
 31
0.0
  0
LINE
  8
0
  6
CONTINUOUS
 62
   249
 10
338.721849
 20
68.560644
 30
0.0
 11
383.721849
 21
68.560644
 31
0.0
  0
LINE
  8
0
  6
CONTINUOUS
 62
   249
 10
338.721849
 20
38.560644
 30
0.0
 11
338.721849
 21
68.560644
 31
0.0
  0
TEXT
  8
0
  6
CONTINUOUS
 62
   249
 10
367.058974
 20
59.552124
 30
0.0
 40
2.0
  1
Un=110V
  7
ROMANS
  0
TEXT
  8
0
  6
CONTINUOUS
 62
   249
 10
347.995582
 20
59.552124
 30
0.0
 40
2.0
  1
Un=100V
  7
ROMANS
  0
LINE
  8
0
  6
CONTINUOUS
 62
   249
 10
364.837186
 20
38.560644
 30
0.0
 11
364.837186
 21
63.560644
 31
0.0
  0
LINE
  8
0
  6
CONTINUOUS
 62
   249
 10
338.721849
 20
58.560644
 30
0.0
 11
383.721849
 21
58.560644
 31
0.0
  0
LINE
  8
0
  6
CONTINUOUS
 62
   249
 10
338.721849
 20
63.560644
 30
0.0
 11
383.721849
 21
63.560644
 31
0.0
  0
LINE
  8
0
  6
CONTINUOUS
 62
   249
 10
346.221849
 20
63.560644
 30
0.0
 11
346.221849
 21
51.060644
 31
0.0
  0
TEXT
  8
0
  6
DASHED
 62
   249
 10
343.571444
 20
64.974146
 30
0.0
 40
2.0
  1
TERMINALS / UTTAG
  7
ROMANS
  0
TEXT
  8
0
  6
DASHED
 62
   249
 10
339.683708
 20
40.655085
 30
0.0
 40
2.5
  1
U
  7
ROMANS
  0
LINE
  8
0
  6
CONTINUOUS
 62
   249
 10
338.721849
 20
38.560644
 30
0.0
 11
383.721849
 21
38.560644
 31
0.0
  0
TEXT
  8
0
  6
CONTINUOUS
 62
   249
 10
339.676145
 20
53.987186
 30
0.0
 40
2.0
  1
U12
  7
ROMANS
  0
TEXT
  8
0
  6
CONTINUOUS
 62
   249
 10
339.676145
 20
49.39753
 30
0.0
 40
2.0
  1
U23
  7
ROMANS
  0
TEXT
  8
0
  6
CONTINUOUS
 62
   249
 10
339.676145
 20
44.9842
 30
0.0
 40
2.0
  1
U31
  7
ROMANS
  0
TEXT
  8
0
  6
CONTINUOUS
 62
   249
 10
350.129592
 20
53.987186
 30
0.0
 40
2.0
  1
13-14
  7
ROMANS
  0
TEXT
  8
0
  6
CONTINUOUS
 62
   249
 10
350.129592
 20
49.39753
 30
0.0
 40
2.0
  1
16-17
  7
ROMANS
  0
TEXT
  8
0
  6
CONTINUOUS
 62
   249
 10
350.129592
 20
44.9842
 30
0.0
 40
2.0
  1
19-20
  7
ROMANS
  0
TEXT
  8
0
  6
CONTINUOUS
 62
   249
 10
369.055238
 20
53.987186
 30
0.0
 40
2.0
  1
13-15
  7
ROMANS
  0
TEXT
  8
0
  6
CONTINUOUS
 62
   249
 10
369.055238
 20
49.39753
 30
0.0
 40
2.0
  1
16-18
  7
ROMANS
  0
TEXT
  8
0
  6
CONTINUOUS
 62
   249
 10
369.055238
 20
44.9842
 30
0.0
 40
2.0
  1
19-21
  7
ROMANS
  0
TEXT
  8
0
  6
CONTINUOUS
 62
   249
 10
333.361473
 20
65.261026
 30
0.0
 40
2.0
  1
7)
  7
ROMANS
  0
LINE
  8
0
  6
CONTINUOUS
 62
   249
 10
290.0
 20
223.0
 30
0.0
 11
289.0
 21
224.0
 31
0.0
  0
LINE
  8
0
  6
CONTINUOUS
 62
   249
 10
290.0
 20
223.0
 30
0.0
 11
290.0
 21
172.0
 31
0.0
  0
LINE
  8
0
  6
CONTINUOUS
 62
   249
 10
290.0
 20
172.0
 30
0.0
 11
289.0
 21
171.0
 31
0.0
  0
LINE
  8
0
  6
CONTINUOUS
 62
   249
 10
290.0
 20
163.0
 30
0.0
 11
289.0
 21
164.0
 31
0.0
  0
LINE
  8
0
  6
CONTINUOUS
 62
   249
 10
290.0
 20
152.0
 30
0.0
 11
289.0
 21
151.0
 31
0.0
  0
LINE
  8
0
  6
CONTINUOUS
 62
   249
 10
290.0
 20
163.0
 30
0.0
 11
290.0
 21
152.0
 31
0.0
  0
LINE
  8
0
  6
DASHED
 62
   249
 10
316.19296
 20
223.226913
 30
0.0
 11
316.19296
 21
235.208687
 31
0.0
  0
LINE
  8
0
  6
DASHED
 62
   249
 10
295.0
 20
235.208687
 30
0.0
 11
337.5
 21
235.208687
 31
0.0
  0
LINE
  8
0
  6
CONTINUOUS
 62
   249
 10
316.223922
 20
218.655814
 30
0.0
 11
318.557324
 21
220.989215
 31
0.0
  0
LINE
  8
0
  6
CONTINUOUS
 62
   249
 10
314.250876
 20
220.62886
 30
0.0
 11
316.223922
 21
218.655814
 31
0.0
  0
LINE
  8
0
  6
CONTINUOUS
 62
   249
 10
316.223922
 20
218.655814
 30
0.0
 11
316.223922
 21
216.322412
 31
0.0
  0
LINE
  8
0
  6
CONTINUOUS
 62
   249
 10
322.109934
 20
210.686103
 30
0.0
 11
319.776533
 21
215.352906
 31
0.0
  0
LINE
  8
0
  6
CONTINUOUS
 62
   249
 10
317.443131
 20
210.686103
 30
0.0
 11
322.109934
 21
210.686103
 31
0.0
  0
LINE
  8
0
  6
CONTINUOUS
 62
   249
 10
319.776533
 20
215.352906
 30
0.0
 11
317.443131
 21
210.686103
 31
0.0
  0
LINE
  8
0
  6
CONTINUOUS
 62
   249
 10
312.681486
 20
212.109271
 30
0.0
 11
312.681486
 21
209.775869
 31
0.0
  0
LINE
  8
0
  6
CONTINUOUS
 62
   249
 10
312.681486
 20
212.109271
 30
0.0
 11
315.014888
 21
214.442673
 31
0.0
  0
LINE
  8
0
  6
CONTINUOUS
 62
   249
 10
310.348085
 20
214.442673
 30
0.0
 11
312.681486
 21
212.109271
 31
0.0
  0
CIRCLE
  8
0
  6
CONTINUOUS
 62
   249
 10
316.191658
 20
218.828362
 30
0.0
 40
4.398585
  0
CIRCLE
  8
0
  6
CONTINUOUS
 62
   249
 10
319.666803
 20
212.708687
 30
0.0
 40
4.398585
  0
CIRCLE
  8
0
  6
CONTINUOUS
 62
   249
 10
312.666598
 20
212.708687
 30
0.0
 40
4.398585
  0
LINE
  8
0
  6
DASHED
 62
   249
 10
312.66385
 20
208.310102
 30
0.0
 11
312.66385
 21
197.5
 31
0.0
  0
LINE
  8
0
  6
DASHED
 62
   249
 10
319.672143
 20
208.310106
 30
0.0
 11
319.672143
 21
157.5
 31
0.0
  0
LINE
  8
0
  6
DASHED
 62
   249
 10
290.0
 20
197.5
 30
0.0
 11
312.66385
 21
197.5
 31
0.0
  0
LINE
  8
0
  6
DASHED
 62
   249
 10
290.0
 20
157.5
 30
0.0
 11
319.672143
 21
157.5
 31
0.0
  0
LINE
  8
0
  6
DASHED
 62
   249
 10
57.5
 20
235.0
 30
0.0
 11
35.0
 21
235.0
 31
0.0
  0
TEXT
  8
0
  6
CONTINUOUS
 62
   249
 10
372.255133
 20
162.026264
 30
0.0
 40
1.8
  1
162 mm
  7
ROMANS
  0
ARC
  8
0
  6
CONTINUOUS
 62
   249
 10
369.240436
 20
154.284081
 30
0.0
 40
2.0
 50
270.0
 51
0.0
  0
ARC
  8
0
  6
CONTINUOUS
 62
   249
 10
346.539565
 20
154.284081
 30
0.0
 40
2.0
 50
180.0
 51
270.0
  0
ARC
  8
0
  6
CONTINUOUS
 62
   249
 10
346.539565
 20
169.782894
 30
0.0
 40
2.0
 50
90.0
 51
180.0
  0
ARC
  8
0
  6
CONTINUOUS
 62
   249
 10
369.240436
 20
169.782894
 30
0.0
 40
2.0
 50
0.0
 51
90.0
  0
LINE
  8
0
  6
CONTINUOUS
 62
   249
 10
344.539565
 20
169.782894
 30
0.0
 11
344.539565
 21
154.284081
 31
0.0
  0
LINE
  8
0
  6
CONTINUOUS
 62
   249
 10
369.240436
 20
171.782894
 30
0.0
 11
346.539565
 21
171.782894
 31
0.0
  0
LINE
  8
0
  6
CONTINUOUS
 62
   249
 10
371.240436
 20
154.284081
 30
0.0
 11
371.240436
 21
169.782894
 31
0.0
  0
LINE
  8
0
  6
CONTINUOUS
 62
   249
 10
346.539565
 20
152.284081
 30
0.0
 11
369.240436
 21
152.284081
 31
0.0
  0
TEXT
  8
0
  6
DASHED
 62
   249
 10
352.625029
 20
173.217721
 30
0.0
 40
1.8
  1
226 mm
  7
ROMANS
  0
TEXT
  8
0
  6
DASHED
 62
   249
 10
348.151502
 20
147.617398
 30
0.0
 40
2.0
  1
SPAU 330 C
  7
ROMANS
  0
TEXT
  8
0
  6
DASHED
 62
   249
 10
213.4892
 20
28.233713
 30
0.0
 40
2.0
  1
1992-04-09 J RANTALA
  7
ROMANS
  0
TEXT
  8
0
  6
DASHED
 62
   249
 10
315.0
 20
27.5
 30
0.0
 40
2.0
  1
CIRCUIT DIAGRAM / KRETSSCHEMA
  7
ROMANS
  0
TEXT
  8
0
  6
DASHED
 62
   249
 10
315.0
 20
24.166667
 30
0.0
 40
2.0
  1
SPAU 330 C
  7
ROMANS
  0
TEXT
  8
0
  6
DASHED
 62
   249
 10
320.0
 20
2.5
 30
0.0
 40
2.5
  1
RS 10072-AA
  7
ROMANS
  0
TEXT
  8
0
  6
DASHED
 62
   249
 10
380.0
 20
2.5
 30
0.0
 40
2.5
  1
B
  7
ROMANS
  0
TEXT
  8
0
  6
DASHED
 62
   249
 10
54.461414
 20
1.252814
 30
0.0
 40
2.0
  1
REDRAWN WITH AUTOCAD 1992-04-09  JR / RITU Power
  7
ROMANS
  0
CIRCLE
  8
0
  6
CONTINUOUS
 62
   249
 10
85.0
 20
147.5
 30
0.0
 40
0.740939
  0
LINE
  8
0
  6
CONTINUOUS
 62
   249
 10
104.353436
 20
137.138137
 30
0.0
 11
99.256076
 21
134.285297
 31
0.0
  0
CIRCLE
  8
0
  6
CONTINUOUS
 62
   249
 10
105.0
 20
137.5
 30
0.0
 40
0.740939
  0
CIRCLE
  8
0
  6
CONTINUOUS
 62
   249
 10
122.5
 20
127.5
 30
0.0
 40
0.740939
  0
LINE
  8
0
  6
CONTINUOUS
 62
   249
 10
121.853436
 20
127.138137
 30
0.0
 11
116.756076
 21
124.285297
 31
0.0
  0
CIRCLE
  8
0
  6
CONTINUOUS
 62
   249
 10
140.0
 20
117.5
 30
0.0
 40
0.740939
  0
LINE
  8
0
  6
CONTINUOUS
 62
   249
 10
139.353436
 20
117.138137
 30
0.0
 11
134.256076
 21
114.285297
 31
0.0
  0
CIRCLE
  8
0
  6
CONTINUOUS
 62
   249
 10
155.0
 20
107.5
 30
0.0
 40
0.740939
  0
LINE
  8
0
  6
CONTINUOUS
 62
   249
 10
154.353436
 20
107.138137
 30
0.0
 11
149.256076
 21
104.285297
 31
0.0
  0
CIRCLE
  8
0
  6
CONTINUOUS
 62
   249
 10
167.5
 20
97.5
 30
0.0
 40
0.740939
  0
LINE
  8
0
  6
CONTINUOUS
 62
   249
 10
166.853436
 20
97.138137
 30
0.0
 11
161.756076
 21
94.285297
 31
0.0
  0
LINE
  8
0
 62
   249
 10
26.002721
 20
233.135937
 30
0.0
 11
30.002721
 21
233.135937
 31
0.0
  0
INSERT
  8
0
 62
   249
  2
WKU130
 10
26.34267
 20
231.410384
 30
0.0
 41
0.8
 42
0.8
 43
0.8
  0
TEXT
  8
0
  6
CONTINUOUS
 62
   249
 10
31.356411
 20
229.00558
 30
0.0
 40
2.0
  1
-
  0
TEXT
  8
0
  6
CONTINUOUS
 62
   249
 10
31.364976
 20
234.013635
 30
0.0
 40
2.0
  1
+
  0
LINE
  8
0
  6
CONTINUOUS
 62
   249
 10
182.92845
 20
211.295027
 30
0.0
 11
180.582685
 21
212.63038
 31
0.0
  0
LINE
  8
0
  6
CONTINUOUS
 62
   249
 10
180.582685
 20
212.63038
 30
0.0
 11
182.92845
 21
213.8203
 31
0.0
  0
ARC
  8
0
  6
CONTINUOUS
 62
   249
 10
135.0
 20
197.347111
 30
0.0
 40
0.5
 50
180.0
 51
0.0
  0
ARC
  8
0
  6
CONTINUOUS
 62
   249
 10
135.0
 20
197.347111
 30
0.0
 40
0.5
 50
0.0
 51
180.0
  0
ARC
  8
0
  6
CONTINUOUS
 62
   249
 10
97.5
 20
209.092853
 30
0.0
 40
0.5
 50
180.0
 51
0.0
  0
ARC
  8
0
  6
CONTINUOUS
 62
   249
 10
97.5
 20
209.092853
 30
0.0
 40
0.5
 50
0.0
 51
180.0
  0
ARC
  8
0
  6
CONTINUOUS
 62
   249
 10
107.5
 20
197.347111
 30
0.0
 40
0.5
 50
180.0
 51
0.0
  0
ARC
  8
0
  6
CONTINUOUS
 62
   249
 10
107.5
 20
197.347111
 30
0.0
 40
0.5
 50
0.0
 51
180.0
  0
ARC
  8
0
  6
CONTINUOUS
 62
   249
 10
117.5
 20
209.092853
 30
0.0
 40
0.5
 50
180.0
 51
0.0
  0
ARC
  8
0
  6
CONTINUOUS
 62
   249
 10
117.5
 20
209.092853
 30
0.0
 40
0.5
 50
0.0
 51
180.0
  0
LINE
  8
0
  6
CONTINUOUS
 62
   249
 10
182.919131
 20
166.159936
 30
0.0
 11
180.573366
 21
167.495289
 31
0.0
  0
LINE
  8
0
  6
CONTINUOUS
 62
   249
 10
180.573366
 20
167.495289
 30
0.0
 11
182.919131
 21
168.685208
 31
0.0
  0
LINE
  8
0
  6
CONTINUOUS
 62
   249
 10
180.565427
 20
186.335354
 30
0.0
 11
182.911192
 21
185.0
 31
0.0
  0
LINE
  8
0
  6
CONTINUOUS
 62
   249
 10
182.911192
 20
185.0
 30
0.0
 11
180.565427
 21
183.810081
 31
0.0
  0
LINE
  8
0
  6
CONTINUOUS
 62
   249
 10
178.920978
 20
183.664646
 30
0.0
 11
176.575212
 21
185.0
 31
0.0
  0
LINE
  8
0
  6
CONTINUOUS
 62
   249
 10
176.575212
 20
185.0
 30
0.0
 11
178.920978
 21
186.189919
 31
0.0
  0
LINE
  8
0
  6
CONTINUOUS
 62
   249
 10
182.92845
 20
196.011752
 30
0.0
 11
180.582685
 21
197.347106
 31
0.0
  0
LINE
  8
0
  6
CONTINUOUS
 62
   249
 10
180.582685
 20
197.347106
 30
0.0
 11
182.92845
 21
198.537025
 31
0.0
  0
LINE
  8
0
  6
CONTINUOUS
 62
   249
 10
182.92845
 20
207.757512
 30
0.0
 11
180.582685
 21
209.092866
 31
0.0
  0
LINE
  8
0
  6
CONTINUOUS
 62
   249
 10
180.582685
 20
209.092866
 30
0.0
 11
182.92845
 21
210.282785
 31
0.0
  0
LINE
  8
0
  6
CONTINUOUS
 62
   249
 10
182.92845
 20
203.664636
 30
0.0
 11
180.582685
 21
204.99999
 31
0.0
  0
LINE
  8
0
  6
CONTINUOUS
 62
   249
 10
180.582685
 20
204.99999
 30
0.0
 11
182.92845
 21
206.189909
 31
0.0
  0
ARC
  8
0
  6
CONTINUOUS
 62
   249
 10
175.0
 20
200.783996
 30
0.0
 40
0.5
 50
180.0
 51
0.0
  0
ARC
  8
0
  6
CONTINUOUS
 62
   249
 10
175.0
 20
200.783996
 30
0.0
 40
0.5
 50
0.0
 51
180.0
  0
ARC
  8
0
  6
CONTINUOUS
 62
   249
 10
102.5
 20
217.141632
 30
0.0
 40
0.5
 50
180.0
 51
0.0
  0
ARC
  8
0
  6
CONTINUOUS
 62
   249
 10
102.5
 20
217.141632
 30
0.0
 40
0.5
 50
0.0
 51
180.0
  0
ARC
  8
0
  6
CONTINUOUS
 62
   249
 10
152.5
 20
224.753087
 30
0.0
 40
0.5
 50
180.0
 51
0.0
  0
ARC
  8
0
  6
CONTINUOUS
 62
   249
 10
152.5
 20
224.753087
 30
0.0
 40
0.5
 50
0.0
 51
180.0
  0
LINE
  8
0
  6
CONTINUOUS
 62
   249
 10
182.92845
 20
223.417749
 30
0.0
 11
180.582685
 21
224.753103
 31
0.0
  0
LINE
  8
0
  6
CONTINUOUS
 62
   249
 10
180.582685
 20
224.753103
 30
0.0
 11
182.92845
 21
225.943022
 31
0.0
  0
LINE
  8
0
  6
CONTINUOUS
 62
   249
 10
182.92845
 20
215.806275
 30
0.0
 11
180.582685
 21
217.141629
 31
0.0
  0
LINE
  8
0
  6
CONTINUOUS
 62
   249
 10
180.582685
 20
217.141629
 30
0.0
 11
182.92845
 21
218.331548
 31
0.0
  0
ARC
  8
0
  6
CONTINUOUS
 62
   249
 10
175.0
 20
220.51836
 30
0.0
 40
0.5
 50
180.0
 51
0.0
  0
ARC
  8
0
  6
CONTINUOUS
 62
   249
 10
175.0
 20
220.51836
 30
0.0
 40
0.5
 50
0.0
 51
180.0
  0
ARC
  8
0
  6
CONTINUOUS
 62
   249
 10
175.0
 20
228.014298
 30
0.0
 40
0.5
 50
180.0
 51
0.0
  0
ARC
  8
0
  6
CONTINUOUS
 62
   249
 10
175.0
 20
228.014298
 30
0.0
 40
0.5
 50
0.0
 51
180.0
  0
LINE
  8
0
  6
CONTINUOUS
 62
   249
 10
191.936793
 20
223.052921
 30
0.0
 11
192.82368
 21
223.052921
 31
0.0
  0
LINE
  8
0
  6
CONTINUOUS
 62
   249
 10
191.605688
 20
223.664554
 30
0.0
 11
193.19026
 21
223.664554
 31
0.0
  0
LINE
  8
0
  6
CONTINUOUS
 62
   249
 10
192.421624
 20
224.286616
 30
0.0
 11
193.615965
 21
224.286616
 31
0.0
  0
LINE
  8
0
  6
CONTINUOUS
 62
   249
 10
191.227283
 20
224.286616
 30
0.0
 11
192.421624
 21
224.286616
 31
0.0
  0
LINE
  8
0
  6
CONTINUOUS
 62
   249
 10
192.437511
 20
225.640887
 30
0.0
 11
192.437511
 21
224.286616
 31
0.0
  0
LINE
  8
0
  6
CONTINUOUS
 62
   249
 10
191.936793
 20
215.657418
 30
0.0
 11
192.82368
 21
215.657418
 31
0.0
  0
LINE
  8
0
  6
CONTINUOUS
 62
   249
 10
191.605688
 20
216.269051
 30
0.0
 11
193.19026
 21
216.269051
 31
0.0
  0
LINE
  8
0
  6
CONTINUOUS
 62
   249
 10
192.421624
 20
216.891113
 30
0.0
 11
193.615965
 21
216.891113
 31
0.0
  0
LINE
  8
0
  6
CONTINUOUS
 62
   249
 10
191.227283
 20
216.891113
 30
0.0
 11
192.421624
 21
216.891113
 31
0.0
  0
LINE
  8
0
  6
CONTINUOUS
 62
   249
 10
192.437511
 20
218.245383
 30
0.0
 11
192.437511
 21
216.891113
 31
0.0
  0
LINE
  8
0
 62
   249
 10
211.786248
 20
6.306997
 30
0.0
 11
213.547099
 21
8.067848
 31
0.0
  0
LINE
  8
0
 62
   249
 10
211.852879
 20
6.497372
 30
0.0
 11
213.547099
 21
8.191591
 31
0.0
  0
LINE
  8
0
 62
   249
 10
211.919511
 20
6.687747
 30
0.0
 11
213.547099
 21
8.315335
 31
0.0
  0
LINE
  8
0
 62
   249
 10
211.986142
 20
6.878122
 30
0.0
 11
213.547099
 21
8.439079
 31
0.0
  0
LINE
  8
0
 62
   249
 10
212.052773
 20
7.068497
 30
0.0
 11
213.547099
 21
8.562822
 31
0.0
  0
LINE
  8
0
 62
   249
 10
212.119404
 20
7.258871
 30
0.0
 11
213.547099
 21
8.686566
 31
0.0
  0
LINE
  8
0
 62
   249
 10
212.186036
 20
7.449246
 30
0.0
 11
213.474788
 21
8.737999
 31
0.0
  0
LINE
  8
0
 62
   249
 10
212.252667
 20
7.639621
 30
0.0
 11
213.351045
 21
8.737999
 31
0.0
  0
LINE
  8
0
 62
   249
 10
212.319298
 20
7.829996
 30
0.0
 11
213.227301
 21
8.737999
 31
0.0
  0
LINE
  8
0
 62
   249
 10
212.385929
 20
8.020371
 30
0.0
 11
213.103557
 21
8.737999
 31
0.0
  0
LINE
  8
0
 62
   249
 10
212.45256
 20
8.210746
 30
0.0
 11
212.979814
 21
8.737999
 31
0.0
  0
LINE
  8
0
 62
   249
 10
212.519192
 20
8.401121
 30
0.0
 11
212.85607
 21
8.737999
 31
0.0
  0
LINE
  8
0
 62
   249
 10
212.585823
 20
8.591496
 30
0.0
 11
212.732326
 21
8.737999
 31
0.0
  0
LINE
  8
0
 62
   249
 10
211.719617
 20
6.116622
 30
0.0
 11
213.547099
 21
7.944104
 31
0.0
  0
LINE
  8
0
 62
   249
 10
211.652986
 20
5.926247
 30
0.0
 11
213.547099
 21
7.82036
 31
0.0
  0
LINE
  8
0
 62
   249
 10
211.586355
 20
5.735872
 30
0.0
 11
213.547099
 21
7.696617
 31
0.0
  0
LINE
  8
0
 62
   249
 10
211.519723
 20
5.545497
 30
0.0
 11
213.547099
 21
7.572873
 31
0.0
  0
LINE
  8
0
 62
   249
 10
211.475969
 20
5.377999
 30
0.0
 11
213.547099
 21
7.449129
 31
0.0
  0
LINE
  8
0
 62
   249
 10
211.599713
 20
5.377999
 30
0.0
 11
213.547099
 21
7.325386
 31
0.0
  0
LINE
  8
0
 62
   249
 10
211.723456
 20
5.377999
 30
0.0
 11
213.547099
 21
7.201642
 31
0.0
  0
LINE
  8
0
 62
   249
 10
211.8472
 20
5.377999
 30
0.0
 11
213.547099
 21
7.077898
 31
0.0
  0
LINE
  8
0
 62
   249
 10
211.970944
 20
5.377999
 30
0.0
 11
213.547099
 21
6.954155
 31
0.0
  0
LINE
  8
0
 62
   249
 10
212.094687
 20
5.377999
 30
0.0
 11
213.547099
 21
6.830411
 31
0.0
  0
LINE
  8
0
 62
   249
 10
212.218431
 20
5.377999
 30
0.0
 11
213.547099
 21
6.706667
 31
0.0
  0
LINE
  8
0
 62
   249
 10
212.342175
 20
5.377999
 30
0.0
 11
213.547099
 21
6.582923
 31
0.0
  0
LINE
  8
0
 62
   249
 10
212.465919
 20
5.377999
 30
0.0
 11
213.547099
 21
6.45918
 31
0.0
  0
LINE
  8
0
 62
   249
 10
212.589662
 20
5.377999
 30
0.0
 11
213.547099
 21
6.335436
 31
0.0
  0
LINE
  8
0
 62
   249
 10
212.713406
 20
5.377999
 30
0.0
 11
213.547099
 21
6.211692
 31
0.0
  0
LINE
  8
0
 62
   249
 10
212.83715
 20
5.377999
 30
0.0
 11
213.547099
 21
6.087949
 31
0.0
  0
LINE
  8
0
 62
   249
 10
212.960893
 20
5.377999
 30
0.0
 11
213.547099
 21
5.964205
 31
0.0
  0
LINE
  8
0
 62
   249
 10
213.084637
 20
5.377999
 30
0.0
 11
213.547099
 21
5.840461
 31
0.0
  0
LINE
  8
0
 62
   249
 10
213.208381
 20
5.377999
 30
0.0
 11
213.547099
 21
5.716718
 31
0.0
  0
LINE
  8
0
 62
   249
 10
213.332124
 20
5.377999
 30
0.0
 11
213.547099
 21
5.592974
 31
0.0
  0
LINE
  8
0
 62
   249
 10
213.455868
 20
5.377999
 30
0.0
 11
213.547099
 21
5.46923
 31
0.0
  0
LINE
  8
0
 62
   249
 10
213.827099
 20
5.996718
 30
0.0
 11
215.211876
 21
7.381494
 31
0.0
  0
LINE
  8
0
 62
   249
 10
213.827099
 20
6.120461
 30
0.0
 11
215.179794
 21
7.473156
 31
0.0
  0
LINE
  8
0
 62
   249
 10
213.827099
 20
6.244205
 30
0.0
 11
215.147712
 21
7.564818
 31
0.0
  0
LINE
  8
0
 62
   249
 10
213.827099
 20
6.367949
 30
0.0
 11
215.115631
 21
7.65648
 31
0.0
  0
LINE
  8
0
 62
   249
 10
213.827099
 20
6.491692
 30
0.0
 11
215.083549
 21
7.748142
 31
0.0
  0
LINE
  8
0
 62
   249
 10
213.827099
 20
6.615436
 30
0.0
 11
215.051467
 21
7.839804
 31
0.0
  0
LINE
  8
0
 62
   249
 10
213.827099
 20
6.73918
 30
0.0
 11
215.019386
 21
7.931466
 31
0.0
  0
LINE
  8
0
 62
   249
 10
213.827099
 20
6.862923
 30
0.0
 11
214.987304
 21
8.023128
 31
0.0
  0
LINE
  8
0
 62
   249
 10
213.827099
 20
6.986667
 30
0.0
 11
214.955222
 21
8.11479
 31
0.0
  0
LINE
  8
0
 62
   249
 10
213.827099
 20
7.110411
 30
0.0
 11
214.923141
 21
8.206452
 31
0.0
  0
LINE
  8
0
 62
   249
 10
213.827099
 20
7.234155
 30
0.0
 11
214.891059
 21
8.298114
 31
0.0
  0
LINE
  8
0
 62
   249
 10
213.827099
 20
7.357898
 30
0.0
 11
214.858977
 21
8.389776
 31
0.0
  0
LINE
  8
0
 62
   249
 10
213.827099
 20
7.481642
 30
0.0
 11
214.826895
 21
8.481438
 31
0.0
  0
LINE
  8
0
 62
   249
 10
213.827099
 20
7.605386
 30
0.0
 11
214.794814
 21
8.5731
 31
0.0
  0
LINE
  8
0
 62
   249
 10
213.827099
 20
7.729129
 30
0.0
 11
214.762732
 21
8.664762
 31
0.0
  0
LINE
  8
0
 62
   249
 10
213.827099
 20
7.852873
 30
0.0
 11
214.712225
 21
8.737999
 31
0.0
  0
LINE
  8
0
 62
   249
 10
213.827099
 20
7.976617
 30
0.0
 11
214.588482
 21
8.737999
 31
0.0
  0
LINE
  8
0
 62
   249
 10
213.827099
 20
8.10036
 30
0.0
 11
214.464738
 21
8.737999
 31
0.0
  0
LINE
  8
0
 62
   249
 10
213.827099
 20
8.224104
 30
0.0
 11
214.340994
 21
8.737999
 31
0.0
  0
LINE
  8
0
 62
   249
 10
213.827099
 20
8.347848
 30
0.0
 11
214.217251
 21
8.737999
 31
0.0
  0
LINE
  8
0
 62
   249
 10
213.827099
 20
8.471591
 30
0.0
 11
214.093507
 21
8.737999
 31
0.0
  0
LINE
  8
0
 62
   249
 10
213.827099
 20
8.595335
 30
0.0
 11
213.969763
 21
8.737999
 31
0.0
  0
LINE
  8
0
 62
   249
 10
213.827099
 20
8.719079
 30
0.0
 11
213.84602
 21
8.737999
 31
0.0
  0
LINE
  8
0
 62
   249
 10
213.827099
 20
5.872974
 30
0.0
 11
215.243957
 21
7.289832
 31
0.0
  0
LINE
  8
0
 62
   249
 10
213.827099
 20
5.74923
 30
0.0
 11
215.276039
 21
7.19817
 31
0.0
  0
LINE
  8
0
 62
   249
 10
213.827099
 20
5.625487
 30
0.0
 11
215.308121
 21
7.106508
 31
0.0
  0
LINE
  8
0
 62
   249
 10
213.827099
 20
5.501743
 30
0.0
 11
215.340203
 21
7.014846
 31
0.0
  0
LINE
  8
0
 62
   249
 10
213.827099
 20
5.377999
 30
0.0
 11
215.372284
 21
6.923184
 31
0.0
  0
LINE
  8
0
 62
   249
 10
213.950843
 20
5.377999
 30
0.0
 11
215.404366
 21
6.831522
 31
0.0
  0
LINE
  8
0
 62
   249
 10
214.074586
 20
5.377999
 30
0.0
 11
215.436448
 21
6.73986
 31
0.0
  0
LINE
  8
0
 62
   249
 10
214.19833
 20
5.377999
 30
0.0
 11
215.468529
 21
6.648198
 31
0.0
  0
LINE
  8
0
 62
   249
 10
214.322074
 20
5.377999
 30
0.0
 11
215.500611
 21
6.556536
 31
0.0
  0
LINE
  8
0
 62
   249
 10
214.445818
 20
5.377999
 30
0.0
 11
215.532693
 21
6.464874
 31
0.0
  0
LINE
  8
0
 62
   249
 10
214.569561
 20
5.377999
 30
0.0
 11
215.564774
 21
6.373212
 31
0.0
  0
LINE
  8
0
 62
   249
 10
214.693305
 20
5.377999
 30
0.0
 11
215.596856
 21
6.281551
 31
0.0
  0
LINE
  8
0
 62
   249
 10
214.817049
 20
5.377999
 30
0.0
 11
215.628938
 21
6.189889
 31
0.0
  0
LINE
  8
0
 62
   249
 10
214.940792
 20
5.377999
 30
0.0
 11
215.66102
 21
6.098227
 31
0.0
  0
LINE
  8
0
 62
   249
 10
215.064536
 20
5.377999
 30
0.0
 11
215.693101
 21
6.006565
 31
0.0
  0
LINE
  8
0
 62
   249
 10
215.18828
 20
5.377999
 30
0.0
 11
215.725183
 21
5.914903
 31
0.0
  0
LINE
  8
0
 62
   249
 10
215.312023
 20
5.377999
 30
0.0
 11
215.757265
 21
5.823241
 31
0.0
  0
LINE
  8
0
 62
   249
 10
215.435767
 20
5.377999
 30
0.0
 11
215.789346
 21
5.731579
 31
0.0
  0
LINE
  8
0
 62
   249
 10
215.559511
 20
5.377999
 30
0.0
 11
215.821428
 21
5.639917
 31
0.0
  0
LINE
  8
0
 62
   249
 10
215.683254
 20
5.377999
 30
0.0
 11
215.85351
 21
5.548255
 31
0.0
  0
LINE
  8
0
 62
   249
 10
215.806998
 20
5.377999
 30
0.0
 11
215.885591
 21
5.456593
 31
0.0
  0
LINE
  8
0
 62
   249
 10
217.677099
 20
6.134407
 30
0.0
 11
219.637099
 21
8.094407
 31
0.0
  0
LINE
  8
0
 62
   249
 10
217.677099
 20
6.258151
 30
0.0
 11
219.637099
 21
8.218151
 31
0.0
  0
LINE
  8
0
 62
   249
 10
217.677099
 20
6.381894
 30
0.0
 11
219.637099
 21
8.341894
 31
0.0
  0
LINE
  8
0
 62
   249
 10
217.677099
 20
6.505638
 30
0.0
 11
219.637099
 21
8.465638
 31
0.0
  0
LINE
  8
0
 62
   249
 10
217.677099
 20
6.629382
 30
0.0
 11
219.637099
 21
8.589382
 31
0.0
  0
LINE
  8
0
 62
   249
 10
217.677099
 20
6.753126
 30
0.0
 11
219.637099
 21
8.713126
 31
0.0
  0
LINE
  8
0
 62
   249
 10
217.677099
 20
6.876869
 30
0.0
 11
219.538229
 21
8.737999
 31
0.0
  0
LINE
  8
0
 62
   249
 10
217.677099
 20
7.000613
 30
0.0
 11
219.414485
 21
8.737999
 31
0.0
  0
LINE
  8
0
 62
   249
 10
217.677099
 20
7.124357
 30
0.0
 11
219.290742
 21
8.737999
 31
0.0
  0
LINE
  8
0
 62
   249
 10
217.677099
 20
7.2481
 30
0.0
 11
219.166998
 21
8.737999
 31
0.0
  0
LINE
  8
0
 62
   249
 10
217.677099
 20
7.371844
 30
0.0
 11
219.043254
 21
8.737999
 31
0.0
  0
LINE
  8
0
 62
   249
 10
217.677099
 20
7.495588
 30
0.0
 11
218.919511
 21
8.737999
 31
0.0
  0
LINE
  8
0
 62
   249
 10
217.677099
 20
7.619331
 30
0.0
 11
218.795767
 21
8.737999
 31
0.0
  0
LINE
  8
0
 62
   249
 10
217.677099
 20
7.743075
 30
0.0
 11
218.672023
 21
8.737999
 31
0.0
  0
LINE
  8
0
 62
   249
 10
217.677099
 20
7.866819
 30
0.0
 11
218.54828
 21
8.737999
 31
0.0
  0
LINE
  8
0
 62
   249
 10
217.677099
 20
7.990562
 30
0.0
 11
218.424536
 21
8.737999
 31
0.0
  0
LINE
  8
0
 62
   249
 10
217.677099
 20
8.114306
 30
0.0
 11
218.300792
 21
8.737999
 31
0.0
  0
LINE
  8
0
 62
   249
 10
217.677099
 20
8.23805
 30
0.0
 11
218.177049
 21
8.737999
 31
0.0
  0
LINE
  8
0
 62
   249
 10
217.677099
 20
8.361793
 30
0.0
 11
218.053305
 21
8.737999
 31
0.0
  0
LINE
  8
0
 62
   249
 10
217.677099
 20
8.485537
 30
0.0
 11
217.929561
 21
8.737999
 31
0.0
  0
LINE
  8
0
 62
   249
 10
217.677099
 20
8.609281
 30
0.0
 11
217.805818
 21
8.737999
 31
0.0
  0
LINE
  8
0
 62
   249
 10
217.677099
 20
8.733025
 30
0.0
 11
217.682074
 21
8.737999
 31
0.0
  0
LINE
  8
0
 62
   249
 10
217.677099
 20
6.010663
 30
0.0
 11
219.637099
 21
7.970663
 31
0.0
  0
LINE
  8
0
 62
   249
 10
217.677099
 20
5.88692
 30
0.0
 11
219.637099
 21
7.84692
 31
0.0
  0
LINE
  8
0
 62
   249
 10
217.677099
 20
5.763176
 30
0.0
 11
219.637099
 21
7.723176
 31
0.0
  0
LINE
  8
0
 62
   249
 10
217.677099
 20
5.639432
 30
0.0
 11
219.637099
 21
7.599432
 31
0.0
  0
LINE
  8
0
 62
   249
 10
217.677099
 20
5.515689
 30
0.0
 11
219.637099
 21
7.475689
 31
0.0
  0
LINE
  8
0
 62
   249
 10
217.677099
 20
5.391945
 30
0.0
 11
219.637099
 21
7.351945
 31
0.0
  0
LINE
  8
0
 62
   249
 10
217.786897
 20
5.377999
 30
0.0
 11
219.637099
 21
7.228201
 31
0.0
  0
LINE
  8
0
 62
   249
 10
217.910641
 20
5.377999
 30
0.0
 11
219.637099
 21
7.104458
 31
0.0
  0
LINE
  8
0
 62
   249
 10
218.034384
 20
5.377999
 30
0.0
 11
219.637099
 21
6.980714
 31
0.0
  0
LINE
  8
0
 62
   249
 10
218.158128
 20
5.377999
 30
0.0
 11
219.637099
 21
6.85697
 31
0.0
  0
LINE
  8
0
 62
   249
 10
218.281872
 20
5.377999
 30
0.0
 11
219.637099
 21
6.733227
 31
0.0
  0
LINE
  8
0
 62
   249
 10
218.405615
 20
5.377999
 30
0.0
 11
219.637099
 21
6.609483
 31
0.0
  0
LINE
  8
0
 62
   249
 10
218.529359
 20
5.377999
 30
0.0
 11
219.637099
 21
6.485739
 31
0.0
  0
LINE
  8
0
 62
   249
 10
218.653103
 20
5.377999
 30
0.0
 11
219.637099
 21
6.361995
 31
0.0
  0
LINE
  8
0
 62
   249
 10
218.776847
 20
5.377999
 30
0.0
 11
219.637099
 21
6.238252
 31
0.0
  0
LINE
  8
0
 62
   249
 10
218.90059
 20
5.377999
 30
0.0
 11
219.637099
 21
6.114508
 31
0.0
  0
LINE
  8
0
 62
   249
 10
219.024334
 20
5.377999
 30
0.0
 11
219.637099
 21
5.990764
 31
0.0
  0
LINE
  8
0
 62
   249
 10
219.148078
 20
5.377999
 30
0.0
 11
219.637099
 21
5.867021
 31
0.0
  0
LINE
  8
0
 62
   249
 10
219.271821
 20
5.377999
 30
0.0
 11
219.637099
 21
5.743277
 31
0.0
  0
LINE
  8
0
 62
   249
 10
219.395565
 20
5.377999
 30
0.0
 11
219.637099
 21
5.619533
 31
0.0
  0
LINE
  8
0
 62
   249
 10
219.519309
 20
5.377999
 30
0.0
 11
219.637099
 21
5.49579
 31
0.0
  0
LINE
  8
0
 62
   249
 10
219.917099
 20
6.147021
 30
0.0
 11
221.795195
 21
8.025117
 31
0.0
  0
LINE
  8
0
 62
   249
 10
219.917099
 20
6.270764
 30
0.0
 11
221.744451
 21
8.098116
 31
0.0
  0
LINE
  8
0
 62
   249
 10
219.917099
 20
6.394508
 30
0.0
 11
221.690148
 21
8.167557
 31
0.0
  0
LINE
  8
0
 62
   249
 10
219.917099
 20
6.518252
 30
0.0
 11
221.63236
 21
8.233512
 31
0.0
  0
LINE
  8
0
 62
   249
 10
219.917099
 20
6.641995
 30
0.0
 11
221.571123
 21
8.29602
 31
0.0
  0
LINE
  8
0
 62
   249
 10
219.917099
 20
6.765739
 30
0.0
 11
221.506446
 21
8.355086
 31
0.0
  0
LINE
  8
0
 62
   249
 10
219.917099
 20
6.889483
 30
0.0
 11
221.4383
 21
8.410684
 31
0.0
  0
LINE
  8
0
 62
   249
 10
219.917099
 20
7.013227
 30
0.0
 11
221.366627
 21
8.462755
 31
0.0
  0
LINE
  8
0
 62
   249
 10
219.917099
 20
7.13697
 30
0.0
 11
221.291331
 21
8.511202
 31
0.0
  0
LINE
  8
0
 62
   249
 10
219.917099
 20
7.260714
 30
0.0
 11
221.212274
 21
8.555889
 31
0.0
  0
LINE
  8
0
 62
   249
 10
219.917099
 20
7.384458
 30
0.0
 11
221.129271
 21
8.59663
 31
0.0
  0
LINE
  8
0
 62
   249
 10
219.917099
 20
7.508201
 30
0.0
 11
221.042076
 21
8.633178
 31
0.0
  0
LINE
  8
0
 62
   249
 10
219.917099
 20
7.631945
 30
0.0
 11
220.950366
 21
8.665212
 31
0.0
  0
LINE
  8
0
 62
   249
 10
219.917099
 20
7.755689
 30
0.0
 11
220.853718
 21
8.692307
 31
0.0
  0
LINE
  8
0
 62
   249
 10
219.917099
 20
7.879432
 30
0.0
 11
220.751567
 21
8.7139
 31
0.0
  0
LINE
  8
0
 62
   249
 10
219.917099
 20
8.003176
 30
0.0
 11
220.643145
 21
8.729222
 31
0.0
  0
LINE
  8
0
 62
   249
 10
219.917099
 20
8.12692
 30
0.0
 11
220.527376
 21
8.737197
 31
0.0
  0
LINE
  8
0
 62
   249
 10
219.917099
 20
8.250663
 30
0.0
 11
220.404434
 21
8.737999
 31
0.0
  0
LINE
  8
0
 62
   249
 10
219.917099
 20
8.374407
 30
0.0
 11
220.280691
 21
8.737999
 31
0.0
  0
LINE
  8
0
 62
   249
 10
219.917099
 20
8.498151
 30
0.0
 11
220.156947
 21
8.737999
 31
0.0
  0
LINE
  8
0
 62
   249
 10
219.917099
 20
8.621894
 30
0.0
 11
220.033204
 21
8.737999
 31
0.0
  0
LINE
  8
0
 62
   249
 10
219.917099
 20
6.023277
 30
0.0
 11
221.842271
 21
7.948449
 31
0.0
  0
LINE
  8
0
 62
   249
 10
219.917099
 20
5.899533
 30
0.0
 11
221.885523
 21
7.867958
 31
0.0
  0
LINE
  8
0
 62
   249
 10
219.917099
 20
5.77579
 30
0.0
 11
221.924746
 21
7.783437
 31
0.0
  0
LINE
  8
0
 62
   249
 10
219.917099
 20
5.652046
 30
0.0
 11
221.959668
 21
7.694615
 31
0.0
  0
LINE
  8
0
 62
   249
 10
219.917099
 20
5.528302
 30
0.0
 11
221.989932
 21
7.601135
 31
0.0
  0
LINE
  8
0
 62
   249
 10
219.917099
 20
5.404559
 30
0.0
 11
222.015067
 21
7.502527
 31
0.0
  0
LINE
  8
0
 62
   249
 10
220.014283
 20
5.377999
 30
0.0
 11
222.034444
 21
7.39816
 31
0.0
  0
LINE
  8
0
 62
   249
 10
220.138027
 20
5.377999
 30
0.0
 11
222.047197
 21
7.287169
 31
0.0
  0
LINE
  8
0
 62
   249
 10
220.261771
 20
5.377999
 30
0.0
 11
222.05209
 21
7.168319
 31
0.0
  0
LINE
  8
0
 62
   249
 10
220.385514
 20
5.377999
 30
0.0
 11
222.04727
 21
7.039754
 31
0.0
  0
LINE
  8
0
 62
   249
 10
220.509258
 20
5.377999
 30
0.0
 11
222.029725
 21
6.898466
 31
0.0
  0
LINE
  8
0
 62
   249
 10
220.633002
 20
5.377999
 30
0.0
 11
221.993936
 21
6.738933
 31
0.0
  0
LINE
  8
0
 62
   249
 10
220.756746
 20
5.377999
 30
0.0
 11
221.927299
 21
6.548553
 31
0.0
  0
LINE
  8
0
 62
   249
 10
220.880489
 20
5.377999
 30
0.0
 11
221.280665
 21
5.778175
 31
0.0
  0
LINE
  8
0
 62
   249
 10
221.36381
 20
5.86132
 30
0.0
 11
221.778778
 21
6.276288
 31
0.0
  0
LINE
  8
0
 62
   249
 10
221.004233
 20
5.377999
 30
0.0
 11
221.366562
 21
5.740328
 31
0.0
  0
LINE
  8
0
 62
   249
 10
221.127977
 20
5.377999
 30
0.0
 11
221.449353
 21
5.699376
 31
0.0
  0
LINE
  8
0
 62
   249
 10
221.25172
 20
5.377999
 30
0.0
 11
221.529174
 21
5.655453
 31
0.0
  0
LINE
  8
0
 62
   249
 10
221.375464
 20
5.377999
 30
0.0
 11
221.606135
 21
5.608671
 31
0.0
  0
LINE
  8
0
 62
   249
 10
221.499208
 20
5.377999
 30
0.0
 11
221.680325
 21
5.559117
 31
0.0
  0
LINE
  8
0
 62
   249
 10
221.622951
 20
5.377999
 30
0.0
 11
221.751814
 21
5.506862
 31
0.0
  0
LINE
  8
0
 62
   249
 10
221.746695
 20
5.377999
 30
0.0
 11
221.820653
 21
5.451958
 31
0.0
  0
LINE
  8
0
 62
   249
 10
221.870439
 20
5.377999
 30
0.0
 11
221.886881
 21
5.394442
 31
0.0
  0
LINE
  8
0
 62
   249
 10
225.377099
 20
6.147021
 30
0.0
 11
227.255195
 21
8.025117
 31
0.0
  0
LINE
  8
0
 62
   249
 10
225.377099
 20
6.270764
 30
0.0
 11
227.204451
 21
8.098116
 31
0.0
  0
LINE
  8
0
 62
   249
 10
225.377099
 20
6.394508
 30
0.0
 11
227.150148
 21
8.167557
 31
0.0
  0
LINE
  8
0
 62
   249
 10
225.377099
 20
6.518252
 30
0.0
 11
227.09236
 21
8.233512
 31
0.0
  0
LINE
  8
0
 62
   249
 10
225.377099
 20
6.641995
 30
0.0
 11
227.031123
 21
8.29602
 31
0.0
  0
LINE
  8
0
 62
   249
 10
225.377099
 20
6.765739
 30
0.0
 11
226.966446
 21
8.355086
 31
0.0
  0
LINE
  8
0
 62
   249
 10
225.377099
 20
6.889483
 30
0.0
 11
226.8983
 21
8.410684
 31
0.0
  0
LINE
  8
0
 62
   249
 10
225.377099
 20
7.013227
 30
0.0
 11
226.826627
 21
8.462755
 31
0.0
  0
LINE
  8
0
 62
   249
 10
225.377099
 20
7.13697
 30
0.0
 11
226.751331
 21
8.511202
 31
0.0
  0
LINE
  8
0
 62
   249
 10
225.377099
 20
7.260714
 30
0.0
 11
226.672274
 21
8.555889
 31
0.0
  0
LINE
  8
0
 62
   249
 10
225.377099
 20
7.384458
 30
0.0
 11
226.589271
 21
8.59663
 31
0.0
  0
LINE
  8
0
 62
   249
 10
225.377099
 20
7.508201
 30
0.0
 11
226.502076
 21
8.633178
 31
0.0
  0
LINE
  8
0
 62
   249
 10
225.377099
 20
7.631945
 30
0.0
 11
226.410366
 21
8.665212
 31
0.0
  0
LINE
  8
0
 62
   249
 10
225.377099
 20
7.755689
 30
0.0
 11
226.313718
 21
8.692307
 31
0.0
  0
LINE
  8
0
 62
   249
 10
225.377099
 20
7.879432
 30
0.0
 11
226.211567
 21
8.7139
 31
0.0
  0
LINE
  8
0
 62
   249
 10
225.377099
 20
8.003176
 30
0.0
 11
226.103145
 21
8.729222
 31
0.0
  0
LINE
  8
0
 62
   249
 10
225.377099
 20
8.12692
 30
0.0
 11
225.987376
 21
8.737197
 31
0.0
  0
LINE
  8
0
 62
   249
 10
225.377099
 20
8.250663
 30
0.0
 11
225.864434
 21
8.737999
 31
0.0
  0
LINE
  8
0
 62
   249
 10
225.377099
 20
8.374407
 30
0.0
 11
225.740691
 21
8.737999
 31
0.0
  0
LINE
  8
0
 62
   249
 10
225.377099
 20
8.498151
 30
0.0
 11
225.616947
 21
8.737999
 31
0.0
  0
LINE
  8
0
 62
   249
 10
225.377099
 20
8.621894
 30
0.0
 11
225.493204
 21
8.737999
 31
0.0
  0
LINE
  8
0
 62
   249
 10
225.377099
 20
6.023277
 30
0.0
 11
227.302271
 21
7.948449
 31
0.0
  0
LINE
  8
0
 62
   249
 10
225.377099
 20
5.899533
 30
0.0
 11
227.345523
 21
7.867958
 31
0.0
  0
LINE
  8
0
 62
   249
 10
225.377099
 20
5.77579
 30
0.0
 11
227.384746
 21
7.783437
 31
0.0
  0
LINE
  8
0
 62
   249
 10
225.377099
 20
5.652046
 30
0.0
 11
227.419668
 21
7.694615
 31
0.0
  0
LINE
  8
0
 62
   249
 10
225.377099
 20
5.528302
 30
0.0
 11
227.449932
 21
7.601135
 31
0.0
  0
LINE
  8
0
 62
   249
 10
225.377099
 20
5.404559
 30
0.0
 11
227.475067
 21
7.502527
 31
0.0
  0
LINE
  8
0
 62
   249
 10
225.474283
 20
5.377999
 30
0.0
 11
227.494444
 21
7.39816
 31
0.0
  0
LINE
  8
0
 62
   249
 10
225.598027
 20
5.377999
 30
0.0
 11
227.507197
 21
7.287169
 31
0.0
  0
LINE
  8
0
 62
   249
 10
225.721771
 20
5.377999
 30
0.0
 11
227.51209
 21
7.168319
 31
0.0
  0
LINE
  8
0
 62
   249
 10
225.845514
 20
5.377999
 30
0.0
 11
227.50727
 21
7.039754
 31
0.0
  0
LINE
  8
0
 62
   249
 10
225.969258
 20
5.377999
 30
0.0
 11
227.489725
 21
6.898466
 31
0.0
  0
LINE
  8
0
 62
   249
 10
226.093002
 20
5.377999
 30
0.0
 11
227.453936
 21
6.738933
 31
0.0
  0
LINE
  8
0
 62
   249
 10
226.216746
 20
5.377999
 30
0.0
 11
227.387299
 21
6.548553
 31
0.0
  0
LINE
  8
0
 62
   249
 10
226.340489
 20
5.377999
 30
0.0
 11
226.740665
 21
5.778175
 31
0.0
  0
LINE
  8
0
 62
   249
 10
226.82381
 20
5.86132
 30
0.0
 11
227.238778
 21
6.276288
 31
0.0
  0
LINE
  8
0
 62
   249
 10
226.464233
 20
5.377999
 30
0.0
 11
226.826562
 21
5.740328
 31
0.0
  0
LINE
  8
0
 62
   249
 10
226.587977
 20
5.377999
 30
0.0
 11
226.909353
 21
5.699376
 31
0.0
  0
LINE
  8
0
 62
   249
 10
226.71172
 20
5.377999
 30
0.0
 11
226.989174
 21
5.655453
 31
0.0
  0
LINE
  8
0
 62
   249
 10
226.835464
 20
5.377999
 30
0.0
 11
227.066135
 21
5.608671
 31
0.0
  0
LINE
  8
0
 62
   249
 10
226.959208
 20
5.377999
 30
0.0
 11
227.140325
 21
5.559117
 31
0.0
  0
LINE
  8
0
 62
   249
 10
227.082951
 20
5.377999
 30
0.0
 11
227.211814
 21
5.506862
 31
0.0
  0
LINE
  8
0
 62
   249
 10
227.206695
 20
5.377999
 30
0.0
 11
227.280653
 21
5.451958
 31
0.0
  0
LINE
  8
0
 62
   249
 10
227.330439
 20
5.377999
 30
0.0
 11
227.346881
 21
5.394442
 31
0.0
  0
LINE
  8
0
 62
   249
 10
223.137099
 20
6.134407
 30
0.0
 11
225.097099
 21
8.094407
 31
0.0
  0
LINE
  8
0
 62
   249
 10
223.137099
 20
6.258151
 30
0.0
 11
225.097099
 21
8.218151
 31
0.0
  0
LINE
  8
0
 62
   249
 10
223.137099
 20
6.381894
 30
0.0
 11
225.097099
 21
8.341894
 31
0.0
  0
LINE
  8
0
 62
   249
 10
223.137099
 20
6.505638
 30
0.0
 11
225.097099
 21
8.465638
 31
0.0
  0
LINE
  8
0
 62
   249
 10
223.137099
 20
6.629382
 30
0.0
 11
225.097099
 21
8.589382
 31
0.0
  0
LINE
  8
0
 62
   249
 10
223.137099
 20
6.753126
 30
0.0
 11
225.097099
 21
8.713126
 31
0.0
  0
LINE
  8
0
 62
   249
 10
223.137099
 20
6.876869
 30
0.0
 11
224.998229
 21
8.737999
 31
0.0
  0
LINE
  8
0
 62
   249
 10
223.137099
 20
7.000613
 30
0.0
 11
224.874485
 21
8.737999
 31
0.0
  0
LINE
  8
0
 62
   249
 10
223.137099
 20
7.124357
 30
0.0
 11
224.750742
 21
8.737999
 31
0.0
  0
LINE
  8
0
 62
   249
 10
223.137099
 20
7.2481
 30
0.0
 11
224.626998
 21
8.737999
 31
0.0
  0
LINE
  8
0
 62
   249
 10
223.137099
 20
7.371844
 30
0.0
 11
224.503254
 21
8.737999
 31
0.0
  0
LINE
  8
0
 62
   249
 10
223.137099
 20
7.495588
 30
0.0
 11
224.379511
 21
8.737999
 31
0.0
  0
LINE
  8
0
 62
   249
 10
223.137099
 20
7.619331
 30
0.0
 11
224.255767
 21
8.737999
 31
0.0
  0
LINE
  8
0
 62
   249
 10
223.137099
 20
7.743075
 30
0.0
 11
224.132023
 21
8.737999
 31
0.0
  0
LINE
  8
0
 62
   249
 10
223.137099
 20
7.866819
 30
0.0
 11
224.00828
 21
8.737999
 31
0.0
  0
LINE
  8
0
 62
   249
 10
223.137099
 20
7.990562
 30
0.0
 11
223.884536
 21
8.737999
 31
0.0
  0
LINE
  8
0
 62
   249
 10
223.137099
 20
8.114306
 30
0.0
 11
223.760792
 21
8.737999
 31
0.0
  0
LINE
  8
0
 62
   249
 10
223.137099
 20
8.23805
 30
0.0
 11
223.637049
 21
8.737999
 31
0.0
  0
LINE
  8
0
 62
   249
 10
223.137099
 20
8.361793
 30
0.0
 11
223.513305
 21
8.737999
 31
0.0
  0
LINE
  8
0
 62
   249
 10
223.137099
 20
8.485537
 30
0.0
 11
223.389561
 21
8.737999
 31
0.0
  0
LINE
  8
0
 62
   249
 10
223.137099
 20
8.609281
 30
0.0
 11
223.265818
 21
8.737999
 31
0.0
  0
LINE
  8
0
 62
   249
 10
223.137099
 20
8.733025
 30
0.0
 11
223.142074
 21
8.737999
 31
0.0
  0
LINE
  8
0
 62
   249
 10
223.137099
 20
6.010663
 30
0.0
 11
225.097099
 21
7.970663
 31
0.0
  0
LINE
  8
0
 62
   249
 10
223.137099
 20
5.88692
 30
0.0
 11
225.097099
 21
7.84692
 31
0.0
  0
LINE
  8
0
 62
   249
 10
223.137099
 20
5.763176
 30
0.0
 11
225.097099
 21
7.723176
 31
0.0
  0
LINE
  8
0
 62
   249
 10
223.137099
 20
5.639432
 30
0.0
 11
225.097099
 21
7.599432
 31
0.0
  0
LINE
  8
0
 62
   249
 10
223.137099
 20
5.515689
 30
0.0
 11
225.097099
 21
7.475689
 31
0.0
  0
LINE
  8
0
 62
   249
 10
223.137099
 20
5.391945
 30
0.0
 11
225.097099
 21
7.351945
 31
0.0
  0
LINE
  8
0
 62
   249
 10
223.246897
 20
5.377999
 30
0.0
 11
225.097099
 21
7.228201
 31
0.0
  0
LINE
  8
0
 62
   249
 10
223.370641
 20
5.377999
 30
0.0
 11
225.097099
 21
7.104458
 31
0.0
  0
LINE
  8
0
 62
   249
 10
223.494384
 20
5.377999
 30
0.0
 11
225.097099
 21
6.980714
 31
0.0
  0
LINE
  8
0
 62
   249
 10
223.618128
 20
5.377999
 30
0.0
 11
225.097099
 21
6.85697
 31
0.0
  0
LINE
  8
0
 62
   249
 10
223.741872
 20
5.377999
 30
0.0
 11
225.097099
 21
6.733227
 31
0.0
  0
LINE
  8
0
 62
   249
 10
223.865615
 20
5.377999
 30
0.0
 11
225.097099
 21
6.609483
 31
0.0
  0
LINE
  8
0
 62
   249
 10
223.989359
 20
5.377999
 30
0.0
 11
225.097099
 21
6.485739
 31
0.0
  0
LINE
  8
0
 62
   249
 10
224.113103
 20
5.377999
 30
0.0
 11
225.097099
 21
6.361995
 31
0.0
  0
LINE
  8
0
 62
   249
 10
224.236847
 20
5.377999
 30
0.0
 11
225.097099
 21
6.238252
 31
0.0
  0
LINE
  8
0
 62
   249
 10
224.36059
 20
5.377999
 30
0.0
 11
225.097099
 21
6.114508
 31
0.0
  0
LINE
  8
0
 62
   249
 10
224.484334
 20
5.377999
 30
0.0
 11
225.097099
 21
5.990764
 31
0.0
  0
LINE
  8
0
 62
   249
 10
224.608078
 20
5.377999
 30
0.0
 11
225.097099
 21
5.867021
 31
0.0
  0
LINE
  8
0
 62
   249
 10
224.731821
 20
5.377999
 30
0.0
 11
225.097099
 21
5.743277
 31
0.0
  0
LINE
  8
0
 62
   249
 10
224.855565
 20
5.377999
 30
0.0
 11
225.097099
 21
5.619533
 31
0.0
  0
LINE
  8
0
 62
   249
 10
224.979309
 20
5.377999
 30
0.0
 11
225.097099
 21
5.49579
 31
0.0
  0
LINE
  8
0
 62
   249
 10
225.377099
 20
2.310966
 30
0.0
 11
227.824614
 21
4.758481
 31
0.0
  0
LINE
  8
0
 62
   249
 10
225.377099
 20
2.43471
 30
0.0
 11
227.782547
 21
4.840158
 31
0.0
  0
LINE
  8
0
 62
   249
 10
225.377099
 20
2.558454
 30
0.0
 11
227.737553
 21
4.918908
 31
0.0
  0
LINE
  8
0
 62
   249
 10
225.377099
 20
2.682197
 30
0.0
 11
227.689735
 21
4.994834
 31
0.0
  0
LINE
  8
0
 62
   249
 10
225.377099
 20
2.805941
 30
0.0
 11
227.639174
 21
5.068016
 31
0.0
  0
LINE
  8
0
 62
   249
 10
225.377099
 20
2.929685
 30
0.0
 11
227.545413
 21
5.097999
 31
0.0
  0
LINE
  8
0
 62
   249
 10
225.377099
 20
3.053429
 30
0.0
 11
227.42167
 21
5.097999
 31
0.0
  0
LINE
  8
0
 62
   249
 10
225.377099
 20
3.177172
 30
0.0
 11
227.297926
 21
5.097999
 31
0.0
  0
LINE
  8
0
 62
   249
 10
225.377099
 20
3.300916
 30
0.0
 11
227.174182
 21
5.097999
 31
0.0
  0
LINE
  8
0
 62
   249
 10
225.377099
 20
3.42466
 30
0.0
 11
227.050439
 21
5.097999
 31
0.0
  0
LINE
  8
0
 62
   249
 10
225.377099
 20
3.548403
 30
0.0
 11
226.926695
 21
5.097999
 31
0.0
  0
LINE
  8
0
 62
   249
 10
225.377099
 20
3.672147
 30
0.0
 11
226.802951
 21
5.097999
 31
0.0
  0
LINE
  8
0
 62
   249
 10
225.377099
 20
3.795891
 30
0.0
 11
226.679208
 21
5.097999
 31
0.0
  0
LINE
  8
0
 62
   249
 10
225.377099
 20
3.919634
 30
0.0
 11
226.555464
 21
5.097999
 31
0.0
  0
LINE
  8
0
 62
   249
 10
225.377099
 20
4.043378
 30
0.0
 11
226.43172
 21
5.097999
 31
0.0
  0
LINE
  8
0
 62
   249
 10
225.377099
 20
4.167122
 30
0.0
 11
226.307977
 21
5.097999
 31
0.0
  0
LINE
  8
0
 62
   249
 10
225.377099
 20
4.290865
 30
0.0
 11
226.184233
 21
5.097999
 31
0.0
  0
LINE
  8
0
 62
   249
 10
225.377099
 20
4.414609
 30
0.0
 11
226.060489
 21
5.097999
 31
0.0
  0
LINE
  8
0
 62
   249
 10
225.377099
 20
4.538353
 30
0.0
 11
225.936746
 21
5.097999
 31
0.0
  0
LINE
  8
0
 62
   249
 10
225.377099
 20
4.662096
 30
0.0
 11
225.813002
 21
5.097999
 31
0.0
  0
LINE
  8
0
 62
   249
 10
225.377099
 20
4.78584
 30
0.0
 11
225.689258
 21
5.097999
 31
0.0
  0
LINE
  8
0
 62
   249
 10
225.377099
 20
4.909584
 30
0.0
 11
225.565514
 21
5.097999
 31
0.0
  0
LINE
  8
0
 62
   249
 10
225.377099
 20
5.033328
 30
0.0
 11
225.441771
 21
5.097999
 31
0.0
  0
LINE
  8
0
 62
   249
 10
225.377099
 20
2.187223
 30
0.0
 11
227.863629
 21
4.673752
 31
0.0
  0
LINE
  8
0
 62
   249
 10
225.377099
 20
2.063479
 30
0.0
 11
227.899437
 21
4.585817
 31
0.0
  0
LINE
  8
0
 62
   249
 10
225.377099
 20
1.939735
 30
0.0
 11
227.931849
 21
4.494485
 31
0.0
  0
LINE
  8
0
 62
   249
 10
225.377099
 20
1.815992
 30
0.0
 11
227.960633
 21
4.399525
 31
0.0
  0
LINE
  8
0
 62
   249
 10
225.42285
 20
1.737999
 30
0.0
 11
227.985502
 21
4.300651
 31
0.0
  0
LINE
  8
0
 62
   249
 10
225.546594
 20
1.738
 30
0.0
 11
228.006098
 21
4.197503
 31
0.0
  0
LINE
  8
0
 62
   249
 10
225.670338
 20
1.738
 30
0.0
 11
228.021969
 21
4.08963
 31
0.0
  0
LINE
  8
0
 62
   249
 10
225.794082
 20
1.738
 30
0.0
 11
228.03253
 21
3.976448
 31
0.0
  0
LINE
  8
0
 62
   249
 10
225.917826
 20
1.738
 30
0.0
 11
228.037011
 21
3.857186
 31
0.0
  0
LINE
  8
0
 62
   249
 10
226.044307
 20
1.740738
 30
0.0
 11
228.034361
 21
3.730791
 31
0.0
  0
LINE
  8
0
 62
   249
 10
226.17933
 20
1.752016
 30
0.0
 11
228.023082
 21
3.595769
 31
0.0
  0
LINE
  8
0
 62
   249
 10
226.325237
 20
1.77418
 30
0.0
 11
228.000918
 21
3.449861
 31
0.0
  0
LINE
  8
0
 62
   249
 10
226.485733
 20
1.810932
 30
0.0
 11
227.964166
 21
3.289366
 31
0.0
  0
LINE
  8
0
 62
   249
 10
226.667749
 20
1.869205
 30
0.0
 11
227.905893
 21
3.107349
 31
0.0
  0
LINE
  8
0
 62
   249
 10
226.887822
 20
1.965534
 30
0.0
 11
227.809564
 21
2.887276
 31
0.0
  0
LINE
  8
0
 62
   249
 10
227.22645
 20
2.180419
 30
0.0
 11
227.59468
 21
2.548648
 31
0.0
  0
LINE
  8
0
 62
   249
 10
210.187099
 20
1.737999
 30
0.0
 11
213.547099
 21
5.097999
 31
0.0
  0
LINE
  8
0
 62
   249
 10
210.25373
 20
1.928374
 30
0.0
 11
213.423355
 21
5.097999
 31
0.0
  0
LINE
  8
0
 62
   249
 10
210.320362
 20
2.118749
 30
0.0
 11
213.299612
 21
5.097999
 31
0.0
  0
LINE
  8
0
 62
   249
 10
210.386993
 20
2.309124
 30
0.0
 11
213.175868
 21
5.097999
 31
0.0
  0
LINE
  8
0
 62
   249
 10
210.453624
 20
2.499499
 30
0.0
 11
213.052124
 21
5.097999
 31
0.0
  0
LINE
  8
0
 62
   249
 10
210.520255
 20
2.689874
 30
0.0
 11
212.928381
 21
5.097999
 31
0.0
  0
LINE
  8
0
 62
   249
 10
210.586886
 20
2.880249
 30
0.0
 11
212.804637
 21
5.097999
 31
0.0
  0
LINE
  8
0
 62
   249
 10
210.653518
 20
3.070624
 30
0.0
 11
212.680893
 21
5.097999
 31
0.0
  0
LINE
  8
0
 62
   249
 10
210.720149
 20
3.260998
 30
0.0
 11
212.55715
 21
5.097999
 31
0.0
  0
LINE
  8
0
 62
   249
 10
210.78678
 20
3.451373
 30
0.0
 11
212.433406
 21
5.097999
 31
0.0
  0
LINE
  8
0
 62
   249
 10
210.853411
 20
3.641748
 30
0.0
 11
212.309662
 21
5.097999
 31
0.0
  0
LINE
  8
0
 62
   249
 10
210.920042
 20
3.832123
 30
0.0
 11
212.185919
 21
5.097999
 31
0.0
  0
LINE
  8
0
 62
   249
 10
210.986674
 20
4.022498
 30
0.0
 11
212.062175
 21
5.097999
 31
0.0
  0
LINE
  8
0
 62
   249
 10
211.053305
 20
4.212873
 30
0.0
 11
211.938431
 21
5.097999
 31
0.0
  0
LINE
  8
0
 62
   249
 10
211.119936
 20
4.403248
 30
0.0
 11
211.814687
 21
5.097999
 31
0.0
  0
LINE
  8
0
 62
   249
 10
211.186567
 20
4.593623
 30
0.0
 11
211.690944
 21
5.097999
 31
0.0
  0
LINE
  8
0
 62
   249
 10
211.253199
 20
4.783998
 30
0.0
 11
211.5672
 21
5.097999
 31
0.0
  0
LINE
  8
0
 62
   249
 10
211.31983
 20
4.974373
 30
0.0
 11
211.443456
 21
5.097999
 31
0.0
  0
LINE
  8
0
 62
   249
 10
210.310843
 20
1.737999
 30
0.0
 11
213.547099
 21
4.974256
 31
0.0
  0
LINE
  8
0
 62
   249
 10
210.434586
 20
1.737999
 30
0.0
 11
213.547099
 21
4.850512
 31
0.0
  0
LINE
  8
0
 62
   249
 10
210.55833
 20
1.737999
 30
0.0
 11
213.547099
 21
4.726768
 31
0.0
  0
LINE
  8
0
 62
   249
 10
210.682074
 20
1.737999
 30
0.0
 11
213.547099
 21
4.603025
 31
0.0
  0
LINE
  8
0
 62
   249
 10
210.805818
 20
1.737999
 30
0.0
 11
213.547099
 21
4.479281
 31
0.0
  0
LINE
  8
0
 62
   249
 10
210.929561
 20
1.737999
 30
0.0
 11
213.547099
 21
4.355537
 31
0.0
  0
LINE
  8
0
 62
   249
 10
211.053305
 20
1.737999
 30
0.0
 11
212.412988
 21
3.097683
 31
0.0
  0
LINE
  8
0
 62
   249
 10
212.453305
 20
3.137999
 30
0.0
 11
213.547099
 21
4.231793
 31
0.0
  0
LINE
  8
0
 62
   249
 10
211.177049
 20
1.737999
 30
0.0
 11
212.346357
 21
2.907308
 31
0.0
  0
LINE
  8
0
 62
   249
 10
212.577049
 20
3.137999
 30
0.0
 11
213.547099
 21
4.10805
 31
0.0
  0
LINE
  8
0
 62
   249
 10
211.300792
 20
1.737999
 30
0.0
 11
212.279726
 21
2.716933
 31
0.0
  0
LINE
  8
0
 62
   249
 10
212.700792
 20
3.137999
 30
0.0
 11
213.547099
 21
3.984306
 31
0.0
  0
LINE
  8
0
 62
   249
 10
211.424536
 20
1.737999
 30
0.0
 11
212.213095
 21
2.526558
 31
0.0
  0
LINE
  8
0
 62
   249
 10
212.824536
 20
3.137999
 30
0.0
 11
213.547099
 21
3.860562
 31
0.0
  0
LINE
  8
0
 62
   249
 10
211.54828
 20
1.737999
 30
0.0
 11
212.146463
 21
2.336183
 31
0.0
  0
LINE
  8
0
 62
   249
 10
212.94828
 20
3.137999
 30
0.0
 11
213.547099
 21
3.736819
 31
0.0
  0
LINE
  8
0
 62
   249
 10
211.672023
 20
1.737999
 30
0.0
 11
212.079832
 21
2.145808
 31
0.0
  0
LINE
  8
0
 62
   249
 10
213.072023
 20
3.137999
 30
0.0
 11
213.547099
 21
3.613075
 31
0.0
  0
LINE
  8
0
 62
   249
 10
211.795767
 20
1.737999
 30
0.0
 11
212.013201
 21
1.955433
 31
0.0
  0
LINE
  8
0
 62
   249
 10
213.195767
 20
3.137999
 30
0.0
 11
213.547099
 21
3.489331
 31
0.0
  0
LINE
  8
0
 62
   249
 10
211.919511
 20
1.737999
 30
0.0
 11
211.94657
 21
1.765058
 31
0.0
  0
LINE
  8
0
 62
   249
 10
213.319511
 20
3.137999
 30
0.0
 11
213.547099
 21
3.365588
 31
0.0
  0
LINE
  8
0
 62
   249
 10
213.443254
 20
3.137999
 30
0.0
 11
213.547099
 21
3.241844
 31
0.0
  0
LINE
  8
0
 62
   249
 10
217.677099
 20
2.54584
 30
0.0
 11
219.637099
 21
4.50584
 31
0.0
  0
LINE
  8
0
 62
   249
 10
217.677099
 20
2.669584
 30
0.0
 11
219.637099
 21
4.629584
 31
0.0
  0
LINE
  8
0
 62
   249
 10
217.677099
 20
2.793328
 30
0.0
 11
219.637099
 21
4.753328
 31
0.0
  0
LINE
  8
0
 62
   249
 10
217.677099
 20
2.917071
 30
0.0
 11
219.637099
 21
4.877071
 31
0.0
  0
LINE
  8
0
 62
   249
 10
217.677099
 20
3.040815
 30
0.0
 11
219.637099
 21
5.000815
 31
0.0
  0
LINE
  8
0
 62
   249
 10
217.677099
 20
3.164559
 30
0.0
 11
219.61054
 21
5.097999
 31
0.0
  0
LINE
  8
0
 62
   249
 10
217.677099
 20
3.288302
 30
0.0
 11
219.486796
 21
5.097999
 31
0.0
  0
LINE
  8
0
 62
   249
 10
217.677099
 20
3.412046
 30
0.0
 11
219.363052
 21
5.097999
 31
0.0
  0
LINE
  8
0
 62
   249
 10
217.677099
 20
3.53579
 30
0.0
 11
219.239309
 21
5.097999
 31
0.0
  0
LINE
  8
0
 62
   249
 10
217.677099
 20
3.659533
 30
0.0
 11
219.115565
 21
5.097999
 31
0.0
  0
LINE
  8
0
 62
   249
 10
217.677099
 20
3.783277
 30
0.0
 11
218.991821
 21
5.097999
 31
0.0
  0
LINE
  8
0
 62
   249
 10
217.677099
 20
3.907021
 30
0.0
 11
218.868078
 21
5.097999
 31
0.0
  0
LINE
  8
0
 62
   249
 10
217.677099
 20
4.030764
 30
0.0
 11
218.744334
 21
5.097999
 31
0.0
  0
LINE
  8
0
 62
   249
 10
217.677099
 20
4.154508
 30
0.0
 11
218.62059
 21
5.097999
 31
0.0
  0
LINE
  8
0
 62
   249
 10
217.677099
 20
4.278252
 30
0.0
 11
218.496847
 21
5.097999
 31
0.0
  0
LINE
  8
0
 62
   249
 10
217.677099
 20
4.401995
 30
0.0
 11
218.373103
 21
5.097999
 31
0.0
  0
LINE
  8
0
 62
   249
 10
217.677099
 20
4.525739
 30
0.0
 11
218.249359
 21
5.097999
 31
0.0
  0
LINE
  8
0
 62
   249
 10
217.677099
 20
4.649483
 30
0.0
 11
218.125615
 21
5.097999
 31
0.0
  0
LINE
  8
0
 62
   249
 10
217.677099
 20
4.773227
 30
0.0
 11
218.001872
 21
5.097999
 31
0.0
  0
LINE
  8
0
 62
   249
 10
217.677099
 20
4.89697
 30
0.0
 11
217.878128
 21
5.097999
 31
0.0
  0
LINE
  8
0
 62
   249
 10
217.677099
 20
5.020714
 30
0.0
 11
217.754384
 21
5.097999
 31
0.0
  0
LINE
  8
0
 62
   249
 10
217.677099
 20
2.422096
 30
0.0
 11
219.637099
 21
4.382096
 31
0.0
  0
LINE
  8
0
 62
   249
 10
217.677099
 20
2.298353
 30
0.0
 11
219.637099
 21
4.258353
 31
0.0
  0
LINE
  8
0
 62
   249
 10
217.677099
 20
2.174609
 30
0.0
 11
219.637099
 21
4.134609
 31
0.0
  0
LINE
  8
0
 62
   249
 10
217.677099
 20
2.050865
 30
0.0
 11
219.637099
 21
4.010865
 31
0.0
  0
LINE
  8
0
 62
   249
 10
217.677099
 20
1.927122
 30
0.0
 11
219.637099
 21
3.887122
 31
0.0
  0
LINE
  8
0
 62
   249
 10
217.677099
 20
1.803378
 30
0.0
 11
219.637099
 21
3.763378
 31
0.0
  0
LINE
  8
0
 62
   249
 10
217.735464
 20
1.737999
 30
0.0
 11
219.637099
 21
3.639634
 31
0.0
  0
LINE
  8
0
 62
   249
 10
217.859208
 20
1.737999
 30
0.0
 11
219.637099
 21
3.515891
 31
0.0
  0
LINE
  8
0
 62
   249
 10
217.982951
 20
1.737999
 30
0.0
 11
219.637099
 21
3.392147
 31
0.0
  0
LINE
  8
0
 62
   249
 10
218.106695
 20
1.737999
 30
0.0
 11
219.637099
 21
3.268403
 31
0.0
  0
LINE
  8
0
 62
   249
 10
218.230439
 20
1.737999
 30
0.0
 11
219.637099
 21
3.14466
 31
0.0
  0
LINE
  8
0
 62
   249
 10
218.354182
 20
1.737999
 30
0.0
 11
219.637099
 21
3.020916
 31
0.0
  0
LINE
  8
0
 62
   249
 10
218.477926
 20
1.737999
 30
0.0
 11
219.637099
 21
2.897172
 31
0.0
  0
LINE
  8
0
 62
   249
 10
218.60167
 20
1.737999
 30
0.0
 11
219.637099
 21
2.773429
 31
0.0
  0
LINE
  8
0
 62
   249
 10
218.725413
 20
1.737999
 30
0.0
 11
219.637099
 21
2.649685
 31
0.0
  0
LINE
  8
0
 62
   249
 10
218.849157
 20
1.737999
 30
0.0
 11
219.637099
 21
2.525941
 31
0.0
  0
LINE
  8
0
 62
   249
 10
218.972901
 20
1.737999
 30
0.0
 11
219.637099
 21
2.402197
 31
0.0
  0
LINE
  8
0
 62
   249
 10
219.096645
 20
1.737999
 30
0.0
 11
219.637099
 21
2.278454
 31
0.0
  0
LINE
  8
0
 62
   249
 10
219.220388
 20
1.737999
 30
0.0
 11
219.637099
 21
2.15471
 31
0.0
  0
LINE
  8
0
 62
   249
 10
219.344132
 20
1.737999
 30
0.0
 11
219.637099
 21
2.030966
 31
0.0
  0
LINE
  8
0
 62
   249
 10
219.467876
 20
1.737999
 30
0.0
 11
219.637099
 21
1.907223
 31
0.0
  0
LINE
  8
0
 62
   249
 10
219.591619
 20
1.737999
 30
0.0
 11
219.637099
 21
1.783479
 31
0.0
  0
LINE
  8
0
 62
   249
 10
215.006357
 20
2.96869
 30
0.0
 11
216.302653
 21
4.264987
 31
0.0
  0
LINE
  8
0
 62
   249
 10
214.974275
 20
3.060352
 30
0.0
 11
216.270572
 21
4.356649
 31
0.0
  0
LINE
  8
0
 62
   249
 10
214.928179
 20
3.137999
 30
0.0
 11
216.23849
 21
4.448311
 31
0.0
  0
LINE
  8
0
 62
   249
 10
214.804435
 20
3.137999
 30
0.0
 11
216.206408
 21
4.539973
 31
0.0
  0
LINE
  8
0
 62
   249
 10
214.680691
 20
3.137999
 30
0.0
 11
216.174327
 21
4.631635
 31
0.0
  0
LINE
  8
0
 62
   249
 10
214.556948
 20
3.137999
 30
0.0
 11
216.142245
 21
4.723297
 31
0.0
  0
LINE
  8
0
 62
   249
 10
214.433204
 20
3.137999
 30
0.0
 11
216.110163
 21
4.814959
 31
0.0
  0
LINE
  8
0
 62
   249
 10
214.30946
 20
3.137999
 30
0.0
 11
216.078082
 21
4.906621
 31
0.0
  0
LINE
  8
0
 62
   249
 10
214.185717
 20
3.137999
 30
0.0
 11
216.046
 21
4.998283
 31
0.0
  0
LINE
  8
0
 62
   249
 10
214.061973
 20
3.137999
 30
0.0
 11
216.013918
 21
5.089945
 31
0.0
  0
LINE
  8
0
 62
   249
 10
213.938229
 20
3.137999
 30
0.0
 11
215.898229
 21
5.097999
 31
0.0
  0
LINE
  8
0
 62
   249
 10
213.827099
 20
3.150613
 30
0.0
 11
215.774485
 21
5.097999
 31
0.0
  0
LINE
  8
0
 62
   249
 10
213.827099
 20
3.274357
 30
0.0
 11
215.650742
 21
5.097999
 31
0.0
  0
LINE
  8
0
 62
   249
 10
213.827099
 20
3.3981
 30
0.0
 11
215.526998
 21
5.097999
 31
0.0
  0
LINE
  8
0
 62
   249
 10
213.827099
 20
3.521844
 30
0.0
 11
215.403254
 21
5.097999
 31
0.0
  0
LINE
  8
0
 62
   249
 10
213.827099
 20
3.645588
 30
0.0
 11
215.279511
 21
5.097999
 31
0.0
  0
LINE
  8
0
 62
   249
 10
213.827099
 20
3.769331
 30
0.0
 11
215.155767
 21
5.097999
 31
0.0
  0
LINE
  8
0
 62
   249
 10
213.827099
 20
3.893075
 30
0.0
 11
215.032023
 21
5.097999
 31
0.0
  0
LINE
  8
0
 62
   249
 10
213.827099
 20
4.016819
 30
0.0
 11
214.90828
 21
5.097999
 31
0.0
  0
LINE
  8
0
 62
   249
 10
213.827099
 20
4.140562
 30
0.0
 11
214.784536
 21
5.097999
 31
0.0
  0
LINE
  8
0
 62
   249
 10
213.827099
 20
4.264306
 30
0.0
 11
214.660792
 21
5.097999
 31
0.0
  0
LINE
  8
0
 62
   249
 10
213.827099
 20
4.38805
 30
0.0
 11
214.537049
 21
5.097999
 31
0.0
  0
LINE
  8
0
 62
   249
 10
213.827099
 20
4.511793
 30
0.0
 11
214.413305
 21
5.097999
 31
0.0
  0
LINE
  8
0
 62
   249
 10
213.827099
 20
4.635537
 30
0.0
 11
214.289561
 21
5.097999
 31
0.0
  0
LINE
  8
0
 62
   249
 10
213.827099
 20
4.759281
 30
0.0
 11
214.165818
 21
5.097999
 31
0.0
  0
LINE
  8
0
 62
   249
 10
213.827099
 20
4.883025
 30
0.0
 11
214.042074
 21
5.097999
 31
0.0
  0
LINE
  8
0
 62
   249
 10
213.827099
 20
5.006768
 30
0.0
 11
213.91833
 21
5.097999
 31
0.0
  0
LINE
  8
0
 62
   249
 10
215.038439
 20
2.877028
 30
0.0
 11
216.334735
 21
4.173325
 31
0.0
  0
LINE
  8
0
 62
   249
 10
215.070521
 20
2.785366
 30
0.0
 11
216.366817
 21
4.081663
 31
0.0
  0
LINE
  8
0
 62
   249
 10
215.102602
 20
2.693704
 30
0.0
 11
216.398899
 21
3.990001
 31
0.0
  0
LINE
  8
0
 62
   249
 10
215.134684
 20
2.602042
 30
0.0
 11
216.43098
 21
3.898339
 31
0.0
  0
LINE
  8
0
 62
   249
 10
215.166766
 20
2.51038
 30
0.0
 11
216.463062
 21
3.806677
 31
0.0
  0
LINE
  8
0
 62
   249
 10
215.198847
 20
2.418718
 30
0.0
 11
216.495144
 21
3.715015
 31
0.0
  0
LINE
  8
0
 62
   249
 10
215.230929
 20
2.327056
 30
0.0
 11
216.527225
 21
3.623353
 31
0.0
  0
LINE
  8
0
 62
   249
 10
215.263011
 20
2.235395
 30
0.0
 11
216.559307
 21
3.531691
 31
0.0
  0
LINE
  8
0
 62
   249
 10
215.295092
 20
2.143733
 30
0.0
 11
216.591389
 21
3.440029
 31
0.0
  0
LINE
  8
0
 62
   249
 10
215.327174
 20
2.052071
 30
0.0
 11
216.62347
 21
3.348367
 31
0.0
  0
LINE
  8
0
 62
   249
 10
215.359256
 20
1.960409
 30
0.0
 11
216.655552
 21
3.256705
 31
0.0
  0
LINE
  8
0
 62
   249
 10
215.391338
 20
1.868747
 30
0.0
 11
216.687634
 21
3.165043
 31
0.0
  0
LINE
  8
0
 62
   249
 10
215.423419
 20
1.777085
 30
0.0
 11
216.719716
 21
3.073381
 31
0.0
  0
LINE
  8
0
 62
   249
 10
215.508078
 20
1.737999
 30
0.0
 11
216.751797
 21
2.981719
 31
0.0
  0
LINE
  8
0
 62
   249
 10
215.631821
 20
1.737999
 30
0.0
 11
216.783879
 21
2.890057
 31
0.0
  0
LINE
  8
0
 62
   249
 10
215.755565
 20
1.737999
 30
0.0
 11
216.815961
 21
2.798395
 31
0.0
  0
LINE
  8
0
 62
   249
 10
215.879309
 20
1.737999
 30
0.0
 11
216.848042
 21
2.706733
 31
0.0
  0
LINE
  8
0
 62
   249
 10
216.003052
 20
1.737999
 30
0.0
 11
216.880124
 21
2.615071
 31
0.0
  0
LINE
  8
0
 62
   249
 10
216.126796
 20
1.737999
 30
0.0
 11
216.912206
 21
2.523409
 31
0.0
  0
LINE
  8
0
 62
   249
 10
216.25054
 20
1.737999
 30
0.0
 11
216.944287
 21
2.431747
 31
0.0
  0
LINE
  8
0
 62
   249
 10
216.374283
 20
1.737999
 30
0.0
 11
216.976369
 21
2.340085
 31
0.0
  0
LINE
  8
0
 62
   249
 10
216.498027
 20
1.737999
 30
0.0
 11
217.008451
 21
2.248423
 31
0.0
  0
LINE
  8
0
 62
   249
 10
216.621771
 20
1.737999
 30
0.0
 11
217.040532
 21
2.156761
 31
0.0
  0
LINE
  8
0
 62
   249
 10
216.745514
 20
1.737999
 30
0.0
 11
217.072614
 21
2.065099
 31
0.0
  0
LINE
  8
0
 62
   249
 10
216.869258
 20
1.737999
 30
0.0
 11
217.104696
 21
1.973437
 31
0.0
  0
LINE
  8
0
 62
   249
 10
216.993002
 20
1.737999
 30
0.0
 11
217.136778
 21
1.881775
 31
0.0
  0
LINE
  8
0
 62
   249
 10
217.116746
 20
1.737999
 30
0.0
 11
217.168859
 21
1.790113
 31
0.0
  0
LINE
  8
0
 62
   249
 10
219.917099
 20
2.310966
 30
0.0
 11
222.364614
 21
4.758481
 31
0.0
  0
LINE
  8
0
 62
   249
 10
219.917099
 20
2.43471
 30
0.0
 11
222.322547
 21
4.840158
 31
0.0
  0
LINE
  8
0
 62
   249
 10
219.917099
 20
2.558454
 30
0.0
 11
222.277553
 21
4.918908
 31
0.0
  0
LINE
  8
0
 62
   249
 10
219.917099
 20
2.682197
 30
0.0
 11
222.229735
 21
4.994834
 31
0.0
  0
LINE
  8
0
 62
   249
 10
219.917099
 20
2.805941
 30
0.0
 11
222.179174
 21
5.068016
 31
0.0
  0
LINE
  8
0
 62
   249
 10
219.917099
 20
2.929685
 30
0.0
 11
222.085413
 21
5.097999
 31
0.0
  0
LINE
  8
0
 62
   249
 10
219.917099
 20
3.053429
 30
0.0
 11
221.96167
 21
5.097999
 31
0.0
  0
LINE
  8
0
 62
   249
 10
219.917099
 20
3.177172
 30
0.0
 11
221.837926
 21
5.097999
 31
0.0
  0
LINE
  8
0
 62
   249
 10
219.917099
 20
3.300916
 30
0.0
 11
221.714182
 21
5.097999
 31
0.0
  0
LINE
  8
0
 62
   249
 10
219.917099
 20
3.42466
 30
0.0
 11
221.590439
 21
5.097999
 31
0.0
  0
LINE
  8
0
 62
   249
 10
219.917099
 20
3.548403
 30
0.0
 11
221.466695
 21
5.097999
 31
0.0
  0
LINE
  8
0
 62
   249
 10
219.917099
 20
3.672147
 30
0.0
 11
221.342951
 21
5.097999
 31
0.0
  0
LINE
  8
0
 62
   249
 10
219.917099
 20
3.795891
 30
0.0
 11
221.219208
 21
5.097999
 31
0.0
  0
LINE
  8
0
 62
   249
 10
219.917099
 20
3.919634
 30
0.0
 11
221.095464
 21
5.097999
 31
0.0
  0
LINE
  8
0
 62
   249
 10
219.917099
 20
4.043378
 30
0.0
 11
220.97172
 21
5.097999
 31
0.0
  0
LINE
  8
0
 62
   249
 10
219.917099
 20
4.167122
 30
0.0
 11
220.847977
 21
5.097999
 31
0.0
  0
LINE
  8
0
 62
   249
 10
219.917099
 20
4.290865
 30
0.0
 11
220.724233
 21
5.097999
 31
0.0
  0
LINE
  8
0
 62
   249
 10
219.917099
 20
4.414609
 30
0.0
 11
220.600489
 21
5.097999
 31
0.0
  0
LINE
  8
0
 62
   249
 10
219.917099
 20
4.538353
 30
0.0
 11
220.476746
 21
5.097999
 31
0.0
  0
LINE
  8
0
 62
   249
 10
219.917099
 20
4.662096
 30
0.0
 11
220.353002
 21
5.097999
 31
0.0
  0
LINE
  8
0
 62
   249
 10
219.917099
 20
4.78584
 30
0.0
 11
220.229258
 21
5.097999
 31
0.0
  0
LINE
  8
0
 62
   249
 10
219.917099
 20
4.909584
 30
0.0
 11
220.105514
 21
5.097999
 31
0.0
  0
LINE
  8
0
 62
   249
 10
219.917099
 20
5.033328
 30
0.0
 11
219.981771
 21
5.097999
 31
0.0
  0
LINE
  8
0
 62
   249
 10
219.917099
 20
2.187223
 30
0.0
 11
222.403629
 21
4.673752
 31
0.0
  0
LINE
  8
0
 62
   249
 10
219.917099
 20
2.063479
 30
0.0
 11
222.439437
 21
4.585817
 31
0.0
  0
LINE
  8
0
 62
   249
 10
219.917099
 20
1.939735
 30
0.0
 11
222.471849
 21
4.494485
 31
0.0
  0
LINE
  8
0
 62
   249
 10
219.917099
 20
1.815992
 30
0.0
 11
222.500633
 21
4.399525
 31
0.0
  0
LINE
  8
0
 62
   249
 10
219.96285
 20
1.737999
 30
0.0
 11
222.525502
 21
4.300651
 31
0.0
  0
LINE
  8
0
 62
   249
 10
220.086594
 20
1.738
 30
0.0
 11
222.546098
 21
4.197503
 31
0.0
  0
LINE
  8
0
 62
   249
 10
220.210338
 20
1.738
 30
0.0
 11
222.561969
 21
4.08963
 31
0.0
  0
LINE
  8
0
 62
   249
 10
220.334082
 20
1.738
 30
0.0
 11
222.57253
 21
3.976448
 31
0.0
  0
LINE
  8
0
 62
   249
 10
220.457826
 20
1.738
 30
0.0
 11
222.577011
 21
3.857186
 31
0.0
  0
LINE
  8
0
 62
   249
 10
220.584307
 20
1.740738
 30
0.0
 11
222.574361
 21
3.730791
 31
0.0
  0
LINE
  8
0
 62
   249
 10
220.71933
 20
1.752016
 30
0.0
 11
222.563082
 21
3.595769
 31
0.0
  0
LINE
  8
0
 62
   249
 10
220.865237
 20
1.77418
 30
0.0
 11
222.540918
 21
3.449861
 31
0.0
  0
LINE
  8
0
 62
   249
 10
221.025733
 20
1.810932
 30
0.0
 11
222.504166
 21
3.289366
 31
0.0
  0
LINE
  8
0
 62
   249
 10
221.207749
 20
1.869205
 30
0.0
 11
222.445893
 21
3.107349
 31
0.0
  0
LINE
  8
0
 62
   249
 10
221.427822
 20
1.965534
 30
0.0
 11
222.349564
 21
2.887276
 31
0.0
  0
LINE
  8
0
 62
   249
 10
221.76645
 20
2.180419
 30
0.0
 11
222.13468
 21
2.548648
 31
0.0
  0
LINE
  8
0
 62
   249
 10
223.137099
 20
2.54584
 30
0.0
 11
225.097099
 21
4.50584
 31
0.0
  0
LINE
  8
0
 62
   249
 10
223.137099
 20
2.669584
 30
0.0
 11
225.097099
 21
4.629584
 31
0.0
  0
LINE
  8
0
 62
   249
 10
223.137099
 20
2.793328
 30
0.0
 11
225.097099
 21
4.753328
 31
0.0
  0
LINE
  8
0
 62
   249
 10
223.137099
 20
2.917071
 30
0.0
 11
225.097099
 21
4.877071
 31
0.0
  0
LINE
  8
0
 62
   249
 10
223.137099
 20
3.040815
 30
0.0
 11
225.097099
 21
5.000815
 31
0.0
  0
LINE
  8
0
 62
   249
 10
223.137099
 20
3.164559
 30
0.0
 11
225.07054
 21
5.097999
 31
0.0
  0
LINE
  8
0
 62
   249
 10
223.137099
 20
3.288302
 30
0.0
 11
224.946796
 21
5.097999
 31
0.0
  0
LINE
  8
0
 62
   249
 10
223.137099
 20
3.412046
 30
0.0
 11
224.823052
 21
5.097999
 31
0.0
  0
LINE
  8
0
 62
   249
 10
223.137099
 20
3.53579
 30
0.0
 11
224.699309
 21
5.097999
 31
0.0
  0
LINE
  8
0
 62
   249
 10
223.137099
 20
3.659533
 30
0.0
 11
224.575565
 21
5.097999
 31
0.0
  0
LINE
  8
0
 62
   249
 10
223.137099
 20
3.783277
 30
0.0
 11
224.451821
 21
5.097999
 31
0.0
  0
LINE
  8
0
 62
   249
 10
223.137099
 20
3.907021
 30
0.0
 11
224.328078
 21
5.097999
 31
0.0
  0
LINE
  8
0
 62
   249
 10
223.137099
 20
4.030764
 30
0.0
 11
224.204334
 21
5.097999
 31
0.0
  0
LINE
  8
0
 62
   249
 10
223.137099
 20
4.154508
 30
0.0
 11
224.08059
 21
5.097999
 31
0.0
  0
LINE
  8
0
 62
   249
 10
223.137099
 20
4.278252
 30
0.0
 11
223.956847
 21
5.097999
 31
0.0
  0
LINE
  8
0
 62
   249
 10
223.137099
 20
4.401995
 30
0.0
 11
223.833103
 21
5.097999
 31
0.0
  0
LINE
  8
0
 62
   249
 10
223.137099
 20
4.525739
 30
0.0
 11
223.709359
 21
5.097999
 31
0.0
  0
LINE
  8
0
 62
   249
 10
223.137099
 20
4.649483
 30
0.0
 11
223.585615
 21
5.097999
 31
0.0
  0
LINE
  8
0
 62
   249
 10
223.137099
 20
4.773227
 30
0.0
 11
223.461872
 21
5.097999
 31
0.0
  0
LINE
  8
0
 62
   249
 10
223.137099
 20
4.89697
 30
0.0
 11
223.338128
 21
5.097999
 31
0.0
  0
LINE
  8
0
 62
   249
 10
223.137099
 20
5.020714
 30
0.0
 11
223.214384
 21
5.097999
 31
0.0
  0
LINE
  8
0
 62
   249
 10
223.137099
 20
2.422096
 30
0.0
 11
225.097099
 21
4.382096
 31
0.0
  0
LINE
  8
0
 62
   249
 10
223.137099
 20
2.298353
 30
0.0
 11
225.097099
 21
4.258353
 31
0.0
  0
LINE
  8
0
 62
   249
 10
223.137099
 20
2.174609
 30
0.0
 11
225.097099
 21
4.134609
 31
0.0
  0
LINE
  8
0
 62
   249
 10
223.137099
 20
2.050865
 30
0.0
 11
225.097099
 21
4.010865
 31
0.0
  0
LINE
  8
0
 62
   249
 10
223.137099
 20
1.927122
 30
0.0
 11
225.097099
 21
3.887122
 31
0.0
  0
LINE
  8
0
 62
   249
 10
223.137099
 20
1.803378
 30
0.0
 11
225.097099
 21
3.763378
 31
0.0
  0
LINE
  8
0
 62
   249
 10
223.195464
 20
1.737999
 30
0.0
 11
225.097099
 21
3.639634
 31
0.0
  0
LINE
  8
0
 62
   249
 10
223.319208
 20
1.737999
 30
0.0
 11
225.097099
 21
3.515891
 31
0.0
  0
LINE
  8
0
 62
   249
 10
223.442951
 20
1.737999
 30
0.0
 11
225.097099
 21
3.392147
 31
0.0
  0
LINE
  8
0
 62
   249
 10
223.566695
 20
1.737999
 30
0.0
 11
225.097099
 21
3.268403
 31
0.0
  0
LINE
  8
0
 62
   249
 10
223.690439
 20
1.737999
 30
0.0
 11
225.097099
 21
3.14466
 31
0.0
  0
LINE
  8
0
 62
   249
 10
223.814182
 20
1.737999
 30
0.0
 11
225.097099
 21
3.020916
 31
0.0
  0
LINE
  8
0
 62
   249
 10
223.937926
 20
1.737999
 30
0.0
 11
225.097099
 21
2.897172
 31
0.0
  0
LINE
  8
0
 62
   249
 10
224.06167
 20
1.737999
 30
0.0
 11
225.097099
 21
2.773429
 31
0.0
  0
LINE
  8
0
 62
   249
 10
224.185413
 20
1.737999
 30
0.0
 11
225.097099
 21
2.649685
 31
0.0
  0
LINE
  8
0
 62
   249
 10
224.309157
 20
1.737999
 30
0.0
 11
225.097099
 21
2.525941
 31
0.0
  0
LINE
  8
0
 62
   249
 10
224.432901
 20
1.737999
 30
0.0
 11
225.097099
 21
2.402197
 31
0.0
  0
LINE
  8
0
 62
   249
 10
224.556645
 20
1.737999
 30
0.0
 11
225.097099
 21
2.278454
 31
0.0
  0
LINE
  8
0
 62
   249
 10
224.680388
 20
1.737999
 30
0.0
 11
225.097099
 21
2.15471
 31
0.0
  0
LINE
  8
0
 62
   249
 10
224.804132
 20
1.737999
 30
0.0
 11
225.097099
 21
2.030966
 31
0.0
  0
LINE
  8
0
 62
   249
 10
224.927876
 20
1.737999
 30
0.0
 11
225.097099
 21
1.907223
 31
0.0
  0
LINE
  8
0
 62
   249
 10
225.051619
 20
1.737999
 30
0.0
 11
225.097099
 21
1.783479
 31
0.0
  0
LINE
  8
0
 62
   249
 10
220.678947
 20
70.783527
 30
0.0
 11
224.678947
 21
70.783527
 31
0.0
  0
INSERT
  8
0
 62
   249
  2
WKU130
 10
221.018896
 20
69.057974
 30
0.0
 41
0.8
 42
0.8
 43
0.8
  0
TEXT
  8
0
  6
CONTINUOUS
 62
   249
 10
219.353328
 20
71.513635
 30
0.0
 40
2.0
  1
+
  0
TEXT
  8
0
  6
CONTINUOUS
 62
   249
 10
224.344763
 20
71.50558
 30
0.0
 40
2.0
  1
-
  0
INSERT
  8
0
  6
CENTER
 62
   249
  2
BLC5
 10
237.791926
 20
73.342005
 30
0.0
 41
0.6
 42
0.6
 43
0.6
  0
ARC
  8
0
 62
   249
 10
223.672927
 20
105.936221
 30
0.0
 40
0.869227
 50
32.471192
 51
175.601295
  0
ARC
  8
0
 62
   249
 10
225.139595
 20
106.869554
 30
0.0
 40
0.869227
 50
212.471192
 51
355.601295
  0
LINE
  8
0
  6
CONTINUOUS
 62
   249
 10
343.174347
 20
40.103938
 30
0.0
 11
344.061234
 21
40.103938
 31
0.0
  0
LINE
  8
0
  6
CONTINUOUS
 62
   249
 10
342.843243
 20
40.715572
 30
0.0
 11
344.427814
 21
40.715572
 31
0.0
  0
LINE
  8
0
  6
CONTINUOUS
 62
   249
 10
343.659179
 20
41.337634
 30
0.0
 11
344.85352
 21
41.337634
 31
0.0
  0
LINE
  8
0
  6
CONTINUOUS
 62
   249
 10
342.464838
 20
41.337634
 30
0.0
 11
343.659179
 21
41.337634
 31
0.0
  0
LINE
  8
0
  6
CONTINUOUS
 62
   249
 10
343.675065
 20
42.691904
 30
0.0
 11
343.675065
 21
41.337634
 31
0.0
  0
LINE
  8
0
  6
CONTINUOUS
 62
   249
 10
233.977279
 20
133.664646
 30
0.0
 11
231.631514
 21
135.0
 31
0.0
  0
LINE
  8
0
  6
CONTINUOUS
 62
   249
 10
231.631514
 20
135.0
 30
0.0
 11
233.977279
 21
136.189919
 31
0.0
  0
LINE
  8
0
  6
CONTINUOUS
 62
   249
 10
236.854231
 20
136.335354
 30
0.0
 11
239.199996
 21
135.0
 31
0.0
  0
LINE
  8
0
  6
CONTINUOUS
 62
   249
 10
239.199996
 20
135.0
 30
0.0
 11
236.854231
 21
133.810081
 31
0.0
  0
3DFACE
  8
0
  6
CONTINUOUS
 62
   249
 10
251.634024
 20
134.44
 30
0.0
 11
251.649704
 21
134.44
 31
0.0
 12
251.649704
 22
135.56
 32
0.0
 13
251.634024
 23
135.56
 33
0.0
  0
3DFACE
  8
0
  6
CONTINUOUS
 62
   249
 10
251.649704
 20
134.44
 30
0.0
 11
251.665384
 21
134.44
 31
0.0
 12
251.665384
 22
135.56
 32
0.0
 13
251.649704
 23
135.56
 33
0.0
  0
3DFACE
  8
0
  6
CONTINUOUS
 62
   249
 10
251.665384
 20
134.44
 30
0.0
 11
251.681064
 21
134.44
 31
0.0
 12
251.681064
 22
135.56
 32
0.0
 13
251.665384
 23
135.56
 33
0.0
  0
3DFACE
  8
0
  6
CONTINUOUS
 62
   249
 10
251.681064
 20
134.44
 30
0.0
 11
251.696744
 21
134.44
 31
0.0
 12
251.696744
 22
135.56
 32
0.0
 13
251.681064
 23
135.56
 33
0.0
  0
3DFACE
  8
0
  6
CONTINUOUS
 62
   249
 10
251.696744
 20
134.44
 30
0.0
 11
251.712424
 21
134.44
 31
0.0
 12
251.712424
 22
135.56
 32
0.0
 13
251.696744
 23
135.56
 33
0.0
  0
3DFACE
  8
0
  6
CONTINUOUS
 62
   249
 10
251.712424
 20
134.44
 30
0.0
 11
251.728104
 21
134.44
 31
0.0
 12
251.728104
 22
135.56
 32
0.0
 13
251.712424
 23
135.56
 33
0.0
  0
3DFACE
  8
0
  6
CONTINUOUS
 62
   249
 10
251.728104
 20
134.44
 30
0.0
 11
251.743784
 21
134.44
 31
0.0
 12
251.743784
 22
135.56
 32
0.0
 13
251.728104
 23
135.56
 33
0.0
  0
3DFACE
  8
0
  6
CONTINUOUS
 62
   249
 10
251.743784
 20
134.44
 30
0.0
 11
251.759464
 21
134.44
 31
0.0
 12
251.759464
 22
135.56
 32
0.0
 13
251.743784
 23
135.56
 33
0.0
  0
3DFACE
  8
0
  6
CONTINUOUS
 62
   249
 10
251.759464
 20
134.44
 30
0.0
 11
251.775144
 21
134.44
 31
0.0
 12
251.775144
 22
135.56
 32
0.0
 13
251.759464
 23
135.56
 33
0.0
  0
3DFACE
  8
0
  6
CONTINUOUS
 62
   249
 10
251.775144
 20
134.44
 30
0.0
 11
251.790824
 21
134.44
 31
0.0
 12
251.790824
 22
135.56
 32
0.0
 13
251.775144
 23
135.56
 33
0.0
  0
3DFACE
  8
0
  6
CONTINUOUS
 62
   249
 10
251.790824
 20
134.44
 30
0.0
 11
251.806504
 21
134.44
 31
0.0
 12
251.806504
 22
135.56
 32
0.0
 13
251.790824
 23
135.56
 33
0.0
  0
3DFACE
  8
0
  6
CONTINUOUS
 62
   249
 10
251.806504
 20
134.44
 30
0.0
 11
251.822184
 21
134.44
 31
0.0
 12
251.822184
 22
135.56
 32
0.0
 13
251.806504
 23
135.56
 33
0.0
  0
3DFACE
  8
0
  6
CONTINUOUS
 62
   249
 10
251.822184
 20
134.44
 30
0.0
 11
251.837864
 21
134.44
 31
0.0
 12
251.837864
 22
135.56
 32
0.0
 13
251.822184
 23
135.56
 33
0.0
  0
3DFACE
  8
0
  6
CONTINUOUS
 62
   249
 10
251.837864
 20
134.44
 30
0.0
 11
251.853544
 21
134.44
 31
0.0
 12
251.853544
 22
135.56
 32
0.0
 13
251.837864
 23
135.56
 33
0.0
  0
3DFACE
  8
0
  6
CONTINUOUS
 62
   249
 10
251.853544
 20
134.44
 30
0.0
 11
251.869224
 21
134.44
 31
0.0
 12
251.869224
 22
135.56
 32
0.0
 13
251.853544
 23
135.56
 33
0.0
  0
3DFACE
  8
0
  6
CONTINUOUS
 62
   249
 10
251.869224
 20
134.44
 30
0.0
 11
251.884904
 21
134.44
 31
0.0
 12
251.884904
 22
135.56
 32
0.0
 13
251.869224
 23
135.56
 33
0.0
  0
3DFACE
  8
0
  6
CONTINUOUS
 62
   249
 10
251.884904
 20
134.44
 30
0.0
 11
251.900584
 21
134.44
 31
0.0
 12
251.900584
 22
135.56
 32
0.0
 13
251.884904
 23
135.56
 33
0.0
  0
3DFACE
  8
0
  6
CONTINUOUS
 62
   249
 10
251.900584
 20
134.44
 30
0.0
 11
251.916264
 21
134.44
 31
0.0
 12
251.916264
 22
135.56
 32
0.0
 13
251.900584
 23
135.56
 33
0.0
  0
3DFACE
  8
0
  6
CONTINUOUS
 62
   249
 10
251.916264
 20
134.44
 30
0.0
 11
251.931944
 21
134.44
 31
0.0
 12
251.931944
 22
135.56
 32
0.0
 13
251.916264
 23
135.56
 33
0.0
  0
3DFACE
  8
0
  6
CONTINUOUS
 62
   249
 10
251.931944
 20
134.44
 30
0.0
 11
251.947624
 21
134.44
 31
0.0
 12
251.947624
 22
135.56
 32
0.0
 13
251.931944
 23
135.56
 33
0.0
  0
3DFACE
  8
0
  6
CONTINUOUS
 62
   249
 10
251.947624
 20
134.44
 30
0.0
 11
251.963304
 21
134.44
 31
0.0
 12
251.963304
 22
135.56
 32
0.0
 13
251.947624
 23
135.56
 33
0.0
  0
3DFACE
  8
0
  6
CONTINUOUS
 62
   249
 10
251.963304
 20
134.44
 30
0.0
 11
251.978984
 21
134.44
 31
0.0
 12
251.978984
 22
135.56
 32
0.0
 13
251.963304
 23
135.56
 33
0.0
  0
3DFACE
  8
0
  6
CONTINUOUS
 62
   249
 10
251.978984
 20
134.44
 30
0.0
 11
251.994664
 21
134.44
 31
0.0
 12
251.994664
 22
135.56
 32
0.0
 13
251.978984
 23
135.56
 33
0.0
  0
3DFACE
  8
0
  6
CONTINUOUS
 62
   249
 10
251.994664
 20
134.44
 30
0.0
 11
252.010344
 21
134.44
 31
0.0
 12
252.010344
 22
135.56
 32
0.0
 13
251.994664
 23
135.56
 33
0.0
  0
3DFACE
  8
0
  6
CONTINUOUS
 62
   249
 10
252.010344
 20
134.44
 30
0.0
 11
252.026024
 21
134.44
 31
0.0
 12
252.026024
 22
135.56
 32
0.0
 13
252.010344
 23
135.56
 33
0.0
  0
3DFACE
  8
0
  6
CONTINUOUS
 62
   249
 10
252.026024
 20
134.44
 30
0.0
 11
252.041704
 21
134.44
 31
0.0
 12
252.041704
 22
135.56
 32
0.0
 13
252.026024
 23
135.56
 33
0.0
  0
3DFACE
  8
0
  6
CONTINUOUS
 62
   249
 10
252.041704
 20
134.44
 30
0.0
 11
252.057384
 21
134.44
 31
0.0
 12
252.057384
 22
135.56
 32
0.0
 13
252.041704
 23
135.56
 33
0.0
  0
3DFACE
  8
0
  6
CONTINUOUS
 62
   249
 10
252.057384
 20
134.44
 30
0.0
 11
252.073064
 21
134.44
 31
0.0
 12
252.073064
 22
135.56
 32
0.0
 13
252.057384
 23
135.56
 33
0.0
  0
3DFACE
  8
0
  6
CONTINUOUS
 62
   249
 10
252.073064
 20
134.44
 30
0.0
 11
252.088744
 21
134.44
 31
0.0
 12
252.088744
 22
135.56
 32
0.0
 13
252.073064
 23
135.56
 33
0.0
  0
3DFACE
  8
0
  6
CONTINUOUS
 62
   249
 10
252.088744
 20
134.44
 30
0.0
 11
252.104424
 21
134.44
 31
0.0
 12
252.104424
 22
135.56
 32
0.0
 13
252.088744
 23
135.56
 33
0.0
  0
3DFACE
  8
0
  6
CONTINUOUS
 62
   249
 10
252.104424
 20
134.44
 30
0.0
 11
252.120104
 21
134.44
 31
0.0
 12
252.120104
 22
135.56
 32
0.0
 13
252.104424
 23
135.56
 33
0.0
  0
3DFACE
  8
0
  6
CONTINUOUS
 62
   249
 10
252.120104
 20
134.44
 30
0.0
 11
252.135784
 21
134.44
 31
0.0
 12
252.135784
 22
135.56
 32
0.0
 13
252.120104
 23
135.56
 33
0.0
  0
3DFACE
  8
0
  6
CONTINUOUS
 62
   249
 10
252.135784
 20
134.44
 30
0.0
 11
252.151464
 21
134.44
 31
0.0
 12
252.151464
 22
135.56
 32
0.0
 13
252.135784
 23
135.56
 33
0.0
  0
3DFACE
  8
0
  6
CONTINUOUS
 62
   249
 10
252.151464
 20
134.44
 30
0.0
 11
252.167144
 21
134.44
 31
0.0
 12
252.167144
 22
135.56
 32
0.0
 13
252.151464
 23
135.56
 33
0.0
  0
3DFACE
  8
0
  6
CONTINUOUS
 62
   249
 10
252.167144
 20
134.44
 30
0.0
 11
252.182824
 21
134.44
 31
0.0
 12
252.182824
 22
135.56
 32
0.0
 13
252.167144
 23
135.56
 33
0.0
  0
3DFACE
  8
0
  6
CONTINUOUS
 62
   249
 10
252.182824
 20
134.44
 30
0.0
 11
252.198504
 21
134.44
 31
0.0
 12
252.198504
 22
135.56
 32
0.0
 13
252.182824
 23
135.56
 33
0.0
  0
3DFACE
  8
0
  6
CONTINUOUS
 62
   249
 10
252.198504
 20
134.44
 30
0.0
 11
252.214184
 21
134.44
 31
0.0
 12
252.214184
 22
135.56
 32
0.0
 13
252.198504
 23
135.56
 33
0.0
  0
3DFACE
  8
0
  6
CONTINUOUS
 62
   249
 10
252.214184
 20
134.44
 30
0.0
 11
252.229864
 21
134.44
 31
0.0
 12
252.229864
 22
135.56
 32
0.0
 13
252.214184
 23
135.56
 33
0.0
  0
3DFACE
  8
0
  6
CONTINUOUS
 62
   249
 10
252.229864
 20
134.44
 30
0.0
 11
252.245544
 21
134.44
 31
0.0
 12
252.245544
 22
135.56
 32
0.0
 13
252.229864
 23
135.56
 33
0.0
  0
3DFACE
  8
0
  6
CONTINUOUS
 62
   249
 10
252.245544
 20
134.44
 30
0.0
 11
252.261224
 21
134.44
 31
0.0
 12
252.261224
 22
135.56
 32
0.0
 13
252.245544
 23
135.56
 33
0.0
  0
3DFACE
  8
0
  6
CONTINUOUS
 62
   249
 10
252.261224
 20
134.44
 30
0.0
 11
252.276904
 21
134.44
 31
0.0
 12
252.276904
 22
135.56
 32
0.0
 13
252.261224
 23
135.56
 33
0.0
  0
3DFACE
  8
0
  6
CONTINUOUS
 62
   249
 10
252.276904
 20
134.44
 30
0.0
 11
252.292584
 21
134.44
 31
0.0
 12
252.292584
 22
135.56
 32
0.0
 13
252.276904
 23
135.56
 33
0.0
  0
3DFACE
  8
0
  6
CONTINUOUS
 62
   249
 10
252.292584
 20
134.44
 30
0.0
 11
252.308264
 21
134.44
 31
0.0
 12
252.308264
 22
135.56
 32
0.0
 13
252.292584
 23
135.56
 33
0.0
  0
3DFACE
  8
0
  6
CONTINUOUS
 62
   249
 10
252.308264
 20
134.44
 30
0.0
 11
252.323944
 21
134.44
 31
0.0
 12
252.323944
 22
135.56
 32
0.0
 13
252.308264
 23
135.56
 33
0.0
  0
3DFACE
  8
0
  6
CONTINUOUS
 62
   249
 10
252.323944
 20
134.44
 30
0.0
 11
252.339624
 21
134.44
 31
0.0
 12
252.339624
 22
135.56
 32
0.0
 13
252.323944
 23
135.56
 33
0.0
  0
3DFACE
  8
0
  6
CONTINUOUS
 62
   249
 10
252.339624
 20
134.44
 30
0.0
 11
252.355304
 21
134.44
 31
0.0
 12
252.355304
 22
135.56
 32
0.0
 13
252.339624
 23
135.56
 33
0.0
  0
3DFACE
  8
0
  6
CONTINUOUS
 62
   249
 10
252.355304
 20
134.44
 30
0.0
 11
252.370984
 21
134.44
 31
0.0
 12
252.370984
 22
135.56
 32
0.0
 13
252.355304
 23
135.56
 33
0.0
  0
3DFACE
  8
0
  6
CONTINUOUS
 62
   249
 10
252.370984
 20
134.44
 30
0.0
 11
252.386664
 21
134.44
 31
0.0
 12
252.386664
 22
135.56
 32
0.0
 13
252.370984
 23
135.56
 33
0.0
  0
3DFACE
  8
0
  6
CONTINUOUS
 62
   249
 10
252.386664
 20
134.44
 30
0.0
 11
252.402344
 21
134.44
 31
0.0
 12
252.402344
 22
135.56
 32
0.0
 13
252.386664
 23
135.56
 33
0.0
  0
3DFACE
  8
0
  6
CONTINUOUS
 62
   249
 10
252.402344
 20
134.44
 30
0.0
 11
252.418024
 21
134.44
 31
0.0
 12
252.418024
 22
135.56
 32
0.0
 13
252.402344
 23
135.56
 33
0.0
  0
3DFACE
  8
0
  6
CONTINUOUS
 62
   249
 10
252.418024
 20
134.44
 30
0.0
 11
252.433704
 21
134.44
 31
0.0
 12
252.433704
 22
135.56
 32
0.0
 13
252.418024
 23
135.56
 33
0.0
  0
3DFACE
  8
0
  6
CONTINUOUS
 62
   249
 10
252.433704
 20
134.44
 30
0.0
 11
252.449384
 21
134.44
 31
0.0
 12
252.449384
 22
135.56
 32
0.0
 13
252.433704
 23
135.56
 33
0.0
  0
3DFACE
  8
0
  6
CONTINUOUS
 62
   249
 10
252.449384
 20
134.44
 30
0.0
 11
252.465064
 21
134.44
 31
0.0
 12
252.465064
 22
135.56
 32
0.0
 13
252.449384
 23
135.56
 33
0.0
  0
3DFACE
  8
0
  6
CONTINUOUS
 62
   249
 10
252.465064
 20
134.44
 30
0.0
 11
252.480744
 21
134.44
 31
0.0
 12
252.480744
 22
135.56
 32
0.0
 13
252.465064
 23
135.56
 33
0.0
  0
3DFACE
  8
0
  6
CONTINUOUS
 62
   249
 10
252.480744
 20
134.44
 30
0.0
 11
252.496424
 21
134.44
 31
0.0
 12
252.496424
 22
135.56
 32
0.0
 13
252.480744
 23
135.56
 33
0.0
  0
3DFACE
  8
0
  6
CONTINUOUS
 62
   249
 10
252.496424
 20
134.44
 30
0.0
 11
252.512104
 21
134.44
 31
0.0
 12
252.512104
 22
135.56
 32
0.0
 13
252.496424
 23
135.56
 33
0.0
  0
3DFACE
  8
0
  6
CONTINUOUS
 62
   249
 10
252.512104
 20
134.44
 30
0.0
 11
252.527784
 21
134.44
 31
0.0
 12
252.527784
 22
135.56
 32
0.0
 13
252.512104
 23
135.56
 33
0.0
  0
3DFACE
  8
0
  6
CONTINUOUS
 62
   249
 10
252.527784
 20
134.44
 30
0.0
 11
252.543464
 21
134.44
 31
0.0
 12
252.543464
 22
135.56
 32
0.0
 13
252.527784
 23
135.56
 33
0.0
  0
3DFACE
  8
0
  6
CONTINUOUS
 62
   249
 10
252.543464
 20
134.44
 30
0.0
 11
252.559144
 21
134.44
 31
0.0
 12
252.559144
 22
135.56
 32
0.0
 13
252.543464
 23
135.56
 33
0.0
  0
3DFACE
  8
0
  6
CONTINUOUS
 62
   249
 10
252.559144
 20
134.44
 30
0.0
 11
252.574824
 21
134.44
 31
0.0
 12
252.574824
 22
135.56
 32
0.0
 13
252.559144
 23
135.56
 33
0.0
  0
3DFACE
  8
0
  6
CONTINUOUS
 62
   249
 10
252.574824
 20
134.44
 30
0.0
 11
252.590504
 21
134.44
 31
0.0
 12
252.590504
 22
135.56
 32
0.0
 13
252.574824
 23
135.56
 33
0.0
  0
3DFACE
  8
0
  6
CONTINUOUS
 62
   249
 10
252.590504
 20
134.44
 30
0.0
 11
252.606184
 21
134.44
 31
0.0
 12
252.606184
 22
135.56
 32
0.0
 13
252.590504
 23
135.56
 33
0.0
  0
3DFACE
  8
0
  6
CONTINUOUS
 62
   249
 10
252.606184
 20
134.44
 30
0.0
 11
252.621864
 21
134.44
 31
0.0
 12
252.621864
 22
135.56
 32
0.0
 13
252.606184
 23
135.56
 33
0.0
  0
3DFACE
  8
0
  6
CONTINUOUS
 62
   249
 10
252.621864
 20
134.44
 30
0.0
 11
252.637544
 21
134.44
 31
0.0
 12
252.637544
 22
135.56
 32
0.0
 13
252.621864
 23
135.56
 33
0.0
  0
3DFACE
  8
0
  6
CONTINUOUS
 62
   249
 10
252.637544
 20
134.44
 30
0.0
 11
252.653224
 21
134.44
 31
0.0
 12
252.653224
 22
135.56
 32
0.0
 13
252.637544
 23
135.56
 33
0.0
  0
3DFACE
  8
0
  6
CONTINUOUS
 62
   249
 10
252.653224
 20
134.44
 30
0.0
 11
252.668904
 21
134.44
 31
0.0
 12
252.668904
 22
135.56
 32
0.0
 13
252.653224
 23
135.56
 33
0.0
  0
3DFACE
  8
0
  6
CONTINUOUS
 62
   249
 10
252.668904
 20
134.44
 30
0.0
 11
252.684584
 21
134.44
 31
0.0
 12
252.684584
 22
135.56
 32
0.0
 13
252.668904
 23
135.56
 33
0.0
  0
3DFACE
  8
0
  6
CONTINUOUS
 62
   249
 10
252.684584
 20
134.44
 30
0.0
 11
252.700264
 21
134.44
 31
0.0
 12
252.700264
 22
135.56
 32
0.0
 13
252.684584
 23
135.56
 33
0.0
  0
3DFACE
  8
0
  6
CONTINUOUS
 62
   249
 10
252.700264
 20
134.44
 30
0.0
 11
252.715944
 21
134.44
 31
0.0
 12
252.715944
 22
135.56
 32
0.0
 13
252.700264
 23
135.56
 33
0.0
  0
3DFACE
  8
0
  6
CONTINUOUS
 62
   249
 10
252.715944
 20
134.44
 30
0.0
 11
252.731624
 21
134.44
 31
0.0
 12
252.731624
 22
135.56
 32
0.0
 13
252.715944
 23
135.56
 33
0.0
  0
3DFACE
  8
0
  6
CONTINUOUS
 62
   249
 10
252.731624
 20
134.44
 30
0.0
 11
252.747304
 21
134.44
 31
0.0
 12
252.747304
 22
135.56
 32
0.0
 13
252.731624
 23
135.56
 33
0.0
  0
3DFACE
  8
0
  6
CONTINUOUS
 62
   249
 10
252.747304
 20
134.44
 30
0.0
 11
252.762984
 21
134.44
 31
0.0
 12
252.762984
 22
135.56
 32
0.0
 13
252.747304
 23
135.56
 33
0.0
  0
3DFACE
  8
0
  6
CONTINUOUS
 62
   249
 10
252.762984
 20
134.44
 30
0.0
 11
252.778664
 21
134.44
 31
0.0
 12
252.778664
 22
135.56
 32
0.0
 13
252.762984
 23
135.56
 33
0.0
  0
3DFACE
  8
0
  6
CONTINUOUS
 62
   249
 10
252.778664
 20
134.44
 30
0.0
 11
252.794344
 21
134.44
 31
0.0
 12
252.794344
 22
135.56
 32
0.0
 13
252.778664
 23
135.56
 33
0.0
  0
3DFACE
  8
0
  6
CONTINUOUS
 62
   249
 10
252.794344
 20
134.44
 30
0.0
 11
252.810024
 21
134.44
 31
0.0
 12
252.810024
 22
135.56
 32
0.0
 13
252.794344
 23
135.56
 33
0.0
  0
3DFACE
  8
0
  6
CONTINUOUS
 62
   249
 10
252.810024
 20
134.44
 30
0.0
 11
252.825704
 21
134.44
 31
0.0
 12
252.825704
 22
135.56
 32
0.0
 13
252.810024
 23
135.56
 33
0.0
  0
3DFACE
  8
0
  6
CONTINUOUS
 62
   249
 10
252.825704
 20
134.44
 30
0.0
 11
252.841384
 21
134.44
 31
0.0
 12
252.841384
 22
135.56
 32
0.0
 13
252.825704
 23
135.56
 33
0.0
  0
3DFACE
  8
0
  6
CONTINUOUS
 62
   249
 10
252.841384
 20
134.44
 30
0.0
 11
252.857064
 21
134.44
 31
0.0
 12
252.857064
 22
135.56
 32
0.0
 13
252.841384
 23
135.56
 33
0.0
  0
3DFACE
  8
0
  6
CONTINUOUS
 62
   249
 10
252.857064
 20
134.44
 30
0.0
 11
252.872744
 21
134.44
 31
0.0
 12
252.872744
 22
135.56
 32
0.0
 13
252.857064
 23
135.56
 33
0.0
  0
3DFACE
  8
0
  6
CONTINUOUS
 62
   249
 10
252.872744
 20
134.44
 30
0.0
 11
252.888424
 21
134.44
 31
0.0
 12
252.888424
 22
135.56
 32
0.0
 13
252.872744
 23
135.56
 33
0.0
  0
3DFACE
  8
0
  6
CONTINUOUS
 62
   249
 10
252.888424
 20
134.44
 30
0.0
 11
252.904104
 21
134.44
 31
0.0
 12
252.904104
 22
135.56
 32
0.0
 13
252.888424
 23
135.56
 33
0.0
  0
3DFACE
  8
0
  6
CONTINUOUS
 62
   249
 10
252.904104
 20
134.44
 30
0.0
 11
252.919784
 21
134.44
 31
0.0
 12
252.919784
 22
135.56
 32
0.0
 13
252.904104
 23
135.56
 33
0.0
  0
3DFACE
  8
0
  6
CONTINUOUS
 62
   249
 10
252.919784
 20
134.44
 30
0.0
 11
252.935464
 21
134.44
 31
0.0
 12
252.935464
 22
135.56
 32
0.0
 13
252.919784
 23
135.56
 33
0.0
  0
3DFACE
  8
0
  6
CONTINUOUS
 62
   249
 10
252.935464
 20
134.44
 30
0.0
 11
252.951144
 21
134.44
 31
0.0
 12
252.951144
 22
135.56
 32
0.0
 13
252.935464
 23
135.56
 33
0.0
  0
3DFACE
  8
0
  6
CONTINUOUS
 62
   249
 10
252.951144
 20
134.44
 30
0.0
 11
252.966824
 21
134.44
 31
0.0
 12
252.966824
 22
135.56
 32
0.0
 13
252.951144
 23
135.56
 33
0.0
  0
3DFACE
  8
0
  6
CONTINUOUS
 62
   249
 10
252.966824
 20
134.44
 30
0.0
 11
252.982504
 21
134.44
 31
0.0
 12
252.982504
 22
135.56
 32
0.0
 13
252.966824
 23
135.56
 33
0.0
  0
3DFACE
  8
0
  6
CONTINUOUS
 62
   249
 10
252.982504
 20
134.44
 30
0.0
 11
252.998184
 21
134.44
 31
0.0
 12
252.998184
 22
135.56
 32
0.0
 13
252.982504
 23
135.56
 33
0.0
  0
3DFACE
  8
0
  6
CONTINUOUS
 62
   249
 10
252.998184
 20
134.44
 30
0.0
 11
253.013864
 21
134.44
 31
0.0
 12
253.013864
 22
135.56
 32
0.0
 13
252.998184
 23
135.56
 33
0.0
  0
3DFACE
  8
0
  6
CONTINUOUS
 62
   249
 10
253.013864
 20
134.44
 30
0.0
 11
253.029544
 21
134.44
 31
0.0
 12
253.029544
 22
135.56
 32
0.0
 13
253.013864
 23
135.56
 33
0.0
  0
3DFACE
  8
0
  6
CONTINUOUS
 62
   249
 10
253.029544
 20
134.44
 30
0.0
 11
253.045224
 21
134.44
 31
0.0
 12
253.045224
 22
135.56
 32
0.0
 13
253.029544
 23
135.56
 33
0.0
  0
3DFACE
  8
0
  6
CONTINUOUS
 62
   249
 10
253.045224
 20
134.44
 30
0.0
 11
253.060904
 21
134.44
 31
0.0
 12
253.060904
 22
135.56
 32
0.0
 13
253.045224
 23
135.56
 33
0.0
  0
3DFACE
  8
0
  6
CONTINUOUS
 62
   249
 10
253.060904
 20
134.44
 30
0.0
 11
253.076584
 21
134.44
 31
0.0
 12
253.076584
 22
135.56
 32
0.0
 13
253.060904
 23
135.56
 33
0.0
  0
3DFACE
  8
0
  6
CONTINUOUS
 62
   249
 10
253.076584
 20
134.44
 30
0.0
 11
253.092264
 21
134.44
 31
0.0
 12
253.092264
 22
135.56
 32
0.0
 13
253.076584
 23
135.56
 33
0.0
  0
3DFACE
  8
0
  6
CONTINUOUS
 62
   249
 10
253.092264
 20
134.44
 30
0.0
 11
253.107944
 21
134.44
 31
0.0
 12
253.107944
 22
135.56
 32
0.0
 13
253.092264
 23
135.56
 33
0.0
  0
3DFACE
  8
0
  6
CONTINUOUS
 62
   249
 10
253.107944
 20
134.44
 30
0.0
 11
253.123624
 21
134.44
 31
0.0
 12
253.123624
 22
135.56
 32
0.0
 13
253.107944
 23
135.56
 33
0.0
  0
3DFACE
  8
0
  6
CONTINUOUS
 62
   249
 10
253.123624
 20
134.44
 30
0.0
 11
253.139304
 21
134.44
 31
0.0
 12
253.139304
 22
135.56
 32
0.0
 13
253.123624
 23
135.56
 33
0.0
  0
3DFACE
  8
0
  6
CONTINUOUS
 62
   249
 10
253.139304
 20
134.44
 30
0.0
 11
253.154984
 21
134.44
 31
0.0
 12
253.154984
 22
135.56
 32
0.0
 13
253.139304
 23
135.56
 33
0.0
  0
3DFACE
  8
0
  6
CONTINUOUS
 62
   249
 10
253.154984
 20
134.44
 30
0.0
 11
253.170664
 21
134.44
 31
0.0
 12
253.170664
 22
135.56
 32
0.0
 13
253.154984
 23
135.56
 33
0.0
  0
3DFACE
  8
0
  6
CONTINUOUS
 62
   249
 10
253.170664
 20
134.44
 30
0.0
 11
253.186344
 21
134.44
 31
0.0
 12
253.186344
 22
135.56
 32
0.0
 13
253.170664
 23
135.56
 33
0.0
  0
3DFACE
  8
0
  6
CONTINUOUS
 62
   249
 10
253.186344
 20
134.44
 30
0.0
 11
253.202024
 21
134.44
 31
0.0
 12
253.202024
 22
135.56
 32
0.0
 13
253.186344
 23
135.56
 33
0.0
  0
3DFACE
  8
0
  6
CONTINUOUS
 62
   249
 10
253.202024
 20
134.44
 30
0.0
 11
253.217704
 21
134.44
 31
0.0
 12
253.217704
 22
135.56
 32
0.0
 13
253.202024
 23
135.56
 33
0.0
  0
3DFACE
  8
0
  6
CONTINUOUS
 62
   249
 10
253.217704
 20
134.44
 30
0.0
 11
253.233384
 21
134.44
 31
0.0
 12
253.233384
 22
135.56
 32
0.0
 13
253.217704
 23
135.56
 33
0.0
  0
3DFACE
  8
0
  6
CONTINUOUS
 62
   249
 10
253.233384
 20
134.44
 30
0.0
 11
253.249064
 21
134.44
 31
0.0
 12
253.249064
 22
135.56
 32
0.0
 13
253.233384
 23
135.56
 33
0.0
  0
3DFACE
  8
0
  6
CONTINUOUS
 62
   249
 10
253.249064
 20
134.44
 30
0.0
 11
253.264744
 21
134.44
 31
0.0
 12
253.264744
 22
135.56
 32
0.0
 13
253.249064
 23
135.56
 33
0.0
  0
3DFACE
  8
0
  6
CONTINUOUS
 62
   249
 10
253.264744
 20
134.44
 30
0.0
 11
253.280424
 21
134.44
 31
0.0
 12
253.280424
 22
135.56
 32
0.0
 13
253.264744
 23
135.56
 33
0.0
  0
3DFACE
  8
0
  6
CONTINUOUS
 62
   249
 10
253.280424
 20
134.44
 30
0.0
 11
253.296104
 21
134.44
 31
0.0
 12
253.296104
 22
135.56
 32
0.0
 13
253.280424
 23
135.56
 33
0.0
  0
3DFACE
  8
0
  6
CONTINUOUS
 62
   249
 10
253.296104
 20
134.44
 30
0.0
 11
253.311784
 21
134.44
 31
0.0
 12
253.311784
 22
135.56
 32
0.0
 13
253.296104
 23
135.56
 33
0.0
  0
3DFACE
  8
0
  6
CONTINUOUS
 62
   249
 10
253.311784
 20
134.44
 30
0.0
 11
253.327464
 21
134.44
 31
0.0
 12
253.327464
 22
135.56
 32
0.0
 13
253.311784
 23
135.56
 33
0.0
  0
3DFACE
  8
0
  6
CONTINUOUS
 62
   249
 10
253.327464
 20
134.44
 30
0.0
 11
253.343144
 21
134.44
 31
0.0
 12
253.343144
 22
135.56
 32
0.0
 13
253.327464
 23
135.56
 33
0.0
  0
3DFACE
  8
0
  6
CONTINUOUS
 62
   249
 10
253.343144
 20
134.44
 30
0.0
 11
253.358824
 21
134.44
 31
0.0
 12
253.358824
 22
135.56
 32
0.0
 13
253.343144
 23
135.56
 33
0.0
  0
3DFACE
  8
0
  6
CONTINUOUS
 62
   249
 10
253.358824
 20
134.44
 30
0.0
 11
253.374504
 21
134.44
 31
0.0
 12
253.374504
 22
135.56
 32
0.0
 13
253.358824
 23
135.56
 33
0.0
  0
3DFACE
  8
0
  6
CONTINUOUS
 62
   249
 10
253.374504
 20
134.44
 30
0.0
 11
253.390184
 21
134.44
 31
0.0
 12
253.390184
 22
135.56
 32
0.0
 13
253.374504
 23
135.56
 33
0.0
  0
3DFACE
  8
0
  6
CONTINUOUS
 62
   249
 10
253.390184
 20
134.44
 30
0.0
 11
253.405864
 21
134.44
 31
0.0
 12
253.405864
 22
135.56
 32
0.0
 13
253.390184
 23
135.56
 33
0.0
  0
3DFACE
  8
0
  6
CONTINUOUS
 62
   249
 10
253.405864
 20
134.44
 30
0.0
 11
253.421544
 21
134.44
 31
0.0
 12
253.421544
 22
135.56
 32
0.0
 13
253.405864
 23
135.56
 33
0.0
  0
3DFACE
  8
0
  6
CONTINUOUS
 62
   249
 10
253.421544
 20
134.44
 30
0.0
 11
253.437224
 21
134.44
 31
0.0
 12
253.437224
 22
135.56
 32
0.0
 13
253.421544
 23
135.56
 33
0.0
  0
3DFACE
  8
0
  6
CONTINUOUS
 62
   249
 10
253.437224
 20
134.44
 30
0.0
 11
253.452904
 21
134.44
 31
0.0
 12
253.452904
 22
135.56
 32
0.0
 13
253.437224
 23
135.56
 33
0.0
  0
3DFACE
  8
0
  6
CONTINUOUS
 62
   249
 10
253.452904
 20
134.44
 30
0.0
 11
253.468584
 21
134.44
 31
0.0
 12
253.468584
 22
135.56
 32
0.0
 13
253.452904
 23
135.56
 33
0.0
  0
3DFACE
  8
0
  6
CONTINUOUS
 62
   249
 10
253.468584
 20
134.44
 30
0.0
 11
253.484264
 21
134.44
 31
0.0
 12
253.484264
 22
135.56
 32
0.0
 13
253.468584
 23
135.56
 33
0.0
  0
3DFACE
  8
0
  6
CONTINUOUS
 62
   249
 10
253.484264
 20
134.44
 30
0.0
 11
253.499944
 21
134.44
 31
0.0
 12
253.499944
 22
135.56
 32
0.0
 13
253.484264
 23
135.56
 33
0.0
  0
3DFACE
  8
0
  6
CONTINUOUS
 62
   249
 10
253.499944
 20
134.44
 30
0.0
 11
253.515624
 21
134.44
 31
0.0
 12
253.515624
 22
135.56
 32
0.0
 13
253.499944
 23
135.56
 33
0.0
  0
3DFACE
  8
0
  6
CONTINUOUS
 62
   249
 10
253.515624
 20
134.44
 30
0.0
 11
253.531304
 21
134.44
 31
0.0
 12
253.531304
 22
135.56
 32
0.0
 13
253.515624
 23
135.56
 33
0.0
  0
3DFACE
  8
0
  6
CONTINUOUS
 62
   249
 10
253.531304
 20
134.44
 30
0.0
 11
253.546984
 21
134.44
 31
0.0
 12
253.546984
 22
135.56
 32
0.0
 13
253.531304
 23
135.56
 33
0.0
  0
3DFACE
  8
0
  6
CONTINUOUS
 62
   249
 10
253.546984
 20
134.44
 30
0.0
 11
253.562664
 21
134.44
 31
0.0
 12
253.562664
 22
135.56
 32
0.0
 13
253.546984
 23
135.56
 33
0.0
  0
3DFACE
  8
0
  6
CONTINUOUS
 62
   249
 10
253.562664
 20
134.44
 30
0.0
 11
253.578344
 21
134.44
 31
0.0
 12
253.578344
 22
135.56
 32
0.0
 13
253.562664
 23
135.56
 33
0.0
  0
3DFACE
  8
0
  6
CONTINUOUS
 62
   249
 10
253.578344
 20
134.44
 30
0.0
 11
253.594024
 21
134.44
 31
0.0
 12
253.594024
 22
135.56
 32
0.0
 13
253.578344
 23
135.56
 33
0.0
  0
3DFACE
  8
0
  6
CONTINUOUS
 62
   249
 10
253.594024
 20
134.44
 30
0.0
 11
253.609704
 21
134.44
 31
0.0
 12
253.609704
 22
135.56
 32
0.0
 13
253.594024
 23
135.56
 33
0.0
  0
3DFACE
  8
0
  6
CONTINUOUS
 62
   249
 10
253.609704
 20
134.44
 30
0.0
 11
253.625384
 21
134.44
 31
0.0
 12
253.625384
 22
135.56
 32
0.0
 13
253.609704
 23
135.56
 33
0.0
  0
3DFACE
  8
0
  6
CONTINUOUS
 62
   249
 10
253.625384
 20
134.44
 30
0.0
 11
253.641064
 21
134.44
 31
0.0
 12
253.641064
 22
135.56
 32
0.0
 13
253.625384
 23
135.56
 33
0.0
  0
3DFACE
  8
0
  6
CONTINUOUS
 62
   249
 10
253.641064
 20
134.44
 30
0.0
 11
253.656744
 21
134.44
 31
0.0
 12
253.656744
 22
135.56
 32
0.0
 13
253.641064
 23
135.56
 33
0.0
  0
3DFACE
  8
0
  6
CONTINUOUS
 62
   249
 10
253.656744
 20
134.44
 30
0.0
 11
253.672424
 21
134.44
 31
0.0
 12
253.672424
 22
135.56
 32
0.0
 13
253.656744
 23
135.56
 33
0.0
  0
3DFACE
  8
0
  6
CONTINUOUS
 62
   249
 10
253.672424
 20
134.44
 30
0.0
 11
253.688104
 21
134.44
 31
0.0
 12
253.688104
 22
135.56
 32
0.0
 13
253.672424
 23
135.56
 33
0.0
  0
3DFACE
  8
0
  6
CONTINUOUS
 62
   249
 10
253.688104
 20
134.44
 30
0.0
 11
253.703784
 21
134.44
 31
0.0
 12
253.703784
 22
135.56
 32
0.0
 13
253.688104
 23
135.56
 33
0.0
  0
3DFACE
  8
0
  6
CONTINUOUS
 62
   249
 10
253.703784
 20
134.44
 30
0.0
 11
253.719464
 21
134.44
 31
0.0
 12
253.719464
 22
135.56
 32
0.0
 13
253.703784
 23
135.56
 33
0.0
  0
3DFACE
  8
0
  6
CONTINUOUS
 62
   249
 10
253.719464
 20
134.44
 30
0.0
 11
253.735144
 21
134.44
 31
0.0
 12
253.735144
 22
135.56
 32
0.0
 13
253.719464
 23
135.56
 33
0.0
  0
3DFACE
  8
0
  6
CONTINUOUS
 62
   249
 10
253.735144
 20
134.44
 30
0.0
 11
253.750824
 21
134.44
 31
0.0
 12
253.750824
 22
135.56
 32
0.0
 13
253.735144
 23
135.56
 33
0.0
  0
3DFACE
  8
0
  6
CONTINUOUS
 62
   249
 10
253.750824
 20
134.44
 30
0.0
 11
253.766504
 21
134.44
 31
0.0
 12
253.766504
 22
135.56
 32
0.0
 13
253.750824
 23
135.56
 33
0.0
  0
3DFACE
  8
0
  6
CONTINUOUS
 62
   249
 10
253.766504
 20
134.44
 30
0.0
 11
253.782184
 21
134.44
 31
0.0
 12
253.782184
 22
135.56
 32
0.0
 13
253.766504
 23
135.56
 33
0.0
  0
3DFACE
  8
0
  6
CONTINUOUS
 62
   249
 10
253.782184
 20
134.44
 30
0.0
 11
253.797864
 21
134.44
 31
0.0
 12
253.797864
 22
135.56
 32
0.0
 13
253.782184
 23
135.56
 33
0.0
  0
3DFACE
  8
0
  6
CONTINUOUS
 62
   249
 10
253.797864
 20
134.44
 30
0.0
 11
253.813544
 21
134.44
 31
0.0
 12
253.813544
 22
135.56
 32
0.0
 13
253.797864
 23
135.56
 33
0.0
  0
3DFACE
  8
0
  6
CONTINUOUS
 62
   249
 10
253.813544
 20
134.44
 30
0.0
 11
253.829224
 21
134.44
 31
0.0
 12
253.829224
 22
135.56
 32
0.0
 13
253.813544
 23
135.56
 33
0.0
  0
3DFACE
  8
0
  6
CONTINUOUS
 62
   249
 10
253.829224
 20
134.44
 30
0.0
 11
253.844904
 21
134.44
 31
0.0
 12
253.844904
 22
135.56
 32
0.0
 13
253.829224
 23
135.56
 33
0.0
  0
3DFACE
  8
0
  6
CONTINUOUS
 62
   249
 10
253.844904
 20
134.44
 30
0.0
 11
253.860584
 21
134.44
 31
0.0
 12
253.860584
 22
135.56
 32
0.0
 13
253.844904
 23
135.56
 33
0.0
  0
3DFACE
  8
0
  6
CONTINUOUS
 62
   249
 10
253.860584
 20
134.44
 30
0.0
 11
253.876264
 21
134.44
 31
0.0
 12
253.876264
 22
135.56
 32
0.0
 13
253.860584
 23
135.56
 33
0.0
  0
3DFACE
  8
0
  6
CONTINUOUS
 62
   249
 10
253.876264
 20
134.44
 30
0.0
 11
253.891944
 21
134.44
 31
0.0
 12
253.891944
 22
135.56
 32
0.0
 13
253.876264
 23
135.56
 33
0.0
  0
3DFACE
  8
0
  6
CONTINUOUS
 62
   249
 10
253.891944
 20
134.44
 30
0.0
 11
253.907624
 21
134.44
 31
0.0
 12
253.907624
 22
135.56
 32
0.0
 13
253.891944
 23
135.56
 33
0.0
  0
3DFACE
  8
0
  6
CONTINUOUS
 62
   249
 10
253.907624
 20
134.44
 30
0.0
 11
253.923304
 21
134.44
 31
0.0
 12
253.923304
 22
135.56
 32
0.0
 13
253.907624
 23
135.56
 33
0.0
  0
3DFACE
  8
0
  6
CONTINUOUS
 62
   249
 10
253.923304
 20
134.44
 30
0.0
 11
253.938984
 21
134.44
 31
0.0
 12
253.938984
 22
135.56
 32
0.0
 13
253.923304
 23
135.56
 33
0.0
  0
3DFACE
  8
0
  6
CONTINUOUS
 62
   249
 10
253.938984
 20
134.44
 30
0.0
 11
253.954664
 21
134.44
 31
0.0
 12
253.954664
 22
135.56
 32
0.0
 13
253.938984
 23
135.56
 33
0.0
  0
3DFACE
  8
0
  6
CONTINUOUS
 62
   249
 10
253.954664
 20
134.44
 30
0.0
 11
253.970344
 21
134.44
 31
0.0
 12
253.970344
 22
135.56
 32
0.0
 13
253.954664
 23
135.56
 33
0.0
  0
3DFACE
  8
0
  6
CONTINUOUS
 62
   249
 10
253.970344
 20
134.44
 30
0.0
 11
253.986024
 21
134.44
 31
0.0
 12
253.986024
 22
135.56
 32
0.0
 13
253.970344
 23
135.56
 33
0.0
  0
3DFACE
  8
0
  6
CONTINUOUS
 62
   249
 10
253.986024
 20
134.44
 30
0.0
 11
254.001704
 21
134.44
 31
0.0
 12
254.001704
 22
135.56
 32
0.0
 13
253.986024
 23
135.56
 33
0.0
  0
3DFACE
  8
0
  6
CONTINUOUS
 62
   249
 10
254.001704
 20
134.44
 30
0.0
 11
254.017384
 21
134.44
 31
0.0
 12
254.017384
 22
135.56
 32
0.0
 13
254.001704
 23
135.56
 33
0.0
  0
3DFACE
  8
0
  6
CONTINUOUS
 62
   249
 10
254.017384
 20
134.44
 30
0.0
 11
254.033064
 21
134.44
 31
0.0
 12
254.033064
 22
135.56
 32
0.0
 13
254.017384
 23
135.56
 33
0.0
  0
3DFACE
  8
0
  6
CONTINUOUS
 62
   249
 10
254.033064
 20
134.44
 30
0.0
 11
254.048744
 21
134.44
 31
0.0
 12
254.048744
 22
135.56
 32
0.0
 13
254.033064
 23
135.56
 33
0.0
  0
3DFACE
  8
0
  6
CONTINUOUS
 62
   249
 10
254.048744
 20
134.44
 30
0.0
 11
254.064424
 21
134.44
 31
0.0
 12
254.064424
 22
135.56
 32
0.0
 13
254.048744
 23
135.56
 33
0.0
  0
3DFACE
  8
0
  6
CONTINUOUS
 62
   249
 10
254.064424
 20
134.44
 30
0.0
 11
254.080104
 21
134.44
 31
0.0
 12
254.080104
 22
135.56
 32
0.0
 13
254.064424
 23
135.56
 33
0.0
  0
3DFACE
  8
0
  6
CONTINUOUS
 62
   249
 10
254.080104
 20
134.44
 30
0.0
 11
254.095784
 21
134.44
 31
0.0
 12
254.095784
 22
135.56
 32
0.0
 13
254.080104
 23
135.56
 33
0.0
  0
3DFACE
  8
0
  6
CONTINUOUS
 62
   249
 10
254.095784
 20
134.44
 30
0.0
 11
254.111464
 21
134.44
 31
0.0
 12
254.111464
 22
135.56
 32
0.0
 13
254.095784
 23
135.56
 33
0.0
  0
3DFACE
  8
0
  6
CONTINUOUS
 62
   249
 10
254.111464
 20
134.44
 30
0.0
 11
254.127144
 21
134.44
 31
0.0
 12
254.127144
 22
135.56
 32
0.0
 13
254.111464
 23
135.56
 33
0.0
  0
3DFACE
  8
0
  6
CONTINUOUS
 62
   249
 10
254.127144
 20
134.44
 30
0.0
 11
254.142824
 21
134.44
 31
0.0
 12
254.142824
 22
135.56
 32
0.0
 13
254.127144
 23
135.56
 33
0.0
  0
3DFACE
  8
0
  6
CONTINUOUS
 62
   249
 10
254.142824
 20
134.44
 30
0.0
 11
254.158504
 21
134.44
 31
0.0
 12
254.158504
 22
135.56
 32
0.0
 13
254.142824
 23
135.56
 33
0.0
  0
3DFACE
  8
0
  6
CONTINUOUS
 62
   249
 10
254.158504
 20
134.44
 30
0.0
 11
254.174184
 21
134.44
 31
0.0
 12
254.174184
 22
135.56
 32
0.0
 13
254.158504
 23
135.56
 33
0.0
  0
3DFACE
  8
0
  6
CONTINUOUS
 62
   249
 10
254.174184
 20
134.44
 30
0.0
 11
254.189864
 21
134.44
 31
0.0
 12
254.189864
 22
135.56
 32
0.0
 13
254.174184
 23
135.56
 33
0.0
  0
3DFACE
  8
0
  6
CONTINUOUS
 62
   249
 10
254.189864
 20
134.44
 30
0.0
 11
254.205544
 21
134.44
 31
0.0
 12
254.205544
 22
135.56
 32
0.0
 13
254.189864
 23
135.56
 33
0.0
  0
3DFACE
  8
0
  6
CONTINUOUS
 62
   249
 10
254.205544
 20
134.44
 30
0.0
 11
254.221224
 21
134.44
 31
0.0
 12
254.221224
 22
135.56
 32
0.0
 13
254.205544
 23
135.56
 33
0.0
  0
3DFACE
  8
0
  6
CONTINUOUS
 62
   249
 10
254.221224
 20
134.44
 30
0.0
 11
254.236904
 21
134.44
 31
0.0
 12
254.236904
 22
135.56
 32
0.0
 13
254.221224
 23
135.56
 33
0.0
  0
3DFACE
  8
0
  6
CONTINUOUS
 62
   249
 10
254.236904
 20
134.44
 30
0.0
 11
254.252584
 21
134.44
 31
0.0
 12
254.252584
 22
135.56
 32
0.0
 13
254.236904
 23
135.56
 33
0.0
  0
3DFACE
  8
0
  6
CONTINUOUS
 62
   249
 10
254.252584
 20
134.44
 30
0.0
 11
254.268264
 21
134.44
 31
0.0
 12
254.268264
 22
135.56
 32
0.0
 13
254.252584
 23
135.56
 33
0.0
  0
3DFACE
  8
0
  6
CONTINUOUS
 62
   249
 10
254.268264
 20
134.44
 30
0.0
 11
254.283944
 21
134.44
 31
0.0
 12
254.283944
 22
135.56
 32
0.0
 13
254.268264
 23
135.56
 33
0.0
  0
3DFACE
  8
0
  6
CONTINUOUS
 62
   249
 10
254.283944
 20
134.44
 30
0.0
 11
254.299624
 21
134.44
 31
0.0
 12
254.299624
 22
135.56
 32
0.0
 13
254.283944
 23
135.56
 33
0.0
  0
3DFACE
  8
0
  6
CONTINUOUS
 62
   249
 10
254.299624
 20
134.44
 30
0.0
 11
254.315304
 21
134.44
 31
0.0
 12
254.315304
 22
135.56
 32
0.0
 13
254.299624
 23
135.56
 33
0.0
  0
3DFACE
  8
0
  6
CONTINUOUS
 62
   249
 10
254.315304
 20
134.44
 30
0.0
 11
254.330984
 21
134.44
 31
0.0
 12
254.330984
 22
135.56
 32
0.0
 13
254.315304
 23
135.56
 33
0.0
  0
3DFACE
  8
0
  6
CONTINUOUS
 62
   249
 10
254.330984
 20
134.44
 30
0.0
 11
254.346664
 21
134.44
 31
0.0
 12
254.346664
 22
135.56
 32
0.0
 13
254.330984
 23
135.56
 33
0.0
  0
3DFACE
  8
0
  6
CONTINUOUS
 62
   249
 10
254.346664
 20
134.44
 30
0.0
 11
254.362344
 21
134.44
 31
0.0
 12
254.362344
 22
135.56
 32
0.0
 13
254.346664
 23
135.56
 33
0.0
  0
3DFACE
  8
0
  6
CONTINUOUS
 62
   249
 10
254.362344
 20
134.44
 30
0.0
 11
254.378024
 21
134.44
 31
0.0
 12
254.378024
 22
135.56
 32
0.0
 13
254.362344
 23
135.56
 33
0.0
  0
3DFACE
  8
0
  6
CONTINUOUS
 62
   249
 10
254.378024
 20
134.44
 30
0.0
 11
254.393704
 21
134.44
 31
0.0
 12
254.393704
 22
135.56
 32
0.0
 13
254.378024
 23
135.56
 33
0.0
  0
3DFACE
  8
0
  6
CONTINUOUS
 62
   249
 10
254.393704
 20
134.44
 30
0.0
 11
254.409384
 21
134.44
 31
0.0
 12
254.409384
 22
135.56
 32
0.0
 13
254.393704
 23
135.56
 33
0.0
  0
3DFACE
  8
0
  6
CONTINUOUS
 62
   249
 10
254.409384
 20
134.44
 30
0.0
 11
254.425064
 21
134.44
 31
0.0
 12
254.425064
 22
135.56
 32
0.0
 13
254.409384
 23
135.56
 33
0.0
  0
3DFACE
  8
0
  6
CONTINUOUS
 62
   249
 10
254.425064
 20
134.44
 30
0.0
 11
254.440744
 21
134.44
 31
0.0
 12
254.440744
 22
135.56
 32
0.0
 13
254.425064
 23
135.56
 33
0.0
  0
3DFACE
  8
0
  6
CONTINUOUS
 62
   249
 10
254.440744
 20
134.44
 30
0.0
 11
254.456424
 21
134.44
 31
0.0
 12
254.456424
 22
135.56
 32
0.0
 13
254.440744
 23
135.56
 33
0.0
  0
3DFACE
  8
0
  6
CONTINUOUS
 62
   249
 10
254.456424
 20
134.44
 30
0.0
 11
254.472104
 21
134.44
 31
0.0
 12
254.472104
 22
135.56
 32
0.0
 13
254.456424
 23
135.56
 33
0.0
  0
3DFACE
  8
0
  6
CONTINUOUS
 62
   249
 10
254.472104
 20
134.44
 30
0.0
 11
254.487784
 21
134.44
 31
0.0
 12
254.487784
 22
135.56
 32
0.0
 13
254.472104
 23
135.56
 33
0.0
  0
3DFACE
  8
0
  6
CONTINUOUS
 62
   249
 10
254.487784
 20
134.44
 30
0.0
 11
254.503464
 21
134.44
 31
0.0
 12
254.503464
 22
135.56
 32
0.0
 13
254.487784
 23
135.56
 33
0.0
  0
3DFACE
  8
0
  6
CONTINUOUS
 62
   249
 10
254.503464
 20
134.44
 30
0.0
 11
254.519144
 21
134.44
 31
0.0
 12
254.519144
 22
135.56
 32
0.0
 13
254.503464
 23
135.56
 33
0.0
  0
3DFACE
  8
0
  6
CONTINUOUS
 62
   249
 10
254.519144
 20
134.44
 30
0.0
 11
254.534824
 21
134.44
 31
0.0
 12
254.534824
 22
135.56
 32
0.0
 13
254.519144
 23
135.56
 33
0.0
  0
3DFACE
  8
0
  6
CONTINUOUS
 62
   249
 10
254.534824
 20
134.44
 30
0.0
 11
254.550504
 21
134.44
 31
0.0
 12
254.550504
 22
135.56
 32
0.0
 13
254.534824
 23
135.56
 33
0.0
  0
3DFACE
  8
0
  6
CONTINUOUS
 62
   249
 10
254.550504
 20
134.44
 30
0.0
 11
254.566184
 21
134.44
 31
0.0
 12
254.566184
 22
135.56
 32
0.0
 13
254.550504
 23
135.56
 33
0.0
  0
3DFACE
  8
0
  6
CONTINUOUS
 62
   249
 10
254.566184
 20
134.44
 30
0.0
 11
254.581864
 21
134.44
 31
0.0
 12
254.581864
 22
135.56
 32
0.0
 13
254.566184
 23
135.56
 33
0.0
  0
3DFACE
  8
0
  6
CONTINUOUS
 62
   249
 10
254.581864
 20
134.44
 30
0.0
 11
254.597544
 21
134.44
 31
0.0
 12
254.597544
 22
135.56
 32
0.0
 13
254.581864
 23
135.56
 33
0.0
  0
3DFACE
  8
0
  6
CONTINUOUS
 62
   249
 10
254.597544
 20
134.44
 30
0.0
 11
254.613224
 21
134.44
 31
0.0
 12
254.613224
 22
135.56
 32
0.0
 13
254.597544
 23
135.56
 33
0.0
  0
3DFACE
  8
0
  6
CONTINUOUS
 62
   249
 10
254.613224
 20
134.44
 30
0.0
 11
254.628904
 21
134.44
 31
0.0
 12
254.628904
 22
135.56
 32
0.0
 13
254.613224
 23
135.56
 33
0.0
  0
3DFACE
  8
0
  6
CONTINUOUS
 62
   249
 10
254.628904
 20
134.44
 30
0.0
 11
254.644584
 21
134.44
 31
0.0
 12
254.644584
 22
135.56
 32
0.0
 13
254.628904
 23
135.56
 33
0.0
  0
3DFACE
  8
0
  6
CONTINUOUS
 62
   249
 10
254.644584
 20
134.44
 30
0.0
 11
254.660264
 21
134.44
 31
0.0
 12
254.660264
 22
135.56
 32
0.0
 13
254.644584
 23
135.56
 33
0.0
  0
3DFACE
  8
0
  6
CONTINUOUS
 62
   249
 10
254.660264
 20
134.44
 30
0.0
 11
254.675944
 21
134.44
 31
0.0
 12
254.675944
 22
135.56
 32
0.0
 13
254.660264
 23
135.56
 33
0.0
  0
3DFACE
  8
0
  6
CONTINUOUS
 62
   249
 10
254.675944
 20
134.44
 30
0.0
 11
254.691624
 21
134.44
 31
0.0
 12
254.691624
 22
135.56
 32
0.0
 13
254.675944
 23
135.56
 33
0.0
  0
3DFACE
  8
0
  6
CONTINUOUS
 62
   249
 10
254.691624
 20
134.44
 30
0.0
 11
254.707304
 21
134.44
 31
0.0
 12
254.707304
 22
135.56
 32
0.0
 13
254.691624
 23
135.56
 33
0.0
  0
3DFACE
  8
0
  6
CONTINUOUS
 62
   249
 10
254.707304
 20
134.44
 30
0.0
 11
254.722984
 21
134.44
 31
0.0
 12
254.722984
 22
135.56
 32
0.0
 13
254.707304
 23
135.56
 33
0.0
  0
3DFACE
  8
0
  6
CONTINUOUS
 62
   249
 10
254.722984
 20
134.44
 30
0.0
 11
254.738664
 21
134.44
 31
0.0
 12
254.738664
 22
135.56
 32
0.0
 13
254.722984
 23
135.56
 33
0.0
  0
3DFACE
  8
0
  6
CONTINUOUS
 62
   249
 10
254.738664
 20
134.44
 30
0.0
 11
254.754344
 21
134.44
 31
0.0
 12
254.754344
 22
135.56
 32
0.0
 13
254.738664
 23
135.56
 33
0.0
  0
3DFACE
  8
0
  6
CONTINUOUS
 62
   249
 10
254.754344
 20
134.44
 30
0.0
 11
254.770024
 21
134.44
 31
0.0
 12
254.770024
 22
135.56
 32
0.0
 13
254.754344
 23
135.56
 33
0.0
  0
3DFACE
  8
0
  6
CONTINUOUS
 62
   249
 10
254.770024
 20
134.44
 30
0.0
 11
254.785704
 21
134.44
 31
0.0
 12
254.785704
 22
135.56
 32
0.0
 13
254.770024
 23
135.56
 33
0.0
  0
3DFACE
  8
0
  6
CONTINUOUS
 62
   249
 10
254.785704
 20
134.44
 30
0.0
 11
254.801384
 21
134.44
 31
0.0
 12
254.801384
 22
135.56
 32
0.0
 13
254.785704
 23
135.56
 33
0.0
  0
3DFACE
  8
0
  6
CONTINUOUS
 62
   249
 10
254.801384
 20
134.44
 30
0.0
 11
254.817064
 21
134.44
 31
0.0
 12
254.817064
 22
135.56
 32
0.0
 13
254.801384
 23
135.56
 33
0.0
  0
3DFACE
  8
0
  6
CONTINUOUS
 62
   249
 10
254.817064
 20
134.44
 30
0.0
 11
254.832744
 21
134.44
 31
0.0
 12
254.832744
 22
135.56
 32
0.0
 13
254.817064
 23
135.56
 33
0.0
  0
3DFACE
  8
0
  6
CONTINUOUS
 62
   249
 10
254.832744
 20
134.44
 30
0.0
 11
254.848424
 21
134.44
 31
0.0
 12
254.848424
 22
135.56
 32
0.0
 13
254.832744
 23
135.56
 33
0.0
  0
3DFACE
  8
0
  6
CONTINUOUS
 62
   249
 10
254.848424
 20
134.44
 30
0.0
 11
254.864104
 21
134.44
 31
0.0
 12
254.864104
 22
135.56
 32
0.0
 13
254.848424
 23
135.56
 33
0.0
  0
3DFACE
  8
0
  6
CONTINUOUS
 62
   249
 10
254.864104
 20
134.44
 30
0.0
 11
254.879784
 21
134.44
 31
0.0
 12
254.879784
 22
135.56
 32
0.0
 13
254.864104
 23
135.56
 33
0.0
  0
3DFACE
  8
0
  6
CONTINUOUS
 62
   249
 10
254.879784
 20
134.44
 30
0.0
 11
254.895464
 21
134.44
 31
0.0
 12
254.895464
 22
135.56
 32
0.0
 13
254.879784
 23
135.56
 33
0.0
  0
3DFACE
  8
0
  6
CONTINUOUS
 62
   249
 10
254.895464
 20
134.44
 30
0.0
 11
254.911144
 21
134.44
 31
0.0
 12
254.911144
 22
135.56
 32
0.0
 13
254.895464
 23
135.56
 33
0.0
  0
3DFACE
  8
0
  6
CONTINUOUS
 62
   249
 10
254.911144
 20
134.44
 30
0.0
 11
254.926824
 21
134.44
 31
0.0
 12
254.926824
 22
135.56
 32
0.0
 13
254.911144
 23
135.56
 33
0.0
  0
3DFACE
  8
0
  6
CONTINUOUS
 62
   249
 10
254.926824
 20
134.44
 30
0.0
 11
254.942504
 21
134.44
 31
0.0
 12
254.942504
 22
135.56
 32
0.0
 13
254.926824
 23
135.56
 33
0.0
  0
3DFACE
  8
0
  6
CONTINUOUS
 62
   249
 10
254.942504
 20
134.44
 30
0.0
 11
254.958184
 21
134.44
 31
0.0
 12
254.958184
 22
135.56
 32
0.0
 13
254.942504
 23
135.56
 33
0.0
  0
3DFACE
  8
0
  6
CONTINUOUS
 62
   249
 10
254.958184
 20
134.44
 30
0.0
 11
254.973864
 21
134.44
 31
0.0
 12
254.973864
 22
135.56
 32
0.0
 13
254.958184
 23
135.56
 33
0.0
  0
3DFACE
  8
0
  6
CONTINUOUS
 62
   249
 10
254.973864
 20
134.44
 30
0.0
 11
254.989544
 21
134.44
 31
0.0
 12
254.989544
 22
135.56
 32
0.0
 13
254.973864
 23
135.56
 33
0.0
  0
3DFACE
  8
0
  6
CONTINUOUS
 62
   249
 10
254.989544
 20
134.44
 30
0.0
 11
255.005224
 21
134.44
 31
0.0
 12
255.005224
 22
135.56
 32
0.0
 13
254.989544
 23
135.56
 33
0.0
  0
3DFACE
  8
0
  6
CONTINUOUS
 62
   249
 10
255.005224
 20
134.44
 30
0.0
 11
255.020904
 21
134.44
 31
0.0
 12
255.020904
 22
135.56
 32
0.0
 13
255.005224
 23
135.56
 33
0.0
  0
3DFACE
  8
0
  6
CONTINUOUS
 62
   249
 10
255.020904
 20
134.44
 30
0.0
 11
255.036584
 21
134.44
 31
0.0
 12
255.036584
 22
135.56
 32
0.0
 13
255.020904
 23
135.56
 33
0.0
  0
3DFACE
  8
0
  6
CONTINUOUS
 62
   249
 10
255.036584
 20
134.44
 30
0.0
 11
255.052264
 21
134.44
 31
0.0
 12
255.052264
 22
135.56
 32
0.0
 13
255.036584
 23
135.56
 33
0.0
  0
3DFACE
  8
0
  6
CONTINUOUS
 62
   249
 10
255.052264
 20
134.44
 30
0.0
 11
255.067944
 21
134.44
 31
0.0
 12
255.067944
 22
135.56
 32
0.0
 13
255.052264
 23
135.56
 33
0.0
  0
3DFACE
  8
0
  6
CONTINUOUS
 62
   249
 10
255.067944
 20
134.44
 30
0.0
 11
255.083624
 21
134.44
 31
0.0
 12
255.083624
 22
135.56
 32
0.0
 13
255.067944
 23
135.56
 33
0.0
  0
3DFACE
  8
0
  6
CONTINUOUS
 62
   249
 10
255.083624
 20
134.44
 30
0.0
 11
255.099304
 21
134.44
 31
0.0
 12
255.099304
 22
135.56
 32
0.0
 13
255.083624
 23
135.56
 33
0.0
  0
3DFACE
  8
0
  6
CONTINUOUS
 62
   249
 10
255.099304
 20
134.44
 30
0.0
 11
255.114984
 21
134.44
 31
0.0
 12
255.114984
 22
135.56
 32
0.0
 13
255.099304
 23
135.56
 33
0.0
  0
3DFACE
  8
0
  6
CONTINUOUS
 62
   249
 10
255.114984
 20
134.44
 30
0.0
 11
255.130664
 21
134.44
 31
0.0
 12
255.130664
 22
135.56
 32
0.0
 13
255.114984
 23
135.56
 33
0.0
  0
3DFACE
  8
0
  6
CONTINUOUS
 62
   249
 10
255.130664
 20
134.44
 30
0.0
 11
255.146344
 21
134.44
 31
0.0
 12
255.146344
 22
135.56
 32
0.0
 13
255.130664
 23
135.56
 33
0.0
  0
3DFACE
  8
0
  6
CONTINUOUS
 62
   249
 10
255.146344
 20
134.44
 30
0.0
 11
255.162024
 21
134.44
 31
0.0
 12
255.162024
 22
135.56
 32
0.0
 13
255.146344
 23
135.56
 33
0.0
  0
3DFACE
  8
0
  6
CONTINUOUS
 62
   249
 10
255.162024
 20
134.44
 30
0.0
 11
255.177704
 21
134.44
 31
0.0
 12
255.177704
 22
135.56
 32
0.0
 13
255.162024
 23
135.56
 33
0.0
  0
3DFACE
  8
0
  6
CONTINUOUS
 62
   249
 10
255.177704
 20
134.44
 30
0.0
 11
255.193384
 21
134.44
 31
0.0
 12
255.193384
 22
135.56
 32
0.0
 13
255.177704
 23
135.56
 33
0.0
  0
3DFACE
  8
0
  6
CONTINUOUS
 62
   249
 10
255.193384
 20
134.44
 30
0.0
 11
255.209064
 21
134.44
 31
0.0
 12
255.209064
 22
135.56
 32
0.0
 13
255.193384
 23
135.56
 33
0.0
  0
3DFACE
  8
0
  6
CONTINUOUS
 62
   249
 10
255.209064
 20
134.44
 30
0.0
 11
255.224744
 21
134.44
 31
0.0
 12
255.224744
 22
135.56
 32
0.0
 13
255.209064
 23
135.56
 33
0.0
  0
3DFACE
  8
0
  6
CONTINUOUS
 62
   249
 10
255.224744
 20
134.44
 30
0.0
 11
255.240424
 21
134.44
 31
0.0
 12
255.240424
 22
135.56
 32
0.0
 13
255.224744
 23
135.56
 33
0.0
  0
3DFACE
  8
0
  6
CONTINUOUS
 62
   249
 10
255.240424
 20
134.44
 30
0.0
 11
255.256104
 21
134.44
 31
0.0
 12
255.256104
 22
135.56
 32
0.0
 13
255.240424
 23
135.56
 33
0.0
  0
3DFACE
  8
0
  6
CONTINUOUS
 62
   249
 10
255.256104
 20
134.44
 30
0.0
 11
255.271784
 21
134.44
 31
0.0
 12
255.271784
 22
135.56
 32
0.0
 13
255.256104
 23
135.56
 33
0.0
  0
3DFACE
  8
0
  6
CONTINUOUS
 62
   249
 10
255.271784
 20
134.44
 30
0.0
 11
255.287464
 21
134.44
 31
0.0
 12
255.287464
 22
135.56
 32
0.0
 13
255.271784
 23
135.56
 33
0.0
  0
3DFACE
  8
0
  6
CONTINUOUS
 62
   249
 10
255.287464
 20
134.44
 30
0.0
 11
255.303144
 21
134.44
 31
0.0
 12
255.303144
 22
135.56
 32
0.0
 13
255.287464
 23
135.56
 33
0.0
  0
3DFACE
  8
0
  6
CONTINUOUS
 62
   249
 10
255.303144
 20
134.44
 30
0.0
 11
255.318824
 21
134.44
 31
0.0
 12
255.318824
 22
135.56
 32
0.0
 13
255.303144
 23
135.56
 33
0.0
  0
3DFACE
  8
0
  6
CONTINUOUS
 62
   249
 10
255.318824
 20
134.44
 30
0.0
 11
255.334504
 21
134.44
 31
0.0
 12
255.334504
 22
135.56
 32
0.0
 13
255.318824
 23
135.56
 33
0.0
  0
3DFACE
  8
0
  6
CONTINUOUS
 62
   249
 10
255.334504
 20
134.44
 30
0.0
 11
255.350184
 21
134.44
 31
0.0
 12
255.350184
 22
135.56
 32
0.0
 13
255.334504
 23
135.56
 33
0.0
  0
3DFACE
  8
0
  6
CONTINUOUS
 62
   249
 10
255.350184
 20
134.44
 30
0.0
 11
255.365864
 21
134.44
 31
0.0
 12
255.365864
 22
135.56
 32
0.0
 13
255.350184
 23
135.56
 33
0.0
  0
3DFACE
  8
0
  6
CONTINUOUS
 62
   249
 10
255.365864
 20
134.44
 30
0.0
 11
255.381544
 21
134.44
 31
0.0
 12
255.381544
 22
135.56
 32
0.0
 13
255.365864
 23
135.56
 33
0.0
  0
3DFACE
  8
0
  6
CONTINUOUS
 62
   249
 10
255.381544
 20
134.44
 30
0.0
 11
255.397224
 21
134.44
 31
0.0
 12
255.397224
 22
135.56
 32
0.0
 13
255.381544
 23
135.56
 33
0.0
  0
3DFACE
  8
0
  6
CONTINUOUS
 62
   249
 10
255.397224
 20
134.44
 30
0.0
 11
255.412904
 21
134.44
 31
0.0
 12
255.412904
 22
135.56
 32
0.0
 13
255.397224
 23
135.56
 33
0.0
  0
3DFACE
  8
0
  6
CONTINUOUS
 62
   249
 10
255.412904
 20
134.44
 30
0.0
 11
255.428584
 21
134.44
 31
0.0
 12
255.428584
 22
135.56
 32
0.0
 13
255.412904
 23
135.56
 33
0.0
  0
3DFACE
  8
0
  6
CONTINUOUS
 62
   249
 10
255.428584
 20
134.44
 30
0.0
 11
255.444264
 21
134.44
 31
0.0
 12
255.444264
 22
135.56
 32
0.0
 13
255.428584
 23
135.56
 33
0.0
  0
3DFACE
  8
0
  6
CONTINUOUS
 62
   249
 10
255.444264
 20
134.44
 30
0.0
 11
255.459944
 21
134.44
 31
0.0
 12
255.459944
 22
135.56
 32
0.0
 13
255.444264
 23
135.56
 33
0.0
  0
3DFACE
  8
0
  6
CONTINUOUS
 62
   249
 10
255.459944
 20
134.44
 30
0.0
 11
255.475624
 21
134.44
 31
0.0
 12
255.475624
 22
135.56
 32
0.0
 13
255.459944
 23
135.56
 33
0.0
  0
3DFACE
  8
0
  6
CONTINUOUS
 62
   249
 10
255.475624
 20
134.44
 30
0.0
 11
255.491304
 21
134.44
 31
0.0
 12
255.491304
 22
135.56
 32
0.0
 13
255.475624
 23
135.56
 33
0.0
  0
3DFACE
  8
0
  6
CONTINUOUS
 62
   249
 10
255.491304
 20
134.44
 30
0.0
 11
255.506984
 21
134.44
 31
0.0
 12
255.506984
 22
135.56
 32
0.0
 13
255.491304
 23
135.56
 33
0.0
  0
3DFACE
  8
0
  6
CONTINUOUS
 62
   249
 10
255.506984
 20
134.44
 30
0.0
 11
255.522664
 21
134.44
 31
0.0
 12
255.522664
 22
135.56
 32
0.0
 13
255.506984
 23
135.56
 33
0.0
  0
3DFACE
  8
0
  6
CONTINUOUS
 62
   249
 10
255.522664
 20
134.44
 30
0.0
 11
255.538344
 21
134.44
 31
0.0
 12
255.538344
 22
135.56
 32
0.0
 13
255.522664
 23
135.56
 33
0.0
  0
3DFACE
  8
0
  6
CONTINUOUS
 62
   249
 10
255.538344
 20
134.44
 30
0.0
 11
255.554024
 21
134.44
 31
0.0
 12
255.554024
 22
135.56
 32
0.0
 13
255.538344
 23
135.56
 33
0.0
  0
LINE
  8
0
  6
CONTINUOUS
 62
   249
 10
230.965688
 20
156.164644
 30
0.0
 11
228.619923
 21
157.499998
 31
0.0
  0
LINE
  8
0
  6
CONTINUOUS
 62
   249
 10
228.619923
 20
157.499998
 30
0.0
 11
230.965688
 21
158.689917
 31
0.0
  0
ARC
  8
0
  6
CONTINUOUS
 62
   249
 10
227.5
 20
185.0
 30
0.0
 40
0.5
 50
180.0
 51
0.0
  0
ARC
  8
0
  6
CONTINUOUS
 62
   249
 10
227.5
 20
185.0
 30
0.0
 40
0.5
 50
0.0
 51
180.0
  0
ARC
  8
0
  6
CONTINUOUS
 62
   249
 10
222.5
 20
205.0
 30
0.0
 40
0.5
 50
180.0
 51
0.0
  0
ARC
  8
0
  6
CONTINUOUS
 62
   249
 10
222.5
 20
205.0
 30
0.0
 40
0.5
 50
0.0
 51
180.0
  0
LINE
  8
0
  6
CONTINUOUS
 62
   249
 10
230.965688
 20
203.664635
 30
0.0
 11
228.619923
 21
204.999989
 31
0.0
  0
LINE
  8
0
  6
CONTINUOUS
 62
   249
 10
228.619923
 20
204.999989
 30
0.0
 11
230.965688
 21
206.189908
 31
0.0
  0
LINE
  8
0
  6
CONTINUOUS
 62
   249
 10
269.974809
 20
148.040147
 30
0.0
 11
270.861696
 21
148.040147
 31
0.0
  0
LINE
  8
0
  6
CONTINUOUS
 62
   249
 10
269.643705
 20
148.65178
 30
0.0
 11
271.228276
 21
148.65178
 31
0.0
  0
LINE
  8
0
  6
CONTINUOUS
 62
   249
 10
270.459641
 20
149.273842
 30
0.0
 11
271.653982
 21
149.273842
 31
0.0
  0
LINE
  8
0
  6
CONTINUOUS
 62
   249
 10
269.2653
 20
149.273842
 30
0.0
 11
270.459641
 21
149.273842
 31
0.0
  0
LINE
  8
0
  6
CONTINUOUS
 62
   249
 10
270.475528
 20
150.628113
 30
0.0
 11
270.475528
 21
149.273842
 31
0.0
  0
LINE
  8
0
  6
CONTINUOUS
 62
   249
 10
269.974809
 20
158.019308
 30
0.0
 11
270.861696
 21
158.019308
 31
0.0
  0
LINE
  8
0
  6
CONTINUOUS
 62
   249
 10
269.643705
 20
158.630941
 30
0.0
 11
271.228276
 21
158.630941
 31
0.0
  0
LINE
  8
0
  6
CONTINUOUS
 62
   249
 10
270.459641
 20
159.253004
 30
0.0
 11
271.653982
 21
159.253004
 31
0.0
  0
LINE
  8
0
  6
CONTINUOUS
 62
   249
 10
269.2653
 20
159.253004
 30
0.0
 11
270.459641
 21
159.253004
 31
0.0
  0
LINE
  8
0
  6
CONTINUOUS
 62
   249
 10
270.475528
 20
160.607274
 30
0.0
 11
270.475528
 21
159.253004
 31
0.0
  0
LINE
  8
0
  6
CONTINUOUS
 62
   249
 10
213.161122
 20
218.509845
 30
0.0
 11
214.048009
 21
218.509845
 31
0.0
  0
LINE
  8
0
  6
CONTINUOUS
 62
   249
 10
212.830018
 20
219.121478
 30
0.0
 11
214.414589
 21
219.121478
 31
0.0
  0
LINE
  8
0
  6
CONTINUOUS
 62
   249
 10
213.645954
 20
219.74354
 30
0.0
 11
214.840295
 21
219.74354
 31
0.0
  0
LINE
  8
0
  6
CONTINUOUS
 62
   249
 10
212.451613
 20
219.74354
 30
0.0
 11
213.645954
 21
219.74354
 31
0.0
  0
LINE
  8
0
  6
CONTINUOUS
 62
   249
 10
213.66184
 20
221.097811
 30
0.0
 11
213.66184
 21
219.74354
 31
0.0
  0
ARC
  8
0
  6
CONTINUOUS
 62
   249
 10
316.19296
 20
235.208687
 30
0.0
 40
0.5
 50
180.0
 51
0.0
  0
ARC
  8
0
  6
CONTINUOUS
 62
   249
 10
316.19296
 20
235.208687
 30
0.0
 40
0.5
 50
0.0
 51
180.0
  0
LINE
  8
0
  6
CONTINUOUS
 62
   249
 10
366.390911
 20
240.278367
 30
0.0
 11
367.277798
 21
240.278367
 31
0.0
  0
LINE
  8
0
  6
CONTINUOUS
 62
   249
 10
366.059807
 20
240.89
 30
0.0
 11
367.644378
 21
240.89
 31
0.0
  0
LINE
  8
0
  6
CONTINUOUS
 62
   249
 10
366.875743
 20
241.512062
 30
0.0
 11
368.070084
 21
241.512062
 31
0.0
  0
LINE
  8
0
  6
CONTINUOUS
 62
   249
 10
365.681402
 20
241.512062
 30
0.0
 11
366.875743
 21
241.512062
 31
0.0
  0
LINE
  8
0
  6
CONTINUOUS
 62
   249
 10
366.891629
 20
242.866333
 30
0.0
 11
366.891629
 21
241.512062
 31
0.0
  0
LINE
  8
0
  6
CONTINUOUS
 62
   249
 10
366.663242
 20
250.271751
 30
0.0
 11
367.550129
 21
250.271751
 31
0.0
  0
LINE
  8
0
  6
CONTINUOUS
 62
   249
 10
366.332138
 20
250.883384
 30
0.0
 11
367.916709
 21
250.883384
 31
0.0
  0
LINE
  8
0
  6
CONTINUOUS
 62
   249
 10
367.148073
 20
251.505446
 30
0.0
 11
368.342414
 21
251.505446
 31
0.0
  0
LINE
  8
0
  6
CONTINUOUS
 62
   249
 10
365.953732
 20
251.505446
 30
0.0
 11
367.148073
 21
251.505446
 31
0.0
  0
LINE
  8
0
  6
CONTINUOUS
 62
   249
 10
367.16396
 20
252.859717
 30
0.0
 11
367.16396
 21
251.505446
 31
0.0
  0
ENDSEC
  0
EOF
