  0
SECTION
  2
HEADER
  9
$ACADVER
  1
AC1009
  9
$DWGCODEPAGE
  3
iso8859-1
  9
$INSBASE
 10
0.0
 20
0.0
 30
0.0
  9
$EXTMIN
 10
1.0E20
 20
1.0E20
  9
$EXTMAX
 10
-1.0E20
 20
-1.0E20
  9
$LIMMIN
 10
0.0
 20
0.0
  9
$LIMMAX
 10
12.0
 20
9.0
  9
$ORTHOMODE
 70
     0
  9
$REGENMODE
 70
     1
  9
$FILLMODE
 70
     1
  9
$QTEXTMODE
 70
     0
  9
$MIRRTEXT
 70
     1
  9
$DRAGMODE
 70
     2
  9
$LTSCALE
 40
15.0
  9
$OSMODE
 70
     0
  9
$ATTMODE
 70
     1
  9
$TEXTSIZE
 40
0.2
  9
$TRACEWID
 40
0.05
  9
$TEXTSTYLE
  7
STANDARD
  9
$CLAYER
  8
0
  9
$CELTYPE
  6
DASHED
  9
$CECOLOR
 62
   256
  9
$DIMSCALE
 40
1.0
  9
$DIMASZ
 40
0.18
  9
$DIMEXO
 40
0.0625
  9
$DIMDLI
 40
0.38
  9
$DIMRND
 40
0.0
  9
$DIMDLE
 40
0.0
  9
$DIMEXE
 40
0.18
  9
$DIMTP
 40
0.0
  9
$DIMTM
 40
0.0
  9
$DIMTXT
 40
0.18
  9
$DIMCEN
 40
0.09
  9
$DIMTSZ
 40
0.0
  9
$DIMTOL
 70
     0
  9
$DIMLIM
 70
     0
  9
$DIMTIH
 70
     1
  9
$DIMTOH
 70
     1
  9
$DIMSE1
 70
     0
  9
$DIMSE2
 70
     0
  9
$DIMTAD
 70
     0
  9
$DIMZIN
 70
     0
  9
$DIMBLK
  1

  9
$DIMASO
 70
     1
  9
$DIMSHO
 70
     1
  9
$DIMPOST
  1

  9
$DIMAPOST
  1

  9
$DIMALT
 70
     0
  9
$DIMALTD
 70
     2
  9
$DIMALTF
 40
25.4
  9
$DIMLFAC
 40
1.0
  9
$DIMTOFL
 70
     0
  9
$DIMTVP
 40
0.0
  9
$DIMTIX
 70
     0
  9
$DIMSOXD
 70
     0
  9
$DIMSAH
 70
     0
  9
$DIMBLK1
  1

  9
$DIMBLK2
  1

  9
$DIMSTYLE
  2
STANDARD
  9
$DIMCLRD
 70
     0
  9
$DIMCLRE
 70
     0
  9
$DIMCLRT
 70
     0
  9
$DIMTFAC
 40
1.0
  9
$DIMGAP
 40
0.09
  9
$LUNITS
 70
     2
  9
$LUPREC
 70
     4
  9
$AXISMODE
 70
     0
  9
$AXISUNIT
 10
0.0
 20
0.0
  9
$SKETCHINC
 40
0.1
  9
$FILLETRAD
 40
0.0
  9
$AUNITS
 70
     0
  9
$AUPREC
 70
     0
  9
$MENU
  1
acad
  9
$ELEVATION
 40
0.0
  9
$PELEVATION
 40
0.0
  9
$THICKNESS
 40
0.0
  9
$LIMCHECK
 70
     0
  9
$BLIPMODE
 70
     1
  9
$CHAMFERA
 40
0.0
  9
$CHAMFERB
 40
0.0
  9
$SKPOLY
 70
     0
  9
$TDCREATE
 40
0.000000000
  9
$TDUPDATE
 40
0.000000000
  9
$TDINDWG
 40
0.0
  9
$TDUSRTIMER
 40
0.0
  9
$USRTIMER
 70
     1
  9
$ANGBASE
 50
0.0
  9
$ANGDIR
 70
     0
  9
$PDMODE
 70
     0
  9
$PDSIZE
 40
0.0
  9
$PLINEWID
 40
0.0
  9
$COORDS
 70
     1
  9
$SPLFRAME
 70
     0
  9
$SPLINETYPE
 70
     6
  9
$SPLINESEGS
 70
     8
  9
$ATTDIA
 70
     0
  9
$ATTREQ
 70
     1
  9
$HANDLING
 70
     1
  9
$HANDSEED
  5
   483
  9
$SURFTAB1
 70
     6
  9
$SURFTAB2
 70
     6
  9
$SURFTYPE
 70
     6
  9
$SURFU
 70
     6
  9
$SURFV
 70
     6
  9
$UCSNAME
  2

  9
$UCSORG
 10
0.0
 20
0.0
 30
0.0
  9
$UCSXDIR
 10
1.0
 20
0.0
 30
0.0
  9
$UCSYDIR
 10
0.0
 20
1.0
 30
0.0
  9
$PUCSNAME
  2

  9
$PUCSORG
 10
0.0
 20
0.0
 30
0.0
  9
$PUCSXDIR
 10
1.0
 20
0.0
 30
0.0
  9
$PUCSYDIR
 10
0.0
 20
1.0
 30
0.0
  9
$USERI1
 70
     0
  9
$USERI2
 70
     0
  9
$USERI3
 70
     0
  9
$USERI4
 70
     0
  9
$USERI5
 70
     0
  9
$USERR1
 40
0.0
  9
$USERR2
 40
0.0
  9
$USERR3
 40
0.0
  9
$USERR4
 40
0.0
  9
$USERR5
 40
0.0
  9
$WORLDVIEW
 70
     1
  9
$SHADEDGE
 70
     3
  9
$SHADEDIF
 70
    70
  9
$TILEMODE
 70
     1
  9
$MAXACTVP
 70
    16
  9
$PINSBASE
 10
0.0
 20
0.0
 30
0.0
  9
$PLIMCHECK
 70
     0
  9
$PEXTMIN
 10
1.0E20
 20
1.0E20
 30
1.0E20
  9
$PEXTMAX
 10
-1.0E20
 20
-1.0E20
 30
-1.0E20
  9
$PLIMMIN
 10
0.0
 20
0.0
  9
$PLIMMAX
 10
12.0
 20
9.0
  9
$UNITMODE
 70
     0
  9
$VISRETAIN
 70
     0
  0
ENDSEC
  0
SECTION
  2
TABLES
  0
TABLE
  2
VPORT
 70
     1
  0
VPORT
  2
*ACTIVE
 70
     0
 10
0.0
 20
0.0
 11
1.0
 21
1.0
 12
6.801242
 22
4.5
 13
0.0
 23
0.0
 14
1.0
 24
1.0
 15
0.0
 25
0.0
 16
0.0
 26
0.0
 36
1.0
 17
0.0
 27
0.0
 37
0.0
 40
9.0
 41
1.511387
 42
50.0
 43
0.0
 44
0.0
 50
0.0
 51
0.0
 71
     0
 72
   100
 73
     1
 74
     1
 75
     0
 76
     0
 77
     0
 78
     0
  0
ENDTAB
  0
TABLE
  2
LTYPE
 70
    41
  0
LTYPE
  2
BYBLOCK
 70
     0
  3

 72
    65
 73
     0
 40
0.0
  0
LTYPE
  2
BYLAYER
 70
     0
  3

 72
    65
 73
     0
 40
0.0
  0
LTYPE
  2
CONTINUOUS
 70
     0
  3
Solid line
 72
    65
 73
     0
 40
0.0
  0
LTYPE
  2
BORDER
 70
    64
  3
__ __ . __ __ . __ __ . __ __ . __ __ . __ __ .
 72
    65
 73
     6
 40
1.75
 49
0.5
 49
-0.25
 49
0.5
 49
-0.25
 49
0.0
 49
-0.25
  0
LTYPE
  2
BORDER2
 70
    64
  3
__.__.__.__.__.__.__.__.__.__.__.__.__.__.__.__
 72
    65
 73
     6
 40
0.875
 49
0.25
 49
-0.125
 49
0.25
 49
-0.125
 49
0.0
 49
-0.125
  0
LTYPE
  2
BORDERX2
 70
    64
  3
____  ____  .  ____  ____  .  ____  ____  .  __
 72
    65
 73
     6
 40
3.5
 49
1.0
 49
-0.5
 49
1.0
 49
-0.5
 49
0.0
 49
-0.5
  0
LTYPE
  2
CENTER
 70
    64
  3
____ _ ____ _ ____ _ ____ _ ____ _ ____ _ ____
 72
    65
 73
     4
 40
2.0
 49
1.25
 49
-0.25
 49
0.25
 49
-0.25
  0
LTYPE
  2
CENTER2
 70
    64
  3
___ _ ___ _ ___ _ ___ _ ___ _ ___ _ ___ _ ___ _
 72
    65
 73
     4
 40
1.125
 49
0.75
 49
-0.125
 49
0.125
 49
-0.125
  0
LTYPE
  2
CENTERX2
 70
    64
  3
________  __  ________  __  ________  __  _____
 72
    65
 73
     4
 40
4.0
 49
2.5
 49
-0.5
 49
0.5
 49
-0.5
  0
LTYPE
  2
DASHDOT
 70
    64
  3
__ . __ . __ . __ . __ . __ . __ . __ . __ . __
 72
    65
 73
     4
 40
1.0
 49
0.5
 49
-0.25
 49
0.0
 49
-0.25
  0
LTYPE
  2
DASHDOT2
 70
    64
  3
_._._._._._._._._._._._._._._._._._._._._._._._
 72
    65
 73
     4
 40
0.5
 49
0.25
 49
-0.125
 49
0.0
 49
-0.125
  0
LTYPE
  2
DASHDOTX2
 70
    64
  3
____  .  ____  .  ____  .  ____  .  ____  .  __
 72
    65
 73
     4
 40
2.0
 49
1.0
 49
-0.5
 49
0.0
 49
-0.5
  0
LTYPE
  2
DASHED
 70
    64
  3
__ __ __ __ __ __ __ __ __ __ __ __ __ __ __ __
 72
    65
 73
     2
 40
0.75
 49
0.5
 49
-0.25
  0
LTYPE
  2
DASHED2
 70
    64
  3
_ _ _ _ _ _ _ _ _ _ _ _ _ _ _ _ _ _ _ _ _ _ _ _
 72
    65
 73
     2
 40
0.375
 49
0.25
 49
-0.125
  0
LTYPE
  2
DASHEDX2
 70
    64
  3
____  ____  ____  ____  ____  ____  ____  ____
 72
    65
 73
     2
 40
1.5
 49
1.0
 49
-0.5
  0
LTYPE
  2
DIVIDE
 70
    64
  3
____ . . ____ . . ____ . . ____ . . ____ . . __
 72
    65
 73
     6
 40
1.25
 49
0.5
 49
-0.25
 49
0.0
 49
-0.25
 49
0.0
 49
-0.25
  0
LTYPE
  2
DIVIDE2
 70
    64
  3
__..__..__..__..__..__..__..__..__..__..__..__.
 72
    65
 73
     6
 40
0.625
 49
0.25
 49
-0.125
 49
0.0
 49
-0.125
 49
0.0
 49
-0.125
  0
LTYPE
  2
DIVIDEX2
 70
    64
  3
________  .  .  ________  .  .  ________  .  .
 72
    65
 73
     6
 40
2.5
 49
1.0
 49
-0.5
 49
0.0
 49
-0.5
 49
0.0
 49
-0.5
  0
LTYPE
  2
DOT
 70
    64
  3
. . . . . . . . . . . . . . . . . . . . . . . .
 72
    65
 73
     2
 40
0.25
 49
0.0
 49
-0.25
  0
LTYPE
  2
DOT2
 70
    64
  3
...............................................
 72
    65
 73
     2
 40
0.125
 49
0.0
 49
-0.125
  0
LTYPE
  2
DOTX2
 70
    64
  3
.  .  .  .  .  .  .  .  .  .  .  .  .  .  .  .
 72
    65
 73
     2
 40
0.5
 49
0.0
 49
-0.5
  0
LTYPE
  2
HIDDEN
 70
    64
  3
__ __ __ __ __ __ __ __ __ __ __ __ __ __ __ __
 72
    65
 73
     2
 40
0.375
 49
0.25
 49
-0.125
  0
LTYPE
  2
HIDDEN2
 70
    64
  3
_ _ _ _ _ _ _ _ _ _ _ _ _ _ _ _ _ _ _ _ _ _ _ _
 72
    65
 73
     2
 40
0.1875
 49
0.125
 49
-0.0625
  0
LTYPE
  2
HIDDENX2
 70
    64
  3
____ ____ ____ ____ ____ ____ ____ ____ ____ __
 72
    65
 73
     2
 40
0.75
 49
0.5
 49
-0.25
  0
LTYPE
  2
PHANTOM
 70
    64
  3
______  __  __  ______  __  __  ______  __  __
 72
    65
 73
     6
 40
2.5
 49
1.25
 49
-0.25
 49
0.25
 49
-0.25
 49
0.25
 49
-0.25
  0
LTYPE
  2
PHANTOM2
 70
    64
  3
___ _ _ ___ _ _ ___ _ _ ___ _ _ ___ _ _ ___ _ _
 72
    65
 73
     6
 40
1.25
 49
0.625
 49
-0.125
 49
0.125
 49
-0.125
 49
0.125
 49
-0.125
  0
LTYPE
  2
PHANTOMX2
 70
    64
  3
____________    ____    ____    ____________
 72
    65
 73
     6
 40
5.0
 49
2.5
 49
-0.5
 49
0.5
 49
-0.5
 49
0.5
 49
-0.5
  0
LTYPE
  2
ACAD_ISO02W100
 70
    64
  3
__ __ __ __ __ __ __ __ __ __ __ __ __ __ __ __
 72
    65
 73
     2
 40
15.0
 49
12.0
 49
-3.0
  0
LTYPE
  2
ACAD_ISO03W100
 70
    64
  3
__    __    __    __    __    __    __    __
 72
    65
 73
     2
 40
30.0
 49
12.0
 49
-18.0
  0
LTYPE
  2
ACAD_ISO04W100
 70
    64
  3
____ . ____ . ____ . ____ . ____ . ____ . ____
 72
    65
 73
     4
 40
30.5
 49
24.0
 49
-3.0
 49
0.5
 49
-3.0
  0
LTYPE
  2
ACAD_ISO05W100
 70
    64
  3
____ .. ____ .. ____ .. ____ .. ____ .. ____ ..
 72
    65
 73
     6
 40
34.0
 49
24.0
 49
-3.0
 49
0.5
 49
-3.0
 49
0.5
 49
-3.0
  0
LTYPE
  2
ACAD_ISO06W100
 70
    64
  3
____ ... ____ ... ____ ... ____ ... ____ ... __
 72
    65
 73
     8
 40
37.5
 49
24.0
 49
-3.0
 49
0.5
 49
-3.0
 49
0.5
 49
-3.0
 49
0.5
 49
-3.0
  0
LTYPE
  2
ACAD_ISO07W100
 70
    64
  3
. . . . . . . . . . . . . . . . . . . . . . . .
 72
    65
 73
     2
 40
3.5
 49
0.5
 49
-3.0
  0
LTYPE
  2
ACAD_ISO08W100
 70
    64
  3
____ __ ____ __ ____ __ ____ ____ __ __ ____ __
 72
    65
 73
     4
 40
36.0
 49
24.0
 49
-3.0
 49
6.0
 49
-3.0
  0
LTYPE
  2
ACAD_ISO09W100
 70
    64
  3
____ __ __ ____ __ __ ____ __ __ ____ __ __ ___
 72
    65
 73
     6
 40
45.0
 49
24.0
 49
-3.0
 49
6.0
 49
-3.0
 49
6.0
 49
-3.0
  0
LTYPE
  2
ACAD_ISO10W100
 70
    64
  3
__ . __ . __ . __ . __ . __ . __ . __ . __ . __
 72
    65
 73
     4
 40
18.5
 49
12.0
 49
-3.0
 49
0.5
 49
-3.0
  0
LTYPE
  2
ACAD_ISO11W100
 70
    64
  3
__ __ . __ __ . __ __ . __ __ . __ __ . __ __ .
 72
    65
 73
     6
 40
33.5
 49
12.0
 49
-3.0
 49
12.0
 49
-3.0
 49
0.5
 49
-3.0
  0
LTYPE
  2
ACAD_ISO12W100
 70
    64
  3
__ . . __ . . __ . . __ . . __ . . __ . . __ .
 72
    65
 73
     6
 40
22.0
 49
12.0
 49
-3.0
 49
0.5
 49
-3.0
 49
0.5
 49
-3.0
  0
LTYPE
  2
ACAD_ISO13W100
 70
    64
  3
__ __ . . __ __ . . __ __ . . __ __ . . __ __ .
 72
    65
 73
     8
 40
37.0
 49
12.0
 49
-3.0
 49
12.0
 49
-3.0
 49
0.5
 49
-3.0
 49
0.5
 49
-3.0
  0
LTYPE
  2
ACAD_ISO14W100
 70
    64
  3
__ . . . __ . . . __ . . . __ . . . __ . . . __
 72
    65
 73
     8
 40
25.5
 49
12.0
 49
-3.0
 49
0.5
 49
-3.0
 49
0.5
 49
-3.0
 49
0.5
 49
-3.0
  0
LTYPE
  2
ACAD_ISO15W100
 70
    64
  3
__ __ . . . __ __ . . . __ __ . . . __ __ . . .
 72
    65
 73
    10
 40
40.5
 49
12.0
 49
-3.0
 49
12.0
 49
-3.0
 49
0.5
 49
-3.0
 49
0.5
 49
-3.0
 49
0.5
 49
-3.0
  0
ENDTAB
  0
TABLE
  2
STYLE
 70
     4
  0
STYLE
  2
STANDARD
 70
    64
 40
0.0
 41
1.0
 50
0.0
 71
     0
 42
0.2
  3
txt
  4

  0
STYLE
  2
TOLERANCE
 70
    64
 40
0.0
 41
1.0
 50
0.0
 71
     0
 42
0.2
  3
../igesfont/iges1003.shx
  4

  0
STYLE
  2
ROMANS
 70
    64
 40
0.0
 41
1.0
 50
0.0
 71
     0
 42
0.2
  3
romans.shx
  4

  0
STYLE
  2
ROMANC
 70
    64
 40
0.0
 41
1.0
 50
0.0
 71
     0
 42
0.2
  3
romanc.shx
  4

  0
ENDTAB
  0
TABLE
  2
DIMSTYLE
 70
     2
  0
DIMSTYLE
  2
UNNAMED
 70
     0
  3

  4

  5

  6

  7

 40
1.0
 41
0.18
 42
0.0625
 43
0.38
 44
0.18
 45
0.0
 46
0.0
 47
0.0
 48
0.0
140
0.18
141
0.09
142
0.0
143
25.4
144
1.0
145
0.0
146
1.0
147
0.09
 71
     0
 72
     0
 73
     1
 74
     1
 75
     0
 76
     0
 77
     0
 78
     0
170
     0
171
     2
172
     0
173
     0
174
     0
175
     0
176
     0
177
     0
178
     0
  0
DIMSTYLE
  2
STANDARD
 70
     0
  3

  4

  5

  6

  7

 40
1.0
 41
0.18
 42
0.0625
 43
0.38
 44
0.18
 45
0.0
 46
0.0
 47
0.0
 48
0.0
140
0.18
141
0.09
142
0.0
143
25.4
144
1.0
145
0.0
146
1.0
147
0.09
 71
     0
 72
     0
 73
     1
 74
     1
 75
     0
 76
     0
 77
     0
 78
     0
170
     0
171
     2
172
     0
173
     0
174
     0
175
     0
176
     0
177
     0
178
     0
  0
ENDTAB
  0
TABLE
  2
LAYER
 70
     1
  0
LAYER
  2
0
 70
     0
 62
     7
  6
CONTINUOUS
  0
ENDTAB
  0
ENDSEC
  0
SECTION
  2
BLOCKS
  0
BLOCK
  5
     B
  8
0
  6
CONTINUOUS
 62
     3
  2
*UDIM809
 70
    65
 10
0.0
 20
0.0
 30
0.0
  3
*UDIM809
  0
TEXT
  5
     C
  8
0
  6
CONTINUOUS
 62
     3
 10
-334.174688609994
 20
107.179292082188
 30
0.0
 40
2.99999994933605
  1
91
 50
359.999999844103
 41
0.933333333333333
 72
     1
 11
-331.67468864814
 21
108.679292050066
 31
0.0
 73
     2
  0
LINE
  5
     D
  8
0
  6
CONTINUOUS
 62
     3
 10
-368.074689190542
 20
30.4266262203467
 30
0.0
 11
-368.074689190542
 21
108.179292075398
 31
0.0
  0
LINE
  5
     E
  8
0
  6
CONTINUOUS
 62
     3
 10
-295.274688105738
 20
30.4266262203467
 30
0.0
 11
-295.274688105738
 21
108.179292075398
 31
0.0
  0
LINE
  5
     F
  8
0
  6
CONTINUOUS
 62
     3
 10
-368.074689190542
 20
106.179292075398
 30
0.0
 11
-295.274688105738
 21
106.179292075398
 31
0.0
  0
LINE
  5
    10
  8
0
  6
CONTINUOUS
 62
     3
 10
-365.176911717332
 20
106.955749231816
 30
0.0
 11
-368.074689190542
 21
106.179292075398
 31
0.0
  0
LINE
  5
    11
  8
0
  6
CONTINUOUS
 62
     3
 10
-368.074689190542
 20
106.179292075398
 30
0.0
 11
-365.176911717332
 21
105.402834918979
 31
0.0
  0
LINE
  5
    12
  8
0
  6
CONTINUOUS
 62
     3
 10
-298.172465578948
 20
105.402834918979
 30
0.0
 11
-295.274688105738
 21
106.179292075398
 31
0.0
  0
LINE
  5
    13
  8
0
  6
CONTINUOUS
 62
     3
 10
-295.274688105738
 20
106.179292075398
 30
0.0
 11
-298.172465578948
 21
106.955749231816
 31
0.0
  0
ENDBLK
  5
    14
  8
0
  6
CONTINUOUS
 62
     3
  0
BLOCK
  5
    15
  8
0
  6
CONTINUOUS
 62
     3
  2
*UDIM810
 70
    65
 10
0.0
 20
0.0
 30
0.0
  3
*UDIM810
  0
TEXT
  5
    16
  8
0
  6
CONTINUOUS
 62
     3
 10
-334.174599315567
 20
98.7053774457905
 30
0.0
 40
2.99999994933605
  1
78
 50
359.999999844103
 41
0.933333333333333
 72
     1
 11
-331.674599353713
 21
100.205377413669
 31
0.0
 73
     2
  0
TEXT
  5
    17
  8
0
  6
CONTINUOUS
 62
     3
 10
-339.49126614161
 20
94.2053774080759
 30
0.0
 40
3.50000005215406
  1
=   =
 50
359.999999844103
 41
0.933333333333333
 72
     1
 11
-331.674599353713
 21
95.9553774129237
 31
0.0
 73
     2
  0
LINE
  5
    18
  8
0
  6
CONTINUOUS
 62
     3
 10
-362.874593366863
 20
81.8265467555542
 30
0.0
 11
-362.87458441268
 21
99.7053774390005
 31
0.0
  0
LINE
  5
    19
  8
0
  6
CONTINUOUS
 62
     3
 10
-300.47461401083
 20
81.826546755553
 30
0.0
 11
-300.474613202691
 21
99.7053774390008
 31
0.0
  0
LINE
  5
    1A
  8
0
  6
CONTINUOUS
 62
     3
 10
-362.874585414332
 20
97.7053774390008
 30
0.0
 11
-300.474613293093
 21
97.7053774390008
 31
0.0
  0
LINE
  5
    1B
  8
0
  6
CONTINUOUS
 62
     3
 10
-359.976807941122
 20
98.4818345954193
 30
0.0
 11
-362.874585414332
 21
97.7053774390008
 31
0.0
  0
LINE
  5
    1C
  8
0
  6
CONTINUOUS
 62
     3
 10
-362.874585414332
 20
97.7053774390008
 30
0.0
 11
-359.976807941122
 21
96.9289202825822
 31
0.0
  0
LINE
  5
    1D
  8
0
  6
CONTINUOUS
 62
     3
 10
-303.372390766304
 20
96.9289202825822
 30
0.0
 11
-300.474613293093
 21
97.7053774390008
 31
0.0
  0
LINE
  5
    1E
  8
0
  6
CONTINUOUS
 62
     3
 10
-300.474613293093
 20
97.7053774390008
 30
0.0
 11
-303.372390766304
 21
98.4818345954193
 31
0.0
  0
ENDBLK
  5
    1F
  8
0
  6
CONTINUOUS
 62
     3
  0
BLOCK
  5
    20
  8
0
  6
CONTINUOUS
 62
     3
  2
*UDIM811
 70
    65
 10
0.0
 20
0.0
 30
0.0
  3
*UDIM811
  0
TEXT
  5
    21
  8
0
  6
CONTINUOUS
 62
     3
 10
-380.630016553956
 20
-10.4733742988087
 30
0.0
 40
2.99999994933605
  1
96
 50
449.999999844103
 41
0.933333333333333
 72
     1
 11
-382.130016521838
 21
-7.97337433695674
 31
0.0
 73
     2
  0
LINE
  5
    22
  8
0
  6
CONTINUOUS
 62
     3
 10
-368.074689175641
 20
30.4266262352479
 30
0.0
 11
-381.63001654717
 21
30.4266262352479
 31
0.0
  0
LINE
  5
    23
  8
0
  6
CONTINUOUS
 62
     3
 10
-368.074689175641
 20
-46.3733749091613
 30
0.0
 11
-381.63001654717
 21
-46.3733749091613
 31
0.0
  0
LINE
  5
    24
  8
0
  6
CONTINUOUS
 62
     3
 10
-379.63001654717
 20
30.4266262352479
 30
0.0
 11
-379.63001654717
 21
-46.3733749091613
 31
0.0
  0
LINE
  5
    25
  8
0
  6
CONTINUOUS
 62
     3
 10
-378.853559390751
 20
27.5288487620373
 30
0.0
 11
-379.63001654717
 21
30.4266262352479
 31
0.0
  0
LINE
  5
    26
  8
0
  6
CONTINUOUS
 62
     3
 10
-379.63001654717
 20
30.4266262352479
 30
0.0
 11
-380.406473703588
 21
27.5288487620373
 31
0.0
  0
LINE
  5
    27
  8
0
  6
CONTINUOUS
 62
     3
 10
-380.406473703588
 20
-43.4755974359508
 30
0.0
 11
-379.63001654717
 21
-46.3733749091613
 31
0.0
  0
LINE
  5
    28
  8
0
  6
CONTINUOUS
 62
     3
 10
-379.63001654717
 20
-46.3733749091613
 30
0.0
 11
-378.853559390751
 21
-43.4755974359508
 31
0.0
  0
ENDBLK
  5
    29
  8
0
  6
CONTINUOUS
 62
     3
  0
BLOCK
  5
    2A
  8
0
  6
CONTINUOUS
 62
     7
  2
*UDIM812
 70
    65
 10
0.0
 20
0.0
 30
0.0
  3
*UDIM812
  0
TEXT
  5
    2B
  8
0
  6
CONTINUOUS
 62
     7
 10
-344.449604108488
 20
89.7709239704588
 30
0.0
 40
2.99999994933605
  1
25
 50
359.999999844103
 41
0.933333333333333
 72
     1
 11
-341.949604146634
 21
91.2709239383371
 31
0.0
 73
     2
  0
LINE
  5
    2C
  8
0
  6
CONTINUOUS
 62
     3
 10
-351.67462809654
 20
53.9865531613665
 30
0.0
 11
-351.67462809654
 21
90.7709239636691
 31
0.0
  0
LINE
  5
    2D
  8
0
  6
CONTINUOUS
 62
     3
 10
-331.674580125203
 20
54.4443657372424
 30
0.0
 11
-331.674580125203
 21
90.7709239636691
 31
0.0
  0
LINE
  5
    2E
  8
0
  6
CONTINUOUS
 62
     3
 10
-351.67462809654
 20
88.7709239636691
 30
0.0
 11
-331.674580125203
 21
88.7709239636691
 31
0.0
  0
LINE
  5
    2F
  8
0
  6
CONTINUOUS
 62
     3
 10
-348.720204819333
 20
89.2918683936207
 30
0.0
 11
-351.67462809654
 21
88.7709239636691
 31
0.0
  0
LINE
  5
    30
  8
0
  6
CONTINUOUS
 62
     3
 10
-351.67462809654
 20
88.7709239636691
 30
0.0
 11
-348.720204819333
 21
88.2499795337174
 31
0.0
  0
LINE
  5
    31
  8
0
  6
CONTINUOUS
 62
     3
 10
-334.62900340241
 20
88.2499795337174
 30
0.0
 11
-331.674580125203
 21
88.7709239636691
 31
0.0
  0
LINE
  5
    32
  8
0
  6
CONTINUOUS
 62
     3
 10
-331.674580125203
 20
88.7709239636691
 30
0.0
 11
-334.62900340241
 21
89.2918683936207
 31
0.0
  0
ENDBLK
  5
    33
  8
0
  6
CONTINUOUS
 62
     7
  0
BLOCK
  5
    34
  8
0
  6
CONTINUOUS
 62
     7
  2
*UDIM813
 70
    65
 10
0.0
 20
0.0
 30
0.0
  3
*UDIM813
  0
TEXT
  5
    35
  8
0
  6
CONTINUOUS
 62
     7
 10
-324.449579407564
 20
89.7709239704588
 30
0.0
 40
2.99999994933605
  1
25
 50
359.999999844103
 41
0.933333333333333
 72
     1
 11
-321.94957944571
 21
91.2709239383371
 31
0.0
 73
     2
  0
LINE
  5
    36
  8
0
  6
CONTINUOUS
 62
     3
 10
-311.67457982718
 20
53.9865531613665
 30
0.0
 11
-311.67457982718
 21
90.7709239636691
 31
0.0
  0
LINE
  5
    37
  8
0
  6
CONTINUOUS
 62
     3
 10
-331.674580125203
 20
88.7709239636691
 30
0.0
 11
-311.67457982718
 21
88.7709239636691
 31
0.0
  0
LINE
  5
    38
  8
0
  6
CONTINUOUS
 62
     3
 10
-328.720156847996
 20
89.2918683936207
 30
0.0
 11
-331.674580125203
 21
88.7709239636691
 31
0.0
  0
LINE
  5
    39
  8
0
  6
CONTINUOUS
 62
     3
 10
-331.674580125203
 20
88.7709239636691
 30
0.0
 11
-328.720156847996
 21
88.2499795337174
 31
0.0
  0
LINE
  5
    3A
  8
0
  6
CONTINUOUS
 62
     3
 10
-314.629003104387
 20
88.2499795337174
 30
0.0
 11
-311.67457982718
 21
88.7709239636691
 31
0.0
  0
LINE
  5
    3B
  8
0
  6
CONTINUOUS
 62
     3
 10
-311.67457982718
 20
88.7709239636691
 30
0.0
 11
-314.629003104387
 21
89.2918683936207
 31
0.0
  0
ENDBLK
  5
    3C
  8
0
  6
CONTINUOUS
 62
     7
  0
BLOCK
  5
    3D
  8
0
  6
CONTINUOUS
 62
     3
  2
*UDIM814
 70
    65
 10
0.0
 20
0.0
 30
0.0
  3
*UDIM814
  0
TEXT
  5
    3E
  8
0
  6
CONTINUOUS
 62
     3
 10
-389.840793336449
 20
-2.5484482028056
 30
0.0
 40
2.99999994933605
  1
200
 50
449.999999844103
 41
0.933333333333333
 72
     1
 11
-391.34079330053
 21
1.35155173540321
 31
0.0
 73
     2
  0
LINE
  5
    3F
  8
0
  6
CONTINUOUS
 62
     3
 10
-362.074593855768
 20
81.6265468895456
 30
0.0
 11
-390.840793325862
 21
81.6265468895456
 31
0.0
  0
LINE
  5
    40
  8
0
  6
CONTINUOUS
 62
     3
 10
-362.074578963195
 20
-78.373443287609
 30
0.0
 11
-390.840793325862
 21
-78.373443287609
 31
0.0
  0
LINE
  5
    41
  8
0
  6
CONTINUOUS
 62
     3
 10
-388.840793325862
 20
81.6265468895456
 30
0.0
 11
-388.840793325862
 21
-78.373443287609
 31
0.0
  0
LINE
  5
    42
  8
0
  6
CONTINUOUS
 62
     3
 10
-388.31984889591
 20
78.6721236123387
 30
0.0
 11
-388.840793325862
 21
81.6265468895456
 31
0.0
  0
LINE
  5
    43
  8
0
  6
CONTINUOUS
 62
     3
 10
-388.840793325862
 20
81.6265468895456
 30
0.0
 11
-389.361737755814
 21
78.6721236123387
 31
0.0
  0
LINE
  5
    44
  8
0
  6
CONTINUOUS
 62
     3
 10
-389.361737755814
 20
-75.419020010402
 30
0.0
 11
-388.840793325862
 21
-78.373443287609
 31
0.0
  0
LINE
  5
    45
  8
0
  6
CONTINUOUS
 62
     3
 10
-388.840793325862
 20
-78.373443287609
 30
0.0
 11
-388.31984889591
 21
-75.419020010402
 31
0.0
  0
ENDBLK
  5
    46
  8
0
  6
CONTINUOUS
 62
     3
  0
BLOCK
  5
    47
  8
0
  6
CONTINUOUS
 62
     3
  2
*UDIM815
 70
    65
 10
0.0
 20
0.0
 30
0.0
  3
*UDIM815
  0
TEXT
  5
    48
  8
0
  6
CONTINUOUS
 62
     3
 10
-276.456611492749
 20
-45.9484366732089
 30
0.0
 40
2.99999994933605
  1
88
 50
449.999999844103
 41
0.933333333333333
 72
     1
 11
-277.95661146063
 21
-43.4484367113569
 31
0.0
 73
     2
  0
LINE
  5
    49
  8
0
  6
CONTINUOUS
 62
     3
 10
-288.276723274711
 20
-7.97343003154168
 30
0.0
 11
-273.456611485962
 21
-7.97343003154168
 31
0.0
  0
LINE
  5
    4A
  8
0
  6
CONTINUOUS
 62
     3
 10
-300.274638237867
 20
-78.373443287609
 30
0.0
 11
-273.456611485962
 21
-78.373443287609
 31
0.0
  0
LINE
  5
    4B
  8
0
  6
CONTINUOUS
 62
     3
 10
-275.456611485962
 20
-7.97343003154168
 30
0.0
 11
-275.456611485962
 21
-78.373443287609
 31
0.0
  0
LINE
  5
    4C
  8
0
  6
CONTINUOUS
 62
     3
 10
-274.935667056011
 20
-10.9278533087486
 30
0.0
 11
-275.456611485962
 21
-7.97343003154168
 31
0.0
  0
LINE
  5
    4D
  8
0
  6
CONTINUOUS
 62
     3
 10
-275.456611485962
 20
-7.97343003154168
 30
0.0
 11
-275.977555915914
 21
-10.9278533087486
 31
0.0
  0
LINE
  5
    4E
  8
0
  6
CONTINUOUS
 62
     3
 10
-275.977555915914
 20
-75.4190200104021
 30
0.0
 11
-275.456611485962
 21
-78.373443287609
 31
0.0
  0
LINE
  5
    4F
  8
0
  6
CONTINUOUS
 62
     3
 10
-275.456611485962
 20
-78.373443287609
 30
0.0
 11
-274.935667056011
 21
-75.4190200104021
 31
0.0
  0
ENDBLK
  5
    50
  8
0
  6
CONTINUOUS
 62
     3
  0
BLOCK
  5
    51
  8
0
  6
CONTINUOUS
 62
     7
  2
*UDIM816
 70
    65
 10
0.0
 20
0.0
 30
0.0
  3
*UDIM816
  0
TEXT
  5
    52
  8
0
  6
CONTINUOUS
 62
     7
 10
-284.734697904526
 20
-12.9757093864052
 30
0.0
 40
2.99999994933605
  1
M4 o
 50
449.999999844103
 41
0.933333333333333
 72
     1
 11
-286.234697864806
 21
-7.67570947183956
 31
0.0
 73
     2
  0
TEXT
  5
    53
  8
0
  6
CONTINUOUS
 62
     7
 10
-284.734697893124
 20
-1.37570956541781
 30
0.0
 40
2.99999994933605
  1
=
 50
449.999999844103
 41
0.933333333333333
 72
     1
 11
-286.234697864806
 21
-0.275709579922649
 31
0.0
 73
     2
  0
LINE
  5
    54
  8
0
  6
CONTINUOUS
 62
     3
 10
-299.474624859248
 20
10.0265702366792
 30
0.0
 11
-281.734697890138
 21
10.0265702366792
 31
0.0
  0
LINE
  5
    55
  8
0
  6
CONTINUOUS
 62
     3
 10
-288.276723274711
 20
-7.97343003154168
 30
0.0
 11
-281.734697890138
 21
-7.97343003154168
 31
0.0
  0
LINE
  5
    56
  8
0
  6
CONTINUOUS
 62
     3
 10
-283.734697890138
 20
10.0265702366792
 30
0.0
 11
-283.734697890138
 21
-12.9757093823332
 31
0.0
  0
LINE
  5
    57
  8
0
  6
CONTINUOUS
 62
     3
 10
-283.213753460186
 20
7.07214695947226
 30
0.0
 11
-283.734697890138
 21
10.0265702366792
 31
0.0
  0
LINE
  5
    58
  8
0
  6
CONTINUOUS
 62
     3
 10
-283.734697890138
 20
10.0265702366792
 30
0.0
 11
-284.25564232009
 21
7.07214695947226
 31
0.0
  0
LINE
  5
    59
  8
0
  6
CONTINUOUS
 62
     3
 10
-284.25564232009
 20
-5.01900675433472
 30
0.0
 11
-283.734697890138
 21
-7.97343003154168
 31
0.0
  0
LINE
  5
    5A
  8
0
  6
CONTINUOUS
 62
     3
 10
-283.734697890138
 20
-7.97343003154168
 30
0.0
 11
-283.213753460186
 21
-5.01900675433472
 31
0.0
  0
ENDBLK
  5
    5B
  8
0
  6
CONTINUOUS
 62
     7
  0
BLOCK
  5
    5C
  8
0
  6
CONTINUOUS
 62
     7
  2
*UDIM817
 70
    65
 10
0.0
 20
0.0
 30
0.0
  3
*UDIM817
  0
TEXT
  5
    5D
  8
0
  6
CONTINUOUS
 62
     7
 10
-284.734697904526
 20
-31.2060548118623
 30
0.0
 40
2.99999994933605
  1
M4 o
 50
449.999999844103
 41
0.933333333333333
 72
     1
 11
-286.234697864806
 21
-25.9060548972967
 31
0.0
 73
     2
  0
TEXT
  5
    5E
  8
0
  6
CONTINUOUS
 62
     7
 10
-284.734697893124
 20
-19.606054990875
 30
0.0
 40
2.99999994933605
  1
=
 50
449.999999844103
 41
0.933333333333333
 72
     1
 11
-286.234697864806
 21
-18.5060550053798
 31
0.0
 73
     2
  0
LINE
  5
    5F
  8
0
  6
CONTINUOUS
 62
     3
 10
-299.474630352411
 20
-25.9734302997531
 30
0.0
 11
-281.734697890138
 21
-25.9734302997531
 31
0.0
  0
LINE
  5
    60
  8
0
  6
CONTINUOUS
 62
     3
 10
-283.734697890138
 20
-7.97343003154168
 30
0.0
 11
-283.734697890138
 21
-31.2060548077904
 31
0.0
  0
LINE
  5
    61
  8
0
  6
CONTINUOUS
 62
     3
 10
-283.213753460186
 20
-10.9278533087486
 30
0.0
 11
-283.734697890138
 21
-7.97343003154168
 31
0.0
  0
LINE
  5
    62
  8
0
  6
CONTINUOUS
 62
     3
 10
-283.734697890138
 20
-7.97343003154168
 30
0.0
 11
-284.25564232009
 21
-10.9278533087486
 31
0.0
  0
LINE
  5
    63
  8
0
  6
CONTINUOUS
 62
     3
 10
-284.25564232009
 20
-23.0190070225461
 30
0.0
 11
-283.734697890138
 21
-25.9734302997531
 31
0.0
  0
LINE
  5
    64
  8
0
  6
CONTINUOUS
 62
     3
 10
-283.734697890138
 20
-25.9734302997531
 30
0.0
 11
-283.213753460186
 21
-23.0190070225461
 31
0.0
  0
ENDBLK
  5
    65
  8
0
  6
CONTINUOUS
 62
     7
  0
BLOCK
  5
    66
  8
0
  6
CONTINUOUS
 62
     3
  2
*UDIM818
 70
    65
 10
0.0
 20
0.0
 30
0.0
  3
*UDIM818
  0
TEXT
  5
    67
  8
0
  6
CONTINUOUS
 62
     3
 10
-100.947868763507
 20
107.132268866562
 30
0.0
 40
3.00000002980232
  1
25
 50
359.999999844103
 41
0.933333333333333
 72
     1
 11
-98.4478687345982
 21
108.632268874674
 31
0.0
 73
     2
  0
TEXT
  5
    68
  8
0
  6
CONTINUOUS
 62
     3
 10
-102.997868739351
 20
102.63226887213
 30
0.0
 40
3.5
  1
= =
 50
359.999999844103
 41
0.933333333333333
 72
     1
 11
-98.4478687345982
 21
104.382268859773
 31
0.0
 73
     2
  0
LINE
  5
    69
  8
0
  6
CONTINUOUS
 62
     3
 10
-104.422867640853
 20
62.9838946551085
 30
0.0
 11
-104.422867640853
 21
108.132268859773
 31
0.0
  0
LINE
  5
    6A
  8
0
  6
CONTINUOUS
 62
     3
 10
-91.9228677898646
 20
12.9839059323071
 30
0.0
 11
-91.9228677898646
 21
108.132268859773
 31
0.0
  0
LINE
  5
    6B
  8
0
  6
CONTINUOUS
 62
     3
 10
-104.422867640853
 20
106.132268859773
 30
0.0
 11
-91.9228677898646
 21
106.132268859773
 31
0.0
  0
LINE
  5
    6C
  8
0
  6
CONTINUOUS
 62
     3
 10
-101.468444363646
 20
106.653213289724
 30
0.0
 11
-104.422867640853
 21
106.132268859773
 31
0.0
  0
LINE
  5
    6D
  8
0
  6
CONTINUOUS
 62
     3
 10
-104.422867640853
 20
106.132268859773
 30
0.0
 11
-101.468444363646
 21
105.611324429821
 31
0.0
  0
LINE
  5
    6E
  8
0
  6
CONTINUOUS
 62
     3
 10
-94.8772910670715
 20
105.611324429821
 30
0.0
 11
-91.9228677898646
 21
106.132268859773
 31
0.0
  0
LINE
  5
    6F
  8
0
  6
CONTINUOUS
 62
     3
 10
-91.9228677898646
 20
106.132268859773
 30
0.0
 11
-94.8772910670715
 21
106.653213289724
 31
0.0
  0
ENDBLK
  5
    70
  8
0
  6
CONTINUOUS
 62
     3
  0
BLOCK
  5
    71
  8
0
  6
CONTINUOUS
 62
     3
  2
*UDIM819
 70
    65
 10
0.0
 20
0.0
 30
0.0
  3
*UDIM819
  0
TEXT
  5
    72
  8
0
  6
CONTINUOUS
 62
     3
 10
-59.0082586253969
 20
29.6089011807253
 30
0.0
 40
3.00000002980232
  1
100
 50
449.999999844103
 41
0.933333333333333
 72
     1
 11
-60.508258629711
 21
33.5089012235403
 31
0.0
 73
     2
  0
LINE
  5
    73
  8
0
  6
CONTINUOUS
 62
     3
 10
-101.472867712379
 20
58.7838947266341
 30
0.0
 11
-56.0082586148099
 21
58.7838947266341
 31
0.0
  0
LINE
  5
    74
  8
0
  6
CONTINUOUS
 62
     3
 10
-90.8478678613901
 20
8.78390600383273
 30
0.0
 11
-56.0082586148099
 21
8.78390600383273
 31
0.0
  0
LINE
  5
    75
  8
0
  6
CONTINUOUS
 62
     3
 10
-58.0082586148099
 20
58.7838947266341
 30
0.0
 11
-58.0082586148099
 21
8.78390600383273
 31
0.0
  0
LINE
  5
    76
  8
0
  6
CONTINUOUS
 62
     3
 10
-57.4873141848582
 20
55.8294714494272
 30
0.0
 11
-58.0082586148099
 21
58.7838947266341
 31
0.0
  0
LINE
  5
    77
  8
0
  6
CONTINUOUS
 62
     3
 10
-58.0082586148099
 20
58.7838947266341
 30
0.0
 11
-58.5292030447615
 21
55.8294714494272
 31
0.0
  0
LINE
  5
    78
  8
0
  6
CONTINUOUS
 62
     3
 10
-58.5292030447615
 20
11.7383292810397
 30
0.0
 11
-58.0082586148099
 21
8.78390600383273
 31
0.0
  0
LINE
  5
    79
  8
0
  6
CONTINUOUS
 62
     3
 10
-58.0082586148099
 20
8.78390600383273
 30
0.0
 11
-57.4873141848582
 21
11.7383292810397
 31
0.0
  0
ENDBLK
  5
    7A
  8
0
  6
CONTINUOUS
 62
     3
  0
BLOCK
  5
    7B
  8
0
  6
CONTINUOUS
 62
     3
  2
*UDIM820
 70
    65
 10
0.0
 20
0.0
 30
0.0
  3
*UDIM820
  0
TEXT
  5
    7C
  8
0
  6
CONTINUOUS
 62
     3
 10
-134.304308576023
 20
40.5088954666268
 30
0.0
 40
3.00000002980232
  1
62
 50
449.999999844103
 41
0.933333333333333
 72
     1
 11
-135.804308584137
 21
43.008895495534
 31
0.0
 73
     2
  0
LINE
  5
    7D
  8
0
  6
CONTINUOUS
 62
     3
 10
-109.872867569327
 20
58.7838947266341
 30
0.0
 11
-135.304308569236
 21
58.7838947266341
 31
0.0
  0
LINE
  5
    7E
  8
0
  6
CONTINUOUS
 62
     3
 10
-116.572192371861
 20
27.7838947266341
 30
0.0
 11
-135.304308569236
 21
27.7838947266341
 31
0.0
  0
LINE
  5
    7F
  8
0
  6
CONTINUOUS
 62
     3
 10
-133.304308569236
 20
58.7838947266341
 30
0.0
 11
-133.304308569236
 21
27.7838947266341
 31
0.0
  0
LINE
  5
    80
  8
0
  6
CONTINUOUS
 62
     3
 10
-132.783364139284
 20
55.8294714494272
 30
0.0
 11
-133.304308569236
 21
58.7838947266341
 31
0.0
  0
LINE
  5
    81
  8
0
  6
CONTINUOUS
 62
     3
 10
-133.304308569236
 20
58.7838947266341
 30
0.0
 11
-133.825252999188
 21
55.8294714494272
 31
0.0
  0
LINE
  5
    82
  8
0
  6
CONTINUOUS
 62
     3
 10
-133.825252999188
 20
30.7383180038411
 30
0.0
 11
-133.304308569236
 21
27.7838947266341
 31
0.0
  0
LINE
  5
    83
  8
0
  6
CONTINUOUS
 62
     3
 10
-133.304308569236
 20
27.7838947266341
 30
0.0
 11
-132.783364139284
 21
30.7383180038411
 31
0.0
  0
ENDBLK
  5
    84
  8
0
  6
CONTINUOUS
 62
     3
  0
BLOCK
  5
    85
  8
0
  6
CONTINUOUS
 62
     7
  2
*UDIM821
 70
    65
 10
0.0
 20
0.0
 30
0.0
  3
*UDIM821
  0
TEXT
  5
    86
  8
0
  6
CONTINUOUS
 62
     7
 10
-115.494912351217
 20
50.9954527878948
 30
0.0
 40
3.00000002980232
  1
4.5
 50
399.360214159378
 41
0.933333333333333
 72
     1
 11
-113.430823852166
 21
54.628569771283
 31
0.0
 73
     2
  0
TEXT
  5
    87
  8
0
  6
CONTINUOUS
 62
     7
 10
-118.587608923897
 20
48.4586776406355
 30
0.0
 40
3.00000002980232
  1
Ø
 50
399.360214159378
 41
1.2
 72
     1
 11
-118.379138379675
 21
50.5697295399499
 31
0.0
 73
     2
  0
TEXT
  5
    88
  8
0
  6
CONTINUOUS
 62
     7
 10
-127.556429017791
 20
41.1020297242032
 30
0.0
 40
3.00000002980232
  1
M4 o
 50
399.360214159378
 41
0.933333333333333
 72
     1
 11
-124.409896711757
 21
45.6230180066345
 31
0.0
 73
     2
  0
LINE
  5
    89
  8
0
  6
CONTINUOUS
 62
     3
 10
-104.422867640853
 20
58.7838947266341
 30
0.0
 11
-126.922235224685
 21
40.3288555772167
 31
0.0
  0
LINE
  5
    8A
  8
0
  6
CONTINUOUS
 62
     3
 10
-106.712151830112
 20
55.9018700429222
 30
0.0
 11
-104.964089528546
 21
58.3399590876133
 31
0.0
  0
LINE
  5
    8B
  8
0
  6
CONTINUOUS
 62
     3
 10
-104.964089528546
 20
58.3399590876133
 30
0.0
 11
-107.697000429475
 21
57.1025432288252
 31
0.0
  0
ENDBLK
  5
    8C
  8
0
  6
CONTINUOUS
 62
     7
  0
BLOCK
  5
    8D
  8
0
  6
CONTINUOUS
 62
     3
  2
*UDIM822
 70
    65
 10
0.0
 20
0.0
 30
0.0
  3
*UDIM822
  0
TEXT
  5
    8E
  8
0
  6
CONTINUOUS
 62
     3
 10
-396.90471226583
 20
-149.839310178319
 30
0.0
 40
2.99999994039535
  1
83.5
 50
359.999999844103
 41
0.933333333333333
 72
     1
 11
-391.604712367058
 21
-148.339310222516
 31
0.0
 73
     2
  0
LINE
  5
    8F
  8
0
  6
CONTINUOUS
 62
     3
 10
-417.361988157034
 20
-139.995577454567
 30
0.0
 11
-417.361988157034
 21
-152.839310192713
 31
0.0
  0
LINE
  5
    90
  8
0
  6
CONTINUOUS
 62
     3
 10
-367.261986166239
 20
-139.995577454567
 30
0.0
 11
-367.261986166239
 21
-152.839310192713
 31
0.0
  0
LINE
  5
    91
  8
0
  6
CONTINUOUS
 62
     3
 10
-417.361988157034
 20
-150.839310192713
 30
0.0
 11
-367.261986166239
 21
-150.839310192713
 31
0.0
  0
LINE
  5
    92
  8
0
  6
CONTINUOUS
 62
     3
 10
-414.464210683823
 20
-150.062853036295
 30
0.0
 11
-417.361988157034
 21
-150.839310192713
 31
0.0
  0
LINE
  5
    93
  8
0
  6
CONTINUOUS
 62
     3
 10
-417.361988157034
 20
-150.839310192713
 30
0.0
 11
-414.464210683823
 21
-151.615767349132
 31
0.0
  0
LINE
  5
    94
  8
0
  6
CONTINUOUS
 62
     3
 10
-370.159763639449
 20
-151.615767349132
 30
0.0
 11
-367.261986166239
 21
-150.839310192713
 31
0.0
  0
LINE
  5
    95
  8
0
  6
CONTINUOUS
 62
     3
 10
-367.261986166239
 20
-150.839310192713
 30
0.0
 11
-370.159763639449
 21
-150.062853036295
 31
0.0
  0
ENDBLK
  5
    96
  8
0
  6
CONTINUOUS
 62
     3
  0
BLOCK
  5
    97
  8
0
  6
CONTINUOUS
 62
     3
  2
*UDIM823
 70
    65
 10
0.0
 20
0.0
 30
0.0
  3
*UDIM823
  0
TEXT
  5
    98
  8
0
  6
CONTINUOUS
 62
     3
 10
-432.403175455859
 20
-116.808324447869
 30
0.0
 40
2.99999994039535
  1
64
 50
449.999999844103
 41
0.933333333333333
 72
     1
 11
-433.90317541927
 21
-114.308324493468
 31
0.0
 73
     2
  0
LINE
  5
    99
  8
0
  6
CONTINUOUS
 62
     3
 10
-423.761988371611
 20
-95.1955757141113
 30
0.0
 11
-433.403175449073
 21
-95.1955757141113
 31
0.0
  0
LINE
  5
    9A
  8
0
  6
CONTINUOUS
 62
     3
 10
-423.761988371611
 20
-133.59557723999
 30
0.0
 11
-433.403175449073
 21
-133.59557723999
 31
0.0
  0
LINE
  5
    9B
  8
0
  6
CONTINUOUS
 62
     3
 10
-431.403175449073
 20
-95.1955757141113
 30
0.0
 11
-431.403175449073
 21
-133.59557723999
 31
0.0
  0
LINE
  5
    9C
  8
0
  6
CONTINUOUS
 62
     3
 10
-430.626718292654
 20
-98.0933531873219
 30
0.0
 11
-431.403175449073
 21
-95.1955757141113
 31
0.0
  0
LINE
  5
    9D
  8
0
  6
CONTINUOUS
 62
     3
 10
-431.403175449073
 20
-95.1955757141113
 30
0.0
 11
-432.179632605491
 21
-98.0933531873219
 31
0.0
  0
LINE
  5
    9E
  8
0
  6
CONTINUOUS
 62
     3
 10
-432.179632605491
 20
-130.69779976678
 30
0.0
 11
-431.403175449073
 21
-133.59557723999
 31
0.0
  0
LINE
  5
    9F
  8
0
  6
CONTINUOUS
 62
     3
 10
-431.403175449073
 20
-133.59557723999
 30
0.0
 11
-430.626718292654
 21
-130.69779976678
 31
0.0
  0
ENDBLK
  5
    A0
  8
0
  6
CONTINUOUS
 62
     3
  0
BLOCK
  5
    A1
  8
0
  6
CONTINUOUS
 62
     3
  2
*UDIM824
 70
    65
 10
0.0
 20
0.0
 30
0.0
  3
*UDIM824
  0
TEXT
  5
    A2
  8
0
  6
CONTINUOUS
 62
     3
 10
-391.043291999997
 20
-121.922278927002
 30
0.0
 40
2.99999994039535
  1
86
 50
359.999999844103
 41
0.933333333333333
 72
     1
 11
-388.543292045593
 21
-120.422278963594
 31
0.0
 73
     2
  0
LINE
  5
    A3
  8
0
  6
CONTINUOUS
 62
     3
 10
-418.111988186836
 20
-122.922278933791
 30
0.0
 11
-366.511986136437
 21
-122.922278933791
 31
0.0
  0
LINE
  5
    A4
  8
0
  6
CONTINUOUS
 62
     3
 10
-415.157564909629
 20
-122.40133450384
 30
0.0
 11
-418.111988186836
 21
-122.922278933791
 31
0.0
  0
LINE
  5
    A5
  8
0
  6
CONTINUOUS
 62
     3
 10
-418.111988186836
 20
-122.922278933791
 30
0.0
 11
-415.157564909629
 21
-123.443223363743
 31
0.0
  0
LINE
  5
    A6
  8
0
  6
CONTINUOUS
 62
     3
 10
-369.466409413643
 20
-123.443223363743
 30
0.0
 11
-366.511986136437
 21
-122.922278933791
 31
0.0
  0
LINE
  5
    A7
  8
0
  6
CONTINUOUS
 62
     3
 10
-366.511986136437
 20
-122.922278933791
 30
0.0
 11
-369.466409413643
 21
-122.40133450384
 31
0.0
  0
ENDBLK
  5
    A8
  8
0
  6
CONTINUOUS
 62
     3
  0
BLOCK
  5
    A9
  8
0
  6
CONTINUOUS
 62
     3
  2
*UDIM825
 70
    65
 10
0.0
 20
0.0
 30
0.0
  3
*UDIM825
  0
TEXT
  5
    AA
  8
0
  6
CONTINUOUS
 62
     3
 10
-351.511033062467
 20
-117.17057691425
 30
0.0
 40
2.99999994039535
  1
53
 50
449.999999844103
 41
0.933333333333333
 72
     1
 11
-353.011033025878
 21
-114.670576959848
 31
0.0
 73
     2
  0
LINE
  5
    AB
  8
0
  6
CONTINUOUS
 62
     3
 10
-367.411986172199
 20
-98.4955758452416
 30
0.0
 11
-348.51103305568
 21
-98.4955758452416
 31
0.0
  0
LINE
  5
    AC
  8
0
  6
CONTINUOUS
 62
     3
 10
-367.411986172199
 20
-130.29557710886
 30
0.0
 11
-348.51103305568
 21
-130.29557710886
 31
0.0
  0
LINE
  5
    AD
  8
0
  6
CONTINUOUS
 62
     3
 10
-350.51103305568
 20
-98.4955758452416
 30
0.0
 11
-350.51103305568
 21
-130.29557710886
 31
0.0
  0
LINE
  5
    AE
  8
0
  6
CONTINUOUS
 62
     3
 10
-349.990088625729
 20
-101.449999122449
 30
0.0
 11
-350.51103305568
 21
-98.4955758452416
 31
0.0
  0
LINE
  5
    AF
  8
0
  6
CONTINUOUS
 62
     3
 10
-350.51103305568
 20
-98.4955758452416
 30
0.0
 11
-351.031977485632
 21
-101.449999122449
 31
0.0
  0
LINE
  5
    B0
  8
0
  6
CONTINUOUS
 62
     3
 10
-351.031977485632
 20
-127.341153831653
 30
0.0
 11
-350.51103305568
 21
-130.29557710886
 31
0.0
  0
LINE
  5
    B1
  8
0
  6
CONTINUOUS
 62
     3
 10
-350.51103305568
 20
-130.29557710886
 30
0.0
 11
-349.990088625729
 21
-127.341153831653
 31
0.0
  0
ENDBLK
  5
    B2
  8
0
  6
CONTINUOUS
 62
     3
  0
BLOCK
  5
    B3
  8
0
  6
CONTINUOUS
 62
     3
  2
*UDIM826
 70
    65
 10
0.0
 20
0.0
 30
0.0
  3
*UDIM826
  0
TEXT
  5
    B4
  8
0
  6
CONTINUOUS
 62
     3
 10
-377.934267501224
 20
-109.360337434206
 30
0.0
 40
2.99999994039535
  1
1,5
 50
407.397966829164
 41
0.933333333333333
 72
     1
 11
-376.398458981607
 21
-105.474299413641
 31
0.0
 73
     2
  0
TEXT
  5
    B5
  8
0
  6
CONTINUOUS
 62
     3
 10
-379.795748216235
 20
-111.384538356249
 30
0.0
 40
2.99999994039535
  1
R
 50
407.397966829164
 41
0.933333333333333
 72
     1
 11
-380.155265511084
 21
-109.559504883346
 31
0.0
 73
     2
  0
LINE
  5
    B6
  8
0
  6
CONTINUOUS
 62
     3
 10
-366.80277426875
 20
-98.7331100924015
 30
0.0
 11
-379.059675142081
 21
-112.061440443319
 31
0.0
  0
LINE
  5
    B7
  8
0
  6
CONTINUOUS
 62
     3
 10
-368.419176388626
 20
-101.260409874157
 30
0.0
 11
-366.80277426875
 21
-98.7331100924015
 31
0.0
  0
LINE
  5
    B8
  8
0
  6
CONTINUOUS
 62
     3
 10
-366.80277426875
 20
-98.7331100924015
 30
0.0
 11
-369.186082719499
 21
-100.555153129377
 31
0.0
  0
ENDBLK
  5
    B9
  8
0
  6
CONTINUOUS
 62
     3
  0
BLOCK
  5
    BA
  8
0
  6
CONTINUOUS
 62
     3
  2
*UDIM827
 70
    65
 10
0.0
 20
0.0
 30
0.0
  3
*UDIM827
  0
TEXT
  5
    BB
  8
0
  6
CONTINUOUS
 62
     3
 10
-409.757997978054
 20
-86.2299708449595
 30
0.0
 40
2.99999994039535
  1
4
 50
404.818094863318
 41
0.933333333333333
 72
     1
 11
-410.035002390497
 21
-84.3906045361458
 31
0.0
 73
     2
  0
TEXT
  5
    BC
  8
0
  6
CONTINUOUS
 62
     3
 10
-411.992444659048
 20
-88.450274355591
 30
0.0
 40
2.99999994039535
  1
Ø
 50
404.818094863318
 41
0.933333333333333
 72
     1
 11
-412.269449071491
 21
-86.6109080467773
 31
0.0
 73
     2
  0
LINE
  5
    BD
  8
0
  6
CONTINUOUS
 62
     3
 10
-407.492573770782
 20
-85.3886308466991
 30
0.0
 11
-418.213205989127
 21
-96.0414056714715
 31
0.0
  0
LINE
  5
    BE
  8
0
  6
CONTINUOUS
 62
     3
 10
-414.782247583513
 20
-91.8977651017773
 30
0.0
 11
-416.510770324941
 21
-94.3497457567512
 31
0.0
  0
LINE
  5
    BF
  8
0
  6
CONTINUOUS
 62
     3
 10
-416.510770324941
 20
-94.3497457567512
 30
0.0
 11
-414.047863604406
 21
-92.6368270529169
 31
0.0
  0
LINE
  5
    C0
  8
0
  6
CONTINUOUS
 62
     3
 10
-419.941728730555
 20
-98.4933863264454
 30
0.0
 11
-418.213205989127
 21
-96.0414056714715
 31
0.0
  0
LINE
  5
    C1
  8
0
  6
CONTINUOUS
 62
     3
 10
-418.213205989127
 20
-96.0414056714715
 30
0.0
 11
-420.676112709662
 21
-97.7543243753058
 31
0.0
  0
ENDBLK
  5
    C2
  8
0
  6
CONTINUOUS
 62
     3
  0
BLOCK
  5
    C3
  8
0
  6
CONTINUOUS
 62
     3
  2
*HATCH398
 70
    65
 10
0.0
 20
0.0
 30
0.0
  3
*HATCH398
  0
LINE
  5
    C4
  8
0
  6
CONTINUOUS
 62
   210
 10
-30.7072048187256
 20
-124.149238586426
 30
0.0
 11
-30.5318412780762
 21
-124.324600219727
 31
0.0
  0
ENDBLK
  5
    C5
  8
0
  6
CONTINUOUS
 62
     3
  0
BLOCK
  5
    C6
  8
0
  6
CONTINUOUS
 62
     3
  2
*HATCH399
 70
    65
 10
0.0
 20
0.0
 30
0.0
  3
*HATCH399
  0
LINE
  5
    C7
  8
0
  6
CONTINUOUS
 62
   210
 10
-35.4136276245117
 20
-123.685455322266
 30
0.0
 11
-34.9064331054688
 21
-124.192649841309
 31
0.0
  0
ENDBLK
  5
    C8
  8
0
  6
CONTINUOUS
 62
     3
  0
BLOCK
  5
    C9
  8
0
  6
CONTINUOUS
 62
     3
  2
*HATCH400
 70
    65
 10
0.0
 20
0.0
 30
0.0
  3
*HATCH400
  0
LINE
  5
    CA
  8
0
  6
CONTINUOUS
 62
   210
 10
-43.591236114502
 20
-123.993118286133
 30
0.0
 11
-43.2405242919922
 21
-124.34383392334
 31
0.0
  0
ENDBLK
  5
    CB
  8
0
  6
CONTINUOUS
 62
     3
  0
BLOCK
  5
    CC
  8
0
  6
CONTINUOUS
 62
     3
  2
*HATCH401
 70
    65
 10
0.0
 20
0.0
 30
0.0
  3
*HATCH401
  0
LINE
  5
    CD
  8
0
  6
CONTINUOUS
 62
   210
 10
-30.7072048187256
 20
-124.149238586426
 30
0.0
 11
-30.5318412780762
 21
-124.324600219727
 31
0.0
  0
ENDBLK
  5
    CE
  8
0
  6
CONTINUOUS
 62
     3
  0
BLOCK
  5
    CF
  8
0
  6
CONTINUOUS
 62
     3
  2
*HATCH402
 70
    65
 10
0.0
 20
0.0
 30
0.0
  3
*HATCH402
  0
LINE
  5
    D0
  8
0
  6
CONTINUOUS
 62
   210
 10
-35.4136276245117
 20
-123.685455322266
 30
0.0
 11
-34.9064331054688
 21
-124.192649841309
 31
0.0
  0
ENDBLK
  5
    D1
  8
0
  6
CONTINUOUS
 62
     3
  0
BLOCK
  5
    D2
  8
0
  6
CONTINUOUS
 62
     3
  2
*HATCH403
 70
    65
 10
0.0
 20
0.0
 30
0.0
  3
*HATCH403
  0
LINE
  5
    D3
  8
0
  6
CONTINUOUS
 62
   210
 10
-43.591236114502
 20
-123.993118286133
 30
0.0
 11
-43.2405242919922
 21
-124.34383392334
 31
0.0
  0
ENDBLK
  5
    D4
  8
0
  6
CONTINUOUS
 62
     3
  0
BLOCK
  5
    D5
  8
0
  6
CONTINUOUS
 62
     7
  2
*HATCH404
 70
    65
 10
0.0
 20
0.0
 30
0.0
  3
*HATCH404
  0
LINE
  5
    D6
  8
0
  6
CONTINUOUS
 62
     7
 10
31.3043460845947
 20
-91.7322311401367
 30
0.0
 11
30.5
 21
-92.5365753173828
 31
0.0
  0
LINE
  5
    D7
  8
0
  6
CONTINUOUS
 62
     7
 10
33.4999885559082
 20
-93.7792282104492
 30
0.0
 11
31.5469875335693
 21
-95.7322311401367
 31
0.0
  0
ENDBLK
  5
    D8
  8
0
  6
CONTINUOUS
 62
     7
  0
BLOCK
  5
    D9
  8
0
  6
CONTINUOUS
 62
     7
  2
*HATCH405
 70
    65
 10
0.0
 20
0.0
 30
0.0
  3
*HATCH405
  0
LINE
  5
    DA
  8
0
  6
CONTINUOUS
 62
     7
 10
39.7896270751953
 20
-91.7322311401367
 30
0.0
 11
39.4999885559082
 21
-92.0218734741211
 31
0.0
  0
LINE
  5
    DB
  8
0
  6
CONTINUOUS
 62
     7
 10
42.5
 20
-93.2645034790039
 30
0.0
 11
40.0322685241699
 21
-95.7322311401367
 31
0.0
  0
ENDBLK
  5
    DC
  8
0
  6
CONTINUOUS
 62
     7
  0
BLOCK
  5
    DD
  8
0
  6
CONTINUOUS
 62
     7
  2
*HATCH406
 70
    65
 10
0.0
 20
0.0
 30
0.0
  3
*HATCH406
  0
LINE
  5
    DE
  8
0
  6
CONTINUOUS
 62
     7
 10
30.5
 20
-111.110260009766
 30
0.0
 11
30.6219692230225
 21
-111.232231140137
 31
0.0
  0
LINE
  5
    DF
  8
0
  6
CONTINUOUS
 62
     7
 10
32.8646087646484
 20
-109.232231140137
 30
0.0
 11
34.8646087646484
 21
-111.232231140137
 31
0.0
  0
LINE
  5
    E0
  8
0
  6
CONTINUOUS
 62
     7
 10
37.1072463989258
 20
-109.232231140137
 30
0.0
 11
39.1072463989258
 21
-111.232231140137
 31
0.0
  0
LINE
  5
    E1
  8
0
  6
CONTINUOUS
 62
     7
 10
41.3498878479004
 20
-109.232231140137
 30
0.0
 11
42.5
 21
-110.382347106934
 31
0.0
  0
ENDBLK
  5
    E2
  8
0
  6
CONTINUOUS
 62
     7
  0
BLOCK
  5
    E3
  8
0
  6
CONTINUOUS
 62
     7
  2
*HATCH407
 70
    65
 10
0.0
 20
0.0
 30
0.0
  3
*HATCH407
  0
LINE
  5
    E4
  8
0
  6
CONTINUOUS
 62
    52
 10
-50.3687210083008
 20
-48.2473983764648
 30
0.0
 11
-50.5000152587891
 21
-48.3786926269531
 31
0.0
  0
LINE
  5
    E5
  8
0
  6
CONTINUOUS
 62
    52
 10
-48.2474021911621
 20
-48.2473983764648
 30
0.0
 11
-50.5000152587891
 21
-50.5000114440918
 31
0.0
  0
LINE
  5
    E6
  8
0
  6
CONTINUOUS
 62
    52
 10
-46.1260833740234
 20
-48.2473983764648
 30
0.0
 11
-49.1260833740234
 21
-51.2473983764648
 31
0.0
  0
LINE
  5
    E7
  8
0
  6
CONTINUOUS
 62
    52
 10
-44.0047645568848
 20
-48.2473983764648
 30
0.0
 11
-47.0047645568848
 21
-51.2473983764648
 31
0.0
  0
LINE
  5
    E8
  8
0
  6
CONTINUOUS
 62
    52
 10
-41.8834457397461
 20
-48.2473983764648
 30
0.0
 11
-44.8834457397461
 21
-51.2473983764648
 31
0.0
  0
LINE
  5
    E9
  8
0
  6
CONTINUOUS
 62
    52
 10
-39.7621269226074
 20
-48.2473983764648
 30
0.0
 11
-42.7621269226074
 21
-51.2473983764648
 31
0.0
  0
LINE
  5
    EA
  8
0
  6
CONTINUOUS
 62
    52
 10
-37.6408081054688
 20
-48.2473983764648
 30
0.0
 11
-40.6408081054688
 21
-51.2473983764648
 31
0.0
  0
LINE
  5
    EB
  8
0
  6
CONTINUOUS
 62
    52
 10
-35.5194892883301
 20
-48.2473983764648
 30
0.0
 11
-38.5194892883301
 21
-51.2473983764648
 31
0.0
  0
LINE
  5
    EC
  8
0
  6
CONTINUOUS
 62
    52
 10
-33.3981704711914
 20
-48.2473983764648
 30
0.0
 11
-36.3981704711914
 21
-51.2473983764648
 31
0.0
  0
LINE
  5
    ED
  8
0
  6
CONTINUOUS
 62
    52
 10
-31.2768497467041
 20
-48.2473983764648
 30
0.0
 11
-34.2768516540527
 21
-51.2473983764648
 31
0.0
  0
LINE
  5
    EE
  8
0
  6
CONTINUOUS
 62
    52
 10
-29.1555290222168
 20
-48.2473983764648
 30
0.0
 11
-32.1555328369141
 21
-51.2473983764648
 31
0.0
  0
LINE
  5
    EF
  8
0
  6
CONTINUOUS
 62
    52
 10
-27.0342082977295
 20
-48.2473983764648
 30
0.0
 11
-30.0342121124268
 21
-51.2473983764648
 31
0.0
  0
LINE
  5
    F0
  8
0
  6
CONTINUOUS
 62
    52
 10
-26.0000152587891
 20
-49.3345375061035
 30
0.0
 11
-27.912878036499
 21
-51.2473983764648
 31
0.0
  0
LINE
  5
    F1
  8
0
  6
CONTINUOUS
 62
    52
 10
-26.0000152587891
 20
-51.4558563232422
 30
0.0
 11
-27.2915573120117
 21
-52.7473983764648
 31
0.0
  0
ENDBLK
  5
    F2
  8
0
  6
CONTINUOUS
 62
     7
  0
BLOCK
  5
    F3
  8
0
  6
CONTINUOUS
 62
     7
  2
*HATCH408
 70
    65
 10
0.0
 20
0.0
 30
0.0
  3
*HATCH408
  0
LINE
  5
    F4
  8
0
  6
CONTINUOUS
 62
    52
 10
21.7561721801758
 20
-48.2473983764648
 30
0.0
 11
20.9999847412109
 21
-49.0035858154297
 31
0.0
  0
LINE
  5
    F5
  8
0
  6
CONTINUOUS
 62
    52
 10
23.8774929046631
 20
-48.2473983764648
 30
0.0
 11
20.9999847412109
 21
-51.1249046325684
 31
0.0
  0
LINE
  5
    F6
  8
0
  6
CONTINUOUS
 62
    52
 10
25.9988136291504
 20
-48.2473983764648
 30
0.0
 11
22.9988117218018
 21
-51.2473983764648
 31
0.0
  0
LINE
  5
    F7
  8
0
  6
CONTINUOUS
 62
    52
 10
22.4999847412109
 20
-51.7462272644043
 30
0.0
 11
21.4988117218018
 21
-52.7473983764648
 31
0.0
  0
LINE
  5
    F8
  8
0
  6
CONTINUOUS
 62
    52
 10
28.1201324462891
 20
-48.2473983764648
 30
0.0
 11
25.1201324462891
 21
-51.2473983764648
 31
0.0
  0
LINE
  5
    F9
  8
0
  6
CONTINUOUS
 62
    52
 10
30.2414531707764
 20
-48.2473983764648
 30
0.0
 11
27.2414531707764
 21
-51.2473983764648
 31
0.0
  0
LINE
  5
    FA
  8
0
  6
CONTINUOUS
 62
    52
 10
32.3627738952637
 20
-48.2473983764648
 30
0.0
 11
29.3627738952637
 21
-51.2473983764648
 31
0.0
  0
LINE
  5
    FB
  8
0
  6
CONTINUOUS
 62
    52
 10
34.4840927124023
 20
-48.2473983764648
 30
0.0
 11
31.484094619751
 21
-51.2473983764648
 31
0.0
  0
LINE
  5
    FC
  8
0
  6
CONTINUOUS
 62
    52
 10
36.605411529541
 20
-48.2473983764648
 30
0.0
 11
33.6054153442383
 21
-51.2473983764648
 31
0.0
  0
LINE
  5
    FD
  8
0
  6
CONTINUOUS
 62
    52
 10
38.7267303466797
 20
-48.2473983764648
 30
0.0
 11
35.726734161377
 21
-51.2473983764648
 31
0.0
  0
LINE
  5
    FE
  8
0
  6
CONTINUOUS
 62
    52
 10
40.8480491638184
 20
-48.2473983764648
 30
0.0
 11
37.8480529785156
 21
-51.2473983764648
 31
0.0
  0
LINE
  5
    FF
  8
0
  6
CONTINUOUS
 62
    52
 10
42.969367980957
 20
-48.2473983764648
 30
0.0
 11
39.9693717956543
 21
-51.2473983764648
 31
0.0
  0
LINE
  5
   100
  8
0
  6
CONTINUOUS
 62
    52
 10
45.0906867980957
 20
-48.2473983764648
 30
0.0
 11
42.090690612793
 21
-51.2473983764648
 31
0.0
  0
LINE
  5
   101
  8
0
  6
CONTINUOUS
 62
    52
 10
45.4999847412109
 20
-49.9594306945801
 30
0.0
 11
44.2120170593262
 21
-51.2473983764648
 31
0.0
  0
ENDBLK
  5
   102
  8
0
  6
CONTINUOUS
 62
     7
  0
BLOCK
  5
   103
  8
0
  6
CONTINUOUS
 62
     7
  2
*HATCH409
 70
    65
 10
0.0
 20
0.0
 30
0.0
  3
*HATCH409
  0
LINE
  5
   104
  8
0
  6
CONTINUOUS
 62
     7
 10
-144.983551025391
 20
-97.4659652709961
 30
0.0
 11
-145.042938232422
 21
-97.5253677368164
 31
0.0
  0
LINE
  5
   105
  8
0
  6
CONTINUOUS
 62
     7
 10
-144.052505493164
 20
-96.9591979980469
 30
0.0
 11
-145.247146606445
 21
-98.1538314819336
 31
0.0
  0
LINE
  5
   106
  8
0
  6
CONTINUOUS
 62
     7
 10
-143.62825012207
 20
-96.9591979980469
 30
0.0
 11
-145.256866455078
 21
-98.5878143310547
 31
0.0
  0
LINE
  5
   107
  8
0
  6
CONTINUOUS
 62
     7
 10
-143.26921081543
 20
-97.0244216918945
 30
0.0
 11
-145.152816772461
 21
-98.9080352783203
 31
0.0
  0
LINE
  5
   108
  8
0
  6
CONTINUOUS
 62
     7
 10
-143.023483276367
 20
-97.2029571533203
 30
0.0
 11
-145.048767089844
 21
-99.2282562255859
 31
0.0
  0
LINE
  5
   109
  8
0
  6
CONTINUOUS
 62
     7
 10
-142.777755737305
 20
-97.3814926147461
 30
0.0
 11
-144.820388793945
 21
-99.4241333007813
 31
0.0
  0
LINE
  5
   10A
  8
0
  6
CONTINUOUS
 62
     7
 10
-142.576400756836
 20
-97.6044006347656
 30
0.0
 11
-144.574661254883
 21
-99.602668762207
 31
0.0
  0
LINE
  5
   10B
  8
0
  6
CONTINUOUS
 62
     7
 10
-142.472351074219
 20
-97.9246215820313
 30
0.0
 11
-144.32893371582
 21
-99.7812042236328
 31
0.0
  0
LINE
  5
   10C
  8
0
  6
CONTINUOUS
 62
     7
 10
-142.368301391602
 20
-98.2448425292969
 30
0.0
 11
-143.935836791992
 21
-99.812370300293
 31
0.0
  0
LINE
  5
   10D
  8
0
  6
CONTINUOUS
 62
     7
 10
-142.436828613281
 20
-98.7376327514649
 30
0.0
 11
-143.511566162109
 21
-99.812370300293
 31
0.0
  0
ENDBLK
  5
   10E
  8
0
  6
CONTINUOUS
 62
     7
  0
BLOCK
  5
   10F
  8
0
  6
CONTINUOUS
 62
     7
  2
*HATCH410
 70
    65
 10
0.0
 20
0.0
 30
0.0
  3
*HATCH410
  0
LINE
  5
   110
  8
0
  6
CONTINUOUS
 62
     7
 10
-134.70036315918
 20
-92.6982192993164
 30
0.0
 11
-135.722137451172
 21
-93.7199935913086
 31
0.0
  0
LINE
  5
   111
  8
0
  6
CONTINUOUS
 62
     7
 10
-134.276092529297
 20
-92.6982192993164
 30
0.0
 11
-135.816635131836
 21
-94.2387619018555
 31
0.0
  0
LINE
  5
   112
  8
0
  6
CONTINUOUS
 62
     7
 10
-133.867950439453
 20
-92.7143402099609
 30
0.0
 11
-135.712600708008
 21
-94.5589752197266
 31
0.0
  0
LINE
  5
   113
  8
0
  6
CONTINUOUS
 62
     7
 10
-133.622222900391
 20
-92.8928756713867
 30
0.0
 11
-135.608551025391
 21
-94.8791961669922
 31
0.0
  0
LINE
  5
   114
  8
0
  6
CONTINUOUS
 62
     7
 10
-133.376495361328
 20
-93.071403503418
 30
0.0
 11
-135.419143676758
 21
-95.1140518188477
 31
0.0
  0
LINE
  5
   115
  8
0
  6
CONTINUOUS
 62
     7
 10
-133.136169433594
 20
-93.2553482055664
 30
0.0
 11
-135.173400878906
 21
-95.2925796508789
 31
0.0
  0
LINE
  5
   116
  8
0
  6
CONTINUOUS
 62
     7
 10
-133.032119750977
 20
-93.575569152832
 30
0.0
 11
-134.927673339844
 21
-95.4711151123047
 31
0.0
  0
LINE
  5
   117
  8
0
  6
CONTINUOUS
 62
     7
 10
-132.928085327148
 20
-93.8957824707031
 30
0.0
 11
-134.583679199219
 21
-95.551383972168
 31
0.0
  0
LINE
  5
   118
  8
0
  6
CONTINUOUS
 62
     7
 10
-132.911819458008
 20
-94.3037872314453
 30
0.0
 11
-134.159423828125
 21
-95.551383972168
 31
0.0
  0
LINE
  5
   119
  8
0
  6
CONTINUOUS
 62
     7
 10
-133.116027832031
 20
-94.932258605957
 30
0.0
 11
-133.323379516602
 21
-95.1396102905274
 31
0.0
  0
ENDBLK
  5
   11A
  8
0
  6
CONTINUOUS
 62
     7
  0
BLOCK
  5
   11B
  8
0
  6
CONTINUOUS
 62
     3
  2
*UDIM828
 70
    65
 10
0.0
 20
0.0
 30
0.0
  3
*UDIM828
  0
TEXT
  5
   11C
  8
0
  6
CONTINUOUS
 62
     3
 10
-210.902109796375
 20
-117.7110431163
 30
0.0
 40
2.99999994933605
  1
75
 50
359.999999844103
 41
0.933333333333333
 72
     1
 11
-208.402109834521
 21
-116.211043148422
 31
0.0
 73
     2
  0
LINE
  5
   11D
  8
0
  6
CONTINUOUS
 62
     3
 10
-238.127105656235
 20
-78.3734430968761
 30
0.0
 11
-238.127105656235
 21
-120.71104312309
 31
0.0
  0
LINE
  5
   11E
  8
0
  6
CONTINUOUS
 62
     3
 10
-178.127115252583
 20
-25.9734301090238
 30
0.0
 11
-178.127115252583
 21
-120.71104312309
 31
0.0
  0
LINE
  5
   11F
  8
0
  6
CONTINUOUS
 62
     3
 10
-238.127105656235
 20
-118.71104312309
 30
0.0
 11
-178.127115252583
 21
-118.71104312309
 31
0.0
  0
LINE
  5
   120
  8
0
  6
CONTINUOUS
 62
     3
 10
-235.172682379028
 20
-118.190098693138
 30
0.0
 11
-238.127105656235
 21
-118.71104312309
 31
0.0
  0
LINE
  5
   121
  8
0
  6
CONTINUOUS
 62
     3
 10
-238.127105656235
 20
-118.71104312309
 30
0.0
 11
-235.172682379028
 21
-119.231987553041
 31
0.0
  0
LINE
  5
   122
  8
0
  6
CONTINUOUS
 62
     3
 10
-181.08153852979
 20
-119.231987553041
 30
0.0
 11
-178.127115252583
 21
-118.71104312309
 31
0.0
  0
LINE
  5
   123
  8
0
  6
CONTINUOUS
 62
     3
 10
-178.127115252583
 20
-118.71104312309
 30
0.0
 11
-181.08153852979
 21
-118.190098693138
 31
0.0
  0
ENDBLK
  5
   124
  8
0
  6
CONTINUOUS
 62
     3
  0
BLOCK
  5
   125
  8
0
  6
CONTINUOUS
 62
     3
  2
*UDIM829
 70
    65
 10
0.0
 20
0.0
 30
0.0
  3
*UDIM829
  0
TEXT
  5
   126
  8
0
  6
CONTINUOUS
 62
     3
 10
-233.496037093678
 20
-109.254460244635
 30
0.0
 40
2.99999994933605
  1
25,5
 50
359.999999844103
 41
0.933333333333333
 72
     1
 11
-228.19603717911
 21
-107.754460284361
 31
0.0
 73
     2
  0
LINE
  5
   127
  8
0
  6
CONTINUOUS
 62
     3
 10
-238.127105656235
 20
-78.3734430968761
 30
0.0
 11
-238.127105656235
 21
-112.254460259029
 31
0.0
  0
LINE
  5
   128
  8
0
  6
CONTINUOUS
 62
     3
 10
-217.714976140645
 20
-43.1527376061455
 30
0.0
 11
-217.714976140645
 21
-112.254460259029
 31
0.0
  0
LINE
  5
   129
  8
0
  6
CONTINUOUS
 62
     3
 10
-238.127105656235
 20
-110.254460259029
 30
0.0
 11
-217.714976140645
 21
-110.254460259029
 31
0.0
  0
LINE
  5
   12A
  8
0
  6
CONTINUOUS
 62
     3
 10
-235.172682379028
 20
-109.733515829078
 30
0.0
 11
-238.127105656235
 21
-110.254460259029
 31
0.0
  0
LINE
  5
   12B
  8
0
  6
CONTINUOUS
 62
     3
 10
-238.127105656235
 20
-110.254460259029
 30
0.0
 11
-235.172682379028
 21
-110.775404688981
 31
0.0
  0
LINE
  5
   12C
  8
0
  6
CONTINUOUS
 62
     3
 10
-220.669399417852
 20
-110.775404688981
 30
0.0
 11
-217.714976140645
 21
-110.254460259029
 31
0.0
  0
LINE
  5
   12D
  8
0
  6
CONTINUOUS
 62
     3
 10
-217.714976140645
 20
-110.254460259029
 30
0.0
 11
-220.669399417852
 21
-109.733515829078
 31
0.0
  0
ENDBLK
  5
   12E
  8
0
  6
CONTINUOUS
 62
     3
  0
BLOCK
  5
   12F
  8
0
  6
CONTINUOUS
 62
     7
  2
*UDIM830
 70
    65
 10
0.0
 20
0.0
 30
0.0
  3
*UDIM830
  0
TEXT
  5
   130
  8
0
  6
CONTINUOUS
 62
     7
 10
-216.517066316195
 20
-99.4667485850105
 30
0.0
 40
2.99999994933605
  1
10.5x11
 50
359.999999844103
 41
0.933333333333333
 72
     1
 11
-207.017066472557
 21
-97.9667486361434
 31
0.0
 73
     2
  0
LINE
  5
   131
  8
0
  6
CONTINUOUS
 62
     3
 10
-226.914976277736
 20
-44.9734425842762
 30
0.0
 11
-226.914976277736
 21
-102.466748610811
 31
0.0
  0
LINE
  5
   132
  8
0
  6
CONTINUOUS
 62
     3
 10
-217.714976140645
 20
-45.3741311877827
 30
0.0
 11
-217.714976140645
 21
-102.466748610811
 31
0.0
  0
LINE
  5
   133
  8
0
  6
CONTINUOUS
 62
     3
 10
-226.914976277736
 20
-100.466748610811
 30
0.0
 11
-197.517066632993
 21
-100.466748610811
 31
0.0
  0
LINE
  5
   134
  8
0
  6
CONTINUOUS
 62
     3
 10
-224.017198804525
 20
-99.6902914543929
 30
0.0
 11
-226.914976277736
 21
-100.466748610811
 31
0.0
  0
LINE
  5
   135
  8
0
  6
CONTINUOUS
 62
     3
 10
-226.914976277736
 20
-100.466748610811
 30
0.0
 11
-224.017198804525
 21
-101.24320576723
 31
0.0
  0
LINE
  5
   136
  8
0
  6
CONTINUOUS
 62
     3
 10
-220.612753613855
 20
-101.24320576723
 30
0.0
 11
-217.714976140645
 21
-100.466748610811
 31
0.0
  0
LINE
  5
   137
  8
0
  6
CONTINUOUS
 62
     3
 10
-217.714976140645
 20
-100.466748610811
 30
0.0
 11
-220.612753613855
 21
-99.6902914543929
 31
0.0
  0
ENDBLK
  5
   138
  8
0
  6
CONTINUOUS
 62
     7
  0
BLOCK
  5
   139
  8
0
  6
CONTINUOUS
 62
     7
  2
*UDIM831
 70
    65
 10
0.0
 20
0.0
 30
0.0
  3
*UDIM831
  0
TEXT
  5
   13A
  8
0
  6
CONTINUOUS
 62
     7
 10
-204.256042982907
 20
-126.011022593989
 30
0.0
 40
2.99999994933605
  1
91
 50
359.999999844103
 41
0.933333333333333
 72
     1
 11
-201.756043021053
 21
-124.51102262611
 31
0.0
 73
     2
  0
LINE
  5
   13B
  8
0
  6
CONTINUOUS
 62
     3
 10
-238.127105656235
 20
-88.7010966556215
 30
0.0
 11
-238.127105656235
 21
-129.011022600778
 31
0.0
  0
LINE
  5
   13C
  8
0
  6
CONTINUOUS
 62
     3
 10
-165.384980385871
 20
-23.5630445311603
 30
0.0
 11
-165.384980385871
 21
-129.011022600778
 31
0.0
  0
LINE
  5
   13D
  8
0
  6
CONTINUOUS
 62
     3
 10
-238.127105656235
 20
-127.011022600778
 30
0.0
 11
-165.384980385871
 21
-127.011022600778
 31
0.0
  0
LINE
  5
   13E
  8
0
  6
CONTINUOUS
 62
     3
 10
-235.229328183025
 20
-126.23456544436
 30
0.0
 11
-238.127105656235
 21
-127.011022600778
 31
0.0
  0
LINE
  5
   13F
  8
0
  6
CONTINUOUS
 62
     3
 10
-238.127105656235
 20
-127.011022600778
 30
0.0
 11
-235.229328183025
 21
-127.787479757197
 31
0.0
  0
LINE
  5
   140
  8
0
  6
CONTINUOUS
 62
     3
 10
-168.282757859081
 20
-127.787479757197
 30
0.0
 11
-165.384980385871
 21
-127.011022600778
 31
0.0
  0
LINE
  5
   141
  8
0
  6
CONTINUOUS
 62
     3
 10
-165.384980385871
 20
-127.011022600778
 30
0.0
 11
-168.282757859081
 21
-126.23456544436
 31
0.0
  0
ENDBLK
  5
   142
  8
0
  6
CONTINUOUS
 62
     7
  0
BLOCK
  5
   143
  8
0
  6
CONTINUOUS
 62
     3
  2
*UDIM832
 70
    65
 10
0.0
 20
0.0
 30
0.0
  3
*UDIM832
  0
TEXT
  5
   144
  8
0
  6
CONTINUOUS
 62
     3
 10
-212.062943546878
 20
96.2369720945666
 30
0.0
 40
2.99999994933605
  1
71
 50
359.999999844103
 41
0.933333333333333
 72
     1
 11
-209.562943585024
 21
97.7369720624449
 31
0.0
 73
     2
  0
LINE
  5
   145
  8
0
  6
CONTINUOUS
 62
     3
 10
-238.127105300197
 20
82.6265592873096
 30
0.0
 11
-238.127105300197
 21
97.2369720877769
 31
0.0
  0
LINE
  5
   146
  8
0
  6
CONTINUOUS
 62
     3
 10
-181.727109393446
 20
59.9396420009325
 30
0.0
 11
-181.727109393446
 21
97.2369720877769
 31
0.0
  0
LINE
  5
   147
  8
0
  6
CONTINUOUS
 62
     3
 10
-238.127105300197
 20
95.2369720877769
 30
0.0
 11
-181.727109393446
 21
95.2369720877769
 31
0.0
  0
LINE
  5
   148
  8
0
  6
CONTINUOUS
 62
     3
 10
-235.17268202299
 20
95.7579165177285
 30
0.0
 11
-238.127105300197
 21
95.2369720877769
 31
0.0
  0
LINE
  5
   149
  8
0
  6
CONTINUOUS
 62
     3
 10
-238.127105300197
 20
95.2369720877769
 30
0.0
 11
-235.17268202299
 21
94.7160276578252
 31
0.0
  0
LINE
  5
   14A
  8
0
  6
CONTINUOUS
 62
     3
 10
-184.681532670653
 20
94.7160276578252
 30
0.0
 11
-181.727109393446
 21
95.2369720877769
 31
0.0
  0
LINE
  5
   14B
  8
0
  6
CONTINUOUS
 62
     3
 10
-181.727109393446
 20
95.2369720877769
 30
0.0
 11
-184.681532670653
 21
95.7579165177285
 31
0.0
  0
ENDBLK
  5
   14C
  8
0
  6
CONTINUOUS
 62
     3
  0
BLOCK
  5
   14D
  8
0
  6
CONTINUOUS
 62
     3
  2
*UDIM833
 70
    65
 10
0.0
 20
0.0
 30
0.0
  3
*UDIM833
  0
TEXT
  5
   14E
  8
0
  6
CONTINUOUS
 62
     3
 10
-178.913235851587
 20
96.2369721059733
 30
0.0
 40
2.99999994933605
  1
1.5-2
 50
359.999999844103
 41
0.933333333333333
 72
     1
 11
-172.213235960663
 21
97.7369720624449
 31
0.0
 73
     2
  0
LINE
  5
   14F
  8
0
  6
CONTINUOUS
 62
     3
 10
-181.727109393446
 20
59.9396420009325
 30
0.0
 11
-181.727109393446
 21
97.2369720877769
 31
0.0
  0
LINE
  5
   150
  8
0
  6
CONTINUOUS
 62
     3
 10
-180.527109375565
 20
59.9396420009325
 30
0.0
 11
-180.527109375565
 21
97.2369720877769
 31
0.0
  0
LINE
  5
   151
  8
0
  6
CONTINUOUS
 62
     3
 10
-181.727109393446
 20
95.2369720877769
 30
0.0
 11
-165.513236073813
 21
95.2369720877769
 31
0.0
  0
LINE
  5
   152
  8
0
  6
CONTINUOUS
 62
     3
 10
-184.681532670653
 20
94.7160276578252
 30
0.0
 11
-181.727109393446
 21
95.2369720877769
 31
0.0
  0
LINE
  5
   153
  8
0
  6
CONTINUOUS
 62
     3
 10
-181.727109393446
 20
95.2369720877769
 30
0.0
 11
-184.681532670653
 21
95.7579165177285
 31
0.0
  0
LINE
  5
   154
  8
0
  6
CONTINUOUS
 62
     3
 10
-177.572686098358
 20
95.7579165177285
 30
0.0
 11
-180.527109375565
 21
95.2369720877769
 31
0.0
  0
LINE
  5
   155
  8
0
  6
CONTINUOUS
 62
     3
 10
-180.527109375565
 20
95.2369720877769
 30
0.0
 11
-177.572686098358
 21
94.7160276578252
 31
0.0
  0
ENDBLK
  5
   156
  8
0
  6
CONTINUOUS
 62
     3
  0
BLOCK
  5
   157
  8
0
  6
CONTINUOUS
 62
     3
  2
*UDIM834
 70
    65
 10
0.0
 20
0.0
 30
0.0
  3
*UDIM834
  0
TEXT
  5
   158
  8
0
  6
CONTINUOUS
 62
     3
 10
-155.98323082789
 20
-10.7484298544364
 30
0.0
 40
2.99999994933605
  1
45
 50
449.999999844103
 41
0.933333333333333
 72
     1
 11
-157.483230795771
 21
-8.24842989258446
 31
0.0
 73
     2
  0
LINE
  5
   159
  8
0
  6
CONTINUOUS
 62
     3
 10
-177.127115252583
 20
10.026570427418
 30
0.0
 11
-152.983230821103
 21
10.026570427418
 31
0.0
  0
LINE
  5
   15A
  8
0
  6
CONTINUOUS
 62
     3
 10
-177.127115252583
 20
-25.9734301090238
 30
0.0
 11
-152.983230821103
 21
-25.9734301090238
 31
0.0
  0
LINE
  5
   15B
  8
0
  6
CONTINUOUS
 62
     3
 10
-154.983230821103
 20
10.026570427418
 30
0.0
 11
-154.983230821103
 21
-25.9734301090238
 31
0.0
  0
LINE
  5
   15C
  8
0
  6
CONTINUOUS
 62
     3
 10
-154.462286391152
 20
7.07214715021101
 30
0.0
 11
-154.983230821103
 21
10.026570427418
 31
0.0
  0
LINE
  5
   15D
  8
0
  6
CONTINUOUS
 62
     3
 10
-154.983230821103
 20
10.026570427418
 30
0.0
 11
-155.504175251055
 21
7.07214715021101
 31
0.0
  0
LINE
  5
   15E
  8
0
  6
CONTINUOUS
 62
     3
 10
-155.504175251055
 20
-23.0190068318169
 30
0.0
 11
-154.983230821103
 21
-25.9734301090238
 31
0.0
  0
LINE
  5
   15F
  8
0
  6
CONTINUOUS
 62
     3
 10
-154.983230821103
 20
-25.9734301090238
 30
0.0
 11
-154.462286391152
 21
-23.0190068318169
 31
0.0
  0
ENDBLK
  5
   160
  8
0
  6
CONTINUOUS
 62
     3
  0
ENDSEC
  0
SECTION
  2
ENTITIES
  0
LINE
  5
   161
  8
0
  6
CONTINUOUS
 62
     7
 10
-295.274688105738
 20
29.4266262203467
 30
0.0
 11
-295.274688105738
 21
-24.0610915753134
 31
0.0
  0
LINE
  5
   162
  8
0
  6
CONTINUOUS
 62
     7
 10
-367.074689175641
 20
-46.3733749091613
 30
0.0
 11
-340.299999702153
 21
-46.3733749091613
 31
0.0
  0
LINE
  5
   163
  8
0
  6
CONTINUOUS
 62
     7
 10
-368.074689190542
 20
29.4266262203467
 30
0.0
 11
-368.074689190542
 21
-45.3733748942602
 31
0.0
  0
LINE
  5
   164
  8
0
  6
CONTINUOUS
 62
     7
 10
-367.074689175641
 20
30.4266262352479
 30
0.0
 11
-296.274688120639
 21
30.4266262352479
 31
0.0
  0
LINE
  5
   165
  8
0
  6
CONTINUOUS
 62
     7
 10
-364.074689130937
 20
-27.173374623059
 30
0.0
 11
-340.299999702153
 21
-27.173374623059
 31
0.0
  0
LINE
  5
   166
  8
0
  6
CONTINUOUS
 62
     7
 10
-364.074689130937
 20
11.2266259491456
 30
0.0
 11
-299.274688165342
 21
11.2266259491456
 31
0.0
  0
LINE
  5
   167
  8
0
  6
CONTINUOUS
 62
     7
 10
-364.474689136898
 20
30.4266262352479
 30
0.0
 11
-364.474689136898
 21
-46.3733749091613
 31
0.0
  0
LINE
  5
   168
  8
0
  6
CONTINUOUS
 62
     7
 10
-363.674689124977
 20
19.6266260743153
 30
0.0
 11
-363.674689124977
 21
11.2266259491456
 31
0.0
  0
LINE
  5
   169
  8
0
  6
CONTINUOUS
 62
     7
 10
-363.674689124977
 20
-27.173374623059
 30
0.0
 11
-363.674689124977
 21
-35.5733747482288
 31
0.0
  0
LINE
  5
   16A
  8
0
  6
CONTINUOUS
 62
     7
 10
-363.674689124977
 20
-36.3733747601497
 30
0.0
 11
-363.674689124977
 21
-46.3733749091613
 31
0.0
  0
LINE
  5
   16B
  8
0
  6
CONTINUOUS
 62
     7
 10
-298.874688159382
 20
30.4266262352479
 30
0.0
 11
-298.874688159382
 21
-24.0610915753134
 31
0.0
  0
LINE
  5
   16C
  8
0
  6
CONTINUOUS
 62
     7
 10
-299.674688171303
 20
19.6266260743153
 30
0.0
 11
-299.674688171303
 21
11.2266259491456
 31
0.0
  0
LINE
  5
   16D
  8
0
  6
CONTINUOUS
 62
     7
 10
-364.474689136898
 20
20.4266260862362
 30
0.0
 11
-298.874688159382
 21
20.4266260862362
 31
0.0
  0
LINE
  5
   16E
  8
0
  6
CONTINUOUS
 62
     7
 10
-363.674689124977
 20
19.6266260743153
 30
0.0
 11
-299.674688171303
 21
19.6266260743153
 31
0.0
  0
LINE
  5
   16F
  8
0
  6
CONTINUOUS
 62
     7
 10
-363.674689124977
 20
-36.3733747601497
 30
0.0
 11
-340.299999702153
 21
-36.3733747601497
 31
0.0
  0
LINE
  5
   170
  8
0
  6
CONTINUOUS
 62
     7
 10
-363.674689124977
 20
-35.5733747482288
 30
0.0
 11
-340.299999702153
 21
-35.5733747482288
 31
0.0
  0
LINE
  5
   171
  8
0
  6
CONTINUOUS
 62
     7
 10
-364.474689136898
 20
26.0266261696827
 30
0.0
 11
-364.234686691915
 21
26.0266261696827
 31
0.0
  0
LINE
  5
   172
  8
0
  6
CONTINUOUS
 62
     7
 10
-364.474689136898
 20
24.8266261518014
 30
0.0
 11
-364.234686691915
 21
24.8266261518014
 31
0.0
  0
LINE
  5
   173
  8
0
  6
CONTINUOUS
 62
     7
 10
-299.114688315546
 20
26.0266261696827
 30
0.0
 11
-298.874688159382
 21
26.0266261696827
 31
0.0
  0
LINE
  5
   174
  8
0
  6
CONTINUOUS
 62
     7
 10
-299.114688315546
 20
24.8266261518014
 30
0.0
 11
-298.874688159382
 21
24.8266261518014
 31
0.0
  0
ARC
  5
   175
  8
0
  6
CONTINUOUS
 62
     7
 10
-364.234718646057
 20
25.4266062263782
 30
0.0
 40
0.600034768493958
 50
270.002994716444
 51
449.997011754257
  0
ARC
  5
   176
  8
0
  6
CONTINUOUS
 62
     7
 10
-299.114676425052
 20
25.4266217526377
 30
0.0
 40
0.600011961091972
 50
450.001135501493
 51
629.998857587167
  0
ARC
  5
   177
  8
0
  6
CONTINUOUS
 62
     7
 10
-296.274688120639
 20
29.4266262203467
 30
0.0
 40
1.00000001490116
 50
359.999999844103
 51
449.999999844103
  0
ARC
  5
   178
  8
0
  6
CONTINUOUS
 62
     7
 10
-367.074689175641
 20
29.4266262203467
 30
0.0
 40
1.00000001490116
 50
449.999999844103
 51
539.999999844103
  0
ARC
  5
   179
  8
0
  6
CONTINUOUS
 62
     7
 10
-367.074689175641
 20
-45.3733748942602
 30
0.0
 40
1.00000001490116
 50
539.999999844103
 51
629.999999844103
  0
LINE
  5
   17A
  8
0
  6
CONTINUOUS
 62
     7
 10
-299.274688165342
 20
11.2266259491456
 30
0.0
 11
-299.274688165342
 21
-24.0610915753134
 31
0.0
  0
LINE
  5
   17B
  8
0
  6
CONTINUOUS
 62
     7
 10
-364.074689130937
 20
11.2266259491456
 30
0.0
 11
-364.074689130937
 21
-27.173374623059
 31
0.0
  0
LINE
  5
   17C
  8
0
  6
CONTINUOUS
 62
   130
 10
-285.344329833984
 20
-9.97345447540283
 30
0.0
 11
-285.344329833984
 21
-9.97345447540283
 31
0.0
  0
LINE
  5
   17D
  8
0
  6
CONTINUOUS
 62
   130
 10
-285.344329833984
 20
-9.97345447540283
 30
0.0
 11
-285.344329833984
 21
-9.97345447540283
 31
0.0
  0
LINE
  5
   17E
  8
0
  6
CONTINUOUS
 62
   130
 10
-285.344329833984
 20
-9.97345447540283
 30
0.0
 11
-285.344329833984
 21
-9.97345447540283
 31
0.0
  0
LINE
  5
   17F
  8
0
  6
CONTINUOUS
 62
   130
 10
-285.344329833984
 20
-9.97345447540283
 30
0.0
 11
-285.344329833984
 21
-9.97345447540283
 31
0.0
  0
LINE
  5
   180
  8
0
  6
CONTINUOUS
 62
   130
 10
-285.344329833984
 20
-9.97345447540283
 30
0.0
 11
-285.344329833984
 21
-9.97345447540283
 31
0.0
  0
LINE
  5
   181
  8
0
  6
CONTINUOUS
 62
   130
 10
-285.344329833984
 20
-9.97345447540283
 30
0.0
 11
-285.344329833984
 21
-9.97345447540283
 31
0.0
  0
LINE
  5
   182
  8
0
  6
CONTINUOUS
 62
   130
 10
-285.344329833984
 20
-9.97345447540283
 30
0.0
 11
-285.344329833984
 21
-9.97345447540283
 31
0.0
  0
LINE
  5
   183
  8
0
  6
CONTINUOUS
 62
   130
 10
-285.344329833984
 20
-9.97345447540283
 30
0.0
 11
-285.344329833984
 21
-9.97345447540283
 31
0.0
  0
LINE
  5
   184
  8
0
  6
CONTINUOUS
 62
   130
 10
-362.874593867689
 20
80.8265467555544
 30
0.0
 11
-362.874586177273
 21
30.4266262352479
 31
0.0
  0
LINE
  5
   185
  8
0
  6
CONTINUOUS
 62
   130
 10
-362.874577571309
 20
-25.9734302997531
 30
0.0
 11
-331.674601520455
 21
-25.9734302997531
 31
0.0
  0
LINE
  5
   186
  8
0
  6
CONTINUOUS
 62
   130
 10
-362.874583064472
 20
10.0265702366792
 30
0.0
 11
-331.674607013618
 21
10.0265702366792
 31
0.0
  0
LINE
  5
   187
  8
0
  6
CONTINUOUS
 62
   130
 10
-337.674616003049
 20
3.33537288994484
 30
0.0
 11
-326.359059398123
 21
3.33537288994484
 31
0.0
  0
LINE
  5
   188
  8
0
  6
CONTINUOUS
 62
   130
 10
-337.674616059934
 20
4.82657015919318
 30
0.0
 11
-337.674615238649
 21
-16.7029107973244
 31
0.0
  0
LINE
  5
   189
  8
0
  6
CONTINUOUS
 62
   130
 10
-337.674615238649
 20
-16.7029107973244
 30
0.0
 11
-336.874615226728
 21
-16.7029107973244
 31
0.0
  0
LINE
  5
   18A
  8
0
  6
CONTINUOUS
 62
   130
 10
-337.67461525013
 20
-16.4019480046846
 30
0.0
 11
-336.874615238209
 21
-16.4019480046846
 31
0.0
  0
LINE
  5
   18B
  8
0
  6
CONTINUOUS
 62
   130
 10
-362.87458208791
 20
3.62657014131179
 30
0.0
 11
-337.674616014158
 21
3.62657014131179
 31
0.0
  0
LINE
  5
   18C
  8
0
  6
CONTINUOUS
 62
   130
 10
-362.874578364766
 20
-20.773430222267
 30
0.0
 11
-352.154602435981
 21
-20.773430222267
 31
0.0
  0
LINE
  5
   18D
  8
0
  6
CONTINUOUS
 62
   130
 10
-362.874578547872
 20
-19.5734302043856
 30
0.0
 11
-336.874615117227
 21
-19.5734302043856
 31
0.0
  0
LINE
  5
   18E
  8
0
  6
CONTINUOUS
 62
   130
 10
-344.154602316772
 20
-20.773430222267
 30
0.0
 11
-300.474629558954
 21
-20.773430222267
 31
0.0
  0
LINE
  5
   18F
  8
0
  6
CONTINUOUS
 62
   130
 10
-336.874615385182
 20
-12.5491546952679
 30
0.0
 11
-336.874615128437
 21
-19.2795637525758
 31
0.0
  0
LINE
  5
   190
  8
0
  6
CONTINUOUS
 62
   130
 10
-285.344329833984
 20
-9.97345447540283
 30
0.0
 11
-285.344329833984
 21
-9.97345447540283
 31
0.0
  0
LINE
  5
   191
  8
0
  6
CONTINUOUS
 62
   130
 10
-285.344329833984
 20
-9.97345447540283
 30
0.0
 11
-285.344329833984
 21
-9.97345447540283
 31
0.0
  0
LINE
  5
   192
  8
0
  6
CONTINUOUS
 62
   130
 10
-285.344329833984
 20
-9.97345447540283
 30
0.0
 11
-285.344329833984
 21
-9.97345447540283
 31
0.0
  0
LINE
  5
   193
  8
0
  6
CONTINUOUS
 62
   130
 10
-285.344329833984
 20
-9.97345447540283
 30
0.0
 11
-285.344329833984
 21
-9.97345447540283
 31
0.0
  0
LINE
  5
   194
  8
0
  6
CONTINUOUS
 62
   130
 10
-285.344329833984
 20
-9.97345447540283
 30
0.0
 11
-285.344329833984
 21
-9.97345447540283
 31
0.0
  0
LINE
  5
   195
  8
0
  6
CONTINUOUS
 62
   130
 10
-285.344329833984
 20
-9.97345447540283
 30
0.0
 11
-285.344329833984
 21
-9.97345447540283
 31
0.0
  0
LINE
  5
   196
  8
0
  6
CONTINUOUS
 62
   130
 10
-285.344329833984
 20
-9.97345447540283
 30
0.0
 11
-285.344329833984
 21
-9.97345447540283
 31
0.0
  0
LINE
  5
   197
  8
0
  6
CONTINUOUS
 62
   130
 10
-362.074611739069
 20
38.0265368274412
 30
0.0
 11
-362.074611555963
 21
36.8265368095598
 31
0.0
  0
LINE
  5
   198
  8
0
  6
CONTINUOUS
 62
   130
 10
-362.074611739069
 20
38.0265368274412
 30
0.0
 11
-331.674627798517
 21
38.0265368274412
 31
0.0
  0
LINE
  5
   199
  8
0
  6
CONTINUOUS
 62
   130
 10
-362.874587153822
 20
36.8265368095598
 30
0.0
 11
-331.674603961859
 21
36.8265368095598
 31
0.0
  0
LINE
  5
   19A
  8
0
  6
CONTINUOUS
 62
   130
 10
-285.344329833984
 20
-9.97345447540283
 30
0.0
 11
-285.344329833984
 21
-9.97345447540283
 31
0.0
  0
LINE
  5
   19B
  8
0
  6
CONTINUOUS
 62
   130
 10
-285.344329833984
 20
-9.97345447540283
 30
0.0
 11
-285.344329833984
 21
-9.97345447540283
 31
0.0
  0
LINE
  5
   19C
  8
0
  6
CONTINUOUS
 62
   130
 10
-285.344329833984
 20
-9.97345447540283
 30
0.0
 11
-285.344329833984
 21
-9.97345447540283
 31
0.0
  0
LINE
  5
   19D
  8
0
  6
CONTINUOUS
 62
   130
 10
-285.344329833984
 20
-9.97345447540283
 30
0.0
 11
-285.344329833984
 21
-9.97345447540283
 31
0.0
  0
LINE
  5
   19E
  8
0
  6
CONTINUOUS
 62
   130
 10
-285.344329833984
 20
-9.97345447540283
 30
0.0
 11
-285.344329833984
 21
-9.97345447540283
 31
0.0
  0
LINE
  5
   19F
  8
0
  6
CONTINUOUS
 62
   130
 10
-285.344329833984
 20
-9.97345447540283
 30
0.0
 11
-285.344329833984
 21
-9.97345447540283
 31
0.0
  0
LINE
  5
   1A0
  8
0
  6
CONTINUOUS
 62
   130
 10
-285.344329833984
 20
-9.97345447540283
 30
0.0
 11
-285.344329833984
 21
-9.97345447540283
 31
0.0
  0
LINE
  5
   1A1
  8
0
  6
CONTINUOUS
 62
   130
 10
-285.344329833984
 20
-9.97345447540283
 30
0.0
 11
-285.344329833984
 21
-9.97345447540283
 31
0.0
  0
LINE
  5
   1A2
  8
0
  6
CONTINUOUS
 62
   130
 10
-362.074578963195
 20
-78.373443287609
 30
0.0
 11
-301.274638237867
 21
-78.373443287609
 31
0.0
  0
LINE
  5
   1A3
  8
0
  6
CONTINUOUS
 62
   130
 10
-300.474614056031
 20
80.826546755553
 30
0.0
 11
-300.474621746447
 21
30.4266262352479
 31
0.0
  0
LINE
  5
   1A4
  8
0
  6
CONTINUOUS
 62
   130
 10
-326.474591932591
 20
3.33537288994484
 30
0.0
 11
-325.67459192067
 21
3.33537288994484
 31
0.0
  0
LINE
  5
   1A5
  8
0
  6
CONTINUOUS
 62
   130
 10
-325.674591863786
 20
4.82657015919318
 30
0.0
 11
-325.674592685071
 21
-16.7029107973244
 31
0.0
  0
LINE
  5
   1A6
  8
0
  6
CONTINUOUS
 62
   130
 10
-326.474592696992
 20
-16.7029107973244
 30
0.0
 11
-325.674592685071
 21
-16.7029107973244
 31
0.0
  0
LINE
  5
   1A7
  8
0
  6
CONTINUOUS
 62
   130
 10
-326.474592685511
 20
-16.4019480046846
 30
0.0
 11
-325.67459267359
 21
-16.4019480046846
 31
0.0
  0
LINE
  5
   1A8
  8
0
  6
CONTINUOUS
 62
   130
 10
-362.874582271015
 20
4.82657015919318
 30
0.0
 11
-300.474625652705
 21
4.82657015919318
 31
0.0
  0
LINE
  5
   1A9
  8
0
  6
CONTINUOUS
 62
   130
 10
-325.674591909562
 20
3.62657014131179
 30
0.0
 11
-300.47462583581
 21
3.62657014131179
 31
0.0
  0
LINE
  5
   1AA
  8
0
  6
CONTINUOUS
 62
   130
 10
-326.474592538538
 20
-12.5491546952679
 30
0.0
 11
-326.474592795283
 21
-19.2795637525758
 31
0.0
  0
LINE
  5
   1AB
  8
0
  6
CONTINUOUS
 62
   130
 10
-285.344329833984
 20
-9.97345447540283
 30
0.0
 11
-285.344329833984
 21
-9.97345447540283
 31
0.0
  0
LINE
  5
   1AC
  8
0
  6
CONTINUOUS
 62
   130
 10
-285.344329833984
 20
-9.97345447540283
 30
0.0
 11
-285.344329833984
 21
-9.97345447540283
 31
0.0
  0
LINE
  5
   1AD
  8
0
  6
CONTINUOUS
 62
   130
 10
-285.344329833984
 20
-9.97345447540283
 30
0.0
 11
-285.344329833984
 21
-9.97345447540283
 31
0.0
  0
LINE
  5
   1AE
  8
0
  6
CONTINUOUS
 62
   130
 10
-285.344329833984
 20
-9.97345447540283
 30
0.0
 11
-285.344329833984
 21
-9.97345447540283
 31
0.0
  0
LINE
  5
   1AF
  8
0
  6
CONTINUOUS
 62
   130
 10
-285.344329833984
 20
-9.97345447540283
 30
0.0
 11
-285.344329833984
 21
-9.97345447540283
 31
0.0
  0
LINE
  5
   1B0
  8
0
  6
CONTINUOUS
 62
   130
 10
-285.344329833984
 20
-9.97345447540283
 30
0.0
 11
-285.344329833984
 21
-9.97345447540283
 31
0.0
  0
LINE
  5
   1B1
  8
0
  6
CONTINUOUS
 62
   130
 10
-285.344329833984
 20
-9.97345447540283
 30
0.0
 11
-285.344329833984
 21
-9.97345447540283
 31
0.0
  0
LINE
  5
   1B2
  8
0
  6
CONTINUOUS
 62
   130
 10
-331.674609302437
 20
-34.7734398433005
 30
0.0
 11
-301.274596184651
 21
-34.7734398433005
 31
0.0
  0
LINE
  5
   1B3
  8
0
  6
CONTINUOUS
 62
   130
 10
-331.674592576373
 20
-33.5734398254191
 30
0.0
 11
-300.47463151208
 21
-33.5734398254191
 31
0.0
  0
LINE
  5
   1B4
  8
0
  6
CONTINUOUS
 62
   130
 10
-301.274596367757
 20
-33.5734398254191
 30
0.0
 11
-301.274596184651
 21
-34.7734398433005
 31
0.0
  0
LINE
  5
   1B5
  8
0
  6
CONTINUOUS
 62
   130
 10
-301.274596184651
 20
38.0265368274412
 30
0.0
 11
-301.274596367757
 21
36.8265368095598
 31
0.0
  0
LINE
  5
   1B6
  8
0
  6
CONTINUOUS
 62
   130
 10
-331.674580125203
 20
38.0265368274412
 30
0.0
 11
-301.274596184651
 21
38.0265368274412
 31
0.0
  0
LINE
  5
   1B7
  8
0
  6
CONTINUOUS
 62
   130
 10
-331.674603961861
 20
36.8265368095598
 30
0.0
 11
-300.474620769898
 21
36.8265368095598
 31
0.0
  0
LINE
  5
   1B8
  8
0
  6
DASHDOT
 62
   130
 10
-331.674580125203
 20
53.4443657372424
 30
0.0
 11
-331.674580125203
 21
-30.2635679741336
 31
0.0
  0
LINE
  5
   1B9
  8
0
  6
DASHDOT
 62
   130
 10
-351.67462809654
 20
52.9865531613665
 30
0.0
 11
-351.67462809654
 21
32.1865528514224
 31
0.0
  0
LINE
  5
   1BA
  8
0
  6
DASHDOT
 62
   130
 10
-311.67457982718
 20
52.9865531613665
 30
0.0
 11
-311.67457982718
 21
32.1865528514224
 31
0.0
  0
LINE
  5
   1BB
  8
0
  6
CONTINUOUS
 62
   130
 10
-336.874615385182
 20
-12.5491546952679
 30
0.0
 11
-326.474592538538
 21
-12.5491546952679
 31
0.0
  0
LINE
  5
   1BC
  8
0
  6
CONTINUOUS
 62
   130
 10
-336.474615196244
 20
-16.9457916861962
 30
0.0
 11
-326.874592727476
 21
-16.9457916861962
 31
0.0
  0
LINE
  5
   1BD
  8
0
  6
CONTINUOUS
 62
   130
 10
-336.474615122476
 20
-19.6795637432774
 30
0.0
 11
-326.874592801244
 21
-19.6795637432774
 31
0.0
  0
LINE
  5
   1BE
  8
0
  6
CONTINUOUS
 62
   130
 10
-326.474592806493
 20
-19.5734302043856
 30
0.0
 11
-300.474629375849
 21
-19.5734302043856
 31
0.0
  0
ARC
  5
   1BF
  8
0
  6
CONTINUOUS
 62
   130
 10
-336.474615122476
 20
-19.279563737317
 30
0.0
 40
0.400000005960464
 50
540.000002029765
 51
629.999999844103
  0
ARC
  5
   1C0
  8
0
  6
CONTINUOUS
 62
   130
 10
-326.874592801244
 20
-19.279563737317
 30
0.0
 40
0.400000005960464
 50
269.999999844103
 51
359.999997658442
  0
ARC
  5
   1C1
  8
0
  6
CONTINUOUS
 62
   130
 10
-326.874592727476
 20
-17.3457916921567
 30
0.0
 40
0.400000005960464
 50
359.999997658442
 51
449.999999844103
  0
ARC
  5
   1C2
  8
0
  6
CONTINUOUS
 62
   130
 10
-336.474615196244
 20
-17.3457916921567
 30
0.0
 40
0.400000005960464
 50
449.999999844103
 51
540.000002029765
  0
LINE
  5
   1C3
  8
0
  6
CONTINUOUS
 62
   130
 10
-331.674606403265
 20
-25.9734302997531
 30
0.0
 11
-300.474630352411
 21
-25.9734302997531
 31
0.0
  0
LINE
  5
   1C4
  8
0
  6
CONTINUOUS
 62
   130
 10
-331.674600910102
 20
10.0265702366792
 30
0.0
 11
-300.474624859248
 21
10.0265702366792
 31
0.0
  0
LINE
  5
   1C5
  8
0
  6
DASHDOT
 62
   130
 10
-371.466029024159
 20
-7.97343003154168
 30
0.0
 11
-289.276723274711
 21
-7.97343003154168
 31
0.0
  0
LINE
  5
   1C6
  8
0
  6
CONTINUOUS
 62
   130
 10
-342.689569946308
 20
1.91148758869733
 30
0.0
 11
-342.089569937367
 21
1.91148758869733
 31
0.0
  0
LINE
  5
   1C7
  8
0
  6
CONTINUOUS
 62
   130
 10
-342.689569946308
 20
-1.68851246494685
 30
0.0
 11
-342.089569937367
 21
-1.68851246494685
 31
0.0
  0
CIRCLE
  5
   1C8
  8
0
  6
CONTINUOUS
 62
   130
 10
-342.389569941837
 20
-13.2885126378003
 30
0.0
 40
1.80000002682209
  0
CIRCLE
  5
   1C9
  8
0
  6
CONTINUOUS
 62
   130
 10
-342.389569941837
 20
-13.2885126378003
 30
0.0
 40
1.20000001788139
  0
LINE
  5
   1CA
  8
0
  6
CONTINUOUS
 62
   130
 10
-342.689569946308
 20
1.91148758869733
 30
0.0
 11
-342.689569946308
 21
-1.68851246494685
 31
0.0
  0
LINE
  5
   1CB
  8
0
  6
CONTINUOUS
 62
   130
 10
-342.089569937367
 20
1.91148758869733
 30
0.0
 11
-342.089569937367
 21
-1.68851246494685
 31
0.0
  0
LINE
  5
   1CC
  8
0
  6
CONTINUOUS
 62
   130
 10
-319.849573512215
 20
-11.7485126148525
 30
0.0
 11
-319.669573509533
 21
-11.7485126148525
 31
0.0
  0
LINE
  5
   1CD
  8
0
  6
CONTINUOUS
 62
   130
 10
-320.369573519964
 20
-14.8285126607481
 30
0.0
 11
-320.049573515195
 21
-14.8285126607481
 31
0.0
  0
LINE
  5
   1CE
  8
0
  6
CONTINUOUS
 62
   130
 10
-320.849573527116
 20
-13.5885126422706
 30
0.0
 11
-320.849573527116
 21
-13.7885126452509
 31
0.0
  0
ARC
  5
   1CF
  8
0
  6
CONTINUOUS
 62
   130
 10
-321.889573542613
 20
-13.5885126422707
 30
0.0
 40
1.04000001549721
 50
359.999999844103
 51
539.999999844103
  0
ARC
  5
   1D0
  8
0
  6
CONTINUOUS
 62
   130
 10
-321.889573542613
 20
-13.7885126452509
 30
0.0
 40
1.04000001549721
 50
539.999999844103
 51
719.999999844103
  0
ARC
  5
   1D1
  8
0
  6
CONTINUOUS
 62
   130
 10
-321.889573542613
 20
-13.5885126422707
 30
0.0
 40
0.720000010728837
 50
359.999999844103
 51
539.999999844103
  0
ARC
  5
   1D2
  8
0
  6
CONTINUOUS
 62
   130
 10
-321.889573542613
 20
-13.7885126452509
 30
0.0
 40
0.720000010728835
 50
539.999999844103
 51
719.999999844103
  0
LINE
  5
   1D3
  8
0
  6
CONTINUOUS
 62
   130
 10
-321.169573531885
 20
-13.5885126422706
 30
0.0
 11
-321.169573531885
 21
-13.7885126452509
 31
0.0
  0
LINE
  5
   1D4
  8
0
  6
CONTINUOUS
 62
   130
 10
-320.749573525626
 20
-12.7085126291576
 30
0.0
 11
-320.749573525626
 21
-13.028512633926
 31
0.0
  0
LINE
  5
   1D5
  8
0
  6
CONTINUOUS
 62
   130
 10
-320.749573525626
 20
-13.028512633926
 30
0.0
 11
-320.369573519964
 21
-13.028512633926
 31
0.0
  0
LINE
  5
   1D6
  8
0
  6
CONTINUOUS
 62
   130
 10
-319.669573509533
 20
-12.7085126291576
 30
0.0
 11
-319.669573509533
 21
-13.028512633926
 31
0.0
  0
LINE
  5
   1D7
  8
0
  6
CONTINUOUS
 62
   130
 10
-320.749573525626
 20
-12.7085126291576
 30
0.0
 11
-320.369573519964
 21
-12.7085126291576
 31
0.0
  0
LINE
  5
   1D8
  8
0
  6
CONTINUOUS
 62
   130
 10
-320.369573519964
 20
-13.028512633926
 30
0.0
 11
-320.369573519964
 21
-14.8285126607481
 31
0.0
  0
LINE
  5
   1D9
  8
0
  6
CONTINUOUS
 62
   130
 10
-320.049573515195
 20
-13.028512633926
 30
0.0
 11
-320.049573515195
 21
-14.8285126607481
 31
0.0
  0
LINE
  5
   1DA
  8
0
  6
CONTINUOUS
 62
   130
 10
-320.049573515195
 20
-13.028512633926
 30
0.0
 11
-319.669573509533
 21
-13.028512633926
 31
0.0
  0
LINE
  5
   1DB
  8
0
  6
CONTINUOUS
 62
   130
 10
-320.049573515195
 20
-12.7085126291576
 30
0.0
 11
-319.669573509533
 21
-12.7085126291576
 31
0.0
  0
LINE
  5
   1DC
  8
0
  6
CONTINUOUS
 62
   130
 10
-320.369573519964
 20
-12.2685126226011
 30
0.0
 11
-320.369573519964
 21
-12.7085126291576
 31
0.0
  0
LINE
  5
   1DD
  8
0
  6
CONTINUOUS
 62
   130
 10
-320.049573515195
 20
-12.2685126226011
 30
0.0
 11
-320.049573515195
 21
-12.7085126291576
 31
0.0
  0
ARC
  5
   1DE
  8
0
  6
CONTINUOUS
 62
   130
 10
-319.849573512215
 20
-12.2685126226011
 30
0.0
 40
0.520000007748604
 50
449.999999844103
 51
539.999999844103
  0
ARC
  5
   1DF
  8
0
  6
CONTINUOUS
 62
   130
 10
-319.849573512215
 20
-12.2685126226011
 30
0.0
 40
0.200000002980232
 50
449.999999844103
 51
539.999999844103
  0
LINE
  5
   1E0
  8
0
  6
CONTINUOUS
 62
   130
 10
-319.669573509533
 20
-11.7485126148525
 30
0.0
 11
-319.669573509533
 21
-12.0685126196209
 31
0.0
  0
LINE
  5
   1E1
  8
0
  6
CONTINUOUS
 62
   130
 10
-319.849573512215
 20
-12.0685126196209
 30
0.0
 11
-319.669573509533
 21
-12.0685126196209
 31
0.0
  0
LINE
  5
   1E2
  8
0
  6
CONTINUOUS
 62
   130
 10
-319.08957350089
 20
-14.8285126607481
 30
0.0
 11
-318.769573496122
 21
-14.8285126607481
 31
0.0
  0
LINE
  5
   1E3
  8
0
  6
CONTINUOUS
 62
   130
 10
-319.469573506553
 20
-12.7085126291576
 30
0.0
 11
-319.469573506553
 21
-13.028512633926
 31
0.0
  0
LINE
  5
   1E4
  8
0
  6
CONTINUOUS
 62
   130
 10
-319.469573506553
 20
-13.028512633926
 30
0.0
 11
-319.08957350089
 21
-13.028512633926
 31
0.0
  0
LINE
  5
   1E5
  8
0
  6
CONTINUOUS
 62
   130
 10
-318.389573490459
 20
-12.7085126291576
 30
0.0
 11
-318.389573490459
 21
-13.028512633926
 31
0.0
  0
LINE
  5
   1E6
  8
0
  6
CONTINUOUS
 62
   130
 10
-319.469573506553
 20
-12.7085126291576
 30
0.0
 11
-319.08957350089
 21
-12.7085126291576
 31
0.0
  0
LINE
  5
   1E7
  8
0
  6
CONTINUOUS
 62
   130
 10
-319.08957350089
 20
-13.028512633926
 30
0.0
 11
-319.08957350089
 21
-14.8285126607481
 31
0.0
  0
LINE
  5
   1E8
  8
0
  6
CONTINUOUS
 62
   130
 10
-318.769573496122
 20
-13.028512633926
 30
0.0
 11
-318.769573496122
 21
-14.8285126607481
 31
0.0
  0
LINE
  5
   1E9
  8
0
  6
CONTINUOUS
 62
   130
 10
-318.769573496122
 20
-13.028512633926
 30
0.0
 11
-318.389573490459
 21
-13.028512633926
 31
0.0
  0
LINE
  5
   1EA
  8
0
  6
CONTINUOUS
 62
   130
 10
-318.769573496122
 20
-12.7085126291576
 30
0.0
 11
-318.389573490459
 21
-12.7085126291576
 31
0.0
  0
LINE
  5
   1EB
  8
0
  6
CONTINUOUS
 62
   130
 10
-319.08957350089
 20
-12.2685126226011
 30
0.0
 11
-319.08957350089
 21
-12.7085126291576
 31
0.0
  0
LINE
  5
   1EC
  8
0
  6
CONTINUOUS
 62
   130
 10
-318.769573496122
 20
-12.2685126226011
 30
0.0
 11
-318.769573496122
 21
-12.7085126291576
 31
0.0
  0
ARC
  5
   1ED
  8
0
  6
CONTINUOUS
 62
   130
 10
-318.569573493142
 20
-12.2685126226011
 30
0.0
 40
0.520000007748604
 50
449.999999844103
 51
539.999999844103
  0
ARC
  5
   1EE
  8
0
  6
CONTINUOUS
 62
   130
 10
-318.569573493142
 20
-12.2685126226011
 30
0.0
 40
0.200000002980232
 50
449.999999844103
 51
539.999999844103
  0
LINE
  5
   1EF
  8
0
  6
CONTINUOUS
 62
   130
 10
-318.389573490459
 20
-11.7485126148525
 30
0.0
 11
-318.389573490459
 21
-12.0685126196209
 31
0.0
  0
LINE
  5
   1F0
  8
0
  6
CONTINUOUS
 62
   130
 10
-320.529573522348
 20
-1.02851245511208
 30
0.0
 11
-320.20957351758
 21
-1.02851245511208
 31
0.0
  0
ARC
  5
   1F1
  8
0
  6
CONTINUOUS
 62
   130
 10
-321.889573542613
 20
0.211487563365354
 30
0.0
 40
1.04000001549721
 50
359.999999844103
 51
539.999999844103
  0
ARC
  5
   1F2
  8
0
  6
CONTINUOUS
 62
   130
 10
-321.889573542613
 20
0.211487563365354
 30
0.0
 40
0.720000010728837
 50
359.999999844103
 51
539.999999844103
  0
ARC
  5
   1F3
  8
0
  6
CONTINUOUS
 62
   130
 10
-321.889573542613
 20
1.14875603851239E-2
 30
0.0
 40
1.04000001549721
 50
539.999999844103
 51
719.999999844103
  0
ARC
  5
   1F4
  8
0
  6
CONTINUOUS
 62
   130
 10
-321.889573542613
 20
1.14875603851239E-2
 30
0.0
 40
0.720000010728835
 50
539.999999844103
 51
719.999999844103
  0
LINE
  5
   1F5
  8
0
  6
CONTINUOUS
 62
   130
 10
-320.529573522348
 20
1.25148757886258
 30
0.0
 11
-320.529573522348
 21
-1.02851245511206
 31
0.0
  0
LINE
  5
   1F6
  8
0
  6
CONTINUOUS
 62
   130
 10
-320.20957351758
 20
0.371487565749559
 30
0.0
 11
-320.20957351758
 21
-1.02851245511206
 31
0.0
  0
LINE
  5
   1F7
  8
0
  6
CONTINUOUS
 62
   130
 10
-319.08957350089
 20
0.371487565749559
 30
0.0
 11
-319.08957350089
 21
-1.02851245511206
 31
0.0
  0
LINE
  5
   1F8
  8
0
  6
CONTINUOUS
 62
   130
 10
-318.769573496122
 20
0.451487566941653
 30
0.0
 11
-318.769573496122
 21
-1.02851245511206
 31
0.0
  0
LINE
  5
   1F9
  8
0
  6
CONTINUOUS
 62
   130
 10
-320.529573522348
 20
1.25148757886256
 30
0.0
 11
-320.20957351758
 21
1.25148757886256
 31
0.0
  0
ARC
  5
   1FA
  8
0
  6
CONTINUOUS
 62
   130
 10
-319.649573509235
 20
0.371487565749534
 30
0.0
 40
0.56000000834465
 50
359.999999844103
 51
539.999999844103
  0
LINE
  5
   1FB
  8
0
  6
CONTINUOUS
 62
   130
 10
-320.20957351758
 20
1.25148757886258
 30
0.0
 11
-320.20957351758
 21
0.931487574094218
 31
0.0
  0
ARC
  5
   1FC
  8
0
  6
CONTINUOUS
 62
   130
 10
-319.569573508043
 20
0.451487566941628
 30
0.0
 40
0.800000011920929
 50
359.999999844103
 51
503.130102198259
  0
LINE
  5
   1FD
  8
0
  6
CONTINUOUS
 62
   130
 10
-319.08957350089
 20
-1.02851245511208
 30
0.0
 11
-318.769573496122
 21
-1.02851245511208
 31
0.0
  0
LINE
  5
   1FE
  8
0
  6
CONTINUOUS
 62
   130
 10
-320.154913681486
 20
8.95385763900892
 30
0.0
 11
-320.342139039513
 21
8.92084525187205
 31
0.0
  0
LINE
  5
   1FF
  8
0
  6
CONTINUOUS
 62
   130
 10
-320.342127475602
 20
8.92085153635049
 30
0.0
 11
-320.506769798307
 21
8.82579654039563
 31
0.0
  0
LINE
  5
   200
  8
0
  6
CONTINUOUS
 62
   130
 10
-320.50677657087
 20
8.82578959964248
 30
0.0
 11
-320.628975072685
 21
8.6801570285108
 31
0.0
  0
LINE
  5
   201
  8
0
  6
CONTINUOUS
 62
   130
 10
-320.628972792066
 20
8.68015792007969
 30
0.0
 11
-320.693993541422
 21
8.50151297802401
 31
0.0
  0
LINE
  5
   202
  8
0
  6
CONTINUOUS
 62
   130
 10
-320.693999354284
 20
8.5015133030361
 30
0.0
 11
-320.693999354284
 21
8.3114032843341
 31
0.0
  0
LINE
  5
   203
  8
0
  6
CONTINUOUS
 62
   130
 10
-320.693994071246
 20
8.31140522139033
 30
0.0
 11
-320.62897332189
 21
8.13276027933464
 31
0.0
  0
LINE
  5
   204
  8
0
  6
CONTINUOUS
 62
   130
 10
-320.628976169823
 20
8.13275951681192
 30
0.0
 11
-320.506777668008
 21
7.98712694568023
 31
0.0
  0
LINE
  5
   205
  8
0
  6
CONTINUOUS
 62
   130
 10
-320.506767129928
 20
7.98712326537057
 30
0.0
 11
-320.342124807223
 21
7.89206826941571
 31
0.0
  0
LINE
  5
   206
  8
0
  6
CONTINUOUS
 62
   130
 10
-320.342137738179
 20
7.8920706115074
 30
0.0
 11
-320.154912380152
 21
7.85905822437052
 31
0.0
  0
LINE
  5
   207
  8
0
  6
CONTINUOUS
 62
   130
 10
-320.154912432189
 20
7.85905838318446
 30
0.0
 11
-319.971373611094
 21
7.85905838318446
 31
0.0
  0
LINE
  5
   208
  8
0
  6
CONTINUOUS
 62
   130
 10
-319.971363845618
 20
7.85906227624566
 30
0.0
 11
-319.901338221786
 21
7.83630837381649
 31
0.0
  0
LINE
  5
   209
  8
0
  6
CONTINUOUS
 62
   130
 10
-319.901338993981
 20
7.83630819033878
 30
0.0
 11
-319.858058971423
 21
7.77673826597622
 31
0.0
  0
LINE
  5
   20A
  8
0
  6
CONTINUOUS
 62
   130
 10
-319.858067945344
 20
7.77673454467746
 30
0.0
 11
-319.858067945344
 21
7.70310211254998
 31
0.0
  0
LINE
  5
   20B
  8
0
  6
CONTINUOUS
 62
   130
 10
-319.858062170273
 20
7.70310473768517
 30
0.0
 11
-319.90134219283
 21
7.64353481332261
 31
0.0
  0
LINE
  5
   20C
  8
0
  6
CONTINUOUS
 62
   130
 10
-319.901340191788
 20
7.64353481500506
 30
0.0
 11
-319.97136581562
 21
7.62078091257588
 31
0.0
  0
LINE
  5
   20D
  8
0
  6
CONTINUOUS
 62
   130
 10
-320.63791414837
 20
7.62077827404299
 30
0.0
 11
-319.971373611094
 21
7.62077827404299
 31
0.0
  0
LINE
  5
   20E
  8
0
  6
CONTINUOUS
 62
   130
 10
-320.63791414837
 20
7.62077827404299
 30
0.0
 11
-320.63791414837
 21
7.18285865081826
 31
0.0
  0
LINE
  5
   20F
  8
0
  6
CONTINUOUS
 62
   130
 10
-320.63791414837
 20
7.18285865081826
 30
0.0
 11
-319.971373611094
 21
7.18285865081826
 31
0.0
  0
LINE
  5
   210
  8
0
  6
CONTINUOUS
 62
   130
 10
-319.780848189668
 20
7.21645414049091
 30
0.0
 11
-319.971369421897
 21
7.18285963040216
 31
0.0
  0
LINE
  5
   211
  8
0
  6
CONTINUOUS
 62
   130
 10
-319.613302220898
 20
7.31318769465539
 30
0.0
 11
-319.780849854523
 21
7.21645496642831
 31
0.0
  0
LINE
  5
   212
  8
0
  6
CONTINUOUS
 62
   130
 10
-319.488936229709
 20
7.46139128539494
 30
0.0
 11
-319.613295361792
 21
7.31318877852957
 31
0.0
  0
LINE
  5
   213
  8
0
  6
CONTINUOUS
 62
   130
 10
-319.422774073559
 20
7.64318383339939
 30
0.0
 11
-319.488942290038
 21
7.46138639634102
 31
0.0
  0
LINE
  5
   214
  8
0
  6
CONTINUOUS
 62
   130
 10
-319.422777411513
 20
7.83665085111228
 30
0.0
 11
-319.422777411513
 21
7.64318580611517
 31
0.0
  0
LINE
  5
   215
  8
0
  6
CONTINUOUS
 62
   130
 10
-319.488942441867
 20
8.01844941747981
 30
0.0
 11
-319.422774225388
 21
7.83665198042145
 31
0.0
  0
LINE
  5
   216
  8
0
  6
CONTINUOUS
 62
   130
 10
-319.61329946698
 20
8.16665587010291
 30
0.0
 11
-319.488940326558
 21
8.01845296044761
 31
0.0
  0
LINE
  5
   217
  8
0
  6
CONTINUOUS
 62
   130
 10
-319.780853328157
 20
8.26338426438398
 30
0.0
 11
-319.613305702022
 21
8.16665192197644
 31
0.0
  0
LINE
  5
   218
  8
0
  6
CONTINUOUS
 62
   130
 10
-319.971363784016
 20
8.29697726428247
 30
0.0
 11
-319.780842554532
 21
8.26338237348149
 31
0.0
  0
LINE
  5
   219
  8
0
  6
CONTINUOUS
 62
   130
 10
-320.154912432189
 20
8.29697838787892
 30
0.0
 11
-319.971373611094
 21
8.29697838787892
 31
0.0
  0
LINE
  5
   21A
  8
0
  6
CONTINUOUS
 62
   130
 10
-320.21926115632
 20
8.31788901358244
 30
0.0
 11
-320.154905687543
 21
8.29698027692562
 31
0.0
  0
LINE
  5
   21B
  8
0
  6
CONTINUOUS
 62
   130
 10
-320.259036058617
 20
8.37262616187059
 30
0.0
 11
-320.21926555019
 21
8.31788601628562
 31
0.0
  0
LINE
  5
   21C
  8
0
  6
CONTINUOUS
 62
   130
 10
-320.259038410303
 20
8.44028931835915
 30
0.0
 11
-320.259038410303
 21
8.37262726901106
 31
0.0
  0
LINE
  5
   21D
  8
0
  6
CONTINUOUS
 62
   130
 10
-320.219259643041
 20
8.4950276171799
 30
0.0
 11
-320.259030151467
 21
8.44028747159493
 31
0.0
  0
LINE
  5
   21E
  8
0
  6
CONTINUOUS
 62
   130
 10
-320.154903203308
 20
8.51594119076313
 30
0.0
 11
-320.219258672085
 21
8.4950324541063
 31
0.0
  0
LINE
  5
   21F
  8
0
  6
CONTINUOUS
 62
   130
 10
-320.154912432189
 20
8.51593819949128
 30
0.0
 11
-319.47871613305
 21
8.51593819949128
 31
0.0
  0
LINE
  5
   220
  8
0
  6
CONTINUOUS
 62
   130
 10
-319.47871613305
 20
8.95385820418575
 30
0.0
 11
-319.47871613305
 21
8.51593819949128
 31
0.0
  0
LINE
  5
   221
  8
0
  6
CONTINUOUS
 62
   130
 10
-320.154912432189
 20
8.95385820418575
 30
0.0
 11
-319.47871613305
 21
8.95385820418575
 31
0.0
  0
LINE
  5
   222
  8
0
  6
CONTINUOUS
 62
   130
 10
-319.414317938731
 20
7.18285865081826
 30
0.0
 11
-318.958238830373
 21
7.18285865081826
 31
0.0
  0
LINE
  5
   223
  8
0
  6
CONTINUOUS
 62
   130
 10
-318.855194524927
 20
7.53705951995806
 30
0.0
 11
-318.958234074102
 21
7.1828599180951
 31
0.0
  0
LINE
  5
   224
  8
0
  6
CONTINUOUS
 62
   130
 10
-318.855199278056
 20
7.53705825631597
 30
0.0
 11
-318.36342680979
 21
7.53705825631597
 31
0.0
  0
LINE
  5
   225
  8
0
  6
CONTINUOUS
 62
   130
 10
-318.363423038282
 20
7.53705920062378
 30
0.0
 11
-318.260383489108
 21
7.1828595987608
 31
0.0
  0
LINE
  5
   226
  8
0
  6
CONTINUOUS
 62
   130
 10
-318.260387257474
 20
7.18285865081826
 30
0.0
 11
-317.804314252631
 21
7.18285865081826
 31
0.0
  0
LINE
  5
   227
  8
0
  6
CONTINUOUS
 62
   130
 10
-318.319513767461
 20
8.95385847484642
 30
0.0
 11
-317.804309767208
 21
7.18285847282568
 31
0.0
  0
LINE
  5
   228
  8
0
  6
CONTINUOUS
 62
   130
 10
-318.899114073632
 20
8.95385820418575
 30
0.0
 11
-318.31951811773
 21
8.95385820418575
 31
0.0
  0
LINE
  5
   229
  8
0
  6
CONTINUOUS
 62
   130
 10
-318.899111620315
 20
8.95385145777997
 30
0.0
 11
-319.414315620567
 21
7.18285145575923
 31
0.0
  0
LINE
  5
   22A
  8
0
  6
CONTINUOUS
 62
   130
 10
-318.609309538366
 20
8.38229205720622
 30
0.0
 11
-318.490821927412
 21
7.97497831410997
 31
0.0
  0
LINE
  5
   22B
  8
0
  6
CONTINUOUS
 62
   130
 10
-318.727806698033
 20
7.97497826101043
 30
0.0
 11
-318.490825493329
 21
7.97497826101043
 31
0.0
  0
LINE
  5
   22C
  8
0
  6
CONTINUOUS
 62
   130
 10
-318.609305905794
 20
8.38229245598361
 30
0.0
 11
-318.727799551012
 21
7.97497893701539
 31
0.0
  0
LINE
  5
   22D
  8
0
  6
CONTINUOUS
 62
   130
 10
-316.310417921379
 20
8.71176558492234
 30
0.0
 11
-316.153789506594
 21
8.514298915562
 31
0.0
  0
LINE
  5
   22E
  8
0
  6
CONTINUOUS
 62
   130
 10
-316.516323649465
 20
8.85710437804386
 30
0.0
 11
-316.310415455973
 21
8.71176213236587
 31
0.0
  0
LINE
  5
   22F
  8
0
  6
CONTINUOUS
 62
   130
 10
-316.754845882984
 20
8.93854381614848
 30
0.0
 11
-316.51632659436
 21
8.85710118100786
 31
0.0
  0
LINE
  5
   230
  8
0
  6
CONTINUOUS
 62
   130
 10
-317.006645907498
 20
8.94949043707395
 30
0.0
 11
-316.754845359917
 21
8.93854492573281
 31
0.0
  0
LINE
  5
   231
  8
0
  6
CONTINUOUS
 62
   130
 10
-317.00665037989
 20
8.94949089670915
 30
0.0
 11
-317.251340324748
 21
8.88905236145265
 31
0.0
  0
LINE
  5
   232
  8
0
  6
CONTINUOUS
 62
   130
 10
-317.251336486738
 20
8.88905519156833
 30
0.0
 11
-317.469079397082
 21
8.76212876927928
 31
0.0
  0
LINE
  5
   233
  8
0
  6
CONTINUOUS
 62
   130
 10
-317.469082793684
 20
8.76212491821735
 30
0.0
 11
-317.642251739745
 21
8.57899350852622
 31
0.0
  0
LINE
  5
   234
  8
0
  6
CONTINUOUS
 62
   130
 10
-317.642247532295
 20
8.57899710491179
 30
0.0
 11
-317.756804405673
 21
8.35449721195235
 31
0.0
  0
LINE
  5
   235
  8
0
  6
CONTINUOUS
 62
   130
 10
-317.756806400344
 20
8.35449350024828
 30
0.0
 11
-317.803473881492
 21
8.10681244462054
 31
0.0
  0
LINE
  5
   236
  8
0
  6
CONTINUOUS
 62
   130
 10
-317.803473384017
 20
8.10681395498985
 30
0.0
 11
-317.778473395607
 21
7.85601744596581
 31
0.0
  0
LINE
  5
   237
  8
0
  6
CONTINUOUS
 62
   130
 10
-317.778475338136
 20
7.85601803462784
 30
0.0
 11
-317.683828131556
 21
7.62242429323011
 31
0.0
  0
LINE
  5
   238
  8
0
  6
CONTINUOUS
 62
   130
 10
-317.683827665142
 20
7.62242632704901
 30
0.0
 11
-317.543001242607
 21
7.4402688003418
 31
0.0
  0
LINE
  5
   239
  8
0
  6
CONTINUOUS
 62
   130
 10
-317.542998826919
 20
7.4402646253784
 30
0.0
 11
-317.359966598966
 21
7.30057307532367
 31
0.0
  0
LINE
  5
   23A
  8
0
  6
CONTINUOUS
 62
   130
 10
-317.359970332226
 20
7.30057509802947
 30
0.0
 11
-317.147110225552
 21
7.21279433671464
 31
0.0
  0
LINE
  5
   23B
  8
0
  6
CONTINUOUS
 62
   130
 10
-317.147107951954
 20
7.21279327222895
 30
0.0
 11
-316.918812054813
 21
7.18285858064726
 31
0.0
  0
LINE
  5
   23C
  8
0
  6
CONTINUOUS
 62
   130
 10
-316.690512867233
 20
7.21279412771944
 30
0.0
 11
-316.918808764374
 21
7.18285943613775
 31
0.0
  0
LINE
  5
   23D
  8
0
  6
CONTINUOUS
 62
   130
 10
-316.477660021415
 20
7.30057416504694
 30
0.0
 11
-316.69052012809
 21
7.2127934037321
 31
0.0
  0
LINE
  5
   23E
  8
0
  6
CONTINUOUS
 62
   130
 10
-316.294621658561
 20
7.44027032645823
 30
0.0
 11
-316.477653886514
 21
7.30057877640349
 31
0.0
  0
LINE
  5
   23F
  8
0
  6
CONTINUOUS
 62
   130
 10
-316.153790648757
 20
7.62242369579686
 30
0.0
 11
-316.294623168883
 21
7.44026618130689
 31
0.0
  0
LINE
  5
   240
  8
0
  6
CONTINUOUS
 62
   130
 10
-316.53212800467
 20
7.84296028885749
 30
0.0
 11
-316.153789417467
 21
7.62242503746274
 31
0.0
  0
LINE
  5
   241
  8
0
  6
CONTINUOUS
 62
   130
 10
-316.532134818989
 20
7.84295592752968
 30
0.0
 11
-316.632067688389
 21
7.72469343436735
 31
0.0
  0
LINE
  5
   242
  8
0
  6
CONTINUOUS
 62
   130
 10
-316.632065808167
 20
7.72469666453638
 30
0.0
 11
-316.766318765875
 21
7.64755965564541
 31
0.0
  0
LINE
  5
   243
  8
0
  6
CONTINUOUS
 62
   130
 10
-316.766315095236
 20
7.64755907104076
 30
0.0
 11
-316.918811454325
 21
7.62077837052388
 31
0.0
  0
LINE
  5
   244
  8
0
  6
CONTINUOUS
 62
   130
 10
-317.071315406549
 20
7.64755924239042
 30
0.0
 11
-316.918819047459
 21
7.62077854187353
 31
0.0
  0
LINE
  5
   245
  8
0
  6
CONTINUOUS
 62
   130
 10
-317.205565497997
 20
7.72469771800919
 30
0.0
 11
-317.071312540289
 21
7.64756070911822
 31
0.0
  0
LINE
  5
   246
  8
0
  6
CONTINUOUS
 62
   130
 10
-317.305497856671
 20
7.84296096280044
 30
0.0
 11
-317.205564987271
 21
7.72469846963811
 31
0.0
  0
LINE
  5
   247
  8
0
  6
CONTINUOUS
 62
   130
 10
-317.36231650455
 20
8.00809403599087
 30
0.0
 11
-317.305492773319
 21
7.84295997990692
 31
0.0
  0
LINE
  5
   248
  8
0
  6
CONTINUOUS
 62
   130
 10
-317.351615189662
 20
8.18239981342389
 30
0.0
 11
-317.362314653963
 21
8.00809063451343
 31
0.0
  0
LINE
  5
   249
  8
0
  6
CONTINUOUS
 62
   130
 10
-317.275028521667
 20
8.33935031854289
 30
0.0
 11
-317.351615440637
 21
8.18240336329453
 31
0.0
  0
LINE
  5
   24A
  8
0
  6
CONTINUOUS
 62
   130
 10
-317.144211664771
 20
8.45504181005013
 30
0.0
 11
-317.275034430903
 21
8.33935041519157
 31
0.0
  0
LINE
  5
   24B
  8
0
  6
CONTINUOUS
 62
   130
 10
-316.97907980151
 20
8.51186306881581
 30
0.0
 11
-317.144210419197
 21
8.45504086884744
 31
0.0
  0
LINE
  5
   24C
  8
0
  6
CONTINUOUS
 62
   130
 10
-316.979082690039
 20
8.51186143483738
 30
0.0
 11
-316.804772331308
 21
8.50116463943157
 31
0.0
  0
LINE
  5
   24D
  8
0
  6
CONTINUOUS
 62
   130
 10
-316.8047675358
 20
8.50116316130933
 30
0.0
 11
-316.647821713152
 21
8.42457509060895
 31
0.0
  0
LINE
  5
   24E
  8
0
  6
CONTINUOUS
 62
   130
 10
-316.647819612552
 20
8.42458441525021
 30
0.0
 11
-316.532127463327
 21
8.29376547019132
 31
0.0
  0
LINE
  5
   24F
  8
0
  6
CONTINUOUS
 62
   130
 10
-316.153786587067
 20
8.51429902345033
 30
0.0
 11
-316.53212517427
 21
8.29376377205558
 31
0.0
  0
LINE
  5
   250
  8
0
  6
CONTINUOUS
 62
   130
 10
-315.992796891653
 20
8.95385782271601
 30
0.0
 11
-315.992796891653
 21
7.18285865081826
 31
0.0
  0
LINE
  5
   251
  8
0
  6
CONTINUOUS
 62
   130
 10
-315.992796891653
 20
7.18285865081826
 30
0.0
 11
-314.833598876332
 21
7.18285865081826
 31
0.0
  0
LINE
  5
   252
  8
0
  6
CONTINUOUS
 62
   130
 10
-314.833598876332
 20
7.62077827404299
 30
0.0
 11
-314.833598876332
 21
7.18285865081826
 31
0.0
  0
LINE
  5
   253
  8
0
  6
CONTINUOUS
 62
   130
 10
-315.554875742549
 20
7.62077827404299
 30
0.0
 11
-314.833598876332
 21
7.62077827404299
 31
0.0
  0
LINE
  5
   254
  8
0
  6
CONTINUOUS
 62
   130
 10
-315.554875742549
 20
7.84939842515477
 30
0.0
 11
-315.554875742549
 21
7.62077827404299
 31
0.0
  0
LINE
  5
   255
  8
0
  6
CONTINUOUS
 62
   130
 10
-315.554875742549
 20
7.84939842515477
 30
0.0
 11
-314.930199219569
 21
7.84939842515477
 31
0.0
  0
LINE
  5
   256
  8
0
  6
CONTINUOUS
 62
   130
 10
-314.930199219569
 20
8.28731842984923
 30
0.0
 11
-314.930199219569
 21
7.84939842515477
 31
0.0
  0
LINE
  5
   257
  8
0
  6
CONTINUOUS
 62
   130
 10
-315.554875742549
 20
8.28731842984923
 30
0.0
 11
-314.930199219569
 21
8.28731842984923
 31
0.0
  0
LINE
  5
   258
  8
0
  6
CONTINUOUS
 62
   130
 10
-315.554875742549
 20
8.51593817564942
 30
0.0
 11
-315.554875742549
 21
8.28731842984923
 31
0.0
  0
LINE
  5
   259
  8
0
  6
CONTINUOUS
 62
   130
 10
-315.554875742549
 20
8.51593819949128
 30
0.0
 11
-314.833598876332
 21
8.51593819949128
 31
0.0
  0
LINE
  5
   25A
  8
0
  6
CONTINUOUS
 62
   130
 10
-314.833598876332
 20
8.95385820418575
 30
0.0
 11
-314.833598876332
 21
8.51593819949128
 31
0.0
  0
LINE
  5
   25B
  8
0
  6
CONTINUOUS
 62
   130
 10
-315.992796891653
 20
8.95385820418575
 30
0.0
 11
-314.833598876332
 21
8.95385820418575
 31
0.0
  0
LINE
  5
   25C
  8
0
  6
CONTINUOUS
 62
   130
 10
-359.919758205186
 20
9.11767907216415
 30
0.0
 11
-360.282844060771
 21
8.08027694996809
 31
0.0
  0
LINE
  5
   25D
  8
0
  6
CONTINUOUS
 62
   130
 10
-360.282850237765
 20
8.08028001269302
 30
0.0
 11
-359.627161751432
 21
8.08028001269302
 31
0.0
  0
LINE
  5
   25E
  8
0
  6
CONTINUOUS
 62
   130
 10
-359.919764294854
 20
9.11768237190152
 30
0.0
 11
-359.627161751432
 21
9.11768237190152
 31
0.0
  0
LINE
  5
   25F
  8
0
  6
CONTINUOUS
 62
   130
 10
-360.66456411064
 20
6.98968513255029
 30
0.0
 11
-360.132563370291
 21
6.98968513255029
 31
0.0
  0
LINE
  5
   260
  8
0
  6
CONTINUOUS
 62
   130
 10
-359.983596479986
 20
7.41528362738791
 30
0.0
 11
-360.132558878734
 21
6.98968393069461
 31
0.0
  0
LINE
  5
   261
  8
0
  6
CONTINUOUS
 62
   130
 10
-359.983600965727
 20
7.41528480930237
 30
0.0
 11
-359.627161751432
 21
7.41528480930237
 31
0.0
  0
LINE
  5
   262
  8
0
  6
CONTINUOUS
 62
   130
 10
-360.301472064214
 20
8.0270817697128
 30
0.0
 11
-359.627161751432
 21
8.0270817697128
 31
0.0
  0
LINE
  5
   263
  8
0
  6
CONTINUOUS
 62
   130
 10
-360.301467818853
 20
8.02707961163817
 30
0.0
 11
-360.664559756776
 21
6.98968319019287
 31
0.0
  0
LINE
  5
   264
  8
0
  6
CONTINUOUS
 62
   130
 10
-358.899641822774
 20
8.02707946866075
 30
0.0
 11
-358.536549884851
 21
6.98968304721545
 31
0.0
  0
LINE
  5
   265
  8
0
  6
CONTINUOUS
 62
   130
 10
-359.573963508452
 20
8.0270817697128
 30
0.0
 11
-358.899653195669
 21
8.0270817697128
 31
0.0
  0
LINE
  5
   266
  8
0
  6
CONTINUOUS
 62
   130
 10
-359.573963508452
 20
8.0270817697128
 30
0.0
 11
-359.573963508452
 21
7.41528480930237
 31
0.0
  0
LINE
  5
   267
  8
0
  6
CONTINUOUS
 62
   130
 10
-359.573963508452
 20
7.41528480930237
 30
0.0
 11
-359.217524294156
 21
7.41528480930237
 31
0.0
  0
LINE
  5
   268
  8
0
  6
CONTINUOUS
 62
   130
 10
-359.217515027775
 20
7.41528548119675
 30
0.0
 11
-359.068552629027
 21
6.98968578450345
 31
0.0
  0
LINE
  5
   269
  8
0
  6
CONTINUOUS
 62
   130
 10
-359.068561889592
 20
6.98968513255029
 30
0.0
 11
-358.536561149243
 21
6.98968513255029
 31
0.0
  0
LINE
  5
   26A
  8
0
  6
CONTINUOUS
 62
   130
 10
-359.573963508452
 20
9.11768237190152
 30
0.0
 11
-359.281360965029
 21
9.11768237190152
 31
0.0
  0
LINE
  5
   26B
  8
0
  6
CONTINUOUS
 62
   130
 10
-359.573963508452
 20
9.11768237190152
 30
0.0
 11
-359.573963508452
 21
8.08028001269302
 31
0.0
  0
LINE
  5
   26C
  8
0
  6
CONTINUOUS
 62
   130
 10
-359.573963508452
 20
8.08028001269302
 30
0.0
 11
-358.918268918603
 21
8.08028001269302
 31
0.0
  0
LINE
  5
   26D
  8
0
  6
CONTINUOUS
 62
   130
 10
-359.281354855469
 20
9.11768026720232
 30
0.0
 11
-358.918262890434
 21
8.08027799392566
 31
0.0
  0
LINE
  5
   26E
  8
0
  6
CONTINUOUS
 62
   130
 10
-358.403559438277
 20
8.08028001269302
 30
0.0
 11
-357.791761333457
 21
8.08028001269302
 31
0.0
  0
LINE
  5
   26F
  8
0
  6
CONTINUOUS
 62
   130
 10
-357.791761333457
 20
9.11768237190152
 30
0.0
 11
-357.791761333457
 21
8.08028001269302
 31
0.0
  0
LINE
  5
   270
  8
0
  6
CONTINUOUS
 62
   130
 10
-358.403559438277
 20
9.11768237190152
 30
0.0
 11
-357.791761333457
 21
9.11768237190152
 31
0.0
  0
LINE
  5
   271
  8
0
  6
CONTINUOUS
 62
   130
 10
-358.403559438277
 20
6.98968513255029
 30
0.0
 11
-357.791761333457
 21
6.98968513255029
 31
0.0
  0
LINE
  5
   272
  8
0
  6
CONTINUOUS
 62
   130
 10
-357.791761333457
 20
8.0270817697128
 30
0.0
 11
-357.791761333457
 21
6.98968513255029
 31
0.0
  0
LINE
  5
   273
  8
0
  6
CONTINUOUS
 62
   130
 10
-358.403559438277
 20
8.0270817697128
 30
0.0
 11
-357.791761333457
 21
8.0270817697128
 31
0.0
  0
LINE
  5
   274
  8
0
  6
CONTINUOUS
 62
   130
 10
-356.754365077764
 20
9.11768237190152
 30
0.0
 11
-356.754365077764
 21
8.08028001269302
 31
0.0
  0
LINE
  5
   275
  8
0
  6
CONTINUOUS
 62
   130
 10
-356.754365077764
 20
8.08028001269302
 30
0.0
 11
-356.142560869429
 21
8.08028001269302
 31
0.0
  0
LINE
  5
   276
  8
0
  6
CONTINUOUS
 62
   130
 10
-356.142560869429
 20
9.11768237190152
 30
0.0
 11
-356.142560869429
 21
8.08028001269302
 31
0.0
  0
LINE
  5
   277
  8
0
  6
CONTINUOUS
 62
   130
 10
-356.754365077764
 20
9.11768237190152
 30
0.0
 11
-356.142560869429
 21
9.11768237190152
 31
0.0
  0
LINE
  5
   278
  8
0
  6
CONTINUOUS
 62
   130
 10
-356.754365077764
 20
6.98968513255029
 30
0.0
 11
-356.142560869429
 21
6.98968513255029
 31
0.0
  0
LINE
  5
   279
  8
0
  6
CONTINUOUS
 62
   130
 10
-356.142560869429
 20
8.0270817697128
 30
0.0
 11
-356.142560869429
 21
6.98968513255029
 31
0.0
  0
LINE
  5
   27A
  8
0
  6
CONTINUOUS
 62
   130
 10
-356.754365077764
 20
8.0270817697128
 30
0.0
 11
-356.142560869429
 21
8.0270817697128
 31
0.0
  0
LINE
  5
   27B
  8
0
  6
CONTINUOUS
 62
   130
 10
-356.754365077764
 20
8.0270817697128
 30
0.0
 11
-356.754365077764
 21
6.98968513255029
 31
0.0
  0
LINE
  5
   27C
  8
0
  6
CONTINUOUS
 62
   130
 10
-356.089362626449
 20
9.11768237190152
 30
0.0
 11
-355.918372633666
 21
9.11768237190152
 31
0.0
  0
LINE
  5
   27D
  8
0
  6
CONTINUOUS
 62
   130
 10
-356.089362626449
 20
9.11768237190152
 30
0.0
 11
-356.089362626449
 21
8.08028001269302
 31
0.0
  0
LINE
  5
   27E
  8
0
  6
CONTINUOUS
 62
   130
 10
-356.089362626449
 20
8.08028001269302
 30
0.0
 11
-355.470020576204
 21
8.08028001269302
 31
0.0
  0
LINE
  5
   27F
  8
0
  6
CONTINUOUS
 62
   130
 10
-355.561392659656
 20
8.14919059125113
 30
0.0
 11
-355.47002301689
 21
8.08028188846766
 31
0.0
  0
LINE
  5
   280
  8
0
  6
CONTINUOUS
 62
   130
 10
-355.663762648273
 20
8.20033013975687
 30
0.0
 11
-355.561388364194
 21
8.14918877687841
 31
0.0
  0
LINE
  5
   281
  8
0
  6
CONTINUOUS
 62
   130
 10
-355.541904720351
 20
8.30379385192965
 30
0.0
 11
-355.663761400226
 21
8.20032706834376
 31
0.0
  0
LINE
  5
   282
  8
0
  6
CONTINUOUS
 62
   130
 10
-355.459467009422
 20
8.44075557823826
 30
0.0
 11
-355.541901083533
 21
8.30379269014345
 31
0.0
  0
LINE
  5
   283
  8
0
  6
CONTINUOUS
 62
   130
 10
-355.425087794012
 20
8.5968656718544
 30
0.0
 11
-355.459468893934
 21
8.44075606903054
 31
0.0
  0
LINE
  5
   284
  8
0
  6
CONTINUOUS
 62
   130
 10
-355.442355895916
 20
8.75579105743384
 30
0.0
 11
-355.425089055072
 21
8.59686768168666
 31
0.0
  0
LINE
  5
   285
  8
0
  6
CONTINUOUS
 62
   130
 10
-355.509468418559
 20
8.90087515266794
 30
0.0
 11
-355.442360252772
 21
8.75579456649838
 31
0.0
  0
LINE
  5
   286
  8
0
  6
CONTINUOUS
 62
   130
 10
-355.61939510632
 20
9.01694091261141
 30
0.0
 11
-355.509470777843
 21
8.90087645047403
 31
0.0
  0
LINE
  5
   287
  8
0
  6
CONTINUOUS
 62
   130
 10
-355.760618391533
 20
9.09180853156217
 30
0.0
 11
-355.61938913538
 21
9.01693059462294
 31
0.0
  0
LINE
  5
   288
  8
0
  6
CONTINUOUS
 62
   130
 10
-356.089362626449
 20
8.0270817697128
 30
0.0
 11
-355.418036932851
 21
8.0270817697128
 31
0.0
  0
LINE
  5
   289
  8
0
  6
CONTINUOUS
 62
   130
 10
-356.089362626449
 20
8.0270817697128
 30
0.0
 11
-356.089362626449
 21
6.98968513255029
 31
0.0
  0
LINE
  5
   28A
  8
0
  6
CONTINUOUS
 62
   130
 10
-356.089362626449
 20
6.98968513255029
 30
0.0
 11
-355.891511061001
 21
6.98968513255029
 31
0.0
  0
LINE
  5
   28B
  8
0
  6
CONTINUOUS
 62
   130
 10
-355.714897135779
 20
7.01508183643379
 30
0.0
 11
-355.891508485594
 21
6.98968396530353
 31
0.0
  0
LINE
  5
   28C
  8
0
  6
CONTINUOUS
 62
   130
 10
-355.552599511668
 20
7.08921744370962
 30
0.0
 11
-355.714898108169
 21
7.01508223327231
 31
0.0
  0
LINE
  5
   28D
  8
0
  6
CONTINUOUS
 62
   130
 10
-355.417774349454
 20
7.20608134419062
 30
0.0
 11
-355.552601024094
 21
7.08921694351625
 31
0.0
  0
LINE
  5
   28E
  8
0
  6
CONTINUOUS
 62
   130
 10
-355.321337744281
 20
7.35620389842912
 30
0.0
 11
-355.417773292134
 21
7.20608182767102
 31
0.0
  0
LINE
  5
   28F
  8
0
  6
CONTINUOUS
 62
   130
 10
-355.271111262556
 20
7.52741423808995
 30
0.0
 11
-355.321330988492
 21
7.35620185693984
 31
0.0
  0
LINE
  5
   290
  8
0
  6
CONTINUOUS
 62
   130
 10
-355.271171463378
 20
7.70584448859444
 30
0.0
 11
-355.27111653174
 21
7.52741773492616
 31
0.0
  0
LINE
  5
   291
  8
0
  6
CONTINUOUS
 62
   130
 10
-355.321499885045
 20
7.8770264379776
 30
0.0
 11
-355.271170298209
 21
7.70584570164356
 31
0.0
  0
LINE
  5
   292
  8
0
  6
CONTINUOUS
 62
   130
 10
-355.418035464353
 20
8.02707953017509
 30
0.0
 11
-355.321502260824
 21
7.87702230985174
 31
0.0
  0
LINE
  5
   293
  8
0
  6
CONTINUOUS
 62
   130
 10
-357.738563090477
 20
9.11768237190152
 30
0.0
 11
-357.567566994179
 21
9.11768237190152
 31
0.0
  0
LINE
  5
   294
  8
0
  6
CONTINUOUS
 62
   130
 10
-357.738563090477
 20
9.11768237190152
 30
0.0
 11
-357.738563090477
 21
8.08028001269302
 31
0.0
  0
LINE
  5
   295
  8
0
  6
CONTINUOUS
 62
   130
 10
-357.738563090477
 20
8.08028001269302
 30
0.0
 11
-357.119221040232
 21
8.08028001269302
 31
0.0
  0
LINE
  5
   296
  8
0
  6
CONTINUOUS
 62
   130
 10
-357.210589155665
 20
8.14918748584744
 30
0.0
 11
-357.1192195129
 21
8.08027878306396
 31
0.0
  0
LINE
  5
   297
  8
0
  6
CONTINUOUS
 62
   130
 10
-357.312964294988
 20
8.20033025877645
 30
0.0
 11
-357.210590010909
 21
8.14918889589799
 31
0.0
  0
LINE
  5
   298
  8
0
  6
CONTINUOUS
 62
   130
 10
-357.191106088277
 20
8.30379704280364
 30
0.0
 11
-357.312962768152
 21
8.20033025921775
 31
0.0
  0
LINE
  5
   299
  8
0
  6
CONTINUOUS
 62
   130
 10
-357.108669947704
 20
8.44075740048253
 30
0.0
 11
-357.191104021816
 21
8.30379451238772
 31
0.0
  0
LINE
  5
   29A
  8
0
  6
CONTINUOUS
 62
   130
 10
-357.074283157355
 20
8.59686634290292
 30
0.0
 11
-357.108670362032
 21
8.44075673096856
 31
0.0
  0
LINE
  5
   29B
  8
0
  6
CONTINUOUS
 62
   130
 10
-357.091549554779
 20
8.75579369741028
 30
0.0
 11
-357.074282713935
 21
8.59687032166309
 31
0.0
  0
LINE
  5
   29C
  8
0
  6
CONTINUOUS
 62
   130
 10
-357.158666455595
 20
8.90087030037116
 30
0.0
 11
-357.091552192017
 21
8.75578972110936
 31
0.0
  0
LINE
  5
   29D
  8
0
  6
CONTINUOUS
 62
   130
 10
-357.268593099194
 20
9.01694369458318
 30
0.0
 11
-357.158668770717
 21
8.9008792324458
 31
0.0
  0
LINE
  5
   29E
  8
0
  6
CONTINUOUS
 62
   130
 10
-357.409822842166
 20
9.09181046223677
 30
0.0
 11
-357.268593586013
 21
9.01693252529753
 31
0.0
  0
LINE
  5
   29F
  8
0
  6
CONTINUOUS
 62
   130
 10
-357.567567494342
 20
9.11768277243632
 30
0.0
 11
-357.409822097294
 21
9.09181607365251
 31
0.0
  0
LINE
  5
   2A0
  8
0
  6
CONTINUOUS
 62
   130
 10
-357.738563090477
 20
8.0270817697128
 30
0.0
 11
-357.06723739688
 21
8.0270817697128
 31
0.0
  0
LINE
  5
   2A1
  8
0
  6
CONTINUOUS
 62
   130
 10
-357.738563090477
 20
8.0270817697128
 30
0.0
 11
-357.738563090477
 21
6.98968513255029
 31
0.0
  0
LINE
  5
   2A2
  8
0
  6
CONTINUOUS
 62
   130
 10
-357.738563090477
 20
6.98968513255029
 30
0.0
 11
-357.540711525029
 21
6.98968513255029
 31
0.0
  0
LINE
  5
   2A3
  8
0
  6
CONTINUOUS
 62
   130
 10
-357.364099667968
 20
7.01507791156344
 30
0.0
 11
-357.540711017783
 21
6.98968004043319
 31
0.0
  0
LINE
  5
   2A4
  8
0
  6
CONTINUOUS
 62
   130
 10
-357.201799804134
 20
7.08921639783297
 30
0.0
 11
-357.364098400635
 21
7.01508118739565
 31
0.0
  0
LINE
  5
   2A5
  8
0
  6
CONTINUOUS
 62
   130
 10
-357.066974352894
 20
7.2060805646949
 30
0.0
 11
-357.201801027534
 21
7.08921616402055
 31
0.0
  0
LINE
  5
   2A6
  8
0
  6
CONTINUOUS
 62
   130
 10
-356.970539035204
 20
7.35620410353048
 30
0.0
 11
-357.066974583057
 21
7.20608203277236
 31
0.0
  0
LINE
  5
   2A7
  8
0
  6
CONTINUOUS
 62
   130
 10
-356.920309017015
 20
7.52741650170111
 30
0.0
 11
-356.970534851612
 21
7.35620410208609
 31
0.0
  0
LINE
  5
   2A8
  8
0
  6
CONTINUOUS
 62
   130
 10
-356.92037380368
 20
7.70584467399092
 30
0.0
 11
-356.920312768553
 21
7.52741791833919
 31
0.0
  0
LINE
  5
   2A9
  8
0
  6
CONTINUOUS
 62
   130
 10
-356.970698858733
 20
7.87702635633471
 30
0.0
 11
-356.920369271898
 21
7.70584562000067
 31
0.0
  0
LINE
  5
   2AA
  8
0
  6
CONTINUOUS
 62
   130
 10
-357.067234330533
 20
8.02707993819934
 30
0.0
 11
-356.970701127005
 21
7.877022717876
 31
0.0
  0
LINE
  5
   2AB
  8
0
  6
CONTINUOUS
 62
   130
 10
-358.403559438277
 20
9.11768237190152
 30
0.0
 11
-358.403559438277
 21
6.98968513255029
 31
0.0
  0
LINE
  5
   2AC
  8
0
  6
CONTINUOUS
 62
   130
 10
-362.874582393086
 20
5.62657017111411
 30
0.0
 11
-340.474616132175
 21
5.62657017111411
 31
0.0
  0
LINE
  5
   2AD
  8
0
  6
CONTINUOUS
 62
   130
 10
-340.07461618725
 20
7.22657019495597
 30
0.0
 11
-340.074616095697
 21
4.82657015919319
 31
0.0
  0
LINE
  5
   2AE
  8
0
  6
CONTINUOUS
 62
   130
 10
-323.27459173647
 20
7.22657019495597
 30
0.0
 11
-323.274591828023
 21
4.82657015919319
 31
0.0
  0
LINE
  5
   2AF
  8
0
  6
CONTINUOUS
 62
   130
 10
-340.07461618725
 20
7.22657019495597
 30
0.0
 11
-323.27459173647
 21
7.22657019495597
 31
0.0
  0
LINE
  5
   2B0
  8
0
  6
CONTINUOUS
 62
   130
 10
-322.874591791545
 20
5.62657017111411
 30
0.0
 11
-300.474625530634
 21
5.62657017111411
 31
0.0
  0
LINE
  5
   2B1
  8
0
  6
CONTINUOUS
 62
   130
 10
-340.474616208469
 20
7.62657020091643
 30
0.0
 11
-322.874591715251
 21
7.62657020091643
 31
0.0
  0
LINE
  5
   2B2
  8
0
  6
CONTINUOUS
 62
   130
 10
-322.874591715251
 20
7.62657020091644
 30
0.0
 11
-322.874591822062
 21
4.82657015919319
 31
0.0
  0
LINE
  5
   2B3
  8
0
  6
CONTINUOUS
 62
   130
 10
-340.474616208469
 20
7.62657020091644
 30
0.0
 11
-340.474616101658
 21
4.82657015919319
 31
0.0
  0
LINE
  5
   2B4
  8
0
  6
CONTINUOUS
 62
   130
 10
-323.27459261879
 20
-15.9029107854034
 30
0.0
 11
-323.274592710343
 21
-18.3029108211662
 31
0.0
  0
LINE
  5
   2B5
  8
0
  6
CONTINUOUS
 62
   130
 10
-340.07461530493
 20
-15.9029107854034
 30
0.0
 11
-340.074615213377
 21
-18.3029108211662
 31
0.0
  0
LINE
  5
   2B6
  8
0
  6
CONTINUOUS
 62
   130
 10
-340.07461530493
 20
-15.9029107854034
 30
0.0
 11
-337.674615269167
 21
-15.9029107854034
 31
0.0
  0
LINE
  5
   2B7
  8
0
  6
CONTINUOUS
 62
   130
 10
-325.674592654553
 20
-15.9029107854034
 30
0.0
 11
-323.27459261879
 21
-15.9029107854034
 31
0.0
  0
LINE
  5
   2B8
  8
0
  6
CONTINUOUS
 62
   130
 10
-340.074615213377
 20
-18.3029108211662
 30
0.0
 11
-336.874615165693
 21
-18.3029108211662
 31
0.0
  0
LINE
  5
   2B9
  8
0
  6
CONTINUOUS
 62
   130
 10
-326.474592758027
 20
-18.3029108211662
 30
0.0
 11
-323.274592710343
 21
-18.3029108211662
 31
0.0
  0
LINE
  5
   2BA
  8
0
  6
CONTINUOUS
 62
   130
 10
-344.154602316772
 20
-20.1734424203618
 30
0.0
 11
-344.154602316772
 21
-23.773442474006
 31
0.0
  0
LINE
  5
   2BB
  8
0
  6
CONTINUOUS
 62
   130
 10
-352.154602435981
 20
-20.1734424203618
 30
0.0
 11
-352.154602435981
 21
-23.773442474006
 31
0.0
  0
LINE
  5
   2BC
  8
0
  6
CONTINUOUS
 62
   130
 10
-352.154602435981
 20
-20.1734424203618
 30
0.0
 11
-344.154602316772
 21
-20.1734424203618
 31
0.0
  0
LINE
  5
   2BD
  8
0
  6
CONTINUOUS
 62
   130
 10
-352.154602435981
 20
-23.773442474006
 30
0.0
 11
-344.154602316772
 21
-23.773442474006
 31
0.0
  0
LINE
  5
   2BE
  8
0
  6
CONTINUOUS
 62
   130
 10
-362.074593855768
 20
81.6265468895456
 30
0.0
 11
-301.274623345294
 21
81.6265468895456
 31
0.0
  0
ARC
  5
   2BF
  8
0
  6
CONTINUOUS
 62
   130
 10
-362.074593855768
 20
80.8265468776247
 30
0.0
 40
0.800000011920929
 50
449.999999844103
 51
540.000008586744
  0
ARC
  5
   2C0
  8
0
  6
CONTINUOUS
 62
   130
 10
-301.274623345294
 20
80.8265468776247
 30
0.0
 40
0.800000011920929
 50
359.999991101463
 51
449.999999844103
  0
ARC
  5
   2C1
  8
0
  6
CONTINUOUS
 62
   130
 10
-301.274638237867
 20
-77.5734432756881
 30
0.0
 40
0.800000011920929
 50
269.999999844103
 51
359.999991101463
  0
ARC
  5
   2C2
  8
0
  6
CONTINUOUS
 62
   130
 10
-362.074578963195
 20
-77.5734432756881
 30
0.0
 40
0.800000011920929
 50
540.000008586744
 51
629.999999844103
  0
LINE
  5
   2C3
  8
0
  6
CONTINUOUS
 62
   130
 10
-362.874587336927
 20
38.0265368274412
 30
0.0
 11
-300.474620586793
 21
38.0265368274412
 31
0.0
  0
LINE
  5
   2C4
  8
0
  6
DASHDOT
 62
   130
 10
-331.674580125203
 20
33.5166715760702
 30
0.0
 11
-331.674580125203
 21
-83.2827078464188
 31
0.0
  0
LINE
  5
   2C5
  8
0
  6
DASHDOT
 62
   130
 10
-311.67457982718
 20
-28.9334492494858
 30
0.0
 11
-311.67457982718
 21
-37.2262497197399
 31
0.0
  0
LINE
  5
   2C6
  8
0
  6
CONTINUOUS
 62
   130
 10
-339.627546357861
 20
-34.7734332255046
 30
0.0
 11
-339.627553010694
 21
-78.373443287609
 31
0.0
  0
LINE
  5
   2C7
  8
0
  6
CONTINUOUS
 62
   130
 10
-338.404017885279
 20
-34.7734332255046
 30
0.0
 11
-338.404024538111
 21
-78.373443287609
 31
0.0
  0
LINE
  5
   2C8
  8
0
  6
CONTINUOUS
 62
   130
 10
-337.180489412697
 20
-34.7734332255046
 30
0.0
 11
-337.180496065529
 21
-78.373443287609
 31
0.0
  0
LINE
  5
   2C9
  8
0
  6
CONTINUOUS
 62
   130
 10
-335.956960940114
 20
-34.7734332255046
 30
0.0
 11
-335.956967592946
 21
-78.373443287609
 31
0.0
  0
LINE
  5
   2CA
  8
0
  6
CONTINUOUS
 62
   130
 10
-334.733432467532
 20
-34.7734332255046
 30
0.0
 11
-334.733439120364
 21
-78.373443287609
 31
0.0
  0
LINE
  5
   2CB
  8
0
  6
CONTINUOUS
 62
   130
 10
-333.509903994949
 20
-34.7734332255046
 30
0.0
 11
-333.509910647782
 21
-78.373443287609
 31
0.0
  0
LINE
  5
   2CC
  8
0
  6
CONTINUOUS
 62
   130
 10
-332.286375522367
 20
-34.7734332255046
 30
0.0
 11
-332.286382175199
 21
-78.373443287609
 31
0.0
  0
LINE
  5
   2CD
  8
0
  6
CONTINUOUS
 62
   130
 10
-329.839318577202
 20
-34.7734332255046
 30
0.0
 11
-329.839325230034
 21
-78.373443287609
 31
0.0
  0
LINE
  5
   2CE
  8
0
  6
CONTINUOUS
 62
   130
 10
-327.392261632037
 20
-34.7734332255046
 30
0.0
 11
-327.39226828487
 21
-78.373443287609
 31
0.0
  0
LINE
  5
   2CF
  8
0
  6
CONTINUOUS
 62
   130
 10
-324.945204686873
 20
-34.7734332255046
 30
0.0
 11
-324.945211339705
 21
-78.373443287609
 31
0.0
  0
LINE
  5
   2D0
  8
0
  6
CONTINUOUS
 62
   130
 10
-322.498147741708
 20
-34.7734332255046
 30
0.0
 11
-322.49815439454
 21
-78.373443287609
 31
0.0
  0
LINE
  5
   2D1
  8
0
  6
CONTINUOUS
 62
   130
 10
-320.051090796543
 20
-34.7734332255046
 30
0.0
 11
-320.051097449375
 21
-78.373443287609
 31
0.0
  0
LINE
  5
   2D2
  8
0
  6
CONTINUOUS
 62
   130
 10
-317.604033851378
 20
-34.7734332255046
 30
0.0
 11
-317.60404050421
 21
-78.373443287609
 31
0.0
  0
LINE
  5
   2D3
  8
0
  6
CONTINUOUS
 62
   130
 10
-315.156976906214
 20
-34.7734332255046
 30
0.0
 11
-315.156983559045
 21
-78.373443287609
 31
0.0
  0
LINE
  5
   2D4
  8
0
  6
CONTINUOUS
 62
   130
 10
-312.709919961049
 20
-34.7734332255046
 30
0.0
 11
-312.709926613881
 21
-78.373443287609
 31
0.0
  0
LINE
  5
   2D5
  8
0
  6
CONTINUOUS
 62
   130
 10
-311.486391488466
 20
-34.7734332255046
 30
0.0
 11
-311.486398141298
 21
-78.373443287609
 31
0.0
  0
LINE
  5
   2D6
  8
0
  6
CONTINUOUS
 62
   130
 10
-310.262863015884
 20
-34.7734332255046
 30
0.0
 11
-310.262869668716
 21
-78.373443287609
 31
0.0
  0
LINE
  5
   2D7
  8
0
  6
CONTINUOUS
 62
   130
 10
-309.039334543302
 20
-34.7734332255046
 30
0.0
 11
-309.039341196133
 21
-78.373443287609
 31
0.0
  0
LINE
  5
   2D8
  8
0
  6
CONTINUOUS
 62
   130
 10
-307.815806070719
 20
-34.7734332255046
 30
0.0
 11
-307.815812723551
 21
-78.373443287609
 31
0.0
  0
LINE
  5
   2D9
  8
0
  6
CONTINUOUS
 62
   130
 10
-306.592277598137
 20
-34.7734332255046
 30
0.0
 11
-306.592284250969
 21
-78.373443287609
 31
0.0
  0
LINE
  5
   2DA
  8
0
  6
CONTINUOUS
 62
   130
 10
-305.368749125554
 20
-34.7734332255046
 30
0.0
 11
-305.368755778386
 21
-78.373443287609
 31
0.0
  0
LINE
  5
   2DB
  8
0
  6
CONTINUOUS
 62
   130
 10
-304.145220652972
 20
-34.7734332255046
 30
0.0
 11
-304.145227305804
 21
-78.373443287609
 31
0.0
  0
LINE
  5
   2DC
  8
0
  6
CONTINUOUS
 62
   130
 10
-302.92169218039
 20
-34.7734332255046
 30
0.0
 11
-302.921698833221
 21
-78.373443287609
 31
0.0
  0
LINE
  5
   2DD
  8
0
  6
CONTINUOUS
 62
   130
 10
-301.698163707807
 20
-34.7734332255046
 30
0.0
 11
-301.698170135009
 21
-76.894752807818
 31
0.0
  0
CIRCLE
  5
   2DE
  8
0
  6
CONTINUOUS
 62
   130
 10
-311.67457982718
 20
-45.5734427988513
 30
0.0
 40
2.00000002980232
  0
LINE
  5
   2DF
  8
0
  6
CONTINUOUS
 62
   130
 10
-313.634171650607
 20
-45.9734428048117
 30
0.0
 11
-309.714988003753
 21
-45.9734428048117
 31
0.0
  0
LINE
  5
   2E0
  8
0
  6
CONTINUOUS
 62
   130
 10
-313.634171650607
 20
-45.1734427928908
 30
0.0
 11
-309.714988003753
 21
-45.1734427928908
 31
0.0
  0
LINE
  5
   2E1
  8
0
  6
DOT
 62
   130
 10
-311.27457982122
 20
-43.6138509754245
 30
0.0
 11
-311.27457982122
 21
-47.533034622278
 31
0.0
  0
LINE
  5
   2E2
  8
0
  6
DOT
 62
   130
 10
-312.07457983314
 20
-43.6138509754245
 30
0.0
 11
-312.07457983314
 21
-47.533034622278
 31
0.0
  0
LINE
  5
   2E3
  8
0
  6
CONTINUOUS
 62
   130
 10
-331.062847049785
 20
-34.7734332255046
 30
0.0
 11
-331.062853702617
 21
-78.373443287609
 31
0.0
  0
LINE
  5
   2E4
  8
0
  6
CONTINUOUS
 62
   130
 10
-328.61579010462
 20
-34.7734332255046
 30
0.0
 11
-328.615796757452
 21
-78.373443287609
 31
0.0
  0
LINE
  5
   2E5
  8
0
  6
CONTINUOUS
 62
   130
 10
-326.168733159455
 20
-34.7734332255046
 30
0.0
 11
-326.168739812287
 21
-78.373443287609
 31
0.0
  0
LINE
  5
   2E6
  8
0
  6
CONTINUOUS
 62
   130
 10
-323.72167621429
 20
-34.7734332255046
 30
0.0
 11
-323.721682867122
 21
-78.373443287609
 31
0.0
  0
LINE
  5
   2E7
  8
0
  6
CONTINUOUS
 62
   130
 10
-321.274619269125
 20
-34.7734332255046
 30
0.0
 11
-321.274625921957
 21
-78.373443287609
 31
0.0
  0
LINE
  5
   2E8
  8
0
  6
CONTINUOUS
 62
   130
 10
-318.827562323961
 20
-34.7734332255046
 30
0.0
 11
-318.827568976793
 21
-78.373443287609
 31
0.0
  0
LINE
  5
   2E9
  8
0
  6
CONTINUOUS
 62
   130
 10
-316.380505378796
 20
-34.7734332255046
 30
0.0
 11
-316.380512031628
 21
-78.373443287609
 31
0.0
  0
LINE
  5
   2EA
  8
0
  6
CONTINUOUS
 62
   130
 10
-313.933448433631
 20
-34.7734332255046
 30
0.0
 11
-313.933455086463
 21
-78.373443287609
 31
0.0
  0
LINE
  5
   2EB
  8
0
  6
DASHDOT
 62
   130
 10
-351.67462809654
 20
42.1458576915975
 30
0.0
 11
-351.67462809654
 21
32.1865406443912
 31
0.0
  0
LINE
  5
   2EC
  8
0
  6
DASHDOT
 62
   130
 10
-311.67457982718
 20
40.4793411146453
 30
0.0
 11
-311.67457982718
 21
32.1865406443912
 31
0.0
  0
LINE
  5
   2ED
  8
0
  6
CONTINUOUS
 62
   130
 10
-361.651065517177
 20
81.6265346825144
 30
0.0
 11
-361.651058864345
 21
38.02652462041
 31
0.0
  0
LINE
  5
   2EE
  8
0
  6
CONTINUOUS
 62
   130
 10
-360.427537044594
 20
81.6265346825144
 30
0.0
 11
-360.427530391762
 21
38.02652462041
 31
0.0
  0
LINE
  5
   2EF
  8
0
  6
CONTINUOUS
 62
   130
 10
-359.204008572012
 20
81.6265346825144
 30
0.0
 11
-359.20400191918
 21
38.02652462041
 31
0.0
  0
LINE
  5
   2F0
  8
0
  6
CONTINUOUS
 62
   130
 10
-357.98048009943
 20
81.6265346825144
 30
0.0
 11
-357.980473446598
 21
38.02652462041
 31
0.0
  0
LINE
  5
   2F1
  8
0
  6
CONTINUOUS
 62
   130
 10
-356.756951626847
 20
81.6265346825144
 30
0.0
 11
-356.756944974015
 21
38.02652462041
 31
0.0
  0
LINE
  5
   2F2
  8
0
  6
CONTINUOUS
 62
   130
 10
-355.533423154265
 20
81.6265346825144
 30
0.0
 11
-355.533416501433
 21
38.02652462041
 31
0.0
  0
LINE
  5
   2F3
  8
0
  6
CONTINUOUS
 62
   130
 10
-354.309894681682
 20
81.6265346825144
 30
0.0
 11
-354.30988802885
 21
38.02652462041
 31
0.0
  0
LINE
  5
   2F4
  8
0
  6
CONTINUOUS
 62
   130
 10
-353.0863662091
 20
81.6265346825144
 30
0.0
 11
-353.086359556268
 21
38.02652462041
 31
0.0
  0
LINE
  5
   2F5
  8
0
  6
CONTINUOUS
 62
   130
 10
-351.862837736518
 20
81.6265346825144
 30
0.0
 11
-351.862831083686
 21
38.02652462041
 31
0.0
  0
LINE
  5
   2F6
  8
0
  6
CONTINUOUS
 62
   130
 10
-350.639309263935
 20
81.6265346825144
 30
0.0
 11
-350.639302611103
 21
38.02652462041
 31
0.0
  0
LINE
  5
   2F7
  8
0
  6
CONTINUOUS
 62
   130
 10
-349.415780791353
 20
81.6265346825144
 30
0.0
 11
-349.415774138521
 21
38.02652462041
 31
0.0
  0
LINE
  5
   2F8
  8
0
  6
CONTINUOUS
 62
   130
 10
-348.19225231877
 20
81.6265346825144
 30
0.0
 11
-348.192245665938
 21
38.02652462041
 31
0.0
  0
LINE
  5
   2F9
  8
0
  6
CONTINUOUS
 62
   130
 10
-346.968723846188
 20
81.6265346825144
 30
0.0
 11
-346.968717193356
 21
38.02652462041
 31
0.0
  0
LINE
  5
   2FA
  8
0
  6
CONTINUOUS
 62
   130
 10
-345.745195373606
 20
81.6265346825144
 30
0.0
 11
-345.745188720774
 21
38.02652462041
 31
0.0
  0
LINE
  5
   2FB
  8
0
  6
CONTINUOUS
 62
   130
 10
-344.521666901023
 20
81.6265346825144
 30
0.0
 11
-344.521660248191
 21
38.02652462041
 31
0.0
  0
LINE
  5
   2FC
  8
0
  6
CONTINUOUS
 62
   130
 10
-343.298138428441
 20
81.6265346825144
 30
0.0
 11
-343.298131775609
 21
38.02652462041
 31
0.0
  0
LINE
  5
   2FD
  8
0
  6
CONTINUOUS
 62
   130
 10
-342.074609955858
 20
81.6265346825144
 30
0.0
 11
-342.074603303026
 21
38.02652462041
 31
0.0
  0
LINE
  5
   2FE
  8
0
  6
CONTINUOUS
 62
   130
 10
-340.851081483276
 20
81.6265346825144
 30
0.0
 11
-340.851074830444
 21
38.02652462041
 31
0.0
  0
LINE
  5
   2FF
  8
0
  6
CONTINUOUS
 62
   130
 10
-339.627553010694
 20
81.6265346825144
 30
0.0
 11
-339.627546357861
 21
38.02652462041
 31
0.0
  0
LINE
  5
   300
  8
0
  6
CONTINUOUS
 62
   130
 10
-338.404024538111
 20
81.6265346825144
 30
0.0
 11
-338.404017885279
 21
38.02652462041
 31
0.0
  0
LINE
  5
   301
  8
0
  6
CONTINUOUS
 62
   130
 10
-337.180496065529
 20
81.6265346825144
 30
0.0
 11
-337.180489412697
 21
38.02652462041
 31
0.0
  0
LINE
  5
   302
  8
0
  6
CONTINUOUS
 62
   130
 10
-335.956967592946
 20
81.6265346825144
 30
0.0
 11
-335.956960940114
 21
38.02652462041
 31
0.0
  0
LINE
  5
   303
  8
0
  6
CONTINUOUS
 62
   130
 10
-334.733439120364
 20
81.6265346825144
 30
0.0
 11
-334.733432467532
 21
38.02652462041
 31
0.0
  0
LINE
  5
   304
  8
0
  6
CONTINUOUS
 62
   130
 10
-333.509910647782
 20
81.6265346825144
 30
0.0
 11
-333.509903994949
 21
38.02652462041
 31
0.0
  0
LINE
  5
   305
  8
0
  6
CONTINUOUS
 62
   130
 10
-332.286382175199
 20
81.6265346825144
 30
0.0
 11
-332.286375522367
 21
38.02652462041
 31
0.0
  0
LINE
  5
   306
  8
0
  6
CONTINUOUS
 62
   130
 10
-331.062853702617
 20
81.6265346825144
 30
0.0
 11
-331.062847049785
 21
38.02652462041
 31
0.0
  0
LINE
  5
   307
  8
0
  6
CONTINUOUS
 62
   130
 10
-328.615796757452
 20
81.6265346825144
 30
0.0
 11
-328.61579010462
 21
38.02652462041
 31
0.0
  0
LINE
  5
   308
  8
0
  6
CONTINUOUS
 62
   130
 10
-326.168739812287
 20
81.6265346825144
 30
0.0
 11
-326.168733159455
 21
38.02652462041
 31
0.0
  0
LINE
  5
   309
  8
0
  6
CONTINUOUS
 62
   130
 10
-323.721682867122
 20
81.6265346825144
 30
0.0
 11
-323.72167621429
 21
38.02652462041
 31
0.0
  0
LINE
  5
   30A
  8
0
  6
CONTINUOUS
 62
   130
 10
-321.274625921957
 20
81.6265346825144
 30
0.0
 11
-321.274619269125
 21
38.02652462041
 31
0.0
  0
LINE
  5
   30B
  8
0
  6
CONTINUOUS
 62
   130
 10
-318.827568976793
 20
81.6265346825144
 30
0.0
 11
-318.827562323961
 21
38.02652462041
 31
0.0
  0
LINE
  5
   30C
  8
0
  6
CONTINUOUS
 62
   130
 10
-316.380512031628
 20
81.6265346825144
 30
0.0
 11
-316.380505378796
 21
38.02652462041
 31
0.0
  0
LINE
  5
   30D
  8
0
  6
CONTINUOUS
 62
   130
 10
-313.933455086463
 20
81.6265346825144
 30
0.0
 11
-313.933448433631
 21
38.02652462041
 31
0.0
  0
LINE
  5
   30E
  8
0
  6
CONTINUOUS
 62
   130
 10
-311.486398141298
 20
81.6265346825144
 30
0.0
 11
-311.486391488466
 21
38.02652462041
 31
0.0
  0
LINE
  5
   30F
  8
0
  6
CONTINUOUS
 62
   130
 10
-310.262869668716
 20
81.6265346825144
 30
0.0
 11
-310.262863015884
 21
38.02652462041
 31
0.0
  0
LINE
  5
   310
  8
0
  6
CONTINUOUS
 62
   130
 10
-309.039341196133
 20
81.6265346825144
 30
0.0
 11
-309.039334543302
 21
38.02652462041
 31
0.0
  0
LINE
  5
   311
  8
0
  6
CONTINUOUS
 62
   130
 10
-307.815812723551
 20
81.6265346825144
 30
0.0
 11
-307.815806070719
 21
38.02652462041
 31
0.0
  0
LINE
  5
   312
  8
0
  6
CONTINUOUS
 62
   130
 10
-306.592284250969
 20
81.6265346825144
 30
0.0
 11
-306.592277598137
 21
38.02652462041
 31
0.0
  0
LINE
  5
   313
  8
0
  6
CONTINUOUS
 62
   130
 10
-305.368755778386
 20
81.6265346825144
 30
0.0
 11
-305.368749125554
 21
38.02652462041
 31
0.0
  0
LINE
  5
   314
  8
0
  6
CONTINUOUS
 62
   130
 10
-304.145227305804
 20
81.6265346825144
 30
0.0
 11
-304.145220652972
 21
38.02652462041
 31
0.0
  0
LINE
  5
   315
  8
0
  6
CONTINUOUS
 62
   130
 10
-302.921698833221
 20
81.6265346825144
 30
0.0
 11
-302.92169218039
 21
38.02652462041
 31
0.0
  0
LINE
  5
   316
  8
0
  6
CONTINUOUS
 62
   130
 10
-301.698170135009
 20
80.1478442027234
 30
0.0
 11
-301.698163707807
 21
38.02652462041
 31
0.0
  0
CIRCLE
  5
   317
  8
0
  6
CONTINUOUS
 62
   130
 10
-311.67457982718
 20
48.8265341937567
 30
0.0
 40
2.00000002980232
  0
LINE
  5
   318
  8
0
  6
CONTINUOUS
 62
   130
 10
-313.634171650607
 20
49.2265341997171
 30
0.0
 11
-309.714988003753
 21
49.2265341997171
 31
0.0
  0
LINE
  5
   319
  8
0
  6
CONTINUOUS
 62
   130
 10
-313.634171650607
 20
48.4265341877962
 30
0.0
 11
-309.714988003753
 21
48.4265341877962
 31
0.0
  0
LINE
  5
   31A
  8
0
  6
DOT
 62
   130
 10
-311.27457982122
 20
50.7861260171834
 30
0.0
 11
-311.27457982122
 21
46.8669423703299
 31
0.0
  0
LINE
  5
   31B
  8
0
  6
DOT
 62
   130
 10
-312.07457983314
 20
50.7861260171834
 30
0.0
 11
-312.07457983314
 21
46.8669423703299
 31
0.0
  0
LINE
  5
   31C
  8
0
  6
CONTINUOUS
 62
   130
 10
-329.839325230034
 20
81.6265346825144
 30
0.0
 11
-329.839318577202
 21
38.02652462041
 31
0.0
  0
LINE
  5
   31D
  8
0
  6
CONTINUOUS
 62
   130
 10
-327.39226828487
 20
81.6265346825144
 30
0.0
 11
-327.392261632037
 21
38.02652462041
 31
0.0
  0
LINE
  5
   31E
  8
0
  6
CONTINUOUS
 62
   130
 10
-324.945211339705
 20
81.6265346825144
 30
0.0
 11
-324.945204686873
 21
38.02652462041
 31
0.0
  0
LINE
  5
   31F
  8
0
  6
CONTINUOUS
 62
   130
 10
-322.49815439454
 20
81.6265346825144
 30
0.0
 11
-322.498147741708
 21
38.02652462041
 31
0.0
  0
LINE
  5
   320
  8
0
  6
CONTINUOUS
 62
   130
 10
-320.051097449375
 20
81.6265346825144
 30
0.0
 11
-320.051090796543
 21
38.02652462041
 31
0.0
  0
LINE
  5
   321
  8
0
  6
CONTINUOUS
 62
   130
 10
-317.60404050421
 20
81.6265346825144
 30
0.0
 11
-317.604033851378
 21
38.02652462041
 31
0.0
  0
LINE
  5
   322
  8
0
  6
CONTINUOUS
 62
   130
 10
-315.156983559045
 20
81.6265346825144
 30
0.0
 11
-315.156976906214
 21
38.02652462041
 31
0.0
  0
LINE
  5
   323
  8
0
  6
CONTINUOUS
 62
   130
 10
-312.709926613881
 20
81.6265346825144
 30
0.0
 11
-312.709919961049
 21
38.02652462041
 31
0.0
  0
TEXT
  5
   324
  8
0
  6
CONTINUOUS
 62
     2
 10
-272.032702775626
 20
-9.5122814071632
 30
0.0
 40
2.99999994933605
  1
X
 50
359.999999844103
 41
0.916666607525612
 11
-272.032702771552
 21
-8.01228143249518
 31
0.0
 73
     2
  0
TEXT
  5
   325
  8
0
  6
CONTINUOUS
 62
     2
 10
-375.465627517732
 20
-9.51228150332825
 30
0.0
 40
2.99999994933605
  1
X
 50
359.999999844103
 41
0.916666607525612
 72
     2
 11
-373.265627695452
 21
-8.01228153463517
 31
0.0
 73
     2
  0
TEXT
  5
   326
  8
0
  6
CONTINUOUS
 62
     2
 10
-332.833977276713
 20
91.3499414646904
 30
0.0
 40
2.99999994933605
  1
Y
 50
359.999999844103
 41
0.916666607525612
 72
     1
 11
-331.73397736761
 21
91.3499414617029
 31
0.0
  0
TEXT
  5
   327
  8
0
  6
CONTINUOUS
 62
     2
 10
-332.918707423012
 20
-88.5486362567679
 30
0.0
 40
2.99999994933605
  1
Y
 50
359.999999844103
 41
0.916666607525612
 72
     1
 11
-331.818707505761
 21
-85.5486363104193
 31
0.0
 73
     3
  0
LINE
  5
   328
  8
0
  6
CONTINUOUS
 62
   130
 10
-300.048905179267
 20
-24.0610915753134
 30
0.0
 11
-294.798762415412
 21
-24.0610915753134
 31
0.0
  0
LINE
  5
   329
  8
0
  6
CONTINUOUS
 62
   130
 10
-340.299999702153
 20
-26.5480013055603
 30
0.0
 11
-340.299999702153
 21
-47.1801412898314
 31
0.0
  0
LINE
  5
   32A
  8
0
  6
CONTINUOUS
 62
   130
 10
-300.474624676134
 20
11.2266259491456
 30
0.0
 11
-300.474638225946
 21
-77.5734433977584
 31
0.0
  0
LINE
  5
   32B
  8
0
  6
CONTINUOUS
 62
   130
 10
-362.874583247586
 20
11.2266259491456
 30
0.0
 11
-362.874577388212
 21
-27.173374623059
 31
0.0
  0
LINE
  5
   32C
  8
0
  6
CONTINUOUS
 62
   130
 10
-361.651060634355
 20
-46.3733749091613
 30
0.0
 11
-361.651065517177
 21
-78.373443287609
 31
0.0
  0
LINE
  5
   32D
  8
0
  6
CONTINUOUS
 62
   130
 10
-360.427532161773
 20
-46.3733749091613
 30
0.0
 11
-360.427537044594
 21
-78.373443287609
 31
0.0
  0
LINE
  5
   32E
  8
0
  6
CONTINUOUS
 62
   130
 10
-359.20400368919
 20
-46.3733749091613
 30
0.0
 11
-359.204008572012
 21
-78.373443287609
 31
0.0
  0
LINE
  5
   32F
  8
0
  6
CONTINUOUS
 62
   130
 10
-357.980475216608
 20
-46.3733749091613
 30
0.0
 11
-357.98048009943
 21
-78.373443287609
 31
0.0
  0
LINE
  5
   330
  8
0
  6
CONTINUOUS
 62
   130
 10
-356.756946744025
 20
-46.3733749091613
 30
0.0
 11
-356.756951626847
 21
-78.373443287609
 31
0.0
  0
LINE
  5
   331
  8
0
  6
CONTINUOUS
 62
   130
 10
-355.533418271443
 20
-46.3733749091613
 30
0.0
 11
-355.533423154265
 21
-78.373443287609
 31
0.0
  0
LINE
  5
   332
  8
0
  6
CONTINUOUS
 62
   130
 10
-354.30988979886
 20
-46.3733749091613
 30
0.0
 11
-354.309894681682
 21
-78.373443287609
 31
0.0
  0
LINE
  5
   333
  8
0
  6
CONTINUOUS
 62
   130
 10
-353.086361326278
 20
-46.3733749091613
 30
0.0
 11
-353.0863662091
 21
-78.373443287609
 31
0.0
  0
LINE
  5
   334
  8
0
  6
CONTINUOUS
 62
   130
 10
-351.862832853696
 20
-46.3733749091613
 30
0.0
 11
-351.862837736518
 21
-78.373443287609
 31
0.0
  0
LINE
  5
   335
  8
0
  6
CONTINUOUS
 62
   130
 10
-350.639304381113
 20
-46.3733749091613
 30
0.0
 11
-350.639309263935
 21
-78.373443287609
 31
0.0
  0
LINE
  5
   336
  8
0
  6
CONTINUOUS
 62
   130
 10
-349.415775908531
 20
-46.3733749091613
 30
0.0
 11
-349.415780791353
 21
-78.373443287609
 31
0.0
  0
LINE
  5
   337
  8
0
  6
CONTINUOUS
 62
   130
 10
-348.192247435949
 20
-46.3733749091613
 30
0.0
 11
-348.19225231877
 21
-78.373443287609
 31
0.0
  0
LINE
  5
   338
  8
0
  6
CONTINUOUS
 62
   130
 10
-346.968718963366
 20
-46.3733749091613
 30
0.0
 11
-346.968723846188
 21
-78.373443287609
 31
0.0
  0
LINE
  5
   339
  8
0
  6
CONTINUOUS
 62
   130
 10
-345.745190490784
 20
-46.3733749091613
 30
0.0
 11
-345.745195373606
 21
-78.373443287609
 31
0.0
  0
LINE
  5
   33A
  8
0
  6
CONTINUOUS
 62
   130
 10
-344.521662018201
 20
-46.3733749091613
 30
0.0
 11
-344.521666901023
 21
-78.373443287609
 31
0.0
  0
LINE
  5
   33B
  8
0
  6
CONTINUOUS
 62
   130
 10
-343.298133545619
 20
-46.3733749091613
 30
0.0
 11
-343.298138428441
 21
-78.373443287609
 31
0.0
  0
LINE
  5
   33C
  8
0
  6
CONTINUOUS
 62
   130
 10
-342.074605073037
 20
-46.3733749091613
 30
0.0
 11
-342.074609955858
 21
-78.373443287609
 31
0.0
  0
LINE
  5
   33D
  8
0
  6
CONTINUOUS
 62
   130
 10
-340.851076600454
 20
-46.3733749091613
 30
0.0
 11
-340.851081483276
 21
-78.373443287609
 31
0.0
  0
LINE
  5
   33E
  8
0
  6
CONTINUOUS
 62
   130
 10
-362.874574458525
 20
-46.3733749091613
 30
0.0
 11
-362.874569697774
 21
-77.573443397757
 31
0.0
  0
LINE
  5
   33F
  8
0
  6
CONTINUOUS
 62
   130
 10
-340.299999702153
 20
-33.5734398254191
 30
0.0
 11
-300.47463151208
 21
-33.5734398254191
 31
0.0
  0
LINE
  5
   340
  8
0
  6
CONTINUOUS
 62
   130
 10
-340.299999702153
 20
-34.7734398433005
 30
0.0
 11
-300.474631695185
 21
-34.7734398433005
 31
0.0
  0
LINE
  5
   341
  8
0
  6
CONTINUOUS
 62
   130
 10
-340.299999702153
 20
-33.5734398254191
 30
0.0
 11
-331.674615347347
 21
-33.5734398254191
 31
0.0
  0
LINE
  5
   342
  8
0
  6
CONTINUOUS
 62
   130
 10
-340.299999702153
 20
-34.7734398433005
 30
0.0
 11
-331.674598621283
 21
-34.7734398433005
 31
0.0
  0
INSERT
  5
   343
  8
0
  6
CONTINUOUS
 62
     3
  2
*UDIM809
 10
0.0
 20
0.0
 30
0.0
  0
INSERT
  5
   344
  8
0
  6
CONTINUOUS
 62
     3
  2
*UDIM810
 10
0.0
 20
0.0
 30
0.0
  0
INSERT
  5
   345
  8
0
  6
CONTINUOUS
 62
     3
  2
*UDIM811
 10
0.0
 20
0.0
 30
0.0
  0
INSERT
  5
   346
  8
0
  6
CONTINUOUS
 62
     7
  2
*UDIM812
 10
0.0
 20
0.0
 30
0.0
  0
INSERT
  5
   347
  8
0
  6
CONTINUOUS
 62
     7
  2
*UDIM813
 10
0.0
 20
0.0
 30
0.0
  0
INSERT
  5
   348
  8
0
  6
CONTINUOUS
 62
     3
  2
*UDIM814
 10
0.0
 20
0.0
 30
0.0
  0
CIRCLE
  5
   349
  8
0
  6
CONTINUOUS
 62
   130
 10
-351.674580423226
 20
48.8265341937567
 30
0.0
 40
2.00000002980232
  0
LINE
  5
   34A
  8
0
  6
DOT
 62
   130
 10
-352.074580429187
 20
50.7861260171834
 30
0.0
 11
-352.074580429187
 21
46.8669423703299
 31
0.0
  0
LINE
  5
   34B
  8
0
  6
DOT
 62
   130
 10
-351.274580417266
 20
50.7861260171834
 30
0.0
 11
-351.274580417266
 21
46.8669423703299
 31
0.0
  0
LINE
  5
   34C
  8
0
  6
CONTINUOUS
 62
   130
 10
-353.634172246653
 20
49.2265341997171
 30
0.0
 11
-349.7149885998
 21
49.2265341997171
 31
0.0
  0
LINE
  5
   34D
  8
0
  6
CONTINUOUS
 62
   130
 10
-353.634172246653
 20
48.4265341877962
 30
0.0
 11
-349.7149885998
 21
48.4265341877962
 31
0.0
  0
ARC
  5
   34E
  8
0
  6
CONTINUOUS
 62
   130
 10
-351.674580423226
 20
-45.5734427988513
 30
0.0
 40
2.00000002980232
 50
563.57605591098
 51
696.423943777226
  0
LINE
  5
   34F
  8
0
  6
DOT
 62
   130
 10
-352.074580429187
 20
-46.3733749091613
 30
0.0
 11
-352.074580429187
 21
-47.533034622278
 31
0.0
  0
LINE
  5
   350
  8
0
  6
DOT
 62
   130
 10
-351.274580417266
 20
-46.3733749091613
 30
0.0
 11
-351.274580417266
 21
-47.533034622278
 31
0.0
  0
INSERT
  5
   351
  8
0
  6
CONTINUOUS
 62
     3
  2
*UDIM815
 10
0.0
 20
0.0
 30
0.0
  0
INSERT
  5
   352
  8
0
  6
CONTINUOUS
 62
     7
  2
*UDIM816
 10
0.0
 20
0.0
 30
0.0
  0
INSERT
  5
   353
  8
0
  6
CONTINUOUS
 62
     7
  2
*UDIM817
 10
0.0
 20
0.0
 30
0.0
  0
CIRCLE
  5
   354
  8
0
  6
CONTINUOUS
 62
   130
 10
-104.422867640853
 20
58.7838947266341
 30
0.0
 40
0.559999990463257
  0
CIRCLE
  5
   355
  8
0
  6
CONTINUOUS
 62
   130
 10
-91.9228677898646
 20
8.78390600383273
 30
0.0
 40
0.559999990463257
  0
ARC
  5
   356
  8
0
  6
CONTINUOUS
 62
   130
 10
-104.422867640853
 20
58.7838947266341
 30
0.0
 40
0.699999988079071
 50
540.290583474834
 51
809.999999844103
  0
CIRCLE
  5
   357
  8
0
  6
CONTINUOUS
 62
   130
 10
-91.9228677898646
 20
8.78390600383273
 30
0.0
 40
0.55514766872928
  0
ARC
  5
   358
  8
0
  6
CONTINUOUS
 62
   130
 10
-91.9228677898646
 20
8.78390600383273
 30
0.0
 40
0.699999988079071
 50
449.999999844103
 51
719.712644462792
  0
LINE
  5
   359
  8
0
  6
DASHDOT
 62
   130
 10
-104.422867640853
 20
62.9838946551085
 30
0.0
 11
-104.422867640853
 21
54.5838947981597
 31
0.0
  0
LINE
  5
   35A
  8
0
  6
DASHDOT
 62
   130
 10
-109.872867569327
 20
58.7838947266341
 30
0.0
 11
-101.472867712379
 21
58.7838947266341
 31
0.0
  0
LINE
  5
   35B
  8
0
  6
CONTINUOUS
 62
   130
 10
-91.9228677898646
 20
12.9839059323071
 30
0.0
 11
-91.9228677898646
 21
4.5839060753583
 31
0.0
  0
LINE
  5
   35C
  8
0
  6
DASHDOT
 62
   130
 10
-99.247867718339
 20
8.78390600383273
 30
0.0
 11
-90.8478678613901
 21
8.78390600383273
 31
0.0
  0
LINE
  5
   35D
  8
0
  6
DASHDOT
 62
   130
 10
-98.1728730559348
 20
97.9888927684553
 30
0.0
 11
-98.1728730559348
 21
-14.4122437385629
 31
0.0
  0
LINE
  5
   35E
  8
0
  6
CONTINUOUS
 62
   130
 10
-119.761834336277
 20
86.1388401289202
 30
0.0
 11
-76.5839054859165
 21
86.1388401289202
 31
0.0
  0
LINE
  5
   35F
  8
0
  6
DASHDOT
 62
   130
 10
-116.572192371861
 20
27.7838947266341
 30
0.0
 11
-71.2437194827543
 21
27.7838947266341
 31
0.0
  0
LINE
  5
   360
  8
0
  6
DASHDOT
 62
   130
 10
-98.1728730559348
 20
85.5338947266341
 30
0.0
 11
-98.1728730559348
 21
66.5338947266341
 31
0.0
  0
LINE
  5
   361
  8
0
  6
CONTINUOUS
 62
   130
 10
-119.761834336277
 20
86.1388401289202
 30
0.0
 11
-119.761834336277
 21
-21.0710506756519
 31
0.0
  0
LINE
  5
   362
  8
0
  6
CONTINUOUS
 62
   130
 10
-76.5839054859165
 20
86.1388401289202
 30
0.0
 11
-76.5839054859165
 21
-21.0710506756519
 31
0.0
  0
LINE
  5
   363
  8
0
  6
CONTINUOUS
 62
   130
 10
-119.761834336277
 20
-21.0710506756519
 30
0.0
 11
-76.5839054859165
 21
-21.0710506756519
 31
0.0
  0
LINE
  5
   364
  8
0
  6
DASHDOT
 62
   130
 10
-98.1728730559348
 20
1.03389472663412
 30
0.0
 11
-98.1728730559348
 21
-36.3799619255882
 31
0.0
  0
INSERT
  5
   365
  8
0
  6
CONTINUOUS
 62
     3
  2
*UDIM818
 10
0.0
 20
0.0
 30
0.0
  0
TEXT
  5
   366
  8
0
  6
CONTINUOUS
 62
     2
 10
-99.2738139834581
 20
98.6153063169287
 30
0.0
 40
3.00000002980232
  1
Y
 50
359.999999844103
 41
0.916666604744064
 72
     1
 11
-98.1738140490232
 21
98.6153063139412
 31
0.0
  0
INSERT
  5
   367
  8
0
  6
CONTINUOUS
 62
     3
  2
*UDIM819
 10
0.0
 20
0.0
 30
0.0
  0
TEXT
  5
   368
  8
0
  6
CONTINUOUS
 62
     2
 10
-70.4690687671324
 20
26.3106478176511
 30
0.0
 40
3.00000002980232
  1
X
 50
359.999999844103
 41
0.916666674282816
 11
-70.4690687630586
 21
27.8106478325523
 31
0.0
 73
     2
  0
INSERT
  5
   369
  8
0
  6
CONTINUOUS
 62
     3
  2
*UDIM820
 10
0.0
 20
0.0
 30
0.0
  0
TEXT
  5
   36A
  8
0
  6
CONTINUOUS
 62
     2
 10
-146.061691316364
 20
26.3106485082674
 30
0.0
 40
3.00000002980232
  1
X
 50
359.999999844103
 41
0.916666674282816
 72
     2
 11
-143.861691234804
 21
27.8106485171936
 31
0.0
 73
     2
  0
TEXT
  5
   36B
  8
0
  6
CONTINUOUS
 62
     2
 10
-99.1687677756241
 20
-40.3042780617954
 30
0.0
 40
3.00000002980232
  1
Y
 50
359.999999844103
 41
0.916666674282816
 72
     1
 11
-98.0687677287334
 21
-37.3042780349805
 31
0.0
 73
     3
  0
INSERT
  5
   36C
  8
0
  6
CONTINUOUS
 62
     7
  2
*UDIM821
 10
0.0
 20
0.0
 30
0.0
  0
LINE
  5
   36D
  8
0
  6
DASHDOT
 62
   130
 10
-425.240265410951
 20
-114.395576477051
 30
0.0
 11
-360.685138580348
 21
-114.395576477051
 31
0.0
  0
LINE
  5
   36E
  8
0
  6
DASHDOT
 62
   130
 10
-392.311987161636
 20
-88.9402817221283
 30
0.0
 11
-392.311987161636
 21
-139.425375768585
 31
0.0
  0
CIRCLE
  5
   36F
  8
0
  6
CONTINUOUS
 62
   130
 10
-367.261986166239
 20
-95.1955757141113
 30
0.0
 40
1.20000004768372
  0
CIRCLE
  5
   370
  8
0
  6
CONTINUOUS
 62
   130
 10
-417.361988157034
 20
-95.1955757141113
 30
0.0
 40
1.20000004768372
  0
CIRCLE
  5
   371
  8
0
  6
CONTINUOUS
 62
   130
 10
-417.361988157034
 20
-133.59557723999
 30
0.0
 40
1.20000004768372
  0
CIRCLE
  5
   372
  8
0
  6
CONTINUOUS
 62
   130
 10
-367.261986166239
 20
-133.59557723999
 30
0.0
 40
1.20000004768372
  0
LINE
  5
   373
  8
0
  6
CONTINUOUS
 62
   130
 10
-366.511986136437
 20
-99.3955758810043
 30
0.0
 11
-366.511986136437
 21
-129.395577073097
 31
0.0
  0
LINE
  5
   374
  8
0
  6
CONTINUOUS
 62
   130
 10
-418.111988186836
 20
-99.3955758810043
 30
0.0
 11
-418.111988186836
 21
-129.395577073097
 31
0.0
  0
LINE
  5
   375
  8
0
  6
CONTINUOUS
 62
   130
 10
-417.211988151073
 20
-98.4955758452416
 30
0.0
 11
-367.411986172199
 21
-98.4955758452416
 31
0.0
  0
LINE
  5
   376
  8
0
  6
CONTINUOUS
 62
   130
 10
-417.211988151073
 20
-130.29557710886
 30
0.0
 11
-367.411986172199
 21
-130.29557710886
 31
0.0
  0
ARC
  5
   377
  8
0
  6
CONTINUOUS
 62
   130
 10
-367.411986172199
 20
-99.3955758810043
 30
0.0
 40
0.900000035762787
 50
359.999999844103
 51
449.999999844103
  0
ARC
  5
   378
  8
0
  6
CONTINUOUS
 62
   130
 10
-367.411986172199
 20
-129.395577073097
 30
0.0
 40
0.900000035762787
 50
269.999999844103
 51
359.999999844103
  0
ARC
  5
   379
  8
0
  6
CONTINUOUS
 62
   130
 10
-417.211988151073
 20
-129.395577073097
 30
0.0
 40
0.900000035762787
 50
539.999999844103
 51
629.999999844103
  0
ARC
  5
   37A
  8
0
  6
CONTINUOUS
 62
   130
 10
-417.211988151073
 20
-99.3955758810043
 30
0.0
 40
0.900000035762787
 50
449.999999844103
 51
539.999999844103
  0
LINE
  5
   37B
  8
0
  6
CONTINUOUS
 62
   130
 10
-420.566928310123
 20
-92.2380805002615
 30
0.0
 11
-363.464103829694
 21
-92.2380805002615
 31
0.0
  0
LINE
  5
   37C
  8
0
  6
CONTINUOUS
 62
   130
 10
-420.566928310123
 20
-136.503835911447
 30
0.0
 11
-363.464103829694
 21
-136.503835911447
 31
0.0
  0
LINE
  5
   37D
  8
0
  6
CONTINUOUS
 62
   130
 10
-420.566928310123
 20
-92.2380805002615
 30
0.0
 11
-420.566928310123
 21
-136.503835911447
 31
0.0
  0
LINE
  5
   37E
  8
0
  6
CONTINUOUS
 62
   130
 10
-363.464103829694
 20
-92.2380805002615
 30
0.0
 11
-363.464103829694
 21
-136.503835911447
 31
0.0
  0
TEXT
  5
   37F
  8
0
  6
CONTINUOUS
 62
     2
 10
-393.381757286954
 20
-87.7269545523776
 30
0.0
 40
2.99999994039535
  1
Y
 50
359.999999844103
 41
0.916666655739148
 72
     1
 11
-392.281757308809
 21
-87.7269545553651
 31
0.0
  0
TEXT
  5
   380
  8
0
  6
CONTINUOUS
 62
     2
 10
-393.470067354939
 20
-143.33039643491
 30
0.0
 40
2.99999994039535
  1
Y
 50
359.999999844103
 41
0.916666655739148
 72
     1
 11
-392.370067368646
 21
-140.330396497502
 31
0.0
 73
     3
  0
LINE
  5
   381
  8
0
  6
DASHDOT
 62
     7
 10
-367.261986166239
 20
-89.7955754995346
 30
0.0
 11
-367.261986166239
 21
-100.595575928688
 31
0.0
  0
LINE
  5
   382
  8
0
  6
DASHDOT
 62
     7
 10
-372.661986380816
 20
-95.1955757141113
 30
0.0
 11
-361.861985951662
 21
-95.1955757141113
 31
0.0
  0
LINE
  5
   383
  8
0
  6
DASHDOT
 62
     7
 10
-417.361988157034
 20
-89.7955754995346
 30
0.0
 11
-417.361988157034
 21
-100.595575928688
 31
0.0
  0
LINE
  5
   384
  8
0
  6
DASHDOT
 62
     7
 10
-422.761988371611
 20
-95.1955757141113
 30
0.0
 11
-411.961987942457
 21
-95.1955757141113
 31
0.0
  0
LINE
  5
   385
  8
0
  6
DASHDOT
 62
     7
 10
-417.361988157034
 20
-128.195577025414
 30
0.0
 11
-417.361988157034
 21
-138.995577454567
 31
0.0
  0
LINE
  5
   386
  8
0
  6
DASHDOT
 62
     7
 10
-422.761988371611
 20
-133.59557723999
 30
0.0
 11
-411.961987942457
 21
-133.59557723999
 31
0.0
  0
LINE
  5
   387
  8
0
  6
DASHDOT
 62
     7
 10
-367.261986166239
 20
-128.195577025414
 30
0.0
 11
-367.261986166239
 21
-138.995577454567
 31
0.0
  0
LINE
  5
   388
  8
0
  6
DASHDOT
 62
     7
 10
-372.661986380816
 20
-133.59557723999
 30
0.0
 11
-361.861985951662
 21
-133.59557723999
 31
0.0
  0
INSERT
  5
   389
  8
0
  6
CONTINUOUS
 62
     3
  2
*UDIM822
 10
0.0
 20
0.0
 30
0.0
  0
INSERT
  5
   38A
  8
0
  6
CONTINUOUS
 62
     3
  2
*UDIM823
 10
0.0
 20
0.0
 30
0.0
  0
INSERT
  5
   38B
  8
0
  6
CONTINUOUS
 62
     3
  2
*UDIM824
 10
0.0
 20
0.0
 30
0.0
  0
INSERT
  5
   38C
  8
0
  6
CONTINUOUS
 62
     3
  2
*UDIM825
 10
0.0
 20
0.0
 30
0.0
  0
TEXT
  5
   38D
  8
0
  6
CONTINUOUS
 62
     2
 10
-427.143461196979
 20
-116.013431572028
 30
0.0
 40
2.99999994039535
  1
X
 50
359.999999844103
 41
0.916666655739148
 72
     2
 11
-424.943461236615
 21
-114.513431607806
 31
0.0
 73
     2
  0
TEXT
  5
   38E
  8
0
  6
CONTINUOUS
 62
     2
 10
-359.917086760506
 20
-115.865028982532
 30
0.0
 40
2.99999994039535
  1
X
 50
359.999999844103
 41
0.916666655739148
 72
     2
 11
-357.717086800142
 21
-114.36502901831
 31
0.0
 73
     2
  0
INSERT
  5
   38F
  8
0
  6
CONTINUOUS
 62
     3
  2
*UDIM826
 10
0.0
 20
0.0
 30
0.0
  0
INSERT
  5
   390
  8
0
  6
CONTINUOUS
 62
     3
  2
*UDIM827
 10
0.0
 20
0.0
 30
0.0
  0
LINE
  5
   391
  8
0
  6
DOT
 62
   130
 10
-215.327116455405
 20
44.8265491832989
 30
0.0
 11
-215.727116461365
 21
44.4265491773384
 31
0.0
  0
LINE
  5
   392
  8
0
  6
DOT
 62
   130
 10
-215.727116461365
 20
40.4265491177338
 30
0.0
 11
-215.327116455405
 21
40.0265491117733
 31
0.0
  0
LINE
  5
   393
  8
0
  6
DOT
 62
   130
 10
-215.327116455405
 20
44.8265491832989
 30
0.0
 11
-215.327116455405
 21
40.0265491117733
 31
0.0
  0
LINE
  5
   394
  8
0
  6
DOT
 62
   130
 10
-204.127116288512
 20
44.8265491832989
 30
0.0
 11
-204.127116288512
 21
40.0265491117733
 31
0.0
  0
LINE
  5
   395
  8
0
  6
DOT
 62
   130
 10
-199.727116222947
 20
46.8599660680675
 30
0.0
 11
-199.727116222947
 21
37.9931322270047
 31
0.0
  0
LINE
  5
   396
  8
0
  6
DOT
 62
   130
 10
-215.327116455405
 20
40.0265491117733
 30
0.0
 11
-202.12711625871
 21
40.0265491117733
 31
0.0
  0
LINE
  5
   397
  8
0
  6
DOT
 62
   130
 10
-215.327116455405
 20
44.8265491832989
 30
0.0
 11
-202.12711625871
 21
44.8265491832989
 31
0.0
  0
ARC
  5
   398
  8
0
  6
DOT
 62
   130
 10
-208.047116346924
 20
42.4265491475361
 30
0.0
 40
9.60000014305115
 50
332.615940118948
 51
358.089786672393
  0
LINE
  5
   399
  8
0
  6
DOT
 62
   130
 10
-199.522859742271
 20
38.0110025126789
 30
0.0
 11
-202.12711625871
 21
37.7831575612543
 31
0.0
  0
LINE
  5
   39A
  8
0
  6
DOT
 62
   130
 10
-202.127116258709
 20
47.0699407338179
 30
0.0
 11
-199.52285974227
 21
46.8420957823933
 31
0.0
  0
LINE
  5
   39B
  8
0
  6
DOT
 62
   130
 10
-202.12711625871
 20
47.0699407338179
 30
0.0
 11
-202.12711625871
 21
37.7831575612543
 31
0.0
  0
LINE
  5
   39C
  8
0
  6
DOT
 62
   130
 10
-215.727106695739
 20
40.517293119086
 30
0.0
 11
-204.127116288512
 21
40.517293119086
 31
0.0
  0
LINE
  5
   39D
  8
0
  6
DOT
 62
   130
 10
-215.727106695739
 20
44.3358051759862
 30
0.0
 11
-204.127116288512
 21
44.3358051759862
 31
0.0
  0
LINE
  5
   39E
  8
0
  6
DOT
 62
   130
 10
-199.08711621341
 20
42.7465491523045
 30
0.0
 11
-199.08711621341
 21
42.1065491427677
 31
0.0
  0
LINE
  5
   39F
  8
0
  6
DOT
 62
   130
 10
-199.08711621341
 20
42.1065491427677
 30
0.0
 11
-198.452451019591
 21
42.1065491427677
 31
0.0
  0
LINE
  5
   3A0
  8
0
  6
DOT
 62
   130
 10
-199.08711621341
 20
42.7465491523045
 30
0.0
 11
-198.452451019591
 21
42.7465491523045
 31
0.0
  0
ARC
  5
   3A1
  8
0
  6
DOT
 62
   130
 10
-208.047116346924
 20
42.4265491475361
 30
0.0
 40
9.60000014305115
 50
361.910213015813
 51
387.384059569259
  0
TEXT
  5
   3A2
  8
0
  6
CONTINUOUS
 62
     2
 10
-208.34817886692
 20
-150.185488243321
 30
0.0
 40
2.50000001341104
  1
M3727 95-01-18
 50
359.999999844103
 41
0.649999610972401
 11
-208.348178863525
 21
-148.935488236615
 31
0.0
 73
     2
  0
LINE
  5
   3A3
  8
0
  6
DOT
 62
   130
 10
-228.12711664614
 20
37.6265464246214
 30
0.0
 11
-218.127116020291
 21
37.6265464246214
 31
0.0
  0
LINE
  5
   3A4
  8
0
  6
CONTINUOUS
 62
   130
 10
-238.127105300197
 20
81.6265592873097
 30
0.0
 11
-238.127105300197
 21
32.4265585541725
 31
0.0
  0
LINE
  5
   3A5
  8
0
  6
CONTINUOUS
 62
   130
 10
-217.714976140645
 20
-33.9734302282332
 30
0.0
 11
-217.714976140645
 21
-43.1527376061455
 31
0.0
  0
LINE
  5
   3A6
  8
0
  6
CONTINUOUS
 62
   130
 10
-216.114976116803
 20
-33.9734302282332
 30
0.0
 11
-216.114976116803
 21
-43.9734425842762
 31
0.0
  0
LINE
  5
   3A7
  8
0
  6
CONTINUOUS
 62
   130
 10
-217.714976140645
 20
-43.1527376061455
 30
0.0
 11
-216.114976116803
 21
-43.1527376061455
 31
0.0
  0
LINE
  5
   3A8
  8
0
  6
DASHDOT
 62
   130
 10
-219.351313749796
 20
42.4265491475361
 30
0.0
 11
-199.326504269697
 21
42.4265491475361
 31
0.0
  0
LINE
  5
   3A9
  8
0
  6
DASHDOT
 62
   130
 10
-217.442974489929
 20
-39.1734303057098
 30
0.0
 11
-204.333692723849
 21
-39.1734303057098
 31
0.0
  0
LINE
  5
   3AA
  8
0
  6
CONTINUOUS
 62
   130
 10
-178.127115252583
 20
-13.0326472698017
 30
0.0
 11
-165.835329083708
 21
-16.7470157675023
 31
0.0
  0
LINE
  5
   3AB
  8
0
  6
CONTINUOUS
 62
   130
 10
-165.835329083708
 20
-16.7470157675023
 30
0.0
 11
-165.700105693413
 21
-16.9848503657501
 31
0.0
  0
LINE
  5
   3AC
  8
0
  6
CONTINUOUS
 62
   130
 10
-165.700089189248
 20
-16.9848604656692
 30
0.0
 11
-165.698068712072
 21
-17.185452772886
 31
0.0
  0
LINE
  5
   3AD
  8
0
  6
CONTINUOUS
 62
   130
 10
-165.698076120899
 20
-17.1854460741248
 30
0.0
 11
-166.281214643395
 21
-19.5336596404213
 31
0.0
  0
LINE
  5
   3AE
  8
0
  6
CONTINUOUS
 62
   130
 10
-166.281209712848
 20
-19.5336557709737
 30
0.0
 11
-166.381420478071
 21
-19.7148451123084
 31
0.0
  0
LINE
  5
   3AF
  8
0
  6
CONTINUOUS
 62
   130
 10
-166.381415349877
 20
-19.7148514212266
 30
0.0
 11
-166.55879673831
 21
-19.8216596817959
 31
0.0
  0
LINE
  5
   3B0
  8
0
  6
CONTINUOUS
 62
   130
 10
-166.558778205438
 20
-19.8216596940263
 30
0.0
 11
-166.765798447461
 21
-19.8254683370641
 31
0.0
  0
LINE
  5
   3B1
  8
0
  6
CONTINUOUS
 62
   130
 10
-178.127115252583
 20
-17.0041454447768
 30
0.0
 11
-166.765818945901
 21
-19.8254674646643
 31
0.0
  0
LINE
  5
   3B2
  8
0
  6
DOT
 62
   130
 10
-212.527116413682
 20
47.2265492190617
 30
0.0
 11
-212.527116413682
 21
44.8265491832989
 31
0.0
  0
LINE
  5
   3B3
  8
0
  6
DOT
 62
   130
 10
-226.527116622298
 20
47.2265492190617
 30
0.0
 11
-226.527116622298
 21
37.6265490760105
 31
0.0
  0
LINE
  5
   3B4
  8
0
  6
DOT
 62
   130
 10
-228.12711664614
 20
47.2265492190617
 30
0.0
 11
-228.12711664614
 21
37.6265490760105
 31
0.0
  0
LINE
  5
   3B5
  8
0
  6
DOT
 62
   130
 10
-228.12711664614
 20
47.2265492190617
 30
0.0
 11
-212.527116413682
 21
47.2265492190617
 31
0.0
  0
LINE
  5
   3B6
  8
0
  6
DOT
 62
   130
 10
-215.727116461365
 20
37.6265490760105
 30
0.0
 11
-212.527116413682
 21
37.6265490760105
 31
0.0
  0
LINE
  5
   3B7
  8
0
  6
DOT
 62
   130
 10
-212.527116413682
 20
40.0265491117733
 30
0.0
 11
-212.527116413682
 21
37.6265490760105
 31
0.0
  0
LINE
  5
   3B8
  8
0
  6
CONTINUOUS
 62
   130
 10
-212.914976069119
 20
-34.3734424412251
 30
0.0
 11
-212.914976069119
 21
-36.7734329213398
 31
0.0
  0
LINE
  5
   3B9
  8
0
  6
CONTINUOUS
 62
   130
 10
-226.914976277736
 20
-34.3734424412251
 30
0.0
 11
-226.914976277736
 21
-43.9734425842762
 31
0.0
  0
LINE
  5
   3BA
  8
0
  6
CONTINUOUS
 62
   130
 10
-228.514976301578
 20
-34.3734424412251
 30
0.0
 11
-228.514976301578
 21
-43.9734425842762
 31
0.0
  0
LINE
  5
   3BB
  8
0
  6
CONTINUOUS
 62
   130
 10
-228.514976301578
 20
-34.3734424412251
 30
0.0
 11
-216.114976116803
 21
-34.3734424412251
 31
0.0
  0
LINE
  5
   3BC
  8
0
  6
CONTINUOUS
 62
   130
 10
-228.514976301578
 20
-43.9734425842762
 30
0.0
 11
-212.914976069119
 21
-43.9734425842762
 31
0.0
  0
LINE
  5
   3BD
  8
0
  6
CONTINUOUS
 62
   130
 10
-216.114976116803
 20
-34.3734424412251
 30
0.0
 11
-212.914976069119
 21
-34.3734424412251
 31
0.0
  0
LINE
  5
   3BE
  8
0
  6
CONTINUOUS
 62
   130
 10
-238.127105300197
 20
-13.7334421336651
 30
0.0
 11
-238.127105300197
 21
-47.9734426438808
 31
0.0
  0
LINE
  5
   3BF
  8
0
  6
DOT
 62
   130
 10
-218.127106254665
 20
46.6265454503663
 30
0.0
 11
-218.127106254665
 21
37.2665525227784
 31
0.0
  0
LINE
  5
   3C0
  8
0
  6
DOT
 62
   130
 10
-215.727106695739
 20
46.6265404552219
 30
0.0
 11
-215.727106695739
 21
36.866552516818
 31
0.0
  0
LINE
  5
   3C1
  8
0
  6
DOT
 62
   130
 10
-218.127106254095
 20
46.6265509990197
 30
0.0
 11
-215.727106695318
 21
46.6265343530629
 31
0.0
  0
LINE
  5
   3C2
  8
0
  6
DOT
 62
   130
 10
-238.341465038244
 20
10.8265491724944
 30
0.0
 11
-238.127105656235
 21
10.8265491724944
 31
0.0
  0
LINE
  5
   3C3
  8
0
  6
CONTINUOUS
 62
   130
 10
-238.127105656235
 20
45.626546639297
 30
0.0
 11
-238.127105656235
 21
-78.3734430968761
 31
0.0
  0
LINE
  5
   3C4
  8
0
  6
DASHDOT
 62
   130
 10
-244.371826919894
 20
-39.1734424172901
 30
0.0
 11
-234.334852230995
 21
-39.1734424172901
 31
0.0
  0
LINE
  5
   3C5
  8
0
  6
DASHDOT
 62
   130
 10
-244.750580681739
 20
40.8265465677714
 30
0.0
 11
-234.902982873763
 21
40.8265465677714
 31
0.0
  0
INSERT
  5
   3C6
  8
0
  6
CONTINUOUS
 62
     3
  2
*HATCH398
 10
-139.529190063477
 20
-9.97344207763672
 30
0.0
 41
0.800000011920929
 42
0.800000011920929
 50
269.999999844103
 43
0.800000011920929
  0
INSERT
  5
   3C7
  8
0
  6
CONTINUOUS
 62
     3
  2
*HATCH399
 10
-139.529190063477
 20
-9.97344207763672
 30
0.0
 41
0.800000011920929
 42
0.800000011920929
 50
269.999999844103
 43
0.800000011920929
  0
INSERT
  5
   3C8
  8
0
  6
CONTINUOUS
 62
     3
  2
*HATCH400
 10
-139.529190063477
 20
-9.97344207763672
 30
0.0
 41
0.800000011920929
 42
0.800000011920929
 50
269.999999844103
 43
0.800000011920929
  0
INSERT
  5
   3C9
  8
0
  6
CONTINUOUS
 62
     3
  2
*HATCH401
 10
-139.529190063477
 20
-9.97344207763672
 30
0.0
 41
0.800000011920929
 42
0.800000011920929
 50
269.999999844103
 43
0.800000011920929
  0
INSERT
  5
   3CA
  8
0
  6
CONTINUOUS
 62
     3
  2
*HATCH402
 10
-139.529190063477
 20
-9.97344207763672
 30
0.0
 41
0.800000011920929
 42
0.800000011920929
 50
269.999999844103
 43
0.800000011920929
  0
INSERT
  5
   3CB
  8
0
  6
CONTINUOUS
 62
     3
  2
*HATCH403
 10
-139.529190063477
 20
-9.97344207763672
 30
0.0
 41
0.800000011920929
 42
0.800000011920929
 50
269.999999844103
 43
0.800000011920929
  0
LINE
  5
   3CC
  8
0
  6
CONTINUOUS
 62
   130
 10
-182.127127519219
 20
-25.9734301090238
 30
0.0
 11
-182.127127519219
 21
-32.7734424173832
 31
0.0
  0
LINE
  5
   3CD
  8
0
  6
CONTINUOUS
 62
   130
 10
-182.127127778943
 20
-25.9734301090238
 30
0.0
 11
-178.127115252583
 21
-25.9734301090238
 31
0.0
  0
LINE
  5
   3CE
  8
0
  6
DASHDOT
 62
   130
 10
-203.487249743145
 20
42.4265631891399
 30
0.0
 11
-181.992736143673
 21
42.4265631891399
 31
0.0
  0
LINE
  5
   3CF
  8
0
  6
CONTINUOUS
 62
   130
 10
-182.127115571912
 20
10.026570427418
 30
0.0
 11
-178.127115252583
 21
10.026570427418
 31
0.0
  0
LINE
  5
   3D0
  8
0
  6
CONTINUOUS
 62
   130
 10
-182.127115312188
 20
36.0265586078167
 30
0.0
 11
-182.127115312188
 21
10.026570427418
 31
0.0
  0
LINE
  5
   3D1
  8
0
  6
CONTINUOUS
 62
   130
 10
-178.127115252583
 20
10.026570427418
 30
0.0
 11
-178.127115252583
 21
-25.9734301090238
 31
0.0
  0
LINE
  5
   3D2
  8
0
  6
CONTINUOUS
 62
   130
 10
-182.92712753114
 20
-33.5734424293041
 30
0.0
 11
-182.92712753114
 21
-34.7734424471855
 31
0.0
  0
LINE
  5
   3D3
  8
0
  6
CONTINUOUS
 62
   130
 10
-187.327127596705
 20
-34.7734424471855
 30
0.0
 11
-184.127127549022
 21
-34.7734424471855
 31
0.0
  0
LINE
  5
   3D4
  8
0
  6
CONTINUOUS
 62
   130
 10
-187.327127596705
 20
-33.5734424293041
 30
0.0
 11
-182.92712753114
 21
-33.5734424293041
 31
0.0
  0
LINE
  5
   3D5
  8
0
  6
CONTINUOUS
 62
   130
 10
-187.327127596705
 20
36.8265586197376
 30
0.0
 11
-182.927115324109
 21
36.8265586197376
 31
0.0
  0
LINE
  5
   3D6
  8
0
  6
CONTINUOUS
 62
   130
 10
-182.92712753114
 20
38.026558637619
 30
0.0
 11
-182.92712753114
 21
36.8265586197376
 31
0.0
  0
LINE
  5
   3D7
  8
0
  6
CONTINUOUS
 62
   130
 10
-187.327127596705
 20
38.026558637619
 30
0.0
 11
-184.127127549022
 21
38.026558637619
 31
0.0
  0
LINE
  5
   3D8
  8
0
  6
CONTINUOUS
 62
   130
 10
-216.114976116803
 20
-41.5734329928654
 30
0.0
 11
-208.514976003554
 21
-41.5734329928654
 31
0.0
  0
LINE
  5
   3D9
  8
0
  6
CONTINUOUS
 62
   130
 10
-216.114976116803
 20
-41.1734329869049
 30
0.0
 11
-208.514976003554
 21
-41.1734329869049
 31
0.0
  0
LINE
  5
   3DA
  8
0
  6
CONTINUOUS
 62
   130
 10
-216.114976116803
 20
-37.1734329273003
 30
0.0
 11
-208.514976003554
 21
-37.1734329273003
 31
0.0
  0
LINE
  5
   3DB
  8
0
  6
CONTINUOUS
 62
   130
 10
-216.114976116803
 20
-36.7734329213398
 30
0.0
 11
-208.514976003554
 21
-36.7734329213398
 31
0.0
  0
LINE
  5
   3DC
  8
0
  6
CONTINUOUS
 62
   130
 10
-215.714976110843
 20
-36.7734329213398
 30
0.0
 11
-215.714976110843
 21
-41.5734329928654
 31
0.0
  0
LINE
  5
   3DD
  8
0
  6
CONTINUOUS
 62
   130
 10
-216.114976116803
 20
-41.1734329869049
 30
0.0
 11
-215.714976110843
 21
-41.5734329928654
 31
0.0
  0
LINE
  5
   3DE
  8
0
  6
CONTINUOUS
 62
   130
 10
-215.714976110843
 20
-36.7734329213398
 30
0.0
 11
-216.114976116803
 21
-37.1734329273003
 31
0.0
  0
LINE
  5
   3DF
  8
0
  6
DOT
 62
   130
 10
-216.114976116803
 20
-37.1734329273003
 30
0.0
 11
-216.114976116803
 21
-41.1734329869049
 31
0.0
  0
LINE
  5
   3E0
  8
0
  6
CONTINUOUS
 62
   130
 10
-212.914976069119
 20
-41.5734329928654
 30
0.0
 11
-212.914976069119
 21
-43.9734425842762
 31
0.0
  0
LINE
  5
   3E1
  8
0
  6
CONTINUOUS
 62
   130
 10
-187.327127596705
 20
45.6265574072335
 30
0.0
 11
-187.327127596705
 21
36.8265586197376
 31
0.0
  0
LINE
  5
   3E2
  8
0
  6
CONTINUOUS
 62
   130
 10
-238.127105300197
 20
46.4265574191544
 30
0.0
 11
-188.127127608626
 21
46.4265574191544
 31
0.0
  0
ARC
  5
   3E3
  8
0
  6
CONTINUOUS
 62
   130
 10
-188.127127608626
 20
45.6265574072335
 30
0.0
 40
0.800000011920929
 50
359.999999844103
 51
449.999999844103
  0
ARC
  5
   3E4
  8
0
  6
CONTINUOUS
 62
   130
 10
-182.927115324109
 20
36.0265586078167
 30
0.0
 40
0.800000011920929
 50
359.999999844103
 51
449.999999844103
  0
ARC
  5
   3E5
  8
0
  6
CONTINUOUS
 62
   130
 10
-188.127127608626
 20
-42.3734412168
 30
0.0
 40
0.800000011920929
 50
269.999999844103
 51
359.999999844103
  0
LINE
  5
   3E6
  8
0
  6
CONTINUOUS
 62
   130
 10
-187.327127596705
 20
-33.5734424293041
 30
0.0
 11
-187.327127596705
 21
-42.3734412168
 31
0.0
  0
ARC
  5
   3E7
  8
0
  6
CONTINUOUS
 62
   130
 10
-182.92712753114
 20
-32.7734424173832
 30
0.0
 40
0.800000011920929
 50
269.999999844103
 51
359.999999844103
  0
ARC
  5
   3E8
  8
0
  6
CONTINUOUS
 62
   130
 10
-207.327115687697
 20
-9.97342987059355
 30
0.0
 40
41.9421353018263
 50
340.405499850824
 51
359.999999844103
  0
LINE
  5
   3E9
  8
0
  6
CONTINUOUS
 62
   130
 10
-165.384980385871
 20
-9.97342987059355
 30
0.0
 11
-165.384980385871
 21
-22.5630445311603
 31
0.0
  0
LINE
  5
   3EA
  8
0
  6
DASHDOT
 62
   130
 10
-245.063750633652
 20
-7.97342984080292
 30
0.0
 11
-175.401218911901
 21
-7.97342984080292
 31
0.0
  0
LINE
  5
   3EB
  8
0
  6
CONTINUOUS
 62
   130
 10
-217.714976140645
 20
-34.3734424412251
 30
0.0
 11
-217.714976140645
 21
-43.1734412287209
 31
0.0
  0
LINE
  5
   3EC
  8
0
  6
CONTINUOUS
 62
   130
 10
-228.514976301578
 20
-44.3741311877827
 30
0.0
 11
-216.114976116803
 21
-44.3741311877827
 31
0.0
  0
LINE
  5
   3ED
  8
0
  6
CONTINUOUS
 62
   130
 10
-217.714976140645
 20
-34.3734424412251
 30
0.0
 11
-217.714976140645
 21
-44.3741311877827
 31
0.0
  0
LINE
  5
   3EE
  8
0
  6
CONTINUOUS
 62
   130
 10
-225.675661270363
 20
-34.373442441225
 30
0.0
 11
-226.914976277736
 21
-37.2292552843022
 31
0.0
  0
LINE
  5
   3EF
  8
0
  6
CONTINUOUS
 62
   130
 10
-223.931497401275
 20
-34.3734424412251
 30
0.0
 11
-226.914976277736
 21
-41.2484155043744
 31
0.0
  0
LINE
  5
   3F0
  8
0
  6
CONTINUOUS
 62
   130
 10
-222.187333532187
 20
-34.3734424412251
 30
0.0
 11
-226.527255063712
 21
-44.3741311877827
 31
0.0
  0
LINE
  5
   3F1
  8
0
  6
CONTINUOUS
 62
   130
 10
-220.443169663099
 20
-34.3734424412251
 30
0.0
 11
-224.783091194624
 21
-44.3741311877827
 31
0.0
  0
LINE
  5
   3F2
  8
0
  6
CONTINUOUS
 62
   130
 10
-218.699005794011
 20
-34.3734424412251
 30
0.0
 11
-223.038927325536
 21
-44.3741311877827
 31
0.0
  0
LINE
  5
   3F3
  8
0
  6
CONTINUOUS
 62
   130
 10
-217.714976140645
 20
-36.1250560687587
 30
0.0
 11
-221.294763456448
 21
-44.3741311877827
 31
0.0
  0
LINE
  5
   3F4
  8
0
  6
CONTINUOUS
 62
   130
 10
-217.714976140645
 20
-40.1442162888309
 30
0.0
 11
-219.55059958736
 21
-44.3741311877827
 31
0.0
  0
LINE
  5
   3F5
  8
0
  6
CONTINUOUS
 62
   130
 10
-225.314976253894
 20
-43.9734425842762
 30
0.0
 11
-225.314976253894
 21
-44.3741311877827
 31
0.0
  0
LINE
  5
   3F6
  8
0
  6
CONTINUOUS
 62
   130
 10
-229.521214106475
 20
-33.5929485409505
 30
0.0
 11
-208.514976003554
 21
-33.5929485409505
 31
0.0
  0
LINE
  5
   3F7
  8
0
  6
CONTINUOUS
 62
   130
 10
-229.521214106475
 20
-33.5929485409505
 30
0.0
 11
-229.521214106475
 21
-44.7734425961971
 31
0.0
  0
LINE
  5
   3F8
  8
0
  6
CONTINUOUS
 62
   130
 10
-208.514976003554
 20
-43.1734412287209
 30
0.0
 11
-188.127127608626
 21
-43.1734412287209
 31
0.0
  0
LINE
  5
   3F9
  8
0
  6
CONTINUOUS
 62
   130
 10
-238.127105656235
 20
-43.1734412287209
 30
0.0
 11
-229.521214106475
 21
-43.1734412287209
 31
0.0
  0
LINE
  5
   3FA
  8
0
  6
CONTINUOUS
 62
   130
 10
-226.527116622298
 20
39.5886079209009
 30
0.0
 11
-225.675661270363
 21
37.6265586316586
 31
0.0
  0
LINE
  5
   3FB
  8
0
  6
CONTINUOUS
 62
   130
 10
-226.527116622298
 20
43.6077681409731
 30
0.0
 11
-223.931497401275
 21
37.6265586316586
 31
0.0
  0
LINE
  5
   3FC
  8
0
  6
CONTINUOUS
 62
   130
 10
-226.527255063712
 20
47.6272473782162
 30
0.0
 11
-222.187333532187
 21
37.6265586316586
 31
0.0
  0
LINE
  5
   3FD
  8
0
  6
CONTINUOUS
 62
   130
 10
-224.783091194624
 20
47.6272473782162
 30
0.0
 11
-220.443169663099
 21
37.6265586316586
 31
0.0
  0
LINE
  5
   3FE
  8
0
  6
CONTINUOUS
 62
   130
 10
-223.038927325536
 20
47.6272473782162
 30
0.0
 11
-218.699005794011
 21
37.6265586316585
 31
0.0
  0
LINE
  5
   3FF
  8
0
  6
CONTINUOUS
 62
   130
 10
-221.294763456448
 20
47.6272473782162
 30
0.0
 11
-218.127106254665
 21
40.3278633914982
 31
0.0
  0
LINE
  5
   400
  8
0
  6
CONTINUOUS
 62
   130
 10
-219.55059958736
 20
47.6272473782162
 30
0.0
 11
-218.127106254665
 21
44.3470236115704
 31
0.0
  0
LINE
  5
   401
  8
0
  6
CONTINUOUS
 62
   130
 10
-228.514976301578
 20
47.6272473782162
 30
0.0
 11
-216.114976116803
 21
47.6272473782162
 31
0.0
  0
LINE
  5
   402
  8
0
  6
CONTINUOUS
 62
   130
 10
-228.514976301578
 20
87.9131535835595
 30
0.0
 11
-228.514976301578
 21
47.6272473782162
 31
0.0
  0
LINE
  5
   403
  8
0
  6
CONTINUOUS
 62
   130
 10
-216.114976116803
 20
87.9131535835595
 30
0.0
 11
-216.114976116803
 21
47.6272473782162
 31
0.0
  0
LINE
  5
   404
  8
0
  6
CONTINUOUS
 62
   130
 10
-182.850116783846
 20
-50.8976426514736
 30
0.0
 11
-176.998356356931
 21
-50.8976426514736
 31
0.0
  0
LINE
  5
   405
  8
0
  6
CONTINUOUS
 62
   130
 10
-185.327115359871
 20
38.026558637619
 30
0.0
 11
-182.127115312188
 21
38.026558637619
 31
0.0
  0
LINE
  5
   406
  8
0
  6
CONTINUOUS
 62
   130
 10
-185.327115359871
 20
-34.7734424471855
 30
0.0
 11
-182.127115312188
 21
-34.7734424471855
 31
0.0
  0
LINE
  5
   407
  8
0
  6
CONTINUOUS
 62
   130
 10
-203.327105137675
 20
48.0265587866306
 30
0.0
 11
-203.327105137675
 21
-44.7734425961971
 31
0.0
  0
INSERT
  5
   408
  8
0
  6
CONTINUOUS
 62
     7
  2
*HATCH404
 10
-139.529190063477
 20
-9.97344207763672
 30
0.0
 41
0.800000011920929
 42
0.800000011920929
 50
269.999999844103
 43
0.800000011920929
  0
INSERT
  5
   409
  8
0
  6
CONTINUOUS
 62
     7
  2
*HATCH405
 10
-139.529190063477
 20
-9.97344207763672
 30
0.0
 41
0.800000011920929
 42
0.800000011920929
 50
269.999999844103
 43
0.800000011920929
  0
INSERT
  5
   40A
  8
0
  6
CONTINUOUS
 62
     7
  2
*HATCH406
 10
-139.529190063477
 20
-9.97344207763672
 30
0.0
 41
0.800000011920929
 42
0.800000011920929
 50
269.999999844103
 43
0.800000011920929
  0
LINE
  5
   40B
  8
0
  6
CONTINUOUS
 62
   130
 10
-180.527109375565
 20
10.8265704393389
 30
0.0
 11
-180.527109375565
 21
10.026570427418
 31
0.0
  0
LINE
  5
   40C
  8
0
  6
CONTINUOUS
 62
   130
 10
-180.527109375565
 20
-25.9734301090238
 30
0.0
 11
-180.527109375565
 21
-26.7734301209448
 31
0.0
  0
LINE
  5
   40D
  8
0
  6
CONTINUOUS
 62
   130
 10
-180.527109375565
 20
30.4265707314017
 30
0.0
 11
-180.527109375565
 21
12.0265704572203
 31
0.0
  0
LINE
  5
   40E
  8
0
  6
DASHDOT
 62
   130
 10
-180.527109375565
 20
58.9396420009325
 30
0.0
 11
-180.527109375565
 21
-62.7757476769388
 31
0.0
  0
LINE
  5
   40F
  8
0
  6
CONTINUOUS
 62
   130
 10
-178.127109339802
 20
-25.9734301090238
 30
0.0
 11
-178.127109339802
 21
-46.3734304130075
 31
0.0
  0
LINE
  5
   410
  8
0
  6
CONTINUOUS
 62
   130
 10
-181.727109393446
 20
10.8265704393389
 30
0.0
 11
-180.527109375565
 21
10.8265704393389
 31
0.0
  0
LINE
  5
   411
  8
0
  6
CONTINUOUS
 62
   130
 10
-181.727109393446
 20
12.0265704572203
 30
0.0
 11
-180.527109375565
 21
12.0265704572203
 31
0.0
  0
LINE
  5
   412
  8
0
  6
CONTINUOUS
 62
   130
 10
-181.727109393446
 20
12.0265704572203
 30
0.0
 11
-181.727109393446
 21
10.8265704393389
 31
0.0
  0
LINE
  5
   413
  8
0
  6
CONTINUOUS
 62
   130
 10
-180.527109375565
 20
30.4265707314017
 30
0.0
 11
-178.127109339802
 21
30.4265707314017
 31
0.0
  0
LINE
  5
   414
  8
0
  6
CONTINUOUS
 62
   130
 10
-180.527109375565
 20
-46.3734304130075
 30
0.0
 11
-178.127109339802
 21
-46.3734304130075
 31
0.0
  0
LINE
  5
   415
  8
0
  6
CONTINUOUS
 62
   130
 10
-180.527109375565
 20
-27.9734301388262
 30
0.0
 11
-180.527109375565
 21
-46.3734304130075
 31
0.0
  0
LINE
  5
   416
  8
0
  6
CONTINUOUS
 62
   130
 10
-181.727109393446
 20
-27.9734301388262
 30
0.0
 11
-180.527109375565
 21
-27.9734301388262
 31
0.0
  0
LINE
  5
   417
  8
0
  6
CONTINUOUS
 62
   130
 10
-181.727109393446
 20
-26.7734301209448
 30
0.0
 11
-181.727109393446
 21
-27.9734301388262
 31
0.0
  0
LINE
  5
   418
  8
0
  6
DOT
 62
   130
 10
-180.527109375565
 20
10.026570427418
 30
0.0
 11
-180.527109375565
 21
-25.9734301090238
 31
0.0
  0
LINE
  5
   419
  8
0
  6
CONTINUOUS
 62
   130
 10
-178.127109339802
 20
30.4265707314017
 30
0.0
 11
-178.127109339802
 21
10.026570427418
 31
0.0
  0
LINE
  5
   41A
  8
0
  6
CONTINUOUS
 62
   130
 10
-182.127109399407
 20
18.8265705585482
 30
0.0
 11
-180.527109375565
 21
18.8265705585482
 31
0.0
  0
LINE
  5
   41B
  8
0
  6
CONTINUOUS
 62
   130
 10
-182.127109399407
 20
16.4265705227854
 30
0.0
 11
-180.527109375565
 21
16.4265705227854
 31
0.0
  0
LINE
  5
   41C
  8
0
  6
CONTINUOUS
 62
   130
 10
-182.127109399407
 20
19.4265705674889
 30
0.0
 11
-182.127109399407
 21
15.8265705138447
 31
0.0
  0
LINE
  5
   41D
  8
0
  6
DOT
 62
   130
 10
-182.127109399407
 20
19.4265705674889
 30
0.0
 11
-183.727109423249
 21
18.3473569244595
 31
0.0
  0
LINE
  5
   41E
  8
0
  6
DOT
 62
   130
 10
-183.727109423249
 20
16.9057841568742
 30
0.0
 11
-182.127109399407
 21
15.8265705138447
 31
0.0
  0
LINE
  5
   41F
  8
0
  6
DOT
 62
   130
 10
-183.727109423249
 20
18.3473569244595
 30
0.0
 11
-183.727109423249
 21
16.9057841568741
 31
0.0
  0
LINE
  5
   420
  8
0
  6
DOT
 62
   130
 10
-183.727109423249
 20
-34.2942166060653
 30
0.0
 11
-182.127109399407
 21
-35.3734302490948
 31
0.0
  0
LINE
  5
   421
  8
0
  6
DOT
 62
   130
 10
-183.727109423249
 20
-32.85264383848
 30
0.0
 11
-183.727109423249
 21
-34.2942166060653
 31
0.0
  0
LINE
  5
   422
  8
0
  6
DOT
 62
   130
 10
-182.127109399407
 20
-31.7734301954506
 30
0.0
 11
-183.727109423249
 21
-32.85264383848
 31
0.0
  0
LINE
  5
   423
  8
0
  6
CONTINUOUS
 62
   130
 10
-182.127109399407
 20
-34.773430240154
 30
0.0
 11
-180.527109375565
 21
-34.773430240154
 31
0.0
  0
LINE
  5
   424
  8
0
  6
CONTINUOUS
 62
   130
 10
-182.127109399407
 20
-32.3734302043913
 30
0.0
 11
-180.527109375565
 21
-32.3734302043913
 31
0.0
  0
LINE
  5
   425
  8
0
  6
CONTINUOUS
 62
   130
 10
-180.527109375565
 20
10.8265704393389
 30
0.0
 11
-178.127109339802
 21
10.8265704393389
 31
0.0
  0
LINE
  5
   426
  8
0
  6
CONTINUOUS
 62
   130
 10
-181.727109393446
 20
-26.7734301209448
 30
0.0
 11
-178.127109339802
 21
-26.7734301209448
 31
0.0
  0
LINE
  5
   427
  8
0
  6
DASHDOT
 62
   130
 10
-181.727109393446
 20
58.9396420009325
 30
0.0
 11
-181.727109393446
 21
-63.201565144962
 31
0.0
  0
INSERT
  5
   428
  8
0
  6
CONTINUOUS
 62
     7
  2
*HATCH407
 10
-139.529190063477
 20
-9.97344207763672
 30
0.0
 41
0.800000011920929
 42
0.800000011920929
 50
269.999999844103
 43
0.800000011920929
  0
INSERT
  5
   429
  8
0
  6
CONTINUOUS
 62
     7
  2
*HATCH408
 10
-139.529190063477
 20
-9.97344207763672
 30
0.0
 41
0.800000011920929
 42
0.800000011920929
 50
269.999999844103
 43
0.800000011920929
  0
LINE
  5
   42A
  8
0
  6
CONTINUOUS
 62
   130
 10
-182.127115312188
 20
80.8265592753887
 30
0.0
 11
-182.127115312188
 21
38.026558637619
 31
0.0
  0
LINE
  5
   42B
  8
0
  6
CONTINUOUS
 62
   130
 10
-238.127105300197
 20
81.6265592873097
 30
0.0
 11
-182.927115324109
 21
81.6265592873097
 31
0.0
  0
ARC
  5
   42C
  8
0
  6
CONTINUOUS
 62
   130
 10
-182.927115324109
 20
80.8265592753887
 30
0.0
 40
0.800000011920929
 50
359.999999844103
 51
449.999999844103
  0
LINE
  5
   42D
  8
0
  6
CONTINUOUS
 62
   130
 10
-238.127105300197
 20
48.0265587866306
 30
0.0
 11
-185.327115359871
 21
48.0265587866306
 31
0.0
  0
LINE
  5
   42E
  8
0
  6
CONTINUOUS
 62
   130
 10
-185.327115359871
 20
48.0265587866306
 30
0.0
 11
-185.327115359871
 21
38.026558637619
 31
0.0
  0
LINE
  5
   42F
  8
0
  6
CONTINUOUS
 62
   130
 10
-238.127105300197
 20
-78.3734430968761
 30
0.0
 11
-182.927115324109
 21
-78.3734430968761
 31
0.0
  0
ARC
  5
   430
  8
0
  6
CONTINUOUS
 62
   130
 10
-182.927115324109
 20
-77.5734430849552
 30
0.0
 40
0.800000011920929
 50
269.999999844103
 51
359.999999844103
  0
LINE
  5
   431
  8
0
  6
CONTINUOUS
 62
   130
 10
-182.127115312188
 20
-34.7734424471855
 30
0.0
 11
-182.127115312188
 21
-77.5734430849552
 31
0.0
  0
LINE
  5
   432
  8
0
  6
CONTINUOUS
 62
   130
 10
-238.127105300197
 20
-44.7734425961971
 30
0.0
 11
-185.327115359871
 21
-44.7734425961971
 31
0.0
  0
LINE
  5
   433
  8
0
  6
CONTINUOUS
 62
   130
 10
-185.327115359871
 20
-34.7734424471855
 30
0.0
 11
-185.327115359871
 21
-44.7734425961971
 31
0.0
  0
LINE
  5
   434
  8
0
  6
CONTINUOUS
 62
   130
 10
-208.514976003554
 20
-33.5929485409505
 30
0.0
 11
-208.514976003554
 21
-44.7134930751164
 31
0.0
  0
LINE
  5
   435
  8
0
  6
CONTINUOUS
 62
   130
 10
-182.127115312188
 20
50.8265588283539
 30
0.0
 11
-179.327115270464
 21
50.8265588283539
 31
0.0
  0
LINE
  5
   436
  8
0
  6
CONTINUOUS
 62
   130
 10
-182.127115312188
 20
46.8265587687492
 30
0.0
 11
-179.327115270465
 21
46.8265587687492
 31
0.0
  0
LINE
  5
   437
  8
0
  6
CONTINUOUS
 62
   130
 10
-178.927115264504
 20
50.4265588223934
 30
0.0
 11
-178.927115264504
 21
47.2265587747097
 31
0.0
  0
CIRCLE
  5
   438
  8
0
  6
CONTINUOUS
 62
   130
 10
-180.527115288346
 20
48.8265587985516
 30
0.0
 40
0.600000008940697
  0
LINE
  5
   439
  8
0
  6
CONTINUOUS
 62
   130
 10
-179.327115270464
 20
50.8265588283539
 30
0.0
 11
-178.927115264504
 21
50.4265588223934
 31
0.0
  0
LINE
  5
   43A
  8
0
  6
CONTINUOUS
 62
   130
 10
-178.927115264504
 20
47.2265587747097
 30
0.0
 11
-179.327115270464
 21
46.8265587687492
 31
0.0
  0
LINE
  5
   43B
  8
0
  6
CONTINUOUS
 62
   130
 10
-179.327115270465
 20
50.8265588283539
 30
0.0
 11
-179.327115270465
 21
46.8265587687492
 31
0.0
  0
LINE
  5
   43C
  8
0
  6
CONTINUOUS
 62
   130
 10
-182.127115312188
 20
-47.5734426379204
 30
0.0
 11
-179.327115270464
 21
-47.5734426379204
 31
0.0
  0
LINE
  5
   43D
  8
0
  6
CONTINUOUS
 62
   130
 10
-179.327115270465
 20
-43.5734425783157
 30
0.0
 11
-179.327115270465
 21
-47.5734426379204
 31
0.0
  0
LINE
  5
   43E
  8
0
  6
CONTINUOUS
 62
   130
 10
-182.127115312188
 20
-43.5734425783157
 30
0.0
 11
-179.327115270465
 21
-43.5734425783157
 31
0.0
  0
LINE
  5
   43F
  8
0
  6
CONTINUOUS
 62
   130
 10
-178.927115264504
 20
-47.1734426319599
 30
0.0
 11
-179.327115270465
 21
-47.5734426379204
 31
0.0
  0
LINE
  5
   440
  8
0
  6
CONTINUOUS
 62
   130
 10
-178.927115264504
 20
-43.9734425842762
 30
0.0
 11
-178.927115264504
 21
-47.1734426319599
 31
0.0
  0
LINE
  5
   441
  8
0
  6
CONTINUOUS
 62
   130
 10
-179.327115270465
 20
-43.5734425783157
 30
0.0
 11
-178.927115264504
 21
-43.9734425842762
 31
0.0
  0
CIRCLE
  5
   442
  8
0
  6
CONTINUOUS
 62
   130
 10
-180.527115288346
 20
-45.5734426081181
 30
0.0
 40
0.600000008940697
  0
CIRCLE
  5
   443
  8
0
  6
CONTINUOUS
 62
   130
 10
-169.567958955454
 20
98.0776235294807
 30
0.0
 40
0.160000002384186
  0
CIRCLE
  5
   444
  8
0
  6
CONTINUOUS
 62
   130
 10
-169.757335836377
 20
96.7519853630222
 30
0.0
 40
0.160000002384186
  0
CIRCLE
  5
   445
  8
0
  6
CONTINUOUS
 62
   130
 10
-218.237817352571
 20
105.084568123618
 30
0.0
 40
1.20000001788139
  0
CIRCLE
  5
   446
  8
0
  6
CONTINUOUS
 62
   130
 10
-214.829033495964
 20
97.5094928867128
 30
0.0
 40
1.20000001788139
  0
INSERT
  5
   447
  8
0
  6
CONTINUOUS
 62
     7
  2
*HATCH409
 10
-139.529190063477
 20
-9.97344207763672
 30
0.0
 41
0.800000011920929
 42
0.800000011920929
 50
269.999999844103
 43
0.800000011920929
  0
INSERT
  5
   448
  8
0
  6
CONTINUOUS
 62
     7
  2
*HATCH410
 10
-139.529190063477
 20
-9.97344207763672
 30
0.0
 41
0.800000011920929
 42
0.800000011920929
 50
269.999999844103
 43
0.800000011920929
  0
LINE
  5
   449
  8
0
  6
CONTINUOUS
 62
   130
 10
-228.514976301578
 20
-44.3741311877827
 30
0.0
 11
-228.514976301578
 21
-84.0422256292771
 31
0.0
  0
LINE
  5
   44A
  8
0
  6
CONTINUOUS
 62
   130
 10
-216.114976116803
 20
-44.3741311877827
 30
0.0
 11
-216.114976116803
 21
-84.0422256292771
 31
0.0
  0
LINE
  5
   44B
  8
0
  6
DASHDOT
 62
   130
 10
-239.727105680077
 20
102.622668671624
 30
0.0
 11
-239.727105680077
 21
-89.9736192266931
 31
0.0
  0
LINE
  5
   44C
  8
0
  6
DASHDOT
 62
   130
 10
-238.127105656235
 20
103.190799314392
 30
0.0
 11
-238.127105656235
 21
5.14655850370735
 31
0.0
  0
LINE
  5
   44D
  8
0
  6
DASHDOT
 62
   130
 10
-238.127105656235
 20
-13.7334424897036
 30
0.0
 11
-238.127105656235
 21
-87.7010966556215
 31
0.0
  0
LINE
  5
   44E
  8
0
  6
CONTINUOUS
 62
   130
 10
-242.927105727761
 20
44.0265466154551
 30
0.0
 11
-242.927105727761
 21
37.6265465200877
 31
0.0
  0
LINE
  5
   44F
  8
0
  6
CONTINUOUS
 62
   130
 10
-243.782450033011
 20
42.4265465916133
 30
0.0
 11
-240.127105686038
 21
42.4265465916133
 31
0.0
  0
LINE
  5
   450
  8
0
  6
CONTINUOUS
 62
   130
 10
-243.782450033011
 20
39.2265465439295
 30
0.0
 11
-240.127105686038
 21
39.2265465439295
 31
0.0
  0
LINE
  5
   451
  8
0
  6
CONTINUOUS
 62
   130
 10
-242.927105727761
 20
44.0265466154551
 30
0.0
 11
-240.127105686038
 21
44.0265466154551
 31
0.0
  0
LINE
  5
   452
  8
0
  6
CONTINUOUS
 62
   130
 10
-242.927105727761
 20
37.6265465200877
 30
0.0
 11
-240.127105686038
 21
37.6265465200877
 31
0.0
  0
LINE
  5
   453
  8
0
  6
CONTINUOUS
 62
   130
 10
-239.727105680077
 20
44.4265466214156
 30
0.0
 11
-239.727105680077
 21
37.2265465141272
 31
0.0
  0
LINE
  5
   454
  8
0
  6
CONTINUOUS
 62
   130
 10
-244.182450038972
 20
42.0265465856528
 30
0.0
 11
-244.182450038972
 21
39.62654654989
 31
0.0
  0
LINE
  5
   455
  8
0
  6
CONTINUOUS
 62
   130
 10
-243.782450033011
 20
42.4265465916133
 30
0.0
 11
-244.182450038972
 21
42.0265465856528
 31
0.0
  0
LINE
  5
   456
  8
0
  6
CONTINUOUS
 62
   130
 10
-244.182450038972
 20
39.62654654989
 30
0.0
 11
-243.782450033011
 21
39.2265465439295
 31
0.0
  0
LINE
  5
   457
  8
0
  6
CONTINUOUS
 62
   130
 10
-243.782450033011
 20
42.4265465916133
 30
0.0
 11
-243.782450033011
 21
39.2265465439295
 31
0.0
  0
LINE
  5
   458
  8
0
  6
CONTINUOUS
 62
   130
 10
-244.182450038972
 20
42.0265465856528
 30
0.0
 11
-242.927105727761
 21
42.0265465856528
 31
0.0
  0
LINE
  5
   459
  8
0
  6
CONTINUOUS
 62
   130
 10
-244.182450038972
 20
39.62654654989
 30
0.0
 11
-242.927105727761
 21
39.62654654989
 31
0.0
  0
LINE
  5
   45A
  8
0
  6
CONTINUOUS
 62
   130
 10
-240.127105686038
 20
44.4265466214156
 30
0.0
 11
-240.127105686038
 21
37.2265465141272
 31
0.0
  0
LINE
  5
   45B
  8
0
  6
CONTINUOUS
 62
   130
 10
-240.127105686038
 20
44.4265466214156
 30
0.0
 11
-239.727105680077
 21
44.4265466214156
 31
0.0
  0
LINE
  5
   45C
  8
0
  6
CONTINUOUS
 62
   130
 10
-240.127105686038
 20
37.2265465141272
 30
0.0
 11
-239.727105680077
 21
37.2265465141272
 31
0.0
  0
LINE
  5
   45D
  8
0
  6
DASHDOT
 62
   130
 10
-244.750580681739
 20
-39.1734424172901
 30
0.0
 11
-234.902982873763
 21
-39.1734424172901
 31
0.0
  0
LINE
  5
   45E
  8
0
  6
CONTINUOUS
 62
   130
 10
-242.927105727761
 20
-35.9734423696063
 30
0.0
 11
-242.927105727761
 21
-42.3734424649738
 31
0.0
  0
LINE
  5
   45F
  8
0
  6
CONTINUOUS
 62
   130
 10
-243.782450033011
 20
-37.5734423934482
 30
0.0
 11
-240.127105686038
 21
-37.5734423934482
 31
0.0
  0
LINE
  5
   460
  8
0
  6
CONTINUOUS
 62
   130
 10
-243.782450033011
 20
-40.7734424411319
 30
0.0
 11
-240.127105686038
 21
-40.7734424411319
 31
0.0
  0
LINE
  5
   461
  8
0
  6
CONTINUOUS
 62
   130
 10
-242.927105727761
 20
-35.9734423696063
 30
0.0
 11
-240.127105686038
 21
-35.9734423696063
 31
0.0
  0
LINE
  5
   462
  8
0
  6
CONTINUOUS
 62
   130
 10
-242.927105727761
 20
-42.3734424649738
 30
0.0
 11
-240.127105686038
 21
-42.3734424649738
 31
0.0
  0
LINE
  5
   463
  8
0
  6
CONTINUOUS
 62
   130
 10
-244.182450038972
 20
-37.9734423994087
 30
0.0
 11
-244.182450038972
 21
-40.3734424351715
 31
0.0
  0
LINE
  5
   464
  8
0
  6
CONTINUOUS
 62
   130
 10
-243.782450033011
 20
-37.5734423934482
 30
0.0
 11
-244.182450038972
 21
-37.9734423994087
 31
0.0
  0
LINE
  5
   465
  8
0
  6
CONTINUOUS
 62
   130
 10
-244.182450038972
 20
-40.3734424351715
 30
0.0
 11
-243.782450033011
 21
-40.7734424411319
 31
0.0
  0
LINE
  5
   466
  8
0
  6
CONTINUOUS
 62
   130
 10
-243.782450033011
 20
-37.5734423934482
 30
0.0
 11
-243.782450033011
 21
-40.7734424411319
 31
0.0
  0
LINE
  5
   467
  8
0
  6
CONTINUOUS
 62
   130
 10
-244.182450038972
 20
-37.9734423994087
 30
0.0
 11
-242.927105727761
 21
-37.9734423994087
 31
0.0
  0
LINE
  5
   468
  8
0
  6
CONTINUOUS
 62
   130
 10
-244.182450038972
 20
-40.3734424351715
 30
0.0
 11
-242.927105727761
 21
-40.3734424351715
 31
0.0
  0
LINE
  5
   469
  8
0
  6
CONTINUOUS
 62
   130
 10
-240.127105686038
 20
-35.5734423636459
 30
0.0
 11
-240.127105686038
 21
-42.7734424709342
 31
0.0
  0
LINE
  5
   46A
  8
0
  6
CONTINUOUS
 62
   130
 10
-240.127105686038
 20
-35.5734423636459
 30
0.0
 11
-239.727105680077
 21
-35.5734423636459
 31
0.0
  0
LINE
  5
   46B
  8
0
  6
CONTINUOUS
 62
   130
 10
-240.127105686038
 20
-42.7734424709342
 30
0.0
 11
-239.727105680077
 21
-42.7734424709342
 31
0.0
  0
LINE
  5
   46C
  8
0
  6
CONTINUOUS
 62
   130
 10
-239.727105680077
 20
-35.5734423636459
 30
0.0
 11
-239.727105680077
 21
-42.7734424709342
 31
0.0
  0
LINE
  5
   46D
  8
0
  6
CONTINUOUS
 62
   130
 10
-228.915255159689
 20
87.9131535835595
 30
0.0
 11
-215.688438678094
 21
87.9131535835595
 31
0.0
  0
LINE
  5
   46E
  8
0
  6
CONTINUOUS
 62
   130
 10
-228.915255159689
 20
-84.0422256292771
 30
0.0
 11
-215.544842359234
 21
-84.0422256292771
 31
0.0
  0
INSERT
  5
   46F
  8
0
  6
CONTINUOUS
 62
     3
  2
*UDIM828
 10
0.0
 20
0.0
 30
0.0
  0
INSERT
  5
   470
  8
0
  6
CONTINUOUS
 62
     3
  2
*UDIM829
 10
0.0
 20
0.0
 30
0.0
  0
TEXT
  5
   471
  8
0
  6
CONTINUOUS
 62
     2
 10
-118.816987091786
 20
-133.858355551353
 30
0.0
 40
2.00000007748604
  1
3POLE LOW VOLTAGE M.C.C.B SERIES ISOMAX
 50
359.999999844103
 41
0.625
 72
     1
 11
-94.5669861495514
 21
-132.85835557847
 31
0.0
 73
     2
  0
TEXT
  5
   472
  8
0
  6
CONTINUOUS
 62
     2
 10
-112.566986718508
 20
-136.858355568327
 30
0.0
 40
2.00000007748604
  1
FIXED VERSION FRONT TERMINALS
 50
359.999999844103
 41
0.625
 72
     1
 11
-94.5669860184173
 21
-135.85835557847
 31
0.0
 73
     2
  0
TEXT
  5
   473
  8
0
  6
CONTINUOUS
 62
     2
 10
-115.934708431473
 20
-142.399966284403
 30
0.0
 40
2.00000007748604
  1
INTERR.AUTOMATICO SERIE ISOMAX
 50
359.999999844103
 41
0.625
 72
     1
 11
-97.3097077071686
 21
-141.399966296243
 31
0.0
 73
     2
  0
TEXT
  5
   474
  8
0
  6
CONTINUOUS
 62
     2
 10
-125.934708687769
 20
-145.399966257244
 30
0.0
 40
2.00000007748604
  1
TRIP0L.ESECUZIONE FISSA TERM.ANT.E COPRIT.ALTI
 50
359.999999844103
 41
0.625
 72
     1
 11
-97.3097075760345
 21
-144.399966296243
 31
0.0
 73
     2
  0
TEXT
  5
   475
  8
0
  6
CONTINUOUS
 62
     2
 10
-219.814914706085
 20
-133.250094311499
 30
0.0
 40
2.00000007748604
  1
3/11/92
 50
359.999999844103
 41
0.625
 11
-219.814914703369
 21
-132.250094272756
 31
0.0
 73
     2
  0
TEXT
  5
   476
  8
0
  6
CONTINUOUS
 62
     2
 10
-219.814914706085
 20
-137.250094311499
 30
0.0
 40
2.00000007748604
  1
MOSTOSI
 50
359.999999844103
 41
0.625
 11
-219.814914703369
 21
-136.250094272756
 31
0.0
 73
     2
  0
TEXT
  5
   477
  8
0
  6
CONTINUOUS
 62
     2
 10
-96.9636167446036
 20
-152.628130937041
 30
0.0
 40
2.99999994933605
  1
S1
 50
359.999999844103
 41
0.916666607525612
 72
     1
 11
-94.4886169433594
 21
-151.128130969095
 31
0.0
 73
     2
  0
TEXT
  5
   478
  8
0
  6
CONTINUOUS
 62
     2
 10
-58.5060281882394
 20
-163.074267441332
 30
0.0
 40
2.50000001341104
  1
1/1
 50
359.999999844103
 41
0.954999921455383
 72
     1
 11
-55.1635284423828
 21
-161.824267443704
 31
0.0
 73
     2
  0
TEXT
  5
   479
  8
0
  6
CONTINUOUS
 62
     2
 10
-116.876512248426
 20
-162.018923768191
 30
0.0
 40
5.00000002682209
  1
601855/211
 50
359.999999844103
 41
0.916666520675022
 72
     1
 11
-94.4181823730469
 21
-159.518923815775
 31
0.0
 73
     2
  0
TEXT
  5
   47A
  8
0
  6
CONTINUOUS
 62
     2
 10
-215.207786230162
 20
105.395188244606
 30
0.0
 40
2.00000007748604
  1
75mm.CON VITI SIGILLABILI
 50
359.999999844103
 41
0.625
 11
-215.207786227446
 21
106.39518828335
 31
0.0
 73
     2
  0
TEXT
  5
   47B
  8
0
  6
CONTINUOUS
 62
     2
 10
-215.207786099027
 20
102.395188215589
 30
0.0
 40
2.00000007748604
  1
75mm.WITH SCREWS TO SEAL
 50
359.999999844103
 41
0.625
 11
-215.207786096312
 21
103.395188254332
 31
0.0
 73
     2
  0
TEXT
  5
   47C
  8
0
  6
CONTINUOUS
 62
     2
 10
-249.144841007725
 20
-9.50880540810343
 30
0.0
 40
2.99999994933605
  1
X
 50
359.999999844103
 41
0.916666607525612
 72
     1
 11
-248.044841094548
 21
-8.00880543642288
 31
0.0
 73
     2
  0
TEXT
  5
   47D
  8
0
  6
CONTINUOUS
 62
     2
 10
-174.591086234678
 20
-9.81105055268291
 30
0.0
 40
2.99999994933605
  1
X
 50
359.999999844103
 41
0.916666607525612
 72
     1
 11
-173.491086321501
 21
-8.31105058100236
 31
0.0
 73
     2
  0
INSERT
  5
   47E
  8
0
  6
CONTINUOUS
 62
     7
  2
*UDIM830
 10
0.0
 20
0.0
 30
0.0
  0
INSERT
  5
   47F
  8
0
  6
CONTINUOUS
 62
     7
  2
*UDIM831
 10
0.0
 20
0.0
 30
0.0
  0
INSERT
  5
   480
  8
0
  6
CONTINUOUS
 62
     3
  2
*UDIM832
 10
0.0
 20
0.0
 30
0.0
  0
INSERT
  5
   481
  8
0
  6
CONTINUOUS
 62
     3
  2
*UDIM833
 10
0.0
 20
0.0
 30
0.0
  0
INSERT
  5
   482
  8
0
  6
CONTINUOUS
 62
     3
  2
*UDIM834
 10
0.0
 20
0.0
 30
0.0
  0
ENDSEC
  0
EOF
