ISO-10303-21;
HEADER;
FILE_DESCRIPTION(('CATIA V5 STEP Exchange'),'2;1');

FILE_NAME('Q:\\Catia\\Armadio MAIN 22082012\\Materiale uscita\\RU\\PTRS1601 (1 piece).stp','2014-05-30T15:59:02+00:00',('none'),('none'),'CATIA Version 5 Release 20 SP 6 (IN-10)','CATIA V5 STEP AP203','none');

FILE_SCHEMA(('CONFIG_CONTROL_DESIGN'));

ENDSEC;
/* file written by CATIA V5R20 */
DATA;
#5=PRODUCT('861007_001_00_TIRANTE_ACCIAIO_INOX_BARRE_120_A_200_____3PA','AB26B_P0027_A','NOT SPECIFIED',(#2)) ;
#1=APPLICATION_CONTEXT('configuration controlled 3D design of mechanical parts and assemblies') ;
#14=PRODUCT_DEFINITION('design',' ',#6,#3) ;
#16=SECURITY_CLASSIFICATION(' ',' ',#15) ;
#15=SECURITY_CLASSIFICATION_LEVEL('unclassified') ;
#47=CARTESIAN_POINT(' ',(0.,0.,0.)) ;
#52=CARTESIAN_POINT('Axis2P3D Location',(-250.,0.,0.)) ;
#57=CARTESIAN_POINT('Axis2P3D Location',(-250.,-2.23255531843E-016,-1.64607350138E-016)) ;
#61=CARTESIAN_POINT('Vertex',(-250.,-3.5,-2.84460543939E-015)) ;
#63=CARTESIAN_POINT('Vertex',(-250.,3.5,2.08676435941E-015)) ;
#66=CARTESIAN_POINT('Axis2P3D Location',(-250.,-2.23255531843E-016,-1.64607350138E-016)) ;
#76=CARTESIAN_POINT('Axis2P3D Location',(-253.5,1.25825276124E-015,-1.18423789293E-015)) ;
#81=CARTESIAN_POINT('Line Origine',(-249.25,4.25,2.53765262771E-016)) ;
#85=CARTESIAN_POINT('Vertex',(-248.5,5.,-5.66553889765E-015)) ;
#88=CARTESIAN_POINT('Line Origine',(-249.25,-4.25,-4.18687073477E-015)) ;
#92=CARTESIAN_POINT('Vertex',(-248.5,-5.,6.12323399574E-016)) ;
#95=CARTESIAN_POINT('Axis2P3D Location',(-248.5,-2.22044604925E-016,-4.4408920985E-016)) ;
#107=CARTESIAN_POINT('Axis2P3D Location',(-253.5,3.25665420557E-015,2.70419970748E-015)) ;
#112=CARTESIAN_POINT('Axis2P3D Location',(-248.5,-4.4408920985E-016,-8.97382586979E-016)) ;
#124=CARTESIAN_POINT('Axis2P3D Location',(0.,0.,0.)) ;
#129=CARTESIAN_POINT('Axis2P3D Location',(0.,-2.23255531843E-016,-1.64607350138E-016)) ;
#133=CARTESIAN_POINT('Vertex',(0.,3.5,2.08676435941E-015)) ;
#135=CARTESIAN_POINT('Vertex',(0.,-3.5,-2.84460543939E-015)) ;
#138=CARTESIAN_POINT('Axis2P3D Location',(0.,-2.23255531843E-016,-1.64607350138E-016)) ;
#148=CARTESIAN_POINT('Axis2P3D Location',(-125.,0.,0.)) ;
#153=CARTESIAN_POINT('Line Origine',(-125.,5.,0.)) ;
#157=CARTESIAN_POINT('Vertex',(-1.5,5.,-5.66553889765E-015)) ;
#160=CARTESIAN_POINT('Line Origine',(-125.,-5.,6.12323399574E-016)) ;
#164=CARTESIAN_POINT('Vertex',(-1.5,-5.,6.12323399574E-016)) ;
#167=CARTESIAN_POINT('Axis2P3D Location',(-1.5,0.,0.)) ;
#179=CARTESIAN_POINT('Axis2P3D Location',(-1.5,0.,0.)) ;
#191=CARTESIAN_POINT('Axis2P3D Location',(3.5,1.25825276124E-015,-1.18423789293E-015)) ;
#196=CARTESIAN_POINT('Line Origine',(-0.75,4.25,-1.7763568394E-016)) ;
#201=CARTESIAN_POINT('Line Origine',(-0.75,-4.25,-4.12112451048E-016)) ;
#213=CARTESIAN_POINT('Axis2P3D Location',(3.5,3.25665420557E-015,2.70419970748E-015)) ;
#53=DIRECTION('Axis2P3D Direction',(1.,0.,0.)) ;
#54=DIRECTION('Axis2P3D XDirection',(0.,1.,0.)) ;
#58=DIRECTION('Axis2P3D Direction',(1.,0.,0.)) ;
#67=DIRECTION('Axis2P3D Direction',(1.,0.,0.)) ;
#77=DIRECTION('Axis2P3D Direction',(1.,-2.96059473233E-016,1.48029736617E-016)) ;
#78=DIRECTION('Axis2P3D XDirection',(2.63417803193E-016,1.,8.881784197E-017)) ;
#82=DIRECTION('Vector Direction',(0.707106781187,0.707106781187,2.3925218418E-016)) ;
#89=DIRECTION('Vector Direction',(0.707106781187,-0.707106781187,-4.99572245618E-016)) ;
#96=DIRECTION('Axis2P3D Direction',(1.,-1.31476817537E-032,1.48029736617E-016)) ;
#108=DIRECTION('Axis2P3D Direction',(1.,-7.40148683083E-016,-7.20316458892E-016)) ;
#109=DIRECTION('Axis2P3D XDirection',(2.63417803193E-016,-0.5,0.866025403784)) ;
#113=DIRECTION('Axis2P3D Direction',(1.,-8.67017688395E-016,-5.00572895787E-016)) ;
#125=DIRECTION('Axis2P3D Direction',(1.,0.,0.)) ;
#126=DIRECTION('Axis2P3D XDirection',(0.,1.,0.)) ;
#130=DIRECTION('Axis2P3D Direction',(1.,0.,0.)) ;
#139=DIRECTION('Axis2P3D Direction',(1.,0.,0.)) ;
#149=DIRECTION('Axis2P3D Direction',(1.,0.,0.)) ;
#150=DIRECTION('Axis2P3D XDirection',(0.,1.,0.)) ;
#154=DIRECTION('Vector Direction',(1.,0.,0.)) ;
#161=DIRECTION('Vector Direction',(1.,0.,0.)) ;
#168=DIRECTION('Axis2P3D Direction',(1.,0.,0.)) ;
#180=DIRECTION('Axis2P3D Direction',(1.,0.,0.)) ;
#192=DIRECTION('Axis2P3D Direction',(-1.,-2.96059473233E-016,1.48029736617E-016)) ;
#193=DIRECTION('Axis2P3D XDirection',(-2.63417803193E-016,1.,8.881784197E-017)) ;
#197=DIRECTION('Vector Direction',(-0.707106781187,0.707106781187,1.67476528926E-016)) ;
#202=DIRECTION('Vector Direction',(-0.707106781187,-0.707106781187,1.28464737855E-016)) ;
#214=DIRECTION('Axis2P3D Direction',(-1.,-7.40148683083E-016,-7.20316458892E-016)) ;
#215=DIRECTION('Axis2P3D XDirection',(-2.63417803193E-016,-0.5,0.866025403784)) ;
#48=AXIS2_PLACEMENT_3D(' ',#47,$,$) ;
#55=AXIS2_PLACEMENT_3D('Plane Axis2P3D',#52,#53,#54) ;
#59=AXIS2_PLACEMENT_3D('Circle Axis2P3D',#57,#58,$) ;
#68=AXIS2_PLACEMENT_3D('Circle Axis2P3D',#66,#67,$) ;
#79=AXIS2_PLACEMENT_3D('Cone Axis2P3D',#76,#77,#78) ;
#97=AXIS2_PLACEMENT_3D('Circle Axis2P3D',#95,#96,$) ;
#110=AXIS2_PLACEMENT_3D('Cone Axis2P3D',#107,#108,#109) ;
#114=AXIS2_PLACEMENT_3D('Circle Axis2P3D',#112,#113,$) ;
#127=AXIS2_PLACEMENT_3D('Plane Axis2P3D',#124,#125,#126) ;
#131=AXIS2_PLACEMENT_3D('Circle Axis2P3D',#129,#130,$) ;
#140=AXIS2_PLACEMENT_3D('Circle Axis2P3D',#138,#139,$) ;
#151=AXIS2_PLACEMENT_3D('Cylinder Axis2P3D',#148,#149,#150) ;
#169=AXIS2_PLACEMENT_3D('Circle Axis2P3D',#167,#168,$) ;
#181=AXIS2_PLACEMENT_3D('Circle Axis2P3D',#179,#180,$) ;
#194=AXIS2_PLACEMENT_3D('Cone Axis2P3D',#191,#192,#193) ;
#216=AXIS2_PLACEMENT_3D('Cone Axis2P3D',#213,#214,#215) ;
#40=PRODUCT_DEFINITION_SHAPE(' ',' ',#14) ;
#31=APPROVAL_PERSON_ORGANIZATION(#25,#21,#19) ;
#25=PERSON_AND_ORGANIZATION(#22,#23) ;
#22=PERSON(' ',' ',' ',$,$,$) ;
#23=ORGANIZATION(' ',' ',' ') ;
#21=APPROVAL(#20,' ') ;
#20=APPROVAL_STATUS('not_yet_approved') ;
#19=APPROVAL_ROLE('APPROVER') ;
#13=DATE_AND_TIME(#11,#12) ;
#12=LOCAL_TIME(17,59,2.,#10) ;
#10=COORDINATED_UNIVERSAL_TIME_OFFSET(0,0,.AHEAD.) ;
#72=ORIENTED_EDGE('',*,*,#65,.F.) ;
#73=ORIENTED_EDGE('',*,*,#70,.F.) ;
#101=ORIENTED_EDGE('',*,*,#87,.T.) ;
#102=ORIENTED_EDGE('',*,*,#70,.T.) ;
#103=ORIENTED_EDGE('',*,*,#94,.F.) ;
#104=ORIENTED_EDGE('',*,*,#99,.F.) ;
#118=ORIENTED_EDGE('',*,*,#94,.T.) ;
#119=ORIENTED_EDGE('',*,*,#65,.T.) ;
#120=ORIENTED_EDGE('',*,*,#87,.F.) ;
#121=ORIENTED_EDGE('',*,*,#116,.F.) ;
#144=ORIENTED_EDGE('',*,*,#137,.T.) ;
#145=ORIENTED_EDGE('',*,*,#142,.T.) ;
#173=ORIENTED_EDGE('',*,*,#159,.T.) ;
#174=ORIENTED_EDGE('',*,*,#99,.T.) ;
#175=ORIENTED_EDGE('',*,*,#166,.F.) ;
#176=ORIENTED_EDGE('',*,*,#171,.F.) ;
#185=ORIENTED_EDGE('',*,*,#166,.T.) ;
#186=ORIENTED_EDGE('',*,*,#116,.T.) ;
#187=ORIENTED_EDGE('',*,*,#159,.F.) ;
#188=ORIENTED_EDGE('',*,*,#183,.F.) ;
#207=ORIENTED_EDGE('',*,*,#200,.T.) ;
#208=ORIENTED_EDGE('',*,*,#171,.T.) ;
#209=ORIENTED_EDGE('',*,*,#205,.F.) ;
#210=ORIENTED_EDGE('',*,*,#137,.F.) ;
#219=ORIENTED_EDGE('',*,*,#205,.T.) ;
#220=ORIENTED_EDGE('',*,*,#183,.T.) ;
#221=ORIENTED_EDGE('',*,*,#200,.F.) ;
#222=ORIENTED_EDGE('',*,*,#142,.F.) ;
#51=CLOSED_SHELL('Closed Shell',(#75,#106,#123,#147,#178,#190,#212,#224)) ;
#83=VECTOR('Line Direction',#82,1.) ;
#90=VECTOR('Line Direction',#89,1.) ;
#155=VECTOR('Line Direction',#154,1.) ;
#162=VECTOR('Line Direction',#161,1.) ;
#198=VECTOR('Line Direction',#197,1.) ;
#203=VECTOR('Line Direction',#202,1.) ;
#226=ADVANCED_BREP_SHAPE_REPRESENTATION('NONE',(#225),#46) ;
#49=SHAPE_REPRESENTATION(' ',(#48),#46) ;
#75=ADVANCED_FACE('MANIFOLD_SOLID_BREP #286',(#74),#56,.F.) ;
#106=ADVANCED_FACE('MANIFOLD_SOLID_BREP #286',(#105),#80,.T.) ;
#123=ADVANCED_FACE('MANIFOLD_SOLID_BREP #286',(#122),#111,.T.) ;
#147=ADVANCED_FACE('MANIFOLD_SOLID_BREP #286',(#146),#128,.T.) ;
#178=ADVANCED_FACE('MANIFOLD_SOLID_BREP #286',(#177),#152,.T.) ;
#190=ADVANCED_FACE('MANIFOLD_SOLID_BREP #286',(#189),#152,.T.) ;
#212=ADVANCED_FACE('MANIFOLD_SOLID_BREP #286',(#211),#195,.T.) ;
#224=ADVANCED_FACE('MANIFOLD_SOLID_BREP #286',(#223),#217,.T.) ;
#4=APPLICATION_PROTOCOL_DEFINITION('international standard','config_control_design',1994,#1) ;
#32=APPROVAL_DATE_TIME(#13,#21) ;
#225=MANIFOLD_SOLID_BREP('MANIFOLD_SOLID_BREP #286',#51) ;
#11=CALENDAR_DATE(2014,30,5) ;
#30=CC_DESIGN_APPROVAL(#21,(#16,#6,#14)) ;
#18=CC_DESIGN_DATE_AND_TIME_ASSIGNMENT(#13,#17,(#16)) ;
#29=CC_DESIGN_DATE_AND_TIME_ASSIGNMENT(#13,#28,(#14)) ;
#17=DATE_TIME_ROLE('classification_date') ;
#28=DATE_TIME_ROLE('creation_date') ;
#27=CC_DESIGN_PERSON_AND_ORGANIZATION_ASSIGNMENT(#25,#26,(#16)) ;
#33=CC_DESIGN_PERSON_AND_ORGANIZATION_ASSIGNMENT(#25,#34,(#6)) ;
#35=CC_DESIGN_PERSON_AND_ORGANIZATION_ASSIGNMENT(#25,#36,(#6,#14)) ;
#37=CC_DESIGN_PERSON_AND_ORGANIZATION_ASSIGNMENT(#25,#38,(#5)) ;
#26=PERSON_AND_ORGANIZATION_ROLE('classification_officer') ;
#34=PERSON_AND_ORGANIZATION_ROLE('design_supplier') ;
#36=PERSON_AND_ORGANIZATION_ROLE('creator') ;
#38=PERSON_AND_ORGANIZATION_ROLE('design_owner') ;
#39=CC_DESIGN_SECURITY_CLASSIFICATION(#16,(#6)) ;
#60=CIRCLE('generated circle',#59,3.5) ;
#69=CIRCLE('generated circle',#68,3.5) ;
#98=CIRCLE('generated circle',#97,5.) ;
#115=CIRCLE('generated circle',#114,5.) ;
#132=CIRCLE('generated circle',#131,3.5) ;
#141=CIRCLE('generated circle',#140,3.5) ;
#170=CIRCLE('generated circle',#169,5.) ;
#182=CIRCLE('generated circle',#181,5.) ;
#80=CONICAL_SURFACE('Cone',#79,0.,0.785398163397) ;
#111=CONICAL_SURFACE('Cone',#110,0.,0.785398163397) ;
#195=CONICAL_SURFACE('Cone',#194,0.,0.785398163397) ;
#217=CONICAL_SURFACE('Cone',#216,0.,0.785398163397) ;
#227=SHAPE_REPRESENTATION_RELATIONSHIP(' ',' ',#49,#226) ;
#152=CYLINDRICAL_SURFACE('generated cylinder',#151,5.) ;
#3=DESIGN_CONTEXT(' ',#1,'design') ;
#65=EDGE_CURVE('',#62,#64,#60,.T.) ;
#70=EDGE_CURVE('',#64,#62,#69,.T.) ;
#87=EDGE_CURVE('',#86,#64,#84,.F.) ;
#94=EDGE_CURVE('',#93,#62,#91,.F.) ;
#99=EDGE_CURVE('',#86,#93,#98,.T.) ;
#116=EDGE_CURVE('',#93,#86,#115,.T.) ;
#137=EDGE_CURVE('',#134,#136,#132,.T.) ;
#142=EDGE_CURVE('',#136,#134,#141,.T.) ;
#159=EDGE_CURVE('',#158,#86,#156,.F.) ;
#166=EDGE_CURVE('',#165,#93,#163,.F.) ;
#171=EDGE_CURVE('',#158,#165,#170,.T.) ;
#183=EDGE_CURVE('',#165,#158,#182,.T.) ;
#200=EDGE_CURVE('',#134,#158,#199,.T.) ;
#205=EDGE_CURVE('',#136,#165,#204,.T.) ;
#71=EDGE_LOOP('',(#72,#73)) ;
#100=EDGE_LOOP('',(#101,#102,#103,#104)) ;
#117=EDGE_LOOP('',(#118,#119,#120,#121)) ;
#143=EDGE_LOOP('',(#144,#145)) ;
#172=EDGE_LOOP('',(#173,#174,#175,#176)) ;
#184=EDGE_LOOP('',(#185,#186,#187,#188)) ;
#206=EDGE_LOOP('',(#207,#208,#209,#210)) ;
#218=EDGE_LOOP('',(#219,#220,#221,#222)) ;
#74=FACE_OUTER_BOUND('',#71,.T.) ;
#105=FACE_OUTER_BOUND('',#100,.T.) ;
#122=FACE_OUTER_BOUND('',#117,.T.) ;
#146=FACE_OUTER_BOUND('',#143,.T.) ;
#177=FACE_OUTER_BOUND('',#172,.T.) ;
#189=FACE_OUTER_BOUND('',#184,.T.) ;
#211=FACE_OUTER_BOUND('',#206,.T.) ;
#223=FACE_OUTER_BOUND('',#218,.T.) ;
#45=UNCERTAINTY_MEASURE_WITH_UNIT(LENGTH_MEASURE(0.005),#41,'distance_accuracy_value','CONFUSED CURVE UNCERTAINTY') ;
#84=LINE('Line',#81,#83) ;
#91=LINE('Line',#88,#90) ;
#156=LINE('Line',#153,#155) ;
#163=LINE('Line',#160,#162) ;
#199=LINE('Line',#196,#198) ;
#204=LINE('Line',#201,#203) ;
#2=MECHANICAL_CONTEXT(' ',#1,'mechanical') ;
#24=PERSONAL_ADDRESS(' ',' ',' ',' ',' ',' ',' ',' ',' ',' ',' ',' ',(#22),' ') ;
#56=PLANE('',#55) ;
#128=PLANE('',#127) ;
#43=PLANE_ANGLE_MEASURE_WITH_UNIT(PLANE_ANGLE_MEASURE(0.0174532925199),#42) ;
#7=PRODUCT_CATEGORY('part',$) ;
#9=PRODUCT_CATEGORY_RELATIONSHIP(' ',' ',#7,#8) ;
#6=PRODUCT_DEFINITION_FORMATION_WITH_SPECIFIED_SOURCE('6',' ',#5,.MADE.) ;
#8=PRODUCT_RELATED_PRODUCT_CATEGORY('detail',$,(#5)) ;
#50=SHAPE_DEFINITION_REPRESENTATION(#40,#49) ;
#62=VERTEX_POINT('',#61) ;
#64=VERTEX_POINT('',#63) ;
#86=VERTEX_POINT('',#85) ;
#93=VERTEX_POINT('',#92) ;
#134=VERTEX_POINT('',#133) ;
#136=VERTEX_POINT('',#135) ;
#158=VERTEX_POINT('',#157) ;
#165=VERTEX_POINT('',#164) ;
#41=(LENGTH_UNIT()NAMED_UNIT(*)SI_UNIT(.MILLI.,.METRE.)) ;
#42=(NAMED_UNIT(*)PLANE_ANGLE_UNIT()SI_UNIT($,.RADIAN.)) ;
#44=(NAMED_UNIT(*)SI_UNIT($,.STERADIAN.)SOLID_ANGLE_UNIT()) ;
#46=(GEOMETRIC_REPRESENTATION_CONTEXT(3)GLOBAL_UNCERTAINTY_ASSIGNED_CONTEXT((#45))GLOBAL_UNIT_ASSIGNED_CONTEXT((#41,#42,#44))REPRESENTATION_CONTEXT(' ',' ')) ;
ENDSEC;
END-ISO-10303-21;
