  0
SECTION
  2
HEADER
  9
$ACADVER
  1
AC1009
  9
$DWGCODEPAGE
  3
iso8859-1
  9
$INSBASE
 10
0.0
 20
0.0
 30
0.0
  9
$EXTMIN
 10
1.0E20
 20
1.0E20
  9
$EXTMAX
 10
-1.0E20
 20
-1.0E20
  9
$LIMMIN
 10
0.0
 20
0.0
  9
$LIMMAX
 10
12.0
 20
9.0
  9
$ORTHOMODE
 70
     0
  9
$REGENMODE
 70
     1
  9
$FILLMODE
 70
     1
  9
$QTEXTMODE
 70
     0
  9
$MIRRTEXT
 70
     1
  9
$DRAGMODE
 70
     2
  9
$LTSCALE
 40
15.0
  9
$OSMODE
 70
     0
  9
$ATTMODE
 70
     1
  9
$TEXTSIZE
 40
0.2
  9
$TRACEWID
 40
0.05
  9
$TEXTSTYLE
  7
STANDARD
  9
$CLAYER
  8
0
  9
$CELTYPE
  6
DASHED
  9
$CECOLOR
 62
   256
  9
$DIMSCALE
 40
1.0
  9
$DIMASZ
 40
0.18
  9
$DIMEXO
 40
0.0625
  9
$DIMDLI
 40
0.38
  9
$DIMRND
 40
0.0
  9
$DIMDLE
 40
0.0
  9
$DIMEXE
 40
0.18
  9
$DIMTP
 40
0.0
  9
$DIMTM
 40
0.0
  9
$DIMTXT
 40
0.18
  9
$DIMCEN
 40
0.09
  9
$DIMTSZ
 40
0.0
  9
$DIMTOL
 70
     0
  9
$DIMLIM
 70
     0
  9
$DIMTIH
 70
     1
  9
$DIMTOH
 70
     1
  9
$DIMSE1
 70
     0
  9
$DIMSE2
 70
     0
  9
$DIMTAD
 70
     0
  9
$DIMZIN
 70
     0
  9
$DIMBLK
  1

  9
$DIMASO
 70
     1
  9
$DIMSHO
 70
     1
  9
$DIMPOST
  1

  9
$DIMAPOST
  1

  9
$DIMALT
 70
     0
  9
$DIMALTD
 70
     2
  9
$DIMALTF
 40
25.4
  9
$DIMLFAC
 40
1.0
  9
$DIMTOFL
 70
     0
  9
$DIMTVP
 40
0.0
  9
$DIMTIX
 70
     0
  9
$DIMSOXD
 70
     0
  9
$DIMSAH
 70
     0
  9
$DIMBLK1
  1

  9
$DIMBLK2
  1

  9
$DIMSTYLE
  2
STANDARD
  9
$DIMCLRD
 70
     0
  9
$DIMCLRE
 70
     0
  9
$DIMCLRT
 70
     0
  9
$DIMTFAC
 40
1.0
  9
$DIMGAP
 40
0.09
  9
$LUNITS
 70
     2
  9
$LUPREC
 70
     4
  9
$AXISMODE
 70
     0
  9
$AXISUNIT
 10
0.0
 20
0.0
  9
$SKETCHINC
 40
0.1
  9
$FILLETRAD
 40
0.0
  9
$AUNITS
 70
     0
  9
$AUPREC
 70
     0
  9
$MENU
  1
acad
  9
$ELEVATION
 40
0.0
  9
$PELEVATION
 40
0.0
  9
$THICKNESS
 40
0.0
  9
$LIMCHECK
 70
     0
  9
$BLIPMODE
 70
     1
  9
$CHAMFERA
 40
0.0
  9
$CHAMFERB
 40
0.0
  9
$SKPOLY
 70
     0
  9
$TDCREATE
 40
0.000000000
  9
$TDUPDATE
 40
0.000000000
  9
$TDINDWG
 40
0.0
  9
$TDUSRTIMER
 40
0.0
  9
$USRTIMER
 70
     1
  9
$ANGBASE
 50
0.0
  9
$ANGDIR
 70
     0
  9
$PDMODE
 70
     0
  9
$PDSIZE
 40
0.0
  9
$PLINEWID
 40
0.0
  9
$COORDS
 70
     1
  9
$SPLFRAME
 70
     0
  9
$SPLINETYPE
 70
     6
  9
$SPLINESEGS
 70
     8
  9
$ATTDIA
 70
     0
  9
$ATTREQ
 70
     1
  9
$HANDLING
 70
     1
  9
$HANDSEED
  5
   586
  9
$SURFTAB1
 70
     6
  9
$SURFTAB2
 70
     6
  9
$SURFTYPE
 70
     6
  9
$SURFU
 70
     6
  9
$SURFV
 70
     6
  9
$UCSNAME
  2

  9
$UCSORG
 10
0.0
 20
0.0
 30
0.0
  9
$UCSXDIR
 10
1.0
 20
0.0
 30
0.0
  9
$UCSYDIR
 10
0.0
 20
1.0
 30
0.0
  9
$PUCSNAME
  2

  9
$PUCSORG
 10
0.0
 20
0.0
 30
0.0
  9
$PUCSXDIR
 10
1.0
 20
0.0
 30
0.0
  9
$PUCSYDIR
 10
0.0
 20
1.0
 30
0.0
  9
$USERI1
 70
     0
  9
$USERI2
 70
     0
  9
$USERI3
 70
     0
  9
$USERI4
 70
     0
  9
$USERI5
 70
     0
  9
$USERR1
 40
0.0
  9
$USERR2
 40
0.0
  9
$USERR3
 40
0.0
  9
$USERR4
 40
0.0
  9
$USERR5
 40
0.0
  9
$WORLDVIEW
 70
     1
  9
$SHADEDGE
 70
     3
  9
$SHADEDIF
 70
    70
  9
$TILEMODE
 70
     1
  9
$MAXACTVP
 70
    16
  9
$PINSBASE
 10
0.0
 20
0.0
 30
0.0
  9
$PLIMCHECK
 70
     0
  9
$PEXTMIN
 10
1.0E20
 20
1.0E20
 30
1.0E20
  9
$PEXTMAX
 10
-1.0E20
 20
-1.0E20
 30
-1.0E20
  9
$PLIMMIN
 10
0.0
 20
0.0
  9
$PLIMMAX
 10
12.0
 20
9.0
  9
$UNITMODE
 70
     0
  9
$VISRETAIN
 70
     0
  0
ENDSEC
  0
SECTION
  2
TABLES
  0
TABLE
  2
VPORT
 70
     1
  0
VPORT
  2
*ACTIVE
 70
     0
 10
0.0
 20
0.0
 11
1.0
 21
1.0
 12
6.801242
 22
4.5
 13
0.0
 23
0.0
 14
1.0
 24
1.0
 15
0.0
 25
0.0
 16
0.0
 26
0.0
 36
1.0
 17
0.0
 27
0.0
 37
0.0
 40
9.0
 41
1.511387
 42
50.0
 43
0.0
 44
0.0
 50
0.0
 51
0.0
 71
     0
 72
   100
 73
     1
 74
     1
 75
     0
 76
     0
 77
     0
 78
     0
  0
ENDTAB
  0
TABLE
  2
LTYPE
 70
    41
  0
LTYPE
  2
BYBLOCK
 70
     0
  3

 72
    65
 73
     0
 40
0.0
  0
LTYPE
  2
BYLAYER
 70
     0
  3

 72
    65
 73
     0
 40
0.0
  0
LTYPE
  2
CONTINUOUS
 70
     0
  3
Solid line
 72
    65
 73
     0
 40
0.0
  0
LTYPE
  2
BORDER
 70
    64
  3
__ __ . __ __ . __ __ . __ __ . __ __ . __ __ .
 72
    65
 73
     6
 40
1.75
 49
0.5
 49
-0.25
 49
0.5
 49
-0.25
 49
0.0
 49
-0.25
  0
LTYPE
  2
BORDER2
 70
    64
  3
__.__.__.__.__.__.__.__.__.__.__.__.__.__.__.__
 72
    65
 73
     6
 40
0.875
 49
0.25
 49
-0.125
 49
0.25
 49
-0.125
 49
0.0
 49
-0.125
  0
LTYPE
  2
BORDERX2
 70
    64
  3
____  ____  .  ____  ____  .  ____  ____  .  __
 72
    65
 73
     6
 40
3.5
 49
1.0
 49
-0.5
 49
1.0
 49
-0.5
 49
0.0
 49
-0.5
  0
LTYPE
  2
CENTER
 70
    64
  3
____ _ ____ _ ____ _ ____ _ ____ _ ____ _ ____
 72
    65
 73
     4
 40
2.0
 49
1.25
 49
-0.25
 49
0.25
 49
-0.25
  0
LTYPE
  2
CENTER2
 70
    64
  3
___ _ ___ _ ___ _ ___ _ ___ _ ___ _ ___ _ ___ _
 72
    65
 73
     4
 40
1.125
 49
0.75
 49
-0.125
 49
0.125
 49
-0.125
  0
LTYPE
  2
CENTERX2
 70
    64
  3
________  __  ________  __  ________  __  _____
 72
    65
 73
     4
 40
4.0
 49
2.5
 49
-0.5
 49
0.5
 49
-0.5
  0
LTYPE
  2
DASHDOT
 70
    64
  3
__ . __ . __ . __ . __ . __ . __ . __ . __ . __
 72
    65
 73
     4
 40
1.0
 49
0.5
 49
-0.25
 49
0.0
 49
-0.25
  0
LTYPE
  2
DASHDOT2
 70
    64
  3
_._._._._._._._._._._._._._._._._._._._._._._._
 72
    65
 73
     4
 40
0.5
 49
0.25
 49
-0.125
 49
0.0
 49
-0.125
  0
LTYPE
  2
DASHDOTX2
 70
    64
  3
____  .  ____  .  ____  .  ____  .  ____  .  __
 72
    65
 73
     4
 40
2.0
 49
1.0
 49
-0.5
 49
0.0
 49
-0.5
  0
LTYPE
  2
DASHED
 70
    64
  3
__ __ __ __ __ __ __ __ __ __ __ __ __ __ __ __
 72
    65
 73
     2
 40
0.75
 49
0.5
 49
-0.25
  0
LTYPE
  2
DASHED2
 70
    64
  3
_ _ _ _ _ _ _ _ _ _ _ _ _ _ _ _ _ _ _ _ _ _ _ _
 72
    65
 73
     2
 40
0.375
 49
0.25
 49
-0.125
  0
LTYPE
  2
DASHEDX2
 70
    64
  3
____  ____  ____  ____  ____  ____  ____  ____
 72
    65
 73
     2
 40
1.5
 49
1.0
 49
-0.5
  0
LTYPE
  2
DIVIDE
 70
    64
  3
____ . . ____ . . ____ . . ____ . . ____ . . __
 72
    65
 73
     6
 40
1.25
 49
0.5
 49
-0.25
 49
0.0
 49
-0.25
 49
0.0
 49
-0.25
  0
LTYPE
  2
DIVIDE2
 70
    64
  3
__..__..__..__..__..__..__..__..__..__..__..__.
 72
    65
 73
     6
 40
0.625
 49
0.25
 49
-0.125
 49
0.0
 49
-0.125
 49
0.0
 49
-0.125
  0
LTYPE
  2
DIVIDEX2
 70
    64
  3
________  .  .  ________  .  .  ________  .  .
 72
    65
 73
     6
 40
2.5
 49
1.0
 49
-0.5
 49
0.0
 49
-0.5
 49
0.0
 49
-0.5
  0
LTYPE
  2
DOT
 70
    64
  3
. . . . . . . . . . . . . . . . . . . . . . . .
 72
    65
 73
     2
 40
0.25
 49
0.0
 49
-0.25
  0
LTYPE
  2
DOT2
 70
    64
  3
...............................................
 72
    65
 73
     2
 40
0.125
 49
0.0
 49
-0.125
  0
LTYPE
  2
DOTX2
 70
    64
  3
.  .  .  .  .  .  .  .  .  .  .  .  .  .  .  .
 72
    65
 73
     2
 40
0.5
 49
0.0
 49
-0.5
  0
LTYPE
  2
HIDDEN
 70
    64
  3
__ __ __ __ __ __ __ __ __ __ __ __ __ __ __ __
 72
    65
 73
     2
 40
0.375
 49
0.25
 49
-0.125
  0
LTYPE
  2
HIDDEN2
 70
    64
  3
_ _ _ _ _ _ _ _ _ _ _ _ _ _ _ _ _ _ _ _ _ _ _ _
 72
    65
 73
     2
 40
0.1875
 49
0.125
 49
-0.0625
  0
LTYPE
  2
HIDDENX2
 70
    64
  3
____ ____ ____ ____ ____ ____ ____ ____ ____ __
 72
    65
 73
     2
 40
0.75
 49
0.5
 49
-0.25
  0
LTYPE
  2
PHANTOM
 70
    64
  3
______  __  __  ______  __  __  ______  __  __
 72
    65
 73
     6
 40
2.5
 49
1.25
 49
-0.25
 49
0.25
 49
-0.25
 49
0.25
 49
-0.25
  0
LTYPE
  2
PHANTOM2
 70
    64
  3
___ _ _ ___ _ _ ___ _ _ ___ _ _ ___ _ _ ___ _ _
 72
    65
 73
     6
 40
1.25
 49
0.625
 49
-0.125
 49
0.125
 49
-0.125
 49
0.125
 49
-0.125
  0
LTYPE
  2
PHANTOMX2
 70
    64
  3
____________    ____    ____    ____________
 72
    65
 73
     6
 40
5.0
 49
2.5
 49
-0.5
 49
0.5
 49
-0.5
 49
0.5
 49
-0.5
  0
LTYPE
  2
ACAD_ISO02W100
 70
    64
  3
__ __ __ __ __ __ __ __ __ __ __ __ __ __ __ __
 72
    65
 73
     2
 40
15.0
 49
12.0
 49
-3.0
  0
LTYPE
  2
ACAD_ISO03W100
 70
    64
  3
__    __    __    __    __    __    __    __
 72
    65
 73
     2
 40
30.0
 49
12.0
 49
-18.0
  0
LTYPE
  2
ACAD_ISO04W100
 70
    64
  3
____ . ____ . ____ . ____ . ____ . ____ . ____
 72
    65
 73
     4
 40
30.5
 49
24.0
 49
-3.0
 49
0.5
 49
-3.0
  0
LTYPE
  2
ACAD_ISO05W100
 70
    64
  3
____ .. ____ .. ____ .. ____ .. ____ .. ____ ..
 72
    65
 73
     6
 40
34.0
 49
24.0
 49
-3.0
 49
0.5
 49
-3.0
 49
0.5
 49
-3.0
  0
LTYPE
  2
ACAD_ISO06W100
 70
    64
  3
____ ... ____ ... ____ ... ____ ... ____ ... __
 72
    65
 73
     8
 40
37.5
 49
24.0
 49
-3.0
 49
0.5
 49
-3.0
 49
0.5
 49
-3.0
 49
0.5
 49
-3.0
  0
LTYPE
  2
ACAD_ISO07W100
 70
    64
  3
. . . . . . . . . . . . . . . . . . . . . . . .
 72
    65
 73
     2
 40
3.5
 49
0.5
 49
-3.0
  0
LTYPE
  2
ACAD_ISO08W100
 70
    64
  3
____ __ ____ __ ____ __ ____ ____ __ __ ____ __
 72
    65
 73
     4
 40
36.0
 49
24.0
 49
-3.0
 49
6.0
 49
-3.0
  0
LTYPE
  2
ACAD_ISO09W100
 70
    64
  3
____ __ __ ____ __ __ ____ __ __ ____ __ __ ___
 72
    65
 73
     6
 40
45.0
 49
24.0
 49
-3.0
 49
6.0
 49
-3.0
 49
6.0
 49
-3.0
  0
LTYPE
  2
ACAD_ISO10W100
 70
    64
  3
__ . __ . __ . __ . __ . __ . __ . __ . __ . __
 72
    65
 73
     4
 40
18.5
 49
12.0
 49
-3.0
 49
0.5
 49
-3.0
  0
LTYPE
  2
ACAD_ISO11W100
 70
    64
  3
__ __ . __ __ . __ __ . __ __ . __ __ . __ __ .
 72
    65
 73
     6
 40
33.5
 49
12.0
 49
-3.0
 49
12.0
 49
-3.0
 49
0.5
 49
-3.0
  0
LTYPE
  2
ACAD_ISO12W100
 70
    64
  3
__ . . __ . . __ . . __ . . __ . . __ . . __ .
 72
    65
 73
     6
 40
22.0
 49
12.0
 49
-3.0
 49
0.5
 49
-3.0
 49
0.5
 49
-3.0
  0
LTYPE
  2
ACAD_ISO13W100
 70
    64
  3
__ __ . . __ __ . . __ __ . . __ __ . . __ __ .
 72
    65
 73
     8
 40
37.0
 49
12.0
 49
-3.0
 49
12.0
 49
-3.0
 49
0.5
 49
-3.0
 49
0.5
 49
-3.0
  0
LTYPE
  2
ACAD_ISO14W100
 70
    64
  3
__ . . . __ . . . __ . . . __ . . . __ . . . __
 72
    65
 73
     8
 40
25.5
 49
12.0
 49
-3.0
 49
0.5
 49
-3.0
 49
0.5
 49
-3.0
 49
0.5
 49
-3.0
  0
LTYPE
  2
ACAD_ISO15W100
 70
    64
  3
__ __ . . . __ __ . . . __ __ . . . __ __ . . .
 72
    65
 73
    10
 40
40.5
 49
12.0
 49
-3.0
 49
12.0
 49
-3.0
 49
0.5
 49
-3.0
 49
0.5
 49
-3.0
 49
0.5
 49
-3.0
  0
ENDTAB
  0
TABLE
  2
STYLE
 70
     4
  0
STYLE
  2
STANDARD
 70
    64
 40
0.0
 41
1.0
 50
0.0
 71
     0
 42
0.2
  3
txt
  4

  0
STYLE
  2
TOLERANCE
 70
    64
 40
0.0
 41
1.0
 50
0.0
 71
     0
 42
0.2
  3
../igesfont/iges1003.shx
  4

  0
STYLE
  2
ROMANS
 70
    64
 40
0.0
 41
1.0
 50
0.0
 71
     0
 42
0.2
  3
romans.shx
  4

  0
STYLE
  2
ROMANC
 70
    64
 40
0.0
 41
1.0
 50
0.0
 71
     0
 42
0.2
  3
romanc.shx
  4

  0
ENDTAB
  0
TABLE
  2
DIMSTYLE
 70
     2
  0
DIMSTYLE
  2
UNNAMED
 70
     0
  3

  4

  5

  6

  7

 40
1.0
 41
0.18
 42
0.0625
 43
0.38
 44
0.18
 45
0.0
 46
0.0
 47
0.0
 48
0.0
140
0.18
141
0.09
142
0.0
143
25.4
144
1.0
145
0.0
146
1.0
147
0.09
 71
     0
 72
     0
 73
     1
 74
     1
 75
     0
 76
     0
 77
     0
 78
     0
170
     0
171
     2
172
     0
173
     0
174
     0
175
     0
176
     0
177
     0
178
     0
  0
DIMSTYLE
  2
STANDARD
 70
     0
  3

  4

  5

  6

  7

 40
1.0
 41
0.18
 42
0.0625
 43
0.38
 44
0.18
 45
0.0
 46
0.0
 47
0.0
 48
0.0
140
0.18
141
0.09
142
0.0
143
25.4
144
1.0
145
0.0
146
1.0
147
0.09
 71
     0
 72
     0
 73
     1
 74
     1
 75
     0
 76
     0
 77
     0
 78
     0
170
     0
171
     2
172
     0
173
     0
174
     0
175
     0
176
     0
177
     0
178
     0
  0
ENDTAB
  0
TABLE
  2
LAYER
 70
     2
  0
LAYER
  2
0
 70
     0
 62
     7
  6
CONTINUOUS
  0
LAYER
  2
255
 70
     0
 62
     7
  6
CONTINUOUS
  0
ENDTAB
  0
ENDSEC
  0
SECTION
  2
BLOCKS
  0
BLOCK
  5
     B
  8
0
  6
CONTINUOUS
 62
     7
  2
*UDIM478
 70
    65
 10
0.0
 20
0.0
 30
0.0
  3
*UDIM478
  0
TEXT
  5
     C
  8
0
  6
CONTINUOUS
 62
     7
 10
-688.898424160671
 20
-117.712669058869
 30
0.0
 40
3.00000002980232
  1
65,75
 50
449.999999896069
 41
0.933333333333333
 72
     1
 11
-690.398424163461
 21
-111.012668989599
 31
0.0
 73
     2
  0
LINE
  5
     D
  8
0
  6
CONTINUOUS
 62
     7
 10
-682.200042985619
 20
-102.749114990234
 30
0.0
 11
-689.89842414856
 21
-102.749114990234
 31
0.0
  0
LINE
  5
     E
  8
0
  6
CONTINUOUS
 62
     7
 10
-687.89842414856
 20
-102.749114990234
 30
0.0
 11
-687.89842414856
 21
-119.186614990234
 31
0.0
  0
LINE
  5
     F
  8
0
  6
CONTINUOUS
 62
     7
 10
-687.377479718608
 20
-105.703538267441
 30
0.0
 11
-687.89842414856
 21
-102.749114990234
 31
0.0
  0
LINE
  5
    10
  8
0
  6
CONTINUOUS
 62
     7
 10
-687.89842414856
 20
-102.749114990234
 30
0.0
 11
-688.419368578511
 21
-105.703538267441
 31
0.0
  0
LINE
  5
    11
  8
0
  6
CONTINUOUS
 62
     7
 10
-688.419368578511
 20
-116.232191713027
 30
0.0
 11
-687.89842414856
 21
-119.186614990234
 31
0.0
  0
LINE
  5
    12
  8
0
  6
CONTINUOUS
 62
     7
 10
-687.89842414856
 20
-119.186614990234
 30
0.0
 11
-687.377479718608
 21
-116.232191713027
 31
0.0
  0
ENDBLK
  5
    13
  8
0
  6
CONTINUOUS
 62
     7
  0
BLOCK
  5
    14
  8
0
  6
CONTINUOUS
 62
     7
  2
*UDIM479
 70
    65
 10
0.0
 20
0.0
 30
0.0
  3
*UDIM479
  0
TEXT
  5
    15
  8
0
  6
CONTINUOUS
 62
     7
 10
-699.432962100519
 20
-150.376085592744
 30
0.0
 40
3.00000002980232
  1
5
 50
395.275203288638
 41
0.933333333333334
 72
     1
 11
-699.401192276925
 21
-148.516249377629
 31
0.0
 73
     2
  0
TEXT
  5
    16
  8
0
  6
CONTINUOUS
 62
     7
 10
-702.004583049496
 20
-152.195224333293
 30
0.0
 40
3.00000002980232
  1
Ø
 50
395.275203288638
 41
0.933333333333334
 72
     1
 11
-701.972813225902
 21
-150.335388118178
 31
0.0
 73
     2
  0
TEXT
  5
    17
  8
0
  6
CONTINUOUS
 62
     7
 10
-697.187896178037
 20
-148.787948574261
 30
0.0
 40
3.00000002980232
  1
 (M4)
 50
395.275203288638
 41
0.933333333333333
 72
     1
 11
-692.584355741636
 21
-143.694087917842
 31
0.0
 73
     2
  0
LINE
  5
    18
  8
0
  6
CONTINUOUS
 62
     7
 10
-677.573986265453
 20
-136.138174765073
 30
0.0
 11
-701.427078685875
 21
-153.011611933626
 31
0.0
  0
LINE
  5
    19
  8
0
  6
CONTINUOUS
 62
     7
 10
-675.462879415726
 20
-134.006689867394
 30
0.0
 11
-677.573986265453
 21
-136.138174765073
 31
0.0
  0
LINE
  5
    1A
  8
0
  6
CONTINUOUS
 62
     7
 10
-677.573986265453
 20
-136.138174765073
 30
0.0
 11
-674.861184056228
 21
-134.857275013484
 31
0.0
  0
LINE
  5
    1B
  8
0
  6
CONTINUOUS
 62
     7
 10
-680.705577615524
 20
-138.991540113075
 30
0.0
 11
-678.594470765797
 21
-136.860055215396
 31
0.0
  0
LINE
  5
    1C
  8
0
  6
CONTINUOUS
 62
     7
 10
-678.594470765797
 20
-136.860055215396
 30
0.0
 11
-681.307272975022
 21
-138.140954966985
 31
0.0
  0
ENDBLK
  5
    1D
  8
0
  6
CONTINUOUS
 62
     7
  0
BLOCK
  5
    1E
  8
0
  6
CONTINUOUS
 62
     7
  2
*UDIM480
 70
    65
 10
0.0
 20
0.0
 30
0.0
  3
*UDIM480
  0
TEXT
  5
    1F
  8
0
  6
CONTINUOUS
 62
     7
 10
-670.609230456483
 20
-109.548440928705
 30
0.0
 40
3.00000002980232
  1
82
 50
359.999999896069
 41
0.933333333333333
 72
     1
 11
-668.109230428934
 21
-108.048440918326
 31
0.0
 73
     2
  0
LINE
  5
    20
  8
0
  6
CONTINUOUS
 62
     7
 10
-657.584228515625
 20
-110.548440933228
 30
0.0
 11
-678.084228515625
 21
-110.548440933228
 31
0.0
  0
LINE
  5
    21
  8
0
  6
CONTINUOUS
 62
     7
 10
-660.538651792832
 20
-111.069385363179
 30
0.0
 11
-657.584228515625
 21
-110.548440933228
 31
0.0
  0
LINE
  5
    22
  8
0
  6
CONTINUOUS
 62
     7
 10
-657.584228515625
 20
-110.548440933228
 30
0.0
 11
-660.538651792832
 21
-110.027496503276
 31
0.0
  0
LINE
  5
    23
  8
0
  6
CONTINUOUS
 62
     7
 10
-675.129805238418
 20
-110.027496503276
 30
0.0
 11
-678.084228515625
 21
-110.548440933228
 31
0.0
  0
LINE
  5
    24
  8
0
  6
CONTINUOUS
 62
     7
 10
-678.084228515625
 20
-110.548440933228
 30
0.0
 11
-675.129805238418
 21
-111.069385363179
 31
0.0
  0
ENDBLK
  5
    25
  8
0
  6
CONTINUOUS
 62
     7
  0
BLOCK
  5
    26
  8
0
  6
CONTINUOUS
 62
     7
  2
*UDIM481
 70
    65
 10
0.0
 20
0.0
 30
0.0
  3
*UDIM481
  0
TEXT
  5
    27
  8
0
  6
CONTINUOUS
 62
     7
 10
-697.948448188202
 20
-123.799116463169
 30
0.0
 40
3.00000002980232
  1
135
 50
449.999999896069
 41
0.933333333333333
 72
     1
 11
-699.448448196054
 21
-119.899116421715
 31
0.0
 73
     2
  0
LINE
  5
    28
  8
0
  6
CONTINUOUS
 62
     7
 10
-682.200042985619
 20
-102.749114676318
 30
0.0
 11
-698.948448181152
 21
-102.749109418718
 31
0.0
  0
LINE
  5
    29
  8
0
  6
CONTINUOUS
 62
     7
 10
-682.335805127153
 20
-136.499114676318
 30
0.0
 11
-698.948448181152
 21
-136.499109461336
 31
0.0
  0
LINE
  5
    2A
  8
0
  6
CONTINUOUS
 62
     7
 10
-696.948448181152
 20
-102.749110046551
 30
0.0
 11
-696.948448181152
 21
-136.499110089169
 31
0.0
  0
LINE
  5
    2B
  8
0
  6
CONTINUOUS
 62
     7
 10
-696.427503751201
 20
-105.703533323758
 30
0.0
 11
-696.948448181152
 21
-102.749110046551
 31
0.0
  0
LINE
  5
    2C
  8
0
  6
CONTINUOUS
 62
     7
 10
-696.948448181152
 20
-102.749110046551
 30
0.0
 11
-697.469392611104
 21
-105.703533323758
 31
0.0
  0
LINE
  5
    2D
  8
0
  6
CONTINUOUS
 62
     7
 10
-697.469392611104
 20
-133.544686811962
 30
0.0
 11
-696.948448181152
 21
-136.499110089169
 31
0.0
  0
LINE
  5
    2E
  8
0
  6
CONTINUOUS
 62
     7
 10
-696.948448181152
 20
-136.499110089169
 30
0.0
 11
-696.427503751201
 21
-133.544686811962
 31
0.0
  0
ENDBLK
  5
    2F
  8
0
  6
CONTINUOUS
 62
     7
  0
BLOCK
  5
    30
  8
0
  6
CONTINUOUS
 62
     7
  2
MOSTRA
 70
    64
 10
0.0
 20
0.0
 30
0.0
  3
MOSTRA
  0
LINE
  5
    31
  8
0
  6
CONTINUOUS
 62
     2
 10
175.338317871094
 20
34.312744140625
 30
0.0
 11
210.838317871094
 21
34.312744140625
 31
0.0
  0
LINE
  5
    32
  8
0
  6
CONTINUOUS
 62
     2
 10
175.338317871094
 20
49.312744140625
 30
0.0
 11
210.838317871094
 21
49.312744140625
 31
0.0
  0
LINE
  5
    33
  8
0
  6
CONTINUOUS
 62
     2
 10
210.838317871094
 20
33.312744140625
 30
0.0
 11
210.838317871094
 21
50.312744140625
 31
0.0
  0
LINE
  5
    34
  8
0
  6
CONTINUOUS
 62
     2
 10
175.338317871094
 20
34.312744140625
 30
0.0
 11
175.338317871094
 21
49.312744140625
 31
0.0
  0
LINE
  5
    35
  8
0
  6
CONTINUOUS
 62
     2
 10
210.838317871094
 20
50.312744140625
 30
0.0
 11
210.838317871094
 21
148.306442260742
 31
0.0
  0
LINE
  5
    36
  8
0
  6
CONTINUOUS
 62
     2
 10
210.838317871094
 20
-10.187255859375
 30
0.0
 11
210.838317871094
 21
33.3127403259278
 31
0.0
  0
LINE
  5
    37
  8
0
  6
CONTINUOUS
 62
     2
 10
37.5883140563965
 20
-11.437255859375
 30
0.0
 11
209.588317871094
 21
-11.437255859375
 31
0.0
  0
LINE
  5
    38
  8
0
  6
CONTINUOUS
 62
     2
 10
36.3383140563965
 20
-10.187255859375
 30
0.0
 11
36.3383140563965
 21
148.306442260742
 31
0.0
  0
LINE
  5
    39
  8
0
  6
CONTINUOUS
 62
     2
 10
175.338317871094
 20
128.562744140625
 30
0.0
 11
175.338317871094
 21
129.562744140625
 31
0.0
  0
LINE
  5
    3A
  8
0
  6
CONTINUOUS
 62
     2
 10
45.3383140563965
 20
128.562744140625
 30
0.0
 11
45.3383140563965
 21
129.562744140625
 31
0.0
  0
LINE
  5
    3B
  8
0
  6
CONTINUOUS
 62
     2
 10
175.338317871094
 20
8.56274414062501
 30
0.0
 11
175.338317871094
 21
9.56274414062501
 31
0.0
  0
LINE
  5
    3C
  8
0
  6
CONTINUOUS
 62
     2
 10
46.3383140563965
 20
8.562744140625
 30
0.0
 11
174.338314056396
 21
8.56274414062501
 31
0.0
  0
LINE
  5
    3D
  8
0
  6
CONTINUOUS
 62
     2
 10
45.3383140563965
 20
8.562744140625
 30
0.0
 11
45.3383140563965
 21
9.562744140625
 31
0.0
  0
LINE
  5
    3E
  8
0
  6
CONTINUOUS
 62
     2
 10
174.338317871094
 20
-11.437255859375
 30
0.0
 11
174.338317871094
 21
8.56274414062501
 31
0.0
  0
LINE
  5
    3F
  8
0
  6
CONTINUOUS
 62
     2
 10
175.338317871094
 20
129.562744140625
 30
0.0
 11
175.338317871094
 21
149.562744140625
 31
0.0
  0
LINE
  5
    40
  8
0
  6
CONTINUOUS
 62
     2
 10
175.338317871094
 20
9.56274414062501
 30
0.0
 11
175.338317871094
 21
33.312744140625
 31
0.0
  0
LINE
  5
    41
  8
0
  6
CONTINUOUS
 62
     2
 10
175.338317871094
 20
50.312744140625
 30
0.0
 11
175.338317871094
 21
128.562744140625
 31
0.0
  0
LINE
  5
    42
  8
0
  6
CONTINUOUS
 62
     2
 10
175.338317871094
 20
-11.437255859375
 30
0.0
 11
175.338317871094
 21
8.56274414062501
 31
0.0
  0
LINE
  5
    43
  8
0
  6
CONTINUOUS
 62
     2
 10
45.3383140563965
 20
129.562744140625
 30
0.0
 11
45.3383140563965
 21
149.562744140625
 31
0.0
  0
LINE
  5
    44
  8
0
  6
CONTINUOUS
 62
     2
 10
45.3383140563965
 20
9.562744140625
 30
0.0
 11
45.3383140563965
 21
128.562744140625
 31
0.0
  0
LINE
  5
    45
  8
0
  6
CONTINUOUS
 62
     2
 10
45.3383140563965
 20
-11.437255859375
 30
0.0
 11
45.3383140563965
 21
8.562744140625
 31
0.0
  0
LINE
  5
    46
  8
0
  6
CONTINUOUS
 62
     2
 10
46.3383140563965
 20
-11.437255859375
 30
0.0
 11
46.3383140563965
 21
8.562744140625
 31
0.0
  0
LINE
  5
    47
  8
0
  6
CONTINUOUS
 62
     2
 10
175.338317871094
 20
33.312744140625
 30
0.0
 11
210.838317871094
 21
33.312744140625
 31
0.0
  0
LINE
  5
    48
  8
0
  6
CONTINUOUS
 62
     2
 10
175.338317871094
 20
50.312744140625
 30
0.0
 11
210.838317871094
 21
50.312744140625
 31
0.0
  0
LINE
  5
    49
  8
0
  6
CONTINUOUS
 62
     2
 10
175.388320922852
 20
49.312744140625
 30
0.0
 11
175.388320922852
 21
50.312744140625
 31
0.0
  0
LINE
  5
    4A
  8
0
  6
CONTINUOUS
 62
     2
 10
175.388320922852
 20
33.312744140625
 30
0.0
 11
175.388320922852
 21
34.312744140625
 31
0.0
  0
LINE
  5
    4B
  8
0
  6
CONTINUOUS
 62
     2
 10
46.3383140563965
 20
128.562744140625
 30
0.0
 11
174.338314056396
 21
128.562744140625
 31
0.0
  0
LINE
  5
    4C
  8
0
  6
CONTINUOUS
 62
     2
 10
46.3383140563965
 20
9.562744140625
 30
0.0
 11
174.338314056396
 21
9.56274414062501
 31
0.0
  0
LINE
  5
    4D
  8
0
  6
CONTINUOUS
 62
     2
 10
174.338317871094
 20
9.56274414062501
 30
0.0
 11
174.338317871094
 21
128.562744140625
 31
0.0
  0
LINE
  5
    4E
  8
0
  6
CONTINUOUS
 62
     2
 10
46.3383140563965
 20
9.562744140625
 30
0.0
 11
46.3383140563965
 21
128.562744140625
 31
0.0
  0
LINE
  5
    4F
  8
0
  6
CONTINUOUS
 62
     2
 10
167.338315963745
 20
121.562743016692
 30
0.0
 11
174.338312295455
 21
128.562739348402
 31
0.0
  0
LINE
  5
    50
  8
0
  6
CONTINUOUS
 62
     2
 10
46.3383156391412
 20
128.562746004959
 30
0.0
 11
62.3383159637451
 21
121.033336629486
 31
0.0
  0
LINE
  5
    51
  8
0
  6
CONTINUOUS
 62
     2
 10
167.338315963745
 20
16.5627619426901
 30
0.0
 11
174.338335117812
 21
9.56273924827786
 31
0.0
  0
LINE
  5
    52
  8
0
  6
CONTINUOUS
 62
     2
 10
46.3383186567184
 20
9.56274576222224
 30
0.0
 11
62.3383159637451
 21
17.092157375641
 31
0.0
  0
LINE
  5
    53
  8
0
  6
CONTINUOUS
 62
     2
 10
174.338256835938
 20
129.556442260742
 30
0.0
 11
174.338256835938
 21
149.556442260742
 31
0.0
  0
LINE
  5
    54
  8
0
  6
CONTINUOUS
 62
     2
 10
45.3383140563965
 20
129.556442260742
 30
0.0
 11
175.338317871094
 21
129.556442260742
 31
0.0
  0
LINE
  5
    55
  8
0
  6
CONTINUOUS
 62
     2
 10
37.5883140563965
 20
149.556442260742
 30
0.0
 11
45.3383140563965
 21
149.556442260742
 31
0.0
  0
LINE
  5
    56
  8
0
  6
CONTINUOUS
 62
     2
 10
115.343585020102
 20
149.556442260742
 30
0.0
 11
175.338317871094
 21
149.556442260742
 31
0.0
  0
ARC
  5
    57
  8
0
  6
CONTINUOUS
 62
     2
 10
110.338285446167
 20
153.703627621259
 30
0.0
 40
6.50016693934245
 50
219.643748317915
 51
320.356251682085
  0
LINE
  5
    58
  8
0
  6
CONTINUOUS
 62
     2
 10
105.332985872232
 20
149.556442260742
 30
0.0
 11
115.343585020102
 21
149.556442260742
 31
0.0
  0
LINE
  5
    59
  8
0
  6
CONTINUOUS
 62
     2
 10
46.3383140563965
 20
129.562744140625
 30
0.0
 11
46.3383140563965
 21
149.562744140625
 31
0.0
  0
LINE
  5
    5A
  8
0
  6
CONTINUOUS
 62
     2
 10
45.3383140563965
 20
149.556442260742
 30
0.0
 11
105.332985872232
 21
149.556442260742
 31
0.0
  0
LINE
  5
    5B
  8
0
  6
CONTINUOUS
 62
     2
 10
175.338317871094
 20
149.556442260742
 30
0.0
 11
209.588317871094
 21
149.556442260742
 31
0.0
  0
POINT
  5
    5C
  8
0
  6
CONTINUOUS
 62
     2
 10
114.838315963745
 20
69.062744140625
 30
0.0
  0
ARC
  5
    5D
  8
0
  6
CONTINUOUS
 62
     2
 10
37.5883140563965
 20
148.306442260742
 30
0.0
 40
1.25
 50
90.0
 51
180.0
  0
ARC
  5
    5E
  8
0
  6
CONTINUOUS
 62
     2
 10
37.5883140563965
 20
-10.187255859375
 30
0.0
 40
1.25
 50
180.0
 51
270.0
  0
ARC
  5
    5F
  8
0
  6
CONTINUOUS
 62
     2
 10
209.588317871094
 20
-10.187255859375
 30
0.0
 40
1.25
 50
270.0
 51
360.0
  0
ARC
  5
    60
  8
0
  6
CONTINUOUS
 62
     2
 10
209.588317871094
 20
148.306442260742
 30
0.0
 40
1.25
 50
0.0
 51
90.0
  0
ENDBLK
  5
    61
  8
0
  6
CONTINUOUS
 62
     7
  0
BLOCK
  5
    62
  8
0
  6
CONTINUOUS
 62
     7
  2
*UDIM482
 70
    65
 10
0.0
 20
0.0
 30
0.0
  3
*UDIM482
  0
TEXT
  5
    63
  8
0
  6
CONTINUOUS
 62
     7
 10
-485.766157557665
 20
-87.9615325905186
 30
0.0
 40
3.00000002980232
  1
96
 50
359.999999948034
 41
0.933333333333333
 72
     1
 11
-483.266157531477
 21
-86.4615325778723
 31
0.0
 73
     2
  0
LINE
  5
    64
  8
0
  6
CONTINUOUS
 62
     7
 10
-458.991160744167
 20
-23.2178421020467
 30
0.0
 11
-458.991160744167
 21
-90.9615325927734
 31
0.0
  0
LINE
  5
    65
  8
0
  6
CONTINUOUS
 62
     7
 10
-506.991161697842
 20
-51.3036466403705
 30
0.0
 11
-506.991161697842
 21
-90.9615325927734
 31
0.0
  0
LINE
  5
    66
  8
0
  6
CONTINUOUS
 62
     7
 10
-458.991160744167
 20
-88.9615325927734
 30
0.0
 11
-506.991161697842
 21
-88.9615325927734
 31
0.0
  0
LINE
  5
    67
  8
0
  6
CONTINUOUS
 62
     7
 10
-461.945584021374
 20
-89.4824770227251
 30
0.0
 11
-458.991160744167
 21
-88.9615325927734
 31
0.0
  0
LINE
  5
    68
  8
0
  6
CONTINUOUS
 62
     7
 10
-458.991160744167
 20
-88.9615325927734
 30
0.0
 11
-461.945584021374
 21
-88.4405881628218
 31
0.0
  0
LINE
  5
    69
  8
0
  6
CONTINUOUS
 62
     7
 10
-504.036738420635
 20
-88.4405881628218
 30
0.0
 11
-506.991161697842
 21
-88.9615325927734
 31
0.0
  0
LINE
  5
    6A
  8
0
  6
CONTINUOUS
 62
     7
 10
-506.991161697842
 20
-88.9615325927734
 30
0.0
 11
-504.036738420635
 21
-89.4824770227251
 31
0.0
  0
ENDBLK
  5
    6B
  8
0
  6
CONTINUOUS
 62
     7
  0
BLOCK
  5
    6C
  8
0
  6
CONTINUOUS
 62
     7
  2
*UDIM483
 70
    65
 10
0.0
 20
0.0
 30
0.0
  3
*UDIM483
  0
TEXT
  5
    6D
  8
0
  6
CONTINUOUS
 62
     7
 10
-532.191157585481
 20
-87.9615325879931
 30
0.0
 40
3.00000002980232
  1
78,5
 50
359.999999948034
 41
0.933333333333333
 72
     1
 11
-526.891157531477
 21
-86.4615325778723
 31
0.0
 73
     2
  0
LINE
  5
    6E
  8
0
  6
CONTINUOUS
 62
     7
 10
-546.241162651516
 20
-23.2178421020467
 30
0.0
 11
-546.241162651516
 21
-90.9615325927734
 31
0.0
  0
LINE
  5
    6F
  8
0
  6
CONTINUOUS
 62
     7
 10
-506.991161697842
 20
-88.9615325927734
 30
0.0
 11
-546.241162651516
 21
-88.9615325927734
 31
0.0
  0
LINE
  5
    70
  8
0
  6
CONTINUOUS
 62
     7
 10
-509.945584975049
 20
-89.4824770227251
 30
0.0
 11
-506.991161697842
 21
-88.9615325927734
 31
0.0
  0
LINE
  5
    71
  8
0
  6
CONTINUOUS
 62
     7
 10
-506.991161697842
 20
-88.9615325927734
 30
0.0
 11
-509.945584975049
 21
-88.4405881628218
 31
0.0
  0
LINE
  5
    72
  8
0
  6
CONTINUOUS
 62
     7
 10
-543.286739374309
 20
-88.4405881628218
 30
0.0
 11
-546.241162651516
 21
-88.9615325927734
 31
0.0
  0
LINE
  5
    73
  8
0
  6
CONTINUOUS
 62
     7
 10
-546.241162651516
 20
-88.9615325927734
 30
0.0
 11
-543.286739374309
 21
-89.4824770227251
 31
0.0
  0
ENDBLK
  5
    74
  8
0
  6
CONTINUOUS
 62
     7
  0
BLOCK
  5
    75
  8
0
  6
CONTINUOUS
 62
     7
  2
*UDIM484
 70
    65
 10
0.0
 20
0.0
 30
0.0
  3
*UDIM484
  0
TEXT
  5
    76
  8
0
  6
CONTINUOUS
 62
     7
 10
-551.236734393791
 20
13.2305823819205
 30
0.0
 40
3.00000002980232
  1
161
 50
89.9999999480344
 41
0.933333333333333
 72
     1
 11
-552.73673440516
 21
17.1305824220221
 31
0.0
 73
     2
  0
LINE
  5
    77
  8
0
  6
CONTINUOUS
 62
     7
 10
-546.616162651516
 20
-22.8428421020467
 30
0.0
 11
-552.236734390259
 21
-22.8428421020467
 31
0.0
  0
LINE
  5
    78
  8
0
  6
CONTINUOUS
 62
     7
 10
-542.741162651516
 20
57.6540069580119
 30
0.0
 11
-552.236734390259
 21
57.6540069580119
 31
0.0
  0
LINE
  5
    79
  8
0
  6
CONTINUOUS
 62
     7
 10
-550.236734390259
 20
-22.8428421020467
 30
0.0
 11
-550.236734390259
 21
57.6540069580119
 31
0.0
  0
LINE
  5
    7A
  8
0
  6
CONTINUOUS
 62
     7
 10
-550.75767882021
 20
-19.8884188248397
 30
0.0
 11
-550.236734390259
 21
-22.8428421020467
 31
0.0
  0
LINE
  5
    7B
  8
0
  6
CONTINUOUS
 62
     7
 10
-550.236734390259
 20
-22.8428421020467
 30
0.0
 11
-549.715789960307
 21
-19.8884188248397
 31
0.0
  0
LINE
  5
    7C
  8
0
  6
CONTINUOUS
 62
     7
 10
-549.715789960307
 20
54.6995836808049
 30
0.0
 11
-550.236734390259
 21
57.6540069580119
 31
0.0
  0
LINE
  5
    7D
  8
0
  6
CONTINUOUS
 62
     7
 10
-550.236734390259
 20
57.6540069580119
 30
0.0
 11
-550.75767882021
 21
54.6995836808049
 31
0.0
  0
ENDBLK
  5
    7E
  8
0
  6
CONTINUOUS
 62
     7
  0
BLOCK
  5
    7F
  8
0
  6
CONTINUOUS
 62
     7
  2
*UDIM485
 70
    65
 10
0.0
 20
0.0
 30
0.0
  3
*UDIM485
  0
TEXT
  5
    80
  8
0
  6
CONTINUOUS
 62
     7
 10
-571.023927219098
 20
44.2198027697081
 30
0.0
 40
3.00000002980232
  1
140,75
 50
89.9999999480344
 41
0.933333333333333
 72
     1
 11
-572.523927226663
 21
52.3198028515329
 31
0.0
 73
     2
  0
LINE
  5
    81
  8
0
  6
CONTINUOUS
 62
     7
 10
-541.427913689025
 20
17.4071578979533
 30
0.0
 11
-572.023927211762
 21
17.4071578979533
 31
0.0
  0
LINE
  5
    82
  8
0
  6
CONTINUOUS
 62
     7
 10
-528.541928503168
 20
87.7824464461267
 30
0.0
 11
-572.023927211762
 21
87.7824464461267
 31
0.0
  0
LINE
  5
    83
  8
0
  6
CONTINUOUS
 62
     7
 10
-570.023927211762
 20
17.4071578979533
 30
0.0
 11
-570.023927211762
 21
87.7824464461267
 31
0.0
  0
LINE
  5
    84
  8
0
  6
CONTINUOUS
 62
     7
 10
-570.544871641713
 20
20.3615811751602
 30
0.0
 11
-570.023927211762
 21
17.4071578979533
 31
0.0
  0
LINE
  5
    85
  8
0
  6
CONTINUOUS
 62
     7
 10
-570.023927211762
 20
17.4071578979533
 30
0.0
 11
-569.50298278181
 21
20.3615811751602
 31
0.0
  0
LINE
  5
    86
  8
0
  6
CONTINUOUS
 62
     7
 10
-569.50298278181
 20
84.8280231689197
 30
0.0
 11
-570.023927211762
 21
87.7824464461267
 31
0.0
  0
LINE
  5
    87
  8
0
  6
CONTINUOUS
 62
     7
 10
-570.023927211762
 20
87.7824464461267
 30
0.0
 11
-570.544871641713
 21
84.8280231689197
 31
0.0
  0
ENDBLK
  5
    88
  8
0
  6
CONTINUOUS
 62
     7
  0
BLOCK
  5
    89
  8
0
  6
CONTINUOUS
 62
     7
  2
*UDIM486
 70
    65
 10
0.0
 20
0.0
 30
0.0
  3
*UDIM486
  0
TEXT
  5
    8A
  8
0
  6
CONTINUOUS
 62
     7
 10
-557.210227019971
 20
40.9696196631932
 30
0.0
 40
3.00000002980232
  1
127,75
 50
89.9999999480344
 41
0.933333333333333
 72
     1
 11
-558.710227027536
 21
49.069619745018
 31
0.0
 73
     2
  0
LINE
  5
    8B
  8
0
  6
CONTINUOUS
 62
     7
 10
-541.427913689025
 20
17.4071578979533
 30
0.0
 11
-558.210227012634
 21
17.4071578979533
 31
0.0
  0
LINE
  5
    8C
  8
0
  6
CONTINUOUS
 62
     7
 10
-533.616153595423
 20
81.2820892333982
 30
0.0
 11
-558.210227012634
 21
81.2820892333982
 31
0.0
  0
LINE
  5
    8D
  8
0
  6
CONTINUOUS
 62
     7
 10
-556.210227012634
 20
17.4071578979533
 30
0.0
 11
-556.210227012634
 21
81.2820892333982
 31
0.0
  0
LINE
  5
    8E
  8
0
  6
CONTINUOUS
 62
     7
 10
-556.731171442586
 20
20.3615811751602
 30
0.0
 11
-556.210227012634
 21
17.4071578979533
 31
0.0
  0
LINE
  5
    8F
  8
0
  6
CONTINUOUS
 62
     7
 10
-556.210227012634
 20
17.4071578979533
 30
0.0
 11
-555.689282582683
 21
20.3615811751602
 31
0.0
  0
LINE
  5
    90
  8
0
  6
CONTINUOUS
 62
     7
 10
-555.689282582683
 20
78.3276659561912
 30
0.0
 11
-556.210227012634
 21
81.2820892333982
 31
0.0
  0
LINE
  5
    91
  8
0
  6
CONTINUOUS
 62
     7
 10
-556.210227012634
 20
81.2820892333982
 30
0.0
 11
-556.731171442586
 21
78.3276659561912
 31
0.0
  0
ENDBLK
  5
    92
  8
0
  6
CONTINUOUS
 62
     7
  0
BLOCK
  5
    93
  8
0
  6
CONTINUOUS
 62
     7
  2
*UDIM487
 70
    65
 10
0.0
 20
0.0
 30
0.0
  3
*UDIM487
  0
TEXT
  5
    94
  8
0
  6
CONTINUOUS
 62
     7
 10
-488.766149931382
 20
-80.5568885780674
 30
0.0
 40
3.00000002980232
  1
84
 50
359.999999948034
 41
0.933333333333333
 72
     1
 11
-486.266149905194
 21
-79.0568885654211
 31
0.0
 73
     2
  0
LINE
  5
    95
  8
0
  6
CONTINUOUS
 62
     7
 10
-464.991134643555
 20
10.5321044921875
 30
0.0
 11
-464.991134643555
 21
-83.5568885803223
 31
0.0
  0
LINE
  5
    96
  8
0
  6
CONTINUOUS
 62
     7
 10
-506.991161697842
 20
-51.3036466403705
 30
0.0
 11
-506.991161697842
 21
-83.5568885803223
 31
0.0
  0
LINE
  5
    97
  8
0
  6
CONTINUOUS
 62
     7
 10
-464.991134643555
 20
-81.5568885803223
 30
0.0
 11
-506.991161697842
 21
-81.5568885803223
 31
0.0
  0
LINE
  5
    98
  8
0
  6
CONTINUOUS
 62
     7
 10
-467.945557920762
 20
-82.0778330102739
 30
0.0
 11
-464.991134643555
 21
-81.5568885803223
 31
0.0
  0
LINE
  5
    99
  8
0
  6
CONTINUOUS
 62
     7
 10
-464.991134643555
 20
-81.5568885803223
 30
0.0
 11
-467.945557920762
 21
-81.0359441503706
 31
0.0
  0
LINE
  5
    9A
  8
0
  6
CONTINUOUS
 62
     7
 10
-504.036738420635
 20
-81.0359441503706
 30
0.0
 11
-506.991161697842
 21
-81.5568885803223
 31
0.0
  0
LINE
  5
    9B
  8
0
  6
CONTINUOUS
 62
     7
 10
-506.991161697842
 20
-81.5568885803223
 30
0.0
 11
-504.036738420635
 21
-82.0778330102739
 31
0.0
  0
ENDBLK
  5
    9C
  8
0
  6
CONTINUOUS
 62
     7
  0
BLOCK
  5
    9D
  8
0
  6
CONTINUOUS
 62
     7
  2
*UDIM488
 70
    65
 10
0.0
 20
0.0
 30
0.0
  3
*UDIM488
  0
TEXT
  5
    9E
  8
0
  6
CONTINUOUS
 62
     7
 10
-474.035069474894
 20
-50.9993745528327
 30
0.0
 40
3.00000002980232
  1
8,2
 50
369.920880361246
 41
0.933333333333333
 72
     1
 11
-470.45181982193
 21
-48.8498810610005
 31
0.0
 73
     2
  0
TEXT
  5
    9F
  8
0
  6
CONTINUOUS
 62
     7
 10
-477.137966287729
 20
-51.5420820536882
 30
0.0
 40
3.00000002980232
  1
Ø
 50
369.920880361246
 41
0.933333333333334
 72
     1
 11
-476.312847154585
 21
-49.8749952278558
 31
0.0
 73
     2
  0
LINE
  5
    A0
  8
0
  6
CONTINUOUS
 62
     7
 10
-491.510530987171
 20
-55.0710742520107
 30
0.0
 11
-466.179417789062
 21
-50.6405740124164
 31
0.0
  0
LINE
  5
    A1
  8
0
  6
CONTINUOUS
 62
     7
 10
-494.331023080984
 20
-56.0932407495749
 30
0.0
 11
-491.510530987171
 21
-55.0710742520107
 31
0.0
  0
LINE
  5
    A2
  8
0
  6
CONTINUOUS
 62
     7
 10
-491.510530987171
 20
-55.0710742520107
 30
0.0
 11
-494.510528127
 21
-55.0669316660892
 31
0.0
  0
LINE
  5
    A3
  8
0
  6
CONTINUOUS
 62
     7
 10
-484.651298169053
 20
-53.3425178849309
 30
0.0
 11
-487.471790262866
 21
-54.3646843824951
 31
0.0
  0
LINE
  5
    A4
  8
0
  6
CONTINUOUS
 62
     7
 10
-487.471790262866
 20
-54.3646843824951
 30
0.0
 11
-484.471793123037
 21
-54.3688269684166
 31
0.0
  0
ENDBLK
  5
    A5
  8
0
  6
CONTINUOUS
 62
     7
  0
BLOCK
  5
    A6
  8
0
  6
CONTINUOUS
 62
     7
  2
*UDIM489
 70
    65
 10
0.0
 20
0.0
 30
0.0
  3
*UDIM489
  0
TEXT
  5
    A7
  8
0
  6
CONTINUOUS
 62
     7
 10
-538.823682886442
 20
-65.6853904701572
 30
0.0
 40
3.00000002980232
  1
20
 50
359.999999948034
 41
0.933333333333333
 72
     1
 11
-536.323682860254
 21
-64.185390457511
 31
0.0
 73
     2
  0
LINE
  5
    A8
  8
0
  6
CONTINUOUS
 62
     7
 10
-519.491157873407
 20
-50.7178726196289
 30
0.0
 11
-519.49116401234
 21
-68.685390472412
 31
0.0
  0
LINE
  5
    A9
  8
0
  6
CONTINUOUS
 62
     7
 10
-529.491157873407
 20
-50.7178726196289
 30
0.0
 11
-529.49116401234
 21
-68.685390472412
 31
0.0
  0
LINE
  5
    AA
  8
0
  6
CONTINUOUS
 62
     7
 10
-519.491163329004
 20
-66.6853904724121
 30
0.0
 11
-538.823682885089
 21
-66.6853904724121
 31
0.0
  0
LINE
  5
    AB
  8
0
  6
CONTINUOUS
 62
     7
 10
-522.445586606211
 20
-67.2063349023638
 30
0.0
 11
-519.491163329004
 21
-66.6853904724121
 31
0.0
  0
LINE
  5
    AC
  8
0
  6
CONTINUOUS
 62
     7
 10
-519.491163329004
 20
-66.6853904724121
 30
0.0
 11
-522.445586606211
 21
-66.1644460424604
 31
0.0
  0
LINE
  5
    AD
  8
0
  6
CONTINUOUS
 62
     7
 10
-526.536740051797
 20
-66.1644460424604
 30
0.0
 11
-529.491163329004
 21
-66.6853904724121
 31
0.0
  0
LINE
  5
    AE
  8
0
  6
CONTINUOUS
 62
     7
 10
-529.491163329004
 20
-66.6853904724121
 30
0.0
 11
-526.536740051797
 21
-67.2063349023638
 31
0.0
  0
ENDBLK
  5
    AF
  8
0
  6
CONTINUOUS
 62
     7
  0
BLOCK
  5
    B0
  8
0
  6
CONTINUOUS
 62
     7
  2
*UDIM490
 70
    65
 10
0.0
 20
0.0
 30
0.0
  3
*UDIM490
  0
TEXT
  5
    B1
  8
0
  6
CONTINUOUS
 62
     7
 10
-501.016172821827
 20
-73.0900344826084
 30
0.0
 40
3.00000002980232
  1
35
 50
359.999999948034
 41
0.933333333333333
 72
     1
 11
-498.516172795639
 21
-71.5900344699621
 31
0.0
 73
     2
  0
LINE
  5
    B2
  8
0
  6
CONTINUOUS
 62
     7
 10
-489.491161056254
 20
-58.7679045174584
 30
0.0
 11
-489.491168526182
 21
-76.0900344848631
 31
0.0
  0
LINE
  5
    B3
  8
0
  6
CONTINUOUS
 62
     7
 10
-506.991162129077
 20
-58.7678906220227
 30
0.0
 11
-506.991169599003
 21
-76.0900344848631
 31
0.0
  0
LINE
  5
    B4
  8
0
  6
CONTINUOUS
 62
     7
 10
-489.49116766371
 20
-74.0900344848633
 30
0.0
 11
-506.991168736531
 21
-74.0900344848633
 31
0.0
  0
LINE
  5
    B5
  8
0
  6
CONTINUOUS
 62
     7
 10
-492.445590940917
 20
-74.610978914815
 30
0.0
 11
-489.49116766371
 21
-74.0900344848633
 31
0.0
  0
LINE
  5
    B6
  8
0
  6
CONTINUOUS
 62
     7
 10
-489.49116766371
 20
-74.0900344848633
 30
0.0
 11
-492.445590940917
 21
-73.5690900549116
 31
0.0
  0
LINE
  5
    B7
  8
0
  6
CONTINUOUS
 62
     7
 10
-504.036745459324
 20
-73.5690900549116
 30
0.0
 11
-506.991168736531
 21
-74.0900344848633
 31
0.0
  0
LINE
  5
    B8
  8
0
  6
CONTINUOUS
 62
     7
 10
-506.991168736531
 20
-74.0900344848633
 30
0.0
 11
-504.036745459324
 21
-74.610978914815
 31
0.0
  0
ENDBLK
  5
    B9
  8
0
  6
CONTINUOUS
 62
     7
  0
BLOCK
  5
    BA
  8
0
  6
CONTINUOUS
 62
     7
  2
*UDIM491
 70
    65
 10
0.0
 20
0.0
 30
0.0
  3
*UDIM491
  0
TEXT
  5
    BB
  8
0
  6
CONTINUOUS
 62
     7
 10
-518.516169008359
 20
-73.0900344826084
 30
0.0
 40
3.00000002980232
  1
35
 50
359.999999948034
 41
0.933333333333333
 72
     1
 11
-516.016168982171
 21
-71.5900344699621
 31
0.0
 73
     2
  0
LINE
  5
    BC
  8
0
  6
CONTINUOUS
 62
     7
 10
-524.491155549486
 20
-58.7678535636398
 30
0.0
 11
-524.49116581113
 21
-76.0900344848629
 31
0.0
  0
LINE
  5
    BD
  8
0
  6
CONTINUOUS
 62
     7
 10
-506.991168736531
 20
-74.0900344848633
 30
0.0
 11
-524.491164626331
 21
-74.0900344848633
 31
0.0
  0
LINE
  5
    BE
  8
0
  6
CONTINUOUS
 62
     7
 10
-509.945592013738
 20
-74.610978914815
 30
0.0
 11
-506.991168736531
 21
-74.0900344848633
 31
0.0
  0
LINE
  5
    BF
  8
0
  6
CONTINUOUS
 62
     7
 10
-506.991168736531
 20
-74.0900344848633
 30
0.0
 11
-509.945592013738
 21
-73.5690900549116
 31
0.0
  0
LINE
  5
    C0
  8
0
  6
CONTINUOUS
 62
     7
 10
-521.536741349125
 20
-73.5690900549116
 30
0.0
 11
-524.491164626331
 21
-74.0900344848633
 31
0.0
  0
LINE
  5
    C1
  8
0
  6
CONTINUOUS
 62
     7
 10
-524.491164626331
 20
-74.0900344848633
 30
0.0
 11
-521.536741349125
 21
-74.610978914815
 31
0.0
  0
ENDBLK
  5
    C2
  8
0
  6
CONTINUOUS
 62
     7
  0
BLOCK
  5
    C3
  8
0
  6
CONTINUOUS
 62
     7
  2
*UDIM492
 70
    65
 10
0.0
 20
0.0
 30
0.0
  3
*UDIM492
  0
TEXT
  5
    C4
  8
0
  6
CONTINUOUS
 62
     7
 10
-564.303748611168
 20
6.04850679202123
 30
0.0
 40
3.00000002980232
  1
259
 50
89.9999999480344
 41
0.933333333333333
 72
     1
 11
-565.803748622537
 21
9.94850683212282
 31
0.0
 73
     2
  0
LINE
  5
    C5
  8
0
  6
CONTINUOUS
 62
     7
 10
-533.616170435569
 20
-48.2178497314451
 30
0.0
 11
-565.303748607636
 21
-48.2178497314451
 31
0.0
  0
LINE
  5
    C6
  8
0
  6
CONTINUOUS
 62
     7
 10
-533.616153595423
 20
81.2820892333982
 30
0.0
 11
-565.303748607636
 21
81.2820892333982
 31
0.0
  0
LINE
  5
    C7
  8
0
  6
CONTINUOUS
 62
     7
 10
-563.303748607636
 20
-48.2178497314451
 30
0.0
 11
-563.303748607636
 21
81.2820892333982
 31
0.0
  0
LINE
  5
    C8
  8
0
  6
CONTINUOUS
 62
     7
 10
-563.824693037587
 20
-45.2634264542381
 30
0.0
 11
-563.303748607636
 21
-48.2178497314451
 31
0.0
  0
LINE
  5
    C9
  8
0
  6
CONTINUOUS
 62
     7
 10
-563.303748607636
 20
-48.2178497314451
 30
0.0
 11
-562.782804177684
 21
-45.2634264542381
 31
0.0
  0
LINE
  5
    CA
  8
0
  6
CONTINUOUS
 62
     7
 10
-562.782804177684
 20
78.3276659561912
 30
0.0
 11
-563.303748607636
 21
81.2820892333982
 31
0.0
  0
LINE
  5
    CB
  8
0
  6
CONTINUOUS
 62
     7
 10
-563.303748607636
 20
81.2820892333982
 30
0.0
 11
-563.824693037587
 21
78.3276659561912
 31
0.0
  0
ENDBLK
  5
    CC
  8
0
  6
CONTINUOUS
 62
     7
  0
BLOCK
  5
    CD
  8
0
  6
CONTINUOUS
 62
     7
  2
*UDIM493
 70
    65
 10
0.0
 20
0.0
 30
0.0
  3
*UDIM493
  0
TEXT
  5
    CE
  8
0
  6
CONTINUOUS
 62
     7
 10
-577.681881906866
 20
-59.7459720874996
 30
0.0
 40
3.00000002980232
  1
10
 50
89.9999999480344
 41
0.933333333333333
 72
     1
 11
-579.181881919503
 21
-57.2459720613058
 31
0.0
 73
     2
  0
LINE
  5
    CF
  8
0
  6
CONTINUOUS
 62
     7
 10
-494.866157531738
 20
-59.7178726196289
 30
0.0
 11
-578.681881904602
 21
-59.7178726196289
 31
0.0
  0
LINE
  5
    D0
  8
0
  6
CONTINUOUS
 62
     7
 10
-493.541185825224
 20
-54.7178793172529
 30
0.0
 11
-578.681881904602
 21
-54.7178793172529
 31
0.0
  0
LINE
  5
    D1
  8
0
  6
CONTINUOUS
 62
     7
 10
-576.681881904602
 20
-59.745972086141
 30
0.0
 11
-576.681881904602
 21
-54.7178793172529
 31
0.0
  0
LINE
  5
    D2
  8
0
  6
CONTINUOUS
 62
     7
 10
-576.16093747465
 20
-62.6722958968359
 30
0.0
 11
-576.681881904602
 21
-59.7178726196289
 31
0.0
  0
LINE
  5
    D3
  8
0
  6
CONTINUOUS
 62
     7
 10
-576.681881904602
 20
-59.7178726196289
 30
0.0
 11
-577.202826334554
 21
-62.6722958968359
 31
0.0
  0
LINE
  5
    D4
  8
0
  6
CONTINUOUS
 62
     7
 10
-577.202826334554
 20
-51.7634560400459
 30
0.0
 11
-576.681881904602
 21
-54.7178793172529
 31
0.0
  0
LINE
  5
    D5
  8
0
  6
CONTINUOUS
 62
     7
 10
-576.681881904602
 20
-54.7178793172529
 30
0.0
 11
-576.16093747465
 21
-51.7634560400459
 31
0.0
  0
ENDBLK
  5
    D6
  8
0
  6
CONTINUOUS
 62
     7
  0
BLOCK
  5
    D7
  8
0
  6
CONTINUOUS
 62
     7
  2
*UDIM494
 70
    65
 10
0.0
 20
0.0
 30
0.0
  3
*UDIM494
  0
TEXT
  5
    D8
  8
0
  6
CONTINUOUS
 62
     7
 10
-577.681881908134
 20
12.357119714543
 30
0.0
 40
3.00000002980232
  1
285
 50
89.9999999480344
 41
0.933333333333333
 72
     1
 11
-579.181881919503
 21
16.2571197546446
 31
0.0
 73
     2
  0
LINE
  5
    D9
  8
0
  6
CONTINUOUS
 62
     7
 10
-493.541130295953
 20
87.7821796948053
 30
0.0
 11
-578.681881904602
 21
87.7821796948053
 31
0.0
  0
LINE
  5
    DA
  8
0
  6
CONTINUOUS
 62
     7
 10
-576.681881904602
 20
-54.7178793172529
 30
0.0
 11
-576.681881904602
 21
87.7821796948053
 31
0.0
  0
LINE
  5
    DB
  8
0
  6
CONTINUOUS
 62
     7
 10
-577.202826334554
 20
-51.7634560400459
 30
0.0
 11
-576.681881904602
 21
-54.7178793172529
 31
0.0
  0
LINE
  5
    DC
  8
0
  6
CONTINUOUS
 62
     7
 10
-576.681881904602
 20
-54.7178793172529
 30
0.0
 11
-576.16093747465
 21
-51.7634560400459
 31
0.0
  0
LINE
  5
    DD
  8
0
  6
CONTINUOUS
 62
     7
 10
-576.16093747465
 20
84.8277564175983
 30
0.0
 11
-576.681881904602
 21
87.7821796948053
 31
0.0
  0
LINE
  5
    DE
  8
0
  6
CONTINUOUS
 62
     7
 10
-576.681881904602
 20
87.7821796948053
 30
0.0
 11
-577.202826334554
 21
84.8277564175983
 31
0.0
  0
ENDBLK
  5
    DF
  8
0
  6
CONTINUOUS
 62
     7
  0
BLOCK
  5
    E0
  8
0
  6
CONTINUOUS
 62
     7
  2
*UDIM495
 70
    65
 10
0.0
 20
0.0
 30
0.0
  3
*UDIM495
  0
TEXT
  5
    E1
  8
0
  6
CONTINUOUS
 62
     7
 10
-577.681881906866
 20
86.763108754505
 30
0.0
 40
3.00000002980232
  1
10
 50
89.9999999480344
 41
0.933333333333333
 72
     1
 11
-579.181881919503
 21
89.2631087806988
 31
0.0
 73
     2
  0
LINE
  5
    E2
  8
0
  6
CONTINUOUS
 62
     7
 10
-494.866157531738
 20
92.7821350097656
 30
0.0
 11
-578.681881904602
 21
92.7821350097656
 31
0.0
  0
LINE
  5
    E3
  8
0
  6
CONTINUOUS
 62
     7
 10
-576.681881904602
 20
86.7631087558636
 30
0.0
 11
-576.681881904602
 21
92.7821350097656
 31
0.0
  0
LINE
  5
    E4
  8
0
  6
CONTINUOUS
 62
     7
 10
-576.16093747465
 20
84.8277564175983
 30
0.0
 11
-576.681881904602
 21
87.7821796948053
 31
0.0
  0
LINE
  5
    E5
  8
0
  6
CONTINUOUS
 62
     7
 10
-576.681881904602
 20
87.7821796948053
 30
0.0
 11
-577.202826334554
 21
84.8277564175983
 31
0.0
  0
LINE
  5
    E6
  8
0
  6
CONTINUOUS
 62
     7
 10
-577.202826334554
 20
95.7365582869726
 30
0.0
 11
-576.681881904602
 21
92.7821350097656
 31
0.0
  0
LINE
  5
    E7
  8
0
  6
CONTINUOUS
 62
     7
 10
-576.681881904602
 20
92.7821350097656
 30
0.0
 11
-576.16093747465
 21
95.7365582869726
 31
0.0
  0
ENDBLK
  5
    E8
  8
0
  6
CONTINUOUS
 62
     7
  0
BLOCK
  5
    E9
  8
0
  6
CONTINUOUS
 62
     7
  2
*UDIM496
 70
    65
 10
0.0
 20
0.0
 30
0.0
  3
*UDIM496
  0
TEXT
  5
    EA
  8
0
  6
CONTINUOUS
 62
     7
 10
-511.166127049939
 20
100.502471927346
 30
0.0
 40
3.00000002980232
  1
105
 50
359.999999948034
 41
0.933333333333333
 72
     1
 11
-507.266127009843
 21
102.002471938729
 31
0.0
 73
     2
  0
LINE
  5
    EB
  8
0
  6
CONTINUOUS
 62
     7
 10
-480.741138326602
 20
68.7821350097656
 30
0.0
 11
-480.741128055149
 21
101.502471923828
 31
0.0
  0
LINE
  5
    EC
  8
0
  6
CONTINUOUS
 62
     7
 10
-533.241107708792
 20
68.7821350097655
 30
0.0
 11
-533.241094157721
 21
101.502471923828
 31
0.0
  0
LINE
  5
    ED
  8
0
  6
CONTINUOUS
 62
     7
 10
-480.741128682982
 20
99.5024719238281
 30
0.0
 11
-533.241094986018
 21
99.5024719238281
 31
0.0
  0
LINE
  5
    EE
  8
0
  6
CONTINUOUS
 62
     7
 10
-483.695551960189
 20
98.9815274938765
 30
0.0
 11
-480.741128682982
 21
99.5024719238281
 31
0.0
  0
LINE
  5
    EF
  8
0
  6
CONTINUOUS
 62
     7
 10
-480.741128682982
 20
99.5024719238281
 30
0.0
 11
-483.695551960189
 21
100.02341635378
 31
0.0
  0
LINE
  5
    F0
  8
0
  6
CONTINUOUS
 62
     7
 10
-530.286671708811
 20
100.02341635378
 30
0.0
 11
-533.241094986018
 21
99.5024719238281
 31
0.0
  0
LINE
  5
    F1
  8
0
  6
CONTINUOUS
 62
     7
 10
-533.241094986018
 20
99.5024719238281
 30
0.0
 11
-530.286671708811
 21
98.9815274938765
 31
0.0
  0
ENDBLK
  5
    F2
  8
0
  6
CONTINUOUS
 62
     7
  0
BLOCK
  5
    F3
  8
0
  6
CONTINUOUS
 62
     7
  2
*HATCH82
 70
    65
 10
0.0
 20
0.0
 30
0.0
  3
*HATCH82
  0
LINE
  5
    F4
  8
0
  6
CONTINUOUS
 62
    52
 10
187.992431640625
 20
39.5
 30
0.0
 11
185.992431640625
 21
37.5
 31
0.0
  0
LINE
  5
    F5
  8
0
  6
CONTINUOUS
 62
    52
 10
192.235076904297
 20
39.5
 30
0.0
 11
190.235076904297
 21
37.5
 31
0.0
  0
LINE
  5
    F6
  8
0
  6
CONTINUOUS
 62
    52
 10
196.477722167969
 20
39.5
 30
0.0
 11
194.477722167969
 21
37.5
 31
0.0
  0
LINE
  5
    F7
  8
0
  6
CONTINUOUS
 62
    52
 10
200.720367431641
 20
39.5
 30
0.0
 11
198.720367431641
 21
37.5
 31
0.0
  0
LINE
  5
    F8
  8
0
  6
CONTINUOUS
 62
    52
 10
204.963012695313
 20
39.5
 30
0.0
 11
202.963012695313
 21
37.5
 31
0.0
  0
LINE
  5
    F9
  8
0
  6
CONTINUOUS
 62
    52
 10
209.205657958984
 20
39.5
 30
0.0
 11
207.205657958984
 21
37.5
 31
0.0
  0
LINE
  5
    FA
  8
0
  6
CONTINUOUS
 62
    52
 10
213.448303222656
 20
39.5
 30
0.0
 11
211.448303222656
 21
37.5
 31
0.0
  0
LINE
  5
    FB
  8
0
  6
CONTINUOUS
 62
    52
 10
217.690948486328
 20
39.5
 30
0.0
 11
215.690948486328
 21
37.5
 31
0.0
  0
LINE
  5
    FC
  8
0
  6
CONTINUOUS
 62
    52
 10
221.93359375
 20
39.5
 30
0.0
 11
219.93359375
 21
37.5
 31
0.0
  0
LINE
  5
    FD
  8
0
  6
CONTINUOUS
 62
    52
 10
226.176239013672
 20
39.5
 30
0.0
 11
224.176239013672
 21
37.5
 31
0.0
  0
LINE
  5
    FE
  8
0
  6
CONTINUOUS
 62
    52
 10
229.369522094727
 20
38.4506874084473
 30
0.0
 11
228.418838500977
 21
37.5
 31
0.0
  0
ENDBLK
  5
    FF
  8
0
  6
CONTINUOUS
 62
     7
  0
BLOCK
  5
   100
  8
0
  6
CONTINUOUS
 62
     7
  2
*HATCH83
 70
    65
 10
0.0
 20
0.0
 30
0.0
  3
*HATCH83
  0
LINE
  5
   101
  8
0
  6
CONTINUOUS
 62
    52
 10
115.867530822754
 20
39.4999961853027
 30
0.0
 11
113.867530822754
 21
37.4999961853027
 31
0.0
  0
LINE
  5
   102
  8
0
  6
CONTINUOUS
 62
    52
 10
120.110176086426
 20
39.4999961853027
 30
0.0
 11
118.110176086426
 21
37.4999961853027
 31
0.0
  0
LINE
  5
   103
  8
0
  6
CONTINUOUS
 62
    52
 10
124.352821350098
 20
39.4999961853027
 30
0.0
 11
122.352821350098
 21
37.4999961853027
 31
0.0
  0
LINE
  5
   104
  8
0
  6
CONTINUOUS
 62
    52
 10
128.595458984375
 20
39.4999961853027
 30
0.0
 11
126.59546661377
 21
37.4999961853027
 31
0.0
  0
LINE
  5
   105
  8
0
  6
CONTINUOUS
 62
    52
 10
132.838104248047
 20
39.4999961853027
 30
0.0
 11
130.838104248047
 21
37.4999961853027
 31
0.0
  0
LINE
  5
   106
  8
0
  6
CONTINUOUS
 62
    52
 10
137.080749511719
 20
39.4999961853027
 30
0.0
 11
135.080749511719
 21
37.4999961853027
 31
0.0
  0
LINE
  5
   107
  8
0
  6
CONTINUOUS
 62
    52
 10
141.323394775391
 20
39.4999961853027
 30
0.0
 11
139.323394775391
 21
37.4999961853027
 31
0.0
  0
LINE
  5
   108
  8
0
  6
CONTINUOUS
 62
    52
 10
145.566040039063
 20
39.4999961853027
 30
0.0
 11
143.566040039063
 21
37.4999961853027
 31
0.0
  0
LINE
  5
   109
  8
0
  6
CONTINUOUS
 62
    52
 10
149.808685302734
 20
39.4999961853027
 30
0.0
 11
147.808685302734
 21
37.4999961853027
 31
0.0
  0
LINE
  5
   10A
  8
0
  6
CONTINUOUS
 62
    52
 10
154.051330566406
 20
39.4999961853027
 30
0.0
 11
152.051330566406
 21
37.4999961853027
 31
0.0
  0
LINE
  5
   10B
  8
0
  6
CONTINUOUS
 62
    52
 10
158.293975830078
 20
39.4999961853027
 30
0.0
 11
156.293975830078
 21
37.4999961853027
 31
0.0
  0
LINE
  5
   10C
  8
0
  6
CONTINUOUS
 62
    52
 10
162.53662109375
 20
39.4999961853027
 30
0.0
 11
160.53662109375
 21
37.4999961853027
 31
0.0
  0
LINE
  5
   10D
  8
0
  6
CONTINUOUS
 62
    52
 10
166.779266357422
 20
39.4999961853027
 30
0.0
 11
164.779266357422
 21
37.4999961853027
 31
0.0
  0
LINE
  5
   10E
  8
0
  6
CONTINUOUS
 62
    52
 10
171.021911621094
 20
39.4999961853027
 30
0.0
 11
169.021911621094
 21
37.4999961853027
 31
0.0
  0
LINE
  5
   10F
  8
0
  6
CONTINUOUS
 62
    52
 10
175.264556884766
 20
39.4999961853027
 30
0.0
 11
173.264556884766
 21
37.4999961853027
 31
0.0
  0
ENDBLK
  5
   110
  8
0
  6
CONTINUOUS
 62
     7
  0
BLOCK
  5
   111
  8
0
  6
CONTINUOUS
 62
     7
  2
*HATCH84
 70
    65
 10
0.0
 20
0.0
 30
0.0
  3
*HATCH84
  0
LINE
  5
   112
  8
0
  6
CONTINUOUS
 62
    52
 10
92.5330123901367
 20
39.4999961853027
 30
0.0
 11
90.5330123901367
 21
37.4999961853027
 31
0.0
  0
LINE
  5
   113
  8
0
  6
CONTINUOUS
 62
    52
 10
96.7756576538086
 20
39.4999961853027
 30
0.0
 11
94.7756576538086
 21
37.4999961853027
 31
0.0
  0
LINE
  5
   114
  8
0
  6
CONTINUOUS
 62
    52
 10
101.01830291748
 20
39.4999961853027
 30
0.0
 11
99.0183029174805
 21
37.4999961853027
 31
0.0
  0
LINE
  5
   115
  8
0
  6
CONTINUOUS
 62
    52
 10
105.260948181152
 20
39.4999961853027
 30
0.0
 11
103.260948181152
 21
37.4999961853027
 31
0.0
  0
ENDBLK
  5
   116
  8
0
  6
CONTINUOUS
 62
     7
  0
BLOCK
  5
   117
  8
0
  6
CONTINUOUS
 62
     7
  2
*HATCH85
 70
    65
 10
0.0
 20
0.0
 30
0.0
  3
*HATCH85
  0
LINE
  5
   118
  8
0
  6
CONTINUOUS
 62
    52
 10
45.8639602661133
 20
39.4999961853027
 30
0.0
 11
43.8639640808105
 21
37.5
 31
0.0
  0
LINE
  5
   119
  8
0
  6
CONTINUOUS
 62
    52
 10
50.1065979003906
 20
39.4999961853027
 30
0.0
 11
48.1066017150879
 21
37.5
 31
0.0
  0
LINE
  5
   11A
  8
0
  6
CONTINUOUS
 62
    52
 10
54.349235534668
 20
39.4999961853027
 30
0.0
 11
52.3492393493652
 21
37.5
 31
0.0
  0
LINE
  5
   11B
  8
0
  6
CONTINUOUS
 62
    52
 10
58.5918731689453
 20
39.4999961853027
 30
0.0
 11
56.5918769836426
 21
37.5
 31
0.0
  0
LINE
  5
   11C
  8
0
  6
CONTINUOUS
 62
    52
 10
62.8345108032227
 20
39.4999961853027
 30
0.0
 11
60.8345146179199
 21
37.5
 31
0.0
  0
LINE
  5
   11D
  8
0
  6
CONTINUOUS
 62
    52
 10
67.0771560668945
 20
39.4999961853027
 30
0.0
 11
65.0771560668945
 21
37.5
 31
0.0
  0
LINE
  5
   11E
  8
0
  6
CONTINUOUS
 62
    52
 10
71.3198013305664
 20
39.4999961853027
 30
0.0
 11
69.3198013305664
 21
37.5
 31
0.0
  0
LINE
  5
   11F
  8
0
  6
CONTINUOUS
 62
    52
 10
75.2370758056641
 20
39.1746253967285
 30
0.0
 11
73.5624465942383
 21
37.4999961853027
 31
0.0
  0
ENDBLK
  5
   120
  8
0
  6
CONTINUOUS
 62
     7
  0
BLOCK
  5
   121
  8
0
  6
CONTINUOUS
 62
     7
  2
*HATCH86
 70
    65
 10
0.0
 20
0.0
 30
0.0
  3
*HATCH86
  0
LINE
  5
   122
  8
0
  6
CONTINUOUS
 62
    52
 10
-34.7462120056152
 20
39.5
 30
0.0
 11
-36.7462120056152
 21
37.5
 31
0.0
  0
LINE
  5
   123
  8
0
  6
CONTINUOUS
 62
    52
 10
-30.5035724639893
 20
39.5
 30
0.0
 11
-32.5035743713379
 21
37.5
 31
0.0
  0
LINE
  5
   124
  8
0
  6
CONTINUOUS
 62
    52
 10
-26.2609310150147
 20
39.5
 30
0.0
 11
-28.2609329223633
 21
37.5
 31
0.0
  0
LINE
  5
   125
  8
0
  6
CONTINUOUS
 62
    52
 10
-22.01828956604
 20
39.5
 30
0.0
 11
-24.0182914733887
 21
37.5
 31
0.0
  0
LINE
  5
   126
  8
0
  6
CONTINUOUS
 62
    52
 10
-17.7756481170654
 20
39.5
 30
0.0
 11
-19.7756500244141
 21
37.5
 31
0.0
  0
LINE
  5
   127
  8
0
  6
CONTINUOUS
 62
    52
 10
-13.5330066680908
 20
39.5
 30
0.0
 11
-15.5330085754395
 21
37.5
 31
0.0
  0
LINE
  5
   128
  8
0
  6
CONTINUOUS
 62
    52
 10
-9.29036521911621
 20
39.5
 30
0.0
 11
-11.2903671264648
 21
37.5
 31
0.0
  0
LINE
  5
   129
  8
0
  6
CONTINUOUS
 62
    52
 10
-5.0477237701416
 20
39.5
 30
0.0
 11
-7.04772567749023
 21
37.5
 31
0.0
  0
LINE
  5
   12A
  8
0
  6
CONTINUOUS
 62
    52
 10
-0.80508279800415
 20
39.5
 30
0.0
 11
-2.8050844669342
 21
37.5
 31
0.0
  0
LINE
  5
   12B
  8
0
  6
CONTINUOUS
 62
    52
 10
3.4375581741333
 20
39.5
 30
0.0
 11
1.43755650520325
 21
37.5
 31
0.0
  0
LINE
  5
   12C
  8
0
  6
CONTINUOUS
 62
    52
 10
7.68019962310791
 20
39.5
 30
0.0
 11
5.68019771575928
 21
37.5
 31
0.0
  0
LINE
  5
   12D
  8
0
  6
CONTINUOUS
 62
    52
 10
11.9228410720825
 20
39.5
 30
0.0
 11
9.92283916473389
 21
37.5
 31
0.0
  0
LINE
  5
   12E
  8
0
  6
CONTINUOUS
 62
    52
 10
16.1654815673828
 20
39.5
 30
0.0
 11
14.1654806137085
 21
37.5
 31
0.0
  0
LINE
  5
   12F
  8
0
  6
CONTINUOUS
 62
    52
 10
20.4081230163574
 20
39.5
 30
0.0
 11
18.4081211090088
 21
37.5
 31
0.0
  0
LINE
  5
   130
  8
0
  6
CONTINUOUS
 62
    52
 10
24.650764465332
 20
39.5
 30
0.0
 11
22.6507625579834
 21
37.5
 31
0.0
  0
LINE
  5
   131
  8
0
  6
CONTINUOUS
 62
    52
 10
28.8934059143066
 20
39.5
 30
0.0
 11
26.893404006958
 21
37.5
 31
0.0
  0
LINE
  5
   132
  8
0
  6
CONTINUOUS
 62
    52
 10
33.1360473632813
 20
39.5
 30
0.0
 11
31.1360454559326
 21
37.5
 31
0.0
  0
LINE
  5
   133
  8
0
  6
CONTINUOUS
 62
    52
 10
35.486873626709
 20
37.6081924438477
 30
0.0
 11
35.3786811828613
 21
37.5
 31
0.0
  0
ENDBLK
  5
   134
  8
0
  6
CONTINUOUS
 62
     7
  0
BLOCK
  5
   135
  8
0
  6
CONTINUOUS
 62
     7
  2
*HATCH87
 70
    65
 10
0.0
 20
0.0
 30
0.0
  3
*HATCH87
  0
LINE
  5
   136
  8
0
  6
CONTINUOUS
 62
    52
 10
166.264526367187
 20
30.5000076293945
 30
0.0
 11
163.987060546875
 21
28.2225513458252
 31
0.0
  0
LINE
  5
   137
  8
0
  6
CONTINUOUS
 62
    52
 10
170.50715637207
 20
30.5000076293945
 30
0.0
 11
168.00715637207
 21
28.0000019073486
 31
0.0
  0
LINE
  5
   138
  8
0
  6
CONTINUOUS
 62
    52
 10
172.987060546875
 20
28.7372703552246
 30
0.0
 11
172.249786376953
 21
28.0000019073486
 31
0.0
  0
ENDBLK
  5
   139
  8
0
  6
CONTINUOUS
 62
     7
  0
BLOCK
  5
   13A
  8
0
  6
CONTINUOUS
 62
     7
  2
*UDIM497
 70
    65
 10
0.0
 20
0.0
 30
0.0
  3
*UDIM497
  0
TEXT
  5
   13B
  8
0
  6
CONTINUOUS
 62
     7
 10
-658.376184155903
 20
-83.7925300537714
 30
0.0
 40
3.00000002980232
  1
195,5
 50
359.999999948034
 41
0.933333333333333
 72
     1
 11
-651.676184087992
 21
-82.2925300449133
 31
0.0
 73
     2
  0
LINE
  5
   13C
  8
0
  6
CONTINUOUS
 62
     7
 10
-602.526184082031
 20
-65.2804689294814
 30
0.0
 11
-602.526184082031
 21
-86.7925300598145
 31
0.0
  0
LINE
  5
   13D
  8
0
  6
CONTINUOUS
 62
     7
 10
-700.276182174683
 20
-23.8430089950562
 30
0.0
 11
-700.276182174683
 21
-86.7925300598145
 31
0.0
  0
LINE
  5
   13E
  8
0
  6
CONTINUOUS
 62
     7
 10
-602.526184082031
 20
-84.7925300598145
 30
0.0
 11
-700.276182174683
 21
-84.7925300598145
 31
0.0
  0
LINE
  5
   13F
  8
0
  6
CONTINUOUS
 62
     7
 10
-605.480607359238
 20
-85.3134744897661
 30
0.0
 11
-602.526184082031
 21
-84.7925300598145
 31
0.0
  0
LINE
  5
   140
  8
0
  6
CONTINUOUS
 62
     7
 10
-602.526184082031
 20
-84.7925300598145
 30
0.0
 11
-605.480607359238
 21
-84.2715856298628
 31
0.0
  0
LINE
  5
   141
  8
0
  6
CONTINUOUS
 62
     7
 10
-697.321758897476
 20
-84.2715856298628
 30
0.0
 11
-700.276182174683
 21
-84.7925300598145
 31
0.0
  0
LINE
  5
   142
  8
0
  6
CONTINUOUS
 62
     7
 10
-700.276182174683
 20
-84.7925300598145
 30
0.0
 11
-697.321758897476
 21
-85.3134744897661
 31
0.0
  0
ENDBLK
  5
   143
  8
0
  6
CONTINUOUS
 62
     7
  0
BLOCK
  5
   144
  8
0
  6
CONTINUOUS
 62
     7
  2
*UDIM498
 70
    65
 10
0.0
 20
0.0
 30
0.0
  3
*UDIM498
  0
TEXT
  5
   145
  8
0
  6
CONTINUOUS
 62
     7
 10
-654.201184128088
 20
-75.7656516993633
 30
0.0
 40
3.00000002980232
  1
190
 50
359.999999948034
 41
0.933333333333333
 72
     1
 11
-650.301184087992
 21
-74.2656516879797
 31
0.0
 73
     2
  0
LINE
  5
   146
  8
0
  6
CONTINUOUS
 62
     7
 10
-602.526184082031
 20
-65.2804689294814
 30
0.0
 11
-602.526184082031
 21
-78.7656517028809
 31
0.0
  0
LINE
  5
   147
  8
0
  6
CONTINUOUS
 62
     7
 10
-697.526184082031
 20
-57.8273644601001
 30
0.0
 11
-697.526184082031
 21
-78.7656517028809
 31
0.0
  0
LINE
  5
   148
  8
0
  6
CONTINUOUS
 62
     7
 10
-602.526184082031
 20
-76.7656517028809
 30
0.0
 11
-697.526184082031
 21
-76.7656517028809
 31
0.0
  0
LINE
  5
   149
  8
0
  6
CONTINUOUS
 62
     7
 10
-605.480607359238
 20
-77.2865961328325
 30
0.0
 11
-602.526184082031
 21
-76.7656517028809
 31
0.0
  0
LINE
  5
   14A
  8
0
  6
CONTINUOUS
 62
     7
 10
-602.526184082031
 20
-76.7656517028809
 30
0.0
 11
-605.480607359238
 21
-76.2447072729292
 31
0.0
  0
LINE
  5
   14B
  8
0
  6
CONTINUOUS
 62
     7
 10
-694.571760804824
 20
-76.2447072729292
 30
0.0
 11
-697.526184082031
 21
-76.7656517028809
 31
0.0
  0
LINE
  5
   14C
  8
0
  6
CONTINUOUS
 62
     7
 10
-697.526184082031
 20
-76.7656517028809
 30
0.0
 11
-694.571760804824
 21
-77.2865961328325
 31
0.0
  0
ENDBLK
  5
   14D
  8
0
  6
CONTINUOUS
 62
     7
  0
BLOCK
  5
   14E
  8
0
  6
CONTINUOUS
 62
     7
  2
*UDIM499
 70
    65
 10
0.0
 20
0.0
 30
0.0
  3
*UDIM499
  0
TEXT
  5
   14F
  8
0
  6
CONTINUOUS
 62
     7
 10
-692.597473252179
 20
-75.7656517018887
 30
0.0
 40
3.00000002980232
  1
2
 50
359.999999948034
 41
0.933333333333334
 72
     1
 11
-691.497473239899
 21
-74.2656516879797
 31
0.0
 73
     2
  0
LINE
  5
   150
  8
0
  6
CONTINUOUS
 62
     7
 10
-698.526184082031
 20
-57.9959037859428
 30
0.0
 11
-698.526184082031
 21
-78.7656517028809
 31
0.0
  0
LINE
  5
   151
  8
0
  6
CONTINUOUS
 62
     7
 10
-690.397473228971
 20
-76.7656517028809
 30
0.0
 11
-698.526184082031
 21
-76.7656517028809
 31
0.0
  0
LINE
  5
   152
  8
0
  6
CONTINUOUS
 62
     7
 10
-694.571760804824
 20
-76.2447072729292
 30
0.0
 11
-697.526184082031
 21
-76.7656517028809
 31
0.0
  0
LINE
  5
   153
  8
0
  6
CONTINUOUS
 62
     7
 10
-697.526184082031
 20
-76.7656517028809
 30
0.0
 11
-694.571760804824
 21
-77.2865961328325
 31
0.0
  0
LINE
  5
   154
  8
0
  6
CONTINUOUS
 62
     7
 10
-701.480607359238
 20
-77.2865961328325
 30
0.0
 11
-698.526184082031
 21
-76.7656517028809
 31
0.0
  0
LINE
  5
   155
  8
0
  6
CONTINUOUS
 62
     7
 10
-698.526184082031
 20
-76.7656517028809
 30
0.0
 11
-701.480607359238
 21
-76.2447072729292
 31
0.0
  0
ENDBLK
  5
   156
  8
0
  6
CONTINUOUS
 62
     7
  0
BLOCK
  5
   157
  8
0
  6
CONTINUOUS
 62
     7
  2
*UDIM500
 70
    65
 10
0.0
 20
0.0
 30
0.0
  3
*UDIM500
  0
TEXT
  5
   158
  8
0
  6
CONTINUOUS
 62
     7
 10
-648.451199393744
 20
-68.1121158564678
 30
0.0
 40
3.00000002980232
  1
167
 50
359.999999948034
 41
0.933333333333333
 72
     1
 11
-644.551199353648
 21
-66.6121158450842
 31
0.0
 73
     2
  0
LINE
  5
   159
  8
0
  6
CONTINUOUS
 62
     7
 10
-602.526184082031
 20
-65.2804689294814
 30
0.0
 11
-602.526184082031
 21
-71.1121158599854
 31
0.0
  0
LINE
  5
   15A
  8
0
  6
CONTINUOUS
 62
     7
 10
-686.026217891599
 20
10.0320354479873
 30
0.0
 11
-686.026217891599
 21
-71.1121158599854
 31
0.0
  0
LINE
  5
   15B
  8
0
  6
CONTINUOUS
 62
     7
 10
-602.526184082031
 20
-69.1121158599854
 30
0.0
 11
-686.026217891599
 21
-69.1121158599854
 31
0.0
  0
LINE
  5
   15C
  8
0
  6
CONTINUOUS
 62
     7
 10
-605.480607359238
 20
-69.633060289937
 30
0.0
 11
-602.526184082031
 21
-69.1121158599854
 31
0.0
  0
LINE
  5
   15D
  8
0
  6
CONTINUOUS
 62
     7
 10
-602.526184082031
 20
-69.1121158599854
 30
0.0
 11
-605.480607359238
 21
-68.5911714300337
 31
0.0
  0
LINE
  5
   15E
  8
0
  6
CONTINUOUS
 62
     7
 10
-683.071794614392
 20
-68.5911714300337
 30
0.0
 11
-686.026217891599
 21
-69.1121158599854
 31
0.0
  0
LINE
  5
   15F
  8
0
  6
CONTINUOUS
 62
     7
 10
-686.026217891599
 20
-69.1121158599854
 30
0.0
 11
-683.071794614392
 21
-69.633060289937
 31
0.0
  0
ENDBLK
  5
   160
  8
0
  6
CONTINUOUS
 62
     7
  0
BLOCK
  5
   161
  8
0
  6
CONTINUOUS
 62
     7
  2
*UDIM501
 70
    65
 10
0.0
 20
0.0
 30
0.0
  3
*UDIM501
  0
TEXT
  5
   162
  8
0
  6
CONTINUOUS
 62
     7
 10
-660.420000081094
 20
2.4570319288787
 30
0.0
 40
3.00000002980232
  1
1,75
 50
89.9999999480344
 41
0.933333333333333
 72
     1
 11
-661.920000091195
 21
7.75703198288804
 31
0.0
 73
     2
  0
LINE
  5
   163
  8
0
  6
CONTINUOUS
 62
     7
 10
-679.526222149689
 20
16.5320311898972
 30
0.0
 11
-657.420000076294
 21
16.5320311898972
 31
0.0
  0
LINE
  5
   164
  8
0
  6
CONTINUOUS
 62
     7
 10
-659.420000076294
 20
2.45703193023726
 30
0.0
 11
-659.420000076294
 21
17.4070854187012
 31
0.0
  0
LINE
  5
   165
  8
0
  6
CONTINUOUS
 62
     7
 10
-658.899055646342
 20
13.5776079126902
 30
0.0
 11
-659.420000076294
 21
16.5320311898972
 31
0.0
  0
LINE
  5
   166
  8
0
  6
CONTINUOUS
 62
     7
 10
-659.420000076294
 20
16.5320311898972
 30
0.0
 11
-659.940944506246
 21
13.5776079126902
 31
0.0
  0
LINE
  5
   167
  8
0
  6
CONTINUOUS
 62
     7
 10
-659.940944506246
 20
20.3615086959081
 30
0.0
 11
-659.420000076294
 21
17.4070854187012
 31
0.0
  0
LINE
  5
   168
  8
0
  6
CONTINUOUS
 62
     7
 10
-659.420000076294
 20
17.4070854187012
 30
0.0
 11
-658.899055646342
 21
20.3615086959081
 31
0.0
  0
ENDBLK
  5
   169
  8
0
  6
CONTINUOUS
 62
     7
  0
BLOCK
  5
   16A
  8
0
  6
CONTINUOUS
 62
     7
  2
*UDIM502
 70
    65
 10
0.0
 20
0.0
 30
0.0
  3
*UDIM502
  0
TEXT
  5
   16B
  8
0
  6
CONTINUOUS
 62
     7
 10
-679.078191845412
 20
8.18337101511887
 30
0.0
 40
3.00000002980232
  1
5,5
 50
304.485776908665
 41
0.933333333333333
 72
     1
 11
-675.633605269058
 21
5.8180330551432
 31
0.0
 73
     2
  0
TEXT
  5
   16C
  8
0
  6
CONTINUOUS
 62
     7
 10
-680.861727016992
 20
10.7798113387782
 30
0.0
 40
3.00000002980232
  1
Ø
 50
304.485776908665
 41
0.933333333333334
 72
     1
 11
-679.002505044411
 21
10.7224203515185
 31
0.0
 73
     2
  0
LINE
  5
   16D
  8
0
  6
CONTINUOUS
 62
     7
 10
-675.486085784217
 20
1.18788852410604
 30
0.0
 11
-686.804741942728
 21
17.6653966654778
 31
0.0
  0
LINE
  5
   16E
  8
0
  6
CONTINUOUS
 62
     7
 10
-683.14548866251
 20
13.2583863909473
 30
0.0
 11
-685.247685146526
 21
15.398659724564
 31
0.0
  0
LINE
  5
   16F
  8
0
  6
CONTINUOUS
 62
     7
 10
-685.247685146526
 20
15.398659724564
 30
0.0
 11
-684.004283024918
 21
12.6684672104764
 31
0.0
  0
LINE
  5
   170
  8
0
  6
CONTINUOUS
 62
     7
 10
-688.906938426744
 20
19.8056699990945
 30
0.0
 11
-686.804741942728
 21
17.6653966654778
 31
0.0
  0
LINE
  5
   171
  8
0
  6
CONTINUOUS
 62
     7
 10
-686.804741942728
 20
17.6653966654778
 30
0.0
 11
-688.048144064336
 21
20.3955891795654
 31
0.0
  0
ENDBLK
  5
   172
  8
0
  6
CONTINUOUS
 62
     7
  0
BLOCK
  5
   173
  8
0
  6
CONTINUOUS
 62
     7
  2
*UDIM503
 70
    65
 10
0.0
 20
0.0
 30
0.0
  3
*UDIM503
  0
TEXT
  5
   174
  8
0
  6
CONTINUOUS
 62
     7
 10
-598.026184189679
 20
101.199047089615
 30
0.0
 40
3.00000002980232
  1
3
 50
359.999999948034
 41
0.933333333333334
 72
     1
 11
-596.926184177399
 21
102.699047103524
 31
0.0
 73
     2
  0
TEXT
  5
   175
  8
0
  6
CONTINUOUS
 62
     7
 10
-600.776184223455
 20
101.199047089615
 30
0.0
 40
3.00000002980232
  1
_
 50
359.999999948034
 41
0.933333333333334
 72
     1
 11
-599.676184211175
 21
102.699047103524
 31
0.0
 73
     2
  0
LINE
  5
   176
  8
0
  6
CONTINUOUS
 62
     7
 10
-601.026184082031
 20
89.2916566360054
 30
0.0
 11
-601.026184082031
 21
102.199047088623
 31
0.0
  0
LINE
  5
   177
  8
0
  6
CONTINUOUS
 62
     7
 10
-602.526184082031
 20
88.637542485671
 30
0.0
 11
-602.526184082031
 21
102.199047088623
 31
0.0
  0
LINE
  5
   178
  8
0
  6
CONTINUOUS
 62
     7
 10
-595.826184166471
 20
100.199047088623
 30
0.0
 11
-602.526184082031
 21
100.199047088623
 31
0.0
  0
LINE
  5
   179
  8
0
  6
CONTINUOUS
 62
     7
 10
-598.071760804824
 20
100.719991518575
 30
0.0
 11
-601.026184082031
 21
100.199047088623
 31
0.0
  0
LINE
  5
   17A
  8
0
  6
CONTINUOUS
 62
     7
 10
-601.026184082031
 20
100.199047088623
 30
0.0
 11
-598.071760804824
 21
99.6781026586714
 31
0.0
  0
LINE
  5
   17B
  8
0
  6
CONTINUOUS
 62
     7
 10
-605.480607359238
 20
99.6781026586714
 30
0.0
 11
-602.526184082031
 21
100.199047088623
 31
0.0
  0
LINE
  5
   17C
  8
0
  6
CONTINUOUS
 62
     7
 10
-602.526184082031
 20
100.199047088623
 30
0.0
 11
-605.480607359238
 21
100.719991518575
 31
0.0
  0
ENDBLK
  5
   17D
  8
0
  6
CONTINUOUS
 62
     7
  0
BLOCK
  5
   17E
  8
0
  6
CONTINUOUS
 62
     7
  2
*UDIM504
 70
    65
 10
0.0
 20
0.0
 30
0.0
  3
*UDIM504
  0
TEXT
  5
   17F
  8
0
  6
CONTINUOUS
 62
     7
 10
-613.051199372969
 20
101.199047090878
 30
0.0
 40
3.00000002980232
  1
31
 50
359.999999948034
 41
0.933333333333333
 72
     1
 11
-610.551199346781
 21
102.699047103524
 31
0.0
 73
     2
  0
LINE
  5
   180
  8
0
  6
CONTINUOUS
 62
     7
 10
-618.026206970215
 20
93.7820625305176
 30
0.0
 11
-618.026206970215
 21
102.199047088623
 31
0.0
  0
LINE
  5
   181
  8
0
  6
CONTINUOUS
 62
     7
 10
-602.526184082031
 20
100.199047088623
 30
0.0
 11
-618.026206970215
 21
100.199047088623
 31
0.0
  0
LINE
  5
   182
  8
0
  6
CONTINUOUS
 62
     7
 10
-605.480607359238
 20
99.6781026586714
 30
0.0
 11
-602.526184082031
 21
100.199047088623
 31
0.0
  0
LINE
  5
   183
  8
0
  6
CONTINUOUS
 62
     7
 10
-602.526184082031
 20
100.199047088623
 30
0.0
 11
-605.480607359238
 21
100.719991518575
 31
0.0
  0
LINE
  5
   184
  8
0
  6
CONTINUOUS
 62
     7
 10
-615.071783693008
 20
100.719991518575
 30
0.0
 11
-618.026206970215
 21
100.199047088623
 31
0.0
  0
LINE
  5
   185
  8
0
  6
CONTINUOUS
 62
     7
 10
-618.026206970215
 20
100.199047088623
 30
0.0
 11
-615.071783693008
 21
99.6781026586714
 31
0.0
  0
ENDBLK
  5
   186
  8
0
  6
CONTINUOUS
 62
     7
  0
BLOCK
  5
   187
  8
0
  6
CONTINUOUS
 62
     7
  2
*UDIM505
 70
    65
 10
0.0
 20
0.0
 30
0.0
  3
*UDIM505
  0
TEXT
  5
   188
  8
0
  6
CONTINUOUS
 62
     7
 10
-626.276207077863
 20
101.199047089615
 30
0.0
 40
3.00000002980232
  1
5
 50
359.999999948034
 41
0.933333333333334
 72
     1
 11
-625.176207065582
 21
102.699047103524
 31
0.0
 73
     2
  0
LINE
  5
   189
  8
0
  6
CONTINUOUS
 62
     7
 10
-620.526206970215
 20
93.7820625305176
 30
0.0
 11
-620.526206970215
 21
102.199047088623
 31
0.0
  0
LINE
  5
   18A
  8
0
  6
CONTINUOUS
 62
     7
 10
-618.026206970215
 20
100.199047088623
 30
0.0
 11
-626.27620707651
 21
100.199047088623
 31
0.0
  0
LINE
  5
   18B
  8
0
  6
CONTINUOUS
 62
     7
 10
-615.071783693008
 20
100.719991518575
 30
0.0
 11
-618.026206970215
 21
100.199047088623
 31
0.0
  0
LINE
  5
   18C
  8
0
  6
CONTINUOUS
 62
     7
 10
-618.026206970215
 20
100.199047088623
 30
0.0
 11
-615.071783693008
 21
99.6781026586714
 31
0.0
  0
LINE
  5
   18D
  8
0
  6
CONTINUOUS
 62
     7
 10
-623.480630247422
 20
99.6781026586714
 30
0.0
 11
-620.526206970215
 21
100.199047088623
 31
0.0
  0
LINE
  5
   18E
  8
0
  6
CONTINUOUS
 62
     7
 10
-620.526206970215
 20
100.199047088623
 30
0.0
 11
-623.480630247422
 21
100.719991518575
 31
0.0
  0
ENDBLK
  5
   18F
  8
0
  6
CONTINUOUS
 62
     7
  0
BLOCK
  5
   190
  8
0
  6
CONTINUOUS
 62
     7
  2
*UDIM506
 70
    65
 10
0.0
 20
0.0
 30
0.0
  3
*UDIM506
  0
TEXT
  5
   191
  8
0
  6
CONTINUOUS
 62
     7
 10
-724.468006137566
 20
13.2320701138501
 30
0.0
 40
3.00000002980232
  1
105
 50
89.9999999480344
 41
0.933333333333333
 72
     1
 11
-725.968006148934
 21
17.1320701539516
 31
0.0
 73
     2
  0
LINE
  5
   192
  8
0
  6
CONTINUOUS
 62
     7
 10
-715.026182174683
 20
-8.84293937683105
 30
0.0
 11
-725.468006134033
 21
-8.84293937683105
 31
0.0
  0
LINE
  5
   193
  8
0
  6
CONTINUOUS
 62
     7
 10
-715.026182174683
 20
43.6570854187012
 30
0.0
 11
-725.468006134033
 21
43.6570854187012
 31
0.0
  0
LINE
  5
   194
  8
0
  6
CONTINUOUS
 62
     7
 10
-723.468006134033
 20
-8.84293937683105
 30
0.0
 11
-723.468006134033
 21
43.6570854187012
 31
0.0
  0
LINE
  5
   195
  8
0
  6
CONTINUOUS
 62
     7
 10
-723.988950563985
 20
-5.88851609962409
 30
0.0
 11
-723.468006134033
 21
-8.84293937683105
 31
0.0
  0
LINE
  5
   196
  8
0
  6
CONTINUOUS
 62
     7
 10
-723.468006134033
 20
-8.84293937683105
 30
0.0
 11
-722.947061704082
 21
-5.88851609962409
 31
0.0
  0
LINE
  5
   197
  8
0
  6
CONTINUOUS
 62
     7
 10
-722.947061704082
 20
40.7026621414942
 30
0.0
 11
-723.468006134033
 21
43.6570854187012
 31
0.0
  0
LINE
  5
   198
  8
0
  6
CONTINUOUS
 62
     7
 10
-723.468006134033
 20
43.6570854187012
 30
0.0
 11
-723.988950563985
 21
40.7026621414942
 31
0.0
  0
ENDBLK
  5
   199
  8
0
  6
CONTINUOUS
 62
     7
  0
BLOCK
  5
   19A
  8
0
  6
CONTINUOUS
 62
     7
  2
*UDIM507
 70
    65
 10
0.0
 20
0.0
 30
0.0
  3
*UDIM507
  0
TEXT
  5
   19B
  8
0
  6
CONTINUOUS
 62
     7
 10
-735.035158974292
 20
92.2076988268018
 30
0.0
 40
3.00000002980232
  1
27,5
 50
359.999999948034
 41
0.933333333333333
 72
     1
 11
-729.735158920288
 21
93.7076988369227
 31
0.0
 73
     2
  0
TEXT
  5
   19C
  8
0
  6
CONTINUOUS
 62
     7
 10
-723.885158857069
 20
92.2076988495308
 30
0.0
 40
3.00000002980232
  1
 CORSA DI SEZIONAMENTO
 50
359.999999948034
 41
0.933333333333333
 72
     1
 11
-693.385158552726
 21
93.7076988369227
 31
0.0
 73
     2
  0
LINE
  5
   19D
  8
0
  6
CONTINUOUS
 62
     7
 10
-700.276182174683
 20
58.6569938659668
 30
0.0
 11
-700.276182174683
 21
93.2076988220215
 31
0.0
  0
LINE
  5
   19E
  8
0
  6
CONTINUOUS
 62
     7
 10
-714.026182174683
 20
44.6570854187012
 30
0.0
 11
-714.026182174683
 21
93.2076988220215
 31
0.0
  0
LINE
  5
   19F
  8
0
  6
CONTINUOUS
 62
     7
 10
-662.885158249736
 20
91.2076988220215
 30
0.0
 11
-735.035158972939
 21
91.2076988220215
 31
0.0
  0
LINE
  5
   1A0
  8
0
  6
CONTINUOUS
 62
     7
 10
-703.23060545189
 20
90.6867543920698
 30
0.0
 11
-700.276182174683
 21
91.2076988220215
 31
0.0
  0
LINE
  5
   1A1
  8
0
  6
CONTINUOUS
 62
     7
 10
-700.276182174683
 20
91.2076988220215
 30
0.0
 11
-703.23060545189
 21
91.7286432519731
 31
0.0
  0
LINE
  5
   1A2
  8
0
  6
CONTINUOUS
 62
     7
 10
-711.071758897476
 20
91.7286432519731
 30
0.0
 11
-714.026182174683
 21
91.2076988220215
 31
0.0
  0
LINE
  5
   1A3
  8
0
  6
CONTINUOUS
 62
     7
 10
-714.026182174683
 20
91.2076988220215
 30
0.0
 11
-711.071758897476
 21
90.6867543920698
 31
0.0
  0
ENDBLK
  5
   1A4
  8
0
  6
CONTINUOUS
 62
     7
  0
BLOCK
  5
   1A5
  8
0
  6
CONTINUOUS
 62
     7
  2
*UDIM508
 70
    65
 10
0.0
 20
0.0
 30
0.0
  3
*UDIM508
  0
TEXT
  5
   1A6
  8
0
  6
CONTINUOUS
 62
     7
 10
-364.032255170012
 20
97.054778017759
 30
0.0
 40
3.00000002980232
  1
8
 50
406.249477420785
 41
0.933333333333334
 72
     1
 11
-364.355120046958
 21
98.8866509227332
 31
0.0
 73
     2
  0
TEXT
  5
   1A7
  8
0
  6
CONTINUOUS
 62
     7
 10
-366.210542050042
 20
94.7793513916352
 30
0.0
 40
3.00000002980232
  1
Ø
 50
406.249477420785
 41
0.933333333333334
 72
     1
 11
-366.533406926989
 21
96.6112242966094
 31
0.0
 73
     2
  0
TEXT
  5
   1A8
  8
0
  6
CONTINUOUS
 62
     7
 10
-377.793496191379
 20
82.6798605283684
 30
0.0
 40
3.00000002980232
  1
3 fori
 50
406.249477420785
 41
0.933333333333333
 72
     1
 11
-373.275723510596
 21
89.5682370680929
 31
0.0
 73
     2
  0
LINE
  5
   1A9
  8
0
  6
CONTINUOUS
 62
     7
 10
-361.788554280115
 20
97.9524452371292
 30
0.0
 11
-386.255515003601
 21
72.3943911530056
 31
0.0
  0
LINE
  5
   1AA
  8
0
  6
CONTINUOUS
 62
     7
 10
-383.205742189025
 20
76.3335000482125
 30
0.0
 11
-384.872475719055
 21
73.8391064666233
 31
0.0
  0
LINE
  5
   1AB
  8
0
  6
CONTINUOUS
 62
     7
 10
-384.872475719055
 20
73.8391064666233
 30
0.0
 11
-382.45312579353
 21
75.6130134365237
 31
0.0
  0
LINE
  5
   1AC
  8
0
  6
CONTINUOUS
 62
     7
 10
-387.922248533632
 20
69.8999975714165
 30
0.0
 11
-386.255515003601
 21
72.3943911530056
 31
0.0
  0
LINE
  5
   1AD
  8
0
  6
CONTINUOUS
 62
     7
 10
-386.255515003601
 20
72.3943911530056
 30
0.0
 11
-388.674864929127
 21
70.6204841831052
 31
0.0
  0
ENDBLK
  5
   1AE
  8
0
  6
CONTINUOUS
 62
     7
  0
BLOCK
  5
   1AF
  8
0
  6
CONTINUOUS
 62
     7
  2
*UDIM509
 70
    65
 10
0.0
 20
0.0
 30
0.0
  3
*UDIM509
  0
TEXT
  5
   1B0
  8
0
  6
CONTINUOUS
 62
     7
 10
-429.713865052925
 20
82.6143066867899
 30
0.0
 40
3.00000002980232
  1
7
 50
327.216611505693
 41
0.933333333333334
 72
     1
 11
-427.976872321404
 21
83.2797811937287
 31
0.0
 73
     2
  0
TEXT
  5
   1B1
  8
0
  6
CONTINUOUS
 62
     7
 10
-433.076759575974
 20
84.7801646381025
 30
0.0
 40
3.00000002980232
  1
Ø
 50
327.216611505693
 41
1.2
 72
     1
 11
-431.003477391842
 21
85.22905334855
 31
0.0
 73
     2
  0
LINE
  5
   1B2
  8
0
  6
CONTINUOUS
 62
     7
 10
-433.618224058321
 20
83.9394410078252
 30
0.0
 11
-411.874744066536
 21
69.9356449688669
 31
0.0
  0
LINE
  5
   1B3
  8
0
  6
CONTINUOUS
 62
     7
 10
-420.406282486798
 20
74.506787941028
 30
0.0
 11
-417.549628532893
 21
73.5905302329343
 31
0.0
  0
LINE
  5
   1B4
  8
0
  6
CONTINUOUS
 62
     7
 10
-417.549628532893
 20
73.5905302329343
 30
0.0
 11
-419.565434540376
 21
75.8123596908802
 31
0.0
  0
LINE
  5
   1B5
  8
0
  6
CONTINUOUS
 62
     7
 10
-413.221708235859
 20
71.726709678601
 30
0.0
 11
-416.078362189763
 21
72.6429673866946
 31
0.0
  0
LINE
  5
   1B6
  8
0
  6
CONTINUOUS
 62
     7
 10
-416.078362189763
 20
72.6429673866946
 30
0.0
 11
-414.062556182281
 21
70.4211379287487
 31
0.0
  0
ENDBLK
  5
   1B7
  8
0
  6
CONTINUOUS
 62
     7
  0
BLOCK
  5
   1B8
  8
0
  6
CONTINUOUS
 62
     7
  2
*UDIM510
 70
    65
 10
0.0
 20
0.0
 30
0.0
  3
*UDIM510
  0
TEXT
  5
   1B9
  8
0
  6
CONTINUOUS
 62
     7
 10
-366.839337795326
 20
28.8405657160977
 30
0.0
 40
3.00000002980232
  1
7
 50
332.115912720599
 41
0.933333333333334
 72
     1
 11
-365.165526146641
 21
29.6519562715447
 31
0.0
 73
     2
  0
TEXT
  5
   1BA
  8
0
  6
CONTINUOUS
 62
     7
 10
-370.374920041668
 20
30.7113031155673
 30
0.0
 40
3.00000002980232
  1
Ø
 50
332.115912720599
 41
1.2
 72
     1
 11
-368.347550167927
 21
31.3356199297385
 31
0.0
 73
     2
  0
LINE
  5
   1BB
  8
0
  6
CONTINUOUS
 62
     7
 10
-390.756881747698
 20
40.3643943434034
 30
0.0
 11
-365.362451898669
 21
26.9277645846889
 31
0.0
  0
LINE
  5
   1BC
  8
0
  6
CONTINUOUS
 62
     7
 10
-389.261873457889
 20
38.6949107462104
 30
0.0
 11
-386.337403972064
 21
38.0259726126894
 31
0.0
  0
LINE
  5
   1BD
  8
0
  6
CONTINUOUS
 62
     7
 10
-386.337403972064
 20
38.0259726126894
 30
0.0
 11
-388.535599742874
 21
40.06752480482
 31
0.0
  0
LINE
  5
   1BE
  8
0
  6
CONTINUOUS
 62
     7
 10
-381.866117264767
 20
36.5385868734185
 30
0.0
 11
-384.790586750592
 21
37.2075250069395
 31
0.0
  0
LINE
  5
   1BF
  8
0
  6
CONTINUOUS
 62
     7
 10
-384.790586750592
 20
37.2075250069395
 30
0.0
 11
-382.592390979782
 21
35.165972814809
 31
0.0
  0
ENDBLK
  5
   1C0
  8
0
  6
CONTINUOUS
 62
     7
  0
BLOCK
  5
   1C1
  8
0
  6
CONTINUOUS
 62
     7
  2
*UDIM511
 70
    65
 10
0.0
 20
0.0
 30
0.0
  3
*UDIM511
  0
TEXT
  5
   1C2
  8
0
  6
CONTINUOUS
 62
     7
 10
-403.571704943079
 20
13.5101890898019
 30
0.0
 40
3.00000002980232
  1
R min.200
 50
359.999999844103
 41
0.933333333333333
 72
     1
 11
-391.271704816816
 21
15.0101890712976
 31
0.0
 73
     2
  0
LINE
  5
   1C3
  8
0
  6
CONTINUOUS
 62
     7
 10
-405.813995361328
 20
31.221567492263
 30
0.0
 11
-405.813995361328
 21
10.5101890563965
 31
0.0
  0
LINE
  5
   1C4
  8
0
  6
CONTINUOUS
 62
     7
 10
-376.730795183633
 20
21.6025684928569
 30
0.0
 11
-376.730795183633
 21
10.5101890563965
 31
0.0
  0
LINE
  5
   1C5
  8
0
  6
CONTINUOUS
 62
     7
 10
-405.813995361328
 20
12.5101890563965
 30
0.0
 11
-376.730795183633
 21
12.5101890563965
 31
0.0
  0
LINE
  5
   1C6
  8
0
  6
CONTINUOUS
 62
     7
 10
-408.768418638535
 20
11.9892446264448
 30
0.0
 11
-405.813995361328
 21
12.5101890563965
 31
0.0
  0
LINE
  5
   1C7
  8
0
  6
CONTINUOUS
 62
     7
 10
-405.813995361328
 20
12.5101890563965
 30
0.0
 11
-408.768418638535
 21
13.0311334863481
 31
0.0
  0
LINE
  5
   1C8
  8
0
  6
CONTINUOUS
 62
     7
 10
-373.776371906426
 20
13.0311334863481
 30
0.0
 11
-376.730795183633
 21
12.5101890563965
 31
0.0
  0
LINE
  5
   1C9
  8
0
  6
CONTINUOUS
 62
     7
 10
-376.730795183633
 20
12.5101890563965
 30
0.0
 11
-373.776371906426
 21
11.9892446264448
 31
0.0
  0
ENDBLK
  5
   1CA
  8
0
  6
CONTINUOUS
 62
     7
  0
BLOCK
  5
   1CB
  8
0
  6
CONTINUOUS
 62
     7
  2
*UDIM512
 70
    65
 10
0.0
 20
0.0
 30
0.0
  3
*UDIM512
  0
TEXT
  5
   1CC
  8
0
  6
CONTINUOUS
 62
     7
 10
-443.3539161826
 20
58.8542487471313
 30
0.0
 40
3.00000002980232
  1
72,5
 50
449.999999844103
 41
0.933333333333333
 72
     1
 11
-444.853916183114
 21
64.154248803854
 31
0.0
 73
     2
  0
LINE
  5
   1CD
  8
0
  6
CONTINUOUS
 62
     7
 10
-414.108995361328
 20
73.4917488098145
 30
0.0
 11
-444.353916168213
 21
73.4917488098145
 31
0.0
  0
LINE
  5
   1CE
  8
0
  6
CONTINUOUS
 62
     7
 10
-434.274720124472
 20
55.3667488098145
 30
0.0
 11
-444.353916168213
 21
55.3667488098145
 31
0.0
  0
LINE
  5
   1CF
  8
0
  6
CONTINUOUS
 62
     7
 10
-442.353916168213
 20
73.4917488098145
 30
0.0
 11
-442.353916168213
 21
55.3667488098145
 31
0.0
  0
LINE
  5
   1D0
  8
0
  6
CONTINUOUS
 62
     7
 10
-441.832971738261
 20
70.5373255326075
 30
0.0
 11
-442.353916168213
 21
73.4917488098145
 31
0.0
  0
LINE
  5
   1D1
  8
0
  6
CONTINUOUS
 62
     7
 10
-442.353916168213
 20
73.4917488098145
 30
0.0
 11
-442.874860598165
 21
70.5373255326075
 31
0.0
  0
LINE
  5
   1D2
  8
0
  6
CONTINUOUS
 62
     7
 10
-442.874860598165
 20
58.3211720870214
 30
0.0
 11
-442.353916168213
 21
55.3667488098145
 31
0.0
  0
LINE
  5
   1D3
  8
0
  6
CONTINUOUS
 62
     7
 10
-442.353916168213
 20
55.3667488098145
 30
0.0
 11
-441.832971738261
 21
58.3211720870214
 31
0.0
  0
ENDBLK
  5
   1D4
  8
0
  6
CONTINUOUS
 62
     7
  0
BLOCK
  5
   1D5
  8
0
  6
CONTINUOUS
 62
     7
  2
*UDIM513
 70
    65
 10
0.0
 20
0.0
 30
0.0
  3
*UDIM513
  0
TEXT
  5
   1D6
  8
0
  6
CONTINUOUS
 62
     7
 10
-419.963995008767
 20
84.2243061133571
 30
0.0
 40
3.00000002980232
  1
45
 50
359.999999844103
 41
0.933333333333333
 72
     1
 11
-417.463994979858
 21
85.7243061214685
 31
0.0
 73
     2
  0
LINE
  5
   1D7
  8
0
  6
CONTINUOUS
 62
     7
 10
-411.438995361328
 20
76.1617488098145
 30
0.0
 11
-411.438995361328
 21
85.2243061065674
 31
0.0
  0
LINE
  5
   1D8
  8
0
  6
CONTINUOUS
 62
     7
 10
-400.188995361328
 20
76.1617488098145
 30
0.0
 11
-400.188995361328
 21
85.2243061065674
 31
0.0
  0
LINE
  5
   1D9
  8
0
  6
CONTINUOUS
 62
     7
 10
-419.963995004694
 20
83.2243061065674
 30
0.0
 11
-400.188995361328
 21
83.2243061065674
 31
0.0
  0
LINE
  5
   1DA
  8
0
  6
CONTINUOUS
 62
     7
 10
-414.393418638535
 20
82.7033616766157
 30
0.0
 11
-411.438995361328
 21
83.2243061065674
 31
0.0
  0
LINE
  5
   1DB
  8
0
  6
CONTINUOUS
 62
     7
 10
-411.438995361328
 20
83.2243061065674
 30
0.0
 11
-414.393418638535
 21
83.7452505365191
 31
0.0
  0
LINE
  5
   1DC
  8
0
  6
CONTINUOUS
 62
     7
 10
-397.234572084121
 20
83.7452505365191
 30
0.0
 11
-400.188995361328
 21
83.2243061065674
 31
0.0
  0
LINE
  5
   1DD
  8
0
  6
CONTINUOUS
 62
     7
 10
-400.188995361328
 20
83.2243061065674
 30
0.0
 11
-397.234572084121
 21
82.7033616766157
 31
0.0
  0
ENDBLK
  5
   1DE
  8
0
  6
CONTINUOUS
 62
     7
  0
BLOCK
  5
   1DF
  8
0
  6
CONTINUOUS
 62
     7
  2
*UDIM514
 70
    65
 10
0.0
 20
0.0
 30
0.0
  3
*UDIM514
  0
TEXT
  5
   1E0
  8
0
  6
CONTINUOUS
 62
     7
 10
-368.009460467407
 20
58.2667491206537
 30
0.0
 40
3.00000002980232
  1
27,25
 50
449.999999844103
 41
0.933333333333333
 72
     1
 11
-369.50946046412
 21
64.9667491912842
 31
0.0
 73
     2
  0
LINE
  5
   1E1
  8
0
  6
CONTINUOUS
 62
     7
 10
-376.821267061191
 20
55.3667488098145
 30
0.0
 11
-365.009460449219
 21
55.3667488098145
 31
0.0
  0
LINE
  5
   1E2
  8
0
  6
CONTINUOUS
 62
     7
 10
-379.558688961886
 20
48.5542488098145
 30
0.0
 11
-365.009460449219
 21
48.5542488098145
 31
0.0
  0
LINE
  5
   1E3
  8
0
  6
CONTINUOUS
 62
     7
 10
-367.009460449219
 20
71.6667492578427
 30
0.0
 11
-367.009460449219
 21
48.5542488098145
 31
0.0
  0
LINE
  5
   1E4
  8
0
  6
CONTINUOUS
 62
     7
 10
-367.53040487917
 20
58.3211720870214
 30
0.0
 11
-367.009460449219
 21
55.3667488098145
 31
0.0
  0
LINE
  5
   1E5
  8
0
  6
CONTINUOUS
 62
     7
 10
-367.009460449219
 20
55.3667488098145
 30
0.0
 11
-366.488516019267
 21
58.3211720870214
 31
0.0
  0
LINE
  5
   1E6
  8
0
  6
CONTINUOUS
 62
     7
 10
-366.488516019267
 20
45.5998255326075
 30
0.0
 11
-367.009460449219
 21
48.5542488098145
 31
0.0
  0
LINE
  5
   1E7
  8
0
  6
CONTINUOUS
 62
     7
 10
-367.009460449219
 20
48.5542488098145
 30
0.0
 11
-367.53040487917
 21
45.5998255326075
 31
0.0
  0
ENDBLK
  5
   1E8
  8
0
  6
CONTINUOUS
 62
     7
  0
BLOCK
  5
   1E9
  8
0
  6
CONTINUOUS
 62
     7
  2
*UDIM515
 70
    65
 10
0.0
 20
0.0
 30
0.0
  3
*UDIM515
  0
TEXT
  5
   1EA
  8
0
  6
CONTINUOUS
 62
     7
 10
-362.104862216121
 20
63.800014504692
 30
0.0
 40
3.00000002980232
  1
=
 50
449.999999844103
 41
0.933333333333334
 72
     1
 11
-363.604862228036
 21
64.9000145196915
 31
0.0
 73
     2
  0
LINE
  5
   1EB
  8
0
  6
CONTINUOUS
 62
     7
 10
-382.938995361328
 20
73.1167488098145
 30
0.0
 11
-359.104862213135
 21
73.1167488098145
 31
0.0
  0
LINE
  5
   1EC
  8
0
  6
CONTINUOUS
 62
     7
 10
-382.938995361328
 20
55.3667488098145
 30
0.0
 11
-359.104862213135
 21
55.3667488098145
 31
0.0
  0
LINE
  5
   1ED
  8
0
  6
CONTINUOUS
 62
     7
 10
-361.104862213135
 20
73.1167488098145
 30
0.0
 11
-361.104862213135
 21
55.3667488098145
 31
0.0
  0
LINE
  5
   1EE
  8
0
  6
CONTINUOUS
 62
     7
 10
-360.583917783183
 20
70.1623255326075
 30
0.0
 11
-361.104862213135
 21
73.1167488098145
 31
0.0
  0
LINE
  5
   1EF
  8
0
  6
CONTINUOUS
 62
     7
 10
-361.104862213135
 20
73.1167488098145
 30
0.0
 11
-361.625806643086
 21
70.1623255326075
 31
0.0
  0
LINE
  5
   1F0
  8
0
  6
CONTINUOUS
 62
     7
 10
-361.625806643086
 20
58.3211720870214
 30
0.0
 11
-361.104862213135
 21
55.3667488098145
 31
0.0
  0
LINE
  5
   1F1
  8
0
  6
CONTINUOUS
 62
     7
 10
-361.104862213135
 20
55.3667488098145
 30
0.0
 11
-360.583917783183
 21
58.3211720870214
 31
0.0
  0
ENDBLK
  5
   1F2
  8
0
  6
CONTINUOUS
 62
     7
  0
BLOCK
  5
   1F3
  8
0
  6
CONTINUOUS
 62
     7
  2
*UDIM516
 70
    65
 10
0.0
 20
0.0
 30
0.0
  3
*UDIM516
  0
TEXT
  5
   1F4
  8
0
  6
CONTINUOUS
 62
     7
 10
-362.104862216121
 20
46.050014504692
 30
0.0
 40
3.00000002980232
  1
=
 50
449.999999844103
 41
0.933333333333334
 72
     1
 11
-363.604862228036
 21
47.1500145196915
 31
0.0
 73
     2
  0
LINE
  5
   1F5
  8
0
  6
CONTINUOUS
 62
     7
 10
-382.938995361328
 20
37.6167488098145
 30
0.0
 11
-359.104862213135
 21
37.6167488098145
 31
0.0
  0
LINE
  5
   1F6
  8
0
  6
CONTINUOUS
 62
     7
 10
-361.104862213135
 20
55.3667488098145
 30
0.0
 11
-361.104862213135
 21
37.6167488098145
 31
0.0
  0
LINE
  5
   1F7
  8
0
  6
CONTINUOUS
 62
     7
 10
-360.583917783183
 20
52.4123255326075
 30
0.0
 11
-361.104862213135
 21
55.3667488098145
 31
0.0
  0
LINE
  5
   1F8
  8
0
  6
CONTINUOUS
 62
     7
 10
-361.104862213135
 20
55.3667488098145
 30
0.0
 11
-361.625806643086
 21
52.4123255326075
 31
0.0
  0
LINE
  5
   1F9
  8
0
  6
CONTINUOUS
 62
     7
 10
-361.625806643086
 20
40.5711720870214
 30
0.0
 11
-361.104862213135
 21
37.6167488098145
 31
0.0
  0
LINE
  5
   1FA
  8
0
  6
CONTINUOUS
 62
     7
 10
-361.104862213135
 20
37.6167488098145
 30
0.0
 11
-360.583917783183
 21
40.5711720870214
 31
0.0
  0
ENDBLK
  5
   1FB
  8
0
  6
CONTINUOUS
 62
     7
  0
BLOCK
  5
   1FC
  8
0
  6
CONTINUOUS
 62
     7
  2
*UDIM517
 70
    65
 10
0.0
 20
0.0
 30
0.0
  3
*UDIM517
  0
TEXT
  5
   1FD
  8
0
  6
CONTINUOUS
 62
     7
 10
-435.95733452902
 20
51.191748761039
 30
0.0
 40
3.00000002980232
  1
126
 50
449.999999844103
 41
0.933333333333333
 72
     1
 11
-437.457334533334
 21
55.091748803854
 31
0.0
 73
     2
  0
LINE
  5
   1FE
  8
0
  6
CONTINUOUS
 62
     7
 10
-424.813995361328
 20
71.1167488098145
 30
0.0
 11
-436.957334518433
 21
71.1167488098145
 31
0.0
  0
LINE
  5
   1FF
  8
0
  6
CONTINUOUS
 62
     7
 10
-424.813995361328
 20
39.6167488098145
 30
0.0
 11
-436.957334518433
 21
39.6167488098145
 31
0.0
  0
LINE
  5
   200
  8
0
  6
CONTINUOUS
 62
     7
 10
-434.957334518433
 20
71.1167488098145
 30
0.0
 11
-434.957334518433
 21
39.6167488098145
 31
0.0
  0
LINE
  5
   201
  8
0
  6
CONTINUOUS
 62
     7
 10
-434.436390088481
 20
68.1623255326075
 30
0.0
 11
-434.957334518433
 21
71.1167488098145
 31
0.0
  0
LINE
  5
   202
  8
0
  6
CONTINUOUS
 62
     7
 10
-434.957334518433
 20
71.1167488098145
 30
0.0
 11
-435.478278948384
 21
68.1623255326075
 31
0.0
  0
LINE
  5
   203
  8
0
  6
CONTINUOUS
 62
     7
 10
-435.478278948384
 20
42.5711720870214
 30
0.0
 11
-434.957334518433
 21
39.6167488098145
 31
0.0
  0
LINE
  5
   204
  8
0
  6
CONTINUOUS
 62
     7
 10
-434.957334518433
 20
39.6167488098145
 30
0.0
 11
-434.436390088481
 21
42.5711720870214
 31
0.0
  0
ENDBLK
  5
   205
  8
0
  6
CONTINUOUS
 62
     7
  0
BLOCK
  5
   206
  8
0
  6
CONTINUOUS
 62
     7
  2
*UDIM518
 70
    65
 10
0.0
 20
0.0
 30
0.0
  3
*UDIM518
  0
TEXT
  5
   207
  8
0
  6
CONTINUOUS
 62
     7
 10
-355.407848368741
 20
51.191748761039
 30
0.0
 40
3.00000002980232
  1
142
 50
449.999999844103
 41
0.933333333333333
 72
     1
 11
-356.907848373056
 21
55.091748803854
 31
0.0
 73
     2
  0
LINE
  5
   208
  8
0
  6
CONTINUOUS
 62
     7
 10
-414.188995361328
 20
73.1167488098145
 30
0.0
 11
-352.407848358154
 21
73.1167488098145
 31
0.0
  0
LINE
  5
   209
  8
0
  6
CONTINUOUS
 62
     7
 10
-382.938995361328
 20
37.6167488098145
 30
0.0
 11
-352.407848358154
 21
37.6167488098145
 31
0.0
  0
LINE
  5
   20A
  8
0
  6
CONTINUOUS
 62
     7
 10
-354.407848358154
 20
73.1167488098145
 30
0.0
 11
-354.407848358154
 21
37.6167488098145
 31
0.0
  0
LINE
  5
   20B
  8
0
  6
CONTINUOUS
 62
     7
 10
-353.886903928203
 20
70.1623255326075
 30
0.0
 11
-354.407848358154
 21
73.1167488098145
 31
0.0
  0
LINE
  5
   20C
  8
0
  6
CONTINUOUS
 62
     7
 10
-354.407848358154
 20
73.1167488098145
 30
0.0
 11
-354.928792788106
 21
70.1623255326075
 31
0.0
  0
LINE
  5
   20D
  8
0
  6
CONTINUOUS
 62
     7
 10
-354.928792788106
 20
40.5711720870214
 30
0.0
 11
-354.407848358154
 21
37.6167488098145
 31
0.0
  0
LINE
  5
   20E
  8
0
  6
CONTINUOUS
 62
     7
 10
-354.407848358154
 20
37.6167488098145
 30
0.0
 11
-353.886903928203
 21
40.5711720870214
 31
0.0
  0
ENDBLK
  5
   20F
  8
0
  6
CONTINUOUS
 62
     7
  0
BLOCK
  5
   210
  8
0
  6
CONTINUOUS
 62
     7
  2
*UDIM519
 70
    65
 10
0.0
 20
0.0
 30
0.0
  3
*UDIM519
  0
TEXT
  5
   211
  8
0
  6
CONTINUOUS
 62
     7
 10
-398.796525961987
 20
45.8645110735308
 30
0.0
 40
3.00000002980232
  1
16
 50
449.999999844103
 41
0.933333333333333
 72
     1
 11
-400.296525970101
 21
48.364511102438
 31
0.0
 73
     2
  0
LINE
  5
   212
  8
0
  6
CONTINUOUS
 62
     7
 10
-391.063995361328
 20
50.5542488098145
 30
0.0
 11
-399.7965259552
 21
50.5542488098145
 31
0.0
  0
LINE
  5
   213
  8
0
  6
CONTINUOUS
 62
     7
 10
-391.063995361328
 20
46.5542488098145
 30
0.0
 11
-399.7965259552
 21
46.5542488098145
 31
0.0
  0
LINE
  5
   214
  8
0
  6
CONTINUOUS
 62
     7
 10
-397.7965259552
 20
50.8645111272732
 30
0.0
 11
-397.7965259552
 21
45.8645110776027
 31
0.0
  0
LINE
  5
   215
  8
0
  6
CONTINUOUS
 62
     7
 10
-398.317470385152
 20
53.5086720870214
 30
0.0
 11
-397.7965259552
 21
50.5542488098145
 31
0.0
  0
LINE
  5
   216
  8
0
  6
CONTINUOUS
 62
     7
 10
-397.7965259552
 20
50.5542488098145
 30
0.0
 11
-397.275581525249
 21
53.5086720870214
 31
0.0
  0
LINE
  5
   217
  8
0
  6
CONTINUOUS
 62
     7
 10
-397.275581525249
 20
43.5998255326075
 30
0.0
 11
-397.7965259552
 21
46.5542488098145
 31
0.0
  0
LINE
  5
   218
  8
0
  6
CONTINUOUS
 62
     7
 10
-397.7965259552
 20
46.5542488098145
 30
0.0
 11
-398.317470385152
 21
43.5998255326075
 31
0.0
  0
ENDBLK
  5
   219
  8
0
  6
CONTINUOUS
 62
     7
  0
BLOCK
  5
   21A
  8
0
  6
CONTINUOUS
 62
     7
  2
*UDIM520
 70
    65
 10
0.0
 20
0.0
 30
0.0
  3
*UDIM520
  0
TEXT
  5
   21B
  8
0
  6
CONTINUOUS
 62
     7
 10
-396.838995396198
 20
59.9153301783748
 30
0.0
 40
3.00000002980232
  1
94
 50
359.999999844103
 41
0.933333333333333
 72
     1
 11
-394.338995367289
 21
61.4153301864862
 31
0.0
 73
     2
  0
LINE
  5
   21C
  8
0
  6
CONTINUOUS
 62
     7
 10
-382.313995361328
 20
49.4292488098145
 30
0.0
 11
-382.313995361328
 21
60.9153301715851
 31
0.0
  0
LINE
  5
   21D
  8
0
  6
CONTINUOUS
 62
     7
 10
-405.813995361328
 20
58.9153301715851
 30
0.0
 11
-382.313995361328
 21
58.9153301715851
 31
0.0
  0
LINE
  5
   21E
  8
0
  6
CONTINUOUS
 62
     7
 10
-402.859572084121
 20
59.4362746015367
 30
0.0
 11
-405.813995361328
 21
58.9153301715851
 31
0.0
  0
LINE
  5
   21F
  8
0
  6
CONTINUOUS
 62
     7
 10
-405.813995361328
 20
58.9153301715851
 30
0.0
 11
-402.859572084121
 21
58.3943857416334
 31
0.0
  0
LINE
  5
   220
  8
0
  6
CONTINUOUS
 62
     7
 10
-385.268418638535
 20
58.3943857416334
 30
0.0
 11
-382.313995361328
 21
58.9153301715851
 31
0.0
  0
LINE
  5
   221
  8
0
  6
CONTINUOUS
 62
     7
 10
-382.313995361328
 20
58.9153301715851
 30
0.0
 11
-385.268418638535
 21
59.4362746015367
 31
0.0
  0
ENDBLK
  5
   222
  8
0
  6
CONTINUOUS
 62
     7
  0
BLOCK
  5
   223
  8
0
  6
CONTINUOUS
 62
     7
  2
*UDIM521
 70
    65
 10
0.0
 20
0.0
 30
0.0
  3
*UDIM521
  0
TEXT
  5
   224
  8
0
  6
CONTINUOUS
 62
     7
 10
-405.363995439908
 20
24.3085670577111
 30
0.0
 40
3.00000002980232
  1
125
 50
359.999999844103
 41
0.933333333333333
 72
     1
 11
-401.463995397091
 21
25.8085670620203
 31
0.0
 73
     2
  0
LINE
  5
   225
  8
0
  6
CONTINUOUS
 62
     7
 10
-416.813995361328
 20
34.9917488098145
 30
0.0
 11
-416.813995361328
 21
21.3085670471191
 31
0.0
  0
LINE
  5
   226
  8
0
  6
CONTINUOUS
 62
     7
 10
-385.563995361328
 20
34.9917488098145
 30
0.0
 11
-385.563995361328
 21
21.3085670471191
 31
0.0
  0
LINE
  5
   227
  8
0
  6
CONTINUOUS
 62
     7
 10
-416.813995361328
 20
23.3085670471191
 30
0.0
 11
-385.563995361328
 21
23.3085670471191
 31
0.0
  0
LINE
  5
   228
  8
0
  6
CONTINUOUS
 62
     7
 10
-413.859572084121
 20
23.8295114770708
 30
0.0
 11
-416.813995361328
 21
23.3085670471191
 31
0.0
  0
LINE
  5
   229
  8
0
  6
CONTINUOUS
 62
     7
 10
-416.813995361328
 20
23.3085670471191
 30
0.0
 11
-413.859572084121
 21
22.7876226171675
 31
0.0
  0
LINE
  5
   22A
  8
0
  6
CONTINUOUS
 62
     7
 10
-388.518418638535
 20
22.7876226171675
 30
0.0
 11
-385.563995361328
 21
23.3085670471191
 31
0.0
  0
LINE
  5
   22B
  8
0
  6
CONTINUOUS
 62
     7
 10
-385.563995361328
 20
23.3085670471191
 30
0.0
 11
-388.518418638535
 21
23.8295114770708
 31
0.0
  0
ENDBLK
  5
   22C
  8
0
  6
CONTINUOUS
 62
     7
  0
BLOCK
  5
   22D
  8
0
  6
CONTINUOUS
 62
     7
  2
*UDIM522
 70
    65
 10
0.0
 20
0.0
 30
0.0
  3
*UDIM522
  0
TEXT
  5
   22E
  8
0
  6
CONTINUOUS
 62
     7
 10
-398.463995396198
 20
31.4118213721462
 30
0.0
 40
3.00000002980232
  1
81
 50
359.999999844103
 41
0.933333333333333
 72
     1
 11
-395.963995367289
 21
32.9118213802576
 31
0.0
 73
     2
  0
LINE
  5
   22F
  8
0
  6
CONTINUOUS
 62
     7
 10
-405.813995361328
 20
31.221567492263
 30
0.0
 11
-405.813995361328
 21
28.4118213653564
 31
0.0
  0
LINE
  5
   230
  8
0
  6
CONTINUOUS
 62
     7
 10
-385.563995361328
 20
34.9917488098145
 30
0.0
 11
-385.563995361328
 21
28.4118213653564
 31
0.0
  0
LINE
  5
   231
  8
0
  6
CONTINUOUS
 62
     7
 10
-405.813995361328
 20
30.4118213653564
 30
0.0
 11
-385.563995361328
 21
30.4118213653564
 31
0.0
  0
LINE
  5
   232
  8
0
  6
CONTINUOUS
 62
     7
 10
-402.859572084121
 20
30.9327657953081
 30
0.0
 11
-405.813995361328
 21
30.4118213653564
 31
0.0
  0
LINE
  5
   233
  8
0
  6
CONTINUOUS
 62
     7
 10
-405.813995361328
 20
30.4118213653564
 30
0.0
 11
-402.859572084121
 21
29.8908769354048
 31
0.0
  0
LINE
  5
   234
  8
0
  6
CONTINUOUS
 62
     7
 10
-388.518418638535
 20
29.8908769354048
 30
0.0
 11
-385.563995361328
 21
30.4118213653564
 31
0.0
  0
LINE
  5
   235
  8
0
  6
CONTINUOUS
 62
     7
 10
-385.563995361328
 20
30.4118213653564
 30
0.0
 11
-388.518418638535
 21
30.9327657953081
 31
0.0
  0
ENDBLK
  5
   236
  8
0
  6
CONTINUOUS
 62
     7
  0
BLOCK
  5
   237
  8
0
  6
CONTINUOUS
 62
     7
  2
*UDIM523
 70
    65
 10
0.0
 20
0.0
 30
0.0
  3
*UDIM523
  0
TEXT
  5
   238
  8
0
  6
CONTINUOUS
 62
     7
 10
-411.113995410105
 20
99.9000129805627
 30
0.0
 40
3.00000002980232
  1
135
 50
359.999999844103
 41
0.933333333333333
 72
     1
 11
-407.213995367289
 21
101.400012984872
 31
0.0
 73
     2
  0
LINE
  5
   239
  8
0
  6
CONTINUOUS
 62
     7
 10
-423.813995361328
 20
72.1167488098145
 30
0.0
 11
-423.813995361328
 21
100.900012969971
 31
0.0
  0
LINE
  5
   23A
  8
0
  6
CONTINUOUS
 62
     7
 10
-390.063995361328
 20
72.1167488098145
 30
0.0
 11
-390.063995361328
 21
100.900012969971
 31
0.0
  0
LINE
  5
   23B
  8
0
  6
CONTINUOUS
 62
     7
 10
-423.813995361328
 20
98.9000129699707
 30
0.0
 11
-390.063995361328
 21
98.9000129699707
 31
0.0
  0
LINE
  5
   23C
  8
0
  6
CONTINUOUS
 62
     7
 10
-420.859572084121
 20
99.4209573999224
 30
0.0
 11
-423.813995361328
 21
98.9000129699707
 31
0.0
  0
LINE
  5
   23D
  8
0
  6
CONTINUOUS
 62
     7
 10
-423.813995361328
 20
98.9000129699707
 30
0.0
 11
-420.859572084121
 21
98.379068540019
 31
0.0
  0
LINE
  5
   23E
  8
0
  6
CONTINUOUS
 62
     7
 10
-393.018418638535
 20
98.379068540019
 30
0.0
 11
-390.063995361328
 21
98.9000129699707
 31
0.0
  0
LINE
  5
   23F
  8
0
  6
CONTINUOUS
 62
     7
 10
-390.063995361328
 20
98.9000129699707
 30
0.0
 11
-393.018418638535
 21
99.4209573999224
 31
0.0
  0
ENDBLK
  5
   240
  8
0
  6
CONTINUOUS
 62
     7
  0
BLOCK
  5
   241
  8
0
  6
CONTINUOUS
 62
     7
  2
*UDIM524
 70
    65
 10
0.0
 20
0.0
 30
0.0
  3
*UDIM524
  0
TEXT
  5
   242
  8
0
  6
CONTINUOUS
 62
     7
 10
-400.713995873035
 20
91.6629142829128
 30
0.0
 40
3.00000002980232
  1
63
 50
359.999999844103
 41
0.933333333333333
 72
     1
 11
-398.213995844126
 21
93.1629142910242
 31
0.0
 73
     2
  0
LINE
  5
   243
  8
0
  6
CONTINUOUS
 62
     7
 10
-405.813995361328
 20
81.9942399706696
 30
0.0
 11
-405.813995361328
 21
92.6629142761231
 31
0.0
  0
LINE
  5
   244
  8
0
  6
CONTINUOUS
 62
     7
 10
-390.063995361328
 20
72.1167488098145
 30
0.0
 11
-390.063995361328
 21
92.6629142761231
 31
0.0
  0
LINE
  5
   245
  8
0
  6
CONTINUOUS
 62
     7
 10
-405.813995361328
 20
90.662914276123
 30
0.0
 11
-390.063995361328
 21
90.662914276123
 31
0.0
  0
LINE
  5
   246
  8
0
  6
CONTINUOUS
 62
     7
 10
-402.859572084121
 20
91.1838587060747
 30
0.0
 11
-405.813995361328
 21
90.662914276123
 31
0.0
  0
LINE
  5
   247
  8
0
  6
CONTINUOUS
 62
     7
 10
-405.813995361328
 20
90.662914276123
 30
0.0
 11
-402.859572084121
 21
90.1419698461714
 31
0.0
  0
LINE
  5
   248
  8
0
  6
CONTINUOUS
 62
     7
 10
-393.018418638535
 20
90.1419698461714
 30
0.0
 11
-390.063995361328
 21
90.662914276123
 31
0.0
  0
LINE
  5
   249
  8
0
  6
CONTINUOUS
 62
     7
 10
-390.063995361328
 20
90.662914276123
 30
0.0
 11
-393.018418638535
 21
91.1838587060747
 31
0.0
  0
ENDBLK
  5
   24A
  8
0
  6
CONTINUOUS
 62
     7
  0
BLOCK
  5
   24B
  8
0
  6
CONTINUOUS
 62
     7
  2
*HATCH88
 70
    65
 10
0.0
 20
0.0
 30
0.0
  3
*HATCH88
  0
LINE
  5
   24C
  8
0
  6
CONTINUOUS
 62
    52
 10
-11.7279224395752
 20
1.0
 30
0.0
 11
-11.9763488769531
 21
0.75157368183136
 31
0.0
  0
LINE
  5
   24D
  8
0
  6
CONTINUOUS
 62
    52
 10
-9.60660171508789
 20
1.0
 30
0.0
 11
-11.6066026687622
 21
-1.0
 31
0.0
  0
LINE
  5
   24E
  8
0
  6
CONTINUOUS
 62
    52
 10
-7.48528146743774
 20
1.0
 30
0.0
 11
-9.48528289794922
 21
-1.0
 31
0.0
  0
LINE
  5
   24F
  8
0
  6
CONTINUOUS
 62
    52
 10
-5.3639612197876
 20
1.0
 30
0.0
 11
-7.36396265029907
 21
-1.0
 31
0.0
  0
LINE
  5
   250
  8
0
  6
CONTINUOUS
 62
    52
 10
-3.47947335243225
 20
0.763167560100555
 30
0.0
 11
-5.24264097213745
 21
-1.0
 31
0.0
  0
LINE
  5
   251
  8
0
  6
CONTINUOUS
 62
    52
 10
-2.51160907745361
 20
-0.390288293361664
 30
0.0
 11
-3.1213207244873
 21
-1.0
 31
0.0
  0
ENDBLK
  5
   252
  8
0
  6
CONTINUOUS
 62
     7
  0
BLOCK
  5
   253
  8
0
  6
CONTINUOUS
 62
     7
  2
*HATCH89
 70
    65
 10
0.0
 20
0.0
 30
0.0
  3
*HATCH89
  0
LINE
  5
   254
  8
0
  6
CONTINUOUS
 62
    52
 10
5.24264097213745
 20
1.0
 30
0.0
 11
3.24264073371887
 21
-1.0
 31
0.0
  0
LINE
  5
   255
  8
0
  6
CONTINUOUS
 62
    52
 10
7.3639612197876
 20
1.0
 30
0.0
 11
5.3639612197876
 21
-1.0
 31
0.0
  0
LINE
  5
   256
  8
0
  6
CONTINUOUS
 62
    52
 10
9.48528099060059
 20
1.0
 30
0.0
 11
7.4852819442749
 21
-1.0
 31
0.0
  0
ENDBLK
  5
   257
  8
0
  6
CONTINUOUS
 62
     7
  0
BLOCK
  5
   258
  8
0
  6
CONTINUOUS
 62
     7
  2
*UDIM525
 70
    65
 10
0.0
 20
0.0
 30
0.0
  3
*UDIM525
  0
TEXT
  5
   259
  8
0
  6
CONTINUOUS
 62
     7
 10
-549.454790350034
 20
-119.456768108676
 30
0.0
 40
3.00000002980232
  1
80
 50
449.241125536518
 41
0.933333333333333
 72
     1
 11
-550.921547619968
 21
-116.937120657152
 31
0.0
 73
     2
  0
TEXT
  5
   25A
  8
0
  6
CONTINUOUS
 62
     7
 10
-549.988515384295
 20
-114.44925993723
 30
0.0
 40
3.00000002980232
  1
°
 50
449.241125536518
 41
0.933333333333334
 72
     1
 11
-551.473814913457
 21
-113.329489703023
 31
0.0
 73
     2
  0
LINE
  5
   25B
  8
0
  6
CONTINUOUS
 62
     7
 10
-566.517219717037
 20
-119.883227472627
 30
0.0
 11
-552.315252550807
 21
-131.800092883803
 31
0.0
  0
LINE
  5
   25C
  8
0
  6
CONTINUOUS
 62
     7
 10
-566.517219717037
 20
-111.241253728545
 30
0.0
 11
-552.315252550807
 21
-99.324388317369
 31
0.0
  0
ARC
  5
   25D
  8
0
  6
CONTINUOUS
 62
     7
 10
-571.666771345345
 20
-115.562240600586
 30
0.0
 40
23.2616136940404
 50
319.999999815233
 51
399.999999769042
  0
LINE
  5
   25E
  8
0
  6
CONTINUOUS
 62
     7
 10
-552.347341346425
 20
-127.916441505396
 30
0.0
 11
-553.847341437045
 21
-130.51451766443
 31
0.0
  0
LINE
  5
   25F
  8
0
  6
CONTINUOUS
 62
     7
 10
-553.847341437045
 20
-130.51451766443
 30
0.0
 11
-551.549208174948
 21
-128.586154755212
 31
0.0
  0
LINE
  5
   260
  8
0
  6
CONTINUOUS
 62
     7
 10
-551.549208174948
 20
-102.53832644596
 30
0.0
 11
-553.847341437045
 21
-100.609963536742
 31
0.0
  0
LINE
  5
   261
  8
0
  6
CONTINUOUS
 62
     7
 10
-553.847341437045
 20
-100.609963536742
 30
0.0
 11
-552.347341346425
 21
-103.208039695776
 31
0.0
  0
ENDBLK
  5
   262
  8
0
  6
CONTINUOUS
 62
     7
  0
BLOCK
  5
   263
  8
0
  6
CONTINUOUS
 62
     7
  2
*UDIM526
 70
    65
 10
0.0
 20
0.0
 30
0.0
  3
*UDIM526
  0
TEXT
  5
   264
  8
0
  6
CONTINUOUS
 62
     7
 10
-589.728931433789
 20
-109.677173643409
 30
0.0
 40
3.00000002980232
  1
Ø4
 50
449.999999844103
 41
0.933333333333333
 72
     1
 11
-591.228931441903
 21
-107.177173614502
 31
0.0
 73
     2
  0
LINE
  5
   265
  8
0
  6
CONTINUOUS
 62
     7
 10
-570.283264160156
 20
-113.562240600586
 30
0.0
 11
-590.728931427002
 21
-113.562240600586
 31
0.0
  0
LINE
  5
   266
  8
0
  6
CONTINUOUS
 62
     7
 10
-570.283264160156
 20
-117.562240600586
 30
0.0
 11
-590.728931427002
 21
-117.562240600586
 31
0.0
  0
LINE
  5
   267
  8
0
  6
CONTINUOUS
 62
     7
 10
-588.728931427002
 20
-104.677173589667
 30
0.0
 11
-588.728931427002
 21
-117.562240600586
 31
0.0
  0
LINE
  5
   268
  8
0
  6
CONTINUOUS
 62
     7
 10
-589.249875856954
 20
-110.607817323379
 30
0.0
 11
-588.728931427002
 21
-113.562240600586
 31
0.0
  0
LINE
  5
   269
  8
0
  6
CONTINUOUS
 62
     7
 10
-588.728931427002
 20
-113.562240600586
 30
0.0
 11
-588.20798699705
 21
-110.607817323379
 31
0.0
  0
LINE
  5
   26A
  8
0
  6
CONTINUOUS
 62
     7
 10
-588.20798699705
 20
-120.516663877793
 30
0.0
 11
-588.728931427002
 21
-117.562240600586
 31
0.0
  0
LINE
  5
   26B
  8
0
  6
CONTINUOUS
 62
     7
 10
-588.728931427002
 20
-117.562240600586
 30
0.0
 11
-589.249875856954
 21
-120.516663877793
 31
0.0
  0
ENDBLK
  5
   26C
  8
0
  6
CONTINUOUS
 62
     7
  0
ENDSEC
  0
SECTION
  2
ENTITIES
  0
LINE
  5
   26D
  8
0
  6
DASHDOT
 62
     3
 10
-667.834228515625
 20
-93.9364549840124
 30
0.0
 11
-667.834228515625
 21
-153.405873206348
 31
0.0
  0
LINE
  5
   26E
  8
0
  6
CONTINUOUS
 62
     7
 10
-654.084228515625
 20
-96.632259675286
 30
0.0
 11
-654.084228515625
 21
-152.971672498058
 31
0.0
  0
LINE
  5
   26F
  8
0
  6
CONTINUOUS
 62
     7
 10
-681.584228515625
 20
-96.9965576065392
 30
0.0
 11
-681.584228515625
 21
-152.407195861865
 31
0.0
  0
LINE
  5
   270
  8
0
  6
CONTINUOUS
 62
     7
 10
-653.06930774094
 20
-151.374114990234
 30
0.0
 11
-683.746441854048
 21
-151.374114990234
 31
0.0
  0
LINE
  5
   271
  8
0
  6
DASHDOT
 62
     3
 10
-678.084228515625
 20
-98.2041914588452
 30
0.0
 11
-678.084228515625
 21
-140.833503900692
 31
0.0
  0
LINE
  5
   272
  8
0
  6
DASHDOT
 62
     3
 10
-657.584228515625
 20
-98.2041914588452
 30
0.0
 11
-657.584228515625
 21
-141.240790325295
 31
0.0
  0
LINE
  5
   273
  8
0
  6
DASHDOT
 62
     3
 10
-654.862187527918
 20
-102.749114990234
 30
0.0
 11
-681.200042985619
 21
-102.749114990234
 31
0.0
  0
LINE
  5
   274
  8
0
  6
DASHDOT
 62
     3
 10
-654.997949669452
 20
-136.499114990234
 30
0.0
 11
-681.335805127153
 21
-136.499114990234
 31
0.0
  0
CIRCLE
  5
   275
  8
0
  6
CONTINUOUS
 62
     7
 10
-678.084228515625
 20
-102.749114990234
 30
0.0
 40
0.625
  0
CIRCLE
  5
   276
  8
0
  6
CONTINUOUS
 62
     7
 10
-657.584228515625
 20
-102.749114990234
 30
0.0
 40
0.625
  0
CIRCLE
  5
   277
  8
0
  6
CONTINUOUS
 62
     7
 10
-657.584228515625
 20
-136.499114990234
 30
0.0
 40
0.625
  0
CIRCLE
  5
   278
  8
0
  6
CONTINUOUS
 62
     7
 10
-678.084228515625
 20
-136.499114990234
 30
0.0
 40
0.625
  0
LINE
  5
   279
  8
0
  6
CONTINUOUS
 62
     7
 10
-651.762116961448
 20
-97.9437322277975
 30
0.0
 11
-683.310317807974
 21
-97.9437322277975
 31
0.0
  0
LINE
  5
   27A
  8
0
  6
DASHDOT
 62
     7
 10
-647.96522312178
 20
-119.186614990234
 30
0.0
 11
-691.680397750585
 21
-119.186614990234
 31
0.0
  0
INSERT
  5
   27B
  8
0
  6
CONTINUOUS
 62
     7
  2
*UDIM478
 10
0.0
 20
0.0
 30
0.0
  0
TEXT
  5
   27C
  8
0
  6
CONTINUOUS
 62
     7
 10
-674.057150366636
 20
-116.09852601884
 30
0.0
 40
3.00000002980232
  1
=   =
 50
359.999999896069
 41
0.916666604744064
 72
     2
 11
-660.857151131562
 21
-116.098526042718
 31
0.0
  0
INSERT
  5
   27D
  8
0
  6
CONTINUOUS
 62
     7
  2
*UDIM479
 10
0.0
 20
0.0
 30
0.0
  0
INSERT
  5
   27E
  8
0
  6
CONTINUOUS
 62
     7
  2
*UDIM480
 10
0.0
 20
0.0
 30
0.0
  0
INSERT
  5
   27F
  8
0
  6
CONTINUOUS
 62
     7
  2
*UDIM481
 10
0.0
 20
0.0
 30
0.0
  0
TEXT
  5
   280
  8
0
  6
CONTINUOUS
 62
     7
 10
-669.084033086633
 20
-92.6249817959485
 30
0.0
 40
3.00000002980232
  1
Y
 50
359.999999896069
 41
0.916666604744064
 72
     2
 11
-666.884033217763
 21
-92.6249817999281
 31
0.0
  0
TEXT
  5
   281
  8
0
  6
CONTINUOUS
 62
     7
 10
-705.804450991483
 20
-121.06095173756
 30
0.0
 40
3.00000002980232
  1
X
 50
359.999999896069
 41
0.916666604744064
 72
     2
 11
-703.604451122613
 21
-121.060951741539
 31
0.0
  0
TEXT
  5
   282
  8
0
  6
CONTINUOUS
 62
     7
 10
-645.839668276639
 20
-121.234636811412
 30
0.0
 40
3.00000002980232
  1
X
 50
359.999999896069
 41
0.916666604744064
 72
     2
 11
-643.639668407769
 21
-121.234636815392
 31
0.0
  0
TEXT
  5
   283
  8
0
  6
CONTINUOUS
 62
     7
 10
-668.831232073636
 20
-158.989437131084
 30
0.0
 40
3.00000002980232
  1
Y
 50
359.999999896069
 41
0.916666604744064
 72
     2
 11
-666.631232204767
 21
-158.989437135064
 31
0.0
  0
LINE
  5
   284
  8
0
  6
CONTINUOUS
 62
     7
 10
-533.24110812294
 20
42.6571350097656
 30
0.0
 11
-533.24110812294
 21
43.6571350097656
 31
0.0
  0
LINE
  5
   285
  8
0
  6
CONTINUOUS
 62
     7
 10
-533.24110812294
 20
57.6540069580119
 30
0.0
 11
-533.24110812294
 21
67.7821350097656
 31
0.0
  0
LINE
  5
   286
  8
0
  6
CONTINUOUS
 62
     7
 10
-480.741138640519
 20
57.6540069580119
 30
0.0
 11
-480.741138640519
 21
67.7821350097656
 31
0.0
  0
LINE
  5
   287
  8
0
  6
CONTINUOUS
 62
     7
 10
-480.991108122941
 20
43.6571502685547
 30
0.0
 11
-532.991108122927
 21
43.6571502685547
 31
0.0
  0
LINE
  5
   288
  8
0
  6
CONTINUOUS
 62
     7
 10
-501.61610812294
 20
2.28214263916016
 30
0.0
 11
-501.61610812294
 21
22.2821350097656
 31
0.0
  0
LINE
  5
   289
  8
0
  6
CONTINUOUS
 62
     7
 10
-512.36610812294
 20
2.28214263916016
 30
0.0
 11
-512.36610812294
 21
22.2821350097656
 31
0.0
  0
LINE
  5
   28A
  8
0
  6
CONTINUOUS
 62
     7
 10
-480.74110812294
 20
42.6571350097656
 30
0.0
 11
-533.24110812294
 21
42.6571350097656
 31
0.0
  0
LINE
  5
   28B
  8
0
  6
CONTINUOUS
 62
     7
 10
-501.61610812294
 20
22.14990234375
 30
0.0
 11
-512.36610812294
 21
22.14990234375
 31
0.0
  0
LINE
  5
   28C
  8
0
  6
CONTINUOUS
 62
     7
 10
-501.61610812294
 20
22.2821350097656
 30
0.0
 11
-512.36610812294
 21
22.2821350097656
 31
0.0
  0
LINE
  5
   28D
  8
0
  6
CONTINUOUS
 62
     7
 10
-501.61610812294
 20
2.28214263916015
 30
0.0
 11
-512.36610812294
 21
2.28214263916015
 31
0.0
  0
LINE
  5
   28E
  8
0
  6
CONTINUOUS
 62
     7
 10
-501.61610812294
 20
2.41439056396484
 30
0.0
 11
-512.36610812294
 21
2.41439056396484
 31
0.0
  0
ARC
  5
   28F
  8
0
  6
CONTINUOUS
 62
     7
 10
-480.991108122941
 20
43.4071502685547
 30
0.0
 40
0.25
 50
359.999999948034
 51
449.999999948034
  0
ARC
  5
   290
  8
0
  6
CONTINUOUS
 62
     7
 10
-532.991108122927
 20
43.4071502685547
 30
0.0
 40
0.25
 50
449.999999948034
 51
539.999999948034
  0
LINE
  5
   291
  8
0
  6
CONTINUOUS
 62
     7
 10
-501.61610812294
 20
6.87178581688054
 30
0.0
 11
-512.36610812294
 21
6.87178581688054
 31
0.0
  0
LINE
  5
   292
  8
0
  6
CONTINUOUS
 62
     7
 10
-501.61610812294
 20
2.91130963983256
 30
0.0
 11
-512.36610812294
 21
2.91130963983256
 31
0.0
  0
LINE
  5
   293
  8
0
  6
CONTINUOUS
 62
     7
 10
-501.61610812294
 20
6.87178546615346
 30
0.0
 11
-512.36610812294
 21
6.87178546615346
 31
0.0
  0
LINE
  5
   294
  8
0
  6
CONTINUOUS
 62
     7
 10
-501.61610812294
 20
9.34484605412531
 30
0.0
 11
-512.36610812294
 21
9.34484605412531
 31
0.0
  0
LINE
  5
   295
  8
0
  6
CONTINUOUS
 62
     7
 10
-532.491136676901
 20
57.6540069580119
 30
0.0
 11
-532.491138707065
 21
65.2821350097656
 31
0.0
  0
LINE
  5
   296
  8
0
  6
CONTINUOUS
 62
     7
 10
-481.491136676899
 20
57.6540069580119
 30
0.0
 11
-481.491138707063
 21
65.2821350097656
 31
0.0
  0
LINE
  5
   297
  8
0
  6
CONTINUOUS
 62
   130
 10
-529.491157531738
 20
81.2820892333982
 30
0.0
 11
-529.491157531738
 21
82.7821502685547
 31
0.0
  0
LINE
  5
   298
  8
0
  6
CONTINUOUS
 62
   130
 10
-528.866157531738
 20
82.7821502685547
 30
0.0
 11
-529.491157531738
 21
82.7821502685547
 31
0.0
  0
LINE
  5
   299
  8
0
  6
CONTINUOUS
 62
   130
 10
-528.866157531738
 20
82.7821502685547
 30
0.0
 11
-528.866157531738
 21
92.7821350097656
 31
0.0
  0
LINE
  5
   29A
  8
0
  6
CONTINUOUS
 62
   130
 10
-520.116157531738
 20
92.7821350097656
 30
0.0
 11
-528.866157531738
 21
92.7821350097656
 31
0.0
  0
LINE
  5
   29B
  8
0
  6
CONTINUOUS
 62
   130
 10
-520.116157531738
 20
82.7821502685547
 30
0.0
 11
-520.116157531738
 21
92.7821350097656
 31
0.0
  0
LINE
  5
   29C
  8
0
  6
CONTINUOUS
 62
   130
 10
-519.491157531738
 20
82.7821502685547
 30
0.0
 11
-520.116157531738
 21
82.7821502685547
 31
0.0
  0
LINE
  5
   29D
  8
0
  6
CONTINUOUS
 62
   130
 10
-519.491157531738
 20
81.2820892333982
 30
0.0
 11
-519.491157531738
 21
82.7821502685547
 31
0.0
  0
LINE
  5
   29E
  8
0
  6
CONTINUOUS
 62
   130
 10
-511.991157531738
 20
81.2820892333982
 30
0.0
 11
-511.991157531738
 21
82.7821502685547
 31
0.0
  0
LINE
  5
   29F
  8
0
  6
CONTINUOUS
 62
   130
 10
-511.366157531738
 20
82.7821502685547
 30
0.0
 11
-511.991157531738
 21
82.7821502685547
 31
0.0
  0
LINE
  5
   2A0
  8
0
  6
CONTINUOUS
 62
   130
 10
-511.366157531738
 20
82.7821502685547
 30
0.0
 11
-511.366157531738
 21
92.7821350097656
 31
0.0
  0
LINE
  5
   2A1
  8
0
  6
CONTINUOUS
 62
   130
 10
-502.616157531738
 20
92.7821350097656
 30
0.0
 11
-511.366157531738
 21
92.7821350097656
 31
0.0
  0
LINE
  5
   2A2
  8
0
  6
CONTINUOUS
 62
   130
 10
-502.616157531738
 20
82.7821502685547
 30
0.0
 11
-502.616157531738
 21
92.7821350097656
 31
0.0
  0
LINE
  5
   2A3
  8
0
  6
CONTINUOUS
 62
   130
 10
-501.991157531738
 20
82.7821502685547
 30
0.0
 11
-502.616157531738
 21
82.7821502685547
 31
0.0
  0
LINE
  5
   2A4
  8
0
  6
CONTINUOUS
 62
   130
 10
-501.991157531738
 20
81.2820892333982
 30
0.0
 11
-501.991157531738
 21
82.7821502685547
 31
0.0
  0
LINE
  5
   2A5
  8
0
  6
CONTINUOUS
 62
   130
 10
-494.491157531738
 20
81.2820892333982
 30
0.0
 11
-494.491157531738
 21
82.7821502685547
 31
0.0
  0
LINE
  5
   2A6
  8
0
  6
CONTINUOUS
 62
   130
 10
-493.866157531738
 20
82.7821502685547
 30
0.0
 11
-494.491157531738
 21
82.7821502685547
 31
0.0
  0
LINE
  5
   2A7
  8
0
  6
CONTINUOUS
 62
   130
 10
-493.866157531738
 20
82.7821502685547
 30
0.0
 11
-493.866157531738
 21
92.7821350097656
 31
0.0
  0
LINE
  5
   2A8
  8
0
  6
CONTINUOUS
 62
   130
 10
-485.116157531738
 20
92.7821350097656
 30
0.0
 11
-493.866157531738
 21
92.7821350097656
 31
0.0
  0
LINE
  5
   2A9
  8
0
  6
CONTINUOUS
 62
   130
 10
-485.116157531738
 20
82.7821502685547
 30
0.0
 11
-485.116157531738
 21
92.7821350097656
 31
0.0
  0
LINE
  5
   2AA
  8
0
  6
CONTINUOUS
 62
   130
 10
-484.491157531738
 20
82.7821502685547
 30
0.0
 11
-485.116157531738
 21
82.7821502685547
 31
0.0
  0
LINE
  5
   2AB
  8
0
  6
CONTINUOUS
 62
   130
 10
-484.491157531738
 20
81.2820892333982
 30
0.0
 11
-484.491157531738
 21
82.7821502685547
 31
0.0
  0
LINE
  5
   2AC
  8
0
  6
CONTINUOUS
 62
   130
 10
-529.491157531738
 20
-49.7178726196289
 30
0.0
 11
-529.491157531738
 21
-48.2178497314451
 31
0.0
  0
LINE
  5
   2AD
  8
0
  6
CONTINUOUS
 62
   130
 10
-528.866157531738
 20
-49.7178726196289
 30
0.0
 11
-529.491157531738
 21
-49.7178726196289
 31
0.0
  0
LINE
  5
   2AE
  8
0
  6
CONTINUOUS
 62
   130
 10
-528.866157531738
 20
-59.7178726196289
 30
0.0
 11
-528.866157531738
 21
-49.7178726196289
 31
0.0
  0
LINE
  5
   2AF
  8
0
  6
CONTINUOUS
 62
   130
 10
-520.116157531738
 20
-59.7178726196289
 30
0.0
 11
-528.866157531738
 21
-59.7178726196289
 31
0.0
  0
LINE
  5
   2B0
  8
0
  6
CONTINUOUS
 62
   130
 10
-520.116157531738
 20
-59.7178726196289
 30
0.0
 11
-520.116157531738
 21
-49.7178726196289
 31
0.0
  0
LINE
  5
   2B1
  8
0
  6
CONTINUOUS
 62
   130
 10
-519.491157531738
 20
-49.7178726196289
 30
0.0
 11
-520.116157531738
 21
-49.7178726196289
 31
0.0
  0
LINE
  5
   2B2
  8
0
  6
CONTINUOUS
 62
   130
 10
-519.491157531738
 20
-49.7178726196289
 30
0.0
 11
-519.491157531738
 21
-48.2178497314451
 31
0.0
  0
LINE
  5
   2B3
  8
0
  6
CONTINUOUS
 62
   130
 10
-511.991157531738
 20
-49.7178726196289
 30
0.0
 11
-511.991157531738
 21
-48.2178497314451
 31
0.0
  0
LINE
  5
   2B4
  8
0
  6
CONTINUOUS
 62
   130
 10
-511.366157531738
 20
-49.7178726196289
 30
0.0
 11
-511.991157531738
 21
-49.7178726196289
 31
0.0
  0
LINE
  5
   2B5
  8
0
  6
CONTINUOUS
 62
   130
 10
-511.366157531738
 20
-59.7178726196289
 30
0.0
 11
-511.366157531738
 21
-49.7178726196289
 31
0.0
  0
LINE
  5
   2B6
  8
0
  6
CONTINUOUS
 62
   130
 10
-502.616157531738
 20
-59.7178726196289
 30
0.0
 11
-511.366157531738
 21
-59.7178726196289
 31
0.0
  0
LINE
  5
   2B7
  8
0
  6
CONTINUOUS
 62
   130
 10
-502.616157531738
 20
-59.7178726196289
 30
0.0
 11
-502.616157531738
 21
-49.7178726196289
 31
0.0
  0
LINE
  5
   2B8
  8
0
  6
CONTINUOUS
 62
   130
 10
-501.991157531738
 20
-49.7178726196289
 30
0.0
 11
-502.616157531738
 21
-49.7178726196289
 31
0.0
  0
LINE
  5
   2B9
  8
0
  6
CONTINUOUS
 62
   130
 10
-501.991157531738
 20
-49.7178726196289
 30
0.0
 11
-501.991157531738
 21
-48.2178497314451
 31
0.0
  0
LINE
  5
   2BA
  8
0
  6
CONTINUOUS
 62
   130
 10
-494.491157531738
 20
-49.7178726196289
 30
0.0
 11
-494.491157531738
 21
-48.2178497314451
 31
0.0
  0
LINE
  5
   2BB
  8
0
  6
CONTINUOUS
 62
   130
 10
-493.866157531738
 20
-49.7178726196289
 30
0.0
 11
-494.491157531738
 21
-49.7178726196289
 31
0.0
  0
LINE
  5
   2BC
  8
0
  6
CONTINUOUS
 62
   130
 10
-493.866157531738
 20
-59.7178726196289
 30
0.0
 11
-493.866157531738
 21
-49.7178726196289
 31
0.0
  0
LINE
  5
   2BD
  8
0
  6
CONTINUOUS
 62
   130
 10
-485.116157531738
 20
-59.7178726196289
 30
0.0
 11
-493.866157531738
 21
-59.7178726196289
 31
0.0
  0
LINE
  5
   2BE
  8
0
  6
CONTINUOUS
 62
   130
 10
-485.116157531738
 20
-59.7178726196289
 30
0.0
 11
-485.116157531738
 21
-49.7178726196289
 31
0.0
  0
LINE
  5
   2BF
  8
0
  6
CONTINUOUS
 62
   130
 10
-484.491157531738
 20
-49.7178726196289
 30
0.0
 11
-485.116157531738
 21
-49.7178726196289
 31
0.0
  0
LINE
  5
   2C0
  8
0
  6
CONTINUOUS
 62
   130
 10
-484.491157531738
 20
-49.7178726196289
 30
0.0
 11
-484.491157531738
 21
-48.2178497314451
 31
0.0
  0
CIRCLE
  5
   2C1
  8
0
  6
CONTINUOUS
 62
   130
 10
-524.491493507422
 20
87.7824464461267
 30
0.0
 40
2.05043499574583
  0
CIRCLE
  5
   2C2
  8
0
  6
CONTINUOUS
 62
   130
 10
-506.991696726205
 20
87.7813006455491
 30
0.0
 40
2.04916094646529
  0
CIRCLE
  5
   2C3
  8
0
  6
CONTINUOUS
 62
   130
 10
-489.491120550069
 20
87.7821796948053
 30
0.0
 40
2.05000974588478
  0
CIRCLE
  5
   2C4
  8
0
  6
CONTINUOUS
 62
   130
 10
-524.491154957087
 20
-54.7178644266997
 30
0.0
 40
2.04998913694028
  0
CIRCLE
  5
   2C5
  8
0
  6
CONTINUOUS
 62
   130
 10
-506.991161697842
 20
-54.7178756951664
 30
0.0
 40
2.0500149268564
  0
CIRCLE
  5
   2C6
  8
0
  6
CONTINUOUS
 62
   130
 10
-489.491160625018
 20
-54.7178793172529
 30
0.0
 40
2.05002520020557
  0
LINE
  5
   2C7
  8
0
  6
DASHDOT
 62
     7
 10
-524.491154957087
 20
-57.76785356364
 30
0.0
 11
-524.491154957087
 21
-51.6678752897594
 31
0.0
  0
LINE
  5
   2C8
  8
0
  6
DASHDOT
 62
     7
 10
-521.441165820147
 20
-54.7178644266997
 30
0.0
 11
-527.541144094027
 21
-54.7178644266997
 31
0.0
  0
LINE
  5
   2C9
  8
0
  6
DASHDOT
 62
     7
 10
-506.991161697842
 20
-57.7678906220228
 30
0.0
 11
-506.991161697842
 21
-51.66786076831
 31
0.0
  0
LINE
  5
   2CA
  8
0
  6
DASHDOT
 62
     7
 10
-503.941146770985
 20
-54.7178756951664
 30
0.0
 11
-510.041176624698
 21
-54.7178756951664
 31
0.0
  0
LINE
  5
   2CB
  8
0
  6
DASHDOT
 62
     7
 10
-489.491160625018
 20
-57.7679045174585
 30
0.0
 11
-489.491160625018
 21
-51.6678541170473
 31
0.0
  0
LINE
  5
   2CC
  8
0
  6
DASHDOT
 62
     7
 10
-486.441135424813
 20
-54.7178793172529
 30
0.0
 11
-492.541185825224
 21
-54.7178793172529
 31
0.0
  0
LINE
  5
   2CD
  8
0
  6
DASHDOT
 62
     7
 10
-524.491493507422
 20
84.7320114503809
 30
0.0
 11
-524.491493507422
 21
90.8328814418725
 31
0.0
  0
LINE
  5
   2CE
  8
0
  6
DASHDOT
 62
     7
 10
-521.441058511676
 20
87.7824464461267
 30
0.0
 11
-527.541928503168
 21
87.7824464461267
 31
0.0
  0
LINE
  5
   2CF
  8
0
  6
DASHDOT
 62
     7
 10
-506.991696726205
 20
84.7321396990838
 30
0.0
 11
-506.991696726205
 21
90.8304615920143
 31
0.0
  0
LINE
  5
   2D0
  8
0
  6
DASHDOT
 62
     7
 10
-503.94253577974
 20
87.7813006455491
 30
0.0
 11
-510.040857672671
 21
87.7813006455491
 31
0.0
  0
LINE
  5
   2D1
  8
0
  6
DASHDOT
 62
     7
 10
-489.491120550068
 20
84.7321699489205
 30
0.0
 11
-489.491120550068
 21
90.83218944069
 31
0.0
  0
LINE
  5
   2D2
  8
0
  6
DASHDOT
 62
     7
 10
-486.441110804184
 20
87.7821796948053
 30
0.0
 11
-492.541130295953
 21
87.7821796948053
 31
0.0
  0
LINE
  5
   2D3
  8
0
  6
CONTINUOUS
 62
     7
 10
-481.491138707063
 20
65.2821350097656
 30
0.0
 11
-532.491138707065
 21
65.2821350097656
 31
0.0
  0
LINE
  5
   2D4
  8
0
  6
CONTINUOUS
 62
     7
 10
-533.241156336394
 20
-34.2178857328695
 30
0.0
 11
-533.241124543409
 21
-22.8428421020467
 31
0.0
  0
LINE
  5
   2D5
  8
0
  6
CONTINUOUS
 62
     7
 10
-480.741161224818
 20
-34.2178573608396
 30
0.0
 11
-480.741146332259
 21
-22.8428421020467
 31
0.0
  0
LINE
  5
   2D6
  8
0
  6
DASHDOT
 62
     7
 10
-506.991161697842
 20
-50.3036466403705
 30
0.0
 11
-506.991161697842
 21
83.3678861423237
 31
0.0
  0
LINE
  5
   2D7
  8
0
  6
CONTINUOUS
 62
     7
 10
-481.241161224818
 20
66.7820988370096
 30
0.0
 11
-532.741153595423
 21
66.7820988370096
 31
0.0
  0
LINE
  5
   2D8
  8
0
  6
CONTINUOUS
 62
     3
 10
-481.366161224818
 20
81.2820892333982
 30
0.0
 11
-532.616153595423
 21
81.2820892333982
 31
0.0
  0
LINE
  5
   2D9
  8
0
  6
CONTINUOUS
 62
     3
 10
-480.741161224818
 20
67.2820968627928
 30
0.0
 11
-480.741161224818
 21
80.657084361341
 31
0.0
  0
LINE
  5
   2DA
  8
0
  6
CONTINUOUS
 62
     3
 10
-533.241156449424
 20
67.2821002006535
 30
0.0
 11
-533.241156449424
 21
80.6570999984684
 31
0.0
  0
LINE
  5
   2DB
  8
0
  6
CONTINUOUS
 62
     3
 10
-531.416155693507
 20
67.2821006774901
 30
0.0
 11
-531.416155693507
 21
81.2820892333982
 31
0.0
  0
LINE
  5
   2DC
  8
0
  6
CONTINUOUS
 62
     3
 10
-529.616155502772
 20
67.2821002006529
 30
0.0
 11
-529.616155502772
 21
81.2820892333982
 31
0.0
  0
LINE
  5
   2DD
  8
0
  6
CONTINUOUS
 62
     3
 10
-527.816155788874
 20
67.2821002006529
 30
0.0
 11
-527.816155788874
 21
81.2820892333982
 31
0.0
  0
LINE
  5
   2DE
  8
0
  6
CONTINUOUS
 62
     3
 10
-526.01615559814
 20
67.2821002006529
 30
0.0
 11
-526.01615559814
 21
81.2820892333982
 31
0.0
  0
LINE
  5
   2DF
  8
0
  6
CONTINUOUS
 62
     3
 10
-524.216159698939
 20
67.2820997238157
 30
0.0
 11
-524.216159698939
 21
81.2820892333982
 31
0.0
  0
LINE
  5
   2E0
  8
0
  6
CONTINUOUS
 62
     3
 10
-522.416156647181
 20
67.2820997238157
 30
0.0
 11
-522.416156647181
 21
81.2820892333982
 31
0.0
  0
LINE
  5
   2E1
  8
0
  6
CONTINUOUS
 62
     3
 10
-520.616161224818
 20
67.2820997238157
 30
0.0
 11
-520.616161224818
 21
81.2820892333982
 31
0.0
  0
LINE
  5
   2E2
  8
0
  6
CONTINUOUS
 62
     3
 10
-518.81615817306
 20
67.2820997238157
 30
0.0
 11
-518.81615817306
 21
81.2820892333982
 31
0.0
  0
LINE
  5
   2E3
  8
0
  6
CONTINUOUS
 62
     3
 10
-517.016162750697
 20
67.2820992469786
 30
0.0
 11
-517.016162750697
 21
81.2820892333982
 31
0.0
  0
LINE
  5
   2E4
  8
0
  6
CONTINUOUS
 62
     3
 10
-515.216159698939
 20
67.2820992469786
 30
0.0
 11
-515.216159698939
 21
81.2820892333982
 31
0.0
  0
LINE
  5
   2E5
  8
0
  6
CONTINUOUS
 62
     3
 10
-513.416156647181
 20
67.2820992469786
 30
0.0
 11
-513.416156647181
 21
81.2820892333982
 31
0.0
  0
LINE
  5
   2E6
  8
0
  6
CONTINUOUS
 62
     3
 10
-511.616161224818
 20
67.2820987701414
 30
0.0
 11
-511.616161224818
 21
81.2820892333982
 31
0.0
  0
LINE
  5
   2E7
  8
0
  6
CONTINUOUS
 62
     3
 10
-509.81615817306
 20
67.2820987701414
 30
0.0
 11
-509.81615817306
 21
81.2820892333982
 31
0.0
  0
LINE
  5
   2E8
  8
0
  6
CONTINUOUS
 62
     3
 10
-508.016162750697
 20
67.2820987701414
 30
0.0
 11
-508.016162750697
 21
81.2820892333982
 31
0.0
  0
LINE
  5
   2E9
  8
0
  6
CONTINUOUS
 62
     3
 10
-506.216159698939
 20
67.2820987701414
 30
0.0
 11
-506.216159698939
 21
81.2820892333982
 31
0.0
  0
LINE
  5
   2EA
  8
0
  6
CONTINUOUS
 62
     3
 10
-504.416156647181
 20
67.2820982933043
 30
0.0
 11
-504.416156647181
 21
81.2820892333982
 31
0.0
  0
LINE
  5
   2EB
  8
0
  6
CONTINUOUS
 62
     3
 10
-502.616161224818
 20
67.2820982933043
 30
0.0
 11
-502.616161224818
 21
81.2820892333982
 31
0.0
  0
LINE
  5
   2EC
  8
0
  6
CONTINUOUS
 62
     3
 10
-500.81615817306
 20
67.2820982933043
 30
0.0
 11
-500.81615817306
 21
81.2820892333982
 31
0.0
  0
LINE
  5
   2ED
  8
0
  6
CONTINUOUS
 62
     3
 10
-499.016162750697
 20
67.2820978164671
 30
0.0
 11
-499.016162750697
 21
81.2820892333982
 31
0.0
  0
LINE
  5
   2EE
  8
0
  6
CONTINUOUS
 62
     3
 10
-497.216159698939
 20
67.2820978164671
 30
0.0
 11
-497.216159698939
 21
81.2820892333982
 31
0.0
  0
LINE
  5
   2EF
  8
0
  6
CONTINUOUS
 62
     3
 10
-495.416156647181
 20
67.2820978164671
 30
0.0
 11
-495.416156647181
 21
81.2820892333982
 31
0.0
  0
LINE
  5
   2F0
  8
0
  6
CONTINUOUS
 62
     3
 10
-493.616161224818
 20
67.2820978164671
 30
0.0
 11
-493.616161224818
 21
81.2820892333982
 31
0.0
  0
LINE
  5
   2F1
  8
0
  6
CONTINUOUS
 62
     3
 10
-491.81615817306
 20
67.2820973396299
 30
0.0
 11
-491.81615817306
 21
81.2820892333982
 31
0.0
  0
LINE
  5
   2F2
  8
0
  6
CONTINUOUS
 62
     3
 10
-490.016162750697
 20
67.2820973396299
 30
0.0
 11
-490.016162750697
 21
81.2820892333982
 31
0.0
  0
LINE
  5
   2F3
  8
0
  6
CONTINUOUS
 62
     3
 10
-488.216159698939
 20
67.2820973396299
 30
0.0
 11
-488.216159698939
 21
81.2820892333982
 31
0.0
  0
LINE
  5
   2F4
  8
0
  6
CONTINUOUS
 62
     3
 10
-486.416156647181
 20
67.2820968627928
 30
0.0
 11
-486.416156647181
 21
81.2820892333982
 31
0.0
  0
LINE
  5
   2F5
  8
0
  6
CONTINUOUS
 62
     3
 10
-484.616161224818
 20
67.2820968627928
 30
0.0
 11
-484.616161224818
 21
81.2820892333982
 31
0.0
  0
LINE
  5
   2F6
  8
0
  6
CONTINUOUS
 62
     3
 10
-482.81615817306
 20
67.2820968627928
 30
0.0
 11
-482.81615817306
 21
81.2820892333982
 31
0.0
  0
LINE
  5
   2F7
  8
0
  6
CONTINUOUS
 62
     7
 10
-532.741160747981
 20
66.7821007915698
 30
0.0
 11
-532.741160747981
 21
67.2821007021628
 31
0.0
  0
LINE
  5
   2F8
  8
0
  6
CONTINUOUS
 62
     3
 10
-532.74116077694
 20
67.2821252348226
 30
0.0
 11
-533.241156336394
 21
67.2821252348226
 31
0.0
  0
LINE
  5
   2F9
  8
0
  6
CONTINUOUS
 62
     3
 10
-480.792941471552
 20
67.2820987498834
 30
0.0
 11
-532.741160770869
 21
67.2820987498834
 31
0.0
  0
LINE
  5
   2FA
  8
0
  6
CONTINUOUS
 62
     7
 10
-481.241161224818
 20
66.7820968824516
 30
0.0
 11
-481.241161224818
 21
67.2820968824516
 31
0.0
  0
LINE
  5
   2FB
  8
0
  6
CONTINUOUS
 62
     3
 10
-480.741161224818
 20
67.2820968627927
 30
0.0
 11
-480.924220917201
 21
67.2820968627927
 31
0.0
  0
ARC
  5
   2FC
  8
0
  6
CONTINUOUS
 62
     3
 10
-481.366169521845
 20
80.657084361341
 30
0.0
 40
0.624999378846369
 50
360.000027285161
 51
450.00046185832
  0
ARC
  5
   2FD
  8
0
  6
CONTINUOUS
 62
     3
 10
-532.616170435569
 20
80.6570999984684
 30
0.0
 40
0.624983634017216
 50
449.998225807986
 51
540.001187191324
  0
LINE
  5
   2FE
  8
0
  6
CONTINUOUS
 62
     7
 10
-481.241161224818
 20
-33.7178593350564
 30
0.0
 11
-532.741153595423
 21
-33.7178593350564
 31
0.0
  0
LINE
  5
   2FF
  8
0
  6
CONTINUOUS
 62
     3
 10
-481.366161224818
 20
-48.2178497314451
 30
0.0
 11
-532.616170435569
 21
-48.2178497314451
 31
0.0
  0
LINE
  5
   300
  8
0
  6
CONTINUOUS
 62
     3
 10
-480.741161224818
 20
-47.5928448593879
 30
0.0
 11
-480.741161224818
 21
-34.2178573608396
 31
0.0
  0
LINE
  5
   301
  8
0
  6
CONTINUOUS
 62
     3
 10
-533.241156449424
 20
-47.5928604965152
 30
0.0
 11
-533.241156449424
 21
-34.2178606987004
 31
0.0
  0
LINE
  5
   302
  8
0
  6
CONTINUOUS
 62
     3
 10
-531.416155693507
 20
-48.2178497314451
 30
0.0
 11
-531.416155693507
 21
-34.2178611755369
 31
0.0
  0
LINE
  5
   303
  8
0
  6
CONTINUOUS
 62
     3
 10
-529.616155502772
 20
-48.2178497314451
 30
0.0
 11
-529.616155502772
 21
-34.2178606986997
 31
0.0
  0
LINE
  5
   304
  8
0
  6
CONTINUOUS
 62
     3
 10
-527.816155788874
 20
-48.2178497314451
 30
0.0
 11
-527.816155788874
 21
-34.2178606986997
 31
0.0
  0
LINE
  5
   305
  8
0
  6
CONTINUOUS
 62
     3
 10
-526.01615559814
 20
-48.2178497314451
 30
0.0
 11
-526.01615559814
 21
-34.2178606986997
 31
0.0
  0
LINE
  5
   306
  8
0
  6
CONTINUOUS
 62
     3
 10
-524.216159698939
 20
-48.2178497314451
 30
0.0
 11
-524.216159698939
 21
-34.2178602218626
 31
0.0
  0
LINE
  5
   307
  8
0
  6
CONTINUOUS
 62
     3
 10
-522.416156647181
 20
-48.2178497314451
 30
0.0
 11
-522.416156647181
 21
-34.2178602218626
 31
0.0
  0
LINE
  5
   308
  8
0
  6
CONTINUOUS
 62
     3
 10
-520.616161224818
 20
-48.2178497314451
 30
0.0
 11
-520.616161224818
 21
-34.2178602218626
 31
0.0
  0
LINE
  5
   309
  8
0
  6
CONTINUOUS
 62
     3
 10
-518.81615817306
 20
-48.2178497314451
 30
0.0
 11
-518.81615817306
 21
-34.2178602218626
 31
0.0
  0
LINE
  5
   30A
  8
0
  6
CONTINUOUS
 62
     3
 10
-517.016162750697
 20
-48.2178497314451
 30
0.0
 11
-517.016162750697
 21
-34.2178597450254
 31
0.0
  0
LINE
  5
   30B
  8
0
  6
CONTINUOUS
 62
     3
 10
-515.216159698939
 20
-48.2178497314451
 30
0.0
 11
-515.216159698939
 21
-34.2178597450254
 31
0.0
  0
LINE
  5
   30C
  8
0
  6
CONTINUOUS
 62
     3
 10
-513.416156647181
 20
-48.2178497314451
 30
0.0
 11
-513.416156647181
 21
-34.2178597450254
 31
0.0
  0
LINE
  5
   30D
  8
0
  6
CONTINUOUS
 62
     3
 10
-511.616161224818
 20
-48.2178497314451
 30
0.0
 11
-511.616161224818
 21
-34.2178592681882
 31
0.0
  0
LINE
  5
   30E
  8
0
  6
CONTINUOUS
 62
     3
 10
-509.81615817306
 20
-48.2178497314451
 30
0.0
 11
-509.81615817306
 21
-34.2178592681882
 31
0.0
  0
LINE
  5
   30F
  8
0
  6
CONTINUOUS
 62
     3
 10
-508.016162750697
 20
-48.2178497314451
 30
0.0
 11
-508.016162750697
 21
-34.2178592681882
 31
0.0
  0
LINE
  5
   310
  8
0
  6
CONTINUOUS
 62
     3
 10
-506.216159698939
 20
-48.2178497314451
 30
0.0
 11
-506.216159698939
 21
-34.2178592681882
 31
0.0
  0
LINE
  5
   311
  8
0
  6
CONTINUOUS
 62
     3
 10
-504.416156647181
 20
-48.2178497314451
 30
0.0
 11
-504.416156647181
 21
-34.2178587913511
 31
0.0
  0
LINE
  5
   312
  8
0
  6
CONTINUOUS
 62
     3
 10
-502.616161224818
 20
-48.2178497314451
 30
0.0
 11
-502.616161224818
 21
-34.2178587913511
 31
0.0
  0
LINE
  5
   313
  8
0
  6
CONTINUOUS
 62
     3
 10
-500.81615817306
 20
-48.2178497314451
 30
0.0
 11
-500.81615817306
 21
-34.2178587913511
 31
0.0
  0
LINE
  5
   314
  8
0
  6
CONTINUOUS
 62
     3
 10
-499.016162750697
 20
-48.2178497314451
 30
0.0
 11
-499.016162750697
 21
-34.2178583145139
 31
0.0
  0
LINE
  5
   315
  8
0
  6
CONTINUOUS
 62
     3
 10
-497.216159698939
 20
-48.2178497314451
 30
0.0
 11
-497.216159698939
 21
-34.2178583145139
 31
0.0
  0
LINE
  5
   316
  8
0
  6
CONTINUOUS
 62
     3
 10
-495.416156647181
 20
-48.2178497314451
 30
0.0
 11
-495.416156647181
 21
-34.2178583145139
 31
0.0
  0
LINE
  5
   317
  8
0
  6
CONTINUOUS
 62
     3
 10
-493.616161224818
 20
-48.2178497314451
 30
0.0
 11
-493.616161224818
 21
-34.2178583145139
 31
0.0
  0
LINE
  5
   318
  8
0
  6
CONTINUOUS
 62
     3
 10
-491.81615817306
 20
-48.2178497314451
 30
0.0
 11
-491.81615817306
 21
-34.2178578376768
 31
0.0
  0
LINE
  5
   319
  8
0
  6
CONTINUOUS
 62
     3
 10
-490.016162750697
 20
-48.2178497314451
 30
0.0
 11
-490.016162750697
 21
-34.2178578376768
 31
0.0
  0
LINE
  5
   31A
  8
0
  6
CONTINUOUS
 62
     3
 10
-488.216159698939
 20
-48.2178497314451
 30
0.0
 11
-488.216159698939
 21
-34.2178578376768
 31
0.0
  0
LINE
  5
   31B
  8
0
  6
CONTINUOUS
 62
     3
 10
-486.416156647181
 20
-48.2178497314451
 30
0.0
 11
-486.416156647181
 21
-34.2178573608396
 31
0.0
  0
LINE
  5
   31C
  8
0
  6
CONTINUOUS
 62
     3
 10
-484.616161224818
 20
-48.2178497314451
 30
0.0
 11
-484.616161224818
 21
-34.2178573608396
 31
0.0
  0
LINE
  5
   31D
  8
0
  6
CONTINUOUS
 62
     3
 10
-482.81615817306
 20
-48.2178497314451
 30
0.0
 11
-482.81615817306
 21
-34.2178573608396
 31
0.0
  0
LINE
  5
   31E
  8
0
  6
CONTINUOUS
 62
     7
 10
-532.741160747981
 20
-34.2178612002096
 30
0.0
 11
-532.741160747981
 21
-33.7178612896166
 31
0.0
  0
LINE
  5
   31F
  8
0
  6
CONTINUOUS
 62
     3
 10
-532.74116077694
 20
-34.2178857328695
 30
0.0
 11
-533.241156336394
 21
-34.2178857328695
 31
0.0
  0
LINE
  5
   320
  8
0
  6
CONTINUOUS
 62
     3
 10
-480.792941471552
 20
-34.2178592479302
 30
0.0
 11
-532.741160770869
 21
-34.2178592479302
 31
0.0
  0
LINE
  5
   321
  8
0
  6
CONTINUOUS
 62
     7
 10
-481.241161224818
 20
-34.2178573804984
 30
0.0
 11
-481.241161224818
 21
-33.7178573804984
 31
0.0
  0
LINE
  5
   322
  8
0
  6
CONTINUOUS
 62
     3
 10
-480.741161224818
 20
-34.2178573608396
 30
0.0
 11
-480.924220917201
 21
-34.2178573608396
 31
0.0
  0
ARC
  5
   323
  8
0
  6
CONTINUOUS
 62
     3
 10
-481.366169521845
 20
-47.5928448593879
 30
0.0
 40
0.624999378846369
 50
269.999538037749
 51
359.999972610908
  0
ARC
  5
   324
  8
0
  6
CONTINUOUS
 62
     3
 10
-532.616170435569
 20
-47.5928604965152
 30
0.0
 40
0.624983634017216
 50
179.998812704745
 51
270.001774088083
  0
LINE
  5
   325
  8
0
  6
CONTINUOUS
 62
   150
 10
-533.167932920523
 20
43.5839449837138
 30
0.0
 11
-532.991152216683
 21
43.65717954297
 31
0.0
  0
LINE
  5
   326
  8
0
  6
CONTINUOUS
 62
   150
 10
-533.241156663696
 20
43.4071696211475
 30
0.0
 11
-533.167933549584
 21
43.5839503264033
 31
0.0
  0
LINE
  5
   327
  8
0
  6
CONTINUOUS
 62
   150
 10
-533.24116897583
 20
-8.59286308288574
 30
0.0
 11
-533.24116897583
 21
-8.34284782409668
 31
0.0
  0
LINE
  5
   328
  8
0
  6
CONTINUOUS
 62
   150
 10
-533.241161346436
 20
-8.57813531917109
 30
0.0
 11
-533.241161346436
 21
43.4071578979492
 31
0.0
  0
LINE
  5
   329
  8
0
  6
CONTINUOUS
 62
   150
 10
-533.167938620575
 20
-8.76964061049782
 30
0.0
 11
-533.241169364664
 21
-8.59286372916429
 31
0.0
  0
LINE
  5
   32A
  8
0
  6
CONTINUOUS
 62
   150
 10
-532.99116906585
 20
-8.8428317396167
 30
0.0
 11
-533.167936418999
 21
-8.76963914242618
 31
0.0
  0
LINE
  5
   32B
  8
0
  6
CONTINUOUS
 62
   150
 10
-480.991134643508
 20
-8.84286880492355
 30
0.0
 11
-496.241134643508
 21
-8.84285736083152
 31
0.0
  0
LINE
  5
   32C
  8
0
  6
CONTINUOUS
 62
   150
 10
-532.741161346436
 20
-8.84283256530762
 30
0.0
 11
-532.991170883179
 21
-8.84283256530762
 31
0.0
  0
LINE
  5
   32D
  8
0
  6
CONTINUOUS
 62
   150
 10
-480.991131493857
 20
-8.84286761044024
 30
0.0
 11
-480.814350798328
 21
-8.76964259168663
 31
0.0
  0
LINE
  5
   32E
  8
0
  6
CONTINUOUS
 62
   150
 10
-480.814351267639
 20
-8.7696416901281
 30
0.0
 11
-480.741124338549
 21
-8.59286480073989
 31
0.0
  0
LINE
  5
   32F
  8
0
  6
CONTINUOUS
 62
   150
 10
-480.741126977479
 20
-8.84286792139434
 30
0.0
 11
-480.741134643554
 21
43.407157897951
 31
0.0
  0
LINE
  5
   330
  8
0
  6
CONTINUOUS
 62
   150
 10
-480.741132149765
 20
43.4071623652154
 30
0.0
 11
-480.814374339366
 21
43.5839430642073
 31
0.0
  0
LINE
  5
   331
  8
0
  6
CONTINUOUS
 62
   150
 10
-480.814377783724
 20
43.5839381153701
 30
0.0
 11
-480.991158487971
 21
43.6571574145328
 31
0.0
  0
LINE
  5
   332
  8
0
  6
CONTINUOUS
 62
   150
 10
-480.991157531736
 20
43.6571578979522
 30
0.0
 11
-532.991157531736
 21
43.6571731567418
 31
0.0
  0
LINE
  5
   333
  8
0
  6
CONTINUOUS
 62
     3
 10
-494.391166687012
 20
-3.62759399414063
 30
0.0
 11
-494.391166687012
 21
0.441802978515625
 31
0.0
  0
LINE
  5
   334
  8
0
  6
CONTINUOUS
 62
     3
 10
-493.692235986102
 20
-4.43096276489523
 30
0.0
 11
-494.391172422964
 21
-3.62759515632025
 31
0.0
  0
LINE
  5
   335
  8
0
  6
CONTINUOUS
 62
     3
 10
-492.795610519646
 20
-5.00550792395765
 30
0.0
 11
-493.692224610532
 21
-4.43096112900521
 31
0.0
  0
LINE
  5
   336
  8
0
  6
CONTINUOUS
 62
     3
 10
-491.77364347611
 20
-5.30485534463644
 30
0.0
 11
-492.795616152537
 21
-5.00550843364744
 31
0.0
  0
LINE
  5
   337
  8
0
  6
CONTINUOUS
 62
     3
 10
-490.708740234375
 20
-5.30485534667969
 30
0.0
 11
-491.773643493652
 21
-5.30485534667969
 31
0.0
  0
LINE
  5
   338
  8
0
  6
CONTINUOUS
 62
     3
 10
-490.708741178541
 20
-5.30485569650889
 30
0.0
 11
-489.686768516159
 21
-5.00551257815651
 31
0.0
  0
LINE
  5
   339
  8
0
  6
CONTINUOUS
 62
     3
 10
-489.686757179295
 20
-5.00550668818542
 30
0.0
 11
-488.790135446837
 21
-4.43095984769627
 31
0.0
  0
LINE
  5
   33A
  8
0
  6
CONTINUOUS
 62
     3
 10
-488.79015136963
 20
-4.43096936939882
 30
0.0
 11
-488.091191993515
 21
-3.62755216009093
 31
0.0
  0
LINE
  5
   33B
  8
0
  6
CONTINUOUS
 62
     3
 10
-488.09118652223
 20
-3.62754821669914
 30
0.0
 11
-488.091163634047
 21
0.441825867773517
 31
0.0
  0
LINE
  5
   33C
  8
0
  6
CONTINUOUS
 62
     3
 10
-488.091165064368
 20
0.44182552066777
 30
0.0
 11
-488.790124430355
 21
1.24522365960765
 31
0.0
  0
LINE
  5
   33D
  8
0
  6
CONTINUOUS
 62
     3
 10
-488.790114921823
 20
1.24522513963156
 30
0.0
 11
-489.686736654281
 21
1.81977198012071
 31
0.0
  0
LINE
  5
   33E
  8
0
  6
CONTINUOUS
 62
     3
 10
-489.68674155862
 20
1.81977133982488
 30
0.0
 11
-490.708706556776
 21
2.11911444347449
 31
0.0
  0
LINE
  5
   33F
  8
0
  6
CONTINUOUS
 62
     3
 10
-490.708709716797
 20
2.11911392211914
 30
0.0
 11
-491.773620605469
 21
2.11911392211914
 31
0.0
  0
LINE
  5
   340
  8
0
  6
CONTINUOUS
 62
     3
 10
-492.795582063958
 20
1.81977228945896
 30
0.0
 11
-491.773617065801
 21
2.11911539310857
 31
0.0
  0
LINE
  5
   341
  8
0
  6
CONTINUOUS
 62
     3
 10
-493.692197227054
 20
1.24523000010013
 30
0.0
 11
-492.795575494595
 21
1.81977684058926
 31
0.0
  0
LINE
  5
   342
  8
0
  6
CONTINUOUS
 62
     3
 10
-494.391172467746
 20
0.441798395962465
 30
0.0
 11
-493.69221311798
 21
1.24521941407777
 31
0.0
  0
LINE
  5
   343
  8
0
  6
CONTINUOUS
 62
     3
 10
-496.24113464329
 20
37.657127380517
 30
0.0
 11
-480.74113464329
 21
37.6571578980942
 31
0.0
  0
LINE
  5
   344
  8
0
  6
CONTINUOUS
 62
     3
 10
-480.741134643555
 20
42.6571578979492
 30
0.0
 11
-533.241165161133
 21
42.6571578979492
 31
0.0
  0
LINE
  5
   345
  8
0
  6
CONTINUOUS
 62
     3
 10
-486.488931731898
 20
34.0320931548329
 30
0.0
 11
-486.546022489017
 21
34.3191109747692
 31
0.0
  0
LINE
  5
   346
  8
0
  6
CONTINUOUS
 62
     3
 10
-486.546019607458
 20
34.3191158078521
 30
0.0
 11
-486.708594383683
 21
34.5624324576461
 31
0.0
  0
LINE
  5
   347
  8
0
  6
CONTINUOUS
 62
     3
 10
-486.70859707517
 20
34.5624302619808
 30
0.0
 11
-486.951921357841
 21
34.7250050239943
 31
0.0
  0
LINE
  5
   348
  8
0
  6
CONTINUOUS
 62
     3
 10
-486.951926387586
 20
34.7250031239655
 30
0.0
 11
-487.238936574351
 21
34.7820938825433
 31
0.0
  0
LINE
  5
   349
  8
0
  6
CONTINUOUS
 62
     3
 10
-487.525948108588
 20
34.7250016583546
 30
0.0
 11
-487.238937921823
 21
34.7820924169324
 31
0.0
  0
LINE
  5
   34A
  8
0
  6
CONTINUOUS
 62
     3
 10
-487.769254448612
 20
34.562433033395
 30
0.0
 11
-487.525937798818
 21
34.7250078096203
 31
0.0
  0
LINE
  5
   34B
  8
0
  6
CONTINUOUS
 62
     3
 10
-487.931838632742
 20
34.31911510481
 30
0.0
 11
-487.769256237794
 21
34.5624317499712
 31
0.0
  0
LINE
  5
   34C
  8
0
  6
CONTINUOUS
 62
     3
 10
-487.988932495025
 20
34.0320922830055
 30
0.0
 11
-487.931841737905
 21
34.3191101029418
 31
0.0
  0
LINE
  5
   34D
  8
0
  6
CONTINUOUS
 62
     3
 10
-487.988929748535
 20
32.532096862793
 30
0.0
 11
-487.988929748535
 21
34.032096862793
 31
0.0
  0
LINE
  5
   34E
  8
0
  6
CONTINUOUS
 62
     3
 10
-487.93184225493
 20
32.2450806175184
 30
0.0
 11
-487.988933013508
 21
32.5320908042832
 31
0.0
  0
LINE
  5
   34F
  8
0
  6
CONTINUOUS
 62
     3
 10
-487.769256409524
 20
32.0017702396249
 30
0.0
 11
-487.931838804472
 21
32.2450868847861
 31
0.0
  0
LINE
  5
   350
  8
0
  6
CONTINUOUS
 62
     3
 10
-487.525939679394
 20
31.8391877700747
 30
0.0
 11
-487.769256324555
 21
32.0017701650225
 31
0.0
  0
LINE
  5
   351
  8
0
  6
CONTINUOUS
 62
     3
 10
-487.238936580458
 20
31.7820940316209
 30
0.0
 11
-487.525946767223
 21
31.8391847901987
 31
0.0
  0
LINE
  5
   352
  8
0
  6
CONTINUOUS
 62
     3
 10
-487.238937915717
 20
31.78209256601
 30
0.0
 11
-486.951927728952
 21
31.8391833245879
 31
0.0
  0
LINE
  5
   353
  8
0
  6
CONTINUOUS
 62
     3
 10
-486.95191889593
 20
31.8391881319872
 30
0.0
 11
-486.708594617934
 21
32.0017705302292
 31
0.0
  0
LINE
  5
   354
  8
0
  6
CONTINUOUS
 62
     3
 10
-486.708593521485
 20
32.0017720329885
 30
0.0
 11
-486.54601874526
 21
32.2450886827825
 31
0.0
  0
LINE
  5
   355
  8
0
  6
CONTINUOUS
 62
     3
 10
-486.546025166373
 20
32.2450791568553
 30
0.0
 11
-486.488934407795
 21
32.5320893436202
 31
0.0
  0
LINE
  5
   356
  8
0
  6
CONTINUOUS
 62
     3
 10
-486.488929748535
 20
32.532096862793
 30
0.0
 11
-486.488929748535
 21
34.032096862793
 31
0.0
  0
LINE
  5
   357
  8
0
  6
CONTINUOUS
 62
     3
 10
-486.491134643555
 20
21.7821083068848
 30
0.0
 11
-487.991134643555
 21
21.7821083068848
 31
0.0
  0
LINE
  5
   358
  8
0
  6
CONTINUOUS
 62
     3
 10
-487.991134643555
 20
8.28210830688477
 30
0.0
 11
-487.991134643555
 21
21.7821083068848
 31
0.0
  0
LINE
  5
   359
  8
0
  6
CONTINUOUS
 62
     3
 10
-486.491134643555
 20
8.28210830688477
 30
0.0
 11
-487.991134643555
 21
8.28210830688477
 31
0.0
  0
LINE
  5
   35A
  8
0
  6
CONTINUOUS
 62
     3
 10
-486.491134643555
 20
8.28210830688477
 30
0.0
 11
-486.491134643555
 21
21.7821083068848
 31
0.0
  0
LINE
  5
   35B
  8
0
  6
CONTINUOUS
 62
   150
 10
-497.241134643555
 20
-7.0928783416748
 30
0.0
 11
-497.241134643555
 21
36.1571216583252
 31
0.0
  0
LINE
  5
   35C
  8
0
  6
CONTINUOUS
 62
     3
 10
-496.241134643555
 20
37.6571197509766
 30
0.0
 11
-531.491176605225
 21
37.6571197509766
 31
0.0
  0
LINE
  5
   35D
  8
0
  6
CONTINUOUS
 62
   150
 10
-497.741134643555
 20
36.6571197509766
 30
0.0
 11
-531.491176605225
 21
36.6571197509766
 31
0.0
  0
LINE
  5
   35E
  8
0
  6
CONTINUOUS
 62
   150
 10
-497.241135736848
 20
36.1571184326523
 30
0.0
 11
-497.741135719734
 21
36.657118415538
 31
0.0
  0
LINE
  5
   35F
  8
0
  6
CONTINUOUS
 62
   150
 10
-531.991175917187
 20
36.1571213628374
 30
0.0
 11
-531.844729688904
 21
36.510675134872
 31
0.0
  0
LINE
  5
   360
  8
0
  6
CONTINUOUS
 62
   150
 10
-531.844729427805
 20
36.510674575382
 30
0.0
 11
-531.49117565577
 21
36.6571208036652
 31
0.0
  0
LINE
  5
   361
  8
0
  6
CONTINUOUS
 62
     3
 10
-531.491176604632
 20
37.6571197516914
 30
0.0
 11
-533.241163253192
 21
37.6571273810862
 31
0.0
  0
LINE
  5
   362
  8
0
  6
CONTINUOUS
 62
   150
 10
-496.741134642458
 20
-8.84298896766249
 30
0.0
 11
-532.741165160036
 21
-8.84284400917084
 31
0.0
  0
LINE
  5
   363
  8
0
  6
CONTINUOUS
 62
   150
 10
-496.241134627683
 20
-8.84299659394399
 30
0.0
 11
-496.741134627683
 21
-8.84298896454946
 31
0.0
  0
LINE
  5
   364
  8
0
  6
CONTINUOUS
 62
   150
 10
-497.387579919651
 20
-7.44643124801469
 30
0.0
 11
-497.241133691368
 21
-7.09287747598006
 31
0.0
  0
LINE
  5
   365
  8
0
  6
CONTINUOUS
 62
   150
 10
-497.741133176059
 20
-7.59287770817408
 30
0.0
 11
-497.387579404024
 21
-7.44643147989096
 31
0.0
  0
LINE
  5
   366
  8
0
  6
CONTINUOUS
 62
   150
 10
-497.741134643555
 20
-7.5928783416748
 30
0.0
 11
-531.491176605225
 21
-7.5928783416748
 31
0.0
  0
LINE
  5
   367
  8
0
  6
CONTINUOUS
 62
   150
 10
-531.491176056732
 20
-7.59287809418491
 30
0.0
 11
-531.844729828767
 21
-7.44643186590179
 31
0.0
  0
LINE
  5
   368
  8
0
  6
CONTINUOUS
 62
   150
 10
-531.844730086935
 20
-7.44643163109463
 30
0.0
 11
-531.991176315219
 21
-7.09287785906001
 31
0.0
  0
LINE
  5
   369
  8
0
  6
CONTINUOUS
 62
   150
 10
-531.991176605225
 20
-7.0928783416748
 30
0.0
 11
-531.991176605225
 21
36.1571216583252
 31
0.0
  0
LINE
  5
   36A
  8
0
  6
CONTINUOUS
 62
   150
 10
-512.366146087647
 20
1.74620056152344
 30
0.0
 11
-512.366146087647
 21
22.6347618103027
 31
0.0
  0
LINE
  5
   36B
  8
0
  6
CONTINUOUS
 62
   150
 10
-501.616146087647
 20
1.74620056152344
 30
0.0
 11
-501.616146087647
 21
22.6347618103027
 31
0.0
  0
LINE
  5
   36C
  8
0
  6
CONTINUOUS
 62
     3
 10
-483.24112701416
 20
4.61731719970703
 30
0.0
 11
-484.24112701416
 21
4.61731719970703
 31
0.0
  0
LINE
  5
   36D
  8
0
  6
CONTINUOUS
 62
     3
 10
-484.417895823572
 20
4.54409966744115
 30
0.0
 11
-484.241115118316
 21
4.61732278155305
 31
0.0
  0
LINE
  5
   36E
  8
0
  6
CONTINUOUS
 62
     3
 10
-484.49112734762
 20
4.3673168676118
 30
0.0
 11
-484.417908048378
 21
4.54409375023769
 31
0.0
  0
LINE
  5
   36F
  8
0
  6
CONTINUOUS
 62
     3
 10
-484.49112701416
 20
-1.13268280029297
 30
0.0
 11
-484.49112701416
 21
4.36731719970703
 31
0.0
  0
LINE
  5
   370
  8
0
  6
CONTINUOUS
 62
     3
 10
-484.417907961931
 20
-1.30945980832256
 30
0.0
 11
-484.491127261174
 21
-1.13268292569668
 31
0.0
  0
LINE
  5
   371
  8
0
  6
CONTINUOUS
 62
     3
 10
-484.241117134967
 20
-1.38268184278524
 30
0.0
 11
-484.417897840223
 21
-1.30945872867333
 31
0.0
  0
LINE
  5
   372
  8
0
  6
CONTINUOUS
 62
     3
 10
-483.24112701416
 20
-1.38268280029297
 30
0.0
 11
-484.24112701416
 21
-1.38268280029297
 31
0.0
  0
LINE
  5
   373
  8
0
  6
CONTINUOUS
 62
     3
 10
-482.49112701416
 20
-1.38268280029297
 30
0.0
 11
-483.24112701416
 21
-1.38268280029297
 31
0.0
  0
LINE
  5
   374
  8
0
  6
CONTINUOUS
 62
     3
 10
-482.491135412953
 20
-1.38268639688435
 30
0.0
 11
-482.314362346153
 21
-1.30946328276259
 31
0.0
  0
LINE
  5
   375
  8
0
  6
CONTINUOUS
 62
     3
 10
-482.314351244477
 20
-1.30945725732573
 30
0.0
 11
-482.241124315387
 21
-1.13268036793752
 31
0.0
  0
LINE
  5
   376
  8
0
  6
CONTINUOUS
 62
     3
 10
-482.24112701416
 20
-1.13268280029297
 30
0.0
 11
-482.24112701416
 21
4.36731719970703
 31
0.0
  0
LINE
  5
   377
  8
0
  6
CONTINUOUS
 62
     3
 10
-482.24112501154
 20
4.36731842874788
 30
0.0
 11
-482.31435194063
 21
4.54409531813609
 31
0.0
  0
LINE
  5
   378
  8
0
  6
CONTINUOUS
 62
     3
 10
-482.314360934278
 20
4.5440931040121
 30
0.0
 11
-482.491134001078
 21
4.61731621813385
 31
0.0
  0
LINE
  5
   379
  8
0
  6
CONTINUOUS
 62
     3
 10
-482.49112701416
 20
4.61731719970703
 30
0.0
 11
-483.24112701416
 21
4.61731719970703
 31
0.0
  0
LINE
  5
   37A
  8
0
  6
CONTINUOUS
 62
   150
 10
-497.241157531738
 20
24.1571311950684
 30
0.0
 11
-497.241157531738
 21
24.6571311950684
 31
0.0
  0
LINE
  5
   37B
  8
0
  6
CONTINUOUS
 62
     3
 10
-497.241157531738
 20
24.6571311950684
 30
0.0
 11
-531.991180419922
 21
24.6571311950684
 31
0.0
  0
LINE
  5
   37C
  8
0
  6
CONTINUOUS
 62
     3
 10
-497.241157531738
 20
24.1571311950684
 30
0.0
 11
-531.991180419922
 21
24.1571311950684
 31
0.0
  0
LINE
  5
   37D
  8
0
  6
CONTINUOUS
 62
   150
 10
-497.241157531738
 20
-0.342868804931641
 30
0.0
 11
-497.241157531738
 21
0.157131195068359
 31
0.0
  0
LINE
  5
   37E
  8
0
  6
CONTINUOUS
 62
     3
 10
-497.241157531738
 20
0.157131195068359
 30
0.0
 11
-531.991180419922
 21
0.157131195068359
 31
0.0
  0
LINE
  5
   37F
  8
0
  6
CONTINUOUS
 62
     3
 10
-497.241157531738
 20
-0.342868804931641
 30
0.0
 11
-531.991180419922
 21
-0.342868804931641
 31
0.0
  0
LINE
  5
   380
  8
0
  6
CONTINUOUS
 62
     3
 10
-512.366161346436
 20
18.1571311950684
 30
0.0
 11
-531.991180419922
 21
18.1571311950684
 31
0.0
  0
LINE
  5
   381
  8
0
  6
CONTINUOUS
 62
     3
 10
-512.366161346436
 20
17.6571311950684
 30
0.0
 11
-531.991180419922
 21
17.6571311950684
 31
0.0
  0
LINE
  5
   382
  8
0
  6
CONTINUOUS
 62
     3
 10
-512.366165161133
 20
6.65713119506836
 30
0.0
 11
-531.991180419922
 21
6.65713119506836
 31
0.0
  0
LINE
  5
   383
  8
0
  6
CONTINUOUS
 62
     3
 10
-512.366165161133
 20
6.15713119506836
 30
0.0
 11
-531.991180419922
 21
6.15713119506836
 31
0.0
  0
LINE
  5
   384
  8
0
  6
CONTINUOUS
 62
   150
 10
-497.241157531738
 20
17.6571311950684
 30
0.0
 11
-497.241157531738
 21
18.1571311950684
 31
0.0
  0
LINE
  5
   385
  8
0
  6
CONTINUOUS
 62
     3
 10
-497.241157531738
 20
18.1571311950684
 30
0.0
 11
-501.616146087647
 21
18.1571311950684
 31
0.0
  0
LINE
  5
   386
  8
0
  6
CONTINUOUS
 62
     3
 10
-497.241157531738
 20
17.6571311950684
 30
0.0
 11
-501.616146087647
 21
17.6571311950684
 31
0.0
  0
LINE
  5
   387
  8
0
  6
CONTINUOUS
 62
   150
 10
-497.241157531738
 20
6.15713119506836
 30
0.0
 11
-497.241157531738
 21
6.65713119506836
 31
0.0
  0
LINE
  5
   388
  8
0
  6
CONTINUOUS
 62
     3
 10
-497.241157531738
 20
6.65713119506836
 30
0.0
 11
-501.616149902344
 21
6.65713119506836
 31
0.0
  0
LINE
  5
   389
  8
0
  6
CONTINUOUS
 62
     3
 10
-497.241157531738
 20
6.15713119506836
 30
0.0
 11
-501.616149902344
 21
6.15713119506836
 31
0.0
  0
LINE
  5
   38A
  8
0
  6
CONTINUOUS
 62
     3
 10
-476.741134643555
 20
-12.9678783416748
 30
0.0
 11
-476.741134643555
 21
-10.7178764343262
 31
0.0
  0
LINE
  5
   38B
  8
0
  6
DOT
 62
   130
 10
-465.491134643554
 20
55.0321273803711
 30
0.0
 11
-480.741138640519
 21
55.0321273803711
 31
0.0
  0
LINE
  5
   38C
  8
0
  6
CONTINUOUS
 62
   130
 10
-476.741180419922
 20
1.1571044921875
 30
0.0
 11
-476.741180419922
 21
6.4071044921875
 31
0.0
  0
LINE
  5
   38D
  8
0
  6
CONTINUOUS
 62
   130
 10
-476.741180419922
 20
27.032112121582
 30
0.0
 11
-476.741180419922
 21
39.0321350097656
 31
0.0
  0
LINE
  5
   38E
  8
0
  6
DOT
 62
   130
 10
-465.49112701416
 20
-17.3428802490234
 30
0.0
 11
-480.741138640519
 21
-17.3428802490234
 31
0.0
  0
LINE
  5
   38F
  8
0
  6
CONTINUOUS
 62
     3
 10
-476.74112701416
 20
44.7821350097656
 30
0.0
 11
-476.74112701416
 21
48.4071350097656
 31
0.0
  0
LINE
  5
   390
  8
0
  6
DOT
 62
   130
 10
-465.491126755306
 20
-17.3428802490234
 30
0.0
 11
-465.491134643554
 21
55.0321273803722
 31
0.0
  0
LINE
  5
   391
  8
0
  6
DOT
 62
   130
 10
-464.991134643555
 20
11.5321044921875
 30
0.0
 11
-464.991134643555
 21
21.5321044921875
 31
0.0
  0
LINE
  5
   392
  8
0
  6
CONTINUOUS
 62
   130
 10
-477.24112701416
 20
6.4071044921875
 30
0.0
 11
-477.24112701416
 21
24.032112121582
 31
0.0
  0
LINE
  5
   393
  8
0
  6
CONTINUOUS
 62
     3
 10
-477.24112701416
 20
-5.46787261962891
 30
0.0
 11
-477.24112701416
 21
-2.96789169311523
 31
0.0
  0
LINE
  5
   394
  8
0
  6
CONTINUOUS
 62
   150
 10
-496.74113653234
 20
-8.84298895943161
 30
0.0
 11
-532.99293706945
 21
-8.84210776433544
 31
0.0
  0
LINE
  5
   395
  8
0
  6
CONTINUOUS
 62
   150
 10
-533.058846571057
 20
-8.81481271342843
 30
0.0
 11
-533.058108427135
 21
-8.81407456950596
 31
0.0
  0
LINE
  5
   396
  8
0
  6
CONTINUOUS
 62
   150
 10
-533.058107578617
 20
43.6285519208996
 30
0.0
 11
-533.0587312816
 21
43.6291775312462
 31
0.0
  0
LINE
  5
   397
  8
0
  6
CONTINUOUS
 62
   150
 10
-501.616146087647
 20
22.4143524169922
 30
0.0
 11
-512.366146087647
 21
22.4143524169922
 31
0.0
  0
LINE
  5
   398
  8
0
  6
CONTINUOUS
 62
   150
 10
-501.616146087647
 20
22.6347618103027
 30
0.0
 11
-512.366146087647
 21
22.6347618103027
 31
0.0
  0
LINE
  5
   399
  8
0
  6
CONTINUOUS
 62
   150
 10
-501.616146087647
 20
1.74620056152344
 30
0.0
 11
-512.366146087647
 21
1.74620056152344
 31
0.0
  0
LINE
  5
   39A
  8
0
  6
CONTINUOUS
 62
   150
 10
-501.616146087647
 20
2.08113861083984
 30
0.0
 11
-512.366146087647
 21
2.08113861083984
 31
0.0
  0
LINE
  5
   39B
  8
0
  6
DOT
 62
   130
 10
-464.991134643555
 20
21.5321044921875
 30
0.0
 11
-465.49112701416
 21
21.5321044921875
 31
0.0
  0
LINE
  5
   39C
  8
0
  6
DOT
 62
   130
 10
-464.991134643555
 20
11.5321044921875
 30
0.0
 11
-465.491134643555
 21
11.5321044921875
 31
0.0
  0
CIRCLE
  5
   39D
  8
0
  6
CONTINUOUS
 62
   130
 10
-472.241133113992
 20
3.78209749292883
 30
0.0
 40
2.62501196105321
  0
LINE
  5
   39E
  8
0
  6
DASHDOT
 62
     7
 10
-472.241133113992
 20
0.657085531875616
 30
0.0
 11
-472.241133113992
 21
6.90710945398204
 31
0.0
  0
LINE
  5
   39F
  8
0
  6
DASHDOT
 62
     7
 10
-469.116121152938
 20
3.78209749292883
 30
0.0
 11
-475.366145075045
 21
3.78209749292883
 31
0.0
  0
LINE
  5
   3A0
  8
0
  6
CONTINUOUS
 62
   130
 10
-477.24112701416
 20
-2.96789169311523
 30
0.0
 11
-477.24112701416
 21
1.1571044921875
 31
0.0
  0
LINE
  5
   3A1
  8
0
  6
DASHDOT
 62
     7
 10
-457.778943278798
 20
17.4071578979533
 30
0.0
 11
-540.427913689025
 21
17.4071578979533
 31
0.0
  0
INSERT
  5
   3A2
  8
255
  6
CONTINUOUS
 62
     7
  2
MOSTRA
 10
-564.410319679714
 20
-17.1242141723592
 30
0.0
 41
0.5
 42
0.5
 50
359.999999792138
 43
0.5
  0
LINE
  5
   3A3
  8
0
  6
DOT
 62
   130
 10
-480.741138640519
 20
-22.8428421020467
 30
0.0
 11
-480.741138640519
 21
-8.84285625834903
 31
0.0
  0
LINE
  5
   3A4
  8
0
  6
DOT
 62
   130
 10
-480.741138640519
 20
43.6571803933099
 30
0.0
 11
-480.741138640519
 21
57.6540069580119
 31
0.0
  0
CIRCLE
  5
   3A5
  8
0
  6
CONTINUOUS
 62
     7
 10
-462.95423012162
 20
53.6313641460351
 30
0.0
 40
0.1
  0
TEXT
  5
   3A6
  8
0
  6
CONTINUOUS
 62
     1
 10
-516.462417603441
 20
-143.043125234689
 30
0.0
 40
2.00000008940697
  1
SCARPELLINI
 50
359.999999948034
 41
0.749999861419206
 72
     2
 11
-500.262419880339
 21
-143.043125249301
 31
0.0
  0
TEXT
  5
   3A7
  8
0
  6
CONTINUOUS
 62
     1
 10
-478.747312976577
 20
-149.269954729878
 30
0.0
 40
2.00000008940697
  1
M4504 98-11-17
 50
359.999999948034
 41
0.749999861419206
 72
     1
 11
-468.397314429283
 21
-148.26995469451
 31
0.0
 73
     2
  0
TEXT
  5
   3A8
  8
0
  6
CONTINUOUS
 62
     1
 10
-504.337309209414
 20
-149.269958532574
 30
0.0
 40
2.00000008940697
  1
M 3076 95-01-16
 50
359.999999948034
 41
0.749999861419206
 72
     1
 11
-493.237310767174
 21
-148.269958497883
 31
0.0
 73
     2
  0
INSERT
  5
   3A9
  8
0
  6
CONTINUOUS
 62
     7
  2
*UDIM482
 10
0.0
 20
0.0
 30
0.0
  0
INSERT
  5
   3AA
  8
0
  6
CONTINUOUS
 62
     7
  2
*UDIM483
 10
0.0
 20
0.0
 30
0.0
  0
INSERT
  5
   3AB
  8
0
  6
CONTINUOUS
 62
     7
  2
*UDIM484
 10
0.0
 20
0.0
 30
0.0
  0
TEXT
  5
   3AC
  8
0
  6
CONTINUOUS
 62
     1
 10
-516.46241755973
 20
-134.576369699617
 30
0.0
 40
2.00000008940697
  1
93-04-05 FERRARI M.
 50
359.999999948034
 41
0.749999861419206
 72
     2
 11
-488.262421517478
 21
-134.576369725052
 31
0.0
  0
INSERT
  5
   3AD
  8
0
  6
CONTINUOUS
 62
     7
  2
*UDIM485
 10
0.0
 20
0.0
 30
0.0
  0
INSERT
  5
   3AE
  8
0
  6
CONTINUOUS
 62
     7
  2
*UDIM486
 10
0.0
 20
0.0
 30
0.0
  0
TEXT
  5
   3AF
  8
0
  6
CONTINUOUS
 62
     7
 10
-508.168201203505
 20
-94.3007544740032
 30
0.0
 40
3.00000002980232
  1
Y
 50
359.999999948034
 41
0.916666604744064
 72
     2
 11
-505.968201334635
 21
-94.3007544759875
 31
0.0
  0
INSERT
  5
   3B0
  8
0
  6
CONTINUOUS
 62
     7
  2
*UDIM487
 10
0.0
 20
0.0
 30
0.0
  0
TEXT
  5
   3B1
  8
0
  6
CONTINUOUS
 62
     7
 10
-450.4634091808
 20
16.0815201536823
 30
0.0
 40
3.00000002980232
  1
X
 50
359.999999948034
 41
0.916666604744064
 72
     2
 11
-448.26340931193
 21
16.0815201516981
 31
0.0
  0
INSERT
  5
   3B2
  8
0
  6
CONTINUOUS
 62
     7
  2
*UDIM488
 10
0.0
 20
0.0
 30
0.0
  0
INSERT
  5
   3B3
  8
0
  6
CONTINUOUS
 62
     7
  2
*UDIM489
 10
0.0
 20
0.0
 30
0.0
  0
INSERT
  5
   3B4
  8
0
  6
CONTINUOUS
 62
     7
  2
*UDIM490
 10
0.0
 20
0.0
 30
0.0
  0
INSERT
  5
   3B5
  8
0
  6
CONTINUOUS
 62
     7
  2
*UDIM491
 10
0.0
 20
0.0
 30
0.0
  0
INSERT
  5
   3B6
  8
0
  6
CONTINUOUS
 62
     7
  2
*UDIM492
 10
0.0
 20
0.0
 30
0.0
  0
INSERT
  5
   3B7
  8
0
  6
CONTINUOUS
 62
     7
  2
*UDIM493
 10
0.0
 20
0.0
 30
0.0
  0
INSERT
  5
   3B8
  8
0
  6
CONTINUOUS
 62
     7
  2
*UDIM494
 10
0.0
 20
0.0
 30
0.0
  0
INSERT
  5
   3B9
  8
0
  6
CONTINUOUS
 62
     7
  2
*UDIM495
 10
0.0
 20
0.0
 30
0.0
  0
TEXT
  5
   3BA
  8
0
  6
CONTINUOUS
 62
     1
 10
-409.308593664381
 20
-160.4258416442
 30
0.0
 40
4.00000017881393
  1
601812/321
 50
359.999999948034
 41
0.937499973922969
 72
     2
 11
-372.558593064609
 21
-160.425841677347
 31
0.0
  0
TEXT
  5
   3BB
  8
0
  6
CONTINUOUS
 62
     1
 10
-398.222900326411
 20
-151.444259501596
 30
0.0
 40
3.00000002980232
  1
 S4
 50
359.999999948034
 41
0.916666604744064
 72
     2
 11
-390.522900774439
 21
-151.444259508541
 31
0.0
  0
TEXT
  5
   3BC
  8
0
  6
CONTINUOUS
 62
     1
 10
-419.757320181439
 20
-133.133987451771
 30
0.0
 40
2.00000008940697
  1
3POLE LOW VOLTAGE M.C.C.B SERIES ISOMAX
 50
359.999999948034
 41
0.749999861419206
 72
     1
 11
-390.657324260475
 21
-132.133987433315
 31
0.0
 73
     2
  0
TEXT
  5
   3BD
  8
0
  6
CONTINUOUS
 62
     1
 10
-417.507320365465
 20
-136.133987453801
 30
0.0
 40
2.00000008940697
  1
WITHDRAWABLE VERSION FRONT TERMINALS
 50
359.999999948034
 41
0.749999861419206
 72
     1
 11
-390.657324129341
 21
-135.133987433315
 31
0.0
 73
     2
  0
TEXT
  5
   3BE
  8
0
  6
CONTINUOUS
 62
     1
 10
-416.554928548793
 20
-141.204254181492
 30
0.0
 40
2.00000008940697
  1
INTERR.AUTOMATICO SERIE ISOMAX
 50
359.999999948034
 41
0.749999861419206
 72
     1
 11
-394.20493168235
 21
-140.204254156947
 31
0.0
 73
     2
  0
TEXT
  5
   3BF
  8
0
  6
CONTINUOUS
 62
     1
 10
-427.804926841861
 20
-144.204254171345
 30
0.0
 40
2.00000008940697
  1
TRIPOL.ESECUZIONE ESTRAIBILE TERMIN.ANTERIORI
 50
359.999999948034
 41
0.749999861419206
 72
     1
 11
-394.204931551216
 21
-143.204254156947
 31
0.0
 73
     2
  0
TEXT
  5
   3C0
  8
0
  6
CONTINUOUS
 62
     7
 10
-585.772642047566
 20
16.1279680795447
 30
0.0
 40
3.00000002980232
  1
X
 50
359.999999948034
 41
0.916666604744064
 72
     1
 11
-584.672642111778
 21
17.6279680934537
 31
0.0
 73
     2
  0
TEXT
  5
   3C1
  8
0
  6
CONTINUOUS
 62
     7
 10
-508.603492648762
 20
104.633087403275
 30
0.0
 40
3.00000002980232
  1
Y
 50
359.999999948034
 41
0.916666604744064
 72
     1
 11
-507.503492712975
 21
106.133087417184
 31
0.0
 73
     2
  0
INSERT
  5
   3C2
  8
0
  6
CONTINUOUS
 62
     7
  2
*UDIM496
 10
0.0
 20
0.0
 30
0.0
  0
LINE
  5
   3C3
  8
0
  6
DOT
 62
     7
 10
-714.026182174683
 20
-8.84293937683105
 30
0.0
 11
-714.026182174683
 21
43.6570854187012
 31
0.0
  0
LINE
  5
   3C4
  8
0
  6
DOT
 62
     7
 10
-700.276182174683
 20
43.6570854187012
 30
0.0
 11
-714.026182174683
 21
43.6570854187012
 31
0.0
  0
LINE
  5
   3C5
  8
0
  6
DOT
 62
     7
 10
-700.276182174683
 20
-8.84293937683105
 30
0.0
 11
-714.026182174683
 21
-8.84293937683105
 31
0.0
  0
LINE
  5
   3C6
  8
0
  6
CONTINUOUS
 62
     2
 10
-628.276161193616
 20
58.532039642334
 30
0.0
 11
-628.276161193616
 21
68.8393516540527
 31
0.0
  0
LINE
  5
   3C7
  8
0
  6
CONTINUOUS
 62
     7
 10
-662.526191711426
 20
67.532039642334
 30
0.0
 11
-664.276191711426
 21
67.532039642334
 31
0.0
  0
LINE
  5
   3C8
  8
0
  6
CONTINUOUS
 62
     7
 10
-662.526138305309
 20
58.7820352827272
 30
0.0
 11
-662.526138305309
 21
67.5320352827272
 31
0.0
  0
LINE
  5
   3C9
  8
0
  6
CONTINUOUS
 62
     7
 10
-628.276191711426
 20
59.782039642334
 30
0.0
 11
-630.276191711426
 21
59.782039642334
 31
0.0
  0
LINE
  5
   3CA
  8
0
  6
CONTINUOUS
 62
     7
 10
-630.276192982809
 20
59.7820332935357
 30
0.0
 11
-630.276240920901
 21
78.6320628357349
 31
0.0
  0
LINE
  5
   3CB
  8
0
  6
CONTINUOUS
 62
     2
 10
-628.026206970215
 20
58.532039642334
 30
0.0
 11
-628.276191711426
 21
58.532039642334
 31
0.0
  0
LINE
  5
   3CC
  8
0
  6
CONTINUOUS
 62
     2
 10
-627.276206970215
 20
66.532039642334
 30
0.0
 11
-628.276206970215
 21
66.532039642334
 31
0.0
  0
LINE
  5
   3CD
  8
0
  6
CONTINUOUS
 62
     2
 10
-627.276206970215
 20
72.032039642334
 30
0.0
 11
-628.276206970215
 21
72.032039642334
 31
0.0
  0
LINE
  5
   3CE
  8
0
  6
CONTINUOUS
 62
     2
 10
-627.276206970215
 20
70.6878623962402
 30
0.0
 11
-628.276206970215
 21
70.6878623962402
 31
0.0
  0
LINE
  5
   3CF
  8
0
  6
CONTINUOUS
 62
     2
 10
-627.276206970215
 20
68.8393516540527
 30
0.0
 11
-628.276206970215
 21
68.8393516540527
 31
0.0
  0
LINE
  5
   3D0
  8
0
  6
CONTINUOUS
 62
     7
 10
-664.276191711426
 20
67.2820491027655
 30
0.0
 11
-664.276191711426
 21
67.7820567321601
 31
0.0
  0
LINE
  5
   3D1
  8
0
  6
CONTINUOUS
 62
     7
 10
-675.376190185547
 20
67.7820567321601
 30
0.0
 11
-675.526191711426
 21
67.7820567321601
 31
0.0
  0
LINE
  5
   3D2
  8
0
  6
CONTINUOUS
 62
     7
 10
-662.776191711426
 20
67.2820643615546
 30
0.0
 11
-664.276191711426
 21
67.2820643615546
 31
0.0
  0
LINE
  5
   3D3
  8
0
  6
CONTINUOUS
 62
     7
 10
-662.776191711426
 20
55.032054901123
 30
0.0
 11
-662.776191711426
 21
67.2820643615546
 31
0.0
  0
LINE
  5
   3D4
  8
0
  6
CONTINUOUS
 62
     7
 10
-675.376174926757
 20
55.032054901123
 30
0.0
 11
-675.376174926757
 21
67.7820504757674
 31
0.0
  0
LINE
  5
   3D5
  8
0
  6
CONTINUOUS
 62
     2
 10
-628.276161193616
 20
78.6320628356757
 30
0.0
 11
-675.376197814941
 21
78.6320628356757
 31
0.0
  0
LINE
  5
   3D6
  8
0
  6
CONTINUOUS
 62
     2
 10
-675.376144409173
 20
67.782053286677
 30
0.0
 11
-675.376144409173
 21
78.6320593901927
 31
0.0
  0
LINE
  5
   3D7
  8
0
  6
CONTINUOUS
 62
     7
 10
-664.276191711426
 20
67.7820643615546
 30
0.0
 11
-664.276191711426
 21
78.6320628356757
 31
0.0
  0
LINE
  5
   3D8
  8
0
  6
CONTINUOUS
 62
     7
 10
-678.02619934082
 20
-16.9679051208673
 30
0.0
 11
-678.02619934082
 21
-14.9679565429688
 31
0.0
  0
LINE
  5
   3D9
  8
0
  6
CONTINUOUS
 62
     7
 10
-678.02619934082
 20
55.032054901123
 30
0.0
 11
-678.02619934082
 21
67.7820796203437
 31
0.0
  0
LINE
  5
   3DA
  8
0
  6
CONTINUOUS
 62
     7
 10
-675.52619934082
 20
67.7820796203437
 30
0.0
 11
-678.02619934082
 21
67.7820796203437
 31
0.0
  0
LINE
  5
   3DB
  8
0
  6
CONTINUOUS
 62
     7
 10
-675.52619934082
 20
-16.9679051208673
 30
0.0
 11
-678.02619934082
 21
-16.9679051208673
 31
0.0
  0
LINE
  5
   3DC
  8
0
  6
CONTINUOUS
 62
   218
 10
-628.276206493378
 20
-45.5679055023372
 30
0.0
 11
-675.376197338104
 21
-45.5679055023372
 31
0.0
  0
LINE
  5
   3DD
  8
0
  6
CONTINUOUS
 62
   218
 10
-675.376201342907
 20
-32.9679127507098
 30
0.0
 11
-675.52619934037
 21
-32.967910990108
 31
0.0
  0
LINE
  5
   3DE
  8
0
  6
CONTINUOUS
 62
   218
 10
-675.376205444336
 20
-34.967912750262
 30
0.0
 11
-677.52619934082
 21
-34.967912750262
 31
0.0
  0
LINE
  5
   3DF
  8
0
  6
CONTINUOUS
 62
   218
 10
-675.376205444336
 20
-45.5679035949886
 30
0.0
 11
-675.376205444336
 21
-32.9679051208675
 31
0.0
  0
LINE
  5
   3E0
  8
0
  6
CONTINUOUS
 62
   218
 10
-675.376205444336
 20
-32.9679051208675
 30
0.0
 11
-675.376205444336
 21
-16.9679546356201
 31
0.0
  0
LINE
  5
   3E1
  8
0
  6
CONTINUOUS
 62
     7
 10
-675.376205444336
 20
-17.4679051208675
 30
0.0
 11
-675.52619934082
 21
-17.4679051208675
 31
0.0
  0
LINE
  5
   3E2
  8
0
  6
CONTINUOUS
 62
   218
 10
-627.276206970053
 20
-29.9679127497673
 30
0.0
 11
-628.276206493193
 21
-29.9679051203727
 31
0.0
  0
LINE
  5
   3E3
  8
0
  6
CONTINUOUS
 62
   218
 10
-628.276206493378
 20
-48.2179051208673
 30
0.0
 11
-628.276206493378
 21
-29.9679127502618
 31
0.0
  0
LINE
  5
   3E4
  8
0
  6
CONTINUOUS
 62
   218
 10
-627.276206970215
 20
-35.342912750262
 30
0.0
 11
-628.276206970215
 21
-35.342912750262
 31
0.0
  0
LINE
  5
   3E5
  8
0
  6
CONTINUOUS
 62
   218
 10
-627.276206970215
 20
-39.7017083931148
 30
0.0
 11
-628.276206970215
 21
-39.7017083931148
 31
0.0
  0
LINE
  5
   3E6
  8
0
  6
CONTINUOUS
 62
   218
 10
-627.276206970215
 20
-38.4752140808284
 30
0.0
 11
-628.276206970215
 21
-38.4752140808284
 31
0.0
  0
LINE
  5
   3E7
  8
0
  6
CONTINUOUS
 62
     7
 10
-675.52619934082
 20
-17.2179051208673
 30
0.0
 11
-678.02619934082
 21
-17.2179051208673
 31
0.0
  0
LINE
  5
   3E8
  8
0
  6
CONTINUOUS
 62
     7
 10
-675.52619934082
 20
-34.7179051208673
 30
0.0
 11
-678.02619934082
 21
-34.7179051208673
 31
0.0
  0
LINE
  5
   3E9
  8
0
  6
CONTINUOUS
 62
     7
 10
-678.02619934082
 20
-34.7179051208673
 30
0.0
 11
-678.02619934082
 21
-17.2179051208673
 31
0.0
  0
LINE
  5
   3EA
  8
0
  6
CONTINUOUS
 62
     7
 10
-677.02619934082
 20
-34.7179051208673
 30
0.0
 11
-677.02619934082
 21
-17.2179051208673
 31
0.0
  0
LINE
  5
   3EB
  8
0
  6
CONTINUOUS
 62
     7
 10
-675.52619934082
 20
-34.7179051208673
 30
0.0
 11
-675.52619934082
 21
-17.2179051208673
 31
0.0
  0
LINE
  5
   3EC
  8
0
  6
CONTINUOUS
 62
     2
 10
-628.276161193616
 20
70.6878623962402
 30
0.0
 11
-628.276161193616
 21
81.2820625305176
 31
0.0
  0
LINE
  5
   3ED
  8
0
  6
CONTINUOUS
 62
     7
 10
-627.276206970215
 20
66.532039642334
 30
0.0
 11
-627.276206970215
 21
72.032039642334
 31
0.0
  0
LINE
  5
   3EE
  8
0
  6
CONTINUOUS
 62
     7
 10
-627.276206970215
 20
-39.7017083931155
 30
0.0
 11
-627.276206970215
 21
-35.3429127502627
 31
0.0
  0
LINE
  5
   3EF
  8
0
  6
CONTINUOUS
 62
     7
 10
-603.276184082031
 20
64.7820625305176
 30
0.0
 11
-603.276184082031
 21
77.2820625305176
 31
0.0
  0
LINE
  5
   3F0
  8
0
  6
CONTINUOUS
 62
     7
 10
-603.276184082031
 20
-44.2179293632507
 30
0.0
 11
-603.276184082031
 21
-31.7179369926453
 31
0.0
  0
LINE
  5
   3F1
  8
0
  6
CONTINUOUS
 62
     7
 10
-608.776187950939
 20
-46.9679222106926
 30
0.0
 11
-627.276210839122
 21
-46.9679222106926
 31
0.0
  0
LINE
  5
   3F2
  8
0
  6
CONTINUOUS
 62
     7
 10
-608.776184082031
 20
80.0320625305176
 30
0.0
 11
-627.276206970215
 21
80.0320625305176
 31
0.0
  0
LINE
  5
   3F3
  8
0
  6
CONTINUOUS
 62
     7
 10
-627.276206970215
 20
-37.967945098877
 30
0.0
 11
-627.276206970215
 21
-17.3429565429688
 31
0.0
  0
LINE
  5
   3F4
  8
0
  6
CONTINUOUS
 62
     7
 10
-627.276206970215
 20
-46.967945098877
 30
0.0
 11
-627.276206970215
 21
-45.5679206848145
 31
0.0
  0
LINE
  5
   3F5
  8
0
  6
CONTINUOUS
 62
     7
 10
-627.276206970215
 20
78.6320762634277
 30
0.0
 11
-627.276206970215
 21
80.0320625305176
 31
0.0
  0
LINE
  5
   3F6
  8
0
  6
CONTINUOUS
 62
     7
 10
-627.276206970215
 20
55.032054901123
 30
0.0
 11
-627.276206970215
 21
71.0320777893066
 31
0.0
  0
LINE
  5
   3F7
  8
0
  6
CONTINUOUS
 62
     7
 10
-608.776184082031
 20
78.6320533752441
 30
0.0
 11
-608.776184082031
 21
80.0320625305176
 31
0.0
  0
LINE
  5
   3F8
  8
0
  6
CONTINUOUS
 62
     7
 10
-608.776184082031
 20
-46.9679527282715
 30
0.0
 11
-608.776184082031
 21
-45.5679316520691
 31
0.0
  0
LINE
  5
   3F9
  8
0
  6
CONTINUOUS
 62
     7
 10
-608.776184082031
 20
-37.967960357666
 30
0.0
 11
-608.776184082031
 21
-31.7179298400879
 31
0.0
  0
LINE
  5
   3FA
  8
0
  6
CONTINUOUS
 62
     7
 10
-602.526184082031
 20
46.5320625305176
 30
0.0
 11
-602.526184082031
 21
54.0320625305176
 31
0.0
  0
LINE
  5
   3FB
  8
0
  6
CONTINUOUS
 62
     7
 10
-602.526184082031
 20
-20.9679069519043
 30
0.0
 11
-602.526184082031
 21
-13.4679069519043
 31
0.0
  0
LINE
  5
   3FC
  8
0
  6
CONTINUOUS
 62
     7
 10
-603.526184082031
 20
3.20396423339844E-2
 30
0.0
 11
-604.526185205741
 21
3.20396423339844E-2
 31
0.0
  0
LINE
  5
   3FD
  8
0
  6
CONTINUOUS
 62
     7
 10
-603.526184082031
 20
3.53203201293945
 30
0.0
 11
-604.526185619738
 21
3.53203201293945
 31
0.0
  0
LINE
  5
   3FE
  8
0
  6
CONTINUOUS
 62
     7
 10
-608.776184082031
 20
78.6320686340332
 30
0.0
 11
-627.276206970215
 21
78.6320686340332
 31
0.0
  0
LINE
  5
   3FF
  8
0
  6
CONTINUOUS
 62
     7
 10
-627.276206970215
 20
71.0320625305176
 30
0.0
 11
-627.276206970215
 21
78.6320686340332
 31
0.0
  0
LINE
  5
   400
  8
0
  6
CONTINUOUS
 62
     7
 10
-608.776184082031
 20
71.0320701599121
 30
0.0
 11
-608.776184082031
 21
77.2820625305176
 31
0.0
  0
LINE
  5
   401
  8
0
  6
CONTINUOUS
 62
     7
 10
-608.776184082031
 20
-45.5679297447205
 30
0.0
 11
-627.276206970215
 21
-45.5679297447205
 31
0.0
  0
LINE
  5
   402
  8
0
  6
CONTINUOUS
 62
     7
 10
-627.276206970215
 20
-45.5679297447205
 30
0.0
 11
-627.276206970215
 21
-37.9679527282715
 31
0.0
  0
LINE
  5
   403
  8
0
  6
CONTINUOUS
 62
     7
 10
-608.776184082031
 20
-45.5679297447205
 30
0.0
 11
-608.776184082031
 21
-44.2179293632507
 31
0.0
  0
LINE
  5
   404
  8
0
  6
CONTINUOUS
 62
     3
 10
-602.776184082031
 20
-12.967945098877
 30
0.0
 11
-603.526184082031
 21
-12.967945098877
 31
0.0
  0
LINE
  5
   405
  8
0
  6
CONTINUOUS
 62
     3
 10
-602.776184082031
 20
-21.467945098877
 30
0.0
 11
-603.526184082031
 21
-21.467945098877
 31
0.0
  0
LINE
  5
   406
  8
0
  6
CONTINUOUS
 62
     3
 10
-602.776184082031
 20
-26.967945098877
 30
0.0
 11
-603.526184082031
 21
-26.967945098877
 31
0.0
  0
LINE
  5
   407
  8
0
  6
CONTINUOUS
 62
     3
 10
-602.776184082031
 20
60.032054901123
 30
0.0
 11
-603.526184082031
 21
60.032054901123
 31
0.0
  0
LINE
  5
   408
  8
0
  6
CONTINUOUS
 62
     3
 10
-602.776184082031
 20
54.5320549011231
 30
0.0
 11
-603.526184082031
 21
54.5320549011231
 31
0.0
  0
LINE
  5
   409
  8
0
  6
CONTINUOUS
 62
     3
 10
-602.776184082031
 20
46.032054901123
 30
0.0
 11
-603.526184082031
 21
46.032054901123
 31
0.0
  0
LINE
  5
   40A
  8
0
  6
CONTINUOUS
 62
     3
 10
-603.526184082031
 20
54.0320625305176
 30
0.0
 11
-603.526184082031
 21
60.032054901123
 31
0.0
  0
LINE
  5
   40B
  8
0
  6
CONTINUOUS
 62
     3
 10
-603.526184082031
 20
-13.4678688049316
 30
0.0
 11
-603.526184082031
 21
46.5320777893066
 31
0.0
  0
LINE
  5
   40C
  8
0
  6
CONTINUOUS
 62
     3
 10
-603.526184082031
 20
-26.967945098877
 30
0.0
 11
-603.526184082031
 21
-20.9678688049316
 31
0.0
  0
LINE
  5
   40D
  8
0
  6
CONTINUOUS
 62
     3
 10
-602.776184082031
 20
-26.967945098877
 30
0.0
 11
-602.776184082031
 21
-20.9679145812988
 31
0.0
  0
LINE
  5
   40E
  8
0
  6
CONTINUOUS
 62
     3
 10
-602.776184082031
 20
-13.4679222106934
 30
0.0
 11
-602.776184082031
 21
46.5320091247559
 31
0.0
  0
LINE
  5
   40F
  8
0
  6
CONTINUOUS
 62
     3
 10
-602.776184082031
 20
54.0320243835449
 30
0.0
 11
-602.776184082031
 21
60.032054901123
 31
0.0
  0
LINE
  5
   410
  8
0
  6
CONTINUOUS
 62
     3
 10
-602.776184082031
 20
64.5320320129395
 30
0.0
 11
-602.776184082031
 21
77.5320320129395
 31
0.0
  0
LINE
  5
   411
  8
0
  6
CONTINUOUS
 62
     3
 10
-606.776191711426
 20
77.2820625305176
 30
0.0
 11
-606.776191711426
 21
78.0320320129395
 31
0.0
  0
LINE
  5
   412
  8
0
  6
CONTINUOUS
 62
     3
 10
-606.776191711426
 20
64.0320320129395
 30
0.0
 11
-606.776191711426
 21
64.7820777893066
 31
0.0
  0
LINE
  5
   413
  8
0
  6
CONTINUOUS
 62
     3
 10
-618.026206970215
 20
-49.7179374694824
 30
0.0
 11
-620.526206970215
 21
-49.7179374694824
 31
0.0
  0
LINE
  5
   414
  8
0
  6
CONTINUOUS
 62
     3
 10
-618.026206970215
 20
-59.7179374694824
 30
0.0
 11
-620.526206970215
 21
-59.7179374694824
 31
0.0
  0
LINE
  5
   415
  8
0
  6
CONTINUOUS
 62
     3
 10
-620.526206970215
 20
-59.7179374694824
 30
0.0
 11
-620.526206970215
 21
-46.9679298400879
 31
0.0
  0
LINE
  5
   416
  8
0
  6
CONTINUOUS
 62
     3
 10
-618.026206970215
 20
-59.7179374694824
 30
0.0
 11
-618.026206970215
 21
-46.9679374694824
 31
0.0
  0
LINE
  5
   417
  8
0
  6
CONTINUOUS
 62
     7
 10
-606.776191711426
 20
77.2820625305176
 30
0.0
 11
-608.776184082031
 21
77.2820625305176
 31
0.0
  0
LINE
  5
   418
  8
0
  6
CONTINUOUS
 62
     7
 10
-608.276206970215
 20
64.7820625305176
 30
0.0
 11
-608.776184082031
 21
64.7820625305176
 31
0.0
  0
LINE
  5
   419
  8
0
  6
CONTINUOUS
 62
     7
 10
-606.776191711426
 20
64.7820625305176
 30
0.0
 11
-608.276206970215
 21
64.7820625305176
 31
0.0
  0
LINE
  5
   41A
  8
0
  6
CONTINUOUS
 62
     7
 10
-606.776191711426
 20
-44.2179293632507
 30
0.0
 11
-608.776184082031
 21
-44.2179293632507
 31
0.0
  0
LINE
  5
   41B
  8
0
  6
CONTINUOUS
 62
     7
 10
-606.776191711426
 20
-31.7179298400879
 30
0.0
 11
-608.276206970215
 21
-31.7179298400879
 31
0.0
  0
LINE
  5
   41C
  8
0
  6
CONTINUOUS
 62
     7
 10
-608.276206970215
 20
-31.7179298400879
 30
0.0
 11
-608.776184082031
 21
-31.7179298400879
 31
0.0
  0
LINE
  5
   41D
  8
0
  6
CONTINUOUS
 62
     7
 10
-602.526184082031
 20
54.0320625305176
 30
0.0
 11
-604.526191593141
 21
54.0320625305176
 31
0.0
  0
LINE
  5
   41E
  8
0
  6
CONTINUOUS
 62
     7
 10
-602.526184082031
 20
46.5320625305176
 30
0.0
 11
-604.526190706002
 21
46.5320625305176
 31
0.0
  0
LINE
  5
   41F
  8
0
  6
CONTINUOUS
 62
     7
 10
-602.526184082031
 20
-13.4679069519043
 30
0.0
 11
-604.526189630408
 21
-13.4679069519043
 31
0.0
  0
LINE
  5
   420
  8
0
  6
CONTINUOUS
 62
     7
 10
-602.526184082031
 20
-20.9679069519043
 30
0.0
 11
-608.776184082031
 21
-20.9679069519043
 31
0.0
  0
LINE
  5
   421
  8
0
  6
CONTINUOUS
 62
     3
 10
-602.776239347284
 20
77.5319980176646
 30
0.0
 11
-603.27623933017
 21
78.0319980005503
 31
0.0
  0
LINE
  5
   422
  8
0
  6
CONTINUOUS
 62
     3
 10
-603.276148983968
 20
64.0320759245772
 30
0.0
 11
-602.776149001083
 21
64.5320759074629
 31
0.0
  0
LINE
  5
   423
  8
0
  6
CONTINUOUS
 62
     3
 10
-603.276184082031
 20
78.0320320129395
 30
0.0
 11
-606.776191711426
 21
78.0320320129395
 31
0.0
  0
LINE
  5
   424
  8
0
  6
CONTINUOUS
 62
     3
 10
-603.276184082031
 20
64.0320320129395
 30
0.0
 11
-606.776191711426
 21
64.0320320129395
 31
0.0
  0
LINE
  5
   425
  8
0
  6
CONTINUOUS
 62
     3
 10
-620.526206970215
 20
80.032054901123
 30
0.0
 11
-620.526206970215
 21
92.7820625305175
 31
0.0
  0
LINE
  5
   426
  8
0
  6
CONTINUOUS
 62
     3
 10
-618.026206970215
 20
80.0320625305176
 30
0.0
 11
-618.026206970215
 21
92.7820625305175
 31
0.0
  0
LINE
  5
   427
  8
0
  6
CONTINUOUS
 62
     3
 10
-618.026206970215
 20
92.7820625305175
 30
0.0
 11
-620.526206970215
 21
92.7820625305175
 31
0.0
  0
LINE
  5
   428
  8
0
  6
CONTINUOUS
 62
     3
 10
-618.026206970215
 20
82.7820625305176
 30
0.0
 11
-620.526206970215
 21
82.7820625305176
 31
0.0
  0
LINE
  5
   429
  8
0
  6
CONTINUOUS
 62
     7
 10
-606.776191711426
 20
-44.9679069519043
 30
0.0
 11
-606.776191711426
 21
-44.2179374694824
 31
0.0
  0
LINE
  5
   42A
  8
0
  6
CONTINUOUS
 62
     3
 10
-603.276184082031
 20
-44.9679069519043
 30
0.0
 11
-606.776191711426
 21
-44.9679069519043
 31
0.0
  0
LINE
  5
   42B
  8
0
  6
CONTINUOUS
 62
     3
 10
-603.27623933017
 20
-44.9678729395151
 30
0.0
 11
-602.776239347284
 21
-44.4678729566294
 31
0.0
  0
LINE
  5
   42C
  8
0
  6
CONTINUOUS
 62
     3
 10
-602.776184082031
 20
-44.4679069519043
 30
0.0
 11
-602.776184082031
 21
-31.4679069519043
 31
0.0
  0
LINE
  5
   42D
  8
0
  6
CONTINUOUS
 62
     3
 10
-602.776149001083
 20
-31.4679508464277
 30
0.0
 11
-603.276148983968
 21
-30.967950863542
 31
0.0
  0
LINE
  5
   42E
  8
0
  6
CONTINUOUS
 62
     3
 10
-603.276184082031
 20
-30.9679069519043
 30
0.0
 11
-606.776191711426
 21
-30.9679069519043
 31
0.0
  0
LINE
  5
   42F
  8
0
  6
CONTINUOUS
 62
     3
 10
-606.776191711426
 20
-31.7179527282715
 30
0.0
 11
-606.776191711426
 21
-30.9679069519043
 31
0.0
  0
LINE
  5
   430
  8
0
  6
DASHDOT
 62
     7
 10
-602.526184082031
 20
-13.4679069519043
 30
0.0
 11
-602.526184082031
 21
46.5320625305176
 31
0.0
  0
LINE
  5
   431
  8
0
  6
DASHDOT
 62
     7
 10
-602.526184082031
 20
-64.2804689294814
 30
0.0
 11
-602.526184082031
 21
-20.9679069519043
 31
0.0
  0
LINE
  5
   432
  8
0
  6
DASHDOT
 62
     7
 10
-602.526184082031
 20
54.0320625305176
 30
0.0
 11
-602.526184082031
 21
87.637542485671
 31
0.0
  0
LINE
  5
   433
  8
0
  6
DASHDOT
 62
     7
 10
-601.026184082031
 20
-62.6451835536455
 30
0.0
 11
-601.026184082031
 21
88.2916566360054
 31
0.0
  0
LINE
  5
   434
  8
0
  6
CONTINUOUS
 62
     7
 10
-606.534415939612
 20
87.8622617792769
 30
0.0
 11
-596.930020033256
 21
89.2542032149806
 31
0.0
  0
LINE
  5
   435
  8
0
  6
CONTINUOUS
 62
     7
 10
-606.951998370322
 20
-65.1816990763527
 30
0.0
 11
-597.904379038248
 21
-60.7274864821006
 31
0.0
  0
LINE
  5
   436
  8
0
  6
CONTINUOUS
 62
     7
 10
-603.276184082031
 20
77.2820625305176
 30
0.0
 11
-606.776191711426
 21
77.2820625305176
 31
0.0
  0
LINE
  5
   437
  8
0
  6
CONTINUOUS
 62
     7
 10
-608.776184082031
 20
77.2820625305176
 30
0.0
 11
-608.776184082031
 21
78.6320686340332
 31
0.0
  0
LINE
  5
   438
  8
0
  6
CONTINUOUS
 62
     7
 10
-608.776184082031
 20
64.7820625305176
 30
0.0
 11
-608.776184082031
 21
71.0320320129395
 31
0.0
  0
LINE
  5
   439
  8
0
  6
CONTINUOUS
 62
     7
 10
-603.276184082031
 20
64.7820625305176
 30
0.0
 11
-606.776191711426
 21
64.7820625305176
 31
0.0
  0
LINE
  5
   43A
  8
0
  6
CONTINUOUS
 62
     7
 10
-608.776184082031
 20
55.032054901123
 30
0.0
 11
-608.776184082031
 21
64.7820625305176
 31
0.0
  0
LINE
  5
   43B
  8
0
  6
CONTINUOUS
 62
     7
 10
-608.776184082031
 20
-20.9679069519043
 30
0.0
 11
-608.776184082031
 21
-14.9680701288046
 31
0.0
  0
LINE
  5
   43C
  8
0
  6
CONTINUOUS
 62
     7
 10
-608.776184082031
 20
-31.7179298400879
 30
0.0
 11
-608.776184082031
 21
-20.9679069519043
 31
0.0
  0
LINE
  5
   43D
  8
0
  6
CONTINUOUS
 62
     7
 10
-603.276184082031
 20
-31.7179298400879
 30
0.0
 11
-606.776191711426
 21
-31.7179298400879
 31
0.0
  0
LINE
  5
   43E
  8
0
  6
CONTINUOUS
 62
     7
 10
-603.276184082031
 20
-44.2179293632507
 30
0.0
 11
-606.776191711426
 21
-44.2179293632507
 31
0.0
  0
LINE
  5
   43F
  8
0
  6
CONTINUOUS
 62
     7
 10
-608.776184082031
 20
-44.2179293632507
 30
0.0
 11
-608.776184082031
 21
-37.9679527282715
 31
0.0
  0
LINE
  5
   440
  8
0
  6
DASHDOT
 62
     7
 10
-596.121882527569
 20
50.2820625305176
 30
0.0
 11
-611.49092143974
 21
50.2820625305176
 31
0.0
  0
LINE
  5
   441
  8
0
  6
DASHDOT
 62
     7
 10
-596.403883241554
 20
-17.2179374694824
 30
0.0
 11
-612.61892429568
 21
-17.2179374694824
 31
0.0
  0
CIRCLE
  5
   442
  8
0
  6
CONTINUOUS
 62
     7
 10
-619.08883943221
 20
87.2114916419126
 30
0.0
 40
0.1
  0
LINE
  5
   443
  8
0
  6
DASHDOT
 62
     7
 10
-612.738073927237
 20
-54.7179374694824
 30
0.0
 11
-625.078765988036
 21
-54.7179374694824
 31
0.0
  0
LINE
  5
   444
  8
0
  6
DASHDOT
 62
     7
 10
-612.665906137408
 20
87.7820625305175
 30
0.0
 11
-626.377786204963
 21
87.7820625305175
 31
0.0
  0
LINE
  5
   445
  8
0
  6
CONTINUOUS
 62
   130
 10
-692.026150704528
 20
-9.46796226033932
 30
0.0
 11
-692.026176453736
 21
-7.46794890893869
 31
0.0
  0
LINE
  5
   446
  8
0
  6
CONTINUOUS
 62
   130
 10
-692.026176453655
 20
-14.9679603538081
 30
0.0
 11
-692.026151658123
 21
-12.9679679833267
 31
0.0
  0
LINE
  5
   447
  8
0
  6
CONTINUOUS
 62
   130
 10
-626.276206762241
 20
-14.9680194406758
 30
0.0
 11
-627.276206762241
 21
-14.9679564981709
 31
0.0
  0
LINE
  5
   448
  8
0
  6
CONTINUOUS
 62
   130
 10
-629.776214599609
 20
-14.9679565429688
 30
0.0
 11
-689.526176452637
 21
-14.9679565429688
 31
0.0
  0
LINE
  5
   449
  8
0
  6
CONTINUOUS
 62
   130
 10
-604.526191711426
 20
55.032054901123
 30
0.0
 11
-626.276214599609
 21
55.032054901123
 31
0.0
  0
LINE
  5
   44A
  8
0
  6
CONTINUOUS
 62
   130
 10
-604.526191710431
 20
-14.9680824278838
 30
0.0
 11
-626.276206970162
 21
-14.9680194853801
 31
0.0
  0
LINE
  5
   44B
  8
0
  6
CONTINUOUS
 62
   130
 10
-604.526191711354
 20
-14.9680824304537
 30
0.0
 11
-604.52618408196
 21
-9.46797371339673
 31
0.0
  0
LINE
  5
   44C
  8
0
  6
CONTINUOUS
 62
     7
 10
-646.776184082031
 20
39.0320625305176
 30
0.0
 11
-692.026176452637
 21
39.0320625305176
 31
0.0
  0
LINE
  5
   44D
  8
0
  6
CONTINUOUS
 62
     7
 10
-646.776184082031
 20
24.0320358276367
 30
0.0
 11
-692.026176452637
 21
24.0320358276367
 31
0.0
  0
LINE
  5
   44E
  8
0
  6
CONTINUOUS
 62
   130
 10
-692.026158365096
 20
-12.9679679870587
 30
0.0
 11
-692.026158365096
 21
-9.46796226501282
 31
0.0
  0
LINE
  5
   44F
  8
0
  6
CONTINUOUS
 62
   130
 10
-626.276214599609
 20
55.032054901123
 30
0.0
 11
-692.026176452637
 21
55.032054901123
 31
0.0
  0
LINE
  5
   450
  8
0
  6
CONTINUOUS
 62
   130
 10
-692.026176452637
 20
39.0320625305176
 30
0.0
 11
-692.026176452637
 21
55.032054901123
 31
0.0
  0
LINE
  5
   451
  8
0
  6
CONTINUOUS
 62
     7
 10
-640.901214596863
 20
-12.9679374694418
 30
0.0
 11
-628.27620696791
 21
-12.9679145812584
 31
0.0
  0
LINE
  5
   452
  8
0
  6
CONTINUOUS
 62
     7
 10
-642.901214599596
 20
-12.9679597369912
 30
0.0
 11
-661.338684082017
 21
-12.9679597369912
 31
0.0
  0
LINE
  5
   453
  8
0
  6
CONTINUOUS
 62
     7
 10
-663.338683128351
 20
-12.9679588434291
 30
0.0
 11
-690.026122093194
 21
-12.9679588434291
 31
0.0
  0
LINE
  5
   454
  8
0
  6
CONTINUOUS
 62
     7
 10
-663.338682174676
 20
-10.7179550287347
 30
0.0
 11
-690.026117324823
 21
-10.7179550287347
 31
0.0
  0
LINE
  5
   455
  8
0
  6
CONTINUOUS
 62
     7
 10
-642.901210784898
 20
-10.7179540149461
 30
0.0
 11
-661.338682174669
 21
-10.7179540149461
 31
0.0
  0
LINE
  5
   456
  8
0
  6
CONTINUOUS
 62
     7
 10
-628.276206970197
 20
-10.7179527282535
 30
0.0
 11
-640.901210784894
 21
-10.7179527282535
 31
0.0
  0
LINE
  5
   457
  8
0
  6
CONTINUOUS
 62
     7
 10
-690.026122093217
 20
-12.9679660771589
 30
0.0
 11
-690.02611827852
 21
-10.7179622624202
 31
0.0
  0
LINE
  5
   458
  8
0
  6
CONTINUOUS
 62
     7
 10
-628.276206970215
 20
-12.9679145812988
 30
0.0
 11
-628.276206970215
 21
-10.7179222106934
 31
0.0
  0
LINE
  5
   459
  8
0
  6
CONTINUOUS
 62
     7
 10
-640.901214599555
 20
-12.9679374768223
 30
0.0
 11
-640.901210784858
 21
-10.7179184037206
 31
0.0
  0
LINE
  5
   45A
  8
0
  6
CONTINUOUS
 62
     7
 10
-642.901214599558
 20
-12.9679374730596
 30
0.0
 11
-642.901210784861
 21
-10.7179203068721
 31
0.0
  0
LINE
  5
   45B
  8
0
  6
CONTINUOUS
 62
     7
 10
-661.338704951236
 20
-12.9679489135549
 30
0.0
 11
-661.338704951236
 21
-10.7179317474172
 31
0.0
  0
LINE
  5
   45C
  8
0
  6
CONTINUOUS
 62
     7
 10
-663.338703997579
 20
-12.9679489135565
 30
0.0
 11
-663.338703997579
 21
-10.7179336547675
 31
0.0
  0
LINE
  5
   45D
  8
0
  6
CONTINUOUS
 62
   130
 10
-676.026177167893
 20
-16.9679546356201
 30
0.0
 11
-676.026177167893
 21
-14.9679546356201
 31
0.0
  0
LINE
  5
   45E
  8
0
  6
CONTINUOUS
 62
   130
 10
-674.026176929474
 20
-16.9679546356201
 30
0.0
 11
-674.026176929474
 21
-14.9679546356201
 31
0.0
  0
LINE
  5
   45F
  8
0
  6
CONTINUOUS
 62
   130
 10
-674.026176929474
 20
-16.9679546356201
 30
0.0
 11
-676.026177167893
 21
-16.9679546356201
 31
0.0
  0
LINE
  5
   460
  8
0
  6
CONTINUOUS
 62
   130
 10
-634.151176452637
 20
-16.9679279327393
 30
0.0
 11
-634.151176452637
 21
-14.9679641723633
 31
0.0
  0
LINE
  5
   461
  8
0
  6
CONTINUOUS
 62
   130
 10
-632.151176452637
 20
-16.9679279327393
 30
0.0
 11
-632.151176452637
 21
-14.9679641723633
 31
0.0
  0
LINE
  5
   462
  8
0
  6
CONTINUOUS
 62
   130
 10
-632.151176452637
 20
-16.9679279327393
 30
0.0
 11
-634.151176452637
 21
-16.9679279327393
 31
0.0
  0
LINE
  5
   463
  8
0
  6
CONTINUOUS
 62
   130
 10
-689.526176452637
 20
-17.3429565429688
 30
0.0
 11
-689.526176452637
 21
-16.0929565429688
 31
0.0
  0
LINE
  5
   464
  8
0
  6
CONTINUOUS
 62
   130
 10
-692.026176452637
 20
-17.3429565429688
 30
0.0
 11
-692.026176452637
 21
-14.967960357666
 31
0.0
  0
LINE
  5
   465
  8
0
  6
CONTINUOUS
 62
   130
 10
-689.526176452637
 20
-17.3429565429688
 30
0.0
 11
-692.026176452637
 21
-17.3429565429688
 31
0.0
  0
LINE
  5
   466
  8
0
  6
CONTINUOUS
 62
   130
 10
-689.526176452637
 20
-16.0929565429688
 30
0.0
 11
-689.526176452637
 21
-14.9679565429688
 31
0.0
  0
LINE
  5
   467
  8
0
  6
CONTINUOUS
 62
   130
 10
-629.776222229004
 20
-17.3429565429688
 30
0.0
 11
-629.776222229004
 21
-16.0929565429688
 31
0.0
  0
LINE
  5
   468
  8
0
  6
CONTINUOUS
 62
   130
 10
-627.276222229004
 20
-17.3429565429688
 30
0.0
 11
-629.776222229004
 21
-17.3429565429688
 31
0.0
  0
LINE
  5
   469
  8
0
  6
CONTINUOUS
 62
   130
 10
-627.276222227941
 20
-17.3429565445639
 30
0.0
 11
-627.276206969152
 21
-14.9679565445865
 31
0.0
  0
LINE
  5
   46A
  8
0
  6
CONTINUOUS
 62
   130
 10
-629.776222227877
 20
-16.0929565428861
 30
0.0
 11
-629.776214598483
 21
-14.9679641724719
 31
0.0
  0
LINE
  5
   46B
  8
0
  6
CONTINUOUS
 62
     7
 10
-688.52618020187
 20
44.7820711582208
 30
0.0
 11
-690.026180234821
 21
46.2820711911717
 31
0.0
  0
LINE
  5
   46C
  8
0
  6
CONTINUOUS
 62
   130
 10
-692.026176452637
 20
-7.46794891357422
 30
0.0
 11
-692.026176452637
 21
24.0320472717285
 31
0.0
  0
LINE
  5
   46D
  8
0
  6
CONTINUOUS
 62
     7
 10
-646.776184082031
 20
24.0320358276367
 30
0.0
 11
-646.776184082031
 21
39.0320625305176
 31
0.0
  0
LINE
  5
   46E
  8
0
  6
CONTINUOUS
 62
     7
 10
-684.276176929474
 20
38.7820625305176
 30
0.0
 11
-684.276176929474
 21
39.0320625305176
 31
0.0
  0
LINE
  5
   46F
  8
0
  6
CONTINUOUS
 62
     7
 10
-628.276206970197
 20
48.4070320129553
 30
0.0
 11
-640.901214599591
 21
48.4070320129553
 31
0.0
  0
LINE
  5
   470
  8
0
  6
CONTINUOUS
 62
     7
 10
-640.901214599609
 20
44.782054901123
 30
0.0
 11
-640.901214599609
 21
48.4070549011231
 31
0.0
  0
LINE
  5
   471
  8
0
  6
CONTINUOUS
 62
     7
 10
-628.276206970197
 20
44.782032012956
 30
0.0
 11
-640.901214599591
 21
44.782032012956
 31
0.0
  0
LINE
  5
   472
  8
0
  6
CONTINUOUS
 62
     7
 10
-628.276206970215
 20
44.7820625305176
 30
0.0
 11
-628.276206970215
 21
48.4070625305176
 31
0.0
  0
LINE
  5
   473
  8
0
  6
CONTINUOUS
 62
     7
 10
-663.338683128357
 20
44.7820625305176
 30
0.0
 11
-663.338683128357
 21
48.4070625305176
 31
0.0
  0
LINE
  5
   474
  8
0
  6
CONTINUOUS
 62
     7
 10
-642.901214599609
 20
44.7820625305176
 30
0.0
 11
-663.338684082031
 21
44.7820625305176
 31
0.0
  0
LINE
  5
   475
  8
0
  6
CONTINUOUS
 62
     7
 10
-642.901214599609
 20
44.7820625305176
 30
0.0
 11
-642.901214599609
 21
48.4070625305176
 31
0.0
  0
LINE
  5
   476
  8
0
  6
CONTINUOUS
 62
     7
 10
-642.901214599609
 20
48.4070625305176
 30
0.0
 11
-663.338684082031
 21
48.4070625305176
 31
0.0
  0
LINE
  5
   477
  8
0
  6
CONTINUOUS
 62
     7
 10
-665.338683128357
 20
44.7820625305176
 30
0.0
 11
-690.026175498963
 21
44.7820625305176
 31
0.0
  0
LINE
  5
   478
  8
0
  6
CONTINUOUS
 62
     7
 10
-665.338683128357
 20
44.7820625305176
 30
0.0
 11
-665.338683128357
 21
48.4070625305176
 31
0.0
  0
LINE
  5
   479
  8
0
  6
CONTINUOUS
 62
     7
 10
-665.338683128357
 20
48.4070625305176
 30
0.0
 11
-690.026175498963
 21
48.4070625305176
 31
0.0
  0
LINE
  5
   47A
  8
0
  6
CONTINUOUS
 62
     7
 10
-690.026176452637
 20
44.7820625305176
 30
0.0
 11
-690.026176452637
 21
48.4070625305176
 31
0.0
  0
LINE
  5
   47B
  8
0
  6
CONTINUOUS
 62
     7
 10
-685.026176929474
 20
-12.9679622650146
 30
0.0
 11
-685.026176929474
 21
-10.7179470062256
 31
0.0
  0
LINE
  5
   47C
  8
0
  6
CONTINUOUS
 62
     7
 10
-683.026175498962
 20
-12.967960357666
 30
0.0
 11
-683.026175498962
 21
-10.7179470062256
 31
0.0
  0
LINE
  5
   47D
  8
0
  6
CONTINUOUS
 62
     7
 10
-690.025991383997
 20
-12.9679775237993
 30
0.0
 11
-690.025991383997
 21
-10.7179622650102
 31
0.0
  0
LINE
  5
   47E
  8
0
  6
CONTINUOUS
 62
   130
 10
-692.026176452733
 20
-14.9679832447308
 30
0.0
 11
-692.026174545385
 21
-14.4679470052822
 31
0.0
  0
LINE
  5
   47F
  8
0
  6
CONTINUOUS
 62
   130
 10
-626.276210772798
 20
-14.9680156681433
 30
0.0
 11
-627.276206958115
 21
-14.9680004093542
 31
0.0
  0
LINE
  5
   480
  8
0
  6
CONTINUOUS
 62
   130
 10
-604.526180756035
 20
-9.46797370910605
 30
0.0
 11
-604.526180756035
 21
55.0320568084721
 31
0.0
  0
LINE
  5
   481
  8
0
  6
CONTINUOUS
 62
     7
 10
-640.875183105469
 20
-12.967945098877
 30
0.0
 11
-640.875183105469
 21
-10.7179298400879
 31
0.0
  0
LINE
  5
   482
  8
0
  6
CONTINUOUS
 62
     7
 10
-642.901821136475
 20
-12.9679679870606
 30
0.0
 11
-642.901821136475
 21
-10.7179317474365
 31
0.0
  0
LINE
  5
   483
  8
0
  6
CONTINUOUS
 62
     7
 10
-654.026176452637
 20
38.7820625305176
 30
0.0
 11
-692.026176452637
 21
38.7820625305176
 31
0.0
  0
LINE
  5
   484
  8
0
  6
CONTINUOUS
 62
     7
 10
-654.026176452637
 20
24.0320358276367
 30
0.0
 11
-654.026176452637
 21
38.7820625305176
 31
0.0
  0
LINE
  5
   485
  8
0
  6
CONTINUOUS
 62
     7
 10
-692.026176452637
 20
24.0320472717285
 30
0.0
 11
-692.026176452637
 21
38.7820625305176
 31
0.0
  0
LINE
  5
   486
  8
0
  6
CONTINUOUS
 62
   150
 10
-692.026158332825
 20
-8.84293937683105
 30
0.0
 11
-697.526182174683
 21
-8.84293937683105
 31
0.0
  0
LINE
  5
   487
  8
0
  6
CONTINUOUS
 62
   150
 10
-692.026176452637
 20
43.6570854187012
 30
0.0
 11
-697.526182174683
 21
43.6570854187012
 31
0.0
  0
LINE
  5
   488
  8
0
  6
CONTINUOUS
 62
   150
 10
-700.276327351147
 20
-8.59321146637521
 30
0.0
 11
-700.276184299995
 21
-8.59217577605009
 31
0.0
  0
LINE
  5
   489
  8
0
  6
CONTINUOUS
 62
     7
 10
-688.526106890168
 20
-12.9679527282667
 30
0.0
 11
-688.526106890168
 21
-10.7179489135694
 31
0.0
  0
LINE
  5
   48A
  8
0
  6
CONTINUOUS
 62
     7
 10
-628.276206970215
 20
45.5320625305176
 30
0.0
 11
-640.901206970215
 21
45.5320625305176
 31
0.0
  0
LINE
  5
   48B
  8
0
  6
CONTINUOUS
 62
     7
 10
-642.901210784912
 20
45.5320625305176
 30
0.0
 11
-663.338678359985
 21
45.5320625305176
 31
0.0
  0
LINE
  5
   48C
  8
0
  6
CONTINUOUS
 62
     7
 10
-665.338678359985
 20
45.5320625305176
 30
0.0
 11
-688.526176452637
 21
45.5320625305176
 31
0.0
  0
LINE
  5
   48D
  8
0
  6
CONTINUOUS
 62
     7
 10
-688.901174651446
 20
45.157070570561
 30
0.0
 11
-688.526174643208
 21
45.5320705787987
 31
0.0
  0
LINE
  5
   48E
  8
0
  6
CONTINUOUS
 62
     7
 10
-688.526176452637
 20
45.5320625305176
 30
0.0
 11
-688.526176452637
 21
48.4070625305176
 31
0.0
  0
CIRCLE
  5
   48F
  8
0
  6
CONTINUOUS
 62
   130
 10
-686.026217891599
 20
16.5320311898972
 30
0.0
 40
4.99999574190984
  0
CIRCLE
  5
   490
  8
0
  6
CONTINUOUS
 62
   130
 10
-686.026213544627
 20
16.5320281950209
 30
0.0
 40
1.37500202053542
  0
CIRCLE
  5
   491
  8
0
  6
CONTINUOUS
 62
   130
 10
-614.776188233376
 20
43.5320230604305
 30
0.0
 40
3.00003377345636
  0
CIRCLE
  5
   492
  8
0
  6
CONTINUOUS
 62
   130
 10
-614.776207725408
 20
43.5320453327831
 30
0.0
 40
1.62500474936432
  0
CIRCLE
  5
   493
  8
0
  6
CONTINUOUS
 62
   130
 10
-614.776208899308
 20
-6.46795207942174
 30
0.0
 40
3.00000118551883
  0
CIRCLE
  5
   494
  8
0
  6
CONTINUOUS
 62
   130
 10
-614.776204047637
 20
-6.46794781825749
 30
0.0
 40
1.62500420410752
  0
LINE
  5
   495
  8
0
  6
DASHDOT
 62
     7
 10
-614.776188233376
 20
40.0319892869742
 30
0.0
 11
-614.776188233376
 21
47.0320568338869
 31
0.0
  0
LINE
  5
   496
  8
0
  6
DASHDOT
 62
     7
 10
-611.276154459919
 20
43.5320230604305
 30
0.0
 11
-618.276222006832
 21
43.5320230604305
 31
0.0
  0
LINE
  5
   497
  8
0
  6
DASHDOT
 62
     7
 10
-614.776208899308
 20
-9.96795326494058
 30
0.0
 11
-614.776208899308
 21
-2.96795089390291
 31
0.0
  0
LINE
  5
   498
  8
0
  6
DASHDOT
 62
     7
 10
-611.276207713789
 20
-6.46795207942174
 30
0.0
 11
-618.276210084827
 21
-6.46795207942174
 31
0.0
  0
LINE
  5
   499
  8
0
  6
CONTINUOUS
 62
     7
 10
-628.026206970215
 20
55.032054901123
 30
0.0
 11
-628.026206970215
 21
58.532039642334
 31
0.0
  0
LINE
  5
   49A
  8
0
  6
CONTINUOUS
 62
     7
 10
-697.526184082031
 20
-56.8273644601001
 30
0.0
 11
-697.526184082031
 21
-19.5930080413818
 31
0.0
  0
LINE
  5
   49B
  8
0
  6
CONTINUOUS
 62
     7
 10
-698.526184082031
 20
-56.9959037859428
 30
0.0
 11
-698.526184082031
 21
-8.84293937683105
 31
0.0
  0
LINE
  5
   49C
  8
0
  6
CONTINUOUS
 62
     7
 10
-701.124381768599
 20
-57.433802272443
 30
0.0
 11
-694.639878592292
 21
-56.3409084786834
 31
0.0
  0
LINE
  5
   49D
  8
0
  6
CONTINUOUS
 62
     7
 10
-695.222755282297
 20
76.3363980837276
 30
0.0
 11
-699.740049629837
 21
77.5750110499885
 31
0.0
  0
LINE
  5
   49E
  8
0
  6
CONTINUOUS
 62
     7
 10
-698.526184082031
 20
43.6570854187012
 30
0.0
 11
-698.526184082031
 21
77.2421769481708
 31
0.0
  0
LINE
  5
   49F
  8
0
  6
DASHDOT
 62
     7
 10
-686.026217891599
 20
11.0320354479873
 30
0.0
 11
-686.026217891599
 21
22.032026931807
 31
0.0
  0
LINE
  5
   4A0
  8
0
  6
DASHDOT
 62
     7
 10
-680.526222149689
 20
16.5320311898972
 30
0.0
 11
-691.526213633509
 21
16.5320311898972
 31
0.0
  0
LINE
  5
   4A1
  8
0
  6
CONTINUOUS
 62
     7
 10
-693.526182174683
 20
0.532093048095703
 30
0.0
 11
-693.526182174683
 21
7.03199005126953
 31
0.0
  0
LINE
  5
   4A2
  8
0
  6
CONTINUOUS
 62
     1
 10
-698.526182174683
 20
-22.8430089950562
 30
0.0
 11
-698.526182174683
 21
57.6569910049438
 31
0.0
  0
LINE
  5
   4A3
  8
0
  6
CONTINUOUS
 62
     1
 10
-698.526182174683
 20
-22.8430089950562
 30
0.0
 11
-700.276182174683
 21
-22.8430089950562
 31
0.0
  0
LINE
  5
   4A4
  8
0
  6
CONTINUOUS
 62
     1
 10
-700.276182174683
 20
-22.8430089950562
 30
0.0
 11
-700.276182174683
 21
-0.468008995056152
 31
0.0
  0
LINE
  5
   4A5
  8
0
  6
CONTINUOUS
 62
     1
 10
-700.276182174683
 20
8.03199005126953
 30
0.0
 11
-700.276182174683
 21
57.6569938659668
 31
0.0
  0
LINE
  5
   4A6
  8
0
  6
CONTINUOUS
 62
     1
 10
-698.526182174683
 20
57.6569938659668
 30
0.0
 11
-700.276182174683
 21
57.6569938659668
 31
0.0
  0
LINE
  5
   4A7
  8
0
  6
CONTINUOUS
 62
     1
 10
-697.526182174683
 20
18.9069938659668
 30
0.0
 11
-697.526182174683
 21
51.4069938659668
 31
0.0
  0
LINE
  5
   4A8
  8
0
  6
CONTINUOUS
 62
     1
 10
-697.526182174683
 20
7.0319938659668
 30
0.0
 11
-697.526182174683
 21
15.9069976806641
 31
0.0
  0
LINE
  5
   4A9
  8
0
  6
CONTINUOUS
 62
     7
 10
-695.276182174683
 20
-19.3043327331543
 30
0.0
 11
-695.276182174683
 21
-16.8816833496094
 31
0.0
  0
LINE
  5
   4AA
  8
0
  6
CONTINUOUS
 62
     7
 10
-695.276182174683
 20
51.6956672668457
 30
0.0
 11
-695.276182174683
 21
54.1183204650879
 31
0.0
  0
LINE
  5
   4AB
  8
0
  6
CONTINUOUS
 62
     7
 10
-695.276182174683
 20
16.1956672668457
 30
0.0
 11
-695.276182174683
 21
18.6183166503906
 31
0.0
  0
LINE
  5
   4AC
  8
0
  6
CONTINUOUS
 62
     1
 10
-699.776182174683
 20
-0.468009948730469
 30
0.0
 11
-700.276182174683
 21
-0.468009948730469
 31
0.0
  0
LINE
  5
   4AD
  8
0
  6
CONTINUOUS
 62
     1
 10
-699.776182174683
 20
8.03199005126953
 30
0.0
 11
-700.276182174683
 21
8.03199005126953
 31
0.0
  0
LINE
  5
   4AE
  8
0
  6
CONTINUOUS
 62
     3
 10
-700.276182174683
 20
3.19900512695313E-2
 30
0.0
 11
-700.276182174683
 21
7.53199005126953
 31
0.0
  0
LINE
  5
   4AF
  8
0
  6
CONTINUOUS
 62
     7
 10
-699.776182174683
 20
3.19900512695313E-2
 30
0.0
 11
-700.276182174683
 21
3.19900512695313E-2
 31
0.0
  0
LINE
  5
   4B0
  8
0
  6
CONTINUOUS
 62
     7
 10
-699.776182174683
 20
-1.96800994873047
 30
0.0
 11
-699.776182174683
 21
3.19900512695313E-2
 31
0.0
  0
LINE
  5
   4B1
  8
0
  6
CONTINUOUS
 62
     7
 10
-699.276182174683
 20
-1.96800994873047
 30
0.0
 11
-699.776182174683
 21
-1.96800994873047
 31
0.0
  0
LINE
  5
   4B2
  8
0
  6
CONTINUOUS
 62
     7
 10
-699.276182174683
 20
-1.96800994873047
 30
0.0
 11
-699.276182174683
 21
9.53199005126953
 31
0.0
  0
LINE
  5
   4B3
  8
0
  6
CONTINUOUS
 62
     7
 10
-699.276182174683
 20
9.53199005126953
 30
0.0
 11
-699.776182174683
 21
9.53199005126953
 31
0.0
  0
LINE
  5
   4B4
  8
0
  6
CONTINUOUS
 62
     7
 10
-699.776182174683
 20
7.53199005126953
 30
0.0
 11
-699.776182174683
 21
9.53199005126953
 31
0.0
  0
LINE
  5
   4B5
  8
0
  6
CONTINUOUS
 62
     7
 10
-699.776182174683
 20
7.53199005126953
 30
0.0
 11
-700.276182174683
 21
7.53199005126953
 31
0.0
  0
LINE
  5
   4B6
  8
0
  6
CONTINUOUS
 62
     7
 10
-693.526182174683
 20
0.532093048095703
 30
0.0
 11
-698.526182174683
 21
0.532093048095703
 31
0.0
  0
LINE
  5
   4B7
  8
0
  6
CONTINUOUS
 62
     7
 10
-693.526182174683
 20
7.03199005126953
 30
0.0
 11
-698.526182174683
 21
7.03199005126953
 31
0.0
  0
LINE
  5
   4B8
  8
0
  6
CONTINUOUS
 62
     1
 10
-700.276182174683
 20
-0.468006134033203
 30
0.0
 11
-700.276182174683
 21
3.19900512695313E-2
 31
0.0
  0
LINE
  5
   4B9
  8
0
  6
CONTINUOUS
 62
     1
 10
-700.276182174683
 20
7.53199005126953
 30
0.0
 11
-700.276182174683
 21
8.0319938659668
 31
0.0
  0
LINE
  5
   4BA
  8
0
  6
CONTINUOUS
 62
     7
 10
-695.776182174683
 20
-19.5930080413818
 30
0.0
 11
-698.526182174683
 21
-19.5930080413818
 31
0.0
  0
LINE
  5
   4BB
  8
0
  6
CONTINUOUS
 62
     7
 10
-695.776182174683
 20
-16.5930080413818
 30
0.0
 11
-698.526182174683
 21
-16.5930080413818
 31
0.0
  0
LINE
  5
   4BC
  8
0
  6
CONTINUOUS
 62
     7
 10
-695.776182174683
 20
-16.7071876525879
 30
0.0
 11
-695.776182174683
 21
-16.5930080413818
 31
0.0
  0
LINE
  5
   4BD
  8
0
  6
CONTINUOUS
 62
     7
 10
-695.776182174683
 20
-17.0323467254639
 30
0.0
 11
-695.776182174683
 21
-16.7071876525879
 31
0.0
  0
LINE
  5
   4BE
  8
0
  6
CONTINUOUS
 62
     7
 10
-695.776182174683
 20
-17.5189819335938
 30
0.0
 11
-695.776182174683
 21
-17.0323467254639
 31
0.0
  0
LINE
  5
   4BF
  8
0
  6
CONTINUOUS
 62
     7
 10
-695.776182174683
 20
-18.0930080413818
 30
0.0
 11
-695.776182174683
 21
-17.5189819335938
 31
0.0
  0
LINE
  5
   4C0
  8
0
  6
CONTINUOUS
 62
     7
 10
-695.776182174683
 20
-18.6670322418213
 30
0.0
 11
-695.776182174683
 21
-18.0930080413818
 31
0.0
  0
LINE
  5
   4C1
  8
0
  6
CONTINUOUS
 62
     7
 10
-695.776182174683
 20
-19.1536674499512
 30
0.0
 11
-695.776182174683
 21
-18.6670322418213
 31
0.0
  0
LINE
  5
   4C2
  8
0
  6
CONTINUOUS
 62
     7
 10
-695.776182174683
 20
-19.4788265228271
 30
0.0
 11
-695.776182174683
 21
-19.1536674499512
 31
0.0
  0
LINE
  5
   4C3
  8
0
  6
CONTINUOUS
 62
     7
 10
-695.776182174683
 20
-19.5930080413818
 30
0.0
 11
-695.776182174683
 21
-19.4788265228271
 31
0.0
  0
LINE
  5
   4C4
  8
0
  6
CONTINUOUS
 62
     7
 10
-695.776181575378
 20
-19.5930084543326
 30
0.0
 11
-695.276181558914
 21
-19.304333162076
 31
0.0
  0
LINE
  5
   4C5
  8
0
  6
CONTINUOUS
 62
     7
 10
-695.276181098168
 20
-16.8816842507472
 30
0.0
 11
-695.776181114632
 21
-16.5930089584907
 31
0.0
  0
LINE
  5
   4C6
  8
0
  6
CONTINUOUS
 62
     7
 10
-695.776182174683
 20
51.4069938659668
 30
0.0
 11
-698.526182174683
 21
51.4069938659668
 31
0.0
  0
LINE
  5
   4C7
  8
0
  6
CONTINUOUS
 62
     7
 10
-695.776182174683
 20
54.4069938659668
 30
0.0
 11
-698.526182174683
 21
54.4069938659668
 31
0.0
  0
LINE
  5
   4C8
  8
0
  6
CONTINUOUS
 62
     7
 10
-695.776182174683
 20
54.2928123474121
 30
0.0
 11
-695.776182174683
 21
54.4069938659668
 31
0.0
  0
LINE
  5
   4C9
  8
0
  6
CONTINUOUS
 62
     7
 10
-695.776182174683
 20
53.9676551818848
 30
0.0
 11
-695.776182174683
 21
54.2928123474121
 31
0.0
  0
LINE
  5
   4CA
  8
0
  6
CONTINUOUS
 62
     7
 10
-695.776182174683
 20
53.481014251709
 30
0.0
 11
-695.776182174683
 21
53.9676551818848
 31
0.0
  0
LINE
  5
   4CB
  8
0
  6
CONTINUOUS
 62
     7
 10
-695.776182174683
 20
52.9069938659668
 30
0.0
 11
-695.776182174683
 21
53.481014251709
 31
0.0
  0
LINE
  5
   4CC
  8
0
  6
CONTINUOUS
 62
     7
 10
-695.776182174683
 20
52.3329658508301
 30
0.0
 11
-695.776182174683
 21
52.9069938659668
 31
0.0
  0
LINE
  5
   4CD
  8
0
  6
CONTINUOUS
 62
     7
 10
-695.776182174683
 20
51.8463325500488
 30
0.0
 11
-695.776182174683
 21
52.3329658508301
 31
0.0
  0
LINE
  5
   4CE
  8
0
  6
CONTINUOUS
 62
     7
 10
-695.776182174683
 20
51.5211753845215
 30
0.0
 11
-695.776182174683
 21
51.8463325500488
 31
0.0
  0
LINE
  5
   4CF
  8
0
  6
CONTINUOUS
 62
     7
 10
-695.776182174683
 20
51.4069938659668
 30
0.0
 11
-695.776182174683
 21
51.5211753845215
 31
0.0
  0
LINE
  5
   4D0
  8
0
  6
CONTINUOUS
 62
     7
 10
-695.776182265389
 20
51.4069927934
 30
0.0
 11
-695.276182248926
 21
51.6956661978982
 31
0.0
  0
LINE
  5
   4D1
  8
0
  6
CONTINUOUS
 62
     7
 10
-695.276181439761
 20
54.1183191981742
 30
0.0
 11
-695.776181456224
 21
54.4069926026724
 31
0.0
  0
LINE
  5
   4D2
  8
0
  6
CONTINUOUS
 62
     7
 10
-695.776182174683
 20
15.9069938659668
 30
0.0
 11
-698.526182174683
 21
15.9069938659668
 31
0.0
  0
LINE
  5
   4D3
  8
0
  6
CONTINUOUS
 62
     7
 10
-695.776182174683
 20
18.9069938659668
 30
0.0
 11
-698.526182174683
 21
18.9069938659668
 31
0.0
  0
LINE
  5
   4D4
  8
0
  6
CONTINUOUS
 62
     7
 10
-695.776182174683
 20
18.7928123474121
 30
0.0
 11
-695.776182174683
 21
18.9069938659668
 31
0.0
  0
LINE
  5
   4D5
  8
0
  6
CONTINUOUS
 62
     7
 10
-695.776182174683
 20
18.4676513671875
 30
0.0
 11
-695.776182174683
 21
18.7928123474121
 31
0.0
  0
LINE
  5
   4D6
  8
0
  6
CONTINUOUS
 62
     7
 10
-695.776182174683
 20
17.9810180664063
 30
0.0
 11
-695.776182174683
 21
18.4676513671875
 31
0.0
  0
LINE
  5
   4D7
  8
0
  6
CONTINUOUS
 62
     7
 10
-695.776182174683
 20
17.4069938659668
 30
0.0
 11
-695.776182174683
 21
17.9810180664063
 31
0.0
  0
LINE
  5
   4D8
  8
0
  6
CONTINUOUS
 62
     7
 10
-695.776182174683
 20
16.8329658508301
 30
0.0
 11
-695.776182174683
 21
17.4069938659668
 31
0.0
  0
LINE
  5
   4D9
  8
0
  6
CONTINUOUS
 62
     7
 10
-695.776182174683
 20
16.3463325500488
 30
0.0
 11
-695.776182174683
 21
16.8329658508301
 31
0.0
  0
LINE
  5
   4DA
  8
0
  6
CONTINUOUS
 62
     7
 10
-695.776182174683
 20
16.0211715698242
 30
0.0
 11
-695.776182174683
 21
16.3463325500488
 31
0.0
  0
LINE
  5
   4DB
  8
0
  6
CONTINUOUS
 62
     7
 10
-695.776182174683
 20
15.9069938659668
 30
0.0
 11
-695.776182174683
 21
16.0211715698242
 31
0.0
  0
LINE
  5
   4DC
  8
0
  6
CONTINUOUS
 62
     7
 10
-695.776182106674
 20
15.9069932515717
 30
0.0
 11
-695.276182090211
 21
16.19566665607
 31
0.0
  0
LINE
  5
   4DD
  8
0
  6
CONTINUOUS
 62
     7
 10
-695.276181374883
 20
18.6183155247968
 30
0.0
 11
-695.776181391346
 21
18.9069927392291
 31
0.0
  0
LINE
  5
   4DE
  8
0
  6
CONTINUOUS
 62
     7
 10
-697.526184082031
 20
-16.3430080413818
 30
0.0
 11
-698.526182174683
 21
-16.3430080413818
 31
0.0
  0
LINE
  5
   4DF
  8
0
  6
CONTINUOUS
 62
     7
 10
-697.526184082031
 20
-19.8430080413818
 30
0.0
 11
-698.526182174683
 21
-19.8430080413818
 31
0.0
  0
LINE
  5
   4E0
  8
0
  6
CONTINUOUS
 62
     7
 10
-697.526184082031
 20
-16.5930080413818
 30
0.0
 11
-697.526184082031
 21
0.531997680664063
 31
0.0
  0
LINE
  5
   4E1
  8
0
  6
CONTINUOUS
 62
     7
 10
-697.526182174683
 20
3.20930480957031E-2
 30
0.0
 11
-698.526182174683
 21
3.20930480957031E-2
 31
0.0
  0
LINE
  5
   4E2
  8
0
  6
CONTINUOUS
 62
     7
 10
-697.526182174683
 20
7.53199005126953
 30
0.0
 11
-698.526182174683
 21
7.53199005126953
 31
0.0
  0
LINE
  5
   4E3
  8
0
  6
CONTINUOUS
 62
     7
 10
-697.526182174683
 20
19.1569938659668
 30
0.0
 11
-698.526182174683
 21
19.1569938659668
 31
0.0
  0
LINE
  5
   4E4
  8
0
  6
CONTINUOUS
 62
     7
 10
-697.526182174683
 20
15.6569938659668
 30
0.0
 11
-698.526182174683
 21
15.6569938659668
 31
0.0
  0
LINE
  5
   4E5
  8
0
  6
CONTINUOUS
 62
     7
 10
-697.526184082031
 20
54.4069938659668
 30
0.0
 11
-697.526184082031
 21
76.9679833997836
 31
0.0
  0
LINE
  5
   4E6
  8
0
  6
CONTINUOUS
 62
     7
 10
-697.526184082031
 20
54.6569938659668
 30
0.0
 11
-698.526182174683
 21
54.6569938659668
 31
0.0
  0
LINE
  5
   4E7
  8
0
  6
CONTINUOUS
 62
     7
 10
-697.526184082031
 20
51.1569938659668
 30
0.0
 11
-698.526182174683
 21
51.1569938659668
 31
0.0
  0
INSERT
  5
   4E8
  8
0
  6
CONTINUOUS
 62
     7
  2
*HATCH82
 10
-678.776184082031
 20
-37.5864448547363
 30
0.0
 41
0.5
 42
0.5
 50
89.9999999480344
 43
0.5
  0
INSERT
  5
   4E9
  8
0
  6
CONTINUOUS
 62
     7
  2
*HATCH83
 10
-678.776184082031
 20
-37.5864448547363
 30
0.0
 41
0.5
 42
0.5
 50
89.9999999480344
 43
0.5
  0
INSERT
  5
   4EA
  8
0
  6
CONTINUOUS
 62
     7
  2
*HATCH84
 10
-678.776184082031
 20
-37.5864448547363
 30
0.0
 41
0.5
 42
0.5
 50
89.9999999480344
 43
0.5
  0
INSERT
  5
   4EB
  8
0
  6
CONTINUOUS
 62
     7
  2
*HATCH85
 10
-678.776184082031
 20
-37.5864448547363
 30
0.0
 41
0.5
 42
0.5
 50
89.9999999480344
 43
0.5
  0
INSERT
  5
   4EC
  8
0
  6
CONTINUOUS
 62
     7
  2
*HATCH86
 10
-678.776184082031
 20
-37.5864448547363
 30
0.0
 41
0.5
 42
0.5
 50
89.9999999480344
 43
0.5
  0
CIRCLE
  5
   4ED
  8
0
  6
CONTINUOUS
 62
     7
 10
-698.324491556874
 20
-54.4308271191873
 30
0.0
 40
0.125
  0
LINE
  5
   4EE
  8
0
  6
DASHDOT
 62
     7
 10
-594.90855030225
 20
17.4070854187012
 30
0.0
 11
-706.096985645736
 21
17.4070854187012
 31
0.0
  0
LINE
  5
   4EF
  8
0
  6
CONTINUOUS
 62
     7
 10
-628.276206970215
 20
81.2820625305176
 30
0.0
 11
-677.52619934082
 21
81.2820625305176
 31
0.0
  0
LINE
  5
   4F0
  8
0
  6
CONTINUOUS
 62
     7
 10
-678.02619934082
 20
68.2820796203437
 30
0.0
 11
-678.02619934082
 21
80.7820625305176
 31
0.0
  0
LINE
  5
   4F1
  8
0
  6
CONTINUOUS
 62
     7
 10
-678.02619934082
 20
-47.7179051208673
 30
0.0
 11
-678.02619934082
 21
-35.467912750262
 31
0.0
  0
LINE
  5
   4F2
  8
0
  6
CONTINUOUS
 62
     7
 10
-628.276206493378
 20
-48.2179051208673
 30
0.0
 11
-677.52619934082
 21
-48.2179051208673
 31
0.0
  0
ARC
  5
   4F3
  8
0
  6
CONTINUOUS
 62
     7
 10
-677.52619934082
 20
-47.7179051208673
 30
0.0
 40
0.5
 50
179.999999948034
 51
269.999999948034
  0
LINE
  5
   4F4
  8
0
  6
CONTINUOUS
 62
     7
 10
-677.52619934082
 20
-35.467912750262
 30
0.0
 11
-677.52619934082
 21
-34.967912750262
 31
0.0
  0
LINE
  5
   4F5
  8
0
  6
CONTINUOUS
 62
     7
 10
-677.52619934082
 20
-35.467912750262
 30
0.0
 11
-678.02619934082
 21
-35.467912750262
 31
0.0
  0
ARC
  5
   4F6
  8
0
  6
CONTINUOUS
 62
     7
 10
-677.52619934082
 20
80.7820625305176
 30
0.0
 40
0.5
 50
89.9999999480344
 51
179.999999948034
  0
LINE
  5
   4F7
  8
0
  6
CONTINUOUS
 62
     7
 10
-677.52619934082
 20
68.2820796203437
 30
0.0
 11
-678.02619934082
 21
68.2820796203437
 31
0.0
  0
LINE
  5
   4F8
  8
0
  6
CONTINUOUS
 62
     7
 10
-677.52619934082
 20
67.7820796203437
 30
0.0
 11
-677.52619934082
 21
68.2820796203437
 31
0.0
  0
LINE
  5
   4F9
  8
0
  6
CONTINUOUS
 62
     7
 10
-692.776185035706
 20
44.4070854187012
 30
0.0
 11
-694.026187896729
 21
44.4070854187012
 31
0.0
  0
LINE
  5
   4FA
  8
0
  6
CONTINUOUS
 62
     7
 10
-692.776185035706
 20
44.4070854187012
 30
0.0
 11
-692.776185035706
 21
49.6570854187012
 31
0.0
  0
LINE
  5
   4FB
  8
0
  6
CONTINUOUS
 62
     7
 10
-694.526187896729
 20
51.4070854187012
 30
0.0
 11
-695.776187896729
 21
51.4070854187012
 31
0.0
  0
LINE
  5
   4FC
  8
0
  6
CONTINUOUS
 62
     7
 10
-696.276187896729
 20
54.4069938659668
 30
0.0
 11
-696.276187896729
 21
55.9070854187012
 31
0.0
  0
LINE
  5
   4FD
  8
0
  6
CONTINUOUS
 62
     7
 10
-696.276187896729
 20
55.9070854187012
 30
0.0
 11
-697.526184082031
 21
55.9070854187012
 31
0.0
  0
LINE
  5
   4FE
  8
0
  6
CONTINUOUS
 62
     7
 10
-694.526187896729
 20
50.1570854187012
 30
0.0
 11
-695.776187896729
 21
50.1570854187012
 31
0.0
  0
LINE
  5
   4FF
  8
0
  6
CONTINUOUS
 62
     7
 10
-694.026187896729
 20
44.4070854187012
 30
0.0
 11
-694.026187896729
 21
49.6570854187012
 31
0.0
  0
ARC
  5
   500
  8
0
  6
CONTINUOUS
 62
     7
 10
-694.526195223482
 20
49.6570790755489
 30
0.0
 40
1.75000922655776
 50
360.000319242658
 51
449.999813057862
  0
ARC
  5
   501
  8
0
  6
CONTINUOUS
 62
     7
 10
-694.526165772654
 20
49.6571058660924
 30
0.0
 40
0.499974910621752
 50
359.998830132094
 51
450.002235749312
  0
ARC
  5
   502
  8
0
  6
CONTINUOUS
 62
     7
 10
-695.776197572919
 20
51.907069395234
 30
0.0
 40
1.74998552797211
 50
196.604271282219
 51
270.000346548696
  0
LINE
  5
   503
  8
0
  6
CONTINUOUS
 62
     7
 10
-692.776185035706
 20
48.9070854187012
 30
0.0
 11
-694.026187896729
 21
48.9070854187012
 31
0.0
  0
INSERT
  5
   504
  8
0
  6
CONTINUOUS
 62
     7
  2
*HATCH87
 10
-678.776184082031
 20
-37.5864448547363
 30
0.0
 41
0.5
 42
0.5
 50
89.9999999480344
 43
0.5
  0
LINE
  5
   505
  8
0
  6
CONTINUOUS
 62
     7
 10
-695.776182174683
 20
43.6570854187011
 30
0.0
 11
-695.776182174683
 21
47.1570854187012
 31
0.0
  0
LINE
  5
   506
  8
0
  6
CONTINUOUS
 62
     7
 10
-694.776182174683
 20
43.6570854187011
 30
0.0
 11
-694.776182174683
 21
47.1570854187012
 31
0.0
  0
LINE
  5
   507
  8
0
  6
CONTINUOUS
 62
     7
 10
-694.776182174683
 20
47.1570854187012
 30
0.0
 11
-695.776182174683
 21
47.1570854187012
 31
0.0
  0
LINE
  5
   508
  8
0
  6
CONTINUOUS
 62
     7
 10
-599.426184082031
 20
48.3320625305176
 30
0.0
 11
-599.426184082031
 21
52.2320625305176
 31
0.0
  0
LINE
  5
   509
  8
0
  6
CONTINUOUS
 62
     7
 10
-597.826184082031
 20
49.2820625305176
 30
0.0
 11
-597.826184082031
 21
51.2820625305176
 31
0.0
  0
LINE
  5
   50A
  8
0
  6
CONTINUOUS
 62
     7
 10
-599.426184082031
 20
52.2320625305176
 30
0.0
 11
-601.026184082031
 21
52.2320625305176
 31
0.0
  0
LINE
  5
   50B
  8
0
  6
CONTINUOUS
 62
     7
 10
-599.426184082031
 20
48.3320625305176
 30
0.0
 11
-601.026184082031
 21
48.3320625305176
 31
0.0
  0
LINE
  5
   50C
  8
0
  6
CONTINUOUS
 62
     7
 10
-597.826184082031
 20
51.2820625305176
 30
0.0
 11
-601.026184082031
 21
51.2820625305176
 31
0.0
  0
LINE
  5
   50D
  8
0
  6
CONTINUOUS
 62
     7
 10
-597.826184082031
 20
49.2820625305176
 30
0.0
 11
-601.026184082031
 21
49.2820625305176
 31
0.0
  0
LINE
  5
   50E
  8
0
  6
CONTINUOUS
 62
     7
 10
-599.426184082031
 20
-15.2679374694824
 30
0.0
 11
-601.026184082031
 21
-15.2679374694824
 31
0.0
  0
LINE
  5
   50F
  8
0
  6
CONTINUOUS
 62
     7
 10
-597.826184082031
 20
-16.2179374694824
 30
0.0
 11
-601.026184082031
 21
-16.2179374694824
 31
0.0
  0
LINE
  5
   510
  8
0
  6
CONTINUOUS
 62
     7
 10
-597.826184082031
 20
-18.2179374694824
 30
0.0
 11
-601.026184082031
 21
-18.2179374694824
 31
0.0
  0
LINE
  5
   511
  8
0
  6
CONTINUOUS
 62
     7
 10
-599.426184082031
 20
-19.1679374694824
 30
0.0
 11
-601.026184082031
 21
-19.1679374694824
 31
0.0
  0
LINE
  5
   512
  8
0
  6
CONTINUOUS
 62
     7
 10
-599.426184082031
 20
-19.1679374694824
 30
0.0
 11
-599.426184082031
 21
-15.2679374694824
 31
0.0
  0
LINE
  5
   513
  8
0
  6
CONTINUOUS
 62
     7
 10
-597.826184082031
 20
-18.2179374694824
 30
0.0
 11
-597.826184082031
 21
-16.2179374694824
 31
0.0
  0
TEXT
  5
   514
  8
0
  6
CONTINUOUS
 62
     7
 10
-546.775878903553
 20
2.94167280582827
 30
0.0
 40
3.00000002980232
  1
=        =
 50
89.9999999480344
 41
0.916666689183977
 72
     1
 11
-548.27587890625
 21
16.4166732728481
 31
0.0
 73
     2
  0
TEXT
  5
   515
  8
0
  6
CONTINUOUS
 62
     7
 10
-521.25788926692
 20
94.8091545197712
 30
0.0
 40
3.00000002980232
  1
=        =
 50
359.999999948034
 41
0.916666689183977
 72
     1
 11
-507.782888799906
 21
96.3091545225187
 31
0.0
 73
     2
  0
TEXT
  5
   516
  8
0
  6
CONTINUOUS
 62
     7
 10
-720.909739393107
 20
99.3655815316458
 30
0.0
 40
3.00000002980232
  1
ISOLATING DISTANCE
 50
359.999999948034
 41
0.916666689183977
 72
     1
 11
-696.43473854661
 21
100.865581524472
 31
0.0
 73
     2
  0
TEXT
  5
   517
  8
0
  6
CONTINUOUS
 62
     7
 10
-734.425483615559
 20
16.594646451969
 30
0.0
 40
3.00000002980232
  1
X
 50
359.999999948034
 41
0.916666604744064
 72
     1
 11
-733.325483679771
 21
18.0946464658781
 31
0.0
 73
     2
  0
INSERT
  5
   518
  8
0
  6
CONTINUOUS
 62
     7
  2
*UDIM497
 10
0.0
 20
0.0
 30
0.0
  0
INSERT
  5
   519
  8
0
  6
CONTINUOUS
 62
     7
  2
*UDIM498
 10
0.0
 20
0.0
 30
0.0
  0
INSERT
  5
   51A
  8
0
  6
CONTINUOUS
 62
     7
  2
*UDIM499
 10
0.0
 20
0.0
 30
0.0
  0
INSERT
  5
   51B
  8
0
  6
CONTINUOUS
 62
     7
  2
*UDIM500
 10
0.0
 20
0.0
 30
0.0
  0
INSERT
  5
   51C
  8
0
  6
CONTINUOUS
 62
     7
  2
*UDIM501
 10
0.0
 20
0.0
 30
0.0
  0
INSERT
  5
   51D
  8
0
  6
CONTINUOUS
 62
     7
  2
*UDIM502
 10
0.0
 20
0.0
 30
0.0
  0
INSERT
  5
   51E
  8
0
  6
CONTINUOUS
 62
     7
  2
*UDIM503
 10
0.0
 20
0.0
 30
0.0
  0
INSERT
  5
   51F
  8
0
  6
CONTINUOUS
 62
     7
  2
*UDIM504
 10
0.0
 20
0.0
 30
0.0
  0
INSERT
  5
   520
  8
0
  6
CONTINUOUS
 62
     7
  2
*UDIM505
 10
0.0
 20
0.0
 30
0.0
  0
TEXT
  5
   521
  8
0
  6
CONTINUOUS
 62
     7
 10
-720.287963863246
 20
4.84851031664254
 30
0.0
 40
3.00000002980232
  1
=       =
 50
89.9999999480344
 41
0.916666689183977
 72
     1
 11
-721.787963867188
 21
16.948510736227
 31
0.0
 73
     2
  0
INSERT
  5
   522
  8
0
  6
CONTINUOUS
 62
     7
  2
*UDIM506
 10
0.0
 20
0.0
 30
0.0
  0
INSERT
  5
   523
  8
0
  6
CONTINUOUS
 62
     7
  2
*UDIM507
 10
0.0
 20
0.0
 30
0.0
  0
LINE
  5
   524
  8
0
  6
CONTINUOUS
 62
     7
 10
-423.813995361328
 20
39.6167488098145
 30
0.0
 11
-390.063995361328
 21
39.6167488098145
 31
0.0
  0
LINE
  5
   525
  8
0
  6
CONTINUOUS
 62
     7
 10
-423.813995361328
 20
71.1167488098145
 30
0.0
 11
-390.063995361328
 21
71.1167488098145
 31
0.0
  0
LINE
  5
   526
  8
0
  6
CONTINUOUS
 62
     7
 10
-390.063995361328
 20
71.1167488098145
 30
0.0
 11
-390.063995361328
 21
50.5542488098145
 31
0.0
  0
LINE
  5
   527
  8
0
  6
CONTINUOUS
 62
     7
 10
-423.813995361328
 20
71.1167488098145
 30
0.0
 11
-423.813995361328
 21
39.6167488098145
 31
0.0
  0
LINE
  5
   528
  8
0
  6
DASHDOT
 62
     7
 10
-394.538981907923
 20
48.5542488098145
 30
0.0
 11
-380.558688961887
 21
48.5542488098145
 31
0.0
  0
LINE
  5
   529
  8
0
  6
CONTINUOUS
 62
     7
 10
-390.063995361328
 20
50.5542488098145
 30
0.0
 11
-384.313995361328
 21
50.5542488098145
 31
0.0
  0
LINE
  5
   52A
  8
0
  6
CONTINUOUS
 62
     7
 10
-390.063995361328
 20
46.5542488098145
 30
0.0
 11
-384.313995361328
 21
46.5542488098145
 31
0.0
  0
ARC
  5
   52B
  8
0
  6
CONTINUOUS
 62
     7
 10
-384.313995361328
 20
48.5542488098145
 30
0.0
 40
2.0
 50
269.999999844103
 51
449.999999844103
  0
LINE
  5
   52C
  8
0
  6
CONTINUOUS
 62
     7
 10
-390.063995361328
 20
46.5542488098145
 30
0.0
 11
-390.063995361328
 21
39.6167488098145
 31
0.0
  0
LINE
  5
   52D
  8
0
  6
DASHDOT
 62
     7
 10
-405.813995361328
 20
80.9942399706696
 30
0.0
 11
-405.813995361328
 21
32.221567492263
 31
0.0
  0
CIRCLE
  5
   52E
  8
0
  6
CONTINUOUS
 62
     7
 10
-416.813995361328
 20
73.1167488098145
 30
0.0
 40
0.875
  0
CIRCLE
  5
   52F
  8
0
  6
CONTINUOUS
 62
     7
 10
-385.563995361328
 20
73.1167488098145
 30
0.0
 40
1.0
  0
CIRCLE
  5
   530
  8
0
  6
CONTINUOUS
 62
     7
 10
-385.563995361328
 20
55.3667488098145
 30
0.0
 40
1.0
  0
CIRCLE
  5
   531
  8
0
  6
CONTINUOUS
 62
     7
 10
-385.563995361328
 20
37.6167488098145
 30
0.0
 40
0.875
  0
CIRCLE
  5
   532
  8
0
  6
CONTINUOUS
 62
     7
 10
-416.813995361328
 20
37.6167488098145
 30
0.0
 40
1.0
  0
LINE
  5
   533
  8
0
  6
DASHDOT
 62
     7
 10
-416.813995361328
 20
74.7417488098145
 30
0.0
 11
-416.813995361328
 21
71.4917488098145
 31
0.0
  0
LINE
  5
   534
  8
0
  6
DASHDOT
 62
     7
 10
-418.438995361328
 20
73.1167488098145
 30
0.0
 11
-415.188995361328
 21
73.1167488098145
 31
0.0
  0
LINE
  5
   535
  8
0
  6
DASHDOT
 62
     7
 10
-385.563995361328
 20
74.7417488098145
 30
0.0
 11
-385.563995361328
 21
71.4917488098145
 31
0.0
  0
LINE
  5
   536
  8
0
  6
DASHDOT
 62
     7
 10
-387.188995361328
 20
73.1167488098145
 30
0.0
 11
-383.938995361328
 21
73.1167488098145
 31
0.0
  0
LINE
  5
   537
  8
0
  6
DASHDOT
 62
     7
 10
-385.563995361328
 20
56.9917488098145
 30
0.0
 11
-385.563995361328
 21
53.7417488098145
 31
0.0
  0
LINE
  5
   538
  8
0
  6
DASHDOT
 62
     7
 10
-387.188995361328
 20
55.3667488098145
 30
0.0
 11
-383.938995361328
 21
55.3667488098145
 31
0.0
  0
LINE
  5
   539
  8
0
  6
DASHDOT
 62
     7
 10
-385.563995361328
 20
39.2417488098145
 30
0.0
 11
-385.563995361328
 21
35.9917488098145
 31
0.0
  0
LINE
  5
   53A
  8
0
  6
DASHDOT
 62
     7
 10
-387.188995361328
 20
37.6167488098145
 30
0.0
 11
-383.938995361328
 21
37.6167488098145
 31
0.0
  0
LINE
  5
   53B
  8
0
  6
DASHDOT
 62
     7
 10
-416.813995361328
 20
39.2417488098145
 30
0.0
 11
-416.813995361328
 21
35.9917488098145
 31
0.0
  0
LINE
  5
   53C
  8
0
  6
DASHDOT
 62
     7
 10
-418.438995361328
 20
37.6167488098145
 30
0.0
 11
-415.188995361328
 21
37.6167488098145
 31
0.0
  0
LINE
  5
   53D
  8
0
  6
CONTINUOUS
 62
     7
 10
-429.738554438721
 20
76.1167488098145
 30
0.0
 11
-380.151495963458
 21
76.1167488098145
 31
0.0
  0
LINE
  5
   53E
  8
0
  6
CONTINUOUS
 62
     7
 10
-430.37196576961
 20
34.6167488098145
 30
0.0
 11
-379.699059298538
 21
34.6167488098145
 31
0.0
  0
LINE
  5
   53F
  8
0
  6
CONTINUOUS
 62
     7
 10
-380.563995361328
 20
76.9467938574113
 30
0.0
 11
-380.563995361328
 21
33.6938486910322
 31
0.0
  0
LINE
  5
   540
  8
0
  6
CONTINUOUS
 62
     7
 10
-428.813995361328
 20
76.9467938574113
 30
0.0
 11
-428.813995361328
 21
33.1056810266358
 31
0.0
  0
POINT
  5
   541
  8
0
  6
CONTINUOUS
 62
     7
 10
-382.313995361328
 20
48.4292488098145
 30
0.0
  0
LINE
  5
   542
  8
0
  6
DASHDOT
 62
     7
 10
-433.274720124472
 20
55.3667488098145
 30
0.0
 11
-377.821267061191
 21
55.3667488098145
 31
0.0
  0
CIRCLE
  5
   543
  8
0
  6
CONTINUOUS
 62
     7
 10
-400.188995361328
 20
73.4917488098145
 30
0.0
 40
0.5
  0
CIRCLE
  5
   544
  8
0
  6
CONTINUOUS
 62
     7
 10
-411.438995361328
 20
73.4917488098145
 30
0.0
 40
0.5
  0
CIRCLE
  5
   545
  8
0
  6
CONTINUOUS
 62
     7
 10
-400.188995361328
 20
73.4917488098145
 30
0.0
 40
0.92
  0
CIRCLE
  5
   546
  8
0
  6
CONTINUOUS
 62
     7
 10
-411.438995361328
 20
73.4917488098145
 30
0.0
 40
0.92
  0
LINE
  5
   547
  8
0
  6
DASHDOT
 62
     7
 10
-400.188995361328
 20
75.1617488098145
 30
0.0
 11
-400.188995361328
 21
71.8217488098145
 31
0.0
  0
LINE
  5
   548
  8
0
  6
DASHDOT
 62
     7
 10
-401.858995361328
 20
73.4917488098145
 30
0.0
 11
-398.518995361328
 21
73.4917488098145
 31
0.0
  0
LINE
  5
   549
  8
0
  6
DASHDOT
 62
     7
 10
-411.438995361328
 20
75.1617488098145
 30
0.0
 11
-411.438995361328
 21
71.8217488098145
 31
0.0
  0
LINE
  5
   54A
  8
0
  6
DASHDOT
 62
     7
 10
-413.108995361328
 20
73.4917488098145
 30
0.0
 11
-409.768995361328
 21
73.4917488098145
 31
0.0
  0
LINE
  5
   54B
  8
0
  6
CONTINUOUS
 62
     7
 10
-378.511803085405
 20
71.2834511412967
 30
0.0
 11
-378.511803085405
 21
64.0852108716341
 31
0.0
  0
LINE
  5
   54C
  8
0
  6
CONTINUOUS
 62
     7
 10
-374.949787281861
 20
71.2834511412967
 30
0.0
 11
-374.949787281861
 21
64.0852108716341
 31
0.0
  0
LINE
  5
   54D
  8
0
  6
CONTINUOUS
 62
     7
 10
-378.511803085405
 20
71.2834511412967
 30
0.0
 11
-374.949787281861
 21
71.2834511412967
 31
0.0
  0
LINE
  5
   54E
  8
0
  6
CONTINUOUS
 62
     7
 10
-378.511803085405
 20
64.0852108716341
 30
0.0
 11
-374.949787281861
 21
64.0852108716341
 31
0.0
  0
LINE
  5
   54F
  8
0
  6
CONTINUOUS
 62
     7
 10
-378.511803085405
 20
39.4500464783322
 30
0.0
 11
-374.949787281861
 21
39.4500464783322
 31
0.0
  0
LINE
  5
   550
  8
0
  6
CONTINUOUS
 62
     7
 10
-374.949787281861
 20
46.6482867479948
 30
0.0
 11
-374.949787281861
 21
39.4500464783322
 31
0.0
  0
LINE
  5
   551
  8
0
  6
CONTINUOUS
 62
     7
 10
-378.511803085405
 20
46.6482867479948
 30
0.0
 11
-374.949787281861
 21
46.6482867479948
 31
0.0
  0
LINE
  5
   552
  8
0
  6
CONTINUOUS
 62
     7
 10
-378.511803085405
 20
46.6482867479948
 30
0.0
 11
-378.511803085405
 21
39.4500464783322
 31
0.0
  0
LINE
  5
   553
  8
0
  6
DASHDOT
 62
     7
 10
-376.730795183633
 20
74.9938842699887
 30
0.0
 11
-376.730795183633
 21
22.6025684928569
 31
0.0
  0
LINE
  5
   554
  8
0
  6
CONTINUOUS
 62
     7
 10
-428.459295022435
 20
95.1633810844696
 30
0.0
 11
-412.63501065402
 21
75.2447014598906
 31
0.0
  0
LINE
  5
   555
  8
0
  6
CONTINUOUS
 62
     7
 10
-455.171325514295
 20
95.1633810844696
 30
0.0
 11
-428.459295022435
 21
95.1633810844696
 31
0.0
  0
LINE
  5
   556
  8
0
  6
CONTINUOUS
 62
     7
 10
-415.47167074328
 20
77.3463877451475
 30
0.0
 11
-412.63501065402
 21
75.2447014598906
 31
0.0
  0
LINE
  5
   557
  8
0
  6
CONTINUOUS
 62
     7
 10
-414.088091553596
 20
78.5921187629835
 30
0.0
 11
-412.63501065402
 21
75.2447014598906
 31
0.0
  0
INSERT
  5
   558
  8
0
  6
CONTINUOUS
 62
     7
  2
*UDIM508
 10
0.0
 20
0.0
 30
0.0
  0
INSERT
  5
   559
  8
0
  6
CONTINUOUS
 62
     7
  2
*UDIM509
 10
0.0
 20
0.0
 30
0.0
  0
INSERT
  5
   55A
  8
0
  6
CONTINUOUS
 62
     7
  2
*UDIM510
 10
0.0
 20
0.0
 30
0.0
  0
TEXT
  5
   55B
  8
0
  6
CONTINUOUS
 62
     7
 10
-453.755552410439
 20
96.6755065202002
 30
0.0
 40
4.00000017881393
  1
PART. Z
 50
359.999999844103
 41
0.915624995566905
 72
     1
 11
-441.303051918745
 21
98.6755065757876
 31
0.0
 73
     2
  0
INSERT
  5
   55C
  8
0
  6
CONTINUOUS
 62
     7
  2
*UDIM511
 10
0.0
 20
0.0
 30
0.0
  0
INSERT
  5
   55D
  8
0
  6
CONTINUOUS
 62
     7
  2
*UDIM512
 10
0.0
 20
0.0
 30
0.0
  0
INSERT
  5
   55E
  8
0
  6
CONTINUOUS
 62
     7
  2
*UDIM513
 10
0.0
 20
0.0
 30
0.0
  0
TEXT
  5
   55F
  8
0
  6
CONTINUOUS
 62
     7
 10
-431.335123953001
 20
46.1762831855864
 30
0.0
 40
3.00000002980232
  1
=     =
 50
449.999999844103
 41
0.916666604744064
 72
     2
 11
-431.335123902238
 21
64.8762821037621
 31
0.0
  0
INSERT
  5
   560
  8
0
  6
CONTINUOUS
 62
     7
  2
*UDIM514
 10
0.0
 20
0.0
 30
0.0
  0
INSERT
  5
   561
  8
0
  6
CONTINUOUS
 62
     7
  2
*UDIM515
 10
0.0
 20
0.0
 30
0.0
  0
INSERT
  5
   562
  8
0
  6
CONTINUOUS
 62
     7
  2
*UDIM516
 10
0.0
 20
0.0
 30
0.0
  0
INSERT
  5
   563
  8
0
  6
CONTINUOUS
 62
     7
  2
*UDIM517
 10
0.0
 20
0.0
 30
0.0
  0
INSERT
  5
   564
  8
0
  6
CONTINUOUS
 62
     7
  2
*UDIM518
 10
0.0
 20
0.0
 30
0.0
  0
INSERT
  5
   565
  8
0
  6
CONTINUOUS
 62
     7
  2
*UDIM519
 10
0.0
 20
0.0
 30
0.0
  0
INSERT
  5
   566
  8
0
  6
CONTINUOUS
 62
     7
  2
*UDIM520
 10
0.0
 20
0.0
 30
0.0
  0
INSERT
  5
   567
  8
0
  6
CONTINUOUS
 62
     7
  2
*UDIM521
 10
0.0
 20
0.0
 30
0.0
  0
INSERT
  5
   568
  8
0
  6
CONTINUOUS
 62
     7
  2
*UDIM522
 10
0.0
 20
0.0
 30
0.0
  0
INSERT
  5
   569
  8
0
  6
CONTINUOUS
 62
     7
  2
*UDIM523
 10
0.0
 20
0.0
 30
0.0
  0
INSERT
  5
   56A
  8
0
  6
CONTINUOUS
 62
     7
  2
*UDIM524
 10
0.0
 20
0.0
 30
0.0
  0
TEXT
  5
   56B
  8
0
  6
CONTINUOUS
 62
     7
 10
-406.641165624164
 20
5.16353218794376
 30
0.0
 40
3.00000002980232
  1
Y
 50
359.999999844103
 41
0.916666604744064
 72
     2
 11
-404.441165755295
 21
5.16353218196882
 31
0.0
  0
TEXT
  5
   56C
  8
0
  6
CONTINUOUS
 62
     7
 10
-407.112384448551
 20
106.506725242143
 30
0.0
 40
3.00000002980232
  1
Y
 50
359.999999844103
 41
0.916666604744064
 72
     2
 11
-404.912384579681
 21
106.506725236168
 31
0.0
  0
TEXT
  5
   56D
  8
0
  6
CONTINUOUS
 62
     7
 10
-353.312137494587
 20
54.662426044946
 30
0.0
 40
3.00000002980232
  1
X
 50
359.999999844103
 41
0.916666604744064
 72
     2
 11
-351.112137625717
 21
54.6624260389711
 31
0.0
  0
TEXT
  5
   56E
  8
0
  6
CONTINUOUS
 62
     7
 10
-450.495532880329
 20
54.1195019984296
 30
0.0
 40
3.00000002980232
  1
X
 50
359.999999844103
 41
0.916666604744064
 72
     2
 11
-448.295533011459
 21
54.1195019924547
 31
0.0
  0
LINE
  5
   56F
  8
0
  6
CONTINUOUS
 62
     7
 10
-567.283264160156
 20
-103.603979857485
 30
0.0
 11
-567.283264160156
 21
-127.520501343687
 31
0.0
  0
LINE
  5
   570
  8
0
  6
CONTINUOUS
 62
     7
 10
-569.283264160156
 20
-103.603979857485
 30
0.0
 11
-569.283264160156
 21
-127.520501343687
 31
0.0
  0
LINE
  5
   571
  8
0
  6
DASHDOT
 62
     7
 10
-572.485867262553
 20
-115.562240600586
 30
0.0
 11
-564.059648070116
 21
-115.562240600586
 31
0.0
  0
POINT
  5
   572
  8
0
  6
CONTINUOUS
 62
     7
 10
-569.283264160156
 20
-113.562240600586
 30
0.0
  0
POINT
  5
   573
  8
0
  6
CONTINUOUS
 62
     7
 10
-569.283264160156
 20
-117.562240600586
 30
0.0
  0
LINE
  5
   574
  8
0
  6
CONTINUOUS
 62
     7
 10
-567.283264160156
 20
-111.884041338231
 30
0.0
 11
-569.283264160156
 21
-113.562240600586
 31
0.0
  0
LINE
  5
   575
  8
0
  6
CONTINUOUS
 62
     7
 10
-569.283264160156
 20
-117.562240600586
 30
0.0
 11
-567.283264160156
 21
-119.240439862941
 31
0.0
  0
LINE
  5
   576
  8
0
  6
CONTINUOUS
 62
     7
 10
-569.283264160156
 20
-125.062240600586
 30
0.0
 11
-567.283264160156
 21
-125.062240600586
 31
0.0
  0
CIRCLE
  5
   577
  8
0
  6
CONTINUOUS
 62
     7
 10
-568.283264160156
 20
-115.562240600586
 30
0.0
 40
12.0
  0
LINE
  5
   578
  8
0
  6
CONTINUOUS
 62
     7
 10
-575.283256530762
 20
-120.062240600586
 30
0.0
 11
-572.783256530762
 21
-120.062240600586
 31
0.0
  0
LINE
  5
   579
  8
0
  6
CONTINUOUS
 62
     7
 10
-571.783256530762
 20
-111.062240600586
 30
0.0
 11
-571.783256530762
 21
-119.062240600586
 31
0.0
  0
LINE
  5
   57A
  8
0
  6
CONTINUOUS
 62
     7
 10
-571.783256530762
 20
-111.062240600586
 30
0.0
 11
-569.283264160156
 21
-111.062240600586
 31
0.0
  0
LINE
  5
   57B
  8
0
  6
CONTINUOUS
 62
     7
 10
-575.283256530762
 20
-122.562240600586
 30
0.0
 11
-572.783256530762
 21
-122.562240600586
 31
0.0
  0
LINE
  5
   57C
  8
0
  6
CONTINUOUS
 62
     7
 10
-576.283256530762
 20
-123.562240600586
 30
0.0
 11
-576.283256530762
 21
-124.506519334517
 31
0.0
  0
ARC
  5
   57D
  8
0
  6
CONTINUOUS
 62
     7
 10
-572.783252383482
 20
-119.062241271925
 30
0.0
 40
0.999996977799109
 50
629.999840735313
 51
720.000252836193
  0
ARC
  5
   57E
  8
0
  6
CONTINUOUS
 62
     7
 10
-575.283241877255
 20
-123.56225328689
 30
0.0
 40
3.50001845311552
 50
450.000186734275
 51
513.408761128067
  0
ARC
  5
   57F
  8
0
  6
CONTINUOUS
 62
     7
 10
-575.283300778912
 20
-123.562199705804
 30
0.0
 40
0.999949821243504
 50
449.997764042825
 51
540.001169660043
  0
ARC
  5
   580
  8
0
  6
CONTINUOUS
 62
     7
 10
-572.78323717838
 20
-119.06227264752
 30
0.0
 40
3.49997105594423
 50
629.999653243441
 51
720.000420168909
  0
INSERT
  5
   581
  8
0
  6
CONTINUOUS
 62
     7
  2
*HATCH88
 10
-568.283264160156
 20
-115.562240600586
 30
0.0
 50
269.999999844103
  0
INSERT
  5
   582
  8
0
  6
CONTINUOUS
 62
     7
  2
*HATCH89
 10
-568.283264160156
 20
-115.562240600586
 30
0.0
 50
269.999999844103
  0
TEXT
  5
   583
  8
0
  6
CONTINUOUS
 62
     7
 10
-580.924615978554
 20
-98.3396111250635
 30
0.0
 40
4.00000017881393
  1
PART. Z
 50
359.999999844103
 41
0.915624995566905
 72
     1
 11
-568.47211548686
 21
-96.3396110694761
 31
0.0
 73
     2
  0
INSERT
  5
   584
  8
0
  6
CONTINUOUS
 62
     7
  2
*UDIM525
 10
0.0
 20
0.0
 30
0.0
  0
INSERT
  5
   585
  8
0
  6
CONTINUOUS
 62
     7
  2
*UDIM526
 10
0.0
 20
0.0
 30
0.0
  0
ENDSEC
  0
EOF
