  0
SECTION
  2
HEADER
  9
$ACADVER
  1
AC1009
  9
$DWGCODEPAGE
  3
iso8859-1
  9
$INSBASE
 10
0.0
 20
0.0
 30
0.0
  9
$EXTMIN
 10
1.0E20
 20
1.0E20
  9
$EXTMAX
 10
-1.0E20
 20
-1.0E20
  9
$LIMMIN
 10
0.0
 20
0.0
  9
$LIMMAX
 10
12.0
 20
9.0
  9
$ORTHOMODE
 70
     0
  9
$REGENMODE
 70
     1
  9
$FILLMODE
 70
     1
  9
$QTEXTMODE
 70
     0
  9
$MIRRTEXT
 70
     1
  9
$DRAGMODE
 70
     2
  9
$LTSCALE
 40
15.0
  9
$OSMODE
 70
     0
  9
$ATTMODE
 70
     1
  9
$TEXTSIZE
 40
0.2
  9
$TRACEWID
 40
0.05
  9
$TEXTSTYLE
  7
STANDARD
  9
$CLAYER
  8
0
  9
$CELTYPE
  6
DASHED
  9
$CECOLOR
 62
   256
  9
$DIMSCALE
 40
1.0
  9
$DIMASZ
 40
0.18
  9
$DIMEXO
 40
0.0625
  9
$DIMDLI
 40
0.38
  9
$DIMRND
 40
0.0
  9
$DIMDLE
 40
0.0
  9
$DIMEXE
 40
0.18
  9
$DIMTP
 40
0.0
  9
$DIMTM
 40
0.0
  9
$DIMTXT
 40
0.18
  9
$DIMCEN
 40
0.09
  9
$DIMTSZ
 40
0.0
  9
$DIMTOL
 70
     0
  9
$DIMLIM
 70
     0
  9
$DIMTIH
 70
     1
  9
$DIMTOH
 70
     1
  9
$DIMSE1
 70
     0
  9
$DIMSE2
 70
     0
  9
$DIMTAD
 70
     0
  9
$DIMZIN
 70
     0
  9
$DIMBLK
  1

  9
$DIMASO
 70
     1
  9
$DIMSHO
 70
     1
  9
$DIMPOST
  1

  9
$DIMAPOST
  1

  9
$DIMALT
 70
     0
  9
$DIMALTD
 70
     2
  9
$DIMALTF
 40
25.4
  9
$DIMLFAC
 40
1.0
  9
$DIMTOFL
 70
     0
  9
$DIMTVP
 40
0.0
  9
$DIMTIX
 70
     0
  9
$DIMSOXD
 70
     0
  9
$DIMSAH
 70
     0
  9
$DIMBLK1
  1

  9
$DIMBLK2
  1

  9
$DIMSTYLE
  2
STANDARD
  9
$DIMCLRD
 70
     0
  9
$DIMCLRE
 70
     0
  9
$DIMCLRT
 70
     0
  9
$DIMTFAC
 40
1.0
  9
$DIMGAP
 40
0.09
  9
$LUNITS
 70
     2
  9
$LUPREC
 70
     4
  9
$AXISMODE
 70
     0
  9
$AXISUNIT
 10
0.0
 20
0.0
  9
$SKETCHINC
 40
0.1
  9
$FILLETRAD
 40
0.0
  9
$AUNITS
 70
     0
  9
$AUPREC
 70
     0
  9
$MENU
  1
acad
  9
$ELEVATION
 40
0.0
  9
$PELEVATION
 40
0.0
  9
$THICKNESS
 40
0.0
  9
$LIMCHECK
 70
     0
  9
$BLIPMODE
 70
     1
  9
$CHAMFERA
 40
0.0
  9
$CHAMFERB
 40
0.0
  9
$SKPOLY
 70
     0
  9
$TDCREATE
 40
0.000000000
  9
$TDUPDATE
 40
0.000000000
  9
$TDINDWG
 40
0.0
  9
$TDUSRTIMER
 40
0.0
  9
$USRTIMER
 70
     1
  9
$ANGBASE
 50
0.0
  9
$ANGDIR
 70
     0
  9
$PDMODE
 70
     0
  9
$PDSIZE
 40
0.0
  9
$PLINEWID
 40
0.0
  9
$COORDS
 70
     1
  9
$SPLFRAME
 70
     0
  9
$SPLINETYPE
 70
     6
  9
$SPLINESEGS
 70
     8
  9
$ATTDIA
 70
     0
  9
$ATTREQ
 70
     1
  9
$HANDLING
 70
     1
  9
$HANDSEED
  5
   65B
  9
$SURFTAB1
 70
     6
  9
$SURFTAB2
 70
     6
  9
$SURFTYPE
 70
     6
  9
$SURFU
 70
     6
  9
$SURFV
 70
     6
  9
$UCSNAME
  2

  9
$UCSORG
 10
0.0
 20
0.0
 30
0.0
  9
$UCSXDIR
 10
1.0
 20
0.0
 30
0.0
  9
$UCSYDIR
 10
0.0
 20
1.0
 30
0.0
  9
$PUCSNAME
  2

  9
$PUCSORG
 10
0.0
 20
0.0
 30
0.0
  9
$PUCSXDIR
 10
1.0
 20
0.0
 30
0.0
  9
$PUCSYDIR
 10
0.0
 20
1.0
 30
0.0
  9
$USERI1
 70
     0
  9
$USERI2
 70
     0
  9
$USERI3
 70
     0
  9
$USERI4
 70
     0
  9
$USERI5
 70
     0
  9
$USERR1
 40
0.0
  9
$USERR2
 40
0.0
  9
$USERR3
 40
0.0
  9
$USERR4
 40
0.0
  9
$USERR5
 40
0.0
  9
$WORLDVIEW
 70
     1
  9
$SHADEDGE
 70
     3
  9
$SHADEDIF
 70
    70
  9
$TILEMODE
 70
     1
  9
$MAXACTVP
 70
    16
  9
$PINSBASE
 10
0.0
 20
0.0
 30
0.0
  9
$PLIMCHECK
 70
     0
  9
$PEXTMIN
 10
1.0E20
 20
1.0E20
 30
1.0E20
  9
$PEXTMAX
 10
-1.0E20
 20
-1.0E20
 30
-1.0E20
  9
$PLIMMIN
 10
0.0
 20
0.0
  9
$PLIMMAX
 10
12.0
 20
9.0
  9
$UNITMODE
 70
     0
  9
$VISRETAIN
 70
     0
  0
ENDSEC
  0
SECTION
  2
TABLES
  0
TABLE
  2
VPORT
 70
     1
  0
VPORT
  2
*ACTIVE
 70
     0
 10
0.0
 20
0.0
 11
1.0
 21
1.0
 12
6.801242
 22
4.5
 13
0.0
 23
0.0
 14
1.0
 24
1.0
 15
0.0
 25
0.0
 16
0.0
 26
0.0
 36
1.0
 17
0.0
 27
0.0
 37
0.0
 40
9.0
 41
1.511387
 42
50.0
 43
0.0
 44
0.0
 50
0.0
 51
0.0
 71
     0
 72
   100
 73
     1
 74
     1
 75
     0
 76
     0
 77
     0
 78
     0
  0
ENDTAB
  0
TABLE
  2
LTYPE
 70
    41
  0
LTYPE
  2
BYBLOCK
 70
     0
  3

 72
    65
 73
     0
 40
0.0
  0
LTYPE
  2
BYLAYER
 70
     0
  3

 72
    65
 73
     0
 40
0.0
  0
LTYPE
  2
CONTINUOUS
 70
     0
  3
Solid line
 72
    65
 73
     0
 40
0.0
  0
LTYPE
  2
BORDER
 70
    64
  3
__ __ . __ __ . __ __ . __ __ . __ __ . __ __ .
 72
    65
 73
     6
 40
1.75
 49
0.5
 49
-0.25
 49
0.5
 49
-0.25
 49
0.0
 49
-0.25
  0
LTYPE
  2
BORDER2
 70
    64
  3
__.__.__.__.__.__.__.__.__.__.__.__.__.__.__.__
 72
    65
 73
     6
 40
0.875
 49
0.25
 49
-0.125
 49
0.25
 49
-0.125
 49
0.0
 49
-0.125
  0
LTYPE
  2
BORDERX2
 70
    64
  3
____  ____  .  ____  ____  .  ____  ____  .  __
 72
    65
 73
     6
 40
3.5
 49
1.0
 49
-0.5
 49
1.0
 49
-0.5
 49
0.0
 49
-0.5
  0
LTYPE
  2
CENTER
 70
    64
  3
____ _ ____ _ ____ _ ____ _ ____ _ ____ _ ____
 72
    65
 73
     4
 40
2.0
 49
1.25
 49
-0.25
 49
0.25
 49
-0.25
  0
LTYPE
  2
CENTER2
 70
    64
  3
___ _ ___ _ ___ _ ___ _ ___ _ ___ _ ___ _ ___ _
 72
    65
 73
     4
 40
1.125
 49
0.75
 49
-0.125
 49
0.125
 49
-0.125
  0
LTYPE
  2
CENTERX2
 70
    64
  3
________  __  ________  __  ________  __  _____
 72
    65
 73
     4
 40
4.0
 49
2.5
 49
-0.5
 49
0.5
 49
-0.5
  0
LTYPE
  2
DASHDOT
 70
    64
  3
__ . __ . __ . __ . __ . __ . __ . __ . __ . __
 72
    65
 73
     4
 40
1.0
 49
0.5
 49
-0.25
 49
0.0
 49
-0.25
  0
LTYPE
  2
DASHDOT2
 70
    64
  3
_._._._._._._._._._._._._._._._._._._._._._._._
 72
    65
 73
     4
 40
0.5
 49
0.25
 49
-0.125
 49
0.0
 49
-0.125
  0
LTYPE
  2
DASHDOTX2
 70
    64
  3
____  .  ____  .  ____  .  ____  .  ____  .  __
 72
    65
 73
     4
 40
2.0
 49
1.0
 49
-0.5
 49
0.0
 49
-0.5
  0
LTYPE
  2
DASHED
 70
    64
  3
__ __ __ __ __ __ __ __ __ __ __ __ __ __ __ __
 72
    65
 73
     2
 40
0.75
 49
0.5
 49
-0.25
  0
LTYPE
  2
DASHED2
 70
    64
  3
_ _ _ _ _ _ _ _ _ _ _ _ _ _ _ _ _ _ _ _ _ _ _ _
 72
    65
 73
     2
 40
0.375
 49
0.25
 49
-0.125
  0
LTYPE
  2
DASHEDX2
 70
    64
  3
____  ____  ____  ____  ____  ____  ____  ____
 72
    65
 73
     2
 40
1.5
 49
1.0
 49
-0.5
  0
LTYPE
  2
DIVIDE
 70
    64
  3
____ . . ____ . . ____ . . ____ . . ____ . . __
 72
    65
 73
     6
 40
1.25
 49
0.5
 49
-0.25
 49
0.0
 49
-0.25
 49
0.0
 49
-0.25
  0
LTYPE
  2
DIVIDE2
 70
    64
  3
__..__..__..__..__..__..__..__..__..__..__..__.
 72
    65
 73
     6
 40
0.625
 49
0.25
 49
-0.125
 49
0.0
 49
-0.125
 49
0.0
 49
-0.125
  0
LTYPE
  2
DIVIDEX2
 70
    64
  3
________  .  .  ________  .  .  ________  .  .
 72
    65
 73
     6
 40
2.5
 49
1.0
 49
-0.5
 49
0.0
 49
-0.5
 49
0.0
 49
-0.5
  0
LTYPE
  2
DOT
 70
    64
  3
. . . . . . . . . . . . . . . . . . . . . . . .
 72
    65
 73
     2
 40
0.25
 49
0.0
 49
-0.25
  0
LTYPE
  2
DOT2
 70
    64
  3
...............................................
 72
    65
 73
     2
 40
0.125
 49
0.0
 49
-0.125
  0
LTYPE
  2
DOTX2
 70
    64
  3
.  .  .  .  .  .  .  .  .  .  .  .  .  .  .  .
 72
    65
 73
     2
 40
0.5
 49
0.0
 49
-0.5
  0
LTYPE
  2
HIDDEN
 70
    64
  3
__ __ __ __ __ __ __ __ __ __ __ __ __ __ __ __
 72
    65
 73
     2
 40
0.375
 49
0.25
 49
-0.125
  0
LTYPE
  2
HIDDEN2
 70
    64
  3
_ _ _ _ _ _ _ _ _ _ _ _ _ _ _ _ _ _ _ _ _ _ _ _
 72
    65
 73
     2
 40
0.1875
 49
0.125
 49
-0.0625
  0
LTYPE
  2
HIDDENX2
 70
    64
  3
____ ____ ____ ____ ____ ____ ____ ____ ____ __
 72
    65
 73
     2
 40
0.75
 49
0.5
 49
-0.25
  0
LTYPE
  2
PHANTOM
 70
    64
  3
______  __  __  ______  __  __  ______  __  __
 72
    65
 73
     6
 40
2.5
 49
1.25
 49
-0.25
 49
0.25
 49
-0.25
 49
0.25
 49
-0.25
  0
LTYPE
  2
PHANTOM2
 70
    64
  3
___ _ _ ___ _ _ ___ _ _ ___ _ _ ___ _ _ ___ _ _
 72
    65
 73
     6
 40
1.25
 49
0.625
 49
-0.125
 49
0.125
 49
-0.125
 49
0.125
 49
-0.125
  0
LTYPE
  2
PHANTOMX2
 70
    64
  3
____________    ____    ____    ____________
 72
    65
 73
     6
 40
5.0
 49
2.5
 49
-0.5
 49
0.5
 49
-0.5
 49
0.5
 49
-0.5
  0
LTYPE
  2
ACAD_ISO02W100
 70
    64
  3
__ __ __ __ __ __ __ __ __ __ __ __ __ __ __ __
 72
    65
 73
     2
 40
15.0
 49
12.0
 49
-3.0
  0
LTYPE
  2
ACAD_ISO03W100
 70
    64
  3
__    __    __    __    __    __    __    __
 72
    65
 73
     2
 40
30.0
 49
12.0
 49
-18.0
  0
LTYPE
  2
ACAD_ISO04W100
 70
    64
  3
____ . ____ . ____ . ____ . ____ . ____ . ____
 72
    65
 73
     4
 40
30.5
 49
24.0
 49
-3.0
 49
0.5
 49
-3.0
  0
LTYPE
  2
ACAD_ISO05W100
 70
    64
  3
____ .. ____ .. ____ .. ____ .. ____ .. ____ ..
 72
    65
 73
     6
 40
34.0
 49
24.0
 49
-3.0
 49
0.5
 49
-3.0
 49
0.5
 49
-3.0
  0
LTYPE
  2
ACAD_ISO06W100
 70
    64
  3
____ ... ____ ... ____ ... ____ ... ____ ... __
 72
    65
 73
     8
 40
37.5
 49
24.0
 49
-3.0
 49
0.5
 49
-3.0
 49
0.5
 49
-3.0
 49
0.5
 49
-3.0
  0
LTYPE
  2
ACAD_ISO07W100
 70
    64
  3
. . . . . . . . . . . . . . . . . . . . . . . .
 72
    65
 73
     2
 40
3.5
 49
0.5
 49
-3.0
  0
LTYPE
  2
ACAD_ISO08W100
 70
    64
  3
____ __ ____ __ ____ __ ____ ____ __ __ ____ __
 72
    65
 73
     4
 40
36.0
 49
24.0
 49
-3.0
 49
6.0
 49
-3.0
  0
LTYPE
  2
ACAD_ISO09W100
 70
    64
  3
____ __ __ ____ __ __ ____ __ __ ____ __ __ ___
 72
    65
 73
     6
 40
45.0
 49
24.0
 49
-3.0
 49
6.0
 49
-3.0
 49
6.0
 49
-3.0
  0
LTYPE
  2
ACAD_ISO10W100
 70
    64
  3
__ . __ . __ . __ . __ . __ . __ . __ . __ . __
 72
    65
 73
     4
 40
18.5
 49
12.0
 49
-3.0
 49
0.5
 49
-3.0
  0
LTYPE
  2
ACAD_ISO11W100
 70
    64
  3
__ __ . __ __ . __ __ . __ __ . __ __ . __ __ .
 72
    65
 73
     6
 40
33.5
 49
12.0
 49
-3.0
 49
12.0
 49
-3.0
 49
0.5
 49
-3.0
  0
LTYPE
  2
ACAD_ISO12W100
 70
    64
  3
__ . . __ . . __ . . __ . . __ . . __ . . __ .
 72
    65
 73
     6
 40
22.0
 49
12.0
 49
-3.0
 49
0.5
 49
-3.0
 49
0.5
 49
-3.0
  0
LTYPE
  2
ACAD_ISO13W100
 70
    64
  3
__ __ . . __ __ . . __ __ . . __ __ . . __ __ .
 72
    65
 73
     8
 40
37.0
 49
12.0
 49
-3.0
 49
12.0
 49
-3.0
 49
0.5
 49
-3.0
 49
0.5
 49
-3.0
  0
LTYPE
  2
ACAD_ISO14W100
 70
    64
  3
__ . . . __ . . . __ . . . __ . . . __ . . . __
 72
    65
 73
     8
 40
25.5
 49
12.0
 49
-3.0
 49
0.5
 49
-3.0
 49
0.5
 49
-3.0
 49
0.5
 49
-3.0
  0
LTYPE
  2
ACAD_ISO15W100
 70
    64
  3
__ __ . . . __ __ . . . __ __ . . . __ __ . . .
 72
    65
 73
    10
 40
40.5
 49
12.0
 49
-3.0
 49
12.0
 49
-3.0
 49
0.5
 49
-3.0
 49
0.5
 49
-3.0
 49
0.5
 49
-3.0
  0
ENDTAB
  0
TABLE
  2
STYLE
 70
     4
  0
STYLE
  2
STANDARD
 70
    64
 40
0.0
 41
1.0
 50
0.0
 71
     0
 42
0.2
  3
txt
  4

  0
STYLE
  2
TOLERANCE
 70
    64
 40
0.0
 41
1.0
 50
0.0
 71
     0
 42
0.2
  3
../igesfont/iges1003.shx
  4

  0
STYLE
  2
ROMANS
 70
    64
 40
0.0
 41
1.0
 50
0.0
 71
     0
 42
0.2
  3
romans.shx
  4

  0
STYLE
  2
ROMANC
 70
    64
 40
0.0
 41
1.0
 50
0.0
 71
     0
 42
0.2
  3
romanc.shx
  4

  0
ENDTAB
  0
TABLE
  2
DIMSTYLE
 70
     2
  0
DIMSTYLE
  2
UNNAMED
 70
     0
  3

  4

  5

  6

  7

 40
1.0
 41
0.18
 42
0.0625
 43
0.38
 44
0.18
 45
0.0
 46
0.0
 47
0.0
 48
0.0
140
0.18
141
0.09
142
0.0
143
25.4
144
1.0
145
0.0
146
1.0
147
0.09
 71
     0
 72
     0
 73
     1
 74
     1
 75
     0
 76
     0
 77
     0
 78
     0
170
     0
171
     2
172
     0
173
     0
174
     0
175
     0
176
     0
177
     0
178
     0
  0
DIMSTYLE
  2
STANDARD
 70
     0
  3

  4

  5

  6

  7

 40
1.0
 41
0.18
 42
0.0625
 43
0.38
 44
0.18
 45
0.0
 46
0.0
 47
0.0
 48
0.0
140
0.18
141
0.09
142
0.0
143
25.4
144
1.0
145
0.0
146
1.0
147
0.09
 71
     0
 72
     0
 73
     1
 74
     1
 75
     0
 76
     0
 77
     0
 78
     0
170
     0
171
     2
172
     0
173
     0
174
     0
175
     0
176
     0
177
     0
178
     0
  0
ENDTAB
  0
TABLE
  2
LAYER
 70
     1
  0
LAYER
  2
0
 70
     0
 62
     7
  6
CONTINUOUS
  0
ENDTAB
  0
ENDSEC
  0
SECTION
  2
BLOCKS
  0
BLOCK
  5
     B
  8
0
  6
CONTINUOUS
 62
     3
  2
*UDIM900
 70
    65
 10
0.0
 20
0.0
 30
0.0
  3
*UDIM900
  0
TEXT
  5
     C
  8
0
  6
CONTINUOUS
 62
     3
 10
-337.606375383344
 20
266.489257102704
 30
0.0
 40
3.00000005960463
  1
_2.5
 50
359.999999844103
 41
0.933333333333333
 72
     1
 11
-332.306375273969
 21
267.989257118112
 31
0.0
 73
     2
  0
LINE
  5
     D
  8
0
  6
CONTINUOUS
 62
     3
 10
-344.47011688252
 20
262.774243552177
 30
0.0
 11
-344.47010184236
 21
267.489257088299
 31
0.0
  0
LINE
  5
     E
  8
0
  6
CONTINUOUS
 62
     3
 10
-344.070116804305
 20
262.889418805557
 30
0.0
 11
-344.070101662087
 21
267.489257088299
 31
0.0
  0
LINE
  5
     F
  8
0
  6
CONTINUOUS
 62
     3
 10
-344.470108222049
 20
265.489257088309
 30
0.0
 11
-327.006375168667
 21
265.489257088309
 31
0.0
  0
LINE
  5
    10
  8
0
  6
CONTINUOUS
 62
     3
 10
-347.424531499256
 20
264.968312658358
 30
0.0
 11
-344.470108222049
 21
265.489257088309
 31
0.0
  0
LINE
  5
    11
  8
0
  6
CONTINUOUS
 62
     3
 10
-344.470108222049
 20
265.489257088309
 30
0.0
 11
-347.424531499256
 21
266.010201518261
 31
0.0
  0
LINE
  5
    12
  8
0
  6
CONTINUOUS
 62
     3
 10
-341.115684968684
 20
266.010201518261
 30
0.0
 11
-344.070108245891
 21
265.489257088309
 31
0.0
  0
LINE
  5
    13
  8
0
  6
CONTINUOUS
 62
     3
 10
-344.070108245891
 20
265.489257088309
 30
0.0
 11
-341.115684968684
 21
264.968312658358
 31
0.0
  0
ENDBLK
  5
    14
  8
0
  6
CONTINUOUS
 62
     3
  0
BLOCK
  5
    15
  8
0
  6
CONTINUOUS
 62
     3
  2
*UDIM901
 70
    65
 10
0.0
 20
0.0
 30
0.0
  3
*UDIM901
  0
TEXT
  5
    16
  8
0
  6
CONTINUOUS
 62
     3
 10
-372.845119981198
 20
273.462840667618
 30
0.0
 40
3.00000005960463
  1
242
 50
359.999999844103
 41
0.933333333333334
 72
     1
 11
-368.945119899639
 21
274.962840686829
 31
0.0
 73
     2
  0
LINE
  5
    17
  8
0
  6
CONTINUOUS
 62
     3
 10
-392.870116873584
 20
243.139356136322
 30
0.0
 11
-392.870107040626
 21
274.462840657026
 31
0.0
  0
LINE
  5
    18
  8
0
  6
CONTINUOUS
 62
     3
 10
-344.470118758868
 20
262.774243552182
 30
0.0
 11
-344.470103405933
 21
274.462840657025
 31
0.0
  0
LINE
  5
    19
  8
0
  6
CONTINUOUS
 62
     3
 10
-392.870107668459
 20
272.462840657026
 30
0.0
 11
-344.470106032927
 21
272.462840657026
 31
0.0
  0
LINE
  5
    1A
  8
0
  6
CONTINUOUS
 62
     3
 10
-389.915684391252
 20
272.983785086978
 30
0.0
 11
-392.870107668459
 21
272.462840657026
 31
0.0
  0
LINE
  5
    1B
  8
0
  6
CONTINUOUS
 62
     3
 10
-392.870107668459
 20
272.462840657026
 30
0.0
 11
-389.915684391252
 21
271.941896227075
 31
0.0
  0
LINE
  5
    1C
  8
0
  6
CONTINUOUS
 62
     3
 10
-347.424529310134
 20
271.941896227075
 30
0.0
 11
-344.470106032927
 21
272.462840657026
 31
0.0
  0
LINE
  5
    1D
  8
0
  6
CONTINUOUS
 62
     3
 10
-344.470106032927
 20
272.462840657026
 30
0.0
 11
-347.424529310134
 21
272.983785086978
 31
0.0
  0
ENDBLK
  5
    1E
  8
0
  6
CONTINUOUS
 62
     3
  0
BLOCK
  5
    1F
  8
0
  6
CONTINUOUS
 62
     3
  2
*UDIM902
 70
    65
 10
0.0
 20
0.0
 30
0.0
  3
*UDIM902
  0
TEXT
  5
    20
  8
0
  6
CONTINUOUS
 62
     3
 10
-371.19511862276
 20
91.1319921679889
 30
0.0
 40
3.00000005960463
  1
286,5
 50
359.999999844103
 41
0.933333333333333
 72
     1
 11
-364.495118485569
 21
92.6319921795948
 31
0.0
 73
     2
  0
LINE
  5
    21
  8
0
  6
CONTINUOUS
 62
     3
 10
-392.870117850177
 20
161.139360904694
 30
0.0
 11
-392.87016623047
 21
88.1319921497929
 31
0.0
  0
LINE
  5
    22
  8
0
  6
CONTINUOUS
 62
     3
 10
-335.570120916763
 20
164.13936072588
 30
0.0
 11
-335.570144776728
 21
88.1319921497926
 31
0.0
  0
LINE
  5
    23
  8
0
  6
CONTINUOUS
 62
     3
 10
-392.870164905117
 20
90.1319921497925
 30
0.0
 11
-335.570144148895
 21
90.1319921497925
 31
0.0
  0
LINE
  5
    24
  8
0
  6
CONTINUOUS
 62
     3
 10
-389.91574162791
 20
90.6529365797441
 30
0.0
 11
-392.870164905117
 21
90.1319921497925
 31
0.0
  0
LINE
  5
    25
  8
0
  6
CONTINUOUS
 62
     3
 10
-392.870164905117
 20
90.1319921497925
 30
0.0
 11
-389.91574162791
 21
89.6110477198408
 31
0.0
  0
LINE
  5
    26
  8
0
  6
CONTINUOUS
 62
     3
 10
-338.524567426102
 20
89.6110477198408
 30
0.0
 11
-335.570144148895
 21
90.1319921497925
 31
0.0
  0
LINE
  5
    27
  8
0
  6
CONTINUOUS
 62
     3
 10
-335.570144148895
 20
90.1319921497925
 30
0.0
 11
-338.524567426102
 21
90.6529365797441
 31
0.0
  0
ENDBLK
  5
    28
  8
0
  6
CONTINUOUS
 62
     3
  0
BLOCK
  5
    29
  8
0
  6
CONTINUOUS
 62
     3
  2
*UDIM903
 70
    65
 10
0.0
 20
0.0
 30
0.0
  3
*UDIM903
  0
TEXT
  5
    2A
  8
0
  6
CONTINUOUS
 62
     3
 10
-376.195118324694
 20
106.695321318467
 30
0.0
 40
3.00000005960463
  1
236,5
 50
359.999999844103
 41
0.933333333333333
 72
     1
 11
-369.495118187503
 21
108.195321330073
 31
0.0
 73
     2
  0
LINE
  5
    2B
  8
0
  6
CONTINUOUS
 62
     3
 10
-392.870117946341
 20
161.139360904694
 30
0.0
 11
-392.870161537212
 21
103.695321300271
 31
0.0
  0
LINE
  5
    2C
  8
0
  6
CONTINUOUS
 62
     3
 10
-345.57012076564
 20
161.139360904694
 30
0.0
 11
-345.570164356511
 21
103.695321300271
 31
0.0
  0
LINE
  5
    2D
  8
0
  6
CONTINUOUS
 62
     3
 10
-392.870160019531
 20
105.695321300271
 30
0.0
 11
-345.57016283883
 21
105.695321300271
 31
0.0
  0
LINE
  5
    2E
  8
0
  6
CONTINUOUS
 62
     3
 10
-389.915736742324
 20
106.216265730222
 30
0.0
 11
-392.870160019531
 21
105.695321300271
 31
0.0
  0
LINE
  5
    2F
  8
0
  6
CONTINUOUS
 62
     3
 10
-392.870160019531
 20
105.695321300271
 30
0.0
 11
-389.915736742324
 21
105.174376870319
 31
0.0
  0
LINE
  5
    30
  8
0
  6
CONTINUOUS
 62
     3
 10
-348.524586116037
 20
105.174376870319
 30
0.0
 11
-345.57016283883
 21
105.695321300271
 31
0.0
  0
LINE
  5
    31
  8
0
  6
CONTINUOUS
 62
     3
 10
-345.57016283883
 20
105.695321300271
 30
0.0
 11
-348.524586116037
 21
106.216265730222
 31
0.0
  0
ENDBLK
  5
    32
  8
0
  6
CONTINUOUS
 62
     3
  0
BLOCK
  5
    33
  8
0
  6
CONTINUOUS
 62
     3
  2
*UDIM904
 70
    65
 10
0.0
 20
0.0
 30
0.0
  3
*UDIM904
  0
TEXT
  5
    34
  8
0
  6
CONTINUOUS
 62
     3
 10
-389.145117089664
 20
117.234236694517
 30
0.0
 40
3.00000005960463
  1
65
 50
359.999999844103
 41
0.933333333333334
 72
     1
 11
-386.64511703592
 21
118.73423671753
 31
0.0
 73
     2
  0
LINE
  5
    35
  8
0
  6
CONTINUOUS
 62
     3
 10
-392.870118048487
 20
161.139360904694
 30
0.0
 11
-392.870158433165
 21
114.234236687728
 31
0.0
  0
LINE
  5
    36
  8
0
  6
CONTINUOUS
 62
     3
 10
-379.870118276277
 20
149.139361619949
 30
0.0
 11
-379.870129233571
 21
114.234236687727
 31
0.0
  0
LINE
  5
    37
  8
0
  6
CONTINUOUS
 62
     3
 10
-392.870156711192
 20
116.234236687727
 30
0.0
 11
-379.870128605738
 21
116.234236687727
 31
0.0
  0
LINE
  5
    38
  8
0
  6
CONTINUOUS
 62
     3
 10
-389.915733433985
 20
116.755181117679
 30
0.0
 11
-392.870156711192
 21
116.234236687727
 31
0.0
  0
LINE
  5
    39
  8
0
  6
CONTINUOUS
 62
     3
 10
-392.870156711192
 20
116.234236687727
 30
0.0
 11
-389.915733433985
 21
115.713292257776
 31
0.0
  0
LINE
  5
    3A
  8
0
  6
CONTINUOUS
 62
     3
 10
-382.824551882945
 20
115.713292257776
 30
0.0
 11
-379.870128605738
 21
116.234236687727
 31
0.0
  0
LINE
  5
    3B
  8
0
  6
CONTINUOUS
 62
     3
 10
-379.870128605738
 20
116.234236687727
 30
0.0
 11
-382.824551882945
 21
116.755181117679
 31
0.0
  0
ENDBLK
  5
    3C
  8
0
  6
CONTINUOUS
 62
     3
  0
BLOCK
  5
    3D
  8
0
  6
CONTINUOUS
 62
     3
  2
*UDIM905
 70
    65
 10
0.0
 20
0.0
 30
0.0
  3
*UDIM905
  0
TEXT
  5
    3E
  8
0
  6
CONTINUOUS
 62
     3
 10
-376.403727238553
 20
133.287702534531
 30
0.0
 40
3.00000005960463
  1
20
 50
359.999999844103
 41
0.933333333333334
 72
     1
 11
-373.903727184809
 21
134.787702557544
 31
0.0
 73
     2
  0
LINE
  5
    3F
  8
0
  6
CONTINUOUS
 62
     3
 10
-383.870118248875
 20
149.139361619949
 30
0.0
 11
-383.870128144736
 21
130.287702527742
 31
0.0
  0
LINE
  5
    40
  8
0
  6
CONTINUOUS
 62
     3
 10
-379.870118276277
 20
149.139361619949
 30
0.0
 11
-379.870124194123
 21
130.287702527741
 31
0.0
  0
LINE
  5
    41
  8
0
  6
CONTINUOUS
 62
     3
 10
-383.870127094869
 20
132.287702527741
 30
0.0
 11
-371.403727135138
 21
132.287702527741
 31
0.0
  0
LINE
  5
    42
  8
0
  6
CONTINUOUS
 62
     3
 10
-386.824550372076
 20
131.76675809779
 30
0.0
 11
-383.870127094869
 21
132.287702527741
 31
0.0
  0
LINE
  5
    43
  8
0
  6
CONTINUOUS
 62
     3
 10
-383.870127094869
 20
132.287702527741
 30
0.0
 11
-386.824550372076
 21
132.808646957693
 31
0.0
  0
LINE
  5
    44
  8
0
  6
CONTINUOUS
 62
     3
 10
-376.915700289083
 20
132.808646957693
 30
0.0
 11
-379.87012356629
 21
132.287702527741
 31
0.0
  0
LINE
  5
    45
  8
0
  6
CONTINUOUS
 62
     3
 10
-379.87012356629
 20
132.287702527741
 30
0.0
 11
-376.915700289083
 21
131.76675809779
 31
0.0
  0
ENDBLK
  5
    46
  8
0
  6
CONTINUOUS
 62
     3
  0
BLOCK
  5
    47
  8
0
  6
CONTINUOUS
 62
     3
  2
*UDIM906
 70
    65
 10
0.0
 20
0.0
 30
0.0
  3
*UDIM906
  0
TEXT
  5
    48
  8
0
  6
CONTINUOUS
 62
     3
 10
-415.000221529455
 20
197.964334279699
 30
0.0
 40
3.00000005960463
  1
520
 50
449.999999844103
 41
0.933333333333334
 72
     1
 11
-416.50022154867
 21
201.864334361257
 31
0.0
 73
     2
  0
LINE
  5
    49
  8
0
  6
CONTINUOUS
 62
     3
 10
-384.870117723942
 20
254.139355421066
 30
0.0
 11
-416.000221518868
 21
254.139355421066
 31
0.0
  0
LINE
  5
    4A
  8
0
  6
CONTINUOUS
 62
     3
 10
-384.870117723942
 20
150.139361619949
 30
0.0
 11
-416.000221518868
 21
150.139361619949
 31
0.0
  0
LINE
  5
    4B
  8
0
  6
CONTINUOUS
 62
     3
 10
-414.000221518868
 20
254.139355421066
 30
0.0
 11
-414.000221518868
 21
150.139361619949
 31
0.0
  0
LINE
  5
    4C
  8
0
  6
CONTINUOUS
 62
     3
 10
-413.479277088916
 20
251.184932143859
 30
0.0
 11
-414.000221518868
 21
254.139355421066
 31
0.0
  0
LINE
  5
    4D
  8
0
  6
CONTINUOUS
 62
     3
 10
-414.000221518868
 20
254.139355421066
 30
0.0
 11
-414.52116594882
 21
251.184932143859
 31
0.0
  0
LINE
  5
    4E
  8
0
  6
CONTINUOUS
 62
     3
 10
-414.52116594882
 20
153.093784897156
 30
0.0
 11
-414.000221518868
 21
150.139361619949
 31
0.0
  0
LINE
  5
    4F
  8
0
  6
CONTINUOUS
 62
     3
 10
-414.000221518868
 20
150.139361619949
 30
0.0
 11
-413.479277088916
 21
153.093784897156
 31
0.0
  0
ENDBLK
  5
    50
  8
0
  6
CONTINUOUS
 62
     3
  0
BLOCK
  5
    51
  8
0
  6
CONTINUOUS
 62
     3
  2
*UDIM907
 70
    65
 10
0.0
 20
0.0
 30
0.0
  3
*UDIM907
  0
TEXT
  5
    52
  8
0
  6
CONTINUOUS
 62
     3
 10
-516.792935123136
 20
12.9654964212007
 30
0.0
 40
3.00000009536734
  1
341
 50
359.999999844103
 41
0.933333333333333
 72
     1
 11
-512.892934995085
 21
14.4654964582924
 31
0.0
 73
     2
  0
LINE
  5
    53
  8
0
  6
CONTINUOUS
 62
     3
 10
-538.192916673159
 20
37.9099287986759
 30
0.0
 11
-538.192939484774
 21
9.96549641060943
 31
0.0
  0
LINE
  5
    54
  8
0
  6
CONTINUOUS
 62
     3
 10
-487.042924803232
 20
37.9099287986759
 30
0.0
 11
-487.042947614848
 21
9.96549641060943
 31
0.0
  0
LINE
  5
    55
  8
0
  6
CONTINUOUS
 62
     3
 10
-538.192937852133
 20
11.9654964106088
 30
0.0
 11
-487.042945982206
 21
11.9654964106088
 31
0.0
  0
LINE
  5
    56
  8
0
  6
CONTINUOUS
 62
     3
 10
-535.238514574926
 20
12.4864408405604
 30
0.0
 11
-538.192937852133
 21
11.9654964106088
 31
0.0
  0
LINE
  5
    57
  8
0
  6
CONTINUOUS
 62
     3
 10
-538.192937852133
 20
11.9654964106088
 30
0.0
 11
-535.238514574926
 21
11.4445519806571
 31
0.0
  0
LINE
  5
    58
  8
0
  6
CONTINUOUS
 62
     3
 10
-489.997369259413
 20
11.4445519806571
 30
0.0
 11
-487.042945982206
 21
11.9654964106088
 31
0.0
  0
LINE
  5
    59
  8
0
  6
CONTINUOUS
 62
     3
 10
-487.042945982206
 20
11.9654964106088
 30
0.0
 11
-489.997369259413
 21
12.4864408405604
 31
0.0
  0
ENDBLK
  5
    5A
  8
0
  6
CONTINUOUS
 62
     3
  0
BLOCK
  5
    5B
  8
0
  6
CONTINUOUS
 62
     3
  2
*UDIM908
 70
    65
 10
0.0
 20
0.0
 30
0.0
  3
*UDIM908
  0
TEXT
  5
    5C
  8
0
  6
CONTINUOUS
 62
     3
 10
-516.792935128707
 20
18.825377264476
 30
0.0
 40
3.00000009536734
  1
300
 50
359.999999844103
 41
0.933333333333333
 72
     1
 11
-512.892935000655
 21
20.3253773015677
 31
0.0
 73
     2
  0
LINE
  5
    5D
  8
0
  6
CONTINUOUS
 62
     3
 10
-535.11791653648
 20
33.5414714995827
 30
0.0
 11
-535.117919918194
 21
15.825377253884
 31
0.0
  0
LINE
  5
    5E
  8
0
  6
CONTINUOUS
 62
     3
 10
-490.117923689815
 20
33.6478243239543
 30
0.0
 11
-490.117927105693
 21
15.825377253884
 31
0.0
  0
LINE
  5
    5F
  8
0
  6
CONTINUOUS
 62
     3
 10
-535.117919536427
 20
17.825377253884
 30
0.0
 11
-490.11792672237
 21
17.825377253884
 31
0.0
  0
LINE
  5
    60
  8
0
  6
CONTINUOUS
 62
     3
 10
-532.16349625922
 20
18.3463216838357
 30
0.0
 11
-535.117919536427
 21
17.825377253884
 31
0.0
  0
LINE
  5
    61
  8
0
  6
CONTINUOUS
 62
     3
 10
-535.117919536427
 20
17.825377253884
 30
0.0
 11
-532.16349625922
 21
17.3044328239323
 31
0.0
  0
LINE
  5
    62
  8
0
  6
CONTINUOUS
 62
     3
 10
-493.072349999577
 20
17.3044328239323
 30
0.0
 11
-490.11792672237
 21
17.825377253884
 31
0.0
  0
LINE
  5
    63
  8
0
  6
CONTINUOUS
 62
     3
 10
-490.11792672237
 20
17.825377253884
 30
0.0
 11
-493.072349999577
 21
18.3463216838357
 31
0.0
  0
ENDBLK
  5
    64
  8
0
  6
CONTINUOUS
 62
     3
  0
BLOCK
  5
    65
  8
0
  6
CONTINUOUS
 62
     3
  2
*UDIM909
 70
    65
 10
0.0
 20
0.0
 30
0.0
  3
*UDIM909
  0
TEXT
  5
    66
  8
0
  6
CONTINUOUS
 62
     3
 10
-454.889582548968
 20
58.659943841992
 30
0.0
 40
3.00000009536734
  1
344
 50
449.999999844103
 41
0.933333333333333
 72
     1
 11
-456.389582586064
 21
62.5599439700414
 31
0.0
 73
     2
  0
LINE
  5
    67
  8
0
  6
CONTINUOUS
 62
     3
 10
-487.723747649872
 20
88.6349208950996
 30
0.0
 11
-451.889582538381
 21
88.6349208950996
 31
0.0
  0
LINE
  5
    68
  8
0
  6
CONTINUOUS
 62
     3
 10
-487.723747649872
 20
37.0349290966988
 30
0.0
 11
-451.889582538381
 21
37.0349290966988
 31
0.0
  0
LINE
  5
    69
  8
0
  6
CONTINUOUS
 62
     3
 10
-453.889582538381
 20
88.6349208950996
 30
0.0
 11
-453.889582538381
 21
37.0349290966988
 31
0.0
  0
LINE
  5
    6A
  8
0
  6
CONTINUOUS
 62
     3
 10
-453.368638108429
 20
85.6804976178927
 30
0.0
 11
-453.889582538381
 21
88.6349208950996
 31
0.0
  0
LINE
  5
    6B
  8
0
  6
CONTINUOUS
 62
     3
 10
-453.889582538381
 20
88.6349208950996
 30
0.0
 11
-454.410526968332
 21
85.6804976178927
 31
0.0
  0
LINE
  5
    6C
  8
0
  6
CONTINUOUS
 62
     3
 10
-454.410526968332
 20
39.9893523739057
 30
0.0
 11
-453.889582538381
 21
37.0349290966988
 31
0.0
  0
LINE
  5
    6D
  8
0
  6
CONTINUOUS
 62
     3
 10
-453.889582538381
 20
37.0349290966988
 30
0.0
 11
-453.368638108429
 21
39.9893523739057
 31
0.0
  0
ENDBLK
  5
    6E
  8
0
  6
CONTINUOUS
 62
     3
  0
BLOCK
  5
    6F
  8
0
  6
CONTINUOUS
 62
     3
  2
*UDIM910
 70
    65
 10
0.0
 20
0.0
 30
0.0
  3
*UDIM910
  0
TEXT
  5
    70
  8
0
  6
CONTINUOUS
 62
     3
 10
-577.33667600324
 20
58.659941553174
 30
0.0
 40
3.00000009536734
  1
327
 50
449.999999844103
 41
0.933333333333333
 72
     1
 11
-578.836676040336
 21
62.5599416812235
 31
0.0
 73
     2
  0
LINE
  5
    71
  8
0
  6
CONTINUOUS
 62
     3
 10
-538.592915952206
 20
87.3599210977554
 30
0.0
 11
-578.336675992653
 21
87.3599210977554
 31
0.0
  0
LINE
  5
    72
  8
0
  6
CONTINUOUS
 62
     3
 10
-538.592915952206
 20
38.309928894043
 30
0.0
 11
-578.336675992653
 21
38.309928894043
 31
0.0
  0
LINE
  5
    73
  8
0
  6
CONTINUOUS
 62
     3
 10
-576.336675992653
 20
87.3599210977554
 30
0.0
 11
-576.336675992653
 21
38.309928894043
 31
0.0
  0
LINE
  5
    74
  8
0
  6
CONTINUOUS
 62
     3
 10
-575.815731562701
 20
84.4054978205485
 30
0.0
 11
-576.336675992653
 21
87.3599210977554
 31
0.0
  0
LINE
  5
    75
  8
0
  6
CONTINUOUS
 62
     3
 10
-576.336675992653
 20
87.3599210977554
 30
0.0
 11
-576.857620422604
 21
84.4054978205485
 31
0.0
  0
LINE
  5
    76
  8
0
  6
CONTINUOUS
 62
     3
 10
-576.857620422604
 20
41.2643521712499
 30
0.0
 11
-576.336675992653
 21
38.309928894043
 31
0.0
  0
LINE
  5
    77
  8
0
  6
CONTINUOUS
 62
     3
 10
-576.336675992653
 20
38.309928894043
 30
0.0
 11
-575.815731562701
 21
41.2643521712499
 31
0.0
  0
ENDBLK
  5
    78
  8
0
  6
CONTINUOUS
 62
     3
  0
BLOCK
  5
    79
  8
0
  6
CONTINUOUS
 62
     3
  2
*UDIM911
 70
    65
 10
0.0
 20
0.0
 30
0.0
  3
*UDIM911
  0
TEXT
  5
    7A
  8
0
  6
CONTINUOUS
 62
     3
 10
-563.785701553166
 20
73.0599209538116
 30
0.0
 40
3.00000009536734
  1
135
 50
449.999999844103
 41
0.933333333333333
 72
     1
 11
-565.285701590263
 21
76.9599210818611
 31
0.0
 73
     2
  0
LINE
  5
    7B
  8
0
  6
CONTINUOUS
 62
     3
 10
-538.592915952206
 20
87.3599210977554
 30
0.0
 11
-564.785701542579
 21
87.3599210977554
 31
0.0
  0
LINE
  5
    7C
  8
0
  6
CONTINUOUS
 62
     3
 10
-557.376407453563
 20
67.1099243164063
 30
0.0
 11
-564.785701542579
 21
67.1099243164063
 31
0.0
  0
LINE
  5
    7D
  8
0
  6
CONTINUOUS
 62
     3
 10
-562.785701542579
 20
87.3599210977554
 30
0.0
 11
-562.785701542579
 21
67.1099243164063
 31
0.0
  0
LINE
  5
    7E
  8
0
  6
CONTINUOUS
 62
     3
 10
-562.264757112627
 20
84.4054978205485
 30
0.0
 11
-562.785701542579
 21
87.3599210977554
 31
0.0
  0
LINE
  5
    7F
  8
0
  6
CONTINUOUS
 62
     3
 10
-562.785701542579
 20
87.3599210977554
 30
0.0
 11
-563.306645972531
 21
84.4054978205485
 31
0.0
  0
LINE
  5
    80
  8
0
  6
CONTINUOUS
 62
     3
 10
-563.306645972531
 20
70.0643475936132
 30
0.0
 11
-562.785701542579
 21
67.1099243164063
 31
0.0
  0
LINE
  5
    81
  8
0
  6
CONTINUOUS
 62
     3
 10
-562.785701542579
 20
67.1099243164063
 30
0.0
 11
-562.264757112627
 21
70.0643475936132
 31
0.0
  0
ENDBLK
  5
    82
  8
0
  6
CONTINUOUS
 62
     3
  0
BLOCK
  5
    83
  8
0
  6
CONTINUOUS
 62
     3
  2
*UDIM912
 70
    65
 10
0.0
 20
0.0
 30
0.0
  3
*UDIM912
  0
TEXT
  5
    84
  8
0
  6
CONTINUOUS
 62
     3
 10
-489.172513667908
 20
102.008059824858
 30
0.0
 40
3.00000009536734
  1
300
 50
359.999999844103
 41
0.933333333333333
 72
     1
 11
-485.272513539856
 21
103.50805986195
 31
0.0
 73
     2
  0
TEXT
  5
    85
  8
0
  6
CONTINUOUS
 62
     3
 10
-506.372514182891
 20
102.008059836265
 30
0.0
 40
3.00000009536734
  1
R MIN=
 50
359.999999844103
 41
0.933333333333334
 72
     1
 11
-498.272513921326
 21
103.50805986195
 31
0.0
 73
     2
  0
LINE
  5
    86
  8
0
  6
CONTINUOUS
 62
     3
 10
-512.617919921875
 20
95.0413716296382
 30
0.0
 11
-512.617919921875
 21
103.008059814266
 31
0.0
  0
LINE
  5
    87
  8
0
  6
CONTINUOUS
 62
     3
 10
-475.267925858498
 20
93.7696428430138
 30
0.0
 11
-475.267925858498
 21
103.008059814266
 31
0.0
  0
LINE
  5
    88
  8
0
  6
CONTINUOUS
 62
     3
 10
-512.617919921875
 20
101.008059814266
 30
0.0
 11
-475.267925858498
 21
101.008059814266
 31
0.0
  0
LINE
  5
    89
  8
0
  6
CONTINUOUS
 62
     3
 10
-509.720142448665
 20
101.784516970684
 30
0.0
 11
-512.617919921875
 21
101.008059814266
 31
0.0
  0
LINE
  5
    8A
  8
0
  6
CONTINUOUS
 62
     3
 10
-512.617919921875
 20
101.008059814266
 30
0.0
 11
-509.720142448665
 21
100.231602657847
 31
0.0
  0
LINE
  5
    8B
  8
0
  6
CONTINUOUS
 62
     3
 10
-478.165703331708
 20
100.231602657847
 30
0.0
 11
-475.267925858498
 21
101.008059814266
 31
0.0
  0
LINE
  5
    8C
  8
0
  6
CONTINUOUS
 62
     3
 10
-475.267925858498
 20
101.008059814266
 30
0.0
 11
-478.165703331708
 21
101.784516970684
 31
0.0
  0
ENDBLK
  5
    8D
  8
0
  6
CONTINUOUS
 62
     3
  0
BLOCK
  5
    8E
  8
0
  6
CONTINUOUS
 62
     3
  2
*UDIM913
 70
    65
 10
0.0
 20
0.0
 30
0.0
  3
*UDIM913
  0
TEXT
  5
    8F
  8
0
  6
CONTINUOUS
 62
     3
 10
-556.289261697673
 20
23.6079825719602
 30
0.0
 40
3.00000009536734
  1
5
 50
394.669054647615
 41
0.933333333333333
 72
     1
 11
-556.237818271998
 21
25.4673786550838
 31
0.0
 73
     2
  0
TEXT
  5
    90
  8
0
  6
CONTINUOUS
 62
     3
 10
-558.87998361271
 20
21.8161510161367
 30
0.0
 40
3.00000009536734
  1
Ø
 50
394.669054647615
 41
0.933333333333333
 72
     1
 11
-558.828540187035
 21
23.6755470992603
 31
0.0
 73
     2
  0
LINE
  5
    91
  8
0
  6
CONTINUOUS
 62
     3
 10
-534.809497124699
 20
37.2482423393199
 30
0.0
 11
-558.31114820359
 21
20.9936996295456
 31
0.0
  0
LINE
  5
    92
  8
0
  6
CONTINUOUS
 62
     3
 10
-532.675959239506
 20
39.3572743666834
 30
0.0
 11
-534.809497124699
 21
37.2482423393199
 31
0.0
  0
LINE
  5
    93
  8
0
  6
CONTINUOUS
 62
     3
 10
-534.809497124699
 20
37.2482423393199
 30
0.0
 11
-532.083295968886
 21
38.5003714293277
 31
0.0
  0
LINE
  5
    94
  8
0
  6
CONTINUOUS
 62
     3
 10
-537.559873451687
 20
34.7125838267141
 30
0.0
 11
-535.426335566494
 21
36.8216158540776
 31
0.0
  0
LINE
  5
    95
  8
0
  6
CONTINUOUS
 62
     3
 10
-535.426335566494
 20
36.8216158540776
 30
0.0
 11
-538.152536722307
 21
35.5694867640699
 31
0.0
  0
ENDBLK
  5
    96
  8
0
  6
CONTINUOUS
 62
     3
  0
BLOCK
  5
    97
  8
0
  6
CONTINUOUS
 62
     3
  2
*UDIM914
 70
    65
 10
0.0
 20
0.0
 30
0.0
  3
*UDIM914
  0
TEXT
  5
    98
  8
0
  6
CONTINUOUS
 62
     3
 10
-527.497759402206
 20
78.1734320121141
 30
0.0
 40
3.00000009536734
  1
4
 50
315.289627587423
 41
0.933333333333333
 72
     1
 11
-525.660734952686
 21
78.4655645023367
 31
0.0
 73
     2
  0
TEXT
  5
    99
  8
0
  6
CONTINUOUS
 62
     3
 10
-529.452107808702
 20
80.108121329871
 30
0.0
 40
3.00000009536734
  1
R
 50
315.289627587423
 41
0.933333333333333
 72
     1
 11
-527.615083359181
 21
80.4002538200936
 31
0.0
 73
     2
  0
LINE
  5
    9A
  8
0
  6
CONTINUOUS
 62
     3
 10
-538.019319160428
 20
87.1820351464301
 30
0.0
 11
-526.637804040388
 21
75.9150084231247
 31
0.0
  0
LINE
  5
    9B
  8
0
  6
CONTINUOUS
 62
     3
 10
-535.553196307401
 20
85.473750019826
 30
0.0
 11
-538.019319160428
 21
87.1820351464301
 31
0.0
  0
LINE
  5
    9C
  8
0
  6
CONTINUOUS
 62
     3
 10
-538.019319160428
 20
87.1820351464301
 30
0.0
 11
-536.286189466508
 21
84.7333086480126
 31
0.0
  0
ENDBLK
  5
    9D
  8
0
  6
CONTINUOUS
 62
     3
  0
BLOCK
  5
    9E
  8
0
  6
CONTINUOUS
 62
     3
  2
*UDIM915
 70
    65
 10
0.0
 20
0.0
 30
0.0
  3
*UDIM915
  0
TEXT
  5
    9F
  8
0
  6
CONTINUOUS
 62
     3
 10
-480.388750417011
 20
70.8974242503454
 30
0.0
 40
3.00000009536734
  1
143,5
 50
449.999999844103
 41
0.933333333333333
 72
     1
 11
-481.888750446506
 21
77.5974244674044
 31
0.0
 73
     2
  0
LINE
  5
    A0
  8
0
  6
CONTINUOUS
 62
     3
 10
-487.723747649872
 20
88.6349208950996
 30
0.0
 11
-477.388750398823
 21
88.6349208950996
 31
0.0
  0
LINE
  5
    A1
  8
0
  6
CONTINUOUS
 62
     3
 10
-479.388750398823
 20
88.6349208950996
 30
0.0
 11
-479.388750398823
 21
67.1099243164063
 31
0.0
  0
LINE
  5
    A2
  8
0
  6
CONTINUOUS
 62
     3
 10
-478.867805968871
 20
85.6804976178927
 30
0.0
 11
-479.388750398823
 21
88.6349208950996
 31
0.0
  0
LINE
  5
    A3
  8
0
  6
CONTINUOUS
 62
     3
 10
-479.388750398823
 20
88.6349208950996
 30
0.0
 11
-479.909694828774
 21
85.6804976178927
 31
0.0
  0
LINE
  5
    A4
  8
0
  6
CONTINUOUS
 62
     3
 10
-479.909694828774
 20
70.0643475936132
 30
0.0
 11
-479.388750398823
 21
67.1099243164063
 31
0.0
  0
LINE
  5
    A5
  8
0
  6
CONTINUOUS
 62
     3
 10
-479.388750398823
 20
67.1099243164063
 30
0.0
 11
-478.867805968871
 21
70.0643475936132
 31
0.0
  0
ENDBLK
  5
    A6
  8
0
  6
CONTINUOUS
 62
     3
  0
BLOCK
  5
    A7
  8
0
  6
CONTINUOUS
 62
     3
  2
*UDIM916
 70
    65
 10
0.0
 20
0.0
 30
0.0
  3
*UDIM916
  0
TEXT
  5
    A8
  8
0
  6
CONTINUOUS
 62
     3
 10
-516.792895001745
 20
111.606823942593
 30
0.0
 40
3.00000005960463
  1
406
 50
359.999999948034
 41
0.933333333333334
 72
     1
 11
-512.892894922906
 21
113.106823968878
 31
0.0
 73
     2
  0
LINE
  5
    A9
  8
0
  6
CONTINUOUS
 62
     3
 10
-472.01792264765
 20
161.539360880852
 30
0.0
 11
-472.017938835841
 21
108.606823939075
 31
0.0
  0
LINE
  5
    AA
  8
0
  6
CONTINUOUS
 62
     3
 10
-553.217917807753
 20
161.539360880852
 30
0.0
 11
-553.217933995944
 21
108.606823939075
 31
0.0
  0
LINE
  5
    AB
  8
0
  6
CONTINUOUS
 62
     3
 10
-472.017938224188
 20
110.606823939075
 30
0.0
 11
-553.21793338429
 21
110.606823939075
 31
0.0
  0
LINE
  5
    AC
  8
0
  6
CONTINUOUS
 62
     3
 10
-474.972361501394
 20
110.085879509124
 30
0.0
 11
-472.017938224188
 21
110.606823939075
 31
0.0
  0
LINE
  5
    AD
  8
0
  6
CONTINUOUS
 62
     3
 10
-472.017938224188
 20
110.606823939075
 30
0.0
 11
-474.972361501394
 21
111.127768369027
 31
0.0
  0
LINE
  5
    AE
  8
0
  6
CONTINUOUS
 62
     3
 10
-550.263510107083
 20
111.127768369027
 30
0.0
 11
-553.21793338429
 21
110.606823939075
 31
0.0
  0
LINE
  5
    AF
  8
0
  6
CONTINUOUS
 62
     3
 10
-553.21793338429
 20
110.606823939075
 30
0.0
 11
-550.263510107083
 21
110.085879509124
 31
0.0
  0
ENDBLK
  5
    B0
  8
0
  6
CONTINUOUS
 62
     3
  0
BLOCK
  5
    B1
  8
0
  6
CONTINUOUS
 62
     3
  2
*UDIM917
 70
    65
 10
0.0
 20
0.0
 30
0.0
  3
*UDIM917
  0
TEXT
  5
    B2
  8
0
  6
CONTINUOUS
 62
     3
 10
-516.792894998218
 20
280.688802441264
 30
0.0
 40
3.00000005960463
  1
380
 50
359.999999948034
 41
0.933333333333334
 72
     1
 11
-512.892894919379
 21
282.188802467549
 31
0.0
 73
     2
  0
LINE
  5
    B3
  8
0
  6
CONTINUOUS
 62
     3
 10
-474.617921915172
 20
238.039356440306
 30
0.0
 11
-474.617910056511
 21
281.688802437746
 31
0.0
  0
LINE
  5
    B4
  8
0
  6
CONTINUOUS
 62
     3
 10
-550.617917385219
 20
238.039356440306
 30
0.0
 11
-550.617905526558
 21
281.688802437746
 31
0.0
  0
LINE
  5
    B5
  8
0
  6
CONTINUOUS
 62
     3
 10
-474.61791059987
 20
279.688802437746
 30
0.0
 11
-550.617906069917
 21
279.688802437746
 31
0.0
  0
LINE
  5
    B6
  8
0
  6
CONTINUOUS
 62
     3
 10
-477.572333877077
 20
279.167858007795
 30
0.0
 11
-474.61791059987
 21
279.688802437746
 31
0.0
  0
LINE
  5
    B7
  8
0
  6
CONTINUOUS
 62
     3
 10
-474.61791059987
 20
279.688802437746
 30
0.0
 11
-477.572333877077
 21
280.209746867698
 31
0.0
  0
LINE
  5
    B8
  8
0
  6
CONTINUOUS
 62
     3
 10
-547.66348279271
 20
280.209746867698
 30
0.0
 11
-550.617906069917
 21
279.688802437746
 31
0.0
  0
LINE
  5
    B9
  8
0
  6
CONTINUOUS
 62
     3
 10
-550.617906069917
 20
279.688802437746
 30
0.0
 11
-547.66348279271
 21
279.167858007795
 31
0.0
  0
ENDBLK
  5
    BA
  8
0
  6
CONTINUOUS
 62
     3
  0
BLOCK
  5
    BB
  8
0
  6
CONTINUOUS
 62
     7
  2
*UDIM918
 70
    65
 10
0.0
 20
0.0
 30
0.0
  3
*UDIM918
  0
TEXT
  5
    BC
  8
0
  6
CONTINUOUS
 62
     7
 10
-447.564731486551
 20
161.614360735945
 30
0.0
 40
3.00000005960463
  1
20
 50
89.9999999480344
 41
0.933333333333334
 72
     1
 11
-449.064731514089
 21
164.114360786974
 31
0.0
 73
     2
  0
LINE
  5
    BD
  8
0
  6
CONTINUOUS
 62
     3
 10
-470.717922359705
 20
170.139360427856
 30
0.0
 11
-444.564731484286
 21
170.139360427856
 31
0.0
  0
LINE
  5
    BE
  8
0
  6
CONTINUOUS
 62
     3
 10
-470.717922359705
 20
174.139360189438
 30
0.0
 11
-444.564731484286
 21
174.139360189438
 31
0.0
  0
LINE
  5
    BF
  8
0
  6
CONTINUOUS
 62
     3
 10
-446.564731484287
 20
161.614360737304
 30
0.0
 11
-446.564731484287
 21
174.139360189438
 31
0.0
  0
LINE
  5
    C0
  8
0
  6
CONTINUOUS
 62
     3
 10
-446.043787054335
 20
167.184937150649
 30
0.0
 11
-446.564731484287
 21
170.139360427856
 31
0.0
  0
LINE
  5
    C1
  8
0
  6
CONTINUOUS
 62
     3
 10
-446.564731484287
 20
170.139360427856
 30
0.0
 11
-447.085675914238
 21
167.184937150649
 31
0.0
  0
LINE
  5
    C2
  8
0
  6
CONTINUOUS
 62
     3
 10
-447.085675914238
 20
177.093783466645
 30
0.0
 11
-446.564731484287
 21
174.139360189438
 31
0.0
  0
LINE
  5
    C3
  8
0
  6
CONTINUOUS
 62
     3
 10
-446.564731484287
 20
174.139360189438
 30
0.0
 11
-446.043787054335
 21
177.093783466645
 31
0.0
  0
ENDBLK
  5
    C4
  8
0
  6
CONTINUOUS
 62
     7
  0
BLOCK
  5
    C5
  8
0
  6
CONTINUOUS
 62
     7
  2
*UDIM919
 70
    65
 10
0.0
 20
0.0
 30
0.0
  3
*UDIM919
  0
TEXT
  5
    C6
  8
0
  6
CONTINUOUS
 62
     7
 10
-447.564731487819
 20
197.964334282412
 30
0.0
 40
3.00000005960463
  1
280
 50
89.9999999480344
 41
0.933333333333334
 72
     1
 11
-449.064731514089
 21
201.864334361257
 31
0.0
 73
     2
  0
LINE
  5
    C7
  8
0
  6
CONTINUOUS
 62
     3
 10
-470.717922359705
 20
230.139356851578
 30
0.0
 11
-444.564731484286
 21
230.139356851578
 31
0.0
  0
LINE
  5
    C8
  8
0
  6
CONTINUOUS
 62
     3
 10
-446.564731484287
 20
174.139360189438
 30
0.0
 11
-446.564731484287
 21
230.139356851578
 31
0.0
  0
LINE
  5
    C9
  8
0
  6
CONTINUOUS
 62
     3
 10
-447.085675914238
 20
177.093783466645
 30
0.0
 11
-446.564731484287
 21
174.139360189438
 31
0.0
  0
LINE
  5
    CA
  8
0
  6
CONTINUOUS
 62
     3
 10
-446.564731484287
 20
174.139360189438
 30
0.0
 11
-446.043787054335
 21
177.093783466645
 31
0.0
  0
LINE
  5
    CB
  8
0
  6
CONTINUOUS
 62
     3
 10
-446.043787054335
 20
227.184933574371
 30
0.0
 11
-446.564731484287
 21
230.139356851578
 31
0.0
  0
LINE
  5
    CC
  8
0
  6
CONTINUOUS
 62
     3
 10
-446.564731484287
 20
230.139356851578
 30
0.0
 11
-447.085675914238
 21
227.184933574371
 31
0.0
  0
ENDBLK
  5
    CD
  8
0
  6
CONTINUOUS
 62
     7
  0
BLOCK
  5
    CE
  8
0
  6
CONTINUOUS
 62
     7
  2
*UDIM920
 70
    65
 10
0.0
 20
0.0
 30
0.0
  3
*UDIM920
  0
TEXT
  5
    CF
  8
0
  6
CONTINUOUS
 62
     7
 10
-447.564731486551
 20
237.114307407673
 30
0.0
 40
3.00000005960463
  1
20
 50
89.9999999480344
 41
0.933333333333334
 72
     1
 11
-449.064731514089
 21
239.614307458702
 31
0.0
 73
     2
  0
LINE
  5
    D0
  8
0
  6
CONTINUOUS
 62
     3
 10
-470.717922359705
 20
234.139356613159
 30
0.0
 11
-444.564731484286
 21
234.139356613159
 31
0.0
  0
LINE
  5
    D1
  8
0
  6
CONTINUOUS
 62
     3
 10
-446.564731484287
 20
230.139356851578
 30
0.0
 11
-446.564731484287
 21
242.114307508372
 31
0.0
  0
LINE
  5
    D2
  8
0
  6
CONTINUOUS
 62
     3
 10
-446.043787054335
 20
227.184933574371
 30
0.0
 11
-446.564731484287
 21
230.139356851578
 31
0.0
  0
LINE
  5
    D3
  8
0
  6
CONTINUOUS
 62
     3
 10
-446.564731484287
 20
230.139356851578
 30
0.0
 11
-447.085675914238
 21
227.184933574371
 31
0.0
  0
LINE
  5
    D4
  8
0
  6
CONTINUOUS
 62
     3
 10
-447.085675914238
 20
237.093779890366
 30
0.0
 11
-446.564731484287
 21
234.139356613159
 31
0.0
  0
LINE
  5
    D5
  8
0
  6
CONTINUOUS
 62
     3
 10
-446.564731484287
 20
234.139356613159
 30
0.0
 11
-446.043787054335
 21
237.093779890366
 31
0.0
  0
ENDBLK
  5
    D6
  8
0
  6
CONTINUOUS
 62
     7
  0
BLOCK
  5
    D7
  8
0
  6
CONTINUOUS
 62
     3
  2
*UDIM921
 70
    65
 10
0.0
 20
0.0
 30
0.0
  3
*UDIM921
  0
TEXT
  5
    D8
  8
0
  6
CONTINUOUS
 62
     3
 10
-579.167888759709
 20
197.964334282412
 30
0.0
 40
3.00000005960463
  1
400
 50
89.9999999480344
 41
0.933333333333334
 72
     1
 11
-580.667888785979
 21
201.864334361257
 31
0.0
 73
     2
  0
LINE
  5
    D9
  8
0
  6
CONTINUOUS
 62
     3
 10
-553.817917525768
 20
162.139360904694
 30
0.0
 11
-580.167888756176
 21
162.139360904694
 31
0.0
  0
LINE
  5
    DA
  8
0
  6
CONTINUOUS
 62
     3
 10
-553.817917525768
 20
242.139356136322
 30
0.0
 11
-580.167888756176
 21
242.139356136322
 31
0.0
  0
LINE
  5
    DB
  8
0
  6
CONTINUOUS
 62
     3
 10
-578.167888756176
 20
162.139360904694
 30
0.0
 11
-578.167888756176
 21
242.139356136322
 31
0.0
  0
LINE
  5
    DC
  8
0
  6
CONTINUOUS
 62
     3
 10
-578.688833186128
 20
165.093784181901
 30
0.0
 11
-578.167888756176
 21
162.139360904694
 31
0.0
  0
LINE
  5
    DD
  8
0
  6
CONTINUOUS
 62
     3
 10
-578.167888756176
 20
162.139360904694
 30
0.0
 11
-577.646944326225
 21
165.093784181901
 31
0.0
  0
LINE
  5
    DE
  8
0
  6
CONTINUOUS
 62
     3
 10
-577.646944326225
 20
239.184932859115
 30
0.0
 11
-578.167888756176
 21
242.139356136322
 31
0.0
  0
LINE
  5
    DF
  8
0
  6
CONTINUOUS
 62
     3
 10
-578.167888756176
 20
242.139356136322
 30
0.0
 11
-578.688833186128
 21
239.184932859115
 31
0.0
  0
ENDBLK
  5
    E0
  8
0
  6
CONTINUOUS
 62
     3
  0
BLOCK
  5
    E1
  8
0
  6
CONTINUOUS
 62
     7
  2
*UDIM922
 70
    65
 10
0.0
 20
0.0
 30
0.0
  3
*UDIM922
  0
TEXT
  5
    E2
  8
0
  6
CONTINUOUS
 62
     7
 10
-504.792920527153
 20
126.378606901683
 30
0.0
 40
3.00000005960463
  1
120
 50
359.999999948034
 41
0.933333333333334
 72
     1
 11
-500.892920448315
 21
127.878606927967
 31
0.0
 73
     2
  0
LINE
  5
    E3
  8
0
  6
CONTINUOUS
 62
     3
 10
-488.61792168298
 20
137.343171613523
 30
0.0
 11
-488.617926299576
 21
123.378606898165
 31
0.0
  0
LINE
  5
    E4
  8
0
  6
CONTINUOUS
 62
     3
 10
-512.617920252469
 20
137.343171613523
 30
0.0
 11
-512.617924869064
 21
123.378606898165
 31
0.0
  0
LINE
  5
    E5
  8
0
  6
CONTINUOUS
 62
     3
 10
-488.617925638389
 20
125.378606898165
 30
0.0
 11
-512.617924207877
 21
125.378606898165
 31
0.0
  0
LINE
  5
    E6
  8
0
  6
CONTINUOUS
 62
     3
 10
-491.572348915596
 20
124.857662468213
 30
0.0
 11
-488.617925638389
 21
125.378606898165
 31
0.0
  0
LINE
  5
    E7
  8
0
  6
CONTINUOUS
 62
     3
 10
-488.617925638389
 20
125.378606898165
 30
0.0
 11
-491.572348915596
 21
125.899551328117
 31
0.0
  0
LINE
  5
    E8
  8
0
  6
CONTINUOUS
 62
     3
 10
-509.66350093067
 20
125.899551328117
 30
0.0
 11
-512.617924207877
 21
125.378606898165
 31
0.0
  0
LINE
  5
    E9
  8
0
  6
CONTINUOUS
 62
     3
 10
-512.617924207877
 20
125.378606898165
 30
0.0
 11
-509.66350093067
 21
124.857662468213
 31
0.0
  0
ENDBLK
  5
    EA
  8
0
  6
CONTINUOUS
 62
     7
  0
BLOCK
  5
    EB
  8
0
  6
CONTINUOUS
 62
     7
  2
*UDIM923
 70
    65
 10
0.0
 20
0.0
 30
0.0
  3
*UDIM923
  0
TEXT
  5
    EC
  8
0
  6
CONTINUOUS
 62
     7
 10
-528.792912972648
 20
126.378606901683
 30
0.0
 40
3.00000005960463
  1
120
 50
359.999999948034
 41
0.933333333333334
 72
     1
 11
-524.892912893809
 21
127.878606927967
 31
0.0
 73
     2
  0
LINE
  5
    ED
  8
0
  6
CONTINUOUS
 62
     3
 10
-536.617918818902
 20
140.250687049558
 30
0.0
 11
-536.61792434516
 21
123.378606898165
 31
0.0
  0
LINE
  5
    EE
  8
0
  6
CONTINUOUS
 62
     3
 10
-512.617924207877
 20
125.378606898165
 30
0.0
 11
-536.617923690083
 21
125.378606898165
 31
0.0
  0
LINE
  5
    EF
  8
0
  6
CONTINUOUS
 62
     3
 10
-515.572347485084
 20
124.857662468213
 30
0.0
 11
-512.617924207877
 21
125.378606898165
 31
0.0
  0
LINE
  5
    F0
  8
0
  6
CONTINUOUS
 62
     3
 10
-512.617924207877
 20
125.378606898165
 30
0.0
 11
-515.572347485084
 21
125.899551328117
 31
0.0
  0
LINE
  5
    F1
  8
0
  6
CONTINUOUS
 62
     3
 10
-533.663500412876
 20
125.899551328117
 30
0.0
 11
-536.617923690083
 21
125.378606898165
 31
0.0
  0
LINE
  5
    F2
  8
0
  6
CONTINUOUS
 62
     3
 10
-536.617923690083
 20
125.378606898165
 30
0.0
 11
-533.663500412876
 21
124.857662468213
 31
0.0
  0
ENDBLK
  5
    F3
  8
0
  6
CONTINUOUS
 62
     7
  0
BLOCK
  5
    F4
  8
0
  6
CONTINUOUS
 62
     3
  2
*UDIM924
 70
    65
 10
0.0
 20
0.0
 30
0.0
  3
*UDIM924
  0
TEXT
  5
    F5
  8
0
  6
CONTINUOUS
 62
     3
 10
-562.008645211027
 20
234.746099060953
 30
0.0
 40
3.00000005960463
  1
9
 50
361.98031694439
 41
0.933333333333334
 72
     1
 11
-560.961136411977
 21
236.283215014094
 31
0.0
 73
     2
  0
TEXT
  5
    F6
  8
0
  6
CONTINUOUS
 62
     3
 10
-565.156763927926
 20
234.637247122147
 30
0.0
 40
3.00000005960463
  1
Ø
 50
361.98031694439
 41
0.933333333333334
 72
     1
 11
-564.109255128876
 21
236.174363075288
 31
0.0
 73
     2
  0
LINE
  5
    F7
  8
0
  6
CONTINUOUS
 62
     3
 10
-565.122207755839
 20
233.637844364018
 30
0.0
 11
-549.718455229045
 21
234.170457164936
 31
0.0
  0
LINE
  5
    F8
  8
0
  6
CONTINUOUS
 62
     3
 10
-554.452037009233
 20
233.485529206659
 30
0.0
 11
-551.517380084752
 21
234.108256061382
 31
0.0
  0
LINE
  5
    F9
  8
0
  6
CONTINUOUS
 62
     3
 10
-551.517380084752
 20
234.108256061382
 30
0.0
 11
-554.488040698527
 21
234.526795805926
 31
0.0
  0
LINE
  5
    FA
  8
0
  6
CONTINUOUS
 62
     3
 10
-546.783798304564
 20
234.793184019659
 30
0.0
 11
-549.718455229045
 21
234.170457164936
 31
0.0
  0
LINE
  5
    FB
  8
0
  6
CONTINUOUS
 62
     3
 10
-549.718455229045
 20
234.170457164936
 30
0.0
 11
-546.74779461527
 21
233.751917420392
 31
0.0
  0
ENDBLK
  5
    FC
  8
0
  6
CONTINUOUS
 62
     3
  0
BLOCK
  5
    FD
  8
0
  6
CONTINUOUS
 62
     3
  2
*UDIM925
 70
    65
 10
0.0
 20
0.0
 30
0.0
  3
*UDIM925
  0
TEXT
  5
    FE
  8
0
  6
CONTINUOUS
 62
     3
 10
-548.010279593015
 20
143.340884112951
 30
0.0
 40
3.00000005960463
  1
15
 50
419.987994228399
 41
0.933333333333334
 72
     1
 11
-548.058706875481
 21
146.25595789179
 31
0.0
 73
     2
  0
TEXT
  5
    FF
  8
0
  6
CONTINUOUS
 62
     3
 10
-549.585851192367
 20
140.613234147214
 30
0.0
 40
3.00000005960463
  1
Ø
 50
419.987994228399
 41
0.933333333333334
 72
     1
 11
-550.334532527413
 21
142.316019041451
 31
0.0
 73
     2
  0
LINE
  5
   100
  8
0
  6
CONTINUOUS
 62
     3
 10
-548.719930575728
 20
140.113052692478
 30
0.0
 11
-539.867646114549
 21
155.438242226768
 31
0.0
  0
LINE
  5
   101
  8
0
  6
CONTINUOUS
 62
     3
 10
-542.394841604815
 20
150.021617771653
 30
0.0
 11
-541.368190391341
 21
152.840480536293
 31
0.0
  0
LINE
  5
   102
  8
0
  6
CONTINUOUS
 62
     3
 10
-541.368190391341
 20
152.840480536293
 30
0.0
 11
-543.297034647253
 21
150.542751257976
 31
0.0
  0
LINE
  5
   103
  8
0
  6
CONTINUOUS
 62
     3
 10
-538.840994901075
 20
158.257104991408
 30
0.0
 11
-539.867646114549
 21
155.438242226768
 31
0.0
  0
LINE
  5
   104
  8
0
  6
CONTINUOUS
 62
     3
 10
-539.867646114549
 20
155.438242226768
 30
0.0
 11
-537.938801858637
 21
157.735971505086
 31
0.0
  0
ENDBLK
  5
   105
  8
0
  6
CONTINUOUS
 62
     3
  0
BLOCK
  5
   106
  8
0
  6
CONTINUOUS
 62
     3
  2
*UDIM926
 70
    65
 10
0.0
 20
0.0
 30
0.0
  3
*UDIM926
  0
TEXT
  5
   107
  8
0
  6
CONTINUOUS
 62
     3
 10
-515.392917945796
 20
138.557184637785
 30
0.0
 40
3.00000005960463
  1
80
 50
359.999999948034
 41
0.933333333333334
 72
     1
 11
-512.892917894772
 21
140.057184665333
 31
0.0
 73
     2
  0
LINE
  5
   108
  8
0
  6
CONTINUOUS
 62
     3
 10
-504.617920712629
 20
149.139361619949
 30
0.0
 11
-504.617924976298
 21
135.557184635531
 31
0.0
  0
LINE
  5
   109
  8
0
  6
CONTINUOUS
 62
     3
 10
-520.617919758954
 20
149.139361619949
 30
0.0
 11
-520.617924022624
 21
135.557184635531
 31
0.0
  0
LINE
  5
   10A
  8
0
  6
CONTINUOUS
 62
     3
 10
-504.617924348465
 20
137.557184635531
 30
0.0
 11
-520.617923394791
 21
137.557184635531
 31
0.0
  0
LINE
  5
   10B
  8
0
  6
CONTINUOUS
 62
     3
 10
-507.572347625672
 20
137.036240205579
 30
0.0
 11
-504.617924348465
 21
137.557184635531
 31
0.0
  0
LINE
  5
   10C
  8
0
  6
CONTINUOUS
 62
     3
 10
-504.617924348465
 20
137.557184635531
 30
0.0
 11
-507.572347625672
 21
138.078129065482
 31
0.0
  0
LINE
  5
   10D
  8
0
  6
CONTINUOUS
 62
     3
 10
-517.663500117584
 20
138.078129065482
 30
0.0
 11
-520.617923394791
 21
137.557184635531
 31
0.0
  0
LINE
  5
   10E
  8
0
  6
CONTINUOUS
 62
     3
 10
-520.617923394791
 20
137.557184635531
 30
0.0
 11
-517.663500117584
 21
137.036240205579
 31
0.0
  0
ENDBLK
  5
   10F
  8
0
  6
CONTINUOUS
 62
     3
  0
BLOCK
  5
   110
  8
0
  6
CONTINUOUS
 62
     7
  2
*UDIM927
 70
    65
 10
0.0
 20
0.0
 30
0.0
  3
*UDIM927
  0
TEXT
  5
   111
  8
0
  6
CONTINUOUS
 62
     7
 10
-474.984518619681
 20
138.557184636523
 30
0.0
 40
3.00000005960463
  1
=
 50
359.999999948034
 41
0.933333333333334
 72
     1
 11
-473.884518596473
 21
140.057184665333
 31
0.0
 73
     2
  0
LINE
  5
   112
  8
0
  6
CONTINUOUS
 62
     3
 10
-480.617922442532
 20
149.13936161995
 30
0.0
 11
-480.61793077259
 21
135.557184635531
 31
0.0
  0
LINE
  5
   113
  8
0
  6
CONTINUOUS
 62
     3
 10
-484.617922072692
 20
149.639361590147
 30
0.0
 11
-484.617928858704
 21
135.557184635531
 31
0.0
  0
LINE
  5
   114
  8
0
  6
CONTINUOUS
 62
     3
 10
-472.784518574618
 20
137.557184635531
 30
0.0
 11
-484.617927894931
 21
137.557184635531
 31
0.0
  0
LINE
  5
   115
  8
0
  6
CONTINUOUS
 62
     3
 10
-477.663506268767
 20
138.078129065482
 30
0.0
 11
-480.617929545974
 21
137.557184635531
 31
0.0
  0
LINE
  5
   116
  8
0
  6
CONTINUOUS
 62
     3
 10
-480.617929545974
 20
137.557184635531
 30
0.0
 11
-477.663506268767
 21
137.036240205579
 31
0.0
  0
LINE
  5
   117
  8
0
  6
CONTINUOUS
 62
     3
 10
-487.572351172138
 20
137.036240205579
 30
0.0
 11
-484.617927894931
 21
137.557184635531
 31
0.0
  0
LINE
  5
   118
  8
0
  6
CONTINUOUS
 62
     3
 10
-484.617927894931
 20
137.557184635531
 30
0.0
 11
-487.572351172138
 21
138.078129065482
 31
0.0
  0
ENDBLK
  5
   119
  8
0
  6
CONTINUOUS
 62
     7
  0
BLOCK
  5
   11A
  8
0
  6
CONTINUOUS
 62
     7
  2
*UDIM928
 70
    65
 10
0.0
 20
0.0
 30
0.0
  3
*UDIM928
  0
TEXT
  5
   11B
  8
0
  6
CONTINUOUS
 62
     7
 10
-491.023377850784
 20
138.557184637785
 30
0.0
 40
3.00000005960463
  1
40
 50
359.999999948034
 41
0.933333333333334
 72
     1
 11
-488.523377799761
 21
140.057184665333
 31
0.0
 73
     2
  0
LINE
  5
   11C
  8
0
  6
CONTINUOUS
 62
     3
 10
-492.617922055444
 20
149.639361590148
 30
0.0
 11
-492.617935313481
 21
135.557184635531
 31
0.0
  0
LINE
  5
   11D
  8
0
  6
CONTINUOUS
 62
     3
 10
-484.617927894931
 20
137.557184635531
 30
0.0
 11
-492.617933430528
 21
137.557184635531
 31
0.0
  0
LINE
  5
   11E
  8
0
  6
CONTINUOUS
 62
     3
 10
-481.663504617724
 20
138.078129065482
 30
0.0
 11
-484.617927894931
 21
137.557184635531
 31
0.0
  0
LINE
  5
   11F
  8
0
  6
CONTINUOUS
 62
     3
 10
-484.617927894931
 20
137.557184635531
 30
0.0
 11
-481.663504617724
 21
137.036240205579
 31
0.0
  0
LINE
  5
   120
  8
0
  6
CONTINUOUS
 62
     3
 10
-495.572356707735
 20
137.036240205579
 30
0.0
 11
-492.617933430528
 21
137.557184635531
 31
0.0
  0
LINE
  5
   121
  8
0
  6
CONTINUOUS
 62
     3
 10
-492.617933430528
 20
137.557184635531
 30
0.0
 11
-495.572356707735
 21
138.078129065482
 31
0.0
  0
ENDBLK
  5
   122
  8
0
  6
CONTINUOUS
 62
     7
  0
BLOCK
  5
   123
  8
0
  6
CONTINUOUS
 62
     7
  2
*UDIM929
 70
    65
 10
0.0
 20
0.0
 30
0.0
  3
*UDIM929
  0
TEXT
  5
   124
  8
0
  6
CONTINUOUS
 62
     7
 10
-502.484513748406
 20
138.557184636523
 30
0.0
 40
3.00000005960463
  1
=
 50
359.999999948034
 41
0.933333333333334
 72
     1
 11
-501.384513725198
 21
140.057184665333
 31
0.0
 73
     2
  0
LINE
  5
   125
  8
0
  6
CONTINUOUS
 62
     3
 10
-496.617922073788
 20
149.13936161995
 30
0.0
 11
-496.617938348472
 21
135.557184635532
 31
0.0
  0
LINE
  5
   126
  8
0
  6
CONTINUOUS
 62
     3
 10
-492.617933430528
 20
137.557184635531
 30
0.0
 11
-502.484513747053
 21
137.557184635531
 31
0.0
  0
LINE
  5
   127
  8
0
  6
CONTINUOUS
 62
     3
 10
-489.663510153321
 20
138.078129065482
 30
0.0
 11
-492.617933430528
 21
137.557184635531
 31
0.0
  0
LINE
  5
   128
  8
0
  6
CONTINUOUS
 62
     3
 10
-492.617933430528
 20
137.557184635531
 30
0.0
 11
-489.663510153321
 21
137.036240205579
 31
0.0
  0
LINE
  5
   129
  8
0
  6
CONTINUOUS
 62
     3
 10
-499.572359229202
 20
137.036240205579
 30
0.0
 11
-496.617935951995
 21
137.557184635531
 31
0.0
  0
LINE
  5
   12A
  8
0
  6
CONTINUOUS
 62
     3
 10
-496.617935951995
 20
137.557184635531
 30
0.0
 11
-499.572359229202
 21
138.078129065482
 31
0.0
  0
ENDBLK
  5
   12B
  8
0
  6
CONTINUOUS
 62
     7
  0
BLOCK
  5
   12C
  8
0
  6
CONTINUOUS
 62
     7
  2
*UDIM930
 70
    65
 10
0.0
 20
0.0
 30
0.0
  3
*UDIM930
  0
TEXT
  5
   12D
  8
0
  6
CONTINUOUS
 62
     7
 10
-463.94999080221
 20
141.614361928038
 30
0.0
 40
3.00000005960463
  1
20
 50
89.9999999480344
 41
0.933333333333334
 72
     1
 11
-465.449990829748
 21
144.114361979067
 31
0.0
 73
     2
  0
LINE
  5
   12E
  8
0
  6
CONTINUOUS
 62
     3
 10
-479.617921829224
 20
150.139361619949
 30
0.0
 11
-460.949990799945
 21
150.139361619949
 31
0.0
  0
LINE
  5
   12F
  8
0
  6
CONTINUOUS
 62
     3
 10
-480.117921799421
 20
154.139361381531
 30
0.0
 11
-460.949990799945
 21
154.139361381531
 31
0.0
  0
LINE
  5
   130
  8
0
  6
CONTINUOUS
 62
     3
 10
-462.949990799945
 20
141.614361929397
 30
0.0
 11
-462.949990799945
 21
154.139361381531
 31
0.0
  0
LINE
  5
   131
  8
0
  6
CONTINUOUS
 62
     3
 10
-462.429046369994
 20
147.184938342742
 30
0.0
 11
-462.949990799945
 21
150.139361619949
 31
0.0
  0
LINE
  5
   132
  8
0
  6
CONTINUOUS
 62
     3
 10
-462.949990799945
 20
150.139361619949
 30
0.0
 11
-463.470935229897
 21
147.184938342742
 31
0.0
  0
LINE
  5
   133
  8
0
  6
CONTINUOUS
 62
     3
 10
-463.470935229897
 20
157.093784658738
 30
0.0
 11
-462.949990799945
 21
154.139361381531
 31
0.0
  0
LINE
  5
   134
  8
0
  6
CONTINUOUS
 62
     3
 10
-462.949990799945
 20
154.139361381531
 30
0.0
 11
-462.429046369994
 21
157.093784658738
 31
0.0
  0
ENDBLK
  5
   135
  8
0
  6
CONTINUOUS
 62
     7
  0
BLOCK
  5
   136
  8
0
  6
CONTINUOUS
 62
     7
  2
*UDIM931
 70
    65
 10
0.0
 20
0.0
 30
0.0
  3
*UDIM931
  0
TEXT
  5
   137
  8
0
  6
CONTINUOUS
 62
     7
 10
-463.94999080221
 20
156.036523076696
 30
0.0
 40
3.00000005960463
  1
40
 50
89.9999999480344
 41
0.933333333333334
 72
     1
 11
-465.449990829748
 21
158.536523127725
 31
0.0
 73
     2
  0
LINE
  5
   138
  8
0
  6
CONTINUOUS
 62
     3
 10
-471.417922317982
 20
162.139360904694
 30
0.0
 11
-460.949990799945
 21
162.139360904694
 31
0.0
  0
LINE
  5
   139
  8
0
  6
CONTINUOUS
 62
     3
 10
-462.949990799945
 20
154.139361381531
 30
0.0
 11
-462.949990799945
 21
162.139360904694
 31
0.0
  0
LINE
  5
   13A
  8
0
  6
CONTINUOUS
 62
     3
 10
-462.429046369994
 20
151.184938104324
 30
0.0
 11
-462.949990799945
 21
154.139361381531
 31
0.0
  0
LINE
  5
   13B
  8
0
  6
CONTINUOUS
 62
     3
 10
-462.949990799945
 20
154.139361381531
 30
0.0
 11
-463.470935229897
 21
151.184938104324
 31
0.0
  0
LINE
  5
   13C
  8
0
  6
CONTINUOUS
 62
     3
 10
-463.470935229897
 20
165.093784181901
 30
0.0
 11
-462.949990799945
 21
162.139360904694
 31
0.0
  0
LINE
  5
   13D
  8
0
  6
CONTINUOUS
 62
     3
 10
-462.949990799945
 20
162.139360904694
 30
0.0
 11
-462.429046369994
 21
165.093784181901
 31
0.0
  0
ENDBLK
  5
   13E
  8
0
  6
CONTINUOUS
 62
     7
  0
BLOCK
  5
   13F
  8
0
  6
CONTINUOUS
 62
     7
  2
*UDIM932
 70
    65
 10
0.0
 20
0.0
 30
0.0
  3
*UDIM932
  0
TEXT
  5
   140
  8
0
  6
CONTINUOUS
 62
     7
 10
-570.336650271273
 20
192.539359097483
 30
0.0
 40
2.99999994933605
  1
313
 50
90.0
 41
0.933333333333333
 72
     1
 11
-571.836650245946
 21
196.439359031618
 31
0.0
 73
     2
  0
LINE
  5
   141
  8
0
  6
CONTINUOUS
 62
     3
 10
-528.162870561104
 20
165.139358565211
 30
0.0
 11
-571.336650271278
 21
165.139358565211
 31
0.0
  0
LINE
  5
   142
  8
0
  6
CONTINUOUS
 62
     3
 10
-545.617895379663
 20
227.739359498024
 30
0.0
 11
-571.336650271278
 21
227.739359498024
 31
0.0
  0
LINE
  5
   143
  8
0
  6
CONTINUOUS
 62
     3
 10
-569.336650271278
 20
165.139358565211
 30
0.0
 11
-569.336650271278
 21
227.739359498024
 31
0.0
  0
LINE
  5
   144
  8
0
  6
CONTINUOUS
 62
     3
 10
-570.113107427697
 20
168.037136038422
 30
0.0
 11
-569.336650271278
 21
165.139358565211
 31
0.0
  0
LINE
  5
   145
  8
0
  6
CONTINUOUS
 62
     3
 10
-569.336650271278
 20
165.139358565211
 30
0.0
 11
-568.56019311486
 21
168.037136038422
 31
0.0
  0
LINE
  5
   146
  8
0
  6
CONTINUOUS
 62
     3
 10
-568.56019311486
 20
224.841582024813
 30
0.0
 11
-569.336650271278
 21
227.739359498024
 31
0.0
  0
LINE
  5
   147
  8
0
  6
CONTINUOUS
 62
     3
 10
-569.336650271278
 20
227.739359498024
 30
0.0
 11
-570.113107427697
 21
224.841582024813
 31
0.0
  0
ENDBLK
  5
   148
  8
0
  6
CONTINUOUS
 62
     7
  0
BLOCK
  5
   149
  8
0
  6
CONTINUOUS
 62
     7
  2
*UDIM933
 70
    65
 10
0.0
 20
0.0
 30
0.0
  3
*UDIM933
  0
TEXT
  5
   14A
  8
0
  6
CONTINUOUS
 62
     7
 10
-570.336650271275
 20
153.382309671885
 30
0.0
 40
2.99999994933605
  1
15
 50
90.0
 41
0.933333333333333
 72
     1
 11
-571.836650245946
 21
155.882309629663
 31
0.0
 73
     2
  0
LINE
  5
   14B
  8
0
  6
CONTINUOUS
 62
     3
 10
-527.731878920886
 20
162.139358520508
 30
0.0
 11
-571.336650271278
 21
162.139358520508
 31
0.0
  0
LINE
  5
   14C
  8
0
  6
CONTINUOUS
 62
     3
 10
-569.336650271278
 20
153.382309671883
 30
0.0
 11
-569.336650271278
 21
165.139358565211
 31
0.0
  0
LINE
  5
   14D
  8
0
  6
CONTINUOUS
 62
     3
 10
-568.56019311486
 20
159.241581047297
 30
0.0
 11
-569.336650271278
 21
162.139358520508
 31
0.0
  0
LINE
  5
   14E
  8
0
  6
CONTINUOUS
 62
     3
 10
-569.336650271278
 20
162.139358520508
 30
0.0
 11
-570.113107427697
 21
159.241581047297
 31
0.0
  0
LINE
  5
   14F
  8
0
  6
CONTINUOUS
 62
     7
 10
-570.113107427697
 20
168.037136038422
 30
0.0
 11
-569.336650271278
 21
165.139358565211
 31
0.0
  0
LINE
  5
   150
  8
0
  6
CONTINUOUS
 62
     7
 10
-569.336650271278
 20
165.139358565211
 30
0.0
 11
-568.56019311486
 21
168.037136038422
 31
0.0
  0
ENDBLK
  5
   151
  8
0
  6
CONTINUOUS
 62
     7
  0
BLOCK
  5
   152
  8
0
  6
CONTINUOUS
 62
     3
  2
*UDIM934
 70
    65
 10
0.0
 20
0.0
 30
0.0
  3
*UDIM934
  0
TEXT
  5
   153
  8
0
  6
CONTINUOUS
 62
     3
 10
-516.517894836962
 20
272.794158623662
 30
0.0
 40
2.99999994933605
  1
324
 41
0.933333333333333
 72
     1
 11
-512.617894902825
 21
274.29415859833
 31
0.0
 73
     2
  0
LINE
  5
   154
  8
0
  6
CONTINUOUS
 62
     3
 10
-545.017895385623
 20
228.339359492064
 30
0.0
 11
-545.017895385623
 21
273.794158623662
 31
0.0
  0
LINE
  5
   155
  8
0
  6
CONTINUOUS
 62
     3
 10
-480.217894420028
 20
228.339359492064
 30
0.0
 11
-480.217894420028
 21
273.794158623662
 31
0.0
  0
LINE
  5
   156
  8
0
  6
CONTINUOUS
 62
     3
 10
-545.017895385623
 20
271.794158623662
 30
0.0
 11
-480.217894420028
 21
271.794158623662
 31
0.0
  0
LINE
  5
   157
  8
0
  6
CONTINUOUS
 62
     3
 10
-542.120117912413
 20
272.570615780081
 30
0.0
 11
-545.017895385623
 21
271.794158623662
 31
0.0
  0
LINE
  5
   158
  8
0
  6
CONTINUOUS
 62
     3
 10
-545.017895385623
 20
271.794158623662
 30
0.0
 11
-542.120117912413
 21
271.017701467244
 31
0.0
  0
LINE
  5
   159
  8
0
  6
CONTINUOUS
 62
     3
 10
-483.115671893238
 20
271.017701467244
 30
0.0
 11
-480.217894420028
 21
271.794158623662
 31
0.0
  0
LINE
  5
   15A
  8
0
  6
CONTINUOUS
 62
     3
 10
-480.217894420028
 20
271.794158623662
 30
0.0
 11
-483.115671893238
 21
272.570615780081
 31
0.0
  0
ENDBLK
  5
   15B
  8
0
  6
CONTINUOUS
 62
     3
  0
ENDSEC
  0
SECTION
  2
ENTITIES
  0
LINE
  5
   15C
  8
0
  6
CONTINUOUS
 62
     7
 10
-392.8701171875
 20
242.139356136322
 30
0.0
 11
-392.8701171875
 21
162.139360904694
 31
0.0
  0
LINE
  5
   15D
  8
0
  6
CONTINUOUS
 62
     7
 10
-392.8701171875
 20
242.139356136322
 30
0.0
 11
-345.5701200068
 21
242.139356136322
 31
0.0
  0
LINE
  5
   15E
  8
0
  6
CONTINUOUS
 62
     7
 10
-392.8701171875
 20
162.139360904694
 30
0.0
 11
-345.5701200068
 21
162.139360904694
 31
0.0
  0
LINE
  5
   15F
  8
0
  6
CONTINUOUS
 62
     7
 10
-387.870117485523
 20
227.739356994629
 30
0.0
 11
-335.570120602846
 21
227.739356994629
 31
0.0
  0
LINE
  5
   160
  8
0
  6
CONTINUOUS
 62
     7
 10
-387.870117485523
 20
176.539360046387
 30
0.0
 11
-345.5701200068
 21
176.539360046387
 31
0.0
  0
LINE
  5
   161
  8
0
  6
CONTINUOUS
 62
     7
 10
-387.870117485523
 20
242.139356136322
 30
0.0
 11
-387.870117485523
 21
227.739356994629
 31
0.0
  0
LINE
  5
   162
  8
0
  6
CONTINUOUS
 62
     7
 10
-387.870117485523
 20
176.539360046387
 30
0.0
 11
-387.870117485523
 21
162.139360904694
 31
0.0
  0
LINE
  5
   163
  8
0
  6
CONTINUOUS
 62
     7
 10
-360.47011911869
 20
242.139356136322
 30
0.0
 11
-360.47011911869
 21
162.139360904694
 31
0.0
  0
LINE
  5
   164
  8
0
  6
CONTINUOUS
 62
     7
 10
-379.87011796236
 20
254.139355421066
 30
0.0
 11
-379.87011796236
 21
242.139356136322
 31
0.0
  0
LINE
  5
   165
  8
0
  6
CONTINUOUS
 62
     7
 10
-383.870117723942
 20
254.139355421066
 30
0.0
 11
-383.870117723942
 21
242.139356136322
 31
0.0
  0
LINE
  5
   166
  8
0
  6
CONTINUOUS
 62
     7
 10
-383.870117723942
 20
254.139355421066
 30
0.0
 11
-379.87011796236
 21
254.139355421066
 31
0.0
  0
LINE
  5
   167
  8
0
  6
CONTINUOUS
 62
     7
 10
-383.870117723942
 20
150.139361619949
 30
0.0
 11
-379.87011796236
 21
150.139361619949
 31
0.0
  0
LINE
  5
   168
  8
0
  6
DASHDOT
 62
     7
 10
-388.083206338016
 20
154.139361381531
 30
0.0
 11
-376.438551311043
 21
154.139361381531
 31
0.0
  0
LINE
  5
   169
  8
0
  6
DASHDOT
 62
     7
 10
-387.404217706706
 20
250.139355659485
 30
0.0
 11
-377.015691647657
 21
250.139355659485
 31
0.0
  0
LINE
  5
   16A
  8
0
  6
CONTINUOUS
 62
     7
 10
-383.870117723942
 20
162.139360904694
 30
0.0
 11
-383.870117723942
 21
150.139361619949
 31
0.0
  0
LINE
  5
   16B
  8
0
  6
CONTINUOUS
 62
     7
 10
-379.87011796236
 20
162.139360904694
 30
0.0
 11
-379.87011796236
 21
150.139361619949
 31
0.0
  0
LINE
  5
   16C
  8
0
  6
CONTINUOUS
 62
     7
 10
-392.8701171875
 20
180.539359807968
 30
0.0
 11
-366.870118737221
 21
180.539359807968
 31
0.0
  0
LINE
  5
   16D
  8
0
  6
CONTINUOUS
 62
     7
 10
-392.8701171875
 20
223.739357233047
 30
0.0
 11
-366.870118737221
 21
223.739357233047
 31
0.0
  0
LINE
  5
   16E
  8
0
  6
CONTINUOUS
 62
     7
 10
-366.470118761063
 20
223.339357256889
 30
0.0
 11
-366.470118761063
 21
180.939359784126
 31
0.0
  0
ARC
  5
   16F
  8
0
  6
CONTINUOUS
 62
     7
 10
-366.870118737221
 20
223.339357256889
 30
0.0
 40
0.399999976158142
 50
359.999999844103
 51
449.999999844103
  0
ARC
  5
   170
  8
0
  6
CONTINUOUS
 62
     7
 10
-366.870118737221
 20
180.939359784126
 30
0.0
 40
0.399999976158142
 50
269.999999844103
 51
359.999999844103
  0
LINE
  5
   171
  8
0
  6
DOT
 62
     7
 10
-383.870117723942
 20
251.639355570078
 30
0.0
 11
-379.87011796236
 21
251.639355570078
 31
0.0
  0
LINE
  5
   172
  8
0
  6
DOT
 62
     7
 10
-383.870117723942
 20
248.639355748892
 30
0.0
 11
-379.87011796236
 21
248.639355748892
 31
0.0
  0
LINE
  5
   173
  8
0
  6
DOT
 62
     7
 10
-383.870117723942
 20
243.639356046915
 30
0.0
 11
-379.87011796236
 21
243.639356046915
 31
0.0
  0
LINE
  5
   174
  8
0
  6
DOT
 62
     7
 10
-383.870117723942
 20
152.639361470938
 30
0.0
 11
-379.87011796236
 21
152.639361470938
 31
0.0
  0
LINE
  5
   175
  8
0
  6
DOT
 62
     7
 10
-383.870117723942
 20
155.639361292124
 30
0.0
 11
-379.87011796236
 21
155.639361292124
 31
0.0
  0
LINE
  5
   176
  8
0
  6
DOT
 62
     7
 10
-383.870117723942
 20
160.639360994101
 30
0.0
 11
-379.87011796236
 21
160.639360994101
 31
0.0
  0
LINE
  5
   177
  8
0
  6
DOT
 62
     7
 10
-392.8701171875
 20
171.039360374212
 30
0.0
 11
-387.870117485523
 21
171.039360374212
 31
0.0
  0
LINE
  5
   178
  8
0
  6
DOT
 62
     7
 10
-392.8701171875
 20
169.239360481501
 30
0.0
 11
-387.870117485523
 21
169.239360481501
 31
0.0
  0
LINE
  5
   179
  8
0
  6
DOT
 62
     7
 10
-392.8701171875
 20
173.239360243082
 30
0.0
 11
-387.870117485523
 21
173.239360243082
 31
0.0
  0
LINE
  5
   17A
  8
0
  6
DOT
 62
     7
 10
-392.8701171875
 20
175.039360135794
 30
0.0
 11
-387.870117485523
 21
175.039360135794
 31
0.0
  0
LINE
  5
   17B
  8
0
  6
DOT
 62
     7
 10
-392.8701171875
 20
235.039356559515
 30
0.0
 11
-387.870117485523
 21
235.039356559515
 31
0.0
  0
LINE
  5
   17C
  8
0
  6
DOT
 62
     7
 10
-392.8701171875
 20
233.239356666803
 30
0.0
 11
-387.870117485523
 21
233.239356666803
 31
0.0
  0
LINE
  5
   17D
  8
0
  6
DOT
 62
     7
 10
-392.8701171875
 20
229.239356905222
 30
0.0
 11
-387.870117485523
 21
229.239356905222
 31
0.0
  0
LINE
  5
   17E
  8
0
  6
DOT
 62
     7
 10
-392.8701171875
 20
231.039356797934
 30
0.0
 11
-387.870117485523
 21
231.039356797934
 31
0.0
  0
LINE
  5
   17F
  8
0
  6
DASHDOT
 62
     7
 10
-395.621548932227
 20
230.139356851578
 30
0.0
 11
-385.526371223864
 21
230.139356851578
 31
0.0
  0
LINE
  5
   180
  8
0
  6
DASHDOT
 62
     7
 10
-395.890037701066
 20
234.139356613159
 30
0.0
 11
-385.687464485168
 21
234.139356613159
 31
0.0
  0
LINE
  5
   181
  8
0
  6
DASHDOT
 62
     7
 10
-395.460455670923
 20
174.139360189438
 30
0.0
 11
-385.311580208793
 21
174.139360189438
 31
0.0
  0
LINE
  5
   182
  8
0
  6
DASHDOT
 62
     7
 10
-396.212224223673
 20
170.139360427856
 30
0.0
 11
-385.257882455025
 21
170.139360427856
 31
0.0
  0
LINE
  5
   183
  8
0
  6
DASHDOT
 62
     7
 10
-400.057245670873
 20
202.139358520508
 30
0.0
 11
-315.613181461784
 21
202.139358520508
 31
0.0
  0
LINE
  5
   184
  8
0
  6
CONTINUOUS
 62
     7
 10
-345.5701200068
 20
242.139356136322
 30
0.0
 11
-345.5701200068
 21
162.139360904694
 31
0.0
  0
LINE
  5
   185
  8
0
  6
CONTINUOUS
 62
     7
 10
-335.570120602846
 20
227.739356994629
 30
0.0
 11
-335.570120602846
 21
165.13936072588
 31
0.0
  0
LINE
  5
   186
  8
0
  6
CONTINUOUS
 62
     7
 10
-345.5701200068
 20
165.13936072588
 30
0.0
 11
-335.570120602846
 21
165.13936072588
 31
0.0
  0
LINE
  5
   187
  8
0
  6
DOT
 62
     7
 10
-319.323822891436
 20
206.285656953134
 30
0.0
 11
-335.570120602846
 21
190.039359241724
 31
0.0
  0
LINE
  5
   188
  8
0
  6
CONTINUOUS
 62
     7
 10
-321.020879065131
 20
208.831241213677
 30
0.0
 11
-319.323822891436
 21
207.134185039982
 31
0.0
  0
LINE
  5
   189
  8
0
  6
DOT
 62
     7
 10
-321.869407151979
 20
208.831241213677
 30
0.0
 11
-331.273926781207
 21
199.426721584449
 31
0.0
  0
LINE
  5
   18A
  8
0
  6
DOT
 62
     7
 10
-331.273926781207
 20
199.426721584449
 30
0.0
 11
-335.570120602846
 21
197.677587683794
 31
0.0
  0
ARC
  5
   18B
  8
0
  6
DOT
 62
     7
 10
-321.445143108555
 20
208.406977170253
 30
0.0
 40
0.599999964237213
 50
404.999999844104
 51
494.999999844103
  0
ARC
  5
   18C
  8
0
  6
DOT
 62
     7
 10
-319.74808693486
 20
206.709920996558
 30
0.0
 40
0.599999964237213
 50
314.999999844103
 51
404.999999844104
  0
LINE
  5
   18D
  8
0
  6
DASHDOT
 62
     7
 10
-342.433593327745
 20
192.992050259188
 30
0.0
 11
-335.3259485697
 21
192.992050259188
 31
0.0
  0
LINE
  5
   18E
  8
0
  6
DASHDOT
 62
     7
 10
-339.122811584547
 20
195.398660501197
 30
0.0
 11
-339.122811584547
 21
190.129199732302
 31
0.0
  0
LINE
  5
   18F
  8
0
  6
DASHDOT
 62
     7
 10
-344.470120072365
 20
261.774243552183
 30
0.0
 11
-344.470120072365
 21
227.739356994629
 31
0.0
  0
LINE
  5
   190
  8
0
  6
DASHDOT
 62
     7
 10
-344.070120096207
 20
261.889418805562
 30
0.0
 11
-344.070120096207
 21
227.739356994629
 31
0.0
  0
LINE
  5
   191
  8
0
  6
DASHDOT
 62
     7
 10
-346.898517208204
 20
230.739356815815
 30
0.0
 11
-342.061156566266
 21
230.739356815815
 31
0.0
  0
LINE
  5
   192
  8
0
  6
DASHDOT
 62
     7
 10
-346.898517208204
 20
162.139360904694
 30
0.0
 11
-341.830806059507
 21
162.139360904694
 31
0.0
  0
LINE
  5
   193
  8
0
  6
CONTINUOUS
 62
     7
 10
-343.27012014389
 20
232.339356720448
 30
0.0
 11
-343.27012014389
 21
227.739356994629
 31
0.0
  0
LINE
  5
   194
  8
0
  6
CONTINUOUS
 62
     7
 10
-344.070120096207
 20
232.739356696606
 30
0.0
 11
-343.670120120049
 21
232.739356696606
 31
0.0
  0
LINE
  5
   195
  8
0
  6
CONTINUOUS
 62
     7
 10
-344.070120096207
 20
228.739356935024
 30
0.0
 11
-343.27012014389
 21
228.739356935024
 31
0.0
  0
LINE
  5
   196
  8
0
  6
CONTINUOUS
 62
     7
 10
-344.070120096207
 20
164.139360785484
 30
0.0
 11
-343.27012014389
 21
164.139360785484
 31
0.0
  0
LINE
  5
   197
  8
0
  6
CONTINUOUS
 62
     7
 10
-344.070120096207
 20
160.139361023903
 30
0.0
 11
-343.670120120049
 21
160.139361023903
 31
0.0
  0
LINE
  5
   198
  8
0
  6
CONTINUOUS
 62
     7
 10
-343.670120120049
 20
232.739356696606
 30
0.0
 11
-343.27012014389
 21
232.339356720448
 31
0.0
  0
LINE
  5
   199
  8
0
  6
CONTINUOUS
 62
     7
 10
-343.27012014389
 20
160.539361000061
 30
0.0
 11
-343.670120120049
 21
160.139361023903
 31
0.0
  0
LINE
  5
   19A
  8
0
  6
DASHDOT
 62
     7
 10
-344.070120096207
 20
165.13936072588
 30
0.0
 11
-344.070120096207
 21
145.695723689813
 31
0.0
  0
LINE
  5
   19B
  8
0
  6
CONTINUOUS
 62
     7
 10
-343.27012014389
 20
165.13936072588
 30
0.0
 11
-343.27012014389
 21
160.539361000061
 31
0.0
  0
LINE
  5
   19C
  8
0
  6
DASHDOT
 62
     7
 10
-344.470120072365
 20
165.13936072588
 30
0.0
 11
-344.470120072365
 21
145.695723689813
 31
0.0
  0
TEXT
  5
   19D
  8
0
  6
CONTINUOUS
 62
     2
 10
-364.166961673317
 20
40.5564623195131
 30
0.0
 40
2.49999999403953
  1
97-01-10
 50
359.999999844103
 41
1.09999994254112
 11
-364.166961669922
 21
41.8064623165328
 31
0.0
 73
     2
  0
TEXT
  5
   19E
  8
0
  6
CONTINUOUS
 62
     2
 10
-364.166961673317
 20
36.5564623231886
 30
0.0
 40
2.49999999403953
  1
O.Carrara
 50
359.999999844103
 41
1.09799995286942
 11
-364.166961669922
 21
37.8064623202083
 31
0.0
 73
     2
  0
TEXT
  5
   19F
  8
0
  6
CONTINUOUS
 62
     2
 10
-352.700225833473
 20
23.8710613585054
 30
0.0
 40
2.49999999403953
  1
M4357 97-02-07
 50
359.999999844103
 41
0.649999609637278
 11
-352.700225830078
 21
25.1210613555251
 31
0.0
 73
     2
  0
TEXT
  5
   1A0
  8
0
  6
CONTINUOUS
 62
     2
 10
-262.695232083352
 20
12.2876244628515
 30
0.0
 40
4.49999992251395
  1
605036/801
 50
359.999999844103
 41
1.09999996825501
 72
     1
 11
-238.770233154297
 21
14.5376243591309
 31
0.0
 73
     2
  0
TEXT
  5
   1A1
  8
0
  6
CONTINUOUS
 62
     2
 10
-261.811899913269
 20
21.7543745818697
 30
0.0
 40
2.49999999403953
  1
S8H-S8V-S8D 2000-2500
 50
359.999999844103
 41
1.06666667151451
 72
     1
 11
-234.270233154297
 21
23.0043745040894
 31
0.0
 73
     2
  0
TEXT
  5
   1A2
  8
0
  6
CONTINUOUS
 62
     2
 10
-203.1822456968
 20
10.9822893272086
 30
0.0
 40
2.49999999403953
  1
1/1
 50
359.999999844103
 41
1.09999994254112
 72
     1
 11
-199.515579223633
 21
12.2322893142701
 31
0.0
 73
     2
  0
TEXT
  5
   1A3
  8
0
  6
CONTINUOUS
 62
     2
 10
-201.807245771902
 20
27.9158678146852
 30
0.0
 40
2.49999999403953
  1
IT
 50
359.999999844103
 41
1.09999994254112
 72
     1
 11
-199.515579223633
 21
29.165867805481
 31
0.0
 73
     2
  0
TEXT
  5
   1A4
  8
0
  6
CONTINUOUS
 62
     2
 10
-266.719985362795
 20
36.9043714295487
 30
0.0
 40
2.20000015497206
  1
"ISOMAX" FIXED VERSION FRONT TERMINALS
 50
359.999999844103
 41
0.681818067534909
 11
-266.719985359808
 21
38.0043715070348
 31
0.0
 73
     2
  0
TEXT
  5
   1A5
  8
0
  6
CONTINUOUS
 62
     2
 10
-275.268225737041
 20
31.42838231779
 30
0.0
 40
2.20000015497206
  1
INTERR.AUTOMATICO E SEZIONATORE SERIE "ISOMAX"
 50
359.999999844103
 41
0.681818067534909
 72
     1
 11
-240.918229085189
 21
32.5283823019854
 31
0.0
 73
     2
  0
TEXT
  5
   1A6
  8
0
  6
CONTINUOUS
 62
     2
 10
-272.268225095479
 20
28.2283825003772
 30
0.0
 40
2.19999982118607
  1
TRIPOLARE ESECUZ.FISSA TERMINALI ANTERIORI
 50
359.999999844103
 41
0.681818150291758
 72
     1
 11
-240.918229085189
 21
29.3283823258273
 31
0.0
 73
     2
  0
TEXT
  5
   1A7
  8
0
  6
CONTINUOUS
 62
     2
 10
-313.857468845778
 20
200.104061063709
 30
0.0
 40
4.00000019073484
  1
X
 50
359.999999844103
 41
0.915624706834582
 11
-313.857468840346
 21
202.104061159077
 31
0.0
 73
     2
  0
TEXT
  5
   1A8
  8
0
  6
CONTINUOUS
 62
     2
 10
-406.250780997562
 20
200.104060667859
 30
0.0
 40
4.00000019073484
  1
X
 50
359.999999844103
 41
0.982499997705222
 72
     2
 11
-403.320780861596
 21
202.104060755269
 31
0.0
 73
     2
  0
TEXT
  5
   1A9
  8
0
  6
CONTINUOUS
 62
     2
 10
-364.166961673317
 20
32.0897123195131
 30
0.0
 40
2.49999999403953
  1
97-12-29
 50
359.999999844103
 41
1.09999994254112
 11
-364.166961669922
 21
33.3397123165329
 31
0.0
 73
     2
  0
TEXT
  5
   1AA
  8
0
  6
CONTINUOUS
 62
     2
 10
-364.166961673317
 20
28.089712319461
 30
0.0
 40
2.49999999403953
  1
GIUPPONI
 50
359.999999844103
 41
1.09799995286942
 11
-364.166961669922
 21
29.3397123164808
 31
0.0
 73
     2
  0
INSERT
  5
   1AB
  8
0
  6
CONTINUOUS
 62
     3
  2
*UDIM900
 10
0.0
 20
0.0
 30
0.0
  0
INSERT
  5
   1AC
  8
0
  6
CONTINUOUS
 62
     3
  2
*UDIM901
 10
0.0
 20
0.0
 30
0.0
  0
INSERT
  5
   1AD
  8
0
  6
CONTINUOUS
 62
     3
  2
*UDIM902
 10
0.0
 20
0.0
 30
0.0
  0
INSERT
  5
   1AE
  8
0
  6
CONTINUOUS
 62
     3
  2
*UDIM903
 10
0.0
 20
0.0
 30
0.0
  0
INSERT
  5
   1AF
  8
0
  6
CONTINUOUS
 62
     3
  2
*UDIM904
 10
0.0
 20
0.0
 30
0.0
  0
INSERT
  5
   1B0
  8
0
  6
CONTINUOUS
 62
     3
  2
*UDIM905
 10
0.0
 20
0.0
 30
0.0
  0
INSERT
  5
   1B1
  8
0
  6
CONTINUOUS
 62
     3
  2
*UDIM906
 10
0.0
 20
0.0
 30
0.0
  0
TEXT
  5
   1B2
  8
0
  6
CONTINUOUS
 62
     2
 10
-267.400788731544
 20
40.4480017040945
 30
0.0
 40
2.19999982118607
  1
3 POLE LOW VOLTAGE M.C.C.B M.C.S SERIES
 50
359.999999844103
 41
0.681818150291758
 11
-267.400788728557
 21
41.5480016146875
 31
0.0
 73
     2
  0
LINE
  5
   1B3
  8
0
  6
CONTINUOUS
 62
     7
 10
-475.267925858498
 20
92.7696428430138
 30
0.0
 11
-475.267925858498
 21
31.3774749745287
 31
0.0
  0
LINE
  5
   1B4
  8
0
  6
CONTINUOUS
 62
     7
 10
-475.489091658584
 20
77.3354700275726
 30
0.0
 11
-475.489091658584
 21
71.7206769831026
 31
0.0
  0
LINE
  5
   1B5
  8
0
  6
CONTINUOUS
 62
     7
 10
-475.189091706268
 20
77.3354700275726
 30
0.0
 11
-475.189091706268
 21
71.7206769831026
 31
0.0
  0
LINE
  5
   1B6
  8
0
  6
CONTINUOUS
 62
     7
 10
-475.489091658584
 20
77.3354700275726
 30
0.0
 11
-475.189091706268
 21
77.3354700275726
 31
0.0
  0
LINE
  5
   1B7
  8
0
  6
CONTINUOUS
 62
     7
 10
-475.489091658584
 20
71.7206769831026
 30
0.0
 11
-475.189091706268
 21
71.7206769831026
 31
0.0
  0
LINE
  5
   1B8
  8
0
  6
CONTINUOUS
 62
     7
 10
-475.489091658584
 20
54.9991728418028
 30
0.0
 11
-475.489091658584
 21
49.3843797973328
 31
0.0
  0
LINE
  5
   1B9
  8
0
  6
CONTINUOUS
 62
     7
 10
-475.489091658584
 20
49.3843797973328
 30
0.0
 11
-475.189091706268
 21
49.3843797973328
 31
0.0
  0
LINE
  5
   1BA
  8
0
  6
CONTINUOUS
 62
     7
 10
-475.189091706268
 20
54.9991728418028
 30
0.0
 11
-475.189091706268
 21
49.3843797973328
 31
0.0
  0
LINE
  5
   1BB
  8
0
  6
CONTINUOUS
 62
     7
 10
-475.489091658584
 20
54.9991728418028
 30
0.0
 11
-475.189091706268
 21
54.9991728418028
 31
0.0
  0
LINE
  5
   1BC
  8
0
  6
DASHDOT
 62
     7
 10
-512.617919921875
 20
94.0413716296382
 30
0.0
 11
-512.617919921875
 21
27.713926176911
 31
0.0
  0
LINE
  5
   1BD
  8
0
  6
DASHDOT
 62
     7
 10
-556.376407453563
 20
67.1099243164063
 30
0.0
 11
-467.147256309474
 21
67.1099243164063
 31
0.0
  0
LINE
  5
   1BE
  8
0
  6
CONTINUOUS
 62
     7
 10
-538.192915856838
 20
86.7599211931229
 30
0.0
 11
-538.192915856838
 21
38.9099287986755
 31
0.0
  0
LINE
  5
   1BF
  8
0
  6
CONTINUOUS
 62
     7
 10
-487.042923986912
 20
86.7599211931229
 30
0.0
 11
-487.042923986912
 21
38.9099287986755
 31
0.0
  0
LINE
  5
   1C0
  8
0
  6
CONTINUOUS
 62
     7
 10
-535.117916345596
 20
90.2437632641892
 30
0.0
 11
-535.117916345596
 21
86.6543554416489
 31
0.0
  0
LINE
  5
   1C1
  8
0
  6
CONTINUOUS
 62
     7
 10
-490.117923498154
 20
90.2969396763749
 30
0.0
 11
-490.117923498154
 21
85.8832974649551
 31
0.0
  0
LINE
  5
   1C2
  8
0
  6
CONTINUOUS
 62
     7
 10
-535.117916345596
 20
39.4602896267675
 30
0.0
 11
-535.117916345596
 21
34.5414714995827
 31
0.0
  0
LINE
  5
   1C3
  8
0
  6
CONTINUOUS
 62
     7
 10
-490.117923498154
 20
39.1412311536528
 30
0.0
 11
-490.117923498154
 21
34.6478243239542
 31
0.0
  0
LINE
  5
   1C4
  8
0
  6
CONTINUOUS
 62
     7
 10
-547.615968057193
 20
92.7696428430138
 30
0.0
 11
-547.615968057193
 21
31.3774749745287
 31
0.0
  0
LINE
  5
   1C5
  8
0
  6
CONTINUOUS
 62
     7
 10
-547.615968057193
 20
92.7696428430138
 30
0.0
 11
-475.267925858498
 21
92.7696428430138
 31
0.0
  0
LINE
  5
   1C6
  8
0
  6
CONTINUOUS
 62
     7
 10
-547.615968057193
 20
31.3774749745287
 30
0.0
 11
-475.267925858498
 21
31.3774749745287
 31
0.0
  0
LINE
  5
   1C7
  8
0
  6
CONTINUOUS
 62
     7
 10
-537.592915952206
 20
87.3599210977554
 30
0.0
 11
-487.642923891544
 21
87.3599210977554
 31
0.0
  0
LINE
  5
   1C8
  8
0
  6
CONTINUOUS
 62
     7
 10
-537.592915952206
 20
38.309928894043
 30
0.0
 11
-487.642923891544
 21
38.309928894043
 31
0.0
  0
ARC
  5
   1C9
  8
0
  6
CONTINUOUS
 62
     7
 10
-537.592915952206
 20
86.7599211931229
 30
0.0
 40
0.599999904632568
 50
449.999999844103
 51
539.999999844103
  0
ARC
  5
   1CA
  8
0
  6
CONTINUOUS
 62
     7
 10
-487.642923891544
 20
86.7599211931229
 30
0.0
 40
0.599999904632568
 50
359.999999844103
 51
449.999999844103
  0
ARC
  5
   1CB
  8
0
  6
CONTINUOUS
 62
     7
 10
-487.642923891544
 20
38.9099287986755
 30
0.0
 40
0.599999904632568
 50
269.999999844103
 51
359.999999844103
  0
ARC
  5
   1CC
  8
0
  6
CONTINUOUS
 62
     7
 10
-537.592915952206
 20
38.9099287986755
 30
0.0
 40
0.599999904632568
 50
539.999999844103
 51
629.999999844103
  0
LINE
  5
   1CD
  8
0
  6
CONTINUOUS
 62
     7
 10
-536.865669436935
 20
88.6349208950996
 30
0.0
 11
-533.531741335338
 21
88.6349208950996
 31
0.0
  0
LINE
  5
   1CE
  8
0
  6
CONTINUOUS
 62
     7
 10
-492.191032875533
 20
88.6349208950996
 30
0.0
 11
-488.723747649871
 21
88.6349208950996
 31
0.0
  0
CIRCLE
  5
   1CF
  8
0
  6
CONTINUOUS
 62
     7
 10
-490.117923498154
 20
88.6349208950996
 30
0.0
 40
0.374999940395355
  0
CIRCLE
  5
   1D0
  8
0
  6
CONTINUOUS
 62
     7
 10
-535.117916345596
 20
88.6349208950996
 30
0.0
 40
0.374999940395355
  0
LINE
  5
   1D1
  8
0
  6
CONTINUOUS
 62
     7
 10
-492.191032875533
 20
37.0349290966988
 30
0.0
 11
-488.723747649871
 21
37.0349290966988
 31
0.0
  0
LINE
  5
   1D2
  8
0
  6
CONTINUOUS
 62
     7
 10
-536.865669436935
 20
37.0349290966988
 30
0.0
 11
-533.531741335338
 21
37.0349290966988
 31
0.0
  0
CIRCLE
  5
   1D3
  8
0
  6
CONTINUOUS
 62
     7
 10
-535.117916345596
 20
37.0349290966988
 30
0.0
 40
0.374999940395355
  0
CIRCLE
  5
   1D4
  8
0
  6
CONTINUOUS
 62
     7
 10
-490.117923498154
 20
37.0349290966988
 30
0.0
 40
0.374999940395355
  0
INSERT
  5
   1D5
  8
0
  6
CONTINUOUS
 62
     3
  2
*UDIM907
 10
0.0
 20
0.0
 30
0.0
  0
INSERT
  5
   1D6
  8
0
  6
CONTINUOUS
 62
     3
  2
*UDIM908
 10
0.0
 20
0.0
 30
0.0
  0
INSERT
  5
   1D7
  8
0
  6
CONTINUOUS
 62
     3
  2
*UDIM909
 10
0.0
 20
0.0
 30
0.0
  0
INSERT
  5
   1D8
  8
0
  6
CONTINUOUS
 62
     3
  2
*UDIM910
 10
0.0
 20
0.0
 30
0.0
  0
INSERT
  5
   1D9
  8
0
  6
CONTINUOUS
 62
     3
  2
*UDIM911
 10
0.0
 20
0.0
 30
0.0
  0
TEXT
  5
   1DA
  8
0
  6
CONTINUOUS
 62
     2
 10
-466.341829335772
 20
64.9018796700349
 30
0.0
 40
4.00000012715645
  1
X
 50
359.999999844103
 41
0.915624729156538
 11
-466.34182933034
 21
66.9018797336132
 31
0.0
 73
     2
  0
TEXT
  5
   1DB
  8
0
  6
CONTINUOUS
 62
     2
 10
-570.354773054163
 20
64.9018788433944
 30
0.0
 40
4.00000012715645
  1
X
 50
359.999999844103
 41
0.915624729156538
 72
     2
 11
-567.424773876838
 21
66.9018788990151
 31
0.0
 73
     2
  0
TEXT
  5
   1DC
  8
0
  6
CONTINUOUS
 62
     2
 10
-514.197552892147
 20
22.981440948324
 30
0.0
 40
4.00000012715645
  1
Y
 50
359.999999844103
 41
0.915624729156538
 72
     1
 11
-512.732553295337
 21
26.9814410715017
 31
0.0
 73
     3
  0
TEXT
  5
   1DD
  8
0
  6
CONTINUOUS
 62
     2
 10
-514.197551636481
 20
103.770296292566
 30
0.0
 40
4.00000012715645
  1
Y
 50
359.999999844103
 41
0.915624729156538
 72
     1
 11
-512.732552050535
 21
103.770296288587
 31
0.0
  0
INSERT
  5
   1DE
  8
0
  6
CONTINUOUS
 62
     3
  2
*UDIM912
 10
0.0
 20
0.0
 30
0.0
  0
INSERT
  5
   1DF
  8
0
  6
CONTINUOUS
 62
     3
  2
*UDIM913
 10
0.0
 20
0.0
 30
0.0
  0
INSERT
  5
   1E0
  8
0
  6
CONTINUOUS
 62
     3
  2
*UDIM914
 10
0.0
 20
0.0
 30
0.0
  0
INSERT
  5
   1E1
  8
0
  6
CONTINUOUS
 62
     3
  2
*UDIM915
 10
0.0
 20
0.0
 30
0.0
  0
LINE
  5
   1E2
  8
0
  6
CONTINUOUS
 62
     7
 10
-553.217917501927
 20
162.539360880852
 30
0.0
 11
-553.217917501927
 21
241.739356160164
 31
0.0
  0
LINE
  5
   1E3
  8
0
  6
CONTINUOUS
 62
     7
 10
-472.017922341824
 20
162.539360880852
 30
0.0
 11
-472.017922341824
 21
241.739356160164
 31
0.0
  0
ARC
  5
   1E4
  8
0
  6
CONTINUOUS
 62
     7
 10
-552.817917525768
 20
241.739356160164
 30
0.0
 40
0.399999976158142
 50
449.999999948034
 51
539.999999948034
  0
ARC
  5
   1E5
  8
0
  6
CONTINUOUS
 62
     7
 10
-552.817917525768
 20
241.739356160164
 30
0.0
 40
0.399999976158142
 50
449.999999948034
 51
539.999999948034
  0
ARC
  5
   1E6
  8
0
  6
CONTINUOUS
 62
     7
 10
-552.817917525768
 20
241.739356160164
 30
0.0
 40
0.399999976158142
 50
449.999999948034
 51
539.999999948034
  0
ARC
  5
   1E7
  8
0
  6
CONTINUOUS
 62
     7
 10
-472.417922317982
 20
241.739356160164
 30
0.0
 40
0.399999976158142
 50
359.999999948034
 51
449.999999948034
  0
ARC
  5
   1E8
  8
0
  6
CONTINUOUS
 62
     7
 10
-472.417922317982
 20
162.539360880852
 30
0.0
 40
0.399999976158142
 50
269.999999948034
 51
359.999999948034
  0
ARC
  5
   1E9
  8
0
  6
CONTINUOUS
 62
     7
 10
-552.817917525768
 20
162.539360880852
 30
0.0
 40
0.399999976158142
 50
179.999999948034
 51
269.999999948034
  0
LINE
  5
   1EA
  8
0
  6
CONTINUOUS
 62
     7
 10
-476.617922067642
 20
162.139360904694
 30
0.0
 11
-476.617922067642
 21
175.539360105991
 31
0.0
  0
LINE
  5
   1EB
  8
0
  6
CONTINUOUS
 62
     7
 10
-548.617917776108
 20
162.139360904694
 30
0.0
 11
-548.617917776108
 21
175.539360105991
 31
0.0
  0
LINE
  5
   1EC
  8
0
  6
CONTINUOUS
 62
     7
 10
-472.017922341824
 20
227.739356994629
 30
0.0
 11
-475.617922127247
 21
227.739356994629
 31
0.0
  0
LINE
  5
   1ED
  8
0
  6
CONTINUOUS
 62
     7
 10
-472.017922341824
 20
176.539360046387
 30
0.0
 11
-475.617922127247
 21
176.539360046387
 31
0.0
  0
LINE
  5
   1EE
  8
0
  6
CONTINUOUS
 62
     7
 10
-476.617922067642
 20
228.739356935024
 30
0.0
 11
-476.617922067642
 21
242.139356136322
 31
0.0
  0
LINE
  5
   1EF
  8
0
  6
CONTINUOUS
 62
     7
 10
-548.617917776108
 20
228.739356935024
 30
0.0
 11
-548.617917776108
 21
242.139356136322
 31
0.0
  0
ARC
  5
   1F0
  8
0
  6
CONTINUOUS
 62
     7
 10
-475.617922127247
 20
228.739356935024
 30
0.0
 40
0.999999940395355
 50
179.999999948034
 51
269.999999948034
  0
ARC
  5
   1F1
  8
0
  6
CONTINUOUS
 62
     7
 10
-475.617922127247
 20
175.539360105991
 30
0.0
 40
0.999999940395355
 50
449.999999948034
 51
539.999999948034
  0
LINE
  5
   1F2
  8
0
  6
CONTINUOUS
 62
     7
 10
-549.617917716503
 20
227.739356994629
 30
0.0
 11
-553.217917501927
 21
227.739356994629
 31
0.0
  0
LINE
  5
   1F3
  8
0
  6
CONTINUOUS
 62
     7
 10
-549.617917716503
 20
176.539360046387
 30
0.0
 11
-553.217917501927
 21
176.539360046387
 31
0.0
  0
ARC
  5
   1F4
  8
0
  6
CONTINUOUS
 62
     7
 10
-549.617917716503
 20
228.739356935024
 30
0.0
 40
0.999999940395355
 50
269.999999948034
 51
359.999999948034
  0
ARC
  5
   1F5
  8
0
  6
CONTINUOUS
 62
     7
 10
-549.617917716503
 20
175.539360105991
 30
0.0
 40
0.999999940395355
 50
359.999999948034
 51
449.999999948034
  0
CIRCLE
  5
   1F6
  8
0
  6
CONTINUOUS
 62
     7
 10
-474.617922186852
 20
234.139356613159
 30
0.0
 40
0.89999994635582
  0
CIRCLE
  5
   1F7
  8
0
  6
CONTINUOUS
 62
     7
 10
-550.617917656899
 20
234.139356613159
 30
0.0
 40
0.89999994635582
  0
CIRCLE
  5
   1F8
  8
0
  6
CONTINUOUS
 62
     7
 10
-550.617917656899
 20
230.139356851578
 30
0.0
 40
0.89999994635582
  0
CIRCLE
  5
   1F9
  8
0
  6
CONTINUOUS
 62
     7
 10
-474.617922186852
 20
230.139356851578
 30
0.0
 40
0.89999994635582
  0
CIRCLE
  5
   1FA
  8
0
  6
CONTINUOUS
 62
     7
 10
-550.617917656899
 20
174.139360189438
 30
0.0
 40
0.89999994635582
  0
CIRCLE
  5
   1FB
  8
0
  6
CONTINUOUS
 62
     7
 10
-550.617917656899
 20
170.139360427856
 30
0.0
 40
0.89999994635582
  0
CIRCLE
  5
   1FC
  8
0
  6
CONTINUOUS
 62
     7
 10
-474.617922186852
 20
174.139360189438
 30
0.0
 40
0.89999994635582
  0
CIRCLE
  5
   1FD
  8
0
  6
CONTINUOUS
 62
     7
 10
-474.617922186852
 20
170.139360427856
 30
0.0
 40
0.89999994635582
  0
LINE
  5
   1FE
  8
0
  6
CONTINUOUS
 62
     7
 10
-504.617920398712
 20
242.139356136322
 30
0.0
 11
-504.617920398712
 21
254.139355421066
 31
0.0
  0
LINE
  5
   1FF
  8
0
  6
CONTINUOUS
 62
     7
 10
-520.617919445038
 20
242.139356136322
 30
0.0
 11
-520.617919445038
 21
254.139355421066
 31
0.0
  0
LINE
  5
   200
  8
0
  6
CONTINUOUS
 62
     7
 10
-504.617920398712
 20
254.139355421066
 30
0.0
 11
-520.617919445038
 21
254.139355421066
 31
0.0
  0
CIRCLE
  5
   201
  8
0
  6
CONTINUOUS
 62
     7
 10
-516.617919683457
 20
250.139355659485
 30
0.0
 40
1.49999991059303
  0
CIRCLE
  5
   202
  8
0
  6
CONTINUOUS
 62
     7
 10
-508.617920160294
 20
250.139355659485
 30
0.0
 40
1.49999991059303
  0
ARC
  5
   203
  8
0
  6
CONTINUOUS
 62
     7
 10
-516.617919683457
 20
242.139356136322
 30
0.0
 40
1.49999991059303
 50
359.999999948034
 51
539.999999948034
  0
ARC
  5
   204
  8
0
  6
CONTINUOUS
 62
     7
 10
-508.617920160294
 20
242.139356136322
 30
0.0
 40
1.49999991059303
 50
359.999999948034
 51
539.999999948034
  0
LINE
  5
   205
  8
0
  6
CONTINUOUS
 62
     7
 10
-480.617921829224
 20
242.139356136322
 30
0.0
 11
-480.617921829224
 21
254.139355421066
 31
0.0
  0
LINE
  5
   206
  8
0
  6
CONTINUOUS
 62
     7
 10
-480.617921829224
 20
254.139355421066
 30
0.0
 11
-496.617920875549
 21
254.139355421066
 31
0.0
  0
LINE
  5
   207
  8
0
  6
CONTINUOUS
 62
     7
 10
-496.617920875549
 20
242.139356136322
 30
0.0
 11
-496.617920875549
 21
254.139355421066
 31
0.0
  0
CIRCLE
  5
   208
  8
0
  6
CONTINUOUS
 62
     7
 10
-492.617921113968
 20
250.139355659485
 30
0.0
 40
1.49999991059303
  0
CIRCLE
  5
   209
  8
0
  6
CONTINUOUS
 62
     7
 10
-484.617921590805
 20
250.139355659485
 30
0.0
 40
1.49999991059303
  0
ARC
  5
   20A
  8
0
  6
CONTINUOUS
 62
     7
 10
-484.617921590805
 20
242.139356136322
 30
0.0
 40
1.49999991059303
 50
359.999999948034
 51
539.999999948034
  0
ARC
  5
   20B
  8
0
  6
CONTINUOUS
 62
     7
 10
-492.617921113968
 20
242.139356136322
 30
0.0
 40
1.49999991059303
 50
359.999999948034
 51
539.999999948034
  0
LINE
  5
   20C
  8
0
  6
CONTINUOUS
 62
     7
 10
-528.617918968201
 20
254.139355421066
 30
0.0
 11
-544.617918014526
 21
254.139355421066
 31
0.0
  0
LINE
  5
   20D
  8
0
  6
CONTINUOUS
 62
     7
 10
-544.617918014526
 20
239.795583319357
 30
0.0
 11
-544.617918014526
 21
254.139355421066
 31
0.0
  0
CIRCLE
  5
   20E
  8
0
  6
CONTINUOUS
 62
     7
 10
-540.617918252945
 20
250.139355659485
 30
0.0
 40
1.49999991059303
  0
CIRCLE
  5
   20F
  8
0
  6
CONTINUOUS
 62
     7
 10
-532.617918729782
 20
250.139355659485
 30
0.0
 40
1.49999991059303
  0
LINE
  5
   210
  8
0
  6
CONTINUOUS
 62
     7
 10
-528.617918968201
 20
239.086761420647
 30
0.0
 11
-528.617918968201
 21
254.139355421066
 31
0.0
  0
LINE
  5
   211
  8
0
  6
CONTINUOUS
 62
     7
 10
-528.617918968201
 20
150.139361619949
 30
0.0
 11
-544.617918014526
 21
150.139361619949
 31
0.0
  0
LINE
  5
   212
  8
0
  6
CONTINUOUS
 62
     7
 10
-544.617918014526
 20
150.139361619949
 30
0.0
 11
-544.617918014526
 21
164.50800749219
 31
0.0
  0
LINE
  5
   213
  8
0
  6
CONTINUOUS
 62
     7
 10
-528.617918968201
 20
150.139361619949
 30
0.0
 11
-528.617918968201
 21
167.414877299433
 31
0.0
  0
LINE
  5
   214
  8
0
  6
CONTINUOUS
 62
     7
 10
-520.617919445038
 20
150.139361619949
 30
0.0
 11
-520.617919445038
 21
162.139360904694
 31
0.0
  0
LINE
  5
   215
  8
0
  6
CONTINUOUS
 62
     7
 10
-504.617920398712
 20
150.139361619949
 30
0.0
 11
-520.617919445038
 21
150.139361619949
 31
0.0
  0
LINE
  5
   216
  8
0
  6
CONTINUOUS
 62
     7
 10
-504.617920398712
 20
150.139361619949
 30
0.0
 11
-504.617920398712
 21
162.139360904694
 31
0.0
  0
LINE
  5
   217
  8
0
  6
CONTINUOUS
 62
     7
 10
-480.617921829224
 20
150.139361619949
 30
0.0
 11
-496.617920875549
 21
150.139361619949
 31
0.0
  0
LINE
  5
   218
  8
0
  6
CONTINUOUS
 62
     7
 10
-496.617920875549
 20
150.139361619949
 30
0.0
 11
-496.617920875549
 21
162.139360904694
 31
0.0
  0
LINE
  5
   219
  8
0
  6
CONTINUOUS
 62
     7
 10
-480.617921829224
 20
150.139361619949
 30
0.0
 11
-480.617921829224
 21
162.139360904694
 31
0.0
  0
CIRCLE
  5
   21A
  8
0
  6
CONTINUOUS
 62
     7
 10
-540.617918252945
 20
154.139361381531
 30
0.0
 40
1.49999991059303
  0
CIRCLE
  5
   21B
  8
0
  6
CONTINUOUS
 62
     7
 10
-532.617918729782
 20
154.139361381531
 30
0.0
 40
1.49999991059303
  0
CIRCLE
  5
   21C
  8
0
  6
CONTINUOUS
 62
     7
 10
-516.617919683457
 20
154.139361381531
 30
0.0
 40
1.49999991059303
  0
CIRCLE
  5
   21D
  8
0
  6
CONTINUOUS
 62
     7
 10
-508.617920160294
 20
154.139361381531
 30
0.0
 40
1.49999991059303
  0
ARC
  5
   21E
  8
0
  6
CONTINUOUS
 62
     7
 10
-516.617919683457
 20
162.139360904694
 30
0.0
 40
1.49999991059303
 50
179.999999948034
 51
359.999999948034
  0
ARC
  5
   21F
  8
0
  6
CONTINUOUS
 62
     7
 10
-508.617920160294
 20
162.139360904694
 30
0.0
 40
1.49999991059303
 50
179.999999948034
 51
359.999999948034
  0
CIRCLE
  5
   220
  8
0
  6
CONTINUOUS
 62
     7
 10
-492.617921113968
 20
154.139361381531
 30
0.0
 40
1.49999991059303
  0
CIRCLE
  5
   221
  8
0
  6
CONTINUOUS
 62
     7
 10
-484.617921590805
 20
154.139361381531
 30
0.0
 40
1.49999991059303
  0
ARC
  5
   222
  8
0
  6
CONTINUOUS
 62
     7
 10
-492.617921113968
 20
162.139360904694
 30
0.0
 40
1.49999991059303
 50
179.999999948034
 51
359.999999948034
  0
ARC
  5
   223
  8
0
  6
CONTINUOUS
 62
     7
 10
-484.617921590805
 20
162.139360904694
 30
0.0
 40
1.49999991059303
 50
179.999999948034
 51
359.999999948034
  0
LINE
  5
   224
  8
0
  6
DASHDOT
 62
     7
 10
-512.617919921875
 20
138.343171613523
 30
0.0
 11
-512.617919921875
 21
221.20736154051
 31
0.0
  0
LINE
  5
   225
  8
0
  6
DASHDOT
 62
     7
 10
-536.617918491364
 20
141.250687049558
 30
0.0
 11
-536.617918491364
 21
169.540026427192
 31
0.0
  0
LINE
  5
   226
  8
0
  6
DASHDOT
 62
     7
 10
-488.617921352387
 20
138.343171613523
 30
0.0
 11
-488.617921352387
 21
171.858180626192
 31
0.0
  0
LINE
  5
   227
  8
0
  6
DASHDOT
 62
     7
 10
-536.617918491364
 20
230.440687587376
 30
0.0
 11
-536.617918491364
 21
261.126762662282
 31
0.0
  0
LINE
  5
   228
  8
0
  6
DASHDOT
 62
     7
 10
-512.617919921875
 20
229.301255862444
 30
0.0
 11
-512.617919921875
 21
260.576692174384
 31
0.0
  0
LINE
  5
   229
  8
0
  6
DASHDOT
 62
     7
 10
-488.617921352387
 20
229.576291106393
 30
0.0
 11
-488.617921352387
 21
259.790877191672
 31
0.0
  0
LINE
  5
   22A
  8
0
  6
DASHDOT
 62
     7
 10
-484.617921590805
 20
246.639355868101
 30
0.0
 11
-484.617921590805
 21
253.639355450869
 31
0.0
  0
LINE
  5
   22B
  8
0
  6
DASHDOT
 62
     7
 10
-481.117921799421
 20
250.139355659485
 30
0.0
 11
-488.117921382189
 21
250.139355659485
 31
0.0
  0
LINE
  5
   22C
  8
0
  6
DASHDOT
 62
     7
 10
-492.617921113968
 20
246.639355868101
 30
0.0
 11
-492.617921113968
 21
253.639355450869
 31
0.0
  0
LINE
  5
   22D
  8
0
  6
DASHDOT
 62
     7
 10
-489.117921322584
 20
250.139355659485
 30
0.0
 11
-496.117920905352
 21
250.139355659485
 31
0.0
  0
LINE
  5
   22E
  8
0
  6
DASHDOT
 62
     7
 10
-508.617920160294
 20
246.639355868101
 30
0.0
 11
-508.617920160294
 21
253.639355450869
 31
0.0
  0
LINE
  5
   22F
  8
0
  6
DASHDOT
 62
     7
 10
-505.11792036891
 20
250.139355659485
 30
0.0
 11
-512.117919951677
 21
250.139355659485
 31
0.0
  0
LINE
  5
   230
  8
0
  6
DASHDOT
 62
     7
 10
-516.617919683457
 20
246.639355868101
 30
0.0
 11
-516.617919683457
 21
253.639355450869
 31
0.0
  0
LINE
  5
   231
  8
0
  6
DASHDOT
 62
     7
 10
-513.117919892073
 20
250.139355659485
 30
0.0
 11
-520.11791947484
 21
250.139355659485
 31
0.0
  0
LINE
  5
   232
  8
0
  6
DASHDOT
 62
     7
 10
-532.617918729782
 20
246.639355868101
 30
0.0
 11
-532.617918729782
 21
253.639355450869
 31
0.0
  0
LINE
  5
   233
  8
0
  6
DASHDOT
 62
     7
 10
-529.117918938398
 20
250.139355659485
 30
0.0
 11
-536.117918521166
 21
250.139355659485
 31
0.0
  0
LINE
  5
   234
  8
0
  6
DASHDOT
 62
     7
 10
-540.617918252945
 20
246.639355868101
 30
0.0
 11
-540.617918252945
 21
253.639355450869
 31
0.0
  0
LINE
  5
   235
  8
0
  6
DASHDOT
 62
     7
 10
-537.117918461561
 20
250.139355659485
 30
0.0
 11
-544.117918044329
 21
250.139355659485
 31
0.0
  0
LINE
  5
   236
  8
0
  6
DASHDOT
 62
     7
 10
-540.617918252945
 20
238.639356344938
 30
0.0
 11
-540.617918252945
 21
245.639355927706
 31
0.0
  0
LINE
  5
   237
  8
0
  6
DASHDOT
 62
     7
 10
-532.617918729782
 20
238.639356344938
 30
0.0
 11
-532.617918729782
 21
245.639355927706
 31
0.0
  0
LINE
  5
   238
  8
0
  6
DASHDOT
 62
     7
 10
-516.617919683457
 20
238.639356344938
 30
0.0
 11
-516.617919683457
 21
245.639355927706
 31
0.0
  0
LINE
  5
   239
  8
0
  6
DASHDOT
 62
     7
 10
-508.617920160294
 20
238.639356344938
 30
0.0
 11
-508.617920160294
 21
245.639355927706
 31
0.0
  0
LINE
  5
   23A
  8
0
  6
DASHDOT
 62
     7
 10
-492.617921113968
 20
238.639356344938
 30
0.0
 11
-492.617921113968
 21
245.639355927706
 31
0.0
  0
LINE
  5
   23B
  8
0
  6
DASHDOT
 62
     7
 10
-484.617921590805
 20
238.639356344938
 30
0.0
 11
-484.617921590805
 21
245.639355927706
 31
0.0
  0
LINE
  5
   23C
  8
0
  6
DASHDOT
 62
     7
 10
-550.617917656899
 20
231.239356786013
 30
0.0
 11
-550.617917656899
 21
237.039356440306
 31
0.0
  0
LINE
  5
   23D
  8
0
  6
DASHDOT
 62
     7
 10
-547.717917829752
 20
234.139356613159
 30
0.0
 11
-553.517917484045
 21
234.139356613159
 31
0.0
  0
LINE
  5
   23E
  8
0
  6
DASHDOT
 62
     7
 10
-550.617917656899
 20
227.239357024431
 30
0.0
 11
-550.617917656899
 21
233.039356678724
 31
0.0
  0
LINE
  5
   23F
  8
0
  6
DASHDOT
 62
     7
 10
-547.717917829752
 20
230.139356851578
 30
0.0
 11
-553.517917484045
 21
230.139356851578
 31
0.0
  0
LINE
  5
   240
  8
0
  6
DASHDOT
 62
     7
 10
-474.617922186852
 20
231.239356786013
 30
0.0
 11
-474.617922186852
 21
237.039356440306
 31
0.0
  0
LINE
  5
   241
  8
0
  6
DASHDOT
 62
     7
 10
-471.717922359705
 20
234.139356613159
 30
0.0
 11
-477.517922013998
 21
234.139356613159
 31
0.0
  0
LINE
  5
   242
  8
0
  6
DASHDOT
 62
     7
 10
-474.617922186852
 20
227.239357024431
 30
0.0
 11
-474.617922186852
 21
233.039356678724
 31
0.0
  0
LINE
  5
   243
  8
0
  6
DASHDOT
 62
     7
 10
-471.717922359705
 20
230.139356851578
 30
0.0
 11
-477.517922013998
 21
230.139356851578
 31
0.0
  0
LINE
  5
   244
  8
0
  6
DASHDOT
 62
     7
 10
-550.617917656899
 20
171.239360362291
 30
0.0
 11
-550.617917656899
 21
177.039360016584
 31
0.0
  0
LINE
  5
   245
  8
0
  6
DASHDOT
 62
     7
 10
-547.717917829752
 20
174.139360189438
 30
0.0
 11
-553.517917484045
 21
174.139360189438
 31
0.0
  0
LINE
  5
   246
  8
0
  6
DASHDOT
 62
     7
 10
-550.617917656899
 20
167.23936060071
 30
0.0
 11
-550.617917656899
 21
173.039360255003
 31
0.0
  0
LINE
  5
   247
  8
0
  6
DASHDOT
 62
     7
 10
-547.717917829752
 20
170.139360427856
 30
0.0
 11
-553.517917484045
 21
170.139360427856
 31
0.0
  0
LINE
  5
   248
  8
0
  6
DASHDOT
 62
     7
 10
-540.617918252945
 20
158.63936111331
 30
0.0
 11
-540.617918252945
 21
165.639360696077
 31
0.0
  0
LINE
  5
   249
  8
0
  6
DASHDOT
 62
     7
 10
-537.117918461561
 20
154.139361381531
 30
0.0
 11
-544.117918044329
 21
154.139361381531
 31
0.0
  0
LINE
  5
   24A
  8
0
  6
DASHDOT
 62
     7
 10
-532.617918729782
 20
158.63936111331
 30
0.0
 11
-532.617918729782
 21
165.639360696077
 31
0.0
  0
LINE
  5
   24B
  8
0
  6
DASHDOT
 62
     7
 10
-532.617918729782
 20
150.639361590147
 30
0.0
 11
-532.617918729782
 21
157.639361172915
 31
0.0
  0
LINE
  5
   24C
  8
0
  6
DASHDOT
 62
     7
 10
-529.117918938398
 20
154.139361381531
 30
0.0
 11
-536.117918521166
 21
154.139361381531
 31
0.0
  0
LINE
  5
   24D
  8
0
  6
DASHDOT
 62
     7
 10
-516.617919683457
 20
158.63936111331
 30
0.0
 11
-516.617919683457
 21
165.639360696077
 31
0.0
  0
LINE
  5
   24E
  8
0
  6
DASHDOT
 62
     7
 10
-516.617919683457
 20
150.639361590147
 30
0.0
 11
-516.617919683457
 21
157.639361172915
 31
0.0
  0
LINE
  5
   24F
  8
0
  6
DASHDOT
 62
     7
 10
-513.117919892073
 20
154.139361381531
 30
0.0
 11
-520.11791947484
 21
154.139361381531
 31
0.0
  0
LINE
  5
   250
  8
0
  6
DASHDOT
 62
     7
 10
-508.617920160294
 20
158.63936111331
 30
0.0
 11
-508.617920160294
 21
165.639360696077
 31
0.0
  0
LINE
  5
   251
  8
0
  6
DASHDOT
 62
     7
 10
-508.617920160294
 20
150.639361590147
 30
0.0
 11
-508.617920160294
 21
157.639361172915
 31
0.0
  0
LINE
  5
   252
  8
0
  6
DASHDOT
 62
     7
 10
-505.11792036891
 20
154.139361381531
 30
0.0
 11
-512.117919951677
 21
154.139361381531
 31
0.0
  0
LINE
  5
   253
  8
0
  6
DASHDOT
 62
     7
 10
-492.617921113968
 20
158.63936111331
 30
0.0
 11
-492.617921113968
 21
165.639360696077
 31
0.0
  0
LINE
  5
   254
  8
0
  6
DASHDOT
 62
     7
 10
-492.617921113968
 20
150.639361590147
 30
0.0
 11
-492.617921113968
 21
157.639361172915
 31
0.0
  0
LINE
  5
   255
  8
0
  6
DASHDOT
 62
     7
 10
-489.117921322584
 20
154.139361381531
 30
0.0
 11
-496.117920905352
 21
154.139361381531
 31
0.0
  0
LINE
  5
   256
  8
0
  6
DASHDOT
 62
     7
 10
-484.617921590805
 20
158.63936111331
 30
0.0
 11
-484.617921590805
 21
165.639360696077
 31
0.0
  0
LINE
  5
   257
  8
0
  6
DASHDOT
 62
     7
 10
-484.617921590805
 20
150.639361590147
 30
0.0
 11
-484.617921590805
 21
157.639361172915
 31
0.0
  0
LINE
  5
   258
  8
0
  6
DASHDOT
 62
     7
 10
-481.117921799421
 20
154.139361381531
 30
0.0
 11
-488.117921382189
 21
154.139361381531
 31
0.0
  0
LINE
  5
   259
  8
0
  6
DASHDOT
 62
     7
 10
-540.617918252945
 20
150.639361590147
 30
0.0
 11
-540.617918252945
 21
157.639361172915
 31
0.0
  0
LINE
  5
   25A
  8
0
  6
DASHDOT
 62
     7
 10
-537.117918461561
 20
154.139361381531
 30
0.0
 11
-544.117918044329
 21
154.139361381531
 31
0.0
  0
LINE
  5
   25B
  8
0
  6
DASHDOT
 62
     7
 10
-474.617922186852
 20
171.239360362291
 30
0.0
 11
-474.617922186852
 21
177.039360016584
 31
0.0
  0
LINE
  5
   25C
  8
0
  6
DASHDOT
 62
     7
 10
-471.717922359705
 20
174.139360189438
 30
0.0
 11
-477.517922013998
 21
174.139360189438
 31
0.0
  0
LINE
  5
   25D
  8
0
  6
DASHDOT
 62
     7
 10
-474.617922186852
 20
167.23936060071
 30
0.0
 11
-474.617922186852
 21
173.039360255003
 31
0.0
  0
LINE
  5
   25E
  8
0
  6
DASHDOT
 62
     7
 10
-471.717922359705
 20
170.139360427856
 30
0.0
 11
-477.517922013998
 21
170.139360427856
 31
0.0
  0
LINE
  5
   25F
  8
0
  6
DASHDOT
 62
     7
 10
-466.585991032144
 20
202.139358520508
 30
0.0
 11
-561.160269920414
 21
202.139358520508
 31
0.0
  0
LINE
  5
   260
  8
0
  6
DASHDOT
 62
     7
 10
-529.117918938398
 20
242.139356136322
 30
0.0
 11
-529.693327813544
 21
242.139356136322
 31
0.0
  0
CIRCLE
  5
   261
  8
0
  6
CONTINUOUS
 62
     7
 10
-532.617918729782
 20
242.139356136322
 30
0.0
 40
1.49999991059303
  0
CIRCLE
  5
   262
  8
0
  6
CONTINUOUS
 62
     7
 10
-540.617918252945
 20
242.139356136322
 30
0.0
 40
1.49999991059303
  0
LINE
  5
   263
  8
0
  6
CONTINUOUS
 62
     7
 10
-544.617918014526
 20
242.139356136322
 30
0.0
 11
-552.817917525768
 21
242.139356136322
 31
0.0
  0
LINE
  5
   264
  8
0
  6
CONTINUOUS
 62
     7
 10
-472.417922317982
 20
242.139356136322
 30
0.0
 11
-528.617918968201
 21
242.139356136322
 31
0.0
  0
LINE
  5
   265
  8
0
  6
DASHDOT
 62
     7
 10
-528.617918968201
 20
242.139356136322
 30
0.0
 11
-544.617918014526
 21
242.139356136322
 31
0.0
  0
CIRCLE
  5
   266
  8
0
  6
CONTINUOUS
 62
     7
 10
-532.617918729782
 20
162.139360904694
 30
0.0
 40
1.49999991059303
  0
CIRCLE
  5
   267
  8
0
  6
CONTINUOUS
 62
     7
 10
-540.617918252945
 20
162.139360904694
 30
0.0
 40
1.49999991059303
  0
LINE
  5
   268
  8
0
  6
CONTINUOUS
 62
     7
 10
-544.617918014526
 20
162.139360904694
 30
0.0
 11
-552.817917525768
 21
162.139360904694
 31
0.0
  0
LINE
  5
   269
  8
0
  6
CONTINUOUS
 62
     7
 10
-472.417922317982
 20
162.139360904694
 30
0.0
 11
-528.617918968201
 21
162.139360904694
 31
0.0
  0
LINE
  5
   26A
  8
0
  6
DASHDOT
 62
     7
 10
-528.617918968201
 20
162.139360904694
 30
0.0
 11
-544.617918014526
 21
162.139360904694
 31
0.0
  0
LINE
  5
   26B
  8
0
  6
CONTINUOUS
 62
     7
 10
-472.017922341824
 20
176.539360046387
 30
0.0
 11
-475.617922127247
 21
176.539360046387
 31
0.0
  0
LINE
  5
   26C
  8
0
  6
CONTINUOUS
 62
     7
 10
-549.617917716503
 20
227.739356994629
 30
0.0
 11
-553.217917501927
 21
227.739356994629
 31
0.0
  0
LINE
  5
   26D
  8
0
  6
CONTINUOUS
 62
     7
 10
-549.617917716503
 20
176.539360046387
 30
0.0
 11
-553.217917501927
 21
176.539360046387
 31
0.0
  0
INSERT
  5
   26E
  8
0
  6
CONTINUOUS
 62
     3
  2
*UDIM916
 10
0.0
 20
0.0
 30
0.0
  0
INSERT
  5
   26F
  8
0
  6
CONTINUOUS
 62
     3
  2
*UDIM917
 10
0.0
 20
0.0
 30
0.0
  0
INSERT
  5
   270
  8
0
  6
CONTINUOUS
 62
     7
  2
*UDIM918
 10
0.0
 20
0.0
 30
0.0
  0
INSERT
  5
   271
  8
0
  6
CONTINUOUS
 62
     7
  2
*UDIM919
 10
0.0
 20
0.0
 30
0.0
  0
INSERT
  5
   272
  8
0
  6
CONTINUOUS
 62
     7
  2
*UDIM920
 10
0.0
 20
0.0
 30
0.0
  0
INSERT
  5
   273
  8
0
  6
CONTINUOUS
 62
     3
  2
*UDIM921
 10
0.0
 20
0.0
 30
0.0
  0
TEXT
  5
   274
  8
0
  6
CONTINUOUS
 62
     2
 10
-565.349458120851
 20
200.045383947098
 30
0.0
 40
4.00000019073484
  1
X
 50
359.999999948034
 41
0.915624706834582
 72
     2
 11
-562.419458989871
 21
202.045384039823
 31
0.0
 73
     2
  0
TEXT
  5
   275
  8
0
  6
CONTINUOUS
 62
     2
 10
-514.19754844848
 20
261.376674803829
 30
0.0
 40
4.00000019073484
  1
Y
 50
359.999999948034
 41
0.915624706834582
 72
     1
 11
-512.732548883892
 21
261.376674802508
 31
0.0
  0
INSERT
  5
   276
  8
0
  6
CONTINUOUS
 62
     7
  2
*UDIM922
 10
0.0
 20
0.0
 30
0.0
  0
INSERT
  5
   277
  8
0
  6
CONTINUOUS
 62
     7
  2
*UDIM923
 10
0.0
 20
0.0
 30
0.0
  0
TEXT
  5
   278
  8
0
  6
CONTINUOUS
 62
     2
 10
-514.319633678331
 20
118.326585436212
 30
0.0
 40
4.00000019073484
  1
Y
 50
359.999999948034
 41
0.982499997705222
 72
     1
 11
-512.854633609457
 21
122.326585625626
 31
0.0
 73
     3
  0
TEXT
  5
   279
  8
0
  6
CONTINUOUS
 62
     2
 10
-464.998939972227
 20
199.923300255365
 30
0.0
 40
4.00000019073484
  1
X
 50
359.999999948034
 41
0.982499997705222
 11
-464.998939970423
 21
201.923300350732
 31
0.0
 73
     2
  0
INSERT
  5
   27A
  8
0
  6
CONTINUOUS
 62
     3
  2
*UDIM924
 10
0.0
 20
0.0
 30
0.0
  0
INSERT
  5
   27B
  8
0
  6
CONTINUOUS
 62
     3
  2
*UDIM925
 10
0.0
 20
0.0
 30
0.0
  0
INSERT
  5
   27C
  8
0
  6
CONTINUOUS
 62
     3
  2
*UDIM926
 10
0.0
 20
0.0
 30
0.0
  0
INSERT
  5
   27D
  8
0
  6
CONTINUOUS
 62
     7
  2
*UDIM927
 10
0.0
 20
0.0
 30
0.0
  0
INSERT
  5
   27E
  8
0
  6
CONTINUOUS
 62
     7
  2
*UDIM928
 10
0.0
 20
0.0
 30
0.0
  0
INSERT
  5
   27F
  8
0
  6
CONTINUOUS
 62
     7
  2
*UDIM929
 10
0.0
 20
0.0
 30
0.0
  0
INSERT
  5
   280
  8
0
  6
CONTINUOUS
 62
     7
  2
*UDIM930
 10
0.0
 20
0.0
 30
0.0
  0
INSERT
  5
   281
  8
0
  6
CONTINUOUS
 62
     7
  2
*UDIM931
 10
0.0
 20
0.0
 30
0.0
  0
LINE
  5
   282
  8
0
  6
CONTINUOUS
 62
   218
 10
-548.217895433307
 20
242.139359712601
 30
0.0
 11
-546.643974133533
 21
242.139359712601
 31
0.0
  0
LINE
  5
   283
  8
0
  6
CONTINUOUS
 62
   218
 10
-548.617895439267
 20
228.739359512925
 30
0.0
 11
-548.617895439267
 21
241.73935970664
 31
0.0
  0
LINE
  5
   284
  8
0
  6
CONTINUOUS
 62
   218
 10
-552.817895501852
 20
227.739359498024
 30
0.0
 11
-549.617895454168
 21
227.739359498024
 31
0.0
  0
LINE
  5
   285
  8
0
  6
CONTINUOUS
 62
   218
 10
-553.217895507812
 20
176.939358741045
 30
0.0
 11
-553.217895507812
 21
227.339359492064
 31
0.0
  0
LINE
  5
   286
  8
0
  6
CONTINUOUS
 62
   218
 10
-552.817895501852
 20
176.539358735085
 30
0.0
 11
-549.617895454168
 21
176.539358735085
 31
0.0
  0
LINE
  5
   287
  8
0
  6
CONTINUOUS
 62
   218
 10
-548.617895439267
 20
162.539358526468
 30
0.0
 11
-548.617895439267
 21
175.539358720183
 31
0.0
  0
LINE
  5
   288
  8
0
  6
CONTINUOUS
 62
   218
 10
-548.217895433307
 20
162.139358520508
 30
0.0
 11
-546.436745352171
 21
162.139358520508
 31
0.0
  0
LINE
  5
   289
  8
0
  6
CONTINUOUS
 62
   218
 10
-472.017894297838
 20
176.939358741045
 30
0.0
 11
-472.017894297838
 21
227.339359492064
 31
0.0
  0
LINE
  5
   28A
  8
0
  6
CONTINUOUS
 62
   218
 10
-544.900737981838
 20
227.622203362636
 30
0.0
 11
-544.617894959995
 21
227.739360347008
 31
0.0
  0
LINE
  5
   28B
  8
0
  6
CONTINUOUS
 62
   218
 10
-545.017895032541
 20
227.339360838469
 30
0.0
 11
-544.900738048169
 21
227.622203860311
 31
0.0
  0
LINE
  5
   28C
  8
0
  6
CONTINUOUS
 62
   218
 10
-545.017895385623
 20
165.539358571172
 30
0.0
 11
-545.017895385623
 21
227.339359492064
 31
0.0
  0
LINE
  5
   28D
  8
0
  6
CONTINUOUS
 62
   218
 10
-545.017895805143
 20
165.539358430246
 30
0.0
 11
-544.900738820771
 21
165.256515789772
 31
0.0
  0
LINE
  5
   28E
  8
0
  6
CONTINUOUS
 62
   218
 10
-544.900738837911
 20
165.256515911545
 30
0.0
 11
-544.617895807861
 21
165.139358543969
 31
0.0
  0
LINE
  5
   28F
  8
0
  6
CONTINUOUS
 62
   218
 10
-544.617895379663
 20
165.139358565211
 30
0.0
 11
-544.009175067327
 21
165.139358565211
 31
0.0
  0
LINE
  5
   290
  8
0
  6
CONTINUOUS
 62
   218
 10
-480.617898561446
 20
165.139357677699
 30
0.0
 11
-480.335055531397
 21
165.256515045275
 31
0.0
  0
LINE
  5
   291
  8
0
  6
CONTINUOUS
 62
   218
 10
-480.335055613629
 20
165.256514362311
 30
0.0
 11
-480.217898629256
 21
165.539357002784
 31
0.0
  0
LINE
  5
   292
  8
0
  6
CONTINUOUS
 62
   218
 10
-480.217894420028
 20
165.539358571172
 30
0.0
 11
-480.217894420028
 21
227.339359492064
 31
0.0
  0
LINE
  5
   293
  8
0
  6
CONTINUOUS
 62
   218
 10
-480.335050744651
 20
227.622203547964
 30
0.0
 11
-480.217893760279
 21
227.339360526122
 31
0.0
  0
LINE
  5
   294
  8
0
  6
CONTINUOUS
 62
   218
 10
-480.617893214232
 20
227.739360037006
 30
0.0
 11
-480.33505019239
 21
227.622203052633
 31
0.0
  0
LINE
  5
   295
  8
0
  6
CONTINUOUS
 62
   218
 10
-544.617895379663
 20
227.739359498024
 30
0.0
 11
-480.617894425988
 21
227.739359498024
 31
0.0
  0
LINE
  5
   296
  8
0
  6
CONTINUOUS
 62
   218
 10
-536.117895253003
 20
211.339359253645
 30
0.0
 11
-527.117895118892
 21
211.339359253645
 31
0.0
  0
LINE
  5
   297
  8
0
  6
CONTINUOUS
 62
   218
 10
-536.117895253003
 20
171.339358657599
 30
0.0
 11
-536.117895253003
 21
211.339359253645
 31
0.0
  0
LINE
  5
   298
  8
0
  6
CONTINUOUS
 62
   218
 10
-536.117895253003
 20
171.339358657599
 30
0.0
 11
-527.117895118892
 21
171.339358657599
 31
0.0
  0
LINE
  5
   299
  8
0
  6
CONTINUOUS
 62
   218
 10
-527.117895118892
 20
171.339358657599
 30
0.0
 11
-527.117895118892
 21
211.339359253645
 31
0.0
  0
LINE
  5
   29A
  8
0
  6
CONTINUOUS
 62
   218
 10
-500.317894719541
 20
177.939358755946
 30
0.0
 11
-500.317894719541
 21
183.939358845353
 31
0.0
  0
LINE
  5
   29B
  8
0
  6
CONTINUOUS
 62
   218
 10
-525.41789509356
 20
177.939358755946
 30
0.0
 11
-523.017895057797
 21
177.939358755946
 31
0.0
  0
LINE
  5
   29C
  8
0
  6
CONTINUOUS
 62
   218
 10
-507.317894823849
 20
183.939358845353
 30
0.0
 11
-500.317894719541
 21
183.939358845353
 31
0.0
  0
LINE
  5
   29D
  8
0
  6
CONTINUOUS
 62
   218
 10
-509.117894850671
 20
177.939358755946
 30
0.0
 11
-509.117894850671
 21
183.939358845353
 31
0.0
  0
LINE
  5
   29E
  8
0
  6
CONTINUOUS
 62
   218
 10
-516.117894954979
 20
183.939358845353
 30
0.0
 11
-509.117894850671
 21
183.939358845353
 31
0.0
  0
LINE
  5
   29F
  8
0
  6
CONTINUOUS
 62
   218
 10
-522.817895054817
 20
177.939358755946
 30
0.0
 11
-522.817895054817
 21
184.139358848333
 31
0.0
  0
LINE
  5
   2A0
  8
0
  6
CONTINUOUS
 62
   218
 10
-525.617895096541
 20
184.139358848333
 30
0.0
 11
-522.817895054817
 21
184.139358848333
 31
0.0
  0
LINE
  5
   2A1
  8
0
  6
CONTINUOUS
 62
   218
 10
-525.41789509356
 20
183.939358845353
 30
0.0
 11
-523.017895057797
 21
183.939358845353
 31
0.0
  0
LINE
  5
   2A2
  8
0
  6
CONTINUOUS
 62
   218
 10
-523.017895057797
 20
177.939358755946
 30
0.0
 11
-523.017895057797
 21
183.939358845353
 31
0.0
  0
LINE
  5
   2A3
  8
0
  6
CONTINUOUS
 62
   218
 10
-544.817895382643
 20
221.139359399676
 30
0.0
 11
-544.817895382643
 21
224.739359453321
 31
0.0
  0
LINE
  5
   2A4
  8
0
  6
CONTINUOUS
 62
   218
 10
-544.817895382643
 20
221.139359399676
 30
0.0
 11
-480.417894423008
 21
221.139359399676
 31
0.0
  0
LINE
  5
   2A5
  8
0
  6
CONTINUOUS
 62
   218
 10
-480.417894423008
 20
221.139359399676
 30
0.0
 11
-480.417894423008
 21
224.739359453321
 31
0.0
  0
LINE
  5
   2A6
  8
0
  6
CONTINUOUS
 62
   218
 10
-522.017895042896
 20
181.23935880512
 30
0.0
 11
-522.017895042896
 21
214.762750897848
 31
0.0
  0
LINE
  5
   2A7
  8
0
  6
CONTINUOUS
 62
   218
 10
-517.617894977331
 20
181.23935880512
 30
0.0
 11
-517.617894977331
 21
214.762750897848
 31
0.0
  0
LINE
  5
   2A8
  8
0
  6
CONTINUOUS
 62
   218
 10
-516.117894954979
 20
202.939359128475
 30
0.0
 11
-509.117894850671
 21
202.939359128475
 31
0.0
  0
LINE
  5
   2A9
  8
0
  6
CONTINUOUS
 62
   218
 10
-516.117894954979
 20
177.939358755946
 30
0.0
 11
-516.117894954979
 21
183.939358845353
 31
0.0
  0
LINE
  5
   2AA
  8
0
  6
CONTINUOUS
 62
   218
 10
-516.117894954979
 20
199.339359074831
 30
0.0
 11
-509.117894850671
 21
199.339359074831
 31
0.0
  0
LINE
  5
   2AB
  8
0
  6
CONTINUOUS
 62
   218
 10
-507.317894823849
 20
177.939358755946
 30
0.0
 11
-507.317894823849
 21
183.939358845353
 31
0.0
  0
LINE
  5
   2AC
  8
0
  6
CONTINUOUS
 62
   218
 10
-507.317894823849
 20
199.339359074831
 30
0.0
 11
-500.317894719541
 21
199.339359074831
 31
0.0
  0
LINE
  5
   2AD
  8
0
  6
CONTINUOUS
 62
   218
 10
-522.017895042896
 20
181.23935880512
 30
0.0
 11
-517.617894977331
 21
181.23935880512
 31
0.0
  0
LINE
  5
   2AE
  8
0
  6
CONTINUOUS
 62
   218
 10
-500.117894716561
 20
165.139358565211
 30
0.0
 11
-500.117894716561
 21
217.539359346032
 31
0.0
  0
LINE
  5
   2AF
  8
0
  6
CONTINUOUS
 62
   218
 10
-500.317894719541
 20
165.139358565211
 30
0.0
 11
-500.317894719541
 21
177.739358752966
 31
0.0
  0
LINE
  5
   2B0
  8
0
  6
CONTINUOUS
 62
   218
 10
-516.31789495796
 20
177.939358755946
 30
0.0
 11
-516.31789495796
 21
217.539359346032
 31
0.0
  0
LINE
  5
   2B1
  8
0
  6
CONTINUOUS
 62
   218
 10
-508.917894847691
 20
177.939358755946
 30
0.0
 11
-508.917894847691
 21
202.939359128475
 31
0.0
  0
LINE
  5
   2B2
  8
0
  6
CONTINUOUS
 62
   218
 10
-507.51789482683
 20
177.939358755946
 30
0.0
 11
-507.51789482683
 21
202.939359128475
 31
0.0
  0
LINE
  5
   2B3
  8
0
  6
CONTINUOUS
 62
   218
 10
-516.117894954979
 20
203.139359131455
 30
0.0
 11
-500.317894719541
 21
203.139359131455
 31
0.0
  0
LINE
  5
   2B4
  8
0
  6
CONTINUOUS
 62
   218
 10
-526.417895108461
 20
177.739358752966
 30
0.0
 11
-500.317894719541
 21
177.739358752966
 31
0.0
  0
LINE
  5
   2B5
  8
0
  6
CONTINUOUS
 62
   218
 10
-516.117894954979
 20
177.939358755946
 30
0.0
 11
-509.117894850671
 21
177.939358755946
 31
0.0
  0
LINE
  5
   2B6
  8
0
  6
CONTINUOUS
 62
   218
 10
-508.917894847691
 20
177.939358755946
 30
0.0
 11
-507.51789482683
 21
177.939358755946
 31
0.0
  0
LINE
  5
   2B7
  8
0
  6
CONTINUOUS
 62
   218
 10
-507.317894823849
 20
177.939358755946
 30
0.0
 11
-500.317894719541
 21
177.939358755946
 31
0.0
  0
LINE
  5
   2B8
  8
0
  6
CONTINUOUS
 62
   218
 10
-500.317894719541
 20
177.939358755946
 30
0.0
 11
-500.317894719541
 21
183.939358845353
 31
0.0
  0
LINE
  5
   2B9
  8
0
  6
CONTINUOUS
 62
   218
 10
-507.317894823849
 20
184.139358848333
 30
0.0
 11
-500.317894719541
 21
184.139358848333
 31
0.0
  0
LINE
  5
   2BA
  8
0
  6
CONTINUOUS
 62
   218
 10
-516.117894954979
 20
184.139358848333
 30
0.0
 11
-509.117894850671
 21
184.139358848333
 31
0.0
  0
LINE
  5
   2BB
  8
0
  6
CONTINUOUS
 62
   218
 10
-507.317894823849
 20
184.139358848333
 30
0.0
 11
-507.317894823849
 21
199.139359071851
 31
0.0
  0
LINE
  5
   2BC
  8
0
  6
CONTINUOUS
 62
   218
 10
-500.317894719541
 20
184.139358848333
 30
0.0
 11
-500.317894719541
 21
199.139359071851
 31
0.0
  0
LINE
  5
   2BD
  8
0
  6
CONTINUOUS
 62
   218
 10
-509.117894850671
 20
184.139358848333
 30
0.0
 11
-509.117894850671
 21
199.139359071851
 31
0.0
  0
LINE
  5
   2BE
  8
0
  6
CONTINUOUS
 62
   218
 10
-516.117894954979
 20
184.139358848333
 30
0.0
 11
-516.117894954979
 21
199.139359071851
 31
0.0
  0
LINE
  5
   2BF
  8
0
  6
CONTINUOUS
 62
   218
 10
-516.117894954979
 20
199.139359071851
 30
0.0
 11
-509.117894850671
 21
199.139359071851
 31
0.0
  0
LINE
  5
   2C0
  8
0
  6
CONTINUOUS
 62
   218
 10
-507.317894823849
 20
199.139359071851
 30
0.0
 11
-500.317894719541
 21
199.139359071851
 31
0.0
  0
LINE
  5
   2C1
  8
0
  6
CONTINUOUS
 62
   218
 10
-509.117894850671
 20
199.339359074831
 30
0.0
 11
-509.117894850671
 21
202.939359128475
 31
0.0
  0
LINE
  5
   2C2
  8
0
  6
CONTINUOUS
 62
   218
 10
-500.317894719541
 20
199.339359074831
 30
0.0
 11
-500.317894719541
 21
202.939359128475
 31
0.0
  0
LINE
  5
   2C3
  8
0
  6
CONTINUOUS
 62
   218
 10
-507.317894823849
 20
199.339359074831
 30
0.0
 11
-507.317894823849
 21
202.939359128475
 31
0.0
  0
LINE
  5
   2C4
  8
0
  6
CONTINUOUS
 62
   218
 10
-516.117894954979
 20
199.339359074831
 30
0.0
 11
-516.117894954979
 21
202.939359128475
 31
0.0
  0
LINE
  5
   2C5
  8
0
  6
CONTINUOUS
 62
   218
 10
-508.917894847691
 20
202.939359128475
 30
0.0
 11
-507.51789482683
 21
202.939359128475
 31
0.0
  0
LINE
  5
   2C6
  8
0
  6
CONTINUOUS
 62
   218
 10
-507.317894823849
 20
202.939359128475
 30
0.0
 11
-500.317894719541
 21
202.939359128475
 31
0.0
  0
LINE
  5
   2C7
  8
0
  6
CONTINUOUS
 62
   218
 10
-516.117894954979
 20
203.139359131455
 30
0.0
 11
-516.117894954979
 21
217.539359346032
 31
0.0
  0
LINE
  5
   2C8
  8
0
  6
CONTINUOUS
 62
   218
 10
-500.317894719541
 20
203.139359131455
 30
0.0
 11
-500.317894719541
 21
217.539359346032
 31
0.0
  0
LINE
  5
   2C9
  8
0
  6
DASHDOT
 62
     2
 10
-531.617895185947
 20
171.339358657599
 30
0.0
 11
-531.617895185947
 21
213.233237147722
 31
0.0
  0
LINE
  5
   2CA
  8
0
  6
CONTINUOUS
 62
   218
 10
-525.41789509356
 20
177.939358755946
 30
0.0
 11
-525.41789509356
 21
183.939358845353
 31
0.0
  0
LINE
  5
   2CB
  8
0
  6
CONTINUOUS
 62
   218
 10
-522.817895054817
 20
177.939358755946
 30
0.0
 11
-516.31789495796
 21
177.939358755946
 31
0.0
  0
LINE
  5
   2CC
  8
0
  6
CONTINUOUS
 62
     7
 10
-552.857895502448
 20
176.541363760272
 30
0.0
 11
-552.857895502448
 21
227.737354472837
 31
0.0
  0
LINE
  5
   2CD
  8
0
  6
CONTINUOUS
 62
     7
 10
-552.137895491719
 20
176.539358735085
 30
0.0
 11
-552.137895491719
 21
227.739359498024
 31
0.0
  0
LINE
  5
   2CE
  8
0
  6
CONTINUOUS
 62
     7
 10
-551.777895486354
 20
176.539358735085
 30
0.0
 11
-551.777895486354
 21
227.739359498024
 31
0.0
  0
LINE
  5
   2CF
  8
0
  6
CONTINUOUS
 62
     7
 10
-551.41789548099
 20
176.539358735085
 30
0.0
 11
-551.41789548099
 21
227.739359498024
 31
0.0
  0
LINE
  5
   2D0
  8
0
  6
CONTINUOUS
 62
     7
 10
-551.057895475626
 20
176.539358735085
 30
0.0
 11
-551.057895475626
 21
227.739359498024
 31
0.0
  0
LINE
  5
   2D1
  8
0
  6
CONTINUOUS
 62
     7
 10
-550.697895470261
 20
176.539358735085
 30
0.0
 11
-550.697895470261
 21
227.739359498024
 31
0.0
  0
LINE
  5
   2D2
  8
0
  6
CONTINUOUS
 62
     7
 10
-550.337895464897
 20
176.539358735085
 30
0.0
 11
-550.337895464897
 21
227.739359498024
 31
0.0
  0
LINE
  5
   2D3
  8
0
  6
CONTINUOUS
 62
     7
 10
-549.977895459532
 20
176.539358735085
 30
0.0
 11
-549.977895459532
 21
227.739359498024
 31
0.0
  0
LINE
  5
   2D4
  8
0
  6
CONTINUOUS
 62
     7
 10
-549.617895454168
 20
176.534345908246
 30
0.0
 11
-549.617895454168
 21
227.744367870932
 31
0.0
  0
LINE
  5
   2D5
  8
0
  6
CONTINUOUS
 62
     7
 10
-549.257895448804
 20
176.472310440107
 30
0.0
 11
-549.257895448804
 21
227.80640211797
 31
0.0
  0
LINE
  5
   2D6
  8
0
  6
CONTINUOUS
 62
     7
 10
-548.897895443439
 20
176.233331754269
 30
0.0
 11
-548.897895443439
 21
228.045379368528
 31
0.0
  0
LINE
  5
   2D7
  8
0
  6
CONTINUOUS
 62
     7
 10
-548.537895438075
 20
162.299358522891
 30
0.0
 11
-548.537895438075
 21
241.979359710217
 31
0.0
  0
LINE
  5
   2D8
  8
0
  6
CONTINUOUS
 62
     7
 10
-548.17789543271
 20
162.139358520508
 30
0.0
 11
-548.17789543271
 21
242.139359712601
 31
0.0
  0
LINE
  5
   2D9
  8
0
  6
CONTINUOUS
 62
     7
 10
-547.817895427346
 20
162.139358520508
 30
0.0
 11
-547.817895427346
 21
242.139359712601
 31
0.0
  0
LINE
  5
   2DA
  8
0
  6
CONTINUOUS
 62
     7
 10
-547.457895421981
 20
162.139358520508
 30
0.0
 11
-547.457895421981
 21
242.139359712601
 31
0.0
  0
LINE
  5
   2DB
  8
0
  6
CONTINUOUS
 62
     7
 10
-547.097895416617
 20
162.139358520508
 30
0.0
 11
-547.097895416617
 21
242.139359712601
 31
0.0
  0
LINE
  5
   2DC
  8
0
  6
CONTINUOUS
 62
     7
 10
-546.737895411253
 20
162.139358520508
 30
0.0
 11
-546.737895411253
 21
242.139359712601
 31
0.0
  0
LINE
  5
   2DD
  8
0
  6
CONTINUOUS
 62
     7
 10
-552.497895497083
 20
176.539358735085
 30
0.0
 11
-552.497895497083
 21
227.739359498024
 31
0.0
  0
ARC
  5
   2DE
  8
0
  6
CONTINUOUS
 62
   218
 10
-549.617896967149
 20
175.539357127441
 30
0.0
 40
1.00000148841108
 50
5.53313698414922E-5
 51
89.9999148991007
  0
ARC
  5
   2DF
  8
0
  6
CONTINUOUS
 62
   218
 10
-549.617891224592
 20
228.739350947901
 30
0.0
 40
0.999995238916764
 50
269.999686132018
 51
360.000303553921
  0
LINE
  5
   2E0
  8
0
  6
DASHDOT
 62
     2
 10
-512.617894902825
 20
159.546339961273
 30
0.0
 11
-512.617894902825
 21
244.171296713505
 31
0.0
  0
LINE
  5
   2E1
  8
0
  6
CONTINUOUS
 62
   218
 10
-476.617894366383
 20
228.739359512925
 30
0.0
 11
-476.617894366383
 21
241.73935970664
 31
0.0
  0
LINE
  5
   2E2
  8
0
  6
CONTINUOUS
 62
   218
 10
-475.617894351482
 20
227.739359498024
 30
0.0
 11
-472.417894303799
 21
227.739359498024
 31
0.0
  0
LINE
  5
   2E3
  8
0
  6
CONTINUOUS
 62
   218
 10
-475.617894351482
 20
176.539358735085
 30
0.0
 11
-472.417894303799
 21
176.539358735085
 31
0.0
  0
LINE
  5
   2E4
  8
0
  6
CONTINUOUS
 62
   218
 10
-476.617894366383
 20
162.539358526468
 30
0.0
 11
-476.617894366383
 21
175.539358720183
 31
0.0
  0
LINE
  5
   2E5
  8
0
  6
CONTINUOUS
 62
     7
 10
-473.097894313932
 20
176.539358735085
 30
0.0
 11
-473.097894313932
 21
227.739359498024
 31
0.0
  0
LINE
  5
   2E6
  8
0
  6
CONTINUOUS
 62
     7
 10
-473.457894319296
 20
176.539358735085
 30
0.0
 11
-473.457894319296
 21
227.739359498024
 31
0.0
  0
LINE
  5
   2E7
  8
0
  6
CONTINUOUS
 62
     7
 10
-473.81789432466
 20
176.539358735085
 30
0.0
 11
-473.81789432466
 21
227.739359498024
 31
0.0
  0
LINE
  5
   2E8
  8
0
  6
CONTINUOUS
 62
     7
 10
-474.177894330025
 20
176.539358735085
 30
0.0
 11
-474.177894330025
 21
227.739359498024
 31
0.0
  0
LINE
  5
   2E9
  8
0
  6
CONTINUOUS
 62
     7
 10
-474.537894335389
 20
176.539358735085
 30
0.0
 11
-474.537894335389
 21
227.739359498024
 31
0.0
  0
LINE
  5
   2EA
  8
0
  6
CONTINUOUS
 62
     7
 10
-474.897894340754
 20
176.539358735085
 30
0.0
 11
-474.897894340754
 21
227.739359498024
 31
0.0
  0
LINE
  5
   2EB
  8
0
  6
CONTINUOUS
 62
     7
 10
-475.257894346118
 20
176.539358735085
 30
0.0
 11
-475.257894346118
 21
227.739359498024
 31
0.0
  0
LINE
  5
   2EC
  8
0
  6
CONTINUOUS
 62
     7
 10
-475.617894351482
 20
176.539358735085
 30
0.0
 11
-475.617894351482
 21
227.744367870932
 31
0.0
  0
LINE
  5
   2ED
  8
0
  6
CONTINUOUS
 62
     7
 10
-475.977894356847
 20
176.472310440107
 30
0.0
 11
-475.977894356847
 21
227.80640211797
 31
0.0
  0
LINE
  5
   2EE
  8
0
  6
CONTINUOUS
 62
     7
 10
-476.337894362211
 20
176.233331754269
 30
0.0
 11
-476.337894362211
 21
228.045379368528
 31
0.0
  0
LINE
  5
   2EF
  8
0
  6
CONTINUOUS
 62
     7
 10
-476.697894367576
 20
162.299358522891
 30
0.0
 11
-476.697894367576
 21
241.979359710217
 31
0.0
  0
LINE
  5
   2F0
  8
0
  6
CONTINUOUS
 62
     7
 10
-477.05789437294
 20
162.139358520508
 30
0.0
 11
-477.05789437294
 21
242.139359712601
 31
0.0
  0
LINE
  5
   2F1
  8
0
  6
CONTINUOUS
 62
     7
 10
-477.417894378304
 20
162.139358520508
 30
0.0
 11
-477.417894378304
 21
242.139359712601
 31
0.0
  0
LINE
  5
   2F2
  8
0
  6
CONTINUOUS
 62
     7
 10
-477.777894383669
 20
162.139358520508
 30
0.0
 11
-477.777894383669
 21
242.139359712601
 31
0.0
  0
LINE
  5
   2F3
  8
0
  6
CONTINUOUS
 62
     7
 10
-478.137894389033
 20
162.139358520508
 30
0.0
 11
-478.137894389033
 21
242.139359712601
 31
0.0
  0
LINE
  5
   2F4
  8
0
  6
CONTINUOUS
 62
     7
 10
-478.497894394398
 20
162.139358520508
 30
0.0
 11
-478.497894394398
 21
242.139359712601
 31
0.0
  0
LINE
  5
   2F5
  8
0
  6
CONTINUOUS
 62
     7
 10
-478.857894399762
 20
162.139358520508
 30
0.0
 11
-478.857894399762
 21
242.139359712601
 31
0.0
  0
LINE
  5
   2F6
  8
0
  6
CONTINUOUS
 62
     7
 10
-479.217894405127
 20
162.139358520508
 30
0.0
 11
-479.217894405127
 21
242.139359712601
 31
0.0
  0
LINE
  5
   2F7
  8
0
  6
CONTINUOUS
 62
     7
 10
-479.577894410491
 20
162.139358520508
 30
0.0
 11
-479.577894410491
 21
242.139359712601
 31
0.0
  0
LINE
  5
   2F8
  8
0
  6
CONTINUOUS
 62
     7
 10
-479.937894415855
 20
162.139358520508
 30
0.0
 11
-479.937894415855
 21
242.139359712601
 31
0.0
  0
LINE
  5
   2F9
  8
0
  6
CONTINUOUS
 62
     7
 10
-472.737894308567
 20
176.539358735085
 30
0.0
 11
-472.737894308567
 21
227.739359498024
 31
0.0
  0
ARC
  5
   2FA
  8
0
  6
CONTINUOUS
 62
   218
 10
-475.617892838502
 20
175.539357127441
 30
0.0
 40
1.00000148841108
 50
90.0000851008993
 51
179.99994466863
  0
ARC
  5
   2FB
  8
0
  6
CONTINUOUS
 62
   218
 10
-475.617898581058
 20
228.739350947901
 30
0.0
 40
0.999995238916764
 50
179.999696446079
 51
270.000313867982
  0
LINE
  5
   2FC
  8
0
  6
CONTINUOUS
 62
     7
 10
-472.377894303203
 20
176.541363760272
 30
0.0
 11
-472.377894303203
 21
227.737354472837
 31
0.0
  0
LINE
  5
   2FD
  8
0
  6
DASHDOT
 62
     2
 10
-519.817895010114
 20
180.230045384795
 30
0.0
 11
-519.817895010114
 21
215.297456378042
 31
0.0
  0
ARC
  5
   2FE
  8
0
  6
CONTINUOUS
 62
   218
 10
-552.817895501852
 20
227.339359492064
 30
0.0
 40
0.400000005960464
 50
90.0
 51
180.0
  0
ARC
  5
   2FF
  8
0
  6
CONTINUOUS
 62
   218
 10
-548.217895433307
 20
241.73935970664
 30
0.0
 40
0.400000005960464
 50
90.0
 51
180.0
  0
ARC
  5
   300
  8
0
  6
CONTINUOUS
 62
   218
 10
-477.017894372344
 20
241.73935970664
 30
0.0
 40
0.400000005960464
 50
0.0
 51
90.0
  0
ARC
  5
   301
  8
0
  6
CONTINUOUS
 62
   218
 10
-472.417894303799
 20
227.339359492064
 30
0.0
 40
0.400000005960464
 50
0.0
 51
90.0
  0
ARC
  5
   302
  8
0
  6
CONTINUOUS
 62
   218
 10
-472.417894303799
 20
176.939358741045
 30
0.0
 40
0.400000005960464
 50
270.0
 51
360.0
  0
ARC
  5
   303
  8
0
  6
CONTINUOUS
 62
   218
 10
-477.017894372344
 20
162.539358526468
 30
0.0
 40
0.400000005960464
 50
270.0
 51
360.0
  0
ARC
  5
   304
  8
0
  6
CONTINUOUS
 62
   218
 10
-548.217895433307
 20
162.539358526468
 30
0.0
 40
0.400000005960464
 50
180.0
 51
270.0
  0
ARC
  5
   305
  8
0
  6
CONTINUOUS
 62
   218
 10
-552.817895501852
 20
176.939358741045
 30
0.0
 40
0.400000005960464
 50
180.0
 51
270.0
  0
LINE
  5
   306
  8
0
  6
CONTINUOUS
 62
   218
 10
-522.017895042896
 20
214.762750897848
 30
0.0
 11
-517.617894977331
 21
214.762750897848
 31
0.0
  0
LINE
  5
   307
  8
0
  6
DASHDOT
 62
     2
 10
-514.217897355796
 20
189.639357897258
 30
0.0
 11
-510.733830198811
 21
189.639357897258
 31
0.0
  0
ARC
  5
   308
  8
0
  6
CONTINUOUS
 62
   218
 10
-512.617894902825
 20
189.639357897258
 30
0.0
 40
1.50000002235174
 50
32.8598803788909
 51
147.140119621109
  0
LINE
  5
   309
  8
0
  6
CONTINUOUS
 62
   218
 10
-511.35789488405
 20
188.825478287155
 30
0.0
 11
-511.35789488405
 21
190.453237507361
 31
0.0
  0
LINE
  5
   30A
  8
0
  6
CONTINUOUS
 62
   218
 10
-513.877894921601
 20
188.825478287155
 30
0.0
 11
-513.877894921601
 21
190.453237507361
 31
0.0
  0
ARC
  5
   30B
  8
0
  6
CONTINUOUS
 62
   218
 10
-512.617894902825
 20
189.639357897258
 30
0.0
 40
1.50000002235174
 50
212.859880378891
 51
327.140119621109
  0
LINE
  5
   30C
  8
0
  6
CONTINUOUS
 62
   218
 10
-544.817895382643
 20
224.739359453321
 30
0.0
 11
-480.417894423008
 21
224.739359453321
 31
0.0
  0
LINE
  5
   30D
  8
0
  6
CONTINUOUS
 62
   218
 10
-545.017895385623
 20
217.539359346032
 30
0.0
 11
-516.31789495796
 21
217.539359346032
 31
0.0
  0
LINE
  5
   30E
  8
0
  6
CONTINUOUS
 62
   218
 10
-545.017895385623
 20
217.739359349012
 30
0.0
 11
-480.217894420028
 21
217.739359349012
 31
0.0
  0
LINE
  5
   30F
  8
0
  6
CONTINUOUS
 62
   218
 10
-516.117894954979
 20
217.539359346032
 30
0.0
 11
-500.317894719541
 21
217.539359346032
 31
0.0
  0
LINE
  5
   310
  8
0
  6
CONTINUOUS
 62
   218
 10
-500.117894716561
 20
217.539359346032
 30
0.0
 11
-480.217894420028
 21
217.539359346032
 31
0.0
  0
LINE
  5
   311
  8
0
  6
CONTINUOUS
 62
   218
 10
-526.417895108461
 20
165.139358565211
 30
0.0
 11
-526.417895108461
 21
217.539359346032
 31
0.0
  0
LINE
  5
   312
  8
0
  6
CONTINUOUS
 62
   218
 10
-536.817895263434
 20
167.526780830379
 30
0.0
 11
-536.817895263434
 21
217.539359346032
 31
0.0
  0
LINE
  5
   313
  8
0
  6
CONTINUOUS
 62
   218
 10
-525.617895096541
 20
177.939358755946
 30
0.0
 11
-525.617895096541
 21
184.139358848333
 31
0.0
  0
LINE
  5
   314
  8
0
  6
CONTINUOUS
 62
   218
 10
-526.417895108461
 20
177.939358755946
 30
0.0
 11
-525.617895096541
 21
177.939358755946
 31
0.0
  0
LINE
  5
   315
  8
0
  6
CONTINUOUS
 62
   218
 10
-510.117894865572
 20
199.339359074831
 30
0.0
 11
-510.117894865572
 21
202.939359128475
 31
0.0
  0
LINE
  5
   316
  8
0
  6
CONTINUOUS
 62
   218
 10
-501.317883437405
 20
199.339359074831
 30
0.0
 11
-501.317883437405
 21
202.939359128475
 31
0.0
  0
LINE
  5
   317
  8
0
  6
CONTINUOUS
 62
   218
 10
-499.917894713581
 20
217.139359340072
 30
0.0
 11
-480.417894423008
 21
217.139359340072
 31
0.0
  0
LINE
  5
   318
  8
0
  6
CONTINUOUS
 62
   218
 10
-499.917894713581
 20
213.039359278977
 30
0.0
 11
-480.417894423008
 21
213.039359278977
 31
0.0
  0
LINE
  5
   319
  8
0
  6
CONTINUOUS
 62
   218
 10
-499.917894713581
 20
213.039359278977
 30
0.0
 11
-499.917894713581
 21
217.139359340072
 31
0.0
  0
LINE
  5
   31A
  8
0
  6
CONTINUOUS
 62
   218
 10
-480.417894423008
 20
213.039359278977
 30
0.0
 11
-480.417894423008
 21
217.139359340072
 31
0.0
  0
POLYLINE
  5
   31B
  8
0
  6
CONTINUOUS
 62
     7
 66
     1
 10
0.0
 20
0.0
 30
0.0
  0
VERTEX
  5
   31C
  8
0
  6
CONTINUOUS
 10
-546.436745352171
 20
162.139360887585
 30
0.0
 40
0.0
 41
0.0
  0
VERTEX
  5
   31D
  8
0
  6
CONTINUOUS
 10
-546.408153059323
 20
162.198903622823
 30
0.0
 40
0.0
 41
0.0
  0
VERTEX
  5
   31E
  8
0
  6
CONTINUOUS
 10
-546.378841140248
 20
162.25801124384
 30
0.0
 40
0.0
 41
0.0
  0
VERTEX
  5
   31F
  8
0
  6
CONTINUOUS
 10
-546.348816403388
 20
162.316690236286
 30
0.0
 40
0.0
 41
0.0
  0
VERTEX
  5
   320
  8
0
  6
CONTINUOUS
 10
-546.31808601124
 20
162.374947423074
 30
0.0
 40
0.0
 41
0.0
  0
VERTEX
  5
   321
  8
0
  6
CONTINUOUS
 10
-546.286657489328
 20
162.432789972936
 30
0.0
 40
0.0
 41
0.0
  0
VERTEX
  5
   322
  8
0
  6
CONTINUOUS
 10
-546.254538735178
 20
162.490225408968
 30
0.0
 40
0.0
 41
0.0
  0
VERTEX
  5
   323
  8
0
  6
CONTINUOUS
 10
-546.221738027298
 20
162.547261617183
 30
0.0
 40
0.0
 41
0.0
  0
VERTEX
  5
   324
  8
0
  6
CONTINUOUS
 10
-546.188264034146
 20
162.603906855061
 30
0.0
 40
0.0
 41
0.0
  0
VERTEX
  5
   325
  8
0
  6
CONTINUOUS
 10
-546.154125823113
 20
162.660169760095
 30
0.0
 40
0.0
 41
0.0
  0
VERTEX
  5
   326
  8
0
  6
CONTINUOUS
 10
-546.119332869493
 20
162.716059358346
 30
0.0
 40
0.0
 41
0.0
  0
VERTEX
  5
   327
  8
0
  6
CONTINUOUS
 10
-546.083895065458
 20
162.771585072989
 30
0.0
 40
0.0
 41
0.0
  0
VERTEX
  5
   328
  8
0
  6
CONTINUOUS
 10
-546.047822729038
 20
162.826756732863
 30
0.0
 40
0.0
 41
0.0
  0
VERTEX
  5
   329
  8
0
  6
CONTINUOUS
 10
-546.011126613092
 20
162.881584581023
 30
0.0
 40
0.0
 41
0.0
  0
VERTEX
  5
   32A
  8
0
  6
CONTINUOUS
 10
-545.973817914286
 20
162.936079283289
 30
0.0
 40
0.0
 41
0.0
  0
VERTEX
  5
   32B
  8
0
  6
CONTINUOUS
 10
-545.935908282065
 20
162.990251936794
 30
0.0
 40
0.0
 41
0.0
  0
VERTEX
  5
   32C
  8
0
  6
CONTINUOUS
 10
-545.897409827634
 20
163.044114078536
 30
0.0
 40
0.0
 41
0.0
  0
VERTEX
  5
   32D
  8
0
  6
CONTINUOUS
 10
-545.858335132926
 20
163.097677693925
 30
0.0
 40
0.0
 41
0.0
  0
VERTEX
  5
   32E
  8
0
  6
CONTINUOUS
 10
-545.818697259584
 20
163.150955225338
 30
0.0
 40
0.0
 41
0.0
  0
VERTEX
  5
   32F
  8
0
  6
CONTINUOUS
 10
-545.778509757931
 20
163.203959580663
 30
0.0
 40
0.0
 41
0.0
  0
VERTEX
  5
   330
  8
0
  6
CONTINUOUS
 10
-545.737786675949
 20
163.256704141851
 30
0.0
 40
0.0
 41
0.0
  0
VERTEX
  5
   331
  8
0
  6
CONTINUOUS
 10
-545.672476652593
 20
163.339434289312
 30
0.0
 40
0.0
 41
0.0
  0
VERTEX
  5
   332
  8
0
  6
CONTINUOUS
 10
-545.605929235915
 20
163.421609054977
 30
0.0
 40
0.0
 41
0.0
  0
VERTEX
  5
   333
  8
0
  6
CONTINUOUS
 10
-545.538206763993
 20
163.503287505038
 30
0.0
 40
0.0
 41
0.0
  0
VERTEX
  5
   334
  8
0
  6
CONTINUOUS
 10
-545.46937375106
 20
163.584530272469
 30
0.0
 40
0.0
 41
0.0
  0
VERTEX
  5
   335
  8
0
  6
CONTINUOUS
 10
-545.399496377539
 20
163.665398818147
 30
0.0
 40
0.0
 41
0.0
  0
VERTEX
  5
   336
  8
0
  6
CONTINUOUS
 10
-545.328641980074
 20
163.745954691965
 30
0.0
 40
0.0
 41
0.0
  0
VERTEX
  5
   337
  8
0
  6
CONTINUOUS
 10
-545.256878541568
 20
163.826258793942
 30
0.0
 40
0.0
 41
0.0
  0
VERTEX
  5
   338
  8
0
  6
CONTINUOUS
 10
-545.184274181213
 20
163.906370635342
 30
0.0
 40
0.0
 41
0.0
  0
VERTEX
  5
   339
  8
0
  6
CONTINUOUS
 10
-545.110896644525
 20
163.986347599787
 30
0.0
 40
0.0
 41
0.0
  0
VERTEX
  5
   33A
  8
0
  6
CONTINUOUS
 10
-545.03681279338
 20
164.066244204373
 30
0.0
 40
0.0
 41
0.0
  0
VERTEX
  5
   33B
  8
0
  6
CONTINUOUS
 10
-544.962088096045
 20
164.146111360778
 30
0.0
 40
0.0
 41
0.0
  0
VERTEX
  5
   33C
  8
0
  6
CONTINUOUS
 10
-544.810968008042
 20
164.305938515391
 30
0.0
 40
0.0
 41
0.0
  0
VERTEX
  5
   33D
  8
0
  6
CONTINUOUS
 10
-544.734691996175
 20
164.385975659923
 30
0.0
 40
0.0
 41
0.0
  0
VERTEX
  5
   33E
  8
0
  6
CONTINUOUS
 10
-544.580981497624
 20
164.546441850408
 30
0.0
 40
0.0
 41
0.0
  0
VERTEX
  5
   33F
  8
0
  6
CONTINUOUS
 10
-544.270183843461
 20
164.869255402239
 30
0.0
 40
0.0
 41
0.0
  0
VERTEX
  5
   340
  8
0
  6
CONTINUOUS
 10
-544.023603699185
 20
165.12448710345
 30
0.0
 40
0.0
 41
0.0
  0
VERTEX
  5
   341
  8
0
  6
CONTINUOUS
 10
-543.899765987661
 20
165.252083462348
 30
0.0
 40
0.0
 41
0.0
  0
VERTEX
  5
   342
  8
0
  6
CONTINUOUS
 10
-543.775552457257
 20
165.379316609752
 30
0.0
 40
0.0
 41
0.0
  0
VERTEX
  5
   343
  8
0
  6
CONTINUOUS
 10
-543.650914391906
 20
165.505861466754
 30
0.0
 40
0.0
 41
0.0
  0
VERTEX
  5
   344
  8
0
  6
CONTINUOUS
 10
-543.525774978002
 20
165.631352422582
 30
0.0
 40
0.0
 41
0.0
  0
VERTEX
  5
   345
  8
0
  6
CONTINUOUS
 10
-543.462986488665
 20
165.693579279209
 30
0.0
 40
0.0
 41
0.0
  0
VERTEX
  5
   346
  8
0
  6
CONTINUOUS
 10
-543.400033004189
 20
165.755391168811
 30
0.0
 40
0.0
 41
0.0
  0
VERTEX
  5
   347
  8
0
  6
CONTINUOUS
 10
-543.336898668002
 20
165.816734479128
 30
0.0
 40
0.0
 41
0.0
  0
VERTEX
  5
   348
  8
0
  6
CONTINUOUS
 10
-543.273566561144
 20
165.877554533571
 30
0.0
 40
0.0
 41
0.0
  0
VERTEX
  5
   349
  8
0
  6
CONTINUOUS
 10
-543.210018817888
 20
165.937795836043
 30
0.0
 40
0.0
 41
0.0
  0
VERTEX
  5
   34A
  8
0
  6
CONTINUOUS
 10
-543.14623674136
 20
165.997402315757
 30
0.0
 40
0.0
 41
0.0
  0
VERTEX
  5
   34B
  8
0
  6
CONTINUOUS
 10
-543.082200919149
 20
166.056317572058
 30
0.0
 40
0.0
 41
0.0
  0
VERTEX
  5
   34C
  8
0
  6
CONTINUOUS
 10
-543.017891338935
 20
166.114485119239
 30
0.0
 40
0.0
 41
0.0
  0
VERTEX
  5
   34D
  8
0
  6
CONTINUOUS
 10
-542.953287504103
 20
166.171848631361
 30
0.0
 40
0.0
 41
0.0
  0
VERTEX
  5
   34E
  8
0
  6
CONTINUOUS
 10
-542.888368549359
 20
166.228352187071
 30
0.0
 40
0.0
 41
0.0
  0
VERTEX
  5
   34F
  8
0
  6
CONTINUOUS
 10
-542.823113356351
 20
166.283940514425
 30
0.0
 40
0.0
 41
0.0
  0
VERTEX
  5
   350
  8
0
  6
CONTINUOUS
 10
-542.75750066929
 20
166.3385592357
 30
0.0
 40
0.0
 41
0.0
  0
VERTEX
  5
   351
  8
0
  6
CONTINUOUS
 10
-542.691509210562
 20
166.392155112222
 30
0.0
 40
0.0
 41
0.0
  0
VERTEX
  5
   352
  8
0
  6
CONTINUOUS
 10
-542.62511779635
 20
166.444676289176
 30
0.0
 40
0.0
 41
0.0
  0
VERTEX
  5
   353
  8
0
  6
CONTINUOUS
 10
-542.558305452254
 20
166.496072540433
 30
0.0
 40
0.0
 41
0.0
  0
VERTEX
  5
   354
  8
0
  6
CONTINUOUS
 10
-542.491051528905
 20
166.546295513361
 30
0.0
 40
0.0
 41
0.0
  0
VERTEX
  5
   355
  8
0
  6
CONTINUOUS
 10
-542.423335817585
 20
166.595298973654
 30
0.0
 40
0.0
 41
0.0
  0
VERTEX
  5
   356
  8
0
  6
CONTINUOUS
 10
-542.355138665848
 20
166.643039050139
 30
0.0
 40
0.0
 41
0.0
  0
VERTEX
  5
   357
  8
0
  6
CONTINUOUS
 10
-542.286441093135
 20
166.689474479607
 30
0.0
 40
0.0
 41
0.0
  0
VERTEX
  5
   358
  8
0
  6
CONTINUOUS
 10
-542.217224906392
 20
166.734566851624
 30
0.0
 40
0.0
 41
0.0
  0
VERTEX
  5
   359
  8
0
  6
CONTINUOUS
 10
-542.14747281569
 20
166.778280853353
 30
0.0
 40
0.0
 41
0.0
  0
VERTEX
  5
   35A
  8
0
  6
CONTINUOUS
 10
-542.077168549845
 20
166.820584514372
 30
0.0
 40
0.0
 41
0.0
  0
VERTEX
  5
   35B
  8
0
  6
CONTINUOUS
 10
-542.006296972032
 20
166.861449451494
 30
0.0
 40
0.0
 41
0.0
  0
VERTEX
  5
   35C
  8
0
  6
CONTINUOUS
 10
-541.934844195406
 20
166.900851113586
 30
0.0
 40
0.0
 41
0.0
  0
VERTEX
  5
   35D
  8
0
  6
CONTINUOUS
 10
-541.898895888143
 20
166.919996652342
 30
0.0
 40
0.0
 41
0.0
  0
VERTEX
  5
   35E
  8
0
  6
CONTINUOUS
 10
-541.862797698719
 20
166.938769026388
 30
0.0
 40
0.0
 41
0.0
  0
VERTEX
  5
   35F
  8
0
  6
CONTINUOUS
 10
-541.826548294322
 20
166.957166353617
 30
0.0
 40
0.0
 41
0.0
  0
VERTEX
  5
   360
  8
0
  6
CONTINUOUS
 10
-541.79014644194
 20
166.975187037331
 30
0.0
 40
0.0
 41
0.0
  0
VERTEX
  5
   361
  8
0
  6
CONTINUOUS
 10
-541.75359101198
 20
166.992829773889
 30
0.0
 40
0.0
 41
0.0
  0
VERTEX
  5
   362
  8
0
  6
CONTINUOUS
 10
-541.716880981873
 20
167.010093560358
 30
0.0
 40
0.0
 41
0.0
  0
VERTEX
  5
   363
  8
0
  6
CONTINUOUS
 10
-541.680015439694
 20
167.026977702163
 30
0.0
 40
0.0
 41
0.0
  0
VERTEX
  5
   364
  8
0
  6
CONTINUOUS
 10
-541.642993587772
 20
167.04348182074
 30
0.0
 40
0.0
 41
0.0
  0
VERTEX
  5
   365
  8
0
  6
CONTINUOUS
 10
-541.603560586962
 20
167.060569087274
 30
0.0
 40
0.0
 41
0.0
  0
VERTEX
  5
   366
  8
0
  6
CONTINUOUS
 10
-541.563950366267
 20
167.077229240132
 30
0.0
 40
0.0
 41
0.0
  0
VERTEX
  5
   367
  8
0
  6
CONTINUOUS
 10
-541.524162413355
 20
167.093463024456
 30
0.0
 40
0.0
 41
0.0
  0
VERTEX
  5
   368
  8
0
  6
CONTINUOUS
 10
-541.484196364123
 20
167.109271583239
 30
0.0
 40
0.0
 41
0.0
  0
VERTEX
  5
   369
  8
0
  6
CONTINUOUS
 10
-541.444051999992
 20
167.124656446731
 30
0.0
 40
0.0
 41
0.0
  0
VERTEX
  5
   36A
  8
0
  6
CONTINUOUS
 10
-541.403729245188
 20
167.139619521838
 30
0.0
 40
0.0
 41
0.0
  0
VERTEX
  5
   36B
  8
0
  6
CONTINUOUS
 10
-541.363228164042
 20
167.154163081527
 30
0.0
 40
0.0
 41
0.0
  0
VERTEX
  5
   36C
  8
0
  6
CONTINUOUS
 10
-541.322548958269
 20
167.16828975422
 30
0.0
 40
0.0
 41
0.0
  0
VERTEX
  5
   36D
  8
0
  6
CONTINUOUS
 10
-541.281691964264
 20
167.182002513204
 30
0.0
 40
0.0
 41
0.0
  0
VERTEX
  5
   36E
  8
0
  6
CONTINUOUS
 10
-541.240657650388
 20
167.195304666023
 30
0.0
 40
0.0
 41
0.0
  0
VERTEX
  5
   36F
  8
0
  6
CONTINUOUS
 10
-541.19944661426
 20
167.208199843887
 30
0.0
 40
0.0
 41
0.0
  0
VERTEX
  5
   370
  8
0
  6
CONTINUOUS
 10
-541.158059580044
 20
167.220691991067
 30
0.0
 40
0.0
 41
0.0
  0
VERTEX
  5
   371
  8
0
  6
CONTINUOUS
 10
-541.116497395739
 20
167.232785354299
 30
0.0
 40
0.0
 41
0.0
  0
VERTEX
  5
   372
  8
0
  6
CONTINUOUS
 10
-541.074761030469
 20
167.244484472186
 30
0.0
 40
0.0
 41
0.0
  0
VERTEX
  5
   373
  8
0
  6
CONTINUOUS
 10
-541.03285157177
 20
167.255794164597
 30
0.0
 40
0.0
 41
0.0
  0
VERTEX
  5
   374
  8
0
  6
CONTINUOUS
 10
-540.990770222884
 20
167.266719522068
 30
0.0
 40
0.0
 41
0.0
  0
VERTEX
  5
   375
  8
0
  6
CONTINUOUS
 10
-540.948518300041
 20
167.277265895206
 30
0.0
 40
0.0
 41
0.0
  0
VERTEX
  5
   376
  8
0
  6
CONTINUOUS
 10
-540.906097229758
 20
167.287438884085
 30
0.0
 40
0.0
 41
0.0
  0
VERTEX
  5
   377
  8
0
  6
CONTINUOUS
 10
-540.820753888068
 20
167.306688293127
 30
0.0
 40
0.0
 41
0.0
  0
VERTEX
  5
   378
  8
0
  6
CONTINUOUS
 10
-540.734753712553
 20
167.324517136441
 30
0.0
 40
0.0
 41
0.0
  0
VERTEX
  5
   379
  8
0
  6
CONTINUOUS
 10
-540.648111808975
 20
167.340978114461
 30
0.0
 40
0.0
 41
0.0
  0
VERTEX
  5
   37A
  8
0
  6
CONTINUOUS
 10
-540.560844787374
 20
167.356126901646
 30
0.0
 40
0.0
 41
0.0
  0
VERTEX
  5
   37B
  8
0
  6
CONTINUOUS
 10
-540.472970675327
 20
167.370021807312
 30
0.0
 40
0.0
 41
0.0
  0
VERTEX
  5
   37C
  8
0
  6
CONTINUOUS
 10
-540.384508831208
 20
167.382723436467
 30
0.0
 40
0.0
 41
0.0
  0
VERTEX
  5
   37D
  8
0
  6
CONTINUOUS
 10
-540.295479857441
 20
167.394294350647
 30
0.0
 40
0.0
 41
0.0
  0
VERTEX
  5
   37E
  8
0
  6
CONTINUOUS
 10
-540.205905513762
 20
167.404798728749
 30
0.0
 40
0.0
 41
0.0
  0
VERTEX
  5
   37F
  8
0
  6
CONTINUOUS
 10
-540.115808630476
 20
167.414302027866
 30
0.0
 40
0.0
 41
0.0
  0
VERTEX
  5
   380
  8
0
  6
CONTINUOUS
 10
-540.025213021711
 20
167.422870644123
 30
0.0
 40
0.0
 41
0.0
  0
VERTEX
  5
   381
  8
0
  6
CONTINUOUS
 10
-539.934143398682
 20
167.430571573507
 30
0.0
 40
0.0
 41
0.0
  0
VERTEX
  5
   382
  8
0
  6
CONTINUOUS
 10
-539.842625282944
 20
167.437472072708
 30
0.0
 40
0.0
 41
0.0
  0
VERTEX
  5
   383
  8
0
  6
CONTINUOUS
 10
-539.750684919652
 20
167.443639319949
 30
0.0
 40
0.0
 41
0.0
  0
VERTEX
  5
   384
  8
0
  6
CONTINUOUS
 10
-539.658349190817
 20
167.449140075821
 30
0.0
 40
0.0
 41
0.0
  0
VERTEX
  5
   385
  8
0
  6
CONTINUOUS
 10
-539.565645528566
 20
167.454040344119
 30
0.0
 40
0.0
 41
0.0
  0
VERTEX
  5
   386
  8
0
  6
CONTINUOUS
 10
-539.472601828399
 20
167.458405032676
 30
0.0
 40
0.0
 41
0.0
  0
VERTEX
  5
   387
  8
0
  6
CONTINUOUS
 10
-539.379246362445
 20
167.462297614197
 30
0.0
 40
0.0
 41
0.0
  0
VERTEX
  5
   388
  8
0
  6
CONTINUOUS
 10
-539.191714584394
 20
167.468911136318
 30
0.0
 40
0.0
 41
0.0
  0
VERTEX
  5
   389
  8
0
  6
CONTINUOUS
 10
-539.003280607856
 20
167.474347101282
 30
0.0
 40
0.0
 41
0.0
  0
VERTEX
  5
   38A
  8
0
  6
CONTINUOUS
 10
-538.814175320859
 20
167.479027031256
 30
0.0
 40
0.0
 41
0.0
  0
VERTEX
  5
   38B
  8
0
  6
CONTINUOUS
 10
-538.434860086017
 20
167.487516411968
 30
0.0
 40
0.0
 41
0.0
  0
VERTEX
  5
   38C
  8
0
  6
CONTINUOUS
 10
-538.055519997245
 20
167.496445657928
 30
0.0
 40
0.0
 41
0.0
  0
VERTEX
  5
   38D
  8
0
  6
CONTINUOUS
 10
-537.606601261037
 20
167.508450279453
 30
0.0
 40
0.0
 41
0.0
  0
VERTEX
  5
   38E
  8
0
  6
CONTINUOUS
 10
-537.30964832072
 20
167.516544981803
 30
0.0
 40
0.0
 41
0.0
  0
VERTEX
  5
   38F
  8
0
  6
CONTINUOUS
 10
-537.162072436466
 20
167.520237834948
 30
0.0
 40
0.0
 41
0.0
  0
VERTEX
  5
   390
  8
0
  6
CONTINUOUS
 10
-537.015169430148
 20
167.523471727835
 30
0.0
 40
0.0
 41
0.0
  0
VERTEX
  5
   391
  8
0
  6
CONTINUOUS
 10
-536.86898368124
 20
167.526061229459
 30
0.0
 40
0.0
 41
0.0
  0
VERTEX
  5
   392
  8
0
  6
CONTINUOUS
 10
-536.72355124939
 20
167.527812054919
 30
0.0
 40
0.0
 41
0.0
  0
VERTEX
  5
   393
  8
0
  6
CONTINUOUS
 10
-536.57889959858
 20
167.528525993734
 30
0.0
 40
0.0
 41
0.0
  0
VERTEX
  5
   394
  8
0
  6
CONTINUOUS
 10
-536.435047321286
 20
167.528005838152
 30
0.0
 40
0.0
 41
0.0
  0
VERTEX
  5
   395
  8
0
  6
CONTINUOUS
 10
-536.292003862641
 20
167.52606031146
 30
0.0
 40
0.0
 41
0.0
  0
VERTEX
  5
   396
  8
0
  6
CONTINUOUS
 10
-536.220785822806
 20
167.52449609457
 30
0.0
 40
0.0
 41
0.0
  0
VERTEX
  5
   397
  8
0
  6
CONTINUOUS
 10
-536.149769244594
 20
167.522508996295
 30
0.0
 40
0.0
 41
0.0
  0
VERTEX
  5
   398
  8
0
  6
CONTINUOUS
 10
-536.078952613121
 20
167.52007896979
 30
0.0
 40
0.0
 41
0.0
  0
VERTEX
  5
   399
  8
0
  6
CONTINUOUS
 10
-536.008333790073
 20
167.517187262957
 30
0.0
 40
0.0
 41
0.0
  0
VERTEX
  5
   39A
  8
0
  6
CONTINUOUS
 10
-535.937910005092
 20
167.513816572455
 30
0.0
 40
0.0
 41
0.0
  0
VERTEX
  5
   39B
  8
0
  6
CONTINUOUS
 10
-535.867677847146
 20
167.509951197713
 30
0.0
 40
0.0
 41
0.0
  0
VERTEX
  5
   39C
  8
0
  6
CONTINUOUS
 10
-535.797633255916
 20
167.505577194936
 30
0.0
 40
0.0
 41
0.0
  0
VERTEX
  5
   39D
  8
0
  6
CONTINUOUS
 10
-535.727771513177
 20
167.500682531116
 30
0.0
 40
0.0
 41
0.0
  0
VERTEX
  5
   39E
  8
0
  6
CONTINUOUS
 10
-535.658087234171
 20
167.495257238042
 30
0.0
 40
0.0
 41
0.0
  0
VERTEX
  5
   39F
  8
0
  6
CONTINUOUS
 10
-535.588574358994
 20
167.489293566308
 30
0.0
 40
0.0
 41
0.0
  0
VERTEX
  5
   3A0
  8
0
  6
CONTINUOUS
 10
-535.519226143973
 20
167.482786139328
 30
0.0
 40
0.0
 41
0.0
  0
VERTEX
  5
   3A1
  8
0
  6
CONTINUOUS
 10
-535.450035153047
 20
167.475732107337
 30
0.0
 40
0.0
 41
0.0
  0
VERTEX
  5
   3A2
  8
0
  6
CONTINUOUS
 10
-535.380993249144
 20
167.468131301409
 30
0.0
 40
0.0
 41
0.0
  0
VERTEX
  5
   3A3
  8
0
  6
CONTINUOUS
 10
-535.312091585567
 20
167.459986387461
 30
0.0
 40
0.0
 41
0.0
  0
VERTEX
  5
   3A4
  8
0
  6
CONTINUOUS
 10
-535.243320597368
 20
167.451303020268
 30
0.0
 40
0.0
 41
0.0
  0
VERTEX
  5
   3A5
  8
0
  6
CONTINUOUS
 10
-535.174669992731
 20
167.442089997466
 30
0.0
 40
0.0
 41
0.0
  0
VERTEX
  5
   3A6
  8
0
  6
CONTINUOUS
 10
-535.091173473804
 20
167.43016695447
 30
0.0
 40
0.0
 41
0.0
  0
VERTEX
  5
   3A7
  8
0
  6
CONTINUOUS
 10
-535.007817850845
 20
167.417504424496
 30
0.0
 40
0.0
 41
0.0
  0
VERTEX
  5
   3A8
  8
0
  6
CONTINUOUS
 10
-534.924580239523
 20
167.404138156069
 30
0.0
 40
0.0
 41
0.0
  0
VERTEX
  5
   3A9
  8
0
  6
CONTINUOUS
 10
-534.841436418213
 20
167.390110567296
 30
0.0
 40
0.0
 41
0.0
  0
VERTEX
  5
   3AA
  8
0
  6
CONTINUOUS
 10
-534.758360979228
 20
167.375470278371
 30
0.0
 40
0.0
 41
0.0
  0
VERTEX
  5
   3AB
  8
0
  6
CONTINUOUS
 10
-534.675327480048
 20
167.360271644081
 30
0.0
 40
0.0
 41
0.0
  0
VERTEX
  5
   3AC
  8
0
  6
CONTINUOUS
 10
-534.592308594557
 20
167.344574286311
 30
0.0
 40
0.0
 41
0.0
  0
VERTEX
  5
   3AD
  8
0
  6
CONTINUOUS
 10
-534.509276264272
 20
167.328442626551
 30
0.0
 40
0.0
 41
0.0
  0
VERTEX
  5
   3AE
  8
0
  6
CONTINUOUS
 10
-534.343056280961
 20
167.295155280069
 30
0.0
 40
0.0
 41
0.0
  0
VERTEX
  5
   3AF
  8
0
  6
CONTINUOUS
 10
-534.009174499484
 20
167.226626871062
 30
0.0
 40
0.0
 41
0.0
  0
VERTEX
  5
   3B0
  8
0
  6
CONTINUOUS
 10
-533.841044687238
 20
167.192698669149
 30
0.0
 40
0.0
 41
0.0
  0
VERTEX
  5
   3B1
  8
0
  6
CONTINUOUS
 10
-533.756582741979
 20
167.176117783345
 30
0.0
 40
0.0
 41
0.0
  0
VERTEX
  5
   3B2
  8
0
  6
CONTINUOUS
 10
-533.671819758187
 20
167.159907939863
 30
0.0
 40
0.0
 41
0.0
  0
VERTEX
  5
   3B3
  8
0
  6
CONTINUOUS
 10
-533.586729602714
 20
167.144155501195
 30
0.0
 40
0.0
 41
0.0
  0
VERTEX
  5
   3B4
  8
0
  6
CONTINUOUS
 10
-533.501287224836
 20
167.128946019506
 30
0.0
 40
0.0
 41
0.0
  0
VERTEX
  5
   3B5
  8
0
  6
CONTINUOUS
 10
-533.415468807491
 20
167.114363769134
 30
0.0
 40
0.0
 41
0.0
  0
VERTEX
  5
   3B6
  8
0
  6
CONTINUOUS
 10
-533.329251918506
 20
167.100491279098
 30
0.0
 40
0.0
 41
0.0
  0
VERTEX
  5
   3B7
  8
0
  6
CONTINUOUS
 10
-533.242615661832
 20
167.087408865603
 30
0.0
 40
0.0
 41
0.0
  0
VERTEX
  5
   3B8
  8
0
  6
CONTINUOUS
 10
-533.155540828777
 20
167.075194164547
 30
0.0
 40
0.0
 41
0.0
  0
VERTEX
  5
   3B9
  8
0
  6
CONTINUOUS
 10
-533.068010049238
 20
167.063921664022
 30
0.0
 40
0.0
 41
0.0
  0
VERTEX
  5
   3BA
  8
0
  6
CONTINUOUS
 10
-532.980007942933
 20
167.053662236826
 30
0.0
 40
0.0
 41
0.0
  0
VERTEX
  5
   3BB
  8
0
  6
CONTINUOUS
 10
-532.891521270634
 20
167.044482672964
 30
0.0
 40
0.0
 41
0.0
  0
VERTEX
  5
   3BC
  8
0
  6
CONTINUOUS
 10
-532.802539085402
 20
167.036445212153
 30
0.0
 40
0.0
 41
0.0
  0
VERTEX
  5
   3BD
  8
0
  6
CONTINUOUS
 10
-532.713052883816
 20
167.02960707633
 30
0.0
 40
0.0
 41
0.0
  0
VERTEX
  5
   3BE
  8
0
  6
CONTINUOUS
 10
-532.623056757206
 20
167.024020002157
 30
0.0
 40
0.0
 41
0.0
  0
VERTEX
  5
   3BF
  8
0
  6
CONTINUOUS
 10
-532.532547542889
 20
167.019729773526
 30
0.0
 40
0.0
 41
0.0
  0
VERTEX
  5
   3C0
  8
0
  6
CONTINUOUS
 10
-532.441524975398
 20
167.016775754064
 30
0.0
 40
0.0
 41
0.0
  0
VERTEX
  5
   3C1
  8
0
  6
CONTINUOUS
 10
-532.349991837716
 20
167.015190419639
 30
0.0
 40
0.0
 41
0.0
  0
VERTEX
  5
   3C2
  8
0
  6
CONTINUOUS
 10
-532.257954112508
 20
167.014998890865
 30
0.0
 40
0.0
 41
0.0
  0
VERTEX
  5
   3C3
  8
0
  6
CONTINUOUS
 10
-532.165421133356
 20
167.016218465608
 30
0.0
 40
0.0
 41
0.0
  0
VERTEX
  5
   3C4
  8
0
  6
CONTINUOUS
 10
-532.072405735989
 20
167.018858151493
 30
0.0
 40
0.0
 41
0.0
  0
VERTEX
  5
   3C5
  8
0
  6
CONTINUOUS
 10
-531.978924409514
 20
167.022918198407
 30
0.0
 40
0.0
 41
0.0
  0
VERTEX
  5
   3C6
  8
0
  6
CONTINUOUS
 10
-531.884997447654
 20
167.028389631003
 30
0.0
 40
0.0
 41
0.0
  0
VERTEX
  5
   3C7
  8
0
  6
CONTINUOUS
 10
-531.790649099978
 20
167.035253781212
 30
0.0
 40
0.0
 41
0.0
  0
VERTEX
  5
   3C8
  8
0
  6
CONTINUOUS
 10
-531.695907723129
 20
167.04348182074
 30
0.0
 40
0.0
 41
0.0
  0
VERTEX
  5
   3C9
  8
0
  6
CONTINUOUS
 10
-531.601405586534
 20
167.052970132406
 30
0.0
 40
0.0
 41
0.0
  0
VERTEX
  5
   3CA
  8
0
  6
CONTINUOUS
 10
-531.506583772442
 20
167.063716954366
 30
0.0
 40
0.0
 41
0.0
  0
VERTEX
  5
   3CB
  8
0
  6
CONTINUOUS
 10
-531.411482556248
 20
167.075662712851
 30
0.0
 40
0.0
 41
0.0
  0
VERTEX
  5
   3CC
  8
0
  6
CONTINUOUS
 10
-531.31614602777
 20
167.088738133078
 30
0.0
 40
0.0
 41
0.0
  0
VERTEX
  5
   3CD
  8
0
  6
CONTINUOUS
 10
-531.220621848687
 20
167.102864797988
 30
0.0
 40
0.0
 41
0.0
  0
VERTEX
  5
   3CE
  8
0
  6
CONTINUOUS
 10
-531.124961009966
 20
167.117955706985
 30
0.0
 40
0.0
 41
0.0
  0
VERTEX
  5
   3CF
  8
0
  6
CONTINUOUS
 10
-531.029217589291
 20
167.133915834672
 30
0.0
 40
0.0
 41
0.0
  0
VERTEX
  5
   3D0
  8
0
  6
CONTINUOUS
 10
-530.933448508497
 20
167.150642689591
 30
0.0
 40
0.0
 41
0.0
  0
VERTEX
  5
   3D1
  8
0
  6
CONTINUOUS
 10
-530.837713291
 20
167.168026872957
 30
0.0
 40
0.0
 41
0.0
  0
VERTEX
  5
   3D2
  8
0
  6
CONTINUOUS
 10
-530.742073819223
 20
167.185952637395
 30
0.0
 40
0.0
 41
0.0
  0
VERTEX
  5
   3D3
  8
0
  6
CONTINUOUS
 10
-530.551339982169
 20
167.222937529474
 30
0.0
 40
0.0
 41
0.0
  0
VERTEX
  5
   3D4
  8
0
  6
CONTINUOUS
 10
-530.267613098025
 20
167.279280017303
 30
0.0
 40
0.0
 41
0.0
  0
VERTEX
  5
   3D5
  8
0
  6
CONTINUOUS
 10
-530.08085984582
 20
167.315799412169
 30
0.0
 40
0.0
 41
0.0
  0
VERTEX
  5
   3D6
  8
0
  6
CONTINUOUS
 10
-529.988417140465
 20
167.333313472437
 30
0.0
 40
0.0
 41
0.0
  0
VERTEX
  5
   3D7
  8
0
  6
CONTINUOUS
 10
-529.896693254172
 20
167.350133892594
 30
0.0
 40
0.0
 41
0.0
  0
VERTEX
  5
   3D8
  8
0
  6
CONTINUOUS
 10
-529.805760318153
 20
167.366112169933
 30
0.0
 40
0.0
 41
0.0
  0
VERTEX
  5
   3D9
  8
0
  6
CONTINUOUS
 10
-529.715690154363
 20
167.381099599271
 30
0.0
 40
0.0
 41
0.0
  0
VERTEX
  5
   3DA
  8
0
  6
CONTINUOUS
 10
-529.626554032938
 20
167.394947831685
 30
0.0
 40
0.0
 41
0.0
  0
VERTEX
  5
   3DB
  8
0
  6
CONTINUOUS
 10
-529.53842242962
 20
167.407509433248
 30
0.0
 40
0.0
 41
0.0
  0
VERTEX
  5
   3DC
  8
0
  6
CONTINUOUS
 10
-529.451364783187
 20
167.418638443767
 30
0.0
 40
0.0
 41
0.0
  0
VERTEX
  5
   3DD
  8
0
  6
CONTINUOUS
 10
-529.36544925289
 20
167.428190935521
 30
0.0
 40
0.0
 41
0.0
  0
VERTEX
  5
   3DE
  8
0
  6
CONTINUOUS
 10
-529.322940671491
 20
167.432331702703
 30
0.0
 40
0.0
 41
0.0
  0
VERTEX
  5
   3DF
  8
0
  6
CONTINUOUS
 10
-529.280742475876
 20
167.436025571996
 30
0.0
 40
0.0
 41
0.0
  0
VERTEX
  5
   3E0
  8
0
  6
CONTINUOUS
 10
-529.238862718065
 20
167.439255372879
 30
0.0
 40
0.0
 41
0.0
  0
VERTEX
  5
   3E1
  8
0
  6
CONTINUOUS
 10
-529.197309324623
 20
167.442004166626
 30
0.0
 40
0.0
 41
0.0
  0
VERTEX
  5
   3E2
  8
0
  6
CONTINUOUS
 10
-529.156090089085
 20
167.444255263763
 30
0.0
 40
0.0
 41
0.0
  0
VERTEX
  5
   3E3
  8
0
  6
CONTINUOUS
 10
-529.11521266437
 20
167.445992241529
 30
0.0
 40
0.0
 41
0.0
  0
VERTEX
  5
   3E4
  8
0
  6
CONTINUOUS
 10
-529.074684555205
 20
167.447198961339
 30
0.0
 40
0.0
 41
0.0
  0
VERTEX
  5
   3E5
  8
0
  6
CONTINUOUS
 10
-529.034513110545
 20
167.447859586241
 30
0.0
 40
0.0
 41
0.0
  0
VERTEX
  5
   3E6
  8
0
  6
CONTINUOUS
 10
-528.994705515987
 20
167.447958598381
 30
0.0
 40
0.0
 41
0.0
  0
VERTEX
  5
   3E7
  8
0
  6
CONTINUOUS
 10
-528.955268786199
 20
167.447480816459
 30
0.0
 40
0.0
 41
0.0
  0
VERTEX
  5
   3E8
  8
0
  6
CONTINUOUS
 10
-528.916209757329
 20
167.446411413191
 30
0.0
 40
0.0
 41
0.0
  0
VERTEX
  5
   3E9
  8
0
  6
CONTINUOUS
 10
-528.877535079434
 20
167.444735932772
 30
0.0
 40
0.0
 41
0.0
  0
VERTEX
  5
   3EA
  8
0
  6
CONTINUOUS
 10
-528.839251208895
 20
167.442440308334
 30
0.0
 40
0.0
 41
0.0
  0
VERTEX
  5
   3EB
  8
0
  6
CONTINUOUS
 10
-528.801364400837
 20
167.439510879405
 30
0.0
 40
0.0
 41
0.0
  0
VERTEX
  5
   3EC
  8
0
  6
CONTINUOUS
 10
-528.763880701548
 20
167.435934409375
 30
0.0
 40
0.0
 41
0.0
  0
VERTEX
  5
   3ED
  8
0
  6
CONTINUOUS
 10
-528.726805940904
 20
167.431698102952
 30
0.0
 40
0.0
 41
0.0
  0
VERTEX
  5
   3EE
  8
0
  6
CONTINUOUS
 10
-528.69014572478
 20
167.426789623622
 30
0.0
 40
0.0
 41
0.0
  0
VERTEX
  5
   3EF
  8
0
  6
CONTINUOUS
 10
-528.653905427478
 20
167.421197111113
 30
0.0
 40
0.0
 41
0.0
  0
VERTEX
  5
   3F0
  8
0
  6
CONTINUOUS
 10
-528.618090184141
 20
167.414909198853
 30
0.0
 40
0.0
 41
0.0
  0
VERTEX
  5
   3F1
  8
0
  6
CONTINUOUS
 10
-528.582704883175
 20
167.407915031434
 30
0.0
 40
0.0
 41
0.0
  0
VERTEX
  5
   3F2
  8
0
  6
CONTINUOUS
 10
-528.547754158669
 20
167.400204282065
 30
0.0
 40
0.0
 41
0.0
  0
VERTEX
  5
   3F3
  8
0
  6
CONTINUOUS
 10
-528.513242382815
 20
167.391767170042
 30
0.0
 40
0.0
 41
0.0
  0
VERTEX
  5
   3F4
  8
0
  6
CONTINUOUS
 10
-528.479173658326
 20
167.382594478202
 30
0.0
 40
0.0
 41
0.0
  0
VERTEX
  5
   3F5
  8
0
  6
CONTINUOUS
 10
-528.445551810855
 20
167.372677570385
 30
0.0
 40
0.0
 41
0.0
  0
VERTEX
  5
   3F6
  8
0
  6
CONTINUOUS
 10
-528.412380381419
 20
167.362008408897
 30
0.0
 40
0.0
 41
0.0
  0
VERTEX
  5
   3F7
  8
0
  6
CONTINUOUS
 10
-528.379662618816
 20
167.350579571967
 30
0.0
 40
0.0
 41
0.0
  0
VERTEX
  5
   3F8
  8
0
  6
CONTINUOUS
 10
-528.347401472042
 20
167.338384271209
 30
0.0
 40
0.0
 41
0.0
  0
VERTEX
  5
   3F9
  8
0
  6
CONTINUOUS
 10
-528.315599582717
 20
167.325416369084
 30
0.0
 40
0.0
 41
0.0
  0
VERTEX
  5
   3FA
  8
0
  6
CONTINUOUS
 10
-528.284259277497
 20
167.311670396358
 30
0.0
 40
0.0
 41
0.0
  0
VERTEX
  5
   3FB
  8
0
  6
CONTINUOUS
 10
-528.253382560502
 20
167.297141569565
 30
0.0
 40
0.0
 41
0.0
  0
VERTEX
  5
   3FC
  8
0
  6
CONTINUOUS
 10
-528.224277690086
 20
167.282505029248
 30
0.0
 40
0.0
 41
0.0
  0
VERTEX
  5
   3FD
  8
0
  6
CONTINUOUS
 10
-528.195599861171
 20
167.267145232238
 30
0.0
 40
0.0
 41
0.0
  0
VERTEX
  5
   3FE
  8
0
  6
CONTINUOUS
 10
-528.167349975443
 20
167.251059809415
 30
0.0
 40
0.0
 41
0.0
  0
VERTEX
  5
   3FF
  8
0
  6
CONTINUOUS
 10
-528.139528661834
 20
167.234246973872
 30
0.0
 40
0.0
 41
0.0
  0
VERTEX
  5
   400
  8
0
  6
CONTINUOUS
 10
-528.112136281613
 20
167.216705510133
 30
0.0
 40
0.0
 41
0.0
  0
VERTEX
  5
   401
  8
0
  6
CONTINUOUS
 10
-528.085172933476
 20
167.198434763361
 30
0.0
 40
0.0
 41
0.0
  0
VERTEX
  5
   402
  8
0
  6
CONTINUOUS
 10
-528.058638458625
 20
167.179434628571
 30
0.0
 40
0.0
 41
0.0
  0
VERTEX
  5
   403
  8
0
  6
CONTINUOUS
 10
-528.032532445862
 20
167.159705539847
 30
0.0
 40
0.0
 41
0.0
  0
VERTEX
  5
   404
  8
0
  6
CONTINUOUS
 10
-528.006854236675
 20
167.139248459553
 30
0.0
 40
0.0
 41
0.0
  0
VERTEX
  5
   405
  8
0
  6
CONTINUOUS
 10
-527.981602930319
 20
167.118064867544
 30
0.0
 40
0.0
 41
0.0
  0
VERTEX
  5
   406
  8
0
  6
CONTINUOUS
 10
-527.956777388911
 20
167.096156750382
 30
0.0
 40
0.0
 41
0.0
  0
VERTEX
  5
   407
  8
0
  6
CONTINUOUS
 10
-527.932376242511
 20
167.073526590548
 30
0.0
 40
0.0
 41
0.0
  0
VERTEX
  5
   408
  8
0
  6
CONTINUOUS
 10
-527.908397894211
 20
167.050177355655
 30
0.0
 40
0.0
 41
0.0
  0
VERTEX
  5
   409
  8
0
  6
CONTINUOUS
 10
-527.884840525224
 20
167.026112487659
 30
0.0
 40
0.0
 41
0.0
  0
VERTEX
  5
   40A
  8
0
  6
CONTINUOUS
 10
-527.861702099965
 20
167.001335892076
 30
0.0
 40
0.0
 41
0.0
  0
VERTEX
  5
   40B
  8
0
  6
CONTINUOUS
 10
-527.838980371147
 20
166.975851927192
 30
0.0
 40
0.0
 41
0.0
  0
VERTEX
  5
   40C
  8
0
  6
CONTINUOUS
 10
-527.816672884857
 20
166.949665393278
 30
0.0
 40
0.0
 41
0.0
  0
VERTEX
  5
   40D
  8
0
  6
CONTINUOUS
 10
-527.794776985652
 20
166.922781521801
 30
0.0
 40
0.0
 41
0.0
  0
VERTEX
  5
   40E
  8
0
  6
CONTINUOUS
 10
-527.773289821642
 20
166.895205964638
 30
0.0
 40
0.0
 41
0.0
  0
VERTEX
  5
   40F
  8
0
  6
CONTINUOUS
 10
-527.752208349577
 20
166.866944783288
 30
0.0
 40
0.0
 41
0.0
  0
VERTEX
  5
   410
  8
0
  6
CONTINUOUS
 10
-527.731529339933
 20
166.838004438089
 30
0.0
 40
0.0
 41
0.0
  0
VERTEX
  5
   411
  8
0
  6
CONTINUOUS
 10
-527.711249382002
 20
166.808391777426
 30
0.0
 40
0.0
 41
0.0
  0
VERTEX
  5
   412
  8
0
  6
CONTINUOUS
 10
-527.691364888977
 20
166.778114026946
 30
0.0
 40
0.0
 41
0.0
  0
VERTEX
  5
   413
  8
0
  6
CONTINUOUS
 10
-527.671872103037
 20
166.747178778772
 30
0.0
 40
0.0
 41
0.0
  0
VERTEX
  5
   414
  8
0
  6
CONTINUOUS
 10
-527.652767100437
 20
166.715593980715
 30
0.0
 40
0.0
 41
0.0
  0
VERTEX
  5
   415
  8
0
  6
CONTINUOUS
 10
-527.634045796595
 20
166.683367925485
 30
0.0
 40
0.0
 41
0.0
  0
VERTEX
  5
   416
  8
0
  6
CONTINUOUS
 10
-527.615703951176
 20
166.650509239911
 30
0.0
 40
0.0
 41
0.0
  0
VERTEX
  5
   417
  8
0
  6
CONTINUOUS
 10
-527.597737173181
 20
166.617026874144
 30
0.0
 40
0.0
 41
0.0
  0
VERTEX
  5
   418
  8
0
  6
CONTINUOUS
 10
-527.580140926034
 20
166.582930090878
 30
0.0
 40
0.0
 41
0.0
  0
VERTEX
  5
   419
  8
0
  6
CONTINUOUS
 10
-527.562910532667
 20
166.548228454561
 30
0.0
 40
0.0
 41
0.0
  0
VERTEX
  5
   41A
  8
0
  6
CONTINUOUS
 10
-527.54604118061
 20
166.512931820605
 30
0.0
 40
0.0
 41
0.0
  0
VERTEX
  5
   41B
  8
0
  6
CONTINUOUS
 10
-527.529527927076
 20
166.477050324602
 30
0.0
 40
0.0
 41
0.0
  0
VERTEX
  5
   41C
  8
0
  6
CONTINUOUS
 10
-527.513365704046
 20
166.440594371537
 30
0.0
 40
0.0
 41
0.0
  0
VERTEX
  5
   41D
  8
0
  6
CONTINUOUS
 10
-527.497549323361
 20
166.403574625
 30
0.0
 40
0.0
 41
0.0
  0
VERTEX
  5
   41E
  8
0
  6
CONTINUOUS
 10
-527.482073481804
 20
166.3660019964
 30
0.0
 40
0.0
 41
0.0
  0
VERTEX
  5
   41F
  8
0
  6
CONTINUOUS
 10
-527.466932766189
 20
166.327887634176
 30
0.0
 40
0.0
 41
0.0
  0
VERTEX
  5
   420
  8
0
  6
CONTINUOUS
 10
-527.452121658448
 20
166.289242913013
 30
0.0
 40
0.0
 41
0.0
  0
VERTEX
  5
   421
  8
0
  6
CONTINUOUS
 10
-527.437634540718
 20
166.250079423052
 30
0.0
 40
0.0
 41
0.0
  0
VERTEX
  5
   422
  8
0
  6
CONTINUOUS
 10
-527.423465700426
 20
166.210408959105
 30
0.0
 40
0.0
 41
0.0
  0
VERTEX
  5
   423
  8
0
  6
CONTINUOUS
 10
-527.40960933538
 20
166.170243509868
 30
0.0
 40
0.0
 41
0.0
  0
VERTEX
  5
   424
  8
0
  6
CONTINUOUS
 10
-527.396059558852
 20
166.129595247132
 30
0.0
 40
0.0
 41
0.0
  0
VERTEX
  5
   425
  8
0
  6
CONTINUOUS
 10
-527.382810404665
 20
166.088476515
 30
0.0
 40
0.0
 41
0.0
  0
VERTEX
  5
   426
  8
0
  6
CONTINUOUS
 10
-527.369855832283
 20
166.046899819096
 30
0.0
 40
0.0
 41
0.0
  0
VERTEX
  5
   427
  8
0
  6
CONTINUOUS
 10
-527.344805929503
 20
165.962423301357
 30
0.0
 40
0.0
 41
0.0
  0
VERTEX
  5
   428
  8
0
  6
CONTINUOUS
 10
-527.320860232306
 20
165.876268559455
 30
0.0
 40
0.0
 41
0.0
  0
VERTEX
  5
   429
  8
0
  6
CONTINUOUS
 10
-527.297968258271
 20
165.788540352923
 30
0.0
 40
0.0
 41
0.0
  0
VERTEX
  5
   42A
  8
0
  6
CONTINUOUS
 10
-527.276078823547
 20
165.699344990105
 30
0.0
 40
0.0
 41
0.0
  0
VERTEX
  5
   42B
  8
0
  6
CONTINUOUS
 10
-527.265493911736
 20
165.654230685002
 30
0.0
 40
0.0
 41
0.0
  0
VERTEX
  5
   42C
  8
0
  6
CONTINUOUS
 10
-527.245011182475
 20
165.56303645445
 30
0.0
 40
0.0
 41
0.0
  0
VERTEX
  5
   42D
  8
0
  6
CONTINUOUS
 10
-527.22540103239
 20
165.470645349255
 30
0.0
 40
0.0
 41
0.0
  0
VERTEX
  5
   42E
  8
0
  6
CONTINUOUS
 10
-527.206611104524
 20
165.377166380281
 30
0.0
 40
0.0
 41
0.0
  0
VERTEX
  5
   42F
  8
0
  6
CONTINUOUS
 10
-527.188589073004
 20
165.28270855388
 30
0.0
 40
0.0
 41
0.0
  0
VERTEX
  5
   430
  8
0
  6
CONTINUOUS
 10
-527.171282805819
 20
165.187380526703
 30
0.0
 40
0.0
 41
0.0
  0
VERTEX
  5
   431
  8
0
  6
CONTINUOUS
 10
-527.154640527606
 20
165.091290260525
 30
0.0
 40
0.0
 41
0.0
  0
VERTEX
  5
   432
  8
0
  6
CONTINUOUS
 10
-527.138610982428
 20
164.994544677054
 30
0.0
 40
0.0
 41
0.0
  0
VERTEX
  5
   433
  8
0
  6
CONTINUOUS
 10
-527.123143596556
 20
164.897249312754
 30
0.0
 40
0.0
 41
0.0
  0
VERTEX
  5
   434
  8
0
  6
CONTINUOUS
 10
-527.108188641248
 20
164.799507973655
 30
0.0
 40
0.0
 41
0.0
  0
VERTEX
  5
   435
  8
0
  6
CONTINUOUS
 10
-527.093697395533
 20
164.701422390178
 30
0.0
 40
0.0
 41
0.0
  0
VERTEX
  5
   436
  8
0
  6
CONTINUOUS
 10
-527.065917164529
 20
164.504612962597
 30
0.0
 40
0.0
 41
0.0
  0
VERTEX
  5
   437
  8
0
  6
CONTINUOUS
 10
-527.039439476839
 20
164.307580244126
 30
0.0
 40
0.0
 41
0.0
  0
VERTEX
  5
   438
  8
0
  6
CONTINUOUS
 10
-527.009168284555
 20
164.073829738496
 30
0.0
 40
0.0
 41
0.0
  0
VERTEX
  5
   439
  8
0
  6
CONTINUOUS
 10
-526.950743556271
 20
163.612514423108
 30
0.0
 40
0.0
 41
0.0
  0
VERTEX
  5
   43A
  8
0
  6
CONTINUOUS
 10
-526.921742002758
 20
163.386721628732
 30
0.0
 40
0.0
 41
0.0
  0
VERTEX
  5
   43B
  8
0
  6
CONTINUOUS
 10
-526.892405536371
 20
163.165165582639
 30
0.0
 40
0.0
 41
0.0
  0
VERTEX
  5
   43C
  8
0
  6
CONTINUOUS
 10
-526.862439392355
 20
162.948462224562
 30
0.0
 40
0.0
 41
0.0
  0
VERTEX
  5
   43D
  8
0
  6
CONTINUOUS
 10
-526.847140479888
 20
162.842096868172
 30
0.0
 40
0.0
 41
0.0
  0
VERTEX
  5
   43E
  8
0
  6
CONTINUOUS
 10
-526.831593791269
 20
162.737133493026
 30
0.0
 40
0.0
 41
0.0
  0
VERTEX
  5
   43F
  8
0
  6
CONTINUOUS
 10
-526.815774521225
 20
162.633623932161
 30
0.0
 40
0.0
 41
0.0
  0
VERTEX
  5
   440
  8
0
  6
CONTINUOUS
 10
-526.799660209937
 20
162.531615117564
 30
0.0
 40
0.0
 41
0.0
  0
VERTEX
  5
   441
  8
0
  6
CONTINUOUS
 10
-526.783230626503
 20
162.431149323679
 30
0.0
 40
0.0
 41
0.0
  0
VERTEX
  5
   442
  8
0
  6
CONTINUOUS
 10
-526.766467652405
 20
162.332264410916
 30
0.0
 40
0.0
 41
0.0
  0
VERTEX
  5
   443
  8
0
  6
CONTINUOUS
 10
-526.74935516498
 20
162.234994069155
 30
0.0
 40
0.0
 41
0.0
  0
VERTEX
  5
   444
  8
0
  6
CONTINUOUS
 10
-526.731878920886
 20
162.139368061252
 30
0.0
 40
0.0
 41
0.0
  0
SEQEND
  5
   445
  8
0
  6
CONTINUOUS
 62
     7
  0
POLYLINE
  5
   446
  8
0
  6
CONTINUOUS
 62
     7
 66
     1
 10
0.0
 20
0.0
 30
0.0
  0
VERTEX
  5
   447
  8
0
  6
CONTINUOUS
 10
-546.643974133533
 20
242.139356028862
 30
0.0
 40
0.0
 41
0.0
  0
VERTEX
  5
   448
  8
0
  6
CONTINUOUS
 10
-546.640648455979
 20
242.10031325459
 30
0.0
 40
0.0
 41
0.0
  0
VERTEX
  5
   449
  8
0
  6
CONTINUOUS
 10
-546.636849802939
 20
242.061269956947
 30
0.0
 40
0.0
 41
0.0
  0
VERTEX
  5
   44A
  8
0
  6
CONTINUOUS
 10
-546.632577860414
 20
242.022229693926
 30
0.0
 40
0.0
 41
0.0
  0
VERTEX
  5
   44B
  8
0
  6
CONTINUOUS
 10
-546.627832292195
 20
241.98319627516
 30
0.0
 40
0.0
 41
0.0
  0
VERTEX
  5
   44C
  8
0
  6
CONTINUOUS
 10
-546.622612739107
 20
241.944173770526
 30
0.0
 40
0.0
 41
0.0
  0
VERTEX
  5
   44D
  8
0
  6
CONTINUOUS
 10
-546.616918818249
 20
241.905166518739
 30
0.0
 40
0.0
 41
0.0
  0
VERTEX
  5
   44E
  8
0
  6
CONTINUOUS
 10
-546.610750122236
 20
241.866179135957
 30
0.0
 40
0.0
 41
0.0
  0
VERTEX
  5
   44F
  8
0
  6
CONTINUOUS
 10
-546.604106218438
 20
241.827216524379
 30
0.0
 40
0.0
 41
0.0
  0
VERTEX
  5
   450
  8
0
  6
CONTINUOUS
 10
-546.596986648224
 20
241.788283880845
 30
0.0
 40
0.0
 41
0.0
  0
VERTEX
  5
   451
  8
0
  6
CONTINUOUS
 10
-546.5893909262
 20
241.749386705436
 30
0.0
 40
0.0
 41
0.0
  0
VERTEX
  5
   452
  8
0
  6
CONTINUOUS
 10
-546.581318539452
 20
241.710530810071
 30
0.0
 40
0.0
 41
0.0
  0
VERTEX
  5
   453
  8
0
  6
CONTINUOUS
 10
-546.572768946786
 20
241.671722327113
 30
0.0
 40
0.0
 41
0.0
  0
VERTEX
  5
   454
  8
0
  6
CONTINUOUS
 10
-546.563741577971
 20
241.632967717962
 30
0.0
 40
0.0
 41
0.0
  0
VERTEX
  5
   455
  8
0
  6
CONTINUOUS
 10
-546.554235832976
 20
241.59427378166
 30
0.0
 40
0.0
 41
0.0
  0
VERTEX
  5
   456
  8
0
  6
CONTINUOUS
 10
-546.544251081215
 20
241.555647663489
 30
0.0
 40
0.0
 41
0.0
  0
VERTEX
  5
   457
  8
0
  6
CONTINUOUS
 10
-546.533786660788
 20
241.517096863569
 30
0.0
 40
0.0
 41
0.0
  0
VERTEX
  5
   458
  8
0
  6
CONTINUOUS
 10
-546.522841877719
 20
241.478629245462
 30
0.0
 40
0.0
 41
0.0
  0
VERTEX
  5
   459
  8
0
  6
CONTINUOUS
 10
-546.511416005198
 20
241.440253044768
 30
0.0
 40
0.0
 41
0.0
  0
VERTEX
  5
   45A
  8
0
  6
CONTINUOUS
 10
-546.499508282825
 20
241.401976877725
 30
0.0
 40
0.0
 41
0.0
  0
VERTEX
  5
   45B
  8
0
  6
CONTINUOUS
 10
-546.487117915847
 20
241.363809749814
 30
0.0
 40
0.0
 41
0.0
  0
VERTEX
  5
   45C
  8
0
  6
CONTINUOUS
 10
-546.474244074403
 20
241.325761064352
 30
0.0
 40
0.0
 41
0.0
  0
VERTEX
  5
   45D
  8
0
  6
CONTINUOUS
 10
-546.46088589276
 20
241.287840631095
 30
0.0
 40
0.0
 41
0.0
  0
VERTEX
  5
   45E
  8
0
  6
CONTINUOUS
 10
-546.447042468559
 20
241.250058674839
 30
0.0
 40
0.0
 41
0.0
  0
VERTEX
  5
   45F
  8
0
  6
CONTINUOUS
 10
-546.432712862053
 20
241.212425844016
 30
0.0
 40
0.0
 41
0.0
  0
VERTEX
  5
   460
  8
0
  6
CONTINUOUS
 10
-546.417896095351
 20
241.174953219301
 30
0.0
 40
0.0
 41
0.0
  0
VERTEX
  5
   461
  8
0
  6
CONTINUOUS
 10
-546.402591151655
 20
241.137652322203
 30
0.0
 40
0.0
 41
0.0
  0
VERTEX
  5
   462
  8
0
  6
CONTINUOUS
 10
-546.386796974504
 20
241.10053512367
 30
0.0
 40
0.0
 41
0.0
  0
VERTEX
  5
   463
  8
0
  6
CONTINUOUS
 10
-546.370512467013
 20
241.063614052689
 30
0.0
 40
0.0
 41
0.0
  0
VERTEX
  5
   464
  8
0
  6
CONTINUOUS
 10
-546.353736491118
 20
241.026902004885
 30
0.0
 40
0.0
 41
0.0
  0
VERTEX
  5
   465
  8
0
  6
CONTINUOUS
 10
-546.336467866811
 20
240.99041235112
 30
0.0
 40
0.0
 41
0.0
  0
VERTEX
  5
   466
  8
0
  6
CONTINUOUS
 10
-546.318705371387
 20
240.954158946092
 30
0.0
 40
0.0
 41
0.0
  0
VERTEX
  5
   467
  8
0
  6
CONTINUOUS
 10
-546.300447738681
 20
240.918156136938
 30
0.0
 40
0.0
 41
0.0
  0
VERTEX
  5
   468
  8
0
  6
CONTINUOUS
 10
-546.281693658311
 20
240.882418771834
 30
0.0
 40
0.0
 41
0.0
  0
VERTEX
  5
   469
  8
0
  6
CONTINUOUS
 10
-546.262441774917
 20
240.846962208588
 30
0.0
 40
0.0
 41
0.0
  0
VERTEX
  5
   46A
  8
0
  6
CONTINUOUS
 10
-546.242690687405
 20
240.81180232325
 30
0.0
 40
0.0
 41
0.0
  0
VERTEX
  5
   46B
  8
0
  6
CONTINUOUS
 10
-546.222438948188
 20
240.776955518704
 30
0.0
 40
0.0
 41
0.0
  0
VERTEX
  5
   46C
  8
0
  6
CONTINUOUS
 10
-546.201685062422
 20
240.742438733271
 30
0.0
 40
0.0
 41
0.0
  0
VERTEX
  5
   46D
  8
0
  6
CONTINUOUS
 10
-546.180427487254
 20
240.708269449308
 30
0.0
 40
0.0
 41
0.0
  0
VERTEX
  5
   46E
  8
0
  6
CONTINUOUS
 10
-546.158664631056
 20
240.67446570181
 30
0.0
 40
0.0
 41
0.0
  0
VERTEX
  5
   46F
  8
0
  6
CONTINUOUS
 10
-546.136394852675
 20
240.641046087007
 30
0.0
 40
0.0
 41
0.0
  0
VERTEX
  5
   470
  8
0
  6
CONTINUOUS
 10
-546.115608550527
 20
240.610871569411
 30
0.0
 40
0.0
 41
0.0
  0
VERTEX
  5
   471
  8
0
  6
CONTINUOUS
 10
-546.094396565289
 20
240.581048550175
 30
0.0
 40
0.0
 41
0.0
  0
VERTEX
  5
   472
  8
0
  6
CONTINUOUS
 10
-546.072757565438
 20
240.551592380386
 30
0.0
 40
0.0
 41
0.0
  0
VERTEX
  5
   473
  8
0
  6
CONTINUOUS
 10
-546.050690232205
 20
240.522518688037
 30
0.0
 40
0.0
 41
0.0
  0
VERTEX
  5
   474
  8
0
  6
CONTINUOUS
 10
-546.028193283717
 20
240.493843315139
 30
0.0
 40
0.0
 41
0.0
  0
VERTEX
  5
   475
  8
0
  6
CONTINUOUS
 10
-546.005265499145
 20
240.465582254834
 30
0.0
 40
0.0
 41
0.0
  0
VERTEX
  5
   476
  8
0
  6
CONTINUOUS
 10
-545.981905742847
 20
240.437751588512
 30
0.0
 40
0.0
 41
0.0
  0
VERTEX
  5
   477
  8
0
  6
CONTINUOUS
 10
-545.958112988511
 20
240.410367422924
 30
0.0
 40
0.0
 41
0.0
  0
VERTEX
  5
   478
  8
0
  6
CONTINUOUS
 10
-545.933886343301
 20
240.383445827294
 30
0.0
 40
0.0
 41
0.0
  0
VERTEX
  5
   479
  8
0
  6
CONTINUOUS
 10
-545.909225072005
 20
240.357002770436
 30
0.0
 40
0.0
 41
0.0
  0
VERTEX
  5
   47A
  8
0
  6
CONTINUOUS
 10
-545.884128621175
 20
240.331054057868
 30
0.0
 40
0.0
 41
0.0
  0
VERTEX
  5
   47B
  8
0
  6
CONTINUOUS
 10
-545.858596643273
 20
240.305615268923
 30
0.0
 40
0.0
 41
0.0
  0
VERTEX
  5
   47C
  8
0
  6
CONTINUOUS
 10
-545.832629020819
 20
240.280701693867
 30
0.0
 40
0.0
 41
0.0
  0
VERTEX
  5
   47D
  8
0
  6
CONTINUOUS
 10
-545.80622589053
 20
240.256328271013
 30
0.0
 40
0.0
 41
0.0
  0
VERTEX
  5
   47E
  8
0
  6
CONTINUOUS
 10
-545.779387667472
 20
240.232509523832
 30
0.0
 40
0.0
 41
0.0
  0
VERTEX
  5
   47F
  8
0
  6
CONTINUOUS
 10
-545.752115069198
 20
240.209259498069
 30
0.0
 40
0.0
 41
0.0
  0
VERTEX
  5
   480
  8
0
  6
CONTINUOUS
 10
-545.724409139895
 20
240.186591698858
 30
0.0
 40
0.0
 41
0.0
  0
VERTEX
  5
   481
  8
0
  6
CONTINUOUS
 10
-545.696271274532
 20
240.164519027835
 30
0.0
 40
0.0
 41
0.0
  0
VERTEX
  5
   482
  8
0
  6
CONTINUOUS
 10
-545.667703243001
 20
240.143053720253
 30
0.0
 40
0.0
 41
0.0
  0
VERTEX
  5
   483
  8
0
  6
CONTINUOUS
 10
-545.638707214261
 20
240.122207282095
 30
0.0
 40
0.0
 41
0.0
  0
VERTEX
  5
   484
  8
0
  6
CONTINUOUS
 10
-545.609285780488
 20
240.101990427189
 30
0.0
 40
0.0
 41
0.0
  0
VERTEX
  5
   485
  8
0
  6
CONTINUOUS
 10
-545.579441981214
 20
240.082413014323
 30
0.0
 40
0.0
 41
0.0
  0
VERTEX
  5
   486
  8
0
  6
CONTINUOUS
 10
-545.549179327474
 20
240.063483984357
 30
0.0
 40
0.0
 41
0.0
  0
VERTEX
  5
   487
  8
0
  6
CONTINUOUS
 10
-545.518501825954
 20
240.045211297338
 30
0.0
 40
0.0
 41
0.0
  0
VERTEX
  5
   488
  8
0
  6
CONTINUOUS
 10
-545.487414003129
 20
240.027601869617
 30
0.0
 40
0.0
 41
0.0
  0
VERTEX
  5
   489
  8
0
  6
CONTINUOUS
 10
-545.455920929413
 20
240.010661510959
 30
0.0
 40
0.0
 41
0.0
  0
VERTEX
  5
   48A
  8
0
  6
CONTINUOUS
 10
-545.424028243303
 20
239.994394861659
 30
0.0
 40
0.0
 41
0.0
  0
VERTEX
  5
   48B
  8
0
  6
CONTINUOUS
 10
-545.391742175523
 20
239.978805329656
 30
0.0
 40
0.0
 41
0.0
  0
VERTEX
  5
   48C
  8
0
  6
CONTINUOUS
 10
-545.359069573168
 20
239.963895027647
 30
0.0
 40
0.0
 41
0.0
  0
VERTEX
  5
   48D
  8
0
  6
CONTINUOUS
 10
-545.326017923849
 20
239.949664710202
 30
0.0
 40
0.0
 41
0.0
  0
VERTEX
  5
   48E
  8
0
  6
CONTINUOUS
 10
-545.29259537984
 20
239.936113710879
 30
0.0
 40
0.0
 41
0.0
  0
VERTEX
  5
   48F
  8
0
  6
CONTINUOUS
 10
-545.258810782221
 20
239.923239879334
 30
0.0
 40
0.0
 41
0.0
  0
VERTEX
  5
   490
  8
0
  6
CONTINUOUS
 10
-545.22467368502
 20
239.91103951844
 30
0.0
 40
0.0
 41
0.0
  0
VERTEX
  5
   491
  8
0
  6
CONTINUOUS
 10
-545.190194379365
 20
239.899507321398
 30
0.0
 40
0.0
 41
0.0
  0
VERTEX
  5
   492
  8
0
  6
CONTINUOUS
 10
-545.155383917622
 20
239.888636308853
 30
0.0
 40
0.0
 41
0.0
  0
VERTEX
  5
   493
  8
0
  6
CONTINUOUS
 10
-545.120254137542
 20
239.878417766006
 30
0.0
 40
0.0
 41
0.0
  0
VERTEX
  5
   494
  8
0
  6
CONTINUOUS
 10
-545.084817686407
 20
239.868841179732
 30
0.0
 40
0.0
 41
0.0
  0
VERTEX
  5
   495
  8
0
  6
CONTINUOUS
 10
-545.049088045172
 20
239.85989417569
 30
0.0
 40
0.0
 41
0.0
  0
VERTEX
  5
   496
  8
0
  6
CONTINUOUS
 10
-545.013079552615
 20
239.85156245544
 30
0.0
 40
0.0
 41
0.0
  0
VERTEX
  5
   497
  8
0
  6
CONTINUOUS
 10
-544.976807429474
 20
239.843829733556
 30
0.0
 40
0.0
 41
0.0
  0
VERTEX
  5
   498
  8
0
  6
CONTINUOUS
 10
-544.941238834136
 20
239.836856166344
 30
0.0
 40
0.0
 41
0.0
  0
VERTEX
  5
   499
  8
0
  6
CONTINUOUS
 10
-544.90545114869
 20
239.830414680948
 30
0.0
 40
0.0
 41
0.0
  0
VERTEX
  5
   49A
  8
0
  6
CONTINUOUS
 10
-544.869460895304
 20
239.824484635761
 30
0.0
 40
0.0
 41
0.0
  0
VERTEX
  5
   49B
  8
0
  6
CONTINUOUS
 10
-544.833285335356
 20
239.819043674364
 30
0.0
 40
0.0
 41
0.0
  0
VERTEX
  5
   49C
  8
0
  6
CONTINUOUS
 10
-544.796942420361
 20
239.814067818998
 30
0.0
 40
0.0
 41
0.0
  0
VERTEX
  5
   49D
  8
0
  6
CONTINUOUS
 10
-544.760450742898
 20
239.809531564042
 30
0.0
 40
0.0
 41
0.0
  0
VERTEX
  5
   49E
  8
0
  6
CONTINUOUS
 10
-544.687098381785
 20
239.801668754414
 30
0.0
 40
0.0
 41
0.0
  0
VERTEX
  5
   49F
  8
0
  6
CONTINUOUS
 10
-544.613387949214
 20
239.795224195334
 30
0.0
 40
0.0
 41
0.0
  0
VERTEX
  5
   4A0
  8
0
  6
CONTINUOUS
 10
-544.539486258802
 20
239.789948373301
 30
0.0
 40
0.0
 41
0.0
  0
VERTEX
  5
   4A1
  8
0
  6
CONTINUOUS
 10
-544.465565670277
 20
239.785576302693
 30
0.0
 40
0.0
 41
0.0
  0
VERTEX
  5
   4A2
  8
0
  6
CONTINUOUS
 10
-544.245464328457
 20
239.775063477067
 30
0.0
 40
0.0
 41
0.0
  0
VERTEX
  5
   4A3
  8
0
  6
CONTINUOUS
 10
-544.173247706125
 20
239.771451806368
 30
0.0
 40
0.0
 41
0.0
  0
VERTEX
  5
   4A4
  8
0
  6
CONTINUOUS
 10
-544.101902215131
 20
239.767291570053
 30
0.0
 40
0.0
 41
0.0
  0
VERTEX
  5
   4A5
  8
0
  6
CONTINUOUS
 10
-544.031600515358
 20
239.762287765519
 30
0.0
 40
0.0
 41
0.0
  0
VERTEX
  5
   4A6
  8
0
  6
CONTINUOUS
 10
-543.962509820631
 20
239.756150856632
 30
0.0
 40
0.0
 41
0.0
  0
VERTEX
  5
   4A7
  8
0
  6
CONTINUOUS
 10
-543.92846897888
 20
239.752569238872
 30
0.0
 40
0.0
 41
0.0
  0
VERTEX
  5
   4A8
  8
0
  6
CONTINUOUS
 10
-543.894790328406
 20
239.748599764947
 30
0.0
 40
0.0
 41
0.0
  0
VERTEX
  5
   4A9
  8
0
  6
CONTINUOUS
 10
-543.861492539955
 20
239.744209112315
 30
0.0
 40
0.0
 41
0.0
  0
VERTEX
  5
   4AA
  8
0
  6
CONTINUOUS
 10
-543.828593649461
 20
239.739364860941
 30
0.0
 40
0.0
 41
0.0
  0
VERTEX
  5
   4AB
  8
0
  6
CONTINUOUS
 10
-543.796111008973
 20
239.734035586779
 30
0.0
 40
0.0
 41
0.0
  0
VERTEX
  5
   4AC
  8
0
  6
CONTINUOUS
 10
-543.764061237585
 20
239.728190955239
 30
0.0
 40
0.0
 41
0.0
  0
VERTEX
  5
   4AD
  8
0
  6
CONTINUOUS
 10
-543.732460172362
 20
239.721801814671
 30
0.0
 40
0.0
 41
0.0
  0
VERTEX
  5
   4AE
  8
0
  6
CONTINUOUS
 10
-543.701322819269
 20
239.714840289838
 30
0.0
 40
0.0
 41
0.0
  0
VERTEX
  5
   4AF
  8
0
  6
CONTINUOUS
 10
-543.670663304098
 20
239.707279875389
 30
0.0
 40
0.0
 41
0.0
  0
VERTEX
  5
   4B0
  8
0
  6
CONTINUOUS
 10
-543.640494823397
 20
239.699095529338
 30
0.0
 40
0.0
 41
0.0
  0
VERTEX
  5
   4B1
  8
0
  6
CONTINUOUS
 10
-543.610829595396
 20
239.690263766541
 30
0.0
 40
0.0
 41
0.0
  0
VERTEX
  5
   4B2
  8
0
  6
CONTINUOUS
 10
-543.581678810936
 20
239.680762752168
 30
0.0
 40
0.0
 41
0.0
  0
VERTEX
  5
   4B3
  8
0
  6
CONTINUOUS
 10
-543.55703756288
 20
239.672044634948
 30
0.0
 40
0.0
 41
0.0
  0
VERTEX
  5
   4B4
  8
0
  6
CONTINUOUS
 10
-543.532789774697
 20
239.662805337012
 30
0.0
 40
0.0
 41
0.0
  0
VERTEX
  5
   4B5
  8
0
  6
CONTINUOUS
 10
-543.508940614201
 20
239.653034146486
 30
0.0
 40
0.0
 41
0.0
  0
VERTEX
  5
   4B6
  8
0
  6
CONTINUOUS
 10
-543.485494656315
 20
239.642721320837
 30
0.0
 40
0.0
 41
0.0
  0
VERTEX
  5
   4B7
  8
0
  6
CONTINUOUS
 10
-543.462455893993
 20
239.631858069802
 30
0.0
 40
0.0
 41
0.0
  0
VERTEX
  5
   4B8
  8
0
  6
CONTINUOUS
 10
-543.439827749155
 20
239.620436538323
 30
0.0
 40
0.0
 41
0.0
  0
VERTEX
  5
   4B9
  8
0
  6
CONTINUOUS
 10
-543.417613083604
 20
239.60844978947
 30
0.0
 40
0.0
 41
0.0
  0
VERTEX
  5
   4BA
  8
0
  6
CONTINUOUS
 10
-543.395814209962
 20
239.595891787374
 30
0.0
 40
0.0
 41
0.0
  0
VERTEX
  5
   4BB
  8
0
  6
CONTINUOUS
 10
-543.37443290259
 20
239.582757380156
 30
0.0
 40
0.0
 41
0.0
  0
VERTEX
  5
   4BC
  8
0
  6
CONTINUOUS
 10
-543.35347040852
 20
239.569042282856
 30
0.0
 40
0.0
 41
0.0
  0
VERTEX
  5
   4BD
  8
0
  6
CONTINUOUS
 10
-543.33292745838
 20
239.55474306036
 30
0.0
 40
0.0
 41
0.0
  0
VERTEX
  5
   4BE
  8
0
  6
CONTINUOUS
 10
-543.312804277319
 20
239.539857110337
 30
0.0
 40
0.0
 41
0.0
  0
VERTEX
  5
   4BF
  8
0
  6
CONTINUOUS
 10
-543.293100595937
 20
239.524382646157
 30
0.0
 40
0.0
 41
0.0
  0
VERTEX
  5
   4C0
  8
0
  6
CONTINUOUS
 10
-543.273815661211
 20
239.508318679833
 30
0.0
 40
0.0
 41
0.0
  0
VERTEX
  5
   4C1
  8
0
  6
CONTINUOUS
 10
-543.254948247423
 20
239.49166500494
 30
0.0
 40
0.0
 41
0.0
  0
VERTEX
  5
   4C2
  8
0
  6
CONTINUOUS
 10
-543.236496667083
 20
239.474422179551
 30
0.0
 40
0.0
 41
0.0
  0
VERTEX
  5
   4C3
  8
0
  6
CONTINUOUS
 10
-543.218458781861
 20
239.456591509161
 30
0.0
 40
0.0
 41
0.0
  0
VERTEX
  5
   4C4
  8
0
  6
CONTINUOUS
 10
-543.20083201351
 20
239.438175029623
 30
0.0
 40
0.0
 41
0.0
  0
VERTEX
  5
   4C5
  8
0
  6
CONTINUOUS
 10
-543.183613354797
 20
239.419175490072
 30
0.0
 40
0.0
 41
0.0
  0
VERTEX
  5
   4C6
  8
0
  6
CONTINUOUS
 10
-543.166799380426
 20
239.399596335857
 30
0.0
 40
0.0
 41
0.0
  0
VERTEX
  5
   4C7
  8
0
  6
CONTINUOUS
 10
-543.150386257967
 20
239.37944169147
 30
0.0
 40
0.0
 41
0.0
  0
VERTEX
  5
   4C8
  8
0
  6
CONTINUOUS
 10
-543.134369758783
 20
239.358716343474
 30
0.0
 40
0.0
 41
0.0
  0
VERTEX
  5
   4C9
  8
0
  6
CONTINUOUS
 10
-543.118745268956
 20
239.337425723436
 30
0.0
 40
0.0
 41
0.0
  0
VERTEX
  5
   4CA
  8
0
  6
CONTINUOUS
 10
-543.103507800214
 20
239.315575890851
 30
0.0
 40
0.0
 41
0.0
  0
VERTEX
  5
   4CB
  8
0
  6
CONTINUOUS
 10
-543.088652000861
 20
239.293173516078
 30
0.0
 40
0.0
 41
0.0
  0
VERTEX
  5
   4CC
  8
0
  6
CONTINUOUS
 10
-543.0741721667
 20
239.270225863263
 30
0.0
 40
0.0
 41
0.0
  0
VERTEX
  5
   4CD
  8
0
  6
CONTINUOUS
 10
-543.06006225196
 20
239.246740773273
 30
0.0
 40
0.0
 41
0.0
  0
VERTEX
  5
   4CE
  8
0
  6
CONTINUOUS
 10
-543.046315880227
 20
239.222726646623
 30
0.0
 40
0.0
 41
0.0
  0
VERTEX
  5
   4CF
  8
0
  6
CONTINUOUS
 10
-543.032926355367
 20
239.198192426407
 30
0.0
 40
0.0
 41
0.0
  0
VERTEX
  5
   4D0
  8
0
  6
CONTINUOUS
 10
-543.019886672455
 20
239.173147581227
 30
0.0
 40
0.0
 41
0.0
  0
VERTEX
  5
   4D1
  8
0
  6
CONTINUOUS
 10
-543.007189528701
 20
239.147602088121
 30
0.0
 40
0.0
 41
0.0
  0
VERTEX
  5
   4D2
  8
0
  6
CONTINUOUS
 10
-542.994827334377
 20
239.121566415495
 30
0.0
 40
0.0
 41
0.0
  0
VERTEX
  5
   4D3
  8
0
  6
CONTINUOUS
 10
-542.982792223746
 20
239.09505150605
 30
0.0
 40
0.0
 41
0.0
  0
VERTEX
  5
   4D4
  8
0
  6
CONTINUOUS
 10
-542.971076065984
 20
239.068068759712
 30
0.0
 40
0.0
 41
0.0
  0
VERTEX
  5
   4D5
  8
0
  6
CONTINUOUS
 10
-542.959670476115
 20
239.040630016563
 30
0.0
 40
0.0
 41
0.0
  0
VERTEX
  5
   4D6
  8
0
  6
CONTINUOUS
 10
-542.948566825929
 20
239.012747539769
 30
0.0
 40
0.0
 41
0.0
  0
VERTEX
  5
   4D7
  8
0
  6
CONTINUOUS
 10
-542.937756254915
 20
238.98443399851
 30
0.0
 40
0.0
 41
0.0
  0
VERTEX
  5
   4D8
  8
0
  6
CONTINUOUS
 10
-542.916977812406
 20
238.926566326959
 30
0.0
 40
0.0
 41
0.0
  0
VERTEX
  5
   4D9
  8
0
  6
CONTINUOUS
 10
-542.897260033669
 20
238.867135826942
 30
0.0
 40
0.0
 41
0.0
  0
VERTEX
  5
   4DA
  8
0
  6
CONTINUOUS
 10
-542.878524786265
 20
238.806256727193
 30
0.0
 40
0.0
 41
0.0
  0
VERTEX
  5
   4DB
  8
0
  6
CONTINUOUS
 10
-542.869500456372
 20
238.775310992043
 30
0.0
 40
0.0
 41
0.0
  0
VERTEX
  5
   4DC
  8
0
  6
CONTINUOUS
 10
-542.852086767322
 20
238.712483647869
 30
0.0
 40
0.0
 41
0.0
  0
VERTEX
  5
   4DD
  8
0
  6
CONTINUOUS
 10
-542.83544937153
 20
238.648513332186
 30
0.0
 40
0.0
 41
0.0
  0
VERTEX
  5
   4DE
  8
0
  6
CONTINUOUS
 10
-542.819502328838
 20
238.58352888491
 30
0.0
 40
0.0
 41
0.0
  0
VERTEX
  5
   4DF
  8
0
  6
CONTINUOUS
 10
-542.804158255057
 20
238.517662091498
 30
0.0
 40
0.0
 41
0.0
  0
VERTEX
  5
   4E0
  8
0
  6
CONTINUOUS
 10
-542.789328671625
 20
238.451047136695
 30
0.0
 40
0.0
 41
0.0
  0
VERTEX
  5
   4E1
  8
0
  6
CONTINUOUS
 10
-542.774924355272
 20
238.383820058267
 30
0.0
 40
0.0
 41
0.0
  0
VERTEX
  5
   4E2
  8
0
  6
CONTINUOUS
 10
-542.747033005159
 20
238.248079669197
 30
0.0
 40
0.0
 41
0.0
  0
VERTEX
  5
   4E3
  8
0
  6
CONTINUOUS
 10
-542.692426844551
 20
237.975316930904
 30
0.0
 40
0.0
 41
0.0
  0
VERTEX
  5
   4E4
  8
0
  6
CONTINUOUS
 10
-542.664323826344
 20
237.840470374852
 30
0.0
 40
0.0
 41
0.0
  0
VERTEX
  5
   4E5
  8
0
  6
CONTINUOUS
 10
-542.649782072929
 20
237.773891234959
 30
0.0
 40
0.0
 41
0.0
  0
VERTEX
  5
   4E6
  8
0
  6
CONTINUOUS
 10
-542.634809320824
 20
237.708042088787
 30
0.0
 40
0.0
 41
0.0
  0
VERTEX
  5
   4E7
  8
0
  6
CONTINUOUS
 10
-542.619331232733
 20
237.643043304356
 30
0.0
 40
0.0
 41
0.0
  0
VERTEX
  5
   4E8
  8
0
  6
CONTINUOUS
 10
-542.60327692261
 20
237.579010547617
 30
0.0
 40
0.0
 41
0.0
  0
VERTEX
  5
   4E9
  8
0
  6
CONTINUOUS
 10
-542.588843235983
 20
237.524375412583
 30
0.0
 40
0.0
 41
0.0
  0
VERTEX
  5
   4EA
  8
0
  6
CONTINUOUS
 10
-542.573884934064
 20
237.470617590451
 30
0.0
 40
0.0
 41
0.0
  0
VERTEX
  5
   4EB
  8
0
  6
CONTINUOUS
 10
-542.558363088228
 20
237.417802342532
 30
0.0
 40
0.0
 41
0.0
  0
VERTEX
  5
   4EC
  8
0
  6
CONTINUOUS
 10
-542.542241031743
 20
237.365991754983
 30
0.0
 40
0.0
 41
0.0
  0
VERTEX
  5
   4ED
  8
0
  6
CONTINUOUS
 10
-542.525484319307
 20
237.315244786622
 30
0.0
 40
0.0
 41
0.0
  0
VERTEX
  5
   4EE
  8
0
  6
CONTINUOUS
 10
-542.508060686585
 20
237.265617316762
 30
0.0
 40
0.0
 41
0.0
  0
VERTEX
  5
   4EF
  8
0
  6
CONTINUOUS
 10
-542.489940009739
 20
237.217162193027
 30
0.0
 40
0.0
 41
0.0
  0
VERTEX
  5
   4F0
  8
0
  6
CONTINUOUS
 10
-542.471094264962
 20
237.169929279182
 30
0.0
 40
0.0
 41
0.0
  0
VERTEX
  5
   4F1
  8
0
  6
CONTINUOUS
 10
-542.451497488017
 20
237.12396550295
 30
0.0
 40
0.0
 41
0.0
  0
VERTEX
  5
   4F2
  8
0
  6
CONTINUOUS
 10
-542.431125733764
 20
237.079314903844
 30
0.0
 40
0.0
 41
0.0
  0
VERTEX
  5
   4F3
  8
0
  6
CONTINUOUS
 10
-542.409957035699
 20
237.036018680985
 30
0.0
 40
0.0
 41
0.0
  0
VERTEX
  5
   4F4
  8
0
  6
CONTINUOUS
 10
-542.387971365486
 20
236.994115240926
 30
0.0
 40
0.0
 41
0.0
  0
VERTEX
  5
   4F5
  8
0
  6
CONTINUOUS
 10
-542.365150592493
 20
236.953640245481
 30
0.0
 40
0.0
 41
0.0
  0
VERTEX
  5
   4F6
  8
0
  6
CONTINUOUS
 10
-542.341478443323
 20
236.914626659541
 30
0.0
 40
0.0
 41
0.0
  0
VERTEX
  5
   4F7
  8
0
  6
CONTINUOUS
 10
-542.31694046135
 20
236.877104798906
 30
0.0
 40
0.0
 41
0.0
  0
VERTEX
  5
   4F8
  8
0
  6
CONTINUOUS
 10
-542.304342752182
 20
236.858912026672
 30
0.0
 40
0.0
 41
0.0
  0
VERTEX
  5
   4F9
  8
0
  6
CONTINUOUS
 10
-542.291523966253
 20
236.841102378103
 30
0.0
 40
0.0
 41
0.0
  0
VERTEX
  5
   4FA
  8
0
  6
CONTINUOUS
 10
-542.278482789432
 20
236.823678918913
 30
0.0
 40
0.0
 41
0.0
  0
VERTEX
  5
   4FB
  8
0
  6
CONTINUOUS
 10
-542.265218013548
 20
236.806644558214
 30
0.0
 40
0.0
 41
0.0
  0
VERTEX
  5
   4FC
  8
0
  6
CONTINUOUS
 10
-542.251728535127
 20
236.79000205001
 30
0.0
 40
0.0
 41
0.0
  0
VERTEX
  5
   4FD
  8
0
  6
CONTINUOUS
 10
-542.238013354126
 20
236.773753994695
 30
0.0
 40
0.0
 41
0.0
  0
VERTEX
  5
   4FE
  8
0
  6
CONTINUOUS
 10
-542.224071572669
 20
236.757902840542
 30
0.0
 40
0.0
 41
0.0
  0
VERTEX
  5
   4FF
  8
0
  6
CONTINUOUS
 10
-542.209902393784
 20
236.742450885204
 30
0.0
 40
0.0
 41
0.0
  0
VERTEX
  5
   500
  8
0
  6
CONTINUOUS
 10
-542.195505120134
 20
236.727400277203
 30
0.0
 40
0.0
 41
0.0
  0
VERTEX
  5
   501
  8
0
  6
CONTINUOUS
 10
-542.180879152758
 20
236.712753017426
 30
0.0
 40
0.0
 41
0.0
  0
VERTEX
  5
   502
  8
0
  6
CONTINUOUS
 10
-542.166023989803
 20
236.698510960621
 30
0.0
 40
0.0
 41
0.0
  0
VERTEX
  5
   503
  8
0
  6
CONTINUOUS
 10
-542.15093922526
 20
236.684675816891
 30
0.0
 40
0.0
 41
0.0
  0
VERTEX
  5
   504
  8
0
  6
CONTINUOUS
 10
-542.135624547701
 20
236.671249153186
 30
0.0
 40
0.0
 41
0.0
  0
VERTEX
  5
   505
  8
0
  6
CONTINUOUS
 10
-542.120079739011
 20
236.658232394802
 30
0.0
 40
0.0
 41
0.0
  0
VERTEX
  5
   506
  8
0
  6
CONTINUOUS
 10
-542.104304673128
 20
236.645626826872
 30
0.0
 40
0.0
 41
0.0
  0
VERTEX
  5
   507
  8
0
  6
CONTINUOUS
 10
-542.088299314775
 20
236.633433595861
 30
0.0
 40
0.0
 41
0.0
  0
VERTEX
  5
   508
  8
0
  6
CONTINUOUS
 10
-542.072063718195
 20
236.621653711062
 30
0.0
 40
0.0
 41
0.0
  0
VERTEX
  5
   509
  8
0
  6
CONTINUOUS
 10
-542.055598025891
 20
236.610288046088
 30
0.0
 40
0.0
 41
0.0
  0
VERTEX
  5
   50A
  8
0
  6
CONTINUOUS
 10
-542.038902467355
 20
236.599337340369
 30
0.0
 40
0.0
 41
0.0
  0
VERTEX
  5
   50B
  8
0
  6
CONTINUOUS
 10
-542.021977357811
 20
236.588802200646
 30
0.0
 40
0.0
 41
0.0
  0
VERTEX
  5
   50C
  8
0
  6
CONTINUOUS
 10
-542.00482309694
 20
236.578683102464
 30
0.0
 40
0.0
 41
0.0
  0
VERTEX
  5
   50D
  8
0
  6
CONTINUOUS
 10
-541.987440167629
 20
236.568980391668
 30
0.0
 40
0.0
 41
0.0
  0
VERTEX
  5
   50E
  8
0
  6
CONTINUOUS
 10
-541.969829134694
 20
236.559694285897
 30
0.0
 40
0.0
 41
0.0
  0
VERTEX
  5
   50F
  8
0
  6
CONTINUOUS
 10
-541.951990643621
 20
236.550824876078
 30
0.0
 40
0.0
 41
0.0
  0
VERTEX
  5
   510
  8
0
  6
CONTINUOUS
 10
-541.933925419304
 20
236.542372127922
 30
0.0
 40
0.0
 41
0.0
  0
VERTEX
  5
   511
  8
0
  6
CONTINUOUS
 10
-541.915634264774
 20
236.534335883416
 30
0.0
 40
0.0
 41
0.0
  0
VERTEX
  5
   512
  8
0
  6
CONTINUOUS
 10
-541.89711805994
 20
236.52671586232
 30
0.0
 40
0.0
 41
0.0
  0
VERTEX
  5
   513
  8
0
  6
CONTINUOUS
 10
-541.878377760322
 20
236.519511663661
 30
0.0
 40
0.0
 41
0.0
  0
VERTEX
  5
   514
  8
0
  6
CONTINUOUS
 10
-541.859414395786
 20
236.512722767225
 30
0.0
 40
0.0
 41
0.0
  0
VERTEX
  5
   515
  8
0
  6
CONTINUOUS
 10
-541.84022906928
 20
236.506348535055
 30
0.0
 40
0.0
 41
0.0
  0
VERTEX
  5
   516
  8
0
  6
CONTINUOUS
 10
-541.820822955571
 20
236.500388212945
 30
0.0
 40
0.0
 41
0.0
  0
VERTEX
  5
   517
  8
0
  6
CONTINUOUS
 10
-541.801197299978
 20
236.49484093193
 30
0.0
 40
0.0
 41
0.0
  0
VERTEX
  5
   518
  8
0
  6
CONTINUOUS
 10
-541.781353417109
 20
236.489705709787
 30
0.0
 40
0.0
 41
0.0
  0
VERTEX
  5
   519
  8
0
  6
CONTINUOUS
 10
-541.761292689595
 20
236.484981452526
 30
0.0
 40
0.0
 41
0.0
  0
VERTEX
  5
   51A
  8
0
  6
CONTINUOUS
 10
-541.741016566827
 20
236.480666955883
 30
0.0
 40
0.0
 41
0.0
  0
VERTEX
  5
   51B
  8
0
  6
CONTINUOUS
 10
-541.720526563693
 20
236.476760906819
 30
0.0
 40
0.0
 41
0.0
  0
VERTEX
  5
   51C
  8
0
  6
CONTINUOUS
 10
-541.699824259306
 20
236.47326188501
 30
0.0
 40
0.0
 41
0.0
  0
VERTEX
  5
   51D
  8
0
  6
CONTINUOUS
 10
-541.67891129575
 20
236.470168364344
 30
0.0
 40
0.0
 41
0.0
  0
VERTEX
  5
   51E
  8
0
  6
CONTINUOUS
 10
-541.657789376807
 20
236.467478714416
 30
0.0
 40
0.0
 41
0.0
  0
VERTEX
  5
   51F
  8
0
  6
CONTINUOUS
 10
-541.636460266696
 20
236.465191202021
 30
0.0
 40
0.0
 41
0.0
  0
VERTEX
  5
   520
  8
0
  6
CONTINUOUS
 10
-541.61492578881
 20
236.463303992647
 30
0.0
 40
0.0
 41
0.0
  0
VERTEX
  5
   521
  8
0
  6
CONTINUOUS
 10
-541.593187824446
 20
236.461815151973
 30
0.0
 40
0.0
 41
0.0
  0
VERTEX
  5
   522
  8
0
  6
CONTINUOUS
 10
-541.571248311548
 20
236.460722647362
 30
0.0
 40
0.0
 41
0.0
  0
VERTEX
  5
   523
  8
0
  6
CONTINUOUS
 10
-541.52677266754
 20
236.459718033168
 30
0.0
 40
0.0
 41
0.0
  0
VERTEX
  5
   524
  8
0
  6
CONTINUOUS
 10
-541.481515445124
 20
236.460271979436
 30
0.0
 40
0.0
 41
0.0
  0
VERTEX
  5
   525
  8
0
  6
CONTINUOUS
 10
-541.435494057993
 20
236.462364838126
 30
0.0
 40
0.0
 41
0.0
  0
VERTEX
  5
   526
  8
0
  6
CONTINUOUS
 10
-541.388726704728
 20
236.465975531615
 30
0.0
 40
0.0
 41
0.0
  0
VERTEX
  5
   527
  8
0
  6
CONTINUOUS
 10
-541.341232328331
 20
236.471081600515
 30
0.0
 40
0.0
 41
0.0
  0
VERTEX
  5
   528
  8
0
  6
CONTINUOUS
 10
-541.293030575761
 20
236.477659251504
 30
0.0
 40
0.0
 41
0.0
  0
VERTEX
  5
   529
  8
0
  6
CONTINUOUS
 10
-541.268670755615
 20
236.481492131888
 30
0.0
 40
0.0
 41
0.0
  0
VERTEX
  5
   52A
  8
0
  6
CONTINUOUS
 10
-541.219446217154
 20
236.490229743227
 30
0.0
 40
0.0
 41
0.0
  0
VERTEX
  5
   52B
  8
0
  6
CONTINUOUS
 10
-541.169566234168
 20
236.500373931209
 30
0.0
 40
0.0
 41
0.0
  0
VERTEX
  5
   52C
  8
0
  6
CONTINUOUS
 10
-541.119052598793
 20
236.511896610338
 30
0.0
 40
0.0
 41
0.0
  0
VERTEX
  5
   52D
  8
0
  6
CONTINUOUS
 10
-541.067927625023
 20
236.524768576389
 30
0.0
 40
0.0
 41
0.0
  0
VERTEX
  5
   52E
  8
0
  6
CONTINUOUS
 10
-541.016214108247
 20
236.538959554231
 30
0.0
 40
0.0
 41
0.0
  0
VERTEX
  5
   52F
  8
0
  6
CONTINUOUS
 10
-540.96393528478
 20
236.554438245649
 30
0.0
 40
0.0
 41
0.0
  0
VERTEX
  5
   530
  8
0
  6
CONTINUOUS
 10
-540.9111147914
 20
236.57117237717
 30
0.0
 40
0.0
 41
0.0
  0
VERTEX
  5
   531
  8
0
  6
CONTINUOUS
 10
-540.857776624878
 20
236.589128747884
 30
0.0
 40
0.0
 41
0.0
  0
VERTEX
  5
   532
  8
0
  6
CONTINUOUS
 10
-540.803945101516
 20
236.608273277273
 30
0.0
 40
0.0
 41
0.0
  0
VERTEX
  5
   533
  8
0
  6
CONTINUOUS
 10
-540.749644816679
 20
236.628571053028
 30
0.0
 40
0.0
 41
0.0
  0
VERTEX
  5
   534
  8
0
  6
CONTINUOUS
 10
-540.694900604328
 20
236.649986378879
 30
0.0
 40
0.0
 41
0.0
  0
VERTEX
  5
   535
  8
0
  6
CONTINUOUS
 10
-540.639737496558
 20
236.672482822416
 30
0.0
 40
0.0
 41
0.0
  0
VERTEX
  5
   536
  8
0
  6
CONTINUOUS
 10
-540.584180683127
 20
236.696023262914
 30
0.0
 40
0.0
 41
0.0
  0
VERTEX
  5
   537
  8
0
  6
CONTINUOUS
 10
-540.528255470993
 20
236.720569939154
 30
0.0
 40
0.0
 41
0.0
  0
VERTEX
  5
   538
  8
0
  6
CONTINUOUS
 10
-540.471987243848
 20
236.746084497251
 30
0.0
 40
0.0
 41
0.0
  0
VERTEX
  5
   539
  8
0
  6
CONTINUOUS
 10
-540.415401421652
 20
236.772528038475
 30
0.0
 40
0.0
 41
0.0
  0
VERTEX
  5
   53A
  8
0
  6
CONTINUOUS
 10
-540.358523420165
 20
236.799861167078
 30
0.0
 40
0.0
 41
0.0
  0
VERTEX
  5
   53B
  8
0
  6
CONTINUOUS
 10
-540.301378610483
 20
236.828044038112
 30
0.0
 40
0.0
 41
0.0
  0
VERTEX
  5
   53C
  8
0
  6
CONTINUOUS
 10
-540.243992278573
 20
236.857036405259
 30
0.0
 40
0.0
 41
0.0
  0
VERTEX
  5
   53D
  8
0
  6
CONTINUOUS
 10
-540.186389584803
 20
236.886797668653
 30
0.0
 40
0.0
 41
0.0
  0
VERTEX
  5
   53E
  8
0
  6
CONTINUOUS
 10
-540.12859552348
 20
236.917286922702
 30
0.0
 40
0.0
 41
0.0
  0
VERTEX
  5
   53F
  8
0
  6
CONTINUOUS
 10
-540.070634882383
 20
236.948463003914
 30
0.0
 40
0.0
 41
0.0
  0
VERTEX
  5
   540
  8
0
  6
CONTINUOUS
 10
-540.012532202296
 20
236.98028453872
 30
0.0
 40
0.0
 41
0.0
  0
VERTEX
  5
   541
  8
0
  6
CONTINUOUS
 10
-539.954311736541
 20
237.012709991297
 30
0.0
 40
0.0
 41
0.0
  0
VERTEX
  5
   542
  8
0
  6
CONTINUOUS
 10
-539.895997410518
 20
237.045697711394
 30
0.0
 40
0.0
 41
0.0
  0
VERTEX
  5
   543
  8
0
  6
CONTINUOUS
 10
-539.779180996824
 20
237.113193067943
 30
0.0
 40
0.0
 41
0.0
  0
VERTEX
  5
   544
  8
0
  6
CONTINUOUS
 10
-539.662266268159
 20
237.182436935083
 30
0.0
 40
0.0
 41
0.0
  0
VERTEX
  5
   545
  8
0
  6
CONTINUOUS
 10
-539.54542869482
 20
237.25309686939
 30
0.0
 40
0.0
 41
0.0
  0
VERTEX
  5
   546
  8
0
  6
CONTINUOUS
 10
-539.428834615553
 20
237.324843187671
 30
0.0
 40
0.0
 41
0.0
  0
VERTEX
  5
   547
  8
0
  6
CONTINUOUS
 10
-539.312639942633
 20
237.397350497321
 30
0.0
 40
0.0
 41
0.0
  0
VERTEX
  5
   548
  8
0
  6
CONTINUOUS
 10
-539.196988866958
 20
237.470299226692
 30
0.0
 40
0.0
 41
0.0
  0
VERTEX
  5
   549
  8
0
  6
CONTINUOUS
 10
-538.970933017134
 20
237.614295975473
 30
0.0
 40
0.0
 41
0.0
  0
VERTEX
  5
   54A
  8
0
  6
CONTINUOUS
 10
-538.748339626092
 20
237.756507293975
 30
0.0
 40
0.0
 41
0.0
  0
VERTEX
  5
   54B
  8
0
  6
CONTINUOUS
 10
-538.602195556444
 20
237.849253014321
 30
0.0
 40
0.0
 41
0.0
  0
VERTEX
  5
   54C
  8
0
  6
CONTINUOUS
 10
-538.45802758363
 20
237.939643116085
 30
0.0
 40
0.0
 41
0.0
  0
VERTEX
  5
   54D
  8
0
  6
CONTINUOUS
 10
-538.386720436072
 20
237.983775181292
 30
0.0
 40
0.0
 41
0.0
  0
VERTEX
  5
   54E
  8
0
  6
CONTINUOUS
 10
-538.315946081523
 20
238.027106711119
 30
0.0
 40
0.0
 41
0.0
  0
VERTEX
  5
   54F
  8
0
  6
CONTINUOUS
 10
-538.245713181637
 20
238.069571305281
 30
0.0
 40
0.0
 41
0.0
  0
VERTEX
  5
   550
  8
0
  6
CONTINUOUS
 10
-538.176028460987
 20
238.111104608675
 30
0.0
 40
0.0
 41
0.0
  0
VERTEX
  5
   551
  8
0
  6
CONTINUOUS
 10
-538.106896768625
 20
238.151644343437
 30
0.0
 40
0.0
 41
0.0
  0
VERTEX
  5
   552
  8
0
  6
CONTINUOUS
 10
-538.038321139636
 20
238.191130340988
 30
0.0
 40
0.0
 41
0.0
  0
VERTEX
  5
   553
  8
0
  6
CONTINUOUS
 10
-537.970302856691
 20
238.22950457408
 30
0.0
 40
0.0
 41
0.0
  0
VERTEX
  5
   554
  8
0
  6
CONTINUOUS
 10
-537.902841511607
 20
238.266711188854
 30
0.0
 40
0.0
 41
0.0
  0
VERTEX
  5
   555
  8
0
  6
CONTINUOUS
 10
-537.835935066898
 20
238.302696536882
 30
0.0
 40
0.0
 41
0.0
  0
VERTEX
  5
   556
  8
0
  6
CONTINUOUS
 10
-537.769579917329
 20
238.33740920722
 30
0.0
 40
0.0
 41
0.0
  0
VERTEX
  5
   557
  8
0
  6
CONTINUOUS
 10
-537.703770951478
 20
238.370800058455
 30
0.0
 40
0.0
 41
0.0
  0
VERTEX
  5
   558
  8
0
  6
CONTINUOUS
 10
-537.638501613284
 20
238.402822250756
 30
0.0
 40
0.0
 41
0.0
  0
VERTEX
  5
   559
  8
0
  6
CONTINUOUS
 10
-537.573763963607
 20
238.433431277926
 30
0.0
 40
0.0
 41
0.0
  0
VERTEX
  5
   55A
  8
0
  6
CONTINUOUS
 10
-537.509548741781
 20
238.462584999446
 30
0.0
 40
0.0
 41
0.0
  0
VERTEX
  5
   55B
  8
0
  6
CONTINUOUS
 10
-537.445845427169
 20
238.490243672529
 30
0.0
 40
0.0
 41
0.0
  0
VERTEX
  5
   55C
  8
0
  6
CONTINUOUS
 10
-537.382642300719
 20
238.516369984165
 30
0.0
 40
0.0
 41
0.0
  0
VERTEX
  5
   55D
  8
0
  6
CONTINUOUS
 10
-537.319926506521
 20
238.540929083175
 30
0.0
 40
0.0
 41
0.0
  0
VERTEX
  5
   55E
  8
0
  6
CONTINUOUS
 10
-537.257684113358
 20
238.56388861226
 30
0.0
 40
0.0
 41
0.0
  0
VERTEX
  5
   55F
  8
0
  6
CONTINUOUS
 10
-537.195900176266
 20
238.585218740045
 30
0.0
 40
0.0
 41
0.0
  0
VERTEX
  5
   560
  8
0
  6
CONTINUOUS
 10
-537.134558798085
 20
238.604892193137
 30
0.0
 40
0.0
 41
0.0
  0
VERTEX
  5
   561
  8
0
  6
CONTINUOUS
 10
-537.073643191018
 20
238.622884288165
 30
0.0
 40
0.0
 41
0.0
  0
VERTEX
  5
   562
  8
0
  6
CONTINUOUS
 10
-537.013135738182
 20
238.639172963839
 30
0.0
 40
0.0
 41
0.0
  0
VERTEX
  5
   563
  8
0
  6
CONTINUOUS
 10
-536.953018055167
 20
238.653738812991
 30
0.0
 40
0.0
 41
0.0
  0
VERTEX
  5
   564
  8
0
  6
CONTINUOUS
 10
-536.923099437492
 20
238.660370346506
 30
0.0
 40
0.0
 41
0.0
  0
VERTEX
  5
   565
  8
0
  6
CONTINUOUS
 10
-536.893271051592
 20
238.66656511463
 30
0.0
 40
0.0
 41
0.0
  0
VERTEX
  5
   566
  8
0
  6
CONTINUOUS
 10
-536.863530410957
 20
238.67232145221
 30
0.0
 40
0.0
 41
0.0
  0
VERTEX
  5
   567
  8
0
  6
CONTINUOUS
 10
-536.833874992653
 20
238.677637865989
 30
0.0
 40
0.0
 41
0.0
  0
VERTEX
  5
   568
  8
0
  6
CONTINUOUS
 10
-536.804302239238
 20
238.682513035601
 30
0.0
 40
0.0
 41
0.0
  0
VERTEX
  5
   569
  8
0
  6
CONTINUOUS
 10
-536.774809560689
 20
238.686945814576
 30
0.0
 40
0.0
 41
0.0
  0
VERTEX
  5
   56A
  8
0
  6
CONTINUOUS
 10
-536.745394336323
 20
238.690935231341
 30
0.0
 40
0.0
 41
0.0
  0
VERTEX
  5
   56B
  8
0
  6
CONTINUOUS
 10
-536.716053916727
 20
238.694480490221
 30
0.0
 40
0.0
 41
0.0
  0
VERTEX
  5
   56C
  8
0
  6
CONTINUOUS
 10
-536.686785625672
 20
238.697580972441
 30
0.0
 40
0.0
 41
0.0
  0
VERTEX
  5
   56D
  8
0
  6
CONTINUOUS
 10
-536.657586762044
 20
238.700236237127
 30
0.0
 40
0.0
 41
0.0
  0
VERTEX
  5
   56E
  8
0
  6
CONTINUOUS
 10
-536.628454601767
 20
238.702446022309
 30
0.0
 40
0.0
 41
0.0
  0
VERTEX
  5
   56F
  8
0
  6
CONTINUOUS
 10
-536.599386399721
 20
238.704210245921
 30
0.0
 40
0.0
 41
0.0
  0
VERTEX
  5
   570
  8
0
  6
CONTINUOUS
 10
-536.570379391673
 20
238.705529006802
 30
0.0
 40
0.0
 41
0.0
  0
VERTEX
  5
   571
  8
0
  6
CONTINUOUS
 10
-536.541430796195
 20
238.7064025857
 30
0.0
 40
0.0
 41
0.0
  0
VERTEX
  5
   572
  8
0
  6
CONTINUOUS
 10
-536.512537816591
 20
238.706831446272
 30
0.0
 40
0.0
 41
0.0
  0
VERTEX
  5
   573
  8
0
  6
CONTINUOUS
 10
-536.483697642818
 20
238.706816236083
 30
0.0
 40
0.0
 41
0.0
  0
VERTEX
  5
   574
  8
0
  6
CONTINUOUS
 10
-536.454907453412
 20
238.706357787615
 30
0.0
 40
0.0
 41
0.0
  0
VERTEX
  5
   575
  8
0
  6
CONTINUOUS
 10
-536.42616441741
 20
238.705457119261
 30
0.0
 40
0.0
 41
0.0
  0
VERTEX
  5
   576
  8
0
  6
CONTINUOUS
 10
-536.397465696274
 20
238.704115436327
 30
0.0
 40
0.0
 41
0.0
  0
VERTEX
  5
   577
  8
0
  6
CONTINUOUS
 10
-536.368808445815
 20
238.702334132041
 30
0.0
 40
0.0
 41
0.0
  0
VERTEX
  5
   578
  8
0
  6
CONTINUOUS
 10
-536.340189818117
 20
238.700114788546
 30
0.0
 40
0.0
 41
0.0
  0
VERTEX
  5
   579
  8
0
  6
CONTINUOUS
 10
-536.311606963458
 20
238.697459177904
 30
0.0
 40
0.0
 41
0.0
  0
VERTEX
  5
   57A
  8
0
  6
CONTINUOUS
 10
-536.283057032237
 20
238.694369263103
 30
0.0
 40
0.0
 41
0.0
  0
VERTEX
  5
   57B
  8
0
  6
CONTINUOUS
 10
-536.254537176896
 20
238.690847199048
 30
0.0
 40
0.0
 41
0.0
  0
VERTEX
  5
   57C
  8
0
  6
CONTINUOUS
 10
-536.226044553843
 20
238.686895333574
 30
0.0
 40
0.0
 41
0.0
  0
VERTEX
  5
   57D
  8
0
  6
CONTINUOUS
 10
-536.197576325377
 20
238.68251620844
 30
0.0
 40
0.0
 41
0.0
  0
VERTEX
  5
   57E
  8
0
  6
CONTINUOUS
 10
-536.16912966161
 20
238.67771256033
 30
0.0
 40
0.0
 41
0.0
  0
VERTEX
  5
   57F
  8
0
  6
CONTINUOUS
 10
-536.140701742394
 20
238.672487321863
 30
0.0
 40
0.0
 41
0.0
  0
VERTEX
  5
   580
  8
0
  6
CONTINUOUS
 10
-536.112289759238
 20
238.666843622583
 30
0.0
 40
0.0
 41
0.0
  0
VERTEX
  5
   581
  8
0
  6
CONTINUOUS
 10
-536.083890917239
 20
238.660784789969
 30
0.0
 40
0.0
 41
0.0
  0
VERTEX
  5
   582
  8
0
  6
CONTINUOUS
 10
-536.027121556562
 20
238.647436030328
 30
0.0
 40
0.0
 41
0.0
  0
VERTEX
  5
   583
  8
0
  6
CONTINUOUS
 10
-535.97037164592
 20
238.632471659473
 30
0.0
 40
0.0
 41
0.0
  0
VERTEX
  5
   584
  8
0
  6
CONTINUOUS
 10
-535.91361951134
 20
238.615925524955
 30
0.0
 40
0.0
 41
0.0
  0
VERTEX
  5
   585
  8
0
  6
CONTINUOUS
 10
-535.856843880866
 20
238.597834737389
 30
0.0
 40
0.0
 41
0.0
  0
VERTEX
  5
   586
  8
0
  6
CONTINUOUS
 10
-535.800023946122
 20
238.578239702505
 30
0.0
 40
0.0
 41
0.0
  0
VERTEX
  5
   587
  8
0
  6
CONTINUOUS
 10
-535.743139423861
 20
238.557184153197
 30
0.0
 40
0.0
 41
0.0
  0
VERTEX
  5
   588
  8
0
  6
CONTINUOUS
 10
-535.686170617525
 20
238.534715181571
 30
0.0
 40
0.0
 41
0.0
  0
VERTEX
  5
   589
  8
0
  6
CONTINUOUS
 10
-535.629098478796
 20
238.510883270997
 30
0.0
 40
0.0
 41
0.0
  0
VERTEX
  5
   58A
  8
0
  6
CONTINUOUS
 10
-535.571904669154
 20
238.485742328158
 30
0.0
 40
0.0
 41
0.0
  0
VERTEX
  5
   58B
  8
0
  6
CONTINUOUS
 10
-535.514571621433
 20
238.459349715098
 30
0.0
 40
0.0
 41
0.0
  0
VERTEX
  5
   58C
  8
0
  6
CONTINUOUS
 10
-535.457082601373
 20
238.43176628127
 30
0.0
 40
0.0
 41
0.0
  0
VERTEX
  5
   58D
  8
0
  6
CONTINUOUS
 10
-535.399421769178
 20
238.403056395591
 30
0.0
 40
0.0
 41
0.0
  0
VERTEX
  5
   58E
  8
0
  6
CONTINUOUS
 10
-535.341574241069
 20
238.373287978486
 30
0.0
 40
0.0
 41
0.0
  0
VERTEX
  5
   58F
  8
0
  6
CONTINUOUS
 10
-535.283526150842
 20
238.34253253394
 30
0.0
 40
0.0
 41
0.0
  0
VERTEX
  5
   590
  8
0
  6
CONTINUOUS
 10
-535.225264711422
 20
238.310865181546
 30
0.0
 40
0.0
 41
0.0
  0
VERTEX
  5
   591
  8
0
  6
CONTINUOUS
 10
-535.166778276415
 20
238.278364688557
 30
0.0
 40
0.0
 41
0.0
  0
VERTEX
  5
   592
  8
0
  6
CONTINUOUS
 10
-535.108056401671
 20
238.245113501932
 30
0.0
 40
0.0
 41
0.0
  0
VERTEX
  5
   593
  8
0
  6
CONTINUOUS
 10
-534.989870936884
 20
238.17670742645
 30
0.0
 40
0.0
 41
0.0
  0
VERTEX
  5
   594
  8
0
  6
CONTINUOUS
 10
-534.930393023729
 20
238.141736118496
 30
0.0
 40
0.0
 41
0.0
  0
VERTEX
  5
   595
  8
0
  6
CONTINUOUS
 10
-534.68981456572
 20
237.99904886385
 30
0.0
 40
0.0
 41
0.0
  0
VERTEX
  5
   596
  8
0
  6
CONTINUOUS
 10
-534.567915785562
 20
237.927538060032
 30
0.0
 40
0.0
 41
0.0
  0
VERTEX
  5
   597
  8
0
  6
CONTINUOUS
 10
-534.506573589661
 20
237.892146970892
 30
0.0
 40
0.0
 41
0.0
  0
VERTEX
  5
   598
  8
0
  6
CONTINUOUS
 10
-534.444978020929
 20
237.857164131525
 30
0.0
 40
0.0
 41
0.0
  0
VERTEX
  5
   599
  8
0
  6
CONTINUOUS
 10
-534.383137863392
 20
237.822718645239
 30
0.0
 40
0.0
 41
0.0
  0
VERTEX
  5
   59A
  8
0
  6
CONTINUOUS
 10
-534.321063903533
 20
237.788943711695
 30
0.0
 40
0.0
 41
0.0
  0
VERTEX
  5
   59B
  8
0
  6
CONTINUOUS
 10
-534.25876899185
 20
237.755976658952
 30
0.0
 40
0.0
 41
0.0
  0
VERTEX
  5
   59C
  8
0
  6
CONTINUOUS
 10
-534.196268104405
 20
237.723958975517
 30
0.0
 40
0.0
 41
0.0
  0
VERTEX
  5
   59D
  8
0
  6
CONTINUOUS
 10
-534.13135741029
 20
237.691964265736
 30
0.0
 40
0.0
 41
0.0
  0
VERTEX
  5
   59E
  8
0
  6
CONTINUOUS
 10
-534.066265637992
 20
237.661308824552
 30
0.0
 40
0.0
 41
0.0
  0
VERTEX
  5
   59F
  8
0
  6
CONTINUOUS
 10
-534.00101565723
 20
237.632158381708
 30
0.0
 40
0.0
 41
0.0
  0
VERTEX
  5
   5A0
  8
0
  6
CONTINUOUS
 10
-533.968338657028
 20
237.618198331975
 30
0.0
 40
0.0
 41
0.0
  0
VERTEX
  5
   5A1
  8
0
  6
CONTINUOUS
 10
-533.93563086218
 20
237.604674587858
 30
0.0
 40
0.0
 41
0.0
  0
VERTEX
  5
   5A2
  8
0
  6
CONTINUOUS
 10
-533.902895109946
 20
237.591605985471
 30
0.0
 40
0.0
 41
0.0
  0
VERTEX
  5
   5A3
  8
0
  6
CONTINUOUS
 10
-533.87013414163
 20
237.579010547617
 30
0.0
 40
0.0
 41
0.0
  0
VERTEX
  5
   5A4
  8
0
  6
CONTINUOUS
 10
-533.835840388991
 20
237.56635997757
 30
0.0
 40
0.0
 41
0.0
  0
VERTEX
  5
   5A5
  8
0
  6
CONTINUOUS
 10
-533.801524715966
 20
237.554264127466
 30
0.0
 40
0.0
 41
0.0
  0
VERTEX
  5
   5A6
  8
0
  6
CONTINUOUS
 10
-533.767189748214
 20
237.542740017502
 30
0.0
 40
0.0
 41
0.0
  0
VERTEX
  5
   5A7
  8
0
  6
CONTINUOUS
 10
-533.732837927557
 20
237.531803406577
 30
0.0
 40
0.0
 41
0.0
  0
VERTEX
  5
   5A8
  8
0
  6
CONTINUOUS
 10
-533.698471516037
 20
237.521468815686
 30
0.0
 40
0.0
 41
0.0
  0
VERTEX
  5
   5A9
  8
0
  6
CONTINUOUS
 10
-533.664092599971
 20
237.511749551302
 30
0.0
 40
0.0
 41
0.0
  0
VERTEX
  5
   5AA
  8
0
  6
CONTINUOUS
 10
-533.629703094013
 20
237.502657728764
 30
0.0
 40
0.0
 41
0.0
  0
VERTEX
  5
   5AB
  8
0
  6
CONTINUOUS
 10
-533.595304745209
 20
237.494204295664
 30
0.0
 40
0.0
 41
0.0
  0
VERTEX
  5
   5AC
  8
0
  6
CONTINUOUS
 10
-533.560899137054
 20
237.486399055232
 30
0.0
 40
0.0
 41
0.0
  0
VERTEX
  5
   5AD
  8
0
  6
CONTINUOUS
 10
-533.52648769355
 20
237.479250689723
 30
0.0
 40
0.0
 41
0.0
  0
VERTEX
  5
   5AE
  8
0
  6
CONTINUOUS
 10
-533.492071683264
 20
237.472766783807
 30
0.0
 40
0.0
 41
0.0
  0
VERTEX
  5
   5AF
  8
0
  6
CONTINUOUS
 10
-533.457652223384
 20
237.466953847947
 30
0.0
 40
0.0
 41
0.0
  0
VERTEX
  5
   5B0
  8
0
  6
CONTINUOUS
 10
-533.423230283778
 20
237.461817341796
 30
0.0
 40
0.0
 41
0.0
  0
VERTEX
  5
   5B1
  8
0
  6
CONTINUOUS
 10
-533.388806691051
 20
237.457361697576
 30
0.0
 40
0.0
 41
0.0
  0
VERTEX
  5
   5B2
  8
0
  6
CONTINUOUS
 10
-533.354382132603
 20
237.453590343466
 30
0.0
 40
0.0
 41
0.0
  0
VERTEX
  5
   5B3
  8
0
  6
CONTINUOUS
 10
-533.319957160684
 20
237.450505726991
 30
0.0
 40
0.0
 41
0.0
  0
VERTEX
  5
   5B4
  8
0
  6
CONTINUOUS
 10
-533.285532196455
 20
237.448109338405
 30
0.0
 40
0.0
 41
0.0
  0
VERTEX
  5
   5B5
  8
0
  6
CONTINUOUS
 10
-533.251107534043
 20
237.446401734082
 30
0.0
 40
0.0
 41
0.0
  0
VERTEX
  5
   5B6
  8
0
  6
CONTINUOUS
 10
-533.216683344597
 20
237.445382559898
 30
0.0
 40
0.0
 41
0.0
  0
VERTEX
  5
   5B7
  8
0
  6
CONTINUOUS
 10
-533.182259680352
 20
237.445050574619
 30
0.0
 40
0.0
 41
0.0
  0
VERTEX
  5
   5B8
  8
0
  6
CONTINUOUS
 10
-533.147836478678
 20
237.44540367329
 30
0.0
 40
0.0
 41
0.0
  0
VERTEX
  5
   5B9
  8
0
  6
CONTINUOUS
 10
-533.113413566144
 20
237.446438910615
 30
0.0
 40
0.0
 41
0.0
  0
VERTEX
  5
   5BA
  8
0
  6
CONTINUOUS
 10
-533.078990662571
 20
237.448152524353
 30
0.0
 40
0.0
 41
0.0
  0
VERTEX
  5
   5BB
  8
0
  6
CONTINUOUS
 10
-533.044567385093
 20
237.450539958696
 30
0.0
 40
0.0
 41
0.0
  0
VERTEX
  5
   5BC
  8
0
  6
CONTINUOUS
 10
-533.010143252211
 20
237.453595887659
 30
0.0
 40
0.0
 41
0.0
  0
VERTEX
  5
   5BD
  8
0
  6
CONTINUOUS
 10
-532.975717687854
 20
237.457314238468
 30
0.0
 40
0.0
 41
0.0
  0
VERTEX
  5
   5BE
  8
0
  6
CONTINUOUS
 10
-532.941290025435
 20
237.461688214943
 30
0.0
 40
0.0
 41
0.0
  0
VERTEX
  5
   5BF
  8
0
  6
CONTINUOUS
 10
-532.906859511906
 20
237.466710320887
 30
0.0
 40
0.0
 41
0.0
  0
VERTEX
  5
   5C0
  8
0
  6
CONTINUOUS
 10
-532.872425311819
 20
237.472372383473
 30
0.0
 40
0.0
 41
0.0
  0
VERTEX
  5
   5C1
  8
0
  6
CONTINUOUS
 10
-532.837986511383
 20
237.478665576626
 30
0.0
 40
0.0
 41
0.0
  0
VERTEX
  5
   5C2
  8
0
  6
CONTINUOUS
 10
-532.803542122518
 20
237.485580444416
 30
0.0
 40
0.0
 41
0.0
  0
VERTEX
  5
   5C3
  8
0
  6
CONTINUOUS
 10
-532.769091086917
 20
237.493106924441
 30
0.0
 40
0.0
 41
0.0
  0
VERTEX
  5
   5C4
  8
0
  6
CONTINUOUS
 10
-532.734632280101
 20
237.50123437121
 30
0.0
 40
0.0
 41
0.0
  0
VERTEX
  5
   5C5
  8
0
  6
CONTINUOUS
 10
-532.700164515477
 20
237.509951579539
 30
0.0
 40
0.0
 41
0.0
  0
VERTEX
  5
   5C6
  8
0
  6
CONTINUOUS
 10
-532.665686548394
 20
237.519246807927
 30
0.0
 40
0.0
 41
0.0
  0
VERTEX
  5
   5C7
  8
0
  6
CONTINUOUS
 10
-532.631197080204
 20
237.52910780195
 30
0.0
 40
0.0
 41
0.0
  0
VERTEX
  5
   5C8
  8
0
  6
CONTINUOUS
 10
-532.596694762315
 20
237.539521817644
 30
0.0
 40
0.0
 41
0.0
  0
VERTEX
  5
   5C9
  8
0
  6
CONTINUOUS
 10
-532.562178200252
 20
237.550475644891
 30
0.0
 40
0.0
 41
0.0
  0
VERTEX
  5
   5CA
  8
0
  6
CONTINUOUS
 10
-532.527645957713
 20
237.561955630808
 30
0.0
 40
0.0
 41
0.0
  0
VERTEX
  5
   5CB
  8
0
  6
CONTINUOUS
 10
-532.493096560626
 20
237.573947703132
 30
0.0
 40
0.0
 41
0.0
  0
VERTEX
  5
   5CC
  8
0
  6
CONTINUOUS
 10
-532.458528501208
 20
237.586437393607
 30
0.0
 40
0.0
 41
0.0
  0
VERTEX
  5
   5CD
  8
0
  6
CONTINUOUS
 10
-532.423940242021
 20
237.599409861371
 30
0.0
 40
0.0
 41
0.0
  0
VERTEX
  5
   5CE
  8
0
  6
CONTINUOUS
 10
-532.389330220029
 20
237.612849916338
 30
0.0
 40
0.0
 41
0.0
  0
VERTEX
  5
   5CF
  8
0
  6
CONTINUOUS
 10
-532.320038531849
 20
237.641070421771
 30
0.0
 40
0.0
 41
0.0
  0
VERTEX
  5
   5D0
  8
0
  6
CONTINUOUS
 10
-532.285353648123
 20
237.655818956447
 30
0.0
 40
0.0
 41
0.0
  0
VERTEX
  5
   5D1
  8
0
  6
CONTINUOUS
 10
-532.21589768121
 20
237.686510847605
 30
0.0
 40
0.0
 41
0.0
  0
VERTEX
  5
   5D2
  8
0
  6
CONTINUOUS
 10
-532.146315911754
 20
237.718684244135
 30
0.0
 40
0.0
 41
0.0
  0
VERTEX
  5
   5D3
  8
0
  6
CONTINUOUS
 10
-532.07659534647
 20
237.75220270587
 30
0.0
 40
0.0
 41
0.0
  0
VERTEX
  5
   5D4
  8
0
  6
CONTINUOUS
 10
-532.006723166795
 20
237.786927572772
 30
0.0
 40
0.0
 41
0.0
  0
VERTEX
  5
   5D5
  8
0
  6
CONTINUOUS
 10
-531.936686858721
 20
237.822718713301
 30
0.0
 40
0.0
 41
0.0
  0
VERTEX
  5
   5D6
  8
0
  6
CONTINUOUS
 10
-531.86647434264
 20
237.859435272785
 30
0.0
 40
0.0
 41
0.0
  0
VERTEX
  5
   5D7
  8
0
  6
CONTINUOUS
 10
-531.796074103177
 20
237.896936421785
 30
0.0
 40
0.0
 41
0.0
  0
VERTEX
  5
   5D8
  8
0
  6
CONTINUOUS
 10
-531.65466799281
 20
237.973733786956
 30
0.0
 40
0.0
 41
0.0
  0
VERTEX
  5
   5D9
  8
0
  6
CONTINUOUS
 10
-531.369189427266
 20
238.130725015278
 30
0.0
 40
0.0
 41
0.0
  0
VERTEX
  5
   5DA
  8
0
  6
CONTINUOUS
 10
-531.22502133029
 20
238.208892338384
 30
0.0
 40
0.0
 41
0.0
  0
VERTEX
  5
   5DB
  8
0
  6
CONTINUOUS
 10
-531.152570757301
 20
238.247492074035
 30
0.0
 40
0.0
 41
0.0
  0
VERTEX
  5
   5DC
  8
0
  6
CONTINUOUS
 10
-531.079876904554
 20
238.28563413363
 30
0.0
 40
0.0
 41
0.0
  0
VERTEX
  5
   5DD
  8
0
  6
CONTINUOUS
 10
-530.998144462238
 20
238.327713232985
 30
0.0
 40
0.0
 41
0.0
  0
VERTEX
  5
   5DE
  8
0
  6
CONTINUOUS
 10
-530.916118445479
 20
238.368988437273
 30
0.0
 40
0.0
 41
0.0
  0
VERTEX
  5
   5DF
  8
0
  6
CONTINUOUS
 10
-530.833809749382
 20
238.409358333702
 30
0.0
 40
0.0
 41
0.0
  0
VERTEX
  5
   5E0
  8
0
  6
CONTINUOUS
 10
-530.75123236643
 20
238.448734814576
 30
0.0
 40
0.0
 41
0.0
  0
VERTEX
  5
   5E1
  8
0
  6
CONTINUOUS
 10
-530.66840326295
 20
238.487042633963
 30
0.0
 40
0.0
 41
0.0
  0
VERTEX
  5
   5E2
  8
0
  6
CONTINUOUS
 10
-530.58534225556
 20
238.524218964356
 30
0.0
 40
0.0
 41
0.0
  0
VERTEX
  5
   5E3
  8
0
  6
CONTINUOUS
 10
-530.502071887629
 20
238.56021295334
 30
0.0
 40
0.0
 41
0.0
  0
VERTEX
  5
   5E4
  8
0
  6
CONTINUOUS
 10
-530.418617305733
 20
238.594985280253
 30
0.0
 40
0.0
 41
0.0
  0
VERTEX
  5
   5E5
  8
0
  6
CONTINUOUS
 10
-530.335006136109
 20
238.628507712855
 30
0.0
 40
0.0
 41
0.0
  0
VERTEX
  5
   5E6
  8
0
  6
CONTINUOUS
 10
-530.25126836111
 20
238.660762663988
 30
0.0
 40
0.0
 41
0.0
  0
VERTEX
  5
   5E7
  8
0
  6
CONTINUOUS
 10
-530.167436195665
 20
238.691742748243
 30
0.0
 40
0.0
 41
0.0
  0
VERTEX
  5
   5E8
  8
0
  6
CONTINUOUS
 10
-530.08354396373
 20
238.721450338623
 30
0.0
 40
0.0
 41
0.0
  0
VERTEX
  5
   5E9
  8
0
  6
CONTINUOUS
 10
-529.999627974747
 20
238.749897123207
 30
0.0
 40
0.0
 41
0.0
  0
VERTEX
  5
   5EA
  8
0
  6
CONTINUOUS
 10
-529.915726400097
 20
238.777103661815
 30
0.0
 40
0.0
 41
0.0
  0
VERTEX
  5
   5EB
  8
0
  6
CONTINUOUS
 10
-529.831879149559
 20
238.803098942674
 30
0.0
 40
0.0
 41
0.0
  0
VERTEX
  5
   5EC
  8
0
  6
CONTINUOUS
 10
-529.748127747762
 20
238.827919939078
 30
0.0
 40
0.0
 41
0.0
  0
VERTEX
  5
   5ED
  8
0
  6
CONTINUOUS
 10
-529.664515210646
 20
238.851611166057
 30
0.0
 40
0.0
 41
0.0
  0
VERTEX
  5
   5EE
  8
0
  6
CONTINUOUS
 10
-529.58108592191
 20
238.874224237038
 30
0.0
 40
0.0
 41
0.0
  0
VERTEX
  5
   5EF
  8
0
  6
CONTINUOUS
 10
-529.497885509477
 20
238.895817420509
 30
0.0
 40
0.0
 41
0.0
  0
VERTEX
  5
   5F0
  8
0
  6
CONTINUOUS
 10
-529.414960721941
 20
238.916455196689
 30
0.0
 40
0.0
 41
0.0
  0
VERTEX
  5
   5F1
  8
0
  6
CONTINUOUS
 10
-529.332359305031
 20
238.936207814183
 30
0.0
 40
0.0
 41
0.0
  0
VERTEX
  5
   5F2
  8
0
  6
CONTINUOUS
 10
-529.250129878058
 20
238.955150846655
 30
0.0
 40
0.0
 41
0.0
  0
VERTEX
  5
   5F3
  8
0
  6
CONTINUOUS
 10
-529.168321810379
 20
238.973364749488
 30
0.0
 40
0.0
 41
0.0
  0
VERTEX
  5
   5F4
  8
0
  6
CONTINUOUS
 10
-529.086985097847
 20
238.990934416447
 30
0.0
 40
0.0
 41
0.0
  0
VERTEX
  5
   5F5
  8
0
  6
CONTINUOUS
 10
-528.925928112865
 20
239.024500149716
 30
0.0
 40
0.0
 41
0.0
  0
VERTEX
  5
   5F6
  8
0
  6
CONTINUOUS
 10
-528.611710854171
 20
239.08802503156
 30
0.0
 40
0.0
 41
0.0
  0
VERTEX
  5
   5F7
  8
0
  6
CONTINUOUS
 10
-528.459368582679
 20
239.119600057476
 30
0.0
 40
0.0
 41
0.0
  0
VERTEX
  5
   5F8
  8
0
  6
CONTINUOUS
 10
-528.384566097679
 20
239.135704703245
 30
0.0
 40
0.0
 41
0.0
  0
VERTEX
  5
   5F9
  8
0
  6
CONTINUOUS
 10
-528.310742204026
 20
239.152160628069
 30
0.0
 40
0.0
 41
0.0
  0
VERTEX
  5
   5FA
  8
0
  6
CONTINUOUS
 10
-528.237945635133
 20
239.169072287781
 30
0.0
 40
0.0
 41
0.0
  0
VERTEX
  5
   5FB
  8
0
  6
CONTINUOUS
 10
-528.16622426838
 20
239.186543256572
 30
0.0
 40
0.0
 41
0.0
  0
VERTEX
  5
   5FC
  8
0
  6
CONTINUOUS
 10
-528.095625001571
 20
239.20467578365
 30
0.0
 40
0.0
 41
0.0
  0
VERTEX
  5
   5FD
  8
0
  6
CONTINUOUS
 10
-528.026193629388
 20
239.22357034991
 30
0.0
 40
0.0
 41
0.0
  0
VERTEX
  5
   5FE
  8
0
  6
CONTINUOUS
 10
-527.957974719846
 20
239.243325224594
 30
0.0
 40
0.0
 41
0.0
  0
VERTEX
  5
   5FF
  8
0
  6
CONTINUOUS
 10
-527.891011490752
 20
239.264036021956
 30
0.0
 40
0.0
 41
0.0
  0
VERTEX
  5
   600
  8
0
  6
CONTINUOUS
 10
-527.854067036439
 20
239.276089284249
 30
0.0
 40
0.0
 41
0.0
  0
VERTEX
  5
   601
  8
0
  6
CONTINUOUS
 10
-527.817536809154
 20
239.2884873586
 30
0.0
 40
0.0
 41
0.0
  0
VERTEX
  5
   602
  8
0
  6
CONTINUOUS
 10
-527.781427776648
 20
239.301245694474
 30
0.0
 40
0.0
 41
0.0
  0
VERTEX
  5
   603
  8
0
  6
CONTINUOUS
 10
-527.745746752867
 20
239.314379400299
 30
0.0
 40
0.0
 41
0.0
  0
VERTEX
  5
   604
  8
0
  6
CONTINUOUS
 10
-527.710500399661
 20
239.327903247269
 30
0.0
 40
0.0
 41
0.0
  0
VERTEX
  5
   605
  8
0
  6
CONTINUOUS
 10
-527.675695228506
 20
239.341831673152
 30
0.0
 40
0.0
 41
0.0
  0
VERTEX
  5
   606
  8
0
  6
CONTINUOUS
 10
-527.641337602218
 20
239.356178786096
 30
0.0
 40
0.0
 41
0.0
  0
VERTEX
  5
   607
  8
0
  6
CONTINUOUS
 10
-527.607433736669
 20
239.370958368439
 30
0.0
 40
0.0
 41
0.0
  0
VERTEX
  5
   608
  8
0
  6
CONTINUOUS
 10
-527.573989702508
 20
239.386183880507
 30
0.0
 40
0.0
 41
0.0
  0
VERTEX
  5
   609
  8
0
  6
CONTINUOUS
 10
-527.54101142687
 20
239.40186846443
 30
0.0
 40
0.0
 41
0.0
  0
VERTEX
  5
   60A
  8
0
  6
CONTINUOUS
 10
-527.508504695102
 20
239.418024947941
 30
0.0
 40
0.0
 41
0.0
  0
VERTEX
  5
   60B
  8
0
  6
CONTINUOUS
 10
-527.476475152472
 20
239.434665848186
 30
0.0
 40
0.0
 41
0.0
  0
VERTEX
  5
   60C
  8
0
  6
CONTINUOUS
 10
-527.444928305891
 20
239.451803375529
 30
0.0
 40
0.0
 41
0.0
  0
VERTEX
  5
   60D
  8
0
  6
CONTINUOUS
 10
-527.413869525624
 20
239.469449437361
 30
0.0
 40
0.0
 41
0.0
  0
VERTEX
  5
   60E
  8
0
  6
CONTINUOUS
 10
-527.383304047013
 20
239.487615641903
 30
0.0
 40
0.0
 41
0.0
  0
VERTEX
  5
   60F
  8
0
  6
CONTINUOUS
 10
-527.353236972191
 20
239.506313302012
 30
0.0
 40
0.0
 41
0.0
  0
VERTEX
  5
   610
  8
0
  6
CONTINUOUS
 10
-527.323673271796
 20
239.525553438991
 30
0.0
 40
0.0
 41
0.0
  0
VERTEX
  5
   611
  8
0
  6
CONTINUOUS
 10
-527.294617786691
 20
239.545346786395
 30
0.0
 40
0.0
 41
0.0
  0
VERTEX
  5
   612
  8
0
  6
CONTINUOUS
 10
-527.266075229682
 20
239.565703793832
 30
0.0
 40
0.0
 41
0.0
  0
VERTEX
  5
   613
  8
0
  6
CONTINUOUS
 10
-527.238050187229
 20
239.586634630775
 30
0.0
 40
0.0
 41
0.0
  0
VERTEX
  5
   614
  8
0
  6
CONTINUOUS
 10
-527.210547121169
 20
239.608149190368
 30
0.0
 40
0.0
 41
0.0
  0
VERTEX
  5
   615
  8
0
  6
CONTINUOUS
 10
-527.183570370428
 20
239.630257093228
 30
0.0
 40
0.0
 41
0.0
  0
VERTEX
  5
   616
  8
0
  6
CONTINUOUS
 10
-527.15712415274
 20
239.652967691257
 30
0.0
 40
0.0
 41
0.0
  0
VERTEX
  5
   617
  8
0
  6
CONTINUOUS
 10
-527.131212566364
 20
239.676290071444
 30
0.0
 40
0.0
 41
0.0
  0
VERTEX
  5
   618
  8
0
  6
CONTINUOUS
 10
-527.1058395918
 20
239.700233059673
 30
0.0
 40
0.0
 41
0.0
  0
VERTEX
  5
   619
  8
0
  6
CONTINUOUS
 10
-527.081009093504
 20
239.724805224531
 30
0.0
 40
0.0
 41
0.0
  0
VERTEX
  5
   61A
  8
0
  6
CONTINUOUS
 10
-527.056724821607
 20
239.750014881111
 30
0.0
 40
0.0
 41
0.0
  0
VERTEX
  5
   61B
  8
0
  6
CONTINUOUS
 10
-527.032990413632
 20
239.775870094821
 30
0.0
 40
0.0
 41
0.0
  0
VERTEX
  5
   61C
  8
0
  6
CONTINUOUS
 10
-527.009809396208
 20
239.802378685189
 30
0.0
 40
0.0
 41
0.0
  0
VERTEX
  5
   61D
  8
0
  6
CONTINUOUS
 10
-526.98718518679
 20
239.82954822967
 30
0.0
 40
0.0
 41
0.0
  0
VERTEX
  5
   61E
  8
0
  6
CONTINUOUS
 10
-526.965121095373
 20
239.857386067454
 30
0.0
 40
0.0
 41
0.0
  0
VERTEX
  5
   61F
  8
0
  6
CONTINUOUS
 10
-526.943620326209
 20
239.885899303267
 30
0.0
 40
0.0
 41
0.0
  0
VERTEX
  5
   620
  8
0
  6
CONTINUOUS
 10
-526.922685979526
 20
239.915094811185
 30
0.0
 40
0.0
 41
0.0
  0
VERTEX
  5
   621
  8
0
  6
CONTINUOUS
 10
-526.902321053243
 20
239.944979238433
 30
0.0
 40
0.0
 41
0.0
  0
VERTEX
  5
   622
  8
0
  6
CONTINUOUS
 10
-526.882528444685
 20
239.975559009198
 30
0.0
 40
0.0
 41
0.0
  0
VERTEX
  5
   623
  8
0
  6
CONTINUOUS
 10
-526.863310952303
 20
240.006840328428
 30
0.0
 40
0.0
 41
0.0
  0
VERTEX
  5
   624
  8
0
  6
CONTINUOUS
 10
-526.844671277388
 20
240.038829185647
 30
0.0
 40
0.0
 41
0.0
  0
VERTEX
  5
   625
  8
0
  6
CONTINUOUS
 10
-526.82661202579
 20
240.071531358753
 30
0.0
 40
0.0
 41
0.0
  0
VERTEX
  5
   626
  8
0
  6
CONTINUOUS
 10
-526.809135709633
 20
240.104952417831
 30
0.0
 40
0.0
 41
0.0
  0
VERTEX
  5
   627
  8
0
  6
CONTINUOUS
 10
-526.792244749032
 20
240.139097728955
 30
0.0
 40
0.0
 41
0.0
  0
VERTEX
  5
   628
  8
0
  6
CONTINUOUS
 10
-526.775941473809
 20
240.173972457996
 30
0.0
 40
0.0
 41
0.0
  0
VERTEX
  5
   629
  8
0
  6
CONTINUOUS
 10
-526.760228125213
 20
240.20958157443
 30
0.0
 40
0.0
 41
0.0
  0
VERTEX
  5
   62A
  8
0
  6
CONTINUOUS
 10
-526.745106857632
 20
240.245929855141
 30
0.0
 40
0.0
 41
0.0
  0
VERTEX
  5
   62B
  8
0
  6
CONTINUOUS
 10
-526.730579740312
 20
240.28302188823
 30
0.0
 40
0.0
 41
0.0
  0
VERTEX
  5
   62C
  8
0
  6
CONTINUOUS
 10
-526.716648759075
 20
240.320862076819
 30
0.0
 40
0.0
 41
0.0
  0
VERTEX
  5
   62D
  8
0
  6
CONTINUOUS
 10
-526.703315818033
 20
240.359454642861
 30
0.0
 40
0.0
 41
0.0
  0
VERTEX
  5
   62E
  8
0
  6
CONTINUOUS
 10
-526.690582741308
 20
240.398803630942
 30
0.0
 40
0.0
 41
0.0
  0
VERTEX
  5
   62F
  8
0
  6
CONTINUOUS
 10
-526.678451274743
 20
240.438912912092
 30
0.0
 40
0.0
 41
0.0
  0
VERTEX
  5
   630
  8
0
  6
CONTINUOUS
 10
-526.666923087625
 20
240.479786187587
 30
0.0
 40
0.0
 41
0.0
  0
VERTEX
  5
   631
  8
0
  6
CONTINUOUS
 10
-526.655999774399
 20
240.521426992758
 30
0.0
 40
0.0
 41
0.0
  0
VERTEX
  5
   632
  8
0
  6
CONTINUOUS
 10
-526.645682856383
 20
240.563838700796
 30
0.0
 40
0.0
 41
0.0
  0
VERTEX
  5
   633
  8
0
  6
CONTINUOUS
 10
-526.63597378349
 20
240.60702452656
 30
0.0
 40
0.0
 41
0.0
  0
VERTEX
  5
   634
  8
0
  6
CONTINUOUS
 10
-526.626873935936
 20
240.650987530382
 30
0.0
 40
0.0
 41
0.0
  0
VERTEX
  5
   635
  8
0
  6
CONTINUOUS
 10
-526.618384625965
 20
240.695730621875
 30
0.0
 40
0.0
 41
0.0
  0
VERTEX
  5
   636
  8
0
  6
CONTINUOUS
 10
-526.610507099563
 20
240.741256563736
 30
0.0
 40
0.0
 41
0.0
  0
VERTEX
  5
   637
  8
0
  6
CONTINUOUS
 10
-526.603242538171
 20
240.787567975555
 30
0.0
 40
0.0
 41
0.0
  0
VERTEX
  5
   638
  8
0
  6
CONTINUOUS
 10
-526.596592060409
 20
240.834667337623
 30
0.0
 40
0.0
 41
0.0
  0
VERTEX
  5
   639
  8
0
  6
CONTINUOUS
 10
-526.590556723784
 20
240.882556994734
 30
0.0
 40
0.0
 41
0.0
  0
VERTEX
  5
   63A
  8
0
  6
CONTINUOUS
 10
-526.585137526415
 20
240.931239159995
 30
0.0
 40
0.0
 41
0.0
  0
VERTEX
  5
   63B
  8
0
  6
CONTINUOUS
 10
-526.580335408743
 20
240.980715918629
 30
0.0
 40
0.0
 41
0.0
  0
VERTEX
  5
   63C
  8
0
  6
CONTINUOUS
 10
-526.576151255253
 20
241.030989231787
 30
0.0
 40
0.0
 41
0.0
  0
VERTEX
  5
   63D
  8
0
  6
CONTINUOUS
 10
-526.572585896186
 20
241.082060940347
 30
0.0
 40
0.0
 41
0.0
  0
VERTEX
  5
   63E
  8
0
  6
CONTINUOUS
 10
-526.56964010926
 20
241.133932768726
 30
0.0
 40
0.0
 41
0.0
  0
VERTEX
  5
   63F
  8
0
  6
CONTINUOUS
 10
-526.567314621382
 20
241.186606328685
 30
0.0
 40
0.0
 41
0.0
  0
VERTEX
  5
   640
  8
0
  6
CONTINUOUS
 10
-526.56561011037
 20
241.240083123133
 30
0.0
 40
0.0
 41
0.0
  0
VERTEX
  5
   641
  8
0
  6
CONTINUOUS
 10
-526.564527206666
 20
241.294364549938
 30
0.0
 40
0.0
 41
0.0
  0
VERTEX
  5
   642
  8
0
  6
CONTINUOUS
 10
-526.564066495053
 20
241.349451905728
 30
0.0
 40
0.0
 41
0.0
  0
VERTEX
  5
   643
  8
0
  6
CONTINUOUS
 10
-526.564228516373
 20
241.405346389702
 30
0.0
 40
0.0
 41
0.0
  0
VERTEX
  5
   644
  8
0
  6
CONTINUOUS
 10
-526.565013769242
 20
241.462049107432
 30
0.0
 40
0.0
 41
0.0
  0
VERTEX
  5
   645
  8
0
  6
CONTINUOUS
 10
-526.566422711769
 20
241.519561074674
 30
0.0
 40
0.0
 41
0.0
  0
VERTEX
  5
   646
  8
0
  6
CONTINUOUS
 10
-526.568455763272
 20
241.577883221171
 30
0.0
 40
0.0
 41
0.0
  0
VERTEX
  5
   647
  8
0
  6
CONTINUOUS
 10
-526.571113305991
 20
241.637016394461
 30
0.0
 40
0.0
 41
0.0
  0
VERTEX
  5
   648
  8
0
  6
CONTINUOUS
 10
-526.574395686811
 20
241.696961363683
 30
0.0
 40
0.0
 41
0.0
  0
VERTEX
  5
   649
  8
0
  6
CONTINUOUS
 10
-526.578303218973
 20
241.757718823382
 30
0.0
 40
0.0
 41
0.0
  0
VERTEX
  5
   64A
  8
0
  6
CONTINUOUS
 10
-526.582836183796
 20
241.819289397317
 30
0.0
 40
0.0
 41
0.0
  0
VERTEX
  5
   64B
  8
0
  6
CONTINUOUS
 10
-526.587994832388
 20
241.881673642269
 30
0.0
 40
0.0
 41
0.0
  0
VERTEX
  5
   64C
  8
0
  6
CONTINUOUS
 10
-526.593779387367
 20
241.944872051843
 30
0.0
 40
0.0
 41
0.0
  0
VERTEX
  5
   64D
  8
0
  6
CONTINUOUS
 10
-526.600190044576
 20
242.008885060277
 30
0.0
 40
0.0
 41
0.0
  0
VERTEX
  5
   64E
  8
0
  6
CONTINUOUS
 10
-526.607226974799
 20
242.073713046249
 30
0.0
 40
0.0
 41
0.0
  0
VERTEX
  5
   64F
  8
0
  6
CONTINUOUS
 10
-526.614890325479
 20
242.139356336681
 30
0.0
 40
0.0
 41
0.0
  0
SEQEND
  5
   650
  8
0
  6
CONTINUOUS
 62
     7
  0
LINE
  5
   651
  8
0
  6
CONTINUOUS
 62
   218
 10
-527.162870561104
 20
165.139358565211
 30
0.0
 11
-480.617894425988
 21
165.139358565211
 31
0.0
  0
LINE
  5
   652
  8
0
  6
CONTINUOUS
 62
   218
 10
-526.731878920886
 20
162.139358520508
 30
0.0
 11
-477.017894372344
 21
162.139358520508
 31
0.0
  0
LINE
  5
   653
  8
0
  6
CONTINUOUS
 62
     7
 10
-545.297895389795
 20
163.780508035562
 30
0.0
 11
-545.297895389795
 21
239.938183222691
 31
0.0
  0
LINE
  5
   654
  8
0
  6
CONTINUOUS
 62
     7
 10
-545.657895395159
 20
163.357614284204
 30
0.0
 11
-545.657895395159
 21
240.135831480004
 31
0.0
  0
LINE
  5
   655
  8
0
  6
CONTINUOUS
 62
     7
 10
-546.017895400524
 20
162.871567870758
 30
0.0
 11
-546.017895400524
 21
240.48103074636
 31
0.0
  0
LINE
  5
   656
  8
0
  6
CONTINUOUS
 62
     7
 10
-546.377895405888
 20
162.259887804862
 30
0.0
 11
-546.377895405888
 21
241.08018995673
 31
0.0
  0
LINE
  5
   657
  8
0
  6
CONTINUOUS
 62
   218
 10
-526.614890325479
 20
242.139359712601
 30
0.0
 11
-477.017894372344
 21
242.139359712601
 31
0.0
  0
INSERT
  5
   658
  8
0
  6
CONTINUOUS
 62
     7
  2
*UDIM932
 10
0.0
 20
0.0
 30
0.0
  0
INSERT
  5
   659
  8
0
  6
CONTINUOUS
 62
     7
  2
*UDIM933
 10
0.0
 20
0.0
 30
0.0
  0
INSERT
  5
   65A
  8
0
  6
CONTINUOUS
 62
     3
  2
*UDIM934
 10
0.0
 20
0.0
 30
0.0
  0
ENDSEC
  0
EOF
