  0
SECTION
  2
HEADER
  9
$ACADVER
  1
AC1009
  9
$DWGCODEPAGE
  3
iso8859-1
  9
$INSBASE
 10
0.0
 20
0.0
 30
0.0
  9
$EXTMIN
 10
1.0E20
 20
1.0E20
  9
$EXTMAX
 10
-1.0E20
 20
-1.0E20
  9
$LIMMIN
 10
0.0
 20
0.0
  9
$LIMMAX
 10
12.0
 20
9.0
  9
$ORTHOMODE
 70
     0
  9
$REGENMODE
 70
     1
  9
$FILLMODE
 70
     1
  9
$QTEXTMODE
 70
     0
  9
$MIRRTEXT
 70
     1
  9
$DRAGMODE
 70
     2
  9
$LTSCALE
 40
15.0
  9
$OSMODE
 70
     0
  9
$ATTMODE
 70
     1
  9
$TEXTSIZE
 40
0.2
  9
$TRACEWID
 40
0.05
  9
$TEXTSTYLE
  7
STANDARD
  9
$CLAYER
  8
0
  9
$CELTYPE
  6
DASHED
  9
$CECOLOR
 62
   256
  9
$DIMSCALE
 40
1.0
  9
$DIMASZ
 40
0.18
  9
$DIMEXO
 40
0.0625
  9
$DIMDLI
 40
0.38
  9
$DIMRND
 40
0.0
  9
$DIMDLE
 40
0.0
  9
$DIMEXE
 40
0.18
  9
$DIMTP
 40
0.0
  9
$DIMTM
 40
0.0
  9
$DIMTXT
 40
0.18
  9
$DIMCEN
 40
0.09
  9
$DIMTSZ
 40
0.0
  9
$DIMTOL
 70
     0
  9
$DIMLIM
 70
     0
  9
$DIMTIH
 70
     1
  9
$DIMTOH
 70
     1
  9
$DIMSE1
 70
     0
  9
$DIMSE2
 70
     0
  9
$DIMTAD
 70
     0
  9
$DIMZIN
 70
     0
  9
$DIMBLK
  1

  9
$DIMASO
 70
     1
  9
$DIMSHO
 70
     1
  9
$DIMPOST
  1

  9
$DIMAPOST
  1

  9
$DIMALT
 70
     0
  9
$DIMALTD
 70
     2
  9
$DIMALTF
 40
25.4
  9
$DIMLFAC
 40
1.0
  9
$DIMTOFL
 70
     0
  9
$DIMTVP
 40
0.0
  9
$DIMTIX
 70
     0
  9
$DIMSOXD
 70
     0
  9
$DIMSAH
 70
     0
  9
$DIMBLK1
  1

  9
$DIMBLK2
  1

  9
$DIMSTYLE
  2
STANDARD
  9
$DIMCLRD
 70
     0
  9
$DIMCLRE
 70
     0
  9
$DIMCLRT
 70
     0
  9
$DIMTFAC
 40
1.0
  9
$DIMGAP
 40
0.09
  9
$LUNITS
 70
     2
  9
$LUPREC
 70
     4
  9
$AXISMODE
 70
     0
  9
$AXISUNIT
 10
0.0
 20
0.0
  9
$SKETCHINC
 40
0.1
  9
$FILLETRAD
 40
0.0
  9
$AUNITS
 70
     0
  9
$AUPREC
 70
     0
  9
$MENU
  1
acad
  9
$ELEVATION
 40
0.0
  9
$PELEVATION
 40
0.0
  9
$THICKNESS
 40
0.0
  9
$LIMCHECK
 70
     0
  9
$BLIPMODE
 70
     1
  9
$CHAMFERA
 40
0.0
  9
$CHAMFERB
 40
0.0
  9
$SKPOLY
 70
     0
  9
$TDCREATE
 40
0.000000000
  9
$TDUPDATE
 40
0.000000000
  9
$TDINDWG
 40
0.0
  9
$TDUSRTIMER
 40
0.0
  9
$USRTIMER
 70
     1
  9
$ANGBASE
 50
0.0
  9
$ANGDIR
 70
     0
  9
$PDMODE
 70
     0
  9
$PDSIZE
 40
0.0
  9
$PLINEWID
 40
0.0
  9
$COORDS
 70
     1
  9
$SPLFRAME
 70
     0
  9
$SPLINETYPE
 70
     6
  9
$SPLINESEGS
 70
     8
  9
$ATTDIA
 70
     0
  9
$ATTREQ
 70
     1
  9
$HANDLING
 70
     1
  9
$HANDSEED
  5
   7D3
  9
$SURFTAB1
 70
     6
  9
$SURFTAB2
 70
     6
  9
$SURFTYPE
 70
     6
  9
$SURFU
 70
     6
  9
$SURFV
 70
     6
  9
$UCSNAME
  2

  9
$UCSORG
 10
0.0
 20
0.0
 30
0.0
  9
$UCSXDIR
 10
1.0
 20
0.0
 30
0.0
  9
$UCSYDIR
 10
0.0
 20
1.0
 30
0.0
  9
$PUCSNAME
  2

  9
$PUCSORG
 10
0.0
 20
0.0
 30
0.0
  9
$PUCSXDIR
 10
1.0
 20
0.0
 30
0.0
  9
$PUCSYDIR
 10
0.0
 20
1.0
 30
0.0
  9
$USERI1
 70
     0
  9
$USERI2
 70
     0
  9
$USERI3
 70
     0
  9
$USERI4
 70
     0
  9
$USERI5
 70
     0
  9
$USERR1
 40
0.0
  9
$USERR2
 40
0.0
  9
$USERR3
 40
0.0
  9
$USERR4
 40
0.0
  9
$USERR5
 40
0.0
  9
$WORLDVIEW
 70
     1
  9
$SHADEDGE
 70
     3
  9
$SHADEDIF
 70
    70
  9
$TILEMODE
 70
     1
  9
$MAXACTVP
 70
    16
  9
$PINSBASE
 10
0.0
 20
0.0
 30
0.0
  9
$PLIMCHECK
 70
     0
  9
$PEXTMIN
 10
1.0E20
 20
1.0E20
 30
1.0E20
  9
$PEXTMAX
 10
-1.0E20
 20
-1.0E20
 30
-1.0E20
  9
$PLIMMIN
 10
0.0
 20
0.0
  9
$PLIMMAX
 10
12.0
 20
9.0
  9
$UNITMODE
 70
     0
  9
$VISRETAIN
 70
     0
  0
ENDSEC
  0
SECTION
  2
TABLES
  0
TABLE
  2
VPORT
 70
     1
  0
VPORT
  2
*ACTIVE
 70
     0
 10
0.0
 20
0.0
 11
1.0
 21
1.0
 12
6.801242
 22
4.5
 13
0.0
 23
0.0
 14
1.0
 24
1.0
 15
0.0
 25
0.0
 16
0.0
 26
0.0
 36
1.0
 17
0.0
 27
0.0
 37
0.0
 40
9.0
 41
1.511387
 42
50.0
 43
0.0
 44
0.0
 50
0.0
 51
0.0
 71
     0
 72
   100
 73
     1
 74
     1
 75
     0
 76
     0
 77
     0
 78
     0
  0
ENDTAB
  0
TABLE
  2
LTYPE
 70
    41
  0
LTYPE
  2
BYBLOCK
 70
     0
  3

 72
    65
 73
     0
 40
0.0
  0
LTYPE
  2
BYLAYER
 70
     0
  3

 72
    65
 73
     0
 40
0.0
  0
LTYPE
  2
CONTINUOUS
 70
     0
  3
Solid line
 72
    65
 73
     0
 40
0.0
  0
LTYPE
  2
BORDER
 70
    64
  3
__ __ . __ __ . __ __ . __ __ . __ __ . __ __ .
 72
    65
 73
     6
 40
1.75
 49
0.5
 49
-0.25
 49
0.5
 49
-0.25
 49
0.0
 49
-0.25
  0
LTYPE
  2
BORDER2
 70
    64
  3
__.__.__.__.__.__.__.__.__.__.__.__.__.__.__.__
 72
    65
 73
     6
 40
0.875
 49
0.25
 49
-0.125
 49
0.25
 49
-0.125
 49
0.0
 49
-0.125
  0
LTYPE
  2
BORDERX2
 70
    64
  3
____  ____  .  ____  ____  .  ____  ____  .  __
 72
    65
 73
     6
 40
3.5
 49
1.0
 49
-0.5
 49
1.0
 49
-0.5
 49
0.0
 49
-0.5
  0
LTYPE
  2
CENTER
 70
    64
  3
____ _ ____ _ ____ _ ____ _ ____ _ ____ _ ____
 72
    65
 73
     4
 40
2.0
 49
1.25
 49
-0.25
 49
0.25
 49
-0.25
  0
LTYPE
  2
CENTER2
 70
    64
  3
___ _ ___ _ ___ _ ___ _ ___ _ ___ _ ___ _ ___ _
 72
    65
 73
     4
 40
1.125
 49
0.75
 49
-0.125
 49
0.125
 49
-0.125
  0
LTYPE
  2
CENTERX2
 70
    64
  3
________  __  ________  __  ________  __  _____
 72
    65
 73
     4
 40
4.0
 49
2.5
 49
-0.5
 49
0.5
 49
-0.5
  0
LTYPE
  2
DASHDOT
 70
    64
  3
__ . __ . __ . __ . __ . __ . __ . __ . __ . __
 72
    65
 73
     4
 40
1.0
 49
0.5
 49
-0.25
 49
0.0
 49
-0.25
  0
LTYPE
  2
DASHDOT2
 70
    64
  3
_._._._._._._._._._._._._._._._._._._._._._._._
 72
    65
 73
     4
 40
0.5
 49
0.25
 49
-0.125
 49
0.0
 49
-0.125
  0
LTYPE
  2
DASHDOTX2
 70
    64
  3
____  .  ____  .  ____  .  ____  .  ____  .  __
 72
    65
 73
     4
 40
2.0
 49
1.0
 49
-0.5
 49
0.0
 49
-0.5
  0
LTYPE
  2
DASHED
 70
    64
  3
__ __ __ __ __ __ __ __ __ __ __ __ __ __ __ __
 72
    65
 73
     2
 40
0.75
 49
0.5
 49
-0.25
  0
LTYPE
  2
DASHED2
 70
    64
  3
_ _ _ _ _ _ _ _ _ _ _ _ _ _ _ _ _ _ _ _ _ _ _ _
 72
    65
 73
     2
 40
0.375
 49
0.25
 49
-0.125
  0
LTYPE
  2
DASHEDX2
 70
    64
  3
____  ____  ____  ____  ____  ____  ____  ____
 72
    65
 73
     2
 40
1.5
 49
1.0
 49
-0.5
  0
LTYPE
  2
DIVIDE
 70
    64
  3
____ . . ____ . . ____ . . ____ . . ____ . . __
 72
    65
 73
     6
 40
1.25
 49
0.5
 49
-0.25
 49
0.0
 49
-0.25
 49
0.0
 49
-0.25
  0
LTYPE
  2
DIVIDE2
 70
    64
  3
__..__..__..__..__..__..__..__..__..__..__..__.
 72
    65
 73
     6
 40
0.625
 49
0.25
 49
-0.125
 49
0.0
 49
-0.125
 49
0.0
 49
-0.125
  0
LTYPE
  2
DIVIDEX2
 70
    64
  3
________  .  .  ________  .  .  ________  .  .
 72
    65
 73
     6
 40
2.5
 49
1.0
 49
-0.5
 49
0.0
 49
-0.5
 49
0.0
 49
-0.5
  0
LTYPE
  2
DOT
 70
    64
  3
. . . . . . . . . . . . . . . . . . . . . . . .
 72
    65
 73
     2
 40
0.25
 49
0.0
 49
-0.25
  0
LTYPE
  2
DOT2
 70
    64
  3
...............................................
 72
    65
 73
     2
 40
0.125
 49
0.0
 49
-0.125
  0
LTYPE
  2
DOTX2
 70
    64
  3
.  .  .  .  .  .  .  .  .  .  .  .  .  .  .  .
 72
    65
 73
     2
 40
0.5
 49
0.0
 49
-0.5
  0
LTYPE
  2
HIDDEN
 70
    64
  3
__ __ __ __ __ __ __ __ __ __ __ __ __ __ __ __
 72
    65
 73
     2
 40
0.375
 49
0.25
 49
-0.125
  0
LTYPE
  2
HIDDEN2
 70
    64
  3
_ _ _ _ _ _ _ _ _ _ _ _ _ _ _ _ _ _ _ _ _ _ _ _
 72
    65
 73
     2
 40
0.1875
 49
0.125
 49
-0.0625
  0
LTYPE
  2
HIDDENX2
 70
    64
  3
____ ____ ____ ____ ____ ____ ____ ____ ____ __
 72
    65
 73
     2
 40
0.75
 49
0.5
 49
-0.25
  0
LTYPE
  2
PHANTOM
 70
    64
  3
______  __  __  ______  __  __  ______  __  __
 72
    65
 73
     6
 40
2.5
 49
1.25
 49
-0.25
 49
0.25
 49
-0.25
 49
0.25
 49
-0.25
  0
LTYPE
  2
PHANTOM2
 70
    64
  3
___ _ _ ___ _ _ ___ _ _ ___ _ _ ___ _ _ ___ _ _
 72
    65
 73
     6
 40
1.25
 49
0.625
 49
-0.125
 49
0.125
 49
-0.125
 49
0.125
 49
-0.125
  0
LTYPE
  2
PHANTOMX2
 70
    64
  3
____________    ____    ____    ____________
 72
    65
 73
     6
 40
5.0
 49
2.5
 49
-0.5
 49
0.5
 49
-0.5
 49
0.5
 49
-0.5
  0
LTYPE
  2
ACAD_ISO02W100
 70
    64
  3
__ __ __ __ __ __ __ __ __ __ __ __ __ __ __ __
 72
    65
 73
     2
 40
15.0
 49
12.0
 49
-3.0
  0
LTYPE
  2
ACAD_ISO03W100
 70
    64
  3
__    __    __    __    __    __    __    __
 72
    65
 73
     2
 40
30.0
 49
12.0
 49
-18.0
  0
LTYPE
  2
ACAD_ISO04W100
 70
    64
  3
____ . ____ . ____ . ____ . ____ . ____ . ____
 72
    65
 73
     4
 40
30.5
 49
24.0
 49
-3.0
 49
0.5
 49
-3.0
  0
LTYPE
  2
ACAD_ISO05W100
 70
    64
  3
____ .. ____ .. ____ .. ____ .. ____ .. ____ ..
 72
    65
 73
     6
 40
34.0
 49
24.0
 49
-3.0
 49
0.5
 49
-3.0
 49
0.5
 49
-3.0
  0
LTYPE
  2
ACAD_ISO06W100
 70
    64
  3
____ ... ____ ... ____ ... ____ ... ____ ... __
 72
    65
 73
     8
 40
37.5
 49
24.0
 49
-3.0
 49
0.5
 49
-3.0
 49
0.5
 49
-3.0
 49
0.5
 49
-3.0
  0
LTYPE
  2
ACAD_ISO07W100
 70
    64
  3
. . . . . . . . . . . . . . . . . . . . . . . .
 72
    65
 73
     2
 40
3.5
 49
0.5
 49
-3.0
  0
LTYPE
  2
ACAD_ISO08W100
 70
    64
  3
____ __ ____ __ ____ __ ____ ____ __ __ ____ __
 72
    65
 73
     4
 40
36.0
 49
24.0
 49
-3.0
 49
6.0
 49
-3.0
  0
LTYPE
  2
ACAD_ISO09W100
 70
    64
  3
____ __ __ ____ __ __ ____ __ __ ____ __ __ ___
 72
    65
 73
     6
 40
45.0
 49
24.0
 49
-3.0
 49
6.0
 49
-3.0
 49
6.0
 49
-3.0
  0
LTYPE
  2
ACAD_ISO10W100
 70
    64
  3
__ . __ . __ . __ . __ . __ . __ . __ . __ . __
 72
    65
 73
     4
 40
18.5
 49
12.0
 49
-3.0
 49
0.5
 49
-3.0
  0
LTYPE
  2
ACAD_ISO11W100
 70
    64
  3
__ __ . __ __ . __ __ . __ __ . __ __ . __ __ .
 72
    65
 73
     6
 40
33.5
 49
12.0
 49
-3.0
 49
12.0
 49
-3.0
 49
0.5
 49
-3.0
  0
LTYPE
  2
ACAD_ISO12W100
 70
    64
  3
__ . . __ . . __ . . __ . . __ . . __ . . __ .
 72
    65
 73
     6
 40
22.0
 49
12.0
 49
-3.0
 49
0.5
 49
-3.0
 49
0.5
 49
-3.0
  0
LTYPE
  2
ACAD_ISO13W100
 70
    64
  3
__ __ . . __ __ . . __ __ . . __ __ . . __ __ .
 72
    65
 73
     8
 40
37.0
 49
12.0
 49
-3.0
 49
12.0
 49
-3.0
 49
0.5
 49
-3.0
 49
0.5
 49
-3.0
  0
LTYPE
  2
ACAD_ISO14W100
 70
    64
  3
__ . . . __ . . . __ . . . __ . . . __ . . . __
 72
    65
 73
     8
 40
25.5
 49
12.0
 49
-3.0
 49
0.5
 49
-3.0
 49
0.5
 49
-3.0
 49
0.5
 49
-3.0
  0
LTYPE
  2
ACAD_ISO15W100
 70
    64
  3
__ __ . . . __ __ . . . __ __ . . . __ __ . . .
 72
    65
 73
    10
 40
40.5
 49
12.0
 49
-3.0
 49
12.0
 49
-3.0
 49
0.5
 49
-3.0
 49
0.5
 49
-3.0
 49
0.5
 49
-3.0
  0
ENDTAB
  0
TABLE
  2
STYLE
 70
     4
  0
STYLE
  2
STANDARD
 70
    64
 40
0.0
 41
1.0
 50
0.0
 71
     0
 42
0.2
  3
txt
  4

  0
STYLE
  2
TOLERANCE
 70
    64
 40
0.0
 41
1.0
 50
0.0
 71
     0
 42
0.2
  3
../igesfont/iges1003.shx
  4

  0
STYLE
  2
ROMANS
 70
    64
 40
0.0
 41
1.0
 50
0.0
 71
     0
 42
0.2
  3
romans.shx
  4

  0
STYLE
  2
ROMANC
 70
    64
 40
0.0
 41
1.0
 50
0.0
 71
     0
 42
0.2
  3
romanc.shx
  4

  0
ENDTAB
  0
TABLE
  2
DIMSTYLE
 70
     2
  0
DIMSTYLE
  2
UNNAMED
 70
     0
  3

  4

  5

  6

  7

 40
1.0
 41
0.18
 42
0.0625
 43
0.38
 44
0.18
 45
0.0
 46
0.0
 47
0.0
 48
0.0
140
0.18
141
0.09
142
0.0
143
25.4
144
1.0
145
0.0
146
1.0
147
0.09
 71
     0
 72
     0
 73
     1
 74
     1
 75
     0
 76
     0
 77
     0
 78
     0
170
     0
171
     2
172
     0
173
     0
174
     0
175
     0
176
     0
177
     0
178
     0
  0
DIMSTYLE
  2
STANDARD
 70
     0
  3

  4

  5

  6

  7

 40
1.0
 41
0.18
 42
0.0625
 43
0.38
 44
0.18
 45
0.0
 46
0.0
 47
0.0
 48
0.0
140
0.18
141
0.09
142
0.0
143
25.4
144
1.0
145
0.0
146
1.0
147
0.09
 71
     0
 72
     0
 73
     1
 74
     1
 75
     0
 76
     0
 77
     0
 78
     0
170
     0
171
     2
172
     0
173
     0
174
     0
175
     0
176
     0
177
     0
178
     0
  0
ENDTAB
  0
TABLE
  2
LAYER
 70
     2
  0
LAYER
  2
0
 70
     0
 62
     7
  6
CONTINUOUS
  0
LAYER
  2
255
 70
     0
 62
     7
  6
CONTINUOUS
  0
ENDTAB
  0
ENDSEC
  0
SECTION
  2
BLOCKS
  0
BLOCK
  5
     B
  8
0
  6
CONTINUOUS
 62
     0
  2
FIANCATA
 70
    64
 10
0.0
 20
0.0
 30
0.0
  3
FIANCATA
  0
LINE
  5
     C
  8
0
  6
CONTINUOUS
 62
     0
 10
-16.4999618530273
 20
0.0
 30
0.0
 11
7.62939453125E-6
 21
0.0
 31
0.0
  0
LINE
  5
     D
  8
0
  6
CONTINUOUS
 62
     0
 10
-17.2070610469019
 20
-0.292902217944532
 30
0.0
 11
-16.8826439390779
 21
-7.61358696114147E-2
 31
0.0
  0
LINE
  5
     E
  8
0
  6
CONTINUOUS
 62
     0
 10
-17.4238394855521
 20
-0.617305997289576
 30
0.0
 11
-17.2070693104552
 21
-0.292888874313344
 31
0.0
  0
LINE
  5
     F
  8
0
  6
CONTINUOUS
 62
     0
 10
-16.8826439375328
 20
-7.61276888051592E-2
 30
0.0
 11
-16.4999611388804
 21
-1.59191401971626E-6
 31
0.0
  0
LINE
  5
    10
  8
0
  6
CONTINUOUS
 62
     0
 10
-17.4999809265137
 20
-1.0
 30
0.0
 11
-1.0
 21
-1.0
 31
0.0
  0
LINE
  5
    11
  8
0
  6
CONTINUOUS
 62
     0
 10
-17.4999808470354
 20
-1.00000102283533
 30
0.0
 11
-17.4238394874954
 21
-0.61731059266227
 31
0.0
  0
LINE
  5
    12
  8
0
  6
CONTINUOUS
 62
     0
 10
-1.0
 20
-13.2497711181641
 30
0.0
 11
-1.0
 21
0.0
 31
0.0
  0
LINE
  5
    13
  8
0
  6
CONTINUOUS
 62
     0
 10
-17.5000063905665
 20
-139.000133514403
 30
0.0
 11
-17.5000063905665
 21
-0.999996185301853
 31
0.0
  0
LINE
  5
    14
  8
0
  6
CONTINUOUS
 62
     0
 10
-1.00000000993256
 20
-4.00001523769052
 30
0.0
 11
3.80476470240865E-6
 21
-3.99999997890146
 31
0.0
  0
LINE
  5
    15
  8
0
  6
CONTINUOUS
 62
     0
 10
-8.26048155815329E-5
 20
-12.0001983642166
 30
0.0
 11
-8.26048155815329E-5
 21
-4.00010681148223
 31
0.0
  0
LINE
  5
    16
  8
0
  6
CONTINUOUS
 62
     0
 10
7.62939453125E-6
 20
-4.00010681152344
 30
0.0
 11
7.62939453125E-6
 21
0.0
 31
0.0
  0
LINE
  5
    17
  8
0
  6
CONTINUOUS
 62
     0
 10
-12.7500076293945
 20
-10.249755859375
 30
0.0
 11
-1.0
 21
-10.249755859375
 31
0.0
  0
LINE
  5
    18
  8
0
  6
CONTINUOUS
 62
     0
 10
-15.75
 20
-10.249755859375
 30
0.0
 11
-12.7500076293945
 21
-10.249755859375
 31
0.0
  0
LINE
  5
    19
  8
0
  6
CONTINUOUS
 62
     0
 10
-0.999996185302734
 20
-12.0001983642578
 30
0.0
 11
0.0
 21
-12.0001983642578
 31
0.0
  0
LINE
  5
    1A
  8
0
  6
CONTINUOUS
 62
     0
 10
0.0
 20
-19.5001983642578
 30
0.0
 11
0.0
 21
-12.0001983642578
 31
0.0
  0
LINE
  5
    1B
  8
0
  6
CONTINUOUS
 62
     0
 10
0.0
 20
-28.0001983642578
 30
0.0
 11
0.0
 21
-26.5001983642578
 31
0.0
  0
LINE
  5
    1C
  8
0
  6
CONTINUOUS
 62
     0
 10
0.0
 20
-26.0001831054688
 30
0.0
 11
0.0
 21
-20.0001831054688
 31
0.0
  0
LINE
  5
    1D
  8
0
  6
CONTINUOUS
 62
     0
 10
0.0
 20
-26.5001983642578
 30
0.0
 11
0.0
 21
-26.0001831054688
 31
0.0
  0
LINE
  5
    1E
  8
0
  6
CONTINUOUS
 62
     0
 10
0.0
 20
-20.0001831054688
 30
0.0
 11
0.0
 21
-19.5001983642578
 31
0.0
  0
LINE
  5
    1F
  8
0
  6
CONTINUOUS
 62
     0
 10
0.0
 20
-118.000198364258
 30
0.0
 11
0.0
 21
-28.0001983642578
 31
0.0
  0
LINE
  5
    20
  8
0
  6
CONTINUOUS
 62
     0
 10
-18.5
 20
-67.0002059936524
 30
0.0
 11
-17.5
 21
-67.0002059936524
 31
0.0
  0
LINE
  5
    21
  8
0
  6
CONTINUOUS
 62
     0
 10
-16.4999618543408
 20
-139.999942778846
 30
0.0
 11
7.62808107168667E-6
 21
-140.000034331579
 31
0.0
  0
LINE
  5
    22
  8
0
  6
CONTINUOUS
 62
     0
 10
-18.5
 20
-87.0002059936524
 30
0.0
 11
-17.5
 21
-87.0002059936524
 31
0.0
  0
LINE
  5
    23
  8
0
  6
CONTINUOUS
 62
     0
 10
-16.8826434644807
 20
-139.923760014085
 30
0.0
 11
-16.4999606589061
 21
-139.999943335591
 31
0.0
  0
LINE
  5
    24
  8
0
  6
CONTINUOUS
 62
     0
 10
-17.207067522486
 20
-139.70699062553
 30
0.0
 11
-16.8826427725272
 21
-139.923760792348
 31
0.0
  0
LINE
  5
    25
  8
0
  6
CONTINUOUS
 62
     0
 10
-17.4238389066516
 20
-139.382565244232
 30
0.0
 11
-17.2071030722885
 21
-139.707241750507
 31
0.0
  0
LINE
  5
    26
  8
0
  6
CONTINUOUS
 62
     0
 10
-17.4999809548187
 20
-138.999881732886
 30
0.0
 11
-14.250000028305
 21
-138.999809253639
 31
0.0
  0
LINE
  5
    27
  8
0
  6
CONTINUOUS
 62
     0
 10
-17.4999814369327
 20
-138.999881016927
 30
0.0
 11
-17.4238782240544
 21
-139.382815590198
 31
0.0
  0
LINE
  5
    28
  8
0
  6
CONTINUOUS
 62
     0
 10
-3.75000000120068
 20
-125.000259398635
 30
0.0
 11
-1.20067511488742E-9
 21
-125.000278472122
 31
0.0
  0
LINE
  5
    29
  8
0
  6
CONTINUOUS
 62
     0
 10
-3.75
 20
-129.0002784729
 30
0.0
 11
0.0
 21
-129.0002784729
 31
0.0
  0
LINE
  5
    2A
  8
0
  6
CONTINUOUS
 62
     0
 10
-8.5
 20
-125.000232696533
 30
0.0
 11
-8.5
 21
-123.999771118164
 31
0.0
  0
LINE
  5
    2B
  8
0
  6
CONTINUOUS
 62
     0
 10
-3.75
 20
-134.000186920166
 30
0.0
 11
0.0
 21
-134.000186920166
 31
0.0
  0
LINE
  5
    2C
  8
0
  6
CONTINUOUS
 62
     0
 10
-5.0
 20
-118.000183105469
 30
0.0
 11
0.0
 21
-118.000183105469
 31
0.0
  0
LINE
  5
    2D
  8
0
  6
CONTINUOUS
 62
     0
 10
-7.7500000001834
 20
-131.500053405664
 30
0.0
 11
-3.7500000001834
 21
-131.500061035059
 31
0.0
  0
LINE
  5
    2E
  8
0
  6
CONTINUOUS
 62
     0
 10
-3.75
 20
-135.999771118164
 30
0.0
 11
-3.75
 21
-131.500061035156
 31
0.0
  0
LINE
  5
    2F
  8
0
  6
CONTINUOUS
 62
     0
 10
-7.75
 20
-135.999771118164
 30
0.0
 11
-7.75
 21
-131.500053405762
 31
0.0
  0
LINE
  5
    30
  8
0
  6
CONTINUOUS
 62
     0
 10
-11.2500114444405
 20
-125.000148772999
 30
0.0
 11
-3.75000000034867
 21
-125.000129699512
 31
0.0
  0
LINE
  5
    31
  8
0
  6
CONTINUOUS
 62
     0
 10
-3.75
 20
-131.500129699707
 30
0.0
 11
-3.75
 21
-125.000129699707
 31
0.0
  0
LINE
  5
    32
  8
0
  6
CONTINUOUS
 62
     0
 10
-11.2500105770662
 20
-125.000149859739
 30
0.0
 11
-11.1736632270959
 21
-124.923802509768
 31
0.0
  0
LINE
  5
    33
  8
0
  6
CONTINUOUS
 62
     0
 10
-11.2500085637054
 20
-125.000011478497
 30
0.0
 11
-10.249745345394
 21
-123.999774987966
 31
0.0
  0
LINE
  5
    34
  8
0
  6
CONTINUOUS
 62
     0
 10
-4.99999185108586
 20
-123.999771118161
 30
0.0
 11
-4.99999185108586
 21
-37.9999694824193
 31
0.0
  0
LINE
  5
    35
  8
0
  6
CONTINUOUS
 62
     0
 10
-11.25
 20
-123.999771118164
 30
0.0
 11
-5.0
 21
-123.999771118164
 31
0.0
  0
LINE
  5
    36
  8
0
  6
CONTINUOUS
 62
     0
 10
-11.25
 20
-135.999771118164
 30
0.0
 11
-1.0
 21
-135.999771118164
 31
0.0
  0
LINE
  5
    37
  8
0
  6
CONTINUOUS
 62
     0
 10
-11.25
 20
-135.999771118164
 30
0.0
 11
-11.25
 21
-123.999771118164
 31
0.0
  0
LINE
  5
    38
  8
0
  6
CONTINUOUS
 62
     0
 10
-8.5
 20
-124.000225067139
 30
0.0
 11
0.0
 21
-124.000225067139
 31
0.0
  0
LINE
  5
    39
  8
0
  6
CONTINUOUS
 62
     0
 10
-3.75
 20
-130.000225067139
 30
0.0
 11
0.0
 21
-130.000225067139
 31
0.0
  0
LINE
  5
    3A
  8
0
  6
CONTINUOUS
 62
     0
 10
-14.25
 20
-138.999809265137
 30
0.0
 11
-14.25
 21
-120.99976348877
 31
0.0
  0
LINE
  5
    3B
  8
0
  6
CONTINUOUS
 62
     0
 10
-14.25
 20
-120.99976348877
 30
0.0
 11
-11.25
 21
-120.99976348877
 31
0.0
  0
LINE
  5
    3C
  8
0
  6
CONTINUOUS
 62
     0
 10
-14.2499979894038
 20
-120.999765624734
 30
0.0
 11
-11.2499979235071
 21
-123.999773277073
 31
0.0
  0
LINE
  5
    3D
  8
0
  6
CONTINUOUS
 62
     0
 10
-14.2500000007845
 20
-138.9998092648
 30
0.0
 11
-11.2500000007845
 21
-138.999797820709
 31
0.0
  0
LINE
  5
    3E
  8
0
  6
CONTINUOUS
 62
     0
 10
-14.250001559504
 20
-138.999808240469
 30
0.0
 11
-11.2500014937232
 21
-135.9997699894
 31
0.0
  0
LINE
  5
    3F
  8
0
  6
CONTINUOUS
 62
     0
 10
-4.75
 20
-135.999794006348
 30
0.0
 11
-4.75
 21
-131.500061035156
 31
0.0
  0
LINE
  5
    40
  8
0
  6
CONTINUOUS
 62
     0
 10
-11.25
 20
-120.99976348877
 30
0.0
 11
-5.0
 21
-120.99976348877
 31
0.0
  0
LINE
  5
    41
  8
0
  6
CONTINUOUS
 62
     0
 10
-11.2500000004898
 20
-138.999797820785
 30
0.0
 11
-1.00000000048984
 21
-138.99976348851
 31
0.0
  0
LINE
  5
    42
  8
0
  6
CONTINUOUS
 62
     0
 10
-1.0
 20
-139.999881744385
 30
0.0
 11
-1.0
 21
-136.000141143799
 31
0.0
  0
LINE
  5
    43
  8
0
  6
CONTINUOUS
 62
     0
 10
-1.00000000571825
 20
-136.000129696483
 30
0.0
 11
3.80897901663957E-6
 21
-136.000141140575
 31
0.0
  0
LINE
  5
    44
  8
0
  6
CONTINUOUS
 62
     0
 10
0.0
 20
-134.000186920166
 30
0.0
 11
0.0
 21
-130.500225067139
 31
0.0
  0
LINE
  5
    45
  8
0
  6
CONTINUOUS
 62
     0
 10
0.0
 20
-130.500225067139
 30
0.0
 11
0.0
 21
-130.000225067139
 31
0.0
  0
LINE
  5
    46
  8
0
  6
CONTINUOUS
 62
     0
 10
0.0
 20
-129.999378204346
 30
0.0
 11
0.0
 21
-124.001041412354
 31
0.0
  0
LINE
  5
    47
  8
0
  6
CONTINUOUS
 62
     0
 10
-7.76125830270757E-11
 20
-134.000198370265
 30
0.0
 11
3.81461965304197E-6
 21
-136.000141151443
 31
0.0
  0
LINE
  5
    48
  8
0
  6
CONTINUOUS
 62
     0
 10
0.0
 20
-123.500225067139
 30
0.0
 11
0.0
 21
-118.000183105469
 31
0.0
  0
LINE
  5
    49
  8
0
  6
CONTINUOUS
 62
     0
 10
7.62939453125E-6
 20
-140.000034332275
 30
0.0
 11
7.62939453125E-6
 21
-136.000160217285
 31
0.0
  0
LINE
  5
    4A
  8
0
  6
CONTINUOUS
 62
     0
 10
0.0
 20
-124.000225067139
 30
0.0
 11
0.0
 21
-123.500225067139
 31
0.0
  0
LINE
  5
    4B
  8
0
  6
CONTINUOUS
 62
     0
 10
-1.0
 20
-21.0001373291016
 30
0.0
 11
0.0
 21
-21.0001373291016
 31
0.0
  0
LINE
  5
    4C
  8
0
  6
CONTINUOUS
 62
     0
 10
-1.0
 20
-25.0001373291016
 30
0.0
 11
0.0
 21
-25.0001373291016
 31
0.0
  0
LINE
  5
    4D
  8
0
  6
CONTINUOUS
 62
     0
 10
-5.0
 20
-28.0001983642578
 30
0.0
 11
0.0
 21
-28.0001983642578
 31
0.0
  0
LINE
  5
    4E
  8
0
  6
CONTINUOUS
 62
     0
 10
-12.7500267028809
 20
-13.2502136230469
 30
0.0
 11
-9.25
 21
-13.2502136230469
 31
0.0
  0
LINE
  5
    4F
  8
0
  6
CONTINUOUS
 62
     0
 10
-12.7500267028809
 20
-13.2502136230469
 30
0.0
 11
-9.25
 21
-13.2502136230469
 31
0.0
  0
LINE
  5
    50
  8
0
  6
CONTINUOUS
 62
     0
 10
-5.0
 20
-27.0001220703125
 30
0.0
 11
-1.0
 21
-27.0001220703125
 31
0.0
  0
LINE
  5
    51
  8
0
  6
CONTINUOUS
 62
     0
 10
-1.0
 20
-27.0001220703125
 30
0.0
 11
-1.0
 21
-13.2502136230469
 31
0.0
  0
LINE
  5
    52
  8
0
  6
CONTINUOUS
 62
     0
 10
-7.00000381747164
 20
-31.9998779252276
 30
0.0
 11
-5.00002670565524
 21
-31.9998931840167
 31
0.0
  0
LINE
  5
    53
  8
0
  6
CONTINUOUS
 62
     0
 10
-5.00002670307592
 20
-31.9998931857682
 30
0.0
 11
-5.00001525898414
 21
-27.9999999994064
 31
0.0
  0
LINE
  5
    54
  8
0
  6
CONTINUOUS
 62
     0
 10
-7.00000382626054
 20
-29.4998626527678
 30
0.0
 11
-5.00002289974687
 21
-29.499893170346
 31
0.0
  0
LINE
  5
    55
  8
0
  6
CONTINUOUS
 62
     0
 10
-9.25
 20
-19.0002136230469
 30
0.0
 11
-9.25
 21
-13.2502136230469
 31
0.0
  0
LINE
  5
    56
  8
0
  6
CONTINUOUS
 62
     0
 10
-9.25001064636107
 20
-19.0001952963912
 30
0.0
 11
-7.7500106134102
 21
-20.500195329342
 31
0.0
  0
LINE
  5
    57
  8
0
  6
CONTINUOUS
 62
     0
 10
-7.75
 20
-20.5002136230469
 30
0.0
 11
-4.25
 21
-20.5002136230469
 31
0.0
  0
LINE
  5
    58
  8
0
  6
CONTINUOUS
 62
     0
 10
-4.25
 20
-20.5002136230469
 30
0.0
 11
-4.25
 21
-13.2497711181641
 31
0.0
  0
LINE
  5
    59
  8
0
  6
CONTINUOUS
 62
     0
 10
-9.25
 20
-13.2499847412109
 30
0.0
 11
-1.0
 21
-13.2499847412109
 31
0.0
  0
LINE
  5
    5A
  8
0
  6
CONTINUOUS
 62
     0
 10
-5.0
 20
-37.9999694824219
 30
0.0
 11
-5.0
 21
-31.9999389648438
 31
0.0
  0
LINE
  5
    5B
  8
0
  6
CONTINUOUS
 62
     0
 10
-5.0
 20
-28.0
 30
0.0
 11
-5.0
 21
-23.4997711181641
 31
0.0
  0
LINE
  5
    5C
  8
0
  6
CONTINUOUS
 62
     0
 10
-12.7500076293945
 20
-23.4997711181641
 30
0.0
 11
-5.0
 21
-23.4997711181641
 31
0.0
  0
LINE
  5
    5D
  8
0
  6
CONTINUOUS
 62
     0
 10
-12.7500076293945
 20
-23.4997711181641
 30
0.0
 11
-12.7500076293945
 21
-13.2497711181641
 31
0.0
  0
LINE
  5
    5E
  8
0
  6
CONTINUOUS
 62
     0
 10
-6.0
 20
-28.0
 30
0.0
 11
-5.0
 21
-28.0
 31
0.0
  0
LINE
  5
    5F
  8
0
  6
CONTINUOUS
 62
     0
 10
-6.38268221855326
 20
-28.0761274508566
 30
0.0
 11
-5.99999941990089
 21
-28.0000013539655
 31
0.0
  0
LINE
  5
    60
  8
0
  6
CONTINUOUS
 62
     0
 10
-6.70710710140417
 20
-28.2928997997314
 30
0.0
 11
-6.38268236658192
 21
-28.0761334364442
 31
0.0
  0
LINE
  5
    61
  8
0
  6
CONTINUOUS
 62
     0
 10
-6.92387762239532
 20
-28.6173065311374
 30
0.0
 11
-6.70710744729848
 21
-28.2928894081612
 31
0.0
  0
LINE
  5
    62
  8
0
  6
CONTINUOUS
 62
     0
 10
-6.99999998430753
 20
-29.000000215221
 30
0.0
 11
-6.92387770149458
 21
-28.6173097873719
 31
0.0
  0
LINE
  5
    63
  8
0
  6
CONTINUOUS
 62
     0
 10
-7.0
 20
-36.9999694824219
 30
0.0
 11
-7.0
 21
-29.0
 31
0.0
  0
LINE
  5
    64
  8
0
  6
CONTINUOUS
 62
     0
 10
-6.99999994108155
 20
-36.9999697013245
 30
0.0
 11
-6.92387765826859
 21
-37.3826601291737
 31
0.0
  0
LINE
  5
    65
  8
0
  6
CONTINUOUS
 62
     0
 10
-6.92387938634333
 20
-37.3826564832097
 30
0.0
 11
-6.70710921124649
 21
-37.707073606186
 31
0.0
  0
LINE
  5
    66
  8
0
  6
CONTINUOUS
 62
     0
 10
-6.70710144431341
 20
-37.7070857090506
 30
0.0
 11
-6.38267670949118
 21
-37.9238520723378
 31
0.0
  0
LINE
  5
    67
  8
0
  6
CONTINUOUS
 62
     0
 10
-6.38268170616414
 20
-37.9238448111811
 30
0.0
 11
-5.99999890751177
 21
-37.9999709080722
 31
0.0
  0
LINE
  5
    68
  8
0
  6
CONTINUOUS
 62
     0
 10
-6.0
 20
-37.9999694824219
 30
0.0
 11
-5.0000114440918
 21
-37.9999694824219
 31
0.0
  0
LINE
  5
    69
  8
0
  6
CONTINUOUS
 62
     0
 10
-1.0
 20
-20.0001831054688
 30
0.0
 11
0.0
 21
-20.0001831054688
 31
0.0
  0
LINE
  5
    6A
  8
0
  6
CONTINUOUS
 62
     0
 10
-1.0
 20
-26.0001831054688
 30
0.0
 11
0.0
 21
-26.0001831054688
 31
0.0
  0
LINE
  5
    6B
  8
0
  6
CONTINUOUS
 62
     0
 10
-8.50000010269963
 20
-19.7502174335287
 30
0.0
 11
-6.25000007434671
 21
-17.5002174051758
 31
0.0
  0
LINE
  5
    6C
  8
0
  6
CONTINUOUS
 62
     0
 10
-15.75
 20
-26.499755859375
 30
0.0
 11
-15.75
 21
-10.249755859375
 31
0.0
  0
LINE
  5
    6D
  8
0
  6
CONTINUOUS
 62
     0
 10
-15.7499970043624
 20
-10.2497608492948
 30
0.0
 11
-12.7500045249082
 21
-13.2497760880768
 31
0.0
  0
LINE
  5
    6E
  8
0
  6
CONTINUOUS
 62
     0
 10
-15.7500005541712
 20
-26.4997418254346
 30
0.0
 11
-12.7500081590114
 21
-23.4997570166781
 31
0.0
  0
LINE
  5
    6F
  8
0
  6
CONTINUOUS
 62
     0
 10
-6.25
 20
-17.5002136230469
 30
0.0
 11
-4.25
 21
-17.5002136230469
 31
0.0
  0
LINE
  5
    70
  8
0
  6
CONTINUOUS
 62
     0
 10
-6.25
 20
-17.5002136230469
 30
0.0
 11
-6.25
 21
-13.2499847412109
 31
0.0
  0
LINE
  5
    71
  8
0
  6
CONTINUOUS
 62
     0
 10
-15.75
 20
-26.499755859375
 30
0.0
 11
-5.0
 21
-26.499755859375
 31
0.0
  0
ENDBLK
  5
    72
  8
0
  6
CONTINUOUS
 62
     0
  0
BLOCK
  5
    73
  8
0
  6
CONTINUOUS
 62
     0
  2
$1MOSTRA
 70
    64
 10
0.0
 20
0.0
 30
0.0
  3
$1MOSTRA
  0
LINE
  5
    74
  8
0
  6
CONTINUOUS
 62
     0
 10
131.0
 20
-24.0000152587891
 30
0.0
 11
131.0
 21
169.499984741211
 31
0.0
  0
LINE
  5
    75
  8
0
  6
CONTINUOUS
 62
     0
 10
-94.7500023146612
 20
-25.250020980835
 30
0.0
 11
129.75
 21
-25.250020980835
 31
0.0
  0
LINE
  5
    76
  8
0
  6
CONTINUOUS
 62
     0
 10
-96.0
 20
-24.000020980835
 30
0.0
 11
-96.0
 21
169.499979019165
 31
0.0
  0
LINE
  5
    77
  8
0
  6
CONTINUOUS
 62
     0
 10
-87.0
 20
170.749984741211
 30
0.0
 11
129.75
 21
170.749984741211
 31
0.0
  0
LINE
  5
    78
  8
0
  6
CONTINUOUS
 62
     0
 10
-94.7500138961029
 20
170.749984741211
 30
0.0
 11
-87.0
 21
170.749984741211
 31
0.0
  0
LINE
  5
    79
  8
0
  6
CONTINUOUS
 62
     0
 10
78.0
 20
-5.25002145767212
 30
0.0
 11
78.0
 21
-4.2500216960907
 31
0.0
  0
LINE
  5
    7A
  8
0
  6
CONTINUOUS
 62
     0
 10
-87.0
 20
-5.25002145767211
 30
0.0
 11
-87.0
 21
-4.25002169609069
 31
0.0
  0
LINE
  5
    7B
  8
0
  6
CONTINUOUS
 62
     0
 10
-86.0
 20
-5.25002145767211
 30
0.0
 11
77.0
 21
-5.25002145767212
 31
0.0
  0
LINE
  5
    7C
  8
0
  6
CONTINUOUS
 62
     0
 10
78.0
 20
149.749984741211
 30
0.0
 11
78.0
 21
150.749984741211
 31
0.0
  0
LINE
  5
    7D
  8
0
  6
CONTINUOUS
 62
     0
 10
-87.0
 20
149.749984741211
 30
0.0
 11
-87.0
 21
150.749984741211
 31
0.0
  0
LINE
  5
    7E
  8
0
  6
CONTINUOUS
 62
     0
 10
-86.0
 20
-25.250020980835
 30
0.0
 11
-86.0
 21
-5.25002098083496
 31
0.0
  0
LINE
  5
    7F
  8
0
  6
CONTINUOUS
 62
     0
 10
-87.0
 20
-25.250020980835
 30
0.0
 11
-87.0
 21
-5.25002098083496
 31
0.0
  0
LINE
  5
    80
  8
0
  6
CONTINUOUS
 62
     0
 10
-87.0
 20
-4.25002169609069
 30
0.0
 11
-87.0
 21
149.749978303909
 31
0.0
  0
LINE
  5
    81
  8
0
  6
CONTINUOUS
 62
     0
 10
-87.0
 20
150.749984741211
 30
0.0
 11
-87.0
 21
170.749984741211
 31
0.0
  0
LINE
  5
    82
  8
0
  6
CONTINUOUS
 62
     0
 10
78.0
 20
-25.250020980835
 30
0.0
 11
78.0
 21
-5.25002098083497
 31
0.0
  0
LINE
  5
    83
  8
0
  6
CONTINUOUS
 62
     0
 10
78.0
 20
-4.2500216960907
 30
0.0
 11
78.0
 21
22.6249783039093
 31
0.0
  0
LINE
  5
    84
  8
0
  6
CONTINUOUS
 62
     0
 10
78.0
 20
23.624979019165
 30
0.0
 11
78.0
 21
64.624979019165
 31
0.0
  0
LINE
  5
    85
  8
0
  6
CONTINUOUS
 62
     0
 10
78.0
 20
65.6249771118164
 30
0.0
 11
78.0
 21
149.749984741211
 31
0.0
  0
LINE
  5
    86
  8
0
  6
CONTINUOUS
 62
     0
 10
78.0
 20
150.749984741211
 30
0.0
 11
78.0
 21
170.749984741211
 31
0.0
  0
LINE
  5
    87
  8
0
  6
CONTINUOUS
 62
     0
 10
77.0
 20
-25.250020980835
 30
0.0
 11
77.0
 21
-5.25002098083497
 31
0.0
  0
LINE
  5
    88
  8
0
  6
CONTINUOUS
 62
     0
 10
112.0
 20
23.624979019165
 30
0.0
 11
112.0
 21
64.624979019165
 31
0.0
  0
LINE
  5
    89
  8
0
  6
CONTINUOUS
 62
     0
 10
-86.0
 20
150.749984741211
 30
0.0
 11
77.0
 21
150.749984741211
 31
0.0
  0
LINE
  5
    8A
  8
0
  6
DOT
 62
     0
 10
78.0
 20
22.6249809265137
 30
0.0
 11
78.0
 21
23.6249809265137
 31
0.0
  0
LINE
  5
    8B
  8
0
  6
DOT
 62
     0
 10
78.0
 20
64.6249847412109
 30
0.0
 11
78.0
 21
65.6249847412109
 31
0.0
  0
LINE
  5
    8C
  8
0
  6
CONTINUOUS
 62
     0
 10
-95.2283575359481
 20
170.654833276614
 30
0.0
 11
-94.7500021275396
 21
170.749987082197
 31
0.0
  0
LINE
  5
    8D
  8
0
  6
CONTINUOUS
 62
     0
 10
-95.6338828572815
 20
170.383870758251
 30
0.0
 11
-95.2283576589463
 21
170.654836342308
 31
0.0
  0
LINE
  5
    8E
  8
0
  6
CONTINUOUS
 62
     0
 10
-95.9048442813714
 20
169.978321294716
 30
0.0
 11
-95.6338787006842
 21
170.38385412157
 31
0.0
  0
LINE
  5
    8F
  8
0
  6
CONTINUOUS
 62
     0
 10
-96.0000009070014
 20
169.49998927381
 30
0.0
 11
-95.9048471000262
 21
169.978337054874
 31
0.0
  0
LINE
  5
    90
  8
0
  6
CONTINUOUS
 62
     0
 10
129.750003154688
 20
170.749986935154
 30
0.0
 11
130.228350935752
 21
170.654833128179
 31
0.0
  0
LINE
  5
    91
  8
0
  6
CONTINUOUS
 62
     0
 10
130.228341409222
 20
170.654823450862
 30
0.0
 11
130.633874236076
 21
170.383857870175
 31
0.0
  0
LINE
  5
    92
  8
0
  6
CONTINUOUS
 62
     0
 10
130.633876465973
 20
170.383854910394
 30
0.0
 11
130.90484204666
 21
169.97832208354
 31
0.0
  0
LINE
  5
    93
  8
0
  6
CONTINUOUS
 62
     0
 10
130.90484765696
 20
169.978336952213
 30
0.0
 11
131.000001463935
 21
169.499989171149
 31
0.0
  0
LINE
  5
    94
  8
0
  6
CONTINUOUS
 62
     0
 10
129.750001912704
 20
-25.2500209810903
 30
0.0
 11
130.228349689786
 21
-25.1548709896053
 31
0.0
  0
LINE
  5
    95
  8
0
  6
CONTINUOUS
 62
     0
 10
130.228338306514
 20
-25.1548722950462
 30
0.0
 11
130.633871133368
 21
-24.8839067143591
 31
0.0
  0
LINE
  5
    96
  8
0
  6
CONTINUOUS
 62
     0
 10
130.633879356188
 20
-24.8839055654524
 30
0.0
 11
130.904844938572
 21
-24.4783765528653
 31
0.0
  0
LINE
  5
    97
  8
0
  6
CONTINUOUS
 62
     0
 10
130.904848088874
 20
-24.4783766972257
 30
0.0
 11
131.000001894457
 21
-24.0000212888173
 31
0.0
  0
LINE
  5
    98
  8
0
  6
CONTINUOUS
 62
     0
 10
-95.2283572980338
 20
-25.1548710672825
 30
0.0
 11
-94.750001893597
 21
-25.2500210645891
 31
0.0
  0
LINE
  5
    99
  8
0
  6
CONTINUOUS
 62
     0
 10
-95.6338848795916
 20
-24.8839050834456
 30
0.0
 11
-95.2283596812563
 21
-25.1548706675021
 31
0.0
  0
LINE
  5
    9A
  8
0
  6
CONTINUOUS
 62
     0
 10
-95.9048453281177
 20
-24.4783764153605
 30
0.0
 11
-95.6338797457343
 21
-24.8839054279476
 31
0.0
  0
LINE
  5
    9B
  8
0
  6
CONTINUOUS
 62
     0
 10
-96.0000013278323
 20
-24.0000213932639
 30
0.0
 11
-95.9048475222492
 21
-24.4783768016722
 31
0.0
  0
LINE
  5
    9C
  8
0
  6
CONTINUOUS
 62
     0
 10
71.0
 20
161.499984741211
 30
0.0
 11
71.5
 21
161.499984741211
 31
0.0
  0
LINE
  5
    9D
  8
0
  6
CONTINUOUS
 62
     0
 10
70.6249985834239
 20
161.39948892087
 30
0.0
 11
70.9999985887286
 21
161.499983299907
 31
0.0
  0
LINE
  5
    9E
  8
0
  6
CONTINUOUS
 62
     0
 10
70.3504841000321
 20
161.124991898345
 30
0.0
 11
70.6250049664647
 21
161.399497515692
 31
0.0
  0
LINE
  5
    9F
  8
0
  6
CONTINUOUS
 62
     0
 10
70.2500005005121
 20
160.74998610992
 30
0.0
 11
70.3504796223163
 21
161.124986104743
 31
0.0
  0
LINE
  5
    A0
  8
0
  6
CONTINUOUS
 62
     0
 10
70.2500001717027
 20
160.749985945318
 30
0.0
 11
70.3504792935069
 21
160.374985950495
 31
0.0
  0
LINE
  5
    A1
  8
0
  6
CONTINUOUS
 62
     0
 10
70.3504785443499
 20
160.374981262897
 30
0.0
 11
70.6249994243228
 21
160.100460382924
 31
0.0
  0
LINE
  5
    A2
  8
0
  6
CONTINUOUS
 62
     0
 10
70.6250004494111
 20
160.100464493128
 30
0.0
 11
71.000000444234
 21
159.999985371324
 31
0.0
  0
LINE
  5
    A3
  8
0
  6
CONTINUOUS
 62
     0
 10
71.0
 20
159.999984741211
 30
0.0
 11
71.5
 21
159.999984741211
 31
0.0
  0
LINE
  5
    A4
  8
0
  6
CONTINUOUS
 62
     0
 10
-71.0000005237262
 20
159.999985364975
 30
0.0
 11
-70.6250005289034
 21
160.100464486779
 31
0.0
  0
LINE
  5
    A5
  8
0
  6
CONTINUOUS
 62
     0
 10
-70.6249991572831
 20
160.100460461707
 30
0.0
 11
-70.3504782773103
 21
160.37498134168
 31
0.0
  0
LINE
  5
    A6
  8
0
  6
CONTINUOUS
 62
     0
 10
-70.3504793419514
 20
160.374985939145
 30
0.0
 11
-70.2500002201472
 21
160.749985933968
 31
0.0
  0
LINE
  5
    A7
  8
0
  6
CONTINUOUS
 62
     0
 10
-70.3504796707608
 20
161.124986116093
 30
0.0
 11
-70.2500005489566
 21
160.74998612127
 31
0.0
  0
LINE
  5
    A8
  8
0
  6
CONTINUOUS
 62
     0
 10
-70.625005364328
 20
161.399497643651
 30
0.0
 11
-70.3504844978953
 21
161.124992026304
 31
0.0
  0
LINE
  5
    A9
  8
0
  6
CONTINUOUS
 62
     0
 10
-70.9999984404592
 20
161.499983275092
 30
0.0
 11
-70.6249984351544
 21
161.399488896056
 31
0.0
  0
LINE
  5
    AA
  8
0
  6
CONTINUOUS
 62
     0
 10
-71.5
 20
161.499984741211
 30
0.0
 11
-71.0
 21
161.499984741211
 31
0.0
  0
LINE
  5
    AB
  8
0
  6
CONTINUOUS
 62
     0
 10
-71.5
 20
159.999984741211
 30
0.0
 11
-71.0
 21
159.999984741211
 31
0.0
  0
LINE
  5
    AC
  8
0
  6
DOT
 62
     0
 10
129.207102522664
 20
93.2070806462287
 30
0.0
 11
129.423868885951
 21
92.8826559114065
 31
0.0
  0
LINE
  5
    AD
  8
0
  6
CONTINUOUS
 62
     0
 10
78.0
 20
64.6249771118164
 30
0.0
 11
112.0
 21
64.6249771118164
 31
0.0
  0
LINE
  5
    AE
  8
0
  6
CONTINUOUS
 62
     0
 10
78.0
 20
23.624979019165
 30
0.0
 11
112.0
 21
23.624979019165
 31
0.0
  0
LINE
  5
    AF
  8
0
  6
CONTINUOUS
 62
     0
 10
78.0
 20
22.624979019165
 30
0.0
 11
131.0
 21
22.624979019165
 31
0.0
  0
LINE
  5
    B0
  8
0
  6
CONTINUOUS
 62
     0
 10
113.0
 20
22.6249771118164
 30
0.0
 11
113.0
 21
65.6249771118164
 31
0.0
  0
LINE
  5
    B1
  8
0
  6
CONTINUOUS
 62
     0
 10
121.443762073863
 20
22.6249762341869
 30
0.0
 11
121.469671496571
 21
22.655306892856
 31
0.0
  0
LINE
  5
    B2
  8
0
  6
CONTINUOUS
 62
     0
 10
122.530331822982
 20
22.6553070669901
 30
0.0
 11
122.556233618116
 21
22.6249802236221
 31
0.0
  0
LINE
  5
    B3
  8
0
  6
CONTINUOUS
 62
     0
 10
77.0
 20
-4.2500216960907
 30
0.0
 11
77.0
 21
149.749978303909
 31
0.0
  0
LINE
  5
    B4
  8
0
  6
CONTINUOUS
 62
     0
 10
-86.0
 20
149.749984741211
 30
0.0
 11
77.0
 21
149.749984741211
 31
0.0
  0
LINE
  5
    B5
  8
0
  6
CONTINUOUS
 62
     0
 10
-86.0
 20
-4.25002169609069
 30
0.0
 11
77.0
 21
-4.2500216960907
 31
0.0
  0
LINE
  5
    B6
  8
0
  6
CONTINUOUS
 62
     0
 10
-86.0
 20
-4.25002169609069
 30
0.0
 11
-86.0
 21
149.749978303909
 31
0.0
  0
LINE
  5
    B7
  8
0
  6
CONTINUOUS
 62
     0
 10
70.0000086006236
 20
142.749981641769
 30
0.0
 11
77.0000047406314
 21
149.749991353068
 31
0.0
  0
LINE
  5
    B8
  8
0
  6
CONTINUOUS
 62
     0
 10
70.0000002534282
 20
2.74998164176941
 30
0.0
 11
77.0000028943928
 21
-4.25002276936366
 31
0.0
  0
LINE
  5
    B9
  8
0
  6
CONTINUOUS
 62
     0
 10
-86.0000010794079
 20
149.749986269664
 30
0.0
 11
-70.0
 21
142.220568727026
 31
0.0
  0
LINE
  5
    BA
  8
0
  6
CONTINUOUS
 62
     0
 10
-86.0000042824209
 20
-4.25002269924179
 30
0.0
 11
-70.0
 21
3.27939166971828
 31
0.0
  0
LINE
  5
    BB
  8
0
  6
CONTINUOUS
 62
     0
 10
71.5
 20
150.749984741211
 30
0.0
 11
71.5
 21
170.749984741211
 31
0.0
  0
LINE
  5
    BC
  8
0
  6
CONTINUOUS
 62
     0
 10
77.0
 20
150.749984741211
 30
0.0
 11
77.0
 21
170.749984741211
 31
0.0
  0
LINE
  5
    BD
  8
0
  6
CONTINUOUS
 62
     0
 10
-71.5
 20
150.749984741211
 30
0.0
 11
-71.5
 21
170.749984741211
 31
0.0
  0
LINE
  5
    BE
  8
0
  6
CONTINUOUS
 62
     0
 10
-86.0
 20
150.749984741211
 30
0.0
 11
-86.0
 21
170.749984741211
 31
0.0
  0
LINE
  5
    BF
  8
0
  6
CONTINUOUS
 62
     0
 10
78.0
 20
65.6249771118164
 30
0.0
 11
131.0
 21
65.6249771118164
 31
0.0
  0
POINT
  5
    C0
  8
0
  6
CONTINUOUS
 62
     0
 10
4.30031180087553E-6
 20
72.749980198372
 30
0.0
  0
ENDBLK
  5
    C1
  8
0
  6
CONTINUOUS
 62
     0
  0
BLOCK
  5
    C2
  8
0
  6
CONTINUOUS
 62
     7
  2
*UDIM1322
 70
    65
 10
0.0
 20
0.0
 30
0.0
  3
*UDIM1322
  0
TEXT
  5
    C3
  8
0
  6
CONTINUOUS
 62
     7
 10
-33.4738853021561
 20
19.5764278375224
 30
0.0
 40
2.99999998416219
  1
196
 50
89.9999999480344
 41
0.933333333333333
 72
     1
 11
-34.9738852907049
 21
23.4764278182918
 31
0.0
 73
     2
  0
LINE
  5
    C4
  8
0
  6
CONTINUOUS
 62
     7
 10
-41.9845762447258
 20
-3.68857352998655
 30
0.0
 11
-30.4738852986238
 21
-3.68857352998655
 31
0.0
  0
LINE
  5
    C5
  8
0
  6
CONTINUOUS
 62
     7
 10
-41.9845762447258
 20
51.1914283058365
 30
0.0
 11
-30.4738852986238
 21
51.1914283058365
 31
0.0
  0
LINE
  5
    C6
  8
0
  6
CONTINUOUS
 62
     7
 10
-32.4738852986238
 20
-3.68857352998655
 30
0.0
 11
-32.4738852986238
 21
51.1914283058365
 31
0.0
  0
LINE
  5
    C7
  8
0
  6
CONTINUOUS
 62
     7
 10
-32.9948297285755
 20
-0.734150252779591
 30
0.0
 11
-32.4738852986238
 21
-3.68857352998655
 31
0.0
  0
LINE
  5
    C8
  8
0
  6
CONTINUOUS
 62
     7
 10
-32.4738852986238
 20
-3.68857352998655
 30
0.0
 11
-31.9529408686722
 21
-0.734150252779591
 31
0.0
  0
LINE
  5
    C9
  8
0
  6
CONTINUOUS
 62
     7
 10
-31.9529408686722
 20
48.2370050286296
 30
0.0
 11
-32.4738852986238
 21
51.1914283058365
 31
0.0
  0
LINE
  5
    CA
  8
0
  6
CONTINUOUS
 62
     7
 10
-32.4738852986238
 20
51.1914283058365
 30
0.0
 11
-32.9948297285755
 21
48.2370050286296
 31
0.0
  0
ENDBLK
  5
    CB
  8
0
  6
CONTINUOUS
 62
     7
  0
BLOCK
  5
    CC
  8
0
  6
CONTINUOUS
 62
     7
  2
*UDIM1323
 70
    65
 10
0.0
 20
0.0
 30
0.0
  3
*UDIM1323
  0
TEXT
  5
    CD
  8
0
  6
CONTINUOUS
 62
     7
 10
-65.1495742015558
 20
-67.9047886839084
 30
0.0
 40
2.99999998416219
  1
131
 50
359.999999948034
 41
0.933333333333333
 72
     1
 11
-61.249574220792
 21
-66.4047886953448
 31
0.0
 73
     2
  0
LINE
  5
    CE
  8
0
  6
CONTINUOUS
 62
     7
 10
-42.6345762432357
 20
-4.33857192632359
 30
0.0
 11
-42.6345762432357
 21
-70.9047886874259
 31
0.0
  0
LINE
  5
    CF
  8
0
  6
CONTINUOUS
 62
     7
 10
-79.3145751953125
 20
-53.0661580840778
 30
0.0
 11
-79.3145751953125
 21
-70.9047886874259
 31
0.0
  0
LINE
  5
    D0
  8
0
  6
CONTINUOUS
 62
     7
 10
-42.6345762432357
 20
-68.9047886874259
 30
0.0
 11
-79.3145751953125
 21
-68.9047886874259
 31
0.0
  0
LINE
  5
    D1
  8
0
  6
CONTINUOUS
 62
     7
 10
-45.5889995204426
 20
-69.4257331173776
 30
0.0
 11
-42.6345762432357
 21
-68.9047886874259
 31
0.0
  0
LINE
  5
    D2
  8
0
  6
CONTINUOUS
 62
     7
 10
-42.6345762432357
 20
-68.9047886874259
 30
0.0
 11
-45.5889995204426
 21
-68.3838442574743
 31
0.0
  0
LINE
  5
    D3
  8
0
  6
CONTINUOUS
 62
     7
 10
-76.3601519181055
 20
-68.3838442574743
 30
0.0
 11
-79.3145751953125
 21
-68.9047886874259
 31
0.0
  0
LINE
  5
    D4
  8
0
  6
CONTINUOUS
 62
     7
 10
-79.3145751953125
 20
-68.9047886874259
 30
0.0
 11
-76.3601519181055
 21
-69.4257331173776
 31
0.0
  0
ENDBLK
  5
    D5
  8
0
  6
CONTINUOUS
 62
     7
  0
BLOCK
  5
    D6
  8
0
  6
CONTINUOUS
 62
     7
  2
*UDIM1324
 70
    65
 10
0.0
 20
0.0
 30
0.0
  3
*UDIM1324
  0
TEXT
  5
    D7
  8
0
  6
CONTINUOUS
 62
     7
 10
-95.5295746446567
 20
-67.9047886851711
 30
0.0
 40
2.99999998416219
  1
96
 50
359.999999948034
 41
0.933333333333333
 72
     1
 11
-93.029574656502
 21
-66.4047886953448
 31
0.0
 73
     2
  0
LINE
  5
    D8
  8
0
  6
CONTINUOUS
 62
     7
 10
-106.194576513841
 20
-4.33857352849643
 30
0.0
 11
-106.194576513841
 21
-70.9047886874259
 31
0.0
  0
LINE
  5
    D9
  8
0
  6
CONTINUOUS
 62
     7
 10
-79.3145751953125
 20
-68.9047886874259
 30
0.0
 11
-106.194576513841
 21
-68.9047886874259
 31
0.0
  0
LINE
  5
    DA
  8
0
  6
CONTINUOUS
 62
     7
 10
-82.2689984725195
 20
-69.4257331173776
 30
0.0
 11
-79.3145751953125
 21
-68.9047886874259
 31
0.0
  0
LINE
  5
    DB
  8
0
  6
CONTINUOUS
 62
     7
 10
-79.3145751953125
 20
-68.9047886874259
 30
0.0
 11
-82.2689984725195
 21
-68.3838442574743
 31
0.0
  0
LINE
  5
    DC
  8
0
  6
CONTINUOUS
 62
     7
 10
-103.240153236634
 20
-68.3838442574743
 30
0.0
 11
-106.194576513841
 21
-68.9047886874259
 31
0.0
  0
LINE
  5
    DD
  8
0
  6
CONTINUOUS
 62
     7
 10
-106.194576513841
 20
-68.9047886874259
 30
0.0
 11
-103.240153236634
 21
-69.4257331173776
 31
0.0
  0
ENDBLK
  5
    DE
  8
0
  6
CONTINUOUS
 62
     7
  0
BLOCK
  5
    DF
  8
0
  6
CONTINUOUS
 62
     7
  2
*UDIM1325
 70
    65
 10
0.0
 20
0.0
 30
0.0
  3
*UDIM1325
  0
TEXT
  5
    E0
  8
0
  6
CONTINUOUS
 62
     7
 10
-72.2895766807147
 20
-60.5556815982184
 30
0.0
 40
2.99999998416219
  1
70
 50
359.999999948034
 41
0.933333333333333
 72
     1
 11
-69.7895766925599
 21
-59.0556816083921
 31
0.0
 73
     2
  0
LINE
  5
    E1
  8
0
  6
CONTINUOUS
 62
     7
 10
-59.7145788502693
 20
-50.5385691225528
 30
0.0
 11
-59.7145788502693
 21
-63.5556816004732
 31
0.0
  0
LINE
  5
    E2
  8
0
  6
CONTINUOUS
 62
     7
 10
-79.3145751953125
 20
-53.0661580840778
 30
0.0
 11
-79.3145751953125
 21
-63.5556816004732
 31
0.0
  0
LINE
  5
    E3
  8
0
  6
CONTINUOUS
 62
     7
 10
-59.7145788502693
 20
-61.5556816004732
 30
0.0
 11
-79.3145751953125
 21
-61.5556816004732
 31
0.0
  0
LINE
  5
    E4
  8
0
  6
CONTINUOUS
 62
     7
 10
-62.6690021274763
 20
-62.0766260304249
 30
0.0
 11
-59.7145788502693
 21
-61.5556816004732
 31
0.0
  0
LINE
  5
    E5
  8
0
  6
CONTINUOUS
 62
     7
 10
-59.7145788502693
 20
-61.5556816004732
 30
0.0
 11
-62.6690021274763
 21
-61.0347371705216
 31
0.0
  0
LINE
  5
    E6
  8
0
  6
CONTINUOUS
 62
     7
 10
-76.3601519181055
 20
-61.0347371705216
 30
0.0
 11
-79.3145751953125
 21
-61.5556816004732
 31
0.0
  0
LINE
  5
    E7
  8
0
  6
CONTINUOUS
 62
     7
 10
-79.3145751953125
 20
-61.5556816004732
 30
0.0
 11
-76.3601519181055
 21
-62.0766260304249
 31
0.0
  0
ENDBLK
  5
    E8
  8
0
  6
CONTINUOUS
 62
     7
  0
BLOCK
  5
    E9
  8
0
  6
CONTINUOUS
 62
     7
  2
*UDIM1326
 70
    65
 10
0.0
 20
0.0
 30
0.0
  3
*UDIM1326
  0
TEXT
  5
    EA
  8
0
  6
CONTINUOUS
 62
     7
 10
-91.8895746279307
 20
-60.5556815982184
 30
0.0
 40
2.99999998416219
  1
70
 50
359.999999948034
 41
0.933333333333333
 72
     1
 11
-89.3895746397759
 21
-59.0556816083921
 31
0.0
 73
     2
  0
LINE
  5
    EB
  8
0
  6
CONTINUOUS
 62
     7
 10
-98.9145715403557
 20
-54.5917432282149
 30
0.0
 11
-98.9145715403557
 21
-63.5556816004732
 31
0.0
  0
LINE
  5
    EC
  8
0
  6
CONTINUOUS
 62
     7
 10
-79.3145751953125
 20
-61.5556816004732
 30
0.0
 11
-98.9145715403557
 21
-61.5556816004732
 31
0.0
  0
LINE
  5
    ED
  8
0
  6
CONTINUOUS
 62
     7
 10
-82.2689984725195
 20
-62.0766260304249
 30
0.0
 11
-79.3145751953125
 21
-61.5556816004732
 31
0.0
  0
LINE
  5
    EE
  8
0
  6
CONTINUOUS
 62
     7
 10
-79.3145751953125
 20
-61.5556816004732
 30
0.0
 11
-82.2689984725195
 21
-61.0347371705216
 31
0.0
  0
LINE
  5
    EF
  8
0
  6
CONTINUOUS
 62
     7
 10
-95.9601482631487
 20
-61.0347371705216
 30
0.0
 11
-98.9145715403557
 21
-61.5556816004732
 31
0.0
  0
LINE
  5
    F0
  8
0
  6
CONTINUOUS
 62
     7
 10
-98.9145715403557
 20
-61.5556816004732
 30
0.0
 11
-95.9601482631487
 21
-62.0766260304249
 31
0.0
  0
ENDBLK
  5
    F1
  8
0
  6
CONTINUOUS
 62
     7
  0
BLOCK
  5
    F2
  8
0
  6
CONTINUOUS
 62
     7
  2
*UDIM1327
 70
    65
 10
0.0
 20
0.0
 30
0.0
  3
*UDIM1327
  0
TEXT
  5
    F3
  8
0
  6
CONTINUOUS
 62
     7
 10
-111.489570438916
 20
-60.5556815982184
 30
0.0
 40
2.99999998416219
  1
70
 50
359.999999948034
 41
0.933333333333333
 72
     1
 11
-108.989570450761
 21
-59.0556816083921
 31
0.0
 73
     2
  0
LINE
  5
    F4
  8
0
  6
CONTINUOUS
 62
     7
 10
-118.514571623802
 20
-54.5917432282149
 30
0.0
 11
-118.514571623802
 21
-63.5556816004732
 31
0.0
  0
LINE
  5
    F5
  8
0
  6
CONTINUOUS
 62
     7
 10
-98.9145715403557
 20
-61.5556816004732
 30
0.0
 11
-118.514571623802
 21
-61.5556816004732
 31
0.0
  0
LINE
  5
    F6
  8
0
  6
CONTINUOUS
 62
     7
 10
-101.868994817563
 20
-62.0766260304249
 30
0.0
 11
-98.9145715403557
 21
-61.5556816004732
 31
0.0
  0
LINE
  5
    F7
  8
0
  6
CONTINUOUS
 62
     7
 10
-98.9145715403557
 20
-61.5556816004732
 30
0.0
 11
-101.868994817563
 21
-61.0347371705216
 31
0.0
  0
LINE
  5
    F8
  8
0
  6
CONTINUOUS
 62
     7
 10
-115.560148346595
 20
-61.0347371705216
 30
0.0
 11
-118.514571623802
 21
-61.5556816004732
 31
0.0
  0
LINE
  5
    F9
  8
0
  6
CONTINUOUS
 62
     7
 10
-118.514571623802
 20
-61.5556816004732
 30
0.0
 11
-115.560148346595
 21
-62.0766260304249
 31
0.0
  0
ENDBLK
  5
    FA
  8
0
  6
CONTINUOUS
 62
     7
  0
BLOCK
  5
    FB
  8
0
  6
CONTINUOUS
 62
     7
  2
*UDIM1328
 70
    65
 10
0.0
 20
0.0
 30
0.0
  3
*UDIM1328
  0
TEXT
  5
    FC
  8
0
  6
CONTINUOUS
 62
     7
 10
-144.509048737485
 20
92.2125533176832
 30
0.0
 40
2.99999998416219
  1
22
 50
89.9999999480344
 41
0.933333333333333
 72
     1
 11
-146.009048727301
 21
94.7125533058436
 31
0.0
 73
     2
  0
LINE
  5
    FD
  8
0
  6
CONTINUOUS
 62
     7
 10
-118.254575356841
 20
91.5814314782619
 30
0.0
 11
-145.50904873522
 21
91.5814314782619
 31
0.0
  0
LINE
  5
    FE
  8
0
  6
CONTINUOUS
 62
     7
 10
-124.414575383067
 20
97.741431504488
 30
0.0
 11
-145.50904873522
 21
97.741431504488
 31
0.0
  0
LINE
  5
    FF
  8
0
  6
CONTINUOUS
 62
     7
 10
-143.50904873522
 20
91.5814314782619
 30
0.0
 11
-143.50904873522
 21
97.741431504488
 31
0.0
  0
LINE
  5
   100
  8
0
  6
CONTINUOUS
 62
     7
 10
-142.988104305269
 20
88.627008201055
 30
0.0
 11
-143.50904873522
 21
91.5814314782619
 31
0.0
  0
LINE
  5
   101
  8
0
  6
CONTINUOUS
 62
     7
 10
-143.50904873522
 20
91.5814314782619
 30
0.0
 11
-144.029993165172
 21
88.627008201055
 31
0.0
  0
LINE
  5
   102
  8
0
  6
CONTINUOUS
 62
     7
 10
-144.029993165172
 20
100.695854781695
 30
0.0
 11
-143.50904873522
 21
97.741431504488
 31
0.0
  0
LINE
  5
   103
  8
0
  6
CONTINUOUS
 62
     7
 10
-143.50904873522
 20
97.741431504488
 30
0.0
 11
-142.988104305269
 21
100.695854781695
 31
0.0
  0
ENDBLK
  5
   104
  8
0
  6
CONTINUOUS
 62
     7
  0
BLOCK
  5
   105
  8
0
  6
CONTINUOUS
 62
     7
  2
*UDIM1329
 70
    65
 10
0.0
 20
0.0
 30
0.0
  3
*UDIM1329
  0
TEXT
  5
   106
  8
0
  6
CONTINUOUS
 62
     7
 10
-144.509048737485
 20
104.636433768851
 30
0.0
 40
2.99999998416219
  1
14
 50
89.9999999480344
 41
0.933333333333333
 72
     1
 11
-146.009048727301
 21
107.136433757011
 31
0.0
 73
     2
  0
LINE
  5
   107
  8
0
  6
CONTINUOUS
 62
     7
 10
-126.514571653605
 20
101.661431521177
 30
0.0
 11
-145.50904873522
 21
101.661431521177
 31
0.0
  0
LINE
  5
   108
  8
0
  6
CONTINUOUS
 62
     7
 10
-143.50904873522
 20
97.741431504488
 30
0.0
 11
-143.50904873522
 21
109.636433743813
 31
0.0
  0
LINE
  5
   109
  8
0
  6
CONTINUOUS
 62
     7
 10
-142.988104305269
 20
94.787008227281
 30
0.0
 11
-143.50904873522
 21
97.741431504488
 31
0.0
  0
LINE
  5
   10A
  8
0
  6
CONTINUOUS
 62
     7
 10
-143.50904873522
 20
97.741431504488
 30
0.0
 11
-144.029993165172
 21
94.787008227281
 31
0.0
  0
LINE
  5
   10B
  8
0
  6
CONTINUOUS
 62
     7
 10
-144.029993165172
 20
104.615854798384
 30
0.0
 11
-143.50904873522
 21
101.661431521177
 31
0.0
  0
LINE
  5
   10C
  8
0
  6
CONTINUOUS
 62
     7
 10
-143.50904873522
 20
101.661431521177
 30
0.0
 11
-142.988104305269
 21
104.615854798384
 31
0.0
  0
ENDBLK
  5
   10D
  8
0
  6
CONTINUOUS
 62
     7
  0
BLOCK
  5
   10E
  8
0
  6
CONTINUOUS
 62
     7
  2
*UDIM1330
 70
    65
 10
0.0
 20
0.0
 30
0.0
  3
*UDIM1330
  0
TEXT
  5
   10F
  8
0
  6
CONTINUOUS
 62
     7
 10
-150.207486266818
 20
54.3314289231594
 30
0.0
 40
2.99999998416219
  1
278,25
 50
89.9999999480344
 41
0.933333333333333
 72
     1
 11
-151.707486251562
 21
62.4314288817559
 31
0.0
 73
     2
  0
LINE
  5
   110
  8
0
  6
CONTINUOUS
 62
     7
 10
-142.019523601896
 20
23.7514269170165
 30
0.0
 11
-151.207486259481
 21
23.7514269170165
 31
0.0
  0
LINE
  5
   111
  8
0
  6
CONTINUOUS
 62
     7
 10
-126.514571653605
 20
101.661431521177
 30
0.0
 11
-151.207486259481
 21
101.661431521177
 31
0.0
  0
LINE
  5
   112
  8
0
  6
CONTINUOUS
 62
     7
 10
-149.207486259481
 20
23.7514269170165
 30
0.0
 11
-149.207486259481
 21
101.661431521177
 31
0.0
  0
LINE
  5
   113
  8
0
  6
CONTINUOUS
 62
     7
 10
-149.728430689433
 20
26.7058501942235
 30
0.0
 11
-149.207486259481
 21
23.7514269170165
 31
0.0
  0
LINE
  5
   114
  8
0
  6
CONTINUOUS
 62
     7
 10
-149.207486259481
 20
23.7514269170165
 30
0.0
 11
-148.68654182953
 21
26.7058501942235
 31
0.0
  0
LINE
  5
   115
  8
0
  6
CONTINUOUS
 62
     7
 10
-148.68654182953
 20
98.7070082439703
 30
0.0
 11
-149.207486259481
 21
101.661431521177
 31
0.0
  0
LINE
  5
   116
  8
0
  6
CONTINUOUS
 62
     7
 10
-149.207486259481
 20
101.661431521177
 30
0.0
 11
-149.728430689433
 21
98.7070082439703
 31
0.0
  0
ENDBLK
  5
   117
  8
0
  6
CONTINUOUS
 62
     7
  0
BLOCK
  5
   118
  8
0
  6
CONTINUOUS
 62
     7
  2
*UDIM1331
 70
    65
 10
0.0
 20
0.0
 30
0.0
  3
*UDIM1331
  0
TEXT
  5
   119
  8
0
  6
CONTINUOUS
 62
     7
 10
-67.1795757176824
 20
-75.7302025330588
 30
0.0
 40
2.99999998416219
  1
136,5
 50
359.999999948034
 41
0.933333333333333
 72
     1
 11
-60.4795757517006
 21
-74.2302025470207
 31
0.0
 73
     2
  0
LINE
  5
   11A
  8
0
  6
CONTINUOUS
 62
     7
 10
-41.0945750325918
 20
22.2614205062389
 30
0.0
 11
-41.0945750325918
 21
-78.7302025391018
 31
0.0
  0
LINE
  5
   11B
  8
0
  6
CONTINUOUS
 62
     7
 10
-79.3145751953125
 20
-53.0661580840778
 30
0.0
 11
-79.3145751953125
 21
-78.7302025391018
 31
0.0
  0
LINE
  5
   11C
  8
0
  6
CONTINUOUS
 62
     7
 10
-41.0945750325918
 20
-76.7302025391018
 30
0.0
 11
-79.3145751953125
 21
-76.7302025391018
 31
0.0
  0
LINE
  5
   11D
  8
0
  6
CONTINUOUS
 62
     7
 10
-44.0489983097988
 20
-77.2511469690535
 30
0.0
 11
-41.0945750325918
 21
-76.7302025391018
 31
0.0
  0
LINE
  5
   11E
  8
0
  6
CONTINUOUS
 62
     7
 10
-41.0945750325918
 20
-76.7302025391018
 30
0.0
 11
-44.0489983097988
 21
-76.2092581091502
 31
0.0
  0
LINE
  5
   11F
  8
0
  6
CONTINUOUS
 62
     7
 10
-76.3601519181055
 20
-76.2092581091502
 30
0.0
 11
-79.3145751953125
 21
-76.7302025391018
 31
0.0
  0
LINE
  5
   120
  8
0
  6
CONTINUOUS
 62
     7
 10
-79.3145751953125
 20
-76.7302025391018
 30
0.0
 11
-76.3601519181055
 21
-77.2511469690535
 31
0.0
  0
ENDBLK
  5
   121
  8
0
  6
CONTINUOUS
 62
     7
  0
BLOCK
  5
   122
  8
0
  6
CONTINUOUS
 62
     7
  2
*UDIM1332
 70
    65
 10
0.0
 20
0.0
 30
0.0
  3
*UDIM1332
  0
TEXT
  5
   123
  8
0
  6
CONTINUOUS
 62
     7
 10
-113.379571641917
 20
-75.7302025330588
 30
0.0
 40
2.99999998416219
  1
193,5
 50
359.999999948034
 41
0.933333333333333
 72
     1
 11
-106.679571675935
 21
-74.2302025470207
 31
0.0
 73
     2
  0
LINE
  5
   124
  8
0
  6
CONTINUOUS
 62
     7
 10
-133.494575425982
 20
22.2613777816293
 30
0.0
 11
-133.494575425982
 21
-78.7302025391018
 31
0.0
  0
LINE
  5
   125
  8
0
  6
CONTINUOUS
 62
     7
 10
-79.3145751953125
 20
-76.7302025391018
 30
0.0
 11
-133.494575425982
 21
-76.7302025391018
 31
0.0
  0
LINE
  5
   126
  8
0
  6
CONTINUOUS
 62
     7
 10
-82.2689984725195
 20
-77.2511469690535
 30
0.0
 11
-79.3145751953125
 21
-76.7302025391018
 31
0.0
  0
LINE
  5
   127
  8
0
  6
CONTINUOUS
 62
     7
 10
-79.3145751953125
 20
-76.7302025391018
 30
0.0
 11
-82.2689984725195
 21
-76.2092581091502
 31
0.0
  0
LINE
  5
   128
  8
0
  6
CONTINUOUS
 62
     7
 10
-130.540152148776
 20
-76.2092581091502
 30
0.0
 11
-133.494575425982
 21
-76.7302025391018
 31
0.0
  0
LINE
  5
   129
  8
0
  6
CONTINUOUS
 62
     7
 10
-133.494575425982
 20
-76.7302025391018
 30
0.0
 11
-130.540152148776
 21
-77.2511469690535
 31
0.0
  0
ENDBLK
  5
   12A
  8
0
  6
CONTINUOUS
 62
     7
  0
BLOCK
  5
   12B
  8
0
  6
CONTINUOUS
 62
     7
  2
*UDIM1333
 70
    65
 10
0.0
 20
0.0
 30
0.0
  3
*UDIM1333
  0
TEXT
  5
   12C
  8
0
  6
CONTINUOUS
 62
     7
 10
-93.2895764563628
 20
115.944495546091
 30
0.0
 40
2.99999998416219
  1
280
 50
359.999999948034
 41
0.933333333333333
 72
     1
 11
-89.389576475599
 21
117.444495534654
 31
0.0
 73
     2
  0
LINE
  5
   12D
  8
0
  6
CONTINUOUS
 62
     7
 10
-49.9145750701427
 20
83.9014314413071
 30
0.0
 11
-49.9145750701427
 21
116.944495542573
 31
0.0
  0
LINE
  5
   12E
  8
0
  6
CONTINUOUS
 62
     7
 10
-128.314575403929
 20
83.9014314413071
 30
0.0
 11
-128.314575403929
 21
116.944495542573
 31
0.0
  0
LINE
  5
   12F
  8
0
  6
CONTINUOUS
 62
     7
 10
-49.9145750701427
 20
114.944495542573
 30
0.0
 11
-128.314575403929
 21
114.944495542573
 31
0.0
  0
LINE
  5
   130
  8
0
  6
CONTINUOUS
 62
     7
 10
-52.8689983473497
 20
114.423551112622
 30
0.0
 11
-49.9145750701427
 21
114.944495542573
 31
0.0
  0
LINE
  5
   131
  8
0
  6
CONTINUOUS
 62
     7
 10
-49.9145750701427
 20
114.944495542573
 30
0.0
 11
-52.8689983473497
 21
115.465439972525
 31
0.0
  0
LINE
  5
   132
  8
0
  6
CONTINUOUS
 62
     7
 10
-125.360152126722
 20
115.465439972525
 30
0.0
 11
-128.314575403929
 21
114.944495542573
 31
0.0
  0
LINE
  5
   133
  8
0
  6
CONTINUOUS
 62
     7
 10
-128.314575403929
 20
114.944495542573
 30
0.0
 11
-125.360152126722
 21
114.423551112622
 31
0.0
  0
ENDBLK
  5
   134
  8
0
  6
CONTINUOUS
 62
     7
  0
BLOCK
  5
   135
  8
0
  6
CONTINUOUS
 62
     7
  2
*UDIM1334
 70
    65
 10
0.0
 20
0.0
 30
0.0
  3
*UDIM1334
  0
TEXT
  5
   136
  8
0
  6
CONTINUOUS
 62
     7
 10
-83.489574278409
 20
109.668182042807
 30
0.0
 40
2.99999998416219
  1
140
 50
359.999999948034
 41
0.933333333333333
 72
     1
 11
-79.5895742976453
 21
111.168182031371
 31
0.0
 73
     2
  0
LINE
  5
   137
  8
0
  6
CONTINUOUS
 62
     7
 10
-59.714575111866
 20
43.7914269980788
 30
0.0
 11
-59.714575111866
 21
110.66818203929
 31
0.0
  0
LINE
  5
   138
  8
0
  6
CONTINUOUS
 62
     7
 10
-98.914575278759
 20
43.7914269980788
 30
0.0
 11
-98.914575278759
 21
110.66818203929
 31
0.0
  0
LINE
  5
   139
  8
0
  6
CONTINUOUS
 62
     7
 10
-59.714575111866
 20
108.66818203929
 30
0.0
 11
-98.914575278759
 21
108.66818203929
 31
0.0
  0
LINE
  5
   13A
  8
0
  6
CONTINUOUS
 62
     7
 10
-62.668998389073
 20
108.147237609338
 30
0.0
 11
-59.714575111866
 21
108.66818203929
 31
0.0
  0
LINE
  5
   13B
  8
0
  6
CONTINUOUS
 62
     7
 10
-59.714575111866
 20
108.66818203929
 30
0.0
 11
-62.668998389073
 21
109.189126469241
 31
0.0
  0
LINE
  5
   13C
  8
0
  6
CONTINUOUS
 62
     7
 10
-95.9601520015521
 20
109.189126469241
 30
0.0
 11
-98.914575278759
 21
108.66818203929
 31
0.0
  0
LINE
  5
   13D
  8
0
  6
CONTINUOUS
 62
     7
 10
-98.914575278759
 20
108.66818203929
 30
0.0
 11
-95.9601520015521
 21
108.147237609338
 31
0.0
  0
ENDBLK
  5
   13E
  8
0
  6
CONTINUOUS
 62
     7
  0
BLOCK
  5
   13F
  8
0
  6
CONTINUOUS
 62
     7
  2
*UDIM1335
 70
    65
 10
0.0
 20
0.0
 30
0.0
  3
*UDIM1335
  0
TEXT
  5
   140
  8
0
  6
CONTINUOUS
 62
     7
 10
-82.0895708478041
 20
-54.5990934380927
 30
0.0
 40
2.99999998416219
  1
50
 50
359.999999948034
 41
0.933333333333333
 72
     1
 11
-79.5895708596493
 21
-53.0990934482665
 31
0.0
 73
     2
  0
LINE
  5
   141
  8
0
  6
CONTINUOUS
 62
     7
 10
-72.3145714271068
 20
-50.5385691225528
 30
0.0
 11
-72.3145714271068
 21
-57.5990934403476
 31
0.0
  0
LINE
  5
   142
  8
0
  6
CONTINUOUS
 62
     7
 10
-86.3145714867115
 20
-50.5385691225528
 30
0.0
 11
-86.3145714867115
 21
-57.5990934403476
 31
0.0
  0
LINE
  5
   143
  8
0
  6
CONTINUOUS
 62
     7
 10
-72.3145714271068
 20
-55.5990934403476
 30
0.0
 11
-86.3145714867115
 21
-55.5990934403476
 31
0.0
  0
LINE
  5
   144
  8
0
  6
CONTINUOUS
 62
     7
 10
-75.2689947043138
 20
-56.1200378702993
 30
0.0
 11
-72.3145714271068
 21
-55.5990934403476
 31
0.0
  0
LINE
  5
   145
  8
0
  6
CONTINUOUS
 62
     7
 10
-72.3145714271068
 20
-55.5990934403476
 30
0.0
 11
-75.2689947043138
 21
-55.0781490103959
 31
0.0
  0
LINE
  5
   146
  8
0
  6
CONTINUOUS
 62
     7
 10
-83.3601482095045
 20
-55.0781490103959
 30
0.0
 11
-86.3145714867115
 21
-55.5990934403476
 31
0.0
  0
LINE
  5
   147
  8
0
  6
CONTINUOUS
 62
     7
 10
-86.3145714867115
 20
-55.5990934403476
 30
0.0
 11
-83.3601482095045
 21
-56.1200378702993
 31
0.0
  0
ENDBLK
  5
   148
  8
0
  6
CONTINUOUS
 62
     7
  0
BLOCK
  5
   149
  8
0
  6
CONTINUOUS
 62
     7
  2
*UDIM1336
 70
    65
 10
0.0
 20
0.0
 30
0.0
  3
*UDIM1336
  0
TEXT
  5
   14A
  8
0
  6
CONTINUOUS
 62
     7
 10
-148.971801952965
 20
-56.0818123193077
 30
0.0
 40
2.99999998416219
  1
11
 50
382.871543794364
 41
0.933333333333333
 72
     1
 11
-147.251355168775
 21
-53.7280785253068
 31
0.0
 73
     2
  0
TEXT
  5
   14B
  8
0
  6
CONTINUOUS
 62
     7
 10
-151.87414436879
 20
-57.3061114465751
 30
0.0
 40
2.99999998416219
  1
Ø
 50
382.871543794364
 41
0.933333333333333
 72
     1
 11
-151.443627550726
 21
-55.4965105975394
 31
0.0
 73
     2
  0
LINE
  5
   14C
  8
0
  6
CONTINUOUS
 62
     7
 10
-151.485477975015
 20
-58.2274899987097
 30
0.0
 11
-120.175652399588
 21
-45.0200228594143
 31
0.0
  0
LINE
  5
   14D
  8
0
  6
CONTINUOUS
 62
     7
 10
-125.533166999351
 20
-47.8453874127385
 30
0.0
 11
-123.013498351049
 21
-46.2171153523127
 31
0.0
  0
LINE
  5
   14E
  8
0
  6
CONTINUOUS
 62
     7
 10
-123.013498351049
 20
-46.2171153523127
 30
0.0
 11
-125.938114183544
 21
-46.8854133639201
 31
0.0
  0
LINE
  5
   14F
  8
0
  6
CONTINUOUS
 62
     7
 10
-117.655983751286
 20
-43.3917507989885
 30
0.0
 11
-120.175652399588
 21
-45.0200228594143
 31
0.0
  0
LINE
  5
   150
  8
0
  6
CONTINUOUS
 62
     7
 10
-120.175652399588
 20
-45.0200228594143
 30
0.0
 11
-117.251036567093
 21
-44.3517248478069
 31
0.0
  0
ENDBLK
  5
   151
  8
0
  6
CONTINUOUS
 62
     7
  0
BLOCK
  5
   152
  8
0
  6
CONTINUOUS
 62
     7
  2
*UDIM1337
 70
    65
 10
0.0
 20
0.0
 30
0.0
  3
*UDIM1337
  0
TEXT
  5
   153
  8
0
  6
CONTINUOUS
 62
     7
 10
-121.421290435214
 20
-54.5990934380927
 30
0.0
 40
2.99999998416219
  1
22
 50
359.999999948034
 41
0.933333333333333
 72
     1
 11
-118.921290447059
 21
-53.0990934482665
 31
0.0
 73
     2
  0
LINE
  5
   154
  8
0
  6
CONTINUOUS
 62
     7
 10
-115.434575349092
 20
-42.2785690873861
 30
0.0
 11
-115.434575349092
 21
-57.5990934403476
 31
0.0
  0
LINE
  5
   155
  8
0
  6
CONTINUOUS
 62
     7
 10
-121.594575375319
 20
-48.4385691136121
 30
0.0
 11
-121.594575375319
 21
-57.5990934403476
 31
0.0
  0
LINE
  5
   156
  8
0
  6
CONTINUOUS
 62
     7
 10
-115.434575349092
 20
-55.5990934403476
 30
0.0
 11
-121.594575375319
 21
-55.5990934403476
 31
0.0
  0
LINE
  5
   157
  8
0
  6
CONTINUOUS
 62
     7
 10
-112.480152071886
 20
-55.0781490103959
 30
0.0
 11
-115.434575349092
 21
-55.5990934403476
 31
0.0
  0
LINE
  5
   158
  8
0
  6
CONTINUOUS
 62
     7
 10
-115.434575349092
 20
-55.5990934403476
 30
0.0
 11
-112.480152071886
 21
-56.1200378702993
 31
0.0
  0
LINE
  5
   159
  8
0
  6
CONTINUOUS
 62
     7
 10
-124.548998652526
 20
-56.1200378702993
 30
0.0
 11
-121.594575375319
 21
-55.5990934403476
 31
0.0
  0
LINE
  5
   15A
  8
0
  6
CONTINUOUS
 62
     7
 10
-121.594575375319
 20
-55.5990934403476
 30
0.0
 11
-124.548998652526
 21
-55.0781490103959
 31
0.0
  0
ENDBLK
  5
   15B
  8
0
  6
CONTINUOUS
 62
     7
  0
BLOCK
  5
   15C
  8
0
  6
CONTINUOUS
 62
     7
  2
*UDIM1338
 70
    65
 10
0.0
 20
0.0
 30
0.0
  3
*UDIM1338
  0
TEXT
  5
   15D
  8
0
  6
CONTINUOUS
 62
     7
 10
-138.614500987969
 20
44.9514288832243
 30
0.0
 40
2.99999998416219
  1
211,25
 50
89.9999999480344
 41
0.933333333333333
 72
     1
 11
-140.114500972713
 21
53.0514288418208
 31
0.0
 73
     2
  0
LINE
  5
   15E
  8
0
  6
CONTINUOUS
 62
     7
 10
-129.314575403929
 20
82.9014314413071
 30
0.0
 11
-139.614500980632
 21
82.9014314413071
 31
0.0
  0
LINE
  5
   15F
  8
0
  6
CONTINUOUS
 62
     7
 10
-137.614500980632
 20
23.7514269170165
 30
0.0
 11
-137.614500980632
 21
82.9014314413071
 31
0.0
  0
LINE
  5
   160
  8
0
  6
CONTINUOUS
 62
     7
 10
-138.135445410584
 20
26.7058501942235
 30
0.0
 11
-137.614500980632
 21
23.7514269170165
 31
0.0
  0
LINE
  5
   161
  8
0
  6
CONTINUOUS
 62
     7
 10
-137.614500980632
 20
23.7514269170165
 30
0.0
 11
-137.093556550681
 21
26.7058501942235
 31
0.0
  0
LINE
  5
   162
  8
0
  6
CONTINUOUS
 62
     7
 10
-137.093556550681
 20
79.9470081641001
 30
0.0
 11
-137.614500980632
 21
82.9014314413071
 31
0.0
  0
LINE
  5
   163
  8
0
  6
CONTINUOUS
 62
     7
 10
-137.614500980632
 20
82.9014314413071
 30
0.0
 11
-138.135445410584
 21
79.9470081641001
 31
0.0
  0
ENDBLK
  5
   164
  8
0
  6
CONTINUOUS
 62
     7
  0
BLOCK
  5
   165
  8
0
  6
CONTINUOUS
 62
     7
  2
*UDIM1339
 70
    65
 10
0.0
 20
0.0
 30
0.0
  3
*UDIM1339
  0
TEXT
  5
   166
  8
0
  6
CONTINUOUS
 62
     7
 10
-144.509048738753
 20
31.5567394860821
 30
0.0
 40
2.99999998416219
  1
406
 50
89.9999999480344
 41
0.933333333333333
 72
     1
 11
-146.009048727301
 21
35.4567394668516
 31
0.0
 73
     2
  0
LINE
  5
   167
  8
0
  6
CONTINUOUS
 62
     7
 10
-129.314575403929
 20
-30.7785690426826
 30
0.0
 11
-145.50904873522
 21
-30.7785690426826
 31
0.0
  0
LINE
  5
   168
  8
0
  6
CONTINUOUS
 62
     7
 10
-129.314575403929
 20
82.9014314413071
 30
0.0
 11
-145.50904873522
 21
82.9014314413071
 31
0.0
  0
LINE
  5
   169
  8
0
  6
CONTINUOUS
 62
     7
 10
-143.50904873522
 20
-30.7785690426826
 30
0.0
 11
-143.50904873522
 21
82.9014314413071
 31
0.0
  0
LINE
  5
   16A
  8
0
  6
CONTINUOUS
 62
     7
 10
-144.029993165172
 20
-27.8241457654757
 30
0.0
 11
-143.50904873522
 21
-30.7785690426826
 31
0.0
  0
LINE
  5
   16B
  8
0
  6
CONTINUOUS
 62
     7
 10
-143.50904873522
 20
-30.7785690426826
 30
0.0
 11
-142.988104305269
 21
-27.8241457654757
 31
0.0
  0
LINE
  5
   16C
  8
0
  6
CONTINUOUS
 62
     7
 10
-142.988104305269
 20
79.9470081641001
 30
0.0
 11
-143.50904873522
 21
82.9014314413071
 31
0.0
  0
LINE
  5
   16D
  8
0
  6
CONTINUOUS
 62
     7
 10
-143.50904873522
 20
82.9014314413071
 30
0.0
 11
-144.029993165172
 21
79.9470081641001
 31
0.0
  0
ENDBLK
  5
   16E
  8
0
  6
CONTINUOUS
 62
     7
  0
BLOCK
  5
   16F
  8
0
  6
CONTINUOUS
 62
     7
  2
*UDIM1340
 70
    65
 10
0.0
 20
0.0
 30
0.0
  3
*UDIM1340
  0
TEXT
  5
   170
  8
0
  6
CONTINUOUS
 62
     7
 10
-156.201949789511
 20
21.8864299799796
 30
0.0
 40
2.99999998416219
  1
540
 50
89.9999999480344
 41
0.933333333333333
 72
     1
 11
-157.70194977806
 21
25.786429960749
 31
0.0
 73
     2
  0
LINE
  5
   171
  8
0
  6
CONTINUOUS
 62
     7
 10
-126.514571653605
 20
-49.5385691225528
 30
0.0
 11
-157.201949785979
 21
-49.5385691225528
 31
0.0
  0
LINE
  5
   172
  8
0
  6
CONTINUOUS
 62
     7
 10
-126.514571653605
 20
101.661431521177
 30
0.0
 11
-157.201949785979
 21
101.661431521177
 31
0.0
  0
LINE
  5
   173
  8
0
  6
CONTINUOUS
 62
     7
 10
-155.201949785979
 20
-49.5385691225528
 30
0.0
 11
-155.201949785979
 21
101.661431521177
 31
0.0
  0
LINE
  5
   174
  8
0
  6
CONTINUOUS
 62
     7
 10
-155.722894215931
 20
-46.5841458453459
 30
0.0
 11
-155.201949785979
 21
-49.5385691225528
 31
0.0
  0
LINE
  5
   175
  8
0
  6
CONTINUOUS
 62
     7
 10
-155.201949785979
 20
-49.5385691225528
 30
0.0
 11
-154.681005356028
 21
-46.5841458453459
 31
0.0
  0
LINE
  5
   176
  8
0
  6
CONTINUOUS
 62
     7
 10
-154.681005356028
 20
98.7070082439703
 30
0.0
 11
-155.201949785979
 21
101.661431521177
 31
0.0
  0
LINE
  5
   177
  8
0
  6
CONTINUOUS
 62
     7
 10
-155.201949785979
 20
101.661431521177
 30
0.0
 11
-155.722894215931
 21
98.7070082439703
 31
0.0
  0
ENDBLK
  5
   178
  8
0
  6
CONTINUOUS
 62
     7
  0
BLOCK
  5
   179
  8
0
  6
CONTINUOUS
 62
     7
  2
*UDIM1341
 70
    65
 10
0.0
 20
0.0
 30
0.0
  3
*UDIM1341
  0
TEXT
  5
   17A
  8
0
  6
CONTINUOUS
 62
     7
 10
-271.010186103708
 20
-83.2540572460587
 30
0.0
 40
3.00000009059906
  1
120,5
 50
449.999999896069
 41
0.933333333333333
 72
     1
 11
-272.510186136896
 21
-76.5540570410093
 31
0.0
 73
     2
  0
LINE
  5
   17B
  8
0
  6
CONTINUOUS
 62
     7
 10
-243.081818282604
 20
-65.4340566396713
 30
0.0
 11
-272.010186091597
 21
-65.4340566396713
 31
0.0
  0
LINE
  5
   17C
  8
0
  6
CONTINUOUS
 62
     7
 10
-243.081818282604
 20
-87.1240575015545
 30
0.0
 11
-272.010186091597
 21
-87.1240575015545
 31
0.0
  0
LINE
  5
   17D
  8
0
  6
CONTINUOUS
 62
     7
 10
-270.010186091597
 20
-65.4340566396713
 30
0.0
 11
-270.010186091597
 21
-87.1240575015545
 31
0.0
  0
LINE
  5
   17E
  8
0
  6
CONTINUOUS
 62
     7
 10
-269.489241661645
 20
-68.3884799168783
 30
0.0
 11
-270.010186091597
 21
-65.4340566396713
 31
0.0
  0
LINE
  5
   17F
  8
0
  6
CONTINUOUS
 62
     7
 10
-270.010186091597
 20
-65.4340566396713
 30
0.0
 11
-270.531130521548
 21
-68.3884799168783
 31
0.0
  0
LINE
  5
   180
  8
0
  6
CONTINUOUS
 62
     7
 10
-270.531130521548
 20
-84.1696342243475
 30
0.0
 11
-270.010186091597
 21
-87.1240575015545
 31
0.0
  0
LINE
  5
   181
  8
0
  6
CONTINUOUS
 62
     7
 10
-270.010186091597
 20
-87.1240575015545
 30
0.0
 11
-269.489241661645
 21
-84.1696342243475
 31
0.0
  0
ENDBLK
  5
   182
  8
0
  6
CONTINUOUS
 62
     7
  0
BLOCK
  5
   183
  8
0
  6
CONTINUOUS
 62
     7
  2
*UDIM1342
 70
    65
 10
0.0
 20
0.0
 30
0.0
  3
*UDIM1342
  0
TEXT
  5
   184
  8
0
  6
CONTINUOUS
 62
     7
 10
-271.010186101177
 20
-101.573516379026
 30
0.0
 40
3.00000009059906
  1
92,5
 50
449.999999896069
 41
0.933333333333333
 72
     1
 11
-272.510186136896
 21
-96.2735162162566
 31
0.0
 73
     2
  0
LINE
  5
   185
  8
0
  6
CONTINUOUS
 62
     7
 10
-265.213527866055
 20
-103.819058164954
 30
0.0
 11
-272.010186091597
 21
-103.819058164954
 31
0.0
  0
LINE
  5
   186
  8
0
  6
CONTINUOUS
 62
     7
 10
-270.010186091597
 20
-87.1240575015545
 30
0.0
 11
-270.010186091597
 21
-103.819058164954
 31
0.0
  0
LINE
  5
   187
  8
0
  6
CONTINUOUS
 62
     7
 10
-269.489241661645
 20
-90.0784807787615
 30
0.0
 11
-270.010186091597
 21
-87.1240575015545
 31
0.0
  0
LINE
  5
   188
  8
0
  6
CONTINUOUS
 62
     7
 10
-270.010186091597
 20
-87.1240575015545
 30
0.0
 11
-270.531130521548
 21
-90.0784807787615
 31
0.0
  0
LINE
  5
   189
  8
0
  6
CONTINUOUS
 62
     7
 10
-270.531130521548
 20
-100.864634887747
 30
0.0
 11
-270.010186091597
 21
-103.819058164954
 31
0.0
  0
LINE
  5
   18A
  8
0
  6
CONTINUOUS
 62
     7
 10
-270.010186091597
 20
-103.819058164954
 30
0.0
 11
-269.489241661645
 21
-100.864634887747
 31
0.0
  0
ENDBLK
  5
   18B
  8
0
  6
CONTINUOUS
 62
     7
  0
BLOCK
  5
   18C
  8
0
  6
CONTINUOUS
 62
     7
  2
*UDIM1343
 70
    65
 10
0.0
 20
0.0
 30
0.0
  3
*UDIM1343
  0
TEXT
  5
   18D
  8
0
  6
CONTINUOUS
 62
     7
 10
-271.010186096116
 20
-113.618768601932
 30
0.0
 40
3.00000009059906
  1
76
 50
449.999999896069
 41
0.933333333333333
 72
     1
 11
-272.510186136896
 21
-111.118768523721
 31
0.0
 73
     2
  0
LINE
  5
   18E
  8
0
  6
CONTINUOUS
 62
     7
 10
-243.081818282604
 20
-117.544058710337
 30
0.0
 11
-272.010186091597
 21
-117.544058710337
 31
0.0
  0
LINE
  5
   18F
  8
0
  6
CONTINUOUS
 62
     7
 10
-270.010186091597
 20
-103.819058164954
 30
0.0
 11
-270.010186091597
 21
-117.544058710337
 31
0.0
  0
LINE
  5
   190
  8
0
  6
CONTINUOUS
 62
     7
 10
-269.489241661645
 20
-106.773481442161
 30
0.0
 11
-270.010186091597
 21
-103.819058164954
 31
0.0
  0
LINE
  5
   191
  8
0
  6
CONTINUOUS
 62
     7
 10
-270.010186091597
 20
-103.819058164954
 30
0.0
 11
-270.531130521548
 21
-106.773481442161
 31
0.0
  0
LINE
  5
   192
  8
0
  6
CONTINUOUS
 62
     7
 10
-270.531130521548
 20
-114.58963543313
 30
0.0
 11
-270.010186091597
 21
-117.544058710337
 31
0.0
  0
LINE
  5
   193
  8
0
  6
CONTINUOUS
 62
     7
 10
-270.010186091597
 20
-117.544058710337
 30
0.0
 11
-269.489241661645
 21
-114.58963543313
 31
0.0
  0
ENDBLK
  5
   194
  8
0
  6
CONTINUOUS
 62
     7
  0
BLOCK
  5
   195
  8
0
  6
CONTINUOUS
 62
     7
  2
*UDIM1344
 70
    65
 10
0.0
 20
0.0
 30
0.0
  3
*UDIM1344
  0
TEXT
  5
   196
  8
0
  6
CONTINUOUS
 62
     7
 10
-271.010186103708
 20
-135.364056570142
 30
0.0
 40
3.00000009059906
  1
120,5
 50
449.999999896069
 41
0.933333333333333
 72
     1
 11
-272.510186136896
 21
-128.664056365093
 31
0.0
 73
     2
  0
LINE
  5
   197
  8
0
  6
CONTINUOUS
 62
     7
 10
-243.081818282604
 20
-139.23405957222
 30
0.0
 11
-272.010186091597
 21
-139.23405957222
 31
0.0
  0
LINE
  5
   198
  8
0
  6
CONTINUOUS
 62
     7
 10
-270.010186091597
 20
-117.544058710337
 30
0.0
 11
-270.010186091597
 21
-139.23405957222
 31
0.0
  0
LINE
  5
   199
  8
0
  6
CONTINUOUS
 62
     7
 10
-269.489241661645
 20
-120.498481987544
 30
0.0
 11
-270.010186091597
 21
-117.544058710337
 31
0.0
  0
LINE
  5
   19A
  8
0
  6
CONTINUOUS
 62
     7
 10
-270.010186091597
 20
-117.544058710337
 30
0.0
 11
-270.531130521548
 21
-120.498481987544
 31
0.0
  0
LINE
  5
   19B
  8
0
  6
CONTINUOUS
 62
     7
 10
-270.531130521548
 20
-136.279636295013
 30
0.0
 11
-270.010186091597
 21
-139.23405957222
 31
0.0
  0
LINE
  5
   19C
  8
0
  6
CONTINUOUS
 62
     7
 10
-270.010186091597
 20
-139.23405957222
 30
0.0
 11
-269.489241661645
 21
-136.279636295013
 31
0.0
  0
ENDBLK
  5
   19D
  8
0
  6
CONTINUOUS
 62
     7
  0
BLOCK
  5
   19E
  8
0
  6
CONTINUOUS
 62
     7
  2
*UDIM1345
 70
    65
 10
0.0
 20
0.0
 30
0.0
  3
*UDIM1345
  0
TEXT
  5
   19F
  8
0
  6
CONTINUOUS
 62
     7
 10
-220.696818473629
 20
-74.5356946072618
 30
0.0
 40
3.00000009059906
  1
284
 50
359.999999896069
 41
0.933333333333333
 72
     1
 11
-216.796818353136
 21
-73.035694569017
 31
0.0
 73
     2
  0
LINE
  5
   1A0
  8
0
  6
CONTINUOUS
 62
     7
 10
-190.961816251278
 20
-75.5356946143165
 30
0.0
 11
-242.081818282604
 21
-75.5356946143165
 31
0.0
  0
LINE
  5
   1A1
  8
0
  6
CONTINUOUS
 62
     7
 10
-193.916239528485
 20
-76.0566390442682
 30
0.0
 11
-190.961816251278
 21
-75.5356946143165
 31
0.0
  0
LINE
  5
   1A2
  8
0
  6
CONTINUOUS
 62
     7
 10
-190.961816251278
 20
-75.5356946143165
 30
0.0
 11
-193.916239528485
 21
-75.0147501843649
 31
0.0
  0
LINE
  5
   1A3
  8
0
  6
CONTINUOUS
 62
     7
 10
-239.127395005397
 20
-75.0147501843649
 30
0.0
 11
-242.081818282604
 21
-75.5356946143165
 31
0.0
  0
LINE
  5
   1A4
  8
0
  6
CONTINUOUS
 62
     7
 10
-242.081818282604
 20
-75.5356946143165
 30
0.0
 11
-239.127395005397
 21
-76.0566390442682
 31
0.0
  0
ENDBLK
  5
   1A5
  8
0
  6
CONTINUOUS
 62
     7
  0
BLOCK
  5
   1A6
  8
0
  6
CONTINUOUS
 62
     7
  2
*UDIM1346
 70
    65
 10
0.0
 20
0.0
 30
0.0
  3
*UDIM1346
  0
TEXT
  5
   1A7
  8
0
  6
CONTINUOUS
 62
     7
 10
-204.766817840627
 20
-80.9948263336512
 30
0.0
 40
3.00000009059906
  1
107
 50
359.999999896069
 41
0.933333333333333
 72
     1
 11
-200.866817720135
 21
-79.4948262954064
 31
0.0
 73
     2
  0
LINE
  5
   1A8
  8
0
  6
CONTINUOUS
 62
     7
 10
-190.961816251278
 20
-81.9948263407059
 30
0.0
 11
-210.221817016602
 21
-81.9948263407059
 31
0.0
  0
LINE
  5
   1A9
  8
0
  6
CONTINUOUS
 62
     7
 10
-193.916239528485
 20
-82.5157707706576
 30
0.0
 11
-190.961816251278
 21
-81.9948263407059
 31
0.0
  0
LINE
  5
   1AA
  8
0
  6
CONTINUOUS
 62
     7
 10
-190.961816251278
 20
-81.9948263407059
 30
0.0
 11
-193.916239528485
 21
-81.4738819107543
 31
0.0
  0
LINE
  5
   1AB
  8
0
  6
CONTINUOUS
 62
     7
 10
-207.267393739395
 20
-81.4738819107543
 30
0.0
 11
-210.221817016602
 21
-81.9948263407059
 31
0.0
  0
LINE
  5
   1AC
  8
0
  6
CONTINUOUS
 62
     7
 10
-210.221817016602
 20
-81.9948263407059
 30
0.0
 11
-207.267393739395
 21
-82.5157707706576
 31
0.0
  0
ENDBLK
  5
   1AD
  8
0
  6
CONTINUOUS
 62
     7
  0
BLOCK
  5
   1AE
  8
0
  6
CONTINUOUS
 62
     7
  2
*UDIM1347
 70
    65
 10
0.0
 20
0.0
 30
0.0
  3
*UDIM1347
  0
TEXT
  5
   1AF
  8
0
  6
CONTINUOUS
 62
     7
 10
-206.696817115278
 20
-98.4597234992925
 30
0.0
 40
3.00000009059906
  1
70
 50
359.999999896069
 41
0.933333333333333
 72
     1
 11
-204.196817037066
 21
-96.9597234585152
 31
0.0
 73
     2
  0
LINE
  5
   1B0
  8
0
  6
CONTINUOUS
 62
     7
 10
-197.621816515923
 20
-99.4597235038148
 30
0.0
 11
-210.221817016602
 21
-99.4597235038148
 31
0.0
  0
LINE
  5
   1B1
  8
0
  6
CONTINUOUS
 62
     7
 10
-200.57623979313
 20
-99.9806679337664
 30
0.0
 11
-197.621816515923
 21
-99.4597235038148
 31
0.0
  0
LINE
  5
   1B2
  8
0
  6
CONTINUOUS
 62
     7
 10
-197.621816515923
 20
-99.4597235038148
 30
0.0
 11
-200.57623979313
 21
-98.9387790738631
 31
0.0
  0
LINE
  5
   1B3
  8
0
  6
CONTINUOUS
 62
     7
 10
-207.267393739395
 20
-98.9387790738631
 30
0.0
 11
-210.221817016602
 21
-99.4597235038148
 31
0.0
  0
LINE
  5
   1B4
  8
0
  6
CONTINUOUS
 62
     7
 10
-210.221817016602
 20
-99.4597235038148
 30
0.0
 11
-207.267393739395
 21
-99.9806679337664
 31
0.0
  0
ENDBLK
  5
   1B5
  8
0
  6
CONTINUOUS
 62
     7
  0
BLOCK
  5
   1B6
  8
0
  6
CONTINUOUS
 62
     7
  2
*UDIM1348
 70
    65
 10
0.0
 20
0.0
 30
0.0
  3
*UDIM1348
  0
TEXT
  5
   1B7
  8
0
  6
CONTINUOUS
 62
     7
 10
-186.518593195642
 20
-110.969534041145
 30
0.0
 40
3.00000009059906
  1
8,5
 50
365.959648461357
 41
0.933333333333333
 72
     1
 11
-182.795413593275
 21
-109.072711776647
 31
0.0
 73
     2
  0
TEXT
  5
   1B8
  8
0
  6
CONTINUOUS
 62
     7
 10
-189.651568332531
 20
-111.296592346497
 30
0.0
 40
3.00000009059906
  1
Ø
 50
365.959648461357
 41
0.933333333333333
 72
     1
 11
-188.713255555406
 21
-109.690488569879
 31
0.0
 73
     2
  0
TEXT
  5
   1B9
  8
0
  6
CONTINUOUS
 62
     7
 10
-178.213722491408
 20
-110.102569959504
 30
0.0
 40
3.00000009059906
  1
 - M8
 50
365.959648461357
 41
0.933333333333333
 72
     1
 11
-171.705676063799
 21
-107.915029207127
 31
0.0
 73
     2
  0
LINE
  5
   1BA
  8
0
  6
CONTINUOUS
 62
     7
 10
-164.782317510544
 20
-109.705869591109
 30
0.0
 11
-198.382681923503
 21
-113.213486981243
 31
0.0
  0
LINE
  5
   1BB
  8
0
  6
CONTINUOUS
 62
     7
 10
-193.976584341415
 20
-112.229749277052
 30
0.0
 11
-196.860951108342
 21
-113.054630088955
 31
0.0
  0
LINE
  5
   1BC
  8
0
  6
CONTINUOUS
 62
     7
 10
-196.860951108342
 20
-113.054630088955
 30
0.0
 11
-193.868407073561
 21
-113.266007003253
 31
0.0
  0
LINE
  5
   1BD
  8
0
  6
CONTINUOUS
 62
     7
 10
-201.26704869043
 20
-114.038367793146
 30
0.0
 11
-198.382681923503
 21
-113.213486981243
 31
0.0
  0
LINE
  5
   1BE
  8
0
  6
CONTINUOUS
 62
     7
 10
-198.382681923503
 20
-113.213486981243
 30
0.0
 11
-201.375225958284
 21
-113.002110066945
 31
0.0
  0
ENDBLK
  5
   1BF
  8
0
  6
CONTINUOUS
 62
     7
  0
BLOCK
  5
   1C0
  8
0
  6
CONTINUOUS
 62
     7
  2
*UDIM1349
 70
    65
 10
0.0
 20
0.0
 30
0.0
  3
*UDIM1349
  0
TEXT
  5
   1C1
  8
0
  6
CONTINUOUS
 62
     7
 10
-258.385916798175
 20
-106.509060771753
 30
0.0
 40
3.00000009059906
  1
120
 50
449.999999896069
 41
0.933333333333333
 72
     1
 11
-259.885916836425
 21
-102.609060651263
 31
0.0
 73
     2
  0
LINE
  5
   1C2
  8
0
  6
CONTINUOUS
 62
     7
 10
-238.986818119884
 20
-91.5340576767922
 30
0.0
 11
-259.385916791125
 21
-91.5340576767922
 31
0.0
  0
LINE
  5
   1C3
  8
0
  6
CONTINUOUS
 62
     7
 10
-238.986818119884
 20
-113.134058535099
 30
0.0
 11
-259.385916791125
 21
-113.134058535099
 31
0.0
  0
LINE
  5
   1C4
  8
0
  6
CONTINUOUS
 62
     7
 10
-257.385916791125
 20
-91.5340576767922
 30
0.0
 11
-257.385916791125
 21
-113.134058535099
 31
0.0
  0
LINE
  5
   1C5
  8
0
  6
CONTINUOUS
 62
     7
 10
-256.864972361173
 20
-94.4884809539991
 30
0.0
 11
-257.385916791125
 21
-91.5340576767922
 31
0.0
  0
LINE
  5
   1C6
  8
0
  6
CONTINUOUS
 62
     7
 10
-257.385916791125
 20
-91.5340576767922
 30
0.0
 11
-257.906861221077
 21
-94.4884809539991
 31
0.0
  0
LINE
  5
   1C7
  8
0
  6
CONTINUOUS
 62
     7
 10
-257.906861221077
 20
-110.179635257892
 30
0.0
 11
-257.385916791125
 21
-113.134058535099
 31
0.0
  0
LINE
  5
   1C8
  8
0
  6
CONTINUOUS
 62
     7
 10
-257.385916791125
 20
-113.134058535099
 30
0.0
 11
-256.864972361173
 21
-110.179635257892
 31
0.0
  0
ENDBLK
  5
   1C9
  8
0
  6
CONTINUOUS
 62
     7
  0
BLOCK
  5
   1CA
  8
0
  6
CONTINUOUS
 62
     7
  2
*UDIM1350
 70
    65
 10
0.0
 20
0.0
 30
0.0
  3
*UDIM1350
  0
TEXT
  5
   1CB
  8
0
  6
CONTINUOUS
 62
     7
 10
-252.470157901173
 20
-88.6340584158992
 30
0.0
 40
3.00000009059906
  1
68,25
 50
449.999999896069
 41
0.933333333333333
 72
     1
 11
-253.970157934361
 21
-81.9340582108498
 31
0.0
 73
     2
  0
LINE
  5
   1CC
  8
0
  6
CONTINUOUS
 62
     7
 10
-201.186816617846
 20
-91.5340576767922
 30
0.0
 11
-253.470157889062
 21
-91.5340576767922
 31
0.0
  0
LINE
  5
   1CD
  8
0
  6
CONTINUOUS
 62
     7
 10
-251.470157889062
 20
-75.2340580085119
 30
0.0
 11
-251.470157889062
 21
-103.819058164954
 31
0.0
  0
LINE
  5
   1CE
  8
0
  6
CONTINUOUS
 62
     7
 10
-250.94921345911
 20
-94.4884809539991
 30
0.0
 11
-251.470157889062
 21
-91.5340576767922
 31
0.0
  0
LINE
  5
   1CF
  8
0
  6
CONTINUOUS
 62
     7
 10
-251.470157889062
 20
-91.5340576767922
 30
0.0
 11
-251.991102319013
 21
-94.4884809539991
 31
0.0
  0
LINE
  5
   1D0
  8
0
  6
CONTINUOUS
 62
     7
 10
-251.991102319013
 20
-100.864634887747
 30
0.0
 11
-251.470157889062
 21
-103.819058164954
 31
0.0
  0
LINE
  5
   1D1
  8
0
  6
CONTINUOUS
 62
     7
 10
-251.470157889062
 20
-103.819058164954
 30
0.0
 11
-250.94921345911
 21
-100.864634887747
 31
0.0
  0
ENDBLK
  5
   1D2
  8
0
  6
CONTINUOUS
 62
     7
  0
BLOCK
  5
   1D3
  8
0
  6
CONTINUOUS
 62
     7
  2
*UDIM1351
 70
    65
 10
0.0
 20
0.0
 30
0.0
  3
*UDIM1351
  0
TEXT
  5
   1D4
  8
0
  6
CONTINUOUS
 62
     7
 10
-220.696818473629
 20
-129.447018200374
 30
0.0
 40
3.00000009059906
  1
210
 50
359.999999896069
 41
0.933333333333333
 72
     1
 11
-216.796818353136
 21
-127.94701816213
 31
0.0
 73
     2
  0
LINE
  5
   1D5
  8
0
  6
CONTINUOUS
 62
     7
 10
-197.621816515923
 20
-115.238189920928
 30
0.0
 11
-197.621816515923
 21
-132.447018207429
 31
0.0
  0
LINE
  5
   1D6
  8
0
  6
CONTINUOUS
 62
     7
 10
-235.42181801796
 20
-99.1940579414368
 30
0.0
 11
-235.42181801796
 21
-132.447018207429
 31
0.0
  0
LINE
  5
   1D7
  8
0
  6
CONTINUOUS
 62
     7
 10
-197.621816515923
 20
-130.447018207429
 30
0.0
 11
-235.42181801796
 21
-130.447018207429
 31
0.0
  0
LINE
  5
   1D8
  8
0
  6
CONTINUOUS
 62
     7
 10
-200.57623979313
 20
-130.967962637381
 30
0.0
 11
-197.621816515923
 21
-130.447018207429
 31
0.0
  0
LINE
  5
   1D9
  8
0
  6
CONTINUOUS
 62
     7
 10
-197.621816515923
 20
-130.447018207429
 30
0.0
 11
-200.57623979313
 21
-129.926073777478
 31
0.0
  0
LINE
  5
   1DA
  8
0
  6
CONTINUOUS
 62
     7
 10
-232.467394740753
 20
-129.926073777478
 30
0.0
 11
-235.42181801796
 21
-130.447018207429
 31
0.0
  0
LINE
  5
   1DB
  8
0
  6
CONTINUOUS
 62
     7
 10
-235.42181801796
 20
-130.447018207429
 30
0.0
 11
-232.467394740753
 21
-130.967962637381
 31
0.0
  0
ENDBLK
  5
   1DC
  8
0
  6
CONTINUOUS
 62
     7
  0
BLOCK
  5
   1DD
  8
0
  6
CONTINUOUS
 62
     7
  2
*HATCH279
 70
    65
 10
0.0
 20
0.0
 30
0.0
  3
*HATCH279
  0
LINE
  5
   1DE
  8
0
  6
CONTINUOUS
 62
    52
 10
45.8568267822266
 20
179.5
 30
0.0
 11
43.8568267822266
 21
177.5
 31
0.0
  0
LINE
  5
   1DF
  8
0
  6
CONTINUOUS
 62
    52
 10
52.2207832336426
 20
179.5
 30
0.0
 11
50.2207832336426
 21
177.5
 31
0.0
  0
LINE
  5
   1E0
  8
0
  6
CONTINUOUS
 62
    52
 10
58.5847396850586
 20
179.5
 30
0.0
 11
56.5847396850586
 21
177.5
 31
0.0
  0
LINE
  5
   1E1
  8
0
  6
CONTINUOUS
 62
    52
 10
64.9486999511719
 20
179.5
 30
0.0
 11
62.9486961364746
 21
177.5
 31
0.0
  0
ENDBLK
  5
   1E2
  8
0
  6
CONTINUOUS
 62
     7
  0
BLOCK
  5
   1E3
  8
0
  6
CONTINUOUS
 62
     7
  2
*HATCH280
 70
    65
 10
0.0
 20
0.0
 30
0.0
  3
*HATCH280
  0
LINE
  5
   1E4
  8
0
  6
CONTINUOUS
 62
    52
 10
-7.17618036270142
 20
179.5
 30
0.0
 11
-9.17617988586426
 21
177.5
 31
0.0
  0
LINE
  5
   1E5
  8
0
  6
CONTINUOUS
 62
    52
 10
-0.812219619750977
 20
179.5
 30
0.0
 11
-2.81221795082092
 21
177.5
 31
0.0
  0
LINE
  5
   1E6
  8
0
  6
CONTINUOUS
 62
    52
 10
5.55174112319946
 20
179.5
 30
0.0
 11
3.55174350738525
 21
177.5
 31
0.0
  0
LINE
  5
   1E7
  8
0
  6
CONTINUOUS
 62
    52
 10
11.9157028198242
 20
179.5
 30
0.0
 11
9.91570568084717
 21
177.5
 31
0.0
  0
LINE
  5
   1E8
  8
0
  6
CONTINUOUS
 62
    52
 10
18.2796649932861
 20
179.5
 30
0.0
 11
16.2796669006348
 21
177.5
 31
0.0
  0
LINE
  5
   1E9
  8
0
  6
CONTINUOUS
 62
    52
 10
24.643627166748
 20
179.5
 30
0.0
 11
22.6436290740967
 21
177.5
 31
0.0
  0
ENDBLK
  5
   1EA
  8
0
  6
CONTINUOUS
 62
     7
  0
BLOCK
  5
   1EB
  8
0
  6
CONTINUOUS
 62
     7
  2
*HATCH281
 70
    65
 10
0.0
 20
0.0
 30
0.0
  3
*HATCH281
  0
LINE
  5
   1EC
  8
0
  6
CONTINUOUS
 62
    52
 10
-70.815788269043
 20
179.5
 30
0.0
 11
-72.815788269043
 21
177.5
 31
0.0
  0
LINE
  5
   1ED
  8
0
  6
CONTINUOUS
 62
    52
 10
-64.4518203735352
 20
179.5
 30
0.0
 11
-66.4518203735352
 21
177.5
 31
0.0
  0
LINE
  5
   1EE
  8
0
  6
CONTINUOUS
 62
    52
 10
-58.0878639221191
 20
179.5
 30
0.0
 11
-60.0878601074219
 21
177.5
 31
0.0
  0
LINE
  5
   1EF
  8
0
  6
CONTINUOUS
 62
    52
 10
-51.7239074707031
 20
179.5
 30
0.0
 11
-53.7239036560059
 21
177.5
 31
0.0
  0
LINE
  5
   1F0
  8
0
  6
CONTINUOUS
 62
    52
 10
-45.3599510192871
 20
179.5
 30
0.0
 11
-47.3599472045898
 21
177.5
 31
0.0
  0
LINE
  5
   1F1
  8
0
  6
CONTINUOUS
 62
    52
 10
-38.9959945678711
 20
179.5
 30
0.0
 11
-40.9959907531738
 21
177.5
 31
0.0
  0
LINE
  5
   1F2
  8
0
  6
CONTINUOUS
 62
    52
 10
-32.6320381164551
 20
179.5
 30
0.0
 11
-34.6320343017578
 21
177.5
 31
0.0
  0
LINE
  5
   1F3
  8
0
  6
CONTINUOUS
 62
    52
 10
-26.2680759429932
 20
179.5
 30
0.0
 11
-28.2680740356445
 21
177.5
 31
0.0
  0
LINE
  5
   1F4
  8
0
  6
CONTINUOUS
 62
    52
 10
-19.9041137695313
 20
179.5
 30
0.0
 11
-21.9041118621826
 21
177.5
 31
0.0
  0
ENDBLK
  5
   1F5
  8
0
  6
CONTINUOUS
 62
     7
  0
BLOCK
  5
   1F6
  8
0
  6
CONTINUOUS
 62
     7
  2
*HATCH282
 70
    65
 10
0.0
 20
0.0
 30
0.0
  3
*HATCH282
  0
LINE
  5
   1F7
  8
0
  6
CONTINUOUS
 62
    52
 10
81.9192733764648
 20
179.5
 30
0.0
 11
79.9192733764648
 21
177.5
 31
0.0
  0
LINE
  5
   1F8
  8
0
  6
CONTINUOUS
 62
    52
 10
88.2832412719727
 20
179.5
 30
0.0
 11
86.2832412719727
 21
177.5
 31
0.0
  0
LINE
  5
   1F9
  8
0
  6
CONTINUOUS
 62
    52
 10
94.6472091674805
 20
179.5
 30
0.0
 11
92.6472091674805
 21
177.5
 31
0.0
  0
LINE
  5
   1FA
  8
0
  6
CONTINUOUS
 62
    52
 10
101.011177062988
 20
179.5
 30
0.0
 11
99.0111770629883
 21
177.5
 31
0.0
  0
LINE
  5
   1FB
  8
0
  6
CONTINUOUS
 62
    52
 10
107.375144958496
 20
179.5
 30
0.0
 11
105.375144958496
 21
177.5
 31
0.0
  0
LINE
  5
   1FC
  8
0
  6
CONTINUOUS
 62
    52
 10
113.739112854004
 20
179.5
 30
0.0
 11
111.739112854004
 21
177.5
 31
0.0
  0
LINE
  5
   1FD
  8
0
  6
CONTINUOUS
 62
    52
 10
120.103080749512
 20
179.5
 30
0.0
 11
118.103080749512
 21
177.5
 31
0.0
  0
LINE
  5
   1FE
  8
0
  6
CONTINUOUS
 62
    52
 10
126.46704864502
 20
179.5
 30
0.0
 11
124.46704864502
 21
177.5
 31
0.0
  0
LINE
  5
   1FF
  8
0
  6
CONTINUOUS
 62
    52
 10
132.831008911133
 20
179.5
 30
0.0
 11
130.831008911133
 21
177.5
 31
0.0
  0
LINE
  5
   200
  8
0
  6
CONTINUOUS
 62
    52
 10
139.194976806641
 20
179.5
 30
0.0
 11
137.194976806641
 21
177.5
 31
0.0
  0
LINE
  5
   201
  8
0
  6
CONTINUOUS
 62
    52
 10
145.558944702148
 20
179.5
 30
0.0
 11
143.558944702148
 21
177.5
 31
0.0
  0
LINE
  5
   202
  8
0
  6
CONTINUOUS
 62
    52
 10
151.922912597656
 20
179.5
 30
0.0
 11
149.922912597656
 21
177.5
 31
0.0
  0
LINE
  5
   203
  8
0
  6
CONTINUOUS
 62
    52
 10
157.749984741211
 20
178.963165283203
 30
0.0
 11
156.286804199219
 21
177.5
 31
0.0
  0
ENDBLK
  5
   204
  8
0
  6
CONTINUOUS
 62
     7
  0
BLOCK
  5
   205
  8
0
  6
CONTINUOUS
 62
     7
  2
*HATCH283
 70
    65
 10
0.0
 20
0.0
 30
0.0
  3
*HATCH283
  0
LINE
  5
   206
  8
0
  6
CONTINUOUS
 62
    52
 10
171.014739990234
 20
179.5
 30
0.0
 11
169.014739990234
 21
177.5
 31
0.0
  0
LINE
  5
   207
  8
0
  6
CONTINUOUS
 62
    52
 10
177.378707885742
 20
179.5
 30
0.0
 11
175.378707885742
 21
177.5
 31
0.0
  0
LINE
  5
   208
  8
0
  6
CONTINUOUS
 62
    52
 10
183.74267578125
 20
179.5
 30
0.0
 11
181.74267578125
 21
177.5
 31
0.0
  0
LINE
  5
   209
  8
0
  6
CONTINUOUS
 62
    52
 10
190.106643676758
 20
179.5
 30
0.0
 11
188.106643676758
 21
177.5
 31
0.0
  0
ENDBLK
  5
   20A
  8
0
  6
CONTINUOUS
 62
     7
  0
BLOCK
  5
   20B
  8
0
  6
CONTINUOUS
 62
     7
  2
*HATCH284
 70
    65
 10
0.0
 20
0.0
 30
0.0
  3
*HATCH284
  0
LINE
  5
   20C
  8
0
  6
CONTINUOUS
 62
    52
 10
149.286819458008
 20
170.500015258789
 30
0.0
 11
146.786819458008
 21
168.0
 31
0.0
  0
LINE
  5
   20D
  8
0
  6
CONTINUOUS
 62
    52
 10
153.249984741211
 20
168.099212646484
 30
0.0
 11
153.150772094727
 21
168.0
 31
0.0
  0
ENDBLK
  5
   20E
  8
0
  6
CONTINUOUS
 62
     7
  0
BLOCK
  5
   20F
  8
0
  6
CONTINUOUS
 62
     7
  2
*UDIM1352
 70
    65
 10
0.0
 20
0.0
 30
0.0
  3
*UDIM1352
  0
TEXT
  5
   210
  8
0
  6
CONTINUOUS
 62
     7
 10
-270.268814644039
 20
-9.60733481214321
 30
0.0
 40
2.99999998416219
  1
5,5
 50
359.999999948034
 41
0.933333333333333
 72
     1
 11
-266.368814663275
 21
-8.1073348235797
 31
0.0
 73
     2
  0
TEXT
  5
   211
  8
0
  6
CONTINUOUS
 62
     7
 10
-273.418814620504
 20
-9.60733481466866
 30
0.0
 40
2.99999998416219
  1
Ø
 50
359.999999948034
 41
0.933333333333333
 72
     1
 11
-272.318814624958
 21
-8.1073348235797
 31
0.0
 73
     2
  0
LINE
  5
   212
  8
0
  6
CONTINUOUS
 62
     7
 10
-242.778671189011
 20
25.061423777323
 30
0.0
 11
-242.778671189011
 21
-12.6073348156608
 31
0.0
  0
LINE
  5
   213
  8
0
  6
CONTINUOUS
 62
     7
 10
-244.318667378937
 20
25.061423777323
 30
0.0
 11
-244.318667378937
 21
-12.6073348156608
 31
0.0
  0
LINE
  5
   214
  8
0
  6
CONTINUOUS
 62
     7
 10
-242.778671189011
 20
-10.6073348156608
 30
0.0
 11
-273.418814619151
 21
-10.6073348156608
 31
0.0
  0
LINE
  5
   215
  8
0
  6
CONTINUOUS
 62
     7
 10
-239.824247911804
 20
-10.0863903857091
 30
0.0
 11
-242.778671189011
 21
-10.6073348156608
 31
0.0
  0
LINE
  5
   216
  8
0
  6
CONTINUOUS
 62
     7
 10
-242.778671189011
 20
-10.6073348156608
 30
0.0
 11
-239.824247911804
 21
-11.1282792456125
 31
0.0
  0
LINE
  5
   217
  8
0
  6
CONTINUOUS
 62
     7
 10
-247.273090656144
 20
-11.1282792456125
 30
0.0
 11
-244.318667378937
 21
-10.6073348156608
 31
0.0
  0
LINE
  5
   218
  8
0
  6
CONTINUOUS
 62
     7
 10
-244.318667378937
 20
-10.6073348156608
 30
0.0
 11
-247.273090656144
 21
-10.0863903857091
 31
0.0
  0
ENDBLK
  5
   219
  8
0
  6
CONTINUOUS
 62
     7
  0
BLOCK
  5
   21A
  8
0
  6
CONTINUOUS
 62
     7
  2
*UDIM1353
 70
    65
 10
0.0
 20
0.0
 30
0.0
  3
*UDIM1353
  0
TEXT
  5
   21B
  8
0
  6
CONTINUOUS
 62
     7
 10
-272.99936457922
 20
-40.04123173075
 30
0.0
 40
2.99999998416219
  1
27,5
 50
359.999999948034
 41
0.933333333333333
 72
     1
 11
-267.699364605847
 21
-38.5412317434492
 31
0.0
 73
     2
  0
LINE
  5
   21C
  8
0
  6
CONTINUOUS
 62
     7
 10
-251.528665989637
 20
-4.68857312744323
 30
0.0
 11
-251.528665989637
 21
-43.0412317355303
 31
0.0
  0
LINE
  5
   21D
  8
0
  6
CONTINUOUS
 62
     7
 10
-259.22866602242
 20
3.15142573964943
 30
0.0
 11
-259.22866602242
 21
-43.0412317355303
 31
0.0
  0
LINE
  5
   21E
  8
0
  6
CONTINUOUS
 62
     7
 10
-251.528665989637
 20
-41.0412317355303
 30
0.0
 11
-272.999364577867
 21
-41.0412317355303
 31
0.0
  0
LINE
  5
   21F
  8
0
  6
CONTINUOUS
 62
     7
 10
-248.57424271243
 20
-40.5202873055787
 30
0.0
 11
-251.528665989637
 21
-41.0412317355303
 31
0.0
  0
LINE
  5
   220
  8
0
  6
CONTINUOUS
 62
     7
 10
-251.528665989637
 20
-41.0412317355303
 30
0.0
 11
-248.57424271243
 21
-41.562176165482
 31
0.0
  0
LINE
  5
   221
  8
0
  6
CONTINUOUS
 62
     7
 10
-262.183089299627
 20
-41.562176165482
 30
0.0
 11
-259.22866602242
 21
-41.0412317355303
 31
0.0
  0
LINE
  5
   222
  8
0
  6
CONTINUOUS
 62
     7
 10
-259.22866602242
 20
-41.0412317355303
 30
0.0
 11
-262.183089299627
 21
-40.5202873055787
 31
0.0
  0
ENDBLK
  5
   223
  8
0
  6
CONTINUOUS
 62
     7
  0
BLOCK
  5
   224
  8
0
  6
CONTINUOUS
 62
     7
  2
*UDIM1354
 70
    65
 10
0.0
 20
0.0
 30
0.0
  3
*UDIM1354
  0
TEXT
  5
   225
  8
0
  6
CONTINUOUS
 62
     7
 10
-223.153666442866
 20
121.188558996007
 30
0.0
 40
2.99999998416219
  1
241,5
 50
359.999999948034
 41
0.933333333333333
 72
     1
 11
-216.453666476884
 21
122.688558982045
 31
0.0
 73
     2
  0
LINE
  5
   226
  8
0
  6
CONTINUOUS
 62
     7
 10
-182.36866569519
 20
51.2814334481955
 30
0.0
 11
-182.36866569519
 21
122.188558989964
 31
0.0
  0
LINE
  5
   227
  8
0
  6
CONTINUOUS
 62
     7
 10
-249.988667051196
 20
-0.868573119694637
 30
0.0
 11
-249.988667051196
 21
122.188558989964
 31
0.0
  0
LINE
  5
   228
  8
0
  6
CONTINUOUS
 62
     7
 10
-182.36866569519
 20
120.188558989964
 30
0.0
 11
-249.988667051196
 21
120.188558989964
 31
0.0
  0
LINE
  5
   229
  8
0
  6
CONTINUOUS
 62
     7
 10
-185.323088972397
 20
119.667614560012
 30
0.0
 11
-182.36866569519
 21
120.188558989964
 31
0.0
  0
LINE
  5
   22A
  8
0
  6
CONTINUOUS
 62
     7
 10
-182.36866569519
 20
120.188558989964
 30
0.0
 11
-185.323088972397
 21
120.709503419916
 31
0.0
  0
LINE
  5
   22B
  8
0
  6
CONTINUOUS
 62
     7
 10
-247.034243773989
 20
120.709503419916
 30
0.0
 11
-249.988667051196
 21
120.188558989964
 31
0.0
  0
LINE
  5
   22C
  8
0
  6
CONTINUOUS
 62
     7
 10
-249.988667051196
 20
120.188558989964
 30
0.0
 11
-247.034243773989
 21
119.667614560012
 31
0.0
  0
ENDBLK
  5
   22D
  8
0
  6
CONTINUOUS
 62
     7
  0
BLOCK
  5
   22E
  8
0
  6
CONTINUOUS
 62
     7
  2
*UDIM1355
 70
    65
 10
0.0
 20
0.0
 30
0.0
  3
*UDIM1355
  0
TEXT
  5
   22F
  8
0
  6
CONTINUOUS
 62
     7
 10
-256.298663483108
 20
121.188558990956
 30
0.0
 40
2.99999998416219
  1
2
 50
359.999999948034
 41
0.933333333333333
 72
     1
 11
-255.198663487562
 21
122.688558982045
 31
0.0
 73
     2
  0
LINE
  5
   230
  8
0
  6
CONTINUOUS
 62
     7
 10
-250.54866705358
 20
11.7314830099996
 30
0.0
 11
-250.54866705358
 21
122.188558989964
 31
0.0
  0
LINE
  5
   231
  8
0
  6
CONTINUOUS
 62
     7
 10
-249.988667051196
 20
120.188558989964
 30
0.0
 11
-256.298663481755
 21
120.188558989964
 31
0.0
  0
LINE
  5
   232
  8
0
  6
CONTINUOUS
 62
     7
 10
-247.034243773989
 20
120.709503419916
 30
0.0
 11
-249.988667051196
 21
120.188558989964
 31
0.0
  0
LINE
  5
   233
  8
0
  6
CONTINUOUS
 62
     7
 10
-249.988667051196
 20
120.188558989964
 30
0.0
 11
-247.034243773989
 21
119.667614560012
 31
0.0
  0
LINE
  5
   234
  8
0
  6
CONTINUOUS
 62
     7
 10
-253.503090330787
 20
119.667614560012
 30
0.0
 11
-250.54866705358
 21
120.188558989964
 31
0.0
  0
LINE
  5
   235
  8
0
  6
CONTINUOUS
 62
     7
 10
-250.54866705358
 20
120.188558989964
 30
0.0
 11
-253.503090330787
 21
120.709503419916
 31
0.0
  0
ENDBLK
  5
   236
  8
0
  6
CONTINUOUS
 62
     7
  0
BLOCK
  5
   237
  8
0
  6
CONTINUOUS
 62
     7
  2
*UDIM1356
 70
    65
 10
0.0
 20
0.0
 30
0.0
  3
*UDIM1356
  0
TEXT
  5
   238
  8
0
  6
CONTINUOUS
 62
     7
 10
-219.933670696733
 20
114.877117318746
 30
0.0
 40
2.99999998416219
  1
218,5
 50
359.999999948034
 41
0.933333333333333
 72
     1
 11
-213.233670730751
 21
116.377117304784
 31
0.0
 73
     2
  0
LINE
  5
   239
  8
0
  6
CONTINUOUS
 62
     7
 10
-182.36866569519
 20
51.2814334481955
 30
0.0
 11
-182.36866569519
 21
115.877117312702
 31
0.0
  0
LINE
  5
   23A
  8
0
  6
CONTINUOUS
 62
     7
 10
-243.548668249016
 20
30.1414217791106
 30
0.0
 11
-243.548668249016
 21
115.877117312702
 31
0.0
  0
LINE
  5
   23B
  8
0
  6
CONTINUOUS
 62
     7
 10
-182.36866569519
 20
113.877117312702
 30
0.0
 11
-243.548668249016
 21
113.877117312702
 31
0.0
  0
LINE
  5
   23C
  8
0
  6
CONTINUOUS
 62
     7
 10
-185.323088972397
 20
113.356172882751
 30
0.0
 11
-182.36866569519
 21
113.877117312702
 31
0.0
  0
LINE
  5
   23D
  8
0
  6
CONTINUOUS
 62
     7
 10
-182.36866569519
 20
113.877117312702
 30
0.0
 11
-185.323088972397
 21
114.398061742654
 31
0.0
  0
LINE
  5
   23E
  8
0
  6
CONTINUOUS
 62
     7
 10
-240.594244971809
 20
114.398061742654
 30
0.0
 11
-243.548668249016
 21
113.877117312702
 31
0.0
  0
LINE
  5
   23F
  8
0
  6
CONTINUOUS
 62
     7
 10
-243.548668249016
 20
113.877117312702
 30
0.0
 11
-240.594244971809
 21
113.356172882751
 31
0.0
  0
ENDBLK
  5
   240
  8
0
  6
CONTINUOUS
 62
     7
  0
BLOCK
  5
   241
  8
0
  6
CONTINUOUS
 62
     7
  2
*UDIM1357
 70
    65
 10
0.0
 20
0.0
 30
0.0
  3
*UDIM1357
  0
TEXT
  5
   242
  8
0
  6
CONTINUOUS
 62
     7
 10
-169.008486499401
 20
16.4983408414202
 30
0.0
 40
2.99999998416219
  1
160
 50
89.9999999480344
 41
0.933333333333333
 72
     1
 11
-170.50848648795
 21
20.3983408221897
 31
0.0
 73
     2
  0
TEXT
  5
   243
  8
0
  6
CONTINUOUS
 62
     7
 10
-169.008486500669
 20
24.8483408121629
 30
0.0
 40
2.99999998416219
  1
 max
 50
89.9999999480344
 41
0.933333333333333
 72
     1
 11
-170.50848648795
 21
30.1483407855413
 31
0.0
 73
     2
  0
LINE
  5
   244
  8
0
  6
CONTINUOUS
 62
     7
 10
-175.768665671349
 20
3.66143324971199
 30
0.0
 11
-166.008486495869
 21
3.66143324971199
 31
0.0
  0
LINE
  5
   245
  8
0
  6
CONTINUOUS
 62
     7
 10
-175.768665671349
 20
48.4614334404469
 30
0.0
 11
-166.008486495869
 21
48.4614334404469
 31
0.0
  0
LINE
  5
   246
  8
0
  6
CONTINUOUS
 62
     7
 10
-168.008486495869
 20
3.66143324971199
 30
0.0
 11
-168.008486495869
 21
48.4614334404469
 31
0.0
  0
LINE
  5
   247
  8
0
  6
CONTINUOUS
 62
     7
 10
-168.52943092582
 20
6.61585652691895
 30
0.0
 11
-168.008486495869
 21
3.66143324971199
 31
0.0
  0
LINE
  5
   248
  8
0
  6
CONTINUOUS
 62
     7
 10
-168.008486495869
 20
3.66143324971199
 30
0.0
 11
-167.487542065917
 21
6.61585652691895
 31
0.0
  0
LINE
  5
   249
  8
0
  6
CONTINUOUS
 62
     7
 10
-167.487542065917
 20
45.5070101632399
 30
0.0
 11
-168.008486495869
 21
48.4614334404469
 31
0.0
  0
LINE
  5
   24A
  8
0
  6
CONTINUOUS
 62
     7
 10
-168.008486495869
 20
48.4614334404469
 30
0.0
 11
-168.52943092582
 21
45.5070101632399
 31
0.0
  0
ENDBLK
  5
   24B
  8
0
  6
CONTINUOUS
 62
     7
  0
BLOCK
  5
   24C
  8
0
  6
CONTINUOUS
 62
     7
  2
*UDIM1358
 70
    65
 10
0.0
 20
0.0
 30
0.0
  3
*UDIM1358
  0
TEXT
  5
   24D
  8
0
  6
CONTINUOUS
 62
     7
 10
-221.123667061741
 20
-51.8234913036598
 30
0.0
 40
2.99999998416219
  1
247
 50
359.999999948034
 41
0.933333333333333
 72
     1
 11
-217.223667080977
 21
-50.3234913150963
 31
0.0
 73
     2
  0
LINE
  5
   24E
  8
0
  6
CONTINUOUS
 62
     7
 10
-182.36866569519
 20
0.841433241963387
 30
0.0
 11
-182.36866569519
 21
-54.8234913071774
 31
0.0
  0
LINE
  5
   24F
  8
0
  6
CONTINUOUS
 62
     7
 10
-251.528665989637
 20
-4.68857312744323
 30
0.0
 11
-251.528665989637
 21
-54.8234913071774
 31
0.0
  0
LINE
  5
   250
  8
0
  6
CONTINUOUS
 62
     7
 10
-182.36866569519
 20
-52.8234913071774
 30
0.0
 11
-251.528665989637
 21
-52.8234913071774
 31
0.0
  0
LINE
  5
   251
  8
0
  6
CONTINUOUS
 62
     7
 10
-185.323088972397
 20
-53.3444357371291
 30
0.0
 11
-182.36866569519
 21
-52.8234913071774
 31
0.0
  0
LINE
  5
   252
  8
0
  6
CONTINUOUS
 62
     7
 10
-182.36866569519
 20
-52.8234913071774
 30
0.0
 11
-185.323088972397
 21
-52.3025468772257
 31
0.0
  0
LINE
  5
   253
  8
0
  6
CONTINUOUS
 62
     7
 10
-248.57424271243
 20
-52.3025468772257
 30
0.0
 11
-251.528665989637
 21
-52.8234913071774
 31
0.0
  0
LINE
  5
   254
  8
0
  6
CONTINUOUS
 62
     7
 10
-251.528665989637
 20
-52.8234913071774
 30
0.0
 11
-248.57424271243
 21
-53.3444357371291
 31
0.0
  0
ENDBLK
  5
   255
  8
0
  6
CONTINUOUS
 62
     7
  0
BLOCK
  5
   256
  8
0
  6
CONTINUOUS
 62
     7
  2
*UDIM1359
 70
    65
 10
0.0
 20
0.0
 30
0.0
  3
*UDIM1359
  0
TEXT
  5
   257
  8
0
  6
CONTINUOUS
 62
     7
 10
-270.840096126109
 20
9.67642670348408
 30
0.0
 40
2.99999998416219
  1
8,25
 50
89.9999999480344
 41
0.933333333333333
 72
     1
 11
-272.34009611339
 21
14.9764266768625
 31
0.0
 73
     2
  0
LINE
  5
   258
  8
0
  6
CONTINUOUS
 62
     7
 10
-265.92374439826
 20
23.7514269893819
 30
0.0
 11
-271.840096121309
 21
23.7514269893819
 31
0.0
  0
LINE
  5
   259
  8
0
  6
CONTINUOUS
 62
     7
 10
-247.628667241339
 20
26.0614227867873
 30
0.0
 11
-271.840096121309
 21
26.0614227867873
 31
0.0
  0
LINE
  5
   25A
  8
0
  6
CONTINUOUS
 62
     7
 10
-269.840096121309
 20
9.67642670484265
 30
0.0
 11
-269.840096121309
 21
26.0614227867873
 31
0.0
  0
LINE
  5
   25B
  8
0
  6
CONTINUOUS
 62
     7
 10
-269.319151691357
 20
20.7970037121749
 30
0.0
 11
-269.840096121309
 21
23.7514269893819
 31
0.0
  0
LINE
  5
   25C
  8
0
  6
CONTINUOUS
 62
     7
 10
-269.840096121309
 20
23.7514269893819
 30
0.0
 11
-270.36104055126
 21
20.7970037121749
 31
0.0
  0
LINE
  5
   25D
  8
0
  6
CONTINUOUS
 62
     7
 10
-270.36104055126
 20
29.0158460639942
 30
0.0
 11
-269.840096121309
 21
26.0614227867873
 31
0.0
  0
LINE
  5
   25E
  8
0
  6
CONTINUOUS
 62
     7
 10
-269.840096121309
 20
26.0614227867873
 30
0.0
 11
-269.319151691357
 21
29.0158460639942
 31
0.0
  0
ENDBLK
  5
   25F
  8
0
  6
CONTINUOUS
 62
     7
  0
BLOCK
  5
   260
  8
0
  6
CONTINUOUS
 62
     7
  2
*UDIM1360
 70
    65
 10
0.0
 20
0.0
 30
0.0
  3
*UDIM1360
  0
TEXT
  5
   261
  8
0
  6
CONTINUOUS
 62
     7
 10
-279.06027255144
 20
19.5764278355954
 30
0.0
 40
2.99999998416219
  1
140
 50
89.9999999480344
 41
0.933333333333333
 72
     1
 11
-280.560272539989
 21
23.4764278163649
 31
0.0
 73
     2
  0
LINE
  5
   262
  8
0
  6
CONTINUOUS
 62
     7
 10
-249.728665977716
 20
4.15142709835485
 30
0.0
 11
-280.060272547908
 21
4.15142709835485
 31
0.0
  0
LINE
  5
   263
  8
0
  6
CONTINUOUS
 62
     7
 10
-250.988665983081
 20
43.3514284058598
 30
0.0
 11
-280.060272547908
 21
43.3514269743444
 31
0.0
  0
LINE
  5
   264
  8
0
  6
CONTINUOUS
 62
     7
 10
-278.060272547908
 20
4.15142709835485
 30
0.0
 11
-278.060272547908
 21
43.3514270728264
 31
0.0
  0
LINE
  5
   265
  8
0
  6
CONTINUOUS
 62
     7
 10
-278.581216977859
 20
7.10585037556181
 30
0.0
 11
-278.060272547908
 21
4.15142709835485
 31
0.0
  0
LINE
  5
   266
  8
0
  6
CONTINUOUS
 62
     7
 10
-278.060272547908
 20
4.15142709835485
 30
0.0
 11
-277.539328117956
 21
7.10585037556181
 31
0.0
  0
LINE
  5
   267
  8
0
  6
CONTINUOUS
 62
     7
 10
-277.539328117956
 20
40.3970037956194
 30
0.0
 11
-278.060272547908
 21
43.3514270728264
 31
0.0
  0
LINE
  5
   268
  8
0
  6
CONTINUOUS
 62
     7
 10
-278.060272547908
 20
43.3514270728264
 30
0.0
 11
-278.581216977859
 21
40.3970037956194
 31
0.0
  0
ENDBLK
  5
   269
  8
0
  6
CONTINUOUS
 62
     7
  0
BLOCK
  5
   26A
  8
0
  6
CONTINUOUS
 62
     7
  2
*UDIM1361
 70
    65
 10
0.0
 20
0.0
 30
0.0
  3
*UDIM1361
  0
TEXT
  5
   26B
  8
0
  6
CONTINUOUS
 62
     7
 10
-178.528665288235
 20
105.605184901173
 30
0.0
 40
2.99999998416219
  1
3
 50
359.999999948034
 41
0.933333333333333
 72
     1
 11
-177.428665292689
 21
107.105184892262
 31
0.0
 73
     2
  0
TEXT
  5
   26C
  8
0
  6
CONTINUOUS
 62
     7
 10
-181.278665288541
 20
105.605184901173
 30
0.0
 40
2.99999998416219
  1
_
 50
359.999999948034
 41
0.933333333333333
 72
     1
 11
-180.178665292995
 21
107.105184892262
 31
0.0
 73
     2
  0
LINE
  5
   26D
  8
0
  6
CONTINUOUS
 62
     7
 10
-181.528665691614
 20
91.4207671926355
 30
0.0
 11
-181.528665691614
 21
106.605184900181
 31
0.0
  0
LINE
  5
   26E
  8
0
  6
CONTINUOUS
 62
     7
 10
-182.36866569519
 20
51.2814334481955
 30
0.0
 11
-182.36866569519
 21
106.605184900181
 31
0.0
  0
LINE
  5
   26F
  8
0
  6
CONTINUOUS
 62
     7
 10
-176.328665298496
 20
104.605184900181
 30
0.0
 11
-182.36866569519
 21
104.605184900181
 31
0.0
  0
LINE
  5
   270
  8
0
  6
CONTINUOUS
 62
     7
 10
-178.574242414407
 20
105.126129330132
 30
0.0
 11
-181.528665691614
 21
104.605184900181
 31
0.0
  0
LINE
  5
   271
  8
0
  6
CONTINUOUS
 62
     7
 10
-181.528665691614
 20
104.605184900181
 30
0.0
 11
-178.574242414407
 21
104.084240470229
 31
0.0
  0
LINE
  5
   272
  8
0
  6
CONTINUOUS
 62
     7
 10
-185.323088972397
 20
104.084240470229
 30
0.0
 11
-182.36866569519
 21
104.605184900181
 31
0.0
  0
LINE
  5
   273
  8
0
  6
CONTINUOUS
 62
     7
 10
-182.36866569519
 20
104.605184900181
 30
0.0
 11
-185.323088972397
 21
105.126129330132
 31
0.0
  0
ENDBLK
  5
   274
  8
0
  6
CONTINUOUS
 62
     7
  0
BLOCK
  5
   275
  8
0
  6
CONTINUOUS
 62
     7
  2
*UDIM1362
 70
    65
 10
0.0
 20
0.0
 30
0.0
  3
*UDIM1362
  0
TEXT
  5
   276
  8
0
  6
CONTINUOUS
 62
     7
 10
-199.573666661479
 20
105.605184902435
 30
0.0
 40
2.99999998416219
  1
31
 50
359.999999948034
 41
0.933333333333333
 72
     1
 11
-197.073666673324
 21
107.105184892262
 31
0.0
 73
     2
  0
LINE
  5
   277
  8
0
  6
CONTINUOUS
 62
     7
 10
-191.048665732145
 20
102.661433666945
 30
0.0
 11
-191.048665732145
 21
106.605184900181
 31
0.0
  0
LINE
  5
   278
  8
0
  6
CONTINUOUS
 62
     7
 10
-182.36866569519
 20
104.605184900181
 30
0.0
 11
-199.573666660126
 21
104.605184900181
 31
0.0
  0
LINE
  5
   279
  8
0
  6
CONTINUOUS
 62
     7
 10
-185.323088972397
 20
104.084240470229
 30
0.0
 11
-182.36866569519
 21
104.605184900181
 31
0.0
  0
LINE
  5
   27A
  8
0
  6
CONTINUOUS
 62
     7
 10
-182.36866569519
 20
104.605184900181
 30
0.0
 11
-185.323088972397
 21
105.126129330132
 31
0.0
  0
LINE
  5
   27B
  8
0
  6
CONTINUOUS
 62
     7
 10
-188.094242454938
 20
105.126129330132
 30
0.0
 11
-191.048665732145
 21
104.605184900181
 31
0.0
  0
LINE
  5
   27C
  8
0
  6
CONTINUOUS
 62
     7
 10
-191.048665732145
 20
104.605184900181
 30
0.0
 11
-188.094242454938
 21
104.084240470229
 31
0.0
  0
ENDBLK
  5
   27D
  8
0
  6
CONTINUOUS
 62
     7
  0
BLOCK
  5
   27E
  8
0
  6
CONTINUOUS
 62
     7
  2
*UDIM1363
 70
    65
 10
0.0
 20
0.0
 30
0.0
  3
*UDIM1363
  0
TEXT
  5
   27F
  8
0
  6
CONTINUOUS
 62
     7
 10
-204.05366721461
 20
105.605184902435
 30
0.0
 40
2.99999998416219
  1
16
 50
359.999999948034
 41
0.933333333333333
 72
     1
 11
-201.553667226455
 21
107.105184892262
 31
0.0
 73
     2
  0
LINE
  5
   280
  8
0
  6
CONTINUOUS
 62
     7
 10
-195.528665751219
 20
102.661433666945
 30
0.0
 11
-195.528665751219
 21
106.605184900181
 31
0.0
  0
LINE
  5
   281
  8
0
  6
CONTINUOUS
 62
     7
 10
-191.048665732145
 20
104.605184900181
 30
0.0
 11
-204.053667213257
 21
104.605184900181
 31
0.0
  0
LINE
  5
   282
  8
0
  6
CONTINUOUS
 62
     7
 10
-188.094242454938
 20
105.126129330132
 30
0.0
 11
-191.048665732145
 21
104.605184900181
 31
0.0
  0
LINE
  5
   283
  8
0
  6
CONTINUOUS
 62
     7
 10
-191.048665732145
 20
104.605184900181
 30
0.0
 11
-188.094242454938
 21
104.084240470229
 31
0.0
  0
LINE
  5
   284
  8
0
  6
CONTINUOUS
 62
     7
 10
-198.483089028426
 20
104.084240470229
 30
0.0
 11
-195.528665751219
 21
104.605184900181
 31
0.0
  0
LINE
  5
   285
  8
0
  6
CONTINUOUS
 62
     7
 10
-195.528665751219
 20
104.605184900181
 30
0.0
 11
-198.483089028426
 21
105.126129330132
 31
0.0
  0
ENDBLK
  5
   286
  8
0
  6
CONTINUOUS
 62
     7
  0
BLOCK
  5
   287
  8
0
  6
CONTINUOUS
 62
     7
  2
*UDIM1364
 70
    65
 10
0.0
 20
0.0
 30
0.0
  3
*UDIM1364
  0
TEXT
  5
   288
  8
0
  6
CONTINUOUS
 62
     7
 10
48.1237507599493
 20
15.0180434815563
 30
0.0
 40
3.00000002980232
  1
7
 50
341.281003147172
 41
0.933333333333334
 72
     1
 11
49.6469556331046
 21
16.0856796476447
 31
0.0
 73
     2
  0
TEXT
  5
   289
  8
0
  6
CONTINUOUS
 62
     7
 10
44.3353350325743
 20
16.3017515928479
 30
0.0
 40
3.00000002980232
  1
Ø
 50
341.281003147172
 41
1.2
 72
     1
 11
46.2373814790941
 21
17.2410169465623
 31
0.0
 73
     2
  0
LINE
  5
   28A
  8
0
  6
CONTINUOUS
 62
     7
 10
44.0144080099509
 20
15.3546476628072
 30
0.0
 11
64.8409689570748
 21
8.29754856962875
 31
0.0
  0
LINE
  5
   28B
  8
0
  6
CONTINUOUS
 62
     7
 10
55.4543349604971
 20
10.6583954733115
 30
0.0
 11
58.4480174641725
 21
10.463805989557
 31
0.0
  0
LINE
  5
   28C
  8
0
  6
CONTINUOUS
 62
     7
 10
58.4480174641725
 20
10.463805989557
 30
0.0
 11
55.9527071312669
 21
12.1291667139932
 31
0.0
  0
LINE
  5
   28D
  8
0
  6
CONTINUOUS
 62
     7
 10
63.0991318363779
 20
9.70759421174712
 30
0.0
 11
60.1054493327025
 21
9.90218369550159
 31
0.0
  0
LINE
  5
   28E
  8
0
  6
CONTINUOUS
 62
     7
 10
60.1054493327025
 20
9.90218369550159
 30
0.0
 11
62.6007596656081
 21
8.23682297106539
 31
0.0
  0
ENDBLK
  5
   28F
  8
0
  6
CONTINUOUS
 62
     7
  0
BLOCK
  5
   290
  8
0
  6
CONTINUOUS
 62
     7
  2
*UDIM1365
 70
    65
 10
0.0
 20
0.0
 30
0.0
  3
*UDIM1365
  0
TEXT
  5
   291
  8
0
  6
CONTINUOUS
 62
     7
 10
4.7064003382844
 20
64.4834799694681
 30
0.0
 40
3.00000002980232
  1
7
 50
327.554517099272
 41
0.933333333333334
 72
     1
 11
6.43943820596057
 21
65.1591868718632
 31
0.0
 73
     2
  0
TEXT
  5
   292
  8
0
  6
CONTINUOUS
 62
     7
 10
1.33079108357583
 20
66.6294674806024
 30
0.0
 40
3.00000002980232
  1
Ø
 50
327.554517099272
 41
1.2
 72
     1
 11
3.40138987703656
 21
67.0905756305259
 31
0.0
 73
     2
  0
LINE
  5
   293
  8
0
  6
CONTINUOUS
 62
     7
 10
0.794294211271215
 20
65.7855651674426
 30
0.0
 11
23.6096594552074
 21
51.2810757103812
 31
0.0
  0
LINE
  5
   294
  8
0
  6
CONTINUOUS
 62
     7
 10
15.0513109461083
 20
55.8018241755296
 30
0.0
 11
17.9133188793441
 21
54.9024296068918
 31
0.0
  0
LINE
  5
   295
  8
0
  6
CONTINUOUS
 62
     7
 10
17.9133188793441
 20
54.9024296068918
 30
0.0
 11
15.8844446198475
 21
57.1123321475374
 31
0.0
  0
LINE
  5
   296
  8
0
  6
CONTINUOUS
 62
     7
 10
22.2521558507667
 20
53.064165509529
 30
0.0
 11
19.3901479175309
 21
53.9635600781668
 31
0.0
  0
LINE
  5
   297
  8
0
  6
CONTINUOUS
 62
     7
 10
19.3901479175309
 20
53.9635600781668
 30
0.0
 11
21.4190221770275
 21
51.7536575375212
 31
0.0
  0
ENDBLK
  5
   298
  8
0
  6
CONTINUOUS
 62
     7
  0
BLOCK
  5
   299
  8
0
  6
CONTINUOUS
 62
     7
  2
*UDIM1366
 70
    65
 10
0.0
 20
0.0
 30
0.0
  3
*UDIM1366
  0
TEXT
  5
   29A
  8
0
  6
CONTINUOUS
 62
     7
 10
65.5638927572624
 20
62.8927113472827
 30
0.0
 40
3.00000002980232
  1
8
 50
407.936580148673
 41
0.933333333333334
 72
     1
 11
65.1872352236396
 21
64.7142846153972
 31
0.0
 73
     2
  0
TEXT
  5
   29B
  8
0
  6
CONTINUOUS
 62
     7
 10
63.4535415242109
 20
60.5541396174136
 30
0.0
 40
3.00000002980232
  1
Ø
 50
407.936580148673
 41
0.933333333333334
 72
     1
 11
63.0768839905881
 21
62.3757128855281
 31
0.0
 73
     2
  0
TEXT
  5
   29C
  8
0
  6
CONTINUOUS
 62
     7
 10
67.4062628784183
 20
64.9343216241083
 30
0.0
 40
3.00000002980232
  1
(5 fori)
 50
407.936580148673
 41
0.933333333333333
 72
     1
 11
73.5951425785608
 21
74.0314514166533
 31
0.0
 73
     2
  0
LINE
  5
   29D
  8
0
  6
CONTINUOUS
 62
     7
 10
82.7536371618345
 20
80.4487701248985
 30
0.0
 11
58.606780628153
 21
53.6905911211026
 31
0.0
  0
LINE
  5
   29E
  8
0
  6
CONTINUOUS
 62
     7
 10
61.5392591444272
 20
57.7177815636344
 30
0.0
 11
59.946686168722
 21
55.175398563956
 31
0.0
  0
LINE
  5
   29F
  8
0
  6
CONTINUOUS
 62
     7
 10
59.946686168722
 20
55.175398563956
 30
0.0
 11
62.3127613113324
 21
57.0197652356136
 31
0.0
  0
LINE
  5
   2A0
  8
0
  6
CONTINUOUS
 62
     7
 10
57.0142076524478
 20
51.1482081214242
 30
0.0
 11
58.606780628153
 21
53.6905911211026
 31
0.0
  0
LINE
  5
   2A1
  8
0
  6
CONTINUOUS
 62
     7
 10
58.606780628153
 20
53.6905911211026
 30
0.0
 11
56.2407054855426
 21
51.846224449445
 31
0.0
  0
ENDBLK
  5
   2A2
  8
0
  6
CONTINUOUS
 62
     7
  0
BLOCK
  5
   2A3
  8
0
  6
CONTINUOUS
 62
     7
  2
*UDIM1367
 70
    65
 10
0.0
 20
0.0
 30
0.0
  3
*UDIM1367
  0
TEXT
  5
   2A4
  8
0
  6
CONTINUOUS
 62
     7
 10
41.318717633573
 20
-26.6343536042899
 30
0.0
 40
3.00000002980232
  1
R min.200
 50
359.999999844103
 41
0.933333333333333
 72
     1
 11
53.6187177598363
 21
-25.1343536227942
 31
0.0
 73
     2
  0
LINE
  5
   2A5
  8
0
  6
CONTINUOUS
 62
     7
 10
34.0267333984375
 20
1.63678616799525
 30
0.0
 11
34.0267333984375
 21
-29.6343536376953
 31
0.0
  0
LINE
  5
   2A6
  8
0
  6
CONTINUOUS
 62
     7
 10
74.1456149816287
 20
-23.8314106671136
 30
0.0
 11
74.1456149816287
 21
-29.6343536376953
 31
0.0
  0
LINE
  5
   2A7
  8
0
  6
CONTINUOUS
 62
     7
 10
34.0267333984375
 20
-27.6343536376953
 30
0.0
 11
74.1456149816287
 21
-27.6343536376953
 31
0.0
  0
LINE
  5
   2A8
  8
0
  6
CONTINUOUS
 62
     7
 10
36.9811566756445
 20
-27.1134092077437
 30
0.0
 11
34.0267333984375
 21
-27.6343536376953
 31
0.0
  0
LINE
  5
   2A9
  8
0
  6
CONTINUOUS
 62
     7
 10
34.0267333984375
 20
-27.6343536376953
 30
0.0
 11
36.9811566756445
 21
-28.155298067647
 31
0.0
  0
LINE
  5
   2AA
  8
0
  6
CONTINUOUS
 62
     7
 10
71.1911917044217
 20
-28.155298067647
 30
0.0
 11
74.1456149816287
 21
-27.6343536376953
 31
0.0
  0
LINE
  5
   2AB
  8
0
  6
CONTINUOUS
 62
     7
 10
74.1456149816287
 20
-27.6343536376953
 30
0.0
 11
71.1911917044217
 21
-27.1134092077437
 31
0.0
  0
ENDBLK
  5
   2AC
  8
0
  6
CONTINUOUS
 62
     7
  0
BLOCK
  5
   2AD
  8
0
  6
CONTINUOUS
 62
     7
  2
*UDIM1368
 70
    65
 10
0.0
 20
0.0
 30
0.0
  3
*UDIM1368
  0
TEXT
  5
   2AE
  8
0
  6
CONTINUOUS
 62
     7
 10
-2.2454032965815
 20
40.7829948076616
 30
0.0
 40
3.00000002980232
  1
90
 50
449.999999844103
 41
0.933333333333333
 72
     1
 11
-3.74540330469608
 21
43.2829948365688
 31
0.0
 73
     2
  0
LINE
  5
   2AF
  8
0
  6
CONTINUOUS
 62
     7
 10
30.6692333984375
 20
54.8079948425293
 30
0.0
 11
-3.24540328979492
 21
54.8079948425293
 31
0.0
  0
LINE
  5
   2B0
  8
0
  6
CONTINUOUS
 62
     7
 10
3.22070870790162
 20
32.3079948425293
 30
0.0
 11
-3.24540328979492
 21
32.3079948425293
 31
0.0
  0
LINE
  5
   2B1
  8
0
  6
CONTINUOUS
 62
     7
 10
-1.24540328979492
 20
54.8079948425293
 30
0.0
 11
-1.24540328979492
 21
32.3079948425293
 31
0.0
  0
LINE
  5
   2B2
  8
0
  6
CONTINUOUS
 62
     7
 10
-0.72445885984326
 20
51.8535715653223
 30
0.0
 11
-1.24540328979492
 21
54.8079948425293
 31
0.0
  0
LINE
  5
   2B3
  8
0
  6
CONTINUOUS
 62
     7
 10
-1.24540328979492
 20
54.8079948425293
 30
0.0
 11
-1.76634771974658
 21
51.8535715653223
 31
0.0
  0
LINE
  5
   2B4
  8
0
  6
CONTINUOUS
 62
     7
 10
-1.76634771974658
 20
35.2624181197363
 30
0.0
 11
-1.24540328979492
 21
32.3079948425293
 31
0.0
  0
LINE
  5
   2B5
  8
0
  6
CONTINUOUS
 62
     7
 10
-1.24540328979492
 20
32.3079948425293
 30
0.0
 11
-0.72445885984326
 21
35.2624181197363
 31
0.0
  0
ENDBLK
  5
   2B6
  8
0
  6
CONTINUOUS
 62
     7
  0
BLOCK
  5
   2B7
  8
0
  6
CONTINUOUS
 62
     7
  2
*UDIM1369
 70
    65
 10
0.0
 20
0.0
 30
0.0
  3
*UDIM1369
  0
TEXT
  5
   2B8
  8
0
  6
CONTINUOUS
 62
     7
 10
4.00852202310435
 20
28.1329947937539
 30
0.0
 40
3.00000002980232
  1
161
 50
449.999999844103
 41
0.933333333333333
 72
     1
 11
2.50852201879025
 21
32.0329948365688
 31
0.0
 73
     2
  0
LINE
  5
   2B9
  8
0
  6
CONTINUOUS
 62
     7
 10
10.6517333984375
 20
52.4329948425293
 30
0.0
 11
3.00852203369141
 21
52.4329948425293
 31
0.0
  0
LINE
  5
   2BA
  8
0
  6
CONTINUOUS
 62
     7
 10
10.6517333984375
 20
12.1829948425293
 30
0.0
 11
3.00852203369141
 21
12.1829948425293
 31
0.0
  0
LINE
  5
   2BB
  8
0
  6
CONTINUOUS
 62
     7
 10
5.00852203369141
 20
52.4329948425293
 30
0.0
 11
5.00852203369141
 21
12.1829948425293
 31
0.0
  0
LINE
  5
   2BC
  8
0
  6
CONTINUOUS
 62
     7
 10
5.52946646364307
 20
49.4785715653223
 30
0.0
 11
5.00852203369141
 21
52.4329948425293
 31
0.0
  0
LINE
  5
   2BD
  8
0
  6
CONTINUOUS
 62
     7
 10
5.00852203369141
 20
52.4329948425293
 30
0.0
 11
4.48757760373974
 21
49.4785715653223
 31
0.0
  0
LINE
  5
   2BE
  8
0
  6
CONTINUOUS
 62
     7
 10
4.48757760373974
 20
15.1374181197363
 30
0.0
 11
5.00852203369141
 21
12.1829948425293
 31
0.0
  0
LINE
  5
   2BF
  8
0
  6
CONTINUOUS
 62
     7
 10
5.00852203369141
 20
12.1829948425293
 30
0.0
 11
5.52946646364307
 21
15.1374181197363
 31
0.0
  0
ENDBLK
  5
   2C0
  8
0
  6
CONTINUOUS
 62
     7
  0
BLOCK
  5
   2C1
  8
0
  6
CONTINUOUS
 62
     7
  2
*UDIM1370
 70
    65
 10
0.0
 20
0.0
 30
0.0
  3
*UDIM1370
  0
TEXT
  5
   2C2
  8
0
  6
CONTINUOUS
 62
     7
 10
92.3573913468348
 20
28.1329947937539
 30
0.0
 40
3.00000002980232
  1
177
 50
449.999999844103
 41
0.933333333333333
 72
     1
 11
90.8573913425207
 21
32.0329948365688
 31
0.0
 73
     2
  0
LINE
  5
   2C3
  8
0
  6
CONTINUOUS
 62
     7
 10
61.9017333984375
 20
54.4329948425293
 30
0.0
 11
95.3573913574219
 21
54.4329948425293
 31
0.0
  0
LINE
  5
   2C4
  8
0
  6
CONTINUOUS
 62
     7
 10
61.9017333984375
 20
10.1829948425293
 30
0.0
 11
95.3573913574219
 21
10.1829948425293
 31
0.0
  0
LINE
  5
   2C5
  8
0
  6
CONTINUOUS
 62
     7
 10
93.3573913574219
 20
54.4329948425293
 30
0.0
 11
93.3573913574219
 21
10.1829948425293
 31
0.0
  0
LINE
  5
   2C6
  8
0
  6
CONTINUOUS
 62
     7
 10
93.8783357873736
 20
51.4785715653223
 30
0.0
 11
93.3573913574219
 21
54.4329948425293
 31
0.0
  0
LINE
  5
   2C7
  8
0
  6
CONTINUOUS
 62
     7
 10
93.3573913574219
 20
54.4329948425293
 30
0.0
 11
92.8364469274702
 21
51.4785715653223
 31
0.0
  0
LINE
  5
   2C8
  8
0
  6
CONTINUOUS
 62
     7
 10
92.8364469274702
 20
13.1374181197363
 30
0.0
 11
93.3573913574219
 21
10.1829948425293
 31
0.0
  0
LINE
  5
   2C9
  8
0
  6
CONTINUOUS
 62
     7
 10
93.3573913574219
 20
10.1829948425293
 30
0.0
 11
93.8783357873736
 21
13.1374181197363
 31
0.0
  0
ENDBLK
  5
   2CA
  8
0
  6
CONTINUOUS
 62
     7
  0
BLOCK
  5
   2CB
  8
0
  6
CONTINUOUS
 62
     7
  2
*UDIM1371
 70
    65
 10
0.0
 20
0.0
 30
0.0
  3
*UDIM1371
  0
TEXT
  5
   2CC
  8
0
  6
CONTINUOUS
 62
     7
 10
84.9045486420334
 20
41.5568361370773
 30
0.0
 40
3.00000002980232
  1
=
 50
449.999999844103
 41
0.933333333333334
 72
     1
 11
83.4045486301184
 21
42.6568361520767
 31
0.0
 73
     2
  0
LINE
  5
   2CD
  8
0
  6
CONTINUOUS
 62
     7
 10
61.9017333984375
 20
54.4329948425293
 30
0.0
 11
87.9045486450195
 21
54.4329948425293
 31
0.0
  0
LINE
  5
   2CE
  8
0
  6
CONTINUOUS
 62
     7
 10
76.2342013910815
 20
32.3079948425293
 30
0.0
 11
87.9045486450195
 21
32.3079948425293
 31
0.0
  0
LINE
  5
   2CF
  8
0
  6
CONTINUOUS
 62
     7
 10
85.9045486450195
 20
54.4329948425293
 30
0.0
 11
85.9045486450195
 21
32.3079948425293
 31
0.0
  0
LINE
  5
   2D0
  8
0
  6
CONTINUOUS
 62
     7
 10
86.4254930749712
 20
51.4785715653223
 30
0.0
 11
85.9045486450195
 21
54.4329948425293
 31
0.0
  0
LINE
  5
   2D1
  8
0
  6
CONTINUOUS
 62
     7
 10
85.9045486450195
 20
54.4329948425293
 30
0.0
 11
85.3836042150679
 21
51.4785715653223
 31
0.0
  0
LINE
  5
   2D2
  8
0
  6
CONTINUOUS
 62
     7
 10
85.3836042150679
 20
35.2624181197363
 30
0.0
 11
85.9045486450195
 21
32.3079948425293
 31
0.0
  0
LINE
  5
   2D3
  8
0
  6
CONTINUOUS
 62
     7
 10
85.9045486450195
 20
32.3079948425293
 30
0.0
 11
86.4254930749712
 21
35.2624181197363
 31
0.0
  0
ENDBLK
  5
   2D4
  8
0
  6
CONTINUOUS
 62
     7
  0
BLOCK
  5
   2D5
  8
0
  6
CONTINUOUS
 62
     7
  2
*UDIM1372
 70
    65
 10
0.0
 20
0.0
 30
0.0
  3
*UDIM1372
  0
TEXT
  5
   2D6
  8
0
  6
CONTINUOUS
 62
     7
 10
84.9045486420334
 20
19.2571220486373
 30
0.0
 40
3.00000002980232
  1
=
 50
449.999999844103
 41
0.933333333333334
 72
     1
 11
83.4045486301184
 21
20.3571220636368
 31
0.0
 73
     2
  0
LINE
  5
   2D7
  8
0
  6
CONTINUOUS
 62
     7
 10
61.9017333984375
 20
10.1829948425293
 30
0.0
 11
87.9045486450195
 21
10.1829948425293
 31
0.0
  0
LINE
  5
   2D8
  8
0
  6
CONTINUOUS
 62
     7
 10
85.9045486450195
 20
32.3079948425293
 30
0.0
 11
85.9045486450195
 21
10.1829948425293
 31
0.0
  0
LINE
  5
   2D9
  8
0
  6
CONTINUOUS
 62
     7
 10
86.4254930749712
 20
29.3535715653223
 30
0.0
 11
85.9045486450195
 21
32.3079948425293
 31
0.0
  0
LINE
  5
   2DA
  8
0
  6
CONTINUOUS
 62
     7
 10
85.9045486450195
 20
32.3079948425293
 30
0.0
 11
85.3836042150679
 21
29.3535715653223
 31
0.0
  0
LINE
  5
   2DB
  8
0
  6
CONTINUOUS
 62
     7
 10
85.3836042150679
 20
13.1374181197363
 30
0.0
 11
85.9045486450195
 21
10.1829948425293
 31
0.0
  0
LINE
  5
   2DC
  8
0
  6
CONTINUOUS
 62
     7
 10
85.9045486450195
 20
10.1829948425293
 30
0.0
 11
86.4254930749712
 21
13.1374181197363
 31
0.0
  0
ENDBLK
  5
   2DD
  8
0
  6
CONTINUOUS
 62
     7
  0
BLOCK
  5
   2DE
  8
0
  6
CONTINUOUS
 62
     7
  2
*UDIM1373
 70
    65
 10
0.0
 20
0.0
 30
0.0
  3
*UDIM1373
  0
TEXT
  5
   2DF
  8
0
  6
CONTINUOUS
 62
     7
 10
44.4935684174241
 20
35.3079947321624
 30
0.0
 40
3.00000002980232
  1
9
 50
449.999999844103
 41
0.933333333333334
 72
     1
 11
42.993568405509
 21
36.4079947471619
 31
0.0
 73
     2
  0
LINE
  5
   2E0
  8
0
  6
CONTINUOUS
 62
     7
 10
63.2767333984375
 20
30.0579948425293
 30
0.0
 11
43.4935684204102
 21
30.0579948425293
 31
0.0
  0
LINE
  5
   2E1
  8
0
  6
CONTINUOUS
 62
     7
 10
45.4935684204102
 20
37.5079947580894
 30
0.0
 11
45.4935684204102
 21
30.0579948425293
 31
0.0
  0
LINE
  5
   2E2
  8
0
  6
CONTINUOUS
 62
     7
 10
44.9726239904585
 20
35.2624181197363
 30
0.0
 11
45.4935684204102
 21
32.3079948425293
 31
0.0
  0
LINE
  5
   2E3
  8
0
  6
CONTINUOUS
 62
     7
 10
45.4935684204102
 20
32.3079948425293
 30
0.0
 11
46.0145128503618
 21
35.2624181197363
 31
0.0
  0
LINE
  5
   2E4
  8
0
  6
CONTINUOUS
 62
     7
 10
46.0145128503618
 20
27.1035715653223
 30
0.0
 11
45.4935684204102
 21
30.0579948425293
 31
0.0
  0
LINE
  5
   2E5
  8
0
  6
CONTINUOUS
 62
     7
 10
45.4935684204102
 20
30.0579948425293
 30
0.0
 11
44.9726239904585
 21
27.1035715653223
 31
0.0
  0
ENDBLK
  5
   2E6
  8
0
  6
CONTINUOUS
 62
     7
  0
BLOCK
  5
   2E7
  8
0
  6
CONTINUOUS
 62
     7
  2
*UDIM1374
 70
    65
 10
0.0
 20
0.0
 30
0.0
  3
*UDIM1374
  0
TEXT
  5
   2E8
  8
0
  6
CONTINUOUS
 62
     7
 10
44.4935684136236
 20
22.8918882021318
 30
0.0
 40
3.00000002980232
  1
39
 50
449.999999844103
 41
0.933333333333333
 72
     1
 11
42.993568405509
 21
25.391888231039
 31
0.0
 73
     2
  0
LINE
  5
   2E9
  8
0
  6
CONTINUOUS
 62
     7
 10
63.2767333984375
 20
20.3079948425293
 30
0.0
 11
43.4935684204102
 21
20.3079948425293
 31
0.0
  0
LINE
  5
   2EA
  8
0
  6
CONTINUOUS
 62
     7
 10
45.4935684204102
 20
30.0579948425293
 30
0.0
 11
45.4935684204102
 21
20.3079948425293
 31
0.0
  0
LINE
  5
   2EB
  8
0
  6
CONTINUOUS
 62
     7
 10
44.9726239904585
 20
33.0124181197363
 30
0.0
 11
45.4935684204102
 21
30.0579948425293
 31
0.0
  0
LINE
  5
   2EC
  8
0
  6
CONTINUOUS
 62
     7
 10
45.4935684204102
 20
30.0579948425293
 30
0.0
 11
46.0145128503618
 21
33.0124181197363
 31
0.0
  0
LINE
  5
   2ED
  8
0
  6
CONTINUOUS
 62
     7
 10
46.0145128503618
 20
17.3535715653223
 30
0.0
 11
45.4935684204102
 21
20.3079948425293
 31
0.0
  0
LINE
  5
   2EE
  8
0
  6
CONTINUOUS
 62
     7
 10
45.4935684204102
 20
20.3079948425293
 30
0.0
 11
44.9726239904585
 21
17.3535715653223
 31
0.0
  0
ENDBLK
  5
   2EF
  8
0
  6
CONTINUOUS
 62
     7
  0
BLOCK
  5
   2F0
  8
0
  6
CONTINUOUS
 62
     7
  2
*UDIM1375
 70
    65
 10
0.0
 20
0.0
 30
0.0
  3
*UDIM1375
  0
TEXT
  5
   2F1
  8
0
  6
CONTINUOUS
 62
     7
 10
44.9767333496602
 20
-16.9693755997596
 30
0.0
 40
3.00000002980232
  1
121
 50
359.999999844103
 41
0.933333333333333
 72
     1
 11
48.876733392477
 21
-15.4693755954504
 31
0.0
 73
     2
  0
LINE
  5
   2F2
  8
0
  6
CONTINUOUS
 62
     7
 10
34.0267333984375
 20
1.63678616799525
 30
0.0
 11
34.0267333984375
 21
-19.9693756103516
 31
0.0
  0
LINE
  5
   2F3
  8
0
  6
CONTINUOUS
 62
     7
 10
64.2767333984375
 20
18.5579948425293
 30
0.0
 11
64.2767333984375
 21
-19.9693756103516
 31
0.0
  0
LINE
  5
   2F4
  8
0
  6
CONTINUOUS
 62
     7
 10
34.0267333984375
 20
-17.9693756103516
 30
0.0
 11
64.2767333984375
 21
-17.9693756103516
 31
0.0
  0
LINE
  5
   2F5
  8
0
  6
CONTINUOUS
 62
     7
 10
36.9811566756445
 20
-17.4484311803999
 30
0.0
 11
34.0267333984375
 21
-17.9693756103516
 31
0.0
  0
LINE
  5
   2F6
  8
0
  6
CONTINUOUS
 62
     7
 10
34.0267333984375
 20
-17.9693756103516
 30
0.0
 11
36.9811566756445
 21
-18.4903200403032
 31
0.0
  0
LINE
  5
   2F7
  8
0
  6
CONTINUOUS
 62
     7
 10
61.3223101212305
 20
-18.4903200403032
 30
0.0
 11
64.2767333984375
 21
-17.9693756103516
 31
0.0
  0
LINE
  5
   2F8
  8
0
  6
CONTINUOUS
 62
     7
 10
64.2767333984375
 20
-17.9693756103516
 30
0.0
 11
61.3223101212305
 21
-17.4484311803999
 31
0.0
  0
ENDBLK
  5
   2F9
  8
0
  6
CONTINUOUS
 62
     7
  0
BLOCK
  5
   2FA
  8
0
  6
CONTINUOUS
 62
     7
  2
*UDIM1376
 70
    65
 10
0.0
 20
0.0
 30
0.0
  3
*UDIM1376
  0
TEXT
  5
   2FB
  8
0
  6
CONTINUOUS
 62
     7
 10
68.8529295632235
 20
1.72093010627702
 30
0.0
 40
3.00000002980232
  1
16
 50
359.999999844103
 41
0.933333333333333
 72
     1
 11
71.3529295921326
 21
3.22093011438847
 31
0.0
 73
     2
  0
LINE
  5
   2FC
  8
0
  6
CONTINUOUS
 62
     7
 10
62.2767333984375
 20
21.3079948425293
 30
0.0
 11
62.2767333984375
 21
-1.2790699005127
 31
0.0
  0
LINE
  5
   2FD
  8
0
  6
CONTINUOUS
 62
     7
 10
66.2767333984375
 20
21.3079948425293
 30
0.0
 11
66.2767333984375
 21
-1.2790699005127
 31
0.0
  0
LINE
  5
   2FE
  8
0
  6
CONTINUOUS
 62
     7
 10
62.2767333984375
 20
0.720930099487305
 30
0.0
 11
73.8529296169678
 21
0.720930099487305
 31
0.0
  0
LINE
  5
   2FF
  8
0
  6
CONTINUOUS
 62
     7
 10
59.3223101212305
 20
0.199985669535643
 30
0.0
 11
62.2767333984375
 21
0.720930099487305
 31
0.0
  0
LINE
  5
   300
  8
0
  6
CONTINUOUS
 62
     7
 10
62.2767333984375
 20
0.720930099487305
 30
0.0
 11
59.3223101212305
 21
1.24187452943897
 31
0.0
  0
LINE
  5
   301
  8
0
  6
CONTINUOUS
 62
     7
 10
69.2311566756445
 20
1.24187452943897
 30
0.0
 11
66.2767333984375
 21
0.720930099487305
 31
0.0
  0
LINE
  5
   302
  8
0
  6
CONTINUOUS
 62
     7
 10
66.2767333984375
 20
0.720930099487305
 30
0.0
 11
69.2311566756445
 21
0.199985669535643
 31
0.0
  0
ENDBLK
  5
   303
  8
0
  6
CONTINUOUS
 62
     7
  0
BLOCK
  5
   304
  8
0
  6
CONTINUOUS
 62
     7
  2
*UDIM1377
 70
    65
 10
0.0
 20
0.0
 30
0.0
  3
*UDIM1377
  0
TEXT
  5
   305
  8
0
  6
CONTINUOUS
 62
     7
 10
31.9892333218447
 20
-11.0370788392254
 30
0.0
 40
3.00000002980232
  1
162,5
 50
359.999999844103
 41
0.933333333333333
 72
     1
 11
38.689233392477
 21
-9.53707884252071
 31
0.0
 73
     2
  0
LINE
  5
   306
  8
0
  6
CONTINUOUS
 62
     7
 10
18.6517333984375
 20
7.5579948425293
 30
0.0
 11
18.6517333984375
 21
-14.0370788574219
 31
0.0
  0
LINE
  5
   307
  8
0
  6
CONTINUOUS
 62
     7
 10
59.2767333984375
 20
7.5579948425293
 30
0.0
 11
59.2767333984375
 21
-14.0370788574219
 31
0.0
  0
LINE
  5
   308
  8
0
  6
CONTINUOUS
 62
     7
 10
18.6517333984375
 20
-12.0370788574219
 30
0.0
 11
59.2767333984375
 21
-12.0370788574219
 31
0.0
  0
LINE
  5
   309
  8
0
  6
CONTINUOUS
 62
     7
 10
21.6061566756445
 20
-11.5161344274702
 30
0.0
 11
18.6517333984375
 21
-12.0370788574219
 31
0.0
  0
LINE
  5
   30A
  8
0
  6
CONTINUOUS
 62
     7
 10
18.6517333984375
 20
-12.0370788574219
 30
0.0
 11
21.6061566756445
 21
-12.5580232873735
 31
0.0
  0
LINE
  5
   30B
  8
0
  6
CONTINUOUS
 62
     7
 10
56.3223101212305
 20
-12.5580232873735
 30
0.0
 11
59.2767333984375
 21
-12.0370788574219
 31
0.0
  0
LINE
  5
   30C
  8
0
  6
CONTINUOUS
 62
     7
 10
59.2767333984375
 20
-12.0370788574219
 30
0.0
 11
56.3223101212305
 21
-11.5161344274702
 31
0.0
  0
ENDBLK
  5
   30D
  8
0
  6
CONTINUOUS
 62
     7
  0
BLOCK
  5
   30E
  8
0
  6
CONTINUOUS
 62
     7
  2
*UDIM1378
 70
    65
 10
0.0
 20
0.0
 30
0.0
  3
*UDIM1378
  0
TEXT
  5
   30F
  8
0
  6
CONTINUOUS
 62
     7
 10
42.4767333496602
 20
-4.39004897012094
 30
0.0
 40
3.00000002980232
  1
101
 50
359.999999844103
 41
0.933333333333333
 72
     1
 11
46.376733392477
 21
-2.89004896581173
 31
0.0
 73
     2
  0
LINE
  5
   310
  8
0
  6
CONTINUOUS
 62
     7
 10
34.0267333984375
 20
1.63678616799525
 30
0.0
 11
34.0267333984375
 21
-7.39004898071289
 31
0.0
  0
LINE
  5
   311
  8
0
  6
CONTINUOUS
 62
     7
 10
59.2767333984375
 20
7.5579948425293
 30
0.0
 11
59.2767333984375
 21
-7.39004898071289
 31
0.0
  0
LINE
  5
   312
  8
0
  6
CONTINUOUS
 62
     7
 10
34.0267333984375
 20
-5.39004898071289
 30
0.0
 11
59.2767333984375
 21
-5.39004898071289
 31
0.0
  0
LINE
  5
   313
  8
0
  6
CONTINUOUS
 62
     7
 10
36.9811566756445
 20
-4.86910455076123
 30
0.0
 11
34.0267333984375
 21
-5.39004898071289
 31
0.0
  0
LINE
  5
   314
  8
0
  6
CONTINUOUS
 62
     7
 10
34.0267333984375
 20
-5.39004898071289
 30
0.0
 11
36.9811566756445
 21
-5.91099341066455
 31
0.0
  0
LINE
  5
   315
  8
0
  6
CONTINUOUS
 62
     7
 10
56.3223101212305
 20
-5.91099341066455
 30
0.0
 11
59.2767333984375
 21
-5.39004898071289
 31
0.0
  0
LINE
  5
   316
  8
0
  6
CONTINUOUS
 62
     7
 10
59.2767333984375
 20
-5.39004898071289
 30
0.0
 11
56.3223101212305
 21
-4.86910455076123
 31
0.0
  0
ENDBLK
  5
   317
  8
0
  6
CONTINUOUS
 62
     7
  0
BLOCK
  5
   318
  8
0
  6
CONTINUOUS
 62
     7
  2
*UDIM1379
 70
    65
 10
0.0
 20
0.0
 30
0.0
  3
*UDIM1379
  0
TEXT
  5
   319
  8
0
  6
CONTINUOUS
 62
     7
 10
17.1767337092749
 20
2.39992715747866
 30
0.0
 40
3.00000002980232
  1
19,75
 50
359.999999844103
 41
0.933333333333333
 72
     1
 11
23.8767337799072
 21
3.89992715418339
 31
0.0
 73
     2
  0
LINE
  5
   31A
  8
0
  6
CONTINUOUS
 62
     7
 10
34.0267333984375
 20
1.63678616799525
 30
0.0
 11
34.0267333984375
 21
-0.600072860717773
 31
0.0
  0
LINE
  5
   31B
  8
0
  6
CONTINUOUS
 62
     7
 10
38.9642333984375
 20
7.5579948425293
 30
0.0
 11
38.9642333984375
 21
-0.600072860717773
 31
0.0
  0
LINE
  5
   31C
  8
0
  6
CONTINUOUS
 62
     7
 10
17.1767337133487
 20
1.39992713928223
 30
0.0
 11
38.9642333984375
 21
1.39992713928223
 31
0.0
  0
LINE
  5
   31D
  8
0
  6
CONTINUOUS
 62
     7
 10
31.0723101212305
 20
0.878982709330565
 30
0.0
 11
34.0267333984375
 21
1.39992713928223
 31
0.0
  0
LINE
  5
   31E
  8
0
  6
CONTINUOUS
 62
     7
 10
34.0267333984375
 20
1.39992713928223
 30
0.0
 11
31.0723101212305
 21
1.92087156923389
 31
0.0
  0
LINE
  5
   31F
  8
0
  6
CONTINUOUS
 62
     7
 10
41.9186566756445
 20
1.92087156923389
 30
0.0
 11
38.9642333984375
 21
1.39992713928223
 31
0.0
  0
LINE
  5
   320
  8
0
  6
CONTINUOUS
 62
     7
 10
38.9642333984375
 20
1.39992713928223
 30
0.0
 11
41.9186566756445
 21
0.878982709330565
 31
0.0
  0
ENDBLK
  5
   321
  8
0
  6
CONTINUOUS
 62
     7
  0
BLOCK
  5
   322
  8
0
  6
CONTINUOUS
 62
     7
  2
*UDIM1380
 70
    65
 10
0.0
 20
0.0
 30
0.0
  3
*UDIM1380
  0
TEXT
  5
   323
  8
0
  6
CONTINUOUS
 62
     7
 10
28.7267333496602
 20
74.7742233382287
 30
0.0
 40
3.00000002980232
  1
170
 50
359.999999844103
 41
0.933333333333333
 72
     1
 11
32.626733392477
 21
76.2742233425379
 31
0.0
 73
     2
  0
LINE
  5
   324
  8
0
  6
CONTINUOUS
 62
     7
 10
11.6517333984375
 20
53.4329948425293
 30
0.0
 11
11.6517333984375
 21
75.7742233276367
 31
0.0
  0
LINE
  5
   325
  8
0
  6
CONTINUOUS
 62
     7
 10
54.1517333984375
 20
53.4329948425293
 30
0.0
 11
54.1517333984375
 21
75.7742233276367
 31
0.0
  0
LINE
  5
   326
  8
0
  6
CONTINUOUS
 62
     7
 10
11.6517333984375
 20
73.7742233276367
 30
0.0
 11
54.1517333984375
 21
73.7742233276367
 31
0.0
  0
LINE
  5
   327
  8
0
  6
CONTINUOUS
 62
     7
 10
14.6061566756445
 20
74.2951677575884
 30
0.0
 11
11.6517333984375
 21
73.7742233276367
 31
0.0
  0
LINE
  5
   328
  8
0
  6
CONTINUOUS
 62
     7
 10
11.6517333984375
 20
73.7742233276367
 30
0.0
 11
14.6061566756445
 21
73.2532788976851
 31
0.0
  0
LINE
  5
   329
  8
0
  6
CONTINUOUS
 62
     7
 10
51.1973101212305
 20
73.2532788976851
 30
0.0
 11
54.1517333984375
 21
73.7742233276367
 31
0.0
  0
LINE
  5
   32A
  8
0
  6
CONTINUOUS
 62
     7
 10
54.1517333984375
 20
73.7742233276367
 30
0.0
 11
51.1973101212305
 21
74.2951677575884
 31
0.0
  0
ENDBLK
  5
   32B
  8
0
  6
CONTINUOUS
 62
     7
  0
BLOCK
  5
   32C
  8
0
  6
CONTINUOUS
 62
     7
  2
*UDIM1381
 70
    65
 10
0.0
 20
0.0
 30
0.0
  3
*UDIM1381
  0
TEXT
  5
   32D
  8
0
  6
CONTINUOUS
 62
     7
 10
38.5142333357524
 20
69.1635589743551
 30
0.0
 40
3.00000002980232
  1
80,5
 50
359.999999844103
 41
0.933333333333333
 72
     1
 11
43.814233392477
 21
70.6635589748621
 31
0.0
 73
     2
  0
LINE
  5
   32E
  8
0
  6
CONTINUOUS
 62
     7
 10
34.0267333984375
 20
64.3856927571491
 30
0.0
 11
34.0267333984375
 21
70.1635589599609
 31
0.0
  0
LINE
  5
   32F
  8
0
  6
CONTINUOUS
 62
     7
 10
54.1517333984375
 20
53.4329948425293
 30
0.0
 11
54.1517333984375
 21
70.1635589599609
 31
0.0
  0
LINE
  5
   330
  8
0
  6
CONTINUOUS
 62
     7
 10
34.0267333984375
 20
68.1635589599609
 30
0.0
 11
54.1517333984375
 21
68.1635589599609
 31
0.0
  0
LINE
  5
   331
  8
0
  6
CONTINUOUS
 62
     7
 10
36.9811566756445
 20
68.6845033899126
 30
0.0
 11
34.0267333984375
 21
68.1635589599609
 31
0.0
  0
LINE
  5
   332
  8
0
  6
CONTINUOUS
 62
     7
 10
34.0267333984375
 20
68.1635589599609
 30
0.0
 11
36.9811566756445
 21
67.6426145300093
 31
0.0
  0
LINE
  5
   333
  8
0
  6
CONTINUOUS
 62
     7
 10
51.1973101212305
 20
67.6426145300093
 30
0.0
 11
54.1517333984375
 21
68.1635589599609
 31
0.0
  0
LINE
  5
   334
  8
0
  6
CONTINUOUS
 62
     7
 10
54.1517333984375
 20
68.1635589599609
 30
0.0
 11
51.1973101212305
 21
68.6845033899126
 31
0.0
  0
ENDBLK
  5
   335
  8
0
  6
CONTINUOUS
 62
     7
  0
BLOCK
  5
   336
  8
0
  6
CONTINUOUS
 62
     7
  2
*UDIM1382
 70
    65
 10
0.0
 20
0.0
 30
0.0
  3
*UDIM1382
  0
TEXT
  5
   337
  8
0
  6
CONTINUOUS
 62
     7
 10
36.8813536772123
 20
63.7673130103298
 30
0.0
 40
3.00000002980232
  1
45
 50
359.999999844103
 41
0.933333333333333
 72
     1
 11
39.3813537061214
 21
65.2673130184412
 31
0.0
 73
     2
  0
LINE
  5
   338
  8
0
  6
CONTINUOUS
 62
     7
 10
33.3392333984375
 20
57.4779948425293
 30
0.0
 11
33.3392333984375
 21
64.76731300354
 31
0.0
  0
LINE
  5
   339
  8
0
  6
CONTINUOUS
 62
     7
 10
44.5892333984375
 20
57.4779948425293
 30
0.0
 11
44.5892333984375
 21
64.76731300354
 31
0.0
  0
LINE
  5
   33A
  8
0
  6
CONTINUOUS
 62
     7
 10
33.3392333984375
 20
62.76731300354
 30
0.0
 11
44.5892333984375
 21
62.76731300354
 31
0.0
  0
LINE
  5
   33B
  8
0
  6
CONTINUOUS
 62
     7
 10
30.3848101212305
 20
62.2463685735884
 30
0.0
 11
33.3392333984375
 21
62.76731300354
 31
0.0
  0
LINE
  5
   33C
  8
0
  6
CONTINUOUS
 62
     7
 10
33.3392333984375
 20
62.76731300354
 30
0.0
 11
30.3848101212305
 21
63.2882574334917
 31
0.0
  0
LINE
  5
   33D
  8
0
  6
CONTINUOUS
 62
     7
 10
47.5436566756445
 20
63.2882574334917
 30
0.0
 11
44.5892333984375
 21
62.76731300354
 31
0.0
  0
LINE
  5
   33E
  8
0
  6
CONTINUOUS
 62
     7
 10
44.5892333984375
 20
62.76731300354
 30
0.0
 11
47.5436566756445
 21
62.2463685735884
 31
0.0
  0
ENDBLK
  5
   33F
  8
0
  6
CONTINUOUS
 62
     7
  0
BLOCK
  5
   340
  8
0
  6
CONTINUOUS
 62
     7
  2
*HATCH285
 70
    65
 10
0.0
 20
0.0
 30
0.0
  3
*HATCH285
  0
LINE
  5
   341
  8
0
  6
CONTINUOUS
 62
    52
 10
-11.7279224395752
 20
1.0
 30
0.0
 11
-11.9763488769531
 21
0.75157368183136
 31
0.0
  0
LINE
  5
   342
  8
0
  6
CONTINUOUS
 62
    52
 10
-9.60660171508789
 20
1.0
 30
0.0
 11
-11.6066026687622
 21
-1.0
 31
0.0
  0
LINE
  5
   343
  8
0
  6
CONTINUOUS
 62
    52
 10
-7.48528146743774
 20
1.0
 30
0.0
 11
-9.48528289794922
 21
-1.0
 31
0.0
  0
LINE
  5
   344
  8
0
  6
CONTINUOUS
 62
    52
 10
-5.3639612197876
 20
1.0
 30
0.0
 11
-7.36396265029907
 21
-1.0
 31
0.0
  0
LINE
  5
   345
  8
0
  6
CONTINUOUS
 62
    52
 10
-3.47947335243225
 20
0.763167560100555
 30
0.0
 11
-5.24264097213745
 21
-1.0
 31
0.0
  0
LINE
  5
   346
  8
0
  6
CONTINUOUS
 62
    52
 10
-2.51160907745361
 20
-0.390288293361664
 30
0.0
 11
-3.1213207244873
 21
-1.0
 31
0.0
  0
ENDBLK
  5
   347
  8
0
  6
CONTINUOUS
 62
     7
  0
BLOCK
  5
   348
  8
0
  6
CONTINUOUS
 62
     7
  2
*HATCH286
 70
    65
 10
0.0
 20
0.0
 30
0.0
  3
*HATCH286
  0
LINE
  5
   349
  8
0
  6
CONTINUOUS
 62
    52
 10
5.24264097213745
 20
1.0
 30
0.0
 11
3.24264073371887
 21
-1.0
 31
0.0
  0
LINE
  5
   34A
  8
0
  6
CONTINUOUS
 62
    52
 10
7.3639612197876
 20
1.0
 30
0.0
 11
5.3639612197876
 21
-1.0
 31
0.0
  0
LINE
  5
   34B
  8
0
  6
CONTINUOUS
 62
    52
 10
9.48528099060059
 20
1.0
 30
0.0
 11
7.4852819442749
 21
-1.0
 31
0.0
  0
ENDBLK
  5
   34C
  8
0
  6
CONTINUOUS
 62
     7
  0
BLOCK
  5
   34D
  8
0
  6
CONTINUOUS
 62
     7
  2
*UDIM1383
 70
    65
 10
0.0
 20
0.0
 30
0.0
  3
*UDIM1383
  0
TEXT
  5
   34E
  8
0
  6
CONTINUOUS
 62
     7
 10
54.1758935488922
 20
97.7460517155425
 30
0.0
 40
3.00000002980232
  1
80
 50
449.241125536518
 41
0.933333333333333
 72
     1
 11
52.7091362789575
 21
100.265699167067
 31
0.0
 73
     2
  0
TEXT
  5
   34F
  8
0
  6
CONTINUOUS
 62
     7
 10
53.6421685146306
 20
102.753559886989
 30
0.0
 40
3.00000002980232
  1
°
 50
449.241125536518
 41
0.933333333333334
 72
     1
 11
52.1568689854689
 21
103.873330121196
 31
0.0
 73
     2
  0
LINE
  5
   350
  8
0
  6
CONTINUOUS
 62
     7
 10
37.1134641818885
 20
97.3195923515917
 30
0.0
 11
51.315431348119
 21
85.4027269404159
 31
0.0
  0
LINE
  5
   351
  8
0
  6
CONTINUOUS
 62
     7
 10
37.1134641818885
 20
105.961566095674
 30
0.0
 11
51.315431348119
 21
117.87843150685
 31
0.0
  0
ARC
  5
   352
  8
0
  6
CONTINUOUS
 62
     7
 10
31.9639125535811
 20
101.640579223633
 30
0.0
 40
23.2616136940404
 50
319.999999815233
 51
399.999999769042
  0
LINE
  5
   353
  8
0
  6
CONTINUOUS
 62
     7
 10
51.2833425525009
 20
89.2863783188228
 30
0.0
 11
49.7833424618811
 21
86.6883021597889
 31
0.0
  0
LINE
  5
   354
  8
0
  6
CONTINUOUS
 62
     7
 10
49.7833424618811
 20
86.6883021597889
 30
0.0
 11
52.0814757239775
 21
88.6166650690065
 31
0.0
  0
LINE
  5
   355
  8
0
  6
CONTINUOUS
 62
     7
 10
52.0814757239775
 20
114.664493378259
 30
0.0
 11
49.7833424618811
 21
116.592856287477
 31
0.0
  0
LINE
  5
   356
  8
0
  6
CONTINUOUS
 62
     7
 10
49.7833424618811
 20
116.592856287477
 30
0.0
 11
51.2833425525009
 21
113.994780128443
 31
0.0
  0
ENDBLK
  5
   357
  8
0
  6
CONTINUOUS
 62
     7
  0
BLOCK
  5
   358
  8
0
  6
CONTINUOUS
 62
     7
  2
*UDIM1384
 70
    65
 10
0.0
 20
0.0
 30
0.0
  3
*UDIM1384
  0
TEXT
  5
   359
  8
0
  6
CONTINUOUS
 62
     7
 10
13.9017524651373
 20
107.52564618081
 30
0.0
 40
3.00000002980232
  1
Ø4
 50
449.999999844103
 41
0.933333333333333
 72
     1
 11
12.4017524570227
 21
110.025646209717
 31
0.0
 73
     2
  0
LINE
  5
   35A
  8
0
  6
CONTINUOUS
 62
     7
 10
33.3474197387695
 20
103.640579223633
 30
0.0
 11
12.9017524719238
 21
103.640579223633
 31
0.0
  0
LINE
  5
   35B
  8
0
  6
CONTINUOUS
 62
     7
 10
33.3474197387695
 20
99.6405792236328
 30
0.0
 11
12.9017524719238
 21
99.6405792236328
 31
0.0
  0
LINE
  5
   35C
  8
0
  6
CONTINUOUS
 62
     7
 10
14.9017524719238
 20
112.525646234552
 30
0.0
 11
14.9017524719238
 21
99.6405792236328
 31
0.0
  0
LINE
  5
   35D
  8
0
  6
CONTINUOUS
 62
     7
 10
14.3808080419722
 20
106.59500250084
 30
0.0
 11
14.9017524719238
 21
103.640579223633
 31
0.0
  0
LINE
  5
   35E
  8
0
  6
CONTINUOUS
 62
     7
 10
14.9017524719238
 20
103.640579223633
 30
0.0
 11
15.4226969018755
 21
106.59500250084
 31
0.0
  0
LINE
  5
   35F
  8
0
  6
CONTINUOUS
 62
     7
 10
15.4226969018755
 20
96.6861559464259
 30
0.0
 11
14.9017524719238
 21
99.6405792236328
 31
0.0
  0
LINE
  5
   360
  8
0
  6
CONTINUOUS
 62
     7
 10
14.9017524719238
 20
99.6405792236328
 30
0.0
 11
14.3808080419722
 21
96.6861559464259
 31
0.0
  0
ENDBLK
  5
   361
  8
0
  6
CONTINUOUS
 62
     7
  0
ENDSEC
  0
SECTION
  2
ENTITIES
  0
LINE
  5
   362
  8
0
  6
CONTINUOUS
 62
     1
 10
-62.794575124979
 20
20.811424768269
 30
0.0
 11
-62.794575124979
 21
26.691424793303
 31
0.0
  0
LINE
  5
   363
  8
0
  6
CONTINUOUS
 62
     1
 10
-60.8345751166344
 20
20.811424768269
 30
0.0
 11
-60.8345751166344
 21
26.691424793303
 31
0.0
  0
LINE
  5
   364
  8
0
  6
CONTINUOUS
 62
     1
 10
-62.794575124979
 20
26.691424793303
 30
0.0
 11
-62.794575124979
 21
26.9714247944951
 31
0.0
  0
LINE
  5
   365
  8
0
  6
CONTINUOUS
 62
     1
 10
-60.8345751144831
 20
26.6914247987302
 30
0.0
 11
-60.834579386944
 21
26.9714247999223
 31
0.0
  0
LINE
  5
   366
  8
0
  6
CONTINUOUS
 62
     1
 10
-60.8345793734179
 20
26.9714248409812
 30
0.0
 11
-60.9096059242801
 21
27.2514248400431
 31
0.0
  0
LINE
  5
   367
  8
0
  6
CONTINUOUS
 62
     1
 10
-60.9096062079304
 20
27.2514243404047
 30
0.0
 11
-61.1145796513794
 21
27.4563977838537
 31
0.0
  0
LINE
  5
   368
  8
0
  6
CONTINUOUS
 62
     1
 10
-61.1145783277578
 20
27.4563990164293
 30
0.0
 11
-61.3945740524623
 21
27.5314255672665
 31
0.0
  0
LINE
  5
   369
  8
0
  6
CONTINUOUS
 62
     1
 10
-61.3945751190186
 20
27.5314247968793
 30
0.0
 11
-62.2345772588253
 21
27.5314247968793
 31
0.0
  0
LINE
  5
   36A
  8
0
  6
CONTINUOUS
 62
     1
 10
-62.5145800398695
 20
27.45639775007
 30
0.0
 11
-62.2345779036259
 21
27.5314243009331
 31
0.0
  0
LINE
  5
   36B
  8
0
  6
CONTINUOUS
 62
     1
 10
-62.7195545553327
 20
27.2514240339398
 30
0.0
 11
-62.5145800334138
 21
27.4563974846218
 31
0.0
  0
LINE
  5
   36C
  8
0
  6
CONTINUOUS
 62
     1
 10
-62.7945755064828
 20
26.9714239879858
 30
0.0
 11
-62.7195542945169
 21
27.2514239955606
 31
0.0
  0
LINE
  5
   36D
  8
0
  6
CONTINUOUS
 62
     1
 10
-62.794575124979
 20
20.5314247670769
 30
0.0
 11
-62.794575124979
 21
20.811424768269
 31
0.0
  0
LINE
  5
   36E
  8
0
  6
CONTINUOUS
 62
     1
 10
-60.8345793869439
 20
20.53142477107
 30
0.0
 11
-60.834575114483
 21
20.8114247722621
 31
0.0
  0
LINE
  5
   36F
  8
0
  6
CONTINUOUS
 62
     1
 10
-60.9096059126468
 20
20.2514248080961
 30
0.0
 11
-60.8345793617846
 21
20.531424807158
 31
0.0
  0
LINE
  5
   370
  8
0
  6
CONTINUOUS
 62
     1
 10
-61.1145799999893
 20
20.0464496637513
 30
0.0
 11
-60.9096065493073
 21
20.2514241856702
 31
0.0
  0
LINE
  5
   371
  8
0
  6
CONTINUOUS
 62
     1
 10
-61.394573681358
 20
19.9714245100139
 30
0.0
 11
-61.1145779566536
 21
20.0464510608511
 31
0.0
  0
LINE
  5
   372
  8
0
  6
CONTINUOUS
 62
     1
 10
-61.3945751190186
 20
19.9714236965775
 30
0.0
 11
-62.2345772588253
 21
19.9714236965775
 31
0.0
  0
LINE
  5
   373
  8
0
  6
CONTINUOUS
 62
     1
 10
-62.2345768359497
 20
19.9714238933252
 30
0.0
 11
-62.5145789709504
 21
20.0464515154355
 31
0.0
  0
LINE
  5
   374
  8
0
  6
CONTINUOUS
 62
     1
 10
-62.5145796848657
 20
20.0464510313079
 30
0.0
 11
-62.7195542067847
 21
20.2514244819899
 31
0.0
  0
LINE
  5
   375
  8
0
  6
CONTINUOUS
 62
     1
 10
-62.7195541337099
 20
20.2514243043004
 30
0.0
 11
-62.7945753456758
 21
20.5314243118752
 31
0.0
  0
LINE
  5
   376
  8
0
  6
CONTINUOUS
 62
     3
 10
-59.714575111866
 20
43.351427000463
 30
0.0
 11
-98.914575278759
 21
43.351427000463
 31
0.0
  0
LINE
  5
   377
  8
0
  6
CONTINUOUS
 62
     3
 10
-59.714575111866
 20
4.15142503112552
 30
0.0
 11
-98.914575278759
 21
4.15142503112552
 31
0.0
  0
LINE
  5
   378
  8
0
  6
CONTINUOUS
 62
     1
 10
-60.3445751145482
 20
39.9914269861579
 30
0.0
 11
-98.2845752760768
 21
39.9914269861579
 31
0.0
  0
LINE
  5
   379
  8
0
  6
CONTINUOUS
 62
     1
 10
-60.3445751145482
 20
42.7914269980788
 30
0.0
 11
-98.2845752760768
 21
42.7914269980788
 31
0.0
  0
LINE
  5
   37A
  8
0
  6
CONTINUOUS
 62
     3
 10
-98.914575278759
 20
4.15142503112552
 30
0.0
 11
-98.914575278759
 21
39.9914294561744
 31
0.0
  0
LINE
  5
   37B
  8
0
  6
CONTINUOUS
 62
     3
 10
-98.914575278759
 20
42.7914269980788
 30
0.0
 11
-98.914575278759
 21
43.351427000463
 31
0.0
  0
LINE
  5
   37C
  8
0
  6
CONTINUOUS
 62
     3
 10
-59.714575111866
 20
42.7914269980788
 30
0.0
 11
-59.714575111866
 21
43.351427000463
 31
0.0
  0
LINE
  5
   37D
  8
0
  6
CONTINUOUS
 62
     3
 10
-59.714575111866
 20
4.15142683356999
 30
0.0
 11
-59.714575111866
 21
39.9914269861579
 31
0.0
  0
LINE
  5
   37E
  8
0
  6
CONTINUOUS
 62
     3
 10
-69.6545794266463
 20
39.1514248463511
 30
0.0
 11
-97.9345774108172
 21
39.1514248463511
 31
0.0
  0
LINE
  5
   37F
  8
0
  6
CONTINUOUS
 62
     3
 10
-69.6545794266463
 20
5.13142456799743
 30
0.0
 11
-97.9345774108172
 21
5.13142456799743
 31
0.0
  0
LINE
  5
   380
  8
0
  6
CONTINUOUS
 62
     3
 10
-97.9345774108172
 20
5.13142456799743
 30
0.0
 11
-97.9345774108172
 21
39.1514247128367
 31
0.0
  0
LINE
  5
   381
  8
0
  6
CONTINUOUS
 62
     3
 10
-69.6545794266463
 20
5.13142456799743
 30
0.0
 11
-69.6545794266463
 21
39.1514247128367
 31
0.0
  0
LINE
  5
   382
  8
0
  6
CONTINUOUS
 62
     1
 10
-60.3445751145482
 20
39.9914269861579
 30
0.0
 11
-60.3445751145482
 21
42.7914269980788
 31
0.0
  0
LINE
  5
   383
  8
0
  6
CONTINUOUS
 62
     3
 10
-59.714575111866
 20
39.9914269861579
 30
0.0
 11
-59.714575111866
 21
42.7914269980788
 31
0.0
  0
LINE
  5
   384
  8
0
  6
CONTINUOUS
 62
     1
 10
-98.2845752760768
 20
39.9914269861579
 30
0.0
 11
-98.2845752760768
 21
42.7914269980788
 31
0.0
  0
LINE
  5
   385
  8
0
  6
CONTINUOUS
 62
     3
 10
-98.914575278759
 20
39.9914269861579
 30
0.0
 11
-98.914575278759
 21
42.7914269980788
 31
0.0
  0
LINE
  5
   386
  8
0
  6
CONTINUOUS
 62
     1
 10
-61.2545836633444
 20
13.3214631885292
 30
0.0
 11
-61.3125652309741
 21
13.3214631885292
 31
0.0
  0
LINE
  5
   387
  8
0
  6
CONTINUOUS
 62
     1
 10
-62.3165850106393
 20
10.2414626413585
 30
0.0
 11
-62.3745825999976
 21
10.2414626413585
 31
0.0
  0
LINE
  5
   388
  8
0
  6
CONTINUOUS
 62
     1
 10
-60.8341105229011
 20
5.53742457123987
 30
0.0
 11
-60.7365766477959
 21
5.90142449199691
 31
0.0
  0
LINE
  5
   389
  8
0
  6
CONTINUOUS
 62
     1
 10
-61.1005747468915
 20
5.27095839900888
 30
0.0
 11
-60.8341099114414
 21
5.537424851678
 31
0.0
  0
LINE
  5
   38A
  8
0
  6
CONTINUOUS
 62
     1
 10
-61.4645731714438
 20
5.17342548494647
 30
0.0
 11
-61.1005723069847
 21
5.27095896352014
 31
0.0
  0
LINE
  5
   38B
  8
0
  6
CONTINUOUS
 62
     1
 10
-61.4645730924401
 20
5.17342497714448
 30
0.0
 11
-61.8285728900358
 21
5.27095844621572
 31
0.0
  0
LINE
  5
   38C
  8
0
  6
CONTINUOUS
 62
     1
 10
-61.8285753399519
 20
5.27095870444075
 30
0.0
 11
-62.0950423156497
 21
5.53742514106338
 31
0.0
  0
LINE
  5
   38D
  8
0
  6
CONTINUOUS
 62
     1
 10
-62.0950416180844
 20
5.53742504829717
 30
0.0
 11
-62.1925744271352
 21
5.90142497088161
 31
0.0
  0
LINE
  5
   38E
  8
0
  6
CONTINUOUS
 62
     1
 10
-62.19257484608
 20
5.90142489874191
 30
0.0
 11
-62.0950420361656
 21
6.26542495029143
 31
0.0
  0
LINE
  5
   38F
  8
0
  6
CONTINUOUS
 62
     1
 10
-62.0950423587762
 20
6.2654248067092
 30
0.0
 11
-61.8285753830785
 21
6.53189124333183
 31
0.0
  0
LINE
  5
   390
  8
0
  6
CONTINUOUS
 62
     1
 10
-61.8285759155065
 20
6.53189124701896
 30
0.0
 11
-61.4645761208126
 21
6.62942485690614
 31
0.0
  0
LINE
  5
   391
  8
0
  6
CONTINUOUS
 62
     1
 10
-61.1005734190032
 20
6.53189144459409
 30
0.0
 11
-61.4645742707805
 21
6.62942505534498
 31
0.0
  0
LINE
  5
   392
  8
0
  6
CONTINUOUS
 62
     1
 10
-60.8341098680091
 20
6.26542511085527
 30
0.0
 11
-61.1005747034592
 21
6.5318915635244
 31
0.0
  0
LINE
  5
   393
  8
0
  6
CONTINUOUS
 62
     1
 10
-60.7365746760258
 20
5.90142498206338
 30
0.0
 11
-60.8341085545866
 21
6.26542504446705
 31
0.0
  0
LINE
  5
   394
  8
0
  6
CONTINUOUS
 62
     1
 10
-60.3165767372472
 20
5.90142523143951
 30
0.0
 11
-60.4703789151858
 21
6.47542529009395
 31
0.0
  0
LINE
  5
   395
  8
0
  6
CONTINUOUS
 62
     1
 10
-60.4703770585305
 20
6.47542517501291
 30
0.0
 11
-60.8905735816363
 21
6.89562222941774
 31
0.0
  0
LINE
  5
   396
  8
0
  6
CONTINUOUS
 62
     1
 10
-60.8905735539608
 20
6.89562234628096
 30
0.0
 11
-61.464574415468
 21
7.04942506761321
 31
0.0
  0
LINE
  5
   397
  8
0
  6
CONTINUOUS
 62
     1
 10
-62.0385762046376
 20
6.89562204892595
 30
0.0
 11
-61.4645764166281
 21
7.0494247767379
 31
0.0
  0
LINE
  5
   398
  8
0
  6
CONTINUOUS
 62
     1
 10
-62.4587741333914
 20
6.47542448533095
 30
0.0
 11
-62.0385765479525
 21
6.89562153947001
 31
0.0
  0
LINE
  5
   399
  8
0
  6
CONTINUOUS
 62
     1
 10
-62.6125758201037
 20
5.90142468815516
 30
0.0
 11
-62.4587736421651
 21
6.4754247468096
 31
0.0
  0
LINE
  5
   39A
  8
0
  6
CONTINUOUS
 62
     1
 10
-62.4587735764161
 20
5.32742521053089
 30
0.0
 11
-62.6125757543547
 21
5.90142526918533
 31
0.0
  0
LINE
  5
   39B
  8
0
  6
CONTINUOUS
 62
     1
 10
-62.0385742785375
 20
4.90722782149386
 30
0.0
 11
-62.4587718757609
 21
5.32742502909733
 31
0.0
  0
LINE
  5
   39C
  8
0
  6
CONTINUOUS
 62
     1
 10
-61.4645745259811
 20
4.75342507506692
 30
0.0
 11
-62.0385743139906
 21
4.90722792684873
 31
0.0
  0
LINE
  5
   39D
  8
0
  6
CONTINUOUS
 62
     1
 10
-61.4645768622991
 20
4.75342483338829
 30
0.0
 11
-60.8905760071494
 21
4.90722767825861
 31
0.0
  0
LINE
  5
   39E
  8
0
  6
CONTINUOUS
 62
     1
 10
-60.8905735514742
 20
4.90722826832981
 30
0.0
 11
-60.4703770047995
 21
5.32742548798355
 31
0.0
  0
LINE
  5
   39F
  8
0
  6
CONTINUOUS
 62
     1
 10
-60.4703789809348
 20
5.32742466724654
 30
0.0
 11
-60.3165768029963
 21
5.90142472590098
 31
0.0
  0
LINE
  5
   3A0
  8
0
  6
CONTINUOUS
 62
     1
 10
-63.2705830847193
 20
9.35085646966802
 30
0.0
 11
-63.6062756926972
 21
9.7508853953476
 31
0.0
  0
LINE
  5
   3A1
  8
0
  6
CONTINUOUS
 62
     1
 10
-63.6062764679067
 20
9.75088532372239
 30
0.0
 11
-64.0302947207742
 21
10.0557142019014
 31
0.0
  0
LINE
  5
   3A2
  8
0
  6
CONTINUOUS
 62
     1
 10
-64.0302955997482
 20
10.0557141189822
 30
0.0
 11
-64.516418328227
 21
10.246493385505
 31
0.0
  0
LINE
  5
   3A3
  8
0
  6
CONTINUOUS
 62
     1
 10
-64.5164188722624
 20
10.2464932126804
 30
0.0
 11
-65.0345850648105
 21
10.3114250049607
 31
0.0
  0
LINE
  5
   3A4
  8
0
  6
CONTINUOUS
 62
     1
 10
-65.552751298666
 20
10.2464930353525
 30
0.0
 11
-65.034585106118
 21
10.3114248276327
 31
0.0
  0
LINE
  5
   3A5
  8
0
  6
CONTINUOUS
 62
     1
 10
-66.0388735319339
 20
10.0557137871131
 30
0.0
 11
-65.552750803455
 21
10.2464930536359
 31
0.0
  0
LINE
  5
   3A6
  8
0
  6
CONTINUOUS
 62
     1
 10
-66.4628908600579
 20
9.75088532904133
 30
0.0
 11
-66.0388726071904
 21
10.0557142072204
 31
0.0
  0
LINE
  5
   3A7
  8
0
  6
CONTINUOUS
 62
     1
 10
-66.7985826362552
 20
9.35085704036635
 30
0.0
 11
-66.4628900282773
 21
9.75088596604593
 31
0.0
  0
LINE
  5
   3A8
  8
0
  6
CONTINUOUS
 62
     1
 10
-66.7985834733248
 20
7.07199355743001
 30
0.0
 11
-66.7985834733248
 21
9.35085640587732
 31
0.0
  0
LINE
  5
   3A9
  8
0
  6
CONTINUOUS
 62
     1
 10
-66.462890690055
 20
6.67196489494351
 30
0.0
 11
-66.798583293801
 21
7.07199354270486
 31
0.0
  0
LINE
  5
   3AA
  8
0
  6
CONTINUOUS
 62
     1
 10
-66.0388730147671
 20
6.36713580972179
 30
0.0
 11
-66.4628912786377
 21
6.67196494095272
 31
0.0
  0
LINE
  5
   3AB
  8
0
  6
CONTINUOUS
 62
     1
 10
-65.5527506952378
 20
6.17635654898441
 30
0.0
 11
-66.0388734237167
 21
6.36713581550727
 31
0.0
  0
LINE
  5
   3AC
  8
0
  6
CONTINUOUS
 62
     1
 10
-65.0345851298144
 20
6.11142492037779
 30
0.0
 11
-65.5527513203695
 21
6.17635644782209
 31
0.0
  0
LINE
  5
   3AD
  8
0
  6
CONTINUOUS
 62
     1
 10
-65.0345852079992
 20
6.11142473016761
 30
0.0
 11
-64.5164190174441
 21
6.17635625761191
 31
0.0
  0
LINE
  5
   3AE
  8
0
  6
CONTINUOUS
 62
     1
 10
-64.5164184364442
 20
6.1763562171153
 30
0.0
 11
-64.0302957079654
 21
6.36713548363817
 31
0.0
  0
LINE
  5
   3AF
  8
0
  6
CONTINUOUS
 62
     1
 10
-64.0302952707712
 20
6.3671355514292
 30
0.0
 11
-63.6062770069006
 21
6.67196468266013
 31
0.0
  0
LINE
  5
   3B0
  8
0
  6
CONTINUOUS
 62
     1
 10
-63.6062762164414
 20
6.67196505256712
 30
0.0
 11
-63.2705836126954
 21
7.07199370032847
 31
0.0
  0
LINE
  5
   3B1
  8
0
  6
CONTINUOUS
 62
     1
 10
-63.2705838855505
 20
7.07199355743001
 30
0.0
 11
-63.2705838855505
 21
9.35085640587732
 31
0.0
  0
LINE
  5
   3B2
  8
0
  6
CONTINUOUS
 62
     1
 10
-61.2545834763127
 20
13.3214633195156
 30
0.0
 11
-61.2955884204065
 21
13.4204583761068
 31
0.0
  0
LINE
  5
   3B3
  8
0
  6
CONTINUOUS
 62
     1
 10
-61.2955882826014
 20
13.4204583010101
 30
0.0
 11
-61.3945833391926
 21
13.461463245104
 31
0.0
  0
LINE
  5
   3B4
  8
0
  6
CONTINUOUS
 62
     1
 10
-61.3945836639405
 20
13.4614631891252
 30
0.0
 11
-61.5345751196146
 21
13.4614631891252
 31
0.0
  0
LINE
  5
   3B5
  8
0
  6
CONTINUOUS
 62
     1
 10
-62.0945751219988
 20
13.4614631891252
 30
0.0
 11
-62.2345836675168
 21
13.4614631891252
 31
0.0
  0
LINE
  5
   3B6
  8
0
  6
CONTINUOUS
 62
     1
 10
-62.3335783408882
 20
13.420458436463
 30
0.0
 11
-62.2345832842971
 21
13.4614633805569
 31
0.0
  0
LINE
  5
   3B7
  8
0
  6
CONTINUOUS
 62
     1
 10
-62.3745834185797
 20
13.3214634541479
 30
0.0
 11
-62.3335784744858
 21
13.420458510739
 31
0.0
  0
LINE
  5
   3B8
  8
0
  6
CONTINUOUS
 62
     1
 10
-62.3745836681128
 20
12.6214631855489
 30
0.0
 11
-62.3745836681128
 21
13.3214631885292
 31
0.0
  0
LINE
  5
   3B9
  8
0
  6
CONTINUOUS
 62
     1
 10
-62.3745836681128
 20
12.0614626491071
 30
0.0
 11
-62.3745836681128
 21
12.6214631855489
 31
0.0
  0
LINE
  5
   3BA
  8
0
  6
CONTINUOUS
 62
     1
 10
-62.3745836681128
 20
11.5014626467229
 30
0.0
 11
-62.3745836681128
 21
12.0614626491071
 31
0.0
  0
LINE
  5
   3BB
  8
0
  6
CONTINUOUS
 62
     1
 10
-62.3745836681128
 20
10.9414626443387
 30
0.0
 11
-62.3745836681128
 21
11.5014626467229
 31
0.0
  0
LINE
  5
   3BC
  8
0
  6
CONTINUOUS
 62
     1
 10
-62.3745836681128
 20
10.2414626413585
 30
0.0
 11
-62.3745836681128
 21
10.9414626443387
 31
0.0
  0
LINE
  5
   3BD
  8
0
  6
CONTINUOUS
 62
     1
 10
-62.333578538289
 20
10.1424676558121
 30
0.0
 11
-62.3745834823828
 21
10.2414627124033
 31
0.0
  0
LINE
  5
   3BE
  8
0
  6
CONTINUOUS
 62
     1
 10
-62.2345833489208
 20
10.1014626588828
 30
0.0
 11
-62.333578405512
 21
10.1424676029767
 31
0.0
  0
LINE
  5
   3BF
  8
0
  6
CONTINUOUS
 62
     1
 10
-61.3945836639405
 20
10.1014626407625
 30
0.0
 11
-61.5345751196146
 21
10.1014626407625
 31
0.0
  0
LINE
  5
   3C0
  8
0
  6
CONTINUOUS
 62
     1
 10
-62.0945751219988
 20
10.1014626407625
 30
0.0
 11
-62.2345836675168
 21
10.1014626407625
 31
0.0
  0
LINE
  5
   3C1
  8
0
  6
CONTINUOUS
 62
     1
 10
-61.3945832745688
 20
10.1014627943357
 30
0.0
 11
-61.2955882179776
 21
10.1424677384296
 31
0.0
  0
LINE
  5
   3C2
  8
0
  6
CONTINUOUS
 62
     1
 10
-61.2955883566034
 20
10.1424677904444
 30
0.0
 11
-61.2545834125095
 21
10.2414628470355
 31
0.0
  0
LINE
  5
   3C3
  8
0
  6
CONTINUOUS
 62
     1
 10
-61.2545836633444
 20
10.2414626413585
 30
0.0
 11
-61.2545836633444
 21
10.9414626443387
 31
0.0
  0
LINE
  5
   3C4
  8
0
  6
CONTINUOUS
 62
     1
 10
-61.2545836633444
 20
10.9414626443387
 30
0.0
 11
-61.2545836633444
 21
11.5014626467229
 31
0.0
  0
LINE
  5
   3C5
  8
0
  6
CONTINUOUS
 62
     1
 10
-61.2545836633444
 20
11.5014626467229
 30
0.0
 11
-61.2545836633444
 21
12.0614626491071
 31
0.0
  0
LINE
  5
   3C6
  8
0
  6
CONTINUOUS
 62
     1
 10
-61.2545836633444
 20
12.0614626491071
 30
0.0
 11
-61.2545836633444
 21
12.6214621174337
 31
0.0
  0
LINE
  5
   3C7
  8
0
  6
CONTINUOUS
 62
     1
 10
-61.2545836633444
 20
12.6214621174337
 30
0.0
 11
-61.2545836633444
 21
13.3214631885292
 31
0.0
  0
LINE
  5
   3C8
  8
0
  6
CONTINUOUS
 62
     1
 10
-62.2345751225948
 20
37.2614248383045
 30
0.0
 11
-62.2345751225948
 21
38.1014248418808
 31
0.0
  0
LINE
  5
   3C9
  8
0
  6
CONTINUOUS
 62
     1
 10
-62.1543619106784
 20
37.01455493193
 30
0.0
 11
-62.2345752314828
 21
37.2614241378395
 31
0.0
  0
LINE
  5
   3CA
  8
0
  6
CONTINUOUS
 62
     1
 10
-61.9443618919719
 20
36.8619815284601
 30
0.0
 11
-62.154361891012
 21
37.014555386043
 31
0.0
  0
LINE
  5
   3CB
  8
0
  6
CONTINUOUS
 62
     1
 10
-61.6847884381252
 20
36.8619817824047
 30
0.0
 11
-61.9443618034882
 21
36.8619817824047
 31
0.0
  0
LINE
  5
   3CC
  8
0
  6
CONTINUOUS
 62
     1
 10
-61.6847887504222
 20
36.8619814070702
 30
0.0
 11
-61.4747887513821
 21
37.014555264653
 31
0.0
  0
LINE
  5
   3CD
  8
0
  6
CONTINUOUS
 62
     1
 10
-61.4747887881367
 20
37.0145548092737
 30
0.0
 11
-61.3945754673323
 21
37.2614240151832
 31
0.0
  0
LINE
  5
   3CE
  8
0
  6
CONTINUOUS
 62
     1
 10
-61.3945751190186
 20
37.2614248383045
 30
0.0
 11
-61.3945751190186
 21
38.1014248418808
 31
0.0
  0
LINE
  5
   3CF
  8
0
  6
CONTINUOUS
 62
     1
 10
-61.3945752314308
 20
38.1014241161976
 30
0.0
 11
-61.4747885522353
 21
38.3482933221071
 31
0.0
  0
LINE
  5
   3D0
  8
0
  6
CONTINUOUS
 62
     1
 10
-61.474788526199
 20
38.3482937783842
 30
0.0
 11
-61.6847885252391
 21
38.500867635967
 31
0.0
  0
LINE
  5
   3D1
  8
0
  6
CONTINUOUS
 62
     1
 10
-61.6847884381252
 20
38.5008678977806
 30
0.0
 11
-61.9443618034882
 21
38.5008678977806
 31
0.0
  0
LINE
  5
   3D2
  8
0
  6
CONTINUOUS
 62
     1
 10
-62.1543621161951
 20
38.3482936569942
 30
0.0
 11
-61.944362117155
 21
38.500867514577
 31
0.0
  0
LINE
  5
   3D3
  8
0
  6
CONTINUOUS
 62
     1
 10
-62.2345754673843
 20
38.1014239935413
 30
0.0
 11
-62.1543621465798
 21
38.3482931994508
 31
0.0
  0
LINE
  5
   3D4
  8
0
  6
CONTINUOUS
 62
     1
 10
-61.8145751208067
 20
10.1014621067048
 30
0.0
 11
-62.0945751219988
 21
10.1014621067048
 31
0.0
  0
LINE
  5
   3D5
  8
0
  6
CONTINUOUS
 62
     1
 10
-61.5345751196146
 20
10.1014621067048
 30
0.0
 11
-61.8145751208067
 21
10.1014621067048
 31
0.0
  0
LINE
  5
   3D6
  8
0
  6
CONTINUOUS
 62
     1
 10
-61.5345729434354
 20
10.1014629687405
 30
0.0
 11
-61.3365828240545
 21
10.183473393413
 31
0.0
  0
LINE
  5
   3D7
  8
0
  6
CONTINUOUS
 62
     1
 10
-61.3365860157648
 20
10.1834716971807
 30
0.0
 11
-61.2545761275768
 21
10.3814612738007
 31
0.0
  0
LINE
  5
   3D8
  8
0
  6
CONTINUOUS
 62
     1
 10
-61.2545751184225
 20
10.3814621078969
 30
0.0
 11
-61.2545751184225
 21
11.5014621126653
 31
0.0
  0
LINE
  5
   3D9
  8
0
  6
CONTINUOUS
 62
     1
 10
-61.2545751184225
 20
11.5014621126653
 30
0.0
 11
-61.2545751184225
 21
12.0614621150495
 31
0.0
  0
LINE
  5
   3DA
  8
0
  6
CONTINUOUS
 62
     1
 10
-61.2545751184225
 20
12.0614621150495
 30
0.0
 11
-61.2545751184225
 21
13.1814621198179
 31
0.0
  0
LINE
  5
   3DB
  8
0
  6
CONTINUOUS
 62
     1
 10
-61.2545749308521
 20
13.1814622479809
 30
0.0
 11
-61.3365848190398
 21
13.3794523611633
 31
0.0
  0
LINE
  5
   3DC
  8
0
  6
CONTINUOUS
 62
     1
 10
-61.3365846823707
 20
13.3794522885189
 30
0.0
 11
-61.5345747955531
 21
13.4614621767066
 31
0.0
  0
LINE
  5
   3DD
  8
0
  6
CONTINUOUS
 62
     1
 10
-61.5345751196146
 20
13.46146212101
 30
0.0
 11
-61.8145751208067
 21
13.46146212101
 31
0.0
  0
LINE
  5
   3DE
  8
0
  6
CONTINUOUS
 62
     1
 10
-61.8145751208067
 20
13.46146212101
 30
0.0
 11
-62.0945751219988
 21
13.46146212101
 31
0.0
  0
LINE
  5
   3DF
  8
0
  6
CONTINUOUS
 62
     1
 10
-62.292564849138
 20
13.3794524247925
 30
0.0
 11
-62.0945747359556
 21
13.4614623129802
 31
0.0
  0
LINE
  5
   3E0
  8
0
  6
CONTINUOUS
 62
     1
 10
-62.3745748741962
 20
13.1814623826133
 30
0.0
 11
-62.2925649860085
 21
13.3794524957956
 31
0.0
  0
LINE
  5
   3E1
  8
0
  6
CONTINUOUS
 62
     1
 10
-62.3745751231909
 20
12.0614621150495
 30
0.0
 11
-62.3745751231909
 21
13.1814621198179
 31
0.0
  0
LINE
  5
   3E2
  8
0
  6
CONTINUOUS
 62
     1
 10
-62.3745751231909
 20
11.5014621126653
 30
0.0
 11
-62.3745751231909
 21
12.0614621150495
 31
0.0
  0
LINE
  5
   3E3
  8
0
  6
CONTINUOUS
 62
     1
 10
-62.3745751231909
 20
10.3814621078969
 30
0.0
 11
-62.3745751231909
 21
11.5014621126653
 31
0.0
  0
LINE
  5
   3E4
  8
0
  6
CONTINUOUS
 62
     1
 10
-62.2925659854618
 20
10.1834722398286
 30
0.0
 11
-62.3745758736498
 21
10.3814618164486
 31
0.0
  0
LINE
  5
   3E5
  8
0
  6
CONTINUOUS
 62
     1
 10
-62.0945733174374
 20
10.1014622054142
 30
0.0
 11
-62.2925634368182
 21
10.1834726300867
 31
0.0
  0
LINE
  5
   3E6
  8
0
  6
CONTINUOUS
 62
     1
 10
-41.654575034976
 20
30.2614312171936
 30
0.0
 11
-41.654575034976
 21
38.5214376610518
 31
0.0
  0
LINE
  5
   3E7
  8
0
  6
CONTINUOUS
 62
     1
 10
-41.6545750347685
 20
30.2614312172677
 30
0.0
 11
-42.6345762432356
 21
30.2614335178265
 31
0.0
  0
LINE
  5
   3E8
  8
0
  6
CONTINUOUS
 62
     1
 10
-69.6545794266463
 20
31.6770577490995
 30
0.0
 11
-97.9345774108172
 21
31.6770577490995
 31
0.0
  0
LINE
  5
   3E9
  8
0
  6
CONTINUOUS
 62
     1
 10
-69.6545794266463
 20
31.9570577502916
 30
0.0
 11
-97.9345774108172
 21
31.9570577502916
 31
0.0
  0
LINE
  5
   3EA
  8
0
  6
CONTINUOUS
 62
   132
 10
-85.1945752203465
 20
9.59186753056065
 30
0.0
 11
-85.1945752203465
 21
30.9109798649786
 31
0.0
  0
LINE
  5
   3EB
  8
0
  6
CONTINUOUS
 62
   132
 10
-73.4345751702786
 20
9.59186753056065
 30
0.0
 11
-73.4345751702786
 21
30.9109798649786
 31
0.0
  0
LINE
  5
   3EC
  8
0
  6
CONTINUOUS
 62
     1
 10
-85.1945752203465
 20
26.3570577264497
 30
0.0
 11
-97.9345774108172
 21
26.3570577264497
 31
0.0
  0
LINE
  5
   3ED
  8
0
  6
CONTINUOUS
 62
     1
 10
-69.6545794266463
 20
26.3570577264497
 30
0.0
 11
-73.4345751702786
 21
26.3570577264497
 31
0.0
  0
LINE
  5
   3EE
  8
0
  6
CONTINUOUS
 62
     1
 10
-69.6545794266463
 20
26.6370577276418
 30
0.0
 11
-73.4345751702786
 21
26.6370577276418
 31
0.0
  0
LINE
  5
   3EF
  8
0
  6
CONTINUOUS
 62
     1
 10
-85.1945752203465
 20
26.6370577276418
 30
0.0
 11
-97.9345774108172
 21
26.6370577276418
 31
0.0
  0
LINE
  5
   3F0
  8
0
  6
CONTINUOUS
 62
     1
 10
-69.6545794266463
 20
14.0847351339174
 30
0.0
 11
-73.4345751702786
 21
14.0847351339174
 31
0.0
  0
LINE
  5
   3F1
  8
0
  6
CONTINUOUS
 62
     1
 10
-85.1945752203465
 20
14.0847351339174
 30
0.0
 11
-97.9345774108172
 21
14.0847351339174
 31
0.0
  0
LINE
  5
   3F2
  8
0
  6
CONTINUOUS
 62
     1
 10
-85.1945752203465
 20
13.8047351327253
 30
0.0
 11
-97.9345774108172
 21
13.8047351327253
 31
0.0
  0
LINE
  5
   3F3
  8
0
  6
CONTINUOUS
 62
     1
 10
-69.6545794266463
 20
13.8047351327253
 30
0.0
 11
-73.4345751702786
 21
13.8047351327253
 31
0.0
  0
LINE
  5
   3F4
  8
0
  6
CONTINUOUS
 62
     1
 10
-69.6545794266463
 20
8.76473511126767
 30
0.0
 11
-97.9345774108172
 21
8.76473511126767
 31
0.0
  0
LINE
  5
   3F5
  8
0
  6
CONTINUOUS
 62
     1
 10
-69.6545794266463
 20
8.48473511007558
 30
0.0
 11
-97.9345774108172
 21
8.48473511007558
 31
0.0
  0
LINE
  5
   3F6
  8
0
  6
CONTINUOUS
 62
     7
 10
-73.8361507182529
 20
15.1556648564945
 30
0.0
 11
-84.7929996723721
 21
15.1556648564945
 31
0.0
  0
LINE
  5
   3F7
  8
0
  6
CONTINUOUS
 62
     7
 10
-84.8762273735086
 20
15.1282401897192
 30
0.0
 11
-84.7929998324293
 21
15.1556651178205
 31
0.0
  0
LINE
  5
   3F8
  8
0
  6
CONTINUOUS
 62
     7
 10
-84.9268473924906
 20
15.056710925699
 30
0.0
 11
-84.8762272749307
 21
15.1282404660021
 31
0.0
  0
LINE
  5
   3F9
  8
0
  6
CONTINUOUS
 62
     7
 10
-85.1199578575853
 20
14.2058011834153
 30
0.0
 11
-84.9268474300263
 21
15.0567109244727
 31
0.0
  0
LINE
  5
   3FA
  8
0
  6
CONTINUOUS
 62
     7
 10
-85.1848050837287
 20
13.3356645234304
 30
0.0
 11
-85.119957670609
 21
14.2058003373469
 31
0.0
  0
LINE
  5
   3FB
  8
0
  6
CONTINUOUS
 62
     7
 10
-85.1199576920587
 20
12.4655299224432
 30
0.0
 11
-85.1848051038085
 21
13.3356646711984
 31
0.0
  0
LINE
  5
   3FC
  8
0
  6
CONTINUOUS
 62
     7
 10
-84.9268473053153
 20
11.6146197894334
 30
0.0
 11
-85.1199577340531
 21
12.4655300513048
 31
0.0
  0
LINE
  5
   3FD
  8
0
  6
CONTINUOUS
 62
     7
 10
-84.8762266531776
 20
11.5430889635064
 30
0.0
 11
-84.926846770285
 21
11.6146190371841
 31
0.0
  0
LINE
  5
   3FE
  8
0
  6
CONTINUOUS
 62
     7
 10
-84.792999620394
 20
11.5156653323029
 30
0.0
 11
-84.8762271596579
 21
11.5430897250338
 31
0.0
  0
LINE
  5
   3FF
  8
0
  6
CONTINUOUS
 62
     7
 10
-73.8361507182529
 20
11.5156653750549
 30
0.0
 11
-84.7929996723721
 21
11.5156653750549
 31
0.0
  0
LINE
  5
   400
  8
0
  6
CONTINUOUS
 62
     7
 10
-73.836150770752
 20
11.5156653321668
 30
0.0
 11
-73.7529232314881
 21
11.5430897248978
 31
0.0
  0
LINE
  5
   401
  8
0
  6
CONTINUOUS
 62
     7
 10
-73.7529237374474
 20
11.5430889635064
 30
0.0
 11
-73.70230362034
 21
11.6146190371841
 31
0.0
  0
LINE
  5
   402
  8
0
  6
CONTINUOUS
 62
     7
 10
-73.7023030853097
 20
11.6146197894334
 30
0.0
 11
-73.5091926565719
 21
12.4655300513048
 31
0.0
  0
LINE
  5
   403
  8
0
  6
CONTINUOUS
 62
     7
 10
-73.5091926985663
 20
12.4655299224432
 30
0.0
 11
-73.4443452868166
 21
13.3356646711984
 31
0.0
  0
LINE
  5
   404
  8
0
  6
CONTINUOUS
 62
     7
 10
-73.4443453068963
 20
13.3356645234304
 30
0.0
 11
-73.509192720016
 21
14.2058003373469
 31
0.0
  0
LINE
  5
   405
  8
0
  6
CONTINUOUS
 62
     7
 10
-73.5091925330397
 20
14.2058011834153
 30
0.0
 11
-73.7023029605987
 21
15.0567109244727
 31
0.0
  0
LINE
  5
   406
  8
0
  6
CONTINUOUS
 62
     7
 10
-73.7023029981345
 20
15.056710925699
 30
0.0
 11
-73.7529231156944
 21
15.1282404660021
 31
0.0
  0
LINE
  5
   407
  8
0
  6
CONTINUOUS
 62
     7
 10
-73.7529230149291
 20
15.1282401896774
 30
0.0
 11
-73.8361505560085
 21
15.1556651177787
 31
0.0
  0
LINE
  5
   408
  8
0
  6
CONTINUOUS
 62
     1
 10
-61.3945751190186
 20
37.7514248403907
 30
0.0
 11
-62.0365850094472
 21
37.7514248403907
 31
0.0
  0
LINE
  5
   409
  8
0
  6
CONTINUOUS
 62
     1
 10
-62.1355795853911
 20
37.7104203914658
 30
0.0
 11
-62.0365845287999
 21
37.7514253355597
 31
0.0
  0
LINE
  5
   40A
  8
0
  6
CONTINUOUS
 62
     1
 10
-62.2345758550912
 20
37.6114238137886
 30
0.0
 11
-62.1355808007878
 21
37.710418868092
 31
0.0
  0
LINE
  5
   40B
  8
0
  6
CONTINUOUS
 62
     1
 10
-62.2998619350087
 20
10.1285012157188
 30
0.0
 11
-62.250778835038
 21
10.1661640272702
 31
0.0
  0
LINE
  5
   40C
  8
0
  6
CONTINUOUS
 62
   152
 10
-49.9145750701427
 20
82.9014314413071
 30
0.0
 11
-128.314575403929
 21
82.9014314413071
 31
0.0
  0
LINE
  5
   40D
  8
0
  6
CONTINUOUS
 62
   152
 10
-49.9145750701427
 20
-30.7785690426826
 30
0.0
 11
-128.314575403929
 21
-30.7785690426826
 31
0.0
  0
LINE
  5
   40E
  8
0
  6
CONTINUOUS
 62
   152
 10
-106.194576513841
 20
7.44142658054827
 30
0.0
 11
-128.314575403929
 21
7.44142658054827
 31
0.0
  0
LINE
  5
   40F
  8
0
  6
CONTINUOUS
 62
   152
 10
-106.194576513841
 20
36.8414227002859
 30
0.0
 11
-128.314575403929
 21
36.8414227002859
 31
0.0
  0
LINE
  5
   410
  8
0
  6
CONTINUOUS
 62
   152
 10
-128.314575403929
 20
-30.7785690426826
 30
0.0
 11
-128.314575403929
 21
82.9014314413071
 31
0.0
  0
LINE
  5
   411
  8
0
  6
CONTINUOUS
 62
   152
 10
-49.9145750701427
 20
51.1914283058365
 30
0.0
 11
-49.9145750701427
 21
82.9014314413071
 31
0.0
  0
LINE
  5
   412
  8
0
  6
CONTINUOUS
 62
   152
 10
-49.9145750701427
 20
-30.7785711789131
 30
0.0
 11
-49.9145750701427
 21
-3.68857352998655
 31
0.0
  0
LINE
  5
   413
  8
0
  6
CONTINUOUS
 62
   152
 10
-98.4945752769709
 20
43.351427000463
 30
0.0
 11
-98.4945752769709
 21
58.2614313364029
 31
0.0
  0
LINE
  5
   414
  8
0
  6
CONTINUOUS
 62
   152
 10
-60.1345751136541
 20
58.2614313364029
 30
0.0
 11
-98.4945752769709
 21
58.2614313364029
 31
0.0
  0
LINE
  5
   415
  8
0
  6
CONTINUOUS
 62
     1
 10
-128.314575403929
 20
20.6014375847578
 30
0.0
 11
-128.454583949447
 21
20.6014375847578
 31
0.0
  0
LINE
  5
   416
  8
0
  6
CONTINUOUS
 62
     1
 10
-128.314575403929
 20
14.1614375573397
 30
0.0
 11
-128.454586085677
 21
14.1614375573397
 31
0.0
  0
LINE
  5
   417
  8
0
  6
CONTINUOUS
 62
     1
 10
-128.314575403929
 20
32.6414376360178
 30
0.0
 11
-128.454583949447
 21
32.6414376360178
 31
0.0
  0
LINE
  5
   418
  8
0
  6
CONTINUOUS
 62
     1
 10
-128.454584613068
 20
40.8314370480854
 30
0.0
 11
-128.479161944585
 21
41.0495077322448
 31
0.0
  0
LINE
  5
   419
  8
0
  6
CONTINUOUS
 62
     1
 10
-128.479160488968
 20
41.049504783389
 30
0.0
 11
-128.551640649713
 21
41.2566422338856
 31
0.0
  0
LINE
  5
   41A
  8
0
  6
CONTINUOUS
 62
     1
 10
-128.551642921457
 20
41.2566457670997
 30
0.0
 11
-128.668398599869
 21
41.4424593702212
 31
0.0
  0
LINE
  5
   41B
  8
0
  6
CONTINUOUS
 62
     1
 10
-128.668398716846
 20
41.4424590690338
 30
0.0
 11
-128.823572367822
 21
41.5976348520909
 31
0.0
  0
LINE
  5
   41C
  8
0
  6
CONTINUOUS
 62
     1
 10
-128.82357081923
 20
41.5976330949101
 30
0.0
 11
-129.009384416285
 21
41.7143866391445
 31
0.0
  0
LINE
  5
   41D
  8
0
  6
CONTINUOUS
 62
     1
 10
-129.009382209771
 20
41.7143849624499
 30
0.0
 11
-129.216517529011
 21
41.7868672635301
 31
0.0
  0
LINE
  5
   41E
  8
0
  6
CONTINUOUS
 62
     1
 10
-129.216521521351
 20
41.7868700930223
 30
0.0
 11
-129.434592201742
 21
41.8114367440172
 31
0.0
  0
LINE
  5
   41F
  8
0
  6
CONTINUOUS
 62
     1
 10
-129.434590360903
 20
41.8114355389197
 30
0.0
 11
-131.394583958491
 21
41.8114398113807
 31
0.0
  0
LINE
  5
   420
  8
0
  6
CONTINUOUS
 62
     1
 10
-131.394583961964
 20
41.1114355358482
 30
0.0
 11
-131.394583961964
 21
41.8114398112894
 31
0.0
  0
LINE
  5
   421
  8
0
  6
CONTINUOUS
 62
     1
 10
-131.394583965311
 20
41.111435535938
 30
0.0
 11
-129.434592499765
 21
41.1114398083988
 31
0.0
  0
LINE
  5
   422
  8
0
  6
CONTINUOUS
 62
     1
 10
-129.327440725795
 20
41.0901241051689
 30
0.0
 11
-129.434591909874
 21
41.1114394123891
 31
0.0
  0
LINE
  5
   423
  8
0
  6
CONTINUOUS
 62
     1
 10
-129.236599623102
 20
41.0294273752377
 30
0.0
 11
-129.327438549239
 21
41.0901219572165
 31
0.0
  0
LINE
  5
   424
  8
0
  6
CONTINUOUS
 62
     1
 10
-129.175903694279
 20
40.9385861683585
 30
0.0
 11
-129.236600410412
 21
41.0294272320268
 31
0.0
  0
LINE
  5
   425
  8
0
  6
CONTINUOUS
 62
     1
 10
-129.154591534167
 20
40.831437827107
 30
0.0
 11
-129.175904705503
 21
40.9385868733006
 31
0.0
  0
LINE
  5
   426
  8
0
  6
CONTINUOUS
 62
     1
 10
-129.154592497349
 20
14.1614375573397
 30
0.0
 11
-129.154592497349
 21
40.831439807117
 31
0.0
  0
LINE
  5
   427
  8
0
  6
CONTINUOUS
 62
     1
 10
-128.454590356906
 20
14.161436489237
 30
0.0
 11
-129.154592496906
 21
14.1614375573523
 31
0.0
  0
LINE
  5
   428
  8
0
  6
CONTINUOUS
 62
     1
 10
-128.454590358139
 20
14.1614364892251
 30
0.0
 11
-128.454583949448
 21
40.8314366027719
 31
0.0
  0
LINE
  5
   429
  8
0
  6
CONTINUOUS
 62
     1
 10
-41.3745793062449
 20
38.6614376616478
 30
0.0
 11
-41.654575034976
 21
38.6614376616478
 31
0.0
  0
LINE
  5
   42A
  8
0
  6
CONTINUOUS
 62
   253
 10
-41.3745793062449
 20
47.6214355635643
 30
0.0
 11
-41.654575034976
 21
47.6214355635643
 31
0.0
  0
LINE
  5
   42B
  8
0
  6
CONTINUOUS
 62
   253
 10
-41.654575034976
 20
47.6214355635643
 30
0.0
 11
-42.6345762432356
 21
47.6214355635643
 31
0.0
  0
LINE
  5
   42C
  8
0
  6
CONTINUOUS
 62
     1
 10
-41.654575034976
 20
38.6614376616478
 30
0.0
 11
-42.6345762432356
 21
38.6614376616478
 31
0.0
  0
LINE
  5
   42D
  8
0
  6
CONTINUOUS
 62
   253
 10
-41.3745750337839
 20
7.09142898231744
 30
0.0
 11
-42.6345762432357
 21
7.09142898231744
 31
0.0
  0
LINE
  5
   42E
  8
0
  6
CONTINUOUS
 62
   253
 10
-41.3745750337839
 20
7.09142898231744
 30
0.0
 11
-41.3745750337839
 21
8.4214268517494
 31
0.0
  0
LINE
  5
   42F
  8
0
  6
CONTINUOUS
 62
     1
 10
-41.3745750337839
 20
30.2614312171936
 30
0.0
 11
-41.654575034976
 21
30.2614312171936
 31
0.0
  0
LINE
  5
   430
  8
0
  6
CONTINUOUS
 62
   253
 10
-41.3745750337836
 20
8.42142685174992
 30
0.0
 11
-41.3745793062446
 21
47.6214355635648
 31
0.0
  0
LINE
  5
   431
  8
0
  6
CONTINUOUS
 62
   253
 10
-41.0945750325918
 20
23.2614205062389
 30
0.0
 11
-41.0945750325918
 21
28.8614205300808
 31
0.0
  0
LINE
  5
   432
  8
0
  6
CONTINUOUS
 62
   253
 10
-72.3145714271068
 20
101.661431521177
 30
0.0
 11
-86.3145714867115
 21
101.661431521177
 31
0.0
  0
LINE
  5
   433
  8
0
  6
CONTINUOUS
 62
   253
 10
-86.3145714867115
 20
82.9014314413071
 30
0.0
 11
-86.3145714867115
 21
101.661431521177
 31
0.0
  0
LINE
  5
   434
  8
0
  6
CONTINUOUS
 62
   253
 10
-72.3145714271068
 20
82.9014314413071
 30
0.0
 11
-72.3145714271068
 21
101.661431521177
 31
0.0
  0
LINE
  5
   435
  8
0
  6
CONTINUOUS
 62
   132
 10
-73.4345751702786
 20
30.6052446952199
 30
0.0
 11
-85.1945752203465
 21
30.6052446952199
 31
0.0
  0
LINE
  5
   436
  8
0
  6
CONTINUOUS
 62
   132
 10
-73.4345751702786
 20
30.9109798649786
 30
0.0
 11
-85.1945752203465
 21
30.9109798649786
 31
0.0
  0
LINE
  5
   437
  8
0
  6
CONTINUOUS
 62
   132
 10
-73.4345751702786
 20
9.59186753056065
 30
0.0
 11
-85.1945752203465
 21
9.59186753056065
 31
0.0
  0
LINE
  5
   438
  8
0
  6
CONTINUOUS
 62
   132
 10
-73.4345751702786
 20
9.89760216626172
 30
0.0
 11
-85.1945752203465
 21
9.89760216626172
 31
0.0
  0
LINE
  5
   439
  8
0
  6
CONTINUOUS
 62
     1
 10
-128.454583342614
 20
36.4122764398796
 30
0.0
 11
-128.314576936739
 21
36.6812235848279
 31
0.0
  0
LINE
  5
   43A
  8
0
  6
CONTINUOUS
 62
     1
 10
-128.314578902191
 20
40.0816581741367
 30
0.0
 11
-128.454585308067
 21
40.350605319085
 31
0.0
  0
LINE
  5
   43B
  8
0
  6
CONTINUOUS
 62
   253
 10
-41.0945750325918
 20
28.8614205300808
 30
0.0
 11
-41.3745750337839
 21
28.8614205300808
 31
0.0
  0
LINE
  5
   43C
  8
0
  6
CONTINUOUS
 62
   253
 10
-41.0945750325918
 20
23.2614205062389
 30
0.0
 11
-41.3745750337839
 21
23.2614205062389
 31
0.0
  0
INSERT
  5
   43D
  8
255
  6
CONTINUOUS
 62
     1
  2
FIANCATA
 10
-128.314575403929
 20
47.6214355635643
 30
0.0
 41
0.280000001192093
 42
0.280000001192093
 50
359.999999792138
 43
0.280000001192093
  0
LINE
  5
   43E
  8
0
  6
CONTINUOUS
 62
     1
 10
-133.494575425982
 20
23.2613777816293
 30
0.0
 11
-133.494575425982
 21
28.8613778054712
 31
0.0
  0
CIRCLE
  5
   43F
  8
0
  6
CONTINUOUS
 62
   253
 10
-82.3945752084255
 20
97.741431504488
 30
0.0
 40
1.54000000655651
  0
CIRCLE
  5
   440
  8
0
  6
CONTINUOUS
 62
   253
 10
-76.2345751821995
 20
91.5814314782619
 30
0.0
 40
1.54000000655651
  0
LINE
  5
   441
  8
0
  6
DASHDOT
 62
     7
 10
-82.3945752084255
 20
95.9214314967394
 30
0.0
 11
-82.3945752084255
 21
99.5614315122366
 31
0.0
  0
LINE
  5
   442
  8
0
  6
DASHDOT
 62
     7
 10
-80.5745752006769
 20
97.741431504488
 30
0.0
 11
-84.2145752161741
 21
97.741431504488
 31
0.0
  0
LINE
  5
   443
  8
0
  6
DASHDOT
 62
     7
 10
-76.2345751821995
 20
89.7614314705134
 30
0.0
 11
-76.2345751821995
 21
93.4014314860106
 31
0.0
  0
LINE
  5
   444
  8
0
  6
DASHDOT
 62
     7
 10
-74.4145751744509
 20
91.5814314782619
 30
0.0
 11
-78.0545751899481
 21
91.5814314782619
 31
0.0
  0
LINE
  5
   445
  8
0
  6
CONTINUOUS
 62
   253
 10
-111.514571594
 20
101.661431521177
 30
0.0
 11
-125.514571653605
 21
101.661431521177
 31
0.0
  0
LINE
  5
   446
  8
0
  6
CONTINUOUS
 62
   253
 10
-125.514571653605
 20
82.9014314413071
 30
0.0
 11
-125.514571653605
 21
101.661431521177
 31
0.0
  0
LINE
  5
   447
  8
0
  6
CONTINUOUS
 62
   253
 10
-111.514571594
 20
82.9014314413071
 30
0.0
 11
-111.514571594
 21
101.661431521177
 31
0.0
  0
CIRCLE
  5
   448
  8
0
  6
CONTINUOUS
 62
   253
 10
-121.594575375319
 20
97.741431504488
 30
0.0
 40
1.54000000655651
  0
CIRCLE
  5
   449
  8
0
  6
CONTINUOUS
 62
   253
 10
-115.434575349092
 20
91.5814314782619
 30
0.0
 40
1.54000000655651
  0
LINE
  5
   44A
  8
0
  6
CONTINUOUS
 62
   253
 10
-66.7145788800717
 20
82.9014314413071
 30
0.0
 11
-66.7145788800717
 21
101.661431521177
 31
0.0
  0
CIRCLE
  5
   44B
  8
0
  6
CONTINUOUS
 62
   253
 10
-62.794575124979
 20
91.5814314782619
 30
0.0
 40
1.54000000655651
  0
CIRCLE
  5
   44C
  8
0
  6
CONTINUOUS
 62
   253
 10
-56.634575098753
 20
97.741431504488
 30
0.0
 40
1.54000000655651
  0
LINE
  5
   44D
  8
0
  6
CONTINUOUS
 62
   253
 10
-52.714578820467
 20
101.661431521177
 30
0.0
 11
-66.7145788800717
 21
101.661431521177
 31
0.0
  0
LINE
  5
   44E
  8
0
  6
CONTINUOUS
 62
   253
 10
-52.714578820467
 20
82.9014314413071
 30
0.0
 11
-52.714578820467
 21
101.661431521177
 31
0.0
  0
LINE
  5
   44F
  8
0
  6
DASHDOT
 62
     7
 10
-121.594575375319
 20
95.9214314967394
 30
0.0
 11
-121.594575375319
 21
99.5614315122366
 31
0.0
  0
LINE
  5
   450
  8
0
  6
DASHDOT
 62
     7
 10
-119.77457536757
 20
97.741431504488
 30
0.0
 11
-123.414575383067
 21
97.741431504488
 31
0.0
  0
LINE
  5
   451
  8
0
  6
DASHDOT
 62
     7
 10
-115.434575349092
 20
89.7614314705134
 30
0.0
 11
-115.434575349092
 21
93.4014314860106
 31
0.0
  0
LINE
  5
   452
  8
0
  6
DASHDOT
 62
     7
 10
-113.614575341344
 20
91.5814314782619
 30
0.0
 11
-117.254575356841
 21
91.5814314782619
 31
0.0
  0
LINE
  5
   453
  8
0
  6
DASHDOT
 62
     7
 10
-62.794575124979
 20
89.7614314705134
 30
0.0
 11
-62.794575124979
 21
93.4014314860106
 31
0.0
  0
LINE
  5
   454
  8
0
  6
DASHDOT
 62
     7
 10
-60.9745751172304
 20
91.5814314782619
 30
0.0
 11
-64.6145751327276
 21
91.5814314782619
 31
0.0
  0
LINE
  5
   455
  8
0
  6
DASHDOT
 62
     7
 10
-56.634575098753
 20
95.9214314967394
 30
0.0
 11
-56.634575098753
 21
99.5614315122366
 31
0.0
  0
LINE
  5
   456
  8
0
  6
DASHDOT
 62
     7
 10
-54.8145750910044
 20
97.741431504488
 30
0.0
 11
-58.4545751065016
 21
97.741431504488
 31
0.0
  0
LINE
  5
   457
  8
0
  6
CONTINUOUS
 62
   253
 10
-52.714578820467
 20
-49.5385691225528
 30
0.0
 11
-52.714578820467
 21
-30.7785690426826
 31
0.0
  0
LINE
  5
   458
  8
0
  6
CONTINUOUS
 62
   253
 10
-52.714578820467
 20
-49.5385691225528
 30
0.0
 11
-66.7145788800717
 21
-49.5385691225528
 31
0.0
  0
LINE
  5
   459
  8
0
  6
CONTINUOUS
 62
   253
 10
-66.7145788800717
 20
-49.5385691225528
 30
0.0
 11
-66.7145788800717
 21
-30.7785690426826
 31
0.0
  0
LINE
  5
   45A
  8
0
  6
CONTINUOUS
 62
   253
 10
-72.3145714271068
 20
-49.5385691225528
 30
0.0
 11
-72.3145714271068
 21
-30.7785690426826
 31
0.0
  0
LINE
  5
   45B
  8
0
  6
CONTINUOUS
 62
   253
 10
-72.3145714271068
 20
-49.5385691225528
 30
0.0
 11
-86.3145714867115
 21
-49.5385691225528
 31
0.0
  0
LINE
  5
   45C
  8
0
  6
CONTINUOUS
 62
   253
 10
-86.3145714867115
 20
-49.5385691225528
 30
0.0
 11
-86.3145714867115
 21
-30.7785690426826
 31
0.0
  0
LINE
  5
   45D
  8
0
  6
CONTINUOUS
 62
   253
 10
-111.514571594
 20
-49.5385691225528
 30
0.0
 11
-111.514571594
 21
-30.7785690426826
 31
0.0
  0
LINE
  5
   45E
  8
0
  6
CONTINUOUS
 62
   253
 10
-111.514571594
 20
-49.5385691225528
 30
0.0
 11
-125.514571653605
 21
-49.5385691225528
 31
0.0
  0
LINE
  5
   45F
  8
0
  6
CONTINUOUS
 62
   253
 10
-125.514571653605
 20
-49.5385691225528
 30
0.0
 11
-125.514571653605
 21
-30.7785690426826
 31
0.0
  0
CIRCLE
  5
   460
  8
0
  6
CONTINUOUS
 62
   253
 10
-121.594575375319
 20
-45.6185691058635
 30
0.0
 40
1.54000000655651
  0
CIRCLE
  5
   461
  8
0
  6
CONTINUOUS
 62
   253
 10
-115.434575349092
 20
-39.4585690796375
 30
0.0
 40
1.54000000655651
  0
CIRCLE
  5
   462
  8
0
  6
CONTINUOUS
 62
   253
 10
-82.3945752084255
 20
-45.6185691058635
 30
0.0
 40
1.54000000655651
  0
CIRCLE
  5
   463
  8
0
  6
CONTINUOUS
 62
   253
 10
-76.2345751821995
 20
-39.4585690796375
 30
0.0
 40
1.54000000655651
  0
CIRCLE
  5
   464
  8
0
  6
CONTINUOUS
 62
   253
 10
-62.794575124979
 20
-39.4585690796375
 30
0.0
 40
1.54000000655651
  0
CIRCLE
  5
   465
  8
0
  6
CONTINUOUS
 62
   253
 10
-56.634575098753
 20
-45.6185691058635
 30
0.0
 40
1.54000000655651
  0
LINE
  5
   466
  8
0
  6
DASHDOT
 62
     7
 10
-115.434575349092
 20
-41.2785690873861
 30
0.0
 11
-115.434575349092
 21
-37.6385690718889
 31
0.0
  0
LINE
  5
   467
  8
0
  6
DASHDOT
 62
     7
 10
-113.614575341344
 20
-39.4585690796375
 30
0.0
 11
-117.254575356841
 21
-39.4585690796375
 31
0.0
  0
LINE
  5
   468
  8
0
  6
DASHDOT
 62
     7
 10
-121.594575375319
 20
-47.4385691136121
 30
0.0
 11
-121.594575375319
 21
-43.7985690981149
 31
0.0
  0
LINE
  5
   469
  8
0
  6
DASHDOT
 62
     7
 10
-119.77457536757
 20
-45.6185691058635
 30
0.0
 11
-123.414575383067
 21
-45.6185691058635
 31
0.0
  0
LINE
  5
   46A
  8
0
  6
DASHDOT
 62
     7
 10
-82.3945752084255
 20
-47.4385691136121
 30
0.0
 11
-82.3945752084255
 21
-43.7985690981149
 31
0.0
  0
LINE
  5
   46B
  8
0
  6
DASHDOT
 62
     7
 10
-80.5745752006769
 20
-45.6185691058635
 30
0.0
 11
-84.2145752161741
 21
-45.6185691058635
 31
0.0
  0
LINE
  5
   46C
  8
0
  6
DASHDOT
 62
     7
 10
-76.2345751821995
 20
-41.2785690873861
 30
0.0
 11
-76.2345751821995
 21
-37.6385690718889
 31
0.0
  0
LINE
  5
   46D
  8
0
  6
DASHDOT
 62
     7
 10
-74.4145751744509
 20
-39.4585690796375
 30
0.0
 11
-78.0545751899481
 21
-39.4585690796375
 31
0.0
  0
LINE
  5
   46E
  8
0
  6
DASHDOT
 62
     7
 10
-62.794575124979
 20
-41.2785690873861
 30
0.0
 11
-62.794575124979
 21
-37.6385690718889
 31
0.0
  0
LINE
  5
   46F
  8
0
  6
DASHDOT
 62
     7
 10
-60.9745751172304
 20
-39.4585690796375
 30
0.0
 11
-64.6145751327276
 21
-39.4585690796375
 31
0.0
  0
LINE
  5
   470
  8
0
  6
DASHDOT
 62
     7
 10
-56.634575098753
 20
-47.4385691136121
 30
0.0
 11
-56.634575098753
 21
-43.7985690981149
 31
0.0
  0
LINE
  5
   471
  8
0
  6
DASHDOT
 62
     7
 10
-54.8145750910044
 20
-45.6185691058635
 30
0.0
 11
-58.4545751065016
 21
-45.6185691058635
 31
0.0
  0
LINE
  5
   472
  8
0
  6
DASHDOT
 62
     7
 10
-38.4972419214337
 20
23.7514269170165
 30
0.0
 11
-141.019523601896
 21
23.7514269170165
 31
0.0
  0
LINE
  5
   473
  8
0
  6
CONTINUOUS
 62
     1
 10
-127.437709228361
 20
0.651683693978586
 30
0.0
 11
-127.964554933397
 21
0.651685563180067
 31
0.0
  0
LINE
  5
   474
  8
0
  6
CONTINUOUS
 62
     1
 10
-49.9145750701427
 20
59.5916834172618
 30
0.0
 11
-128.314574773887
 21
59.5916834172618
 31
0.0
  0
LINE
  5
   475
  8
0
  6
CONTINUOUS
 62
     1
 10
-106.194576513841
 20
0.651683433355055
 30
0.0
 11
-127.437704062305
 21
0.651683433355055
 31
0.0
  0
LINE
  5
   476
  8
0
  6
CONTINUOUS
 62
     1
 10
-106.194576513841
 20
0.931683434547148
 30
0.0
 11
-128.244566858709
 21
0.931683434547148
 31
0.0
  0
LINE
  5
   477
  8
0
  6
CONTINUOUS
 62
     1
 10
-127.712568565428
 20
36.7716662302624
 30
0.0
 11
-127.712568565428
 21
59.5916791448008
 31
0.0
  0
LINE
  5
   478
  8
0
  6
CONTINUOUS
 62
     1
 10
-126.70455830723
 20
36.7716662302624
 30
0.0
 11
-126.70455830723
 21
59.5916791448008
 31
0.0
  0
LINE
  5
   479
  8
0
  6
CONTINUOUS
 62
     1
 10
-125.696565138876
 20
36.7716662302624
 30
0.0
 11
-125.696565138876
 21
59.5916791448008
 31
0.0
  0
LINE
  5
   47A
  8
0
  6
CONTINUOUS
 62
     1
 10
-124.688571970522
 20
36.7716662302624
 30
0.0
 11
-124.688571970522
 21
59.5916791448008
 31
0.0
  0
LINE
  5
   47B
  8
0
  6
CONTINUOUS
 62
     1
 10
-123.680561712325
 20
36.7716662302624
 30
0.0
 11
-123.680561712325
 21
59.5916791448008
 31
0.0
  0
LINE
  5
   47C
  8
0
  6
CONTINUOUS
 62
     1
 10
-122.672568543971
 20
36.7716662302624
 30
0.0
 11
-122.672568543971
 21
59.5916791448008
 31
0.0
  0
LINE
  5
   47D
  8
0
  6
CONTINUOUS
 62
     1
 10
-121.664558285773
 20
36.7716662302624
 30
0.0
 11
-121.664558285773
 21
59.5916791448008
 31
0.0
  0
LINE
  5
   47E
  8
0
  6
CONTINUOUS
 62
     1
 10
-120.656565117419
 20
36.7716662302624
 30
0.0
 11
-120.656565117419
 21
59.5916791448008
 31
0.0
  0
LINE
  5
   47F
  8
0
  6
CONTINUOUS
 62
     1
 10
-119.648571949065
 20
36.7716662302624
 30
0.0
 11
-119.648571949065
 21
59.5916791448008
 31
0.0
  0
LINE
  5
   480
  8
0
  6
CONTINUOUS
 62
     1
 10
-127.712568565428
 20
7.37168746739743
 30
0.0
 11
-127.712568565428
 21
36.7716662302624
 31
0.0
  0
LINE
  5
   481
  8
0
  6
CONTINUOUS
 62
     1
 10
-126.70455830723
 20
7.37168746739743
 30
0.0
 11
-126.70455830723
 21
36.7716662302624
 31
0.0
  0
LINE
  5
   482
  8
0
  6
CONTINUOUS
 62
     1
 10
-125.696565138876
 20
7.37168746739743
 30
0.0
 11
-125.696565138876
 21
36.7716662302624
 31
0.0
  0
LINE
  5
   483
  8
0
  6
CONTINUOUS
 62
     1
 10
-124.688571970522
 20
7.37168746739743
 30
0.0
 11
-124.688571970522
 21
36.7716662302624
 31
0.0
  0
LINE
  5
   484
  8
0
  6
CONTINUOUS
 62
     1
 10
-123.680561712325
 20
7.37168746739743
 30
0.0
 11
-123.680561712325
 21
36.7716662302624
 31
0.0
  0
LINE
  5
   485
  8
0
  6
CONTINUOUS
 62
     1
 10
-122.672568543971
 20
7.37168746739743
 30
0.0
 11
-122.672568543971
 21
36.7716662302624
 31
0.0
  0
LINE
  5
   486
  8
0
  6
CONTINUOUS
 62
     1
 10
-121.664558285773
 20
7.37168746739743
 30
0.0
 11
-121.664558285773
 21
36.7716662302624
 31
0.0
  0
LINE
  5
   487
  8
0
  6
CONTINUOUS
 62
     1
 10
-120.656565117419
 20
7.37168746739743
 30
0.0
 11
-120.656565117419
 21
36.7716662302624
 31
0.0
  0
LINE
  5
   488
  8
0
  6
CONTINUOUS
 62
     1
 10
-119.648571949065
 20
7.37168746739743
 30
0.0
 11
-119.648571949065
 21
36.7716662302624
 31
0.0
  0
LINE
  5
   489
  8
0
  6
CONTINUOUS
 62
     2
 10
-127.712568565428
 20
-30.8483131116015
 30
0.0
 11
-127.712568565428
 21
-10.8283130263669
 31
0.0
  0
LINE
  5
   48A
  8
0
  6
CONTINUOUS
 62
     2
 10
-126.70455830723
 20
-30.8483131116015
 30
0.0
 11
-126.70455830723
 21
-10.8283130263669
 31
0.0
  0
LINE
  5
   48B
  8
0
  6
CONTINUOUS
 62
     2
 10
-125.696565138876
 20
-30.8483131116015
 30
0.0
 11
-125.696565138876
 21
-10.8283130263669
 31
0.0
  0
LINE
  5
   48C
  8
0
  6
CONTINUOUS
 62
     2
 10
-124.688571970522
 20
-30.8483131116015
 30
0.0
 11
-124.688571970522
 21
-10.8283130263669
 31
0.0
  0
LINE
  5
   48D
  8
0
  6
CONTINUOUS
 62
     2
 10
-123.680561712325
 20
-30.8483131116015
 30
0.0
 11
-123.680561712325
 21
-10.8283130263669
 31
0.0
  0
LINE
  5
   48E
  8
0
  6
CONTINUOUS
 62
     2
 10
-122.672568543971
 20
-30.8483131116015
 30
0.0
 11
-122.672568543971
 21
-10.8283130263669
 31
0.0
  0
LINE
  5
   48F
  8
0
  6
CONTINUOUS
 62
     2
 10
-121.664558285773
 20
-30.8483131116015
 30
0.0
 11
-121.664558285773
 21
-10.8283130263669
 31
0.0
  0
LINE
  5
   490
  8
0
  6
CONTINUOUS
 62
     2
 10
-120.656565117419
 20
-30.8483131116015
 30
0.0
 11
-120.656565117419
 21
-10.8283130263669
 31
0.0
  0
LINE
  5
   491
  8
0
  6
CONTINUOUS
 62
     2
 10
-119.648571949065
 20
-30.8483131116015
 30
0.0
 11
-119.648571949065
 21
-10.8283130263669
 31
0.0
  0
LINE
  5
   492
  8
0
  6
CONTINUOUS
 62
     2
 10
-99.0405616074204
 20
-10.4083147445309
 30
0.0
 11
-99.0405616074204
 21
-3.68857352998655
 31
0.0
  0
LINE
  5
   493
  8
0
  6
CONTINUOUS
 62
     1
 10
-50.5165819086433
 20
51.1914283058365
 30
0.0
 11
-50.5165819086433
 21
59.5916791448008
 31
0.0
  0
LINE
  5
   494
  8
0
  6
CONTINUOUS
 62
     1
 10
-51.5245921668411
 20
51.1914283058365
 30
0.0
 11
-51.5245921668411
 21
59.5916791448008
 31
0.0
  0
LINE
  5
   495
  8
0
  6
CONTINUOUS
 62
     1
 10
-52.5325853351951
 20
51.1914283058365
 30
0.0
 11
-52.5325853351951
 21
59.5916791448008
 31
0.0
  0
LINE
  5
   496
  8
0
  6
CONTINUOUS
 62
     1
 10
-53.5405785035491
 20
51.1914283058365
 30
0.0
 11
-53.5405785035491
 21
59.5916791448008
 31
0.0
  0
LINE
  5
   497
  8
0
  6
CONTINUOUS
 62
     1
 10
-54.5485887617469
 20
51.1914283058365
 30
0.0
 11
-54.5485887617469
 21
59.5916791448008
 31
0.0
  0
LINE
  5
   498
  8
0
  6
CONTINUOUS
 62
     1
 10
-55.556581930101
 20
51.1914283058365
 30
0.0
 11
-55.556581930101
 21
59.5916791448008
 31
0.0
  0
LINE
  5
   499
  8
0
  6
CONTINUOUS
 62
     1
 10
-56.5645921882988
 20
51.1914283058365
 30
0.0
 11
-56.5645921882988
 21
59.5916791448008
 31
0.0
  0
LINE
  5
   49A
  8
0
  6
CONTINUOUS
 62
     1
 10
-57.5725853566528
 20
51.1914283058365
 30
0.0
 11
-57.5725853566528
 21
59.5916791448008
 31
0.0
  0
LINE
  5
   49B
  8
0
  6
CONTINUOUS
 62
     1
 10
-58.5805785250068
 20
51.1914283058365
 30
0.0
 11
-58.5805785250068
 21
59.5916791448008
 31
0.0
  0
LINE
  5
   49C
  8
0
  6
CONTINUOUS
 62
     1
 10
-59.5885887832046
 20
51.1914283058365
 30
0.0
 11
-59.5885887832046
 21
59.5916791448008
 31
0.0
  0
LINE
  5
   49D
  8
0
  6
CONTINUOUS
 62
     1
 10
-60.1345622962728
 20
51.1914283058365
 30
0.0
 11
-60.1345622962728
 21
58.1916825177161
 31
0.0
  0
LINE
  5
   49E
  8
0
  6
CONTINUOUS
 62
     1
 10
-98.4945496422036
 20
51.1914283058365
 30
0.0
 11
-98.4945496422036
 21
58.1916800324409
 31
0.0
  0
LINE
  5
   49F
  8
0
  6
CONTINUOUS
 62
     1
 10
-60.1345836585761
 20
58.1916834113013
 30
0.0
 11
-98.4945710045099
 21
58.1916834113013
 31
0.0
  0
LINE
  5
   4A0
  8
0
  6
CONTINUOUS
 62
     1
 10
-127.964558312595
 20
0.651685302556725
 30
0.0
 11
-127.964558312595
 21
0.93168343454715
 31
0.0
  0
LINE
  5
   4A1
  8
0
  6
CONTINUOUS
 62
     1
 10
-78.8805174618362
 20
-30.8483131116015
 30
0.0
 11
-78.8805174618362
 21
-10.8283130263669
 31
0.0
  0
LINE
  5
   4A2
  8
0
  6
CONTINUOUS
 62
     1
 10
-77.8725184188485
 20
-30.8483131116015
 30
0.0
 11
-77.8725184188485
 21
-10.8283130263669
 31
0.0
  0
LINE
  5
   4A3
  8
0
  6
CONTINUOUS
 62
     1
 10
-76.7245175060632
 20
-30.8483131116015
 30
0.0
 11
-76.7245175060632
 21
-10.8283130263669
 31
0.0
  0
LINE
  5
   4A4
  8
0
  6
CONTINUOUS
 62
     1
 10
-75.7165176619892
 20
-30.8483131116015
 30
0.0
 11
-75.7165176619892
 21
-10.8283130263669
 31
0.0
  0
LINE
  5
   4A5
  8
0
  6
CONTINUOUS
 62
     1
 10
-74.708529033125
 20
-30.8483131116015
 30
0.0
 11
-74.708529033125
 21
-10.8283130263669
 31
0.0
  0
LINE
  5
   4A6
  8
0
  6
CONTINUOUS
 62
     1
 10
-73.7005273198492
 20
-30.8483131116015
 30
0.0
 11
-73.7005273198492
 21
-10.8283130263669
 31
0.0
  0
LINE
  5
   4A7
  8
0
  6
CONTINUOUS
 62
     1
 10
-72.6925170616524
 20
-30.8483131116015
 30
0.0
 11
-72.6925170616524
 21
-10.8283130263669
 31
0.0
  0
LINE
  5
   4A8
  8
0
  6
CONTINUOUS
 62
     1
 10
-71.6845281657587
 20
-30.8483131116015
 30
0.0
 11
-71.6845281657587
 21
-10.8283130263669
 31
0.0
  0
LINE
  5
   4A9
  8
0
  6
CONTINUOUS
 62
     1
 10
-70.6765563597082
 20
-30.8483131116015
 30
0.0
 11
-70.6765563597082
 21
-18.7371609423722
 31
0.0
  0
LINE
  5
   4AA
  8
0
  6
CONTINUOUS
 62
     1
 10
-69.6685631913542
 20
-30.8483131116015
 30
0.0
 11
-69.6685631913542
 21
-19.4995985901764
 31
0.0
  0
LINE
  5
   4AB
  8
0
  6
CONTINUOUS
 62
     1
 10
-68.6605614780783
 20
-30.8483131116015
 30
0.0
 11
-68.6605614780783
 21
-19.1758121686658
 31
0.0
  0
LINE
  5
   4AC
  8
0
  6
CONTINUOUS
 62
     1
 10
-67.6525213126571
 20
-30.8483131116015
 30
0.0
 11
-67.6525213126571
 21
-10.8283130263669
 31
0.0
  0
LINE
  5
   4AD
  8
0
  6
CONTINUOUS
 62
     1
 10
-66.6445195993815
 20
-30.8483131116015
 30
0.0
 11
-66.6445195993815
 21
-10.8283130263669
 31
0.0
  0
LINE
  5
   4AE
  8
0
  6
CONTINUOUS
 62
     1
 10
-65.6365178861058
 20
-30.8483131116015
 30
0.0
 11
-65.6365178861058
 21
-10.8283130263669
 31
0.0
  0
LINE
  5
   4AF
  8
0
  6
CONTINUOUS
 62
     1
 10
-64.6285460800538
 20
-30.8483131116015
 30
0.0
 11
-64.6285460800538
 21
-10.8283130263669
 31
0.0
  0
LINE
  5
   4B0
  8
0
  6
CONTINUOUS
 62
     1
 10
-63.6205230044765
 20
-30.8483131116015
 30
0.0
 11
-63.6205230044765
 21
-10.8283130263669
 31
0.0
  0
LINE
  5
   4B1
  8
0
  6
CONTINUOUS
 62
     1
 10
-62.6125212912008
 20
-30.8483131116015
 30
0.0
 11
-62.6125212912008
 21
-10.8283130263669
 31
0.0
  0
LINE
  5
   4B2
  8
0
  6
CONTINUOUS
 62
     1
 10
-61.6045195779252
 20
-30.8483131116015
 30
0.0
 11
-61.6045195779252
 21
-10.8283130263669
 31
0.0
  0
LINE
  5
   4B3
  8
0
  6
CONTINUOUS
 62
     1
 10
-60.5965264095715
 20
-30.8483131116015
 30
0.0
 11
-60.5965264095715
 21
-10.8283130263669
 31
0.0
  0
LINE
  5
   4B4
  8
0
  6
CONTINUOUS
 62
     1
 10
-49.9145756411187
 20
60.011679146589
 30
0.0
 11
-128.314574832956
 21
60.011679146589
 31
0.0
  0
LINE
  5
   4B5
  8
0
  6
CONTINUOUS
 62
     1
 10
-79.8886361337306
 20
-30.8483131116015
 30
0.0
 11
-79.8886361337306
 21
-10.8283130263669
 31
0.0
  0
LINE
  5
   4B6
  8
0
  6
CONTINUOUS
 62
     1
 10
-80.8966389151215
 20
-30.8483131116015
 30
0.0
 11
-80.8966389151215
 21
-10.8283130263669
 31
0.0
  0
LINE
  5
   4B7
  8
0
  6
CONTINUOUS
 62
     1
 10
-81.9046371570227
 20
-30.8483131116015
 30
0.0
 11
-81.9046371570227
 21
-10.8283130263669
 31
0.0
  0
LINE
  5
   4B8
  8
0
  6
CONTINUOUS
 62
     1
 10
-82.9126370010968
 20
-30.8483131116015
 30
0.0
 11
-82.9126370010968
 21
-10.8283130263669
 31
0.0
  0
LINE
  5
   4B9
  8
0
  6
CONTINUOUS
 62
     1
 10
-83.920625629961
 20
-30.8483131116015
 30
0.0
 11
-83.920625629961
 21
-10.8283130263669
 31
0.0
  0
LINE
  5
   4BA
  8
0
  6
CONTINUOUS
 62
     1
 10
-84.9286273432367
 20
-30.8483131116015
 30
0.0
 11
-84.9286273432367
 21
-10.8283130263669
 31
0.0
  0
LINE
  5
   4BB
  8
0
  6
CONTINUOUS
 62
     1
 10
-85.9366376014336
 20
-30.8483131116015
 30
0.0
 11
-85.9366376014336
 21
-10.8283130263669
 31
0.0
  0
LINE
  5
   4BC
  8
0
  6
CONTINUOUS
 62
     1
 10
-86.9446264973273
 20
-30.8483131116015
 30
0.0
 11
-86.9446264973273
 21
-10.8283130263669
 31
0.0
  0
LINE
  5
   4BD
  8
0
  6
CONTINUOUS
 62
     1
 10
-87.9525983033777
 20
-30.8483131116015
 30
0.0
 11
-87.9525983033777
 21
-18.7371905513287
 31
0.0
  0
LINE
  5
   4BE
  8
0
  6
CONTINUOUS
 62
     1
 10
-87.9525967416216
 20
70.6935871934353
 30
0.0
 11
-87.9525795284879
 21
82.8315467973226
 31
0.0
  0
LINE
  5
   4BF
  8
0
  6
CONTINUOUS
 62
     1
 10
-88.8205952291419
 20
71.4456877185471
 30
0.0
 11
-88.8205780078886
 21
82.8315468018658
 31
0.0
  0
LINE
  5
   4C0
  8
0
  6
CONTINUOUS
 62
     1
 10
-88.9605871992708
 20
-30.8483131116015
 30
0.0
 11
-88.9605871992708
 21
-19.4995646227316
 31
0.0
  0
LINE
  5
   4C1
  8
0
  6
CONTINUOUS
 62
     1
 10
-89.8285860138572
 20
71.2652116957725
 30
0.0
 11
-89.8285687946645
 21
82.8315468000268
 31
0.0
  0
LINE
  5
   4C2
  8
0
  6
CONTINUOUS
 62
     1
 10
-89.9685889125467
 20
-30.8483131116015
 30
0.0
 11
-89.9685889125467
 21
-19.1756003460159
 31
0.0
  0
LINE
  5
   4C3
  8
0
  6
CONTINUOUS
 62
     1
 10
-90.9766290779679
 20
-30.8483131116015
 30
0.0
 11
-90.9766290779679
 21
-10.8283130263669
 31
0.0
  0
LINE
  5
   4C4
  8
0
  6
CONTINUOUS
 62
     1
 10
-91.9846307912436
 20
-30.8483131116015
 30
0.0
 11
-91.9846307912436
 21
-10.8283130263669
 31
0.0
  0
LINE
  5
   4C5
  8
0
  6
CONTINUOUS
 62
     1
 10
-92.9926325045192
 20
-30.8483131116015
 30
0.0
 11
-92.9926325045192
 21
-10.8283130263669
 31
0.0
  0
LINE
  5
   4C6
  8
0
  6
CONTINUOUS
 62
     1
 10
-94.0006342177948
 20
-30.8483131116015
 30
0.0
 11
-94.0006342177948
 21
-10.8283130263669
 31
0.0
  0
LINE
  5
   4C7
  8
0
  6
CONTINUOUS
 62
     1
 10
-95.0086273861485
 20
-30.8483131116015
 30
0.0
 11
-95.0086273861485
 21
-10.8283130263669
 31
0.0
  0
LINE
  5
   4C8
  8
0
  6
CONTINUOUS
 62
     1
 10
-96.0166290994242
 20
-30.8483131116015
 30
0.0
 11
-96.0166290994242
 21
-10.8283130263669
 31
0.0
  0
LINE
  5
   4C9
  8
0
  6
CONTINUOUS
 62
     1
 10
-97.0246308126998
 20
-30.8483131116015
 30
0.0
 11
-97.0246308126998
 21
-10.8283130263669
 31
0.0
  0
LINE
  5
   4CA
  8
0
  6
CONTINUOUS
 62
     1
 10
-98.0326325259754
 20
-30.8483131116015
 30
0.0
 11
-98.0326325259754
 21
-10.8283130263669
 31
0.0
  0
LINE
  5
   4CB
  8
0
  6
CONTINUOUS
 62
     1
 10
-99.0405872421861
 20
60.0116962364328
 30
0.0
 11
-99.0405872421861
 21
82.8315467974549
 31
0.0
  0
LINE
  5
   4CC
  8
0
  6
CONTINUOUS
 62
     1
 10
-119.648606128751
 20
60.0116356706147
 30
0.0
 11
-119.648606128751
 21
82.8315467974549
 31
0.0
  0
LINE
  5
   4CD
  8
0
  6
CONTINUOUS
 62
     1
 10
-120.656629204327
 20
60.011644221968
 30
0.0
 11
-120.656629204327
 21
82.8315467974549
 31
0.0
  0
LINE
  5
   4CE
  8
0
  6
CONTINUOUS
 62
     1
 10
-121.664583920538
 20
60.0116962364328
 30
0.0
 11
-121.664583920538
 21
82.8315467974549
 31
0.0
  0
LINE
  5
   4CF
  8
0
  6
CONTINUOUS
 62
     1
 10
-122.672602723657
 20
60.0116368072817
 30
0.0
 11
-122.672602723657
 21
82.8315467974549
 31
0.0
  0
LINE
  5
   4D0
  8
0
  6
CONTINUOUS
 62
     1
 10
-123.68058734709
 20
60.0116962364328
 30
0.0
 11
-123.68058734709
 21
82.8315467974549
 31
0.0
  0
LINE
  5
   4D1
  8
0
  6
CONTINUOUS
 62
     1
 10
-124.688606150208
 20
60.0116375650619
 30
0.0
 11
-124.688606150208
 21
82.8316075946313
 31
0.0
  0
LINE
  5
   4D2
  8
0
  6
CONTINUOUS
 62
     1
 10
-125.696599318562
 20
60.0116379439488
 30
0.0
 11
-125.696599318562
 21
82.8316151568302
 31
0.0
  0
LINE
  5
   4D3
  8
0
  6
CONTINUOUS
 62
     1
 10
-126.704583941996
 20
60.0116962364328
 30
0.0
 11
-126.704583941996
 21
82.8315974016132
 31
0.0
  0
LINE
  5
   4D4
  8
0
  6
CONTINUOUS
 62
     1
 10
-127.712602745114
 20
60.0116472466542
 30
0.0
 11
-127.712602745114
 21
82.8315546034011
 31
0.0
  0
CIRCLE
  5
   4D5
  8
0
  6
CONTINUOUS
 62
     1
 10
-89.1145482684402
 20
70.2316777061795
 30
0.0
 40
1.26055429216631
  0
LINE
  5
   4D6
  8
0
  6
DASHDOT
 62
     7
 10
-89.1145482684402
 20
66.1711234020922
 30
0.0
 11
-89.1145482684402
 21
82.8315467974549
 31
0.0
  0
LINE
  5
   4D7
  8
0
  6
DASHDOT
 62
     7
 10
-85.053993964353
 20
70.2316777061795
 30
0.0
 11
-93.1751025725275
 21
70.2316777061795
 31
0.0
  0
LINE
  5
   4D8
  8
0
  6
CONTINUOUS
 62
     1
 10
-49.9145750701427
 20
-10.8283130263669
 30
0.0
 11
-128.314564870443
 21
-10.8283130263669
 31
0.0
  0
LINE
  5
   4D9
  8
0
  6
CONTINUOUS
 62
     1
 10
-49.9145750701427
 20
-10.5483130251748
 30
0.0
 11
-128.034564908629
 21
-10.5483130251748
 31
0.0
  0
LINE
  5
   4DA
  8
0
  6
CONTINUOUS
 62
     1
 10
-49.9145750701427
 20
-10.4083147445309
 30
0.0
 11
-128.314564929509
 21
-10.4083147445309
 31
0.0
  0
LINE
  5
   4DB
  8
0
  6
CONTINUOUS
 62
     1
 10
-106.194576513841
 20
0.511685301960676
 30
0.0
 11
-128.314566465232
 21
0.511685301960676
 31
0.0
  0
LINE
  5
   4DC
  8
0
  6
CONTINUOUS
 62
     1
 10
-128.034566857814
 20
-10.8283130263669
 30
0.0
 11
-128.034566857814
 21
-10.5483130251748
 31
0.0
  0
LINE
  5
   4DD
  8
0
  6
CONTINUOUS
 62
     1
 10
-50.1945836162571
 20
-10.8283130263669
 30
0.0
 11
-50.1945836162571
 21
-10.5483130251748
 31
0.0
  0
LINE
  5
   4DE
  8
0
  6
CONTINUOUS
 62
     1
 10
-98.914575278759
 20
-10.4083147445309
 30
0.0
 11
-98.914575278759
 21
-3.68857352998655
 31
0.0
  0
LINE
  5
   4DF
  8
0
  6
CONTINUOUS
 62
     1
 10
-59.714575111866
 20
-10.4083147445309
 30
0.0
 11
-59.714575111866
 21
-3.68857352998655
 31
0.0
  0
LINE
  5
   4E0
  8
0
  6
CONTINUOUS
 62
     2
 10
-127.712568565428
 20
-10.4083147445309
 30
0.0
 11
-127.712568565428
 21
0.511685301960683
 31
0.0
  0
LINE
  5
   4E1
  8
0
  6
CONTINUOUS
 62
     2
 10
-126.70455830723
 20
-10.4083147445309
 30
0.0
 11
-126.70455830723
 21
0.511685301960678
 31
0.0
  0
LINE
  5
   4E2
  8
0
  6
CONTINUOUS
 62
     2
 10
-125.696565138876
 20
-10.4083147445309
 30
0.0
 11
-125.696565138876
 21
0.511685301960678
 31
0.0
  0
LINE
  5
   4E3
  8
0
  6
CONTINUOUS
 62
     2
 10
-124.688571970522
 20
-10.4083147445309
 30
0.0
 11
-124.688571970522
 21
0.511685301960678
 31
0.0
  0
LINE
  5
   4E4
  8
0
  6
CONTINUOUS
 62
     2
 10
-123.680561712325
 20
-10.4083147445309
 30
0.0
 11
-123.680561712325
 21
0.511685301960678
 31
0.0
  0
LINE
  5
   4E5
  8
0
  6
CONTINUOUS
 62
     2
 10
-122.672568543971
 20
-10.4083147445309
 30
0.0
 11
-122.672568543971
 21
0.511685301960678
 31
0.0
  0
LINE
  5
   4E6
  8
0
  6
CONTINUOUS
 62
     2
 10
-121.664558285773
 20
-10.4083147445309
 30
0.0
 11
-121.664558285773
 21
0.511685301960678
 31
0.0
  0
LINE
  5
   4E7
  8
0
  6
CONTINUOUS
 62
     2
 10
-120.656565117419
 20
-10.4083147445309
 30
0.0
 11
-120.656565117419
 21
0.511685301960678
 31
0.0
  0
LINE
  5
   4E8
  8
0
  6
CONTINUOUS
 62
     2
 10
-119.648571949065
 20
-10.4083147445309
 30
0.0
 11
-119.648571949065
 21
0.511685301960678
 31
0.0
  0
LINE
  5
   4E9
  8
0
  6
CONTINUOUS
 62
     1
 10
-99.0405616074204
 20
51.1914283058365
 30
0.0
 11
-99.0405616074204
 21
59.5916791448008
 31
0.0
  0
LINE
  5
   4EA
  8
0
  6
CONTINUOUS
 62
     1
 10
-127.712568565428
 20
0.93168343454715
 30
0.0
 11
-127.712568565428
 21
7.37167918950433
 31
0.0
  0
LINE
  5
   4EB
  8
0
  6
CONTINUOUS
 62
     1
 10
-126.70455830723
 20
0.93168343454715
 30
0.0
 11
-126.70455830723
 21
7.37167918950433
 31
0.0
  0
LINE
  5
   4EC
  8
0
  6
CONTINUOUS
 62
     1
 10
-125.696565138876
 20
0.93168343454715
 30
0.0
 11
-125.696565138876
 21
7.37167918950433
 31
0.0
  0
LINE
  5
   4ED
  8
0
  6
CONTINUOUS
 62
     1
 10
-124.688571970522
 20
0.93168343454715
 30
0.0
 11
-124.688571970522
 21
7.37167918950433
 31
0.0
  0
LINE
  5
   4EE
  8
0
  6
CONTINUOUS
 62
     1
 10
-123.680561712325
 20
0.93168343454715
 30
0.0
 11
-123.680561712325
 21
7.37167918950433
 31
0.0
  0
LINE
  5
   4EF
  8
0
  6
CONTINUOUS
 62
     1
 10
-122.672568543971
 20
0.93168343454715
 30
0.0
 11
-122.672568543971
 21
7.37167918950433
 31
0.0
  0
LINE
  5
   4F0
  8
0
  6
CONTINUOUS
 62
     1
 10
-121.664558285773
 20
0.93168343454715
 30
0.0
 11
-121.664558285773
 21
7.37167918950433
 31
0.0
  0
LINE
  5
   4F1
  8
0
  6
CONTINUOUS
 62
     1
 10
-120.656565117419
 20
0.93168343454715
 30
0.0
 11
-120.656565117419
 21
7.37167918950433
 31
0.0
  0
LINE
  5
   4F2
  8
0
  6
CONTINUOUS
 62
     1
 10
-119.648571949065
 20
0.93168343454715
 30
0.0
 11
-119.648571949065
 21
7.37167918950433
 31
0.0
  0
LINE
  5
   4F3
  8
0
  6
CONTINUOUS
 62
     2
 10
-99.0405718613267
 20
-30.8483131116015
 30
0.0
 11
-99.0405718613267
 21
-10.8283130263669
 31
0.0
  0
LINE
  5
   4F4
  8
0
  6
CONTINUOUS
 62
     1
 10
-50.5165819086433
 20
-10.4083147445309
 30
0.0
 11
-50.5165819086433
 21
-3.68857352998655
 31
0.0
  0
LINE
  5
   4F5
  8
0
  6
CONTINUOUS
 62
     1
 10
-51.5245921668411
 20
-10.4083147445309
 30
0.0
 11
-51.5245921668411
 21
-3.68857352998655
 31
0.0
  0
LINE
  5
   4F6
  8
0
  6
CONTINUOUS
 62
     1
 10
-52.5325853351951
 20
-10.4083147445309
 30
0.0
 11
-52.5325853351951
 21
-3.68857352998655
 31
0.0
  0
LINE
  5
   4F7
  8
0
  6
CONTINUOUS
 62
     1
 10
-53.5405785035491
 20
-10.4083147445309
 30
0.0
 11
-53.5405785035491
 21
-3.68857352998655
 31
0.0
  0
LINE
  5
   4F8
  8
0
  6
CONTINUOUS
 62
     1
 10
-54.5485887617469
 20
-10.4083147445309
 30
0.0
 11
-54.5485887617469
 21
-3.68857352998655
 31
0.0
  0
LINE
  5
   4F9
  8
0
  6
CONTINUOUS
 62
     1
 10
-55.556581930101
 20
-10.4083147445309
 30
0.0
 11
-55.556581930101
 21
-3.68857352998655
 31
0.0
  0
LINE
  5
   4FA
  8
0
  6
CONTINUOUS
 62
     1
 10
-56.5645921882988
 20
-10.4083147445309
 30
0.0
 11
-56.5645921882988
 21
-3.68857352998655
 31
0.0
  0
LINE
  5
   4FB
  8
0
  6
CONTINUOUS
 62
     1
 10
-57.5725853566528
 20
-10.4083147445309
 30
0.0
 11
-57.5725853566528
 21
-3.68857352998655
 31
0.0
  0
LINE
  5
   4FC
  8
0
  6
CONTINUOUS
 62
     1
 10
-58.5805785250068
 20
-10.4083147445309
 30
0.0
 11
-58.5805785250068
 21
-3.68857352998655
 31
0.0
  0
LINE
  5
   4FD
  8
0
  6
CONTINUOUS
 62
     1
 10
-59.5885887832046
 20
-10.4083147445309
 30
0.0
 11
-59.5885887832046
 21
-3.68857352998655
 31
0.0
  0
LINE
  5
   4FE
  8
0
  6
CONTINUOUS
 62
     1
 10
-50.5165819086433
 20
-30.8483131116015
 30
0.0
 11
-50.5165819086433
 21
-10.8283130263669
 31
0.0
  0
LINE
  5
   4FF
  8
0
  6
CONTINUOUS
 62
     1
 10
-51.5245921668411
 20
-30.8483131116015
 30
0.0
 11
-51.5245921668411
 21
-10.8283130263669
 31
0.0
  0
LINE
  5
   500
  8
0
  6
CONTINUOUS
 62
     1
 10
-52.5325853351951
 20
-30.8483131116015
 30
0.0
 11
-52.5325853351951
 21
-10.8283130263669
 31
0.0
  0
LINE
  5
   501
  8
0
  6
CONTINUOUS
 62
     1
 10
-53.5405785035491
 20
-30.8483131116015
 30
0.0
 11
-53.5405785035491
 21
-10.8283130263669
 31
0.0
  0
LINE
  5
   502
  8
0
  6
CONTINUOUS
 62
     1
 10
-54.5485887617469
 20
-30.8483131116015
 30
0.0
 11
-54.5485887617469
 21
-10.8283130263669
 31
0.0
  0
LINE
  5
   503
  8
0
  6
CONTINUOUS
 62
     1
 10
-55.556581930101
 20
-30.8483131116015
 30
0.0
 11
-55.556581930101
 21
-10.8283130263669
 31
0.0
  0
LINE
  5
   504
  8
0
  6
CONTINUOUS
 62
     1
 10
-56.5645921882988
 20
-30.8483131116015
 30
0.0
 11
-56.5645921882988
 21
-10.8283130263669
 31
0.0
  0
LINE
  5
   505
  8
0
  6
CONTINUOUS
 62
     1
 10
-57.5725853566528
 20
-30.8483131116015
 30
0.0
 11
-57.5725853566528
 21
-10.8283130263669
 31
0.0
  0
LINE
  5
   506
  8
0
  6
CONTINUOUS
 62
     1
 10
-58.5805785250068
 20
-30.8483131116015
 30
0.0
 11
-58.5805785250068
 21
-10.8283130263669
 31
0.0
  0
LINE
  5
   507
  8
0
  6
CONTINUOUS
 62
     1
 10
-59.5885785292983
 20
-30.8483131116015
 30
0.0
 11
-59.5885785292983
 21
-10.8283130263669
 31
0.0
  0
CIRCLE
  5
   508
  8
0
  6
CONTINUOUS
 62
     1
 10
-89.1145482684403
 20
-18.2484478765088
 30
0.0
 40
1.26055429216631
  0
CIRCLE
  5
   509
  8
0
  6
CONTINUOUS
 62
     1
 10
-69.5144795645169
 20
-18.2483540548711
 30
0.0
 40
1.26069609787232
  0
LINE
  5
   50A
  8
0
  6
DASHDOT
 62
     1
 10
-69.5144795645169
 20
-22.3090501646644
 30
0.0
 11
-69.5144795645169
 21
-10.8283130263669
 31
0.0
  0
LINE
  5
   50B
  8
0
  6
DASHDOT
 62
     1
 10
-65.4537834547237
 20
-18.2483540548711
 30
0.0
 11
-73.5751756743102
 21
-18.2483540548711
 31
0.0
  0
LINE
  5
   50C
  8
0
  6
DASHDOT
 62
     1
 10
-89.1145482684403
 20
-22.309002180596
 30
0.0
 11
-89.1145482684403
 21
-10.8283130263669
 31
0.0
  0
LINE
  5
   50D
  8
0
  6
DASHDOT
 62
     1
 10
-85.053993964353
 20
-18.2484478765087
 30
0.0
 11
-93.1751025725275
 21
-18.2484478765087
 31
0.0
  0
LINE
  5
   50E
  8
0
  6
CONTINUOUS
 62
     1
 10
-78.8805174618362
 20
60.011679146589
 30
0.0
 11
-78.8805174618362
 21
82.8315467974549
 31
0.0
  0
LINE
  5
   50F
  8
0
  6
CONTINUOUS
 62
     1
 10
-77.8725184188485
 20
60.011679146589
 30
0.0
 11
-77.8725184188485
 21
82.8315467974549
 31
0.0
  0
LINE
  5
   510
  8
0
  6
CONTINUOUS
 62
     1
 10
-76.7245175060632
 20
60.011679146589
 30
0.0
 11
-76.7245175060632
 21
82.8315467974549
 31
0.0
  0
LINE
  5
   511
  8
0
  6
CONTINUOUS
 62
     1
 10
-75.7165176619892
 20
60.011679146589
 30
0.0
 11
-75.7165176619892
 21
82.8315467974549
 31
0.0
  0
LINE
  5
   512
  8
0
  6
CONTINUOUS
 62
     1
 10
-74.708529033125
 20
60.011679146589
 30
0.0
 11
-74.708529033125
 21
82.8315467974549
 31
0.0
  0
LINE
  5
   513
  8
0
  6
CONTINUOUS
 62
     1
 10
-73.7005273198492
 20
60.011679146589
 30
0.0
 11
-73.7005273198492
 21
82.8315467974549
 31
0.0
  0
LINE
  5
   514
  8
0
  6
CONTINUOUS
 62
     1
 10
-72.6925170616524
 20
60.011679146589
 30
0.0
 11
-72.6925170616524
 21
82.8315467974549
 31
0.0
  0
LINE
  5
   515
  8
0
  6
CONTINUOUS
 62
     1
 10
-71.6845281657587
 20
60.011679146589
 30
0.0
 11
-71.6845281657587
 21
82.8315467974549
 31
0.0
  0
LINE
  5
   516
  8
0
  6
CONTINUOUS
 62
     1
 10
-79.8886361337306
 20
60.011679146589
 30
0.0
 11
-79.8886361337306
 21
82.8315467974549
 31
0.0
  0
LINE
  5
   517
  8
0
  6
CONTINUOUS
 62
     1
 10
-80.8966389151215
 20
60.011679146589
 30
0.0
 11
-80.8966389151215
 21
82.8315467974549
 31
0.0
  0
LINE
  5
   518
  8
0
  6
CONTINUOUS
 62
     1
 10
-81.9046371570227
 20
60.011679146589
 30
0.0
 11
-81.9046371570227
 21
82.8315467974549
 31
0.0
  0
LINE
  5
   519
  8
0
  6
CONTINUOUS
 62
     1
 10
-82.9126370010968
 20
60.011679146589
 30
0.0
 11
-82.9126370010968
 21
82.8315467974549
 31
0.0
  0
LINE
  5
   51A
  8
0
  6
CONTINUOUS
 62
     1
 10
-83.920625629961
 20
60.011679146589
 30
0.0
 11
-83.920625629961
 21
82.8315467974549
 31
0.0
  0
LINE
  5
   51B
  8
0
  6
CONTINUOUS
 62
     1
 10
-84.9286273432367
 20
60.011679146589
 30
0.0
 11
-84.9286273432367
 21
82.8315467974549
 31
0.0
  0
LINE
  5
   51C
  8
0
  6
CONTINUOUS
 62
     1
 10
-85.9366376014336
 20
60.011679146589
 30
0.0
 11
-85.9366376014336
 21
82.8315467974549
 31
0.0
  0
LINE
  5
   51D
  8
0
  6
CONTINUOUS
 62
     1
 10
-86.9446264973273
 20
60.011679146589
 30
0.0
 11
-86.9446264973273
 21
82.8315467974549
 31
0.0
  0
LINE
  5
   51E
  8
0
  6
CONTINUOUS
 62
     1
 10
-87.9525983033777
 20
60.011679146589
 30
0.0
 11
-87.9525983033777
 21
69.7697364391102
 31
0.0
  0
LINE
  5
   51F
  8
0
  6
CONTINUOUS
 62
     1
 10
-88.9605871992708
 20
60.011679146589
 30
0.0
 11
-88.9605871992708
 21
68.9955152444078
 31
0.0
  0
LINE
  5
   520
  8
0
  6
CONTINUOUS
 62
     1
 10
-89.9685889125467
 20
60.011679146589
 30
0.0
 11
-89.9685889125467
 21
69.324964708701
 31
0.0
  0
LINE
  5
   521
  8
0
  6
CONTINUOUS
 62
     1
 10
-90.9766290779679
 20
60.011679146589
 30
0.0
 11
-90.9766290779679
 21
82.8315467974549
 31
0.0
  0
LINE
  5
   522
  8
0
  6
CONTINUOUS
 62
     1
 10
-91.9846307912436
 20
60.011679146589
 30
0.0
 11
-91.9846307912436
 21
82.8315467974549
 31
0.0
  0
LINE
  5
   523
  8
0
  6
CONTINUOUS
 62
     1
 10
-92.9926325045192
 20
60.011679146589
 30
0.0
 11
-92.9926325045192
 21
82.8315467974549
 31
0.0
  0
LINE
  5
   524
  8
0
  6
CONTINUOUS
 62
     1
 10
-94.0006342177948
 20
60.011679146589
 30
0.0
 11
-94.0006342177948
 21
82.8315467974549
 31
0.0
  0
LINE
  5
   525
  8
0
  6
CONTINUOUS
 62
     1
 10
-95.0086273861485
 20
60.011679146589
 30
0.0
 11
-95.0086273861485
 21
82.8315467974549
 31
0.0
  0
LINE
  5
   526
  8
0
  6
CONTINUOUS
 62
     1
 10
-96.0166290994242
 20
60.011679146589
 30
0.0
 11
-96.0166290994242
 21
82.8315467974549
 31
0.0
  0
LINE
  5
   527
  8
0
  6
CONTINUOUS
 62
     1
 10
-97.0246308126998
 20
60.011679146589
 30
0.0
 11
-97.0246308126998
 21
82.8315467974549
 31
0.0
  0
LINE
  5
   528
  8
0
  6
CONTINUOUS
 62
     1
 10
-98.0326325259754
 20
60.011679146589
 30
0.0
 11
-98.0326325259754
 21
82.8315467974549
 31
0.0
  0
LINE
  5
   529
  8
0
  6
CONTINUOUS
 62
     1
 10
-69.6685631913542
 20
-16.9971095195659
 30
0.0
 11
-69.6685631913542
 21
-10.8283130263669
 31
0.0
  0
LINE
  5
   52A
  8
0
  6
CONTINUOUS
 62
     1
 10
-68.6605614780783
 20
-17.3208959410765
 30
0.0
 11
-68.6605614780783
 21
-10.8283130263669
 31
0.0
  0
LINE
  5
   52B
  8
0
  6
CONTINUOUS
 62
     1
 10
-70.6765563597082
 20
-17.7595471673701
 30
0.0
 11
-70.6765563597082
 21
-10.8283130263669
 31
0.0
  0
LINE
  5
   52C
  8
0
  6
CONTINUOUS
 62
     1
 10
-87.9525983033777
 20
-17.7597052016888
 30
0.0
 11
-87.9525983033777
 21
-10.8283130263669
 31
0.0
  0
LINE
  5
   52D
  8
0
  6
CONTINUOUS
 62
     1
 10
-88.9605871992708
 20
-16.997331130286
 30
0.0
 11
-88.9605871992708
 21
-10.8283130263669
 31
0.0
  0
LINE
  5
   52E
  8
0
  6
CONTINUOUS
 62
     1
 10
-89.9685889125467
 20
-17.3212954070016
 30
0.0
 11
-89.9685889125467
 21
-10.8283130263669
 31
0.0
  0
LINE
  5
   52F
  8
0
  6
DASHDOT
 62
     7
 10
-79.3145751953125
 20
-52.0661580840778
 30
0.0
 11
-79.3145751953125
 21
120.003011881636
 31
0.0
  0
LINE
  5
   530
  8
0
  6
DASHDOT
 62
     7
 10
-59.714575111866
 20
52.1715495072018
 30
0.0
 11
-59.714575111866
 21
88.0018098453709
 31
0.0
  0
LINE
  5
   531
  8
0
  6
DASHDOT
 62
     7
 10
-98.914575278759
 20
79.8656356646506
 30
0.0
 11
-98.914575278759
 21
103.500411912142
 31
0.0
  0
LINE
  5
   532
  8
0
  6
CONTINUOUS
 62
     1
 10
-70.6765281614673
 20
60.0116797149246
 30
0.0
 11
-70.6765281614673
 21
69.7428781534626
 31
0.0
  0
LINE
  5
   533
  8
0
  6
CONTINUOUS
 62
     1
 10
-69.6685281571758
 20
60.0116802832601
 30
0.0
 11
-69.6685281571758
 21
68.9805566491866
 31
0.0
  0
LINE
  5
   534
  8
0
  6
CONTINUOUS
 62
     1
 10
-68.6605281528842
 20
60.0116808515957
 30
0.0
 11
-68.6605281528842
 21
69.3045559350715
 31
0.0
  0
LINE
  5
   535
  8
0
  6
CONTINUOUS
 62
     1
 10
-67.6525281485927
 20
60.0116814199313
 30
0.0
 11
-67.6525281485927
 21
82.8316188879354
 31
0.0
  0
LINE
  5
   536
  8
0
  6
CONTINUOUS
 62
     1
 10
-66.6445281443012
 20
60.0116819882669
 30
0.0
 11
-66.6445281443012
 21
82.8316203971181
 31
0.0
  0
LINE
  5
   537
  8
0
  6
CONTINUOUS
 62
     1
 10
-65.6365281400098
 20
60.0116825566025
 30
0.0
 11
-65.6365281400098
 21
82.8316219063007
 31
0.0
  0
LINE
  5
   538
  8
0
  6
CONTINUOUS
 62
     1
 10
-63.6205281314267
 20
60.0116836932737
 30
0.0
 11
-63.6205281314267
 21
82.831624924666
 31
0.0
  0
LINE
  5
   539
  8
0
  6
CONTINUOUS
 62
     1
 10
-62.6125281271351
 20
60.0116842616093
 30
0.0
 11
-62.6125281271351
 21
82.8316264338486
 31
0.0
  0
LINE
  5
   53A
  8
0
  6
CONTINUOUS
 62
     1
 10
-61.6045281228437
 20
60.0116848299449
 30
0.0
 11
-61.6045281228437
 21
82.8316279430313
 31
0.0
  0
LINE
  5
   53B
  8
0
  6
CONTINUOUS
 62
     1
 10
-60.5965281185521
 20
60.0116853982805
 30
0.0
 11
-60.5965281185521
 21
82.8316294522139
 31
0.0
  0
LINE
  5
   53C
  8
0
  6
CONTINUOUS
 62
     1
 10
-59.5885281142606
 20
60.0116859666161
 30
0.0
 11
-59.5885281142606
 21
61.6652151950311
 31
0.0
  0
LINE
  5
   53D
  8
0
  6
CONTINUOUS
 62
     1
 10
-58.5805281099691
 20
60.0116865349517
 30
0.0
 11
-58.5805281099691
 21
82.8316324705792
 31
0.0
  0
LINE
  5
   53E
  8
0
  6
CONTINUOUS
 62
     1
 10
-57.5725281056775
 20
60.0116871032873
 30
0.0
 11
-57.5725281056775
 21
82.8316339797619
 31
0.0
  0
LINE
  5
   53F
  8
0
  6
CONTINUOUS
 62
     1
 10
-56.5645281013859
 20
60.011687671623
 30
0.0
 11
-56.5645281013859
 21
82.8316354889445
 31
0.0
  0
LINE
  5
   540
  8
0
  6
CONTINUOUS
 62
     1
 10
-55.5565280970943
 20
60.0116882399586
 30
0.0
 11
-55.5565280970943
 21
82.8316369981272
 31
0.0
  0
LINE
  5
   541
  8
0
  6
CONTINUOUS
 62
     1
 10
-54.5485280928026
 20
60.0116888082942
 30
0.0
 11
-54.5485280928026
 21
82.8316385073098
 31
0.0
  0
LINE
  5
   542
  8
0
  6
CONTINUOUS
 62
     1
 10
-53.540528088511
 20
60.0116893766298
 30
0.0
 11
-53.540528088511
 21
82.8316400164925
 31
0.0
  0
LINE
  5
   543
  8
0
  6
CONTINUOUS
 62
     1
 10
-52.5325280842194
 20
60.0116899449655
 30
0.0
 11
-52.5325280842194
 21
82.8316415256751
 31
0.0
  0
LINE
  5
   544
  8
0
  6
CONTINUOUS
 62
     1
 10
-51.5245280799278
 20
60.0116905133011
 30
0.0
 11
-51.5245280799278
 21
82.8316430348577
 31
0.0
  0
LINE
  5
   545
  8
0
  6
CONTINUOUS
 62
     1
 10
-50.5165280756362
 20
60.0116910816367
 30
0.0
 11
-50.5165280756362
 21
82.8316445440404
 31
0.0
  0
LINE
  5
   546
  8
0
  6
CONTINUOUS
 62
     1
 10
-64.6285281357183
 20
60.0116836932737
 30
0.0
 11
-64.6285281357183
 21
82.8316234154834
 31
0.0
  0
CIRCLE
  5
   547
  8
0
  6
CONTINUOUS
 62
     1
 10
-69.5146021221848
 20
70.2316777061795
 30
0.0
 40
1.26055429216631
  0
LINE
  5
   548
  8
0
  6
DASHDOT
 62
     7
 10
-69.5146021221848
 20
68.6911234128211
 30
0.0
 11
-69.5146021221848
 21
71.7722319995379
 31
0.0
  0
LINE
  5
   549
  8
0
  6
DASHDOT
 62
     7
 10
-67.9740478288264
 20
70.2316777061795
 30
0.0
 11
-71.0551564155432
 21
70.2316777061795
 31
0.0
  0
LINE
  5
   54A
  8
0
  6
CONTINUOUS
 62
     1
 10
-68.6605281528842
 20
71.1587994772874
 30
0.0
 11
-68.6605281528842
 21
82.8316173787528
 31
0.0
  0
LINE
  5
   54B
  8
0
  6
CONTINUOUS
 62
     1
 10
-70.6765281614673
 20
70.7204772588964
 30
0.0
 11
-70.6765281614673
 21
82.8316143603875
 31
0.0
  0
LINE
  5
   54C
  8
0
  6
CONTINUOUS
 62
     1
 10
-69.6685281571758
 20
71.4827987631723
 30
0.0
 11
-69.6685281571758
 21
82.8316158695701
 31
0.0
  0
LINE
  5
   54D
  8
0
  6
DASHDOT
 62
     7
 10
-98.9145715403557
 20
-53.5917432282149
 30
0.0
 11
-98.9145715403557
 21
-25.6895938814968
 31
0.0
  0
LINE
  5
   54E
  8
0
  6
DASHDOT
 62
     7
 10
-59.7145788502693
 20
-49.5385691225528
 30
0.0
 11
-59.7145788502693
 21
-29.8648795391352
 31
0.0
  0
LINE
  5
   54F
  8
0
  6
CONTINUOUS
 62
   253
 10
-105.914571570158
 20
82.9014314413071
 30
0.0
 11
-105.914571570158
 21
101.661431521177
 31
0.0
  0
LINE
  5
   550
  8
0
  6
CONTINUOUS
 62
   253
 10
-91.9145715105534
 20
82.9014314413071
 30
0.0
 11
-91.9145715105534
 21
101.661431521177
 31
0.0
  0
LINE
  5
   551
  8
0
  6
CONTINUOUS
 62
   253
 10
-91.9145715105534
 20
101.661431521177
 30
0.0
 11
-105.914571570158
 21
101.661431521177
 31
0.0
  0
LINE
  5
   552
  8
0
  6
CONTINUOUS
 62
     7
 10
-105.914571570158
 20
-49.5385691225528
 30
0.0
 11
-105.914571570158
 21
-30.7785690426826
 31
0.0
  0
LINE
  5
   553
  8
0
  6
CONTINUOUS
 62
     7
 10
-91.9145715105534
 20
-49.5385691225528
 30
0.0
 11
-91.9145715105534
 21
-30.7785690426826
 31
0.0
  0
LINE
  5
   554
  8
0
  6
CONTINUOUS
 62
     7
 10
-91.9145715105534
 20
-49.5385691225528
 30
0.0
 11
-105.914571570158
 21
-49.5385691225528
 31
0.0
  0
CIRCLE
  5
   555
  8
0
  6
CONTINUOUS
 62
     7
 10
-95.834575265646
 20
-39.4585690796375
 30
0.0
 40
1.54000000655651
  0
CIRCLE
  5
   556
  8
0
  6
CONTINUOUS
 62
     7
 10
-101.994575291872
 20
-45.6185691058635
 30
0.0
 40
1.54000000655651
  0
CIRCLE
  5
   557
  8
0
  6
CONTINUOUS
 62
   253
 10
-101.994575291872
 20
97.741431504488
 30
0.0
 40
1.54000000655651
  0
CIRCLE
  5
   558
  8
0
  6
CONTINUOUS
 62
   253
 10
-95.834575265646
 20
91.5814314782619
 30
0.0
 40
1.54000000655651
  0
LINE
  5
   559
  8
0
  6
CONTINUOUS
 62
     1
 10
-118.640587325633
 20
60.0116962364328
 30
0.0
 11
-118.640587325633
 21
82.8315467974549
 31
0.0
  0
LINE
  5
   55A
  8
0
  6
CONTINUOUS
 62
     1
 10
-118.514575362206
 20
52.1715495072018
 30
0.0
 11
-118.514575362206
 21
102.742076845378
 31
0.0
  0
LINE
  5
   55B
  8
0
  6
CONTINUOUS
 62
     1
 10
-117.632632609422
 20
60.011679146589
 30
0.0
 11
-117.632632609422
 21
82.8315467974549
 31
0.0
  0
LINE
  5
   55C
  8
0
  6
CONTINUOUS
 62
     1
 10
-116.624630896146
 20
60.011679146589
 30
0.0
 11
-116.624630896146
 21
82.8315467974549
 31
0.0
  0
LINE
  5
   55D
  8
0
  6
CONTINUOUS
 62
     1
 10
-115.616629182871
 20
60.011679146589
 30
0.0
 11
-115.616629182871
 21
82.8315467974549
 31
0.0
  0
LINE
  5
   55E
  8
0
  6
CONTINUOUS
 62
     1
 10
-114.608627469595
 20
60.011679146589
 30
0.0
 11
-114.608627469595
 21
82.8315467974549
 31
0.0
  0
LINE
  5
   55F
  8
0
  6
CONTINUOUS
 62
     1
 10
-113.600634301241
 20
60.011679146589
 30
0.0
 11
-113.600634301241
 21
82.8315467974549
 31
0.0
  0
LINE
  5
   560
  8
0
  6
CONTINUOUS
 62
     1
 10
-112.592632587966
 20
60.011679146589
 30
0.0
 11
-112.592632587966
 21
82.8315467974549
 31
0.0
  0
LINE
  5
   561
  8
0
  6
CONTINUOUS
 62
     1
 10
-111.58463087469
 20
60.011679146589
 30
0.0
 11
-111.58463087469
 21
82.8315467974549
 31
0.0
  0
LINE
  5
   562
  8
0
  6
CONTINUOUS
 62
     1
 10
-110.576629161414
 20
60.011679146589
 30
0.0
 11
-110.576629161414
 21
82.8315467974549
 31
0.0
  0
LINE
  5
   563
  8
0
  6
CONTINUOUS
 62
     1
 10
-109.428586097304
 20
71.2652116957725
 30
0.0
 11
-109.428568878111
 21
82.8315468000268
 31
0.0
  0
CIRCLE
  5
   564
  8
0
  6
CONTINUOUS
 62
     1
 10
-108.714548351887
 20
70.2316777061795
 30
0.0
 40
1.26055429216631
  0
LINE
  5
   565
  8
0
  6
CONTINUOUS
 62
     1
 10
-109.568588995993
 20
60.011679146589
 30
0.0
 11
-109.568588995993
 21
69.324964708701
 31
0.0
  0
LINE
  5
   566
  8
0
  6
CONTINUOUS
 62
     1
 10
-108.560587282717
 20
60.011679146589
 30
0.0
 11
-108.560587282717
 21
68.9955152444078
 31
0.0
  0
LINE
  5
   567
  8
0
  6
CONTINUOUS
 62
     1
 10
-108.420595312588
 20
71.4456877185471
 30
0.0
 11
-108.420578091335
 21
82.8315468018658
 31
0.0
  0
LINE
  5
   568
  8
0
  6
CONTINUOUS
 62
     1
 10
-107.552596825068
 20
70.6935871934353
 30
0.0
 11
-107.552579611934
 21
82.8315467973226
 31
0.0
  0
LINE
  5
   569
  8
0
  6
CONTINUOUS
 62
     1
 10
-106.544626580774
 20
60.011679146589
 30
0.0
 11
-106.544626580774
 21
82.8315467974549
 31
0.0
  0
LINE
  5
   56A
  8
0
  6
CONTINUOUS
 62
     1
 10
-105.53663768488
 20
60.011679146589
 30
0.0
 11
-105.53663768488
 21
82.8315467974549
 31
0.0
  0
LINE
  5
   56B
  8
0
  6
CONTINUOUS
 62
     1
 10
-104.528627426683
 20
60.011679146589
 30
0.0
 11
-104.528627426683
 21
82.8315467974549
 31
0.0
  0
LINE
  5
   56C
  8
0
  6
CONTINUOUS
 62
     1
 10
-103.520625713407
 20
60.011679146589
 30
0.0
 11
-103.520625713407
 21
82.8315467974549
 31
0.0
  0
LINE
  5
   56D
  8
0
  6
CONTINUOUS
 62
     1
 10
-102.512637084543
 20
60.011679146589
 30
0.0
 11
-102.512637084543
 21
82.8315467974549
 31
0.0
  0
LINE
  5
   56E
  8
0
  6
CONTINUOUS
 62
     1
 10
-101.504637240469
 20
60.011679146589
 30
0.0
 11
-101.504637240469
 21
82.8315467974549
 31
0.0
  0
LINE
  5
   56F
  8
0
  6
CONTINUOUS
 62
     1
 10
-101.504637240469
 20
60.011679146589
 30
0.0
 11
-101.504637240469
 21
82.8315467974549
 31
0.0
  0
LINE
  5
   570
  8
0
  6
CONTINUOUS
 62
     1
 10
-100.496638998568
 20
60.011679146589
 30
0.0
 11
-100.496638998568
 21
82.8315467974549
 31
0.0
  0
LINE
  5
   571
  8
0
  6
CONTINUOUS
 62
     1
 10
-99.4886362171771
 20
60.011679146589
 30
0.0
 11
-99.4886362171771
 21
82.8315467974549
 31
0.0
  0
LINE
  5
   572
  8
0
  6
CONTINUOUS
 62
     1
 10
-107.552598386824
 20
60.011679146589
 30
0.0
 11
-107.552598386824
 21
69.7697364391102
 31
0.0
  0
LINE
  5
   573
  8
0
  6
DASHDOT
 62
     7
 10
-104.6539940478
 20
70.2316777061795
 30
0.0
 11
-112.775102655974
 21
70.2316777061795
 31
0.0
  0
LINE
  5
   574
  8
0
  6
CONTINUOUS
 62
     1
 10
-108.714548351887
 20
66.1711234020922
 30
0.0
 11
-108.714548351887
 21
82.8315467974549
 31
0.0
  0
LINE
  5
   575
  8
0
  6
CONTINUOUS
 62
     1
 10
-118.514571623802
 20
-53.5917432282149
 30
0.0
 11
-118.514571623802
 21
-25.6895938814968
 31
0.0
  0
LINE
  5
   576
  8
0
  6
CONTINUOUS
 62
     1
 10
-118.640571944773
 20
-30.8483131116015
 30
0.0
 11
-118.640571944773
 21
-10.8283130263669
 31
0.0
  0
LINE
  5
   577
  8
0
  6
CONTINUOUS
 62
     1
 10
-117.632632609422
 20
-30.8483131116015
 30
0.0
 11
-117.632632609422
 21
-10.8283130263669
 31
0.0
  0
LINE
  5
   578
  8
0
  6
CONTINUOUS
 62
     1
 10
-116.624630896146
 20
-30.8483131116015
 30
0.0
 11
-116.624630896146
 21
-10.8283130263669
 31
0.0
  0
LINE
  5
   579
  8
0
  6
CONTINUOUS
 62
     1
 10
-115.616629182871
 20
-30.8483131116015
 30
0.0
 11
-115.616629182871
 21
-10.8283130263669
 31
0.0
  0
LINE
  5
   57A
  8
0
  6
CONTINUOUS
 62
     1
 10
-114.608627469595
 20
-30.8483131116015
 30
0.0
 11
-114.608627469595
 21
-10.8283130263669
 31
0.0
  0
LINE
  5
   57B
  8
0
  6
CONTINUOUS
 62
     1
 10
-113.600634301241
 20
-30.8483131116015
 30
0.0
 11
-113.600634301241
 21
-10.8283130263669
 31
0.0
  0
LINE
  5
   57C
  8
0
  6
CONTINUOUS
 62
     1
 10
-112.592632587966
 20
-30.8483131116015
 30
0.0
 11
-112.592632587966
 21
-10.8283130263669
 31
0.0
  0
LINE
  5
   57D
  8
0
  6
CONTINUOUS
 62
     1
 10
-111.58463087469
 20
-30.8483131116015
 30
0.0
 11
-111.58463087469
 21
-10.8283130263669
 31
0.0
  0
LINE
  5
   57E
  8
0
  6
CONTINUOUS
 62
     1
 10
-110.576629161414
 20
-30.8483131116015
 30
0.0
 11
-110.576629161414
 21
-10.8283130263669
 31
0.0
  0
LINE
  5
   57F
  8
0
  6
CONTINUOUS
 62
     1
 10
-109.568588995993
 20
-30.8483131116015
 30
0.0
 11
-109.568588995993
 21
-19.1756003460159
 31
0.0
  0
LINE
  5
   580
  8
0
  6
CONTINUOUS
 62
     1
 10
-108.560587282717
 20
-30.8483131116015
 30
0.0
 11
-108.560587282717
 21
-19.4995646227316
 31
0.0
  0
LINE
  5
   581
  8
0
  6
CONTINUOUS
 62
     1
 10
-109.568588995993
 20
-17.3212954070016
 30
0.0
 11
-109.568588995993
 21
-10.8283130263669
 31
0.0
  0
LINE
  5
   582
  8
0
  6
CONTINUOUS
 62
     1
 10
-108.560587282717
 20
-16.997331130286
 30
0.0
 11
-108.560587282717
 21
-10.8283130263669
 31
0.0
  0
LINE
  5
   583
  8
0
  6
CONTINUOUS
 62
     1
 10
-108.714548351887
 20
-22.309002180596
 30
0.0
 11
-108.714548351887
 21
-10.8283130263669
 31
0.0
  0
CIRCLE
  5
   584
  8
0
  6
CONTINUOUS
 62
     1
 10
-108.714548351887
 20
-18.2484478765088
 30
0.0
 40
1.26055429216631
  0
LINE
  5
   585
  8
0
  6
CONTINUOUS
 62
     1
 10
-107.552598386824
 20
-17.7597052016888
 30
0.0
 11
-107.552598386824
 21
-10.8283130263669
 31
0.0
  0
LINE
  5
   586
  8
0
  6
CONTINUOUS
 62
     1
 10
-107.552598386824
 20
-30.8483131116015
 30
0.0
 11
-107.552598386824
 21
-18.7371905513287
 31
0.0
  0
LINE
  5
   587
  8
0
  6
DASHDOT
 62
     7
 10
-104.6539940478
 20
-18.2484478765087
 30
0.0
 11
-112.775102655974
 21
-18.2484478765087
 31
0.0
  0
LINE
  5
   588
  8
0
  6
CONTINUOUS
 62
     1
 10
-106.544626580774
 20
-30.8483131116015
 30
0.0
 11
-106.544626580774
 21
-10.8283130263669
 31
0.0
  0
LINE
  5
   589
  8
0
  6
CONTINUOUS
 62
     1
 10
-105.53663768488
 20
-30.8483131116015
 30
0.0
 11
-105.53663768488
 21
-10.8283130263669
 31
0.0
  0
LINE
  5
   58A
  8
0
  6
CONTINUOUS
 62
     1
 10
-104.528627426683
 20
-30.8483131116015
 30
0.0
 11
-104.528627426683
 21
-10.8283130263669
 31
0.0
  0
LINE
  5
   58B
  8
0
  6
CONTINUOUS
 62
     1
 10
-103.520625713407
 20
-30.8483131116015
 30
0.0
 11
-103.520625713407
 21
-10.8283130263669
 31
0.0
  0
LINE
  5
   58C
  8
0
  6
CONTINUOUS
 62
     1
 10
-102.512637084543
 20
-30.8483131116015
 30
0.0
 11
-102.512637084543
 21
-10.8283130263669
 31
0.0
  0
LINE
  5
   58D
  8
0
  6
CONTINUOUS
 62
     1
 10
-101.504637240469
 20
-30.8483131116015
 30
0.0
 11
-101.504637240469
 21
-10.8283130263669
 31
0.0
  0
LINE
  5
   58E
  8
0
  6
CONTINUOUS
 62
     1
 10
-100.496638998568
 20
-30.8483131116015
 30
0.0
 11
-100.496638998568
 21
-10.8283130263669
 31
0.0
  0
LINE
  5
   58F
  8
0
  6
CONTINUOUS
 62
     1
 10
-99.4886362171771
 20
-30.8483131116015
 30
0.0
 11
-99.4886362171771
 21
-10.8283130263669
 31
0.0
  0
LINE
  5
   590
  8
0
  6
CONTINUOUS
 62
     1
 10
-99.4886362171771
 20
-10.4083147445309
 30
0.0
 11
-99.4886362171771
 21
-3.68857352998655
 31
0.0
  0
LINE
  5
   591
  8
0
  6
CONTINUOUS
 62
     1
 10
-100.496638998568
 20
-10.4083147445309
 30
0.0
 11
-100.496638998568
 21
-3.68857352998655
 31
0.0
  0
LINE
  5
   592
  8
0
  6
CONTINUOUS
 62
     1
 10
-101.504637240469
 20
-10.4083147445309
 30
0.0
 11
-101.504637240469
 21
-3.68857352998655
 31
0.0
  0
LINE
  5
   593
  8
0
  6
CONTINUOUS
 62
     1
 10
-102.512637084543
 20
-10.4083147445309
 30
0.0
 11
-102.512637084543
 21
-3.68857352998655
 31
0.0
  0
LINE
  5
   594
  8
0
  6
CONTINUOUS
 62
     1
 10
-103.520625713407
 20
-10.4083147445309
 30
0.0
 11
-103.520625713407
 21
-3.68857352998655
 31
0.0
  0
LINE
  5
   595
  8
0
  6
CONTINUOUS
 62
     1
 10
-104.528627426683
 20
-10.4083147445309
 30
0.0
 11
-104.528627426683
 21
-3.68857352998655
 31
0.0
  0
LINE
  5
   596
  8
0
  6
CONTINUOUS
 62
     1
 10
-105.53663768488
 20
51.1914283058365
 30
0.0
 11
-105.53663768488
 21
59.5916834172618
 31
0.0
  0
LINE
  5
   597
  8
0
  6
CONTINUOUS
 62
     1
 10
-107.552598386824
 20
-10.4083147445309
 30
0.0
 11
-107.552598386824
 21
59.5916834172618
 31
0.0
  0
LINE
  5
   598
  8
0
  6
CONTINUOUS
 62
     1
 10
-106.544626580774
 20
-10.4083147445309
 30
0.0
 11
-106.544626580774
 21
59.5916834172618
 31
0.0
  0
LINE
  5
   599
  8
0
  6
CONTINUOUS
 62
     1
 10
-108.560587282717
 20
-10.4083147445309
 30
0.0
 11
-108.560587282717
 21
59.5916834172618
 31
0.0
  0
LINE
  5
   59A
  8
0
  6
CONTINUOUS
 62
     1
 10
-109.568588995993
 20
-10.4083147445309
 30
0.0
 11
-109.568588995993
 21
59.5916834172618
 31
0.0
  0
LINE
  5
   59B
  8
0
  6
CONTINUOUS
 62
     1
 10
-110.576629161414
 20
-10.4083147445309
 30
0.0
 11
-110.576629161414
 21
59.5916834172618
 31
0.0
  0
LINE
  5
   59C
  8
0
  6
CONTINUOUS
 62
     1
 10
-111.58463087469
 20
-10.4083147445309
 30
0.0
 11
-111.58463087469
 21
59.5916834172618
 31
0.0
  0
LINE
  5
   59D
  8
0
  6
CONTINUOUS
 62
     1
 10
-112.592632587966
 20
-10.4083147445309
 30
0.0
 11
-112.592632587966
 21
59.5916834172618
 31
0.0
  0
LINE
  5
   59E
  8
0
  6
CONTINUOUS
 62
     1
 10
-113.600634301241
 20
-10.4083147445309
 30
0.0
 11
-113.600634301241
 21
59.5916834172618
 31
0.0
  0
LINE
  5
   59F
  8
0
  6
CONTINUOUS
 62
     1
 10
-114.608627469595
 20
-10.4083147445309
 30
0.0
 11
-114.608627469595
 21
59.5916834172618
 31
0.0
  0
LINE
  5
   5A0
  8
0
  6
CONTINUOUS
 62
     1
 10
-115.616629182871
 20
-10.4083147445309
 30
0.0
 11
-115.616629182871
 21
59.5916834172618
 31
0.0
  0
LINE
  5
   5A1
  8
0
  6
CONTINUOUS
 62
     1
 10
-116.624630896146
 20
-10.4083147445309
 30
0.0
 11
-116.624630896146
 21
59.5916834172618
 31
0.0
  0
LINE
  5
   5A2
  8
0
  6
CONTINUOUS
 62
     1
 10
-117.632632609422
 20
-10.4083147445309
 30
0.0
 11
-117.632632609422
 21
59.5916834172618
 31
0.0
  0
LINE
  5
   5A3
  8
0
  6
CONTINUOUS
 62
     1
 10
-118.640587325633
 20
-10.4083147445309
 30
0.0
 11
-118.640587325633
 21
59.5916834172618
 31
0.0
  0
LINE
  5
   5A4
  8
0
  6
DASHDOT
 62
     7
 10
-101.994575291872
 20
95.9214314967394
 30
0.0
 11
-101.994575291872
 21
99.5614315122366
 31
0.0
  0
LINE
  5
   5A5
  8
0
  6
DASHDOT
 62
     7
 10
-100.174575284123
 20
97.741431504488
 30
0.0
 11
-103.814575299621
 21
97.741431504488
 31
0.0
  0
LINE
  5
   5A6
  8
0
  6
DASHDOT
 62
     7
 10
-95.834575265646
 20
89.7614314705134
 30
0.0
 11
-95.834575265646
 21
93.4014314860106
 31
0.0
  0
LINE
  5
   5A7
  8
0
  6
DASHDOT
 62
     7
 10
-94.0145752578974
 20
91.5814314782619
 30
0.0
 11
-97.6545752733946
 21
91.5814314782619
 31
0.0
  0
LINE
  5
   5A8
  8
0
  6
DASHDOT
 62
     7
 10
-95.834575265646
 20
-41.2785690873861
 30
0.0
 11
-95.834575265646
 21
-37.6385690718889
 31
0.0
  0
LINE
  5
   5A9
  8
0
  6
DASHDOT
 62
     7
 10
-94.0145752578974
 20
-39.4585690796375
 30
0.0
 11
-97.6545752733946
 21
-39.4585690796375
 31
0.0
  0
LINE
  5
   5AA
  8
0
  6
DASHDOT
 62
     7
 10
-101.994575291872
 20
-47.4385691136121
 30
0.0
 11
-101.994575291872
 21
-43.7985690981149
 31
0.0
  0
LINE
  5
   5AB
  8
0
  6
DASHDOT
 62
     7
 10
-100.174575284123
 20
-45.6185691058635
 30
0.0
 11
-103.814575299621
 21
-45.6185691058635
 31
0.0
  0
CIRCLE
  5
   5AC
  8
0
  6
CONTINUOUS
 62
   253
 10
-115.434575349092
 20
97.741431504488
 30
0.0
 40
1.54000000655651
  0
LINE
  5
   5AD
  8
0
  6
DASHDOT
 62
     7
 10
-115.434575349092
 20
95.9214314967394
 30
0.0
 11
-115.434575349092
 21
99.5614315122366
 31
0.0
  0
LINE
  5
   5AE
  8
0
  6
DASHDOT
 62
     7
 10
-113.614575341344
 20
97.741431504488
 30
0.0
 11
-117.254575356841
 21
97.741431504488
 31
0.0
  0
LINE
  5
   5AF
  8
0
  6
DASHDOT
 62
     7
 10
-119.77457536757
 20
91.5814314782619
 30
0.0
 11
-123.414575383067
 21
91.5814314782619
 31
0.0
  0
LINE
  5
   5B0
  8
0
  6
DASHDOT
 62
     7
 10
-121.594575375319
 20
89.7614314705134
 30
0.0
 11
-121.594575375319
 21
93.4014314860106
 31
0.0
  0
CIRCLE
  5
   5B1
  8
0
  6
CONTINUOUS
 62
   253
 10
-121.594575375319
 20
91.5814314782619
 30
0.0
 40
1.54000000655651
  0
CIRCLE
  5
   5B2
  8
0
  6
CONTINUOUS
 62
   253
 10
-95.834575265646
 20
97.741431504488
 30
0.0
 40
1.54000000655651
  0
CIRCLE
  5
   5B3
  8
0
  6
CONTINUOUS
 62
   253
 10
-101.994575291872
 20
91.5814314782619
 30
0.0
 40
1.54000000655651
  0
LINE
  5
   5B4
  8
0
  6
DASHDOT
 62
     7
 10
-94.0145752578974
 20
97.741431504488
 30
0.0
 11
-97.6545752733946
 21
97.741431504488
 31
0.0
  0
LINE
  5
   5B5
  8
0
  6
DASHDOT
 62
     7
 10
-95.834575265646
 20
95.9214314967394
 30
0.0
 11
-95.834575265646
 21
99.5614315122366
 31
0.0
  0
LINE
  5
   5B6
  8
0
  6
DASHDOT
 62
     7
 10
-101.994575291872
 20
89.7614314705134
 30
0.0
 11
-101.994575291872
 21
93.4014314860106
 31
0.0
  0
LINE
  5
   5B7
  8
0
  6
DASHDOT
 62
     7
 10
-100.174575284123
 20
91.5814314782619
 30
0.0
 11
-103.814575299621
 21
91.5814314782619
 31
0.0
  0
CIRCLE
  5
   5B8
  8
0
  6
CONTINUOUS
 62
   253
 10
-76.2345751821995
 20
97.741431504488
 30
0.0
 40
1.54000000655651
  0
LINE
  5
   5B9
  8
0
  6
DASHDOT
 62
     7
 10
-76.2345751821995
 20
95.9214314967394
 30
0.0
 11
-76.2345751821995
 21
99.5614315122366
 31
0.0
  0
LINE
  5
   5BA
  8
0
  6
DASHDOT
 62
     7
 10
-74.4145751744509
 20
97.741431504488
 30
0.0
 11
-78.0545751899481
 21
97.741431504488
 31
0.0
  0
CIRCLE
  5
   5BB
  8
0
  6
CONTINUOUS
 62
   253
 10
-82.3945752084255
 20
91.5814314782619
 30
0.0
 40
1.54000000655651
  0
LINE
  5
   5BC
  8
0
  6
DASHDOT
 62
     7
 10
-80.5745752006769
 20
91.5814314782619
 30
0.0
 11
-84.2145752161741
 21
91.5814314782619
 31
0.0
  0
LINE
  5
   5BD
  8
0
  6
DASHDOT
 62
     7
 10
-82.3945752084255
 20
89.7614314705134
 30
0.0
 11
-82.3945752084255
 21
93.4014314860106
 31
0.0
  0
CIRCLE
  5
   5BE
  8
0
  6
CONTINUOUS
 62
   253
 10
-62.794575124979
 20
97.741431504488
 30
0.0
 40
1.54000000655651
  0
LINE
  5
   5BF
  8
0
  6
DASHDOT
 62
     7
 10
-60.9745751172304
 20
97.741431504488
 30
0.0
 11
-64.6145751327276
 21
97.741431504488
 31
0.0
  0
LINE
  5
   5C0
  8
0
  6
DASHDOT
 62
     7
 10
-62.794575124979
 20
95.9214314967394
 30
0.0
 11
-62.794575124979
 21
99.5614315122366
 31
0.0
  0
LINE
  5
   5C1
  8
0
  6
DASHDOT
 62
     7
 10
-54.8145750910044
 20
91.5814314782619
 30
0.0
 11
-58.4545751065016
 21
91.5814314782619
 31
0.0
  0
LINE
  5
   5C2
  8
0
  6
DASHDOT
 62
     7
 10
-56.634575098753
 20
89.7614314705134
 30
0.0
 11
-56.634575098753
 21
93.4014314860106
 31
0.0
  0
CIRCLE
  5
   5C3
  8
0
  6
CONTINUOUS
 62
   253
 10
-56.634575098753
 20
91.5814314782619
 30
0.0
 40
1.54000000655651
  0
CIRCLE
  5
   5C4
  8
0
  6
CONTINUOUS
 62
   253
 10
-56.634575098753
 20
-39.4585690796375
 30
0.0
 40
1.54000000655651
  0
LINE
  5
   5C5
  8
0
  6
DASHDOT
 62
     7
 10
-54.8145750910044
 20
-39.4585690796375
 30
0.0
 11
-58.4545751065016
 21
-39.4585690796375
 31
0.0
  0
LINE
  5
   5C6
  8
0
  6
DASHDOT
 62
     7
 10
-56.634575098753
 20
-41.2785690873861
 30
0.0
 11
-56.634575098753
 21
-37.6385690718889
 31
0.0
  0
LINE
  5
   5C7
  8
0
  6
DASHDOT
 62
     7
 10
-60.9745751172304
 20
-45.6185691058635
 30
0.0
 11
-64.6145751327276
 21
-45.6185691058635
 31
0.0
  0
LINE
  5
   5C8
  8
0
  6
DASHDOT
 62
     7
 10
-62.794575124979
 20
-47.4385691136121
 30
0.0
 11
-62.794575124979
 21
-43.7985690981149
 31
0.0
  0
CIRCLE
  5
   5C9
  8
0
  6
CONTINUOUS
 62
   253
 10
-62.794575124979
 20
-45.6185691058635
 30
0.0
 40
1.54000000655651
  0
CIRCLE
  5
   5CA
  8
0
  6
CONTINUOUS
 62
   253
 10
-76.2345751821995
 20
-39.4585690796375
 30
0.0
 40
1.54000000655651
  0
CIRCLE
  5
   5CB
  8
0
  6
CONTINUOUS
 62
   253
 10
-82.3945752084255
 20
-39.4585690796375
 30
0.0
 40
1.54000000655651
  0
LINE
  5
   5CC
  8
0
  6
DASHDOT
 62
     7
 10
-80.5745752006769
 20
-39.4585690796375
 30
0.0
 11
-84.2145752161741
 21
-39.4585690796375
 31
0.0
  0
LINE
  5
   5CD
  8
0
  6
DASHDOT
 62
     7
 10
-82.3945752084255
 20
-41.2785690873861
 30
0.0
 11
-82.3945752084255
 21
-37.6385690718889
 31
0.0
  0
CIRCLE
  5
   5CE
  8
0
  6
CONTINUOUS
 62
   253
 10
-76.2345751821995
 20
-45.6185691058635
 30
0.0
 40
1.54000000655651
  0
LINE
  5
   5CF
  8
0
  6
DASHDOT
 62
     7
 10
-76.2345751821995
 20
-47.4385691136121
 30
0.0
 11
-76.2345751821995
 21
-43.7985690981149
 31
0.0
  0
LINE
  5
   5D0
  8
0
  6
DASHDOT
 62
     7
 10
-74.4145751744509
 20
-45.6185691058635
 30
0.0
 11
-78.0545751899481
 21
-45.6185691058635
 31
0.0
  0
CIRCLE
  5
   5D1
  8
0
  6
CONTINUOUS
 62
     7
 10
-101.994567815065
 20
-39.4585690796375
 30
0.0
 40
1.54000000655651
  0
LINE
  5
   5D2
  8
0
  6
DASHDOT
 62
     7
 10
-100.174567807317
 20
-39.4585690796375
 30
0.0
 11
-103.814567822814
 21
-39.4585690796375
 31
0.0
  0
LINE
  5
   5D3
  8
0
  6
DASHDOT
 62
     7
 10
-101.994567815065
 20
-41.2785690873861
 30
0.0
 11
-101.994567815065
 21
-37.6385690718889
 31
0.0
  0
CIRCLE
  5
   5D4
  8
0
  6
CONTINUOUS
 62
     7
 10
-95.8345677888393
 20
-45.6185691058635
 30
0.0
 40
1.54000000655651
  0
LINE
  5
   5D5
  8
0
  6
DASHDOT
 62
     7
 10
-95.8345677888393
 20
-47.4385691136121
 30
0.0
 11
-95.8345677888393
 21
-43.7985690981149
 31
0.0
  0
LINE
  5
   5D6
  8
0
  6
DASHDOT
 62
     7
 10
-94.0145677810907
 20
-45.6185691058635
 30
0.0
 11
-97.6545677965879
 21
-45.6185691058635
 31
0.0
  0
CIRCLE
  5
   5D7
  8
0
  6
CONTINUOUS
 62
   253
 10
-121.594567898512
 20
-39.4585690796375
 30
0.0
 40
1.54000000655651
  0
LINE
  5
   5D8
  8
0
  6
DASHDOT
 62
     7
 10
-119.774567890763
 20
-39.4585690796375
 30
0.0
 11
-123.41456790626
 21
-39.4585690796375
 31
0.0
  0
LINE
  5
   5D9
  8
0
  6
DASHDOT
 62
     7
 10
-121.594567898512
 20
-41.2785690873861
 30
0.0
 11
-121.594567898512
 21
-37.6385690718889
 31
0.0
  0
CIRCLE
  5
   5DA
  8
0
  6
CONTINUOUS
 62
   253
 10
-115.434567872286
 20
-45.6185691058635
 30
0.0
 40
1.54000000655651
  0
LINE
  5
   5DB
  8
0
  6
DASHDOT
 62
     7
 10
-113.614567864537
 20
-45.6185691058635
 30
0.0
 11
-117.254567880034
 21
-45.6185691058635
 31
0.0
  0
INSERT
  5
   5DC
  8
255
  6
CONTINUOUS
 62
     2
  2
$1MOSTRA
 10
-79.3145763993998
 20
3.38143237474761
 30
0.0
 41
0.280000001192093
 42
0.280000001192093
 50
359.999999792138
 43
0.280000001192093
  0
LINE
  5
   5DD
  8
0
  6
CONTINUOUS
 62
     1
 10
-104.528627426683
 20
51.1914283058365
 30
0.0
 11
-104.528627426683
 21
59.5916834172618
 31
0.0
  0
LINE
  5
   5DE
  8
0
  6
CONTINUOUS
 62
     1
 10
-103.520625713407
 20
51.1914283058365
 30
0.0
 11
-103.520625713407
 21
59.5916834172618
 31
0.0
  0
LINE
  5
   5DF
  8
0
  6
CONTINUOUS
 62
     1
 10
-102.512637084543
 20
51.1914283058365
 30
0.0
 11
-102.512637084543
 21
59.5916834172618
 31
0.0
  0
LINE
  5
   5E0
  8
0
  6
CONTINUOUS
 62
     1
 10
-101.504637240469
 20
51.1914283058365
 30
0.0
 11
-101.504637240469
 21
59.5916834172618
 31
0.0
  0
LINE
  5
   5E1
  8
0
  6
CONTINUOUS
 62
     1
 10
-100.496638998568
 20
51.1914283058365
 30
0.0
 11
-100.496638998568
 21
59.5916834172618
 31
0.0
  0
LINE
  5
   5E2
  8
0
  6
CONTINUOUS
 62
     1
 10
-99.4886362171771
 20
51.1914283058365
 30
0.0
 11
-99.4886362171771
 21
59.5916834172618
 31
0.0
  0
LINE
  5
   5E3
  8
0
  6
DOT
 62
     7
 10
-49.9145750701427
 20
-3.68857352998655
 30
0.0
 11
-49.9145750701427
 21
51.1914283058365
 31
0.0
  0
LINE
  5
   5E4
  8
0
  6
DOT
 62
     7
 10
-42.6345762432357
 20
7.09142898231744
 30
0.0
 11
-49.9145750701427
 21
7.09142898231744
 31
0.0
  0
LINE
  5
   5E5
  8
0
  6
DOT
 62
     7
 10
-42.6345762432356
 20
38.6614376616478
 30
0.0
 11
-49.9145750701427
 21
38.6614376616478
 31
0.0
  0
LINE
  5
   5E6
  8
0
  6
DOT
 62
     7
 10
-42.6345762432356
 20
47.6214355635643
 30
0.0
 11
-49.9145750701427
 21
47.6214355635643
 31
0.0
  0
LINE
  5
   5E7
  8
0
  6
DOT
 62
     7
 10
-42.6345762432356
 20
30.2614335178265
 30
0.0
 11
-49.9145750701427
 21
30.2614506076681
 31
0.0
  0
CIRCLE
  5
   5E8
  8
0
  6
CONTINUOUS
 62
     7
 10
-46.222944036386
 20
49.0948255795471
 30
0.0
 40
0.112000000476837
  0
INSERT
  5
   5E9
  8
0
  6
CONTINUOUS
 62
     7
  2
*UDIM1322
 10
0.0
 20
0.0
 30
0.0
  0
INSERT
  5
   5EA
  8
0
  6
CONTINUOUS
 62
     7
  2
*UDIM1323
 10
0.0
 20
0.0
 30
0.0
  0
INSERT
  5
   5EB
  8
0
  6
CONTINUOUS
 62
     7
  2
*UDIM1324
 10
0.0
 20
0.0
 30
0.0
  0
INSERT
  5
   5EC
  8
0
  6
CONTINUOUS
 62
     7
  2
*UDIM1325
 10
0.0
 20
0.0
 30
0.0
  0
INSERT
  5
   5ED
  8
0
  6
CONTINUOUS
 62
     7
  2
*UDIM1326
 10
0.0
 20
0.0
 30
0.0
  0
INSERT
  5
   5EE
  8
0
  6
CONTINUOUS
 62
     7
  2
*UDIM1327
 10
0.0
 20
0.0
 30
0.0
  0
INSERT
  5
   5EF
  8
0
  6
CONTINUOUS
 62
     7
  2
*UDIM1328
 10
0.0
 20
0.0
 30
0.0
  0
INSERT
  5
   5F0
  8
0
  6
CONTINUOUS
 62
     7
  2
*UDIM1329
 10
0.0
 20
0.0
 30
0.0
  0
INSERT
  5
   5F1
  8
0
  6
CONTINUOUS
 62
     7
  2
*UDIM1330
 10
0.0
 20
0.0
 30
0.0
  0
TEXT
  5
   5F2
  8
0
  6
CONTINUOUS
 62
     7
 10
-80.7638448874726
 20
118.771952870663
 30
0.0
 40
3.99999997888293
  1
Y
 50
359.999999948034
 41
0.915625085663796
 72
     1
 11
-79.2988447602222
 21
120.771952858784
 31
0.0
 73
     2
  0
TEXT
  5
   5F3
  8
0
  6
CONTINUOUS
 62
     7
 10
-80.211184405574
 20
-84.8525707013409
 30
0.0
 40
3.99999997888293
  1
Y
 50
359.999999948034
 41
0.915625085663796
 72
     1
 11
-78.7461842783236
 21
-82.8525707132208
 31
0.0
 73
     2
  0
INSERT
  5
   5F4
  8
0
  6
CONTINUOUS
 62
     7
  2
*UDIM1331
 10
0.0
 20
0.0
 30
0.0
  0
INSERT
  5
   5F5
  8
0
  6
CONTINUOUS
 62
     7
  2
*UDIM1332
 10
0.0
 20
0.0
 30
0.0
  0
INSERT
  5
   5F6
  8
0
  6
CONTINUOUS
 62
     7
  2
*UDIM1333
 10
0.0
 20
0.0
 30
0.0
  0
TEXT
  5
   5F7
  8
0
  6
CONTINUOUS
 62
     7
 10
-93.9172052226632
 20
105.075682071961
 30
0.0
 40
3.99999997888293
  1
=      =
 50
359.999999948034
 41
0.915625085663796
 72
     1
 11
-79.6334539637933
 21
107.075682048519
 31
0.0
 73
     2
  0
INSERT
  5
   5F8
  8
0
  6
CONTINUOUS
 62
     7
  2
*UDIM1334
 10
0.0
 20
0.0
 30
0.0
  0
INSERT
  5
   5F9
  8
0
  6
CONTINUOUS
 62
     7
  2
*UDIM1335
 10
0.0
 20
0.0
 30
0.0
  0
INSERT
  5
   5FA
  8
0
  6
CONTINUOUS
 62
     7
  2
*UDIM1336
 10
0.0
 20
0.0
 30
0.0
  0
INSERT
  5
   5FB
  8
0
  6
CONTINUOUS
 62
     7
  2
*UDIM1337
 10
0.0
 20
0.0
 30
0.0
  0
INSERT
  5
   5FC
  8
0
  6
CONTINUOUS
 62
     7
  2
*UDIM1338
 10
0.0
 20
0.0
 30
0.0
  0
INSERT
  5
   5FD
  8
0
  6
CONTINUOUS
 62
     7
  2
*UDIM1339
 10
0.0
 20
0.0
 30
0.0
  0
INSERT
  5
   5FE
  8
0
  6
CONTINUOUS
 62
     7
  2
*UDIM1340
 10
0.0
 20
0.0
 30
0.0
  0
CIRCLE
  5
   5FF
  8
0
  6
CONTINUOUS
 62
     3
 10
-45.1545978162116
 20
18.9214229596567
 30
0.0
 40
1.47002112952056
  0
LINE
  5
   600
  8
0
  6
DASHDOT
 62
     7
 10
-45.1545978162116
 20
16.6114018265599
 30
0.0
 11
-45.1545978162116
 21
21.2314440927536
 31
0.0
  0
LINE
  5
   601
  8
0
  6
DASHDOT
 62
     7
 10
-42.8445766831148
 20
18.9214229596567
 30
0.0
 11
-47.4646189493085
 21
18.9214229596567
 31
0.0
  0
LINE
  5
   602
  8
0
  6
DASHDOT
 62
     2
 10
-210.221817016602
 20
-59.1394360934586
 30
0.0
 11
-210.221817016602
 21
-144.101864033185
 31
0.0
  0
LINE
  5
   603
  8
0
  6
DASHDOT
 62
     2
 10
-180.240211418428
 20
-103.819058164954
 30
0.0
 11
-264.213527866055
 21
-103.819058164954
 31
0.0
  0
CIRCLE
  5
   604
  8
0
  6
CONTINUOUS
 62
     7
 10
-235.42181801796
 20
-91.5340576767922
 30
0.0
 40
0.765000030398369
  0
CIRCLE
  5
   605
  8
0
  6
CONTINUOUS
 62
     7
 10
-197.621816515923
 20
-91.5340576767922
 30
0.0
 40
0.765000030398369
  0
CIRCLE
  5
   606
  8
0
  6
CONTINUOUS
 62
     7
 10
-197.621816515923
 20
-113.134058535099
 30
0.0
 40
0.765000030398369
  0
CIRCLE
  5
   607
  8
0
  6
CONTINUOUS
 62
     7
 10
-235.42181801796
 20
-113.134058535099
 30
0.0
 40
0.765000030398369
  0
LINE
  5
   608
  8
0
  6
DASHDOT
 62
     7
 10
-235.42181801796
 20
-93.0640577375889
 30
0.0
 11
-235.42181801796
 21
-98.1940579414368
 31
0.0
  0
LINE
  5
   609
  8
0
  6
DASHDOT
 62
     7
 10
-232.856817916036
 20
-91.5340576767922
 30
0.0
 11
-237.986818119884
 21
-91.5340576767922
 31
0.0
  0
LINE
  5
   60A
  8
0
  6
DASHDOT
 62
     7
 10
-197.621816515923
 20
-90.0431729942494
 30
0.0
 11
-197.621816515923
 21
-114.238189920928
 31
0.0
  0
LINE
  5
   60B
  8
0
  6
DASHDOT
 62
     7
 10
-195.056816413999
 20
-91.5340576767922
 30
0.0
 11
-200.186816617847
 21
-91.5340576767922
 31
0.0
  0
LINE
  5
   60C
  8
0
  6
DASHDOT
 62
     7
 10
-197.621816515923
 20
-110.569058433175
 30
0.0
 11
-197.621816515923
 21
-115.699058637023
 31
0.0
  0
LINE
  5
   60D
  8
0
  6
DASHDOT
 62
     7
 10
-195.056816413999
 20
-113.134058535099
 30
0.0
 11
-218.884332613664
 21
-113.134058535099
 31
0.0
  0
LINE
  5
   60E
  8
0
  6
DASHDOT
 62
     7
 10
-235.42181801796
 20
-90.0431729942494
 30
0.0
 11
-235.42181801796
 21
-115.699058637023
 31
0.0
  0
LINE
  5
   60F
  8
0
  6
DASHDOT
 62
     7
 10
-232.856817916036
 20
-113.134058535099
 30
0.0
 11
-237.986818119884
 21
-113.134058535099
 31
0.0
  0
CIRCLE
  5
   610
  8
0
  6
CONTINUOUS
 62
     7
 10
-195.47469725156
 20
-96.9533437965529
 30
0.0
 40
4.50000017881393E-2
  0
LINE
  5
   611
  8
0
  6
CONTINUOUS
 62
     7
 10
-190.961816251278
 20
-65.4340566396713
 30
0.0
 11
-190.961816251278
 21
-87.1240575015545
 31
0.0
  0
LINE
  5
   612
  8
0
  6
CONTINUOUS
 62
     7
 10
-242.081818282604
 20
-65.4340566396713
 30
0.0
 11
-242.081818282604
 21
-87.1240575015545
 31
0.0
  0
LINE
  5
   613
  8
0
  6
CONTINUOUS
 62
     7
 10
-190.961816251278
 20
-87.1240575015545
 30
0.0
 11
-242.081818282604
 21
-87.1240575015545
 31
0.0
  0
LINE
  5
   614
  8
0
  6
CONTINUOUS
 62
     7
 10
-190.961816251278
 20
-65.4340566396713
 30
0.0
 11
-242.081818282604
 21
-65.4340566396713
 31
0.0
  0
LINE
  5
   615
  8
0
  6
CONTINUOUS
 62
     7
 10
-190.961816251278
 20
-139.23405957222
 30
0.0
 11
-242.081818282604
 21
-139.23405957222
 31
0.0
  0
LINE
  5
   616
  8
0
  6
CONTINUOUS
 62
     7
 10
-190.961816251278
 20
-117.544058710337
 30
0.0
 11
-190.961816251278
 21
-139.23405957222
 31
0.0
  0
LINE
  5
   617
  8
0
  6
CONTINUOUS
 62
     7
 10
-190.961816251278
 20
-117.544058710337
 30
0.0
 11
-242.081818282604
 21
-117.544058710337
 31
0.0
  0
LINE
  5
   618
  8
0
  6
CONTINUOUS
 62
     7
 10
-242.081818282604
 20
-117.544058710337
 30
0.0
 11
-242.081818282604
 21
-139.23405957222
 31
0.0
  0
LINE
  5
   619
  8
0
  6
CONTINUOUS
 62
     7
 10
-185.693308919125
 20
-63.0834933420458
 30
0.0
 11
-246.218193874092
 21
-63.0834933420458
 31
0.0
  0
LINE
  5
   61A
  8
0
  6
CONTINUOUS
 62
     7
 10
-185.693308919125
 20
-142.301677775057
 30
0.0
 11
-246.218193874092
 21
-142.301677775057
 31
0.0
  0
LINE
  5
   61B
  8
0
  6
CONTINUOUS
 62
     7
 10
-185.693308919125
 20
-63.0834933420458
 30
0.0
 11
-185.693308919125
 21
-142.301677775057
 31
0.0
  0
LINE
  5
   61C
  8
0
  6
CONTINUOUS
 62
     7
 10
-246.218193874092
 20
-63.0834933420458
 30
0.0
 11
-246.218193874092
 21
-142.301677775057
 31
0.0
  0
INSERT
  5
   61D
  8
0
  6
CONTINUOUS
 62
     7
  2
*UDIM1341
 10
0.0
 20
0.0
 30
0.0
  0
INSERT
  5
   61E
  8
0
  6
CONTINUOUS
 62
     7
  2
*UDIM1342
 10
0.0
 20
0.0
 30
0.0
  0
INSERT
  5
   61F
  8
0
  6
CONTINUOUS
 62
     7
  2
*UDIM1343
 10
0.0
 20
0.0
 30
0.0
  0
INSERT
  5
   620
  8
0
  6
CONTINUOUS
 62
     7
  2
*UDIM1344
 10
0.0
 20
0.0
 30
0.0
  0
INSERT
  5
   621
  8
0
  6
CONTINUOUS
 62
     7
  2
*UDIM1345
 10
0.0
 20
0.0
 30
0.0
  0
INSERT
  5
   622
  8
0
  6
CONTINUOUS
 62
     7
  2
*UDIM1346
 10
0.0
 20
0.0
 30
0.0
  0
INSERT
  5
   623
  8
0
  6
CONTINUOUS
 62
     7
  2
*UDIM1347
 10
0.0
 20
0.0
 30
0.0
  0
INSERT
  5
   624
  8
0
  6
CONTINUOUS
 62
     7
  2
*UDIM1348
 10
0.0
 20
0.0
 30
0.0
  0
INSERT
  5
   625
  8
0
  6
CONTINUOUS
 62
     7
  2
*UDIM1349
 10
0.0
 20
0.0
 30
0.0
  0
INSERT
  5
   626
  8
0
  6
CONTINUOUS
 62
     7
  2
*UDIM1350
 10
0.0
 20
0.0
 30
0.0
  0
INSERT
  5
   627
  8
0
  6
CONTINUOUS
 62
     7
  2
*UDIM1351
 10
0.0
 20
0.0
 30
0.0
  0
TEXT
  5
   628
  8
0
  6
CONTINUOUS
 62
     7
 10
-212.058776988397
 20
-148.041737809086
 30
0.0
 40
3.00000009059906
  1
Y
 50
359.999999896069
 41
0.916666568954785
 72
     2
 11
-209.858777182311
 21
-148.041737813066
 31
0.0
  0
TEXT
  5
   629
  8
0
  6
CONTINUOUS
 62
     7
 10
-211.049903380727
 20
-57.3364915900374
 30
0.0
 40
3.00000009059906
  1
Y
 50
359.999999896069
 41
0.916666568954785
 72
     2
 11
-208.84990357464
 21
-57.336491594017
 31
0.0
  0
TEXT
  5
   62A
  8
0
  6
CONTINUOUS
 62
     7
 10
-280.278547098041
 20
-104.86907831768
 30
0.0
 40
3.00000009059906
  1
X
 50
359.999999896069
 41
0.916666568954785
 72
     2
 11
-278.078547291955
 21
-104.869078321659
 31
0.0
  0
TEXT
  5
   62B
  8
0
  6
CONTINUOUS
 62
     7
 10
-178.843115821266
 20
-105.841762529915
 30
0.0
 40
3.00000009059906
  1
X
 50
359.999999896069
 41
0.916666568954785
 72
     2
 11
-176.643116015179
 21
-105.841762533894
 31
0.0
  0
TEXT
  5
   62C
  8
0
  6
CONTINUOUS
 62
     7
 10
-28.0338765739148
 20
21.472960945515
 30
0.0
 40
4.00000022093455
  1
x
 50
359.999999896069
 41
0.915625067326426
 72
     1
 11
-26.5688763928738
 21
23.4729610533323
 31
0.0
 73
     2
  0
LINE
  5
   62D
  8
0
  6
CONTINUOUS
 62
   253
 10
-246.908636065116
 20
11.5014279435779
 30
0.0
 11
-246.908648882498
 21
12.6214354251529
 31
0.0
  0
LINE
  5
   62E
  8
0
  6
CONTINUOUS
 62
   253
 10
-243.015793956628
 20
9.54142686724657
 30
0.0
 11
-242.988648875942
 21
9.54142740130418
 31
0.0
  0
LINE
  5
   62F
  8
0
  6
CONTINUOUS
 62
   253
 10
-246.908648882498
 20
8.42142899817667
 30
0.0
 11
-246.908636065116
 21
9.54142473048408
 31
0.0
  0
LINE
  5
   630
  8
0
  6
CONTINUOUS
 62
   253
 10
-199.728664899039
 20
8.42139589592766
 30
0.0
 11
-200.288665836024
 21
8.42143114373233
 31
0.0
  0
LINE
  5
   631
  8
0
  6
CONTINUOUS
 62
   253
 10
-212.048670094013
 20
8.42143122312943
 30
0.0
 11
-245.508651010394
 21
8.42143122312943
 31
0.0
  0
LINE
  5
   632
  8
0
  6
CONTINUOUS
 62
   253
 10
-183.488665699959
 20
47.6214377093315
 30
0.0
 11
-246.908648279309
 21
47.6214377093315
 31
0.0
  0
LINE
  5
   633
  8
0
  6
CONTINUOUS
 62
   253
 10
-183.488665699959
 20
8.42134888893109
 30
0.0
 11
-210.648674421316
 21
8.42142748744831
 31
0.0
  0
LINE
  5
   634
  8
0
  6
CONTINUOUS
 62
   253
 10
-211.208653000593
 20
38.661439807415
 30
0.0
 11
-246.908648880124
 21
38.661439807415
 31
0.0
  0
LINE
  5
   635
  8
0
  6
CONTINUOUS
 62
   253
 10
-211.208651932478
 20
30.2614269542694
 30
0.0
 11
-220.868657314181
 21
30.2614269542694
 31
0.0
  0
LINE
  5
   636
  8
0
  6
CONTINUOUS
 62
   253
 10
-246.908636062741
 20
9.54142472982403
 30
0.0
 11
-246.908636062741
 21
11.5014279425144
 31
0.0
  0
LINE
  5
   637
  8
0
  6
CONTINUOUS
 62
   253
 10
-246.908648880124
 20
38.661439807415
 30
0.0
 11
-246.908648880124
 21
47.6214377093315
 31
0.0
  0
LINE
  5
   638
  8
0
  6
CONTINUOUS
 62
   253
 10
-218.278669653005
 20
9.54144181967823
 30
0.0
 11
-211.208665884581
 21
9.54145463706084
 31
0.0
  0
LINE
  5
   639
  8
0
  6
CONTINUOUS
 62
   253
 10
-219.398669591251
 20
9.54144671671457
 30
0.0
 11
-229.723652545366
 21
9.54144671671457
 31
0.0
  0
LINE
  5
   63A
  8
0
  6
CONTINUOUS
 62
   253
 10
-230.843653084197
 20
9.54144786692101
 30
0.0
 11
-245.788618968137
 21
9.54144786692101
 31
0.0
  0
LINE
  5
   63B
  8
0
  6
CONTINUOUS
 62
   253
 10
-230.843650947967
 20
10.8014505425719
 30
0.0
 11
-245.788616831907
 21
10.8014505425719
 31
0.0
  0
LINE
  5
   63C
  8
0
  6
CONTINUOUS
 62
   253
 10
-219.398669057194
 20
10.8014504604827
 30
0.0
 11
-229.723650943193
 21
10.8014504604827
 31
0.0
  0
LINE
  5
   63D
  8
0
  6
CONTINUOUS
 62
   253
 10
-211.208665884734
 20
10.8014507506667
 30
0.0
 11
-218.27866911918
 21
10.8014507506667
 31
0.0
  0
LINE
  5
   63E
  8
0
  6
CONTINUOUS
 62
   253
 10
-245.78861896818
 20
9.54142526389936
 30
0.0
 11
-245.788616831949
 21
10.8014279395519
 31
0.0
  0
LINE
  5
   63F
  8
0
  6
CONTINUOUS
 62
   253
 10
-211.208665884733
 20
9.54145463705072
 30
0.0
 11
-211.208665884733
 21
10.8014503699542
 31
0.0
  0
LINE
  5
   640
  8
0
  6
CONTINUOUS
 62
   253
 10
-218.278669586482
 20
9.54144181967319
 30
0.0
 11
-218.278668518367
 21
10.8014509040171
 31
0.0
  0
LINE
  5
   641
  8
0
  6
CONTINUOUS
 62
   253
 10
-219.398669591251
 20
9.54144128561466
 30
0.0
 11
-219.398668523136
 21
10.8014509040162
 31
0.0
  0
LINE
  5
   642
  8
0
  6
CONTINUOUS
 62
   253
 10
-229.723653079448
 20
9.54143487694013
 30
0.0
 11
-229.723650943217
 21
10.8014444953417
 31
0.0
  0
LINE
  5
   643
  8
0
  6
CONTINUOUS
 62
   253
 10
-230.843653084218
 20
9.54143487693651
 30
0.0
 11
-230.843650947987
 21
10.8014434272228
 31
0.0
  0
LINE
  5
   644
  8
0
  6
CONTINUOUS
 62
   253
 10
-237.948648841977
 20
7.30143112897872
 30
0.0
 11
-237.948648841977
 21
8.42143113374709
 31
0.0
  0
LINE
  5
   645
  8
0
  6
CONTINUOUS
 62
   253
 10
-236.828648837209
 20
7.30143112897872
 30
0.0
 11
-236.828648837209
 21
8.42143113374709
 31
0.0
  0
LINE
  5
   646
  8
0
  6
CONTINUOUS
 62
   253
 10
-236.828648837209
 20
7.30143112897872
 30
0.0
 11
-237.948648841977
 21
7.30143112897872
 31
0.0
  0
LINE
  5
   647
  8
0
  6
CONTINUOUS
 62
   253
 10
-214.498649009168
 20
7.30144608259207
 30
0.0
 11
-214.498649009168
 21
8.42142739534376
 31
0.0
  0
LINE
  5
   648
  8
0
  6
CONTINUOUS
 62
   253
 10
-213.378648737371
 20
7.30144608259207
 30
0.0
 11
-213.378648737371
 21
8.42142686128614
 31
0.0
  0
LINE
  5
   649
  8
0
  6
CONTINUOUS
 62
   253
 10
-213.378648737371
 20
7.30144608259207
 30
0.0
 11
-214.498649009168
 21
7.30144608259207
 31
0.0
  0
LINE
  5
   64A
  8
0
  6
CONTINUOUS
 62
   253
 10
-245.508648874164
 20
7.09143112808465
 30
0.0
 11
-245.508648874164
 21
7.79143113106488
 31
0.0
  0
LINE
  5
   64B
  8
0
  6
CONTINUOUS
 62
   253
 10
-246.908648880124
 20
7.09143112808465
 30
0.0
 11
-246.908648880124
 21
8.42142899751661
 31
0.0
  0
LINE
  5
   64C
  8
0
  6
CONTINUOUS
 62
   253
 10
-245.508648874164
 20
7.09143112808465
 30
0.0
 11
-246.908648880124
 21
7.09143112808465
 31
0.0
  0
LINE
  5
   64D
  8
0
  6
CONTINUOUS
 62
   253
 10
-245.508648874164
 20
7.79143113106488
 30
0.0
 11
-245.508648874164
 21
8.42143113374709
 31
0.0
  0
LINE
  5
   64E
  8
0
  6
CONTINUOUS
 62
   253
 10
-212.048674366474
 20
7.09143112808465
 30
0.0
 11
-212.048674366474
 21
7.79143113106488
 31
0.0
  0
LINE
  5
   64F
  8
0
  6
CONTINUOUS
 62
   253
 10
-210.648674421316
 20
7.09143112808465
 30
0.0
 11
-212.048674427276
 21
7.09143112808465
 31
0.0
  0
LINE
  5
   650
  8
0
  6
CONTINUOUS
 62
   253
 10
-200.288674377209
 20
7.09143112823779
 30
0.0
 11
-200.288665832287
 21
8.42143113390023
 31
0.0
  0
LINE
  5
   651
  8
0
  6
CONTINUOUS
 62
   253
 10
-212.048674366506
 20
7.79143113126771
 30
0.0
 11
-212.048670094045
 21
8.42142686148896
 31
0.0
  0
LINE
  5
   652
  8
0
  6
CONTINUOUS
 62
   253
 10
-246.908648880124
 20
12.6214354240894
 30
0.0
 11
-246.908648880124
 21
30.2614333629608
 31
0.0
  0
LINE
  5
   653
  8
0
  6
CONTINUOUS
 62
   253
 10
-220.868657314182
 20
30.2614312267305
 30
0.0
 11
-236.548648836017
 21
30.2614333629611
 31
0.0
  0
LINE
  5
   654
  8
0
  6
CONTINUOUS
 62
   253
 10
-211.208651932478
 20
30.2614269542698
 30
0.0
 11
-211.208653000593
 21
38.6614398074155
 31
0.0
  0
LINE
  5
   655
  8
0
  6
CONTINUOUS
 62
   253
 10
-232.208648817539
 20
38.521439806819
 30
0.0
 11
-232.208648817539
 21
38.661439807415
 31
0.0
  0
LINE
  5
   656
  8
0
  6
CONTINUOUS
 62
   253
 10
-211.208665817976
 20
43.9114423044024
 30
0.0
 11
-218.278669052422
 21
43.9114423044024
 31
0.0
  0
LINE
  5
   657
  8
0
  6
CONTINUOUS
 62
   253
 10
-218.278669052422
 20
41.8814376848936
 30
0.0
 11
-218.278669052422
 21
43.9114376935363
 31
0.0
  0
LINE
  5
   658
  8
0
  6
CONTINUOUS
 62
   253
 10
-211.208665884733
 20
41.8814422957602
 30
0.0
 11
-218.27866911918
 21
41.8814422957602
 31
0.0
  0
LINE
  5
   659
  8
0
  6
CONTINUOUS
 62
   253
 10
-211.208665884733
 20
41.8814419573546
 30
0.0
 11
-211.208665817976
 21
43.9114419659973
 31
0.0
  0
LINE
  5
   65A
  8
0
  6
CONTINUOUS
 62
   253
 10
-230.843653084189
 20
41.8814376848936
 30
0.0
 11
-230.843653084189
 21
43.9114376935363
 31
0.0
  0
LINE
  5
   65B
  8
0
  6
CONTINUOUS
 62
   253
 10
-219.398669591248
 20
41.8814376848936
 30
0.0
 11
-230.843652550131
 21
41.8814376848936
 31
0.0
  0
LINE
  5
   65C
  8
0
  6
CONTINUOUS
 62
   253
 10
-219.398669591248
 20
41.8814376848936
 30
0.0
 11
-219.398669591248
 21
43.9114376935363
 31
0.0
  0
LINE
  5
   65D
  8
0
  6
CONTINUOUS
 62
   253
 10
-219.398669591248
 20
43.9114376935363
 30
0.0
 11
-230.843652550131
 21
43.9114376935363
 31
0.0
  0
LINE
  5
   65E
  8
0
  6
CONTINUOUS
 62
   253
 10
-231.963653088957
 20
41.8814419573546
 30
0.0
 11
-245.788648875356
 21
41.8814419573546
 31
0.0
  0
LINE
  5
   65F
  8
0
  6
CONTINUOUS
 62
   253
 10
-231.963653088957
 20
41.8814419573546
 30
0.0
 11
-231.963653088957
 21
43.9114419659973
 31
0.0
  0
LINE
  5
   660
  8
0
  6
CONTINUOUS
 62
   253
 10
-231.963653088957
 20
43.9114419659973
 30
0.0
 11
-245.788648875356
 21
43.9114419659973
 31
0.0
  0
LINE
  5
   661
  8
0
  6
CONTINUOUS
 62
   253
 10
-245.788648875356
 20
41.8814419573546
 30
0.0
 11
-245.788648875356
 21
43.9114419659973
 31
0.0
  0
LINE
  5
   662
  8
0
  6
CONTINUOUS
 62
   253
 10
-245.788539927652
 20
9.54141778709268
 30
0.0
 11
-245.788537791421
 21
10.8014279395519
 31
0.0
  0
LINE
  5
   663
  8
0
  6
CONTINUOUS
 62
   253
 10
-246.908648880124
 20
8.42142899751661
 30
0.0
 11
-246.908648880124
 21
8.70143380522728
 31
0.0
  0
LINE
  5
   664
  8
0
  6
CONTINUOUS
 62
   253
 10
-199.728668172212
 20
8.42139588660657
 30
0.0
 11
-200.288665838094
 21
8.42140496558591
 31
0.0
  0
LINE
  5
   665
  8
0
  6
CONTINUOUS
 62
   253
 10
-218.264093017814
 20
9.54143647909166
 30
0.0
 11
-218.264093017814
 21
10.8014455634356
 31
0.0
  0
LINE
  5
   666
  8
0
  6
CONTINUOUS
 62
   253
 10
-219.399010854067
 20
9.54142366170879
 30
0.0
 11
-219.399010854067
 21
10.801445029378
 31
0.0
  0
LINE
  5
   667
  8
0
  6
CONTINUOUS
 62
   253
 10
-234.308665916324
 20
20.3914226397872
 30
0.0
 11
-238.088648842573
 21
20.3914226397872
 31
0.0
  0
LINE
  5
   668
  8
0
  6
CONTINUOUS
 62
   253
 10
-234.308665916324
 20
17.4514226272702
 30
0.0
 11
-238.088648842573
 21
17.4514226272702
 31
0.0
  0
LINE
  5
   669
  8
0
  6
CONTINUOUS
 62
   253
 10
-238.088648842573
 20
17.4514226272702
 30
0.0
 11
-238.088648842573
 21
20.3914226397872
 31
0.0
  0
LINE
  5
   66A
  8
0
  6
CONTINUOUS
 62
   253
 10
-234.308665916324
 20
17.4514226272702
 30
0.0
 11
-234.308665916324
 21
20.3914226397872
 31
0.0
  0
LINE
  5
   66B
  8
0
  6
CONTINUOUS
 62
   132
 10
-225.628648789525
 20
38.521439806819
 30
0.0
 11
-246.908648880124
 21
38.521439806819
 31
0.0
  0
LINE
  5
   66C
  8
0
  6
CONTINUOUS
 62
   132
 10
-236.548648836018
 20
30.2614312267309
 30
0.0
 11
-246.908648880126
 21
30.2614333629614
 31
0.0
  0
LINE
  5
   66D
  8
0
  6
CONTINUOUS
 62
   132
 10
-225.628648789525
 20
30.2614269542694
 30
0.0
 11
-225.628648789525
 21
38.521439806819
 31
0.0
  0
LINE
  5
   66E
  8
0
  6
CONTINUOUS
 62
   132
 10
-246.908648880124
 20
30.2614333629608
 30
0.0
 11
-246.908648880124
 21
38.521439806819
 31
0.0
  0
LINE
  5
   66F
  8
0
  6
CONTINUOUS
 62
     7
 10
-179.428665682673
 20
82.9014335870743
 30
0.0
 11
-200.288665771484
 21
82.9014335870743
 31
0.0
  0
LINE
  5
   670
  8
0
  6
CONTINUOUS
 62
     7
 10
-179.428665682673
 20
50.2814334481955
 30
0.0
 11
-179.428665682673
 21
82.9014335870743
 31
0.0
  0
LINE
  5
   671
  8
0
  6
CONTINUOUS
 62
     7
 10
-179.428665682673
 20
50.2814334481955
 30
0.0
 11
-182.36866569519
 21
50.2814334481955
 31
0.0
  0
LINE
  5
   672
  8
0
  6
CONTINUOUS
 62
     7
 10
-179.428665682673
 20
1.84143324196339
 30
0.0
 11
-182.36866569519
 21
1.84143324196339
 31
0.0
  0
LINE
  5
   673
  8
0
  6
CONTINUOUS
 62
     7
 10
-179.428665682673
 20
-30.7785668969154
 30
0.0
 11
-179.428665682673
 21
1.84143324196339
 31
0.0
  0
LINE
  5
   674
  8
0
  6
CONTINUOUS
 62
     7
 10
-179.428665682673
 20
-30.7785668969154
 30
0.0
 11
-200.288665771484
 21
-30.7785668969154
 31
0.0
  0
LINE
  5
   675
  8
0
  6
CONTINUOUS
 62
     7
 10
-200.288665771484
 20
-30.7785668969154
 30
0.0
 11
-200.288665771484
 21
7.09143326431513
 31
0.0
  0
LINE
  5
   676
  8
0
  6
CONTINUOUS
 62
     7
 10
-200.288665771484
 20
47.6214334368706
 30
0.0
 11
-200.288665771484
 21
82.9014335870743
 31
0.0
  0
LINE
  5
   677
  8
0
  6
CONTINUOUS
 62
     7
 10
-174.668665662408
 20
55.7414334714413
 30
0.0
 11
-179.428665682673
 21
55.7414334714413
 31
0.0
  0
LINE
  5
   678
  8
0
  6
CONTINUOUS
 62
     7
 10
-174.668665662408
 20
71.9814335405827
 30
0.0
 11
-179.428665682673
 21
71.9814335405827
 31
0.0
  0
LINE
  5
   679
  8
0
  6
CONTINUOUS
 62
     7
 10
-174.668665662408
 20
55.7414334714413
 30
0.0
 11
-174.668665662408
 21
71.9814335405827
 31
0.0
  0
LINE
  5
   67A
  8
0
  6
CONTINUOUS
 62
     7
 10
-174.668665662408
 20
-3.61856678128242
 30
0.0
 11
-179.428665682673
 21
-3.61856678128242
 31
0.0
  0
LINE
  5
   67B
  8
0
  6
CONTINUOUS
 62
     7
 10
-174.668665662408
 20
-19.8585668504238
 30
0.0
 11
-179.428665682673
 21
-19.8585668504238
 31
0.0
  0
LINE
  5
   67C
  8
0
  6
CONTINUOUS
 62
     7
 10
-174.668665662408
 20
-19.8585668504238
 30
0.0
 11
-174.668665662408
 21
-3.61856678128242
 31
0.0
  0
LINE
  5
   67D
  8
0
  6
CONTINUOUS
 62
     7
 10
-179.428665682673
 20
78.2814335674048
 30
0.0
 11
-200.288665771484
 21
78.2814335674048
 31
0.0
  0
LINE
  5
   67E
  8
0
  6
CONTINUOUS
 62
   152
 10
-239.068665936589
 20
47.6214377093315
 30
0.0
 11
-239.068665936589
 21
82.9014335870743
 31
0.0
  0
LINE
  5
   67F
  8
0
  6
CONTINUOUS
 62
   152
 10
-200.708665773273
 20
82.9014335870743
 30
0.0
 11
-239.068665936589
 21
82.9014335870743
 31
0.0
  0
LINE
  5
   680
  8
0
  6
CONTINUOUS
 62
   152
 10
-200.708665773273
 20
47.6214334368706
 30
0.0
 11
-200.708665773273
 21
82.9014335870743
 31
0.0
  0
LINE
  5
   681
  8
0
  6
CONTINUOUS
 62
   152
 10
-200.708665773273
 20
4.13743319833279
 30
0.0
 11
-200.708665773273
 21
8.4213987219958
 31
0.0
  0
LINE
  5
   682
  8
0
  6
CONTINUOUS
 62
   152
 10
-200.288665771484
 20
4.13743326508999
 30
0.0
 11
-200.708665773273
 21
4.13743326508999
 31
0.0
  0
LINE
  5
   683
  8
0
  6
CONTINUOUS
 62
   152
 10
-200.288665771484
 20
-10.4785668104887
 30
0.0
 11
-200.708665773273
 21
-10.4785668104887
 31
0.0
  0
LINE
  5
   684
  8
0
  6
CONTINUOUS
 62
   152
 10
-200.708665773273
 20
-30.7785668969154
 30
0.0
 11
-200.708665773273
 21
-10.4785668104887
 31
0.0
  0
LINE
  5
   685
  8
0
  6
CONTINUOUS
 62
   152
 10
-200.708665773273
 20
-30.7785668969154
 30
0.0
 11
-239.068665936589
 21
-30.7785668969154
 31
0.0
  0
LINE
  5
   686
  8
0
  6
CONTINUOUS
 62
   152
 10
-239.068665936589
 20
-30.7785668969154
 30
0.0
 11
-239.068665936589
 21
0.721435373425493
 31
0.0
  0
LINE
  5
   687
  8
0
  6
CONTINUOUS
 62
   152
 10
-239.068665936589
 20
1.00143323838711
 30
0.0
 11
-239.068665936589
 21
7.44142899334429
 31
0.0
  0
LINE
  5
   688
  8
0
  6
CONTINUOUS
 62
   152
 10
-239.488665938393
 20
7.44142872631629
 30
0.0
 11
-239.068665936605
 21
7.44142899334511
 31
0.0
  0
LINE
  5
   689
  8
0
  6
CONTINUOUS
 62
   152
 10
-239.488662164698
 20
7.44142778338384
 30
0.0
 11
-239.587655082527
 21
7.4824327274666
 31
0.0
  0
LINE
  5
   68A
  8
0
  6
CONTINUOUS
 62
   152
 10
-239.587660032098
 20
7.48243421271552
 30
0.0
 11
-239.628667112563
 21
7.58142927119438
 31
0.0
  0
LINE
  5
   68B
  8
0
  6
CONTINUOUS
 62
   152
 10
-238.788665935397
 20
1.00143323838711
 30
0.0
 11
-239.068665936589
 21
1.00143323838711
 31
0.0
  0
LINE
  5
   68C
  8
0
  6
CONTINUOUS
 62
   152
 10
-238.788665935397
 20
0.721435373425493
 30
0.0
 11
-238.788665935397
 21
1.00143323838711
 31
0.0
  0
LINE
  5
   68D
  8
0
  6
CONTINUOUS
 62
   152
 10
-238.788665935397
 20
0.721435373425493
 30
0.0
 11
-239.068665936589
 21
0.721435373425493
 31
0.0
  0
LINE
  5
   68E
  8
0
  6
CONTINUOUS
 62
   152
 10
-200.372665766835
 20
51.121437724233
 30
0.0
 11
-200.372665850282
 21
52.2414377290013
 31
0.0
  0
LINE
  5
   68F
  8
0
  6
CONTINUOUS
 62
     3
 10
-246.908648880124
 20
43.3514270728264
 30
0.0
 11
-249.988665983081
 21
43.3514284551009
 31
0.0
  0
LINE
  5
   690
  8
0
  6
CONTINUOUS
 62
     3
 10
-242.008665949106
 20
4.15142690986392
 30
0.0
 11
-248.728665977717
 21
4.15142709835485
 31
0.0
  0
LINE
  5
   691
  8
0
  6
CONTINUOUS
 62
     3
 10
-251.528665989637
 20
4.15142717689273
 30
0.0
 11
-251.528665989637
 21
39.9914273294806
 31
0.0
  0
LINE
  5
   692
  8
0
  6
CONTINUOUS
 62
     3
 10
-251.528665989637
 20
42.791429143846
 30
0.0
 11
-251.528665989637
 21
43.3514291462302
 31
0.0
  0
LINE
  5
   693
  8
0
  6
CONTINUOUS
 62
     3
 10
-251.528665989637
 20
39.9914291319251
 30
0.0
 11
-251.528665989637
 21
42.791429143846
 31
0.0
  0
LINE
  5
   694
  8
0
  6
CONTINUOUS
 62
   218
 10
-239.068665936589
 20
4.15142684310672
 30
0.0
 11
-242.008665949106
 21
4.15142684310672
 31
0.0
  0
LINE
  5
   695
  8
0
  6
CONTINUOUS
 62
   218
 10
-242.008665949106
 20
4.15142684310672
 30
0.0
 11
-242.008665949106
 21
8.42143122312943
 31
0.0
  0
LINE
  5
   696
  8
0
  6
CONTINUOUS
 62
   253
 10
-191.048665732145
 20
101.661433666945
 30
0.0
 11
-195.528665751219
 21
101.661433666945
 31
0.0
  0
LINE
  5
   697
  8
0
  6
CONTINUOUS
 62
   253
 10
-237.388648839593
 20
18.1864226303994
 30
0.0
 11
-237.388648839593
 21
18.5409589173092
 31
0.0
  0
LINE
  5
   698
  8
0
  6
CONTINUOUS
 62
   253
 10
-237.388648839593
 20
18.5409589173092
 30
0.0
 11
-237.388648839593
 21
18.9214226335287
 31
0.0
  0
LINE
  5
   699
  8
0
  6
CONTINUOUS
 62
   253
 10
-237.388648839593
 20
18.9214226335287
 30
0.0
 11
-237.388648839593
 21
19.3018863497481
 31
0.0
  0
LINE
  5
   69A
  8
0
  6
CONTINUOUS
 62
   253
 10
-237.388648839593
 20
19.3018863497481
 30
0.0
 11
-237.388648839593
 21
19.6564226366579
 31
0.0
  0
LINE
  5
   69B
  8
0
  6
CONTINUOUS
 62
   253
 10
-237.388648839593
 20
19.6564226366579
 30
0.0
 11
-237.388648839593
 21
19.9608696594385
 31
0.0
  0
LINE
  5
   69C
  8
0
  6
CONTINUOUS
 62
   253
 10
-237.388648839593
 20
19.9608696594385
 30
0.0
 11
-237.388648839593
 21
20.1944803476889
 31
0.0
  0
LINE
  5
   69D
  8
0
  6
CONTINUOUS
 62
   253
 10
-237.388648839593
 20
20.1944803476889
 30
0.0
 11
-237.388648839593
 21
20.3413333756579
 31
0.0
  0
LINE
  5
   69E
  8
0
  6
CONTINUOUS
 62
   253
 10
-237.388648839593
 20
20.3413333756579
 30
0.0
 11
-237.388648839593
 21
20.3914226397872
 31
0.0
  0
LINE
  5
   69F
  8
0
  6
CONTINUOUS
 62
   253
 10
-237.388648839593
 20
17.4514226272702
 30
0.0
 11
-237.388648839593
 21
17.5015118913994
 31
0.0
  0
LINE
  5
   6A0
  8
0
  6
CONTINUOUS
 62
   253
 10
-237.388648839593
 20
17.5015118913994
 30
0.0
 11
-237.388648839593
 21
17.6483649193684
 31
0.0
  0
LINE
  5
   6A1
  8
0
  6
CONTINUOUS
 62
   253
 10
-237.388648839593
 20
17.6483649193684
 30
0.0
 11
-237.388648839593
 21
17.8819756076189
 31
0.0
  0
LINE
  5
   6A2
  8
0
  6
CONTINUOUS
 62
   253
 10
-237.388648839593
 20
17.8819756076189
 30
0.0
 11
-237.388648839593
 21
18.1864226303994
 31
0.0
  0
LINE
  5
   6A3
  8
0
  6
CONTINUOUS
 62
   152
 10
-200.288665771484
 20
-25.1785668730736
 30
0.0
 11
-200.708665773273
 21
-25.1785668730736
 31
0.0
  0
LINE
  5
   6A4
  8
0
  6
CONTINUOUS
 62
   152
 10
-200.288665771484
 20
-28.5385668873787
 30
0.0
 11
-200.708665773273
 21
-28.5385668873787
 31
0.0
  0
LINE
  5
   6A5
  8
0
  6
CONTINUOUS
 62
   152
 10
-200.288665771484
 20
77.3014335632324
 30
0.0
 11
-200.708665773273
 21
77.3014335632324
 31
0.0
  0
LINE
  5
   6A6
  8
0
  6
CONTINUOUS
 62
   152
 10
-200.288665771484
 20
80.6614335775375
 30
0.0
 11
-200.708665773273
 21
80.6614335775375
 31
0.0
  0
LINE
  5
   6A7
  8
0
  6
CONTINUOUS
 62
   152
 10
-200.372665758491
 20
51.1214377242327
 30
0.0
 11
-200.708665773273
 21
51.1214377242327
 31
0.0
  0
LINE
  5
   6A8
  8
0
  6
CONTINUOUS
 62
   152
 10
-200.372665858626
 20
52.2414377290011
 30
0.0
 11
-200.70866584003
 21
52.2414377290011
 31
0.0
  0
LINE
  5
   6A9
  8
0
  6
CONTINUOUS
 62
     7
 10
-210.648674421316
 20
7.09143112808465
 30
0.0
 11
-210.648674421316
 21
8.42143122312943
 31
0.0
  0
LINE
  5
   6AA
  8
0
  6
CONTINUOUS
 62
     7
 10
-239.628667112563
 20
7.58142927119438
 30
0.0
 11
-239.628667112563
 21
8.42143122312943
 31
0.0
  0
LINE
  5
   6AB
  8
0
  6
CONTINUOUS
 62
     7
 10
-182.36866569519
 20
1.84143324196339
 30
0.0
 11
-182.36866569519
 21
50.2814334481955
 31
0.0
  0
LINE
  5
   6AC
  8
0
  6
CONTINUOUS
 62
   253
 10
-191.048665732145
 20
82.9014335870743
 30
0.0
 11
-191.048665732145
 21
101.661433666945
 31
0.0
  0
LINE
  5
   6AD
  8
0
  6
CONTINUOUS
 62
   253
 10
-195.528665751219
 20
82.9014335870743
 30
0.0
 11
-195.528665751219
 21
101.661433666945
 31
0.0
  0
LINE
  5
   6AE
  8
0
  6
CONTINUOUS
 62
   253
 10
-193.288665741682
 20
82.9014335870743
 30
0.0
 11
-193.288665741682
 21
101.661433666945
 31
0.0
  0
LINE
  5
   6AF
  8
0
  6
CONTINUOUS
 62
   253
 10
-191.048665732145
 20
-49.5385669767857
 30
0.0
 11
-195.528665751219
 21
-49.5385669767857
 31
0.0
  0
LINE
  5
   6B0
  8
0
  6
CONTINUOUS
 62
   253
 10
-195.528665751219
 20
-49.5385669767857
 30
0.0
 11
-195.528665751219
 21
-30.7785668969154
 31
0.0
  0
LINE
  5
   6B1
  8
0
  6
CONTINUOUS
 62
   253
 10
-193.288665741682
 20
-49.5385669767857
 30
0.0
 11
-193.288665741682
 21
-30.7785668969154
 31
0.0
  0
LINE
  5
   6B2
  8
0
  6
CONTINUOUS
 62
   253
 10
-191.048665732145
 20
-49.5385669767857
 30
0.0
 11
-191.048665732145
 21
-30.7785668969154
 31
0.0
  0
LINE
  5
   6B3
  8
0
  6
DASHDOT
 62
     7
 10
-168.933794511095
 20
63.861429233551
 30
0.0
 11
-188.226102892086
 21
63.861429233551
 31
0.0
  0
LINE
  5
   6B4
  8
0
  6
DASHDOT
 62
     7
 10
-168.933794511095
 20
-11.7385625433922
 30
0.0
 11
-188.226102892086
 21
-11.7385625433922
 31
0.0
  0
LINE
  5
   6B5
  8
0
  6
DASHDOT
 62
     7
 10
-177.230585430711
 20
23.7514269893819
 30
0.0
 11
-264.92374439826
 21
23.7514269893819
 31
0.0
  0
LINE
  5
   6B6
  8
0
  6
CONTINUOUS
 62
   253
 10
-183.488665699959
 20
8.42134888893109
 30
0.0
 11
-183.488665699959
 21
47.6214377093315
 31
0.0
  0
LINE
  5
   6B7
  8
0
  6
CONTINUOUS
 62
   132
 10
-253.160389374946
 20
14.6883950679559
 30
0.0
 11
-253.858774414861
 21
16.848551291372
 31
0.0
  0
LINE
  5
   6B8
  8
0
  6
CONTINUOUS
 62
   132
 10
-253.028310497714
 20
14.5288700766208
 30
0.0
 11
-253.160385077625
 21
14.6883973551338
 31
0.0
  0
LINE
  5
   6B9
  8
0
  6
CONTINUOUS
 62
   132
 10
-252.822738394656
 20
14.5037409678455
 30
0.0
 11
-253.028312127487
 21
14.5288694462072
 31
0.0
  0
LINE
  5
   6BA
  8
0
  6
CONTINUOUS
 62
   132
 10
-252.822738543937
 20
14.5037409003413
 30
0.0
 11
-251.528665989637
 21
14.8441152805109
 31
0.0
  0
LINE
  5
   6BB
  8
0
  6
CONTINUOUS
 62
   132
 10
-253.693132840117
 20
17.1959214238012
 30
0.0
 11
-251.528665989637
 21
18.0309453242251
 31
0.0
  0
LINE
  5
   6BC
  8
0
  6
CONTINUOUS
 62
   132
 10
-253.845090896601
 20
17.0552030679165
 30
0.0
 11
-253.693132272239
 21
17.1959208439017
 31
0.0
  0
LINE
  5
   6BD
  8
0
  6
CONTINUOUS
 62
   132
 10
-253.858772574107
 20
16.8485524851893
 30
0.0
 11
-253.845087881804
 21
17.05520501829
 31
0.0
  0
LINE
  5
   6BE
  8
0
  6
DASHDOT
 62
     7
 10
-189.079683132047
 20
91.5814336240292
 30
0.0
 11
-197.579559354877
 21
91.5814336240292
 31
0.0
  0
LINE
  5
   6BF
  8
0
  6
DASHDOT
 62
     7
 10
-189.079683132047
 20
97.7414336502552
 30
0.0
 11
-197.699275921396
 21
97.7414336502552
 31
0.0
  0
LINE
  5
   6C0
  8
0
  6
DASHDOT
 62
     7
 10
-189.199399698566
 20
-45.6185669600963
 30
0.0
 11
-197.938709054433
 21
-45.6185669600963
 31
0.0
  0
LINE
  5
   6C1
  8
0
  6
DASHDOT
 62
     7
 10
-189.438832831603
 20
-39.4585669338703
 30
0.0
 11
-197.938709054433
 21
-39.4585669338703
 31
0.0
  0
LINE
  5
   6C2
  8
0
  6
DOT
 62
     7
 10
-181.528665691614
 20
-42.8070479798685
 30
0.0
 11
-181.528665691614
 21
90.4207671926355
 31
0.0
  0
LINE
  5
   6C3
  8
0
  6
DASHDOT
 62
     7
 10
-177.347459613212
 20
26.0614333450794
 30
0.0
 11
-187.403651200785
 21
26.0614333450794
 31
0.0
  0
LINE
  5
   6C4
  8
0
  6
DOT
 62
     7
 10
-176.768665671349
 20
48.4614334404469
 30
0.0
 11
-182.36866569519
 21
48.4614334404469
 31
0.0
  0
LINE
  5
   6C5
  8
0
  6
DOT
 62
     7
 10
-176.768665671349
 20
3.66143324971199
 30
0.0
 11
-182.36866569519
 21
3.66143324971199
 31
0.0
  0
LINE
  5
   6C6
  8
0
  6
DOT
 62
     7
 10
-176.768665671349
 20
47.6214334368706
 30
0.0
 11
-181.528665691614
 21
47.6214334368706
 31
0.0
  0
LINE
  5
   6C7
  8
0
  6
DOT
 62
     7
 10
-176.768665671349
 20
4.50143325328827
 30
0.0
 11
-181.528665691614
 21
4.50143325328827
 31
0.0
  0
LINE
  5
   6C8
  8
0
  6
DOT
 62
     7
 10
-176.768665671349
 20
3.66143324971199
 30
0.0
 11
-176.768665671349
 21
4.50143325328827
 31
0.0
  0
LINE
  5
   6C9
  8
0
  6
DOT
 62
     7
 10
-176.768665671349
 20
47.6214334368706
 30
0.0
 11
-176.768665671349
 21
48.4614334404469
 31
0.0
  0
CIRCLE
  5
   6CA
  8
0
  6
CONTINUOUS
 62
   253
 10
-243.548668249016
 20
26.0614227867873
 30
0.0
 40
2.79999899113124
  0
CIRCLE
  5
   6CB
  8
0
  6
CONTINUOUS
 62
   253
 10
-243.548669283974
 20
26.061423777323
 30
0.0
 40
0.769998094963305
  0
LINE
  5
   6CC
  8
0
  6
DASHDOT
 62
     7
 10
-243.548668249016
 20
22.9814237944639
 30
0.0
 11
-243.548668249016
 21
29.1414217791106
 31
0.0
  0
LINE
  5
   6CD
  8
0
  6
DASHDOT
 62
     7
 10
-240.468669256693
 20
26.0614227867873
 30
0.0
 11
-246.628667241339
 21
26.0614227867873
 31
0.0
  0
CIRCLE
  5
   6CE
  8
0
  6
CONTINUOUS
 62
   253
 10
-193.288667039057
 20
41.1814317234996
 30
0.0
 40
1.67999992968917
  0
CIRCLE
  5
   6CF
  8
0
  6
CONTINUOUS
 62
   253
 10
-193.288663794781
 20
41.1814313264579
 30
0.0
 40
0.909999007111326
  0
CIRCLE
  5
   6D0
  8
0
  6
CONTINUOUS
 62
   253
 10
-193.288665381508
 20
13.181437355438
 30
0.0
 40
1.6799996624082
  0
CIRCLE
  5
   6D1
  8
0
  6
CONTINUOUS
 62
   253
 10
-193.288666282694
 20
13.1814343221515
 30
0.0
 40
0.909999973193807
  0
LINE
  5
   6D2
  8
0
  6
DASHDOT
 62
     7
 10
-193.288665381508
 20
11.2214376918377
 30
0.0
 11
-193.288665381508
 21
15.1414370190382
 31
0.0
  0
LINE
  5
   6D3
  8
0
  6
DASHDOT
 62
     7
 10
-191.328665717908
 20
13.181437355438
 30
0.0
 11
-195.248665045109
 21
13.181437355438
 31
0.0
  0
LINE
  5
   6D4
  8
0
  6
DASHDOT
 62
     7
 10
-193.288667039057
 20
39.2214317926184
 30
0.0
 11
-193.288667039057
 21
43.1414316543809
 31
0.0
  0
LINE
  5
   6D5
  8
0
  6
DASHDOT
 62
     7
 10
-191.328667108175
 20
41.1814317234996
 30
0.0
 11
-195.248666969938
 21
41.1814317234996
 31
0.0
  0
LINE
  5
   6D6
  8
0
  6
CONTINUOUS
 62
     7
 10
-248.698746917853
 20
56.7518940258842
 30
0.0
 11
-251.228431763246
 21
57.4455172899434
 31
0.0
  0
LINE
  5
   6D7
  8
0
  6
CONTINUOUS
 62
     7
 10
-250.54866705358
 20
49.3714270984584
 30
0.0
 11
-250.54866705358
 21
57.2591301921319
 31
0.0
  0
LINE
  5
   6D8
  8
0
  6
CONTINUOUS
 62
     7
 10
-249.988667051196
 20
49.3714270984584
 30
0.0
 11
-249.988667051196
 21
57.1055818043814
 31
0.0
  0
LINE
  5
   6D9
  8
0
  6
CONTINUOUS
 62
     7
 10
-249.988667051196
 20
49.5114270990544
 30
0.0
 11
-250.548665985465
 21
49.5114270990544
 31
0.0
  0
LINE
  5
   6DA
  8
0
  6
CONTINUOUS
 62
     1
 10
-250.548665985465
 20
1.21142582530315
 30
0.0
 11
-250.548665985465
 21
49.3714270984584
 31
0.0
  0
LINE
  5
   6DB
  8
0
  6
CONTINUOUS
 62
     1
 10
-251.528665989637
 20
18.5014253648573
 30
0.0
 11
-251.528665989637
 21
51.191427106207
 31
0.0
  0
LINE
  5
   6DC
  8
0
  6
CONTINUOUS
 62
     7
 10
-249.008665978909
 20
49.3714270984584
 30
0.0
 11
-250.548665985465
 21
49.3714270984584
 31
0.0
  0
LINE
  5
   6DD
  8
0
  6
CONTINUOUS
 62
     7
 10
-248.72866556616
 20
49.2097692838063
 30
0.0
 11
-249.008665576572
 21
49.3714263910135
 31
0.0
  0
LINE
  5
   6DE
  8
0
  6
CONTINUOUS
 62
     7
 10
-249.008665978909
 20
47.6914265199952
 30
0.0
 11
-249.008665978909
 21
49.3714266233013
 31
0.0
  0
LINE
  5
   6DF
  8
0
  6
CONTINUOUS
 62
     7
 10
-248.728665977717
 20
47.8530841964862
 30
0.0
 11
-248.728665977717
 21
49.2097699932779
 31
0.0
  0
LINE
  5
   6E0
  8
0
  6
CONTINUOUS
 62
     7
 10
-249.988667051196
 20
47.5514270907098
 30
0.0
 11
-250.548665985465
 21
47.5514270907098
 31
0.0
  0
LINE
  5
   6E1
  8
0
  6
CONTINUOUS
 62
     1
 10
-249.988665983081
 20
24.5914275270158
 30
0.0
 11
-249.988665983081
 21
47.6914270913058
 31
0.0
  0
LINE
  5
   6E2
  8
0
  6
CONTINUOUS
 62
     7
 10
-249.008665978909
 20
47.6914270913058
 30
0.0
 11
-250.548665985465
 21
47.6914270913058
 31
0.0
  0
LINE
  5
   6E3
  8
0
  6
CONTINUOUS
 62
     7
 10
-249.008666029705
 20
47.6914264906684
 30
0.0
 11
-248.728666019293
 21
47.8530835978757
 31
0.0
  0
LINE
  5
   6E4
  8
0
  6
CONTINUOUS
 62
     7
 10
-249.988665983081
 20
24.7314275276118
 30
0.0
 11
-250.548665985465
 21
24.7314275276118
 31
0.0
  0
LINE
  5
   6E5
  8
0
  6
CONTINUOUS
 62
     7
 10
-249.008665978909
 20
24.5914275270158
 30
0.0
 11
-250.548665985465
 21
24.5914275270158
 31
0.0
  0
LINE
  5
   6E6
  8
0
  6
CONTINUOUS
 62
     7
 10
-249.988665983081
 20
22.7714275192672
 30
0.0
 11
-250.548665985465
 21
22.7714275192672
 31
0.0
  0
LINE
  5
   6E7
  8
0
  6
CONTINUOUS
 62
     7
 10
-249.008665978909
 20
22.9114275198632
 30
0.0
 11
-250.548665985465
 21
22.9114275198632
 31
0.0
  0
LINE
  5
   6E8
  8
0
  6
CONTINUOUS
 62
     7
 10
-249.008665940824
 20
22.911427175802
 30
0.0
 11
-248.728665930412
 21
23.0730842830092
 31
0.0
  0
LINE
  5
   6E9
  8
0
  6
CONTINUOUS
 62
     7
 10
-248.728665977717
 20
23.0730846250437
 30
0.0
 11
-248.728665977717
 21
24.4297682856049
 31
0.0
  0
LINE
  5
   6EA
  8
0
  6
CONTINUOUS
 62
     7
 10
-249.008665978909
 20
22.9114275198632
 30
0.0
 11
-249.008665978909
 21
24.5914275270158
 31
0.0
  0
LINE
  5
   6EB
  8
0
  6
CONTINUOUS
 62
     7
 10
-248.728665529829
 20
24.4297676552723
 30
0.0
 11
-249.00866554024
 21
24.5914268960427
 31
0.0
  0
LINE
  5
   6EC
  8
0
  6
CONTINUOUS
 62
     1
 10
-249.988665983081
 20
14.3714253472739
 30
0.0
 11
-249.988665983081
 21
22.9114296560937
 31
0.0
  0
INSERT
  5
   6ED
  8
0
  6
CONTINUOUS
 62
     7
  2
*HATCH279
 10
-200.288665771484
 20
3.3814332485199
 30
0.0
 41
0.280000001192093
 42
0.280000001192093
 50
89.9999999480344
 43
0.280000001192093
  0
LINE
  5
   6EE
  8
0
  6
CONTINUOUS
 62
     7
 10
-249.988665983081
 20
14.651425348466
 30
0.0
 11
-250.548665985465
 21
14.651425348466
 31
0.0
  0
LINE
  5
   6EF
  8
0
  6
CONTINUOUS
 62
     1
 10
-251.528665989637
 20
14.651425348466
 30
0.0
 11
-251.528665989637
 21
18.5014275010877
 31
0.0
  0
LINE
  5
   6F0
  8
0
  6
CONTINUOUS
 62
     7
 10
-250.968665987253
 20
9.33142532581622
 30
0.0
 11
-250.968665987253
 21
15.7714253532344
 31
0.0
  0
LINE
  5
   6F1
  8
0
  6
CONTINUOUS
 62
     7
 10
-251.248665988445
 20
14.651425348466
 30
0.0
 11
-251.528665989637
 21
14.651425348466
 31
0.0
  0
LINE
  5
   6F2
  8
0
  6
CONTINUOUS
 62
     7
 10
-251.248665988445
 20
14.651425348466
 30
0.0
 11
-251.248665988445
 21
15.7714253532344
 31
0.0
  0
LINE
  5
   6F3
  8
0
  6
CONTINUOUS
 62
     7
 10
-250.968665987253
 20
15.7714253532344
 30
0.0
 11
-251.248665988445
 21
15.7714253532344
 31
0.0
  0
LINE
  5
   6F4
  8
0
  6
CONTINUOUS
 62
     7
 10
-247.748665973544
 20
14.3714253472739
 30
0.0
 11
-250.548665985465
 21
14.3714253472739
 31
0.0
  0
LINE
  5
   6F5
  8
0
  6
CONTINUOUS
 62
     7
 10
-251.248665988445
 20
9.33142532581622
 30
0.0
 11
-251.248665988445
 21
10.4514253305846
 31
0.0
  0
LINE
  5
   6F6
  8
0
  6
CONTINUOUS
 62
     7
 10
-251.248665988445
 20
10.4514253305846
 30
0.0
 11
-251.528665989637
 21
10.4514253305846
 31
0.0
  0
LINE
  5
   6F7
  8
0
  6
CONTINUOUS
 62
     7
 10
-247.748665973544
 20
10.7314830099996
 30
0.0
 11
-250.548665985465
 21
10.7314830099996
 31
0.0
  0
LINE
  5
   6F8
  8
0
  6
CONTINUOUS
 62
     7
 10
-247.748665973544
 20
10.7314830099996
 30
0.0
 11
-247.748665973544
 21
14.3714253472739
 31
0.0
  0
LINE
  5
   6F9
  8
0
  6
CONTINUOUS
 62
     7
 10
-250.968665987253
 20
9.33142532581622
 30
0.0
 11
-251.248665988445
 21
9.33142532581622
 31
0.0
  0
LINE
  5
   6FA
  8
0
  6
CONTINUOUS
 62
     7
 10
-249.988665983081
 20
10.4514830088075
 30
0.0
 11
-250.548665985465
 21
10.4514830088075
 31
0.0
  0
LINE
  5
   6FB
  8
0
  6
CONTINUOUS
 62
     7
 10
-249.988667051196
 20
-0.188573112542079
 30
0.0
 11
-249.988667051196
 21
10.7314830099996
 31
0.0
  0
LINE
  5
   6FC
  8
0
  6
CONTINUOUS
 62
     1
 10
-251.528665989637
 20
-3.68857312744323
 30
0.0
 11
-251.528665989637
 21
10.4514253305846
 31
0.0
  0
LINE
  5
   6FD
  8
0
  6
CONTINUOUS
 62
     7
 10
-250.54866705358
 20
-17.8619290412403
 30
0.0
 11
-250.54866705358
 21
10.7314830099996
 31
0.0
  0
LINE
  5
   6FE
  8
0
  6
CONTINUOUS
 62
     7
 10
-249.988667051196
 20
-17.7452878193697
 30
0.0
 11
-249.988667051196
 21
-1.86857311969464
 31
0.0
  0
LINE
  5
   6FF
  8
0
  6
CONTINUOUS
 62
     7
 10
-252.349181646606
 20
-18.236954436298
 30
0.0
 11
-248.165667017213
 21
-17.3655789791398
 31
0.0
  0
LINE
  5
   700
  8
0
  6
CONTINUOUS
 62
     1
 10
-228.708665892482
 20
47.6214334368706
 30
0.0
 11
-228.708665892482
 21
82.9014335870743
 31
0.0
  0
LINE
  5
   701
  8
0
  6
CONTINUOUS
 62
     1
 10
-200.708665773273
 20
1.70143324136734
 30
0.0
 11
-239.068665936589
 21
1.70143324136734
 31
0.0
  0
LINE
  5
   702
  8
0
  6
CONTINUOUS
 62
     1
 10
-228.708665892482
 20
1.70143324136734
 30
0.0
 11
-228.708665892482
 21
8.42143122312943
 31
0.0
  0
CIRCLE
  5
   703
  8
0
  6
CONTINUOUS
 62
     7
 10
-226.641537007674
 20
75.2933970802182
 30
0.0
 40
4.66666657063697E-2
  0
LINE
  5
   704
  8
0
  6
CONTINUOUS
 62
   253
 10
-203.018662578761
 20
43.9114429857863
 30
0.0
 11
-210.088665813207
 21
43.9114429857863
 31
0.0
  0
LINE
  5
   705
  8
0
  6
CONTINUOUS
 62
   253
 10
-203.018662645519
 20
41.881442977144
 30
0.0
 11
-210.088665879965
 21
41.881442977144
 31
0.0
  0
LINE
  5
   706
  8
0
  6
CONTINUOUS
 62
   253
 10
-210.088665879965
 20
41.8814419205231
 30
0.0
 11
-210.088665813208
 21
43.9114419291657
 31
0.0
  0
LINE
  5
   707
  8
0
  6
CONTINUOUS
 62
   253
 10
-203.018662712276
 20
41.8814371830634
 30
0.0
 11
-203.018662578762
 21
43.9114371917061
 31
0.0
  0
LINE
  5
   708
  8
0
  6
CONTINUOUS
 62
   253
 10
-203.01866468967
 20
10.8014514320506
 30
0.0
 11
-210.088667924116
 21
10.8014514320506
 31
0.0
  0
LINE
  5
   709
  8
0
  6
CONTINUOUS
 62
   253
 10
-210.088668006987
 20
9.54145460021923
 30
0.0
 11
-210.088667924116
 21
10.8014503331227
 31
0.0
  0
LINE
  5
   70A
  8
0
  6
CONTINUOUS
 62
   253
 10
-203.018664239109
 20
9.54144131784805
 30
0.0
 11
-210.08866800752
 21
9.54145460022935
 31
0.0
  0
LINE
  5
   70B
  8
0
  6
CONTINUOUS
 62
   253
 10
-203.033240873907
 20
9.54143597822019
 30
0.0
 11
-203.033240791035
 21
10.8014450625641
 31
0.0
  0
LINE
  5
   70C
  8
0
  6
DASHDOT
 62
     7
 10
-177.347459613212
 20
42.861433416605
 30
0.0
 11
-187.5957337684
 21
42.861433416605
 31
0.0
  0
LINE
  5
   70D
  8
0
  6
DASHDOT
 62
     7
 10
-177.347459613212
 20
9.26143327355385
 30
0.0
 11
-187.403651200785
 21
9.26143327355385
 31
0.0
  0
LINE
  5
   70E
  8
0
  6
CONTINUOUS
 62
     7
 10
-180.128665685654
 20
7.2482332649827
 30
0.0
 11
-181.528665691614
 21
7.2482332649827
 31
0.0
  0
LINE
  5
   70F
  8
0
  6
CONTINUOUS
 62
     7
 10
-180.128665685654
 20
11.274633282125
 30
0.0
 11
-181.528665691614
 21
11.274633282125
 31
0.0
  0
LINE
  5
   710
  8
0
  6
CONTINUOUS
 62
     7
 10
-180.128665685654
 20
7.2482332649827
 30
0.0
 11
-180.128665685654
 21
11.274633282125
 31
0.0
  0
LINE
  5
   711
  8
0
  6
CONTINUOUS
 62
     7
 10
-180.128665685654
 20
40.8482334080338
 30
0.0
 11
-180.128665685654
 21
44.8746334251761
 31
0.0
  0
LINE
  5
   712
  8
0
  6
CONTINUOUS
 62
     7
 10
-180.128665685654
 20
44.8746334251761
 30
0.0
 11
-181.528665691614
 21
44.8746334251761
 31
0.0
  0
LINE
  5
   713
  8
0
  6
CONTINUOUS
 62
     7
 10
-180.128665685654
 20
40.8482334080338
 30
0.0
 11
-181.528665691614
 21
40.8482334080338
 31
0.0
  0
LINE
  5
   714
  8
0
  6
CONTINUOUS
 62
     7
 10
-250.548665985465
 20
51.191427106207
 30
0.0
 11
-251.528665989637
 21
51.191427106207
 31
0.0
  0
LINE
  5
   715
  8
0
  6
CONTINUOUS
 62
     7
 10
-250.548665985465
 20
-3.68857312744323
 30
0.0
 11
-251.528665989637
 21
-3.68857312744323
 31
0.0
  0
LINE
  5
   716
  8
0
  6
CONTINUOUS
 62
     7
 10
-249.988667051196
 20
-2.00857312029068
 30
0.0
 11
-250.548665985465
 21
-2.00857312029068
 31
0.0
  0
LINE
  5
   717
  8
0
  6
CONTINUOUS
 62
     7
 10
-249.008665978909
 20
-1.86857311969464
 30
0.0
 11
-250.548665985465
 21
-1.86857311969464
 31
0.0
  0
LINE
  5
   718
  8
0
  6
CONTINUOUS
 62
     7
 10
-249.008665978909
 20
-0.188573112542079
 30
0.0
 11
-250.548665985465
 21
-0.188573112542079
 31
0.0
  0
LINE
  5
   719
  8
0
  6
CONTINUOUS
 62
     7
 10
-249.988667051196
 20
-4.85731119460326E-2
 30
0.0
 11
-250.548665985465
 21
-4.85731119460326E-2
 31
0.0
  0
LINE
  5
   71A
  8
0
  6
CONTINUOUS
 62
     7
 10
-249.008665978909
 20
-1.86857264453754
 30
0.0
 11
-249.008665978909
 21
-0.188572541231484
 31
0.0
  0
LINE
  5
   71B
  8
0
  6
CONTINUOUS
 62
     7
 10
-248.728665977717
 20
-1.7069160145142
 30
0.0
 11
-248.728665977717
 21
-0.350230217722518
 31
0.0
  0
LINE
  5
   71C
  8
0
  6
CONTINUOUS
 62
     7
 10
-249.008665576572
 20
-1.86857241224977
 30
0.0
 11
-248.72866556616
 21
-1.70691530504254
 31
0.0
  0
LINE
  5
   71D
  8
0
  6
CONTINUOUS
 62
     7
 10
-248.728666019293
 20
-0.350229619111925
 30
0.0
 11
-249.008666029705
 21
-0.188572511904691
 31
0.0
  0
INSERT
  5
   71E
  8
0
  6
CONTINUOUS
 62
     7
  2
*HATCH280
 10
-200.288665771484
 20
3.3814332485199
 30
0.0
 41
0.280000001192093
 42
0.280000001192093
 50
89.9999999480344
 43
0.280000001192093
  0
INSERT
  5
   71F
  8
0
  6
CONTINUOUS
 62
     7
  2
*HATCH281
 10
-200.288665771484
 20
3.3814332485199
 30
0.0
 41
0.280000001192093
 42
0.280000001192093
 50
89.9999999480344
 43
0.280000001192093
  0
INSERT
  5
   720
  8
0
  6
CONTINUOUS
 62
     7
  2
*HATCH282
 10
-200.288665771484
 20
3.3814332485199
 30
0.0
 41
0.280000001192093
 42
0.280000001192093
 50
89.9999999480344
 43
0.280000001192093
  0
INSERT
  5
   721
  8
0
  6
CONTINUOUS
 62
     7
  2
*HATCH283
 10
-200.288665771484
 20
3.3814332485199
 30
0.0
 41
0.280000001192093
 42
0.280000001192093
 50
89.9999999480344
 43
0.280000001192093
  0
LINE
  5
   722
  8
0
  6
CONTINUOUS
 62
     7
 10
-247.328667573929
 20
43.7714270746165
 30
0.0
 11
-248.028669179082
 21
43.7714270746165
 31
0.0
  0
LINE
  5
   723
  8
0
  6
CONTINUOUS
 62
     7
 10
-247.328667573929
 20
43.7714270746165
 30
0.0
 11
-247.328667573929
 21
46.7114270871335
 31
0.0
  0
LINE
  5
   724
  8
0
  6
CONTINUOUS
 62
     7
 10
-248.308669180274
 20
47.6914270913058
 30
0.0
 11
-249.008669183254
 21
47.6914270913058
 31
0.0
  0
LINE
  5
   725
  8
0
  6
CONTINUOUS
 62
     7
 10
-249.288669184446
 20
49.3714270984584
 30
0.0
 11
-249.288669184446
 21
50.2114271020347
 31
0.0
  0
LINE
  5
   726
  8
0
  6
CONTINUOUS
 62
     7
 10
-249.288669184446
 20
50.2114271020347
 30
0.0
 11
-249.988667051196
 21
50.2114271020347
 31
0.0
  0
LINE
  5
   727
  8
0
  6
CONTINUOUS
 62
     7
 10
-248.308669180274
 20
46.9914270883256
 30
0.0
 11
-249.008669183254
 21
46.9914270883256
 31
0.0
  0
LINE
  5
   728
  8
0
  6
CONTINUOUS
 62
     7
 10
-248.028669179082
 20
43.7714270746165
 30
0.0
 11
-248.028669179082
 21
46.7114270871335
 31
0.0
  0
ARC
  5
   729
  8
0
  6
CONTINUOUS
 62
     7
 10
-248.308673283256
 20
46.7114235349682
 30
0.0
 40
0.980005171044693
 50
360.000319242658
 51
449.999813057862
  0
ARC
  5
   72A
  8
0
  6
CONTINUOUS
 62
     7
 10
-248.308656790792
 20
46.7114385376726
 30
0.0
 40
0.279985951140214
 50
359.998830132094
 51
450.002235749312
  0
ARC
  5
   72B
  8
0
  6
CONTINUOUS
 62
     7
 10
-249.008674601921
 20
47.9714181193563
 30
0.0
 40
0.979991899836675
 50
196.601143374768
 51
270.000346548696
  0
LINE
  5
   72C
  8
0
  6
CONTINUOUS
 62
     7
 10
-247.328667573929
 20
46.2914270853453
 30
0.0
 11
-248.028669179082
 21
46.2914270853453
 31
0.0
  0
INSERT
  5
   72D
  8
0
  6
CONTINUOUS
 62
     7
  2
*HATCH284
 10
-200.288665771484
 20
3.3814332485199
 30
0.0
 41
0.280000001192093
 42
0.280000001192093
 50
89.9999999480344
 43
0.280000001192093
  0
LINE
  5
   72E
  8
0
  6
DOT
 62
     7
 10
-182.36866569519
 20
50.2814334481954
 30
0.0
 11
-182.36866569519
 21
90.3598769663226
 31
0.0
  0
LINE
  5
   72F
  8
0
  6
DOT
 62
     7
 10
-182.36866569519
 20
-42.989718658807
 30
0.0
 11
-182.36866569519
 21
1.84143324196339
 31
0.0
  0
LINE
  5
   730
  8
0
  6
DOT
 62
     7
 10
-254.608648912907
 20
43.3514061503333
 30
0.0
 11
-259.22866602242
 21
43.3514061503333
 31
0.0
  0
LINE
  5
   731
  8
0
  6
DOT
 62
     7
 10
-259.22866602242
 20
4.15142573964943
 30
0.0
 11
-259.22866602242
 21
43.3514061503333
 31
0.0
  0
LINE
  5
   732
  8
0
  6
DOT
 62
     7
 10
-254.495758391032
 20
4.15142573964943
 30
0.0
 11
-259.22866602242
 21
4.15142573964943
 31
0.0
  0
LINE
  5
   733
  8
0
  6
DOT
 62
     7
 10
-260.860389407729
 20
14.6883950679559
 30
0.0
 11
-261.558774447644
 21
16.848551291372
 31
0.0
  0
LINE
  5
   734
  8
0
  6
DOT
 62
     7
 10
-260.728310530497
 20
14.5288700766208
 30
0.0
 11
-260.860385110407
 21
14.6883973551338
 31
0.0
  0
LINE
  5
   735
  8
0
  6
DOT
 62
     7
 10
-260.522738427438
 20
14.5037409678455
 30
0.0
 11
-260.72831216027
 21
14.5288694462072
 31
0.0
  0
LINE
  5
   736
  8
0
  6
DOT
 62
     7
 10
-260.522738576719
 20
14.5037409003413
 30
0.0
 11
-259.22866602242
 21
14.8441152805109
 31
0.0
  0
LINE
  5
   737
  8
0
  6
DOT
 62
     7
 10
-261.393132872899
 20
17.1959214238012
 30
0.0
 11
-259.22866602242
 21
18.0309453242251
 31
0.0
  0
LINE
  5
   738
  8
0
  6
DOT
 62
     7
 10
-261.545090929384
 20
17.0552030679165
 30
0.0
 11
-261.393132305022
 21
17.1959208439017
 31
0.0
  0
LINE
  5
   739
  8
0
  6
DOT
 62
     7
 10
-261.558772606889
 20
16.8485524851893
 30
0.0
 11
-261.545087914586
 21
17.05520501829
 31
0.0
  0
LINE
  5
   73A
  8
0
  6
CONTINUOUS
 62
     1
 10
-225.146669308241
 20
-41.1934569825781
 30
0.0
 11
-250.781454585948
 21
-41.1934569825781
 31
0.0
  0
LINE
  5
   73B
  8
0
  6
CONTINUOUS
 62
     1
 10
-236.268665924668
 20
82.9014335870743
 30
0.0
 11
-236.268665924668
 21
84.8614335954189
 31
0.0
  0
LINE
  5
   73C
  8
0
  6
CONTINUOUS
 62
     1
 10
-236.268665924668
 20
-32.7385669052601
 30
0.0
 11
-236.268665924668
 21
-30.7785668969154
 31
0.0
  0
LINE
  5
   73D
  8
0
  6
CONTINUOUS
 62
     1
 10
-200.708665773273
 20
-32.7385669052601
 30
0.0
 11
-236.268665924668
 21
-32.7385669052601
 31
0.0
  0
LINE
  5
   73E
  8
0
  6
CONTINUOUS
 62
     1
 10
-200.708665773273
 20
84.8614335954189
 30
0.0
 11
-236.268665924668
 21
84.8614335954189
 31
0.0
  0
LINE
  5
   73F
  8
0
  6
CONTINUOUS
 62
     1
 10
-200.708665773273
 20
82.9014335870743
 30
0.0
 11
-200.708665773273
 21
84.8614335954189
 31
0.0
  0
LINE
  5
   740
  8
0
  6
CONTINUOUS
 62
     1
 10
-200.708665773273
 20
-32.7385669052601
 30
0.0
 11
-200.708665773273
 21
-30.7785668969154
 31
0.0
  0
LINE
  5
   741
  8
0
  6
CONTINUOUS
 62
     7
 10
-179.008665680885
 20
8.14143326878548
 30
0.0
 11
-179.008665680885
 21
10.3814332783222
 31
0.0
  0
LINE
  5
   742
  8
0
  6
CONTINUOUS
 62
     7
 10
-179.008665680885
 20
43.9814334213734
 30
0.0
 11
-181.528665691614
 21
43.9814334213734
 31
0.0
  0
LINE
  5
   743
  8
0
  6
CONTINUOUS
 62
     7
 10
-179.008665680885
 20
41.7414334118366
 30
0.0
 11
-181.528665691614
 21
41.7414334118366
 31
0.0
  0
LINE
  5
   744
  8
0
  6
CONTINUOUS
 62
     7
 10
-179.008665680885
 20
10.3814332783222
 30
0.0
 11
-181.528665691614
 21
10.3814332783222
 31
0.0
  0
LINE
  5
   745
  8
0
  6
CONTINUOUS
 62
     7
 10
-179.008665680885
 20
8.14143326878548
 30
0.0
 11
-181.528665691614
 21
8.14143326878548
 31
0.0
  0
LINE
  5
   746
  8
0
  6
CONTINUOUS
 62
     7
 10
-179.008665680885
 20
41.7414334118366
 30
0.0
 11
-179.008665680885
 21
43.9814334213734
 31
0.0
  0
CIRCLE
  5
   747
  8
0
  6
CONTINUOUS
 62
     7
 10
-180.763641760662
 20
9.15791839076831
 30
0.0
 40
0.112000000476837
  0
TEXT
  5
   748
  8
0
  6
CONTINUOUS
 62
     1
 10
-247.023528328813
 20
-44.7874371676812
 30
0.0
 40
1.99999998944146
  1
ISOLATING DISTANCE
 50
359.999999948034
 41
0.749999871015548
 72
     1
 11
-233.673530696268
 21
-43.7874371850015
 31
0.0
 73
     2
  0
INSERT
  5
   749
  8
0
  6
CONTINUOUS
 62
     7
  2
*UDIM1352
 10
0.0
 20
0.0
 30
0.0
  0
TEXT
  5
   74A
  8
0
  6
CONTINUOUS
 62
     1
 10
-246.657936555974
 20
-40.2588973879082
 30
0.0
 40
1.99999998944146
  1
CORSA DI
 50
359.999999948034
 41
0.749999871015548
  0
TEXT
  5
   74B
  8
0
  6
CONTINUOUS
 62
     1
 10
-234.657938681492
 20
-40.2588980729802
 30
0.0
 40
1.99999998944146
  1
 SEZIONAMENTO
 50
359.999999948034
 41
0.749999871015548
  0
INSERT
  5
   74C
  8
0
  6
CONTINUOUS
 62
     7
  2
*UDIM1353
 10
0.0
 20
0.0
 30
0.0
  0
INSERT
  5
   74D
  8
0
  6
CONTINUOUS
 62
     7
  2
*UDIM1354
 10
0.0
 20
0.0
 30
0.0
  0
INSERT
  5
   74E
  8
0
  6
CONTINUOUS
 62
     7
  2
*UDIM1355
 10
0.0
 20
0.0
 30
0.0
  0
INSERT
  5
   74F
  8
0
  6
CONTINUOUS
 62
     7
  2
*UDIM1356
 10
0.0
 20
0.0
 30
0.0
  0
INSERT
  5
   750
  8
0
  6
CONTINUOUS
 62
     7
  2
*UDIM1357
 10
0.0
 20
0.0
 30
0.0
  0
TEXT
  5
   751
  8
0
  6
CONTINUOUS
 62
     7
 10
-274.238452493629
 20
11.0489978131684
 30
0.0
 40
3.99999997888293
  1
=     =
 50
89.9999999480344
 41
0.915625085663796
 72
     1
 11
-276.238452471792
 21
23.5014989103859
 31
0.0
 73
     2
  0
INSERT
  5
   752
  8
0
  6
CONTINUOUS
 62
     7
  2
*UDIM1358
 10
0.0
 20
0.0
 30
0.0
  0
INSERT
  5
   753
  8
0
  6
CONTINUOUS
 62
     7
  2
*UDIM1359
 10
0.0
 20
0.0
 30
0.0
  0
INSERT
  5
   754
  8
0
  6
CONTINUOUS
 62
     7
  2
*UDIM1360
 10
0.0
 20
0.0
 30
0.0
  0
INSERT
  5
   755
  8
0
  6
CONTINUOUS
 62
     7
  2
*UDIM1361
 10
0.0
 20
0.0
 30
0.0
  0
INSERT
  5
   756
  8
0
  6
CONTINUOUS
 62
     7
  2
*UDIM1362
 10
0.0
 20
0.0
 30
0.0
  0
INSERT
  5
   757
  8
0
  6
CONTINUOUS
 62
     7
  2
*UDIM1363
 10
0.0
 20
0.0
 30
0.0
  0
TEXT
  5
   758
  8
0
  6
CONTINUOUS
 62
     7
 10
-287.01568045848
 20
22.659322771296
 30
0.0
 40
3.99999997888293
  1
x
 50
359.999999948034
 41
0.915625085663796
 72
     1
 11
-285.550680331229
 21
24.6593227594161
 31
0.0
 73
     2
  0
TEXT
  5
   759
  8
0
  6
CONTINUOUS
 62
     7
 10
-166.273878796963
 20
22.3436840370421
 30
0.0
 40
3.99999997888293
  1
x
 50
359.999999948034
 41
0.915625085663796
 72
     1
 11
-164.808878669713
 21
24.3436840251622
 31
0.0
 73
     2
  0
LINE
  5
   75A
  8
0
  6
DASHDOT
 62
     2
 10
34.0267333984375
 20
63.3856927571491
 30
0.0
 11
34.0267333984375
 21
2.63678616799525
 31
0.0
  0
LINE
  5
   75B
  8
0
  6
DASHDOT
 62
     2
 10
4.22070870790162
 20
32.3079948425293
 30
0.0
 11
75.2342013910815
 21
32.3079948425293
 31
0.0
  0
LINE
  5
   75C
  8
0
  6
CONTINUOUS
 62
     7
 10
11.6517333984375
 20
52.4329948425293
 30
0.0
 11
54.1517333984375
 21
52.4329948425293
 31
0.0
  0
LINE
  5
   75D
  8
0
  6
CONTINUOUS
 62
     7
 10
11.6517333984375
 20
12.1829948425293
 30
0.0
 11
54.1517333984375
 21
12.1829948425293
 31
0.0
  0
CIRCLE
  5
   75E
  8
0
  6
CONTINUOUS
 62
     7
 10
59.2767333984375
 20
32.3079948425293
 30
0.0
 40
1.0
  0
CIRCLE
  5
   75F
  8
0
  6
CONTINUOUS
 62
     7
 10
38.9642333984375
 20
54.4329948425293
 30
0.0
 40
1.0
  0
CIRCLE
  5
   760
  8
0
  6
CONTINUOUS
 62
     7
 10
18.6517333984375
 20
54.4329948425293
 30
0.0
 40
0.875
  0
CIRCLE
  5
   761
  8
0
  6
CONTINUOUS
 62
     7
 10
59.2767333984375
 20
10.1829948425293
 30
0.0
 40
0.875
  0
CIRCLE
  5
   762
  8
0
  6
CONTINUOUS
 62
     7
 10
38.9642333984375
 20
10.1829948425293
 30
0.0
 40
1.0
  0
CIRCLE
  5
   763
  8
0
  6
CONTINUOUS
 62
     7
 10
18.6517333984375
 20
10.1829948425293
 30
0.0
 40
1.0
  0
CIRCLE
  5
   764
  8
0
  6
CONTINUOUS
 62
     7
 10
59.2767333984375
 20
54.4329948425293
 30
0.0
 40
1.0
  0
LINE
  5
   765
  8
0
  6
DASHDOT
 62
     7
 10
59.2767333984375
 20
56.0579948425293
 30
0.0
 11
59.2767333984375
 21
33.732444041074
 31
0.0
  0
LINE
  5
   766
  8
0
  6
DASHDOT
 62
     7
 10
57.6517333984375
 20
54.4329948425293
 30
0.0
 11
60.9017333984375
 21
54.4329948425293
 31
0.0
  0
LINE
  5
   767
  8
0
  6
DASHDOT
 62
     7
 10
38.9642333984375
 20
63.45444718859
 30
0.0
 11
38.9642333984375
 21
52.8079948425293
 31
0.0
  0
LINE
  5
   768
  8
0
  6
DASHDOT
 62
     7
 10
37.3392333984375
 20
54.4329948425293
 30
0.0
 11
40.5892333984375
 21
54.4329948425293
 31
0.0
  0
LINE
  5
   769
  8
0
  6
DASHDOT
 62
     7
 10
18.6517333984375
 20
56.0579948425293
 30
0.0
 11
18.6517333984375
 21
52.8079948425293
 31
0.0
  0
LINE
  5
   76A
  8
0
  6
DASHDOT
 62
     7
 10
17.0267333984375
 20
54.4329948425293
 30
0.0
 11
20.2767333984375
 21
54.4329948425293
 31
0.0
  0
LINE
  5
   76B
  8
0
  6
DASHDOT
 62
     7
 10
38.9642333984375
 20
11.8079948425293
 30
0.0
 11
38.9642333984375
 21
8.5579948425293
 31
0.0
  0
LINE
  5
   76C
  8
0
  6
DASHDOT
 62
     7
 10
37.3392333984375
 20
10.1829948425293
 30
0.0
 11
40.5892333984375
 21
10.1829948425293
 31
0.0
  0
LINE
  5
   76D
  8
0
  6
DASHDOT
 62
     7
 10
59.2767333984375
 20
11.8079948425293
 30
0.0
 11
59.2767333984375
 21
8.5579948425293
 31
0.0
  0
LINE
  5
   76E
  8
0
  6
DASHDOT
 62
     7
 10
57.6517333984375
 20
10.1829948425293
 30
0.0
 11
60.9017333984375
 21
10.1829948425293
 31
0.0
  0
LINE
  5
   76F
  8
0
  6
DASHDOT
 62
     7
 10
18.6517333984375
 20
11.8079948425293
 30
0.0
 11
18.6517333984375
 21
8.5579948425293
 31
0.0
  0
LINE
  5
   770
  8
0
  6
DASHDOT
 62
     7
 10
17.0267333984375
 20
10.1829948425293
 30
0.0
 11
20.2767333984375
 21
10.1829948425293
 31
0.0
  0
LINE
  5
   771
  8
0
  6
DASHDOT
 62
     7
 10
59.2767333984375
 20
33.9329948425293
 30
0.0
 11
59.2767333984375
 21
12.029217888019
 31
0.0
  0
ARC
  5
   772
  8
0
  6
CONTINUOUS
 62
     7
 10
64.2767333984375
 20
28.0579948425293
 30
0.0
 40
2.0
 50
359.999999844103
 51
539.999999844103
  0
ARC
  5
   773
  8
0
  6
CONTINUOUS
 62
     7
 10
64.2767333984375
 20
22.3079948425293
 30
0.0
 40
2.0
 50
539.999999844103
 51
719.999999844103
  0
LINE
  5
   774
  8
0
  6
CONTINUOUS
 62
     7
 10
66.2767333984375
 20
28.0579948425293
 30
0.0
 11
66.2767333984375
 21
22.3079948425293
 31
0.0
  0
LINE
  5
   775
  8
0
  6
CONTINUOUS
 62
     7
 10
62.2767333984375
 20
28.0579948425293
 30
0.0
 11
62.2767333984375
 21
22.3079948425293
 31
0.0
  0
LINE
  5
   776
  8
0
  6
DASHDOT
 62
     7
 10
64.2767333984375
 20
30.8079948425293
 30
0.0
 11
64.2767333984375
 21
25.3079948425293
 31
0.0
  0
LINE
  5
   777
  8
0
  6
DASHDOT
 62
     7
 10
61.5267333984375
 20
28.0579948425293
 30
0.0
 11
67.0267333984375
 21
28.0579948425293
 31
0.0
  0
LINE
  5
   778
  8
0
  6
DASHDOT
 62
     7
 10
64.2767333984375
 20
25.0579948425293
 30
0.0
 11
64.2767333984375
 21
19.5579948425293
 31
0.0
  0
LINE
  5
   779
  8
0
  6
DASHDOT
 62
     7
 10
61.5267333984375
 20
22.3079948425293
 30
0.0
 11
67.0267333984375
 21
22.3079948425293
 31
0.0
  0
POINT
  5
   77A
  8
0
  6
CONTINUOUS
 62
     7
 10
64.2767333984375
 20
30.0579948425293
 30
0.0
  0
POINT
  5
   77B
  8
0
  6
CONTINUOUS
 62
     7
 10
64.2767333984375
 20
20.3079948425293
 30
0.0
  0
CIRCLE
  5
   77C
  8
0
  6
CONTINUOUS
 62
     7
 10
44.5892333984375
 20
54.8079948425293
 30
0.0
 40
0.5
  0
CIRCLE
  5
   77D
  8
0
  6
CONTINUOUS
 62
     7
 10
33.3392333984375
 20
54.8079948425293
 30
0.0
 40
0.5
  0
CIRCLE
  5
   77E
  8
0
  6
CONTINUOUS
 62
     7
 10
33.3392333984375
 20
54.8079948425293
 30
0.0
 40
0.92
  0
CIRCLE
  5
   77F
  8
0
  6
CONTINUOUS
 62
     7
 10
44.5892333984375
 20
54.8079948425293
 30
0.0
 40
0.92
  0
LINE
  5
   780
  8
0
  6
DASHDOT
 62
     7
 10
44.5892333984375
 20
56.4779948425293
 30
0.0
 11
44.5892333984375
 21
53.1379948425293
 31
0.0
  0
LINE
  5
   781
  8
0
  6
DASHDOT
 62
     7
 10
42.9192333984375
 20
54.8079948425293
 30
0.0
 11
46.2592333984375
 21
54.8079948425293
 31
0.0
  0
LINE
  5
   782
  8
0
  6
DASHDOT
 62
     7
 10
33.3392333984375
 20
56.4779948425293
 30
0.0
 11
33.3392333984375
 21
53.1379948425293
 31
0.0
  0
LINE
  5
   783
  8
0
  6
DASHDOT
 62
     7
 10
31.6692333984375
 20
54.8079948425293
 30
0.0
 11
35.0092333984375
 21
54.8079948425293
 31
0.0
  0
LINE
  5
   784
  8
0
  6
CONTINUOUS
 62
     7
 10
9.01755776491382
 20
58.9242876901378
 30
0.0
 11
70.5715299300697
 21
58.9242876901378
 31
0.0
  0
LINE
  5
   785
  8
0
  6
CONTINUOUS
 62
     7
 10
9.01755776491382
 20
7.06464683600646
 30
0.0
 11
70.5715299300697
 21
7.06464683600646
 31
0.0
  0
LINE
  5
   786
  8
0
  6
CONTINUOUS
 62
     7
 10
9.01755776491382
 20
58.9242876901378
 30
0.0
 11
9.01755776491382
 21
7.06464683600646
 31
0.0
  0
LINE
  5
   787
  8
0
  6
CONTINUOUS
 62
     7
 10
70.5715299300697
 20
58.9242876901378
 30
0.0
 11
70.5715299300697
 21
7.06464683600646
 31
0.0
  0
LINE
  5
   788
  8
0
  6
CONTINUOUS
 62
     7
 10
54.1517333984375
 20
52.4329948425293
 30
0.0
 11
54.1517333984375
 21
12.1829948425293
 31
0.0
  0
LINE
  5
   789
  8
0
  6
CONTINUOUS
 62
     7
 10
11.6517333984375
 20
52.4329948425293
 30
0.0
 11
11.6517333984375
 21
12.1829948425293
 31
0.0
  0
LINE
  5
   78A
  8
0
  6
CONTINUOUS
 62
     7
 10
72.4894273024917
 20
52.359509965705
 30
0.0
 11
72.4894273024917
 21
42.4223838908831
 31
0.0
  0
LINE
  5
   78B
  8
0
  6
CONTINUOUS
 62
     7
 10
75.8018026607657
 20
52.359509965705
 30
0.0
 11
75.8018026607657
 21
42.4223838908831
 31
0.0
  0
LINE
  5
   78C
  8
0
  6
CONTINUOUS
 62
     7
 10
72.4894273024917
 20
52.359509965705
 30
0.0
 11
75.8018026607657
 21
52.359509965705
 31
0.0
  0
LINE
  5
   78D
  8
0
  6
CONTINUOUS
 62
     7
 10
72.4894273024917
 20
42.4223838908831
 30
0.0
 11
75.8018026607657
 21
42.4223838908831
 31
0.0
  0
LINE
  5
   78E
  8
0
  6
CONTINUOUS
 62
     7
 10
72.4894273024917
 20
12.2564797193536
 30
0.0
 11
75.8018026607657
 21
12.2564797193536
 31
0.0
  0
LINE
  5
   78F
  8
0
  6
CONTINUOUS
 62
     7
 10
72.4894273024917
 20
22.1936057941754
 30
0.0
 11
75.8018026607657
 21
22.1936057941754
 31
0.0
  0
LINE
  5
   790
  8
0
  6
CONTINUOUS
 62
     7
 10
72.4894273024917
 20
22.1936057941754
 30
0.0
 11
72.4894273024917
 21
12.2564797193536
 31
0.0
  0
LINE
  5
   791
  8
0
  6
CONTINUOUS
 62
     7
 10
75.8018026607657
 20
22.1936057941754
 30
0.0
 11
75.8018026607657
 21
12.2564797193536
 31
0.0
  0
LINE
  5
   792
  8
0
  6
DASHDOT
 62
     2
 10
74.1456149816287
 20
57.1624542352022
 30
0.0
 11
74.1456149816287
 21
-22.8314106671136
 31
0.0
  0
INSERT
  5
   793
  8
0
  6
CONTINUOUS
 62
     7
  2
*UDIM1364
 10
0.0
 20
0.0
 30
0.0
  0
INSERT
  5
   794
  8
0
  6
CONTINUOUS
 62
     7
  2
*UDIM1365
 10
0.0
 20
0.0
 30
0.0
  0
INSERT
  5
   795
  8
0
  6
CONTINUOUS
 62
     7
  2
*UDIM1366
 10
0.0
 20
0.0
 30
0.0
  0
TEXT
  5
   796
  8
0
  6
CONTINUOUS
 62
     1
 10
-70.3849487331846
 20
-127.948707647975
 30
0.0
 40
2.00000008940697
  1
SCARPELLINI
 50
359.999999844103
 41
0.749999861419206
 72
     2
 11
-54.1849510100821
 21
-127.948707691972
 31
0.0
  0
TEXT
  5
   797
  8
0
  6
CONTINUOUS
 62
     1
 10
-32.8404220041969
 20
-134.836956016078
 30
0.0
 40
2.00000008940697
  1
M 4504 98-11-17
 50
359.999999844103
 41
0.749999861419206
 72
     1
 11
-21.7404235601425
 21
-133.836956001521
 31
0.0
 73
     2
  0
TEXT
  5
   798
  8
0
  6
CONTINUOUS
 62
     1
 10
-57.6804183420876
 20
-134.836963656797
 30
0.0
 40
2.00000008940697
  1
M 3076 95-01-16
 50
359.999999844103
 41
0.749999861419206
 72
     1
 11
-46.5804198980331
 21
-133.83696364224
 31
0.0
 73
     2
  0
INSERT
  5
   799
  8
0
  6
CONTINUOUS
 62
     7
  2
*UDIM1367
 10
0.0
 20
0.0
 30
0.0
  0
TEXT
  5
   79A
  8
0
  6
CONTINUOUS
 62
     7
 10
-7.0330237250555
 20
31.0331054234555
 30
0.0
 40
3.00000002980232
  1
X
 50
359.999999844103
 41
0.916666604744064
 72
     2
 11
-4.83302385618571
 21
31.0331054174806
 31
0.0
  0
TEXT
  5
   79B
  8
0
  6
CONTINUOUS
 62
     7
 10
95.9071961540949
 20
30.3322138094953
 30
0.0
 40
3.00000002980232
  1
X
 50
359.999999844103
 41
0.916666604744064
 72
     2
 11
98.1071960229647
 21
30.3322138035203
 31
0.0
  0
TEXT
  5
   79C
  8
0
  6
CONTINUOUS
 62
     7
 10
32.5275250572931
 20
79.2062033915571
 30
0.0
 40
3.00000002980232
  1
Y
 50
359.999999844103
 41
0.916666604744064
 72
     2
 11
34.7275249261629
 21
79.2062033855821
 31
0.0
  0
TEXT
  5
   79D
  8
0
  6
CONTINUOUS
 62
     7
 10
32.9720609087717
 20
-32.2716789936969
 30
0.0
 40
3.00000002980232
  1
Y
 50
359.999999844103
 41
0.916666604744064
 72
     2
 11
35.1720607776415
 21
-32.2716789996718
 31
0.0
  0
TEXT
  5
   79E
  8
0
  6
CONTINUOUS
 62
     7
 10
7.47435527295418
 20
27.8939281470453
 30
0.0
 40
2.50000005960464
  1
=  =
 50
449.999999844103
 41
0.899999932169916
 72
     2
 11
7.47435529616426
 21
36.4439276919639
 31
0.0
  0
INSERT
  5
   79F
  8
0
  6
CONTINUOUS
 62
     7
  2
*UDIM1368
 10
0.0
 20
0.0
 30
0.0
  0
INSERT
  5
   7A0
  8
0
  6
CONTINUOUS
 62
     7
  2
*UDIM1369
 10
0.0
 20
0.0
 30
0.0
  0
INSERT
  5
   7A1
  8
0
  6
CONTINUOUS
 62
     7
  2
*UDIM1370
 10
0.0
 20
0.0
 30
0.0
  0
INSERT
  5
   7A2
  8
0
  6
CONTINUOUS
 62
     7
  2
*UDIM1371
 10
0.0
 20
0.0
 30
0.0
  0
INSERT
  5
   7A3
  8
0
  6
CONTINUOUS
 62
     7
  2
*UDIM1372
 10
0.0
 20
0.0
 30
0.0
  0
INSERT
  5
   7A4
  8
0
  6
CONTINUOUS
 62
     7
  2
*UDIM1373
 10
0.0
 20
0.0
 30
0.0
  0
INSERT
  5
   7A5
  8
0
  6
CONTINUOUS
 62
     7
  2
*UDIM1374
 10
0.0
 20
0.0
 30
0.0
  0
INSERT
  5
   7A6
  8
0
  6
CONTINUOUS
 62
     7
  2
*UDIM1375
 10
0.0
 20
0.0
 30
0.0
  0
INSERT
  5
   7A7
  8
0
  6
CONTINUOUS
 62
     7
  2
*UDIM1376
 10
0.0
 20
0.0
 30
0.0
  0
INSERT
  5
   7A8
  8
0
  6
CONTINUOUS
 62
     7
  2
*UDIM1377
 10
0.0
 20
0.0
 30
0.0
  0
INSERT
  5
   7A9
  8
0
  6
CONTINUOUS
 62
     7
  2
*UDIM1378
 10
0.0
 20
0.0
 30
0.0
  0
INSERT
  5
   7AA
  8
0
  6
CONTINUOUS
 62
     7
  2
*UDIM1379
 10
0.0
 20
0.0
 30
0.0
  0
INSERT
  5
   7AB
  8
0
  6
CONTINUOUS
 62
     7
  2
*UDIM1380
 10
0.0
 20
0.0
 30
0.0
  0
INSERT
  5
   7AC
  8
0
  6
CONTINUOUS
 62
     7
  2
*UDIM1381
 10
0.0
 20
0.0
 30
0.0
  0
TEXT
  5
   7AD
  8
0
  6
CONTINUOUS
 62
     7
 10
34.8186020172447
 20
60.4801633792929
 30
0.0
 40
2.50000005960464
  1
=  =
 50
359.999999844103
 41
0.899999932169916
 72
     2
 11
43.3686015621632
 21
60.480163356072
 31
0.0
  0
INSERT
  5
   7AE
  8
0
  6
CONTINUOUS
 62
     7
  2
*UDIM1382
 10
0.0
 20
0.0
 30
0.0
  0
TEXT
  5
   7AF
  8
0
  6
CONTINUOUS
 62
     1
 10
-70.3849487212598
 20
-119.481952550209
 30
0.0
 40
2.00000008940697
  1
93-04-05 FERRARI M.
 50
359.999999844103
 41
0.749999861419206
 72
     2
 11
-42.1849526790082
 21
-119.481952626796
 31
0.0
  0
TEXT
  5
   7B0
  8
0
  6
CONTINUOUS
 62
     1
 10
37.5993042176367
 20
-146.016803651245
 30
0.0
 40
4.00000017881393
  1
601840/171
 50
359.999999844103
 41
0.937499973922969
 72
     2
 11
74.3493048174085
 21
-146.016803751054
 31
0.0
  0
TEXT
  5
   7B1
  8
0
  6
CONTINUOUS
 62
     1
 10
38.6849975724073
 20
-137.035220992765
 30
0.0
 40
3.00000002980232
  1
     S7
 50
359.999999844103
 41
0.916666604744064
 72
     2
 11
57.3849964905829
 21
-137.035221043552
 31
0.0
  0
TEXT
  5
   7B2
  8
0
  6
CONTINUOUS
 62
     1
 10
27.1505778136454
 20
-118.724948850517
 30
0.0
 40
2.00000008940697
  1
4POLE LOW VOLTAGE M.C.C.B SERIES ISOMAX
 50
359.999999844103
 41
0.749999861419206
 72
     1
 11
56.2505737364233
 21
-117.724948884845
 31
0.0
 73
     2
  0
TEXT
  5
   7B3
  8
0
  6
CONTINUOUS
 62
     1
 10
29.4005775342605
 20
-121.724948856627
 30
0.0
 40
2.00000008940697
  1
WITHDRAWABLE VERSION FRONT TERMINALS
 50
359.999999844103
 41
0.749999861419206
 72
     1
 11
56.2505737721979
 21
-120.724948884845
 31
0.0
 73
     2
  0
TEXT
  5
   7B4
  8
0
  6
CONTINUOUS
 62
     1
 10
30.3529694462917
 20
-126.795215592482
 30
0.0
 40
2.00000008940697
  1
INTERR.AUTOMATICO SERIE ISOMAX
 50
359.999999844103
 41
0.749999861419206
 72
     1
 11
52.7029663145483
 21
-125.795215608478
 31
0.0
 73
     2
  0
TEXT
  5
   7B5
  8
0
  6
CONTINUOUS
 62
     1
 10
19.1029710578642
 20
-129.795215561928
 30
0.0
 40
2.00000008940697
  1
TETRAP.ESECUZIONE ESTRAIBILE TERMIN.ANTERIORI
 50
359.999999844103
 41
0.749999861419206
 72
     1
 11
52.7029663503229
 21
-128.795215608478
 31
0.0
 73
     2
  0
LINE
  5
   7B6
  8
0
  6
CONTINUOUS
 62
     7
 10
36.3474197387695
 20
113.598839966734
 30
0.0
 11
36.3474197387695
 21
89.6823184805314
 31
0.0
  0
LINE
  5
   7B7
  8
0
  6
CONTINUOUS
 62
     7
 10
34.3474197387695
 20
113.598839966734
 30
0.0
 11
34.3474197387695
 21
89.6823184805314
 31
0.0
  0
LINE
  5
   7B8
  8
0
  6
DASHDOT
 62
     7
 10
31.1448166363726
 20
101.640579223633
 30
0.0
 11
39.5710358288099
 21
101.640579223633
 31
0.0
  0
POINT
  5
   7B9
  8
0
  6
CONTINUOUS
 62
     7
 10
34.3474197387695
 20
103.640579223633
 30
0.0
  0
POINT
  5
   7BA
  8
0
  6
CONTINUOUS
 62
     7
 10
34.3474197387695
 20
99.6405792236328
 30
0.0
  0
LINE
  5
   7BB
  8
0
  6
CONTINUOUS
 62
     7
 10
36.3474197387695
 20
105.318778485987
 30
0.0
 11
34.3474197387695
 21
103.640579223633
 31
0.0
  0
LINE
  5
   7BC
  8
0
  6
CONTINUOUS
 62
     7
 10
34.3474197387695
 20
99.6405792236328
 30
0.0
 11
36.3474197387695
 21
97.9623799612783
 31
0.0
  0
LINE
  5
   7BD
  8
0
  6
CONTINUOUS
 62
     7
 10
34.3474197387695
 20
92.1405792236328
 30
0.0
 11
36.3474197387695
 21
92.1405792236328
 31
0.0
  0
CIRCLE
  5
   7BE
  8
0
  6
CONTINUOUS
 62
     7
 10
35.3474197387695
 20
101.640579223633
 30
0.0
 40
12.0
  0
LINE
  5
   7BF
  8
0
  6
CONTINUOUS
 62
     7
 10
28.3474273681641
 20
97.1405792236328
 30
0.0
 11
30.8474273681641
 21
97.1405792236328
 31
0.0
  0
LINE
  5
   7C0
  8
0
  6
CONTINUOUS
 62
     7
 10
31.8474273681641
 20
106.140579223633
 30
0.0
 11
31.8474273681641
 21
98.1405792236328
 31
0.0
  0
LINE
  5
   7C1
  8
0
  6
CONTINUOUS
 62
     7
 10
31.8474273681641
 20
106.140579223633
 30
0.0
 11
34.3474197387695
 21
106.140579223633
 31
0.0
  0
LINE
  5
   7C2
  8
0
  6
CONTINUOUS
 62
     7
 10
28.3474273681641
 20
94.6405792236328
 30
0.0
 11
30.8474273681641
 21
94.6405792236328
 31
0.0
  0
LINE
  5
   7C3
  8
0
  6
CONTINUOUS
 62
     7
 10
27.3474273681641
 20
93.6405792236328
 30
0.0
 11
27.3474273681641
 21
92.6963004897016
 31
0.0
  0
ARC
  5
   7C4
  8
0
  6
CONTINUOUS
 62
     7
 10
30.847431515444
 20
98.1405785522941
 30
0.0
 40
0.999996977799109
 50
629.999840735313
 51
720.000252836193
  0
ARC
  5
   7C5
  8
0
  6
CONTINUOUS
 62
     7
 10
28.3474420216708
 20
93.6405665373283
 30
0.0
 40
3.50001845311552
 50
450.000186734275
 51
513.408761128067
  0
ARC
  5
   7C6
  8
0
  6
CONTINUOUS
 62
     7
 10
28.3473831200141
 20
93.6406201184152
 30
0.0
 40
0.999949821243504
 50
449.997764042825
 51
540.001169660043
  0
ARC
  5
   7C7
  8
0
  6
CONTINUOUS
 62
     7
 10
30.8474467205457
 20
98.1405471766985
 30
0.0
 40
3.49997105594423
 50
629.999653243441
 51
720.000420168909
  0
INSERT
  5
   7C8
  8
0
  6
CONTINUOUS
 62
     7
  2
*HATCH285
 10
35.3474197387695
 20
101.640579223633
 30
0.0
 50
269.999999844103
  0
INSERT
  5
   7C9
  8
0
  6
CONTINUOUS
 62
     7
  2
*HATCH286
 10
35.3474197387695
 20
101.640579223633
 30
0.0
 50
269.999999844103
  0
LINE
  5
   7CA
  8
0
  6
CONTINUOUS
 62
     7
 10
26.7718039800487
 20
93.2466043393019
 30
0.0
 11
17.48990063231
 21
84.161301805723
 31
0.0
  0
LINE
  5
   7CB
  8
0
  6
CONTINUOUS
 62
     7
 10
17.48990063231
 20
66.7277580840345
 30
0.0
 11
31.1319870869773
 21
55.6139326775062
 31
0.0
  0
LINE
  5
   7CC
  8
0
  6
CONTINUOUS
 62
     7
 10
27.8849546875707
 20
60.1108805346977
 30
0.0
 11
31.1319870869773
 21
55.6139326775061
 31
0.0
  0
LINE
  5
   7CD
  8
0
  6
CONTINUOUS
 62
     7
 10
25.6474736292372
 20
58.0751748306777
 30
0.0
 11
31.1319870869773
 21
55.6139326775062
 31
0.0
  0
LINE
  5
   7CE
  8
0
  6
CONTINUOUS
 62
     7
 10
15.0442040495068
 20
113.61003392185
 30
0.0
 11
15.0442040495068
 21
89.0278461352665
 31
0.0
  0
LINE
  5
   7CF
  8
0
  6
CONTINUOUS
 62
     7
 10
17.48990063231
 20
84.161301805723
 30
0.0
 11
17.48990063231
 21
75.7761492913641
 31
0.0
  0
LINE
  5
   7D0
  8
0
  6
CONTINUOUS
 62
     7
 10
17.48990063231
 20
70.8516439322236
 30
0.0
 11
17.48990063231
 21
66.7277580840345
 31
0.0
  0
INSERT
  5
   7D1
  8
0
  6
CONTINUOUS
 62
     7
  2
*UDIM1383
 10
0.0
 20
0.0
 30
0.0
  0
INSERT
  5
   7D2
  8
0
  6
CONTINUOUS
 62
     7
  2
*UDIM1384
 10
0.0
 20
0.0
 30
0.0
  0
ENDSEC
  0
EOF
