  0
SECTION
  2
HEADER
  9
$ACADVER
  1
AC1009
  9
$INSBASE
 10
0.0
 20
0.0
 30
0.0
  9
$EXTMIN
 10
0.0
 20
0.0
 30
0.0
  9
$EXTMAX
 10
392.0
 20
262.5
 30
0.0
  9
$LIMMIN
 10
0.0
 20
0.0
  9
$LIMMAX
 10
420.0
 20
297.0
  9
$ORTHOMODE
 70
     1
  9
$REGENMODE
 70
     1
  9
$FILLMODE
 70
     1
  9
$QTEXTMODE
 70
     0
  9
$MIRRTEXT
 70
     1
  9
$DRAGMODE
 70
     2
  9
$LTSCALE
 40
4.0
  9
$OSMODE
 70
    37
  9
$ATTMODE
 70
     1
  9
$TEXTSIZE
 40
2.5
  9
$TRACEWID
 40
1.0
  9
$TEXTSTYLE
  7
T25
  9
$CLAYER
  8
TEXT25
  9
$CELTYPE
  6
BYLAYER
  9
$CECOLOR
 62
   256
  9
$DIMSCALE
 40
1.0
  9
$DIMASZ
 40
2.5
  9
$DIMEXO
 40
0.625
  9
$DIMDLI
 40
3.75
  9
$DIMRND
 40
0.0
  9
$DIMDLE
 40
0.0
  9
$DIMEXE
 40
1.25
  9
$DIMTP
 40
0.0
  9
$DIMTM
 40
0.0
  9
$DIMTXT
 40
2.5
  9
$DIMCEN
 40
2.5
  9
$DIMTSZ
 40
0.0
  9
$DIMTOL
 70
     0
  9
$DIMLIM
 70
     0
  9
$DIMTIH
 70
     0
  9
$DIMTOH
 70
     0
  9
$DIMSE1
 70
     0
  9
$DIMSE2
 70
     0
  9
$DIMTAD
 70
     1
  9
$DIMZIN
 70
     8
  9
$DIMBLK
  1

  9
$DIMASO
 70
     1
  9
$DIMSHO
 70
     1
  9
$DIMPOST
  1

  9
$DIMAPOST
  1

  9
$DIMALT
 70
     0
  9
$DIMALTD
 70
     3
  9
$DIMALTF
 40
0.03937007874016
  9
$DIMLFAC
 40
1.0
  9
$DIMTOFL
 70
     1
  9
$DIMTVP
 40
0.0
  9
$DIMTIX
 70
     0
  9
$DIMSOXD
 70
     0
  9
$DIMSAH
 70
     0
  9
$DIMBLK1
  1

  9
$DIMBLK2
  1

  9
$DIMSTYLE
  2
ISO-25
  9
$DIMCLRD
 70
     0
  9
$DIMCLRE
 70
     0
  9
$DIMCLRT
 70
     0
  9
$DIMTFAC
 40
1.0
  9
$DIMGAP
 40
0.625
  9
$LUNITS
 70
     2
  9
$LUPREC
 70
     4
  9
$SKETCHINC
 40
1.0
  9
$FILLETRAD
 40
0.5
  9
$AUNITS
 70
     0
  9
$AUPREC
 70
     0
  9
$MENU
  1
.
  9
$ELEVATION
 40
0.0
  9
$PELEVATION
 40
0.0
  9
$THICKNESS
 40
0.0
  9
$LIMCHECK
 70
     0
  9
$BLIPMODE
 70
     0
  9
$CHAMFERA
 40
10.0
  9
$CHAMFERB
 40
10.0
  9
$SKPOLY
 70
     0
  9
$TDCREATE
 40
2451507.4892950342
  9
$TDUPDATE
 40
2452438.6647029971
  9
$TDINDWG
 40
1.2308760417
  9
$TDUSRTIMER
 40
1.2308759258999999
  9
$USRTIMER
 70
     1
  9
$ANGBASE
 50
0.0
  9
$ANGDIR
 70
     0
  9
$PDMODE
 70
     0
  9
$PDSIZE
 40
0.0
  9
$PLINEWID
 40
0.0
  9
$COORDS
 70
     1
  9
$SPLFRAME
 70
     0
  9
$SPLINETYPE
 70
     6
  9
$SPLINESEGS
 70
     8
  9
$ATTDIA
 70
     0
  9
$ATTREQ
 70
     1
  9
$HANDLING
 70
     1
  9
$HANDSEED
  5
DCC
  9
$SURFTAB1
 70
     6
  9
$SURFTAB2
 70
     6
  9
$SURFTYPE
 70
     6
  9
$SURFU
 70
     6
  9
$SURFV
 70
     6
  9
$UCSNAME
  2

  9
$UCSORG
 10
0.0
 20
0.0
 30
0.0
  9
$UCSXDIR
 10
1.0
 20
0.0
 30
0.0
  9
$UCSYDIR
 10
0.0
 20
1.0
 30
0.0
  9
$PUCSNAME
  2

  9
$PUCSORG
 10
0.0
 20
0.0
 30
0.0
  9
$PUCSXDIR
 10
1.0
 20
0.0
 30
0.0
  9
$PUCSYDIR
 10
0.0
 20
1.0
 30
0.0
  9
$USERI1
 70
     0
  9
$USERI2
 70
     0
  9
$USERI3
 70
     0
  9
$USERI4
 70
     0
  9
$USERI5
 70
     0
  9
$USERR1
 40
0.0
  9
$USERR2
 40
0.0
  9
$USERR3
 40
0.0
  9
$USERR4
 40
0.0
  9
$USERR5
 40
0.0
  9
$WORLDVIEW
 70
     1
  9
$SHADEDGE
 70
     3
  9
$SHADEDIF
 70
    70
  9
$TILEMODE
 70
     1
  9
$MAXACTVP
 70
    64
  9
$PLIMCHECK
 70
     0
  9
$PEXTMIN
 10
1.0000000000000000E+020
 20
1.0000000000000000E+020
 30
1.0000000000000000E+020
  9
$PEXTMAX
 10
-1.0000000000000000E+020
 20
-1.0000000000000000E+020
 30
-1.0000000000000000E+020
  9
$PLIMMIN
 10
0.0
 20
0.0
  9
$PLIMMAX
 10
420.0
 20
297.0
  9
$UNITMODE
 70
     0
  9
$VISRETAIN
 70
     1
  9
$PLINEGEN
 70
     0
  9
$PSLTSCALE
 70
     1
  0
ENDSEC
  0
SECTION
  2
TABLES
  0
TABLE
  2
VPORT
 70
     2
  0
VPORT
  2
*ACTIVE
 70
     0
 10
0.0
 20
0.0
 11
1.0
 21
1.0
 12
241.1998831131715
 22
158.33063038789999
 13
0.0
 23
0.0
 14
0.5
 24
0.5
 15
10.0
 25
10.0
 16
0.0
 26
0.0
 36
1.0
 17
0.0
 27
0.0
 37
0.0
 40
319.56568237903792
 41
1.7317518248175181
 42
50.0
 43
0.0
 44
0.0
 50
0.0
 51
0.0
 71
     0
 72
   100
 73
     1
 74
     3
 75
     1
 76
     0
 77
     0
 78
     0
  0
ENDTAB
  0
TABLE
  2
LTYPE
 70
    11
  0
LTYPE
  2
CONTINUOUS
 70
     0
  3
Solid line
 72
    65
 73
     0
 40
0.0
  0
LTYPE
  2
DASHED
 70
     0
  3
__ __ __ __ __ __ __ __ __ __ __ __ __ __ __ __
 72
    65
 73
     2
 40
0.75
 49
0.5
 49
-0.25
  0
LTYPE
  2
CENTER
 70
     0
  3
____ _ ____ _ ____ _ ____ _ ____ _ ____ _ ____ 
 72
    65
 73
     4
 40
2.0
 49
1.25
 49
-0.25
 49
0.25
 49
-0.25
  0
LTYPE
  2
DASHDOT
 70
     0
  3
__ . __ . __ . __ . __ . __ . __ . __ . __ . __
 72
    65
 73
     4
 40
1.0
 49
0.5
 49
-0.25
 49
0.0
 49
-0.25
  0
LTYPE
  2
DOT
 70
     0
  3
. . . . . . . . . . . . . . . . . . . . . . . .
 72
    65
 73
     2
 40
0.25
 49
0.0
 49
-0.25
  0
LTYPE
  2
HIDDEN
 70
     0
  3
__ __ __ __ __ __ __ __ __ __ __ __ __ __ __ __
 72
    65
 73
     2
 40
0.375
 49
0.25
 49
-0.125
  0
LTYPE
  2
PHANTOM2
 70
     0
  3
___ _ _ ___ _ _ ___ _ _ ___ _ _ ___ _ _ ___ _ _
 72
    65
 73
     6
 40
1.25
 49
0.625
 49
-0.125
 49
0.125
 49
-0.125
 49
0.125
 49
-0.125
  0
LTYPE
  2
ASULTYPE
 70
     0
  3
Solid line
 72
    65
 73
     2
 40
3.0
 49
2.5
 49
0.5
  0
LTYPE
  2
ASVLTYPE
 70
     0
  3
__ __ __ __ __ __ __ __ __ __ __ __ __ __ __ __ __ __ __ __ __
 72
    65
 73
     2
 40
0.75
 49
0.5
 49
-0.25
  0
LTYPE
  2
GEN3
 70
     0
  3
-- -- -- -- -- -- -- -- -- -- -- -- -- -- --
 72
    65
 73
     2
 40
6.25
 49
4.75
 49
-1.5
  0
LTYPE
  2
GEN7
 70
     0
  3
____ . ____ . ____ . ____ . ____ . ____ . ____
 72
    65
 73
     4
 40
13.75
 49
9.75
 49
-1.5
 49
1.0
 49
-1.5
  0
ENDTAB
  0
TABLE
  2
LAYER
 70
    23
  0
LAYER
  2
0
 70
     0
 62
     7
  6
CONTINUOUS
  0
LAYER
  2
PAKSU
 70
     0
 62
     3
  6
CONTINUOUS
  0
LAYER
  2
RAAMI
 70
     0
 62
     4
  6
CONTINUOUS
  0
LAYER
  2
OHUT
 70
     0
 62
     6
  6
CONTINUOUS
  0
LAYER
  2
KESKI
 70
     0
 62
     2
  6
CONTINUOUS
  0
LAYER
  2
KATKO
 70
     0
 62
    13
  6
CENTER
  0
LAYER
  2
KATKO07
 70
     0
 62
     1
  6
DASHED
  0
LAYER
  2
PISTKATK
 70
     0
 62
     7
  6
DASHDOT
  0
LAYER
  2
MITTA
 70
     0
 62
     1
  6
CONTINUOUS
  0
LAYER
  2
APU
 70
     0
 62
     1
  6
DOT
  0
LAYER
  2
TEXT25
 70
     0
 62
     1
  6
CONTINUOUS
  0
LAYER
  2
TEXT35
 70
     0
 62
     5
  6
CONTINUOUS
  0
LAYER
  2
TEXT5
 70
     0
 62
    14
  6
CONTINUOUS
  0
LAYER
  2
TEXT7
 70
     0
 62
     3
  6
CONTINUOUS
  0
LAYER
  2
TEXT
 70
     0
 62
     1
  6
CONTINUOUS
  0
LAYER
  2
AM_TR
 70
     0
 62
     7
  6
CONTINUOUS
  0
LAYER
  2
AM_BM
 70
     0
 62
     7
  6
CONTINUOUS
  0
LAYER
  2
AM_BL
 70
     0
 62
     7
  6
CONTINUOUS
  0
LAYER
  2
AM_VIEWS
 70
     0
 62
    -7
  6
CONTINUOUS
  0
LAYER
  2
AM_PARDIM
 70
     0
 62
     3
  6
CONTINUOUS
  0
LAYER
  2
AM_REFDIM
 70
     0
 62
     4
  6
CONTINUOUS
  0
LAYER
  2
AM_VIS
 70
     0
 62
     7
  6
CONTINUOUS
  0
LAYER
  2
AM_HID
 70
     0
 62
     6
  6
GEN3
  0
ENDTAB
  0
TABLE
  2
STYLE
 70
     7
  0
STYLE
  2
STANDARD
 70
     0
 40
0.0
 41
1.0
 50
0.0
 71
     0
 42
2.0
  3
txt
  4

  0
STYLE
  2
ROMANS
 70
     0
 40
0.0
 41
1.0
 50
0.0
 71
     0
 42
2.5
  3
romans
  4

  0
STYLE
  2
T7
 70
     0
 40
7.0
 41
0.9
 50
0.0
 71
     0
 42
0.2
  3
ROMANS
  4

  0
STYLE
  2
T5
 70
     0
 40
5.0
 41
0.9
 50
0.0
 71
     0
 42
0.2
  3
ROMANS
  4

  0
STYLE
  2
T35
 70
     0
 40
3.5
 41
0.9
 50
0.0
 71
     0
 42
0.2
  3
ROMANS
  4

  0
STYLE
  2
T25
 70
     0
 40
2.5
 41
0.9
 50
0.0
 71
     0
 42
2.5
  3
norm.shx
  4

  0
STYLE
  2
ACANSGDT
 70
     0
 40
0.0
 41
1.0
 50
0.0
 71
     0
 42
1.0
  3
amgdt.shx
  4

  0
ENDTAB
  0
TABLE
  2
VIEW
 70
     0
  0
ENDTAB
  0
TABLE
  2
UCS
 70
     0
  0
ENDTAB
  0
TABLE
  2
APPID
 70
    15
  0
APPID
  2
ACAD
 70
     0
  0
APPID
  2
GENIUS_GENCFG_13
 70
     0
  0
APPID
  2
GENIUS_GEVCFG0_13
 70
     0
  0
APPID
  2
GENIUS_GENCFG0_13
 70
     0
  0
APPID
  2
GENIUS_GENCFG1_13
 70
     0
  0
APPID
  2
GENIUS_GENCFG2_13
 70
     0
  0
APPID
  2
GENIUS_GENCFG3_13
 70
     0
  0
APPID
  2
GENIUS_GENCFG4_13
 70
     0
  0
APPID
  2
MCAD_NO_VIS
 70
     0
  0
APPID
  2
AD_DRAW
 70
     0
  0
APPID
  2
DESIGNERASSEMBLIES
 70
     0
  0
APPID
  2
ASURF_PCURVE_APPNAME
 70
     0
  0
APPID
  2
GENIUS_GE3CFG0_13
 70
     0
  0
APPID
  2
GENIUS_GENCFG5_13
 70
     0
  0
APPID
  2
CONTENTBLOCKICON
 70
     0
  0
ENDTAB
  0
TABLE
  2
DIMSTYLE
 70
     2
  0
DIMSTYLE
  2
ISO-25
 70
     0
  3

  4

  5

  6

  7

 40
1.0
 41
2.5
 42
0.625
 43
3.75
 44
1.25
 45
0.0
 46
0.0
 47
0.0
 48
0.0
140
2.5
141
2.5
142
0.0
143
0.03937007874016
144
1.0
145
0.0
146
1.0
147
0.625
 71
     0
 72
     0
 73
     0
 74
     0
 75
     0
 76
     0
 77
     1
 78
     8
170
     0
171
     3
172
     1
173
     0
174
     0
175
     0
176
     0
177
     0
178
     0
  0
DIMSTYLE
  2
STANDARD
 70
     0
  3

  4

  5

  6

  7

 40
1.0
 41
0.18
 42
0.0625
 43
0.38
 44
0.18
 45
0.0
 46
0.0
 47
0.0
 48
0.0
140
0.18
141
0.09
142
0.0
143
25.399999999999999
144
1.0
145
0.0
146
1.0
147
0.09
 71
     0
 72
     0
 73
     1
 74
     1
 75
     0
 76
     0
 77
     0
 78
     0
170
     0
171
     2
172
     0
173
     0
174
     0
175
     0
176
     0
177
     0
178
     0
  0
ENDTAB
  0
ENDSEC
  0
SECTION
  2
BLOCKS
  0
BLOCK
  8
0
  2
$MODEL_SPACE
 70
     0
 10
0.0
 20
0.0
 30
0.0
  3
$MODEL_SPACE
  1

  0
ENDBLK
  5
21
  8
0
  0
BLOCK
 67
     1
  8
0
  2
$PAPER_SPACE
 70
     0
 10
0.0
 20
0.0
 30
0.0
  3
$PAPER_SPACE
  1

  0
ENDBLK
  5
1D
 67
     1
  8
0
  0
BLOCK
  8
0
  2
LOGO
 70
     0
 10
0.0
 20
0.0
 30
0.0
  3
LOGO
  1

  0
LINE
  5
2C
  8
RAAMI
 10
0.9499999999999992
 20
10.5
 30
0.0
 11
2.6999999999999988
 21
10.5
 31
0.0
  0
LINE
  5
2D
  8
RAAMI
 10
6.1999999999999993
 20
10.5
 30
0.0
 11
7.9499999999999993
 21
10.5
 31
0.0
  0
LINE
  5
2E
  8
RAAMI
 10
3.3999999999999981
 20
17.5
 30
0.0
 11
2.2502499999999981
 21
14.214999999999989
 31
0.0
  0
LINE
  5
2F
  8
RAAMI
 10
3.1887866980971959
 20
11.9
 30
0.0
 11
4.2350000000000021
 21
11.9
 31
0.0
  0
LINE
  5
30
  8
RAAMI
 10
3.18878989496271
 20
11.8965425570363
 30
0.0
 11
2.6999999999999988
 21
10.5
 31
0.0
  0
LINE
  5
31
  8
RAAMI
 10
5.5
 20
17.5
 30
0.0
 11
6.64975
 21
14.214999999999989
 31
0.0
  0
LINE
  5
32
  8
RAAMI
 10
5.7110977032855557
 20
11.896863704898401
 30
0.0
 11
6.1999999999999993
 21
10.5
 31
0.0
  0
LINE
  5
33
  8
RAAMI
 10
5.5
 20
17.5
 30
0.0
 11
4.665
 21
17.5
 31
0.0
  0
LINE
  5
34
  8
RAAMI
 10
4.2350000000000021
 20
17.5
 30
0.0
 11
4.2350000000000021
 21
14.214999999999989
 31
0.0
  0
LINE
  5
35
  8
RAAMI
 10
4.665
 20
17.5
 30
0.0
 11
4.665
 21
14.214999999999989
 31
0.0
  0
LINE
  5
36
  8
RAAMI
 10
4.665
 20
11.9
 30
0.0
 11
5.7098933934267491
 21
11.9
 31
0.0
  0
LINE
  5
37
  8
RAAMI
 10
4.2350000000000021
 20
17.5
 30
0.0
 11
3.3999999999999981
 21
17.5
 31
0.0
  0
LINE
  5
38
  8
RAAMI
 10
2.2502499999999981
 20
14.214999999999989
 30
0.0
 11
4.2350000000000021
 21
14.214999999999989
 31
0.0
  0
LINE
  5
39
  8
RAAMI
 10
2.0997499999999998
 20
13.785
 30
0.0
 11
4.2350000000000021
 21
13.785
 31
0.0
  0
LINE
  5
3A
  8
RAAMI
 10
6.8002499999999992
 20
13.785
 30
0.0
 11
7.9499999999999993
 21
10.5
 31
0.0
  0
LINE
  5
3B
  8
RAAMI
 10
4.665
 20
14.214999999999989
 30
0.0
 11
6.64975
 21
14.214999999999989
 31
0.0
  0
LINE
  5
3C
  8
RAAMI
 10
4.665
 20
13.785
 30
0.0
 11
6.8002499999999992
 21
13.785
 31
0.0
  0
LINE
  5
3D
  8
RAAMI
 10
4.665
 20
13.785
 30
0.0
 11
4.665
 21
11.9
 31
0.0
  0
LINE
  5
3E
  8
RAAMI
 10
4.2350000000000021
 20
13.785
 30
0.0
 11
4.2350000000000021
 21
11.9
 31
0.0
  0
LINE
  5
3F
  8
RAAMI
 10
2.0997499999999998
 20
13.785
 30
0.0
 11
0.9499999999999992
 21
10.5
 31
0.0
  0
LINE
  5
40
  8
RAAMI
 10
8.4400000000000013
 20
10.5
 30
0.0
 11
8.4400000000000013
 21
13.785
 31
0.0
  0
LINE
  5
41
  8
RAAMI
 10
8.4400000000000013
 20
17.5
 30
0.0
 11
10.32499999999999
 21
17.5
 31
0.0
  0
LINE
  5
42
  8
RAAMI
 10
10.32499999999999
 20
17.5
 30
0.0
 11
10.32499999999999
 21
14.214999999999989
 31
0.0
  0
LINE
  5
43
  8
RAAMI
 10
10.32499999999999
 20
14.214999999999989
 30
0.0
 11
8.4400000000000013
 21
14.214999999999989
 31
0.0
  0
LINE
  5
44
  8
RAAMI
 10
8.4400000000000013
 20
13.785
 30
0.0
 11
10.32499999999999
 21
13.785
 31
0.0
  0
LINE
  5
45
  8
RAAMI
 10
10.32499999999999
 20
13.785
 30
0.0
 11
10.32499999999999
 21
10.5
 31
0.0
  0
LINE
  5
46
  8
RAAMI
 10
10.32499999999999
 20
10.5
 30
0.0
 11
8.4400000000000013
 21
10.5
 31
0.0
  0
LINE
  5
47
  8
RAAMI
 10
8.4400000000000013
 20
14.214999999999989
 30
0.0
 11
8.4400000000000013
 21
17.5
 31
0.0
  0
ARC
  5
48
  8
RAAMI
 10
11.24
 20
15.925000000000001
 30
0.0
 40
1.574999999999998
 50
298.45585933941169
 51
90.052436995563497
  0
LINE
  5
49
  8
RAAMI
 10
10.75499999999999
 20
17.499999340399661
 30
0.0
 11
11.238558563000881
 21
17.499999340399661
 31
0.0
  0
LINE
  5
4A
  8
RAAMI
 10
10.75499999999999
 20
17.5
 30
0.0
 11
10.75499999999999
 21
14.214999999999989
 31
0.0
  0
LINE
  5
4B
  8
RAAMI
 10
10.75499999999999
 20
14.214999999999989
 30
0.0
 11
12.582302126944599
 21
14.214999999999989
 31
0.0
  0
LINE
  5
4C
  8
RAAMI
 10
12.97371710495109
 20
13.785
 30
0.0
 11
10.75499999999999
 21
13.785
 31
0.0
  0
LINE
  5
4D
  8
RAAMI
 10
10.75499999999999
 20
13.785
 30
0.0
 11
10.75499999999999
 21
10.5
 31
0.0
  0
ARC
  5
4E
  8
RAAMI
 10
11.24
 20
12.6
 30
0.0
 40
2.0999999999999979
 50
269.9377244294032
 51
34.35270472657853
  0
LINE
  5
4F
  8
RAAMI
 10
10.75499999999999
 20
10.50000124045045
 30
0.0
 11
11.23771748157343
 21
10.50000124045045
 31
0.0
  0
ARC
  5
50
  8
RAAMI
 10
11.24
 20
12.6
 30
0.0
 40
2.0999999999999979
 50
50.268442740227627
 51
68.787999321869179
  0
INSERT
  5
51
  8
RAAMI
  2
*X2
 10
0.0
 20
0.0
 30
0.0
  0
INSERT
  5
52
  8
RAAMI
  2
*X3
 10
0.0
 20
0.0
 30
0.0
  0
INSERT
  5
53
  8
RAAMI
  2
*X4
 10
0.0
 20
0.0
 30
0.0
  0
INSERT
  5
54
  8
RAAMI
  2
*X5
 10
0.0
 20
0.0
 30
0.0
  0
INSERT
  5
55
  8
RAAMI
  2
*X6
 10
0.0
 20
0.0
 30
0.0
  0
INSERT
  5
56
  8
RAAMI
  2
*X7
 10
0.0
 20
0.0
 30
0.0
  0
INSERT
  5
57
  8
RAAMI
  2
*X8
 10
0.0
 20
0.0
 30
0.0
  0
INSERT
  5
58
  8
RAAMI
  2
*X9
 10
0.0
 20
0.0
 30
0.0
  0
INSERT
  5
59
  8
RAAMI
  2
*X9
 10
5.4599999999999973
 20
0.0
 30
0.0
  0
INSERT
  5
5A
  8
RAAMI
  2
*X8
 10
5.4599999999999973
 20
0.0
 30
0.0
  0
INSERT
  5
5B
  8
RAAMI
  2
*X7
 10
5.4599999999999973
 20
0.0
 30
0.0
  0
INSERT
  5
5C
  8
RAAMI
  2
*X6
 10
5.4599999999999973
 20
0.0
 30
0.0
  0
ARC
  5
5D
  8
RAAMI
 10
16.699999999999989
 20
12.6
 30
0.0
 40
2.0999999999999979
 50
50.268442740227627
 51
68.787999321869179
  0
LINE
  5
5E
  8
RAAMI
 10
16.214999999999989
 20
10.50000124045045
 30
0.0
 11
16.69771748157342
 21
10.50000124045045
 31
0.0
  0
ARC
  5
5F
  8
RAAMI
 10
16.699999999999989
 20
12.6
 30
0.0
 40
2.0999999999999979
 50
269.9377244294032
 51
34.35270472657853
  0
LINE
  5
60
  8
RAAMI
 10
16.214999999999989
 20
13.785
 30
0.0
 11
16.214999999999989
 21
10.5
 31
0.0
  0
LINE
  5
61
  8
RAAMI
 10
18.433717104951089
 20
13.785
 30
0.0
 11
16.214999999999989
 21
13.785
 31
0.0
  0
LINE
  5
62
  8
RAAMI
 10
16.214999999999989
 20
14.214999999999989
 30
0.0
 11
18.042302126944591
 21
14.214999999999989
 31
0.0
  0
LINE
  5
63
  8
RAAMI
 10
16.214999999999989
 20
17.5
 30
0.0
 11
16.214999999999989
 21
14.214999999999989
 31
0.0
  0
LINE
  5
64
  8
RAAMI
 10
16.214999999999989
 20
17.499999340399661
 30
0.0
 11
16.698558563000869
 21
17.499999340399661
 31
0.0
  0
ARC
  5
65
  8
RAAMI
 10
16.699999999999989
 20
15.925000000000001
 30
0.0
 40
1.574999999999998
 50
298.45585933941169
 51
90.052436995563497
  0
LINE
  5
66
  8
RAAMI
 10
13.89999999999999
 20
14.214999999999989
 30
0.0
 11
13.89999999999999
 21
17.5
 31
0.0
  0
LINE
  5
67
  8
RAAMI
 10
15.784999999999989
 20
10.5
 30
0.0
 11
13.89999999999999
 21
10.5
 31
0.0
  0
LINE
  5
68
  8
RAAMI
 10
15.784999999999989
 20
13.785
 30
0.0
 11
15.784999999999989
 21
10.5
 31
0.0
  0
LINE
  5
69
  8
RAAMI
 10
13.89999999999999
 20
13.785
 30
0.0
 11
15.784999999999989
 21
13.785
 31
0.0
  0
LINE
  5
6A
  8
RAAMI
 10
15.784999999999989
 20
14.214999999999989
 30
0.0
 11
13.89999999999999
 21
14.214999999999989
 31
0.0
  0
LINE
  5
6B
  8
RAAMI
 10
15.784999999999989
 20
17.5
 30
0.0
 11
15.784999999999989
 21
14.214999999999989
 31
0.0
  0
LINE
  5
6C
  8
RAAMI
 10
13.89999999999999
 20
17.5
 30
0.0
 11
15.784999999999989
 21
17.5
 31
0.0
  0
LINE
  5
6D
  8
RAAMI
 10
13.89999999999999
 20
10.5
 30
0.0
 11
13.89999999999999
 21
13.785
 31
0.0
  0
ENDBLK
  5
6F
  8
0
  0
BLOCK
  8
0
  2
*X2
 70
     1
 10
0.0
 20
0.0
 30
0.0
  3
*X2
  1

  0
LINE
  5
71
  8
0
 62
     0
 10
2.5850388412187519
 20
15.171539546339289
 30
0.0
 11
4.2350000000000021
 21
16.821500705120538
 31
0.0
  0
LINE
  5
72
  8
0
 62
     0
 10
2.6611888022696109
 20
15.38911086362746
 30
0.0
 11
4.2350000000000021
 21
16.962922061357851
 31
0.0
  0
LINE
  5
73
  8
0
 62
     0
 10
2.7373387633204711
 20
15.60668218091563
 30
0.0
 11
4.2350000000000021
 21
17.10434341759516
 31
0.0
  0
LINE
  5
74
  8
0
 62
     0
 10
2.81348872437133
 20
15.824253498203801
 30
0.0
 11
4.2350000000000021
 21
17.24576477383247
 31
0.0
  0
LINE
  5
75
  8
0
 62
     0
 10
2.889638685422188
 20
16.041824815491971
 30
0.0
 11
4.2350000000000021
 21
17.387186130069779
 31
0.0
  0
LINE
  5
76
  8
0
 62
     0
 10
2.965788646473047
 20
16.259396132780129
 30
0.0
 11
4.206392513692907
 21
17.5
 31
0.0
  0
LINE
  5
77
  8
0
 62
     0
 10
3.0419386075239059
 20
16.476967450068301
 30
0.0
 11
4.0649711574555969
 21
17.5
 31
0.0
  0
LINE
  5
78
  8
0
 62
     0
 10
3.1180885685747661
 20
16.69453876735648
 30
0.0
 11
3.9235498012182859
 21
17.5
 31
0.0
  0
LINE
  5
79
  8
0
 62
     0
 10
3.194238529625625
 20
16.912110084644642
 30
0.0
 11
3.7821284449809771
 21
17.5
 31
0.0
  0
LINE
  5
7A
  8
0
 62
     0
 10
3.2703884906764831
 20
17.12968140193281
 30
0.0
 11
3.6407070887436679
 21
17.5
 31
0.0
  0
LINE
  5
7B
  8
0
 62
     0
 10
3.3465384517273411
 20
17.347252719220979
 30
0.0
 11
3.4992857325063591
 21
17.5
 31
0.0
  0
LINE
  5
7C
  8
0
 62
     0
 10
2.5088888801678939
 20
14.95396822905113
 30
0.0
 11
4.2350000000000021
 21
16.68007934888324
 31
0.0
  0
LINE
  5
7D
  8
0
 62
     0
 10
2.432738919117035
 20
14.736396911762959
 30
0.0
 11
4.2350000000000021
 21
16.538657992645931
 31
0.0
  0
LINE
  5
7E
  8
0
 62
     0
 10
2.3565889580661761
 20
14.518825594474791
 30
0.0
 11
4.2350000000000021
 21
16.397236636408621
 31
0.0
  0
LINE
  5
7F
  8
0
 62
     0
 10
2.280438997015318
 20
14.30125427718662
 30
0.0
 11
4.2350000000000021
 21
16.255815280171309
 31
0.0
  0
LINE
  5
80
  8
0
 62
     0
 10
2.3356060760660009
 20
14.214999999999989
 30
0.0
 11
4.2350000000000021
 21
16.114393923933999
 31
0.0
  0
LINE
  5
81
  8
0
 62
     0
 10
2.4770274323033101
 20
14.214999999999989
 30
0.0
 11
4.2350000000000021
 21
15.97297256769669
 31
0.0
  0
LINE
  5
82
  8
0
 62
     0
 10
2.6184487885406189
 20
14.214999999999989
 30
0.0
 11
4.2350000000000021
 21
15.831551211459381
 31
0.0
  0
LINE
  5
83
  8
0
 62
     0
 10
2.7598701447779281
 20
14.214999999999989
 30
0.0
 11
4.2350000000000021
 21
15.69012985522207
 31
0.0
  0
LINE
  5
84
  8
0
 62
     0
 10
2.9012915010152391
 20
14.214999999999989
 30
0.0
 11
4.2350000000000021
 21
15.548708498984761
 31
0.0
  0
LINE
  5
85
  8
0
 62
     0
 10
3.042712857252547
 20
14.214999999999989
 30
0.0
 11
4.2350000000000021
 21
15.40728714274745
 31
0.0
  0
LINE
  5
86
  8
0
 62
     0
 10
3.184134213489858
 20
14.214999999999989
 30
0.0
 11
4.2350000000000021
 21
15.26586578651014
 31
0.0
  0
LINE
  5
87
  8
0
 62
     0
 10
3.3255555697271668
 20
14.214999999999989
 30
0.0
 11
4.2350000000000021
 21
15.124444430272829
 31
0.0
  0
LINE
  5
88
  8
0
 62
     0
 10
3.466976925964476
 20
14.214999999999989
 30
0.0
 11
4.2350000000000021
 21
14.98302307403552
 31
0.0
  0
LINE
  5
89
  8
0
 62
     0
 10
3.6083982822017862
 20
14.214999999999989
 30
0.0
 11
4.2350000000000021
 21
14.841601717798209
 31
0.0
  0
LINE
  5
8A
  8
0
 62
     0
 10
3.7498196384390949
 20
14.214999999999989
 30
0.0
 11
4.2350000000000021
 21
14.7001803615609
 31
0.0
  0
LINE
  5
8B
  8
0
 62
     0
 10
3.8912409946764051
 20
14.214999999999989
 30
0.0
 11
4.2350000000000021
 21
14.558759005323591
 31
0.0
  0
LINE
  5
8C
  8
0
 62
     0
 10
4.0326623509137152
 20
14.214999999999989
 30
0.0
 11
4.2350000000000021
 21
14.41733764908628
 31
0.0
  0
LINE
  5
8D
  8
0
 62
     0
 10
4.1740837071510226
 20
14.214999999999989
 30
0.0
 11
4.2350000000000021
 21
14.275916292848979
 31
0.0
  0
ENDBLK
  5
8F
  8
0
  0
BLOCK
  8
0
  2
*X3
 70
     1
 10
0.0
 20
0.0
 30
0.0
  3
*X3
  1

  0
LINE
  5
91
  8
0
 62
     0
 10
4.665
 20
14.847337649086279
 30
0.0
 11
5.9712457946813329
 21
16.153583443767619
 31
0.0
  0
LINE
  5
92
  8
0
 62
     0
 10
4.665
 20
14.98875900532359
 30
0.0
 11
5.9345809986198077
 21
16.258340003943399
 31
0.0
  0
LINE
  5
93
  8
0
 62
     0
 10
4.665
 20
15.1301803615609
 30
0.0
 11
5.8979162025582843
 21
16.363096564119189
 31
0.0
  0
LINE
  5
94
  8
0
 62
     0
 10
4.665
 20
15.271601717798211
 30
0.0
 11
5.8612514064967591
 21
16.467853124294969
 31
0.0
  0
LINE
  5
95
  8
0
 62
     0
 10
4.665
 20
15.41302307403552
 30
0.0
 11
5.824586610435234
 21
16.572609684470759
 31
0.0
  0
LINE
  5
96
  8
0
 62
     0
 10
4.665
 20
15.554444430272831
 30
0.0
 11
5.7879218143737088
 21
16.677366244646539
 31
0.0
  0
LINE
  5
97
  8
0
 62
     0
 10
4.665
 20
15.69586578651014
 30
0.0
 11
5.7512570183121854
 21
16.782122804822318
 31
0.0
  0
LINE
  5
98
  8
0
 62
     0
 10
4.665
 20
15.837287142747449
 30
0.0
 11
5.7145922222506602
 21
16.886879364998109
 31
0.0
  0
LINE
  5
99
  8
0
 62
     0
 10
4.665
 20
15.97870849898476
 30
0.0
 11
5.677927426189135
 21
16.991635925173892
 31
0.0
  0
LINE
  5
9A
  8
0
 62
     0
 10
4.665
 20
16.120129855222071
 30
0.0
 11
5.6412626301276099
 21
17.096392485349678
 31
0.0
  0
LINE
  5
9B
  8
0
 62
     0
 10
4.665
 20
16.261551211459381
 30
0.0
 11
5.6045978340660856
 21
17.201149045525462
 31
0.0
  0
LINE
  5
9C
  8
0
 62
     0
 10
4.665
 20
16.402972567696679
 30
0.0
 11
5.5679330380045622
 21
17.305905605701248
 31
0.0
  0
LINE
  5
9D
  8
0
 62
     0
 10
4.665
 20
16.544393923933988
 30
0.0
 11
5.531268241943037
 21
17.410662165877032
 31
0.0
  0
LINE
  5
9E
  8
0
 62
     0
 10
4.665
 20
16.685815280171312
 30
0.0
 11
5.47918471982869
 21
17.5
 31
0.0
  0
LINE
  5
9F
  8
0
 62
     0
 10
4.665
 20
16.827236636408621
 30
0.0
 11
5.3377633635913808
 21
17.5
 31
0.0
  0
LINE
  5
A0
  8
0
 62
     0
 10
4.665
 20
16.96865799264593
 30
0.0
 11
5.1963420073540716
 21
17.5
 31
0.0
  0
LINE
  5
A1
  8
0
 62
     0
 10
4.665
 20
17.110079348883239
 30
0.0
 11
5.0549206511167641
 21
17.5
 31
0.0
  0
LINE
  5
A2
  8
0
 62
     0
 10
4.665
 20
17.251500705120542
 30
0.0
 11
4.913499294879454
 21
17.5
 31
0.0
  0
LINE
  5
A3
  8
0
 62
     0
 10
4.665
 20
17.392922061357851
 30
0.0
 11
4.7720779386421448
 21
17.5
 31
0.0
  0
LINE
  5
A4
  8
0
 62
     0
 10
4.665
 20
14.70591629284897
 30
0.0
 11
6.007910590742858
 21
16.048826883591829
 31
0.0
  0
LINE
  5
A5
  8
0
 62
     0
 10
4.665
 20
14.564494936611659
 30
0.0
 11
6.0445753868043832
 21
15.944070323416041
 31
0.0
  0
LINE
  5
A6
  8
0
 62
     0
 10
4.665
 20
14.42307358037435
 30
0.0
 11
6.0812401828659066
 21
15.839313763240259
 31
0.0
  0
LINE
  5
A7
  8
0
 62
     0
 10
4.665
 20
14.281652224137041
 30
0.0
 11
6.1179049789274309
 21
15.734557203064471
 31
0.0
  0
LINE
  5
A8
  8
0
 62
     0
 10
4.7397691321002631
 20
14.214999999999989
 30
0.0
 11
6.1545697749889561
 21
15.629800642888689
 31
0.0
  0
LINE
  5
A9
  8
0
 62
     0
 10
4.8811904883375723
 20
14.214999999999989
 30
0.0
 11
6.1912345710504813
 21
15.52504408271291
 31
0.0
  0
LINE
  5
AA
  8
0
 62
     0
 10
5.0226118445748824
 20
14.214999999999989
 30
0.0
 11
6.2278993671120064
 21
15.420287522537119
 31
0.0
  0
LINE
  5
AB
  8
0
 62
     0
 10
5.1640332008121907
 20
14.214999999999989
 30
0.0
 11
6.2645641631735298
 21
15.31553096236134
 31
0.0
  0
LINE
  5
AC
  8
0
 62
     0
 10
5.3054545570495009
 20
14.214999999999989
 30
0.0
 11
6.301228959235055
 21
15.21077440218555
 31
0.0
  0
LINE
  5
AD
  8
0
 62
     0
 10
5.4468759132868101
 20
14.214999999999989
 30
0.0
 11
6.3378937552965802
 21
15.10601784200977
 31
0.0
  0
LINE
  5
AE
  8
0
 62
     0
 10
5.5882972695241202
 20
14.214999999999989
 30
0.0
 11
6.3745585513581036
 21
15.00126128183398
 31
0.0
  0
LINE
  5
AF
  8
0
 62
     0
 10
5.7297186257614303
 20
14.214999999999989
 30
0.0
 11
6.4112233474196287
 21
14.8965047216582
 31
0.0
  0
LINE
  5
B0
  8
0
 62
     0
 10
5.8711399819987387
 20
14.214999999999989
 30
0.0
 11
6.447888143481153
 21
14.79174816148241
 31
0.0
  0
LINE
  5
B1
  8
0
 62
     0
 10
6.012561338236047
 20
14.214999999999989
 30
0.0
 11
6.4845529395426791
 21
14.68699160130663
 31
0.0
  0
LINE
  5
B2
  8
0
 62
     0
 10
6.153982694473358
 20
14.214999999999989
 30
0.0
 11
6.5212177356042034
 21
14.58223504113084
 31
0.0
  0
LINE
  5
B3
  8
0
 62
     0
 10
6.2954040507106672
 20
14.214999999999989
 30
0.0
 11
6.5578825316657277
 21
14.47747848095506
 31
0.0
  0
LINE
  5
B4
  8
0
 62
     0
 10
6.4368254069479782
 20
14.214999999999989
 30
0.0
 11
6.5945473277272519
 21
14.37272192077927
 31
0.0
  0
LINE
  5
B5
  8
0
 62
     0
 10
6.5782467631852857
 20
14.214999999999989
 30
0.0
 11
6.631212123788778
 21
14.26796536060349
 31
0.0
  0
ENDBLK
  5
B7
  8
0
  0
BLOCK
  8
0
  2
*X4
 70
     1
 10
0.0
 20
0.0
 30
0.0
  3
*X4
  1

  0
LINE
  5
B9
  8
0
 62
     0
 10
1.024769132100263
 20
10.5
 30
0.0
 11
4.2350000000000021
 21
13.710230867899741
 31
0.0
  0
LINE
  5
BA
  8
0
 62
     0
 10
0.9858896591507163
 20
10.60254188328776
 30
0.0
 11
4.168347775862955
 21
13.785
 31
0.0
  0
LINE
  5
BB
  8
0
 62
     0
 10
1.0620396202015749
 20
10.82011320057593
 30
0.0
 11
4.026926419625644
 21
13.785
 31
0.0
  0
LINE
  5
BC
  8
0
 62
     0
 10
1.1381895812524341
 20
11.037684517864101
 30
0.0
 11
3.8855050633883348
 21
13.785
 31
0.0
  0
LINE
  5
BD
  8
0
 62
     0
 10
1.2143395423032941
 20
11.25525583515226
 30
0.0
 11
3.7440837071510251
 21
13.785
 31
0.0
  0
LINE
  5
BE
  8
0
 62
     0
 10
1.290489503354153
 20
11.472827152440431
 30
0.0
 11
3.6026623509137159
 21
13.785
 31
0.0
  0
LINE
  5
BF
  8
0
 62
     0
 10
1.3666394644050111
 20
11.690398469728599
 30
0.0
 11
3.4612409946764071
 21
13.785
 31
0.0
  0
LINE
  5
C0
  8
0
 62
     0
 10
1.4427894254558711
 20
11.90796978701677
 30
0.0
 11
3.3198196384390961
 21
13.785
 31
0.0
  0
LINE
  5
C1
  8
0
 62
     0
 10
1.51893938650673
 20
12.12554110430494
 30
0.0
 11
3.1783982822017882
 21
13.785
 31
0.0
  0
LINE
  5
C2
  8
0
 62
     0
 10
1.5950893475575889
 20
12.34311242159311
 30
0.0
 11
3.0369769259644772
 21
13.785
 31
0.0
  0
LINE
  5
C3
  8
0
 62
     0
 10
1.671239308608448
 20
12.560683738881281
 30
0.0
 11
2.895555569727168
 21
13.785
 31
0.0
  0
LINE
  5
C4
  8
0
 62
     0
 10
1.747389269659307
 20
12.77825505616944
 30
0.0
 11
2.7541342134898592
 21
13.785
 31
0.0
  0
LINE
  5
C5
  8
0
 62
     0
 10
1.8235392307101661
 20
12.995826373457611
 30
0.0
 11
2.6127128572525491
 21
13.785
 31
0.0
  0
LINE
  5
C6
  8
0
 62
     0
 10
1.899689191761025
 20
13.213397690745779
 30
0.0
 11
2.4712915010152399
 21
13.785
 31
0.0
  0
LINE
  5
C7
  8
0
 62
     0
 10
1.975839152811885
 20
13.43096900803395
 30
0.0
 11
2.3298701447779302
 21
13.785
 31
0.0
  0
LINE
  5
C8
  8
0
 62
     0
 10
2.0519891138627431
 20
13.64854032532212
 30
0.0
 11
2.188448788540621
 21
13.785
 31
0.0
  0
LINE
  5
C9
  8
0
 62
     0
 10
1.166190488337572
 20
10.5
 30
0.0
 11
4.2350000000000021
 21
13.56880951166243
 31
0.0
  0
LINE
  5
CA
  8
0
 62
     0
 10
1.3076118445748821
 20
10.5
 30
0.0
 11
4.2350000000000021
 21
13.42738815542512
 31
0.0
  0
LINE
  5
CB
  8
0
 62
     0
 10
1.4490332008121909
 20
10.5
 30
0.0
 11
4.2350000000000021
 21
13.285966799187809
 31
0.0
  0
LINE
  5
CC
  8
0
 62
     0
 10
1.5904545570495019
 20
10.5
 30
0.0
 11
4.2350000000000021
 21
13.1445454429505
 31
0.0
  0
LINE
  5
CD
  8
0
 62
     0
 10
1.7318759132868109
 20
10.5
 30
0.0
 11
4.2350000000000021
 21
13.003124086713189
 31
0.0
  0
LINE
  5
CE
  8
0
 62
     0
 10
1.8732972695241199
 20
10.5
 30
0.0
 11
3.1451476241023988
 21
11.77185035457827
 31
0.0
  0
LINE
  5
CF
  8
0
 62
     0
 10
3.2732972695241198
 20
11.9
 30
0.0
 11
4.2350000000000021
 21
12.86170273047588
 31
0.0
  0
LINE
  5
D0
  8
0
 62
     0
 10
2.01471862576143
 20
10.5
 30
0.0
 11
3.068997663051539
 21
11.554279037290099
 31
0.0
  0
LINE
  5
D1
  8
0
 62
     0
 10
3.4147186257614299
 20
11.9
 30
0.0
 11
4.2350000000000021
 21
12.720281374238571
 31
0.0
  0
LINE
  5
D2
  8
0
 62
     0
 10
2.1561399819987388
 20
10.5
 30
0.0
 11
2.9928477020006801
 21
11.336707720001939
 31
0.0
  0
LINE
  5
D3
  8
0
 62
     0
 10
3.5561399819987392
 20
11.9
 30
0.0
 11
4.2350000000000021
 21
12.57886001800126
 31
0.0
  0
LINE
  5
D4
  8
0
 62
     0
 10
2.297561338236048
 20
10.5
 30
0.0
 11
2.9166977409498198
 21
11.119136402713769
 31
0.0
  0
LINE
  5
D5
  8
0
 62
     0
 10
3.6975613382360479
 20
11.9
 30
0.0
 11
4.2350000000000021
 21
12.437438661763951
 31
0.0
  0
LINE
  5
D6
  8
0
 62
     0
 10
2.4389826944733581
 20
10.5
 30
0.0
 11
2.84054777989896
 21
10.901565085425601
 31
0.0
  0
LINE
  5
D7
  8
0
 62
     0
 10
3.838982694473358
 20
11.9
 30
0.0
 11
4.2350000000000021
 21
12.29601730552664
 31
0.0
  0
LINE
  5
D8
  8
0
 62
     0
 10
2.5804040507106669
 20
10.5
 30
0.0
 11
2.7643978188481011
 21
10.68399376813743
 31
0.0
  0
LINE
  5
D9
  8
0
 62
     0
 10
3.9804040507106668
 20
11.9
 30
0.0
 11
4.2350000000000021
 21
12.15459594928933
 31
0.0
  0
LINE
  5
DA
  8
0
 62
     0
 10
4.1218254069479769
 20
11.9
 30
0.0
 11
4.2350000000000021
 21
12.013174593052019
 31
0.0
  0
ENDBLK
  5
DC
  8
0
  0
BLOCK
  8
0
  2
*X5
 70
     1
 10
0.0
 20
0.0
 30
0.0
  3
*X5
  1

  0
LINE
  5
DE
  8
0
 62
     0
 10
5.8115581762923014
 20
11.60983378202199
 30
0.0
 11
7.107854472588599
 21
12.906130078318281
 31
0.0
  0
LINE
  5
DF
  8
0
 62
     0
 10
5.7748933802307771
 20
11.71459034219777
 30
0.0
 11
7.071189676527073
 21
13.010886638494069
 31
0.0
  0
LINE
  5
E0
  8
0
 62
     0
 10
5.7382285841692511
 20
11.81934690237356
 30
0.0
 11
7.0345248804655487
 21
13.115643198669851
 31
0.0
  0
LINE
  5
E1
  8
0
 62
     0
 10
5.677460325558382
 20
11.9
 30
0.0
 11
6.9978600844040244
 21
13.220399758845639
 31
0.0
  0
LINE
  5
E2
  8
0
 62
     0
 10
5.5360389693210728
 20
11.9
 30
0.0
 11
6.9611952883425001
 21
13.325156319021421
 31
0.0
  0
LINE
  5
E3
  8
0
 62
     0
 10
5.3946176130837626
 20
11.9
 30
0.0
 11
6.9245304922809741
 21
13.429912879197211
 31
0.0
  0
LINE
  5
E4
  8
0
 62
     0
 10
5.2531962568464543
 20
11.9
 30
0.0
 11
6.8878656962194498
 21
13.53466943937299
 31
0.0
  0
LINE
  5
E5
  8
0
 62
     0
 10
5.1117749006091442
 20
11.9
 30
0.0
 11
6.8512009001579246
 21
13.639425999548781
 31
0.0
  0
LINE
  5
E6
  8
0
 62
     0
 10
4.9703535443718341
 20
11.9
 30
0.0
 11
6.8145361040964012
 21
13.74418255972456
 31
0.0
  0
LINE
  5
E7
  8
0
 62
     0
 10
4.8289321881345257
 20
11.9
 30
0.0
 11
6.7139321881345246
 21
13.785
 31
0.0
  0
LINE
  5
E8
  8
0
 62
     0
 10
4.6875108318972156
 20
11.9
 30
0.0
 11
6.5725108318972136
 21
13.785
 31
0.0
  0
LINE
  5
E9
  8
0
 62
     0
 10
4.665
 20
12.01891052434009
 30
0.0
 11
6.4310894756599062
 21
13.785
 31
0.0
  0
LINE
  5
EA
  8
0
 62
     0
 10
4.665
 20
12.160331880577401
 30
0.0
 11
6.2896681194225961
 21
13.785
 31
0.0
  0
LINE
  5
EB
  8
0
 62
     0
 10
4.665
 20
12.30175323681471
 30
0.0
 11
6.148246763185286
 21
13.785
 31
0.0
  0
LINE
  5
EC
  8
0
 62
     0
 10
4.665
 20
12.443174593052021
 30
0.0
 11
6.0068254069479767
 21
13.785
 31
0.0
  0
LINE
  5
ED
  8
0
 62
     0
 10
4.665
 20
12.58459594928933
 30
0.0
 11
5.8654040507106666
 21
13.785
 31
0.0
  0
LINE
  5
EE
  8
0
 62
     0
 10
4.665
 20
12.726017305526639
 30
0.0
 11
5.7239826944733583
 21
13.785
 31
0.0
  0
LINE
  5
EF
  8
0
 62
     0
 10
4.665
 20
12.86743866176395
 30
0.0
 11
5.5825613382360482
 21
13.785
 31
0.0
  0
LINE
  5
F0
  8
0
 62
     0
 10
4.665
 20
13.008860018001259
 30
0.0
 11
5.4411399819987381
 21
13.785
 31
0.0
  0
LINE
  5
F1
  8
0
 62
     0
 10
4.665
 20
13.15028137423857
 30
0.0
 11
5.2997186257614288
 21
13.785
 31
0.0
  0
LINE
  5
F2
  8
0
 62
     0
 10
4.665
 20
13.29170273047588
 30
0.0
 11
5.1582972695241187
 21
13.785
 31
0.0
  0
LINE
  5
F3
  8
0
 62
     0
 10
4.665
 20
13.433124086713191
 30
0.0
 11
5.0168759132868104
 21
13.785
 31
0.0
  0
LINE
  5
F4
  8
0
 62
     0
 10
4.665
 20
13.574545442950489
 30
0.0
 11
4.875454557049502
 21
13.785
 31
0.0
  0
LINE
  5
F5
  8
0
 62
     0
 10
4.665
 20
13.715966799187809
 30
0.0
 11
4.734033200812191
 21
13.785
 31
0.0
  0
LINE
  5
F6
  8
0
 62
     0
 10
5.8482229723538257
 20
11.5050772218462
 30
0.0
 11
7.1445192686501233
 21
12.801373518142499
 31
0.0
  0
LINE
  5
F7
  8
0
 62
     0
 10
5.88488776841535
 20
11.40032066167042
 30
0.0
 11
7.1811840647116476
 21
12.696616957966709
 31
0.0
  0
LINE
  5
F8
  8
0
 62
     0
 10
5.9215525644768761
 20
11.29556410149463
 30
0.0
 11
7.2178488607731719
 21
12.59186039779093
 31
0.0
  0
LINE
  5
F9
  8
0
 62
     0
 10
5.9582173605384003
 20
11.190807541318851
 30
0.0
 11
7.2545136568346971
 21
12.487103837615139
 31
0.0
  0
LINE
  5
FA
  8
0
 62
     0
 10
5.9948821565999246
 20
11.08605098114306
 30
0.0
 11
7.2911784528962222
 21
12.38234727743936
 31
0.0
  0
LINE
  5
FB
  8
0
 62
     0
 10
6.0315469526614489
 20
10.981294420967281
 30
0.0
 11
7.3278432489577456
 21
12.27759071726358
 31
0.0
  0
LINE
  5
FC
  8
0
 62
     0
 10
6.0682117487229741
 20
10.87653786079149
 30
0.0
 11
7.3645080450192708
 21
12.17283415708779
 31
0.0
  0
LINE
  5
FD
  8
0
 62
     0
 10
6.1048765447844993
 20
10.771781300615711
 30
0.0
 11
7.4011728410807951
 21
12.06807759691201
 31
0.0
  0
LINE
  5
FE
  8
0
 62
     0
 10
6.1415413408460244
 20
10.667024740439921
 30
0.0
 11
7.4378376371423212
 21
11.96332103673622
 31
0.0
  0
LINE
  5
FF
  8
0
 62
     0
 10
6.1782061369075478
 20
10.562268180264139
 30
0.0
 11
7.4745024332038454
 21
11.85856447656044
 31
0.0
  0
LINE
  5
100
  8
0
 62
     0
 10
6.2573593128807152
 20
10.5
 30
0.0
 11
7.5111672292653697
 21
11.75380791638465
 31
0.0
  0
LINE
  5
101
  8
0
 62
     0
 10
6.3987806691180236
 20
10.5
 30
0.0
 11
7.547832025326894
 21
11.64905135620887
 31
0.0
  0
LINE
  5
102
  8
0
 62
     0
 10
6.5402020253553337
 20
10.5
 30
0.0
 11
7.5844968213884192
 21
11.54429479603308
 31
0.0
  0
LINE
  5
103
  8
0
 62
     0
 10
6.6816233815926429
 20
10.5
 30
0.0
 11
7.6211616174499444
 21
11.439538235857301
 31
0.0
  0
LINE
  5
104
  8
0
 62
     0
 10
6.823044737829953
 20
10.5
 30
0.0
 11
7.6578264135114678
 21
11.33478167568151
 31
0.0
  0
LINE
  5
105
  8
0
 62
     0
 10
6.9644660940672631
 20
10.5
 30
0.0
 11
7.6944912095729929
 21
11.230025115505731
 31
0.0
  0
LINE
  5
106
  8
0
 62
     0
 10
7.1058874503045724
 20
10.5
 30
0.0
 11
7.7311560056345181
 21
11.12526855532994
 31
0.0
  0
LINE
  5
107
  8
0
 62
     0
 10
7.2473088065418807
 20
10.5
 30
0.0
 11
7.7678208016960433
 21
11.020511995154161
 31
0.0
  0
LINE
  5
108
  8
0
 62
     0
 10
7.3887301627791908
 20
10.5
 30
0.0
 11
7.8044855977575667
 21
10.915755434978371
 31
0.0
  0
LINE
  5
109
  8
0
 62
     0
 10
7.5301515190165
 20
10.5
 30
0.0
 11
7.8411503938190918
 21
10.810998874802589
 31
0.0
  0
LINE
  5
10A
  8
0
 62
     0
 10
7.671572875253811
 20
10.5
 30
0.0
 11
7.877815189880617
 21
10.706242314626801
 31
0.0
  0
LINE
  5
10B
  8
0
 62
     0
 10
7.8129942314911203
 20
10.5
 30
0.0
 11
7.9144799859421413
 21
10.601485754451019
 31
0.0
  0
ENDBLK
  5
10D
  8
0
  0
BLOCK
  8
0
  2
*X6
 70
     1
 10
0.0
 20
0.0
 30
0.0
  3
*X6
  1

  0
LINE
  5
10F
  8
0
 62
     0
 10
8.4400000000000013
 20
14.80396103067892
 30
0.0
 11
10.324999999999999
 21
16.688961030678929
 31
0.0
  0
LINE
  5
110
  8
0
 62
     0
 10
8.4400000000000013
 20
14.94538238691624
 30
0.0
 11
10.324999999999999
 21
16.830382386916231
 31
0.0
  0
LINE
  5
111
  8
0
 62
     0
 10
8.4400000000000013
 20
15.08680374315354
 30
0.0
 11
10.324999999999999
 21
16.97180374315354
 31
0.0
  0
LINE
  5
112
  8
0
 62
     0
 10
8.4400000000000013
 20
15.22822509939086
 30
0.0
 11
10.324999999999999
 21
17.113225099390849
 31
0.0
  0
LINE
  5
113
  8
0
 62
     0
 10
8.4400000000000013
 20
15.36964645562816
 30
0.0
 11
10.324999999999999
 21
17.254646455628158
 31
0.0
  0
LINE
  5
114
  8
0
 62
     0
 10
8.4400000000000013
 20
15.51106781186547
 30
0.0
 11
10.324999999999999
 21
17.396067811865471
 31
0.0
  0
LINE
  5
115
  8
0
 62
     0
 10
8.4400000000000013
 20
15.652489168102781
 30
0.0
 11
10.28751083189721
 21
17.5
 31
0.0
  0
LINE
  5
116
  8
0
 62
     0
 10
8.4400000000000013
 20
15.79391052434009
 30
0.0
 11
10.146089475659901
 21
17.5
 31
0.0
  0
LINE
  5
117
  8
0
 62
     0
 10
8.4400000000000013
 20
15.935331880577399
 30
0.0
 11
10.00466811942259
 21
17.5
 31
0.0
  0
LINE
  5
118
  8
0
 62
     0
 10
8.4400000000000013
 20
16.07675323681471
 30
0.0
 11
9.8632467631852876
 21
17.5
 31
0.0
  0
LINE
  5
119
  8
0
 62
     0
 10
8.4400000000000013
 20
16.218174593052019
 30
0.0
 11
9.7218254069479801
 21
17.5
 31
0.0
  0
LINE
  5
11A
  8
0
 62
     0
 10
8.4400000000000013
 20
16.359595949289329
 30
0.0
 11
9.5804040507106691
 21
17.5
 31
0.0
  0
LINE
  5
11B
  8
0
 62
     0
 10
8.4400000000000013
 20
16.501017305526641
 30
0.0
 11
9.4389826944733581
 21
17.5
 31
0.0
  0
LINE
  5
11C
  8
0
 62
     0
 10
8.4400000000000013
 20
16.642438661763951
 30
0.0
 11
9.2975613382360471
 21
17.5
 31
0.0
  0
LINE
  5
11D
  8
0
 62
     0
 10
8.4400000000000013
 20
16.78386001800126
 30
0.0
 11
9.1561399819987415
 21
17.5
 31
0.0
  0
LINE
  5
11E
  8
0
 62
     0
 10
8.4400000000000013
 20
16.925281374238569
 30
0.0
 11
9.0147186257614322
 21
17.5
 31
0.0
  0
LINE
  5
11F
  8
0
 62
     0
 10
8.4400000000000013
 20
17.066702730475878
 30
0.0
 11
8.8732972695241212
 21
17.5
 31
0.0
  0
LINE
  5
120
  8
0
 62
     0
 10
8.4400000000000013
 20
17.208124086713191
 30
0.0
 11
8.731875913286812
 21
17.5
 31
0.0
  0
LINE
  5
121
  8
0
 62
     0
 10
8.4400000000000013
 20
17.3495454429505
 30
0.0
 11
8.5904545570495028
 21
17.5
 31
0.0
  0
LINE
  5
122
  8
0
 62
     0
 10
8.4400000000000013
 20
17.490966799187809
 30
0.0
 11
8.4490332008121936
 21
17.5
 31
0.0
  0
LINE
  5
123
  8
0
 62
     0
 10
8.4400000000000013
 20
14.66253967444162
 30
0.0
 11
10.324999999999999
 21
16.547539674441619
 31
0.0
  0
LINE
  5
124
  8
0
 62
     0
 10
8.4400000000000013
 20
14.52111831820431
 30
0.0
 11
10.324999999999999
 21
16.40611831820431
 31
0.0
  0
LINE
  5
125
  8
0
 62
     0
 10
8.4400000000000013
 20
14.379696961966999
 30
0.0
 11
10.324999999999999
 21
16.264696961967001
 31
0.0
  0
LINE
  5
126
  8
0
 62
     0
 10
8.4400000000000013
 20
14.23827560572969
 30
0.0
 11
10.324999999999999
 21
16.123275605729692
 31
0.0
  0
LINE
  5
127
  8
0
 62
     0
 10
8.5581457505076202
 20
14.214999999999989
 30
0.0
 11
10.324999999999999
 21
15.981854249492381
 31
0.0
  0
LINE
  5
128
  8
0
 62
     0
 10
8.6995671067449294
 20
14.214999999999989
 30
0.0
 11
10.324999999999999
 21
15.84043289325507
 31
0.0
  0
LINE
  5
129
  8
0
 62
     0
 10
8.8409884629822386
 20
14.214999999999989
 30
0.0
 11
10.324999999999999
 21
15.699011537017761
 31
0.0
  0
LINE
  5
12A
  8
0
 62
     0
 10
8.9824098192195478
 20
14.214999999999989
 30
0.0
 11
10.324999999999999
 21
15.55759018078045
 31
0.0
  0
LINE
  5
12B
  8
0
 62
     0
 10
9.1238311754568571
 20
14.214999999999989
 30
0.0
 11
10.324999999999999
 21
15.41616882454314
 31
0.0
  0
LINE
  5
12C
  8
0
 62
     0
 10
9.2652525316941681
 20
14.214999999999989
 30
0.0
 11
10.324999999999999
 21
15.274747468305829
 31
0.0
  0
LINE
  5
12D
  8
0
 62
     0
 10
9.4066738879314773
 20
14.214999999999989
 30
0.0
 11
10.324999999999999
 21
15.13332611206852
 31
0.0
  0
LINE
  5
12E
  8
0
 62
     0
 10
9.5480952441687865
 20
14.214999999999989
 30
0.0
 11
10.324999999999999
 21
14.991904755831211
 31
0.0
  0
LINE
  5
12F
  8
0
 62
     0
 10
9.6895166004060957
 20
14.214999999999989
 30
0.0
 11
10.324999999999999
 21
14.8504833995939
 31
0.0
  0
LINE
  5
130
  8
0
 62
     0
 10
9.8309379566434032
 20
14.214999999999989
 30
0.0
 11
10.324999999999999
 21
14.709062043356591
 31
0.0
  0
LINE
  5
131
  8
0
 62
     0
 10
9.9723593128807142
 20
14.214999999999989
 30
0.0
 11
10.324999999999999
 21
14.56764068711928
 31
0.0
  0
LINE
  5
132
  8
0
 62
     0
 10
10.11378066911802
 20
14.214999999999989
 30
0.0
 11
10.324999999999999
 21
14.42621933088197
 31
0.0
  0
LINE
  5
133
  8
0
 62
     0
 10
10.255202025355331
 20
14.214999999999989
 30
0.0
 11
10.324999999999999
 21
14.28479797464467
 31
0.0
  0
ENDBLK
  5
135
  8
0
  0
BLOCK
  8
0
  2
*X7
 70
     1
 10
0.0
 20
0.0
 30
0.0
  3
*X7
  1

  0
LINE
  5
137
  8
0
 62
     0
 10
8.4400000000000013
 20
11.12700576850888
 30
0.0
 11
10.324999999999999
 21
13.01200576850888
 31
0.0
  0
LINE
  5
138
  8
0
 62
     0
 10
8.4400000000000013
 20
11.268427124746189
 30
0.0
 11
10.324999999999999
 21
13.153427124746189
 31
0.0
  0
LINE
  5
139
  8
0
 62
     0
 10
8.4400000000000013
 20
11.4098484809835
 30
0.0
 11
10.324999999999999
 21
13.2948484809835
 31
0.0
  0
LINE
  5
13A
  8
0
 62
     0
 10
8.4400000000000013
 20
11.55126983722081
 30
0.0
 11
10.324999999999999
 21
13.436269837220809
 31
0.0
  0
LINE
  5
13B
  8
0
 62
     0
 10
8.4400000000000013
 20
11.692691193458121
 30
0.0
 11
10.324999999999999
 21
13.57769119345812
 31
0.0
  0
LINE
  5
13C
  8
0
 62
     0
 10
8.4400000000000013
 20
11.83411254969543
 30
0.0
 11
10.324999999999999
 21
13.71911254969543
 31
0.0
  0
LINE
  5
13D
  8
0
 62
     0
 10
8.4400000000000013
 20
11.975533905932741
 30
0.0
 11
10.249466094067261
 21
13.785
 31
0.0
  0
LINE
  5
13E
  8
0
 62
     0
 10
8.4400000000000013
 20
12.116955262170039
 30
0.0
 11
10.10804473782995
 21
13.785
 31
0.0
  0
LINE
  5
13F
  8
0
 62
     0
 10
8.4400000000000013
 20
12.258376618407359
 30
0.0
 11
9.9666233815926422
 21
13.785
 31
0.0
  0
LINE
  5
140
  8
0
 62
     0
 10
8.4400000000000013
 20
12.39979797464466
 30
0.0
 11
9.8252020253553312
 21
13.785
 31
0.0
  0
LINE
  5
141
  8
0
 62
     0
 10
8.4400000000000013
 20
12.541219330881971
 30
0.0
 11
9.6837806691180237
 21
13.785
 31
0.0
  0
LINE
  5
142
  8
0
 62
     0
 10
8.4400000000000013
 20
12.68264068711928
 30
0.0
 11
9.5423593128807145
 21
13.785
 31
0.0
  0
LINE
  5
143
  8
0
 62
     0
 10
8.4400000000000013
 20
12.824062043356591
 30
0.0
 11
9.4009379566434053
 21
13.785
 31
0.0
  0
LINE
  5
144
  8
0
 62
     0
 10
8.4400000000000013
 20
12.9654833995939
 30
0.0
 11
9.259516600406096
 21
13.785
 31
0.0
  0
LINE
  5
145
  8
0
 62
     0
 10
8.4400000000000013
 20
13.106904755831209
 30
0.0
 11
9.118095244168785
 21
13.785
 31
0.0
  0
LINE
  5
146
  8
0
 62
     0
 10
8.4400000000000013
 20
13.24832611206852
 30
0.0
 11
8.9766738879314776
 21
13.785
 31
0.0
  0
LINE
  5
147
  8
0
 62
     0
 10
8.4400000000000013
 20
13.38974746830583
 30
0.0
 11
8.8352525316941666
 21
13.785
 31
0.0
  0
LINE
  5
148
  8
0
 62
     0
 10
8.4400000000000013
 20
13.531168824543141
 30
0.0
 11
8.6938311754568574
 21
13.785
 31
0.0
  0
LINE
  5
149
  8
0
 62
     0
 10
8.4400000000000013
 20
13.67259018078045
 30
0.0
 11
8.5524098192195481
 21
13.785
 31
0.0
  0
LINE
  5
14A
  8
0
 62
     0
 10
8.4400000000000013
 20
10.985584412271569
 30
0.0
 11
10.324999999999999
 21
12.870584412271571
 31
0.0
  0
LINE
  5
14B
  8
0
 62
     0
 10
8.4400000000000013
 20
10.84416305603426
 30
0.0
 11
10.324999999999999
 21
12.72916305603426
 31
0.0
  0
LINE
  5
14C
  8
0
 62
     0
 10
8.4400000000000013
 20
10.702741699796951
 30
0.0
 11
10.324999999999999
 21
12.58774169979695
 31
0.0
  0
LINE
  5
14D
  8
0
 62
     0
 10
8.4400000000000013
 20
10.56132034355964
 30
0.0
 11
10.324999999999999
 21
12.446320343559639
 31
0.0
  0
LINE
  5
14E
  8
0
 62
     0
 10
8.5201010126776673
 20
10.5
 30
0.0
 11
10.324999999999999
 21
12.30489898732233
 31
0.0
  0
LINE
  5
14F
  8
0
 62
     0
 10
8.6615223689149765
 20
10.5
 30
0.0
 11
10.324999999999999
 21
12.163477631085019
 31
0.0
  0
LINE
  5
150
  8
0
 62
     0
 10
8.8029437251522857
 20
10.5
 30
0.0
 11
10.324999999999999
 21
12.02205627484771
 31
0.0
  0
LINE
  5
151
  8
0
 62
     0
 10
8.9443650813895932
 20
10.5
 30
0.0
 11
10.324999999999999
 21
11.880634918610401
 31
0.0
  0
LINE
  5
152
  8
0
 62
     0
 10
9.0857864376269042
 20
10.5
 30
0.0
 11
10.324999999999999
 21
11.73921356237309
 31
0.0
  0
LINE
  5
153
  8
0
 62
     0
 10
9.2272077938642134
 20
10.5
 30
0.0
 11
10.324999999999999
 21
11.597792206135781
 31
0.0
  0
LINE
  5
154
  8
0
 62
     0
 10
9.3686291501015244
 20
10.5
 30
0.0
 11
10.324999999999999
 21
11.45637084989847
 31
0.0
  0
LINE
  5
155
  8
0
 62
     0
 10
9.5100505063388336
 20
10.5
 30
0.0
 11
10.324999999999999
 21
11.31494949366116
 31
0.0
  0
LINE
  5
156
  8
0
 62
     0
 10
9.6514718625761429
 20
10.5
 30
0.0
 11
10.324999999999999
 21
11.173528137423849
 31
0.0
  0
LINE
  5
157
  8
0
 62
     0
 10
9.7928932188134521
 20
10.5
 30
0.0
 11
10.324999999999999
 21
11.032106781186551
 31
0.0
  0
LINE
  5
158
  8
0
 62
     0
 10
9.9343145750507613
 20
10.5
 30
0.0
 11
10.324999999999999
 21
10.89068542494924
 31
0.0
  0
LINE
  5
159
  8
0
 62
     0
 10
10.075735931288071
 20
10.5
 30
0.0
 11
10.324999999999999
 21
10.749264068711931
 31
0.0
  0
LINE
  5
15A
  8
0
 62
     0
 10
10.21715728752538
 20
10.5
 30
0.0
 11
10.324999999999999
 21
10.607842712474611
 31
0.0
  0
ENDBLK
  5
15C
  8
0
  0
BLOCK
  8
0
  2
*X8
 70
     1
 10
0.0
 20
0.0
 30
0.0
  3
*X8
  1

  0
LINE
  5
15E
  8
0
 62
     0
 10
10.75499999999999
 20
14.85621933088197
 30
0.0
 11
12.606651951193619
 21
16.70787128207559
 31
0.0
  0
LINE
  5
15F
  8
0
 62
     0
 10
10.75499999999999
 20
14.997640687119279
 30
0.0
 11
12.552688730876721
 21
16.795329417996001
 31
0.0
  0
LINE
  5
160
  8
0
 62
     0
 10
10.75499999999999
 20
15.13906204335659
 30
0.0
 11
12.49395055341158
 21
16.878012596768169
 31
0.0
  0
LINE
  5
161
  8
0
 62
     0
 10
10.75499999999999
 20
15.2804833995939
 30
0.0
 11
12.43059182218045
 21
16.956075221774359
 31
0.0
  0
LINE
  5
162
  8
0
 62
     0
 10
10.75499999999999
 20
15.421904755831211
 30
0.0
 11
12.362704050492461
 21
17.029608806323679
 31
0.0
  0
LINE
  5
163
  8
0
 62
     0
 10
10.75499999999999
 20
15.56332611206852
 30
0.0
 11
12.290321731415871
 21
17.09864784348439
 31
0.0
  0
LINE
  5
164
  8
0
 62
     0
 10
10.75499999999999
 20
15.704747468305831
 30
0.0
 11
12.21342448184601
 21
17.163171950151838
 31
0.0
  0
LINE
  5
165
  8
0
 62
     0
 10
10.75499999999999
 20
15.84616882454314
 30
0.0
 11
12.13193578000449
 21
17.22310460454764
 31
0.0
  0
LINE
  5
166
  8
0
 62
     0
 10
10.75499999999999
 20
15.987590180780449
 30
0.0
 11
12.045718109380029
 21
17.278308290160481
 31
0.0
  0
LINE
  5
167
  8
0
 62
     0
 10
10.75499999999999
 20
16.12901153701776
 30
0.0
 11
11.95456376436614
 21
17.3285753013839
 31
0.0
  0
LINE
  5
168
  8
0
 62
     0
 10
10.75499999999999
 20
16.270432893255069
 30
0.0
 11
11.858179799954581
 21
17.373612693209651
 31
0.0
  0
LINE
  5
169
  8
0
 62
     0
 10
10.75499999999999
 20
16.411854249492372
 30
0.0
 11
11.756164352832529
 21
17.413018602324911
 31
0.0
  0
LINE
  5
16A
  8
0
 62
     0
 10
10.75499999999999
 20
16.553275605729691
 30
0.0
 11
11.647969296643449
 21
17.446244902373142
 31
0.0
  0
LINE
  5
16B
  8
0
 62
     0
 10
10.75499999999999
 20
16.69469696196699
 30
0.0
 11
11.53283975161226
 21
17.47253671357926
 31
0.0
  0
LINE
  5
16C
  8
0
 62
     0
 10
10.75499999999999
 20
16.83611831820431
 30
0.0
 11
11.409711496309511
 21
17.49082981451382
 31
0.0
  0
LINE
  5
16D
  8
0
 62
     0
 10
10.75499999999999
 20
16.977539674441608
 30
0.0
 11
11.2770250730259
 21
17.49956474746751
 31
0.0
  0
LINE
  5
16E
  8
0
 62
     0
 10
10.75499999999999
 20
17.118961030678928
 30
0.0
 11
11.13603830972073
 21
17.499999340399661
 31
0.0
  0
LINE
  5
16F
  8
0
 62
     0
 10
10.75499999999999
 20
17.260382386916231
 30
0.0
 11
10.994616953483421
 21
17.499999340399661
 31
0.0
  0
LINE
  5
170
  8
0
 62
     0
 10
10.75499999999999
 20
17.40180374315354
 30
0.0
 11
10.85319559724611
 21
17.499999340399661
 31
0.0
  0
LINE
  5
171
  8
0
 62
     0
 10
10.75499999999999
 20
14.714797974644661
 30
0.0
 11
12.655612411288869
 21
16.61541038593354
 31
0.0
  0
LINE
  5
172
  8
0
 62
     0
 10
10.75499999999999
 20
14.57337661840735
 30
0.0
 11
12.699251980783631
 21
16.517628599190981
 31
0.0
  0
LINE
  5
173
  8
0
 62
     0
 10
10.75499999999999
 20
14.431955262170041
 30
0.0
 11
12.73713563115315
 21
16.414090893323191
 31
0.0
  0
LINE
  5
174
  8
0
 62
     0
 10
10.75499999999999
 20
14.29053390593273
 30
0.0
 11
12.768669326167331
 21
16.304203232100068
 31
0.0
  0
LINE
  5
175
  8
0
 62
     0
 10
10.82088745030457
 20
14.215
 30
0.0
 11
12.79303113012304
 21
16.187143679818458
 31
0.0
  0
LINE
  5
176
  8
0
 62
     0
 10
10.962308806541881
 20
14.215
 30
0.0
 11
12.809052621510171
 21
16.061743814968288
 31
0.0
  0
LINE
  5
177
  8
0
 62
     0
 10
11.10373016277919
 20
14.215
 30
0.0
 11
12.81499948851172
 21
15.92626932573253
 31
0.0
  0
LINE
  5
178
  8
0
 62
     0
 10
11.245151519016501
 20
14.215
 30
0.0
 11
12.808122251093319
 21
15.77797073207682
 31
0.0
  0
LINE
  5
179
  8
0
 62
     0
 10
11.38657287525381
 20
14.215
 30
0.0
 11
12.783588631445481
 21
15.612015756191671
 31
0.0
  0
LINE
  5
17A
  8
0
 62
     0
 10
11.52799423149111
 20
14.215
 30
0.0
 11
12.731254429283981
 21
15.41826019779286
 31
0.0
  0
LINE
  5
17B
  8
0
 62
     0
 10
11.66941558772843
 20
14.215
 30
0.0
 11
11.999808236352161
 21
14.54539264862373
 31
0.0
  0
LINE
  5
17C
  8
0
 62
     0
 10
12.00867663314944
 20
14.55426104542102
 30
0.0
 11
12.61960735137626
 21
15.16519176364783
 31
0.0
  0
LINE
  5
17D
  8
0
 62
     0
 10
11.810836943965731
 20
14.215
 30
0.0
 11
12.108037487788099
 21
14.51220054382236
 31
0.0
  0
LINE
  5
17E
  8
0
 62
     0
 10
11.95225830020304
 20
14.215
 30
0.0
 11
12.20328965915022
 21
14.466031358947181
 31
0.0
  0
LINE
  5
17F
  8
0
 62
     0
 10
12.093679656440351
 20
14.215
 30
0.0
 11
12.294643919212939
 21
14.415964262772579
 31
0.0
  0
LINE
  5
180
  8
0
 62
     0
 10
12.23510101267766
 20
14.215
 30
0.0
 11
12.382266506587831
 21
14.36216549391016
 31
0.0
  0
LINE
  5
181
  8
0
 62
     0
 10
12.376522368914969
 20
14.215
 30
0.0
 11
12.46628661553598
 21
14.30476424662101
 31
0.0
  0
LINE
  5
182
  8
0
 62
     0
 10
12.51794372515228
 20
14.215
 30
0.0
 11
12.54680174666866
 21
14.243858021516379
 31
0.0
  0
ENDBLK
  5
184
  8
0
  0
BLOCK
  8
0
  2
*X9
 70
     1
 10
0.0
 20
0.0
 30
0.0
  3
*X9
  1

  0
LINE
  5
186
  8
0
 62
     0
 10
10.75499999999999
 20
10.89642135623731
 30
0.0
 11
13.20345567881146
 21
13.344877035048761
 31
0.0
  0
LINE
  5
187
  8
0
 62
     0
 10
10.75499999999999
 20
11.03784271247461
 30
0.0
 11
13.162389701849291
 21
13.4452324143239
 31
0.0
  0
LINE
  5
188
  8
0
 62
     0
 10
10.75499999999999
 20
11.17926406871192
 30
0.0
 11
13.11715841360858
 21
13.54142248232051
 31
0.0
  0
LINE
  5
189
  8
0
 62
     0
 10
10.75499999999999
 20
11.320685424949231
 30
0.0
 11
13.06798435218605
 21
13.633669777135291
 31
0.0
  0
LINE
  5
18A
  8
0
 62
     0
 10
10.75499999999999
 20
11.46210678118654
 30
0.0
 11
13.015043382565789
 21
13.722150163752341
 31
0.0
  0
LINE
  5
18B
  8
0
 62
     0
 10
10.75499999999999
 20
11.603528137423851
 30
0.0
 11
12.936471862576139
 21
13.785
 31
0.0
  0
LINE
  5
18C
  8
0
 62
     0
 10
10.75499999999999
 20
11.74494949366116
 30
0.0
 11
12.79505050633883
 21
13.785
 31
0.0
  0
LINE
  5
18D
  8
0
 62
     0
 10
10.75499999999999
 20
11.886370849898469
 30
0.0
 11
12.653629150101519
 21
13.785
 31
0.0
  0
LINE
  5
18E
  8
0
 62
     0
 10
10.75499999999999
 20
12.02779220613578
 30
0.0
 11
12.51220779386421
 21
13.785
 31
0.0
  0
LINE
  5
18F
  8
0
 62
     0
 10
10.75499999999999
 20
12.169213562373089
 30
0.0
 11
12.370786437626901
 21
13.785
 31
0.0
  0
LINE
  5
190
  8
0
 62
     0
 10
10.75499999999999
 20
12.3106349186104
 30
0.0
 11
12.22936508138959
 21
13.785
 31
0.0
  0
LINE
  5
191
  8
0
 62
     0
 10
10.75499999999999
 20
12.45205627484771
 30
0.0
 11
12.087943725152281
 21
13.785
 31
0.0
  0
LINE
  5
192
  8
0
 62
     0
 10
10.75499999999999
 20
12.593477631085021
 30
0.0
 11
11.94652236891497
 21
13.785
 31
0.0
  0
LINE
  5
193
  8
0
 62
     0
 10
10.75499999999999
 20
12.73489898732233
 30
0.0
 11
11.80510101267766
 21
13.785
 31
0.0
  0
LINE
  5
194
  8
0
 62
     0
 10
10.75499999999999
 20
12.876320343559639
 30
0.0
 11
11.663679656440349
 21
13.785
 31
0.0
  0
LINE
  5
195
  8
0
 62
     0
 10
10.75499999999999
 20
13.01774169979695
 30
0.0
 11
11.52225830020304
 21
13.785
 31
0.0
  0
LINE
  5
196
  8
0
 62
     0
 10
10.75499999999999
 20
13.159163056034259
 30
0.0
 11
11.380836943965731
 21
13.785
 31
0.0
  0
LINE
  5
197
  8
0
 62
     0
 10
10.75499999999999
 20
13.30058441227157
 30
0.0
 11
11.23941558772842
 21
13.785
 31
0.0
  0
LINE
  5
198
  8
0
 62
     0
 10
10.75499999999999
 20
13.44200576850888
 30
0.0
 11
11.097994231491111
 21
13.785
 31
0.0
  0
LINE
  5
199
  8
0
 62
     0
 10
10.75499999999999
 20
13.583427124746191
 30
0.0
 11
10.95657287525381
 21
13.785
 31
0.0
  0
LINE
  5
19A
  8
0
 62
     0
 10
10.75499999999999
 20
13.7248484809835
 30
0.0
 11
10.815151519016499
 21
13.785
 31
0.0
  0
LINE
  5
19B
  8
0
 62
     0
 10
10.75499999999999
 20
10.75499999999999
 30
0.0
 11
13.240075755401939
 21
13.240075755401939
 31
0.0
  0
LINE
  5
19C
  8
0
 62
     0
 10
10.75499999999999
 20
10.61357864376269
 30
0.0
 11
13.271895082394099
 21
13.13047372615679
 31
0.0
  0
LINE
  5
19D
  8
0
 62
     0
 10
10.78284395292507
 20
10.50000124045045
 30
0.0
 11
13.29846094958801
 21
13.01561823711339
 31
0.0
  0
LINE
  5
19E
  8
0
 62
     0
 10
10.924265309162379
 20
10.50000124045045
 30
0.0
 11
13.319187396702601
 21
12.89492332799067
 31
0.0
  0
LINE
  5
19F
  8
0
 62
     0
 10
11.06568666539969
 20
10.50000124045045
 30
0.0
 11
13.333300102664319
 21
12.767614677715089
 31
0.0
  0
LINE
  5
1A0
  8
0
 62
     0
 10
11.207108021637
 20
10.50000124045045
 30
0.0
 11
13.339746332228669
 21
12.63263955104213
 31
0.0
  0
LINE
  5
1A1
  8
0
 62
     0
 10
11.351489740603171
 20
10.50296160317931
 30
0.0
 11
13.337038396820679
 21
12.48851025939682
 31
0.0
  0
LINE
  5
1A2
  8
0
 62
     0
 10
11.50699107720297
 20
10.517041583541801
 30
0.0
 11
13.32295841645819
 21
12.333008922797021
 31
0.0
  0
LINE
  5
1A3
  8
0
 62
     0
 10
11.677435573684759
 20
10.54606472378628
 30
0.0
 11
13.293935276213711
 21
12.16256442631523
 31
0.0
  0
LINE
  5
1A4
  8
0
 62
     0
 10
11.86929982173049
 20
10.59650761559471
 30
0.0
 11
13.243492384405281
 21
11.9707001782695
 31
0.0
  0
LINE
  5
1A5
  8
0
 62
     0
 10
12.097073973158301
 20
10.682860410785199
 30
0.0
 11
13.15713958921479
 21
11.74292602684169
 31
0.0
  0
LINE
  5
1A6
  8
0
 62
     0
 10
12.41538471448807
 20
10.85974979587767
 30
0.0
 11
12.980250204122321
 21
11.424615285511919
 31
0.0
  0
ENDBLK
  5
1A8
  8
0
  0
BLOCK
  8
0
  2
A$C4
 70
     0
 10
0.0
 20
0.0
 30
0.0
  3
A$C4
  1

  0
TEXT
  5
1AA
  8
RAAMI
 10
-0.2441931095487746
 20
5.2673594271254771
 30
0.0
 40
1.399999999999999
  1
PROJ
  7
ROMANS
  0
LINE
  5
1AB
  8
PISTKATK
  6
DASHDOT
 10
17.718000433552628
 20
3.1785155246459271
 30
0.0
 11
14.375424355772051
 21
3.1785155246459271
 31
0.0
  0
CIRCLE
  5
1AC
  8
RAAMI
 10
17.718000433552628
 20
3.1785155246459271
 30
0.0
 40
2.3436537871156058
  0
LINE
  5
1AD
  8
PISTKATK
  6
DASHDOT
 10
13.45279153821954
 20
3.1832370311318452
 30
0.0
 11
6.2161169275761656
 21
3.1832370311318452
 31
0.0
  0
LINE
  5
1AE
  8
RAAMI
 10
7.2990735606409771
 20
2.0289021840865331
 30
0.0
 11
12.30956819013314
 21
0.8745673370412134
 31
0.0
  0
LINE
  5
1AF
  8
RAAMI
 10
12.30956819013314
 20
5.4919067252224814
 30
0.0
 11
7.2990735606409771
 21
4.222138393472636
 31
0.0
  0
LINE
  5
1B0
  8
RAAMI
 10
7.2990735606409771
 20
4.222138393472636
 30
0.0
 11
7.2990735606409771
 21
2.0289021840865331
 31
0.0
  0
LINE
  5
1B1
  8
RAAMI
 10
12.30956819013314
 20
0.8745673370412134
 30
0.0
 11
12.30956819013314
 21
5.4919067252224814
 31
0.0
  0
LINE
  5
1B2
  8
PISTKATK
  6
DASHDOT
 10
17.718000433552628
 20
3.1785155246459271
 30
0.0
 11
17.718000433552628
 21
0.021462716470495
 31
0.0
  0
LINE
  5
1B3
  8
PISTKATK
  6
DASHDOT
 10
17.718000433552628
 20
3.1785155246459271
 30
0.0
 11
17.718000433552628
 21
6.3355683328213601
 31
0.0
  0
LINE
  5
1B4
  8
PISTKATK
  6
DASHDOT
 10
17.718000433552628
 20
3.1785155246459271
 30
0.0
 11
21.060576511333199
 21
3.1785155246459271
 31
0.0
  0
CIRCLE
  5
1B5
  8
RAAMI
 10
17.718000433552628
 20
3.1785155246459271
 30
0.0
 40
1.1146645383722451
  0
ENDBLK
  5
1B7
  8
0
  0
BLOCK
  8
0
  2
ABB3T
 70
     0
 10
0.0
 20
0.0
 30
0.0
  3
ABB3T
  1

  0
LINE
  5
1EF
  8
PAKSU
 10
0.0
 20
0.0
 30
0.0
 11
0.0
 21
262.5
 31
0.0
  0
LINE
  5
1F0
  8
PAKSU
 10
392.0
 20
262.5
 30
0.0
 11
392.0
 21
0.0
 31
0.0
  0
LINE
  5
1F1
  8
PAKSU
 10
0.0
 20
0.0
 30
0.0
 11
392.0
 21
0.0
 31
0.0
  0
TEXT
  5
1F2
  8
RAAMI
 10
42.0
 20
0.9523809523809526
 30
0.0
 40
2.5
  1
B
  7
ROMANS
  0
TEXT
  5
1F3
  8
RAAMI
 10
42.0
 20
5.354421058643247
 30
0.0
 40
2.5
  1
C
  7
ROMANS
  0
TEXT
  5
1F4
  8
RAAMI
 10
229.55338193795569
 20
1.5201476350649139
 30
0.0
 40
2.4300000000000002
  1
ABB Substation Automation Oy
 41
0.8
  7
ROMANS
  0
TEXT
  5
1F5
  8
RAAMI
 10
283.97425333656832
 20
7.0
 30
0.0
 40
1.399999999999999
  1
OSASTO DEPT.
  7
ROMANS
  0
TEXT
  5
1F6
  8
RAAMI
 10
210.0
 20
32.0
 30
0.0
 40
1.399999999999999
  1
TEKI  PREPARED
  7
ROMANS
  0
LINE
  5
1F7
  8
OHUT
 10
281.97425333656832
 20
9.5
 30
0.0
 11
281.97425333656832
 21
0.0
 31
0.0
  0
LINE
  5
1F8
  8
OHUT
 10
257.0
 20
9.5
 30
0.0
 11
257.0
 21
35.0
 31
0.0
  0
LINE
  5
1F9
  8
OHUT
 10
40.499999999999993
 20
4.5
 30
0.0
 11
209.0
 21
4.5
 31
0.0
  0
LINE
  5
1FA
  8
OHUT
 10
46.5
 20
0.0
 30
0.0
 11
46.5
 21
9.0
 31
0.0
  0
LINE
  5
1FB
  8
OHUT
 10
46.5
 20
9.0
 30
0.0
 11
209.0
 21
9.0
 31
0.0
  0
TEXT
  5
1FC
  8
RAAMI
 10
27.5
 20
2.2333333333333338
 30
0.0
 40
1.399999999999999
  1
REVISION
  7
ROMANS
  0
TEXT
  5
1FD
  8
RAAMI
 10
27.5
 20
4.5
 30
0.0
 40
1.399999999999999
  1
MUUTOS
  7
ROMANS
  0
LINE
  5
1FE
  8
OHUT
 10
282.0
 20
9.5
 30
0.0
 11
282.0
 21
18.0
 31
0.0
  0
LINE
  5
1FF
  8
RAAMI
 10
209.9499999999999
 20
1.5
 30
0.0
 11
211.6999999999999
 21
1.5
 31
0.0
  0
LINE
  5
200
  8
OHUT
 10
369.5
 20
18.0
 30
0.0
 11
369.5
 21
0.0
 31
0.0
  0
TEXT
  5
201
  8
RAAMI
 10
371.0
 20
7.0
 30
0.0
 40
1.399999999999999
  1
PAINOS  REVISION
  7
ROMANS
  0
TEXT
  5
202
  8
RAAMI
 10
309.0
 20
32.5
 30
0.0
 40
1.399999999999999
  1
NIMITYS  NAME
  7
ROMANS
  0
TEXT
  5
203
  8
RAAMI
 10
259.0
 20
15.5
 30
0.0
 40
1.399999999999999
  1
SUHDE  SCALE
  7
ROMANS
  0
TEXT
  5
204
  8
RAAMI
 10
259.0
 20
23.5
 30
0.0
 40
1.399999999999999
  1
TOLERANSSIT  TOLERANCES
  7
ROMANS
  0
TEXT
  5
205
  8
RAAMI
 10
259.0
 20
32.5
 30
0.0
 40
1.399999999999999
  1
LIITTYY  CONCERNING
  7
ROMANS
  0
LINE
  5
206
  8
OHUT
 10
307.0
 20
0.0
 30
0.0
 11
307.0
 21
35.0
 31
0.0
  0
TEXT
  5
207
  8
RAAMI
 10
209.74283472586629
 20
15.46666666666666
 30
0.0
 40
1.399999999999999
  1
HYVÄKSYI  APPROVED
  7
ROMANS
  0
TEXT
  5
208
  8
RAAMI
 10
210.0
 20
23.733333333333331
 30
0.0
 40
1.399999999999999
  1
TARKASTI  CHECKED
  7
ROMANS
  0
LINE
  5
209
  8
PAKSU
 10
209.0
 20
35.0
 30
0.0
 11
392.0
 21
35.0
 31
0.0
  0
LINE
  5
20A
  8
OHUT
 10
209.0
 20
26.5
 30
0.0
 11
307.0
 21
26.5
 31
0.0
  0
LINE
  5
20B
  8
OHUT
 10
209.0
 20
9.5
 30
0.0
 11
392.0
 21
9.5
 31
0.0
  0
LINE
  5
20C
  8
OHUT
 10
209.0
 20
18.0
 30
0.0
 11
392.0
 21
18.0
 31
0.0
  0
LINE
  5
20D
  8
PAKSU
 10
392.0
 20
0.0
 30
0.0
 11
392.0
 21
35.0
 31
0.0
  0
LINE
  5
20E
  8
PAKSU
 10
209.0
 20
0.0
 30
0.0
 11
209.0
 21
35.0
 31
0.0
  0
LINE
  5
20F
  8
PAKSU
 10
209.0
 20
0.0
 30
0.0
 11
392.0
 21
0.0
 31
0.0
  0
LINE
  5
210
  8
PAKSU
 10
0.0
 20
262.5
 30
0.0
 11
392.0
 21
262.5
 31
0.0
  0
TEXT
  5
211
  8
RAAMI
 10
309.0
 20
7.0
 30
0.0
 40
1.399999999999999
  1
PIIRUSTUS NO  DRAWING NO
  7
ROMANS
  0
INSERT
  5
212
  8
RAAMI
  2
LOGO
 10
209.0
 20
-9.0
 30
0.0
  0
TEXT
  5
213
  8
RAAMI
 10
283.55482520994389
 20
15.500966000653291
 30
0.0
 40
1.399999999999999
  1
PROJ
  7
ROMANS
  0
LINE
  5
214
  8
RAAMI
  6
DASHDOT
 10
301.51701875304531
 20
13.41212209817375
 30
0.0
 11
298.17444267526469
 21
13.41212209817375
 31
0.0
  0
CIRCLE
  5
215
  8
RAAMI
 10
301.51701875304531
 20
13.41212209817375
 30
0.0
 40
2.3436537871156058
  0
LINE
  5
216
  8
RAAMI
  6
DASHDOT
 10
297.2518098577122
 20
13.416843604659659
 30
0.0
 11
290.01513524706883
 21
13.416843604659659
 31
0.0
  0
LINE
  5
217
  8
RAAMI
 10
291.09809188013361
 20
12.26250875761435
 30
0.0
 11
296.10858650962581
 21
11.108173910569031
 31
0.0
  0
LINE
  5
218
  8
RAAMI
 10
296.10858650962581
 20
15.7255132987503
 30
0.0
 11
291.09809188013361
 21
14.455744967000459
 31
0.0
  0
LINE
  5
219
  8
RAAMI
 10
291.09809188013361
 20
14.455744967000459
 30
0.0
 11
291.09809188013361
 21
12.26250875761435
 31
0.0
  0
LINE
  5
21A
  8
RAAMI
 10
296.10858650962581
 20
11.108173910569031
 30
0.0
 11
296.10858650962581
 21
15.7255132987503
 31
0.0
  0
LINE
  5
21B
  8
RAAMI
  6
DASHDOT
 10
301.51701875304531
 20
13.41212209817375
 30
0.0
 11
301.51701875304531
 21
10.25506928999831
 31
0.0
  0
LINE
  5
21C
  8
RAAMI
  6
DASHDOT
 10
301.51701875304531
 20
13.41212209817375
 30
0.0
 11
301.51701875304531
 21
16.569174906349179
 31
0.0
  0
LINE
  5
21D
  8
RAAMI
  6
DASHDOT
 10
301.51701875304531
 20
13.41212209817375
 30
0.0
 11
304.85959483082593
 21
13.41212209817375
 31
0.0
  0
CIRCLE
  5
21E
  8
RAAMI
 10
301.51701875304531
 20
13.41212209817375
 30
0.0
 40
1.1146645383722451
  0
TEXT
  5
21F
  8
RAAMI
 10
371.0
 20
15.058467927016061
 30
0.0
 40
1.399999999999999
  1
LEHTI   SHEET
  7
ROMANS
  0
ENDBLK
  5
221
  8
0
  0
BLOCK
  8
0
  2
INPUT
 70
     0
 10
0.0
 20
0.0
 30
0.0
  3
INPUT
  1

  0
LINE
  5
362
  8
KESKI
 10
0.0
 20
0.0
 30
0.0
 11
7.5
 21
7.5
 31
0.0
  0
POLYLINE
  5
363
  8
KESKI
 66
     1
 10
0.0
 20
0.0
 30
0.0
 70
     1
  0
VERTEX
  5
BDC
  8
KESKI
 10
0.0
 20
7.5
 30
0.0
  0
VERTEX
  5
BDD
  8
KESKI
 10
7.5
 20
7.5
 30
0.0
  0
VERTEX
  5
BDE
  8
KESKI
 10
7.5
 20
0.0
 30
0.0
  0
VERTEX
  5
BDF
  8
KESKI
 10
0.0
 20
0.0
 30
0.0
  0
SEQEND
  5
BE0
  8
KESKI
  0
LINE
  5
364
  8
KESKI
 10
5.0
 20
3.25
 30
0.0
 11
5.0
 21
1.25
 31
0.0
  0
LINE
  5
365
  8
KESKI
 10
5.0
 20
1.797891128666691
 30
0.0
 11
6.155449358842815
 21
0.642441769823904
 31
0.0
  0
POLYLINE
  5
366
  8
KESKI
 66
     1
 10
0.0
 20
0.0
 30
0.0
 70
     1
  0
VERTEX
  5
BE1
  8
KESKI
 10
6.155449358842815
 20
0.642441769823904
 30
0.0
  0
VERTEX
  5
BE2
  8
KESKI
 10
6.0433774248218119
 20
1.060699921692787
 30
0.0
  0
VERTEX
  5
BE3
  8
KESKI
 10
5.7371912069739324
 20
0.7545137038449071
 30
0.0
  0
SEQEND
  5
BE4
  8
KESKI
  0
LINE
  5
367
  8
KESKI
 10
2.616116523516836
 20
4.8838834764831631
 30
0.0
 11
3.5
 21
4.0
 31
0.0
  0
POLYLINE
  5
368
  8
KESKI
 66
     1
 10
0.0
 20
0.0
 30
0.0
 70
     1
  0
VERTEX
  5
BE5
  8
KESKI
 10
3.5
 20
4.0
 30
0.0
  0
VERTEX
  5
BE6
  8
KESKI
 10
3.3879280659789961
 20
4.4182581518688826
 30
0.0
  0
VERTEX
  5
BE7
  8
KESKI
 10
3.0817418481311161
 20
4.112071934021003
 30
0.0
  0
SEQEND
  5
BE8
  8
KESKI
  0
LINE
  5
369
  8
KESKI
 10
1.5
 20
7.25
 30
0.0
 11
1.5
 21
2.75
 31
0.0
  0
POLYLINE
  5
36A
  8
KESKI
 66
     1
 10
0.0
 20
0.0
 30
0.0
 70
     1
  0
VERTEX
  5
BE9
  8
KESKI
 10
1.5
 20
4.25
 30
0.0
  0
VERTEX
  5
BEA
  8
KESKI
 10
2.6659223816360931
 20
6.2694368026754432
 30
0.0
  0
VERTEX
  5
BEB
  8
KESKI
 10
0.3340776183639065
 20
6.2694368026754432
 30
0.0
  0
SEQEND
  5
BEC
  8
KESKI
  0
LINE
  5
36B
  8
KESKI
 10
0.4902815986622784
 20
4.25
 30
0.0
 11
2.5097184013377212
 21
4.25
 31
0.0
  0
LINE
  5
36C
  8
KESKI
 10
5.0
 20
2.7021088713332801
 30
0.0
 11
6.155449358842815
 21
3.857558230176096
 31
0.0
  0
LINE
  5
36D
  8
KESKI
 10
3.366116523516836
 20
5.6338834764831631
 30
0.0
 11
4.25
 21
4.75
 31
0.0
  0
POLYLINE
  5
36E
  8
KESKI
 66
     1
 10
0.0
 20
0.0
 30
0.0
 70
     1
  0
VERTEX
  5
BED
  8
KESKI
 10
4.25
 20
4.75
 30
0.0
  0
VERTEX
  5
BEE
  8
KESKI
 10
4.1379280659789961
 20
5.1682581518688826
 30
0.0
  0
VERTEX
  5
BEF
  8
KESKI
 10
3.8317418481311161
 20
4.862071934021003
 30
0.0
  0
SEQEND
  5
BF0
  8
KESKI
  0
LINE
  5
36F
  8
KESKI
 10
7.5
 20
3.75
 30
0.0
 11
11.25
 21
3.75
 31
0.0
  0
INSERT
  5
370
  8
KESKI
  6
CONTINUOUS
  2
*U18
 10
0.0
 20
0.0
 30
0.0
1001
ACAD
1002
{
1000
R14_HATCH_DATA
1000
370
1011
1.0
1021
0.0
1031
0.0
1021
0.0
1031
0.0
1011
0.0
1021
0.0
1031
0.0
1021
1.0
1031
0.0
1011
0.0
1021
0.0
1031
0.0
1021
0.0
1031
1.0
1040
0.0
1010
0.0
1020
0.0
1030
1.0
1000
SOLID
1070
     1
1070
     1
1071
        1
1071
        1
1071
        3
1070
     1
1040
10.25
1040
3.75
1040
9.03125
1040
4.4536456405748481
1070
     1
1040
9.03125
1040
4.4536456405748481
1040
9.03125
1040
3.046354359425151
1070
     1
1040
9.03125
1040
3.046354359425151
1040
10.25
1040
3.75
1071
        1
1005
371
1070
     0
1070
     1
1071
        1
1040
-71.5
1040
-276.25
1040
0.0
1002
}
  0
POLYLINE
  5
371
  8
KESKI
 66
     1
 10
0.0
 20
0.0
 30
0.0
 70
     1
  0
VERTEX
  5
BF7
  8
KESKI
 10
10.25
 20
3.75
 30
0.0
  0
VERTEX
  5
BF8
  8
KESKI
 10
9.03125
 20
4.4536456405748481
 30
0.0
  0
VERTEX
  5
BF9
  8
KESKI
 10
9.03125
 20
3.046354359425151
 30
0.0
  0
SEQEND
  5
BFA
  8
KESKI
  0
ENDBLK
  5
373
  8
0
  0
BLOCK
  8
0
  2
A$C70B5174C
 70
     0
 10
0.0
 20
0.0
 30
0.0
  3
A$C70B5174C
  1

  0
LINE
  5
455
  8
KESKI
 10
0.0000009062659956
 20
10.000000604200739
 30
0.0
 11
0.0000009062659956
 21
104.25000060420069
 31
0.0
  0
LINE
  5
456
  8
KESKI
 10
5.5000009062659947
 20
104.25000060420069
 30
0.0
 11
5.5000009062659947
 21
10.000000604200739
 31
0.0
  0
INSERT
  5
457
  8
KESKI
  2
INPUT
 10
16.000000906265988
 20
27.00000060420075
 30
0.0
  0
INSERT
  5
458
  8
KESKI
  2
INPUT
 10
16.000000906265988
 20
0.0000006042007499
 30
0.0
  0
INSERT
  5
459
  8
KESKI
  2
INPUT
 10
16.000000906265988
 20
10.000000604200739
 30
0.0
  0
INSERT
  5
45A
  8
KESKI
  2
INPUT
 10
16.000000906265988
 20
18.500000604200739
 30
0.0
  0
LINE
  5
45B
  8
KESKI
 10
0.0000009062659956
 20
7.000000604200749
 30
0.0
 11
5.5000009062659947
 21
7.000000604200749
 31
0.0
  0
TEXT
  5
45C
  8
KESKI
 10
0.2500009062659956
 20
7.250000604200749
 30
0.0
 40
1.5
  1
X5.2
  7
ROMANS
  0
LINE
  5
45D
  8
KESKI
 10
0.0000009062659956
 20
9.2500006042007499
 30
0.0
 11
5.5000009062659947
 21
9.2500006042007499
 31
0.0
  0
LINE
  5
45E
  8
KESKI
 10
5.5000009062659947
 20
0.0000006042007499
 30
0.0
 11
0.0000009062659956
 21
0.0000006042007499
 31
0.0
  0
TEXT
  5
45F
  8
KESKI
 10
1.2500009062659949
 20
11.714286318486639
 30
0.0
 40
1.5
  1
18
  7
ACANSGDT
  0
TEXT
  5
460
  8
KESKI
 10
1.2500009062659949
 20
14.642857747058081
 30
0.0
 40
1.5
  1
17
  7
ACANSGDT
  0
TEXT
  5
461
  8
KESKI
 10
1.2500009062659949
 20
20.071429175629529
 30
0.0
 40
1.5
  1
16
  7
ACANSGDT
  0
TEXT
  5
462
  8
KESKI
 10
1.2500009062659949
 20
23.25000060420092
 30
0.0
 40
1.5
  1
15
  7
ACANSGDT
  0
LINE
  5
463
  8
KESKI
 10
5.5000009062659947
 20
10.000000604200739
 30
0.0
 11
0.0000009062659956
 21
10.000000604200739
 31
0.0
  0
LINE
  5
464
  8
KESKI
 10
0.0000009062659956
 20
0.0000006042007499
 30
0.0
 11
0.0000009062659956
 21
9.2500006042007499
 31
0.0
  0
TEXT
  5
465
  8
KESKI
 10
2.0000009062659951
 20
1.5714291756293051
 30
0.0
 40
1.5
  1
2
  7
ACANSGDT
  0
TEXT
  5
466
  8
KESKI
 10
2.0000009062659951
 20
4.750000604200749
 30
0.0
 40
1.5
  1
1
  7
ACANSGDT
  0
LINE
  5
467
  8
KESKI
 10
5.5000009062659947
 20
9.2500006042007499
 30
0.0
 11
5.5000009062659947
 21
0.0000006042007499
 31
0.0
  0
LINE
  5
468
  8
KESKI
 10
16.000000906265988
 20
2.250000604200749
 30
0.0
 11
5.5000009062659947
 21
2.250000604200749
 31
0.0
  0
LINE
  5
469
  8
KESKI
 10
16.000000906265988
 20
5.500000604200749
 30
0.0
 11
5.5000009062659947
 21
5.500000604200749
 31
0.0
  0
LINE
  5
46A
  8
KESKI
 10
16.000000906265988
 20
12.25000060420075
 30
0.0
 11
5.5000009062659947
 21
12.25000060420075
 31
0.0
  0
LINE
  5
46B
  8
KESKI
 10
16.000000906265988
 20
20.750000604200739
 30
0.0
 11
5.5000009062659947
 21
20.750000604200739
 31
0.0
  0
LINE
  5
46C
  8
KESKI
 10
16.000000906265988
 20
15.500000604200739
 30
0.0
 11
5.5000009062659947
 21
15.500000604200739
 31
0.0
  0
LINE
  5
46D
  8
KESKI
 10
16.000000906265988
 20
24.00000060420075
 30
0.0
 11
5.5000009062659947
 21
24.00000060420075
 31
0.0
  0
TEXT
  5
46E
  8
KESKI
 10
28.750000906265988
 20
3.000000604200749
 30
0.0
 40
1.5
  1
BIO1_5_BI12
  7
ACANSGDT
  0
TEXT
  5
46F
  8
KESKI
 10
28.750000906265988
 20
13.000000604200739
 30
0.0
 40
1.5
  1
BIO1_5_BI11
  7
ACANSGDT
  0
TEXT
  5
470
  8
KESKI
 10
28.750000906265988
 20
21.50000060420075
 30
0.0
 40
1.5
  1
BIO1_5_BI10
  7
ACANSGDT
  0
INSERT
  5
471
  8
KESKI
  2
INPUT
 10
16.000000906265988
 20
35.500000604200743
 30
0.0
  0
INSERT
  5
472
  8
KESKI
  2
INPUT
 10
16.000000906265988
 20
44.00000060420075
 30
0.0
  0
INSERT
  5
473
  8
KESKI
  2
INPUT
 10
16.000000906265988
 20
52.50000060420075
 30
0.0
  0
INSERT
  5
474
  8
KESKI
  2
INPUT
 10
16.000000906265988
 20
61.00000060420075
 30
0.0
  0
INSERT
  5
475
  8
KESKI
  2
INPUT
 10
16.000000906265988
 20
69.50000060420075
 30
0.0
  0
INSERT
  5
476
  8
KESKI
  2
INPUT
 10
16.000000906265988
 20
86.500000604200736
 30
0.0
  0
INSERT
  5
477
  8
KESKI
  2
INPUT
 10
16.000000906265988
 20
95.000000604200764
 30
0.0
  0
INSERT
  5
478
  8
KESKI
  2
INPUT
 10
16.000000906265988
 20
78.000000604200736
 30
0.0
  0
INSERT
  5
479
  8
KESKI
  2
INPUT
 10
16.000000906265988
 20
108.50000060420069
 30
0.0
  0
INSERT
  5
47A
  8
KESKI
  2
INPUT
 10
16.000000906265988
 20
117.00000060420069
 30
0.0
  0
INSERT
  5
47B
  8
KESKI
  2
INPUT
 10
16.000000906265988
 20
125.50000060420069
 30
0.0
  0
TEXT
  5
47C
  8
KESKI
 10
2.0000009062659951
 20
118.82142917562931
 30
0.0
 40
1.5
  1
5
  7
ROMANS
  0
POLYLINE
  5
47D
  8
KESKI
 66
     1
 10
0.0
 20
0.0
 30
0.0
 70
     1
  0
VERTEX
  5
BFB
  8
KESKI
 10
5.5000009062659947
 20
134.25000060420069
 30
0.0
  0
VERTEX
  5
BFC
  8
KESKI
 10
0.0000009062659956
 20
134.25000060420069
 30
0.0
  0
VERTEX
  5
BFD
  8
KESKI
 10
0.0000009062659956
 20
108.50000060420069
 30
0.0
  0
VERTEX
  5
BFE
  8
KESKI
 10
5.5000009062659947
 20
108.50000060420069
 30
0.0
  0
SEQEND
  5
BFF
  8
KESKI
  0
LINE
  5
47E
  8
KESKI
 10
12.00000090626599
 20
71.750000604200736
 30
0.0
 11
12.00000090626599
 21
80.250000604200736
 31
0.0
  0
TEXT
  5
47F
  8
KESKI
 10
1.2500009062659949
 20
28.678572032772301
 30
0.0
 40
1.5
  1
14
  7
ACANSGDT
  0
TEXT
  5
480
  8
KESKI
 10
1.2500009062659949
 20
31.60714346134375
 30
0.0
 40
1.5
  1
13
  7
ACANSGDT
  0
TEXT
  5
481
  8
KESKI
 10
1.2500009062659949
 20
40.285714889915191
 30
0.0
 40
1.5
  1
12
  7
ACANSGDT
  0
TEXT
  5
482
  8
KESKI
 10
1.2500009062659949
 20
48.892857747057967
 30
0.0
 40
1.5
  1
10
  7
ACANSGDT
  0
TEXT
  5
483
  8
KESKI
 10
1.2500009062659949
 20
45.464286318486579
 30
0.0
 40
1.5
  1
11
  7
ACANSGDT
  0
TEXT
  5
484
  8
KESKI
 10
2.2500009062659951
 20
62.250000604200856
 30
0.0
 40
1.5
  1
8
  7
ACANSGDT
  0
TEXT
  5
485
  8
KESKI
 10
2.2500009062659951
 20
57.071429175629419
 30
0.0
 40
1.5
  1
9
  7
ACANSGDT
  0
TEXT
  5
486
  8
KESKI
 10
2.2500009062659951
 20
65.678572032772252
 30
0.0
 40
1.5
  1
7
  7
ACANSGDT
  0
POLYLINE
  5
487
  8
KESKI
 66
     1
 10
0.0
 20
0.0
 30
0.0
 70
     1
 40
0.5
 41
0.5
  0
VERTEX
  5
C00
  8
KESKI
 10
11.75000090626599
 20
46.25000060420075
 30
0.0
 42
1.0
  0
VERTEX
  5
C01
  8
KESKI
 10
12.25000090626599
 20
46.25000060420075
 30
0.0
 42
1.0
  0
SEQEND
  5
C02
  8
KESKI
  0
LINE
  5
488
  8
KESKI
 10
16.000000906265988
 20
29.250000604200739
 30
0.0
 11
5.5000009062659947
 21
29.250000604200739
 31
0.0
  0
LINE
  5
489
  8
KESKI
 10
16.000000906265988
 20
46.25000060420075
 30
0.0
 11
5.5000009062659947
 21
46.25000060420075
 31
0.0
  0
LINE
  5
48A
  8
KESKI
 10
16.000000906265988
 20
32.50000060420075
 30
0.0
 11
5.5000009062659947
 21
32.50000060420075
 31
0.0
  0
LINE
  5
48B
  8
KESKI
 10
16.000000906265988
 20
41.000000604200743
 30
0.0
 11
5.5000009062659947
 21
41.000000604200743
 31
0.0
  0
LINE
  5
48C
  8
KESKI
 10
16.000000906265988
 20
49.50000060420075
 30
0.0
 11
5.5000009062659947
 21
49.50000060420075
 31
0.0
  0
LINE
  5
48D
  8
KESKI
 10
12.00000090626599
 20
37.75000060420075
 30
0.0
 11
12.00000090626599
 21
46.25000060420075
 31
0.0
  0
LINE
  5
48E
  8
KESKI
 10
16.000000906265988
 20
37.75000060420075
 30
0.0
 11
12.00000090626599
 21
37.75000060420075
 31
0.0
  0
POLYLINE
  5
48F
  8
KESKI
 66
     1
 10
0.0
 20
0.0
 30
0.0
 70
     1
 40
0.5
 41
0.5
  0
VERTEX
  5
C03
  8
KESKI
 10
11.75000090626599
 20
63.25000060420075
 30
0.0
 42
1.0
  0
VERTEX
  5
C04
  8
KESKI
 10
12.25000090626599
 20
63.25000060420075
 30
0.0
 42
1.0
  0
SEQEND
  5
C05
  8
KESKI
  0
LINE
  5
490
  8
KESKI
 10
16.000000906265988
 20
63.25000060420075
 30
0.0
 11
5.5000009062659947
 21
63.25000060420075
 31
0.0
  0
LINE
  5
491
  8
KESKI
 10
16.000000906265988
 20
58.000000604200743
 30
0.0
 11
5.5000009062659947
 21
58.000000604200743
 31
0.0
  0
LINE
  5
492
  8
KESKI
 10
16.000000906265988
 20
66.50000060420075
 30
0.0
 11
5.5000009062659947
 21
66.50000060420075
 31
0.0
  0
LINE
  5
493
  8
KESKI
 10
12.00000090626599
 20
54.75000060420075
 30
0.0
 11
12.00000090626599
 21
63.25000060420075
 31
0.0
  0
LINE
  5
494
  8
KESKI
 10
16.000000906265988
 20
54.75000060420075
 30
0.0
 11
12.00000090626599
 21
54.75000060420075
 31
0.0
  0
LINE
  5
495
  8
KESKI
 10
16.000000906265988
 20
71.750000604200736
 30
0.0
 11
12.00000090626599
 21
71.750000604200736
 31
0.0
  0
TEXT
  5
496
  8
KESKI
 10
0.2500009062659956
 20
102.25000060420069
 30
0.0
 40
1.5
  1
X5.1
  7
ROMANS
  0
LINE
  5
497
  8
KESKI
 10
0.0000009062659956
 20
102.00000060420069
 30
0.0
 11
5.5000009062659947
 21
102.00000060420069
 31
0.0
  0
LINE
  5
498
  8
KESKI
 10
0.0000009062659956
 20
104.25000060420069
 30
0.0
 11
5.5000009062659947
 21
104.25000060420069
 31
0.0
  0
TEXT
  5
499
  8
KESKI
 10
2.2500009062659951
 20
96.321429175629305
 30
0.0
 40
1.5
  1
2
  7
ACANSGDT
  0
TEXT
  5
49A
  8
KESKI
 10
2.2500009062659951
 20
74.10714346134364
 30
0.0
 40
1.5
  1
6
  7
ACANSGDT
  0
TEXT
  5
49B
  8
KESKI
 10
2.2500009062659951
 20
79.285714889915084
 30
0.0
 40
1.5
  1
5
  7
ACANSGDT
  0
TEXT
  5
49C
  8
KESKI
 10
2.2500009062659951
 20
82.714286318486529
 30
0.0
 40
1.5
  1
4
  7
ACANSGDT
  0
TEXT
  5
49D
  8
KESKI
 10
2.2500009062659951
 20
91.142857747057917
 30
0.0
 40
1.5
  1
3
  7
ACANSGDT
  0
TEXT
  5
49E
  8
KESKI
 10
2.2500009062659951
 20
99.75000060420075
 30
0.0
 40
1.5
  1
1
  7
ACANSGDT
  0
TEXT
  5
49F
  8
KESKI
 10
2.2500009062659951
 20
110.07142917562931
 30
0.0
 40
1.5
  1
7
  7
ROMANS
  0
TEXT
  5
4A0
  8
KESKI
 10
2.2500009062659951
 20
112.50000060420069
 30
0.0
 40
1.5
  1
6
  7
ROMANS
  0
POLYLINE
  5
4A1
  8
KESKI
 66
     1
 10
0.0
 20
0.0
 30
0.0
 70
     1
 40
0.5
 41
0.5
  0
VERTEX
  5
C06
  8
KESKI
 10
11.75000090626599
 20
97.25000060420075
 30
0.0
 42
1.0
  0
VERTEX
  5
C07
  8
KESKI
 10
12.25000090626599
 20
97.25000060420075
 30
0.0
 42
1.0
  0
SEQEND
  5
C08
  8
KESKI
  0
LINE
  5
4A2
  8
KESKI
 10
12.00000090626599
 20
88.750000604200764
 30
0.0
 11
12.00000090626599
 21
97.25000060420075
 31
0.0
  0
POLYLINE
  5
4A3
  8
KESKI
 66
     1
 10
0.0
 20
0.0
 30
0.0
 70
     1
 40
0.5
 41
0.5
  0
VERTEX
  5
C09
  8
KESKI
 10
11.75000090626599
 20
80.250000604200736
 30
0.0
 42
1.0
  0
VERTEX
  5
C0A
  8
KESKI
 10
12.25000090626599
 20
80.250000604200736
 30
0.0
 42
1.0
  0
SEQEND
  5
C0B
  8
KESKI
  0
LINE
  5
4A4
  8
KESKI
 10
16.000000906265988
 20
80.250000604200736
 30
0.0
 11
5.5000009062659947
 21
80.250000604200736
 31
0.0
  0
LINE
  5
4A5
  8
KESKI
 10
16.000000906265988
 20
75.00000060420075
 30
0.0
 11
5.5000009062659947
 21
75.00000060420075
 31
0.0
  0
LINE
  5
4A6
  8
KESKI
 10
16.000000906265988
 20
83.50000060420075
 30
0.0
 11
5.5000009062659947
 21
83.50000060420075
 31
0.0
  0
LINE
  5
4A7
  8
KESKI
 10
16.000000906265988
 20
92.00000060420075
 30
0.0
 11
5.5000009062659947
 21
92.00000060420075
 31
0.0
  0
LINE
  5
4A8
  8
KESKI
 10
16.000000906265988
 20
88.750000604200764
 30
0.0
 11
12.00000090626599
 21
88.750000604200764
 31
0.0
  0
LINE
  5
4A9
  8
KESKI
 10
16.000000906265988
 20
97.25000060420075
 30
0.0
 11
5.5000009062659947
 21
97.25000060420075
 31
0.0
  0
LINE
  5
4AA
  8
KESKI
 10
16.000000906265988
 20
100.50000060420069
 30
0.0
 11
5.5000009062659947
 21
100.50000060420069
 31
0.0
  0
LINE
  5
4AB
  8
KESKI
 10
16.000000906265988
 20
113.50000060420069
 30
0.0
 11
5.5000009062659947
 21
113.50000060420069
 31
0.0
  0
LINE
  5
4AC
  8
KESKI
 10
16.000000906265988
 20
110.75000060420069
 30
0.0
 11
5.5000009062659947
 21
110.75000060420069
 31
0.0
  0
LINE
  5
4AD
  8
KESKI
 10
16.000000906265988
 20
119.25000060420069
 30
0.0
 11
5.5000009062659947
 21
119.25000060420069
 31
0.0
  0
TEXT
  5
4AE
  8
KESKI
 10
0.2500009062659956
 20
132.25000060420069
 30
0.0
 40
1.5
  1
X4.2
  7
ROMANS
  0
LINE
  5
4AF
  8
KESKI
 10
0.0000009062659956
 20
132.00000060420069
 30
0.0
 11
5.5000009062659947
 21
132.00000060420069
 31
0.0
  0
TEXT
  5
4B0
  8
KESKI
 10
2.0000009062659951
 20
121.25000060420069
 30
0.0
 40
1.5
  1
4
  7
ROMANS
  0
TEXT
  5
4B1
  8
KESKI
 10
2.0000009062659951
 20
127.32142917562921
 30
0.0
 40
1.5
  1
2
  7
ROMANS
  0
TEXT
  5
4B2
  8
KESKI
 10
2.0000009062659951
 20
129.75000060420069
 30
0.0
 40
1.5
  1
1
  7
ROMANS
  0
LINE
  5
4B3
  8
KESKI
 10
16.000000906265988
 20
122.00000060420069
 30
0.0
 11
5.5000009062659947
 21
122.00000060420069
 31
0.0
  0
LINE
  5
4B4
  8
KESKI
 10
16.000000906265988
 20
127.75000060420069
 30
0.0
 11
5.5000009062659947
 21
127.75000060420069
 31
0.0
  0
LINE
  5
4B5
  8
KESKI
 10
16.000000906265988
 20
130.50000060420069
 30
0.0
 11
5.5000009062659947
 21
130.50000060420069
 31
0.0
  0
TEXT
  5
4B6
  8
KESKI
 10
28.750000906265988
 20
120.00000060420069
 30
0.0
 40
1.5
  1
PS1_4_BI2
  7
ACANSGDT
  0
TEXT
  5
4B7
  8
KESKI
 10
28.750000906265988
 20
72.50000060420075
 30
0.0
 40
1.5
  1
BIO1_5_BI4
  7
ACANSGDT
  0
TEXT
  5
4B8
  8
KESKI
 10
28.750000906265988
 20
30.00000060420075
 30
0.0
 40
1.5
  1
BIO1_5_BI9
  7
ACANSGDT
  0
TEXT
  5
4B9
  8
KESKI
 10
28.750000906265988
 20
38.50000060420075
 30
0.0
 40
1.5
  1
BIO1_5_BI8
  7
ACANSGDT
  0
TEXT
  5
4BA
  8
KESKI
 10
28.750000906265988
 20
47.00000060420075
 30
0.0
 40
1.5
  1
BIO1_5_BI7
  7
ACANSGDT
  0
TEXT
  5
4BB
  8
KESKI
 10
28.750000906265988
 20
55.500000604200743
 30
0.0
 40
1.5
  1
BIO1_5_BI6
  7
ACANSGDT
  0
TEXT
  5
4BC
  8
KESKI
 10
28.750000906265988
 20
64.00000060420075
 30
0.0
 40
1.5
  1
BIO1_5_BI5
  7
ACANSGDT
  0
TEXT
  5
4BD
  8
KESKI
 10
28.750000906265988
 20
81.00000060420075
 30
0.0
 40
1.5
  1
BIO1_5_BI3
  7
ACANSGDT
  0
TEXT
  5
4BE
  8
KESKI
 10
28.750000906265988
 20
89.50000060420075
 30
0.0
 40
1.5
  1
BIO1_5_BI2
  7
ACANSGDT
  0
TEXT
  5
4BF
  8
KESKI
 10
28.750000906265988
 20
98.000000604200736
 30
0.0
 40
1.5
  1
BIO1_5_BI1
  7
ACANSGDT
  0
TEXT
  5
4C0
  8
KESKI
 10
28.750000906265988
 20
111.50000060420069
 30
0.0
 40
1.5
  1
PS1_4_BI3
  7
ACANSGDT
  0
TEXT
  5
4C1
  8
KESKI
 10
28.750000906265988
 20
128.00000060420069
 30
0.0
 40
1.5
  1
PS1_4_BI1
  7
ACANSGDT
  0
ENDBLK
  5
4C3
  8
0
  0
BLOCK
  8
0
  2
REL2
 70
     0
 10
0.0
 20
0.0
 30
0.0
  3
REL2
  1

  0
LINE
  5
4C6
  8
KESKI
 10
2.75
 20
-4.25
 30
0.0
 11
-3.25
 21
-4.25
 31
0.0
  0
LINE
  5
4C7
  8
KESKI
 10
0.0
 20
0.0
 30
0.0
 11
5.5
 21
3.75
 31
0.0
  0
POLYLINE
  5
4C8
  8
KESKI
 66
     1
 10
0.0
 20
0.0
 30
0.0
 70
     1
  0
VERTEX
  5
C0D
  8
KESKI
 10
0.0
 20
3.75
 30
0.0
  0
VERTEX
  5
C0E
  8
KESKI
 10
5.5
 20
3.75
 30
0.0
  0
VERTEX
  5
C0F
  8
KESKI
 10
5.5
 20
0.0
 30
0.0
  0
VERTEX
  5
C10
  8
KESKI
 10
0.0
 20
0.0
 30
0.0
  0
SEQEND
  5
C11
  8
KESKI
  0
INSERT
  5
4C9
  8
KESKI
  6
CONTINUOUS
  2
*U19
 10
0.0
 20
0.0
 30
0.0
1001
ACAD
1002
{
1000
R14_HATCH_DATA
1000
4C9
1011
1.0
1021
0.0
1031
0.0
1021
0.0
1031
0.0
1011
0.0
1021
0.0
1031
0.0
1021
1.0
1031
0.0
1011
0.0
1021
0.0
1031
0.0
1021
0.0
1031
1.0
1040
0.0
1010
0.0
1020
0.0
1030
1.0
1000
SOLID
1070
     1
1070
     1
1071
        1
1071
        1
1071
        3
1070
     1
1040
-1.25
1040
-4.25
1040
-2.46875
1040
-3.546354359425151
1070
     1
1040
-2.46875
1040
-3.546354359425151
1040
-2.46875
1040
-4.9536456405748481
1070
     1
1040
-2.46875
1040
-4.9536456405748481
1040
-1.25
1040
-4.25
1071
        1
1005
4CA
1070
     0
1070
     1
1071
        1
1040
-83.0
1040
-284.25
1040
0.0
1002
}
  0
POLYLINE
  5
4CA
  8
KESKI
 66
     1
 10
0.0
 20
0.0
 30
0.0
 70
     1
  0
VERTEX
  5
C18
  8
KESKI
 10
-1.25
 20
-4.25
 30
0.0
  0
VERTEX
  5
C19
  8
KESKI
 10
-2.46875
 20
-3.546354359425151
 30
0.0
  0
VERTEX
  5
C1A
  8
KESKI
 10
-2.46875
 20
-4.9536456405748481
 30
0.0
  0
SEQEND
  5
C1B
  8
KESKI
  0
LINE
  5
4CB
  8
KESKI
 10
13.75
 20
-7.25
 30
0.0
 11
13.75
 21
0.25
 31
0.0
  0
LINE
  5
4CC
  8
KESKI
 10
17.25
 20
5.0
 30
0.0
 11
17.25
 21
-4.25
 31
0.0
  0
LINE
  5
4CD
  8
KESKI
 10
2.75
 20
0.0
 30
0.0
 11
2.75
 21
-4.25
 31
0.0
  0
LINE
  5
4CE
  8
KESKI
 10
24.25
 20
-7.25
 30
0.0
 11
13.75
 21
-7.25
 31
0.0
  0
LINE
  5
4CF
  8
KESKI
 10
24.25
 20
-4.25
 30
0.0
 11
17.25
 21
-4.25
 31
0.0
  0
LINE
  5
4D0
  8
KESKI
 10
13.75
 20
5.0
 30
0.0
 11
17.25
 21
5.0
 31
0.0
  0
LINE
  5
4D1
  8
KATKO07
 10
5.5
 20
1.875
 30
0.0
 11
21.125
 21
1.875
 31
0.0
  0
LINE
  5
4D2
  8
KESKI
 10
2.75
 20
3.75
 30
0.0
 11
2.75
 21
5.75
 31
0.0
  0
LINE
  5
4D3
  8
KESKI
 10
13.75
 20
0.25
 30
0.0
 11
15.5
 21
3.0
 31
0.0
  0
LINE
  5
4D4
  8
KESKI
 10
13.75
 20
3.5
 30
0.0
 11
13.75
 21
5.0
 31
0.0
  0
LINE
  5
4D5
  8
KESKI
 10
24.25
 20
5.0
 30
0.0
 11
20.249999999999989
 21
5.0
 31
0.0
  0
LINE
  5
4D6
  8
KESKI
 10
20.249999999999989
 20
0.25
 30
0.0
 11
22.0
 21
3.0
 31
0.0
  0
LINE
  5
4D7
  8
KESKI
 10
24.25
 20
-1.25
 30
0.0
 11
20.249999999999989
 21
-1.25
 31
0.0
  0
LINE
  5
4D8
  8
KESKI
 10
20.249999999999989
 20
-1.25
 30
0.0
 11
20.249999999999989
 21
0.25
 31
0.0
  0
LINE
  5
4D9
  8
KESKI
 10
20.249999999999989
 20
5.0
 30
0.0
 11
20.249999999999989
 21
3.5
 31
0.0
  0
ENDBLK
  5
4DB
  8
0
  0
BLOCK
  8
0
  2
RELV
 70
     0
 10
0.0
 20
0.0
 30
0.0
  3
RELV
  1

  0
POLYLINE
  5
4DD
  8
KESKI
 66
     1
 10
0.0
 20
0.0
 30
0.0
 70
     1
  0
VERTEX
  5
C1D
  8
KESKI
 10
-24.25
 20
-5.25
 30
0.0
  0
VERTEX
  5
C1E
  8
KESKI
 10
-18.75
 20
-5.25
 30
0.0
  0
VERTEX
  5
C1F
  8
KESKI
 10
-18.75
 20
-9.0
 30
0.0
  0
VERTEX
  5
C20
  8
KESKI
 10
-24.25
 20
-9.0
 30
0.0
  0
SEQEND
  5
C21
  8
KESKI
  0
LINE
  5
4DE
  8
KESKI
 10
-24.25
 20
-9.0
 30
0.0
 11
-18.75
 21
-5.25
 31
0.0
  0
LINE
  5
4DF
  8
KESKI
 10
-21.499999999999989
 20
-13.25
 30
0.0
 11
-27.5
 21
-13.25
 31
0.0
  0
INSERT
  5
4E0
  8
KESKI
  6
CONTINUOUS
  2
*U20
 10
0.0
 20
0.0
 30
0.0
1001
ACAD
1002
{
1000
R14_HATCH_DATA
1000
4E0
1011
1.0
1021
0.0
1031
0.0
1021
0.0
1031
0.0
1011
0.0
1021
0.0
1031
0.0
1021
1.0
1031
0.0
1011
0.0
1021
0.0
1031
0.0
1021
0.0
1031
1.0
1040
0.0
1010
0.0
1020
0.0
1030
1.0
1000
SOLID
1070
     1
1070
     1
1071
        1
1071
        1
1071
        3
1070
     1
1040
-25.5
1040
-13.25
1040
-26.71875
1040
-12.54635435942515
1070
     1
1040
-26.71875
1040
-12.54635435942515
1040
-26.71875
1040
-13.953645640574839
1070
     1
1040
-26.71875
1040
-13.953645640574839
1040
-25.5
1040
-13.25
1071
        1
1005
4E1
1070
     0
1070
     1
1071
        1
1040
-107.25
1040
-293.25
1040
0.0
1002
}
  0
POLYLINE
  5
4E1
  8
KESKI
 66
     1
 10
0.0
 20
0.0
 30
0.0
 70
     1
  0
VERTEX
  5
C28
  8
KESKI
 10
-25.5
 20
-13.25
 30
0.0
  0
VERTEX
  5
C29
  8
KESKI
 10
-26.71875
 20
-12.54635435942515
 30
0.0
  0
VERTEX
  5
C2A
  8
KESKI
 10
-26.71875
 20
-13.953645640574839
 30
0.0
  0
SEQEND
  5
C2B
  8
KESKI
  0
LINE
  5
4E2
  8
KESKI
 10
-8.0
 20
-3.0
 30
0.0
 11
0.0
 21
-3.0
 31
0.0
  0
LINE
  5
4E3
  8
KESKI
 10
-10.5
 20
0.0
 30
0.0
 11
0.0
 21
0.0
 31
0.0
  0
LINE
  5
4E4
  8
KESKI
 10
-10.5
 20
-14.228680635200361
 30
0.0
 11
0.0
 21
-14.228680635200361
 31
0.0
  0
LINE
  5
4E5
  8
KATKO07
 10
-18.75
 20
-7.125
 30
0.0
 11
-9.5520833333333144
 21
-7.1249999999999432
 31
0.0
  0
LINE
  5
4E6
  8
KESKI
 10
-21.499999999999989
 20
-9.0
 30
0.0
 11
-21.499999999999989
 21
-13.25
 31
0.0
  0
LINE
  5
4E7
  8
KESKI
 10
-21.499999999999989
 20
-5.25
 30
0.0
 11
-21.499999999999989
 21
-3.25
 31
0.0
  0
LINE
  5
4E8
  8
KESKI
 10
-10.5
 20
-14.228680635200361
 30
0.0
 11
-10.5
 21
-8.75
 31
0.0
  0
LINE
  5
4E9
  8
KESKI
 10
-9.0
 20
-6.0
 30
0.0
 11
-8.0
 21
-6.0
 31
0.0
  0
LINE
  5
4EA
  8
KESKI
 10
-10.5
 20
-8.75
 30
0.0
 11
-8.5159008334235295
 21
-5.7476739046956018
 31
0.0
  0
LINE
  5
4EB
  8
KESKI
 10
-8.0
 20
-6.0
 30
0.0
 11
-8.0
 21
-3.0
 31
0.0
  0
LINE
  5
4EC
  8
KESKI
 10
-10.5
 20
-6.0
 30
0.0
 11
-10.5
 21
0.0
 31
0.0
  0
ENDBLK
  5
4EE
  8
0
  0
BLOCK
  8
0
  2
A$C17F82921
 70
     0
 10
0.0
 20
0.0
 30
0.0
  3
A$C17F82921
  1

  0
LINE
  5
60A
  8
KESKI
 10
50.464286355877441
 20
65.750000401825673
 30
0.0
 11
50.464286355877441
 21
135.50000040182559
 31
0.0
  0
LINE
  5
60B
  8
KESKI
 10
44.964286355877441
 20
135.50000040182559
 30
0.0
 11
44.964286355877441
 21
65.750000401825673
 31
0.0
  0
INSERT
  5
60C
  8
KATKO07
  2
REL2
 10
20.714286355877441
 20
108.5000004018256
 30
0.0
  0
TEXT
  5
60D
  8
KESKI
 10
46.214286355877441
 20
68.411881359754091
 30
0.0
 40
1.5
  1
18
  7
ACANSGDT
  0
TEXT
  5
60E
  8
KESKI
 10
46.214286355877441
 20
71.411881359754091
 30
0.0
 40
1.5
  1
17
  7
ACANSGDT
  0
TEXT
  5
60F
  8
KESKI
 10
46.214286355877441
 20
74.661881359754091
 30
0.0
 40
1.5
  1
16
  7
ACANSGDT
  0
TEXT
  5
610
  8
KESKI
 10
46.214286355877441
 20
80.911881359754091
 30
0.0
 40
1.5
  1
15
  7
ACANSGDT
  0
TEXT
  5
611
  8
KESKI
 10
46.214286355877441
 20
85.161881359754105
 30
0.0
 40
1.5
  1
13
  7
ACANSGDT
  0
TEXT
  5
612
  8
KESKI
 10
46.214286355877441
 20
88.411881359754091
 30
0.0
 40
1.5
  1
12
  7
ACANSGDT
  0
TEXT
  5
613
  8
KESKI
 10
46.214286355877441
 20
91.411881359754105
 30
0.0
 40
1.5
  1
11
  7
ACANSGDT
  0
TEXT
  5
614
  8
KESKI
 10
46.214286355877441
 20
97.411881359754091
 30
0.0
 40
1.5
  1
10
  7
ACANSGDT
  0
TEXT
  5
615
  8
KESKI
 10
46.714286355877441
 20
100.41188135975401
 30
0.0
 40
1.5
  1
9
  7
ACANSGDT
  0
LINE
  5
616
  8
KESKI
 10
44.964286355877441
 20
65.750000401825673
 30
0.0
 11
50.464286355877441
 21
65.750000401825673
 31
0.0
  0
TEXT
  5
617
  8
KESKI
 10
46.214286355877441
 20
2.1618813597540898
 30
0.0
 40
1.5
  1
18
  7
ACANSGDT
  0
TEXT
  5
618
  8
KESKI
 10
46.214286355877441
 20
13.161881359754091
 30
0.0
 40
1.5
  1
17
  7
ACANSGDT
  0
TEXT
  5
619
  8
KESKI
 10
46.214286355877441
 20
16.161881359754091
 30
0.0
 40
1.5
  1
16
  7
ACANSGDT
  0
TEXT
  5
61A
  8
KESKI
 10
46.214286355877441
 20
19.161881359754091
 30
0.0
 40
1.5
  1
15
  7
ACANSGDT
  0
TEXT
  5
61B
  8
KESKI
 10
46.214286355877441
 20
22.16188135975408
 30
0.0
 40
1.5
  1
14
  7
ACANSGDT
  0
TEXT
  5
61C
  8
KESKI
 10
46.214286355877441
 20
25.161881359754091
 30
0.0
 40
1.5
  1
13
  7
ACANSGDT
  0
TEXT
  5
61D
  8
KESKI
 10
46.214286355877441
 20
31.411881359754091
 30
0.0
 40
1.5
  1
12
  7
ACANSGDT
  0
TEXT
  5
61E
  8
KESKI
 10
46.214286355877441
 20
34.411881359754091
 30
0.0
 40
1.5
  1
11
  7
ACANSGDT
  0
TEXT
  5
61F
  8
KESKI
 10
46.214286355877441
 20
37.411881359754091
 30
0.0
 40
1.5
  1
10
  7
ACANSGDT
  0
LINE
  5
620
  8
KESKI
 10
44.964286355877441
 20
0.0000004018256732
 30
0.0
 11
50.464286355877441
 21
0.0000004018256732
 31
0.0
  0
LINE
  5
621
  8
KESKI
 10
44.964286355877441
 20
49.250000401825673
 30
0.0
 11
50.464286355877441
 21
49.250000401825673
 31
0.0
  0
LINE
  5
622
  8
KESKI
 10
44.964286355877441
 20
51.500000401825673
 30
0.0
 11
50.464286355877441
 21
51.500000401825673
 31
0.0
  0
TEXT
  5
623
  8
KESKI
 10
45.214286355877448
 20
49.500000401825673
 30
0.0
 40
1.5
  1
X4.2
  7
ROMANS
  0
LINE
  5
624
  8
KESKI
 10
44.964286355877441
 20
51.500000401825673
 30
0.0
 11
44.964286355877441
 21
0.0000004018256732
 31
0.0
  0
INSERT
  5
625
  8
KESKI
  2
RELV
 10
44.964286355877441
 20
16.75000040182567
 30
0.0
  0
TEXT
  5
626
  8
KESKI
 10
-0.2857136441225521
 20
3.0000004018256732
 30
0.0
 40
1.5
  1
PS1_4_SO1
  7
ACANSGDT
  0
TEXT
  5
627
  8
KESKI
 10
-0.2857136441225521
 20
72.750000401825673
 30
0.0
 40
1.5
  1
PS1_4_HSPO2
  7
ACANSGDT
  0
TEXT
  5
628
  8
KESKI
 10
-0.2857136441225521
 20
89.250000401825673
 30
0.0
 40
1.5
  1
PS1_4_HSPO1
  7
ACANSGDT
  0
TEXT
  5
629
  8
KESKI
 10
-0.2857136441225521
 20
22.25000040182567
 30
0.0
 40
1.5
  1
PS1_4_HSPO5
  7
ACANSGDT
  0
TEXT
  5
62A
  8
KESKI
 10
-0.2857136441225521
 20
37.250000401825673
 30
0.0
 40
1.5
  1
PS1_4_HSPO4
  7
ACANSGDT
  0
TEXT
  5
62B
  8
KESKI
 10
-0.2857136441225521
 20
69.250000401825673
 30
0.0
 40
1.5
  1
PS1_4_TCS2
  7
ACANSGDT
  0
TEXT
  5
62C
  8
KESKI
 10
-0.2857136441225521
 20
86.000000401825673
 30
0.0
 40
1.5
  1
PS1_4_TCS1
  7
ACANSGDT
  0
INSERT
  5
62D
  8
KATKO07
  2
REL2
 10
20.714286355877441
 20
42.250000401825673
 30
0.0
  0
INSERT
  5
62E
  8
KATKO07
  2
REL2
 10
20.714286355877441
 20
27.00000040182567
 30
0.0
  0
LINE
  5
62F
  8
KATKO07
 10
26.214286355877441
 20
95.125000401825673
 30
0.0
 11
38.998377264968383
 21
95.125000401825673
 31
0.0
  0
LINE
  5
630
  8
KESKI
 10
44.964286355877441
 20
86.000000401825673
 30
0.0
 11
26.214286355877441
 21
86.000000401825673
 31
0.0
  0
LINE
  5
631
  8
KESKI
 10
31.464286355877441
 20
98.250000401825673
 30
0.0
 11
28.464286355877451
 21
98.250000401825673
 31
0.0
  0
LINE
  5
632
  8
KESKI
 10
31.464286355877441
 20
81.625000401825673
 30
0.0
 11
28.464286355877451
 21
81.625000401825673
 31
0.0
  0
LINE
  5
633
  8
KATKO07
 10
26.214286355877441
 20
78.500000401825673
 30
0.0
 11
38.998377264968383
 21
78.500000401825673
 31
0.0
  0
LINE
  5
634
  8
KESKI
 10
44.964286355877441
 20
69.375000401825673
 30
0.0
 11
26.214286355877441
 21
69.375000401825673
 31
0.0
  0
LINE
  5
635
  8
KESKI
 10
28.464286355877451
 20
81.625000401825673
 30
0.0
 11
28.464286355877451
 21
71.000000401825673
 31
0.0
  0
POLYLINE
  5
636
  8
KESKI
 66
     1
 10
0.0
 20
0.0
 30
0.0
 70
     1
  0
VERTEX
  5
C2C
  8
KESKI
 10
20.714286355877441
 20
80.375000401825673
 30
0.0
  0
VERTEX
  5
C2D
  8
KESKI
 10
26.214286355877441
 20
80.375000401825673
 30
0.0
  0
VERTEX
  5
C2E
  8
KESKI
 10
26.214286355877441
 20
76.625000401825673
 30
0.0
  0
VERTEX
  5
C2F
  8
KESKI
 10
20.714286355877441
 20
76.625000401825673
 30
0.0
  0
SEQEND
  5
C30
  8
KESKI
  0
LINE
  5
637
  8
KESKI
 10
20.714286355877441
 20
76.625000401825673
 30
0.0
 11
26.214286355877441
 21
80.375000401825673
 31
0.0
  0
POLYLINE
  5
638
  8
KESKI
 66
     1
 10
0.0
 20
0.0
 30
0.0
  0
VERTEX
  5
C31
  8
KESKI
 10
20.714286355877441
 20
71.750000401825673
 30
0.0
  0
VERTEX
  5
C32
  8
KESKI
 10
26.214286355877441
 20
71.750000401825673
 30
0.0
  0
VERTEX
  5
C33
  8
KESKI
 10
26.214286355877441
 20
68.500000401825673
 30
0.0
  0
VERTEX
  5
C34
  8
KESKI
 10
20.714286355877441
 20
68.500000401825673
 30
0.0
  0
VERTEX
  5
C35
  8
KESKI
 10
20.714286355877441
 20
71.750000401825673
 30
0.0
  0
SEQEND
  5
C36
  8
KESKI
  0
TEXT
  5
639
  8
KESKI
 10
20.964286355877451
 20
69.375000401825673
 30
0.0
 40
1.5
  1
TCS2
 41
0.9
  7
T25
  0
LINE
  5
63A
  8
KESKI
 10
23.464286355877451
 20
73.250000401825673
 30
0.0
 11
17.464286355877441
 21
73.250000401825673
 31
0.0
  0
INSERT
  5
63B
  8
KESKI
  6
CONTINUOUS
  2
*U21
 10
0.0
 20
0.0
 30
0.0
1001
ACAD
1002
{
1000
R14_HATCH_DATA
1000
63B
1011
1.0
1021
0.0
1031
0.0
1021
0.0
1031
0.0
1011
0.0
1021
0.0
1031
0.0
1021
1.0
1031
0.0
1011
0.0
1021
0.0
1031
0.0
1021
0.0
1031
1.0
1040
0.0
1010
0.0
1020
0.0
1030
1.0
1000
SOLID
1070
     1
1070
     1
1071
        1
1071
        1
1071
        3
1070
     1
1040
17.464286355877441
1040
70.125000401825673
1040
18.683036355877441
1040
70.828646042400521
1070
     1
1040
18.683036355877441
1040
70.828646042400521
1040
18.683036355877441
1040
69.421354761250825
1070
     1
1040
18.683036355877441
1040
69.421354761250825
1040
17.464286355877441
1040
70.125000401825673
1071
        1
1005
63C
1070
     0
1070
     1
1071
        1
1040
99.214286355877434
1040
-209.8749995981743
1040
0.0
1002
}
  0
POLYLINE
  5
63C
  8
KESKI
 66
     1
 10
0.0
 20
0.0
 30
0.0
 70
     1
  0
VERTEX
  5
C3D
  8
KESKI
 10
17.464286355877441
 20
70.125000401825673
 30
0.0
  0
VERTEX
  5
C3E
  8
KESKI
 10
18.683036355877441
 20
70.828646042400521
 30
0.0
  0
VERTEX
  5
C3F
  8
KESKI
 10
18.683036355877441
 20
69.421354761250825
 30
0.0
  0
SEQEND
  5
C40
  8
KESKI
  0
LINE
  5
63D
  8
KESKI
 10
20.714286355877441
 20
70.125000401825673
 30
0.0
 11
17.464286355877441
 21
70.125000401825673
 31
0.0
  0
POLYLINE
  5
63E
  8
KESKI
 66
     1
 10
0.0
 20
0.0
 30
0.0
 70
     1
  0
VERTEX
  5
C41
  8
KESKI
 10
19.464286355877441
 20
73.250000401825673
 30
0.0
  0
VERTEX
  5
C42
  8
KESKI
 10
18.245536355877441
 20
73.953646042400521
 30
0.0
  0
VERTEX
  5
C43
  8
KESKI
 10
18.245536355877441
 20
72.546354761250825
 30
0.0
  0
SEQEND
  5
C44
  8
KESKI
  0
INSERT
  5
63F
  8
KESKI
  6
CONTINUOUS
  2
*U22
 10
0.0
 20
0.0
 30
0.0
1001
ACAD
1002
{
1000
R14_HATCH_DATA
1000
63F
1011
1.0
1021
0.0
1031
0.0
1021
0.0
1031
0.0
1011
0.0
1021
0.0
1031
0.0
1021
1.0
1031
0.0
1011
0.0
1021
0.0
1031
0.0
1021
0.0
1031
1.0
1040
0.0
1010
0.0
1020
0.0
1030
1.0
1000
SOLID
1070
     1
1070
     1
1071
        1
1071
        1
1071
        3
1070
     1
1040
19.464286355877441
1040
73.250000401825673
1040
18.245536355877441
1040
73.953646042400521
1070
     1
1040
18.245536355877441
1040
73.953646042400521
1040
18.245536355877441
1040
72.546354761250825
1070
     1
1040
18.245536355877441
1040
72.546354761250825
1040
19.464286355877441
1040
73.250000401825673
1071
        1
1005
63E
1070
     0
1070
     1
1071
        1
1040
-62.285713644122552
1040
-206.7499995981743
1040
0.0
1002
}
  0
LINE
  5
640
  8
KESKI
 10
28.464286355877451
 20
71.000000401825673
 30
0.0
 11
26.214286355877441
 21
71.000000401825673
 31
0.0
  0
LINE
  5
641
  8
KESKI
 10
23.464286355877451
 20
76.625000401825673
 30
0.0
 11
23.464286355877451
 21
73.250000401825673
 31
0.0
  0
POLYLINE
  5
642
  8
KESKI
 66
     1
 10
0.0
 20
0.0
 30
0.0
  0
VERTEX
  5
C4B
  8
KESKI
 10
20.714286355877441
 20
88.375000401825659
 30
0.0
  0
VERTEX
  5
C4C
  8
KESKI
 10
26.214286355877441
 20
88.375000401825659
 30
0.0
  0
VERTEX
  5
C4D
  8
KESKI
 10
26.214286355877441
 20
85.125000401825673
 30
0.0
  0
VERTEX
  5
C4E
  8
KESKI
 10
20.714286355877441
 20
85.125000401825673
 30
0.0
  0
VERTEX
  5
C4F
  8
KESKI
 10
20.714286355877441
 20
88.375000401825659
 30
0.0
  0
SEQEND
  5
C50
  8
KESKI
  0
TEXT
  5
643
  8
KESKI
 10
20.964286355877451
 20
86.000000401825673
 30
0.0
 40
1.5
  1
TCS1
 41
0.9
  7
T25
  0
LINE
  5
644
  8
KESKI
 10
23.464286355877451
 20
89.875000401825673
 30
0.0
 11
17.464286355877441
 21
89.875000401825673
 31
0.0
  0
LINE
  5
645
  8
KESKI
 10
20.714286355877441
 20
93.250000401825673
 30
0.0
 11
26.214286355877441
 21
97.000000401825673
 31
0.0
  0
POLYLINE
  5
646
  8
KESKI
 66
     1
 10
0.0
 20
0.0
 30
0.0
 70
     1
  0
VERTEX
  5
C51
  8
KESKI
 10
20.714286355877441
 20
97.000000401825673
 30
0.0
  0
VERTEX
  5
C52
  8
KESKI
 10
26.214286355877441
 20
97.000000401825673
 30
0.0
  0
VERTEX
  5
C53
  8
KESKI
 10
26.214286355877441
 20
93.250000401825673
 30
0.0
  0
VERTEX
  5
C54
  8
KESKI
 10
20.714286355877441
 20
93.250000401825673
 30
0.0
  0
SEQEND
  5
C55
  8
KESKI
  0
POLYLINE
  5
647
  8
KESKI
 66
     1
 10
0.0
 20
0.0
 30
0.0
 70
     1
  0
VERTEX
  5
C56
  8
KESKI
 10
19.464286355877441
 20
89.875000401825673
 30
0.0
  0
VERTEX
  5
C57
  8
KESKI
 10
18.245536355877441
 20
90.578646042400521
 30
0.0
  0
VERTEX
  5
C58
  8
KESKI
 10
18.245536355877441
 20
89.171354761250825
 30
0.0
  0
SEQEND
  5
C59
  8
KESKI
  0
INSERT
  5
648
  8
KESKI
  6
CONTINUOUS
  2
*U23
 10
0.0
 20
0.0
 30
0.0
1001
ACAD
1002
{
1000
R14_HATCH_DATA
1000
648
1011
1.0
1021
0.0
1031
0.0
1021
0.0
1031
0.0
1011
0.0
1021
0.0
1031
0.0
1021
1.0
1031
0.0
1011
0.0
1021
0.0
1031
0.0
1021
0.0
1031
1.0
1040
0.0
1010
0.0
1020
0.0
1030
1.0
1000
SOLID
1070
     1
1070
     1
1071
        1
1071
        1
1071
        3
1070
     1
1040
19.464286355877441
1040
89.875000401825673
1040
18.245536355877441
1040
90.578646042400521
1070
     1
1040
18.245536355877441
1040
90.578646042400521
1040
18.245536355877441
1040
89.171354761250825
1070
     1
1040
18.245536355877441
1040
89.171354761250825
1040
19.464286355877441
1040
89.875000401825673
1071
        1
1005
647
1070
     0
1070
     1
1071
        1
1040
-62.285713644122552
1040
-190.1249995981743
1040
0.0
1002
}
  0
LINE
  5
649
  8
KESKI
 10
20.714286355877441
 20
86.750000401825673
 30
0.0
 11
17.464286355877441
 21
86.750000401825673
 31
0.0
  0
POLYLINE
  5
64A
  8
KESKI
 66
     1
 10
0.0
 20
0.0
 30
0.0
 70
     1
  0
VERTEX
  5
C60
  8
KESKI
 10
17.464286355877441
 20
86.750000401825673
 30
0.0
  0
VERTEX
  5
C61
  8
KESKI
 10
18.683036355877441
 20
87.453646042400521
 30
0.0
  0
VERTEX
  5
C62
  8
KESKI
 10
18.683036355877441
 20
86.046354761250825
 30
0.0
  0
SEQEND
  5
C63
  8
KESKI
  0
INSERT
  5
64B
  8
KESKI
  6
CONTINUOUS
  2
*U24
 10
0.0
 20
0.0
 30
0.0
1001
ACAD
1002
{
1000
R14_HATCH_DATA
1000
64B
1011
1.0
1021
0.0
1031
0.0
1021
0.0
1031
0.0
1011
0.0
1021
0.0
1031
0.0
1021
1.0
1031
0.0
1011
0.0
1021
0.0
1031
0.0
1021
0.0
1031
1.0
1040
0.0
1010
0.0
1020
0.0
1030
1.0
1000
SOLID
1070
     1
1070
     1
1071
        1
1071
        1
1071
        3
1070
     1
1040
17.464286355877441
1040
86.750000401825673
1040
18.683036355877441
1040
87.453646042400521
1070
     1
1040
18.683036355877441
1040
87.453646042400521
1040
18.683036355877441
1040
86.046354761250825
1070
     1
1040
18.683036355877441
1040
86.046354761250825
1040
17.464286355877441
1040
86.750000401825673
1071
        1
1005
64A
1070
     0
1070
     1
1071
        1
1040
99.214286355877434
1040
-193.2499995981743
1040
0.0
1002
}
  0
LINE
  5
64C
  8
KESKI
 10
23.464286355877451
 20
93.250000401825673
 30
0.0
 11
23.464286355877451
 21
89.875000401825673
 31
0.0
  0
LINE
  5
64D
  8
KESKI
 10
28.464286355877451
 20
98.250000401825673
 30
0.0
 11
28.464286355877451
 21
87.625000401825673
 31
0.0
  0
LINE
  5
64E
  8
KESKI
 10
28.464286355877451
 20
87.625000401825673
 30
0.0
 11
26.214286355877441
 21
87.625000401825673
 31
0.0
  0
LINE
  5
64F
  8
KESKI
 10
23.464286355877451
 20
80.375000401825673
 30
0.0
 11
23.464286355877451
 21
82.375000401825673
 31
0.0
  0
LINE
  5
650
  8
KESKI
 10
23.464286355877451
 20
97.000000401825673
 30
0.0
 11
23.464286355877451
 21
99.000000401825673
 31
0.0
  0
POLYLINE
  5
651
  8
KESKI
 66
     1
 10
0.0
 20
0.0
 30
0.0
 70
     1
  0
VERTEX
  5
C6A
  8
KESKI
 10
41.464286355877448
 20
80.500000401825673
 30
0.0
  0
VERTEX
  5
C6B
  8
KESKI
 10
43.214286355877448
 20
80.500000401825673
 30
0.0
  0
VERTEX
  5
C6C
  8
KESKI
 10
43.214286355877448
 20
76.750000401825673
 30
0.0
  0
VERTEX
  5
C6D
  8
KESKI
 10
41.464286355877448
 20
76.750000401825673
 30
0.0
  0
SEQEND
  5
C6E
  8
KESKI
  0
LINE
  5
652
  8
KESKI
 10
37.964286355877441
 20
76.875000401825673
 30
0.0
 11
39.714286355877448
 21
79.625000401825673
 31
0.0
  0
LINE
  5
653
  8
KESKI
 10
31.464286355877441
 20
76.875000401825673
 30
0.0
 11
33.214286355877448
 21
79.625000401825673
 31
0.0
  0
LINE
  5
654
  8
KESKI
 10
34.964286355877441
 20
81.625000401825673
 30
0.0
 11
34.964286355877441
 21
72.375000401825673
 31
0.0
  0
LINE
  5
655
  8
KESKI
 10
44.964286355877441
 20
75.375000401825673
 30
0.0
 11
37.964286355877441
 21
75.375000401825673
 31
0.0
  0
LINE
  5
656
  8
KESKI
 10
44.964286355877441
 20
72.375000401825673
 30
0.0
 11
34.964286355877441
 21
72.375000401825673
 31
0.0
  0
POLYLINE
  5
657
  8
KESKI
 66
     1
 10
0.0
 20
0.0
 30
0.0
 70
     1
 40
0.5
 41
0.5
  0
VERTEX
  5
C6F
  8
KESKI
 10
31.214286355877441
 20
69.375000401825673
 30
0.0
 42
1.0
  0
VERTEX
  5
C70
  8
KESKI
 10
31.714286355877441
 20
69.375000401825673
 30
0.0
 42
1.0
  0
SEQEND
  5
C71
  8
KESKI
  0
LINE
  5
658
  8
KESKI
 10
31.464286355877441
 20
69.375000401825673
 30
0.0
 11
31.464286355877441
 21
76.875000401825673
 31
0.0
  0
LINE
  5
659
  8
KESKI
 10
37.964286355877441
 20
75.375000401825673
 30
0.0
 11
37.964286355877441
 21
76.875000401825673
 31
0.0
  0
POLYLINE
  5
65A
  8
KESKI
 66
     1
 10
0.0
 20
0.0
 30
0.0
 70
     1
 40
0.5
 41
0.5
  0
VERTEX
  5
C72
  8
KESKI
 10
42.089286355877448
 20
75.250000401825673
 30
0.0
 42
1.0
  0
VERTEX
  5
C73
  8
KESKI
 10
42.589286355877448
 20
75.250000401825673
 30
0.0
 42
1.0
  0
SEQEND
  5
C74
  8
KESKI
  0
LINE
  5
65B
  8
KESKI
 10
42.339286355877441
 20
76.750000401825673
 30
0.0
 11
42.339286355877441
 21
75.250000401825673
 31
0.0
  0
LINE
  5
65C
  8
KESKI
 10
44.964286355877441
 20
98.250000401825673
 30
0.0
 11
37.964286355877441
 21
98.250000401825673
 31
0.0
  0
LINE
  5
65D
  8
KESKI
 10
44.964286355877441
 20
92.000000401825673
 30
0.0
 11
37.964286355877441
 21
92.000000401825673
 31
0.0
  0
LINE
  5
65E
  8
KESKI
 10
44.964286355877441
 20
89.000000401825659
 30
0.0
 11
34.964286355877441
 21
89.000000401825659
 31
0.0
  0
LINE
  5
65F
  8
KESKI
 10
37.964286355877441
 20
93.500000401825673
 30
0.0
 11
39.714286355877448
 21
96.250000401825673
 31
0.0
  0
LINE
  5
660
  8
KESKI
 10
44.964286355877441
 20
81.625000401825673
 30
0.0
 11
37.964286355877441
 21
81.625000401825673
 31
0.0
  0
LINE
  5
661
  8
KESKI
 10
31.464286355877441
 20
86.000000401825673
 30
0.0
 11
31.464286355877441
 21
93.500000401825673
 31
0.0
  0
LINE
  5
662
  8
KESKI
 10
34.964286355877441
 20
98.250000401825673
 30
0.0
 11
34.964286355877441
 21
89.000000401825659
 31
0.0
  0
LINE
  5
663
  8
KESKI
 10
31.464286355877441
 20
81.625000401825673
 30
0.0
 11
34.964286355877441
 21
81.625000401825673
 31
0.0
  0
POLYLINE
  5
664
  8
KESKI
 66
     1
 10
0.0
 20
0.0
 30
0.0
 70
     1
 40
0.5
 41
0.5
  0
VERTEX
  5
C75
  8
KESKI
 10
31.214286355877441
 20
86.000000401825673
 30
0.0
 42
1.0
  0
VERTEX
  5
C76
  8
KESKI
 10
31.714286355877441
 20
86.000000401825673
 30
0.0
 42
1.0
  0
SEQEND
  5
C77
  8
KESKI
  0
POLYLINE
  5
665
  8
KESKI
 66
     1
 10
0.0
 20
0.0
 30
0.0
 70
     1
 40
0.5
 41
0.5
  0
VERTEX
  5
C78
  8
KESKI
 10
31.214286355877441
 20
81.625000401825673
 30
0.0
 42
1.0
  0
VERTEX
  5
C79
  8
KESKI
 10
31.714286355877441
 20
81.625000401825673
 30
0.0
 42
1.0
  0
SEQEND
  5
C7A
  8
KESKI
  0
LINE
  5
666
  8
KESKI
 10
31.464286355877441
 20
80.125000401825673
 30
0.0
 11
31.464286355877441
 21
81.625000401825673
 31
0.0
  0
LINE
  5
667
  8
KESKI
 10
37.964286355877441
 20
81.625000401825673
 30
0.0
 11
37.964286355877441
 21
80.125000401825673
 31
0.0
  0
LINE
  5
668
  8
KESKI
 10
31.464286355877441
 20
98.250000401825673
 30
0.0
 11
34.964286355877441
 21
98.250000401825673
 31
0.0
  0
LINE
  5
669
  8
KESKI
 10
31.464286355877441
 20
96.750000401825673
 30
0.0
 11
31.464286355877441
 21
98.250000401825673
 31
0.0
  0
POLYLINE
  5
66A
  8
KESKI
 66
     1
 10
0.0
 20
0.0
 30
0.0
 70
     1
 40
0.5
 41
0.5
  0
VERTEX
  5
C7B
  8
KESKI
 10
31.214286355877441
 20
98.250000401825673
 30
0.0
 42
1.0
  0
VERTEX
  5
C7C
  8
KESKI
 10
31.714286355877441
 20
98.250000401825673
 30
0.0
 42
1.0
  0
SEQEND
  5
C7D
  8
KESKI
  0
LINE
  5
66B
  8
KESKI
 10
31.464286355877441
 20
93.500000401825673
 30
0.0
 11
33.214286355877448
 21
96.250000401825673
 31
0.0
  0
LINE
  5
66C
  8
KESKI
 10
37.964286355877441
 20
98.250000401825673
 30
0.0
 11
37.964286355877441
 21
96.750000401825673
 31
0.0
  0
LINE
  5
66D
  8
KESKI
 10
37.964286355877441
 20
92.000000401825673
 30
0.0
 11
37.964286355877441
 21
93.500000401825673
 31
0.0
  0
POLYLINE
  5
66E
  8
KESKI
 66
     1
 10
0.0
 20
0.0
 30
0.0
 70
     1
 40
0.5
 41
0.5
  0
VERTEX
  5
C7E
  8
KESKI
 10
42.089286355877448
 20
81.625000401825673
 30
0.0
 42
1.0
  0
VERTEX
  5
C7F
  8
KESKI
 10
42.589286355877448
 20
81.625000401825673
 30
0.0
 42
1.0
  0
SEQEND
  5
C80
  8
KESKI
  0
LINE
  5
66F
  8
KESKI
 10
42.339286355877441
 20
80.500000401825673
 30
0.0
 11
42.339286355877441
 21
81.750000401825673
 31
0.0
  0
POLYLINE
  5
670
  8
KESKI
 66
     1
 10
0.0
 20
0.0
 30
0.0
 70
     1
  0
VERTEX
  5
C81
  8
KESKI
 10
41.464286355877448
 20
97.125000401825673
 30
0.0
  0
VERTEX
  5
C82
  8
KESKI
 10
43.214286355877448
 20
97.125000401825673
 30
0.0
  0
VERTEX
  5
C83
  8
KESKI
 10
43.214286355877448
 20
93.375000401825659
 30
0.0
  0
VERTEX
  5
C84
  8
KESKI
 10
41.464286355877448
 20
93.375000401825659
 30
0.0
  0
SEQEND
  5
C85
  8
KESKI
  0
LINE
  5
671
  8
KESKI
 10
42.339286355877441
 20
97.125000401825673
 30
0.0
 11
42.339286355877441
 21
98.375000401825673
 31
0.0
  0
POLYLINE
  5
672
  8
KESKI
 66
     1
 10
0.0
 20
0.0
 30
0.0
 70
     1
 40
0.5
 41
0.5
  0
VERTEX
  5
C86
  8
KESKI
 10
42.089286355877448
 20
98.250000401825673
 30
0.0
 42
1.0
  0
VERTEX
  5
C87
  8
KESKI
 10
42.589286355877448
 20
98.250000401825673
 30
0.0
 42
1.0
  0
SEQEND
  5
C88
  8
KESKI
  0
LINE
  5
673
  8
KESKI
 10
42.339286355877441
 20
93.375000401825659
 30
0.0
 11
42.339286355877441
 21
91.875000401825673
 31
0.0
  0
POLYLINE
  5
674
  8
KESKI
 66
     1
 10
0.0
 20
0.0
 30
0.0
 70
     1
 40
0.5
 41
0.5
  0
VERTEX
  5
C89
  8
KESKI
 10
42.089286355877448
 20
91.875000401825673
 30
0.0
 42
1.0
  0
VERTEX
  5
C8A
  8
KESKI
 10
42.589286355877448
 20
91.875000401825673
 30
0.0
 42
1.0
  0
SEQEND
  5
C8B
  8
KESKI
  0
LINE
  5
675
  8
KESKI
 10
50.464286355877441
 20
0.0000004018256732
 30
0.0
 11
50.464286355877441
 21
51.500000401825673
 31
0.0
  0
TEXT
  5
676
  8
KESKI
 10
47.214286355877441
 20
40.411881359754091
 30
0.0
 40
1.5
  1
9
  7
ACANSGDT
  0
TEXT
  5
677
  8
KESKI
 10
47.214286355877441
 20
46.411881359754091
 30
0.0
 40
1.5
  1
8
  7
ACANSGDT
  0
TEXT
  5
678
  8
KESKI
 10
46.714286355877441
 20
103.41188135975401
 30
0.0
 40
1.5
  1
8
  7
ACANSGDT
  0
TEXT
  5
679
  8
KESKI
 10
46.714286355877441
 20
106.66188135975401
 30
0.0
 40
1.5
  1
7
  7
ACANSGDT
  0
TEXT
  5
67A
  8
KESKI
 10
46.714286355877441
 20
112.6618813597541
 30
0.0
 40
1.5
  1
6
  7
ACANSGDT
  0
TEXT
  5
67B
  8
KESKI
 10
46.714286355877441
 20
116.16188135975401
 30
0.0
 40
1.5
  1
5
  7
ACANSGDT
  0
TEXT
  5
67C
  8
KESKI
 10
46.714286355877441
 20
127.41188135975401
 30
0.0
 40
1.5
  1
4
  7
ACANSGDT
  0
TEXT
  5
67D
  8
KESKI
 10
46.714286355877441
 20
130.41188135975409
 30
0.0
 40
1.5
  1
3
  7
ACANSGDT
  0
LINE
  5
67E
  8
KESKI
 10
44.964286355877441
 20
135.50000040182559
 30
0.0
 11
50.464286355877441
 21
135.50000040182559
 31
0.0
  0
LINE
  5
67F
  8
KESKI
 10
44.964286355877441
 20
133.25000040182559
 30
0.0
 11
50.464286355877441
 21
133.25000040182559
 31
0.0
  0
TEXT
  5
680
  8
KESKI
 10
45.214286355877448
 20
133.50000040182559
 30
0.0
 40
1.5
  1
X4.1
  7
ROMANS
  0
TEXT
  5
681
  8
KESKI
 10
-0.2857136441225521
 20
103.7500004018256
 30
0.0
 40
1.5
  1
PS1_4_HSPO3
  7
ACANSGDT
  0
POLYLINE
  5
682
  8
KESKI
 66
     1
 10
0.0
 20
0.0
 30
0.0
 70
     1
  0
VERTEX
  5
C8C
  8
KESKI
 10
12.464286355877441
 20
131.50000040182559
 30
0.0
  0
VERTEX
  5
C8D
  8
KESKI
 10
17.464286355877441
 20
131.50000040182559
 30
0.0
  0
VERTEX
  5
C8E
  8
KESKI
 10
17.464286355877441
 20
128.50000040182559
 30
0.0
  0
VERTEX
  5
C8F
  8
KESKI
 10
12.464286355877441
 20
128.50000040182559
 30
0.0
  0
SEQEND
  5
C90
  8
KESKI
  0
TEXT
  5
683
  8
KESKI
 10
13.464286355877441
 20
129.25000040182559
 30
0.0
 40
1.5
  1
IRF
 41
0.9
  7
T25
  0
LINE
  5
684
  8
KATKO07
 10
26.214286355877441
 20
124.1250004018256
 30
0.0
 11
35.412203022544134
 21
124.1250004018257
 31
0.0
  0
LINE
  5
685
  8
KESKI
 10
20.714286355877441
 20
122.2500004018256
 30
0.0
 11
26.214286355877441
 21
126.0000004018256
 31
0.0
  0
POLYLINE
  5
686
  8
KESKI
 66
     1
 10
0.0
 20
0.0
 30
0.0
 70
     1
  0
VERTEX
  5
C91
  8
KESKI
 10
20.714286355877441
 20
126.0000004018256
 30
0.0
  0
VERTEX
  5
C92
  8
KESKI
 10
26.214286355877441
 20
126.0000004018256
 30
0.0
  0
VERTEX
  5
C93
  8
KESKI
 10
26.214286355877441
 20
122.2500004018256
 30
0.0
  0
VERTEX
  5
C94
  8
KESKI
 10
20.714286355877441
 20
122.2500004018256
 30
0.0
  0
SEQEND
  5
C95
  8
KESKI
  0
LINE
  5
687
  8
KESKI
 10
23.464286355877451
 20
122.2500004018256
 30
0.0
 11
23.464286355877451
 21
120.2500004018256
 31
0.0
  0
LINE
  5
688
  8
KESKI
 10
23.464286355877451
 20
130.00000040182559
 30
0.0
 11
17.464286355877441
 21
130.00000040182559
 31
0.0
  0
INSERT
  5
689
  8
KESKI
  6
CONTINUOUS
  2
*U25
 10
0.0
 20
0.0
 30
0.0
1001
ACAD
1002
{
1000
R14_HATCH_DATA
1000
689
1011
1.0
1021
0.0
1031
0.0
1021
0.0
1031
0.0
1011
0.0
1021
0.0
1031
0.0
1021
1.0
1031
0.0
1011
0.0
1021
0.0
1031
0.0
1021
0.0
1031
1.0
1040
0.0
1010
0.0
1020
0.0
1030
1.0
1000
SOLID
1070
     1
1070
     1
1071
        1
1071
        1
1071
        3
1070
     1
1040
19.464286355877441
1040
130.00000040182559
1040
18.245536355877441
1040
129.2963547612508
1070
     1
1040
18.245536355877441
1040
129.2963547612508
1040
18.245536355877441
1040
130.70364604240049
1070
     1
1040
18.245536355877441
1040
130.70364604240049
1040
19.464286355877441
1040
130.00000040182559
1071
        1
1005
68A
1070
     0
1070
     1
1071
        1
1040
-62.285713644122552
1040
410.00000040182562
1040
0.0
1002
}
  0
POLYLINE
  5
68A
  8
KESKI
 66
     1
 10
0.0
 20
0.0
 30
0.0
 70
     1
  0
VERTEX
  5
C9C
  8
KESKI
 10
19.464286355877441
 20
130.00000040182559
 30
0.0
  0
VERTEX
  5
C9D
  8
KESKI
 10
18.245536355877441
 20
129.2963547612508
 30
0.0
  0
VERTEX
  5
C9E
  8
KESKI
 10
18.245536355877441
 20
130.70364604240049
 30
0.0
  0
SEQEND
  5
C9F
  8
KESKI
  0
LINE
  5
68B
  8
KESKI
 10
23.464286355877451
 20
125.7500004018256
 30
0.0
 11
23.464286355877451
 21
130.00000040182559
 31
0.0
  0
LINE
  5
68C
  8
KESKI
 10
23.464286355877451
 20
126.0000004018256
 30
0.0
 11
23.464286355877451
 21
128.00000040182559
 31
0.0
  0
LINE
  5
68D
  8
KESKI
 10
34.464286355877448
 20
125.2500004018256
 30
0.0
 11
34.464286355877448
 21
131.25000040182559
 31
0.0
  0
LINE
  5
68E
  8
KESKI
 10
36.964286355877448
 20
125.2500004018256
 30
0.0
 11
36.964286355877448
 21
128.25000040182559
 31
0.0
  0
LINE
  5
68F
  8
KESKI
 10
34.464286355877448
 20
122.5000004018256
 30
0.0
 11
36.448385522453918
 21
125.50232649713
 31
0.0
  0
LINE
  5
690
  8
KESKI
 10
34.464286355877448
 20
117.0213197666253
 30
0.0
 11
44.964286355877441
 21
117.0213197666253
 31
0.0
  0
LINE
  5
691
  8
KESKI
 10
34.464286355877448
 20
117.0213197666253
 30
0.0
 11
34.464286355877448
 21
122.5000004018256
 31
0.0
  0
LINE
  5
692
  8
KESKI
 10
35.964286355877448
 20
125.2500004018256
 30
0.0
 11
36.964286355877448
 21
125.2500004018256
 31
0.0
  0
LINE
  5
693
  8
KESKI
 10
34.464286355877448
 20
131.25000040182559
 30
0.0
 11
44.964286355877441
 21
131.25000040182559
 31
0.0
  0
LINE
  5
694
  8
KESKI
 10
36.964286355877448
 20
128.25000040182559
 30
0.0
 11
44.964286355877441
 21
128.25000040182559
 31
0.0
  0
ENDBLK
  5
696
  8
0
  0
BLOCK
  8
0
  2
A$C7D113369
 70
     0
 10
0.0
 20
0.0
 30
0.0
  3
A$C7D113369
  1

  0
LINE
  5
71D
  8
TEXT25
 10
0.0000001428525138
 20
15.999999873540331
 30
0.0
 11
74.000000142852514
 21
15.999999873540331
 31
0.0
  0
TEXT
  5
71E
  8
TEXT25
 10
43.000000142852507
 20
10.999999873540331
 30
0.0
 40
2.5
  1
BINARY INPUT RANGE
 41
0.9
  7
T25
  0
LINE
  5
71F
  8
TEXT25
 10
0.0000001428525138
 20
-0.0000001264596676
 30
0.0
 11
74.000000142852514
 21
-0.0000001264596676
 31
0.0
  0
LINE
  5
720
  8
TEXT25
 10
0.0000001428525138
 20
4.9999998735403324
 30
0.0
 11
74.000000142852514
 21
4.9999998735403324
 31
0.0
  0
LINE
  5
721
  8
TEXT25
 10
0.0000001428525138
 20
9.9999998735403324
 30
0.0
 11
74.000000142852514
 21
9.9999998735403324
 31
0.0
  0
TEXT
  5
722
  8
TEXT25
 10
1.0000001428525129
 20
0.4047617783022588
 30
0.0
 40
2.5
  1
110-220VDC or 110-240VAC
 41
0.9
  7
T25
  0
TEXT
  5
723
  8
TEXT25
 10
1.5000001428525129
 20
10.999999873540331
 30
0.0
 40
2.5
  1
AUX. VOLTAGE
 41
0.9
  7
T25
  0
TEXT
  5
724
  8
TEXT25
 10
1.0000001428525129
 20
5.4047617783022579
 30
0.0
 40
2.5
  1
24-60VDC
 41
0.9
  7
T25
  0
LINE
  5
725
  8
TEXT25
 10
40.500000142852507
 20
-0.0000001264596676
 30
0.0
 11
40.500000142852507
 21
15.999999873540331
 31
0.0
  0
TEXT
  5
726
  8
TEXT25
 10
43.000000142852507
 20
0.4047617783022588
 30
0.0
 40
2.5
  1
75-265VDC
 41
0.9
  7
T25
  0
TEXT
  5
727
  8
TEXT25
 10
43.000000142852507
 20
5.4047617783022579
 30
0.0
 40
2.5
  1
18-265VDC
 41
0.9
  7
T25
  0
LINE
  5
728
  8
TEXT25
 10
74.000000142852514
 20
-0.0000001264596676
 30
0.0
 11
74.000000142852514
 21
15.999999873540331
 31
0.0
  0
LINE
  5
729
  8
TEXT25
 10
0.0000001428525138
 20
-0.0000001264596676
 30
0.0
 11
0.0000001428525138
 21
15.999999873540331
 31
0.0
  0
ENDBLK
  5
72B
  8
0
  0
BLOCK
  8
0
  2
*U18
 70
     1
 10
0.0
 20
0.0
 30
0.0
  3
*U18
  1

  0
SOLID
  5
BF2
  8
KESKI
  6
CONTINUOUS
 10
9.4375
 20
3.75
 30
0.0
 11
10.25
 21
3.75
 31
0.0
 12
9.03125
 22
4.4536456405748481
 32
0.0
 13
9.03125
 23
4.4536456405748481
 33
0.0
210
0.0
220
0.0
230
1.0
  0
SOLID
  5
BF3
  8
KESKI
  6
CONTINUOUS
 10
9.4375
 20
3.75
 30
0.0
 11
9.03125
 21
4.4536456405748481
 31
0.0
 12
9.03125
 22
3.046354359425151
 32
0.0
 13
9.03125
 23
3.046354359425151
 33
0.0
210
0.0
220
0.0
230
1.0
  0
SOLID
  5
BF4
  8
KESKI
  6
CONTINUOUS
 10
9.4375
 20
3.75
 30
0.0
 11
9.03125
 21
3.046354359425151
 31
0.0
 12
10.25
 22
3.75
 32
0.0
 13
10.25
 23
3.75
 33
0.0
210
0.0
220
0.0
230
1.0
  0
ENDBLK
  5
BF6
  8
0
  0
BLOCK
  8
0
  2
*U19
 70
     1
 10
0.0
 20
0.0
 30
0.0
  3
*U19
  1

  0
SOLID
  5
C13
  8
KESKI
  6
CONTINUOUS
 10
-2.0625
 20
-4.25
 30
0.0
 11
-1.25
 21
-4.25
 31
0.0
 12
-2.46875
 22
-3.546354359425151
 32
0.0
 13
-2.46875
 23
-3.546354359425151
 33
0.0
210
0.0
220
0.0
230
1.0
  0
SOLID
  5
C14
  8
KESKI
  6
CONTINUOUS
 10
-2.0625
 20
-4.25
 30
0.0
 11
-2.46875
 21
-3.546354359425151
 31
0.0
 12
-2.46875
 22
-4.9536456405748481
 32
0.0
 13
-2.46875
 23
-4.9536456405748481
 33
0.0
210
0.0
220
0.0
230
1.0
  0
SOLID
  5
C15
  8
KESKI
  6
CONTINUOUS
 10
-2.0625
 20
-4.25
 30
0.0
 11
-2.46875
 21
-4.9536456405748481
 31
0.0
 12
-1.25
 22
-4.25
 32
0.0
 13
-1.25
 23
-4.25
 33
0.0
210
0.0
220
0.0
230
1.0
  0
ENDBLK
  5
C17
  8
0
  0
BLOCK
  8
0
  2
*U20
 70
     1
 10
0.0
 20
0.0
 30
0.0
  3
*U20
  1

  0
SOLID
  5
C23
  8
KESKI
  6
CONTINUOUS
 10
-26.3125
 20
-13.25
 30
0.0
 11
-25.5
 21
-13.25
 31
0.0
 12
-26.71875
 22
-12.54635435942515
 32
0.0
 13
-26.71875
 23
-12.54635435942515
 33
0.0
210
0.0
220
0.0
230
1.0
  0
SOLID
  5
C24
  8
KESKI
  6
CONTINUOUS
 10
-26.3125
 20
-13.25
 30
0.0
 11
-26.71875
 21
-12.54635435942515
 31
0.0
 12
-26.71875
 22
-13.953645640574839
 32
0.0
 13
-26.71875
 23
-13.953645640574839
 33
0.0
210
0.0
220
0.0
230
1.0
  0
SOLID
  5
C25
  8
KESKI
  6
CONTINUOUS
 10
-26.3125
 20
-13.25
 30
0.0
 11
-26.71875
 21
-13.953645640574839
 31
0.0
 12
-25.5
 22
-13.25
 32
0.0
 13
-25.5
 23
-13.25
 33
0.0
210
0.0
220
0.0
230
1.0
  0
ENDBLK
  5
C27
  8
0
  0
BLOCK
  8
0
  2
*U21
 70
     1
 10
0.0
 20
0.0
 30
0.0
  3
*U21
  1

  0
SOLID
  5
C38
  8
KESKI
  6
CONTINUOUS
 10
-18.276786355877441
 20
70.125000401825673
 30
0.0
 11
-17.464286355877441
 21
70.125000401825673
 31
0.0
 12
-18.683036355877441
 22
70.828646042400521
 32
0.0
 13
-18.683036355877441
 23
70.828646042400521
 33
0.0
210
0.0
220
0.0
230
-1.0
  0
SOLID
  5
C39
  8
KESKI
  6
CONTINUOUS
 10
-18.276786355877441
 20
70.125000401825673
 30
0.0
 11
-18.683036355877441
 21
70.828646042400521
 31
0.0
 12
-18.683036355877441
 22
69.421354761250825
 32
0.0
 13
-18.683036355877441
 23
69.421354761250825
 33
0.0
210
0.0
220
0.0
230
-1.0
  0
SOLID
  5
C3A
  8
KESKI
  6
CONTINUOUS
 10
-18.276786355877441
 20
70.125000401825673
 30
0.0
 11
-18.683036355877441
 21
69.421354761250825
 31
0.0
 12
-17.464286355877441
 22
70.125000401825673
 32
0.0
 13
-17.464286355877441
 23
70.125000401825673
 33
0.0
210
0.0
220
0.0
230
-1.0
  0
ENDBLK
  5
C3C
  8
0
  0
BLOCK
  8
0
  2
*U22
 70
     1
 10
0.0
 20
0.0
 30
0.0
  3
*U22
  1

  0
SOLID
  5
C46
  8
KESKI
  6
CONTINUOUS
 10
18.651786355877441
 20
73.250000401825673
 30
0.0
 11
19.464286355877441
 21
73.250000401825673
 31
0.0
 12
18.245536355877441
 22
73.953646042400521
 32
0.0
 13
18.245536355877441
 23
73.953646042400521
 33
0.0
210
0.0
220
0.0
230
1.0
  0
SOLID
  5
C47
  8
KESKI
  6
CONTINUOUS
 10
18.651786355877441
 20
73.250000401825673
 30
0.0
 11
18.245536355877441
 21
73.953646042400521
 31
0.0
 12
18.245536355877441
 22
72.546354761250825
 32
0.0
 13
18.245536355877441
 23
72.546354761250825
 33
0.0
210
0.0
220
0.0
230
1.0
  0
SOLID
  5
C48
  8
KESKI
  6
CONTINUOUS
 10
18.651786355877441
 20
73.250000401825673
 30
0.0
 11
18.245536355877441
 21
72.546354761250825
 31
0.0
 12
19.464286355877441
 22
73.250000401825673
 32
0.0
 13
19.464286355877441
 23
73.250000401825673
 33
0.0
210
0.0
220
0.0
230
1.0
  0
ENDBLK
  5
C4A
  8
0
  0
BLOCK
  8
0
  2
*U23
 70
     1
 10
0.0
 20
0.0
 30
0.0
  3
*U23
  1

  0
SOLID
  5
C5B
  8
KESKI
  6
CONTINUOUS
 10
18.651786355877441
 20
89.875000401825673
 30
0.0
 11
19.464286355877441
 21
89.875000401825673
 31
0.0
 12
18.245536355877441
 22
90.578646042400521
 32
0.0
 13
18.245536355877441
 23
90.578646042400521
 33
0.0
210
0.0
220
0.0
230
1.0
  0
SOLID
  5
C5C
  8
KESKI
  6
CONTINUOUS
 10
18.651786355877441
 20
89.875000401825673
 30
0.0
 11
18.245536355877441
 21
90.578646042400521
 31
0.0
 12
18.245536355877441
 22
89.171354761250825
 32
0.0
 13
18.245536355877441
 23
89.171354761250825
 33
0.0
210
0.0
220
0.0
230
1.0
  0
SOLID
  5
C5D
  8
KESKI
  6
CONTINUOUS
 10
18.651786355877441
 20
89.875000401825673
 30
0.0
 11
18.245536355877441
 21
89.171354761250825
 31
0.0
 12
19.464286355877441
 22
89.875000401825673
 32
0.0
 13
19.464286355877441
 23
89.875000401825673
 33
0.0
210
0.0
220
0.0
230
1.0
  0
ENDBLK
  5
C5F
  8
0
  0
BLOCK
  8
0
  2
*U24
 70
     1
 10
0.0
 20
0.0
 30
0.0
  3
*U24
  1

  0
SOLID
  5
C65
  8
KESKI
  6
CONTINUOUS
 10
-18.276786355877441
 20
86.750000401825673
 30
0.0
 11
-17.464286355877441
 21
86.750000401825673
 31
0.0
 12
-18.683036355877441
 22
87.453646042400521
 32
0.0
 13
-18.683036355877441
 23
87.453646042400521
 33
0.0
210
0.0
220
0.0
230
-1.0
  0
SOLID
  5
C66
  8
KESKI
  6
CONTINUOUS
 10
-18.276786355877441
 20
86.750000401825673
 30
0.0
 11
-18.683036355877441
 21
87.453646042400521
 31
0.0
 12
-18.683036355877441
 22
86.046354761250825
 32
0.0
 13
-18.683036355877441
 23
86.046354761250825
 33
0.0
210
0.0
220
0.0
230
-1.0
  0
SOLID
  5
C67
  8
KESKI
  6
CONTINUOUS
 10
-18.276786355877441
 20
86.750000401825673
 30
0.0
 11
-18.683036355877441
 21
86.046354761250825
 31
0.0
 12
-17.464286355877441
 22
86.750000401825673
 32
0.0
 13
-17.464286355877441
 23
86.750000401825673
 33
0.0
210
0.0
220
0.0
230
-1.0
  0
ENDBLK
  5
C69
  8
0
  0
BLOCK
  8
0
  2
*U25
 70
     1
 10
0.0
 20
0.0
 30
0.0
  3
*U25
  1

  0
SOLID
  5
C97
  8
KESKI
  6
CONTINUOUS
 10
-18.651786355877441
 20
130.00000040182559
 30
0.0
 11
-19.464286355877441
 21
130.00000040182559
 31
0.0
 12
-18.245536355877441
 22
129.2963547612508
 32
0.0
 13
-18.245536355877441
 23
129.2963547612508
 33
0.0
210
0.0
220
0.0
230
-1.0
  0
SOLID
  5
C98
  8
KESKI
  6
CONTINUOUS
 10
-18.651786355877441
 20
130.00000040182559
 30
0.0
 11
-18.245536355877441
 21
129.2963547612508
 31
0.0
 12
-18.245536355877441
 22
130.70364604240049
 32
0.0
 13
-18.245536355877441
 23
130.70364604240049
 33
0.0
210
0.0
220
0.0
230
-1.0
  0
SOLID
  5
C99
  8
KESKI
  6
CONTINUOUS
 10
-18.651786355877441
 20
130.00000040182559
 30
0.0
 11
-18.245536355877441
 21
130.70364604240049
 31
0.0
 12
-19.464286355877441
 22
130.00000040182559
 32
0.0
 13
-19.464286355877441
 23
130.00000040182559
 33
0.0
210
0.0
220
0.0
230
-1.0
  0
ENDBLK
  5
C9B
  8
0
  0
BLOCK
  8
0
  2
*U26
 70
     1
 10
0.0
 20
0.0
 30
0.0
  3
*U26
  1

  0
SOLID
  5
CA7
  8
MITTA
  6
CONTINUOUS
 10
-191.5833333333332
 20
227.5
 30
0.0
 11
-193.24999999999989
 21
227.5
 31
0.0
 12
-190.74999999999989
 22
226.0
 32
0.0
 13
-190.74999999999989
 23
226.0
 33
0.0
210
0.0
220
0.0
230
-1.0
  0
SOLID
  5
CA8
  8
MITTA
  6
CONTINUOUS
 10
-191.5833333333332
 20
227.5
 30
0.0
 11
-190.74999999999989
 21
226.0
 31
0.0
 12
-190.74999999999989
 22
229.0
 32
0.0
 13
-190.74999999999989
 23
229.0
 33
0.0
210
0.0
220
0.0
230
-1.0
  0
SOLID
  5
CA9
  8
MITTA
  6
CONTINUOUS
 10
-191.5833333333332
 20
227.5
 30
0.0
 11
-190.74999999999989
 21
229.0
 31
0.0
 12
-193.24999999999989
 22
227.5
 32
0.0
 13
-193.24999999999989
 23
227.5
 33
0.0
210
0.0
220
0.0
230
-1.0
  0
ENDBLK
  5
CAB
  8
0
  0
BLOCK
  8
0
  2
*U27
 70
     1
 10
0.0
 20
0.0
 30
0.0
  3
*U27
  1

  0
SOLID
  5
CCD
  8
MITTA
  6
CONTINUOUS
 10
-191.5833333333332
 20
215.5
 30
0.0
 11
-193.24999999999989
 21
215.5
 31
0.0
 12
-190.74999999999989
 22
214.0
 32
0.0
 13
-190.74999999999989
 23
214.0
 33
0.0
210
0.0
220
0.0
230
-1.0
  0
SOLID
  5
CCE
  8
MITTA
  6
CONTINUOUS
 10
-191.5833333333332
 20
215.5
 30
0.0
 11
-190.74999999999989
 21
214.0
 31
0.0
 12
-190.74999999999989
 22
217.0
 32
0.0
 13
-190.74999999999989
 23
217.0
 33
0.0
210
0.0
220
0.0
230
-1.0
  0
SOLID
  5
CCF
  8
MITTA
  6
CONTINUOUS
 10
-191.5833333333332
 20
215.5
 30
0.0
 11
-190.74999999999989
 21
217.0
 31
0.0
 12
-193.24999999999989
 22
215.5
 32
0.0
 13
-193.24999999999989
 23
215.5
 33
0.0
210
0.0
220
0.0
230
-1.0
  0
ENDBLK
  5
CD1
  8
0
  0
BLOCK
  8
0
  2
*U28
 70
     1
 10
0.0
 20
0.0
 30
0.0
  3
*U28
  1

  0
SOLID
  5
D08
  8
MITTA
  6
CONTINUOUS
 10
-191.5833333333332
 20
187.5
 30
0.0
 11
-193.24999999999989
 21
187.5
 31
0.0
 12
-190.74999999999989
 22
186.0
 32
0.0
 13
-190.74999999999989
 23
186.0
 33
0.0
210
0.0
220
0.0
230
-1.0
  0
SOLID
  5
D09
  8
MITTA
  6
CONTINUOUS
 10
-191.5833333333332
 20
187.5
 30
0.0
 11
-190.74999999999989
 21
186.0
 31
0.0
 12
-190.74999999999989
 22
189.0
 32
0.0
 13
-190.74999999999989
 23
189.0
 33
0.0
210
0.0
220
0.0
230
-1.0
  0
SOLID
  5
D0A
  8
MITTA
  6
CONTINUOUS
 10
-191.5833333333332
 20
187.5
 30
0.0
 11
-190.74999999999989
 21
189.0
 31
0.0
 12
-193.24999999999989
 22
187.5
 32
0.0
 13
-193.24999999999989
 23
187.5
 33
0.0
210
0.0
220
0.0
230
-1.0
  0
ENDBLK
  5
D0C
  8
0
  0
BLOCK
  8
0
  2
*U29
 70
     1
 10
0.0
 20
0.0
 30
0.0
  3
*U29
  1

  0
SOLID
  5
D0E
  8
MITTA
  6
CONTINUOUS
 10
-191.5833333333332
 20
199.5
 30
0.0
 11
-193.24999999999989
 21
199.5
 31
0.0
 12
-190.74999999999989
 22
198.0
 32
0.0
 13
-190.74999999999989
 23
198.0
 33
0.0
210
0.0
220
0.0
230
-1.0
  0
SOLID
  5
D0F
  8
MITTA
  6
CONTINUOUS
 10
-191.5833333333332
 20
199.5
 30
0.0
 11
-190.74999999999989
 21
198.0
 31
0.0
 12
-190.74999999999989
 22
201.0
 32
0.0
 13
-190.74999999999989
 23
201.0
 33
0.0
210
0.0
220
0.0
230
-1.0
  0
SOLID
  5
D10
  8
MITTA
  6
CONTINUOUS
 10
-191.5833333333332
 20
199.5
 30
0.0
 11
-190.74999999999989
 21
201.0
 31
0.0
 12
-193.24999999999989
 22
199.5
 32
0.0
 13
-193.24999999999989
 23
199.5
 33
0.0
210
0.0
220
0.0
230
-1.0
  0
ENDBLK
  5
D12
  8
0
  0
BLOCK
  8
0
  2
*U30
 70
     1
 10
0.0
 20
0.0
 30
0.0
  3
*U30
  1

  0
SOLID
  5
D36
  8
MITTA
  6
CONTINUOUS
 10
-191.5833333333332
 20
171.5
 30
0.0
 11
-193.24999999999989
 21
171.5
 31
0.0
 12
-190.74999999999989
 22
170.0
 32
0.0
 13
-190.74999999999989
 23
170.0
 33
0.0
210
0.0
220
0.0
230
-1.0
  0
SOLID
  5
D37
  8
MITTA
  6
CONTINUOUS
 10
-191.5833333333332
 20
171.5
 30
0.0
 11
-190.74999999999989
 21
170.0
 31
0.0
 12
-190.74999999999989
 22
173.0
 32
0.0
 13
-190.74999999999989
 23
173.0
 33
0.0
210
0.0
220
0.0
230
-1.0
  0
SOLID
  5
D38
  8
MITTA
  6
CONTINUOUS
 10
-191.5833333333332
 20
171.5
 30
0.0
 11
-190.74999999999989
 21
173.0
 31
0.0
 12
-193.24999999999989
 22
171.5
 32
0.0
 13
-193.24999999999989
 23
171.5
 33
0.0
210
0.0
220
0.0
230
-1.0
  0
ENDBLK
  5
D3A
  8
0
  0
BLOCK
  8
0
  2
*U31
 70
     1
 10
0.0
 20
0.0
 30
0.0
  3
*U31
  1

  0
SOLID
  5
D8B
  8
MITTA
  6
CONTINUOUS
 10
-191.5833333333332
 20
125.5
 30
0.0
 11
-193.24999999999989
 21
125.5
 31
0.0
 12
-190.74999999999989
 22
124.0
 32
0.0
 13
-190.74999999999989
 23
124.0
 33
0.0
210
0.0
220
0.0
230
-1.0
  0
SOLID
  5
D8C
  8
MITTA
  6
CONTINUOUS
 10
-191.5833333333332
 20
125.5
 30
0.0
 11
-190.74999999999989
 21
124.0
 31
0.0
 12
-190.74999999999989
 22
127.0
 32
0.0
 13
-190.74999999999989
 23
127.0
 33
0.0
210
0.0
220
0.0
230
-1.0
  0
SOLID
  5
D8D
  8
MITTA
  6
CONTINUOUS
 10
-191.5833333333332
 20
125.5
 30
0.0
 11
-190.74999999999989
 21
127.0
 31
0.0
 12
-193.24999999999989
 22
125.5
 32
0.0
 13
-193.24999999999989
 23
125.5
 33
0.0
210
0.0
220
0.0
230
-1.0
  0
ENDBLK
  5
D8F
  8
0
  0
BLOCK
  8
0
  2
*U32
 70
     1
 10
0.0
 20
0.0
 30
0.0
  3
*U32
  1

  0
SOLID
  5
D91
  8
MITTA
  6
CONTINUOUS
 10
-191.5833333333332
 20
137.5
 30
0.0
 11
-193.24999999999989
 21
137.5
 31
0.0
 12
-190.74999999999989
 22
136.0
 32
0.0
 13
-190.74999999999989
 23
136.0
 33
0.0
210
0.0
220
0.0
230
-1.0
  0
SOLID
  5
D92
  8
MITTA
  6
CONTINUOUS
 10
-191.5833333333332
 20
137.5
 30
0.0
 11
-190.74999999999989
 21
136.0
 31
0.0
 12
-190.74999999999989
 22
139.0
 32
0.0
 13
-190.74999999999989
 23
139.0
 33
0.0
210
0.0
220
0.0
230
-1.0
  0
SOLID
  5
D93
  8
MITTA
  6
CONTINUOUS
 10
-191.5833333333332
 20
137.5
 30
0.0
 11
-190.74999999999989
 21
139.0
 31
0.0
 12
-193.24999999999989
 22
137.5
 32
0.0
 13
-193.24999999999989
 23
137.5
 33
0.0
210
0.0
220
0.0
230
-1.0
  0
ENDBLK
  5
D95
  8
0
  0
BLOCK
  8
0
  2
*U33
 70
     1
 10
0.0
 20
0.0
 30
0.0
  3
*U33
  1

  0
SOLID
  5
D97
  8
MITTA
  6
CONTINUOUS
 10
-191.5833333333332
 20
153.5
 30
0.0
 11
-193.24999999999989
 21
153.5
 31
0.0
 12
-190.74999999999989
 22
152.0
 32
0.0
 13
-190.74999999999989
 23
152.0
 33
0.0
210
0.0
220
0.0
230
-1.0
  0
SOLID
  5
D98
  8
MITTA
  6
CONTINUOUS
 10
-191.5833333333332
 20
153.5
 30
0.0
 11
-190.74999999999989
 21
152.0
 31
0.0
 12
-190.74999999999989
 22
155.0
 32
0.0
 13
-190.74999999999989
 23
155.0
 33
0.0
210
0.0
220
0.0
230
-1.0
  0
SOLID
  5
D99
  8
MITTA
  6
CONTINUOUS
 10
-191.5833333333332
 20
153.5
 30
0.0
 11
-190.74999999999989
 21
155.0
 31
0.0
 12
-193.24999999999989
 22
153.5
 32
0.0
 13
-193.24999999999989
 23
153.5
 33
0.0
210
0.0
220
0.0
230
-1.0
  0
ENDBLK
  5
D9B
  8
0
  0
BLOCK
  8
0
  2
*U34
 70
     1
 10
0.0
 20
0.0
 30
0.0
  3
*U34
  1

  0
SOLID
  5
DA3
  8
MITTA
  6
CONTINUOUS
 10
191.4166666666666
 20
101.5
 30
0.0
 11
189.75
 21
101.5
 31
0.0
 12
192.25
 22
100.0
 32
0.0
 13
192.25
 23
100.0
 33
0.0
210
0.0
220
0.0
230
1.0
  0
SOLID
  5
DA4
  8
MITTA
  6
CONTINUOUS
 10
191.4166666666666
 20
101.5
 30
0.0
 11
192.25
 21
100.0
 31
0.0
 12
192.25
 22
103.0
 32
0.0
 13
192.25
 23
103.0
 33
0.0
210
0.0
220
0.0
230
1.0
  0
SOLID
  5
DA5
  8
MITTA
  6
CONTINUOUS
 10
191.4166666666666
 20
101.5
 30
0.0
 11
192.25
 21
103.0
 31
0.0
 12
189.75
 22
101.5
 32
0.0
 13
189.75
 23
101.5
 33
0.0
210
0.0
220
0.0
230
1.0
  0
ENDBLK
  5
DA7
  8
0
  0
BLOCK
  8
0
  2
*U35
 70
     1
 10
0.0
 20
0.0
 30
0.0
  3
*U35
  1

  0
SOLID
  5
DAF
  8
MITTA
  6
CONTINUOUS
 10
191.4166666666666
 20
89.500000000000014
 30
0.0
 11
189.75
 21
89.500000000000014
 31
0.0
 12
192.25
 22
88.000000000000014
 32
0.0
 13
192.25
 23
88.000000000000014
 33
0.0
210
0.0
220
0.0
230
1.0
  0
SOLID
  5
DB0
  8
MITTA
  6
CONTINUOUS
 10
191.4166666666666
 20
89.500000000000014
 30
0.0
 11
192.25
 21
88.000000000000014
 31
0.0
 12
192.25
 22
91.000000000000028
 32
0.0
 13
192.25
 23
91.000000000000028
 33
0.0
210
0.0
220
0.0
230
1.0
  0
SOLID
  5
DB1
  8
MITTA
  6
CONTINUOUS
 10
191.4166666666666
 20
89.500000000000014
 30
0.0
 11
192.25
 21
91.000000000000028
 31
0.0
 12
189.75
 22
89.500000000000014
 32
0.0
 13
189.75
 23
89.500000000000014
 33
0.0
210
0.0
220
0.0
230
1.0
  0
ENDBLK
  5
DB3
  8
0
  0
BLOCK
  8
0
  2
*U36
 70
     1
 10
0.0
 20
0.0
 30
0.0
  3
*U36
  1

  0
SOLID
  5
DBB
  8
MITTA
  6
CONTINUOUS
 10
191.4166666666666
 20
77.500000000000028
 30
0.0
 11
189.75
 21
77.500000000000028
 31
0.0
 12
192.25
 22
76.000000000000028
 32
0.0
 13
192.25
 23
76.000000000000028
 33
0.0
210
0.0
220
0.0
230
1.0
  0
SOLID
  5
DBC
  8
MITTA
  6
CONTINUOUS
 10
191.4166666666666
 20
77.500000000000028
 30
0.0
 11
192.25
 21
76.000000000000028
 31
0.0
 12
192.25
 22
79.000000000000028
 32
0.0
 13
192.25
 23
79.000000000000028
 33
0.0
210
0.0
220
0.0
230
1.0
  0
SOLID
  5
DBD
  8
MITTA
  6
CONTINUOUS
 10
191.4166666666666
 20
77.500000000000028
 30
0.0
 11
192.25
 21
79.000000000000028
 31
0.0
 12
189.75
 22
77.500000000000028
 32
0.0
 13
189.75
 23
77.500000000000028
 33
0.0
210
0.0
220
0.0
230
1.0
  0
ENDBLK
  5
DBF
  8
0
  0
BLOCK
  8
0
  2
*U37
 70
     1
 10
0.0
 20
0.0
 30
0.0
  3
*U37
  1

  0
SOLID
  5
DC7
  8
MITTA
  6
CONTINUOUS
 10
191.4166666666666
 20
65.500000000000028
 30
0.0
 11
189.75
 21
65.500000000000028
 31
0.0
 12
192.25
 22
64.000000000000028
 32
0.0
 13
192.25
 23
64.000000000000028
 33
0.0
210
0.0
220
0.0
230
1.0
  0
SOLID
  5
DC8
  8
MITTA
  6
CONTINUOUS
 10
191.4166666666666
 20
65.500000000000028
 30
0.0
 11
192.25
 21
64.000000000000028
 31
0.0
 12
192.25
 22
67.000000000000014
 32
0.0
 13
192.25
 23
67.000000000000014
 33
0.0
210
0.0
220
0.0
230
1.0
  0
SOLID
  5
DC9
  8
MITTA
  6
CONTINUOUS
 10
191.4166666666666
 20
65.500000000000028
 30
0.0
 11
192.25
 21
67.000000000000014
 31
0.0
 12
189.75
 22
65.500000000000028
 32
0.0
 13
189.75
 23
65.500000000000028
 33
0.0
210
0.0
220
0.0
230
1.0
  0
ENDBLK
  5
DCB
  8
0
  0
ENDSEC
  0
SECTION
  2
ENTITIES
  0
INSERT
  5
223
  8
0
  2
ABB3T
 10
0.0
 20
0.0
 30
0.0
  0
LINE
  5
446
  8
MITTA
 10
180.50000090626591
 20
225.52441773349841
 30
0.0
 11
161.9749283546717
 21
225.5244177334985
 31
0.0
  0
LINE
  5
6FC
  8
PISTKATK
 10
248.9749283546717
 20
53.788371628993531
 30
0.0
 11
248.9749283546717
 21
242.7883716289935
 31
0.0
  0
LINE
  5
6FD
  8
PISTKATK
 10
248.9749283546717
 20
242.7883716289935
 30
0.0
 11
161.9749283546717
 21
242.7883716289935
 31
0.0
  0
TEXT
  5
72D
  8
MITTA
 10
194.38655302960021
 20
224.92010896219031
 30
0.0
 40
2.5
  1
RTD1_6_AI1
 41
0.9
  7
T25
  0
TEXT
  5
7D5
  8
MITTA
 10
163.0
 20
232.70503854032569
 30
0.0
 40
2.5
  1
1
 41
0.9
  7
T25
  0
TEXT
  5
7D6
  8
MITTA
 10
163.0
 20
228.70503854032569
 30
0.0
 40
2.5
  1
2
 41
0.9
  7
T25
  0
TEXT
  5
7D7
  8
MITTA
 10
163.0
 20
224.70503854032569
 30
0.0
 40
2.5
  1
3
 41
0.9
  7
T25
  0
TEXT
  5
7DF
  8
MITTA
 10
163.1000329835924
 20
236.14095791930711
 30
0.0
 40
2.5
  1
X6.1
 41
0.9
  7
T25
  0
POLYLINE
  5
7E7
  8
MITTA
 66
     1
 10
0.0
 20
0.0
 30
0.0
  0
VERTEX
  5
CA0
  8
MITTA
 10
180.49999999999989
 20
223.49999999999989
 30
0.0
  0
VERTEX
  5
CA1
  8
MITTA
 10
180.49999999999989
 20
231.49999999999989
 30
0.0
  0
VERTEX
  5
CA2
  8
MITTA
 10
188.49999999999989
 20
231.49999999999989
 30
0.0
  0
VERTEX
  5
CA3
  8
MITTA
 10
188.49999999999989
 20
223.49999999999989
 30
0.0
  0
VERTEX
  5
CA4
  8
MITTA
 10
180.49999999999989
 20
223.49999999999989
 30
0.0
  0
SEQEND
  5
CA5
  8
MITTA
  0
INSERT
  5
7FC
  8
MITTA
  6
CONTINUOUS
  2
*U26
 10
0.0
 20
0.0
 30
0.0
1001
ACAD
1002
{
1000
R14_HATCH_DATA
1000
7FC
1011
1.0
1021
0.0
1031
0.0
1021
0.0
1031
0.0
1011
0.0
1021
0.0
1031
0.0
1021
1.0
1031
0.0
1011
0.0
1021
0.0
1031
0.0
1021
0.0
1031
1.0
1040
0.0
1010
0.0
1020
0.0
1030
1.0
1000
SOLID
1070
     1
1070
     0
1071
        1
1071
        1
1071
        3
1070
     1
1040
193.24999999999989
1040
227.5
1040
190.74999999999989
1040
226.0
1070
     1
1040
190.74999999999989
1040
226.0
1040
190.74999999999989
1040
229.0
1070
     1
1040
190.74999999999989
1040
229.0
1040
193.24999999999989
1040
227.5
1071
        0
1070
     0
1070
     1
1071
        1
1040
435.25
1040
341.0
1040
0.0
1002
}
  0
LINE
  5
7FD
  8
MITTA
 10
188.49999999999989
 20
227.49999999999989
 30
0.0
 11
193.0
 21
227.49999999999989
 31
0.0
  0
LINE
  5
7FE
  8
MITTA
 10
180.50000090626591
 20
229.52441773349841
 30
0.0
 11
161.9749283546717
 21
229.5244177334985
 31
0.0
  0
LINE
  5
823
  8
PISTKATK
 10
161.9749283546717
 20
53.788371628993531
 30
0.0
 11
161.9749283546717
 21
242.7883716289935
 31
0.0
  0
LINE
  5
824
  8
PISTKATK
 10
248.9749283546717
 20
53.788371628993538
 30
0.0
 11
161.9749283546717
 21
53.788371628993531
 31
0.0
  0
LINE
  5
827
  8
KATKO07
 10
162.0
 20
233.49999999999989
 30
0.0
 11
122.0
 21
233.49999999999989
 31
0.0
  0
LINE
  5
828
  8
KATKO07
 10
162.0
 20
229.49999999999989
 30
0.0
 11
122.0
 21
229.49999999999989
 31
0.0
  0
TEXT
  5
846
  8
TEXT25
 10
162.0
 20
244.0
 30
0.0
 40
2.5
  1
RTD1, ANALOGUE IN/OUT MODULE
 41
0.9
  7
T25
  0
LINE
  5
861
  8
TEXT25
 10
286.9999995096581
 20
227.50000002914999
 30
0.0
 11
345.4999995096581
 21
227.50000002914999
 31
0.0
  0
LINE
  5
862
  8
TEXT25
 10
286.9999995096581
 20
232.5000000291501
 30
0.0
 11
345.4999995096581
 21
232.5000000291501
 31
0.0
  0
LINE
  5
863
  8
TEXT25
 10
302.99999950965821
 20
237.5000000291501
 30
0.0
 11
345.4999995096581
 21
237.5000000291501
 31
0.0
  0
LINE
  5
864
  8
TEXT25
 10
286.9999995096581
 20
242.50000002914999
 30
0.0
 11
345.4999995096581
 21
242.50000002914999
 31
0.0
  0
TEXT
  5
865
  8
TEXT25
 10
320.26210805546037
 20
227.476731793281
 30
0.0
 40
2.5
  1
X6.1 and X6.2
 41
0.9
  7
T25
  0
TEXT
  5
866
  8
TEXT25
 10
326.26210805546037
 20
231.976731793281
 30
0.0
 40
2.5
  1
REAR
 41
0.9
  7
T25
  0
LINE
  5
868
  8
TEXT25
 10
302.99999950965821
 20
227.50000002914999
 30
0.0
 11
302.99999950965821
 21
242.50000002914999
 31
0.0
  0
TEXT
  5
869
  8
TEXT25
 10
317.26210805546037
 20
236.976731793281
 30
0.0
 40
2.5
  1
POSITION
 41
0.9
  7
T25
  0
TEXT
  5
86A
  8
TEXT25
 10
291.76210805546037
 20
227.429112745662
 30
0.0
 40
2.5
  1
RTD1
 41
0.9
  7
T25
  0
TEXT
  5
86B
  8
TEXT25
 10
288.76210805546037
 20
231.976731793281
 30
0.0
 40
2.5
  1
MODULE
 41
0.9
  7
T25
  0
LINE
  5
86C
  8
TEXT25
 10
317.4999995096581
 20
227.50000002914999
 30
0.0
 11
317.49999950965821
 21
237.5000000291501
 31
0.0
  0
TEXT
  5
86D
  8
TEXT25
 10
308.76210805546037
 20
227.476731793281
 30
0.0
 40
2.5
  1
S6
 41
0.9
  7
T25
  0
TEXT
  5
86E
  8
TEXT25
 10
305.26210805546037
 20
231.976731793281
 30
0.0
 40
2.5
  1
FRONT
 41
0.9
  7
T25
  0
LINE
  5
86F
  8
TEXT25
 10
345.4999995096581
 20
227.50000002914999
 30
0.0
 11
345.4999995096581
 21
242.50000002914999
 31
0.0
  0
POLYLINE
  5
874
  8
MITTA
 66
     1
 10
0.0
 20
0.0
 30
0.0
 70
     1
 40
0.5
 41
0.5
  0
VERTEX
  5
CAC
  8
MITTA
 10
175.75
 20
225.49999999999989
 30
0.0
 42
1.0
  0
VERTEX
  5
CAD
  8
MITTA
 10
176.25
 20
225.49999999999989
 30
0.0
 42
1.0
  0
SEQEND
  5
CAE
  8
MITTA
  0
LINE
  5
983
  8
TEXT25
 10
286.9999995096581
 20
227.50000002914999
 30
0.0
 11
286.9999995096581
 21
242.50000002914999
 31
0.0
  0
POLYLINE
  5
A4F
  8
MITTA
 66
     1
 10
0.0
 20
0.0
 30
0.0
 70
     1
  0
VERTEX
  5
CAF
  8
MITTA
 10
181.49999999999989
 20
224.0
 30
0.0
  0
VERTEX
  5
CB0
  8
MITTA
 10
181.49999999999989
 20
231.0
 30
0.0
  0
VERTEX
  5
CB1
  8
MITTA
 10
188.0
 20
227.49999999999989
 30
0.0
  0
SEQEND
  5
CB2
  8
MITTA
  0
TEXT
  5
A53
  8
MITTA
 10
184.50000009406151
 20
222.99999973599381
 30
0.0
 40
1.5
  1
DIFF
 41
0.9
  7
T25
  0
POLYLINE
  5
A54
  8
MITTA
 66
     1
 10
0.0
 20
0.0
 30
0.0
  0
VERTEX
  5
CB3
  8
MITTA
 10
167.0
 20
232.5
 30
0.0
  0
VERTEX
  5
CB4
  8
MITTA
 10
167.0
 20
234.5
 30
0.0
  0
VERTEX
  5
CB5
  8
MITTA
 10
172.0
 20
234.5
 30
0.0
  0
VERTEX
  5
CB6
  8
MITTA
 10
172.0
 20
232.5
 30
0.0
  0
VERTEX
  5
CB7
  8
MITTA
 10
167.0
 20
232.5
 30
0.0
  0
SEQEND
  5
CB8
  8
MITTA
  0
LINE
  5
A55
  8
MITTA
 10
162.0
 20
233.49999999999989
 30
0.0
 11
167.0
 21
233.49999999999989
 31
0.0
  0
POLYLINE
  5
A56
  8
MITTA
 66
     1
 10
0.0
 20
0.0
 30
0.0
  0
VERTEX
  5
CB9
  8
MITTA
 10
172.0
 20
233.49999999999989
 30
0.0
  0
VERTEX
  5
CBA
  8
MITTA
 10
176.0
 20
233.49999999999989
 30
0.0
  0
VERTEX
  5
CBB
  8
MITTA
 10
176.0
 20
225.49999999999989
 30
0.0
  0
SEQEND
  5
CBC
  8
MITTA
  0
LINE
  5
A57
  8
MITTA
 10
162.0
 20
221.49999999999989
 30
0.0
 11
167.0
 21
221.49999999999989
 31
0.0
  0
POLYLINE
  5
A58
  8
MITTA
 66
     1
 10
0.0
 20
0.0
 30
0.0
  0
VERTEX
  5
CBD
  8
MITTA
 10
162.0
 20
221.49999999999989
 30
0.0
  0
VERTEX
  5
CBE
  8
MITTA
 10
167.0
 20
221.49999999999989
 30
0.0
  0
VERTEX
  5
CBF
  8
MITTA
 10
167.0
 20
220.0
 30
0.0
  0
VERTEX
  5
CC0
  8
MITTA
 10
167.0
 20
223.0
 30
0.0
  0
SEQEND
  5
CC1
  8
MITTA
  0
TEXT
  5
A59
  8
MITTA
 10
163.0
 20
220.70503854032569
 30
0.0
 40
2.5
  1
4
 41
0.9
  7
T25
  0
POLYLINE
  5
A5A
  8
MITTA
 66
     1
 10
0.0
 20
0.0
 30
0.0
  0
VERTEX
  5
CC2
  8
MITTA
 10
180.49999999999989
 20
211.5
 30
0.0
  0
VERTEX
  5
CC3
  8
MITTA
 10
180.49999999999989
 20
219.49999999999989
 30
0.0
  0
VERTEX
  5
CC4
  8
MITTA
 10
188.49999999999989
 20
219.49999999999989
 30
0.0
  0
VERTEX
  5
CC5
  8
MITTA
 10
188.49999999999989
 20
211.5
 30
0.0
  0
VERTEX
  5
CC6
  8
MITTA
 10
180.49999999999989
 20
211.5
 30
0.0
  0
SEQEND
  5
CC7
  8
MITTA
  0
TEXT
  5
A5B
  8
MITTA
 10
184.50000009406151
 20
210.9999997359937
 30
0.0
 40
1.5
  1
DIFF
 41
0.9
  7
T25
  0
POLYLINE
  5
A5C
  8
MITTA
 66
     1
 10
0.0
 20
0.0
 30
0.0
 70
     1
  0
VERTEX
  5
CC8
  8
MITTA
 10
181.49999999999989
 20
212.0
 30
0.0
  0
VERTEX
  5
CC9
  8
MITTA
 10
181.49999999999989
 20
219.0
 30
0.0
  0
VERTEX
  5
CCA
  8
MITTA
 10
188.0
 20
215.5
 30
0.0
  0
SEQEND
  5
CCB
  8
MITTA
  0
LINE
  5
A5D
  8
MITTA
 10
180.50000090626591
 20
217.52441773349841
 30
0.0
 11
161.9749283546717
 21
217.5244177334985
 31
0.0
  0
LINE
  5
A5E
  8
MITTA
 10
180.50000090626591
 20
213.52441773349841
 30
0.0
 11
161.9749283546717
 21
213.5244177334985
 31
0.0
  0
TEXT
  5
A5F
  8
MITTA
 10
194.38655302960021
 20
212.92010896219031
 30
0.0
 40
2.5
  1
RTD1_6_AI2
 41
0.9
  7
T25
  0
LINE
  5
A60
  8
MITTA
 10
188.49999999999989
 20
215.5
 30
0.0
 11
193.0
 21
215.5
 31
0.0
  0
INSERT
  5
A61
  8
MITTA
  6
CONTINUOUS
  2
*U27
 10
0.0
 20
0.0
 30
0.0
1001
ACAD
1002
{
1000
R14_HATCH_DATA
1000
A61
1011
1.0
1021
0.0
1031
0.0
1021
0.0
1031
0.0
1011
0.0
1021
0.0
1031
0.0
1021
1.0
1031
0.0
1011
0.0
1021
0.0
1031
0.0
1021
0.0
1031
1.0
1040
0.0
1010
0.0
1020
0.0
1030
1.0
1000
SOLID
1070
     1
1070
     0
1071
        1
1071
        1
1071
        3
1070
     1
1040
193.24999999999989
1040
215.5
1040
190.74999999999989
1040
214.0
1070
     1
1040
190.74999999999989
1040
214.0
1040
190.74999999999989
1040
217.0
1070
     1
1040
190.74999999999989
1040
217.0
1040
193.24999999999989
1040
215.5
1071
        0
1070
     0
1070
     1
1071
        1
1040
435.25
1040
329.0
1040
0.0
1002
}
  0
POLYLINE
  5
A62
  8
MITTA
 66
     1
 10
0.0
 20
0.0
 30
0.0
  0
VERTEX
  5
CD2
  8
MITTA
 10
172.0
 20
209.5
 30
0.0
  0
VERTEX
  5
CD3
  8
MITTA
 10
176.0
 20
209.5
 30
0.0
  0
VERTEX
  5
CD4
  8
MITTA
 10
176.0
 20
217.5
 30
0.0
  0
SEQEND
  5
CD5
  8
MITTA
  0
POLYLINE
  5
A63
  8
MITTA
 66
     1
 10
0.0
 20
0.0
 30
0.0
  0
VERTEX
  5
CD6
  8
MITTA
 10
167.0
 20
210.49999999999989
 30
0.0
  0
VERTEX
  5
CD7
  8
MITTA
 10
167.0
 20
208.49999999999989
 30
0.0
  0
VERTEX
  5
CD8
  8
MITTA
 10
172.0
 20
208.49999999999989
 30
0.0
  0
VERTEX
  5
CD9
  8
MITTA
 10
172.0
 20
210.49999999999989
 30
0.0
  0
VERTEX
  5
CDA
  8
MITTA
 10
167.0
 20
210.49999999999989
 30
0.0
  0
SEQEND
  5
CDB
  8
MITTA
  0
LINE
  5
A64
  8
MITTA
 10
162.0
 20
209.5
 30
0.0
 11
167.0
 21
209.5
 31
0.0
  0
POLYLINE
  5
A65
  8
MITTA
 66
     1
 10
0.0
 20
0.0
 30
0.0
 70
     1
 40
0.5
 41
0.5
  0
VERTEX
  5
CDC
  8
MITTA
 10
175.75
 20
217.5
 30
0.0
 42
-1.0
  0
VERTEX
  5
CDD
  8
MITTA
 10
176.25
 20
217.5
 30
0.0
 42
-1.0
  0
SEQEND
  5
CDE
  8
MITTA
  0
POLYLINE
  5
A66
  8
MITTA
 66
     1
 10
0.0
 20
0.0
 30
0.0
  0
VERTEX
  5
CDF
  8
MITTA
 10
172.0
 20
205.5
 30
0.0
  0
VERTEX
  5
CE0
  8
MITTA
 10
176.0
 20
205.5
 30
0.0
  0
VERTEX
  5
CE1
  8
MITTA
 10
176.0
 20
197.5
 30
0.0
  0
SEQEND
  5
CE2
  8
MITTA
  0
POLYLINE
  5
A67
  8
MITTA
 66
     1
 10
0.0
 20
0.0
 30
0.0
  0
VERTEX
  5
CE3
  8
MITTA
 10
180.49999999999989
 20
195.5
 30
0.0
  0
VERTEX
  5
CE4
  8
MITTA
 10
180.49999999999989
 20
203.5
 30
0.0
  0
VERTEX
  5
CE5
  8
MITTA
 10
188.49999999999989
 20
203.5
 30
0.0
  0
VERTEX
  5
CE6
  8
MITTA
 10
188.49999999999989
 20
195.5
 30
0.0
  0
VERTEX
  5
CE7
  8
MITTA
 10
180.49999999999989
 20
195.5
 30
0.0
  0
SEQEND
  5
CE8
  8
MITTA
  0
POLYLINE
  5
A68
  8
MITTA
 66
     1
 10
0.0
 20
0.0
 30
0.0
  0
VERTEX
  5
CE9
  8
MITTA
 10
180.49999999999989
 20
183.49999999999989
 30
0.0
  0
VERTEX
  5
CEA
  8
MITTA
 10
180.49999999999989
 20
191.5
 30
0.0
  0
VERTEX
  5
CEB
  8
MITTA
 10
188.49999999999989
 20
191.5
 30
0.0
  0
VERTEX
  5
CEC
  8
MITTA
 10
188.49999999999989
 20
183.49999999999989
 30
0.0
  0
VERTEX
  5
CED
  8
MITTA
 10
180.49999999999989
 20
183.49999999999989
 30
0.0
  0
SEQEND
  5
CEE
  8
MITTA
  0
TEXT
  5
A69
  8
MITTA
 10
184.50000009406151
 20
182.99999973599381
 30
0.0
 40
1.5
  1
DIFF
 41
0.9
  7
T25
  0
POLYLINE
  5
A6A
  8
MITTA
 66
     1
 10
0.0
 20
0.0
 30
0.0
 70
     1
  0
VERTEX
  5
CEF
  8
MITTA
 10
181.49999999999989
 20
184.0
 30
0.0
  0
VERTEX
  5
CF0
  8
MITTA
 10
181.49999999999989
 20
191.0
 30
0.0
  0
VERTEX
  5
CF1
  8
MITTA
 10
188.0
 20
187.5
 30
0.0
  0
SEQEND
  5
CF2
  8
MITTA
  0
TEXT
  5
A6B
  8
MITTA
 10
184.50000009406151
 20
194.99999973599381
 30
0.0
 40
1.5
  1
DIFF
 41
0.9
  7
T25
  0
POLYLINE
  5
A6C
  8
MITTA
 66
     1
 10
0.0
 20
0.0
 30
0.0
 70
     1
  0
VERTEX
  5
CF3
  8
MITTA
 10
181.49999999999989
 20
196.0
 30
0.0
  0
VERTEX
  5
CF4
  8
MITTA
 10
181.49999999999989
 20
203.0
 30
0.0
  0
VERTEX
  5
CF5
  8
MITTA
 10
188.0
 20
199.5
 30
0.0
  0
SEQEND
  5
CF6
  8
MITTA
  0
POLYLINE
  5
A6D
  8
MITTA
 66
     1
 10
0.0
 20
0.0
 30
0.0
  0
VERTEX
  5
CF7
  8
MITTA
 10
167.0
 20
182.5
 30
0.0
  0
VERTEX
  5
CF8
  8
MITTA
 10
167.0
 20
180.49999999999989
 30
0.0
  0
VERTEX
  5
CF9
  8
MITTA
 10
172.0
 20
180.49999999999989
 30
0.0
  0
VERTEX
  5
CFA
  8
MITTA
 10
172.0
 20
182.5
 30
0.0
  0
VERTEX
  5
CFB
  8
MITTA
 10
167.0
 20
182.5
 30
0.0
  0
SEQEND
  5
CFC
  8
MITTA
  0
LINE
  5
A6E
  8
MITTA
 10
180.50000090626591
 20
189.52441773349841
 30
0.0
 11
161.9749283546717
 21
189.5244177334985
 31
0.0
  0
LINE
  5
A6F
  8
MITTA
 10
180.50000090626591
 20
185.52441773349841
 30
0.0
 11
161.9749283546717
 21
185.52441773349841
 31
0.0
  0
LINE
  5
A70
  8
MITTA
 10
180.50000090626591
 20
201.52441773349841
 30
0.0
 11
161.9749283546717
 21
201.52441773349841
 31
0.0
  0
LINE
  5
A71
  8
MITTA
 10
180.50000090626591
 20
197.52441773349841
 30
0.0
 11
161.9749283546717
 21
197.52441773349841
 31
0.0
  0
POLYLINE
  5
A72
  8
MITTA
 66
     1
 10
0.0
 20
0.0
 30
0.0
  0
VERTEX
  5
CFD
  8
MITTA
 10
172.0
 20
181.49999999999989
 30
0.0
  0
VERTEX
  5
CFE
  8
MITTA
 10
176.0
 20
181.49999999999989
 30
0.0
  0
VERTEX
  5
CFF
  8
MITTA
 10
176.0
 20
189.49999999999989
 30
0.0
  0
SEQEND
  5
D00
  8
MITTA
  0
POLYLINE
  5
A73
  8
MITTA
 66
     1
 10
0.0
 20
0.0
 30
0.0
 70
     1
 40
0.5
 41
0.5
  0
VERTEX
  5
D01
  8
MITTA
 10
175.75
 20
189.49999999999989
 30
0.0
 42
-1.0
  0
VERTEX
  5
D02
  8
MITTA
 10
176.25
 20
189.49999999999989
 30
0.0
 42
-1.0
  0
SEQEND
  5
D03
  8
MITTA
  0
POLYLINE
  5
A74
  8
MITTA
 66
     1
 10
0.0
 20
0.0
 30
0.0
 70
     1
 40
0.5
 41
0.5
  0
VERTEX
  5
D04
  8
MITTA
 10
175.75
 20
197.5
 30
0.0
 42
1.0
  0
VERTEX
  5
D05
  8
MITTA
 10
176.25
 20
197.5
 30
0.0
 42
1.0
  0
SEQEND
  5
D06
  8
MITTA
  0
TEXT
  5
A75
  8
MITTA
 10
194.38655302960021
 20
184.92010896219031
 30
0.0
 40
2.5
  1
RTD1_6_AI4
 41
0.9
  7
T25
  0
TEXT
  5
A76
  8
MITTA
 10
194.38655302960021
 20
196.9201089621904
 30
0.0
 40
2.5
  1
RTD1_6_AI3
 41
0.9
  7
T25
  0
LINE
  5
A77
  8
MITTA
 10
188.49999999999989
 20
187.5
 30
0.0
 11
193.0
 21
187.5
 31
0.0
  0
INSERT
  5
A78
  8
MITTA
  6
CONTINUOUS
  2
*U28
 10
0.0
 20
0.0
 30
0.0
1001
ACAD
1002
{
1000
R14_HATCH_DATA
1000
A78
1011
1.0
1021
0.0
1031
0.0
1021
0.0
1031
0.0
1011
0.0
1021
0.0
1031
0.0
1021
1.0
1031
0.0
1011
0.0
1021
0.0
1031
0.0
1021
0.0
1031
1.0
1040
0.0
1010
0.0
1020
0.0
1030
1.0
1000
SOLID
1070
     1
1070
     0
1071
        1
1071
        1
1071
        3
1070
     1
1040
193.24999999999989
1040
187.5
1040
190.74999999999989
1040
186.0
1070
     1
1040
190.74999999999989
1040
186.0
1040
190.74999999999989
1040
189.0
1070
     1
1040
190.74999999999989
1040
189.0
1040
193.24999999999989
1040
187.5
1071
        0
1070
     0
1070
     1
1071
        1
1040
435.25
1040
301.0
1040
0.0
1002
}
  0
LINE
  5
A79
  8
MITTA
 10
188.49999999999989
 20
199.5
 30
0.0
 11
193.0
 21
199.5
 31
0.0
  0
INSERT
  5
A7A
  8
MITTA
  6
CONTINUOUS
  2
*U29
 10
0.0
 20
0.0
 30
0.0
1001
ACAD
1002
{
1000
R14_HATCH_DATA
1000
A7A
1011
1.0
1021
0.0
1031
0.0
1021
0.0
1031
0.0
1011
0.0
1021
0.0
1031
0.0
1021
1.0
1031
0.0
1011
0.0
1021
0.0
1031
0.0
1021
0.0
1031
1.0
1040
0.0
1010
0.0
1020
0.0
1030
1.0
1000
SOLID
1070
     1
1070
     0
1071
        1
1071
        1
1071
        3
1070
     1
1040
193.24999999999989
1040
199.5
1040
190.74999999999989
1040
198.0
1070
     1
1040
190.74999999999989
1040
198.0
1040
190.74999999999989
1040
201.0
1070
     1
1040
190.74999999999989
1040
201.0
1040
193.24999999999989
1040
199.5
1071
        0
1070
     0
1070
     1
1071
        1
1040
435.25
1040
313.0
1040
0.0
1002
}
  0
POLYLINE
  5
A7B
  8
MITTA
 66
     1
 10
0.0
 20
0.0
 30
0.0
  0
VERTEX
  5
D13
  8
MITTA
 10
167.0
 20
204.49999999999989
 30
0.0
  0
VERTEX
  5
D14
  8
MITTA
 10
167.0
 20
206.49999999999989
 30
0.0
  0
VERTEX
  5
D15
  8
MITTA
 10
172.0
 20
206.49999999999989
 30
0.0
  0
VERTEX
  5
D16
  8
MITTA
 10
172.0
 20
204.49999999999989
 30
0.0
  0
VERTEX
  5
D17
  8
MITTA
 10
167.0
 20
204.49999999999989
 30
0.0
  0
SEQEND
  5
D18
  8
MITTA
  0
LINE
  5
A7C
  8
MITTA
 10
162.0
 20
181.49999999999989
 30
0.0
 11
167.0
 21
181.49999999999989
 31
0.0
  0
LINE
  5
A7D
  8
MITTA
 10
162.0
 20
205.5
 30
0.0
 11
167.0
 21
205.5
 31
0.0
  0
POLYLINE
  5
A81
  8
MITTA
 66
     1
 10
0.0
 20
0.0
 30
0.0
  0
VERTEX
  5
D19
  8
MITTA
 10
162.0
 20
193.5
 30
0.0
  0
VERTEX
  5
D1A
  8
MITTA
 10
167.0
 20
193.5
 30
0.0
  0
VERTEX
  5
D1B
  8
MITTA
 10
167.0
 20
192.0
 30
0.0
  0
VERTEX
  5
D1C
  8
MITTA
 10
167.0
 20
195.0
 30
0.0
  0
SEQEND
  5
D1D
  8
MITTA
  0
TEXT
  5
A82
  8
MITTA
 10
163.0
 20
216.70503854032569
 30
0.0
 40
2.5
  1
5
 41
0.9
  7
T25
  0
TEXT
  5
A83
  8
MITTA
 10
163.0
 20
212.70503854032569
 30
0.0
 40
2.5
  1
6
 41
0.9
  7
T25
  0
TEXT
  5
A84
  8
MITTA
 10
163.0
 20
208.70503854032569
 30
0.0
 40
2.5
  1
7
 41
0.9
  7
T25
  0
TEXT
  5
A85
  8
MITTA
 10
163.0
 20
204.70503854032569
 30
0.0
 40
2.5
  1
8
 41
0.9
  7
T25
  0
TEXT
  5
A86
  8
MITTA
 10
163.0
 20
200.70503854032569
 30
0.0
 40
2.5
  1
9
 41
0.9
  7
T25
  0
TEXT
  5
A87
  8
MITTA
 10
163.0
 20
196.70503854032569
 30
0.0
 40
2.5
  1
10
 41
0.9
  7
T25
  0
TEXT
  5
A88
  8
MITTA
 10
163.0
 20
192.70503854032569
 30
0.0
 40
2.5
  1
11
 41
0.9
  7
T25
  0
TEXT
  5
A89
  8
MITTA
 10
163.0
 20
188.70503854032569
 30
0.0
 40
2.5
  1
12
 41
0.9
  7
T25
  0
TEXT
  5
A8A
  8
MITTA
 10
163.0
 20
180.70503854032569
 30
0.0
 40
2.5
  1
14
 41
0.9
  7
T25
  0
TEXT
  5
A8B
  8
MITTA
 10
163.0
 20
176.70503854032569
 30
0.0
 40
2.5
  1
15
 41
0.9
  7
T25
  0
TEXT
  5
A8C
  8
MITTA
 10
163.0
 20
184.70503854032569
 30
0.0
 40
2.5
  1
13
 41
0.9
  7
T25
  0
POLYLINE
  5
A8D
  8
MITTA
 66
     1
 10
0.0
 20
0.0
 30
0.0
 70
     1
  0
VERTEX
  5
D1E
  8
MITTA
 10
181.49999999999989
 20
168.0
 30
0.0
  0
VERTEX
  5
D1F
  8
MITTA
 10
181.49999999999989
 20
175.0
 30
0.0
  0
VERTEX
  5
D20
  8
MITTA
 10
188.0
 20
171.5
 30
0.0
  0
SEQEND
  5
D21
  8
MITTA
  0
TEXT
  5
A8E
  8
MITTA
 10
184.50000009406151
 20
166.99999973599381
 30
0.0
 40
1.5
  1
DIFF
 41
0.9
  7
T25
  0
POLYLINE
  5
A8F
  8
MITTA
 66
     1
 10
0.0
 20
0.0
 30
0.0
  0
VERTEX
  5
D22
  8
MITTA
 10
180.49999999999989
 20
167.5
 30
0.0
  0
VERTEX
  5
D23
  8
MITTA
 10
180.49999999999989
 20
175.5
 30
0.0
  0
VERTEX
  5
D24
  8
MITTA
 10
188.49999999999989
 20
175.5
 30
0.0
  0
VERTEX
  5
D25
  8
MITTA
 10
188.49999999999989
 20
167.5
 30
0.0
  0
VERTEX
  5
D26
  8
MITTA
 10
180.49999999999989
 20
167.5
 30
0.0
  0
SEQEND
  5
D27
  8
MITTA
  0
POLYLINE
  5
A90
  8
MITTA
 66
     1
 10
0.0
 20
0.0
 30
0.0
  0
VERTEX
  5
D28
  8
MITTA
 10
167.0
 20
176.5
 30
0.0
  0
VERTEX
  5
D29
  8
MITTA
 10
167.0
 20
178.5
 30
0.0
  0
VERTEX
  5
D2A
  8
MITTA
 10
172.0
 20
178.5
 30
0.0
  0
VERTEX
  5
D2B
  8
MITTA
 10
172.0
 20
176.5
 30
0.0
  0
VERTEX
  5
D2C
  8
MITTA
 10
167.0
 20
176.5
 30
0.0
  0
SEQEND
  5
D2D
  8
MITTA
  0
LINE
  5
A91
  8
MITTA
 10
180.50000090626591
 20
169.52441773349841
 30
0.0
 11
161.9749283546717
 21
169.52441773349841
 31
0.0
  0
LINE
  5
A92
  8
MITTA
 10
180.50000090626591
 20
173.52441773349841
 30
0.0
 11
161.9749283546717
 21
173.52441773349841
 31
0.0
  0
POLYLINE
  5
A93
  8
MITTA
 66
     1
 10
0.0
 20
0.0
 30
0.0
  0
VERTEX
  5
D2E
  8
MITTA
 10
172.0
 20
177.5
 30
0.0
  0
VERTEX
  5
D2F
  8
MITTA
 10
176.0
 20
177.5
 30
0.0
  0
VERTEX
  5
D30
  8
MITTA
 10
176.0
 20
169.5
 30
0.0
  0
SEQEND
  5
D31
  8
MITTA
  0
POLYLINE
  5
A94
  8
MITTA
 66
     1
 10
0.0
 20
0.0
 30
0.0
 70
     1
 40
0.5
 41
0.5
  0
VERTEX
  5
D32
  8
MITTA
 10
175.75
 20
169.5
 30
0.0
 42
1.0
  0
VERTEX
  5
D33
  8
MITTA
 10
176.25
 20
169.5
 30
0.0
 42
1.0
  0
SEQEND
  5
D34
  8
MITTA
  0
LINE
  5
A95
  8
MITTA
 10
188.49999999999989
 20
171.5
 30
0.0
 11
193.0
 21
171.5
 31
0.0
  0
INSERT
  5
A96
  8
MITTA
  6
CONTINUOUS
  2
*U30
 10
0.0
 20
0.0
 30
0.0
1001
ACAD
1002
{
1000
R14_HATCH_DATA
1000
A96
1011
1.0
1021
0.0
1031
0.0
1021
0.0
1031
0.0
1011
0.0
1021
0.0
1031
0.0
1021
1.0
1031
0.0
1011
0.0
1021
0.0
1031
0.0
1021
0.0
1031
1.0
1040
0.0
1010
0.0
1020
0.0
1030
1.0
1000
SOLID
1070
     1
1070
     0
1071
        1
1071
        1
1071
        3
1070
     1
1040
193.24999999999989
1040
171.5
1040
190.74999999999989
1040
170.0
1070
     1
1040
190.74999999999989
1040
170.0
1040
190.74999999999989
1040
173.0
1070
     1
1040
190.74999999999989
1040
173.0
1040
193.24999999999989
1040
171.5
1071
        0
1070
     0
1070
     1
1071
        1
1040
435.25
1040
285.0
1040
0.0
1002
}
  0
LINE
  5
A97
  8
MITTA
 10
162.0
 20
177.5
 30
0.0
 11
167.0
 21
177.5
 31
0.0
  0
POLYLINE
  5
A98
  8
MITTA
 66
     1
 10
0.0
 20
0.0
 30
0.0
  0
VERTEX
  5
D3B
  8
MITTA
 10
162.0
 20
165.5
 30
0.0
  0
VERTEX
  5
D3C
  8
MITTA
 10
167.0
 20
165.5
 30
0.0
  0
VERTEX
  5
D3D
  8
MITTA
 10
167.0
 20
164.0
 30
0.0
  0
VERTEX
  5
D3E
  8
MITTA
 10
167.0
 20
167.0
 30
0.0
  0
SEQEND
  5
D3F
  8
MITTA
  0
TEXT
  5
A99
  8
MITTA
 10
163.0
 20
172.70503854032569
 30
0.0
 40
2.5
  1
16
 41
0.9
  7
T25
  0
TEXT
  5
A9A
  8
MITTA
 10
163.0
 20
168.70503854032569
 30
0.0
 40
2.5
  1
17
 41
0.9
  7
T25
  0
TEXT
  5
A9B
  8
MITTA
 10
163.0
 20
164.70503854032569
 30
0.0
 40
2.5
  1
18
 41
0.9
  7
T25
  0
POLYLINE
  5
A9C
  8
MITTA
 66
     1
 10
0.0
 20
0.0
 30
0.0
  0
VERTEX
  5
D40
  8
MITTA
 10
172.0
 20
119.5
 30
0.0
  0
VERTEX
  5
D41
  8
MITTA
 10
176.0
 20
119.5
 30
0.0
  0
VERTEX
  5
D42
  8
MITTA
 10
176.0
 20
127.5
 30
0.0
  0
SEQEND
  5
D43
  8
MITTA
  0
POLYLINE
  5
A9D
  8
MITTA
 66
     1
 10
0.0
 20
0.0
 30
0.0
 70
     1
  0
VERTEX
  5
D44
  8
MITTA
 10
181.49999999999989
 20
122.0
 30
0.0
  0
VERTEX
  5
D45
  8
MITTA
 10
181.49999999999989
 20
129.0
 30
0.0
  0
VERTEX
  5
D46
  8
MITTA
 10
188.0
 20
125.5
 30
0.0
  0
SEQEND
  5
D47
  8
MITTA
  0
TEXT
  5
A9E
  8
MITTA
 10
184.50000009406151
 20
120.9999997359938
 30
0.0
 40
1.5
  1
DIFF
 41
0.9
  7
T25
  0
POLYLINE
  5
A9F
  8
MITTA
 66
     1
 10
0.0
 20
0.0
 30
0.0
  0
VERTEX
  5
D48
  8
MITTA
 10
180.49999999999989
 20
121.5
 30
0.0
  0
VERTEX
  5
D49
  8
MITTA
 10
180.49999999999989
 20
129.49999999999989
 30
0.0
  0
VERTEX
  5
D4A
  8
MITTA
 10
188.49999999999989
 20
129.49999999999989
 30
0.0
  0
VERTEX
  5
D4B
  8
MITTA
 10
188.49999999999989
 20
121.5
 30
0.0
  0
VERTEX
  5
D4C
  8
MITTA
 10
180.49999999999989
 20
121.5
 30
0.0
  0
SEQEND
  5
D4D
  8
MITTA
  0
POLYLINE
  5
AA0
  8
MITTA
 66
     1
 10
0.0
 20
0.0
 30
0.0
  0
VERTEX
  5
D4E
  8
MITTA
 10
167.0
 20
120.5
 30
0.0
  0
VERTEX
  5
D4F
  8
MITTA
 10
167.0
 20
118.5
 30
0.0
  0
VERTEX
  5
D50
  8
MITTA
 10
172.0
 20
118.5
 30
0.0
  0
VERTEX
  5
D51
  8
MITTA
 10
172.0
 20
120.5
 30
0.0
  0
VERTEX
  5
D52
  8
MITTA
 10
167.0
 20
120.5
 30
0.0
  0
SEQEND
  5
D53
  8
MITTA
  0
LINE
  5
AA1
  8
MITTA
 10
162.0
 20
119.5
 30
0.0
 11
167.0
 21
119.5
 31
0.0
  0
TEXT
  5
AA2
  8
MITTA
 10
163.0
 20
118.7050385403257
 30
0.0
 40
2.5
  1
10
 41
0.9
  7
T25
  0
POLYLINE
  5
AA3
  8
MITTA
 66
     1
 10
0.0
 20
0.0
 30
0.0
 70
     1
  0
VERTEX
  5
D54
  8
MITTA
 10
181.49999999999989
 20
134.0
 30
0.0
  0
VERTEX
  5
D55
  8
MITTA
 10
181.49999999999989
 20
141.0
 30
0.0
  0
VERTEX
  5
D56
  8
MITTA
 10
188.0
 20
137.5
 30
0.0
  0
SEQEND
  5
D57
  8
MITTA
  0
TEXT
  5
AA4
  8
MITTA
 10
184.50000009406151
 20
132.99999973599381
 30
0.0
 40
1.5
  1
DIFF
 41
0.9
  7
T25
  0
POLYLINE
  5
AA5
  8
MITTA
 66
     1
 10
0.0
 20
0.0
 30
0.0
  0
VERTEX
  5
D58
  8
MITTA
 10
180.49999999999989
 20
133.49999999999989
 30
0.0
  0
VERTEX
  5
D59
  8
MITTA
 10
180.49999999999989
 20
141.5
 30
0.0
  0
VERTEX
  5
D5A
  8
MITTA
 10
188.49999999999989
 20
141.5
 30
0.0
  0
VERTEX
  5
D5B
  8
MITTA
 10
188.49999999999989
 20
133.49999999999989
 30
0.0
  0
VERTEX
  5
D5C
  8
MITTA
 10
180.49999999999989
 20
133.49999999999989
 30
0.0
  0
SEQEND
  5
D5D
  8
MITTA
  0
POLYLINE
  5
AA6
  8
MITTA
 66
     1
 10
0.0
 20
0.0
 30
0.0
  0
VERTEX
  5
D5E
  8
MITTA
 10
180.49999999999989
 20
149.5
 30
0.0
  0
VERTEX
  5
D5F
  8
MITTA
 10
180.49999999999989
 20
157.5
 30
0.0
  0
VERTEX
  5
D60
  8
MITTA
 10
188.49999999999989
 20
157.5
 30
0.0
  0
VERTEX
  5
D61
  8
MITTA
 10
188.49999999999989
 20
149.5
 30
0.0
  0
VERTEX
  5
D62
  8
MITTA
 10
180.49999999999989
 20
149.5
 30
0.0
  0
SEQEND
  5
D63
  8
MITTA
  0
TEXT
  5
AA7
  8
MITTA
 10
184.50000009406151
 20
148.9999997359937
 30
0.0
 40
1.5
  1
DIFF
 41
0.9
  7
T25
  0
POLYLINE
  5
AA8
  8
MITTA
 66
     1
 10
0.0
 20
0.0
 30
0.0
 70
     1
  0
VERTEX
  5
D64
  8
MITTA
 10
181.49999999999989
 20
150.0
 30
0.0
  0
VERTEX
  5
D65
  8
MITTA
 10
181.49999999999989
 20
157.0
 30
0.0
  0
VERTEX
  5
D66
  8
MITTA
 10
188.0
 20
153.5
 30
0.0
  0
SEQEND
  5
D67
  8
MITTA
  0
TEXT
  5
AA9
  8
MITTA
 10
163.0
 20
142.70503854032569
 30
0.0
 40
2.5
  1
4
 41
0.9
  7
T25
  0
POLYLINE
  5
AAA
  8
MITTA
 66
     1
 10
0.0
 20
0.0
 30
0.0
  0
VERTEX
  5
D68
  8
MITTA
 10
167.0
 20
142.5
 30
0.0
  0
VERTEX
  5
D69
  8
MITTA
 10
167.0
 20
144.5
 30
0.0
  0
VERTEX
  5
D6A
  8
MITTA
 10
172.0
 20
144.5
 30
0.0
  0
VERTEX
  5
D6B
  8
MITTA
 10
172.0
 20
142.5
 30
0.0
  0
VERTEX
  5
D6C
  8
MITTA
 10
167.0
 20
142.5
 30
0.0
  0
SEQEND
  5
D6D
  8
MITTA
  0
LINE
  5
AAB
  8
MITTA
 10
180.50000090626591
 20
135.52441773349841
 30
0.0
 11
161.9749283546717
 21
135.5244177334985
 31
0.0
  0
LINE
  5
AAC
  8
MITTA
 10
180.50000090626591
 20
139.52441773349841
 30
0.0
 11
161.9749283546717
 21
139.5244177334985
 31
0.0
  0
LINE
  5
AAD
  8
MITTA
 10
180.50000090626591
 20
123.5244177334984
 30
0.0
 11
161.9749283546717
 21
123.5244177334984
 31
0.0
  0
LINE
  5
AAE
  8
MITTA
 10
180.50000090626591
 20
127.5244177334984
 30
0.0
 11
161.9749283546717
 21
127.5244177334984
 31
0.0
  0
TEXT
  5
AAF
  8
MITTA
 10
163.0
 20
126.7050385403257
 30
0.0
 40
2.5
  1
8
 41
0.9
  7
T25
  0
TEXT
  5
AB0
  8
MITTA
 10
163.0
 20
122.7050385403257
 30
0.0
 40
2.5
  1
9
 41
0.9
  7
T25
  0
POLYLINE
  5
AB1
  8
MITTA
 66
     1
 10
0.0
 20
0.0
 30
0.0
  0
VERTEX
  5
D6E
  8
MITTA
 10
162.0
 20
131.49999999999989
 30
0.0
  0
VERTEX
  5
D6F
  8
MITTA
 10
167.0
 20
131.49999999999989
 30
0.0
  0
VERTEX
  5
D70
  8
MITTA
 10
167.0
 20
130.0
 30
0.0
  0
VERTEX
  5
D71
  8
MITTA
 10
167.0
 20
133.0
 30
0.0
  0
SEQEND
  5
D72
  8
MITTA
  0
TEXT
  5
AB2
  8
MITTA
 10
163.0
 20
130.70503854032569
 30
0.0
 40
2.5
  1
7
 41
0.9
  7
T25
  0
TEXT
  5
AB3
  8
MITTA
 10
163.0
 20
138.70503854032569
 30
0.0
 40
2.5
  1
5
 41
0.9
  7
T25
  0
TEXT
  5
AB4
  8
MITTA
 10
163.0
 20
134.70503854032569
 30
0.0
 40
2.5
  1
6
 41
0.9
  7
T25
  0
LINE
  5
AB5
  8
MITTA
 10
162.0
 20
143.5
 30
0.0
 11
167.0
 21
143.5
 31
0.0
  0
POLYLINE
  5
AB6
  8
MITTA
 66
     1
 10
0.0
 20
0.0
 30
0.0
 70
     1
 40
0.5
 41
0.5
  0
VERTEX
  5
D73
  8
MITTA
 10
175.75
 20
127.5
 30
0.0
 42
-1.0
  0
VERTEX
  5
D74
  8
MITTA
 10
176.25
 20
127.5
 30
0.0
 42
-1.0
  0
SEQEND
  5
D75
  8
MITTA
  0
POLYLINE
  5
AB7
  8
MITTA
 66
     1
 10
0.0
 20
0.0
 30
0.0
  0
VERTEX
  5
D76
  8
MITTA
 10
172.0
 20
143.5
 30
0.0
  0
VERTEX
  5
D77
  8
MITTA
 10
176.0
 20
143.5
 30
0.0
  0
VERTEX
  5
D78
  8
MITTA
 10
176.0
 20
135.49999999999989
 30
0.0
  0
SEQEND
  5
D79
  8
MITTA
  0
POLYLINE
  5
AB8
  8
MITTA
 66
     1
 10
0.0
 20
0.0
 30
0.0
 70
     1
 40
0.5
 41
0.5
  0
VERTEX
  5
D7A
  8
MITTA
 10
175.75
 20
135.49999999999989
 30
0.0
 42
1.0
  0
VERTEX
  5
D7B
  8
MITTA
 10
176.25
 20
135.49999999999989
 30
0.0
 42
1.0
  0
SEQEND
  5
D7C
  8
MITTA
  0
POLYLINE
  5
AB9
  8
MITTA
 66
     1
 10
0.0
 20
0.0
 30
0.0
  0
VERTEX
  5
D7D
  8
MITTA
 10
167.0
 20
148.5
 30
0.0
  0
VERTEX
  5
D7E
  8
MITTA
 10
167.0
 20
146.5
 30
0.0
  0
VERTEX
  5
D7F
  8
MITTA
 10
172.0
 20
146.5
 30
0.0
  0
VERTEX
  5
D80
  8
MITTA
 10
172.0
 20
148.5
 30
0.0
  0
VERTEX
  5
D81
  8
MITTA
 10
167.0
 20
148.5
 30
0.0
  0
SEQEND
  5
D82
  8
MITTA
  0
LINE
  5
ABA
  8
MITTA
 10
180.50000090626591
 20
155.52441773349841
 30
0.0
 11
161.9749283546717
 21
155.52441773349841
 31
0.0
  0
LINE
  5
ABB
  8
MITTA
 10
180.50000090626591
 20
151.52441773349841
 30
0.0
 11
161.9749283546717
 21
151.52441773349841
 31
0.0
  0
TEXT
  5
ABC
  8
MITTA
 10
163.0
 20
154.70503854032569
 30
0.0
 40
2.5
  1
1
 41
0.9
  7
T25
  0
LINE
  5
ABD
  8
MITTA
 10
162.0
 20
147.5
 30
0.0
 11
167.0
 21
147.5
 31
0.0
  0
TEXT
  5
ABE
  8
MITTA
 10
163.0
 20
146.70503854032569
 30
0.0
 40
2.5
  1
3
 41
0.9
  7
T25
  0
TEXT
  5
ABF
  8
MITTA
 10
163.0
 20
150.70503854032569
 30
0.0
 40
2.5
  1
2
 41
0.9
  7
T25
  0
POLYLINE
  5
AC0
  8
MITTA
 66
     1
 10
0.0
 20
0.0
 30
0.0
  0
VERTEX
  5
D83
  8
MITTA
 10
172.0
 20
147.5
 30
0.0
  0
VERTEX
  5
D84
  8
MITTA
 10
176.0
 20
147.5
 30
0.0
  0
VERTEX
  5
D85
  8
MITTA
 10
176.0
 20
155.49999999999989
 30
0.0
  0
SEQEND
  5
D86
  8
MITTA
  0
POLYLINE
  5
AC1
  8
MITTA
 66
     1
 10
0.0
 20
0.0
 30
0.0
 70
     1
 40
0.5
 41
0.5
  0
VERTEX
  5
D87
  8
MITTA
 10
175.75
 20
155.49999999999989
 30
0.0
 42
-1.0
  0
VERTEX
  5
D88
  8
MITTA
 10
176.25
 20
155.49999999999989
 30
0.0
 42
-1.0
  0
SEQEND
  5
D89
  8
MITTA
  0
TEXT
  5
AC2
  8
MITTA
 10
194.38655302960021
 20
122.9201089621904
 30
0.0
 40
2.5
  1
RTD1_6_AI8
 41
0.9
  7
T25
  0
TEXT
  5
AC3
  8
MITTA
 10
194.38655302960021
 20
134.92010896219031
 30
0.0
 40
2.5
  1
RTD1_6_AI7
 41
0.9
  7
T25
  0
LINE
  5
AC4
  8
MITTA
 10
188.49999999999989
 20
125.5
 30
0.0
 11
193.0
 21
125.5
 31
0.0
  0
INSERT
  5
AC5
  8
MITTA
  6
CONTINUOUS
  2
*U31
 10
0.0
 20
0.0
 30
0.0
1001
ACAD
1002
{
1000
R14_HATCH_DATA
1000
AC5
1011
1.0
1021
0.0
1031
0.0
1021
0.0
1031
0.0
1011
0.0
1021
0.0
1031
0.0
1021
1.0
1031
0.0
1011
0.0
1021
0.0
1031
0.0
1021
0.0
1031
1.0
1040
0.0
1010
0.0
1020
0.0
1030
1.0
1000
SOLID
1070
     1
1070
     0
1071
        1
1071
        1
1071
        3
1070
     1
1040
193.24999999999989
1040
125.5
1040
190.74999999999989
1040
124.0
1070
     1
1040
190.74999999999989
1040
124.0
1040
190.74999999999989
1040
127.0
1070
     1
1040
190.74999999999989
1040
127.0
1040
193.24999999999989
1040
125.5
1071
        0
1070
     0
1070
     1
1071
        1
1040
435.25
1040
239.0
1040
0.0
1002
}
  0
LINE
  5
AC6
  8
MITTA
 10
188.49999999999989
 20
137.5
 30
0.0
 11
193.0
 21
137.5
 31
0.0
  0
INSERT
  5
AC7
  8
MITTA
  6
CONTINUOUS
  2
*U32
 10
0.0
 20
0.0
 30
0.0
1001
ACAD
1002
{
1000
R14_HATCH_DATA
1000
AC7
1011
1.0
1021
0.0
1031
0.0
1021
0.0
1031
0.0
1011
0.0
1021
0.0
1031
0.0
1021
1.0
1031
0.0
1011
0.0
1021
0.0
1031
0.0
1021
0.0
1031
1.0
1040
0.0
1010
0.0
1020
0.0
1030
1.0
1000
SOLID
1070
     1
1070
     0
1071
        1
1071
        1
1071
        3
1070
     1
1040
193.24999999999989
1040
137.5
1040
190.74999999999989
1040
136.0
1070
     1
1040
190.74999999999989
1040
136.0
1040
190.74999999999989
1040
139.0
1070
     1
1040
190.74999999999989
1040
139.0
1040
193.24999999999989
1040
137.5
1071
        0
1070
     0
1070
     1
1071
        1
1040
435.25
1040
251.0
1040
0.0
1002
}
  0
TEXT
  5
AC8
  8
MITTA
 10
194.38655302960021
 20
150.92010896219031
 30
0.0
 40
2.5
  1
RTD1_6_AI6
 41
0.9
  7
T25
  0
LINE
  5
AC9
  8
MITTA
 10
188.49999999999989
 20
153.5
 30
0.0
 11
193.0
 21
153.5
 31
0.0
  0
INSERT
  5
ACA
  8
MITTA
  6
CONTINUOUS
  2
*U33
 10
0.0
 20
0.0
 30
0.0
1001
ACAD
1002
{
1000
R14_HATCH_DATA
1000
ACA
1011
1.0
1021
0.0
1031
0.0
1021
0.0
1031
0.0
1011
0.0
1021
0.0
1031
0.0
1021
1.0
1031
0.0
1011
0.0
1021
0.0
1031
0.0
1021
0.0
1031
1.0
1040
0.0
1010
0.0
1020
0.0
1030
1.0
1000
SOLID
1070
     1
1070
     0
1071
        1
1071
        1
1071
        3
1070
     1
1040
193.24999999999989
1040
153.5
1040
190.74999999999989
1040
152.0
1070
     1
1040
190.74999999999989
1040
152.0
1040
190.74999999999989
1040
155.0
1070
     1
1040
190.74999999999989
1040
155.0
1040
193.24999999999989
1040
153.5
1071
        0
1070
     0
1070
     1
1071
        1
1040
435.25
1040
267.0
1040
0.0
1002
}
  0
TEXT
  5
ACB
  8
MITTA
 10
163.1000329835924
 20
157.6409579193072
 30
0.0
 40
2.5
  1
X6.2
 41
0.9
  7
T25
  0
POLYLINE
  5
ACC
  8
MITTA
 66
     1
 10
0.0
 20
0.0
 30
0.0
  0
VERTEX
  5
D9C
  8
MITTA
 10
180.49999999999989
 20
97.5
 30
0.0
  0
VERTEX
  5
D9D
  8
MITTA
 10
180.49999999999989
 20
105.4999999999999
 30
0.0
  0
VERTEX
  5
D9E
  8
MITTA
 10
188.49999999999989
 20
105.4999999999999
 30
0.0
  0
VERTEX
  5
D9F
  8
MITTA
 10
188.49999999999989
 20
97.5
 30
0.0
  0
VERTEX
  5
DA0
  8
MITTA
 10
180.49999999999989
 20
97.5
 30
0.0
  0
SEQEND
  5
DA1
  8
MITTA
  0
LINE
  5
ACE
  8
MITTA
 10
180.50000090626591
 20
103.5244177334984
 30
0.0
 11
161.9749283546717
 21
103.5244177334984
 31
0.0
  0
LINE
  5
ACF
  8
MITTA
 10
180.50000090626591
 20
99.524417733498467
 30
0.0
 11
161.9749283546717
 21
99.524417733498495
 31
0.0
  0
TEXT
  5
AD0
  8
MITTA
 10
163.0
 20
98.705038540325745
 30
0.0
 40
2.5
  1
12
 41
0.9
  7
T25
  0
TEXT
  5
AD1
  8
MITTA
 10
163.0
 20
102.7050385403257
 30
0.0
 40
2.5
  1
11
 41
0.9
  7
T25
  0
LINE
  5
AD2
  8
MITTA
 10
188.49999999999989
 20
101.5
 30
0.0
 11
193.0
 21
101.5
 31
0.0
  0
INSERT
  5
AD3
  8
MITTA
  6
CONTINUOUS
  2
*U34
 10
0.0
 20
0.0
 30
0.0
1001
ACAD
1002
{
1000
R14_HATCH_DATA
1000
AD3
1011
1.0
1021
0.0
1031
0.0
1021
0.0
1031
0.0
1011
0.0
1021
0.0
1031
0.0
1021
1.0
1031
0.0
1011
0.0
1021
0.0
1031
0.0
1021
0.0
1031
1.0
1040
0.0
1010
0.0
1020
0.0
1030
1.0
1000
SOLID
1070
     1
1070
     0
1071
        1
1071
        1
1071
        3
1070
     1
1040
189.75
1040
101.5
1040
192.25
1040
100.0
1070
     1
1040
192.25
1040
100.0
1040
192.25
1040
103.0
1070
     1
1040
192.25
1040
103.0
1040
189.75
1040
101.5
1071
        0
1070
     0
1070
     1
1071
        1
1040
-52.25
1040
215.0
1040
0.0
1002
}
  0
LINE
  5
AD4
  8
MITTA
 10
180.49999999999989
 20
98.0
 30
0.0
 11
188.0
 21
105.4999999999999
 31
0.0
  0
LINE
  5
AD5
  8
MITTA
 10
181.0
 20
97.5
 30
0.0
 11
188.49999999999989
 21
105.0
 31
0.0
  0
TEXT
  5
AD8
  8
MITTA
 10
180.83058177094671
 20
101.1069771059275
 30
0.0
 40
2.5
  1
+
 41
0.9
  7
T25
  0
TEXT
  5
AD9
  8
MITTA
 10
180.83058177094671
 20
97.726745152285332
 30
0.0
 40
2.5
  1
-
 41
0.9
  7
T25
  0
LINE
  5
ADC
  8
KATKO07
 10
162.0
 20
221.49999999999989
 30
0.0
 11
122.0
 21
221.49999999999989
 31
0.0
  0
LINE
  5
ADD
  8
KATKO07
 10
162.0
 20
225.49999999999989
 30
0.0
 11
122.0
 21
225.49999999999989
 31
0.0
  0
LINE
  5
ADE
  8
KATKO07
 10
161.9749283546717
 20
213.5244177334985
 30
0.0
 11
121.9749283546717
 21
213.5244177334985
 31
0.0
  0
LINE
  5
ADF
  8
KATKO07
 10
161.9749283546717
 20
217.5244177334985
 30
0.0
 11
121.9749283546717
 21
217.5244177334985
 31
0.0
  0
LINE
  5
AE0
  8
KATKO07
 10
162.0
 20
205.5
 30
0.0
 11
122.0
 21
205.5
 31
0.0
  0
LINE
  5
AE1
  8
KATKO07
 10
162.0
 20
209.5
 30
0.0
 11
122.0
 21
209.5
 31
0.0
  0
LINE
  5
AE2
  8
KATKO07
 10
161.9749283546717
 20
197.52441773349841
 30
0.0
 11
121.9749283546717
 21
197.52441773349841
 31
0.0
  0
LINE
  5
AE3
  8
KATKO07
 10
161.9749283546717
 20
201.52441773349841
 30
0.0
 11
121.9749283546717
 21
201.52441773349841
 31
0.0
  0
LINE
  5
AE4
  8
KATKO07
 10
161.9749283546717
 20
189.5244177334985
 30
0.0
 11
121.9749283546717
 21
189.5244177334985
 31
0.0
  0
LINE
  5
AE5
  8
KATKO07
 10
161.9749283546717
 20
193.5244177334985
 30
0.0
 11
121.9749283546717
 21
193.5244177334985
 31
0.0
  0
LINE
  5
AE6
  8
KATKO07
 10
162.0
 20
181.49999999999989
 30
0.0
 11
122.0
 21
181.49999999999989
 31
0.0
  0
LINE
  5
AE7
  8
KATKO07
 10
162.0
 20
185.5
 30
0.0
 11
122.0
 21
185.5
 31
0.0
  0
LINE
  5
AE8
  8
KATKO07
 10
161.9749283546717
 20
173.52441773349841
 30
0.0
 11
121.9749283546717
 21
173.52441773349841
 31
0.0
  0
LINE
  5
AE9
  8
KATKO07
 10
161.9749283546717
 20
177.52441773349841
 30
0.0
 11
121.9749283546717
 21
177.52441773349841
 31
0.0
  0
LINE
  5
AEA
  8
KATKO07
 10
162.0
 20
165.5
 30
0.0
 11
122.0
 21
165.5
 31
0.0
  0
LINE
  5
AEB
  8
KATKO07
 10
162.0
 20
169.5
 30
0.0
 11
122.0
 21
169.5
 31
0.0
  0
LINE
  5
AEC
  8
KATKO07
 10
161.9749283546717
 20
151.52441773349841
 30
0.0
 11
121.9749283546717
 21
151.52441773349841
 31
0.0
  0
LINE
  5
AED
  8
KATKO07
 10
161.9749283546717
 20
155.52441773349841
 30
0.0
 11
121.9749283546717
 21
155.52441773349841
 31
0.0
  0
LINE
  5
AEE
  8
KATKO07
 10
162.0
 20
143.5
 30
0.0
 11
122.0
 21
143.5
 31
0.0
  0
LINE
  5
AEF
  8
KATKO07
 10
162.0
 20
147.5
 30
0.0
 11
122.0
 21
147.5
 31
0.0
  0
LINE
  5
AF0
  8
KATKO07
 10
161.9749283546717
 20
135.5244177334985
 30
0.0
 11
121.9749283546717
 21
135.5244177334985
 31
0.0
  0
LINE
  5
AF1
  8
KATKO07
 10
161.9749283546717
 20
139.5244177334985
 30
0.0
 11
121.9749283546717
 21
139.5244177334985
 31
0.0
  0
LINE
  5
AF2
  8
KATKO07
 10
161.9749283546717
 20
127.5244177334984
 30
0.0
 11
121.9749283546717
 21
127.5244177334984
 31
0.0
  0
LINE
  5
AF3
  8
KATKO07
 10
161.9749283546717
 20
131.52441773349841
 30
0.0
 11
121.9749283546717
 21
131.52441773349841
 31
0.0
  0
LINE
  5
AF4
  8
KATKO07
 10
162.0
 20
119.5
 30
0.0
 11
122.0
 21
119.5
 31
0.0
  0
LINE
  5
AF5
  8
KATKO07
 10
162.0
 20
123.5
 30
0.0
 11
122.0
 21
123.5
 31
0.0
  0
TEXT
  5
AFD
  8
TEXT25
 10
113.4338557607466
 20
125.5516671997605
 30
0.0
 40
2.5
  1
IN8 -
 41
0.9
  7
T25
  0
TEXT
  5
AFE
  8
TEXT25
 10
113.52130508597919
 20
121.3567502386757
 30
0.0
 40
2.5
  1
IN8 +
 41
0.9
  7
T25
  0
LINE
  5
B0E
  8
KATKO07
 10
161.9749283546717
 20
99.524417733498495
 30
0.0
 11
121.9749283546717
 21
99.524417733498495
 31
0.0
  0
TEXT
  5
B10
  8
TEXT25
 10
117.996233440651
 20
97.381167972174268
 30
0.0
 40
2.5
  1
-
 41
0.9
  7
T25
  0
TEXT
  5
B11
  8
TEXT25
 10
117.9087841154183
 20
101.576084933259
 30
0.0
 40
2.5
  1
+
 41
0.9
  7
T25
  0
LINE
  5
B12
  8
KATKO07
 10
161.9749283546717
 20
103.5244177334984
 30
0.0
 11
121.9749283546717
 21
103.5244177334984
 31
0.0
  0
TEXT
  5
B13
  8
MITTA
 10
194.38655302960021
 20
98.920108962190412
 30
0.0
 40
2.5
  1
RTD1_6_AO1
 41
0.9
  7
T25
  0
LINE
  5
B14
  8
MITTA
 10
181.0
 20
85.5
 30
0.0
 11
188.49999999999989
 21
93.0
 31
0.0
  0
LINE
  5
B15
  8
MITTA
 10
180.49999999999989
 20
86.0
 30
0.0
 11
188.0
 21
93.499999999999986
 31
0.0
  0
POLYLINE
  5
B16
  8
MITTA
 66
     1
 10
0.0
 20
0.0
 30
0.0
  0
VERTEX
  5
DA8
  8
MITTA
 10
180.49999999999989
 20
85.5
 30
0.0
  0
VERTEX
  5
DA9
  8
MITTA
 10
180.49999999999989
 20
93.499999999999986
 30
0.0
  0
VERTEX
  5
DAA
  8
MITTA
 10
188.49999999999989
 20
93.499999999999986
 30
0.0
  0
VERTEX
  5
DAB
  8
MITTA
 10
188.49999999999989
 20
85.5
 30
0.0
  0
VERTEX
  5
DAC
  8
MITTA
 10
180.49999999999989
 20
85.5
 30
0.0
  0
SEQEND
  5
DAD
  8
MITTA
  0
LINE
  5
B17
  8
MITTA
 10
180.50000090626591
 20
87.524417733498467
 30
0.0
 11
161.9749283546717
 21
87.524417733498495
 31
0.0
  0
LINE
  5
B18
  8
MITTA
 10
180.50000090626591
 20
91.524417733498467
 30
0.0
 11
161.9749283546717
 21
91.524417733498495
 31
0.0
  0
TEXT
  5
B19
  8
MITTA
 10
180.83058177094671
 20
89.106977105927513
 30
0.0
 40
2.5
  1
+
 41
0.9
  7
T25
  0
TEXT
  5
B1A
  8
MITTA
 10
180.83058177094671
 20
85.726745152285318
 30
0.0
 40
2.5
  1
-
 41
0.9
  7
T25
  0
TEXT
  5
B1B
  8
MITTA
 10
194.38655302960021
 20
86.920108962190398
 30
0.0
 40
2.5
  1
RTD1_6_AO2
 41
0.9
  7
T25
  0
INSERT
  5
B1C
  8
MITTA
  6
CONTINUOUS
  2
*U35
 10
0.0
 20
0.0
 30
0.0
1001
ACAD
1002
{
1000
R14_HATCH_DATA
1000
B1C
1011
1.0
1021
0.0
1031
0.0
1021
0.0
1031
0.0
1011
0.0
1021
0.0
1031
0.0
1021
1.0
1031
0.0
1011
0.0
1021
0.0
1031
0.0
1021
0.0
1031
1.0
1040
0.0
1010
0.0
1020
0.0
1030
1.0
1000
SOLID
1070
     1
1070
     0
1071
        1
1071
        1
1071
        3
1070
     1
1040
189.75
1040
89.500000000000014
1040
192.25
1040
88.000000000000014
1070
     1
1040
192.25
1040
88.000000000000014
1040
192.25
1040
91.000000000000028
1070
     1
1040
192.25
1040
91.000000000000028
1040
189.75
1040
89.500000000000014
1071
        0
1070
     0
1070
     1
1071
        1
1040
-52.25
1040
203.0
1040
0.0
1002
}
  0
LINE
  5
B1D
  8
MITTA
 10
188.49999999999989
 20
89.500000000000014
 30
0.0
 11
193.0
 21
89.500000000000014
 31
0.0
  0
TEXT
  5
B1E
  8
MITTA
 10
163.0
 20
90.705038540325745
 30
0.0
 40
2.5
  1
13
 41
0.9
  7
T25
  0
TEXT
  5
B1F
  8
MITTA
 10
163.0
 20
86.705038540325745
 30
0.0
 40
2.5
  1
14
 41
0.9
  7
T25
  0
LINE
  5
B20
  8
KATKO07
 10
161.9749283546717
 20
91.524417733498495
 30
0.0
 11
121.9749283546717
 21
91.524417733498495
 31
0.0
  0
LINE
  5
B21
  8
KATKO07
 10
161.9749283546717
 20
87.524417733498495
 30
0.0
 11
121.9749283546717
 21
87.524417733498495
 31
0.0
  0
TEXT
  5
B22
  8
TEXT25
 10
117.9087841154183
 20
89.576084933259054
 30
0.0
 40
2.5
  1
+
 41
0.9
  7
T25
  0
TEXT
  5
B23
  8
TEXT25
 10
117.996233440651
 20
85.381167972174254
 30
0.0
 40
2.5
  1
-
 41
0.9
  7
T25
  0
LINE
  5
B24
  8
KATKO07
 10
161.9749283546717
 20
75.524417733498495
 30
0.0
 11
121.9749283546717
 21
75.524417733498495
 31
0.0
  0
LINE
  5
B25
  8
KATKO07
 10
161.9749283546717
 20
79.524417733498495
 30
0.0
 11
121.9749283546717
 21
79.524417733498495
 31
0.0
  0
TEXT
  5
B26
  8
TEXT25
 10
117.9087841154183
 20
77.576084933259068
 30
0.0
 40
2.5
  1
+
 41
0.9
  7
T25
  0
TEXT
  5
B27
  8
TEXT25
 10
117.996233440651
 20
73.381167972174268
 30
0.0
 40
2.5
  1
-
 41
0.9
  7
T25
  0
POLYLINE
  5
B28
  8
MITTA
 66
     1
 10
0.0
 20
0.0
 30
0.0
  0
VERTEX
  5
DB4
  8
MITTA
 10
180.49999999999989
 20
73.5
 30
0.0
  0
VERTEX
  5
DB5
  8
MITTA
 10
180.49999999999989
 20
81.5
 30
0.0
  0
VERTEX
  5
DB6
  8
MITTA
 10
188.49999999999989
 20
81.5
 30
0.0
  0
VERTEX
  5
DB7
  8
MITTA
 10
188.49999999999989
 20
73.5
 30
0.0
  0
VERTEX
  5
DB8
  8
MITTA
 10
180.49999999999989
 20
73.5
 30
0.0
  0
SEQEND
  5
DB9
  8
MITTA
  0
LINE
  5
B29
  8
MITTA
 10
180.49999999999989
 20
74.0
 30
0.0
 11
188.0
 21
81.5
 31
0.0
  0
LINE
  5
B2A
  8
MITTA
 10
181.0
 20
73.5
 30
0.0
 11
188.49999999999989
 21
81.0
 31
0.0
  0
LINE
  5
B2B
  8
MITTA
 10
180.50000090626591
 20
79.524417733498467
 30
0.0
 11
161.9749283546717
 21
79.524417733498495
 31
0.0
  0
LINE
  5
B2C
  8
MITTA
 10
180.50000090626591
 20
75.524417733498467
 30
0.0
 11
161.9749283546717
 21
75.524417733498495
 31
0.0
  0
TEXT
  5
B2D
  8
MITTA
 10
163.0
 20
74.705038540325745
 30
0.0
 40
2.5
  1
16
 41
0.9
  7
T25
  0
TEXT
  5
B2E
  8
MITTA
 10
180.83058177094671
 20
73.726745152285332
 30
0.0
 40
2.5
  1
-
 41
0.9
  7
T25
  0
TEXT
  5
B2F
  8
MITTA
 10
180.83058177094671
 20
77.106977105927513
 30
0.0
 40
2.5
  1
+
 41
0.9
  7
T25
  0
TEXT
  5
B30
  8
MITTA
 10
194.38655302960021
 20
74.920108962190383
 30
0.0
 40
2.5
  1
RTD1_6_AO3
 41
0.9
  7
T25
  0
LINE
  5
B31
  8
MITTA
 10
188.49999999999989
 20
77.5
 30
0.0
 11
193.0
 21
77.5
 31
0.0
  0
INSERT
  5
B32
  8
MITTA
  6
CONTINUOUS
  2
*U36
 10
0.0
 20
0.0
 30
0.0
1001
ACAD
1002
{
1000
R14_HATCH_DATA
1000
B32
1011
1.0
1021
0.0
1031
0.0
1021
0.0
1031
0.0
1011
0.0
1021
0.0
1031
0.0
1021
1.0
1031
0.0
1011
0.0
1021
0.0
1031
0.0
1021
0.0
1031
1.0
1040
0.0
1010
0.0
1020
0.0
1030
1.0
1000
SOLID
1070
     1
1070
     0
1071
        1
1071
        1
1071
        3
1070
     1
1040
189.75
1040
77.500000000000028
1040
192.25
1040
76.000000000000028
1070
     1
1040
192.25
1040
76.000000000000028
1040
192.25
1040
79.000000000000028
1070
     1
1040
192.25
1040
79.000000000000028
1040
189.75
1040
77.500000000000028
1071
        0
1070
     0
1070
     1
1071
        1
1040
-52.25
1040
191.0
1040
0.0
1002
}
  0
TEXT
  5
B33
  8
MITTA
 10
163.0
 20
78.705038540325745
 30
0.0
 40
2.5
  1
15
 41
0.9
  7
T25
  0
LINE
  5
B34
  8
KATKO07
 10
161.9749283546717
 20
63.524417733498488
 30
0.0
 11
121.9749283546717
 21
63.524417733498488
 31
0.0
  0
LINE
  5
B35
  8
KATKO07
 10
161.9749283546717
 20
67.524417733498495
 30
0.0
 11
121.9749283546717
 21
67.524417733498495
 31
0.0
  0
TEXT
  5
B36
  8
TEXT25
 10
117.9087841154183
 20
65.576084933259068
 30
0.0
 40
2.5
  1
+
 41
0.9
  7
T25
  0
TEXT
  5
B37
  8
TEXT25
 10
117.996233440651
 20
61.381167972174268
 30
0.0
 40
2.5
  1
-
 41
0.9
  7
T25
  0
POLYLINE
  5
B38
  8
MITTA
 66
     1
 10
0.0
 20
0.0
 30
0.0
  0
VERTEX
  5
DC0
  8
MITTA
 10
180.49999999999989
 20
61.5
 30
0.0
  0
VERTEX
  5
DC1
  8
MITTA
 10
180.49999999999989
 20
69.5
 30
0.0
  0
VERTEX
  5
DC2
  8
MITTA
 10
188.49999999999989
 20
69.5
 30
0.0
  0
VERTEX
  5
DC3
  8
MITTA
 10
188.49999999999989
 20
61.5
 30
0.0
  0
VERTEX
  5
DC4
  8
MITTA
 10
180.49999999999989
 20
61.5
 30
0.0
  0
SEQEND
  5
DC5
  8
MITTA
  0
LINE
  5
B39
  8
MITTA
 10
180.49999999999989
 20
62.0
 30
0.0
 11
188.0
 21
69.5
 31
0.0
  0
LINE
  5
B3A
  8
MITTA
 10
181.0
 20
61.5
 30
0.0
 11
188.49999999999989
 21
69.0
 31
0.0
  0
LINE
  5
B3B
  8
MITTA
 10
180.50000090626591
 20
67.524417733498467
 30
0.0
 11
161.9749283546717
 21
67.524417733498495
 31
0.0
  0
LINE
  5
B3C
  8
MITTA
 10
180.50000090626591
 20
63.524417733498467
 30
0.0
 11
161.9749283546717
 21
63.524417733498488
 31
0.0
  0
TEXT
  5
B3D
  8
MITTA
 10
163.0
 20
62.705038540325752
 30
0.0
 40
2.5
  1
18
 41
0.9
  7
T25
  0
TEXT
  5
B3E
  8
MITTA
 10
180.83058177094671
 20
61.726745152285332
 30
0.0
 40
2.5
  1
-
 41
0.9
  7
T25
  0
TEXT
  5
B3F
  8
MITTA
 10
180.83058177094671
 20
65.106977105927513
 30
0.0
 40
2.5
  1
+
 41
0.9
  7
T25
  0
TEXT
  5
B40
  8
MITTA
 10
194.38655302960021
 20
62.92010896219039
 30
0.0
 40
2.5
  1
RTD1_6_AO4
 41
0.9
  7
T25
  0
LINE
  5
B41
  8
MITTA
 10
188.49999999999989
 20
65.5
 30
0.0
 11
193.0
 21
65.5
 31
0.0
  0
INSERT
  5
B42
  8
MITTA
  6
CONTINUOUS
  2
*U37
 10
0.0
 20
0.0
 30
0.0
1001
ACAD
1002
{
1000
R14_HATCH_DATA
1000
B42
1011
1.0
1021
0.0
1031
0.0
1021
0.0
1031
0.0
1011
0.0
1021
0.0
1031
0.0
1021
1.0
1031
0.0
1011
0.0
1021
0.0
1031
0.0
1021
0.0
1031
1.0
1040
0.0
1010
0.0
1020
0.0
1030
1.0
1000
SOLID
1070
     1
1070
     0
1071
        1
1071
        1
1071
        3
1070
     1
1040
189.75
1040
65.500000000000028
1040
192.25
1040
64.000000000000028
1070
     1
1040
192.25
1040
64.000000000000028
1040
192.25
1040
67.000000000000014
1070
     1
1040
192.25
1040
67.000000000000014
1040
189.75
1040
65.500000000000028
1071
        0
1070
     0
1070
     1
1071
        1
1040
-52.25
1040
179.0
1040
0.0
1002
}
  0
TEXT
  5
B43
  8
MITTA
 10
163.0
 20
66.705038540325745
 30
0.0
 40
2.5
  1
17
 41
0.9
  7
T25
  0
TEXT
  5
B4E
  8
MITTA
 10
194.38655302960021
 20
169.4201089621904
 30
0.0
 40
2.5
  1
RTD1_6_AI5
 41
0.9
  7
T25
  0
TEXT
  5
B4F
  8
TEXT25
 10
109.4999999999999
 20
232.5
 30
0.0
 40
2.5
  1
SHUNT1
 41
0.9
  7
T25
  0
TEXT
  5
B50
  8
TEXT25
 10
104.0
 20
219.0
 30
0.0
 40
2.5
  1
COMMON 1,2
 41
0.9
  7
T25
  0
TEXT
  5
B51
  8
TEXT25
 10
109.4999999999999
 20
207.5
 30
0.0
 40
2.5
  1
SHUNT2
 41
0.9
  7
T25
  0
TEXT
  5
B52
  8
TEXT25
 10
104.0
 20
191.5
 30
0.0
 40
2.5
  1
COMMON 3,4
 41
0.9
  7
T25
  0
TEXT
  5
B53
  8
TEXT25
 10
109.4999999999999
 20
203.5
 30
0.0
 40
2.5
  1
SHUNT3
 41
0.9
  7
T25
  0
TEXT
  5
B54
  8
TEXT25
 10
109.4999999999999
 20
175.5
 30
0.0
 40
2.5
  1
SHUNT5
 41
0.9
  7
T25
  0
TEXT
  5
B55
  8
TEXT25
 10
109.4999999999999
 20
179.49999999999989
 30
0.0
 40
2.5
  1
SHUNT4
 41
0.9
  7
T25
  0
TEXT
  5
B56
  8
TEXT25
 10
104.0
 20
163.0
 30
0.0
 40
2.5
  1
COMMON 5,6
 41
0.9
  7
T25
  0
TEXT
  5
B57
  8
TEXT25
 10
109.4999999999999
 20
141.0
 30
0.0
 40
2.5
  1
SHUNT7
 41
0.9
  7
T25
  0
TEXT
  5
B58
  8
TEXT25
 10
109.4999999999999
 20
145.0
 30
0.0
 40
2.5
  1
SHUNT6
 41
0.9
  7
T25
  0
TEXT
  5
B59
  8
TEXT25
 10
104.0
 20
129.0
 30
0.0
 40
2.5
  1
COMMON 7,8
 41
0.9
  7
T25
  0
TEXT
  5
B5A
  8
TEXT25
 10
109.4999999999999
 20
117.0
 30
0.0
 40
2.5
  1
SHUNT8
 41
0.9
  7
T25
  0
TEXT
  5
B5B
  8
TEXT25
 10
113.52130508597919
 20
133.35675023867569
 30
0.0
 40
2.5
  1
IN7 -
 41
0.9
  7
T25
  0
TEXT
  5
B5C
  8
TEXT25
 10
113.4338557607466
 20
137.55166719976049
 30
0.0
 40
2.5
  1
IN7 +
 41
0.9
  7
T25
  0
TEXT
  5
B5D
  8
TEXT25
 10
113.52130508597919
 20
149.35675023867569
 30
0.0
 40
2.5
  1
IN6 +
 41
0.9
  7
T25
  0
TEXT
  5
B5E
  8
TEXT25
 10
113.4338557607466
 20
153.55166719976049
 30
0.0
 40
2.5
  1
IN6 -
 41
0.9
  7
T25
  0
TEXT
  5
B5F
  8
TEXT25
 10
113.4338557607466
 20
171.55166719976049
 30
0.0
 40
2.5
  1
IN5 +
 41
0.9
  7
T25
  0
TEXT
  5
B60
  8
TEXT25
 10
113.52130508597919
 20
167.35675023867569
 30
0.0
 40
2.5
  1
IN5 -
 41
0.9
  7
T25
  0
TEXT
  5
B61
  8
TEXT25
 10
113.4338557607466
 20
187.55166719976049
 30
0.0
 40
2.5
  1
IN4 -
 41
0.9
  7
T25
  0
TEXT
  5
B62
  8
TEXT25
 10
113.52130508597919
 20
183.35675023867569
 30
0.0
 40
2.5
  1
IN4 +
 41
0.9
  7
T25
  0
TEXT
  5
B63
  8
TEXT25
 10
113.4338557607466
 20
199.55166719976049
 30
0.0
 40
2.5
  1
IN3 +
 41
0.9
  7
T25
  0
TEXT
  5
B64
  8
TEXT25
 10
113.52130508597919
 20
195.35675023867569
 30
0.0
 40
2.5
  1
IN3 -
 41
0.9
  7
T25
  0
TEXT
  5
B65
  8
TEXT25
 10
113.4338557607466
 20
215.55166719976049
 30
0.0
 40
2.5
  1
IN2 -
 41
0.9
  7
T25
  0
TEXT
  5
B66
  8
TEXT25
 10
113.52130508597919
 20
211.35675023867569
 30
0.0
 40
2.5
  1
IN2 +
 41
0.9
  7
T25
  0
TEXT
  5
B67
  8
TEXT25
 10
113.4338557607466
 20
227.55166719976049
 30
0.0
 40
2.5
  1
IN1 +
 41
0.9
  7
T25
  0
TEXT
  5
B68
  8
TEXT25
 10
113.52130508597919
 20
223.35675023867569
 30
0.0
 40
2.5
  1
IN1 -
 41
0.9
  7
T25
  0
TEXT
  5
B7E
  8
TEXT25
 10
210.66249975885069
 20
27.24999972324758
 30
0.0
 40
2.5
  1
29-03-2001  S.Bjorklund
 41
0.9
  7
T25
  0
TEXT
  5
B7F
  8
TEXT25
 10
286.1624997588508
 20
-0.7500002767524167
 30
0.0
 40
3.5
  1
RSG
 41
0.9
  7
T25
  0
TEXT
  5
B80
  8
TEXT25
 10
309.6624997588508
 20
-1.7500002767524161
 30
0.0
 40
5.0
  1
1MRS010245-AAA
  7
T25
  0
TEXT
  5
B81
  8
TEXT25
 10
377.6624997588508
 20
-1.7500002767524161
 30
0.0
 40
5.0
  1
A
  7
T25
  0
TEXT
  5
B82
  8
TEXT25
 10
376.1624997588508
 20
9.2499997232475835
 30
0.0
 40
2.5
  1
27 / 27
 41
0.9
  7
T25
  0
TEXT
  5
B83
  8
TEXT25
 10
309.1624997588508
 20
26.74999972324758
 30
0.0
 40
3.5
  1
TERMINAL DIAGRAM
 41
0.9
  7
T25
  0
TEXT
  5
B84
  8
TEXT25
 10
309.1624997588508
 20
22.24999972324758
 30
0.0
 40
3.5
  1
MACHINE TERMINAL
 41
0.9
  7
T25
  0
TEXT
  5
B85
  8
TEXT25
 10
309.1624997588508
 20
17.74999972324758
 30
0.0
 40
3.5
  1
REM 54_ , RTD1-MOFULE, ANALOGUE I/O
 41
0.9
  7
T25
  0
TEXT
  5
BBC
  8
TEXT25
 10
210.66250041530131
 20
18.625000261199709
 30
0.0
 40
2.5
  1
T.Sonntag
 41
0.9
  7
T25
  0
TEXT
  5
BBD
  8
TEXT25
 10
210.66250041530131
 20
10.125000261199711
 30
0.0
 40
2.5
  1
K.Latva-Rasku
 41
0.9
  7
T25
  0
ENDSEC
  0
EOF
