  0
SECTION
  2
HEADER
  9
$ACADVER
  1
AC1009
  9
$DWGCODEPAGE
  3
iso8859-1
  9
$INSBASE
 10
0.0
 20
0.0
 30
0.0
  9
$EXTMIN
 10
1.0E20
 20
1.0E20
  9
$EXTMAX
 10
-1.0E20
 20
-1.0E20
  9
$LIMMIN
 10
0.0
 20
0.0
  9
$LIMMAX
 10
12.0
 20
9.0
  9
$ORTHOMODE
 70
     0
  9
$REGENMODE
 70
     1
  9
$FILLMODE
 70
     1
  9
$QTEXTMODE
 70
     0
  9
$MIRRTEXT
 70
     1
  9
$DRAGMODE
 70
     2
  9
$LTSCALE
 40
15.0
  9
$OSMODE
 70
     0
  9
$ATTMODE
 70
     1
  9
$TEXTSIZE
 40
0.2
  9
$TRACEWID
 40
0.05
  9
$TEXTSTYLE
  7
STANDARD
  9
$CLAYER
  8
0
  9
$CELTYPE
  6
DASHED
  9
$CECOLOR
 62
   256
  9
$DIMSCALE
 40
1.0
  9
$DIMASZ
 40
0.18
  9
$DIMEXO
 40
0.0625
  9
$DIMDLI
 40
0.38
  9
$DIMRND
 40
0.0
  9
$DIMDLE
 40
0.0
  9
$DIMEXE
 40
0.18
  9
$DIMTP
 40
0.0
  9
$DIMTM
 40
0.0
  9
$DIMTXT
 40
0.18
  9
$DIMCEN
 40
0.09
  9
$DIMTSZ
 40
0.0
  9
$DIMTOL
 70
     0
  9
$DIMLIM
 70
     0
  9
$DIMTIH
 70
     1
  9
$DIMTOH
 70
     1
  9
$DIMSE1
 70
     0
  9
$DIMSE2
 70
     0
  9
$DIMTAD
 70
     0
  9
$DIMZIN
 70
     0
  9
$DIMBLK
  1

  9
$DIMASO
 70
     1
  9
$DIMSHO
 70
     1
  9
$DIMPOST
  1

  9
$DIMAPOST
  1

  9
$DIMALT
 70
     0
  9
$DIMALTD
 70
     2
  9
$DIMALTF
 40
25.4
  9
$DIMLFAC
 40
1.0
  9
$DIMTOFL
 70
     0
  9
$DIMTVP
 40
0.0
  9
$DIMTIX
 70
     0
  9
$DIMSOXD
 70
     0
  9
$DIMSAH
 70
     0
  9
$DIMBLK1
  1

  9
$DIMBLK2
  1

  9
$DIMSTYLE
  2
STANDARD
  9
$DIMCLRD
 70
     0
  9
$DIMCLRE
 70
     0
  9
$DIMCLRT
 70
     0
  9
$DIMTFAC
 40
1.0
  9
$DIMGAP
 40
0.09
  9
$LUNITS
 70
     2
  9
$LUPREC
 70
     4
  9
$AXISMODE
 70
     0
  9
$AXISUNIT
 10
0.0
 20
0.0
  9
$SKETCHINC
 40
0.1
  9
$FILLETRAD
 40
0.0
  9
$AUNITS
 70
     0
  9
$AUPREC
 70
     0
  9
$MENU
  1
acad
  9
$ELEVATION
 40
0.0
  9
$PELEVATION
 40
0.0
  9
$THICKNESS
 40
0.0
  9
$LIMCHECK
 70
     0
  9
$BLIPMODE
 70
     1
  9
$CHAMFERA
 40
0.0
  9
$CHAMFERB
 40
0.0
  9
$SKPOLY
 70
     0
  9
$TDCREATE
 40
0.000000000
  9
$TDUPDATE
 40
0.000000000
  9
$TDINDWG
 40
0.0
  9
$TDUSRTIMER
 40
0.0
  9
$USRTIMER
 70
     1
  9
$ANGBASE
 50
0.0
  9
$ANGDIR
 70
     0
  9
$PDMODE
 70
     0
  9
$PDSIZE
 40
0.0
  9
$PLINEWID
 40
0.0
  9
$COORDS
 70
     1
  9
$SPLFRAME
 70
     0
  9
$SPLINETYPE
 70
     6
  9
$SPLINESEGS
 70
     8
  9
$ATTDIA
 70
     0
  9
$ATTREQ
 70
     1
  9
$HANDLING
 70
     1
  9
$HANDSEED
  5
   6F4
  9
$SURFTAB1
 70
     6
  9
$SURFTAB2
 70
     6
  9
$SURFTYPE
 70
     6
  9
$SURFU
 70
     6
  9
$SURFV
 70
     6
  9
$UCSNAME
  2

  9
$UCSORG
 10
0.0
 20
0.0
 30
0.0
  9
$UCSXDIR
 10
1.0
 20
0.0
 30
0.0
  9
$UCSYDIR
 10
0.0
 20
1.0
 30
0.0
  9
$PUCSNAME
  2

  9
$PUCSORG
 10
0.0
 20
0.0
 30
0.0
  9
$PUCSXDIR
 10
1.0
 20
0.0
 30
0.0
  9
$PUCSYDIR
 10
0.0
 20
1.0
 30
0.0
  9
$USERI1
 70
     0
  9
$USERI2
 70
     0
  9
$USERI3
 70
     0
  9
$USERI4
 70
     0
  9
$USERI5
 70
     0
  9
$USERR1
 40
0.0
  9
$USERR2
 40
0.0
  9
$USERR3
 40
0.0
  9
$USERR4
 40
0.0
  9
$USERR5
 40
0.0
  9
$WORLDVIEW
 70
     1
  9
$SHADEDGE
 70
     3
  9
$SHADEDIF
 70
    70
  9
$TILEMODE
 70
     1
  9
$MAXACTVP
 70
    16
  9
$PINSBASE
 10
0.0
 20
0.0
 30
0.0
  9
$PLIMCHECK
 70
     0
  9
$PEXTMIN
 10
1.0E20
 20
1.0E20
 30
1.0E20
  9
$PEXTMAX
 10
-1.0E20
 20
-1.0E20
 30
-1.0E20
  9
$PLIMMIN
 10
0.0
 20
0.0
  9
$PLIMMAX
 10
12.0
 20
9.0
  9
$UNITMODE
 70
     0
  9
$VISRETAIN
 70
     0
  0
ENDSEC
  0
SECTION
  2
TABLES
  0
TABLE
  2
VPORT
 70
     1
  0
VPORT
  2
*ACTIVE
 70
     0
 10
0.0
 20
0.0
 11
1.0
 21
1.0
 12
6.801242
 22
4.5
 13
0.0
 23
0.0
 14
1.0
 24
1.0
 15
0.0
 25
0.0
 16
0.0
 26
0.0
 36
1.0
 17
0.0
 27
0.0
 37
0.0
 40
9.0
 41
1.511387
 42
50.0
 43
0.0
 44
0.0
 50
0.0
 51
0.0
 71
     0
 72
   100
 73
     1
 74
     1
 75
     0
 76
     0
 77
     0
 78
     0
  0
ENDTAB
  0
TABLE
  2
LTYPE
 70
    41
  0
LTYPE
  2
BYBLOCK
 70
     0
  3

 72
    65
 73
     0
 40
0.0
  0
LTYPE
  2
BYLAYER
 70
     0
  3

 72
    65
 73
     0
 40
0.0
  0
LTYPE
  2
CONTINUOUS
 70
     0
  3
Solid line
 72
    65
 73
     0
 40
0.0
  0
LTYPE
  2
BORDER
 70
    64
  3
__ __ . __ __ . __ __ . __ __ . __ __ . __ __ .
 72
    65
 73
     6
 40
1.75
 49
0.5
 49
-0.25
 49
0.5
 49
-0.25
 49
0.0
 49
-0.25
  0
LTYPE
  2
BORDER2
 70
    64
  3
__.__.__.__.__.__.__.__.__.__.__.__.__.__.__.__
 72
    65
 73
     6
 40
0.875
 49
0.25
 49
-0.125
 49
0.25
 49
-0.125
 49
0.0
 49
-0.125
  0
LTYPE
  2
BORDERX2
 70
    64
  3
____  ____  .  ____  ____  .  ____  ____  .  __
 72
    65
 73
     6
 40
3.5
 49
1.0
 49
-0.5
 49
1.0
 49
-0.5
 49
0.0
 49
-0.5
  0
LTYPE
  2
CENTER
 70
    64
  3
____ _ ____ _ ____ _ ____ _ ____ _ ____ _ ____
 72
    65
 73
     4
 40
2.0
 49
1.25
 49
-0.25
 49
0.25
 49
-0.25
  0
LTYPE
  2
CENTER2
 70
    64
  3
___ _ ___ _ ___ _ ___ _ ___ _ ___ _ ___ _ ___ _
 72
    65
 73
     4
 40
1.125
 49
0.75
 49
-0.125
 49
0.125
 49
-0.125
  0
LTYPE
  2
CENTERX2
 70
    64
  3
________  __  ________  __  ________  __  _____
 72
    65
 73
     4
 40
4.0
 49
2.5
 49
-0.5
 49
0.5
 49
-0.5
  0
LTYPE
  2
DASHDOT
 70
    64
  3
__ . __ . __ . __ . __ . __ . __ . __ . __ . __
 72
    65
 73
     4
 40
1.0
 49
0.5
 49
-0.25
 49
0.0
 49
-0.25
  0
LTYPE
  2
DASHDOT2
 70
    64
  3
_._._._._._._._._._._._._._._._._._._._._._._._
 72
    65
 73
     4
 40
0.5
 49
0.25
 49
-0.125
 49
0.0
 49
-0.125
  0
LTYPE
  2
DASHDOTX2
 70
    64
  3
____  .  ____  .  ____  .  ____  .  ____  .  __
 72
    65
 73
     4
 40
2.0
 49
1.0
 49
-0.5
 49
0.0
 49
-0.5
  0
LTYPE
  2
DASHED
 70
    64
  3
__ __ __ __ __ __ __ __ __ __ __ __ __ __ __ __
 72
    65
 73
     2
 40
0.75
 49
0.5
 49
-0.25
  0
LTYPE
  2
DASHED2
 70
    64
  3
_ _ _ _ _ _ _ _ _ _ _ _ _ _ _ _ _ _ _ _ _ _ _ _
 72
    65
 73
     2
 40
0.375
 49
0.25
 49
-0.125
  0
LTYPE
  2
DASHEDX2
 70
    64
  3
____  ____  ____  ____  ____  ____  ____  ____
 72
    65
 73
     2
 40
1.5
 49
1.0
 49
-0.5
  0
LTYPE
  2
DIVIDE
 70
    64
  3
____ . . ____ . . ____ . . ____ . . ____ . . __
 72
    65
 73
     6
 40
1.25
 49
0.5
 49
-0.25
 49
0.0
 49
-0.25
 49
0.0
 49
-0.25
  0
LTYPE
  2
DIVIDE2
 70
    64
  3
__..__..__..__..__..__..__..__..__..__..__..__.
 72
    65
 73
     6
 40
0.625
 49
0.25
 49
-0.125
 49
0.0
 49
-0.125
 49
0.0
 49
-0.125
  0
LTYPE
  2
DIVIDEX2
 70
    64
  3
________  .  .  ________  .  .  ________  .  .
 72
    65
 73
     6
 40
2.5
 49
1.0
 49
-0.5
 49
0.0
 49
-0.5
 49
0.0
 49
-0.5
  0
LTYPE
  2
DOT
 70
    64
  3
. . . . . . . . . . . . . . . . . . . . . . . .
 72
    65
 73
     2
 40
0.25
 49
0.0
 49
-0.25
  0
LTYPE
  2
DOT2
 70
    64
  3
...............................................
 72
    65
 73
     2
 40
0.125
 49
0.0
 49
-0.125
  0
LTYPE
  2
DOTX2
 70
    64
  3
.  .  .  .  .  .  .  .  .  .  .  .  .  .  .  .
 72
    65
 73
     2
 40
0.5
 49
0.0
 49
-0.5
  0
LTYPE
  2
HIDDEN
 70
    64
  3
__ __ __ __ __ __ __ __ __ __ __ __ __ __ __ __
 72
    65
 73
     2
 40
0.375
 49
0.25
 49
-0.125
  0
LTYPE
  2
HIDDEN2
 70
    64
  3
_ _ _ _ _ _ _ _ _ _ _ _ _ _ _ _ _ _ _ _ _ _ _ _
 72
    65
 73
     2
 40
0.1875
 49
0.125
 49
-0.0625
  0
LTYPE
  2
HIDDENX2
 70
    64
  3
____ ____ ____ ____ ____ ____ ____ ____ ____ __
 72
    65
 73
     2
 40
0.75
 49
0.5
 49
-0.25
  0
LTYPE
  2
PHANTOM
 70
    64
  3
______  __  __  ______  __  __  ______  __  __
 72
    65
 73
     6
 40
2.5
 49
1.25
 49
-0.25
 49
0.25
 49
-0.25
 49
0.25
 49
-0.25
  0
LTYPE
  2
PHANTOM2
 70
    64
  3
___ _ _ ___ _ _ ___ _ _ ___ _ _ ___ _ _ ___ _ _
 72
    65
 73
     6
 40
1.25
 49
0.625
 49
-0.125
 49
0.125
 49
-0.125
 49
0.125
 49
-0.125
  0
LTYPE
  2
PHANTOMX2
 70
    64
  3
____________    ____    ____    ____________
 72
    65
 73
     6
 40
5.0
 49
2.5
 49
-0.5
 49
0.5
 49
-0.5
 49
0.5
 49
-0.5
  0
LTYPE
  2
ACAD_ISO02W100
 70
    64
  3
__ __ __ __ __ __ __ __ __ __ __ __ __ __ __ __
 72
    65
 73
     2
 40
15.0
 49
12.0
 49
-3.0
  0
LTYPE
  2
ACAD_ISO03W100
 70
    64
  3
__    __    __    __    __    __    __    __
 72
    65
 73
     2
 40
30.0
 49
12.0
 49
-18.0
  0
LTYPE
  2
ACAD_ISO04W100
 70
    64
  3
____ . ____ . ____ . ____ . ____ . ____ . ____
 72
    65
 73
     4
 40
30.5
 49
24.0
 49
-3.0
 49
0.5
 49
-3.0
  0
LTYPE
  2
ACAD_ISO05W100
 70
    64
  3
____ .. ____ .. ____ .. ____ .. ____ .. ____ ..
 72
    65
 73
     6
 40
34.0
 49
24.0
 49
-3.0
 49
0.5
 49
-3.0
 49
0.5
 49
-3.0
  0
LTYPE
  2
ACAD_ISO06W100
 70
    64
  3
____ ... ____ ... ____ ... ____ ... ____ ... __
 72
    65
 73
     8
 40
37.5
 49
24.0
 49
-3.0
 49
0.5
 49
-3.0
 49
0.5
 49
-3.0
 49
0.5
 49
-3.0
  0
LTYPE
  2
ACAD_ISO07W100
 70
    64
  3
. . . . . . . . . . . . . . . . . . . . . . . .
 72
    65
 73
     2
 40
3.5
 49
0.5
 49
-3.0
  0
LTYPE
  2
ACAD_ISO08W100
 70
    64
  3
____ __ ____ __ ____ __ ____ ____ __ __ ____ __
 72
    65
 73
     4
 40
36.0
 49
24.0
 49
-3.0
 49
6.0
 49
-3.0
  0
LTYPE
  2
ACAD_ISO09W100
 70
    64
  3
____ __ __ ____ __ __ ____ __ __ ____ __ __ ___
 72
    65
 73
     6
 40
45.0
 49
24.0
 49
-3.0
 49
6.0
 49
-3.0
 49
6.0
 49
-3.0
  0
LTYPE
  2
ACAD_ISO10W100
 70
    64
  3
__ . __ . __ . __ . __ . __ . __ . __ . __ . __
 72
    65
 73
     4
 40
18.5
 49
12.0
 49
-3.0
 49
0.5
 49
-3.0
  0
LTYPE
  2
ACAD_ISO11W100
 70
    64
  3
__ __ . __ __ . __ __ . __ __ . __ __ . __ __ .
 72
    65
 73
     6
 40
33.5
 49
12.0
 49
-3.0
 49
12.0
 49
-3.0
 49
0.5
 49
-3.0
  0
LTYPE
  2
ACAD_ISO12W100
 70
    64
  3
__ . . __ . . __ . . __ . . __ . . __ . . __ .
 72
    65
 73
     6
 40
22.0
 49
12.0
 49
-3.0
 49
0.5
 49
-3.0
 49
0.5
 49
-3.0
  0
LTYPE
  2
ACAD_ISO13W100
 70
    64
  3
__ __ . . __ __ . . __ __ . . __ __ . . __ __ .
 72
    65
 73
     8
 40
37.0
 49
12.0
 49
-3.0
 49
12.0
 49
-3.0
 49
0.5
 49
-3.0
 49
0.5
 49
-3.0
  0
LTYPE
  2
ACAD_ISO14W100
 70
    64
  3
__ . . . __ . . . __ . . . __ . . . __ . . . __
 72
    65
 73
     8
 40
25.5
 49
12.0
 49
-3.0
 49
0.5
 49
-3.0
 49
0.5
 49
-3.0
 49
0.5
 49
-3.0
  0
LTYPE
  2
ACAD_ISO15W100
 70
    64
  3
__ __ . . . __ __ . . . __ __ . . . __ __ . . .
 72
    65
 73
    10
 40
40.5
 49
12.0
 49
-3.0
 49
12.0
 49
-3.0
 49
0.5
 49
-3.0
 49
0.5
 49
-3.0
 49
0.5
 49
-3.0
  0
ENDTAB
  0
TABLE
  2
STYLE
 70
     4
  0
STYLE
  2
STANDARD
 70
    64
 40
0.0
 41
1.0
 50
0.0
 71
     0
 42
0.2
  3
txt
  4

  0
STYLE
  2
TOLERANCE
 70
    64
 40
0.0
 41
1.0
 50
0.0
 71
     0
 42
0.2
  3
../igesfont/iges1003.shx
  4

  0
STYLE
  2
ROMANS
 70
    64
 40
0.0
 41
1.0
 50
0.0
 71
     0
 42
0.2
  3
romans.shx
  4

  0
STYLE
  2
ROMANC
 70
    64
 40
0.0
 41
1.0
 50
0.0
 71
     0
 42
0.2
  3
romanc.shx
  4

  0
ENDTAB
  0
TABLE
  2
DIMSTYLE
 70
     2
  0
DIMSTYLE
  2
UNNAMED
 70
     0
  3

  4

  5

  6

  7

 40
1.0
 41
0.18
 42
0.0625
 43
0.38
 44
0.18
 45
0.0
 46
0.0
 47
0.0
 48
0.0
140
0.18
141
0.09
142
0.0
143
25.4
144
1.0
145
0.0
146
1.0
147
0.09
 71
     0
 72
     0
 73
     1
 74
     1
 75
     0
 76
     0
 77
     0
 78
     0
170
     0
171
     2
172
     0
173
     0
174
     0
175
     0
176
     0
177
     0
178
     0
  0
DIMSTYLE
  2
STANDARD
 70
     0
  3

  4

  5

  6

  7

 40
1.0
 41
0.18
 42
0.0625
 43
0.38
 44
0.18
 45
0.0
 46
0.0
 47
0.0
 48
0.0
140
0.18
141
0.09
142
0.0
143
25.4
144
1.0
145
0.0
146
1.0
147
0.09
 71
     0
 72
     0
 73
     1
 74
     1
 75
     0
 76
     0
 77
     0
 78
     0
170
     0
171
     2
172
     0
173
     0
174
     0
175
     0
176
     0
177
     0
178
     0
  0
ENDTAB
  0
TABLE
  2
LAYER
 70
     1
  0
LAYER
  2
0
 70
     0
 62
     7
  6
CONTINUOUS
  0
ENDTAB
  0
ENDSEC
  0
SECTION
  2
BLOCKS
  0
BLOCK
  5
     B
  8
0
  6
CONTINUOUS
 62
     2
  2
*HATCH94
 70
    65
 10
0.0
 20
0.0
 30
0.0
  3
*HATCH94
  0
LINE
  5
     C
  8
0
  6
CONTINUOUS
 62
    52
 10
49.0999908447266
 20
55.4639472961426
 30
0.0
 11
46.0999908447266
 21
52.4639472961426
 31
0.0
  0
LINE
  5
     D
  8
0
  6
CONTINUOUS
 62
    52
 10
49.0999908447266
 20
51.2213096618652
 30
0.0
 11
46.0999908447266
 21
48.2213096618652
 31
0.0
  0
LINE
  5
     E
  8
0
  6
CONTINUOUS
 62
    52
 10
49.0999908447266
 20
46.9786720275879
 30
0.0
 11
46.0999908447266
 21
43.9786720275879
 31
0.0
  0
LINE
  5
     F
  8
0
  6
CONTINUOUS
 62
    52
 10
49.0999908447266
 20
42.7360343933105
 30
0.0
 11
46.0999908447266
 21
39.7360343933105
 31
0.0
  0
LINE
  5
    10
  8
0
  6
CONTINUOUS
 62
    52
 10
49.0999908447266
 20
38.4933967590332
 30
0.0
 11
46.0999908447266
 21
35.4933967590332
 31
0.0
  0
LINE
  5
    11
  8
0
  6
CONTINUOUS
 62
    52
 10
46.0278282165527
 20
33.2999038696289
 30
0.0
 11
44.5999908447266
 21
31.8720664978027
 31
0.0
  0
LINE
  5
    12
  8
0
  6
CONTINUOUS
 62
    52
 10
49.0999908447266
 20
32.1294250488281
 30
0.0
 11
48.7704696655273
 21
31.7999038696289
 31
0.0
  0
ENDBLK
  5
    13
  8
0
  6
CONTINUOUS
 62
     2
  0
BLOCK
  5
    14
  8
0
  6
CONTINUOUS
 62
     2
  2
*HATCH95
 70
    65
 10
0.0
 20
0.0
 30
0.0
  3
*HATCH95
  0
LINE
  5
    15
  8
0
  6
CONTINUOUS
 62
    52
 10
48.4395141601563
 20
-15.2000961303711
 30
0.0
 11
46.0999908447266
 21
-17.5396213531494
 31
0.0
  0
LINE
  5
    16
  8
0
  6
CONTINUOUS
 62
    52
 10
49.0999908447266
 20
-18.7822608947754
 30
0.0
 11
46.0999908447266
 21
-21.7822608947754
 31
0.0
  0
LINE
  5
    17
  8
0
  6
CONTINUOUS
 62
    52
 10
49.0999908447266
 20
-23.02490234375
 30
0.0
 11
46.0999908447266
 21
-26.02490234375
 31
0.0
  0
LINE
  5
    18
  8
0
  6
CONTINUOUS
 62
    52
 10
49.0999908447266
 20
-27.2675437927246
 30
0.0
 11
46.0999908447266
 21
-30.2675437927246
 31
0.0
  0
LINE
  5
    19
  8
0
  6
CONTINUOUS
 62
    52
 10
49.0999908447266
 20
-31.5101852416992
 30
0.0
 11
46.0999908447266
 21
-34.510181427002
 31
0.0
  0
LINE
  5
    1A
  8
0
  6
CONTINUOUS
 62
    52
 10
49.0999908447266
 20
-35.7528228759766
 30
0.0
 11
46.0999908447266
 21
-38.7528190612793
 31
0.0
  0
ENDBLK
  5
    1B
  8
0
  6
CONTINUOUS
 62
     2
  0
BLOCK
  5
    1C
  8
0
  6
CONTINUOUS
 62
     2
  2
*HATCH96
 70
    65
 10
0.0
 20
0.0
 30
0.0
  3
*HATCH96
  0
LINE
  5
    1D
  8
0
  6
CONTINUOUS
 62
     7
 10
-33.3453636169434
 20
154.603576660156
 30
0.0
 11
-35.3332328796387
 21
152.61572265625
 31
0.0
  0
LINE
  5
    1E
  8
0
  6
CONTINUOUS
 62
     7
 10
-32.4968376159668
 20
154.603576660156
 30
0.0
 11
-35.5495491027832
 21
151.550872802734
 31
0.0
  0
LINE
  5
    1F
  8
0
  6
CONTINUOUS
 62
     7
 10
-31.6647300720215
 20
154.587158203125
 30
0.0
 11
-35.3414573669434
 21
150.910430908203
 31
0.0
  0
LINE
  5
    20
  8
0
  6
CONTINUOUS
 62
     7
 10
-31.173267364502
 20
154.230102539063
 30
0.0
 11
-35.1333656311035
 21
150.269989013672
 31
0.0
  0
LINE
  5
    21
  8
0
  6
CONTINUOUS
 62
     7
 10
-30.6818084716797
 20
153.873031616211
 30
0.0
 11
-34.7670974731445
 21
149.787750244141
 31
0.0
  0
LINE
  5
    22
  8
0
  6
CONTINUOUS
 62
     7
 10
-30.1903457641602
 20
153.515975952148
 30
0.0
 11
-34.275634765625
 21
149.430694580078
 31
0.0
  0
LINE
  5
    23
  8
0
  6
CONTINUOUS
 62
     7
 10
-29.9805202484131
 20
152.877258300781
 30
0.0
 11
-33.7841758728027
 21
149.073608398438
 31
0.0
  0
LINE
  5
    24
  8
0
  6
CONTINUOUS
 62
     7
 10
-29.7724285125732
 20
152.23681640625
 30
0.0
 11
-33.1120071411133
 21
148.897247314453
 31
0.0
  0
LINE
  5
    25
  8
0
  6
CONTINUOUS
 62
     7
 10
-29.7126083374023
 20
151.448120117188
 30
0.0
 11
-32.2634811401367
 21
148.897247314453
 31
0.0
  0
LINE
  5
    26
  8
0
  6
CONTINUOUS
 62
     7
 10
-30.1210098266602
 20
150.191192626953
 30
0.0
 11
-30.6912631988525
 21
149.62092590332
 31
0.0
  0
ENDBLK
  5
    27
  8
0
  6
CONTINUOUS
 62
     2
  0
BLOCK
  5
    28
  8
0
  6
CONTINUOUS
 62
     2
  2
*HATCH97
 70
    65
 10
0.0
 20
0.0
 30
0.0
  3
*HATCH97
  0
LINE
  5
    29
  8
0
  6
CONTINUOUS
 62
     7
 10
50.9122161865234
 20
152.311309814453
 30
0.0
 11
48.9001770019531
 21
150.299270629883
 31
0.0
  0
LINE
  5
    2A
  8
0
  6
CONTINUOUS
 62
     7
 10
51.7607421875
 20
152.311309814453
 30
0.0
 11
48.6957130432129
 21
149.246276855469
 31
0.0
  0
LINE
  5
    2B
  8
0
  6
CONTINUOUS
 62
     7
 10
52.5859832763672
 20
152.288009643555
 30
0.0
 11
48.9038047790527
 21
148.605834960938
 31
0.0
  0
LINE
  5
    2C
  8
0
  6
CONTINUOUS
 62
     7
 10
53.0774459838867
 20
151.930953979492
 30
0.0
 11
49.1118965148926
 21
147.965393066406
 31
0.0
  0
LINE
  5
    2D
  8
0
  6
CONTINUOUS
 62
     7
 10
53.568904876709
 20
151.573883056641
 30
0.0
 11
49.4836158752441
 21
147.48860168457
 31
0.0
  0
LINE
  5
    2E
  8
0
  6
CONTINUOUS
 62
     7
 10
54.0566520690918
 20
151.213104248047
 30
0.0
 11
49.9750785827637
 21
147.131530761719
 31
0.0
  0
LINE
  5
    2F
  8
0
  6
CONTINUOUS
 62
     7
 10
54.2647438049316
 20
150.572662353516
 30
0.0
 11
50.4665412902832
 21
146.774475097656
 31
0.0
  0
LINE
  5
    30
  8
0
  6
CONTINUOUS
 62
     7
 10
54.4728355407715
 20
149.932220458984
 30
0.0
 11
51.1455726623535
 21
146.604965209961
 31
0.0
  0
LINE
  5
    31
  8
0
  6
CONTINUOUS
 62
     7
 10
54.5208015441895
 20
149.13166809082
 30
0.0
 11
51.9941024780274
 21
146.604965209961
 31
0.0
  0
LINE
  5
    32
  8
0
  6
CONTINUOUS
 62
     7
 10
54.1124000549316
 20
147.874740600586
 30
0.0
 11
53.6096687316895
 21
147.372009277344
 31
0.0
  0
ENDBLK
  5
    33
  8
0
  6
CONTINUOUS
 62
     2
  0
BLOCK
  5
    34
  8
0
  6
CONTINUOUS
 62
     3
  2
*UDIM289
 70
    65
 10
0.0
 20
0.0
 30
0.0
  3
*UDIM289
  0
TEXT
  5
    35
  8
0
  6
CONTINUOUS
 62
     3
 10
183.796178286287
 20
2.26102232635209
 30
0.0
 40
3.00000002980232
  1
124
 50
90.0
 41
0.933333333333333
 72
     1
 11
182.296178271381
 21
6.16102236509322
 31
0.0
 73
     2
  0
LINE
  5
    36
  8
0
  6
CONTINUOUS
 62
     3
 10
147.675872921944
 20
-24.5639820098877
 30
0.0
 11
186.796178286282
 21
-24.5639820098877
 31
0.0
  0
LINE
  5
    37
  8
0
  6
CONTINUOUS
 62
     3
 10
147.675872921944
 20
37.4360256195068
 30
0.0
 11
186.796178286282
 21
37.4360256195068
 31
0.0
  0
LINE
  5
    38
  8
0
  6
CONTINUOUS
 62
     3
 10
184.796178286282
 20
-24.5639820098877
 30
0.0
 11
184.796178286282
 21
37.4360256195068
 31
0.0
  0
LINE
  5
    39
  8
0
  6
CONTINUOUS
 62
     3
 10
184.27523385633
 20
-21.6095587326807
 30
0.0
 11
184.796178286282
 21
-24.5639820098877
 31
0.0
  0
LINE
  5
    3A
  8
0
  6
CONTINUOUS
 62
     3
 10
184.796178286282
 20
-24.5639820098877
 30
0.0
 11
185.317122716234
 21
-21.6095587326807
 31
0.0
  0
LINE
  5
    3B
  8
0
  6
CONTINUOUS
 62
     3
 10
185.317122716234
 20
34.4816023422999
 30
0.0
 11
184.796178286282
 21
37.4360256195068
 31
0.0
  0
LINE
  5
    3C
  8
0
  6
CONTINUOUS
 62
     3
 10
184.796178286282
 20
37.4360256195068
 30
0.0
 11
184.27523385633
 21
34.4816023422999
 31
0.0
  0
ENDBLK
  5
    3D
  8
0
  6
CONTINUOUS
 62
     3
  0
BLOCK
  5
    3E
  8
0
  6
CONTINUOUS
 62
     3
  2
*UDIM290
 70
    65
 10
0.0
 20
0.0
 30
0.0
  3
*UDIM290
  0
TEXT
  5
    3F
  8
0
  6
CONTINUOUS
 62
     3
 10
97.4008833736181
 20
-58.7490968643257
 30
0.0
 40
3.00000002980232
  1
52
 41
0.933333333333333
 72
     1
 11
99.9008833984534
 21
-57.2490968494245
 31
0.0
 73
     2
  0
LINE
  5
    40
  8
0
  6
CONTINUOUS
 62
     3
 10
87.1758875846861
 20
-36.808716907581
 30
0.0
 11
87.1758875846861
 21
-61.7490968643257
 31
0.0
  0
LINE
  5
    41
  8
0
  6
CONTINUOUS
 62
     3
 10
113.175879700979
 20
-34.5639781951904
 30
0.0
 11
113.175879700979
 21
-61.7490968643257
 31
0.0
  0
LINE
  5
    42
  8
0
  6
CONTINUOUS
 62
     3
 10
87.1758875846861
 20
-59.7490968643257
 30
0.0
 11
113.175879700979
 21
-59.7490968643257
 31
0.0
  0
LINE
  5
    43
  8
0
  6
CONTINUOUS
 62
     3
 10
90.1303108618931
 20
-59.228152434374
 30
0.0
 11
87.1758875846861
 21
-59.7490968643257
 31
0.0
  0
LINE
  5
    44
  8
0
  6
CONTINUOUS
 62
     3
 10
87.1758875846861
 20
-59.7490968643257
 30
0.0
 11
90.1303108618931
 21
-60.2700412942773
 31
0.0
  0
LINE
  5
    45
  8
0
  6
CONTINUOUS
 62
     3
 10
110.221456423772
 20
-60.2700412942773
 30
0.0
 11
113.175879700979
 21
-59.7490968643257
 31
0.0
  0
LINE
  5
    46
  8
0
  6
CONTINUOUS
 62
     3
 10
113.175879700979
 20
-59.7490968643257
 30
0.0
 11
110.221456423772
 21
-59.228152434374
 31
0.0
  0
ENDBLK
  5
    47
  8
0
  6
CONTINUOUS
 62
     3
  0
BLOCK
  5
    48
  8
0
  6
CONTINUOUS
 62
     3
  2
*UDIM291
 70
    65
 10
0.0
 20
0.0
 30
0.0
  3
*UDIM291
  0
TEXT
  5
    49
  8
0
  6
CONTINUOUS
 62
     3
 10
28.3944259349244
 20
2.26101469695756
 30
0.0
 40
3.00000002980232
  1
102
 50
90.0
 41
0.933333333333333
 72
     1
 11
26.8944259200184
 21
6.16101473569869
 31
0.0
 73
     2
  0
LINE
  5
    4A
  8
0
  6
CONTINUOUS
 62
     3
 10
64.2776043143116
 20
-19.063985824585
 30
0.0
 11
27.3944259349195
 21
-19.063985824585
 31
0.0
  0
LINE
  5
    4B
  8
0
  6
CONTINUOUS
 62
     3
 10
64.2776043143116
 20
31.936014175415
 30
0.0
 11
27.3944259349195
 21
31.936014175415
 31
0.0
  0
LINE
  5
    4C
  8
0
  6
CONTINUOUS
 62
     3
 10
29.3944259349195
 20
-19.063985824585
 30
0.0
 11
29.3944259349195
 21
31.936014175415
 31
0.0
  0
LINE
  5
    4D
  8
0
  6
CONTINUOUS
 62
     3
 10
28.8734815049679
 20
-16.109562547378
 30
0.0
 11
29.3944259349195
 21
-19.063985824585
 31
0.0
  0
LINE
  5
    4E
  8
0
  6
CONTINUOUS
 62
     3
 10
29.3944259349195
 20
-19.063985824585
 30
0.0
 11
29.9153703648712
 21
-16.109562547378
 31
0.0
  0
LINE
  5
    4F
  8
0
  6
CONTINUOUS
 62
     3
 10
29.9153703648712
 20
28.9815908982081
 30
0.0
 11
29.3944259349195
 21
31.936014175415
 31
0.0
  0
LINE
  5
    50
  8
0
  6
CONTINUOUS
 62
     3
 10
29.3944259349195
 20
31.936014175415
 30
0.0
 11
28.8734815049679
 21
28.9815908982081
 31
0.0
  0
ENDBLK
  5
    51
  8
0
  6
CONTINUOUS
 62
     3
  0
BLOCK
  5
    52
  8
0
  6
CONTINUOUS
 62
     3
  2
*UDIM292
 70
    65
 10
0.0
 20
0.0
 30
0.0
  3
*UDIM292
  0
TEXT
  5
    53
  8
0
  6
CONTINUOUS
 62
     3
 10
151.548229750991
 20
52.4209308624268
 30
0.0
 40
3.00000002980232
  1
1,5
 41
0.933333333333333
 72
     1
 11
155.448229789734
 21
53.9209308773279
 31
0.0
 73
     2
  0
TEXT
  5
    54
  8
0
  6
CONTINUOUS
 62
     3
 10
159.898229661584
 20
52.4209308624268
 30
0.0
 40
3.00000002980232
  1
-2MAX
 41
0.933333333333333
 72
     1
 11
166.598229728142
 21
53.9209308773279
 31
0.0
 73
     2
  0
LINE
  5
    55
  8
0
  6
CONTINUOUS
 62
     3
 10
148.42586517334
 20
50.4166017498791
 30
0.0
 11
148.42586517334
 21
53.4209308624268
 31
0.0
  0
LINE
  5
    56
  8
0
  6
CONTINUOUS
 62
     3
 10
149.17586517334
 20
50.1549923310963
 30
0.0
 11
149.17586517334
 21
53.4209308624268
 31
0.0
  0
LINE
  5
    57
  8
0
  6
CONTINUOUS
 62
     3
 10
148.42586517334
 20
51.4209308624268
 30
0.0
 11
173.298229794701
 21
51.4209308624268
 31
0.0
  0
LINE
  5
    58
  8
0
  6
CONTINUOUS
 62
     3
 10
145.471441896133
 20
50.8999864324751
 30
0.0
 11
148.42586517334
 21
51.4209308624268
 31
0.0
  0
LINE
  5
    59
  8
0
  6
CONTINUOUS
 62
     3
 10
148.42586517334
 20
51.4209308624268
 30
0.0
 11
145.471441896133
 21
51.9418752923784
 31
0.0
  0
LINE
  5
    5A
  8
0
  6
CONTINUOUS
 62
     3
 10
152.130288450547
 20
51.9418752923784
 30
0.0
 11
149.17586517334
 21
51.4209308624268
 31
0.0
  0
LINE
  5
    5B
  8
0
  6
CONTINUOUS
 62
     3
 10
149.17586517334
 20
51.4209308624268
 30
0.0
 11
152.130288450547
 21
50.8999864324751
 31
0.0
  0
ENDBLK
  5
    5C
  8
0
  6
CONTINUOUS
 62
     3
  0
BLOCK
  5
    5D
  8
0
  6
CONTINUOUS
 62
     3
  2
*UDIM293
 70
    65
 10
0.0
 20
0.0
 30
0.0
  3
*UDIM293
  0
TEXT
  5
    5E
  8
0
  6
CONTINUOUS
 62
     3
 10
114.858606097102
 20
70.4834384918213
 30
0.0
 40
3.00000002980232
  1
123
 41
0.933333333333333
 72
     1
 11
118.758606135845
 21
71.9834385067225
 31
0.0
 73
     2
  0
LINE
  5
    5F
  8
0
  6
CONTINUOUS
 62
     3
 10
87.1758875846861
 20
50.6807605172001
 30
0.0
 11
87.1758875846861
 21
71.4834384918213
 31
0.0
  0
LINE
  5
    60
  8
0
  6
CONTINUOUS
 62
     3
 10
148.42586517334
 20
51.4166017498791
 30
0.0
 11
148.42586517334
 21
71.4834384918213
 31
0.0
  0
LINE
  5
    61
  8
0
  6
CONTINUOUS
 62
     3
 10
87.1758875846861
 20
69.4834384918213
 30
0.0
 11
148.42586517334
 21
69.4834384918213
 31
0.0
  0
LINE
  5
    62
  8
0
  6
CONTINUOUS
 62
     3
 10
90.1303108618931
 20
70.004382921773
 30
0.0
 11
87.1758875846861
 21
69.4834384918213
 31
0.0
  0
LINE
  5
    63
  8
0
  6
CONTINUOUS
 62
     3
 10
87.1758875846861
 20
69.4834384918213
 30
0.0
 11
90.1303108618931
 21
68.9624940618696
 31
0.0
  0
LINE
  5
    64
  8
0
  6
CONTINUOUS
 62
     3
 10
145.471441896133
 20
68.9624940618696
 30
0.0
 11
148.42586517334
 21
69.4834384918213
 31
0.0
  0
LINE
  5
    65
  8
0
  6
CONTINUOUS
 62
     3
 10
148.42586517334
 20
69.4834384918213
 30
0.0
 11
145.471441896133
 21
70.004382921773
 31
0.0
  0
ENDBLK
  5
    66
  8
0
  6
CONTINUOUS
 62
     3
  0
BLOCK
  5
    67
  8
0
  6
CONTINUOUS
 62
     3
  2
*UDIM294
 70
    65
 10
0.0
 20
0.0
 30
0.0
  3
*UDIM294
  0
TEXT
  5
    68
  8
0
  6
CONTINUOUS
 62
     3
 10
129.150875744224
 20
-50.6539897918701
 30
0.0
 40
3.00000002980232
  1
75
 41
0.933333333333333
 72
     1
 11
131.650875769059
 21
-49.153989776969
 31
0.0
 73
     2
  0
LINE
  5
    69
  8
0
  6
CONTINUOUS
 62
     3
 10
113.175879700979
 20
-35.5639781951904
 30
0.0
 11
113.175879700979
 21
-53.6539897918701
 31
0.0
  0
LINE
  5
    6A
  8
0
  6
CONTINUOUS
 62
     3
 10
150.675872921944
 20
-11.8139667510986
 30
0.0
 11
150.675872921944
 21
-53.6539897918701
 31
0.0
  0
LINE
  5
    6B
  8
0
  6
CONTINUOUS
 62
     3
 10
113.175879700979
 20
-51.6539897918701
 30
0.0
 11
150.675872921944
 21
-51.6539897918701
 31
0.0
  0
LINE
  5
    6C
  8
0
  6
CONTINUOUS
 62
     3
 10
116.130302978186
 20
-51.1330453619185
 30
0.0
 11
113.175879700979
 21
-51.6539897918701
 31
0.0
  0
LINE
  5
    6D
  8
0
  6
CONTINUOUS
 62
     3
 10
113.175879700979
 20
-51.6539897918701
 30
0.0
 11
116.130302978186
 21
-52.1749342218218
 31
0.0
  0
LINE
  5
    6E
  8
0
  6
CONTINUOUS
 62
     3
 10
147.721449644737
 20
-52.1749342218218
 30
0.0
 11
150.675872921944
 21
-51.6539897918701
 31
0.0
  0
LINE
  5
    6F
  8
0
  6
CONTINUOUS
 62
     3
 10
150.675872921944
 20
-51.6539897918701
 30
0.0
 11
147.721449644737
 21
-51.1330453619185
 31
0.0
  0
ENDBLK
  5
    70
  8
0
  6
CONTINUOUS
 62
     3
  0
BLOCK
  5
    71
  8
0
  6
CONTINUOUS
 62
     3
  2
*UDIM295
 70
    65
 10
0.0
 20
0.0
 30
0.0
  3
*UDIM295
  0
TEXT
  5
    72
  8
0
  6
CONTINUOUS
 62
     3
 10
133.150878597299
 20
-58.7486515045166
 30
0.0
 40
3.00000002980232
  1
91
 41
0.933333333333333
 72
     1
 11
135.650878622135
 21
-57.2486514896154
 31
0.0
 73
     2
  0
LINE
  5
    73
  8
0
  6
CONTINUOUS
 62
     3
 10
113.175879700979
 20
-35.5639781951904
 30
0.0
 11
113.175879700979
 21
-61.7486515045166
 31
0.0
  0
LINE
  5
    74
  8
0
  6
CONTINUOUS
 62
     3
 10
158.675879700979
 20
-8.67916242966657
 30
0.0
 11
158.675879700979
 21
-61.7486515045166
 31
0.0
  0
LINE
  5
    75
  8
0
  6
CONTINUOUS
 62
     3
 10
113.175879700979
 20
-59.7486515045166
 30
0.0
 11
158.675879700979
 21
-59.7486515045166
 31
0.0
  0
LINE
  5
    76
  8
0
  6
CONTINUOUS
 62
     3
 10
116.130302978186
 20
-59.2277070745649
 30
0.0
 11
113.175879700979
 21
-59.7486515045166
 31
0.0
  0
LINE
  5
    77
  8
0
  6
CONTINUOUS
 62
     3
 10
113.175879700979
 20
-59.7486515045166
 30
0.0
 11
116.130302978186
 21
-60.2695959344683
 31
0.0
  0
LINE
  5
    78
  8
0
  6
CONTINUOUS
 62
     3
 10
155.721456423772
 20
-60.2695959344683
 30
0.0
 11
158.675879700979
 21
-59.7486515045166
 31
0.0
  0
LINE
  5
    79
  8
0
  6
CONTINUOUS
 62
     3
 10
158.675879700979
 20
-59.7486515045166
 30
0.0
 11
155.721456423772
 21
-59.2277070745649
 31
0.0
  0
ENDBLK
  5
    7A
  8
0
  6
CONTINUOUS
 62
     3
  0
BLOCK
  5
    7B
  8
0
  6
CONTINUOUS
 62
     3
  2
*UDIM296
 70
    65
 10
0.0
 20
0.0
 30
0.0
  3
*UDIM296
  0
TEXT
  5
    7C
  8
0
  6
CONTINUOUS
 62
     3
 10
95.5182082404692
 20
61.4962024688721
 30
0.0
 40
3.00000002980232
  1
10
 41
0.933333333333333
 72
     1
 11
98.0182082653045
 21
62.9962024837732
 31
0.0
 73
     2
  0
LINE
  5
    7D
  8
0
  6
CONTINUOUS
 62
     3
 10
87.1758875846861
 20
50.6807605172001
 30
0.0
 11
87.1758875846861
 21
62.4962024688721
 31
0.0
  0
LINE
  5
    7E
  8
0
  6
CONTINUOUS
 62
     3
 10
92.1758804321289
 20
48.4360218048096
 30
0.0
 11
92.1758804321289
 21
62.4962024688721
 31
0.0
  0
LINE
  5
    7F
  8
0
  6
CONTINUOUS
 62
     3
 10
87.1758875846861
 20
60.4962024688721
 30
0.0
 11
100.51820829014
 21
60.4962024688721
 31
0.0
  0
LINE
  5
    80
  8
0
  6
CONTINUOUS
 62
     3
 10
84.2214643074792
 20
59.9752580389204
 30
0.0
 11
87.1758875846861
 21
60.4962024688721
 31
0.0
  0
LINE
  5
    81
  8
0
  6
CONTINUOUS
 62
     3
 10
87.1758875846861
 20
60.4962024688721
 30
0.0
 11
84.2214643074792
 21
61.0171468988237
 31
0.0
  0
LINE
  5
    82
  8
0
  6
CONTINUOUS
 62
     3
 10
95.1303037093359
 20
61.0171468988237
 30
0.0
 11
92.1758804321289
 21
60.4962024688721
 31
0.0
  0
LINE
  5
    83
  8
0
  6
CONTINUOUS
 62
     3
 10
92.1758804321289
 20
60.4962024688721
 30
0.0
 11
95.1303037093359
 21
59.9752580389204
 31
0.0
  0
ENDBLK
  5
    84
  8
0
  6
CONTINUOUS
 62
     3
  0
BLOCK
  5
    85
  8
0
  6
CONTINUOUS
 62
     3
  2
*UDIM297
 70
    65
 10
0.0
 20
0.0
 30
0.0
  3
*UDIM297
  0
TEXT
  5
    86
  8
0
  6
CONTINUOUS
 62
     3
 10
65.4008871664603
 20
70.4834384918213
 30
0.0
 40
3.00000002980232
  1
76
 41
0.933333333333333
 72
     1
 11
67.9008871912956
 21
71.9834385067225
 31
0.0
 73
     2
  0
LINE
  5
    87
  8
0
  6
CONTINUOUS
 62
     3
 10
49.1758875846863
 20
34.436014175415
 30
0.0
 11
49.1758875846863
 21
71.4834384918213
 31
0.0
  0
LINE
  5
    88
  8
0
  6
CONTINUOUS
 62
     3
 10
87.1758875846861
 20
50.6807605172001
 30
0.0
 11
87.1758875846861
 21
71.4834384918213
 31
0.0
  0
LINE
  5
    89
  8
0
  6
CONTINUOUS
 62
     3
 10
49.1758875846863
 20
69.4834384918213
 30
0.0
 11
87.1758875846861
 21
69.4834384918213
 31
0.0
  0
LINE
  5
    8A
  8
0
  6
CONTINUOUS
 62
     3
 10
52.1303108618932
 20
70.004382921773
 30
0.0
 11
49.1758875846863
 21
69.4834384918213
 31
0.0
  0
LINE
  5
    8B
  8
0
  6
CONTINUOUS
 62
     3
 10
49.1758875846863
 20
69.4834384918213
 30
0.0
 11
52.1303108618932
 21
68.9624940618696
 31
0.0
  0
LINE
  5
    8C
  8
0
  6
CONTINUOUS
 62
     3
 10
84.2214643074792
 20
68.9624940618696
 30
0.0
 11
87.1758875846861
 21
69.4834384918213
 31
0.0
  0
LINE
  5
    8D
  8
0
  6
CONTINUOUS
 62
     3
 10
87.1758875846861
 20
69.4834384918213
 30
0.0
 11
84.2214643074792
 21
70.004382921773
 31
0.0
  0
ENDBLK
  5
    8E
  8
0
  6
CONTINUOUS
 62
     3
  0
BLOCK
  5
    8F
  8
0
  6
CONTINUOUS
 62
     3
  2
*UDIM298
 70
    65
 10
0.0
 20
0.0
 30
0.0
  3
*UDIM298
  0
TEXT
  5
    90
  8
0
  6
CONTINUOUS
 62
     3
 10
74.4008871664603
 20
61.4962024688721
 30
0.0
 40
3.00000002980232
  1
40
 41
0.933333333333333
 72
     1
 11
76.9008871912956
 21
62.9962024837732
 31
0.0
 73
     2
  0
LINE
  5
    91
  8
0
  6
CONTINUOUS
 62
     3
 10
67.1758875846863
 20
34.485998916626
 30
0.0
 11
67.1758875846863
 21
62.4962024688721
 31
0.0
  0
LINE
  5
    92
  8
0
  6
CONTINUOUS
 62
     3
 10
87.1758875846861
 20
50.6807605172001
 30
0.0
 11
87.1758875846861
 21
62.4962024688721
 31
0.0
  0
LINE
  5
    93
  8
0
  6
CONTINUOUS
 62
     3
 10
67.1758875846863
 20
60.4962024688721
 30
0.0
 11
87.1758875846861
 21
60.4962024688721
 31
0.0
  0
LINE
  5
    94
  8
0
  6
CONTINUOUS
 62
     3
 10
70.1303108618932
 20
61.0171468988237
 30
0.0
 11
67.1758875846863
 21
60.4962024688721
 31
0.0
  0
LINE
  5
    95
  8
0
  6
CONTINUOUS
 62
     3
 10
67.1758875846863
 20
60.4962024688721
 30
0.0
 11
70.1303108618932
 21
59.9752580389204
 31
0.0
  0
LINE
  5
    96
  8
0
  6
CONTINUOUS
 62
     3
 10
84.2214643074792
 20
59.9752580389204
 30
0.0
 11
87.1758875846861
 21
60.4962024688721
 31
0.0
  0
LINE
  5
    97
  8
0
  6
CONTINUOUS
 62
     3
 10
87.1758875846861
 20
60.4962024688721
 30
0.0
 11
84.2214643074792
 21
61.0171468988237
 31
0.0
  0
ENDBLK
  5
    98
  8
0
  6
CONTINUOUS
 62
     3
  0
BLOCK
  5
    99
  8
0
  6
CONTINUOUS
 62
     3
  2
*UDIM299
 70
    65
 10
0.0
 20
0.0
 30
0.0
  3
*UDIM299
  0
TEXT
  5
    9A
  8
0
  6
CONTINUOUS
 62
     3
 10
43.3396148681672
 20
-12.0889762292287
 30
0.0
 40
3.00000002980232
  1
39
 50
90.0
 41
0.933333333333333
 72
     1
 11
41.8396148532629
 21
-9.58897620439529
 31
0.0
 73
     2
  0
LINE
  5
    9B
  8
0
  6
CONTINUOUS
 62
     3
 10
63.2776043143116
 20
-19.063985824585
 30
0.0
 11
42.3396148681641
 21
-19.063985824585
 31
0.0
  0
LINE
  5
    9C
  8
0
  6
CONTINUOUS
 62
     3
 10
77.0929017966539
 20
0.436033248901392
 30
0.0
 11
42.3396148681641
 21
0.436033248901392
 31
0.0
  0
LINE
  5
    9D
  8
0
  6
CONTINUOUS
 62
     3
 10
44.3396148681641
 20
-19.063985824585
 30
0.0
 11
44.3396148681641
 21
0.436033248901392
 31
0.0
  0
LINE
  5
    9E
  8
0
  6
CONTINUOUS
 62
     3
 10
43.8186704382124
 20
-16.109562547378
 30
0.0
 11
44.3396148681641
 21
-19.063985824585
 31
0.0
  0
LINE
  5
    9F
  8
0
  6
CONTINUOUS
 62
     3
 10
44.3396148681641
 20
-19.063985824585
 30
0.0
 11
44.8605592981157
 21
-16.109562547378
 31
0.0
  0
LINE
  5
    A0
  8
0
  6
CONTINUOUS
 62
     3
 10
44.8605592981157
 20
-2.51839002830557
 30
0.0
 11
44.3396148681641
 21
0.436033248901392
 31
0.0
  0
LINE
  5
    A1
  8
0
  6
CONTINUOUS
 62
     3
 10
44.3396148681641
 20
0.436033248901392
 30
0.0
 11
43.8186704382124
 21
-2.51839002830557
 31
0.0
  0
ENDBLK
  5
    A2
  8
0
  6
CONTINUOUS
 62
     3
  0
BLOCK
  5
    A3
  8
0
  6
CONTINUOUS
 62
     3
  2
*UDIM300
 70
    65
 10
0.0
 20
0.0
 30
0.0
  3
*UDIM300
  0
TEXT
  5
    A4
  8
0
  6
CONTINUOUS
 62
     3
 10
167.518939971927
 20
-14.83897432188
 30
0.0
 40
3.00000002980232
  1
50
 50
90.0
 41
0.933333333333333
 72
     1
 11
166.018939957023
 21
-12.3389742970467
 31
0.0
 73
     2
  0
LINE
  5
    A5
  8
0
  6
CONTINUOUS
 62
     3
 10
148.675872921944
 20
-24.5639820098877
 30
0.0
 11
170.518939971924
 21
-24.5639820098877
 31
0.0
  0
LINE
  5
    A6
  8
0
  6
CONTINUOUS
 62
     3
 10
168.518939971924
 20
-24.5639820098877
 30
0.0
 11
168.518939971924
 21
0.436033248901392
 31
0.0
  0
LINE
  5
    A7
  8
0
  6
CONTINUOUS
 62
     3
 10
167.997995541972
 20
-21.6095587326807
 30
0.0
 11
168.518939971924
 21
-24.5639820098877
 31
0.0
  0
LINE
  5
    A8
  8
0
  6
CONTINUOUS
 62
     3
 10
168.518939971924
 20
-24.5639820098877
 30
0.0
 11
169.039884401876
 21
-21.6095587326807
 31
0.0
  0
LINE
  5
    A9
  8
0
  6
CONTINUOUS
 62
     3
 10
169.039884401876
 20
-2.51839002830557
 30
0.0
 11
168.518939971924
 21
0.436033248901392
 31
0.0
  0
LINE
  5
    AA
  8
0
  6
CONTINUOUS
 62
     3
 10
168.518939971924
 20
0.436033248901392
 30
0.0
 11
167.997995541972
 21
-2.51839002830557
 31
0.0
  0
ENDBLK
  5
    AB
  8
0
  6
CONTINUOUS
 62
     3
  0
BLOCK
  5
    AC
  8
0
  6
CONTINUOUS
 62
     3
  2
*UDIM301
 70
    65
 10
0.0
 20
0.0
 30
0.0
  3
*UDIM301
  0
TEXT
  5
    AD
  8
0
  6
CONTINUOUS
 62
     3
 10
72.6657358596721
 20
54.3130359649658
 30
0.0
 40
3.00000002980232
  1
_2.5
 41
0.933333333333333
 72
     1
 11
77.9657359123229
 21
55.813035979867
 31
0.0
 73
     2
  0
LINE
  5
    AE
  8
0
  6
CONTINUOUS
 62
     3
 10
86.1758875846861
 20
50.922215924656
 30
0.0
 11
86.1758875846861
 21
55.3130359649658
 31
0.0
  0
LINE
  5
    AF
  8
0
  6
CONTINUOUS
 62
     3
 10
87.1758875846861
 20
50.6807605172001
 30
0.0
 11
87.1758875846861
 21
55.3130359649658
 31
0.0
  0
LINE
  5
    B0
  8
0
  6
CONTINUOUS
 62
     3
 10
72.6657358596721
 20
53.3130359649658
 30
0.0
 11
87.1758875846861
 21
53.3130359649658
 31
0.0
  0
LINE
  5
    B1
  8
0
  6
CONTINUOUS
 62
     3
 10
83.2214643074792
 20
52.7920915350142
 30
0.0
 11
86.1758875846861
 21
53.3130359649658
 31
0.0
  0
LINE
  5
    B2
  8
0
  6
CONTINUOUS
 62
     3
 10
86.1758875846861
 20
53.3130359649658
 30
0.0
 11
83.2214643074792
 21
53.8339803949175
 31
0.0
  0
LINE
  5
    B3
  8
0
  6
CONTINUOUS
 62
     3
 10
90.1303108618931
 20
53.8339803949175
 30
0.0
 11
87.1758875846861
 21
53.3130359649658
 31
0.0
  0
LINE
  5
    B4
  8
0
  6
CONTINUOUS
 62
     3
 10
87.1758875846861
 20
53.3130359649658
 30
0.0
 11
90.1303108618931
 21
52.7920915350142
 31
0.0
  0
ENDBLK
  5
    B5
  8
0
  6
CONTINUOUS
 62
     3
  0
BLOCK
  5
    B6
  8
0
  6
CONTINUOUS
 62
     3
  2
*UDIM302
 70
    65
 10
0.0
 20
0.0
 30
0.0
  3
*UDIM302
  0
TEXT
  5
    B7
  8
0
  6
CONTINUOUS
 62
     3
 10
77.9258687220699
 20
-133.420073645726
 30
0.0
 40
3.00000002980232
  1
26
 50
359.999999896069
 41
0.933333333333333
 72
     1
 11
80.4258687496185
 21
-131.920073635348
 31
0.0
 73
     2
  0
LINE
  5
    B8
  8
0
  6
CONTINUOUS
 62
     3
 10
86.1758651733398
 20
-122.190894863945
 30
0.0
 11
86.1758651733398
 21
-136.420073650249
 31
0.0
  0
LINE
  5
    B9
  8
0
  6
CONTINUOUS
 62
     3
 10
74.6758723258972
 20
-115.811253356934
 30
0.0
 11
74.6758723258972
 21
-136.420073650249
 31
0.0
  0
LINE
  5
    BA
  8
0
  6
CONTINUOUS
 62
     3
 10
91.1758651733398
 20
-134.420073650249
 30
0.0
 11
69.6758723258972
 21
-134.420073650249
 31
0.0
  0
LINE
  5
    BB
  8
0
  6
CONTINUOUS
 62
     3
 10
89.0736426465504
 20
-133.64361649383
 30
0.0
 11
86.1758651733398
 21
-134.420073650249
 31
0.0
  0
LINE
  5
    BC
  8
0
  6
CONTINUOUS
 62
     3
 10
86.1758651733398
 20
-134.420073650249
 30
0.0
 11
89.0736426465504
 21
-135.196530806667
 31
0.0
  0
LINE
  5
    BD
  8
0
  6
CONTINUOUS
 62
     3
 10
71.7780948526867
 20
-135.196530806667
 30
0.0
 11
74.6758723258972
 21
-134.420073650249
 31
0.0
  0
LINE
  5
    BE
  8
0
  6
CONTINUOUS
 62
     3
 10
74.6758723258972
 20
-134.420073650249
 30
0.0
 11
71.7780948526867
 21
-133.64361649383
 31
0.0
  0
ENDBLK
  5
    BF
  8
0
  6
CONTINUOUS
 62
     3
  0
BLOCK
  5
    C0
  8
0
  6
CONTINUOUS
 62
     3
  2
*UDIM303
 70
    65
 10
0.0
 20
0.0
 30
0.0
  3
*UDIM303
  0
TEXT
  5
    C1
  8
0
  6
CONTINUOUS
 62
     3
 10
66.1258686942544
 20
-142.281064024527
 30
0.0
 40
3.00000002980232
  1
65.5
 50
359.999999896069
 41
0.933333333333333
 72
     1
 11
71.4258687496185
 21
-140.781064019213
 31
0.0
 73
     2
  0
LINE
  5
    C2
  8
0
  6
CONTINUOUS
 62
     3
 10
86.1758651733398
 20
-122.190894863945
 30
0.0
 11
86.1758651733398
 21
-145.281064034115
 31
0.0
  0
LINE
  5
    C3
  8
0
  6
CONTINUOUS
 62
     3
 10
56.6758723258972
 20
-103.261268615723
 30
0.0
 11
56.6758723258972
 21
-145.281064034115
 31
0.0
  0
LINE
  5
    C4
  8
0
  6
CONTINUOUS
 62
     3
 10
86.1758651733398
 20
-143.281064034115
 30
0.0
 11
56.6758723258972
 21
-143.281064034115
 31
0.0
  0
LINE
  5
    C5
  8
0
  6
CONTINUOUS
 62
     3
 10
83.2780877001293
 20
-144.057521190533
 30
0.0
 11
86.1758651733398
 21
-143.281064034115
 31
0.0
  0
LINE
  5
    C6
  8
0
  6
CONTINUOUS
 62
     3
 10
86.1758651733398
 20
-143.281064034115
 30
0.0
 11
83.2780877001293
 21
-142.504606877696
 31
0.0
  0
LINE
  5
    C7
  8
0
  6
CONTINUOUS
 62
     3
 10
59.5736497991078
 20
-142.504606877696
 30
0.0
 11
56.6758723258972
 21
-143.281064034115
 31
0.0
  0
LINE
  5
    C8
  8
0
  6
CONTINUOUS
 62
     3
 10
56.6758723258972
 20
-143.281064034115
 30
0.0
 11
59.5736497991078
 21
-144.057521190533
 31
0.0
  0
ENDBLK
  5
    C9
  8
0
  6
CONTINUOUS
 62
     3
  0
BLOCK
  5
    CA
  8
0
  6
CONTINUOUS
 62
     7
  2
*UDIM304
 70
    65
 10
0.0
 20
0.0
 30
0.0
  3
*UDIM304
  0
TEXT
  5
    CB
  8
0
  6
CONTINUOUS
 62
     7
 10
43.8430862381566
 20
-94.7862685598229
 30
0.0
 40
3.00000002980232
  1
25
 50
449.999999896069
 41
0.933333333333333
 72
     1
 11
42.3430862277746
 21
-92.2862685322762
 31
0.0
 73
     2
  0
LINE
  5
    CC
  8
0
  6
CONTINUOUS
 62
     3
 10
63.1718237076312
 20
-85.7612686157227
 30
0.0
 11
42.8430862426758
 21
-85.7612686157227
 31
0.0
  0
LINE
  5
    CD
  8
0
  6
CONTINUOUS
 62
     3
 10
63.2775890555225
 20
-98.2612686157227
 30
0.0
 11
42.8430862426758
 21
-98.2612686157227
 31
0.0
  0
LINE
  5
    CE
  8
0
  6
CONTINUOUS
 62
     3
 10
44.8430862426758
 20
-85.7612686157227
 30
0.0
 11
44.8430862426758
 21
-98.2612686157227
 31
0.0
  0
LINE
  5
    CF
  8
0
  6
CONTINUOUS
 62
     3
 10
45.3640306726275
 20
-88.7156918929296
 30
0.0
 11
44.8430862426758
 21
-85.7612686157227
 31
0.0
  0
LINE
  5
    D0
  8
0
  6
CONTINUOUS
 62
     3
 10
44.8430862426758
 20
-85.7612686157227
 30
0.0
 11
44.3221418127241
 21
-88.7156918929296
 31
0.0
  0
LINE
  5
    D1
  8
0
  6
CONTINUOUS
 62
     3
 10
44.3221418127241
 20
-95.3068453385157
 30
0.0
 11
44.8430862426758
 21
-98.2612686157227
 31
0.0
  0
LINE
  5
    D2
  8
0
  6
CONTINUOUS
 62
     3
 10
44.8430862426758
 20
-98.2612686157227
 30
0.0
 11
45.3640306726275
 21
-95.3068453385157
 31
0.0
  0
ENDBLK
  5
    D3
  8
0
  6
CONTINUOUS
 62
     7
  0
BLOCK
  5
    D4
  8
0
  6
CONTINUOUS
 62
     7
  2
*UDIM305
 70
    65
 10
0.0
 20
0.0
 30
0.0
  3
*UDIM305
  0
TEXT
  5
    D5
  8
0
  6
CONTINUOUS
 62
     7
 10
43.8430862381566
 20
-107.286267606149
 30
0.0
 40
3.00000002980232
  1
25
 50
449.999999896069
 41
0.933333333333333
 72
     1
 11
42.3430862277746
 21
-104.786267578602
 31
0.0
 73
     2
  0
LINE
  5
    D6
  8
0
  6
CONTINUOUS
 62
     3
 10
61.8388075493646
 20
-110.761268615723
 30
0.0
 11
42.8430862426758
 21
-110.761268615723
 31
0.0
  0
LINE
  5
    D7
  8
0
  6
CONTINUOUS
 62
     3
 10
44.8430862426758
 20
-98.2612686157227
 30
0.0
 11
44.8430862426758
 21
-110.761268615723
 31
0.0
  0
LINE
  5
    D8
  8
0
  6
CONTINUOUS
 62
     3
 10
45.3640306726275
 20
-101.21569189293
 30
0.0
 11
44.8430862426758
 21
-98.2612686157227
 31
0.0
  0
LINE
  5
    D9
  8
0
  6
CONTINUOUS
 62
     3
 10
44.8430862426758
 20
-98.2612686157227
 30
0.0
 11
44.3221418127241
 21
-101.21569189293
 31
0.0
  0
LINE
  5
    DA
  8
0
  6
CONTINUOUS
 62
     3
 10
44.3221418127241
 20
-107.806845338516
 30
0.0
 11
44.8430862426758
 21
-110.761268615723
 31
0.0
  0
LINE
  5
    DB
  8
0
  6
CONTINUOUS
 62
     3
 10
44.8430862426758
 20
-110.761268615723
 30
0.0
 11
45.3640306726275
 21
-107.806845338516
 31
0.0
  0
ENDBLK
  5
    DC
  8
0
  6
CONTINUOUS
 62
     7
  0
BLOCK
  5
    DD
  8
0
  6
CONTINUOUS
 62
     3
  2
*UDIM306
 70
    65
 10
0.0
 20
0.0
 30
0.0
  3
*UDIM306
  0
TEXT
  5
    DE
  8
0
  6
CONTINUOUS
 62
     3
 10
71.9530675635591
 20
-74.2533774333492
 30
0.0
 40
3.00000002980232
  1
M8
 50
449.999999896069
 41
0.933333333333333
 72
     1
 11
70.4530675531771
 21
-71.7533774058024
 31
0.0
 73
     2
  0
LINE
  5
    DF
  8
0
  6
CONTINUOUS
 62
     3
 10
72.9530675680782
 20
-69.2533773809671
 30
0.0
 11
72.9530675680782
 21
-87.711284383138
 31
0.0
  0
LINE
  5
    E0
  8
0
  6
CONTINUOUS
 62
     3
 10
72.4321231381266
 20
-80.7568605973048
 30
0.0
 11
72.9530675680782
 21
-83.7112838745117
 31
0.0
  0
LINE
  5
    E1
  8
0
  6
CONTINUOUS
 62
     3
 10
72.9530675680782
 20
-83.7112838745117
 30
0.0
 11
73.4740119980299
 21
-80.7568605973048
 31
0.0
  0
LINE
  5
    E2
  8
0
  6
CONTINUOUS
 62
     3
 10
73.4740119980299
 20
-90.665707660345
 30
0.0
 11
72.9530675680782
 21
-87.711284383138
 31
0.0
  0
LINE
  5
    E3
  8
0
  6
CONTINUOUS
 62
     3
 10
72.9530675680782
 20
-87.711284383138
 30
0.0
 11
72.4321231381266
 21
-90.665707660345
 31
0.0
  0
ENDBLK
  5
    E4
  8
0
  6
CONTINUOUS
 62
     3
  0
BLOCK
  5
    E5
  8
0
  6
CONTINUOUS
 62
     3
  2
*UDIM307
 70
    65
 10
0.0
 20
0.0
 30
0.0
  3
*UDIM307
  0
TEXT
  5
    E6
  8
0
  6
CONTINUOUS
 62
     3
 10
33.8418485211292
 20
-137.948805100817
 30
0.0
 40
3.00000002980232
  1
144
 50
449.999999844103
 41
0.933333333333333
 72
     1
 11
32.3418485168151
 21
-134.048805058002
 31
0.0
 73
     2
  0
LINE
  5
    E7
  8
0
  6
CONTINUOUS
 62
     3
 10
-24.8444557189941
 20
-97.7738037109375
 30
0.0
 11
36.8418485317163
 21
-97.7738037109375
 31
0.0
  0
LINE
  5
    E8
  8
0
  6
CONTINUOUS
 62
     3
 10
-23.5944557189941
 20
-169.773803710938
 30
0.0
 11
36.8418485317163
 21
-169.773803710938
 31
0.0
  0
LINE
  5
    E9
  8
0
  6
CONTINUOUS
 62
     3
 10
34.8418485317163
 20
-97.7738037109375
 30
0.0
 11
34.8418485317163
 21
-169.773803710938
 31
0.0
  0
LINE
  5
    EA
  8
0
  6
CONTINUOUS
 62
     3
 10
35.3627929616679
 20
-100.728226988144
 30
0.0
 11
34.8418485317163
 21
-97.7738037109375
 31
0.0
  0
LINE
  5
    EB
  8
0
  6
CONTINUOUS
 62
     3
 10
34.8418485317163
 20
-97.7738037109375
 30
0.0
 11
34.3209041017646
 21
-100.728226988144
 31
0.0
  0
LINE
  5
    EC
  8
0
  6
CONTINUOUS
 62
     3
 10
34.3209041017646
 20
-166.819380433731
 30
0.0
 11
34.8418485317163
 21
-169.773803710938
 31
0.0
  0
LINE
  5
    ED
  8
0
  6
CONTINUOUS
 62
     3
 10
34.8418485317163
 20
-169.773803710938
 30
0.0
 11
35.3627929616679
 21
-166.819380433731
 31
0.0
  0
ENDBLK
  5
    EE
  8
0
  6
CONTINUOUS
 62
     3
  0
BLOCK
  5
    EF
  8
0
  6
CONTINUOUS
 62
     3
  2
*UDIM308
 70
    65
 10
0.0
 20
0.0
 30
0.0
  3
*UDIM308
  0
TEXT
  5
    F0
  8
0
  6
CONTINUOUS
 62
     3
 10
26.7612194688489
 20
-137.94880128612
 30
0.0
 40
3.00000002980232
  1
102
 50
449.999999844103
 41
0.933333333333333
 72
     1
 11
25.2612194645348
 21
-134.048801243305
 31
0.0
 73
     2
  0
LINE
  5
    F1
  8
0
  6
CONTINUOUS
 62
     3
 10
-12.0944557189941
 20
-108.273803710938
 30
0.0
 11
29.761219479436
 21
-108.273803710938
 31
0.0
  0
LINE
  5
    F2
  8
0
  6
CONTINUOUS
 62
     3
 10
-12.0944557189941
 20
-159.273803710938
 30
0.0
 11
29.761219479436
 21
-159.273803710938
 31
0.0
  0
LINE
  5
    F3
  8
0
  6
CONTINUOUS
 62
     3
 10
27.761219479436
 20
-108.273803710938
 30
0.0
 11
27.761219479436
 21
-159.273803710938
 31
0.0
  0
LINE
  5
    F4
  8
0
  6
CONTINUOUS
 62
     3
 10
28.2821639093877
 20
-111.228226988144
 30
0.0
 11
27.761219479436
 21
-108.273803710938
 31
0.0
  0
LINE
  5
    F5
  8
0
  6
CONTINUOUS
 62
     3
 10
27.761219479436
 20
-108.273803710938
 30
0.0
 11
27.2402750494843
 21
-111.228226988144
 31
0.0
  0
LINE
  5
    F6
  8
0
  6
CONTINUOUS
 62
     3
 10
27.2402750494843
 20
-156.319380433731
 30
0.0
 11
27.761219479436
 21
-159.273803710938
 31
0.0
  0
LINE
  5
    F7
  8
0
  6
CONTINUOUS
 62
     3
 10
27.761219479436
 20
-159.273803710938
 30
0.0
 11
28.2821639093877
 21
-156.319380433731
 31
0.0
  0
ENDBLK
  5
    F8
  8
0
  6
CONTINUOUS
 62
     3
  0
BLOCK
  5
    F9
  8
0
  6
CONTINUOUS
 62
     3
  2
*UDIM309
 70
    65
 10
0.0
 20
0.0
 30
0.0
  3
*UDIM309
  0
TEXT
  5
    FA
  8
0
  6
CONTINUOUS
 62
     3
 10
12.3993435449409
 20
-136.548803656398
 30
0.0
 40
3.00000002980232
  1
35
 50
449.999999844103
 41
0.933333333333333
 72
     1
 11
10.8993435368263
 21
-134.048803627491
 31
0.0
 73
     2
  0
LINE
  5
    FB
  8
0
  6
CONTINUOUS
 62
     3
 10
-17.3444557189941
 20
-125.023803710938
 30
0.0
 11
15.3993435517274
 21
-125.023803710938
 31
0.0
  0
LINE
  5
    FC
  8
0
  6
CONTINUOUS
 62
     3
 10
-18.5944557189941
 20
-142.523803710938
 30
0.0
 11
15.3993435517274
 21
-142.523803710938
 31
0.0
  0
LINE
  5
    FD
  8
0
  6
CONTINUOUS
 62
     3
 10
13.3993435517274
 20
-125.023803710938
 30
0.0
 11
13.3993435517274
 21
-142.523803710938
 31
0.0
  0
LINE
  5
    FE
  8
0
  6
CONTINUOUS
 62
     3
 10
13.9202879816791
 20
-127.978226988144
 30
0.0
 11
13.3993435517274
 21
-125.023803710938
 31
0.0
  0
LINE
  5
    FF
  8
0
  6
CONTINUOUS
 62
     3
 10
13.3993435517274
 20
-125.023803710938
 30
0.0
 11
12.8783991217758
 21
-127.978226988144
 31
0.0
  0
LINE
  5
   100
  8
0
  6
CONTINUOUS
 62
     3
 10
12.8783991217758
 20
-139.569380433731
 30
0.0
 11
13.3993435517274
 21
-142.523803710938
 31
0.0
  0
LINE
  5
   101
  8
0
  6
CONTINUOUS
 62
     3
 10
13.3993435517274
 20
-142.523803710938
 30
0.0
 11
13.9202879816791
 21
-139.569380433731
 31
0.0
  0
ENDBLK
  5
   102
  8
0
  6
CONTINUOUS
 62
     3
  0
BLOCK
  5
   103
  8
0
  6
CONTINUOUS
 62
     7
  2
*UDIM310
 70
    65
 10
0.0
 20
0.0
 30
0.0
  3
*UDIM310
  0
TEXT
  5
   104
  8
0
  6
CONTINUOUS
 62
     7
 10
-8.85473960986564
 20
-189.785144541724
 30
0.0
 40
3.00000002980232
  1
4.5
 50
312.569715100694
 41
0.933333333333333
 72
     1
 11
-5.11175892840217
 21
-191.642587936579
 31
0.0
 73
     2
  0
TEXT
  5
   105
  8
0
  6
CONTINUOUS
 62
     7
 10
-11.5606868245232
 20
-186.839325485858
 30
0.0
 40
3.00000002980232
  1
Ø
 50
312.569715100694
 41
1.2
 72
     1
 11
-9.44127446820406
 21
-186.929277435746
 31
0.0
 73
     2
  0
TEXT
  5
   106
  8
0
  6
CONTINUOUS
 62
     7
 10
-19.407933738272
 20
-178.296450190171
 30
0.0
 40
3.00000002980232
  1
M4 o
 50
312.569715100694
 41
0.933333333333333
 72
     1
 11
-14.7178715338077
 21
-181.184930261256
 31
0.0
 73
     2
  0
LINE
  5
   107
  8
0
  6
CONTINUOUS
 62
     7
 10
-28.5944557189941
 20
-169.773803710938
 30
0.0
 11
-4.31459730216979
 21
-196.205978531122
 31
0.0
  0
LINE
  5
   108
  8
0
  6
CONTINUOUS
 62
     3
 10
-25.3858351506152
 20
-172.119077467793
 30
0.0
 11
-27.9179689215703
 21
-170.51025847052
 31
0.0
  0
LINE
  5
   109
  8
0
  6
CONTINUOUS
 62
     3
 10
-27.9179689215703
 20
-170.51025847052
 30
0.0
 11
-26.5294862875274
 21
-173.169603497958
 31
0.0
  0
ENDBLK
  5
   10A
  8
0
  6
CONTINUOUS
 62
     7
  0
BLOCK
  5
   10B
  8
0
  6
CONTINUOUS
 62
     7
  2
*UDIM311
 70
    65
 10
0.0
 20
0.0
 30
0.0
  3
*UDIM311
  0
TEXT
  5
   10C
  8
0
  6
CONTINUOUS
 62
     7
 10
19.6805904203691
 20
-141.868931799232
 30
0.0
 40
3.00000002980232
  1
60
 50
449.999999844103
 41
0.933333333333333
 72
     1
 11
18.1805904122545
 21
-139.368931770325
 31
0.0
 73
     2
  0
TEXT
  5
   10D
  8
0
  6
CONTINUOUS
 62
     7
 10
19.6805904127681
 20
-135.868931749561
 30
0.0
 40
3.00000002980232
  1
 MAX
 50
449.999999844103
 41
0.933333333333333
 72
     1
 11
18.1805904122545
 21
-130.568931692839
 31
0.0
 73
     2
  0
LINE
  5
   10E
  8
0
  6
CONTINUOUS
 62
     7
 10
-3.3323860851928
 20
-118.773803710938
 30
0.0
 11
22.6805904271557
 21
-118.773803710938
 31
0.0
  0
LINE
  5
   10F
  8
0
  6
CONTINUOUS
 62
     7
 10
-3.3323860851928
 20
-148.773803710938
 30
0.0
 11
22.6805904271557
 21
-148.773803710938
 31
0.0
  0
LINE
  5
   110
  8
0
  6
CONTINUOUS
 62
     7
 10
20.6805904271557
 20
-118.773803710938
 30
0.0
 11
20.6805904271557
 21
-148.773803710938
 31
0.0
  0
LINE
  5
   111
  8
0
  6
CONTINUOUS
 62
     3
 10
21.4570475835742
 20
-121.671581184148
 30
0.0
 11
20.6805904271557
 21
-118.773803710938
 31
0.0
  0
LINE
  5
   112
  8
0
  6
CONTINUOUS
 62
     3
 10
20.6805904271557
 20
-118.773803710938
 30
0.0
 11
19.9041332707371
 21
-121.671581184148
 31
0.0
  0
LINE
  5
   113
  8
0
  6
CONTINUOUS
 62
     3
 10
19.9041332707371
 20
-145.876026237727
 30
0.0
 11
20.6805904271557
 21
-148.773803710938
 31
0.0
  0
LINE
  5
   114
  8
0
  6
CONTINUOUS
 62
     3
 10
20.6805904271557
 20
-148.773803710938
 30
0.0
 11
21.4570475835742
 21
-145.876026237727
 31
0.0
  0
ENDBLK
  5
   115
  8
0
  6
CONTINUOUS
 62
     7
  0
BLOCK
  5
   116
  8
0
  6
CONTINUOUS
 62
     3
  2
*UDIM312
 70
    65
 10
0.0
 20
0.0
 30
0.0
  3
*UDIM312
  0
TEXT
  5
   117
  8
0
  6
CONTINUOUS
 62
     3
 10
-78.3740272589838
 20
-126.798804610073
 30
0.0
 40
3.00000002980232
  1
63
 50
449.999999844103
 41
0.933333333333333
 72
     1
 11
-79.8740272670984
 21
-124.298804581165
 31
0.0
 73
     2
  0
LINE
  5
   118
  8
0
  6
CONTINUOUS
 62
     3
 10
-61.0944557189941
 20
-108.273803710938
 30
0.0
 11
-79.3740272521973
 21
-108.273803710938
 31
0.0
  0
LINE
  5
   119
  8
0
  6
CONTINUOUS
 62
     3
 10
-76.0727763745233
 20
-139.773803710938
 30
0.0
 11
-79.3740272521973
 21
-139.773803710938
 31
0.0
  0
LINE
  5
   11A
  8
0
  6
CONTINUOUS
 62
     3
 10
-77.3740272521973
 20
-108.273803710938
 30
0.0
 11
-77.3740272521973
 21
-139.773803710938
 31
0.0
  0
LINE
  5
   11B
  8
0
  6
CONTINUOUS
 62
     3
 10
-76.8530828222456
 20
-111.228226988144
 30
0.0
 11
-77.3740272521973
 21
-108.273803710938
 31
0.0
  0
LINE
  5
   11C
  8
0
  6
CONTINUOUS
 62
     3
 10
-77.3740272521973
 20
-108.273803710938
 30
0.0
 11
-77.8949716821489
 21
-111.228226988144
 31
0.0
  0
LINE
  5
   11D
  8
0
  6
CONTINUOUS
 62
     3
 10
-77.8949716821489
 20
-136.819380433731
 30
0.0
 11
-77.3740272521973
 21
-139.773803710938
 31
0.0
  0
LINE
  5
   11E
  8
0
  6
CONTINUOUS
 62
     3
 10
-77.3740272521973
 20
-139.773803710938
 30
0.0
 11
-76.8530828222456
 21
-136.819380433731
 31
0.0
  0
ENDBLK
  5
   11F
  8
0
  6
CONTINUOUS
 62
     3
  0
BLOCK
  5
   120
  8
0
  6
CONTINUOUS
 62
     3
  2
*UDIM313
 70
    65
 10
0.0
 20
0.0
 30
0.0
  3
*UDIM313
  0
TEXT
  5
   121
  8
0
  6
CONTINUOUS
 62
     3
 10
-87.5474891730464
 20
-121.548802702724
 30
0.0
 40
3.00000002980232
  1
84
 50
449.999999844103
 41
0.933333333333333
 72
     1
 11
-89.0474891811609
 21
-119.048802673817
 31
0.0
 73
     2
  0
LINE
  5
   122
  8
0
  6
CONTINUOUS
 62
     3
 10
-49.5944557189941
 20
-97.7738037109375
 30
0.0
 11
-88.5474891662598
 21
-97.7738037109375
 31
0.0
  0
LINE
  5
   123
  8
0
  6
CONTINUOUS
 62
     3
 10
-76.0727763745233
 20
-139.773803710938
 30
0.0
 11
-88.5474891662598
 21
-139.773803710938
 31
0.0
  0
LINE
  5
   124
  8
0
  6
CONTINUOUS
 62
     3
 10
-86.5474891662598
 20
-97.7738037109375
 30
0.0
 11
-86.5474891662598
 21
-139.773803710938
 31
0.0
  0
LINE
  5
   125
  8
0
  6
CONTINUOUS
 62
     3
 10
-86.0265447363081
 20
-100.728226988144
 30
0.0
 11
-86.5474891662598
 21
-97.7738037109375
 31
0.0
  0
LINE
  5
   126
  8
0
  6
CONTINUOUS
 62
     3
 10
-86.5474891662598
 20
-97.7738037109375
 30
0.0
 11
-87.0684335962114
 21
-100.728226988144
 31
0.0
  0
LINE
  5
   127
  8
0
  6
CONTINUOUS
 62
     3
 10
-87.0684335962114
 20
-136.819380433731
 30
0.0
 11
-86.5474891662598
 21
-139.773803710938
 31
0.0
  0
LINE
  5
   128
  8
0
  6
CONTINUOUS
 62
     3
 10
-86.5474891662598
 20
-139.773803710938
 30
0.0
 11
-86.0265447363081
 21
-136.819380433731
 31
0.0
  0
ENDBLK
  5
   129
  8
0
  6
CONTINUOUS
 62
     3
  0
BLOCK
  5
   12A
  8
0
  6
CONTINUOUS
 62
     3
  2
*UDIM314
 70
    65
 10
0.0
 20
0.0
 30
0.0
  3
*UDIM314
  0
TEXT
  5
   12B
  8
0
  6
CONTINUOUS
 62
     3
 10
-28.2478523360265
 20
-136.823805279631
 30
0.0
 40
3.00000002980232
  1
5,5
 50
449.999999844103
 41
0.933333333333333
 72
     1
 11
-29.7478523403406
 21
-132.923805236816
 31
0.0
 73
     2
  0
LINE
  5
   12C
  8
0
  6
CONTINUOUS
 62
     3
 10
-27.2478523254395
 20
-129.023805198073
 30
0.0
 11
-27.2478523254395
 21
-142.523803710938
 31
0.0
  0
LINE
  5
   12D
  8
0
  6
CONTINUOUS
 62
     3
 10
-27.7687967553911
 20
-136.819380433731
 30
0.0
 11
-27.2478523254395
 21
-139.773803710938
 31
0.0
  0
LINE
  5
   12E
  8
0
  6
CONTINUOUS
 62
     3
 10
-27.2478523254395
 20
-139.773803710938
 30
0.0
 11
-26.7269078954878
 21
-136.819380433731
 31
0.0
  0
LINE
  5
   12F
  8
0
  6
CONTINUOUS
 62
     3
 10
-26.7269078954878
 20
-145.478226988144
 30
0.0
 11
-27.2478523254395
 21
-142.523803710938
 31
0.0
  0
LINE
  5
   130
  8
0
  6
CONTINUOUS
 62
     3
 10
-27.2478523254395
 20
-142.523803710938
 30
0.0
 11
-27.7687967553911
 21
-145.478226988144
 31
0.0
  0
ENDBLK
  5
   131
  8
0
  6
CONTINUOUS
 62
     3
  0
BLOCK
  5
   132
  8
0
  6
CONTINUOUS
 62
     3
  2
*UDIM315
 70
    65
 10
0.0
 20
0.0
 30
0.0
  3
*UDIM315
  0
TEXT
  5
   133
  8
0
  6
CONTINUOUS
 62
     3
 10
-9.05862724918069
 20
-82.2286728219989
 30
0.0
 40
3.00000002980232
  1
13
 50
421.013495166557
 41
0.933333333333333
 72
     1
 11
-9.15921905110629
 21
-79.3149327069123
 31
0.0
 73
     2
  0
TEXT
  5
   134
  8
0
  6
CONTINUOUS
 62
     3
 10
-10.3912870777405
 20
-84.6341908501239
 30
0.0
 40
3.00000002980232
  1
R
 50
421.013495166557
 41
0.933333333333334
 72
     1
 11
-11.1703239308358
 21
-82.945078168784
 31
0.0
 73
     2
  0
LINE
  5
   135
  8
0
  6
CONTINUOUS
 62
     3
 10
-5.76087533937903
 20
-78.3396070096983
 30
0.0
 11
-26.4635863257033
 21
-115.709041638864
 31
0.0
  0
LINE
  5
   136
  8
0
  6
CONTINUOUS
 62
     3
 10
-20.1705687329693
 20
-105.424819195658
 30
0.0
 11
-19.1945323138636
 21
-102.588033530759
 31
0.0
  0
LINE
  5
   137
  8
0
  6
CONTINUOUS
 62
     3
 10
-19.1945323138636
 20
-102.588033530759
 30
0.0
 11
-21.0819442115384
 21
-104.919916102527
 31
0.0
  0
ENDBLK
  5
   138
  8
0
  6
CONTINUOUS
 62
     3
  0
BLOCK
  5
   139
  8
0
  6
CONTINUOUS
 62
     3
  2
*UDIM316
 70
    65
 10
0.0
 20
0.0
 30
0.0
  3
*UDIM316
  0
TEXT
  5
   13A
  8
0
  6
CONTINUOUS
 62
     3
 10
-37.6194551839909
 20
-62.1132507256322
 30
0.0
 40
3.00000002980232
  1
50
 50
359.999999844103
 41
0.933333333333333
 72
     1
 11
-35.1194551550818
 21
-60.6132507175207
 31
0.0
 73
     2
  0
LINE
  5
   13B
  8
0
  6
CONTINUOUS
 62
     3
 10
-47.3444554050777
 20
-119.023803710938
 30
0.0
 11
-47.3444372260008
 21
-61.113250732422
 31
0.0
  0
LINE
  5
   13C
  8
0
  6
CONTINUOUS
 62
     3
 10
-22.344455349918
 20
-119.023803710938
 30
0.0
 11
-22.3444339765166
 21
-61.113250732422
 31
0.0
  0
LINE
  5
   13D
  8
0
  6
CONTINUOUS
 62
     3
 10
-47.3444378538338
 20
-63.1132507324219
 30
0.0
 11
-22.3444347146689
 21
-63.1132507324219
 31
0.0
  0
LINE
  5
   13E
  8
0
  6
CONTINUOUS
 62
     3
 10
-44.3900145766268
 20
-62.5923063024702
 30
0.0
 11
-47.3444378538338
 21
-63.1132507324219
 31
0.0
  0
LINE
  5
   13F
  8
0
  6
CONTINUOUS
 62
     3
 10
-47.3444378538338
 20
-63.1132507324219
 30
0.0
 11
-44.3900145766268
 21
-63.6341951623735
 31
0.0
  0
LINE
  5
   140
  8
0
  6
CONTINUOUS
 62
     3
 10
-25.2988579918758
 20
-63.6341951623735
 30
0.0
 11
-22.3444347146689
 21
-63.1132507324219
 31
0.0
  0
LINE
  5
   141
  8
0
  6
CONTINUOUS
 62
     3
 10
-22.3444347146689
 20
-63.1132507324219
 30
0.0
 11
-25.2988579918758
 21
-62.5923063024702
 31
0.0
  0
ENDBLK
  5
   142
  8
0
  6
CONTINUOUS
 62
     3
  0
BLOCK
  5
   143
  8
0
  6
CONTINUOUS
 62
     3
  2
*UDIM317
 70
    65
 10
0.0
 20
0.0
 30
0.0
  3
*UDIM317
  0
TEXT
  5
   144
  8
0
  6
CONTINUOUS
 62
     3
 10
-37.6194551647238
 20
-70.9096412590794
 30
0.0
 40
3.00000002980232
  1
25
 50
359.999999844103
 41
0.933333333333333
 72
     1
 11
-35.1194551358147
 21
-69.409641250968
 31
0.0
 73
     2
  0
LINE
  5
   145
  8
0
  6
CONTINUOUS
 62
     3
 10
-41.0944554050777
 20
-91.7738037109376
 30
0.0
 11
-41.0944485415568
 21
-69.9096412658692
 31
0.0
  0
LINE
  5
   146
  8
0
  6
CONTINUOUS
 62
     3
 10
-28.5944554050777
 20
-91.7738037109376
 30
0.0
 11
-28.5944485415567
 21
-69.9096412658692
 31
0.0
  0
LINE
  5
   147
  8
0
  6
CONTINUOUS
 62
     3
 10
-41.0944491693897
 20
-71.9096412658691
 30
0.0
 11
-28.5944491693897
 21
-71.9096412658691
 31
0.0
  0
LINE
  5
   148
  8
0
  6
CONTINUOUS
 62
     3
 10
-38.1400258921828
 20
-71.3886968359175
 30
0.0
 11
-41.0944491693897
 21
-71.9096412658691
 31
0.0
  0
LINE
  5
   149
  8
0
  6
CONTINUOUS
 62
     3
 10
-41.0944491693897
 20
-71.9096412658691
 30
0.0
 11
-38.1400258921828
 21
-72.4305856958208
 31
0.0
  0
LINE
  5
   14A
  8
0
  6
CONTINUOUS
 62
     3
 10
-31.5488724465967
 20
-72.4305856958208
 30
0.0
 11
-28.5944491693897
 21
-71.9096412658691
 31
0.0
  0
LINE
  5
   14B
  8
0
  6
CONTINUOUS
 62
     3
 10
-28.5944491693897
 20
-71.9096412658691
 30
0.0
 11
-31.5488724465967
 21
-71.3886968359175
 31
0.0
  0
ENDBLK
  5
   14C
  8
0
  6
CONTINUOUS
 62
     3
  0
BLOCK
  5
   14D
  8
0
  6
CONTINUOUS
 62
     3
  2
*UDIM318
 70
    65
 10
0.0
 20
0.0
 30
0.0
  3
*UDIM318
  0
TEXT
  5
   14E
  8
0
  6
CONTINUOUS
 62
     3
 10
-37.3444730475526
 20
57.0622877764595
 30
0.0
 40
3.00000002980232
  1
78
 50
359.999999844103
 41
0.933333333333333
 72
     1
 11
-34.8444730186435
 21
58.5622877845709
 31
0.0
 73
     2
  0
LINE
  5
   14F
  8
0
  6
CONTINUOUS
 62
     3
 10
-54.3444626929646
 20
48.4360218048096
 30
0.0
 11
-54.3444635443476
 21
58.0622877696698
 31
0.0
  0
LINE
  5
   150
  8
0
  6
CONTINUOUS
 62
     3
 10
-15.3444788926565
 20
48.4360218048095
 30
0.0
 11
-15.3444836603957
 21
58.0622877696695
 31
0.0
  0
LINE
  5
   151
  8
0
  6
CONTINUOUS
 62
     3
 10
-54.3444633674601
 20
56.0622877696698
 30
0.0
 11
-15.3444826698269
 21
56.0622877696698
 31
0.0
  0
LINE
  5
   152
  8
0
  6
CONTINUOUS
 62
     3
 10
-51.4466858942496
 20
56.8387449260883
 30
0.0
 11
-54.3444633674601
 21
56.0622877696698
 31
0.0
  0
LINE
  5
   153
  8
0
  6
CONTINUOUS
 62
     3
 10
-54.3444633674601
 20
56.0622877696698
 30
0.0
 11
-51.4466858942496
 21
55.2858306132512
 31
0.0
  0
LINE
  5
   154
  8
0
  6
CONTINUOUS
 62
     3
 10
-18.2422601430375
 20
55.2858306132512
 30
0.0
 11
-15.3444826698269
 21
56.0622877696698
 31
0.0
  0
LINE
  5
   155
  8
0
  6
CONTINUOUS
 62
     3
 10
-15.3444826698269
 20
56.0622877696698
 30
0.0
 11
-18.2422601430375
 21
56.8387449260883
 31
0.0
  0
ENDBLK
  5
   156
  8
0
  6
CONTINUOUS
 62
     3
  0
BLOCK
  5
   157
  8
0
  6
CONTINUOUS
 62
     3
  2
*UDIM319
 70
    65
 10
0.0
 20
0.0
 30
0.0
  3
*UDIM319
  0
TEXT
  5
   158
  8
0
  6
CONTINUOUS
 62
     3
 10
-37.3445234587797
 20
64.3413312089347
 30
0.0
 40
3.00000002980232
  1
91
 50
359.999999844103
 41
0.933333333333333
 72
     1
 11
-34.8445234298706
 21
65.8413312170462
 31
0.0
 73
     2
  0
LINE
  5
   159
  8
0
  6
CONTINUOUS
 62
     3
 10
-57.5945234298706
 20
24.8110680580139
 30
0.0
 11
-57.5945234298706
 21
65.341331202145
 31
0.0
  0
LINE
  5
   15A
  8
0
  6
CONTINUOUS
 62
     3
 10
-12.0945234298706
 20
24.8110680580139
 30
0.0
 11
-12.0945234298706
 21
65.341331202145
 31
0.0
  0
LINE
  5
   15B
  8
0
  6
CONTINUOUS
 62
     3
 10
-57.5945234298706
 20
63.341331202145
 30
0.0
 11
-12.0945234298706
 21
63.341331202145
 31
0.0
  0
LINE
  5
   15C
  8
0
  6
CONTINUOUS
 62
     3
 10
-54.69674595666
 20
64.1177883585636
 30
0.0
 11
-57.5945234298706
 21
63.341331202145
 31
0.0
  0
LINE
  5
   15D
  8
0
  6
CONTINUOUS
 62
     3
 10
-57.5945234298706
 20
63.341331202145
 30
0.0
 11
-54.69674595666
 21
62.5648740457265
 31
0.0
  0
LINE
  5
   15E
  8
0
  6
CONTINUOUS
 62
     3
 10
-14.9923009030811
 20
62.5648740457265
 30
0.0
 11
-12.0945234298706
 21
63.341331202145
 31
0.0
  0
LINE
  5
   15F
  8
0
  6
CONTINUOUS
 62
     3
 10
-12.0945234298706
 20
63.341331202145
 30
0.0
 11
-14.9923009030811
 21
64.1177883585636
 31
0.0
  0
ENDBLK
  5
   160
  8
0
  6
CONTINUOUS
 62
     3
  0
BLOCK
  5
   161
  8
0
  6
CONTINUOUS
 62
     3
  2
*UDIM320
 70
    65
 10
0.0
 20
0.0
 30
0.0
  3
*UDIM320
  0
TEXT
  5
   162
  8
0
  6
CONTINUOUS
 62
     3
 10
-71.2890461061869
 20
-2.0639319708933
 30
0.0
 40
3.00000002980232
  1
96
 50
449.999999844103
 41
0.933333333333333
 72
     1
 11
-72.7890461143014
 21
0.436068058013916
 31
0.0
 73
     2
  0
LINE
  5
   163
  8
0
  6
CONTINUOUS
 62
     3
 10
-57.9695234298706
 20
24.4360680580139
 30
0.0
 11
-72.2890460994003
 21
24.4360680580139
 31
0.0
  0
LINE
  5
   164
  8
0
  6
CONTINUOUS
 62
     3
 10
-55.8445234298706
 20
-23.5639319419861
 30
0.0
 11
-72.2890460994003
 21
-23.5639319419861
 31
0.0
  0
LINE
  5
   165
  8
0
  6
CONTINUOUS
 62
     3
 10
-70.2890460994003
 20
24.4360680580139
 30
0.0
 11
-70.2890460994003
 21
-23.5639319419861
 31
0.0
  0
LINE
  5
   166
  8
0
  6
CONTINUOUS
 62
     3
 10
-69.5125889429817
 20
21.5382905848034
 30
0.0
 11
-70.2890460994003
 21
24.4360680580139
 31
0.0
  0
LINE
  5
   167
  8
0
  6
CONTINUOUS
 62
     3
 10
-70.2890460994003
 20
24.4360680580139
 30
0.0
 11
-71.0655032558188
 21
21.5382905848034
 31
0.0
  0
LINE
  5
   168
  8
0
  6
CONTINUOUS
 62
     3
 10
-71.0655032558188
 20
-20.6661544687756
 30
0.0
 11
-70.2890460994003
 21
-23.5639319419861
 31
0.0
  0
LINE
  5
   169
  8
0
  6
CONTINUOUS
 62
     3
 10
-70.2890460994003
 20
-23.5639319419861
 30
0.0
 11
-69.5125889429817
 21
-20.6661544687756
 31
0.0
  0
ENDBLK
  5
   16A
  8
0
  6
CONTINUOUS
 62
     3
  0
BLOCK
  5
   16B
  8
0
  6
CONTINUOUS
 62
     7
  2
*UDIM321
 70
    65
 10
0.0
 20
0.0
 30
0.0
  3
*UDIM321
  0
TEXT
  5
   16C
  8
0
  6
CONTINUOUS
 62
     7
 10
-79.0302510302388
 20
2.5360217619946
 30
0.0
 40
3.00000002980232
  1
163
 50
449.999999844103
 41
0.933333333333333
 72
     1
 11
-80.5302510345529
 21
6.43602180480956
 31
0.0
 73
     2
  0
LINE
  5
   16D
  8
0
  6
CONTINUOUS
 62
     7
 10
-55.3444626045209
 20
47.4360218048096
 30
0.0
 11
-80.0302510196517
 21
47.4360218048096
 31
0.0
  0
LINE
  5
   16E
  8
0
  6
CONTINUOUS
 62
     7
 10
-55.3444500923164
 20
-34.5639781951904
 30
0.0
 11
-80.0302510196517
 21
-34.5639781951904
 31
0.0
  0
LINE
  5
   16F
  8
0
  6
CONTINUOUS
 62
     7
 10
-78.0302510196517
 20
47.4360218048096
 30
0.0
 11
-78.0302510196517
 21
-34.5639781951904
 31
0.0
  0
LINE
  5
   170
  8
0
  6
CONTINUOUS
 62
     3
 10
-77.2537938632332
 20
44.538244331599
 30
0.0
 11
-78.0302510196517
 21
47.4360218048096
 31
0.0
  0
LINE
  5
   171
  8
0
  6
CONTINUOUS
 62
     3
 10
-78.0302510196517
 20
47.4360218048096
 30
0.0
 11
-78.8067081760703
 21
44.538244331599
 31
0.0
  0
LINE
  5
   172
  8
0
  6
CONTINUOUS
 62
     3
 10
-78.8067081760703
 20
-31.6662007219799
 30
0.0
 11
-78.0302510196517
 21
-34.5639781951904
 31
0.0
  0
LINE
  5
   173
  8
0
  6
CONTINUOUS
 62
     3
 10
-78.0302510196517
 20
-34.5639781951904
 30
0.0
 11
-77.2537938632332
 21
-31.6662007219799
 31
0.0
  0
ENDBLK
  5
   174
  8
0
  6
CONTINUOUS
 62
     7
  0
BLOCK
  5
   175
  8
0
  6
CONTINUOUS
 62
     7
  2
*UDIM322
 70
    65
 10
0.0
 20
0.0
 30
0.0
  3
*UDIM322
  0
TEXT
  5
   176
  8
0
  6
CONTINUOUS
 62
     7
 10
-5.88202965558161
 20
4.96103323389938
 30
0.0
 40
3.00000002980232
  1
=
 50
449.999999844103
 41
0.933333333333334
 72
     1
 11
-7.38202966749668
 21
6.06103324889884
 31
0.0
 73
     2
  0
LINE
  5
   177
  8
0
  6
CONTINUOUS
 62
     3
 10
-14.3444838523863
 20
11.6860332488988
 30
0.0
 11
-2.88202965259552
 21
11.6860332488988
 31
0.0
  0
LINE
  5
   178
  8
0
  6
CONTINUOUS
 62
     3
 10
-7.3457954663391
 20
0.436033248898845
 30
0.0
 11
-2.88202965259552
 21
0.436033248898845
 31
0.0
  0
LINE
  5
   179
  8
0
  6
CONTINUOUS
 62
     3
 10
-4.88202965259552
 20
11.6860332488988
 30
0.0
 11
-4.88202965259552
 21
0.436033248898845
 31
0.0
  0
LINE
  5
   17A
  8
0
  6
CONTINUOUS
 62
     3
 10
-4.36108522264386
 20
8.73160997169188
 30
0.0
 11
-4.88202965259552
 21
11.6860332488988
 31
0.0
  0
LINE
  5
   17B
  8
0
  6
CONTINUOUS
 62
     3
 10
-4.88202965259552
 20
11.6860332488988
 30
0.0
 11
-5.40297408254718
 21
8.73160997169188
 31
0.0
  0
LINE
  5
   17C
  8
0
  6
CONTINUOUS
 62
     3
 10
-5.40297408254718
 20
3.39045652610581
 30
0.0
 11
-4.88202965259552
 21
0.436033248898845
 31
0.0
  0
LINE
  5
   17D
  8
0
  6
CONTINUOUS
 62
     3
 10
-4.88202965259552
 20
0.436033248898845
 30
0.0
 11
-4.36108522264386
 21
3.39045652610581
 31
0.0
  0
ENDBLK
  5
   17E
  8
0
  6
CONTINUOUS
 62
     7
  0
BLOCK
  5
   17F
  8
0
  6
CONTINUOUS
 62
     7
  2
*UDIM323
 70
    65
 10
0.0
 20
0.0
 30
0.0
  3
*UDIM323
  0
TEXT
  5
   180
  8
0
  6
CONTINUOUS
 62
     7
 10
-5.88202965558161
 20
-6.28896676609765
 30
0.0
 40
3.00000002980232
  1
=
 50
449.999999844103
 41
0.933333333333334
 72
     1
 11
-7.38202966749668
 21
-5.18896675109819
 31
0.0
 73
     2
  0
LINE
  5
   181
  8
0
  6
CONTINUOUS
 62
     3
 10
-14.3444872856132
 20
-10.8139667510952
 30
0.0
 11
-2.88202965259552
 21
-10.8139667510952
 31
0.0
  0
LINE
  5
   182
  8
0
  6
CONTINUOUS
 62
     3
 10
-4.88202965259552
 20
0.436033248898845
 30
0.0
 11
-4.88202965259552
 21
-10.8139667510952
 31
0.0
  0
LINE
  5
   183
  8
0
  6
CONTINUOUS
 62
     3
 10
-4.36108522264386
 20
-2.51839002830812
 30
0.0
 11
-4.88202965259552
 21
0.436033248898845
 31
0.0
  0
LINE
  5
   184
  8
0
  6
CONTINUOUS
 62
     3
 10
-4.88202965259552
 20
0.436033248898845
 30
0.0
 11
-5.40297408254718
 21
-2.51839002830812
 31
0.0
  0
LINE
  5
   185
  8
0
  6
CONTINUOUS
 62
     3
 10
-5.40297408254718
 20
-7.85954347388825
 30
0.0
 11
-4.88202965259552
 21
-10.8139667510952
 31
0.0
  0
LINE
  5
   186
  8
0
  6
CONTINUOUS
 62
     3
 10
-4.88202965259552
 20
-10.8139667510952
 30
0.0
 11
-4.36108522264386
 21
-7.85954347388825
 31
0.0
  0
ENDBLK
  5
   187
  8
0
  6
CONTINUOUS
 62
     7
  0
BLOCK
  5
   188
  8
0
  6
CONTINUOUS
 62
     3
  2
*UDIM324
 70
    65
 10
0.0
 20
0.0
 30
0.0
  3
*UDIM324
  0
TEXT
  5
   189
  8
0
  6
CONTINUOUS
 62
     3
 10
3.2756533554876
 20
-19.8389714649322
 30
0.0
 40
3.00000002980232
  1
70
 50
449.999999844103
 41
0.933333333333333
 72
     1
 11
1.77565334737301
 21
-17.338971436025
 31
0.0
 73
     2
  0
LINE
  5
   18A
  8
0
  6
CONTINUOUS
 62
     3
 10
-8.3457954663391
 20
0.436033248898845
 30
0.0
 11
6.27565336227417
 21
0.436033248898845
 31
0.0
  0
LINE
  5
   18B
  8
0
  6
CONTINUOUS
 62
     3
 10
-15.3444909095765
 20
-34.5639781951904
 30
0.0
 11
6.27565336227417
 21
-34.5639781951904
 31
0.0
  0
LINE
  5
   18C
  8
0
  6
CONTINUOUS
 62
     3
 10
4.27565336227417
 20
0.436033248898845
 30
0.0
 11
4.27565336227417
 21
-34.5639781951904
 31
0.0
  0
LINE
  5
   18D
  8
0
  6
CONTINUOUS
 62
     3
 10
4.79659779222583
 20
-2.51839002830812
 30
0.0
 11
4.27565336227417
 21
0.436033248898845
 31
0.0
  0
LINE
  5
   18E
  8
0
  6
CONTINUOUS
 62
     3
 10
4.27565336227417
 20
0.436033248898845
 30
0.0
 11
3.75470893232251
 21
-2.51839002830812
 31
0.0
  0
LINE
  5
   18F
  8
0
  6
CONTINUOUS
 62
     3
 10
3.75470893232251
 20
-31.6095549179835
 30
0.0
 11
4.27565336227417
 21
-34.5639781951904
 31
0.0
  0
LINE
  5
   190
  8
0
  6
CONTINUOUS
 62
     3
 10
4.27565336227417
 20
-34.5639781951904
 30
0.0
 11
4.79659779222583
 21
-31.6095549179835
 31
0.0
  0
ENDBLK
  5
   191
  8
0
  6
CONTINUOUS
 62
     3
  0
BLOCK
  5
   192
  8
0
  6
CONTINUOUS
 62
     3
  2
*UDIM325
 70
    65
 10
0.0
 20
0.0
 30
0.0
  3
*UDIM325
  0
TEXT
  5
   193
  8
0
  6
CONTINUOUS
 62
     3
 10
291.021363699196
 20
-2.33896641556602
 30
0.0
 40
2.99999997871263
  1
53
 50
449.999999844103
 41
0.933333333333333
 72
     1
 11
289.521363716627
 21
0.161033570766449
 31
0.0
 73
     2
  0
LINE
  5
   194
  8
0
  6
CONTINUOUS
 62
     3
 10
271.552703291178
 20
18.9860329329968
 30
0.0
 11
294.021363705983
 21
18.9860329329968
 31
0.0
  0
LINE
  5
   195
  8
0
  6
CONTINUOUS
 62
     3
 10
271.552703291178
 20
-18.113966435194
 30
0.0
 11
294.021363705983
 21
-18.113966435194
 31
0.0
  0
LINE
  5
   196
  8
0
  6
CONTINUOUS
 62
     3
 10
292.021363705983
 20
18.9860329329968
 30
0.0
 11
292.021363705983
 21
-18.113966435194
 31
0.0
  0
LINE
  5
   197
  8
0
  6
CONTINUOUS
 62
     3
 10
292.542308135935
 20
16.0316096557898
 30
0.0
 11
292.021363705983
 21
18.9860329329968
 31
0.0
  0
LINE
  5
   198
  8
0
  6
CONTINUOUS
 62
     3
 10
292.021363705983
 20
18.9860329329968
 30
0.0
 11
291.500419276031
 21
16.0316096557898
 31
0.0
  0
LINE
  5
   199
  8
0
  6
CONTINUOUS
 62
     3
 10
291.500419276031
 20
-15.1595431579871
 30
0.0
 11
292.021363705983
 21
-18.113966435194
 31
0.0
  0
LINE
  5
   19A
  8
0
  6
CONTINUOUS
 62
     3
 10
292.021363705983
 20
-18.113966435194
 30
0.0
 11
292.542308135935
 21
-15.1595431579871
 31
0.0
  0
ENDBLK
  5
   19B
  8
0
  6
CONTINUOUS
 62
     3
  0
BLOCK
  5
   19C
  8
0
  6
CONTINUOUS
 62
     3
  2
*UDIM326
 70
    65
 10
0.0
 20
0.0
 30
0.0
  3
*UDIM326
  0
TEXT
  5
   19D
  8
0
  6
CONTINUOUS
 62
     3
 10
237.085966334498
 20
-42.3723998721711
 30
0.0
 40
2.99999997871263
  1
83.5
 50
359.999999844103
 41
0.933333333333333
 72
     1
 11
242.385966300964
 21
-40.8723998972089
 31
0.0
 73
     2
  0
LINE
  5
   19E
  8
0
  6
CONTINUOUS
 62
     3
 10
213.277704283595
 20
-29.2639662623405
 30
0.0
 11
213.277704283595
 21
-45.3723998865653
 31
0.0
  0
LINE
  5
   19F
  8
0
  6
CONTINUOUS
 62
     3
 10
271.727703288198
 20
-29.2639662623405
 30
0.0
 11
271.727703288198
 21
-45.3723998865653
 31
0.0
  0
LINE
  5
   1A0
  8
0
  6
CONTINUOUS
 62
     3
 10
213.277704283595
 20
-43.3723998865652
 30
0.0
 11
271.727703288198
 21
-43.3723998865652
 31
0.0
  0
LINE
  5
   1A1
  8
0
  6
CONTINUOUS
 62
     3
 10
216.175481756806
 20
-42.5959427301467
 30
0.0
 11
213.277704283595
 21
-43.3723998865652
 31
0.0
  0
LINE
  5
   1A2
  8
0
  6
CONTINUOUS
 62
     3
 10
213.277704283595
 20
-43.3723998865652
 30
0.0
 11
216.175481756806
 21
-44.1488570429838
 31
0.0
  0
LINE
  5
   1A3
  8
0
  6
CONTINUOUS
 62
     3
 10
268.829925814987
 20
-44.1488570429838
 30
0.0
 11
271.727703288198
 21
-43.3723998865652
 31
0.0
  0
LINE
  5
   1A4
  8
0
  6
CONTINUOUS
 62
     3
 10
271.727703288198
 20
-43.3723998865652
 30
0.0
 11
268.829925814987
 21
-42.5959427301467
 31
0.0
  0
ENDBLK
  5
   1A5
  8
0
  6
CONTINUOUS
 62
     3
  0
BLOCK
  5
   1A6
  8
0
  6
CONTINUOUS
 62
     3
  2
*UDIM327
 70
    65
 10
0.0
 20
0.0
 30
0.0
  3
*UDIM327
  0
TEXT
  5
   1A7
  8
0
  6
CONTINUOUS
 62
     3
 10
197.954993564886
 20
-2.18688664708715
 30
0.0
 40
2.99999997871263
  1
64
 50
449.999999844103
 41
0.933333333333333
 72
     1
 11
196.454993582317
 21
0.313113339245319
 31
0.0
 73
     2
  0
LINE
  5
   1A8
  8
0
  6
CONTINUOUS
 62
     3
 10
205.977704390883
 20
22.8360328674316
 30
0.0
 11
196.954993571673
 21
22.8360328674316
 31
0.0
  0
LINE
  5
   1A9
  8
0
  6
CONTINUOUS
 62
     3
 10
205.977704390883
 20
-21.9639663696289
 30
0.0
 11
196.954993571673
 21
-21.9639663696289
 31
0.0
  0
LINE
  5
   1AA
  8
0
  6
CONTINUOUS
 62
     3
 10
198.954993571673
 20
22.8360328674316
 30
0.0
 11
198.954993571673
 21
-21.9639663696289
 31
0.0
  0
LINE
  5
   1AB
  8
0
  6
CONTINUOUS
 62
     3
 10
199.731450728091
 20
19.9382553942211
 30
0.0
 11
198.954993571673
 21
22.8360328674316
 31
0.0
  0
LINE
  5
   1AC
  8
0
  6
CONTINUOUS
 62
     3
 10
198.954993571673
 20
22.8360328674316
 30
0.0
 11
198.178536415254
 21
19.9382553942211
 31
0.0
  0
LINE
  5
   1AD
  8
0
  6
CONTINUOUS
 62
     3
 10
198.178536415254
 20
-19.0661888964184
 30
0.0
 11
198.954993571673
 21
-21.9639663696289
 31
0.0
  0
LINE
  5
   1AE
  8
0
  6
CONTINUOUS
 62
     3
 10
198.954993571673
 20
-21.9639663696289
 30
0.0
 11
199.731450728091
 21
-19.0661888964184
 31
0.0
  0
ENDBLK
  5
   1AF
  8
0
  6
CONTINUOUS
 62
     3
  0
BLOCK
  5
   1B0
  8
0
  6
CONTINUOUS
 62
     3
  2
*UDIM328
 70
    65
 10
0.0
 20
0.0
 30
0.0
  3
*UDIM328
  0
TEXT
  5
   1B1
  8
0
  6
CONTINUOUS
 62
     3
 10
221.941384521005
 20
32.8546203729232
 30
0.0
 40
2.99999997871263
  1
4
 50
404.818094863318
 41
0.933333333333333
 72
     1
 11
221.664380105023
 21
34.6939867052301
 31
0.0
 73
     2
  0
TEXT
  5
   1B2
  8
0
  6
CONTINUOUS
 62
     3
 10
219.990677196098
 20
30.9162602596356
 30
0.0
 40
2.99999997871263
  1
Ø
 50
404.818094863318
 41
0.933333333333333
 72
     1
 11
219.713672780117
 21
32.7556265919425
 31
0.0
 73
     2
  0
LINE
  5
   1B3
  8
0
  6
CONTINUOUS
 62
     3
 10
224.20680874821
 20
33.6959603909897
 30
0.0
 11
212.284616869194
 21
21.8492313065286
 31
0.0
  0
LINE
  5
   1B4
  8
0
  6
CONTINUOUS
 62
     3
 10
215.999314439424
 20
26.2748150833086
 30
0.0
 11
214.270791697996
 21
23.8228344283347
 31
0.0
  0
LINE
  5
   1B5
  8
0
  6
CONTINUOUS
 62
     3
 10
214.270791697996
 20
23.8228344283347
 30
0.0
 11
216.733698418531
 21
25.535753132169
 31
0.0
  0
LINE
  5
   1B6
  8
0
  6
CONTINUOUS
 62
     3
 10
210.556094127766
 20
19.3972506515547
 30
0.0
 11
212.284616869194
 21
21.8492313065286
 31
0.0
  0
LINE
  5
   1B7
  8
0
  6
CONTINUOUS
 62
     3
 10
212.284616869194
 20
21.8492313065286
 30
0.0
 11
209.821710148659
 21
20.1363126026942
 31
0.0
  0
ENDBLK
  5
   1B8
  8
0
  6
CONTINUOUS
 62
     3
  0
BLOCK
  5
   1B9
  8
0
  6
CONTINUOUS
 62
     3
  2
*UDIM329
 70
    65
 10
0.0
 20
0.0
 30
0.0
  3
*UDIM329
  0
TEXT
  5
   1BA
  8
0
  6
CONTINUOUS
 62
     3
 10
236.756479873018
 20
-8.51178571247181
 30
0.0
 40
2.99999997871263
  1
86
 50
359.999999844103
 41
0.933333333333333
 72
     1
 11
239.256479859352
 21
-7.01178572990521
 31
0.0
 73
     2
  0
LINE
  5
   1BB
  8
0
  6
CONTINUOUS
 62
     3
 10
212.402704298496
 20
-9.51178571926152
 30
0.0
 11
272.602703273296
 21
-9.51178571926152
 31
0.0
  0
LINE
  5
   1BC
  8
0
  6
CONTINUOUS
 62
     3
 10
215.357127575703
 20
-8.99084128930986
 30
0.0
 11
212.402704298496
 21
-9.51178571926152
 31
0.0
  0
LINE
  5
   1BD
  8
0
  6
CONTINUOUS
 62
     3
 10
212.402704298496
 20
-9.51178571926152
 30
0.0
 11
215.357127575703
 21
-10.0327301492132
 31
0.0
  0
LINE
  5
   1BE
  8
0
  6
CONTINUOUS
 62
     3
 10
269.648279996089
 20
-10.0327301492132
 30
0.0
 11
272.602703273296
 21
-9.51178571926152
 31
0.0
  0
LINE
  5
   1BF
  8
0
  6
CONTINUOUS
 62
     3
 10
272.602703273296
 20
-9.51178571926152
 30
0.0
 11
269.648279996089
 21
-8.99084128930986
 31
0.0
  0
ENDBLK
  5
   1C0
  8
0
  6
CONTINUOUS
 62
     3
  0
BLOCK
  5
   1C1
  8
0
  6
CONTINUOUS
 62
     3
  2
*UDIM330
 70
    65
 10
0.0
 20
0.0
 30
0.0
  3
*UDIM330
  0
TEXT
  5
   1C2
  8
0
  6
CONTINUOUS
 62
     3
 10
256.461489396088
 20
5.69011284518573
 30
0.0
 40
2.99999997871263
  1
1.5
 50
402.007377135001
 41
0.933333333333333
 72
     1
 11
258.355578749977
 21
9.41468332669088
 31
0.0
 73
     2
  0
TEXT
  5
   1C3
  8
0
  6
CONTINUOUS
 62
     3
 10
253.489254762714
 20
3.0132077079282
 30
0.0
 40
2.99999997871263
  1
R
 50
402.007377135001
 41
1.2
 72
     1
 11
253.600003332765
 21
5.13163511767574
 31
0.0
 73
     2
  0
LINE
  5
   1C4
  8
0
  6
CONTINUOUS
 62
     3
 10
272.332914874448
 20
18.6387205399101
 30
0.0
 11
254.158481055132
 21
2.27014904423936
 31
0.0
  0
LINE
  5
   1C5
  8
0
  6
CONTINUOUS
 62
     3
 10
270.699321757953
 20
16.1224984651044
 30
0.0
 11
272.332914874448
 21
18.6387205399101
 31
0.0
  0
LINE
  5
   1C6
  8
0
  6
CONTINUOUS
 62
     3
 10
272.332914874448
 20
18.6387205399101
 30
0.0
 11
269.660070678864
 21
17.2764048987575
 31
0.0
  0
ENDBLK
  5
   1C7
  8
0
  6
CONTINUOUS
 62
     3
  0
ENDSEC
  0
SECTION
  2
ENTITIES
  0
LINE
  5
   1C8
  8
0
  6
CONTINUOUS
 62
   130
 10
92.1758804321289
 20
-34.5639781951904
 30
0.0
 11
113.175879700979
 21
-34.5639781951904
 31
0.0
  0
LINE
  5
   1C9
  8
0
  6
CONTINUOUS
 62
   130
 10
92.1758875846863
 20
-4.45777581233282
 30
0.0
 11
92.1758875846863
 21
0.629355430603027
 31
0.0
  0
LINE
  5
   1CA
  8
0
  6
CONTINUOUS
 62
   130
 10
112.175880432129
 20
-34.5639781951904
 30
0.0
 11
112.175880432129
 21
-32.5639751434326
 31
0.0
  0
LINE
  5
   1CB
  8
0
  6
CONTINUOUS
 62
   130
 10
92.1758875846863
 20
0.629355430603028
 30
0.0
 11
92.4258875846863
 21
0.629355430603028
 31
0.0
  0
LINE
  5
   1CC
  8
0
  6
CONTINUOUS
 62
   130
 10
92.1758875846863
 20
-5.37064170837402
 30
0.0
 11
92.4258875846863
 21
-5.37064170837402
 31
0.0
  0
LINE
  5
   1CD
  8
0
  6
CONTINUOUS
 62
   130
 10
92.1758875846863
 20
13.8063569011139
 30
0.0
 11
92.1758875846863
 21
18.2426853179932
 31
0.0
  0
LINE
  5
   1CE
  8
0
  6
CONTINUOUS
 62
   130
 10
112.175880432129
 20
33.8703547267192
 30
0.0
 11
112.175880432129
 21
47.4360218048096
 31
0.0
  0
LINE
  5
   1CF
  8
0
  6
CONTINUOUS
 62
   130
 10
92.1758875846863
 20
12.2426881790161
 30
0.0
 11
92.4258875846863
 21
12.2426881790161
 31
0.0
  0
LINE
  5
   1D0
  8
0
  6
CONTINUOUS
 62
   130
 10
92.1758875846863
 20
18.2426853179932
 30
0.0
 11
92.4258875846863
 21
18.2426853179932
 31
0.0
  0
LINE
  5
   1D1
  8
0
  6
CONTINUOUS
 62
   130
 10
88.1758875846861
 20
37.436014175415
 30
0.0
 11
92.1758804321289
 21
37.436014175415
 31
0.0
  0
LINE
  5
   1D2
  8
0
  6
CONTINUOUS
 62
   130
 10
88.1758875846861
 20
-24.5639705657959
 30
0.0
 11
92.1758804321289
 21
-24.5639705657959
 31
0.0
  0
LINE
  5
   1D3
  8
0
  6
DASHDOT
 62
   130
 10
82.0618668048869
 20
15.2426867485046
 30
0.0
 11
95.549959002788
 21
15.2426867485046
 31
0.0
  0
LINE
  5
   1D4
  8
0
  6
DASHDOT
 62
   130
 10
83.4825470618076
 20
-2.3706431388855
 30
0.0
 11
96.1018570769729
 21
-2.3706431388855
 31
0.0
  0
LINE
  5
   1D5
  8
0
  6
CONTINUOUS
 62
   130
 10
88.1758875846861
 20
26.9598836718071
 30
0.0
 11
88.1758875846861
 21
37.4360139211019
 31
0.0
  0
LINE
  5
   1D6
  8
0
  6
CONTINUOUS
 62
   130
 10
88.1758875846861
 20
-15.5639705657959
 30
0.0
 11
88.1758875846861
 21
-13.5639703114828
 31
0.0
  0
LINE
  5
   1D7
  8
0
  6
CONTINUOUS
 62
   130
 10
112.175880432129
 20
-26.067250164668
 30
0.0
 11
112.175880432129
 21
35.486014175415
 31
0.0
  0
LINE
  5
   1D8
  8
0
  6
CONTINUOUS
 62
   130
 10
88.1758875846861
 20
26.436014175415
 30
0.0
 11
92.1758804321289
 21
26.436014175415
 31
0.0
  0
LINE
  5
   1D9
  8
0
  6
CONTINUOUS
 62
   130
 10
88.1758875846861
 20
-13.5639703114828
 30
0.0
 11
92.1758804321289
 21
-13.5639703114828
 31
0.0
  0
LINE
  5
   1DA
  8
0
  6
DASHDOT
 62
   130
 10
84.7589508832125
 20
42.4360218048096
 30
0.0
 11
104.621179886783
 21
42.4360218048096
 31
0.0
  0
LINE
  5
   1DB
  8
0
  6
DASHDOT
 62
   130
 10
84.4079283828938
 20
-29.5639781951904
 30
0.0
 11
113.045514033894
 21
-29.5639781951904
 31
0.0
  0
LINE
  5
   1DC
  8
0
  6
CONTINUOUS
 62
   130
 10
87.1758875846862
 20
45.4360218048096
 30
0.0
 11
91.4258804321289
 21
45.4360218048096
 31
0.0
  0
LINE
  5
   1DD
  8
0
  6
CONTINUOUS
 62
   130
 10
87.1758875846862
 20
39.4360218048096
 30
0.0
 11
91.4258804321289
 21
39.4360218048096
 31
0.0
  0
LINE
  5
   1DE
  8
0
  6
CONTINUOUS
 62
   130
 10
87.1758875846862
 20
-26.5639781951904
 30
0.0
 11
91.4258804321289
 21
-26.5639781951904
 31
0.0
  0
LINE
  5
   1DF
  8
0
  6
CONTINUOUS
 62
   130
 10
87.1758875846862
 20
-32.5639781951904
 30
0.0
 11
91.4258804321289
 21
-32.5639781951904
 31
0.0
  0
LINE
  5
   1E0
  8
0
  6
CONTINUOUS
 62
   130
 10
87.1758875846862
 20
39.4360218048096
 30
0.0
 11
87.1758875846862
 21
45.4360218048096
 31
0.0
  0
LINE
  5
   1E1
  8
0
  6
CONTINUOUS
 62
   130
 10
87.1758875846862
 20
-32.5639781951904
 30
0.0
 11
87.1758875846862
 21
-26.5639781951904
 31
0.0
  0
LINE
  5
   1E2
  8
0
  6
CONTINUOUS
 62
   130
 10
92.1758804321289
 20
22.436012828391
 30
0.0
 11
92.1758804321289
 21
26.436014175415
 31
0.0
  0
LINE
  5
   1E3
  8
0
  6
CONTINUOUS
 62
   130
 10
92.1758804321289
 20
-26.9109297903315
 30
0.0
 11
92.1758804321289
 21
-9.56397031148276
 31
0.0
  0
LINE
  5
   1E4
  8
0
  6
CONTINUOUS
 62
   130
 10
92.4258875846863
 20
18.2426853179932
 30
0.0
 11
92.4258875846863
 21
22.436012828391
 31
0.0
  0
LINE
  5
   1E5
  8
0
  6
CONTINUOUS
 62
   130
 10
92.1758804321289
 20
24.2789100624938
 30
0.0
 11
92.1758804321289
 21
47.4360218048096
 31
0.0
  0
ARC
  5
   1E6
  8
0
  6
CONTINUOUS
 62
   130
 10
91.4258804321289
 20
46.1860218048096
 30
0.0
 40
0.75
 50
270.0
 51
360.0
  0
ARC
  5
   1E7
  8
0
  6
CONTINUOUS
 62
   130
 10
91.4258804321289
 20
38.6860218048096
 30
0.0
 40
0.75
 50
360.0
 51
450.0
  0
LINE
  5
   1E8
  8
0
  6
CONTINUOUS
 62
   130
 10
92.1758804321289
 20
-34.5639781951904
 30
0.0
 11
92.1758804321289
 21
-24.5639705657959
 31
0.0
  0
ARC
  5
   1E9
  8
0
  6
CONTINUOUS
 62
   130
 10
91.4258804321289
 20
-25.8139781951904
 30
0.0
 40
0.75
 50
270.0
 51
360.0
  0
ARC
  5
   1EA
  8
0
  6
CONTINUOUS
 62
   130
 10
91.4258804321289
 20
-33.3139781951904
 30
0.0
 40
0.75
 50
360.0
 51
450.0
  0
LINE
  5
   1EB
  8
0
  6
CONTINUOUS
 62
   130
 10
88.1758875846861
 20
26.436014175415
 30
0.0
 11
88.1758875846861
 21
28.436014175415
 31
0.0
  0
LINE
  5
   1EC
  8
0
  6
CONTINUOUS
 62
   130
 10
88.1758875846861
 20
-24.563970820109
 30
0.0
 11
88.1758875846861
 21
-15.433011525459
 31
0.0
  0
LINE
  5
   1ED
  8
0
  6
CONTINUOUS
 62
   130
 10
112.175880432129
 20
47.4360218048096
 30
0.0
 11
113.175880432129
 21
47.4360218048096
 31
0.0
  0
LINE
  5
   1EE
  8
0
  6
CONTINUOUS
 62
   130
 10
112.175880432129
 20
-34.5639781951904
 30
0.0
 11
113.175880432129
 21
-34.5639781951904
 31
0.0
  0
LINE
  5
   1EF
  8
0
  6
CONTINUOUS
 62
   130
 10
92.4258875846863
 20
0.629355430603028
 30
0.0
 11
92.4258875846863
 21
12.2426881790161
 31
0.0
  0
LINE
  5
   1F0
  8
0
  6
CONTINUOUS
 62
   130
 10
92.4258875846863
 20
-9.56397031148276
 30
0.0
 11
92.4258875846863
 21
-5.37064170837402
 31
0.0
  0
LINE
  5
   1F1
  8
0
  6
DASHDOT
 62
   130
 10
86.0449790312443
 20
-19.0689110565186
 30
0.0
 11
103.581316642183
 21
-19.0689110565186
 31
0.0
  0
LINE
  5
   1F2
  8
0
  6
DASHDOT
 62
   130
 10
82.3696651927584
 20
31.936014175415
 30
0.0
 11
102.772534118605
 21
31.936014175415
 31
0.0
  0
LINE
  5
   1F3
  8
0
  6
CONTINUOUS
 62
   130
 10
112.175880432129
 20
-33.4271512804013
 30
0.0
 11
112.175880432129
 21
-24.2299561810182
 31
0.0
  0
LINE
  5
   1F4
  8
0
  6
CONTINUOUS
 62
   130
 10
91.1758875846863
 20
12.7926867485046
 30
0.0
 11
91.1758875846863
 21
17.6926867485046
 31
0.0
  0
LINE
  5
   1F5
  8
0
  6
CONTINUOUS
 62
   130
 10
90.7758875846863
 20
12.7926867485046
 30
0.0
 11
90.7758875846863
 21
17.6926867485046
 31
0.0
  0
LINE
  5
   1F6
  8
0
  6
CONTINUOUS
 62
   130
 10
89.2758875846863
 20
13.2926867485046
 30
0.0
 11
89.2758875846863
 21
17.1926867485046
 31
0.0
  0
LINE
  5
   1F7
  8
0
  6
CONTINUOUS
 62
   130
 10
87.4258804321289
 20
16.2426867485046
 30
0.0
 11
89.2758875846863
 21
16.2426867485046
 31
0.0
  0
LINE
  5
   1F8
  8
0
  6
CONTINUOUS
 62
   130
 10
87.4258804321289
 20
14.2426867485046
 30
0.0
 11
89.2758875846863
 21
14.2426867485046
 31
0.0
  0
LINE
  5
   1F9
  8
0
  6
CONTINUOUS
 62
   130
 10
92.1758875846863
 20
12.2426881790161
 30
0.0
 11
92.1758875846863
 21
14.2426867485046
 31
0.0
  0
LINE
  5
   1FA
  8
0
  6
CONTINUOUS
 62
   130
 10
89.2758875846863
 20
17.1926867485046
 30
0.0
 11
90.7758875846863
 21
17.1926867485046
 31
0.0
  0
LINE
  5
   1FB
  8
0
  6
CONTINUOUS
 62
   130
 10
89.2758875846863
 20
13.2926867485046
 30
0.0
 11
90.7758875846863
 21
13.2926867485046
 31
0.0
  0
LINE
  5
   1FC
  8
0
  6
CONTINUOUS
 62
   130
 10
90.7758875846863
 20
17.6926867485046
 30
0.0
 11
91.1758875846863
 21
17.6926867485046
 31
0.0
  0
LINE
  5
   1FD
  8
0
  6
CONTINUOUS
 62
   130
 10
90.7758875846863
 20
12.7926867485046
 30
0.0
 11
91.1758875846863
 21
12.7926867485046
 31
0.0
  0
LINE
  5
   1FE
  8
0
  6
CONTINUOUS
 62
   130
 10
89.2758875846863
 20
16.2426867485046
 30
0.0
 11
90.7758875846863
 21
16.2426867485046
 31
0.0
  0
LINE
  5
   1FF
  8
0
  6
CONTINUOUS
 62
   130
 10
89.2758875846863
 20
14.2426867485046
 30
0.0
 11
90.7758875846863
 21
14.2426867485046
 31
0.0
  0
LINE
  5
   200
  8
0
  6
CONTINUOUS
 62
   130
 10
87.1758804321289
 20
14.4926867485046
 30
0.0
 11
87.1758804321289
 21
15.9926867485046
 31
0.0
  0
LINE
  5
   201
  8
0
  6
CONTINUOUS
 62
   130
 10
87.1758804321289
 20
15.9926867485046
 30
0.0
 11
87.4258804321289
 21
16.2426867485046
 31
0.0
  0
LINE
  5
   202
  8
0
  6
CONTINUOUS
 62
   130
 10
87.1758804321289
 20
14.4926867485046
 30
0.0
 11
87.4258804321289
 21
14.2426867485046
 31
0.0
  0
LINE
  5
   203
  8
0
  6
CONTINUOUS
 62
   130
 10
87.4258804321289
 20
14.2426867485046
 30
0.0
 11
87.4258804321289
 21
16.2426867485046
 31
0.0
  0
LINE
  5
   204
  8
0
  6
CONTINUOUS
 62
   130
 10
89.2758875846863
 20
-3.3706431388855
 30
0.0
 11
90.7758875846863
 21
-3.3706431388855
 31
0.0
  0
LINE
  5
   205
  8
0
  6
CONTINUOUS
 62
   130
 10
89.2758875846863
 20
-1.3706431388855
 30
0.0
 11
90.7758875846863
 21
-1.3706431388855
 31
0.0
  0
LINE
  5
   206
  8
0
  6
CONTINUOUS
 62
   130
 10
89.2758875846863
 20
-4.3206431388855
 30
0.0
 11
90.7758875846863
 21
-4.3206431388855
 31
0.0
  0
LINE
  5
   207
  8
0
  6
CONTINUOUS
 62
   130
 10
89.2758875846863
 20
-0.420643138885497
 30
0.0
 11
90.7758875846863
 21
-0.420643138885497
 31
0.0
  0
LINE
  5
   208
  8
0
  6
CONTINUOUS
 62
   130
 10
87.4258804321289
 20
-3.3706431388855
 30
0.0
 11
89.2758875846863
 21
-3.3706431388855
 31
0.0
  0
LINE
  5
   209
  8
0
  6
CONTINUOUS
 62
   130
 10
87.4258804321289
 20
-1.3706431388855
 30
0.0
 11
89.2758875846863
 21
-1.3706431388855
 31
0.0
  0
LINE
  5
   20A
  8
0
  6
CONTINUOUS
 62
   130
 10
91.1758875846863
 20
-4.8206431388855
 30
0.0
 11
91.1758875846863
 21
7.93568611145035E-2
 31
0.0
  0
LINE
  5
   20B
  8
0
  6
CONTINUOUS
 62
   130
 10
90.7758875846863
 20
-4.8206431388855
 30
0.0
 11
90.7758875846863
 21
7.93568611145035E-2
 31
0.0
  0
LINE
  5
   20C
  8
0
  6
CONTINUOUS
 62
   130
 10
90.7758875846863
 20
-4.8206431388855
 30
0.0
 11
91.1758875846863
 21
-4.8206431388855
 31
0.0
  0
LINE
  5
   20D
  8
0
  6
CONTINUOUS
 62
   130
 10
90.7758875846863
 20
7.93568611145035E-2
 30
0.0
 11
91.1758875846863
 21
7.93568611145035E-2
 31
0.0
  0
LINE
  5
   20E
  8
0
  6
CONTINUOUS
 62
   130
 10
89.2758875846863
 20
-4.3206431388855
 30
0.0
 11
89.2758875846863
 21
-0.420643138885497
 31
0.0
  0
LINE
  5
   20F
  8
0
  6
CONTINUOUS
 62
   130
 10
87.4258804321289
 20
-3.3706431388855
 30
0.0
 11
87.4258804321289
 21
-1.3706431388855
 31
0.0
  0
LINE
  5
   210
  8
0
  6
CONTINUOUS
 62
   130
 10
87.1758804321289
 20
-3.1206431388855
 30
0.0
 11
87.1758804321289
 21
-1.6206431388855
 31
0.0
  0
LINE
  5
   211
  8
0
  6
CONTINUOUS
 62
   130
 10
87.4258804321289
 20
-3.3706431388855
 30
0.0
 11
87.4258804321289
 21
-1.3706431388855
 31
0.0
  0
LINE
  5
   212
  8
0
  6
CONTINUOUS
 62
   130
 10
87.4258804321289
 20
-3.3706431388855
 30
0.0
 11
87.4258804321289
 21
-1.3706431388855
 31
0.0
  0
LINE
  5
   213
  8
0
  6
CONTINUOUS
 62
   130
 10
87.1758804321289
 20
-3.1206431388855
 30
0.0
 11
87.4258804321289
 21
-3.37064313888549
 31
0.0
  0
LINE
  5
   214
  8
0
  6
CONTINUOUS
 62
   130
 10
87.1758804321289
 20
-3.1206431388855
 30
0.0
 11
87.4258804321289
 21
-3.37064313888549
 31
0.0
  0
LINE
  5
   215
  8
0
  6
CONTINUOUS
 62
   130
 10
87.1758804321289
 20
-1.62064313888549
 30
0.0
 11
87.4258804321289
 21
-1.37064313888549
 31
0.0
  0
LINE
  5
   216
  8
0
  6
CONTINUOUS
 62
   130
 10
87.4258804321289
 20
-3.1206431388855
 30
0.0
 11
89.2758875846863
 21
-3.1206431388855
 31
0.0
  0
LINE
  5
   217
  8
0
  6
CONTINUOUS
 62
   130
 10
87.4258804321289
 20
-1.6206431388855
 30
0.0
 11
89.2758875846863
 21
-1.6206431388855
 31
0.0
  0
LINE
  5
   218
  8
0
  6
CONTINUOUS
 62
   130
 10
92.1758875846863
 20
-5.37064170837402
 30
0.0
 11
92.1758875846863
 21
-3.3706431388855
 31
0.0
  0
LINE
  5
   219
  8
0
  6
CONTINUOUS
 62
   130
 10
87.4258804321289
 20
14.4926867485046
 30
0.0
 11
89.2758875846863
 21
14.4926867485046
 31
0.0
  0
LINE
  5
   21A
  8
0
  6
CONTINUOUS
 62
   130
 10
87.4258804321289
 20
15.9926867485046
 30
0.0
 11
89.2758875846863
 21
15.9926867485046
 31
0.0
  0
LINE
  5
   21B
  8
0
  6
DOT
 62
   130
 10
87.1758875846861
 20
21.6029459930468
 30
0.0
 11
87.1758875846861
 21
49.6807605172001
 31
0.0
  0
LINE
  5
   21C
  8
0
  6
CONTINUOUS
 62
   130
 10
86.1758875846861
 20
-32.1335758695852
 30
0.0
 11
86.1758875846861
 21
49.922215924656
 31
0.0
  0
LINE
  5
   21D
  8
0
  6
DOT
 62
   130
 10
87.1758875846861
 20
-36.808716907581
 30
0.0
 11
87.1758875846861
 21
-8.73090238342771
 31
0.0
  0
LINE
  5
   21E
  8
0
  6
DASHDOT
 62
   130
 10
150.42586517334
 20
12.1810736846924
 30
0.0
 11
150.42586517334
 21
43.4082476522768
 31
0.0
  0
LINE
  5
   21F
  8
0
  6
DASHDOT
 62
   130
 10
87.1758875846861
 20
47.0905312176589
 30
0.0
 11
87.1758875846861
 21
62.1243222242466
 31
0.0
  0
LINE
  5
   220
  8
0
  6
CONTINUOUS
 62
   130
 10
92.1758804321289
 20
47.4360218048096
 30
0.0
 11
113.175879700979
 21
47.4360218048096
 31
0.0
  0
LINE
  5
   221
  8
0
  6
CONTINUOUS
 62
   130
 10
112.175879700979
 20
25.6860256195068
 30
0.0
 11
112.175879700979
 21
36.4360179901123
 31
0.0
  0
LINE
  5
   222
  8
0
  6
CONTINUOUS
 62
   130
 10
150.675872921944
 20
-2.7259775971052
 30
0.0
 11
158.273690119801
 21
-5.02190859226597
 31
0.0
  0
LINE
  5
   223
  8
0
  6
CONTINUOUS
 62
   130
 10
158.273717185026
 20
-5.02191671229447
 30
0.0
 11
158.380803777035
 21
-5.08711863688184
 31
0.0
  0
LINE
  5
   224
  8
0
  6
CONTINUOUS
 62
   130
 10
158.380784719872
 20
-5.08711161576974
 30
0.0
 11
158.44275378069
 21
-5.19610449526518
 31
0.0
  0
LINE
  5
   225
  8
0
  6
CONTINUOUS
 62
   130
 10
158.442764095792
 20
-5.19611080771355
 30
0.0
 11
158.444026894009
 21
-5.32148099785623
 31
0.0
  0
LINE
  5
   226
  8
0
  6
CONTINUOUS
 62
   130
 10
158.079560692363
 20
-6.78911026819701
 30
0.0
 11
158.444022263492
 21
-5.3214768111312
 31
0.0
  0
LINE
  5
   227
  8
0
  6
CONTINUOUS
 62
   130
 10
158.016932046624
 20
-6.90235118643911
 30
0.0
 11
158.079563773955
 21
-6.78910784979239
 31
0.0
  0
LINE
  5
   228
  8
0
  6
CONTINUOUS
 62
   130
 10
157.906071885626
 20
-6.96911029137397
 30
0.0
 11
158.016935251745
 21
-6.90235512951291
 31
0.0
  0
LINE
  5
   229
  8
0
  6
CONTINUOUS
 62
   130
 10
157.776695819334
 20
-6.97149070088115
 30
0.0
 11
157.906083468671
 21
-6.96911029901801
 31
0.0
  0
LINE
  5
   22A
  8
0
  6
CONTINUOUS
 62
   130
 10
150.675872921944
 20
-5.20816391947718
 30
0.0
 11
157.776683007809
 21
-6.97149015563124
 31
0.0
  0
LINE
  5
   22B
  8
0
  6
CONTINUOUS
 62
   130
 10
112.175879700979
 20
-23.5639743804932
 30
0.0
 11
112.175879700979
 21
-3.16397438049317
 31
0.0
  0
LINE
  5
   22C
  8
0
  6
CONTINUOUS
 62
   130
 10
112.175879478455
 20
-22.0639743208303
 30
0.0
 11
112.175879478455
 21
36.4360179901123
 31
0.0
  0
LINE
  5
   22D
  8
0
  6
CONTINUOUS
 62
   130
 10
148.175865292549
 20
-15.0639743804932
 30
0.0
 11
148.175865292549
 21
-10.8139667510986
 31
0.0
  0
LINE
  5
   22E
  8
0
  6
CONTINUOUS
 62
   130
 10
148.175865130221
 20
-10.8139667510986
 30
0.0
 11
150.675872921944
 21
-10.8139667510986
 31
0.0
  0
LINE
  5
   22F
  8
0
  6
CONTINUOUS
 62
   130
 10
148.175872759616
 20
11.6860332489014
 30
0.0
 11
150.675872921944
 21
11.6860332489014
 31
0.0
  0
LINE
  5
   230
  8
0
  6
CONTINUOUS
 62
   130
 10
148.175872921944
 20
11.6860332489014
 30
0.0
 11
148.175872921944
 21
27.9360256195068
 31
0.0
  0
LINE
  5
   231
  8
0
  6
CONTINUOUS
 62
   130
 10
150.675872921944
 20
-10.8139667510986
 30
0.0
 11
150.675872921944
 21
11.6860332489014
 31
0.0
  0
LINE
  5
   232
  8
0
  6
CONTINUOUS
 62
   130
 10
147.675865292549
 20
-16.3139743804932
 30
0.0
 11
147.675865292549
 21
-15.5639743804932
 31
0.0
  0
LINE
  5
   233
  8
0
  6
CONTINUOUS
 62
   130
 10
144.925865292549
 20
-16.3139743804932
 30
0.0
 11
146.925865292549
 21
-16.3139743804932
 31
0.0
  0
LINE
  5
   234
  8
0
  6
CONTINUOUS
 62
   130
 10
144.925865292549
 20
-15.5639743804932
 30
0.0
 11
147.675865292549
 21
-15.5639743804932
 31
0.0
  0
LINE
  5
   235
  8
0
  6
CONTINUOUS
 62
   130
 10
144.925865292549
 20
28.4360256195068
 30
0.0
 11
147.675872921944
 21
28.4360256195068
 31
0.0
  0
LINE
  5
   236
  8
0
  6
CONTINUOUS
 62
   130
 10
147.675865292549
 20
28.4360256195068
 30
0.0
 11
147.675865292549
 21
29.1860256195068
 31
0.0
  0
LINE
  5
   237
  8
0
  6
CONTINUOUS
 62
   130
 10
144.925865292549
 20
29.1860256195068
 30
0.0
 11
146.925865292549
 21
29.1860256195068
 31
0.0
  0
LINE
  5
   238
  8
0
  6
CONTINUOUS
 62
   130
 10
144.925865292549
 20
28.4360256195068
 30
0.0
 11
144.925865292549
 21
33.9360247797354
 31
0.0
  0
LINE
  5
   239
  8
0
  6
CONTINUOUS
 62
   130
 10
113.175879700979
 20
34.4360247797354
 30
0.0
 11
144.425865292549
 21
34.4360247797354
 31
0.0
  0
ARC
  5
   23A
  8
0
  6
CONTINUOUS
 62
   130
 10
144.425865292549
 20
33.9360247797354
 30
0.0
 40
0.5
 50
0.0
 51
90.0
  0
ARC
  5
   23B
  8
0
  6
CONTINUOUS
 62
   130
 10
147.675872921944
 20
27.9360256195068
 30
0.0
 40
0.5
 50
0.0
 51
90.0
  0
LINE
  5
   23C
  8
0
  6
CONTINUOUS
 62
   130
 10
144.925865292549
 20
-21.0639735407217
 30
0.0
 11
144.925865292549
 21
-15.5639743804932
 31
0.0
  0
ARC
  5
   23D
  8
0
  6
CONTINUOUS
 62
   130
 10
147.675865292549
 20
-15.0639743804932
 30
0.0
 40
0.5
 50
270.0
 51
360.0
  0
LINE
  5
   23E
  8
0
  6
CONTINUOUS
 62
   130
 10
112.175879478455
 20
-21.5639735407217
 30
0.0
 11
144.425865292549
 21
-21.5639735407217
 31
0.0
  0
LINE
  5
   23F
  8
0
  6
CONTINUOUS
 62
   130
 10
146.175872921944
 20
29.1860256195068
 30
0.0
 11
148.175872921944
 21
29.1860256195068
 31
0.0
  0
LINE
  5
   240
  8
0
  6
CONTINUOUS
 62
   130
 10
146.175872921944
 20
-16.3139743804932
 30
0.0
 11
148.175872921944
 21
-16.3139743804932
 31
0.0
  0
LINE
  5
   241
  8
0
  6
CONTINUOUS
 62
   130
 10
135.925869791123
 20
-22.5639820098877
 30
0.0
 11
135.925869791123
 21
35.4360256195068
 31
0.0
  0
ARC
  5
   242
  8
0
  6
CONTINUOUS
 62
   130
 10
144.425865292549
 20
-21.0639735407217
 30
0.0
 40
0.5
 50
270.0
 51
360.0
  0
LINE
  5
   243
  8
0
  6
CONTINUOUS
 62
   130
 10
113.175879700979
 20
-34.5639781951904
 30
0.0
 11
113.175879700979
 21
47.4360218048096
 31
0.0
  0
LINE
  5
   244
  8
0
  6
CONTINUOUS
 62
   130
 10
113.175879700979
 20
37.4360256195068
 30
0.0
 11
116.175880432129
 21
37.4360256195068
 31
0.0
  0
LINE
  5
   245
  8
0
  6
CONTINUOUS
 62
   130
 10
113.175879700979
 20
37.4360256195068
 30
0.0
 11
147.675872921944
 21
37.4360256195068
 31
0.0
  0
LINE
  5
   246
  8
0
  6
CONTINUOUS
 62
   130
 10
148.175872921944
 20
29.1860256195068
 30
0.0
 11
148.175872921944
 21
36.9360256195068
 31
0.0
  0
ARC
  5
   247
  8
0
  6
CONTINUOUS
 62
   130
 10
147.675872921944
 20
36.9360256195068
 30
0.0
 40
0.5
 50
0.0
 51
90.0
  0
LINE
  5
   248
  8
0
  6
CONTINUOUS
 62
   130
 10
113.175879700979
 20
35.4360256195068
 30
0.0
 11
146.175872921944
 21
35.4360256195068
 31
0.0
  0
LINE
  5
   249
  8
0
  6
CONTINUOUS
 62
   130
 10
146.175872921944
 20
29.1860256195068
 30
0.0
 11
146.175872921944
 21
35.4360256195068
 31
0.0
  0
LINE
  5
   24A
  8
0
  6
CONTINUOUS
 62
   130
 10
113.175879700979
 20
-24.5639820098877
 30
0.0
 11
147.675872921944
 21
-24.5639820098877
 31
0.0
  0
ARC
  5
   24B
  8
0
  6
CONTINUOUS
 62
   130
 10
147.675872921944
 20
-24.0639820098877
 30
0.0
 40
0.5
 50
270.0
 51
360.0
  0
LINE
  5
   24C
  8
0
  6
CONTINUOUS
 62
   130
 10
148.175872921944
 20
-24.0639820098877
 30
0.0
 11
148.175872921944
 21
-16.3139820098877
 31
0.0
  0
LINE
  5
   24D
  8
0
  6
CONTINUOUS
 62
   130
 10
146.175872921944
 20
-22.5639820098877
 30
0.0
 11
146.175872921944
 21
-16.3139820098877
 31
0.0
  0
LINE
  5
   24E
  8
0
  6
CONTINUOUS
 62
   130
 10
113.175879700979
 20
-22.5639820098877
 30
0.0
 11
146.175872921944
 21
-22.5639820098877
 31
0.0
  0
LINE
  5
   24F
  8
0
  6
DASHDOT
 62
   130
 10
78.0929017966539
 20
0.436033248901392
 30
0.0
 11
170.637363000891
 21
0.436033248901392
 31
0.0
  0
LINE
  5
   250
  8
0
  6
DASHDOT
 62
   130
 10
139.319560853311
 20
31.4310758479898
 30
0.0
 11
146.418304491542
 21
31.431081548949
 31
0.0
  0
LINE
  5
   251
  8
0
  6
CONTINUOUS
 62
   130
 10
62.4258875846863
 20
27.936014175415
 30
0.0
 11
62.4258875846863
 21
36.3020619384056
 31
0.0
  0
LINE
  5
   252
  8
0
  6
CONTINUOUS
 62
   130
 10
80.4258875846863
 20
26.436014175415
 30
0.0
 11
87.6758875846863
 21
26.436014175415
 31
0.0
  0
LINE
  5
   253
  8
0
  6
CONTINUOUS
 62
   130
 10
49.1758875846863
 20
30.436014175415
 30
0.0
 11
49.1758875846863
 21
33.436014175415
 31
0.0
  0
LINE
  5
   254
  8
0
  6
CONTINUOUS
 62
   130
 10
49.6758875846863
 20
29.936014175415
 30
0.0
 11
52.1758875846863
 21
29.936014175415
 31
0.0
  0
LINE
  5
   255
  8
0
  6
CONTINUOUS
 62
   130
 10
49.6758875846863
 20
33.936014175415
 30
0.0
 11
52.1758875846863
 21
33.936014175415
 31
0.0
  0
LINE
  5
   256
  8
0
  6
CONTINUOUS
 62
   130
 10
49.1758875846863
 20
30.436014175415
 30
0.0
 11
49.6758875846863
 21
29.936014175415
 31
0.0
  0
LINE
  5
   257
  8
0
  6
CONTINUOUS
 62
   130
 10
49.1758875846863
 20
33.4360141754151
 30
0.0
 11
49.6758875846863
 21
33.9360141754151
 31
0.0
  0
LINE
  5
   258
  8
0
  6
CONTINUOUS
 62
   130
 10
52.9258875846863
 20
33.436014175415
 30
0.0
 11
56.6758875846863
 21
33.436014175415
 31
0.0
  0
LINE
  5
   259
  8
0
  6
CONTINUOUS
 62
   130
 10
49.6758875846863
 20
29.936014175415
 30
0.0
 11
49.6758875846863
 21
33.936014175415
 31
0.0
  0
LINE
  5
   25A
  8
0
  6
CONTINUOUS
 62
   130
 10
80.4258875846863
 20
33.985998916626
 30
0.0
 11
80.4258875846863
 21
37.485998916626
 31
0.0
  0
LINE
  5
   25B
  8
0
  6
CONTINUOUS
 62
   130
 10
80.4258875846863
 20
26.485998916626
 30
0.0
 11
80.4258875846863
 21
29.985998916626
 31
0.0
  0
LINE
  5
   25C
  8
0
  6
CONTINUOUS
 62
   130
 10
59.9258875846863
 20
28.436014175415
 30
0.0
 11
59.9258875846863
 21
35.436014175415
 31
0.0
  0
LINE
  5
   25D
  8
0
  6
CONTINUOUS
 62
   130
 10
57.4258875846863
 20
27.936014175415
 30
0.0
 11
57.4258875846863
 21
35.936014175415
 31
0.0
  0
LINE
  5
   25E
  8
0
  6
CONTINUOUS
 62
   130
 10
57.4258875846863
 20
28.436014175415
 30
0.0
 11
62.2758875846863
 21
28.436014175415
 31
0.0
  0
LINE
  5
   25F
  8
0
  6
CONTINUOUS
 62
   130
 10
57.4258875846863
 20
35.436014175415
 30
0.0
 11
62.2758875846863
 21
35.436014175415
 31
0.0
  0
LINE
  5
   260
  8
0
  6
CONTINUOUS
 62
   130
 10
56.6758875846863
 20
27.936014175415
 30
0.0
 11
56.6758875846863
 21
35.936014175415
 31
0.0
  0
LINE
  5
   261
  8
0
  6
CONTINUOUS
 62
   130
 10
56.6758875846863
 20
27.936014175415
 30
0.0
 11
57.4258875846863
 21
27.936014175415
 31
0.0
  0
LINE
  5
   262
  8
0
  6
CONTINUOUS
 62
   130
 10
56.6758875846863
 20
35.936014175415
 30
0.0
 11
57.4258875846863
 21
35.936014175415
 31
0.0
  0
LINE
  5
   263
  8
0
  6
CONTINUOUS
 62
   130
 10
49.6758875846863
 20
28.436014175415
 30
0.0
 11
49.6758875846863
 21
35.436014175415
 31
0.0
  0
LINE
  5
   264
  8
0
  6
CONTINUOUS
 62
   130
 10
52.1758875846863
 20
27.936014175415
 30
0.0
 11
52.1758875846863
 21
35.936014175415
 31
0.0
  0
LINE
  5
   265
  8
0
  6
CONTINUOUS
 62
   130
 10
52.9258875846863
 20
27.936014175415
 30
0.0
 11
52.9258875846863
 21
35.936014175415
 31
0.0
  0
LINE
  5
   266
  8
0
  6
CONTINUOUS
 62
   130
 10
49.6758875846863
 20
28.436014175415
 30
0.0
 11
52.1758875846863
 21
28.436014175415
 31
0.0
  0
LINE
  5
   267
  8
0
  6
CONTINUOUS
 62
   130
 10
49.6758875846863
 20
35.436014175415
 30
0.0
 11
52.1758875846863
 21
35.436014175415
 31
0.0
  0
LINE
  5
   268
  8
0
  6
CONTINUOUS
 62
   130
 10
52.1758875846863
 20
27.936014175415
 30
0.0
 11
52.9258875846863
 21
27.936014175415
 31
0.0
  0
LINE
  5
   269
  8
0
  6
CONTINUOUS
 62
   130
 10
52.1758875846863
 20
35.936014175415
 30
0.0
 11
52.9258875846863
 21
35.936014175415
 31
0.0
  0
LINE
  5
   26A
  8
0
  6
CONTINUOUS
 62
   130
 10
57.4258875846863
 20
29.936014175415
 30
0.0
 11
62.2758875846863
 21
29.936014175415
 31
0.0
  0
LINE
  5
   26B
  8
0
  6
CONTINUOUS
 62
   130
 10
57.4258875846863
 20
33.936014175415
 30
0.0
 11
62.2758875846863
 21
33.936014175415
 31
0.0
  0
LINE
  5
   26C
  8
0
  6
CONTINUOUS
 62
   130
 10
52.9258875846863
 20
29.936014175415
 30
0.0
 11
56.6758875846863
 21
29.936014175415
 31
0.0
  0
LINE
  5
   26D
  8
0
  6
CONTINUOUS
 62
   130
 10
52.9258875846863
 20
33.936014175415
 30
0.0
 11
56.6758875846863
 21
33.936014175415
 31
0.0
  0
LINE
  5
   26E
  8
0
  6
CONTINUOUS
 62
   130
 10
52.9258875846863
 20
30.436014175415
 30
0.0
 11
56.6758875846863
 21
30.436014175415
 31
0.0
  0
LINE
  5
   26F
  8
0
  6
CONTINUOUS
 62
   130
 10
75.4258875846863
 20
35.485998916626
 30
0.0
 11
80.4258875846863
 21
35.485998916626
 31
0.0
  0
LINE
  5
   270
  8
0
  6
CONTINUOUS
 62
   130
 10
77.9258875846863
 20
28.485998916626
 30
0.0
 11
77.9258875846863
 21
35.485998916626
 31
0.0
  0
LINE
  5
   271
  8
0
  6
CONTINUOUS
 62
   130
 10
70.9258875846863
 20
33.485998916626
 30
0.0
 11
74.6758875846863
 21
33.485998916626
 31
0.0
  0
LINE
  5
   272
  8
0
  6
CONTINUOUS
 62
   130
 10
74.6758875846863
 20
27.985998916626
 30
0.0
 11
74.6758875846863
 21
35.985998916626
 31
0.0
  0
LINE
  5
   273
  8
0
  6
CONTINUOUS
 62
   130
 10
80.4258875846863
 20
29.1485386336713
 30
0.0
 11
80.4258875846863
 21
37.485998916626
 31
0.0
  0
LINE
  5
   274
  8
0
  6
CONTINUOUS
 62
   130
 10
75.4258875846863
 20
33.985998916626
 30
0.0
 11
80.4258875846863
 21
33.985998916626
 31
0.0
  0
LINE
  5
   275
  8
0
  6
CONTINUOUS
 62
   130
 10
75.4258875846863
 20
29.985998916626
 30
0.0
 11
80.4258875846863
 21
29.985998916626
 31
0.0
  0
LINE
  5
   276
  8
0
  6
CONTINUOUS
 62
   130
 10
75.4258875846863
 20
27.985998916626
 30
0.0
 11
75.4258875846863
 21
35.985998916626
 31
0.0
  0
LINE
  5
   277
  8
0
  6
CONTINUOUS
 62
   130
 10
70.9258875846863
 20
33.985998916626
 30
0.0
 11
74.6758875846863
 21
33.985998916626
 31
0.0
  0
LINE
  5
   278
  8
0
  6
CONTINUOUS
 62
   130
 10
74.6758875846863
 20
35.985998916626
 30
0.0
 11
75.4258875846863
 21
35.985998916626
 31
0.0
  0
LINE
  5
   279
  8
0
  6
CONTINUOUS
 62
   130
 10
74.6758875846863
 20
27.985998916626
 30
0.0
 11
75.4258875846863
 21
27.985998916626
 31
0.0
  0
LINE
  5
   27A
  8
0
  6
CONTINUOUS
 62
   130
 10
70.1758875846863
 20
35.985998916626
 30
0.0
 11
70.9258875846863
 21
35.985998916626
 31
0.0
  0
LINE
  5
   27B
  8
0
  6
CONTINUOUS
 62
   130
 10
70.1758875846863
 20
27.985998916626
 30
0.0
 11
70.9258875846863
 21
27.985998916626
 31
0.0
  0
LINE
  5
   27C
  8
0
  6
CONTINUOUS
 62
   130
 10
67.6758875846863
 20
35.485998916626
 30
0.0
 11
70.1758875846863
 21
35.485998916626
 31
0.0
  0
LINE
  5
   27D
  8
0
  6
CONTINUOUS
 62
   130
 10
67.6758875846863
 20
33.985998916626
 30
0.0
 11
70.1758875846863
 21
33.985998916626
 31
0.0
  0
LINE
  5
   27E
  8
0
  6
CONTINUOUS
 62
   130
 10
67.6758875846863
 20
29.985998916626
 30
0.0
 11
70.1758875846863
 21
29.985998916626
 31
0.0
  0
LINE
  5
   27F
  8
0
  6
CONTINUOUS
 62
   130
 10
67.6758875846863
 20
28.485998916626
 30
0.0
 11
70.1758875846863
 21
28.485998916626
 31
0.0
  0
LINE
  5
   280
  8
0
  6
CONTINUOUS
 62
   130
 10
67.1758875846863
 20
33.485998916626
 30
0.0
 11
67.6758875846863
 21
33.985998916626
 31
0.0
  0
LINE
  5
   281
  8
0
  6
CONTINUOUS
 62
   130
 10
67.1758875846863
 20
30.485998916626
 30
0.0
 11
67.1758875846863
 21
33.485998916626
 31
0.0
  0
LINE
  5
   282
  8
0
  6
CONTINUOUS
 62
   130
 10
67.1758875846863
 20
30.485998916626
 30
0.0
 11
67.6758875846863
 21
29.9859989166259
 31
0.0
  0
LINE
  5
   283
  8
0
  6
CONTINUOUS
 62
   130
 10
67.6758875846863
 20
35.485998916626
 30
0.0
 11
70.1758875846863
 21
35.485998916626
 31
0.0
  0
LINE
  5
   284
  8
0
  6
CONTINUOUS
 62
   130
 10
67.6758875846863
 20
28.485998916626
 30
0.0
 11
67.6758875846863
 21
35.485998916626
 31
0.0
  0
LINE
  5
   285
  8
0
  6
CONTINUOUS
 62
   130
 10
70.1758875846863
 20
27.985998916626
 30
0.0
 11
70.1758875846863
 21
35.985998916626
 31
0.0
  0
LINE
  5
   286
  8
0
  6
CONTINUOUS
 62
   130
 10
70.1758875846863
 20
27.985998916626
 30
0.0
 11
70.1758875846863
 21
35.985998916626
 31
0.0
  0
LINE
  5
   287
  8
0
  6
CONTINUOUS
 62
   130
 10
70.9258875846863
 20
27.985998916626
 30
0.0
 11
70.9258875846863
 21
35.985998916626
 31
0.0
  0
LINE
  5
   288
  8
0
  6
CONTINUOUS
 62
   130
 10
74.6758875846863
 20
27.985998916626
 30
0.0
 11
74.6758875846863
 21
35.985998916626
 31
0.0
  0
LINE
  5
   289
  8
0
  6
CONTINUOUS
 62
   130
 10
74.6758875846863
 20
27.985998916626
 30
0.0
 11
74.6758875846863
 21
35.985998916626
 31
0.0
  0
LINE
  5
   28A
  8
0
  6
CONTINUOUS
 62
   130
 10
70.9258875846863
 20
33.985998916626
 30
0.0
 11
74.6758875846863
 21
33.985998916626
 31
0.0
  0
LINE
  5
   28B
  8
0
  6
CONTINUOUS
 62
   130
 10
70.9258875846863
 20
29.985998916626
 30
0.0
 11
74.6758875846863
 21
29.985998916626
 31
0.0
  0
LINE
  5
   28C
  8
0
  6
CONTINUOUS
 62
   130
 10
70.9258875846863
 20
29.9859984079997
 30
0.0
 11
74.6758875846863
 21
29.9859984079997
 31
0.0
  0
LINE
  5
   28D
  8
0
  6
CONTINUOUS
 62
   130
 10
70.9258875846863
 20
30.4859984079997
 30
0.0
 11
74.6758875846863
 21
30.4859984079997
 31
0.0
  0
LINE
  5
   28E
  8
0
  6
CONTINUOUS
 62
   130
 10
62.2758875846863
 20
28.3119263086094
 30
0.0
 11
62.2758875846863
 21
36.3020619384056
 31
0.0
  0
LINE
  5
   28F
  8
0
  6
CONTINUOUS
 62
   130
 10
62.2758875846863
 20
36.3020619384056
 30
0.0
 11
62.4258875846863
 21
36.3020619384056
 31
0.0
  0
LINE
  5
   290
  8
0
  6
CONTINUOUS
 62
   130
 10
61.7308968312907
 20
27.5548035208578
 30
0.0
 11
62.4258875846863
 21
28.2497942742534
 31
0.0
  0
LINE
  5
   291
  8
0
  6
CONTINUOUS
 62
   130
 10
61.6248308141127
 20
27.6608695380358
 30
0.0
 11
62.2758875846863
 21
28.3119263086094
 31
0.0
  0
LINE
  5
   292
  8
0
  6
CONTINUOUS
 62
   130
 10
61.6248308141127
 20
27.6608695380357
 30
0.0
 11
61.7308968312906
 21
27.5548035208578
 31
0.0
  0
LINE
  5
   293
  8
0
  6
CONTINUOUS
 62
   130
 10
79.6248308141127
 20
27.7108540249335
 30
0.0
 11
79.7308968312907
 21
27.6047880077555
 31
0.0
  0
LINE
  5
   294
  8
0
  6
CONTINUOUS
 62
   130
 10
79.7308968312906
 20
27.6047880077556
 30
0.0
 11
80.4258875846863
 21
28.2997787611512
 31
0.0
  0
LINE
  5
   295
  8
0
  6
CONTINUOUS
 62
   130
 10
79.6248308141127
 20
27.7108540249335
 30
0.0
 11
80.2758875846863
 21
28.3619107955072
 31
0.0
  0
LINE
  5
   296
  8
0
  6
CONTINUOUS
 62
   130
 10
80.2758875846863
 20
28.3619107955072
 30
0.0
 11
80.2758875846863
 21
36.3520464253034
 31
0.0
  0
LINE
  5
   297
  8
0
  6
CONTINUOUS
 62
   130
 10
80.2758875846863
 20
36.3520464253034
 30
0.0
 11
80.4258875846863
 21
36.3520464253034
 31
0.0
  0
LINE
  5
   298
  8
0
  6
CONTINUOUS
 62
   130
 10
87.6758875846863
 20
28.436014175415
 30
0.0
 11
88.1758875846861
 21
28.436014175415
 31
0.0
  0
LINE
  5
   299
  8
0
  6
CONTINUOUS
 62
   130
 10
75.4258875846863
 20
28.4859989166259
 30
0.0
 11
80.4258875846863
 21
28.4859989166259
 31
0.0
  0
LINE
  5
   29A
  8
0
  6
CONTINUOUS
 62
   130
 10
87.6758875846863
 20
35.485998916626
 30
0.0
 11
88.1758875846861
 21
35.485998916626
 31
0.0
  0
LINE
  5
   29B
  8
0
  6
CONTINUOUS
 62
   130
 10
87.6758875846863
 20
28.485998916626
 30
0.0
 11
88.1758875846861
 21
28.485998916626
 31
0.0
  0
LINE
  5
   29C
  8
0
  6
CONTINUOUS
 62
   130
 10
87.6758875846863
 20
26.436014175415
 30
0.0
 11
87.6758875846863
 21
37.485998916626
 31
0.0
  0
LINE
  5
   29D
  8
0
  6
CONTINUOUS
 62
   130
 10
80.4258875846863
 20
37.485998916626
 30
0.0
 11
87.6758875846863
 21
37.485998916626
 31
0.0
  0
LINE
  5
   29E
  8
0
  6
CONTINUOUS
 62
   130
 10
87.6758875846863
 20
26.936014175415
 30
0.0
 11
87.6758875846863
 21
36.936014175415
 31
0.0
  0
LINE
  5
   29F
  8
0
  6
CONTINUOUS
 62
   130
 10
87.6758875846863
 20
35.485998916626
 30
0.0
 11
88.1758875846861
 21
35.485998916626
 31
0.0
  0
LINE
  5
   2A0
  8
0
  6
DASHDOT
 62
   130
 10
64.2776043143116
 20
31.936014175415
 30
0.0
 11
92.6382091524558
 21
31.936014175415
 31
0.0
  0
LINE
  5
   2A1
  8
0
  6
DASHDOT
 62
   130
 10
64.2776043143116
 20
31.936014175415
 30
0.0
 11
93.6452486346842
 21
31.936014175415
 31
0.0
  0
LINE
  5
   2A2
  8
0
  6
CONTINUOUS
 62
   130
 10
62.4258875846863
 20
27.936014175415
 30
0.0
 11
80.4258875846863
 21
27.936014175415
 31
0.0
  0
LINE
  5
   2A3
  8
0
  6
CONTINUOUS
 62
   130
 10
62.4258875846863
 20
35.936014175415
 30
0.0
 11
80.4258875846863
 21
35.936014175415
 31
0.0
  0
LINE
  5
   2A4
  8
0
  6
CONTINUOUS
 62
   130
 10
80.4258875846863
 20
26.436014175415
 30
0.0
 11
80.4258875846863
 21
37.436014175415
 31
0.0
  0
LINE
  5
   2A5
  8
0
  6
CONTINUOUS
 62
   130
 10
62.4258875846863
 20
-23.4300335875756
 30
0.0
 11
62.4258875846863
 21
-15.063985824585
 31
0.0
  0
LINE
  5
   2A6
  8
0
  6
CONTINUOUS
 62
   130
 10
80.4258875846863
 20
-13.563985824585
 30
0.0
 11
87.6758875846863
 21
-13.563985824585
 31
0.0
  0
LINE
  5
   2A7
  8
0
  6
CONTINUOUS
 62
   130
 10
49.1758875846863
 20
-20.563985824585
 30
0.0
 11
49.1758875846863
 21
-17.563985824585
 31
0.0
  0
LINE
  5
   2A8
  8
0
  6
CONTINUOUS
 62
   130
 10
49.6758875846863
 20
-17.063985824585
 30
0.0
 11
52.1758875846863
 21
-17.063985824585
 31
0.0
  0
LINE
  5
   2A9
  8
0
  6
CONTINUOUS
 62
   130
 10
49.6758875846863
 20
-21.063985824585
 30
0.0
 11
52.1758875846863
 21
-21.063985824585
 31
0.0
  0
LINE
  5
   2AA
  8
0
  6
CONTINUOUS
 62
   130
 10
49.1758875846863
 20
-17.563985824585
 30
0.0
 11
49.6758875846863
 21
-17.063985824585
 31
0.0
  0
LINE
  5
   2AB
  8
0
  6
CONTINUOUS
 62
   130
 10
49.1758875846863
 20
-20.563985824585
 30
0.0
 11
49.6758875846863
 21
-21.063985824585
 31
0.0
  0
LINE
  5
   2AC
  8
0
  6
CONTINUOUS
 62
   130
 10
52.9258875846863
 20
-20.563985824585
 30
0.0
 11
56.6758875846863
 21
-20.563985824585
 31
0.0
  0
LINE
  5
   2AD
  8
0
  6
CONTINUOUS
 62
   130
 10
49.6758875846863
 20
-21.063985824585
 30
0.0
 11
49.6758875846863
 21
-17.063985824585
 31
0.0
  0
LINE
  5
   2AE
  8
0
  6
CONTINUOUS
 62
   130
 10
80.4258875846863
 20
-24.6139705657959
 30
0.0
 11
80.4258875846863
 21
-21.1139705657959
 31
0.0
  0
LINE
  5
   2AF
  8
0
  6
CONTINUOUS
 62
   130
 10
80.4258875846863
 20
-17.1139705657959
 30
0.0
 11
80.4258875846863
 21
-13.6139705657959
 31
0.0
  0
LINE
  5
   2B0
  8
0
  6
CONTINUOUS
 62
   130
 10
59.9258875846863
 20
-22.563985824585
 30
0.0
 11
59.9258875846863
 21
-15.563985824585
 31
0.0
  0
LINE
  5
   2B1
  8
0
  6
CONTINUOUS
 62
   130
 10
57.4258875846863
 20
-23.063985824585
 30
0.0
 11
57.4258875846863
 21
-15.063985824585
 31
0.0
  0
LINE
  5
   2B2
  8
0
  6
CONTINUOUS
 62
   130
 10
57.4258875846863
 20
-15.563985824585
 30
0.0
 11
62.2758875846863
 21
-15.563985824585
 31
0.0
  0
LINE
  5
   2B3
  8
0
  6
CONTINUOUS
 62
   130
 10
57.4258875846863
 20
-22.563985824585
 30
0.0
 11
62.2758875846863
 21
-22.563985824585
 31
0.0
  0
LINE
  5
   2B4
  8
0
  6
CONTINUOUS
 62
   130
 10
56.6758875846863
 20
-23.063985824585
 30
0.0
 11
56.6758875846863
 21
-15.063985824585
 31
0.0
  0
LINE
  5
   2B5
  8
0
  6
CONTINUOUS
 62
   130
 10
56.6758875846863
 20
-15.063985824585
 30
0.0
 11
57.4258875846863
 21
-15.063985824585
 31
0.0
  0
LINE
  5
   2B6
  8
0
  6
CONTINUOUS
 62
   130
 10
56.6758875846863
 20
-23.063985824585
 30
0.0
 11
57.4258875846863
 21
-23.063985824585
 31
0.0
  0
LINE
  5
   2B7
  8
0
  6
CONTINUOUS
 62
   130
 10
49.6758875846863
 20
-22.563985824585
 30
0.0
 11
49.6758875846863
 21
-15.563985824585
 31
0.0
  0
LINE
  5
   2B8
  8
0
  6
CONTINUOUS
 62
   130
 10
52.1758875846863
 20
-23.063985824585
 30
0.0
 11
52.1758875846863
 21
-15.063985824585
 31
0.0
  0
LINE
  5
   2B9
  8
0
  6
CONTINUOUS
 62
   130
 10
52.9258875846863
 20
-23.063985824585
 30
0.0
 11
52.9258875846863
 21
-15.063985824585
 31
0.0
  0
LINE
  5
   2BA
  8
0
  6
CONTINUOUS
 62
   130
 10
49.6758875846863
 20
-15.563985824585
 30
0.0
 11
52.1758875846863
 21
-15.563985824585
 31
0.0
  0
LINE
  5
   2BB
  8
0
  6
CONTINUOUS
 62
   130
 10
49.6758875846863
 20
-22.563985824585
 30
0.0
 11
52.1758875846863
 21
-22.563985824585
 31
0.0
  0
LINE
  5
   2BC
  8
0
  6
CONTINUOUS
 62
   130
 10
52.1758875846863
 20
-15.063985824585
 30
0.0
 11
52.9258875846863
 21
-15.063985824585
 31
0.0
  0
LINE
  5
   2BD
  8
0
  6
CONTINUOUS
 62
   130
 10
52.1758875846863
 20
-23.063985824585
 30
0.0
 11
52.9258875846863
 21
-23.063985824585
 31
0.0
  0
LINE
  5
   2BE
  8
0
  6
CONTINUOUS
 62
   130
 10
57.4258875846863
 20
-17.063985824585
 30
0.0
 11
62.2758875846863
 21
-17.063985824585
 31
0.0
  0
LINE
  5
   2BF
  8
0
  6
CONTINUOUS
 62
   130
 10
57.4258875846863
 20
-21.063985824585
 30
0.0
 11
62.2758875846863
 21
-21.063985824585
 31
0.0
  0
LINE
  5
   2C0
  8
0
  6
CONTINUOUS
 62
   130
 10
52.9258875846863
 20
-17.063985824585
 30
0.0
 11
56.6758875846863
 21
-17.063985824585
 31
0.0
  0
LINE
  5
   2C1
  8
0
  6
CONTINUOUS
 62
   130
 10
52.9258875846863
 20
-21.063985824585
 30
0.0
 11
56.6758875846863
 21
-21.063985824585
 31
0.0
  0
LINE
  5
   2C2
  8
0
  6
CONTINUOUS
 62
   130
 10
52.9258875846863
 20
-17.563985824585
 30
0.0
 11
56.6758875846863
 21
-17.563985824585
 31
0.0
  0
LINE
  5
   2C3
  8
0
  6
CONTINUOUS
 62
   130
 10
75.4258875846863
 20
-22.6139705657959
 30
0.0
 11
80.4258875846863
 21
-22.6139705657959
 31
0.0
  0
LINE
  5
   2C4
  8
0
  6
CONTINUOUS
 62
   130
 10
77.9258875846863
 20
-22.6139705657959
 30
0.0
 11
77.9258875846863
 21
-15.6139705657959
 31
0.0
  0
LINE
  5
   2C5
  8
0
  6
CONTINUOUS
 62
   130
 10
70.9258875846863
 20
-20.6139705657959
 30
0.0
 11
74.6758875846863
 21
-20.6139705657959
 31
0.0
  0
LINE
  5
   2C6
  8
0
  6
CONTINUOUS
 62
   130
 10
74.6758875846863
 20
-23.1139705657959
 30
0.0
 11
74.6758875846863
 21
-15.1139705657959
 31
0.0
  0
LINE
  5
   2C7
  8
0
  6
CONTINUOUS
 62
   130
 10
80.4258875846863
 20
-24.6139705657959
 30
0.0
 11
80.4258875846863
 21
-16.2765102828412
 31
0.0
  0
LINE
  5
   2C8
  8
0
  6
CONTINUOUS
 62
   130
 10
75.4258875846863
 20
-21.1139705657959
 30
0.0
 11
80.4258875846863
 21
-21.1139705657959
 31
0.0
  0
LINE
  5
   2C9
  8
0
  6
CONTINUOUS
 62
   130
 10
75.4258875846863
 20
-17.1139705657959
 30
0.0
 11
80.4258875846863
 21
-17.1139705657959
 31
0.0
  0
LINE
  5
   2CA
  8
0
  6
CONTINUOUS
 62
   130
 10
75.4258875846863
 20
-23.1139705657959
 30
0.0
 11
75.4258875846863
 21
-15.1139705657959
 31
0.0
  0
LINE
  5
   2CB
  8
0
  6
CONTINUOUS
 62
   130
 10
70.9258875846863
 20
-21.1139705657959
 30
0.0
 11
74.6758875846863
 21
-21.1139705657959
 31
0.0
  0
LINE
  5
   2CC
  8
0
  6
CONTINUOUS
 62
   130
 10
74.6758875846863
 20
-23.1139705657959
 30
0.0
 11
75.4258875846863
 21
-23.1139705657959
 31
0.0
  0
LINE
  5
   2CD
  8
0
  6
CONTINUOUS
 62
   130
 10
74.6758875846863
 20
-15.1139705657959
 30
0.0
 11
75.4258875846863
 21
-15.1139705657959
 31
0.0
  0
LINE
  5
   2CE
  8
0
  6
CONTINUOUS
 62
   130
 10
70.1758875846863
 20
-23.1139705657959
 30
0.0
 11
70.9258875846863
 21
-23.1139705657959
 31
0.0
  0
LINE
  5
   2CF
  8
0
  6
CONTINUOUS
 62
   130
 10
70.1758875846863
 20
-15.1139705657959
 30
0.0
 11
70.9258875846863
 21
-15.1139705657959
 31
0.0
  0
LINE
  5
   2D0
  8
0
  6
CONTINUOUS
 62
   130
 10
67.6758875846863
 20
-22.6139705657959
 30
0.0
 11
70.1758875846863
 21
-22.6139705657959
 31
0.0
  0
LINE
  5
   2D1
  8
0
  6
CONTINUOUS
 62
   130
 10
67.6758875846863
 20
-21.1139705657959
 30
0.0
 11
70.1758875846863
 21
-21.1139705657959
 31
0.0
  0
LINE
  5
   2D2
  8
0
  6
CONTINUOUS
 62
   130
 10
67.6758875846863
 20
-17.1139705657959
 30
0.0
 11
70.1758875846863
 21
-17.1139705657959
 31
0.0
  0
LINE
  5
   2D3
  8
0
  6
CONTINUOUS
 62
   130
 10
67.6758875846863
 20
-15.6139705657959
 30
0.0
 11
70.1758875846863
 21
-15.6139705657959
 31
0.0
  0
LINE
  5
   2D4
  8
0
  6
CONTINUOUS
 62
   130
 10
67.1758875846863
 20
-20.6139705657959
 30
0.0
 11
67.6758875846863
 21
-21.1139705657959
 31
0.0
  0
LINE
  5
   2D5
  8
0
  6
CONTINUOUS
 62
   130
 10
67.1758875846863
 20
-20.6139705657959
 30
0.0
 11
67.1758875846863
 21
-17.6139705657959
 31
0.0
  0
LINE
  5
   2D6
  8
0
  6
CONTINUOUS
 62
   130
 10
67.1758875846863
 20
-17.6139705657959
 30
0.0
 11
67.6758875846863
 21
-17.1139705657959
 31
0.0
  0
LINE
  5
   2D7
  8
0
  6
CONTINUOUS
 62
   130
 10
67.6758875846863
 20
-22.6139705657959
 30
0.0
 11
70.1758875846863
 21
-22.6139705657959
 31
0.0
  0
LINE
  5
   2D8
  8
0
  6
CONTINUOUS
 62
   130
 10
67.6758875846863
 20
-22.6139705657959
 30
0.0
 11
67.6758875846863
 21
-15.6139705657959
 31
0.0
  0
LINE
  5
   2D9
  8
0
  6
CONTINUOUS
 62
   130
 10
70.1758875846863
 20
-23.1139705657959
 30
0.0
 11
70.1758875846863
 21
-15.1139705657959
 31
0.0
  0
LINE
  5
   2DA
  8
0
  6
CONTINUOUS
 62
   130
 10
70.1758875846863
 20
-23.1139705657959
 30
0.0
 11
70.1758875846863
 21
-15.1139705657959
 31
0.0
  0
LINE
  5
   2DB
  8
0
  6
CONTINUOUS
 62
   130
 10
70.9258875846863
 20
-23.1139705657959
 30
0.0
 11
70.9258875846863
 21
-15.1139705657959
 31
0.0
  0
LINE
  5
   2DC
  8
0
  6
CONTINUOUS
 62
   130
 10
74.6758875846863
 20
-23.1139705657959
 30
0.0
 11
74.6758875846863
 21
-15.1139705657959
 31
0.0
  0
LINE
  5
   2DD
  8
0
  6
CONTINUOUS
 62
   130
 10
74.6758875846863
 20
-23.1139705657959
 30
0.0
 11
74.6758875846863
 21
-15.1139705657959
 31
0.0
  0
LINE
  5
   2DE
  8
0
  6
CONTINUOUS
 62
   130
 10
70.9258875846863
 20
-21.1139705657959
 30
0.0
 11
74.6758875846863
 21
-21.1139705657959
 31
0.0
  0
LINE
  5
   2DF
  8
0
  6
CONTINUOUS
 62
   130
 10
70.9258875846863
 20
-17.1139705657959
 30
0.0
 11
74.6758875846863
 21
-17.1139705657959
 31
0.0
  0
LINE
  5
   2E0
  8
0
  6
CONTINUOUS
 62
   130
 10
70.9258875846863
 20
-17.1139700571696
 30
0.0
 11
74.6758875846863
 21
-17.1139700571696
 31
0.0
  0
LINE
  5
   2E1
  8
0
  6
CONTINUOUS
 62
   130
 10
70.9258875846863
 20
-17.6139700571696
 30
0.0
 11
74.6758875846863
 21
-17.6139700571696
 31
0.0
  0
LINE
  5
   2E2
  8
0
  6
CONTINUOUS
 62
   130
 10
62.2758875846863
 20
-23.4300335875756
 30
0.0
 11
62.2758875846863
 21
-15.4398979577793
 31
0.0
  0
LINE
  5
   2E3
  8
0
  6
CONTINUOUS
 62
   130
 10
62.2758875846863
 20
-23.4300335875756
 30
0.0
 11
62.4258875846863
 21
-23.4300335875756
 31
0.0
  0
LINE
  5
   2E4
  8
0
  6
CONTINUOUS
 62
   130
 10
61.7308968312907
 20
-14.6827751700277
 30
0.0
 11
62.4258875846863
 21
-15.3777659234233
 31
0.0
  0
LINE
  5
   2E5
  8
0
  6
CONTINUOUS
 62
   130
 10
61.6248308141127
 20
-14.7888411872057
 30
0.0
 11
62.2758875846863
 21
-15.4398979577793
 31
0.0
  0
LINE
  5
   2E6
  8
0
  6
CONTINUOUS
 62
   130
 10
61.6248308141127
 20
-14.7888411872057
 30
0.0
 11
61.7308968312907
 21
-14.6827751700277
 31
0.0
  0
LINE
  5
   2E7
  8
0
  6
CONTINUOUS
 62
   130
 10
79.6248308141127
 20
-14.8388256741034
 30
0.0
 11
79.7308968312907
 21
-14.7327596569255
 31
0.0
  0
LINE
  5
   2E8
  8
0
  6
CONTINUOUS
 62
   130
 10
79.7308968312906
 20
-14.7327596569255
 30
0.0
 11
80.4258875846863
 21
-15.4277504103211
 31
0.0
  0
LINE
  5
   2E9
  8
0
  6
CONTINUOUS
 62
   130
 10
79.6248308141127
 20
-14.8388256741035
 30
0.0
 11
80.2758875846863
 21
-15.4898824446771
 31
0.0
  0
LINE
  5
   2EA
  8
0
  6
CONTINUOUS
 62
   130
 10
80.2758875846863
 20
-23.4800180744734
 30
0.0
 11
80.2758875846863
 21
-15.4898824446771
 31
0.0
  0
LINE
  5
   2EB
  8
0
  6
CONTINUOUS
 62
   130
 10
80.2758875846863
 20
-23.4800180744734
 30
0.0
 11
80.4258875846863
 21
-23.4800180744734
 31
0.0
  0
LINE
  5
   2EC
  8
0
  6
CONTINUOUS
 62
   130
 10
87.6758875846863
 20
-15.563985824585
 30
0.0
 11
88.1758875846861
 21
-15.563985824585
 31
0.0
  0
LINE
  5
   2ED
  8
0
  6
CONTINUOUS
 62
   130
 10
75.4258875846863
 20
-15.6139705657959
 30
0.0
 11
80.4258875846863
 21
-15.6139705657959
 31
0.0
  0
LINE
  5
   2EE
  8
0
  6
CONTINUOUS
 62
   130
 10
87.6758875846863
 20
-22.6139705657959
 30
0.0
 11
88.1758875846861
 21
-22.6139705657959
 31
0.0
  0
LINE
  5
   2EF
  8
0
  6
CONTINUOUS
 62
   130
 10
87.6758875846863
 20
-15.6139705657959
 30
0.0
 11
88.1758875846861
 21
-15.6139705657959
 31
0.0
  0
LINE
  5
   2F0
  8
0
  6
CONTINUOUS
 62
   130
 10
87.6758875846863
 20
-24.6139705657959
 30
0.0
 11
87.6758875846863
 21
-13.563985824585
 31
0.0
  0
LINE
  5
   2F1
  8
0
  6
CONTINUOUS
 62
   130
 10
80.4258875846863
 20
-24.6139705657959
 30
0.0
 11
87.6758875846863
 21
-24.6139705657959
 31
0.0
  0
LINE
  5
   2F2
  8
0
  6
CONTINUOUS
 62
   130
 10
87.6758875846863
 20
-24.063985824585
 30
0.0
 11
87.6758875846863
 21
-14.063985824585
 31
0.0
  0
LINE
  5
   2F3
  8
0
  6
CONTINUOUS
 62
   130
 10
87.6758875846863
 20
-22.6139705657959
 30
0.0
 11
88.1758875846861
 21
-22.6139705657959
 31
0.0
  0
LINE
  5
   2F4
  8
0
  6
DASHDOT
 62
   130
 10
64.2776043143116
 20
-19.063985824585
 30
0.0
 11
92.6382091524558
 21
-19.063985824585
 31
0.0
  0
LINE
  5
   2F5
  8
0
  6
DASHDOT
 62
   130
 10
64.2776043143116
 20
-19.063985824585
 30
0.0
 11
93.6452486346842
 21
-19.063985824585
 31
0.0
  0
LINE
  5
   2F6
  8
0
  6
CONTINUOUS
 62
   130
 10
62.4258875846863
 20
-15.063985824585
 30
0.0
 11
80.4258875846863
 21
-15.063985824585
 31
0.0
  0
LINE
  5
   2F7
  8
0
  6
CONTINUOUS
 62
   130
 10
62.4258875846863
 20
-23.063985824585
 30
0.0
 11
80.4258875846863
 21
-23.063985824585
 31
0.0
  0
LINE
  5
   2F8
  8
0
  6
CONTINUOUS
 62
   130
 10
80.4258875846863
 20
-24.563985824585
 30
0.0
 11
80.4258875846863
 21
-13.563985824585
 31
0.0
  0
LINE
  5
   2F9
  8
0
  6
CONTINUOUS
 62
   130
 10
149.17586517334
 20
11.6860332489014
 30
0.0
 11
149.17586517334
 21
12.1860332489014
 31
0.0
  0
LINE
  5
   2FA
  8
0
  6
CONTINUOUS
 62
   130
 10
149.17586517334
 20
-11.3139667510986
 30
0.0
 11
149.17586517334
 21
-10.8139667510986
 31
0.0
  0
LINE
  5
   2FB
  8
0
  6
CONTINUOUS
 62
   130
 10
87.1758875846861
 20
-37.2173517320756
 30
0.0
 11
87.1758875846861
 21
49.6807605172001
 31
0.0
  0
LINE
  5
   2FC
  8
0
  6
CONTINUOUS
 62
   130
 10
149.17586517334
 20
12.9360332489014
 30
0.0
 11
149.17586517334
 21
24.4360332489014
 31
0.0
  0
LINE
  5
   2FD
  8
0
  6
DASHDOT
 62
   130
 10
149.17586517334
 20
-33.8154148882972
 30
0.0
 11
149.17586517334
 21
50.1549923310963
 31
0.0
  0
LINE
  5
   2FE
  8
0
  6
CONTINUOUS
 62
   130
 10
150.67586517334
 20
-23.5639667510986
 30
0.0
 11
150.67586517334
 21
-10.8139667510986
 31
0.0
  0
LINE
  5
   2FF
  8
0
  6
CONTINUOUS
 62
   130
 10
148.42586517334
 20
12.1860332489014
 30
0.0
 11
149.17586517334
 21
12.1860332489014
 31
0.0
  0
LINE
  5
   300
  8
0
  6
CONTINUOUS
 62
   130
 10
148.42586517334
 20
12.9360332489014
 30
0.0
 11
149.17586517334
 21
12.9360332489014
 31
0.0
  0
LINE
  5
   301
  8
0
  6
CONTINUOUS
 62
   130
 10
148.42586517334
 20
12.1860332489014
 30
0.0
 11
148.42586517334
 21
12.9360332489014
 31
0.0
  0
LINE
  5
   302
  8
0
  6
CONTINUOUS
 62
   130
 10
149.17586517334
 20
24.4360332489014
 30
0.0
 11
150.67586517334
 21
24.4360332489014
 31
0.0
  0
LINE
  5
   303
  8
0
  6
CONTINUOUS
 62
   130
 10
149.17586517334
 20
-23.5639667510986
 30
0.0
 11
150.67586517334
 21
-23.5639667510986
 31
0.0
  0
LINE
  5
   304
  8
0
  6
CONTINUOUS
 62
   130
 10
149.17586517334
 20
-23.5639667510986
 30
0.0
 11
149.17586517334
 21
-12.0639667510986
 31
0.0
  0
LINE
  5
   305
  8
0
  6
CONTINUOUS
 62
   130
 10
148.42586517334
 20
-12.0639667510986
 30
0.0
 11
149.17586517334
 21
-12.0639667510986
 31
0.0
  0
LINE
  5
   306
  8
0
  6
CONTINUOUS
 62
   130
 10
148.42586517334
 20
-12.0639667510986
 30
0.0
 11
148.42586517334
 21
-11.3139667510986
 31
0.0
  0
LINE
  5
   307
  8
0
  6
CONTINUOUS
 62
   130
 10
150.67586517334
 20
11.6860332489014
 30
0.0
 11
150.67586517334
 21
24.4360332489014
 31
0.0
  0
LINE
  5
   308
  8
0
  6
CONTINUOUS
 62
   130
 10
148.17586517334
 20
17.1860332489014
 30
0.0
 11
149.17586517334
 21
17.1860332489014
 31
0.0
  0
LINE
  5
   309
  8
0
  6
CONTINUOUS
 62
   130
 10
148.17586517334
 20
15.6860332489014
 30
0.0
 11
149.17586517334
 21
15.6860332489014
 31
0.0
  0
LINE
  5
   30A
  8
0
  6
CONTINUOUS
 62
   130
 10
148.17586517334
 20
15.3110332489014
 30
0.0
 11
148.17586517334
 21
17.5610332489014
 31
0.0
  0
LINE
  5
   30B
  8
0
  6
CONTINUOUS
 62
   130
 10
148.17586517334
 20
-16.6889667510986
 30
0.0
 11
148.17586517334
 21
-14.4389667510986
 31
0.0
  0
LINE
  5
   30C
  8
0
  6
CONTINUOUS
 62
   130
 10
148.17586517334
 20
-16.3139667510986
 30
0.0
 11
149.17586517334
 21
-16.3139667510986
 31
0.0
  0
LINE
  5
   30D
  8
0
  6
CONTINUOUS
 62
   130
 10
148.17586517334
 20
-14.8139667510986
 30
0.0
 11
149.17586517334
 21
-14.8139667510986
 31
0.0
  0
LINE
  5
   30E
  8
0
  6
CONTINUOUS
 62
   130
 10
149.17586517334
 20
12.1860332489014
 30
0.0
 11
150.67586517334
 21
12.1860332489014
 31
0.0
  0
LINE
  5
   30F
  8
0
  6
CONTINUOUS
 62
   130
 10
148.42586517334
 20
-11.3139667510986
 30
0.0
 11
150.67586517334
 21
-11.3139667510986
 31
0.0
  0
LINE
  5
   310
  8
0
  6
DASHDOT
 62
   130
 10
148.42586517334
 20
-34.0815508018459
 30
0.0
 11
148.42586517334
 21
50.4166017498791
 31
0.0
  0
INSERT
  5
   311
  8
0
  6
CONTINUOUS
 62
     2
  2
*HATCH94
 10
126.125869750977
 20
-3.71391868591309
 30
0.0
 41
0.5
 42
0.5
 43
0.5
  0
INSERT
  5
   312
  8
0
  6
CONTINUOUS
 62
     2
  2
*HATCH95
 10
126.125869750977
 20
-3.71391868591309
 30
0.0
 41
0.5
 42
0.5
 43
0.5
  0
LINE
  5
   313
  8
0
  6
DASHDOT
 62
   130
 10
158.675879700979
 20
-7.67916242966657
 30
0.0
 11
158.675879700979
 21
-4.14902768731401
 31
0.0
  0
LINE
  5
   314
  8
0
  6
CONTINUOUS
 62
   130
 10
147.925872921944
 20
37.1860256195068
 30
0.0
 11
149.675872921944
 21
37.1860256195068
 31
0.0
  0
LINE
  5
   315
  8
0
  6
CONTINUOUS
 62
   130
 10
147.925872921944
 20
34.6860256195068
 30
0.0
 11
149.675872921944
 21
34.6860256195068
 31
0.0
  0
LINE
  5
   316
  8
0
  6
CONTINUOUS
 62
   130
 10
149.925872921944
 20
34.9360256195068
 30
0.0
 11
149.925872921944
 21
36.9360256195068
 31
0.0
  0
CIRCLE
  5
   317
  8
0
  6
CONTINUOUS
 62
   130
 10
148.925872921944
 20
35.9360256195068
 30
0.0
 40
0.375
  0
LINE
  5
   318
  8
0
  6
CONTINUOUS
 62
   130
 10
149.675872921944
 20
37.1860256195068
 30
0.0
 11
149.925872921944
 21
36.9360256195068
 31
0.0
  0
LINE
  5
   319
  8
0
  6
CONTINUOUS
 62
   130
 10
149.675872921944
 20
34.6860256195068
 30
0.0
 11
149.925872921944
 21
34.9360256195068
 31
0.0
  0
LINE
  5
   31A
  8
0
  6
CONTINUOUS
 62
   130
 10
149.675872921944
 20
34.6860256195068
 30
0.0
 11
149.675872921944
 21
37.1860256195068
 31
0.0
  0
LINE
  5
   31B
  8
0
  6
CONTINUOUS
 62
   130
 10
147.925872921944
 20
-24.3139743804932
 30
0.0
 11
149.675872921944
 21
-24.3139743804932
 31
0.0
  0
LINE
  5
   31C
  8
0
  6
CONTINUOUS
 62
   130
 10
149.675872921944
 20
-24.3139743804932
 30
0.0
 11
149.675872921944
 21
-21.8139743804932
 31
0.0
  0
LINE
  5
   31D
  8
0
  6
CONTINUOUS
 62
   130
 10
147.925872921944
 20
-21.8139743804932
 30
0.0
 11
149.675872921944
 21
-21.8139743804932
 31
0.0
  0
LINE
  5
   31E
  8
0
  6
CONTINUOUS
 62
   130
 10
149.675872921944
 20
-24.3139743804932
 30
0.0
 11
149.925872921944
 21
-24.0639743804932
 31
0.0
  0
LINE
  5
   31F
  8
0
  6
CONTINUOUS
 62
   130
 10
149.925872921944
 20
-24.0639743804932
 30
0.0
 11
149.925872921944
 21
-22.0639743804932
 31
0.0
  0
LINE
  5
   320
  8
0
  6
CONTINUOUS
 62
   130
 10
149.675872921944
 20
-21.8139743804932
 30
0.0
 11
149.925872921944
 21
-22.0639743804932
 31
0.0
  0
CIRCLE
  5
   321
  8
0
  6
CONTINUOUS
 62
   130
 10
148.925872921944
 20
-23.0639743804932
 30
0.0
 40
0.375
  0
CIRCLE
  5
   322
  8
0
  6
CONTINUOUS
 62
   130
 10
109.818677023958
 20
72.161288399577
 30
0.0
 40
1.5
  0
CIRCLE
  5
   323
  8
0
  6
CONTINUOUS
 62
   130
 10
151.939308425522
 20
71.0151487696024
 30
0.0
 40
1.5
  0
INSERT
  5
   324
  8
0
  6
CONTINUOUS
 62
     2
  2
*HATCH96
 10
126.125869750977
 20
-3.71391868591309
 30
0.0
 41
0.5
 42
0.5
 43
0.5
  0
INSERT
  5
   325
  8
0
  6
CONTINUOUS
 62
     2
  2
*HATCH97
 10
126.125869750977
 20
-3.71391868591309
 30
0.0
 41
0.5
 42
0.5
 43
0.5
  0
INSERT
  5
   326
  8
0
  6
CONTINUOUS
 62
     3
  2
*UDIM289
 10
0.0
 20
0.0
 30
0.0
  0
TEXT
  5
   327
  8
0
  6
CONTINUOUS
 62
     2
 10
170.637363000891
 20
-1.06396676599977
 30
0.0
 40
3.00000002980232
  1
X
 41
0.983333351877
 11
170.637363000891
 21
0.436033248901392
 31
0.0
 73
     2
  0
INSERT
  5
   328
  8
0
  6
CONTINUOUS
 62
     3
  2
*UDIM290
 10
0.0
 20
0.0
 30
0.0
  0
TEXT
  5
   329
  8
0
  6
CONTINUOUS
 62
     2
 10
156.368057250977
 20
71.5403079539538
 30
0.0
 40
2.00000008940697
  1
127mm.CON VITI SIGILLABILI
 41
0.75
 11
156.368057250977
 21
72.5403079986572
 31
0.0
 73
     2
  0
TEXT
  5
   32A
  8
0
  6
CONTINUOUS
 62
     2
 10
156.368057250977
 20
68.5403079539537
 30
0.0
 40
2.00000008940697
  1
127mm.WITH SCREWS TO SEAL
 41
0.75
 11
156.368057250977
 21
69.5403079986572
 31
0.0
 73
     2
  0
TEXT
  5
   32B
  8
0
  6
CONTINUOUS
 62
     2
 10
36.5531959849016
 20
-1.22942589947172
 30
0.0
 40
3.00000002980232
  1
X
 41
0.983333351877
 72
     2
 11
38.7531960623877
 21
0.27057411542944
 31
0.0
 73
     2
  0
INSERT
  5
   32C
  8
0
  6
CONTINUOUS
 62
     3
  2
*UDIM291
 10
0.0
 20
0.0
 30
0.0
  0
INSERT
  5
   32D
  8
0
  6
CONTINUOUS
 62
     3
  2
*UDIM292
 10
0.0
 20
0.0
 30
0.0
  0
TEXT
  5
   32E
  8
0
  6
CONTINUOUS
 62
     2
 10
159.377654883333
 20
52.1820377858116
 30
0.0
 40
4.20000016689301
  1
:
 41
0.933333333333333
 72
     1
 11
160.917654944527
 21
54.2820378692581
 31
0.0
 73
     2
  0
INSERT
  5
   32F
  8
0
  6
CONTINUOUS
 62
     3
  2
*UDIM293
 10
0.0
 20
0.0
 30
0.0
  0
INSERT
  5
   330
  8
0
  6
CONTINUOUS
 62
     3
  2
*UDIM294
 10
0.0
 20
0.0
 30
0.0
  0
INSERT
  5
   331
  8
0
  6
CONTINUOUS
 62
     3
  2
*UDIM295
 10
0.0
 20
0.0
 30
0.0
  0
INSERT
  5
   332
  8
0
  6
CONTINUOUS
 62
     3
  2
*UDIM296
 10
0.0
 20
0.0
 30
0.0
  0
INSERT
  5
   333
  8
0
  6
CONTINUOUS
 62
     3
  2
*UDIM297
 10
0.0
 20
0.0
 30
0.0
  0
INSERT
  5
   334
  8
0
  6
CONTINUOUS
 62
     3
  2
*UDIM298
 10
0.0
 20
0.0
 30
0.0
  0
INSERT
  5
   335
  8
0
  6
CONTINUOUS
 62
     3
  2
*UDIM299
 10
0.0
 20
0.0
 30
0.0
  0
INSERT
  5
   336
  8
0
  6
CONTINUOUS
 62
     3
  2
*UDIM300
 10
0.0
 20
0.0
 30
0.0
  0
INSERT
  5
   337
  8
0
  6
CONTINUOUS
 62
     3
  2
*UDIM301
 10
0.0
 20
0.0
 30
0.0
  0
LINE
  5
   338
  8
0
  6
DASHDOT
 62
   130
 10
111.82586517334
 20
-102.711268615723
 30
0.0
 11
111.57586517334
 21
-102.711268615723
 31
0.0
  0
LINE
  5
   339
  8
0
  6
CONTINUOUS
 62
   130
 10
88.1758723258971
 20
-94.4862763722738
 30
0.0
 11
88.1758723258971
 21
-98.2612686157227
 31
0.0
  0
LINE
  5
   33A
  8
0
  6
CONTINUOUS
 62
   130
 10
92.1758651733398
 20
-80.2112838745117
 30
0.0
 11
88.1758723258971
 21
-80.2112838745117
 31
0.0
  0
LINE
  5
   33B
  8
0
  6
CONTINUOUS
 62
   130
 10
88.1758723258971
 20
-80.2112838745117
 30
0.0
 11
88.1758723258971
 21
-89.4612841288249
 31
0.0
  0
LINE
  5
   33C
  8
0
  6
CONTINUOUS
 62
   130
 10
150.675872921944
 20
-78.7112838745117
 30
0.0
 11
92.1758651733398
 21
-78.7112838745117
 31
0.0
  0
LINE
  5
   33D
  8
0
  6
CONTINUOUS
 62
   130
 10
92.1758651733398
 20
-78.7112838745117
 30
0.0
 11
92.1758651733398
 21
-98.2612686157227
 31
0.0
  0
LINE
  5
   33E
  8
0
  6
CONTINUOUS
 62
   130
 10
112.17586517334
 20
-78.7112838745117
 30
0.0
 11
112.17586517334
 21
-98.2612686157227
 31
0.0
  0
LINE
  5
   33F
  8
0
  6
DASHDOT
 62
   130
 10
165.130193406785
 20
-98.2612686157227
 30
0.0
 11
64.2775890555225
 21
-98.2612686157227
 31
0.0
  0
LINE
  5
   340
  8
0
  6
CONTINUOUS
 62
   130
 10
112.17586517334
 20
-93.4362533569336
 30
0.0
 11
92.1758651733398
 21
-93.4362533569336
 31
0.0
  0
LINE
  5
   341
  8
0
  6
CONTINUOUS
 62
   130
 10
112.17586517334
 20
-90.6862533569336
 30
0.0
 11
92.1758651733398
 21
-90.6862533569336
 31
0.0
  0
LINE
  5
   342
  8
0
  6
CONTINUOUS
 62
   130
 10
103.425913132055
 20
-83.2612686157227
 30
0.0
 11
94.6759131320552
 21
-83.2612686157227
 31
0.0
  0
LINE
  5
   343
  8
0
  6
CONTINUOUS
 62
   130
 10
103.425913132055
 20
-88.2612686157227
 30
0.0
 11
94.6759131320552
 21
-88.2612686157227
 31
0.0
  0
LINE
  5
   344
  8
0
  6
CONTINUOUS
 62
   130
 10
103.425913132055
 20
-95.7612686157227
 30
0.0
 11
94.6759131320552
 21
-95.7612686157227
 31
0.0
  0
LINE
  5
   345
  8
0
  6
CONTINUOUS
 62
   130
 10
94.6759131320552
 20
-83.2612686157227
 30
0.0
 11
94.6759131320552
 21
-88.2612686157227
 31
0.0
  0
LINE
  5
   346
  8
0
  6
CONTINUOUS
 62
   130
 10
103.425913132055
 20
-83.2612686157227
 30
0.0
 11
103.425913132055
 21
-88.2612686157227
 31
0.0
  0
LINE
  5
   347
  8
0
  6
CONTINUOUS
 62
   130
 10
94.6759131320552
 20
-95.7612686157227
 30
0.0
 11
94.6759131320552
 21
-98.2612686157227
 31
0.0
  0
LINE
  5
   348
  8
0
  6
CONTINUOUS
 62
   130
 10
103.425913132055
 20
-95.7612686157227
 30
0.0
 11
103.425913132055
 21
-98.2612686157227
 31
0.0
  0
LINE
  5
   349
  8
0
  6
CONTINUOUS
 62
   130
 10
107.17586517334
 20
-82.2612686157227
 30
0.0
 11
92.1758651733398
 21
-82.2612686157227
 31
0.0
  0
LINE
  5
   34A
  8
0
  6
CONTINUOUS
 62
   130
 10
107.17586517334
 20
-89.2612686157227
 30
0.0
 11
92.1758651733398
 21
-89.2612686157227
 31
0.0
  0
LINE
  5
   34B
  8
0
  6
CONTINUOUS
 62
   130
 10
107.17586517334
 20
-94.7612686157227
 30
0.0
 11
92.1758651733398
 21
-94.7612686157227
 31
0.0
  0
LINE
  5
   34C
  8
0
  6
CONTINUOUS
 62
   130
 10
107.17586517334
 20
-82.2612686157227
 30
0.0
 11
107.17586517334
 21
-89.2612686157227
 31
0.0
  0
LINE
  5
   34D
  8
0
  6
CONTINUOUS
 62
   130
 10
107.17586517334
 20
-94.7612686157227
 30
0.0
 11
107.17586517334
 21
-98.2612686157227
 31
0.0
  0
LINE
  5
   34E
  8
0
  6
CONTINUOUS
 62
   130
 10
91.6758651733399
 20
-89.4612841288249
 30
0.0
 11
86.1758651733398
 21
-89.4612841288249
 31
0.0
  0
LINE
  5
   34F
  8
0
  6
CONTINUOUS
 62
   130
 10
91.6758651733399
 20
-94.5112686157227
 30
0.0
 11
86.1758651733398
 21
-94.5112686157227
 31
0.0
  0
ARC
  5
   350
  8
0
  6
CONTINUOUS
 62
   130
 10
91.6758651733399
 20
-88.9612841288249
 30
0.0
 40
0.5
 50
269.999999896069
 51
359.999999896069
  0
ARC
  5
   351
  8
0
  6
CONTINUOUS
 62
   130
 10
91.6758651733399
 20
-95.0112686157227
 30
0.0
 40
0.5
 50
359.999999896069
 51
449.999999896069
  0
LINE
  5
   352
  8
0
  6
DASHDOT
 62
   130
 10
151.084907851592
 20
-85.7612686157227
 30
0.0
 11
64.1718237076313
 21
-85.7612686157227
 31
0.0
  0
LINE
  5
   353
  8
0
  6
DASHDOT
 62
   130
 10
115.348056209242
 20
-91.9862763722738
 30
0.0
 11
84.5873524311032
 21
-91.9862763722738
 31
0.0
  0
LINE
  5
   354
  8
0
  6
CONTINUOUS
 62
   130
 10
148.175872921944
 20
-78.7112838745117
 30
0.0
 11
148.175872921944
 21
-98.2612686157227
 31
0.0
  0
LINE
  5
   355
  8
0
  6
CONTINUOUS
 62
   130
 10
150.675872921944
 20
-78.7112838745117
 30
0.0
 11
150.675872921944
 21
-98.2612686157227
 31
0.0
  0
LINE
  5
   356
  8
0
  6
CONTINUOUS
 62
   130
 10
159.358856191646
 20
-95.5112686157227
 30
0.0
 11
159.358856191646
 21
-98.2612686157227
 31
0.0
  0
LINE
  5
   357
  8
0
  6
CONTINUOUS
 62
   130
 10
158.858856191646
 20
-95.0112686157227
 30
0.0
 11
150.675872921944
 21
-95.0112686157227
 31
0.0
  0
ARC
  5
   358
  8
0
  6
CONTINUOUS
 62
   130
 10
158.858856191646
 20
-95.5112686157227
 30
0.0
 40
0.5
 50
359.999999896069
 51
449.999999896069
  0
LINE
  5
   359
  8
0
  6
CONTINUOUS
 62
   130
 10
135.925872921944
 20
-95.2612686157227
 30
0.0
 11
135.925872921944
 21
-97.5112686157227
 31
0.0
  0
LINE
  5
   35A
  8
0
  6
CONTINUOUS
 62
   130
 10
147.175872921944
 20
-97.5112686157227
 30
0.0
 11
135.925872921944
 21
-97.5112686157227
 31
0.0
  0
LINE
  5
   35B
  8
0
  6
CONTINUOUS
 62
   130
 10
147.175872921944
 20
-95.2612686157227
 30
0.0
 11
135.925872921944
 21
-95.2612686157227
 31
0.0
  0
LINE
  5
   35C
  8
0
  6
CONTINUOUS
 62
   130
 10
147.175872921944
 20
-95.2612686157227
 30
0.0
 11
147.175872921944
 21
-97.5112686157227
 31
0.0
  0
LINE
  5
   35D
  8
0
  6
CONTINUOUS
 62
   130
 10
147.175872921944
 20
-88.7612686157227
 30
0.0
 11
135.925872921944
 21
-88.7612686157227
 31
0.0
  0
LINE
  5
   35E
  8
0
  6
CONTINUOUS
 62
   130
 10
135.925872921944
 20
-86.5112686157227
 30
0.0
 11
135.925872921944
 21
-88.7612686157227
 31
0.0
  0
LINE
  5
   35F
  8
0
  6
CONTINUOUS
 62
   130
 10
147.175872921944
 20
-86.5112686157227
 30
0.0
 11
135.925872921944
 21
-86.5112686157227
 31
0.0
  0
LINE
  5
   360
  8
0
  6
CONTINUOUS
 62
   130
 10
147.175872921944
 20
-86.5112686157227
 30
0.0
 11
147.175872921944
 21
-88.7612686157227
 31
0.0
  0
LINE
  5
   361
  8
0
  6
CONTINUOUS
 62
   130
 10
147.175872921944
 20
-85.0112686157227
 30
0.0
 11
135.925872921944
 21
-85.0112686157227
 31
0.0
  0
LINE
  5
   362
  8
0
  6
CONTINUOUS
 62
   130
 10
135.925872921944
 20
-82.7612686157227
 30
0.0
 11
135.925872921944
 21
-85.0112686157227
 31
0.0
  0
LINE
  5
   363
  8
0
  6
CONTINUOUS
 62
   130
 10
147.175872921944
 20
-82.7612686157227
 30
0.0
 11
135.925872921944
 21
-82.7612686157227
 31
0.0
  0
LINE
  5
   364
  8
0
  6
CONTINUOUS
 62
   130
 10
147.175872921944
 20
-82.7612686157227
 30
0.0
 11
147.175872921944
 21
-85.0112686157227
 31
0.0
  0
LINE
  5
   365
  8
0
  6
CONTINUOUS
 62
   130
 10
62.4258723258972
 20
-93.895220852732
 30
0.0
 11
62.4258723258972
 21
-102.261268615723
 31
0.0
  0
LINE
  5
   366
  8
0
  6
CONTINUOUS
 62
   130
 10
86.1758651733398
 20
-92.7612686157227
 30
0.0
 11
80.4258723258972
 21
-92.7612686157227
 31
0.0
  0
LINE
  5
   367
  8
0
  6
CONTINUOUS
 62
   130
 10
49.1758723258972
 20
-96.7612686157227
 30
0.0
 11
49.1758723258972
 21
-99.7612686157227
 31
0.0
  0
LINE
  5
   368
  8
0
  6
CONTINUOUS
 62
   130
 10
52.1758723258972
 20
-100.261268615723
 30
0.0
 11
49.6758723258972
 21
-100.261268615723
 31
0.0
  0
LINE
  5
   369
  8
0
  6
CONTINUOUS
 62
   130
 10
52.1758723258972
 20
-96.2612686157227
 30
0.0
 11
49.6758723258972
 21
-96.2612686157227
 31
0.0
  0
LINE
  5
   36A
  8
0
  6
CONTINUOUS
 62
   130
 10
49.6758723258972
 20
-100.261268615723
 30
0.0
 11
49.1758723258972
 21
-99.7612686157227
 31
0.0
  0
LINE
  5
   36B
  8
0
  6
CONTINUOUS
 62
   130
 10
49.6758723258972
 20
-96.2612686157227
 30
0.0
 11
49.1758723258972
 21
-96.7612686157226
 31
0.0
  0
LINE
  5
   36C
  8
0
  6
CONTINUOUS
 62
   130
 10
56.6758723258972
 20
-96.7612686157227
 30
0.0
 11
52.9258723258972
 21
-96.7612686157227
 31
0.0
  0
LINE
  5
   36D
  8
0
  6
CONTINUOUS
 62
   130
 10
49.6758723258972
 20
-96.2612686157227
 30
0.0
 11
49.6758723258972
 21
-100.261268615723
 31
0.0
  0
LINE
  5
   36E
  8
0
  6
CONTINUOUS
 62
   130
 10
80.4258723258972
 20
-87.7112838745117
 30
0.0
 11
80.4258723258972
 21
-91.2112838745117
 31
0.0
  0
LINE
  5
   36F
  8
0
  6
CONTINUOUS
 62
   130
 10
59.9258723258972
 20
-94.7612686157227
 30
0.0
 11
59.9258723258972
 21
-101.761268615723
 31
0.0
  0
LINE
  5
   370
  8
0
  6
CONTINUOUS
 62
   130
 10
57.4258723258972
 20
-94.2612686157227
 30
0.0
 11
57.4258723258972
 21
-102.261268615723
 31
0.0
  0
LINE
  5
   371
  8
0
  6
CONTINUOUS
 62
   130
 10
62.2758723258972
 20
-101.761268615723
 30
0.0
 11
57.4258723258972
 21
-101.761268615723
 31
0.0
  0
LINE
  5
   372
  8
0
  6
CONTINUOUS
 62
   130
 10
62.2758723258972
 20
-94.7612686157227
 30
0.0
 11
57.4258723258972
 21
-94.7612686157227
 31
0.0
  0
LINE
  5
   373
  8
0
  6
CONTINUOUS
 62
   130
 10
56.6758723258972
 20
-94.2612686157227
 30
0.0
 11
56.6758723258972
 21
-102.261268615723
 31
0.0
  0
LINE
  5
   374
  8
0
  6
CONTINUOUS
 62
   130
 10
57.4258723258972
 20
-102.261268615723
 30
0.0
 11
56.6758723258972
 21
-102.261268615723
 31
0.0
  0
LINE
  5
   375
  8
0
  6
CONTINUOUS
 62
   130
 10
57.4258723258972
 20
-94.2612686157227
 30
0.0
 11
56.6758723258972
 21
-94.2612686157227
 31
0.0
  0
LINE
  5
   376
  8
0
  6
CONTINUOUS
 62
   130
 10
49.6758723258972
 20
-94.7612686157227
 30
0.0
 11
49.6758723258972
 21
-101.761268615723
 31
0.0
  0
LINE
  5
   377
  8
0
  6
CONTINUOUS
 62
   130
 10
52.1758723258972
 20
-94.2612686157227
 30
0.0
 11
52.1758723258972
 21
-102.261268615723
 31
0.0
  0
LINE
  5
   378
  8
0
  6
CONTINUOUS
 62
   130
 10
52.9258723258972
 20
-94.2612686157227
 30
0.0
 11
52.9258723258972
 21
-102.261268615723
 31
0.0
  0
LINE
  5
   379
  8
0
  6
CONTINUOUS
 62
   130
 10
52.1758723258972
 20
-101.761268615723
 30
0.0
 11
49.6758723258972
 21
-101.761268615723
 31
0.0
  0
LINE
  5
   37A
  8
0
  6
CONTINUOUS
 62
   130
 10
52.1758723258972
 20
-94.7612686157227
 30
0.0
 11
49.6758723258972
 21
-94.7612686157227
 31
0.0
  0
LINE
  5
   37B
  8
0
  6
CONTINUOUS
 62
   130
 10
52.9258723258972
 20
-102.261268615723
 30
0.0
 11
52.1758723258972
 21
-102.261268615723
 31
0.0
  0
LINE
  5
   37C
  8
0
  6
CONTINUOUS
 62
   130
 10
52.9258723258972
 20
-94.2612686157227
 30
0.0
 11
52.1758723258972
 21
-94.2612686157227
 31
0.0
  0
LINE
  5
   37D
  8
0
  6
CONTINUOUS
 62
   130
 10
62.2758723258972
 20
-100.261268615723
 30
0.0
 11
57.4258723258972
 21
-100.261268615723
 31
0.0
  0
LINE
  5
   37E
  8
0
  6
CONTINUOUS
 62
   130
 10
62.2758723258972
 20
-96.2612686157227
 30
0.0
 11
57.4258723258972
 21
-96.2612686157227
 31
0.0
  0
LINE
  5
   37F
  8
0
  6
CONTINUOUS
 62
   130
 10
56.6758723258972
 20
-100.261268615723
 30
0.0
 11
52.9258723258972
 21
-100.261268615723
 31
0.0
  0
LINE
  5
   380
  8
0
  6
CONTINUOUS
 62
   130
 10
56.6758723258972
 20
-96.2612686157227
 30
0.0
 11
52.9258723258972
 21
-96.2612686157227
 31
0.0
  0
LINE
  5
   381
  8
0
  6
CONTINUOUS
 62
   130
 10
56.6758723258972
 20
-99.7612686157227
 30
0.0
 11
52.9258723258972
 21
-99.7612686157227
 31
0.0
  0
LINE
  5
   382
  8
0
  6
CONTINUOUS
 62
   130
 10
80.4258723258972
 20
-82.2112838745117
 30
0.0
 11
75.4258723258972
 21
-82.2112838745117
 31
0.0
  0
LINE
  5
   383
  8
0
  6
CONTINUOUS
 62
   130
 10
77.9258723258972
 20
-82.2112838745117
 30
0.0
 11
77.9258723258972
 21
-89.2112838745117
 31
0.0
  0
LINE
  5
   384
  8
0
  6
CONTINUOUS
 62
   130
 10
74.6758723258972
 20
-84.2112838745117
 30
0.0
 11
70.9258723258972
 21
-84.2112838745117
 31
0.0
  0
LINE
  5
   385
  8
0
  6
CONTINUOUS
 62
   130
 10
80.4258723258972
 20
-80.2112838745117
 30
0.0
 11
80.4258723258972
 21
-88.5487441574664
 31
0.0
  0
LINE
  5
   386
  8
0
  6
CONTINUOUS
 62
   130
 10
80.4258723258972
 20
-83.7112838745117
 30
0.0
 11
75.4258723258972
 21
-83.7112838745117
 31
0.0
  0
LINE
  5
   387
  8
0
  6
CONTINUOUS
 62
   130
 10
80.4258723258972
 20
-87.7112838745117
 30
0.0
 11
75.4258723258972
 21
-87.7112838745117
 31
0.0
  0
LINE
  5
   388
  8
0
  6
CONTINUOUS
 62
   130
 10
75.4258723258972
 20
-81.7112838745117
 30
0.0
 11
75.4258723258972
 21
-89.7112838745117
 31
0.0
  0
LINE
  5
   389
  8
0
  6
CONTINUOUS
 62
   130
 10
75.4258723258972
 20
-81.7112838745117
 30
0.0
 11
74.6758723258972
 21
-81.7112838745117
 31
0.0
  0
LINE
  5
   38A
  8
0
  6
CONTINUOUS
 62
   130
 10
75.4258723258972
 20
-89.7112838745117
 30
0.0
 11
74.6758723258972
 21
-89.7112838745117
 31
0.0
  0
LINE
  5
   38B
  8
0
  6
CONTINUOUS
 62
   130
 10
70.9258723258972
 20
-81.7112838745117
 30
0.0
 11
70.1758723258972
 21
-81.7112838745117
 31
0.0
  0
LINE
  5
   38C
  8
0
  6
CONTINUOUS
 62
   130
 10
70.9258723258972
 20
-89.7112838745117
 30
0.0
 11
70.1758723258972
 21
-89.7112838745117
 31
0.0
  0
LINE
  5
   38D
  8
0
  6
CONTINUOUS
 62
   130
 10
70.1758723258972
 20
-83.7112838745117
 30
0.0
 11
67.6758723258972
 21
-83.7112838745117
 31
0.0
  0
LINE
  5
   38E
  8
0
  6
CONTINUOUS
 62
   130
 10
70.1758723258972
 20
-87.7112838745117
 30
0.0
 11
67.6758723258972
 21
-87.7112838745117
 31
0.0
  0
LINE
  5
   38F
  8
0
  6
CONTINUOUS
 62
   130
 10
70.1758723258972
 20
-89.2112838745117
 30
0.0
 11
67.6758723258972
 21
-89.2112838745117
 31
0.0
  0
LINE
  5
   390
  8
0
  6
CONTINUOUS
 62
   130
 10
67.6758723258972
 20
-83.7112838745117
 30
0.0
 11
67.1758723258972
 21
-84.2112838745117
 31
0.0
  0
LINE
  5
   391
  8
0
  6
CONTINUOUS
 62
   130
 10
67.1758723258972
 20
-84.2112838745117
 30
0.0
 11
67.1758723258972
 21
-87.2112838745117
 31
0.0
  0
LINE
  5
   392
  8
0
  6
CONTINUOUS
 62
   130
 10
67.6758723258973
 20
-87.7112838745118
 30
0.0
 11
67.1758723258973
 21
-87.2112838745118
 31
0.0
  0
LINE
  5
   393
  8
0
  6
CONTINUOUS
 62
   130
 10
70.1758723258972
 20
-82.2112838745117
 30
0.0
 11
67.6758723258972
 21
-82.2112838745117
 31
0.0
  0
LINE
  5
   394
  8
0
  6
CONTINUOUS
 62
   130
 10
67.6758723258972
 20
-82.2112838745117
 30
0.0
 11
67.6758723258972
 21
-89.2112838745117
 31
0.0
  0
LINE
  5
   395
  8
0
  6
CONTINUOUS
 62
   130
 10
70.1758723258972
 20
-81.7112838745117
 30
0.0
 11
70.1758723258972
 21
-89.7112838745117
 31
0.0
  0
LINE
  5
   396
  8
0
  6
CONTINUOUS
 62
   130
 10
70.9258723258972
 20
-81.7112838745117
 30
0.0
 11
70.9258723258972
 21
-89.7112838745117
 31
0.0
  0
LINE
  5
   397
  8
0
  6
CONTINUOUS
 62
   130
 10
74.6758723258972
 20
-81.7112838745117
 30
0.0
 11
74.6758723258972
 21
-89.7112838745117
 31
0.0
  0
LINE
  5
   398
  8
0
  6
CONTINUOUS
 62
   130
 10
74.6758723258972
 20
-83.7112838745117
 30
0.0
 11
70.9258723258972
 21
-83.7112838745117
 31
0.0
  0
LINE
  5
   399
  8
0
  6
CONTINUOUS
 62
   130
 10
74.6758723258972
 20
-87.711284383138
 30
0.0
 11
70.9258723258972
 21
-87.711284383138
 31
0.0
  0
LINE
  5
   39A
  8
0
  6
CONTINUOUS
 62
   130
 10
74.6758723258972
 20
-87.211284383138
 30
0.0
 11
70.9258723258972
 21
-87.211284383138
 31
0.0
  0
LINE
  5
   39B
  8
0
  6
CONTINUOUS
 62
   130
 10
62.2758723258972
 20
-93.895220852732
 30
0.0
 11
62.2758723258972
 21
-101.885356482528
 31
0.0
  0
LINE
  5
   39C
  8
0
  6
CONTINUOUS
 62
   130
 10
62.4258723258972
 20
-93.895220852732
 30
0.0
 11
62.2758723258972
 21
-93.895220852732
 31
0.0
  0
LINE
  5
   39D
  8
0
  6
CONTINUOUS
 62
   130
 10
62.4258723258972
 20
-101.947488516884
 30
0.0
 11
61.7308815725016
 21
-102.64247927028
 31
0.0
  0
LINE
  5
   39E
  8
0
  6
CONTINUOUS
 62
   130
 10
62.2758723258972
 20
-101.885356482528
 30
0.0
 11
61.6248155553236
 21
-102.536413253102
 31
0.0
  0
LINE
  5
   39F
  8
0
  6
CONTINUOUS
 62
   130
 10
61.7308815725016
 20
-102.64247927028
 30
0.0
 11
61.6248155553236
 21
-102.536413253102
 31
0.0
  0
LINE
  5
   3A0
  8
0
  6
CONTINUOUS
 62
   130
 10
79.7308815725016
 20
-90.0924947833822
 30
0.0
 11
79.6248155553236
 21
-89.9864287662042
 31
0.0
  0
LINE
  5
   3A1
  8
0
  6
CONTINUOUS
 62
   130
 10
80.4258723258972
 20
-89.3975040299865
 30
0.0
 11
79.7308815725016
 21
-90.0924947833821
 31
0.0
  0
LINE
  5
   3A2
  8
0
  6
CONTINUOUS
 62
   130
 10
80.2758723258972
 20
-89.3353719956305
 30
0.0
 11
79.6248155553236
 21
-89.9864287662042
 31
0.0
  0
LINE
  5
   3A3
  8
0
  6
CONTINUOUS
 62
   130
 10
80.2758723258972
 20
-81.3452363658343
 30
0.0
 11
80.2758723258972
 21
-89.3353719956305
 31
0.0
  0
LINE
  5
   3A4
  8
0
  6
CONTINUOUS
 62
   130
 10
80.4258723258972
 20
-81.3452363658343
 30
0.0
 11
80.2758723258972
 21
-81.3452363658343
 31
0.0
  0
LINE
  5
   3A5
  8
0
  6
CONTINUOUS
 62
   130
 10
80.4258723258972
 20
-89.2112838745117
 30
0.0
 11
75.4258723258972
 21
-89.2112838745117
 31
0.0
  0
LINE
  5
   3A6
  8
0
  6
CONTINUOUS
 62
   130
 10
88.1758723258971
 20
-82.2112838745117
 30
0.0
 11
87.6758723258972
 21
-82.2112838745117
 31
0.0
  0
LINE
  5
   3A7
  8
0
  6
CONTINUOUS
 62
   130
 10
88.1758723258971
 20
-89.2112838745117
 30
0.0
 11
87.6758723258972
 21
-89.2112838745117
 31
0.0
  0
LINE
  5
   3A8
  8
0
  6
CONTINUOUS
 62
   130
 10
87.6758723258972
 20
-80.2112838745117
 30
0.0
 11
87.6758723258972
 21
-89.4612841288249
 31
0.0
  0
LINE
  5
   3A9
  8
0
  6
CONTINUOUS
 62
   130
 10
86.1758651733398
 20
-91.2112838745117
 30
0.0
 11
80.4258723258972
 21
-91.2112838745117
 31
0.0
  0
LINE
  5
   3AA
  8
0
  6
CONTINUOUS
 62
   130
 10
87.6758723258972
 20
-80.2112838745117
 30
0.0
 11
80.4258723258972
 21
-80.2112838745117
 31
0.0
  0
LINE
  5
   3AB
  8
0
  6
CONTINUOUS
 62
   130
 10
87.6758723258972
 20
-94.4862763722738
 30
0.0
 11
87.6758723258972
 21
-98.2612686157227
 31
0.0
  0
LINE
  5
   3AC
  8
0
  6
CONTINUOUS
 62
   130
 10
88.1758723258971
 20
-94.7112838745117
 30
0.0
 11
87.6758723258972
 21
-94.7112838745117
 31
0.0
  0
LINE
  5
   3AD
  8
0
  6
DASHDOT
 62
   130
 10
165.130193406785
 20
-98.2612686157227
 30
0.0
 11
64.2775890555225
 21
-98.2612686157227
 31
0.0
  0
LINE
  5
   3AE
  8
0
  6
CONTINUOUS
 62
   130
 10
80.4258723258972
 20
-102.261268615723
 30
0.0
 11
62.4258723258972
 21
-102.261268615723
 31
0.0
  0
LINE
  5
   3AF
  8
0
  6
CONTINUOUS
 62
   130
 10
80.4258723258972
 20
-94.2612686157227
 30
0.0
 11
62.4258723258972
 21
-94.2612686157227
 31
0.0
  0
LINE
  5
   3B0
  8
0
  6
CONTINUOUS
 62
   130
 10
80.4258723258972
 20
-92.7612686157227
 30
0.0
 11
80.4258723258972
 21
-98.2612686157227
 31
0.0
  0
LINE
  5
   3B1
  8
0
  6
CONTINUOUS
 62
   130
 10
91.6758651733399
 20
-89.4612841288249
 30
0.0
 11
86.1758651733398
 21
-89.4612841288249
 31
0.0
  0
LINE
  5
   3B2
  8
0
  6
CONTINUOUS
 62
   130
 10
91.6758651733399
 20
-94.5112686157227
 30
0.0
 11
86.1758651733398
 21
-94.5112686157227
 31
0.0
  0
LINE
  5
   3B3
  8
0
  6
CONTINUOUS
 62
   130
 10
86.1758651733398
 20
-89.4612841288249
 30
0.0
 11
86.1758651733398
 21
-94.5112686157227
 31
0.0
  0
LINE
  5
   3B4
  8
0
  6
CONTINUOUS
 62
   130
 10
95.6759131320552
 20
-83.7612686157227
 30
0.0
 11
95.6759131320552
 21
-87.7612686157227
 31
0.0
  0
LINE
  5
   3B5
  8
0
  6
CONTINUOUS
 62
   130
 10
96.6759131320551
 20
-83.7612686157227
 30
0.0
 11
96.6759131320551
 21
-87.7612686157227
 31
0.0
  0
ARC
  5
   3B6
  8
0
  6
CONTINUOUS
 62
   130
 10
96.1759131320552
 20
-87.7612686157227
 30
0.0
 40
0.500000000000002
 50
179.999999896069
 51
359.999999896069
  0
ARC
  5
   3B7
  8
0
  6
CONTINUOUS
 62
   130
 10
96.1759131320552
 20
-83.7612686157227
 30
0.0
 40
0.500000000000002
 50
359.999999896069
 51
539.999999896069
  0
ARC
  5
   3B8
  8
0
  6
CONTINUOUS
 62
   130
 10
98.1759131320552
 20
-83.7612686157227
 30
0.0
 40
0.500000000000002
 50
359.999999896069
 51
539.999999896069
  0
LINE
  5
   3B9
  8
0
  6
CONTINUOUS
 62
   130
 10
98.6759131320552
 20
-83.7612686157227
 30
0.0
 11
98.6759131320552
 21
-87.7612686157227
 31
0.0
  0
LINE
  5
   3BA
  8
0
  6
CONTINUOUS
 62
   130
 10
97.6759131320551
 20
-83.7612686157227
 30
0.0
 11
97.6759131320551
 21
-87.7612686157227
 31
0.0
  0
ARC
  5
   3BB
  8
0
  6
CONTINUOUS
 62
   130
 10
98.1759131320552
 20
-87.7612686157227
 30
0.0
 40
0.500000000000002
 50
179.999999896069
 51
359.999999896069
  0
LINE
  5
   3BC
  8
0
  6
CONTINUOUS
 62
   130
 10
100.675913132055
 20
-83.7612686157227
 30
0.0
 11
100.675913132055
 21
-87.7612686157227
 31
0.0
  0
LINE
  5
   3BD
  8
0
  6
CONTINUOUS
 62
   130
 10
99.6759131320552
 20
-83.7612686157227
 30
0.0
 11
99.6759131320552
 21
-87.7612686157227
 31
0.0
  0
ARC
  5
   3BE
  8
0
  6
CONTINUOUS
 62
   130
 10
100.175913132055
 20
-83.7612686157227
 30
0.0
 40
0.500000000000002
 50
359.999999896069
 51
539.999999896069
  0
ARC
  5
   3BF
  8
0
  6
CONTINUOUS
 62
   130
 10
100.175913132055
 20
-87.7612686157227
 30
0.0
 40
0.500000000000002
 50
179.999999896069
 51
359.999999896069
  0
LINE
  5
   3C0
  8
0
  6
CONTINUOUS
 62
   130
 10
102.675913132055
 20
-83.7612686157227
 30
0.0
 11
102.675913132055
 21
-87.7612686157227
 31
0.0
  0
ARC
  5
   3C1
  8
0
  6
CONTINUOUS
 62
   130
 10
102.175913132055
 20
-83.7612686157227
 30
0.0
 40
0.500000000000002
 50
359.999999896069
 51
539.999999896069
  0
LINE
  5
   3C2
  8
0
  6
CONTINUOUS
 62
   130
 10
101.675913132055
 20
-83.7612686157227
 30
0.0
 11
101.675913132055
 21
-87.7612686157227
 31
0.0
  0
ARC
  5
   3C3
  8
0
  6
CONTINUOUS
 62
   130
 10
102.175913132055
 20
-87.7612686157227
 30
0.0
 40
0.500000000000002
 50
179.999999896069
 51
359.999999896069
  0
LINE
  5
   3C4
  8
0
  6
CONTINUOUS
 62
   130
 10
95.6759131320552
 20
-96.2612686157227
 30
0.0
 11
95.6759131320552
 21
-98.2612686157227
 31
0.0
  0
LINE
  5
   3C5
  8
0
  6
CONTINUOUS
 62
   130
 10
96.6759131320551
 20
-96.2612686157227
 30
0.0
 11
96.6759131320551
 21
-98.2612686157227
 31
0.0
  0
LINE
  5
   3C6
  8
0
  6
CONTINUOUS
 62
   130
 10
97.6759131320551
 20
-96.2612686157227
 30
0.0
 11
97.6759131320551
 21
-98.2612686157227
 31
0.0
  0
LINE
  5
   3C7
  8
0
  6
CONTINUOUS
 62
   130
 10
98.6759131320552
 20
-96.2612686157227
 30
0.0
 11
98.6759131320552
 21
-98.2612686157227
 31
0.0
  0
LINE
  5
   3C8
  8
0
  6
CONTINUOUS
 62
   130
 10
99.6759131320552
 20
-96.2612686157227
 30
0.0
 11
99.6759131320552
 21
-98.2612686157227
 31
0.0
  0
LINE
  5
   3C9
  8
0
  6
CONTINUOUS
 62
   130
 10
100.675913132055
 20
-96.2612686157227
 30
0.0
 11
100.675913132055
 21
-98.2612686157227
 31
0.0
  0
LINE
  5
   3CA
  8
0
  6
CONTINUOUS
 62
   130
 10
101.675913132055
 20
-96.2612686157227
 30
0.0
 11
101.675913132055
 21
-98.2612686157227
 31
0.0
  0
LINE
  5
   3CB
  8
0
  6
CONTINUOUS
 62
   130
 10
102.675913132055
 20
-96.2612686157227
 30
0.0
 11
102.675913132055
 21
-98.2612686157227
 31
0.0
  0
ARC
  5
   3CC
  8
0
  6
CONTINUOUS
 62
   130
 10
96.1759131320552
 20
-96.2612686157227
 30
0.0
 40
0.500000000000002
 50
359.999999896069
 51
539.999999896069
  0
ARC
  5
   3CD
  8
0
  6
CONTINUOUS
 62
   130
 10
98.1759131320552
 20
-96.2612686157227
 30
0.0
 40
0.500000000000002
 50
359.999999896069
 51
539.999999896069
  0
ARC
  5
   3CE
  8
0
  6
CONTINUOUS
 62
   130
 10
100.175913132055
 20
-96.2612686157227
 30
0.0
 40
0.500000000000002
 50
359.999999896069
 51
539.999999896069
  0
ARC
  5
   3CF
  8
0
  6
CONTINUOUS
 62
   130
 10
102.175913132055
 20
-96.2612686157227
 30
0.0
 40
0.500000000000002
 50
359.999999896069
 51
539.999999896069
  0
LINE
  5
   3D0
  8
0
  6
CONTINUOUS
 62
   130
 10
113.17586517334
 20
-78.7112838745117
 30
0.0
 11
113.17586517334
 21
-98.2612686157227
 31
0.0
  0
LINE
  5
   3D1
  8
0
  6
CONTINUOUS
 62
   130
 10
88.1758723258971
 20
-98.2612686157227
 30
0.0
 11
88.1758723258971
 21
-102.036260859172
 31
0.0
  0
LINE
  5
   3D2
  8
0
  6
CONTINUOUS
 62
   130
 10
92.1758651733398
 20
-116.311253356934
 30
0.0
 11
88.1758723258971
 21
-116.311253356934
 31
0.0
  0
LINE
  5
   3D3
  8
0
  6
CONTINUOUS
 62
   130
 10
88.1758723258971
 20
-107.06125310262
 30
0.0
 11
88.1758723258971
 21
-116.311253356934
 31
0.0
  0
LINE
  5
   3D4
  8
0
  6
CONTINUOUS
 62
   130
 10
150.675872921944
 20
-117.811253356934
 30
0.0
 11
92.1758651733398
 21
-117.811253356934
 31
0.0
  0
LINE
  5
   3D5
  8
0
  6
CONTINUOUS
 62
   130
 10
92.1758651733398
 20
-98.2612686157227
 30
0.0
 11
92.1758651733398
 21
-117.811253356934
 31
0.0
  0
LINE
  5
   3D6
  8
0
  6
CONTINUOUS
 62
   130
 10
112.17586517334
 20
-98.2612686157227
 30
0.0
 11
112.17586517334
 21
-117.811253356934
 31
0.0
  0
LINE
  5
   3D7
  8
0
  6
CONTINUOUS
 62
   130
 10
112.17586517334
 20
-103.086283874512
 30
0.0
 11
92.1758651733398
 21
-103.086283874512
 31
0.0
  0
LINE
  5
   3D8
  8
0
  6
CONTINUOUS
 62
   130
 10
112.17586517334
 20
-105.836283874512
 30
0.0
 11
92.1758651733398
 21
-105.836283874512
 31
0.0
  0
LINE
  5
   3D9
  8
0
  6
CONTINUOUS
 62
   130
 10
103.425913132055
 20
-113.261268615723
 30
0.0
 11
94.6759131320552
 21
-113.261268615723
 31
0.0
  0
LINE
  5
   3DA
  8
0
  6
CONTINUOUS
 62
   130
 10
103.425913132055
 20
-108.261268615723
 30
0.0
 11
94.6759131320552
 21
-108.261268615723
 31
0.0
  0
LINE
  5
   3DB
  8
0
  6
CONTINUOUS
 62
   130
 10
103.425913132055
 20
-100.761268615723
 30
0.0
 11
94.6759131320552
 21
-100.761268615723
 31
0.0
  0
LINE
  5
   3DC
  8
0
  6
CONTINUOUS
 62
   130
 10
94.6759131320552
 20
-108.261268615723
 30
0.0
 11
94.6759131320552
 21
-113.261268615723
 31
0.0
  0
LINE
  5
   3DD
  8
0
  6
CONTINUOUS
 62
   130
 10
103.425913132055
 20
-108.261268615723
 30
0.0
 11
103.425913132055
 21
-113.261268615723
 31
0.0
  0
LINE
  5
   3DE
  8
0
  6
CONTINUOUS
 62
   130
 10
94.6759131320552
 20
-98.2612686157227
 30
0.0
 11
94.6759131320552
 21
-100.761268615723
 31
0.0
  0
LINE
  5
   3DF
  8
0
  6
CONTINUOUS
 62
   130
 10
103.425913132055
 20
-98.2612686157227
 30
0.0
 11
103.425913132055
 21
-100.761268615723
 31
0.0
  0
LINE
  5
   3E0
  8
0
  6
CONTINUOUS
 62
   130
 10
107.17586517334
 20
-114.261268615723
 30
0.0
 11
92.1758651733398
 21
-114.261268615723
 31
0.0
  0
LINE
  5
   3E1
  8
0
  6
CONTINUOUS
 62
   130
 10
107.17586517334
 20
-107.261268615723
 30
0.0
 11
92.1758651733398
 21
-107.261268615723
 31
0.0
  0
LINE
  5
   3E2
  8
0
  6
CONTINUOUS
 62
   130
 10
107.17586517334
 20
-101.761268615723
 30
0.0
 11
92.1758651733398
 21
-101.761268615723
 31
0.0
  0
LINE
  5
   3E3
  8
0
  6
CONTINUOUS
 62
   130
 10
107.17586517334
 20
-107.261268615723
 30
0.0
 11
107.17586517334
 21
-114.261268615723
 31
0.0
  0
LINE
  5
   3E4
  8
0
  6
CONTINUOUS
 62
   130
 10
107.17586517334
 20
-98.2612686157227
 30
0.0
 11
107.17586517334
 21
-101.761268615723
 31
0.0
  0
LINE
  5
   3E5
  8
0
  6
CONTINUOUS
 62
   130
 10
91.6758651733399
 20
-107.06125310262
 30
0.0
 11
86.1758651733398
 21
-107.06125310262
 31
0.0
  0
LINE
  5
   3E6
  8
0
  6
CONTINUOUS
 62
   130
 10
91.6758651733399
 20
-102.011268615723
 30
0.0
 11
86.1758651733398
 21
-102.011268615723
 31
0.0
  0
ARC
  5
   3E7
  8
0
  6
CONTINUOUS
 62
   130
 10
91.6758651733399
 20
-107.56125310262
 30
0.0
 40
0.5
 50
359.999999896069
 51
449.999999896069
  0
ARC
  5
   3E8
  8
0
  6
CONTINUOUS
 62
   130
 10
91.6758651733399
 20
-101.511268615723
 30
0.0
 40
0.5
 50
269.999999896069
 51
359.999999896069
  0
LINE
  5
   3E9
  8
0
  6
DASHDOT
 62
   130
 10
151.084907851592
 20
-110.761268615723
 30
0.0
 11
62.8388075493646
 21
-110.761268615723
 31
0.0
  0
LINE
  5
   3EA
  8
0
  6
DASHDOT
 62
   130
 10
115.348056209242
 20
-104.536260859172
 30
0.0
 11
84.5873524311032
 21
-104.536260859172
 31
0.0
  0
LINE
  5
   3EB
  8
0
  6
CONTINUOUS
 62
   130
 10
148.175872921944
 20
-98.2612686157227
 30
0.0
 11
148.175872921944
 21
-117.811253356934
 31
0.0
  0
LINE
  5
   3EC
  8
0
  6
CONTINUOUS
 62
   130
 10
150.675872921944
 20
-98.2612686157227
 30
0.0
 11
150.675872921944
 21
-117.811253356934
 31
0.0
  0
LINE
  5
   3ED
  8
0
  6
CONTINUOUS
 62
   130
 10
159.358856191646
 20
-98.2612686157227
 30
0.0
 11
159.358856191646
 21
-101.011268615723
 31
0.0
  0
LINE
  5
   3EE
  8
0
  6
CONTINUOUS
 62
   130
 10
158.858856191646
 20
-101.511268615723
 30
0.0
 11
150.675872921944
 21
-101.511268615723
 31
0.0
  0
ARC
  5
   3EF
  8
0
  6
CONTINUOUS
 62
   130
 10
158.858856191646
 20
-101.011268615723
 30
0.0
 40
0.5
 50
269.999999896069
 51
359.999999896069
  0
LINE
  5
   3F0
  8
0
  6
CONTINUOUS
 62
   130
 10
135.925872921944
 20
-99.0112686157227
 30
0.0
 11
135.925872921944
 21
-101.261268615723
 31
0.0
  0
LINE
  5
   3F1
  8
0
  6
CONTINUOUS
 62
   130
 10
147.175872921944
 20
-99.0112686157227
 30
0.0
 11
135.925872921944
 21
-99.0112686157227
 31
0.0
  0
LINE
  5
   3F2
  8
0
  6
CONTINUOUS
 62
   130
 10
147.175872921944
 20
-101.261268615723
 30
0.0
 11
135.925872921944
 21
-101.261268615723
 31
0.0
  0
LINE
  5
   3F3
  8
0
  6
CONTINUOUS
 62
   130
 10
147.175872921944
 20
-99.0112686157227
 30
0.0
 11
147.175872921944
 21
-101.261268615723
 31
0.0
  0
LINE
  5
   3F4
  8
0
  6
CONTINUOUS
 62
   130
 10
147.175872921944
 20
-107.761268615723
 30
0.0
 11
135.925872921944
 21
-107.761268615723
 31
0.0
  0
LINE
  5
   3F5
  8
0
  6
CONTINUOUS
 62
   130
 10
135.925872921944
 20
-107.761268615723
 30
0.0
 11
135.925872921944
 21
-110.011268615723
 31
0.0
  0
LINE
  5
   3F6
  8
0
  6
CONTINUOUS
 62
   130
 10
147.175872921944
 20
-110.011268615723
 30
0.0
 11
135.925872921944
 21
-110.011268615723
 31
0.0
  0
LINE
  5
   3F7
  8
0
  6
CONTINUOUS
 62
   130
 10
147.175872921944
 20
-107.761268615723
 30
0.0
 11
147.175872921944
 21
-110.011268615723
 31
0.0
  0
LINE
  5
   3F8
  8
0
  6
CONTINUOUS
 62
   130
 10
147.175872921944
 20
-111.511268615723
 30
0.0
 11
135.925872921944
 21
-111.511268615723
 31
0.0
  0
LINE
  5
   3F9
  8
0
  6
CONTINUOUS
 62
   130
 10
135.925872921944
 20
-111.511268615723
 30
0.0
 11
135.925872921944
 21
-113.761268615723
 31
0.0
  0
LINE
  5
   3FA
  8
0
  6
CONTINUOUS
 62
   130
 10
147.175872921944
 20
-113.761268615723
 30
0.0
 11
135.925872921944
 21
-113.761268615723
 31
0.0
  0
LINE
  5
   3FB
  8
0
  6
CONTINUOUS
 62
   130
 10
147.175872921944
 20
-111.511268615723
 30
0.0
 11
147.175872921944
 21
-113.761268615723
 31
0.0
  0
LINE
  5
   3FC
  8
0
  6
CONTINUOUS
 62
   130
 10
86.1758651733398
 20
-103.761268615723
 30
0.0
 11
80.4258723258972
 21
-103.761268615723
 31
0.0
  0
LINE
  5
   3FD
  8
0
  6
CONTINUOUS
 62
   130
 10
80.4258723258972
 20
-105.311253356934
 30
0.0
 11
80.4258723258972
 21
-108.811253356934
 31
0.0
  0
LINE
  5
   3FE
  8
0
  6
CONTINUOUS
 62
   130
 10
80.4258723258972
 20
-114.311253356934
 30
0.0
 11
75.4258723258972
 21
-114.311253356934
 31
0.0
  0
LINE
  5
   3FF
  8
0
  6
CONTINUOUS
 62
   130
 10
77.9258723258972
 20
-107.311253356934
 30
0.0
 11
77.9258723258972
 21
-114.311253356934
 31
0.0
  0
LINE
  5
   400
  8
0
  6
CONTINUOUS
 62
   130
 10
74.6758723258972
 20
-112.311253356934
 30
0.0
 11
70.9258723258972
 21
-112.311253356934
 31
0.0
  0
LINE
  5
   401
  8
0
  6
CONTINUOUS
 62
   130
 10
80.4258723258972
 20
-107.973793073979
 30
0.0
 11
80.4258723258972
 21
-116.311253356934
 31
0.0
  0
LINE
  5
   402
  8
0
  6
CONTINUOUS
 62
   130
 10
80.4258723258972
 20
-112.811253356934
 30
0.0
 11
75.4258723258972
 21
-112.811253356934
 31
0.0
  0
LINE
  5
   403
  8
0
  6
CONTINUOUS
 62
   130
 10
80.4258723258972
 20
-108.811253356934
 30
0.0
 11
75.4258723258972
 21
-108.811253356934
 31
0.0
  0
LINE
  5
   404
  8
0
  6
CONTINUOUS
 62
   130
 10
75.4258723258972
 20
-106.811253356934
 30
0.0
 11
75.4258723258972
 21
-114.811253356934
 31
0.0
  0
LINE
  5
   405
  8
0
  6
CONTINUOUS
 62
   130
 10
75.4258723258972
 20
-114.811253356934
 30
0.0
 11
74.6758723258972
 21
-114.811253356934
 31
0.0
  0
LINE
  5
   406
  8
0
  6
CONTINUOUS
 62
   130
 10
75.4258723258972
 20
-106.811253356934
 30
0.0
 11
74.6758723258972
 21
-106.811253356934
 31
0.0
  0
LINE
  5
   407
  8
0
  6
CONTINUOUS
 62
   130
 10
70.9258723258972
 20
-114.811253356934
 30
0.0
 11
70.1758723258972
 21
-114.811253356934
 31
0.0
  0
LINE
  5
   408
  8
0
  6
CONTINUOUS
 62
   130
 10
70.9258723258972
 20
-106.811253356934
 30
0.0
 11
70.1758723258972
 21
-106.811253356934
 31
0.0
  0
LINE
  5
   409
  8
0
  6
CONTINUOUS
 62
   130
 10
70.1758723258972
 20
-112.811253356934
 30
0.0
 11
67.6758723258972
 21
-112.811253356934
 31
0.0
  0
LINE
  5
   40A
  8
0
  6
CONTINUOUS
 62
   130
 10
70.1758723258972
 20
-108.811253356934
 30
0.0
 11
67.6758723258972
 21
-108.811253356934
 31
0.0
  0
LINE
  5
   40B
  8
0
  6
CONTINUOUS
 62
   130
 10
70.1758723258972
 20
-107.311253356934
 30
0.0
 11
67.6758723258972
 21
-107.311253356934
 31
0.0
  0
LINE
  5
   40C
  8
0
  6
CONTINUOUS
 62
   130
 10
67.6758723258972
 20
-112.811253356934
 30
0.0
 11
67.1758723258972
 21
-112.311253356934
 31
0.0
  0
LINE
  5
   40D
  8
0
  6
CONTINUOUS
 62
   130
 10
67.1758723258972
 20
-109.311253356934
 30
0.0
 11
67.1758723258972
 21
-112.311253356934
 31
0.0
  0
LINE
  5
   40E
  8
0
  6
CONTINUOUS
 62
   130
 10
67.6758723258973
 20
-108.811253356934
 30
0.0
 11
67.1758723258973
 21
-109.311253356934
 31
0.0
  0
LINE
  5
   40F
  8
0
  6
CONTINUOUS
 62
   130
 10
70.1758723258972
 20
-114.311253356934
 30
0.0
 11
67.6758723258972
 21
-114.311253356934
 31
0.0
  0
LINE
  5
   410
  8
0
  6
CONTINUOUS
 62
   130
 10
67.6758723258972
 20
-107.311253356934
 30
0.0
 11
67.6758723258972
 21
-114.311253356934
 31
0.0
  0
LINE
  5
   411
  8
0
  6
CONTINUOUS
 62
   130
 10
70.1758723258972
 20
-106.811253356934
 30
0.0
 11
70.1758723258972
 21
-114.811253356934
 31
0.0
  0
LINE
  5
   412
  8
0
  6
CONTINUOUS
 62
   130
 10
70.9258723258972
 20
-106.811253356934
 30
0.0
 11
70.9258723258972
 21
-114.811253356934
 31
0.0
  0
LINE
  5
   413
  8
0
  6
CONTINUOUS
 62
   130
 10
74.6758723258972
 20
-106.811253356934
 30
0.0
 11
74.6758723258972
 21
-114.811253356934
 31
0.0
  0
LINE
  5
   414
  8
0
  6
CONTINUOUS
 62
   130
 10
74.6758723258972
 20
-112.811253356934
 30
0.0
 11
70.9258723258972
 21
-112.811253356934
 31
0.0
  0
LINE
  5
   415
  8
0
  6
CONTINUOUS
 62
   130
 10
74.6758723258972
 20
-108.811252848307
 30
0.0
 11
70.9258723258972
 21
-108.811252848307
 31
0.0
  0
LINE
  5
   416
  8
0
  6
CONTINUOUS
 62
   130
 10
74.6758723258972
 20
-109.311252848307
 30
0.0
 11
70.9258723258972
 21
-109.311252848307
 31
0.0
  0
LINE
  5
   417
  8
0
  6
CONTINUOUS
 62
   130
 10
79.7308815725016
 20
-106.430042448063
 30
0.0
 11
79.6248155553236
 21
-106.536108465241
 31
0.0
  0
LINE
  5
   418
  8
0
  6
CONTINUOUS
 62
   130
 10
80.4258723258972
 20
-107.125033201459
 30
0.0
 11
79.7308815725016
 21
-106.430042448063
 31
0.0
  0
LINE
  5
   419
  8
0
  6
CONTINUOUS
 62
   130
 10
80.2758723258972
 20
-107.187165235815
 30
0.0
 11
79.6248155553236
 21
-106.536108465241
 31
0.0
  0
LINE
  5
   41A
  8
0
  6
CONTINUOUS
 62
   130
 10
80.2758723258972
 20
-107.187165235815
 30
0.0
 11
80.2758723258972
 21
-115.177300865611
 31
0.0
  0
LINE
  5
   41B
  8
0
  6
CONTINUOUS
 62
   130
 10
80.4258723258972
 20
-115.177300865611
 30
0.0
 11
80.2758723258972
 21
-115.177300865611
 31
0.0
  0
LINE
  5
   41C
  8
0
  6
CONTINUOUS
 62
   130
 10
80.4258723258972
 20
-107.311253356934
 30
0.0
 11
75.4258723258972
 21
-107.311253356934
 31
0.0
  0
LINE
  5
   41D
  8
0
  6
CONTINUOUS
 62
   130
 10
88.1758723258971
 20
-114.311253356934
 30
0.0
 11
87.6758723258972
 21
-114.311253356934
 31
0.0
  0
LINE
  5
   41E
  8
0
  6
CONTINUOUS
 62
   130
 10
88.1758723258971
 20
-107.311253356934
 30
0.0
 11
87.6758723258972
 21
-107.311253356934
 31
0.0
  0
LINE
  5
   41F
  8
0
  6
CONTINUOUS
 62
   130
 10
87.6758723258972
 20
-107.06125310262
 30
0.0
 11
87.6758723258972
 21
-116.311253356934
 31
0.0
  0
LINE
  5
   420
  8
0
  6
CONTINUOUS
 62
   130
 10
86.1758651733398
 20
-105.311253356934
 30
0.0
 11
80.4258723258972
 21
-105.311253356934
 31
0.0
  0
LINE
  5
   421
  8
0
  6
CONTINUOUS
 62
   130
 10
87.6758723258972
 20
-116.311253356934
 30
0.0
 11
80.4258723258972
 21
-116.311253356934
 31
0.0
  0
LINE
  5
   422
  8
0
  6
CONTINUOUS
 62
   130
 10
87.6758723258972
 20
-98.2612686157227
 30
0.0
 11
87.6758723258972
 21
-102.036260859172
 31
0.0
  0
LINE
  5
   423
  8
0
  6
CONTINUOUS
 62
   130
 10
80.4258723258972
 20
-98.2612686157227
 30
0.0
 11
80.4258723258972
 21
-103.761268615723
 31
0.0
  0
LINE
  5
   424
  8
0
  6
CONTINUOUS
 62
   130
 10
86.1758651733398
 20
-102.011268615723
 30
0.0
 11
86.1758651733398
 21
-107.06125310262
 31
0.0
  0
LINE
  5
   425
  8
0
  6
CONTINUOUS
 62
   130
 10
95.6759131320552
 20
-108.761268615723
 30
0.0
 11
95.6759131320552
 21
-112.761268615723
 31
0.0
  0
LINE
  5
   426
  8
0
  6
CONTINUOUS
 62
   130
 10
96.6759131320551
 20
-108.761268615723
 30
0.0
 11
96.6759131320551
 21
-112.761268615723
 31
0.0
  0
ARC
  5
   427
  8
0
  6
CONTINUOUS
 62
   130
 10
96.1759131320552
 20
-108.761268615723
 30
0.0
 40
0.500000000000002
 50
359.999999896069
 51
539.999999896069
  0
ARC
  5
   428
  8
0
  6
CONTINUOUS
 62
   130
 10
96.1759131320552
 20
-112.761268615723
 30
0.0
 40
0.500000000000002
 50
179.999999896069
 51
359.999999896069
  0
ARC
  5
   429
  8
0
  6
CONTINUOUS
 62
   130
 10
98.1759131320552
 20
-112.761268615723
 30
0.0
 40
0.500000000000002
 50
179.999999896069
 51
359.999999896069
  0
LINE
  5
   42A
  8
0
  6
CONTINUOUS
 62
   130
 10
98.6759131320552
 20
-108.761268615723
 30
0.0
 11
98.6759131320552
 21
-112.761268615723
 31
0.0
  0
LINE
  5
   42B
  8
0
  6
CONTINUOUS
 62
   130
 10
97.6759131320551
 20
-108.761268615723
 30
0.0
 11
97.6759131320551
 21
-112.761268615723
 31
0.0
  0
ARC
  5
   42C
  8
0
  6
CONTINUOUS
 62
   130
 10
98.1759131320552
 20
-108.761268615723
 30
0.0
 40
0.500000000000002
 50
359.999999896069
 51
539.999999896069
  0
LINE
  5
   42D
  8
0
  6
CONTINUOUS
 62
   130
 10
100.675913132055
 20
-108.761268615723
 30
0.0
 11
100.675913132055
 21
-112.761268615723
 31
0.0
  0
LINE
  5
   42E
  8
0
  6
CONTINUOUS
 62
   130
 10
99.6759131320552
 20
-108.761268615723
 30
0.0
 11
99.6759131320552
 21
-112.761268615723
 31
0.0
  0
ARC
  5
   42F
  8
0
  6
CONTINUOUS
 62
   130
 10
100.175913132055
 20
-112.761268615723
 30
0.0
 40
0.500000000000002
 50
179.999999896069
 51
359.999999896069
  0
ARC
  5
   430
  8
0
  6
CONTINUOUS
 62
   130
 10
100.175913132055
 20
-108.761268615723
 30
0.0
 40
0.500000000000002
 50
359.999999896069
 51
539.999999896069
  0
LINE
  5
   431
  8
0
  6
CONTINUOUS
 62
   130
 10
102.675913132055
 20
-108.761268615723
 30
0.0
 11
102.675913132055
 21
-112.761268615723
 31
0.0
  0
ARC
  5
   432
  8
0
  6
CONTINUOUS
 62
   130
 10
102.175913132055
 20
-112.761268615723
 30
0.0
 40
0.500000000000002
 50
179.999999896069
 51
359.999999896069
  0
LINE
  5
   433
  8
0
  6
CONTINUOUS
 62
   130
 10
101.675913132055
 20
-108.761268615723
 30
0.0
 11
101.675913132055
 21
-112.761268615723
 31
0.0
  0
ARC
  5
   434
  8
0
  6
CONTINUOUS
 62
   130
 10
102.175913132055
 20
-108.761268615723
 30
0.0
 40
0.500000000000002
 50
359.999999896069
 51
539.999999896069
  0
LINE
  5
   435
  8
0
  6
CONTINUOUS
 62
   130
 10
95.6759131320552
 20
-98.2612686157227
 30
0.0
 11
95.6759131320552
 21
-100.261268615723
 31
0.0
  0
LINE
  5
   436
  8
0
  6
CONTINUOUS
 62
   130
 10
96.6759131320551
 20
-98.2612686157227
 30
0.0
 11
96.6759131320551
 21
-100.261268615723
 31
0.0
  0
LINE
  5
   437
  8
0
  6
CONTINUOUS
 62
   130
 10
97.6759131320551
 20
-98.2612686157227
 30
0.0
 11
97.6759131320551
 21
-100.261268615723
 31
0.0
  0
LINE
  5
   438
  8
0
  6
CONTINUOUS
 62
   130
 10
98.6759131320552
 20
-98.2612686157227
 30
0.0
 11
98.6759131320552
 21
-100.261268615723
 31
0.0
  0
LINE
  5
   439
  8
0
  6
CONTINUOUS
 62
   130
 10
99.6759131320552
 20
-98.2612686157227
 30
0.0
 11
99.6759131320552
 21
-100.261268615723
 31
0.0
  0
LINE
  5
   43A
  8
0
  6
CONTINUOUS
 62
   130
 10
100.675913132055
 20
-98.2612686157227
 30
0.0
 11
100.675913132055
 21
-100.261268615723
 31
0.0
  0
LINE
  5
   43B
  8
0
  6
CONTINUOUS
 62
   130
 10
101.675913132055
 20
-98.2612686157227
 30
0.0
 11
101.675913132055
 21
-100.261268615723
 31
0.0
  0
LINE
  5
   43C
  8
0
  6
CONTINUOUS
 62
   130
 10
102.675913132055
 20
-98.2612686157227
 30
0.0
 11
102.675913132055
 21
-100.261268615723
 31
0.0
  0
ARC
  5
   43D
  8
0
  6
CONTINUOUS
 62
   130
 10
96.1759131320552
 20
-100.261268615723
 30
0.0
 40
0.500000000000002
 50
179.999999896069
 51
359.999999896069
  0
ARC
  5
   43E
  8
0
  6
CONTINUOUS
 62
   130
 10
98.1759131320552
 20
-100.261268615723
 30
0.0
 40
0.500000000000002
 50
179.999999896069
 51
359.999999896069
  0
ARC
  5
   43F
  8
0
  6
CONTINUOUS
 62
   130
 10
100.175913132055
 20
-100.261268615723
 30
0.0
 40
0.500000000000002
 50
179.999999896069
 51
359.999999896069
  0
ARC
  5
   440
  8
0
  6
CONTINUOUS
 62
   130
 10
102.175913132055
 20
-100.261268615723
 30
0.0
 40
0.500000000000002
 50
179.999999896069
 51
359.999999896069
  0
LINE
  5
   441
  8
0
  6
CONTINUOUS
 62
   130
 10
113.17586517334
 20
-98.2612686157227
 30
0.0
 11
113.17586517334
 21
-117.811253356934
 31
0.0
  0
LINE
  5
   442
  8
0
  6
DOT
 62
   130
 10
86.1758651733398
 20
-74.793055564143
 30
0.0
 11
86.1758651733398
 21
-121.190894863945
 31
0.0
  0
TEXT
  5
   443
  8
0
  6
CONTINUOUS
 62
     2
 10
220.205822314994
 20
-177.396026779536
 30
0.0
 40
2.00000008940697
  1
   INTERR.AUTOMATICO SERIE ISOMAX
 50
359.999999896069
 41
0.75
 11
220.205822318612
 21
-175.396026690129
 31
0.0
 73
     3
  0
TEXT
  5
   444
  8
0
  6
CONTINUOUS
 62
     2
 10
220.205820305928
 20
-180.596029875426
 30
0.0
 40
2.00000008940697
  1
ESECUZ.RIMOVIBILE TRIP.TERMINALI POSTER.
 50
359.999999896069
 41
0.75
 11
220.205820309546
 21
-178.596029786019
 31
0.0
 73
     3
  0
INSERT
  5
   445
  8
0
  6
CONTINUOUS
 62
     3
  2
*UDIM302
 10
0.0
 20
0.0
 30
0.0
  0
INSERT
  5
   446
  8
0
  6
CONTINUOUS
 62
     3
  2
*UDIM303
 10
0.0
 20
0.0
 30
0.0
  0
TEXT
  5
   447
  8
0
  6
CONTINUOUS
 62
     2
 10
224.271799286881
 20
-169.079438155718
 30
0.0
 40
2.00000008940697
  1
3 POLE LOW VOLTAGE M.C.C.B SERIES ISOMAX
 50
359.999999896069
 41
0.75
 11
224.271799290499
 21
-167.079438066311
 31
0.0
 73
     3
  0
TEXT
  5
   448
  8
0
  6
CONTINUOUS
 62
     2
 10
231.771799622157
 20
-172.27943797855
 30
0.0
 40
2.00000008940697
  1
PLUG-IN VERSION REAR TERMINALS
 50
359.999999896069
 41
0.75
 11
231.771799625775
 21
-170.279437889144
 31
0.0
 73
     3
  0
TEXT
  5
   449
  8
0
  6
CONTINUOUS
 62
     2
 10
127.679623602012
 20
-168.307001149551
 30
0.0
 40
2.00000008940697
  1
3/11/92
 50
359.999999896069
 41
0.75
 72
     2
 11
137.679624050856
 21
-167.307001122936
 31
0.0
 73
     2
  0
TEXT
  5
   44A
  8
0
  6
CONTINUOUS
 62
     2
 10
129.311612127402
 20
-171.57098010768
 30
0.0
 40
2.00000008940697
  1
mostosi
 50
359.999999896069
 41
0.75
 72
     2
 11
139.311612576246
 21
-170.570980081066
 31
0.0
 73
     2
  0
TEXT
  5
   44B
  8
0
  6
CONTINUOUS
 62
     2
 10
137.778561589841
 20
-185.534686071528
 30
0.0
 40
2.50000005960464
  1
M3727 95-01-18
 50
359.999999896069
 41
0.649999919056892
 11
137.778561592102
 21
-184.284686041726
 31
0.0
 73
     2
  0
TEXT
  5
   44C
  8
0
  6
CONTINUOUS
 62
     2
 10
252.478552271693
 20
-187.432462993183
 30
0.0
 40
3.00000002980232
  1
S1
 50
359.999999896069
 41
0.983333351877
 72
     2
 11
257.628552436829
 21
-185.932462987597
 31
0.0
 73
     2
  0
TEXT
  5
   44D
  8
0
  6
CONTINUOUS
 62
     2
 10
230.90993973161
 20
-197.235126728574
 30
0.0
 40
5.00000011920929
  1
601855/121
 50
359.999999896069
 41
0.983334023157739
 72
     2
 11
278.826642036443
 21
-194.735126755647
 31
0.0
 73
     2
  0
TEXT
  5
   44E
  8
0
  6
CONTINUOUS
 62
     2
 10
287.93658722711
 20
-198.431125664358
 30
0.0
 40
2.50000005960464
  1
1/1
 50
359.999999896069
 41
1.01399994459152
 72
     1
 11
291.426587104797
 21
-197.181125640869
 31
0.0
 73
     2
  0
INSERT
  5
   44F
  8
0
  6
CONTINUOUS
 62
     7
  2
*UDIM304
 10
0.0
 20
0.0
 30
0.0
  0
INSERT
  5
   450
  8
0
  6
CONTINUOUS
 62
     7
  2
*UDIM305
 10
0.0
 20
0.0
 30
0.0
  0
INSERT
  5
   451
  8
0
  6
CONTINUOUS
 62
     3
  2
*UDIM306
 10
0.0
 20
0.0
 30
0.0
  0
CIRCLE
  5
   452
  8
0
  6
CONTINUOUS
 62
   130
 10
-41.0944557189941
 20
-97.7738037109375
 30
0.0
 40
1.0
  0
CIRCLE
  5
   453
  8
0
  6
CONTINUOUS
 62
   130
 10
-28.5944557189941
 20
-97.7738037109375
 30
0.0
 40
1.0
  0
CIRCLE
  5
   454
  8
0
  6
CONTINUOUS
 62
   130
 10
-41.0944557189941
 20
-169.773803710938
 30
0.0
 40
1.0
  0
CIRCLE
  5
   455
  8
0
  6
CONTINUOUS
 62
   130
 10
-28.5944557189941
 20
-169.773803710938
 30
0.0
 40
1.0
  0
LINE
  5
   456
  8
0
  6
CONTINUOUS
 62
   130
 10
-57.6234787451331
 20
-86.9208507636771
 30
0.0
 11
-11.2326828843509
 21
-86.9208507636771
 31
0.0
  0
LINE
  5
   457
  8
0
  6
CONTINUOUS
 62
   130
 10
-57.6234787451331
 20
-183.074472409978
 30
0.0
 11
-11.2326828843509
 21
-183.074472409978
 31
0.0
  0
LINE
  5
   458
  8
0
  6
DASHDOT
 62
   130
 10
-41.0944557189941
 20
-92.7738037109375
 30
0.0
 11
-41.0944557189941
 21
-102.773803710938
 31
0.0
  0
LINE
  5
   459
  8
0
  6
DASHDOT
 62
   130
 10
-48.5944557189941
 20
-97.7738037109375
 30
0.0
 11
-38.5944557189941
 21
-97.7738037109375
 31
0.0
  0
LINE
  5
   45A
  8
0
  6
DASHDOT
 62
   130
 10
-28.5944557189941
 20
-92.7738037109375
 30
0.0
 11
-28.5944557189941
 21
-102.773803710938
 31
0.0
  0
LINE
  5
   45B
  8
0
  6
DASHDOT
 62
   130
 10
-34.8444557189941
 20
-97.7738037109375
 30
0.0
 11
-24.8444557189941
 21
-97.7738037109375
 31
0.0
  0
LINE
  5
   45C
  8
0
  6
DASHDOT
 62
   130
 10
-41.0944557189941
 20
-163.773803710938
 30
0.0
 11
-41.0944557189941
 21
-175.773803710937
 31
0.0
  0
LINE
  5
   45D
  8
0
  6
DASHDOT
 62
   130
 10
-47.0944557189941
 20
-169.773803710938
 30
0.0
 11
-35.0944557189941
 21
-169.773803710938
 31
0.0
  0
LINE
  5
   45E
  8
0
  6
DASHDOT
 62
   130
 10
-28.5944557189941
 20
-164.773803710938
 30
0.0
 11
-28.5944557189941
 21
-174.773803710938
 31
0.0
  0
LINE
  5
   45F
  8
0
  6
DASHDOT
 62
   130
 10
-33.5944557189941
 20
-169.773803710938
 30
0.0
 11
-23.5944557189941
 21
-169.773803710938
 31
0.0
  0
ARC
  5
   460
  8
0
  6
CONTINUOUS
 62
   130
 10
-47.3444557189941
 20
-108.273803710938
 30
0.0
 40
6.5
 50
449.999999844103
 51
629.999999844103
  0
ARC
  5
   461
  8
0
  6
CONTINUOUS
 62
   130
 10
-22.3444557189941
 20
-108.273803710938
 30
0.0
 40
6.5
 50
269.999999844103
 51
449.999999844103
  0
LINE
  5
   462
  8
0
  6
CONTINUOUS
 62
   130
 10
-47.3444557189941
 20
-101.773803710938
 30
0.0
 11
-22.3444557189941
 21
-101.773803710938
 31
0.0
  0
LINE
  5
   463
  8
0
  6
CONTINUOUS
 62
   130
 10
-47.3444557189941
 20
-114.773803710938
 30
0.0
 11
-22.3444557189941
 21
-114.773803710938
 31
0.0
  0
LINE
  5
   464
  8
0
  6
DASHDOT
 62
   130
 10
-60.0944557189941
 20
-108.273803710938
 30
0.0
 11
-37.0944557189941
 21
-108.273803710938
 31
0.0
  0
LINE
  5
   465
  8
0
  6
DASHDOT
 62
   130
 10
-22.3444557189942
 20
-96.7738037109375
 30
0.0
 11
-22.3444557189942
 21
-119.773803710938
 31
0.0
  0
LINE
  5
   466
  8
0
  6
DASHDOT
 62
   130
 10
-35.0944557189941
 20
-108.273803710938
 30
0.0
 11
-12.0944557189941
 21
-108.273803710938
 31
0.0
  0
ARC
  5
   467
  8
0
  6
CONTINUOUS
 62
   130
 10
-22.3444557189941
 20
-159.273803710938
 30
0.0
 40
6.5
 50
269.999999844103
 51
449.999999844103
  0
ARC
  5
   468
  8
0
  6
CONTINUOUS
 62
   130
 10
-47.3444557189941
 20
-159.273803710938
 30
0.0
 40
6.5
 50
449.999999844103
 51
629.999999844103
  0
LINE
  5
   469
  8
0
  6
CONTINUOUS
 62
   130
 10
-47.3444557189941
 20
-165.773803710938
 30
0.0
 11
-22.3444557189941
 21
-165.773803710938
 31
0.0
  0
LINE
  5
   46A
  8
0
  6
CONTINUOUS
 62
   130
 10
-47.3444557189941
 20
-152.773803710938
 30
0.0
 11
-22.3444557189941
 21
-152.773803710938
 31
0.0
  0
LINE
  5
   46B
  8
0
  6
DASHDOT
 62
   130
 10
-47.3444557189941
 20
-147.773803710938
 30
0.0
 11
-47.3444557189941
 21
-170.773803710938
 31
0.0
  0
LINE
  5
   46C
  8
0
  6
DASHDOT
 62
   130
 10
-60.0944557189941
 20
-159.273803710938
 30
0.0
 11
-37.0944557189941
 21
-159.273803710938
 31
0.0
  0
LINE
  5
   46D
  8
0
  6
DASHDOT
 62
   130
 10
-22.3444557189941
 20
-147.773803710938
 30
0.0
 11
-22.3444557189941
 21
-170.773803710938
 31
0.0
  0
LINE
  5
   46E
  8
0
  6
DASHDOT
 62
   130
 10
-35.0944557189941
 20
-159.273803710938
 30
0.0
 11
-12.0944557189941
 21
-159.273803710938
 31
0.0
  0
CIRCLE
  5
   46F
  8
0
  6
CONTINUOUS
 62
   130
 10
-47.3444557189941
 20
-125.023803710938
 30
0.0
 40
1.0
  0
CIRCLE
  5
   470
  8
0
  6
CONTINUOUS
 62
   130
 10
-22.3444557189941
 20
-125.023803710938
 30
0.0
 40
1.0
  0
CIRCLE
  5
   471
  8
0
  6
CONTINUOUS
 62
   130
 10
-47.3444557189941
 20
-142.523803710938
 30
0.0
 40
1.0
  0
CIRCLE
  5
   472
  8
0
  6
CONTINUOUS
 62
   130
 10
-22.3444557189941
 20
-142.523803710938
 30
0.0
 40
1.0
  0
LINE
  5
   473
  8
0
  6
DASHDOT
 62
   130
 10
-47.3444557189941
 20
-120.023803710938
 30
0.0
 11
-47.3444557189941
 21
-130.023803710938
 31
0.0
  0
LINE
  5
   474
  8
0
  6
DASHDOT
 62
   130
 10
-52.3444557189941
 20
-125.023803710938
 30
0.0
 11
-42.3444557189941
 21
-125.023803710938
 31
0.0
  0
LINE
  5
   475
  8
0
  6
DASHDOT
 62
   130
 10
-22.3444557189941
 20
-120.023803710938
 30
0.0
 11
-22.3444557189941
 21
-130.023803710938
 31
0.0
  0
LINE
  5
   476
  8
0
  6
DASHDOT
 62
   130
 10
-27.3444557189941
 20
-125.023803710938
 30
0.0
 11
-17.3444557189941
 21
-125.023803710938
 31
0.0
  0
LINE
  5
   477
  8
0
  6
DASHDOT
 62
   130
 10
-47.3444557189941
 20
-137.523803710938
 30
0.0
 11
-47.3444557189941
 21
-147.523803710938
 31
0.0
  0
LINE
  5
   478
  8
0
  6
DASHDOT
 62
   130
 10
-52.3444557189941
 20
-142.523803710938
 30
0.0
 11
-42.3444557189941
 21
-142.523803710938
 31
0.0
  0
LINE
  5
   479
  8
0
  6
DASHDOT
 62
   130
 10
-22.3444557189941
 20
-137.523803710938
 30
0.0
 11
-22.3444557189941
 21
-147.523803710938
 31
0.0
  0
LINE
  5
   47A
  8
0
  6
DASHDOT
 62
   130
 10
-28.5944557189941
 20
-142.523803710938
 30
0.0
 11
-18.5944557189941
 21
-142.523803710938
 31
0.0
  0
LINE
  5
   47B
  8
0
  6
CONTINUOUS
 62
   130
 10
-57.6234787451331
 20
-86.9208507636771
 30
0.0
 11
-57.6234787451331
 21
-183.074472409978
 31
0.0
  0
LINE
  5
   47C
  8
0
  6
CONTINUOUS
 62
   130
 10
-11.2326828843509
 20
-86.9208507636771
 30
0.0
 11
-11.2326828843509
 21
-183.074472409978
 31
0.0
  0
LINE
  5
   47D
  8
0
  6
DASHDOT
 62
   130
 10
-34.8444557189941
 20
-80.5603564364833
 30
0.0
 11
-34.8444557189941
 21
-188.345116099406
 31
0.0
  0
LINE
  5
   47E
  8
0
  6
CONTINUOUS
 62
   130
 10
-67.5568232654042
 20
-118.773803710938
 30
0.0
 11
-4.3323860851928
 21
-118.773803710938
 31
0.0
  0
LINE
  5
   47F
  8
0
  6
CONTINUOUS
 62
   130
 10
-67.5568232654042
 20
-148.773803710938
 30
0.0
 11
-4.3323860851928
 21
-148.773803710938
 31
0.0
  0
LINE
  5
   480
  8
0
  6
CONTINUOUS
 62
   130
 10
-5.5823860851928
 20
-118.773803710938
 30
0.0
 11
-5.5823860851928
 21
-148.773803710938
 31
0.0
  0
LINE
  5
   481
  8
0
  6
CONTINUOUS
 62
   130
 10
-67.5568232654042
 20
-118.773803710938
 30
0.0
 11
-67.5568232654042
 21
-148.773803710938
 31
0.0
  0
LINE
  5
   482
  8
0
  6
DASHDOT
 62
   130
 10
-75.0727763745233
 20
-139.773803710938
 30
0.0
 11
-1.87349285020527
 21
-139.773803710938
 31
0.0
  0
INSERT
  5
   483
  8
0
  6
CONTINUOUS
 62
     3
  2
*UDIM307
 10
0.0
 20
0.0
 30
0.0
  0
INSERT
  5
   484
  8
0
  6
CONTINUOUS
 62
     3
  2
*UDIM308
 10
0.0
 20
0.0
 30
0.0
  0
INSERT
  5
   485
  8
0
  6
CONTINUOUS
 62
     3
  2
*UDIM309
 10
0.0
 20
0.0
 30
0.0
  0
TEXT
  5
   486
  8
0
  6
CONTINUOUS
 62
     2
 10
-90.8417684398989
 20
-141.284375854614
 30
0.0
 40
3.00000002980232
  1
X
 50
359.999999844103
 41
0.983333351877
 72
     2
 11
-88.641768358339
 21
-139.784375845688
 31
0.0
 73
     2
  0
TEXT
  5
   487
  8
0
  6
CONTINUOUS
 62
     2
 10
-1.8135171532816
 20
-141.284375758449
 30
0.0
 40
3.00000002980232
  1
X
 50
359.999999844103
 41
0.983333351877
 11
-1.81351714920777
 21
-139.784375743548
 31
0.0
 73
     2
  0
TEXT
  5
   488
  8
0
  6
CONTINUOUS
 62
     2
 10
-34.7475464682786
 20
-80.8642159108263
 30
0.0
 40
3.00000002980232
  1
Y
 50
359.999999844103
 41
0.983333351877
 72
     2
 11
-32.5475463867188
 21
-79.3642159019001
 31
0.0
 73
     2
  0
TEXT
  5
   489
  8
0
  6
CONTINUOUS
 62
     2
 10
-35.2097695212563
 20
-189.969427633677
 30
0.0
 40
3.00000002980232
  1
Y
 50
359.999999844103
 41
0.983333351877
 72
     2
 11
-33.0097694396964
 21
-188.469427624751
 31
0.0
 73
     2
  0
INSERT
  5
   48A
  8
0
  6
CONTINUOUS
 62
     7
  2
*UDIM310
 10
0.0
 20
0.0
 30
0.0
  0
INSERT
  5
   48B
  8
0
  6
CONTINUOUS
 62
     7
  2
*UDIM311
 10
0.0
 20
0.0
 30
0.0
  0
INSERT
  5
   48C
  8
0
  6
CONTINUOUS
 62
     3
  2
*UDIM312
 10
0.0
 20
0.0
 30
0.0
  0
INSERT
  5
   48D
  8
0
  6
CONTINUOUS
 62
     3
  2
*UDIM313
 10
0.0
 20
0.0
 30
0.0
  0
INSERT
  5
   48E
  8
0
  6
CONTINUOUS
 62
     3
  2
*UDIM314
 10
0.0
 20
0.0
 30
0.0
  0
INSERT
  5
   48F
  8
0
  6
CONTINUOUS
 62
     3
  2
*UDIM315
 10
0.0
 20
0.0
 30
0.0
  0
INSERT
  5
   490
  8
0
  6
CONTINUOUS
 62
     3
  2
*UDIM316
 10
0.0
 20
0.0
 30
0.0
  0
INSERT
  5
   491
  8
0
  6
CONTINUOUS
 62
     3
  2
*UDIM317
 10
0.0
 20
0.0
 30
0.0
  0
CIRCLE
  5
   492
  8
0
  6
CONTINUOUS
 62
     2
 10
-22.3444670295576
 20
35.9360179901138
 30
0.0
 40
1.0
  0
LINE
  5
   493
  8
0
  6
CONTINUOUS
 62
     2
 10
-21.7312946171858
 20
36.7259670977823
 30
0.0
 11
-23.1344161372261
 21
35.322845577742
 31
0.0
  0
LINE
  5
   494
  8
0
  6
CONTINUOUS
 62
     2
 10
-21.5545179218892
 20
36.5491904024856
 30
0.0
 11
-22.9576394419294
 21
35.1460688824454
 31
0.0
  0
LINE
  5
   495
  8
0
  6
DASHDOT
 62
     2
 10
-22.3444670295576
 20
40.9360179901138
 30
0.0
 11
-22.3444670295576
 21
30.9360179901138
 31
0.0
  0
LINE
  5
   496
  8
0
  6
DASHDOT
 62
     2
 10
-27.3444670295576
 20
35.9360179901138
 30
0.0
 11
-17.3444670295576
 21
35.9360179901138
 31
0.0
  0
LINE
  5
   497
  8
0
  6
CONTINUOUS
 62
     2
 10
-22.6673260306736
 20
-23.5636177062988
 30
0.0
 11
-22.9576394419294
 21
-23.8539311175546
 31
0.0
  0
LINE
  5
   498
  8
0
  6
CONTINUOUS
 62
     2
 10
-23.0208794212669
 20
-23.5636177062988
 30
0.0
 11
-23.1344161372261
 21
-23.677154422258
 31
0.0
  0
ARC
  5
   499
  8
0
  6
CONTINUOUS
 62
     2
 10
-22.3444670295576
 20
-23.0639820098862
 30
0.0
 40
1.0
 50
569.975900638184
 51
690.024099050022
  0
LINE
  5
   49A
  8
0
  6
CONTINUOUS
 62
     7
 10
-12.0945234298706
 20
23.8110680580139
 30
0.0
 11
-12.0945234298706
 21
-22.9389319419861
 31
0.0
  0
LINE
  5
   49B
  8
0
  6
CONTINUOUS
 62
     7
 10
-56.9695234298706
 20
-23.5639319419861
 30
0.0
 11
-12.7195234298706
 21
-23.5639319419861
 31
0.0
  0
LINE
  5
   49C
  8
0
  6
CONTINUOUS
 62
     7
 10
-57.5945234298706
 20
23.8110680580139
 30
0.0
 11
-57.5945234298706
 21
-22.9389319419861
 31
0.0
  0
LINE
  5
   49D
  8
0
  6
CONTINUOUS
 62
     7
 10
-56.9695234298706
 20
24.4360680580139
 30
0.0
 11
-12.7195234298706
 21
24.4360680580139
 31
0.0
  0
LINE
  5
   49E
  8
0
  6
CONTINUOUS
 62
     7
 10
-55.0945234298706
 20
-11.5639319419861
 30
0.0
 11
-14.5945234298706
 21
-11.5639319419861
 31
0.0
  0
LINE
  5
   49F
  8
0
  6
CONTINUOUS
 62
     7
 10
-55.0945234298706
 20
12.4360680580139
 30
0.0
 11
-14.5945234298706
 21
12.4360680580139
 31
0.0
  0
LINE
  5
   4A0
  8
0
  6
CONTINUOUS
 62
     7
 10
-55.3445234298706
 20
24.4360680580139
 30
0.0
 11
-55.3445234298706
 21
-23.5639319419861
 31
0.0
  0
LINE
  5
   4A1
  8
0
  6
CONTINUOUS
 62
     7
 10
-54.8445234298706
 20
17.6860680580139
 30
0.0
 11
-54.8445234298706
 21
12.4360680580139
 31
0.0
  0
LINE
  5
   4A2
  8
0
  6
CONTINUOUS
 62
     7
 10
-54.8445234298706
 20
-11.5639319419861
 30
0.0
 11
-54.8445234298706
 21
-16.8139319419861
 31
0.0
  0
LINE
  5
   4A3
  8
0
  6
CONTINUOUS
 62
     7
 10
-54.8445234298706
 20
-17.3139319419861
 30
0.0
 11
-54.8445234298706
 21
-23.5639319419861
 31
0.0
  0
LINE
  5
   4A4
  8
0
  6
CONTINUOUS
 62
     7
 10
-14.3445234298706
 20
24.4360680580139
 30
0.0
 11
-14.3445234298706
 21
-23.5639319419861
 31
0.0
  0
LINE
  5
   4A5
  8
0
  6
CONTINUOUS
 62
     7
 10
-14.8445234298706
 20
-11.5639319419861
 30
0.0
 11
-14.8445234298706
 21
-16.8139319419861
 31
0.0
  0
LINE
  5
   4A6
  8
0
  6
CONTINUOUS
 62
     7
 10
-14.8445234298706
 20
-17.3139319419861
 30
0.0
 11
-14.8445234298706
 21
-23.5639319419861
 31
0.0
  0
LINE
  5
   4A7
  8
0
  6
CONTINUOUS
 62
     7
 10
-14.8445234298706
 20
17.6860680580139
 30
0.0
 11
-14.8445234298706
 21
12.4360680580139
 31
0.0
  0
LINE
  5
   4A8
  8
0
  6
CONTINUOUS
 62
     7
 10
-55.3445234298706
 20
18.1860680580139
 30
0.0
 11
-14.3445234298706
 21
18.1860680580139
 31
0.0
  0
LINE
  5
   4A9
  8
0
  6
CONTINUOUS
 62
     7
 10
-54.8445234298706
 20
17.6860680580139
 30
0.0
 11
-14.8445234298706
 21
17.6860680580139
 31
0.0
  0
LINE
  5
   4AA
  8
0
  6
CONTINUOUS
 62
     7
 10
-54.8445234298706
 20
-17.3139319419861
 30
0.0
 11
-14.8445234298706
 21
-17.3139319419861
 31
0.0
  0
LINE
  5
   4AB
  8
0
  6
CONTINUOUS
 62
     7
 10
-54.8445234298706
 20
-16.8139319419861
 30
0.0
 11
-14.8445234298706
 21
-16.8139319419861
 31
0.0
  0
LINE
  5
   4AC
  8
0
  6
CONTINUOUS
 62
     7
 10
-55.3445234298706
 20
21.6860680580139
 30
0.0
 11
-55.1945219039917
 21
21.6860680580139
 31
0.0
  0
LINE
  5
   4AD
  8
0
  6
CONTINUOUS
 62
     7
 10
-55.3445234298706
 20
20.9360680580139
 30
0.0
 11
-55.1945219039917
 21
20.9360680580139
 31
0.0
  0
LINE
  5
   4AE
  8
0
  6
CONTINUOUS
 62
     7
 10
-14.494523525238
 20
21.6860680580139
 30
0.0
 11
-14.3445234298706
 21
21.6860680580139
 31
0.0
  0
LINE
  5
   4AF
  8
0
  6
CONTINUOUS
 62
     7
 10
-14.494523525238
 20
20.9360680580139
 30
0.0
 11
-14.3445234298706
 21
20.9360680580139
 31
0.0
  0
ARC
  5
   4B0
  8
0
  6
CONTINUOUS
 62
     7
 10
-55.1945418753297
 20
21.3110555990367
 30
0.0
 40
0.375021724720464
 50
270.002994716444
 51
449.997011754257
  0
ARC
  5
   4B1
  8
0
  6
CONTINUOUS
 62
     7
 10
-14.4945160936792
 20
21.3110653029487
 30
0.0
 40
0.375007470094436
 50
450.001135501493
 51
629.998857587167
  0
ARC
  5
   4B2
  8
0
  6
CONTINUOUS
 62
     7
 10
-12.7195234298706
 20
23.8110680580139
 30
0.0
 40
0.625
 50
359.999999844103
 51
449.999999844103
  0
ARC
  5
   4B3
  8
0
  6
CONTINUOUS
 62
     7
 10
-56.9695234298706
 20
23.8110680580139
 30
0.0
 40
0.625
 50
449.999999844103
 51
539.999999844103
  0
ARC
  5
   4B4
  8
0
  6
CONTINUOUS
 62
     7
 10
-56.9695234298706
 20
-22.9389319419861
 30
0.0
 40
0.625
 50
539.999999844103
 51
629.999999844103
  0
ARC
  5
   4B5
  8
0
  6
CONTINUOUS
 62
     7
 10
-12.7195234298706
 20
-22.9389319419861
 30
0.0
 40
0.625
 50
269.999999844103
 51
359.999999844103
  0
LINE
  5
   4B6
  8
0
  6
CONTINUOUS
 62
     7
 10
-14.5945234298706
 20
12.4360680580139
 30
0.0
 11
-14.5945234298706
 21
-11.5639319419861
 31
0.0
  0
LINE
  5
   4B7
  8
0
  6
CONTINUOUS
 62
     7
 10
-55.0945234298706
 20
12.4360680580139
 30
0.0
 11
-55.0945234298706
 21
-11.5639319419861
 31
0.0
  0
LINE
  5
   4B8
  8
0
  6
CONTINUOUS
 62
   130
 10
-5.88804960250854
 20
-0.813982009887695
 30
0.0
 11
-5.88804960250854
 21
-0.813982009887695
 31
0.0
  0
LINE
  5
   4B9
  8
0
  6
CONTINUOUS
 62
   130
 10
-5.88804960250854
 20
-0.813982009887695
 30
0.0
 11
-5.88804960250854
 21
-0.813982009887695
 31
0.0
  0
LINE
  5
   4BA
  8
0
  6
CONTINUOUS
 62
   130
 10
-5.88804960250854
 20
-0.813982009887695
 30
0.0
 11
-5.88804960250854
 21
-0.813982009887695
 31
0.0
  0
LINE
  5
   4BB
  8
0
  6
CONTINUOUS
 62
   130
 10
-5.88804960250854
 20
-0.813982009887695
 30
0.0
 11
-5.88804960250854
 21
-0.813982009887695
 31
0.0
  0
LINE
  5
   4BC
  8
0
  6
CONTINUOUS
 62
   130
 10
-5.88804960250854
 20
-0.813982009887695
 30
0.0
 11
-5.88804960250854
 21
-0.813982009887695
 31
0.0
  0
LINE
  5
   4BD
  8
0
  6
CONTINUOUS
 62
   130
 10
-5.88804960250854
 20
-0.813982009887695
 30
0.0
 11
-5.88804960250854
 21
-0.813982009887695
 31
0.0
  0
LINE
  5
   4BE
  8
0
  6
CONTINUOUS
 62
   130
 10
-5.88804960250854
 20
-0.813982009887695
 30
0.0
 11
-5.88804960250854
 21
-0.813982009887695
 31
0.0
  0
LINE
  5
   4BF
  8
0
  6
CONTINUOUS
 62
   130
 10
-54.3444626045209
 20
47.4360218048096
 30
0.0
 11
-54.3444590950072
 21
24.4360680580139
 31
0.0
  0
LINE
  5
   4C0
  8
0
  6
CONTINUOUS
 62
   130
 10
-54.3444537162798
 20
-10.8139667510952
 30
0.0
 11
-34.8444689750686
 21
-10.8139667510952
 31
0.0
  0
LINE
  5
   4C1
  8
0
  6
CONTINUOUS
 62
   130
 10
-54.3444571495067
 20
11.6860332488988
 30
0.0
 11
-34.8444724082954
 21
11.6860332488988
 31
0.0
  0
LINE
  5
   4C2
  8
0
  6
CONTINUOUS
 62
   130
 10
-38.5944779708105
 20
7.50403496950648
 30
0.0
 11
-31.5222551981156
 21
7.50403496950648
 31
0.0
  0
LINE
  5
   4C3
  8
0
  6
CONTINUOUS
 62
   130
 10
-38.5944780063634
 20
8.43603324889884
 30
0.0
 11
-38.5944774930603
 21
-5.01989214841571
 31
0.0
  0
LINE
  5
   4C4
  8
0
  6
CONTINUOUS
 62
   130
 10
-38.5944774930603
 20
-5.01989214841571
 30
0.0
 11
-38.0944774930603
 21
-5.01989214841571
 31
0.0
  0
LINE
  5
   4C5
  8
0
  6
CONTINUOUS
 62
   130
 10
-38.5944775002358
 20
-4.83179040581878
 30
0.0
 11
-38.0944775002358
 21
-4.83179040581878
 31
0.0
  0
LINE
  5
   4C6
  8
0
  6
CONTINUOUS
 62
   130
 10
-54.3444565391552
 20
7.68603324889884
 30
0.0
 11
-38.5944779777532
 21
7.68603324889884
 31
0.0
  0
LINE
  5
   4C7
  8
0
  6
CONTINUOUS
 62
   130
 10
-54.3444542121904
 20
-7.56396675109522
 30
0.0
 11
-47.6444693565372
 21
-7.56396675109522
 31
0.0
  0
LINE
  5
   4C8
  8
0
  6
CONTINUOUS
 62
   130
 10
-54.3444543266313
 20
-6.81396675109522
 30
0.0
 11
-38.0944774246218
 21
-6.81396675109522
 31
0.0
  0
LINE
  5
   4C9
  8
0
  6
CONTINUOUS
 62
   130
 10
-42.6444693565372
 20
-7.56396675109522
 30
0.0
 11
-15.3444867897026
 21
-7.56396675109522
 31
0.0
  0
LINE
  5
   4CA
  8
0
  6
CONTINUOUS
 62
   130
 10
-38.0944775920936
 20
-2.42379462331528
 30
0.0
 11
-38.0944774316281
 21
-6.63030022145089
 31
0.0
  0
LINE
  5
   4CB
  8
0
  6
CONTINUOUS
 62
   130
 10
-5.88804960250854
 20
-0.813982009887695
 30
0.0
 11
-5.88804960250854
 21
-0.813982009887695
 31
0.0
  0
LINE
  5
   4CC
  8
0
  6
CONTINUOUS
 62
   130
 10
-5.88804960250854
 20
-0.813982009887695
 30
0.0
 11
-5.88804960250854
 21
-0.813982009887695
 31
0.0
  0
LINE
  5
   4CD
  8
0
  6
CONTINUOUS
 62
   130
 10
-5.88804960250854
 20
-0.813982009887695
 30
0.0
 11
-5.88804960250854
 21
-0.813982009887695
 31
0.0
  0
LINE
  5
   4CE
  8
0
  6
CONTINUOUS
 62
   130
 10
-5.88804960250854
 20
-0.813982009887695
 30
0.0
 11
-5.88804960250854
 21
-0.813982009887695
 31
0.0
  0
LINE
  5
   4CF
  8
0
  6
CONTINUOUS
 62
   130
 10
-5.88804960250854
 20
-0.813982009887695
 30
0.0
 11
-5.88804960250854
 21
-0.813982009887695
 31
0.0
  0
LINE
  5
   4D0
  8
0
  6
CONTINUOUS
 62
   130
 10
-5.88804960250854
 20
-0.813982009887695
 30
0.0
 11
-5.88804960250854
 21
-0.813982009887695
 31
0.0
  0
LINE
  5
   4D1
  8
0
  6
CONTINUOUS
 62
   130
 10
-5.88804960250854
 20
-0.813982009887695
 30
0.0
 11
-5.88804960250854
 21
-0.813982009887695
 31
0.0
  0
LINE
  5
   4D2
  8
0
  6
CONTINUOUS
 62
   130
 10
-53.8444750785797
 20
29.1860121073551
 30
0.0
 11
-53.8444749641388
 21
28.4360121073551
 31
0.0
  0
LINE
  5
   4D3
  8
0
  6
CONTINUOUS
 62
   130
 10
-54.344459819791
 20
29.1860121073551
 30
0.0
 11
-34.8444853988567
 21
29.1860121073551
 31
0.0
  0
LINE
  5
   4D4
  8
0
  6
CONTINUOUS
 62
   130
 10
-54.3444597053501
 20
28.4360121073551
 30
0.0
 11
-34.844470500946
 21
28.4360121073551
 31
0.0
  0
LINE
  5
   4D5
  8
0
  6
CONTINUOUS
 62
   130
 10
-5.88804960250854
 20
-0.813982009887695
 30
0.0
 11
-5.88804960250854
 21
-0.813982009887695
 31
0.0
  0
LINE
  5
   4D6
  8
0
  6
CONTINUOUS
 62
   130
 10
-5.88804960250854
 20
-0.813982009887695
 30
0.0
 11
-5.88804960250854
 21
-0.813982009887695
 31
0.0
  0
LINE
  5
   4D7
  8
0
  6
CONTINUOUS
 62
   130
 10
-5.88804960250854
 20
-0.813982009887695
 30
0.0
 11
-5.88804960250854
 21
-0.813982009887695
 31
0.0
  0
LINE
  5
   4D8
  8
0
  6
CONTINUOUS
 62
   130
 10
-5.88804960250854
 20
-0.813982009887695
 30
0.0
 11
-5.88804960250854
 21
-0.813982009887695
 31
0.0
  0
LINE
  5
   4D9
  8
0
  6
CONTINUOUS
 62
   130
 10
-5.88804960250854
 20
-0.813982009887695
 30
0.0
 11
-5.88804960250854
 21
-0.813982009887695
 31
0.0
  0
LINE
  5
   4DA
  8
0
  6
CONTINUOUS
 62
   130
 10
-5.88804960250854
 20
-0.813982009887695
 30
0.0
 11
-5.88804960250854
 21
-0.813982009887695
 31
0.0
  0
LINE
  5
   4DB
  8
0
  6
CONTINUOUS
 62
   130
 10
-5.88804960250854
 20
-0.813982009887695
 30
0.0
 11
-5.88804960250854
 21
-0.813982009887695
 31
0.0
  0
LINE
  5
   4DC
  8
0
  6
CONTINUOUS
 62
   130
 10
-5.88804960250854
 20
-0.813982009887695
 30
0.0
 11
-5.88804960250854
 21
-0.813982009887695
 31
0.0
  0
LINE
  5
   4DD
  8
0
  6
CONTINUOUS
 62
   130
 10
-15.3444783973721
 20
47.4360218048096
 30
0.0
 11
-15.3444819068858
 21
24.4360680580139
 31
0.0
  0
LINE
  5
   4DE
  8
0
  6
CONTINUOUS
 62
   130
 10
-31.5944630310825
 20
7.50403496950648
 30
0.0
 11
-31.0944630310825
 21
7.50403496950648
 31
0.0
  0
LINE
  5
   4DF
  8
0
  6
CONTINUOUS
 62
   130
 10
-31.0944629955296
 20
8.43603324889884
 30
0.0
 11
-31.0944635088326
 21
-5.01989214841571
 31
0.0
  0
LINE
  5
   4E0
  8
0
  6
CONTINUOUS
 62
   130
 10
-31.5944635088326
 20
-5.01989214841571
 30
0.0
 11
-31.0944635088327
 21
-5.01989214841571
 31
0.0
  0
LINE
  5
   4E1
  8
0
  6
CONTINUOUS
 62
   130
 10
-31.5944635016571
 20
-4.83179040581878
 30
0.0
 11
-31.0944635016571
 21
-4.83179040581878
 31
0.0
  0
LINE
  5
   4E2
  8
0
  6
CONTINUOUS
 62
   130
 10
-54.3444566535961
 20
8.43603324889884
 30
0.0
 11
-15.3444843482969
 21
8.43603324889884
 31
0.0
  0
LINE
  5
   4E3
  8
0
  6
CONTINUOUS
 62
   130
 10
-31.0944630241398
 20
7.68603324889884
 30
0.0
 11
-15.3444844627378
 21
7.68603324889884
 31
0.0
  0
LINE
  5
   4E4
  8
0
  6
CONTINUOUS
 62
   130
 10
-31.5944634097993
 20
-2.42379462331528
 30
0.0
 11
-31.5944635702649
 21
-6.63030022145089
 31
0.0
  0
LINE
  5
   4E5
  8
0
  6
CONTINUOUS
 62
   130
 10
-5.88804960250854
 20
-0.813982009887695
 30
0.0
 11
-5.88804960250854
 21
-0.813982009887695
 31
0.0
  0
LINE
  5
   4E6
  8
0
  6
CONTINUOUS
 62
   130
 10
-5.88804960250854
 20
-0.813982009887695
 30
0.0
 11
-5.88804960250854
 21
-0.813982009887695
 31
0.0
  0
LINE
  5
   4E7
  8
0
  6
CONTINUOUS
 62
   130
 10
-5.88804960250854
 20
-0.813982009887695
 30
0.0
 11
-5.88804960250854
 21
-0.813982009887695
 31
0.0
  0
LINE
  5
   4E8
  8
0
  6
CONTINUOUS
 62
   130
 10
-5.88804960250854
 20
-0.813982009887695
 30
0.0
 11
-5.88804960250854
 21
-0.813982009887695
 31
0.0
  0
LINE
  5
   4E9
  8
0
  6
CONTINUOUS
 62
   130
 10
-5.88804960250854
 20
-0.813982009887695
 30
0.0
 11
-5.88804960250854
 21
-0.813982009887695
 31
0.0
  0
LINE
  5
   4EA
  8
0
  6
CONTINUOUS
 62
   130
 10
-5.88804960250854
 20
-0.813982009887695
 30
0.0
 11
-5.88804960250854
 21
-0.813982009887695
 31
0.0
  0
LINE
  5
   4EB
  8
0
  6
CONTINUOUS
 62
   130
 10
-5.88804960250854
 20
-0.813982009887695
 30
0.0
 11
-5.88804960250854
 21
-0.813982009887695
 31
0.0
  0
LINE
  5
   4EC
  8
0
  6
CONTINUOUS
 62
   130
 10
-15.8444659233132
 20
29.1860121073551
 30
0.0
 11
-15.8444660377541
 21
28.4360121073551
 31
0.0
  0
LINE
  5
   4ED
  8
0
  6
CONTINUOUS
 62
   130
 10
-34.8444556030362
 20
29.1860121073551
 30
0.0
 11
-15.344481182102
 21
29.1860121073551
 31
0.0
  0
LINE
  5
   4EE
  8
0
  6
CONTINUOUS
 62
   130
 10
-34.8444705009469
 20
28.4360121073551
 30
0.0
 11
-15.3444812965429
 21
28.4360121073551
 31
0.0
  0
LINE
  5
   4EF
  8
0
  6
DASHDOT
 62
   130
 10
-34.8444556030362
 20
51.931614066369
 30
0.0
 11
-34.8444556030362
 21
-39.5328256036934
 31
0.0
  0
LINE
  5
   4F0
  8
0
  6
CONTINUOUS
 62
   130
 10
-38.0944775920936
 20
-2.42379462331528
 30
0.0
 11
-31.5944634097993
 21
-2.42379462331528
 31
0.0
  0
LINE
  5
   4F1
  8
0
  6
CONTINUOUS
 62
   130
 10
-37.8444774777328
 20
-5.1716927016986
 30
0.0
 11
-31.8444635241601
 21
-5.1716927016986
 31
0.0
  0
LINE
  5
   4F2
  8
0
  6
CONTINUOUS
 62
   130
 10
-37.8444774316281
 20
-6.88030021191414
 30
0.0
 11
-31.8444635702649
 21
-6.88030021191414
 31
0.0
  0
LINE
  5
   4F3
  8
0
  6
CONTINUOUS
 62
   130
 10
-31.5944635772712
 20
-6.81396675109522
 30
0.0
 11
-15.3444866752617
 21
-6.81396675109522
 31
0.0
  0
ARC
  5
   4F4
  8
0
  6
CONTINUOUS
 62
   130
 10
-37.8444774316281
 20
-6.63030021191414
 30
0.0
 40
0.25
 50
540.000002029765
 51
629.999999844103
  0
ARC
  5
   4F5
  8
0
  6
CONTINUOUS
 62
   130
 10
-31.8444635702649
 20
-6.63030021191414
 30
0.0
 40
0.25
 50
269.999999844103
 51
359.999997658442
  0
ARC
  5
   4F6
  8
0
  6
CONTINUOUS
 62
   130
 10
-31.8444635241601
 20
-5.4216927016986
 30
0.0
 40
0.25
 50
359.999997658442
 51
449.999999844103
  0
ARC
  5
   4F7
  8
0
  6
CONTINUOUS
 62
   130
 10
-37.8444774777328
 20
-5.4216927016986
 30
0.0
 40
0.25
 50
449.999999844103
 51
540.000002029765
  0
LINE
  5
   4F8
  8
0
  6
CONTINUOUS
 62
   130
 10
-34.8444720268243
 20
-10.8139667510952
 30
0.0
 11
-15.3444872856132
 21
-10.8139667510952
 31
0.0
  0
LINE
  5
   4F9
  8
0
  6
CONTINUOUS
 62
   130
 10
-34.8444685935975
 20
11.6860332488988
 30
0.0
 11
-15.3444838523863
 21
11.6860332488988
 31
0.0
  0
LINE
  5
   4FA
  8
0
  6
DASHDOT
 62
   130
 10
-60.9601699401479
 20
0.436033248898845
 30
0.0
 11
-8.3457954663391
 21
0.436033248898845
 31
0.0
  0
LINE
  5
   4FB
  8
0
  6
CONTINUOUS
 62
   130
 10
-41.7288241386414
 20
6.61410666948776
 30
0.0
 11
-41.3538241386414
 21
6.61410666948776
 31
0.0
  0
LINE
  5
   4FC
  8
0
  6
CONTINUOUS
 62
   130
 10
-41.7288241386414
 20
4.36410666948776
 30
0.0
 11
-41.3538241386414
 21
4.36410666948776
 31
0.0
  0
CIRCLE
  5
   4FD
  8
0
  6
CONTINUOUS
 62
   130
 10
-41.5413241386414
 20
-2.88589333051223
 30
0.0
 40
1.125
  0
CIRCLE
  5
   4FE
  8
0
  6
CONTINUOUS
 62
   130
 10
-41.5413241386414
 20
-2.88589333051223
 30
0.0
 40
0.75
  0
LINE
  5
   4FF
  8
0
  6
CONTINUOUS
 62
   130
 10
-41.7288241386414
 20
6.61410666948776
 30
0.0
 11
-41.7288241386414
 21
4.36410666948776
 31
0.0
  0
LINE
  5
   500
  8
0
  6
CONTINUOUS
 62
   130
 10
-41.3538241386413
 20
6.61410666948776
 30
0.0
 11
-41.3538241386413
 21
4.36410666948776
 31
0.0
  0
LINE
  5
   501
  8
0
  6
CONTINUOUS
 62
   130
 10
-27.4538265800476
 20
-1.92339333051224
 30
0.0
 11
-27.3413265800476
 21
-1.92339333051224
 31
0.0
  0
LINE
  5
   502
  8
0
  6
CONTINUOUS
 62
   130
 10
-27.7788265800476
 20
-3.84839333051224
 30
0.0
 11
-27.5788265800476
 21
-3.84839333051224
 31
0.0
  0
LINE
  5
   503
  8
0
  6
CONTINUOUS
 62
   130
 10
-28.0788265800476
 20
-3.07339333051222
 30
0.0
 11
-28.0788265800476
 21
-3.19839333051222
 31
0.0
  0
ARC
  5
   504
  8
0
  6
CONTINUOUS
 62
   130
 10
-28.7288265800476
 20
-3.07339333051224
 30
0.0
 40
0.65
 50
359.999999844103
 51
539.999999844103
  0
ARC
  5
   505
  8
0
  6
CONTINUOUS
 62
   130
 10
-28.7288265800476
 20
-3.19839333051223
 30
0.0
 40
0.649999999999999
 50
539.999999844103
 51
719.999999844103
  0
ARC
  5
   506
  8
0
  6
CONTINUOUS
 62
   130
 10
-28.7288265800476
 20
-3.07339333051224
 30
0.0
 40
0.45
 50
359.999999844103
 51
539.999999844103
  0
ARC
  5
   507
  8
0
  6
CONTINUOUS
 62
   130
 10
-28.7288265800476
 20
-3.19839333051223
 30
0.0
 40
0.449999999999999
 50
539.999999844103
 51
719.999999844103
  0
LINE
  5
   508
  8
0
  6
CONTINUOUS
 62
   130
 10
-28.2788265800476
 20
-3.07339333051222
 30
0.0
 11
-28.2788265800476
 21
-3.19839333051222
 31
0.0
  0
LINE
  5
   509
  8
0
  6
CONTINUOUS
 62
   130
 10
-28.0163265800476
 20
-2.52339333051222
 30
0.0
 11
-28.0163265800476
 21
-2.72339333051222
 31
0.0
  0
LINE
  5
   50A
  8
0
  6
CONTINUOUS
 62
   130
 10
-28.0163265800476
 20
-2.72339333051224
 30
0.0
 11
-27.7788265800476
 21
-2.72339333051224
 31
0.0
  0
LINE
  5
   50B
  8
0
  6
CONTINUOUS
 62
   130
 10
-27.3413265800476
 20
-2.52339333051222
 30
0.0
 11
-27.3413265800476
 21
-2.72339333051222
 31
0.0
  0
LINE
  5
   50C
  8
0
  6
CONTINUOUS
 62
   130
 10
-28.0163265800476
 20
-2.52339333051224
 30
0.0
 11
-27.7788265800476
 21
-2.52339333051224
 31
0.0
  0
LINE
  5
   50D
  8
0
  6
CONTINUOUS
 62
   130
 10
-27.7788265800476
 20
-2.72339333051222
 30
0.0
 11
-27.7788265800476
 21
-3.84839333051222
 31
0.0
  0
LINE
  5
   50E
  8
0
  6
CONTINUOUS
 62
   130
 10
-27.5788265800476
 20
-2.72339333051222
 30
0.0
 11
-27.5788265800476
 21
-3.84839333051222
 31
0.0
  0
LINE
  5
   50F
  8
0
  6
CONTINUOUS
 62
   130
 10
-27.5788265800476
 20
-2.72339333051224
 30
0.0
 11
-27.3413265800476
 21
-2.72339333051224
 31
0.0
  0
LINE
  5
   510
  8
0
  6
CONTINUOUS
 62
   130
 10
-27.5788265800476
 20
-2.52339333051224
 30
0.0
 11
-27.3413265800476
 21
-2.52339333051224
 31
0.0
  0
LINE
  5
   511
  8
0
  6
CONTINUOUS
 62
   130
 10
-27.7788265800476
 20
-2.24839333051222
 30
0.0
 11
-27.7788265800476
 21
-2.52339333051222
 31
0.0
  0
LINE
  5
   512
  8
0
  6
CONTINUOUS
 62
   130
 10
-27.5788265800476
 20
-2.24839333051222
 30
0.0
 11
-27.5788265800476
 21
-2.52339333051223
 31
0.0
  0
ARC
  5
   513
  8
0
  6
CONTINUOUS
 62
   130
 10
-27.4538265800476
 20
-2.24839333051224
 30
0.0
 40
0.325
 50
449.999999844103
 51
539.999999844103
  0
ARC
  5
   514
  8
0
  6
CONTINUOUS
 62
   130
 10
-27.4538265800476
 20
-2.24839333051224
 30
0.0
 40
0.125
 50
449.999999844103
 51
539.999999844103
  0
LINE
  5
   515
  8
0
  6
CONTINUOUS
 62
   130
 10
-27.3413265800476
 20
-1.92339333051222
 30
0.0
 11
-27.3413265800476
 21
-2.12339333051222
 31
0.0
  0
LINE
  5
   516
  8
0
  6
CONTINUOUS
 62
   130
 10
-27.4538265800476
 20
-2.12339333051224
 30
0.0
 11
-27.3413265800476
 21
-2.12339333051224
 31
0.0
  0
LINE
  5
   517
  8
0
  6
CONTINUOUS
 62
   130
 10
-26.9788265800476
 20
-3.84839333051224
 30
0.0
 11
-26.7788265800476
 21
-3.84839333051224
 31
0.0
  0
LINE
  5
   518
  8
0
  6
CONTINUOUS
 62
   130
 10
-27.2163265800476
 20
-2.52339333051223
 30
0.0
 11
-27.2163265800476
 21
-2.72339333051222
 31
0.0
  0
LINE
  5
   519
  8
0
  6
CONTINUOUS
 62
   130
 10
-27.2163265800476
 20
-2.72339333051224
 30
0.0
 11
-26.9788265800476
 21
-2.72339333051224
 31
0.0
  0
LINE
  5
   51A
  8
0
  6
CONTINUOUS
 62
   130
 10
-26.5413265800476
 20
-2.52339333051223
 30
0.0
 11
-26.5413265800476
 21
-2.72339333051222
 31
0.0
  0
LINE
  5
   51B
  8
0
  6
CONTINUOUS
 62
   130
 10
-27.2163265800476
 20
-2.52339333051224
 30
0.0
 11
-26.9788265800476
 21
-2.52339333051224
 31
0.0
  0
LINE
  5
   51C
  8
0
  6
CONTINUOUS
 62
   130
 10
-26.9788265800476
 20
-2.72339333051222
 30
0.0
 11
-26.9788265800476
 21
-3.84839333051222
 31
0.0
  0
LINE
  5
   51D
  8
0
  6
CONTINUOUS
 62
   130
 10
-26.7788265800476
 20
-2.72339333051222
 30
0.0
 11
-26.7788265800476
 21
-3.84839333051222
 31
0.0
  0
LINE
  5
   51E
  8
0
  6
CONTINUOUS
 62
   130
 10
-26.7788265800476
 20
-2.72339333051224
 30
0.0
 11
-26.5413265800476
 21
-2.72339333051224
 31
0.0
  0
LINE
  5
   51F
  8
0
  6
CONTINUOUS
 62
   130
 10
-26.7788265800476
 20
-2.52339333051224
 30
0.0
 11
-26.5413265800476
 21
-2.52339333051224
 31
0.0
  0
LINE
  5
   520
  8
0
  6
CONTINUOUS
 62
   130
 10
-26.9788265800476
 20
-2.24839333051222
 30
0.0
 11
-26.9788265800476
 21
-2.52339333051222
 31
0.0
  0
LINE
  5
   521
  8
0
  6
CONTINUOUS
 62
   130
 10
-26.7788265800476
 20
-2.24839333051222
 30
0.0
 11
-26.7788265800476
 21
-2.52339333051222
 31
0.0
  0
ARC
  5
   522
  8
0
  6
CONTINUOUS
 62
   130
 10
-26.6538265800476
 20
-2.24839333051224
 30
0.0
 40
0.325
 50
449.999999844103
 51
539.999999844103
  0
ARC
  5
   523
  8
0
  6
CONTINUOUS
 62
   130
 10
-26.6538265800476
 20
-2.24839333051224
 30
0.0
 40
0.125
 50
449.999999844103
 51
539.999999844103
  0
LINE
  5
   524
  8
0
  6
CONTINUOUS
 62
   130
 10
-26.5413265800476
 20
-1.92339333051222
 30
0.0
 11
-26.5413265800476
 21
-2.12339333051222
 31
0.0
  0
LINE
  5
   525
  8
0
  6
CONTINUOUS
 62
   130
 10
-27.8788265800476
 20
4.77660666948776
 30
0.0
 11
-27.6788265800476
 21
4.77660666948776
 31
0.0
  0
ARC
  5
   526
  8
0
  6
CONTINUOUS
 62
   130
 10
-28.7288265800476
 20
5.55160666948776
 30
0.0
 40
0.65
 50
359.999999844103
 51
539.999999844103
  0
ARC
  5
   527
  8
0
  6
CONTINUOUS
 62
   130
 10
-28.7288265800476
 20
5.55160666948776
 30
0.0
 40
0.45
 50
359.999999844103
 51
539.999999844103
  0
ARC
  5
   528
  8
0
  6
CONTINUOUS
 62
   130
 10
-28.7288265800476
 20
5.42660666948776
 30
0.0
 40
0.649999999999999
 50
539.999999844103
 51
719.999999844103
  0
ARC
  5
   529
  8
0
  6
CONTINUOUS
 62
   130
 10
-28.7288265800476
 20
5.42660666948776
 30
0.0
 40
0.449999999999999
 50
539.999999844103
 51
719.999999844103
  0
LINE
  5
   52A
  8
0
  6
CONTINUOUS
 62
   130
 10
-27.8788265800476
 20
6.20160666948777
 30
0.0
 11
-27.8788265800476
 21
4.77660666948777
 31
0.0
  0
LINE
  5
   52B
  8
0
  6
CONTINUOUS
 62
   130
 10
-27.6788265800476
 20
5.65160666948777
 30
0.0
 11
-27.6788265800476
 21
4.77660666948777
 31
0.0
  0
LINE
  5
   52C
  8
0
  6
CONTINUOUS
 62
   130
 10
-26.9788265800476
 20
5.65160666948777
 30
0.0
 11
-26.9788265800476
 21
4.77660666948777
 31
0.0
  0
LINE
  5
   52D
  8
0
  6
CONTINUOUS
 62
   130
 10
-26.7788265800476
 20
5.70160666948777
 30
0.0
 11
-26.7788265800476
 21
4.77660666948777
 31
0.0
  0
LINE
  5
   52E
  8
0
  6
CONTINUOUS
 62
   130
 10
-27.8788265800476
 20
6.20160666948776
 30
0.0
 11
-27.6788265800476
 21
6.20160666948776
 31
0.0
  0
ARC
  5
   52F
  8
0
  6
CONTINUOUS
 62
   130
 10
-27.3288265800476
 20
5.65160666948776
 30
0.0
 40
0.35
 50
359.999999844103
 51
539.999999844103
  0
LINE
  5
   530
  8
0
  6
CONTINUOUS
 62
   130
 10
-27.6788265800476
 20
6.20160666948777
 30
0.0
 11
-27.6788265800476
 21
6.00160666948778
 31
0.0
  0
ARC
  5
   531
  8
0
  6
CONTINUOUS
 62
   130
 10
-27.2788265800476
 20
5.70160666948775
 30
0.0
 40
0.5
 50
359.999999844103
 51
503.130102198259
  0
LINE
  5
   532
  8
0
  6
CONTINUOUS
 62
   130
 10
-26.9788265800476
 20
4.77660666948776
 30
0.0
 11
-26.7788265800476
 21
4.77660666948776
 31
0.0
  0
LINE
  5
   533
  8
0
  6
CONTINUOUS
 62
   130
 10
-27.6446641829985
 20
11.0155878853453
 30
0.0
 11
-27.7616800300217
 21
10.9949551436922
 31
0.0
  0
LINE
  5
   534
  8
0
  6
CONTINUOUS
 62
   130
 10
-27.7616728025771
 20
10.9949590714912
 30
0.0
 11
-27.8645742527347
 21
10.9355496999047
 31
0.0
  0
LINE
  5
   535
  8
0
  6
CONTINUOUS
 62
   130
 10
-27.8645784855863
 20
10.935545361934
 30
0.0
 11
-27.9409525480828
 21
10.844525006333
 31
0.0
  0
LINE
  5
   536
  8
0
  6
CONTINUOUS
 62
   130
 10
-27.940951122696
 20
10.8445255635636
 30
0.0
 11
-27.9815890904379
 21
10.7328724764425
 31
0.0
  0
LINE
  5
   537
  8
0
  6
CONTINUOUS
 62
   130
 10
-27.9815927234765
 20
10.7328726795751
 30
0.0
 11
-27.9815927234765
 21
10.6140539196569
 31
0.0
  0
LINE
  5
   538
  8
0
  6
CONTINUOUS
 62
   130
 10
-27.9815894215776
 20
10.614055130317
 30
0.0
 11
-27.9409514538357
 21
10.502402043196
 31
0.0
  0
LINE
  5
   539
  8
0
  6
CONTINUOUS
 62
   130
 10
-27.9409532337939
 20
10.5024015666193
 30
0.0
 11
-27.8645791712974
 21
10.4113812110183
 31
0.0
  0
LINE
  5
   53A
  8
0
  6
CONTINUOUS
 62
   130
 10
-27.8645725849978
 20
10.4113789108248
 30
0.0
 11
-27.7616711348402
 21
10.3519695392382
 31
0.0
  0
LINE
  5
   53B
  8
0
  6
CONTINUOUS
 62
   130
 10
-27.7616792166879
 20
10.3519710030455
 30
0.0
 11
-27.6446633696647
 21
10.3313382613924
 31
0.0
  0
LINE
  5
   53C
  8
0
  6
CONTINUOUS
 62
   130
 10
-27.6446634021875
 20
10.3313383606511
 30
0.0
 11
-27.5299516407129
 21
10.3313383606511
 31
0.0
  0
LINE
  5
   53D
  8
0
  6
CONTINUOUS
 62
   130
 10
-27.52994553729
 20
10.3313407938144
 30
0.0
 11
-27.486179523047
 21
10.317119605008
 31
0.0
  0
LINE
  5
   53E
  8
0
  6
CONTINUOUS
 62
   130
 10
-27.486180005669
 20
10.3171194903345
 30
0.0
 11
-27.4591299919738
 21
10.2798882881627
 31
0.0
  0
LINE
  5
   53F
  8
0
  6
CONTINUOUS
 62
   130
 10
-27.4591356006738
 20
10.279885962351
 30
0.0
 11
-27.4591356006738
 21
10.2338656929571
 31
0.0
  0
LINE
  5
   540
  8
0
  6
CONTINUOUS
 62
   130
 10
-27.4591319912549
 20
10.2338673336665
 30
0.0
 11
-27.4861820049501
 21
10.1966361314947
 31
0.0
  0
LINE
  5
   541
  8
0
  6
CONTINUOUS
 62
   130
 10
-27.4861807542988
 20
10.1966361325462
 30
0.0
 11
-27.5299467685417
 21
10.1824149437399
 31
0.0
  0
LINE
  5
   542
  8
0
  6
CONTINUOUS
 62
   130
 10
-27.9465394703027
 20
10.1824132946569
 30
0.0
 11
-27.5299516407129
 21
10.1824132946569
 31
0.0
  0
LINE
  5
   543
  8
0
  6
CONTINUOUS
 62
   130
 10
-27.9465394703027
 20
10.1824132946569
 30
0.0
 11
-27.9465394703027
 21
9.90871353421987
 31
0.0
  0
LINE
  5
   544
  8
0
  6
CONTINUOUS
 62
   130
 10
-27.9465394703027
 20
9.90871353421987
 30
0.0
 11
-27.5299516407129
 21
9.90871353421987
 31
0.0
  0
LINE
  5
   545
  8
0
  6
CONTINUOUS
 62
   130
 10
-27.4108732540957
 20
9.9297107149524
 30
0.0
 11
-27.5299490224643
 21
9.9087141464598
 31
0.0
  0
LINE
  5
   546
  8
0
  6
CONTINUOUS
 62
   130
 10
-27.3061570251746
 20
9.99016918540429
 30
0.0
 11
-27.4108742946303
 21
9.92971123116326
 31
0.0
  0
LINE
  5
   547
  8
0
  6
CONTINUOUS
 62
   130
 10
-27.2284282818403
 20
10.0827964282363
 30
0.0
 11
-27.3061527382339
 21
9.99016986282565
 31
0.0
  0
LINE
  5
   548
  8
0
  6
CONTINUOUS
 62
   130
 10
-27.1870769348623
 20
10.196416769046
 30
0.0
 11
-27.2284320695457
 21
10.0827933725776
 31
0.0
  0
LINE
  5
   549
  8
0
  6
CONTINUOUS
 62
   130
 10
-27.1870790210839
 20
10.3173336533147
 30
0.0
 11
-27.1870790210839
 21
10.1964180019933
 31
0.0
  0
LINE
  5
   54A
  8
0
  6
CONTINUOUS
 62
   130
 10
-27.228432164439
 20
10.4309577556013
 30
0.0
 11
-27.1870770297556
 21
10.3173343591329
 31
0.0
  0
LINE
  5
   54B
  8
0
  6
CONTINUOUS
 62
   130
 10
-27.3061553039762
 20
10.5235867871105
 30
0.0
 11
-27.2284308423705
 21
10.4309599699561
 31
0.0
  0
LINE
  5
   54C
  8
0
  6
CONTINUOUS
 62
   130
 10
-27.4108764656513
 20
10.5840420326353
 30
0.0
 11
-27.3061592008772
 21
10.5235843195314
 31
0.0
  0
LINE
  5
   54D
  8
0
  6
CONTINUOUS
 62
   130
 10
-27.529945498789
 20
10.605037657259
 30
0.0
 11
-27.410869732136
 21
10.5840408508212
 31
0.0
  0
LINE
  5
   54E
  8
0
  6
CONTINUOUS
 62
   130
 10
-27.6446634021875
 20
10.6050383595067
 30
0.0
 11
-27.5299516407129
 21
10.6050383595067
 31
0.0
  0
LINE
  5
   54F
  8
0
  6
CONTINUOUS
 62
   130
 10
-27.6848813541701
 20
10.6181075003767
 30
0.0
 11
-27.6446591867836
 21
10.6050395401609
 31
0.0
  0
LINE
  5
   550
  8
0
  6
CONTINUOUS
 62
   130
 10
-27.7097406677352
 20
10.652318217547
 30
0.0
 11
-27.6848841003391
 21
10.6181056270662
 31
0.0
  0
LINE
  5
   551
  8
0
  6
CONTINUOUS
 62
   130
 10
-27.709742137539
 20
10.6946076897222
 30
0.0
 11
-27.709742137539
 21
10.6523189095098
 31
0.0
  0
LINE
  5
   552
  8
0
  6
CONTINUOUS
 62
   130
 10
-27.6848804083707
 20
10.7288191259754
 30
0.0
 11
-27.7097369757668
 21
10.6946065354946
 31
0.0
  0
LINE
  5
   553
  8
0
  6
CONTINUOUS
 62
   130
 10
-27.6446576341369
 20
10.7418901092701
 30
0.0
 11
-27.6848798015235
 21
10.7288221490543
 31
0.0
  0
LINE
  5
   554
  8
0
  6
CONTINUOUS
 62
   130
 10
-27.6446634021875
 20
10.7418882397252
 30
0.0
 11
-27.2220407215234
 21
10.7418882397252
 31
0.0
  0
LINE
  5
   555
  8
0
  6
CONTINUOUS
 62
   130
 10
-27.2220407215234
 20
11.0155882385808
 30
0.0
 11
-27.2220407215234
 21
10.7418882397252
 31
0.0
  0
LINE
  5
   556
  8
0
  6
CONTINUOUS
 62
   130
 10
-27.6446634021875
 20
11.0155882385808
 30
0.0
 11
-27.2220407215234
 21
11.0155882385808
 31
0.0
  0
LINE
  5
   557
  8
0
  6
CONTINUOUS
 62
   130
 10
-27.1817918506738
 20
9.90871353421987
 30
0.0
 11
-26.8967424121972
 21
9.90871353421987
 31
0.0
  0
LINE
  5
   558
  8
0
  6
CONTINUOUS
 62
   130
 10
-26.8323397222536
 20
10.1300890741335
 30
0.0
 11
-26.896739439528
 21
9.90871432626789
 31
0.0
  0
LINE
  5
   559
  8
0
  6
CONTINUOUS
 62
   130
 10
-26.8323426929589
 20
10.1300882843572
 30
0.0
 11
-26.524984904873
 21
10.1300882843572
 31
0.0
  0
LINE
  5
   55A
  8
0
  6
CONTINUOUS
 62
   130
 10
-26.5249825476804
 20
10.1300888745496
 30
0.0
 11
-26.460582830406
 21
9.90871412668395
 31
0.0
  0
LINE
  5
   55B
  8
0
  6
CONTINUOUS
 62
   130
 10
-26.4605851856347
 20
9.90871353421987
 30
0.0
 11
-26.1755395618554
 21
9.90871353421987
 31
0.0
  0
LINE
  5
   55C
  8
0
  6
CONTINUOUS
 62
   130
 10
-26.4975392538262
 20
11.0155884077438
 30
0.0
 11
-26.1755367584663
 21
9.90871342297451
 31
0.0
  0
LINE
  5
   55D
  8
0
  6
CONTINUOUS
 62
   130
 10
-26.8597894397851
 20
11.0155882385808
 30
0.0
 11
-26.4975419727441
 21
11.0155882385808
 31
0.0
  0
LINE
  5
   55E
  8
0
  6
CONTINUOUS
 62
   130
 10
-26.8597879064617
 20
11.0155840220773
 30
0.0
 11
-27.1817904018215
 21
9.90870903730805
 31
0.0
  0
LINE
  5
   55F
  8
0
  6
CONTINUOUS
 62
   130
 10
-26.6786616079425
 20
10.6583594020418
 30
0.0
 11
-26.6046068522002
 21
10.4037883164
 31
0.0
  0
LINE
  5
   560
  8
0
  6
CONTINUOUS
 62
   130
 10
-26.7527223316308
 20
10.4037882832128
 30
0.0
 11
-26.6046090808984
 21
10.4037882832128
 31
0.0
  0
LINE
  5
   561
  8
0
  6
CONTINUOUS
 62
   130
 10
-26.678659337585
 20
10.6583596512776
 30
0.0
 11
-26.7527178647428
 21
10.4037887057159
 31
0.0
  0
LINE
  5
   562
  8
0
  6
CONTINUOUS
 62
   130
 10
-25.2418543687358
 20
10.8642803537959
 30
0.0
 11
-25.143961610954
 21
10.7408636872847
 31
0.0
  0
LINE
  5
   563
  8
0
  6
CONTINUOUS
 62
   130
 10
-25.3705454468722
 20
10.9551170981432
 30
0.0
 11
-25.2418528278572
 21
10.8642781959481
 31
0.0
  0
LINE
  5
   564
  8
0
  6
CONTINUOUS
 62
   130
 10
-25.5196218406
 20
11.0060167462002
 30
0.0
 11
-25.3705472874314
 21
10.9551150999958
 31
0.0
  0
LINE
  5
   565
  8
0
  6
CONTINUOUS
 62
   130
 10
-25.676996853576
 20
11.0128583841766
 30
0.0
 11
-25.5196215136829
 21
11.0060174396904
 31
0.0
  0
LINE
  5
   566
  8
0
  6
CONTINUOUS
 62
   130
 10
-25.6769996488214
 20
11.0128586714486
 30
0.0
 11
-25.8299308620783
 21
10.9750845874762
 31
0.0
  0
LINE
  5
   567
  8
0
  6
CONTINUOUS
 62
   130
 10
-25.8299284633225
 20
10.9750863562985
 30
0.0
 11
-25.9660177802594
 21
10.8957573435499
 31
0.0
  0
LINE
  5
   568
  8
0
  6
CONTINUOUS
 62
   130
 10
-25.9660199031356
 20
10.8957549366362
 30
0.0
 11
-26.0742504928112
 21
10.7812978072848
 31
0.0
  0
LINE
  5
   569
  8
0
  6
CONTINUOUS
 62
   130
 10
-26.0742478631546
 20
10.7813000550258
 30
0.0
 11
-26.1458459079494
 21
10.6409876240169
 31
0.0
  0
LINE
  5
   56A
  8
0
  6
CONTINUOUS
 62
   130
 10
-26.1458471546185
 20
10.6409853042019
 30
0.0
 11
-26.1750143299012
 21
10.4861846467413
 31
0.0
  0
LINE
  5
   56B
  8
0
  6
CONTINUOUS
 62
   130
 10
-26.1750140189795
 20
10.4861855907221
 30
0.0
 11
-26.1593890264561
 21
10.3294377749178
 31
0.0
  0
LINE
  5
   56C
  8
0
  6
CONTINUOUS
 62
   130
 10
-26.159390240537
 20
10.3294381428316
 30
0.0
 11
-26.1002357373057
 21
10.1834420566335
 31
0.0
  0
LINE
  5
   56D
  8
0
  6
CONTINUOUS
 62
   130
 10
-26.1002354457971
 20
10.1834433277703
 30
0.0
 11
-26.0122189330244
 21
10.0695948752748
 31
0.0
  0
LINE
  5
   56E
  8
0
  6
CONTINUOUS
 62
   130
 10
-26.012217423219
 20
10.0695922659227
 30
0.0
 11
-25.8978222824535
 21
9.98228504843945
 31
0.0
  0
LINE
  5
   56F
  8
0
  6
CONTINUOUS
 62
   130
 10
-25.8978246157408
 20
9.98228631263056
 30
0.0
 11
-25.7647870510518
 21
9.92742333762631
 31
0.0
  0
LINE
  5
   570
  8
0
  6
CONTINUOUS
 62
   130
 10
-25.7647856300532
 20
9.92742267232276
 30
0.0
 11
-25.6221006964664
 21
9.908713490363
 31
0.0
  0
LINE
  5
   571
  8
0
  6
CONTINUOUS
 62
   130
 10
-25.4794137063549
 20
9.92742320700432
 30
0.0
 11
-25.6220986399417
 21
9.90871402504455
 31
0.0
  0
LINE
  5
   572
  8
0
  6
CONTINUOUS
 62
   130
 10
-25.3463806797012
 20
9.98228572951649
 30
0.0
 11
-25.4794182443902
 21
9.92742275451224
 31
0.0
  0
LINE
  5
   573
  8
0
  6
CONTINUOUS
 62
   130
 10
-25.231981704622
 20
10.0695958290975
 30
0.0
 11
-25.3463768453876
 21
9.98228861161429
 31
0.0
  0
LINE
  5
   574
  8
0
  6
CONTINUOUS
 62
   130
 10
-25.1439623248059
 20
10.1834416832377
 30
0.0
 11
-25.2319826485729
 21
10.069593238378
 31
0.0
  0
LINE
  5
   575
  8
0
  6
CONTINUOUS
 62
   130
 10
-25.3804231687278
 20
10.3212770518467
 30
0.0
 11
-25.1439615552496
 21
10.1834425217789
 31
0.0
  0
LINE
  5
   576
  8
0
  6
CONTINUOUS
 62
   130
 10
-25.3804274276777
 20
10.3212743260169
 30
0.0
 11
-25.4428854701218
 21
10.2473602688918
 31
0.0
  0
LINE
  5
   577
  8
0
  6
CONTINUOUS
 62
   130
 10
-25.4428842949829
 20
10.2473622877474
 30
0.0
 11
-25.5267923923002
 21
10.199151657909
 31
0.0
  0
LINE
  5
   578
  8
0
  6
CONTINUOUS
 62
   130
 10
-25.5267900981505
 20
10.1991512925311
 30
0.0
 11
-25.6221003211613
 21
10.1824133549574
 31
0.0
  0
LINE
  5
   579
  8
0
  6
CONTINUOUS
 62
   130
 10
-25.7174152898809
 20
10.1991513996246
 30
0.0
 11
-25.6221050668701
 21
10.182413462051
 31
0.0
  0
LINE
  5
   57A
  8
0
  6
CONTINUOUS
 62
   130
 10
-25.8013215957856
 20
10.2473629461679
 30
0.0
 11
-25.7174134984682
 21
10.1991523163295
 31
0.0
  0
LINE
  5
   57B
  8
0
  6
CONTINUOUS
 62
   130
 10
-25.8637793190262
 20
10.3212774730611
 30
0.0
 11
-25.8013212765821
 21
10.247363415936
 31
0.0
  0
LINE
  5
   57C
  8
0
  6
CONTINUOUS
 62
   130
 10
-25.8992909734214
 20
10.4244856422672
 30
0.0
 11
-25.8637761419312
 21
10.3212768587526
 31
0.0
  0
LINE
  5
   57D
  8
0
  6
CONTINUOUS
 62
   130
 10
-25.8926026517162
 20
10.5334267515394
 30
0.0
 11
-25.8992898168044
 21
10.4244835163438
 31
0.0
  0
LINE
  5
   57E
  8
0
  6
CONTINUOUS
 62
   130
 10
-25.8447359849326
 20
10.6315208157771
 30
0.0
 11
-25.8926028085756
 21
10.5334289702086
 31
0.0
  0
LINE
  5
   57F
  8
0
  6
CONTINUOUS
 62
   130
 10
-25.7629754505905
 20
10.7038279968917
 30
0.0
 11
-25.8447396782051
 21
10.6315208761825
 31
0.0
  0
LINE
  5
   580
  8
0
  6
CONTINUOUS
 62
   130
 10
-25.6597680375905
 20
10.739341283091
 30
0.0
 11
-25.7629746721067
 21
10.70382740864
 31
0.0
  0
LINE
  5
   581
  8
0
  6
CONTINUOUS
 62
   130
 10
-25.6597698429209
 20
10.7393402618545
 30
0.0
 11
-25.5508258703379
 21
10.7326547648255
 31
0.0
  0
LINE
  5
   582
  8
0
  6
CONTINUOUS
 62
   130
 10
-25.5508228731451
 20
10.7326538409991
 30
0.0
 11
-25.4527317354521
 21
10.6847862975247
 31
0.0
  0
LINE
  5
   583
  8
0
  6
CONTINUOUS
 62
   130
 10
-25.4527304225769
 20
10.6847921254254
 30
0.0
 11
-25.3804228303888
 21
10.6030302859819
 31
0.0
  0
LINE
  5
   584
  8
0
  6
CONTINUOUS
 62
   130
 10
-25.1439597862499
 20
10.7408637547149
 30
0.0
 11
-25.3804213997281
 21
10.6030292246471
 31
0.0
  0
LINE
  5
   585
  8
0
  6
CONTINUOUS
 62
   130
 10
-25.0433412281152
 20
11.0155880001623
 30
0.0
 11
-25.0433412281152
 21
9.90871353421987
 31
0.0
  0
LINE
  5
   586
  8
0
  6
CONTINUOUS
 62
   130
 10
-25.0433412281152
 20
9.90871353421987
 30
0.0
 11
-24.3188424793359
 21
9.90871353421987
 31
0.0
  0
LINE
  5
   587
  8
0
  6
CONTINUOUS
 62
   130
 10
-24.3188424793359
 20
10.1824132946569
 30
0.0
 11
-24.3188424793359
 21
9.90871353421987
 31
0.0
  0
LINE
  5
   588
  8
0
  6
CONTINUOUS
 62
   130
 10
-24.7696405140039
 20
10.1824132946569
 30
0.0
 11
-24.3188424793359
 21
10.1824132946569
 31
0.0
  0
LINE
  5
   589
  8
0
  6
CONTINUOUS
 62
   130
 10
-24.7696405140039
 20
10.3253008869726
 30
0.0
 11
-24.7696405140039
 21
10.1824132946569
 31
0.0
  0
LINE
  5
   58A
  8
0
  6
CONTINUOUS
 62
   130
 10
-24.7696405140039
 20
10.3253008869726
 30
0.0
 11
-24.3792176929589
 21
10.3253008869726
 31
0.0
  0
LINE
  5
   58B
  8
0
  6
CONTINUOUS
 62
   130
 10
-24.3792176929589
 20
10.5990008858281
 30
0.0
 11
-24.3792176929589
 21
10.3253008869726
 31
0.0
  0
LINE
  5
   58C
  8
0
  6
CONTINUOUS
 62
   130
 10
-24.7696405140039
 20
10.5990008858281
 30
0.0
 11
-24.3792176929589
 21
10.5990008858281
 31
0.0
  0
LINE
  5
   58D
  8
0
  6
CONTINUOUS
 62
   130
 10
-24.7696405140039
 20
10.7418882248241
 30
0.0
 11
-24.7696405140039
 21
10.5990008858281
 31
0.0
  0
LINE
  5
   58E
  8
0
  6
CONTINUOUS
 62
   130
 10
-24.7696405140039
 20
10.7418882397252
 30
0.0
 11
-24.3188424793359
 21
10.7418882397252
 31
0.0
  0
LINE
  5
   58F
  8
0
  6
CONTINUOUS
 62
   130
 10
-24.3188424793359
 20
11.0155882385808
 30
0.0
 11
-24.3188424793359
 21
10.7418882397252
 31
0.0
  0
LINE
  5
   590
  8
0
  6
CONTINUOUS
 62
   130
 10
-25.0433412281152
 20
11.0155882385808
 30
0.0
 11
-24.3188424793359
 21
11.0155882385808
 31
0.0
  0
LINE
  5
   591
  8
0
  6
CONTINUOUS
 62
   130
 10
-52.497691639972
 20
11.1179762795416
 30
0.0
 11
-52.724620296331
 21
10.4695999628307
 31
0.0
  0
LINE
  5
   592
  8
0
  6
CONTINUOUS
 62
   130
 10
-52.7246241569519
 20
10.4696018770337
 30
0.0
 11
-52.3148188591003
 21
10.4696018770337
 31
0.0
  0
LINE
  5
   593
  8
0
  6
CONTINUOUS
 62
   130
 10
-52.4976954460144
 20
11.1179783418775
 30
0.0
 11
-52.3148188591003
 21
11.1179783418775
 31
0.0
  0
LINE
  5
   594
  8
0
  6
CONTINUOUS
 62
   130
 10
-52.9631953239441
 20
9.78798008710146
 30
0.0
 11
-52.6306948661804
 21
9.78798008710146
 31
0.0
  0
LINE
  5
   595
  8
0
  6
CONTINUOUS
 62
   130
 10
-52.5375905611273
 20
10.0539791424113
 30
0.0
 11
-52.6306920589573
 21
9.78797933594167
 31
0.0
  0
LINE
  5
   596
  8
0
  6
CONTINUOUS
 62
   130
 10
-52.5375933647156
 20
10.0539798811078
 30
0.0
 11
-52.3148188591003
 21
10.0539798811078
 31
0.0
  0
LINE
  5
   597
  8
0
  6
CONTINUOUS
 62
   130
 10
-52.7362627983093
 20
10.4363529756665
 30
0.0
 11
-52.3148188591003
 21
10.4363529756665
 31
0.0
  0
LINE
  5
   598
  8
0
  6
CONTINUOUS
 62
   130
 10
-52.7362601449584
 20
10.4363516268699
 30
0.0
 11
-52.9631926027787
 21
9.78797887312809
 31
0.0
  0
LINE
  5
   599
  8
0
  6
CONTINUOUS
 62
   130
 10
-51.860118910465
 20
10.436351537509
 30
0.0
 11
-51.6331864526447
 21
9.7879787837672
 31
0.0
  0
LINE
  5
   59A
  8
0
  6
CONTINUOUS
 62
   130
 10
-52.2815699577332
 20
10.4363529756665
 30
0.0
 11
-51.8601260185242
 21
10.4363529756665
 31
0.0
  0
LINE
  5
   59B
  8
0
  6
CONTINUOUS
 62
   130
 10
-52.2815699577332
 20
10.4363529756665
 30
0.0
 11
-52.2815699577332
 21
10.0539798811078
 31
0.0
  0
LINE
  5
   59C
  8
0
  6
CONTINUOUS
 62
   130
 10
-52.2815699577332
 20
10.0539798811078
 30
0.0
 11
-52.0587954521179
 21
10.0539798811078
 31
0.0
  0
LINE
  5
   59D
  8
0
  6
CONTINUOUS
 62
   130
 10
-52.0587896606301
 20
10.0539803010418
 30
0.0
 11
-51.9656881628001
 21
9.78798049457218
 31
0.0
  0
LINE
  5
   59E
  8
0
  6
CONTINUOUS
 62
   130
 10
-51.9656939506531
 20
9.78798008710146
 30
0.0
 11
-51.6331934928894
 21
9.78798008710146
 31
0.0
  0
LINE
  5
   59F
  8
0
  6
CONTINUOUS
 62
   130
 10
-52.2815699577332
 20
11.1179783418775
 30
0.0
 11
-52.0986933708191
 21
11.1179783418775
 31
0.0
  0
LINE
  5
   5A0
  8
0
  6
CONTINUOUS
 62
   130
 10
-52.2815699577332
 20
11.1179783418775
 30
0.0
 11
-52.2815699577332
 21
10.4696018770337
 31
0.0
  0
LINE
  5
   5A1
  8
0
  6
CONTINUOUS
 62
   130
 10
-52.2815699577332
 20
10.4696018770337
 30
0.0
 11
-51.8717608451843
 21
10.4696018770337
 31
0.0
  0
LINE
  5
   5A2
  8
0
  6
CONTINUOUS
 62
   130
 10
-52.0986895523445
 20
11.1179770264405
 30
0.0
 11
-51.8717570775788
 21
10.4696006153041
 31
0.0
  0
LINE
  5
   5A3
  8
0
  6
CONTINUOUS
 62
   130
 10
-51.5500674247742
 20
10.4696018770337
 30
0.0
 11
-51.1676936149597
 21
10.4696018770337
 31
0.0
  0
LINE
  5
   5A4
  8
0
  6
CONTINUOUS
 62
   130
 10
-51.1676936149597
 20
11.1179783418775
 30
0.0
 11
-51.1676936149597
 21
10.4696018770337
 31
0.0
  0
LINE
  5
   5A5
  8
0
  6
CONTINUOUS
 62
   130
 10
-51.5500674247742
 20
11.1179783418775
 30
0.0
 11
-51.1676936149597
 21
11.1179783418775
 31
0.0
  0
LINE
  5
   5A6
  8
0
  6
CONTINUOUS
 62
   130
 10
-51.5500674247742
 20
9.78798008710146
 30
0.0
 11
-51.1676936149597
 21
9.78798008710146
 31
0.0
  0
LINE
  5
   5A7
  8
0
  6
CONTINUOUS
 62
   130
 10
-51.1676936149597
 20
10.4363529756665
 30
0.0
 11
-51.1676936149597
 21
9.78798008710146
 31
0.0
  0
LINE
  5
   5A8
  8
0
  6
CONTINUOUS
 62
   130
 10
-51.5500674247742
 20
10.4363529756665
 30
0.0
 11
-51.1676936149597
 21
10.4363529756665
 31
0.0
  0
LINE
  5
   5A9
  8
0
  6
CONTINUOUS
 62
   130
 10
-50.5193209648132
 20
11.1179783418775
 30
0.0
 11
-50.5193209648132
 21
10.4696018770337
 31
0.0
  0
LINE
  5
   5AA
  8
0
  6
CONTINUOUS
 62
   130
 10
-50.5193209648132
 20
10.4696018770337
 30
0.0
 11
-50.1369433403015
 21
10.4696018770337
 31
0.0
  0
LINE
  5
   5AB
  8
0
  6
CONTINUOUS
 62
   130
 10
-50.1369433403015
 20
11.1179783418775
 30
0.0
 11
-50.1369433403015
 21
10.4696018770337
 31
0.0
  0
LINE
  5
   5AC
  8
0
  6
CONTINUOUS
 62
   130
 10
-50.5193209648132
 20
11.1179783418775
 30
0.0
 11
-50.1369433403015
 21
11.1179783418775
 31
0.0
  0
LINE
  5
   5AD
  8
0
  6
CONTINUOUS
 62
   130
 10
-50.5193209648132
 20
9.78798008710146
 30
0.0
 11
-50.1369433403015
 21
9.78798008710146
 31
0.0
  0
LINE
  5
   5AE
  8
0
  6
CONTINUOUS
 62
   130
 10
-50.1369433403015
 20
10.4363529756665
 30
0.0
 11
-50.1369433403015
 21
9.78798008710146
 31
0.0
  0
LINE
  5
   5AF
  8
0
  6
CONTINUOUS
 62
   130
 10
-50.5193209648132
 20
10.4363529756665
 30
0.0
 11
-50.1369433403015
 21
10.4363529756665
 31
0.0
  0
LINE
  5
   5B0
  8
0
  6
CONTINUOUS
 62
   130
 10
-50.5193209648132
 20
10.4363529756665
 30
0.0
 11
-50.5193209648132
 21
9.78798008710146
 31
0.0
  0
LINE
  5
   5B1
  8
0
  6
CONTINUOUS
 62
   130
 10
-50.1036944389343
 20
11.1179783418775
 30
0.0
 11
-49.9968256950378
 21
11.1179783418775
 31
0.0
  0
LINE
  5
   5B2
  8
0
  6
CONTINUOUS
 62
   130
 10
-50.1036944389343
 20
11.1179783418775
 30
0.0
 11
-50.1036944389343
 21
10.4696018770337
 31
0.0
  0
LINE
  5
   5B3
  8
0
  6
CONTINUOUS
 62
   130
 10
-50.1036944389343
 20
10.4696018770337
 30
0.0
 11
-49.7166056632996
 21
10.4696018770337
 31
0.0
  0
LINE
  5
   5B4
  8
0
  6
CONTINUOUS
 62
   130
 10
-49.7737132146057
 20
10.5126709879907
 30
0.0
 11
-49.7166071887283
 21
10.4696030493928
 31
0.0
  0
LINE
  5
   5B5
  8
0
  6
CONTINUOUS
 62
   130
 10
-49.8376944565384
 20
10.5446332053306
 30
0.0
 11
-49.7737105299425
 21
10.5126698540078
 31
0.0
  0
LINE
  5
   5B6
  8
0
  6
CONTINUOUS
 62
   130
 10
-49.761533252722
 20
10.609298024475
 30
0.0
 11
-49.8376936765088
 21
10.5446312856974
 31
0.0
  0
LINE
  5
   5B7
  8
0
  6
CONTINUOUS
 62
   130
 10
-49.710009684159
 20
10.6948991021423
 30
0.0
 11
-49.7615309797108
 21
10.6092972983586
 31
0.0
  0
LINE
  5
   5B8
  8
0
  6
CONTINUOUS
 62
   130
 10
-49.6885226748481
 20
10.7924679091985
 30
0.0
 11
-49.7100108619788
 21
10.6948994088875
 31
0.0
  0
LINE
  5
   5B9
  8
0
  6
CONTINUOUS
 62
   130
 10
-49.6993152383773
 20
10.8917962737055
 30
0.0
 11
-49.6885234630105
 21
10.7924691653436
 31
0.0
  0
LINE
  5
   5BA
  8
0
  6
CONTINUOUS
 62
   130
 10
-49.741260564404
 20
10.9824738318756
 30
0.0
 11
-49.6993179614119
 21
10.8917984668708
 31
0.0
  0
LINE
  5
   5BB
  8
0
  6
CONTINUOUS
 62
   130
 10
-49.8099647432309
 20
11.0550149307594
 30
0.0
 11
-49.7412620389563
 21
10.9824746430044
 31
0.0
  0
LINE
  5
   5BC
  8
0
  6
CONTINUOUS
 62
   130
 10
-49.8982292951734
 20
11.1018071919063
 30
0.0
 11
-49.8099610113931
 21
11.0550084820167
 31
0.0
  0
LINE
  5
   5BD
  8
0
  6
CONTINUOUS
 62
   130
 10
-50.1036944389343
 20
10.4363529756665
 30
0.0
 11
-49.6841158866882
 21
10.4363529756665
 31
0.0
  0
LINE
  5
   5BE
  8
0
  6
CONTINUOUS
 62
   130
 10
-50.1036944389343
 20
10.4363529756665
 30
0.0
 11
-50.1036944389343
 21
9.78798008710146
 31
0.0
  0
LINE
  5
   5BF
  8
0
  6
CONTINUOUS
 62
   130
 10
-50.1036944389343
 20
9.78798008710146
 30
0.0
 11
-49.9800372123718
 21
9.78798008710146
 31
0.0
  0
LINE
  5
   5C0
  8
0
  6
CONTINUOUS
 62
   130
 10
-49.8696535107534
 20
9.80385302679212
 30
0.0
 11
-49.9800356027426
 21
9.78797935757225
 31
0.0
  0
LINE
  5
   5C1
  8
0
  6
CONTINUOUS
 62
   130
 10
-49.7682174971955
 20
9.85018778064907
 30
0.0
 11
-49.8696541184972
 21
9.80385327481619
 31
0.0
  0
LINE
  5
   5C2
  8
0
  6
CONTINUOUS
 62
   130
 10
-49.6839517720672
 20
9.92322771736132
 30
0.0
 11
-49.7682184424618
 21
9.85018746802822
 31
0.0
  0
LINE
  5
   5C3
  8
0
  6
CONTINUOUS
 62
   130
 10
-49.6236788947325
 20
10.0170543123623
 30
0.0
 11
-49.6839511112426
 21
9.92322801953657
 31
0.0
  0
LINE
  5
   5C4
  8
0
  6
CONTINUOUS
 62
   130
 10
-49.5922873441219
 20
10.1240607730558
 30
0.0
 11
-49.6236746723643
 21
10.0170530364315
 31
0.0
  0
LINE
  5
   5C5
  8
0
  6
CONTINUOUS
 62
   130
 10
-49.5923249696354
 20
10.2355796779593
 30
0.0
 11
-49.5922906373616
 21
10.1240629585784
 31
0.0
  0
LINE
  5
   5C6
  8
0
  6
CONTINUOUS
 62
   130
 10
-49.6237802327082
 20
10.3425683947295
 30
0.0
 11
-49.5923242414047
 21
10.235580436115
 31
0.0
  0
LINE
  5
   5C7
  8
0
  6
CONTINUOUS
 62
   130
 10
-49.6841149688766
 20
10.4363515759555
 30
0.0
 11
-49.6237817175704
 21
10.3425658146509
 31
0.0
  0
LINE
  5
   5C8
  8
0
  6
CONTINUOUS
 62
   130
 10
-51.1344447135925
 20
11.1179783418775
 30
0.0
 11
-51.0275721549988
 21
11.1179783418775
 31
0.0
  0
LINE
  5
   5C9
  8
0
  6
CONTINUOUS
 62
   130
 10
-51.1344447135925
 20
11.1179783418775
 30
0.0
 11
-51.1344447135925
 21
10.4696018770337
 31
0.0
  0
LINE
  5
   5CA
  8
0
  6
CONTINUOUS
 62
   130
 10
-51.1344447135925
 20
10.4696018770337
 30
0.0
 11
-50.7473559379578
 21
10.4696018770337
 31
0.0
  0
LINE
  5
   5CB
  8
0
  6
CONTINUOUS
 62
   130
 10
-50.8044610092523
 20
10.5126690471135
 30
0.0
 11
-50.7473549833749
 21
10.4696011085156
 31
0.0
  0
LINE
  5
   5CC
  8
0
  6
CONTINUOUS
 62
   130
 10
-50.8684454703759
 20
10.5446332797178
 30
0.0
 11
-50.8044615437799
 21
10.512669928395
 31
0.0
  0
LINE
  5
   5CD
  8
0
  6
CONTINUOUS
 62
   130
 10
-50.7922840923161
 20
10.6093000187712
 30
0.0
 11
-50.8684445161029
 21
10.5446332799936
 31
0.0
  0
LINE
  5
   5CE
  8
0
  6
CONTINUOUS
 62
   130
 10
-50.740761505226
 20
10.6949002410449
 30
0.0
 11
-50.7922828007778
 21
10.6092984372613
 31
0.0
  0
LINE
  5
   5CF
  8
0
  6
CONTINUOUS
 62
   130
 10
-50.7192697615777
 20
10.7924683286038
 30
0.0
 11
-50.7407617641807
 21
10.6948998225987
 31
0.0
  0
LINE
  5
   5D0
  8
0
  6
CONTINUOUS
 62
   130
 10
-50.7300612598073
 20
10.8917979236908
 30
0.0
 11
-50.7192694844405
 21
10.7924708153289
 31
0.0
  0
LINE
  5
   5D1
  8
0
  6
CONTINUOUS
 62
   130
 10
-50.7720093221921
 20
10.9824707991902
 30
0.0
 11
-50.7300629080807
 21
10.8917954385027
 31
0.0
  0
LINE
  5
   5D2
  8
0
  6
CONTINUOUS
 62
   130
 10
-50.8407134734178
 20
11.0550166694917
 30
0.0
 11
-50.7720107691432
 21
10.9824763817368
 31
0.0
  0
LINE
  5
   5D3
  8
0
  6
CONTINUOUS
 62
   130
 10
-50.9289820614597
 20
11.1018083985779
 30
0.0
 11
-50.8407137776794
 21
11.0550096886883
 31
0.0
  0
LINE
  5
   5D4
  8
0
  6
CONTINUOUS
 62
   130
 10
-51.027572467601
 20
11.1179785922117
 30
0.0
 11
-50.928981595915
 21
11.1018119057127
 31
0.0
  0
LINE
  5
   5D5
  8
0
  6
CONTINUOUS
 62
   130
 10
-51.1344447135925
 20
10.4363529756665
 30
0.0
 11
-50.7148661613464
 21
10.4363529756665
 31
0.0
  0
LINE
  5
   5D6
  8
0
  6
CONTINUOUS
 62
   130
 10
-51.1344447135925
 20
10.4363529756665
 30
0.0
 11
-51.1344447135925
 21
9.78798008710146
 31
0.0
  0
LINE
  5
   5D7
  8
0
  6
CONTINUOUS
 62
   130
 10
-51.1344447135925
 20
9.78798008710146
 30
0.0
 11
-51.01078748703
 21
9.78798008710146
 31
0.0
  0
LINE
  5
   5D8
  8
0
  6
CONTINUOUS
 62
   130
 10
-50.9004050780121
 20
9.80385057374819
 30
0.0
 11
-51.0107871700013
 21
9.78797690452832
 31
0.0
  0
LINE
  5
   5D9
  8
0
  6
CONTINUOUS
 62
   130
 10
-50.7989676646274
 20
9.85018712697618
 30
0.0
 11
-50.9004042859291
 21
9.80385262114329
 31
0.0
  0
LINE
  5
   5DA
  8
0
  6
CONTINUOUS
 62
   130
 10
-50.7147017588578
 20
9.9232272301765
 30
0.0
 11
-50.7989684292524
 21
9.85018698084341
 31
0.0
  0
LINE
  5
   5DB
  8
0
  6
CONTINUOUS
 62
   130
 10
-50.6544296861999
 20
10.0170544405506
 30
0.0
 11
-50.71470190271
 21
9.9232281477249
 31
0.0
  0
LINE
  5
   5DC
  8
0
  6
CONTINUOUS
 62
   130
 10
-50.6230359252991
 20
10.1240621878127
 30
0.0
 11
-50.654427071455
 21
10.0170544396479
 31
0.0
  0
LINE
  5
   5DD
  8
0
  6
CONTINUOUS
 62
   130
 10
-50.6230764169647
 20
10.2355797938321
 30
0.0
 11
-50.6230382700106
 21
10.1240630732115
 31
0.0
  0
LINE
  5
   5DE
  8
0
  6
CONTINUOUS
 62
   130
 10
-50.6545295759041
 20
10.3425683437027
 30
0.0
 11
-50.6230735846006
 21
10.2355803850882
 31
0.0
  0
LINE
  5
   5DF
  8
0
  6
CONTINUOUS
 62
   130
 10
-50.7148642448801
 20
10.4363518309706
 30
0.0
 11
-50.6545309935739
 21
10.3425660696661
 31
0.0
  0
LINE
  5
   5E0
  8
0
  6
CONTINUOUS
 62
   130
 10
-51.5500674247742
 20
11.1179783418775
 30
0.0
 11
-51.5500674247742
 21
9.78798008710146
 31
0.0
  0
LINE
  5
   5E1
  8
0
  6
CONTINUOUS
 62
   130
 10
-54.34445672989
 20
8.93603324889884
 30
0.0
 11
-40.3444780254369
 21
8.93603324889884
 31
0.0
  0
LINE
  5
   5E2
  8
0
  6
CONTINUOUS
 62
   130
 10
-40.0944780635839
 20
9.93603324889885
 30
0.0
 11
-40.0944780063634
 21
8.43603324889885
 31
0.0
  0
LINE
  5
   5E3
  8
0
  6
CONTINUOUS
 62
   130
 10
-29.5944629383091
 20
9.93603324889885
 30
0.0
 11
-29.5944629955296
 21
8.43603324889885
 31
0.0
  0
LINE
  5
   5E4
  8
0
  6
CONTINUOUS
 62
   130
 10
-40.0944780635839
 20
9.93603324889884
 30
0.0
 11
-29.5944629383091
 21
9.93603324889884
 31
0.0
  0
LINE
  5
   5E5
  8
0
  6
CONTINUOUS
 62
   130
 10
-29.3444629764561
 20
8.93603324889884
 30
0.0
 11
-15.3444842720029
 21
8.93603324889884
 31
0.0
  0
LINE
  5
   5E6
  8
0
  6
CONTINUOUS
 62
   130
 10
-40.3444780731207
 20
10.1860332488988
 30
0.0
 11
-29.3444629287723
 21
10.1860332488988
 31
0.0
  0
LINE
  5
   5E7
  8
0
  6
CONTINUOUS
 62
   130
 10
-29.3444629287723
 20
10.1860332488988
 30
0.0
 11
-29.3444629955296
 21
8.43603324889885
 31
0.0
  0
LINE
  5
   5E8
  8
0
  6
CONTINUOUS
 62
   130
 10
-40.3444780731207
 20
10.1860332488988
 30
0.0
 11
-40.3444780063634
 21
8.43603324889885
 31
0.0
  0
LINE
  5
   5E9
  8
0
  6
CONTINUOUS
 62
   130
 10
-29.5944634897592
 20
-4.51989214841571
 30
0.0
 11
-29.5944635469796
 21
-6.01989214841571
 31
0.0
  0
LINE
  5
   5EA
  8
0
  6
CONTINUOUS
 62
   130
 10
-40.0944775121338
 20
-4.51989214841571
 30
0.0
 11
-40.0944774549133
 21
-6.01989214841571
 31
0.0
  0
LINE
  5
   5EB
  8
0
  6
CONTINUOUS
 62
   130
 10
-40.0944775121338
 20
-4.51989214841571
 30
0.0
 11
-38.5944775121338
 21
-4.51989214841571
 31
0.0
  0
LINE
  5
   5EC
  8
0
  6
CONTINUOUS
 62
   130
 10
-31.0944634897591
 20
-4.51989214841571
 30
0.0
 11
-29.5944634897591
 21
-4.51989214841571
 31
0.0
  0
LINE
  5
   5ED
  8
0
  6
CONTINUOUS
 62
   130
 10
-40.0944774549133
 20
-6.01989214841571
 30
0.0
 11
-38.0944774549133
 21
-6.01989214841571
 31
0.0
  0
LINE
  5
   5EE
  8
0
  6
CONTINUOUS
 62
   130
 10
-31.5944635469796
 20
-6.01989214841571
 30
0.0
 11
-29.5944635469796
 21
-6.01989214841571
 31
0.0
  0
LINE
  5
   5EF
  8
0
  6
CONTINUOUS
 62
   130
 10
-42.6444693565372
 20
-7.18897438049225
 30
0.0
 11
-42.6444693565372
 21
-9.43897438049225
 31
0.0
  0
LINE
  5
   5F0
  8
0
  6
CONTINUOUS
 62
   130
 10
-47.6444693565372
 20
-7.18897438049225
 30
0.0
 11
-47.6444693565372
 21
-9.43897438049225
 31
0.0
  0
LINE
  5
   5F1
  8
0
  6
CONTINUOUS
 62
   130
 10
-47.6444693565372
 20
-7.18897438049225
 30
0.0
 11
-42.6444693565372
 21
-7.18897438049225
 31
0.0
  0
LINE
  5
   5F2
  8
0
  6
CONTINUOUS
 62
   130
 10
-47.6444693565372
 20
-9.43897438049225
 30
0.0
 11
-42.6444693565372
 21
-9.43897438049225
 31
0.0
  0
LINE
  5
   5F3
  8
0
  6
CONTINUOUS
 62
   130
 10
-53.8444610023477
 20
37.4360179901138
 30
0.0
 11
-15.8444799995452
 21
37.4360179901138
 31
0.0
  0
LINE
  5
   5F4
  8
0
  6
CONTINUOUS
 62
   130
 10
-53.8444516944895
 20
-24.5639743804923
 30
0.0
 11
-15.8444893074035
 21
-24.5639743804923
 31
0.0
  0
ARC
  5
   5F5
  8
0
  6
CONTINUOUS
 62
   130
 10
-15.8444799995452
 20
36.9360179901138
 30
0.0
 40
0.5
 50
359.999991101463
 51
449.999999844103
  0
ARC
  5
   5F6
  8
0
  6
CONTINUOUS
 62
   130
 10
-53.8444610023477
 20
36.9360179901138
 30
0.0
 40
0.5
 50
449.999999844103
 51
540.000008586744
  0
ARC
  5
   5F7
  8
0
  6
CONTINUOUS
 62
   130
 10
-53.8444516944895
 20
-24.0639743804923
 30
0.0
 40
0.5
 50
540.000008586744
 51
629.999999844103
  0
ARC
  5
   5F8
  8
0
  6
CONTINUOUS
 62
   130
 10
-15.8444893074035
 20
-24.0639743804923
 30
0.0
 40
0.5
 50
269.999999844103
 51
359.999991101463
  0
LINE
  5
   5F9
  8
0
  6
CONTINUOUS
 62
   130
 10
-54.3444626045209
 20
47.4360218048096
 30
0.0
 11
-15.3444783973721
 21
47.4360218048096
 31
0.0
  0
LINE
  5
   5FA
  8
0
  6
CONTINUOUS
 62
   130
 10
-54.3444500923164
 20
-34.5639781951904
 30
0.0
 11
-15.3444909095765
 21
-34.5639781951904
 31
0.0
  0
CIRCLE
  5
   5FB
  8
0
  6
CONTINUOUS
 62
   130
 10
-47.3444556030362
 20
42.4360218048096
 30
0.0
 40
1.25
  0
CIRCLE
  5
   5FC
  8
0
  6
CONTINUOUS
 62
   130
 10
-34.8444556030362
 20
42.4360218048096
 30
0.0
 40
1.25
  0
CIRCLE
  5
   5FD
  8
0
  6
CONTINUOUS
 62
   130
 10
-22.3444556030362
 20
42.4360218048096
 30
0.0
 40
1.25
  0
CIRCLE
  5
   5FE
  8
0
  6
CONTINUOUS
 62
   130
 10
-47.3444556030362
 20
-29.5639781951904
 30
0.0
 40
1.25
  0
CIRCLE
  5
   5FF
  8
0
  6
CONTINUOUS
 62
   130
 10
-34.8444556030362
 20
-29.5639781951904
 30
0.0
 40
1.25
  0
CIRCLE
  5
   600
  8
0
  6
CONTINUOUS
 62
   130
 10
-22.3444556030362
 20
-29.5639781951904
 30
0.0
 40
1.25
  0
LINE
  5
   601
  8
0
  6
CONTINUOUS
 62
   130
 10
-34.5194556030363
 20
37.4360179901138
 30
0.0
 11
-34.5194556030363
 21
29.1860121073551
 31
0.0
  0
LINE
  5
   602
  8
0
  6
CONTINUOUS
 62
   130
 10
-34.2694556030363
 20
37.4360179901138
 30
0.0
 11
-34.2694556030363
 21
29.1860121073551
 31
0.0
  0
LINE
  5
   603
  8
0
  6
CONTINUOUS
 62
   130
 10
-33.6194556030362
 20
37.4360179901138
 30
0.0
 11
-33.6194556030362
 21
29.1860121073551
 31
0.0
  0
LINE
  5
   604
  8
0
  6
CONTINUOUS
 62
   130
 10
-33.6194556030362
 20
37.4360179901138
 30
0.0
 11
-33.6194556030362
 21
29.1860121073551
 31
0.0
  0
LINE
  5
   605
  8
0
  6
CONTINUOUS
 62
   130
 10
-33.3694556030362
 20
37.4360179901138
 30
0.0
 11
-33.3694556030362
 21
29.1860121073551
 31
0.0
  0
LINE
  5
   606
  8
0
  6
CONTINUOUS
 62
   130
 10
-32.7194556030363
 20
37.4360179901138
 30
0.0
 11
-32.7194556030363
 21
29.1860121073551
 31
0.0
  0
LINE
  5
   607
  8
0
  6
CONTINUOUS
 62
   130
 10
-32.4694556030363
 20
37.4360179901138
 30
0.0
 11
-32.4694556030363
 21
29.1860121073551
 31
0.0
  0
LINE
  5
   608
  8
0
  6
CONTINUOUS
 62
   130
 10
-31.8194556030363
 20
37.4360179901138
 30
0.0
 11
-31.8194556030363
 21
29.1860121073551
 31
0.0
  0
LINE
  5
   609
  8
0
  6
CONTINUOUS
 62
   130
 10
-31.5694556030363
 20
37.4360179901138
 30
0.0
 11
-31.5694556030363
 21
29.1860121073551
 31
0.0
  0
LINE
  5
   60A
  8
0
  6
CONTINUOUS
 62
   130
 10
-30.9194556030363
 20
37.4360179901138
 30
0.0
 11
-30.9194556030363
 21
29.1860121073551
 31
0.0
  0
LINE
  5
   60B
  8
0
  6
CONTINUOUS
 62
   130
 10
-30.6694556030363
 20
37.4360179901138
 30
0.0
 11
-30.6694556030363
 21
29.1860121073551
 31
0.0
  0
LINE
  5
   60C
  8
0
  6
CONTINUOUS
 62
   130
 10
-30.0194556030363
 20
37.4360179901138
 30
0.0
 11
-30.0194556030363
 21
29.1860121073551
 31
0.0
  0
LINE
  5
   60D
  8
0
  6
CONTINUOUS
 62
   130
 10
-29.7694556030363
 20
37.4360179901138
 30
0.0
 11
-29.7694556030363
 21
29.1860121073551
 31
0.0
  0
LINE
  5
   60E
  8
0
  6
CONTINUOUS
 62
   130
 10
-29.1194556030363
 20
37.4360179901138
 30
0.0
 11
-29.1194556030363
 21
29.1860121073551
 31
0.0
  0
LINE
  5
   60F
  8
0
  6
CONTINUOUS
 62
   130
 10
-28.8694556030363
 20
37.4360179901138
 30
0.0
 11
-28.8694556030363
 21
29.1860121073551
 31
0.0
  0
LINE
  5
   610
  8
0
  6
CONTINUOUS
 62
   130
 10
-28.2194556030363
 20
37.4360179901138
 30
0.0
 11
-28.2194556030363
 21
29.1860121073551
 31
0.0
  0
LINE
  5
   611
  8
0
  6
CONTINUOUS
 62
   130
 10
-27.9694556030363
 20
37.4360179901138
 30
0.0
 11
-27.9694556030363
 21
29.1860121073551
 31
0.0
  0
LINE
  5
   612
  8
0
  6
CONTINUOUS
 62
   130
 10
-27.3194556030363
 20
37.4360179901138
 30
0.0
 11
-27.3194556030363
 21
29.1860121073551
 31
0.0
  0
LINE
  5
   613
  8
0
  6
CONTINUOUS
 62
   130
 10
-27.0694556030363
 20
37.4360179901138
 30
0.0
 11
-27.0694556030363
 21
29.1860121073551
 31
0.0
  0
LINE
  5
   614
  8
0
  6
CONTINUOUS
 62
   130
 10
-26.4194556030363
 20
37.4360179901138
 30
0.0
 11
-26.4194556030363
 21
29.1860121073551
 31
0.0
  0
LINE
  5
   615
  8
0
  6
CONTINUOUS
 62
   130
 10
-26.1694556030363
 20
37.4360179901138
 30
0.0
 11
-26.1694556030363
 21
29.1860121073551
 31
0.0
  0
LINE
  5
   616
  8
0
  6
CONTINUOUS
 62
   130
 10
-25.5194556030363
 20
37.4360179901138
 30
0.0
 11
-25.5194556030363
 21
29.1860121073551
 31
0.0
  0
LINE
  5
   617
  8
0
  6
CONTINUOUS
 62
   130
 10
-25.2694556030363
 20
37.4360179901138
 30
0.0
 11
-25.2694556030363
 21
29.1860121073551
 31
0.0
  0
LINE
  5
   618
  8
0
  6
CONTINUOUS
 62
   130
 10
-24.6194556030363
 20
37.4360179901138
 30
0.0
 11
-24.6194556030363
 21
29.1860121073551
 31
0.0
  0
LINE
  5
   619
  8
0
  6
CONTINUOUS
 62
   130
 10
-24.3694556030363
 20
37.4360179901138
 30
0.0
 11
-24.3694556030363
 21
29.1860121073551
 31
0.0
  0
LINE
  5
   61A
  8
0
  6
CONTINUOUS
 62
   130
 10
-23.7194556030363
 20
37.4360179901138
 30
0.0
 11
-23.7194556030363
 21
29.1860121073551
 31
0.0
  0
LINE
  5
   61B
  8
0
  6
CONTINUOUS
 62
   130
 10
-23.4694556030363
 20
37.4360179901138
 30
0.0
 11
-23.4694556030363
 21
29.1860121073551
 31
0.0
  0
LINE
  5
   61C
  8
0
  6
CONTINUOUS
 62
   130
 10
-22.8194556030363
 20
37.4360179901138
 30
0.0
 11
-22.8194556030363
 21
29.1860121073551
 31
0.0
  0
LINE
  5
   61D
  8
0
  6
CONTINUOUS
 62
   130
 10
-22.5694556030363
 20
37.4360179901138
 30
0.0
 11
-22.5694556030363
 21
29.1860121073551
 31
0.0
  0
LINE
  5
   61E
  8
0
  6
CONTINUOUS
 62
   130
 10
-21.9194556030363
 20
37.4360179901138
 30
0.0
 11
-21.9194556030363
 21
29.1860121073551
 31
0.0
  0
LINE
  5
   61F
  8
0
  6
CONTINUOUS
 62
   130
 10
-21.6694556030363
 20
37.4360179901138
 30
0.0
 11
-21.6694556030363
 21
29.1860121073551
 31
0.0
  0
LINE
  5
   620
  8
0
  6
CONTINUOUS
 62
   130
 10
-21.0194556030363
 20
37.4360179901138
 30
0.0
 11
-21.0194556030363
 21
29.1860121073551
 31
0.0
  0
LINE
  5
   621
  8
0
  6
CONTINUOUS
 62
   130
 10
-20.7694556030363
 20
37.4360179901138
 30
0.0
 11
-20.7694556030363
 21
29.1860121073551
 31
0.0
  0
LINE
  5
   622
  8
0
  6
CONTINUOUS
 62
   130
 10
-20.1194556030363
 20
37.4360179901138
 30
0.0
 11
-20.1194556030363
 21
29.1860121073551
 31
0.0
  0
LINE
  5
   623
  8
0
  6
CONTINUOUS
 62
   130
 10
-19.8694556030363
 20
37.4360179901138
 30
0.0
 11
-19.8694556030363
 21
29.1860121073551
 31
0.0
  0
LINE
  5
   624
  8
0
  6
CONTINUOUS
 62
   130
 10
-19.2194556030363
 20
37.4360179901138
 30
0.0
 11
-19.2194556030363
 21
29.1860121073551
 31
0.0
  0
LINE
  5
   625
  8
0
  6
CONTINUOUS
 62
   130
 10
-18.9694556030363
 20
37.4360179901138
 30
0.0
 11
-18.9694556030363
 21
29.1860121073551
 31
0.0
  0
LINE
  5
   626
  8
0
  6
CONTINUOUS
 62
   130
 10
-18.3194556030363
 20
37.4360179901138
 30
0.0
 11
-18.3194556030363
 21
29.1860121073551
 31
0.0
  0
LINE
  5
   627
  8
0
  6
CONTINUOUS
 62
   130
 10
-18.0694556030363
 20
37.4360179901138
 30
0.0
 11
-18.0694556030363
 21
29.1860121073551
 31
0.0
  0
LINE
  5
   628
  8
0
  6
CONTINUOUS
 62
   130
 10
-17.4194556030363
 20
37.4360179901138
 30
0.0
 11
-17.4194556030363
 21
29.1860121073551
 31
0.0
  0
LINE
  5
   629
  8
0
  6
CONTINUOUS
 62
   130
 10
-17.1694556030363
 20
37.4360179901138
 30
0.0
 11
-17.1694556030363
 21
29.1860121073551
 31
0.0
  0
LINE
  5
   62A
  8
0
  6
CONTINUOUS
 62
   130
 10
-16.5194556030363
 20
37.4360179901138
 30
0.0
 11
-16.5194556030363
 21
29.1860121073551
 31
0.0
  0
LINE
  5
   62B
  8
0
  6
CONTINUOUS
 62
   130
 10
-16.2694556030363
 20
37.4360179901138
 30
0.0
 11
-16.2694556030363
 21
29.1860121073551
 31
0.0
  0
LINE
  5
   62C
  8
0
  6
CONTINUOUS
 62
   130
 10
-35.1694556030362
 20
37.4360179901138
 30
0.0
 11
-35.1694556030362
 21
29.1860121073551
 31
0.0
  0
LINE
  5
   62D
  8
0
  6
CONTINUOUS
 62
   130
 10
-35.4194556030362
 20
37.4360179901138
 30
0.0
 11
-35.4194556030362
 21
29.1860121073551
 31
0.0
  0
LINE
  5
   62E
  8
0
  6
CONTINUOUS
 62
   130
 10
-36.0694556030362
 20
37.4360179901138
 30
0.0
 11
-36.0694556030362
 21
29.1860121073551
 31
0.0
  0
LINE
  5
   62F
  8
0
  6
CONTINUOUS
 62
   130
 10
-36.0694556030362
 20
37.4360179901138
 30
0.0
 11
-36.0694556030362
 21
29.1860121073551
 31
0.0
  0
LINE
  5
   630
  8
0
  6
CONTINUOUS
 62
   130
 10
-36.3194556030362
 20
37.4360179901138
 30
0.0
 11
-36.3194556030362
 21
29.1860121073551
 31
0.0
  0
LINE
  5
   631
  8
0
  6
CONTINUOUS
 62
   130
 10
-36.9694556030362
 20
37.4360179901138
 30
0.0
 11
-36.9694556030362
 21
29.1860121073551
 31
0.0
  0
LINE
  5
   632
  8
0
  6
CONTINUOUS
 62
   130
 10
-37.2194556030362
 20
37.4360179901138
 30
0.0
 11
-37.2194556030362
 21
29.1860121073551
 31
0.0
  0
LINE
  5
   633
  8
0
  6
CONTINUOUS
 62
   130
 10
-37.8694556030362
 20
37.4360179901138
 30
0.0
 11
-37.8694556030362
 21
29.1860121073551
 31
0.0
  0
LINE
  5
   634
  8
0
  6
CONTINUOUS
 62
   130
 10
-38.1194556030362
 20
37.4360179901138
 30
0.0
 11
-38.1194556030362
 21
29.1860121073551
 31
0.0
  0
LINE
  5
   635
  8
0
  6
CONTINUOUS
 62
   130
 10
-38.7694556030362
 20
37.4360179901138
 30
0.0
 11
-38.7694556030362
 21
29.1860121073551
 31
0.0
  0
LINE
  5
   636
  8
0
  6
CONTINUOUS
 62
   130
 10
-39.0194556030362
 20
37.4360179901138
 30
0.0
 11
-39.0194556030362
 21
29.1860121073551
 31
0.0
  0
LINE
  5
   637
  8
0
  6
CONTINUOUS
 62
   130
 10
-39.6694556030362
 20
37.4360179901138
 30
0.0
 11
-39.6694556030362
 21
29.1860121073551
 31
0.0
  0
LINE
  5
   638
  8
0
  6
CONTINUOUS
 62
   130
 10
-39.9194556030362
 20
37.4360179901138
 30
0.0
 11
-39.9194556030362
 21
29.1860121073551
 31
0.0
  0
LINE
  5
   639
  8
0
  6
CONTINUOUS
 62
   130
 10
-40.5694556030362
 20
37.4360179901138
 30
0.0
 11
-40.5694556030362
 21
29.1860121073551
 31
0.0
  0
LINE
  5
   63A
  8
0
  6
CONTINUOUS
 62
   130
 10
-40.8194556030362
 20
37.4360179901138
 30
0.0
 11
-40.8194556030362
 21
29.1860121073551
 31
0.0
  0
LINE
  5
   63B
  8
0
  6
CONTINUOUS
 62
   130
 10
-41.4694556030362
 20
37.4360179901138
 30
0.0
 11
-41.4694556030362
 21
29.1860121073551
 31
0.0
  0
LINE
  5
   63C
  8
0
  6
CONTINUOUS
 62
   130
 10
-41.7194556030362
 20
37.4360179901138
 30
0.0
 11
-41.7194556030362
 21
29.1860121073551
 31
0.0
  0
LINE
  5
   63D
  8
0
  6
CONTINUOUS
 62
   130
 10
-42.3694556030362
 20
37.4360179901138
 30
0.0
 11
-42.3694556030362
 21
29.1860121073551
 31
0.0
  0
LINE
  5
   63E
  8
0
  6
CONTINUOUS
 62
   130
 10
-42.6194556030362
 20
37.4360179901138
 30
0.0
 11
-42.6194556030362
 21
29.1860121073551
 31
0.0
  0
LINE
  5
   63F
  8
0
  6
CONTINUOUS
 62
   130
 10
-43.2694556030362
 20
37.4360179901138
 30
0.0
 11
-43.2694556030362
 21
29.1860121073551
 31
0.0
  0
LINE
  5
   640
  8
0
  6
CONTINUOUS
 62
   130
 10
-43.5194556030362
 20
37.4360179901138
 30
0.0
 11
-43.5194556030362
 21
29.1860121073551
 31
0.0
  0
LINE
  5
   641
  8
0
  6
CONTINUOUS
 62
   130
 10
-44.1694556030362
 20
37.4360179901138
 30
0.0
 11
-44.1694556030362
 21
29.1860121073551
 31
0.0
  0
LINE
  5
   642
  8
0
  6
CONTINUOUS
 62
   130
 10
-44.4194556030362
 20
37.4360179901138
 30
0.0
 11
-44.4194556030362
 21
29.1860121073551
 31
0.0
  0
LINE
  5
   643
  8
0
  6
CONTINUOUS
 62
   130
 10
-45.0694556030362
 20
37.4360179901138
 30
0.0
 11
-45.0694556030362
 21
29.1860121073551
 31
0.0
  0
LINE
  5
   644
  8
0
  6
CONTINUOUS
 62
   130
 10
-45.3194556030362
 20
37.4360179901138
 30
0.0
 11
-45.3194556030362
 21
29.1860121073551
 31
0.0
  0
LINE
  5
   645
  8
0
  6
CONTINUOUS
 62
   130
 10
-45.9694556030362
 20
37.4360179901138
 30
0.0
 11
-45.9694556030362
 21
29.1860121073551
 31
0.0
  0
LINE
  5
   646
  8
0
  6
CONTINUOUS
 62
   130
 10
-46.2194556030362
 20
37.4360179901138
 30
0.0
 11
-46.2194556030362
 21
29.1860121073551
 31
0.0
  0
LINE
  5
   647
  8
0
  6
CONTINUOUS
 62
   130
 10
-46.8694556030362
 20
37.4360179901138
 30
0.0
 11
-46.8694556030362
 21
29.1860121073551
 31
0.0
  0
LINE
  5
   648
  8
0
  6
CONTINUOUS
 62
   130
 10
-47.1194556030362
 20
37.4360179901138
 30
0.0
 11
-47.1194556030362
 21
29.1860121073551
 31
0.0
  0
LINE
  5
   649
  8
0
  6
CONTINUOUS
 62
   130
 10
-47.7694556030362
 20
37.4360179901138
 30
0.0
 11
-47.7694556030362
 21
29.1860121073551
 31
0.0
  0
LINE
  5
   64A
  8
0
  6
CONTINUOUS
 62
   130
 10
-48.0194556030362
 20
37.4360179901138
 30
0.0
 11
-48.0194556030362
 21
29.1860121073551
 31
0.0
  0
LINE
  5
   64B
  8
0
  6
CONTINUOUS
 62
   130
 10
-48.6694556030362
 20
37.4360179901138
 30
0.0
 11
-48.6694556030362
 21
29.1860121073551
 31
0.0
  0
LINE
  5
   64C
  8
0
  6
CONTINUOUS
 62
   130
 10
-48.9194556030362
 20
37.4360179901138
 30
0.0
 11
-48.9194556030362
 21
29.1860121073551
 31
0.0
  0
LINE
  5
   64D
  8
0
  6
CONTINUOUS
 62
   130
 10
-49.5694556030362
 20
37.4360179901138
 30
0.0
 11
-49.5694556030362
 21
29.1860121073551
 31
0.0
  0
LINE
  5
   64E
  8
0
  6
CONTINUOUS
 62
   130
 10
-49.8194556030362
 20
37.4360179901138
 30
0.0
 11
-49.8194556030362
 21
29.1860121073551
 31
0.0
  0
LINE
  5
   64F
  8
0
  6
CONTINUOUS
 62
   130
 10
-50.4694556030362
 20
37.4360179901138
 30
0.0
 11
-50.4694556030362
 21
29.1860121073551
 31
0.0
  0
LINE
  5
   650
  8
0
  6
CONTINUOUS
 62
   130
 10
-50.7194556030362
 20
37.4360179901138
 30
0.0
 11
-50.7194556030362
 21
29.1860121073551
 31
0.0
  0
LINE
  5
   651
  8
0
  6
CONTINUOUS
 62
   130
 10
-51.3694556030362
 20
37.4360179901138
 30
0.0
 11
-51.3694556030362
 21
29.1860121073551
 31
0.0
  0
LINE
  5
   652
  8
0
  6
CONTINUOUS
 62
   130
 10
-51.6194556030362
 20
37.4360179901138
 30
0.0
 11
-51.6194556030362
 21
29.1860121073551
 31
0.0
  0
LINE
  5
   653
  8
0
  6
CONTINUOUS
 62
   130
 10
-52.2694556030362
 20
37.4360179901138
 30
0.0
 11
-52.2694556030362
 21
29.1860121073551
 31
0.0
  0
LINE
  5
   654
  8
0
  6
CONTINUOUS
 62
   130
 10
-52.5194556030362
 20
37.4360179901138
 30
0.0
 11
-52.5194556030362
 21
29.1860121073551
 31
0.0
  0
LINE
  5
   655
  8
0
  6
CONTINUOUS
 62
   130
 10
-53.1694556030362
 20
37.4360179901138
 30
0.0
 11
-53.1694556030362
 21
29.1860121073551
 31
0.0
  0
LINE
  5
   656
  8
0
  6
CONTINUOUS
 62
   130
 10
-53.4194556030362
 20
37.4360179901138
 30
0.0
 11
-53.4194556030362
 21
29.1860121073551
 31
0.0
  0
LINE
  5
   657
  8
0
  6
DASHDOT
 62
   130
 10
-47.3444556030362
 20
44.1860218048096
 30
0.0
 11
-47.3444556030362
 21
40.6860218048096
 31
0.0
  0
LINE
  5
   658
  8
0
  6
DASHDOT
 62
   130
 10
-49.0944556030362
 20
42.4360218048096
 30
0.0
 11
-45.5944556030363
 21
42.4360218048096
 31
0.0
  0
LINE
  5
   659
  8
0
  6
DASHDOT
 62
   130
 10
-34.8444556030362
 20
44.1860218048096
 30
0.0
 11
-34.8444556030362
 21
40.6860218048096
 31
0.0
  0
LINE
  5
   65A
  8
0
  6
DASHDOT
 62
   130
 10
-36.5944556030362
 20
42.4360218048096
 30
0.0
 11
-33.0944556030362
 21
42.4360218048096
 31
0.0
  0
LINE
  5
   65B
  8
0
  6
DASHDOT
 62
   130
 10
-22.3444556030362
 20
44.1860218048096
 30
0.0
 11
-22.3444556030362
 21
40.6860218048096
 31
0.0
  0
LINE
  5
   65C
  8
0
  6
DASHDOT
 62
   130
 10
-24.0944556030362
 20
42.4360218048096
 30
0.0
 11
-20.5944556030362
 21
42.4360218048096
 31
0.0
  0
LINE
  5
   65D
  8
0
  6
DASHDOT
 62
   130
 10
-47.3444556030362
 20
-27.8139781951904
 30
0.0
 11
-47.3444556030362
 21
-31.3139781951904
 31
0.0
  0
LINE
  5
   65E
  8
0
  6
DASHDOT
 62
   130
 10
-49.0944556030362
 20
-29.5639781951904
 30
0.0
 11
-45.5944556030363
 21
-29.5639781951904
 31
0.0
  0
LINE
  5
   65F
  8
0
  6
DASHDOT
 62
   130
 10
-34.8444556030362
 20
-27.8139781951904
 30
0.0
 11
-34.8444556030362
 21
-31.3139781951904
 31
0.0
  0
LINE
  5
   660
  8
0
  6
DASHDOT
 62
   130
 10
-36.5944556030362
 20
-29.5639781951904
 30
0.0
 11
-33.0944556030362
 21
-29.5639781951904
 31
0.0
  0
LINE
  5
   661
  8
0
  6
DASHDOT
 62
   130
 10
-22.3444556030362
 20
-27.8139781951904
 30
0.0
 11
-22.3444556030362
 21
-31.3139781951904
 31
0.0
  0
LINE
  5
   662
  8
0
  6
DASHDOT
 62
   130
 10
-24.0944556030362
 20
-29.5639781951904
 30
0.0
 11
-20.5944556030362
 21
-29.5639781951904
 31
0.0
  0
TEXT
  5
   663
  8
0
  6
CONTINUOUS
 62
     2
 10
-35.817888426042
 20
50.0254173047266
 30
0.0
 40
3.00000002980232
  1
Y
 50
359.999999844103
 41
0.983333351877
 72
     1
 11
-34.7178883791513
 21
53.0254173315415
 31
0.0
 73
     3
  0
TEXT
  5
   664
  8
0
  6
CONTINUOUS
 62
     2
 10
-35.9444556637404
 20
-42.2050441040678
 30
0.0
 40
3.00000002980232
  1
Y
 50
359.999999844103
 41
0.983333351877
 72
     1
 11
-34.8444556168497
 21
-39.2050440772529
 31
0.0
 73
     3
  0
TEXT
  5
   665
  8
0
  6
CONTINUOUS
 62
     2
 10
6.09335413895264
 20
-1.17068764111281
 30
0.0
 40
3.00000002980232
  1
X
 50
359.999999844103
 41
0.983333351877
 11
6.09335414302647
 21
0.329312373788355
 31
0.0
 73
     2
  0
TEXT
  5
   666
  8
0
  6
CONTINUOUS
 62
     2
 10
-63.7324954379529
 20
-1.17068761487807
 30
0.0
 40
3.00000002980232
  1
X
 50
359.999999844103
 41
0.983333351877
 72
     2
 11
-61.5324953563931
 21
0.329312394048145
 31
0.0
 73
     2
  0
LINE
  5
   667
  8
0
  6
CONTINUOUS
 62
   130
 10
-54.3444572639529
 20
12.4360680580139
 30
0.0
 11
-54.3444536018442
 21
-11.5639319419861
 31
0.0
  0
LINE
  5
   668
  8
0
  6
CONTINUOUS
 62
   130
 10
-15.3444837379401
 20
12.4360680580139
 30
0.0
 11
-15.3444874000487
 21
-11.5639319419861
 31
0.0
  0
LINE
  5
   669
  8
0
  6
CONTINUOUS
 62
   130
 10
-34.5194556030363
 20
-23.5639319419861
 30
0.0
 11
-34.5194556030363
 21
-24.5639743804923
 31
0.0
  0
LINE
  5
   66A
  8
0
  6
CONTINUOUS
 62
   130
 10
-34.2694556030363
 20
-23.5639319419861
 30
0.0
 11
-34.2694556030363
 21
-24.5639743804923
 31
0.0
  0
LINE
  5
   66B
  8
0
  6
CONTINUOUS
 62
   130
 10
-33.6194556030362
 20
-23.5639319419861
 30
0.0
 11
-33.6194556030362
 21
-24.5639743804923
 31
0.0
  0
LINE
  5
   66C
  8
0
  6
CONTINUOUS
 62
   130
 10
-33.6194556030362
 20
-23.5639319419861
 30
0.0
 11
-33.6194556030362
 21
-24.5639743804923
 31
0.0
  0
LINE
  5
   66D
  8
0
  6
CONTINUOUS
 62
   130
 10
-33.3694556030362
 20
-23.5639319419861
 30
0.0
 11
-33.3694556030362
 21
-24.5639743804923
 31
0.0
  0
LINE
  5
   66E
  8
0
  6
CONTINUOUS
 62
   130
 10
-32.7194556030363
 20
-23.5639319419861
 30
0.0
 11
-32.7194556030363
 21
-24.5639743804923
 31
0.0
  0
LINE
  5
   66F
  8
0
  6
CONTINUOUS
 62
   130
 10
-32.4694556030363
 20
-23.5639319419861
 30
0.0
 11
-32.4694556030363
 21
-24.5639743804923
 31
0.0
  0
LINE
  5
   670
  8
0
  6
CONTINUOUS
 62
   130
 10
-31.8194556030363
 20
-23.5639319419861
 30
0.0
 11
-31.8194556030363
 21
-24.5639743804923
 31
0.0
  0
LINE
  5
   671
  8
0
  6
CONTINUOUS
 62
   130
 10
-31.5694556030363
 20
-23.5639319419861
 30
0.0
 11
-31.5694556030363
 21
-24.5639743804923
 31
0.0
  0
LINE
  5
   672
  8
0
  6
CONTINUOUS
 62
   130
 10
-30.9194556030363
 20
-23.5639319419861
 30
0.0
 11
-30.9194556030363
 21
-24.5639743804923
 31
0.0
  0
LINE
  5
   673
  8
0
  6
CONTINUOUS
 62
   130
 10
-30.6694556030363
 20
-23.5639319419861
 30
0.0
 11
-30.6694556030363
 21
-24.5639743804923
 31
0.0
  0
LINE
  5
   674
  8
0
  6
CONTINUOUS
 62
   130
 10
-30.0194556030363
 20
-23.5639319419861
 30
0.0
 11
-30.0194556030363
 21
-24.5639743804923
 31
0.0
  0
LINE
  5
   675
  8
0
  6
CONTINUOUS
 62
   130
 10
-29.7694556030363
 20
-23.5639319419861
 30
0.0
 11
-29.7694556030363
 21
-24.5639743804923
 31
0.0
  0
LINE
  5
   676
  8
0
  6
CONTINUOUS
 62
   130
 10
-29.1194556030363
 20
-23.5639319419861
 30
0.0
 11
-29.1194556030363
 21
-24.5639743804923
 31
0.0
  0
LINE
  5
   677
  8
0
  6
CONTINUOUS
 62
   130
 10
-28.8694556030363
 20
-23.5639319419861
 30
0.0
 11
-28.8694556030363
 21
-24.5639743804923
 31
0.0
  0
LINE
  5
   678
  8
0
  6
CONTINUOUS
 62
   130
 10
-28.2194556030363
 20
-23.5639319419861
 30
0.0
 11
-28.2194556030363
 21
-24.5639743804923
 31
0.0
  0
LINE
  5
   679
  8
0
  6
CONTINUOUS
 62
   130
 10
-27.9694556030363
 20
-23.5639319419861
 30
0.0
 11
-27.9694556030363
 21
-24.5639743804923
 31
0.0
  0
LINE
  5
   67A
  8
0
  6
CONTINUOUS
 62
   130
 10
-27.3194556030363
 20
-23.5639319419861
 30
0.0
 11
-27.3194556030363
 21
-24.5639743804923
 31
0.0
  0
LINE
  5
   67B
  8
0
  6
CONTINUOUS
 62
   130
 10
-27.0694556030363
 20
-23.5639319419861
 30
0.0
 11
-27.0694556030363
 21
-24.5639743804923
 31
0.0
  0
LINE
  5
   67C
  8
0
  6
CONTINUOUS
 62
   130
 10
-26.4194556030363
 20
-23.5639319419861
 30
0.0
 11
-26.4194556030363
 21
-24.5639743804923
 31
0.0
  0
LINE
  5
   67D
  8
0
  6
CONTINUOUS
 62
   130
 10
-26.1694556030363
 20
-23.5639319419861
 30
0.0
 11
-26.1694556030363
 21
-24.5639743804923
 31
0.0
  0
LINE
  5
   67E
  8
0
  6
CONTINUOUS
 62
   130
 10
-25.5194556030363
 20
-23.5639319419861
 30
0.0
 11
-25.5194556030363
 21
-24.5639743804923
 31
0.0
  0
LINE
  5
   67F
  8
0
  6
CONTINUOUS
 62
   130
 10
-25.2694556030363
 20
-23.5639319419861
 30
0.0
 11
-25.2694556030363
 21
-24.5639743804923
 31
0.0
  0
LINE
  5
   680
  8
0
  6
CONTINUOUS
 62
   130
 10
-24.6194556030363
 20
-23.5639319419861
 30
0.0
 11
-24.6194556030363
 21
-24.5639743804923
 31
0.0
  0
LINE
  5
   681
  8
0
  6
CONTINUOUS
 62
   130
 10
-24.3694556030363
 20
-23.5639319419861
 30
0.0
 11
-24.3694556030363
 21
-24.5639743804923
 31
0.0
  0
LINE
  5
   682
  8
0
  6
CONTINUOUS
 62
   130
 10
-23.7194556030363
 20
-23.5639319419861
 30
0.0
 11
-23.7194556030363
 21
-24.5639743804923
 31
0.0
  0
LINE
  5
   683
  8
0
  6
CONTINUOUS
 62
   130
 10
-23.4694556030363
 20
-23.5639319419861
 30
0.0
 11
-23.4694556030363
 21
-24.5639743804923
 31
0.0
  0
LINE
  5
   684
  8
0
  6
CONTINUOUS
 62
   130
 10
-22.8194556030363
 20
-23.5639319419861
 30
0.0
 11
-22.8194556030363
 21
-24.5639743804923
 31
0.0
  0
LINE
  5
   685
  8
0
  6
CONTINUOUS
 62
   130
 10
-22.5694556030363
 20
-23.5639319419861
 30
0.0
 11
-22.5694556030363
 21
-24.5639743804923
 31
0.0
  0
LINE
  5
   686
  8
0
  6
CONTINUOUS
 62
   130
 10
-21.9194556030363
 20
-23.5639319419861
 30
0.0
 11
-21.9194556030363
 21
-24.5639743804923
 31
0.0
  0
LINE
  5
   687
  8
0
  6
CONTINUOUS
 62
   130
 10
-21.6694556030363
 20
-23.5639319419861
 30
0.0
 11
-21.6694556030363
 21
-24.5639743804923
 31
0.0
  0
LINE
  5
   688
  8
0
  6
CONTINUOUS
 62
   130
 10
-21.0194556030363
 20
-23.5639319419861
 30
0.0
 11
-21.0194556030363
 21
-24.5639743804923
 31
0.0
  0
LINE
  5
   689
  8
0
  6
CONTINUOUS
 62
   130
 10
-20.7694556030363
 20
-23.5639319419861
 30
0.0
 11
-20.7694556030363
 21
-24.5639743804923
 31
0.0
  0
LINE
  5
   68A
  8
0
  6
CONTINUOUS
 62
   130
 10
-20.1194556030363
 20
-23.5639319419861
 30
0.0
 11
-20.1194556030363
 21
-24.5639743804923
 31
0.0
  0
LINE
  5
   68B
  8
0
  6
CONTINUOUS
 62
   130
 10
-19.8694556030363
 20
-23.5639319419861
 30
0.0
 11
-19.8694556030363
 21
-24.5639743804923
 31
0.0
  0
LINE
  5
   68C
  8
0
  6
CONTINUOUS
 62
   130
 10
-19.2194556030363
 20
-23.5639319419861
 30
0.0
 11
-19.2194556030363
 21
-24.5639743804923
 31
0.0
  0
LINE
  5
   68D
  8
0
  6
CONTINUOUS
 62
   130
 10
-18.9694556030363
 20
-23.5639319419861
 30
0.0
 11
-18.9694556030363
 21
-24.5639743804923
 31
0.0
  0
LINE
  5
   68E
  8
0
  6
CONTINUOUS
 62
   130
 10
-18.3194556030363
 20
-23.5639319419861
 30
0.0
 11
-18.3194556030363
 21
-24.5639743804923
 31
0.0
  0
LINE
  5
   68F
  8
0
  6
CONTINUOUS
 62
   130
 10
-18.0694556030363
 20
-23.5639319419861
 30
0.0
 11
-18.0694556030363
 21
-24.5639743804923
 31
0.0
  0
LINE
  5
   690
  8
0
  6
CONTINUOUS
 62
   130
 10
-17.4194556030363
 20
-23.5639319419861
 30
0.0
 11
-17.4194556030363
 21
-24.5639743804923
 31
0.0
  0
LINE
  5
   691
  8
0
  6
CONTINUOUS
 62
   130
 10
-17.1694556030363
 20
-23.5639319419861
 30
0.0
 11
-17.1694556030363
 21
-24.5639743804923
 31
0.0
  0
LINE
  5
   692
  8
0
  6
CONTINUOUS
 62
   130
 10
-16.5194556030363
 20
-23.5639319419861
 30
0.0
 11
-16.5194556030363
 21
-24.5639743804923
 31
0.0
  0
LINE
  5
   693
  8
0
  6
CONTINUOUS
 62
   130
 10
-16.2694556030363
 20
-23.5639319419861
 30
0.0
 11
-16.2694556030363
 21
-24.5639743804923
 31
0.0
  0
LINE
  5
   694
  8
0
  6
CONTINUOUS
 62
   130
 10
-15.344489231103
 20
-23.5639319419861
 30
0.0
 11
-15.3444909095765
 21
-34.5639781951904
 31
0.0
  0
LINE
  5
   695
  8
0
  6
CONTINUOUS
 62
   130
 10
-35.1694556030362
 20
-23.5639319419861
 30
0.0
 11
-35.1694556030362
 21
-24.5639743804923
 31
0.0
  0
LINE
  5
   696
  8
0
  6
CONTINUOUS
 62
   130
 10
-35.4194556030362
 20
-23.5639319419861
 30
0.0
 11
-35.4194556030362
 21
-24.5639743804923
 31
0.0
  0
LINE
  5
   697
  8
0
  6
CONTINUOUS
 62
   130
 10
-36.0694556030362
 20
-23.5639319419861
 30
0.0
 11
-36.0694556030362
 21
-24.5639743804923
 31
0.0
  0
LINE
  5
   698
  8
0
  6
CONTINUOUS
 62
   130
 10
-36.0694556030362
 20
-23.5639319419861
 30
0.0
 11
-36.0694556030362
 21
-24.5639743804923
 31
0.0
  0
LINE
  5
   699
  8
0
  6
CONTINUOUS
 62
   130
 10
-36.3194556030362
 20
-23.5639319419861
 30
0.0
 11
-36.3194556030362
 21
-24.5639743804923
 31
0.0
  0
LINE
  5
   69A
  8
0
  6
CONTINUOUS
 62
   130
 10
-36.9694556030362
 20
-23.5639319419861
 30
0.0
 11
-36.9694556030362
 21
-24.5639743804923
 31
0.0
  0
LINE
  5
   69B
  8
0
  6
CONTINUOUS
 62
   130
 10
-37.2194556030362
 20
-23.5639319419861
 30
0.0
 11
-37.2194556030362
 21
-24.5639743804923
 31
0.0
  0
LINE
  5
   69C
  8
0
  6
CONTINUOUS
 62
   130
 10
-37.8694556030362
 20
-23.5639319419861
 30
0.0
 11
-37.8694556030362
 21
-24.5639743804923
 31
0.0
  0
LINE
  5
   69D
  8
0
  6
CONTINUOUS
 62
   130
 10
-38.1194556030362
 20
-23.5639319419861
 30
0.0
 11
-38.1194556030362
 21
-24.5639743804923
 31
0.0
  0
LINE
  5
   69E
  8
0
  6
CONTINUOUS
 62
   130
 10
-38.7694556030362
 20
-23.5639319419861
 30
0.0
 11
-38.7694556030362
 21
-24.5639743804923
 31
0.0
  0
LINE
  5
   69F
  8
0
  6
CONTINUOUS
 62
   130
 10
-39.0194556030362
 20
-23.5639319419861
 30
0.0
 11
-39.0194556030362
 21
-24.5639743804923
 31
0.0
  0
LINE
  5
   6A0
  8
0
  6
CONTINUOUS
 62
   130
 10
-39.6694556030362
 20
-23.5639319419861
 30
0.0
 11
-39.6694556030362
 21
-24.5639743804923
 31
0.0
  0
LINE
  5
   6A1
  8
0
  6
CONTINUOUS
 62
   130
 10
-39.9194556030362
 20
-23.5639319419861
 30
0.0
 11
-39.9194556030362
 21
-24.5639743804923
 31
0.0
  0
LINE
  5
   6A2
  8
0
  6
CONTINUOUS
 62
   130
 10
-40.5694556030362
 20
-23.5639319419861
 30
0.0
 11
-40.5694556030362
 21
-24.5639743804923
 31
0.0
  0
LINE
  5
   6A3
  8
0
  6
CONTINUOUS
 62
   130
 10
-40.8194556030362
 20
-23.5639319419861
 30
0.0
 11
-40.8194556030362
 21
-24.5639743804923
 31
0.0
  0
LINE
  5
   6A4
  8
0
  6
CONTINUOUS
 62
   130
 10
-41.4694556030362
 20
-23.5639319419861
 30
0.0
 11
-41.4694556030362
 21
-24.5639743804923
 31
0.0
  0
LINE
  5
   6A5
  8
0
  6
CONTINUOUS
 62
   130
 10
-41.7194556030362
 20
-23.5639319419861
 30
0.0
 11
-41.7194556030362
 21
-24.5639743804923
 31
0.0
  0
LINE
  5
   6A6
  8
0
  6
CONTINUOUS
 62
   130
 10
-42.3694556030362
 20
-23.5639319419861
 30
0.0
 11
-42.3694556030362
 21
-24.5639743804923
 31
0.0
  0
LINE
  5
   6A7
  8
0
  6
CONTINUOUS
 62
   130
 10
-42.6194556030362
 20
-23.5639319419861
 30
0.0
 11
-42.6194556030362
 21
-24.5639743804923
 31
0.0
  0
LINE
  5
   6A8
  8
0
  6
CONTINUOUS
 62
   130
 10
-43.2694556030362
 20
-23.5639319419861
 30
0.0
 11
-43.2694556030362
 21
-24.5639743804923
 31
0.0
  0
LINE
  5
   6A9
  8
0
  6
CONTINUOUS
 62
   130
 10
-43.5194556030362
 20
-23.5639319419861
 30
0.0
 11
-43.5194556030362
 21
-24.5639743804923
 31
0.0
  0
LINE
  5
   6AA
  8
0
  6
CONTINUOUS
 62
   130
 10
-44.1694556030362
 20
-23.5639319419861
 30
0.0
 11
-44.1694556030362
 21
-24.5639743804923
 31
0.0
  0
LINE
  5
   6AB
  8
0
  6
CONTINUOUS
 62
   130
 10
-44.4194556030362
 20
-23.5639319419861
 30
0.0
 11
-44.4194556030362
 21
-24.5639743804923
 31
0.0
  0
LINE
  5
   6AC
  8
0
  6
CONTINUOUS
 62
   130
 10
-45.0694556030362
 20
-23.5639319419861
 30
0.0
 11
-45.0694556030362
 21
-24.5639743804923
 31
0.0
  0
LINE
  5
   6AD
  8
0
  6
CONTINUOUS
 62
   130
 10
-45.3194556030362
 20
-23.5639319419861
 30
0.0
 11
-45.3194556030362
 21
-24.5639743804923
 31
0.0
  0
LINE
  5
   6AE
  8
0
  6
CONTINUOUS
 62
   130
 10
-45.9694556030362
 20
-23.5639319419861
 30
0.0
 11
-45.9694556030362
 21
-24.5639743804923
 31
0.0
  0
LINE
  5
   6AF
  8
0
  6
CONTINUOUS
 62
   130
 10
-46.2194556030362
 20
-23.5639319419861
 30
0.0
 11
-46.2194556030362
 21
-24.5639743804923
 31
0.0
  0
LINE
  5
   6B0
  8
0
  6
CONTINUOUS
 62
   130
 10
-46.8694556030362
 20
-23.5639319419861
 30
0.0
 11
-46.8694556030362
 21
-24.5639743804923
 31
0.0
  0
LINE
  5
   6B1
  8
0
  6
CONTINUOUS
 62
   130
 10
-47.1194556030362
 20
-23.5639319419861
 30
0.0
 11
-47.1194556030362
 21
-24.5639743804923
 31
0.0
  0
LINE
  5
   6B2
  8
0
  6
CONTINUOUS
 62
   130
 10
-47.7694556030362
 20
-23.5639319419861
 30
0.0
 11
-47.7694556030362
 21
-24.5639743804923
 31
0.0
  0
LINE
  5
   6B3
  8
0
  6
CONTINUOUS
 62
   130
 10
-48.0194556030362
 20
-23.5639319419861
 30
0.0
 11
-48.0194556030362
 21
-24.5639743804923
 31
0.0
  0
LINE
  5
   6B4
  8
0
  6
CONTINUOUS
 62
   130
 10
-48.6694556030362
 20
-23.5639319419861
 30
0.0
 11
-48.6694556030362
 21
-24.5639743804923
 31
0.0
  0
LINE
  5
   6B5
  8
0
  6
CONTINUOUS
 62
   130
 10
-48.9194556030362
 20
-23.5639319419861
 30
0.0
 11
-48.9194556030362
 21
-24.5639743804923
 31
0.0
  0
LINE
  5
   6B6
  8
0
  6
CONTINUOUS
 62
   130
 10
-49.5694556030362
 20
-23.5639319419861
 30
0.0
 11
-49.5694556030362
 21
-24.5639743804923
 31
0.0
  0
LINE
  5
   6B7
  8
0
  6
CONTINUOUS
 62
   130
 10
-49.8194556030362
 20
-23.5639319419861
 30
0.0
 11
-49.8194556030362
 21
-24.5639743804923
 31
0.0
  0
LINE
  5
   6B8
  8
0
  6
CONTINUOUS
 62
   130
 10
-50.4694556030362
 20
-23.5639319419861
 30
0.0
 11
-50.4694556030362
 21
-24.5639743804923
 31
0.0
  0
LINE
  5
   6B9
  8
0
  6
CONTINUOUS
 62
   130
 10
-50.7194556030362
 20
-23.5639319419861
 30
0.0
 11
-50.7194556030362
 21
-24.5639743804923
 31
0.0
  0
LINE
  5
   6BA
  8
0
  6
CONTINUOUS
 62
   130
 10
-51.3694556030362
 20
-23.5639319419861
 30
0.0
 11
-51.3694556030362
 21
-24.5639743804923
 31
0.0
  0
LINE
  5
   6BB
  8
0
  6
CONTINUOUS
 62
   130
 10
-51.6194556030362
 20
-23.5639319419861
 30
0.0
 11
-51.6194556030362
 21
-24.5639743804923
 31
0.0
  0
LINE
  5
   6BC
  8
0
  6
CONTINUOUS
 62
   130
 10
-52.2694556030362
 20
-23.5639319419861
 30
0.0
 11
-52.2694556030362
 21
-24.5639743804923
 31
0.0
  0
LINE
  5
   6BD
  8
0
  6
CONTINUOUS
 62
   130
 10
-52.5194556030362
 20
-23.5639319419861
 30
0.0
 11
-52.5194556030362
 21
-24.5639743804923
 31
0.0
  0
LINE
  5
   6BE
  8
0
  6
CONTINUOUS
 62
   130
 10
-53.1694556030362
 20
-23.5639319419861
 30
0.0
 11
-53.1694556030362
 21
-24.5639743804923
 31
0.0
  0
LINE
  5
   6BF
  8
0
  6
CONTINUOUS
 62
   130
 10
-53.4194556030362
 20
-23.5639319419861
 30
0.0
 11
-53.4194556030362
 21
-24.5639743804923
 31
0.0
  0
LINE
  5
   6C0
  8
0
  6
CONTINUOUS
 62
   130
 10
-54.3444517707899
 20
-23.5639319419861
 30
0.0
 11
-54.3444500923164
 21
-34.5639781951904
 31
0.0
  0
INSERT
  5
   6C1
  8
0
  6
CONTINUOUS
 62
     3
  2
*UDIM318
 10
0.0
 20
0.0
 30
0.0
  0
INSERT
  5
   6C2
  8
0
  6
CONTINUOUS
 62
     3
  2
*UDIM319
 10
0.0
 20
0.0
 30
0.0
  0
INSERT
  5
   6C3
  8
0
  6
CONTINUOUS
 62
     3
  2
*UDIM320
 10
0.0
 20
0.0
 30
0.0
  0
INSERT
  5
   6C4
  8
0
  6
CONTINUOUS
 62
     7
  2
*UDIM321
 10
0.0
 20
0.0
 30
0.0
  0
INSERT
  5
   6C5
  8
0
  6
CONTINUOUS
 62
     7
  2
*UDIM322
 10
0.0
 20
0.0
 30
0.0
  0
INSERT
  5
   6C6
  8
0
  6
CONTINUOUS
 62
     7
  2
*UDIM323
 10
0.0
 20
0.0
 30
0.0
  0
INSERT
  5
   6C7
  8
0
  6
CONTINUOUS
 62
     3
  2
*UDIM324
 10
0.0
 20
0.0
 30
0.0
  0
LINE
  5
   6C8
  8
0
  6
DASHDOT
 62
     2
 10
-52.3444670295576
 20
35.9360179901138
 30
0.0
 11
-42.3444670295576
 21
35.9360179901138
 31
0.0
  0
LINE
  5
   6C9
  8
0
  6
DASHDOT
 62
     2
 10
-47.3444670295576
 20
40.9360179901138
 30
0.0
 11
-47.3444670295576
 21
30.9360179901138
 31
0.0
  0
CIRCLE
  5
   6CA
  8
0
  6
CONTINUOUS
 62
     2
 10
-47.3444670295576
 20
35.9360179901138
 30
0.0
 40
1.0
  0
LINE
  5
   6CB
  8
0
  6
CONTINUOUS
 62
     2
 10
-46.7312946171858
 20
36.7259670977823
 30
0.0
 11
-48.1344161372261
 21
35.322845577742
 31
0.0
  0
LINE
  5
   6CC
  8
0
  6
CONTINUOUS
 62
     2
 10
-46.5545179218892
 20
36.5491904024856
 30
0.0
 11
-47.9576394419294
 21
35.1460688824454
 31
0.0
  0
ARC
  5
   6CD
  8
0
  6
CONTINUOUS
 62
     2
 10
-47.3444670295576
 20
-23.0639820098862
 30
0.0
 40
1.0
 50
569.975900638184
 51
690.024099050022
  0
LINE
  5
   6CE
  8
0
  6
CONTINUOUS
 62
     2
 10
-48.0208794212669
 20
-23.5636177062988
 30
0.0
 11
-48.1344161372261
 21
-23.677154422258
 31
0.0
  0
LINE
  5
   6CF
  8
0
  6
CONTINUOUS
 62
     2
 10
-47.6673260306736
 20
-23.5636177062988
 30
0.0
 11
-47.9576394419294
 21
-23.8539311175546
 31
0.0
  0
LINE
  5
   6D0
  8
0
  6
DASHDOT
 62
   130
 10
205.700316808758
 20
0.436033248901367
 30
0.0
 11
281.235210039135
 21
0.436033248901367
 31
0.0
  0
LINE
  5
   6D1
  8
0
  6
DASHDOT
 62
   130
 10
242.502703785896
 20
29.171642474538
 30
0.0
 11
242.502703785896
 21
-30.5817397860549
 31
0.0
  0
CIRCLE
  5
   6D2
  8
0
  6
CONTINUOUS
 62
   130
 10
271.727703288198
 20
22.8360328674316
 30
0.0
 40
1.39999997615814
  0
CIRCLE
  5
   6D3
  8
0
  6
CONTINUOUS
 62
   130
 10
213.277704283595
 20
22.8360328674316
 30
0.0
 40
1.39999997615814
  0
CIRCLE
  5
   6D4
  8
0
  6
CONTINUOUS
 62
   130
 10
213.277704283595
 20
-21.9639663696289
 30
0.0
 40
1.39999997615814
  0
CIRCLE
  5
   6D5
  8
0
  6
CONTINUOUS
 62
   130
 10
271.727703288198
 20
-21.9639663696289
 30
0.0
 40
1.39999997615814
  0
LINE
  5
   6D6
  8
0
  6
CONTINUOUS
 62
   130
 10
272.602703273296
 20
17.9360329508781
 30
0.0
 11
272.602703273296
 21
-17.0639664530754
 31
0.0
  0
LINE
  5
   6D7
  8
0
  6
CONTINUOUS
 62
   130
 10
212.402704298496
 20
17.9360329508781
 30
0.0
 11
212.402704298496
 21
-17.0639664530754
 31
0.0
  0
LINE
  5
   6D8
  8
0
  6
CONTINUOUS
 62
   130
 10
213.452704280615
 20
18.9860329329968
 30
0.0
 11
271.552703291178
 21
18.9860329329968
 31
0.0
  0
LINE
  5
   6D9
  8
0
  6
CONTINUOUS
 62
   130
 10
213.452704280615
 20
-18.113966435194
 30
0.0
 11
271.552703291178
 21
-18.113966435194
 31
0.0
  0
ARC
  5
   6DA
  8
0
  6
CONTINUOUS
 62
   130
 10
271.552703291178
 20
17.9360329508781
 30
0.0
 40
1.04999998211861
 50
359.999999844103
 51
449.999999844103
  0
ARC
  5
   6DB
  8
0
  6
CONTINUOUS
 62
   130
 10
271.552703291178
 20
-17.0639664530754
 30
0.0
 40
1.04999998211861
 50
269.999999844103
 51
359.999999844103
  0
ARC
  5
   6DC
  8
0
  6
CONTINUOUS
 62
   130
 10
213.452704280615
 20
-17.0639664530754
 30
0.0
 40
1.04999998211861
 50
539.999999844103
 51
629.999999844103
  0
ARC
  5
   6DD
  8
0
  6
CONTINUOUS
 62
   130
 10
213.452704280615
 20
17.9360329508781
 30
0.0
 40
1.04999998211861
 50
449.999999844103
 51
539.999999844103
  0
LINE
  5
   6DE
  8
0
  6
CONTINUOUS
 62
   130
 10
207.824504759279
 20
27.0160037363515
 30
0.0
 11
277.38856848461
 21
27.0160037363515
 31
0.0
  0
LINE
  5
   6DF
  8
0
  6
CONTINUOUS
 62
   130
 10
207.824504759279
 20
-28.0262689082707
 30
0.0
 11
277.38856848461
 21
-28.0262689082707
 31
0.0
  0
LINE
  5
   6E0
  8
0
  6
CONTINUOUS
 62
   130
 10
207.824504759279
 20
27.0160037363515
 30
0.0
 11
207.824504759279
 21
-28.0262689082707
 31
0.0
  0
LINE
  5
   6E1
  8
0
  6
CONTINUOUS
 62
   130
 10
277.38856848461
 20
27.0160037363515
 30
0.0
 11
277.38856848461
 21
-28.0262689082707
 31
0.0
  0
TEXT
  5
   6E2
  8
0
  6
CONTINUOUS
 62
     2
 10
241.413236571395
 20
-33.7090100115364
 30
0.0
 40
2.99999997871263
  1
Y
 50
359.999999844103
 41
0.983333365784751
 72
     1
 11
242.513236620415
 21
-30.7090100358113
 31
0.0
 73
     3
  0
TEXT
  5
   6E3
  8
0
  6
CONTINUOUS
 62
     2
 10
281.482577919635
 20
-1.18457358659249
 30
0.0
 40
2.99999997871263
  1
X
 50
359.999999844103
 41
0.983333365784751
 11
281.482577923709
 21
0.315426402763821
 31
0.0
 73
     2
  0
TEXT
  5
   6E4
  8
0
  6
CONTINUOUS
 62
     2
 10
203.500316722941
 20
-1.18688669215928
 30
0.0
 40
2.99999997871263
  1
X
 50
359.999999844103
 41
0.983333365784751
 72
     2
 11
205.700316808758
 21
0.313113291222085
 31
0.0
 73
     2
  0
INSERT
  5
   6E5
  8
0
  6
CONTINUOUS
 62
     3
  2
*UDIM325
 10
0.0
 20
0.0
 30
0.0
  0
LINE
  5
   6E6
  8
0
  6
DASHDOT
 62
     2
 10
271.727703288198
 20
29.1360327601433
 30
0.0
 11
271.727703288198
 21
16.53603297472
 31
0.0
  0
LINE
  5
   6E7
  8
0
  6
DASHDOT
 62
     2
 10
265.427703395486
 20
22.8360328674316
 30
0.0
 11
278.027703180909
 21
22.8360328674316
 31
0.0
  0
LINE
  5
   6E8
  8
0
  6
DASHDOT
 62
     2
 10
213.277704283595
 20
29.1360327601433
 30
0.0
 11
213.277704283595
 21
16.53603297472
 31
0.0
  0
LINE
  5
   6E9
  8
0
  6
DASHDOT
 62
     2
 10
206.977704390883
 20
22.8360328674316
 30
0.0
 11
219.577704176307
 21
22.8360328674316
 31
0.0
  0
LINE
  5
   6EA
  8
0
  6
DASHDOT
 62
     2
 10
213.277704283595
 20
-15.6639664769173
 30
0.0
 11
213.277704283595
 21
-28.2639662623405
 31
0.0
  0
LINE
  5
   6EB
  8
0
  6
DASHDOT
 62
     2
 10
206.977704390883
 20
-21.9639663696289
 30
0.0
 11
219.577704176307
 21
-21.9639663696289
 31
0.0
  0
LINE
  5
   6EC
  8
0
  6
DASHDOT
 62
     2
 10
271.727703288198
 20
-15.6639664769173
 30
0.0
 11
271.727703288198
 21
-28.2639662623405
 31
0.0
  0
LINE
  5
   6ED
  8
0
  6
DASHDOT
 62
     2
 10
265.427703395486
 20
-21.9639663696289
 30
0.0
 11
278.027703180909
 21
-21.9639663696289
 31
0.0
  0
INSERT
  5
   6EE
  8
0
  6
CONTINUOUS
 62
     3
  2
*UDIM326
 10
0.0
 20
0.0
 30
0.0
  0
INSERT
  5
   6EF
  8
0
  6
CONTINUOUS
 62
     3
  2
*UDIM327
 10
0.0
 20
0.0
 30
0.0
  0
TEXT
  5
   6F0
  8
0
  6
CONTINUOUS
 62
     2
 10
242.497902770819
 20
30.4682283409121
 30
0.0
 40
2.99999997871263
  1
Y
 50
359.999999844103
 41
0.983333365784751
 72
     2
 11
244.697902856636
 21
31.9682283242934
 31
0.0
 73
     2
  0
INSERT
  5
   6F1
  8
0
  6
CONTINUOUS
 62
     3
  2
*UDIM328
 10
0.0
 20
0.0
 30
0.0
  0
INSERT
  5
   6F2
  8
0
  6
CONTINUOUS
 62
     3
  2
*UDIM329
 10
0.0
 20
0.0
 30
0.0
  0
INSERT
  5
   6F3
  8
0
  6
CONTINUOUS
 62
     3
  2
*UDIM330
 10
0.0
 20
0.0
 30
0.0
  0
ENDSEC
  0
EOF
