  0
SECTION
  2
HEADER
  9
$ACADVER
  1
AC1009
  9
$INSBASE
 10
0.0
 20
0.0
 30
0.0
  9
$EXTMIN
 10
0.237099
 20
0.237999
 30
0.0
  9
$EXTMAX
 10
392.237099
 20
262.737999
 30
0.0
  9
$LIMMIN
 10
0.0
 20
0.0
  9
$LIMMAX
 10
12.0
 20
9.0
  9
$ORTHOMODE
 70
     1
  9
$REGENMODE
 70
     1
  9
$FILLMODE
 70
     1
  9
$QTEXTMODE
 70
     0
  9
$MIRRTEXT
 70
     1
  9
$DRAGMODE
 70
     2
  9
$LTSCALE
 40
5.0
  9
$OSMODE
 70
     0
  9
$ATTMODE
 70
     1
  9
$TEXTSIZE
 40
2.0
  9
$TRACEWID
 40
0.05
  9
$TEXTSTYLE
  7
ROMANS
  9
$CLAYER
  8
0
  9
$CELTYPE
  6
CONTINUOUS
  9
$CECOLOR
 62
   256
  9
$DIMSCALE
 40
1.0
  9
$DIMASZ
 40
0.18
  9
$DIMEXO
 40
0.0625
  9
$DIMDLI
 40
0.38
  9
$DIMRND
 40
0.0
  9
$DIMDLE
 40
0.0
  9
$DIMEXE
 40
0.18
  9
$DIMTP
 40
0.0
  9
$DIMTM
 40
0.0
  9
$DIMTXT
 40
0.18
  9
$DIMCEN
 40
0.09
  9
$DIMTSZ
 40
0.0
  9
$DIMTOL
 70
     0
  9
$DIMLIM
 70
     0
  9
$DIMTIH
 70
     1
  9
$DIMTOH
 70
     1
  9
$DIMSE1
 70
     0
  9
$DIMSE2
 70
     0
  9
$DIMTAD
 70
     0
  9
$DIMZIN
 70
     0
  9
$DIMBLK
  1

  9
$DIMASO
 70
     1
  9
$DIMSHO
 70
     1
  9
$DIMPOST
  1

  9
$DIMAPOST
  1

  9
$DIMALT
 70
     0
  9
$DIMALTD
 70
     2
  9
$DIMALTF
 40
25.4
  9
$DIMLFAC
 40
1.0
  9
$DIMTOFL
 70
     0
  9
$DIMTVP
 40
0.0
  9
$DIMTIX
 70
     0
  9
$DIMSOXD
 70
     0
  9
$DIMSAH
 70
     0
  9
$DIMBLK1
  1

  9
$DIMBLK2
  1

  9
$DIMSTYLE
  2
*UNNAMED
  9
$DIMCLRD
 70
     0
  9
$DIMCLRE
 70
     0
  9
$DIMCLRT
 70
     0
  9
$DIMTFAC
 40
1.0
  9
$DIMGAP
 40
0.09
  9
$LUNITS
 70
     2
  9
$LUPREC
 70
     4
  9
$SKETCHINC
 40
0.1
  9
$FILLETRAD
 40
2.0
  9
$AUNITS
 70
     0
  9
$AUPREC
 70
     0
  9
$MENU
  1
acad
  9
$ELEVATION
 40
0.0
  9
$PELEVATION
 40
0.0
  9
$THICKNESS
 40
0.0
  9
$LIMCHECK
 70
     0
  9
$BLIPMODE
 70
     1
  9
$CHAMFERA
 40
0.0
  9
$CHAMFERB
 40
0.0
  9
$SKPOLY
 70
     0
  9
$TDCREATE
 40
2449869.405549653
  9
$TDUPDATE
 40
2450006.588182060
  9
$TDINDWG
 40
0.0355229167
  9
$TDUSRTIMER
 40
0.0355229167
  9
$USRTIMER
 70
     1
  9
$ANGBASE
 50
0.0
  9
$ANGDIR
 70
     0
  9
$PDMODE
 70
     0
  9
$PDSIZE
 40
0.0
  9
$PLINEWID
 40
0.0
  9
$COORDS
 70
     2
  9
$SPLFRAME
 70
     0
  9
$SPLINETYPE
 70
     6
  9
$SPLINESEGS
 70
     8
  9
$ATTDIA
 70
     0
  9
$ATTREQ
 70
     1
  9
$HANDLING
 70
     0
  9
$HANDSEED
  5
0
  9
$SURFTAB1
 70
   250
  9
$SURFTAB2
 70
   250
  9
$SURFTYPE
 70
     6
  9
$SURFU
 70
     6
  9
$SURFV
 70
     6
  9
$UCSNAME
  2

  9
$UCSORG
 10
0.0
 20
0.0
 30
0.0
  9
$UCSXDIR
 10
1.0
 20
0.0
 30
0.0
  9
$UCSYDIR
 10
0.0
 20
1.0
 30
0.0
  9
$PUCSNAME
  2

  9
$PUCSORG
 10
0.0
 20
0.0
 30
0.0
  9
$PUCSXDIR
 10
1.0
 20
0.0
 30
0.0
  9
$PUCSYDIR
 10
0.0
 20
1.0
 30
0.0
  9
$USERI1
 70
     0
  9
$USERI2
 70
     0
  9
$USERI3
 70
     0
  9
$USERI4
 70
     0
  9
$USERI5
 70
     0
  9
$USERR1
 40
0.0
  9
$USERR2
 40
0.0
  9
$USERR3
 40
0.0
  9
$USERR4
 40
0.0
  9
$USERR5
 40
0.0
  9
$WORLDVIEW
 70
     1
  9
$SHADEDGE
 70
     3
  9
$SHADEDIF
 70
    70
  9
$TILEMODE
 70
     1
  9
$MAXACTVP
 70
    16
  9
$PINSBASE
 10
0.0
 20
0.0
 30
0.0
  9
$PLIMCHECK
 70
     0
  9
$PEXTMIN
 10
1.000000E+20
 20
1.000000E+20
 30
1.000000E+20
  9
$PEXTMAX
 10
-1.000000E+20
 20
-1.000000E+20
 30
-1.000000E+20
  9
$PLIMMIN
 10
0.0
 20
0.0
  9
$PLIMMAX
 10
12.0
 20
9.0
  9
$UNITMODE
 70
     0
  9
$VISRETAIN
 70
     0
  9
$PLINEGEN
 70
     0
  9
$PSLTSCALE
 70
     0
  9
$TREEDEPTH
 70
  3020
  9
$DWGCODEPAGE
  3
undefined
  0
ENDSEC
  0
SECTION
  2
TABLES
  0
TABLE
  2
VPORT
 70
     2
  0
VPORT
  2
*ACTIVE
 70
     0
 10
0.0
 20
0.0
 11
1.0
 21
1.0
 12
222.522843
 22
142.040485
 13
0.0
 23
0.0
 14
2.5
 24
2.5
 15
0.0
 25
0.0
 16
0.0
 26
0.0
 36
1.0
 17
0.0
 27
0.0
 37
0.0
 40
284.080971
 41
1.566616
 42
50.0
 43
0.0
 44
0.0
 50
0.0
 51
0.0
 71
     0
 72
   100
 73
     1
 74
     1
 75
     1
 76
     0
 77
     0
 78
     0
  0
ENDTAB
  0
TABLE
  2
LTYPE
 70
     7
  0
LTYPE
  2
CONTINUOUS
 70
    64
  3
Solid line
 72
    65
 73
     0
 40
0.0
  0
LTYPE
  2
DASHED
 70
    64
  3
__ __ __ __ __ __ __ __ __ __ __ __ __ __ __ __
 72
    65
 73
     2
 40
0.75
 49
0.5
 49
-0.25
  0
LTYPE
  2
CENTER
 70
    64
  3
____ _ ____ _ ____ _ ____ _ ____ _ ____ _ ____ 
 72
    65
 73
     4
 40
2.0
 49
1.25
 49
-0.25
 49
0.25
 49
-0.25
  0
LTYPE
  2
HIDDEN
 70
    64
  3
__ __ __ __ __ __ __ __ __ __ __ __ __ __ __ __
 72
    65
 73
     2
 40
0.375
 49
0.25
 49
-0.125
  0
LTYPE
  2
DOT
 70
     0
  3
. . . . . . . . . . . . . . . . . . . . . . . .
 72
    65
 73
     2
 40
0.25
 49
0.0
 49
-0.25
  0
LTYPE
  2
DASHDOT
 70
     0
  3
__ . __ . __ . __ . __ . __ . __ . __ . __ . __
 72
    65
 73
     4
 40
1.0
 49
0.5
 49
-0.25
 49
0.0
 49
-0.25
  0
LTYPE
  2
PHANTOM
 70
     0
  3
______  __  __  ______  __  __  ______  __  __ 
 72
    65
 73
     6
 40
2.5
 49
1.25
 49
-0.25
 49
0.25
 49
-0.25
 49
0.25
 49
-0.25
  0
ENDTAB
  0
TABLE
  2
LAYER
 70
    13
  0
LAYER
  2
0
 70
    64
 62
     7
  6
CONTINUOUS
  0
LAYER
  2
RAAMI
 70
    64
 62
    -4
  6
CONTINUOUS
  0
LAYER
  2
PAKSU
 70
    64
 62
    -3
  6
CONTINUOUS
  0
LAYER
  2
OHUT
 70
    64
 62
    -6
  6
CONTINUOUS
  0
LAYER
  2
SWEDEN
 70
    64
 62
    -7
  6
CONTINUOUS
  0
LAYER
  2
SWEDEN2
 70
    64
 62
    -5
  6
CONTINUOUS
  0
LAYER
  2
BASE
 70
    64
 62
    -7
  6
CONTINUOUS
  0
LAYER
  2
21
 70
    64
 62
    -2
  6
CONTINUOUS
  0
LAYER
  2
HEL035
 70
    64
 62
    -7
  6
CONTINUOUS
  0
LAYER
  2
MUO
 70
    64
 62
    -7
  6
CONTINUOUS
  0
LAYER
  2
1
 70
    64
 62
    -2
  6
CONTINUOUS
  0
LAYER
  2
BASE1
 70
    64
 62
    -5
  6
CONTINUOUS
  0
LAYER
  2
TEKS
 70
    64
 62
    -5
  6
CONTINUOUS
  0
ENDTAB
  0
TABLE
  2
STYLE
 70
     4
  0
STYLE
  2
STANDARD
 70
    64
 40
0.0
 41
1.0
 50
0.0
 71
     0
 42
2.5
  3
txt
  4

  0
STYLE
  2
ROMANS
 70
    64
 40
0.0
 41
1.0
 50
0.0
 71
     0
 42
2.0
  3
romans
  4

  0
STYLE
  2
GREEKC
 70
     0
 40
0.0
 41
1.0
 50
0.0
 71
     0
 42
1.5
  3
GREEKC
  4

  0
STYLE
  2
GREEKS
 70
    64
 40
0.0
 41
1.0
 50
0.0
 71
     0
 42
2.0
  3
TXT
  4

  0
ENDTAB
  0
TABLE
  2
VIEW
 70
     0
  0
ENDTAB
  0
TABLE
  2
UCS
 70
     0
  0
ENDTAB
  0
TABLE
  2
APPID
 70
     1
  0
APPID
  2
ACAD
 70
    64
  0
ENDTAB
  0
TABLE
  2
DIMSTYLE
 70
     0
  0
ENDTAB
  0
ENDSEC
  0
SECTION
  2
BLOCKS
  0
BLOCK
  8
0
  2
1
 70
    64
 10
0.0
 20
0.0
 30
0.0
  3
1
  0
ENDBLK
  8
0
  0
BLOCK
  8
0
  2
BLC27
 70
    64
 10
0.0
 20
0.0
 30
0.0
  3
BLC27
  0
INSERT
  8
SWEDEN2
  6
CENTER
  2
BLC26
 10
0.08063
 20
0.037985
 30
0.0
 41
1.006225
 42
1.006225
 43
1.006225
  0
ENDBLK
  8
0
  0
BLOCK
  8
0
  2
BLC26
 70
    64
 10
0.0
 20
0.0
 30
0.0
  3
BLC26
  0
ARC
  8
0
  6
CONTINUOUS
 10
-0.180576
 20
1.17922
 30
0.0
 40
1.196859
 50
90.0
 51
265.706237
  0
LINE
  8
0
  6
CONTINUOUS
 10
-0.186638
 20
-0.01092
 30
0.0
 11
0.458942
 21
-0.01092
 31
0.0
  0
LINE
  8
0
  6
CONTINUOUS
 10
-0.186638
 20
2.375671
 30
0.0
 11
0.45288
 21
2.375671
 31
0.0
  0
LINE
  8
0
  6
CONTINUOUS
 10
-0.185509
 20
-2.404629
 30
0.0
 11
0.460071
 21
-2.404629
 31
0.0
  0
ARC
  8
0
  6
CONTINUOUS
 10
-0.180576
 20
-1.207779
 30
0.0
 40
1.196859
 50
90.0
 51
270.0
  0
LINE
  8
0
  6
CONTINUOUS
 10
0.451525
 20
-2.404586
 30
0.0
 11
1.401805
 21
-2.404586
 31
0.0
  0
LINE
  8
0
  6
CONTINUOUS
 10
0.446785
 20
2.375674
 30
0.0
 11
1.418544
 21
2.375674
 31
0.0
  0
LINE
  8
0
  6
CONTINUOUS
 10
0.456627
 20
-0.010911
 30
0.0
 11
1.422749
 21
-0.010911
 31
0.0
  0
ENDBLK
  8
0
  0
BLOCK
  8
0
  2
BLC29
 70
    64
 10
0.0
 20
0.0
 30
0.0
  3
BLC29
  0
LINE
  8
0
  6
CONTINUOUS
 10
0.004865
 20
1.206889
 30
0.0
 11
2.350631
 21
-0.128465
 31
0.0
  0
LINE
  8
0
  6
CONTINUOUS
 10
2.350631
 20
-0.128465
 30
0.0
 11
0.004865
 21
-1.318384
 31
0.0
  0
ENDBLK
  8
0
  0
BLOCK
  8
0
  2
WKU130
 70
    64
 10
190.0
 20
250.0
 30
0.0
  3
WKU130
  0
ARC
  8
21
 10
191.083333
 20
249.916667
 30
0.0
 40
1.086534
 50
32.471192
 51
175.601295
  0
ARC
  8
21
 10
192.916667
 20
251.083333
 30
0.0
 40
1.086534
 50
212.471192
 51
355.601295
  0
ENDBLK
  8
0
  0
BLOCK
  8
0
  2
*X5
 70
    65
 10
0.0
 20
0.0
 30
0.0
  3
*X
  0
LINE
  8
0
 62
     0
 10
2.284499
 20
6.52714
 30
0.0
 11
4.8
 21
9.042641
 31
0.0
  0
LINE
  8
0
 62
     0
 10
2.379686
 20
6.799104
 30
0.0
 11
4.8
 21
9.219417
 31
0.0
  0
LINE
  8
0
 62
     0
 10
2.474874
 20
7.071068
 30
0.0
 11
4.8
 21
9.396194
 31
0.0
  0
LINE
  8
0
 62
     0
 10
2.570061
 20
7.343032
 30
0.0
 11
4.8
 21
9.572971
 31
0.0
  0
LINE
  8
0
 62
     0
 10
2.665249
 20
7.614996
 30
0.0
 11
4.8
 21
9.749747
 31
0.0
  0
LINE
  8
0
 62
     0
 10
2.760436
 20
7.88696
 30
0.0
 11
4.8
 21
9.926524
 31
0.0
  0
LINE
  8
0
 62
     0
 10
2.855624
 20
8.158924
 30
0.0
 11
4.696699
 21
10.0
 31
0.0
  0
LINE
  8
0
 62
     0
 10
2.950811
 20
8.430889
 30
0.0
 11
4.519922
 21
10.0
 31
0.0
  0
LINE
  8
0
 62
     0
 10
3.045998
 20
8.702853
 30
0.0
 11
4.343146
 21
10.0
 31
0.0
  0
LINE
  8
0
 62
     0
 10
3.141186
 20
8.974817
 30
0.0
 11
4.166369
 21
10.0
 31
0.0
  0
LINE
  8
0
 62
     0
 10
3.236373
 20
9.246781
 30
0.0
 11
3.989592
 21
10.0
 31
0.0
  0
LINE
  8
0
 62
     0
 10
3.331561
 20
9.518745
 30
0.0
 11
3.812816
 21
10.0
 31
0.0
  0
LINE
  8
0
 62
     0
 10
3.426748
 20
9.790709
 30
0.0
 11
3.636039
 21
10.0
 31
0.0
  0
LINE
  8
0
 62
     0
 10
2.189311
 20
6.255175
 30
0.0
 11
4.8
 21
8.865864
 31
0.0
  0
LINE
  8
0
 62
     0
 10
2.094124
 20
5.983211
 30
0.0
 11
4.8
 21
8.689087
 31
0.0
  0
LINE
  8
0
 62
     0
 10
1.998936
 20
5.711247
 30
0.0
 11
4.8
 21
8.512311
 31
0.0
  0
LINE
  8
0
 62
     0
 10
1.903749
 20
5.439283
 30
0.0
 11
4.8
 21
8.335534
 31
0.0
  0
LINE
  8
0
 62
     0
 10
1.841243
 20
5.2
 30
0.0
 11
4.8
 21
8.158757
 31
0.0
  0
LINE
  8
0
 62
     0
 10
2.018019
 20
5.2
 30
0.0
 11
4.8
 21
7.981981
 31
0.0
  0
LINE
  8
0
 62
     0
 10
2.194796
 20
5.2
 30
0.0
 11
4.8
 21
7.805204
 31
0.0
  0
LINE
  8
0
 62
     0
 10
2.371573
 20
5.2
 30
0.0
 11
4.8
 21
7.628427
 31
0.0
  0
LINE
  8
0
 62
     0
 10
2.54835
 20
5.2
 30
0.0
 11
4.8
 21
7.45165
 31
0.0
  0
LINE
  8
0
 62
     0
 10
2.725126
 20
5.2
 30
0.0
 11
4.8
 21
7.274874
 31
0.0
  0
LINE
  8
0
 62
     0
 10
2.901903
 20
5.2
 30
0.0
 11
4.8
 21
7.098097
 31
0.0
  0
LINE
  8
0
 62
     0
 10
3.07868
 20
5.2
 30
0.0
 11
4.8
 21
6.92132
 31
0.0
  0
LINE
  8
0
 62
     0
 10
3.255456
 20
5.2
 30
0.0
 11
4.8
 21
6.744544
 31
0.0
  0
LINE
  8
0
 62
     0
 10
3.432233
 20
5.2
 30
0.0
 11
4.8
 21
6.567767
 31
0.0
  0
LINE
  8
0
 62
     0
 10
3.60901
 20
5.2
 30
0.0
 11
4.8
 21
6.39099
 31
0.0
  0
LINE
  8
0
 62
     0
 10
3.785786
 20
5.2
 30
0.0
 11
4.8
 21
6.214214
 31
0.0
  0
LINE
  8
0
 62
     0
 10
3.962563
 20
5.2
 30
0.0
 11
4.8
 21
6.037437
 31
0.0
  0
LINE
  8
0
 62
     0
 10
4.13934
 20
5.2
 30
0.0
 11
4.8
 21
5.86066
 31
0.0
  0
LINE
  8
0
 62
     0
 10
4.316117
 20
5.2
 30
0.0
 11
4.8
 21
5.683883
 31
0.0
  0
LINE
  8
0
 62
     0
 10
4.492893
 20
5.2
 30
0.0
 11
4.8
 21
5.507107
 31
0.0
  0
LINE
  8
0
 62
     0
 10
4.66967
 20
5.2
 30
0.0
 11
4.8
 21
5.33033
 31
0.0
  0
ENDBLK
  8
0
  0
BLOCK
  8
0
  2
*X6
 70
    65
 10
0.0
 20
0.0
 30
0.0
  3
*X
  0
LINE
  8
0
 62
     0
 10
5.2
 20
6.083883
 30
0.0
 11
7.178252
 21
8.062136
 31
0.0
  0
LINE
  8
0
 62
     0
 10
5.2
 20
6.26066
 30
0.0
 11
7.132421
 21
8.193082
 31
0.0
  0
LINE
  8
0
 62
     0
 10
5.2
 20
6.437437
 30
0.0
 11
7.08659
 21
8.324027
 31
0.0
  0
LINE
  8
0
 62
     0
 10
5.2
 20
6.614214
 30
0.0
 11
7.040759
 21
8.454973
 31
0.0
  0
LINE
  8
0
 62
     0
 10
5.2
 20
6.79099
 30
0.0
 11
6.994928
 21
8.585919
 31
0.0
  0
LINE
  8
0
 62
     0
 10
5.2
 20
6.967767
 30
0.0
 11
6.949097
 21
8.716864
 31
0.0
  0
LINE
  8
0
 62
     0
 10
5.2
 20
7.144544
 30
0.0
 11
6.903266
 21
8.84781
 31
0.0
  0
LINE
  8
0
 62
     0
 10
5.2
 20
7.32132
 30
0.0
 11
6.857435
 21
8.978756
 31
0.0
  0
LINE
  8
0
 62
     0
 10
5.2
 20
7.498097
 30
0.0
 11
6.811604
 21
9.109702
 31
0.0
  0
LINE
  8
0
 62
     0
 10
5.2
 20
7.674874
 30
0.0
 11
6.765773
 21
9.240647
 31
0.0
  0
LINE
  8
0
 62
     0
 10
5.2
 20
7.85165
 30
0.0
 11
6.719942
 21
9.371593
 31
0.0
  0
LINE
  8
0
 62
     0
 10
5.2
 20
8.028427
 30
0.0
 11
6.674111
 21
9.502539
 31
0.0
  0
LINE
  8
0
 62
     0
 10
5.2
 20
8.205204
 30
0.0
 11
6.62828
 21
9.633484
 31
0.0
  0
LINE
  8
0
 62
     0
 10
5.2
 20
8.381981
 30
0.0
 11
6.582449
 21
9.76443
 31
0.0
  0
LINE
  8
0
 62
     0
 10
5.2
 20
8.558757
 30
0.0
 11
6.536619
 21
9.895376
 31
0.0
  0
LINE
  8
0
 62
     0
 10
5.2
 20
8.735534
 30
0.0
 11
6.464466
 21
10.0
 31
0.0
  0
LINE
  8
0
 62
     0
 10
5.2
 20
8.912311
 30
0.0
 11
6.287689
 21
10.0
 31
0.0
  0
LINE
  8
0
 62
     0
 10
5.2
 20
9.089087
 30
0.0
 11
6.110913
 21
10.0
 31
0.0
  0
LINE
  8
0
 62
     0
 10
5.2
 20
9.265864
 30
0.0
 11
5.934136
 21
10.0
 31
0.0
  0
LINE
  8
0
 62
     0
 10
5.2
 20
9.442641
 30
0.0
 11
5.757359
 21
10.0
 31
0.0
  0
LINE
  8
0
 62
     0
 10
5.2
 20
9.619417
 30
0.0
 11
5.580583
 21
10.0
 31
0.0
  0
LINE
  8
0
 62
     0
 10
5.2
 20
9.796194
 30
0.0
 11
5.403806
 21
10.0
 31
0.0
  0
LINE
  8
0
 62
     0
 10
5.2
 20
9.972971
 30
0.0
 11
5.227029
 21
10.0
 31
0.0
  0
LINE
  8
0
 62
     0
 10
5.2
 20
5.907107
 30
0.0
 11
7.224083
 21
7.93119
 31
0.0
  0
LINE
  8
0
 62
     0
 10
5.2
 20
5.73033
 30
0.0
 11
7.269914
 21
7.800245
 31
0.0
  0
LINE
  8
0
 62
     0
 10
5.2
 20
5.553553
 30
0.0
 11
7.315745
 21
7.669299
 31
0.0
  0
LINE
  8
0
 62
     0
 10
5.2
 20
5.376777
 30
0.0
 11
7.361576
 21
7.538353
 31
0.0
  0
LINE
  8
0
 62
     0
 10
5.2
 20
5.2
 30
0.0
 11
7.407407
 21
7.407407
 31
0.0
  0
LINE
  8
0
 62
     0
 10
5.376777
 20
5.2
 30
0.0
 11
7.453238
 21
7.276462
 31
0.0
  0
LINE
  8
0
 62
     0
 10
5.553553
 20
5.2
 30
0.0
 11
7.499069
 21
7.145516
 31
0.0
  0
LINE
  8
0
 62
     0
 10
5.73033
 20
5.2
 30
0.0
 11
7.5449
 21
7.01457
 31
0.0
  0
LINE
  8
0
 62
     0
 10
5.907107
 20
5.2
 30
0.0
 11
7.590731
 21
6.883625
 31
0.0
  0
LINE
  8
0
 62
     0
 10
6.083883
 20
5.2
 30
0.0
 11
7.636562
 21
6.752679
 31
0.0
  0
LINE
  8
0
 62
     0
 10
6.26066
 20
5.2
 30
0.0
 11
7.682393
 21
6.621733
 31
0.0
  0
LINE
  8
0
 62
     0
 10
6.437437
 20
5.2
 30
0.0
 11
7.728224
 21
6.490788
 31
0.0
  0
LINE
  8
0
 62
     0
 10
6.614214
 20
5.2
 30
0.0
 11
7.774055
 21
6.359842
 31
0.0
  0
LINE
  8
0
 62
     0
 10
6.79099
 20
5.2
 30
0.0
 11
7.819886
 21
6.228896
 31
0.0
  0
LINE
  8
0
 62
     0
 10
6.967767
 20
5.2
 30
0.0
 11
7.865717
 21
6.09795
 31
0.0
  0
LINE
  8
0
 62
     0
 10
7.144544
 20
5.2
 30
0.0
 11
7.911548
 21
5.967005
 31
0.0
  0
LINE
  8
0
 62
     0
 10
7.32132
 20
5.2
 30
0.0
 11
7.957379
 21
5.836059
 31
0.0
  0
LINE
  8
0
 62
     0
 10
7.498097
 20
5.2
 30
0.0
 11
8.00321
 21
5.705113
 31
0.0
  0
LINE
  8
0
 62
     0
 10
7.674874
 20
5.2
 30
0.0
 11
8.049041
 21
5.574168
 31
0.0
  0
LINE
  8
0
 62
     0
 10
7.85165
 20
5.2
 30
0.0
 11
8.094872
 21
5.443222
 31
0.0
  0
LINE
  8
0
 62
     0
 10
8.028427
 20
5.2
 30
0.0
 11
8.140703
 21
5.312276
 31
0.0
  0
ENDBLK
  8
0
  0
BLOCK
  8
0
  2
*X7
 70
    65
 10
0.0
 20
0.0
 30
0.0
  3
*X
  0
LINE
  8
0
 62
     0
 10
0.0
 20
0.0
 30
0.0
 11
4.8
 21
4.8
 31
0.0
  0
LINE
  8
0
 62
     0
 10
0.095187
 20
0.271964
 30
0.0
 11
4.623223
 21
4.8
 31
0.0
  0
LINE
  8
0
 62
     0
 10
0.190375
 20
0.543928
 30
0.0
 11
4.446447
 21
4.8
 31
0.0
  0
LINE
  8
0
 62
     0
 10
0.285562
 20
0.815892
 30
0.0
 11
4.26967
 21
4.8
 31
0.0
  0
LINE
  8
0
 62
     0
 10
0.38075
 20
1.087857
 30
0.0
 11
4.092893
 21
4.8
 31
0.0
  0
LINE
  8
0
 62
     0
 10
0.475937
 20
1.359821
 30
0.0
 11
3.916117
 21
4.8
 31
0.0
  0
LINE
  8
0
 62
     0
 10
0.571125
 20
1.631785
 30
0.0
 11
3.73934
 21
4.8
 31
0.0
  0
LINE
  8
0
 62
     0
 10
0.666312
 20
1.903749
 30
0.0
 11
3.562563
 21
4.8
 31
0.0
  0
LINE
  8
0
 62
     0
 10
0.7615
 20
2.175713
 30
0.0
 11
3.385786
 21
4.8
 31
0.0
  0
LINE
  8
0
 62
     0
 10
0.856687
 20
2.447677
 30
0.0
 11
3.20901
 21
4.8
 31
0.0
  0
LINE
  8
0
 62
     0
 10
0.951875
 20
2.719641
 30
0.0
 11
3.032233
 21
4.8
 31
0.0
  0
LINE
  8
0
 62
     0
 10
1.047062
 20
2.991606
 30
0.0
 11
2.855456
 21
4.8
 31
0.0
  0
LINE
  8
0
 62
     0
 10
1.142249
 20
3.26357
 30
0.0
 11
2.67868
 21
4.8
 31
0.0
  0
LINE
  8
0
 62
     0
 10
1.237437
 20
3.535534
 30
0.0
 11
2.501903
 21
4.8
 31
0.0
  0
LINE
  8
0
 62
     0
 10
1.332624
 20
3.807498
 30
0.0
 11
2.325126
 21
4.8
 31
0.0
  0
LINE
  8
0
 62
     0
 10
1.427812
 20
4.079462
 30
0.0
 11
2.14835
 21
4.8
 31
0.0
  0
LINE
  8
0
 62
     0
 10
1.522999
 20
4.351426
 30
0.0
 11
1.971573
 21
4.8
 31
0.0
  0
LINE
  8
0
 62
     0
 10
1.618187
 20
4.62339
 30
0.0
 11
1.794796
 21
4.8
 31
0.0
  0
LINE
  8
0
 62
     0
 10
0.176777
 20
0.0
 30
0.0
 11
4.8
 21
4.623223
 31
0.0
  0
LINE
  8
0
 62
     0
 10
0.353553
 20
0.0
 30
0.0
 11
4.8
 21
4.446447
 31
0.0
  0
LINE
  8
0
 62
     0
 10
0.53033
 20
0.0
 30
0.0
 11
4.8
 21
4.26967
 31
0.0
  0
LINE
  8
0
 62
     0
 10
0.707107
 20
0.0
 30
0.0
 11
4.8
 21
4.092893
 31
0.0
  0
LINE
  8
0
 62
     0
 10
0.883883
 20
0.0
 30
0.0
 11
4.8
 21
3.916117
 31
0.0
  0
LINE
  8
0
 62
     0
 10
1.06066
 20
0.0
 30
0.0
 11
4.8
 21
3.73934
 31
0.0
  0
LINE
  8
0
 62
     0
 10
1.237437
 20
0.0
 30
0.0
 11
3.179842
 21
1.942405
 31
0.0
  0
LINE
  8
0
 62
     0
 10
3.237437
 20
2.0
 30
0.0
 11
4.8
 21
3.562563
 31
0.0
  0
LINE
  8
0
 62
     0
 10
1.414214
 20
0.0
 30
0.0
 11
3.084654
 21
1.670441
 31
0.0
  0
LINE
  8
0
 62
     0
 10
3.414214
 20
2.0
 30
0.0
 11
4.8
 21
3.385786
 31
0.0
  0
LINE
  8
0
 62
     0
 10
1.59099
 20
0.0
 30
0.0
 11
2.989467
 21
1.398477
 31
0.0
  0
LINE
  8
0
 62
     0
 10
3.59099
 20
2.0
 30
0.0
 11
4.8
 21
3.20901
 31
0.0
  0
LINE
  8
0
 62
     0
 10
1.767767
 20
0.0
 30
0.0
 11
2.894279
 21
1.126512
 31
0.0
  0
LINE
  8
0
 62
     0
 10
3.767767
 20
2.0
 30
0.0
 11
4.8
 21
3.032233
 31
0.0
  0
LINE
  8
0
 62
     0
 10
1.944544
 20
0.0
 30
0.0
 11
2.799092
 21
0.854548
 31
0.0
  0
LINE
  8
0
 62
     0
 10
3.944544
 20
2.0
 30
0.0
 11
4.8
 21
2.855456
 31
0.0
  0
LINE
  8
0
 62
     0
 10
2.12132
 20
0.0
 30
0.0
 11
2.703904
 21
0.582584
 31
0.0
  0
LINE
  8
0
 62
     0
 10
4.12132
 20
2.0
 30
0.0
 11
4.8
 21
2.67868
 31
0.0
  0
LINE
  8
0
 62
     0
 10
2.298097
 20
0.0
 30
0.0
 11
2.608717
 21
0.31062
 31
0.0
  0
LINE
  8
0
 62
     0
 10
4.298097
 20
2.0
 30
0.0
 11
4.8
 21
2.501903
 31
0.0
  0
LINE
  8
0
 62
     0
 10
2.474874
 20
0.0
 30
0.0
 11
2.51353
 21
0.038656
 31
0.0
  0
LINE
  8
0
 62
     0
 10
4.474874
 20
2.0
 30
0.0
 11
4.8
 21
2.325126
 31
0.0
  0
LINE
  8
0
 62
     0
 10
4.65165
 20
2.0
 30
0.0
 11
4.8
 21
2.14835
 31
0.0
  0
ENDBLK
  8
0
  0
BLOCK
  8
0
  2
*X8
 70
    65
 10
0.0
 20
0.0
 30
0.0
  3
*X
  0
LINE
  8
0
 62
     0
 10
6.884654
 20
1.75813
 30
0.0
 11
8.736506
 21
3.609982
 31
0.0
  0
LINE
  8
0
 62
     0
 10
6.838823
 20
1.889076
 30
0.0
 11
8.690675
 21
3.740928
 31
0.0
  0
LINE
  8
0
 62
     0
 10
6.772971
 20
2.0
 30
0.0
 11
8.644844
 21
3.871874
 31
0.0
  0
LINE
  8
0
 62
     0
 10
6.596194
 20
2.0
 30
0.0
 11
8.599013
 21
4.002819
 31
0.0
  0
LINE
  8
0
 62
     0
 10
6.419417
 20
2.0
 30
0.0
 11
8.553182
 21
4.133765
 31
0.0
  0
LINE
  8
0
 62
     0
 10
6.242641
 20
2.0
 30
0.0
 11
8.507351
 21
4.264711
 31
0.0
  0
LINE
  8
0
 62
     0
 10
6.065864
 20
2.0
 30
0.0
 11
8.46152
 21
4.395656
 31
0.0
  0
LINE
  8
0
 62
     0
 10
5.889087
 20
2.0
 30
0.0
 11
8.415689
 21
4.526602
 31
0.0
  0
LINE
  8
0
 62
     0
 10
5.712311
 20
2.0
 30
0.0
 11
8.369858
 21
4.657548
 31
0.0
  0
LINE
  8
0
 62
     0
 10
5.535534
 20
2.0
 30
0.0
 11
8.324027
 21
4.788493
 31
0.0
  0
LINE
  8
0
 62
     0
 10
5.358757
 20
2.0
 30
0.0
 11
8.158757
 21
4.8
 31
0.0
  0
LINE
  8
0
 62
     0
 10
5.2
 20
2.018019
 30
0.0
 11
7.981981
 21
4.8
 31
0.0
  0
LINE
  8
0
 62
     0
 10
5.2
 20
2.194796
 30
0.0
 11
7.805204
 21
4.8
 31
0.0
  0
LINE
  8
0
 62
     0
 10
5.2
 20
2.371573
 30
0.0
 11
7.628427
 21
4.8
 31
0.0
  0
LINE
  8
0
 62
     0
 10
5.2
 20
2.54835
 30
0.0
 11
7.45165
 21
4.8
 31
0.0
  0
LINE
  8
0
 62
     0
 10
5.2
 20
2.725126
 30
0.0
 11
7.274874
 21
4.8
 31
0.0
  0
LINE
  8
0
 62
     0
 10
5.2
 20
2.901903
 30
0.0
 11
7.098097
 21
4.8
 31
0.0
  0
LINE
  8
0
 62
     0
 10
5.2
 20
3.07868
 30
0.0
 11
6.92132
 21
4.8
 31
0.0
  0
LINE
  8
0
 62
     0
 10
5.2
 20
3.255456
 30
0.0
 11
6.744544
 21
4.8
 31
0.0
  0
LINE
  8
0
 62
     0
 10
5.2
 20
3.432233
 30
0.0
 11
6.567767
 21
4.8
 31
0.0
  0
LINE
  8
0
 62
     0
 10
5.2
 20
3.60901
 30
0.0
 11
6.39099
 21
4.8
 31
0.0
  0
LINE
  8
0
 62
     0
 10
5.2
 20
3.785786
 30
0.0
 11
6.214214
 21
4.8
 31
0.0
  0
LINE
  8
0
 62
     0
 10
5.2
 20
3.962563
 30
0.0
 11
6.037437
 21
4.8
 31
0.0
  0
LINE
  8
0
 62
     0
 10
5.2
 20
4.13934
 30
0.0
 11
5.86066
 21
4.8
 31
0.0
  0
LINE
  8
0
 62
     0
 10
5.2
 20
4.316117
 30
0.0
 11
5.683883
 21
4.8
 31
0.0
  0
LINE
  8
0
 62
     0
 10
5.2
 20
4.492893
 30
0.0
 11
5.507107
 21
4.8
 31
0.0
  0
LINE
  8
0
 62
     0
 10
5.2
 20
4.66967
 30
0.0
 11
5.33033
 21
4.8
 31
0.0
  0
LINE
  8
0
 62
     0
 10
6.930485
 20
1.627185
 30
0.0
 11
8.782337
 21
3.479036
 31
0.0
  0
LINE
  8
0
 62
     0
 10
6.976316
 20
1.496239
 30
0.0
 11
8.828168
 21
3.348091
 31
0.0
  0
LINE
  8
0
 62
     0
 10
7.022147
 20
1.365293
 30
0.0
 11
8.873999
 21
3.217145
 31
0.0
  0
LINE
  8
0
 62
     0
 10
7.067978
 20
1.234347
 30
0.0
 11
8.91983
 21
3.086199
 31
0.0
  0
LINE
  8
0
 62
     0
 10
7.113809
 20
1.103402
 30
0.0
 11
8.965661
 21
2.955254
 31
0.0
  0
LINE
  8
0
 62
     0
 10
7.15964
 20
0.972456
 30
0.0
 11
9.011492
 21
2.824308
 31
0.0
  0
LINE
  8
0
 62
     0
 10
7.205471
 20
0.84151
 30
0.0
 11
9.057323
 21
2.693362
 31
0.0
  0
LINE
  8
0
 62
     0
 10
7.251302
 20
0.710565
 30
0.0
 11
9.103154
 21
2.562416
 31
0.0
  0
LINE
  8
0
 62
     0
 10
7.297133
 20
0.579619
 30
0.0
 11
9.148985
 21
2.431471
 31
0.0
  0
LINE
  8
0
 62
     0
 10
7.342964
 20
0.448673
 30
0.0
 11
9.194816
 21
2.300525
 31
0.0
  0
LINE
  8
0
 62
     0
 10
7.388795
 20
0.317728
 30
0.0
 11
9.240647
 21
2.169579
 31
0.0
  0
LINE
  8
0
 62
     0
 10
7.434626
 20
0.186782
 30
0.0
 11
9.286478
 21
2.038634
 31
0.0
  0
LINE
  8
0
 62
     0
 10
7.480457
 20
0.055836
 30
0.0
 11
9.332309
 21
1.907688
 31
0.0
  0
LINE
  8
0
 62
     0
 10
7.601398
 20
0.0
 30
0.0
 11
9.37814
 21
1.776742
 31
0.0
  0
LINE
  8
0
 62
     0
 10
7.778175
 20
0.0
 30
0.0
 11
9.423971
 21
1.645797
 31
0.0
  0
LINE
  8
0
 62
     0
 10
7.954951
 20
0.0
 30
0.0
 11
9.469802
 21
1.514851
 31
0.0
  0
LINE
  8
0
 62
     0
 10
8.131728
 20
0.0
 30
0.0
 11
9.515633
 21
1.383905
 31
0.0
  0
LINE
  8
0
 62
     0
 10
8.308505
 20
0.0
 30
0.0
 11
9.561464
 21
1.252959
 31
0.0
  0
LINE
  8
0
 62
     0
 10
8.485281
 20
0.0
 30
0.0
 11
9.607295
 21
1.122014
 31
0.0
  0
LINE
  8
0
 62
     0
 10
8.662058
 20
0.0
 30
0.0
 11
9.653126
 21
0.991068
 31
0.0
  0
LINE
  8
0
 62
     0
 10
8.838835
 20
0.0
 30
0.0
 11
9.698957
 21
0.860122
 31
0.0
  0
LINE
  8
0
 62
     0
 10
9.015611
 20
0.0
 30
0.0
 11
9.744788
 21
0.729177
 31
0.0
  0
LINE
  8
0
 62
     0
 10
9.192388
 20
0.0
 30
0.0
 11
9.790619
 21
0.598231
 31
0.0
  0
LINE
  8
0
 62
     0
 10
9.369165
 20
0.0
 30
0.0
 11
9.83645
 21
0.467285
 31
0.0
  0
LINE
  8
0
 62
     0
 10
9.545942
 20
0.0
 30
0.0
 11
9.882281
 21
0.33634
 31
0.0
  0
LINE
  8
0
 62
     0
 10
9.722718
 20
0.0
 30
0.0
 11
9.928112
 21
0.205394
 31
0.0
  0
LINE
  8
0
 62
     0
 10
9.899495
 20
0.0
 30
0.0
 11
9.973943
 21
0.074448
 31
0.0
  0
ENDBLK
  8
0
  0
BLOCK
  8
0
  2
*X9
 70
    65
 10
0.0
 20
0.0
 30
0.0
  3
*X
  0
LINE
  8
0
 62
     0
 10
10.7
 20
6.280583
 30
0.0
 11
13.5
 21
9.080583
 31
0.0
  0
LINE
  8
0
 62
     0
 10
10.7
 20
6.457359
 30
0.0
 11
13.5
 21
9.257359
 31
0.0
  0
LINE
  8
0
 62
     0
 10
10.7
 20
6.634136
 30
0.0
 11
13.5
 21
9.434136
 31
0.0
  0
LINE
  8
0
 62
     0
 10
10.7
 20
6.810913
 30
0.0
 11
13.5
 21
9.610913
 31
0.0
  0
LINE
  8
0
 62
     0
 10
10.7
 20
6.987689
 30
0.0
 11
13.5
 21
9.787689
 31
0.0
  0
LINE
  8
0
 62
     0
 10
10.7
 20
7.164466
 30
0.0
 11
13.5
 21
9.964466
 31
0.0
  0
LINE
  8
0
 62
     0
 10
10.7
 20
7.341243
 30
0.0
 11
13.358757
 21
10.0
 31
0.0
  0
LINE
  8
0
 62
     0
 10
10.7
 20
7.518019
 30
0.0
 11
13.181981
 21
10.0
 31
0.0
  0
LINE
  8
0
 62
     0
 10
10.7
 20
7.694796
 30
0.0
 11
13.005204
 21
10.0
 31
0.0
  0
LINE
  8
0
 62
     0
 10
10.7
 20
7.871573
 30
0.0
 11
12.828427
 21
10.0
 31
0.0
  0
LINE
  8
0
 62
     0
 10
10.7
 20
8.04835
 30
0.0
 11
12.65165
 21
10.0
 31
0.0
  0
LINE
  8
0
 62
     0
 10
10.7
 20
8.225126
 30
0.0
 11
12.474874
 21
10.0
 31
0.0
  0
LINE
  8
0
 62
     0
 10
10.7
 20
8.401903
 30
0.0
 11
12.298097
 21
10.0
 31
0.0
  0
LINE
  8
0
 62
     0
 10
10.7
 20
8.57868
 30
0.0
 11
12.12132
 21
10.0
 31
0.0
  0
LINE
  8
0
 62
     0
 10
10.7
 20
8.755456
 30
0.0
 11
11.944544
 21
10.0
 31
0.0
  0
LINE
  8
0
 62
     0
 10
10.7
 20
8.932233
 30
0.0
 11
11.767767
 21
10.0
 31
0.0
  0
LINE
  8
0
 62
     0
 10
10.7
 20
9.10901
 30
0.0
 11
11.59099
 21
10.0
 31
0.0
  0
LINE
  8
0
 62
     0
 10
10.7
 20
9.285786
 30
0.0
 11
11.414214
 21
10.0
 31
0.0
  0
LINE
  8
0
 62
     0
 10
10.7
 20
9.462563
 30
0.0
 11
11.237437
 21
10.0
 31
0.0
  0
LINE
  8
0
 62
     0
 10
10.7
 20
9.63934
 30
0.0
 11
11.06066
 21
10.0
 31
0.0
  0
LINE
  8
0
 62
     0
 10
10.7
 20
9.816117
 30
0.0
 11
10.883883
 21
10.0
 31
0.0
  0
LINE
  8
0
 62
     0
 10
10.7
 20
9.992893
 30
0.0
 11
10.707107
 21
10.0
 31
0.0
  0
LINE
  8
0
 62
     0
 10
10.7
 20
6.103806
 30
0.0
 11
13.5
 21
8.903806
 31
0.0
  0
LINE
  8
0
 62
     0
 10
10.7
 20
5.927029
 30
0.0
 11
13.5
 21
8.727029
 31
0.0
  0
LINE
  8
0
 62
     0
 10
10.7
 20
5.750253
 30
0.0
 11
13.5
 21
8.550253
 31
0.0
  0
LINE
  8
0
 62
     0
 10
10.7
 20
5.573476
 30
0.0
 11
13.5
 21
8.373476
 31
0.0
  0
LINE
  8
0
 62
     0
 10
10.7
 20
5.396699
 30
0.0
 11
13.5
 21
8.196699
 31
0.0
  0
LINE
  8
0
 62
     0
 10
10.7
 20
5.219922
 30
0.0
 11
13.5
 21
8.019922
 31
0.0
  0
LINE
  8
0
 62
     0
 10
10.856854
 20
5.2
 30
0.0
 11
13.5
 21
7.843146
 31
0.0
  0
LINE
  8
0
 62
     0
 10
11.033631
 20
5.2
 30
0.0
 11
13.5
 21
7.666369
 31
0.0
  0
LINE
  8
0
 62
     0
 10
11.210408
 20
5.2
 30
0.0
 11
13.5
 21
7.489592
 31
0.0
  0
LINE
  8
0
 62
     0
 10
11.387184
 20
5.2
 30
0.0
 11
13.5
 21
7.312816
 31
0.0
  0
LINE
  8
0
 62
     0
 10
11.563961
 20
5.2
 30
0.0
 11
13.5
 21
7.136039
 31
0.0
  0
LINE
  8
0
 62
     0
 10
11.740738
 20
5.2
 30
0.0
 11
13.5
 21
6.959262
 31
0.0
  0
LINE
  8
0
 62
     0
 10
11.917514
 20
5.2
 30
0.0
 11
13.5
 21
6.782486
 31
0.0
  0
LINE
  8
0
 62
     0
 10
12.094291
 20
5.2
 30
0.0
 11
13.5
 21
6.605709
 31
0.0
  0
LINE
  8
0
 62
     0
 10
12.271068
 20
5.2
 30
0.0
 11
13.5
 21
6.428932
 31
0.0
  0
LINE
  8
0
 62
     0
 10
12.447845
 20
5.2
 30
0.0
 11
13.5
 21
6.252155
 31
0.0
  0
LINE
  8
0
 62
     0
 10
12.624621
 20
5.2
 30
0.0
 11
13.5
 21
6.075379
 31
0.0
  0
LINE
  8
0
 62
     0
 10
12.801398
 20
5.2
 30
0.0
 11
13.5
 21
5.898602
 31
0.0
  0
LINE
  8
0
 62
     0
 10
12.978175
 20
5.2
 30
0.0
 11
13.5
 21
5.721825
 31
0.0
  0
LINE
  8
0
 62
     0
 10
13.154951
 20
5.2
 30
0.0
 11
13.5
 21
5.545049
 31
0.0
  0
LINE
  8
0
 62
     0
 10
13.331728
 20
5.2
 30
0.0
 11
13.5
 21
5.368272
 31
0.0
  0
ENDBLK
  8
0
  0
BLOCK
  8
0
  2
*X10
 70
    65
 10
0.0
 20
0.0
 30
0.0
  3
*X
  0
LINE
  8
0
 62
     0
 10
10.7
 20
1.154058
 30
0.0
 11
13.5
 21
3.954058
 31
0.0
  0
LINE
  8
0
 62
     0
 10
10.7
 20
1.330835
 30
0.0
 11
13.5
 21
4.130835
 31
0.0
  0
LINE
  8
0
 62
     0
 10
10.7
 20
1.507612
 30
0.0
 11
13.5
 21
4.307612
 31
0.0
  0
LINE
  8
0
 62
     0
 10
10.7
 20
1.684389
 30
0.0
 11
13.5
 21
4.484389
 31
0.0
  0
LINE
  8
0
 62
     0
 10
10.7
 20
1.861165
 30
0.0
 11
13.5
 21
4.661165
 31
0.0
  0
LINE
  8
0
 62
     0
 10
10.7
 20
2.037942
 30
0.0
 11
13.462058
 21
4.8
 31
0.0
  0
LINE
  8
0
 62
     0
 10
10.7
 20
2.214719
 30
0.0
 11
13.285281
 21
4.8
 31
0.0
  0
LINE
  8
0
 62
     0
 10
10.7
 20
2.391495
 30
0.0
 11
13.108505
 21
4.8
 31
0.0
  0
LINE
  8
0
 62
     0
 10
10.7
 20
2.568272
 30
0.0
 11
12.931728
 21
4.8
 31
0.0
  0
LINE
  8
0
 62
     0
 10
10.7
 20
2.745049
 30
0.0
 11
12.754951
 21
4.8
 31
0.0
  0
LINE
  8
0
 62
     0
 10
10.7
 20
2.921825
 30
0.0
 11
12.578175
 21
4.8
 31
0.0
  0
LINE
  8
0
 62
     0
 10
10.7
 20
3.098602
 30
0.0
 11
12.401398
 21
4.8
 31
0.0
  0
LINE
  8
0
 62
     0
 10
10.7
 20
3.275379
 30
0.0
 11
12.224621
 21
4.8
 31
0.0
  0
LINE
  8
0
 62
     0
 10
10.7
 20
3.452155
 30
0.0
 11
12.047845
 21
4.8
 31
0.0
  0
LINE
  8
0
 62
     0
 10
10.7
 20
3.628932
 30
0.0
 11
11.871068
 21
4.8
 31
0.0
  0
LINE
  8
0
 62
     0
 10
10.7
 20
3.805709
 30
0.0
 11
11.694291
 21
4.8
 31
0.0
  0
LINE
  8
0
 62
     0
 10
10.7
 20
3.982486
 30
0.0
 11
11.517514
 21
4.8
 31
0.0
  0
LINE
  8
0
 62
     0
 10
10.7
 20
4.159262
 30
0.0
 11
11.340738
 21
4.8
 31
0.0
  0
LINE
  8
0
 62
     0
 10
10.7
 20
4.336039
 30
0.0
 11
11.163961
 21
4.8
 31
0.0
  0
LINE
  8
0
 62
     0
 10
10.7
 20
4.512816
 30
0.0
 11
10.987184
 21
4.8
 31
0.0
  0
LINE
  8
0
 62
     0
 10
10.7
 20
4.689592
 30
0.0
 11
10.810408
 21
4.8
 31
0.0
  0
LINE
  8
0
 62
     0
 10
10.7
 20
0.977282
 30
0.0
 11
13.5
 21
3.777282
 31
0.0
  0
LINE
  8
0
 62
     0
 10
10.7
 20
0.800505
 30
0.0
 11
13.5
 21
3.600505
 31
0.0
  0
LINE
  8
0
 62
     0
 10
10.7
 20
0.623728
 30
0.0
 11
13.5
 21
3.423728
 31
0.0
  0
LINE
  8
0
 62
     0
 10
10.7
 20
0.446952
 30
0.0
 11
13.5
 21
3.246952
 31
0.0
  0
LINE
  8
0
 62
     0
 10
10.7
 20
0.270175
 30
0.0
 11
13.5
 21
3.070175
 31
0.0
  0
LINE
  8
0
 62
     0
 10
10.7
 20
0.093398
 30
0.0
 11
13.5
 21
2.893398
 31
0.0
  0
LINE
  8
0
 62
     0
 10
10.783378
 20
0.0
 30
0.0
 11
13.5
 21
2.716622
 31
0.0
  0
LINE
  8
0
 62
     0
 10
10.960155
 20
0.0
 30
0.0
 11
13.5
 21
2.539845
 31
0.0
  0
LINE
  8
0
 62
     0
 10
11.136932
 20
0.0
 30
0.0
 11
13.5
 21
2.363068
 31
0.0
  0
LINE
  8
0
 62
     0
 10
11.313708
 20
0.0
 30
0.0
 11
13.5
 21
2.186292
 31
0.0
  0
LINE
  8
0
 62
     0
 10
11.490485
 20
0.0
 30
0.0
 11
13.5
 21
2.009515
 31
0.0
  0
LINE
  8
0
 62
     0
 10
11.667262
 20
0.0
 30
0.0
 11
13.5
 21
1.832738
 31
0.0
  0
LINE
  8
0
 62
     0
 10
11.844039
 20
0.0
 30
0.0
 11
13.5
 21
1.655961
 31
0.0
  0
LINE
  8
0
 62
     0
 10
12.020815
 20
0.0
 30
0.0
 11
13.5
 21
1.479185
 31
0.0
  0
LINE
  8
0
 62
     0
 10
12.197592
 20
0.0
 30
0.0
 11
13.5
 21
1.302408
 31
0.0
  0
LINE
  8
0
 62
     0
 10
12.374369
 20
0.0
 30
0.0
 11
13.5
 21
1.125631
 31
0.0
  0
LINE
  8
0
 62
     0
 10
12.551145
 20
0.0
 30
0.0
 11
13.5
 21
0.948855
 31
0.0
  0
LINE
  8
0
 62
     0
 10
12.727922
 20
0.0
 30
0.0
 11
13.5
 21
0.772078
 31
0.0
  0
LINE
  8
0
 62
     0
 10
12.904699
 20
0.0
 30
0.0
 11
13.5
 21
0.595301
 31
0.0
  0
LINE
  8
0
 62
     0
 10
13.081475
 20
0.0
 30
0.0
 11
13.5
 21
0.418525
 31
0.0
  0
LINE
  8
0
 62
     0
 10
13.258252
 20
0.0
 30
0.0
 11
13.5
 21
0.241748
 31
0.0
  0
LINE
  8
0
 62
     0
 10
13.435029
 20
0.0
 30
0.0
 11
13.5
 21
0.064971
 31
0.0
  0
ENDBLK
  8
0
  0
BLOCK
  8
0
  2
*X11
 70
    65
 10
0.0
 20
0.0
 30
0.0
  3
*X
  0
LINE
  8
0
 62
     0
 10
13.9
 20
6.298602
 30
0.0
 11
16.582995
 21
8.981597
 31
0.0
  0
LINE
  8
0
 62
     0
 10
13.9
 20
6.475379
 30
0.0
 11
16.510503
 21
9.085882
 31
0.0
  0
LINE
  8
0
 62
     0
 10
13.9
 20
6.652155
 30
0.0
 11
16.432927
 21
9.185083
 31
0.0
  0
LINE
  8
0
 62
     0
 10
13.9
 20
6.828932
 30
0.0
 11
16.350372
 21
9.279304
 31
0.0
  0
LINE
  8
0
 62
     0
 10
13.9
 20
7.005709
 30
0.0
 11
16.262892
 21
9.368601
 31
0.0
  0
LINE
  8
0
 62
     0
 10
13.9
 20
7.182486
 30
0.0
 11
16.170495
 21
9.452981
 31
0.0
  0
LINE
  8
0
 62
     0
 10
13.9
 20
7.359262
 30
0.0
 11
16.073145
 21
9.532407
 31
0.0
  0
LINE
  8
0
 62
     0
 10
13.9
 20
7.536039
 30
0.0
 11
15.970755
 21
9.606794
 31
0.0
  0
LINE
  8
0
 62
     0
 10
13.9
 20
7.712816
 30
0.0
 11
15.863189
 21
9.676004
 31
0.0
  0
LINE
  8
0
 62
     0
 10
13.9
 20
7.889592
 30
0.0
 11
15.75025
 21
9.739843
 31
0.0
  0
LINE
  8
0
 62
     0
 10
13.9
 20
8.066369
 30
0.0
 11
15.631675
 21
9.798044
 31
0.0
  0
LINE
  8
0
 62
     0
 10
13.9
 20
8.243146
 30
0.0
 11
15.50711
 21
9.850256
 31
0.0
  0
LINE
  8
0
 62
     0
 10
13.9
 20
8.419922
 30
0.0
 11
15.376096
 21
9.896018
 31
0.0
  0
LINE
  8
0
 62
     0
 10
13.9
 20
8.596699
 30
0.0
 11
15.238027
 21
9.934726
 31
0.0
  0
LINE
  8
0
 62
     0
 10
13.9
 20
8.773476
 30
0.0
 11
15.092096
 21
9.965572
 31
0.0
  0
LINE
  8
0
 62
     0
 10
13.9
 20
8.950253
 30
0.0
 11
14.937209
 21
9.987461
 31
0.0
  0
LINE
  8
0
 62
     0
 10
13.9
 20
9.127029
 30
0.0
 11
14.771824
 21
9.998853
 31
0.0
  0
LINE
  8
0
 62
     0
 10
13.9
 20
9.303806
 30
0.0
 11
14.596193
 21
9.999999
 31
0.0
  0
LINE
  8
0
 62
     0
 10
13.9
 20
9.480583
 30
0.0
 11
14.419417
 21
9.999999
 31
0.0
  0
LINE
  8
0
 62
     0
 10
13.9
 20
9.657359
 30
0.0
 11
14.24264
 21
10.0
 31
0.0
  0
LINE
  8
0
 62
     0
 10
13.9
 20
9.834136
 30
0.0
 11
14.065864
 21
10.0
 31
0.0
  0
LINE
  8
0
 62
     0
 10
13.9
 20
6.121825
 30
0.0
 11
16.650245
 21
8.872071
 31
0.0
  0
LINE
  8
0
 62
     0
 10
13.9
 20
5.945049
 30
0.0
 11
16.712035
 21
8.757083
 31
0.0
  0
LINE
  8
0
 62
     0
 10
13.9
 20
5.768272
 30
0.0
 11
16.768067
 21
8.636339
 31
0.0
  0
LINE
  8
0
 62
     0
 10
13.9
 20
5.591495
 30
0.0
 11
16.817955
 21
8.509451
 31
0.0
  0
LINE
  8
0
 62
     0
 10
13.9
 20
5.414719
 30
0.0
 11
16.861189
 21
8.375908
 31
0.0
  0
LINE
  8
0
 62
     0
 10
13.9
 20
5.237942
 30
0.0
 11
16.897097
 21
8.235039
 31
0.0
  0
LINE
  8
0
 62
     0
 10
14.038835
 20
5.2
 30
0.0
 11
16.924779
 21
8.085944
 31
0.0
  0
LINE
  8
0
 62
     0
 10
14.215611
 20
5.2
 30
0.0
 11
16.942997
 21
7.927385
 31
0.0
  0
LINE
  8
0
 62
     0
 10
14.392388
 20
5.2
 30
0.0
 11
16.949987
 21
7.757599
 31
0.0
  0
LINE
  8
0
 62
     0
 10
14.569165
 20
5.2
 30
0.0
 11
16.943101
 21
7.573936
 31
0.0
  0
LINE
  8
0
 62
     0
 10
14.745942
 20
5.2
 30
0.0
 11
16.918037
 21
7.372095
 31
0.0
  0
LINE
  8
0
 62
     0
 10
14.922718
 20
5.2
 30
0.0
 11
16.866909
 21
7.144191
 31
0.0
  0
LINE
  8
0
 62
     0
 10
15.099495
 20
5.2
 30
0.0
 11
16.771715
 21
6.87222
 31
0.0
  0
LINE
  8
0
 62
     0
 10
15.276272
 20
5.2
 30
0.0
 11
15.847951
 21
5.77168
 31
0.0
  0
LINE
  8
0
 62
     0
 10
15.96673
 20
5.890458
 30
0.0
 11
16.559542
 21
6.48327
 31
0.0
  0
LINE
  8
0
 62
     0
 10
15.453048
 20
5.2
 30
0.0
 11
15.970661
 21
5.717613
 31
0.0
  0
LINE
  8
0
 62
     0
 10
15.629825
 20
5.2
 30
0.0
 11
16.088934
 21
5.659109
 31
0.0
  0
LINE
  8
0
 62
     0
 10
15.806602
 20
5.2
 30
0.0
 11
16.202964
 21
5.596363
 31
0.0
  0
LINE
  8
0
 62
     0
 10
15.983378
 20
5.2
 30
0.0
 11
16.312909
 21
5.529531
 31
0.0
  0
LINE
  8
0
 62
     0
 10
16.160155
 20
5.2
 30
0.0
 11
16.418895
 21
5.45874
 31
0.0
  0
LINE
  8
0
 62
     0
 10
16.336932
 20
5.2
 30
0.0
 11
16.521021
 21
5.384089
 31
0.0
  0
LINE
  8
0
 62
     0
 10
16.513708
 20
5.2
 30
0.0
 11
16.619363
 21
5.305655
 31
0.0
  0
LINE
  8
0
 62
     0
 10
16.690485
 20
5.2
 30
0.0
 11
16.713975
 21
5.22349
 31
0.0
  0
ENDBLK
  8
0
  0
BLOCK
  8
0
  2
*X12
 70
    65
 10
0.0
 20
0.0
 30
0.0
  3
*X
  0
LINE
  8
0
 62
     0
 10
13.9
 20
0.818525
 30
0.0
 11
17.39645
 21
4.314974
 31
0.0
  0
LINE
  8
0
 62
     0
 10
13.9
 20
0.995301
 30
0.0
 11
17.336354
 21
4.431655
 31
0.0
  0
LINE
  8
0
 62
     0
 10
13.9
 20
1.172078
 30
0.0
 11
17.272078
 21
4.544156
 31
0.0
  0
LINE
  8
0
 62
     0
 10
13.9
 20
1.348855
 30
0.0
 11
17.203766
 21
4.652621
 31
0.0
  0
LINE
  8
0
 62
     0
 10
13.9
 20
1.525631
 30
0.0
 11
17.131535
 21
4.757167
 31
0.0
  0
LINE
  8
0
 62
     0
 10
13.9
 20
1.702408
 30
0.0
 11
16.997592
 21
4.8
 31
0.0
  0
LINE
  8
0
 62
     0
 10
13.9
 20
1.879185
 30
0.0
 11
16.820815
 21
4.8
 31
0.0
  0
LINE
  8
0
 62
     0
 10
13.9
 20
2.055961
 30
0.0
 11
16.644039
 21
4.8
 31
0.0
  0
LINE
  8
0
 62
     0
 10
13.9
 20
2.232738
 30
0.0
 11
16.467262
 21
4.8
 31
0.0
  0
LINE
  8
0
 62
     0
 10
13.9
 20
2.409515
 30
0.0
 11
16.290485
 21
4.8
 31
0.0
  0
LINE
  8
0
 62
     0
 10
13.9
 20
2.586292
 30
0.0
 11
16.113708
 21
4.8
 31
0.0
  0
LINE
  8
0
 62
     0
 10
13.9
 20
2.763068
 30
0.0
 11
15.936932
 21
4.8
 31
0.0
  0
LINE
  8
0
 62
     0
 10
13.9
 20
2.939845
 30
0.0
 11
15.760155
 21
4.8
 31
0.0
  0
LINE
  8
0
 62
     0
 10
13.9
 20
3.116622
 30
0.0
 11
15.583378
 21
4.8
 31
0.0
  0
LINE
  8
0
 62
     0
 10
13.9
 20
3.293398
 30
0.0
 11
15.406602
 21
4.8
 31
0.0
  0
LINE
  8
0
 62
     0
 10
13.9
 20
3.470175
 30
0.0
 11
15.229825
 21
4.8
 31
0.0
  0
LINE
  8
0
 62
     0
 10
13.9
 20
3.646952
 30
0.0
 11
15.053048
 21
4.8
 31
0.0
  0
LINE
  8
0
 62
     0
 10
13.9
 20
3.823728
 30
0.0
 11
14.876272
 21
4.8
 31
0.0
  0
LINE
  8
0
 62
     0
 10
13.9
 20
4.000505
 30
0.0
 11
14.699495
 21
4.8
 31
0.0
  0
LINE
  8
0
 62
     0
 10
13.9
 20
4.177282
 30
0.0
 11
14.522718
 21
4.8
 31
0.0
  0
LINE
  8
0
 62
     0
 10
13.9
 20
4.354058
 30
0.0
 11
14.345942
 21
4.8
 31
0.0
  0
LINE
  8
0
 62
     0
 10
13.9
 20
4.530835
 30
0.0
 11
14.169165
 21
4.8
 31
0.0
  0
LINE
  8
0
 62
     0
 10
13.9
 20
4.707612
 30
0.0
 11
13.992388
 21
4.8
 31
0.0
  0
LINE
  8
0
 62
     0
 10
13.9
 20
0.641748
 30
0.0
 11
17.452185
 21
4.193933
 31
0.0
  0
LINE
  8
0
 62
     0
 10
13.9
 20
0.464971
 30
0.0
 11
17.503339
 21
4.068311
 31
0.0
  0
LINE
  8
0
 62
     0
 10
13.9
 20
0.288194
 30
0.0
 11
17.549642
 21
3.937837
 31
0.0
  0
LINE
  8
0
 62
     0
 10
13.9
 20
0.111418
 30
0.0
 11
17.590762
 21
3.80218
 31
0.0
  0
LINE
  8
0
 62
     0
 10
13.965359
 20
0.0
 30
0.0
 11
17.62629
 21
3.660931
 31
0.0
  0
LINE
  8
0
 62
     0
 10
14.142136
 20
0.000001
 30
0.0
 11
17.655713
 21
3.513577
 31
0.0
  0
LINE
  8
0
 62
     0
 10
14.318913
 20
0.000001
 30
0.0
 11
17.678385
 21
3.359473
 31
0.0
  0
LINE
  8
0
 62
     0
 10
14.49569
 20
0.000001
 30
0.0
 11
17.693473
 21
3.197784
 31
0.0
  0
LINE
  8
0
 62
     0
 10
14.672467
 20
0.000002
 30
0.0
 11
17.699875
 21
3.027409
 31
0.0
  0
LINE
  8
0
 62
     0
 10
14.853154
 20
0.003912
 30
0.0
 11
17.696088
 21
2.846846
 31
0.0
  0
LINE
  8
0
 62
     0
 10
15.046044
 20
0.020025
 30
0.0
 11
17.679975
 21
2.653956
 31
0.0
  0
LINE
  8
0
 62
     0
 10
15.254483
 20
0.051687
 30
0.0
 11
17.648313
 21
2.445517
 31
0.0
  0
LINE
  8
0
 62
     0
 10
15.483762
 20
0.10419
 30
0.0
 11
17.59581
 21
2.216238
 31
0.0
  0
LINE
  8
0
 62
     0
 10
15.743786
 20
0.187437
 30
0.0
 11
17.512563
 21
1.956214
 31
0.0
  0
LINE
  8
0
 62
     0
 10
16.058176
 20
0.32505
 30
0.0
 11
17.37495
 21
1.641824
 31
0.0
  0
LINE
  8
0
 62
     0
 10
16.54193
 20
0.632028
 30
0.0
 11
17.067972
 21
1.15807
 31
0.0
  0
ENDBLK
  8
0
  0
BLOCK
  8
0
  2
BLC15
 70
    64
 10
0.0
 20
0.0
 30
0.0
  3
BLC15
  0
LINE
  8
0
  6
CONTINUOUS
 10
0.142084
 20
3.490022
 30
0.0
 11
0.142084
 21
0.844365
 31
0.0
  0
LINE
  8
0
  6
CONTINUOUS
 10
-0.461611
 20
-0.937188
 30
0.0
 11
0.745779
 21
-0.937188
 31
0.0
  0
LINE
  8
0
  6
CONTINUOUS
 10
-0.894108
 20
-0.049675
 30
0.0
 11
1.169267
 21
-0.049675
 31
0.0
  0
LINE
  8
0
  6
CONTINUOUS
 10
-1.389679
 20
0.844365
 30
0.0
 11
1.673848
 21
0.844365
 31
0.0
  0
ENDBLK
  8
0
  0
BLOCK
  8
0
  2
BLC55
 70
    64
 10
0.0
 20
0.0
 30
0.0
  3
BLC55
  0
INSERT
  8
SWEDEN
  6
CENTER
  2
BLC5
 10
0.087066
 20
-0.756831
 30
0.0
 41
0.6
 42
0.6
 43
0.6
  0
ENDBLK
  8
0
  0
BLOCK
  8
0
  2
BLC5
 70
    64
 10
0.0
 20
0.0
 30
0.0
  3
BLC5
  0
TEXT
  8
0
 10
-3.043704
 20
-6.645912
 30
0.0
 40
3.2
  1
PE
  0
LINE
  8
0
 10
-2.946392
 20
1.181176
 30
0.0
 11
2.135458
 21
1.181176
 31
0.0
  0
LINE
  8
0
 10
-0.48656
 20
2.238362
 30
0.0
 11
-0.48656
 21
6.930438
 31
0.0
  0
LINE
  8
0
 10
-1.973271
 20
0.065258
 30
0.0
 11
1.225411
 21
0.065258
 31
0.0
  0
LINE
  8
0
 10
2.685091
 20
2.238362
 30
0.0
 11
1.68494
 21
2.238362
 31
0.0
  0
LINE
  8
0
 10
-3.505035
 20
2.238362
 30
0.0
 11
2.649049
 21
2.238362
 31
0.0
  0
CIRCLE
  8
0
 10
-0.47755
 20
1.422632
 30
0.0
 40
3.804563
  0
ENDBLK
  8
0
  0
BLOCK
  8
0
  2
BLC43
 70
    64
 10
0.0
 20
0.0
 30
0.0
  3
BLC43
  0
TEXT
  8
SWEDEN2
  6
CONTINUOUS
 10
-0.646672
 20
-0.986365
 30
0.0
 40
2.0
  1
+
  0
ENDBLK
  8
0
  0
BLOCK
  8
0
  2
BLC42
 70
    64
 10
0.0
 20
0.0
 30
0.0
  3
BLC42
  0
TEXT
  8
SWEDEN2
  6
CONTINUOUS
 10
-0.655237
 20
-0.99442
 30
0.0
 40
2.0
  1
-
  0
ENDBLK
  8
0
  0
BLOCK
  8
0
  2
BLC44
 70
    64
 10
0.0
 20
0.0
 30
0.0
  3
BLC44
  0
LINE
  8
HEL035
 10
-2.520993
 20
1.697877
 30
0.0
 11
1.479007
 21
1.697877
 31
0.0
  0
INSERT
  8
HEL035
  2
WKU130
 10
-2.181043
 20
-0.027675
 30
0.0
 41
0.8
 42
0.8
 43
0.8
  0
ENDBLK
  8
0
  0
BLOCK
  8
0
  2
B39
 70
    64
 10
0.0
 20
0.0
 30
0.0
  3
B39
  0
LINE
  8
0
 10
-10.0
 20
2.5
 30
0.0
 11
-11.519867
 21
2.5
 31
0.0
  0
ARC
  8
0
 10
-9.934151
 20
3.75
 30
0.0
 40
1.251733
 50
266.984476
 51
93.015524
  0
LINE
  8
0
 10
-10.0
 20
5.0
 30
0.0
 11
-11.519867
 21
5.0
 31
0.0
  0
LINE
  8
0
 10
-10.0
 20
7.5
 30
0.0
 11
-11.519867
 21
7.5
 31
0.0
  0
ARC
  8
0
 10
-9.934151
 20
6.25
 30
0.0
 40
1.251733
 50
266.984476
 51
93.015524
  0
LINE
  8
0
 10
-5.0
 20
0.0
 30
0.0
 11
-2.5
 21
0.0
 31
0.0
  0
ARC
  8
0
 10
-5.065849
 20
1.25
 30
0.0
 40
1.251733
 50
86.984476
 51
273.015524
  0
ARC
  8
0
 10
-5.065849
 20
3.75
 30
0.0
 40
1.251733
 50
86.984476
 51
273.015524
  0
LINE
  8
0
 10
-5.0
 20
2.5
 30
0.0
 11
-2.5
 21
2.5
 31
0.0
  0
LINE
  8
0
 10
-5.0
 20
5.0
 30
0.0
 11
-2.5
 21
5.0
 31
0.0
  0
LINE
  8
0
 10
-2.5
 20
5.0
 30
0.0
 11
0.0
 21
5.0
 31
0.0
  0
LINE
  8
0
 10
-2.5
 20
0.0
 30
0.0
 11
0.0
 21
0.0
 31
0.0
  0
LINE
  8
0
 10
-2.5
 20
5.0
 30
0.0
 11
0.0
 21
5.0
 31
0.0
  0
LINE
  8
0
 10
-2.5
 20
10.0
 30
0.0
 11
0.0
 21
10.0
 31
0.0
  0
LINE
  8
0
 10
-5.0
 20
10.0
 30
0.0
 11
-2.5
 21
10.0
 31
0.0
  0
LINE
  8
0
 10
-5.0
 20
7.5
 30
0.0
 11
-2.5
 21
7.5
 31
0.0
  0
ARC
  8
0
 10
-5.065849
 20
8.75
 30
0.0
 40
1.251733
 50
86.984476
 51
273.015524
  0
ARC
  8
0
 10
-5.065849
 20
6.25
 30
0.0
 40
1.251733
 50
86.984476
 51
273.015524
  0
LINE
  8
0
 10
-5.0
 20
5.0
 30
0.0
 11
-2.5
 21
5.0
 31
0.0
  0
ENDBLK
  8
0
  0
BLOCK
  8
0
  2
MAA
 70
     0
 10
0.0
 20
0.0
 30
0.0
  3
MAA
  0
LINE
  8
0
  6
CONTINUOUS
 10
-0.500718
 20
-2.587966
 30
0.0
 11
0.386169
 21
-2.587966
 31
0.0
  0
LINE
  8
0
  6
CONTINUOUS
 10
-0.831823
 20
-1.976333
 30
0.0
 11
0.752749
 21
-1.976333
 31
0.0
  0
LINE
  8
0
  6
CONTINUOUS
 10
-0.015887
 20
-1.35427
 30
0.0
 11
1.178454
 21
-1.35427
 31
0.0
  0
LINE
  8
0
  6
CONTINUOUS
 10
-1.210228
 20
-1.35427
 30
0.0
 11
-0.015887
 21
-1.35427
 31
0.0
  0
LINE
  8
0
  6
CONTINUOUS
 10
0.0
 20
0.0
 30
0.0
 11
0.0
 21
-1.35427
 31
0.0
  0
ENDBLK
  8
0
  0
BLOCK
  8
0
  2
B601
 70
     0
 10
0.0
 20
0.0
 30
0.0
  3
B601
  0
TEXT
  8
0
  6
CONTINUOUS
 10
59.534832
 20
-5.235531
 30
0.0
 40
2.0
  1
:
  7
ROMANS
  0
TEXT
  8
0
  6
CONTINUOUS
 10
47.202831
 20
-68.668405
 30
0.0
 40
2.0
  1
1,2,3
  7
ROMANS
  0
TEXT
  8
0
  6
CONTINUOUS
 10
32.935125
 20
-68.668405
 30
0.0
 40
2.0
  1
1
  7
ROMANS
  0
TEXT
  8
0
  6
CONTINUOUS
 10
5.316239
 20
-68.668405
 30
0.0
 40
2.0
  1
U31
  7
ROMANS
  0
TEXT
  8
0
  6
CONTINUOUS
 10
47.202831
 20
-63.694849
 30
0.0
 40
2.0
  1
4,5,6
  7
ROMANS
  0
TEXT
  8
0
  6
CONTINUOUS
 10
32.935125
 20
-63.694849
 30
0.0
 40
2.0
  1
2
  7
ROMANS
  0
TEXT
  8
0
  6
CONTINUOUS
 10
5.316239
 20
-63.694849
 30
0.0
 40
2.0
  1
U23
  7
ROMANS
  0
TEXT
  8
0
  6
CONTINUOUS
 10
47.202831
 20
-58.424068
 30
0.0
 40
2.0
  1
7,8,9
  7
ROMANS
  0
TEXT
  8
0
  6
CONTINUOUS
 10
5.316239
 20
-58.424068
 30
0.0
 40
2.0
  1
U12
  7
ROMANS
  0
TEXT
  8
0
  6
CONTINUOUS
 10
32.935125
 20
-58.424068
 30
0.0
 40
2.0
  1
3
  7
ROMANS
  0
TEXT
  8
0
  6
CONTINUOUS
 10
46.901883
 20
-52.529116
 30
0.0
 40
2.0
  1
S2
  7
ROMANS
  0
TEXT
  8
0
  6
CONTINUOUS
 10
32.935125
 20
-52.529116
 30
0.0
 40
2.0
  1
S1
  7
ROMANS
  0
LINE
  8
0
  6
CONTINUOUS
 10
42.161359
 20
-70.0
 30
0.0
 11
42.161359
 21
-43.567582
 31
0.0
  0
LINE
  8
0
  6
CONTINUOUS
 10
26.511436
 20
-43.567582
 30
0.0
 11
26.511436
 21
-70.0
 31
0.0
  0
LINE
  8
0
  6
CONTINUOUS
 10
-0.988564
 20
-70.0
 30
0.0
 11
60.940538
 21
-70.0
 31
0.0
  0
LINE
  8
0
  6
CONTINUOUS
 10
-0.988564
 20
-65.0
 30
0.0
 11
-0.988564
 21
-70.0
 31
0.0
  0
LINE
  8
0
  6
CONTINUOUS
 10
60.940538
 20
-65.0
 30
0.0
 11
-0.988564
 21
-65.0
 31
0.0
  0
LINE
  8
0
  6
CONTINUOUS
 10
60.940538
 20
-43.567582
 30
0.0
 11
60.940538
 21
-70.0
 31
0.0
  0
LINE
  8
0
  6
CONTINUOUS
 10
-0.988564
 20
-60.0
 30
0.0
 11
60.940538
 21
-60.0
 31
0.0
  0
LINE
  8
0
  6
CONTINUOUS
 10
-0.988564
 20
-43.567582
 30
0.0
 11
-0.988564
 21
-70.0
 31
0.0
  0
LINE
  8
0
  6
CONTINUOUS
 10
60.940538
 20
-55.0
 30
0.0
 11
-0.988564
 21
-55.0
 31
0.0
  0
LINE
  8
0
  6
CONTINUOUS
 10
-0.988564
 20
-43.567582
 30
0.0
 11
60.940538
 21
-43.567582
 31
0.0
  0
TEXT
  8
0
  6
CENTER
 10
1.776436
 20
-53.768986
 30
0.0
 40
2.0
  1
SPÄNNINGDVAL
  7
ROMANS
  0
TEXT
  8
0
  6
CENTER
 10
1.776436
 20
-49.906719
 30
0.0
 40
2.0
  1
SELECTION
  7
ROMANS
  0
TEXT
  8
0
  6
CENTER
 10
1.776436
 20
-46.668624
 30
0.0
 40
2.0
  1
VOLTAGE
  7
ROMANS
  0
TEXT
  8
0
  6
CENTER
 10
-0.71888
 20
-33.597351
 30
0.0
 40
2.0
  1
I POSITION 1, ÖVRIGA SWITCHAR I POSITION 0.
  7
ROMANS
  0
TEXT
  8
0
  6
CENTER
 10
-0.71888
 20
-30.359256
 30
0.0
 40
2.0
  1
DE SWITCHAR SOM FINNS I TABELLEN SKALL VARA
  7
ROMANS
  0
TEXT
  8
0
  6
CENTER
 10
-0.71888
 20
-27.12116
 30
0.0
 40
2.0
  1
INSTÄLLNING AV SWITCHARNA S1 OCH S2:
  7
ROMANS
  0
TEXT
  8
0
  6
CENTER
 10
-0.640127
 20
-21.840472
 30
0.0
 40
2.0
  1
SPTM 6A3:
  7
ROMANS
  0
TEXT
  8
0
  6
CENTER
 10
-0.723312
 20
-11.870242
 30
0.0
 40
2.0
  1
POSITION 1, OTHER SWITCHES IN POSITION 0.
  7
ROMANS
  0
TEXT
  8
0
  6
CENTER
 10
-0.723312
 20
-8.632146
 30
0.0
 40
2.0
  1
SWITCHES MENTIONED IN THE TABLE SHOULD BE IN
  7
ROMANS
  0
TEXT
  8
0
  6
CENTER
 10
-0.723312
 20
-5.394051
 30
0.0
 40
2.0
  1
SETTING OF DIP SWITCHES S1 AND S2
  7
ROMANS
  0
TEXT
  8
0
  6
CENTER
 10
-0.453278
 20
0.595946
 30
0.0
 40
2.0
  1
SPTM 6A3:
  7
ROMANS
  0
ENDBLK
  8
0
  0
BLOCK
  8
0
  2
B650
 70
     0
 10
0.0
 20
0.0
 30
0.0
  3
B650
  0
LINE
  8
BASE1
  6
CONTINUOUS
 10
-0.345908
 20
0.860077
 30
0.0
 11
-0.345908
 21
-0.928054
 31
0.0
  0
LINE
  8
BASE1
  6
CONTINUOUS
 10
-0.306612
 20
-0.016496
 30
0.0
 11
7.236974
 21
-0.016496
 31
0.0
  0
INSERT
  8
BASE1
  6
CONTINUOUS
  2
BLC29
 10
2.460828
 20
0.051887
 30
0.0
 41
0.53231
 42
0.53231
 43
0.53231
  0
ENDBLK
  8
0
  0
BLOCK
  8
0
  2
B507
 70
    64
 10
0.0
 20
0.0
 30
0.0
  3
B507
  0
LINE
  8
0
  6
CONTINUOUS
 10
0.079622
 20
0.147754
 30
0.0
 11
0.079622
 21
-9.002074
 31
0.0
  0
INSERT
  8
0
  6
CONTINUOUS
  2
BLC29
 10
0.212369
 20
-6.641509
 30
0.0
 50
270.0
  0
ENDBLK
  8
0
  0
BLOCK
  8
0
  2
*X24
 70
    65
 10
0.0
 20
0.0
 30
0.0
  3
*X
  0
LINE
  8
0
  6
CONTINUOUS
 62
     0
 10
188.953992
 20
166.805669
 30
0.0
 11
190.802125
 21
167.131545
 31
0.0
  0
LINE
  8
0
  6
CONTINUOUS
 62
     0
 10
188.953992
 20
166.836132
 30
0.0
 11
190.730712
 21
167.149416
 31
0.0
  0
LINE
  8
0
  6
CONTINUOUS
 62
     0
 10
188.953992
 20
166.866595
 30
0.0
 11
190.6593
 21
167.167287
 31
0.0
  0
LINE
  8
0
  6
CONTINUOUS
 62
     0
 10
188.953992
 20
166.897058
 30
0.0
 11
190.587888
 21
167.185158
 31
0.0
  0
LINE
  8
0
  6
CONTINUOUS
 62
     0
 10
188.953992
 20
166.92752
 30
0.0
 11
190.516476
 21
167.203029
 31
0.0
  0
LINE
  8
0
  6
CONTINUOUS
 62
     0
 10
188.953992
 20
166.957983
 30
0.0
 11
190.445064
 21
167.2209
 31
0.0
  0
LINE
  8
0
  6
CONTINUOUS
 62
     0
 10
188.953992
 20
166.988446
 30
0.0
 11
190.373652
 21
167.23877
 31
0.0
  0
LINE
  8
0
  6
CONTINUOUS
 62
     0
 10
188.953992
 20
167.018909
 30
0.0
 11
190.30224
 21
167.256641
 31
0.0
  0
LINE
  8
0
  6
CONTINUOUS
 62
     0
 10
188.953992
 20
167.049372
 30
0.0
 11
190.230828
 21
167.274512
 31
0.0
  0
LINE
  8
0
  6
CONTINUOUS
 62
     0
 10
188.953992
 20
167.079834
 30
0.0
 11
190.159416
 21
167.292383
 31
0.0
  0
LINE
  8
0
  6
CONTINUOUS
 62
     0
 10
188.953992
 20
167.110297
 30
0.0
 11
190.088003
 21
167.310254
 31
0.0
  0
LINE
  8
0
  6
CONTINUOUS
 62
     0
 10
188.953992
 20
167.14076
 30
0.0
 11
190.016591
 21
167.328125
 31
0.0
  0
LINE
  8
0
  6
CONTINUOUS
 62
     0
 10
188.953992
 20
167.171223
 30
0.0
 11
189.945179
 21
167.345996
 31
0.0
  0
LINE
  8
0
  6
CONTINUOUS
 62
     0
 10
188.953992
 20
167.201686
 30
0.0
 11
189.873767
 21
167.363867
 31
0.0
  0
LINE
  8
0
  6
CONTINUOUS
 62
     0
 10
188.953992
 20
167.232148
 30
0.0
 11
189.802355
 21
167.381738
 31
0.0
  0
LINE
  8
0
  6
CONTINUOUS
 62
     0
 10
188.953992
 20
167.262611
 30
0.0
 11
189.730943
 21
167.399609
 31
0.0
  0
LINE
  8
0
  6
CONTINUOUS
 62
     0
 10
188.953992
 20
167.293074
 30
0.0
 11
189.659531
 21
167.41748
 31
0.0
  0
LINE
  8
0
  6
CONTINUOUS
 62
     0
 10
188.953992
 20
167.323537
 30
0.0
 11
189.588119
 21
167.435351
 31
0.0
  0
LINE
  8
0
  6
CONTINUOUS
 62
     0
 10
188.953992
 20
167.354
 30
0.0
 11
189.516707
 21
167.453221
 31
0.0
  0
LINE
  8
0
  6
CONTINUOUS
 62
     0
 10
188.953992
 20
167.384462
 30
0.0
 11
189.445295
 21
167.471092
 31
0.0
  0
LINE
  8
0
  6
CONTINUOUS
 62
     0
 10
188.953992
 20
167.414925
 30
0.0
 11
189.373882
 21
167.488963
 31
0.0
  0
LINE
  8
0
  6
CONTINUOUS
 62
     0
 10
188.953992
 20
167.445388
 30
0.0
 11
189.30247
 21
167.506834
 31
0.0
  0
LINE
  8
0
  6
CONTINUOUS
 62
     0
 10
188.953992
 20
167.475851
 30
0.0
 11
189.231058
 21
167.524705
 31
0.0
  0
LINE
  8
0
  6
CONTINUOUS
 62
     0
 10
188.953992
 20
167.506314
 30
0.0
 11
189.159646
 21
167.542576
 31
0.0
  0
LINE
  8
0
  6
CONTINUOUS
 62
     0
 10
188.953992
 20
167.536776
 30
0.0
 11
189.088234
 21
167.560447
 31
0.0
  0
LINE
  8
0
  6
CONTINUOUS
 62
     0
 10
188.953992
 20
167.567239
 30
0.0
 11
189.016822
 21
167.578318
 31
0.0
  0
LINE
  8
0
  6
CONTINUOUS
 62
     0
 10
188.953992
 20
166.775206
 30
0.0
 11
190.873537
 21
167.113674
 31
0.0
  0
LINE
  8
0
  6
CONTINUOUS
 62
     0
 10
188.953992
 20
166.744744
 30
0.0
 11
190.944949
 21
167.095803
 31
0.0
  0
LINE
  8
0
  6
CONTINUOUS
 62
     0
 10
188.953992
 20
166.714281
 30
0.0
 11
191.016361
 21
167.077932
 31
0.0
  0
LINE
  8
0
  6
CONTINUOUS
 62
     0
 10
188.953992
 20
166.683818
 30
0.0
 11
191.087773
 21
167.060061
 31
0.0
  0
LINE
  8
0
  6
CONTINUOUS
 62
     0
 10
188.953992
 20
166.653355
 30
0.0
 11
191.159185
 21
167.04219
 31
0.0
  0
LINE
  8
0
  6
CONTINUOUS
 62
     0
 10
188.953992
 20
166.622892
 30
0.0
 11
191.193385
 21
167.017758
 31
0.0
  0
LINE
  8
0
  6
CONTINUOUS
 62
     0
 10
188.953992
 20
166.59243
 30
0.0
 11
190.7813
 21
166.914633
 31
0.0
  0
LINE
  8
0
  6
CONTINUOUS
 62
     0
 10
188.953992
 20
166.561967
 30
0.0
 11
190.369215
 21
166.811509
 31
0.0
  0
LINE
  8
0
  6
CONTINUOUS
 62
     0
 10
188.953992
 20
166.531504
 30
0.0
 11
189.957129
 21
166.708384
 31
0.0
  0
LINE
  8
0
  6
CONTINUOUS
 62
     0
 10
188.953992
 20
166.501041
 30
0.0
 11
189.545044
 21
166.60526
 31
0.0
  0
LINE
  8
0
  6
CONTINUOUS
 62
     0
 10
188.953992
 20
166.470578
 30
0.0
 11
189.132959
 21
166.502135
 31
0.0
  0
ENDBLK
  8
0
  0
BLOCK
  8
0
  2
B72
 70
     0
 10
0.0
 20
0.0
 30
0.0
  3
B72
  0
TEXT
  8
0
  6
CONTINUOUS
 10
0.368306
 20
-79.326509
 30
0.0
 40
2.0
  1
9)
  0
TEXT
  8
0
  6
CONTINUOUS
 10
0.368306
 20
-59.268761
 30
0.0
 40
2.0
  1
9)
  0
TEXT
  8
0
  6
CONTINUOUS
 10
0.368306
 20
-39.436432
 30
0.0
 40
2.0
  1
9)
  0
TEXT
  8
0
  6
CONTINUOUS
 10
0.368306
 20
-19.248633
 30
0.0
 40
2.0
  1
9)
  0
TEXT
  8
0
  6
CONTINUOUS
 10
0.368306
 20
0.791776
 30
0.0
 40
2.0
  1
9)
  0
LINE
  8
0
  6
CONTINUOUS
 10
0.0
 20
-79.6532
 30
0.0
 11
0.0
 21
-85.33813
 31
0.0
  0
LINE
  8
0
  6
CONTINUOUS
 10
0.0
 20
-85.33813
 30
0.0
 11
-1.0
 21
-86.33813
 31
0.0
  0
LINE
  8
0
  6
CONTINUOUS
 10
0.0
 20
-79.6532
 30
0.0
 11
-1.0
 21
-78.6532
 31
0.0
  0
LINE
  8
0
  6
CONTINUOUS
 10
0.0
 20
-59.6532
 30
0.0
 11
-1.0
 21
-58.6532
 31
0.0
  0
LINE
  8
0
  6
CONTINUOUS
 10
0.0
 20
-65.33813
 30
0.0
 11
-1.0
 21
-66.33813
 31
0.0
  0
LINE
  8
0
  6
CONTINUOUS
 10
0.0
 20
-59.6532
 30
0.0
 11
0.0
 21
-65.33813
 31
0.0
  0
LINE
  8
0
  6
CONTINUOUS
 10
0.0
 20
-39.6532
 30
0.0
 11
0.0
 21
-45.33813
 31
0.0
  0
LINE
  8
0
  6
CONTINUOUS
 10
0.0
 20
-45.33813
 30
0.0
 11
-1.0
 21
-46.33813
 31
0.0
  0
LINE
  8
0
  6
CONTINUOUS
 10
0.0
 20
-39.6532
 30
0.0
 11
-1.0
 21
-38.6532
 31
0.0
  0
LINE
  8
0
  6
CONTINUOUS
 10
0.0
 20
-19.6532
 30
0.0
 11
-1.0
 21
-18.6532
 31
0.0
  0
LINE
  8
0
  6
CONTINUOUS
 10
0.0
 20
-25.33813
 30
0.0
 11
-1.0
 21
-26.33813
 31
0.0
  0
LINE
  8
0
  6
CONTINUOUS
 10
0.0
 20
-19.6532
 30
0.0
 11
0.0
 21
-25.33813
 31
0.0
  0
LINE
  8
0
  6
CONTINUOUS
 10
0.0
 20
0.3468
 30
0.0
 11
0.0
 21
-5.33813
 31
0.0
  0
LINE
  8
0
  6
CONTINUOUS
 10
0.0
 20
-5.33813
 30
0.0
 11
-1.0
 21
-6.33813
 31
0.0
  0
LINE
  8
0
  6
CONTINUOUS
 10
0.0
 20
0.3468
 30
0.0
 11
-1.0
 21
1.3468
 31
0.0
  0
LINE
  8
0
  6
DASHED
 10
30.0
 20
-77.5
 30
0.0
 11
30.0
 21
-102.5
 31
0.0
  0
LINE
  8
0
  6
DASHED
 10
52.5
 20
-90.0
 30
0.0
 11
52.5
 21
0.0
 31
0.0
  0
LINE
  8
0
  6
DASHED
 10
60.0
 20
-80.0
 30
0.0
 11
60.0
 21
-12.5
 31
0.0
  0
LINE
  8
0
  6
DASHED
 10
0.0
 20
-80.0
 30
0.0
 11
60.0
 21
-80.0
 31
0.0
  0
LINE
  8
0
  6
CONTINUOUS
 10
57.5
 20
0.0
 30
0.0
 11
52.5
 21
7.5
 31
0.0
  0
LINE
  8
0
  6
CONTINUOUS
 10
60.0
 20
0.0
 30
0.0
 11
57.5
 21
0.0
 31
0.0
  0
LINE
  8
0
  6
CONTINUOUS
 10
51.506031
 20
5.098556
 30
0.0
 11
52.478167
 21
5.098556
 31
0.0
  0
LINE
  8
0
  6
CONTINUOUS
 10
51.496128
 20
7.499996
 30
0.0
 11
52.473936
 21
7.499996
 31
0.0
  0
LINE
  8
0
  6
CONTINUOUS
 10
51.500897
 20
2.68998
 30
0.0
 11
52.5
 21
2.68998
 31
0.0
  0
ARC
  8
0
  6
CONTINUOUS
 10
50.864862
 20
3.894238
 30
0.0
 40
1.204309
 50
90.0
 51
270.0
  0
LINE
  8
0
  6
CONTINUOUS
 10
50.859898
 20
2.689937
 30
0.0
 11
51.509496
 21
2.689937
 31
0.0
  0
LINE
  8
0
  6
CONTINUOUS
 10
50.858762
 20
7.499993
 30
0.0
 11
51.502261
 21
7.499993
 31
0.0
  0
LINE
  8
0
  6
CONTINUOUS
 10
50.858762
 20
5.098547
 30
0.0
 11
51.50836
 21
5.098547
 31
0.0
  0
ARC
  8
0
  6
CONTINUOUS
 10
50.864862
 20
6.296095
 30
0.0
 40
1.204309
 50
90.0
 51
265.706237
  0
LINE
  8
0
  6
CONTINUOUS
 10
59.006031
 20
5.098556
 30
0.0
 11
59.978167
 21
5.098556
 31
0.0
  0
LINE
  8
0
  6
CONTINUOUS
 10
58.996128
 20
7.499996
 30
0.0
 11
59.973936
 21
7.499996
 31
0.0
  0
LINE
  8
0
  6
CONTINUOUS
 10
59.000897
 20
2.68998
 30
0.0
 11
60.0
 21
2.68998
 31
0.0
  0
ARC
  8
0
  6
CONTINUOUS
 10
58.364862
 20
3.894238
 30
0.0
 40
1.204309
 50
90.0
 51
270.0
  0
LINE
  8
0
  6
CONTINUOUS
 10
58.359898
 20
2.689937
 30
0.0
 11
59.009496
 21
2.689937
 31
0.0
  0
LINE
  8
0
  6
CONTINUOUS
 10
58.358762
 20
7.499993
 30
0.0
 11
59.002261
 21
7.499993
 31
0.0
  0
LINE
  8
0
  6
CONTINUOUS
 10
58.358762
 20
5.098547
 30
0.0
 11
59.00836
 21
5.098547
 31
0.0
  0
ARC
  8
0
  6
CONTINUOUS
 10
58.364862
 20
6.296095
 30
0.0
 40
1.204309
 50
90.0
 51
265.706237
  0
LINE
  8
0
  6
CONTINUOUS
 10
60.0
 20
2.68998
 30
0.0
 11
60.0
 21
0.0
 31
0.0
  0
LINE
  8
0
  6
CONTINUOUS
 10
52.5
 20
2.68998
 30
0.0
 11
52.5
 21
0.0
 31
0.0
  0
POLYLINE
  8
0
  6
DASHED
 66
     1
 10
0.0
 20
0.0
 30
0.0
 70
     1
 40
0.25
 41
0.25
 71
     2
 72
   151
  0
VERTEX
  8
0
  6
DASHED
 10
59.625
 20
35.0
 30
0.0
 42
1.0
  0
VERTEX
  8
0
  6
DASHED
 10
60.375
 20
35.0
 30
0.0
 42
1.0
  0
SEQEND
  8
0
  6
DASHED
  0
POLYLINE
  8
0
  6
DASHED
 66
     1
 10
0.0
 20
0.0
 30
0.0
 70
     1
 40
0.25
 41
0.25
 71
     2
 72
   151
  0
VERTEX
  8
0
  6
DASHED
 10
52.125
 20
40.0
 30
0.0
 42
1.0
  0
VERTEX
  8
0
  6
DASHED
 10
52.875
 20
40.0
 30
0.0
 42
1.0
  0
SEQEND
  8
0
  6
DASHED
  0
LINE
  8
0
  6
DASHED
 10
60.0
 20
17.5
 30
0.0
 11
60.0
 21
35.0
 31
0.0
  0
LINE
  8
0
  6
DASHED
 10
52.5
 20
17.5
 30
0.0
 11
52.5
 21
40.0
 31
0.0
  0
INSERT
  8
0
  6
CONTINUOUS
  2
BLC27
 10
58.465932
 20
15.071549
 30
0.0
  0
INSERT
  8
0
  6
CONTINUOUS
  2
BLC27
 10
50.965932
 20
15.071549
 30
0.0
  0
POLYLINE
  8
0
  6
DASHED
 66
     1
 10
0.0
 20
0.0
 30
0.0
 70
     1
 40
0.25
 41
0.25
 71
     2
 72
   151
  0
VERTEX
  8
0
  6
DASHED
 10
19.623777
 20
-50.00007
 30
0.0
 42
1.0
  0
VERTEX
  8
0
  6
DASHED
 10
20.373777
 20
-50.00007
 30
0.0
 42
1.0
  0
SEQEND
  8
0
  6
DASHED
  0
POLYLINE
  8
0
  6
DASHED
 66
     1
 10
0.0
 20
0.0
 30
0.0
 70
     1
 40
0.25
 41
0.25
 71
     2
 72
   151
  0
VERTEX
  8
0
  6
DASHED
 10
19.624033
 20
-44.810354
 30
0.0
 42
1.0
  0
VERTEX
  8
0
  6
DASHED
 10
20.374033
 20
-44.810354
 30
0.0
 42
1.0
  0
SEQEND
  8
0
  6
DASHED
  0
POLYLINE
  8
0
  6
DASHED
 66
     1
 10
0.0
 20
0.0
 30
0.0
 70
     1
 40
0.25
 41
0.25
 71
     2
 72
   151
  0
VERTEX
  8
0
  6
DASHED
 10
19.624166
 20
-24.809666
 30
0.0
 42
1.0
  0
VERTEX
  8
0
  6
DASHED
 10
20.374166
 20
-24.809666
 30
0.0
 42
1.0
  0
SEQEND
  8
0
  6
DASHED
  0
LINE
  8
0
  6
DASHED
 10
35.0
 20
-40.0
 30
0.0
 11
0.0
 21
-40.0
 31
0.0
  0
LINE
  8
0
  6
DASHED
 10
30.0
 20
-20.0
 30
0.0
 11
0.0
 21
-20.0
 31
0.0
  0
LINE
  8
0
  6
DASHED
 10
25.0
 20
0.0
 30
0.0
 11
0.0
 21
0.0
 31
0.0
  0
LINE
  8
0
  6
DASHED
 10
27.5
 20
-70.0
 30
0.0
 11
30.0
 21
-70.0
 31
0.0
  0
LINE
  8
0
  6
DASHED
 10
30.0
 20
-70.0
 30
0.0
 11
30.0
 21
-70.0
 31
0.0
  0
LINE
  8
0
  6
DASHED
 10
17.5
 20
-65.189984
 30
0.0
 11
30.0
 21
-65.189984
 31
0.0
  0
LINE
  8
0
  6
CONTINUOUS
 10
27.5
 20
-67.59856
 30
0.0
 11
30.0
 21
-67.59856
 31
0.0
  0
INSERT
  8
0
  6
CONTINUOUS
  2
BLC27
 10
31.49116
 20
-67.571554
 30
0.0
 50
180.0
  0
LINE
  8
0
  6
DASHED
 10
17.5
 20
-75.0
 30
0.0
 11
17.5
 21
-70.0
 31
0.0
  0
INSERT
  8
0
  6
CONTINUOUS
  2
BLC15
 10
17.357916
 20
-77.5
 30
0.0
  0
POLYLINE
  8
0
  6
DASHED
 66
     1
 10
0.0
 20
0.0
 30
0.0
 70
     1
 40
0.25
 41
0.25
 71
     2
 72
   151
  0
VERTEX
  8
0
  6
DASHED
 10
27.125
 20
-52.5
 30
0.0
 42
1.0
  0
VERTEX
  8
0
  6
DASHED
 10
27.875
 20
-52.5
 30
0.0
 42
1.0
  0
SEQEND
  8
0
  6
DASHED
  0
LINE
  8
0
  6
DASHED
 10
27.5
 20
-52.5
 30
0.0
 11
27.5
 21
-75.0
 31
0.0
  0
LINE
  8
0
  6
CONTINUOUS
 10
30.0
 20
-57.5
 30
0.0
 11
30.0
 21
-77.5
 31
0.0
  0
LINE
  8
0
  6
CONTINUOUS
 10
30.0
 20
-57.5
 30
0.0
 11
32.5
 21
-52.5
 31
0.0
  0
LINE
  8
0
  6
CONTINUOUS
 10
27.5
 20
-52.5
 30
0.0
 11
30.0
 21
-57.5
 31
0.0
  0
LINE
  8
0
  6
CONTINUOUS
 10
25.0
 20
-52.5
 30
0.0
 11
35.0
 21
-52.5
 31
0.0
  0
LINE
  8
0
  6
DASHED
 10
20.0
 20
-4.810008
 30
0.0
 11
20.0
 21
-52.5
 31
0.0
  0
POLYLINE
  8
0
  6
DASHED
 66
     1
 10
0.0
 20
0.0
 30
0.0
 70
     1
 40
0.25
 41
0.25
 71
     2
 72
   251
  0
VERTEX
  8
0
  6
DASHED
 10
17.125
 20
-70.0
 30
0.0
 42
1.0
  0
VERTEX
  8
0
  6
DASHED
 10
17.875
 20
-70.0
 30
0.0
 42
1.0
  0
SEQEND
  8
0
  6
DASHED
  0
INSERT
  8
0
  6
CONTINUOUS
  2
BLC15
 10
27.357916
 20
-77.5
 30
0.0
  0
LINE
  8
0
  6
DASHED
 10
17.5
 20
-60.0
 30
0.0
 11
17.5
 21
-65.189984
 31
0.0
  0
LINE
  8
0
  6
DASHED
 10
0.0
 20
-60.0
 30
0.0
 11
17.5
 21
-60.0
 31
0.0
  0
LINE
  8
0
  6
DASHED
 10
5.0
 20
-10.0
 30
0.0
 11
5.0
 21
-50.0
 31
0.0
  0
LINE
  8
0
  6
DASHED
 10
35.006921
 20
-44.810016
 30
0.0
 11
20.0
 21
-44.810016
 31
0.0
  0
LINE
  8
0
  6
DASHED
 10
30.069797
 20
-24.810016
 30
0.0
 11
20.0
 21
-24.810016
 31
0.0
  0
POLYLINE
  8
0
  6
DASHED
 66
     1
 10
0.0
 20
0.0
 30
0.0
 70
     1
 40
0.25
 41
0.25
 71
     2
 72
   151
  0
VERTEX
  8
0
  6
DASHED
 10
4.625
 20
-50.0
 30
0.0
 42
1.0
  0
VERTEX
  8
0
  6
DASHED
 10
5.375
 20
-50.0
 30
0.0
 42
1.0
  0
SEQEND
  8
0
  6
DASHED
  0
POLYLINE
  8
0
  6
DASHED
 66
     1
 10
0.0
 20
0.0
 30
0.0
 70
     1
 40
0.25
 41
0.25
 71
     2
 72
   151
  0
VERTEX
  8
0
  6
DASHED
 10
4.625
 20
-30.0
 30
0.0
 42
1.0
  0
VERTEX
  8
0
  6
DASHED
 10
5.375
 20
-30.0
 30
0.0
 42
1.0
  0
SEQEND
  8
0
  6
DASHED
  0
LINE
  8
0
  6
DASHED
 10
25.0
 20
-27.5
 30
0.0
 11
25.0
 21
-52.5
 31
0.0
  0
LINE
  8
0
  6
DASHED
 10
30.0
 20
-27.5
 30
0.0
 11
30.0
 21
-52.5
 31
0.0
  0
LINE
  8
0
  6
DASHED
 10
35.0
 20
-27.5
 30
0.0
 11
35.0
 21
-52.5
 31
0.0
  0
INSERT
  8
0
  6
CONTINUOUS
  2
BLC15
 10
19.857916
 20
-55.0
 30
0.0
  0
INSERT
  8
0
  6
CONTINUOUS
  2
BLC27
 10
26.491154
 20
-2.381567
 30
0.0
 50
180.0
  0
LINE
  8
0
  6
DASHED
 10
25.0
 20
5.0
 30
0.0
 11
25.0
 21
-27.5
 31
0.0
  0
LINE
  8
0
  6
DASHED
 10
25.0
 20
12.5
 30
0.0
 11
25.0
 21
25.0
 31
0.0
  0
LINE
  8
0
  6
DASHED
 10
30.0
 20
35.0
 30
0.0
 11
30.0
 21
12.5
 31
0.0
  0
LINE
  8
0
  6
DASHED
 10
30.0
 20
5.0
 30
0.0
 11
30.0
 21
-27.5
 31
0.0
  0
LINE
  8
0
  6
DASHED
 10
35.0
 20
30.0
 30
0.0
 11
35.0
 21
12.5
 31
0.0
  0
LINE
  8
0
  6
DASHED
 10
35.0
 20
5.0
 30
0.0
 11
35.0
 21
-27.5
 31
0.0
  0
LINE
  8
0
  6
DASHED
 10
30.0
 20
25.0
 30
0.0
 11
30.0
 21
32.5
 31
0.0
  0
LINE
  8
0
  6
DASHED
 10
25.0
 20
25.0
 30
0.0
 11
25.0
 21
40.0
 31
0.0
  0
INSERT
  8
0
  6
CONTINUOUS
  2
BLC27
 10
31.51227
 20
-22.38157
 30
0.0
 50
180.0
  0
LINE
  8
0
  6
CONTINUOUS
 10
25.0
 20
5.0
 30
0.0
 11
22.5
 21
12.5
 31
0.0
  0
LINE
  8
0
  6
CONTINUOUS
 10
30.0
 20
5.0
 30
0.0
 11
27.5
 21
12.5
 31
0.0
  0
LINE
  8
0
  6
CONTINUOUS
 10
35.0
 20
5.0
 30
0.0
 11
32.5
 21
12.5
 31
0.0
  0
LINE
  8
0
  6
CONTINUOUS
 10
25.0
 20
12.5
 30
0.0
 11
24.5
 21
13.0
 31
0.0
  0
LINE
  8
0
  6
CONTINUOUS
 10
25.0
 20
12.5
 30
0.0
 11
25.5
 21
12.0
 31
0.0
  0
LINE
  8
0
  6
CONTINUOUS
 10
25.0
 20
12.5
 30
0.0
 11
25.5
 21
13.0
 31
0.0
  0
LINE
  8
0
  6
CONTINUOUS
 10
25.0
 20
12.5
 30
0.0
 11
24.5
 21
12.0
 31
0.0
  0
LINE
  8
0
  6
CONTINUOUS
 10
30.0
 20
12.5
 30
0.0
 11
30.5
 21
13.0
 31
0.0
  0
LINE
  8
0
  6
CONTINUOUS
 10
30.0
 20
12.5
 30
0.0
 11
30.5
 21
12.0
 31
0.0
  0
LINE
  8
0
  6
CONTINUOUS
 10
30.0
 20
12.5
 30
0.0
 11
29.5
 21
12.0
 31
0.0
  0
LINE
  8
0
  6
CONTINUOUS
 10
30.0
 20
12.5
 30
0.0
 11
29.5
 21
13.0
 31
0.0
  0
LINE
  8
0
  6
CONTINUOUS
 10
35.0
 20
12.5
 30
0.0
 11
35.5
 21
12.0
 31
0.0
  0
LINE
  8
0
  6
CONTINUOUS
 10
35.0
 20
12.5
 30
0.0
 11
35.5
 21
13.0
 31
0.0
  0
LINE
  8
0
  6
CONTINUOUS
 10
35.0
 20
12.5
 30
0.0
 11
34.5
 21
13.0
 31
0.0
  0
LINE
  8
0
  6
CONTINUOUS
 10
35.0
 20
12.5
 30
0.0
 11
34.5
 21
12.0
 31
0.0
  0
POLYLINE
  8
0
  6
CONTINUOUS
 66
     1
 10
0.0
 20
0.0
 30
0.0
 70
     1
 40
0.25
 41
0.25
 71
     2
 72
   151
  0
VERTEX
  8
0
  6
CONTINUOUS
 10
34.625
 20
30.0
 30
0.0
 42
1.0
  0
VERTEX
  8
0
  6
CONTINUOUS
 10
35.375
 20
30.0
 30
0.0
 42
1.0
  0
SEQEND
  8
0
  6
CONTINUOUS
  0
POLYLINE
  8
0
  6
CONTINUOUS
 66
     1
 10
0.0
 20
0.0
 30
0.0
 70
     1
 40
0.25
 41
0.25
 71
     2
 72
   151
  0
VERTEX
  8
0
  6
CONTINUOUS
 10
29.625
 20
35.0
 30
0.0
 42
1.0
  0
VERTEX
  8
0
  6
CONTINUOUS
 10
30.375
 20
35.0
 30
0.0
 42
1.0
  0
SEQEND
  8
0
  6
CONTINUOUS
  0
POLYLINE
  8
0
  6
CONTINUOUS
 66
     1
 10
0.0
 20
0.0
 30
0.0
 70
     1
 40
0.25
 41
0.25
 71
     2
 72
   151
  0
VERTEX
  8
0
  6
CONTINUOUS
 10
24.625
 20
40.0
 30
0.0
 42
1.0
  0
VERTEX
  8
0
  6
CONTINUOUS
 10
25.375
 20
40.0
 30
0.0
 42
1.0
  0
SEQEND
  8
0
  6
CONTINUOUS
  0
INSERT
  8
0
  6
CONTINUOUS
  2
BLC27
 10
36.491155
 20
-42.381569
 30
0.0
 50
180.0
  0
LINE
  8
0
  6
DASHED
 10
25.0
 20
-4.810008
 30
0.0
 11
20.0
 21
-4.810008
 31
0.0
  0
TEXT
  8
0
  6
CONTINUOUS
 10
8.732328
 20
38.985054
 30
0.0
 40
2.0
  1
L1(R)
 11
8.732328
 21
38.318387
 31
0.0
 73
     1
  0
TEXT
  8
0
  6
CONTINUOUS
 10
8.732328
 20
33.928359
 30
0.0
 40
2.0
  1
L2(S)
 11
8.732328
 21
33.261693
 31
0.0
 73
     1
  0
TEXT
  8
0
  6
CONTINUOUS
 10
8.732328
 20
29.006967
 30
0.0
 40
2.0
  1
L3(T)
 11
8.732328
 21
28.3403
 31
0.0
 73
     1
  0
LINE
  8
0
  6
DASHED
 10
-5.0
 20
-90.0
 30
0.0
 11
52.5
 21
-90.0
 31
0.0
  0
LINE
  8
0
  6
CONTINUOUS
 10
-5.0
 20
-85.0
 30
0.0
 11
-2.5
 21
-85.0
 31
0.0
  0
LINE
  8
0
  6
CONTINUOUS
 10
-5.0
 20
-80.0
 30
0.0
 11
-2.5
 21
-80.0
 31
0.0
  0
LINE
  8
0
  6
DASHED
 10
-5.0
 20
-70.0
 30
0.0
 11
27.5
 21
-70.0
 31
0.0
  0
LINE
  8
0
  6
CONTINUOUS
 10
-5.0
 20
-65.0
 30
0.0
 11
-2.5
 21
-65.0
 31
0.0
  0
LINE
  8
0
  6
CONTINUOUS
 10
-5.0
 20
-60.0
 30
0.0
 11
-2.5
 21
-60.0
 31
0.0
  0
LINE
  8
0
  6
DASHED
 10
-5.0
 20
-50.0
 30
0.0
 11
20.0
 21
-50.0
 31
0.0
  0
LINE
  8
0
  6
CONTINUOUS
 10
-5.0
 20
-45.0
 30
0.0
 11
-2.5
 21
-45.0
 31
0.0
  0
LINE
  8
0
  6
CONTINUOUS
 10
-5.0
 20
-40.0
 30
0.0
 11
-2.5
 21
-40.0
 31
0.0
  0
LINE
  8
0
  6
DASHED
 10
-5.0
 20
-30.0
 30
0.0
 11
5.0
 21
-30.0
 31
0.0
  0
LINE
  8
0
  6
CONTINUOUS
 10
-5.0
 20
-25.0
 30
0.0
 11
-2.5
 21
-25.0
 31
0.0
  0
LINE
  8
0
  6
CONTINUOUS
 10
-5.0
 20
-20.0
 30
0.0
 11
-2.5
 21
-20.0
 31
0.0
  0
LINE
  8
0
  6
DASHED
 10
-5.0
 20
-10.0
 30
0.0
 11
5.0
 21
-10.0
 31
0.0
  0
LINE
  8
0
  6
CONTINUOUS
 10
-5.0
 20
-5.0
 30
0.0
 11
-2.5
 21
-5.0
 31
0.0
  0
LINE
  8
0
  6
CONTINUOUS
 10
-5.0
 20
0.0
 30
0.0
 11
-2.5
 21
0.0
 31
0.0
  0
POLYLINE
  8
0
  6
DASHED
 66
     1
 10
0.0
 20
0.0
 30
0.0
 70
     1
 40
0.25
 41
0.25
 71
     2
 72
   151
  0
VERTEX
  8
0
  6
DASHED
 10
77.125
 20
7.5
 30
0.0
 42
1.0
  0
VERTEX
  8
0
  6
DASHED
 10
77.875
 20
7.5
 30
0.0
 42
1.0
  0
SEQEND
  8
0
  6
DASHED
  0
LINE
  8
0
  6
DASHED
 10
77.5
 20
-12.5
 30
0.0
 11
77.5
 21
7.5
 31
0.0
  0
LINE
  8
0
  6
DASHED
 10
60.0
 20
-12.5
 30
0.0
 11
77.5
 21
-12.5
 31
0.0
  0
LINE
  8
0
  6
DASHED
 10
72.5
 20
12.68998
 30
0.0
 11
81.663362
 21
12.68998
 31
0.0
  0
LINE
  8
0
  6
DASHED
 10
72.5
 20
7.5
 30
0.0
 11
81.84682
 21
7.5
 31
0.0
  0
INSERT
  8
0
  6
CONTINUOUS
  2
BLC15
 10
85.0
 20
12.547896
 30
0.0
 50
90.0
  0
INSERT
  8
0
  6
CONTINUOUS
  2
BLC15
 10
85.0
 20
7.357916
 30
0.0
 50
90.0
  0
LINE
  8
0
  6
CONTINUOUS
 10
67.5
 20
7.5
 30
0.0
 11
72.5
 21
7.5
 31
0.0
  0
LINE
  8
0
  6
CONTINUOUS
 10
65.0
 20
0.0
 30
0.0
 11
60.0
 21
7.5
 31
0.0
  0
LINE
  8
0
  6
CONTINUOUS
 10
67.5
 20
0.0
 30
0.0
 11
65.0
 21
0.0
 31
0.0
  0
LINE
  8
0
  6
CONTINUOUS
 10
66.506031
 20
5.098556
 30
0.0
 11
67.478167
 21
5.098556
 31
0.0
  0
LINE
  8
0
  6
CONTINUOUS
 10
66.496128
 20
7.499996
 30
0.0
 11
67.473936
 21
7.499996
 31
0.0
  0
LINE
  8
0
  6
CONTINUOUS
 10
66.500897
 20
2.68998
 30
0.0
 11
67.5
 21
2.68998
 31
0.0
  0
ARC
  8
0
  6
CONTINUOUS
 10
65.864862
 20
3.894238
 30
0.0
 40
1.204309
 50
90.0
 51
270.0
  0
LINE
  8
0
  6
CONTINUOUS
 10
65.859898
 20
2.689937
 30
0.0
 11
66.509496
 21
2.689937
 31
0.0
  0
LINE
  8
0
  6
CONTINUOUS
 10
65.858762
 20
7.499993
 30
0.0
 11
66.502261
 21
7.499993
 31
0.0
  0
LINE
  8
0
  6
CONTINUOUS
 10
65.858762
 20
5.098547
 30
0.0
 11
66.50836
 21
5.098547
 31
0.0
  0
ARC
  8
0
  6
CONTINUOUS
 10
65.864862
 20
6.296095
 30
0.0
 40
1.204309
 50
90.0
 51
265.706237
  0
LINE
  8
0
  6
CONTINUOUS
 10
67.5
 20
2.68998
 30
0.0
 11
67.5
 21
0.0
 31
0.0
  0
LINE
  8
0
  6
CONTINUOUS
 10
52.5
 20
12.68998
 30
0.0
 11
72.5
 21
12.68998
 31
0.0
  0
POLYLINE
  8
0
  6
DASHED
 66
     1
 10
0.0
 20
0.0
 30
0.0
 70
     1
 40
0.25
 41
0.25
 71
     2
 72
   151
  0
VERTEX
  8
0
  6
DASHED
 10
67.125
 20
30.0
 30
0.0
 42
1.0
  0
VERTEX
  8
0
  6
DASHED
 10
67.875
 20
30.0
 30
0.0
 42
1.0
  0
SEQEND
  8
0
  6
DASHED
  0
LINE
  8
0
  6
DASHED
 10
67.5
 20
17.5
 30
0.0
 11
67.5
 21
30.0
 31
0.0
  0
INSERT
  8
0
  6
CONTINUOUS
  2
BLC27
 10
65.965932
 20
15.071549
 30
0.0
  0
LINE
  8
0
  6
DASHED
 10
103.595465
 20
30.0
 30
0.0
 11
17.5
 21
30.0
 31
0.0
  0
LINE
  8
0
  6
DASHED
 10
103.595465
 20
35.0
 30
0.0
 11
17.5
 21
35.0
 31
0.0
  0
LINE
  8
0
  6
DASHED
 10
103.595465
 20
40.0
 30
0.0
 11
17.5
 21
40.0
 31
0.0
  0
ENDBLK
  8
0
  0
BLOCK
  8
0
  2
B146
 70
     0
 10
0.0
 20
0.0
 30
0.0
  3
B146
  0
LINE
  8
0
 10
17.5
 20
-4.828202
 30
0.0
 11
62.5
 21
-4.828202
 31
0.0
  0
LINE
  8
0
  6
CONTINUOUS
 10
17.5
 20
-10.0
 30
0.0
 11
62.5
 21
-10.0
 31
0.0
  0
LINE
  8
0
  6
CONTINUOUS
 10
5.0
 20
0.0
 30
0.0
 11
62.5
 21
0.0
 31
0.0
  0
LINE
  8
0
  6
CONTINUOUS
 10
5.0
 20
-25.0
 30
0.0
 11
62.5
 21
-25.0
 31
0.0
  0
TEXT
  8
0
  6
CENTER
 10
20.0
 20
-21.666667
 30
0.0
 40
2.0
  1
25-28
  0
TEXT
  8
0
  6
CENTER
 10
19.998602
 20
-8.389298
 30
0.0
 40
2.0
  1
In=0,2A
  0
LINE
  8
0
  6
CONTINUOUS
 10
17.5
 20
-25.0
 30
0.0
 11
17.5
 21
0.0
 31
0.0
  0
LINE
  8
0
  6
CONTINUOUS
 10
12.616787
 20
-20.534894
 30
0.0
 11
12.616787
 21
-21.889164
 31
0.0
  0
LINE
  8
0
  6
CONTINUOUS
 10
11.406559
 20
-21.889164
 30
0.0
 11
12.6009
 21
-21.889164
 31
0.0
  0
LINE
  8
0
  6
CONTINUOUS
 10
12.6009
 20
-21.889164
 30
0.0
 11
13.795241
 21
-21.889164
 31
0.0
  0
LINE
  8
0
  6
CONTINUOUS
 10
11.784965
 20
-22.368774
 30
0.0
 11
13.369536
 21
-22.368774
 31
0.0
  0
LINE
  8
0
  6
CONTINUOUS
 10
12.116069
 20
-22.856949
 30
0.0
 11
13.002956
 21
-22.856949
 31
0.0
  0
TEXT
  8
0
  6
CENTER
 10
10.0
 20
-21.666667
 30
0.0
 40
2.0
  1
I
  0
TEXT
  8
0
  6
CENTER
 10
10.0
 20
-18.333333
 30
0.0
 40
2.0
  1
L3
  0
TEXT
  8
0
  6
CENTER
 10
10.0
 20
-15.0
 30
0.0
 40
2.0
  1
L1
  0
TEXT
  8
0
  6
CENTER
 10
50.0
 20
-21.666667
 30
0.0
 40
2.0
  1
25-26
  0
TEXT
  8
0
  6
CENTER
 10
50.0
 20
-18.333333
 30
0.0
 40
2.0
  1
7-8
  0
TEXT
  8
0
  6
CENTER
 10
50.0
 20
-15.0
 30
0.0
 40
2.0
  1
1-2
  0
TEXT
  8
0
  6
CENTER
 10
35.0
 20
-21.666667
 30
0.0
 40
2.0
  1
25-27
  0
TEXT
  8
0
  6
CENTER
 10
35.0
 20
-18.333333
 30
0.0
 40
2.0
  1
7-9
  0
TEXT
  8
0
  6
CENTER
 10
35.0
 20
-15.0
 30
0.0
 40
2.0
  1
1-3
  0
LINE
  8
0
 10
5.0
 20
0.0
 30
0.0
 11
5.0
 21
-25.0
 31
0.0
  0
LINE
  8
0
 10
62.5
 20
-25.0
 30
0.0
 11
62.5
 21
0.0
 31
0.0
  0
LINE
  8
0
 10
32.5
 20
-4.828202
 30
0.0
 11
32.5
 21
-25.0
 31
0.0
  0
LINE
  8
0
 10
47.5
 20
-4.828202
 30
0.0
 11
47.5
 21
-25.0
 31
0.0
  0
TEXT
  8
0
 10
23.041221
 20
-4.161535
 30
0.0
 40
2.0
  1
TERMINALS / UTTAG
 11
23.041221
 21
-4.828202
 31
0.0
 73
     1
  0
TEXT
  8
0
 10
35.120167
 20
-8.449983
 30
0.0
 40
2.0
  1
In=1A 
 11
35.120167
 21
-9.11665
 31
0.0
 73
     1
  0
TEXT
  8
0
 10
49.969965
 20
-8.449983
 30
0.0
 40
2.0
  1
In=5A
 11
49.969965
 21
-9.11665
 31
0.0
 73
     1
  0
TEXT
  8
0
  6
CONTINUOUS
 10
1.50882
 20
1.838465
 30
0.0
 40
2.0
  1
1)
 11
1.50882
 21
1.171798
 31
0.0
 73
     1
  0
ENDBLK
  8
0
  0
BLOCK
  8
0
  2
B155
 70
     0
 10
0.0
 20
0.0
 30
0.0
  3
B155
  0
LINE
  8
0
  6
CONTINUOUS
 10
0.0
 20
0.0
 30
0.0
 11
0.0
 21
-1.35427
 31
0.0
  0
LINE
  8
0
  6
CONTINUOUS
 10
-1.210228
 20
-1.35427
 30
0.0
 11
-0.015887
 21
-1.35427
 31
0.0
  0
LINE
  8
0
  6
CONTINUOUS
 10
-0.015887
 20
-1.35427
 30
0.0
 11
1.178454
 21
-1.35427
 31
0.0
  0
LINE
  8
0
  6
CONTINUOUS
 10
-0.831823
 20
-1.976333
 30
0.0
 11
0.752749
 21
-1.976333
 31
0.0
  0
LINE
  8
0
  6
CONTINUOUS
 10
-0.500718
 20
-2.587966
 30
0.0
 11
0.386169
 21
-2.587966
 31
0.0
  0
ENDBLK
  8
0
  0
BLOCK
  8
0
  2
B73
 70
     0
 10
0.0
 20
0.0
 30
0.0
  3
B73
  0
INSERT
  8
BASE1
  6
CONTINUOUS
  2
BLC29
 10
-1.512794
 20
1.285397
 30
0.0
 41
0.53231
 42
0.53231
 50
180.0
 43
0.53231
  0
INSERT
  8
BASE1
  6
CONTINUOUS
  2
BLC29
 10
2.106391
 20
1.435478
 30
0.0
 41
0.53231
 42
0.53231
 43
0.53231
  0
LINE
  8
BASE1
  6
CONTINUOUS
 10
-3.513924
 20
1.367095
 30
0.0
 11
4.029662
 21
1.367095
 31
0.0
  0
ENDBLK
  8
0
  0
BLOCK
  8
0
  2
B17
 70
     0
 10
0.0
 20
0.0
 30
0.0
  3
B17
  0
TEXT
  8
0
 10
-5.0
 20
-13.107802
 30
0.0
 40
2.0
  1
MOTORSKYDDSRELÄ
 11
-5.0
 21
-13.774469
 31
0.0
 73
     1
  0
TEXT
  8
0
 10
-5.0
 20
-9.774469
 30
0.0
 40
2.0
  1
RELAY
 11
-5.0
 21
-10.441136
 31
0.0
 73
     1
  0
TEXT
  8
0
 10
-5.0
 20
-6.441136
 30
0.0
 40
2.0
  1
MOTOR PROTECTION
 11
-5.0
 21
-7.107802
 31
0.0
 73
     1
  0
INSERT
  8
0
  2
BLC16
 10
0.0
 20
0.0
 30
0.0
  0
ENDBLK
  8
0
  0
BLOCK
  8
0
  2
BLC16
 70
    64
 10
0.0
 20
0.0
 30
0.0
  3
BLC16
  0
LINE
  8
0
  6
CONTINUOUS
 10
0.007689
 20
38.054928
 30
0.0
 11
19.983683
 21
38.054928
 31
0.0
  0
LINE
  8
0
  6
CONTINUOUS
 10
19.983683
 20
38.054928
 30
0.0
 11
19.983683
 21
-0.003751
 31
0.0
  0
LINE
  8
0
  6
CONTINUOUS
 10
19.983683
 20
-0.003751
 30
0.0
 11
0.007689
 21
-0.003751
 31
0.0
  0
LINE
  8
0
  6
CONTINUOUS
 10
0.007689
 20
-0.003751
 30
0.0
 11
0.007689
 21
38.054928
 31
0.0
  0
LINE
  8
0
  6
CONTINUOUS
 10
14.152643
 20
36.919738
 30
0.0
 11
14.152643
 21
33.528469
 31
0.0
  0
LINE
  8
0
  6
CONTINUOUS
 10
14.152643
 20
33.528469
 30
0.0
 11
11.560435
 21
33.528469
 31
0.0
  0
LINE
  8
0
  6
CONTINUOUS
 10
11.560435
 20
33.528469
 30
0.0
 11
11.560435
 21
30.778433
 31
0.0
  0
LINE
  8
0
  6
CONTINUOUS
 10
11.560435
 20
30.778433
 30
0.0
 11
14.152643
 21
30.778433
 31
0.0
  0
LINE
  8
0
  6
CONTINUOUS
 10
14.152643
 20
30.778433
 30
0.0
 11
14.152643
 21
27.387164
 31
0.0
  0
TEXT
  8
0
  6
CONTINUOUS
 10
6.558569
 20
30.805266
 30
0.0
 40
2.5
  1
2
 11
6.558569
 21
29.971932
 31
0.0
 73
     1
  0
TEXT
  8
0
  6
CONTINUOUS
 10
6.553289
 20
23.854078
 30
0.0
 40
2.5
  1
2 I
 11
6.553289
 21
23.020744
 31
0.0
 73
     1
  0
LINE
  8
0
  6
CONTINUOUS
 10
12.942534
 20
26.359129
 30
0.0
 11
15.288299
 21
25.023775
 31
0.0
  0
LINE
  8
0
  6
CONTINUOUS
 10
15.288299
 20
25.023775
 30
0.0
 11
12.942534
 21
23.833856
 31
0.0
  0
LINE
  8
0
  6
CONTINUOUS
 10
14.169823
 20
26.359129
 30
0.0
 11
16.515589
 21
25.023775
 31
0.0
  0
LINE
  8
0
  6
CONTINUOUS
 10
16.515589
 20
25.023775
 30
0.0
 11
14.169823
 21
23.833856
 31
0.0
  0
TEXT
  8
0
  6
CONTINUOUS
 10
11.566446
 20
19.235679
 30
0.0
 40
2.5
  1
I
 11
11.566446
 21
18.402346
 31
0.0
 73
     1
  0
TEXT
  8
0
  6
CONTINUOUS
 10
13.018181
 20
18.902346
 30
0.0
 40
1.5
  1
2
 11
13.018181
 21
18.402346
 31
0.0
 73
     1
  0
LINE
  8
0
  6
CONTINUOUS
 10
10.65733
 20
12.773825
 30
0.0
 11
13.003095
 21
13.963744
 31
0.0
  0
LINE
  8
0
  6
CONTINUOUS
 10
13.003095
 20
11.438471
 30
0.0
 11
10.65733
 21
12.773825
 31
0.0
  0
LINE
  8
0
  6
CONTINUOUS
 10
6.557002
 20
16.714658
 30
0.0
 11
15.281743
 21
16.714658
 31
0.0
  0
LINE
  8
0
  6
CONTINUOUS
 10
6.557002
 20
17.523984
 30
0.0
 11
6.557002
 21
15.908791
 31
0.0
  0
LINE
  8
0
  6
CONTINUOUS
 10
15.286518
 20
17.523984
 30
0.0
 11
15.286518
 21
15.908791
 31
0.0
  0
ARC
  8
0
  6
CONTINUOUS
 10
12.684846
 20
18.508045
 30
0.0
 40
2.922744
 50
193.105513
 51
283.105513
  0
TEXT
  8
0
  6
CONTINUOUS
 10
6.557002
 20
11.567974
 30
0.0
 40
2.5
  1
2I
 11
6.557002
 21
10.734641
 31
0.0
 73
     1
  0
LINE
  8
0
  6
CONTINUOUS
 10
6.557002
 20
9.441103
 30
0.0
 11
15.281743
 21
9.441103
 31
0.0
  0
LINE
  8
0
  6
CONTINUOUS
 10
15.286518
 20
10.250429
 30
0.0
 11
15.286518
 21
8.635236
 31
0.0
  0
LINE
  8
0
  6
CONTINUOUS
 10
6.557002
 20
10.250429
 30
0.0
 11
6.557002
 21
8.635236
 31
0.0
  0
TEXT
  8
0
  6
CONTINUOUS
 10
6.557002
 20
4.778631
 30
0.0
 40
2.5
  1
I
 11
6.557002
 21
3.945298
 31
0.0
 73
     1
  0
LINE
  8
0
  6
CONTINUOUS
 10
9.509029
 20
6.822462
 30
0.0
 11
9.509029
 21
5.477736
 31
0.0
  0
LINE
  8
0
  6
CONTINUOUS
 10
8.615065
 20
5.477736
 30
0.0
 11
9.52622
 21
5.477736
 31
0.0
  0
LINE
  8
0
  6
CONTINUOUS
 10
9.509029
 20
5.477736
 30
0.0
 11
10.402992
 21
5.477736
 31
0.0
  0
LINE
  8
0
  6
CONTINUOUS
 10
8.901592
 20
5.082328
 30
0.0
 11
9.509029
 21
5.082328
 31
0.0
  0
LINE
  8
0
  6
CONTINUOUS
 10
9.509029
 20
5.082328
 30
0.0
 11
10.150849
 21
5.082328
 31
0.0
  0
LINE
  8
0
  6
CONTINUOUS
 10
9.981861
 20
4.719969
 30
0.0
 11
9.072041
 21
4.719969
 31
0.0
  0
LINE
  8
0
  6
CONTINUOUS
 10
15.286518
 20
2.797924
 30
0.0
 11
15.286518
 21
1.182731
 31
0.0
  0
LINE
  8
0
  6
CONTINUOUS
 10
6.557002
 20
1.988598
 30
0.0
 11
15.281743
 21
1.988598
 31
0.0
  0
LINE
  8
0
  6
CONTINUOUS
 10
6.557002
 20
2.797924
 30
0.0
 11
6.557002
 21
1.182731
 31
0.0
  0
ENDBLK
  8
0
  0
BLOCK
  8
0
  2
B114
 70
     0
 10
0.0
 20
0.0
 30
0.0
  3
B114
  0
LINE
  8
BASE
  6
CONTINUOUS
 10
1.78724
 20
-7.796705
 30
0.0
 11
2.674127
 21
-7.796705
 31
0.0
  0
LINE
  8
BASE
  6
CONTINUOUS
 10
1.456135
 20
-7.30853
 30
0.0
 11
3.040706
 21
-7.30853
 31
0.0
  0
LINE
  8
BASE
  6
CONTINUOUS
 10
2.272071
 20
-6.82892
 30
0.0
 11
3.466412
 21
-6.82892
 31
0.0
  0
LINE
  8
BASE
  6
CONTINUOUS
 10
1.07773
 20
-6.82892
 30
0.0
 11
2.272071
 21
-6.82892
 31
0.0
  0
LINE
  8
BASE
  6
CONTINUOUS
 10
2.287958
 20
-5.47465
 30
0.0
 11
2.287958
 21
-6.82892
 31
0.0
  0
TEXT
  8
BASE
  6
CONTINUOUS
 10
-0.664068
 20
-7.51848
 30
0.0
 40
2.5
  1
I
 11
-0.664068
 21
-8.351813
 31
0.0
 73
     1
  0
INSERT
  8
BASE
  6
CONTINUOUS
  2
BLC29
 10
6.408728
 20
-3.649613
 30
0.0
  0
LINE
  8
BASE
  6
CONTINUOUS
 10
-1.054336
 20
-3.78219
 30
0.0
 11
5.899413
 21
-3.78219
 31
0.0
  0
TEXT
  8
BASE
  6
CONTINUOUS
 10
1.258508
 20
-2.525867
 30
0.0
 40
2.0
  1
2f
  0
TEXT
  8
BASE
  6
CONTINUOUS
 10
-0.664068
 20
-2.460129
 30
0.0
 40
2.5
  1
I
 11
-0.664068
 21
-3.293463
 31
0.0
 73
     1
  0
LINE
  8
BASE
  6
CONTINUOUS
 10
6.463026
 20
4.375053
 30
0.0
 11
4.11726
 21
3.185134
 31
0.0
  0
LINE
  8
BASE
  6
CONTINUOUS
 10
4.11726
 20
5.710407
 30
0.0
 11
6.463026
 21
4.375053
 31
0.0
  0
TEXT
  8
BASE
  6
CONTINUOUS
 10
-0.664068
 20
3.656177
 30
0.0
 40
2.5
  1
I
 11
-0.664068
 21
2.822844
 31
0.0
 73
     1
  0
LINE
  8
BASE
  6
CONTINUOUS
 10
2.287958
 20
5.700007
 30
0.0
 11
2.287958
 21
4.345737
 31
0.0
  0
LINE
  8
BASE
  6
CONTINUOUS
 10
1.07773
 20
4.345737
 30
0.0
 11
2.272071
 21
4.345737
 31
0.0
  0
LINE
  8
BASE
  6
CONTINUOUS
 10
2.272071
 20
4.345737
 30
0.0
 11
3.466412
 21
4.345737
 31
0.0
  0
LINE
  8
BASE
  6
CONTINUOUS
 10
1.456135
 20
3.866126
 30
0.0
 11
3.040706
 21
3.866126
 31
0.0
  0
LINE
  8
BASE
  6
CONTINUOUS
 10
1.78724
 20
3.377952
 30
0.0
 11
2.674127
 21
3.377952
 31
0.0
  0
ENDBLK
  8
0
  0
ENDSEC
  0
SECTION
  2
ENTITIES
  0
INSERT
  8
0
  2
1
 10
65.405438
 20
98.713066
 30
0.0
  0
INSERT
  8
0
  2
1
 10
72.541652
 20
49.71056
 30
0.0
  0
INSERT
  8
0
  2
1
 10
85.390443
 20
73.497234
 30
0.0
  0
LINE
  8
0
  6
CENTER
 62
   249
 10
255.0
 20
255.0
 30
0.0
 11
255.0
 21
97.5
 31
0.0
  0
LINE
  8
0
  6
CENTER
 62
   249
 10
255.0
 20
97.5
 30
0.0
 11
255.0
 21
52.5
 31
0.0
  0
LINE
  8
0
  6
CONTINUOUS
 62
   249
 10
162.5
 20
95.0
 30
0.0
 11
162.5
 21
88.249065
 31
0.0
  0
LINE
  8
0
  6
CONTINUOUS
 62
   249
 10
230.0
 20
62.5
 30
0.0
 11
240.0
 21
62.5
 31
0.0
  0
LINE
  8
0
  6
CONTINUOUS
 62
   249
 10
230.0
 20
62.5
 30
0.0
 11
232.5
 21
65.0
 31
0.0
  0
LINE
  8
0
  6
CONTINUOUS
 62
   249
 10
235.0
 20
62.5
 30
0.0
 11
237.5
 21
65.0
 31
0.0
  0
LINE
  8
0
  6
CONTINUOUS
 62
   249
 10
240.0
 20
62.5
 30
0.0
 11
242.5
 21
65.0
 31
0.0
  0
LINE
  8
0
  6
CONTINUOUS
 62
   249
 10
235.0
 20
62.5
 30
0.0
 11
235.0
 21
52.5
 31
0.0
  0
LINE
  8
0
  6
CONTINUOUS
 62
   249
 10
220.0
 20
70.0
 30
0.0
 11
220.0
 21
52.5
 31
0.0
  0
LINE
  8
0
  6
CONTINUOUS
 62
   249
 10
215.0
 20
70.0
 30
0.0
 11
215.0
 21
52.5
 31
0.0
  0
LINE
  8
0
  6
DASHED
 62
   249
 10
220.0
 20
52.5
 30
0.0
 11
220.0
 21
45.0
 31
0.0
  0
LINE
  8
0
  6
DASHED
 62
   249
 10
235.0
 20
52.5
 30
0.0
 11
235.0
 21
45.0
 31
0.0
  0
LINE
  8
0
  6
DASHED
 62
   249
 10
215.0
 20
52.5
 30
0.0
 11
215.0
 21
45.0
 31
0.0
  0
LINE
  8
0
  6
DASHED
 62
   249
 10
162.5
 20
52.5
 30
0.0
 11
162.5
 21
45.0
 31
0.0
  0
LINE
  8
0
  6
DASHED
 62
   249
 10
157.5
 20
52.5
 30
0.0
 11
157.5
 21
45.0
 31
0.0
  0
LINE
  8
0
  6
DASHED
 62
   249
 10
152.5
 20
52.5
 30
0.0
 11
152.5
 21
45.0
 31
0.0
  0
LINE
  8
0
  6
CONTINUOUS
 62
   249
 10
172.5
 20
145.232891
 30
0.0
 11
202.950615
 21
145.232891
 31
0.0
  0
TEXT
  8
0
  6
CONTINUOUS
 62
   249
 10
184.408766
 20
141.295815
 30
0.0
 40
2.5
  1
IRF
 11
184.408766
 21
140.462481
 31
0.0
 73
     1
  0
LINE
  8
0
  6
CONTINUOUS
 62
   249
 10
202.950615
 20
140.0
 30
0.0
 11
172.5
 21
140.0
 31
0.0
  0
LINE
  8
0
  6
CONTINUOUS
 62
   249
 10
202.950615
 20
220.0
 30
0.0
 11
202.950615
 21
140.0
 31
0.0
  0
LINE
  8
0
  6
CONTINUOUS
 62
   249
 10
157.5
 20
95.0
 30
0.0
 11
157.5
 21
52.5
 31
0.0
  0
LINE
  8
0
  6
CONTINUOUS
 62
   249
 10
172.5
 20
152.5
 30
0.0
 11
202.950615
 21
152.5
 31
0.0
  0
TEXT
  8
0
  6
CONTINUOUS
 62
   249
 10
176.230324
 20
147.307235
 30
0.0
 40
2.5
  1
SERIAL I/O
  0
CIRCLE
  8
0
  6
CONTINUOUS
 62
   249
 10
171.512659
 20
142.498324
 30
0.0
 40
1.0
  0
LINE
  8
0
  6
CONTINUOUS
 62
   249
 10
172.5
 20
220.0
 30
0.0
 11
202.950615
 21
220.0
 31
0.0
  0
LINE
  8
0
  6
CONTINUOUS
 62
   249
 10
192.5
 20
152.5
 30
0.0
 11
192.5
 21
220.0
 31
0.0
  0
LINE
  8
0
  6
CONTINUOUS
 62
   249
 10
172.5
 20
220.0
 30
0.0
 11
172.5
 21
140.0
 31
0.0
  0
LINE
  8
0
  6
CENTER
 62
   249
 10
37.5
 20
255.0
 30
0.0
 11
37.5
 21
52.5
 31
0.0
  0
LINE
  8
0
  6
CENTER
 62
   249
 10
37.5
 20
52.5
 30
0.0
 11
255.0
 21
52.5
 31
0.0
  0
LINE
  8
0
  6
CONTINUOUS
 62
   249
 10
145.0
 20
77.5
 30
0.0
 11
147.5
 21
77.5
 31
0.0
  0
LINE
  8
0
  6
CONTINUOUS
 62
   249
 10
147.5
 20
77.5
 30
0.0
 11
147.5
 21
52.5
 31
0.0
  0
LINE
  8
0
  6
CONTINUOUS
 62
   249
 10
152.5
 20
85.0
 30
0.0
 11
152.5
 21
52.5
 31
0.0
  0
LINE
  8
0
  6
CONTINUOUS
 62
   249
 10
235.0
 20
180.0
 30
0.0
 11
236.0
 21
179.0
 31
0.0
  0
LINE
  8
0
  6
CONTINUOUS
 62
   249
 10
235.0
 20
220.0
 30
0.0
 11
236.0
 21
221.0
 31
0.0
  0
LINE
  8
0
  6
CONTINUOUS
 62
   249
 10
235.0
 20
220.0
 30
0.0
 11
235.0
 21
195.0
 31
0.0
  0
LINE
  8
0
  6
CONTINUOUS
 62
   249
 10
235.0
 20
195.0
 30
0.0
 11
235.0
 21
180.0
 31
0.0
  0
LINE
  8
0
  6
CENTER
 62
   249
 10
255.0
 20
255.0
 30
0.0
 11
37.5
 21
255.0
 31
0.0
  0
LINE
  8
0
  6
CONTINUOUS
 62
   249
 10
246.338166
 20
86.092819
 30
0.0
 11
248.257416
 21
88.780896
 31
0.0
  0
TEXT
  8
0
  6
CONTINUOUS
 62
   249
 10
249.769657
 20
88.626457
 30
0.0
 40
2.0
  1
9
  7
ROMANS
  0
TEXT
  8
0
  6
CONTINUOUS
 62
   249
 10
231.696317
 20
83.642085
 30
0.0
 40
2.0
  1
SERIAL PORT
  7
ROMANS
  0
ARC
  8
0
  6
CONTINUOUS
 62
   249
 10
257.5
 20
87.5
 30
0.0
 40
2.5
 50
90.0
 51
270.0
  0
LINE
  8
0
  6
CONTINUOUS
 62
   249
 10
256.819436
 20
87.99
 30
0.0
 11
256.819436
 21
87.01
 31
0.0
  0
LINE
  8
0
  6
CONTINUOUS
 62
   249
 10
256.819436
 20
87.01
 30
0.0
 11
260.249436
 21
87.01
 31
0.0
  0
LINE
  8
0
  6
CONTINUOUS
 62
   249
 10
260.249436
 20
87.01
 30
0.0
 11
260.249436
 21
87.99
 31
0.0
  0
LINE
  8
0
  6
CONTINUOUS
 62
   249
 10
260.249436
 20
87.99
 30
0.0
 11
256.819436
 21
87.99
 31
0.0
  0
LINE
  8
0
  6
DASHED
 62
   249
 10
37.5
 20
110.0
 30
0.0
 11
32.5
 21
110.0
 31
0.0
  0
LINE
  8
0
  6
DASHED
 62
   249
 10
37.5
 20
100.0
 30
0.0
 11
32.5
 21
100.0
 31
0.0
  0
LINE
  8
0
  6
DASHED
 62
   249
 10
37.5
 20
72.5
 30
0.0
 11
32.5
 21
72.5
 31
0.0
  0
LINE
  8
0
  6
CONTINUOUS
 62
   249
 10
30.0
 20
104.999655
 30
0.0
 11
31.0
 21
103.999655
 31
0.0
  0
TEXT
  8
0
  6
CONTINUOUS
 62
   249
 10
22.5
 20
74.144386
 30
0.0
 40
2.0
  1
4)
  7
ROMANS
  0
LINE
  8
0
  6
CONTINUOUS
 62
   249
 10
172.5
 20
175.0
 30
0.0
 11
202.950615
 21
175.0
 31
0.0
  0
LINE
  8
0
  6
CONTINUOUS
 62
   249
 10
366.474058
 20
255.777247
 30
0.0
 11
383.974058
 21
255.777247
 31
0.0
  0
LINE
  8
0
  6
CONTINUOUS
 62
   249
 10
383.974058
 20
255.777247
 30
0.0
 11
383.974058
 21
215.777247
 31
0.0
  0
LINE
  8
0
  6
CONTINUOUS
 62
   249
 10
383.974058
 20
235.777247
 30
0.0
 11
366.474058
 21
235.777247
 31
0.0
  0
LINE
  8
0
  6
CONTINUOUS
 62
   249
 10
366.474058
 20
215.777247
 30
0.0
 11
366.474058
 21
255.777247
 31
0.0
  0
LINE
  8
0
  6
CONTINUOUS
 62
   249
 10
162.5
 20
100.0
 30
0.0
 11
162.5
 21
52.5
 31
0.0
  0
TEXT
  8
0
  6
CONTINUOUS
 62
   249
 10
150.445572
 20
52.877099
 30
0.0
 40
2.0
  1
16
 50
90.0
  7
ROMANS
  0
TEXT
  8
0
  6
CONTINUOUS
 62
   249
 10
155.568127
 20
52.877099
 30
0.0
 40
2.0
  1
13
 50
90.0
  7
ROMANS
  0
TEXT
  8
0
  6
CONTINUOUS
 62
   249
 10
160.523885
 20
52.877099
 30
0.0
 40
2.0
  1
11
 50
90.0
  7
ROMANS
  0
LINE
  8
0
  6
CONTINUOUS
 62
   249
 10
225.063845
 20
87.5
 30
0.0
 11
255.0
 21
87.5
 31
0.0
  0
LINE
  8
0
  6
CONTINUOUS
 62
   249
 10
220.0
 20
72.929605
 30
0.0
 11
220.0
 21
70.0
 31
0.0
  0
LINE
  8
0
  6
CONTINUOUS
 62
   249
 10
215.0
 20
72.929605
 30
0.0
 11
215.0
 21
70.0
 31
0.0
  0
LINE
  8
0
  6
CONTINUOUS
 62
   249
 10
220.0
 20
87.5
 30
0.0
 11
220.0
 21
82.252154
 31
0.0
  0
LINE
  8
0
  6
CONTINUOUS
 62
   249
 10
215.0
 20
87.5
 30
0.0
 11
215.0
 21
82.252154
 31
0.0
  0
LINE
  8
0
 62
   249
 10
217.466311
 20
75.22844
 30
0.0
 11
221.466311
 21
75.22844
 31
0.0
  0
LINE
  8
0
 62
   249
 10
213.709901
 20
80.174464
 30
0.0
 11
217.709901
 21
80.174464
 31
0.0
  0
LINE
  8
0
 62
   249
 10
212.795103
 20
73.886207
 30
0.0
 11
221.158613
 21
82.252154
 31
0.0
  0
LINE
  8
0
 62
   249
 10
213.779395
 20
72.929605
 30
0.0
 11
222.119756
 21
81.267352
 31
0.0
  0
LINE
  8
0
 62
   249
 10
212.795103
 20
72.929605
 30
0.0
 11
212.795103
 21
82.252154
 31
0.0
  0
LINE
  8
0
 62
   249
 10
222.119756
 20
72.929605
 30
0.0
 11
212.795103
 21
72.929605
 31
0.0
  0
LINE
  8
0
 62
   249
 10
222.119756
 20
82.252154
 30
0.0
 11
222.119756
 21
72.929605
 31
0.0
  0
LINE
  8
0
 62
   249
 10
212.795103
 20
82.252154
 30
0.0
 11
222.119756
 21
82.252154
 31
0.0
  0
TEXT
  8
0
  6
CONTINUOUS
 62
   249
 10
214.366734
 20
88.05315
 30
0.0
 40
2.0
  1
+
  0
TEXT
  8
0
  6
CONTINUOUS
 62
   249
 10
219.297086
 20
88.077719
 30
0.0
 40
2.0
  1
-
  0
LINE
  8
0
  6
CONTINUOUS
 62
   249
 10
135.0
 20
72.5
 30
0.0
 11
135.0
 21
75.0
 31
0.0
  0
LINE
  8
0
  6
CONTINUOUS
 62
   249
 10
140.0
 20
77.5
 30
0.0
 11
134.256076
 21
74.285297
 31
0.0
  0
LINE
  8
0
  6
CONTINUOUS
 62
   249
 10
140.0
 20
77.5
 30
0.0
 11
147.5
 21
77.5
 31
0.0
  0
TEXT
  8
0
  6
CONTINUOUS
 62
   249
 10
37.5
 20
46.453065
 30
0.0
 40
2.0
  1
DIM. 177 X 217
  7
ROMANS
  0
LINE
  8
0
  6
CONTINUOUS
 62
   249
 10
172.5
 20
197.5
 30
0.0
 11
202.950615
 21
197.5
 31
0.0
  0
TEXT
  8
0
  6
CONTINUOUS
 62
   249
 10
196.62812
 20
215.541623
 30
0.0
 40
2.5
  1
U1
  7
ROMANS
  0
TEXT
  8
0
  6
CONTINUOUS
 62
   249
 10
196.62812
 20
193.86521
 30
0.0
 40
2.5
  1
U2
  7
ROMANS
  0
TEXT
  8
0
  6
CONTINUOUS
 62
   249
 10
194.114189
 20
207.260923
 30
0.0
 40
2.5
  1
2I
  7
GREEKS
  0
LINE
  8
0
  6
CONTINUOUS
 62
   249
 10
37.5
 20
95.0
 30
0.0
 11
120.0
 21
95.0
 31
0.0
  0
LINE
  8
0
  6
CONTINUOUS
 62
   249
 10
125.0
 20
95.0
 30
0.0
 11
119.256076
 21
91.785297
 31
0.0
  0
LINE
  8
0
  6
CONTINUOUS
 62
   249
 10
120.0
 20
90.0
 30
0.0
 11
120.0
 21
92.5
 31
0.0
  0
LINE
  8
0
  6
CONTINUOUS
 62
   249
 10
120.0
 20
90.0
 30
0.0
 11
37.5
 21
90.0
 31
0.0
  0
LINE
  8
0
  6
CONTINUOUS
 62
   249
 10
170.51266
 20
142.5
 30
0.0
 11
137.5
 21
142.5
 31
0.0
  0
LINE
  8
0
  6
CONTINUOUS
 62
   249
 10
250.0
 20
222.5
 30
0.0
 11
255.0
 21
222.5
 31
0.0
  0
LINE
  8
0
  6
CONTINUOUS
 62
   249
 10
250.0
 20
217.5
 30
0.0
 11
255.0
 21
217.5
 31
0.0
  0
LINE
  8
0
  6
CONTINUOUS
 62
   249
 10
250.0
 20
212.5
 30
0.0
 11
255.0
 21
212.5
 31
0.0
  0
TEXT
  8
0
  6
CONTINUOUS
 62
   249
 10
105.0
 20
250.0
 30
0.0
 40
2.0
  1
1MRS 10220-AA  SPAS 348 C
  7
ROMANS
  0
TEXT
  8
0
  6
CONTINUOUS
 62
   249
 10
251.659655
 20
219.128984
 30
0.0
 40
2.0
  1
3
  7
ROMANS
  0
TEXT
  8
0
  6
CONTINUOUS
 62
   249
 10
251.659655
 20
214.318921
 30
0.0
 40
2.0
  1
2
  7
ROMANS
  0
TEXT
  8
0
  6
CONTINUOUS
 62
   249
 10
252.024841
 20
209.354573
 30
0.0
 40
2.0
  1
1
  7
ROMANS
  0
TEXT
  8
0
  6
CONTINUOUS
 62
   249
 10
251.659655
 20
201.711958
 30
0.0
 40
2.0
  1
6
  7
ROMANS
  0
TEXT
  8
0
  6
CONTINUOUS
 62
   249
 10
251.659655
 20
196.73659
 30
0.0
 40
2.0
  1
5
  7
ROMANS
  0
TEXT
  8
0
  6
CONTINUOUS
 62
   249
 10
251.659655
 20
191.628977
 30
0.0
 40
2.0
  1
4
  7
ROMANS
  0
TEXT
  8
0
  6
CONTINUOUS
 62
   249
 10
251.579058
 20
184.260563
 30
0.0
 40
2.0
  1
9
  7
ROMANS
  0
TEXT
  8
0
  6
CONTINUOUS
 62
   249
 10
251.579058
 20
179.296215
 30
0.0
 40
2.0
  1
8
  7
ROMANS
  0
TEXT
  8
0
  6
CONTINUOUS
 62
   249
 10
251.579058
 20
174.034316
 30
0.0
 40
2.0
  1
7
  7
ROMANS
  0
LINE
  8
0
  6
CONTINUOUS
 62
   249
 10
217.973119
 20
148.065376
 30
0.0
 11
217.973119
 21
112.5
 31
0.0
  0
LINE
  8
0
  6
DASHED
 62
   249
 10
260.0
 20
87.5
 30
0.0
 11
277.5
 21
87.5
 31
0.0
  0
TEXT
  8
0
  6
DASHED
 62
   249
 10
280.232804
 20
86.486126
 30
0.0
 40
2.0
  1
5)
  7
ROMANS
  0
TEXT
  8
0
  6
DASHED
 62
   249
 10
358.983184
 20
209.206895
 30
0.0
 40
2.0
  1
FEEDER PROTECTION
  7
ROMANS
  0
TEXT
  8
0
  6
DASHED
 62
   249
 10
358.983184
 20
205.187452
 30
0.0
 40
2.0
  1
LEDNINGSSKYDD
  7
ROMANS
  0
LINE
  8
0
  6
CONTINUOUS
 62
   249
 10
30.0
 20
109.790248
 30
0.0
 11
31.0
 21
110.790248
 31
0.0
  0
LINE
  8
0
  6
CONTINUOUS
 62
   249
 10
30.0
 20
109.790248
 30
0.0
 11
30.0
 21
104.999655
 31
0.0
  0
TEXT
  8
0
  6
DASHED
 62
   249
 10
23.03868
 20
107.157293
 30
0.0
 40
2.0
  1
2)
  7
ROMANS
  0
TEXT
  8
0
  6
DASHED
 62
   249
 10
37.139763
 20
43.116187
 30
0.0
 40
2.0
  1
1MRS 10220-AAB
  7
ROMANS
  0
LINE
  8
0
  6
DASHED
 62
   249
 10
167.5
 20
52.5
 30
0.0
 11
167.5
 21
45.0
 31
0.0
  0
TEXT
  8
0
  6
DASHED
 62
   249
 10
108.942486
 20
35.874001
 30
0.0
 40
2.0
  1
3) ALARM ETC.
  7
ROMANS
  0
TEXT
  8
0
  6
DASHED
 62
   249
 10
113.966506
 20
32.540668
 30
0.0
 40
2.0
  1
SIGNAL MM.
  7
ROMANS
  0
TEXT
  8
0
  6
DASHED
 62
   249
 10
108.942486
 20
26.707335
 30
0.0
 40
2.0
  1
4) INTERNAL RELAY FAULT
  7
ROMANS
  0
TEXT
  8
0
  6
DASHED
 62
   249
 10
114.172184
 20
23.374001
 30
0.0
 40
2.0
  1
INTERNT RELÄFEL
  7
ROMANS
  0
TEXT
  8
0
  6
DASHED
 62
   249
 10
108.942486
 20
17.540668
 30
0.0
 40
2.0
  1
5) BUS CONNECTION MODULE
  7
ROMANS
  0
TEXT
  8
0
  6
DASHED
 62
   249
 10
210.704658
 20
27.85902
 30
0.0
 40
2.0
  1
95-09-20 JR / AD-ELECT.
  7
ROMANS
  0
TEXT
  8
0
  6
DASHED
 62
   249
 10
317.5
 20
27.5
 30
0.0
 40
2.0
  1
TERMINAL DIAGRAM / UTTAGSSCHEMA
  7
ROMANS
  0
TEXT
  8
0
  6
DASHED
 62
   249
 10
317.5
 20
24.166667
 30
0.0
 40
2.0
  1
SPAS 348 C1
  7
ROMANS
  0
LINE
  8
0
 62
   249
 10
0.237099
 20
0.237999
 30
0.0
 11
0.237099
 21
262.737999
 31
0.0
  0
LINE
  8
0
 62
   249
 10
392.237099
 20
262.737999
 30
0.0
 11
392.237099
 21
0.237999
 31
0.0
  0
LINE
  8
0
 62
   249
 10
0.237099
 20
0.237999
 30
0.0
 11
392.237099
 21
0.237999
 31
0.0
  0
TEXT
  8
0
 62
   249
 10
42.237099
 20
5.587508
 30
0.0
 40
2.5
  1
C
  7
ROMANS
  0
TEXT
  8
0
 62
   249
 10
42.237099
 20
1.195292
 30
0.0
 40
2.5
  1
B
  7
ROMANS
  0
TEXT
  8
0
 62
   249
 10
273.237099
 20
7.237999
 30
0.0
 40
1.4
  1
VAST.OSASTO RESP.DEPT.
  7
ROMANS
  0
TEXT
  8
0
 62
   249
 10
210.237099
 20
32.237999
 30
0.0
 40
1.4
  1
TEKI  PREPARED
  7
ROMANS
  0
LINE
  8
0
 62
   249
 10
271.237099
 20
9.737999
 30
0.0
 11
271.237099
 21
0.237999
 31
0.0
  0
LINE
  8
0
 62
   249
 10
257.237099
 20
9.737999
 30
0.0
 11
257.237099
 21
35.237999
 31
0.0
  0
LINE
  8
0
 62
   249
 10
40.737099
 20
4.737999
 30
0.0
 11
209.237099
 21
4.737999
 31
0.0
  0
LINE
  8
0
 62
   249
 10
46.737099
 20
0.237999
 30
0.0
 11
46.737099
 21
9.237999
 31
0.0
  0
LINE
  8
0
 62
   249
 10
46.737099
 20
9.237999
 30
0.0
 11
209.237099
 21
9.237999
 31
0.0
  0
TEXT
  8
0
 62
   249
 10
27.737099
 20
2.471333
 30
0.0
 40
1.4
  1
REVISION
  7
ROMANS
  0
TEXT
  8
0
 62
   249
 10
27.737099
 20
4.737999
 30
0.0
 40
1.4
  1
MUUTOS
  7
ROMANS
  0
LINE
  8
0
 62
   249
 10
282.237099
 20
9.737999
 30
0.0
 11
282.237099
 21
18.237999
 31
0.0
  0
TEXT
  8
0
 62
   249
 10
237.737099
 20
1.737999
 30
0.0
 40
3.0
  1
Transmit Oy
 41
0.8
  7
ROMANS
  0
TEXT
  8
0
 62
   249
 10
229.737099
 20
1.737999
 30
0.0
 40
3.0
  1
ABB 
 41
0.8
  7
ROMANS
  0
LINE
  8
0
 62
   249
 10
223.137099
 20
1.737999
 30
0.0
 11
223.137099
 21
5.097999
 31
0.0
  0
LINE
  8
0
 62
   249
 10
223.137099
 20
8.737999
 30
0.0
 11
225.097099
 21
8.737999
 31
0.0
  0
LINE
  8
0
 62
   249
 10
225.097099
 20
8.737999
 30
0.0
 11
225.097099
 21
5.377999
 31
0.0
  0
LINE
  8
0
 62
   249
 10
225.097099
 20
5.377999
 30
0.0
 11
223.137099
 21
5.377999
 31
0.0
  0
LINE
  8
0
 62
   249
 10
223.137099
 20
5.097999
 30
0.0
 11
225.097099
 21
5.097999
 31
0.0
  0
LINE
  8
0
 62
   249
 10
225.097099
 20
5.097999
 30
0.0
 11
225.097099
 21
1.737999
 31
0.0
  0
LINE
  8
0
 62
   249
 10
225.097099
 20
1.737999
 30
0.0
 11
223.137099
 21
1.737999
 31
0.0
  0
LINE
  8
0
 62
   249
 10
223.137099
 20
5.377999
 30
0.0
 11
223.137099
 21
8.737999
 31
0.0
  0
ARC
  8
0
 62
   249
 10
225.937099
 20
7.162999
 30
0.0
 40
1.575
 50
298.455859
 51
90.052437
  0
LINE
  8
0
 62
   249
 10
225.377099
 20
8.737999
 30
0.0
 11
225.935658
 21
8.737999
 31
0.0
  0
LINE
  8
0
 62
   249
 10
225.377099
 20
8.737999
 30
0.0
 11
225.377099
 21
5.377999
 31
0.0
  0
LINE
  8
0
 62
   249
 10
225.377099
 20
5.377999
 30
0.0
 11
227.361542
 21
5.377999
 31
0.0
  0
LINE
  8
0
 62
   249
 10
227.617099
 20
5.097999
 30
0.0
 11
225.377099
 21
5.097999
 31
0.0
  0
LINE
  8
0
 62
   249
 10
225.377099
 20
5.097999
 30
0.0
 11
225.377099
 21
1.737999
 31
0.0
  0
ARC
  8
0
 62
   249
 10
225.937099
 20
3.837999
 30
0.0
 40
2.1
 50
269.937724
 51
37.056553
  0
LINE
  8
0
 62
   249
 10
225.377099
 20
1.737999
 30
0.0
 11
225.934817
 21
1.738
 31
0.0
  0
ARC
  8
0
 62
   249
 10
225.937099
 20
3.837999
 30
0.0
 40
2.1
 50
47.28622
 51
68.787999
  0
ARC
  8
0
 62
   249
 10
220.477099
 20
3.837999
 30
0.0
 40
2.1
 50
47.28622
 51
68.787999
  0
LINE
  8
0
 62
   249
 10
219.917099
 20
1.737999
 30
0.0
 11
220.474817
 21
1.738
 31
0.0
  0
ARC
  8
0
 62
   249
 10
220.477099
 20
3.837999
 30
0.0
 40
2.1
 50
269.937724
 51
37.056553
  0
LINE
  8
0
 62
   249
 10
219.917099
 20
5.097999
 30
0.0
 11
219.917099
 21
1.737999
 31
0.0
  0
LINE
  8
0
 62
   249
 10
222.157099
 20
5.097999
 30
0.0
 11
219.917099
 21
5.097999
 31
0.0
  0
LINE
  8
0
 62
   249
 10
219.917099
 20
5.377999
 30
0.0
 11
221.901542
 21
5.377999
 31
0.0
  0
LINE
  8
0
 62
   249
 10
219.917099
 20
8.737999
 30
0.0
 11
219.917099
 21
5.377999
 31
0.0
  0
LINE
  8
0
 62
   249
 10
219.917099
 20
8.737999
 30
0.0
 11
220.475658
 21
8.737999
 31
0.0
  0
ARC
  8
0
 62
   249
 10
220.477099
 20
7.162999
 30
0.0
 40
1.575
 50
298.455859
 51
90.052437
  0
LINE
  8
0
 62
   249
 10
217.677099
 20
5.377999
 30
0.0
 11
217.677099
 21
8.737999
 31
0.0
  0
LINE
  8
0
 62
   249
 10
219.637099
 20
1.737999
 30
0.0
 11
217.677099
 21
1.737999
 31
0.0
  0
LINE
  8
0
 62
   249
 10
219.637099
 20
5.097999
 30
0.0
 11
219.637099
 21
1.737999
 31
0.0
  0
LINE
  8
0
 62
   249
 10
217.677099
 20
5.097999
 30
0.0
 11
219.637099
 21
5.097999
 31
0.0
  0
LINE
  8
0
 62
   249
 10
219.637099
 20
5.377999
 30
0.0
 11
217.677099
 21
5.377999
 31
0.0
  0
LINE
  8
0
 62
   249
 10
219.637099
 20
8.737999
 30
0.0
 11
219.637099
 21
5.377999
 31
0.0
  0
LINE
  8
0
 62
   249
 10
217.677099
 20
8.737999
 30
0.0
 11
219.637099
 21
8.737999
 31
0.0
  0
LINE
  8
0
 62
   249
 10
217.677099
 20
1.737999
 30
0.0
 11
217.677099
 21
5.097999
 31
0.0
  0
LINE
  8
0
 62
   249
 10
211.356988
 20
5.080538
 30
0.0
 11
210.187099
 21
1.737999
 31
0.0
  0
LINE
  8
0
 62
   249
 10
213.547099
 20
5.097999
 30
0.0
 11
213.547099
 21
3.137999
 31
0.0
  0
LINE
  8
0
 62
   249
 10
213.827099
 20
5.097999
 30
0.0
 11
213.827099
 21
3.137999
 31
0.0
  0
LINE
  8
0
 62
   249
 10
213.827099
 20
5.097999
 30
0.0
 11
216.010356
 21
5.097999
 31
0.0
  0
LINE
  8
0
 62
   249
 10
213.827099
 20
5.377999
 30
0.0
 11
215.912213
 21
5.377999
 31
0.0
  0
LINE
  8
0
 62
   249
 10
216.011591
 20
5.096594
 30
0.0
 11
217.187099
 21
1.737999
 31
0.0
  0
LINE
  8
0
 62
   249
 10
211.360082
 20
5.097999
 30
0.0
 11
213.547099
 21
5.097999
 31
0.0
  0
LINE
  8
0
 62
   249
 10
211.45904
 20
5.377999
 30
0.0
 11
213.547099
 21
5.377999
 31
0.0
  0
LINE
  8
0
 62
   249
 10
213.547099
 20
8.737999
 30
0.0
 11
212.637099
 21
8.737999
 31
0.0
  0
LINE
  8
0
 62
   249
 10
213.827099
 20
3.137999
 30
0.0
 11
214.946992
 21
3.137999
 31
0.0
  0
LINE
  8
0
 62
   249
 10
213.827099
 20
8.737999
 30
0.0
 11
213.827099
 21
5.377999
 31
0.0
  0
LINE
  8
0
 62
   249
 10
213.547099
 20
8.737999
 30
0.0
 11
213.547099
 21
5.377999
 31
0.0
  0
LINE
  8
0
 62
   249
 10
214.737099
 20
8.737999
 30
0.0
 11
213.827099
 21
8.737999
 31
0.0
  0
LINE
  8
0
 62
   249
 10
214.948197
 20
3.134863
 30
0.0
 11
215.437099
 21
1.737999
 31
0.0
  0
LINE
  8
0
 62
   249
 10
214.737099
 20
8.737999
 30
0.0
 11
215.913452
 21
5.376991
 31
0.0
  0
LINE
  8
0
 62
   249
 10
212.425889
 20
3.134542
 30
0.0
 11
211.937099
 21
1.737999
 31
0.0
  0
LINE
  8
0
 62
   249
 10
212.425886
 20
3.137999
 30
0.0
 11
213.547099
 21
3.137999
 31
0.0
  0
LINE
  8
0
 62
   249
 10
212.637099
 20
8.737999
 30
0.0
 11
211.459571
 21
5.373634
 31
0.0
  0
LINE
  8
0
 62
   249
 10
215.437099
 20
1.737999
 30
0.0
 11
217.187099
 21
1.737999
 31
0.0
  0
LINE
  8
0
 62
   249
 10
210.187099
 20
1.737999
 30
0.0
 11
211.937099
 21
1.737999
 31
0.0
  0
LINE
  8
0
 62
   249
 10
369.737099
 20
9.737999
 30
0.0
 11
369.737099
 21
0.237999
 31
0.0
  0
TEXT
  8
0
 62
   249
 10
371.237099
 20
7.237999
 30
0.0
 40
1.4
  1
PAINOS  REVISION
  7
ROMANS
  0
LINE
  8
0
 62
   249
 10
349.737099
 20
9.737999
 30
0.0
 11
349.737099
 21
18.237999
 31
0.0
  0
TEXT
  8
0
 62
   249
 10
309.237099
 20
7.237999
 30
0.0
 40
1.4
  1
PIIRUSTUS NO  DRAWING NR
  7
ROMANS
  0
TEXT
  8
0
 62
   249
 10
309.237099
 20
15.737999
 30
0.0
 40
1.4
  1
KOODI  CODE
  7
ROMANS
  0
TEXT
  8
0
 62
   249
 10
309.237099
 20
32.737999
 30
0.0
 40
1.4
  1
NIMITYS  NAME
  7
ROMANS
  0
TEXT
  8
0
 62
   249
 10
259.237099
 20
15.737999
 30
0.0
 40
1.4
  1
SUHDE  SCALE
  7
ROMANS
  0
TEXT
  8
0
 62
   249
 10
259.237099
 20
23.737999
 30
0.0
 40
1.4
  1
TOLERANSSIT  TOLERANCES
  7
ROMANS
  0
TEXT
  8
0
 62
   249
 10
259.237099
 20
32.737999
 30
0.0
 40
1.4
  1
LIITTYY  CONCERNING
  7
ROMANS
  0
LINE
  8
0
 62
   249
 10
307.237099
 20
0.237999
 30
0.0
 11
307.237099
 21
35.237999
 31
0.0
  0
TEXT
  8
0
 62
   249
 10
209.979934
 20
15.704666
 30
0.0
 40
1.4
  1
HYVÄKSYI  APPROVED
  7
ROMANS
  0
TEXT
  8
0
 62
   249
 10
210.237099
 20
23.971333
 30
0.0
 40
1.4
  1
TARKASTI  CHECKED
  7
ROMANS
  0
LINE
  8
0
 62
   249
 10
209.237099
 20
35.237999
 30
0.0
 11
392.237099
 21
35.237999
 31
0.0
  0
LINE
  8
0
 62
   249
 10
209.237099
 20
26.737999
 30
0.0
 11
307.237099
 21
26.737999
 31
0.0
  0
LINE
  8
0
 62
   249
 10
209.237099
 20
9.737999
 30
0.0
 11
392.237099
 21
9.737999
 31
0.0
  0
LINE
  8
0
 62
   249
 10
209.237099
 20
18.237999
 30
0.0
 11
392.237099
 21
18.237999
 31
0.0
  0
LINE
  8
0
 62
   249
 10
392.237099
 20
0.237999
 30
0.0
 11
392.237099
 21
35.237999
 31
0.0
  0
LINE
  8
0
 62
   249
 10
209.237099
 20
0.237999
 30
0.0
 11
209.237099
 21
35.237999
 31
0.0
  0
LINE
  8
0
 62
   249
 10
209.237099
 20
0.237999
 30
0.0
 11
392.237099
 21
0.237999
 31
0.0
  0
LINE
  8
0
 62
   249
 10
18.237099
 20
0.237999
 30
0.0
 11
0.237099
 21
0.237999
 31
0.0
  0
LINE
  8
0
 62
   249
 10
0.237099
 20
262.737999
 30
0.0
 11
392.237099
 21
262.737999
 31
0.0
  0
TEXT
  8
0
  6
DASHED
 62
   249
 10
351.818577
 20
15.69253
 30
0.0
 40
1.4
  1
LEHTI SHEET
  7
GREEKS
  0
TEXT
  8
0
  6
DASHED
 62
   249
 10
372.740686
 20
12.507642
 30
0.0
 40
2.0
  1
1
  7
ROMANS
  0
TEXT
  8
0
  6
DASHED
 62
   249
 10
322.5
 20
2.5
 30
0.0
 40
2.5
  1
1MRS10220-AAB
  7
ROMANS
  0
TEXT
  8
0
  6
DASHED
 62
   249
 10
292.217194
 20
11.813359
 30
0.0
 40
3.0
  1
A3
  7
GREEKS
  0
TEXT
  8
0
  6
CONTINUOUS
 62
   249
 10
380.0
 20
2.5
 30
0.0
 40
2.5
  1
A
  7
ROMANS
  0
LINE
  8
0
  6
CONTINUOUS
 62
   249
 10
250.0
 20
195.0
 30
0.0
 11
255.0
 21
195.0
 31
0.0
  0
LINE
  8
0
  6
CONTINUOUS
 62
   249
 10
250.0
 20
200.0
 30
0.0
 11
255.0
 21
200.0
 31
0.0
  0
LINE
  8
0
  6
CONTINUOUS
 62
   249
 10
250.0
 20
205.0
 30
0.0
 11
255.0
 21
205.0
 31
0.0
  0
LINE
  8
0
  6
CONTINUOUS
 62
   249
 10
250.0
 20
187.5
 30
0.0
 11
255.0
 21
187.5
 31
0.0
  0
LINE
  8
0
  6
CONTINUOUS
 62
   249
 10
250.0
 20
182.5
 30
0.0
 11
255.0
 21
182.5
 31
0.0
  0
LINE
  8
0
  6
CONTINUOUS
 62
   249
 10
250.0
 20
177.5
 30
0.0
 11
255.0
 21
177.5
 31
0.0
  0
LINE
  8
0
  6
CONTINUOUS
 62
   249
 10
132.5
 20
85.0
 30
0.0
 11
126.756076
 21
81.785297
 31
0.0
  0
LINE
  8
0
  6
CONTINUOUS
 62
   249
 10
132.5
 20
85.0
 30
0.0
 11
152.5
 21
85.0
 31
0.0
  0
LINE
  8
0
  6
CONTINUOUS
 62
   249
 10
117.5
 20
100.0
 30
0.0
 11
162.5
 21
100.0
 31
0.0
  0
LINE
  8
0
  6
CONTINUOUS
 62
   249
 10
117.5
 20
100.0
 30
0.0
 11
111.756076
 21
96.785297
 31
0.0
  0
LINE
  8
0
  6
CONTINUOUS
 62
   249
 10
95.0
 20
110.0
 30
0.0
 11
172.5
 21
110.0
 31
0.0
  0
LINE
  8
0
  6
CONTINUOUS
 62
   249
 10
95.0
 20
110.0
 30
0.0
 11
89.256076
 21
106.785297
 31
0.0
  0
LINE
  8
0
  6
CONTINUOUS
 62
   249
 10
102.5
 20
105.0
 30
0.0
 11
167.5
 21
105.0
 31
0.0
  0
LINE
  8
0
  6
CONTINUOUS
 62
   249
 10
102.5
 20
105.0
 30
0.0
 11
96.756076
 21
101.785297
 31
0.0
  0
LINE
  8
0
  6
CONTINUOUS
 62
   249
 10
135.0
 20
72.5
 30
0.0
 11
37.5
 21
72.5
 31
0.0
  0
LINE
  8
0
  6
CONTINUOUS
 62
   249
 10
37.5
 20
77.5
 30
0.0
 11
85.0
 21
77.5
 31
0.0
  0
LINE
  8
0
  6
CONTINUOUS
 62
   249
 10
135.0
 20
77.5
 30
0.0
 11
85.0
 21
77.5
 31
0.0
  0
LINE
  8
0
  6
CONTINUOUS
 62
   249
 10
172.5
 20
110.0
 30
0.0
 11
172.5
 21
52.5
 31
0.0
  0
LINE
  8
0
  6
CONTINUOUS
 62
   249
 10
167.5
 20
105.0
 30
0.0
 11
167.5
 21
52.5
 31
0.0
  0
LINE
  8
0
  6
CONTINUOUS
 62
   249
 10
202.950615
 20
194.163725
 30
0.0
 11
217.5
 21
194.163725
 31
0.0
  0
LINE
  8
0
  6
CONTINUOUS
 62
   249
 10
217.5
 20
194.163725
 30
0.0
 11
217.5
 21
240.0
 31
0.0
  0
LINE
  8
0
  6
CONTINUOUS
 62
   249
 10
125.0
 20
95.0
 30
0.0
 11
157.5
 21
95.0
 31
0.0
  0
LINE
  8
0
  6
CONTINUOUS
 62
   249
 10
127.5
 20
85.0
 30
0.0
 11
37.5
 21
85.0
 31
0.0
  0
LINE
  8
0
  6
CONTINUOUS
 62
   249
 10
112.5
 20
100.0
 30
0.0
 11
37.5
 21
100.0
 31
0.0
  0
LINE
  8
0
  6
CONTINUOUS
 62
   249
 10
97.5
 20
105.0
 30
0.0
 11
37.5
 21
105.0
 31
0.0
  0
LINE
  8
0
  6
CONTINUOUS
 62
   249
 10
90.0
 20
110.0
 30
0.0
 11
37.5
 21
110.0
 31
0.0
  0
LINE
  8
0
  6
CONTINUOUS
 62
   249
 10
172.5
 20
187.5
 30
0.0
 11
100.0
 21
187.5
 31
0.0
  0
LINE
  8
0
  6
CONTINUOUS
 62
   249
 10
172.5
 20
190.0
 30
0.0
 11
92.5
 21
190.0
 31
0.0
  0
LINE
  8
0
  6
CONTINUOUS
 62
   249
 10
172.5
 20
185.0
 30
0.0
 11
115.0
 21
185.0
 31
0.0
  0
LINE
  8
0
  6
CONTINUOUS
 62
   249
 10
172.5
 20
182.5
 30
0.0
 11
122.5
 21
182.5
 31
0.0
  0
LINE
  8
0
  6
CONTINUOUS
 62
   249
 10
172.5
 20
180.0
 30
0.0
 11
130.0
 21
180.0
 31
0.0
  0
LINE
  8
0
  6
CONTINUOUS
 62
   249
 10
172.5
 20
205.0
 30
0.0
 11
130.0
 21
205.0
 31
0.0
  0
LINE
  8
0
  6
CONTINUOUS
 62
   249
 10
172.5
 20
207.5
 30
0.0
 11
122.5
 21
207.5
 31
0.0
  0
LINE
  8
0
  6
CONTINUOUS
 62
   249
 10
172.5
 20
210.0
 30
0.0
 11
115.0
 21
210.0
 31
0.0
  0
LINE
  8
0
  6
CONTINUOUS
 62
   249
 10
172.5
 20
212.5
 30
0.0
 11
100.0
 21
212.5
 31
0.0
  0
LINE
  8
0
  6
CONTINUOUS
 62
   249
 10
172.5
 20
215.0
 30
0.0
 11
92.5
 21
215.0
 31
0.0
  0
LINE
  8
0
  6
DASHED
 62
   249
 10
92.5
 20
108.600824
 30
0.0
 11
92.5
 21
142.5
 31
0.0
  0
LINE
  8
0
  6
DASHED
 62
   249
 10
100.0
 20
103.600824
 30
0.0
 11
100.0
 21
142.5
 31
0.0
  0
LINE
  8
0
  6
DASHED
 62
   249
 10
115.0
 20
98.600824
 30
0.0
 11
115.0
 21
142.5
 31
0.0
  0
LINE
  8
0
  6
DASHED
 62
   249
 10
122.5
 20
93.600824
 30
0.0
 11
122.5
 21
142.5
 31
0.0
  0
LINE
  8
0
  6
DASHED
 62
   249
 10
130.0
 20
83.600824
 30
0.0
 11
130.0
 21
142.5
 31
0.0
  0
LINE
  8
0
  6
DASHED
 62
   249
 10
137.5
 20
76.100824
 30
0.0
 11
137.5
 21
142.5
 31
0.0
  0
LINE
  8
0
  6
CONTINUOUS
 62
   249
 10
92.5
 20
142.5
 30
0.0
 11
92.5
 21
215.0
 31
0.0
  0
LINE
  8
0
  6
CONTINUOUS
 62
   249
 10
115.0
 20
142.5
 30
0.0
 11
115.0
 21
210.0
 31
0.0
  0
LINE
  8
0
  6
CONTINUOUS
 62
   249
 10
100.0
 20
142.5
 30
0.0
 11
100.0
 21
212.5
 31
0.0
  0
LINE
  8
0
  6
CONTINUOUS
 62
   249
 10
130.0
 20
142.5
 30
0.0
 11
130.0
 21
205.0
 31
0.0
  0
LINE
  8
0
  6
CONTINUOUS
 62
   249
 10
122.5
 20
142.5
 30
0.0
 11
122.5
 21
207.5
 31
0.0
  0
LINE
  8
0
  6
CONTINUOUS
 62
   249
 10
52.877948
 20
173.933648
 30
0.0
 11
45.754927
 21
173.933648
 31
0.0
  0
LINE
  8
0
  6
CONTINUOUS
 62
   249
 10
52.877948
 20
171.028148
 30
0.0
 11
52.877948
 21
173.933648
 31
0.0
  0
LINE
  8
0
  6
CONTINUOUS
 62
   249
 10
45.754927
 20
171.028148
 30
0.0
 11
52.877948
 21
171.028148
 31
0.0
  0
LINE
  8
0
  6
CONTINUOUS
 62
   249
 10
45.754927
 20
173.933648
 30
0.0
 11
45.754927
 21
171.028148
 31
0.0
  0
LINE
  8
0
  6
DASHED
 62
   249
 10
52.877948
 20
172.480898
 30
0.0
 11
61.388485
 21
172.480898
 31
0.0
  0
LINE
  8
0
  6
CONTINUOUS
 62
   249
 10
49.316438
 20
173.933648
 30
0.0
 11
49.316438
 21
175.0
 31
0.0
  0
LINE
  8
0
  6
CONTINUOUS
 62
   249
 10
49.316438
 20
175.0
 30
0.0
 11
37.5
 21
175.0
 31
0.0
  0
LINE
  8
0
  6
CONTINUOUS
 62
   249
 10
49.316438
 20
171.028148
 30
0.0
 11
49.316438
 21
170.0
 31
0.0
  0
LINE
  8
0
  6
CONTINUOUS
 62
   249
 10
49.316438
 20
170.0
 30
0.0
 11
37.5
 21
170.0
 31
0.0
  0
LINE
  8
0
  6
CONTINUOUS
 62
   249
 10
60.0
 20
170.0
 30
0.0
 11
63.214703
 21
175.743924
 31
0.0
  0
LINE
  8
0
  6
CONTINUOUS
 62
   249
 10
60.0
 20
170.0
 30
0.0
 11
60.0
 21
167.5
 31
0.0
  0
LINE
  8
0
  6
CONTINUOUS
 62
   249
 10
60.0
 20
175.0
 30
0.0
 11
60.0
 21
177.5
 31
0.0
  0
LINE
  8
0
  6
CONTINUOUS
 62
   249
 10
60.0
 20
177.5
 30
0.0
 11
82.5
 21
177.5
 31
0.0
  0
LINE
  8
0
  6
CONTINUOUS
 62
   249
 10
72.5
 20
222.5
 30
0.0
 11
72.5
 21
245.0
 31
0.0
  0
LINE
  8
0
  6
CONTINUOUS
 62
   249
 10
72.5
 20
245.0
 30
0.0
 11
220.0
 21
245.0
 31
0.0
  0
LINE
  8
0
  6
CONTINUOUS
 62
   249
 10
60.0
 20
190.0
 30
0.0
 11
60.0
 21
192.5
 31
0.0
  0
LINE
  8
0
  6
CONTINUOUS
 62
   249
 10
60.0
 20
185.0
 30
0.0
 11
60.0
 21
182.5
 31
0.0
  0
LINE
  8
0
  6
CONTINUOUS
 62
   249
 10
60.0
 20
185.0
 30
0.0
 11
63.214703
 21
190.743924
 31
0.0
  0
LINE
  8
0
  6
CONTINUOUS
 62
   249
 10
49.316438
 20
185.0
 30
0.0
 11
37.5
 21
185.0
 31
0.0
  0
LINE
  8
0
  6
CONTINUOUS
 62
   249
 10
49.316438
 20
186.028148
 30
0.0
 11
49.316438
 21
185.0
 31
0.0
  0
LINE
  8
0
  6
CONTINUOUS
 62
   249
 10
49.316438
 20
190.0
 30
0.0
 11
37.5
 21
190.0
 31
0.0
  0
LINE
  8
0
  6
CONTINUOUS
 62
   249
 10
49.316438
 20
188.933648
 30
0.0
 11
49.316438
 21
190.0
 31
0.0
  0
LINE
  8
0
  6
DASHED
 62
   249
 10
52.877948
 20
187.480898
 30
0.0
 11
61.388485
 21
187.480898
 31
0.0
  0
LINE
  8
0
  6
CONTINUOUS
 62
   249
 10
45.754927
 20
188.933648
 30
0.0
 11
45.754927
 21
186.028148
 31
0.0
  0
LINE
  8
0
  6
CONTINUOUS
 62
   249
 10
45.754927
 20
186.028148
 30
0.0
 11
52.877948
 21
186.028148
 31
0.0
  0
LINE
  8
0
  6
CONTINUOUS
 62
   249
 10
52.877948
 20
186.028148
 30
0.0
 11
52.877948
 21
188.933648
 31
0.0
  0
LINE
  8
0
  6
CONTINUOUS
 62
   249
 10
52.877948
 20
188.933648
 30
0.0
 11
45.754927
 21
188.933648
 31
0.0
  0
LINE
  8
0
  6
CONTINUOUS
 62
   249
 10
60.0
 20
192.5
 30
0.0
 11
80.0
 21
192.5
 31
0.0
  0
LINE
  8
0
  6
CONTINUOUS
 62
   249
 10
60.0
 20
205.0
 30
0.0
 11
60.0
 21
207.5
 31
0.0
  0
LINE
  8
0
  6
CONTINUOUS
 62
   249
 10
60.0
 20
200.0
 30
0.0
 11
60.0
 21
197.5
 31
0.0
  0
LINE
  8
0
  6
CONTINUOUS
 62
   249
 10
60.0
 20
200.0
 30
0.0
 11
63.214703
 21
205.743924
 31
0.0
  0
LINE
  8
0
  6
CONTINUOUS
 62
   249
 10
49.316438
 20
200.0
 30
0.0
 11
37.5
 21
200.0
 31
0.0
  0
LINE
  8
0
  6
CONTINUOUS
 62
   249
 10
49.316438
 20
201.028148
 30
0.0
 11
49.316438
 21
200.0
 31
0.0
  0
LINE
  8
0
  6
CONTINUOUS
 62
   249
 10
49.316438
 20
205.0
 30
0.0
 11
37.5
 21
205.0
 31
0.0
  0
LINE
  8
0
  6
CONTINUOUS
 62
   249
 10
49.316438
 20
203.933648
 30
0.0
 11
49.316438
 21
205.0
 31
0.0
  0
LINE
  8
0
  6
DASHED
 62
   249
 10
52.877948
 20
202.480898
 30
0.0
 11
61.388485
 21
202.480898
 31
0.0
  0
LINE
  8
0
  6
CONTINUOUS
 62
   249
 10
45.754927
 20
203.933648
 30
0.0
 11
45.754927
 21
201.028148
 31
0.0
  0
LINE
  8
0
  6
CONTINUOUS
 62
   249
 10
45.754927
 20
201.028148
 30
0.0
 11
52.877948
 21
201.028148
 31
0.0
  0
LINE
  8
0
  6
CONTINUOUS
 62
   249
 10
52.877948
 20
201.028148
 30
0.0
 11
52.877948
 21
203.933648
 31
0.0
  0
LINE
  8
0
  6
CONTINUOUS
 62
   249
 10
52.877948
 20
203.933648
 30
0.0
 11
45.754927
 21
203.933648
 31
0.0
  0
LINE
  8
0
  6
CONTINUOUS
 62
   249
 10
60.0
 20
207.5
 30
0.0
 11
75.0
 21
207.5
 31
0.0
  0
LINE
  8
0
  6
CONTINUOUS
 62
   249
 10
60.0
 20
222.5
 30
0.0
 11
72.5
 21
222.5
 31
0.0
  0
LINE
  8
0
  6
CONTINUOUS
 62
   249
 10
52.877948
 20
218.933648
 30
0.0
 11
45.754927
 21
218.933648
 31
0.0
  0
LINE
  8
0
  6
CONTINUOUS
 62
   249
 10
52.877948
 20
216.028148
 30
0.0
 11
52.877948
 21
218.933648
 31
0.0
  0
LINE
  8
0
  6
CONTINUOUS
 62
   249
 10
45.754927
 20
216.028148
 30
0.0
 11
52.877948
 21
216.028148
 31
0.0
  0
LINE
  8
0
  6
CONTINUOUS
 62
   249
 10
45.754927
 20
218.933648
 30
0.0
 11
45.754927
 21
216.028148
 31
0.0
  0
LINE
  8
0
  6
DASHED
 62
   249
 10
52.877948
 20
217.480898
 30
0.0
 11
61.388485
 21
217.480898
 31
0.0
  0
LINE
  8
0
  6
CONTINUOUS
 62
   249
 10
49.316438
 20
218.933648
 30
0.0
 11
49.316438
 21
220.0
 31
0.0
  0
LINE
  8
0
  6
CONTINUOUS
 62
   249
 10
49.316438
 20
220.0
 30
0.0
 11
37.5
 21
220.0
 31
0.0
  0
LINE
  8
0
  6
CONTINUOUS
 62
   249
 10
49.316438
 20
216.028148
 30
0.0
 11
49.316438
 21
215.0
 31
0.0
  0
LINE
  8
0
  6
CONTINUOUS
 62
   249
 10
49.316438
 20
215.0
 30
0.0
 11
37.5
 21
215.0
 31
0.0
  0
LINE
  8
0
  6
CONTINUOUS
 62
   249
 10
60.0
 20
215.0
 30
0.0
 11
63.214703
 21
220.743924
 31
0.0
  0
LINE
  8
0
  6
CONTINUOUS
 62
   249
 10
60.0
 20
215.0
 30
0.0
 11
60.0
 21
212.5
 31
0.0
  0
LINE
  8
0
  6
CONTINUOUS
 62
   249
 10
60.0
 20
220.0
 30
0.0
 11
60.0
 21
222.5
 31
0.0
  0
LINE
  8
0
  6
HIDDEN
 62
   249
 10
255.0
 20
137.5
 30
0.0
 11
250.0
 21
137.5
 31
0.0
  0
LINE
  8
0
  6
HIDDEN
 62
   249
 10
250.0
 20
92.5
 30
0.0
 11
250.0
 21
227.5
 31
0.0
  0
LINE
  8
0
  6
HIDDEN
 62
   249
 10
255.0
 20
227.5
 30
0.0
 11
250.0
 21
227.5
 31
0.0
  0
TEXT
  8
0
  6
CONTINUOUS
 62
   249
 10
250.821449
 20
224.242446
 30
0.0
 40
2.0
  1
X0
  7
ROMANS
  0
LINE
  8
0
  6
HIDDEN
 62
   249
 10
142.5
 20
52.5
 30
0.0
 11
142.5
 21
57.5
 31
0.0
  0
LINE
  8
0
  6
HIDDEN
 62
   249
 10
142.5
 20
57.5
 30
0.0
 11
176.471129
 21
57.5
 31
0.0
  0
LINE
  8
0
  6
HIDDEN
 62
   249
 10
176.471129
 20
57.5
 30
0.0
 11
176.471129
 21
52.5
 31
0.0
  0
TEXT
  8
0
  6
CONTINUOUS
 62
   249
 10
146.007068
 20
52.877099
 30
0.0
 40
2.0
  1
X2
 50
90.0
  7
ROMANS
  0
TEXT
  8
0
  6
CONTINUOUS
 62
   249
 10
170.840325
 20
53.561614
 30
0.0
 40
2.0
  1
4
 50
90.0
  7
ROMANS
  0
TEXT
  8
0
  6
CONTINUOUS
 62
   249
 10
175.681062
 20
53.561614
 30
0.0
 40
2.0
  1
2
 50
90.0
  7
ROMANS
  0
LINE
  8
0
  6
HIDDEN
 62
   249
 10
210.0
 20
52.5
 30
0.0
 11
210.0
 21
57.5
 31
0.0
  0
LINE
  8
0
  6
HIDDEN
 62
   249
 10
210.0
 20
57.5
 30
0.0
 11
240.0
 21
57.5
 31
0.0
  0
TEXT
  8
0
  6
CONTINUOUS
 62
   249
 10
213.138441
 20
52.877099
 30
0.0
 40
2.0
  1
X0
 50
90.0
  7
ROMANS
  0
LINE
  8
0
  6
HIDDEN
 62
   249
 10
37.5
 20
115.0
 30
0.0
 11
42.5
 21
115.0
 31
0.0
  0
LINE
  8
0
  6
HIDDEN
 62
   249
 10
42.5
 20
115.0
 30
0.0
 11
42.5
 21
68.717083
 31
0.0
  0
LINE
  8
0
  6
HIDDEN
 62
   249
 10
42.5
 20
68.717083
 30
0.0
 11
37.5
 21
68.717083
 31
0.0
  0
TEXT
  8
0
  6
CONTINUOUS
 62
   249
 10
38.976696
 20
96.932006
 30
0.0
 40
2.0
  1
7
  7
ROMANS
  0
TEXT
  8
0
  6
CONTINUOUS
 62
   249
 10
38.976696
 20
101.932006
 30
0.0
 40
2.0
  1
3
  7
ROMANS
  0
TEXT
  8
0
  6
CONTINUOUS
 62
   249
 10
38.976696
 20
106.932006
 30
0.0
 40
2.0
  1
1
  7
ROMANS
  0
TEXT
  8
0
  6
CONTINUOUS
 62
   249
 10
38.306147
 20
111.636967
 30
0.0
 40
2.0
  1
X2
  7
ROMANS
  0
TEXT
  8
0
  6
CONTINUOUS
 62
   249
 10
38.007057
 20
74.124627
 30
0.0
 40
2.0
  1
14
  7
ROMANS
  0
TEXT
  8
0
  6
CONTINUOUS
 62
   249
 10
38.007057
 20
81.446487
 30
0.0
 40
2.0
  1
12
  7
ROMANS
  0
TEXT
  8
0
  6
CONTINUOUS
 62
   249
 10
38.007057
 20
91.932006
 30
0.0
 40
2.0
  1
10
  7
ROMANS
  0
TEXT
  8
0
  6
CONTINUOUS
 62
   249
 10
38.007057
 20
69.505995
 30
0.0
 40
2.0
  1
15
  7
ROMANS
  0
LINE
  8
0
  6
HIDDEN
 62
   249
 10
37.5
 20
225.0
 30
0.0
 11
42.5
 21
225.0
 31
0.0
  0
LINE
  8
0
  6
HIDDEN
 62
   249
 10
42.5
 20
225.0
 30
0.0
 11
42.5
 21
165.0
 31
0.0
  0
LINE
  8
0
  6
HIDDEN
 62
   249
 10
42.5
 20
165.0
 30
0.0
 11
37.5
 21
165.0
 31
0.0
  0
TEXT
  8
0
  6
CONTINUOUS
 62
   249
 10
38.306147
 20
221.636967
 30
0.0
 40
2.0
  1
X1
  7
ROMANS
  0
TEXT
  8
0
  6
CONTINUOUS
 62
   249
 10
38.976696
 20
211.932006
 30
0.0
 40
2.0
  1
2
  7
ROMANS
  0
TEXT
  8
0
  6
CONTINUOUS
 62
   249
 10
38.976696
 20
216.932006
 30
0.0
 40
2.0
  1
1
  7
ROMANS
  0
TEXT
  8
0
  6
CONTINUOUS
 62
   249
 10
38.976696
 20
196.932006
 30
0.0
 40
2.0
  1
4
  7
ROMANS
  0
TEXT
  8
0
  6
CONTINUOUS
 62
   249
 10
38.976696
 20
201.932006
 30
0.0
 40
2.0
  1
3
  7
ROMANS
  0
TEXT
  8
0
  6
CONTINUOUS
 62
   249
 10
38.976696
 20
181.932006
 30
0.0
 40
2.0
  1
8
  7
ROMANS
  0
TEXT
  8
0
  6
CONTINUOUS
 62
   249
 10
38.976696
 20
186.932006
 30
0.0
 40
2.0
  1
7
  7
ROMANS
  0
TEXT
  8
0
  6
CONTINUOUS
 62
   249
 10
38.976696
 20
171.932006
 30
0.0
 40
2.0
  1
9
  7
ROMANS
  0
TEXT
  8
0
  6
CONTINUOUS
 62
   249
 10
38.007057
 20
166.932006
 30
0.0
 40
2.0
  1
10
  7
ROMANS
  0
TEXT
  8
0
  6
HIDDEN
 62
   249
 10
59.828176
 20
223.693637
 30
0.0
 40
2.0
  1
BS1/U1
  7
ROMANS
  0
TEXT
  8
0
  6
HIDDEN
 62
   249
 10
60.414748
 20
194.102953
 30
0.0
 40
2.0
  1
BS2
  7
ROMANS
  0
TEXT
  8
0
  6
HIDDEN
 62
   249
 10
91.220468
 20
145.0
 30
0.0
 40
2.0
  1
TS2
 50
90.0
  7
ROMANS
  0
TEXT
  8
0
  6
HIDDEN
 62
   249
 10
98.602905
 20
145.0
 30
0.0
 40
2.0
  1
TS1
 50
90.0
  7
ROMANS
  0
TEXT
  8
0
  6
HIDDEN
 62
   249
 10
113.804544
 20
145.0
 30
0.0
 40
2.0
  1
SS3
 50
90.0
  7
ROMANS
  0
TEXT
  8
0
  6
HIDDEN
 62
   249
 10
121.220468
 20
145.0
 30
0.0
 40
2.0
  1
SS2
 50
90.0
  7
ROMANS
  0
TEXT
  8
0
  6
HIDDEN
 62
   249
 10
128.602905
 20
145.0
 30
0.0
 40
2.0
  1
SS1
 50
90.0
  7
ROMANS
  0
TEXT
  8
0
  6
DASHED
 62
   249
 10
23.03868
 20
194.651636
 30
0.0
 40
2.0
  1
1)
  7
ROMANS
  0
LINE
  8
0
  6
CONTINUOUS
 62
   249
 10
30.0
 20
169.999655
 30
0.0
 11
31.0
 21
168.999655
 31
0.0
  0
LINE
  8
0
  6
CONTINUOUS
 62
   249
 10
30.0
 20
220.0
 30
0.0
 11
31.0
 21
221.0
 31
0.0
  0
LINE
  8
0
  6
CONTINUOUS
 62
   249
 10
30.0
 20
220.0
 30
0.0
 11
30.0
 21
169.999655
 31
0.0
  0
LINE
  8
0
  6
DASHED
 62
   249
 10
37.5
 20
220.0
 30
0.0
 11
32.5
 21
220.0
 31
0.0
  0
LINE
  8
0
  6
DASHED
 62
   249
 10
37.5
 20
215.0
 30
0.0
 11
32.5
 21
215.0
 31
0.0
  0
LINE
  8
0
  6
DASHED
 62
   249
 10
37.5
 20
200.0
 30
0.0
 11
32.5
 21
200.0
 31
0.0
  0
LINE
  8
0
  6
DASHED
 62
   249
 10
37.5
 20
205.0
 30
0.0
 11
32.5
 21
205.0
 31
0.0
  0
LINE
  8
0
  6
DASHED
 62
   249
 10
37.5
 20
185.0
 30
0.0
 11
32.5
 21
185.0
 31
0.0
  0
LINE
  8
0
  6
DASHED
 62
   249
 10
37.5
 20
190.0
 30
0.0
 11
32.5
 21
190.0
 31
0.0
  0
LINE
  8
0
  6
DASHED
 62
   249
 10
37.5
 20
170.0
 30
0.0
 11
32.5
 21
170.0
 31
0.0
  0
LINE
  8
0
  6
DASHED
 62
   249
 10
37.5
 20
175.0
 30
0.0
 11
32.5
 21
175.0
 31
0.0
  0
LINE
  8
0
  6
DASHED
 62
   249
 10
37.5
 20
105.0
 30
0.0
 11
32.5
 21
105.0
 31
0.0
  0
LINE
  8
0
  6
DASHED
 62
   249
 10
37.5
 20
90.0
 30
0.0
 11
32.5
 21
90.0
 31
0.0
  0
LINE
  8
0
  6
DASHED
 62
   249
 10
37.5
 20
95.0
 30
0.0
 11
32.5
 21
95.0
 31
0.0
  0
LINE
  8
0
  6
DASHED
 62
   249
 10
37.5
 20
85.0
 30
0.0
 11
32.5
 21
85.0
 31
0.0
  0
LINE
  8
0
  6
CONTINUOUS
 62
   249
 10
30.0
 20
100.170814
 30
0.0
 11
31.0
 21
101.170814
 31
0.0
  0
LINE
  8
0
  6
CONTINUOUS
 62
   249
 10
30.0
 20
100.170814
 30
0.0
 11
30.0
 21
84.999655
 31
0.0
  0
LINE
  8
0
  6
CONTINUOUS
 62
   249
 10
30.0
 20
84.999655
 30
0.0
 11
31.0
 21
83.999655
 31
0.0
  0
TEXT
  8
0
  6
DASHED
 62
   249
 10
23.03868
 20
91.949768
 30
0.0
 40
2.0
  1
3)
  7
ROMANS
  0
LINE
  8
0
  6
DASHED
 62
   249
 10
147.5
 20
52.5
 30
0.0
 11
147.5
 21
45.0
 31
0.0
  0
LINE
  8
0
  6
DASHED
 62
   249
 10
172.5
 20
52.5
 30
0.0
 11
172.5
 21
45.0
 31
0.0
  0
TEXT
  8
0
  6
DASHED
 62
   249
 10
50.283566
 20
13.955703
 30
0.0
 40
2.0
  1
  UTLÖSNING
  7
ROMANS
  0
TEXT
  8
0
  6
DASHED
 62
   249
 10
48.944551
 20
17.289036
 30
0.0
 40
2.0
  1
2) TRIP
  7
ROMANS
  0
TEXT
  8
0
  6
DASHED
 62
   249
 10
54.684307
 20
23.955703
 30
0.0
 40
2.0
  1
KONTROLL INGÅNGAR
  7
ROMANS
  0
TEXT
  8
0
  6
DASHED
 62
   249
 10
48.944551
 20
27.289036
 30
0.0
 40
2.0
  1
1) CONTROL INPUTS
  7
ROMANS
  0
TEXT
  8
0
  6
DASHED
 62
   249
 10
110.172988
 20
14.068896
 30
0.0
 40
2.0
  1
  BUSSANSLUTNINGSMODUL
  7
ROMANS
  0
LINE
  8
0
  6
CONTINUOUS
 62
   249
 10
383.974058
 20
215.777247
 30
0.0
 11
366.474058
 21
215.777247
 31
0.0
  0
TEXT
  8
0
  6
HIDDEN
 62
   249
 10
180.231707
 20
207.873746
 30
0.0
 40
2.5
  1
2I
  7
GREEKS
  0
LINE
  8
0
  6
CONTINUOUS
 62
   249
 10
180.308331
 20
204.089267
 30
0.0
 11
186.225101
 21
204.089267
 31
0.0
  0
LINE
  8
0
  6
CONTINUOUS
 62
   249
 10
186.225101
 20
204.089267
 30
0.0
 11
183.960889
 21
204.655887
 31
0.0
  0
LINE
  8
0
  6
CONTINUOUS
 62
   249
 10
186.225101
 20
204.089267
 30
0.0
 11
183.960889
 21
203.522647
 31
0.0
  0
LINE
  8
0
  6
CONTINUOUS
 62
   249
 10
183.953992
 20
204.65886
 30
0.0
 11
183.953992
 21
203.52562
 31
0.0
  0
TEXT
  8
0
  6
CONTINUOUS
 62
   249
 10
260.368306
 20
188.063568
 30
0.0
 40
2.0
  1
6)
  7
ROMANS
  0
TEXT
  8
0
  6
CONTINUOUS
 62
   249
 10
260.368306
 20
223.291776
 30
0.0
 40
2.0
  1
6)
  7
ROMANS
  0
LINE
  8
0
  6
CONTINUOUS
 62
   249
 10
260.0
 20
187.8468
 30
0.0
 11
260.0
 21
182.16187
 31
0.0
  0
LINE
  8
0
  6
CONTINUOUS
 62
   249
 10
260.0
 20
182.16187
 30
0.0
 11
259.0
 21
181.16187
 31
0.0
  0
LINE
  8
0
  6
CONTINUOUS
 62
   249
 10
260.0
 20
187.8468
 30
0.0
 11
259.0
 21
188.8468
 31
0.0
  0
LINE
  8
0
  6
CONTINUOUS
 62
   249
 10
260.0
 20
222.8468
 30
0.0
 11
260.0
 21
217.16187
 31
0.0
  0
LINE
  8
0
  6
CONTINUOUS
 62
   249
 10
260.0
 20
217.16187
 30
0.0
 11
259.0
 21
216.16187
 31
0.0
  0
LINE
  8
0
  6
CONTINUOUS
 62
   249
 10
260.0
 20
222.8468
 30
0.0
 11
259.0
 21
223.8468
 31
0.0
  0
LINE
  8
0
  6
DASHED
 62
   249
 10
290.0
 20
152.5
 30
0.0
 11
290.0
 21
140.0
 31
0.0
  0
LINE
  8
0
  6
DASHED
 62
   249
 10
295.0
 20
187.5
 30
0.0
 11
260.0
 21
187.5
 31
0.0
  0
LINE
  8
0
  6
DASHED
 62
   249
 10
290.0
 20
205.0
 30
0.0
 11
260.0
 21
205.0
 31
0.0
  0
LINE
  8
0
  6
DASHED
 62
   249
 10
290.0
 20
142.5
 30
0.0
 11
290.0
 21
142.5
 31
0.0
  0
LINE
  8
0
  6
DASHED
 62
   249
 10
287.5
 20
170.0
 30
0.0
 11
287.5
 21
152.5
 31
0.0
  0
LINE
  8
0
  6
CONTINUOUS
 62
   249
 10
290.0
 20
165.0
 30
0.0
 11
290.0
 21
152.5
 31
0.0
  0
LINE
  8
0
  6
CONTINUOUS
 62
   249
 10
290.0
 20
165.0
 30
0.0
 11
292.5
 21
170.0
 31
0.0
  0
LINE
  8
0
  6
CONTINUOUS
 62
   249
 10
287.5
 20
170.0
 30
0.0
 11
290.0
 21
165.0
 31
0.0
  0
LINE
  8
0
  6
CONTINUOUS
 62
   249
 10
285.0
 20
170.0
 30
0.0
 11
295.0
 21
170.0
 31
0.0
  0
LINE
  8
0
  6
DASHED
 62
   249
 10
280.0
 20
217.689992
 30
0.0
 11
280.0
 21
172.245903
 31
0.0
  0
LINE
  8
0
  6
DASHED
 62
   249
 10
267.5
 20
212.5
 30
0.0
 11
267.5
 21
177.5
 31
0.0
  0
LINE
  8
0
  6
DASHED
 62
   249
 10
295.006921
 20
182.689984
 30
0.0
 11
280.0
 21
182.689984
 31
0.0
  0
LINE
  8
0
  6
DASHED
 62
   249
 10
285.0
 20
230.0
 30
0.0
 11
285.0
 21
170.0
 31
0.0
  0
LINE
  8
0
  6
DASHED
 62
   249
 10
290.0
 20
230.0
 30
0.0
 11
290.0
 21
170.0
 31
0.0
  0
LINE
  8
0
  6
DASHED
 62
   249
 10
295.0
 20
230.0
 30
0.0
 11
295.0
 21
170.0
 31
0.0
  0
LINE
  8
0
  6
DASHED
 62
   249
 10
285.0
 20
237.5
 30
0.0
 11
285.0
 21
250.0
 31
0.0
  0
LINE
  8
0
  6
DASHED
 62
   249
 10
290.0
 20
252.5
 30
0.0
 11
290.0
 21
237.5
 31
0.0
  0
LINE
  8
0
  6
DASHED
 62
   249
 10
295.0
 20
247.5
 30
0.0
 11
295.0
 21
237.5
 31
0.0
  0
LINE
  8
0
  6
DASHED
 62
   249
 10
285.0
 20
242.5
 30
0.0
 11
285.0
 21
257.5
 31
0.0
  0
LINE
  8
0
  6
CONTINUOUS
 62
   249
 10
285.0
 20
230.0
 30
0.0
 11
282.5
 21
237.5
 31
0.0
  0
LINE
  8
0
  6
CONTINUOUS
 62
   249
 10
290.0
 20
230.0
 30
0.0
 11
287.5
 21
237.5
 31
0.0
  0
LINE
  8
0
  6
CONTINUOUS
 62
   249
 10
295.0
 20
230.0
 30
0.0
 11
292.5
 21
237.5
 31
0.0
  0
LINE
  8
0
  6
CONTINUOUS
 62
   249
 10
285.0
 20
237.5
 30
0.0
 11
284.5
 21
238.0
 31
0.0
  0
LINE
  8
0
  6
CONTINUOUS
 62
   249
 10
285.0
 20
237.5
 30
0.0
 11
285.5
 21
237.0
 31
0.0
  0
LINE
  8
0
  6
CONTINUOUS
 62
   249
 10
285.0
 20
237.5
 30
0.0
 11
285.5
 21
238.0
 31
0.0
  0
LINE
  8
0
  6
CONTINUOUS
 62
   249
 10
285.0
 20
237.5
 30
0.0
 11
284.5
 21
237.0
 31
0.0
  0
LINE
  8
0
  6
CONTINUOUS
 62
   249
 10
290.0
 20
237.5
 30
0.0
 11
290.5
 21
238.0
 31
0.0
  0
LINE
  8
0
  6
CONTINUOUS
 62
   249
 10
290.0
 20
237.5
 30
0.0
 11
290.5
 21
237.0
 31
0.0
  0
LINE
  8
0
  6
CONTINUOUS
 62
   249
 10
290.0
 20
237.5
 30
0.0
 11
289.5
 21
237.0
 31
0.0
  0
LINE
  8
0
  6
CONTINUOUS
 62
   249
 10
290.0
 20
237.5
 30
0.0
 11
289.5
 21
238.0
 31
0.0
  0
LINE
  8
0
  6
CONTINUOUS
 62
   249
 10
295.0
 20
237.5
 30
0.0
 11
295.5
 21
237.0
 31
0.0
  0
LINE
  8
0
  6
CONTINUOUS
 62
   249
 10
295.0
 20
237.5
 30
0.0
 11
295.5
 21
238.0
 31
0.0
  0
LINE
  8
0
  6
CONTINUOUS
 62
   249
 10
295.0
 20
237.5
 30
0.0
 11
294.5
 21
238.0
 31
0.0
  0
LINE
  8
0
  6
CONTINUOUS
 62
   249
 10
295.0
 20
237.5
 30
0.0
 11
294.5
 21
237.0
 31
0.0
  0
LINE
  8
0
  6
DASHED
 62
   249
 10
285.0
 20
217.689992
 30
0.0
 11
280.0
 21
217.689992
 31
0.0
  0
TEXT
  8
0
  6
CONTINUOUS
 62
   249
 10
268.732328
 20
256.485054
 30
0.0
 40
2.0
  1
L1(R)
 11
268.732328
 21
255.818387
 31
0.0
 73
     1
  0
TEXT
  8
0
  6
CONTINUOUS
 62
   249
 10
268.732328
 20
251.428359
 30
0.0
 40
2.0
  1
L2(S)
 11
268.732328
 21
250.761693
 31
0.0
 73
     1
  0
TEXT
  8
0
  6
CONTINUOUS
 62
   249
 10
268.732328
 20
246.506967
 30
0.0
 40
2.0
  1
L3(T)
 11
268.732328
 21
245.8403
 31
0.0
 73
     1
  0
LINE
  8
0
  6
DASHED
 62
   249
 10
255.0
 20
177.5
 30
0.0
 11
280.0
 21
177.5
 31
0.0
  0
LINE
  8
0
  6
CONTINUOUS
 62
   249
 10
255.0
 20
182.5
 30
0.0
 11
257.5
 21
182.5
 31
0.0
  0
LINE
  8
0
  6
CONTINUOUS
 62
   249
 10
255.0
 20
187.5
 30
0.0
 11
257.5
 21
187.5
 31
0.0
  0
LINE
  8
0
  6
DASHED
 62
   249
 10
255.0
 20
212.5
 30
0.0
 11
267.5
 21
212.5
 31
0.0
  0
LINE
  8
0
  6
CONTINUOUS
 62
   249
 10
255.0
 20
217.5
 30
0.0
 11
257.5
 21
217.5
 31
0.0
  0
LINE
  8
0
  6
CONTINUOUS
 62
   249
 10
255.0
 20
222.5
 30
0.0
 11
257.5
 21
222.5
 31
0.0
  0
LINE
  8
0
  6
DASHED
 62
   249
 10
347.5
 20
247.5
 30
0.0
 11
277.5
 21
247.5
 31
0.0
  0
LINE
  8
0
  6
DASHED
 62
   249
 10
347.5
 20
252.5
 30
0.0
 11
277.5
 21
252.5
 31
0.0
  0
LINE
  8
0
  6
DASHED
 62
   249
 10
347.5
 20
257.5
 30
0.0
 11
277.5
 21
257.5
 31
0.0
  0
LINE
  8
0
  6
CONTINUOUS
 62
   249
 10
235.0
 20
200.0
 30
0.0
 11
230.0
 21
200.0
 31
0.0
  0
LINE
  8
0
  6
CONTINUOUS
 62
   249
 10
230.0
 20
204.725146
 30
0.0
 11
202.950615
 21
204.725146
 31
0.0
  0
TEXT
  8
0
  6
CONTINUOUS
 62
   249
 10
38.976696
 20
86.932006
 30
0.0
 40
2.0
  1
9
  7
ROMANS
  0
LINE
  8
0
  6
CONTINUOUS
 62
   249
 10
202.950615
 20
212.034863
 30
0.0
 11
215.0
 21
212.034863
 31
0.0
  0
LINE
  8
0
  6
CONTINUOUS
 62
   249
 10
215.0
 20
190.309991
 30
0.0
 11
215.0
 21
235.0
 31
0.0
  0
LINE
  8
0
  6
CONTINUOUS
 62
   249
 10
202.950615
 20
182.872268
 30
0.0
 11
222.845429
 21
182.872268
 31
0.0
  0
TEXT
  8
0
  6
CONTINUOUS
 62
   249
 10
165.428239
 20
53.561614
 30
0.0
 40
2.0
  1
8
 50
90.0
  7
ROMANS
  0
TEXT
  8
0
  6
CONTINUOUS
 62
   249
 10
218.138441
 20
52.877099
 30
0.0
 40
2.0
  1
61
 50
90.0
  7
ROMANS
  0
TEXT
  8
0
  6
CONTINUOUS
 62
   249
 10
223.09138
 20
52.877099
 30
0.0
 40
2.0
  1
62
 50
90.0
  7
ROMANS
  0
LINE
  8
0
  6
HIDDEN
 62
   249
 10
240.0
 20
57.5
 30
0.0
 11
240.0
 21
52.5
 31
0.0
  0
TEXT
  8
0
  6
CONTINUOUS
 62
   249
 10
238.09138
 20
52.877099
 30
0.0
 40
2.0
  1
63
 50
90.0
  7
ROMANS
  0
TEXT
  8
0
  6
HIDDEN
 62
   249
 10
372.639491
 20
244.74212
 30
0.0
 40
2.5
  1
2I
  7
GREEKS
  0
LINE
  8
0
 62
   249
 10
344.302395
 20
83.884567
 30
0.0
 11
377.906139
 21
83.884567
 31
0.0
  0
LINE
  8
0
  6
CONTINUOUS
 62
   249
 10
344.302395
 20
78.712769
 30
0.0
 11
377.906139
 21
78.712769
 31
0.0
  0
LINE
  8
0
  6
CONTINUOUS
 62
   249
 10
331.802395
 20
88.712769
 30
0.0
 11
377.906139
 21
88.712769
 31
0.0
  0
LINE
  8
0
  6
CONTINUOUS
 62
   249
 10
331.802395
 20
61.84553
 30
0.0
 11
377.906139
 21
61.84553
 31
0.0
  0
LINE
  8
0
  6
CONTINUOUS
 62
   249
 10
344.302395
 20
40.45583
 30
0.0
 11
344.302395
 21
88.712769
 31
0.0
  0
TEXT
  8
0
  6
CENTER
 62
   249
 10
336.802395
 20
64.04463
 30
0.0
 40
2.0
  1
L3
  7
ROMANS
  0
TEXT
  8
0
  6
CENTER
 62
   249
 10
336.802395
 20
73.712769
 30
0.0
 40
2.0
  1
L1
  7
ROMANS
  0
TEXT
  8
0
  6
CENTER
 62
   249
 10
365.604478
 20
63.892113
 30
0.0
 40
2.0
  1
7-8
  7
ROMANS
  0
TEXT
  8
0
  6
CENTER
 62
   249
 10
365.604478
 20
73.560251
 30
0.0
 40
2.0
  1
1-2
  7
ROMANS
  0
TEXT
  8
0
  6
CENTER
 62
   249
 10
349.072209
 20
64.04463
 30
0.0
 40
2.0
  1
7-9
  7
ROMANS
  0
TEXT
  8
0
  6
CENTER
 62
   249
 10
349.072209
 20
73.712769
 30
0.0
 40
2.0
  1
1-3
  7
ROMANS
  0
LINE
  8
0
 62
   249
 10
331.802395
 20
88.712769
 30
0.0
 11
331.802395
 21
40.45583
 31
0.0
  0
LINE
  8
0
 62
   249
 10
377.906139
 20
40.45583
 30
0.0
 11
377.906139
 21
88.712769
 31
0.0
  0
TEXT
  8
0
 62
   249
 10
345.857321
 20
84.551233
 30
0.0
 40
2.0
  1
TERMINALS / UTTAG
  7
ROMANS
 11
345.857321
 21
83.884567
 31
0.0
 73
     1
  0
TEXT
  8
0
 62
   249
 10
346.348477
 20
80.262785
 30
0.0
 40
2.0
  1
In=1A 
  7
ROMANS
 11
346.348477
 21
79.596119
 31
0.0
 73
     1
  0
TEXT
  8
0
 62
   249
 10
363.089671
 20
80.262785
 30
0.0
 40
2.0
  1
In=5A
  7
ROMANS
 11
363.089671
 21
79.596119
 31
0.0
 73
     1
  0
TEXT
  8
0
  6
CONTINUOUS
 62
   249
 10
327.049284
 20
86.020114
 30
0.0
 40
2.0
  1
6)
  7
ROMANS
 11
327.049284
 21
85.353448
 31
0.0
 73
     1
  0
LINE
  8
0
  6
CONTINUOUS
 62
   249
 10
160.762593
 20
184.990398
 30
0.0
 11
163.501724
 21
184.304929
 31
0.0
  0
LINE
  8
0
  6
CONTINUOUS
 62
   249
 10
160.762593
 20
184.990398
 30
0.0
 11
163.501724
 21
185.675867
 31
0.0
  0
LINE
  8
0
  6
CONTINUOUS
 62
   249
 10
163.510069
 20
184.301333
 30
0.0
 11
163.510069
 21
185.672271
 31
0.0
  0
LINE
  8
0
  6
CONTINUOUS
 62
   249
 10
163.510069
 20
179.301333
 30
0.0
 11
163.510069
 21
180.672271
 31
0.0
  0
LINE
  8
0
  6
CONTINUOUS
 62
   249
 10
160.762593
 20
179.990398
 30
0.0
 11
163.501724
 21
180.675867
 31
0.0
  0
LINE
  8
0
  6
CONTINUOUS
 62
   249
 10
160.762593
 20
179.990398
 30
0.0
 11
163.501724
 21
179.304929
 31
0.0
  0
LINE
  8
0
  6
CONTINUOUS
 62
   249
 10
160.762593
 20
182.490398
 30
0.0
 11
163.501724
 21
181.804929
 31
0.0
  0
LINE
  8
0
  6
CONTINUOUS
 62
   249
 10
160.762593
 20
182.490398
 30
0.0
 11
163.501724
 21
183.175867
 31
0.0
  0
LINE
  8
0
  6
CONTINUOUS
 62
   249
 10
163.510069
 20
181.801333
 30
0.0
 11
163.510069
 21
183.172271
 31
0.0
  0
LINE
  8
0
  6
CONTINUOUS
 62
   249
 10
163.510069
 20
186.801333
 30
0.0
 11
163.510069
 21
188.172271
 31
0.0
  0
LINE
  8
0
  6
CONTINUOUS
 62
   249
 10
160.762593
 20
187.490398
 30
0.0
 11
163.501724
 21
188.175867
 31
0.0
  0
LINE
  8
0
  6
CONTINUOUS
 62
   249
 10
160.762593
 20
187.490398
 30
0.0
 11
163.501724
 21
186.804929
 31
0.0
  0
LINE
  8
0
  6
CONTINUOUS
 62
   249
 10
160.762593
 20
189.990398
 30
0.0
 11
163.501724
 21
189.304929
 31
0.0
  0
LINE
  8
0
  6
CONTINUOUS
 62
   249
 10
160.762593
 20
189.990398
 30
0.0
 11
163.501724
 21
190.675867
 31
0.0
  0
LINE
  8
0
  6
CONTINUOUS
 62
   249
 10
163.510069
 20
189.301333
 30
0.0
 11
163.510069
 21
190.672271
 31
0.0
  0
LINE
  8
0
  6
CONTINUOUS
 62
   249
 10
163.510069
 20
214.301333
 30
0.0
 11
163.510069
 21
215.672271
 31
0.0
  0
LINE
  8
0
  6
CONTINUOUS
 62
   249
 10
160.762593
 20
214.990398
 30
0.0
 11
163.501724
 21
215.675867
 31
0.0
  0
LINE
  8
0
  6
CONTINUOUS
 62
   249
 10
160.762593
 20
214.990398
 30
0.0
 11
163.501724
 21
214.304929
 31
0.0
  0
LINE
  8
0
  6
CONTINUOUS
 62
   249
 10
163.510069
 20
206.801333
 30
0.0
 11
163.510069
 21
208.172271
 31
0.0
  0
LINE
  8
0
  6
CONTINUOUS
 62
   249
 10
160.762593
 20
207.490398
 30
0.0
 11
163.501724
 21
208.175867
 31
0.0
  0
LINE
  8
0
  6
CONTINUOUS
 62
   249
 10
160.762593
 20
207.490398
 30
0.0
 11
163.501724
 21
206.804929
 31
0.0
  0
LINE
  8
0
  6
CONTINUOUS
 62
   249
 10
160.762593
 20
204.990398
 30
0.0
 11
163.501724
 21
204.304929
 31
0.0
  0
LINE
  8
0
  6
CONTINUOUS
 62
   249
 10
160.762593
 20
204.990398
 30
0.0
 11
163.501724
 21
205.675867
 31
0.0
  0
LINE
  8
0
  6
CONTINUOUS
 62
   249
 10
163.510069
 20
204.301333
 30
0.0
 11
163.510069
 21
205.672271
 31
0.0
  0
LINE
  8
0
  6
CONTINUOUS
 62
   249
 10
163.510069
 20
209.301333
 30
0.0
 11
163.510069
 21
210.672271
 31
0.0
  0
LINE
  8
0
  6
CONTINUOUS
 62
   249
 10
160.762593
 20
209.990398
 30
0.0
 11
163.501724
 21
210.675867
 31
0.0
  0
LINE
  8
0
  6
CONTINUOUS
 62
   249
 10
160.762593
 20
209.990398
 30
0.0
 11
163.501724
 21
209.304929
 31
0.0
  0
TEXT
  8
0
  6
HIDDEN
 62
   249
 10
80.706281
 20
179.50718
 30
0.0
 40
2.0
  1
RRES
 50
90.0
  7
ROMANS
  0
LINE
  8
0
  6
CONTINUOUS
 62
   249
 10
75.0
 20
240.0
 30
0.0
 11
217.5
 21
240.0
 31
0.0
  0
LINE
  8
0
  6
CONTINUOUS
 62
   249
 10
75.0
 20
207.5
 30
0.0
 11
75.0
 21
240.0
 31
0.0
  0
LINE
  8
0
  6
CONTINUOUS
 62
   249
 10
220.0
 20
215.693599
 30
0.0
 11
220.0
 21
245.0
 31
0.0
  0
LINE
  8
0
  6
CONTINUOUS
 62
   249
 10
202.950615
 20
215.693599
 30
0.0
 11
220.0
 21
215.693599
 31
0.0
  0
LINE
  8
0
 62
   249
 10
245.0
 20
132.5
 30
0.0
 11
247.5
 21
132.5
 31
0.0
  0
ARC
  8
0
 62
   249
 10
244.934151
 20
133.75
 30
0.0
 40
1.251733
 50
86.984476
 51
273.015524
  0
ARC
  8
0
 62
   249
 10
244.934151
 20
136.25
 30
0.0
 40
1.251733
 50
86.984476
 51
273.015524
  0
LINE
  8
0
 62
   249
 10
245.0
 20
135.0
 30
0.0
 11
247.5
 21
135.0
 31
0.0
  0
LINE
  8
0
 62
   249
 10
245.0
 20
137.5
 30
0.0
 11
247.5
 21
137.5
 31
0.0
  0
LINE
  8
0
 62
   249
 10
247.5
 20
137.5
 30
0.0
 11
250.0
 21
137.5
 31
0.0
  0
LINE
  8
0
 62
   249
 10
247.5
 20
127.5
 30
0.0
 11
250.0
 21
127.5
 31
0.0
  0
LINE
  8
0
 62
   249
 10
245.0
 20
130.0
 30
0.0
 11
247.5
 21
130.0
 31
0.0
  0
ARC
  8
0
 62
   249
 10
244.934151
 20
131.25
 30
0.0
 40
1.251733
 50
86.984476
 51
273.015524
  0
ARC
  8
0
 62
   249
 10
244.934151
 20
128.75
 30
0.0
 40
1.251733
 50
86.984476
 51
273.015524
  0
LINE
  8
0
 62
   249
 10
245.0
 20
127.5
 30
0.0
 11
247.5
 21
127.5
 31
0.0
  0
ARC
  8
0
 62
   249
 10
240.065849
 20
133.75
 30
0.0
 40
1.251733
 50
266.984476
 51
93.015524
  0
LINE
  8
0
 62
   249
 10
240.0
 20
135.0
 30
0.0
 11
238.480133
 21
135.0
 31
0.0
  0
LINE
  8
0
 62
   249
 10
240.0
 20
132.5
 30
0.0
 11
238.480133
 21
132.5
 31
0.0
  0
ARC
  8
0
 62
   249
 10
240.065849
 20
131.25
 30
0.0
 40
1.251733
 50
266.984476
 51
93.015524
  0
LINE
  8
0
 62
   249
 10
240.0
 20
130.0
 30
0.0
 11
238.480133
 21
130.0
 31
0.0
  0
LINE
  8
0
  6
CONTINUOUS
 62
   249
 10
250.0
 20
127.5
 30
0.0
 11
255.0
 21
127.5
 31
0.0
  0
LINE
  8
0
  6
CONTINUOUS
 62
   249
 10
250.0
 20
137.5
 30
0.0
 11
255.0
 21
137.5
 31
0.0
  0
LINE
  8
0
  6
CONTINUOUS
 62
   249
 10
250.0
 20
112.5
 30
0.0
 11
255.0
 21
112.5
 31
0.0
  0
LINE
  8
0
  6
CONTINUOUS
 62
   249
 10
250.0
 20
122.5
 30
0.0
 11
255.0
 21
122.5
 31
0.0
  0
LINE
  8
0
 62
   249
 10
240.0
 20
115.0
 30
0.0
 11
238.480133
 21
115.0
 31
0.0
  0
ARC
  8
0
 62
   249
 10
240.065849
 20
116.25
 30
0.0
 40
1.251733
 50
266.984476
 51
93.015524
  0
LINE
  8
0
 62
   249
 10
240.0
 20
117.5
 30
0.0
 11
238.480133
 21
117.5
 31
0.0
  0
LINE
  8
0
 62
   249
 10
240.0
 20
120.0
 30
0.0
 11
238.480133
 21
120.0
 31
0.0
  0
ARC
  8
0
 62
   249
 10
240.065849
 20
118.75
 30
0.0
 40
1.251733
 50
266.984476
 51
93.015524
  0
LINE
  8
0
 62
   249
 10
245.0
 20
112.5
 30
0.0
 11
247.5
 21
112.5
 31
0.0
  0
ARC
  8
0
 62
   249
 10
244.934151
 20
113.75
 30
0.0
 40
1.251733
 50
86.984476
 51
273.015524
  0
ARC
  8
0
 62
   249
 10
244.934151
 20
116.25
 30
0.0
 40
1.251733
 50
86.984476
 51
273.015524
  0
LINE
  8
0
 62
   249
 10
245.0
 20
115.0
 30
0.0
 11
247.5
 21
115.0
 31
0.0
  0
LINE
  8
0
 62
   249
 10
245.0
 20
117.5
 30
0.0
 11
247.5
 21
117.5
 31
0.0
  0
LINE
  8
0
 62
   249
 10
247.5
 20
112.5
 30
0.0
 11
250.0
 21
112.5
 31
0.0
  0
LINE
  8
0
 62
   249
 10
247.5
 20
122.5
 30
0.0
 11
250.0
 21
122.5
 31
0.0
  0
LINE
  8
0
 62
   249
 10
245.0
 20
122.5
 30
0.0
 11
247.5
 21
122.5
 31
0.0
  0
LINE
  8
0
 62
   249
 10
245.0
 20
120.0
 30
0.0
 11
247.5
 21
120.0
 31
0.0
  0
ARC
  8
0
 62
   249
 10
244.934151
 20
121.25
 30
0.0
 40
1.251733
 50
86.984476
 51
273.015524
  0
ARC
  8
0
 62
   249
 10
244.934151
 20
118.75
 30
0.0
 40
1.251733
 50
86.984476
 51
273.015524
  0
LINE
  8
0
  6
HIDDEN
 62
   249
 10
255.0
 20
122.5
 30
0.0
 11
250.0
 21
122.5
 31
0.0
  0
TEXT
  8
0
  6
CONTINUOUS
 62
   249
 10
250.611243
 20
123.840265
 30
0.0
 40
2.0
  1
13
  7
ROMANS
  0
TEXT
  8
0
  6
CONTINUOUS
 62
   249
 10
250.611243
 20
133.868145
 30
0.0
 40
2.0
  1
14
  7
ROMANS
  0
TEXT
  8
0
  6
CONTINUOUS
 62
   249
 10
250.611243
 20
109.370048
 30
0.0
 40
2.0
  1
16
  7
ROMANS
  0
TEXT
  8
0
  6
CONTINUOUS
 62
   249
 10
250.611243
 20
118.626299
 30
0.0
 40
2.0
  1
17
  7
ROMANS
  0
LINE
  8
0
  6
CONTINUOUS
 62
   249
 10
325.0
 20
180.18998
 30
0.0
 11
325.0
 21
177.5
 31
0.0
  0
ARC
  8
0
  6
CONTINUOUS
 62
   249
 10
323.364862
 20
183.796095
 30
0.0
 40
1.204309
 50
90.0
 51
265.706237
  0
LINE
  8
0
  6
CONTINUOUS
 62
   249
 10
323.358762
 20
182.598547
 30
0.0
 11
324.00836
 21
182.598547
 31
0.0
  0
LINE
  8
0
  6
CONTINUOUS
 62
   249
 10
323.358762
 20
184.999993
 30
0.0
 11
324.002261
 21
184.999993
 31
0.0
  0
LINE
  8
0
  6
CONTINUOUS
 62
   249
 10
323.359898
 20
180.189937
 30
0.0
 11
324.009496
 21
180.189937
 31
0.0
  0
ARC
  8
0
  6
CONTINUOUS
 62
   249
 10
323.364862
 20
181.394238
 30
0.0
 40
1.204309
 50
90.0
 51
270.0
  0
LINE
  8
0
  6
CONTINUOUS
 62
   249
 10
324.000897
 20
180.18998
 30
0.0
 11
325.0
 21
180.18998
 31
0.0
  0
LINE
  8
0
  6
CONTINUOUS
 62
   249
 10
323.996128
 20
184.999996
 30
0.0
 11
324.973936
 21
184.999996
 31
0.0
  0
LINE
  8
0
  6
CONTINUOUS
 62
   249
 10
324.006031
 20
182.598556
 30
0.0
 11
324.978167
 21
182.598556
 31
0.0
  0
LINE
  8
0
  6
CONTINUOUS
 62
   249
 10
310.0
 20
180.18998
 30
0.0
 11
310.0
 21
177.5
 31
0.0
  0
LINE
  8
0
  6
CONTINUOUS
 62
   249
 10
317.5
 20
180.18998
 30
0.0
 11
317.5
 21
177.5
 31
0.0
  0
ARC
  8
0
  6
CONTINUOUS
 62
   249
 10
315.864862
 20
183.796095
 30
0.0
 40
1.204309
 50
90.0
 51
265.706237
  0
LINE
  8
0
  6
CONTINUOUS
 62
   249
 10
315.858762
 20
182.598547
 30
0.0
 11
316.50836
 21
182.598547
 31
0.0
  0
LINE
  8
0
  6
CONTINUOUS
 62
   249
 10
315.858762
 20
184.999993
 30
0.0
 11
316.502261
 21
184.999993
 31
0.0
  0
LINE
  8
0
  6
CONTINUOUS
 62
   249
 10
315.859898
 20
180.189937
 30
0.0
 11
316.509496
 21
180.189937
 31
0.0
  0
ARC
  8
0
  6
CONTINUOUS
 62
   249
 10
315.864862
 20
181.394238
 30
0.0
 40
1.204309
 50
90.0
 51
270.0
  0
LINE
  8
0
  6
CONTINUOUS
 62
   249
 10
316.500897
 20
180.18998
 30
0.0
 11
317.5
 21
180.18998
 31
0.0
  0
LINE
  8
0
  6
CONTINUOUS
 62
   249
 10
316.496128
 20
184.999996
 30
0.0
 11
317.473936
 21
184.999996
 31
0.0
  0
LINE
  8
0
  6
CONTINUOUS
 62
   249
 10
316.506031
 20
182.598556
 30
0.0
 11
317.478167
 21
182.598556
 31
0.0
  0
ARC
  8
0
  6
CONTINUOUS
 62
   249
 10
308.364862
 20
183.796095
 30
0.0
 40
1.204309
 50
90.0
 51
265.706237
  0
LINE
  8
0
  6
CONTINUOUS
 62
   249
 10
308.358762
 20
182.598547
 30
0.0
 11
309.00836
 21
182.598547
 31
0.0
  0
LINE
  8
0
  6
CONTINUOUS
 62
   249
 10
308.358762
 20
184.999993
 30
0.0
 11
309.002261
 21
184.999993
 31
0.0
  0
LINE
  8
0
  6
CONTINUOUS
 62
   249
 10
308.359898
 20
180.189937
 30
0.0
 11
309.009496
 21
180.189937
 31
0.0
  0
ARC
  8
0
  6
CONTINUOUS
 62
   249
 10
308.364862
 20
181.394238
 30
0.0
 40
1.204309
 50
90.0
 51
270.0
  0
LINE
  8
0
  6
CONTINUOUS
 62
   249
 10
309.000897
 20
180.18998
 30
0.0
 11
310.0
 21
180.18998
 31
0.0
  0
LINE
  8
0
  6
CONTINUOUS
 62
   249
 10
308.996128
 20
184.999996
 30
0.0
 11
323.333522
 21
184.999996
 31
0.0
  0
LINE
  8
0
  6
CONTINUOUS
 62
   249
 10
309.006031
 20
182.598556
 30
0.0
 11
309.978167
 21
182.598556
 31
0.0
  0
LINE
  8
0
  6
CONTINUOUS
 62
   249
 10
320.0
 20
190.18998
 30
0.0
 11
340.0
 21
190.18998
 31
0.0
  0
LINE
  8
0
  6
DASHED
 62
   249
 10
325.0
 20
107.5
 30
0.0
 11
325.0
 21
177.5
 31
0.0
  0
LINE
  8
0
  6
DASHED
 62
   249
 10
317.5
 20
122.5
 30
0.0
 11
317.5
 21
177.5
 31
0.0
  0
LINE
  8
0
  6
DASHED
 62
   249
 10
310.0
 20
137.5
 30
0.0
 11
310.0
 21
177.5
 31
0.0
  0
LINE
  8
0
  6
DASHED
 62
   249
 10
335.0
 20
195.0
 30
0.0
 11
335.0
 21
247.5
 31
0.0
  0
LINE
  8
0
  6
DASHED
 62
   249
 10
327.5
 20
195.0
 30
0.0
 11
327.5
 21
252.5
 31
0.0
  0
LINE
  8
0
  6
DASHED
 62
   249
 10
320.0
 20
195.0
 30
0.0
 11
320.0
 21
257.5
 31
0.0
  0
LINE
  8
0
  6
DASHED
 62
   249
 10
252.5
 20
107.5
 30
0.0
 11
325.0
 21
107.5
 31
0.0
  0
LINE
  8
0
  6
DASHED
 62
   249
 10
255.0
 20
112.5
 30
0.0
 11
267.5
 21
112.5
 31
0.0
  0
LINE
  8
0
  6
DASHED
 62
   249
 10
255.0
 20
137.5
 30
0.0
 11
310.0
 21
137.5
 31
0.0
  0
LINE
  8
0
  6
DASHED
 62
   249
 10
255.0
 20
127.5
 30
0.0
 11
267.5
 21
127.5
 31
0.0
  0
LINE
  8
0
  6
CONTINUOUS
 62
   249
 10
217.973119
 20
112.5
 30
0.0
 11
217.973119
 21
96.240265
 31
0.0
  0
LINE
  8
0
  6
CONTINUOUS
 62
   249
 10
217.973119
 20
96.240265
 30
0.0
 11
225.063845
 21
96.240265
 31
0.0
  0
LINE
  8
0
  6
CONTINUOUS
 62
   249
 10
225.063845
 20
96.240265
 30
0.0
 11
225.063845
 21
87.5
 31
0.0
  0
LINE
  8
0
  6
CONTINUOUS
 62
   249
 10
235.0
 20
135.055891
 30
0.0
 11
235.0
 21
100.551193
 31
0.0
  0
LINE
  8
0
  6
CONTINUOUS
 62
   249
 10
230.0
 20
199.74857
 30
0.0
 11
230.0
 21
204.725146
 31
0.0
  0
LINE
  8
0
  6
CONTINUOUS
 62
   249
 10
202.950615
 20
201.128012
 30
0.0
 11
226.879701
 21
201.128012
 31
0.0
  0
LINE
  8
0
  6
CONTINUOUS
 62
   249
 10
255.0
 20
200.0
 30
0.0
 11
257.5
 21
200.0
 31
0.0
  0
LINE
  8
0
  6
CONTINUOUS
 62
   249
 10
255.0
 20
205.0
 30
0.0
 11
257.5
 21
205.0
 31
0.0
  0
LINE
  8
0
  6
CONTINUOUS
 62
   249
 10
255.0
 20
195.0
 30
0.0
 11
257.5
 21
195.0
 31
0.0
  0
TEXT
  8
0
 62
   249
 10
352.226136
 20
58.43571
 30
0.0
 40
2.0
  1
Un=100V
  7
ROMANS
 11
352.226136
 21
57.769043
 31
0.0
 73
     1
  0
LINE
  8
0
  6
CONTINUOUS
 62
   249
 10
344.302395
 20
56.582772
 30
0.0
 11
377.906139
 21
56.582772
 31
0.0
  0
TEXT
  8
0
  6
CENTER
 62
   249
 10
355.717794
 20
53.027282
 30
0.0
 40
2.0
  1
13-14
  7
ROMANS
  0
TEXT
  8
0
  6
CENTER
 62
   249
 10
355.717794
 20
48.106103
 30
0.0
 40
2.0
  1
16-17
  7
ROMANS
  0
TEXT
  8
0
  6
CONTINUOUS
 62
   249
 10
339.319361
 20
53.145822
 30
0.0
 40
1.5
  1
12
  7
ROMANS
  0
TEXT
  8
0
  6
HIDDEN
 62
   249
 10
336.969714
 20
53.199236
 30
0.0
 40
2.5
  1
U
  7
ROMANS
  0
TEXT
  8
0
  6
HIDDEN
 62
   249
 10
336.969714
 20
48.29202
 30
0.0
 40
2.5
  1
U
  7
ROMANS
  0
TEXT
  8
0
  6
CONTINUOUS
 62
   249
 10
339.319361
 20
48.108556
 30
0.0
 40
1.5
  1
23
  7
ROMANS
  0
LINE
  8
0
  6
CONTINUOUS
 62
   249
 10
371.782389
 20
240.494256
 30
0.0
 11
377.699159
 21
240.494256
 31
0.0
  0
LINE
  8
0
  6
CONTINUOUS
 62
   249
 10
377.699159
 20
240.494256
 30
0.0
 11
375.434947
 21
241.060876
 31
0.0
  0
LINE
  8
0
  6
CONTINUOUS
 62
   249
 10
377.699159
 20
240.494256
 30
0.0
 11
375.434947
 21
239.927636
 31
0.0
  0
LINE
  8
0
  6
CONTINUOUS
 62
   249
 10
375.42805
 20
241.063849
 30
0.0
 11
375.42805
 21
239.930608
 31
0.0
  0
TEXT
  8
0
  6
CONTINUOUS
 62
   249
 10
304.606509
 20
220.18489
 30
0.0
 40
2.0
  1
P/Q
  7
ROMANS
  0
LINE
  8
0
  6
HIDDEN
 62
   249
 10
255.0
 20
97.5
 30
0.0
 11
250.0
 21
97.5
 31
0.0
  0
LINE
  8
0
  6
CONTINUOUS
 62
   249
 10
183.953992
 20
183.755508
 30
0.0
 11
183.953992
 21
182.622268
 31
0.0
  0
LINE
  8
0
  6
CONTINUOUS
 62
   249
 10
186.225101
 20
183.185915
 30
0.0
 11
183.960889
 21
182.619295
 31
0.0
  0
LINE
  8
0
  6
CONTINUOUS
 62
   249
 10
186.225101
 20
183.185915
 30
0.0
 11
183.960889
 21
183.752535
 31
0.0
  0
LINE
  8
0
  6
CONTINUOUS
 62
   249
 10
180.308331
 20
183.185915
 30
0.0
 11
186.225101
 21
183.185915
 31
0.0
  0
TEXT
  8
0
  6
HIDDEN
 62
   249
 10
180.231707
 20
186.970394
 30
0.0
 40
2.5
  1
2I
  7
GREEKS
  0
TEXT
  8
0
  6
CONTINUOUS
 62
   249
 10
194.114189
 20
186.834421
 30
0.0
 40
2.5
  1
2I
  7
GREEKS
  0
TEXT
  8
0
  6
HIDDEN
 62
   249
 10
59.828176
 20
209.02401
 30
0.0
 40
2.0
  1
BS1/U2
  7
ROMANS
  0
LINE
  8
0
  6
CONTINUOUS
 62
   249
 10
375.42805
 20
223.517207
 30
0.0
 11
375.42805
 21
222.383967
 31
0.0
  0
LINE
  8
0
  6
CONTINUOUS
 62
   249
 10
377.699159
 20
222.947614
 30
0.0
 11
375.434947
 21
222.380994
 31
0.0
  0
LINE
  8
0
  6
CONTINUOUS
 62
   249
 10
377.699159
 20
222.947614
 30
0.0
 11
375.434947
 21
223.514235
 31
0.0
  0
LINE
  8
0
  6
CONTINUOUS
 62
   249
 10
371.782389
 20
222.947614
 30
0.0
 11
377.699159
 21
222.947614
 31
0.0
  0
TEXT
  8
0
  6
HIDDEN
 62
   249
 10
372.639491
 20
227.195479
 30
0.0
 40
2.5
  1
2I
  7
GREEKS
  0
LINE
  8
0
  6
DASHED
 62
   249
 10
285.0
 20
222.5
 30
0.0
 11
260.0
 21
222.5
 31
0.0
  0
LINE
  8
0
  6
DASHED
 62
   249
 10
290.0
 20
200.189992
 30
0.0
 11
280.0
 21
200.189992
 31
0.0
  0
LINE
  8
0
  6
CONTINUOUS
 62
   249
 10
260.0
 20
199.795876
 30
0.0
 11
259.0
 21
198.795876
 31
0.0
  0
LINE
  8
0
  6
CONTINUOUS
 62
   249
 10
260.0
 20
205.480805
 30
0.0
 11
260.0
 21
199.795876
 31
0.0
  0
LINE
  8
0
  6
CONTINUOUS
 62
   249
 10
260.0
 20
205.480805
 30
0.0
 11
259.0
 21
206.480805
 31
0.0
  0
TEXT
  8
0
  6
CONTINUOUS
 62
   249
 10
260.368306
 20
205.925781
 30
0.0
 40
2.0
  1
6)
  7
ROMANS
  0
LINE
  8
0
  6
DASHED
 62
   249
 10
255.0
 20
195.0
 30
0.0
 11
267.5
 21
195.0
 31
0.0
  0
ARC
  8
0
 62
   249
 10
244.934151
 20
106.25
 30
0.0
 40
1.251733
 50
86.984476
 51
273.015524
  0
TEXT
  8
0
  6
CONTINUOUS
 62
   249
 10
250.611243
 20
103.626299
 30
0.0
 40
2.0
  1
20
  7
ROMANS
  0
TEXT
  8
0
  6
CONTINUOUS
 62
   249
 10
250.611243
 20
94.184485
 30
0.0
 40
2.0
  1
19
  7
ROMANS
  0
LINE
  8
0
  6
HIDDEN
 62
   249
 10
255.0
 20
107.5
 30
0.0
 11
250.0
 21
107.5
 31
0.0
  0
ARC
  8
0
 62
   249
 10
244.934151
 20
103.75
 30
0.0
 40
1.251733
 50
86.984476
 51
273.015524
  0
LINE
  8
0
 62
   249
 10
245.0
 20
105.0
 30
0.0
 11
247.5
 21
105.0
 31
0.0
  0
LINE
  8
0
 62
   249
 10
245.0
 20
107.5
 30
0.0
 11
247.5
 21
107.5
 31
0.0
  0
LINE
  8
0
 62
   249
 10
247.5
 20
107.5
 30
0.0
 11
250.0
 21
107.5
 31
0.0
  0
LINE
  8
0
 62
   249
 10
247.5
 20
97.5
 30
0.0
 11
250.0
 21
97.5
 31
0.0
  0
LINE
  8
0
 62
   249
 10
245.0
 20
102.5
 30
0.0
 11
247.5
 21
102.5
 31
0.0
  0
LINE
  8
0
 62
   249
 10
245.0
 20
100.0
 30
0.0
 11
247.5
 21
100.0
 31
0.0
  0
ARC
  8
0
 62
   249
 10
244.934151
 20
101.25
 30
0.0
 40
1.251733
 50
86.984476
 51
273.015524
  0
ARC
  8
0
 62
   249
 10
244.934151
 20
98.75
 30
0.0
 40
1.251733
 50
86.984476
 51
273.015524
  0
LINE
  8
0
 62
   249
 10
245.0
 20
97.5
 30
0.0
 11
247.5
 21
97.5
 31
0.0
  0
ARC
  8
0
 62
   249
 10
240.065849
 20
103.75
 30
0.0
 40
1.251733
 50
266.984476
 51
93.015524
  0
LINE
  8
0
 62
   249
 10
240.0
 20
105.0
 30
0.0
 11
238.480133
 21
105.0
 31
0.0
  0
LINE
  8
0
 62
   249
 10
240.0
 20
102.5
 30
0.0
 11
238.480133
 21
102.5
 31
0.0
  0
ARC
  8
0
 62
   249
 10
240.065849
 20
101.25
 30
0.0
 40
1.251733
 50
266.984476
 51
93.015524
  0
LINE
  8
0
 62
   249
 10
240.0
 20
100.0
 30
0.0
 11
238.480133
 21
100.0
 31
0.0
  0
LINE
  8
0
  6
CONTINUOUS
 62
   249
 10
250.0
 20
92.5
 30
0.0
 11
255.0
 21
92.5
 31
0.0
  0
LINE
  8
0
  6
CONTINUOUS
 62
   249
 10
250.0
 20
97.5
 30
0.0
 11
255.0
 21
97.5
 31
0.0
  0
LINE
  8
0
  6
CONTINUOUS
 62
   249
 10
250.0
 20
107.5
 30
0.0
 11
255.0
 21
107.5
 31
0.0
  0
LINE
  8
0
  6
DASHED
 62
   249
 10
255.0
 20
122.5
 30
0.0
 11
317.5
 21
122.5
 31
0.0
  0
LINE
  8
0
  6
DASHED
 62
   249
 10
255.0
 20
97.5
 30
0.0
 11
275.0
 21
97.5
 31
0.0
  0
LINE
  8
0
  6
DASHED
 62
   249
 10
275.0
 20
137.5
 30
0.0
 11
275.0
 21
97.5
 31
0.0
  0
LINE
  8
0
  6
CONTINUOUS
 62
   249
 10
80.0
 20
192.5
 30
0.0
 11
80.0
 21
235.0
 31
0.0
  0
LINE
  8
0
  6
CONTINUOUS
 62
   249
 10
80.0
 20
235.0
 30
0.0
 11
215.0
 21
235.0
 31
0.0
  0
LINE
  8
0
  6
CONTINUOUS
 62
   249
 10
82.5
 20
230.0
 30
0.0
 11
212.5
 21
230.0
 31
0.0
  0
LINE
  8
0
  6
CONTINUOUS
 62
   249
 10
82.5
 20
189.080442
 30
0.0
 11
82.5
 21
230.0
 31
0.0
  0
LINE
  8
0
  6
CONTINUOUS
 62
   249
 10
82.5
 20
192.5
 30
0.0
 11
82.5
 21
177.5
 31
0.0
  0
LINE
  8
0
  6
CONTINUOUS
 62
   249
 10
212.5
 20
186.832508
 30
0.0
 11
212.5
 21
230.0
 31
0.0
  0
LINE
  8
0
  6
CONTINUOUS
 62
   249
 10
202.950615
 20
208.748935
 30
0.0
 11
212.5
 21
208.748935
 31
0.0
  0
LINE
  8
0
  6
CONTINUOUS
 62
   249
 10
202.950615
 20
190.309991
 30
0.0
 11
215.0
 21
190.309991
 31
0.0
  0
LINE
  8
0
  6
CONTINUOUS
 62
   249
 10
222.845429
 20
182.872268
 30
0.0
 11
222.845429
 21
204.725146
 31
0.0
  0
LINE
  8
0
  6
CONTINUOUS
 62
   249
 10
202.950615
 20
186.832508
 30
0.0
 11
212.5
 21
186.832508
 31
0.0
  0
LINE
  8
0
  6
CONTINUOUS
 62
   249
 10
235.0
 20
100.551193
 30
0.0
 11
236.0
 21
99.551193
 31
0.0
  0
LINE
  8
0
  6
CONTINUOUS
 62
   249
 10
235.0
 20
135.055891
 30
0.0
 11
236.0
 21
136.055891
 31
0.0
  0
LINE
  8
0
  6
CONTINUOUS
 62
   249
 10
234.874048
 20
117.800518
 30
0.0
 11
226.879701
 21
117.800518
 31
0.0
  0
LINE
  8
0
  6
CONTINUOUS
 62
   249
 10
202.950615
 20
178.663282
 30
0.0
 11
226.879701
 21
178.663282
 31
0.0
  0
LINE
  8
0
  6
CONTINUOUS
 62
   249
 10
226.879701
 20
117.800518
 30
0.0
 11
226.879701
 21
201.128012
 31
0.0
  0
LINE
  8
0
  6
DASHED
 62
   249
 10
37.5
 20
77.5
 30
0.0
 11
32.5
 21
77.5
 31
0.0
  0
TEXT
  8
0
  6
CENTER
 62
   249
 10
336.802395
 20
68.899471
 30
0.0
 40
2.0
  1
L2
  7
ROMANS
  0
TEXT
  8
0
  6
CENTER
 62
   249
 10
349.072209
 20
68.899471
 30
0.0
 40
2.0
  1
4-6
  7
ROMANS
  0
TEXT
  8
0
  6
CENTER
 62
   249
 10
365.604478
 20
68.746954
 30
0.0
 40
2.0
  1
4-5
  7
ROMANS
  0
TEXT
  8
0
  6
CONTINUOUS
 62
   249
 10
339.319361
 20
43.012954
 30
0.0
 40
1.5
  1
31
  7
ROMANS
  0
TEXT
  8
0
  6
HIDDEN
 62
   249
 10
336.969714
 20
43.196418
 30
0.0
 40
2.5
  1
U
  7
ROMANS
  0
TEXT
  8
0
  6
CENTER
 62
   249
 10
355.717794
 20
43.010501
 30
0.0
 40
2.0
  1
19-20
  7
ROMANS
  0
LINE
  8
0
  6
CONTINUOUS
 62
   249
 10
331.802395
 20
40.45583
 30
0.0
 11
377.906139
 21
40.45583
 31
0.0
  0
LINE
  8
0
  6
DASHED
 62
   249
 10
267.5
 20
112.5
 30
0.0
 11
267.5
 21
107.5
 31
0.0
  0
LINE
  8
0
  6
CONTINUOUS
 62
   249
 10
202.950615
 20
148.065376
 30
0.0
 11
217.973119
 21
148.065376
 31
0.0
  0
LINE
  8
0
  6
DASHED
 62
   249
 10
267.5
 20
127.5
 30
0.0
 11
267.5
 21
122.5
 31
0.0
  0
LINE
  8
0
  6
CONTINUOUS
 62
   249
 10
360.628051
 20
78.712769
 30
0.0
 11
360.628051
 21
61.84553
 31
0.0
  0
TEXT
  8
0
  6
CONTINUOUS
 62
   249
 10
193.515646
 20
202.258337
 30
0.0
 40
2.0
  1
L1,L3
  7
GREEKS
  0
TEXT
  8
0
  6
CONTINUOUS
 62
   249
 10
193.515646
 20
181.831835
 30
0.0
 40
2.0
  1
L1,L2
  7
GREEKS
  0
ARC
  8
0
  6
CONTINUOUS
 62
   249
 10
92.5
 20
190.0
 30
0.0
 40
0.5
 50
180.0
 51
0.0
  0
ARC
  8
0
  6
CONTINUOUS
 62
   249
 10
92.5
 20
190.0
 30
0.0
 40
0.5
 50
0.0
 51
180.0
  0
ARC
  8
0
  6
CONTINUOUS
 62
   249
 10
100.0
 20
187.5
 30
0.0
 40
0.5
 50
180.0
 51
0.0
  0
ARC
  8
0
  6
CONTINUOUS
 62
   249
 10
100.0
 20
187.5
 30
0.0
 40
0.5
 50
0.0
 51
180.0
  0
ARC
  8
0
  6
CONTINUOUS
 62
   249
 10
115.0
 20
185.0
 30
0.0
 40
0.5
 50
180.0
 51
0.0
  0
ARC
  8
0
  6
CONTINUOUS
 62
   249
 10
115.0
 20
185.0
 30
0.0
 40
0.5
 50
0.0
 51
180.0
  0
ARC
  8
0
  6
CONTINUOUS
 62
   249
 10
122.5
 20
182.5
 30
0.0
 40
0.5
 50
180.0
 51
0.0
  0
ARC
  8
0
  6
CONTINUOUS
 62
   249
 10
122.5
 20
182.5
 30
0.0
 40
0.5
 50
0.0
 51
180.0
  0
ARC
  8
0
  6
CONTINUOUS
 62
   249
 10
130.0
 20
180.0
 30
0.0
 40
0.5
 50
180.0
 51
0.0
  0
ARC
  8
0
  6
CONTINUOUS
 62
   249
 10
130.0
 20
180.0
 30
0.0
 40
0.5
 50
0.0
 51
180.0
  0
LINE
  8
0
  6
CONTINUOUS
 62
   249
 10
166.44017
 20
141.164649
 30
0.0
 11
164.094404
 21
142.500003
 31
0.0
  0
LINE
  8
0
  6
CONTINUOUS
 62
   249
 10
164.094404
 20
142.500003
 30
0.0
 11
166.44017
 21
143.689922
 31
0.0
  0
LINE
  8
0
  6
CONTINUOUS
 62
   249
 10
163.510069
 20
182.756574
 30
0.0
 11
161.274289
 21
182.362346
 31
0.0
  0
LINE
  8
0
  6
CONTINUOUS
 62
   249
 10
163.510069
 20
182.719722
 30
0.0
 11
161.36068
 21
182.340727
 31
0.0
  0
LINE
  8
0
  6
CONTINUOUS
 62
   249
 10
163.510069
 20
182.68287
 30
0.0
 11
161.447071
 21
182.319107
 31
0.0
  0
LINE
  8
0
  6
CONTINUOUS
 62
   249
 10
163.510069
 20
182.646017
 30
0.0
 11
161.533461
 21
182.297488
 31
0.0
  0
LINE
  8
0
  6
CONTINUOUS
 62
   249
 10
163.510069
 20
182.609165
 30
0.0
 11
161.619852
 21
182.275869
 31
0.0
  0
LINE
  8
0
  6
CONTINUOUS
 62
   249
 10
163.510069
 20
182.572312
 30
0.0
 11
161.706243
 21
182.254249
 31
0.0
  0
LINE
  8
0
  6
CONTINUOUS
 62
   249
 10
163.510069
 20
182.53546
 30
0.0
 11
161.792634
 21
182.23263
 31
0.0
  0
LINE
  8
0
  6
CONTINUOUS
 62
   249
 10
163.510069
 20
182.498608
 30
0.0
 11
161.879025
 21
182.211011
 31
0.0
  0
LINE
  8
0
  6
CONTINUOUS
 62
   249
 10
163.510069
 20
182.461755
 30
0.0
 11
161.965416
 21
182.189391
 31
0.0
  0
LINE
  8
0
  6
CONTINUOUS
 62
   249
 10
163.510069
 20
182.424903
 30
0.0
 11
162.051806
 21
182.167772
 31
0.0
  0
LINE
  8
0
  6
CONTINUOUS
 62
   249
 10
163.510069
 20
182.388051
 30
0.0
 11
162.138197
 21
182.146153
 31
0.0
  0
LINE
  8
0
  6
CONTINUOUS
 62
   249
 10
163.510069
 20
182.351198
 30
0.0
 11
162.224588
 21
182.124533
 31
0.0
  0
LINE
  8
0
  6
CONTINUOUS
 62
   249
 10
163.510069
 20
182.314346
 30
0.0
 11
162.310979
 21
182.102914
 31
0.0
  0
LINE
  8
0
  6
CONTINUOUS
 62
   249
 10
163.510069
 20
182.277493
 30
0.0
 11
162.39737
 21
182.081295
 31
0.0
  0
LINE
  8
0
  6
CONTINUOUS
 62
   249
 10
163.510069
 20
182.240641
 30
0.0
 11
162.483761
 21
182.059675
 31
0.0
  0
LINE
  8
0
  6
CONTINUOUS
 62
   249
 10
163.510069
 20
182.203789
 30
0.0
 11
162.570151
 21
182.038056
 31
0.0
  0
LINE
  8
0
  6
CONTINUOUS
 62
   249
 10
163.510069
 20
182.166936
 30
0.0
 11
162.656542
 21
182.016436
 31
0.0
  0
LINE
  8
0
  6
CONTINUOUS
 62
   249
 10
163.510069
 20
182.130084
 30
0.0
 11
162.742933
 21
181.994817
 31
0.0
  0
LINE
  8
0
  6
CONTINUOUS
 62
   249
 10
163.510069
 20
182.093231
 30
0.0
 11
162.829324
 21
181.973198
 31
0.0
  0
LINE
  8
0
  6
CONTINUOUS
 62
   249
 10
163.510069
 20
182.056379
 30
0.0
 11
162.915715
 21
181.951578
 31
0.0
  0
LINE
  8
0
  6
CONTINUOUS
 62
   249
 10
163.510069
 20
182.019527
 30
0.0
 11
163.002106
 21
181.929959
 31
0.0
  0
LINE
  8
0
  6
CONTINUOUS
 62
   249
 10
163.510069
 20
181.982674
 30
0.0
 11
163.088496
 21
181.90834
 31
0.0
  0
LINE
  8
0
  6
CONTINUOUS
 62
   249
 10
163.510069
 20
181.945822
 30
0.0
 11
163.174887
 21
181.88672
 31
0.0
  0
LINE
  8
0
  6
CONTINUOUS
 62
   249
 10
163.510069
 20
181.908969
 30
0.0
 11
163.261278
 21
181.865101
 31
0.0
  0
LINE
  8
0
  6
CONTINUOUS
 62
   249
 10
163.510069
 20
181.872117
 30
0.0
 11
163.347669
 21
181.843482
 31
0.0
  0
LINE
  8
0
  6
CONTINUOUS
 62
   249
 10
163.510069
 20
181.835265
 30
0.0
 11
163.43406
 21
181.821862
 31
0.0
  0
LINE
  8
0
  6
CONTINUOUS
 62
   249
 10
163.510069
 20
182.793427
 30
0.0
 11
161.187898
 21
182.383965
 31
0.0
  0
LINE
  8
0
  6
CONTINUOUS
 62
   249
 10
163.510069
 20
182.830279
 30
0.0
 11
161.101507
 21
182.405585
 31
0.0
  0
LINE
  8
0
  6
CONTINUOUS
 62
   249
 10
163.510069
 20
182.867132
 30
0.0
 11
161.015116
 21
182.427204
 31
0.0
  0
LINE
  8
0
  6
CONTINUOUS
 62
   249
 10
163.510069
 20
182.903984
 30
0.0
 11
160.928726
 21
182.448823
 31
0.0
  0
LINE
  8
0
  6
CONTINUOUS
 62
   249
 10
163.510069
 20
182.940836
 30
0.0
 11
160.842335
 21
182.470443
 31
0.0
  0
LINE
  8
0
  6
CONTINUOUS
 62
   249
 10
163.510069
 20
182.977689
 30
0.0
 11
160.800961
 21
182.5
 31
0.0
  0
LINE
  8
0
  6
CONTINUOUS
 62
   249
 10
163.510069
 20
183.014541
 30
0.0
 11
161.299482
 21
182.624755
 31
0.0
  0
LINE
  8
0
  6
CONTINUOUS
 62
   249
 10
163.510069
 20
183.051393
 30
0.0
 11
161.798002
 21
182.74951
 31
0.0
  0
LINE
  8
0
  6
CONTINUOUS
 62
   249
 10
163.510069
 20
183.088246
 30
0.0
 11
162.296522
 21
182.874265
 31
0.0
  0
LINE
  8
0
  6
CONTINUOUS
 62
   249
 10
163.510069
 20
183.125098
 30
0.0
 11
162.795042
 21
182.99902
 31
0.0
  0
LINE
  8
0
  6
CONTINUOUS
 62
   249
 10
163.510069
 20
183.161951
 30
0.0
 11
163.293563
 21
183.123775
 31
0.0
  0
LINE
  8
0
  6
CONTINUOUS
 62
   249
 10
163.510069
 20
180.256574
 30
0.0
 11
161.274289
 21
179.862346
 31
0.0
  0
LINE
  8
0
  6
CONTINUOUS
 62
   249
 10
163.510069
 20
180.219722
 30
0.0
 11
161.36068
 21
179.840727
 31
0.0
  0
LINE
  8
0
  6
CONTINUOUS
 62
   249
 10
163.510069
 20
180.18287
 30
0.0
 11
161.447071
 21
179.819107
 31
0.0
  0
LINE
  8
0
  6
CONTINUOUS
 62
   249
 10
163.510069
 20
180.146017
 30
0.0
 11
161.533461
 21
179.797488
 31
0.0
  0
LINE
  8
0
  6
CONTINUOUS
 62
   249
 10
163.510069
 20
180.109165
 30
0.0
 11
161.619852
 21
179.775869
 31
0.0
  0
LINE
  8
0
  6
CONTINUOUS
 62
   249
 10
163.510069
 20
180.072312
 30
0.0
 11
161.706243
 21
179.754249
 31
0.0
  0
LINE
  8
0
  6
CONTINUOUS
 62
   249
 10
163.510069
 20
180.03546
 30
0.0
 11
161.792634
 21
179.73263
 31
0.0
  0
LINE
  8
0
  6
CONTINUOUS
 62
   249
 10
163.510069
 20
179.998608
 30
0.0
 11
161.879025
 21
179.711011
 31
0.0
  0
LINE
  8
0
  6
CONTINUOUS
 62
   249
 10
163.510069
 20
179.961755
 30
0.0
 11
161.965416
 21
179.689391
 31
0.0
  0
LINE
  8
0
  6
CONTINUOUS
 62
   249
 10
163.510069
 20
179.924903
 30
0.0
 11
162.051806
 21
179.667772
 31
0.0
  0
LINE
  8
0
  6
CONTINUOUS
 62
   249
 10
163.510069
 20
179.888051
 30
0.0
 11
162.138197
 21
179.646153
 31
0.0
  0
LINE
  8
0
  6
CONTINUOUS
 62
   249
 10
163.510069
 20
179.851198
 30
0.0
 11
162.224588
 21
179.624533
 31
0.0
  0
LINE
  8
0
  6
CONTINUOUS
 62
   249
 10
163.510069
 20
179.814346
 30
0.0
 11
162.310979
 21
179.602914
 31
0.0
  0
LINE
  8
0
  6
CONTINUOUS
 62
   249
 10
163.510069
 20
179.777493
 30
0.0
 11
162.39737
 21
179.581295
 31
0.0
  0
LINE
  8
0
  6
CONTINUOUS
 62
   249
 10
163.510069
 20
179.740641
 30
0.0
 11
162.483761
 21
179.559675
 31
0.0
  0
LINE
  8
0
  6
CONTINUOUS
 62
   249
 10
163.510069
 20
179.703789
 30
0.0
 11
162.570151
 21
179.538056
 31
0.0
  0
LINE
  8
0
  6
CONTINUOUS
 62
   249
 10
163.510069
 20
179.666936
 30
0.0
 11
162.656542
 21
179.516436
 31
0.0
  0
LINE
  8
0
  6
CONTINUOUS
 62
   249
 10
163.510069
 20
179.630084
 30
0.0
 11
162.742933
 21
179.494817
 31
0.0
  0
LINE
  8
0
  6
CONTINUOUS
 62
   249
 10
163.510069
 20
179.593231
 30
0.0
 11
162.829324
 21
179.473198
 31
0.0
  0
LINE
  8
0
  6
CONTINUOUS
 62
   249
 10
163.510069
 20
179.556379
 30
0.0
 11
162.915715
 21
179.451578
 31
0.0
  0
LINE
  8
0
  6
CONTINUOUS
 62
   249
 10
163.510069
 20
179.519527
 30
0.0
 11
163.002106
 21
179.429959
 31
0.0
  0
LINE
  8
0
  6
CONTINUOUS
 62
   249
 10
163.510069
 20
179.482674
 30
0.0
 11
163.088496
 21
179.40834
 31
0.0
  0
LINE
  8
0
  6
CONTINUOUS
 62
   249
 10
163.510069
 20
179.445822
 30
0.0
 11
163.174887
 21
179.38672
 31
0.0
  0
LINE
  8
0
  6
CONTINUOUS
 62
   249
 10
163.510069
 20
179.408969
 30
0.0
 11
163.261278
 21
179.365101
 31
0.0
  0
LINE
  8
0
  6
CONTINUOUS
 62
   249
 10
163.510069
 20
179.372117
 30
0.0
 11
163.347669
 21
179.343482
 31
0.0
  0
LINE
  8
0
  6
CONTINUOUS
 62
   249
 10
163.510069
 20
179.335265
 30
0.0
 11
163.43406
 21
179.321862
 31
0.0
  0
LINE
  8
0
  6
CONTINUOUS
 62
   249
 10
163.510069
 20
180.293427
 30
0.0
 11
161.187898
 21
179.883965
 31
0.0
  0
LINE
  8
0
  6
CONTINUOUS
 62
   249
 10
163.510069
 20
180.330279
 30
0.0
 11
161.101507
 21
179.905585
 31
0.0
  0
LINE
  8
0
  6
CONTINUOUS
 62
   249
 10
163.510069
 20
180.367132
 30
0.0
 11
161.015116
 21
179.927204
 31
0.0
  0
LINE
  8
0
  6
CONTINUOUS
 62
   249
 10
163.510069
 20
180.403984
 30
0.0
 11
160.928726
 21
179.948823
 31
0.0
  0
LINE
  8
0
  6
CONTINUOUS
 62
   249
 10
163.510069
 20
180.440836
 30
0.0
 11
160.842335
 21
179.970443
 31
0.0
  0
LINE
  8
0
  6
CONTINUOUS
 62
   249
 10
163.510069
 20
180.477689
 30
0.0
 11
160.800961
 21
180.0
 31
0.0
  0
LINE
  8
0
  6
CONTINUOUS
 62
   249
 10
163.510069
 20
180.514541
 30
0.0
 11
161.299482
 21
180.124755
 31
0.0
  0
LINE
  8
0
  6
CONTINUOUS
 62
   249
 10
163.510069
 20
180.551393
 30
0.0
 11
161.798002
 21
180.24951
 31
0.0
  0
LINE
  8
0
  6
CONTINUOUS
 62
   249
 10
163.510069
 20
180.588246
 30
0.0
 11
162.296522
 21
180.374265
 31
0.0
  0
LINE
  8
0
  6
CONTINUOUS
 62
   249
 10
163.510069
 20
180.625098
 30
0.0
 11
162.795042
 21
180.49902
 31
0.0
  0
LINE
  8
0
  6
CONTINUOUS
 62
   249
 10
163.510069
 20
180.661951
 30
0.0
 11
163.293563
 21
180.623775
 31
0.0
  0
LINE
  8
0
  6
CONTINUOUS
 62
   249
 10
163.510069
 20
187.756574
 30
0.0
 11
161.274289
 21
187.362346
 31
0.0
  0
LINE
  8
0
  6
CONTINUOUS
 62
   249
 10
163.510069
 20
187.719722
 30
0.0
 11
161.36068
 21
187.340727
 31
0.0
  0
LINE
  8
0
  6
CONTINUOUS
 62
   249
 10
163.510069
 20
187.68287
 30
0.0
 11
161.447071
 21
187.319107
 31
0.0
  0
LINE
  8
0
  6
CONTINUOUS
 62
   249
 10
163.510069
 20
187.646017
 30
0.0
 11
161.533461
 21
187.297488
 31
0.0
  0
LINE
  8
0
  6
CONTINUOUS
 62
   249
 10
163.510069
 20
187.609165
 30
0.0
 11
161.619852
 21
187.275869
 31
0.0
  0
LINE
  8
0
  6
CONTINUOUS
 62
   249
 10
163.510069
 20
187.572312
 30
0.0
 11
161.706243
 21
187.254249
 31
0.0
  0
LINE
  8
0
  6
CONTINUOUS
 62
   249
 10
163.510069
 20
187.53546
 30
0.0
 11
161.792634
 21
187.23263
 31
0.0
  0
LINE
  8
0
  6
CONTINUOUS
 62
   249
 10
163.510069
 20
187.498608
 30
0.0
 11
161.879025
 21
187.211011
 31
0.0
  0
LINE
  8
0
  6
CONTINUOUS
 62
   249
 10
163.510069
 20
187.461755
 30
0.0
 11
161.965416
 21
187.189391
 31
0.0
  0
LINE
  8
0
  6
CONTINUOUS
 62
   249
 10
163.510069
 20
187.424903
 30
0.0
 11
162.051806
 21
187.167772
 31
0.0
  0
LINE
  8
0
  6
CONTINUOUS
 62
   249
 10
163.510069
 20
187.388051
 30
0.0
 11
162.138197
 21
187.146153
 31
0.0
  0
LINE
  8
0
  6
CONTINUOUS
 62
   249
 10
163.510069
 20
187.351198
 30
0.0
 11
162.224588
 21
187.124533
 31
0.0
  0
LINE
  8
0
  6
CONTINUOUS
 62
   249
 10
163.510069
 20
187.314346
 30
0.0
 11
162.310979
 21
187.102914
 31
0.0
  0
LINE
  8
0
  6
CONTINUOUS
 62
   249
 10
163.510069
 20
187.277493
 30
0.0
 11
162.39737
 21
187.081295
 31
0.0
  0
LINE
  8
0
  6
CONTINUOUS
 62
   249
 10
163.510069
 20
187.240641
 30
0.0
 11
162.483761
 21
187.059675
 31
0.0
  0
LINE
  8
0
  6
CONTINUOUS
 62
   249
 10
163.510069
 20
187.203789
 30
0.0
 11
162.570151
 21
187.038056
 31
0.0
  0
LINE
  8
0
  6
CONTINUOUS
 62
   249
 10
163.510069
 20
187.166936
 30
0.0
 11
162.656542
 21
187.016436
 31
0.0
  0
LINE
  8
0
  6
CONTINUOUS
 62
   249
 10
163.510069
 20
187.130084
 30
0.0
 11
162.742933
 21
186.994817
 31
0.0
  0
LINE
  8
0
  6
CONTINUOUS
 62
   249
 10
163.510069
 20
187.093231
 30
0.0
 11
162.829324
 21
186.973198
 31
0.0
  0
LINE
  8
0
  6
CONTINUOUS
 62
   249
 10
163.510069
 20
187.056379
 30
0.0
 11
162.915715
 21
186.951578
 31
0.0
  0
LINE
  8
0
  6
CONTINUOUS
 62
   249
 10
163.510069
 20
187.019527
 30
0.0
 11
163.002106
 21
186.929959
 31
0.0
  0
LINE
  8
0
  6
CONTINUOUS
 62
   249
 10
163.510069
 20
186.982674
 30
0.0
 11
163.088496
 21
186.90834
 31
0.0
  0
LINE
  8
0
  6
CONTINUOUS
 62
   249
 10
163.510069
 20
186.945822
 30
0.0
 11
163.174887
 21
186.88672
 31
0.0
  0
LINE
  8
0
  6
CONTINUOUS
 62
   249
 10
163.510069
 20
186.908969
 30
0.0
 11
163.261278
 21
186.865101
 31
0.0
  0
LINE
  8
0
  6
CONTINUOUS
 62
   249
 10
163.510069
 20
186.872117
 30
0.0
 11
163.347669
 21
186.843482
 31
0.0
  0
LINE
  8
0
  6
CONTINUOUS
 62
   249
 10
163.510069
 20
186.835265
 30
0.0
 11
163.43406
 21
186.821862
 31
0.0
  0
LINE
  8
0
  6
CONTINUOUS
 62
   249
 10
163.510069
 20
187.793427
 30
0.0
 11
161.187898
 21
187.383965
 31
0.0
  0
LINE
  8
0
  6
CONTINUOUS
 62
   249
 10
163.510069
 20
187.830279
 30
0.0
 11
161.101507
 21
187.405585
 31
0.0
  0
LINE
  8
0
  6
CONTINUOUS
 62
   249
 10
163.510069
 20
187.867132
 30
0.0
 11
161.015116
 21
187.427204
 31
0.0
  0
LINE
  8
0
  6
CONTINUOUS
 62
   249
 10
163.510069
 20
187.903984
 30
0.0
 11
160.928726
 21
187.448823
 31
0.0
  0
LINE
  8
0
  6
CONTINUOUS
 62
   249
 10
163.510069
 20
187.940836
 30
0.0
 11
160.842335
 21
187.470443
 31
0.0
  0
LINE
  8
0
  6
CONTINUOUS
 62
   249
 10
163.510069
 20
187.977689
 30
0.0
 11
160.800961
 21
187.5
 31
0.0
  0
LINE
  8
0
  6
CONTINUOUS
 62
   249
 10
163.510069
 20
188.014541
 30
0.0
 11
161.299482
 21
187.624755
 31
0.0
  0
LINE
  8
0
  6
CONTINUOUS
 62
   249
 10
163.510069
 20
188.051393
 30
0.0
 11
161.798002
 21
187.74951
 31
0.0
  0
LINE
  8
0
  6
CONTINUOUS
 62
   249
 10
163.510069
 20
188.088246
 30
0.0
 11
162.296522
 21
187.874265
 31
0.0
  0
LINE
  8
0
  6
CONTINUOUS
 62
   249
 10
163.510069
 20
188.125098
 30
0.0
 11
162.795042
 21
187.99902
 31
0.0
  0
LINE
  8
0
  6
CONTINUOUS
 62
   249
 10
163.510069
 20
188.161951
 30
0.0
 11
163.293563
 21
188.123775
 31
0.0
  0
LINE
  8
0
  6
CONTINUOUS
 62
   249
 10
163.510069
 20
185.256574
 30
0.0
 11
161.274289
 21
184.862346
 31
0.0
  0
LINE
  8
0
  6
CONTINUOUS
 62
   249
 10
163.510069
 20
185.219722
 30
0.0
 11
161.36068
 21
184.840727
 31
0.0
  0
LINE
  8
0
  6
CONTINUOUS
 62
   249
 10
163.510069
 20
185.18287
 30
0.0
 11
161.447071
 21
184.819107
 31
0.0
  0
LINE
  8
0
  6
CONTINUOUS
 62
   249
 10
163.510069
 20
185.146017
 30
0.0
 11
161.533461
 21
184.797488
 31
0.0
  0
LINE
  8
0
  6
CONTINUOUS
 62
   249
 10
163.510069
 20
185.109165
 30
0.0
 11
161.619852
 21
184.775869
 31
0.0
  0
LINE
  8
0
  6
CONTINUOUS
 62
   249
 10
163.510069
 20
185.072312
 30
0.0
 11
161.706243
 21
184.754249
 31
0.0
  0
LINE
  8
0
  6
CONTINUOUS
 62
   249
 10
163.510069
 20
185.03546
 30
0.0
 11
161.792634
 21
184.73263
 31
0.0
  0
LINE
  8
0
  6
CONTINUOUS
 62
   249
 10
163.510069
 20
184.998608
 30
0.0
 11
161.879025
 21
184.711011
 31
0.0
  0
LINE
  8
0
  6
CONTINUOUS
 62
   249
 10
163.510069
 20
184.961755
 30
0.0
 11
161.965416
 21
184.689391
 31
0.0
  0
LINE
  8
0
  6
CONTINUOUS
 62
   249
 10
163.510069
 20
184.924903
 30
0.0
 11
162.051806
 21
184.667772
 31
0.0
  0
LINE
  8
0
  6
CONTINUOUS
 62
   249
 10
163.510069
 20
184.888051
 30
0.0
 11
162.138197
 21
184.646153
 31
0.0
  0
LINE
  8
0
  6
CONTINUOUS
 62
   249
 10
163.510069
 20
184.851198
 30
0.0
 11
162.224588
 21
184.624533
 31
0.0
  0
LINE
  8
0
  6
CONTINUOUS
 62
   249
 10
163.510069
 20
184.814346
 30
0.0
 11
162.310979
 21
184.602914
 31
0.0
  0
LINE
  8
0
  6
CONTINUOUS
 62
   249
 10
163.510069
 20
184.777493
 30
0.0
 11
162.39737
 21
184.581295
 31
0.0
  0
LINE
  8
0
  6
CONTINUOUS
 62
   249
 10
163.510069
 20
184.740641
 30
0.0
 11
162.483761
 21
184.559675
 31
0.0
  0
LINE
  8
0
  6
CONTINUOUS
 62
   249
 10
163.510069
 20
184.703789
 30
0.0
 11
162.570151
 21
184.538056
 31
0.0
  0
LINE
  8
0
  6
CONTINUOUS
 62
   249
 10
163.510069
 20
184.666936
 30
0.0
 11
162.656542
 21
184.516436
 31
0.0
  0
LINE
  8
0
  6
CONTINUOUS
 62
   249
 10
163.510069
 20
184.630084
 30
0.0
 11
162.742933
 21
184.494817
 31
0.0
  0
LINE
  8
0
  6
CONTINUOUS
 62
   249
 10
163.510069
 20
184.593231
 30
0.0
 11
162.829324
 21
184.473198
 31
0.0
  0
LINE
  8
0
  6
CONTINUOUS
 62
   249
 10
163.510069
 20
184.556379
 30
0.0
 11
162.915715
 21
184.451578
 31
0.0
  0
LINE
  8
0
  6
CONTINUOUS
 62
   249
 10
163.510069
 20
184.519527
 30
0.0
 11
163.002106
 21
184.429959
 31
0.0
  0
LINE
  8
0
  6
CONTINUOUS
 62
   249
 10
163.510069
 20
184.482674
 30
0.0
 11
163.088496
 21
184.40834
 31
0.0
  0
LINE
  8
0
  6
CONTINUOUS
 62
   249
 10
163.510069
 20
184.445822
 30
0.0
 11
163.174887
 21
184.38672
 31
0.0
  0
LINE
  8
0
  6
CONTINUOUS
 62
   249
 10
163.510069
 20
184.408969
 30
0.0
 11
163.261278
 21
184.365101
 31
0.0
  0
LINE
  8
0
  6
CONTINUOUS
 62
   249
 10
163.510069
 20
184.372117
 30
0.0
 11
163.347669
 21
184.343482
 31
0.0
  0
LINE
  8
0
  6
CONTINUOUS
 62
   249
 10
163.510069
 20
184.335265
 30
0.0
 11
163.43406
 21
184.321862
 31
0.0
  0
LINE
  8
0
  6
CONTINUOUS
 62
   249
 10
163.510069
 20
185.293427
 30
0.0
 11
161.187898
 21
184.883965
 31
0.0
  0
LINE
  8
0
  6
CONTINUOUS
 62
   249
 10
163.510069
 20
185.330279
 30
0.0
 11
161.101507
 21
184.905585
 31
0.0
  0
LINE
  8
0
  6
CONTINUOUS
 62
   249
 10
163.510069
 20
185.367132
 30
0.0
 11
161.015116
 21
184.927204
 31
0.0
  0
LINE
  8
0
  6
CONTINUOUS
 62
   249
 10
163.510069
 20
185.403984
 30
0.0
 11
160.928726
 21
184.948823
 31
0.0
  0
LINE
  8
0
  6
CONTINUOUS
 62
   249
 10
163.510069
 20
185.440836
 30
0.0
 11
160.842335
 21
184.970443
 31
0.0
  0
LINE
  8
0
  6
CONTINUOUS
 62
   249
 10
163.510069
 20
185.477689
 30
0.0
 11
160.800961
 21
185.0
 31
0.0
  0
LINE
  8
0
  6
CONTINUOUS
 62
   249
 10
163.510069
 20
185.514541
 30
0.0
 11
161.299482
 21
185.124755
 31
0.0
  0
LINE
  8
0
  6
CONTINUOUS
 62
   249
 10
163.510069
 20
185.551393
 30
0.0
 11
161.798002
 21
185.24951
 31
0.0
  0
LINE
  8
0
  6
CONTINUOUS
 62
   249
 10
163.510069
 20
185.588246
 30
0.0
 11
162.296522
 21
185.374265
 31
0.0
  0
LINE
  8
0
  6
CONTINUOUS
 62
   249
 10
163.510069
 20
185.625098
 30
0.0
 11
162.795042
 21
185.49902
 31
0.0
  0
LINE
  8
0
  6
CONTINUOUS
 62
   249
 10
163.510069
 20
185.661951
 30
0.0
 11
163.293563
 21
185.623775
 31
0.0
  0
LINE
  8
0
  6
CONTINUOUS
 62
   249
 10
163.510069
 20
190.256574
 30
0.0
 11
161.274289
 21
189.862346
 31
0.0
  0
LINE
  8
0
  6
CONTINUOUS
 62
   249
 10
163.510069
 20
190.219722
 30
0.0
 11
161.36068
 21
189.840727
 31
0.0
  0
LINE
  8
0
  6
CONTINUOUS
 62
   249
 10
163.510069
 20
190.18287
 30
0.0
 11
161.447071
 21
189.819107
 31
0.0
  0
LINE
  8
0
  6
CONTINUOUS
 62
   249
 10
163.510069
 20
190.146017
 30
0.0
 11
161.533461
 21
189.797488
 31
0.0
  0
LINE
  8
0
  6
CONTINUOUS
 62
   249
 10
163.510069
 20
190.109165
 30
0.0
 11
161.619852
 21
189.775869
 31
0.0
  0
LINE
  8
0
  6
CONTINUOUS
 62
   249
 10
163.510069
 20
190.072312
 30
0.0
 11
161.706243
 21
189.754249
 31
0.0
  0
LINE
  8
0
  6
CONTINUOUS
 62
   249
 10
163.510069
 20
190.03546
 30
0.0
 11
161.792634
 21
189.73263
 31
0.0
  0
LINE
  8
0
  6
CONTINUOUS
 62
   249
 10
163.510069
 20
189.998608
 30
0.0
 11
161.879025
 21
189.711011
 31
0.0
  0
LINE
  8
0
  6
CONTINUOUS
 62
   249
 10
163.510069
 20
189.961755
 30
0.0
 11
161.965416
 21
189.689391
 31
0.0
  0
LINE
  8
0
  6
CONTINUOUS
 62
   249
 10
163.510069
 20
189.924903
 30
0.0
 11
162.051806
 21
189.667772
 31
0.0
  0
LINE
  8
0
  6
CONTINUOUS
 62
   249
 10
163.510069
 20
189.888051
 30
0.0
 11
162.138197
 21
189.646153
 31
0.0
  0
LINE
  8
0
  6
CONTINUOUS
 62
   249
 10
163.510069
 20
189.851198
 30
0.0
 11
162.224588
 21
189.624533
 31
0.0
  0
LINE
  8
0
  6
CONTINUOUS
 62
   249
 10
163.510069
 20
189.814346
 30
0.0
 11
162.310979
 21
189.602914
 31
0.0
  0
LINE
  8
0
  6
CONTINUOUS
 62
   249
 10
163.510069
 20
189.777493
 30
0.0
 11
162.39737
 21
189.581295
 31
0.0
  0
LINE
  8
0
  6
CONTINUOUS
 62
   249
 10
163.510069
 20
189.740641
 30
0.0
 11
162.483761
 21
189.559675
 31
0.0
  0
LINE
  8
0
  6
CONTINUOUS
 62
   249
 10
163.510069
 20
189.703789
 30
0.0
 11
162.570151
 21
189.538056
 31
0.0
  0
LINE
  8
0
  6
CONTINUOUS
 62
   249
 10
163.510069
 20
189.666936
 30
0.0
 11
162.656542
 21
189.516436
 31
0.0
  0
LINE
  8
0
  6
CONTINUOUS
 62
   249
 10
163.510069
 20
189.630084
 30
0.0
 11
162.742933
 21
189.494817
 31
0.0
  0
LINE
  8
0
  6
CONTINUOUS
 62
   249
 10
163.510069
 20
189.593231
 30
0.0
 11
162.829324
 21
189.473198
 31
0.0
  0
LINE
  8
0
  6
CONTINUOUS
 62
   249
 10
163.510069
 20
189.556379
 30
0.0
 11
162.915715
 21
189.451578
 31
0.0
  0
LINE
  8
0
  6
CONTINUOUS
 62
   249
 10
163.510069
 20
189.519527
 30
0.0
 11
163.002106
 21
189.429959
 31
0.0
  0
LINE
  8
0
  6
CONTINUOUS
 62
   249
 10
163.510069
 20
189.482674
 30
0.0
 11
163.088496
 21
189.40834
 31
0.0
  0
LINE
  8
0
  6
CONTINUOUS
 62
   249
 10
163.510069
 20
189.445822
 30
0.0
 11
163.174887
 21
189.38672
 31
0.0
  0
LINE
  8
0
  6
CONTINUOUS
 62
   249
 10
163.510069
 20
189.408969
 30
0.0
 11
163.261278
 21
189.365101
 31
0.0
  0
LINE
  8
0
  6
CONTINUOUS
 62
   249
 10
163.510069
 20
189.372117
 30
0.0
 11
163.347669
 21
189.343482
 31
0.0
  0
LINE
  8
0
  6
CONTINUOUS
 62
   249
 10
163.510069
 20
189.335265
 30
0.0
 11
163.43406
 21
189.321862
 31
0.0
  0
LINE
  8
0
  6
CONTINUOUS
 62
   249
 10
163.510069
 20
190.293427
 30
0.0
 11
161.187898
 21
189.883965
 31
0.0
  0
LINE
  8
0
  6
CONTINUOUS
 62
   249
 10
163.510069
 20
190.330279
 30
0.0
 11
161.101507
 21
189.905585
 31
0.0
  0
LINE
  8
0
  6
CONTINUOUS
 62
   249
 10
163.510069
 20
190.367132
 30
0.0
 11
161.015116
 21
189.927204
 31
0.0
  0
LINE
  8
0
  6
CONTINUOUS
 62
   249
 10
163.510069
 20
190.403984
 30
0.0
 11
160.928726
 21
189.948823
 31
0.0
  0
LINE
  8
0
  6
CONTINUOUS
 62
   249
 10
163.510069
 20
190.440836
 30
0.0
 11
160.842335
 21
189.970443
 31
0.0
  0
LINE
  8
0
  6
CONTINUOUS
 62
   249
 10
163.510069
 20
190.477689
 30
0.0
 11
160.800961
 21
190.0
 31
0.0
  0
LINE
  8
0
  6
CONTINUOUS
 62
   249
 10
163.510069
 20
190.514541
 30
0.0
 11
161.299482
 21
190.124755
 31
0.0
  0
LINE
  8
0
  6
CONTINUOUS
 62
   249
 10
163.510069
 20
190.551393
 30
0.0
 11
161.798002
 21
190.24951
 31
0.0
  0
LINE
  8
0
  6
CONTINUOUS
 62
   249
 10
163.510069
 20
190.588246
 30
0.0
 11
162.296522
 21
190.374265
 31
0.0
  0
LINE
  8
0
  6
CONTINUOUS
 62
   249
 10
163.510069
 20
190.625098
 30
0.0
 11
162.795042
 21
190.49902
 31
0.0
  0
LINE
  8
0
  6
CONTINUOUS
 62
   249
 10
163.510069
 20
190.661951
 30
0.0
 11
163.293563
 21
190.623775
 31
0.0
  0
LINE
  8
0
  6
CONTINUOUS
 62
   249
 10
163.510069
 20
205.256574
 30
0.0
 11
161.274289
 21
204.862346
 31
0.0
  0
LINE
  8
0
  6
CONTINUOUS
 62
   249
 10
163.510069
 20
205.219722
 30
0.0
 11
161.36068
 21
204.840727
 31
0.0
  0
LINE
  8
0
  6
CONTINUOUS
 62
   249
 10
163.510069
 20
205.18287
 30
0.0
 11
161.447071
 21
204.819107
 31
0.0
  0
LINE
  8
0
  6
CONTINUOUS
 62
   249
 10
163.510069
 20
205.146017
 30
0.0
 11
161.533461
 21
204.797488
 31
0.0
  0
LINE
  8
0
  6
CONTINUOUS
 62
   249
 10
163.510069
 20
205.109165
 30
0.0
 11
161.619852
 21
204.775869
 31
0.0
  0
LINE
  8
0
  6
CONTINUOUS
 62
   249
 10
163.510069
 20
205.072312
 30
0.0
 11
161.706243
 21
204.754249
 31
0.0
  0
LINE
  8
0
  6
CONTINUOUS
 62
   249
 10
163.510069
 20
205.03546
 30
0.0
 11
161.792634
 21
204.73263
 31
0.0
  0
LINE
  8
0
  6
CONTINUOUS
 62
   249
 10
163.510069
 20
204.998608
 30
0.0
 11
161.879025
 21
204.711011
 31
0.0
  0
LINE
  8
0
  6
CONTINUOUS
 62
   249
 10
163.510069
 20
204.961755
 30
0.0
 11
161.965416
 21
204.689391
 31
0.0
  0
LINE
  8
0
  6
CONTINUOUS
 62
   249
 10
163.510069
 20
204.924903
 30
0.0
 11
162.051806
 21
204.667772
 31
0.0
  0
LINE
  8
0
  6
CONTINUOUS
 62
   249
 10
163.510069
 20
204.888051
 30
0.0
 11
162.138197
 21
204.646153
 31
0.0
  0
LINE
  8
0
  6
CONTINUOUS
 62
   249
 10
163.510069
 20
204.851198
 30
0.0
 11
162.224588
 21
204.624533
 31
0.0
  0
LINE
  8
0
  6
CONTINUOUS
 62
   249
 10
163.510069
 20
204.814346
 30
0.0
 11
162.310979
 21
204.602914
 31
0.0
  0
LINE
  8
0
  6
CONTINUOUS
 62
   249
 10
163.510069
 20
204.777493
 30
0.0
 11
162.39737
 21
204.581295
 31
0.0
  0
LINE
  8
0
  6
CONTINUOUS
 62
   249
 10
163.510069
 20
204.740641
 30
0.0
 11
162.483761
 21
204.559675
 31
0.0
  0
LINE
  8
0
  6
CONTINUOUS
 62
   249
 10
163.510069
 20
204.703789
 30
0.0
 11
162.570151
 21
204.538056
 31
0.0
  0
LINE
  8
0
  6
CONTINUOUS
 62
   249
 10
163.510069
 20
204.666936
 30
0.0
 11
162.656542
 21
204.516436
 31
0.0
  0
LINE
  8
0
  6
CONTINUOUS
 62
   249
 10
163.510069
 20
204.630084
 30
0.0
 11
162.742933
 21
204.494817
 31
0.0
  0
LINE
  8
0
  6
CONTINUOUS
 62
   249
 10
163.510069
 20
204.593231
 30
0.0
 11
162.829324
 21
204.473198
 31
0.0
  0
LINE
  8
0
  6
CONTINUOUS
 62
   249
 10
163.510069
 20
204.556379
 30
0.0
 11
162.915715
 21
204.451578
 31
0.0
  0
LINE
  8
0
  6
CONTINUOUS
 62
   249
 10
163.510069
 20
204.519527
 30
0.0
 11
163.002106
 21
204.429959
 31
0.0
  0
LINE
  8
0
  6
CONTINUOUS
 62
   249
 10
163.510069
 20
204.482674
 30
0.0
 11
163.088496
 21
204.40834
 31
0.0
  0
LINE
  8
0
  6
CONTINUOUS
 62
   249
 10
163.510069
 20
204.445822
 30
0.0
 11
163.174887
 21
204.38672
 31
0.0
  0
LINE
  8
0
  6
CONTINUOUS
 62
   249
 10
163.510069
 20
204.408969
 30
0.0
 11
163.261278
 21
204.365101
 31
0.0
  0
LINE
  8
0
  6
CONTINUOUS
 62
   249
 10
163.510069
 20
204.372117
 30
0.0
 11
163.347669
 21
204.343482
 31
0.0
  0
LINE
  8
0
  6
CONTINUOUS
 62
   249
 10
163.510069
 20
204.335265
 30
0.0
 11
163.43406
 21
204.321862
 31
0.0
  0
LINE
  8
0
  6
CONTINUOUS
 62
   249
 10
163.510069
 20
205.293427
 30
0.0
 11
161.187898
 21
204.883965
 31
0.0
  0
LINE
  8
0
  6
CONTINUOUS
 62
   249
 10
163.510069
 20
205.330279
 30
0.0
 11
161.101507
 21
204.905585
 31
0.0
  0
LINE
  8
0
  6
CONTINUOUS
 62
   249
 10
163.510069
 20
205.367132
 30
0.0
 11
161.015116
 21
204.927204
 31
0.0
  0
LINE
  8
0
  6
CONTINUOUS
 62
   249
 10
163.510069
 20
205.403984
 30
0.0
 11
160.928726
 21
204.948823
 31
0.0
  0
LINE
  8
0
  6
CONTINUOUS
 62
   249
 10
163.510069
 20
205.440836
 30
0.0
 11
160.842335
 21
204.970443
 31
0.0
  0
LINE
  8
0
  6
CONTINUOUS
 62
   249
 10
163.510069
 20
205.477689
 30
0.0
 11
160.800961
 21
205.0
 31
0.0
  0
LINE
  8
0
  6
CONTINUOUS
 62
   249
 10
163.510069
 20
205.514541
 30
0.0
 11
161.299482
 21
205.124755
 31
0.0
  0
LINE
  8
0
  6
CONTINUOUS
 62
   249
 10
163.510069
 20
205.551393
 30
0.0
 11
161.798002
 21
205.24951
 31
0.0
  0
LINE
  8
0
  6
CONTINUOUS
 62
   249
 10
163.510069
 20
205.588246
 30
0.0
 11
162.296522
 21
205.374265
 31
0.0
  0
LINE
  8
0
  6
CONTINUOUS
 62
   249
 10
163.510069
 20
205.625098
 30
0.0
 11
162.795042
 21
205.49902
 31
0.0
  0
LINE
  8
0
  6
CONTINUOUS
 62
   249
 10
163.510069
 20
205.661951
 30
0.0
 11
163.293563
 21
205.623775
 31
0.0
  0
LINE
  8
0
  6
CONTINUOUS
 62
   249
 10
163.510069
 20
207.756574
 30
0.0
 11
161.274289
 21
207.362346
 31
0.0
  0
LINE
  8
0
  6
CONTINUOUS
 62
   249
 10
163.510069
 20
207.719722
 30
0.0
 11
161.36068
 21
207.340727
 31
0.0
  0
LINE
  8
0
  6
CONTINUOUS
 62
   249
 10
163.510069
 20
207.68287
 30
0.0
 11
161.447071
 21
207.319107
 31
0.0
  0
LINE
  8
0
  6
CONTINUOUS
 62
   249
 10
163.510069
 20
207.646017
 30
0.0
 11
161.533461
 21
207.297488
 31
0.0
  0
LINE
  8
0
  6
CONTINUOUS
 62
   249
 10
163.510069
 20
207.609165
 30
0.0
 11
161.619852
 21
207.275869
 31
0.0
  0
LINE
  8
0
  6
CONTINUOUS
 62
   249
 10
163.510069
 20
207.572312
 30
0.0
 11
161.706243
 21
207.254249
 31
0.0
  0
LINE
  8
0
  6
CONTINUOUS
 62
   249
 10
163.510069
 20
207.53546
 30
0.0
 11
161.792634
 21
207.23263
 31
0.0
  0
LINE
  8
0
  6
CONTINUOUS
 62
   249
 10
163.510069
 20
207.498608
 30
0.0
 11
161.879025
 21
207.211011
 31
0.0
  0
LINE
  8
0
  6
CONTINUOUS
 62
   249
 10
163.510069
 20
207.461755
 30
0.0
 11
161.965416
 21
207.189391
 31
0.0
  0
LINE
  8
0
  6
CONTINUOUS
 62
   249
 10
163.510069
 20
207.424903
 30
0.0
 11
162.051806
 21
207.167772
 31
0.0
  0
LINE
  8
0
  6
CONTINUOUS
 62
   249
 10
163.510069
 20
207.388051
 30
0.0
 11
162.138197
 21
207.146153
 31
0.0
  0
LINE
  8
0
  6
CONTINUOUS
 62
   249
 10
163.510069
 20
207.351198
 30
0.0
 11
162.224588
 21
207.124533
 31
0.0
  0
LINE
  8
0
  6
CONTINUOUS
 62
   249
 10
163.510069
 20
207.314346
 30
0.0
 11
162.310979
 21
207.102914
 31
0.0
  0
LINE
  8
0
  6
CONTINUOUS
 62
   249
 10
163.510069
 20
207.277493
 30
0.0
 11
162.39737
 21
207.081295
 31
0.0
  0
LINE
  8
0
  6
CONTINUOUS
 62
   249
 10
163.510069
 20
207.240641
 30
0.0
 11
162.483761
 21
207.059675
 31
0.0
  0
LINE
  8
0
  6
CONTINUOUS
 62
   249
 10
163.510069
 20
207.203789
 30
0.0
 11
162.570151
 21
207.038056
 31
0.0
  0
LINE
  8
0
  6
CONTINUOUS
 62
   249
 10
163.510069
 20
207.166936
 30
0.0
 11
162.656542
 21
207.016436
 31
0.0
  0
LINE
  8
0
  6
CONTINUOUS
 62
   249
 10
163.510069
 20
207.130084
 30
0.0
 11
162.742933
 21
206.994817
 31
0.0
  0
LINE
  8
0
  6
CONTINUOUS
 62
   249
 10
163.510069
 20
207.093231
 30
0.0
 11
162.829324
 21
206.973198
 31
0.0
  0
LINE
  8
0
  6
CONTINUOUS
 62
   249
 10
163.510069
 20
207.056379
 30
0.0
 11
162.915715
 21
206.951578
 31
0.0
  0
LINE
  8
0
  6
CONTINUOUS
 62
   249
 10
163.510069
 20
207.019527
 30
0.0
 11
163.002106
 21
206.929959
 31
0.0
  0
LINE
  8
0
  6
CONTINUOUS
 62
   249
 10
163.510069
 20
206.982674
 30
0.0
 11
163.088496
 21
206.90834
 31
0.0
  0
LINE
  8
0
  6
CONTINUOUS
 62
   249
 10
163.510069
 20
206.945822
 30
0.0
 11
163.174887
 21
206.88672
 31
0.0
  0
LINE
  8
0
  6
CONTINUOUS
 62
   249
 10
163.510069
 20
206.908969
 30
0.0
 11
163.261278
 21
206.865101
 31
0.0
  0
LINE
  8
0
  6
CONTINUOUS
 62
   249
 10
163.510069
 20
206.872117
 30
0.0
 11
163.347669
 21
206.843482
 31
0.0
  0
LINE
  8
0
  6
CONTINUOUS
 62
   249
 10
163.510069
 20
206.835265
 30
0.0
 11
163.43406
 21
206.821862
 31
0.0
  0
LINE
  8
0
  6
CONTINUOUS
 62
   249
 10
163.510069
 20
207.793427
 30
0.0
 11
161.187898
 21
207.383965
 31
0.0
  0
LINE
  8
0
  6
CONTINUOUS
 62
   249
 10
163.510069
 20
207.830279
 30
0.0
 11
161.101507
 21
207.405585
 31
0.0
  0
LINE
  8
0
  6
CONTINUOUS
 62
   249
 10
163.510069
 20
207.867132
 30
0.0
 11
161.015116
 21
207.427204
 31
0.0
  0
LINE
  8
0
  6
CONTINUOUS
 62
   249
 10
163.510069
 20
207.903984
 30
0.0
 11
160.928726
 21
207.448823
 31
0.0
  0
LINE
  8
0
  6
CONTINUOUS
 62
   249
 10
163.510069
 20
207.940836
 30
0.0
 11
160.842335
 21
207.470443
 31
0.0
  0
LINE
  8
0
  6
CONTINUOUS
 62
   249
 10
163.510069
 20
207.977689
 30
0.0
 11
160.800961
 21
207.5
 31
0.0
  0
LINE
  8
0
  6
CONTINUOUS
 62
   249
 10
163.510069
 20
208.014541
 30
0.0
 11
161.299482
 21
207.624755
 31
0.0
  0
LINE
  8
0
  6
CONTINUOUS
 62
   249
 10
163.510069
 20
208.051393
 30
0.0
 11
161.798002
 21
207.74951
 31
0.0
  0
LINE
  8
0
  6
CONTINUOUS
 62
   249
 10
163.510069
 20
208.088246
 30
0.0
 11
162.296522
 21
207.874265
 31
0.0
  0
LINE
  8
0
  6
CONTINUOUS
 62
   249
 10
163.510069
 20
208.125098
 30
0.0
 11
162.795042
 21
207.99902
 31
0.0
  0
LINE
  8
0
  6
CONTINUOUS
 62
   249
 10
163.510069
 20
208.161951
 30
0.0
 11
163.293563
 21
208.123775
 31
0.0
  0
LINE
  8
0
  6
CONTINUOUS
 62
   249
 10
163.510069
 20
210.256574
 30
0.0
 11
161.274289
 21
209.862346
 31
0.0
  0
LINE
  8
0
  6
CONTINUOUS
 62
   249
 10
163.510069
 20
210.219722
 30
0.0
 11
161.36068
 21
209.840727
 31
0.0
  0
LINE
  8
0
  6
CONTINUOUS
 62
   249
 10
163.510069
 20
210.18287
 30
0.0
 11
161.447071
 21
209.819107
 31
0.0
  0
LINE
  8
0
  6
CONTINUOUS
 62
   249
 10
163.510069
 20
210.146017
 30
0.0
 11
161.533461
 21
209.797488
 31
0.0
  0
LINE
  8
0
  6
CONTINUOUS
 62
   249
 10
163.510069
 20
210.109165
 30
0.0
 11
161.619852
 21
209.775869
 31
0.0
  0
LINE
  8
0
  6
CONTINUOUS
 62
   249
 10
163.510069
 20
210.072312
 30
0.0
 11
161.706243
 21
209.754249
 31
0.0
  0
LINE
  8
0
  6
CONTINUOUS
 62
   249
 10
163.510069
 20
210.03546
 30
0.0
 11
161.792634
 21
209.73263
 31
0.0
  0
LINE
  8
0
  6
CONTINUOUS
 62
   249
 10
163.510069
 20
209.998608
 30
0.0
 11
161.879025
 21
209.711011
 31
0.0
  0
LINE
  8
0
  6
CONTINUOUS
 62
   249
 10
163.510069
 20
209.961755
 30
0.0
 11
161.965416
 21
209.689391
 31
0.0
  0
LINE
  8
0
  6
CONTINUOUS
 62
   249
 10
163.510069
 20
209.924903
 30
0.0
 11
162.051806
 21
209.667772
 31
0.0
  0
LINE
  8
0
  6
CONTINUOUS
 62
   249
 10
163.510069
 20
209.888051
 30
0.0
 11
162.138197
 21
209.646153
 31
0.0
  0
LINE
  8
0
  6
CONTINUOUS
 62
   249
 10
163.510069
 20
209.851198
 30
0.0
 11
162.224588
 21
209.624533
 31
0.0
  0
LINE
  8
0
  6
CONTINUOUS
 62
   249
 10
163.510069
 20
209.814346
 30
0.0
 11
162.310979
 21
209.602914
 31
0.0
  0
LINE
  8
0
  6
CONTINUOUS
 62
   249
 10
163.510069
 20
209.777493
 30
0.0
 11
162.39737
 21
209.581295
 31
0.0
  0
LINE
  8
0
  6
CONTINUOUS
 62
   249
 10
163.510069
 20
209.740641
 30
0.0
 11
162.483761
 21
209.559675
 31
0.0
  0
LINE
  8
0
  6
CONTINUOUS
 62
   249
 10
163.510069
 20
209.703789
 30
0.0
 11
162.570151
 21
209.538056
 31
0.0
  0
LINE
  8
0
  6
CONTINUOUS
 62
   249
 10
163.510069
 20
209.666936
 30
0.0
 11
162.656542
 21
209.516436
 31
0.0
  0
LINE
  8
0
  6
CONTINUOUS
 62
   249
 10
163.510069
 20
209.630084
 30
0.0
 11
162.742933
 21
209.494817
 31
0.0
  0
LINE
  8
0
  6
CONTINUOUS
 62
   249
 10
163.510069
 20
209.593231
 30
0.0
 11
162.829324
 21
209.473198
 31
0.0
  0
LINE
  8
0
  6
CONTINUOUS
 62
   249
 10
163.510069
 20
209.556379
 30
0.0
 11
162.915715
 21
209.451578
 31
0.0
  0
LINE
  8
0
  6
CONTINUOUS
 62
   249
 10
163.510069
 20
209.519527
 30
0.0
 11
163.002106
 21
209.429959
 31
0.0
  0
LINE
  8
0
  6
CONTINUOUS
 62
   249
 10
163.510069
 20
209.482674
 30
0.0
 11
163.088496
 21
209.40834
 31
0.0
  0
LINE
  8
0
  6
CONTINUOUS
 62
   249
 10
163.510069
 20
209.445822
 30
0.0
 11
163.174887
 21
209.38672
 31
0.0
  0
LINE
  8
0
  6
CONTINUOUS
 62
   249
 10
163.510069
 20
209.408969
 30
0.0
 11
163.261278
 21
209.365101
 31
0.0
  0
LINE
  8
0
  6
CONTINUOUS
 62
   249
 10
163.510069
 20
209.372117
 30
0.0
 11
163.347669
 21
209.343482
 31
0.0
  0
LINE
  8
0
  6
CONTINUOUS
 62
   249
 10
163.510069
 20
209.335265
 30
0.0
 11
163.43406
 21
209.321862
 31
0.0
  0
LINE
  8
0
  6
CONTINUOUS
 62
   249
 10
163.510069
 20
210.293427
 30
0.0
 11
161.187898
 21
209.883965
 31
0.0
  0
LINE
  8
0
  6
CONTINUOUS
 62
   249
 10
163.510069
 20
210.330279
 30
0.0
 11
161.101507
 21
209.905585
 31
0.0
  0
LINE
  8
0
  6
CONTINUOUS
 62
   249
 10
163.510069
 20
210.367132
 30
0.0
 11
161.015116
 21
209.927204
 31
0.0
  0
LINE
  8
0
  6
CONTINUOUS
 62
   249
 10
163.510069
 20
210.403984
 30
0.0
 11
160.928726
 21
209.948823
 31
0.0
  0
LINE
  8
0
  6
CONTINUOUS
 62
   249
 10
163.510069
 20
210.440836
 30
0.0
 11
160.842335
 21
209.970443
 31
0.0
  0
LINE
  8
0
  6
CONTINUOUS
 62
   249
 10
163.510069
 20
210.477689
 30
0.0
 11
160.800961
 21
210.0
 31
0.0
  0
LINE
  8
0
  6
CONTINUOUS
 62
   249
 10
163.510069
 20
210.514541
 30
0.0
 11
161.299482
 21
210.124755
 31
0.0
  0
LINE
  8
0
  6
CONTINUOUS
 62
   249
 10
163.510069
 20
210.551393
 30
0.0
 11
161.798002
 21
210.24951
 31
0.0
  0
LINE
  8
0
  6
CONTINUOUS
 62
   249
 10
163.510069
 20
210.588246
 30
0.0
 11
162.296522
 21
210.374265
 31
0.0
  0
LINE
  8
0
  6
CONTINUOUS
 62
   249
 10
163.510069
 20
210.625098
 30
0.0
 11
162.795042
 21
210.49902
 31
0.0
  0
LINE
  8
0
  6
CONTINUOUS
 62
   249
 10
163.510069
 20
210.661951
 30
0.0
 11
163.293563
 21
210.623775
 31
0.0
  0
LINE
  8
0
  6
CONTINUOUS
 62
   249
 10
163.510069
 20
212.756574
 30
0.0
 11
161.274289
 21
212.362346
 31
0.0
  0
LINE
  8
0
  6
CONTINUOUS
 62
   249
 10
163.510069
 20
212.719722
 30
0.0
 11
161.36068
 21
212.340727
 31
0.0
  0
LINE
  8
0
  6
CONTINUOUS
 62
   249
 10
163.510069
 20
212.68287
 30
0.0
 11
161.447071
 21
212.319107
 31
0.0
  0
LINE
  8
0
  6
CONTINUOUS
 62
   249
 10
163.510069
 20
212.646017
 30
0.0
 11
161.533461
 21
212.297488
 31
0.0
  0
LINE
  8
0
  6
CONTINUOUS
 62
   249
 10
163.510069
 20
212.609165
 30
0.0
 11
161.619852
 21
212.275869
 31
0.0
  0
LINE
  8
0
  6
CONTINUOUS
 62
   249
 10
163.510069
 20
212.572312
 30
0.0
 11
161.706243
 21
212.254249
 31
0.0
  0
LINE
  8
0
  6
CONTINUOUS
 62
   249
 10
163.510069
 20
212.53546
 30
0.0
 11
161.792634
 21
212.23263
 31
0.0
  0
LINE
  8
0
  6
CONTINUOUS
 62
   249
 10
163.510069
 20
212.498608
 30
0.0
 11
161.879025
 21
212.211011
 31
0.0
  0
LINE
  8
0
  6
CONTINUOUS
 62
   249
 10
163.510069
 20
212.461755
 30
0.0
 11
161.965416
 21
212.189391
 31
0.0
  0
LINE
  8
0
  6
CONTINUOUS
 62
   249
 10
163.510069
 20
212.424903
 30
0.0
 11
162.051806
 21
212.167772
 31
0.0
  0
LINE
  8
0
  6
CONTINUOUS
 62
   249
 10
163.510069
 20
212.388051
 30
0.0
 11
162.138197
 21
212.146153
 31
0.0
  0
LINE
  8
0
  6
CONTINUOUS
 62
   249
 10
163.510069
 20
212.351198
 30
0.0
 11
162.224588
 21
212.124533
 31
0.0
  0
LINE
  8
0
  6
CONTINUOUS
 62
   249
 10
163.510069
 20
212.314346
 30
0.0
 11
162.310979
 21
212.102914
 31
0.0
  0
LINE
  8
0
  6
CONTINUOUS
 62
   249
 10
163.510069
 20
212.277493
 30
0.0
 11
162.39737
 21
212.081295
 31
0.0
  0
LINE
  8
0
  6
CONTINUOUS
 62
   249
 10
163.510069
 20
212.240641
 30
0.0
 11
162.483761
 21
212.059675
 31
0.0
  0
LINE
  8
0
  6
CONTINUOUS
 62
   249
 10
163.510069
 20
212.203789
 30
0.0
 11
162.570151
 21
212.038056
 31
0.0
  0
LINE
  8
0
  6
CONTINUOUS
 62
   249
 10
163.510069
 20
212.166936
 30
0.0
 11
162.656542
 21
212.016436
 31
0.0
  0
LINE
  8
0
  6
CONTINUOUS
 62
   249
 10
163.510069
 20
212.130084
 30
0.0
 11
162.742933
 21
211.994817
 31
0.0
  0
LINE
  8
0
  6
CONTINUOUS
 62
   249
 10
163.510069
 20
212.093231
 30
0.0
 11
162.829324
 21
211.973198
 31
0.0
  0
LINE
  8
0
  6
CONTINUOUS
 62
   249
 10
163.510069
 20
212.056379
 30
0.0
 11
162.915715
 21
211.951578
 31
0.0
  0
LINE
  8
0
  6
CONTINUOUS
 62
   249
 10
163.510069
 20
212.019527
 30
0.0
 11
163.002106
 21
211.929959
 31
0.0
  0
LINE
  8
0
  6
CONTINUOUS
 62
   249
 10
163.510069
 20
211.982674
 30
0.0
 11
163.088496
 21
211.90834
 31
0.0
  0
LINE
  8
0
  6
CONTINUOUS
 62
   249
 10
163.510069
 20
211.945822
 30
0.0
 11
163.174887
 21
211.88672
 31
0.0
  0
LINE
  8
0
  6
CONTINUOUS
 62
   249
 10
163.510069
 20
211.908969
 30
0.0
 11
163.261278
 21
211.865101
 31
0.0
  0
LINE
  8
0
  6
CONTINUOUS
 62
   249
 10
163.510069
 20
211.872117
 30
0.0
 11
163.347669
 21
211.843482
 31
0.0
  0
LINE
  8
0
  6
CONTINUOUS
 62
   249
 10
163.510069
 20
211.835265
 30
0.0
 11
163.43406
 21
211.821862
 31
0.0
  0
LINE
  8
0
  6
CONTINUOUS
 62
   249
 10
163.510069
 20
212.793427
 30
0.0
 11
161.187898
 21
212.383965
 31
0.0
  0
LINE
  8
0
  6
CONTINUOUS
 62
   249
 10
163.510069
 20
212.830279
 30
0.0
 11
161.101507
 21
212.405585
 31
0.0
  0
LINE
  8
0
  6
CONTINUOUS
 62
   249
 10
163.510069
 20
212.867132
 30
0.0
 11
161.015116
 21
212.427204
 31
0.0
  0
LINE
  8
0
  6
CONTINUOUS
 62
   249
 10
163.510069
 20
212.903984
 30
0.0
 11
160.928726
 21
212.448823
 31
0.0
  0
LINE
  8
0
  6
CONTINUOUS
 62
   249
 10
163.510069
 20
212.940836
 30
0.0
 11
160.842335
 21
212.470443
 31
0.0
  0
LINE
  8
0
  6
CONTINUOUS
 62
   249
 10
163.510069
 20
212.977689
 30
0.0
 11
160.800961
 21
212.5
 31
0.0
  0
LINE
  8
0
  6
CONTINUOUS
 62
   249
 10
163.510069
 20
213.014541
 30
0.0
 11
161.299482
 21
212.624755
 31
0.0
  0
LINE
  8
0
  6
CONTINUOUS
 62
   249
 10
163.510069
 20
213.051393
 30
0.0
 11
161.798002
 21
212.74951
 31
0.0
  0
LINE
  8
0
  6
CONTINUOUS
 62
   249
 10
163.510069
 20
213.088246
 30
0.0
 11
162.296522
 21
212.874265
 31
0.0
  0
LINE
  8
0
  6
CONTINUOUS
 62
   249
 10
163.510069
 20
213.125098
 30
0.0
 11
162.795042
 21
212.99902
 31
0.0
  0
LINE
  8
0
  6
CONTINUOUS
 62
   249
 10
163.510069
 20
213.161951
 30
0.0
 11
163.293563
 21
213.123775
 31
0.0
  0
LINE
  8
0
  6
CONTINUOUS
 62
   249
 10
183.953992
 20
182.96589
 30
0.0
 11
185.802125
 21
183.291765
 31
0.0
  0
LINE
  8
0
  6
CONTINUOUS
 62
   249
 10
183.953992
 20
182.996352
 30
0.0
 11
185.730712
 21
183.309636
 31
0.0
  0
LINE
  8
0
  6
CONTINUOUS
 62
   249
 10
183.953992
 20
183.026815
 30
0.0
 11
185.6593
 21
183.327507
 31
0.0
  0
LINE
  8
0
  6
CONTINUOUS
 62
   249
 10
183.953992
 20
183.057278
 30
0.0
 11
185.587888
 21
183.345378
 31
0.0
  0
LINE
  8
0
  6
CONTINUOUS
 62
   249
 10
183.953992
 20
183.087741
 30
0.0
 11
185.516476
 21
183.363249
 31
0.0
  0
LINE
  8
0
  6
CONTINUOUS
 62
   249
 10
183.953992
 20
183.118204
 30
0.0
 11
185.445064
 21
183.38112
 31
0.0
  0
LINE
  8
0
  6
CONTINUOUS
 62
   249
 10
183.953992
 20
183.148666
 30
0.0
 11
185.373652
 21
183.398991
 31
0.0
  0
LINE
  8
0
  6
CONTINUOUS
 62
   249
 10
183.953992
 20
183.179129
 30
0.0
 11
185.30224
 21
183.416862
 31
0.0
  0
LINE
  8
0
  6
CONTINUOUS
 62
   249
 10
183.953992
 20
183.209592
 30
0.0
 11
185.230828
 21
183.434733
 31
0.0
  0
LINE
  8
0
  6
CONTINUOUS
 62
   249
 10
183.953992
 20
183.240055
 30
0.0
 11
185.159416
 21
183.452604
 31
0.0
  0
LINE
  8
0
  6
CONTINUOUS
 62
   249
 10
183.953992
 20
183.270518
 30
0.0
 11
185.088003
 21
183.470475
 31
0.0
  0
LINE
  8
0
  6
CONTINUOUS
 62
   249
 10
183.953992
 20
183.30098
 30
0.0
 11
185.016591
 21
183.488345
 31
0.0
  0
LINE
  8
0
  6
CONTINUOUS
 62
   249
 10
183.953992
 20
183.331443
 30
0.0
 11
184.945179
 21
183.506216
 31
0.0
  0
LINE
  8
0
  6
CONTINUOUS
 62
   249
 10
183.953992
 20
183.361906
 30
0.0
 11
184.873767
 21
183.524087
 31
0.0
  0
LINE
  8
0
  6
CONTINUOUS
 62
   249
 10
183.953992
 20
183.392369
 30
0.0
 11
184.802355
 21
183.541958
 31
0.0
  0
LINE
  8
0
  6
CONTINUOUS
 62
   249
 10
183.953992
 20
183.422832
 30
0.0
 11
184.730943
 21
183.559829
 31
0.0
  0
LINE
  8
0
  6
CONTINUOUS
 62
   249
 10
183.953992
 20
183.453294
 30
0.0
 11
184.659531
 21
183.5777
 31
0.0
  0
LINE
  8
0
  6
CONTINUOUS
 62
   249
 10
183.953992
 20
183.483757
 30
0.0
 11
184.588119
 21
183.595571
 31
0.0
  0
LINE
  8
0
  6
CONTINUOUS
 62
   249
 10
183.953992
 20
183.51422
 30
0.0
 11
184.516707
 21
183.613442
 31
0.0
  0
LINE
  8
0
  6
CONTINUOUS
 62
   249
 10
183.953992
 20
183.544683
 30
0.0
 11
184.445295
 21
183.631313
 31
0.0
  0
LINE
  8
0
  6
CONTINUOUS
 62
   249
 10
183.953992
 20
183.575146
 30
0.0
 11
184.373882
 21
183.649184
 31
0.0
  0
LINE
  8
0
  6
CONTINUOUS
 62
   249
 10
183.953992
 20
183.605608
 30
0.0
 11
184.30247
 21
183.667055
 31
0.0
  0
LINE
  8
0
  6
CONTINUOUS
 62
   249
 10
183.953992
 20
183.636071
 30
0.0
 11
184.231058
 21
183.684926
 31
0.0
  0
LINE
  8
0
  6
CONTINUOUS
 62
   249
 10
183.953992
 20
183.666534
 30
0.0
 11
184.159646
 21
183.702796
 31
0.0
  0
LINE
  8
0
  6
CONTINUOUS
 62
   249
 10
183.953992
 20
183.696997
 30
0.0
 11
184.088234
 21
183.720667
 31
0.0
  0
LINE
  8
0
  6
CONTINUOUS
 62
   249
 10
183.953992
 20
183.72746
 30
0.0
 11
184.016822
 21
183.738538
 31
0.0
  0
LINE
  8
0
  6
CONTINUOUS
 62
   249
 10
183.953992
 20
182.935427
 30
0.0
 11
185.873537
 21
183.273894
 31
0.0
  0
LINE
  8
0
  6
CONTINUOUS
 62
   249
 10
183.953992
 20
182.904964
 30
0.0
 11
185.944949
 21
183.256024
 31
0.0
  0
LINE
  8
0
  6
CONTINUOUS
 62
   249
 10
183.953992
 20
182.874501
 30
0.0
 11
186.016361
 21
183.238153
 31
0.0
  0
LINE
  8
0
  6
CONTINUOUS
 62
   249
 10
183.953992
 20
182.844038
 30
0.0
 11
186.087773
 21
183.220282
 31
0.0
  0
LINE
  8
0
  6
CONTINUOUS
 62
   249
 10
183.953992
 20
182.813576
 30
0.0
 11
186.159185
 21
183.202411
 31
0.0
  0
LINE
  8
0
  6
CONTINUOUS
 62
   249
 10
183.953992
 20
182.783113
 30
0.0
 11
186.193385
 21
183.177978
 31
0.0
  0
LINE
  8
0
  6
CONTINUOUS
 62
   249
 10
183.953992
 20
182.75265
 30
0.0
 11
185.7813
 21
183.074854
 31
0.0
  0
LINE
  8
0
  6
CONTINUOUS
 62
   249
 10
183.953992
 20
182.722187
 30
0.0
 11
185.369215
 21
182.971729
 31
0.0
  0
LINE
  8
0
  6
CONTINUOUS
 62
   249
 10
183.953992
 20
182.691724
 30
0.0
 11
184.957129
 21
182.868605
 31
0.0
  0
LINE
  8
0
  6
CONTINUOUS
 62
   249
 10
183.953992
 20
182.661262
 30
0.0
 11
184.545044
 21
182.76548
 31
0.0
  0
LINE
  8
0
  6
CONTINUOUS
 62
   249
 10
183.953992
 20
182.630799
 30
0.0
 11
184.132959
 21
182.662356
 31
0.0
  0
LINE
  8
0
  6
CONTINUOUS
 62
   249
 10
185.036735
 20
189.180611
 30
0.0
 11
187.382501
 21
187.845258
 31
0.0
  0
LINE
  8
0
  6
CONTINUOUS
 62
   249
 10
187.382501
 20
187.845258
 30
0.0
 11
185.036735
 21
186.655338
 31
0.0
  0
LINE
  8
0
  6
CONTINUOUS
 62
   249
 10
185.036735
 20
210.083963
 30
0.0
 11
187.382501
 21
208.748609
 31
0.0
  0
LINE
  8
0
  6
CONTINUOUS
 62
   249
 10
187.382501
 20
208.748609
 30
0.0
 11
185.036735
 21
207.55869
 31
0.0
  0
LINE
  8
0
  6
CONTINUOUS
 62
   249
 10
183.953992
 20
203.869241
 30
0.0
 11
185.802125
 21
204.195117
 31
0.0
  0
LINE
  8
0
  6
CONTINUOUS
 62
   249
 10
183.953992
 20
203.899704
 30
0.0
 11
185.730712
 21
204.212988
 31
0.0
  0
LINE
  8
0
  6
CONTINUOUS
 62
   249
 10
183.953992
 20
203.930167
 30
0.0
 11
185.6593
 21
204.230859
 31
0.0
  0
LINE
  8
0
  6
CONTINUOUS
 62
   249
 10
183.953992
 20
203.96063
 30
0.0
 11
185.587888
 21
204.24873
 31
0.0
  0
LINE
  8
0
  6
CONTINUOUS
 62
   249
 10
183.953992
 20
203.991092
 30
0.0
 11
185.516476
 21
204.266601
 31
0.0
  0
LINE
  8
0
  6
CONTINUOUS
 62
   249
 10
183.953992
 20
204.021555
 30
0.0
 11
185.445064
 21
204.284472
 31
0.0
  0
LINE
  8
0
  6
CONTINUOUS
 62
   249
 10
183.953992
 20
204.052018
 30
0.0
 11
185.373652
 21
204.302342
 31
0.0
  0
LINE
  8
0
  6
CONTINUOUS
 62
   249
 10
183.953992
 20
204.082481
 30
0.0
 11
185.30224
 21
204.320213
 31
0.0
  0
LINE
  8
0
  6
CONTINUOUS
 62
   249
 10
183.953992
 20
204.112944
 30
0.0
 11
185.230828
 21
204.338084
 31
0.0
  0
LINE
  8
0
  6
CONTINUOUS
 62
   249
 10
183.953992
 20
204.143406
 30
0.0
 11
185.159416
 21
204.355955
 31
0.0
  0
LINE
  8
0
  6
CONTINUOUS
 62
   249
 10
183.953992
 20
204.173869
 30
0.0
 11
185.088003
 21
204.373826
 31
0.0
  0
LINE
  8
0
  6
CONTINUOUS
 62
   249
 10
183.953992
 20
204.204332
 30
0.0
 11
185.016591
 21
204.391697
 31
0.0
  0
LINE
  8
0
  6
CONTINUOUS
 62
   249
 10
183.953992
 20
204.234795
 30
0.0
 11
184.945179
 21
204.409568
 31
0.0
  0
LINE
  8
0
  6
CONTINUOUS
 62
   249
 10
183.953992
 20
204.265258
 30
0.0
 11
184.873767
 21
204.427439
 31
0.0
  0
LINE
  8
0
  6
CONTINUOUS
 62
   249
 10
183.953992
 20
204.29572
 30
0.0
 11
184.802355
 21
204.44531
 31
0.0
  0
LINE
  8
0
  6
CONTINUOUS
 62
   249
 10
183.953992
 20
204.326183
 30
0.0
 11
184.730943
 21
204.463181
 31
0.0
  0
LINE
  8
0
  6
CONTINUOUS
 62
   249
 10
183.953992
 20
204.356646
 30
0.0
 11
184.659531
 21
204.481052
 31
0.0
  0
LINE
  8
0
  6
CONTINUOUS
 62
   249
 10
183.953992
 20
204.387109
 30
0.0
 11
184.588119
 21
204.498923
 31
0.0
  0
LINE
  8
0
  6
CONTINUOUS
 62
   249
 10
183.953992
 20
204.417572
 30
0.0
 11
184.516707
 21
204.516793
 31
0.0
  0
LINE
  8
0
  6
CONTINUOUS
 62
   249
 10
183.953992
 20
204.448034
 30
0.0
 11
184.445295
 21
204.534664
 31
0.0
  0
LINE
  8
0
  6
CONTINUOUS
 62
   249
 10
183.953992
 20
204.478497
 30
0.0
 11
184.373882
 21
204.552535
 31
0.0
  0
LINE
  8
0
  6
CONTINUOUS
 62
   249
 10
183.953992
 20
204.50896
 30
0.0
 11
184.30247
 21
204.570406
 31
0.0
  0
LINE
  8
0
  6
CONTINUOUS
 62
   249
 10
183.953992
 20
204.539423
 30
0.0
 11
184.231058
 21
204.588277
 31
0.0
  0
LINE
  8
0
  6
CONTINUOUS
 62
   249
 10
183.953992
 20
204.569886
 30
0.0
 11
184.159646
 21
204.606148
 31
0.0
  0
LINE
  8
0
  6
CONTINUOUS
 62
   249
 10
183.953992
 20
204.600348
 30
0.0
 11
184.088234
 21
204.624019
 31
0.0
  0
LINE
  8
0
  6
CONTINUOUS
 62
   249
 10
183.953992
 20
204.630811
 30
0.0
 11
184.016822
 21
204.64189
 31
0.0
  0
LINE
  8
0
  6
CONTINUOUS
 62
   249
 10
183.953992
 20
203.838778
 30
0.0
 11
185.873537
 21
204.177246
 31
0.0
  0
LINE
  8
0
  6
CONTINUOUS
 62
   249
 10
183.953992
 20
203.808316
 30
0.0
 11
185.944949
 21
204.159375
 31
0.0
  0
LINE
  8
0
  6
CONTINUOUS
 62
   249
 10
183.953992
 20
203.777853
 30
0.0
 11
186.016361
 21
204.141504
 31
0.0
  0
LINE
  8
0
  6
CONTINUOUS
 62
   249
 10
183.953992
 20
203.74739
 30
0.0
 11
186.087773
 21
204.123633
 31
0.0
  0
LINE
  8
0
  6
CONTINUOUS
 62
   249
 10
183.953992
 20
203.716927
 30
0.0
 11
186.159185
 21
204.105762
 31
0.0
  0
LINE
  8
0
  6
CONTINUOUS
 62
   249
 10
183.953992
 20
203.686465
 30
0.0
 11
186.193385
 21
204.08133
 31
0.0
  0
LINE
  8
0
  6
CONTINUOUS
 62
   249
 10
183.953992
 20
203.656002
 30
0.0
 11
185.7813
 21
203.978205
 31
0.0
  0
LINE
  8
0
  6
CONTINUOUS
 62
   249
 10
183.953992
 20
203.625539
 30
0.0
 11
185.369215
 21
203.875081
 31
0.0
  0
LINE
  8
0
  6
CONTINUOUS
 62
   249
 10
183.953992
 20
203.595076
 30
0.0
 11
184.957129
 21
203.771956
 31
0.0
  0
LINE
  8
0
  6
CONTINUOUS
 62
   249
 10
183.953992
 20
203.564613
 30
0.0
 11
184.545044
 21
203.668832
 31
0.0
  0
LINE
  8
0
  6
CONTINUOUS
 62
   249
 10
183.953992
 20
203.534151
 30
0.0
 11
184.132959
 21
203.565707
 31
0.0
  0
LINE
  8
0
  6
CONTINUOUS
 62
   249
 10
163.510069
 20
215.256574
 30
0.0
 11
161.274289
 21
214.862346
 31
0.0
  0
LINE
  8
0
  6
CONTINUOUS
 62
   249
 10
163.510069
 20
215.219722
 30
0.0
 11
161.36068
 21
214.840727
 31
0.0
  0
LINE
  8
0
  6
CONTINUOUS
 62
   249
 10
163.510069
 20
215.18287
 30
0.0
 11
161.447071
 21
214.819107
 31
0.0
  0
LINE
  8
0
  6
CONTINUOUS
 62
   249
 10
163.510069
 20
215.146017
 30
0.0
 11
161.533461
 21
214.797488
 31
0.0
  0
LINE
  8
0
  6
CONTINUOUS
 62
   249
 10
163.510069
 20
215.109165
 30
0.0
 11
161.619852
 21
214.775869
 31
0.0
  0
LINE
  8
0
  6
CONTINUOUS
 62
   249
 10
163.510069
 20
215.072312
 30
0.0
 11
161.706243
 21
214.754249
 31
0.0
  0
LINE
  8
0
  6
CONTINUOUS
 62
   249
 10
163.510069
 20
215.03546
 30
0.0
 11
161.792634
 21
214.73263
 31
0.0
  0
LINE
  8
0
  6
CONTINUOUS
 62
   249
 10
163.510069
 20
214.998608
 30
0.0
 11
161.879025
 21
214.711011
 31
0.0
  0
LINE
  8
0
  6
CONTINUOUS
 62
   249
 10
163.510069
 20
214.961755
 30
0.0
 11
161.965416
 21
214.689391
 31
0.0
  0
LINE
  8
0
  6
CONTINUOUS
 62
   249
 10
163.510069
 20
214.924903
 30
0.0
 11
162.051806
 21
214.667772
 31
0.0
  0
LINE
  8
0
  6
CONTINUOUS
 62
   249
 10
163.510069
 20
214.888051
 30
0.0
 11
162.138197
 21
214.646153
 31
0.0
  0
LINE
  8
0
  6
CONTINUOUS
 62
   249
 10
163.510069
 20
214.851198
 30
0.0
 11
162.224588
 21
214.624533
 31
0.0
  0
LINE
  8
0
  6
CONTINUOUS
 62
   249
 10
163.510069
 20
214.814346
 30
0.0
 11
162.310979
 21
214.602914
 31
0.0
  0
LINE
  8
0
  6
CONTINUOUS
 62
   249
 10
163.510069
 20
214.777493
 30
0.0
 11
162.39737
 21
214.581295
 31
0.0
  0
LINE
  8
0
  6
CONTINUOUS
 62
   249
 10
163.510069
 20
214.740641
 30
0.0
 11
162.483761
 21
214.559675
 31
0.0
  0
LINE
  8
0
  6
CONTINUOUS
 62
   249
 10
163.510069
 20
214.703789
 30
0.0
 11
162.570151
 21
214.538056
 31
0.0
  0
LINE
  8
0
  6
CONTINUOUS
 62
   249
 10
163.510069
 20
214.666936
 30
0.0
 11
162.656542
 21
214.516436
 31
0.0
  0
LINE
  8
0
  6
CONTINUOUS
 62
   249
 10
163.510069
 20
214.630084
 30
0.0
 11
162.742933
 21
214.494817
 31
0.0
  0
LINE
  8
0
  6
CONTINUOUS
 62
   249
 10
163.510069
 20
214.593231
 30
0.0
 11
162.829324
 21
214.473198
 31
0.0
  0
LINE
  8
0
  6
CONTINUOUS
 62
   249
 10
163.510069
 20
214.556379
 30
0.0
 11
162.915715
 21
214.451578
 31
0.0
  0
LINE
  8
0
  6
CONTINUOUS
 62
   249
 10
163.510069
 20
214.519527
 30
0.0
 11
163.002106
 21
214.429959
 31
0.0
  0
LINE
  8
0
  6
CONTINUOUS
 62
   249
 10
163.510069
 20
214.482674
 30
0.0
 11
163.088496
 21
214.40834
 31
0.0
  0
LINE
  8
0
  6
CONTINUOUS
 62
   249
 10
163.510069
 20
214.445822
 30
0.0
 11
163.174887
 21
214.38672
 31
0.0
  0
LINE
  8
0
  6
CONTINUOUS
 62
   249
 10
163.510069
 20
214.408969
 30
0.0
 11
163.261278
 21
214.365101
 31
0.0
  0
LINE
  8
0
  6
CONTINUOUS
 62
   249
 10
163.510069
 20
214.372117
 30
0.0
 11
163.347669
 21
214.343482
 31
0.0
  0
LINE
  8
0
  6
CONTINUOUS
 62
   249
 10
163.510069
 20
214.335265
 30
0.0
 11
163.43406
 21
214.321862
 31
0.0
  0
LINE
  8
0
  6
CONTINUOUS
 62
   249
 10
163.510069
 20
215.293427
 30
0.0
 11
161.187898
 21
214.883965
 31
0.0
  0
LINE
  8
0
  6
CONTINUOUS
 62
   249
 10
163.510069
 20
215.330279
 30
0.0
 11
161.101507
 21
214.905585
 31
0.0
  0
LINE
  8
0
  6
CONTINUOUS
 62
   249
 10
163.510069
 20
215.367132
 30
0.0
 11
161.015116
 21
214.927204
 31
0.0
  0
LINE
  8
0
  6
CONTINUOUS
 62
   249
 10
163.510069
 20
215.403984
 30
0.0
 11
160.928726
 21
214.948823
 31
0.0
  0
LINE
  8
0
  6
CONTINUOUS
 62
   249
 10
163.510069
 20
215.440836
 30
0.0
 11
160.842335
 21
214.970443
 31
0.0
  0
LINE
  8
0
  6
CONTINUOUS
 62
   249
 10
163.510069
 20
215.477689
 30
0.0
 11
160.800961
 21
215.0
 31
0.0
  0
LINE
  8
0
  6
CONTINUOUS
 62
   249
 10
163.510069
 20
215.514541
 30
0.0
 11
161.299482
 21
215.124755
 31
0.0
  0
LINE
  8
0
  6
CONTINUOUS
 62
   249
 10
163.510069
 20
215.551393
 30
0.0
 11
161.798002
 21
215.24951
 31
0.0
  0
LINE
  8
0
  6
CONTINUOUS
 62
   249
 10
163.510069
 20
215.588246
 30
0.0
 11
162.296522
 21
215.374265
 31
0.0
  0
LINE
  8
0
  6
CONTINUOUS
 62
   249
 10
163.510069
 20
215.625098
 30
0.0
 11
162.795042
 21
215.49902
 31
0.0
  0
LINE
  8
0
  6
CONTINUOUS
 62
   249
 10
163.510069
 20
215.661951
 30
0.0
 11
163.293563
 21
215.623775
 31
0.0
  0
LINE
  8
0
 62
   249
 10
211.786248
 20
6.306997
 30
0.0
 11
213.547099
 21
8.067848
 31
0.0
  0
LINE
  8
0
 62
   249
 10
211.852879
 20
6.497372
 30
0.0
 11
213.547099
 21
8.191591
 31
0.0
  0
LINE
  8
0
 62
   249
 10
211.919511
 20
6.687747
 30
0.0
 11
213.547099
 21
8.315335
 31
0.0
  0
LINE
  8
0
 62
   249
 10
211.986142
 20
6.878122
 30
0.0
 11
213.547099
 21
8.439079
 31
0.0
  0
LINE
  8
0
 62
   249
 10
212.052773
 20
7.068497
 30
0.0
 11
213.547099
 21
8.562822
 31
0.0
  0
LINE
  8
0
 62
   249
 10
212.119404
 20
7.258871
 30
0.0
 11
213.547099
 21
8.686566
 31
0.0
  0
LINE
  8
0
 62
   249
 10
212.186036
 20
7.449246
 30
0.0
 11
213.474788
 21
8.737999
 31
0.0
  0
LINE
  8
0
 62
   249
 10
212.252667
 20
7.639621
 30
0.0
 11
213.351045
 21
8.737999
 31
0.0
  0
LINE
  8
0
 62
   249
 10
212.319298
 20
7.829996
 30
0.0
 11
213.227301
 21
8.737999
 31
0.0
  0
LINE
  8
0
 62
   249
 10
212.385929
 20
8.020371
 30
0.0
 11
213.103557
 21
8.737999
 31
0.0
  0
LINE
  8
0
 62
   249
 10
212.45256
 20
8.210746
 30
0.0
 11
212.979814
 21
8.737999
 31
0.0
  0
LINE
  8
0
 62
   249
 10
212.519192
 20
8.401121
 30
0.0
 11
212.85607
 21
8.737999
 31
0.0
  0
LINE
  8
0
 62
   249
 10
212.585823
 20
8.591496
 30
0.0
 11
212.732326
 21
8.737999
 31
0.0
  0
LINE
  8
0
 62
   249
 10
211.719617
 20
6.116622
 30
0.0
 11
213.547099
 21
7.944104
 31
0.0
  0
LINE
  8
0
 62
   249
 10
211.652986
 20
5.926247
 30
0.0
 11
213.547099
 21
7.82036
 31
0.0
  0
LINE
  8
0
 62
   249
 10
211.586355
 20
5.735872
 30
0.0
 11
213.547099
 21
7.696617
 31
0.0
  0
LINE
  8
0
 62
   249
 10
211.519723
 20
5.545497
 30
0.0
 11
213.547099
 21
7.572873
 31
0.0
  0
LINE
  8
0
 62
   249
 10
211.475969
 20
5.377999
 30
0.0
 11
213.547099
 21
7.449129
 31
0.0
  0
LINE
  8
0
 62
   249
 10
211.599713
 20
5.377999
 30
0.0
 11
213.547099
 21
7.325386
 31
0.0
  0
LINE
  8
0
 62
   249
 10
211.723456
 20
5.377999
 30
0.0
 11
213.547099
 21
7.201642
 31
0.0
  0
LINE
  8
0
 62
   249
 10
211.8472
 20
5.377999
 30
0.0
 11
213.547099
 21
7.077898
 31
0.0
  0
LINE
  8
0
 62
   249
 10
211.970944
 20
5.377999
 30
0.0
 11
213.547099
 21
6.954155
 31
0.0
  0
LINE
  8
0
 62
   249
 10
212.094687
 20
5.377999
 30
0.0
 11
213.547099
 21
6.830411
 31
0.0
  0
LINE
  8
0
 62
   249
 10
212.218431
 20
5.377999
 30
0.0
 11
213.547099
 21
6.706667
 31
0.0
  0
LINE
  8
0
 62
   249
 10
212.342175
 20
5.377999
 30
0.0
 11
213.547099
 21
6.582923
 31
0.0
  0
LINE
  8
0
 62
   249
 10
212.465919
 20
5.377999
 30
0.0
 11
213.547099
 21
6.45918
 31
0.0
  0
LINE
  8
0
 62
   249
 10
212.589662
 20
5.377999
 30
0.0
 11
213.547099
 21
6.335436
 31
0.0
  0
LINE
  8
0
 62
   249
 10
212.713406
 20
5.377999
 30
0.0
 11
213.547099
 21
6.211692
 31
0.0
  0
LINE
  8
0
 62
   249
 10
212.83715
 20
5.377999
 30
0.0
 11
213.547099
 21
6.087949
 31
0.0
  0
LINE
  8
0
 62
   249
 10
212.960893
 20
5.377999
 30
0.0
 11
213.547099
 21
5.964205
 31
0.0
  0
LINE
  8
0
 62
   249
 10
213.084637
 20
5.377999
 30
0.0
 11
213.547099
 21
5.840461
 31
0.0
  0
LINE
  8
0
 62
   249
 10
213.208381
 20
5.377999
 30
0.0
 11
213.547099
 21
5.716718
 31
0.0
  0
LINE
  8
0
 62
   249
 10
213.332124
 20
5.377999
 30
0.0
 11
213.547099
 21
5.592974
 31
0.0
  0
LINE
  8
0
 62
   249
 10
213.455868
 20
5.377999
 30
0.0
 11
213.547099
 21
5.46923
 31
0.0
  0
LINE
  8
0
 62
   249
 10
213.827099
 20
5.996718
 30
0.0
 11
215.211876
 21
7.381494
 31
0.0
  0
LINE
  8
0
 62
   249
 10
213.827099
 20
6.120461
 30
0.0
 11
215.179794
 21
7.473156
 31
0.0
  0
LINE
  8
0
 62
   249
 10
213.827099
 20
6.244205
 30
0.0
 11
215.147712
 21
7.564818
 31
0.0
  0
LINE
  8
0
 62
   249
 10
213.827099
 20
6.367949
 30
0.0
 11
215.115631
 21
7.65648
 31
0.0
  0
LINE
  8
0
 62
   249
 10
213.827099
 20
6.491692
 30
0.0
 11
215.083549
 21
7.748142
 31
0.0
  0
LINE
  8
0
 62
   249
 10
213.827099
 20
6.615436
 30
0.0
 11
215.051467
 21
7.839804
 31
0.0
  0
LINE
  8
0
 62
   249
 10
213.827099
 20
6.73918
 30
0.0
 11
215.019386
 21
7.931466
 31
0.0
  0
LINE
  8
0
 62
   249
 10
213.827099
 20
6.862923
 30
0.0
 11
214.987304
 21
8.023128
 31
0.0
  0
LINE
  8
0
 62
   249
 10
213.827099
 20
6.986667
 30
0.0
 11
214.955222
 21
8.11479
 31
0.0
  0
LINE
  8
0
 62
   249
 10
213.827099
 20
7.110411
 30
0.0
 11
214.923141
 21
8.206452
 31
0.0
  0
LINE
  8
0
 62
   249
 10
213.827099
 20
7.234155
 30
0.0
 11
214.891059
 21
8.298114
 31
0.0
  0
LINE
  8
0
 62
   249
 10
213.827099
 20
7.357898
 30
0.0
 11
214.858977
 21
8.389776
 31
0.0
  0
LINE
  8
0
 62
   249
 10
213.827099
 20
7.481642
 30
0.0
 11
214.826895
 21
8.481438
 31
0.0
  0
LINE
  8
0
 62
   249
 10
213.827099
 20
7.605386
 30
0.0
 11
214.794814
 21
8.5731
 31
0.0
  0
LINE
  8
0
 62
   249
 10
213.827099
 20
7.729129
 30
0.0
 11
214.762732
 21
8.664762
 31
0.0
  0
LINE
  8
0
 62
   249
 10
213.827099
 20
7.852873
 30
0.0
 11
214.712225
 21
8.737999
 31
0.0
  0
LINE
  8
0
 62
   249
 10
213.827099
 20
7.976617
 30
0.0
 11
214.588482
 21
8.737999
 31
0.0
  0
LINE
  8
0
 62
   249
 10
213.827099
 20
8.10036
 30
0.0
 11
214.464738
 21
8.737999
 31
0.0
  0
LINE
  8
0
 62
   249
 10
213.827099
 20
8.224104
 30
0.0
 11
214.340994
 21
8.737999
 31
0.0
  0
LINE
  8
0
 62
   249
 10
213.827099
 20
8.347848
 30
0.0
 11
214.217251
 21
8.737999
 31
0.0
  0
LINE
  8
0
 62
   249
 10
213.827099
 20
8.471591
 30
0.0
 11
214.093507
 21
8.737999
 31
0.0
  0
LINE
  8
0
 62
   249
 10
213.827099
 20
8.595335
 30
0.0
 11
213.969763
 21
8.737999
 31
0.0
  0
LINE
  8
0
 62
   249
 10
213.827099
 20
8.719079
 30
0.0
 11
213.84602
 21
8.737999
 31
0.0
  0
LINE
  8
0
 62
   249
 10
213.827099
 20
5.872974
 30
0.0
 11
215.243957
 21
7.289832
 31
0.0
  0
LINE
  8
0
 62
   249
 10
213.827099
 20
5.74923
 30
0.0
 11
215.276039
 21
7.19817
 31
0.0
  0
LINE
  8
0
 62
   249
 10
213.827099
 20
5.625487
 30
0.0
 11
215.308121
 21
7.106508
 31
0.0
  0
LINE
  8
0
 62
   249
 10
213.827099
 20
5.501743
 30
0.0
 11
215.340203
 21
7.014846
 31
0.0
  0
LINE
  8
0
 62
   249
 10
213.827099
 20
5.377999
 30
0.0
 11
215.372284
 21
6.923184
 31
0.0
  0
LINE
  8
0
 62
   249
 10
213.950843
 20
5.377999
 30
0.0
 11
215.404366
 21
6.831522
 31
0.0
  0
LINE
  8
0
 62
   249
 10
214.074586
 20
5.377999
 30
0.0
 11
215.436448
 21
6.73986
 31
0.0
  0
LINE
  8
0
 62
   249
 10
214.19833
 20
5.377999
 30
0.0
 11
215.468529
 21
6.648198
 31
0.0
  0
LINE
  8
0
 62
   249
 10
214.322074
 20
5.377999
 30
0.0
 11
215.500611
 21
6.556536
 31
0.0
  0
LINE
  8
0
 62
   249
 10
214.445818
 20
5.377999
 30
0.0
 11
215.532693
 21
6.464874
 31
0.0
  0
LINE
  8
0
 62
   249
 10
214.569561
 20
5.377999
 30
0.0
 11
215.564774
 21
6.373212
 31
0.0
  0
LINE
  8
0
 62
   249
 10
214.693305
 20
5.377999
 30
0.0
 11
215.596856
 21
6.281551
 31
0.0
  0
LINE
  8
0
 62
   249
 10
214.817049
 20
5.377999
 30
0.0
 11
215.628938
 21
6.189889
 31
0.0
  0
LINE
  8
0
 62
   249
 10
214.940792
 20
5.377999
 30
0.0
 11
215.66102
 21
6.098227
 31
0.0
  0
LINE
  8
0
 62
   249
 10
215.064536
 20
5.377999
 30
0.0
 11
215.693101
 21
6.006565
 31
0.0
  0
LINE
  8
0
 62
   249
 10
215.18828
 20
5.377999
 30
0.0
 11
215.725183
 21
5.914903
 31
0.0
  0
LINE
  8
0
 62
   249
 10
215.312023
 20
5.377999
 30
0.0
 11
215.757265
 21
5.823241
 31
0.0
  0
LINE
  8
0
 62
   249
 10
215.435767
 20
5.377999
 30
0.0
 11
215.789346
 21
5.731579
 31
0.0
  0
LINE
  8
0
 62
   249
 10
215.559511
 20
5.377999
 30
0.0
 11
215.821428
 21
5.639917
 31
0.0
  0
LINE
  8
0
 62
   249
 10
215.683254
 20
5.377999
 30
0.0
 11
215.85351
 21
5.548255
 31
0.0
  0
LINE
  8
0
 62
   249
 10
215.806998
 20
5.377999
 30
0.0
 11
215.885591
 21
5.456593
 31
0.0
  0
LINE
  8
0
 62
   249
 10
217.677099
 20
6.134407
 30
0.0
 11
219.637099
 21
8.094407
 31
0.0
  0
LINE
  8
0
 62
   249
 10
217.677099
 20
6.258151
 30
0.0
 11
219.637099
 21
8.218151
 31
0.0
  0
LINE
  8
0
 62
   249
 10
217.677099
 20
6.381894
 30
0.0
 11
219.637099
 21
8.341894
 31
0.0
  0
LINE
  8
0
 62
   249
 10
217.677099
 20
6.505638
 30
0.0
 11
219.637099
 21
8.465638
 31
0.0
  0
LINE
  8
0
 62
   249
 10
217.677099
 20
6.629382
 30
0.0
 11
219.637099
 21
8.589382
 31
0.0
  0
LINE
  8
0
 62
   249
 10
217.677099
 20
6.753126
 30
0.0
 11
219.637099
 21
8.713126
 31
0.0
  0
LINE
  8
0
 62
   249
 10
217.677099
 20
6.876869
 30
0.0
 11
219.538229
 21
8.737999
 31
0.0
  0
LINE
  8
0
 62
   249
 10
217.677099
 20
7.000613
 30
0.0
 11
219.414485
 21
8.737999
 31
0.0
  0
LINE
  8
0
 62
   249
 10
217.677099
 20
7.124357
 30
0.0
 11
219.290742
 21
8.737999
 31
0.0
  0
LINE
  8
0
 62
   249
 10
217.677099
 20
7.2481
 30
0.0
 11
219.166998
 21
8.737999
 31
0.0
  0
LINE
  8
0
 62
   249
 10
217.677099
 20
7.371844
 30
0.0
 11
219.043254
 21
8.737999
 31
0.0
  0
LINE
  8
0
 62
   249
 10
217.677099
 20
7.495588
 30
0.0
 11
218.919511
 21
8.737999
 31
0.0
  0
LINE
  8
0
 62
   249
 10
217.677099
 20
7.619331
 30
0.0
 11
218.795767
 21
8.737999
 31
0.0
  0
LINE
  8
0
 62
   249
 10
217.677099
 20
7.743075
 30
0.0
 11
218.672023
 21
8.737999
 31
0.0
  0
LINE
  8
0
 62
   249
 10
217.677099
 20
7.866819
 30
0.0
 11
218.54828
 21
8.737999
 31
0.0
  0
LINE
  8
0
 62
   249
 10
217.677099
 20
7.990562
 30
0.0
 11
218.424536
 21
8.737999
 31
0.0
  0
LINE
  8
0
 62
   249
 10
217.677099
 20
8.114306
 30
0.0
 11
218.300792
 21
8.737999
 31
0.0
  0
LINE
  8
0
 62
   249
 10
217.677099
 20
8.23805
 30
0.0
 11
218.177049
 21
8.737999
 31
0.0
  0
LINE
  8
0
 62
   249
 10
217.677099
 20
8.361793
 30
0.0
 11
218.053305
 21
8.737999
 31
0.0
  0
LINE
  8
0
 62
   249
 10
217.677099
 20
8.485537
 30
0.0
 11
217.929561
 21
8.737999
 31
0.0
  0
LINE
  8
0
 62
   249
 10
217.677099
 20
8.609281
 30
0.0
 11
217.805818
 21
8.737999
 31
0.0
  0
LINE
  8
0
 62
   249
 10
217.677099
 20
8.733025
 30
0.0
 11
217.682074
 21
8.737999
 31
0.0
  0
LINE
  8
0
 62
   249
 10
217.677099
 20
6.010663
 30
0.0
 11
219.637099
 21
7.970663
 31
0.0
  0
LINE
  8
0
 62
   249
 10
217.677099
 20
5.88692
 30
0.0
 11
219.637099
 21
7.84692
 31
0.0
  0
LINE
  8
0
 62
   249
 10
217.677099
 20
5.763176
 30
0.0
 11
219.637099
 21
7.723176
 31
0.0
  0
LINE
  8
0
 62
   249
 10
217.677099
 20
5.639432
 30
0.0
 11
219.637099
 21
7.599432
 31
0.0
  0
LINE
  8
0
 62
   249
 10
217.677099
 20
5.515689
 30
0.0
 11
219.637099
 21
7.475689
 31
0.0
  0
LINE
  8
0
 62
   249
 10
217.677099
 20
5.391945
 30
0.0
 11
219.637099
 21
7.351945
 31
0.0
  0
LINE
  8
0
 62
   249
 10
217.786897
 20
5.377999
 30
0.0
 11
219.637099
 21
7.228201
 31
0.0
  0
LINE
  8
0
 62
   249
 10
217.910641
 20
5.377999
 30
0.0
 11
219.637099
 21
7.104458
 31
0.0
  0
LINE
  8
0
 62
   249
 10
218.034384
 20
5.377999
 30
0.0
 11
219.637099
 21
6.980714
 31
0.0
  0
LINE
  8
0
 62
   249
 10
218.158128
 20
5.377999
 30
0.0
 11
219.637099
 21
6.85697
 31
0.0
  0
LINE
  8
0
 62
   249
 10
218.281872
 20
5.377999
 30
0.0
 11
219.637099
 21
6.733227
 31
0.0
  0
LINE
  8
0
 62
   249
 10
218.405615
 20
5.377999
 30
0.0
 11
219.637099
 21
6.609483
 31
0.0
  0
LINE
  8
0
 62
   249
 10
218.529359
 20
5.377999
 30
0.0
 11
219.637099
 21
6.485739
 31
0.0
  0
LINE
  8
0
 62
   249
 10
218.653103
 20
5.377999
 30
0.0
 11
219.637099
 21
6.361995
 31
0.0
  0
LINE
  8
0
 62
   249
 10
218.776847
 20
5.377999
 30
0.0
 11
219.637099
 21
6.238252
 31
0.0
  0
LINE
  8
0
 62
   249
 10
218.90059
 20
5.377999
 30
0.0
 11
219.637099
 21
6.114508
 31
0.0
  0
LINE
  8
0
 62
   249
 10
219.024334
 20
5.377999
 30
0.0
 11
219.637099
 21
5.990764
 31
0.0
  0
LINE
  8
0
 62
   249
 10
219.148078
 20
5.377999
 30
0.0
 11
219.637099
 21
5.867021
 31
0.0
  0
LINE
  8
0
 62
   249
 10
219.271821
 20
5.377999
 30
0.0
 11
219.637099
 21
5.743277
 31
0.0
  0
LINE
  8
0
 62
   249
 10
219.395565
 20
5.377999
 30
0.0
 11
219.637099
 21
5.619533
 31
0.0
  0
LINE
  8
0
 62
   249
 10
219.519309
 20
5.377999
 30
0.0
 11
219.637099
 21
5.49579
 31
0.0
  0
LINE
  8
0
 62
   249
 10
219.917099
 20
6.147021
 30
0.0
 11
221.795195
 21
8.025117
 31
0.0
  0
LINE
  8
0
 62
   249
 10
219.917099
 20
6.270764
 30
0.0
 11
221.744451
 21
8.098116
 31
0.0
  0
LINE
  8
0
 62
   249
 10
219.917099
 20
6.394508
 30
0.0
 11
221.690148
 21
8.167557
 31
0.0
  0
LINE
  8
0
 62
   249
 10
219.917099
 20
6.518252
 30
0.0
 11
221.63236
 21
8.233512
 31
0.0
  0
LINE
  8
0
 62
   249
 10
219.917099
 20
6.641995
 30
0.0
 11
221.571123
 21
8.29602
 31
0.0
  0
LINE
  8
0
 62
   249
 10
219.917099
 20
6.765739
 30
0.0
 11
221.506446
 21
8.355086
 31
0.0
  0
LINE
  8
0
 62
   249
 10
219.917099
 20
6.889483
 30
0.0
 11
221.4383
 21
8.410684
 31
0.0
  0
LINE
  8
0
 62
   249
 10
219.917099
 20
7.013227
 30
0.0
 11
221.366627
 21
8.462755
 31
0.0
  0
LINE
  8
0
 62
   249
 10
219.917099
 20
7.13697
 30
0.0
 11
221.291331
 21
8.511202
 31
0.0
  0
LINE
  8
0
 62
   249
 10
219.917099
 20
7.260714
 30
0.0
 11
221.212274
 21
8.555889
 31
0.0
  0
LINE
  8
0
 62
   249
 10
219.917099
 20
7.384458
 30
0.0
 11
221.129271
 21
8.59663
 31
0.0
  0
LINE
  8
0
 62
   249
 10
219.917099
 20
7.508201
 30
0.0
 11
221.042076
 21
8.633178
 31
0.0
  0
LINE
  8
0
 62
   249
 10
219.917099
 20
7.631945
 30
0.0
 11
220.950366
 21
8.665212
 31
0.0
  0
LINE
  8
0
 62
   249
 10
219.917099
 20
7.755689
 30
0.0
 11
220.853718
 21
8.692307
 31
0.0
  0
LINE
  8
0
 62
   249
 10
219.917099
 20
7.879432
 30
0.0
 11
220.751567
 21
8.7139
 31
0.0
  0
LINE
  8
0
 62
   249
 10
219.917099
 20
8.003176
 30
0.0
 11
220.643145
 21
8.729222
 31
0.0
  0
LINE
  8
0
 62
   249
 10
219.917099
 20
8.12692
 30
0.0
 11
220.527376
 21
8.737197
 31
0.0
  0
LINE
  8
0
 62
   249
 10
219.917099
 20
8.250663
 30
0.0
 11
220.404434
 21
8.737999
 31
0.0
  0
LINE
  8
0
 62
   249
 10
219.917099
 20
8.374407
 30
0.0
 11
220.280691
 21
8.737999
 31
0.0
  0
LINE
  8
0
 62
   249
 10
219.917099
 20
8.498151
 30
0.0
 11
220.156947
 21
8.737999
 31
0.0
  0
LINE
  8
0
 62
   249
 10
219.917099
 20
8.621894
 30
0.0
 11
220.033204
 21
8.737999
 31
0.0
  0
LINE
  8
0
 62
   249
 10
219.917099
 20
6.023277
 30
0.0
 11
221.842271
 21
7.948449
 31
0.0
  0
LINE
  8
0
 62
   249
 10
219.917099
 20
5.899533
 30
0.0
 11
221.885523
 21
7.867958
 31
0.0
  0
LINE
  8
0
 62
   249
 10
219.917099
 20
5.77579
 30
0.0
 11
221.924746
 21
7.783437
 31
0.0
  0
LINE
  8
0
 62
   249
 10
219.917099
 20
5.652046
 30
0.0
 11
221.959668
 21
7.694615
 31
0.0
  0
LINE
  8
0
 62
   249
 10
219.917099
 20
5.528302
 30
0.0
 11
221.989932
 21
7.601135
 31
0.0
  0
LINE
  8
0
 62
   249
 10
219.917099
 20
5.404559
 30
0.0
 11
222.015067
 21
7.502527
 31
0.0
  0
LINE
  8
0
 62
   249
 10
220.014283
 20
5.377999
 30
0.0
 11
222.034444
 21
7.39816
 31
0.0
  0
LINE
  8
0
 62
   249
 10
220.138027
 20
5.377999
 30
0.0
 11
222.047197
 21
7.287169
 31
0.0
  0
LINE
  8
0
 62
   249
 10
220.261771
 20
5.377999
 30
0.0
 11
222.05209
 21
7.168319
 31
0.0
  0
LINE
  8
0
 62
   249
 10
220.385514
 20
5.377999
 30
0.0
 11
222.04727
 21
7.039754
 31
0.0
  0
LINE
  8
0
 62
   249
 10
220.509258
 20
5.377999
 30
0.0
 11
222.029725
 21
6.898466
 31
0.0
  0
LINE
  8
0
 62
   249
 10
220.633002
 20
5.377999
 30
0.0
 11
221.993936
 21
6.738933
 31
0.0
  0
LINE
  8
0
 62
   249
 10
220.756746
 20
5.377999
 30
0.0
 11
221.927299
 21
6.548553
 31
0.0
  0
LINE
  8
0
 62
   249
 10
220.880489
 20
5.377999
 30
0.0
 11
221.280665
 21
5.778175
 31
0.0
  0
LINE
  8
0
 62
   249
 10
221.36381
 20
5.86132
 30
0.0
 11
221.778778
 21
6.276288
 31
0.0
  0
LINE
  8
0
 62
   249
 10
221.004233
 20
5.377999
 30
0.0
 11
221.366562
 21
5.740328
 31
0.0
  0
LINE
  8
0
 62
   249
 10
221.127977
 20
5.377999
 30
0.0
 11
221.449353
 21
5.699376
 31
0.0
  0
LINE
  8
0
 62
   249
 10
221.25172
 20
5.377999
 30
0.0
 11
221.529174
 21
5.655453
 31
0.0
  0
LINE
  8
0
 62
   249
 10
221.375464
 20
5.377999
 30
0.0
 11
221.606135
 21
5.608671
 31
0.0
  0
LINE
  8
0
 62
   249
 10
221.499208
 20
5.377999
 30
0.0
 11
221.680325
 21
5.559117
 31
0.0
  0
LINE
  8
0
 62
   249
 10
221.622951
 20
5.377999
 30
0.0
 11
221.751814
 21
5.506862
 31
0.0
  0
LINE
  8
0
 62
   249
 10
221.746695
 20
5.377999
 30
0.0
 11
221.820653
 21
5.451958
 31
0.0
  0
LINE
  8
0
 62
   249
 10
221.870439
 20
5.377999
 30
0.0
 11
221.886881
 21
5.394442
 31
0.0
  0
LINE
  8
0
 62
   249
 10
225.377099
 20
6.147021
 30
0.0
 11
227.255195
 21
8.025117
 31
0.0
  0
LINE
  8
0
 62
   249
 10
225.377099
 20
6.270764
 30
0.0
 11
227.204451
 21
8.098116
 31
0.0
  0
LINE
  8
0
 62
   249
 10
225.377099
 20
6.394508
 30
0.0
 11
227.150148
 21
8.167557
 31
0.0
  0
LINE
  8
0
 62
   249
 10
225.377099
 20
6.518252
 30
0.0
 11
227.09236
 21
8.233512
 31
0.0
  0
LINE
  8
0
 62
   249
 10
225.377099
 20
6.641995
 30
0.0
 11
227.031123
 21
8.29602
 31
0.0
  0
LINE
  8
0
 62
   249
 10
225.377099
 20
6.765739
 30
0.0
 11
226.966446
 21
8.355086
 31
0.0
  0
LINE
  8
0
 62
   249
 10
225.377099
 20
6.889483
 30
0.0
 11
226.8983
 21
8.410684
 31
0.0
  0
LINE
  8
0
 62
   249
 10
225.377099
 20
7.013227
 30
0.0
 11
226.826627
 21
8.462755
 31
0.0
  0
LINE
  8
0
 62
   249
 10
225.377099
 20
7.13697
 30
0.0
 11
226.751331
 21
8.511202
 31
0.0
  0
LINE
  8
0
 62
   249
 10
225.377099
 20
7.260714
 30
0.0
 11
226.672274
 21
8.555889
 31
0.0
  0
LINE
  8
0
 62
   249
 10
225.377099
 20
7.384458
 30
0.0
 11
226.589271
 21
8.59663
 31
0.0
  0
LINE
  8
0
 62
   249
 10
225.377099
 20
7.508201
 30
0.0
 11
226.502076
 21
8.633178
 31
0.0
  0
LINE
  8
0
 62
   249
 10
225.377099
 20
7.631945
 30
0.0
 11
226.410366
 21
8.665212
 31
0.0
  0
LINE
  8
0
 62
   249
 10
225.377099
 20
7.755689
 30
0.0
 11
226.313718
 21
8.692307
 31
0.0
  0
LINE
  8
0
 62
   249
 10
225.377099
 20
7.879432
 30
0.0
 11
226.211567
 21
8.7139
 31
0.0
  0
LINE
  8
0
 62
   249
 10
225.377099
 20
8.003176
 30
0.0
 11
226.103145
 21
8.729222
 31
0.0
  0
LINE
  8
0
 62
   249
 10
225.377099
 20
8.12692
 30
0.0
 11
225.987376
 21
8.737197
 31
0.0
  0
LINE
  8
0
 62
   249
 10
225.377099
 20
8.250663
 30
0.0
 11
225.864434
 21
8.737999
 31
0.0
  0
LINE
  8
0
 62
   249
 10
225.377099
 20
8.374407
 30
0.0
 11
225.740691
 21
8.737999
 31
0.0
  0
LINE
  8
0
 62
   249
 10
225.377099
 20
8.498151
 30
0.0
 11
225.616947
 21
8.737999
 31
0.0
  0
LINE
  8
0
 62
   249
 10
225.377099
 20
8.621894
 30
0.0
 11
225.493204
 21
8.737999
 31
0.0
  0
LINE
  8
0
 62
   249
 10
225.377099
 20
6.023277
 30
0.0
 11
227.302271
 21
7.948449
 31
0.0
  0
LINE
  8
0
 62
   249
 10
225.377099
 20
5.899533
 30
0.0
 11
227.345523
 21
7.867958
 31
0.0
  0
LINE
  8
0
 62
   249
 10
225.377099
 20
5.77579
 30
0.0
 11
227.384746
 21
7.783437
 31
0.0
  0
LINE
  8
0
 62
   249
 10
225.377099
 20
5.652046
 30
0.0
 11
227.419668
 21
7.694615
 31
0.0
  0
LINE
  8
0
 62
   249
 10
225.377099
 20
5.528302
 30
0.0
 11
227.449932
 21
7.601135
 31
0.0
  0
LINE
  8
0
 62
   249
 10
225.377099
 20
5.404559
 30
0.0
 11
227.475067
 21
7.502527
 31
0.0
  0
LINE
  8
0
 62
   249
 10
225.474283
 20
5.377999
 30
0.0
 11
227.494444
 21
7.39816
 31
0.0
  0
LINE
  8
0
 62
   249
 10
225.598027
 20
5.377999
 30
0.0
 11
227.507197
 21
7.287169
 31
0.0
  0
LINE
  8
0
 62
   249
 10
225.721771
 20
5.377999
 30
0.0
 11
227.51209
 21
7.168319
 31
0.0
  0
LINE
  8
0
 62
   249
 10
225.845514
 20
5.377999
 30
0.0
 11
227.50727
 21
7.039754
 31
0.0
  0
LINE
  8
0
 62
   249
 10
225.969258
 20
5.377999
 30
0.0
 11
227.489725
 21
6.898466
 31
0.0
  0
LINE
  8
0
 62
   249
 10
226.093002
 20
5.377999
 30
0.0
 11
227.453936
 21
6.738933
 31
0.0
  0
LINE
  8
0
 62
   249
 10
226.216746
 20
5.377999
 30
0.0
 11
227.387299
 21
6.548553
 31
0.0
  0
LINE
  8
0
 62
   249
 10
226.340489
 20
5.377999
 30
0.0
 11
226.740665
 21
5.778175
 31
0.0
  0
LINE
  8
0
 62
   249
 10
226.82381
 20
5.86132
 30
0.0
 11
227.238778
 21
6.276288
 31
0.0
  0
LINE
  8
0
 62
   249
 10
226.464233
 20
5.377999
 30
0.0
 11
226.826562
 21
5.740328
 31
0.0
  0
LINE
  8
0
 62
   249
 10
226.587977
 20
5.377999
 30
0.0
 11
226.909353
 21
5.699376
 31
0.0
  0
LINE
  8
0
 62
   249
 10
226.71172
 20
5.377999
 30
0.0
 11
226.989174
 21
5.655453
 31
0.0
  0
LINE
  8
0
 62
   249
 10
226.835464
 20
5.377999
 30
0.0
 11
227.066135
 21
5.608671
 31
0.0
  0
LINE
  8
0
 62
   249
 10
226.959208
 20
5.377999
 30
0.0
 11
227.140325
 21
5.559117
 31
0.0
  0
LINE
  8
0
 62
   249
 10
227.082951
 20
5.377999
 30
0.0
 11
227.211814
 21
5.506862
 31
0.0
  0
LINE
  8
0
 62
   249
 10
227.206695
 20
5.377999
 30
0.0
 11
227.280653
 21
5.451958
 31
0.0
  0
LINE
  8
0
 62
   249
 10
227.330439
 20
5.377999
 30
0.0
 11
227.346881
 21
5.394442
 31
0.0
  0
LINE
  8
0
 62
   249
 10
223.137099
 20
6.134407
 30
0.0
 11
225.097099
 21
8.094407
 31
0.0
  0
LINE
  8
0
 62
   249
 10
223.137099
 20
6.258151
 30
0.0
 11
225.097099
 21
8.218151
 31
0.0
  0
LINE
  8
0
 62
   249
 10
223.137099
 20
6.381894
 30
0.0
 11
225.097099
 21
8.341894
 31
0.0
  0
LINE
  8
0
 62
   249
 10
223.137099
 20
6.505638
 30
0.0
 11
225.097099
 21
8.465638
 31
0.0
  0
LINE
  8
0
 62
   249
 10
223.137099
 20
6.629382
 30
0.0
 11
225.097099
 21
8.589382
 31
0.0
  0
LINE
  8
0
 62
   249
 10
223.137099
 20
6.753126
 30
0.0
 11
225.097099
 21
8.713126
 31
0.0
  0
LINE
  8
0
 62
   249
 10
223.137099
 20
6.876869
 30
0.0
 11
224.998229
 21
8.737999
 31
0.0
  0
LINE
  8
0
 62
   249
 10
223.137099
 20
7.000613
 30
0.0
 11
224.874485
 21
8.737999
 31
0.0
  0
LINE
  8
0
 62
   249
 10
223.137099
 20
7.124357
 30
0.0
 11
224.750742
 21
8.737999
 31
0.0
  0
LINE
  8
0
 62
   249
 10
223.137099
 20
7.2481
 30
0.0
 11
224.626998
 21
8.737999
 31
0.0
  0
LINE
  8
0
 62
   249
 10
223.137099
 20
7.371844
 30
0.0
 11
224.503254
 21
8.737999
 31
0.0
  0
LINE
  8
0
 62
   249
 10
223.137099
 20
7.495588
 30
0.0
 11
224.379511
 21
8.737999
 31
0.0
  0
LINE
  8
0
 62
   249
 10
223.137099
 20
7.619331
 30
0.0
 11
224.255767
 21
8.737999
 31
0.0
  0
LINE
  8
0
 62
   249
 10
223.137099
 20
7.743075
 30
0.0
 11
224.132023
 21
8.737999
 31
0.0
  0
LINE
  8
0
 62
   249
 10
223.137099
 20
7.866819
 30
0.0
 11
224.00828
 21
8.737999
 31
0.0
  0
LINE
  8
0
 62
   249
 10
223.137099
 20
7.990562
 30
0.0
 11
223.884536
 21
8.737999
 31
0.0
  0
LINE
  8
0
 62
   249
 10
223.137099
 20
8.114306
 30
0.0
 11
223.760792
 21
8.737999
 31
0.0
  0
LINE
  8
0
 62
   249
 10
223.137099
 20
8.23805
 30
0.0
 11
223.637049
 21
8.737999
 31
0.0
  0
LINE
  8
0
 62
   249
 10
223.137099
 20
8.361793
 30
0.0
 11
223.513305
 21
8.737999
 31
0.0
  0
LINE
  8
0
 62
   249
 10
223.137099
 20
8.485537
 30
0.0
 11
223.389561
 21
8.737999
 31
0.0
  0
LINE
  8
0
 62
   249
 10
223.137099
 20
8.609281
 30
0.0
 11
223.265818
 21
8.737999
 31
0.0
  0
LINE
  8
0
 62
   249
 10
223.137099
 20
8.733025
 30
0.0
 11
223.142074
 21
8.737999
 31
0.0
  0
LINE
  8
0
 62
   249
 10
223.137099
 20
6.010663
 30
0.0
 11
225.097099
 21
7.970663
 31
0.0
  0
LINE
  8
0
 62
   249
 10
223.137099
 20
5.88692
 30
0.0
 11
225.097099
 21
7.84692
 31
0.0
  0
LINE
  8
0
 62
   249
 10
223.137099
 20
5.763176
 30
0.0
 11
225.097099
 21
7.723176
 31
0.0
  0
LINE
  8
0
 62
   249
 10
223.137099
 20
5.639432
 30
0.0
 11
225.097099
 21
7.599432
 31
0.0
  0
LINE
  8
0
 62
   249
 10
223.137099
 20
5.515689
 30
0.0
 11
225.097099
 21
7.475689
 31
0.0
  0
LINE
  8
0
 62
   249
 10
223.137099
 20
5.391945
 30
0.0
 11
225.097099
 21
7.351945
 31
0.0
  0
LINE
  8
0
 62
   249
 10
223.246897
 20
5.377999
 30
0.0
 11
225.097099
 21
7.228201
 31
0.0
  0
LINE
  8
0
 62
   249
 10
223.370641
 20
5.377999
 30
0.0
 11
225.097099
 21
7.104458
 31
0.0
  0
LINE
  8
0
 62
   249
 10
223.494384
 20
5.377999
 30
0.0
 11
225.097099
 21
6.980714
 31
0.0
  0
LINE
  8
0
 62
   249
 10
223.618128
 20
5.377999
 30
0.0
 11
225.097099
 21
6.85697
 31
0.0
  0
LINE
  8
0
 62
   249
 10
223.741872
 20
5.377999
 30
0.0
 11
225.097099
 21
6.733227
 31
0.0
  0
LINE
  8
0
 62
   249
 10
223.865615
 20
5.377999
 30
0.0
 11
225.097099
 21
6.609483
 31
0.0
  0
LINE
  8
0
 62
   249
 10
223.989359
 20
5.377999
 30
0.0
 11
225.097099
 21
6.485739
 31
0.0
  0
LINE
  8
0
 62
   249
 10
224.113103
 20
5.377999
 30
0.0
 11
225.097099
 21
6.361995
 31
0.0
  0
LINE
  8
0
 62
   249
 10
224.236847
 20
5.377999
 30
0.0
 11
225.097099
 21
6.238252
 31
0.0
  0
LINE
  8
0
 62
   249
 10
224.36059
 20
5.377999
 30
0.0
 11
225.097099
 21
6.114508
 31
0.0
  0
LINE
  8
0
 62
   249
 10
224.484334
 20
5.377999
 30
0.0
 11
225.097099
 21
5.990764
 31
0.0
  0
LINE
  8
0
 62
   249
 10
224.608078
 20
5.377999
 30
0.0
 11
225.097099
 21
5.867021
 31
0.0
  0
LINE
  8
0
 62
   249
 10
224.731821
 20
5.377999
 30
0.0
 11
225.097099
 21
5.743277
 31
0.0
  0
LINE
  8
0
 62
   249
 10
224.855565
 20
5.377999
 30
0.0
 11
225.097099
 21
5.619533
 31
0.0
  0
LINE
  8
0
 62
   249
 10
224.979309
 20
5.377999
 30
0.0
 11
225.097099
 21
5.49579
 31
0.0
  0
LINE
  8
0
 62
   249
 10
225.377099
 20
2.310966
 30
0.0
 11
227.824614
 21
4.758481
 31
0.0
  0
LINE
  8
0
 62
   249
 10
225.377099
 20
2.43471
 30
0.0
 11
227.782547
 21
4.840158
 31
0.0
  0
LINE
  8
0
 62
   249
 10
225.377099
 20
2.558454
 30
0.0
 11
227.737553
 21
4.918908
 31
0.0
  0
LINE
  8
0
 62
   249
 10
225.377099
 20
2.682197
 30
0.0
 11
227.689735
 21
4.994834
 31
0.0
  0
LINE
  8
0
 62
   249
 10
225.377099
 20
2.805941
 30
0.0
 11
227.639174
 21
5.068016
 31
0.0
  0
LINE
  8
0
 62
   249
 10
225.377099
 20
2.929685
 30
0.0
 11
227.545413
 21
5.097999
 31
0.0
  0
LINE
  8
0
 62
   249
 10
225.377099
 20
3.053429
 30
0.0
 11
227.42167
 21
5.097999
 31
0.0
  0
LINE
  8
0
 62
   249
 10
225.377099
 20
3.177172
 30
0.0
 11
227.297926
 21
5.097999
 31
0.0
  0
LINE
  8
0
 62
   249
 10
225.377099
 20
3.300916
 30
0.0
 11
227.174182
 21
5.097999
 31
0.0
  0
LINE
  8
0
 62
   249
 10
225.377099
 20
3.42466
 30
0.0
 11
227.050439
 21
5.097999
 31
0.0
  0
LINE
  8
0
 62
   249
 10
225.377099
 20
3.548403
 30
0.0
 11
226.926695
 21
5.097999
 31
0.0
  0
LINE
  8
0
 62
   249
 10
225.377099
 20
3.672147
 30
0.0
 11
226.802951
 21
5.097999
 31
0.0
  0
LINE
  8
0
 62
   249
 10
225.377099
 20
3.795891
 30
0.0
 11
226.679208
 21
5.097999
 31
0.0
  0
LINE
  8
0
 62
   249
 10
225.377099
 20
3.919634
 30
0.0
 11
226.555464
 21
5.097999
 31
0.0
  0
LINE
  8
0
 62
   249
 10
225.377099
 20
4.043378
 30
0.0
 11
226.43172
 21
5.097999
 31
0.0
  0
LINE
  8
0
 62
   249
 10
225.377099
 20
4.167122
 30
0.0
 11
226.307977
 21
5.097999
 31
0.0
  0
LINE
  8
0
 62
   249
 10
225.377099
 20
4.290865
 30
0.0
 11
226.184233
 21
5.097999
 31
0.0
  0
LINE
  8
0
 62
   249
 10
225.377099
 20
4.414609
 30
0.0
 11
226.060489
 21
5.097999
 31
0.0
  0
LINE
  8
0
 62
   249
 10
225.377099
 20
4.538353
 30
0.0
 11
225.936746
 21
5.097999
 31
0.0
  0
LINE
  8
0
 62
   249
 10
225.377099
 20
4.662096
 30
0.0
 11
225.813002
 21
5.097999
 31
0.0
  0
LINE
  8
0
 62
   249
 10
225.377099
 20
4.78584
 30
0.0
 11
225.689258
 21
5.097999
 31
0.0
  0
LINE
  8
0
 62
   249
 10
225.377099
 20
4.909584
 30
0.0
 11
225.565514
 21
5.097999
 31
0.0
  0
LINE
  8
0
 62
   249
 10
225.377099
 20
5.033328
 30
0.0
 11
225.441771
 21
5.097999
 31
0.0
  0
LINE
  8
0
 62
   249
 10
225.377099
 20
2.187223
 30
0.0
 11
227.863629
 21
4.673752
 31
0.0
  0
LINE
  8
0
 62
   249
 10
225.377099
 20
2.063479
 30
0.0
 11
227.899437
 21
4.585817
 31
0.0
  0
LINE
  8
0
 62
   249
 10
225.377099
 20
1.939735
 30
0.0
 11
227.931849
 21
4.494485
 31
0.0
  0
LINE
  8
0
 62
   249
 10
225.377099
 20
1.815992
 30
0.0
 11
227.960633
 21
4.399525
 31
0.0
  0
LINE
  8
0
 62
   249
 10
225.42285
 20
1.737999
 30
0.0
 11
227.985502
 21
4.300651
 31
0.0
  0
LINE
  8
0
 62
   249
 10
225.546594
 20
1.738
 30
0.0
 11
228.006098
 21
4.197503
 31
0.0
  0
LINE
  8
0
 62
   249
 10
225.670338
 20
1.738
 30
0.0
 11
228.021969
 21
4.08963
 31
0.0
  0
LINE
  8
0
 62
   249
 10
225.794082
 20
1.738
 30
0.0
 11
228.03253
 21
3.976448
 31
0.0
  0
LINE
  8
0
 62
   249
 10
225.917826
 20
1.738
 30
0.0
 11
228.037011
 21
3.857186
 31
0.0
  0
LINE
  8
0
 62
   249
 10
226.044307
 20
1.740738
 30
0.0
 11
228.034361
 21
3.730791
 31
0.0
  0
LINE
  8
0
 62
   249
 10
226.17933
 20
1.752016
 30
0.0
 11
228.023082
 21
3.595769
 31
0.0
  0
LINE
  8
0
 62
   249
 10
226.325237
 20
1.77418
 30
0.0
 11
228.000918
 21
3.449861
 31
0.0
  0
LINE
  8
0
 62
   249
 10
226.485733
 20
1.810932
 30
0.0
 11
227.964166
 21
3.289366
 31
0.0
  0
LINE
  8
0
 62
   249
 10
226.667749
 20
1.869205
 30
0.0
 11
227.905893
 21
3.107349
 31
0.0
  0
LINE
  8
0
 62
   249
 10
226.887822
 20
1.965534
 30
0.0
 11
227.809564
 21
2.887276
 31
0.0
  0
LINE
  8
0
 62
   249
 10
227.22645
 20
2.180419
 30
0.0
 11
227.59468
 21
2.548648
 31
0.0
  0
LINE
  8
0
 62
   249
 10
210.187099
 20
1.737999
 30
0.0
 11
213.547099
 21
5.097999
 31
0.0
  0
LINE
  8
0
 62
   249
 10
210.25373
 20
1.928374
 30
0.0
 11
213.423355
 21
5.097999
 31
0.0
  0
LINE
  8
0
 62
   249
 10
210.320362
 20
2.118749
 30
0.0
 11
213.299612
 21
5.097999
 31
0.0
  0
LINE
  8
0
 62
   249
 10
210.386993
 20
2.309124
 30
0.0
 11
213.175868
 21
5.097999
 31
0.0
  0
LINE
  8
0
 62
   249
 10
210.453624
 20
2.499499
 30
0.0
 11
213.052124
 21
5.097999
 31
0.0
  0
LINE
  8
0
 62
   249
 10
210.520255
 20
2.689874
 30
0.0
 11
212.928381
 21
5.097999
 31
0.0
  0
LINE
  8
0
 62
   249
 10
210.586886
 20
2.880249
 30
0.0
 11
212.804637
 21
5.097999
 31
0.0
  0
LINE
  8
0
 62
   249
 10
210.653518
 20
3.070624
 30
0.0
 11
212.680893
 21
5.097999
 31
0.0
  0
LINE
  8
0
 62
   249
 10
210.720149
 20
3.260998
 30
0.0
 11
212.55715
 21
5.097999
 31
0.0
  0
LINE
  8
0
 62
   249
 10
210.78678
 20
3.451373
 30
0.0
 11
212.433406
 21
5.097999
 31
0.0
  0
LINE
  8
0
 62
   249
 10
210.853411
 20
3.641748
 30
0.0
 11
212.309662
 21
5.097999
 31
0.0
  0
LINE
  8
0
 62
   249
 10
210.920042
 20
3.832123
 30
0.0
 11
212.185919
 21
5.097999
 31
0.0
  0
LINE
  8
0
 62
   249
 10
210.986674
 20
4.022498
 30
0.0
 11
212.062175
 21
5.097999
 31
0.0
  0
LINE
  8
0
 62
   249
 10
211.053305
 20
4.212873
 30
0.0
 11
211.938431
 21
5.097999
 31
0.0
  0
LINE
  8
0
 62
   249
 10
211.119936
 20
4.403248
 30
0.0
 11
211.814687
 21
5.097999
 31
0.0
  0
LINE
  8
0
 62
   249
 10
211.186567
 20
4.593623
 30
0.0
 11
211.690944
 21
5.097999
 31
0.0
  0
LINE
  8
0
 62
   249
 10
211.253199
 20
4.783998
 30
0.0
 11
211.5672
 21
5.097999
 31
0.0
  0
LINE
  8
0
 62
   249
 10
211.31983
 20
4.974373
 30
0.0
 11
211.443456
 21
5.097999
 31
0.0
  0
LINE
  8
0
 62
   249
 10
210.310843
 20
1.737999
 30
0.0
 11
213.547099
 21
4.974256
 31
0.0
  0
LINE
  8
0
 62
   249
 10
210.434586
 20
1.737999
 30
0.0
 11
213.547099
 21
4.850512
 31
0.0
  0
LINE
  8
0
 62
   249
 10
210.55833
 20
1.737999
 30
0.0
 11
213.547099
 21
4.726768
 31
0.0
  0
LINE
  8
0
 62
   249
 10
210.682074
 20
1.737999
 30
0.0
 11
213.547099
 21
4.603025
 31
0.0
  0
LINE
  8
0
 62
   249
 10
210.805818
 20
1.737999
 30
0.0
 11
213.547099
 21
4.479281
 31
0.0
  0
LINE
  8
0
 62
   249
 10
210.929561
 20
1.737999
 30
0.0
 11
213.547099
 21
4.355537
 31
0.0
  0
LINE
  8
0
 62
   249
 10
211.053305
 20
1.737999
 30
0.0
 11
212.412988
 21
3.097683
 31
0.0
  0
LINE
  8
0
 62
   249
 10
212.453305
 20
3.137999
 30
0.0
 11
213.547099
 21
4.231793
 31
0.0
  0
LINE
  8
0
 62
   249
 10
211.177049
 20
1.737999
 30
0.0
 11
212.346357
 21
2.907308
 31
0.0
  0
LINE
  8
0
 62
   249
 10
212.577049
 20
3.137999
 30
0.0
 11
213.547099
 21
4.10805
 31
0.0
  0
LINE
  8
0
 62
   249
 10
211.300792
 20
1.737999
 30
0.0
 11
212.279726
 21
2.716933
 31
0.0
  0
LINE
  8
0
 62
   249
 10
212.700792
 20
3.137999
 30
0.0
 11
213.547099
 21
3.984306
 31
0.0
  0
LINE
  8
0
 62
   249
 10
211.424536
 20
1.737999
 30
0.0
 11
212.213095
 21
2.526558
 31
0.0
  0
LINE
  8
0
 62
   249
 10
212.824536
 20
3.137999
 30
0.0
 11
213.547099
 21
3.860562
 31
0.0
  0
LINE
  8
0
 62
   249
 10
211.54828
 20
1.737999
 30
0.0
 11
212.146463
 21
2.336183
 31
0.0
  0
LINE
  8
0
 62
   249
 10
212.94828
 20
3.137999
 30
0.0
 11
213.547099
 21
3.736819
 31
0.0
  0
LINE
  8
0
 62
   249
 10
211.672023
 20
1.737999
 30
0.0
 11
212.079832
 21
2.145808
 31
0.0
  0
LINE
  8
0
 62
   249
 10
213.072023
 20
3.137999
 30
0.0
 11
213.547099
 21
3.613075
 31
0.0
  0
LINE
  8
0
 62
   249
 10
211.795767
 20
1.737999
 30
0.0
 11
212.013201
 21
1.955433
 31
0.0
  0
LINE
  8
0
 62
   249
 10
213.195767
 20
3.137999
 30
0.0
 11
213.547099
 21
3.489331
 31
0.0
  0
LINE
  8
0
 62
   249
 10
211.919511
 20
1.737999
 30
0.0
 11
211.94657
 21
1.765058
 31
0.0
  0
LINE
  8
0
 62
   249
 10
213.319511
 20
3.137999
 30
0.0
 11
213.547099
 21
3.365588
 31
0.0
  0
LINE
  8
0
 62
   249
 10
213.443254
 20
3.137999
 30
0.0
 11
213.547099
 21
3.241844
 31
0.0
  0
LINE
  8
0
 62
   249
 10
217.677099
 20
2.54584
 30
0.0
 11
219.637099
 21
4.50584
 31
0.0
  0
LINE
  8
0
 62
   249
 10
217.677099
 20
2.669584
 30
0.0
 11
219.637099
 21
4.629584
 31
0.0
  0
LINE
  8
0
 62
   249
 10
217.677099
 20
2.793328
 30
0.0
 11
219.637099
 21
4.753328
 31
0.0
  0
LINE
  8
0
 62
   249
 10
217.677099
 20
2.917071
 30
0.0
 11
219.637099
 21
4.877071
 31
0.0
  0
LINE
  8
0
 62
   249
 10
217.677099
 20
3.040815
 30
0.0
 11
219.637099
 21
5.000815
 31
0.0
  0
LINE
  8
0
 62
   249
 10
217.677099
 20
3.164559
 30
0.0
 11
219.61054
 21
5.097999
 31
0.0
  0
LINE
  8
0
 62
   249
 10
217.677099
 20
3.288302
 30
0.0
 11
219.486796
 21
5.097999
 31
0.0
  0
LINE
  8
0
 62
   249
 10
217.677099
 20
3.412046
 30
0.0
 11
219.363052
 21
5.097999
 31
0.0
  0
LINE
  8
0
 62
   249
 10
217.677099
 20
3.53579
 30
0.0
 11
219.239309
 21
5.097999
 31
0.0
  0
LINE
  8
0
 62
   249
 10
217.677099
 20
3.659533
 30
0.0
 11
219.115565
 21
5.097999
 31
0.0
  0
LINE
  8
0
 62
   249
 10
217.677099
 20
3.783277
 30
0.0
 11
218.991821
 21
5.097999
 31
0.0
  0
LINE
  8
0
 62
   249
 10
217.677099
 20
3.907021
 30
0.0
 11
218.868078
 21
5.097999
 31
0.0
  0
LINE
  8
0
 62
   249
 10
217.677099
 20
4.030764
 30
0.0
 11
218.744334
 21
5.097999
 31
0.0
  0
LINE
  8
0
 62
   249
 10
217.677099
 20
4.154508
 30
0.0
 11
218.62059
 21
5.097999
 31
0.0
  0
LINE
  8
0
 62
   249
 10
217.677099
 20
4.278252
 30
0.0
 11
218.496847
 21
5.097999
 31
0.0
  0
LINE
  8
0
 62
   249
 10
217.677099
 20
4.401995
 30
0.0
 11
218.373103
 21
5.097999
 31
0.0
  0
LINE
  8
0
 62
   249
 10
217.677099
 20
4.525739
 30
0.0
 11
218.249359
 21
5.097999
 31
0.0
  0
LINE
  8
0
 62
   249
 10
217.677099
 20
4.649483
 30
0.0
 11
218.125615
 21
5.097999
 31
0.0
  0
LINE
  8
0
 62
   249
 10
217.677099
 20
4.773227
 30
0.0
 11
218.001872
 21
5.097999
 31
0.0
  0
LINE
  8
0
 62
   249
 10
217.677099
 20
4.89697
 30
0.0
 11
217.878128
 21
5.097999
 31
0.0
  0
LINE
  8
0
 62
   249
 10
217.677099
 20
5.020714
 30
0.0
 11
217.754384
 21
5.097999
 31
0.0
  0
LINE
  8
0
 62
   249
 10
217.677099
 20
2.422096
 30
0.0
 11
219.637099
 21
4.382096
 31
0.0
  0
LINE
  8
0
 62
   249
 10
217.677099
 20
2.298353
 30
0.0
 11
219.637099
 21
4.258353
 31
0.0
  0
LINE
  8
0
 62
   249
 10
217.677099
 20
2.174609
 30
0.0
 11
219.637099
 21
4.134609
 31
0.0
  0
LINE
  8
0
 62
   249
 10
217.677099
 20
2.050865
 30
0.0
 11
219.637099
 21
4.010865
 31
0.0
  0
LINE
  8
0
 62
   249
 10
217.677099
 20
1.927122
 30
0.0
 11
219.637099
 21
3.887122
 31
0.0
  0
LINE
  8
0
 62
   249
 10
217.677099
 20
1.803378
 30
0.0
 11
219.637099
 21
3.763378
 31
0.0
  0
LINE
  8
0
 62
   249
 10
217.735464
 20
1.737999
 30
0.0
 11
219.637099
 21
3.639634
 31
0.0
  0
LINE
  8
0
 62
   249
 10
217.859208
 20
1.737999
 30
0.0
 11
219.637099
 21
3.515891
 31
0.0
  0
LINE
  8
0
 62
   249
 10
217.982951
 20
1.737999
 30
0.0
 11
219.637099
 21
3.392147
 31
0.0
  0
LINE
  8
0
 62
   249
 10
218.106695
 20
1.737999
 30
0.0
 11
219.637099
 21
3.268403
 31
0.0
  0
LINE
  8
0
 62
   249
 10
218.230439
 20
1.737999
 30
0.0
 11
219.637099
 21
3.14466
 31
0.0
  0
LINE
  8
0
 62
   249
 10
218.354182
 20
1.737999
 30
0.0
 11
219.637099
 21
3.020916
 31
0.0
  0
LINE
  8
0
 62
   249
 10
218.477926
 20
1.737999
 30
0.0
 11
219.637099
 21
2.897172
 31
0.0
  0
LINE
  8
0
 62
   249
 10
218.60167
 20
1.737999
 30
0.0
 11
219.637099
 21
2.773429
 31
0.0
  0
LINE
  8
0
 62
   249
 10
218.725413
 20
1.737999
 30
0.0
 11
219.637099
 21
2.649685
 31
0.0
  0
LINE
  8
0
 62
   249
 10
218.849157
 20
1.737999
 30
0.0
 11
219.637099
 21
2.525941
 31
0.0
  0
LINE
  8
0
 62
   249
 10
218.972901
 20
1.737999
 30
0.0
 11
219.637099
 21
2.402197
 31
0.0
  0
LINE
  8
0
 62
   249
 10
219.096645
 20
1.737999
 30
0.0
 11
219.637099
 21
2.278454
 31
0.0
  0
LINE
  8
0
 62
   249
 10
219.220388
 20
1.737999
 30
0.0
 11
219.637099
 21
2.15471
 31
0.0
  0
LINE
  8
0
 62
   249
 10
219.344132
 20
1.737999
 30
0.0
 11
219.637099
 21
2.030966
 31
0.0
  0
LINE
  8
0
 62
   249
 10
219.467876
 20
1.737999
 30
0.0
 11
219.637099
 21
1.907223
 31
0.0
  0
LINE
  8
0
 62
   249
 10
219.591619
 20
1.737999
 30
0.0
 11
219.637099
 21
1.783479
 31
0.0
  0
LINE
  8
0
 62
   249
 10
215.006357
 20
2.96869
 30
0.0
 11
216.302653
 21
4.264987
 31
0.0
  0
LINE
  8
0
 62
   249
 10
214.974275
 20
3.060352
 30
0.0
 11
216.270572
 21
4.356649
 31
0.0
  0
LINE
  8
0
 62
   249
 10
214.928179
 20
3.137999
 30
0.0
 11
216.23849
 21
4.448311
 31
0.0
  0
LINE
  8
0
 62
   249
 10
214.804435
 20
3.137999
 30
0.0
 11
216.206408
 21
4.539973
 31
0.0
  0
LINE
  8
0
 62
   249
 10
214.680691
 20
3.137999
 30
0.0
 11
216.174327
 21
4.631635
 31
0.0
  0
LINE
  8
0
 62
   249
 10
214.556948
 20
3.137999
 30
0.0
 11
216.142245
 21
4.723297
 31
0.0
  0
LINE
  8
0
 62
   249
 10
214.433204
 20
3.137999
 30
0.0
 11
216.110163
 21
4.814959
 31
0.0
  0
LINE
  8
0
 62
   249
 10
214.30946
 20
3.137999
 30
0.0
 11
216.078082
 21
4.906621
 31
0.0
  0
LINE
  8
0
 62
   249
 10
214.185717
 20
3.137999
 30
0.0
 11
216.046
 21
4.998283
 31
0.0
  0
LINE
  8
0
 62
   249
 10
214.061973
 20
3.137999
 30
0.0
 11
216.013918
 21
5.089945
 31
0.0
  0
LINE
  8
0
 62
   249
 10
213.938229
 20
3.137999
 30
0.0
 11
215.898229
 21
5.097999
 31
0.0
  0
LINE
  8
0
 62
   249
 10
213.827099
 20
3.150613
 30
0.0
 11
215.774485
 21
5.097999
 31
0.0
  0
LINE
  8
0
 62
   249
 10
213.827099
 20
3.274357
 30
0.0
 11
215.650742
 21
5.097999
 31
0.0
  0
LINE
  8
0
 62
   249
 10
213.827099
 20
3.3981
 30
0.0
 11
215.526998
 21
5.097999
 31
0.0
  0
LINE
  8
0
 62
   249
 10
213.827099
 20
3.521844
 30
0.0
 11
215.403254
 21
5.097999
 31
0.0
  0
LINE
  8
0
 62
   249
 10
213.827099
 20
3.645588
 30
0.0
 11
215.279511
 21
5.097999
 31
0.0
  0
LINE
  8
0
 62
   249
 10
213.827099
 20
3.769331
 30
0.0
 11
215.155767
 21
5.097999
 31
0.0
  0
LINE
  8
0
 62
   249
 10
213.827099
 20
3.893075
 30
0.0
 11
215.032023
 21
5.097999
 31
0.0
  0
LINE
  8
0
 62
   249
 10
213.827099
 20
4.016819
 30
0.0
 11
214.90828
 21
5.097999
 31
0.0
  0
LINE
  8
0
 62
   249
 10
213.827099
 20
4.140562
 30
0.0
 11
214.784536
 21
5.097999
 31
0.0
  0
LINE
  8
0
 62
   249
 10
213.827099
 20
4.264306
 30
0.0
 11
214.660792
 21
5.097999
 31
0.0
  0
LINE
  8
0
 62
   249
 10
213.827099
 20
4.38805
 30
0.0
 11
214.537049
 21
5.097999
 31
0.0
  0
LINE
  8
0
 62
   249
 10
213.827099
 20
4.511793
 30
0.0
 11
214.413305
 21
5.097999
 31
0.0
  0
LINE
  8
0
 62
   249
 10
213.827099
 20
4.635537
 30
0.0
 11
214.289561
 21
5.097999
 31
0.0
  0
LINE
  8
0
 62
   249
 10
213.827099
 20
4.759281
 30
0.0
 11
214.165818
 21
5.097999
 31
0.0
  0
LINE
  8
0
 62
   249
 10
213.827099
 20
4.883025
 30
0.0
 11
214.042074
 21
5.097999
 31
0.0
  0
LINE
  8
0
 62
   249
 10
213.827099
 20
5.006768
 30
0.0
 11
213.91833
 21
5.097999
 31
0.0
  0
LINE
  8
0
 62
   249
 10
215.038439
 20
2.877028
 30
0.0
 11
216.334735
 21
4.173325
 31
0.0
  0
LINE
  8
0
 62
   249
 10
215.070521
 20
2.785366
 30
0.0
 11
216.366817
 21
4.081663
 31
0.0
  0
LINE
  8
0
 62
   249
 10
215.102602
 20
2.693704
 30
0.0
 11
216.398899
 21
3.990001
 31
0.0
  0
LINE
  8
0
 62
   249
 10
215.134684
 20
2.602042
 30
0.0
 11
216.43098
 21
3.898339
 31
0.0
  0
LINE
  8
0
 62
   249
 10
215.166766
 20
2.51038
 30
0.0
 11
216.463062
 21
3.806677
 31
0.0
  0
LINE
  8
0
 62
   249
 10
215.198847
 20
2.418718
 30
0.0
 11
216.495144
 21
3.715015
 31
0.0
  0
LINE
  8
0
 62
   249
 10
215.230929
 20
2.327056
 30
0.0
 11
216.527225
 21
3.623353
 31
0.0
  0
LINE
  8
0
 62
   249
 10
215.263011
 20
2.235395
 30
0.0
 11
216.559307
 21
3.531691
 31
0.0
  0
LINE
  8
0
 62
   249
 10
215.295092
 20
2.143733
 30
0.0
 11
216.591389
 21
3.440029
 31
0.0
  0
LINE
  8
0
 62
   249
 10
215.327174
 20
2.052071
 30
0.0
 11
216.62347
 21
3.348367
 31
0.0
  0
LINE
  8
0
 62
   249
 10
215.359256
 20
1.960409
 30
0.0
 11
216.655552
 21
3.256705
 31
0.0
  0
LINE
  8
0
 62
   249
 10
215.391338
 20
1.868747
 30
0.0
 11
216.687634
 21
3.165043
 31
0.0
  0
LINE
  8
0
 62
   249
 10
215.423419
 20
1.777085
 30
0.0
 11
216.719716
 21
3.073381
 31
0.0
  0
LINE
  8
0
 62
   249
 10
215.508078
 20
1.737999
 30
0.0
 11
216.751797
 21
2.981719
 31
0.0
  0
LINE
  8
0
 62
   249
 10
215.631821
 20
1.737999
 30
0.0
 11
216.783879
 21
2.890057
 31
0.0
  0
LINE
  8
0
 62
   249
 10
215.755565
 20
1.737999
 30
0.0
 11
216.815961
 21
2.798395
 31
0.0
  0
LINE
  8
0
 62
   249
 10
215.879309
 20
1.737999
 30
0.0
 11
216.848042
 21
2.706733
 31
0.0
  0
LINE
  8
0
 62
   249
 10
216.003052
 20
1.737999
 30
0.0
 11
216.880124
 21
2.615071
 31
0.0
  0
LINE
  8
0
 62
   249
 10
216.126796
 20
1.737999
 30
0.0
 11
216.912206
 21
2.523409
 31
0.0
  0
LINE
  8
0
 62
   249
 10
216.25054
 20
1.737999
 30
0.0
 11
216.944287
 21
2.431747
 31
0.0
  0
LINE
  8
0
 62
   249
 10
216.374283
 20
1.737999
 30
0.0
 11
216.976369
 21
2.340085
 31
0.0
  0
LINE
  8
0
 62
   249
 10
216.498027
 20
1.737999
 30
0.0
 11
217.008451
 21
2.248423
 31
0.0
  0
LINE
  8
0
 62
   249
 10
216.621771
 20
1.737999
 30
0.0
 11
217.040532
 21
2.156761
 31
0.0
  0
LINE
  8
0
 62
   249
 10
216.745514
 20
1.737999
 30
0.0
 11
217.072614
 21
2.065099
 31
0.0
  0
LINE
  8
0
 62
   249
 10
216.869258
 20
1.737999
 30
0.0
 11
217.104696
 21
1.973437
 31
0.0
  0
LINE
  8
0
 62
   249
 10
216.993002
 20
1.737999
 30
0.0
 11
217.136778
 21
1.881775
 31
0.0
  0
LINE
  8
0
 62
   249
 10
217.116746
 20
1.737999
 30
0.0
 11
217.168859
 21
1.790113
 31
0.0
  0
LINE
  8
0
 62
   249
 10
219.917099
 20
2.310966
 30
0.0
 11
222.364614
 21
4.758481
 31
0.0
  0
LINE
  8
0
 62
   249
 10
219.917099
 20
2.43471
 30
0.0
 11
222.322547
 21
4.840158
 31
0.0
  0
LINE
  8
0
 62
   249
 10
219.917099
 20
2.558454
 30
0.0
 11
222.277553
 21
4.918908
 31
0.0
  0
LINE
  8
0
 62
   249
 10
219.917099
 20
2.682197
 30
0.0
 11
222.229735
 21
4.994834
 31
0.0
  0
LINE
  8
0
 62
   249
 10
219.917099
 20
2.805941
 30
0.0
 11
222.179174
 21
5.068016
 31
0.0
  0
LINE
  8
0
 62
   249
 10
219.917099
 20
2.929685
 30
0.0
 11
222.085413
 21
5.097999
 31
0.0
  0
LINE
  8
0
 62
   249
 10
219.917099
 20
3.053429
 30
0.0
 11
221.96167
 21
5.097999
 31
0.0
  0
LINE
  8
0
 62
   249
 10
219.917099
 20
3.177172
 30
0.0
 11
221.837926
 21
5.097999
 31
0.0
  0
LINE
  8
0
 62
   249
 10
219.917099
 20
3.300916
 30
0.0
 11
221.714182
 21
5.097999
 31
0.0
  0
LINE
  8
0
 62
   249
 10
219.917099
 20
3.42466
 30
0.0
 11
221.590439
 21
5.097999
 31
0.0
  0
LINE
  8
0
 62
   249
 10
219.917099
 20
3.548403
 30
0.0
 11
221.466695
 21
5.097999
 31
0.0
  0
LINE
  8
0
 62
   249
 10
219.917099
 20
3.672147
 30
0.0
 11
221.342951
 21
5.097999
 31
0.0
  0
LINE
  8
0
 62
   249
 10
219.917099
 20
3.795891
 30
0.0
 11
221.219208
 21
5.097999
 31
0.0
  0
LINE
  8
0
 62
   249
 10
219.917099
 20
3.919634
 30
0.0
 11
221.095464
 21
5.097999
 31
0.0
  0
LINE
  8
0
 62
   249
 10
219.917099
 20
4.043378
 30
0.0
 11
220.97172
 21
5.097999
 31
0.0
  0
LINE
  8
0
 62
   249
 10
219.917099
 20
4.167122
 30
0.0
 11
220.847977
 21
5.097999
 31
0.0
  0
LINE
  8
0
 62
   249
 10
219.917099
 20
4.290865
 30
0.0
 11
220.724233
 21
5.097999
 31
0.0
  0
LINE
  8
0
 62
   249
 10
219.917099
 20
4.414609
 30
0.0
 11
220.600489
 21
5.097999
 31
0.0
  0
LINE
  8
0
 62
   249
 10
219.917099
 20
4.538353
 30
0.0
 11
220.476746
 21
5.097999
 31
0.0
  0
LINE
  8
0
 62
   249
 10
219.917099
 20
4.662096
 30
0.0
 11
220.353002
 21
5.097999
 31
0.0
  0
LINE
  8
0
 62
   249
 10
219.917099
 20
4.78584
 30
0.0
 11
220.229258
 21
5.097999
 31
0.0
  0
LINE
  8
0
 62
   249
 10
219.917099
 20
4.909584
 30
0.0
 11
220.105514
 21
5.097999
 31
0.0
  0
LINE
  8
0
 62
   249
 10
219.917099
 20
5.033328
 30
0.0
 11
219.981771
 21
5.097999
 31
0.0
  0
LINE
  8
0
 62
   249
 10
219.917099
 20
2.187223
 30
0.0
 11
222.403629
 21
4.673752
 31
0.0
  0
LINE
  8
0
 62
   249
 10
219.917099
 20
2.063479
 30
0.0
 11
222.439437
 21
4.585817
 31
0.0
  0
LINE
  8
0
 62
   249
 10
219.917099
 20
1.939735
 30
0.0
 11
222.471849
 21
4.494485
 31
0.0
  0
LINE
  8
0
 62
   249
 10
219.917099
 20
1.815992
 30
0.0
 11
222.500633
 21
4.399525
 31
0.0
  0
LINE
  8
0
 62
   249
 10
219.96285
 20
1.737999
 30
0.0
 11
222.525502
 21
4.300651
 31
0.0
  0
LINE
  8
0
 62
   249
 10
220.086594
 20
1.738
 30
0.0
 11
222.546098
 21
4.197503
 31
0.0
  0
LINE
  8
0
 62
   249
 10
220.210338
 20
1.738
 30
0.0
 11
222.561969
 21
4.08963
 31
0.0
  0
LINE
  8
0
 62
   249
 10
220.334082
 20
1.738
 30
0.0
 11
222.57253
 21
3.976448
 31
0.0
  0
LINE
  8
0
 62
   249
 10
220.457826
 20
1.738
 30
0.0
 11
222.577011
 21
3.857186
 31
0.0
  0
LINE
  8
0
 62
   249
 10
220.584307
 20
1.740738
 30
0.0
 11
222.574361
 21
3.730791
 31
0.0
  0
LINE
  8
0
 62
   249
 10
220.71933
 20
1.752016
 30
0.0
 11
222.563082
 21
3.595769
 31
0.0
  0
LINE
  8
0
 62
   249
 10
220.865237
 20
1.77418
 30
0.0
 11
222.540918
 21
3.449861
 31
0.0
  0
LINE
  8
0
 62
   249
 10
221.025733
 20
1.810932
 30
0.0
 11
222.504166
 21
3.289366
 31
0.0
  0
LINE
  8
0
 62
   249
 10
221.207749
 20
1.869205
 30
0.0
 11
222.445893
 21
3.107349
 31
0.0
  0
LINE
  8
0
 62
   249
 10
221.427822
 20
1.965534
 30
0.0
 11
222.349564
 21
2.887276
 31
0.0
  0
LINE
  8
0
 62
   249
 10
221.76645
 20
2.180419
 30
0.0
 11
222.13468
 21
2.548648
 31
0.0
  0
LINE
  8
0
 62
   249
 10
223.137099
 20
2.54584
 30
0.0
 11
225.097099
 21
4.50584
 31
0.0
  0
LINE
  8
0
 62
   249
 10
223.137099
 20
2.669584
 30
0.0
 11
225.097099
 21
4.629584
 31
0.0
  0
LINE
  8
0
 62
   249
 10
223.137099
 20
2.793328
 30
0.0
 11
225.097099
 21
4.753328
 31
0.0
  0
LINE
  8
0
 62
   249
 10
223.137099
 20
2.917071
 30
0.0
 11
225.097099
 21
4.877071
 31
0.0
  0
LINE
  8
0
 62
   249
 10
223.137099
 20
3.040815
 30
0.0
 11
225.097099
 21
5.000815
 31
0.0
  0
LINE
  8
0
 62
   249
 10
223.137099
 20
3.164559
 30
0.0
 11
225.07054
 21
5.097999
 31
0.0
  0
LINE
  8
0
 62
   249
 10
223.137099
 20
3.288302
 30
0.0
 11
224.946796
 21
5.097999
 31
0.0
  0
LINE
  8
0
 62
   249
 10
223.137099
 20
3.412046
 30
0.0
 11
224.823052
 21
5.097999
 31
0.0
  0
LINE
  8
0
 62
   249
 10
223.137099
 20
3.53579
 30
0.0
 11
224.699309
 21
5.097999
 31
0.0
  0
LINE
  8
0
 62
   249
 10
223.137099
 20
3.659533
 30
0.0
 11
224.575565
 21
5.097999
 31
0.0
  0
LINE
  8
0
 62
   249
 10
223.137099
 20
3.783277
 30
0.0
 11
224.451821
 21
5.097999
 31
0.0
  0
LINE
  8
0
 62
   249
 10
223.137099
 20
3.907021
 30
0.0
 11
224.328078
 21
5.097999
 31
0.0
  0
LINE
  8
0
 62
   249
 10
223.137099
 20
4.030764
 30
0.0
 11
224.204334
 21
5.097999
 31
0.0
  0
LINE
  8
0
 62
   249
 10
223.137099
 20
4.154508
 30
0.0
 11
224.08059
 21
5.097999
 31
0.0
  0
LINE
  8
0
 62
   249
 10
223.137099
 20
4.278252
 30
0.0
 11
223.956847
 21
5.097999
 31
0.0
  0
LINE
  8
0
 62
   249
 10
223.137099
 20
4.401995
 30
0.0
 11
223.833103
 21
5.097999
 31
0.0
  0
LINE
  8
0
 62
   249
 10
223.137099
 20
4.525739
 30
0.0
 11
223.709359
 21
5.097999
 31
0.0
  0
LINE
  8
0
 62
   249
 10
223.137099
 20
4.649483
 30
0.0
 11
223.585615
 21
5.097999
 31
0.0
  0
LINE
  8
0
 62
   249
 10
223.137099
 20
4.773227
 30
0.0
 11
223.461872
 21
5.097999
 31
0.0
  0
LINE
  8
0
 62
   249
 10
223.137099
 20
4.89697
 30
0.0
 11
223.338128
 21
5.097999
 31
0.0
  0
LINE
  8
0
 62
   249
 10
223.137099
 20
5.020714
 30
0.0
 11
223.214384
 21
5.097999
 31
0.0
  0
LINE
  8
0
 62
   249
 10
223.137099
 20
2.422096
 30
0.0
 11
225.097099
 21
4.382096
 31
0.0
  0
LINE
  8
0
 62
   249
 10
223.137099
 20
2.298353
 30
0.0
 11
225.097099
 21
4.258353
 31
0.0
  0
LINE
  8
0
 62
   249
 10
223.137099
 20
2.174609
 30
0.0
 11
225.097099
 21
4.134609
 31
0.0
  0
LINE
  8
0
 62
   249
 10
223.137099
 20
2.050865
 30
0.0
 11
225.097099
 21
4.010865
 31
0.0
  0
LINE
  8
0
 62
   249
 10
223.137099
 20
1.927122
 30
0.0
 11
225.097099
 21
3.887122
 31
0.0
  0
LINE
  8
0
 62
   249
 10
223.137099
 20
1.803378
 30
0.0
 11
225.097099
 21
3.763378
 31
0.0
  0
LINE
  8
0
 62
   249
 10
223.195464
 20
1.737999
 30
0.0
 11
225.097099
 21
3.639634
 31
0.0
  0
LINE
  8
0
 62
   249
 10
223.319208
 20
1.737999
 30
0.0
 11
225.097099
 21
3.515891
 31
0.0
  0
LINE
  8
0
 62
   249
 10
223.442951
 20
1.737999
 30
0.0
 11
225.097099
 21
3.392147
 31
0.0
  0
LINE
  8
0
 62
   249
 10
223.566695
 20
1.737999
 30
0.0
 11
225.097099
 21
3.268403
 31
0.0
  0
LINE
  8
0
 62
   249
 10
223.690439
 20
1.737999
 30
0.0
 11
225.097099
 21
3.14466
 31
0.0
  0
LINE
  8
0
 62
   249
 10
223.814182
 20
1.737999
 30
0.0
 11
225.097099
 21
3.020916
 31
0.0
  0
LINE
  8
0
 62
   249
 10
223.937926
 20
1.737999
 30
0.0
 11
225.097099
 21
2.897172
 31
0.0
  0
LINE
  8
0
 62
   249
 10
224.06167
 20
1.737999
 30
0.0
 11
225.097099
 21
2.773429
 31
0.0
  0
LINE
  8
0
 62
   249
 10
224.185413
 20
1.737999
 30
0.0
 11
225.097099
 21
2.649685
 31
0.0
  0
LINE
  8
0
 62
   249
 10
224.309157
 20
1.737999
 30
0.0
 11
225.097099
 21
2.525941
 31
0.0
  0
LINE
  8
0
 62
   249
 10
224.432901
 20
1.737999
 30
0.0
 11
225.097099
 21
2.402197
 31
0.0
  0
LINE
  8
0
 62
   249
 10
224.556645
 20
1.737999
 30
0.0
 11
225.097099
 21
2.278454
 31
0.0
  0
LINE
  8
0
 62
   249
 10
224.680388
 20
1.737999
 30
0.0
 11
225.097099
 21
2.15471
 31
0.0
  0
LINE
  8
0
 62
   249
 10
224.804132
 20
1.737999
 30
0.0
 11
225.097099
 21
2.030966
 31
0.0
  0
LINE
  8
0
 62
   249
 10
224.927876
 20
1.737999
 30
0.0
 11
225.097099
 21
1.907223
 31
0.0
  0
LINE
  8
0
 62
   249
 10
225.051619
 20
1.737999
 30
0.0
 11
225.097099
 21
1.783479
 31
0.0
  0
LINE
  8
0
 62
   249
 10
215.831108
 20
40.783527
 30
0.0
 11
219.831108
 21
40.783527
 31
0.0
  0
INSERT
  8
0
 62
   249
  2
WKU130
 10
216.171057
 20
39.057974
 30
0.0
 41
0.8
 42
0.8
 43
0.8
  0
TEXT
  8
0
  6
CONTINUOUS
 62
   249
 10
214.353328
 20
41.513635
 30
0.0
 40
2.0
  1
+
  0
TEXT
  8
0
  6
CONTINUOUS
 62
   249
 10
219.344763
 20
41.50558
 30
0.0
 40
2.0
  1
-
  0
INSERT
  8
0
  6
CENTER
 62
   249
  2
BLC5
 10
235.291926
 20
40.842005
 30
0.0
 41
0.6
 42
0.6
 43
0.6
  0
3DFACE
  8
0
  6
CONTINUOUS
 62
   249
 10
256.819436
 20
87.01
 30
0.0
 11
256.833156
 21
87.01
 31
0.0
 12
256.833156
 22
87.99
 32
0.0
 13
256.819436
 23
87.99
 33
0.0
  0
3DFACE
  8
0
  6
CONTINUOUS
 62
   249
 10
256.833156
 20
87.01
 30
0.0
 11
256.846876
 21
87.01
 31
0.0
 12
256.846876
 22
87.99
 32
0.0
 13
256.833156
 23
87.99
 33
0.0
  0
3DFACE
  8
0
  6
CONTINUOUS
 62
   249
 10
256.846876
 20
87.01
 30
0.0
 11
256.860596
 21
87.01
 31
0.0
 12
256.860596
 22
87.99
 32
0.0
 13
256.846876
 23
87.99
 33
0.0
  0
3DFACE
  8
0
  6
CONTINUOUS
 62
   249
 10
256.860596
 20
87.01
 30
0.0
 11
256.874316
 21
87.01
 31
0.0
 12
256.874316
 22
87.99
 32
0.0
 13
256.860596
 23
87.99
 33
0.0
  0
3DFACE
  8
0
  6
CONTINUOUS
 62
   249
 10
256.874316
 20
87.01
 30
0.0
 11
256.888036
 21
87.01
 31
0.0
 12
256.888036
 22
87.99
 32
0.0
 13
256.874316
 23
87.99
 33
0.0
  0
3DFACE
  8
0
  6
CONTINUOUS
 62
   249
 10
256.888036
 20
87.01
 30
0.0
 11
256.901756
 21
87.01
 31
0.0
 12
256.901756
 22
87.99
 32
0.0
 13
256.888036
 23
87.99
 33
0.0
  0
3DFACE
  8
0
  6
CONTINUOUS
 62
   249
 10
256.901756
 20
87.01
 30
0.0
 11
256.915476
 21
87.01
 31
0.0
 12
256.915476
 22
87.99
 32
0.0
 13
256.901756
 23
87.99
 33
0.0
  0
3DFACE
  8
0
  6
CONTINUOUS
 62
   249
 10
256.915476
 20
87.01
 30
0.0
 11
256.929196
 21
87.01
 31
0.0
 12
256.929196
 22
87.99
 32
0.0
 13
256.915476
 23
87.99
 33
0.0
  0
3DFACE
  8
0
  6
CONTINUOUS
 62
   249
 10
256.929196
 20
87.01
 30
0.0
 11
256.942916
 21
87.01
 31
0.0
 12
256.942916
 22
87.99
 32
0.0
 13
256.929196
 23
87.99
 33
0.0
  0
3DFACE
  8
0
  6
CONTINUOUS
 62
   249
 10
256.942916
 20
87.01
 30
0.0
 11
256.956636
 21
87.01
 31
0.0
 12
256.956636
 22
87.99
 32
0.0
 13
256.942916
 23
87.99
 33
0.0
  0
3DFACE
  8
0
  6
CONTINUOUS
 62
   249
 10
256.956636
 20
87.01
 30
0.0
 11
256.970356
 21
87.01
 31
0.0
 12
256.970356
 22
87.99
 32
0.0
 13
256.956636
 23
87.99
 33
0.0
  0
3DFACE
  8
0
  6
CONTINUOUS
 62
   249
 10
256.970356
 20
87.01
 30
0.0
 11
256.984076
 21
87.01
 31
0.0
 12
256.984076
 22
87.99
 32
0.0
 13
256.970356
 23
87.99
 33
0.0
  0
3DFACE
  8
0
  6
CONTINUOUS
 62
   249
 10
256.984076
 20
87.01
 30
0.0
 11
256.997796
 21
87.01
 31
0.0
 12
256.997796
 22
87.99
 32
0.0
 13
256.984076
 23
87.99
 33
0.0
  0
3DFACE
  8
0
  6
CONTINUOUS
 62
   249
 10
256.997796
 20
87.01
 30
0.0
 11
257.011516
 21
87.01
 31
0.0
 12
257.011516
 22
87.99
 32
0.0
 13
256.997796
 23
87.99
 33
0.0
  0
3DFACE
  8
0
  6
CONTINUOUS
 62
   249
 10
257.011516
 20
87.01
 30
0.0
 11
257.025236
 21
87.01
 31
0.0
 12
257.025236
 22
87.99
 32
0.0
 13
257.011516
 23
87.99
 33
0.0
  0
3DFACE
  8
0
  6
CONTINUOUS
 62
   249
 10
257.025236
 20
87.01
 30
0.0
 11
257.038956
 21
87.01
 31
0.0
 12
257.038956
 22
87.99
 32
0.0
 13
257.025236
 23
87.99
 33
0.0
  0
3DFACE
  8
0
  6
CONTINUOUS
 62
   249
 10
257.038956
 20
87.01
 30
0.0
 11
257.052676
 21
87.01
 31
0.0
 12
257.052676
 22
87.99
 32
0.0
 13
257.038956
 23
87.99
 33
0.0
  0
3DFACE
  8
0
  6
CONTINUOUS
 62
   249
 10
257.052676
 20
87.01
 30
0.0
 11
257.066396
 21
87.01
 31
0.0
 12
257.066396
 22
87.99
 32
0.0
 13
257.052676
 23
87.99
 33
0.0
  0
3DFACE
  8
0
  6
CONTINUOUS
 62
   249
 10
257.066396
 20
87.01
 30
0.0
 11
257.080116
 21
87.01
 31
0.0
 12
257.080116
 22
87.99
 32
0.0
 13
257.066396
 23
87.99
 33
0.0
  0
3DFACE
  8
0
  6
CONTINUOUS
 62
   249
 10
257.080116
 20
87.01
 30
0.0
 11
257.093836
 21
87.01
 31
0.0
 12
257.093836
 22
87.99
 32
0.0
 13
257.080116
 23
87.99
 33
0.0
  0
3DFACE
  8
0
  6
CONTINUOUS
 62
   249
 10
257.093836
 20
87.01
 30
0.0
 11
257.107556
 21
87.01
 31
0.0
 12
257.107556
 22
87.99
 32
0.0
 13
257.093836
 23
87.99
 33
0.0
  0
3DFACE
  8
0
  6
CONTINUOUS
 62
   249
 10
257.107556
 20
87.01
 30
0.0
 11
257.121276
 21
87.01
 31
0.0
 12
257.121276
 22
87.99
 32
0.0
 13
257.107556
 23
87.99
 33
0.0
  0
3DFACE
  8
0
  6
CONTINUOUS
 62
   249
 10
257.121276
 20
87.01
 30
0.0
 11
257.134996
 21
87.01
 31
0.0
 12
257.134996
 22
87.99
 32
0.0
 13
257.121276
 23
87.99
 33
0.0
  0
3DFACE
  8
0
  6
CONTINUOUS
 62
   249
 10
257.134996
 20
87.01
 30
0.0
 11
257.148716
 21
87.01
 31
0.0
 12
257.148716
 22
87.99
 32
0.0
 13
257.134996
 23
87.99
 33
0.0
  0
3DFACE
  8
0
  6
CONTINUOUS
 62
   249
 10
257.148716
 20
87.01
 30
0.0
 11
257.162436
 21
87.01
 31
0.0
 12
257.162436
 22
87.99
 32
0.0
 13
257.148716
 23
87.99
 33
0.0
  0
3DFACE
  8
0
  6
CONTINUOUS
 62
   249
 10
257.162436
 20
87.01
 30
0.0
 11
257.176156
 21
87.01
 31
0.0
 12
257.176156
 22
87.99
 32
0.0
 13
257.162436
 23
87.99
 33
0.0
  0
3DFACE
  8
0
  6
CONTINUOUS
 62
   249
 10
257.176156
 20
87.01
 30
0.0
 11
257.189876
 21
87.01
 31
0.0
 12
257.189876
 22
87.99
 32
0.0
 13
257.176156
 23
87.99
 33
0.0
  0
3DFACE
  8
0
  6
CONTINUOUS
 62
   249
 10
257.189876
 20
87.01
 30
0.0
 11
257.203596
 21
87.01
 31
0.0
 12
257.203596
 22
87.99
 32
0.0
 13
257.189876
 23
87.99
 33
0.0
  0
3DFACE
  8
0
  6
CONTINUOUS
 62
   249
 10
257.203596
 20
87.01
 30
0.0
 11
257.217316
 21
87.01
 31
0.0
 12
257.217316
 22
87.99
 32
0.0
 13
257.203596
 23
87.99
 33
0.0
  0
3DFACE
  8
0
  6
CONTINUOUS
 62
   249
 10
257.217316
 20
87.01
 30
0.0
 11
257.231036
 21
87.01
 31
0.0
 12
257.231036
 22
87.99
 32
0.0
 13
257.217316
 23
87.99
 33
0.0
  0
3DFACE
  8
0
  6
CONTINUOUS
 62
   249
 10
257.231036
 20
87.01
 30
0.0
 11
257.244756
 21
87.01
 31
0.0
 12
257.244756
 22
87.99
 32
0.0
 13
257.231036
 23
87.99
 33
0.0
  0
3DFACE
  8
0
  6
CONTINUOUS
 62
   249
 10
257.244756
 20
87.01
 30
0.0
 11
257.258476
 21
87.01
 31
0.0
 12
257.258476
 22
87.99
 32
0.0
 13
257.244756
 23
87.99
 33
0.0
  0
3DFACE
  8
0
  6
CONTINUOUS
 62
   249
 10
257.258476
 20
87.01
 30
0.0
 11
257.272196
 21
87.01
 31
0.0
 12
257.272196
 22
87.99
 32
0.0
 13
257.258476
 23
87.99
 33
0.0
  0
3DFACE
  8
0
  6
CONTINUOUS
 62
   249
 10
257.272196
 20
87.01
 30
0.0
 11
257.285916
 21
87.01
 31
0.0
 12
257.285916
 22
87.99
 32
0.0
 13
257.272196
 23
87.99
 33
0.0
  0
3DFACE
  8
0
  6
CONTINUOUS
 62
   249
 10
257.285916
 20
87.01
 30
0.0
 11
257.299636
 21
87.01
 31
0.0
 12
257.299636
 22
87.99
 32
0.0
 13
257.285916
 23
87.99
 33
0.0
  0
3DFACE
  8
0
  6
CONTINUOUS
 62
   249
 10
257.299636
 20
87.01
 30
0.0
 11
257.313356
 21
87.01
 31
0.0
 12
257.313356
 22
87.99
 32
0.0
 13
257.299636
 23
87.99
 33
0.0
  0
3DFACE
  8
0
  6
CONTINUOUS
 62
   249
 10
257.313356
 20
87.01
 30
0.0
 11
257.327076
 21
87.01
 31
0.0
 12
257.327076
 22
87.99
 32
0.0
 13
257.313356
 23
87.99
 33
0.0
  0
3DFACE
  8
0
  6
CONTINUOUS
 62
   249
 10
257.327076
 20
87.01
 30
0.0
 11
257.340796
 21
87.01
 31
0.0
 12
257.340796
 22
87.99
 32
0.0
 13
257.327076
 23
87.99
 33
0.0
  0
3DFACE
  8
0
  6
CONTINUOUS
 62
   249
 10
257.340796
 20
87.01
 30
0.0
 11
257.354516
 21
87.01
 31
0.0
 12
257.354516
 22
87.99
 32
0.0
 13
257.340796
 23
87.99
 33
0.0
  0
3DFACE
  8
0
  6
CONTINUOUS
 62
   249
 10
257.354516
 20
87.01
 30
0.0
 11
257.368236
 21
87.01
 31
0.0
 12
257.368236
 22
87.99
 32
0.0
 13
257.354516
 23
87.99
 33
0.0
  0
3DFACE
  8
0
  6
CONTINUOUS
 62
   249
 10
257.368236
 20
87.01
 30
0.0
 11
257.381956
 21
87.01
 31
0.0
 12
257.381956
 22
87.99
 32
0.0
 13
257.368236
 23
87.99
 33
0.0
  0
3DFACE
  8
0
  6
CONTINUOUS
 62
   249
 10
257.381956
 20
87.01
 30
0.0
 11
257.395676
 21
87.01
 31
0.0
 12
257.395676
 22
87.99
 32
0.0
 13
257.381956
 23
87.99
 33
0.0
  0
3DFACE
  8
0
  6
CONTINUOUS
 62
   249
 10
257.395676
 20
87.01
 30
0.0
 11
257.409396
 21
87.01
 31
0.0
 12
257.409396
 22
87.99
 32
0.0
 13
257.395676
 23
87.99
 33
0.0
  0
3DFACE
  8
0
  6
CONTINUOUS
 62
   249
 10
257.409396
 20
87.01
 30
0.0
 11
257.423116
 21
87.01
 31
0.0
 12
257.423116
 22
87.99
 32
0.0
 13
257.409396
 23
87.99
 33
0.0
  0
3DFACE
  8
0
  6
CONTINUOUS
 62
   249
 10
257.423116
 20
87.01
 30
0.0
 11
257.436836
 21
87.01
 31
0.0
 12
257.436836
 22
87.99
 32
0.0
 13
257.423116
 23
87.99
 33
0.0
  0
3DFACE
  8
0
  6
CONTINUOUS
 62
   249
 10
257.436836
 20
87.01
 30
0.0
 11
257.450556
 21
87.01
 31
0.0
 12
257.450556
 22
87.99
 32
0.0
 13
257.436836
 23
87.99
 33
0.0
  0
3DFACE
  8
0
  6
CONTINUOUS
 62
   249
 10
257.450556
 20
87.01
 30
0.0
 11
257.464276
 21
87.01
 31
0.0
 12
257.464276
 22
87.99
 32
0.0
 13
257.450556
 23
87.99
 33
0.0
  0
3DFACE
  8
0
  6
CONTINUOUS
 62
   249
 10
257.464276
 20
87.01
 30
0.0
 11
257.477996
 21
87.01
 31
0.0
 12
257.477996
 22
87.99
 32
0.0
 13
257.464276
 23
87.99
 33
0.0
  0
3DFACE
  8
0
  6
CONTINUOUS
 62
   249
 10
257.477996
 20
87.01
 30
0.0
 11
257.491716
 21
87.01
 31
0.0
 12
257.491716
 22
87.99
 32
0.0
 13
257.477996
 23
87.99
 33
0.0
  0
3DFACE
  8
0
  6
CONTINUOUS
 62
   249
 10
257.491716
 20
87.01
 30
0.0
 11
257.505436
 21
87.01
 31
0.0
 12
257.505436
 22
87.99
 32
0.0
 13
257.491716
 23
87.99
 33
0.0
  0
3DFACE
  8
0
  6
CONTINUOUS
 62
   249
 10
257.505436
 20
87.01
 30
0.0
 11
257.519156
 21
87.01
 31
0.0
 12
257.519156
 22
87.99
 32
0.0
 13
257.505436
 23
87.99
 33
0.0
  0
3DFACE
  8
0
  6
CONTINUOUS
 62
   249
 10
257.519156
 20
87.01
 30
0.0
 11
257.532876
 21
87.01
 31
0.0
 12
257.532876
 22
87.99
 32
0.0
 13
257.519156
 23
87.99
 33
0.0
  0
3DFACE
  8
0
  6
CONTINUOUS
 62
   249
 10
257.532876
 20
87.01
 30
0.0
 11
257.546596
 21
87.01
 31
0.0
 12
257.546596
 22
87.99
 32
0.0
 13
257.532876
 23
87.99
 33
0.0
  0
3DFACE
  8
0
  6
CONTINUOUS
 62
   249
 10
257.546596
 20
87.01
 30
0.0
 11
257.560316
 21
87.01
 31
0.0
 12
257.560316
 22
87.99
 32
0.0
 13
257.546596
 23
87.99
 33
0.0
  0
3DFACE
  8
0
  6
CONTINUOUS
 62
   249
 10
257.560316
 20
87.01
 30
0.0
 11
257.574036
 21
87.01
 31
0.0
 12
257.574036
 22
87.99
 32
0.0
 13
257.560316
 23
87.99
 33
0.0
  0
3DFACE
  8
0
  6
CONTINUOUS
 62
   249
 10
257.574036
 20
87.01
 30
0.0
 11
257.587756
 21
87.01
 31
0.0
 12
257.587756
 22
87.99
 32
0.0
 13
257.574036
 23
87.99
 33
0.0
  0
3DFACE
  8
0
  6
CONTINUOUS
 62
   249
 10
257.587756
 20
87.01
 30
0.0
 11
257.601476
 21
87.01
 31
0.0
 12
257.601476
 22
87.99
 32
0.0
 13
257.587756
 23
87.99
 33
0.0
  0
3DFACE
  8
0
  6
CONTINUOUS
 62
   249
 10
257.601476
 20
87.01
 30
0.0
 11
257.615196
 21
87.01
 31
0.0
 12
257.615196
 22
87.99
 32
0.0
 13
257.601476
 23
87.99
 33
0.0
  0
3DFACE
  8
0
  6
CONTINUOUS
 62
   249
 10
257.615196
 20
87.01
 30
0.0
 11
257.628916
 21
87.01
 31
0.0
 12
257.628916
 22
87.99
 32
0.0
 13
257.615196
 23
87.99
 33
0.0
  0
3DFACE
  8
0
  6
CONTINUOUS
 62
   249
 10
257.628916
 20
87.01
 30
0.0
 11
257.642636
 21
87.01
 31
0.0
 12
257.642636
 22
87.99
 32
0.0
 13
257.628916
 23
87.99
 33
0.0
  0
3DFACE
  8
0
  6
CONTINUOUS
 62
   249
 10
257.642636
 20
87.01
 30
0.0
 11
257.656356
 21
87.01
 31
0.0
 12
257.656356
 22
87.99
 32
0.0
 13
257.642636
 23
87.99
 33
0.0
  0
3DFACE
  8
0
  6
CONTINUOUS
 62
   249
 10
257.656356
 20
87.01
 30
0.0
 11
257.670076
 21
87.01
 31
0.0
 12
257.670076
 22
87.99
 32
0.0
 13
257.656356
 23
87.99
 33
0.0
  0
3DFACE
  8
0
  6
CONTINUOUS
 62
   249
 10
257.670076
 20
87.01
 30
0.0
 11
257.683796
 21
87.01
 31
0.0
 12
257.683796
 22
87.99
 32
0.0
 13
257.670076
 23
87.99
 33
0.0
  0
3DFACE
  8
0
  6
CONTINUOUS
 62
   249
 10
257.683796
 20
87.01
 30
0.0
 11
257.697516
 21
87.01
 31
0.0
 12
257.697516
 22
87.99
 32
0.0
 13
257.683796
 23
87.99
 33
0.0
  0
3DFACE
  8
0
  6
CONTINUOUS
 62
   249
 10
257.697516
 20
87.01
 30
0.0
 11
257.711236
 21
87.01
 31
0.0
 12
257.711236
 22
87.99
 32
0.0
 13
257.697516
 23
87.99
 33
0.0
  0
3DFACE
  8
0
  6
CONTINUOUS
 62
   249
 10
257.711236
 20
87.01
 30
0.0
 11
257.724956
 21
87.01
 31
0.0
 12
257.724956
 22
87.99
 32
0.0
 13
257.711236
 23
87.99
 33
0.0
  0
3DFACE
  8
0
  6
CONTINUOUS
 62
   249
 10
257.724956
 20
87.01
 30
0.0
 11
257.738676
 21
87.01
 31
0.0
 12
257.738676
 22
87.99
 32
0.0
 13
257.724956
 23
87.99
 33
0.0
  0
3DFACE
  8
0
  6
CONTINUOUS
 62
   249
 10
257.738676
 20
87.01
 30
0.0
 11
257.752396
 21
87.01
 31
0.0
 12
257.752396
 22
87.99
 32
0.0
 13
257.738676
 23
87.99
 33
0.0
  0
3DFACE
  8
0
  6
CONTINUOUS
 62
   249
 10
257.752396
 20
87.01
 30
0.0
 11
257.766116
 21
87.01
 31
0.0
 12
257.766116
 22
87.99
 32
0.0
 13
257.752396
 23
87.99
 33
0.0
  0
3DFACE
  8
0
  6
CONTINUOUS
 62
   249
 10
257.766116
 20
87.01
 30
0.0
 11
257.779836
 21
87.01
 31
0.0
 12
257.779836
 22
87.99
 32
0.0
 13
257.766116
 23
87.99
 33
0.0
  0
3DFACE
  8
0
  6
CONTINUOUS
 62
   249
 10
257.779836
 20
87.01
 30
0.0
 11
257.793556
 21
87.01
 31
0.0
 12
257.793556
 22
87.99
 32
0.0
 13
257.779836
 23
87.99
 33
0.0
  0
3DFACE
  8
0
  6
CONTINUOUS
 62
   249
 10
257.793556
 20
87.01
 30
0.0
 11
257.807276
 21
87.01
 31
0.0
 12
257.807276
 22
87.99
 32
0.0
 13
257.793556
 23
87.99
 33
0.0
  0
3DFACE
  8
0
  6
CONTINUOUS
 62
   249
 10
257.807276
 20
87.01
 30
0.0
 11
257.820996
 21
87.01
 31
0.0
 12
257.820996
 22
87.99
 32
0.0
 13
257.807276
 23
87.99
 33
0.0
  0
3DFACE
  8
0
  6
CONTINUOUS
 62
   249
 10
257.820996
 20
87.01
 30
0.0
 11
257.834716
 21
87.01
 31
0.0
 12
257.834716
 22
87.99
 32
0.0
 13
257.820996
 23
87.99
 33
0.0
  0
3DFACE
  8
0
  6
CONTINUOUS
 62
   249
 10
257.834716
 20
87.01
 30
0.0
 11
257.848436
 21
87.01
 31
0.0
 12
257.848436
 22
87.99
 32
0.0
 13
257.834716
 23
87.99
 33
0.0
  0
3DFACE
  8
0
  6
CONTINUOUS
 62
   249
 10
257.848436
 20
87.01
 30
0.0
 11
257.862156
 21
87.01
 31
0.0
 12
257.862156
 22
87.99
 32
0.0
 13
257.848436
 23
87.99
 33
0.0
  0
3DFACE
  8
0
  6
CONTINUOUS
 62
   249
 10
257.862156
 20
87.01
 30
0.0
 11
257.875876
 21
87.01
 31
0.0
 12
257.875876
 22
87.99
 32
0.0
 13
257.862156
 23
87.99
 33
0.0
  0
3DFACE
  8
0
  6
CONTINUOUS
 62
   249
 10
257.875876
 20
87.01
 30
0.0
 11
257.889596
 21
87.01
 31
0.0
 12
257.889596
 22
87.99
 32
0.0
 13
257.875876
 23
87.99
 33
0.0
  0
3DFACE
  8
0
  6
CONTINUOUS
 62
   249
 10
257.889596
 20
87.01
 30
0.0
 11
257.903316
 21
87.01
 31
0.0
 12
257.903316
 22
87.99
 32
0.0
 13
257.889596
 23
87.99
 33
0.0
  0
3DFACE
  8
0
  6
CONTINUOUS
 62
   249
 10
257.903316
 20
87.01
 30
0.0
 11
257.917036
 21
87.01
 31
0.0
 12
257.917036
 22
87.99
 32
0.0
 13
257.903316
 23
87.99
 33
0.0
  0
3DFACE
  8
0
  6
CONTINUOUS
 62
   249
 10
257.917036
 20
87.01
 30
0.0
 11
257.930756
 21
87.01
 31
0.0
 12
257.930756
 22
87.99
 32
0.0
 13
257.917036
 23
87.99
 33
0.0
  0
3DFACE
  8
0
  6
CONTINUOUS
 62
   249
 10
257.930756
 20
87.01
 30
0.0
 11
257.944476
 21
87.01
 31
0.0
 12
257.944476
 22
87.99
 32
0.0
 13
257.930756
 23
87.99
 33
0.0
  0
3DFACE
  8
0
  6
CONTINUOUS
 62
   249
 10
257.944476
 20
87.01
 30
0.0
 11
257.958196
 21
87.01
 31
0.0
 12
257.958196
 22
87.99
 32
0.0
 13
257.944476
 23
87.99
 33
0.0
  0
3DFACE
  8
0
  6
CONTINUOUS
 62
   249
 10
257.958196
 20
87.01
 30
0.0
 11
257.971916
 21
87.01
 31
0.0
 12
257.971916
 22
87.99
 32
0.0
 13
257.958196
 23
87.99
 33
0.0
  0
3DFACE
  8
0
  6
CONTINUOUS
 62
   249
 10
257.971916
 20
87.01
 30
0.0
 11
257.985636
 21
87.01
 31
0.0
 12
257.985636
 22
87.99
 32
0.0
 13
257.971916
 23
87.99
 33
0.0
  0
3DFACE
  8
0
  6
CONTINUOUS
 62
   249
 10
257.985636
 20
87.01
 30
0.0
 11
257.999356
 21
87.01
 31
0.0
 12
257.999356
 22
87.99
 32
0.0
 13
257.985636
 23
87.99
 33
0.0
  0
3DFACE
  8
0
  6
CONTINUOUS
 62
   249
 10
257.999356
 20
87.01
 30
0.0
 11
258.013076
 21
87.01
 31
0.0
 12
258.013076
 22
87.99
 32
0.0
 13
257.999356
 23
87.99
 33
0.0
  0
3DFACE
  8
0
  6
CONTINUOUS
 62
   249
 10
258.013076
 20
87.01
 30
0.0
 11
258.026796
 21
87.01
 31
0.0
 12
258.026796
 22
87.99
 32
0.0
 13
258.013076
 23
87.99
 33
0.0
  0
3DFACE
  8
0
  6
CONTINUOUS
 62
   249
 10
258.026796
 20
87.01
 30
0.0
 11
258.040516
 21
87.01
 31
0.0
 12
258.040516
 22
87.99
 32
0.0
 13
258.026796
 23
87.99
 33
0.0
  0
3DFACE
  8
0
  6
CONTINUOUS
 62
   249
 10
258.040516
 20
87.01
 30
0.0
 11
258.054236
 21
87.01
 31
0.0
 12
258.054236
 22
87.99
 32
0.0
 13
258.040516
 23
87.99
 33
0.0
  0
3DFACE
  8
0
  6
CONTINUOUS
 62
   249
 10
258.054236
 20
87.01
 30
0.0
 11
258.067956
 21
87.01
 31
0.0
 12
258.067956
 22
87.99
 32
0.0
 13
258.054236
 23
87.99
 33
0.0
  0
3DFACE
  8
0
  6
CONTINUOUS
 62
   249
 10
258.067956
 20
87.01
 30
0.0
 11
258.081676
 21
87.01
 31
0.0
 12
258.081676
 22
87.99
 32
0.0
 13
258.067956
 23
87.99
 33
0.0
  0
3DFACE
  8
0
  6
CONTINUOUS
 62
   249
 10
258.081676
 20
87.01
 30
0.0
 11
258.095396
 21
87.01
 31
0.0
 12
258.095396
 22
87.99
 32
0.0
 13
258.081676
 23
87.99
 33
0.0
  0
3DFACE
  8
0
  6
CONTINUOUS
 62
   249
 10
258.095396
 20
87.01
 30
0.0
 11
258.109116
 21
87.01
 31
0.0
 12
258.109116
 22
87.99
 32
0.0
 13
258.095396
 23
87.99
 33
0.0
  0
3DFACE
  8
0
  6
CONTINUOUS
 62
   249
 10
258.109116
 20
87.01
 30
0.0
 11
258.122836
 21
87.01
 31
0.0
 12
258.122836
 22
87.99
 32
0.0
 13
258.109116
 23
87.99
 33
0.0
  0
3DFACE
  8
0
  6
CONTINUOUS
 62
   249
 10
258.122836
 20
87.01
 30
0.0
 11
258.136556
 21
87.01
 31
0.0
 12
258.136556
 22
87.99
 32
0.0
 13
258.122836
 23
87.99
 33
0.0
  0
3DFACE
  8
0
  6
CONTINUOUS
 62
   249
 10
258.136556
 20
87.01
 30
0.0
 11
258.150276
 21
87.01
 31
0.0
 12
258.150276
 22
87.99
 32
0.0
 13
258.136556
 23
87.99
 33
0.0
  0
3DFACE
  8
0
  6
CONTINUOUS
 62
   249
 10
258.150276
 20
87.01
 30
0.0
 11
258.163996
 21
87.01
 31
0.0
 12
258.163996
 22
87.99
 32
0.0
 13
258.150276
 23
87.99
 33
0.0
  0
3DFACE
  8
0
  6
CONTINUOUS
 62
   249
 10
258.163996
 20
87.01
 30
0.0
 11
258.177716
 21
87.01
 31
0.0
 12
258.177716
 22
87.99
 32
0.0
 13
258.163996
 23
87.99
 33
0.0
  0
3DFACE
  8
0
  6
CONTINUOUS
 62
   249
 10
258.177716
 20
87.01
 30
0.0
 11
258.191436
 21
87.01
 31
0.0
 12
258.191436
 22
87.99
 32
0.0
 13
258.177716
 23
87.99
 33
0.0
  0
3DFACE
  8
0
  6
CONTINUOUS
 62
   249
 10
258.191436
 20
87.01
 30
0.0
 11
258.205156
 21
87.01
 31
0.0
 12
258.205156
 22
87.99
 32
0.0
 13
258.191436
 23
87.99
 33
0.0
  0
3DFACE
  8
0
  6
CONTINUOUS
 62
   249
 10
258.205156
 20
87.01
 30
0.0
 11
258.218876
 21
87.01
 31
0.0
 12
258.218876
 22
87.99
 32
0.0
 13
258.205156
 23
87.99
 33
0.0
  0
3DFACE
  8
0
  6
CONTINUOUS
 62
   249
 10
258.218876
 20
87.01
 30
0.0
 11
258.232596
 21
87.01
 31
0.0
 12
258.232596
 22
87.99
 32
0.0
 13
258.218876
 23
87.99
 33
0.0
  0
3DFACE
  8
0
  6
CONTINUOUS
 62
   249
 10
258.232596
 20
87.01
 30
0.0
 11
258.246316
 21
87.01
 31
0.0
 12
258.246316
 22
87.99
 32
0.0
 13
258.232596
 23
87.99
 33
0.0
  0
3DFACE
  8
0
  6
CONTINUOUS
 62
   249
 10
258.246316
 20
87.01
 30
0.0
 11
258.260036
 21
87.01
 31
0.0
 12
258.260036
 22
87.99
 32
0.0
 13
258.246316
 23
87.99
 33
0.0
  0
3DFACE
  8
0
  6
CONTINUOUS
 62
   249
 10
258.260036
 20
87.01
 30
0.0
 11
258.273756
 21
87.01
 31
0.0
 12
258.273756
 22
87.99
 32
0.0
 13
258.260036
 23
87.99
 33
0.0
  0
3DFACE
  8
0
  6
CONTINUOUS
 62
   249
 10
258.273756
 20
87.01
 30
0.0
 11
258.287476
 21
87.01
 31
0.0
 12
258.287476
 22
87.99
 32
0.0
 13
258.273756
 23
87.99
 33
0.0
  0
3DFACE
  8
0
  6
CONTINUOUS
 62
   249
 10
258.287476
 20
87.01
 30
0.0
 11
258.301196
 21
87.01
 31
0.0
 12
258.301196
 22
87.99
 32
0.0
 13
258.287476
 23
87.99
 33
0.0
  0
3DFACE
  8
0
  6
CONTINUOUS
 62
   249
 10
258.301196
 20
87.01
 30
0.0
 11
258.314916
 21
87.01
 31
0.0
 12
258.314916
 22
87.99
 32
0.0
 13
258.301196
 23
87.99
 33
0.0
  0
3DFACE
  8
0
  6
CONTINUOUS
 62
   249
 10
258.314916
 20
87.01
 30
0.0
 11
258.328636
 21
87.01
 31
0.0
 12
258.328636
 22
87.99
 32
0.0
 13
258.314916
 23
87.99
 33
0.0
  0
3DFACE
  8
0
  6
CONTINUOUS
 62
   249
 10
258.328636
 20
87.01
 30
0.0
 11
258.342356
 21
87.01
 31
0.0
 12
258.342356
 22
87.99
 32
0.0
 13
258.328636
 23
87.99
 33
0.0
  0
3DFACE
  8
0
  6
CONTINUOUS
 62
   249
 10
258.342356
 20
87.01
 30
0.0
 11
258.356076
 21
87.01
 31
0.0
 12
258.356076
 22
87.99
 32
0.0
 13
258.342356
 23
87.99
 33
0.0
  0
3DFACE
  8
0
  6
CONTINUOUS
 62
   249
 10
258.356076
 20
87.01
 30
0.0
 11
258.369796
 21
87.01
 31
0.0
 12
258.369796
 22
87.99
 32
0.0
 13
258.356076
 23
87.99
 33
0.0
  0
3DFACE
  8
0
  6
CONTINUOUS
 62
   249
 10
258.369796
 20
87.01
 30
0.0
 11
258.383516
 21
87.01
 31
0.0
 12
258.383516
 22
87.99
 32
0.0
 13
258.369796
 23
87.99
 33
0.0
  0
3DFACE
  8
0
  6
CONTINUOUS
 62
   249
 10
258.383516
 20
87.01
 30
0.0
 11
258.397236
 21
87.01
 31
0.0
 12
258.397236
 22
87.99
 32
0.0
 13
258.383516
 23
87.99
 33
0.0
  0
3DFACE
  8
0
  6
CONTINUOUS
 62
   249
 10
258.397236
 20
87.01
 30
0.0
 11
258.410956
 21
87.01
 31
0.0
 12
258.410956
 22
87.99
 32
0.0
 13
258.397236
 23
87.99
 33
0.0
  0
3DFACE
  8
0
  6
CONTINUOUS
 62
   249
 10
258.410956
 20
87.01
 30
0.0
 11
258.424676
 21
87.01
 31
0.0
 12
258.424676
 22
87.99
 32
0.0
 13
258.410956
 23
87.99
 33
0.0
  0
3DFACE
  8
0
  6
CONTINUOUS
 62
   249
 10
258.424676
 20
87.01
 30
0.0
 11
258.438396
 21
87.01
 31
0.0
 12
258.438396
 22
87.99
 32
0.0
 13
258.424676
 23
87.99
 33
0.0
  0
3DFACE
  8
0
  6
CONTINUOUS
 62
   249
 10
258.438396
 20
87.01
 30
0.0
 11
258.452116
 21
87.01
 31
0.0
 12
258.452116
 22
87.99
 32
0.0
 13
258.438396
 23
87.99
 33
0.0
  0
3DFACE
  8
0
  6
CONTINUOUS
 62
   249
 10
258.452116
 20
87.01
 30
0.0
 11
258.465836
 21
87.01
 31
0.0
 12
258.465836
 22
87.99
 32
0.0
 13
258.452116
 23
87.99
 33
0.0
  0
3DFACE
  8
0
  6
CONTINUOUS
 62
   249
 10
258.465836
 20
87.01
 30
0.0
 11
258.479556
 21
87.01
 31
0.0
 12
258.479556
 22
87.99
 32
0.0
 13
258.465836
 23
87.99
 33
0.0
  0
3DFACE
  8
0
  6
CONTINUOUS
 62
   249
 10
258.479556
 20
87.01
 30
0.0
 11
258.493276
 21
87.01
 31
0.0
 12
258.493276
 22
87.99
 32
0.0
 13
258.479556
 23
87.99
 33
0.0
  0
3DFACE
  8
0
  6
CONTINUOUS
 62
   249
 10
258.493276
 20
87.01
 30
0.0
 11
258.506996
 21
87.01
 31
0.0
 12
258.506996
 22
87.99
 32
0.0
 13
258.493276
 23
87.99
 33
0.0
  0
3DFACE
  8
0
  6
CONTINUOUS
 62
   249
 10
258.506996
 20
87.01
 30
0.0
 11
258.520716
 21
87.01
 31
0.0
 12
258.520716
 22
87.99
 32
0.0
 13
258.506996
 23
87.99
 33
0.0
  0
3DFACE
  8
0
  6
CONTINUOUS
 62
   249
 10
258.520716
 20
87.01
 30
0.0
 11
258.534436
 21
87.01
 31
0.0
 12
258.534436
 22
87.99
 32
0.0
 13
258.520716
 23
87.99
 33
0.0
  0
3DFACE
  8
0
  6
CONTINUOUS
 62
   249
 10
258.534436
 20
87.01
 30
0.0
 11
258.548156
 21
87.01
 31
0.0
 12
258.548156
 22
87.99
 32
0.0
 13
258.534436
 23
87.99
 33
0.0
  0
3DFACE
  8
0
  6
CONTINUOUS
 62
   249
 10
258.548156
 20
87.01
 30
0.0
 11
258.561876
 21
87.01
 31
0.0
 12
258.561876
 22
87.99
 32
0.0
 13
258.548156
 23
87.99
 33
0.0
  0
3DFACE
  8
0
  6
CONTINUOUS
 62
   249
 10
258.561876
 20
87.01
 30
0.0
 11
258.575596
 21
87.01
 31
0.0
 12
258.575596
 22
87.99
 32
0.0
 13
258.561876
 23
87.99
 33
0.0
  0
3DFACE
  8
0
  6
CONTINUOUS
 62
   249
 10
258.575596
 20
87.01
 30
0.0
 11
258.589316
 21
87.01
 31
0.0
 12
258.589316
 22
87.99
 32
0.0
 13
258.575596
 23
87.99
 33
0.0
  0
3DFACE
  8
0
  6
CONTINUOUS
 62
   249
 10
258.589316
 20
87.01
 30
0.0
 11
258.603036
 21
87.01
 31
0.0
 12
258.603036
 22
87.99
 32
0.0
 13
258.589316
 23
87.99
 33
0.0
  0
3DFACE
  8
0
  6
CONTINUOUS
 62
   249
 10
258.603036
 20
87.01
 30
0.0
 11
258.616756
 21
87.01
 31
0.0
 12
258.616756
 22
87.99
 32
0.0
 13
258.603036
 23
87.99
 33
0.0
  0
3DFACE
  8
0
  6
CONTINUOUS
 62
   249
 10
258.616756
 20
87.01
 30
0.0
 11
258.630476
 21
87.01
 31
0.0
 12
258.630476
 22
87.99
 32
0.0
 13
258.616756
 23
87.99
 33
0.0
  0
3DFACE
  8
0
  6
CONTINUOUS
 62
   249
 10
258.630476
 20
87.01
 30
0.0
 11
258.644196
 21
87.01
 31
0.0
 12
258.644196
 22
87.99
 32
0.0
 13
258.630476
 23
87.99
 33
0.0
  0
3DFACE
  8
0
  6
CONTINUOUS
 62
   249
 10
258.644196
 20
87.01
 30
0.0
 11
258.657916
 21
87.01
 31
0.0
 12
258.657916
 22
87.99
 32
0.0
 13
258.644196
 23
87.99
 33
0.0
  0
3DFACE
  8
0
  6
CONTINUOUS
 62
   249
 10
258.657916
 20
87.01
 30
0.0
 11
258.671636
 21
87.01
 31
0.0
 12
258.671636
 22
87.99
 32
0.0
 13
258.657916
 23
87.99
 33
0.0
  0
3DFACE
  8
0
  6
CONTINUOUS
 62
   249
 10
258.671636
 20
87.01
 30
0.0
 11
258.685356
 21
87.01
 31
0.0
 12
258.685356
 22
87.99
 32
0.0
 13
258.671636
 23
87.99
 33
0.0
  0
3DFACE
  8
0
  6
CONTINUOUS
 62
   249
 10
258.685356
 20
87.01
 30
0.0
 11
258.699076
 21
87.01
 31
0.0
 12
258.699076
 22
87.99
 32
0.0
 13
258.685356
 23
87.99
 33
0.0
  0
3DFACE
  8
0
  6
CONTINUOUS
 62
   249
 10
258.699076
 20
87.01
 30
0.0
 11
258.712796
 21
87.01
 31
0.0
 12
258.712796
 22
87.99
 32
0.0
 13
258.699076
 23
87.99
 33
0.0
  0
3DFACE
  8
0
  6
CONTINUOUS
 62
   249
 10
258.712796
 20
87.01
 30
0.0
 11
258.726516
 21
87.01
 31
0.0
 12
258.726516
 22
87.99
 32
0.0
 13
258.712796
 23
87.99
 33
0.0
  0
3DFACE
  8
0
  6
CONTINUOUS
 62
   249
 10
258.726516
 20
87.01
 30
0.0
 11
258.740236
 21
87.01
 31
0.0
 12
258.740236
 22
87.99
 32
0.0
 13
258.726516
 23
87.99
 33
0.0
  0
3DFACE
  8
0
  6
CONTINUOUS
 62
   249
 10
258.740236
 20
87.01
 30
0.0
 11
258.753956
 21
87.01
 31
0.0
 12
258.753956
 22
87.99
 32
0.0
 13
258.740236
 23
87.99
 33
0.0
  0
3DFACE
  8
0
  6
CONTINUOUS
 62
   249
 10
258.753956
 20
87.01
 30
0.0
 11
258.767676
 21
87.01
 31
0.0
 12
258.767676
 22
87.99
 32
0.0
 13
258.753956
 23
87.99
 33
0.0
  0
3DFACE
  8
0
  6
CONTINUOUS
 62
   249
 10
258.767676
 20
87.01
 30
0.0
 11
258.781396
 21
87.01
 31
0.0
 12
258.781396
 22
87.99
 32
0.0
 13
258.767676
 23
87.99
 33
0.0
  0
3DFACE
  8
0
  6
CONTINUOUS
 62
   249
 10
258.781396
 20
87.01
 30
0.0
 11
258.795116
 21
87.01
 31
0.0
 12
258.795116
 22
87.99
 32
0.0
 13
258.781396
 23
87.99
 33
0.0
  0
3DFACE
  8
0
  6
CONTINUOUS
 62
   249
 10
258.795116
 20
87.01
 30
0.0
 11
258.808836
 21
87.01
 31
0.0
 12
258.808836
 22
87.99
 32
0.0
 13
258.795116
 23
87.99
 33
0.0
  0
3DFACE
  8
0
  6
CONTINUOUS
 62
   249
 10
258.808836
 20
87.01
 30
0.0
 11
258.822556
 21
87.01
 31
0.0
 12
258.822556
 22
87.99
 32
0.0
 13
258.808836
 23
87.99
 33
0.0
  0
3DFACE
  8
0
  6
CONTINUOUS
 62
   249
 10
258.822556
 20
87.01
 30
0.0
 11
258.836276
 21
87.01
 31
0.0
 12
258.836276
 22
87.99
 32
0.0
 13
258.822556
 23
87.99
 33
0.0
  0
3DFACE
  8
0
  6
CONTINUOUS
 62
   249
 10
258.836276
 20
87.01
 30
0.0
 11
258.849996
 21
87.01
 31
0.0
 12
258.849996
 22
87.99
 32
0.0
 13
258.836276
 23
87.99
 33
0.0
  0
3DFACE
  8
0
  6
CONTINUOUS
 62
   249
 10
258.849996
 20
87.01
 30
0.0
 11
258.863716
 21
87.01
 31
0.0
 12
258.863716
 22
87.99
 32
0.0
 13
258.849996
 23
87.99
 33
0.0
  0
3DFACE
  8
0
  6
CONTINUOUS
 62
   249
 10
258.863716
 20
87.01
 30
0.0
 11
258.877436
 21
87.01
 31
0.0
 12
258.877436
 22
87.99
 32
0.0
 13
258.863716
 23
87.99
 33
0.0
  0
3DFACE
  8
0
  6
CONTINUOUS
 62
   249
 10
258.877436
 20
87.01
 30
0.0
 11
258.891156
 21
87.01
 31
0.0
 12
258.891156
 22
87.99
 32
0.0
 13
258.877436
 23
87.99
 33
0.0
  0
3DFACE
  8
0
  6
CONTINUOUS
 62
   249
 10
258.891156
 20
87.01
 30
0.0
 11
258.904876
 21
87.01
 31
0.0
 12
258.904876
 22
87.99
 32
0.0
 13
258.891156
 23
87.99
 33
0.0
  0
3DFACE
  8
0
  6
CONTINUOUS
 62
   249
 10
258.904876
 20
87.01
 30
0.0
 11
258.918596
 21
87.01
 31
0.0
 12
258.918596
 22
87.99
 32
0.0
 13
258.904876
 23
87.99
 33
0.0
  0
3DFACE
  8
0
  6
CONTINUOUS
 62
   249
 10
258.918596
 20
87.01
 30
0.0
 11
258.932316
 21
87.01
 31
0.0
 12
258.932316
 22
87.99
 32
0.0
 13
258.918596
 23
87.99
 33
0.0
  0
3DFACE
  8
0
  6
CONTINUOUS
 62
   249
 10
258.932316
 20
87.01
 30
0.0
 11
258.946036
 21
87.01
 31
0.0
 12
258.946036
 22
87.99
 32
0.0
 13
258.932316
 23
87.99
 33
0.0
  0
3DFACE
  8
0
  6
CONTINUOUS
 62
   249
 10
258.946036
 20
87.01
 30
0.0
 11
258.959756
 21
87.01
 31
0.0
 12
258.959756
 22
87.99
 32
0.0
 13
258.946036
 23
87.99
 33
0.0
  0
3DFACE
  8
0
  6
CONTINUOUS
 62
   249
 10
258.959756
 20
87.01
 30
0.0
 11
258.973476
 21
87.01
 31
0.0
 12
258.973476
 22
87.99
 32
0.0
 13
258.959756
 23
87.99
 33
0.0
  0
3DFACE
  8
0
  6
CONTINUOUS
 62
   249
 10
258.973476
 20
87.01
 30
0.0
 11
258.987196
 21
87.01
 31
0.0
 12
258.987196
 22
87.99
 32
0.0
 13
258.973476
 23
87.99
 33
0.0
  0
3DFACE
  8
0
  6
CONTINUOUS
 62
   249
 10
258.987196
 20
87.01
 30
0.0
 11
259.000916
 21
87.01
 31
0.0
 12
259.000916
 22
87.99
 32
0.0
 13
258.987196
 23
87.99
 33
0.0
  0
3DFACE
  8
0
  6
CONTINUOUS
 62
   249
 10
259.000916
 20
87.01
 30
0.0
 11
259.014636
 21
87.01
 31
0.0
 12
259.014636
 22
87.99
 32
0.0
 13
259.000916
 23
87.99
 33
0.0
  0
3DFACE
  8
0
  6
CONTINUOUS
 62
   249
 10
259.014636
 20
87.01
 30
0.0
 11
259.028356
 21
87.01
 31
0.0
 12
259.028356
 22
87.99
 32
0.0
 13
259.014636
 23
87.99
 33
0.0
  0
3DFACE
  8
0
  6
CONTINUOUS
 62
   249
 10
259.028356
 20
87.01
 30
0.0
 11
259.042076
 21
87.01
 31
0.0
 12
259.042076
 22
87.99
 32
0.0
 13
259.028356
 23
87.99
 33
0.0
  0
3DFACE
  8
0
  6
CONTINUOUS
 62
   249
 10
259.042076
 20
87.01
 30
0.0
 11
259.055796
 21
87.01
 31
0.0
 12
259.055796
 22
87.99
 32
0.0
 13
259.042076
 23
87.99
 33
0.0
  0
3DFACE
  8
0
  6
CONTINUOUS
 62
   249
 10
259.055796
 20
87.01
 30
0.0
 11
259.069516
 21
87.01
 31
0.0
 12
259.069516
 22
87.99
 32
0.0
 13
259.055796
 23
87.99
 33
0.0
  0
3DFACE
  8
0
  6
CONTINUOUS
 62
   249
 10
259.069516
 20
87.01
 30
0.0
 11
259.083236
 21
87.01
 31
0.0
 12
259.083236
 22
87.99
 32
0.0
 13
259.069516
 23
87.99
 33
0.0
  0
3DFACE
  8
0
  6
CONTINUOUS
 62
   249
 10
259.083236
 20
87.01
 30
0.0
 11
259.096956
 21
87.01
 31
0.0
 12
259.096956
 22
87.99
 32
0.0
 13
259.083236
 23
87.99
 33
0.0
  0
3DFACE
  8
0
  6
CONTINUOUS
 62
   249
 10
259.096956
 20
87.01
 30
0.0
 11
259.110676
 21
87.01
 31
0.0
 12
259.110676
 22
87.99
 32
0.0
 13
259.096956
 23
87.99
 33
0.0
  0
3DFACE
  8
0
  6
CONTINUOUS
 62
   249
 10
259.110676
 20
87.01
 30
0.0
 11
259.124396
 21
87.01
 31
0.0
 12
259.124396
 22
87.99
 32
0.0
 13
259.110676
 23
87.99
 33
0.0
  0
3DFACE
  8
0
  6
CONTINUOUS
 62
   249
 10
259.124396
 20
87.01
 30
0.0
 11
259.138116
 21
87.01
 31
0.0
 12
259.138116
 22
87.99
 32
0.0
 13
259.124396
 23
87.99
 33
0.0
  0
3DFACE
  8
0
  6
CONTINUOUS
 62
   249
 10
259.138116
 20
87.01
 30
0.0
 11
259.151836
 21
87.01
 31
0.0
 12
259.151836
 22
87.99
 32
0.0
 13
259.138116
 23
87.99
 33
0.0
  0
3DFACE
  8
0
  6
CONTINUOUS
 62
   249
 10
259.151836
 20
87.01
 30
0.0
 11
259.165556
 21
87.01
 31
0.0
 12
259.165556
 22
87.99
 32
0.0
 13
259.151836
 23
87.99
 33
0.0
  0
3DFACE
  8
0
  6
CONTINUOUS
 62
   249
 10
259.165556
 20
87.01
 30
0.0
 11
259.179276
 21
87.01
 31
0.0
 12
259.179276
 22
87.99
 32
0.0
 13
259.165556
 23
87.99
 33
0.0
  0
3DFACE
  8
0
  6
CONTINUOUS
 62
   249
 10
259.179276
 20
87.01
 30
0.0
 11
259.192996
 21
87.01
 31
0.0
 12
259.192996
 22
87.99
 32
0.0
 13
259.179276
 23
87.99
 33
0.0
  0
3DFACE
  8
0
  6
CONTINUOUS
 62
   249
 10
259.192996
 20
87.01
 30
0.0
 11
259.206716
 21
87.01
 31
0.0
 12
259.206716
 22
87.99
 32
0.0
 13
259.192996
 23
87.99
 33
0.0
  0
3DFACE
  8
0
  6
CONTINUOUS
 62
   249
 10
259.206716
 20
87.01
 30
0.0
 11
259.220436
 21
87.01
 31
0.0
 12
259.220436
 22
87.99
 32
0.0
 13
259.206716
 23
87.99
 33
0.0
  0
3DFACE
  8
0
  6
CONTINUOUS
 62
   249
 10
259.220436
 20
87.01
 30
0.0
 11
259.234156
 21
87.01
 31
0.0
 12
259.234156
 22
87.99
 32
0.0
 13
259.220436
 23
87.99
 33
0.0
  0
3DFACE
  8
0
  6
CONTINUOUS
 62
   249
 10
259.234156
 20
87.01
 30
0.0
 11
259.247876
 21
87.01
 31
0.0
 12
259.247876
 22
87.99
 32
0.0
 13
259.234156
 23
87.99
 33
0.0
  0
3DFACE
  8
0
  6
CONTINUOUS
 62
   249
 10
259.247876
 20
87.01
 30
0.0
 11
259.261596
 21
87.01
 31
0.0
 12
259.261596
 22
87.99
 32
0.0
 13
259.247876
 23
87.99
 33
0.0
  0
3DFACE
  8
0
  6
CONTINUOUS
 62
   249
 10
259.261596
 20
87.01
 30
0.0
 11
259.275316
 21
87.01
 31
0.0
 12
259.275316
 22
87.99
 32
0.0
 13
259.261596
 23
87.99
 33
0.0
  0
3DFACE
  8
0
  6
CONTINUOUS
 62
   249
 10
259.275316
 20
87.01
 30
0.0
 11
259.289036
 21
87.01
 31
0.0
 12
259.289036
 22
87.99
 32
0.0
 13
259.275316
 23
87.99
 33
0.0
  0
3DFACE
  8
0
  6
CONTINUOUS
 62
   249
 10
259.289036
 20
87.01
 30
0.0
 11
259.302756
 21
87.01
 31
0.0
 12
259.302756
 22
87.99
 32
0.0
 13
259.289036
 23
87.99
 33
0.0
  0
3DFACE
  8
0
  6
CONTINUOUS
 62
   249
 10
259.302756
 20
87.01
 30
0.0
 11
259.316476
 21
87.01
 31
0.0
 12
259.316476
 22
87.99
 32
0.0
 13
259.302756
 23
87.99
 33
0.0
  0
3DFACE
  8
0
  6
CONTINUOUS
 62
   249
 10
259.316476
 20
87.01
 30
0.0
 11
259.330196
 21
87.01
 31
0.0
 12
259.330196
 22
87.99
 32
0.0
 13
259.316476
 23
87.99
 33
0.0
  0
3DFACE
  8
0
  6
CONTINUOUS
 62
   249
 10
259.330196
 20
87.01
 30
0.0
 11
259.343916
 21
87.01
 31
0.0
 12
259.343916
 22
87.99
 32
0.0
 13
259.330196
 23
87.99
 33
0.0
  0
3DFACE
  8
0
  6
CONTINUOUS
 62
   249
 10
259.343916
 20
87.01
 30
0.0
 11
259.357636
 21
87.01
 31
0.0
 12
259.357636
 22
87.99
 32
0.0
 13
259.343916
 23
87.99
 33
0.0
  0
3DFACE
  8
0
  6
CONTINUOUS
 62
   249
 10
259.357636
 20
87.01
 30
0.0
 11
259.371356
 21
87.01
 31
0.0
 12
259.371356
 22
87.99
 32
0.0
 13
259.357636
 23
87.99
 33
0.0
  0
3DFACE
  8
0
  6
CONTINUOUS
 62
   249
 10
259.371356
 20
87.01
 30
0.0
 11
259.385076
 21
87.01
 31
0.0
 12
259.385076
 22
87.99
 32
0.0
 13
259.371356
 23
87.99
 33
0.0
  0
3DFACE
  8
0
  6
CONTINUOUS
 62
   249
 10
259.385076
 20
87.01
 30
0.0
 11
259.398796
 21
87.01
 31
0.0
 12
259.398796
 22
87.99
 32
0.0
 13
259.385076
 23
87.99
 33
0.0
  0
3DFACE
  8
0
  6
CONTINUOUS
 62
   249
 10
259.398796
 20
87.01
 30
0.0
 11
259.412516
 21
87.01
 31
0.0
 12
259.412516
 22
87.99
 32
0.0
 13
259.398796
 23
87.99
 33
0.0
  0
3DFACE
  8
0
  6
CONTINUOUS
 62
   249
 10
259.412516
 20
87.01
 30
0.0
 11
259.426236
 21
87.01
 31
0.0
 12
259.426236
 22
87.99
 32
0.0
 13
259.412516
 23
87.99
 33
0.0
  0
3DFACE
  8
0
  6
CONTINUOUS
 62
   249
 10
259.426236
 20
87.01
 30
0.0
 11
259.439956
 21
87.01
 31
0.0
 12
259.439956
 22
87.99
 32
0.0
 13
259.426236
 23
87.99
 33
0.0
  0
3DFACE
  8
0
  6
CONTINUOUS
 62
   249
 10
259.439956
 20
87.01
 30
0.0
 11
259.453676
 21
87.01
 31
0.0
 12
259.453676
 22
87.99
 32
0.0
 13
259.439956
 23
87.99
 33
0.0
  0
3DFACE
  8
0
  6
CONTINUOUS
 62
   249
 10
259.453676
 20
87.01
 30
0.0
 11
259.467396
 21
87.01
 31
0.0
 12
259.467396
 22
87.99
 32
0.0
 13
259.453676
 23
87.99
 33
0.0
  0
3DFACE
  8
0
  6
CONTINUOUS
 62
   249
 10
259.467396
 20
87.01
 30
0.0
 11
259.481116
 21
87.01
 31
0.0
 12
259.481116
 22
87.99
 32
0.0
 13
259.467396
 23
87.99
 33
0.0
  0
3DFACE
  8
0
  6
CONTINUOUS
 62
   249
 10
259.481116
 20
87.01
 30
0.0
 11
259.494836
 21
87.01
 31
0.0
 12
259.494836
 22
87.99
 32
0.0
 13
259.481116
 23
87.99
 33
0.0
  0
3DFACE
  8
0
  6
CONTINUOUS
 62
   249
 10
259.494836
 20
87.01
 30
0.0
 11
259.508556
 21
87.01
 31
0.0
 12
259.508556
 22
87.99
 32
0.0
 13
259.494836
 23
87.99
 33
0.0
  0
3DFACE
  8
0
  6
CONTINUOUS
 62
   249
 10
259.508556
 20
87.01
 30
0.0
 11
259.522276
 21
87.01
 31
0.0
 12
259.522276
 22
87.99
 32
0.0
 13
259.508556
 23
87.99
 33
0.0
  0
3DFACE
  8
0
  6
CONTINUOUS
 62
   249
 10
259.522276
 20
87.01
 30
0.0
 11
259.535996
 21
87.01
 31
0.0
 12
259.535996
 22
87.99
 32
0.0
 13
259.522276
 23
87.99
 33
0.0
  0
3DFACE
  8
0
  6
CONTINUOUS
 62
   249
 10
259.535996
 20
87.01
 30
0.0
 11
259.549716
 21
87.01
 31
0.0
 12
259.549716
 22
87.99
 32
0.0
 13
259.535996
 23
87.99
 33
0.0
  0
3DFACE
  8
0
  6
CONTINUOUS
 62
   249
 10
259.549716
 20
87.01
 30
0.0
 11
259.563436
 21
87.01
 31
0.0
 12
259.563436
 22
87.99
 32
0.0
 13
259.549716
 23
87.99
 33
0.0
  0
3DFACE
  8
0
  6
CONTINUOUS
 62
   249
 10
259.563436
 20
87.01
 30
0.0
 11
259.577156
 21
87.01
 31
0.0
 12
259.577156
 22
87.99
 32
0.0
 13
259.563436
 23
87.99
 33
0.0
  0
3DFACE
  8
0
  6
CONTINUOUS
 62
   249
 10
259.577156
 20
87.01
 30
0.0
 11
259.590876
 21
87.01
 31
0.0
 12
259.590876
 22
87.99
 32
0.0
 13
259.577156
 23
87.99
 33
0.0
  0
3DFACE
  8
0
  6
CONTINUOUS
 62
   249
 10
259.590876
 20
87.01
 30
0.0
 11
259.604596
 21
87.01
 31
0.0
 12
259.604596
 22
87.99
 32
0.0
 13
259.590876
 23
87.99
 33
0.0
  0
3DFACE
  8
0
  6
CONTINUOUS
 62
   249
 10
259.604596
 20
87.01
 30
0.0
 11
259.618316
 21
87.01
 31
0.0
 12
259.618316
 22
87.99
 32
0.0
 13
259.604596
 23
87.99
 33
0.0
  0
3DFACE
  8
0
  6
CONTINUOUS
 62
   249
 10
259.618316
 20
87.01
 30
0.0
 11
259.632036
 21
87.01
 31
0.0
 12
259.632036
 22
87.99
 32
0.0
 13
259.618316
 23
87.99
 33
0.0
  0
3DFACE
  8
0
  6
CONTINUOUS
 62
   249
 10
259.632036
 20
87.01
 30
0.0
 11
259.645756
 21
87.01
 31
0.0
 12
259.645756
 22
87.99
 32
0.0
 13
259.632036
 23
87.99
 33
0.0
  0
3DFACE
  8
0
  6
CONTINUOUS
 62
   249
 10
259.645756
 20
87.01
 30
0.0
 11
259.659476
 21
87.01
 31
0.0
 12
259.659476
 22
87.99
 32
0.0
 13
259.645756
 23
87.99
 33
0.0
  0
3DFACE
  8
0
  6
CONTINUOUS
 62
   249
 10
259.659476
 20
87.01
 30
0.0
 11
259.673196
 21
87.01
 31
0.0
 12
259.673196
 22
87.99
 32
0.0
 13
259.659476
 23
87.99
 33
0.0
  0
3DFACE
  8
0
  6
CONTINUOUS
 62
   249
 10
259.673196
 20
87.01
 30
0.0
 11
259.686916
 21
87.01
 31
0.0
 12
259.686916
 22
87.99
 32
0.0
 13
259.673196
 23
87.99
 33
0.0
  0
3DFACE
  8
0
  6
CONTINUOUS
 62
   249
 10
259.686916
 20
87.01
 30
0.0
 11
259.700636
 21
87.01
 31
0.0
 12
259.700636
 22
87.99
 32
0.0
 13
259.686916
 23
87.99
 33
0.0
  0
3DFACE
  8
0
  6
CONTINUOUS
 62
   249
 10
259.700636
 20
87.01
 30
0.0
 11
259.714356
 21
87.01
 31
0.0
 12
259.714356
 22
87.99
 32
0.0
 13
259.700636
 23
87.99
 33
0.0
  0
3DFACE
  8
0
  6
CONTINUOUS
 62
   249
 10
259.714356
 20
87.01
 30
0.0
 11
259.728076
 21
87.01
 31
0.0
 12
259.728076
 22
87.99
 32
0.0
 13
259.714356
 23
87.99
 33
0.0
  0
3DFACE
  8
0
  6
CONTINUOUS
 62
   249
 10
259.728076
 20
87.01
 30
0.0
 11
259.741796
 21
87.01
 31
0.0
 12
259.741796
 22
87.99
 32
0.0
 13
259.728076
 23
87.99
 33
0.0
  0
3DFACE
  8
0
  6
CONTINUOUS
 62
   249
 10
259.741796
 20
87.01
 30
0.0
 11
259.755516
 21
87.01
 31
0.0
 12
259.755516
 22
87.99
 32
0.0
 13
259.741796
 23
87.99
 33
0.0
  0
3DFACE
  8
0
  6
CONTINUOUS
 62
   249
 10
259.755516
 20
87.01
 30
0.0
 11
259.769236
 21
87.01
 31
0.0
 12
259.769236
 22
87.99
 32
0.0
 13
259.755516
 23
87.99
 33
0.0
  0
3DFACE
  8
0
  6
CONTINUOUS
 62
   249
 10
259.769236
 20
87.01
 30
0.0
 11
259.782956
 21
87.01
 31
0.0
 12
259.782956
 22
87.99
 32
0.0
 13
259.769236
 23
87.99
 33
0.0
  0
3DFACE
  8
0
  6
CONTINUOUS
 62
   249
 10
259.782956
 20
87.01
 30
0.0
 11
259.796676
 21
87.01
 31
0.0
 12
259.796676
 22
87.99
 32
0.0
 13
259.782956
 23
87.99
 33
0.0
  0
3DFACE
  8
0
  6
CONTINUOUS
 62
   249
 10
259.796676
 20
87.01
 30
0.0
 11
259.810396
 21
87.01
 31
0.0
 12
259.810396
 22
87.99
 32
0.0
 13
259.796676
 23
87.99
 33
0.0
  0
3DFACE
  8
0
  6
CONTINUOUS
 62
   249
 10
259.810396
 20
87.01
 30
0.0
 11
259.824116
 21
87.01
 31
0.0
 12
259.824116
 22
87.99
 32
0.0
 13
259.810396
 23
87.99
 33
0.0
  0
3DFACE
  8
0
  6
CONTINUOUS
 62
   249
 10
259.824116
 20
87.01
 30
0.0
 11
259.837836
 21
87.01
 31
0.0
 12
259.837836
 22
87.99
 32
0.0
 13
259.824116
 23
87.99
 33
0.0
  0
3DFACE
  8
0
  6
CONTINUOUS
 62
   249
 10
259.837836
 20
87.01
 30
0.0
 11
259.851556
 21
87.01
 31
0.0
 12
259.851556
 22
87.99
 32
0.0
 13
259.837836
 23
87.99
 33
0.0
  0
3DFACE
  8
0
  6
CONTINUOUS
 62
   249
 10
259.851556
 20
87.01
 30
0.0
 11
259.865276
 21
87.01
 31
0.0
 12
259.865276
 22
87.99
 32
0.0
 13
259.851556
 23
87.99
 33
0.0
  0
3DFACE
  8
0
  6
CONTINUOUS
 62
   249
 10
259.865276
 20
87.01
 30
0.0
 11
259.878996
 21
87.01
 31
0.0
 12
259.878996
 22
87.99
 32
0.0
 13
259.865276
 23
87.99
 33
0.0
  0
3DFACE
  8
0
  6
CONTINUOUS
 62
   249
 10
259.878996
 20
87.01
 30
0.0
 11
259.892716
 21
87.01
 31
0.0
 12
259.892716
 22
87.99
 32
0.0
 13
259.878996
 23
87.99
 33
0.0
  0
3DFACE
  8
0
  6
CONTINUOUS
 62
   249
 10
259.892716
 20
87.01
 30
0.0
 11
259.906436
 21
87.01
 31
0.0
 12
259.906436
 22
87.99
 32
0.0
 13
259.892716
 23
87.99
 33
0.0
  0
3DFACE
  8
0
  6
CONTINUOUS
 62
   249
 10
259.906436
 20
87.01
 30
0.0
 11
259.920156
 21
87.01
 31
0.0
 12
259.920156
 22
87.99
 32
0.0
 13
259.906436
 23
87.99
 33
0.0
  0
3DFACE
  8
0
  6
CONTINUOUS
 62
   249
 10
259.920156
 20
87.01
 30
0.0
 11
259.933876
 21
87.01
 31
0.0
 12
259.933876
 22
87.99
 32
0.0
 13
259.920156
 23
87.99
 33
0.0
  0
3DFACE
  8
0
  6
CONTINUOUS
 62
   249
 10
259.933876
 20
87.01
 30
0.0
 11
259.947596
 21
87.01
 31
0.0
 12
259.947596
 22
87.99
 32
0.0
 13
259.933876
 23
87.99
 33
0.0
  0
3DFACE
  8
0
  6
CONTINUOUS
 62
   249
 10
259.947596
 20
87.01
 30
0.0
 11
259.961316
 21
87.01
 31
0.0
 12
259.961316
 22
87.99
 32
0.0
 13
259.947596
 23
87.99
 33
0.0
  0
3DFACE
  8
0
  6
CONTINUOUS
 62
   249
 10
259.961316
 20
87.01
 30
0.0
 11
259.975036
 21
87.01
 31
0.0
 12
259.975036
 22
87.99
 32
0.0
 13
259.961316
 23
87.99
 33
0.0
  0
3DFACE
  8
0
  6
CONTINUOUS
 62
   249
 10
259.975036
 20
87.01
 30
0.0
 11
259.988756
 21
87.01
 31
0.0
 12
259.988756
 22
87.99
 32
0.0
 13
259.975036
 23
87.99
 33
0.0
  0
3DFACE
  8
0
  6
CONTINUOUS
 62
   249
 10
259.988756
 20
87.01
 30
0.0
 11
260.002476
 21
87.01
 31
0.0
 12
260.002476
 22
87.99
 32
0.0
 13
259.988756
 23
87.99
 33
0.0
  0
3DFACE
  8
0
  6
CONTINUOUS
 62
   249
 10
260.002476
 20
87.01
 30
0.0
 11
260.016196
 21
87.01
 31
0.0
 12
260.016196
 22
87.99
 32
0.0
 13
260.002476
 23
87.99
 33
0.0
  0
3DFACE
  8
0
  6
CONTINUOUS
 62
   249
 10
260.016196
 20
87.01
 30
0.0
 11
260.029916
 21
87.01
 31
0.0
 12
260.029916
 22
87.99
 32
0.0
 13
260.016196
 23
87.99
 33
0.0
  0
3DFACE
  8
0
  6
CONTINUOUS
 62
   249
 10
260.029916
 20
87.01
 30
0.0
 11
260.043636
 21
87.01
 31
0.0
 12
260.043636
 22
87.99
 32
0.0
 13
260.029916
 23
87.99
 33
0.0
  0
3DFACE
  8
0
  6
CONTINUOUS
 62
   249
 10
260.043636
 20
87.01
 30
0.0
 11
260.057356
 21
87.01
 31
0.0
 12
260.057356
 22
87.99
 32
0.0
 13
260.043636
 23
87.99
 33
0.0
  0
3DFACE
  8
0
  6
CONTINUOUS
 62
   249
 10
260.057356
 20
87.01
 30
0.0
 11
260.071076
 21
87.01
 31
0.0
 12
260.071076
 22
87.99
 32
0.0
 13
260.057356
 23
87.99
 33
0.0
  0
3DFACE
  8
0
  6
CONTINUOUS
 62
   249
 10
260.071076
 20
87.01
 30
0.0
 11
260.084796
 21
87.01
 31
0.0
 12
260.084796
 22
87.99
 32
0.0
 13
260.071076
 23
87.99
 33
0.0
  0
3DFACE
  8
0
  6
CONTINUOUS
 62
   249
 10
260.084796
 20
87.01
 30
0.0
 11
260.098516
 21
87.01
 31
0.0
 12
260.098516
 22
87.99
 32
0.0
 13
260.084796
 23
87.99
 33
0.0
  0
3DFACE
  8
0
  6
CONTINUOUS
 62
   249
 10
260.098516
 20
87.01
 30
0.0
 11
260.112236
 21
87.01
 31
0.0
 12
260.112236
 22
87.99
 32
0.0
 13
260.098516
 23
87.99
 33
0.0
  0
3DFACE
  8
0
  6
CONTINUOUS
 62
   249
 10
260.112236
 20
87.01
 30
0.0
 11
260.125956
 21
87.01
 31
0.0
 12
260.125956
 22
87.99
 32
0.0
 13
260.112236
 23
87.99
 33
0.0
  0
3DFACE
  8
0
  6
CONTINUOUS
 62
   249
 10
260.125956
 20
87.01
 30
0.0
 11
260.139676
 21
87.01
 31
0.0
 12
260.139676
 22
87.99
 32
0.0
 13
260.125956
 23
87.99
 33
0.0
  0
3DFACE
  8
0
  6
CONTINUOUS
 62
   249
 10
260.139676
 20
87.01
 30
0.0
 11
260.153396
 21
87.01
 31
0.0
 12
260.153396
 22
87.99
 32
0.0
 13
260.139676
 23
87.99
 33
0.0
  0
3DFACE
  8
0
  6
CONTINUOUS
 62
   249
 10
260.153396
 20
87.01
 30
0.0
 11
260.167116
 21
87.01
 31
0.0
 12
260.167116
 22
87.99
 32
0.0
 13
260.153396
 23
87.99
 33
0.0
  0
3DFACE
  8
0
  6
CONTINUOUS
 62
   249
 10
260.167116
 20
87.01
 30
0.0
 11
260.180836
 21
87.01
 31
0.0
 12
260.180836
 22
87.99
 32
0.0
 13
260.167116
 23
87.99
 33
0.0
  0
3DFACE
  8
0
  6
CONTINUOUS
 62
   249
 10
260.180836
 20
87.01
 30
0.0
 11
260.194556
 21
87.01
 31
0.0
 12
260.194556
 22
87.99
 32
0.0
 13
260.180836
 23
87.99
 33
0.0
  0
3DFACE
  8
0
  6
CONTINUOUS
 62
   249
 10
260.194556
 20
87.01
 30
0.0
 11
260.208276
 21
87.01
 31
0.0
 12
260.208276
 22
87.99
 32
0.0
 13
260.194556
 23
87.99
 33
0.0
  0
3DFACE
  8
0
  6
CONTINUOUS
 62
   249
 10
260.208276
 20
87.01
 30
0.0
 11
260.221996
 21
87.01
 31
0.0
 12
260.221996
 22
87.99
 32
0.0
 13
260.208276
 23
87.99
 33
0.0
  0
3DFACE
  8
0
  6
CONTINUOUS
 62
   249
 10
260.221996
 20
87.01
 30
0.0
 11
260.235716
 21
87.01
 31
0.0
 12
260.235716
 22
87.99
 32
0.0
 13
260.221996
 23
87.99
 33
0.0
  0
3DFACE
  8
0
  6
CONTINUOUS
 62
   249
 10
260.235716
 20
87.01
 30
0.0
 11
260.249436
 21
87.01
 31
0.0
 12
260.249436
 22
87.99
 32
0.0
 13
260.235716
 23
87.99
 33
0.0
  0
ARC
  8
0
 62
   249
 10
218.672927
 20
73.436221
 30
0.0
 40
0.869227
 50
32.471192
 51
175.601295
  0
ARC
  8
0
 62
   249
 10
220.139595
 20
74.369554
 30
0.0
 40
0.869227
 50
212.471192
 51
355.601295
  0
LINE
  8
0
  6
CONTINUOUS
 62
   249
 10
233.738678
 20
116.465153
 30
0.0
 11
231.392913
 21
117.800507
 31
0.0
  0
LINE
  8
0
  6
CONTINUOUS
 62
   249
 10
231.392913
 20
117.800507
 30
0.0
 11
233.738678
 21
118.990426
 31
0.0
  0
ARC
  8
0
  6
CONTINUOUS
 62
   249
 10
267.5
 20
107.5
 30
0.0
 40
0.5
 50
180.0
 51
0.0
  0
ARC
  8
0
  6
CONTINUOUS
 62
   249
 10
267.5
 20
107.5
 30
0.0
 40
0.5
 50
0.0
 51
180.0
  0
ARC
  8
0
  6
CONTINUOUS
 62
   249
 10
267.5
 20
122.5
 30
0.0
 40
0.5
 50
180.0
 51
0.0
  0
ARC
  8
0
  6
CONTINUOUS
 62
   249
 10
267.5
 20
122.5
 30
0.0
 40
0.5
 50
0.0
 51
180.0
  0
INSERT
  8
0
  6
CENTER
 62
   249
  2
BLC26
 10
318.546562
 20
192.609534
 30
0.0
 41
1.006225
 42
1.006225
 43
1.006225
  0
LINE
  8
0
  6
CONTINUOUS
 62
   249
 10
307.579622
 20
217.647754
 30
0.0
 11
307.579622
 21
208.497926
 31
0.0
  0
INSERT
  8
0
  6
CONTINUOUS
 62
   249
  2
BLC29
 10
307.712369
 20
210.858491
 30
0.0
 50
270.0
  0
LINE
  8
0
 62
   249
 10
240.0
 20
215.0
 30
0.0
 11
238.480133
 21
215.0
 31
0.0
  0
ARC
  8
0
 62
   249
 10
240.065849
 20
216.25
 30
0.0
 40
1.251733
 50
266.984476
 51
93.015524
  0
LINE
  8
0
 62
   249
 10
240.0
 20
217.5
 30
0.0
 11
238.480133
 21
217.5
 31
0.0
  0
LINE
  8
0
 62
   249
 10
240.0
 20
220.0
 30
0.0
 11
238.480133
 21
220.0
 31
0.0
  0
ARC
  8
0
 62
   249
 10
240.065849
 20
218.75
 30
0.0
 40
1.251733
 50
266.984476
 51
93.015524
  0
LINE
  8
0
 62
   249
 10
245.0
 20
212.5
 30
0.0
 11
247.5
 21
212.5
 31
0.0
  0
ARC
  8
0
 62
   249
 10
244.934151
 20
213.75
 30
0.0
 40
1.251733
 50
86.984476
 51
273.015524
  0
ARC
  8
0
 62
   249
 10
244.934151
 20
216.25
 30
0.0
 40
1.251733
 50
86.984476
 51
273.015524
  0
LINE
  8
0
 62
   249
 10
245.0
 20
215.0
 30
0.0
 11
247.5
 21
215.0
 31
0.0
  0
LINE
  8
0
 62
   249
 10
245.0
 20
217.5
 30
0.0
 11
247.5
 21
217.5
 31
0.0
  0
LINE
  8
0
 62
   249
 10
247.5
 20
217.5
 30
0.0
 11
250.0
 21
217.5
 31
0.0
  0
LINE
  8
0
 62
   249
 10
247.5
 20
212.5
 30
0.0
 11
250.0
 21
212.5
 31
0.0
  0
LINE
  8
0
 62
   249
 10
247.5
 20
217.5
 30
0.0
 11
250.0
 21
217.5
 31
0.0
  0
LINE
  8
0
 62
   249
 10
247.5
 20
222.5
 30
0.0
 11
250.0
 21
222.5
 31
0.0
  0
LINE
  8
0
 62
   249
 10
245.0
 20
222.5
 30
0.0
 11
247.5
 21
222.5
 31
0.0
  0
LINE
  8
0
 62
   249
 10
245.0
 20
220.0
 30
0.0
 11
247.5
 21
220.0
 31
0.0
  0
ARC
  8
0
 62
   249
 10
244.934151
 20
221.25
 30
0.0
 40
1.251733
 50
86.984476
 51
273.015524
  0
ARC
  8
0
 62
   249
 10
244.934151
 20
218.75
 30
0.0
 40
1.251733
 50
86.984476
 51
273.015524
  0
LINE
  8
0
 62
   249
 10
245.0
 20
217.5
 30
0.0
 11
247.5
 21
217.5
 31
0.0
  0
ARC
  8
0
  6
CONTINUOUS
 62
   249
 10
226.879701
 20
178.663282
 30
0.0
 40
0.5
 50
180.0
 51
0.0
  0
ARC
  8
0
  6
CONTINUOUS
 62
   249
 10
226.879701
 20
178.663282
 30
0.0
 40
0.5
 50
0.0
 51
180.0
  0
LINE
  8
0
  6
CONTINUOUS
 62
   249
 10
209.933855
 20
192.829273
 30
0.0
 11
207.588089
 21
194.164627
 31
0.0
  0
LINE
  8
0
  6
CONTINUOUS
 62
   249
 10
207.588089
 20
194.164627
 30
0.0
 11
209.933855
 21
195.354546
 31
0.0
  0
LINE
  8
0
  6
CONTINUOUS
 62
   249
 10
198.994754
 20
189.180611
 30
0.0
 11
201.34052
 21
187.845258
 31
0.0
  0
LINE
  8
0
  6
CONTINUOUS
 62
   249
 10
201.34052
 20
187.845258
 30
0.0
 11
198.994754
 21
186.655338
 31
0.0
  0
LINE
  8
0
  6
CONTINUOUS
 62
   249
 10
209.933855
 20
185.497143
 30
0.0
 11
207.588089
 21
186.832497
 31
0.0
  0
LINE
  8
0
  6
CONTINUOUS
 62
   249
 10
207.588089
 20
186.832497
 30
0.0
 11
209.933855
 21
188.022416
 31
0.0
  0
LINE
  8
0
  6
CONTINUOUS
 62
   249
 10
209.933855
 20
188.974626
 30
0.0
 11
207.588089
 21
190.309979
 31
0.0
  0
LINE
  8
0
  6
CONTINUOUS
 62
   249
 10
207.588089
 20
190.309979
 30
0.0
 11
209.933855
 21
191.499899
 31
0.0
  0
LINE
  8
0
  6
CONTINUOUS
 62
   249
 10
198.994754
 20
209.780513
 30
0.0
 11
201.34052
 21
208.44516
 31
0.0
  0
LINE
  8
0
  6
CONTINUOUS
 62
   249
 10
201.34052
 20
208.44516
 30
0.0
 11
198.994754
 21
207.25524
 31
0.0
  0
LINE
  8
0
  6
CONTINUOUS
 62
   249
 10
209.933855
 20
207.41357
 30
0.0
 11
207.588089
 21
208.748924
 31
0.0
  0
LINE
  8
0
  6
CONTINUOUS
 62
   249
 10
207.588089
 20
208.748924
 30
0.0
 11
209.933855
 21
209.938843
 31
0.0
  0
LINE
  8
0
  6
CONTINUOUS
 62
   249
 10
209.933855
 20
210.699498
 30
0.0
 11
207.588089
 21
212.034851
 31
0.0
  0
LINE
  8
0
  6
CONTINUOUS
 62
   249
 10
207.588089
 20
212.034851
 30
0.0
 11
209.933855
 21
213.22477
 31
0.0
  0
ARC
  8
0
  6
CONTINUOUS
 62
   249
 10
212.5
 20
208.748935
 30
0.0
 40
0.5
 50
180.0
 51
0.0
  0
ARC
  8
0
  6
CONTINUOUS
 62
   249
 10
212.5
 20
208.748935
 30
0.0
 40
0.5
 50
0.0
 51
180.0
  0
ARC
  8
0
  6
CONTINUOUS
 62
   249
 10
215.0
 20
212.034863
 30
0.0
 40
0.5
 50
180.0
 51
0.0
  0
ARC
  8
0
  6
CONTINUOUS
 62
   249
 10
215.0
 20
212.034863
 30
0.0
 40
0.5
 50
0.0
 51
180.0
  0
ARC
  8
0
  6
CONTINUOUS
 62
   249
 10
222.845429
 20
204.725146
 30
0.0
 40
0.5
 50
180.0
 51
0.0
  0
ARC
  8
0
  6
CONTINUOUS
 62
   249
 10
222.845429
 20
204.725146
 30
0.0
 40
0.5
 50
0.0
 51
180.0
  0
LINE
  8
0
 62
   249
 10
240.0
 20
180.0
 30
0.0
 11
238.480133
 21
180.0
 31
0.0
  0
ARC
  8
0
 62
   249
 10
240.065849
 20
181.25
 30
0.0
 40
1.251733
 50
266.984476
 51
93.015524
  0
LINE
  8
0
 62
   249
 10
240.0
 20
182.5
 30
0.0
 11
238.480133
 21
182.5
 31
0.0
  0
LINE
  8
0
 62
   249
 10
240.0
 20
185.0
 30
0.0
 11
238.480133
 21
185.0
 31
0.0
  0
ARC
  8
0
 62
   249
 10
240.065849
 20
183.75
 30
0.0
 40
1.251733
 50
266.984476
 51
93.015524
  0
LINE
  8
0
 62
   249
 10
245.0
 20
177.5
 30
0.0
 11
247.5
 21
177.5
 31
0.0
  0
ARC
  8
0
 62
   249
 10
244.934151
 20
178.75
 30
0.0
 40
1.251733
 50
86.984476
 51
273.015524
  0
ARC
  8
0
 62
   249
 10
244.934151
 20
181.25
 30
0.0
 40
1.251733
 50
86.984476
 51
273.015524
  0
LINE
  8
0
 62
   249
 10
245.0
 20
180.0
 30
0.0
 11
247.5
 21
180.0
 31
0.0
  0
LINE
  8
0
 62
   249
 10
245.0
 20
182.5
 30
0.0
 11
247.5
 21
182.5
 31
0.0
  0
LINE
  8
0
 62
   249
 10
247.5
 20
182.5
 30
0.0
 11
250.0
 21
182.5
 31
0.0
  0
LINE
  8
0
 62
   249
 10
247.5
 20
177.5
 30
0.0
 11
250.0
 21
177.5
 31
0.0
  0
LINE
  8
0
 62
   249
 10
247.5
 20
182.5
 30
0.0
 11
250.0
 21
182.5
 31
0.0
  0
LINE
  8
0
 62
   249
 10
247.5
 20
187.5
 30
0.0
 11
250.0
 21
187.5
 31
0.0
  0
LINE
  8
0
 62
   249
 10
245.0
 20
187.5
 30
0.0
 11
247.5
 21
187.5
 31
0.0
  0
LINE
  8
0
 62
   249
 10
245.0
 20
185.0
 30
0.0
 11
247.5
 21
185.0
 31
0.0
  0
ARC
  8
0
 62
   249
 10
244.934151
 20
186.25
 30
0.0
 40
1.251733
 50
86.984476
 51
273.015524
  0
ARC
  8
0
 62
   249
 10
244.934151
 20
183.75
 30
0.0
 40
1.251733
 50
86.984476
 51
273.015524
  0
LINE
  8
0
 62
   249
 10
245.0
 20
182.5
 30
0.0
 11
247.5
 21
182.5
 31
0.0
  0
LINE
  8
0
 62
   249
 10
240.0
 20
197.5
 30
0.0
 11
238.480133
 21
197.5
 31
0.0
  0
ARC
  8
0
 62
   249
 10
240.065849
 20
198.75
 30
0.0
 40
1.251733
 50
266.984476
 51
93.015524
  0
LINE
  8
0
 62
   249
 10
240.0
 20
200.0
 30
0.0
 11
238.480133
 21
200.0
 31
0.0
  0
LINE
  8
0
 62
   249
 10
240.0
 20
202.5
 30
0.0
 11
238.480133
 21
202.5
 31
0.0
  0
ARC
  8
0
 62
   249
 10
240.065849
 20
201.25
 30
0.0
 40
1.251733
 50
266.984476
 51
93.015524
  0
LINE
  8
0
 62
   249
 10
245.0
 20
195.0
 30
0.0
 11
247.5
 21
195.0
 31
0.0
  0
ARC
  8
0
 62
   249
 10
244.934151
 20
196.25
 30
0.0
 40
1.251733
 50
86.984476
 51
273.015524
  0
ARC
  8
0
 62
   249
 10
244.934151
 20
198.75
 30
0.0
 40
1.251733
 50
86.984476
 51
273.015524
  0
LINE
  8
0
 62
   249
 10
245.0
 20
197.5
 30
0.0
 11
247.5
 21
197.5
 31
0.0
  0
LINE
  8
0
 62
   249
 10
245.0
 20
200.0
 30
0.0
 11
247.5
 21
200.0
 31
0.0
  0
LINE
  8
0
 62
   249
 10
247.5
 20
200.0
 30
0.0
 11
250.0
 21
200.0
 31
0.0
  0
LINE
  8
0
 62
   249
 10
247.5
 20
195.0
 30
0.0
 11
250.0
 21
195.0
 31
0.0
  0
LINE
  8
0
 62
   249
 10
247.5
 20
200.0
 30
0.0
 11
250.0
 21
200.0
 31
0.0
  0
LINE
  8
0
 62
   249
 10
247.5
 20
205.0
 30
0.0
 11
250.0
 21
205.0
 31
0.0
  0
LINE
  8
0
 62
   249
 10
245.0
 20
205.0
 30
0.0
 11
247.5
 21
205.0
 31
0.0
  0
LINE
  8
0
 62
   249
 10
245.0
 20
202.5
 30
0.0
 11
247.5
 21
202.5
 31
0.0
  0
ARC
  8
0
 62
   249
 10
244.934151
 20
203.75
 30
0.0
 40
1.251733
 50
86.984476
 51
273.015524
  0
ARC
  8
0
 62
   249
 10
244.934151
 20
201.25
 30
0.0
 40
1.251733
 50
86.984476
 51
273.015524
  0
LINE
  8
0
 62
   249
 10
245.0
 20
200.0
 30
0.0
 11
247.5
 21
200.0
 31
0.0
  0
LINE
  8
0
  6
CONTINUOUS
 62
   249
 10
233.846416
 20
198.664635
 30
0.0
 11
231.500651
 21
199.999989
 31
0.0
  0
LINE
  8
0
  6
CONTINUOUS
 62
   249
 10
231.500651
 20
199.999989
 30
0.0
 11
233.846416
 21
201.189908
 31
0.0
  0
ARC
  8
0
  6
CONTINUOUS
 62
   249
 10
287.5
 20
170.0
 30
0.0
 40
0.5
 50
180.0
 51
0.0
  0
ARC
  8
0
  6
CONTINUOUS
 62
   249
 10
287.5
 20
170.0
 30
0.0
 40
0.5
 50
0.0
 51
180.0
  0
LINE
  8
0
  6
CONTINUOUS
 62
   249
 10
287.5
 20
153.490022
 30
0.0
 11
287.5
 21
150.844365
 31
0.0
  0
LINE
  8
0
  6
CONTINUOUS
 62
   249
 10
286.896305
 20
149.062812
 30
0.0
 11
288.103695
 21
149.062812
 31
0.0
  0
LINE
  8
0
  6
CONTINUOUS
 62
   249
 10
286.463807
 20
149.950325
 30
0.0
 11
288.527182
 21
149.950325
 31
0.0
  0
LINE
  8
0
  6
CONTINUOUS
 62
   249
 10
285.968237
 20
150.844365
 30
0.0
 11
289.031763
 21
150.844365
 31
0.0
  0
ARC
  8
0
  6
CONTINUOUS
 62
   249
 10
275.0
 20
137.5
 30
0.0
 40
0.5
 50
180.0
 51
0.0
  0
ARC
  8
0
  6
CONTINUOUS
 62
   249
 10
275.0
 20
137.5
 30
0.0
 40
0.5
 50
0.0
 51
180.0
  0
LINE
  8
0
  6
CONTINUOUS
 62
   249
 10
280.0
 20
171.629775
 30
0.0
 11
280.0
 21
168.984118
 31
0.0
  0
LINE
  8
0
  6
CONTINUOUS
 62
   249
 10
279.396305
 20
167.202565
 30
0.0
 11
280.603695
 21
167.202565
 31
0.0
  0
LINE
  8
0
  6
CONTINUOUS
 62
   249
 10
278.963807
 20
168.090078
 30
0.0
 11
281.027182
 21
168.090078
 31
0.0
  0
LINE
  8
0
  6
CONTINUOUS
 62
   249
 10
278.468237
 20
168.984118
 30
0.0
 11
281.531763
 21
168.984118
 31
0.0
  0
ARC
  8
0
  6
CONTINUOUS
 62
   249
 10
267.5
 20
177.5
 30
0.0
 40
0.5
 50
180.0
 51
0.0
  0
ARC
  8
0
  6
CONTINUOUS
 62
   249
 10
267.5
 20
177.5
 30
0.0
 40
0.5
 50
0.0
 51
180.0
  0
ARC
  8
0
  6
CONTINUOUS
 62
   249
 10
280.0
 20
182.689984
 30
0.0
 40
0.5
 50
180.0
 51
0.0
  0
ARC
  8
0
  6
CONTINUOUS
 62
   249
 10
280.0
 20
182.689984
 30
0.0
 40
0.5
 50
0.0
 51
180.0
  0
ARC
  8
0
  6
CONTINUOUS
 62
   249
 10
280.0
 20
177.5
 30
0.0
 40
0.5
 50
180.0
 51
0.0
  0
ARC
  8
0
  6
CONTINUOUS
 62
   249
 10
280.0
 20
177.5
 30
0.0
 40
0.5
 50
0.0
 51
180.0
  0
ARC
  8
0
  6
CONTINUOUS
 62
   249
 10
267.5
 20
195.0
 30
0.0
 40
0.5
 50
180.0
 51
0.0
  0
ARC
  8
0
  6
CONTINUOUS
 62
   249
 10
267.5
 20
195.0
 30
0.0
 40
0.5
 50
0.0
 51
180.0
  0
ARC
  8
0
  6
CONTINUOUS
 62
   249
 10
280.0
 20
200.189992
 30
0.0
 40
0.5
 50
180.0
 51
0.0
  0
ARC
  8
0
  6
CONTINUOUS
 62
   249
 10
280.0
 20
200.189992
 30
0.0
 40
0.5
 50
0.0
 51
180.0
  0
INSERT
  8
0
  6
CENTER
 62
   249
  2
BLC26
 10
296.410526
 20
185.080446
 30
0.0
 41
1.006225
 42
1.006225
 50
180.0
 43
1.006225
  0
INSERT
  8
0
  6
CENTER
 62
   249
  2
BLC26
 10
291.410524
 20
202.580448
 30
0.0
 41
1.006225
 42
1.006225
 50
180.0
 43
1.006225
  0
LINE
  8
0
  6
CONTINUOUS
 62
   249
 10
209.933855
 20
214.358234
 30
0.0
 11
207.588089
 21
215.693588
 31
0.0
  0
LINE
  8
0
  6
CONTINUOUS
 62
   249
 10
207.588089
 20
215.693588
 30
0.0
 11
209.933855
 21
216.883507
 31
0.0
  0
INSERT
  8
0
  6
CENTER
 62
   249
  2
BLC26
 10
286.410524
 20
220.080448
 30
0.0
 41
1.006225
 42
1.006225
 50
180.0
 43
1.006225
  0
ARC
  8
0
  6
CONTINUOUS
 62
   249
 10
295.0
 20
247.5
 30
0.0
 40
0.5
 50
180.0
 51
0.0
  0
ARC
  8
0
  6
CONTINUOUS
 62
   249
 10
295.0
 20
247.5
 30
0.0
 40
0.5
 50
0.0
 51
180.0
  0
ARC
  8
0
  6
CONTINUOUS
 62
   249
 10
290.0
 20
252.5
 30
0.0
 40
0.5
 50
180.0
 51
0.0
  0
ARC
  8
0
  6
CONTINUOUS
 62
   249
 10
290.0
 20
252.5
 30
0.0
 40
0.5
 50
0.0
 51
180.0
  0
ARC
  8
0
  6
CONTINUOUS
 62
   249
 10
285.0
 20
257.5
 30
0.0
 40
0.5
 50
180.0
 51
0.0
  0
ARC
  8
0
  6
CONTINUOUS
 62
   249
 10
285.0
 20
257.5
 30
0.0
 40
0.5
 50
0.0
 51
180.0
  0
INSERT
  8
0
  6
CENTER
 62
   249
  2
BLC26
 10
333.546562
 20
192.609534
 30
0.0
 41
1.006225
 42
1.006225
 43
1.006225
  0
INSERT
  8
0
  6
CENTER
 62
   249
  2
BLC26
 10
326.046562
 20
192.609534
 30
0.0
 41
1.006225
 42
1.006225
 43
1.006225
  0
LINE
  8
0
  6
CONTINUOUS
 62
   249
 10
325.781032
 20
185.0
 30
0.0
 11
328.426689
 21
185.0
 31
0.0
  0
LINE
  8
0
  6
CONTINUOUS
 62
   249
 10
330.208243
 20
184.396305
 30
0.0
 11
330.208243
 21
185.603695
 31
0.0
  0
LINE
  8
0
  6
CONTINUOUS
 62
   249
 10
329.320729
 20
183.963807
 30
0.0
 11
329.320729
 21
186.027182
 31
0.0
  0
LINE
  8
0
  6
CONTINUOUS
 62
   249
 10
328.426689
 20
183.468237
 30
0.0
 11
328.426689
 21
186.531763
 31
0.0
  0
LINE
  8
0
  6
CONTINUOUS
 62
   249
 10
341.509978
 20
190.19074
 30
0.0
 11
344.155635
 21
190.19074
 31
0.0
  0
LINE
  8
0
  6
CONTINUOUS
 62
   249
 10
345.937188
 20
189.587045
 30
0.0
 11
345.937188
 21
190.794435
 31
0.0
  0
LINE
  8
0
  6
CONTINUOUS
 62
   249
 10
345.049675
 20
189.154547
 30
0.0
 11
345.049675
 21
191.217922
 31
0.0
  0
LINE
  8
0
  6
CONTINUOUS
 62
   249
 10
344.155635
 20
188.658977
 30
0.0
 11
344.155635
 21
191.722503
 31
0.0
  0
ARC
  8
0
  6
CONTINUOUS
 62
   249
 10
327.5
 20
252.5
 30
0.0
 40
0.5
 50
180.0
 51
0.0
  0
ARC
  8
0
  6
CONTINUOUS
 62
   249
 10
327.5
 20
252.5
 30
0.0
 40
0.5
 50
0.0
 51
180.0
  0
ARC
  8
0
  6
CONTINUOUS
 62
   249
 10
335.0
 20
247.5
 30
0.0
 40
0.5
 50
180.0
 51
0.0
  0
ARC
  8
0
  6
CONTINUOUS
 62
   249
 10
335.0
 20
247.5
 30
0.0
 40
0.5
 50
0.0
 51
180.0
  0
LINE
  8
0
  6
CONTINUOUS
 62
   249
 10
375.42805
 20
222.727589
 30
0.0
 11
377.276183
 21
223.053464
 31
0.0
  0
LINE
  8
0
  6
CONTINUOUS
 62
   249
 10
375.42805
 20
222.758052
 30
0.0
 11
377.20477
 21
223.071335
 31
0.0
  0
LINE
  8
0
  6
CONTINUOUS
 62
   249
 10
375.42805
 20
222.788514
 30
0.0
 11
377.133358
 21
223.089206
 31
0.0
  0
LINE
  8
0
  6
CONTINUOUS
 62
   249
 10
375.42805
 20
222.818977
 30
0.0
 11
377.061946
 21
223.107077
 31
0.0
  0
LINE
  8
0
  6
CONTINUOUS
 62
   249
 10
375.42805
 20
222.84944
 30
0.0
 11
376.990534
 21
223.124948
 31
0.0
  0
LINE
  8
0
  6
CONTINUOUS
 62
   249
 10
375.42805
 20
222.879903
 30
0.0
 11
376.919122
 21
223.142819
 31
0.0
  0
LINE
  8
0
  6
CONTINUOUS
 62
   249
 10
375.42805
 20
222.910366
 30
0.0
 11
376.84771
 21
223.16069
 31
0.0
  0
LINE
  8
0
  6
CONTINUOUS
 62
   249
 10
375.42805
 20
222.940828
 30
0.0
 11
376.776298
 21
223.178561
 31
0.0
  0
LINE
  8
0
  6
CONTINUOUS
 62
   249
 10
375.42805
 20
222.971291
 30
0.0
 11
376.704886
 21
223.196432
 31
0.0
  0
LINE
  8
0
  6
CONTINUOUS
 62
   249
 10
375.42805
 20
223.001754
 30
0.0
 11
376.633474
 21
223.214303
 31
0.0
  0
LINE
  8
0
  6
CONTINUOUS
 62
   249
 10
375.42805
 20
223.032217
 30
0.0
 11
376.562061
 21
223.232174
 31
0.0
  0
LINE
  8
0
  6
CONTINUOUS
 62
   249
 10
375.42805
 20
223.06268
 30
0.0
 11
376.490649
 21
223.250045
 31
0.0
  0
LINE
  8
0
  6
CONTINUOUS
 62
   249
 10
375.42805
 20
223.093142
 30
0.0
 11
376.419237
 21
223.267915
 31
0.0
  0
LINE
  8
0
  6
CONTINUOUS
 62
   249
 10
375.42805
 20
223.123605
 30
0.0
 11
376.347825
 21
223.285786
 31
0.0
  0
LINE
  8
0
  6
CONTINUOUS
 62
   249
 10
375.42805
 20
223.154068
 30
0.0
 11
376.276413
 21
223.303657
 31
0.0
  0
LINE
  8
0
  6
CONTINUOUS
 62
   249
 10
375.42805
 20
223.184531
 30
0.0
 11
376.205001
 21
223.321528
 31
0.0
  0
LINE
  8
0
  6
CONTINUOUS
 62
   249
 10
375.42805
 20
223.214994
 30
0.0
 11
376.133589
 21
223.339399
 31
0.0
  0
LINE
  8
0
  6
CONTINUOUS
 62
   249
 10
375.42805
 20
223.245456
 30
0.0
 11
376.062177
 21
223.35727
 31
0.0
  0
LINE
  8
0
  6
CONTINUOUS
 62
   249
 10
375.42805
 20
223.275919
 30
0.0
 11
375.990765
 21
223.375141
 31
0.0
  0
LINE
  8
0
  6
CONTINUOUS
 62
   249
 10
375.42805
 20
223.306382
 30
0.0
 11
375.919352
 21
223.393012
 31
0.0
  0
LINE
  8
0
  6
CONTINUOUS
 62
   249
 10
375.42805
 20
223.336845
 30
0.0
 11
375.84794
 21
223.410883
 31
0.0
  0
LINE
  8
0
  6
CONTINUOUS
 62
   249
 10
375.42805
 20
223.367308
 30
0.0
 11
375.776528
 21
223.428754
 31
0.0
  0
LINE
  8
0
  6
CONTINUOUS
 62
   249
 10
375.42805
 20
223.39777
 30
0.0
 11
375.705116
 21
223.446625
 31
0.0
  0
LINE
  8
0
  6
CONTINUOUS
 62
   249
 10
375.42805
 20
223.428233
 30
0.0
 11
375.633704
 21
223.464496
 31
0.0
  0
LINE
  8
0
  6
CONTINUOUS
 62
   249
 10
375.42805
 20
223.458696
 30
0.0
 11
375.562292
 21
223.482367
 31
0.0
  0
LINE
  8
0
  6
CONTINUOUS
 62
   249
 10
375.42805
 20
223.489159
 30
0.0
 11
375.49088
 21
223.500237
 31
0.0
  0
LINE
  8
0
  6
CONTINUOUS
 62
   249
 10
375.42805
 20
222.697126
 30
0.0
 11
377.347595
 21
223.035594
 31
0.0
  0
LINE
  8
0
  6
CONTINUOUS
 62
   249
 10
375.42805
 20
222.666663
 30
0.0
 11
377.419007
 21
223.017723
 31
0.0
  0
LINE
  8
0
  6
CONTINUOUS
 62
   249
 10
375.42805
 20
222.6362
 30
0.0
 11
377.490419
 21
222.999852
 31
0.0
  0
LINE
  8
0
  6
CONTINUOUS
 62
   249
 10
375.42805
 20
222.605738
 30
0.0
 11
377.561831
 21
222.981981
 31
0.0
  0
LINE
  8
0
  6
CONTINUOUS
 62
   249
 10
375.42805
 20
222.575275
 30
0.0
 11
377.633243
 21
222.96411
 31
0.0
  0
LINE
  8
0
  6
CONTINUOUS
 62
   249
 10
375.42805
 20
222.544812
 30
0.0
 11
377.667443
 21
222.939677
 31
0.0
  0
LINE
  8
0
  6
CONTINUOUS
 62
   249
 10
375.42805
 20
222.514349
 30
0.0
 11
377.255358
 21
222.836553
 31
0.0
  0
LINE
  8
0
  6
CONTINUOUS
 62
   249
 10
375.42805
 20
222.483886
 30
0.0
 11
376.843273
 21
222.733428
 31
0.0
  0
LINE
  8
0
  6
CONTINUOUS
 62
   249
 10
375.42805
 20
222.453424
 30
0.0
 11
376.431187
 21
222.630304
 31
0.0
  0
LINE
  8
0
  6
CONTINUOUS
 62
   249
 10
375.42805
 20
222.422961
 30
0.0
 11
376.019102
 21
222.527179
 31
0.0
  0
LINE
  8
0
  6
CONTINUOUS
 62
   249
 10
375.42805
 20
222.392498
 30
0.0
 11
375.607017
 21
222.424055
 31
0.0
  0
LINE
  8
0
  6
CONTINUOUS
 62
   249
 10
377.626025
 20
229.792354
 30
0.0
 11
379.971791
 21
228.457
 31
0.0
  0
LINE
  8
0
  6
CONTINUOUS
 62
   249
 10
379.971791
 20
228.457
 30
0.0
 11
377.626025
 21
227.267081
 31
0.0
  0
LINE
  8
0
  6
CONTINUOUS
 62
   249
 10
375.42805
 20
240.27423
 30
0.0
 11
377.276183
 21
240.600106
 31
0.0
  0
LINE
  8
0
  6
CONTINUOUS
 62
   249
 10
375.42805
 20
240.304693
 30
0.0
 11
377.20477
 21
240.617977
 31
0.0
  0
LINE
  8
0
  6
CONTINUOUS
 62
   249
 10
375.42805
 20
240.335156
 30
0.0
 11
377.133358
 21
240.635848
 31
0.0
  0
LINE
  8
0
  6
CONTINUOUS
 62
   249
 10
375.42805
 20
240.365619
 30
0.0
 11
377.061946
 21
240.653719
 31
0.0
  0
LINE
  8
0
  6
CONTINUOUS
 62
   249
 10
375.42805
 20
240.396081
 30
0.0
 11
376.990534
 21
240.671589
 31
0.0
  0
LINE
  8
0
  6
CONTINUOUS
 62
   249
 10
375.42805
 20
240.426544
 30
0.0
 11
376.919122
 21
240.68946
 31
0.0
  0
LINE
  8
0
  6
CONTINUOUS
 62
   249
 10
375.42805
 20
240.457007
 30
0.0
 11
376.84771
 21
240.707331
 31
0.0
  0
LINE
  8
0
  6
CONTINUOUS
 62
   249
 10
375.42805
 20
240.48747
 30
0.0
 11
376.776298
 21
240.725202
 31
0.0
  0
LINE
  8
0
  6
CONTINUOUS
 62
   249
 10
375.42805
 20
240.517932
 30
0.0
 11
376.704886
 21
240.743073
 31
0.0
  0
LINE
  8
0
  6
CONTINUOUS
 62
   249
 10
375.42805
 20
240.548395
 30
0.0
 11
376.633474
 21
240.760944
 31
0.0
  0
LINE
  8
0
  6
CONTINUOUS
 62
   249
 10
375.42805
 20
240.578858
 30
0.0
 11
376.562061
 21
240.778815
 31
0.0
  0
LINE
  8
0
  6
CONTINUOUS
 62
   249
 10
375.42805
 20
240.609321
 30
0.0
 11
376.490649
 21
240.796686
 31
0.0
  0
LINE
  8
0
  6
CONTINUOUS
 62
   249
 10
375.42805
 20
240.639784
 30
0.0
 11
376.419237
 21
240.814557
 31
0.0
  0
LINE
  8
0
  6
CONTINUOUS
 62
   249
 10
375.42805
 20
240.670246
 30
0.0
 11
376.347825
 21
240.832428
 31
0.0
  0
LINE
  8
0
  6
CONTINUOUS
 62
   249
 10
375.42805
 20
240.700709
 30
0.0
 11
376.276413
 21
240.850299
 31
0.0
  0
LINE
  8
0
  6
CONTINUOUS
 62
   249
 10
375.42805
 20
240.731172
 30
0.0
 11
376.205001
 21
240.86817
 31
0.0
  0
LINE
  8
0
  6
CONTINUOUS
 62
   249
 10
375.42805
 20
240.761635
 30
0.0
 11
376.133589
 21
240.88604
 31
0.0
  0
LINE
  8
0
  6
CONTINUOUS
 62
   249
 10
375.42805
 20
240.792098
 30
0.0
 11
376.062177
 21
240.903911
 31
0.0
  0
LINE
  8
0
  6
CONTINUOUS
 62
   249
 10
375.42805
 20
240.82256
 30
0.0
 11
375.990765
 21
240.921782
 31
0.0
  0
LINE
  8
0
  6
CONTINUOUS
 62
   249
 10
375.42805
 20
240.853023
 30
0.0
 11
375.919352
 21
240.939653
 31
0.0
  0
LINE
  8
0
  6
CONTINUOUS
 62
   249
 10
375.42805
 20
240.883486
 30
0.0
 11
375.84794
 21
240.957524
 31
0.0
  0
LINE
  8
0
  6
CONTINUOUS
 62
   249
 10
375.42805
 20
240.913949
 30
0.0
 11
375.776528
 21
240.975395
 31
0.0
  0
LINE
  8
0
  6
CONTINUOUS
 62
   249
 10
375.42805
 20
240.944412
 30
0.0
 11
375.705116
 21
240.993266
 31
0.0
  0
LINE
  8
0
  6
CONTINUOUS
 62
   249
 10
375.42805
 20
240.974874
 30
0.0
 11
375.633704
 21
241.011137
 31
0.0
  0
LINE
  8
0
  6
CONTINUOUS
 62
   249
 10
375.42805
 20
241.005337
 30
0.0
 11
375.562292
 21
241.029008
 31
0.0
  0
LINE
  8
0
  6
CONTINUOUS
 62
   249
 10
375.42805
 20
241.0358
 30
0.0
 11
375.49088
 21
241.046879
 31
0.0
  0
LINE
  8
0
  6
CONTINUOUS
 62
   249
 10
375.42805
 20
240.243767
 30
0.0
 11
377.347595
 21
240.582235
 31
0.0
  0
LINE
  8
0
  6
CONTINUOUS
 62
   249
 10
375.42805
 20
240.213305
 30
0.0
 11
377.419007
 21
240.564364
 31
0.0
  0
LINE
  8
0
  6
CONTINUOUS
 62
   249
 10
375.42805
 20
240.182842
 30
0.0
 11
377.490419
 21
240.546493
 31
0.0
  0
LINE
  8
0
  6
CONTINUOUS
 62
   249
 10
375.42805
 20
240.152379
 30
0.0
 11
377.561831
 21
240.528622
 31
0.0
  0
LINE
  8
0
  6
CONTINUOUS
 62
   249
 10
375.42805
 20
240.121916
 30
0.0
 11
377.633243
 21
240.510751
 31
0.0
  0
LINE
  8
0
  6
CONTINUOUS
 62
   249
 10
375.42805
 20
240.091453
 30
0.0
 11
377.667443
 21
240.486319
 31
0.0
  0
LINE
  8
0
  6
CONTINUOUS
 62
   249
 10
375.42805
 20
240.060991
 30
0.0
 11
377.255358
 21
240.383194
 31
0.0
  0
LINE
  8
0
  6
CONTINUOUS
 62
   249
 10
375.42805
 20
240.030528
 30
0.0
 11
376.843273
 21
240.28007
 31
0.0
  0
LINE
  8
0
  6
CONTINUOUS
 62
   249
 10
375.42805
 20
240.000065
 30
0.0
 11
376.431187
 21
240.176945
 31
0.0
  0
LINE
  8
0
  6
CONTINUOUS
 62
   249
 10
375.42805
 20
239.969602
 30
0.0
 11
376.019102
 21
240.073821
 31
0.0
  0
LINE
  8
0
  6
CONTINUOUS
 62
   249
 10
375.42805
 20
239.939139
 30
0.0
 11
375.607017
 21
239.970696
 31
0.0
  0
LINE
  8
0
  6
CONTINUOUS
 62
   249
 10
377.626025
 20
247.338995
 30
0.0
 11
379.971791
 21
246.003642
 31
0.0
  0
LINE
  8
0
  6
CONTINUOUS
 62
   249
 10
379.971791
 20
246.003642
 30
0.0
 11
377.626025
 21
244.813723
 31
0.0
  0
ARC
  8
0
  6
CONTINUOUS
 62
   249
 10
320.0
 20
257.5
 30
0.0
 40
0.5
 50
180.0
 51
0.0
  0
ARC
  8
0
  6
CONTINUOUS
 62
   249
 10
320.0
 20
257.5
 30
0.0
 40
0.5
 50
0.0
 51
180.0
  0
ENDSEC
  0
EOF
